  0
SECTION
  2
HEADER
  9
$ACADVER
  1
AC1021
  9
$ACADMAINTVER
 70
    25
  9
$DWGCODEPAGE
  3
ANSI_1252
  9
$INSBASE
 10
0.0
 20
0.0
 30
0.0
  9
$EXTMIN
 10
19.7213
 20
-114.9322
 30
0.0
  9
$EXTMAX
 10
195.9783
 20
131.8985
 30
0.0
  9
$LIMMIN
 10
0.0
 20
0.0
  9
$LIMMAX
 10
12.0
 20
9.0
  9
$ORTHOMODE
 70
     0
  9
$REGENMODE
 70
     1
  9
$FILLMODE
 70
     1
  9
$QTEXTMODE
 70
     0
  9
$MIRRTEXT
 70
     1
  9
$LTSCALE
 40
1.0
  9
$ATTMODE
 70
     1
  9
$TEXTSIZE
 40
0.2
  9
$TRACEWID
 40
0.05
  9
$TEXTSTYLE
  7
Standard
  9
$CLAYER
  8
0
  9
$CELTYPE
  6
ByLayer
  9
$CECOLOR
 62
   256
  9
$CELTSCALE
 40
1.0
  9
$DISPSILH
 70
     0
  9
$DIMSCALE
 40
1.0
  9
$DIMASZ
 40
0.18
  9
$DIMEXO
 40
0.0625
  9
$DIMDLI
 40
0.38
  9
$DIMRND
 40
0.0
  9
$DIMDLE
 40
0.0
  9
$DIMEXE
 40
0.18
  9
$DIMTP
 40
0.0
  9
$DIMTM
 40
0.0
  9
$DIMTXT
 40
0.18
  9
$DIMCEN
 40
0.09
  9
$DIMTSZ
 40
0.0
  9
$DIMTOL
 70
     0
  9
$DIMLIM
 70
     0
  9
$DIMTIH
 70
     1
  9
$DIMTOH
 70
     1
  9
$DIMSE1
 70
     0
  9
$DIMSE2
 70
     0
  9
$DIMTAD
 70
     0
  9
$DIMZIN
 70
     0
  9
$DIMBLK
  1

  9
$DIMASO
 70
     1
  9
$DIMSHO
 70
     1
  9
$DIMPOST
  1

  9
$DIMAPOST
  1

  9
$DIMALT
 70
     0
  9
$DIMALTD
 70
     2
  9
$DIMALTF
 40
25.4
  9
$DIMLFAC
 40
1.0
  9
$DIMTOFL
 70
     0
  9
$DIMTVP
 40
0.0
  9
$DIMTIX
 70
     0
  9
$DIMSOXD
 70
     0
  9
$DIMSAH
 70
     0
  9
$DIMBLK1
  1

  9
$DIMBLK2
  1

  9
$DIMSTYLE
  2
Standard
  9
$DIMCLRD
 70
     0
  9
$DIMCLRE
 70
     0
  9
$DIMCLRT
 70
     0
  9
$DIMTFAC
 40
1.0
  9
$DIMGAP
 40
0.09
  9
$DIMJUST
 70
     0
  9
$DIMSD1
 70
     0
  9
$DIMSD2
 70
     0
  9
$DIMTOLJ
 70
     1
  9
$DIMTZIN
 70
     0
  9
$DIMALTZ
 70
     0
  9
$DIMALTTZ
 70
     0
  9
$DIMUPT
 70
     0
  9
$DIMDEC
 70
     4
  9
$DIMTDEC
 70
     4
  9
$DIMALTU
 70
     2
  9
$DIMALTTD
 70
     2
  9
$DIMTXSTY
  7
Standard
  9
$DIMAUNIT
 70
     0
  9
$DIMADEC
 70
     0
  9
$DIMALTRND
 40
0.0
  9
$DIMAZIN
 70
     0
  9
$DIMDSEP
 70
    46
  9
$DIMATFIT
 70
     3
  9
$DIMFRAC
 70
     0
  9
$DIMLDRBLK
  1

  9
$DIMLUNIT
 70
     2
  9
$DIMLWD
 70
    -2
  9
$DIMLWE
 70
    -2
  9
$DIMTMOVE
 70
     0
  9
$DIMFXL
 40
1.0
  9
$DIMFXLON
 70
     0
  9
$DIMJOGANG
 40
0.7853981633974483
  9
$DIMTFILL
 70
     0
  9
$DIMTFILLCLR
 70
     0
  9
$DIMARCSYM
 70
     0
  9
$DIMLTYPE
  6

  9
$DIMLTEX1
  6

  9
$DIMLTEX2
  6

  9
$LUNITS
 70
     2
  9
$LUPREC
 70
     4
  9
$SKETCHINC
 40
0.1
  9
$FILLETRAD
 40
0.5
  9
$AUNITS
 70
     0
  9
$AUPREC
 70
     0
  9
$MENU
  1
.
  9
$ELEVATION
 40
0.0
  9
$PELEVATION
 40
0.0
  9
$THICKNESS
 40
0.0
  9
$LIMCHECK
 70
     0
  9
$CHAMFERA
 40
0.5
  9
$CHAMFERB
 40
0.5
  9
$CHAMFERC
 40
1.0
  9
$CHAMFERD
 40
0.0
  9
$SKPOLY
 70
     0
  9
$TDCREATE
 40
2458492.772280775
  9
$TDUCREATE
 40
2458492.772280775
  9
$TDUPDATE
 40
2458492.772280903
  9
$TDUUPDATE
 40
2458492.772280903
  9
$TDINDWG
 40
0.0000000116
  9
$TDUSRTIMER
 40
0.0000000116
  9
$USRTIMER
 70
     1
  9
$ANGBASE
 50
0.0
  9
$ANGDIR
 70
     0
  9
$PDMODE
 70
     0
  9
$PDSIZE
 40
0.0
  9
$PLINEWID
 40
0.0
  9
$SPLFRAME
 70
     0
  9
$SPLINETYPE
 70
     6
  9
$SPLINESEGS
 70
     8
  9
$HANDSEED
  5
C2
  9
$SURFTAB1
 70
     6
  9
$SURFTAB2
 70
     6
  9
$SURFTYPE
 70
     6
  9
$SURFU
 70
     6
  9
$SURFV
 70
     6
  9
$UCSBASE
  2

  9
$UCSNAME
  2

  9
$UCSORG
 10
0.0
 20
0.0
 30
0.0
  9
$UCSXDIR
 10
1.0
 20
0.0
 30
0.0
  9
$UCSYDIR
 10
0.0
 20
1.0
 30
0.0
  9
$UCSORTHOREF
  2

  9
$UCSORTHOVIEW
 70
     0
  9
$UCSORGTOP
 10
0.0
 20
0.0
 30
0.0
  9
$UCSORGBOTTOM
 10
0.0
 20
0.0
 30
0.0
  9
$UCSORGLEFT
 10
0.0
 20
0.0
 30
0.0
  9
$UCSORGRIGHT
 10
0.0
 20
0.0
 30
0.0
  9
$UCSORGFRONT
 10
0.0
 20
0.0
 30
0.0
  9
$UCSORGBACK
 10
0.0
 20
0.0
 30
0.0
  9
$PUCSBASE
  2

  9
$PUCSNAME
  2

  9
$PUCSORG
 10
0.0
 20
0.0
 30
0.0
  9
$PUCSXDIR
 10
1.0
 20
0.0
 30
0.0
  9
$PUCSYDIR
 10
0.0
 20
1.0
 30
0.0
  9
$PUCSORTHOREF
  2

  9
$PUCSORTHOVIEW
 70
     0
  9
$PUCSORGTOP
 10
0.0
 20
0.0
 30
0.0
  9
$PUCSORGBOTTOM
 10
0.0
 20
0.0
 30
0.0
  9
$PUCSORGLEFT
 10
0.0
 20
0.0
 30
0.0
  9
$PUCSORGRIGHT
 10
0.0
 20
0.0
 30
0.0
  9
$PUCSORGFRONT
 10
0.0
 20
0.0
 30
0.0
  9
$PUCSORGBACK
 10
0.0
 20
0.0
 30
0.0
  9
$USERI1
 70
     0
  9
$USERI2
 70
     0
  9
$USERI3
 70
     0
  9
$USERI4
 70
     0
  9
$USERI5
 70
     0
  9
$USERR1
 40
0.0
  9
$USERR2
 40
0.0
  9
$USERR3
 40
0.0
  9
$USERR4
 40
0.0
  9
$USERR5
 40
0.0
  9
$WORLDVIEW
 70
     1
  9
$SHADEDGE
 70
     3
  9
$SHADEDIF
 70
    70
  9
$TILEMODE
 70
     1
  9
$MAXACTVP
 70
    64
  9
$PINSBASE
 10
0.0
 20
0.0
 30
0.0
  9
$PLIMCHECK
 70
     0
  9
$PEXTMIN
 10
1.000000000000000E+20
 20
1.000000000000000E+20
 30
1.000000000000000E+20
  9
$PEXTMAX
 10
-1.000000000000000E+20
 20
-1.000000000000000E+20
 30
-1.000000000000000E+20
  9
$PLIMMIN
 10
0.0
 20
0.0
  9
$PLIMMAX
 10
12.0
 20
9.0
  9
$UNITMODE
 70
     0
  9
$VISRETAIN
 70
     1
  9
$PLINEGEN
 70
     0
  9
$PSLTSCALE
 70
     1
  9
$TREEDEPTH
 70
  3020
  9
$CMLSTYLE
  2
Standard
  9
$CMLJUST
 70
     0
  9
$CMLSCALE
 40
1.0
  9
$PROXYGRAPHICS
 70
     1
  9
$MEASUREMENT
 70
     0
  9
$CELWEIGHT
370
    -1
  9
$ENDCAPS
280
     0
  9
$JOINSTYLE
280
     0
  9
$LWDISPLAY
290
     0
  9
$INSUNITS
 70
     4
  9
$HYPERLINKBASE
  1

  9
$STYLESHEET
  1

  9
$XEDIT
290
     1
  9
$CEPSNTYPE
380
     0
  9
$PSTYLEMODE
290
     1
  9
$FINGERPRINTGUID
  2
{86007A44-A895-40F5-9846-282E957B8B28}
  9
$VERSIONGUID
  2
{FAEB1C32-E019-11D5-929B-00C0DF256EC4}
  9
$EXTNAMES
290
     1
  9
$PSVPSCALE
 40
0.0
  9
$OLESTARTUP
290
     0
  9
$SORTENTS
280
   127
  9
$INDEXCTL
280
     0
  9
$HIDETEXT
280
     1
  9
$XCLIPFRAME
290
     0
  9
$HALOGAP
280
     0
  9
$OBSCOLOR
 70
   257
  9
$OBSLTYPE
280
     0
  9
$INTERSECTIONDISPLAY
280
     0
  9
$INTERSECTIONCOLOR
 70
   257
  9
$DIMASSOC
280
     2
  9
$PROJECTNAME
  1

  9
$CAMERADISPLAY
290
     0
  9
$LENSLENGTH
 40
50.0
  9
$CAMERAHEIGHT
 40
0.0
  9
$STEPSPERSEC
 40
2.0
  9
$STEPSIZE
 40
6.0
  9
$3DDWFPREC
 40
2.0
  9
$PSOLWIDTH
 40
0.25
  9
$PSOLHEIGHT
 40
4.0
  9
$LOFTANG1
 40
1.570796326794897
  9
$LOFTANG2
 40
1.570796326794897
  9
$LOFTMAG1
 40
0.0
  9
$LOFTMAG2
 40
0.0
  9
$LOFTPARAM
 70
     7
  9
$LOFTNORMALS
280
     1
  9
$LATITUDE
 40
37.795
  9
$LONGITUDE
 40
-122.394
  9
$NORTHDIRECTION
 40
0.0
  9
$TIMEZONE
 70
 -8000
  9
$LIGHTGLYPHDISPLAY
280
     1
  9
$TILEMODELIGHTSYNCH
280
     1
  9
$SOLIDHIST
280
     1
  9
$SHOWHIST
280
     1
  9
$DWFFRAME
280
     2
  9
$DGNFRAME
280
     2
  9
$REALWORLDSCALE
290
     1
  9
$INTERFERECOLOR
 62
   256
  9
$CSHADOW
280
     0
  9
$SHADOWPLANELOCATION
 40
0.0
  0
ENDSEC
  0
SECTION
  2
CLASSES
  0
CLASS
  1
ACDBDICTIONARYWDFLT
  2
AcDbDictionaryWithDefault
  3
ObjectDBX Classes
 90
        0
 91
        4
280
     0
281
     0
  0
CLASS
  1
VISUALSTYLE
  2
AcDbVisualStyle
  3
ObjectDBX Classes
 90
     4095
 91
        4
280
     0
281
     0
  0
CLASS
  1
MATERIAL
  2
AcDbMaterial
  3
ObjectDBX Classes
 90
     1153
 91
        4
280
     0
281
     0
  0
ENDSEC
  0
SECTION
  2
TABLES
  0
TABLE
  2
VPORT
  5
8
330
0
100
AcDbSymbolTable
 70
     1
  0
VPORT
  5
29
330
8
100
AcDbSymbolTableRecord
100
AcDbViewportTableRecord
  2
*Active
 70
     0
 10
0.0
 20
0.0
 11
1.0
 21
1.0
 12
10.42990654205607
 22
4.5
 13
0.0
 23
0.0
 14
0.5
 24
0.5
 15
0.5
 25
0.5
 16
0.0
 26
0.0
 36
1.0
 17
0.0
 27
0.0
 37
0.0
 40
9.0
 41
1.972972972850329
 42
50.0
 43
0.0
 44
0.0
 50
0.0
 51
0.0
 71
     0
 72
   100
 73
     1
 74
     3
 75
     0
 76
     0
 77
     0
 78
     0
281
     0
 65
     1
110
0.0
120
0.0
130
0.0
111
1.0
121
0.0
131
0.0
112
0.0
122
1.0
132
0.0
 79
     0
146
0.0
 60
     3
 61
     5
292
     1
282
     1
141
0.0
142
0.0
 63
   250
  0
ENDTAB
  0
TABLE
  2
LTYPE
  5
5
330
0
100
AcDbSymbolTable
 70
     1
  0
LTYPE
  5
14
330
5
100
AcDbSymbolTableRecord
100
AcDbLinetypeTableRecord
  2
ByBlock
 70
     0
  3

 72
    65
 73
     0
 40
0.0
  0
LTYPE
  5
15
330
5
100
AcDbSymbolTableRecord
100
AcDbLinetypeTableRecord
  2
ByLayer
 70
     0
  3

 72
    65
 73
     0
 40
0.0
  0
LTYPE
  5
16
330
5
100
AcDbSymbolTableRecord
100
AcDbLinetypeTableRecord
  2
Continuous
 70
     0
  3
Solid line
 72
    65
 73
     0
 40
0.0
  0
ENDTAB
  0
TABLE
  2
LAYER
  5
2
330
0
100
AcDbSymbolTable
 70
     2
  0
LAYER
  5
10
330
2
100
AcDbSymbolTableRecord
100
AcDbLayerTableRecord
  2
0
 70
     0
 62
     7
  6
Continuous
370
    -3
390
F
347
3E
  0
LAYER
  5
40
330
2
100
AcDbSymbolTableRecord
100
AcDbLayerTableRecord
  2
layer 1
 70
     0
 62
     7
  6
Continuous
370
    -3
390
F
347
3E
  0
ENDTAB
  0
TABLE
  2
STYLE
  5
3
330
0
100
AcDbSymbolTable
 70
     1
  0
STYLE
  5
11
330
3
100
AcDbSymbolTableRecord
100
AcDbTextStyleTableRecord
  2
Standard
 70
     0
 40
0.0
 41
1.0
 50
0.0
 71
     0
 42
0.2
  3
txt
  4

  0
ENDTAB
  0
TABLE
  2
VIEW
  5
6
330
0
100
AcDbSymbolTable
 70
     0
  0
ENDTAB
  0
TABLE
  2
UCS
  5
7
330
0
100
AcDbSymbolTable
 70
     0
  0
ENDTAB
  0
TABLE
  2
APPID
  5
9
330
0
100
AcDbSymbolTable
 70
     2
  0
APPID
  5
12
330
9
100
AcDbSymbolTableRecord
100
AcDbRegAppTableRecord
  2
ACAD
 70
     0
  0
APPID
  5
3F
330
9
100
AcDbSymbolTableRecord
100
AcDbRegAppTableRecord
  2
ODA
 70
     0
  0
ENDTAB
  0
TABLE
  2
DIMSTYLE
  5
A
330
0
100
AcDbSymbolTable
 70
     1
100
AcDbDimStyleTable
  0
DIMSTYLE
105
27
330
A
100
AcDbSymbolTableRecord
100
AcDbDimStyleTableRecord
  2
Standard
 70
     0
178
     0
340
11
  0
ENDTAB
  0
TABLE
  2
BLOCK_RECORD
  5
1
330
0
100
AcDbSymbolTable
 70
     1
  0
BLOCK_RECORD
  5
1F
330
1
100
AcDbSymbolTableRecord
100
AcDbBlockTableRecord
  2
*Model_Space
340
22
 70
     0
280
     1
281
     0
  0
BLOCK_RECORD
  5
1B
330
1
100
AcDbSymbolTableRecord
100
AcDbBlockTableRecord
  2
*Paper_Space
340
1E
 70
     0
280
     1
281
     0
  0
BLOCK_RECORD
  5
23
330
1
100
AcDbSymbolTableRecord
100
AcDbBlockTableRecord
  2
*Paper_Space0
340
26
 70
     0
280
     1
281
     0
  0
ENDTAB
  0
ENDSEC
  0
SECTION
  2
BLOCKS
  0
BLOCK
  5
20
330
1F
100
AcDbEntity
  8
0
100
AcDbBlockBegin
  2
*Model_Space
 70
     0
 10
0.0
 20
0.0
 30
0.0
  3
*Model_Space
  1

  0
ENDBLK
  5
21
330
1F
100
AcDbEntity
  8
0
100
AcDbBlockEnd
  0
BLOCK
  5
1C
330
1B
100
AcDbEntity
 67
     1
  8
0
100
AcDbBlockBegin
  2
*Paper_Space
 70
     0
 10
0.0
 20
0.0
 30
0.0
  3
*Paper_Space
  1

  0
ENDBLK
  5
1D
330
1B
100
AcDbEntity
 67
     1
  8
0
100
AcDbBlockEnd
  0
BLOCK
  5
24
330
23
100
AcDbEntity
  8
0
100
AcDbBlockBegin
  2
*Paper_Space0
 70
     0
 10
0.0
 20
0.0
 30
0.0
  3
*Paper_Space0
  1

  0
ENDBLK
  5
25
330
23
100
AcDbEntity
  8
0
100
AcDbBlockEnd
  0
ENDSEC
  0
SECTION
  2
ENTITIES
  0
LWPOLYLINE
  5
41
330
1F
100
AcDbEntity
  8
layer 1
100
AcDbPolyline
 90
        5
 70
     1
 43
0.0
 10
19.7213
 20
-114.9322
 10
195.9783
 20
-114.9322
 10
195.9783
 20
131.8984
 10
19.7213
 20
131.8984
 10
19.7213
 20
-114.9322
  0
SPLINE
  5
42
330
1F
100
AcDbEntity
  8
layer 1
 62
     7
100
AcDbSpline
210
0.0
220
0.0
230
1.0
 70
    11
 71
     3
 72
    36
 73
    32
 74
     0
 42
0.0000000001
 43
0.0000000001
 12
1.0
 22
0.0
 32
0.0
 13
1.0
 23
0.0
 33
0.0
 40
0.0
 40
0.0
 40
0.0
 40
0.0
 40
0.1111111111111111
 40
0.1111111111111111
 40
0.1111111111111111
 40
0.1111111111111111
 40
0.2222222222222222
 40
0.2222222222222222
 40
0.2222222222222222
 40
0.2222222222222222
 40
0.3333333333333333
 40
0.3333333333333333
 40
0.3333333333333333
 40
0.3333333333333333
 40
0.4444444444444444
 40
0.4444444444444444
 40
0.4444444444444444
 40
0.4444444444444444
 40
0.5555555555555556
 40
0.5555555555555556
 40
0.5555555555555556
 40
0.5555555555555556
 40
0.6666666666666666
 40
0.6666666666666666
 40
0.6666666666666666
 40
0.6666666666666666
 40
0.7777777777777778
 40
0.7777777777777778
 40
0.7777777777777778
 40
0.7777777777777778
 40
1.0
 40
1.0
 40
1.0
 40
1.0
 10
137.2121
 20
-87.3424
 30
0.0
 10
133.8705
 20
-87.8784
 30
0.0
 10
129.6709
 20
-90.4189
 30
0.0
 10
129.8559
 20
-96.5608
 30
0.0
 10
129.8559
 20
-96.5608
 30
0.0
 10
128.8942
 20
-96.5349
 30
0.0
 10
124.0969
 20
-91.7329
 30
0.0
 10
123.3287
 20
-88.6416
 30
0.0
 10
123.3287
 20
-88.6416
 30
0.0
 10
126.3664
 20
-89.5169
 30
0.0
 10
131.6414
 20
-89.8544
 30
0.0
 10
131.613
 20
-82.629
 30
0.0
 10
131.613
 20
-82.629
 30
0.0
 10
127.4801
 20
-82.8361
 30
0.0
 10
123.4819
 20
-79.0173
 30
0.0
 10
124.1163
 20
-72.019
 30
0.0
 10
124.1163
 20
-72.019
 30
0.0
 10
126.2188
 20
-70.9759
 30
0.0
 10
128.9275
 20
-72.2916
 30
0.0
 10
129.8673
 20
-75.1457
 30
0.0
 10
129.8673
 20
-75.1457
 30
0.0
 10
132.0616
 20
-71.9734
 30
0.0
 10
137.5885
 20
-73.521
 30
0.0
 10
139.2248
 20
-75.0441
 30
0.0
 10
139.2248
 20
-75.0441
 30
0.0
 10
134.0719
 20
-77.5931
 30
0.0
 10
134.4598
 20
-83.3415
 30
0.0
 10
137.2121
 20
-87.3423
 30
0.0
 10
137.2121
 20
-87.3423
 30
0.0
 10
137.2121
 20
-87.3423
 30
0.0
 10
137.2121
 20
-87.3424
 30
0.0
 10
137.2121
 20
-87.3424
 30
0.0
  0
SPLINE
  5
43
330
1F
100
AcDbEntity
  8
layer 1
 62
     7
100
AcDbSpline
210
0.0
220
0.0
230
1.0
 70
    11
 71
     3
 72
    36
 73
    32
 74
     0
 42
0.0000000001
 43
0.0000000001
 12
1.0
 22
0.0
 32
0.0
 13
1.0
 23
0.0
 33
0.0
 40
0.0
 40
0.0
 40
0.0
 40
0.0
 40
0.1111111111111111
 40
0.1111111111111111
 40
0.1111111111111111
 40
0.1111111111111111
 40
0.2222222222222222
 40
0.2222222222222222
 40
0.2222222222222222
 40
0.2222222222222222
 40
0.3333333333333333
 40
0.3333333333333333
 40
0.3333333333333333
 40
0.3333333333333333
 40
0.4444444444444444
 40
0.4444444444444444
 40
0.4444444444444444
 40
0.4444444444444444
 40
0.5555555555555556
 40
0.5555555555555556
 40
0.5555555555555556
 40
0.5555555555555556
 40
0.6666666666666666
 40
0.6666666666666666
 40
0.6666666666666666
 40
0.6666666666666666
 40
0.7777777777777778
 40
0.7777777777777778
 40
0.7777777777777778
 40
0.7777777777777778
 40
1.0
 40
1.0
 40
1.0
 40
1.0
 10
77.4312
 20
-87.3424
 30
0.0
 10
80.7728
 20
-87.8784
 30
0.0
 10
84.9724
 20
-90.4189
 30
0.0
 10
84.7874
 20
-96.5608
 30
0.0
 10
84.7874
 20
-96.5608
 30
0.0
 10
85.7491
 20
-96.5349
 30
0.0
 10
90.5463
 20
-91.7329
 30
0.0
 10
91.3145
 20
-88.6416
 30
0.0
 10
91.3145
 20
-88.6416
 30
0.0
 10
88.2768
 20
-89.5169
 30
0.0
 10
83.0019
 20
-89.8544
 30
0.0
 10
83.0303
 20
-82.629
 30
0.0
 10
83.0303
 20
-82.629
 30
0.0
 10
87.1632
 20
-82.8361
 30
0.0
 10
91.1614
 20
-79.0173
 30
0.0
 10
90.527
 20
-72.019
 30
0.0
 10
90.527
 20
-72.019
 30
0.0
 10
88.4245
 20
-70.9759
 30
0.0
 10
85.7158
 20
-72.2916
 30
0.0
 10
84.776
 20
-75.1457
 30
0.0
 10
84.776
 20
-75.1457
 30
0.0
 10
82.5817
 20
-71.9734
 30
0.0
 10
77.0547
 20
-73.521
 30
0.0
 10
75.4185
 20
-75.0441
 30
0.0
 10
75.4185
 20
-75.0441
 30
0.0
 10
80.5714
 20
-77.5931
 30
0.0
 10
80.1834
 20
-83.3415
 30
0.0
 10
77.4312
 20
-87.3423
 30
0.0
 10
77.4312
 20
-87.3423
 30
0.0
 10
77.4312
 20
-87.3423
 30
0.0
 10
77.4312
 20
-87.3424
 30
0.0
 10
77.4312
 20
-87.3424
 30
0.0
  0
SPLINE
  5
44
330
1F
100
AcDbEntity
  8
layer 1
 62
     7
100
AcDbSpline
210
0.0
220
0.0
230
1.0
 70
    11
 71
     3
 72
    36
 73
    32
 74
     0
 42
0.0000000001
 43
0.0000000001
 12
1.0
 22
0.0
 32
0.0
 13
1.0
 23
0.0
 33
0.0
 40
0.0
 40
0.0
 40
0.0
 40
0.0
 40
0.1111111111111111
 40
0.1111111111111111
 40
0.1111111111111111
 40
0.1111111111111111
 40
0.2222222222222222
 40
0.2222222222222222
 40
0.2222222222222222
 40
0.2222222222222222
 40
0.3333333333333333
 40
0.3333333333333333
 40
0.3333333333333333
 40
0.3333333333333333
 40
0.4444444444444444
 40
0.4444444444444444
 40
0.4444444444444444
 40
0.4444444444444444
 40
0.5555555555555556
 40
0.5555555555555556
 40
0.5555555555555556
 40
0.5555555555555556
 40
0.6666666666666666
 40
0.6666666666666666
 40
0.6666666666666666
 40
0.6666666666666666
 40
0.7777777777777778
 40
0.7777777777777778
 40
0.7777777777777778
 40
0.7777777777777778
 40
1.0
 40
1.0
 40
1.0
 40
1.0
 10
137.3263
 20
103.8681
 30
0.0
 10
133.9847
 20
104.4041
 30
0.0
 10
129.7851
 20
106.9447
 30
0.0
 10
129.9701
 20
113.0865
 30
0.0
 10
129.9701
 20
113.0865
 30
0.0
 10
129.0084
 20
113.0606
 30
0.0
 10
124.2111
 20
108.2586
 30
0.0
 10
123.443
 20
105.1673
 30
0.0
 10
123.443
 20
105.1673
 30
0.0
 10
126.4806
 20
106.0426
 30
0.0
 10
131.7556
 20
106.3801
 30
0.0
 10
131.7272
 20
99.1548
 30
0.0
 10
131.7272
 20
99.1548
 30
0.0
 10
127.5943
 20
99.3618
 30
0.0
 10
123.5961
 20
95.543
 30
0.0
 10
124.2305
 20
88.5447
 30
0.0
 10
124.2305
 20
88.5447
 30
0.0
 10
126.333
 20
87.5016
 30
0.0
 10
129.0417
 20
88.8174
 30
0.0
 10
129.9815
 20
91.6714
 30
0.0
 10
129.9815
 20
91.6714
 30
0.0
 10
132.1758
 20
88.4991
 30
0.0
 10
137.7027
 20
90.0467
 30
0.0
 10
139.339
 20
91.5698
 30
0.0
 10
139.339
 20
91.5698
 30
0.0
 10
134.1861
 20
94.1188
 30
0.0
 10
134.5741
 20
99.8672
 30
0.0
 10
137.3263
 20
103.868
 30
0.0
 10
137.3263
 20
103.868
 30
0.0
 10
137.3263
 20
103.868
 30
0.0
 10
137.3263
 20
103.8681
 30
0.0
 10
137.3263
 20
103.8681
 30
0.0
  0
SPLINE
  5
45
330
1F
100
AcDbEntity
  8
layer 1
 62
     7
100
AcDbSpline
210
0.0
220
0.0
230
1.0
 70
    11
 71
     3
 72
    20
 73
    16
 74
     0
 42
0.0000000001
 43
0.0000000001
 12
1.0
 22
0.0
 32
0.0
 13
1.0
 23
0.0
 33
0.0
 40
0.0
 40
0.0
 40
0.0
 40
0.0
 40
0.2
 40
0.2
 40
0.2
 40
0.2
 40
0.4
 40
0.4
 40
0.4
 40
0.4
 40
0.6
 40
0.6
 40
0.6
 40
0.6
 40
1.0
 40
1.0
 40
1.0
 40
1.0
 10
28.061
 20
66.4566
 30
0.0
 10
29.3119
 20
62.3149
 30
0.0
 10
33.0809
 20
54.9792
 30
0.0
 10
39.0536
 20
49.3848
 30
0.0
 10
39.0536
 20
49.3848
 30
0.0
 10
38.0581
 20
49.0303
 30
0.0
 10
36.8545
 20
48.2634
 30
0.0
 10
35.4521
 20
46.4125
 30
0.0
 10
35.4521
 20
46.4125
 30
0.0
 10
34.5232
 20
49.2624
 30
0.0
 10
30.0918
 20
50.2707
 30
0.0
 10
28.061
 20
46.2474
 30
0.0
 10
28.061
 20
46.2474
 30
0.0
 10
28.061
 20
52.3754
 30
0.0
 10
28.061
 20
62.3163
 30
0.0
 10
28.061
 20
66.4566
 30
0.0
  0
SPLINE
  5
46
330
1F
100
AcDbEntity
  8
layer 1
 62
     7
100
AcDbSpline
210
0.0
220
0.0
230
1.0
 70
    11
 71
     3
 72
    16
 73
    12
 74
     0
 42
0.0000000001
 43
0.0000000001
 12
1.0
 22
0.0
 32
0.0
 13
1.0
 23
0.0
 33
0.0
 40
0.0
 40
0.0
 40
0.0
 40
0.0
 40
0.25
 40
0.25
 40
0.25
 40
0.25
 40
0.5
 40
0.5
 40
0.5
 40
0.5
 40
1.0
 40
1.0
 40
1.0
 40
1.0
 10
80.0959
 20
123.2307
 30
0.0
 10
87.6312
 20
123.2307
 30
0.0
 10
89.2387
 20
123.2307
 30
0.0
 10
94.9038
 20
123.2307
 30
0.0
 10
94.9038
 20
123.2307
 30
0.0
 10
92.6882
 20
122.063
 30
0.0
 10
90.1831
 20
120.3155
 30
0.0
 10
90.2681
 20
117.6923
 30
0.0
 10
90.2681
 20
117.6923
 30
0.0
 10
88.565
 20
120.4804
 30
0.0
 10
83.9922
 20
122.6233
 30
0.0
 10
80.0959
 20
123.2307
 30
0.0
  0
SPLINE
  5
47
330
1F
100
AcDbEntity
  8
layer 1
 62
     7
100
AcDbSpline
210
0.0
220
0.0
230
1.0
 70
    11
 71
     3
 72
    24
 73
    20
 74
     0
 42
0.0000000001
 43
0.0000000001
 12
1.0
 22
0.0
 32
0.0
 13
1.0
 23
0.0
 33
0.0
 40
0.0
 40
0.0
 40
0.0
 40
0.0
 40
0.1666666666666667
 40
0.1666666666666667
 40
0.1666666666666667
 40
0.1666666666666667
 40
0.3333333333333333
 40
0.3333333333333333
 40
0.3333333333333333
 40
0.3333333333333333
 40
0.5
 40
0.5
 40
0.5
 40
0.5
 40
0.6666666666666666
 40
0.6666666666666666
 40
0.6666666666666666
 40
0.6666666666666666
 40
1.0
 40
1.0
 40
1.0
 40
1.0
 10
54.7279
 20
116.7934
 30
0.0
 10
62.2631
 20
120.3509
 30
0.0
 10
71.7479
 20
119.885
 30
0.0
 10
77.6247
 20
117.1323
 30
0.0
 10
77.6247
 20
117.1323
 30
0.0
 10
70.7063
 20
116.1049
 30
0.0
 10
73.2823
 20
108.48
 30
0.0
 10
77.4369
 20
109.2462
 30
0.0
 10
77.4369
 20
109.2462
 30
0.0
 10
72.6918
 20
104.4035
 30
0.0
 10
69.2966
 20
115.7718
 30
0.0
 10
58.8439
 20
108.6716
 30
0.0
 10
58.8439
 20
108.6716
 30
0.0
 10
58.8772
 20
110.6974
 30
0.0
 10
57.6077
 20
115.6354
 30
0.0
 10
54.7279
 20
116.7935
 30
0.0
 10
54.7279
 20
116.7935
 30
0.0
 10
54.7279
 20
116.7935
 30
0.0
 10
54.7279
 20
116.7934
 30
0.0
 10
54.7279
 20
116.7934
 30
0.0
  0
SPLINE
  5
48
330
1F
100
AcDbEntity
  8
layer 1
 62
     7
100
AcDbSpline
210
0.0
220
0.0
230
1.0
 70
    11
 71
     3
 72
    24
 73
    20
 74
     0
 42
0.0000000001
 43
0.0000000001
 12
1.0
 22
0.0
 32
0.0
 13
1.0
 23
0.0
 33
0.0
 40
0.0
 40
0.0
 40
0.0
 40
0.0
 40
0.1666666666666667
 40
0.1666666666666667
 40
0.1666666666666667
 40
0.1666666666666667
 40
0.3333333333333333
 40
0.3333333333333333
 40
0.3333333333333333
 40
0.3333333333333333
 40
0.5
 40
0.5
 40
0.5
 40
0.5
 40
0.6666666666666666
 40
0.6666666666666666
 40
0.6666666666666666
 40
0.6666666666666666
 40
1.0
 40
1.0
 40
1.0
 40
1.0
 10
56.9301
 20
101.9707
 30
0.0
 10
58.9174
 20
98.2015
 30
0.0
 10
58.6192
 20
95.8299
 30
0.0
 10
58.0164
 20
93.9241
 30
0.0
 10
58.0164
 20
93.9241
 30
0.0
 10
60.8672
 20
94.4901
 30
0.0
 10
63.5834
 20
92.4148
 30
0.0
 10
64.1285
 20
89.9294
 30
0.0
 10
64.1285
 20
89.9294
 30
0.0
 10
62.026
 20
88.8863
 30
0.0
 10
58.749
 20
89.2082
 30
0.0
 10
57.1086
 20
91.4165
 30
0.0
 10
57.1086
 20
91.4165
 30
0.0
 10
56.0903
 20
89.3266
 30
0.0
 10
54.1773
 20
87.0579
 30
0.0
 10
51.6867
 20
86.9033
 30
0.0
 10
51.6867
 20
86.9033
 30
0.0
 10
50.7882
 20
91.5548
 30
0.0
 10
54.0926
 20
100.4315
 30
0.0
 10
56.9301
 20
101.9707
 30
0.0
  0
SPLINE
  5
49
330
1F
100
AcDbEntity
  8
layer 1
 62
     7
100
AcDbSpline
210
0.0
220
0.0
230
1.0
 70
    11
 71
     3
 72
    20
 73
    16
 74
     0
 42
0.0000000001
 43
0.0000000001
 12
1.0
 22
0.0
 32
0.0
 13
1.0
 23
0.0
 33
0.0
 40
0.0
 40
0.0
 40
0.0
 40
0.0
 40
0.2
 40
0.2
 40
0.2
 40
0.2
 40
0.4
 40
0.4
 40
0.4
 40
0.4
 40
0.6
 40
0.6
 40
0.6
 40
0.6
 40
1.0
 40
1.0
 40
1.0
 40
1.0
 10
72.6081
 20
100.3516
 30
0.0
 10
73.5128
 20
97.2467
 30
0.0
 10
72.6234
 20
94.9116
 30
0.0
 10
69.5875
 20
94.3665
 30
0.0
 10
69.5875
 20
94.3665
 30
0.0
 10
65.2833
 20
94.7326
 30
0.0
 10
65.0124
 20
98.9413
 30
0.0
 10
67.2207
 20
100.5818
 30
0.0
 10
67.2207
 20
100.5818
 30
0.0
 10
65.1308
 20
100.2449
 30
0.0
 10
61.761
 20
101.4378
 30
0.0
 10
60.6323
 20
103.8438
 30
0.0
 10
60.6323
 20
103.8438
 30
0.0
 10
64.8605
 20
105.3302
 30
0.0
 10
70.5805
 20
105.6124
 30
0.0
 10
72.6081
 20
100.3516
 30
0.0
  0
SPLINE
  5
4A
330
1F
100
AcDbEntity
  8
layer 1
 62
     7
100
AcDbSpline
210
0.0
220
0.0
230
1.0
 70
    11
 71
     3
 72
    24
 73
    20
 74
     0
 42
0.0000000001
 43
0.0000000001
 12
1.0
 22
0.0
 32
0.0
 13
1.0
 23
0.0
 33
0.0
 40
0.0
 40
0.0
 40
0.0
 40
0.0
 40
0.1666666666666667
 40
0.1666666666666667
 40
0.1666666666666667
 40
0.1666666666666667
 40
0.3333333333333333
 40
0.3333333333333333
 40
0.3333333333333333
 40
0.3333333333333333
 40
0.5
 40
0.5
 40
0.5
 40
0.5
 40
0.6666666666666666
 40
0.6666666666666666
 40
0.6666666666666666
 40
0.6666666666666666
 40
1.0
 40
1.0
 40
1.0
 40
1.0
 10
82.8043
 20
75.634
 30
0.0
 10
81.8009
 20
76.3046
 30
0.0
 10
81.2362
 20
79.4683
 30
0.0
 10
81.6059
 20
80.8483
 30
0.0
 10
81.6059
 20
80.8483
 30
0.0
 10
79.2153
 20
80.9066
 30
0.0
 10
77.8248
 20
82.4431
 30
0.0
 10
77.2759
 20
85.2671
 30
0.0
 10
77.2759
 20
85.2671
 30
0.0
 10
79.6229
 20
85.9202
 30
0.0
 10
82.2001
 20
85.4412
 30
0.0
 10
82.6725
 20
82.7312
 30
0.0
 10
82.6725
 20
82.7312
 30
0.0
 10
84.5217
 20
84.14
 30
0.0
 10
87.0453
 20
84.8961
 30
0.0
 10
89.3396
 20
83.9143
 30
0.0
 10
89.3396
 20
83.9143
 30
0.0
 10
88.0506
 20
79.3555
 30
0.0
 10
86.595
 20
78.2459
 30
0.0
 10
82.8043
 20
75.634
 30
0.0
  0
SPLINE
  5
4B
330
1F
100
AcDbEntity
  8
layer 1
 62
     7
100
AcDbSpline
210
0.0
220
0.0
230
1.0
 70
    11
 71
     3
 72
    24
 73
    20
 74
     0
 42
0.0000000001
 43
0.0000000001
 12
1.0
 22
0.0
 32
0.0
 13
1.0
 23
0.0
 33
0.0
 40
0.0
 40
0.0
 40
0.0
 40
0.0
 40
0.1666666666666667
 40
0.1666666666666667
 40
0.1666666666666667
 40
0.1666666666666667
 40
0.3333333333333333
 40
0.3333333333333333
 40
0.3333333333333333
 40
0.3333333333333333
 40
0.5
 40
0.5
 40
0.5
 40
0.5
 40
0.6666666666666666
 40
0.6666666666666666
 40
0.6666666666666666
 40
0.6666666666666666
 40
1.0
 40
1.0
 40
1.0
 40
1.0
 10
67.1472
 20
71.943
 30
0.0
 10
67.3152
 20
72.6769
 30
0.0
 10
69.0054
 20
75.1941
 30
0.0
 10
70.9573
 20
76.1891
 30
0.0
 10
70.9573
 20
76.1891
 30
0.0
 10
68.9391
 20
77.8109
 30
0.0
 10
68.609
 20
81.252
 30
0.0
 10
71.3607
 20
83.4796
 30
0.0
 10
71.3607
 20
83.4796
 30
0.0
 10
73.4691
 20
82.5906
 30
0.0
 10
74.675
 20
79.1814
 30
0.0
 10
73.5828
 20
76.6567
 30
0.0
 10
73.5828
 20
76.6567
 30
0.0
 10
75.6454
 20
75.2813
 30
0.0
 10
77.2846
 20
74.7077
 30
0.0
 10
77.792
 20
72.5767
 30
0.0
 10
77.792
 20
72.5767
 30
0.0
 10
72.059
 20
70.0883
 30
0.0
 10
69.899
 20
71.127
 30
0.0
 10
67.1472
 20
71.943
 30
0.0
  0
SPLINE
  5
4C
330
1F
100
AcDbEntity
  8
layer 1
 62
     7
100
AcDbSpline
210
0.0
220
0.0
230
1.0
 70
    11
 71
     3
 72
    28
 73
    24
 74
     0
 42
0.0000000001
 43
0.0000000001
 12
1.0
 22
0.0
 32
0.0
 13
1.0
 23
0.0
 33
0.0
 40
0.0
 40
0.0
 40
0.0
 40
0.0
 40
0.1428571428571428
 40
0.1428571428571428
 40
0.1428571428571428
 40
0.1428571428571428
 40
0.2857142857142857
 40
0.2857142857142857
 40
0.2857142857142857
 40
0.2857142857142857
 40
0.4285714285714285
 40
0.4285714285714285
 40
0.4285714285714285
 40
0.4285714285714285
 40
0.5714285714285714
 40
0.5714285714285714
 40
0.5714285714285714
 40
0.5714285714285714
 40
0.7142857142857143
 40
0.7142857142857143
 40
0.7142857142857143
 40
0.7142857142857143
 40
1.0
 40
1.0
 40
1.0
 40
1.0
 10
53.1222
 20
82.4329
 30
0.0
 10
55.175
 20
83.7052
 30
0.0
 10
58.1567
 20
82.1585
 30
0.0
 10
59.5057
 20
80.6836
 30
0.0
 10
59.5057
 20
80.6836
 30
0.0
 10
60.0051
 20
83.4355
 30
0.0
 10
62.3911
 20
84.8014
 30
0.0
 10
65.2008
 20
85.0309
 30
0.0
 10
65.2008
 20
85.0309
 30
0.0
 10
65.2837
 20
82.6116
 30
0.0
 10
63.7766
 20
80.0628
 30
0.0
 10
61.0183
 20
79.3873
 30
0.0
 10
61.0183
 20
79.3873
 30
0.0
 10
62.3191
 20
77.4605
 30
0.0
 10
63.0966
 20
74.6439
 30
0.0
 10
62.0364
 20
73.0762
 30
0.0
 10
62.0364
 20
73.0762
 30
0.0
 10
56.764
 20
74.6239
 30
0.0
 10
53.9596
 20
77.0008
 30
0.0
 10
53.1223
 20
82.4329
 30
0.0
 10
53.1223
 20
82.4329
 30
0.0
 10
53.1223
 20
82.4329
 30
0.0
 10
53.1222
 20
82.4329
 30
0.0
 10
53.1222
 20
82.4329
 30
0.0
  0
SPLINE
  5
4D
330
1F
100
AcDbEntity
  8
layer 1
 62
     7
100
AcDbSpline
210
0.0
220
0.0
230
1.0
 70
    11
 71
     3
 72
    36
 73
    32
 74
     0
 42
0.0000000001
 43
0.0000000001
 12
1.0
 22
0.0
 32
0.0
 13
1.0
 23
0.0
 33
0.0
 40
0.0
 40
0.0
 40
0.0
 40
0.0
 40
0.1111111111111111
 40
0.1111111111111111
 40
0.1111111111111111
 40
0.1111111111111111
 40
0.2222222222222222
 40
0.2222222222222222
 40
0.2222222222222222
 40
0.2222222222222222
 40
0.3333333333333333
 40
0.3333333333333333
 40
0.3333333333333333
 40
0.3333333333333333
 40
0.4444444444444444
 40
0.4444444444444444
 40
0.4444444444444444
 40
0.4444444444444444
 40
0.5555555555555556
 40
0.5555555555555556
 40
0.5555555555555556
 40
0.5555555555555556
 40
0.6666666666666666
 40
0.6666666666666666
 40
0.6666666666666666
 40
0.6666666666666666
 40
0.7777777777777778
 40
0.7777777777777778
 40
0.7777777777777778
 40
0.7777777777777778
 40
1.0
 40
1.0
 40
1.0
 40
1.0
 10
77.5454
 20
103.8681
 30
0.0
 10
80.887
 20
104.4041
 30
0.0
 10
85.0866
 20
106.9447
 30
0.0
 10
84.9016
 20
113.0865
 30
0.0
 10
84.9016
 20
113.0865
 30
0.0
 10
85.8633
 20
113.0606
 30
0.0
 10
90.6606
 20
108.2586
 30
0.0
 10
91.4287
 20
105.1673
 30
0.0
 10
91.4287
 20
105.1673
 30
0.0
 10
88.3911
 20
106.0426
 30
0.0
 10
83.1161
 20
106.3801
 30
0.0
 10
83.1445
 20
99.1548
 30
0.0
 10
83.1445
 20
99.1548
 30
0.0
 10
87.2774
 20
99.3618
 30
0.0
 10
91.2756
 20
95.543
 30
0.0
 10
90.6412
 20
88.5447
 30
0.0
 10
90.6412
 20
88.5447
 30
0.0
 10
88.5387
 20
87.5016
 30
0.0
 10
85.83
 20
88.8174
 30
0.0
 10
84.8902
 20
91.6714
 30
0.0
 10
84.8902
 20
91.6714
 30
0.0
 10
82.6959
 20
88.4991
 30
0.0
 10
77.169
 20
90.0467
 30
0.0
 10
75.5327
 20
91.5698
 30
0.0
 10
75.5327
 20
91.5698
 30
0.0
 10
80.6856
 20
94.1188
 30
0.0
 10
80.2977
 20
99.8672
 30
0.0
 10
77.5454
 20
103.868
 30
0.0
 10
77.5454
 20
103.868
 30
0.0
 10
77.5454
 20
103.868
 30
0.0
 10
77.5454
 20
103.8681
 30
0.0
 10
77.5454
 20
103.8681
 30
0.0
  0
SPLINE
  5
4E
330
1F
100
AcDbEntity
  8
layer 1
 62
     7
100
AcDbSpline
210
0.0
220
0.0
230
1.0
 70
    11
 71
     3
 72
    28
 73
    24
 74
     0
 42
0.0000000001
 43
0.0000000001
 12
1.0
 22
0.0
 32
0.0
 13
1.0
 23
0.0
 33
0.0
 40
0.0
 40
0.0
 40
0.0
 40
0.0
 40
0.1428571428571428
 40
0.1428571428571428
 40
0.1428571428571428
 40
0.1428571428571428
 40
0.2857142857142857
 40
0.2857142857142857
 40
0.2857142857142857
 40
0.2857142857142857
 40
0.4285714285714285
 40
0.4285714285714285
 40
0.4285714285714285
 40
0.4285714285714285
 40
0.5714285714285714
 40
0.5714285714285714
 40
0.5714285714285714
 40
0.5714285714285714
 40
0.7142857142857143
 40
0.7142857142857143
 40
0.7142857142857143
 40
0.7142857142857143
 40
1.0
 40
1.0
 40
1.0
 40
1.0
 10
96.9555
 20
80.4116
 30
0.0
 10
97.8728
 20
83.0428
 30
0.0
 10
99.2978
 20
88.8155
 30
0.0
 10
101.1243
 20
94.7155
 30
0.0
 10
101.1243
 20
94.7155
 30
0.0
 10
102.6011
 20
98.9432
 30
0.0
 10
105.9785
 20
100.9059
 30
0.0
 10
107.4264
 20
97.6447
 30
0.0
 10
107.4264
 20
97.6447
 30
0.0
 10
108.8742
 20
100.9059
 30
0.0
 10
112.2517
 20
98.9432
 30
0.0
 10
113.7284
 20
94.7155
 30
0.0
 10
113.7284
 20
94.7155
 30
0.0
 10
115.555
 20
88.8155
 30
0.0
 10
116.9799
 20
83.0428
 30
0.0
 10
117.8972
 20
80.4116
 30
0.0
 10
117.8972
 20
80.4116
 30
0.0
 10
113.8821
 20
84.4489
 30
0.0
 10
108.7167
 20
81.0791
 30
0.0
 10
107.4264
 20
78.25
 30
0.0
 10
107.4264
 20
78.25
 30
0.0
 10
106.136
 20
81.0791
 30
0.0
 10
100.9706
 20
84.4489
 30
0.0
 10
96.9555
 20
80.4116
 30
0.0
  0
SPLINE
  5
4F
330
1F
100
AcDbEntity
  8
layer 1
 62
     7
100
AcDbSpline
210
0.0
220
0.0
230
1.0
 70
    11
 71
     3
 72
    16
 73
    12
 74
     0
 42
0.0000000001
 43
0.0000000001
 12
1.0
 22
0.0
 32
0.0
 13
1.0
 23
0.0
 33
0.0
 40
0.0
 40
0.0
 40
0.0
 40
0.0
 40
0.25
 40
0.25
 40
0.25
 40
0.25
 40
0.5
 40
0.5
 40
0.5
 40
0.5
 40
1.0
 40
1.0
 40
1.0
 40
1.0
 10
103.9704
 20
46.5459
 30
0.0
 10
105.2694
 20
48.1154
 30
0.0
 10
106.9921
 20
50.7516
 30
0.0
 10
107.4264
 20
52.8747
 30
0.0
 10
107.4264
 20
52.8747
 30
0.0
 10
107.8607
 20
50.7516
 30
0.0
 10
109.5834
 20
48.1154
 30
0.0
 10
110.8825
 20
46.5459
 30
0.0
 10
110.8825
 20
46.5459
 30
0.0
 10
108.4002
 20
47.0216
 30
0.0
 10
106.109
 20
47.0068
 30
0.0
 10
103.9704
 20
46.5459
 30
0.0
  0
SPLINE
  5
50
330
1F
100
AcDbEntity
  8
layer 1
 62
     7
100
AcDbSpline
210
0.0
220
0.0
230
1.0
 70
    11
 71
     3
 72
    24
 73
    20
 74
     0
 42
0.0000000001
 43
0.0000000001
 12
1.0
 22
0.0
 32
0.0
 13
1.0
 23
0.0
 33
0.0
 40
0.0
 40
0.0
 40
0.0
 40
0.0
 40
0.1666666666666667
 40
0.1666666666666667
 40
0.1666666666666667
 40
0.1666666666666667
 40
0.3333333333333333
 40
0.3333333333333333
 40
0.3333333333333333
 40
0.3333333333333333
 40
0.5
 40
0.5
 40
0.5
 40
0.5
 40
0.6666666666666666
 40
0.6666666666666666
 40
0.6666666666666666
 40
0.6666666666666666
 40
1.0
 40
1.0
 40
1.0
 40
1.0
 10
56.8274
 20
67.9467
 30
0.0
 10
60.0261
 20
65.9887
 30
0.0
 10
62.6681
 20
65.5553
 30
0.0
 10
65.6385
 20
65.3723
 30
0.0
 10
65.6385
 20
65.3723
 30
0.0
 10
55.7505
 20
62.9012
 30
0.0
 10
51.254
 20
59.4737
 30
0.0
 10
45.6751
 20
54.655
 30
0.0
 10
45.6751
 20
54.655
 30
0.0
 10
43.8871
 20
56.1291
 30
0.0
 10
39.642
 20
61.1251
 30
0.0
 10
38.5133
 20
63.531
 30
0.0
 10
38.5133
 20
63.531
 30
0.0
 10
40.3026
 20
62.4168
 30
0.0
 10
45.109
 20
64.0598
 30
0.0
 10
45.3131
 20
68.2531
 30
0.0
 10
45.3131
 20
68.2531
 30
0.0
 10
50.2184
 20
61.075
 30
0.0
 10
56.0383
 20
64.0156
 30
0.0
 10
56.8274
 20
67.9467
 30
0.0
  0
SPLINE
  5
51
330
1F
100
AcDbEntity
  8
layer 1
 62
     7
100
AcDbSpline
210
0.0
220
0.0
230
1.0
 70
    11
 71
     3
 72
    24
 73
    20
 74
     0
 42
0.0000000001
 43
0.0000000001
 12
1.0
 22
0.0
 32
0.0
 13
1.0
 23
0.0
 33
0.0
 40
0.0
 40
0.0
 40
0.0
 40
0.0
 40
0.1666666666666667
 40
0.1666666666666667
 40
0.1666666666666667
 40
0.1666666666666667
 40
0.3333333333333333
 40
0.3333333333333333
 40
0.3333333333333333
 40
0.3333333333333333
 40
0.5
 40
0.5
 40
0.5
 40
0.5
 40
0.6666666666666666
 40
0.6666666666666666
 40
0.6666666666666666
 40
0.6666666666666666
 40
1.0
 40
1.0
 40
1.0
 40
1.0
 10
70.0223
 20
21.2859
 30
0.0
 10
71.714
 20
27.3492
 30
0.0
 10
73.5765
 20
29.8093
 30
0.0
 10
78.0539
 20
34.8251
 30
0.0
 10
78.0539
 20
34.8251
 30
0.0
 10
67.4475
 20
34.6933
 30
0.0
 10
54.2569
 20
39.6692
 30
0.0
 10
51.6469
 20
41.1773
 30
0.0
 10
51.6469
 20
41.1773
 30
0.0
 10
51.0541
 20
37.7286
 30
0.0
 10
52.4211
 20
33.7719
 30
0.0
 10
59.1911
 20
32.9248
 30
0.0
 10
59.1911
 20
32.9248
 30
0.0
 10
60.8567
 20
32.6658
 30
0.0
 10
68.0968
 20
29.035
 30
0.0
 10
70.0223
 20
21.286
 30
0.0
 10
70.0223
 20
21.286
 30
0.0
 10
70.0223
 20
21.286
 30
0.0
 10
70.0223
 20
21.2859
 30
0.0
 10
70.0223
 20
21.2859
 30
0.0
  0
SPLINE
  5
52
330
1F
100
AcDbEntity
  8
layer 1
 62
     7
100
AcDbSpline
210
0.0
220
0.0
230
1.0
 70
    11
 71
     3
 72
    20
 73
    16
 74
     0
 42
0.0000000001
 43
0.0000000001
 12
1.0
 22
0.0
 32
0.0
 13
1.0
 23
0.0
 33
0.0
 40
0.0
 40
0.0
 40
0.0
 40
0.0
 40
0.2
 40
0.2
 40
0.2
 40
0.2
 40
0.4
 40
0.4
 40
0.4
 40
0.4
 40
0.6
 40
0.6
 40
0.6
 40
0.6
 40
1.0
 40
1.0
 40
1.0
 40
1.0
 10
43.0523
 20
21.6497
 30
0.0
 10
41.9898
 20
24.9588
 30
0.0
 10
42.0855
 20
27.6788
 30
0.0
 10
46.4071
 20
29.7324
 30
0.0
 10
46.4071
 20
29.7324
 30
0.0
 10
43.1797
 20
32.3549
 30
0.0
 10
41.5254
 20
38.5259
 30
0.0
 10
44.1638
 20
43.1
 30
0.0
 10
44.1638
 20
43.1
 30
0.0
 10
37.6469
 20
39.4954
 30
0.0
 10
28.8808
 20
27.6919
 30
0.0
 10
35.2871
 20
14.8929
 30
0.0
 10
35.2871
 20
14.8929
 30
0.0
 10
34.2504
 20
20.0901
 30
0.0
 10
39.36
 20
23.2149
 30
0.0
 10
43.0523
 20
21.6497
 30
0.0
  0
SPLINE
  5
53
330
1F
100
AcDbEntity
  8
layer 1
 62
     7
100
AcDbSpline
210
0.0
220
0.0
230
1.0
 70
    11
 71
     3
 72
    52
 73
    48
 74
     0
 42
0.0000000001
 43
0.0000000001
 12
1.0
 22
0.0
 32
0.0
 13
1.0
 23
0.0
 33
0.0
 40
0.0
 40
0.0
 40
0.0
 40
0.0
 40
0.0769230769230769
 40
0.0769230769230769
 40
0.0769230769230769
 40
0.0769230769230769
 40
0.1538461538461539
 40
0.1538461538461539
 40
0.1538461538461539
 40
0.1538461538461539
 40
0.2307692307692308
 40
0.2307692307692308
 40
0.2307692307692308
 40
0.2307692307692308
 40
0.3076923076923077
 40
0.3076923076923077
 40
0.3076923076923077
 40
0.3076923076923077
 40
0.3846153846153846
 40
0.3846153846153846
 40
0.3846153846153846
 40
0.3846153846153846
 40
0.4615384615384616
 40
0.4615384615384616
 40
0.4615384615384616
 40
0.4615384615384616
 40
0.5384615384615384
 40
0.5384615384615384
 40
0.5384615384615384
 40
0.5384615384615384
 40
0.6153846153846154
 40
0.6153846153846154
 40
0.6153846153846154
 40
0.6153846153846154
 40
0.6923076923076923
 40
0.6923076923076923
 40
0.6923076923076923
 40
0.6923076923076923
 40
0.7692307692307693
 40
0.7692307692307693
 40
0.7692307692307693
 40
0.7692307692307693
 40
0.8461538461538461
 40
0.8461538461538461
 40
0.8461538461538461
 40
0.8461538461538461
 40
1.0
 40
1.0
 40
1.0
 40
1.0
 10
92.0971
 20
75.0578
 30
0.0
 10
91.5179
 20
72.0751
 30
0.0
 10
91.3219
 20
70.4735
 30
0.0
 10
91.8044
 20
69.6371
 30
0.0
 10
91.8044
 20
69.6371
 30
0.0
 10
91.6598
 20
69.5857
 30
0.0
 10
84.6248
 20
69.4503
 30
0.0
 10
83.3122
 20
62.1211
 30
0.0
 10
83.3122
 20
62.1211
 30
0.0
 10
82.6019
 20
58.1554
 30
0.0
 10
85.3735
 20
51.8767
 30
0.0
 10
91.0176
 20
53.3343
 30
0.0
 10
91.0176
 20
53.3343
 30
0.0
 10
89.6386
 20
57.0868
 30
0.0
 10
94.418
 20
58.9672
 30
0.0
 10
95.7938
 20
55.1375
 30
0.0
 10
95.7938
 20
55.1375
 30
0.0
 10
96.4762
 20
53.2379
 30
0.0
 10
96.1468
 20
48.9839
 30
0.0
 10
90.1382
 20
45.9321
 30
0.0
 10
90.1382
 20
45.9321
 30
0.0
 10
85.9642
 20
43.8121
 30
0.0
 10
81.955
 20
44.5084
 30
0.0
 10
80.2138
 20
46.0532
 30
0.0
 10
80.2138
 20
46.0532
 30
0.0
 10
78.0502
 20
47.9728
 30
0.0
 10
78.786
 20
51.5871
 30
0.0
 10
82.1195
 20
52.4629
 30
0.0
 10
82.1195
 20
52.4629
 30
0.0
 10
80.599
 20
60.6332
 30
0.0
 10
71.5571
 20
59.6806
 30
0.0
 10
68.7791
 20
57.0117
 30
0.0
 10
68.7791
 20
57.0117
 30
0.0
 10
62.554
 20
51.0312
 30
0.0
 10
66.38
 20
45.3913
 30
0.0
 10
66.2424
 20
44.8875
 30
0.0
 10
66.2424
 20
44.8875
 30
0.0
 10
61.7145
 20
45.9684
 30
0.0
 10
56.429
 20
47.4037
 30
0.0
 10
52.9342
 20
49.8464
 30
0.0
 10
52.9342
 20
49.8464
 30
0.0
 10
61.9014
 20
58.3535
 30
0.0
 10
83.6178
 20
63.4753
 30
0.0
 10
92.097
 20
75.0578
 30
0.0
 10
92.097
 20
75.0578
 30
0.0
 10
92.097
 20
75.0578
 30
0.0
 10
92.0971
 20
75.0578
 30
0.0
 10
92.0971
 20
75.0578
 30
0.0
  0
SPLINE
  5
54
330
1F
100
AcDbEntity
  8
layer 1
 62
     7
100
AcDbSpline
210
0.0
220
0.0
230
1.0
 70
    11
 71
     3
 72
    36
 73
    32
 74
     0
 42
0.0000000001
 43
0.0000000001
 12
1.0
 22
0.0
 32
0.0
 13
1.0
 23
0.0
 33
0.0
 40
0.0
 40
0.0
 40
0.0
 40
0.0
 40
0.1111111111111111
 40
0.1111111111111111
 40
0.1111111111111111
 40
0.1111111111111111
 40
0.2222222222222222
 40
0.2222222222222222
 40
0.2222222222222222
 40
0.2222222222222222
 40
0.3333333333333333
 40
0.3333333333333333
 40
0.3333333333333333
 40
0.3333333333333333
 40
0.4444444444444444
 40
0.4444444444444444
 40
0.4444444444444444
 40
0.4444444444444444
 40
0.5555555555555556
 40
0.5555555555555556
 40
0.5555555555555556
 40
0.5555555555555556
 40
0.6666666666666666
 40
0.6666666666666666
 40
0.6666666666666666
 40
0.6666666666666666
 40
0.7777777777777778
 40
0.7777777777777778
 40
0.7777777777777778
 40
0.7777777777777778
 40
1.0
 40
1.0
 40
1.0
 40
1.0
 10
49.9343
 20
112.0506
 30
0.0
 10
55.512
 20
102.2235
 30
0.0
 10
39.1216
 20
100.8139
 30
0.0
 10
47.6431
 20
78.3046
 30
0.0
 10
47.6431
 20
78.3046
 30
0.0
 10
43.3063
 20
81.5676
 30
0.0
 10
38.1997
 20
81.9222
 30
0.0
 10
32.6209
 20
77.1035
 30
0.0
 10
32.6209
 20
77.1035
 30
0.0
 10
32.5489
 20
80.6897
 30
0.0
 10
32.5047
 20
83.4117
 30
0.0
 10
33.2097
 20
86.0913
 30
0.0
 10
33.2097
 20
86.0913
 30
0.0
 10
34.1009
 20
89.4786
 30
0.0
 10
38.6608
 20
90.5272
 30
0.0
 10
40.0993
 20
86.8336
 30
0.0
 10
40.0993
 20
86.8336
 30
0.0
 10
44.5265
 20
91.7159
 30
0.0
 10
39.0224
 20
99.0962
 30
0.0
 10
35.1855
 20
99.0312
 30
0.0
 10
35.1855
 20
99.0312
 30
0.0
 10
37.8964
 20
107.2534
 30
0.0
 10
45.6026
 20
111.4236
 30
0.0
 10
46.1671
 20
112.9061
 30
0.0
 10
46.1671
 20
112.9061
 30
0.0
 10
46.8634
 20
111.5841
 30
0.0
 10
47.3151
 20
110.5596
 30
0.0
 10
49.9344
 20
112.0507
 30
0.0
 10
49.9344
 20
112.0507
 30
0.0
 10
49.9344
 20
112.0507
 30
0.0
 10
49.9343
 20
112.0506
 30
0.0
 10
49.9343
 20
112.0506
 30
0.0
  0
SPLINE
  5
55
330
1F
100
AcDbEntity
  8
layer 1
 62
     7
100
AcDbSpline
210
0.0
220
0.0
230
1.0
 70
    11
 71
     3
 72
    24
 73
    20
 74
     0
 42
0.0000000001
 43
0.0000000001
 12
1.0
 22
0.0
 32
0.0
 13
1.0
 23
0.0
 33
0.0
 40
0.0
 40
0.0
 40
0.0
 40
0.0
 40
0.1666666666666667
 40
0.1666666666666667
 40
0.1666666666666667
 40
0.1666666666666667
 40
0.3333333333333333
 40
0.3333333333333333
 40
0.3333333333333333
 40
0.3333333333333333
 40
0.5
 40
0.5
 40
0.5
 40
0.5
 40
0.6666666666666666
 40
0.6666666666666666
 40
0.6666666666666666
 40
0.6666666666666666
 40
1.0
 40
1.0
 40
1.0
 40
1.0
 10
28.1229
 20
123.2307
 30
0.0
 10
35.6582
 20
123.2307
 30
0.0
 10
43.8539
 20
123.2307
 30
0.0
 10
49.5189
 20
123.2307
 30
0.0
 10
49.5189
 20
123.2307
 30
0.0
 10
45.9002
 20
121.941
 30
0.0
 10
40.4061
 20
118.1804
 30
0.0
 10
38.2341
 20
115.9842
 30
0.0
 10
38.2341
 20
115.9842
 30
0.0
 10
38.8068
 20
123.2307
 30
0.0
 10
31.4567
 20
120.515
 30
0.0
 10
30.0652
 20
117.6019
 30
0.0
 10
30.0652
 20
117.6019
 30
0.0
 10
35.5979
 20
113.5873
 30
0.0
 10
32.1843
 20
107.0998
 30
0.0
 10
28.0609
 20
105.3961
 30
0.0
 10
28.0609
 20
105.3961
 30
0.0
 10
28.0609
 20
105.3961
 30
0.0
 10
28.1229
 20
123.2307
 30
0.0
 10
28.1229
 20
123.2307
 30
0.0
  0
SPLINE
  5
56
330
1F
100
AcDbEntity
  8
layer 1
 62
     7
100
AcDbSpline
210
0.0
220
0.0
230
1.0
 70
    11
 71
     3
 72
    28
 73
    24
 74
     0
 42
0.0000000001
 43
0.0000000001
 12
1.0
 22
0.0
 32
0.0
 13
1.0
 23
0.0
 33
0.0
 40
0.0
 40
0.0
 40
0.0
 40
0.0
 40
0.1428571428571428
 40
0.1428571428571428
 40
0.1428571428571428
 40
0.1428571428571428
 40
0.2857142857142857
 40
0.2857142857142857
 40
0.2857142857142857
 40
0.2857142857142857
 40
0.4285714285714285
 40
0.4285714285714285
 40
0.4285714285714285
 40
0.4285714285714285
 40
0.5714285714285714
 40
0.5714285714285714
 40
0.5714285714285714
 40
0.5714285714285714
 40
0.7142857142857143
 40
0.7142857142857143
 40
0.7142857142857143
 40
0.7142857142857143
 40
1.0
 40
1.0
 40
1.0
 40
1.0
 10
111.9294
 20
13.3653
 30
0.0
 10
109.7031
 20
10.8761
 30
0.0
 10
105.5859
 20
10.816
 30
0.0
 10
102.9234
 20
13.3653
 30
0.0
 10
102.9234
 20
13.3653
 30
0.0
 10
103.4308
 20
10.7092
 30
0.0
 10
102.387
 20
9.7044
 30
0.0
 10
101.3981
 20
8.3368
 30
0.0
 10
101.3981
 20
8.3368
 30
0.0
 10
102.387
 20
6.9691
 30
0.0
 10
103.4308
 20
5.9643
 30
0.0
 10
102.9234
 20
3.3083
 30
0.0
 10
102.9234
 20
3.3083
 30
0.0
 10
105.586
 20
5.8575
 30
0.0
 10
109.7031
 20
5.7975
 30
0.0
 10
111.9294
 20
3.3083
 30
0.0
 10
111.9294
 20
3.3083
 30
0.0
 10
111.422
 20
5.9643
 30
0.0
 10
112.4659
 20
6.9691
 30
0.0
 10
113.4548
 20
8.3368
 30
0.0
 10
113.4548
 20
8.3368
 30
0.0
 10
112.4659
 20
9.7044
 30
0.0
 10
111.422
 20
10.7092
 30
0.0
 10
111.9294
 20
13.3653
 30
0.0
  0
SPLINE
  5
57
330
1F
100
AcDbEntity
  8
layer 1
 62
     7
100
AcDbSpline
210
0.0
220
0.0
230
1.0
 70
    11
 71
     3
 72
    20
 73
    16
 74
     0
 42
0.0000000001
 43
0.0000000001
 12
1.0
 22
0.0
 32
0.0
 13
1.0
 23
0.0
 33
0.0
 40
0.0
 40
0.0
 40
0.0
 40
0.0
 40
0.2
 40
0.2
 40
0.2
 40
0.2
 40
0.4
 40
0.4
 40
0.4
 40
0.4
 40
0.6
 40
0.6
 40
0.6
 40
0.6
 40
1.0
 40
1.0
 40
1.0
 40
1.0
 10
105.8015
 20
28.4418
 30
0.0
 10
102.3251
 20
29.4165
 30
0.0
 10
100.4507
 20
32.8307
 30
0.0
 10
104.6896
 20
37.4489
 30
0.0
 10
104.6896
 20
37.4489
 30
0.0
 10
99.8079
 20
38.0328
 30
0.0
 10
96.1584
 20
33.5469
 30
0.0
 10
95.5361
 20
29.8074
 30
0.0
 10
95.5361
 20
29.8074
 30
0.0
 10
99.5548
 20
28.9825
 30
0.0
 10
104.0227
 20
26.0595
 30
0.0
 10
105.7837
 20
21.7935
 30
0.0
 10
105.7837
 20
21.7935
 30
0.0
 10
106.018
 20
23.7607
 30
0.0
 10
105.7048
 20
26.0931
 30
0.0
 10
105.8015
 20
28.4418
 30
0.0
  0
SPLINE
  5
58
330
1F
100
AcDbEntity
  8
layer 1
 62
     7
100
AcDbSpline
210
0.0
220
0.0
230
1.0
 70
    11
 71
     3
 72
    20
 73
    16
 74
     0
 42
0.0000000001
 43
0.0000000001
 12
1.0
 22
0.0
 32
0.0
 13
1.0
 23
0.0
 33
0.0
 40
0.0
 40
0.0
 40
0.0
 40
0.0
 40
0.2
 40
0.2
 40
0.2
 40
0.2
 40
0.4
 40
0.4
 40
0.4
 40
0.4
 40
0.6
 40
0.6
 40
0.6
 40
0.6
 40
1.0
 40
1.0
 40
1.0
 40
1.0
 10
96.4194
 20
14.3142
 30
0.0
 10
92.8635
 20
16.0428
 30
0.0
 10
90.83
 20
17.3992
 30
0.0
 10
89.5828
 20
17.4721
 30
0.0
 10
89.5828
 20
17.4721
 30
0.0
 10
90.8233
 20
21.8973
 30
0.0
 10
86.3787
 20
24.8724
 30
0.0
 10
82.258
 20
23.4438
 30
0.0
 10
82.258
 20
23.4438
 30
0.0
 10
84.1299
 20
25.6204
 30
0.0
 10
86.9282
 20
26.6353
 30
0.0
 10
90.3588
 20
26.5282
 30
0.0
 10
90.3588
 20
26.5282
 30
0.0
 10
89.9571
 20
21.6191
 30
0.0
 10
92.6653
 20
17.617
 30
0.0
 10
96.4194
 20
14.3142
 30
0.0
  0
SPLINE
  5
59
330
1F
100
AcDbEntity
  8
layer 1
 62
     7
100
AcDbSpline
210
0.0
220
0.0
230
1.0
 70
    11
 71
     3
 72
    20
 73
    16
 74
     0
 42
0.0000000001
 43
0.0000000001
 12
1.0
 22
0.0
 32
0.0
 13
1.0
 23
0.0
 33
0.0
 40
0.0
 40
0.0
 40
0.0
 40
0.0
 40
0.2
 40
0.2
 40
0.2
 40
0.2
 40
0.4
 40
0.4
 40
0.4
 40
0.4
 40
0.6
 40
0.6
 40
0.6
 40
0.6
 40
1.0
 40
1.0
 40
1.0
 40
1.0
 10
90.6647
 20
31.6174
 30
0.0
 10
86.7677
 20
32.4747
 30
0.0
 10
82.8046
 20
30.2842
 30
0.0
 10
81.1238
 20
29.0399
 30
0.0
 10
81.1238
 20
29.0399
 30
0.0
 10
83.4576
 20
32.2815
 30
0.0
 10
90.008
 20
38.046
 30
0.0
 10
96.2215
 20
39.9547
 30
0.0
 10
96.2215
 20
39.9547
 30
0.0
 10
92.1322
 20
36.5785
 30
0.0
 10
91.2424
 20
34.076
 30
0.0
 10
90.6647
 20
31.6174
 30
0.0
 10
90.6647
 20
31.6174
 30
0.0
 10
90.6647
 20
31.6174
 30
0.0
 10
90.6647
 20
31.6174
 30
0.0
 10
90.6647
 20
31.6174
 30
0.0
  0
SPLINE
  5
5A
330
1F
100
AcDbEntity
  8
layer 1
 62
     7
100
AcDbSpline
210
0.0
220
0.0
230
1.0
 70
    11
 71
     3
 72
    20
 73
    16
 74
     0
 42
0.0000000001
 43
0.0000000001
 12
1.0
 22
0.0
 32
0.0
 13
1.0
 23
0.0
 33
0.0
 40
0.0
 40
0.0
 40
0.0
 40
0.0
 40
0.2
 40
0.2
 40
0.2
 40
0.2
 40
0.4
 40
0.4
 40
0.4
 40
0.4
 40
0.6
 40
0.6
 40
0.6
 40
0.6
 40
1.0
 40
1.0
 40
1.0
 40
1.0
 10
75.1681
 20
17.1263
 30
0.0
 10
74.1589
 20
13.1359
 30
0.0
 10
74.0427
 20
10.9671
 30
0.0
 10
73.9799
 20
8.3368
 30
0.0
 10
73.9799
 20
8.3368
 30
0.0
 10
74.0427
 20
5.7065
 30
0.0
 10
74.1589
 20
3.5377
 30
0.0
 10
75.1681
 20
-0.4527
 30
0.0
 10
75.1681
 20
-0.4527
 30
0.0
 10
75.0529
 20
4.2955
 30
0.0
 10
75.9609
 20
5.7798
 30
0.0
 10
77.8434
 20
8.3368
 30
0.0
 10
77.8434
 20
8.3368
 30
0.0
 10
75.961
 20
10.8937
 30
0.0
 10
75.0529
 20
12.378
 30
0.0
 10
75.1681
 20
17.1263
 30
0.0
  0
SPLINE
  5
5B
330
1F
100
AcDbEntity
  8
layer 1
 62
     7
100
AcDbSpline
210
0.0
220
0.0
230
1.0
 70
    11
 71
     3
 72
    12
 73
     8
 74
     0
 42
0.0000000001
 43
0.0000000001
 12
1.0
 22
0.0
 32
0.0
 13
1.0
 23
0.0
 33
0.0
 40
0.0
 40
0.0
 40
0.0
 40
0.0
 40
0.3333333333333333
 40
0.3333333333333333
 40
0.3333333333333333
 40
0.3333333333333333
 40
1.0
 40
1.0
 40
1.0
 40
1.0
 10
94.8751
 20
24.8873
 30
0.0
 10
95.3019
 20
20.7047
 30
0.0
 10
99.4744
 20
17.6591
 30
0.0
 10
101.5987
 20
19.1999
 30
0.0
 10
101.5987
 20
19.1999
 30
0.0
 10
102.7938
 20
21.5267
 30
0.0
 10
99.0985
 20
25.1364
 30
0.0
 10
94.8751
 20
24.8873
 30
0.0
  0
SPLINE
  5
5C
330
1F
100
AcDbEntity
  8
layer 1
 62
     7
100
AcDbSpline
210
0.0
220
0.0
230
1.0
 70
    11
 71
     3
 72
    20
 73
    16
 74
     0
 42
0.0000000001
 43
0.0000000001
 12
1.0
 22
0.0
 32
0.0
 13
1.0
 23
0.0
 33
0.0
 40
0.0
 40
0.0
 40
0.0
 40
0.0
 40
0.2
 40
0.2
 40
0.2
 40
0.2
 40
0.4
 40
0.4
 40
0.4
 40
0.4
 40
0.6
 40
0.6
 40
0.6
 40
0.6
 40
1.0
 40
1.0
 40
1.0
 40
1.0
 10
186.7919
 20
66.4566
 30
0.0
 10
185.541
 20
62.3149
 30
0.0
 10
181.7719
 20
54.9792
 30
0.0
 10
175.7993
 20
49.3848
 30
0.0
 10
175.7993
 20
49.3848
 30
0.0
 10
176.7948
 20
49.0303
 30
0.0
 10
177.9983
 20
48.2634
 30
0.0
 10
179.4008
 20
46.4125
 30
0.0
 10
179.4008
 20
46.4125
 30
0.0
 10
180.3297
 20
49.2624
 30
0.0
 10
184.761
 20
50.2707
 30
0.0
 10
186.7919
 20
46.2474
 30
0.0
 10
186.7919
 20
46.2474
 30
0.0
 10
186.7919
 20
52.3754
 30
0.0
 10
186.7919
 20
62.3163
 30
0.0
 10
186.7919
 20
66.4566
 30
0.0
  0
SPLINE
  5
5D
330
1F
100
AcDbEntity
  8
layer 1
 62
     7
100
AcDbSpline
210
0.0
220
0.0
230
1.0
 70
    11
 71
     3
 72
    16
 73
    12
 74
     0
 42
0.0000000001
 43
0.0000000001
 12
1.0
 22
0.0
 32
0.0
 13
1.0
 23
0.0
 33
0.0
 40
0.0
 40
0.0
 40
0.0
 40
0.0
 40
0.25
 40
0.25
 40
0.25
 40
0.25
 40
0.5
 40
0.5
 40
0.5
 40
0.5
 40
1.0
 40
1.0
 40
1.0
 40
1.0
 10
134.7569
 20
123.2307
 30
0.0
 10
127.2216
 20
123.2307
 30
0.0
 10
125.6141
 20
123.2307
 30
0.0
 10
119.949
 20
123.2307
 30
0.0
 10
119.949
 20
123.2307
 30
0.0
 10
122.1646
 20
122.063
 30
0.0
 10
124.6697
 20
120.3155
 30
0.0
 10
124.5847
 20
117.6923
 30
0.0
 10
124.5847
 20
117.6923
 30
0.0
 10
126.2878
 20
120.4804
 30
0.0
 10
130.8606
 20
122.6233
 30
0.0
 10
134.7569
 20
123.2307
 30
0.0
  0
SPLINE
  5
5E
330
1F
100
AcDbEntity
  8
layer 1
 62
     7
100
AcDbSpline
210
0.0
220
0.0
230
1.0
 70
    11
 71
     3
 72
    28
 73
    24
 74
     0
 42
0.0000000001
 43
0.0000000001
 12
1.0
 22
0.0
 32
0.0
 13
1.0
 23
0.0
 33
0.0
 40
0.0
 40
0.0
 40
0.0
 40
0.0
 40
0.1428571428571428
 40
0.1428571428571428
 40
0.1428571428571428
 40
0.1428571428571428
 40
0.2857142857142857
 40
0.2857142857142857
 40
0.2857142857142857
 40
0.2857142857142857
 40
0.4285714285714285
 40
0.4285714285714285
 40
0.4285714285714285
 40
0.4285714285714285
 40
0.5714285714285714
 40
0.5714285714285714
 40
0.5714285714285714
 40
0.5714285714285714
 40
0.7142857142857143
 40
0.7142857142857143
 40
0.7142857142857143
 40
0.7142857142857143
 40
1.0
 40
1.0
 40
1.0
 40
1.0
 10
117.3508
 20
104.5964
 30
0.0
 10
118.0316
 20
107.3916
 30
0.0
 10
119.1344
 20
113.9559
 30
0.0
 10
115.5869
 20
117.7251
 30
0.0
 10
115.5869
 20
117.7251
 30
0.0
 10
114.711
 20
116.515
 30
0.0
 10
111.7437
 20
114.1323
 30
0.0
 10
107.4264
 20
118.0311
 30
0.0
 10
107.4264
 20
118.0311
 30
0.0
 10
103.1092
 20
114.1323
 30
0.0
 10
100.142
 20
116.515
 30
0.0
 10
99.266
 20
117.7251
 30
0.0
 10
99.266
 20
117.7251
 30
0.0
 10
95.7184
 20
113.9559
 30
0.0
 10
96.8213
 20
107.3916
 30
0.0
 10
97.5021
 20
104.5964
 30
0.0
 10
97.5021
 20
104.5964
 30
0.0
 10
101.2713
 20
108.2239
 30
0.0
 10
105.7263
 20
106.5893
 30
0.0
 10
107.4264
 20
103.8012
 30
0.0
 10
107.4264
 20
103.8012
 30
0.0
 10
109.1266
 20
106.5894
 30
0.0
 10
113.5816
 20
108.2239
 30
0.0
 10
117.3508
 20
104.5964
 30
0.0
  0
SPLINE
  5
5F
330
1F
100
AcDbEntity
  8
layer 1
 62
     7
100
AcDbSpline
210
0.0
220
0.0
230
1.0
 70
    11
 71
     3
 72
    24
 73
    20
 74
     0
 42
0.0000000001
 43
0.0000000001
 12
1.0
 22
0.0
 32
0.0
 13
1.0
 23
0.0
 33
0.0
 40
0.0
 40
0.0
 40
0.0
 40
0.0
 40
0.1666666666666667
 40
0.1666666666666667
 40
0.1666666666666667
 40
0.1666666666666667
 40
0.3333333333333333
 40
0.3333333333333333
 40
0.3333333333333333
 40
0.3333333333333333
 40
0.5
 40
0.5
 40
0.5
 40
0.5
 40
0.6666666666666666
 40
0.6666666666666666
 40
0.6666666666666666
 40
0.6666666666666666
 40
1.0
 40
1.0
 40
1.0
 40
1.0
 10
160.125
 20
116.7934
 30
0.0
 10
152.5898
 20
120.3509
 30
0.0
 10
143.105
 20
119.885
 30
0.0
 10
137.2281
 20
117.1323
 30
0.0
 10
137.2281
 20
117.1323
 30
0.0
 10
144.1465
 20
116.1049
 30
0.0
 10
141.5706
 20
108.48
 30
0.0
 10
137.416
 20
109.2462
 30
0.0
 10
137.416
 20
109.2462
 30
0.0
 10
142.1611
 20
104.4035
 30
0.0
 10
145.5563
 20
115.7718
 30
0.0
 10
156.009
 20
108.6716
 30
0.0
 10
156.009
 20
108.6716
 30
0.0
 10
155.9756
 20
110.6974
 30
0.0
 10
157.2451
 20
115.6354
 30
0.0
 10
160.125
 20
116.7935
 30
0.0
 10
160.125
 20
116.7935
 30
0.0
 10
160.125
 20
116.7935
 30
0.0
 10
160.125
 20
116.7934
 30
0.0
 10
160.125
 20
116.7934
 30
0.0
  0
SPLINE
  5
60
330
1F
100
AcDbEntity
  8
layer 1
 62
     7
100
AcDbSpline
210
0.0
220
0.0
230
1.0
 70
    11
 71
     3
 72
    24
 73
    20
 74
     0
 42
0.0000000001
 43
0.0000000001
 12
1.0
 22
0.0
 32
0.0
 13
1.0
 23
0.0
 33
0.0
 40
0.0
 40
0.0
 40
0.0
 40
0.0
 40
0.1666666666666667
 40
0.1666666666666667
 40
0.1666666666666667
 40
0.1666666666666667
 40
0.3333333333333333
 40
0.3333333333333333
 40
0.3333333333333333
 40
0.3333333333333333
 40
0.5
 40
0.5
 40
0.5
 40
0.5
 40
0.6666666666666666
 40
0.6666666666666666
 40
0.6666666666666666
 40
0.6666666666666666
 40
1.0
 40
1.0
 40
1.0
 40
1.0
 10
157.9228
 20
101.9707
 30
0.0
 10
155.9354
 20
98.2015
 30
0.0
 10
156.2337
 20
95.8299
 30
0.0
 10
156.8365
 20
93.9241
 30
0.0
 10
156.8365
 20
93.9241
 30
0.0
 10
153.9857
 20
94.4901
 30
0.0
 10
151.2695
 20
92.4148
 30
0.0
 10
150.7244
 20
89.9294
 30
0.0
 10
150.7244
 20
89.9294
 30
0.0
 10
152.8269
 20
88.8863
 30
0.0
 10
156.1039
 20
89.2082
 30
0.0
 10
157.7443
 20
91.4165
 30
0.0
 10
157.7443
 20
91.4165
 30
0.0
 10
158.7626
 20
89.3266
 30
0.0
 10
160.6756
 20
87.0579
 30
0.0
 10
163.1662
 20
86.9033
 30
0.0
 10
163.1662
 20
86.9033
 30
0.0
 10
164.0646
 20
91.5548
 30
0.0
 10
160.7602
 20
100.4315
 30
0.0
 10
157.9228
 20
101.9707
 30
0.0
  0
SPLINE
  5
61
330
1F
100
AcDbEntity
  8
layer 1
 62
     7
100
AcDbSpline
210
0.0
220
0.0
230
1.0
 70
    11
 71
     3
 72
    20
 73
    16
 74
     0
 42
0.0000000001
 43
0.0000000001
 12
1.0
 22
0.0
 32
0.0
 13
1.0
 23
0.0
 33
0.0
 40
0.0
 40
0.0
 40
0.0
 40
0.0
 40
0.2
 40
0.2
 40
0.2
 40
0.2
 40
0.4
 40
0.4
 40
0.4
 40
0.4
 40
0.6
 40
0.6
 40
0.6
 40
0.6
 40
1.0
 40
1.0
 40
1.0
 40
1.0
 10
142.2448
 20
100.3516
 30
0.0
 10
141.34
 20
97.2467
 30
0.0
 10
142.2294
 20
94.9116
 30
0.0
 10
145.2654
 20
94.3665
 30
0.0
 10
145.2654
 20
94.3665
 30
0.0
 10
149.5695
 20
94.7326
 30
0.0
 10
149.8404
 20
98.9413
 30
0.0
 10
147.6321
 20
100.5818
 30
0.0
 10
147.6321
 20
100.5818
 30
0.0
 10
149.722
 20
100.2449
 30
0.0
 10
153.0919
 20
101.4378
 30
0.0
 10
154.2205
 20
103.8438
 30
0.0
 10
154.2205
 20
103.8438
 30
0.0
 10
149.9923
 20
105.3302
 30
0.0
 10
144.2724
 20
105.6124
 30
0.0
 10
142.2448
 20
100.3516
 30
0.0
  0
SPLINE
  5
62
330
1F
100
AcDbEntity
  8
layer 1
 62
     7
100
AcDbSpline
210
0.0
220
0.0
230
1.0
 70
    11
 71
     3
 72
    24
 73
    20
 74
     0
 42
0.0000000001
 43
0.0000000001
 12
1.0
 22
0.0
 32
0.0
 13
1.0
 23
0.0
 33
0.0
 40
0.0
 40
0.0
 40
0.0
 40
0.0
 40
0.1666666666666667
 40
0.1666666666666667
 40
0.1666666666666667
 40
0.1666666666666667
 40
0.3333333333333333
 40
0.3333333333333333
 40
0.3333333333333333
 40
0.3333333333333333
 40
0.5
 40
0.5
 40
0.5
 40
0.5
 40
0.6666666666666666
 40
0.6666666666666666
 40
0.6666666666666666
 40
0.6666666666666666
 40
1.0
 40
1.0
 40
1.0
 40
1.0
 10
132.0486
 20
75.634
 30
0.0
 10
133.0519
 20
76.3046
 30
0.0
 10
133.6166
 20
79.4683
 30
0.0
 10
133.2469
 20
80.8483
 30
0.0
 10
133.2469
 20
80.8483
 30
0.0
 10
135.6376
 20
80.9066
 30
0.0
 10
137.028
 20
82.4431
 30
0.0
 10
137.5769
 20
85.2671
 30
0.0
 10
137.5769
 20
85.2671
 30
0.0
 10
135.2299
 20
85.9202
 30
0.0
 10
132.6528
 20
85.4412
 30
0.0
 10
132.1804
 20
82.7312
 30
0.0
 10
132.1804
 20
82.7312
 30
0.0
 10
130.3312
 20
84.14
 30
0.0
 10
127.8076
 20
84.8961
 30
0.0
 10
125.5133
 20
83.9143
 30
0.0
 10
125.5133
 20
83.9143
 30
0.0
 10
126.8023
 20
79.3555
 30
0.0
 10
128.2578
 20
78.2459
 30
0.0
 10
132.0486
 20
75.634
 30
0.0
  0
SPLINE
  5
63
330
1F
100
AcDbEntity
  8
layer 1
 62
     7
100
AcDbSpline
210
0.0
220
0.0
230
1.0
 70
    11
 71
     3
 72
    24
 73
    20
 74
     0
 42
0.0000000001
 43
0.0000000001
 12
1.0
 22
0.0
 32
0.0
 13
1.0
 23
0.0
 33
0.0
 40
0.0
 40
0.0
 40
0.0
 40
0.0
 40
0.1666666666666667
 40
0.1666666666666667
 40
0.1666666666666667
 40
0.1666666666666667
 40
0.3333333333333333
 40
0.3333333333333333
 40
0.3333333333333333
 40
0.3333333333333333
 40
0.5
 40
0.5
 40
0.5
 40
0.5
 40
0.6666666666666666
 40
0.6666666666666666
 40
0.6666666666666666
 40
0.6666666666666666
 40
1.0
 40
1.0
 40
1.0
 40
1.0
 10
147.7057
 20
71.943
 30
0.0
 10
147.5377
 20
72.6769
 30
0.0
 10
145.8475
 20
75.1941
 30
0.0
 10
143.8956
 20
76.1891
 30
0.0
 10
143.8956
 20
76.1891
 30
0.0
 10
145.9137
 20
77.8109
 30
0.0
 10
146.2439
 20
81.252
 30
0.0
 10
143.4922
 20
83.4796
 30
0.0
 10
143.4922
 20
83.4796
 30
0.0
 10
141.3837
 20
82.5906
 30
0.0
 10
140.1779
 20
79.1814
 30
0.0
 10
141.2701
 20
76.6567
 30
0.0
 10
141.2701
 20
76.6567
 30
0.0
 10
139.2075
 20
75.2813
 30
0.0
 10
137.5683
 20
74.7077
 30
0.0
 10
137.0608
 20
72.5767
 30
0.0
 10
137.0608
 20
72.5767
 30
0.0
 10
142.7938
 20
70.0883
 30
0.0
 10
144.9539
 20
71.127
 30
0.0
 10
147.7057
 20
71.943
 30
0.0
  0
SPLINE
  5
64
330
1F
100
AcDbEntity
  8
layer 1
 62
     7
100
AcDbSpline
210
0.0
220
0.0
230
1.0
 70
    11
 71
     3
 72
    28
 73
    24
 74
     0
 42
0.0000000001
 43
0.0000000001
 12
1.0
 22
0.0
 32
0.0
 13
1.0
 23
0.0
 33
0.0
 40
0.0
 40
0.0
 40
0.0
 40
0.0
 40
0.1428571428571428
 40
0.1428571428571428
 40
0.1428571428571428
 40
0.1428571428571428
 40
0.2857142857142857
 40
0.2857142857142857
 40
0.2857142857142857
 40
0.2857142857142857
 40
0.4285714285714285
 40
0.4285714285714285
 40
0.4285714285714285
 40
0.4285714285714285
 40
0.5714285714285714
 40
0.5714285714285714
 40
0.5714285714285714
 40
0.5714285714285714
 40
0.7142857142857143
 40
0.7142857142857143
 40
0.7142857142857143
 40
0.7142857142857143
 40
1.0
 40
1.0
 40
1.0
 40
1.0
 10
161.7306
 20
82.4329
 30
0.0
 10
159.6778
 20
83.7052
 30
0.0
 10
156.6961
 20
82.1585
 30
0.0
 10
155.3471
 20
80.6836
 30
0.0
 10
155.3471
 20
80.6836
 30
0.0
 10
154.8477
 20
83.4355
 30
0.0
 10
152.4617
 20
84.8014
 30
0.0
 10
149.652
 20
85.0309
 30
0.0
 10
149.652
 20
85.0309
 30
0.0
 10
149.5691
 20
82.6116
 30
0.0
 10
151.0762
 20
80.0628
 30
0.0
 10
153.8345
 20
79.3873
 30
0.0
 10
153.8345
 20
79.3873
 30
0.0
 10
152.5337
 20
77.4605
 30
0.0
 10
151.7562
 20
74.6439
 30
0.0
 10
152.8164
 20
73.0762
 30
0.0
 10
152.8164
 20
73.0762
 30
0.0
 10
158.0888
 20
74.6239
 30
0.0
 10
160.8932
 20
77.0008
 30
0.0
 10
161.7305
 20
82.4329
 30
0.0
 10
161.7305
 20
82.4329
 30
0.0
 10
161.7305
 20
82.4329
 30
0.0
 10
161.7306
 20
82.4329
 30
0.0
 10
161.7306
 20
82.4329
 30
0.0
  0
SPLINE
  5
65
330
1F
100
AcDbEntity
  8
layer 1
 62
     7
100
AcDbSpline
210
0.0
220
0.0
230
1.0
 70
    11
 71
     3
 72
    20
 73
    16
 74
     0
 42
0.0000000001
 43
0.0000000001
 12
1.0
 22
0.0
 32
0.0
 13
1.0
 23
0.0
 33
0.0
 40
0.0
 40
0.0
 40
0.0
 40
0.0
 40
0.2
 40
0.2
 40
0.2
 40
0.2
 40
0.4
 40
0.4
 40
0.4
 40
0.4
 40
0.6
 40
0.6
 40
0.6
 40
0.6
 40
1.0
 40
1.0
 40
1.0
 40
1.0
 10
111.0438
 20
68.8916
 30
0.0
 10
110.2288
 20
71.3082
 30
0.0
 10
108.9498
 20
72.21
 30
0.0
 10
107.4264
 20
72.5987
 30
0.0
 10
107.4264
 20
72.5987
 30
0.0
 10
105.9031
 20
72.21
 30
0.0
 10
104.6241
 20
71.3082
 30
0.0
 10
103.809
 20
68.8916
 30
0.0
 10
103.809
 20
68.8916
 30
0.0
 10
102.661
 20
63.8249
 30
0.0
 10
105.6906
 20
59.7316
 30
0.0
 10
107.4264
 20
54.9837
 30
0.0
 10
107.4264
 20
54.9837
 30
0.0
 10
109.1622
 20
59.7316
 30
0.0
 10
112.1919
 20
63.8249
 30
0.0
 10
111.0438
 20
68.8916
 30
0.0
  0
SPLINE
  5
66
330
1F
100
AcDbEntity
  8
layer 1
 62
     7
100
AcDbSpline
210
0.0
220
0.0
230
1.0
 70
    11
 71
     3
 72
    24
 73
    20
 74
     0
 42
0.0000000001
 43
0.0000000001
 12
1.0
 22
0.0
 32
0.0
 13
1.0
 23
0.0
 33
0.0
 40
0.0
 40
0.0
 40
0.0
 40
0.0
 40
0.1666666666666667
 40
0.1666666666666667
 40
0.1666666666666667
 40
0.1666666666666667
 40
0.3333333333333333
 40
0.3333333333333333
 40
0.3333333333333333
 40
0.3333333333333333
 40
0.5
 40
0.5
 40
0.5
 40
0.5
 40
0.6666666666666666
 40
0.6666666666666666
 40
0.6666666666666666
 40
0.6666666666666666
 40
1.0
 40
1.0
 40
1.0
 40
1.0
 10
158.0254
 20
67.9467
 30
0.0
 10
154.8267
 20
65.9887
 30
0.0
 10
152.1848
 20
65.5553
 30
0.0
 10
149.2143
 20
65.3723
 30
0.0
 10
149.2143
 20
65.3723
 30
0.0
 10
159.1023
 20
62.9012
 30
0.0
 10
163.5989
 20
59.4737
 30
0.0
 10
169.1778
 20
54.655
 30
0.0
 10
169.1778
 20
54.655
 30
0.0
 10
170.9658
 20
56.1291
 30
0.0
 10
175.2109
 20
61.1251
 30
0.0
 10
176.3396
 20
63.531
 30
0.0
 10
176.3396
 20
63.531
 30
0.0
 10
174.5502
 20
62.4168
 30
0.0
 10
169.7439
 20
64.0598
 30
0.0
 10
169.5398
 20
68.2531
 30
0.0
 10
169.5398
 20
68.2531
 30
0.0
 10
164.6344
 20
61.075
 30
0.0
 10
158.8146
 20
64.0156
 30
0.0
 10
158.0254
 20
67.9467
 30
0.0
  0
SPLINE
  5
67
330
1F
100
AcDbEntity
  8
layer 1
 62
     7
100
AcDbSpline
210
0.0
220
0.0
230
1.0
 70
    11
 71
     3
 72
    24
 73
    20
 74
     0
 42
0.0000000001
 43
0.0000000001
 12
1.0
 22
0.0
 32
0.0
 13
1.0
 23
0.0
 33
0.0
 40
0.0
 40
0.0
 40
0.0
 40
0.0
 40
0.1666666666666667
 40
0.1666666666666667
 40
0.1666666666666667
 40
0.1666666666666667
 40
0.3333333333333333
 40
0.3333333333333333
 40
0.3333333333333333
 40
0.3333333333333333
 40
0.5
 40
0.5
 40
0.5
 40
0.5
 40
0.6666666666666666
 40
0.6666666666666666
 40
0.6666666666666666
 40
0.6666666666666666
 40
1.0
 40
1.0
 40
1.0
 40
1.0
 10
144.8306
 20
21.2859
 30
0.0
 10
143.1389
 20
27.3492
 30
0.0
 10
141.2764
 20
29.8093
 30
0.0
 10
136.7989
 20
34.8251
 30
0.0
 10
136.7989
 20
34.8251
 30
0.0
 10
147.4054
 20
34.6933
 30
0.0
 10
160.5959
 20
39.6692
 30
0.0
 10
163.206
 20
41.1773
 30
0.0
 10
163.206
 20
41.1773
 30
0.0
 10
163.7988
 20
37.7286
 30
0.0
 10
162.4317
 20
33.7719
 30
0.0
 10
155.6617
 20
32.9248
 30
0.0
 10
155.6617
 20
32.9248
 30
0.0
 10
153.9962
 20
32.6658
 30
0.0
 10
146.756
 20
29.035
 30
0.0
 10
144.8306
 20
21.286
 30
0.0
 10
144.8306
 20
21.286
 30
0.0
 10
144.8306
 20
21.286
 30
0.0
 10
144.8306
 20
21.2859
 30
0.0
 10
144.8306
 20
21.2859
 30
0.0
  0
SPLINE
  5
68
330
1F
100
AcDbEntity
  8
layer 1
 62
     7
100
AcDbSpline
210
0.0
220
0.0
230
1.0
 70
    11
 71
     3
 72
    20
 73
    16
 74
     0
 42
0.0000000001
 43
0.0000000001
 12
1.0
 22
0.0
 32
0.0
 13
1.0
 23
0.0
 33
0.0
 40
0.0
 40
0.0
 40
0.0
 40
0.0
 40
0.2
 40
0.2
 40
0.2
 40
0.2
 40
0.4
 40
0.4
 40
0.4
 40
0.4
 40
0.6
 40
0.6
 40
0.6
 40
0.6
 40
1.0
 40
1.0
 40
1.0
 40
1.0
 10
171.8006
 20
21.6497
 30
0.0
 10
172.863
 20
24.9588
 30
0.0
 10
172.7673
 20
27.6788
 30
0.0
 10
168.4458
 20
29.7324
 30
0.0
 10
168.4458
 20
29.7324
 30
0.0
 10
171.6731
 20
32.3549
 30
0.0
 10
173.3275
 20
38.5259
 30
0.0
 10
170.6891
 20
43.1
 30
0.0
 10
170.6891
 20
43.1
 30
0.0
 10
177.2059
 20
39.4954
 30
0.0
 10
185.9721
 20
27.6919
 30
0.0
 10
179.5658
 20
14.8929
 30
0.0
 10
179.5658
 20
14.8929
 30
0.0
 10
180.6024
 20
20.0901
 30
0.0
 10
175.4928
 20
23.2149
 30
0.0
 10
171.8006
 20
21.6497
 30
0.0
  0
SPLINE
  5
69
330
1F
100
AcDbEntity
  8
layer 1
 62
     7
100
AcDbSpline
210
0.0
220
0.0
230
1.0
 70
    11
 71
     3
 72
    52
 73
    48
 74
     0
 42
0.0000000001
 43
0.0000000001
 12
1.0
 22
0.0
 32
0.0
 13
1.0
 23
0.0
 33
0.0
 40
0.0
 40
0.0
 40
0.0
 40
0.0
 40
0.0769230769230769
 40
0.0769230769230769
 40
0.0769230769230769
 40
0.0769230769230769
 40
0.1538461538461539
 40
0.1538461538461539
 40
0.1538461538461539
 40
0.1538461538461539
 40
0.2307692307692308
 40
0.2307692307692308
 40
0.2307692307692308
 40
0.2307692307692308
 40
0.3076923076923077
 40
0.3076923076923077
 40
0.3076923076923077
 40
0.3076923076923077
 40
0.3846153846153846
 40
0.3846153846153846
 40
0.3846153846153846
 40
0.3846153846153846
 40
0.4615384615384616
 40
0.4615384615384616
 40
0.4615384615384616
 40
0.4615384615384616
 40
0.5384615384615384
 40
0.5384615384615384
 40
0.5384615384615384
 40
0.5384615384615384
 40
0.6153846153846154
 40
0.6153846153846154
 40
0.6153846153846154
 40
0.6153846153846154
 40
0.6923076923076923
 40
0.6923076923076923
 40
0.6923076923076923
 40
0.6923076923076923
 40
0.7692307692307693
 40
0.7692307692307693
 40
0.7692307692307693
 40
0.7692307692307693
 40
0.8461538461538461
 40
0.8461538461538461
 40
0.8461538461538461
 40
0.8461538461538461
 40
1.0
 40
1.0
 40
1.0
 40
1.0
 10
122.7557
 20
75.0578
 30
0.0
 10
123.3349
 20
72.0751
 30
0.0
 10
123.5309
 20
70.4735
 30
0.0
 10
123.0484
 20
69.6371
 30
0.0
 10
123.0484
 20
69.6371
 30
0.0
 10
123.193
 20
69.5857
 30
0.0
 10
130.228
 20
69.4503
 30
0.0
 10
131.5406
 20
62.1211
 30
0.0
 10
131.5406
 20
62.1211
 30
0.0
 10
132.2509
 20
58.1554
 30
0.0
 10
129.4793
 20
51.8767
 30
0.0
 10
123.8352
 20
53.3343
 30
0.0
 10
123.8352
 20
53.3343
 30
0.0
 10
125.2142
 20
57.0868
 30
0.0
 10
120.4348
 20
58.9672
 30
0.0
 10
119.059
 20
55.1375
 30
0.0
 10
119.059
 20
55.1375
 30
0.0
 10
118.3766
 20
53.2379
 30
0.0
 10
118.706
 20
48.9839
 30
0.0
 10
124.7146
 20
45.9321
 30
0.0
 10
124.7146
 20
45.9321
 30
0.0
 10
128.8886
 20
43.8121
 30
0.0
 10
132.8978
 20
44.5084
 30
0.0
 10
134.639
 20
46.0532
 30
0.0
 10
134.639
 20
46.0532
 30
0.0
 10
136.8026
 20
47.9728
 30
0.0
 10
136.0668
 20
51.5871
 30
0.0
 10
132.7333
 20
52.4629
 30
0.0
 10
132.7333
 20
52.4629
 30
0.0
 10
134.2538
 20
60.6332
 30
0.0
 10
143.2957
 20
59.6806
 30
0.0
 10
146.0737
 20
57.0117
 30
0.0
 10
146.0737
 20
57.0117
 30
0.0
 10
152.2988
 20
51.0312
 30
0.0
 10
148.4728
 20
45.3913
 30
0.0
 10
148.6104
 20
44.8875
 30
0.0
 10
148.6104
 20
44.8875
 30
0.0
 10
153.1383
 20
45.9684
 30
0.0
 10
158.4238
 20
47.4037
 30
0.0
 10
161.9186
 20
49.8464
 30
0.0
 10
161.9186
 20
49.8464
 30
0.0
 10
152.9514
 20
58.3535
 30
0.0
 10
131.235
 20
63.4753
 30
0.0
 10
122.7558
 20
75.0578
 30
0.0
 10
122.7558
 20
75.0578
 30
0.0
 10
122.7558
 20
75.0578
 30
0.0
 10
122.7557
 20
75.0578
 30
0.0
 10
122.7557
 20
75.0578
 30
0.0
  0
SPLINE
  5
6A
330
1F
100
AcDbEntity
  8
layer 1
 62
     7
100
AcDbSpline
210
0.0
220
0.0
230
1.0
 70
    11
 71
     3
 72
    36
 73
    32
 74
     0
 42
0.0000000001
 43
0.0000000001
 12
1.0
 22
0.0
 32
0.0
 13
1.0
 23
0.0
 33
0.0
 40
0.0
 40
0.0
 40
0.0
 40
0.0
 40
0.1111111111111111
 40
0.1111111111111111
 40
0.1111111111111111
 40
0.1111111111111111
 40
0.2222222222222222
 40
0.2222222222222222
 40
0.2222222222222222
 40
0.2222222222222222
 40
0.3333333333333333
 40
0.3333333333333333
 40
0.3333333333333333
 40
0.3333333333333333
 40
0.4444444444444444
 40
0.4444444444444444
 40
0.4444444444444444
 40
0.4444444444444444
 40
0.5555555555555556
 40
0.5555555555555556
 40
0.5555555555555556
 40
0.5555555555555556
 40
0.6666666666666666
 40
0.6666666666666666
 40
0.6666666666666666
 40
0.6666666666666666
 40
0.7777777777777778
 40
0.7777777777777778
 40
0.7777777777777778
 40
0.7777777777777778
 40
1.0
 40
1.0
 40
1.0
 40
1.0
 10
164.9186
 20
112.0506
 30
0.0
 10
159.3409
 20
102.2235
 30
0.0
 10
175.7312
 20
100.8139
 30
0.0
 10
167.2097
 20
78.3046
 30
0.0
 10
167.2097
 20
78.3046
 30
0.0
 10
171.5466
 20
81.5676
 30
0.0
 10
176.6531
 20
81.9222
 30
0.0
 10
182.232
 20
77.1035
 30
0.0
 10
182.232
 20
77.1035
 30
0.0
 10
182.3039
 20
80.6897
 30
0.0
 10
182.3482
 20
83.4117
 30
0.0
 10
181.6432
 20
86.0913
 30
0.0
 10
181.6432
 20
86.0913
 30
0.0
 10
180.752
 20
89.4786
 30
0.0
 10
176.192
 20
90.5272
 30
0.0
 10
174.7536
 20
86.8336
 30
0.0
 10
174.7536
 20
86.8336
 30
0.0
 10
170.3264
 20
91.7159
 30
0.0
 10
175.8304
 20
99.0962
 30
0.0
 10
179.6674
 20
99.0312
 30
0.0
 10
179.6674
 20
99.0312
 30
0.0
 10
176.9564
 20
107.2534
 30
0.0
 10
169.2502
 20
111.4236
 30
0.0
 10
168.6857
 20
112.9061
 30
0.0
 10
168.6857
 20
112.9061
 30
0.0
 10
167.9895
 20
111.5841
 30
0.0
 10
167.5377
 20
110.5596
 30
0.0
 10
164.9185
 20
112.0507
 30
0.0
 10
164.9185
 20
112.0507
 30
0.0
 10
164.9185
 20
112.0507
 30
0.0
 10
164.9186
 20
112.0506
 30
0.0
 10
164.9186
 20
112.0506
 30
0.0
  0
SPLINE
  5
6B
330
1F
100
AcDbEntity
  8
layer 1
 62
     7
100
AcDbSpline
210
0.0
220
0.0
230
1.0
 70
    11
 71
     3
 72
    24
 73
    20
 74
     0
 42
0.0000000001
 43
0.0000000001
 12
1.0
 22
0.0
 32
0.0
 13
1.0
 23
0.0
 33
0.0
 40
0.0
 40
0.0
 40
0.0
 40
0.0
 40
0.1666666666666667
 40
0.1666666666666667
 40
0.1666666666666667
 40
0.1666666666666667
 40
0.3333333333333333
 40
0.3333333333333333
 40
0.3333333333333333
 40
0.3333333333333333
 40
0.5
 40
0.5
 40
0.5
 40
0.5
 40
0.6666666666666666
 40
0.6666666666666666
 40
0.6666666666666666
 40
0.6666666666666666
 40
1.0
 40
1.0
 40
1.0
 40
1.0
 10
186.7299
 20
123.2307
 30
0.0
 10
179.1947
 20
123.2307
 30
0.0
 10
170.999
 20
123.2307
 30
0.0
 10
165.334
 20
123.2307
 30
0.0
 10
165.334
 20
123.2307
 30
0.0
 10
168.9526
 20
121.941
 30
0.0
 10
174.4468
 20
118.1804
 30
0.0
 10
176.6188
 20
115.9842
 30
0.0
 10
176.6188
 20
115.9842
 30
0.0
 10
176.046
 20
123.2307
 30
0.0
 10
183.3962
 20
120.515
 30
0.0
 10
184.7877
 20
117.6019
 30
0.0
 10
184.7877
 20
117.6019
 30
0.0
 10
179.255
 20
113.5873
 30
0.0
 10
182.6685
 20
107.0998
 30
0.0
 10
186.7919
 20
105.3961
 30
0.0
 10
186.7919
 20
105.3961
 30
0.0
 10
186.7919
 20
105.3961
 30
0.0
 10
186.7299
 20
123.2307
 30
0.0
 10
186.7299
 20
123.2307
 30
0.0
  0
SPLINE
  5
6C
330
1F
100
AcDbEntity
  8
layer 1
 62
     7
100
AcDbSpline
210
0.0
220
0.0
230
1.0
 70
    11
 71
     3
 72
    20
 73
    16
 74
     0
 42
0.0000000001
 43
0.0000000001
 12
1.0
 22
0.0
 32
0.0
 13
1.0
 23
0.0
 33
0.0
 40
0.0
 40
0.0
 40
0.0
 40
0.0
 40
0.2
 40
0.2
 40
0.2
 40
0.2
 40
0.4
 40
0.4
 40
0.4
 40
0.4
 40
0.6
 40
0.6
 40
0.6
 40
0.6
 40
1.0
 40
1.0
 40
1.0
 40
1.0
 10
109.0513
 20
28.4418
 30
0.0
 10
112.5278
 20
29.4165
 30
0.0
 10
114.4022
 20
32.8307
 30
0.0
 10
110.1633
 20
37.4489
 30
0.0
 10
110.1633
 20
37.4489
 30
0.0
 10
115.045
 20
38.0328
 30
0.0
 10
118.6945
 20
33.5469
 30
0.0
 10
119.3168
 20
29.8074
 30
0.0
 10
119.3168
 20
29.8074
 30
0.0
 10
115.2981
 20
28.9825
 30
0.0
 10
110.8301
 20
26.0595
 30
0.0
 10
109.0692
 20
21.7935
 30
0.0
 10
109.0692
 20
21.7935
 30
0.0
 10
108.8349
 20
23.7607
 30
0.0
 10
109.148
 20
26.0931
 30
0.0
 10
109.0513
 20
28.4418
 30
0.0
  0
SPLINE
  5
6D
330
1F
100
AcDbEntity
  8
layer 1
 62
     7
100
AcDbSpline
210
0.0
220
0.0
230
1.0
 70
    11
 71
     3
 72
    20
 73
    16
 74
     0
 42
0.0000000001
 43
0.0000000001
 12
1.0
 22
0.0
 32
0.0
 13
1.0
 23
0.0
 33
0.0
 40
0.0
 40
0.0
 40
0.0
 40
0.0
 40
0.2
 40
0.2
 40
0.2
 40
0.2
 40
0.4
 40
0.4
 40
0.4
 40
0.4
 40
0.6
 40
0.6
 40
0.6
 40
0.6
 40
1.0
 40
1.0
 40
1.0
 40
1.0
 10
118.4334
 20
14.3142
 30
0.0
 10
121.9894
 20
16.0428
 30
0.0
 10
124.0228
 20
17.3992
 30
0.0
 10
125.2701
 20
17.4721
 30
0.0
 10
125.2701
 20
17.4721
 30
0.0
 10
124.0296
 20
21.8973
 30
0.0
 10
128.4742
 20
24.8724
 30
0.0
 10
132.5949
 20
23.4438
 30
0.0
 10
132.5949
 20
23.4438
 30
0.0
 10
130.7229
 20
25.6204
 30
0.0
 10
127.9246
 20
26.6353
 30
0.0
 10
124.494
 20
26.5282
 30
0.0
 10
124.494
 20
26.5282
 30
0.0
 10
124.8957
 20
21.6191
 30
0.0
 10
122.1876
 20
17.617
 30
0.0
 10
118.4334
 20
14.3142
 30
0.0
  0
SPLINE
  5
6E
330
1F
100
AcDbEntity
  8
layer 1
 62
     7
100
AcDbSpline
210
0.0
220
0.0
230
1.0
 70
    11
 71
     3
 72
    20
 73
    16
 74
     0
 42
0.0000000001
 43
0.0000000001
 12
1.0
 22
0.0
 32
0.0
 13
1.0
 23
0.0
 33
0.0
 40
0.0
 40
0.0
 40
0.0
 40
0.0
 40
0.2
 40
0.2
 40
0.2
 40
0.2
 40
0.4
 40
0.4
 40
0.4
 40
0.4
 40
0.6
 40
0.6
 40
0.6
 40
0.6
 40
1.0
 40
1.0
 40
1.0
 40
1.0
 10
124.1882
 20
31.6174
 30
0.0
 10
128.0852
 20
32.4747
 30
0.0
 10
132.0482
 20
30.2842
 30
0.0
 10
133.729
 20
29.0399
 30
0.0
 10
133.729
 20
29.0399
 30
0.0
 10
131.3952
 20
32.2815
 30
0.0
 10
124.8448
 20
38.046
 30
0.0
 10
118.6314
 20
39.9547
 30
0.0
 10
118.6314
 20
39.9547
 30
0.0
 10
122.7207
 20
36.5785
 30
0.0
 10
123.6105
 20
34.076
 30
0.0
 10
124.1881
 20
31.6174
 30
0.0
 10
124.1881
 20
31.6174
 30
0.0
 10
124.1881
 20
31.6174
 30
0.0
 10
124.1882
 20
31.6174
 30
0.0
 10
124.1882
 20
31.6174
 30
0.0
  0
SPLINE
  5
6F
330
1F
100
AcDbEntity
  8
layer 1
 62
     7
100
AcDbSpline
210
0.0
220
0.0
230
1.0
 70
    11
 71
     3
 72
    20
 73
    16
 74
     0
 42
0.0000000001
 43
0.0000000001
 12
1.0
 22
0.0
 32
0.0
 13
1.0
 23
0.0
 33
0.0
 40
0.0
 40
0.0
 40
0.0
 40
0.0
 40
0.2
 40
0.2
 40
0.2
 40
0.2
 40
0.4
 40
0.4
 40
0.4
 40
0.4
 40
0.6
 40
0.6
 40
0.6
 40
0.6
 40
1.0
 40
1.0
 40
1.0
 40
1.0
 10
139.6847
 20
17.1263
 30
0.0
 10
139.7999
 20
12.378
 30
0.0
 10
138.8919
 20
10.8937
 30
0.0
 10
137.0094
 20
8.3368
 30
0.0
 10
137.0094
 20
8.3368
 30
0.0
 10
138.8918
 20
5.7798
 30
0.0
 10
139.7999
 20
4.2955
 30
0.0
 10
139.6847
 20
-0.4527
 30
0.0
 10
139.6847
 20
-0.4527
 30
0.0
 10
140.6939
 20
3.5377
 30
0.0
 10
140.8101
 20
5.7065
 30
0.0
 10
140.8729
 20
8.3368
 30
0.0
 10
140.8729
 20
8.3368
 30
0.0
 10
140.8101
 20
10.9671
 30
0.0
 10
140.6939
 20
13.1359
 30
0.0
 10
139.6847
 20
17.1263
 30
0.0
  0
SPLINE
  5
70
330
1F
100
AcDbEntity
  8
layer 1
 62
     7
100
AcDbSpline
210
0.0
220
0.0
230
1.0
 70
    11
 71
     3
 72
    12
 73
     8
 74
     0
 42
0.0000000001
 43
0.0000000001
 12
1.0
 22
0.0
 32
0.0
 13
1.0
 23
0.0
 33
0.0
 40
0.0
 40
0.0
 40
0.0
 40
0.0
 40
0.3333333333333333
 40
0.3333333333333333
 40
0.3333333333333333
 40
0.3333333333333333
 40
1.0
 40
1.0
 40
1.0
 40
1.0
 10
119.9777
 20
24.8873
 30
0.0
 10
119.551
 20
20.7047
 30
0.0
 10
115.3784
 20
17.6591
 30
0.0
 10
113.2542
 20
19.1999
 30
0.0
 10
113.2542
 20
19.1999
 30
0.0
 10
112.0591
 20
21.5267
 30
0.0
 10
115.7543
 20
25.1364
 30
0.0
 10
119.9777
 20
24.8873
 30
0.0
  0
SPLINE
  5
71
330
1F
100
AcDbEntity
  8
layer 1
 62
     7
100
AcDbSpline
210
0.0
220
0.0
230
1.0
 70
    11
 71
     3
 72
    20
 73
    16
 74
     0
 42
0.0000000001
 43
0.0000000001
 12
1.0
 22
0.0
 32
0.0
 13
1.0
 23
0.0
 33
0.0
 40
0.0
 40
0.0
 40
0.0
 40
0.0
 40
0.2
 40
0.2
 40
0.2
 40
0.2
 40
0.4
 40
0.4
 40
0.4
 40
0.4
 40
0.6
 40
0.6
 40
0.6
 40
0.6
 40
1.0
 40
1.0
 40
1.0
 40
1.0
 10
28.061
 20
-49.7831
 30
0.0
 10
29.3119
 20
-45.6414
 30
0.0
 10
33.0809
 20
-38.3057
 30
0.0
 10
39.0536
 20
-32.7112
 30
0.0
 10
39.0536
 20
-32.7112
 30
0.0
 10
38.0581
 20
-32.3568
 30
0.0
 10
36.8545
 20
-31.5899
 30
0.0
 10
35.4521
 20
-29.739
 30
0.0
 10
35.4521
 20
-29.739
 30
0.0
 10
34.5232
 20
-32.5889
 30
0.0
 10
30.0918
 20
-33.5972
 30
0.0
 10
28.061
 20
-29.5738
 30
0.0
 10
28.061
 20
-29.5738
 30
0.0
 10
28.061
 20
-35.7019
 30
0.0
 10
28.061
 20
-45.6427
 30
0.0
 10
28.061
 20
-49.7831
 30
0.0
  0
SPLINE
  5
72
330
1F
100
AcDbEntity
  8
layer 1
 62
     7
100
AcDbSpline
210
0.0
220
0.0
230
1.0
 70
    11
 71
     3
 72
    16
 73
    12
 74
     0
 42
0.0000000001
 43
0.0000000001
 12
1.0
 22
0.0
 32
0.0
 13
1.0
 23
0.0
 33
0.0
 40
0.0
 40
0.0
 40
0.0
 40
0.0
 40
0.25
 40
0.25
 40
0.25
 40
0.25
 40
0.5
 40
0.5
 40
0.5
 40
0.5
 40
1.0
 40
1.0
 40
1.0
 40
1.0
 10
80.0959
 20
-106.5572
 30
0.0
 10
87.6312
 20
-106.5572
 30
0.0
 10
89.2387
 20
-106.5572
 30
0.0
 10
94.9038
 20
-106.5572
 30
0.0
 10
94.9038
 20
-106.5572
 30
0.0
 10
92.6882
 20
-105.3894
 30
0.0
 10
90.1831
 20
-103.642
 30
0.0
 10
90.2681
 20
-101.0187
 30
0.0
 10
90.2681
 20
-101.0187
 30
0.0
 10
88.565
 20
-103.8068
 30
0.0
 10
83.9922
 20
-105.9497
 30
0.0
 10
80.0959
 20
-106.5572
 30
0.0
  0
SPLINE
  5
73
330
1F
100
AcDbEntity
  8
layer 1
 62
     7
100
AcDbSpline
210
0.0
220
0.0
230
1.0
 70
    11
 71
     3
 72
    20
 73
    16
 74
     0
 42
0.0000000001
 43
0.0000000001
 12
1.0
 22
0.0
 32
0.0
 13
1.0
 23
0.0
 33
0.0
 40
0.0
 40
0.0
 40
0.0
 40
0.0
 40
0.2
 40
0.2
 40
0.2
 40
0.2
 40
0.4
 40
0.4
 40
0.4
 40
0.4
 40
0.6
 40
0.6
 40
0.6
 40
0.6
 40
1.0
 40
1.0
 40
1.0
 40
1.0
 10
54.7279
 20
-100.1199
 30
0.0
 10
62.2631
 20
-103.6774
 30
0.0
 10
71.7479
 20
-103.2115
 30
0.0
 10
77.6247
 20
-100.4587
 30
0.0
 10
77.6247
 20
-100.4587
 30
0.0
 10
70.7063
 20
-99.4314
 30
0.0
 10
73.2823
 20
-91.8065
 30
0.0
 10
77.4369
 20
-92.5727
 30
0.0
 10
77.4369
 20
-92.5727
 30
0.0
 10
72.6918
 20
-87.73
 30
0.0
 10
69.2966
 20
-99.0983
 30
0.0
 10
58.8439
 20
-91.9981
 30
0.0
 10
58.8439
 20
-91.9981
 30
0.0
 10
58.8772
 20
-94.0238
 30
0.0
 10
57.6077
 20
-98.9618
 30
0.0
 10
54.7279
 20
-100.1199
 30
0.0
  0
SPLINE
  5
74
330
1F
100
AcDbEntity
  8
layer 1
 62
     7
100
AcDbSpline
210
0.0
220
0.0
230
1.0
 70
    11
 71
     3
 72
    24
 73
    20
 74
     0
 42
0.0000000001
 43
0.0000000001
 12
1.0
 22
0.0
 32
0.0
 13
1.0
 23
0.0
 33
0.0
 40
0.0
 40
0.0
 40
0.0
 40
0.0
 40
0.1666666666666667
 40
0.1666666666666667
 40
0.1666666666666667
 40
0.1666666666666667
 40
0.3333333333333333
 40
0.3333333333333333
 40
0.3333333333333333
 40
0.3333333333333333
 40
0.5
 40
0.5
 40
0.5
 40
0.5
 40
0.6666666666666666
 40
0.6666666666666666
 40
0.6666666666666666
 40
0.6666666666666666
 40
1.0
 40
1.0
 40
1.0
 40
1.0
 10
56.9301
 20
-85.2972
 30
0.0
 10
58.9174
 20
-81.5279
 30
0.0
 10
58.6192
 20
-79.1563
 30
0.0
 10
58.0164
 20
-77.2505
 30
0.0
 10
58.0164
 20
-77.2505
 30
0.0
 10
60.8672
 20
-77.8166
 30
0.0
 10
63.5834
 20
-75.7413
 30
0.0
 10
64.1285
 20
-73.2559
 30
0.0
 10
64.1285
 20
-73.2559
 30
0.0
 10
62.026
 20
-72.2128
 30
0.0
 10
58.749
 20
-72.5347
 30
0.0
 10
57.1086
 20
-74.743
 30
0.0
 10
57.1086
 20
-74.743
 30
0.0
 10
56.0903
 20
-72.6531
 30
0.0
 10
54.1773
 20
-70.3844
 30
0.0
 10
51.6867
 20
-70.2298
 30
0.0
 10
51.6867
 20
-70.2298
 30
0.0
 10
50.7882
 20
-74.8813
 30
0.0
 10
54.0926
 20
-83.7579
 30
0.0
 10
56.9301
 20
-85.2972
 30
0.0
  0
SPLINE
  5
75
330
1F
100
AcDbEntity
  8
layer 1
 62
     7
100
AcDbSpline
210
0.0
220
0.0
230
1.0
 70
    11
 71
     3
 72
    20
 73
    16
 74
     0
 42
0.0000000001
 43
0.0000000001
 12
1.0
 22
0.0
 32
0.0
 13
1.0
 23
0.0
 33
0.0
 40
0.0
 40
0.0
 40
0.0
 40
0.0
 40
0.2
 40
0.2
 40
0.2
 40
0.2
 40
0.4
 40
0.4
 40
0.4
 40
0.4
 40
0.6
 40
0.6
 40
0.6
 40
0.6
 40
1.0
 40
1.0
 40
1.0
 40
1.0
 10
72.6081
 20
-83.6781
 30
0.0
 10
73.5128
 20
-80.5731
 30
0.0
 10
72.6234
 20
-78.2381
 30
0.0
 10
69.5875
 20
-77.693
 30
0.0
 10
69.5875
 20
-77.693
 30
0.0
 10
65.2833
 20
-78.0591
 30
0.0
 10
65.0124
 20
-82.2678
 30
0.0
 10
67.2207
 20
-83.9082
 30
0.0
 10
67.2207
 20
-83.9082
 30
0.0
 10
65.1308
 20
-83.5713
 30
0.0
 10
61.761
 20
-84.7643
 30
0.0
 10
60.6323
 20
-87.1703
 30
0.0
 10
60.6323
 20
-87.1703
 30
0.0
 10
64.8605
 20
-88.6566
 30
0.0
 10
70.5805
 20
-88.9389
 30
0.0
 10
72.6081
 20
-83.6781
 30
0.0
  0
SPLINE
  5
76
330
1F
100
AcDbEntity
  8
layer 1
 62
     7
100
AcDbSpline
210
0.0
220
0.0
230
1.0
 70
    11
 71
     3
 72
    24
 73
    20
 74
     0
 42
0.0000000001
 43
0.0000000001
 12
1.0
 22
0.0
 32
0.0
 13
1.0
 23
0.0
 33
0.0
 40
0.0
 40
0.0
 40
0.0
 40
0.0
 40
0.1666666666666667
 40
0.1666666666666667
 40
0.1666666666666667
 40
0.1666666666666667
 40
0.3333333333333333
 40
0.3333333333333333
 40
0.3333333333333333
 40
0.3333333333333333
 40
0.5
 40
0.5
 40
0.5
 40
0.5
 40
0.6666666666666666
 40
0.6666666666666666
 40
0.6666666666666666
 40
0.6666666666666666
 40
1.0
 40
1.0
 40
1.0
 40
1.0
 10
82.8043
 20
-58.9605
 30
0.0
 10
81.8009
 20
-59.631
 30
0.0
 10
81.2362
 20
-62.7948
 30
0.0
 10
81.6059
 20
-64.1748
 30
0.0
 10
81.6059
 20
-64.1748
 30
0.0
 10
79.2153
 20
-64.2331
 30
0.0
 10
77.8248
 20
-65.7695
 30
0.0
 10
77.2759
 20
-68.5936
 30
0.0
 10
77.2759
 20
-68.5936
 30
0.0
 10
79.6229
 20
-69.2467
 30
0.0
 10
82.2001
 20
-68.7677
 30
0.0
 10
82.6725
 20
-66.0577
 30
0.0
 10
82.6725
 20
-66.0577
 30
0.0
 10
84.5217
 20
-67.4665
 30
0.0
 10
87.0453
 20
-68.2226
 30
0.0
 10
89.3396
 20
-67.2408
 30
0.0
 10
89.3396
 20
-67.2408
 30
0.0
 10
88.0506
 20
-62.682
 30
0.0
 10
86.595
 20
-61.5723
 30
0.0
 10
82.8043
 20
-58.9605
 30
0.0
  0
SPLINE
  5
77
330
1F
100
AcDbEntity
  8
layer 1
 62
     7
100
AcDbSpline
210
0.0
220
0.0
230
1.0
 70
    11
 71
     3
 72
    24
 73
    20
 74
     0
 42
0.0000000001
 43
0.0000000001
 12
1.0
 22
0.0
 32
0.0
 13
1.0
 23
0.0
 33
0.0
 40
0.0
 40
0.0
 40
0.0
 40
0.0
 40
0.1666666666666667
 40
0.1666666666666667
 40
0.1666666666666667
 40
0.1666666666666667
 40
0.3333333333333333
 40
0.3333333333333333
 40
0.3333333333333333
 40
0.3333333333333333
 40
0.5
 40
0.5
 40
0.5
 40
0.5
 40
0.6666666666666666
 40
0.6666666666666666
 40
0.6666666666666666
 40
0.6666666666666666
 40
1.0
 40
1.0
 40
1.0
 40
1.0
 10
67.1472
 20
-55.2694
 30
0.0
 10
67.3152
 20
-56.0033
 30
0.0
 10
69.0054
 20
-58.5206
 30
0.0
 10
70.9573
 20
-59.5155
 30
0.0
 10
70.9573
 20
-59.5155
 30
0.0
 10
68.9391
 20
-61.1373
 30
0.0
 10
68.609
 20
-64.5785
 30
0.0
 10
71.3607
 20
-66.8061
 30
0.0
 10
71.3607
 20
-66.8061
 30
0.0
 10
73.4691
 20
-65.9171
 30
0.0
 10
74.675
 20
-62.5079
 30
0.0
 10
73.5828
 20
-59.9831
 30
0.0
 10
73.5828
 20
-59.9831
 30
0.0
 10
75.6454
 20
-58.6077
 30
0.0
 10
77.2846
 20
-58.0342
 30
0.0
 10
77.792
 20
-55.9032
 30
0.0
 10
77.792
 20
-55.9032
 30
0.0
 10
72.059
 20
-53.4148
 30
0.0
 10
69.899
 20
-54.4535
 30
0.0
 10
67.1472
 20
-55.2694
 30
0.0
  0
SPLINE
  5
78
330
1F
100
AcDbEntity
  8
layer 1
 62
     7
100
AcDbSpline
210
0.0
220
0.0
230
1.0
 70
    11
 71
     3
 72
    28
 73
    24
 74
     0
 42
0.0000000001
 43
0.0000000001
 12
1.0
 22
0.0
 32
0.0
 13
1.0
 23
0.0
 33
0.0
 40
0.0
 40
0.0
 40
0.0
 40
0.0
 40
0.1428571428571428
 40
0.1428571428571428
 40
0.1428571428571428
 40
0.1428571428571428
 40
0.2857142857142857
 40
0.2857142857142857
 40
0.2857142857142857
 40
0.2857142857142857
 40
0.4285714285714285
 40
0.4285714285714285
 40
0.4285714285714285
 40
0.4285714285714285
 40
0.5714285714285714
 40
0.5714285714285714
 40
0.5714285714285714
 40
0.5714285714285714
 40
0.7142857142857143
 40
0.7142857142857143
 40
0.7142857142857143
 40
0.7142857142857143
 40
1.0
 40
1.0
 40
1.0
 40
1.0
 10
53.1222
 20
-65.7593
 30
0.0
 10
55.175
 20
-67.0317
 30
0.0
 10
58.1567
 20
-65.485
 30
0.0
 10
59.5057
 20
-64.0101
 30
0.0
 10
59.5057
 20
-64.0101
 30
0.0
 10
60.0051
 20
-66.762
 30
0.0
 10
62.3911
 20
-68.1279
 30
0.0
 10
65.2008
 20
-68.3573
 30
0.0
 10
65.2008
 20
-68.3573
 30
0.0
 10
65.2837
 20
-65.938
 30
0.0
 10
63.7766
 20
-63.3893
 30
0.0
 10
61.0183
 20
-62.7138
 30
0.0
 10
61.0183
 20
-62.7138
 30
0.0
 10
62.3191
 20
-60.787
 30
0.0
 10
63.0966
 20
-57.9703
 30
0.0
 10
62.0364
 20
-56.4027
 30
0.0
 10
62.0364
 20
-56.4027
 30
0.0
 10
56.764
 20
-57.9504
 30
0.0
 10
53.9596
 20
-60.3273
 30
0.0
 10
53.1223
 20
-65.7594
 30
0.0
 10
53.1223
 20
-65.7594
 30
0.0
 10
53.1223
 20
-65.7594
 30
0.0
 10
53.1222
 20
-65.7593
 30
0.0
 10
53.1222
 20
-65.7593
 30
0.0
  0
SPLINE
  5
79
330
1F
100
AcDbEntity
  8
layer 1
 62
     7
100
AcDbSpline
210
0.0
220
0.0
230
1.0
 70
    11
 71
     3
 72
    28
 73
    24
 74
     0
 42
0.0000000001
 43
0.0000000001
 12
1.0
 22
0.0
 32
0.0
 13
1.0
 23
0.0
 33
0.0
 40
0.0
 40
0.0
 40
0.0
 40
0.0
 40
0.1428571428571428
 40
0.1428571428571428
 40
0.1428571428571428
 40
0.1428571428571428
 40
0.2857142857142857
 40
0.2857142857142857
 40
0.2857142857142857
 40
0.2857142857142857
 40
0.4285714285714285
 40
0.4285714285714285
 40
0.4285714285714285
 40
0.4285714285714285
 40
0.5714285714285714
 40
0.5714285714285714
 40
0.5714285714285714
 40
0.5714285714285714
 40
0.7142857142857143
 40
0.7142857142857143
 40
0.7142857142857143
 40
0.7142857142857143
 40
1.0
 40
1.0
 40
1.0
 40
1.0
 10
96.9555
 20
-63.738
 30
0.0
 10
97.8728
 20
-66.3693
 30
0.0
 10
99.2978
 20
-72.142
 30
0.0
 10
101.1243
 20
-78.0419
 30
0.0
 10
101.1243
 20
-78.0419
 30
0.0
 10
102.6011
 20
-82.2696
 30
0.0
 10
105.9785
 20
-84.2323
 30
0.0
 10
107.4264
 20
-80.9711
 30
0.0
 10
107.4264
 20
-80.9711
 30
0.0
 10
108.8742
 20
-84.2323
 30
0.0
 10
112.2517
 20
-82.2696
 30
0.0
 10
113.7284
 20
-78.0419
 30
0.0
 10
113.7284
 20
-78.0419
 30
0.0
 10
115.555
 20
-72.142
 30
0.0
 10
116.9799
 20
-66.3692
 30
0.0
 10
117.8972
 20
-63.738
 30
0.0
 10
117.8972
 20
-63.738
 30
0.0
 10
113.8821
 20
-67.7754
 30
0.0
 10
108.7167
 20
-64.4055
 30
0.0
 10
107.4264
 20
-61.5765
 30
0.0
 10
107.4264
 20
-61.5765
 30
0.0
 10
106.136
 20
-64.4056
 30
0.0
 10
100.9706
 20
-67.7754
 30
0.0
 10
96.9555
 20
-63.738
 30
0.0
  0
SPLINE
  5
7A
330
1F
100
AcDbEntity
  8
layer 1
 62
     7
100
AcDbSpline
210
0.0
220
0.0
230
1.0
 70
    11
 71
     3
 72
    16
 73
    12
 74
     0
 42
0.0000000001
 43
0.0000000001
 12
1.0
 22
0.0
 32
0.0
 13
1.0
 23
0.0
 33
0.0
 40
0.0
 40
0.0
 40
0.0
 40
0.0
 40
0.25
 40
0.25
 40
0.25
 40
0.25
 40
0.5
 40
0.5
 40
0.5
 40
0.5
 40
1.0
 40
1.0
 40
1.0
 40
1.0
 10
103.9704
 20
-29.8724
 30
0.0
 10
105.2694
 20
-31.4419
 30
0.0
 10
106.9921
 20
-34.0782
 30
0.0
 10
107.4264
 20
-36.2012
 30
0.0
 10
107.4264
 20
-36.2012
 30
0.0
 10
107.8607
 20
-34.0782
 30
0.0
 10
109.5834
 20
-31.4419
 30
0.0
 10
110.8825
 20
-29.8724
 30
0.0
 10
110.8825
 20
-29.8724
 30
0.0
 10
108.4002
 20
-30.3481
 30
0.0
 10
106.109
 20
-30.3334
 30
0.0
 10
103.9704
 20
-29.8724
 30
0.0
  0
SPLINE
  5
7B
330
1F
100
AcDbEntity
  8
layer 1
 62
     7
100
AcDbSpline
210
0.0
220
0.0
230
1.0
 70
    11
 71
     3
 72
    24
 73
    20
 74
     0
 42
0.0000000001
 43
0.0000000001
 12
1.0
 22
0.0
 32
0.0
 13
1.0
 23
0.0
 33
0.0
 40
0.0
 40
0.0
 40
0.0
 40
0.0
 40
0.1666666666666667
 40
0.1666666666666667
 40
0.1666666666666667
 40
0.1666666666666667
 40
0.3333333333333333
 40
0.3333333333333333
 40
0.3333333333333333
 40
0.3333333333333333
 40
0.5
 40
0.5
 40
0.5
 40
0.5
 40
0.6666666666666666
 40
0.6666666666666666
 40
0.6666666666666666
 40
0.6666666666666666
 40
1.0
 40
1.0
 40
1.0
 40
1.0
 10
56.8274
 20
-51.2732
 30
0.0
 10
60.0261
 20
-49.3152
 30
0.0
 10
62.6681
 20
-48.8817
 30
0.0
 10
65.6385
 20
-48.6988
 30
0.0
 10
65.6385
 20
-48.6988
 30
0.0
 10
55.7505
 20
-46.2277
 30
0.0
 10
51.254
 20
-42.8002
 30
0.0
 10
45.6751
 20
-37.9815
 30
0.0
 10
45.6751
 20
-37.9815
 30
0.0
 10
43.8871
 20
-39.4555
 30
0.0
 10
39.642
 20
-44.4515
 30
0.0
 10
38.5133
 20
-46.8575
 30
0.0
 10
38.5133
 20
-46.8575
 30
0.0
 10
40.3026
 20
-45.7432
 30
0.0
 10
45.109
 20
-47.3863
 30
0.0
 10
45.3131
 20
-51.5796
 30
0.0
 10
45.3131
 20
-51.5796
 30
0.0
 10
50.2184
 20
-44.4015
 30
0.0
 10
56.0383
 20
-47.342
 30
0.0
 10
56.8274
 20
-51.2732
 30
0.0
  0
SPLINE
  5
7C
330
1F
100
AcDbEntity
  8
layer 1
 62
     7
100
AcDbSpline
210
0.0
220
0.0
230
1.0
 70
    11
 71
     3
 72
    24
 73
    20
 74
     0
 42
0.0000000001
 43
0.0000000001
 12
1.0
 22
0.0
 32
0.0
 13
1.0
 23
0.0
 33
0.0
 40
0.0
 40
0.0
 40
0.0
 40
0.0
 40
0.1666666666666667
 40
0.1666666666666667
 40
0.1666666666666667
 40
0.1666666666666667
 40
0.3333333333333333
 40
0.3333333333333333
 40
0.3333333333333333
 40
0.3333333333333333
 40
0.5
 40
0.5
 40
0.5
 40
0.5
 40
0.6666666666666666
 40
0.6666666666666666
 40
0.6666666666666666
 40
0.6666666666666666
 40
1.0
 40
1.0
 40
1.0
 40
1.0
 10
70.0223
 20
-4.6124
 30
0.0
 10
71.714
 20
-10.6756
 30
0.0
 10
73.5765
 20
-13.1358
 30
0.0
 10
78.0539
 20
-18.1515
 30
0.0
 10
78.0539
 20
-18.1515
 30
0.0
 10
67.4475
 20
-18.0198
 30
0.0
 10
54.2569
 20
-22.9957
 30
0.0
 10
51.6469
 20
-24.5038
 30
0.0
 10
51.6469
 20
-24.5038
 30
0.0
 10
51.0541
 20
-21.0551
 30
0.0
 10
52.4211
 20
-17.0983
 30
0.0
 10
59.1911
 20
-16.2513
 30
0.0
 10
59.1911
 20
-16.2513
 30
0.0
 10
60.8567
 20
-15.9923
 30
0.0
 10
68.0968
 20
-12.3615
 30
0.0
 10
70.0223
 20
-4.6125
 30
0.0
 10
70.0223
 20
-4.6125
 30
0.0
 10
70.0223
 20
-4.6125
 30
0.0
 10
70.0223
 20
-4.6124
 30
0.0
 10
70.0223
 20
-4.6124
 30
0.0
  0
SPLINE
  5
7D
330
1F
100
AcDbEntity
  8
layer 1
 62
     7
100
AcDbSpline
210
0.0
220
0.0
230
1.0
 70
    11
 71
     3
 72
    20
 73
    16
 74
     0
 42
0.0000000001
 43
0.0000000001
 12
1.0
 22
0.0
 32
0.0
 13
1.0
 23
0.0
 33
0.0
 40
0.0
 40
0.0
 40
0.0
 40
0.0
 40
0.2
 40
0.2
 40
0.2
 40
0.2
 40
0.4
 40
0.4
 40
0.4
 40
0.4
 40
0.6
 40
0.6
 40
0.6
 40
0.6
 40
1.0
 40
1.0
 40
1.0
 40
1.0
 10
43.0523
 20
-4.9762
 30
0.0
 10
41.9898
 20
-8.2853
 30
0.0
 10
42.0855
 20
-11.0052
 30
0.0
 10
46.4071
 20
-13.0589
 30
0.0
 10
46.4071
 20
-13.0589
 30
0.0
 10
43.1797
 20
-15.6813
 30
0.0
 10
41.5254
 20
-21.8524
 30
0.0
 10
44.1638
 20
-26.4265
 30
0.0
 10
44.1638
 20
-26.4265
 30
0.0
 10
37.6469
 20
-22.8219
 30
0.0
 10
28.8808
 20
-11.0184
 30
0.0
 10
35.2871
 20
1.7807
 30
0.0
 10
35.2871
 20
1.7807
 30
0.0
 10
34.2504
 20
-3.4166
 30
0.0
 10
39.36
 20
-6.5413
 30
0.0
 10
43.0523
 20
-4.9762
 30
0.0
  0
SPLINE
  5
7E
330
1F
100
AcDbEntity
  8
layer 1
 62
     7
100
AcDbSpline
210
0.0
220
0.0
230
1.0
 70
    11
 71
     3
 72
    16
 73
    12
 74
     0
 42
0.0000000001
 43
0.0000000001
 12
1.0
 22
0.0
 32
0.0
 13
1.0
 23
0.0
 33
0.0
 40
0.0
 40
0.0
 40
0.0
 40
0.0
 40
0.25
 40
0.25
 40
0.25
 40
0.25
 40
0.5
 40
0.5
 40
0.5
 40
0.5
 40
1.0
 40
1.0
 40
1.0
 40
1.0
 10
28.061
 20
2.7714
 30
0.0
 10
28.8279
 20
5.2865
 30
0.0
 10
31.2971
 20
7.512
 30
0.0
 10
33.2105
 20
8.3368
 30
0.0
 10
33.2105
 20
8.3368
 30
0.0
 10
31.2971
 20
9.1615
 30
0.0
 10
28.828
 20
11.3871
 30
0.0
 10
28.061
 20
13.9021
 30
0.0
 10
28.061
 20
13.9021
 30
0.0
 10
28.061
 20
13.9021
 30
0.0
 10
28.061
 20
2.7714
 30
0.0
 10
28.061
 20
2.7714
 30
0.0
  0
SPLINE
  5
7F
330
1F
100
AcDbEntity
  8
layer 1
 62
     7
100
AcDbSpline
210
0.0
220
0.0
230
1.0
 70
    11
 71
     3
 72
    60
 73
    56
 74
     0
 42
0.0000000001
 43
0.0000000001
 12
1.0
 22
0.0
 32
0.0
 13
1.0
 23
0.0
 33
0.0
 40
0.0
 40
0.0
 40
0.0
 40
0.0
 40
0.0666666666666667
 40
0.0666666666666667
 40
0.0666666666666667
 40
0.0666666666666667
 40
0.1333333333333333
 40
0.1333333333333333
 40
0.1333333333333333
 40
0.1333333333333333
 40
0.2
 40
0.2
 40
0.2
 40
0.2
 40
0.2666666666666667
 40
0.2666666666666667
 40
0.2666666666666667
 40
0.2666666666666667
 40
0.3333333333333333
 40
0.3333333333333333
 40
0.3333333333333333
 40
0.3333333333333333
 40
0.4
 40
0.4
 40
0.4
 40
0.4
 40
0.4666666666666667
 40
0.4666666666666667
 40
0.4666666666666667
 40
0.4666666666666667
 40
0.5333333333333333
 40
0.5333333333333333
 40
0.5333333333333333
 40
0.5333333333333333
 40
0.6
 40
0.6
 40
0.6
 40
0.6
 40
0.6666666666666666
 40
0.6666666666666666
 40
0.6666666666666666
 40
0.6666666666666666
 40
0.7333333333333333
 40
0.7333333333333333
 40
0.7333333333333333
 40
0.7333333333333333
 40
0.8
 40
0.8
 40
0.8
 40
0.8
 40
0.8666666666666667
 40
0.8666666666666667
 40
0.8666666666666667
 40
0.8666666666666667
 40
1.0
 40
1.0
 40
1.0
 40
1.0
 10
55.1482
 20
4.4297
 30
0.0
 10
55.1364
 20
0.8633
 30
0.0
 10
60.3476
 20
0.2588
 30
0.0
 10
61.2079
 20
1.5336
 30
0.0
 10
61.2079
 20
1.5336
 30
0.0
 10
60.5632
 20
4.4251
 30
0.0
 10
62.9933
 20
6.3289
 30
0.0
 10
64.5873
 20
6.0593
 30
0.0
 10
64.5873
 20
6.0593
 30
0.0
 10
66.1571
 20
-2.3313
 30
0.0
 10
59.9054
 20
-8.2771
 30
0.0
 10
56.6072
 20
-8.8936
 30
0.0
 10
56.6072
 20
-8.8936
 30
0.0
 10
51.4844
 20
-9.9264
 30
0.0
 10
52.8222
 20
-3.8972
 30
0.0
 10
55.5906
 20
-5.0136
 30
0.0
 10
55.5906
 20
-5.0136
 30
0.0
 10
55.7617
 20
-2.4984
 30
0.0
 10
52.8993
 20
2.121
 30
0.0
 10
47.2315
 20
-0.4364
 30
0.0
 10
47.2315
 20
-0.4364
 30
0.0
 10
50.2388
 20
3.6717
 30
0.0
 10
47.9933
 20
6.9376
 30
0.0
 10
44.7455
 20
8.3368
 30
0.0
 10
44.7455
 20
8.3368
 30
0.0
 10
47.9934
 20
9.736
 30
0.0
 10
50.2388
 20
13.0018
 30
0.0
 10
47.2315
 20
17.1099
 30
0.0
 10
47.2315
 20
17.1099
 30
0.0
 10
52.8993
 20
14.5526
 30
0.0
 10
55.7617
 20
19.1719
 30
0.0
 10
55.5906
 20
21.6872
 30
0.0
 10
55.5906
 20
21.6872
 30
0.0
 10
52.8222
 20
20.5708
 30
0.0
 10
51.4845
 20
26.5999
 30
0.0
 10
56.6072
 20
25.5671
 30
0.0
 10
56.6072
 20
25.5671
 30
0.0
 10
59.9055
 20
24.9507
 30
0.0
 10
66.1572
 20
19.0049
 30
0.0
 10
64.5873
 20
10.6143
 30
0.0
 10
64.5873
 20
10.6143
 30
0.0
 10
62.9933
 20
10.3446
 30
0.0
 10
60.5632
 20
12.2484
 30
0.0
 10
61.2079
 20
15.14
 30
0.0
 10
61.2079
 20
15.14
 30
0.0
 10
60.3476
 20
16.4147
 30
0.0
 10
55.1364
 20
15.8103
 30
0.0
 10
55.1482
 20
12.2438
 30
0.0
 10
55.1482
 20
12.2438
 30
0.0
 10
52.8939
 20
11.7116
 30
0.0
 10
50.778
 20
10.3966
 30
0.0
 10
50.6567
 20
8.3368
 30
0.0
 10
50.6567
 20
8.3368
 30
0.0
 10
50.778
 20
6.2769
 30
0.0
 10
52.8939
 20
4.9619
 30
0.0
 10
55.1482
 20
4.4297
 30
0.0
  0
SPLINE
  5
80
330
1F
100
AcDbEntity
  8
layer 1
 62
     7
100
AcDbSpline
210
0.0
220
0.0
230
1.0
 70
    11
 71
     3
 72
    52
 73
    48
 74
     0
 42
0.0000000001
 43
0.0000000001
 12
1.0
 22
0.0
 32
0.0
 13
1.0
 23
0.0
 33
0.0
 40
0.0
 40
0.0
 40
0.0
 40
0.0
 40
0.0769230769230769
 40
0.0769230769230769
 40
0.0769230769230769
 40
0.0769230769230769
 40
0.1538461538461539
 40
0.1538461538461539
 40
0.1538461538461539
 40
0.1538461538461539
 40
0.2307692307692308
 40
0.2307692307692308
 40
0.2307692307692308
 40
0.2307692307692308
 40
0.3076923076923077
 40
0.3076923076923077
 40
0.3076923076923077
 40
0.3076923076923077
 40
0.3846153846153846
 40
0.3846153846153846
 40
0.3846153846153846
 40
0.3846153846153846
 40
0.4615384615384616
 40
0.4615384615384616
 40
0.4615384615384616
 40
0.4615384615384616
 40
0.5384615384615384
 40
0.5384615384615384
 40
0.5384615384615384
 40
0.5384615384615384
 40
0.6153846153846154
 40
0.6153846153846154
 40
0.6153846153846154
 40
0.6153846153846154
 40
0.6923076923076923
 40
0.6923076923076923
 40
0.6923076923076923
 40
0.6923076923076923
 40
0.7692307692307693
 40
0.7692307692307693
 40
0.7692307692307693
 40
0.7692307692307693
 40
0.8461538461538461
 40
0.8461538461538461
 40
0.8461538461538461
 40
0.8461538461538461
 40
1.0
 40
1.0
 40
1.0
 40
1.0
 10
92.0971
 20
-58.3842
 30
0.0
 10
91.5179
 20
-55.4015
 30
0.0
 10
91.3219
 20
-53.8
 30
0.0
 10
91.8044
 20
-52.9636
 30
0.0
 10
91.8044
 20
-52.9636
 30
0.0
 10
91.6598
 20
-52.9121
 30
0.0
 10
84.6248
 20
-52.7768
 30
0.0
 10
83.3122
 20
-45.4476
 30
0.0
 10
83.3122
 20
-45.4476
 30
0.0
 10
82.6019
 20
-41.4819
 30
0.0
 10
85.3735
 20
-35.2031
 30
0.0
 10
91.0176
 20
-36.6607
 30
0.0
 10
91.0176
 20
-36.6607
 30
0.0
 10
89.6386
 20
-40.4133
 30
0.0
 10
94.418
 20
-42.2937
 30
0.0
 10
95.7938
 20
-38.464
 30
0.0
 10
95.7938
 20
-38.464
 30
0.0
 10
96.4762
 20
-36.5644
 30
0.0
 10
96.1468
 20
-32.3103
 30
0.0
 10
90.1382
 20
-29.2586
 30
0.0
 10
90.1382
 20
-29.2586
 30
0.0
 10
85.9642
 20
-27.1386
 30
0.0
 10
81.955
 20
-27.8348
 30
0.0
 10
80.2138
 20
-29.3797
 30
0.0
 10
80.2138
 20
-29.3797
 30
0.0
 10
78.0502
 20
-31.2993
 30
0.0
 10
78.786
 20
-34.9136
 30
0.0
 10
82.1195
 20
-35.7894
 30
0.0
 10
82.1195
 20
-35.7894
 30
0.0
 10
80.599
 20
-43.9596
 30
0.0
 10
71.5571
 20
-43.007
 30
0.0
 10
68.7791
 20
-40.3381
 30
0.0
 10
68.7791
 20
-40.3381
 30
0.0
 10
62.554
 20
-34.3577
 30
0.0
 10
66.38
 20
-28.7177
 30
0.0
 10
66.2424
 20
-28.214
 30
0.0
 10
66.2424
 20
-28.214
 30
0.0
 10
61.7145
 20
-29.2949
 30
0.0
 10
56.429
 20
-30.7301
 30
0.0
 10
52.9342
 20
-33.1729
 30
0.0
 10
52.9342
 20
-33.1729
 30
0.0
 10
61.9014
 20
-41.68
 30
0.0
 10
83.6178
 20
-46.8018
 30
0.0
 10
92.097
 20
-58.3842
 30
0.0
 10
92.097
 20
-58.3842
 30
0.0
 10
92.097
 20
-58.3842
 30
0.0
 10
92.0971
 20
-58.3842
 30
0.0
 10
92.0971
 20
-58.3842
 30
0.0
  0
SPLINE
  5
81
330
1F
100
AcDbEntity
  8
layer 1
 62
     7
100
AcDbSpline
210
0.0
220
0.0
230
1.0
 70
    11
 71
     3
 72
    36
 73
    32
 74
     0
 42
0.0000000001
 43
0.0000000001
 12
1.0
 22
0.0
 32
0.0
 13
1.0
 23
0.0
 33
0.0
 40
0.0
 40
0.0
 40
0.0
 40
0.0
 40
0.1111111111111111
 40
0.1111111111111111
 40
0.1111111111111111
 40
0.1111111111111111
 40
0.2222222222222222
 40
0.2222222222222222
 40
0.2222222222222222
 40
0.2222222222222222
 40
0.3333333333333333
 40
0.3333333333333333
 40
0.3333333333333333
 40
0.3333333333333333
 40
0.4444444444444444
 40
0.4444444444444444
 40
0.4444444444444444
 40
0.4444444444444444
 40
0.5555555555555556
 40
0.5555555555555556
 40
0.5555555555555556
 40
0.5555555555555556
 40
0.6666666666666666
 40
0.6666666666666666
 40
0.6666666666666666
 40
0.6666666666666666
 40
0.7777777777777778
 40
0.7777777777777778
 40
0.7777777777777778
 40
0.7777777777777778
 40
1.0
 40
1.0
 40
1.0
 40
1.0
 10
49.9343
 20
-95.3771
 30
0.0
 10
55.512
 20
-85.5499
 30
0.0
 10
39.1216
 20
-84.1404
 30
0.0
 10
47.6431
 20
-61.6311
 30
0.0
 10
47.6431
 20
-61.6311
 30
0.0
 10
43.3063
 20
-64.8941
 30
0.0
 10
38.1997
 20
-65.2486
 30
0.0
 10
32.6209
 20
-60.4299
 30
0.0
 10
32.6209
 20
-60.4299
 30
0.0
 10
32.5489
 20
-64.0162
 30
0.0
 10
32.5047
 20
-66.7382
 30
0.0
 10
33.2097
 20
-69.4178
 30
0.0
 10
33.2097
 20
-69.4178
 30
0.0
 10
34.1009
 20
-72.805
 30
0.0
 10
38.6608
 20
-73.8537
 30
0.0
 10
40.0993
 20
-70.16
 30
0.0
 10
40.0993
 20
-70.16
 30
0.0
 10
44.5265
 20
-75.0424
 30
0.0
 10
39.0224
 20
-82.4226
 30
0.0
 10
35.1855
 20
-82.3576
 30
0.0
 10
35.1855
 20
-82.3576
 30
0.0
 10
37.8964
 20
-90.5799
 30
0.0
 10
45.6026
 20
-94.75
 30
0.0
 10
46.1671
 20
-96.2326
 30
0.0
 10
46.1671
 20
-96.2326
 30
0.0
 10
46.8634
 20
-94.9106
 30
0.0
 10
47.3151
 20
-93.8861
 30
0.0
 10
49.9344
 20
-95.3771
 30
0.0
 10
49.9344
 20
-95.3771
 30
0.0
 10
49.9344
 20
-95.3771
 30
0.0
 10
49.9343
 20
-95.3771
 30
0.0
 10
49.9343
 20
-95.3771
 30
0.0
  0
SPLINE
  5
82
330
1F
100
AcDbEntity
  8
layer 1
 62
     7
100
AcDbSpline
210
0.0
220
0.0
230
1.0
 70
    11
 71
     3
 72
    24
 73
    20
 74
     0
 42
0.0000000001
 43
0.0000000001
 12
1.0
 22
0.0
 32
0.0
 13
1.0
 23
0.0
 33
0.0
 40
0.0
 40
0.0
 40
0.0
 40
0.0
 40
0.1666666666666667
 40
0.1666666666666667
 40
0.1666666666666667
 40
0.1666666666666667
 40
0.3333333333333333
 40
0.3333333333333333
 40
0.3333333333333333
 40
0.3333333333333333
 40
0.5
 40
0.5
 40
0.5
 40
0.5
 40
0.6666666666666666
 40
0.6666666666666666
 40
0.6666666666666666
 40
0.6666666666666666
 40
1.0
 40
1.0
 40
1.0
 40
1.0
 10
28.1229
 20
-106.5572
 30
0.0
 10
35.6582
 20
-106.5572
 30
0.0
 10
43.8539
 20
-106.5572
 30
0.0
 10
49.5189
 20
-106.5572
 30
0.0
 10
49.5189
 20
-106.5572
 30
0.0
 10
45.9002
 20
-105.2674
 30
0.0
 10
40.4061
 20
-101.5069
 30
0.0
 10
38.2341
 20
-99.3107
 30
0.0
 10
38.2341
 20
-99.3107
 30
0.0
 10
38.8068
 20
-106.5572
 30
0.0
 10
31.4567
 20
-103.8415
 30
0.0
 10
30.0652
 20
-100.9283
 30
0.0
 10
30.0652
 20
-100.9283
 30
0.0
 10
35.5979
 20
-96.9138
 30
0.0
 10
32.1843
 20
-90.4263
 30
0.0
 10
28.0609
 20
-88.7226
 30
0.0
 10
28.0609
 20
-88.7226
 30
0.0
 10
28.0609
 20
-88.7226
 30
0.0
 10
28.1229
 20
-106.5572
 30
0.0
 10
28.1229
 20
-106.5572
 30
0.0
  0
SPLINE
  5
83
330
1F
100
AcDbEntity
  8
layer 1
 62
     7
100
AcDbSpline
210
0.0
220
0.0
230
1.0
 70
    11
 71
     3
 72
    20
 73
    16
 74
     0
 42
0.0000000001
 43
0.0000000001
 12
1.0
 22
0.0
 32
0.0
 13
1.0
 23
0.0
 33
0.0
 40
0.0
 40
0.0
 40
0.0
 40
0.0
 40
0.2
 40
0.2
 40
0.2
 40
0.2
 40
0.4
 40
0.4
 40
0.4
 40
0.4
 40
0.6
 40
0.6
 40
0.6
 40
0.6
 40
1.0
 40
1.0
 40
1.0
 40
1.0
 10
105.8015
 20
-11.7683
 30
0.0
 10
102.3251
 20
-12.743
 30
0.0
 10
100.4507
 20
-16.1572
 30
0.0
 10
104.6896
 20
-20.7754
 30
0.0
 10
104.6896
 20
-20.7754
 30
0.0
 10
99.8079
 20
-21.3592
 30
0.0
 10
96.1584
 20
-16.8734
 30
0.0
 10
95.5361
 20
-13.1339
 30
0.0
 10
95.5361
 20
-13.1339
 30
0.0
 10
99.5548
 20
-12.309
 30
0.0
 10
104.0227
 20
-9.3859
 30
0.0
 10
105.7837
 20
-5.12
 30
0.0
 10
105.7837
 20
-5.12
 30
0.0
 10
106.018
 20
-7.0872
 30
0.0
 10
105.7048
 20
-9.4196
 30
0.0
 10
105.8015
 20
-11.7683
 30
0.0
  0
SPLINE
  5
84
330
1F
100
AcDbEntity
  8
layer 1
 62
     7
100
AcDbSpline
210
0.0
220
0.0
230
1.0
 70
    11
 71
     3
 72
    20
 73
    16
 74
     0
 42
0.0000000001
 43
0.0000000001
 12
1.0
 22
0.0
 32
0.0
 13
1.0
 23
0.0
 33
0.0
 40
0.0
 40
0.0
 40
0.0
 40
0.0
 40
0.2
 40
0.2
 40
0.2
 40
0.2
 40
0.4
 40
0.4
 40
0.4
 40
0.4
 40
0.6
 40
0.6
 40
0.6
 40
0.6
 40
1.0
 40
1.0
 40
1.0
 40
1.0
 10
96.4194
 20
2.3594
 30
0.0
 10
92.8635
 20
0.6307
 30
0.0
 10
90.83
 20
-0.7257
 30
0.0
 10
89.5828
 20
-0.7986
 30
0.0
 10
89.5828
 20
-0.7986
 30
0.0
 10
90.8233
 20
-5.2238
 30
0.0
 10
86.3787
 20
-8.1989
 30
0.0
 10
82.258
 20
-6.7703
 30
0.0
 10
82.258
 20
-6.7703
 30
0.0
 10
84.1299
 20
-8.9468
 30
0.0
 10
86.9282
 20
-9.9618
 30
0.0
 10
90.3588
 20
-9.8546
 30
0.0
 10
90.3588
 20
-9.8546
 30
0.0
 10
89.9571
 20
-4.9455
 30
0.0
 10
92.6653
 20
-0.9434
 30
0.0
 10
96.4194
 20
2.3594
 30
0.0
  0
SPLINE
  5
85
330
1F
100
AcDbEntity
  8
layer 1
 62
     7
100
AcDbSpline
210
0.0
220
0.0
230
1.0
 70
    11
 71
     3
 72
    40
 73
    36
 74
     0
 42
0.0000000001
 43
0.0000000001
 12
1.0
 22
0.0
 32
0.0
 13
1.0
 23
0.0
 33
0.0
 40
0.0
 40
0.0
 40
0.0
 40
0.0
 40
0.1
 40
0.1
 40
0.1
 40
0.1
 40
0.2
 40
0.2
 40
0.2
 40
0.2
 40
0.3
 40
0.3
 40
0.3
 40
0.3
 40
0.4
 40
0.4
 40
0.4
 40
0.4
 40
0.5
 40
0.5
 40
0.5
 40
0.5
 40
0.6
 40
0.6
 40
0.6
 40
0.6
 40
0.7
 40
0.7
 40
0.7
 40
0.7
 40
0.8
 40
0.8
 40
0.8
 40
0.8
 40
1.0
 40
1.0
 40
1.0
 40
1.0
 10
91.6489
 20
4.1086
 30
0.0
 10
90.2005
 20
3.1115
 30
0.0
 10
89.2416
 20
2.4488
 30
0.0
 10
88.1326
 20
1.5152
 30
0.0
 10
88.1326
 20
1.5152
 30
0.0
 10
84.5429
 20
4.2705
 30
0.0
 10
81.5856
 20
3.0591
 30
0.0
 10
79.5547
 20
-0.8866
 30
0.0
 10
79.5547
 20
-0.8866
 30
0.0
 10
79.6999
 20
2.6144
 30
0.0
 10
80.7256
 20
5.7366
 30
0.0
 10
82.8245
 20
8.3368
 30
0.0
 10
82.8245
 20
8.3368
 30
0.0
 10
80.7256
 20
10.9369
 30
0.0
 10
79.6999
 20
14.0591
 30
0.0
 10
79.5547
 20
17.5601
 30
0.0
 10
79.5547
 20
17.5601
 30
0.0
 10
81.5856
 20
13.6144
 30
0.0
 10
84.5429
 20
12.403
 30
0.0
 10
88.1326
 20
15.1583
 30
0.0
 10
88.1326
 20
15.1583
 30
0.0
 10
89.2416
 20
14.2247
 30
0.0
 10
90.2004
 20
13.562
 30
0.0
 10
91.6489
 20
12.565
 30
0.0
 10
91.6489
 20
12.565
 30
0.0
 10
88.4293
 20
12.8441
 30
0.0
 10
83.8349
 20
10.0147
 30
0.0
 10
83.8581
 20
8.3368
 30
0.0
 10
83.8581
 20
8.3368
 30
0.0
 10
83.8902
 20
6.4262
 30
0.0
 10
88.4293
 20
3.8295
 30
0.0
 10
91.6489
 20
4.1087
 30
0.0
 10
91.6489
 20
4.1087
 30
0.0
 10
91.6489
 20
4.1087
 30
0.0
 10
91.6489
 20
4.1086
 30
0.0
 10
91.6489
 20
4.1086
 30
0.0
  0
SPLINE
  5
86
330
1F
100
AcDbEntity
  8
layer 1
 62
     7
100
AcDbSpline
210
0.0
220
0.0
230
1.0
 70
    11
 71
     3
 72
    20
 73
    16
 74
     0
 42
0.0000000001
 43
0.0000000001
 12
1.0
 22
0.0
 32
0.0
 13
1.0
 23
0.0
 33
0.0
 40
0.0
 40
0.0
 40
0.0
 40
0.0
 40
0.2
 40
0.2
 40
0.2
 40
0.2
 40
0.4
 40
0.4
 40
0.4
 40
0.4
 40
0.6
 40
0.6
 40
0.6
 40
0.6
 40
1.0
 40
1.0
 40
1.0
 40
1.0
 10
90.6647
 20
-14.9439
 30
0.0
 10
86.7677
 20
-15.8012
 30
0.0
 10
82.8046
 20
-13.6107
 30
0.0
 10
81.1238
 20
-12.3664
 30
0.0
 10
81.1238
 20
-12.3664
 30
0.0
 10
83.4576
 20
-15.608
 30
0.0
 10
90.008
 20
-21.3725
 30
0.0
 10
96.2215
 20
-23.2812
 30
0.0
 10
96.2215
 20
-23.2812
 30
0.0
 10
92.1322
 20
-19.9049
 30
0.0
 10
91.2424
 20
-17.4025
 30
0.0
 10
90.6647
 20
-14.9439
 30
0.0
 10
90.6647
 20
-14.9439
 30
0.0
 10
90.6647
 20
-14.9439
 30
0.0
 10
90.6647
 20
-14.9439
 30
0.0
 10
90.6647
 20
-14.9439
 30
0.0
  0
SPLINE
  5
87
330
1F
100
AcDbEntity
  8
layer 1
 62
     7
100
AcDbSpline
210
0.0
220
0.0
230
1.0
 70
    11
 71
     3
 72
    12
 73
     8
 74
     0
 42
0.0000000001
 43
0.0000000001
 12
1.0
 22
0.0
 32
0.0
 13
1.0
 23
0.0
 33
0.0
 40
0.0
 40
0.0
 40
0.0
 40
0.0
 40
0.3333333333333333
 40
0.3333333333333333
 40
0.3333333333333333
 40
0.3333333333333333
 40
1.0
 40
1.0
 40
1.0
 40
1.0
 10
94.8751
 20
-8.2138
 30
0.0
 10
95.3019
 20
-4.0312
 30
0.0
 10
99.4744
 20
-0.9856
 30
0.0
 10
101.5987
 20
-2.5264
 30
0.0
 10
101.5987
 20
-2.5264
 30
0.0
 10
102.7938
 20
-4.8532
 30
0.0
 10
99.0985
 20
-8.4629
 30
0.0
 10
94.8751
 20
-8.2138
 30
0.0
  0
SPLINE
  5
88
330
1F
100
AcDbEntity
  8
layer 1
 62
     7
100
AcDbSpline
210
0.0
220
0.0
230
1.0
 70
    11
 71
     3
 72
    20
 73
    16
 74
     0
 42
0.0000000001
 43
0.0000000001
 12
1.0
 22
0.0
 32
0.0
 13
1.0
 23
0.0
 33
0.0
 40
0.0
 40
0.0
 40
0.0
 40
0.0
 40
0.2
 40
0.2
 40
0.2
 40
0.2
 40
0.4
 40
0.4
 40
0.4
 40
0.4
 40
0.6
 40
0.6
 40
0.6
 40
0.6
 40
1.0
 40
1.0
 40
1.0
 40
1.0
 10
186.7919
 20
-49.7831
 30
0.0
 10
185.541
 20
-45.6414
 30
0.0
 10
181.7719
 20
-38.3057
 30
0.0
 10
175.7993
 20
-32.7112
 30
0.0
 10
175.7993
 20
-32.7112
 30
0.0
 10
176.7948
 20
-32.3568
 30
0.0
 10
177.9983
 20
-31.5899
 30
0.0
 10
179.4008
 20
-29.739
 30
0.0
 10
179.4008
 20
-29.739
 30
0.0
 10
180.3297
 20
-32.5889
 30
0.0
 10
184.761
 20
-33.5972
 30
0.0
 10
186.7919
 20
-29.5738
 30
0.0
 10
186.7919
 20
-29.5738
 30
0.0
 10
186.7919
 20
-35.7019
 30
0.0
 10
186.7919
 20
-45.6427
 30
0.0
 10
186.7919
 20
-49.7831
 30
0.0
  0
SPLINE
  5
89
330
1F
100
AcDbEntity
  8
layer 1
 62
     7
100
AcDbSpline
210
0.0
220
0.0
230
1.0
 70
    11
 71
     3
 72
    16
 73
    12
 74
     0
 42
0.0000000001
 43
0.0000000001
 12
1.0
 22
0.0
 32
0.0
 13
1.0
 23
0.0
 33
0.0
 40
0.0
 40
0.0
 40
0.0
 40
0.0
 40
0.25
 40
0.25
 40
0.25
 40
0.25
 40
0.5
 40
0.5
 40
0.5
 40
0.5
 40
1.0
 40
1.0
 40
1.0
 40
1.0
 10
134.7569
 20
-106.5572
 30
0.0
 10
127.2216
 20
-106.5572
 30
0.0
 10
125.6141
 20
-106.5572
 30
0.0
 10
119.949
 20
-106.5572
 30
0.0
 10
119.949
 20
-106.5572
 30
0.0
 10
122.1646
 20
-105.3894
 30
0.0
 10
124.6697
 20
-103.642
 30
0.0
 10
124.5847
 20
-101.0187
 30
0.0
 10
124.5847
 20
-101.0187
 30
0.0
 10
126.2878
 20
-103.8068
 30
0.0
 10
130.8606
 20
-105.9497
 30
0.0
 10
134.7569
 20
-106.5572
 30
0.0
  0
SPLINE
  5
8A
330
1F
100
AcDbEntity
  8
layer 1
 62
     7
100
AcDbSpline
210
0.0
220
0.0
230
1.0
 70
    11
 71
     3
 72
    28
 73
    24
 74
     0
 42
0.0000000001
 43
0.0000000001
 12
1.0
 22
0.0
 32
0.0
 13
1.0
 23
0.0
 33
0.0
 40
0.0
 40
0.0
 40
0.0
 40
0.0
 40
0.1428571428571428
 40
0.1428571428571428
 40
0.1428571428571428
 40
0.1428571428571428
 40
0.2857142857142857
 40
0.2857142857142857
 40
0.2857142857142857
 40
0.2857142857142857
 40
0.4285714285714285
 40
0.4285714285714285
 40
0.4285714285714285
 40
0.4285714285714285
 40
0.5714285714285714
 40
0.5714285714285714
 40
0.5714285714285714
 40
0.5714285714285714
 40
0.7142857142857143
 40
0.7142857142857143
 40
0.7142857142857143
 40
0.7142857142857143
 40
1.0
 40
1.0
 40
1.0
 40
1.0
 10
117.3508
 20
-87.9229
 30
0.0
 10
118.0316
 20
-90.718
 30
0.0
 10
119.1344
 20
-97.2824
 30
0.0
 10
115.5869
 20
-101.0517
 30
0.0
 10
115.5869
 20
-101.0517
 30
0.0
 10
114.711
 20
-99.8415
 30
0.0
 10
111.7437
 20
-97.4587
 30
0.0
 10
107.4264
 20
-101.3576
 30
0.0
 10
107.4264
 20
-101.3576
 30
0.0
 10
103.1092
 20
-97.4588
 30
0.0
 10
100.142
 20
-99.8415
 30
0.0
 10
99.266
 20
-101.0517
 30
0.0
 10
99.266
 20
-101.0517
 30
0.0
 10
95.7184
 20
-97.2824
 30
0.0
 10
96.8213
 20
-90.718
 30
0.0
 10
97.5021
 20
-87.9229
 30
0.0
 10
97.5021
 20
-87.9229
 30
0.0
 10
101.2713
 20
-91.5505
 30
0.0
 10
105.7263
 20
-89.9158
 30
0.0
 10
107.4264
 20
-87.1278
 30
0.0
 10
107.4264
 20
-87.1278
 30
0.0
 10
109.1266
 20
-89.9159
 30
0.0
 10
113.5816
 20
-91.5505
 30
0.0
 10
117.3508
 20
-87.9229
 30
0.0
  0
SPLINE
  5
8B
330
1F
100
AcDbEntity
  8
layer 1
 62
     7
100
AcDbSpline
210
0.0
220
0.0
230
1.0
 70
    11
 71
     3
 72
    20
 73
    16
 74
     0
 42
0.0000000001
 43
0.0000000001
 12
1.0
 22
0.0
 32
0.0
 13
1.0
 23
0.0
 33
0.0
 40
0.0
 40
0.0
 40
0.0
 40
0.0
 40
0.2
 40
0.2
 40
0.2
 40
0.2
 40
0.4
 40
0.4
 40
0.4
 40
0.4
 40
0.6
 40
0.6
 40
0.6
 40
0.6
 40
1.0
 40
1.0
 40
1.0
 40
1.0
 10
160.125
 20
-100.1199
 30
0.0
 10
152.5898
 20
-103.6774
 30
0.0
 10
143.105
 20
-103.2115
 30
0.0
 10
137.2281
 20
-100.4587
 30
0.0
 10
137.2281
 20
-100.4587
 30
0.0
 10
144.1465
 20
-99.4314
 30
0.0
 10
141.5706
 20
-91.8065
 30
0.0
 10
137.416
 20
-92.5727
 30
0.0
 10
137.416
 20
-92.5727
 30
0.0
 10
142.1611
 20
-87.73
 30
0.0
 10
145.5563
 20
-99.0983
 30
0.0
 10
156.009
 20
-91.9981
 30
0.0
 10
156.009
 20
-91.9981
 30
0.0
 10
155.9756
 20
-94.0238
 30
0.0
 10
157.2451
 20
-98.9618
 30
0.0
 10
160.125
 20
-100.1199
 30
0.0
  0
SPLINE
  5
8C
330
1F
100
AcDbEntity
  8
layer 1
 62
     7
100
AcDbSpline
210
0.0
220
0.0
230
1.0
 70
    11
 71
     3
 72
    24
 73
    20
 74
     0
 42
0.0000000001
 43
0.0000000001
 12
1.0
 22
0.0
 32
0.0
 13
1.0
 23
0.0
 33
0.0
 40
0.0
 40
0.0
 40
0.0
 40
0.0
 40
0.1666666666666667
 40
0.1666666666666667
 40
0.1666666666666667
 40
0.1666666666666667
 40
0.3333333333333333
 40
0.3333333333333333
 40
0.3333333333333333
 40
0.3333333333333333
 40
0.5
 40
0.5
 40
0.5
 40
0.5
 40
0.6666666666666666
 40
0.6666666666666666
 40
0.6666666666666666
 40
0.6666666666666666
 40
1.0
 40
1.0
 40
1.0
 40
1.0
 10
157.9228
 20
-85.2972
 30
0.0
 10
155.9354
 20
-81.5279
 30
0.0
 10
156.2337
 20
-79.1563
 30
0.0
 10
156.8365
 20
-77.2505
 30
0.0
 10
156.8365
 20
-77.2505
 30
0.0
 10
153.9857
 20
-77.8166
 30
0.0
 10
151.2695
 20
-75.7413
 30
0.0
 10
150.7244
 20
-73.2559
 30
0.0
 10
150.7244
 20
-73.2559
 30
0.0
 10
152.8269
 20
-72.2128
 30
0.0
 10
156.1039
 20
-72.5347
 30
0.0
 10
157.7443
 20
-74.743
 30
0.0
 10
157.7443
 20
-74.743
 30
0.0
 10
158.7626
 20
-72.6531
 30
0.0
 10
160.6756
 20
-70.3844
 30
0.0
 10
163.1662
 20
-70.2298
 30
0.0
 10
163.1662
 20
-70.2298
 30
0.0
 10
164.0646
 20
-74.8813
 30
0.0
 10
160.7602
 20
-83.7579
 30
0.0
 10
157.9228
 20
-85.2972
 30
0.0
  0
SPLINE
  5
8D
330
1F
100
AcDbEntity
  8
layer 1
 62
     7
100
AcDbSpline
210
0.0
220
0.0
230
1.0
 70
    11
 71
     3
 72
    20
 73
    16
 74
     0
 42
0.0000000001
 43
0.0000000001
 12
1.0
 22
0.0
 32
0.0
 13
1.0
 23
0.0
 33
0.0
 40
0.0
 40
0.0
 40
0.0
 40
0.0
 40
0.2
 40
0.2
 40
0.2
 40
0.2
 40
0.4
 40
0.4
 40
0.4
 40
0.4
 40
0.6
 40
0.6
 40
0.6
 40
0.6
 40
1.0
 40
1.0
 40
1.0
 40
1.0
 10
142.2448
 20
-83.6781
 30
0.0
 10
141.34
 20
-80.5731
 30
0.0
 10
142.2294
 20
-78.2381
 30
0.0
 10
145.2654
 20
-77.693
 30
0.0
 10
145.2654
 20
-77.693
 30
0.0
 10
149.5695
 20
-78.0591
 30
0.0
 10
149.8404
 20
-82.2678
 30
0.0
 10
147.6321
 20
-83.9082
 30
0.0
 10
147.6321
 20
-83.9082
 30
0.0
 10
149.722
 20
-83.5713
 30
0.0
 10
153.0919
 20
-84.7643
 30
0.0
 10
154.2205
 20
-87.1703
 30
0.0
 10
154.2205
 20
-87.1703
 30
0.0
 10
149.9923
 20
-88.6566
 30
0.0
 10
144.2724
 20
-88.9389
 30
0.0
 10
142.2448
 20
-83.6781
 30
0.0
  0
SPLINE
  5
8E
330
1F
100
AcDbEntity
  8
layer 1
 62
     7
100
AcDbSpline
210
0.0
220
0.0
230
1.0
 70
    11
 71
     3
 72
    24
 73
    20
 74
     0
 42
0.0000000001
 43
0.0000000001
 12
1.0
 22
0.0
 32
0.0
 13
1.0
 23
0.0
 33
0.0
 40
0.0
 40
0.0
 40
0.0
 40
0.0
 40
0.1666666666666667
 40
0.1666666666666667
 40
0.1666666666666667
 40
0.1666666666666667
 40
0.3333333333333333
 40
0.3333333333333333
 40
0.3333333333333333
 40
0.3333333333333333
 40
0.5
 40
0.5
 40
0.5
 40
0.5
 40
0.6666666666666666
 40
0.6666666666666666
 40
0.6666666666666666
 40
0.6666666666666666
 40
1.0
 40
1.0
 40
1.0
 40
1.0
 10
132.0486
 20
-58.9605
 30
0.0
 10
133.0519
 20
-59.631
 30
0.0
 10
133.6166
 20
-62.7948
 30
0.0
 10
133.2469
 20
-64.1748
 30
0.0
 10
133.2469
 20
-64.1748
 30
0.0
 10
135.6376
 20
-64.2331
 30
0.0
 10
137.028
 20
-65.7695
 30
0.0
 10
137.5769
 20
-68.5936
 30
0.0
 10
137.5769
 20
-68.5936
 30
0.0
 10
135.2299
 20
-69.2467
 30
0.0
 10
132.6528
 20
-68.7677
 30
0.0
 10
132.1804
 20
-66.0577
 30
0.0
 10
132.1804
 20
-66.0577
 30
0.0
 10
130.3312
 20
-67.4665
 30
0.0
 10
127.8076
 20
-68.2226
 30
0.0
 10
125.5133
 20
-67.2408
 30
0.0
 10
125.5133
 20
-67.2408
 30
0.0
 10
126.8023
 20
-62.682
 30
0.0
 10
128.2578
 20
-61.5723
 30
0.0
 10
132.0486
 20
-58.9605
 30
0.0
  0
SPLINE
  5
8F
330
1F
100
AcDbEntity
  8
layer 1
 62
     7
100
AcDbSpline
210
0.0
220
0.0
230
1.0
 70
    11
 71
     3
 72
    24
 73
    20
 74
     0
 42
0.0000000001
 43
0.0000000001
 12
1.0
 22
0.0
 32
0.0
 13
1.0
 23
0.0
 33
0.0
 40
0.0
 40
0.0
 40
0.0
 40
0.0
 40
0.1666666666666667
 40
0.1666666666666667
 40
0.1666666666666667
 40
0.1666666666666667
 40
0.3333333333333333
 40
0.3333333333333333
 40
0.3333333333333333
 40
0.3333333333333333
 40
0.5
 40
0.5
 40
0.5
 40
0.5
 40
0.6666666666666666
 40
0.6666666666666666
 40
0.6666666666666666
 40
0.6666666666666666
 40
1.0
 40
1.0
 40
1.0
 40
1.0
 10
147.7057
 20
-55.2694
 30
0.0
 10
147.5377
 20
-56.0033
 30
0.0
 10
145.8475
 20
-58.5206
 30
0.0
 10
143.8956
 20
-59.5155
 30
0.0
 10
143.8956
 20
-59.5155
 30
0.0
 10
145.9137
 20
-61.1373
 30
0.0
 10
146.2439
 20
-64.5785
 30
0.0
 10
143.4922
 20
-66.8061
 30
0.0
 10
143.4922
 20
-66.8061
 30
0.0
 10
141.3837
 20
-65.9171
 30
0.0
 10
140.1779
 20
-62.5079
 30
0.0
 10
141.2701
 20
-59.9831
 30
0.0
 10
141.2701
 20
-59.9831
 30
0.0
 10
139.2075
 20
-58.6077
 30
0.0
 10
137.5683
 20
-58.0342
 30
0.0
 10
137.0608
 20
-55.9032
 30
0.0
 10
137.0608
 20
-55.9032
 30
0.0
 10
142.7938
 20
-53.4148
 30
0.0
 10
144.9539
 20
-54.4535
 30
0.0
 10
147.7057
 20
-55.2694
 30
0.0
  0
SPLINE
  5
90
330
1F
100
AcDbEntity
  8
layer 1
 62
     7
100
AcDbSpline
210
0.0
220
0.0
230
1.0
 70
    11
 71
     3
 72
    28
 73
    24
 74
     0
 42
0.0000000001
 43
0.0000000001
 12
1.0
 22
0.0
 32
0.0
 13
1.0
 23
0.0
 33
0.0
 40
0.0
 40
0.0
 40
0.0
 40
0.0
 40
0.1428571428571428
 40
0.1428571428571428
 40
0.1428571428571428
 40
0.1428571428571428
 40
0.2857142857142857
 40
0.2857142857142857
 40
0.2857142857142857
 40
0.2857142857142857
 40
0.4285714285714285
 40
0.4285714285714285
 40
0.4285714285714285
 40
0.4285714285714285
 40
0.5714285714285714
 40
0.5714285714285714
 40
0.5714285714285714
 40
0.5714285714285714
 40
0.7142857142857143
 40
0.7142857142857143
 40
0.7142857142857143
 40
0.7142857142857143
 40
1.0
 40
1.0
 40
1.0
 40
1.0
 10
161.7306
 20
-65.7593
 30
0.0
 10
159.6778
 20
-67.0317
 30
0.0
 10
156.6961
 20
-65.485
 30
0.0
 10
155.3471
 20
-64.0101
 30
0.0
 10
155.3471
 20
-64.0101
 30
0.0
 10
154.8477
 20
-66.762
 30
0.0
 10
152.4617
 20
-68.1279
 30
0.0
 10
149.652
 20
-68.3573
 30
0.0
 10
149.652
 20
-68.3573
 30
0.0
 10
149.5691
 20
-65.938
 30
0.0
 10
151.0762
 20
-63.3893
 30
0.0
 10
153.8345
 20
-62.7138
 30
0.0
 10
153.8345
 20
-62.7138
 30
0.0
 10
152.5337
 20
-60.787
 30
0.0
 10
151.7562
 20
-57.9703
 30
0.0
 10
152.8164
 20
-56.4027
 30
0.0
 10
152.8164
 20
-56.4027
 30
0.0
 10
158.0888
 20
-57.9504
 30
0.0
 10
160.8932
 20
-60.3273
 30
0.0
 10
161.7305
 20
-65.7594
 30
0.0
 10
161.7305
 20
-65.7594
 30
0.0
 10
161.7305
 20
-65.7594
 30
0.0
 10
161.7306
 20
-65.7593
 30
0.0
 10
161.7306
 20
-65.7593
 30
0.0
  0
SPLINE
  5
91
330
1F
100
AcDbEntity
  8
layer 1
 62
     7
100
AcDbSpline
210
0.0
220
0.0
230
1.0
 70
    11
 71
     3
 72
    20
 73
    16
 74
     0
 42
0.0000000001
 43
0.0000000001
 12
1.0
 22
0.0
 32
0.0
 13
1.0
 23
0.0
 33
0.0
 40
0.0
 40
0.0
 40
0.0
 40
0.0
 40
0.2
 40
0.2
 40
0.2
 40
0.2
 40
0.4
 40
0.4
 40
0.4
 40
0.4
 40
0.6
 40
0.6
 40
0.6
 40
0.6
 40
1.0
 40
1.0
 40
1.0
 40
1.0
 10
111.0438
 20
-52.2181
 30
0.0
 10
110.2288
 20
-54.6346
 30
0.0
 10
108.9498
 20
-55.5365
 30
0.0
 10
107.4264
 20
-55.9251
 30
0.0
 10
107.4264
 20
-55.9251
 30
0.0
 10
105.9031
 20
-55.5365
 30
0.0
 10
104.6241
 20
-54.6346
 30
0.0
 10
103.809
 20
-52.2181
 30
0.0
 10
103.809
 20
-52.2181
 30
0.0
 10
102.661
 20
-47.1513
 30
0.0
 10
105.6906
 20
-43.0581
 30
0.0
 10
107.4264
 20
-38.3102
 30
0.0
 10
107.4264
 20
-38.3102
 30
0.0
 10
109.1622
 20
-43.0581
 30
0.0
 10
112.1919
 20
-47.1513
 30
0.0
 10
111.0438
 20
-52.2181
 30
0.0
  0
SPLINE
  5
92
330
1F
100
AcDbEntity
  8
layer 1
 62
     7
100
AcDbSpline
210
0.0
220
0.0
230
1.0
 70
    11
 71
     3
 72
    24
 73
    20
 74
     0
 42
0.0000000001
 43
0.0000000001
 12
1.0
 22
0.0
 32
0.0
 13
1.0
 23
0.0
 33
0.0
 40
0.0
 40
0.0
 40
0.0
 40
0.0
 40
0.1666666666666667
 40
0.1666666666666667
 40
0.1666666666666667
 40
0.1666666666666667
 40
0.3333333333333333
 40
0.3333333333333333
 40
0.3333333333333333
 40
0.3333333333333333
 40
0.5
 40
0.5
 40
0.5
 40
0.5
 40
0.6666666666666666
 40
0.6666666666666666
 40
0.6666666666666666
 40
0.6666666666666666
 40
1.0
 40
1.0
 40
1.0
 40
1.0
 10
158.0254
 20
-51.2732
 30
0.0
 10
154.8267
 20
-49.3152
 30
0.0
 10
152.1848
 20
-48.8817
 30
0.0
 10
149.2143
 20
-48.6988
 30
0.0
 10
149.2143
 20
-48.6988
 30
0.0
 10
159.1023
 20
-46.2277
 30
0.0
 10
163.5989
 20
-42.8002
 30
0.0
 10
169.1778
 20
-37.9815
 30
0.0
 10
169.1778
 20
-37.9815
 30
0.0
 10
170.9658
 20
-39.4555
 30
0.0
 10
175.2109
 20
-44.4515
 30
0.0
 10
176.3396
 20
-46.8575
 30
0.0
 10
176.3396
 20
-46.8575
 30
0.0
 10
174.5502
 20
-45.7432
 30
0.0
 10
169.7439
 20
-47.3863
 30
0.0
 10
169.5398
 20
-51.5796
 30
0.0
 10
169.5398
 20
-51.5796
 30
0.0
 10
164.6344
 20
-44.4015
 30
0.0
 10
158.8146
 20
-47.342
 30
0.0
 10
158.0254
 20
-51.2732
 30
0.0
  0
SPLINE
  5
93
330
1F
100
AcDbEntity
  8
layer 1
 62
     7
100
AcDbSpline
210
0.0
220
0.0
230
1.0
 70
    11
 71
     3
 72
    24
 73
    20
 74
     0
 42
0.0000000001
 43
0.0000000001
 12
1.0
 22
0.0
 32
0.0
 13
1.0
 23
0.0
 33
0.0
 40
0.0
 40
0.0
 40
0.0
 40
0.0
 40
0.1666666666666667
 40
0.1666666666666667
 40
0.1666666666666667
 40
0.1666666666666667
 40
0.3333333333333333
 40
0.3333333333333333
 40
0.3333333333333333
 40
0.3333333333333333
 40
0.5
 40
0.5
 40
0.5
 40
0.5
 40
0.6666666666666666
 40
0.6666666666666666
 40
0.6666666666666666
 40
0.6666666666666666
 40
1.0
 40
1.0
 40
1.0
 40
1.0
 10
144.8306
 20
-4.6124
 30
0.0
 10
143.1389
 20
-10.6756
 30
0.0
 10
141.2764
 20
-13.1358
 30
0.0
 10
136.7989
 20
-18.1515
 30
0.0
 10
136.7989
 20
-18.1515
 30
0.0
 10
147.4054
 20
-18.0198
 30
0.0
 10
160.5959
 20
-22.9957
 30
0.0
 10
163.206
 20
-24.5038
 30
0.0
 10
163.206
 20
-24.5038
 30
0.0
 10
163.7988
 20
-21.0551
 30
0.0
 10
162.4317
 20
-17.0983
 30
0.0
 10
155.6617
 20
-16.2513
 30
0.0
 10
155.6617
 20
-16.2513
 30
0.0
 10
153.9962
 20
-15.9923
 30
0.0
 10
146.756
 20
-12.3615
 30
0.0
 10
144.8306
 20
-4.6125
 30
0.0
 10
144.8306
 20
-4.6125
 30
0.0
 10
144.8306
 20
-4.6125
 30
0.0
 10
144.8306
 20
-4.6124
 30
0.0
 10
144.8306
 20
-4.6124
 30
0.0
  0
SPLINE
  5
94
330
1F
100
AcDbEntity
  8
layer 1
 62
     7
100
AcDbSpline
210
0.0
220
0.0
230
1.0
 70
    11
 71
     3
 72
    20
 73
    16
 74
     0
 42
0.0000000001
 43
0.0000000001
 12
1.0
 22
0.0
 32
0.0
 13
1.0
 23
0.0
 33
0.0
 40
0.0
 40
0.0
 40
0.0
 40
0.0
 40
0.2
 40
0.2
 40
0.2
 40
0.2
 40
0.4
 40
0.4
 40
0.4
 40
0.4
 40
0.6
 40
0.6
 40
0.6
 40
0.6
 40
1.0
 40
1.0
 40
1.0
 40
1.0
 10
171.8006
 20
-4.9762
 30
0.0
 10
172.863
 20
-8.2853
 30
0.0
 10
172.7673
 20
-11.0052
 30
0.0
 10
168.4458
 20
-13.0589
 30
0.0
 10
168.4458
 20
-13.0589
 30
0.0
 10
171.6731
 20
-15.6813
 30
0.0
 10
173.3275
 20
-21.8524
 30
0.0
 10
170.6891
 20
-26.4265
 30
0.0
 10
170.6891
 20
-26.4265
 30
0.0
 10
177.2059
 20
-22.8219
 30
0.0
 10
185.9721
 20
-11.0184
 30
0.0
 10
179.5658
 20
1.7807
 30
0.0
 10
179.5658
 20
1.7807
 30
0.0
 10
180.6024
 20
-3.4166
 30
0.0
 10
175.4928
 20
-6.5413
 30
0.0
 10
171.8006
 20
-4.9762
 30
0.0
  0
SPLINE
  5
95
330
1F
100
AcDbEntity
  8
layer 1
 62
     7
100
AcDbSpline
210
0.0
220
0.0
230
1.0
 70
    11
 71
     3
 72
    16
 73
    12
 74
     0
 42
0.0000000001
 43
0.0000000001
 12
1.0
 22
0.0
 32
0.0
 13
1.0
 23
0.0
 33
0.0
 40
0.0
 40
0.0
 40
0.0
 40
0.0
 40
0.25
 40
0.25
 40
0.25
 40
0.25
 40
0.5
 40
0.5
 40
0.5
 40
0.5
 40
1.0
 40
1.0
 40
1.0
 40
1.0
 10
186.7919
 20
2.7714
 30
0.0
 10
186.025
 20
5.2865
 30
0.0
 10
183.5558
 20
7.512
 30
0.0
 10
181.6423
 20
8.3368
 30
0.0
 10
181.6423
 20
8.3368
 30
0.0
 10
183.5558
 20
9.1615
 30
0.0
 10
186.0249
 20
11.3871
 30
0.0
 10
186.7919
 20
13.9021
 30
0.0
 10
186.7919
 20
13.9021
 30
0.0
 10
186.7919
 20
13.9021
 30
0.0
 10
186.7919
 20
2.7714
 30
0.0
 10
186.7919
 20
2.7714
 30
0.0
  0
SPLINE
  5
96
330
1F
100
AcDbEntity
  8
layer 1
 62
     7
100
AcDbSpline
210
0.0
220
0.0
230
1.0
 70
    11
 71
     3
 72
    60
 73
    56
 74
     0
 42
0.0000000001
 43
0.0000000001
 12
1.0
 22
0.0
 32
0.0
 13
1.0
 23
0.0
 33
0.0
 40
0.0
 40
0.0
 40
0.0
 40
0.0
 40
0.0666666666666667
 40
0.0666666666666667
 40
0.0666666666666667
 40
0.0666666666666667
 40
0.1333333333333333
 40
0.1333333333333333
 40
0.1333333333333333
 40
0.1333333333333333
 40
0.2
 40
0.2
 40
0.2
 40
0.2
 40
0.2666666666666667
 40
0.2666666666666667
 40
0.2666666666666667
 40
0.2666666666666667
 40
0.3333333333333333
 40
0.3333333333333333
 40
0.3333333333333333
 40
0.3333333333333333
 40
0.4
 40
0.4
 40
0.4
 40
0.4
 40
0.4666666666666667
 40
0.4666666666666667
 40
0.4666666666666667
 40
0.4666666666666667
 40
0.5333333333333333
 40
0.5333333333333333
 40
0.5333333333333333
 40
0.5333333333333333
 40
0.6
 40
0.6
 40
0.6
 40
0.6
 40
0.6666666666666666
 40
0.6666666666666666
 40
0.6666666666666666
 40
0.6666666666666666
 40
0.7333333333333333
 40
0.7333333333333333
 40
0.7333333333333333
 40
0.7333333333333333
 40
0.8
 40
0.8
 40
0.8
 40
0.8
 40
0.8666666666666667
 40
0.8666666666666667
 40
0.8666666666666667
 40
0.8666666666666667
 40
1.0
 40
1.0
 40
1.0
 40
1.0
 10
167.6214
 20
-0.4364
 30
0.0
 10
161.9537
 20
2.121
 30
0.0
 10
159.0912
 20
-2.4984
 30
0.0
 10
159.2623
 20
-5.0136
 30
0.0
 10
159.2623
 20
-5.0136
 30
0.0
 10
162.0307
 20
-3.8972
 30
0.0
 10
163.3684
 20
-9.9264
 30
0.0
 10
158.2458
 20
-8.8936
 30
0.0
 10
158.2458
 20
-8.8936
 30
0.0
 10
154.9475
 20
-8.2771
 30
0.0
 10
148.6958
 20
-2.3313
 30
0.0
 10
150.2656
 20
6.0593
 30
0.0
 10
150.2656
 20
6.0593
 30
0.0
 10
151.8596
 20
6.3289
 30
0.0
 10
154.2897
 20
4.4251
 30
0.0
 10
153.6451
 20
1.5336
 30
0.0
 10
153.6451
 20
1.5336
 30
0.0
 10
154.5053
 20
0.2588
 30
0.0
 10
159.7165
 20
0.8633
 30
0.0
 10
159.7048
 20
4.4297
 30
0.0
 10
159.7048
 20
4.4297
 30
0.0
 10
161.959
 20
4.9619
 30
0.0
 10
164.0749
 20
6.2769
 30
0.0
 10
164.1962
 20
8.3368
 30
0.0
 10
164.1962
 20
8.3368
 30
0.0
 10
164.0749
 20
10.3966
 30
0.0
 10
161.959
 20
11.7116
 30
0.0
 10
159.7048
 20
12.2438
 30
0.0
 10
159.7048
 20
12.2438
 30
0.0
 10
159.7165
 20
15.8103
 30
0.0
 10
154.5053
 20
16.4147
 30
0.0
 10
153.6451
 20
15.14
 30
0.0
 10
153.6451
 20
15.14
 30
0.0
 10
154.2897
 20
12.2484
 30
0.0
 10
151.8596
 20
10.3446
 30
0.0
 10
150.2656
 20
10.6143
 30
0.0
 10
150.2656
 20
10.6143
 30
0.0
 10
148.6958
 20
19.0049
 30
0.0
 10
154.9475
 20
24.9507
 30
0.0
 10
158.2458
 20
25.5671
 30
0.0
 10
158.2458
 20
25.5671
 30
0.0
 10
163.3685
 20
26.5999
 30
0.0
 10
162.0308
 20
20.5708
 30
0.0
 10
159.2623
 20
21.6872
 30
0.0
 10
159.2623
 20
21.6872
 30
0.0
 10
159.0912
 20
19.1719
 30
0.0
 10
161.9537
 20
14.5525
 30
0.0
 10
167.6214
 20
17.1099
 30
0.0
 10
167.6214
 20
17.1099
 30
0.0
 10
164.6142
 20
13.0018
 30
0.0
 10
166.8596
 20
9.736
 30
0.0
 10
170.1075
 20
8.3368
 30
0.0
 10
170.1075
 20
8.3368
 30
0.0
 10
166.8595
 20
6.9376
 30
0.0
 10
164.6141
 20
3.6718
 30
0.0
 10
167.6214
 20
-0.4364
 30
0.0
  0
SPLINE
  5
97
330
1F
100
AcDbEntity
  8
layer 1
 62
     7
100
AcDbSpline
210
0.0
220
0.0
230
1.0
 70
    11
 71
     3
 72
    52
 73
    48
 74
     0
 42
0.0000000001
 43
0.0000000001
 12
1.0
 22
0.0
 32
0.0
 13
1.0
 23
0.0
 33
0.0
 40
0.0
 40
0.0
 40
0.0
 40
0.0
 40
0.0769230769230769
 40
0.0769230769230769
 40
0.0769230769230769
 40
0.0769230769230769
 40
0.1538461538461539
 40
0.1538461538461539
 40
0.1538461538461539
 40
0.1538461538461539
 40
0.2307692307692308
 40
0.2307692307692308
 40
0.2307692307692308
 40
0.2307692307692308
 40
0.3076923076923077
 40
0.3076923076923077
 40
0.3076923076923077
 40
0.3076923076923077
 40
0.3846153846153846
 40
0.3846153846153846
 40
0.3846153846153846
 40
0.3846153846153846
 40
0.4615384615384616
 40
0.4615384615384616
 40
0.4615384615384616
 40
0.4615384615384616
 40
0.5384615384615384
 40
0.5384615384615384
 40
0.5384615384615384
 40
0.5384615384615384
 40
0.6153846153846154
 40
0.6153846153846154
 40
0.6153846153846154
 40
0.6153846153846154
 40
0.6923076923076923
 40
0.6923076923076923
 40
0.6923076923076923
 40
0.6923076923076923
 40
0.7692307692307693
 40
0.7692307692307693
 40
0.7692307692307693
 40
0.7692307692307693
 40
0.8461538461538461
 40
0.8461538461538461
 40
0.8461538461538461
 40
0.8461538461538461
 40
1.0
 40
1.0
 40
1.0
 40
1.0
 10
122.7557
 20
-58.3842
 30
0.0
 10
123.3349
 20
-55.4015
 30
0.0
 10
123.5309
 20
-53.8
 30
0.0
 10
123.0484
 20
-52.9636
 30
0.0
 10
123.0484
 20
-52.9636
 30
0.0
 10
123.193
 20
-52.9121
 30
0.0
 10
130.228
 20
-52.7768
 30
0.0
 10
131.5406
 20
-45.4476
 30
0.0
 10
131.5406
 20
-45.4476
 30
0.0
 10
132.2509
 20
-41.4819
 30
0.0
 10
129.4793
 20
-35.2031
 30
0.0
 10
123.8352
 20
-36.6607
 30
0.0
 10
123.8352
 20
-36.6607
 30
0.0
 10
125.2142
 20
-40.4133
 30
0.0
 10
120.4348
 20
-42.2937
 30
0.0
 10
119.059
 20
-38.464
 30
0.0
 10
119.059
 20
-38.464
 30
0.0
 10
118.3766
 20
-36.5644
 30
0.0
 10
118.706
 20
-32.3103
 30
0.0
 10
124.7146
 20
-29.2586
 30
0.0
 10
124.7146
 20
-29.2586
 30
0.0
 10
128.8886
 20
-27.1386
 30
0.0
 10
132.8978
 20
-27.8348
 30
0.0
 10
134.639
 20
-29.3797
 30
0.0
 10
134.639
 20
-29.3797
 30
0.0
 10
136.8026
 20
-31.2993
 30
0.0
 10
136.0668
 20
-34.9136
 30
0.0
 10
132.7333
 20
-35.7894
 30
0.0
 10
132.7333
 20
-35.7894
 30
0.0
 10
134.2538
 20
-43.9596
 30
0.0
 10
143.2957
 20
-43.007
 30
0.0
 10
146.0737
 20
-40.3381
 30
0.0
 10
146.0737
 20
-40.3381
 30
0.0
 10
152.2988
 20
-34.3577
 30
0.0
 10
148.4728
 20
-28.7177
 30
0.0
 10
148.6104
 20
-28.214
 30
0.0
 10
148.6104
 20
-28.214
 30
0.0
 10
153.1383
 20
-29.2949
 30
0.0
 10
158.4238
 20
-30.7301
 30
0.0
 10
161.9186
 20
-33.1729
 30
0.0
 10
161.9186
 20
-33.1729
 30
0.0
 10
152.9514
 20
-41.68
 30
0.0
 10
131.235
 20
-46.8018
 30
0.0
 10
122.7558
 20
-58.3842
 30
0.0
 10
122.7558
 20
-58.3842
 30
0.0
 10
122.7558
 20
-58.3842
 30
0.0
 10
122.7557
 20
-58.3842
 30
0.0
 10
122.7557
 20
-58.3842
 30
0.0
  0
SPLINE
  5
98
330
1F
100
AcDbEntity
  8
layer 1
 62
     7
100
AcDbSpline
210
0.0
220
0.0
230
1.0
 70
    11
 71
     3
 72
    36
 73
    32
 74
     0
 42
0.0000000001
 43
0.0000000001
 12
1.0
 22
0.0
 32
0.0
 13
1.0
 23
0.0
 33
0.0
 40
0.0
 40
0.0
 40
0.0
 40
0.0
 40
0.1111111111111111
 40
0.1111111111111111
 40
0.1111111111111111
 40
0.1111111111111111
 40
0.2222222222222222
 40
0.2222222222222222
 40
0.2222222222222222
 40
0.2222222222222222
 40
0.3333333333333333
 40
0.3333333333333333
 40
0.3333333333333333
 40
0.3333333333333333
 40
0.4444444444444444
 40
0.4444444444444444
 40
0.4444444444444444
 40
0.4444444444444444
 40
0.5555555555555556
 40
0.5555555555555556
 40
0.5555555555555556
 40
0.5555555555555556
 40
0.6666666666666666
 40
0.6666666666666666
 40
0.6666666666666666
 40
0.6666666666666666
 40
0.7777777777777778
 40
0.7777777777777778
 40
0.7777777777777778
 40
0.7777777777777778
 40
1.0
 40
1.0
 40
1.0
 40
1.0
 10
164.9186
 20
-95.3771
 30
0.0
 10
159.3409
 20
-85.5499
 30
0.0
 10
175.7312
 20
-84.1404
 30
0.0
 10
167.2097
 20
-61.6311
 30
0.0
 10
167.2097
 20
-61.6311
 30
0.0
 10
171.5466
 20
-64.8941
 30
0.0
 10
176.6531
 20
-65.2486
 30
0.0
 10
182.232
 20
-60.4299
 30
0.0
 10
182.232
 20
-60.4299
 30
0.0
 10
182.3039
 20
-64.0162
 30
0.0
 10
182.3482
 20
-66.7382
 30
0.0
 10
181.6432
 20
-69.4178
 30
0.0
 10
181.6432
 20
-69.4178
 30
0.0
 10
180.752
 20
-72.805
 30
0.0
 10
176.192
 20
-73.8537
 30
0.0
 10
174.7536
 20
-70.16
 30
0.0
 10
174.7536
 20
-70.16
 30
0.0
 10
170.3264
 20
-75.0424
 30
0.0
 10
175.8304
 20
-82.4226
 30
0.0
 10
179.6674
 20
-82.3576
 30
0.0
 10
179.6674
 20
-82.3576
 30
0.0
 10
176.9564
 20
-90.5799
 30
0.0
 10
169.2502
 20
-94.75
 30
0.0
 10
168.6857
 20
-96.2326
 30
0.0
 10
168.6857
 20
-96.2326
 30
0.0
 10
167.9895
 20
-94.9106
 30
0.0
 10
167.5377
 20
-93.8861
 30
0.0
 10
164.9185
 20
-95.3771
 30
0.0
 10
164.9185
 20
-95.3771
 30
0.0
 10
164.9185
 20
-95.3771
 30
0.0
 10
164.9186
 20
-95.3771
 30
0.0
 10
164.9186
 20
-95.3771
 30
0.0
  0
SPLINE
  5
99
330
1F
100
AcDbEntity
  8
layer 1
 62
     7
100
AcDbSpline
210
0.0
220
0.0
230
1.0
 70
    11
 71
     3
 72
    24
 73
    20
 74
     0
 42
0.0000000001
 43
0.0000000001
 12
1.0
 22
0.0
 32
0.0
 13
1.0
 23
0.0
 33
0.0
 40
0.0
 40
0.0
 40
0.0
 40
0.0
 40
0.1666666666666667
 40
0.1666666666666667
 40
0.1666666666666667
 40
0.1666666666666667
 40
0.3333333333333333
 40
0.3333333333333333
 40
0.3333333333333333
 40
0.3333333333333333
 40
0.5
 40
0.5
 40
0.5
 40
0.5
 40
0.6666666666666666
 40
0.6666666666666666
 40
0.6666666666666666
 40
0.6666666666666666
 40
1.0
 40
1.0
 40
1.0
 40
1.0
 10
186.7299
 20
-106.5572
 30
0.0
 10
179.1947
 20
-106.5572
 30
0.0
 10
170.999
 20
-106.5572
 30
0.0
 10
165.334
 20
-106.5572
 30
0.0
 10
165.334
 20
-106.5572
 30
0.0
 10
168.9526
 20
-105.2674
 30
0.0
 10
174.4468
 20
-101.5069
 30
0.0
 10
176.6188
 20
-99.3107
 30
0.0
 10
176.6188
 20
-99.3107
 30
0.0
 10
176.046
 20
-106.5572
 30
0.0
 10
183.3962
 20
-103.8415
 30
0.0
 10
184.7877
 20
-100.9283
 30
0.0
 10
184.7877
 20
-100.9283
 30
0.0
 10
179.255
 20
-96.9138
 30
0.0
 10
182.6685
 20
-90.4263
 30
0.0
 10
186.7919
 20
-88.7226
 30
0.0
 10
186.7919
 20
-88.7226
 30
0.0
 10
186.7919
 20
-88.7226
 30
0.0
 10
186.7299
 20
-106.5572
 30
0.0
 10
186.7299
 20
-106.5572
 30
0.0
  0
SPLINE
  5
9A
330
1F
100
AcDbEntity
  8
layer 1
 62
     7
100
AcDbSpline
210
0.0
220
0.0
230
1.0
 70
    11
 71
     3
 72
    20
 73
    16
 74
     0
 42
0.0000000001
 43
0.0000000001
 12
1.0
 22
0.0
 32
0.0
 13
1.0
 23
0.0
 33
0.0
 40
0.0
 40
0.0
 40
0.0
 40
0.0
 40
0.2
 40
0.2
 40
0.2
 40
0.2
 40
0.4
 40
0.4
 40
0.4
 40
0.4
 40
0.6
 40
0.6
 40
0.6
 40
0.6
 40
1.0
 40
1.0
 40
1.0
 40
1.0
 10
109.0513
 20
-11.7683
 30
0.0
 10
112.5278
 20
-12.743
 30
0.0
 10
114.4022
 20
-16.1572
 30
0.0
 10
110.1633
 20
-20.7754
 30
0.0
 10
110.1633
 20
-20.7754
 30
0.0
 10
115.045
 20
-21.3592
 30
0.0
 10
118.6945
 20
-16.8734
 30
0.0
 10
119.3168
 20
-13.1339
 30
0.0
 10
119.3168
 20
-13.1339
 30
0.0
 10
115.2981
 20
-12.309
 30
0.0
 10
110.8301
 20
-9.3859
 30
0.0
 10
109.0692
 20
-5.12
 30
0.0
 10
109.0692
 20
-5.12
 30
0.0
 10
108.8349
 20
-7.0872
 30
0.0
 10
109.148
 20
-9.4196
 30
0.0
 10
109.0513
 20
-11.7683
 30
0.0
  0
SPLINE
  5
9B
330
1F
100
AcDbEntity
  8
layer 1
 62
     7
100
AcDbSpline
210
0.0
220
0.0
230
1.0
 70
    11
 71
     3
 72
    20
 73
    16
 74
     0
 42
0.0000000001
 43
0.0000000001
 12
1.0
 22
0.0
 32
0.0
 13
1.0
 23
0.0
 33
0.0
 40
0.0
 40
0.0
 40
0.0
 40
0.0
 40
0.2
 40
0.2
 40
0.2
 40
0.2
 40
0.4
 40
0.4
 40
0.4
 40
0.4
 40
0.6
 40
0.6
 40
0.6
 40
0.6
 40
1.0
 40
1.0
 40
1.0
 40
1.0
 10
118.4334
 20
2.3594
 30
0.0
 10
121.9894
 20
0.6307
 30
0.0
 10
124.0228
 20
-0.7257
 30
0.0
 10
125.2701
 20
-0.7986
 30
0.0
 10
125.2701
 20
-0.7986
 30
0.0
 10
124.0296
 20
-5.2238
 30
0.0
 10
128.4742
 20
-8.1989
 30
0.0
 10
132.5949
 20
-6.7703
 30
0.0
 10
132.5949
 20
-6.7703
 30
0.0
 10
130.7229
 20
-8.9468
 30
0.0
 10
127.9246
 20
-9.9618
 30
0.0
 10
124.494
 20
-9.8546
 30
0.0
 10
124.494
 20
-9.8546
 30
0.0
 10
124.8957
 20
-4.9455
 30
0.0
 10
122.1876
 20
-0.9434
 30
0.0
 10
118.4334
 20
2.3594
 30
0.0
  0
SPLINE
  5
9C
330
1F
100
AcDbEntity
  8
layer 1
 62
     7
100
AcDbSpline
210
0.0
220
0.0
230
1.0
 70
    11
 71
     3
 72
    40
 73
    36
 74
     0
 42
0.0000000001
 43
0.0000000001
 12
1.0
 22
0.0
 32
0.0
 13
1.0
 23
0.0
 33
0.0
 40
0.0
 40
0.0
 40
0.0
 40
0.0
 40
0.1
 40
0.1
 40
0.1
 40
0.1
 40
0.2
 40
0.2
 40
0.2
 40
0.2
 40
0.3
 40
0.3
 40
0.3
 40
0.3
 40
0.4
 40
0.4
 40
0.4
 40
0.4
 40
0.5
 40
0.5
 40
0.5
 40
0.5
 40
0.6
 40
0.6
 40
0.6
 40
0.6
 40
0.7
 40
0.7
 40
0.7
 40
0.7
 40
0.8
 40
0.8
 40
0.8
 40
0.8
 40
1.0
 40
1.0
 40
1.0
 40
1.0
 10
135.2982
 20
-0.8866
 30
0.0
 10
133.2672
 20
3.0591
 30
0.0
 10
130.3099
 20
4.2705
 30
0.0
 10
126.7203
 20
1.5152
 30
0.0
 10
126.7203
 20
1.5152
 30
0.0
 10
125.6113
 20
2.4488
 30
0.0
 10
124.6524
 20
3.1115
 30
0.0
 10
123.204
 20
4.1086
 30
0.0
 10
123.204
 20
4.1086
 30
0.0
 10
126.4235
 20
3.8295
 30
0.0
 10
130.9183
 20
6.2599
 30
0.0
 10
130.9948
 20
8.3367
 30
0.0
 10
130.9948
 20
8.3367
 30
0.0
 10
131.0956
 20
10.3248
 30
0.0
 10
126.4235
 20
12.844
 30
0.0
 10
123.204
 20
12.5649
 30
0.0
 10
123.204
 20
12.5649
 30
0.0
 10
124.6524
 20
13.5619
 30
0.0
 10
125.6113
 20
14.2246
 30
0.0
 10
126.7203
 20
15.1582
 30
0.0
 10
126.7203
 20
15.1582
 30
0.0
 10
130.3099
 20
12.4029
 30
0.0
 10
133.2672
 20
13.6143
 30
0.0
 10
135.2982
 20
17.56
 30
0.0
 10
135.2982
 20
17.56
 30
0.0
 10
135.153
 20
14.059
 30
0.0
 10
134.1273
 20
10.9368
 30
0.0
 10
132.0284
 20
8.3366
 30
0.0
 10
132.0284
 20
8.3366
 30
0.0
 10
134.1273
 20
5.7365
 30
0.0
 10
135.153
 20
2.6143
 30
0.0
 10
135.2982
 20
-0.8867
 30
0.0
 10
135.2982
 20
-0.8867
 30
0.0
 10
135.2982
 20
-0.8867
 30
0.0
 10
135.2982
 20
-0.8866
 30
0.0
 10
135.2982
 20
-0.8866
 30
0.0
  0
SPLINE
  5
9D
330
1F
100
AcDbEntity
  8
layer 1
 62
     7
100
AcDbSpline
210
0.0
220
0.0
230
1.0
 70
    11
 71
     3
 72
    20
 73
    16
 74
     0
 42
0.0000000001
 43
0.0000000001
 12
1.0
 22
0.0
 32
0.0
 13
1.0
 23
0.0
 33
0.0
 40
0.0
 40
0.0
 40
0.0
 40
0.0
 40
0.2
 40
0.2
 40
0.2
 40
0.2
 40
0.4
 40
0.4
 40
0.4
 40
0.4
 40
0.6
 40
0.6
 40
0.6
 40
0.6
 40
1.0
 40
1.0
 40
1.0
 40
1.0
 10
124.1882
 20
-14.9439
 30
0.0
 10
128.0852
 20
-15.8012
 30
0.0
 10
132.0482
 20
-13.6107
 30
0.0
 10
133.729
 20
-12.3664
 30
0.0
 10
133.729
 20
-12.3664
 30
0.0
 10
131.3952
 20
-15.608
 30
0.0
 10
124.8448
 20
-21.3725
 30
0.0
 10
118.6314
 20
-23.2812
 30
0.0
 10
118.6314
 20
-23.2812
 30
0.0
 10
122.7207
 20
-19.9049
 30
0.0
 10
123.6105
 20
-17.4025
 30
0.0
 10
124.1881
 20
-14.9439
 30
0.0
 10
124.1881
 20
-14.9439
 30
0.0
 10
124.1881
 20
-14.9439
 30
0.0
 10
124.1882
 20
-14.9439
 30
0.0
 10
124.1882
 20
-14.9439
 30
0.0
  0
SPLINE
  5
9E
330
1F
100
AcDbEntity
  8
layer 1
 62
     7
100
AcDbSpline
210
0.0
220
0.0
230
1.0
 70
    11
 71
     3
 72
    12
 73
     8
 74
     0
 42
0.0000000001
 43
0.0000000001
 12
1.0
 22
0.0
 32
0.0
 13
1.0
 23
0.0
 33
0.0
 40
0.0
 40
0.0
 40
0.0
 40
0.0
 40
0.3333333333333333
 40
0.3333333333333333
 40
0.3333333333333333
 40
0.3333333333333333
 40
1.0
 40
1.0
 40
1.0
 40
1.0
 10
119.9777
 20
-8.2138
 30
0.0
 10
119.551
 20
-4.0312
 30
0.0
 10
115.3784
 20
-0.9856
 30
0.0
 10
113.2542
 20
-2.5264
 30
0.0
 10
113.2542
 20
-2.5264
 30
0.0
 10
112.0591
 20
-4.8532
 30
0.0
 10
115.7543
 20
-8.4629
 30
0.0
 10
119.9777
 20
-8.2138
 30
0.0
  0
SPLINE
  5
9F
330
1F
100
AcDbEntity
  8
layer 1
 62
     7
100
AcDbSpline
210
0.0
220
0.0
230
1.0
 70
    11
 71
     3
 72
    36
 73
    32
 74
     0
 42
0.0000000001
 43
0.0000000001
 12
1.0
 22
0.0
 32
0.0
 13
1.0
 23
0.0
 33
0.0
 40
0.0
 40
0.0
 40
0.0
 40
0.0
 40
0.1111111111111111
 40
0.1111111111111111
 40
0.1111111111111111
 40
0.1111111111111111
 40
0.2222222222222222
 40
0.2222222222222222
 40
0.2222222222222222
 40
0.2222222222222222
 40
0.3333333333333333
 40
0.3333333333333333
 40
0.3333333333333333
 40
0.3333333333333333
 40
0.4444444444444444
 40
0.4444444444444444
 40
0.4444444444444444
 40
0.4444444444444444
 40
0.5555555555555556
 40
0.5555555555555556
 40
0.5555555555555556
 40
0.5555555555555556
 40
0.6666666666666666
 40
0.6666666666666666
 40
0.6666666666666666
 40
0.6666666666666666
 40
0.7777777777777778
 40
0.7777777777777778
 40
0.7777777777777778
 40
0.7777777777777778
 40
1.0
 40
1.0
 40
1.0
 40
1.0
 10
77.5454
 20
103.8681
 30
0.0
 10
80.887
 20
104.4041
 30
0.0
 10
85.0866
 20
106.9447
 30
0.0
 10
84.9016
 20
113.0865
 30
0.0
 10
84.9016
 20
113.0865
 30
0.0
 10
85.8633
 20
113.0606
 30
0.0
 10
90.6606
 20
108.2586
 30
0.0
 10
91.4287
 20
105.1673
 30
0.0
 10
91.4287
 20
105.1673
 30
0.0
 10
88.3911
 20
106.0426
 30
0.0
 10
83.1161
 20
106.3801
 30
0.0
 10
83.1445
 20
99.1548
 30
0.0
 10
83.1445
 20
99.1548
 30
0.0
 10
87.2774
 20
99.3618
 30
0.0
 10
91.2756
 20
95.543
 30
0.0
 10
90.6412
 20
88.5447
 30
0.0
 10
90.6412
 20
88.5447
 30
0.0
 10
88.5387
 20
87.5016
 30
0.0
 10
85.83
 20
88.8174
 30
0.0
 10
84.8902
 20
91.6714
 30
0.0
 10
84.8902
 20
91.6714
 30
0.0
 10
82.6959
 20
88.4991
 30
0.0
 10
77.169
 20
90.0467
 30
0.0
 10
75.5327
 20
91.5698
 30
0.0
 10
75.5327
 20
91.5698
 30
0.0
 10
80.6856
 20
94.1188
 30
0.0
 10
80.2977
 20
99.8672
 30
0.0
 10
77.5454
 20
103.868
 30
0.0
 10
77.5454
 20
103.868
 30
0.0
 10
77.5454
 20
103.868
 30
0.0
 10
77.5454
 20
103.8681
 30
0.0
 10
77.5454
 20
103.8681
 30
0.0
  0
ENDSEC
  0
SECTION
  2
OBJECTS
  0
DICTIONARY
  5
C
330
0
100
AcDbDictionary
281
     1
  3
ACAD_GROUP
350
D
  3
ACAD_LAYOUT
350
1A
  3
ACAD_MATERIAL
350
3B
  3
ACAD_MLEADERSTYLE
350
C1
  3
ACAD_MLINESTYLE
350
17
  3
ACAD_PLOTSETTINGS
350
19
  3
ACAD_PLOTSTYLENAME
350
E
  3
ACAD_TABLESTYLE
350
C0
  3
ACAD_VISUALSTYLE
350
2A
  0
DICTIONARY
  5
D
102
{ACAD_REACTORS
330
C
102
}
330
C
100
AcDbDictionary
281
     1
  0
DICTIONARY
  5
1A
102
{ACAD_REACTORS
330
C
102
}
330
C
100
AcDbDictionary
281
     1
  3
Layout1
350
1E
  3
Layout2
350
26
  3
Model
350
22
  0
DICTIONARY
  5
3B
102
{ACAD_REACTORS
330
C
102
}
330
C
100
AcDbDictionary
281
     1
  3
ByBlock
350
3D
  3
ByLayer
350
3C
  3
Global
350
3E
  0
DICTIONARY
  5
C1
102
{ACAD_REACTORS
330
C
102
}
330
C
100
AcDbDictionary
281
     1
  0
DICTIONARY
  5
17
102
{ACAD_REACTORS
330
C
102
}
330
C
100
AcDbDictionary
281
     1
  3
Standard
350
18
  0
DICTIONARY
  5
19
102
{ACAD_REACTORS
330
C
102
}
330
C
100
AcDbDictionary
281
     1
  0
ACDBDICTIONARYWDFLT
  5
E
102
{ACAD_REACTORS
330
C
102
}
330
C
100
AcDbDictionary
281
     1
  3
Normal
350
F
100
AcDbDictionaryWithDefault
340
F
  0
DICTIONARY
  5
C0
102
{ACAD_REACTORS
330
C
102
}
330
C
100
AcDbDictionary
281
     1
  0
DICTIONARY
  5
2A
102
{ACAD_REACTORS
330
C
102
}
330
C
100
AcDbDictionary
281
     1
  3
2dWireframe
350
2F
  3
3D Hidden
350
31
  3
3dWireframe
350
30
  3
Basic
350
32
  3
Brighten
350
36
  3
ColorChange
350
3A
  3
Conceptual
350
34
  3
Dim
350
35
  3
Facepattern
350
39
  3
Flat
350
2B
  3
FlatWithEdges
350
2C
  3
Gouraud
350
2D
  3
GouraudWithEdges
350
2E
  3
Linepattern
350
38
  3
Realistic
350
33
  3
Thicken
350
37
  0
LAYOUT
  5
1E
102
{ACAD_REACTORS
330
1A
102
}
330
1A
100
AcDbPlotSettings
  1

  2
none_device
  4

  6

 40
0.0
 41
0.0
 42
0.0
 43
0.0
 44
0.0
 45
0.0
 46
0.0
 47
0.0
 48
0.0
 49
0.0
140
0.0
141
0.0
142
1.0
143
1.0
 70
   688
 72
     0
 73
     0
 74
     5
  7

 75
    16
 76
     0
 77
     2
 78
   300
147
1.0
148
0.0
149
0.0
100
AcDbLayout
  1
Layout1
 70
     1
 71
     1
 10
0.0
 20
0.0
 11
12.0
 21
9.0
 12
0.0
 22
0.0
 32
0.0
 14
1.000000000000000E+20
 24
1.000000000000000E+20
 34
1.000000000000000E+20
 15
-1.000000000000000E+20
 25
-1.000000000000000E+20
 35
-1.000000000000000E+20
146
0.0
 13
0.0
 23
0.0
 33
0.0
 16
1.0
 26
0.0
 36
0.0
 17
0.0
 27
1.0
 37
0.0
 76
     0
330
1B
  0
LAYOUT
  5
26
102
{ACAD_REACTORS
330
1A
102
}
330
1A
100
AcDbPlotSettings
  1

  2
none_device
  4

  6

 40
0.0
 41
0.0
 42
0.0
 43
0.0
 44
0.0
 45
0.0
 46
0.0
 47
0.0
 48
0.0
 49
0.0
140
0.0
141
0.0
142
1.0
143
1.0
 70
   688
 72
     0
 73
     0
 74
     5
  7

 75
    16
 76
     0
 77
     2
 78
   300
147
1.0
148
0.0
149
0.0
100
AcDbLayout
  1
Layout2
 70
     1
 71
     2
 10
0.0
 20
0.0
 11
0.0
 21
0.0
 12
0.0
 22
0.0
 32
0.0
 14
0.0
 24
0.0
 34
0.0
 15
0.0
 25
0.0
 35
0.0
146
0.0
 13
0.0
 23
0.0
 33
0.0
 16
1.0
 26
0.0
 36
0.0
 17
0.0
 27
1.0
 37
0.0
 76
     0
330
23
  0
LAYOUT
  5
22
102
{ACAD_REACTORS
330
1A
102
}
330
1A
100
AcDbPlotSettings
  1

  2
none_device
  4

  6

 40
0.0
 41
0.0
 42
0.0
 43
0.0
 44
0.0
 45
0.0
 46
0.0
 47
0.0
 48
0.0
 49
0.0
140
0.0
141
0.0
142
1.0
143
1.0
 70
  1712
 72
     0
 73
     0
 74
     0
  7

 75
     0
 76
     0
 77
     2
 78
   300
147
1.0
148
0.0
149
0.0
100
AcDbLayout
  1
Model
 70
     1
 71
     0
 10
0.0
 20
0.0
 11
12.0
 21
9.0
 12
0.0
 22
0.0
 32
0.0
 14
19.7213
 24
-114.9322
 34
0.0
 15
195.9783
 25
131.8985
 35
0.0
146
0.0
 13
0.0
 23
0.0
 33
0.0
 16
1.0
 26
0.0
 36
0.0
 17
0.0
 27
1.0
 37
0.0
 76
     0
330
1F
331
29
  0
MATERIAL
  5
3D
102
{ACAD_REACTORS
330
3B
102
}
330
3B
100
AcDbMaterial
  1
ByBlock
 72
     1
 94
      127
  0
MATERIAL
  5
3C
102
{ACAD_REACTORS
330
3B
102
}
330
3B
100
AcDbMaterial
  1
ByLayer
 72
     1
 94
      127
  0
MATERIAL
  5
3E
102
{ACAD_REACTORS
330
3B
102
}
330
3B
100
AcDbMaterial
  1
Global
 72
     1
 94
      127
  0
MLINESTYLE
  5
18
102
{ACAD_REACTORS
330
17
102
}
330
17
100
AcDbMlineStyle
  2
Standard
 70
     0
  3

 62
   256
 51
90.0
 52
90.0
 71
     2
 49
0.5
 62
   256
  6
BYLAYER
 49
-0.5
 62
   256
  6
BYLAYER
  0
ACDBPLACEHOLDER
  5
F
102
{ACAD_REACTORS
330
E
102
}
330
E
  0
VISUALSTYLE
  5
2F
102
{ACAD_REACTORS
330
2A
102
}
102
{ACAD_XDICTIONARY
360
A8
102
}
330
2A
100
AcDbVisualStyle
  2
2dWireframe
 70
     4
 71
     0
 72
     2
 73
     0
 90
        0
 40
-0.6
 41
-30.0
 62
     5
 63
     7
421
 16777215
 74
     1
 91
        4
 64
     7
 65
   257
 75
     1
175
     1
 42
1.0
 92
        0
 66
   257
 43
1.0
 76
     1
 77
     6
 78
     2
 67
     7
 79
     5
170
     0
171
     0
290
     0
174
     0
 93
        1
 44
0.0
173
     0
291
     0
 45
0.0
  0
VISUALSTYLE
  5
31
102
{ACAD_REACTORS
330
2A
102
}
102
{ACAD_XDICTIONARY
360
AC
102
}
330
2A
100
AcDbVisualStyle
  2
3D Hidden
 70
     6
 71
     1
 72
     2
 73
     2
 90
        0
 40
-0.6
 41
-30.0
 62
     5
 63
     7
421
 16777215
 74
     2
 91
        2
 64
     7
 65
   257
 75
     2
175
     1
 42
40.0
 92
        0
 66
   257
 43
1.0
 76
     1
 77
     6
 78
     2
 67
     7
 79
     3
170
     0
171
     0
290
     0
174
     0
 93
        1
 44
0.0
173
     0
291
     0
 45
0.0
  0
VISUALSTYLE
  5
30
102
{ACAD_REACTORS
330
2A
102
}
102
{ACAD_XDICTIONARY
360
AA
102
}
330
2A
100
AcDbVisualStyle
  2
3dWireframe
 70
     5
 71
     0
 72
     2
 73
     0
 90
        0
 40
-0.6
 41
-30.0
 62
     5
 63
     7
421
 16777215
 74
     1
 91
        4
 64
     7
 65
   257
 75
     1
175
     1
 42
1.0
 92
        0
 66
   257
 43
1.0
 76
     1
 77
     6
 78
     2
 67
     7
 79
     5
170
     0
171
     0
290
     0
174
     0
 93
        1
 44
0.0
173
     0
291
     0
 45
0.0
  0
VISUALSTYLE
  5
32
102
{ACAD_REACTORS
330
2A
102
}
102
{ACAD_XDICTIONARY
360
AE
102
}
330
2A
100
AcDbVisualStyle
  2
Basic
 70
     7
 71
     1
 72
     0
 73
     1
 90
        0
 40
-0.6
 41
-30.0
 62
     5
 63
     7
421
 16777215
 74
     0
 91
        4
 64
     7
 65
   257
 75
     1
175
     1
 42
1.0
 92
        8
 66
     7
 43
1.0
 76
     1
 77
     6
 78
     2
 67
     7
 79
     5
170
     0
171
     0
290
     0
174
     0
 93
        1
 44
0.0
173
     0
291
     1
 45
0.0
  0
VISUALSTYLE
  5
36
102
{ACAD_REACTORS
330
2A
102
}
102
{ACAD_XDICTIONARY
360
B6
102
}
330
2A
100
AcDbVisualStyle
  2
Brighten
 70
    12
 71
     2
 72
     2
 73
     0
 90
        0
 40
-0.6
 41
-30.0
 62
     5
 63
     7
421
 16777215
 74
     1
 91
        4
 64
     7
 65
   257
 75
     1
175
     1
 42
1.0
 92
        8
 66
     7
 43
1.0
 76
     1
 77
     6
 78
     2
 67
     7
 79
     5
170
     0
171
     0
290
     0
174
     0
 93
        1
 44
50.0
173
     0
291
     1
 45
0.0
  0
VISUALSTYLE
  5
3A
102
{ACAD_REACTORS
330
2A
102
}
102
{ACAD_XDICTIONARY
360
BE
102
}
330
2A
100
AcDbVisualStyle
  2
ColorChange
 70
    16
 71
     2
 72
     2
 73
     3
 90
        0
 40
-0.6
 41
-30.0
 62
     5
 63
     8
421
  8421504
 74
     1
 91
        4
 64
     7
 65
   257
 75
     1
175
     1
 42
1.0
 92
        8
 66
     8
424
  8421504
 43
1.0
 76
     1
 77
     6
 78
     2
 67
     7
 79
     5
170
     0
171
     0
290
     0
174
     0
 93
        1
 44
0.0
173
     0
291
     1
 45
0.0
  0
VISUALSTYLE
  5
34
102
{ACAD_REACTORS
330
2A
102
}
102
{ACAD_XDICTIONARY
360
B2
102
}
330
2A
100
AcDbVisualStyle
  2
Conceptual
 70
     9
 71
     3
 72
     2
 73
     0
 90
        0
 40
-0.6
 41
-30.0
 62
     5
 63
     7
421
 16777215
 74
     2
 91
        2
 64
     7
 65
   257
 75
     1
175
     1
 42
40.0
 92
        8
 66
     7
 43
1.0
 76
     1
 77
     6
 78
     2
 67
     7
 79
     3
170
     0
171
     0
290
     0
174
     0
 93
        1
 44
0.0
173
     0
291
     0
 45
0.0
  0
VISUALSTYLE
  5
35
102
{ACAD_REACTORS
330
2A
102
}
102
{ACAD_XDICTIONARY
360
B4
102
}
330
2A
100
AcDbVisualStyle
  2
Dim
 70
    11
 71
     2
 72
     2
 73
     0
 90
        0
 40
-0.6
 41
-30.0
 62
     5
 63
     7
421
 16777215
 74
     1
 91
        4
 64
     7
 65
   257
 75
     1
175
     1
 42
1.0
 92
        8
 66
     7
 43
1.0
 76
     1
 77
     6
 78
     2
 67
     7
 79
     5
170
     0
171
     0
290
     0
174
     0
 93
        1
 44
-50.0
173
     0
291
     1
 45
0.0
  0
VISUALSTYLE
  5
39
102
{ACAD_REACTORS
330
2A
102
}
102
{ACAD_XDICTIONARY
360
BC
102
}
330
2A
100
AcDbVisualStyle
  2
Facepattern
 70
    15
 71
     2
 72
     2
 73
     0
 90
        0
 40
-0.6
 41
-30.0
 62
     5
 63
     7
421
 16777215
 74
     1
 91
        4
 64
     7
 65
   257
 75
     1
175
     1
 42
1.0
 92
        8
 66
     7
 43
1.0
 76
     1
 77
     6
 78
     2
 67
     7
 79
     5
170
     0
171
     0
290
     0
174
     0
 93
        1
 44
0.0
173
     0
291
     1
 45
0.0
  0
VISUALSTYLE
  5
2B
102
{ACAD_REACTORS
330
2A
102
}
102
{ACAD_XDICTIONARY
360
A0
102
}
330
2A
100
AcDbVisualStyle
  2
Flat
 70
     0
 71
     2
 72
     1
 73
     1
 90
        2
 40
-0.6
 41
30.0
 62
     5
 63
     7
421
 16777215
 74
     0
 91
        4
 64
     7
 65
   257
 75
     1
175
     1
 42
1.0
 92
        8
 66
     7
 43
1.0
 76
     1
 77
     6
 78
     2
 67
     7
 79
     5
170
     0
171
     0
290
     0
174
     0
 93
       13
 44
0.0
173
     0
291
     1
 45
0.0
  0
VISUALSTYLE
  5
2C
102
{ACAD_REACTORS
330
2A
102
}
102
{ACAD_XDICTIONARY
360
A2
102
}
330
2A
100
AcDbVisualStyle
  2
FlatWithEdges
 70
     1
 71
     2
 72
     1
 73
     1
 90
        2
 40
-0.6
 41
30.0
 62
     5
 63
     7
421
 16777215
 74
     1
 91
        4
 64
     7
 65
   257
 75
     1
175
     1
 42
1.0
 92
        0
 66
   257
 43
1.0
 76
     1
 77
     6
 78
     2
 67
     7
 79
     5
170
     0
171
     0
290
     0
174
     0
 93
       13
 44
0.0
173
     0
291
     1
 45
0.0
  0
VISUALSTYLE
  5
2D
102
{ACAD_REACTORS
330
2A
102
}
102
{ACAD_XDICTIONARY
360
A4
102
}
330
2A
100
AcDbVisualStyle
  2
Gouraud
 70
     2
 71
     2
 72
     2
 73
     1
 90
        2
 40
-0.6
 41
30.0
 62
     5
 63
     7
421
 16777215
 74
     0
 91
        4
 64
     7
 65
   257
 75
     1
175
     1
 42
1.0
 92
        0
 66
     7
 43
1.0
 76
     1
 77
     6
 78
     2
 67
     7
 79
     5
170
     0
171
     0
290
     0
174
     0
 93
       13
 44
0.0
173
     0
291
     1
 45
0.0
  0
VISUALSTYLE
  5
2E
102
{ACAD_REACTORS
330
2A
102
}
102
{ACAD_XDICTIONARY
360
A6
102
}
330
2A
100
AcDbVisualStyle
  2
GouraudWithEdges
 70
     3
 71
     2
 72
     2
 73
     1
 90
        2
 40
-0.6
 41
30.0
 62
     5
 63
     7
421
 16777215
 74
     1
 91
        4
 64
     7
 65
   257
 75
     1
175
     1
 42
1.0
 92
        0
 66
   257
 43
1.0
 76
     1
 77
     6
 78
     2
 67
     7
 79
     5
170
     0
171
     0
290
     0
174
     0
 93
       13
 44
0.0
173
     0
291
     1
 45
0.0
  0
VISUALSTYLE
  5
38
102
{ACAD_REACTORS
330
2A
102
}
102
{ACAD_XDICTIONARY
360
BA
102
}
330
2A
100
AcDbVisualStyle
  2
Linepattern
 70
    14
 71
     2
 72
     2
 73
     0
 90
        0
 40
-0.6
 41
-30.0
 62
     5
 63
     7
421
 16777215
 74
     1
 91
        4
 64
     7
 65
   257
 75
     7
175
     7
 42
1.0
 92
        8
 66
     7
 43
1.0
 76
     1
 77
     6
 78
     2
 67
     7
 79
     5
170
     0
171
     0
290
     0
174
     0
 93
        1
 44
0.0
173
     0
291
     1
 45
0.0
  0
VISUALSTYLE
  5
33
102
{ACAD_REACTORS
330
2A
102
}
102
{ACAD_XDICTIONARY
360
B0
102
}
330
2A
100
AcDbVisualStyle
  2
Realistic
 70
     8
 71
     2
 72
     2
 73
     0
 90
        0
 40
-0.6
 41
-30.0
 62
     5
 63
     7
421
 16777215
 74
     1
 91
        0
 64
     7
 65
   257
 75
     1
175
     1
 42
1.0
 92
        8
 66
     8
424
  7895160
 43
1.0
 76
     1
 77
     6
 78
     2
 67
     7
 79
     5
170
     0
171
     0
290
     0
174
     0
 93
       13
 44
0.0
173
     0
291
     0
 45
0.0
  0
VISUALSTYLE
  5
37
102
{ACAD_REACTORS
330
2A
102
}
102
{ACAD_XDICTIONARY
360
B8
102
}
330
2A
100
AcDbVisualStyle
  2
Thicken
 70
    13
 71
     2
 72
     2
 73
     0
 90
        0
 40
-0.6
 41
-30.0
 62
     5
 63
     7
421
 16777215
 74
     1
 91
        4
 64
     7
 65
   257
 75
     1
175
     1
 42
1.0
 92
       12
 66
     7
 43
1.0
 76
     1
 77
     6
 78
     2
 67
     7
 79
     5
170
     0
171
     0
290
     0
174
     0
 93
        1
 44
0.0
173
     0
291
     1
 45
0.0
  0
DICTIONARY
  5
A8
330
2F
100
AcDbDictionary
280
     1
281
     1
  3
ACAD_XREC_ROUNDTRIP
360
A9
  0
DICTIONARY
  5
AC
330
31
100
AcDbDictionary
280
     1
281
     1
  3
ACAD_XREC_ROUNDTRIP
360
AD
  0
DICTIONARY
  5
AA
330
30
100
AcDbDictionary
280
     1
281
     1
  3
ACAD_XREC_ROUNDTRIP
360
AB
  0
DICTIONARY
  5
AE
330
32
100
AcDbDictionary
280
     1
281
     1
  3
ACAD_XREC_ROUNDTRIP
360
AF
  0
DICTIONARY
  5
B6
330
36
100
AcDbDictionary
280
     1
281
     1
  3
ACAD_XREC_ROUNDTRIP
360
B7
  0
DICTIONARY
  5
BE
330
3A
100
AcDbDictionary
280
     1
281
     1
  3
ACAD_XREC_ROUNDTRIP
360
BF
  0
DICTIONARY
  5
B2
330
34
100
AcDbDictionary
280
     1
281
     1
  3
ACAD_XREC_ROUNDTRIP
360
B3
  0
DICTIONARY
  5
B4
330
35
100
AcDbDictionary
280
     1
281
     1
  3
ACAD_XREC_ROUNDTRIP
360
B5
  0
DICTIONARY
  5
BC
330
39
100
AcDbDictionary
280
     1
281
     1
  3
ACAD_XREC_ROUNDTRIP
360
BD
  0
DICTIONARY
  5
A0
330
2B
100
AcDbDictionary
280
     1
281
     1
  3
ACAD_XREC_ROUNDTRIP
360
A1
  0
DICTIONARY
  5
A2
330
2C
100
AcDbDictionary
280
     1
281
     1
  3
ACAD_XREC_ROUNDTRIP
360
A3
  0
DICTIONARY
  5
A4
330
2D
100
AcDbDictionary
280
     1
281
     1
  3
ACAD_XREC_ROUNDTRIP
360
A5
  0
DICTIONARY
  5
A6
330
2E
100
AcDbDictionary
280
     1
281
     1
  3
ACAD_XREC_ROUNDTRIP
360
A7
  0
DICTIONARY
  5
BA
330
38
100
AcDbDictionary
280
     1
281
     1
  3
ACAD_XREC_ROUNDTRIP
360
BB
  0
DICTIONARY
  5
B0
330
33
100
AcDbDictionary
280
     1
281
     1
  3
ACAD_XREC_ROUNDTRIP
360
B1
  0
DICTIONARY
  5
B8
330
37
100
AcDbDictionary
280
     1
281
     1
  3
ACAD_XREC_ROUNDTRIP
360
B9
  0
XRECORD
  5
A9
102
{ACAD_REACTORS
330
A8
102
}
330
A8
100
AcDbXrecord
280
     1
102
RTVSPropertyOp0
 70
     1
102
RTVSPropertyOp1
 70
     1
102
RTVSPropertyOp2
 70
     1
102
RTVSPropertyOp3
 70
     1
102
RTVSPropertyOp4
 70
     1
102
RTVSPropertyOp5
 70
     1
102
RTVSPropertyOp6
 70
     1
102
RTVSPropertyOp7
 70
     1
102
RTVSPropertyOp8
 70
     1
102
RTVSPropertyOp9
 70
     1
102
RTVSPropertyOp10
 70
     1
102
RTVSPropertyOp11
 70
     1
102
RTVSPropertyOp12
 70
     1
102
RTVSPropertyOp13
 70
     1
102
RTVSPropertyOp14
 70
     1
102
RTVSPropertyOp15
 70
     1
102
RTVSPropertyOp16
 70
     1
102
RTVSPropertyOp17
 70
     1
102
RTVSPropertyOp18
 70
     1
102
RTVSPropertyOp19
 70
     1
102
RTVSPropertyOp20
 70
     1
102
RTVSPropertyOp21
 70
     1
102
RTVSPropertyOp22
 70
     1
102
RTVSPropertyOp23
 70
     1
102
RTVSPropertyOp24
 70
     1
102
RTVSPropertyOp25
 70
     1
102
RTVSPropertyOp26
 70
     1
102
RTVSPropertyOp27
 70
     1
102
RTVSPropertyOp28
 70
     1
102
RTVSPropertyOp29
 70
     1
102
RTVSPropertyOp30
 70
     1
102
RTVSPropertyOp31
 70
     1
102
RTVSPropertyOp32
 70
     1
  0
XRECORD
  5
AD
102
{ACAD_REACTORS
330
AC
102
}
330
AC
100
AcDbXrecord
280
     1
102
RTVSPropertyOp0
 70
     1
102
RTVSPropertyOp1
 70
     1
102
RTVSPropertyOp2
 70
     1
102
RTVSPropertyOp3
 70
     1
102
RTVSPropertyOp4
 70
     1
102
RTVSPropertyOp5
 70
     1
102
RTVSPropertyOp6
 70
     1
102
RTVSPropertyOp7
 70
     1
102
RTVSPropertyOp8
 70
     1
102
RTVSPropertyOp9
 70
     1
102
RTVSPropertyOp10
 70
     1
102
RTVSPropertyOp11
 70
     1
102
RTVSPropertyOp12
 70
     1
102
RTVSPropertyOp13
 70
     1
102
RTVSPropertyOp14
 70
     1
102
RTVSPropertyOp15
 70
     1
102
RTVSPropertyOp16
 70
     1
102
RTVSPropertyOp17
 70
     1
102
RTVSPropertyOp18
 70
     1
102
RTVSPropertyOp19
 70
     1
102
RTVSPropertyOp20
 70
     1
102
RTVSPropertyOp21
 70
     1
102
RTVSPropertyOp22
 70
     1
102
RTVSPropertyOp23
 70
     1
102
RTVSPropertyOp24
 70
     1
102
RTVSPropertyOp25
 70
     1
102
RTVSPropertyOp26
 70
     1
102
RTVSPropertyOp27
 70
     1
102
RTVSPropertyOp28
 70
     1
102
RTVSPropertyOp29
 70
     1
102
RTVSPropertyOp30
 70
     1
102
RTVSPropertyOp31
 70
     1
102
RTVSPropertyOp32
 70
     1
  0
XRECORD
  5
AB
102
{ACAD_REACTORS
330
AA
102
}
330
AA
100
AcDbXrecord
280
     1
102
RTVSPropertyOp0
 70
     1
102
RTVSPropertyOp1
 70
     1
102
RTVSPropertyOp2
 70
     1
102
RTVSPropertyOp3
 70
     1
102
RTVSPropertyOp4
 70
     1
102
RTVSPropertyOp5
 70
     1
102
RTVSPropertyOp6
 70
     1
102
RTVSPropertyOp7
 70
     1
102
RTVSPropertyOp8
 70
     1
102
RTVSPropertyOp9
 70
     1
102
RTVSPropertyOp10
 70
     1
102
RTVSPropertyOp11
 70
     1
102
RTVSPropertyOp12
 70
     1
102
RTVSPropertyOp13
 70
     1
102
RTVSPropertyOp14
 70
     1
102
RTVSPropertyOp15
 70
     1
102
RTVSPropertyOp16
 70
     1
102
RTVSPropertyOp17
 70
     1
102
RTVSPropertyOp18
 70
     1
102
RTVSPropertyOp19
 70
     1
102
RTVSPropertyOp20
 70
     1
102
RTVSPropertyOp21
 70
     1
102
RTVSPropertyOp22
 70
     1
102
RTVSPropertyOp23
 70
     1
102
RTVSPropertyOp24
 70
     1
102
RTVSPropertyOp25
 70
     1
102
RTVSPropertyOp26
 70
     1
102
RTVSPropertyOp27
 70
     1
102
RTVSPropertyOp28
 70
     1
102
RTVSPropertyOp29
 70
     1
102
RTVSPropertyOp30
 70
     1
102
RTVSPropertyOp31
 70
     1
102
RTVSPropertyOp32
 70
     1
  0
XRECORD
  5
AF
102
{ACAD_REACTORS
330
AE
102
}
330
AE
100
AcDbXrecord
280
     1
102
RTVSPropertyOp0
 70
     1
102
RTVSPropertyOp1
 70
     1
102
RTVSPropertyOp2
 70
     1
102
RTVSPropertyOp3
 70
     1
102
RTVSPropertyOp4
 70
     1
102
RTVSPropertyOp5
 70
     1
102
RTVSPropertyOp6
 70
     1
102
RTVSPropertyOp7
 70
     1
102
RTVSPropertyOp8
 70
     1
102
RTVSPropertyOp9
 70
     1
102
RTVSPropertyOp10
 70
     1
102
RTVSPropertyOp11
 70
     1
102
RTVSPropertyOp12
 70
     1
102
RTVSPropertyOp13
 70
     1
102
RTVSPropertyOp14
 70
     1
102
RTVSPropertyOp15
 70
     1
102
RTVSPropertyOp16
 70
     1
102
RTVSPropertyOp17
 70
     1
102
RTVSPropertyOp18
 70
     1
102
RTVSPropertyOp19
 70
     1
102
RTVSPropertyOp20
 70
     1
102
RTVSPropertyOp21
 70
     1
102
RTVSPropertyOp22
 70
     1
102
RTVSPropertyOp23
 70
     1
102
RTVSPropertyOp24
 70
     1
102
RTVSPropertyOp25
 70
     1
102
RTVSPropertyOp26
 70
     1
102
RTVSPropertyOp27
 70
     1
102
RTVSPropertyOp28
 70
     1
102
RTVSPropertyOp29
 70
     1
102
RTVSPropertyOp30
 70
     1
102
RTVSPropertyOp31
 70
     1
102
RTVSPropertyOp32
 70
     1
  0
XRECORD
  5
B7
102
{ACAD_REACTORS
330
B6
102
}
330
B6
100
AcDbXrecord
280
     1
102
RTVSPropertyOp0
 70
     1
102
RTVSPropertyOp1
 70
     1
102
RTVSPropertyOp2
 70
     1
102
RTVSPropertyOp3
 70
     1
102
RTVSPropertyOp4
 70
     1
102
RTVSPropertyOp5
 70
     1
102
RTVSPropertyOp6
 70
     1
102
RTVSPropertyOp7
 70
     1
102
RTVSPropertyOp8
 70
     1
102
RTVSPropertyOp9
 70
     1
102
RTVSPropertyOp10
 70
     1
102
RTVSPropertyOp11
 70
     1
102
RTVSPropertyOp12
 70
     1
102
RTVSPropertyOp13
 70
     1
102
RTVSPropertyOp14
 70
     1
102
RTVSPropertyOp15
 70
     1
102
RTVSPropertyOp16
 70
     1
102
RTVSPropertyOp17
 70
     1
102
RTVSPropertyOp18
 70
     1
102
RTVSPropertyOp19
 70
     1
102
RTVSPropertyOp20
 70
     1
102
RTVSPropertyOp21
 70
     1
102
RTVSPropertyOp22
 70
     1
102
RTVSPropertyOp23
 70
     1
102
RTVSPropertyOp24
 70
     1
102
RTVSPropertyOp25
 70
     1
102
RTVSPropertyOp26
 70
     1
102
RTVSPropertyOp27
 70
     1
102
RTVSPropertyOp28
 70
     1
102
RTVSPropertyOp29
 70
     1
102
RTVSPropertyOp30
 70
     1
102
RTVSPropertyOp31
 70
     1
102
RTVSPropertyOp32
 70
     1
  0
XRECORD
  5
BF
102
{ACAD_REACTORS
330
BE
102
}
330
BE
100
AcDbXrecord
280
     1
102
RTVSPropertyOp0
 70
     1
102
RTVSPropertyOp1
 70
     1
102
RTVSPropertyOp2
 70
     1
102
RTVSPropertyOp3
 70
     1
102
RTVSPropertyOp4
 70
     1
102
RTVSPropertyOp5
 70
     1
102
RTVSPropertyOp6
 70
     1
102
RTVSPropertyOp7
 70
     1
102
RTVSPropertyOp8
 70
     1
102
RTVSPropertyOp9
 70
     1
102
RTVSPropertyOp10
 70
     1
102
RTVSPropertyOp11
 70
     1
102
RTVSPropertyOp12
 70
     1
102
RTVSPropertyOp13
 70
     1
102
RTVSPropertyOp14
 70
     1
102
RTVSPropertyOp15
 70
     1
102
RTVSPropertyOp16
 70
     1
102
RTVSPropertyOp17
 70
     1
102
RTVSPropertyOp18
 70
     1
102
RTVSPropertyOp19
 70
     1
102
RTVSPropertyOp20
 70
     1
102
RTVSPropertyOp21
 70
     1
102
RTVSPropertyOp22
 70
     1
102
RTVSPropertyOp23
 70
     1
102
RTVSPropertyOp24
 70
     1
102
RTVSPropertyOp25
 70
     1
102
RTVSPropertyOp26
 70
     1
102
RTVSPropertyOp27
 70
     1
102
RTVSPropertyOp28
 70
     1
102
RTVSPropertyOp29
 70
     1
102
RTVSPropertyOp30
 70
     1
102
RTVSPropertyOp31
 70
     1
102
RTVSPropertyOp32
 70
     1
  0
XRECORD
  5
B3
102
{ACAD_REACTORS
330
B2
102
}
330
B2
100
AcDbXrecord
280
     1
102
RTVSPropertyOp0
 70
     1
102
RTVSPropertyOp1
 70
     1
102
RTVSPropertyOp2
 70
     1
102
RTVSPropertyOp3
 70
     1
102
RTVSPropertyOp4
 70
     1
102
RTVSPropertyOp5
 70
     1
102
RTVSPropertyOp6
 70
     1
102
RTVSPropertyOp7
 70
     1
102
RTVSPropertyOp8
 70
     1
102
RTVSPropertyOp9
 70
     1
102
RTVSPropertyOp10
 70
     1
102
RTVSPropertyOp11
 70
     1
102
RTVSPropertyOp12
 70
     1
102
RTVSPropertyOp13
 70
     1
102
RTVSPropertyOp14
 70
     1
102
RTVSPropertyOp15
 70
     1
102
RTVSPropertyOp16
 70
     1
102
RTVSPropertyOp17
 70
     1
102
RTVSPropertyOp18
 70
     1
102
RTVSPropertyOp19
 70
     1
102
RTVSPropertyOp20
 70
     1
102
RTVSPropertyOp21
 70
     1
102
RTVSPropertyOp22
 70
     1
102
RTVSPropertyOp23
 70
     1
102
RTVSPropertyOp24
 70
     1
102
RTVSPropertyOp25
 70
     1
102
RTVSPropertyOp26
 70
     1
102
RTVSPropertyOp27
 70
     1
102
RTVSPropertyOp28
 70
     1
102
RTVSPropertyOp29
 70
     1
102
RTVSPropertyOp30
 70
     1
102
RTVSPropertyOp31
 70
     1
102
RTVSPropertyOp32
 70
     1
  0
XRECORD
  5
B5
102
{ACAD_REACTORS
330
B4
102
}
330
B4
100
AcDbXrecord
280
     1
102
RTVSPropertyOp0
 70
     1
102
RTVSPropertyOp1
 70
     1
102
RTVSPropertyOp2
 70
     1
102
RTVSPropertyOp3
 70
     1
102
RTVSPropertyOp4
 70
     1
102
RTVSPropertyOp5
 70
     1
102
RTVSPropertyOp6
 70
     1
102
RTVSPropertyOp7
 70
     1
102
RTVSPropertyOp8
 70
     1
102
RTVSPropertyOp9
 70
     1
102
RTVSPropertyOp10
 70
     1
102
RTVSPropertyOp11
 70
     1
102
RTVSPropertyOp12
 70
     1
102
RTVSPropertyOp13
 70
     1
102
RTVSPropertyOp14
 70
     1
102
RTVSPropertyOp15
 70
     1
102
RTVSPropertyOp16
 70
     1
102
RTVSPropertyOp17
 70
     1
102
RTVSPropertyOp18
 70
     1
102
RTVSPropertyOp19
 70
     1
102
RTVSPropertyOp20
 70
     1
102
RTVSPropertyOp21
 70
     1
102
RTVSPropertyOp22
 70
     1
102
RTVSPropertyOp23
 70
     1
102
RTVSPropertyOp24
 70
     1
102
RTVSPropertyOp25
 70
     1
102
RTVSPropertyOp26
 70
     1
102
RTVSPropertyOp27
 70
     1
102
RTVSPropertyOp28
 70
     1
102
RTVSPropertyOp29
 70
     1
102
RTVSPropertyOp30
 70
     1
102
RTVSPropertyOp31
 70
     1
102
RTVSPropertyOp32
 70
     1
  0
XRECORD
  5
BD
102
{ACAD_REACTORS
330
BC
102
}
330
BC
100
AcDbXrecord
280
     1
102
RTVSPropertyOp0
 70
     1
102
RTVSPropertyOp1
 70
     1
102
RTVSPropertyOp2
 70
     1
102
RTVSPropertyOp3
 70
     1
102
RTVSPropertyOp4
 70
     1
102
RTVSPropertyOp5
 70
     1
102
RTVSPropertyOp6
 70
     1
102
RTVSPropertyOp7
 70
     1
102
RTVSPropertyOp8
 70
     1
102
RTVSPropertyOp9
 70
     1
102
RTVSPropertyOp10
 70
     1
102
RTVSPropertyOp11
 70
     1
102
RTVSPropertyOp12
 70
     1
102
RTVSPropertyOp13
 70
     1
102
RTVSPropertyOp14
 70
     1
102
RTVSPropertyOp15
 70
     1
102
RTVSPropertyOp16
 70
     1
102
RTVSPropertyOp17
 70
     1
102
RTVSPropertyOp18
 70
     1
102
RTVSPropertyOp19
 70
     1
102
RTVSPropertyOp20
 70
     1
102
RTVSPropertyOp21
 70
     1
102
RTVSPropertyOp22
 70
     1
102
RTVSPropertyOp23
 70
     1
102
RTVSPropertyOp24
 70
     1
102
RTVSPropertyOp25
 70
     1
102
RTVSPropertyOp26
 70
     1
102
RTVSPropertyOp27
 70
     1
102
RTVSPropertyOp28
 70
     1
102
RTVSPropertyOp29
 70
     1
102
RTVSPropertyOp30
 70
     1
102
RTVSPropertyOp31
 70
     1
102
RTVSPropertyOp32
 70
     1
  0
XRECORD
  5
A1
102
{ACAD_REACTORS
330
A0
102
}
330
A0
100
AcDbXrecord
280
     1
102
RTVSPropertyOp0
 70
     1
102
RTVSPropertyOp1
 70
     1
102
RTVSPropertyOp2
 70
     1
102
RTVSPropertyOp3
 70
     1
102
RTVSPropertyOp4
 70
     1
102
RTVSPropertyOp5
 70
     1
102
RTVSPropertyOp6
 70
     1
102
RTVSPropertyOp7
 70
     1
102
RTVSPropertyOp8
 70
     1
102
RTVSPropertyOp9
 70
     1
102
RTVSPropertyOp10
 70
     1
102
RTVSPropertyOp11
 70
     1
102
RTVSPropertyOp12
 70
     1
102
RTVSPropertyOp13
 70
     1
102
RTVSPropertyOp14
 70
     1
102
RTVSPropertyOp15
 70
     1
102
RTVSPropertyOp16
 70
     1
102
RTVSPropertyOp17
 70
     1
102
RTVSPropertyOp18
 70
     1
102
RTVSPropertyOp19
 70
     1
102
RTVSPropertyOp20
 70
     1
102
RTVSPropertyOp21
 70
     1
102
RTVSPropertyOp22
 70
     1
102
RTVSPropertyOp23
 70
     1
102
RTVSPropertyOp24
 70
     1
102
RTVSPropertyOp25
 70
     1
102
RTVSPropertyOp26
 70
     1
102
RTVSPropertyOp27
 70
     1
102
RTVSPropertyOp28
 70
     1
102
RTVSPropertyOp29
 70
     1
102
RTVSPropertyOp30
 70
     1
102
RTVSPropertyOp31
 70
     1
102
RTVSPropertyOp32
 70
     1
  0
XRECORD
  5
A3
102
{ACAD_REACTORS
330
A2
102
}
330
A2
100
AcDbXrecord
280
     1
102
RTVSPropertyOp0
 70
     1
102
RTVSPropertyOp1
 70
     1
102
RTVSPropertyOp2
 70
     1
102
RTVSPropertyOp3
 70
     1
102
RTVSPropertyOp4
 70
     1
102
RTVSPropertyOp5
 70
     1
102
RTVSPropertyOp6
 70
     1
102
RTVSPropertyOp7
 70
     1
102
RTVSPropertyOp8
 70
     1
102
RTVSPropertyOp9
 70
     1
102
RTVSPropertyOp10
 70
     1
102
RTVSPropertyOp11
 70
     1
102
RTVSPropertyOp12
 70
     1
102
RTVSPropertyOp13
 70
     1
102
RTVSPropertyOp14
 70
     1
102
RTVSPropertyOp15
 70
     1
102
RTVSPropertyOp16
 70
     1
102
RTVSPropertyOp17
 70
     1
102
RTVSPropertyOp18
 70
     1
102
RTVSPropertyOp19
 70
     1
102
RTVSPropertyOp20
 70
     1
102
RTVSPropertyOp21
 70
     1
102
RTVSPropertyOp22
 70
     1
102
RTVSPropertyOp23
 70
     1
102
RTVSPropertyOp24
 70
     1
102
RTVSPropertyOp25
 70
     1
102
RTVSPropertyOp26
 70
     1
102
RTVSPropertyOp27
 70
     1
102
RTVSPropertyOp28
 70
     1
102
RTVSPropertyOp29
 70
     1
102
RTVSPropertyOp30
 70
     1
102
RTVSPropertyOp31
 70
     1
102
RTVSPropertyOp32
 70
     1
  0
XRECORD
  5
A5
102
{ACAD_REACTORS
330
A4
102
}
330
A4
100
AcDbXrecord
280
     1
102
RTVSPropertyOp0
 70
     1
102
RTVSPropertyOp1
 70
     1
102
RTVSPropertyOp2
 70
     1
102
RTVSPropertyOp3
 70
     1
102
RTVSPropertyOp4
 70
     1
102
RTVSPropertyOp5
 70
     1
102
RTVSPropertyOp6
 70
     1
102
RTVSPropertyOp7
 70
     1
102
RTVSPropertyOp8
 70
     1
102
RTVSPropertyOp9
 70
     1
102
RTVSPropertyOp10
 70
     1
102
RTVSPropertyOp11
 70
     1
102
RTVSPropertyOp12
 70
     1
102
RTVSPropertyOp13
 70
     1
102
RTVSPropertyOp14
 70
     1
102
RTVSPropertyOp15
 70
     1
102
RTVSPropertyOp16
 70
     1
102
RTVSPropertyOp17
 70
     1
102
RTVSPropertyOp18
 70
     1
102
RTVSPropertyOp19
 70
     1
102
RTVSPropertyOp20
 70
     1
102
RTVSPropertyOp21
 70
     1
102
RTVSPropertyOp22
 70
     1
102
RTVSPropertyOp23
 70
     1
102
RTVSPropertyOp24
 70
     1
102
RTVSPropertyOp25
 70
     1
102
RTVSPropertyOp26
 70
     1
102
RTVSPropertyOp27
 70
     1
102
RTVSPropertyOp28
 70
     1
102
RTVSPropertyOp29
 70
     1
102
RTVSPropertyOp30
 70
     1
102
RTVSPropertyOp31
 70
     1
102
RTVSPropertyOp32
 70
     1
  0
XRECORD
  5
A7
102
{ACAD_REACTORS
330
A6
102
}
330
A6
100
AcDbXrecord
280
     1
102
RTVSPropertyOp0
 70
     1
102
RTVSPropertyOp1
 70
     1
102
RTVSPropertyOp2
 70
     1
102
RTVSPropertyOp3
 70
     1
102
RTVSPropertyOp4
 70
     1
102
RTVSPropertyOp5
 70
     1
102
RTVSPropertyOp6
 70
     1
102
RTVSPropertyOp7
 70
     1
102
RTVSPropertyOp8
 70
     1
102
RTVSPropertyOp9
 70
     1
102
RTVSPropertyOp10
 70
     1
102
RTVSPropertyOp11
 70
     1
102
RTVSPropertyOp12
 70
     1
102
RTVSPropertyOp13
 70
     1
102
RTVSPropertyOp14
 70
     1
102
RTVSPropertyOp15
 70
     1
102
RTVSPropertyOp16
 70
     1
102
RTVSPropertyOp17
 70
     1
102
RTVSPropertyOp18
 70
     1
102
RTVSPropertyOp19
 70
     1
102
RTVSPropertyOp20
 70
     1
102
RTVSPropertyOp21
 70
     1
102
RTVSPropertyOp22
 70
     1
102
RTVSPropertyOp23
 70
     1
102
RTVSPropertyOp24
 70
     1
102
RTVSPropertyOp25
 70
     1
102
RTVSPropertyOp26
 70
     1
102
RTVSPropertyOp27
 70
     1
102
RTVSPropertyOp28
 70
     1
102
RTVSPropertyOp29
 70
     1
102
RTVSPropertyOp30
 70
     1
102
RTVSPropertyOp31
 70
     1
102
RTVSPropertyOp32
 70
     1
  0
XRECORD
  5
BB
102
{ACAD_REACTORS
330
BA
102
}
330
BA
100
AcDbXrecord
280
     1
102
RTVSPropertyOp0
 70
     1
102
RTVSPropertyOp1
 70
     1
102
RTVSPropertyOp2
 70
     1
102
RTVSPropertyOp3
 70
     1
102
RTVSPropertyOp4
 70
     1
102
RTVSPropertyOp5
 70
     1
102
RTVSPropertyOp6
 70
     1
102
RTVSPropertyOp7
 70
     1
102
RTVSPropertyOp8
 70
     1
102
RTVSPropertyOp9
 70
     1
102
RTVSPropertyOp10
 70
     1
102
RTVSPropertyOp11
 70
     1
102
RTVSPropertyOp12
 70
     1
102
RTVSPropertyOp13
 70
     1
102
RTVSPropertyOp14
 70
     1
102
RTVSPropertyOp15
 70
     1
102
RTVSPropertyOp16
 70
     1
102
RTVSPropertyOp17
 70
     1
102
RTVSPropertyOp18
 70
     1
102
RTVSPropertyOp19
 70
     1
102
RTVSPropertyOp20
 70
     1
102
RTVSPropertyOp21
 70
     1
102
RTVSPropertyOp22
 70
     1
102
RTVSPropertyOp23
 70
     1
102
RTVSPropertyOp24
 70
     1
102
RTVSPropertyOp25
 70
     1
102
RTVSPropertyOp26
 70
     1
102
RTVSPropertyOp27
 70
     1
102
RTVSPropertyOp28
 70
     1
102
RTVSPropertyOp29
 70
     1
102
RTVSPropertyOp30
 70
     1
102
RTVSPropertyOp31
 70
     1
102
RTVSPropertyOp32
 70
     1
  0
XRECORD
  5
B1
102
{ACAD_REACTORS
330
B0
102
}
330
B0
100
AcDbXrecord
280
     1
102
RTVSPropertyOp0
 70
     1
102
RTVSPropertyOp1
 70
     1
102
RTVSPropertyOp2
 70
     1
102
RTVSPropertyOp3
 70
     1
102
RTVSPropertyOp4
 70
     1
102
RTVSPropertyOp5
 70
     1
102
RTVSPropertyOp6
 70
     1
102
RTVSPropertyOp7
 70
     1
102
RTVSPropertyOp8
 70
     1
102
RTVSPropertyOp9
 70
     1
102
RTVSPropertyOp10
 70
     1
102
RTVSPropertyOp11
 70
     1
102
RTVSPropertyOp12
 70
     1
102
RTVSPropertyOp13
 70
     1
102
RTVSPropertyOp14
 70
     1
102
RTVSPropertyOp15
 70
     1
102
RTVSPropertyOp16
 70
     1
102
RTVSPropertyOp17
 70
     1
102
RTVSPropertyOp18
 70
     1
102
RTVSPropertyOp19
 70
     1
102
RTVSPropertyOp20
 70
     1
102
RTVSPropertyOp21
 70
     1
102
RTVSPropertyOp22
 70
     1
102
RTVSPropertyOp23
 70
     1
102
RTVSPropertyOp24
 70
     1
102
RTVSPropertyOp25
 70
     1
102
RTVSPropertyOp26
 70
     1
102
RTVSPropertyOp27
 70
     1
102
RTVSPropertyOp28
 70
     1
102
RTVSPropertyOp29
 70
     1
102
RTVSPropertyOp30
 70
     1
102
RTVSPropertyOp31
 70
     1
102
RTVSPropertyOp32
 70
     1
  0
XRECORD
  5
B9
102
{ACAD_REACTORS
330
B8
102
}
330
B8
100
AcDbXrecord
280
     1
102
RTVSPropertyOp0
 70
     1
102
RTVSPropertyOp1
 70
     1
102
RTVSPropertyOp2
 70
     1
102
RTVSPropertyOp3
 70
     1
102
RTVSPropertyOp4
 70
     1
102
RTVSPropertyOp5
 70
     1
102
RTVSPropertyOp6
 70
     1
102
RTVSPropertyOp7
 70
     1
102
RTVSPropertyOp8
 70
     1
102
RTVSPropertyOp9
 70
     1
102
RTVSPropertyOp10
 70
     1
102
RTVSPropertyOp11
 70
     1
102
RTVSPropertyOp12
 70
     1
102
RTVSPropertyOp13
 70
     1
102
RTVSPropertyOp14
 70
     1
102
RTVSPropertyOp15
 70
     1
102
RTVSPropertyOp16
 70
     1
102
RTVSPropertyOp17
 70
     1
102
RTVSPropertyOp18
 70
     1
102
RTVSPropertyOp19
 70
     1
102
RTVSPropertyOp20
 70
     1
102
RTVSPropertyOp21
 70
     1
102
RTVSPropertyOp22
 70
     1
102
RTVSPropertyOp23
 70
     1
102
RTVSPropertyOp24
 70
     1
102
RTVSPropertyOp25
 70
     1
102
RTVSPropertyOp26
 70
     1
102
RTVSPropertyOp27
 70
     1
102
RTVSPropertyOp28
 70
     1
102
RTVSPropertyOp29
 70
     1
102
RTVSPropertyOp30
 70
     1
102
RTVSPropertyOp31
 70
     1
102
RTVSPropertyOp32
 70
     1
  0
ENDSEC
  0
EOF
