  0
SECTION
  2
HEADER
  9
$ACADVER
  1
AC1021
  9
$ACADMAINTVER
 70
    25
  9
$DWGCODEPAGE
  3
ANSI_1252
  9
$INSBASE
 10
0.0
 20
0.0
 30
0.0
  9
$EXTMIN
 10
39.239
 20
-100.289
 30
0.0
  9
$EXTMAX
 10
196.2913
 20
130.328
 30
0.0
  9
$LIMMIN
 10
0.0
 20
0.0
  9
$LIMMAX
 10
12.0
 20
9.0
  9
$ORTHOMODE
 70
     0
  9
$REGENMODE
 70
     1
  9
$FILLMODE
 70
     1
  9
$QTEXTMODE
 70
     0
  9
$MIRRTEXT
 70
     1
  9
$LTSCALE
 40
1.0
  9
$ATTMODE
 70
     1
  9
$TEXTSIZE
 40
0.2
  9
$TRACEWID
 40
0.05
  9
$TEXTSTYLE
  7
Standard
  9
$CLAYER
  8
0
  9
$CELTYPE
  6
ByLayer
  9
$CECOLOR
 62
   256
  9
$CELTSCALE
 40
1.0
  9
$DISPSILH
 70
     0
  9
$DIMSCALE
 40
1.0
  9
$DIMASZ
 40
0.18
  9
$DIMEXO
 40
0.0625
  9
$DIMDLI
 40
0.38
  9
$DIMRND
 40
0.0
  9
$DIMDLE
 40
0.0
  9
$DIMEXE
 40
0.18
  9
$DIMTP
 40
0.0
  9
$DIMTM
 40
0.0
  9
$DIMTXT
 40
0.18
  9
$DIMCEN
 40
0.09
  9
$DIMTSZ
 40
0.0
  9
$DIMTOL
 70
     0
  9
$DIMLIM
 70
     0
  9
$DIMTIH
 70
     1
  9
$DIMTOH
 70
     1
  9
$DIMSE1
 70
     0
  9
$DIMSE2
 70
     0
  9
$DIMTAD
 70
     0
  9
$DIMZIN
 70
     0
  9
$DIMBLK
  1

  9
$DIMASO
 70
     1
  9
$DIMSHO
 70
     1
  9
$DIMPOST
  1

  9
$DIMAPOST
  1

  9
$DIMALT
 70
     0
  9
$DIMALTD
 70
     2
  9
$DIMALTF
 40
25.4
  9
$DIMLFAC
 40
1.0
  9
$DIMTOFL
 70
     0
  9
$DIMTVP
 40
0.0
  9
$DIMTIX
 70
     0
  9
$DIMSOXD
 70
     0
  9
$DIMSAH
 70
     0
  9
$DIMBLK1
  1

  9
$DIMBLK2
  1

  9
$DIMSTYLE
  2
Standard
  9
$DIMCLRD
 70
     0
  9
$DIMCLRE
 70
     0
  9
$DIMCLRT
 70
     0
  9
$DIMTFAC
 40
1.0
  9
$DIMGAP
 40
0.09
  9
$DIMJUST
 70
     0
  9
$DIMSD1
 70
     0
  9
$DIMSD2
 70
     0
  9
$DIMTOLJ
 70
     1
  9
$DIMTZIN
 70
     0
  9
$DIMALTZ
 70
     0
  9
$DIMALTTZ
 70
     0
  9
$DIMUPT
 70
     0
  9
$DIMDEC
 70
     4
  9
$DIMTDEC
 70
     4
  9
$DIMALTU
 70
     2
  9
$DIMALTTD
 70
     2
  9
$DIMTXSTY
  7
Standard
  9
$DIMAUNIT
 70
     0
  9
$DIMADEC
 70
     0
  9
$DIMALTRND
 40
0.0
  9
$DIMAZIN
 70
     0
  9
$DIMDSEP
 70
    46
  9
$DIMATFIT
 70
     3
  9
$DIMFRAC
 70
     0
  9
$DIMLDRBLK
  1

  9
$DIMLUNIT
 70
     2
  9
$DIMLWD
 70
    -2
  9
$DIMLWE
 70
    -2
  9
$DIMTMOVE
 70
     0
  9
$DIMFXL
 40
1.0
  9
$DIMFXLON
 70
     0
  9
$DIMJOGANG
 40
0.7853981633974483
  9
$DIMTFILL
 70
     0
  9
$DIMTFILLCLR
 70
     0
  9
$DIMARCSYM
 70
     0
  9
$DIMLTYPE
  6

  9
$DIMLTEX1
  6

  9
$DIMLTEX2
  6

  9
$LUNITS
 70
     2
  9
$LUPREC
 70
     4
  9
$SKETCHINC
 40
0.1
  9
$FILLETRAD
 40
0.5
  9
$AUNITS
 70
     0
  9
$AUPREC
 70
     0
  9
$MENU
  1
.
  9
$ELEVATION
 40
0.0
  9
$PELEVATION
 40
0.0
  9
$THICKNESS
 40
0.0
  9
$LIMCHECK
 70
     0
  9
$CHAMFERA
 40
0.5
  9
$CHAMFERB
 40
0.5
  9
$CHAMFERC
 40
1.0
  9
$CHAMFERD
 40
0.0
  9
$SKPOLY
 70
     0
  9
$TDCREATE
 40
2458492.732396285
  9
$TDUCREATE
 40
2458492.732396285
  9
$TDUPDATE
 40
2458492.732396528
  9
$TDUUPDATE
 40
2458492.732396528
  9
$TDINDWG
 40
0.0000000116
  9
$TDUSRTIMER
 40
0.0000000116
  9
$USRTIMER
 70
     1
  9
$ANGBASE
 50
0.0
  9
$ANGDIR
 70
     0
  9
$PDMODE
 70
     0
  9
$PDSIZE
 40
0.0
  9
$PLINEWID
 40
0.0
  9
$SPLFRAME
 70
     0
  9
$SPLINETYPE
 70
     6
  9
$SPLINESEGS
 70
     8
  9
$HANDSEED
  5
89
  9
$SURFTAB1
 70
     6
  9
$SURFTAB2
 70
     6
  9
$SURFTYPE
 70
     6
  9
$SURFU
 70
     6
  9
$SURFV
 70
     6
  9
$UCSBASE
  2

  9
$UCSNAME
  2

  9
$UCSORG
 10
0.0
 20
0.0
 30
0.0
  9
$UCSXDIR
 10
1.0
 20
0.0
 30
0.0
  9
$UCSYDIR
 10
0.0
 20
1.0
 30
0.0
  9
$UCSORTHOREF
  2

  9
$UCSORTHOVIEW
 70
     0
  9
$UCSORGTOP
 10
0.0
 20
0.0
 30
0.0
  9
$UCSORGBOTTOM
 10
0.0
 20
0.0
 30
0.0
  9
$UCSORGLEFT
 10
0.0
 20
0.0
 30
0.0
  9
$UCSORGRIGHT
 10
0.0
 20
0.0
 30
0.0
  9
$UCSORGFRONT
 10
0.0
 20
0.0
 30
0.0
  9
$UCSORGBACK
 10
0.0
 20
0.0
 30
0.0
  9
$PUCSBASE
  2

  9
$PUCSNAME
  2

  9
$PUCSORG
 10
0.0
 20
0.0
 30
0.0
  9
$PUCSXDIR
 10
1.0
 20
0.0
 30
0.0
  9
$PUCSYDIR
 10
0.0
 20
1.0
 30
0.0
  9
$PUCSORTHOREF
  2

  9
$PUCSORTHOVIEW
 70
     0
  9
$PUCSORGTOP
 10
0.0
 20
0.0
 30
0.0
  9
$PUCSORGBOTTOM
 10
0.0
 20
0.0
 30
0.0
  9
$PUCSORGLEFT
 10
0.0
 20
0.0
 30
0.0
  9
$PUCSORGRIGHT
 10
0.0
 20
0.0
 30
0.0
  9
$PUCSORGFRONT
 10
0.0
 20
0.0
 30
0.0
  9
$PUCSORGBACK
 10
0.0
 20
0.0
 30
0.0
  9
$USERI1
 70
     0
  9
$USERI2
 70
     0
  9
$USERI3
 70
     0
  9
$USERI4
 70
     0
  9
$USERI5
 70
     0
  9
$USERR1
 40
0.0
  9
$USERR2
 40
0.0
  9
$USERR3
 40
0.0
  9
$USERR4
 40
0.0
  9
$USERR5
 40
0.0
  9
$WORLDVIEW
 70
     1
  9
$SHADEDGE
 70
     3
  9
$SHADEDIF
 70
    70
  9
$TILEMODE
 70
     1
  9
$MAXACTVP
 70
    64
  9
$PINSBASE
 10
0.0
 20
0.0
 30
0.0
  9
$PLIMCHECK
 70
     0
  9
$PEXTMIN
 10
1.000000000000000E+20
 20
1.000000000000000E+20
 30
1.000000000000000E+20
  9
$PEXTMAX
 10
-1.000000000000000E+20
 20
-1.000000000000000E+20
 30
-1.000000000000000E+20
  9
$PLIMMIN
 10
0.0
 20
0.0
  9
$PLIMMAX
 10
12.0
 20
9.0
  9
$UNITMODE
 70
     0
  9
$VISRETAIN
 70
     1
  9
$PLINEGEN
 70
     0
  9
$PSLTSCALE
 70
     1
  9
$TREEDEPTH
 70
  3020
  9
$CMLSTYLE
  2
Standard
  9
$CMLJUST
 70
     0
  9
$CMLSCALE
 40
1.0
  9
$PROXYGRAPHICS
 70
     1
  9
$MEASUREMENT
 70
     0
  9
$CELWEIGHT
370
    -1
  9
$ENDCAPS
280
     0
  9
$JOINSTYLE
280
     0
  9
$LWDISPLAY
290
     0
  9
$INSUNITS
 70
     4
  9
$HYPERLINKBASE
  1

  9
$STYLESHEET
  1

  9
$XEDIT
290
     1
  9
$CEPSNTYPE
380
     0
  9
$PSTYLEMODE
290
     1
  9
$FINGERPRINTGUID
  2
{99BCEF74-D562-4B13-A2FF-E2168656BCD1}
  9
$VERSIONGUID
  2
{FAEB1C32-E019-11D5-929B-00C0DF256EC4}
  9
$EXTNAMES
290
     1
  9
$PSVPSCALE
 40
0.0
  9
$OLESTARTUP
290
     0
  9
$SORTENTS
280
   127
  9
$INDEXCTL
280
     0
  9
$HIDETEXT
280
     1
  9
$XCLIPFRAME
290
     0
  9
$HALOGAP
280
     0
  9
$OBSCOLOR
 70
   257
  9
$OBSLTYPE
280
     0
  9
$INTERSECTIONDISPLAY
280
     0
  9
$INTERSECTIONCOLOR
 70
   257
  9
$DIMASSOC
280
     2
  9
$PROJECTNAME
  1

  9
$CAMERADISPLAY
290
     0
  9
$LENSLENGTH
 40
50.0
  9
$CAMERAHEIGHT
 40
0.0
  9
$STEPSPERSEC
 40
2.0
  9
$STEPSIZE
 40
6.0
  9
$3DDWFPREC
 40
2.0
  9
$PSOLWIDTH
 40
0.25
  9
$PSOLHEIGHT
 40
4.0
  9
$LOFTANG1
 40
1.570796326794897
  9
$LOFTANG2
 40
1.570796326794897
  9
$LOFTMAG1
 40
0.0
  9
$LOFTMAG2
 40
0.0
  9
$LOFTPARAM
 70
     7
  9
$LOFTNORMALS
280
     1
  9
$LATITUDE
 40
37.795
  9
$LONGITUDE
 40
-122.394
  9
$NORTHDIRECTION
 40
0.0
  9
$TIMEZONE
 70
 -8000
  9
$LIGHTGLYPHDISPLAY
280
     1
  9
$TILEMODELIGHTSYNCH
280
     1
  9
$SOLIDHIST
280
     1
  9
$SHOWHIST
280
     1
  9
$DWFFRAME
280
     2
  9
$DGNFRAME
280
     2
  9
$REALWORLDSCALE
290
     1
  9
$INTERFERECOLOR
 62
   256
  9
$CSHADOW
280
     0
  9
$SHADOWPLANELOCATION
 40
0.0
  0
ENDSEC
  0
SECTION
  2
CLASSES
  0
CLASS
  1
ACDBDICTIONARYWDFLT
  2
AcDbDictionaryWithDefault
  3
ObjectDBX Classes
 90
        0
 91
        4
280
     0
281
     0
  0
CLASS
  1
VISUALSTYLE
  2
AcDbVisualStyle
  3
ObjectDBX Classes
 90
     4095
 91
        4
280
     0
281
     0
  0
CLASS
  1
MATERIAL
  2
AcDbMaterial
  3
ObjectDBX Classes
 90
     1153
 91
        4
280
     0
281
     0
  0
ENDSEC
  0
SECTION
  2
TABLES
  0
TABLE
  2
VPORT
  5
8
330
0
100
AcDbSymbolTable
 70
     1
  0
VPORT
  5
29
330
8
100
AcDbSymbolTableRecord
100
AcDbViewportTableRecord
  2
*Active
 70
     0
 10
0.0
 20
0.0
 11
1.0
 21
1.0
 12
10.42990654205607
 22
4.5
 13
0.0
 23
0.0
 14
0.5
 24
0.5
 15
0.5
 25
0.5
 16
0.0
 26
0.0
 36
1.0
 17
0.0
 27
0.0
 37
0.0
 40
9.0
 41
1.972972972850329
 42
50.0
 43
0.0
 44
0.0
 50
0.0
 51
0.0
 71
     0
 72
   100
 73
     1
 74
     3
 75
     0
 76
     0
 77
     0
 78
     0
281
     0
 65
     1
110
0.0
120
0.0
130
0.0
111
1.0
121
0.0
131
0.0
112
0.0
122
1.0
132
0.0
 79
     0
146
0.0
 60
     3
 61
     5
292
     1
282
     1
141
0.0
142
0.0
 63
   250
  0
ENDTAB
  0
TABLE
  2
LTYPE
  5
5
330
0
100
AcDbSymbolTable
 70
     1
  0
LTYPE
  5
14
330
5
100
AcDbSymbolTableRecord
100
AcDbLinetypeTableRecord
  2
ByBlock
 70
     0
  3

 72
    65
 73
     0
 40
0.0
  0
LTYPE
  5
15
330
5
100
AcDbSymbolTableRecord
100
AcDbLinetypeTableRecord
  2
ByLayer
 70
     0
  3

 72
    65
 73
     0
 40
0.0
  0
LTYPE
  5
16
330
5
100
AcDbSymbolTableRecord
100
AcDbLinetypeTableRecord
  2
Continuous
 70
     0
  3
Solid line
 72
    65
 73
     0
 40
0.0
  0
ENDTAB
  0
TABLE
  2
LAYER
  5
2
330
0
100
AcDbSymbolTable
 70
     2
  0
LAYER
  5
10
330
2
100
AcDbSymbolTableRecord
100
AcDbLayerTableRecord
  2
0
 70
     0
 62
     7
  6
Continuous
370
    -3
390
F
347
3E
  0
LAYER
  5
40
330
2
100
AcDbSymbolTableRecord
100
AcDbLayerTableRecord
  2
layer 1
 70
     0
 62
     7
  6
Continuous
370
    -3
390
F
347
3E
  0
ENDTAB
  0
TABLE
  2
STYLE
  5
3
330
0
100
AcDbSymbolTable
 70
     1
  0
STYLE
  5
11
330
3
100
AcDbSymbolTableRecord
100
AcDbTextStyleTableRecord
  2
Standard
 70
     0
 40
0.0
 41
1.0
 50
0.0
 71
     0
 42
0.2
  3
txt
  4

  0
ENDTAB
  0
TABLE
  2
VIEW
  5
6
330
0
100
AcDbSymbolTable
 70
     0
  0
ENDTAB
  0
TABLE
  2
UCS
  5
7
330
0
100
AcDbSymbolTable
 70
     0
  0
ENDTAB
  0
TABLE
  2
APPID
  5
9
330
0
100
AcDbSymbolTable
 70
     2
  0
APPID
  5
12
330
9
100
AcDbSymbolTableRecord
100
AcDbRegAppTableRecord
  2
ACAD
 70
     0
  0
APPID
  5
3F
330
9
100
AcDbSymbolTableRecord
100
AcDbRegAppTableRecord
  2
ODA
 70
     0
  0
ENDTAB
  0
TABLE
  2
DIMSTYLE
  5
A
330
0
100
AcDbSymbolTable
 70
     1
100
AcDbDimStyleTable
  0
DIMSTYLE
105
27
330
A
100
AcDbSymbolTableRecord
100
AcDbDimStyleTableRecord
  2
Standard
 70
     0
178
     0
340
11
  0
ENDTAB
  0
TABLE
  2
BLOCK_RECORD
  5
1
330
0
100
AcDbSymbolTable
 70
     1
  0
BLOCK_RECORD
  5
1F
330
1
100
AcDbSymbolTableRecord
100
AcDbBlockTableRecord
  2
*Model_Space
340
22
 70
     0
280
     1
281
     0
  0
BLOCK_RECORD
  5
1B
330
1
100
AcDbSymbolTableRecord
100
AcDbBlockTableRecord
  2
*Paper_Space
340
1E
 70
     0
280
     1
281
     0
  0
BLOCK_RECORD
  5
23
330
1
100
AcDbSymbolTableRecord
100
AcDbBlockTableRecord
  2
*Paper_Space0
340
26
 70
     0
280
     1
281
     0
  0
ENDTAB
  0
ENDSEC
  0
SECTION
  2
BLOCKS
  0
BLOCK
  5
20
330
1F
100
AcDbEntity
  8
0
100
AcDbBlockBegin
  2
*Model_Space
 70
     0
 10
0.0
 20
0.0
 30
0.0
  3
*Model_Space
  1

  0
ENDBLK
  5
21
330
1F
100
AcDbEntity
  8
0
100
AcDbBlockEnd
  0
BLOCK
  5
1C
330
1B
100
AcDbEntity
 67
     1
  8
0
100
AcDbBlockBegin
  2
*Paper_Space
 70
     0
 10
0.0
 20
0.0
 30
0.0
  3
*Paper_Space
  1

  0
ENDBLK
  5
1D
330
1B
100
AcDbEntity
 67
     1
  8
0
100
AcDbBlockEnd
  0
BLOCK
  5
24
330
23
100
AcDbEntity
  8
0
100
AcDbBlockBegin
  2
*Paper_Space0
 70
     0
 10
0.0
 20
0.0
 30
0.0
  3
*Paper_Space0
  1

  0
ENDBLK
  5
25
330
23
100
AcDbEntity
  8
0
100
AcDbBlockEnd
  0
ENDSEC
  0
SECTION
  2
ENTITIES
  0
SPLINE
  5
41
330
1F
100
AcDbEntity
  8
layer 1
100
AcDbSpline
210
0.0
220
0.0
230
1.0
 70
    11
 71
     3
 72
    20
 73
    16
 74
     0
 42
0.0000000001
 43
0.0000000001
 12
1.0
 22
0.0
 32
0.0
 13
1.0
 23
0.0
 33
0.0
 40
0.0
 40
0.0
 40
0.0
 40
0.0
 40
0.2
 40
0.2
 40
0.2
 40
0.2
 40
0.4
 40
0.4
 40
0.4
 40
0.4
 40
0.6
 40
0.6
 40
0.6
 40
0.6
 40
1.0
 40
1.0
 40
1.0
 40
1.0
 10
39.239
 20
130.328
 30
0.0
 10
39.239
 20
130.328
 30
0.0
 10
196.2913
 20
130.328
 30
0.0
 10
196.2913
 20
130.328
 30
0.0
 10
196.2913
 20
130.328
 30
0.0
 10
196.2913
 20
130.328
 30
0.0
 10
196.2913
 20
-100.289
 30
0.0
 10
196.2913
 20
-100.289
 30
0.0
 10
196.2913
 20
-100.289
 30
0.0
 10
196.2913
 20
-100.289
 30
0.0
 10
39.239
 20
-100.289
 30
0.0
 10
39.239
 20
-100.289
 30
0.0
 10
39.239
 20
-100.289
 30
0.0
 10
39.239
 20
-100.289
 30
0.0
 10
39.239
 20
130.328
 30
0.0
 10
39.239
 20
130.328
 30
0.0
  0
SPLINE
  5
42
330
1F
100
AcDbEntity
  8
layer 1
 62
     7
100
AcDbSpline
210
0.0
220
0.0
230
1.0
 70
    11
 71
     3
 72
    20
 73
    16
 74
     0
 42
0.0000000001
 43
0.0000000001
 12
1.0
 22
0.0
 32
0.0
 13
1.0
 23
0.0
 33
0.0
 40
0.0
 40
0.0
 40
0.0
 40
0.0
 40
0.2
 40
0.2
 40
0.2
 40
0.2
 40
0.4
 40
0.4
 40
0.4
 40
0.4
 40
0.6
 40
0.6
 40
0.6
 40
0.6
 40
1.0
 40
1.0
 40
1.0
 40
1.0
 10
183.727
 20
37.16
 30
0.0
 10
183.727
 20
37.16
 30
0.0
 10
183.727
 20
-7.1212
 30
0.0
 10
183.727
 20
-7.1212
 30
0.0
 10
183.727
 20
-7.1212
 30
0.0
 10
181.4766
 20
7.3515
 30
0.0
 10
170.1107
 20
13.7735
 30
0.0
 10
162.7937
 20
15.0194
 30
0.0
 10
162.7937
 20
15.0194
 30
0.0
 10
170.1107
 20
16.2654
 30
0.0
 10
181.4765
 20
22.6872
 30
0.0
 10
183.727
 20
37.1599
 30
0.0
 10
183.727
 20
37.1599
 30
0.0
 10
183.727
 20
37.1599
 30
0.0
 10
183.727
 20
37.16
 30
0.0
 10
183.727
 20
37.16
 30
0.0
  0
SPLINE
  5
43
330
1F
100
AcDbEntity
  8
layer 1
 62
     7
100
AcDbSpline
210
0.0
220
0.0
230
1.0
 70
    11
 71
     3
 72
    36
 73
    32
 74
     0
 42
0.0000000001
 43
0.0000000001
 12
1.0
 22
0.0
 32
0.0
 13
1.0
 23
0.0
 33
0.0
 40
0.0
 40
0.0
 40
0.0
 40
0.0
 40
0.1111111111111111
 40
0.1111111111111111
 40
0.1111111111111111
 40
0.1111111111111111
 40
0.2222222222222222
 40
0.2222222222222222
 40
0.2222222222222222
 40
0.2222222222222222
 40
0.3333333333333333
 40
0.3333333333333333
 40
0.3333333333333333
 40
0.3333333333333333
 40
0.4444444444444444
 40
0.4444444444444444
 40
0.4444444444444444
 40
0.4444444444444444
 40
0.5555555555555556
 40
0.5555555555555556
 40
0.5555555555555556
 40
0.5555555555555556
 40
0.6666666666666666
 40
0.6666666666666666
 40
0.6666666666666666
 40
0.6666666666666666
 40
0.7777777777777778
 40
0.7777777777777778
 40
0.7777777777777778
 40
0.7777777777777778
 40
1.0
 40
1.0
 40
1.0
 40
1.0
 10
51.741
 20
118.4952
 30
0.0
 10
57.0554
 20
115.6455
 30
0.0
 10
57.8887
 20
104.294
 30
0.0
 10
71.9631
 20
95.9488
 30
0.0
 10
71.9631
 20
95.9488
 30
0.0
 10
73.9363
 20
94.4241
 30
0.0
 10
73.2564
 20
91.7126
 30
0.0
 10
71.1458
 20
93.5848
 30
0.0
 10
71.1458
 20
93.5848
 30
0.0
 10
65.0625
 20
100.5475
 30
0.0
 10
57.1426
 20
95.9545
 30
0.0
 10
54.0204
 20
100.1206
 30
0.0
 10
54.0204
 20
100.1206
 30
0.0
 10
53.5284
 20
91.4931
 30
0.0
 10
62.7489
 20
87.1449
 30
0.0
 10
65.3318
 20
87.371
 30
0.0
 10
65.3318
 20
87.371
 30
0.0
 10
56.444
 20
85.0037
 30
0.0
 10
56.43
 20
70.4384
 30
0.0
 10
64.1774
 20
67.3986
 30
0.0
 10
64.1774
 20
67.3986
 30
0.0
 10
59.8251
 20
65.9981
 30
0.0
 10
53.1187
 20
60.4989
 30
0.0
 10
51.741
 20
53.8672
 30
0.0
 10
51.741
 20
53.8672
 30
0.0
 10
51.741
 20
66.5566
 30
0.0
 10
51.741
 20
105.1182
 30
0.0
 10
51.741
 20
118.4954
 30
0.0
 10
51.741
 20
118.4954
 30
0.0
 10
51.741
 20
118.4954
 30
0.0
 10
51.741
 20
118.4952
 30
0.0
 10
51.741
 20
118.4952
 30
0.0
  0
SPLINE
  5
44
330
1F
100
AcDbEntity
  8
layer 1
 62
     7
100
AcDbSpline
210
0.0
220
0.0
230
1.0
 70
    11
 71
     3
 72
    28
 73
    24
 74
     0
 42
0.0000000001
 43
0.0000000001
 12
1.0
 22
0.0
 32
0.0
 13
1.0
 23
0.0
 33
0.0
 40
0.0
 40
0.0
 40
0.0
 40
0.0
 40
0.1428571428571428
 40
0.1428571428571428
 40
0.1428571428571428
 40
0.1428571428571428
 40
0.2857142857142857
 40
0.2857142857142857
 40
0.2857142857142857
 40
0.2857142857142857
 40
0.4285714285714285
 40
0.4285714285714285
 40
0.4285714285714285
 40
0.4285714285714285
 40
0.5714285714285714
 40
0.5714285714285714
 40
0.5714285714285714
 40
0.5714285714285714
 40
0.7142857142857143
 40
0.7142857142857143
 40
0.7142857142857143
 40
0.7142857142857143
 40
1.0
 40
1.0
 40
1.0
 40
1.0
 10
71.9915
 20
121.2921
 30
0.0
 10
74.0351
 20
117.363
 30
0.0
 10
73.2289
 20
117.7101
 30
0.0
 10
74.6127
 20
110.2905
 30
0.0
 10
74.6127
 20
110.2905
 30
0.0
 10
75.1046
 20
107.6526
 30
0.0
 10
76.9029
 20
105.5119
 30
0.0
 10
78.2663
 20
100.5929
 30
0.0
 10
78.2663
 20
100.5929
 30
0.0
 10
78.5548
 20
97.1881
 30
0.0
 10
76.6546
 20
98.4884
 30
0.0
 10
75.7114
 20
100.7421
 30
0.0
 10
75.7114
 20
100.7421
 30
0.0
 10
70.9081
 20
113.499
 30
0.0
 10
63.9889
 20
115.9684
 30
0.0
 10
56.4168
 20
121.2921
 30
0.0
 10
56.4168
 20
121.2921
 30
0.0
 10
69.1062
 20
121.2921
 30
0.0
 10
58.6145
 20
121.2921
 30
0.0
 10
71.9916
 20
121.2921
 30
0.0
 10
71.9916
 20
121.2921
 30
0.0
 10
71.9916
 20
121.2921
 30
0.0
 10
71.9915
 20
121.2921
 30
0.0
 10
71.9915
 20
121.2921
 30
0.0
  0
SPLINE
  5
45
330
1F
100
AcDbEntity
  8
layer 1
 62
     7
100
AcDbSpline
210
0.0
220
0.0
230
1.0
 70
    11
 71
     3
 72
    24
 73
    20
 74
     0
 42
0.0000000001
 43
0.0000000001
 12
1.0
 22
0.0
 32
0.0
 13
1.0
 23
0.0
 33
0.0
 40
0.0
 40
0.0
 40
0.0
 40
0.0
 40
0.1666666666666667
 40
0.1666666666666667
 40
0.1666666666666667
 40
0.1666666666666667
 40
0.3333333333333333
 40
0.3333333333333333
 40
0.3333333333333333
 40
0.3333333333333333
 40
0.5
 40
0.5
 40
0.5
 40
0.5
 40
0.6666666666666666
 40
0.6666666666666666
 40
0.6666666666666666
 40
0.6666666666666666
 40
1.0
 40
1.0
 40
1.0
 40
1.0
 10
94.9515
 20
121.2921
 30
0.0
 10
84.9874
 20
117.803
 30
0.0
 10
84.1502
 20
110.6998
 30
0.0
 10
83.5643
 20
105.7933
 30
0.0
 10
83.5643
 20
105.7933
 30
0.0
 10
83.4097
 20
104.4977
 30
0.0
 10
82.7432
 20
105.8862
 30
0.0
 10
82.6162
 20
106.1876
 30
0.0
 10
82.6162
 20
106.1876
 30
0.0
 10
80.7235
 20
110.2441
 30
0.0
 10
82.5987
 20
115.9682
 30
0.0
 10
75.0266
 20
121.2921
 30
0.0
 10
75.0266
 20
121.2921
 30
0.0
 10
87.7159
 20
121.2921
 30
0.0
 10
81.5745
 20
121.2921
 30
0.0
 10
94.9517
 20
121.2921
 30
0.0
 10
94.9517
 20
121.2921
 30
0.0
 10
94.9517
 20
121.2921
 30
0.0
 10
94.9515
 20
121.2921
 30
0.0
 10
94.9515
 20
121.2921
 30
0.0
  0
SPLINE
  5
46
330
1F
100
AcDbEntity
  8
layer 1
 62
     7
100
AcDbSpline
210
0.0
220
0.0
230
1.0
 70
    11
 71
     3
 72
    16
 73
    12
 74
     0
 42
0.0000000001
 43
0.0000000001
 12
1.0
 22
0.0
 32
0.0
 13
1.0
 23
0.0
 33
0.0
 40
0.0
 40
0.0
 40
0.0
 40
0.0
 40
0.25
 40
0.25
 40
0.25
 40
0.25
 40
0.5
 40
0.5
 40
0.5
 40
0.5
 40
1.0
 40
1.0
 40
1.0
 40
1.0
 10
105.3217
 20
121.2921
 30
0.0
 10
110.3057
 20
119.8462
 30
0.0
 10
115.6727
 20
115.637
 30
0.0
 10
117.5635
 20
107.8476
 30
0.0
 10
117.5635
 20
107.8476
 30
0.0
 10
119.4543
 20
115.9395
 30
0.0
 10
125.2246
 20
119.8462
 30
0.0
 10
130.2086
 20
121.2921
 30
0.0
 10
130.2086
 20
121.2921
 30
0.0
 10
130.2086
 20
121.2921
 30
0.0
 10
105.3217
 20
121.2921
 30
0.0
 10
105.3217
 20
121.2921
 30
0.0
  0
SPLINE
  5
47
330
1F
100
AcDbEntity
  8
layer 1
 62
     7
100
AcDbSpline
210
0.0
220
0.0
230
1.0
 70
    11
 71
     3
 72
    20
 73
    16
 74
     0
 42
0.0000000001
 43
0.0000000001
 12
1.0
 22
0.0
 32
0.0
 13
1.0
 23
0.0
 33
0.0
 40
0.0
 40
0.0
 40
0.0
 40
0.0
 40
0.2
 40
0.2
 40
0.2
 40
0.2
 40
0.4
 40
0.4
 40
0.4
 40
0.4
 40
0.6
 40
0.6
 40
0.6
 40
0.6
 40
1.0
 40
1.0
 40
1.0
 40
1.0
 10
51.741
 20
37.16
 30
0.0
 10
51.741
 20
37.16
 30
0.0
 10
51.741
 20
-7.1212
 30
0.0
 10
51.741
 20
-7.1212
 30
0.0
 10
51.741
 20
-7.1212
 30
0.0
 10
53.9915
 20
7.3515
 30
0.0
 10
65.3574
 20
13.7735
 30
0.0
 10
72.6743
 20
15.0194
 30
0.0
 10
72.6743
 20
15.0194
 30
0.0
 10
65.3574
 20
16.2654
 30
0.0
 10
53.9916
 20
22.6872
 30
0.0
 10
51.741
 20
37.1599
 30
0.0
 10
51.741
 20
37.1599
 30
0.0
 10
51.741
 20
37.1599
 30
0.0
 10
51.741
 20
37.16
 30
0.0
 10
51.741
 20
37.16
 30
0.0
  0
SPLINE
  5
48
330
1F
100
AcDbEntity
  8
layer 1
 62
     7
100
AcDbSpline
210
0.0
220
0.0
230
1.0
 70
    11
 71
     3
 72
    28
 73
    24
 74
     0
 42
0.0000000001
 43
0.0000000001
 12
1.0
 22
0.0
 32
0.0
 13
1.0
 23
0.0
 33
0.0
 40
0.0
 40
0.0
 40
0.0
 40
0.0
 40
0.1428571428571428
 40
0.1428571428571428
 40
0.1428571428571428
 40
0.1428571428571428
 40
0.2857142857142857
 40
0.2857142857142857
 40
0.2857142857142857
 40
0.2857142857142857
 40
0.4285714285714285
 40
0.4285714285714285
 40
0.4285714285714285
 40
0.4285714285714285
 40
0.5714285714285714
 40
0.5714285714285714
 40
0.5714285714285714
 40
0.5714285714285714
 40
0.7142857142857143
 40
0.7142857142857143
 40
0.7142857142857143
 40
0.7142857142857143
 40
1.0
 40
1.0
 40
1.0
 40
1.0
 10
87.459
 20
52.433
 30
0.0
 10
87.0682
 20
64.3496
 30
0.0
 10
81.1437
 20
68.4741
 30
0.0
 10
71.4803
 20
68.4843
 30
0.0
 10
71.4803
 20
68.4843
 30
0.0
 10
74.4171
 20
69.7858
 30
0.0
 10
76.3022
 20
76.4698
 30
0.0
 10
69.2898
 20
79.402
 30
0.0
 10
69.2898
 20
79.402
 30
0.0
 10
71.0217
 20
82.7741
 30
0.0
 10
79.8982
 20
83.716
 30
0.0
 10
85.6297
 20
81.6527
 30
0.0
 10
85.6297
 20
81.6527
 30
0.0
 10
82.6982
 20
80.8667
 30
0.0
 10
79.8726
 20
73.9388
 30
0.0
 10
84.1644
 20
70.3861
 30
0.0
 10
84.1644
 20
70.3861
 30
0.0
 10
88.8913
 20
72.3089
 30
0.0
 10
90.6739
 20
72.009
 30
0.0
 10
93.4701
 20
70.6092
 30
0.0
 10
93.4701
 20
70.6092
 30
0.0
 10
85.1638
 20
63.6032
 30
0.0
 10
93.7981
 20
57.9409
 30
0.0
 10
87.459
 20
52.433
 30
0.0
  0
SPLINE
  5
49
330
1F
100
AcDbEntity
  8
layer 1
 62
     7
100
AcDbSpline
210
0.0
220
0.0
230
1.0
 70
    11
 71
     3
 72
    20
 73
    16
 74
     0
 42
0.0000000001
 43
0.0000000001
 12
1.0
 22
0.0
 32
0.0
 13
1.0
 23
0.0
 33
0.0
 40
0.0
 40
0.0
 40
0.0
 40
0.0
 40
0.2
 40
0.2
 40
0.2
 40
0.2
 40
0.4
 40
0.4
 40
0.4
 40
0.4
 40
0.6
 40
0.6
 40
0.6
 40
0.6
 40
1.0
 40
1.0
 40
1.0
 40
1.0
 10
77.1198
 20
50.3319
 30
0.0
 10
77.602
 20
48.8734
 30
0.0
 10
79.4887
 20
48.1313
 30
0.0
 10
79.3494
 20
50.7788
 30
0.0
 10
79.3494
 20
50.7788
 30
0.0
 10
79.2697
 20
53.905
 30
0.0
 10
75.4684
 20
60.7967
 30
0.0
 10
66.3655
 20
57.1663
 30
0.0
 10
66.3655
 20
57.1663
 30
0.0
 10
72.2673
 20
56.3899
 30
0.0
 10
75.4025
 20
53.6845
 30
0.0
 10
77.1198
 20
50.332
 30
0.0
 10
77.1198
 20
50.332
 30
0.0
 10
77.1198
 20
50.332
 30
0.0
 10
77.1198
 20
50.3319
 30
0.0
 10
77.1198
 20
50.3319
 30
0.0
  0
SPLINE
  5
4A
330
1F
100
AcDbEntity
  8
layer 1
 62
     7
100
AcDbSpline
210
0.0
220
0.0
230
1.0
 70
    11
 71
     3
 72
    20
 73
    16
 74
     0
 42
0.0000000001
 43
0.0000000001
 12
1.0
 22
0.0
 32
0.0
 13
1.0
 23
0.0
 33
0.0
 40
0.0
 40
0.0
 40
0.0
 40
0.0
 40
0.2
 40
0.2
 40
0.2
 40
0.2
 40
0.4
 40
0.4
 40
0.4
 40
0.4
 40
0.6
 40
0.6
 40
0.6
 40
0.6
 40
1.0
 40
1.0
 40
1.0
 40
1.0
 10
87.0647
 20
91.7761
 30
0.0
 10
85.6023
 20
93.1703
 30
0.0
 10
82.3013
 20
92.9964
 30
0.0
 10
85.0761
 20
89.6579
 30
0.0
 10
85.0761
 20
89.6579
 30
0.0
 10
86.0719
 20
88.5727
 30
0.0
 10
90.2106
 20
85.4252
 30
0.0
 10
93.0946
 20
82.8045
 30
0.0
 10
93.0946
 20
82.8045
 30
0.0
 10
91.0495
 20
87.6145
 30
0.0
 10
87.5125
 20
91.3323
 30
0.0
 10
87.0648
 20
91.7761
 30
0.0
 10
87.0648
 20
91.7761
 30
0.0
 10
87.0648
 20
91.7761
 30
0.0
 10
87.0647
 20
91.7761
 30
0.0
 10
87.0647
 20
91.7761
 30
0.0
  0
SPLINE
  5
4B
330
1F
100
AcDbEntity
  8
layer 1
 62
     7
100
AcDbSpline
210
0.0
220
0.0
230
1.0
 70
    11
 71
     3
 72
    48
 73
    44
 74
     0
 42
0.0000000001
 43
0.0000000001
 12
1.0
 22
0.0
 32
0.0
 13
1.0
 23
0.0
 33
0.0
 40
0.0
 40
0.0
 40
0.0
 40
0.0
 40
0.0833333333333333
 40
0.0833333333333333
 40
0.0833333333333333
 40
0.0833333333333333
 40
0.1666666666666667
 40
0.1666666666666667
 40
0.1666666666666667
 40
0.1666666666666667
 40
0.25
 40
0.25
 40
0.25
 40
0.25
 40
0.3333333333333333
 40
0.3333333333333333
 40
0.3333333333333333
 40
0.3333333333333333
 40
0.4166666666666667
 40
0.4166666666666667
 40
0.4166666666666667
 40
0.4166666666666667
 40
0.5
 40
0.5
 40
0.5
 40
0.5
 40
0.5833333333333334
 40
0.5833333333333334
 40
0.5833333333333334
 40
0.5833333333333334
 40
0.6666666666666666
 40
0.6666666666666666
 40
0.6666666666666666
 40
0.6666666666666666
 40
0.75
 40
0.75
 40
0.75
 40
0.75
 40
0.8333333333333334
 40
0.8333333333333334
 40
0.8333333333333334
 40
0.8333333333333334
 40
1.0
 40
1.0
 40
1.0
 40
1.0
 10
78.4597
 20
34.0488
 30
0.0
 10
75.2406
 20
38.5091
 30
0.0
 10
67.5163
 20
36.4626
 30
0.0
 10
66.9806
 20
29.402
 30
0.0
 10
66.9806
 20
29.402
 30
0.0
 10
61.5609
 20
33.5319
 30
0.0
 10
55.9896
 20
46.5152
 30
0.0
 10
64.7901
 20
56.5183
 30
0.0
 10
64.7901
 20
56.5183
 30
0.0
 10
67.7543
 20
55.0482
 30
0.0
 10
66.4692
 20
48.9744
 30
0.0
 10
69.0191
 20
44.3879
 30
0.0
 10
69.0191
 20
44.3879
 30
0.0
 10
71.2506
 20
40.3741
 30
0.0
 10
77.1718
 20
37.3788
 30
0.0
 10
81.4646
 20
41.203
 30
0.0
 10
81.4646
 20
41.203
 30
0.0
 10
76.99
 20
30.3183
 30
0.0
 10
85.5326
 20
26.6914
 30
0.0
 10
90.452
 20
27.8383
 30
0.0
 10
90.452
 20
27.8383
 30
0.0
 10
96.4465
 20
29.2358
 30
0.0
 10
99.9106
 20
37.7572
 30
0.0
 10
92.1846
 20
42.9689
 30
0.0
 10
92.1846
 20
42.9689
 30
0.0
 10
107.3632
 20
50.5051
 30
0.0
 10
90.5998
 20
64.7574
 30
0.0
 10
94.9784
 20
69.9528
 30
0.0
 10
94.9784
 20
69.9528
 30
0.0
 10
99.5506
 20
65.2552
 30
0.0
 10
109.5305
 20
56.3993
 30
0.0
 10
106.2365
 20
39.3432
 30
0.0
 10
106.2365
 20
39.3432
 30
0.0
 10
105.4412
 20
31.2174
 30
0.0
 10
96.4125
 20
21.2919
 30
0.0
 10
83.6007
 20
24.1675
 30
0.0
 10
83.6007
 20
24.1675
 30
0.0
 10
80.8454
 20
24.7859
 30
0.0
 10
72.642
 20
28.1049
 30
0.0
 10
78.4599
 20
34.049
 30
0.0
 10
78.4599
 20
34.049
 30
0.0
 10
78.4599
 20
34.049
 30
0.0
 10
78.4597
 20
34.0488
 30
0.0
 10
78.4597
 20
34.0488
 30
0.0
  0
SPLINE
  5
4C
330
1F
100
AcDbEntity
  8
layer 1
 62
     7
100
AcDbSpline
210
0.0
220
0.0
230
1.0
 70
    11
 71
     3
 72
    36
 73
    32
 74
     0
 42
0.0000000001
 43
0.0000000001
 12
1.0
 22
0.0
 32
0.0
 13
1.0
 23
0.0
 33
0.0
 40
0.0
 40
0.0
 40
0.0
 40
0.0
 40
0.1111111111111111
 40
0.1111111111111111
 40
0.1111111111111111
 40
0.1111111111111111
 40
0.2222222222222222
 40
0.2222222222222222
 40
0.2222222222222222
 40
0.2222222222222222
 40
0.3333333333333333
 40
0.3333333333333333
 40
0.3333333333333333
 40
0.3333333333333333
 40
0.4444444444444444
 40
0.4444444444444444
 40
0.4444444444444444
 40
0.4444444444444444
 40
0.5555555555555556
 40
0.5555555555555556
 40
0.5555555555555556
 40
0.5555555555555556
 40
0.6666666666666666
 40
0.6666666666666666
 40
0.6666666666666666
 40
0.6666666666666666
 40
0.7777777777777778
 40
0.7777777777777778
 40
0.7777777777777778
 40
0.7777777777777778
 40
1.0
 40
1.0
 40
1.0
 40
1.0
 10
183.7891
 20
118.4952
 30
0.0
 10
178.4748
 20
115.6455
 30
0.0
 10
177.6415
 20
104.294
 30
0.0
 10
163.567
 20
95.9488
 30
0.0
 10
163.567
 20
95.9488
 30
0.0
 10
161.5938
 20
94.4241
 30
0.0
 10
162.2738
 20
91.7126
 30
0.0
 10
164.3844
 20
93.5848
 30
0.0
 10
164.3844
 20
93.5848
 30
0.0
 10
170.4676
 20
100.5475
 30
0.0
 10
178.3876
 20
95.9545
 30
0.0
 10
181.5098
 20
100.1206
 30
0.0
 10
181.5098
 20
100.1206
 30
0.0
 10
182.0018
 20
91.4931
 30
0.0
 10
172.7813
 20
87.1449
 30
0.0
 10
170.1984
 20
87.371
 30
0.0
 10
170.1984
 20
87.371
 30
0.0
 10
179.0861
 20
85.0037
 30
0.0
 10
179.1002
 20
70.4384
 30
0.0
 10
171.3528
 20
67.3986
 30
0.0
 10
171.3528
 20
67.3986
 30
0.0
 10
175.705
 20
65.9981
 30
0.0
 10
182.4114
 20
60.4989
 30
0.0
 10
183.7891
 20
53.8672
 30
0.0
 10
183.7891
 20
53.8672
 30
0.0
 10
183.7891
 20
66.5566
 30
0.0
 10
183.7891
 20
105.1182
 30
0.0
 10
183.7891
 20
118.4954
 30
0.0
 10
183.7891
 20
118.4954
 30
0.0
 10
183.7891
 20
118.4954
 30
0.0
 10
183.7891
 20
118.4952
 30
0.0
 10
183.7891
 20
118.4952
 30
0.0
  0
SPLINE
  5
4D
330
1F
100
AcDbEntity
  8
layer 1
 62
     7
100
AcDbSpline
210
0.0
220
0.0
230
1.0
 70
    11
 71
     3
 72
    28
 73
    24
 74
     0
 42
0.0000000001
 43
0.0000000001
 12
1.0
 22
0.0
 32
0.0
 13
1.0
 23
0.0
 33
0.0
 40
0.0
 40
0.0
 40
0.0
 40
0.0
 40
0.1428571428571428
 40
0.1428571428571428
 40
0.1428571428571428
 40
0.1428571428571428
 40
0.2857142857142857
 40
0.2857142857142857
 40
0.2857142857142857
 40
0.2857142857142857
 40
0.4285714285714285
 40
0.4285714285714285
 40
0.4285714285714285
 40
0.4285714285714285
 40
0.5714285714285714
 40
0.5714285714285714
 40
0.5714285714285714
 40
0.5714285714285714
 40
0.7142857142857143
 40
0.7142857142857143
 40
0.7142857142857143
 40
0.7142857142857143
 40
1.0
 40
1.0
 40
1.0
 40
1.0
 10
163.5388
 20
121.2921
 30
0.0
 10
161.4952
 20
117.363
 30
0.0
 10
162.3014
 20
117.7101
 30
0.0
 10
160.9176
 20
110.2905
 30
0.0
 10
160.9176
 20
110.2905
 30
0.0
 10
160.4257
 20
107.6526
 30
0.0
 10
158.6274
 20
105.5119
 30
0.0
 10
157.264
 20
100.5929
 30
0.0
 10
157.264
 20
100.5929
 30
0.0
 10
156.9755
 20
97.1881
 30
0.0
 10
158.8757
 20
98.4884
 30
0.0
 10
159.8189
 20
100.7421
 30
0.0
 10
159.8189
 20
100.7421
 30
0.0
 10
164.6222
 20
113.499
 30
0.0
 10
171.5414
 20
115.9684
 30
0.0
 10
179.1135
 20
121.2921
 30
0.0
 10
179.1135
 20
121.2921
 30
0.0
 10
166.4241
 20
121.2921
 30
0.0
 10
176.9158
 20
121.2921
 30
0.0
 10
163.5386
 20
121.2921
 30
0.0
 10
163.5386
 20
121.2921
 30
0.0
 10
163.5386
 20
121.2921
 30
0.0
 10
163.5388
 20
121.2921
 30
0.0
 10
163.5388
 20
121.2921
 30
0.0
  0
SPLINE
  5
4E
330
1F
100
AcDbEntity
  8
layer 1
 62
     7
100
AcDbSpline
210
0.0
220
0.0
230
1.0
 70
    11
 71
     3
 72
    24
 73
    20
 74
     0
 42
0.0000000001
 43
0.0000000001
 12
1.0
 22
0.0
 32
0.0
 13
1.0
 23
0.0
 33
0.0
 40
0.0
 40
0.0
 40
0.0
 40
0.0
 40
0.1666666666666667
 40
0.1666666666666667
 40
0.1666666666666667
 40
0.1666666666666667
 40
0.3333333333333333
 40
0.3333333333333333
 40
0.3333333333333333
 40
0.3333333333333333
 40
0.5
 40
0.5
 40
0.5
 40
0.5
 40
0.6666666666666666
 40
0.6666666666666666
 40
0.6666666666666666
 40
0.6666666666666666
 40
1.0
 40
1.0
 40
1.0
 40
1.0
 10
140.5788
 20
121.2921
 30
0.0
 10
150.5429
 20
117.803
 30
0.0
 10
151.3801
 20
110.6998
 30
0.0
 10
151.966
 20
105.7933
 30
0.0
 10
151.966
 20
105.7933
 30
0.0
 10
152.1206
 20
104.4977
 30
0.0
 10
152.7871
 20
105.8862
 30
0.0
 10
152.9141
 20
106.1876
 30
0.0
 10
152.9141
 20
106.1876
 30
0.0
 10
154.8068
 20
110.2441
 30
0.0
 10
152.9316
 20
115.9682
 30
0.0
 10
160.5037
 20
121.2921
 30
0.0
 10
160.5037
 20
121.2921
 30
0.0
 10
147.8144
 20
121.2921
 30
0.0
 10
153.9558
 20
121.2921
 30
0.0
 10
140.5786
 20
121.2921
 30
0.0
 10
140.5786
 20
121.2921
 30
0.0
 10
140.5786
 20
121.2921
 30
0.0
 10
140.5788
 20
121.2921
 30
0.0
 10
140.5788
 20
121.2921
 30
0.0
  0
SPLINE
  5
4F
330
1F
100
AcDbEntity
  8
layer 1
 62
     7
100
AcDbSpline
210
0.0
220
0.0
230
1.0
 70
    11
 71
     3
 72
    20
 73
    16
 74
     0
 42
0.0000000001
 43
0.0000000001
 12
1.0
 22
0.0
 32
0.0
 13
1.0
 23
0.0
 33
0.0
 40
0.0
 40
0.0
 40
0.0
 40
0.0
 40
0.2
 40
0.2
 40
0.2
 40
0.2
 40
0.4
 40
0.4
 40
0.4
 40
0.4
 40
0.6
 40
0.6
 40
0.6
 40
0.6
 40
1.0
 40
1.0
 40
1.0
 40
1.0
 10
121.3163
 20
79.6323
 30
0.0
 10
121.0522
 20
74.4853
 30
0.0
 10
119.7487
 20
72.7037
 30
0.0
 10
117.7651
 20
71.0129
 30
0.0
 10
117.7651
 20
71.0129
 30
0.0
 10
115.7817
 20
72.7039
 30
0.0
 10
114.4782
 20
74.4854
 30
0.0
 10
114.214
 20
79.6323
 30
0.0
 10
114.214
 20
79.6323
 30
0.0
 10
114.1719
 20
84.8037
 30
0.0
 10
115.0325
 20
86.9179
 30
0.0
 10
117.7651
 20
90.7194
 30
0.0
 10
117.7651
 20
90.7194
 30
0.0
 10
120.4977
 20
86.918
 30
0.0
 10
121.3583
 20
84.8038
 30
0.0
 10
121.3163
 20
79.6323
 30
0.0
  0
SPLINE
  5
50
330
1F
100
AcDbEntity
  8
layer 1
 62
     7
100
AcDbSpline
210
0.0
220
0.0
230
1.0
 70
    11
 71
     3
 72
    56
 73
    52
 74
     0
 42
0.0000000001
 43
0.0000000001
 12
1.0
 22
0.0
 32
0.0
 13
1.0
 23
0.0
 33
0.0
 40
0.0
 40
0.0
 40
0.0
 40
0.0
 40
0.0714285714285714
 40
0.0714285714285714
 40
0.0714285714285714
 40
0.0714285714285714
 40
0.1428571428571428
 40
0.1428571428571428
 40
0.1428571428571428
 40
0.1428571428571428
 40
0.2142857142857143
 40
0.2142857142857143
 40
0.2142857142857143
 40
0.2142857142857143
 40
0.2857142857142857
 40
0.2857142857142857
 40
0.2857142857142857
 40
0.2857142857142857
 40
0.3571428571428572
 40
0.3571428571428572
 40
0.3571428571428572
 40
0.3571428571428572
 40
0.4285714285714285
 40
0.4285714285714285
 40
0.4285714285714285
 40
0.4285714285714285
 40
0.5
 40
0.5
 40
0.5
 40
0.5
 40
0.5714285714285714
 40
0.5714285714285714
 40
0.5714285714285714
 40
0.5714285714285714
 40
0.6428571428571429
 40
0.6428571428571429
 40
0.6428571428571429
 40
0.6428571428571429
 40
0.7142857142857143
 40
0.7142857142857143
 40
0.7142857142857143
 40
0.7142857142857143
 40
0.7857142857142857
 40
0.7857142857142857
 40
0.7857142857142857
 40
0.7857142857142857
 40
0.8571428571428571
 40
0.8571428571428571
 40
0.8571428571428571
 40
0.8571428571428571
 40
1.0
 40
1.0
 40
1.0
 40
1.0
 10
127.8739
 20
92.201
 30
0.0
 10
133.7471
 20
90.7702
 30
0.0
 10
139.2634
 20
96.9407
 30
0.0
 10
134.7811
 20
102.613
 30
0.0
 10
134.7811
 20
102.613
 30
0.0
 10
130.6883
 20
98.0663
 30
0.0
 10
126.4441
 20
103.3208
 30
0.0
 10
127.7186
 20
107.4567
 30
0.0
 10
127.7186
 20
107.4567
 30
0.0
 10
130.3255
 20
115.9156
 30
0.0
 10
138.3424
 20
112.3071
 30
0.0
 10
138.8228
 20
111.9233
 30
0.0
 10
138.8228
 20
111.9233
 30
0.0
 10
149.8741
 20
103.0928
 30
0.0
 10
136.4697
 20
85.9041
 30
0.0
 10
135.7301
 20
84.8751
 30
0.0
 10
135.7301
 20
84.8751
 30
0.0
 10
127.4903
 20
73.4119
 30
0.0
 10
117.8055
 20
60.7107
 30
0.0
 10
117.7148
 20
50.1841
 30
0.0
 10
117.7148
 20
50.1841
 30
0.0
 10
117.6241
 20
60.5091
 30
0.0
 10
108.0401
 20
73.4119
 30
0.0
 10
99.8003
 20
84.8751
 30
0.0
 10
99.8003
 20
84.8751
 30
0.0
 10
99.0606
 20
85.9041
 30
0.0
 10
85.6563
 20
103.0929
 30
0.0
 10
96.7076
 20
111.9233
 30
0.0
 10
96.7076
 20
111.9233
 30
0.0
 10
97.188
 20
112.3071
 30
0.0
 10
105.2051
 20
115.9156
 30
0.0
 10
107.8118
 20
107.4567
 30
0.0
 10
107.8118
 20
107.4567
 30
0.0
 10
109.0863
 20
103.3208
 30
0.0
 10
104.8422
 20
98.0664
 30
0.0
 10
100.7493
 20
102.613
 30
0.0
 10
100.7493
 20
102.613
 30
0.0
 10
96.267
 20
96.9407
 30
0.0
 10
101.7832
 20
90.7702
 30
0.0
 10
107.6565
 20
92.201
 30
0.0
 10
107.6565
 20
92.201
 30
0.0
 10
103.352
 20
77.9182
 30
0.0
 10
113.7211
 20
69.7588
 30
0.0
 10
117.7653
 20
69.0792
 30
0.0
 10
117.7653
 20
69.0792
 30
0.0
 10
121.8093
 20
69.7588
 30
0.0
 10
132.1785
 20
77.9182
 30
0.0
 10
127.874
 20
92.201
 30
0.0
 10
127.874
 20
92.201
 30
0.0
 10
127.874
 20
92.201
 30
0.0
 10
127.8739
 20
92.201
 30
0.0
 10
127.8739
 20
92.201
 30
0.0
  0
SPLINE
  5
51
330
1F
100
AcDbEntity
  8
layer 1
 62
     7
100
AcDbSpline
210
0.0
220
0.0
230
1.0
 70
    11
 71
     3
 72
    28
 73
    24
 74
     0
 42
0.0000000001
 43
0.0000000001
 12
1.0
 22
0.0
 32
0.0
 13
1.0
 23
0.0
 33
0.0
 40
0.0
 40
0.0
 40
0.0
 40
0.0
 40
0.1428571428571428
 40
0.1428571428571428
 40
0.1428571428571428
 40
0.1428571428571428
 40
0.2857142857142857
 40
0.2857142857142857
 40
0.2857142857142857
 40
0.2857142857142857
 40
0.4285714285714285
 40
0.4285714285714285
 40
0.4285714285714285
 40
0.4285714285714285
 40
0.5714285714285714
 40
0.5714285714285714
 40
0.5714285714285714
 40
0.5714285714285714
 40
0.7142857142857143
 40
0.7142857142857143
 40
0.7142857142857143
 40
0.7142857142857143
 40
1.0
 40
1.0
 40
1.0
 40
1.0
 10
148.0713
 20
52.433
 30
0.0
 10
148.4621
 20
64.3496
 30
0.0
 10
154.3866
 20
68.4741
 30
0.0
 10
164.05
 20
68.4843
 30
0.0
 10
164.05
 20
68.4843
 30
0.0
 10
161.1132
 20
69.7858
 30
0.0
 10
159.2281
 20
76.4698
 30
0.0
 10
166.2404
 20
79.402
 30
0.0
 10
166.2404
 20
79.402
 30
0.0
 10
164.5086
 20
82.7741
 30
0.0
 10
155.6321
 20
83.716
 30
0.0
 10
149.9006
 20
81.6527
 30
0.0
 10
149.9006
 20
81.6527
 30
0.0
 10
152.8321
 20
80.8667
 30
0.0
 10
155.6577
 20
73.9388
 30
0.0
 10
151.3659
 20
70.3861
 30
0.0
 10
151.3659
 20
70.3861
 30
0.0
 10
146.6389
 20
72.3089
 30
0.0
 10
144.8564
 20
72.009
 30
0.0
 10
142.0602
 20
70.6092
 30
0.0
 10
142.0602
 20
70.6092
 30
0.0
 10
150.3665
 20
63.6032
 30
0.0
 10
141.7322
 20
57.9409
 30
0.0
 10
148.0713
 20
52.433
 30
0.0
  0
SPLINE
  5
52
330
1F
100
AcDbEntity
  8
layer 1
 62
     7
100
AcDbSpline
210
0.0
220
0.0
230
1.0
 70
    11
 71
     3
 72
    20
 73
    16
 74
     0
 42
0.0000000001
 43
0.0000000001
 12
1.0
 22
0.0
 32
0.0
 13
1.0
 23
0.0
 33
0.0
 40
0.0
 40
0.0
 40
0.0
 40
0.0
 40
0.2
 40
0.2
 40
0.2
 40
0.2
 40
0.4
 40
0.4
 40
0.4
 40
0.4
 40
0.6
 40
0.6
 40
0.6
 40
0.6
 40
1.0
 40
1.0
 40
1.0
 40
1.0
 10
158.4105
 20
50.3319
 30
0.0
 10
157.9283
 20
48.8734
 30
0.0
 10
156.0416
 20
48.1313
 30
0.0
 10
156.1809
 20
50.7788
 30
0.0
 10
156.1809
 20
50.7788
 30
0.0
 10
156.2606
 20
53.905
 30
0.0
 10
160.0619
 20
60.7967
 30
0.0
 10
169.1648
 20
57.1663
 30
0.0
 10
169.1648
 20
57.1663
 30
0.0
 10
163.263
 20
56.3899
 30
0.0
 10
160.1278
 20
53.6845
 30
0.0
 10
158.4105
 20
50.332
 30
0.0
 10
158.4105
 20
50.332
 30
0.0
 10
158.4105
 20
50.332
 30
0.0
 10
158.4105
 20
50.3319
 30
0.0
 10
158.4105
 20
50.3319
 30
0.0
  0
SPLINE
  5
53
330
1F
100
AcDbEntity
  8
layer 1
 62
     7
100
AcDbSpline
210
0.0
220
0.0
230
1.0
 70
    11
 71
     3
 72
    20
 73
    16
 74
     0
 42
0.0000000001
 43
0.0000000001
 12
1.0
 22
0.0
 32
0.0
 13
1.0
 23
0.0
 33
0.0
 40
0.0
 40
0.0
 40
0.0
 40
0.0
 40
0.2
 40
0.2
 40
0.2
 40
0.2
 40
0.4
 40
0.4
 40
0.4
 40
0.4
 40
0.6
 40
0.6
 40
0.6
 40
0.6
 40
1.0
 40
1.0
 40
1.0
 40
1.0
 10
148.4656
 20
91.7761
 30
0.0
 10
149.928
 20
93.1703
 30
0.0
 10
153.229
 20
92.9964
 30
0.0
 10
150.4542
 20
89.6579
 30
0.0
 10
150.4542
 20
89.6579
 30
0.0
 10
149.4584
 20
88.5727
 30
0.0
 10
145.3197
 20
85.4252
 30
0.0
 10
142.4357
 20
82.8045
 30
0.0
 10
142.4357
 20
82.8045
 30
0.0
 10
144.4808
 20
87.6145
 30
0.0
 10
148.0178
 20
91.3323
 30
0.0
 10
148.4655
 20
91.7761
 30
0.0
 10
148.4655
 20
91.7761
 30
0.0
 10
148.4655
 20
91.7761
 30
0.0
 10
148.4656
 20
91.7761
 30
0.0
 10
148.4656
 20
91.7761
 30
0.0
  0
SPLINE
  5
54
330
1F
100
AcDbEntity
  8
layer 1
 62
     7
100
AcDbSpline
210
0.0
220
0.0
230
1.0
 70
    11
 71
     3
 72
    48
 73
    44
 74
     0
 42
0.0000000001
 43
0.0000000001
 12
1.0
 22
0.0
 32
0.0
 13
1.0
 23
0.0
 33
0.0
 40
0.0
 40
0.0
 40
0.0
 40
0.0
 40
0.0833333333333333
 40
0.0833333333333333
 40
0.0833333333333333
 40
0.0833333333333333
 40
0.1666666666666667
 40
0.1666666666666667
 40
0.1666666666666667
 40
0.1666666666666667
 40
0.25
 40
0.25
 40
0.25
 40
0.25
 40
0.3333333333333333
 40
0.3333333333333333
 40
0.3333333333333333
 40
0.3333333333333333
 40
0.4166666666666667
 40
0.4166666666666667
 40
0.4166666666666667
 40
0.4166666666666667
 40
0.5
 40
0.5
 40
0.5
 40
0.5
 40
0.5833333333333334
 40
0.5833333333333334
 40
0.5833333333333334
 40
0.5833333333333334
 40
0.6666666666666666
 40
0.6666666666666666
 40
0.6666666666666666
 40
0.6666666666666666
 40
0.75
 40
0.75
 40
0.75
 40
0.75
 40
0.8333333333333334
 40
0.8333333333333334
 40
0.8333333333333334
 40
0.8333333333333334
 40
1.0
 40
1.0
 40
1.0
 40
1.0
 10
157.0704
 20
34.0488
 30
0.0
 10
160.2895
 20
38.5091
 30
0.0
 10
168.0139
 20
36.4626
 30
0.0
 10
168.5496
 20
29.402
 30
0.0
 10
168.5496
 20
29.402
 30
0.0
 10
173.9692
 20
33.5319
 30
0.0
 10
179.5405
 20
46.5152
 30
0.0
 10
170.74
 20
56.5183
 30
0.0
 10
170.74
 20
56.5183
 30
0.0
 10
167.7758
 20
55.0482
 30
0.0
 10
169.061
 20
48.9744
 30
0.0
 10
166.5111
 20
44.3879
 30
0.0
 10
166.5111
 20
44.3879
 30
0.0
 10
164.2795
 20
40.3741
 30
0.0
 10
158.3584
 20
37.3788
 30
0.0
 10
154.0656
 20
41.203
 30
0.0
 10
154.0656
 20
41.203
 30
0.0
 10
158.5402
 20
30.3183
 30
0.0
 10
149.9976
 20
26.6914
 30
0.0
 10
145.0782
 20
27.8383
 30
0.0
 10
145.0782
 20
27.8383
 30
0.0
 10
139.0837
 20
29.2358
 30
0.0
 10
135.6196
 20
37.7572
 30
0.0
 10
143.3456
 20
42.9689
 30
0.0
 10
143.3456
 20
42.9689
 30
0.0
 10
128.167
 20
50.5051
 30
0.0
 10
144.9304
 20
64.7574
 30
0.0
 10
140.5518
 20
69.9528
 30
0.0
 10
140.5518
 20
69.9528
 30
0.0
 10
135.9796
 20
65.2552
 30
0.0
 10
125.9997
 20
56.3993
 30
0.0
 10
129.2937
 20
39.3432
 30
0.0
 10
129.2937
 20
39.3432
 30
0.0
 10
130.089
 20
31.2174
 30
0.0
 10
139.1176
 20
21.2919
 30
0.0
 10
151.9295
 20
24.1675
 30
0.0
 10
151.9295
 20
24.1675
 30
0.0
 10
154.6848
 20
24.7859
 30
0.0
 10
162.8881
 20
28.1049
 30
0.0
 10
157.0703
 20
34.049
 30
0.0
 10
157.0703
 20
34.049
 30
0.0
 10
157.0703
 20
34.049
 30
0.0
 10
157.0704
 20
34.0488
 30
0.0
 10
157.0704
 20
34.0488
 30
0.0
  0
SPLINE
  5
55
330
1F
100
AcDbEntity
  8
layer 1
 62
     7
100
AcDbSpline
210
0.0
220
0.0
230
1.0
 70
    11
 71
     3
 72
    36
 73
    32
 74
     0
 42
0.0000000001
 43
0.0000000001
 12
1.0
 22
0.0
 32
0.0
 13
1.0
 23
0.0
 33
0.0
 40
0.0
 40
0.0
 40
0.0
 40
0.0
 40
0.1111111111111111
 40
0.1111111111111111
 40
0.1111111111111111
 40
0.1111111111111111
 40
0.2222222222222222
 40
0.2222222222222222
 40
0.2222222222222222
 40
0.2222222222222222
 40
0.3333333333333333
 40
0.3333333333333333
 40
0.3333333333333333
 40
0.3333333333333333
 40
0.4444444444444444
 40
0.4444444444444444
 40
0.4444444444444444
 40
0.4444444444444444
 40
0.5555555555555556
 40
0.5555555555555556
 40
0.5555555555555556
 40
0.5555555555555556
 40
0.6666666666666666
 40
0.6666666666666666
 40
0.6666666666666666
 40
0.6666666666666666
 40
0.7777777777777778
 40
0.7777777777777778
 40
0.7777777777777778
 40
0.7777777777777778
 40
1.0
 40
1.0
 40
1.0
 40
1.0
 10
51.741
 20
-88.4562
 30
0.0
 10
57.0554
 20
-85.6065
 30
0.0
 10
57.8887
 20
-74.255
 30
0.0
 10
71.9631
 20
-65.9098
 30
0.0
 10
71.9631
 20
-65.9098
 30
0.0
 10
73.9363
 20
-64.3851
 30
0.0
 10
73.2564
 20
-61.6736
 30
0.0
 10
71.1458
 20
-63.5458
 30
0.0
 10
71.1458
 20
-63.5458
 30
0.0
 10
65.0625
 20
-70.5085
 30
0.0
 10
57.1426
 20
-65.9155
 30
0.0
 10
54.0204
 20
-70.0816
 30
0.0
 10
54.0204
 20
-70.0816
 30
0.0
 10
53.5284
 20
-61.4541
 30
0.0
 10
62.7489
 20
-57.1059
 30
0.0
 10
65.3318
 20
-57.332
 30
0.0
 10
65.3318
 20
-57.332
 30
0.0
 10
56.444
 20
-54.9647
 30
0.0
 10
56.43
 20
-40.3993
 30
0.0
 10
64.1774
 20
-37.3596
 30
0.0
 10
64.1774
 20
-37.3596
 30
0.0
 10
59.8251
 20
-35.9591
 30
0.0
 10
53.1187
 20
-30.4599
 30
0.0
 10
51.741
 20
-23.8282
 30
0.0
 10
51.741
 20
-23.8282
 30
0.0
 10
51.741
 20
-36.5176
 30
0.0
 10
51.741
 20
-75.0792
 30
0.0
 10
51.741
 20
-88.4563
 30
0.0
 10
51.741
 20
-88.4563
 30
0.0
 10
51.741
 20
-88.4563
 30
0.0
 10
51.741
 20
-88.4562
 30
0.0
 10
51.741
 20
-88.4562
 30
0.0
  0
SPLINE
  5
56
330
1F
100
AcDbEntity
  8
layer 1
 62
     7
100
AcDbSpline
210
0.0
220
0.0
230
1.0
 70
    11
 71
     3
 72
    28
 73
    24
 74
     0
 42
0.0000000001
 43
0.0000000001
 12
1.0
 22
0.0
 32
0.0
 13
1.0
 23
0.0
 33
0.0
 40
0.0
 40
0.0
 40
0.0
 40
0.0
 40
0.1428571428571428
 40
0.1428571428571428
 40
0.1428571428571428
 40
0.1428571428571428
 40
0.2857142857142857
 40
0.2857142857142857
 40
0.2857142857142857
 40
0.2857142857142857
 40
0.4285714285714285
 40
0.4285714285714285
 40
0.4285714285714285
 40
0.4285714285714285
 40
0.5714285714285714
 40
0.5714285714285714
 40
0.5714285714285714
 40
0.5714285714285714
 40
0.7142857142857143
 40
0.7142857142857143
 40
0.7142857142857143
 40
0.7142857142857143
 40
1.0
 40
1.0
 40
1.0
 40
1.0
 10
71.9915
 20
-91.2531
 30
0.0
 10
74.0351
 20
-87.324
 30
0.0
 10
73.2289
 20
-87.6711
 30
0.0
 10
74.6127
 20
-80.2515
 30
0.0
 10
74.6127
 20
-80.2515
 30
0.0
 10
75.1046
 20
-77.6135
 30
0.0
 10
76.9029
 20
-75.4729
 30
0.0
 10
78.2663
 20
-70.5539
 30
0.0
 10
78.2663
 20
-70.5539
 30
0.0
 10
78.5548
 20
-67.1491
 30
0.0
 10
76.6546
 20
-68.4494
 30
0.0
 10
75.7114
 20
-70.7031
 30
0.0
 10
75.7114
 20
-70.7031
 30
0.0
 10
70.9081
 20
-83.46
 30
0.0
 10
63.9889
 20
-85.9293
 30
0.0
 10
56.4168
 20
-91.2531
 30
0.0
 10
56.4168
 20
-91.2531
 30
0.0
 10
69.1062
 20
-91.2531
 30
0.0
 10
58.6145
 20
-91.2531
 30
0.0
 10
71.9916
 20
-91.2531
 30
0.0
 10
71.9916
 20
-91.2531
 30
0.0
 10
71.9916
 20
-91.2531
 30
0.0
 10
71.9915
 20
-91.2531
 30
0.0
 10
71.9915
 20
-91.2531
 30
0.0
  0
SPLINE
  5
57
330
1F
100
AcDbEntity
  8
layer 1
 62
     7
100
AcDbSpline
210
0.0
220
0.0
230
1.0
 70
    11
 71
     3
 72
    24
 73
    20
 74
     0
 42
0.0000000001
 43
0.0000000001
 12
1.0
 22
0.0
 32
0.0
 13
1.0
 23
0.0
 33
0.0
 40
0.0
 40
0.0
 40
0.0
 40
0.0
 40
0.1666666666666667
 40
0.1666666666666667
 40
0.1666666666666667
 40
0.1666666666666667
 40
0.3333333333333333
 40
0.3333333333333333
 40
0.3333333333333333
 40
0.3333333333333333
 40
0.5
 40
0.5
 40
0.5
 40
0.5
 40
0.6666666666666666
 40
0.6666666666666666
 40
0.6666666666666666
 40
0.6666666666666666
 40
1.0
 40
1.0
 40
1.0
 40
1.0
 10
94.9515
 20
-91.2531
 30
0.0
 10
84.9874
 20
-87.764
 30
0.0
 10
84.1502
 20
-80.6607
 30
0.0
 10
83.5643
 20
-75.7543
 30
0.0
 10
83.5643
 20
-75.7543
 30
0.0
 10
83.4097
 20
-74.4587
 30
0.0
 10
82.7432
 20
-75.8472
 30
0.0
 10
82.6162
 20
-76.1486
 30
0.0
 10
82.6162
 20
-76.1486
 30
0.0
 10
80.7235
 20
-80.2051
 30
0.0
 10
82.5987
 20
-85.9292
 30
0.0
 10
75.0266
 20
-91.2531
 30
0.0
 10
75.0266
 20
-91.2531
 30
0.0
 10
87.7159
 20
-91.2531
 30
0.0
 10
81.5745
 20
-91.2531
 30
0.0
 10
94.9517
 20
-91.2531
 30
0.0
 10
94.9517
 20
-91.2531
 30
0.0
 10
94.9517
 20
-91.2531
 30
0.0
 10
94.9515
 20
-91.2531
 30
0.0
 10
94.9515
 20
-91.2531
 30
0.0
  0
SPLINE
  5
58
330
1F
100
AcDbEntity
  8
layer 1
 62
     7
100
AcDbSpline
210
0.0
220
0.0
230
1.0
 70
    11
 71
     3
 72
    16
 73
    12
 74
     0
 42
0.0000000001
 43
0.0000000001
 12
1.0
 22
0.0
 32
0.0
 13
1.0
 23
0.0
 33
0.0
 40
0.0
 40
0.0
 40
0.0
 40
0.0
 40
0.25
 40
0.25
 40
0.25
 40
0.25
 40
0.5
 40
0.5
 40
0.5
 40
0.5
 40
1.0
 40
1.0
 40
1.0
 40
1.0
 10
105.3217
 20
-91.2531
 30
0.0
 10
110.3057
 20
-89.8072
 30
0.0
 10
115.6727
 20
-85.598
 30
0.0
 10
117.5635
 20
-77.8086
 30
0.0
 10
117.5635
 20
-77.8086
 30
0.0
 10
119.4543
 20
-85.9004
 30
0.0
 10
125.2246
 20
-89.8072
 30
0.0
 10
130.2086
 20
-91.2531
 30
0.0
 10
130.2086
 20
-91.2531
 30
0.0
 10
130.2086
 20
-91.2531
 30
0.0
 10
105.3217
 20
-91.2531
 30
0.0
 10
105.3217
 20
-91.2531
 30
0.0
  0
SPLINE
  5
59
330
1F
100
AcDbEntity
  8
layer 1
 62
     7
100
AcDbSpline
210
0.0
220
0.0
230
1.0
 70
    11
 71
     3
 72
    20
 73
    16
 74
     0
 42
0.0000000001
 43
0.0000000001
 12
1.0
 22
0.0
 32
0.0
 13
1.0
 23
0.0
 33
0.0
 40
0.0
 40
0.0
 40
0.0
 40
0.0
 40
0.2
 40
0.2
 40
0.2
 40
0.2
 40
0.4
 40
0.4
 40
0.4
 40
0.4
 40
0.6
 40
0.6
 40
0.6
 40
0.6
 40
1.0
 40
1.0
 40
1.0
 40
1.0
 10
137.6739
 20
15.0195
 30
0.0
 10
130.0237
 20
15.0195
 30
0.0
 10
119.0902
 20
3.754
 30
0.0
 10
117.7651
 20
-9.2199
 30
0.0
 10
117.7651
 20
-9.2199
 30
0.0
 10
116.44
 20
3.5523
 30
0.0
 10
105.5065
 20
15.0195
 30
0.0
 10
97.8564
 20
15.0195
 30
0.0
 10
97.8564
 20
15.0195
 30
0.0
 10
105.5066
 20
15.0195
 30
0.0
 10
116.44
 20
26.4867
 30
0.0
 10
117.7651
 20
39.2589
 30
0.0
 10
117.7651
 20
39.2589
 30
0.0
 10
119.0902
 20
26.285
 30
0.0
 10
130.0238
 20
15.0195
 30
0.0
 10
137.6739
 20
15.0195
 30
0.0
  0
SPLINE
  5
5A
330
1F
100
AcDbEntity
  8
layer 1
 62
     7
100
AcDbSpline
210
0.0
220
0.0
230
1.0
 70
    11
 71
     3
 72
    28
 73
    24
 74
     0
 42
0.0000000001
 43
0.0000000001
 12
1.0
 22
0.0
 32
0.0
 13
1.0
 23
0.0
 33
0.0
 40
0.0
 40
0.0
 40
0.0
 40
0.0
 40
0.1428571428571428
 40
0.1428571428571428
 40
0.1428571428571428
 40
0.1428571428571428
 40
0.2857142857142857
 40
0.2857142857142857
 40
0.2857142857142857
 40
0.2857142857142857
 40
0.4285714285714285
 40
0.4285714285714285
 40
0.4285714285714285
 40
0.4285714285714285
 40
0.5714285714285714
 40
0.5714285714285714
 40
0.5714285714285714
 40
0.5714285714285714
 40
0.7142857142857143
 40
0.7142857142857143
 40
0.7142857142857143
 40
0.7142857142857143
 40
1.0
 40
1.0
 40
1.0
 40
1.0
 10
87.459
 20
-22.394
 30
0.0
 10
87.0682
 20
-34.3106
 30
0.0
 10
81.1437
 20
-38.4351
 30
0.0
 10
71.4803
 20
-38.4453
 30
0.0
 10
71.4803
 20
-38.4453
 30
0.0
 10
74.4171
 20
-39.7468
 30
0.0
 10
76.3022
 20
-46.4308
 30
0.0
 10
69.2898
 20
-49.363
 30
0.0
 10
69.2898
 20
-49.363
 30
0.0
 10
71.0217
 20
-52.7351
 30
0.0
 10
79.8982
 20
-53.677
 30
0.0
 10
85.6297
 20
-51.6137
 30
0.0
 10
85.6297
 20
-51.6137
 30
0.0
 10
82.6982
 20
-50.8277
 30
0.0
 10
79.8726
 20
-43.8998
 30
0.0
 10
84.1644
 20
-40.3471
 30
0.0
 10
84.1644
 20
-40.3471
 30
0.0
 10
88.8913
 20
-42.2699
 30
0.0
 10
90.6739
 20
-41.97
 30
0.0
 10
93.4701
 20
-40.5702
 30
0.0
 10
93.4701
 20
-40.5702
 30
0.0
 10
85.1638
 20
-33.5642
 30
0.0
 10
93.7981
 20
-27.9019
 30
0.0
 10
87.459
 20
-22.394
 30
0.0
  0
SPLINE
  5
5B
330
1F
100
AcDbEntity
  8
layer 1
 62
     7
100
AcDbSpline
210
0.0
220
0.0
230
1.0
 70
    11
 71
     3
 72
    20
 73
    16
 74
     0
 42
0.0000000001
 43
0.0000000001
 12
1.0
 22
0.0
 32
0.0
 13
1.0
 23
0.0
 33
0.0
 40
0.0
 40
0.0
 40
0.0
 40
0.0
 40
0.2
 40
0.2
 40
0.2
 40
0.2
 40
0.4
 40
0.4
 40
0.4
 40
0.4
 40
0.6
 40
0.6
 40
0.6
 40
0.6
 40
1.0
 40
1.0
 40
1.0
 40
1.0
 10
77.1198
 20
-20.2929
 30
0.0
 10
77.602
 20
-18.8344
 30
0.0
 10
79.4887
 20
-18.0922
 30
0.0
 10
79.3494
 20
-20.7398
 30
0.0
 10
79.3494
 20
-20.7398
 30
0.0
 10
79.2697
 20
-23.866
 30
0.0
 10
75.4684
 20
-30.7577
 30
0.0
 10
66.3655
 20
-27.1273
 30
0.0
 10
66.3655
 20
-27.1273
 30
0.0
 10
72.2673
 20
-26.3509
 30
0.0
 10
75.4025
 20
-23.6455
 30
0.0
 10
77.1198
 20
-20.293
 30
0.0
 10
77.1198
 20
-20.293
 30
0.0
 10
77.1198
 20
-20.293
 30
0.0
 10
77.1198
 20
-20.2929
 30
0.0
 10
77.1198
 20
-20.2929
 30
0.0
  0
SPLINE
  5
5C
330
1F
100
AcDbEntity
  8
layer 1
 62
     7
100
AcDbSpline
210
0.0
220
0.0
230
1.0
 70
    11
 71
     3
 72
    20
 73
    16
 74
     0
 42
0.0000000001
 43
0.0000000001
 12
1.0
 22
0.0
 32
0.0
 13
1.0
 23
0.0
 33
0.0
 40
0.0
 40
0.0
 40
0.0
 40
0.0
 40
0.2
 40
0.2
 40
0.2
 40
0.2
 40
0.4
 40
0.4
 40
0.4
 40
0.4
 40
0.6
 40
0.6
 40
0.6
 40
0.6
 40
1.0
 40
1.0
 40
1.0
 40
1.0
 10
87.0647
 20
-61.737
 30
0.0
 10
85.6023
 20
-63.1312
 30
0.0
 10
82.3013
 20
-62.9573
 30
0.0
 10
85.0761
 20
-59.6188
 30
0.0
 10
85.0761
 20
-59.6188
 30
0.0
 10
86.0719
 20
-58.5335
 30
0.0
 10
90.2106
 20
-55.386
 30
0.0
 10
93.0946
 20
-52.7654
 30
0.0
 10
93.0946
 20
-52.7654
 30
0.0
 10
91.0495
 20
-57.5754
 30
0.0
 10
87.5125
 20
-61.2931
 30
0.0
 10
87.0648
 20
-61.737
 30
0.0
 10
87.0648
 20
-61.737
 30
0.0
 10
87.0648
 20
-61.737
 30
0.0
 10
87.0647
 20
-61.737
 30
0.0
 10
87.0647
 20
-61.737
 30
0.0
  0
SPLINE
  5
5D
330
1F
100
AcDbEntity
  8
layer 1
 62
     7
100
AcDbSpline
210
0.0
220
0.0
230
1.0
 70
    11
 71
     3
 72
    48
 73
    44
 74
     0
 42
0.0000000001
 43
0.0000000001
 12
1.0
 22
0.0
 32
0.0
 13
1.0
 23
0.0
 33
0.0
 40
0.0
 40
0.0
 40
0.0
 40
0.0
 40
0.0833333333333333
 40
0.0833333333333333
 40
0.0833333333333333
 40
0.0833333333333333
 40
0.1666666666666667
 40
0.1666666666666667
 40
0.1666666666666667
 40
0.1666666666666667
 40
0.25
 40
0.25
 40
0.25
 40
0.25
 40
0.3333333333333333
 40
0.3333333333333333
 40
0.3333333333333333
 40
0.3333333333333333
 40
0.4166666666666667
 40
0.4166666666666667
 40
0.4166666666666667
 40
0.4166666666666667
 40
0.5
 40
0.5
 40
0.5
 40
0.5
 40
0.5833333333333334
 40
0.5833333333333334
 40
0.5833333333333334
 40
0.5833333333333334
 40
0.6666666666666666
 40
0.6666666666666666
 40
0.6666666666666666
 40
0.6666666666666666
 40
0.75
 40
0.75
 40
0.75
 40
0.75
 40
0.8333333333333334
 40
0.8333333333333334
 40
0.8333333333333334
 40
0.8333333333333334
 40
1.0
 40
1.0
 40
1.0
 40
1.0
 10
78.4597
 20
-4.0098
 30
0.0
 10
75.2406
 20
-8.4701
 30
0.0
 10
67.5163
 20
-6.4236
 30
0.0
 10
66.9806
 20
0.637
 30
0.0
 10
66.9806
 20
0.637
 30
0.0
 10
61.5609
 20
-3.4929
 30
0.0
 10
55.9896
 20
-16.4762
 30
0.0
 10
64.7901
 20
-26.4793
 30
0.0
 10
64.7901
 20
-26.4793
 30
0.0
 10
67.7543
 20
-25.0092
 30
0.0
 10
66.4692
 20
-18.9354
 30
0.0
 10
69.0191
 20
-14.3489
 30
0.0
 10
69.0191
 20
-14.3489
 30
0.0
 10
71.2506
 20
-10.3351
 30
0.0
 10
77.1718
 20
-7.3398
 30
0.0
 10
81.4646
 20
-11.164
 30
0.0
 10
81.4646
 20
-11.164
 30
0.0
 10
76.99
 20
-0.2793
 30
0.0
 10
85.5326
 20
3.3476
 30
0.0
 10
90.452
 20
2.2007
 30
0.0
 10
90.452
 20
2.2007
 30
0.0
 10
96.4465
 20
0.8032
 30
0.0
 10
99.9106
 20
-7.7182
 30
0.0
 10
92.1846
 20
-12.9299
 30
0.0
 10
92.1846
 20
-12.9299
 30
0.0
 10
107.3632
 20
-20.4661
 30
0.0
 10
90.5998
 20
-34.7184
 30
0.0
 10
94.9784
 20
-39.9137
 30
0.0
 10
94.9784
 20
-39.9137
 30
0.0
 10
99.5506
 20
-35.2162
 30
0.0
 10
109.5305
 20
-26.3603
 30
0.0
 10
106.2365
 20
-9.3041
 30
0.0
 10
106.2365
 20
-9.3041
 30
0.0
 10
105.4412
 20
-1.1784
 30
0.0
 10
96.4125
 20
8.7471
 30
0.0
 10
83.6007
 20
5.8715
 30
0.0
 10
83.6007
 20
5.8715
 30
0.0
 10
80.8454
 20
5.2531
 30
0.0
 10
72.642
 20
1.9341
 30
0.0
 10
78.4599
 20
-4.0099
 30
0.0
 10
78.4599
 20
-4.0099
 30
0.0
 10
78.4599
 20
-4.0099
 30
0.0
 10
78.4597
 20
-4.0098
 30
0.0
 10
78.4597
 20
-4.0098
 30
0.0
  0
SPLINE
  5
5E
330
1F
100
AcDbEntity
  8
layer 1
 62
     7
100
AcDbSpline
210
0.0
220
0.0
230
1.0
 70
    11
 71
     3
 72
    36
 73
    32
 74
     0
 42
0.0000000001
 43
0.0000000001
 12
1.0
 22
0.0
 32
0.0
 13
1.0
 23
0.0
 33
0.0
 40
0.0
 40
0.0
 40
0.0
 40
0.0
 40
0.1111111111111111
 40
0.1111111111111111
 40
0.1111111111111111
 40
0.1111111111111111
 40
0.2222222222222222
 40
0.2222222222222222
 40
0.2222222222222222
 40
0.2222222222222222
 40
0.3333333333333333
 40
0.3333333333333333
 40
0.3333333333333333
 40
0.3333333333333333
 40
0.4444444444444444
 40
0.4444444444444444
 40
0.4444444444444444
 40
0.4444444444444444
 40
0.5555555555555556
 40
0.5555555555555556
 40
0.5555555555555556
 40
0.5555555555555556
 40
0.6666666666666666
 40
0.6666666666666666
 40
0.6666666666666666
 40
0.6666666666666666
 40
0.7777777777777778
 40
0.7777777777777778
 40
0.7777777777777778
 40
0.7777777777777778
 40
1.0
 40
1.0
 40
1.0
 40
1.0
 10
183.7891
 20
-88.4562
 30
0.0
 10
178.4748
 20
-85.6065
 30
0.0
 10
177.6415
 20
-74.255
 30
0.0
 10
163.567
 20
-65.9098
 30
0.0
 10
163.567
 20
-65.9098
 30
0.0
 10
161.5938
 20
-64.3851
 30
0.0
 10
162.2738
 20
-61.6736
 30
0.0
 10
164.3844
 20
-63.5458
 30
0.0
 10
164.3844
 20
-63.5458
 30
0.0
 10
170.4676
 20
-70.5085
 30
0.0
 10
178.3876
 20
-65.9155
 30
0.0
 10
181.5098
 20
-70.0816
 30
0.0
 10
181.5098
 20
-70.0816
 30
0.0
 10
182.0018
 20
-61.4541
 30
0.0
 10
172.7813
 20
-57.1059
 30
0.0
 10
170.1984
 20
-57.332
 30
0.0
 10
170.1984
 20
-57.332
 30
0.0
 10
179.0861
 20
-54.9647
 30
0.0
 10
179.1002
 20
-40.3993
 30
0.0
 10
171.3528
 20
-37.3596
 30
0.0
 10
171.3528
 20
-37.3596
 30
0.0
 10
175.705
 20
-35.9591
 30
0.0
 10
182.4114
 20
-30.4599
 30
0.0
 10
183.7891
 20
-23.8282
 30
0.0
 10
183.7891
 20
-23.8282
 30
0.0
 10
183.7891
 20
-36.5176
 30
0.0
 10
183.7891
 20
-75.0792
 30
0.0
 10
183.7891
 20
-88.4563
 30
0.0
 10
183.7891
 20
-88.4563
 30
0.0
 10
183.7891
 20
-88.4563
 30
0.0
 10
183.7891
 20
-88.4562
 30
0.0
 10
183.7891
 20
-88.4562
 30
0.0
  0
SPLINE
  5
5F
330
1F
100
AcDbEntity
  8
layer 1
 62
     7
100
AcDbSpline
210
0.0
220
0.0
230
1.0
 70
    11
 71
     3
 72
    28
 73
    24
 74
     0
 42
0.0000000001
 43
0.0000000001
 12
1.0
 22
0.0
 32
0.0
 13
1.0
 23
0.0
 33
0.0
 40
0.0
 40
0.0
 40
0.0
 40
0.0
 40
0.1428571428571428
 40
0.1428571428571428
 40
0.1428571428571428
 40
0.1428571428571428
 40
0.2857142857142857
 40
0.2857142857142857
 40
0.2857142857142857
 40
0.2857142857142857
 40
0.4285714285714285
 40
0.4285714285714285
 40
0.4285714285714285
 40
0.4285714285714285
 40
0.5714285714285714
 40
0.5714285714285714
 40
0.5714285714285714
 40
0.5714285714285714
 40
0.7142857142857143
 40
0.7142857142857143
 40
0.7142857142857143
 40
0.7142857142857143
 40
1.0
 40
1.0
 40
1.0
 40
1.0
 10
163.5388
 20
-91.2531
 30
0.0
 10
161.4952
 20
-87.324
 30
0.0
 10
162.3014
 20
-87.6711
 30
0.0
 10
160.9176
 20
-80.2515
 30
0.0
 10
160.9176
 20
-80.2515
 30
0.0
 10
160.4257
 20
-77.6135
 30
0.0
 10
158.6274
 20
-75.4729
 30
0.0
 10
157.264
 20
-70.5539
 30
0.0
 10
157.264
 20
-70.5539
 30
0.0
 10
156.9755
 20
-67.1491
 30
0.0
 10
158.8757
 20
-68.4494
 30
0.0
 10
159.8189
 20
-70.7031
 30
0.0
 10
159.8189
 20
-70.7031
 30
0.0
 10
164.6222
 20
-83.46
 30
0.0
 10
171.5414
 20
-85.9293
 30
0.0
 10
179.1135
 20
-91.2531
 30
0.0
 10
179.1135
 20
-91.2531
 30
0.0
 10
166.4241
 20
-91.2531
 30
0.0
 10
176.9158
 20
-91.2531
 30
0.0
 10
163.5386
 20
-91.2531
 30
0.0
 10
163.5386
 20
-91.2531
 30
0.0
 10
163.5386
 20
-91.2531
 30
0.0
 10
163.5388
 20
-91.2531
 30
0.0
 10
163.5388
 20
-91.2531
 30
0.0
  0
SPLINE
  5
60
330
1F
100
AcDbEntity
  8
layer 1
 62
     7
100
AcDbSpline
210
0.0
220
0.0
230
1.0
 70
    11
 71
     3
 72
    24
 73
    20
 74
     0
 42
0.0000000001
 43
0.0000000001
 12
1.0
 22
0.0
 32
0.0
 13
1.0
 23
0.0
 33
0.0
 40
0.0
 40
0.0
 40
0.0
 40
0.0
 40
0.1666666666666667
 40
0.1666666666666667
 40
0.1666666666666667
 40
0.1666666666666667
 40
0.3333333333333333
 40
0.3333333333333333
 40
0.3333333333333333
 40
0.3333333333333333
 40
0.5
 40
0.5
 40
0.5
 40
0.5
 40
0.6666666666666666
 40
0.6666666666666666
 40
0.6666666666666666
 40
0.6666666666666666
 40
1.0
 40
1.0
 40
1.0
 40
1.0
 10
140.5788
 20
-91.2531
 30
0.0
 10
150.5429
 20
-87.764
 30
0.0
 10
151.3801
 20
-80.6607
 30
0.0
 10
151.966
 20
-75.7543
 30
0.0
 10
151.966
 20
-75.7543
 30
0.0
 10
152.1206
 20
-74.4587
 30
0.0
 10
152.7871
 20
-75.8472
 30
0.0
 10
152.9141
 20
-76.1486
 30
0.0
 10
152.9141
 20
-76.1486
 30
0.0
 10
154.8068
 20
-80.2051
 30
0.0
 10
152.9316
 20
-85.9292
 30
0.0
 10
160.5037
 20
-91.2531
 30
0.0
 10
160.5037
 20
-91.2531
 30
0.0
 10
147.8144
 20
-91.2531
 30
0.0
 10
153.9558
 20
-91.2531
 30
0.0
 10
140.5786
 20
-91.2531
 30
0.0
 10
140.5786
 20
-91.2531
 30
0.0
 10
140.5786
 20
-91.2531
 30
0.0
 10
140.5788
 20
-91.2531
 30
0.0
 10
140.5788
 20
-91.2531
 30
0.0
  0
SPLINE
  5
61
330
1F
100
AcDbEntity
  8
layer 1
 62
     7
100
AcDbSpline
210
0.0
220
0.0
230
1.0
 70
    11
 71
     3
 72
    20
 73
    16
 74
     0
 42
0.0000000001
 43
0.0000000001
 12
1.0
 22
0.0
 32
0.0
 13
1.0
 23
0.0
 33
0.0
 40
0.0
 40
0.0
 40
0.0
 40
0.0
 40
0.2
 40
0.2
 40
0.2
 40
0.2
 40
0.4
 40
0.4
 40
0.4
 40
0.4
 40
0.6
 40
0.6
 40
0.6
 40
0.6
 40
1.0
 40
1.0
 40
1.0
 40
1.0
 10
121.3163
 20
-49.5932
 30
0.0
 10
121.0522
 20
-44.4461
 30
0.0
 10
119.7487
 20
-42.6646
 30
0.0
 10
117.7651
 20
-40.9738
 30
0.0
 10
117.7651
 20
-40.9738
 30
0.0
 10
115.7817
 20
-42.6647
 30
0.0
 10
114.4782
 20
-44.4463
 30
0.0
 10
114.214
 20
-49.5932
 30
0.0
 10
114.214
 20
-49.5932
 30
0.0
 10
114.1719
 20
-54.7646
 30
0.0
 10
115.0325
 20
-56.8787
 30
0.0
 10
117.7651
 20
-60.6803
 30
0.0
 10
117.7651
 20
-60.6803
 30
0.0
 10
120.4977
 20
-56.8788
 30
0.0
 10
121.3583
 20
-54.7647
 30
0.0
 10
121.3163
 20
-49.5932
 30
0.0
  0
SPLINE
  5
62
330
1F
100
AcDbEntity
  8
layer 1
 62
     7
100
AcDbSpline
210
0.0
220
0.0
230
1.0
 70
    11
 71
     3
 72
    56
 73
    52
 74
     0
 42
0.0000000001
 43
0.0000000001
 12
1.0
 22
0.0
 32
0.0
 13
1.0
 23
0.0
 33
0.0
 40
0.0
 40
0.0
 40
0.0
 40
0.0
 40
0.0714285714285714
 40
0.0714285714285714
 40
0.0714285714285714
 40
0.0714285714285714
 40
0.1428571428571428
 40
0.1428571428571428
 40
0.1428571428571428
 40
0.1428571428571428
 40
0.2142857142857143
 40
0.2142857142857143
 40
0.2142857142857143
 40
0.2142857142857143
 40
0.2857142857142857
 40
0.2857142857142857
 40
0.2857142857142857
 40
0.2857142857142857
 40
0.3571428571428572
 40
0.3571428571428572
 40
0.3571428571428572
 40
0.3571428571428572
 40
0.4285714285714285
 40
0.4285714285714285
 40
0.4285714285714285
 40
0.4285714285714285
 40
0.5
 40
0.5
 40
0.5
 40
0.5
 40
0.5714285714285714
 40
0.5714285714285714
 40
0.5714285714285714
 40
0.5714285714285714
 40
0.6428571428571429
 40
0.6428571428571429
 40
0.6428571428571429
 40
0.6428571428571429
 40
0.7142857142857143
 40
0.7142857142857143
 40
0.7142857142857143
 40
0.7142857142857143
 40
0.7857142857142857
 40
0.7857142857142857
 40
0.7857142857142857
 40
0.7857142857142857
 40
0.8571428571428571
 40
0.8571428571428571
 40
0.8571428571428571
 40
0.8571428571428571
 40
1.0
 40
1.0
 40
1.0
 40
1.0
 10
127.8739
 20
-62.162
 30
0.0
 10
133.7471
 20
-60.7312
 30
0.0
 10
139.2634
 20
-66.9017
 30
0.0
 10
134.7811
 20
-72.574
 30
0.0
 10
134.7811
 20
-72.574
 30
0.0
 10
130.6883
 20
-68.0273
 30
0.0
 10
126.4441
 20
-73.2818
 30
0.0
 10
127.7186
 20
-77.4177
 30
0.0
 10
127.7186
 20
-77.4177
 30
0.0
 10
130.3255
 20
-85.8766
 30
0.0
 10
138.3424
 20
-82.2681
 30
0.0
 10
138.8228
 20
-81.8843
 30
0.0
 10
138.8228
 20
-81.8843
 30
0.0
 10
149.8741
 20
-73.0538
 30
0.0
 10
136.4697
 20
-55.8651
 30
0.0
 10
135.7301
 20
-54.8361
 30
0.0
 10
135.7301
 20
-54.8361
 30
0.0
 10
127.4903
 20
-43.3729
 30
0.0
 10
117.8055
 20
-30.6717
 30
0.0
 10
117.7148
 20
-20.1451
 30
0.0
 10
117.7148
 20
-20.1451
 30
0.0
 10
117.6241
 20
-30.4701
 30
0.0
 10
108.0401
 20
-43.3729
 30
0.0
 10
99.8003
 20
-54.8361
 30
0.0
 10
99.8003
 20
-54.8361
 30
0.0
 10
99.0606
 20
-55.8651
 30
0.0
 10
85.6563
 20
-73.0539
 30
0.0
 10
96.7076
 20
-81.8843
 30
0.0
 10
96.7076
 20
-81.8843
 30
0.0
 10
97.188
 20
-82.2681
 30
0.0
 10
105.2051
 20
-85.8766
 30
0.0
 10
107.8118
 20
-77.4177
 30
0.0
 10
107.8118
 20
-77.4177
 30
0.0
 10
109.0863
 20
-73.2818
 30
0.0
 10
104.8422
 20
-68.0274
 30
0.0
 10
100.7493
 20
-72.574
 30
0.0
 10
100.7493
 20
-72.574
 30
0.0
 10
96.267
 20
-66.9017
 30
0.0
 10
101.7832
 20
-60.7312
 30
0.0
 10
107.6565
 20
-62.162
 30
0.0
 10
107.6565
 20
-62.162
 30
0.0
 10
103.352
 20
-47.8792
 30
0.0
 10
113.7211
 20
-39.7198
 30
0.0
 10
117.7653
 20
-39.0401
 30
0.0
 10
117.7653
 20
-39.0401
 30
0.0
 10
121.8093
 20
-39.7198
 30
0.0
 10
132.1785
 20
-47.8792
 30
0.0
 10
127.874
 20
-62.162
 30
0.0
 10
127.874
 20
-62.162
 30
0.0
 10
127.874
 20
-62.162
 30
0.0
 10
127.8739
 20
-62.162
 30
0.0
 10
127.8739
 20
-62.162
 30
0.0
  0
SPLINE
  5
63
330
1F
100
AcDbEntity
  8
layer 1
 62
     7
100
AcDbSpline
210
0.0
220
0.0
230
1.0
 70
    11
 71
     3
 72
    28
 73
    24
 74
     0
 42
0.0000000001
 43
0.0000000001
 12
1.0
 22
0.0
 32
0.0
 13
1.0
 23
0.0
 33
0.0
 40
0.0
 40
0.0
 40
0.0
 40
0.0
 40
0.1428571428571428
 40
0.1428571428571428
 40
0.1428571428571428
 40
0.1428571428571428
 40
0.2857142857142857
 40
0.2857142857142857
 40
0.2857142857142857
 40
0.2857142857142857
 40
0.4285714285714285
 40
0.4285714285714285
 40
0.4285714285714285
 40
0.4285714285714285
 40
0.5714285714285714
 40
0.5714285714285714
 40
0.5714285714285714
 40
0.5714285714285714
 40
0.7142857142857143
 40
0.7142857142857143
 40
0.7142857142857143
 40
0.7142857142857143
 40
1.0
 40
1.0
 40
1.0
 40
1.0
 10
148.0713
 20
-22.394
 30
0.0
 10
148.4621
 20
-34.3106
 30
0.0
 10
154.3866
 20
-38.4351
 30
0.0
 10
164.05
 20
-38.4453
 30
0.0
 10
164.05
 20
-38.4453
 30
0.0
 10
161.1132
 20
-39.7468
 30
0.0
 10
159.2281
 20
-46.4308
 30
0.0
 10
166.2404
 20
-49.363
 30
0.0
 10
166.2404
 20
-49.363
 30
0.0
 10
164.5086
 20
-52.7351
 30
0.0
 10
155.6321
 20
-53.677
 30
0.0
 10
149.9006
 20
-51.6137
 30
0.0
 10
149.9006
 20
-51.6137
 30
0.0
 10
152.8321
 20
-50.8277
 30
0.0
 10
155.6577
 20
-43.8998
 30
0.0
 10
151.3659
 20
-40.3471
 30
0.0
 10
151.3659
 20
-40.3471
 30
0.0
 10
146.6389
 20
-42.2699
 30
0.0
 10
144.8564
 20
-41.97
 30
0.0
 10
142.0602
 20
-40.5702
 30
0.0
 10
142.0602
 20
-40.5702
 30
0.0
 10
150.3665
 20
-33.5642
 30
0.0
 10
141.7322
 20
-27.9019
 30
0.0
 10
148.0713
 20
-22.394
 30
0.0
  0
SPLINE
  5
64
330
1F
100
AcDbEntity
  8
layer 1
 62
     7
100
AcDbSpline
210
0.0
220
0.0
230
1.0
 70
    11
 71
     3
 72
    20
 73
    16
 74
     0
 42
0.0000000001
 43
0.0000000001
 12
1.0
 22
0.0
 32
0.0
 13
1.0
 23
0.0
 33
0.0
 40
0.0
 40
0.0
 40
0.0
 40
0.0
 40
0.2
 40
0.2
 40
0.2
 40
0.2
 40
0.4
 40
0.4
 40
0.4
 40
0.4
 40
0.6
 40
0.6
 40
0.6
 40
0.6
 40
1.0
 40
1.0
 40
1.0
 40
1.0
 10
158.4105
 20
-20.2929
 30
0.0
 10
157.9283
 20
-18.8344
 30
0.0
 10
156.0416
 20
-18.0922
 30
0.0
 10
156.1809
 20
-20.7398
 30
0.0
 10
156.1809
 20
-20.7398
 30
0.0
 10
156.2606
 20
-23.866
 30
0.0
 10
160.0619
 20
-30.7577
 30
0.0
 10
169.1648
 20
-27.1273
 30
0.0
 10
169.1648
 20
-27.1273
 30
0.0
 10
163.263
 20
-26.3509
 30
0.0
 10
160.1278
 20
-23.6455
 30
0.0
 10
158.4105
 20
-20.293
 30
0.0
 10
158.4105
 20
-20.293
 30
0.0
 10
158.4105
 20
-20.293
 30
0.0
 10
158.4105
 20
-20.2929
 30
0.0
 10
158.4105
 20
-20.2929
 30
0.0
  0
SPLINE
  5
65
330
1F
100
AcDbEntity
  8
layer 1
 62
     7
100
AcDbSpline
210
0.0
220
0.0
230
1.0
 70
    11
 71
     3
 72
    20
 73
    16
 74
     0
 42
0.0000000001
 43
0.0000000001
 12
1.0
 22
0.0
 32
0.0
 13
1.0
 23
0.0
 33
0.0
 40
0.0
 40
0.0
 40
0.0
 40
0.0
 40
0.2
 40
0.2
 40
0.2
 40
0.2
 40
0.4
 40
0.4
 40
0.4
 40
0.4
 40
0.6
 40
0.6
 40
0.6
 40
0.6
 40
1.0
 40
1.0
 40
1.0
 40
1.0
 10
148.4656
 20
-61.737
 30
0.0
 10
149.928
 20
-63.1312
 30
0.0
 10
153.229
 20
-62.9573
 30
0.0
 10
150.4542
 20
-59.6188
 30
0.0
 10
150.4542
 20
-59.6188
 30
0.0
 10
149.4584
 20
-58.5335
 30
0.0
 10
145.3197
 20
-55.386
 30
0.0
 10
142.4357
 20
-52.7654
 30
0.0
 10
142.4357
 20
-52.7654
 30
0.0
 10
144.4808
 20
-57.5754
 30
0.0
 10
148.0178
 20
-61.2931
 30
0.0
 10
148.4655
 20
-61.737
 30
0.0
 10
148.4655
 20
-61.737
 30
0.0
 10
148.4655
 20
-61.737
 30
0.0
 10
148.4656
 20
-61.737
 30
0.0
 10
148.4656
 20
-61.737
 30
0.0
  0
SPLINE
  5
66
330
1F
100
AcDbEntity
  8
layer 1
 62
     7
100
AcDbSpline
210
0.0
220
0.0
230
1.0
 70
    11
 71
     3
 72
    48
 73
    44
 74
     0
 42
0.0000000001
 43
0.0000000001
 12
1.0
 22
0.0
 32
0.0
 13
1.0
 23
0.0
 33
0.0
 40
0.0
 40
0.0
 40
0.0
 40
0.0
 40
0.0833333333333333
 40
0.0833333333333333
 40
0.0833333333333333
 40
0.0833333333333333
 40
0.1666666666666667
 40
0.1666666666666667
 40
0.1666666666666667
 40
0.1666666666666667
 40
0.25
 40
0.25
 40
0.25
 40
0.25
 40
0.3333333333333333
 40
0.3333333333333333
 40
0.3333333333333333
 40
0.3333333333333333
 40
0.4166666666666667
 40
0.4166666666666667
 40
0.4166666666666667
 40
0.4166666666666667
 40
0.5
 40
0.5
 40
0.5
 40
0.5
 40
0.5833333333333334
 40
0.5833333333333334
 40
0.5833333333333334
 40
0.5833333333333334
 40
0.6666666666666666
 40
0.6666666666666666
 40
0.6666666666666666
 40
0.6666666666666666
 40
0.75
 40
0.75
 40
0.75
 40
0.75
 40
0.8333333333333334
 40
0.8333333333333334
 40
0.8333333333333334
 40
0.8333333333333334
 40
1.0
 40
1.0
 40
1.0
 40
1.0
 10
157.0704
 20
-4.0098
 30
0.0
 10
160.2895
 20
-8.4701
 30
0.0
 10
168.0139
 20
-6.4236
 30
0.0
 10
168.5496
 20
0.637
 30
0.0
 10
168.5496
 20
0.637
 30
0.0
 10
173.9692
 20
-3.4929
 30
0.0
 10
179.5405
 20
-16.4762
 30
0.0
 10
170.74
 20
-26.4793
 30
0.0
 10
170.74
 20
-26.4793
 30
0.0
 10
167.7758
 20
-25.0092
 30
0.0
 10
169.061
 20
-18.9354
 30
0.0
 10
166.5111
 20
-14.3489
 30
0.0
 10
166.5111
 20
-14.3489
 30
0.0
 10
164.2795
 20
-10.3351
 30
0.0
 10
158.3584
 20
-7.3398
 30
0.0
 10
154.0656
 20
-11.164
 30
0.0
 10
154.0656
 20
-11.164
 30
0.0
 10
158.5402
 20
-0.2793
 30
0.0
 10
149.9976
 20
3.3476
 30
0.0
 10
145.0782
 20
2.2007
 30
0.0
 10
145.0782
 20
2.2007
 30
0.0
 10
139.0837
 20
0.8032
 30
0.0
 10
135.6196
 20
-7.7182
 30
0.0
 10
143.3456
 20
-12.9299
 30
0.0
 10
143.3456
 20
-12.9299
 30
0.0
 10
128.167
 20
-20.4661
 30
0.0
 10
144.9304
 20
-34.7184
 30
0.0
 10
140.5518
 20
-39.9137
 30
0.0
 10
140.5518
 20
-39.9137
 30
0.0
 10
135.9796
 20
-35.2162
 30
0.0
 10
125.9997
 20
-26.3603
 30
0.0
 10
129.2937
 20
-9.3041
 30
0.0
 10
129.2937
 20
-9.3041
 30
0.0
 10
130.089
 20
-1.1784
 30
0.0
 10
139.1176
 20
8.7471
 30
0.0
 10
151.9295
 20
5.8715
 30
0.0
 10
151.9295
 20
5.8715
 30
0.0
 10
154.6848
 20
5.2531
 30
0.0
 10
162.8881
 20
1.9341
 30
0.0
 10
157.0703
 20
-4.0099
 30
0.0
 10
157.0703
 20
-4.0099
 30
0.0
 10
157.0703
 20
-4.0099
 30
0.0
 10
157.0704
 20
-4.0098
 30
0.0
 10
157.0704
 20
-4.0098
 30
0.0
  0
ENDSEC
  0
SECTION
  2
OBJECTS
  0
DICTIONARY
  5
C
330
0
100
AcDbDictionary
281
     1
  3
ACAD_GROUP
350
D
  3
ACAD_LAYOUT
350
1A
  3
ACAD_MATERIAL
350
3B
  3
ACAD_MLEADERSTYLE
350
88
  3
ACAD_MLINESTYLE
350
17
  3
ACAD_PLOTSETTINGS
350
19
  3
ACAD_PLOTSTYLENAME
350
E
  3
ACAD_TABLESTYLE
350
87
  3
ACAD_VISUALSTYLE
350
2A
  0
DICTIONARY
  5
D
102
{ACAD_REACTORS
330
C
102
}
330
C
100
AcDbDictionary
281
     1
  0
DICTIONARY
  5
1A
102
{ACAD_REACTORS
330
C
102
}
330
C
100
AcDbDictionary
281
     1
  3
Layout1
350
1E
  3
Layout2
350
26
  3
Model
350
22
  0
DICTIONARY
  5
3B
102
{ACAD_REACTORS
330
C
102
}
330
C
100
AcDbDictionary
281
     1
  3
ByBlock
350
3D
  3
ByLayer
350
3C
  3
Global
350
3E
  0
DICTIONARY
  5
88
102
{ACAD_REACTORS
330
C
102
}
330
C
100
AcDbDictionary
281
     1
  0
DICTIONARY
  5
17
102
{ACAD_REACTORS
330
C
102
}
330
C
100
AcDbDictionary
281
     1
  3
Standard
350
18
  0
DICTIONARY
  5
19
102
{ACAD_REACTORS
330
C
102
}
330
C
100
AcDbDictionary
281
     1
  0
ACDBDICTIONARYWDFLT
  5
E
102
{ACAD_REACTORS
330
C
102
}
330
C
100
AcDbDictionary
281
     1
  3
Normal
350
F
100
AcDbDictionaryWithDefault
340
F
  0
DICTIONARY
  5
87
102
{ACAD_REACTORS
330
C
102
}
330
C
100
AcDbDictionary
281
     1
  0
DICTIONARY
  5
2A
102
{ACAD_REACTORS
330
C
102
}
330
C
100
AcDbDictionary
281
     1
  3
2dWireframe
350
2F
  3
3D Hidden
350
31
  3
3dWireframe
350
30
  3
Basic
350
32
  3
Brighten
350
36
  3
ColorChange
350
3A
  3
Conceptual
350
34
  3
Dim
350
35
  3
Facepattern
350
39
  3
Flat
350
2B
  3
FlatWithEdges
350
2C
  3
Gouraud
350
2D
  3
GouraudWithEdges
350
2E
  3
Linepattern
350
38
  3
Realistic
350
33
  3
Thicken
350
37
  0
LAYOUT
  5
1E
102
{ACAD_REACTORS
330
1A
102
}
330
1A
100
AcDbPlotSettings
  1

  2
none_device
  4

  6

 40
0.0
 41
0.0
 42
0.0
 43
0.0
 44
0.0
 45
0.0
 46
0.0
 47
0.0
 48
0.0
 49
0.0
140
0.0
141
0.0
142
1.0
143
1.0
 70
   688
 72
     0
 73
     0
 74
     5
  7

 75
    16
 76
     0
 77
     2
 78
   300
147
1.0
148
0.0
149
0.0
100
AcDbLayout
  1
Layout1
 70
     1
 71
     1
 10
0.0
 20
0.0
 11
12.0
 21
9.0
 12
0.0
 22
0.0
 32
0.0
 14
1.000000000000000E+20
 24
1.000000000000000E+20
 34
1.000000000000000E+20
 15
-1.000000000000000E+20
 25
-1.000000000000000E+20
 35
-1.000000000000000E+20
146
0.0
 13
0.0
 23
0.0
 33
0.0
 16
1.0
 26
0.0
 36
0.0
 17
0.0
 27
1.0
 37
0.0
 76
     0
330
1B
  0
LAYOUT
  5
26
102
{ACAD_REACTORS
330
1A
102
}
330
1A
100
AcDbPlotSettings
  1

  2
none_device
  4

  6

 40
0.0
 41
0.0
 42
0.0
 43
0.0
 44
0.0
 45
0.0
 46
0.0
 47
0.0
 48
0.0
 49
0.0
140
0.0
141
0.0
142
1.0
143
1.0
 70
   688
 72
     0
 73
     0
 74
     5
  7

 75
    16
 76
     0
 77
     2
 78
   300
147
1.0
148
0.0
149
0.0
100
AcDbLayout
  1
Layout2
 70
     1
 71
     2
 10
0.0
 20
0.0
 11
0.0
 21
0.0
 12
0.0
 22
0.0
 32
0.0
 14
0.0
 24
0.0
 34
0.0
 15
0.0
 25
0.0
 35
0.0
146
0.0
 13
0.0
 23
0.0
 33
0.0
 16
1.0
 26
0.0
 36
0.0
 17
0.0
 27
1.0
 37
0.0
 76
     0
330
23
  0
LAYOUT
  5
22
102
{ACAD_REACTORS
330
1A
102
}
330
1A
100
AcDbPlotSettings
  1

  2
none_device
  4

  6

 40
0.0
 41
0.0
 42
0.0
 43
0.0
 44
0.0
 45
0.0
 46
0.0
 47
0.0
 48
0.0
 49
0.0
140
0.0
141
0.0
142
1.0
143
1.0
 70
  1712
 72
     0
 73
     0
 74
     0
  7

 75
     0
 76
     0
 77
     2
 78
   300
147
1.0
148
0.0
149
0.0
100
AcDbLayout
  1
Model
 70
     1
 71
     0
 10
0.0
 20
0.0
 11
12.0
 21
9.0
 12
0.0
 22
0.0
 32
0.0
 14
39.239
 24
-100.289
 34
0.0
 15
196.2913
 25
130.328
 35
0.0
146
0.0
 13
0.0
 23
0.0
 33
0.0
 16
1.0
 26
0.0
 36
0.0
 17
0.0
 27
1.0
 37
0.0
 76
     0
330
1F
331
29
  0
MATERIAL
  5
3D
102
{ACAD_REACTORS
330
3B
102
}
330
3B
100
AcDbMaterial
  1
ByBlock
 72
     1
 94
      127
  0
MATERIAL
  5
3C
102
{ACAD_REACTORS
330
3B
102
}
330
3B
100
AcDbMaterial
  1
ByLayer
 72
     1
 94
      127
  0
MATERIAL
  5
3E
102
{ACAD_REACTORS
330
3B
102
}
330
3B
100
AcDbMaterial
  1
Global
 72
     1
 94
      127
  0
MLINESTYLE
  5
18
102
{ACAD_REACTORS
330
17
102
}
330
17
100
AcDbMlineStyle
  2
Standard
 70
     0
  3

 62
   256
 51
90.0
 52
90.0
 71
     2
 49
0.5
 62
   256
  6
BYLAYER
 49
-0.5
 62
   256
  6
BYLAYER
  0
ACDBPLACEHOLDER
  5
F
102
{ACAD_REACTORS
330
E
102
}
330
E
  0
VISUALSTYLE
  5
2F
102
{ACAD_REACTORS
330
2A
102
}
102
{ACAD_XDICTIONARY
360
6F
102
}
330
2A
100
AcDbVisualStyle
  2
2dWireframe
 70
     4
 71
     0
 72
     2
 73
     0
 90
        0
 40
-0.6
 41
-30.0
 62
     5
 63
     7
421
 16777215
 74
     1
 91
        4
 64
     7
 65
   257
 75
     1
175
     1
 42
1.0
 92
        0
 66
   257
 43
1.0
 76
     1
 77
     6
 78
     2
 67
     7
 79
     5
170
     0
171
     0
290
     0
174
     0
 93
        1
 44
0.0
173
     0
291
     0
 45
0.0
  0
VISUALSTYLE
  5
31
102
{ACAD_REACTORS
330
2A
102
}
102
{ACAD_XDICTIONARY
360
73
102
}
330
2A
100
AcDbVisualStyle
  2
3D Hidden
 70
     6
 71
     1
 72
     2
 73
     2
 90
        0
 40
-0.6
 41
-30.0
 62
     5
 63
     7
421
 16777215
 74
     2
 91
        2
 64
     7
 65
   257
 75
     2
175
     1
 42
40.0
 92
        0
 66
   257
 43
1.0
 76
     1
 77
     6
 78
     2
 67
     7
 79
     3
170
     0
171
     0
290
     0
174
     0
 93
        1
 44
0.0
173
     0
291
     0
 45
0.0
  0
VISUALSTYLE
  5
30
102
{ACAD_REACTORS
330
2A
102
}
102
{ACAD_XDICTIONARY
360
71
102
}
330
2A
100
AcDbVisualStyle
  2
3dWireframe
 70
     5
 71
     0
 72
     2
 73
     0
 90
        0
 40
-0.6
 41
-30.0
 62
     5
 63
     7
421
 16777215
 74
     1
 91
        4
 64
     7
 65
   257
 75
     1
175
     1
 42
1.0
 92
        0
 66
   257
 43
1.0
 76
     1
 77
     6
 78
     2
 67
     7
 79
     5
170
     0
171
     0
290
     0
174
     0
 93
        1
 44
0.0
173
     0
291
     0
 45
0.0
  0
VISUALSTYLE
  5
32
102
{ACAD_REACTORS
330
2A
102
}
102
{ACAD_XDICTIONARY
360
75
102
}
330
2A
100
AcDbVisualStyle
  2
Basic
 70
     7
 71
     1
 72
     0
 73
     1
 90
        0
 40
-0.6
 41
-30.0
 62
     5
 63
     7
421
 16777215
 74
     0
 91
        4
 64
     7
 65
   257
 75
     1
175
     1
 42
1.0
 92
        8
 66
     7
 43
1.0
 76
     1
 77
     6
 78
     2
 67
     7
 79
     5
170
     0
171
     0
290
     0
174
     0
 93
        1
 44
0.0
173
     0
291
     1
 45
0.0
  0
VISUALSTYLE
  5
36
102
{ACAD_REACTORS
330
2A
102
}
102
{ACAD_XDICTIONARY
360
7D
102
}
330
2A
100
AcDbVisualStyle
  2
Brighten
 70
    12
 71
     2
 72
     2
 73
     0
 90
        0
 40
-0.6
 41
-30.0
 62
     5
 63
     7
421
 16777215
 74
     1
 91
        4
 64
     7
 65
   257
 75
     1
175
     1
 42
1.0
 92
        8
 66
     7
 43
1.0
 76
     1
 77
     6
 78
     2
 67
     7
 79
     5
170
     0
171
     0
290
     0
174
     0
 93
        1
 44
50.0
173
     0
291
     1
 45
0.0
  0
VISUALSTYLE
  5
3A
102
{ACAD_REACTORS
330
2A
102
}
102
{ACAD_XDICTIONARY
360
85
102
}
330
2A
100
AcDbVisualStyle
  2
ColorChange
 70
    16
 71
     2
 72
     2
 73
     3
 90
        0
 40
-0.6
 41
-30.0
 62
     5
 63
     8
421
  8421504
 74
     1
 91
        4
 64
     7
 65
   257
 75
     1
175
     1
 42
1.0
 92
        8
 66
     8
424
  8421504
 43
1.0
 76
     1
 77
     6
 78
     2
 67
     7
 79
     5
170
     0
171
     0
290
     0
174
     0
 93
        1
 44
0.0
173
     0
291
     1
 45
0.0
  0
VISUALSTYLE
  5
34
102
{ACAD_REACTORS
330
2A
102
}
102
{ACAD_XDICTIONARY
360
79
102
}
330
2A
100
AcDbVisualStyle
  2
Conceptual
 70
     9
 71
     3
 72
     2
 73
     0
 90
        0
 40
-0.6
 41
-30.0
 62
     5
 63
     7
421
 16777215
 74
     2
 91
        2
 64
     7
 65
   257
 75
     1
175
     1
 42
40.0
 92
        8
 66
     7
 43
1.0
 76
     1
 77
     6
 78
     2
 67
     7
 79
     3
170
     0
171
     0
290
     0
174
     0
 93
        1
 44
0.0
173
     0
291
     0
 45
0.0
  0
VISUALSTYLE
  5
35
102
{ACAD_REACTORS
330
2A
102
}
102
{ACAD_XDICTIONARY
360
7B
102
}
330
2A
100
AcDbVisualStyle
  2
Dim
 70
    11
 71
     2
 72
     2
 73
     0
 90
        0
 40
-0.6
 41
-30.0
 62
     5
 63
     7
421
 16777215
 74
     1
 91
        4
 64
     7
 65
   257
 75
     1
175
     1
 42
1.0
 92
        8
 66
     7
 43
1.0
 76
     1
 77
     6
 78
     2
 67
     7
 79
     5
170
     0
171
     0
290
     0
174
     0
 93
        1
 44
-50.0
173
     0
291
     1
 45
0.0
  0
VISUALSTYLE
  5
39
102
{ACAD_REACTORS
330
2A
102
}
102
{ACAD_XDICTIONARY
360
83
102
}
330
2A
100
AcDbVisualStyle
  2
Facepattern
 70
    15
 71
     2
 72
     2
 73
     0
 90
        0
 40
-0.6
 41
-30.0
 62
     5
 63
     7
421
 16777215
 74
     1
 91
        4
 64
     7
 65
   257
 75
     1
175
     1
 42
1.0
 92
        8
 66
     7
 43
1.0
 76
     1
 77
     6
 78
     2
 67
     7
 79
     5
170
     0
171
     0
290
     0
174
     0
 93
        1
 44
0.0
173
     0
291
     1
 45
0.0
  0
VISUALSTYLE
  5
2B
102
{ACAD_REACTORS
330
2A
102
}
102
{ACAD_XDICTIONARY
360
67
102
}
330
2A
100
AcDbVisualStyle
  2
Flat
 70
     0
 71
     2
 72
     1
 73
     1
 90
        2
 40
-0.6
 41
30.0
 62
     5
 63
     7
421
 16777215
 74
     0
 91
        4
 64
     7
 65
   257
 75
     1
175
     1
 42
1.0
 92
        8
 66
     7
 43
1.0
 76
     1
 77
     6
 78
     2
 67
     7
 79
     5
170
     0
171
     0
290
     0
174
     0
 93
       13
 44
0.0
173
     0
291
     1
 45
0.0
  0
VISUALSTYLE
  5
2C
102
{ACAD_REACTORS
330
2A
102
}
102
{ACAD_XDICTIONARY
360
69
102
}
330
2A
100
AcDbVisualStyle
  2
FlatWithEdges
 70
     1
 71
     2
 72
     1
 73
     1
 90
        2
 40
-0.6
 41
30.0
 62
     5
 63
     7
421
 16777215
 74
     1
 91
        4
 64
     7
 65
   257
 75
     1
175
     1
 42
1.0
 92
        0
 66
   257
 43
1.0
 76
     1
 77
     6
 78
     2
 67
     7
 79
     5
170
     0
171
     0
290
     0
174
     0
 93
       13
 44
0.0
173
     0
291
     1
 45
0.0
  0
VISUALSTYLE
  5
2D
102
{ACAD_REACTORS
330
2A
102
}
102
{ACAD_XDICTIONARY
360
6B
102
}
330
2A
100
AcDbVisualStyle
  2
Gouraud
 70
     2
 71
     2
 72
     2
 73
     1
 90
        2
 40
-0.6
 41
30.0
 62
     5
 63
     7
421
 16777215
 74
     0
 91
        4
 64
     7
 65
   257
 75
     1
175
     1
 42
1.0
 92
        0
 66
     7
 43
1.0
 76
     1
 77
     6
 78
     2
 67
     7
 79
     5
170
     0
171
     0
290
     0
174
     0
 93
       13
 44
0.0
173
     0
291
     1
 45
0.0
  0
VISUALSTYLE
  5
2E
102
{ACAD_REACTORS
330
2A
102
}
102
{ACAD_XDICTIONARY
360
6D
102
}
330
2A
100
AcDbVisualStyle
  2
GouraudWithEdges
 70
     3
 71
     2
 72
     2
 73
     1
 90
        2
 40
-0.6
 41
30.0
 62
     5
 63
     7
421
 16777215
 74
     1
 91
        4
 64
     7
 65
   257
 75
     1
175
     1
 42
1.0
 92
        0
 66
   257
 43
1.0
 76
     1
 77
     6
 78
     2
 67
     7
 79
     5
170
     0
171
     0
290
     0
174
     0
 93
       13
 44
0.0
173
     0
291
     1
 45
0.0
  0
VISUALSTYLE
  5
38
102
{ACAD_REACTORS
330
2A
102
}
102
{ACAD_XDICTIONARY
360
81
102
}
330
2A
100
AcDbVisualStyle
  2
Linepattern
 70
    14
 71
     2
 72
     2
 73
     0
 90
        0
 40
-0.6
 41
-30.0
 62
     5
 63
     7
421
 16777215
 74
     1
 91
        4
 64
     7
 65
   257
 75
     7
175
     7
 42
1.0
 92
        8
 66
     7
 43
1.0
 76
     1
 77
     6
 78
     2
 67
     7
 79
     5
170
     0
171
     0
290
     0
174
     0
 93
        1
 44
0.0
173
     0
291
     1
 45
0.0
  0
VISUALSTYLE
  5
33
102
{ACAD_REACTORS
330
2A
102
}
102
{ACAD_XDICTIONARY
360
77
102
}
330
2A
100
AcDbVisualStyle
  2
Realistic
 70
     8
 71
     2
 72
     2
 73
     0
 90
        0
 40
-0.6
 41
-30.0
 62
     5
 63
     7
421
 16777215
 74
     1
 91
        0
 64
     7
 65
   257
 75
     1
175
     1
 42
1.0
 92
        8
 66
     8
424
  7895160
 43
1.0
 76
     1
 77
     6
 78
     2
 67
     7
 79
     5
170
     0
171
     0
290
     0
174
     0
 93
       13
 44
0.0
173
     0
291
     0
 45
0.0
  0
VISUALSTYLE
  5
37
102
{ACAD_REACTORS
330
2A
102
}
102
{ACAD_XDICTIONARY
360
7F
102
}
330
2A
100
AcDbVisualStyle
  2
Thicken
 70
    13
 71
     2
 72
     2
 73
     0
 90
        0
 40
-0.6
 41
-30.0
 62
     5
 63
     7
421
 16777215
 74
     1
 91
        4
 64
     7
 65
   257
 75
     1
175
     1
 42
1.0
 92
       12
 66
     7
 43
1.0
 76
     1
 77
     6
 78
     2
 67
     7
 79
     5
170
     0
171
     0
290
     0
174
     0
 93
        1
 44
0.0
173
     0
291
     1
 45
0.0
  0
DICTIONARY
  5
6F
330
2F
100
AcDbDictionary
280
     1
281
     1
  3
ACAD_XREC_ROUNDTRIP
360
70
  0
DICTIONARY
  5
73
330
31
100
AcDbDictionary
280
     1
281
     1
  3
ACAD_XREC_ROUNDTRIP
360
74
  0
DICTIONARY
  5
71
330
30
100
AcDbDictionary
280
     1
281
     1
  3
ACAD_XREC_ROUNDTRIP
360
72
  0
DICTIONARY
  5
75
330
32
100
AcDbDictionary
280
     1
281
     1
  3
ACAD_XREC_ROUNDTRIP
360
76
  0
DICTIONARY
  5
7D
330
36
100
AcDbDictionary
280
     1
281
     1
  3
ACAD_XREC_ROUNDTRIP
360
7E
  0
DICTIONARY
  5
85
330
3A
100
AcDbDictionary
280
     1
281
     1
  3
ACAD_XREC_ROUNDTRIP
360
86
  0
DICTIONARY
  5
79
330
34
100
AcDbDictionary
280
     1
281
     1
  3
ACAD_XREC_ROUNDTRIP
360
7A
  0
DICTIONARY
  5
7B
330
35
100
AcDbDictionary
280
     1
281
     1
  3
ACAD_XREC_ROUNDTRIP
360
7C
  0
DICTIONARY
  5
83
330
39
100
AcDbDictionary
280
     1
281
     1
  3
ACAD_XREC_ROUNDTRIP
360
84
  0
DICTIONARY
  5
67
330
2B
100
AcDbDictionary
280
     1
281
     1
  3
ACAD_XREC_ROUNDTRIP
360
68
  0
DICTIONARY
  5
69
330
2C
100
AcDbDictionary
280
     1
281
     1
  3
ACAD_XREC_ROUNDTRIP
360
6A
  0
DICTIONARY
  5
6B
330
2D
100
AcDbDictionary
280
     1
281
     1
  3
ACAD_XREC_ROUNDTRIP
360
6C
  0
DICTIONARY
  5
6D
330
2E
100
AcDbDictionary
280
     1
281
     1
  3
ACAD_XREC_ROUNDTRIP
360
6E
  0
DICTIONARY
  5
81
330
38
100
AcDbDictionary
280
     1
281
     1
  3
ACAD_XREC_ROUNDTRIP
360
82
  0
DICTIONARY
  5
77
330
33
100
AcDbDictionary
280
     1
281
     1
  3
ACAD_XREC_ROUNDTRIP
360
78
  0
DICTIONARY
  5
7F
330
37
100
AcDbDictionary
280
     1
281
     1
  3
ACAD_XREC_ROUNDTRIP
360
80
  0
XRECORD
  5
70
102
{ACAD_REACTORS
330
6F
102
}
330
6F
100
AcDbXrecord
280
     1
102
RTVSPropertyOp0
 70
     1
102
RTVSPropertyOp1
 70
     1
102
RTVSPropertyOp2
 70
     1
102
RTVSPropertyOp3
 70
     1
102
RTVSPropertyOp4
 70
     1
102
RTVSPropertyOp5
 70
     1
102
RTVSPropertyOp6
 70
     1
102
RTVSPropertyOp7
 70
     1
102
RTVSPropertyOp8
 70
     1
102
RTVSPropertyOp9
 70
     1
102
RTVSPropertyOp10
 70
     1
102
RTVSPropertyOp11
 70
     1
102
RTVSPropertyOp12
 70
     1
102
RTVSPropertyOp13
 70
     1
102
RTVSPropertyOp14
 70
     1
102
RTVSPropertyOp15
 70
     1
102
RTVSPropertyOp16
 70
     1
102
RTVSPropertyOp17
 70
     1
102
RTVSPropertyOp18
 70
     1
102
RTVSPropertyOp19
 70
     1
102
RTVSPropertyOp20
 70
     1
102
RTVSPropertyOp21
 70
     1
102
RTVSPropertyOp22
 70
     1
102
RTVSPropertyOp23
 70
     1
102
RTVSPropertyOp24
 70
     1
102
RTVSPropertyOp25
 70
     1
102
RTVSPropertyOp26
 70
     1
102
RTVSPropertyOp27
 70
     1
102
RTVSPropertyOp28
 70
     1
102
RTVSPropertyOp29
 70
     1
102
RTVSPropertyOp30
 70
     1
102
RTVSPropertyOp31
 70
     1
102
RTVSPropertyOp32
 70
     1
  0
XRECORD
  5
74
102
{ACAD_REACTORS
330
73
102
}
330
73
100
AcDbXrecord
280
     1
102
RTVSPropertyOp0
 70
     1
102
RTVSPropertyOp1
 70
     1
102
RTVSPropertyOp2
 70
     1
102
RTVSPropertyOp3
 70
     1
102
RTVSPropertyOp4
 70
     1
102
RTVSPropertyOp5
 70
     1
102
RTVSPropertyOp6
 70
     1
102
RTVSPropertyOp7
 70
     1
102
RTVSPropertyOp8
 70
     1
102
RTVSPropertyOp9
 70
     1
102
RTVSPropertyOp10
 70
     1
102
RTVSPropertyOp11
 70
     1
102
RTVSPropertyOp12
 70
     1
102
RTVSPropertyOp13
 70
     1
102
RTVSPropertyOp14
 70
     1
102
RTVSPropertyOp15
 70
     1
102
RTVSPropertyOp16
 70
     1
102
RTVSPropertyOp17
 70
     1
102
RTVSPropertyOp18
 70
     1
102
RTVSPropertyOp19
 70
     1
102
RTVSPropertyOp20
 70
     1
102
RTVSPropertyOp21
 70
     1
102
RTVSPropertyOp22
 70
     1
102
RTVSPropertyOp23
 70
     1
102
RTVSPropertyOp24
 70
     1
102
RTVSPropertyOp25
 70
     1
102
RTVSPropertyOp26
 70
     1
102
RTVSPropertyOp27
 70
     1
102
RTVSPropertyOp28
 70
     1
102
RTVSPropertyOp29
 70
     1
102
RTVSPropertyOp30
 70
     1
102
RTVSPropertyOp31
 70
     1
102
RTVSPropertyOp32
 70
     1
  0
XRECORD
  5
72
102
{ACAD_REACTORS
330
71
102
}
330
71
100
AcDbXrecord
280
     1
102
RTVSPropertyOp0
 70
     1
102
RTVSPropertyOp1
 70
     1
102
RTVSPropertyOp2
 70
     1
102
RTVSPropertyOp3
 70
     1
102
RTVSPropertyOp4
 70
     1
102
RTVSPropertyOp5
 70
     1
102
RTVSPropertyOp6
 70
     1
102
RTVSPropertyOp7
 70
     1
102
RTVSPropertyOp8
 70
     1
102
RTVSPropertyOp9
 70
     1
102
RTVSPropertyOp10
 70
     1
102
RTVSPropertyOp11
 70
     1
102
RTVSPropertyOp12
 70
     1
102
RTVSPropertyOp13
 70
     1
102
RTVSPropertyOp14
 70
     1
102
RTVSPropertyOp15
 70
     1
102
RTVSPropertyOp16
 70
     1
102
RTVSPropertyOp17
 70
     1
102
RTVSPropertyOp18
 70
     1
102
RTVSPropertyOp19
 70
     1
102
RTVSPropertyOp20
 70
     1
102
RTVSPropertyOp21
 70
     1
102
RTVSPropertyOp22
 70
     1
102
RTVSPropertyOp23
 70
     1
102
RTVSPropertyOp24
 70
     1
102
RTVSPropertyOp25
 70
     1
102
RTVSPropertyOp26
 70
     1
102
RTVSPropertyOp27
 70
     1
102
RTVSPropertyOp28
 70
     1
102
RTVSPropertyOp29
 70
     1
102
RTVSPropertyOp30
 70
     1
102
RTVSPropertyOp31
 70
     1
102
RTVSPropertyOp32
 70
     1
  0
XRECORD
  5
76
102
{ACAD_REACTORS
330
75
102
}
330
75
100
AcDbXrecord
280
     1
102
RTVSPropertyOp0
 70
     1
102
RTVSPropertyOp1
 70
     1
102
RTVSPropertyOp2
 70
     1
102
RTVSPropertyOp3
 70
     1
102
RTVSPropertyOp4
 70
     1
102
RTVSPropertyOp5
 70
     1
102
RTVSPropertyOp6
 70
     1
102
RTVSPropertyOp7
 70
     1
102
RTVSPropertyOp8
 70
     1
102
RTVSPropertyOp9
 70
     1
102
RTVSPropertyOp10
 70
     1
102
RTVSPropertyOp11
 70
     1
102
RTVSPropertyOp12
 70
     1
102
RTVSPropertyOp13
 70
     1
102
RTVSPropertyOp14
 70
     1
102
RTVSPropertyOp15
 70
     1
102
RTVSPropertyOp16
 70
     1
102
RTVSPropertyOp17
 70
     1
102
RTVSPropertyOp18
 70
     1
102
RTVSPropertyOp19
 70
     1
102
RTVSPropertyOp20
 70
     1
102
RTVSPropertyOp21
 70
     1
102
RTVSPropertyOp22
 70
     1
102
RTVSPropertyOp23
 70
     1
102
RTVSPropertyOp24
 70
     1
102
RTVSPropertyOp25
 70
     1
102
RTVSPropertyOp26
 70
     1
102
RTVSPropertyOp27
 70
     1
102
RTVSPropertyOp28
 70
     1
102
RTVSPropertyOp29
 70
     1
102
RTVSPropertyOp30
 70
     1
102
RTVSPropertyOp31
 70
     1
102
RTVSPropertyOp32
 70
     1
  0
XRECORD
  5
7E
102
{ACAD_REACTORS
330
7D
102
}
330
7D
100
AcDbXrecord
280
     1
102
RTVSPropertyOp0
 70
     1
102
RTVSPropertyOp1
 70
     1
102
RTVSPropertyOp2
 70
     1
102
RTVSPropertyOp3
 70
     1
102
RTVSPropertyOp4
 70
     1
102
RTVSPropertyOp5
 70
     1
102
RTVSPropertyOp6
 70
     1
102
RTVSPropertyOp7
 70
     1
102
RTVSPropertyOp8
 70
     1
102
RTVSPropertyOp9
 70
     1
102
RTVSPropertyOp10
 70
     1
102
RTVSPropertyOp11
 70
     1
102
RTVSPropertyOp12
 70
     1
102
RTVSPropertyOp13
 70
     1
102
RTVSPropertyOp14
 70
     1
102
RTVSPropertyOp15
 70
     1
102
RTVSPropertyOp16
 70
     1
102
RTVSPropertyOp17
 70
     1
102
RTVSPropertyOp18
 70
     1
102
RTVSPropertyOp19
 70
     1
102
RTVSPropertyOp20
 70
     1
102
RTVSPropertyOp21
 70
     1
102
RTVSPropertyOp22
 70
     1
102
RTVSPropertyOp23
 70
     1
102
RTVSPropertyOp24
 70
     1
102
RTVSPropertyOp25
 70
     1
102
RTVSPropertyOp26
 70
     1
102
RTVSPropertyOp27
 70
     1
102
RTVSPropertyOp28
 70
     1
102
RTVSPropertyOp29
 70
     1
102
RTVSPropertyOp30
 70
     1
102
RTVSPropertyOp31
 70
     1
102
RTVSPropertyOp32
 70
     1
  0
XRECORD
  5
86
102
{ACAD_REACTORS
330
85
102
}
330
85
100
AcDbXrecord
280
     1
102
RTVSPropertyOp0
 70
     1
102
RTVSPropertyOp1
 70
     1
102
RTVSPropertyOp2
 70
     1
102
RTVSPropertyOp3
 70
     1
102
RTVSPropertyOp4
 70
     1
102
RTVSPropertyOp5
 70
     1
102
RTVSPropertyOp6
 70
     1
102
RTVSPropertyOp7
 70
     1
102
RTVSPropertyOp8
 70
     1
102
RTVSPropertyOp9
 70
     1
102
RTVSPropertyOp10
 70
     1
102
RTVSPropertyOp11
 70
     1
102
RTVSPropertyOp12
 70
     1
102
RTVSPropertyOp13
 70
     1
102
RTVSPropertyOp14
 70
     1
102
RTVSPropertyOp15
 70
     1
102
RTVSPropertyOp16
 70
     1
102
RTVSPropertyOp17
 70
     1
102
RTVSPropertyOp18
 70
     1
102
RTVSPropertyOp19
 70
     1
102
RTVSPropertyOp20
 70
     1
102
RTVSPropertyOp21
 70
     1
102
RTVSPropertyOp22
 70
     1
102
RTVSPropertyOp23
 70
     1
102
RTVSPropertyOp24
 70
     1
102
RTVSPropertyOp25
 70
     1
102
RTVSPropertyOp26
 70
     1
102
RTVSPropertyOp27
 70
     1
102
RTVSPropertyOp28
 70
     1
102
RTVSPropertyOp29
 70
     1
102
RTVSPropertyOp30
 70
     1
102
RTVSPropertyOp31
 70
     1
102
RTVSPropertyOp32
 70
     1
  0
XRECORD
  5
7A
102
{ACAD_REACTORS
330
79
102
}
330
79
100
AcDbXrecord
280
     1
102
RTVSPropertyOp0
 70
     1
102
RTVSPropertyOp1
 70
     1
102
RTVSPropertyOp2
 70
     1
102
RTVSPropertyOp3
 70
     1
102
RTVSPropertyOp4
 70
     1
102
RTVSPropertyOp5
 70
     1
102
RTVSPropertyOp6
 70
     1
102
RTVSPropertyOp7
 70
     1
102
RTVSPropertyOp8
 70
     1
102
RTVSPropertyOp9
 70
     1
102
RTVSPropertyOp10
 70
     1
102
RTVSPropertyOp11
 70
     1
102
RTVSPropertyOp12
 70
     1
102
RTVSPropertyOp13
 70
     1
102
RTVSPropertyOp14
 70
     1
102
RTVSPropertyOp15
 70
     1
102
RTVSPropertyOp16
 70
     1
102
RTVSPropertyOp17
 70
     1
102
RTVSPropertyOp18
 70
     1
102
RTVSPropertyOp19
 70
     1
102
RTVSPropertyOp20
 70
     1
102
RTVSPropertyOp21
 70
     1
102
RTVSPropertyOp22
 70
     1
102
RTVSPropertyOp23
 70
     1
102
RTVSPropertyOp24
 70
     1
102
RTVSPropertyOp25
 70
     1
102
RTVSPropertyOp26
 70
     1
102
RTVSPropertyOp27
 70
     1
102
RTVSPropertyOp28
 70
     1
102
RTVSPropertyOp29
 70
     1
102
RTVSPropertyOp30
 70
     1
102
RTVSPropertyOp31
 70
     1
102
RTVSPropertyOp32
 70
     1
  0
XRECORD
  5
7C
102
{ACAD_REACTORS
330
7B
102
}
330
7B
100
AcDbXrecord
280
     1
102
RTVSPropertyOp0
 70
     1
102
RTVSPropertyOp1
 70
     1
102
RTVSPropertyOp2
 70
     1
102
RTVSPropertyOp3
 70
     1
102
RTVSPropertyOp4
 70
     1
102
RTVSPropertyOp5
 70
     1
102
RTVSPropertyOp6
 70
     1
102
RTVSPropertyOp7
 70
     1
102
RTVSPropertyOp8
 70
     1
102
RTVSPropertyOp9
 70
     1
102
RTVSPropertyOp10
 70
     1
102
RTVSPropertyOp11
 70
     1
102
RTVSPropertyOp12
 70
     1
102
RTVSPropertyOp13
 70
     1
102
RTVSPropertyOp14
 70
     1
102
RTVSPropertyOp15
 70
     1
102
RTVSPropertyOp16
 70
     1
102
RTVSPropertyOp17
 70
     1
102
RTVSPropertyOp18
 70
     1
102
RTVSPropertyOp19
 70
     1
102
RTVSPropertyOp20
 70
     1
102
RTVSPropertyOp21
 70
     1
102
RTVSPropertyOp22
 70
     1
102
RTVSPropertyOp23
 70
     1
102
RTVSPropertyOp24
 70
     1
102
RTVSPropertyOp25
 70
     1
102
RTVSPropertyOp26
 70
     1
102
RTVSPropertyOp27
 70
     1
102
RTVSPropertyOp28
 70
     1
102
RTVSPropertyOp29
 70
     1
102
RTVSPropertyOp30
 70
     1
102
RTVSPropertyOp31
 70
     1
102
RTVSPropertyOp32
 70
     1
  0
XRECORD
  5
84
102
{ACAD_REACTORS
330
83
102
}
330
83
100
AcDbXrecord
280
     1
102
RTVSPropertyOp0
 70
     1
102
RTVSPropertyOp1
 70
     1
102
RTVSPropertyOp2
 70
     1
102
RTVSPropertyOp3
 70
     1
102
RTVSPropertyOp4
 70
     1
102
RTVSPropertyOp5
 70
     1
102
RTVSPropertyOp6
 70
     1
102
RTVSPropertyOp7
 70
     1
102
RTVSPropertyOp8
 70
     1
102
RTVSPropertyOp9
 70
     1
102
RTVSPropertyOp10
 70
     1
102
RTVSPropertyOp11
 70
     1
102
RTVSPropertyOp12
 70
     1
102
RTVSPropertyOp13
 70
     1
102
RTVSPropertyOp14
 70
     1
102
RTVSPropertyOp15
 70
     1
102
RTVSPropertyOp16
 70
     1
102
RTVSPropertyOp17
 70
     1
102
RTVSPropertyOp18
 70
     1
102
RTVSPropertyOp19
 70
     1
102
RTVSPropertyOp20
 70
     1
102
RTVSPropertyOp21
 70
     1
102
RTVSPropertyOp22
 70
     1
102
RTVSPropertyOp23
 70
     1
102
RTVSPropertyOp24
 70
     1
102
RTVSPropertyOp25
 70
     1
102
RTVSPropertyOp26
 70
     1
102
RTVSPropertyOp27
 70
     1
102
RTVSPropertyOp28
 70
     1
102
RTVSPropertyOp29
 70
     1
102
RTVSPropertyOp30
 70
     1
102
RTVSPropertyOp31
 70
     1
102
RTVSPropertyOp32
 70
     1
  0
XRECORD
  5
68
102
{ACAD_REACTORS
330
67
102
}
330
67
100
AcDbXrecord
280
     1
102
RTVSPropertyOp0
 70
     1
102
RTVSPropertyOp1
 70
     1
102
RTVSPropertyOp2
 70
     1
102
RTVSPropertyOp3
 70
     1
102
RTVSPropertyOp4
 70
     1
102
RTVSPropertyOp5
 70
     1
102
RTVSPropertyOp6
 70
     1
102
RTVSPropertyOp7
 70
     1
102
RTVSPropertyOp8
 70
     1
102
RTVSPropertyOp9
 70
     1
102
RTVSPropertyOp10
 70
     1
102
RTVSPropertyOp11
 70
     1
102
RTVSPropertyOp12
 70
     1
102
RTVSPropertyOp13
 70
     1
102
RTVSPropertyOp14
 70
     1
102
RTVSPropertyOp15
 70
     1
102
RTVSPropertyOp16
 70
     1
102
RTVSPropertyOp17
 70
     1
102
RTVSPropertyOp18
 70
     1
102
RTVSPropertyOp19
 70
     1
102
RTVSPropertyOp20
 70
     1
102
RTVSPropertyOp21
 70
     1
102
RTVSPropertyOp22
 70
     1
102
RTVSPropertyOp23
 70
     1
102
RTVSPropertyOp24
 70
     1
102
RTVSPropertyOp25
 70
     1
102
RTVSPropertyOp26
 70
     1
102
RTVSPropertyOp27
 70
     1
102
RTVSPropertyOp28
 70
     1
102
RTVSPropertyOp29
 70
     1
102
RTVSPropertyOp30
 70
     1
102
RTVSPropertyOp31
 70
     1
102
RTVSPropertyOp32
 70
     1
  0
XRECORD
  5
6A
102
{ACAD_REACTORS
330
69
102
}
330
69
100
AcDbXrecord
280
     1
102
RTVSPropertyOp0
 70
     1
102
RTVSPropertyOp1
 70
     1
102
RTVSPropertyOp2
 70
     1
102
RTVSPropertyOp3
 70
     1
102
RTVSPropertyOp4
 70
     1
102
RTVSPropertyOp5
 70
     1
102
RTVSPropertyOp6
 70
     1
102
RTVSPropertyOp7
 70
     1
102
RTVSPropertyOp8
 70
     1
102
RTVSPropertyOp9
 70
     1
102
RTVSPropertyOp10
 70
     1
102
RTVSPropertyOp11
 70
     1
102
RTVSPropertyOp12
 70
     1
102
RTVSPropertyOp13
 70
     1
102
RTVSPropertyOp14
 70
     1
102
RTVSPropertyOp15
 70
     1
102
RTVSPropertyOp16
 70
     1
102
RTVSPropertyOp17
 70
     1
102
RTVSPropertyOp18
 70
     1
102
RTVSPropertyOp19
 70
     1
102
RTVSPropertyOp20
 70
     1
102
RTVSPropertyOp21
 70
     1
102
RTVSPropertyOp22
 70
     1
102
RTVSPropertyOp23
 70
     1
102
RTVSPropertyOp24
 70
     1
102
RTVSPropertyOp25
 70
     1
102
RTVSPropertyOp26
 70
     1
102
RTVSPropertyOp27
 70
     1
102
RTVSPropertyOp28
 70
     1
102
RTVSPropertyOp29
 70
     1
102
RTVSPropertyOp30
 70
     1
102
RTVSPropertyOp31
 70
     1
102
RTVSPropertyOp32
 70
     1
  0
XRECORD
  5
6C
102
{ACAD_REACTORS
330
6B
102
}
330
6B
100
AcDbXrecord
280
     1
102
RTVSPropertyOp0
 70
     1
102
RTVSPropertyOp1
 70
     1
102
RTVSPropertyOp2
 70
     1
102
RTVSPropertyOp3
 70
     1
102
RTVSPropertyOp4
 70
     1
102
RTVSPropertyOp5
 70
     1
102
RTVSPropertyOp6
 70
     1
102
RTVSPropertyOp7
 70
     1
102
RTVSPropertyOp8
 70
     1
102
RTVSPropertyOp9
 70
     1
102
RTVSPropertyOp10
 70
     1
102
RTVSPropertyOp11
 70
     1
102
RTVSPropertyOp12
 70
     1
102
RTVSPropertyOp13
 70
     1
102
RTVSPropertyOp14
 70
     1
102
RTVSPropertyOp15
 70
     1
102
RTVSPropertyOp16
 70
     1
102
RTVSPropertyOp17
 70
     1
102
RTVSPropertyOp18
 70
     1
102
RTVSPropertyOp19
 70
     1
102
RTVSPropertyOp20
 70
     1
102
RTVSPropertyOp21
 70
     1
102
RTVSPropertyOp22
 70
     1
102
RTVSPropertyOp23
 70
     1
102
RTVSPropertyOp24
 70
     1
102
RTVSPropertyOp25
 70
     1
102
RTVSPropertyOp26
 70
     1
102
RTVSPropertyOp27
 70
     1
102
RTVSPropertyOp28
 70
     1
102
RTVSPropertyOp29
 70
     1
102
RTVSPropertyOp30
 70
     1
102
RTVSPropertyOp31
 70
     1
102
RTVSPropertyOp32
 70
     1
  0
XRECORD
  5
6E
102
{ACAD_REACTORS
330
6D
102
}
330
6D
100
AcDbXrecord
280
     1
102
RTVSPropertyOp0
 70
     1
102
RTVSPropertyOp1
 70
     1
102
RTVSPropertyOp2
 70
     1
102
RTVSPropertyOp3
 70
     1
102
RTVSPropertyOp4
 70
     1
102
RTVSPropertyOp5
 70
     1
102
RTVSPropertyOp6
 70
     1
102
RTVSPropertyOp7
 70
     1
102
RTVSPropertyOp8
 70
     1
102
RTVSPropertyOp9
 70
     1
102
RTVSPropertyOp10
 70
     1
102
RTVSPropertyOp11
 70
     1
102
RTVSPropertyOp12
 70
     1
102
RTVSPropertyOp13
 70
     1
102
RTVSPropertyOp14
 70
     1
102
RTVSPropertyOp15
 70
     1
102
RTVSPropertyOp16
 70
     1
102
RTVSPropertyOp17
 70
     1
102
RTVSPropertyOp18
 70
     1
102
RTVSPropertyOp19
 70
     1
102
RTVSPropertyOp20
 70
     1
102
RTVSPropertyOp21
 70
     1
102
RTVSPropertyOp22
 70
     1
102
RTVSPropertyOp23
 70
     1
102
RTVSPropertyOp24
 70
     1
102
RTVSPropertyOp25
 70
     1
102
RTVSPropertyOp26
 70
     1
102
RTVSPropertyOp27
 70
     1
102
RTVSPropertyOp28
 70
     1
102
RTVSPropertyOp29
 70
     1
102
RTVSPropertyOp30
 70
     1
102
RTVSPropertyOp31
 70
     1
102
RTVSPropertyOp32
 70
     1
  0
XRECORD
  5
82
102
{ACAD_REACTORS
330
81
102
}
330
81
100
AcDbXrecord
280
     1
102
RTVSPropertyOp0
 70
     1
102
RTVSPropertyOp1
 70
     1
102
RTVSPropertyOp2
 70
     1
102
RTVSPropertyOp3
 70
     1
102
RTVSPropertyOp4
 70
     1
102
RTVSPropertyOp5
 70
     1
102
RTVSPropertyOp6
 70
     1
102
RTVSPropertyOp7
 70
     1
102
RTVSPropertyOp8
 70
     1
102
RTVSPropertyOp9
 70
     1
102
RTVSPropertyOp10
 70
     1
102
RTVSPropertyOp11
 70
     1
102
RTVSPropertyOp12
 70
     1
102
RTVSPropertyOp13
 70
     1
102
RTVSPropertyOp14
 70
     1
102
RTVSPropertyOp15
 70
     1
102
RTVSPropertyOp16
 70
     1
102
RTVSPropertyOp17
 70
     1
102
RTVSPropertyOp18
 70
     1
102
RTVSPropertyOp19
 70
     1
102
RTVSPropertyOp20
 70
     1
102
RTVSPropertyOp21
 70
     1
102
RTVSPropertyOp22
 70
     1
102
RTVSPropertyOp23
 70
     1
102
RTVSPropertyOp24
 70
     1
102
RTVSPropertyOp25
 70
     1
102
RTVSPropertyOp26
 70
     1
102
RTVSPropertyOp27
 70
     1
102
RTVSPropertyOp28
 70
     1
102
RTVSPropertyOp29
 70
     1
102
RTVSPropertyOp30
 70
     1
102
RTVSPropertyOp31
 70
     1
102
RTVSPropertyOp32
 70
     1
  0
XRECORD
  5
78
102
{ACAD_REACTORS
330
77
102
}
330
77
100
AcDbXrecord
280
     1
102
RTVSPropertyOp0
 70
     1
102
RTVSPropertyOp1
 70
     1
102
RTVSPropertyOp2
 70
     1
102
RTVSPropertyOp3
 70
     1
102
RTVSPropertyOp4
 70
     1
102
RTVSPropertyOp5
 70
     1
102
RTVSPropertyOp6
 70
     1
102
RTVSPropertyOp7
 70
     1
102
RTVSPropertyOp8
 70
     1
102
RTVSPropertyOp9
 70
     1
102
RTVSPropertyOp10
 70
     1
102
RTVSPropertyOp11
 70
     1
102
RTVSPropertyOp12
 70
     1
102
RTVSPropertyOp13
 70
     1
102
RTVSPropertyOp14
 70
     1
102
RTVSPropertyOp15
 70
     1
102
RTVSPropertyOp16
 70
     1
102
RTVSPropertyOp17
 70
     1
102
RTVSPropertyOp18
 70
     1
102
RTVSPropertyOp19
 70
     1
102
RTVSPropertyOp20
 70
     1
102
RTVSPropertyOp21
 70
     1
102
RTVSPropertyOp22
 70
     1
102
RTVSPropertyOp23
 70
     1
102
RTVSPropertyOp24
 70
     1
102
RTVSPropertyOp25
 70
     1
102
RTVSPropertyOp26
 70
     1
102
RTVSPropertyOp27
 70
     1
102
RTVSPropertyOp28
 70
     1
102
RTVSPropertyOp29
 70
     1
102
RTVSPropertyOp30
 70
     1
102
RTVSPropertyOp31
 70
     1
102
RTVSPropertyOp32
 70
     1
  0
XRECORD
  5
80
102
{ACAD_REACTORS
330
7F
102
}
330
7F
100
AcDbXrecord
280
     1
102
RTVSPropertyOp0
 70
     1
102
RTVSPropertyOp1
 70
     1
102
RTVSPropertyOp2
 70
     1
102
RTVSPropertyOp3
 70
     1
102
RTVSPropertyOp4
 70
     1
102
RTVSPropertyOp5
 70
     1
102
RTVSPropertyOp6
 70
     1
102
RTVSPropertyOp7
 70
     1
102
RTVSPropertyOp8
 70
     1
102
RTVSPropertyOp9
 70
     1
102
RTVSPropertyOp10
 70
     1
102
RTVSPropertyOp11
 70
     1
102
RTVSPropertyOp12
 70
     1
102
RTVSPropertyOp13
 70
     1
102
RTVSPropertyOp14
 70
     1
102
RTVSPropertyOp15
 70
     1
102
RTVSPropertyOp16
 70
     1
102
RTVSPropertyOp17
 70
     1
102
RTVSPropertyOp18
 70
     1
102
RTVSPropertyOp19
 70
     1
102
RTVSPropertyOp20
 70
     1
102
RTVSPropertyOp21
 70
     1
102
RTVSPropertyOp22
 70
     1
102
RTVSPropertyOp23
 70
     1
102
RTVSPropertyOp24
 70
     1
102
RTVSPropertyOp25
 70
     1
102
RTVSPropertyOp26
 70
     1
102
RTVSPropertyOp27
 70
     1
102
RTVSPropertyOp28
 70
     1
102
RTVSPropertyOp29
 70
     1
102
RTVSPropertyOp30
 70
     1
102
RTVSPropertyOp31
 70
     1
102
RTVSPropertyOp32
 70
     1
  0
ENDSEC
  0
EOF
