  0
SECTION
  2
HEADER
  9
$ACADVER
  1
AC1021
  9
$ACADMAINTVER
 70
    25
  9
$DWGCODEPAGE
  3
ANSI_1252
  9
$INSBASE
 10
0.0
 20
0.0
 30
0.0
  9
$EXTMIN
 10
-187.3274
 20
-100.3529
 30
0.0
  9
$EXTMAX
 10
-21.3357
 20
130.3359
 30
0.0
  9
$LIMMIN
 10
0.0
 20
0.0
  9
$LIMMAX
 10
12.0
 20
9.0
  9
$ORTHOMODE
 70
     0
  9
$REGENMODE
 70
     1
  9
$FILLMODE
 70
     1
  9
$QTEXTMODE
 70
     0
  9
$MIRRTEXT
 70
     1
  9
$LTSCALE
 40
1.0
  9
$ATTMODE
 70
     1
  9
$TEXTSIZE
 40
0.2
  9
$TRACEWID
 40
0.05
  9
$TEXTSTYLE
  7
Standard
  9
$CLAYER
  8
0
  9
$CELTYPE
  6
ByLayer
  9
$CECOLOR
 62
   256
  9
$CELTSCALE
 40
1.0
  9
$DISPSILH
 70
     0
  9
$DIMSCALE
 40
1.0
  9
$DIMASZ
 40
0.18
  9
$DIMEXO
 40
0.0625
  9
$DIMDLI
 40
0.38
  9
$DIMRND
 40
0.0
  9
$DIMDLE
 40
0.0
  9
$DIMEXE
 40
0.18
  9
$DIMTP
 40
0.0
  9
$DIMTM
 40
0.0
  9
$DIMTXT
 40
0.18
  9
$DIMCEN
 40
0.09
  9
$DIMTSZ
 40
0.0
  9
$DIMTOL
 70
     0
  9
$DIMLIM
 70
     0
  9
$DIMTIH
 70
     1
  9
$DIMTOH
 70
     1
  9
$DIMSE1
 70
     0
  9
$DIMSE2
 70
     0
  9
$DIMTAD
 70
     0
  9
$DIMZIN
 70
     0
  9
$DIMBLK
  1

  9
$DIMASO
 70
     1
  9
$DIMSHO
 70
     1
  9
$DIMPOST
  1

  9
$DIMAPOST
  1

  9
$DIMALT
 70
     0
  9
$DIMALTD
 70
     2
  9
$DIMALTF
 40
25.4
  9
$DIMLFAC
 40
1.0
  9
$DIMTOFL
 70
     0
  9
$DIMTVP
 40
0.0
  9
$DIMTIX
 70
     0
  9
$DIMSOXD
 70
     0
  9
$DIMSAH
 70
     0
  9
$DIMBLK1
  1

  9
$DIMBLK2
  1

  9
$DIMSTYLE
  2
Standard
  9
$DIMCLRD
 70
     0
  9
$DIMCLRE
 70
     0
  9
$DIMCLRT
 70
     0
  9
$DIMTFAC
 40
1.0
  9
$DIMGAP
 40
0.09
  9
$DIMJUST
 70
     0
  9
$DIMSD1
 70
     0
  9
$DIMSD2
 70
     0
  9
$DIMTOLJ
 70
     1
  9
$DIMTZIN
 70
     0
  9
$DIMALTZ
 70
     0
  9
$DIMALTTZ
 70
     0
  9
$DIMUPT
 70
     0
  9
$DIMDEC
 70
     4
  9
$DIMTDEC
 70
     4
  9
$DIMALTU
 70
     2
  9
$DIMALTTD
 70
     2
  9
$DIMTXSTY
  7
Standard
  9
$DIMAUNIT
 70
     0
  9
$DIMADEC
 70
     0
  9
$DIMALTRND
 40
0.0
  9
$DIMAZIN
 70
     0
  9
$DIMDSEP
 70
    46
  9
$DIMATFIT
 70
     3
  9
$DIMFRAC
 70
     0
  9
$DIMLDRBLK
  1

  9
$DIMLUNIT
 70
     2
  9
$DIMLWD
 70
    -2
  9
$DIMLWE
 70
    -2
  9
$DIMTMOVE
 70
     0
  9
$DIMFXL
 40
1.0
  9
$DIMFXLON
 70
     0
  9
$DIMJOGANG
 40
0.7853981633974483
  9
$DIMTFILL
 70
     0
  9
$DIMTFILLCLR
 70
     0
  9
$DIMARCSYM
 70
     0
  9
$DIMLTYPE
  6

  9
$DIMLTEX1
  6

  9
$DIMLTEX2
  6

  9
$LUNITS
 70
     2
  9
$LUPREC
 70
     4
  9
$SKETCHINC
 40
0.1
  9
$FILLETRAD
 40
0.5
  9
$AUNITS
 70
     0
  9
$AUPREC
 70
     0
  9
$MENU
  1
.
  9
$ELEVATION
 40
0.0
  9
$PELEVATION
 40
0.0
  9
$THICKNESS
 40
0.0
  9
$LIMCHECK
 70
     0
  9
$CHAMFERA
 40
0.5
  9
$CHAMFERB
 40
0.5
  9
$CHAMFERC
 40
1.0
  9
$CHAMFERD
 40
0.0
  9
$SKPOLY
 70
     0
  9
$TDCREATE
 40
2458492.725664584
  9
$TDUCREATE
 40
2458492.725664584
  9
$TDUPDATE
 40
2458492.725664803
  9
$TDUUPDATE
 40
2458492.725664803
  9
$TDINDWG
 40
0.0000000116
  9
$TDUSRTIMER
 40
0.0000000116
  9
$USRTIMER
 70
     1
  9
$ANGBASE
 50
0.0
  9
$ANGDIR
 70
     0
  9
$PDMODE
 70
     0
  9
$PDSIZE
 40
0.0
  9
$PLINEWID
 40
0.0
  9
$SPLFRAME
 70
     0
  9
$SPLINETYPE
 70
     6
  9
$SPLINESEGS
 70
     8
  9
$HANDSEED
  5
A8
  9
$SURFTAB1
 70
     6
  9
$SURFTAB2
 70
     6
  9
$SURFTYPE
 70
     6
  9
$SURFU
 70
     6
  9
$SURFV
 70
     6
  9
$UCSBASE
  2

  9
$UCSNAME
  2

  9
$UCSORG
 10
0.0
 20
0.0
 30
0.0
  9
$UCSXDIR
 10
1.0
 20
0.0
 30
0.0
  9
$UCSYDIR
 10
0.0
 20
1.0
 30
0.0
  9
$UCSORTHOREF
  2

  9
$UCSORTHOVIEW
 70
     0
  9
$UCSORGTOP
 10
0.0
 20
0.0
 30
0.0
  9
$UCSORGBOTTOM
 10
0.0
 20
0.0
 30
0.0
  9
$UCSORGLEFT
 10
0.0
 20
0.0
 30
0.0
  9
$UCSORGRIGHT
 10
0.0
 20
0.0
 30
0.0
  9
$UCSORGFRONT
 10
0.0
 20
0.0
 30
0.0
  9
$UCSORGBACK
 10
0.0
 20
0.0
 30
0.0
  9
$PUCSBASE
  2

  9
$PUCSNAME
  2

  9
$PUCSORG
 10
0.0
 20
0.0
 30
0.0
  9
$PUCSXDIR
 10
1.0
 20
0.0
 30
0.0
  9
$PUCSYDIR
 10
0.0
 20
1.0
 30
0.0
  9
$PUCSORTHOREF
  2

  9
$PUCSORTHOVIEW
 70
     0
  9
$PUCSORGTOP
 10
0.0
 20
0.0
 30
0.0
  9
$PUCSORGBOTTOM
 10
0.0
 20
0.0
 30
0.0
  9
$PUCSORGLEFT
 10
0.0
 20
0.0
 30
0.0
  9
$PUCSORGRIGHT
 10
0.0
 20
0.0
 30
0.0
  9
$PUCSORGFRONT
 10
0.0
 20
0.0
 30
0.0
  9
$PUCSORGBACK
 10
0.0
 20
0.0
 30
0.0
  9
$USERI1
 70
     0
  9
$USERI2
 70
     0
  9
$USERI3
 70
     0
  9
$USERI4
 70
     0
  9
$USERI5
 70
     0
  9
$USERR1
 40
0.0
  9
$USERR2
 40
0.0
  9
$USERR3
 40
0.0
  9
$USERR4
 40
0.0
  9
$USERR5
 40
0.0
  9
$WORLDVIEW
 70
     1
  9
$SHADEDGE
 70
     3
  9
$SHADEDIF
 70
    70
  9
$TILEMODE
 70
     1
  9
$MAXACTVP
 70
    64
  9
$PINSBASE
 10
0.0
 20
0.0
 30
0.0
  9
$PLIMCHECK
 70
     0
  9
$PEXTMIN
 10
1.000000000000000E+20
 20
1.000000000000000E+20
 30
1.000000000000000E+20
  9
$PEXTMAX
 10
-1.000000000000000E+20
 20
-1.000000000000000E+20
 30
-1.000000000000000E+20
  9
$PLIMMIN
 10
0.0
 20
0.0
  9
$PLIMMAX
 10
12.0
 20
9.0
  9
$UNITMODE
 70
     0
  9
$VISRETAIN
 70
     1
  9
$PLINEGEN
 70
     0
  9
$PSLTSCALE
 70
     1
  9
$TREEDEPTH
 70
  3020
  9
$CMLSTYLE
  2
Standard
  9
$CMLJUST
 70
     0
  9
$CMLSCALE
 40
1.0
  9
$PROXYGRAPHICS
 70
     1
  9
$MEASUREMENT
 70
     0
  9
$CELWEIGHT
370
    -1
  9
$ENDCAPS
280
     0
  9
$JOINSTYLE
280
     0
  9
$LWDISPLAY
290
     0
  9
$INSUNITS
 70
     4
  9
$HYPERLINKBASE
  1

  9
$STYLESHEET
  1

  9
$XEDIT
290
     1
  9
$CEPSNTYPE
380
     0
  9
$PSTYLEMODE
290
     1
  9
$FINGERPRINTGUID
  2
{33B9F635-EC04-4AE3-B004-C864EBB075DF}
  9
$VERSIONGUID
  2
{FAEB1C32-E019-11D5-929B-00C0DF256EC4}
  9
$EXTNAMES
290
     1
  9
$PSVPSCALE
 40
0.0
  9
$OLESTARTUP
290
     0
  9
$SORTENTS
280
   127
  9
$INDEXCTL
280
     0
  9
$HIDETEXT
280
     1
  9
$XCLIPFRAME
290
     0
  9
$HALOGAP
280
     0
  9
$OBSCOLOR
 70
   257
  9
$OBSLTYPE
280
     0
  9
$INTERSECTIONDISPLAY
280
     0
  9
$INTERSECTIONCOLOR
 70
   257
  9
$DIMASSOC
280
     2
  9
$PROJECTNAME
  1

  9
$CAMERADISPLAY
290
     0
  9
$LENSLENGTH
 40
50.0
  9
$CAMERAHEIGHT
 40
0.0
  9
$STEPSPERSEC
 40
2.0
  9
$STEPSIZE
 40
6.0
  9
$3DDWFPREC
 40
2.0
  9
$PSOLWIDTH
 40
0.25
  9
$PSOLHEIGHT
 40
4.0
  9
$LOFTANG1
 40
1.570796326794897
  9
$LOFTANG2
 40
1.570796326794897
  9
$LOFTMAG1
 40
0.0
  9
$LOFTMAG2
 40
0.0
  9
$LOFTPARAM
 70
     7
  9
$LOFTNORMALS
280
     1
  9
$LATITUDE
 40
37.795
  9
$LONGITUDE
 40
-122.394
  9
$NORTHDIRECTION
 40
0.0
  9
$TIMEZONE
 70
 -8000
  9
$LIGHTGLYPHDISPLAY
280
     1
  9
$TILEMODELIGHTSYNCH
280
     1
  9
$SOLIDHIST
280
     1
  9
$SHOWHIST
280
     1
  9
$DWFFRAME
280
     2
  9
$DGNFRAME
280
     2
  9
$REALWORLDSCALE
290
     1
  9
$INTERFERECOLOR
 62
   256
  9
$CSHADOW
280
     0
  9
$SHADOWPLANELOCATION
 40
0.0
  0
ENDSEC
  0
SECTION
  2
CLASSES
  0
CLASS
  1
ACDBDICTIONARYWDFLT
  2
AcDbDictionaryWithDefault
  3
ObjectDBX Classes
 90
        0
 91
        4
280
     0
281
     0
  0
CLASS
  1
VISUALSTYLE
  2
AcDbVisualStyle
  3
ObjectDBX Classes
 90
     4095
 91
        4
280
     0
281
     0
  0
CLASS
  1
MATERIAL
  2
AcDbMaterial
  3
ObjectDBX Classes
 90
     1153
 91
        4
280
     0
281
     0
  0
ENDSEC
  0
SECTION
  2
TABLES
  0
TABLE
  2
VPORT
  5
8
330
0
100
AcDbSymbolTable
 70
     1
  0
VPORT
  5
29
330
8
100
AcDbSymbolTableRecord
100
AcDbViewportTableRecord
  2
*Active
 70
     0
 10
0.0
 20
0.0
 11
1.0
 21
1.0
 12
10.42990654205607
 22
4.5
 13
0.0
 23
0.0
 14
0.5
 24
0.5
 15
0.5
 25
0.5
 16
0.0
 26
0.0
 36
1.0
 17
0.0
 27
0.0
 37
0.0
 40
9.0
 41
1.972972972850329
 42
50.0
 43
0.0
 44
0.0
 50
0.0
 51
0.0
 71
     0
 72
   100
 73
     1
 74
     3
 75
     0
 76
     0
 77
     0
 78
     0
281
     0
 65
     1
110
0.0
120
0.0
130
0.0
111
1.0
121
0.0
131
0.0
112
0.0
122
1.0
132
0.0
 79
     0
146
0.0
 60
     3
 61
     5
292
     1
282
     1
141
0.0
142
0.0
 63
   250
  0
ENDTAB
  0
TABLE
  2
LTYPE
  5
5
330
0
100
AcDbSymbolTable
 70
     1
  0
LTYPE
  5
14
330
5
100
AcDbSymbolTableRecord
100
AcDbLinetypeTableRecord
  2
ByBlock
 70
     0
  3

 72
    65
 73
     0
 40
0.0
  0
LTYPE
  5
15
330
5
100
AcDbSymbolTableRecord
100
AcDbLinetypeTableRecord
  2
ByLayer
 70
     0
  3

 72
    65
 73
     0
 40
0.0
  0
LTYPE
  5
16
330
5
100
AcDbSymbolTableRecord
100
AcDbLinetypeTableRecord
  2
Continuous
 70
     0
  3
Solid line
 72
    65
 73
     0
 40
0.0
  0
ENDTAB
  0
TABLE
  2
LAYER
  5
2
330
0
100
AcDbSymbolTable
 70
     2
  0
LAYER
  5
10
330
2
100
AcDbSymbolTableRecord
100
AcDbLayerTableRecord
  2
0
 70
     0
 62
     7
  6
Continuous
370
    -3
390
F
347
3E
  0
LAYER
  5
40
330
2
100
AcDbSymbolTableRecord
100
AcDbLayerTableRecord
  2
layer 1
 70
     0
 62
     7
  6
Continuous
370
    -3
390
F
347
3E
  0
ENDTAB
  0
TABLE
  2
STYLE
  5
3
330
0
100
AcDbSymbolTable
 70
     1
  0
STYLE
  5
11
330
3
100
AcDbSymbolTableRecord
100
AcDbTextStyleTableRecord
  2
Standard
 70
     0
 40
0.0
 41
1.0
 50
0.0
 71
     0
 42
0.2
  3
txt
  4

  0
ENDTAB
  0
TABLE
  2
VIEW
  5
6
330
0
100
AcDbSymbolTable
 70
     0
  0
ENDTAB
  0
TABLE
  2
UCS
  5
7
330
0
100
AcDbSymbolTable
 70
     0
  0
ENDTAB
  0
TABLE
  2
APPID
  5
9
330
0
100
AcDbSymbolTable
 70
     2
  0
APPID
  5
12
330
9
100
AcDbSymbolTableRecord
100
AcDbRegAppTableRecord
  2
ACAD
 70
     0
  0
APPID
  5
3F
330
9
100
AcDbSymbolTableRecord
100
AcDbRegAppTableRecord
  2
ODA
 70
     0
  0
ENDTAB
  0
TABLE
  2
DIMSTYLE
  5
A
330
0
100
AcDbSymbolTable
 70
     1
100
AcDbDimStyleTable
  0
DIMSTYLE
105
27
330
A
100
AcDbSymbolTableRecord
100
AcDbDimStyleTableRecord
  2
Standard
 70
     0
178
     0
340
11
  0
ENDTAB
  0
TABLE
  2
BLOCK_RECORD
  5
1
330
0
100
AcDbSymbolTable
 70
     1
  0
BLOCK_RECORD
  5
1F
330
1
100
AcDbSymbolTableRecord
100
AcDbBlockTableRecord
  2
*Model_Space
340
22
 70
     0
280
     1
281
     0
  0
BLOCK_RECORD
  5
1B
330
1
100
AcDbSymbolTableRecord
100
AcDbBlockTableRecord
  2
*Paper_Space
340
1E
 70
     0
280
     1
281
     0
  0
BLOCK_RECORD
  5
23
330
1
100
AcDbSymbolTableRecord
100
AcDbBlockTableRecord
  2
*Paper_Space0
340
26
 70
     0
280
     1
281
     0
  0
ENDTAB
  0
ENDSEC
  0
SECTION
  2
BLOCKS
  0
BLOCK
  5
20
330
1F
100
AcDbEntity
  8
0
100
AcDbBlockBegin
  2
*Model_Space
 70
     0
 10
0.0
 20
0.0
 30
0.0
  3
*Model_Space
  1

  0
ENDBLK
  5
21
330
1F
100
AcDbEntity
  8
0
100
AcDbBlockEnd
  0
BLOCK
  5
1C
330
1B
100
AcDbEntity
 67
     1
  8
0
100
AcDbBlockBegin
  2
*Paper_Space
 70
     0
 10
0.0
 20
0.0
 30
0.0
  3
*Paper_Space
  1

  0
ENDBLK
  5
1D
330
1B
100
AcDbEntity
 67
     1
  8
0
100
AcDbBlockEnd
  0
BLOCK
  5
24
330
23
100
AcDbEntity
  8
0
100
AcDbBlockBegin
  2
*Paper_Space0
 70
     0
 10
0.0
 20
0.0
 30
0.0
  3
*Paper_Space0
  1

  0
ENDBLK
  5
25
330
23
100
AcDbEntity
  8
0
100
AcDbBlockEnd
  0
ENDSEC
  0
SECTION
  2
ENTITIES
  0
SPLINE
  5
41
330
1F
100
AcDbEntity
  8
layer 1
 62
   250
370
     9
100
AcDbSpline
210
0.0
220
0.0
230
1.0
 70
    11
 71
     3
 72
    24
 73
    20
 74
     0
 42
0.0000000001
 43
0.0000000001
 12
1.0
 22
0.0
 32
0.0
 13
1.0
 23
0.0
 33
0.0
 40
0.0
 40
0.0
 40
0.0
 40
0.0
 40
0.1666666666666667
 40
0.1666666666666667
 40
0.1666666666666667
 40
0.1666666666666667
 40
0.3333333333333333
 40
0.3333333333333333
 40
0.3333333333333333
 40
0.3333333333333333
 40
0.5
 40
0.5
 40
0.5
 40
0.5
 40
0.6666666666666666
 40
0.6666666666666666
 40
0.6666666666666666
 40
0.6666666666666666
 40
1.0
 40
1.0
 40
1.0
 40
1.0
 10
-187.2893
 20
14.9916
 30
0.0
 10
-187.2893
 20
14.9916
 30
0.0
 10
-187.2893
 20
-100.3148
 30
0.0
 10
-187.2893
 20
-100.3148
 30
0.0
 10
-187.2893
 20
-100.3148
 30
0.0
 10
-187.2893
 20
-100.3148
 30
0.0
 10
-21.3738
 20
-100.3148
 30
0.0
 10
-21.3738
 20
-100.3148
 30
0.0
 10
-21.3738
 20
-100.3148
 30
0.0
 10
-21.3738
 20
-100.3148
 30
0.0
 10
-21.3738
 20
130.2978
 30
0.0
 10
-21.3738
 20
130.2978
 30
0.0
 10
-21.3738
 20
130.2978
 30
0.0
 10
-21.3738
 20
130.2978
 30
0.0
 10
-187.2893
 20
130.2978
 30
0.0
 10
-187.2893
 20
130.2978
 30
0.0
 10
-187.2893
 20
130.2978
 30
0.0
 10
-187.2893
 20
130.2978
 30
0.0
 10
-187.2893
 20
14.9916
 30
0.0
 10
-187.2893
 20
14.9916
 30
0.0
  0
SPLINE
  5
42
330
1F
100
AcDbEntity
  8
layer 1
 62
     7
370
     9
100
AcDbSpline
210
0.0
220
0.0
230
1.0
 70
    11
 71
     3
 72
    24
 73
    20
 74
     0
 42
0.0000000001
 43
0.0000000001
 12
1.0
 22
0.0
 32
0.0
 13
1.0
 23
0.0
 33
0.0
 40
0.0
 40
0.0
 40
0.0
 40
0.0
 40
0.1666666666666667
 40
0.1666666666666667
 40
0.1666666666666667
 40
0.1666666666666667
 40
0.3333333333333333
 40
0.3333333333333333
 40
0.3333333333333333
 40
0.3333333333333333
 40
0.5
 40
0.5
 40
0.5
 40
0.5
 40
0.6666666666666666
 40
0.6666666666666666
 40
0.6666666666666666
 40
0.6666666666666666
 40
1.0
 40
1.0
 40
1.0
 40
1.0
 10
-117.6736
 20
-81.8621
 30
0.0
 10
-110.6604
 20
-77.9512
 30
0.0
 10
-105.7709
 20
-71.1546
 30
0.0
 10
-104.3318
 20
-63.3174
 30
0.0
 10
-104.3318
 20
-63.3174
 30
0.0
 10
-102.8925
 20
-71.1546
 30
0.0
 10
-98.0028
 20
-77.9512
 30
0.0
 10
-90.9897
 20
-81.8621
 30
0.0
 10
-90.9897
 20
-81.8621
 30
0.0
 10
-91.5786
 20
-82.4383
 30
0.0
 10
-92.1597
 20
-83.022
 30
0.0
 10
-92.7329
 20
-83.6132
 30
0.0
 10
-92.7329
 20
-83.6132
 30
0.0
 10
-92.7329
 20
-83.6132
 30
0.0
 10
-115.9304
 20
-83.6132
 30
0.0
 10
-115.9304
 20
-83.6132
 30
0.0
 10
-115.9304
 20
-83.6132
 30
0.0
 10
-116.5036
 20
-83.022
 30
0.0
 10
-117.0846
 20
-82.4383
 30
0.0
 10
-117.6736
 20
-81.8621
 30
0.0
  0
SPLINE
  5
43
330
1F
100
AcDbEntity
  8
layer 1
 62
     7
370
     9
100
AcDbSpline
210
0.0
220
0.0
230
1.0
 70
    11
 71
     3
 72
    28
 73
    24
 74
     0
 42
0.0000000001
 43
0.0000000001
 12
1.0
 22
0.0
 32
0.0
 13
1.0
 23
0.0
 33
0.0
 40
0.0
 40
0.0
 40
0.0
 40
0.0
 40
0.1428571428571428
 40
0.1428571428571428
 40
0.1428571428571428
 40
0.1428571428571428
 40
0.2857142857142857
 40
0.2857142857142857
 40
0.2857142857142857
 40
0.2857142857142857
 40
0.4285714285714285
 40
0.4285714285714285
 40
0.4285714285714285
 40
0.4285714285714285
 40
0.5714285714285714
 40
0.5714285714285714
 40
0.5714285714285714
 40
0.5714285714285714
 40
0.7142857142857143
 40
0.7142857142857143
 40
0.7142857142857143
 40
0.7142857142857143
 40
1.0
 40
1.0
 40
1.0
 40
1.0
 10
-104.3318
 20
-58.1985
 30
0.0
 10
-107.2243
 20
-53.1694
 30
0.0
 10
-110.1438
 20
-48.1552
 30
0.0
 10
-113.0901
 20
-43.1566
 30
0.0
 10
-113.0901
 20
-43.1566
 30
0.0
 10
-111.5345
 20
-40.8103
 30
0.0
 10
-109.9611
 20
-38.4752
 30
0.0
 10
-108.3703
 20
-36.1519
 30
0.0
 10
-108.3703
 20
-36.1519
 30
0.0
 10
-106.9024
 20
-38.1225
 30
0.0
 10
-105.5537
 20
-40.1773
 30
0.0
 10
-104.3318
 20
-42.3058
 30
0.0
 10
-104.3318
 20
-42.3058
 30
0.0
 10
-103.1096
 20
-40.1773
 30
0.0
 10
-101.7609
 20
-38.1225
 30
0.0
 10
-100.2929
 20
-36.1519
 30
0.0
 10
-100.2929
 20
-36.1519
 30
0.0
 10
-98.7022
 20
-38.4752
 30
0.0
 10
-97.1291
 20
-40.8103
 30
0.0
 10
-95.5731
 20
-43.1566
 30
0.0
 10
-95.5731
 20
-43.1566
 30
0.0
 10
-98.5195
 20
-48.1552
 30
0.0
 10
-101.4389
 20
-53.1694
 30
0.0
 10
-104.3318
 20
-58.1985
 30
0.0
  0
SPLINE
  5
44
330
1F
100
AcDbEntity
  8
layer 1
 62
     7
370
     9
100
AcDbSpline
210
0.0
220
0.0
230
1.0
 70
    11
 71
     3
 72
    28
 73
    24
 74
     0
 42
0.0000000001
 43
0.0000000001
 12
1.0
 22
0.0
 32
0.0
 13
1.0
 23
0.0
 33
0.0
 40
0.0
 40
0.0
 40
0.0
 40
0.0
 40
0.1428571428571428
 40
0.1428571428571428
 40
0.1428571428571428
 40
0.1428571428571428
 40
0.2857142857142857
 40
0.2857142857142857
 40
0.2857142857142857
 40
0.2857142857142857
 40
0.4285714285714285
 40
0.4285714285714285
 40
0.4285714285714285
 40
0.4285714285714285
 40
0.5714285714285714
 40
0.5714285714285714
 40
0.5714285714285714
 40
0.5714285714285714
 40
0.7142857142857143
 40
0.7142857142857143
 40
0.7142857142857143
 40
0.7142857142857143
 40
1.0
 40
1.0
 40
1.0
 40
1.0
 10
-107.0319
 20
-22.771
 30
0.0
 10
-108.2784
 20
-21.3166
 30
0.0
 10
-108.4078
 20
-19.2235
 30
0.0
 10
-107.3495
 20
-17.6299
 30
0.0
 10
-107.3495
 20
-17.6299
 30
0.0
 10
-105.8329
 20
-15.6856
 30
0.0
 10
-104.7995
 20
-13.4159
 30
0.0
 10
-104.3318
 20
-11.0043
 30
0.0
 10
-104.3318
 20
-11.0043
 30
0.0
 10
-103.8637
 20
-13.4159
 30
0.0
 10
-102.8304
 20
-15.6856
 30
0.0
 10
-101.3138
 20
-17.6299
 30
0.0
 10
-101.3138
 20
-17.6299
 30
0.0
 10
-100.2555
 20
-19.2235
 30
0.0
 10
-100.3849
 20
-21.3166
 30
0.0
 10
-101.6315
 20
-22.771
 30
0.0
 10
-101.6315
 20
-22.771
 30
0.0
 10
-102.3787
 20
-23.4076
 30
0.0
 10
-103.347
 20
-23.7318
 30
0.0
 10
-104.3318
 20
-23.675
 30
0.0
 10
-104.3318
 20
-23.675
 30
0.0
 10
-105.3162
 20
-23.7318
 30
0.0
 10
-106.2846
 20
-23.4076
 30
0.0
 10
-107.0319
 20
-22.771
 30
0.0
  0
SPLINE
  5
45
330
1F
100
AcDbEntity
  8
layer 1
 62
     7
370
     9
100
AcDbSpline
210
0.0
220
0.0
230
1.0
 70
    11
 71
     3
 72
    20
 73
    16
 74
     0
 42
0.0000000001
 43
0.0000000001
 12
1.0
 22
0.0
 32
0.0
 13
1.0
 23
0.0
 33
0.0
 40
0.0
 40
0.0
 40
0.0
 40
0.0
 40
0.2
 40
0.2
 40
0.2
 40
0.2
 40
0.4
 40
0.4
 40
0.4
 40
0.4
 40
0.6
 40
0.6
 40
0.6
 40
0.6
 40
1.0
 40
1.0
 40
1.0
 40
1.0
 10
-110.1405
 20
6.4602
 30
0.0
 10
-107.8695
 20
3.7201
 30
0.0
 10
-105.9206
 20
0.7336
 30
0.0
 10
-104.3318
 20
-2.4424
 30
0.0
 10
-104.3318
 20
-2.4424
 30
0.0
 10
-102.7427
 20
0.7336
 30
0.0
 10
-100.7939
 20
3.7201
 30
0.0
 10
-98.5228
 20
6.4602
 30
0.0
 10
-98.5228
 20
6.4602
 30
0.0
 10
-100.5206
 20
8.481
 30
0.0
 10
-102.4576
 20
10.5588
 30
0.0
 10
-104.3318
 20
12.692
 30
0.0
 10
-104.3318
 20
12.692
 30
0.0
 10
-106.2057
 20
10.5588
 30
0.0
 10
-108.1427
 20
8.481
 30
0.0
 10
-110.1405
 20
6.4602
 30
0.0
  0
SPLINE
  5
46
330
1F
100
AcDbEntity
  8
layer 1
 62
     7
370
     9
100
AcDbSpline
210
0.0
220
0.0
230
1.0
 70
    11
 71
     3
 72
    20
 73
    16
 74
     0
 42
0.0000000001
 43
0.0000000001
 12
1.0
 22
0.0
 32
0.0
 13
1.0
 23
0.0
 33
0.0
 40
0.0
 40
0.0
 40
0.0
 40
0.0
 40
0.2
 40
0.2
 40
0.2
 40
0.2
 40
0.4
 40
0.4
 40
0.4
 40
0.4
 40
0.6
 40
0.6
 40
0.6
 40
0.6
 40
1.0
 40
1.0
 40
1.0
 40
1.0
 10
-121.1679
 20
14.9916
 30
0.0
 10
-118.3614
 20
13.6242
 30
0.0
 10
-115.7268
 20
11.9361
 30
0.0
 10
-113.3171
 20
9.9624
 30
0.0
 10
-113.3171
 20
9.9624
 30
0.0
 10
-111.4301
 20
11.7374
 30
0.0
 10
-109.4526
 20
13.4159
 30
0.0
 10
-107.3928
 20
14.9916
 30
0.0
 10
-107.3928
 20
14.9916
 30
0.0
 10
-109.4526
 20
16.5672
 30
0.0
 10
-111.4301
 20
18.2457
 30
0.0
 10
-113.3171
 20
20.0207
 30
0.0
 10
-113.3171
 20
20.0207
 30
0.0
 10
-115.7268
 20
18.047
 30
0.0
 10
-118.3614
 20
16.359
 30
0.0
 10
-121.1679
 20
14.9916
 30
0.0
  0
SPLINE
  5
47
330
1F
100
AcDbEntity
  8
layer 1
 62
     7
370
     9
100
AcDbSpline
210
0.0
220
0.0
230
1.0
 70
    11
 71
     3
 72
    24
 73
    20
 74
     0
 42
0.0000000001
 43
0.0000000001
 12
1.0
 22
0.0
 32
0.0
 13
1.0
 23
0.0
 33
0.0
 40
0.0
 40
0.0
 40
0.0
 40
0.0
 40
0.1666666666666667
 40
0.1666666666666667
 40
0.1666666666666667
 40
0.1666666666666667
 40
0.3333333333333333
 40
0.3333333333333333
 40
0.3333333333333333
 40
0.3333333333333333
 40
0.5
 40
0.5
 40
0.5
 40
0.5
 40
0.6666666666666666
 40
0.6666666666666666
 40
0.6666666666666666
 40
0.6666666666666666
 40
1.0
 40
1.0
 40
1.0
 40
1.0
 10
-162.1918
 20
9.5584
 30
0.0
 10
-159.3654
 20
11.6208
 30
0.0
 10
-156.3648
 20
13.4385
 30
0.0
 10
-153.2233
 20
14.9916
 30
0.0
 10
-153.2233
 20
14.9916
 30
0.0
 10
-156.3648
 20
16.5449
 30
0.0
 10
-159.3654
 20
18.3626
 30
0.0
 10
-162.1918
 20
20.4248
 30
0.0
 10
-162.1918
 20
20.4248
 30
0.0
 10
-165.3833
 20
19.7186
 30
0.0
 10
-168.7045
 20
20.8581
 30
0.0
 10
-170.7689
 20
23.3676
 30
0.0
 10
-170.7689
 20
23.3676
 30
0.0
 10
-170.7689
 20
23.3676
 30
0.0
 10
-170.7689
 20
6.6155
 30
0.0
 10
-170.7689
 20
6.6155
 30
0.0
 10
-170.7689
 20
6.6155
 30
0.0
 10
-168.7045
 20
9.1251
 30
0.0
 10
-165.3833
 20
10.2645
 30
0.0
 10
-162.1918
 20
9.5584
 30
0.0
  0
SPLINE
  5
48
330
1F
100
AcDbEntity
  8
layer 1
 62
     7
370
     9
100
AcDbSpline
210
0.0
220
0.0
230
1.0
 70
    11
 71
     3
 72
    16
 73
    12
 74
     0
 42
0.0000000001
 43
0.0000000001
 12
1.0
 22
0.0
 32
0.0
 13
1.0
 23
0.0
 33
0.0
 40
0.0
 40
0.0
 40
0.0
 40
0.0
 40
0.25
 40
0.25
 40
0.25
 40
0.25
 40
0.5
 40
0.5
 40
0.5
 40
0.5
 40
1.0
 40
1.0
 40
1.0
 40
1.0
 10
-170.7689
 20
-4.4716
 30
0.0
 10
-170.3143
 20
-3.2862
 30
0.0
 10
-169.7361
 20
-2.1507
 30
0.0
 10
-169.0444
 20
-1.0834
 30
0.0
 10
-169.0444
 20
-1.0834
 30
0.0
 10
-169.6645
 20
-0.7428
 30
0.0
 10
-170.243
 20
-0.3329
 30
0.0
 10
-170.7689
 20
0.1382
 30
0.0
 10
-170.7689
 20
0.1382
 30
0.0
 10
-170.7689
 20
0.1382
 30
0.0
 10
-170.7689
 20
-4.4716
 30
0.0
 10
-170.7689
 20
-4.4716
 30
0.0
  0
SPLINE
  5
49
330
1F
100
AcDbEntity
  8
layer 1
 62
     7
370
     9
100
AcDbSpline
210
0.0
220
0.0
230
1.0
 70
    11
 71
     3
 72
    16
 73
    12
 74
     0
 42
0.0000000001
 43
0.0000000001
 12
1.0
 22
0.0
 32
0.0
 13
1.0
 23
0.0
 33
0.0
 40
0.0
 40
0.0
 40
0.0
 40
0.0
 40
0.25
 40
0.25
 40
0.25
 40
0.25
 40
0.5
 40
0.5
 40
0.5
 40
0.5
 40
1.0
 40
1.0
 40
1.0
 40
1.0
 10
-168.8174
 20
-22.771
 30
0.0
 10
-169.5615
 20
-21.6053
 30
0.0
 10
-170.2138
 20
-20.3847
 30
0.0
 10
-170.7689
 20
-19.1201
 30
0.0
 10
-170.7689
 20
-19.1201
 30
0.0
 10
-170.7689
 20
-19.1201
 30
0.0
 10
-170.7689
 20
-26.0334
 30
0.0
 10
-170.7689
 20
-26.0334
 30
0.0
 10
-170.7689
 20
-26.0334
 30
0.0
 10
-170.2391
 20
-24.8799
 30
0.0
 10
-169.5847
 20
-23.786
 30
0.0
 10
-168.8174
 20
-22.771
 30
0.0
  0
SPLINE
  5
4A
330
1F
100
AcDbEntity
  8
layer 1
 62
     7
370
     9
100
AcDbSpline
210
0.0
220
0.0
230
1.0
 70
    11
 71
     3
 72
    76
 73
    72
 74
     0
 42
0.0000000001
 43
0.0000000001
 12
1.0
 22
0.0
 32
0.0
 13
1.0
 23
0.0
 33
0.0
 40
0.0
 40
0.0
 40
0.0
 40
0.0
 40
0.0526315789473684
 40
0.0526315789473684
 40
0.0526315789473684
 40
0.0526315789473684
 40
0.1052631578947368
 40
0.1052631578947368
 40
0.1052631578947368
 40
0.1052631578947368
 40
0.1578947368421053
 40
0.1578947368421053
 40
0.1578947368421053
 40
0.1578947368421053
 40
0.2105263157894737
 40
0.2105263157894737
 40
0.2105263157894737
 40
0.2105263157894737
 40
0.2631578947368421
 40
0.2631578947368421
 40
0.2631578947368421
 40
0.2631578947368421
 40
0.3157894736842105
 40
0.3157894736842105
 40
0.3157894736842105
 40
0.3157894736842105
 40
0.3684210526315789
 40
0.3684210526315789
 40
0.3684210526315789
 40
0.3684210526315789
 40
0.4210526315789473
 40
0.4210526315789473
 40
0.4210526315789473
 40
0.4210526315789473
 40
0.4736842105263158
 40
0.4736842105263158
 40
0.4736842105263158
 40
0.4736842105263158
 40
0.5263157894736842
 40
0.5263157894736842
 40
0.5263157894736842
 40
0.5263157894736842
 40
0.5789473684210527
 40
0.5789473684210527
 40
0.5789473684210527
 40
0.5789473684210527
 40
0.631578947368421
 40
0.631578947368421
 40
0.631578947368421
 40
0.631578947368421
 40
0.6842105263157895
 40
0.6842105263157895
 40
0.6842105263157895
 40
0.6842105263157895
 40
0.7368421052631579
 40
0.7368421052631579
 40
0.7368421052631579
 40
0.7368421052631579
 40
0.7894736842105263
 40
0.7894736842105263
 40
0.7894736842105263
 40
0.7894736842105263
 40
0.8421052631578947
 40
0.8421052631578947
 40
0.8421052631578947
 40
0.8421052631578947
 40
0.8947368421052632
 40
0.8947368421052632
 40
0.8947368421052632
 40
0.8947368421052632
 40
1.0
 40
1.0
 40
1.0
 40
1.0
 10
-161.5113
 20
-45.716
 30
0.0
 10
-153.2256
 20
-51.5348
 30
0.0
 10
-142.8174
 20
-53.5618
 30
0.0
 10
-132.9216
 20
-51.2836
 30
0.0
 10
-132.9216
 20
-51.2836
 30
0.0
 10
-135.5424
 20
-57.8833
 30
0.0
 10
-136.1113
 20
-65.107
 30
0.0
 10
-134.555
 20
-72.0285
 30
0.0
 10
-134.555
 20
-72.0285
 30
0.0
 10
-133.4789
 20
-75.1222
 30
0.0
 10
-131.6382
 20
-77.9006
 30
0.0
 10
-129.2003
 20
-80.1109
 30
0.0
 10
-129.2003
 20
-80.1109
 30
0.0
 10
-136.8093
 20
-79.9639
 30
0.0
 10
-143.603
 20
-75.3588
 30
0.0
 10
-146.4904
 20
-68.3914
 30
0.0
 10
-146.4904
 20
-68.3914
 30
0.0
 10
-144.8536
 20
-68.9647
 30
0.0
 10
-143.0322
 20
-68.6355
 30
0.0
 10
-141.7058
 20
-67.5264
 30
0.0
 10
-141.7058
 20
-67.5264
 30
0.0
 10
-140.3798
 20
-66.4175
 30
0.0
 10
-139.7478
 20
-64.6957
 30
0.0
 10
-140.046
 20
-63.0031
 30
0.0
 10
-140.046
 20
-63.0031
 30
0.0
 10
-140.2271
 20
-60.5113
 30
0.0
 10
-138.5864
 20
-58.2462
 30
0.0
 10
-136.1435
 20
-57.6148
 30
0.0
 10
-136.1435
 20
-57.6148
 30
0.0
 10
-137.7287
 20
-55.7035
 30
0.0
 10
-140.1223
 20
-54.6294
 30
0.0
 10
-142.62
 20
-54.7086
 30
0.0
 10
-142.62
 20
-54.7086
 30
0.0
 10
-145.118
 20
-54.7877
 30
0.0
 10
-147.437
 20
-56.0109
 30
0.0
 10
-148.8954
 20
-58.0192
 30
0.0
 10
-148.8954
 20
-58.0192
 30
0.0
 10
-149.4045
 20
-54.6471
 30
0.0
 10
-151.7383
 20
-51.821
 30
0.0
 10
-154.9764
 20
-50.6552
 30
0.0
 10
-154.9764
 20
-50.6552
 30
0.0
 10
-157.4448
 20
-49.659
 30
0.0
 10
-160.2417
 20
-49.86
 30
0.0
 10
-162.5388
 20
-51.1988
 30
0.0
 10
-162.5388
 20
-51.1988
 30
0.0
 10
-164.8358
 20
-52.5377
 30
0.0
 10
-166.369
 20
-54.861
 30
0.0
 10
-166.6846
 20
-57.4802
 30
0.0
 10
-166.6846
 20
-57.4802
 30
0.0
 10
-163.5383
 20
-55.5051
 30
0.0
 10
-159.4157
 20
-56.0339
 30
0.0
 10
-156.8824
 20
-58.7375
 30
0.0
 10
-156.8824
 20
-58.7375
 30
0.0
 10
-154.3322
 20
-62.406
 30
0.0
 10
-152.1584
 20
-66.3167
 30
0.0
 10
-150.3929
 20
-70.412
 30
0.0
 10
-150.3929
 20
-70.412
 30
0.0
 10
-147.0477
 20
-76.4141
 30
0.0
 10
-141.6996
 20
-81.0804
 30
0.0
 10
-135.2625
 20
-83.6132
 30
0.0
 10
-135.2625
 20
-83.6132
 30
0.0
 10
-135.2625
 20
-83.6132
 30
0.0
 10
-170.7689
 20
-83.6132
 30
0.0
 10
-170.7689
 20
-83.6132
 30
0.0
 10
-170.7689
 20
-83.6132
 30
0.0
 10
-170.7689
 20
-83.6132
 30
0.0
 10
-170.7689
 20
-35.472
 30
0.0
 10
-170.7689
 20
-35.472
 30
0.0
 10
-170.7689
 20
-35.472
 30
0.0
 10
-168.8253
 20
-39.75
 30
0.0
 10
-165.5915
 20
-43.3283
 30
0.0
 10
-161.5113
 20
-45.716
 30
0.0
  0
SPLINE
  5
4B
330
1F
100
AcDbEntity
  8
layer 1
 62
     7
370
     9
100
AcDbSpline
210
0.0
220
0.0
230
1.0
 70
    11
 71
     3
 72
    44
 73
    40
 74
     0
 42
0.0000000001
 43
0.0000000001
 12
1.0
 22
0.0
 32
0.0
 13
1.0
 23
0.0
 33
0.0
 40
0.0
 40
0.0
 40
0.0
 40
0.0
 40
0.0909090909090909
 40
0.0909090909090909
 40
0.0909090909090909
 40
0.0909090909090909
 40
0.1818181818181818
 40
0.1818181818181818
 40
0.1818181818181818
 40
0.1818181818181818
 40
0.2727272727272727
 40
0.2727272727272727
 40
0.2727272727272727
 40
0.2727272727272727
 40
0.3636363636363636
 40
0.3636363636363636
 40
0.3636363636363636
 40
0.3636363636363636
 40
0.4545454545454545
 40
0.4545454545454545
 40
0.4545454545454545
 40
0.4545454545454545
 40
0.5454545454545454
 40
0.5454545454545454
 40
0.5454545454545454
 40
0.5454545454545454
 40
0.6363636363636364
 40
0.6363636363636364
 40
0.6363636363636364
 40
0.6363636363636364
 40
0.7272727272727273
 40
0.7272727272727273
 40
0.7272727272727273
 40
0.7272727272727273
 40
0.8181818181818182
 40
0.8181818181818182
 40
0.8181818181818182
 40
0.8181818181818182
 40
1.0
 40
1.0
 40
1.0
 40
1.0
 10
-124.7981
 20
-68.3466
 30
0.0
 10
-124.471
 20
-72.1949
 30
0.0
 10
-122.9491
 20
-75.8491
 30
0.0
 10
-120.4416
 20
-78.8087
 30
0.0
 10
-120.4416
 20
-78.8087
 30
0.0
 10
-115.5645
 20
-77.0149
 30
0.0
 10
-111.6984
 20
-73.2386
 30
0.0
 10
-109.8225
 20
-68.4363
 30
0.0
 10
-109.8225
 20
-68.4363
 30
0.0
 10
-111.2461
 20
-67.5034
 30
0.0
 10
-112.0345
 20
-65.8707
 30
0.0
 10
-111.8732
 20
-64.1886
 30
0.0
 10
-111.8732
 20
-64.1886
 30
0.0
 10
-111.7115
 20
-62.5068
 30
0.0
 10
-110.6269
 20
-61.05
 30
0.0
 10
-109.0513
 20
-60.399
 30
0.0
 10
-109.0513
 20
-60.399
 30
0.0
 10
-109.9181
 20
-55.3698
 30
0.0
 10
-112.4578
 20
-50.7712
 30
0.0
 10
-116.2668
 20
-47.3324
 30
0.0
 10
-116.2668
 20
-47.3324
 30
0.0
 10
-118.9579
 20
-50.0949
 30
0.0
 10
-120.8128
 20
-53.5481
 30
0.0
 10
-121.6219
 20
-57.3005
 30
0.0
 10
-121.6219
 20
-57.3005
 30
0.0
 10
-122.1274
 20
-59.0381
 30
0.0
 10
-121.4964
 20
-60.9042
 30
0.0
 10
-120.0357
 20
-61.9908
 30
0.0
 10
-120.0357
 20
-61.9908
 30
0.0
 10
-118.5749
 20
-63.077
 30
0.0
 10
-116.588
 20
-63.1585
 30
0.0
 10
-115.0416
 20
-62.1951
 30
0.0
 10
-115.0416
 20
-62.1951
 30
0.0
 10
-114.7302
 20
-64.6244
 30
0.0
 10
-115.8628
 20
-67.0134
 30
0.0
 10
-117.9502
 20
-68.3294
 30
0.0
 10
-117.9502
 20
-68.3294
 30
0.0
 10
-120.0373
 20
-69.6454
 30
0.0
 10
-122.7045
 20
-69.652
 30
0.0
 10
-124.7981
 20
-68.3466
 30
0.0
  0
SPLINE
  5
4C
330
1F
100
AcDbEntity
  8
layer 1
 62
     7
370
     9
100
AcDbSpline
210
0.0
220
0.0
230
1.0
 70
    11
 71
     3
 72
    24
 73
    20
 74
     0
 42
0.0000000001
 43
0.0000000001
 12
1.0
 22
0.0
 32
0.0
 13
1.0
 23
0.0
 33
0.0
 40
0.0
 40
0.0
 40
0.0
 40
0.0
 40
0.1666666666666667
 40
0.1666666666666667
 40
0.1666666666666667
 40
0.1666666666666667
 40
0.3333333333333333
 40
0.3333333333333333
 40
0.3333333333333333
 40
0.3333333333333333
 40
0.5
 40
0.5
 40
0.5
 40
0.5
 40
0.6666666666666666
 40
0.6666666666666666
 40
0.6666666666666666
 40
0.6666666666666666
 40
1.0
 40
1.0
 40
1.0
 40
1.0
 10
-117.492
 20
-37.813
 30
0.0
 10
-120.2515
 20
-35.6107
 30
0.0
 10
-122.3796
 20
-32.7312
 30
0.0
 10
-123.664
 20
-29.4613
 30
0.0
 10
-123.664
 20
-29.4613
 30
0.0
 10
-120.6246
 20
-26.7899
 30
0.0
 10
-118.1424
 20
-23.5561
 30
0.0
 10
-116.3574
 20
-19.9423
 30
0.0
 10
-116.3574
 20
-19.9423
 30
0.0
 10
-115.4972
 20
-19.8707
 30
0.0
 10
-114.634
 20
-19.8408
 30
0.0
 10
-113.7708
 20
-19.8522
 30
0.0
 10
-113.7708
 20
-19.8522
 30
0.0
 10
-115.1132
 20
-23.8668
 30
0.0
 10
-114.4747
 20
-28.2719
 30
0.0
 10
-112.0463
 20
-31.7515
 30
0.0
 10
-112.0463
 20
-31.7515
 30
0.0
 10
-113.6502
 20
-33.9486
 30
0.0
 10
-115.4749
 20
-35.9795
 30
0.0
 10
-117.492
 20
-37.813
 30
0.0
  0
SPLINE
  5
4D
330
1F
100
AcDbEntity
  8
layer 1
 62
     7
370
     9
100
AcDbSpline
210
0.0
220
0.0
230
1.0
 70
    11
 71
     3
 72
    24
 73
    20
 74
     0
 42
0.0000000001
 43
0.0000000001
 12
1.0
 22
0.0
 32
0.0
 13
1.0
 23
0.0
 33
0.0
 40
0.0
 40
0.0
 40
0.0
 40
0.0
 40
0.1666666666666667
 40
0.1666666666666667
 40
0.1666666666666667
 40
0.1666666666666667
 40
0.3333333333333333
 40
0.3333333333333333
 40
0.3333333333333333
 40
0.3333333333333333
 40
0.5
 40
0.5
 40
0.5
 40
0.5
 40
0.6666666666666666
 40
0.6666666666666666
 40
0.6666666666666666
 40
0.6666666666666666
 40
1.0
 40
1.0
 40
1.0
 40
1.0
 10
-120.0787
 20
-4.3613
 30
0.0
 10
-117.9295
 20
-1.5913
 30
0.0
 10
-115.5129
 20
0.9652
 30
0.0
 10
-112.8631
 20
3.2721
 30
0.0
 10
-112.8631
 20
3.2721
 30
0.0
 10
-110.4906
 20
0.4837
 30
0.0
 10
-108.6876
 20
-2.734
 30
0.0
 10
-107.5537
 20
-6.2023
 30
0.0
 10
-107.5537
 20
-6.2023
 30
0.0
 10
-109.2898
 20
-5.2399
 30
0.0
 10
-111.348
 20
-5.0215
 30
0.0
 10
-113.2505
 20
-5.5983
 30
0.0
 10
-113.2505
 20
-5.5983
 30
0.0
 10
-115.1533
 20
-6.1748
 30
0.0
 10
-116.7348
 20
-7.4962
 30
0.0
 10
-117.6283
 20
-9.2555
 30
0.0
 10
-117.6283
 20
-9.2555
 30
0.0
 10
-118.189
 20
-7.5103
 30
0.0
 10
-119.0151
 20
-5.8598
 30
0.0
 10
-120.0787
 20
-4.3613
 30
0.0
  0
SPLINE
  5
4E
330
1F
100
AcDbEntity
  8
layer 1
 62
     7
370
     9
100
AcDbSpline
210
0.0
220
0.0
230
1.0
 70
    11
 71
     3
 72
    16
 73
    12
 74
     0
 42
0.0000000001
 43
0.0000000001
 12
1.0
 22
0.0
 32
0.0
 13
1.0
 23
0.0
 33
0.0
 40
0.0
 40
0.0
 40
0.0
 40
0.0
 40
0.25
 40
0.25
 40
0.25
 40
0.25
 40
0.5
 40
0.5
 40
0.5
 40
0.5
 40
1.0
 40
1.0
 40
1.0
 40
1.0
 10
-126.5226
 20
-12.668
 30
0.0
 10
-124.9236
 20
-13.7437
 30
0.0
 10
-122.9052
 20
-14.0098
 30
0.0
 10
-121.0769
 20
-13.3863
 30
0.0
 10
-121.0769
 20
-13.3863
 30
0.0
 10
-121.5817
 20
-11.4894
 30
0.0
 10
-122.329
 20
-9.6634
 30
0.0
 10
-123.3006
 20
-7.9534
 30
0.0
 10
-123.3006
 20
-7.9534
 30
0.0
 10
-124.8448
 20
-9.1543
 30
0.0
 10
-125.9714
 20
-10.8026
 30
0.0
 10
-126.5226
 20
-12.668
 30
0.0
  0
SPLINE
  5
4F
330
1F
100
AcDbEntity
  8
layer 1
 62
     7
370
     9
100
AcDbSpline
210
0.0
220
0.0
230
1.0
 70
    11
 71
     3
 72
    16
 73
    12
 74
     0
 42
0.0000000001
 43
0.0000000001
 12
1.0
 22
0.0
 32
0.0
 13
1.0
 23
0.0
 33
0.0
 40
0.0
 40
0.0
 40
0.0
 40
0.0
 40
0.25
 40
0.25
 40
0.25
 40
0.25
 40
0.5
 40
0.5
 40
0.5
 40
0.5
 40
1.0
 40
1.0
 40
1.0
 40
1.0
 10
-126.6136
 20
-14.015
 30
0.0
 10
-127.7557
 20
-18.1085
 30
0.0
 10
-127.3855
 20
-22.4705
 30
0.0
 10
-125.5697
 20
-26.3182
 30
0.0
 10
-125.5697
 20
-26.3182
 30
0.0
 10
-123.7263
 20
-24.2616
 30
0.0
 10
-122.2804
 20
-21.8871
 30
0.0
 10
-121.3039
 20
-19.3136
 30
0.0
 10
-121.3039
 20
-19.3136
 30
0.0
 10
-123.7302
 20
-18.3383
 30
0.0
 10
-125.6489
 20
-16.4244
 30
0.0
 10
-126.6136
 20
-14.015
 30
0.0
  0
SPLINE
  5
50
330
1F
100
AcDbEntity
  8
layer 1
 62
     7
370
     9
100
AcDbSpline
210
0.0
220
0.0
230
1.0
 70
    11
 71
     3
 72
    32
 73
    28
 74
     0
 42
0.0000000001
 43
0.0000000001
 12
1.0
 22
0.0
 32
0.0
 13
1.0
 23
0.0
 33
0.0
 40
0.0
 40
0.0
 40
0.0
 40
0.0
 40
0.125
 40
0.125
 40
0.125
 40
0.125
 40
0.25
 40
0.25
 40
0.25
 40
0.25
 40
0.375
 40
0.375
 40
0.375
 40
0.375
 40
0.5
 40
0.5
 40
0.5
 40
0.5
 40
0.625
 40
0.625
 40
0.625
 40
0.625
 40
0.75
 40
0.75
 40
0.75
 40
0.75
 40
1.0
 40
1.0
 40
1.0
 40
1.0
 10
-131.8324
 20
3.9007
 30
0.0
 10
-129.2985
 20
2.9932
 30
0.0
 10
-126.9135
 20
1.7223
 30
0.0
 10
-124.7528
 20
0.1289
 30
0.0
 10
-124.7528
 20
0.1289
 30
0.0
 10
-121.7916
 20
2.2456
 30
0.0
 10
-119.0276
 20
4.6201
 30
0.0
 10
-116.4938
 20
7.2235
 30
0.0
 10
-116.4938
 20
7.2235
 30
0.0
 10
-119.2303
 20
9.7094
 30
0.0
 10
-122.4387
 20
11.6327
 30
0.0
 10
-125.9327
 20
12.8812
 30
0.0
 10
-125.9327
 20
12.8812
 30
0.0
 10
-128.2957
 20
12.1989
 30
0.0
 10
-130.7342
 20
11.8067
 30
0.0
 10
-133.1938
 20
11.7138
 30
0.0
 10
-133.1938
 20
11.7138
 30
0.0
 10
-132.5744
 20
11.3222
 30
0.0
 10
-131.9023
 20
11.02
 30
0.0
 10
-131.1971
 20
10.8157
 30
0.0
 10
-131.1971
 20
10.8157
 30
0.0
 10
-130.034
 20
9.9781
 30
0.0
 10
-129.4013
 20
8.5972
 30
0.0
 10
-129.5317
 20
7.1799
 30
0.0
 10
-129.5317
 20
7.1799
 30
0.0
 10
-129.6618
 20
5.7626
 30
0.0
 10
-130.5355
 20
4.5169
 30
0.0
 10
-131.8324
 20
3.9007
 30
0.0
  0
SPLINE
  5
51
330
1F
100
AcDbEntity
  8
layer 1
 62
     7
370
     9
100
AcDbSpline
210
0.0
220
0.0
230
1.0
 70
    11
 71
     3
 72
    12
 73
     8
 74
     0
 42
0.0000000001
 43
0.0000000001
 12
1.0
 22
0.0
 32
0.0
 13
1.0
 23
0.0
 33
0.0
 40
0.0
 40
0.0
 40
0.0
 40
0.0
 40
0.3333333333333333
 40
0.3333333333333333
 40
0.3333333333333333
 40
0.3333333333333333
 40
1.0
 40
1.0
 40
1.0
 40
1.0
 10
-141.9068
 20
-0.8588
 30
0.0
 10
-137.9271
 20
-3.6718
 30
0.0
 10
-132.7606
 20
-4.2493
 30
0.0
 10
-128.2471
 20
-2.3855
 30
0.0
 10
-128.2471
 20
-2.3855
 30
0.0
 10
-132.2787
 20
0.2909
 30
0.0
 10
-137.3736
 20
0.8604
 30
0.0
 10
-141.9068
 20
-0.8588
 30
0.0
  0
SPLINE
  5
52
330
1F
100
AcDbEntity
  8
layer 1
 62
     7
370
     9
100
AcDbSpline
210
0.0
220
0.0
230
1.0
 70
    11
 71
     3
 72
    28
 73
    24
 74
     0
 42
0.0000000001
 43
0.0000000001
 12
1.0
 22
0.0
 32
0.0
 13
1.0
 23
0.0
 33
0.0
 40
0.0
 40
0.0
 40
0.0
 40
0.0
 40
0.1428571428571428
 40
0.1428571428571428
 40
0.1428571428571428
 40
0.1428571428571428
 40
0.2857142857142857
 40
0.2857142857142857
 40
0.2857142857142857
 40
0.2857142857142857
 40
0.4285714285714285
 40
0.4285714285714285
 40
0.4285714285714285
 40
0.4285714285714285
 40
0.5714285714285714
 40
0.5714285714285714
 40
0.5714285714285714
 40
0.5714285714285714
 40
0.7142857142857143
 40
0.7142857142857143
 40
0.7142857142857143
 40
0.7142857142857143
 40
1.0
 40
1.0
 40
1.0
 40
1.0
 10
-157.3361
 20
8.6603
 30
0.0
 10
-154.2163
 20
10.5401
 30
0.0
 10
-150.8593
 20
12.0048
 30
0.0
 10
-147.3526
 20
13.0158
 30
0.0
 10
-147.3526
 20
13.0158
 30
0.0
 10
-144.3514
 20
12.1719
 30
0.0
 10
-141.2582
 20
11.6895
 30
0.0
 10
-138.1403
 20
11.5791
 30
0.0
 10
-138.1403
 20
11.5791
 30
0.0
 10
-139.5461
 20
11.112
 30
0.0
 10
-140.5893
 20
9.9325
 30
0.0
 10
-140.8712
 20
8.4918
 30
0.0
 10
-140.8712
 20
8.4918
 30
0.0
 10
-141.153
 20
7.0511
 30
0.0
 10
-140.6298
 20
5.5717
 30
0.0
 10
-139.5018
 20
4.6191
 30
0.0
 10
-139.5018
 20
4.6191
 30
0.0
 10
-141.9417
 20
4.2604
 30
0.0
 10
-144.3228
 20
3.5808
 30
0.0
 10
-146.581
 20
2.5987
 30
0.0
 10
-146.581
 20
2.5987
 30
0.0
 10
-149.7347
 20
5.2902
 30
0.0
 10
-153.3878
 20
7.349
 30
0.0
 10
-157.3361
 20
8.6603
 30
0.0
  0
SPLINE
  5
53
330
1F
100
AcDbEntity
  8
layer 1
 62
     7
370
     9
100
AcDbSpline
210
0.0
220
0.0
230
1.0
 70
    11
 71
     3
 72
    36
 73
    32
 74
     0
 42
0.0000000001
 43
0.0000000001
 12
1.0
 22
0.0
 32
0.0
 13
1.0
 23
0.0
 33
0.0
 40
0.0
 40
0.0
 40
0.0
 40
0.0
 40
0.1111111111111111
 40
0.1111111111111111
 40
0.1111111111111111
 40
0.1111111111111111
 40
0.2222222222222222
 40
0.2222222222222222
 40
0.2222222222222222
 40
0.2222222222222222
 40
0.3333333333333333
 40
0.3333333333333333
 40
0.3333333333333333
 40
0.3333333333333333
 40
0.4444444444444444
 40
0.4444444444444444
 40
0.4444444444444444
 40
0.4444444444444444
 40
0.5555555555555556
 40
0.5555555555555556
 40
0.5555555555555556
 40
0.5555555555555556
 40
0.6666666666666666
 40
0.6666666666666666
 40
0.6666666666666666
 40
0.6666666666666666
 40
0.7777777777777778
 40
0.7777777777777778
 40
0.7777777777777778
 40
0.7777777777777778
 40
1.0
 40
1.0
 40
1.0
 40
1.0
 10
-149.1677
 20
-4.7653
 30
0.0
 10
-146.9787
 20
-9.2334
 30
0.0
 10
-142.4317
 20
-12.0997
 30
0.0
 10
-137.414
 20
-12.1739
 30
0.0
 10
-137.414
 20
-12.1739
 30
0.0
 10
-139.2778
 20
-16.7624
 30
0.0
 10
-138.9096
 20
-21.9433
 30
0.0
 10
-136.4158
 20
-26.2286
 30
0.0
 10
-136.4158
 20
-26.2286
 30
0.0
 10
-135.2731
 20
-28.0088
 30
0.0
 10
-134.1083
 20
-29.775
 30
0.0
 10
-132.9216
 20
-31.5268
 30
0.0
 10
-132.9216
 20
-31.5268
 30
0.0
 10
-140.5135
 20
-34.145
 30
0.0
 10
-148.8498
 20
-33.6437
 30
0.0
 10
-156.0656
 20
-30.1351
 30
0.0
 10
-156.0656
 20
-30.1351
 30
0.0
 10
-150.747
 20
-29.8894
 30
0.0
 10
-145.9299
 20
-26.9551
 30
0.0
 10
-143.3137
 20
-22.367
 30
0.0
 10
-143.3137
 20
-22.367
 30
0.0
 10
-142.0894
 20
-19.5802
 30
0.0
 10
-141.8189
 20
-16.4743
 30
0.0
 10
-142.5421
 20
-13.5213
 30
0.0
 10
-142.5421
 20
-13.5213
 30
0.0
 10
-144.4335
 20
-10.8312
 30
0.0
 10
-148.0578
 20
-9.9637
 30
0.0
 10
-150.9828
 20
-11.5006
 30
0.0
 10
-150.9828
 20
-11.5006
 30
0.0
 10
-151.8112
 20
-9.0988
 30
0.0
 10
-151.0945
 20
-6.4399
 30
0.0
 10
-149.1677
 20
-4.7653
 30
0.0
  0
SPLINE
  5
54
330
1F
100
AcDbEntity
  8
layer 1
 62
     7
370
     9
100
AcDbSpline
210
0.0
220
0.0
230
1.0
 70
    11
 71
     3
 72
    48
 73
    44
 74
     0
 42
0.0000000001
 43
0.0000000001
 12
1.0
 22
0.0
 32
0.0
 13
1.0
 23
0.0
 33
0.0
 40
0.0
 40
0.0
 40
0.0
 40
0.0
 40
0.0833333333333333
 40
0.0833333333333333
 40
0.0833333333333333
 40
0.0833333333333333
 40
0.1666666666666667
 40
0.1666666666666667
 40
0.1666666666666667
 40
0.1666666666666667
 40
0.25
 40
0.25
 40
0.25
 40
0.25
 40
0.3333333333333333
 40
0.3333333333333333
 40
0.3333333333333333
 40
0.3333333333333333
 40
0.4166666666666667
 40
0.4166666666666667
 40
0.4166666666666667
 40
0.4166666666666667
 40
0.5
 40
0.5
 40
0.5
 40
0.5
 40
0.5833333333333334
 40
0.5833333333333334
 40
0.5833333333333334
 40
0.5833333333333334
 40
0.6666666666666666
 40
0.6666666666666666
 40
0.6666666666666666
 40
0.6666666666666666
 40
0.75
 40
0.75
 40
0.75
 40
0.75
 40
0.8333333333333334
 40
0.8333333333333334
 40
0.8333333333333334
 40
0.8333333333333334
 40
1.0
 40
1.0
 40
1.0
 40
1.0
 10
-157.1094
 20
-29.5514
 30
0.0
 10
-155.8297
 20
-29.3306
 30
0.0
 10
-154.7066
 20
-28.5787
 30
0.0
 10
-154.0235
 20
-27.4856
 30
0.0
 10
-154.0235
 20
-27.4856
 30
0.0
 10
-152.1847
 20
-24.1657
 30
0.0
 10
-152.0664
 20
-20.1748
 30
0.0
 10
-153.7058
 20
-16.7541
 30
0.0
 10
-153.7058
 20
-16.7541
 30
0.0
 10
-155.2697
 20
-13.1262
 30
0.0
 10
-155.6195
 20
-9.0981
 30
0.0
 10
-154.704
 20
-5.2593
 30
0.0
 10
-154.704
 20
-5.2593
 30
0.0
 10
-153.9932
 20
-3.6212
 30
0.0
 10
-153.0949
 20
-2.0696
 30
0.0
 10
-152.0267
 20
-0.6341
 30
0.0
 10
-152.0267
 20
-0.6341
 30
0.0
 10
-154.1237
 20
3.0053
 30
0.0
 10
-157.9224
 20
5.3651
 30
0.0
 10
-162.1466
 20
5.6518
 30
0.0
 10
-162.1466
 20
5.6518
 30
0.0
 10
-160.7492
 20
3.7536
 30
0.0
 10
-160.9411
 20
1.1347
 30
0.0
 10
-162.6002
 20
-0.5444
 30
0.0
 10
-162.6002
 20
-0.5444
 30
0.0
 10
-163.3629
 20
-1.3059
 30
0.0
 10
-164.3194
 20
-1.8488
 30
0.0
 10
-165.3685
 20
-2.1162
 30
0.0
 10
-165.3685
 20
-2.1162
 30
0.0
 10
-167.9979
 20
-7.7228
 30
0.0
 10
-167.7447
 20
-14.2377
 30
0.0
 10
-164.6879
 20
-19.6279
 30
0.0
 10
-164.6879
 20
-19.6279
 30
0.0
 10
-161.6207
 20
-18.1169
 30
0.0
 10
-158.1767
 20
-17.5165
 30
0.0
 10
-154.7721
 20
-17.8991
 30
0.0
 10
-154.7721
 20
-17.8991
 30
0.0
 10
-157.3965
 20
-18.3452
 30
0.0
 10
-159.4714
 20
-20.3456
 30
0.0
 10
-159.9898
 20
-22.93
 30
0.0
 10
-159.9898
 20
-22.93
 30
0.0
 10
-160.5081
 20
-25.5144
 30
0.0
 10
-159.3628
 20
-28.1475
 30
0.0
 10
-157.1094
 20
-29.5514
 30
0.0
  0
SPLINE
  5
55
330
1F
100
AcDbEntity
  8
layer 1
 62
     7
370
     9
100
AcDbSpline
210
0.0
220
0.0
230
1.0
 70
    11
 71
     3
 72
    48
 73
    44
 74
     0
 42
0.0000000001
 43
0.0000000001
 12
1.0
 22
0.0
 32
0.0
 13
1.0
 23
0.0
 33
0.0
 40
0.0
 40
0.0
 40
0.0
 40
0.0
 40
0.0833333333333333
 40
0.0833333333333333
 40
0.0833333333333333
 40
0.0833333333333333
 40
0.1666666666666667
 40
0.1666666666666667
 40
0.1666666666666667
 40
0.1666666666666667
 40
0.25
 40
0.25
 40
0.25
 40
0.25
 40
0.3333333333333333
 40
0.3333333333333333
 40
0.3333333333333333
 40
0.3333333333333333
 40
0.4166666666666667
 40
0.4166666666666667
 40
0.4166666666666667
 40
0.4166666666666667
 40
0.5
 40
0.5
 40
0.5
 40
0.5
 40
0.5833333333333334
 40
0.5833333333333334
 40
0.5833333333333334
 40
0.5833333333333334
 40
0.6666666666666666
 40
0.6666666666666666
 40
0.6666666666666666
 40
0.6666666666666666
 40
0.75
 40
0.75
 40
0.75
 40
0.75
 40
0.8333333333333334
 40
0.8333333333333334
 40
0.8333333333333334
 40
0.8333333333333334
 40
1.0
 40
1.0
 40
1.0
 40
1.0
 10
-160.5127
 20
-40.3278
 30
0.0
 10
-159.119
 20
-40.2119
 30
0.0
 10
-157.8301
 20
-39.548
 30
0.0
 10
-156.9347
 20
-38.4848
 30
0.0
 10
-156.9347
 20
-38.4848
 30
0.0
 10
-156.0393
 20
-37.4215
 30
0.0
 10
-155.6119
 20
-36.0475
 30
0.0
 10
-155.748
 20
-34.6703
 30
0.0
 10
-155.748
 20
-34.6703
 30
0.0
 10
-151.5889
 20
-36.2351
 30
0.0
 10
-147.1732
 20
-37.0267
 30
0.0
 10
-142.7238
 20
-37.005
 30
0.0
 10
-142.7238
 20
-37.005
 30
0.0
 10
-143.5565
 20
-38.039
 30
0.0
 10
-143.8569
 20
-39.3969
 30
0.0
 10
-143.537
 20
-40.6806
 30
0.0
 10
-143.537
 20
-40.6806
 30
0.0
 10
-143.2168
 20
-41.9642
 30
0.0
 10
-142.3132
 20
-43.0282
 30
0.0
 10
-141.0899
 20
-43.5606
 30
0.0
 10
-141.0899
 20
-43.5606
 30
0.0
 10
-138.0917
 20
-44.9543
 30
0.0
 10
-134.5166
 20
-43.7419
 30
0.0
 10
-133.0122
 20
-40.8215
 30
0.0
 10
-133.0122
 20
-40.8215
 30
0.0
 10
-132.2058
 20
-39.0898
 30
0.0
 10
-132.8522
 20
-37.0349
 30
0.0
 10
-134.5097
 20
-36.062
 30
0.0
 10
-134.5097
 20
-36.062
 30
0.0
 10
-133.0513
 20
-35.6593
 30
0.0
 10
-131.6254
 20
-35.1491
 30
0.0
 10
-130.2438
 20
-34.5352
 30
0.0
 10
-130.2438
 20
-34.5352
 30
0.0
 10
-127.6907
 20
-37.0858
 30
0.0
 10
-125.0573
 20
-39.5568
 30
0.0
 10
-122.3478
 20
-41.9442
 30
0.0
 10
-122.3478
 20
-41.9442
 30
0.0
 10
-131.8054
 20
-48.9183
 30
0.0
 10
-144.5103
 20
-49.7785
 30
0.0
 10
-154.8401
 20
-44.1443
 30
0.0
 10
-154.8401
 20
-44.1443
 30
0.0
 10
-156.848
 20
-43.0508
 30
0.0
 10
-158.7469
 20
-41.773
 30
0.0
 10
-160.5127
 20
-40.3278
 30
0.0
  0
SPLINE
  5
56
330
1F
100
AcDbEntity
  8
layer 1
 62
     7
370
     9
100
AcDbSpline
210
0.0
220
0.0
230
1.0
 70
    11
 71
     3
 72
    24
 73
    20
 74
     0
 42
0.0000000001
 43
0.0000000001
 12
1.0
 22
0.0
 32
0.0
 13
1.0
 23
0.0
 33
0.0
 40
0.0
 40
0.0
 40
0.0
 40
0.0
 40
0.1666666666666667
 40
0.1666666666666667
 40
0.1666666666666667
 40
0.1666666666666667
 40
0.3333333333333333
 40
0.3333333333333333
 40
0.3333333333333333
 40
0.3333333333333333
 40
0.5
 40
0.5
 40
0.5
 40
0.5
 40
0.6666666666666666
 40
0.6666666666666666
 40
0.6666666666666666
 40
0.6666666666666666
 40
1.0
 40
1.0
 40
1.0
 40
1.0
 10
-117.6736
 20
111.8453
 30
0.0
 10
-110.6604
 20
107.9343
 30
0.0
 10
-105.7709
 20
101.1375
 30
0.0
 10
-104.3318
 20
93.3009
 30
0.0
 10
-104.3318
 20
93.3009
 30
0.0
 10
-102.8925
 20
101.1375
 30
0.0
 10
-98.0028
 20
107.9343
 30
0.0
 10
-90.9897
 20
111.8453
 30
0.0
 10
-90.9897
 20
111.8453
 30
0.0
 10
-91.5786
 20
112.4215
 30
0.0
 10
-92.1597
 20
113.0051
 30
0.0
 10
-92.7329
 20
113.5964
 30
0.0
 10
-92.7329
 20
113.5964
 30
0.0
 10
-92.7329
 20
113.5964
 30
0.0
 10
-115.9304
 20
113.5964
 30
0.0
 10
-115.9304
 20
113.5964
 30
0.0
 10
-115.9304
 20
113.5964
 30
0.0
 10
-116.5036
 20
113.0051
 30
0.0
 10
-117.0846
 20
112.4215
 30
0.0
 10
-117.6736
 20
111.8453
 30
0.0
  0
SPLINE
  5
57
330
1F
100
AcDbEntity
  8
layer 1
 62
     7
370
     9
100
AcDbSpline
210
0.0
220
0.0
230
1.0
 70
    11
 71
     3
 72
    28
 73
    24
 74
     0
 42
0.0000000001
 43
0.0000000001
 12
1.0
 22
0.0
 32
0.0
 13
1.0
 23
0.0
 33
0.0
 40
0.0
 40
0.0
 40
0.0
 40
0.0
 40
0.1428571428571428
 40
0.1428571428571428
 40
0.1428571428571428
 40
0.1428571428571428
 40
0.2857142857142857
 40
0.2857142857142857
 40
0.2857142857142857
 40
0.2857142857142857
 40
0.4285714285714285
 40
0.4285714285714285
 40
0.4285714285714285
 40
0.4285714285714285
 40
0.5714285714285714
 40
0.5714285714285714
 40
0.5714285714285714
 40
0.5714285714285714
 40
0.7142857142857143
 40
0.7142857142857143
 40
0.7142857142857143
 40
0.7142857142857143
 40
1.0
 40
1.0
 40
1.0
 40
1.0
 10
-104.3318
 20
88.182
 30
0.0
 10
-107.2243
 20
83.1525
 30
0.0
 10
-110.1438
 20
78.1383
 30
0.0
 10
-113.0901
 20
73.1397
 30
0.0
 10
-113.0901
 20
73.1397
 30
0.0
 10
-111.5345
 20
70.7935
 30
0.0
 10
-109.9611
 20
68.4584
 30
0.0
 10
-108.3703
 20
66.1351
 30
0.0
 10
-108.3703
 20
66.1351
 30
0.0
 10
-106.9024
 20
68.1056
 30
0.0
 10
-105.5537
 20
70.1605
 30
0.0
 10
-104.3318
 20
72.2893
 30
0.0
 10
-104.3318
 20
72.2893
 30
0.0
 10
-103.1096
 20
70.1605
 30
0.0
 10
-101.7609
 20
68.1056
 30
0.0
 10
-100.2929
 20
66.1351
 30
0.0
 10
-100.2929
 20
66.1351
 30
0.0
 10
-98.7022
 20
68.4584
 30
0.0
 10
-97.1291
 20
70.7935
 30
0.0
 10
-95.5731
 20
73.1397
 30
0.0
 10
-95.5731
 20
73.1397
 30
0.0
 10
-98.5195
 20
78.1383
 30
0.0
 10
-101.4389
 20
83.1525
 30
0.0
 10
-104.3318
 20
88.182
 30
0.0
  0
SPLINE
  5
58
330
1F
100
AcDbEntity
  8
layer 1
 62
     7
370
     9
100
AcDbSpline
210
0.0
220
0.0
230
1.0
 70
    11
 71
     3
 72
    28
 73
    24
 74
     0
 42
0.0000000001
 43
0.0000000001
 12
1.0
 22
0.0
 32
0.0
 13
1.0
 23
0.0
 33
0.0
 40
0.0
 40
0.0
 40
0.0
 40
0.0
 40
0.1428571428571428
 40
0.1428571428571428
 40
0.1428571428571428
 40
0.1428571428571428
 40
0.2857142857142857
 40
0.2857142857142857
 40
0.2857142857142857
 40
0.2857142857142857
 40
0.4285714285714285
 40
0.4285714285714285
 40
0.4285714285714285
 40
0.4285714285714285
 40
0.5714285714285714
 40
0.5714285714285714
 40
0.5714285714285714
 40
0.5714285714285714
 40
0.7142857142857143
 40
0.7142857142857143
 40
0.7142857142857143
 40
0.7142857142857143
 40
1.0
 40
1.0
 40
1.0
 40
1.0
 10
-107.0319
 20
52.7542
 30
0.0
 10
-108.2784
 20
51.3
 30
0.0
 10
-108.4078
 20
49.2067
 30
0.0
 10
-107.3495
 20
47.613
 30
0.0
 10
-107.3495
 20
47.613
 30
0.0
 10
-105.8329
 20
45.6687
 30
0.0
 10
-104.7995
 20
43.3994
 30
0.0
 10
-104.3318
 20
40.9874
 30
0.0
 10
-104.3318
 20
40.9874
 30
0.0
 10
-103.8637
 20
43.3994
 30
0.0
 10
-102.8304
 20
45.6687
 30
0.0
 10
-101.3138
 20
47.613
 30
0.0
 10
-101.3138
 20
47.613
 30
0.0
 10
-100.2555
 20
49.2067
 30
0.0
 10
-100.3849
 20
51.3
 30
0.0
 10
-101.6315
 20
52.7542
 30
0.0
 10
-101.6315
 20
52.7542
 30
0.0
 10
-102.3787
 20
53.3907
 30
0.0
 10
-103.347
 20
53.7149
 30
0.0
 10
-104.3318
 20
53.6581
 30
0.0
 10
-104.3318
 20
53.6581
 30
0.0
 10
-105.3162
 20
53.7149
 30
0.0
 10
-106.2846
 20
53.3907
 30
0.0
 10
-107.0319
 20
52.7542
 30
0.0
  0
SPLINE
  5
59
330
1F
100
AcDbEntity
  8
layer 1
 62
     7
370
     9
100
AcDbSpline
210
0.0
220
0.0
230
1.0
 70
    11
 71
     3
 72
    20
 73
    16
 74
     0
 42
0.0000000001
 43
0.0000000001
 12
1.0
 22
0.0
 32
0.0
 13
1.0
 23
0.0
 33
0.0
 40
0.0
 40
0.0
 40
0.0
 40
0.0
 40
0.2
 40
0.2
 40
0.2
 40
0.2
 40
0.4
 40
0.4
 40
0.4
 40
0.4
 40
0.6
 40
0.6
 40
0.6
 40
0.6
 40
1.0
 40
1.0
 40
1.0
 40
1.0
 10
-110.1405
 20
23.523
 30
0.0
 10
-107.8695
 20
26.263
 30
0.0
 10
-105.9206
 20
29.2495
 30
0.0
 10
-104.3318
 20
32.4255
 30
0.0
 10
-104.3318
 20
32.4255
 30
0.0
 10
-102.7427
 20
29.2495
 30
0.0
 10
-100.7939
 20
26.263
 30
0.0
 10
-98.5228
 20
23.523
 30
0.0
 10
-98.5228
 20
23.523
 30
0.0
 10
-100.5206
 20
21.5025
 30
0.0
 10
-102.4576
 20
19.4243
 30
0.0
 10
-104.3318
 20
17.2912
 30
0.0
 10
-104.3318
 20
17.2912
 30
0.0
 10
-106.2057
 20
19.4243
 30
0.0
 10
-108.1427
 20
21.5025
 30
0.0
 10
-110.1405
 20
23.523
 30
0.0
  0
SPLINE
  5
5A
330
1F
100
AcDbEntity
  8
layer 1
 62
     7
370
     9
100
AcDbSpline
210
0.0
220
0.0
230
1.0
 70
    11
 71
     3
 72
    16
 73
    12
 74
     0
 42
0.0000000001
 43
0.0000000001
 12
1.0
 22
0.0
 32
0.0
 13
1.0
 23
0.0
 33
0.0
 40
0.0
 40
0.0
 40
0.0
 40
0.0
 40
0.25
 40
0.25
 40
0.25
 40
0.25
 40
0.5
 40
0.5
 40
0.5
 40
0.5
 40
1.0
 40
1.0
 40
1.0
 40
1.0
 10
-170.7689
 20
34.4548
 30
0.0
 10
-170.3143
 20
33.2693
 30
0.0
 10
-169.7361
 20
32.1337
 30
0.0
 10
-169.0444
 20
31.0666
 30
0.0
 10
-169.0444
 20
31.0666
 30
0.0
 10
-169.6645
 20
30.7259
 30
0.0
 10
-170.243
 20
30.3161
 30
0.0
 10
-170.7689
 20
29.845
 30
0.0
 10
-170.7689
 20
29.845
 30
0.0
 10
-170.7689
 20
29.845
 30
0.0
 10
-170.7689
 20
34.4548
 30
0.0
 10
-170.7689
 20
34.4548
 30
0.0
  0
SPLINE
  5
5B
330
1F
100
AcDbEntity
  8
layer 1
 62
     7
370
     9
100
AcDbSpline
210
0.0
220
0.0
230
1.0
 70
    11
 71
     3
 72
    16
 73
    12
 74
     0
 42
0.0000000001
 43
0.0000000001
 12
1.0
 22
0.0
 32
0.0
 13
1.0
 23
0.0
 33
0.0
 40
0.0
 40
0.0
 40
0.0
 40
0.0
 40
0.25
 40
0.25
 40
0.25
 40
0.25
 40
0.5
 40
0.5
 40
0.5
 40
0.5
 40
1.0
 40
1.0
 40
1.0
 40
1.0
 10
-168.8174
 20
52.7542
 30
0.0
 10
-169.5615
 20
51.5885
 30
0.0
 10
-170.2138
 20
50.3678
 30
0.0
 10
-170.7689
 20
49.1032
 30
0.0
 10
-170.7689
 20
49.1032
 30
0.0
 10
-170.7689
 20
49.1032
 30
0.0
 10
-170.7689
 20
56.0166
 30
0.0
 10
-170.7689
 20
56.0166
 30
0.0
 10
-170.7689
 20
56.0166
 30
0.0
 10
-170.2391
 20
54.8629
 30
0.0
 10
-169.5847
 20
53.7691
 30
0.0
 10
-168.8174
 20
52.7542
 30
0.0
  0
SPLINE
  5
5C
330
1F
100
AcDbEntity
  8
layer 1
 62
     7
370
     9
100
AcDbSpline
210
0.0
220
0.0
230
1.0
 70
    11
 71
     3
 72
    76
 73
    72
 74
     0
 42
0.0000000001
 43
0.0000000001
 12
1.0
 22
0.0
 32
0.0
 13
1.0
 23
0.0
 33
0.0
 40
0.0
 40
0.0
 40
0.0
 40
0.0
 40
0.0526315789473684
 40
0.0526315789473684
 40
0.0526315789473684
 40
0.0526315789473684
 40
0.1052631578947368
 40
0.1052631578947368
 40
0.1052631578947368
 40
0.1052631578947368
 40
0.1578947368421053
 40
0.1578947368421053
 40
0.1578947368421053
 40
0.1578947368421053
 40
0.2105263157894737
 40
0.2105263157894737
 40
0.2105263157894737
 40
0.2105263157894737
 40
0.2631578947368421
 40
0.2631578947368421
 40
0.2631578947368421
 40
0.2631578947368421
 40
0.3157894736842105
 40
0.3157894736842105
 40
0.3157894736842105
 40
0.3157894736842105
 40
0.3684210526315789
 40
0.3684210526315789
 40
0.3684210526315789
 40
0.3684210526315789
 40
0.4210526315789473
 40
0.4210526315789473
 40
0.4210526315789473
 40
0.4210526315789473
 40
0.4736842105263158
 40
0.4736842105263158
 40
0.4736842105263158
 40
0.4736842105263158
 40
0.5263157894736842
 40
0.5263157894736842
 40
0.5263157894736842
 40
0.5263157894736842
 40
0.5789473684210527
 40
0.5789473684210527
 40
0.5789473684210527
 40
0.5789473684210527
 40
0.631578947368421
 40
0.631578947368421
 40
0.631578947368421
 40
0.631578947368421
 40
0.6842105263157895
 40
0.6842105263157895
 40
0.6842105263157895
 40
0.6842105263157895
 40
0.7368421052631579
 40
0.7368421052631579
 40
0.7368421052631579
 40
0.7368421052631579
 40
0.7894736842105263
 40
0.7894736842105263
 40
0.7894736842105263
 40
0.7894736842105263
 40
0.8421052631578947
 40
0.8421052631578947
 40
0.8421052631578947
 40
0.8421052631578947
 40
0.8947368421052632
 40
0.8947368421052632
 40
0.8947368421052632
 40
0.8947368421052632
 40
1.0
 40
1.0
 40
1.0
 40
1.0
 10
-161.5113
 20
75.6991
 30
0.0
 10
-153.2256
 20
81.518
 30
0.0
 10
-142.8174
 20
83.545
 30
0.0
 10
-132.9216
 20
81.267
 30
0.0
 10
-132.9216
 20
81.267
 30
0.0
 10
-135.5424
 20
87.8663
 30
0.0
 10
-136.1113
 20
95.0901
 30
0.0
 10
-134.555
 20
102.0116
 30
0.0
 10
-134.555
 20
102.0116
 30
0.0
 10
-133.4789
 20
105.1054
 30
0.0
 10
-131.6382
 20
107.8836
 30
0.0
 10
-129.2003
 20
110.094
 30
0.0
 10
-129.2003
 20
110.094
 30
0.0
 10
-136.8093
 20
109.9471
 30
0.0
 10
-143.603
 20
105.3419
 30
0.0
 10
-146.4904
 20
98.3744
 30
0.0
 10
-146.4904
 20
98.3744
 30
0.0
 10
-144.8536
 20
98.948
 30
0.0
 10
-143.0322
 20
98.6185
 30
0.0
 10
-141.7058
 20
97.5095
 30
0.0
 10
-141.7058
 20
97.5095
 30
0.0
 10
-140.3798
 20
96.4007
 30
0.0
 10
-139.7478
 20
94.6788
 30
0.0
 10
-140.046
 20
92.9862
 30
0.0
 10
-140.046
 20
92.9862
 30
0.0
 10
-140.2271
 20
90.4945
 30
0.0
 10
-138.5864
 20
88.2293
 30
0.0
 10
-136.1435
 20
87.5983
 30
0.0
 10
-136.1435
 20
87.5983
 30
0.0
 10
-137.7287
 20
85.6866
 30
0.0
 10
-140.1223
 20
84.6125
 30
0.0
 10
-142.62
 20
84.6917
 30
0.0
 10
-142.62
 20
84.6917
 30
0.0
 10
-145.118
 20
84.7708
 30
0.0
 10
-147.437
 20
85.9941
 30
0.0
 10
-148.8954
 20
88.0023
 30
0.0
 10
-148.8954
 20
88.0023
 30
0.0
 10
-149.4045
 20
84.6302
 30
0.0
 10
-151.7383
 20
81.8044
 30
0.0
 10
-154.9764
 20
80.6383
 30
0.0
 10
-154.9764
 20
80.6383
 30
0.0
 10
-157.4448
 20
79.642
 30
0.0
 10
-160.2417
 20
79.8431
 30
0.0
 10
-162.5388
 20
81.182
 30
0.0
 10
-162.5388
 20
81.182
 30
0.0
 10
-164.8358
 20
82.5211
 30
0.0
 10
-166.369
 20
84.8441
 30
0.0
 10
-166.6846
 20
87.4633
 30
0.0
 10
-166.6846
 20
87.4633
 30
0.0
 10
-163.5383
 20
85.4885
 30
0.0
 10
-159.4157
 20
86.0171
 30
0.0
 10
-156.8824
 20
88.7207
 30
0.0
 10
-156.8824
 20
88.7207
 30
0.0
 10
-154.3322
 20
92.389
 30
0.0
 10
-152.1584
 20
96.2998
 30
0.0
 10
-150.3929
 20
100.3952
 30
0.0
 10
-150.3929
 20
100.3952
 30
0.0
 10
-147.0477
 20
106.3973
 30
0.0
 10
-141.6996
 20
111.0636
 30
0.0
 10
-135.2625
 20
113.5964
 30
0.0
 10
-135.2625
 20
113.5964
 30
0.0
 10
-135.2625
 20
113.5964
 30
0.0
 10
-170.7689
 20
113.5964
 30
0.0
 10
-170.7689
 20
113.5964
 30
0.0
 10
-170.7689
 20
113.5964
 30
0.0
 10
-170.7689
 20
113.5964
 30
0.0
 10
-170.7689
 20
65.4551
 30
0.0
 10
-170.7689
 20
65.4551
 30
0.0
 10
-170.7689
 20
65.4551
 30
0.0
 10
-168.8253
 20
69.7331
 30
0.0
 10
-165.5915
 20
73.3115
 30
0.0
 10
-161.5113
 20
75.6991
 30
0.0
  0
SPLINE
  5
5D
330
1F
100
AcDbEntity
  8
layer 1
 62
     7
370
     9
100
AcDbSpline
210
0.0
220
0.0
230
1.0
 70
    11
 71
     3
 72
    44
 73
    40
 74
     0
 42
0.0000000001
 43
0.0000000001
 12
1.0
 22
0.0
 32
0.0
 13
1.0
 23
0.0
 33
0.0
 40
0.0
 40
0.0
 40
0.0
 40
0.0
 40
0.0909090909090909
 40
0.0909090909090909
 40
0.0909090909090909
 40
0.0909090909090909
 40
0.1818181818181818
 40
0.1818181818181818
 40
0.1818181818181818
 40
0.1818181818181818
 40
0.2727272727272727
 40
0.2727272727272727
 40
0.2727272727272727
 40
0.2727272727272727
 40
0.3636363636363636
 40
0.3636363636363636
 40
0.3636363636363636
 40
0.3636363636363636
 40
0.4545454545454545
 40
0.4545454545454545
 40
0.4545454545454545
 40
0.4545454545454545
 40
0.5454545454545454
 40
0.5454545454545454
 40
0.5454545454545454
 40
0.5454545454545454
 40
0.6363636363636364
 40
0.6363636363636364
 40
0.6363636363636364
 40
0.6363636363636364
 40
0.7272727272727273
 40
0.7272727272727273
 40
0.7272727272727273
 40
0.7272727272727273
 40
0.8181818181818182
 40
0.8181818181818182
 40
0.8181818181818182
 40
0.8181818181818182
 40
1.0
 40
1.0
 40
1.0
 40
1.0
 10
-124.7981
 20
98.3297
 30
0.0
 10
-124.471
 20
102.1781
 30
0.0
 10
-122.9491
 20
105.8323
 30
0.0
 10
-120.4416
 20
108.7919
 30
0.0
 10
-120.4416
 20
108.7919
 30
0.0
 10
-115.5645
 20
106.9981
 30
0.0
 10
-111.6984
 20
103.2217
 30
0.0
 10
-109.8225
 20
98.4194
 30
0.0
 10
-109.8225
 20
98.4194
 30
0.0
 10
-111.2461
 20
97.4866
 30
0.0
 10
-112.0345
 20
95.8538
 30
0.0
 10
-111.8732
 20
94.1716
 30
0.0
 10
-111.8732
 20
94.1716
 30
0.0
 10
-111.7115
 20
92.4902
 30
0.0
 10
-110.6269
 20
91.0331
 30
0.0
 10
-109.0513
 20
90.3821
 30
0.0
 10
-109.0513
 20
90.3821
 30
0.0
 10
-109.9181
 20
85.3528
 30
0.0
 10
-112.4578
 20
80.7543
 30
0.0
 10
-116.2668
 20
77.3155
 30
0.0
 10
-116.2668
 20
77.3155
 30
0.0
 10
-118.9579
 20
80.078
 30
0.0
 10
-120.8128
 20
83.5311
 30
0.0
 10
-121.6219
 20
87.2839
 30
0.0
 10
-121.6219
 20
87.2839
 30
0.0
 10
-122.1274
 20
89.0213
 30
0.0
 10
-121.4964
 20
90.8873
 30
0.0
 10
-120.0357
 20
91.9739
 30
0.0
 10
-120.0357
 20
91.9739
 30
0.0
 10
-118.5749
 20
93.0601
 30
0.0
 10
-116.588
 20
93.1416
 30
0.0
 10
-115.0416
 20
92.1782
 30
0.0
 10
-115.0416
 20
92.1782
 30
0.0
 10
-114.7302
 20
94.6076
 30
0.0
 10
-115.8628
 20
96.9965
 30
0.0
 10
-117.9502
 20
98.3127
 30
0.0
 10
-117.9502
 20
98.3127
 30
0.0
 10
-120.0373
 20
99.6285
 30
0.0
 10
-122.7045
 20
99.6351
 30
0.0
 10
-124.7981
 20
98.3297
 30
0.0
  0
SPLINE
  5
5E
330
1F
100
AcDbEntity
  8
layer 1
 62
     7
370
     9
100
AcDbSpline
210
0.0
220
0.0
230
1.0
 70
    11
 71
     3
 72
    24
 73
    20
 74
     0
 42
0.0000000001
 43
0.0000000001
 12
1.0
 22
0.0
 32
0.0
 13
1.0
 23
0.0
 33
0.0
 40
0.0
 40
0.0
 40
0.0
 40
0.0
 40
0.1666666666666667
 40
0.1666666666666667
 40
0.1666666666666667
 40
0.1666666666666667
 40
0.3333333333333333
 40
0.3333333333333333
 40
0.3333333333333333
 40
0.3333333333333333
 40
0.5
 40
0.5
 40
0.5
 40
0.5
 40
0.6666666666666666
 40
0.6666666666666666
 40
0.6666666666666666
 40
0.6666666666666666
 40
1.0
 40
1.0
 40
1.0
 40
1.0
 10
-117.492
 20
67.7964
 30
0.0
 10
-120.2515
 20
65.5937
 30
0.0
 10
-122.3796
 20
62.7143
 30
0.0
 10
-123.664
 20
59.4444
 30
0.0
 10
-123.664
 20
59.4444
 30
0.0
 10
-120.6246
 20
56.773
 30
0.0
 10
-118.1424
 20
53.5396
 30
0.0
 10
-116.3574
 20
49.9253
 30
0.0
 10
-116.3574
 20
49.9253
 30
0.0
 10
-115.4972
 20
49.8537
 30
0.0
 10
-114.634
 20
49.8238
 30
0.0
 10
-113.7708
 20
49.8354
 30
0.0
 10
-113.7708
 20
49.8354
 30
0.0
 10
-115.1132
 20
53.8499
 30
0.0
 10
-114.4747
 20
58.255
 30
0.0
 10
-112.0463
 20
61.7345
 30
0.0
 10
-112.0463
 20
61.7345
 30
0.0
 10
-113.6502
 20
63.932
 30
0.0
 10
-115.4749
 20
65.9626
 30
0.0
 10
-117.492
 20
67.7964
 30
0.0
  0
SPLINE
  5
5F
330
1F
100
AcDbEntity
  8
layer 1
 62
     7
370
     9
100
AcDbSpline
210
0.0
220
0.0
230
1.0
 70
    11
 71
     3
 72
    24
 73
    20
 74
     0
 42
0.0000000001
 43
0.0000000001
 12
1.0
 22
0.0
 32
0.0
 13
1.0
 23
0.0
 33
0.0
 40
0.0
 40
0.0
 40
0.0
 40
0.0
 40
0.1666666666666667
 40
0.1666666666666667
 40
0.1666666666666667
 40
0.1666666666666667
 40
0.3333333333333333
 40
0.3333333333333333
 40
0.3333333333333333
 40
0.3333333333333333
 40
0.5
 40
0.5
 40
0.5
 40
0.5
 40
0.6666666666666666
 40
0.6666666666666666
 40
0.6666666666666666
 40
0.6666666666666666
 40
1.0
 40
1.0
 40
1.0
 40
1.0
 10
-120.0787
 20
34.3444
 30
0.0
 10
-117.9295
 20
31.5744
 30
0.0
 10
-115.5129
 20
29.0179
 30
0.0
 10
-112.8631
 20
26.711
 30
0.0
 10
-112.8631
 20
26.711
 30
0.0
 10
-110.4906
 20
29.4998
 30
0.0
 10
-108.6876
 20
32.7172
 30
0.0
 10
-107.5537
 20
36.1854
 30
0.0
 10
-107.5537
 20
36.1854
 30
0.0
 10
-109.2898
 20
35.223
 30
0.0
 10
-111.348
 20
35.0046
 30
0.0
 10
-113.2505
 20
35.5814
 30
0.0
 10
-113.2505
 20
35.5814
 30
0.0
 10
-115.1533
 20
36.1578
 30
0.0
 10
-116.7348
 20
37.4793
 30
0.0
 10
-117.6283
 20
39.2386
 30
0.0
 10
-117.6283
 20
39.2386
 30
0.0
 10
-118.189
 20
37.4934
 30
0.0
 10
-119.0151
 20
35.8432
 30
0.0
 10
-120.0787
 20
34.3444
 30
0.0
  0
SPLINE
  5
60
330
1F
100
AcDbEntity
  8
layer 1
 62
     7
370
     9
100
AcDbSpline
210
0.0
220
0.0
230
1.0
 70
    11
 71
     3
 72
    16
 73
    12
 74
     0
 42
0.0000000001
 43
0.0000000001
 12
1.0
 22
0.0
 32
0.0
 13
1.0
 23
0.0
 33
0.0
 40
0.0
 40
0.0
 40
0.0
 40
0.0
 40
0.25
 40
0.25
 40
0.25
 40
0.25
 40
0.5
 40
0.5
 40
0.5
 40
0.5
 40
1.0
 40
1.0
 40
1.0
 40
1.0
 10
-126.5226
 20
42.651
 30
0.0
 10
-124.9236
 20
43.7268
 30
0.0
 10
-122.9052
 20
43.9928
 30
0.0
 10
-121.0769
 20
43.3698
 30
0.0
 10
-121.0769
 20
43.3698
 30
0.0
 10
-121.5817
 20
41.4722
 30
0.0
 10
-122.329
 20
39.6466
 30
0.0
 10
-123.3006
 20
37.9365
 30
0.0
 10
-123.3006
 20
37.9365
 30
0.0
 10
-124.8448
 20
39.1375
 30
0.0
 10
-125.9714
 20
40.7861
 30
0.0
 10
-126.5226
 20
42.651
 30
0.0
  0
SPLINE
  5
61
330
1F
100
AcDbEntity
  8
layer 1
 62
     7
370
     9
100
AcDbSpline
210
0.0
220
0.0
230
1.0
 70
    11
 71
     3
 72
    16
 73
    12
 74
     0
 42
0.0000000001
 43
0.0000000001
 12
1.0
 22
0.0
 32
0.0
 13
1.0
 23
0.0
 33
0.0
 40
0.0
 40
0.0
 40
0.0
 40
0.0
 40
0.25
 40
0.25
 40
0.25
 40
0.25
 40
0.5
 40
0.5
 40
0.5
 40
0.5
 40
1.0
 40
1.0
 40
1.0
 40
1.0
 10
-126.6136
 20
43.9982
 30
0.0
 10
-127.7557
 20
48.0915
 30
0.0
 10
-127.3855
 20
52.4536
 30
0.0
 10
-125.5697
 20
56.3013
 30
0.0
 10
-125.5697
 20
56.3013
 30
0.0
 10
-123.7263
 20
54.2448
 30
0.0
 10
-122.2804
 20
51.8702
 30
0.0
 10
-121.3039
 20
49.2967
 30
0.0
 10
-121.3039
 20
49.2967
 30
0.0
 10
-123.7302
 20
48.3218
 30
0.0
 10
-125.6489
 20
46.4075
 30
0.0
 10
-126.6136
 20
43.9982
 30
0.0
  0
SPLINE
  5
62
330
1F
100
AcDbEntity
  8
layer 1
 62
     7
370
     9
100
AcDbSpline
210
0.0
220
0.0
230
1.0
 70
    11
 71
     3
 72
    32
 73
    28
 74
     0
 42
0.0000000001
 43
0.0000000001
 12
1.0
 22
0.0
 32
0.0
 13
1.0
 23
0.0
 33
0.0
 40
0.0
 40
0.0
 40
0.0
 40
0.0
 40
0.125
 40
0.125
 40
0.125
 40
0.125
 40
0.25
 40
0.25
 40
0.25
 40
0.25
 40
0.375
 40
0.375
 40
0.375
 40
0.375
 40
0.5
 40
0.5
 40
0.5
 40
0.5
 40
0.625
 40
0.625
 40
0.625
 40
0.625
 40
0.75
 40
0.75
 40
0.75
 40
0.75
 40
1.0
 40
1.0
 40
1.0
 40
1.0
 10
-131.8324
 20
26.0824
 30
0.0
 10
-129.2985
 20
26.9899
 30
0.0
 10
-126.9135
 20
28.2607
 30
0.0
 10
-124.7528
 20
29.8542
 30
0.0
 10
-124.7528
 20
29.8542
 30
0.0
 10
-121.7916
 20
27.7376
 30
0.0
 10
-119.0276
 20
25.363
 30
0.0
 10
-116.4938
 20
22.7595
 30
0.0
 10
-116.4938
 20
22.7595
 30
0.0
 10
-119.2303
 20
20.2737
 30
0.0
 10
-122.4387
 20
18.3505
 30
0.0
 10
-125.9327
 20
17.102
 30
0.0
 10
-125.9327
 20
17.102
 30
0.0
 10
-128.2957
 20
17.7842
 30
0.0
 10
-130.7342
 20
18.1764
 30
0.0
 10
-133.1938
 20
18.2693
 30
0.0
 10
-133.1938
 20
18.2693
 30
0.0
 10
-132.5744
 20
18.6609
 30
0.0
 10
-131.9023
 20
18.9631
 30
0.0
 10
-131.1971
 20
19.1674
 30
0.0
 10
-131.1971
 20
19.1674
 30
0.0
 10
-130.034
 20
20.005
 30
0.0
 10
-129.4013
 20
21.3859
 30
0.0
 10
-129.5317
 20
22.8032
 30
0.0
 10
-129.5317
 20
22.8032
 30
0.0
 10
-129.6618
 20
24.2206
 30
0.0
 10
-130.5355
 20
25.4662
 30
0.0
 10
-131.8324
 20
26.0824
 30
0.0
  0
SPLINE
  5
63
330
1F
100
AcDbEntity
  8
layer 1
 62
     7
370
     9
100
AcDbSpline
210
0.0
220
0.0
230
1.0
 70
    11
 71
     3
 72
    12
 73
     8
 74
     0
 42
0.0000000001
 43
0.0000000001
 12
1.0
 22
0.0
 32
0.0
 13
1.0
 23
0.0
 33
0.0
 40
0.0
 40
0.0
 40
0.0
 40
0.0
 40
0.3333333333333333
 40
0.3333333333333333
 40
0.3333333333333333
 40
0.3333333333333333
 40
1.0
 40
1.0
 40
1.0
 40
1.0
 10
-141.9068
 20
30.8419
 30
0.0
 10
-137.9271
 20
33.6549
 30
0.0
 10
-132.7606
 20
34.2323
 30
0.0
 10
-128.2471
 20
32.3687
 30
0.0
 10
-128.2471
 20
32.3687
 30
0.0
 10
-132.2787
 20
29.6922
 30
0.0
 10
-137.3736
 20
29.1227
 30
0.0
 10
-141.9068
 20
30.8419
 30
0.0
  0
SPLINE
  5
64
330
1F
100
AcDbEntity
  8
layer 1
 62
     7
370
     9
100
AcDbSpline
210
0.0
220
0.0
230
1.0
 70
    11
 71
     3
 72
    28
 73
    24
 74
     0
 42
0.0000000001
 43
0.0000000001
 12
1.0
 22
0.0
 32
0.0
 13
1.0
 23
0.0
 33
0.0
 40
0.0
 40
0.0
 40
0.0
 40
0.0
 40
0.1428571428571428
 40
0.1428571428571428
 40
0.1428571428571428
 40
0.1428571428571428
 40
0.2857142857142857
 40
0.2857142857142857
 40
0.2857142857142857
 40
0.2857142857142857
 40
0.4285714285714285
 40
0.4285714285714285
 40
0.4285714285714285
 40
0.4285714285714285
 40
0.5714285714285714
 40
0.5714285714285714
 40
0.5714285714285714
 40
0.5714285714285714
 40
0.7142857142857143
 40
0.7142857142857143
 40
0.7142857142857143
 40
0.7142857142857143
 40
1.0
 40
1.0
 40
1.0
 40
1.0
 10
-157.3361
 20
21.3229
 30
0.0
 10
-154.2163
 20
19.443
 30
0.0
 10
-150.8593
 20
17.9784
 30
0.0
 10
-147.3526
 20
16.9673
 30
0.0
 10
-147.3526
 20
16.9673
 30
0.0
 10
-144.3514
 20
17.8111
 30
0.0
 10
-141.2582
 20
18.2936
 30
0.0
 10
-138.1403
 20
18.4041
 30
0.0
 10
-138.1403
 20
18.4041
 30
0.0
 10
-139.5461
 20
18.8711
 30
0.0
 10
-140.5893
 20
20.0506
 30
0.0
 10
-140.8712
 20
21.4913
 30
0.0
 10
-140.8712
 20
21.4913
 30
0.0
 10
-141.153
 20
22.932
 30
0.0
 10
-140.6298
 20
24.4114
 30
0.0
 10
-139.5018
 20
25.364
 30
0.0
 10
-139.5018
 20
25.364
 30
0.0
 10
-141.9417
 20
25.7227
 30
0.0
 10
-144.3228
 20
26.4023
 30
0.0
 10
-146.581
 20
27.3844
 30
0.0
 10
-146.581
 20
27.3844
 30
0.0
 10
-149.7347
 20
24.693
 30
0.0
 10
-153.3878
 20
22.634
 30
0.0
 10
-157.3361
 20
21.3229
 30
0.0
  0
SPLINE
  5
65
330
1F
100
AcDbEntity
  8
layer 1
 62
     7
370
     9
100
AcDbSpline
210
0.0
220
0.0
230
1.0
 70
    11
 71
     3
 72
    36
 73
    32
 74
     0
 42
0.0000000001
 43
0.0000000001
 12
1.0
 22
0.0
 32
0.0
 13
1.0
 23
0.0
 33
0.0
 40
0.0
 40
0.0
 40
0.0
 40
0.0
 40
0.1111111111111111
 40
0.1111111111111111
 40
0.1111111111111111
 40
0.1111111111111111
 40
0.2222222222222222
 40
0.2222222222222222
 40
0.2222222222222222
 40
0.2222222222222222
 40
0.3333333333333333
 40
0.3333333333333333
 40
0.3333333333333333
 40
0.3333333333333333
 40
0.4444444444444444
 40
0.4444444444444444
 40
0.4444444444444444
 40
0.4444444444444444
 40
0.5555555555555556
 40
0.5555555555555556
 40
0.5555555555555556
 40
0.5555555555555556
 40
0.6666666666666666
 40
0.6666666666666666
 40
0.6666666666666666
 40
0.6666666666666666
 40
0.7777777777777778
 40
0.7777777777777778
 40
0.7777777777777778
 40
0.7777777777777778
 40
1.0
 40
1.0
 40
1.0
 40
1.0
 10
-149.1677
 20
34.7484
 30
0.0
 10
-146.9787
 20
39.2166
 30
0.0
 10
-142.4317
 20
42.0828
 30
0.0
 10
-137.414
 20
42.1574
 30
0.0
 10
-137.414
 20
42.1574
 30
0.0
 10
-139.2778
 20
46.7454
 30
0.0
 10
-138.9096
 20
51.9264
 30
0.0
 10
-136.4158
 20
56.2116
 30
0.0
 10
-136.4158
 20
56.2116
 30
0.0
 10
-135.2731
 20
57.992
 30
0.0
 10
-134.1083
 20
59.7581
 30
0.0
 10
-132.9216
 20
61.5102
 30
0.0
 10
-132.9216
 20
61.5102
 30
0.0
 10
-140.5135
 20
64.1285
 30
0.0
 10
-148.8498
 20
63.6269
 30
0.0
 10
-156.0656
 20
60.1181
 30
0.0
 10
-156.0656
 20
60.1181
 30
0.0
 10
-150.747
 20
59.8724
 30
0.0
 10
-145.9299
 20
56.9382
 30
0.0
 10
-143.3137
 20
52.3501
 30
0.0
 10
-143.3137
 20
52.3501
 30
0.0
 10
-142.0894
 20
49.5634
 30
0.0
 10
-141.8189
 20
46.4574
 30
0.0
 10
-142.5421
 20
43.5044
 30
0.0
 10
-142.5421
 20
43.5044
 30
0.0
 10
-144.4335
 20
40.8143
 30
0.0
 10
-148.0578
 20
39.9468
 30
0.0
 10
-150.9828
 20
41.4837
 30
0.0
 10
-150.9828
 20
41.4837
 30
0.0
 10
-151.8112
 20
39.0819
 30
0.0
 10
-151.0945
 20
36.4233
 30
0.0
 10
-149.1677
 20
34.7484
 30
0.0
  0
SPLINE
  5
66
330
1F
100
AcDbEntity
  8
layer 1
 62
     7
370
     9
100
AcDbSpline
210
0.0
220
0.0
230
1.0
 70
    11
 71
     3
 72
    48
 73
    44
 74
     0
 42
0.0000000001
 43
0.0000000001
 12
1.0
 22
0.0
 32
0.0
 13
1.0
 23
0.0
 33
0.0
 40
0.0
 40
0.0
 40
0.0
 40
0.0
 40
0.0833333333333333
 40
0.0833333333333333
 40
0.0833333333333333
 40
0.0833333333333333
 40
0.1666666666666667
 40
0.1666666666666667
 40
0.1666666666666667
 40
0.1666666666666667
 40
0.25
 40
0.25
 40
0.25
 40
0.25
 40
0.3333333333333333
 40
0.3333333333333333
 40
0.3333333333333333
 40
0.3333333333333333
 40
0.4166666666666667
 40
0.4166666666666667
 40
0.4166666666666667
 40
0.4166666666666667
 40
0.5
 40
0.5
 40
0.5
 40
0.5
 40
0.5833333333333334
 40
0.5833333333333334
 40
0.5833333333333334
 40
0.5833333333333334
 40
0.6666666666666666
 40
0.6666666666666666
 40
0.6666666666666666
 40
0.6666666666666666
 40
0.75
 40
0.75
 40
0.75
 40
0.75
 40
0.8333333333333334
 40
0.8333333333333334
 40
0.8333333333333334
 40
0.8333333333333334
 40
1.0
 40
1.0
 40
1.0
 40
1.0
 10
-157.1094
 20
59.5344
 30
0.0
 10
-155.8297
 20
59.3137
 30
0.0
 10
-154.7066
 20
58.5618
 30
0.0
 10
-154.0235
 20
57.4687
 30
0.0
 10
-154.0235
 20
57.4687
 30
0.0
 10
-152.1847
 20
54.1489
 30
0.0
 10
-152.0664
 20
50.1579
 30
0.0
 10
-153.7058
 20
46.7373
 30
0.0
 10
-153.7058
 20
46.7373
 30
0.0
 10
-155.2697
 20
43.1092
 30
0.0
 10
-155.6195
 20
39.0812
 30
0.0
 10
-154.704
 20
35.2424
 30
0.0
 10
-154.704
 20
35.2424
 30
0.0
 10
-153.9932
 20
33.6047
 30
0.0
 10
-153.0949
 20
32.0526
 30
0.0
 10
-152.0267
 20
30.6175
 30
0.0
 10
-152.0267
 20
30.6175
 30
0.0
 10
-154.1237
 20
26.9778
 30
0.0
 10
-157.9224
 20
24.6184
 30
0.0
 10
-162.1466
 20
24.3312
 30
0.0
 10
-162.1466
 20
24.3312
 30
0.0
 10
-160.7492
 20
26.2296
 30
0.0
 10
-160.9411
 20
28.8484
 30
0.0
 10
-162.6002
 20
30.5275
 30
0.0
 10
-162.6002
 20
30.5275
 30
0.0
 10
-163.3629
 20
31.289
 30
0.0
 10
-164.3194
 20
31.8319
 30
0.0
 10
-165.3685
 20
32.0993
 30
0.0
 10
-165.3685
 20
32.0993
 30
0.0
 10
-167.9979
 20
37.706
 30
0.0
 10
-167.7447
 20
44.2208
 30
0.0
 10
-164.6879
 20
49.611
 30
0.0
 10
-164.6879
 20
49.611
 30
0.0
 10
-161.6207
 20
48.1001
 30
0.0
 10
-158.1767
 20
47.4996
 30
0.0
 10
-154.7721
 20
47.8823
 30
0.0
 10
-154.7721
 20
47.8823
 30
0.0
 10
-157.3965
 20
48.3283
 30
0.0
 10
-159.4714
 20
50.3288
 30
0.0
 10
-159.9898
 20
52.9131
 30
0.0
 10
-159.9898
 20
52.9131
 30
0.0
 10
-160.5081
 20
55.4976
 30
0.0
 10
-159.3628
 20
58.1305
 30
0.0
 10
-157.1094
 20
59.5344
 30
0.0
  0
SPLINE
  5
67
330
1F
100
AcDbEntity
  8
layer 1
 62
     7
370
     9
100
AcDbSpline
210
0.0
220
0.0
230
1.0
 70
    11
 71
     3
 72
    48
 73
    44
 74
     0
 42
0.0000000001
 43
0.0000000001
 12
1.0
 22
0.0
 32
0.0
 13
1.0
 23
0.0
 33
0.0
 40
0.0
 40
0.0
 40
0.0
 40
0.0
 40
0.0833333333333333
 40
0.0833333333333333
 40
0.0833333333333333
 40
0.0833333333333333
 40
0.1666666666666667
 40
0.1666666666666667
 40
0.1666666666666667
 40
0.1666666666666667
 40
0.25
 40
0.25
 40
0.25
 40
0.25
 40
0.3333333333333333
 40
0.3333333333333333
 40
0.3333333333333333
 40
0.3333333333333333
 40
0.4166666666666667
 40
0.4166666666666667
 40
0.4166666666666667
 40
0.4166666666666667
 40
0.5
 40
0.5
 40
0.5
 40
0.5
 40
0.5833333333333334
 40
0.5833333333333334
 40
0.5833333333333334
 40
0.5833333333333334
 40
0.6666666666666666
 40
0.6666666666666666
 40
0.6666666666666666
 40
0.6666666666666666
 40
0.75
 40
0.75
 40
0.75
 40
0.75
 40
0.8333333333333334
 40
0.8333333333333334
 40
0.8333333333333334
 40
0.8333333333333334
 40
1.0
 40
1.0
 40
1.0
 40
1.0
 10
-160.5127
 20
70.3109
 30
0.0
 10
-159.119
 20
70.1949
 30
0.0
 10
-157.8301
 20
69.5311
 30
0.0
 10
-156.9347
 20
68.4679
 30
0.0
 10
-156.9347
 20
68.4679
 30
0.0
 10
-156.0393
 20
67.4046
 30
0.0
 10
-155.6119
 20
66.0306
 30
0.0
 10
-155.748
 20
64.6533
 30
0.0
 10
-155.748
 20
64.6533
 30
0.0
 10
-151.5889
 20
66.2181
 30
0.0
 10
-147.1732
 20
67.0098
 30
0.0
 10
-142.7238
 20
66.9881
 30
0.0
 10
-142.7238
 20
66.9881
 30
0.0
 10
-143.5565
 20
68.0221
 30
0.0
 10
-143.8569
 20
69.3801
 30
0.0
 10
-143.537
 20
70.6637
 30
0.0
 10
-143.537
 20
70.6637
 30
0.0
 10
-143.2168
 20
71.9474
 30
0.0
 10
-142.3132
 20
73.0112
 30
0.0
 10
-141.0899
 20
73.5437
 30
0.0
 10
-141.0899
 20
73.5437
 30
0.0
 10
-138.0917
 20
74.9374
 30
0.0
 10
-134.5166
 20
73.725
 30
0.0
 10
-133.0122
 20
70.8046
 30
0.0
 10
-133.0122
 20
70.8046
 30
0.0
 10
-132.2058
 20
69.0729
 30
0.0
 10
-132.8522
 20
67.018
 30
0.0
 10
-134.5097
 20
66.045
 30
0.0
 10
-134.5097
 20
66.045
 30
0.0
 10
-133.0513
 20
65.6423
 30
0.0
 10
-131.6254
 20
65.1322
 30
0.0
 10
-130.2438
 20
64.5187
 30
0.0
 10
-130.2438
 20
64.5187
 30
0.0
 10
-127.6907
 20
67.0689
 30
0.0
 10
-125.0573
 20
69.54
 30
0.0
 10
-122.3478
 20
71.9273
 30
0.0
 10
-122.3478
 20
71.9273
 30
0.0
 10
-131.8054
 20
78.9014
 30
0.0
 10
-144.5103
 20
79.7617
 30
0.0
 10
-154.8401
 20
74.1274
 30
0.0
 10
-154.8401
 20
74.1274
 30
0.0
 10
-156.848
 20
73.034
 30
0.0
 10
-158.7469
 20
71.7562
 30
0.0
 10
-160.5127
 20
70.3109
 30
0.0
  0
SPLINE
  5
68
330
1F
100
AcDbEntity
  8
layer 1
 62
     7
370
     9
100
AcDbSpline
210
0.0
220
0.0
230
1.0
 70
    11
 71
     3
 72
    20
 73
    16
 74
     0
 42
0.0000000001
 43
0.0000000001
 12
1.0
 22
0.0
 32
0.0
 13
1.0
 23
0.0
 33
0.0
 40
0.0
 40
0.0
 40
0.0
 40
0.0
 40
0.2
 40
0.2
 40
0.2
 40
0.2
 40
0.4
 40
0.4
 40
0.4
 40
0.4
 40
0.6
 40
0.6
 40
0.6
 40
0.6
 40
1.0
 40
1.0
 40
1.0
 40
1.0
 10
-87.4954
 20
14.9916
 30
0.0
 10
-90.3018
 20
13.6242
 30
0.0
 10
-92.9365
 20
11.9361
 30
0.0
 10
-95.3462
 20
9.9624
 30
0.0
 10
-95.3462
 20
9.9624
 30
0.0
 10
-97.2333
 20
11.7374
 30
0.0
 10
-99.2106
 20
13.4159
 30
0.0
 10
-101.2705
 20
14.9916
 30
0.0
 10
-101.2705
 20
14.9916
 30
0.0
 10
-99.2106
 20
16.5672
 30
0.0
 10
-97.2333
 20
18.2457
 30
0.0
 10
-95.3462
 20
20.0207
 30
0.0
 10
-95.3462
 20
20.0207
 30
0.0
 10
-92.9365
 20
18.047
 30
0.0
 10
-90.3018
 20
16.359
 30
0.0
 10
-87.4954
 20
14.9916
 30
0.0
  0
SPLINE
  5
69
330
1F
100
AcDbEntity
  8
layer 1
 62
     7
370
     9
100
AcDbSpline
210
0.0
220
0.0
230
1.0
 70
    11
 71
     3
 72
    24
 73
    20
 74
     0
 42
0.0000000001
 43
0.0000000001
 12
1.0
 22
0.0
 32
0.0
 13
1.0
 23
0.0
 33
0.0
 40
0.0
 40
0.0
 40
0.0
 40
0.0
 40
0.1666666666666667
 40
0.1666666666666667
 40
0.1666666666666667
 40
0.1666666666666667
 40
0.3333333333333333
 40
0.3333333333333333
 40
0.3333333333333333
 40
0.3333333333333333
 40
0.5
 40
0.5
 40
0.5
 40
0.5
 40
0.6666666666666666
 40
0.6666666666666666
 40
0.6666666666666666
 40
0.6666666666666666
 40
1.0
 40
1.0
 40
1.0
 40
1.0
 10
-46.4713
 20
9.5584
 30
0.0
 10
-49.2979
 20
11.6208
 30
0.0
 10
-52.2985
 20
13.4385
 30
0.0
 10
-55.4399
 20
14.9916
 30
0.0
 10
-55.4399
 20
14.9916
 30
0.0
 10
-52.2985
 20
16.5449
 30
0.0
 10
-49.2979
 20
18.3626
 30
0.0
 10
-46.4713
 20
20.4248
 30
0.0
 10
-46.4713
 20
20.4248
 30
0.0
 10
-43.2798
 20
19.7186
 30
0.0
 10
-39.959
 20
20.8581
 30
0.0
 10
-37.8944
 20
23.3676
 30
0.0
 10
-37.8944
 20
23.3676
 30
0.0
 10
-37.8944
 20
23.3676
 30
0.0
 10
-37.8944
 20
6.6155
 30
0.0
 10
-37.8944
 20
6.6155
 30
0.0
 10
-37.8944
 20
6.6155
 30
0.0
 10
-39.959
 20
9.1251
 30
0.0
 10
-43.2798
 20
10.2645
 30
0.0
 10
-46.4713
 20
9.5584
 30
0.0
  0
SPLINE
  5
6A
330
1F
100
AcDbEntity
  8
layer 1
 62
     7
370
     9
100
AcDbSpline
210
0.0
220
0.0
230
1.0
 70
    11
 71
     3
 72
    16
 73
    12
 74
     0
 42
0.0000000001
 43
0.0000000001
 12
1.0
 22
0.0
 32
0.0
 13
1.0
 23
0.0
 33
0.0
 40
0.0
 40
0.0
 40
0.0
 40
0.0
 40
0.25
 40
0.25
 40
0.25
 40
0.25
 40
0.5
 40
0.5
 40
0.5
 40
0.5
 40
1.0
 40
1.0
 40
1.0
 40
1.0
 10
-37.8944
 20
-4.4716
 30
0.0
 10
-38.3491
 20
-3.2862
 30
0.0
 10
-38.9269
 20
-2.1507
 30
0.0
 10
-39.6189
 20
-1.0834
 30
0.0
 10
-39.6189
 20
-1.0834
 30
0.0
 10
-38.9989
 20
-0.7428
 30
0.0
 10
-38.4202
 20
-0.3329
 30
0.0
 10
-37.8944
 20
0.1382
 30
0.0
 10
-37.8944
 20
0.1382
 30
0.0
 10
-37.8944
 20
0.1382
 30
0.0
 10
-37.8944
 20
-4.4716
 30
0.0
 10
-37.8944
 20
-4.4716
 30
0.0
  0
SPLINE
  5
6B
330
1F
100
AcDbEntity
  8
layer 1
 62
     7
370
     9
100
AcDbSpline
210
0.0
220
0.0
230
1.0
 70
    11
 71
     3
 72
    16
 73
    12
 74
     0
 42
0.0000000001
 43
0.0000000001
 12
1.0
 22
0.0
 32
0.0
 13
1.0
 23
0.0
 33
0.0
 40
0.0
 40
0.0
 40
0.0
 40
0.0
 40
0.25
 40
0.25
 40
0.25
 40
0.25
 40
0.5
 40
0.5
 40
0.5
 40
0.5
 40
1.0
 40
1.0
 40
1.0
 40
1.0
 10
-39.8457
 20
-22.771
 30
0.0
 10
-39.1019
 20
-21.6053
 30
0.0
 10
-38.4495
 20
-20.3847
 30
0.0
 10
-37.8944
 20
-19.1201
 30
0.0
 10
-37.8944
 20
-19.1201
 30
0.0
 10
-37.8944
 20
-19.1201
 30
0.0
 10
-37.8944
 20
-26.0334
 30
0.0
 10
-37.8944
 20
-26.0334
 30
0.0
 10
-37.8944
 20
-26.0334
 30
0.0
 10
-38.4245
 20
-24.8799
 30
0.0
 10
-39.0787
 20
-23.786
 30
0.0
 10
-39.8457
 20
-22.771
 30
0.0
  0
SPLINE
  5
6C
330
1F
100
AcDbEntity
  8
layer 1
 62
     7
370
     9
100
AcDbSpline
210
0.0
220
0.0
230
1.0
 70
    11
 71
     3
 72
    76
 73
    72
 74
     0
 42
0.0000000001
 43
0.0000000001
 12
1.0
 22
0.0
 32
0.0
 13
1.0
 23
0.0
 33
0.0
 40
0.0
 40
0.0
 40
0.0
 40
0.0
 40
0.0526315789473684
 40
0.0526315789473684
 40
0.0526315789473684
 40
0.0526315789473684
 40
0.1052631578947368
 40
0.1052631578947368
 40
0.1052631578947368
 40
0.1052631578947368
 40
0.1578947368421053
 40
0.1578947368421053
 40
0.1578947368421053
 40
0.1578947368421053
 40
0.2105263157894737
 40
0.2105263157894737
 40
0.2105263157894737
 40
0.2105263157894737
 40
0.2631578947368421
 40
0.2631578947368421
 40
0.2631578947368421
 40
0.2631578947368421
 40
0.3157894736842105
 40
0.3157894736842105
 40
0.3157894736842105
 40
0.3157894736842105
 40
0.3684210526315789
 40
0.3684210526315789
 40
0.3684210526315789
 40
0.3684210526315789
 40
0.4210526315789473
 40
0.4210526315789473
 40
0.4210526315789473
 40
0.4210526315789473
 40
0.4736842105263158
 40
0.4736842105263158
 40
0.4736842105263158
 40
0.4736842105263158
 40
0.5263157894736842
 40
0.5263157894736842
 40
0.5263157894736842
 40
0.5263157894736842
 40
0.5789473684210527
 40
0.5789473684210527
 40
0.5789473684210527
 40
0.5789473684210527
 40
0.631578947368421
 40
0.631578947368421
 40
0.631578947368421
 40
0.631578947368421
 40
0.6842105263157895
 40
0.6842105263157895
 40
0.6842105263157895
 40
0.6842105263157895
 40
0.7368421052631579
 40
0.7368421052631579
 40
0.7368421052631579
 40
0.7368421052631579
 40
0.7894736842105263
 40
0.7894736842105263
 40
0.7894736842105263
 40
0.7894736842105263
 40
0.8421052631578947
 40
0.8421052631578947
 40
0.8421052631578947
 40
0.8421052631578947
 40
0.8947368421052632
 40
0.8947368421052632
 40
0.8947368421052632
 40
0.8947368421052632
 40
1.0
 40
1.0
 40
1.0
 40
1.0
 10
-47.1521
 20
-45.716
 30
0.0
 10
-55.4377
 20
-51.5348
 30
0.0
 10
-65.8456
 20
-53.5618
 30
0.0
 10
-75.7421
 20
-51.2836
 30
0.0
 10
-75.7421
 20
-51.2836
 30
0.0
 10
-73.1209
 20
-57.8833
 30
0.0
 10
-72.5519
 20
-65.107
 30
0.0
 10
-74.1083
 20
-72.0285
 30
0.0
 10
-74.1083
 20
-72.0285
 30
0.0
 10
-75.1843
 20
-75.1222
 30
0.0
 10
-77.0251
 20
-77.9006
 30
0.0
 10
-79.4633
 20
-80.1109
 30
0.0
 10
-79.4633
 20
-80.1109
 30
0.0
 10
-71.854
 20
-79.9639
 30
0.0
 10
-65.0602
 20
-75.3588
 30
0.0
 10
-62.173
 20
-68.3914
 30
0.0
 10
-62.173
 20
-68.3914
 30
0.0
 10
-63.8098
 20
-68.9647
 30
0.0
 10
-65.6311
 20
-68.6355
 30
0.0
 10
-66.9574
 20
-67.5264
 30
0.0
 10
-66.9574
 20
-67.5264
 30
0.0
 10
-68.2835
 20
-66.4175
 30
0.0
 10
-68.9154
 20
-64.6957
 30
0.0
 10
-68.6172
 20
-63.0031
 30
0.0
 10
-68.6172
 20
-63.0031
 30
0.0
 10
-68.4362
 20
-60.5113
 30
0.0
 10
-70.077
 20
-58.2462
 30
0.0
 10
-72.5198
 20
-57.6148
 30
0.0
 10
-72.5198
 20
-57.6148
 30
0.0
 10
-70.9346
 20
-55.7035
 30
0.0
 10
-68.5413
 20
-54.6294
 30
0.0
 10
-66.0433
 20
-54.7086
 30
0.0
 10
-66.0433
 20
-54.7086
 30
0.0
 10
-63.5453
 20
-54.7877
 30
0.0
 10
-61.2263
 20
-56.0109
 30
0.0
 10
-59.7679
 20
-58.0192
 30
0.0
 10
-59.7679
 20
-58.0192
 30
0.0
 10
-59.2587
 20
-54.6471
 30
0.0
 10
-56.9249
 20
-51.821
 30
0.0
 10
-53.687
 20
-50.6552
 30
0.0
 10
-53.687
 20
-50.6552
 30
0.0
 10
-51.2185
 20
-49.659
 30
0.0
 10
-48.4215
 20
-49.86
 30
0.0
 10
-46.1247
 20
-51.1988
 30
0.0
 10
-46.1247
 20
-51.1988
 30
0.0
 10
-43.8278
 20
-52.5377
 30
0.0
 10
-42.2944
 20
-54.861
 30
0.0
 10
-41.9788
 20
-57.4802
 30
0.0
 10
-41.9788
 20
-57.4802
 30
0.0
 10
-45.1249
 20
-55.5051
 30
0.0
 10
-49.2476
 20
-56.0339
 30
0.0
 10
-51.7809
 20
-58.7375
 30
0.0
 10
-51.7809
 20
-58.7375
 30
0.0
 10
-54.331
 20
-62.406
 30
0.0
 10
-56.5048
 20
-66.3167
 30
0.0
 10
-58.2704
 20
-70.412
 30
0.0
 10
-58.2704
 20
-70.412
 30
0.0
 10
-61.6155
 20
-76.4141
 30
0.0
 10
-66.9637
 20
-81.0804
 30
0.0
 10
-73.4007
 20
-83.6132
 30
0.0
 10
-73.4007
 20
-83.6132
 30
0.0
 10
-73.4007
 20
-83.6132
 30
0.0
 10
-37.8944
 20
-83.6132
 30
0.0
 10
-37.8944
 20
-83.6132
 30
0.0
 10
-37.8944
 20
-83.6132
 30
0.0
 10
-37.8944
 20
-83.6132
 30
0.0
 10
-37.8944
 20
-35.472
 30
0.0
 10
-37.8944
 20
-35.472
 30
0.0
 10
-37.8944
 20
-35.472
 30
0.0
 10
-39.8382
 20
-39.75
 30
0.0
 10
-43.0718
 20
-43.3283
 30
0.0
 10
-47.1521
 20
-45.716
 30
0.0
  0
SPLINE
  5
6D
330
1F
100
AcDbEntity
  8
layer 1
 62
     7
370
     9
100
AcDbSpline
210
0.0
220
0.0
230
1.0
 70
    11
 71
     3
 72
    44
 73
    40
 74
     0
 42
0.0000000001
 43
0.0000000001
 12
1.0
 22
0.0
 32
0.0
 13
1.0
 23
0.0
 33
0.0
 40
0.0
 40
0.0
 40
0.0
 40
0.0
 40
0.0909090909090909
 40
0.0909090909090909
 40
0.0909090909090909
 40
0.0909090909090909
 40
0.1818181818181818
 40
0.1818181818181818
 40
0.1818181818181818
 40
0.1818181818181818
 40
0.2727272727272727
 40
0.2727272727272727
 40
0.2727272727272727
 40
0.2727272727272727
 40
0.3636363636363636
 40
0.3636363636363636
 40
0.3636363636363636
 40
0.3636363636363636
 40
0.4545454545454545
 40
0.4545454545454545
 40
0.4545454545454545
 40
0.4545454545454545
 40
0.5454545454545454
 40
0.5454545454545454
 40
0.5454545454545454
 40
0.5454545454545454
 40
0.6363636363636364
 40
0.6363636363636364
 40
0.6363636363636364
 40
0.6363636363636364
 40
0.7272727272727273
 40
0.7272727272727273
 40
0.7272727272727273
 40
0.7272727272727273
 40
0.8181818181818182
 40
0.8181818181818182
 40
0.8181818181818182
 40
0.8181818181818182
 40
1.0
 40
1.0
 40
1.0
 40
1.0
 10
-83.8651
 20
-68.3466
 30
0.0
 10
-84.1923
 20
-72.1949
 30
0.0
 10
-85.7141
 20
-75.8491
 30
0.0
 10
-88.2216
 20
-78.8087
 30
0.0
 10
-88.2216
 20
-78.8087
 30
0.0
 10
-93.0987
 20
-77.0149
 30
0.0
 10
-96.9648
 20
-73.2386
 30
0.0
 10
-98.8404
 20
-68.4363
 30
0.0
 10
-98.8404
 20
-68.4363
 30
0.0
 10
-97.4172
 20
-67.5034
 30
0.0
 10
-96.6289
 20
-65.8707
 30
0.0
 10
-96.7902
 20
-64.1886
 30
0.0
 10
-96.7902
 20
-64.1886
 30
0.0
 10
-96.9517
 20
-62.5068
 30
0.0
 10
-98.0363
 20
-61.05
 30
0.0
 10
-99.612
 20
-60.399
 30
0.0
 10
-99.612
 20
-60.399
 30
0.0
 10
-98.7448
 20
-55.3698
 30
0.0
 10
-96.2054
 20
-50.7712
 30
0.0
 10
-92.3965
 20
-47.3324
 30
0.0
 10
-92.3965
 20
-47.3324
 30
0.0
 10
-89.7053
 20
-50.0949
 30
0.0
 10
-87.8505
 20
-53.5481
 30
0.0
 10
-87.0415
 20
-57.3005
 30
0.0
 10
-87.0415
 20
-57.3005
 30
0.0
 10
-86.5359
 20
-59.0381
 30
0.0
 10
-87.1669
 20
-60.9042
 30
0.0
 10
-88.6276
 20
-61.9908
 30
0.0
 10
-88.6276
 20
-61.9908
 30
0.0
 10
-90.0883
 20
-63.077
 30
0.0
 10
-92.0753
 20
-63.1585
 30
0.0
 10
-93.622
 20
-62.1951
 30
0.0
 10
-93.622
 20
-62.1951
 30
0.0
 10
-93.9331
 20
-64.6244
 30
0.0
 10
-92.8005
 20
-67.0134
 30
0.0
 10
-90.7134
 20
-68.3294
 30
0.0
 10
-90.7134
 20
-68.3294
 30
0.0
 10
-88.626
 20
-69.6454
 30
0.0
 10
-85.9588
 20
-69.652
 30
0.0
 10
-83.8651
 20
-68.3466
 30
0.0
  0
SPLINE
  5
6E
330
1F
100
AcDbEntity
  8
layer 1
 62
     7
370
     9
100
AcDbSpline
210
0.0
220
0.0
230
1.0
 70
    11
 71
     3
 72
    24
 73
    20
 74
     0
 42
0.0000000001
 43
0.0000000001
 12
1.0
 22
0.0
 32
0.0
 13
1.0
 23
0.0
 33
0.0
 40
0.0
 40
0.0
 40
0.0
 40
0.0
 40
0.1666666666666667
 40
0.1666666666666667
 40
0.1666666666666667
 40
0.1666666666666667
 40
0.3333333333333333
 40
0.3333333333333333
 40
0.3333333333333333
 40
0.3333333333333333
 40
0.5
 40
0.5
 40
0.5
 40
0.5
 40
0.6666666666666666
 40
0.6666666666666666
 40
0.6666666666666666
 40
0.6666666666666666
 40
1.0
 40
1.0
 40
1.0
 40
1.0
 10
-91.1713
 20
-37.813
 30
0.0
 10
-88.4115
 20
-35.6107
 30
0.0
 10
-86.2837
 20
-32.7312
 30
0.0
 10
-84.9997
 20
-29.4613
 30
0.0
 10
-84.9997
 20
-29.4613
 30
0.0
 10
-88.0387
 20
-26.7899
 30
0.0
 10
-90.5209
 20
-23.5561
 30
0.0
 10
-92.3058
 20
-19.9423
 30
0.0
 10
-92.3058
 20
-19.9423
 30
0.0
 10
-93.1661
 20
-19.8707
 30
0.0
 10
-94.0294
 20
-19.8408
 30
0.0
 10
-94.8926
 20
-19.8522
 30
0.0
 10
-94.8926
 20
-19.8522
 30
0.0
 10
-93.5501
 20
-23.8668
 30
0.0
 10
-94.1887
 20
-28.2719
 30
0.0
 10
-96.6171
 20
-31.7515
 30
0.0
 10
-96.6171
 20
-31.7515
 30
0.0
 10
-95.0131
 20
-33.9486
 30
0.0
 10
-93.1885
 20
-35.9795
 30
0.0
 10
-91.1713
 20
-37.813
 30
0.0
  0
SPLINE
  5
6F
330
1F
100
AcDbEntity
  8
layer 1
 62
     7
370
     9
100
AcDbSpline
210
0.0
220
0.0
230
1.0
 70
    11
 71
     3
 72
    24
 73
    20
 74
     0
 42
0.0000000001
 43
0.0000000001
 12
1.0
 22
0.0
 32
0.0
 13
1.0
 23
0.0
 33
0.0
 40
0.0
 40
0.0
 40
0.0
 40
0.0
 40
0.1666666666666667
 40
0.1666666666666667
 40
0.1666666666666667
 40
0.1666666666666667
 40
0.3333333333333333
 40
0.3333333333333333
 40
0.3333333333333333
 40
0.3333333333333333
 40
0.5
 40
0.5
 40
0.5
 40
0.5
 40
0.6666666666666666
 40
0.6666666666666666
 40
0.6666666666666666
 40
0.6666666666666666
 40
1.0
 40
1.0
 40
1.0
 40
1.0
 10
-88.5846
 20
-4.3613
 30
0.0
 10
-90.7337
 20
-1.5913
 30
0.0
 10
-93.1503
 20
0.9652
 30
0.0
 10
-95.8001
 20
3.2721
 30
0.0
 10
-95.8001
 20
3.2721
 30
0.0
 10
-98.1727
 20
0.4837
 30
0.0
 10
-99.9756
 20
-2.734
 30
0.0
 10
-101.1095
 20
-6.2023
 30
0.0
 10
-101.1095
 20
-6.2023
 30
0.0
 10
-99.3736
 20
-5.2399
 30
0.0
 10
-97.3154
 20
-5.0215
 30
0.0
 10
-95.4129
 20
-5.5983
 30
0.0
 10
-95.4129
 20
-5.5983
 30
0.0
 10
-93.51
 20
-6.1748
 30
0.0
 10
-91.9284
 20
-7.4962
 30
0.0
 10
-91.035
 20
-9.2555
 30
0.0
 10
-91.035
 20
-9.2555
 30
0.0
 10
-90.4743
 20
-7.5103
 30
0.0
 10
-89.6482
 20
-5.8598
 30
0.0
 10
-88.5846
 20
-4.3613
 30
0.0
  0
SPLINE
  5
70
330
1F
100
AcDbEntity
  8
layer 1
 62
     7
370
     9
100
AcDbSpline
210
0.0
220
0.0
230
1.0
 70
    11
 71
     3
 72
    16
 73
    12
 74
     0
 42
0.0000000001
 43
0.0000000001
 12
1.0
 22
0.0
 32
0.0
 13
1.0
 23
0.0
 33
0.0
 40
0.0
 40
0.0
 40
0.0
 40
0.0
 40
0.25
 40
0.25
 40
0.25
 40
0.25
 40
0.5
 40
0.5
 40
0.5
 40
0.5
 40
1.0
 40
1.0
 40
1.0
 40
1.0
 10
-82.1406
 20
-12.668
 30
0.0
 10
-83.7397
 20
-13.7437
 30
0.0
 10
-85.7581
 20
-14.0098
 30
0.0
 10
-87.5864
 20
-13.3863
 30
0.0
 10
-87.5864
 20
-13.3863
 30
0.0
 10
-87.0815
 20
-11.4894
 30
0.0
 10
-86.3342
 20
-9.6634
 30
0.0
 10
-85.3626
 20
-7.9534
 30
0.0
 10
-85.3626
 20
-7.9534
 30
0.0
 10
-83.8185
 20
-9.1543
 30
0.0
 10
-82.6919
 20
-10.8026
 30
0.0
 10
-82.1406
 20
-12.668
 30
0.0
  0
SPLINE
  5
71
330
1F
100
AcDbEntity
  8
layer 1
 62
     7
370
     9
100
AcDbSpline
210
0.0
220
0.0
230
1.0
 70
    11
 71
     3
 72
    16
 73
    12
 74
     0
 42
0.0000000001
 43
0.0000000001
 12
1.0
 22
0.0
 32
0.0
 13
1.0
 23
0.0
 33
0.0
 40
0.0
 40
0.0
 40
0.0
 40
0.0
 40
0.25
 40
0.25
 40
0.25
 40
0.25
 40
0.5
 40
0.5
 40
0.5
 40
0.5
 40
1.0
 40
1.0
 40
1.0
 40
1.0
 10
-82.0497
 20
-14.015
 30
0.0
 10
-80.9076
 20
-18.1085
 30
0.0
 10
-81.2778
 20
-22.4705
 30
0.0
 10
-83.0935
 20
-26.3182
 30
0.0
 10
-83.0935
 20
-26.3182
 30
0.0
 10
-84.9369
 20
-24.2616
 30
0.0
 10
-86.3829
 20
-21.8871
 30
0.0
 10
-87.3594
 20
-19.3136
 30
0.0
 10
-87.3594
 20
-19.3136
 30
0.0
 10
-84.9326
 20
-18.3383
 30
0.0
 10
-83.0148
 20
-16.4244
 30
0.0
 10
-82.0497
 20
-14.015
 30
0.0
  0
SPLINE
  5
72
330
1F
100
AcDbEntity
  8
layer 1
 62
     7
370
     9
100
AcDbSpline
210
0.0
220
0.0
230
1.0
 70
    11
 71
     3
 72
    32
 73
    28
 74
     0
 42
0.0000000001
 43
0.0000000001
 12
1.0
 22
0.0
 32
0.0
 13
1.0
 23
0.0
 33
0.0
 40
0.0
 40
0.0
 40
0.0
 40
0.0
 40
0.125
 40
0.125
 40
0.125
 40
0.125
 40
0.25
 40
0.25
 40
0.25
 40
0.25
 40
0.375
 40
0.375
 40
0.375
 40
0.375
 40
0.5
 40
0.5
 40
0.5
 40
0.5
 40
0.625
 40
0.625
 40
0.625
 40
0.625
 40
0.75
 40
0.75
 40
0.75
 40
0.75
 40
1.0
 40
1.0
 40
1.0
 40
1.0
 10
-76.831
 20
3.9007
 30
0.0
 10
-79.3648
 20
2.9932
 30
0.0
 10
-81.7501
 20
1.7223
 30
0.0
 10
-83.9105
 20
0.1289
 30
0.0
 10
-83.9105
 20
0.1289
 30
0.0
 10
-86.8716
 20
2.2456
 30
0.0
 10
-89.6357
 20
4.6201
 30
0.0
 10
-92.1699
 20
7.2235
 30
0.0
 10
-92.1699
 20
7.2235
 30
0.0
 10
-89.433
 20
9.7094
 30
0.0
 10
-86.2245
 20
11.6327
 30
0.0
 10
-82.7306
 20
12.8812
 30
0.0
 10
-82.7306
 20
12.8812
 30
0.0
 10
-80.3676
 20
12.1989
 30
0.0
 10
-77.929
 20
11.8067
 30
0.0
 10
-75.4694
 20
11.7138
 30
0.0
 10
-75.4694
 20
11.7138
 30
0.0
 10
-76.0886
 20
11.3222
 30
0.0
 10
-76.761
 20
11.02
 30
0.0
 10
-77.4662
 20
10.8157
 30
0.0
 10
-77.4662
 20
10.8157
 30
0.0
 10
-78.6293
 20
9.9781
 30
0.0
 10
-79.262
 20
8.5972
 30
0.0
 10
-79.1315
 20
7.1799
 30
0.0
 10
-79.1315
 20
7.1799
 30
0.0
 10
-79.0015
 20
5.7626
 30
0.0
 10
-78.1277
 20
4.5169
 30
0.0
 10
-76.831
 20
3.9007
 30
0.0
  0
SPLINE
  5
73
330
1F
100
AcDbEntity
  8
layer 1
 62
     7
370
     9
100
AcDbSpline
210
0.0
220
0.0
230
1.0
 70
    11
 71
     3
 72
    12
 73
     8
 74
     0
 42
0.0000000001
 43
0.0000000001
 12
1.0
 22
0.0
 32
0.0
 13
1.0
 23
0.0
 33
0.0
 40
0.0
 40
0.0
 40
0.0
 40
0.0
 40
0.3333333333333333
 40
0.3333333333333333
 40
0.3333333333333333
 40
0.3333333333333333
 40
1.0
 40
1.0
 40
1.0
 40
1.0
 10
-66.7564
 20
-0.8588
 30
0.0
 10
-70.7362
 20
-3.6718
 30
0.0
 10
-75.9027
 20
-4.2493
 30
0.0
 10
-80.4162
 20
-2.3855
 30
0.0
 10
-80.4162
 20
-2.3855
 30
0.0
 10
-76.3849
 20
0.2909
 30
0.0
 10
-71.2896
 20
0.8604
 30
0.0
 10
-66.7564
 20
-0.8588
 30
0.0
  0
SPLINE
  5
74
330
1F
100
AcDbEntity
  8
layer 1
 62
     7
370
     9
100
AcDbSpline
210
0.0
220
0.0
230
1.0
 70
    11
 71
     3
 72
    28
 73
    24
 74
     0
 42
0.0000000001
 43
0.0000000001
 12
1.0
 22
0.0
 32
0.0
 13
1.0
 23
0.0
 33
0.0
 40
0.0
 40
0.0
 40
0.0
 40
0.0
 40
0.1428571428571428
 40
0.1428571428571428
 40
0.1428571428571428
 40
0.1428571428571428
 40
0.2857142857142857
 40
0.2857142857142857
 40
0.2857142857142857
 40
0.2857142857142857
 40
0.4285714285714285
 40
0.4285714285714285
 40
0.4285714285714285
 40
0.4285714285714285
 40
0.5714285714285714
 40
0.5714285714285714
 40
0.5714285714285714
 40
0.5714285714285714
 40
0.7142857142857143
 40
0.7142857142857143
 40
0.7142857142857143
 40
0.7142857142857143
 40
1.0
 40
1.0
 40
1.0
 40
1.0
 10
-51.3271
 20
8.6603
 30
0.0
 10
-54.447
 20
10.5401
 30
0.0
 10
-57.804
 20
12.0048
 30
0.0
 10
-61.3107
 20
13.0158
 30
0.0
 10
-61.3107
 20
13.0158
 30
0.0
 10
-64.312
 20
12.1719
 30
0.0
 10
-67.4052
 20
11.6895
 30
0.0
 10
-70.523
 20
11.5791
 30
0.0
 10
-70.523
 20
11.5791
 30
0.0
 10
-69.1171
 20
11.112
 30
0.0
 10
-68.0739
 20
9.9325
 30
0.0
 10
-67.7921
 20
8.4918
 30
0.0
 10
-67.7921
 20
8.4918
 30
0.0
 10
-67.5103
 20
7.0511
 30
0.0
 10
-68.0335
 20
5.5717
 30
0.0
 10
-69.1615
 20
4.6191
 30
0.0
 10
-69.1615
 20
4.6191
 30
0.0
 10
-66.7216
 20
4.2604
 30
0.0
 10
-64.3405
 20
3.5808
 30
0.0
 10
-62.0823
 20
2.5987
 30
0.0
 10
-62.0823
 20
2.5987
 30
0.0
 10
-58.9287
 20
5.2902
 30
0.0
 10
-55.2754
 20
7.349
 30
0.0
 10
-51.3271
 20
8.6603
 30
0.0
  0
SPLINE
  5
75
330
1F
100
AcDbEntity
  8
layer 1
 62
     7
370
     9
100
AcDbSpline
210
0.0
220
0.0
230
1.0
 70
    11
 71
     3
 72
    36
 73
    32
 74
     0
 42
0.0000000001
 43
0.0000000001
 12
1.0
 22
0.0
 32
0.0
 13
1.0
 23
0.0
 33
0.0
 40
0.0
 40
0.0
 40
0.0
 40
0.0
 40
0.1111111111111111
 40
0.1111111111111111
 40
0.1111111111111111
 40
0.1111111111111111
 40
0.2222222222222222
 40
0.2222222222222222
 40
0.2222222222222222
 40
0.2222222222222222
 40
0.3333333333333333
 40
0.3333333333333333
 40
0.3333333333333333
 40
0.3333333333333333
 40
0.4444444444444444
 40
0.4444444444444444
 40
0.4444444444444444
 40
0.4444444444444444
 40
0.5555555555555556
 40
0.5555555555555556
 40
0.5555555555555556
 40
0.5555555555555556
 40
0.6666666666666666
 40
0.6666666666666666
 40
0.6666666666666666
 40
0.6666666666666666
 40
0.7777777777777778
 40
0.7777777777777778
 40
0.7777777777777778
 40
0.7777777777777778
 40
1.0
 40
1.0
 40
1.0
 40
1.0
 10
-59.4956
 20
-4.7653
 30
0.0
 10
-61.6845
 20
-9.2334
 30
0.0
 10
-66.2315
 20
-12.0997
 30
0.0
 10
-71.2492
 20
-12.1739
 30
0.0
 10
-71.2492
 20
-12.1739
 30
0.0
 10
-69.3855
 20
-16.7624
 30
0.0
 10
-69.7537
 20
-21.9433
 30
0.0
 10
-72.2475
 20
-26.2286
 30
0.0
 10
-72.2475
 20
-26.2286
 30
0.0
 10
-73.3902
 20
-28.0088
 30
0.0
 10
-74.555
 20
-29.775
 30
0.0
 10
-75.7421
 20
-31.5268
 30
0.0
 10
-75.7421
 20
-31.5268
 30
0.0
 10
-68.1498
 20
-34.145
 30
0.0
 10
-59.8136
 20
-33.6437
 30
0.0
 10
-52.5978
 20
-30.1351
 30
0.0
 10
-52.5978
 20
-30.1351
 30
0.0
 10
-57.9163
 20
-29.8894
 30
0.0
 10
-62.7333
 20
-26.9551
 30
0.0
 10
-65.3496
 20
-22.367
 30
0.0
 10
-65.3496
 20
-22.367
 30
0.0
 10
-66.5738
 20
-19.5802
 30
0.0
 10
-66.8445
 20
-16.4743
 30
0.0
 10
-66.1212
 20
-13.5213
 30
0.0
 10
-66.1212
 20
-13.5213
 30
0.0
 10
-64.2299
 20
-10.8312
 30
0.0
 10
-60.6055
 20
-9.9637
 30
0.0
 10
-57.6804
 20
-11.5006
 30
0.0
 10
-57.6804
 20
-11.5006
 30
0.0
 10
-56.852
 20
-9.0988
 30
0.0
 10
-57.5688
 20
-6.4399
 30
0.0
 10
-59.4956
 20
-4.7653
 30
0.0
  0
SPLINE
  5
76
330
1F
100
AcDbEntity
  8
layer 1
 62
     7
370
     9
100
AcDbSpline
210
0.0
220
0.0
230
1.0
 70
    11
 71
     3
 72
    48
 73
    44
 74
     0
 42
0.0000000001
 43
0.0000000001
 12
1.0
 22
0.0
 32
0.0
 13
1.0
 23
0.0
 33
0.0
 40
0.0
 40
0.0
 40
0.0
 40
0.0
 40
0.0833333333333333
 40
0.0833333333333333
 40
0.0833333333333333
 40
0.0833333333333333
 40
0.1666666666666667
 40
0.1666666666666667
 40
0.1666666666666667
 40
0.1666666666666667
 40
0.25
 40
0.25
 40
0.25
 40
0.25
 40
0.3333333333333333
 40
0.3333333333333333
 40
0.3333333333333333
 40
0.3333333333333333
 40
0.4166666666666667
 40
0.4166666666666667
 40
0.4166666666666667
 40
0.4166666666666667
 40
0.5
 40
0.5
 40
0.5
 40
0.5
 40
0.5833333333333334
 40
0.5833333333333334
 40
0.5833333333333334
 40
0.5833333333333334
 40
0.6666666666666666
 40
0.6666666666666666
 40
0.6666666666666666
 40
0.6666666666666666
 40
0.75
 40
0.75
 40
0.75
 40
0.75
 40
0.8333333333333334
 40
0.8333333333333334
 40
0.8333333333333334
 40
0.8333333333333334
 40
1.0
 40
1.0
 40
1.0
 40
1.0
 10
-51.5539
 20
-29.5514
 30
0.0
 10
-52.8335
 20
-29.3306
 30
0.0
 10
-53.9566
 20
-28.5787
 30
0.0
 10
-54.6398
 20
-27.4856
 30
0.0
 10
-54.6398
 20
-27.4856
 30
0.0
 10
-56.4786
 20
-24.1657
 30
0.0
 10
-56.5968
 20
-20.1748
 30
0.0
 10
-54.9574
 20
-16.7541
 30
0.0
 10
-54.9574
 20
-16.7541
 30
0.0
 10
-53.3937
 20
-13.1262
 30
0.0
 10
-53.0438
 20
-9.0981
 30
0.0
 10
-53.9592
 20
-5.2593
 30
0.0
 10
-53.9592
 20
-5.2593
 30
0.0
 10
-54.67
 20
-3.6212
 30
0.0
 10
-55.5684
 20
-2.0696
 30
0.0
 10
-56.6366
 20
-0.6341
 30
0.0
 10
-56.6366
 20
-0.6341
 30
0.0
 10
-54.5397
 20
3.0053
 30
0.0
 10
-50.741
 20
5.3651
 30
0.0
 10
-46.5168
 20
5.6518
 30
0.0
 10
-46.5168
 20
5.6518
 30
0.0
 10
-47.914
 20
3.7536
 30
0.0
 10
-47.7223
 20
1.1347
 30
0.0
 10
-46.063
 20
-0.5444
 30
0.0
 10
-46.063
 20
-0.5444
 30
0.0
 10
-45.3003
 20
-1.3059
 30
0.0
 10
-44.3439
 20
-1.8488
 30
0.0
 10
-43.2947
 20
-2.1162
 30
0.0
 10
-43.2947
 20
-2.1162
 30
0.0
 10
-40.6656
 20
-7.7228
 30
0.0
 10
-40.9186
 20
-14.2377
 30
0.0
 10
-43.9755
 20
-19.6279
 30
0.0
 10
-43.9755
 20
-19.6279
 30
0.0
 10
-47.0427
 20
-18.1169
 30
0.0
 10
-50.4865
 20
-17.5165
 30
0.0
 10
-53.8912
 20
-17.8991
 30
0.0
 10
-53.8912
 20
-17.8991
 30
0.0
 10
-51.2667
 20
-18.3452
 30
0.0
 10
-49.1918
 20
-20.3456
 30
0.0
 10
-48.6734
 20
-22.93
 30
0.0
 10
-48.6734
 20
-22.93
 30
0.0
 10
-48.155
 20
-25.5144
 30
0.0
 10
-49.3006
 20
-28.1475
 30
0.0
 10
-51.5539
 20
-29.5514
 30
0.0
  0
SPLINE
  5
77
330
1F
100
AcDbEntity
  8
layer 1
 62
     7
370
     9
100
AcDbSpline
210
0.0
220
0.0
230
1.0
 70
    11
 71
     3
 72
    48
 73
    44
 74
     0
 42
0.0000000001
 43
0.0000000001
 12
1.0
 22
0.0
 32
0.0
 13
1.0
 23
0.0
 33
0.0
 40
0.0
 40
0.0
 40
0.0
 40
0.0
 40
0.0833333333333333
 40
0.0833333333333333
 40
0.0833333333333333
 40
0.0833333333333333
 40
0.1666666666666667
 40
0.1666666666666667
 40
0.1666666666666667
 40
0.1666666666666667
 40
0.25
 40
0.25
 40
0.25
 40
0.25
 40
0.3333333333333333
 40
0.3333333333333333
 40
0.3333333333333333
 40
0.3333333333333333
 40
0.4166666666666667
 40
0.4166666666666667
 40
0.4166666666666667
 40
0.4166666666666667
 40
0.5
 40
0.5
 40
0.5
 40
0.5
 40
0.5833333333333334
 40
0.5833333333333334
 40
0.5833333333333334
 40
0.5833333333333334
 40
0.6666666666666666
 40
0.6666666666666666
 40
0.6666666666666666
 40
0.6666666666666666
 40
0.75
 40
0.75
 40
0.75
 40
0.75
 40
0.8333333333333334
 40
0.8333333333333334
 40
0.8333333333333334
 40
0.8333333333333334
 40
1.0
 40
1.0
 40
1.0
 40
1.0
 10
-48.1504
 20
-40.3278
 30
0.0
 10
-49.5444
 20
-40.2119
 30
0.0
 10
-50.8331
 20
-39.548
 30
0.0
 10
-51.7286
 20
-38.4848
 30
0.0
 10
-51.7286
 20
-38.4848
 30
0.0
 10
-52.624
 20
-37.4215
 30
0.0
 10
-53.0514
 20
-36.0475
 30
0.0
 10
-52.9155
 20
-34.6703
 30
0.0
 10
-52.9155
 20
-34.6703
 30
0.0
 10
-57.0745
 20
-36.2351
 30
0.0
 10
-61.49
 20
-37.0267
 30
0.0
 10
-65.9396
 20
-37.005
 30
0.0
 10
-65.9396
 20
-37.005
 30
0.0
 10
-65.1069
 20
-38.039
 30
0.0
 10
-64.8063
 20
-39.3969
 30
0.0
 10
-65.1265
 20
-40.6806
 30
0.0
 10
-65.1265
 20
-40.6806
 30
0.0
 10
-65.4462
 20
-41.9642
 30
0.0
 10
-66.3501
 20
-43.0282
 30
0.0
 10
-67.5733
 20
-43.5606
 30
0.0
 10
-67.5733
 20
-43.5606
 30
0.0
 10
-70.5716
 20
-44.9543
 30
0.0
 10
-74.1467
 20
-43.7419
 30
0.0
 10
-75.6511
 20
-40.8215
 30
0.0
 10
-75.6511
 20
-40.8215
 30
0.0
 10
-76.4575
 20
-39.0898
 30
0.0
 10
-75.811
 20
-37.0349
 30
0.0
 10
-74.1536
 20
-36.062
 30
0.0
 10
-74.1536
 20
-36.062
 30
0.0
 10
-75.612
 20
-35.6593
 30
0.0
 10
-77.0379
 20
-35.1491
 30
0.0
 10
-78.4194
 20
-34.5352
 30
0.0
 10
-78.4194
 20
-34.5352
 30
0.0
 10
-80.9727
 20
-37.0858
 30
0.0
 10
-83.606
 20
-39.5568
 30
0.0
 10
-86.3155
 20
-41.9442
 30
0.0
 10
-86.3155
 20
-41.9442
 30
0.0
 10
-76.8576
 20
-48.9183
 30
0.0
 10
-64.153
 20
-49.7785
 30
0.0
 10
-53.8233
 20
-44.1443
 30
0.0
 10
-53.8233
 20
-44.1443
 30
0.0
 10
-51.8156
 20
-43.0508
 30
0.0
 10
-49.9163
 20
-41.773
 30
0.0
 10
-48.1504
 20
-40.3278
 30
0.0
  0
SPLINE
  5
78
330
1F
100
AcDbEntity
  8
layer 1
 62
     7
370
     9
100
AcDbSpline
210
0.0
220
0.0
230
1.0
 70
    11
 71
     3
 72
    16
 73
    12
 74
     0
 42
0.0000000001
 43
0.0000000001
 12
1.0
 22
0.0
 32
0.0
 13
1.0
 23
0.0
 33
0.0
 40
0.0
 40
0.0
 40
0.0
 40
0.0
 40
0.25
 40
0.25
 40
0.25
 40
0.25
 40
0.5
 40
0.5
 40
0.5
 40
0.5
 40
1.0
 40
1.0
 40
1.0
 40
1.0
 10
-37.8944
 20
34.4548
 30
0.0
 10
-38.3491
 20
33.2693
 30
0.0
 10
-38.9269
 20
32.1337
 30
0.0
 10
-39.6189
 20
31.0666
 30
0.0
 10
-39.6189
 20
31.0666
 30
0.0
 10
-38.9989
 20
30.7259
 30
0.0
 10
-38.4202
 20
30.3161
 30
0.0
 10
-37.8944
 20
29.845
 30
0.0
 10
-37.8944
 20
29.845
 30
0.0
 10
-37.8944
 20
29.845
 30
0.0
 10
-37.8944
 20
34.4548
 30
0.0
 10
-37.8944
 20
34.4548
 30
0.0
  0
SPLINE
  5
79
330
1F
100
AcDbEntity
  8
layer 1
 62
     7
370
     9
100
AcDbSpline
210
0.0
220
0.0
230
1.0
 70
    11
 71
     3
 72
    16
 73
    12
 74
     0
 42
0.0000000001
 43
0.0000000001
 12
1.0
 22
0.0
 32
0.0
 13
1.0
 23
0.0
 33
0.0
 40
0.0
 40
0.0
 40
0.0
 40
0.0
 40
0.25
 40
0.25
 40
0.25
 40
0.25
 40
0.5
 40
0.5
 40
0.5
 40
0.5
 40
1.0
 40
1.0
 40
1.0
 40
1.0
 10
-39.8457
 20
52.7542
 30
0.0
 10
-39.1019
 20
51.5885
 30
0.0
 10
-38.4495
 20
50.3678
 30
0.0
 10
-37.8944
 20
49.1032
 30
0.0
 10
-37.8944
 20
49.1032
 30
0.0
 10
-37.8944
 20
49.1032
 30
0.0
 10
-37.8944
 20
56.0166
 30
0.0
 10
-37.8944
 20
56.0166
 30
0.0
 10
-37.8944
 20
56.0166
 30
0.0
 10
-38.4245
 20
54.8629
 30
0.0
 10
-39.0787
 20
53.7691
 30
0.0
 10
-39.8457
 20
52.7542
 30
0.0
  0
SPLINE
  5
7A
330
1F
100
AcDbEntity
  8
layer 1
 62
     7
370
     9
100
AcDbSpline
210
0.0
220
0.0
230
1.0
 70
    11
 71
     3
 72
    76
 73
    72
 74
     0
 42
0.0000000001
 43
0.0000000001
 12
1.0
 22
0.0
 32
0.0
 13
1.0
 23
0.0
 33
0.0
 40
0.0
 40
0.0
 40
0.0
 40
0.0
 40
0.0526315789473684
 40
0.0526315789473684
 40
0.0526315789473684
 40
0.0526315789473684
 40
0.1052631578947368
 40
0.1052631578947368
 40
0.1052631578947368
 40
0.1052631578947368
 40
0.1578947368421053
 40
0.1578947368421053
 40
0.1578947368421053
 40
0.1578947368421053
 40
0.2105263157894737
 40
0.2105263157894737
 40
0.2105263157894737
 40
0.2105263157894737
 40
0.2631578947368421
 40
0.2631578947368421
 40
0.2631578947368421
 40
0.2631578947368421
 40
0.3157894736842105
 40
0.3157894736842105
 40
0.3157894736842105
 40
0.3157894736842105
 40
0.3684210526315789
 40
0.3684210526315789
 40
0.3684210526315789
 40
0.3684210526315789
 40
0.4210526315789473
 40
0.4210526315789473
 40
0.4210526315789473
 40
0.4210526315789473
 40
0.4736842105263158
 40
0.4736842105263158
 40
0.4736842105263158
 40
0.4736842105263158
 40
0.5263157894736842
 40
0.5263157894736842
 40
0.5263157894736842
 40
0.5263157894736842
 40
0.5789473684210527
 40
0.5789473684210527
 40
0.5789473684210527
 40
0.5789473684210527
 40
0.631578947368421
 40
0.631578947368421
 40
0.631578947368421
 40
0.631578947368421
 40
0.6842105263157895
 40
0.6842105263157895
 40
0.6842105263157895
 40
0.6842105263157895
 40
0.7368421052631579
 40
0.7368421052631579
 40
0.7368421052631579
 40
0.7368421052631579
 40
0.7894736842105263
 40
0.7894736842105263
 40
0.7894736842105263
 40
0.7894736842105263
 40
0.8421052631578947
 40
0.8421052631578947
 40
0.8421052631578947
 40
0.8421052631578947
 40
0.8947368421052632
 40
0.8947368421052632
 40
0.8947368421052632
 40
0.8947368421052632
 40
1.0
 40
1.0
 40
1.0
 40
1.0
 10
-47.1521
 20
75.6991
 30
0.0
 10
-55.4377
 20
81.518
 30
0.0
 10
-65.8456
 20
83.545
 30
0.0
 10
-75.7421
 20
81.267
 30
0.0
 10
-75.7421
 20
81.267
 30
0.0
 10
-73.1209
 20
87.8663
 30
0.0
 10
-72.5519
 20
95.0901
 30
0.0
 10
-74.1083
 20
102.0116
 30
0.0
 10
-74.1083
 20
102.0116
 30
0.0
 10
-75.1843
 20
105.1054
 30
0.0
 10
-77.0251
 20
107.8836
 30
0.0
 10
-79.4633
 20
110.094
 30
0.0
 10
-79.4633
 20
110.094
 30
0.0
 10
-71.854
 20
109.9471
 30
0.0
 10
-65.0602
 20
105.3419
 30
0.0
 10
-62.173
 20
98.3744
 30
0.0
 10
-62.173
 20
98.3744
 30
0.0
 10
-63.8098
 20
98.948
 30
0.0
 10
-65.6311
 20
98.6185
 30
0.0
 10
-66.9574
 20
97.5095
 30
0.0
 10
-66.9574
 20
97.5095
 30
0.0
 10
-68.2835
 20
96.4007
 30
0.0
 10
-68.9154
 20
94.6788
 30
0.0
 10
-68.6172
 20
92.9862
 30
0.0
 10
-68.6172
 20
92.9862
 30
0.0
 10
-68.4362
 20
90.4945
 30
0.0
 10
-70.077
 20
88.2293
 30
0.0
 10
-72.5198
 20
87.5983
 30
0.0
 10
-72.5198
 20
87.5983
 30
0.0
 10
-70.9346
 20
85.6866
 30
0.0
 10
-68.5413
 20
84.6125
 30
0.0
 10
-66.0433
 20
84.6917
 30
0.0
 10
-66.0433
 20
84.6917
 30
0.0
 10
-63.5453
 20
84.7708
 30
0.0
 10
-61.2263
 20
85.9941
 30
0.0
 10
-59.7679
 20
88.0023
 30
0.0
 10
-59.7679
 20
88.0023
 30
0.0
 10
-59.2587
 20
84.6302
 30
0.0
 10
-56.9249
 20
81.8044
 30
0.0
 10
-53.687
 20
80.6383
 30
0.0
 10
-53.687
 20
80.6383
 30
0.0
 10
-51.2185
 20
79.642
 30
0.0
 10
-48.4215
 20
79.8431
 30
0.0
 10
-46.1247
 20
81.182
 30
0.0
 10
-46.1247
 20
81.182
 30
0.0
 10
-43.8278
 20
82.5211
 30
0.0
 10
-42.2944
 20
84.8441
 30
0.0
 10
-41.9788
 20
87.4633
 30
0.0
 10
-41.9788
 20
87.4633
 30
0.0
 10
-45.1249
 20
85.4885
 30
0.0
 10
-49.2476
 20
86.0171
 30
0.0
 10
-51.7809
 20
88.7207
 30
0.0
 10
-51.7809
 20
88.7207
 30
0.0
 10
-54.331
 20
92.389
 30
0.0
 10
-56.5048
 20
96.2998
 30
0.0
 10
-58.2704
 20
100.3952
 30
0.0
 10
-58.2704
 20
100.3952
 30
0.0
 10
-61.6155
 20
106.3973
 30
0.0
 10
-66.9637
 20
111.0636
 30
0.0
 10
-73.4007
 20
113.5964
 30
0.0
 10
-73.4007
 20
113.5964
 30
0.0
 10
-73.4007
 20
113.5964
 30
0.0
 10
-37.8944
 20
113.5964
 30
0.0
 10
-37.8944
 20
113.5964
 30
0.0
 10
-37.8944
 20
113.5964
 30
0.0
 10
-37.8944
 20
113.5964
 30
0.0
 10
-37.8944
 20
65.4551
 30
0.0
 10
-37.8944
 20
65.4551
 30
0.0
 10
-37.8944
 20
65.4551
 30
0.0
 10
-39.8382
 20
69.7331
 30
0.0
 10
-43.0718
 20
73.3115
 30
0.0
 10
-47.1521
 20
75.6991
 30
0.0
  0
SPLINE
  5
7B
330
1F
100
AcDbEntity
  8
layer 1
 62
     7
370
     9
100
AcDbSpline
210
0.0
220
0.0
230
1.0
 70
    11
 71
     3
 72
    44
 73
    40
 74
     0
 42
0.0000000001
 43
0.0000000001
 12
1.0
 22
0.0
 32
0.0
 13
1.0
 23
0.0
 33
0.0
 40
0.0
 40
0.0
 40
0.0
 40
0.0
 40
0.0909090909090909
 40
0.0909090909090909
 40
0.0909090909090909
 40
0.0909090909090909
 40
0.1818181818181818
 40
0.1818181818181818
 40
0.1818181818181818
 40
0.1818181818181818
 40
0.2727272727272727
 40
0.2727272727272727
 40
0.2727272727272727
 40
0.2727272727272727
 40
0.3636363636363636
 40
0.3636363636363636
 40
0.3636363636363636
 40
0.3636363636363636
 40
0.4545454545454545
 40
0.4545454545454545
 40
0.4545454545454545
 40
0.4545454545454545
 40
0.5454545454545454
 40
0.5454545454545454
 40
0.5454545454545454
 40
0.5454545454545454
 40
0.6363636363636364
 40
0.6363636363636364
 40
0.6363636363636364
 40
0.6363636363636364
 40
0.7272727272727273
 40
0.7272727272727273
 40
0.7272727272727273
 40
0.7272727272727273
 40
0.8181818181818182
 40
0.8181818181818182
 40
0.8181818181818182
 40
0.8181818181818182
 40
1.0
 40
1.0
 40
1.0
 40
1.0
 10
-83.8651
 20
98.3297
 30
0.0
 10
-84.1923
 20
102.1781
 30
0.0
 10
-85.7141
 20
105.8323
 30
0.0
 10
-88.2216
 20
108.7919
 30
0.0
 10
-88.2216
 20
108.7919
 30
0.0
 10
-93.0987
 20
106.9981
 30
0.0
 10
-96.9648
 20
103.2217
 30
0.0
 10
-98.8404
 20
98.4194
 30
0.0
 10
-98.8404
 20
98.4194
 30
0.0
 10
-97.4172
 20
97.4866
 30
0.0
 10
-96.6289
 20
95.8538
 30
0.0
 10
-96.7902
 20
94.1716
 30
0.0
 10
-96.7902
 20
94.1716
 30
0.0
 10
-96.9517
 20
92.4902
 30
0.0
 10
-98.0363
 20
91.0331
 30
0.0
 10
-99.612
 20
90.3821
 30
0.0
 10
-99.612
 20
90.3821
 30
0.0
 10
-98.7448
 20
85.3528
 30
0.0
 10
-96.2054
 20
80.7543
 30
0.0
 10
-92.3965
 20
77.3155
 30
0.0
 10
-92.3965
 20
77.3155
 30
0.0
 10
-89.7053
 20
80.078
 30
0.0
 10
-87.8505
 20
83.5311
 30
0.0
 10
-87.0415
 20
87.2839
 30
0.0
 10
-87.0415
 20
87.2839
 30
0.0
 10
-86.5359
 20
89.0213
 30
0.0
 10
-87.1669
 20
90.8873
 30
0.0
 10
-88.6276
 20
91.9739
 30
0.0
 10
-88.6276
 20
91.9739
 30
0.0
 10
-90.0883
 20
93.0601
 30
0.0
 10
-92.0753
 20
93.1416
 30
0.0
 10
-93.622
 20
92.1782
 30
0.0
 10
-93.622
 20
92.1782
 30
0.0
 10
-93.9331
 20
94.6076
 30
0.0
 10
-92.8005
 20
96.9965
 30
0.0
 10
-90.7134
 20
98.3127
 30
0.0
 10
-90.7134
 20
98.3127
 30
0.0
 10
-88.626
 20
99.6285
 30
0.0
 10
-85.9588
 20
99.6351
 30
0.0
 10
-83.8651
 20
98.3297
 30
0.0
  0
SPLINE
  5
7C
330
1F
100
AcDbEntity
  8
layer 1
 62
     7
370
     9
100
AcDbSpline
210
0.0
220
0.0
230
1.0
 70
    11
 71
     3
 72
    24
 73
    20
 74
     0
 42
0.0000000001
 43
0.0000000001
 12
1.0
 22
0.0
 32
0.0
 13
1.0
 23
0.0
 33
0.0
 40
0.0
 40
0.0
 40
0.0
 40
0.0
 40
0.1666666666666667
 40
0.1666666666666667
 40
0.1666666666666667
 40
0.1666666666666667
 40
0.3333333333333333
 40
0.3333333333333333
 40
0.3333333333333333
 40
0.3333333333333333
 40
0.5
 40
0.5
 40
0.5
 40
0.5
 40
0.6666666666666666
 40
0.6666666666666666
 40
0.6666666666666666
 40
0.6666666666666666
 40
1.0
 40
1.0
 40
1.0
 40
1.0
 10
-91.1713
 20
67.7964
 30
0.0
 10
-88.4115
 20
65.5937
 30
0.0
 10
-86.2837
 20
62.7143
 30
0.0
 10
-84.9997
 20
59.4444
 30
0.0
 10
-84.9997
 20
59.4444
 30
0.0
 10
-88.0387
 20
56.773
 30
0.0
 10
-90.5209
 20
53.5396
 30
0.0
 10
-92.3058
 20
49.9253
 30
0.0
 10
-92.3058
 20
49.9253
 30
0.0
 10
-93.1661
 20
49.8537
 30
0.0
 10
-94.0294
 20
49.8238
 30
0.0
 10
-94.8926
 20
49.8354
 30
0.0
 10
-94.8926
 20
49.8354
 30
0.0
 10
-93.5501
 20
53.8499
 30
0.0
 10
-94.1887
 20
58.255
 30
0.0
 10
-96.6171
 20
61.7345
 30
0.0
 10
-96.6171
 20
61.7345
 30
0.0
 10
-95.0131
 20
63.932
 30
0.0
 10
-93.1885
 20
65.9626
 30
0.0
 10
-91.1713
 20
67.7964
 30
0.0
  0
SPLINE
  5
7D
330
1F
100
AcDbEntity
  8
layer 1
 62
     7
370
     9
100
AcDbSpline
210
0.0
220
0.0
230
1.0
 70
    11
 71
     3
 72
    24
 73
    20
 74
     0
 42
0.0000000001
 43
0.0000000001
 12
1.0
 22
0.0
 32
0.0
 13
1.0
 23
0.0
 33
0.0
 40
0.0
 40
0.0
 40
0.0
 40
0.0
 40
0.1666666666666667
 40
0.1666666666666667
 40
0.1666666666666667
 40
0.1666666666666667
 40
0.3333333333333333
 40
0.3333333333333333
 40
0.3333333333333333
 40
0.3333333333333333
 40
0.5
 40
0.5
 40
0.5
 40
0.5
 40
0.6666666666666666
 40
0.6666666666666666
 40
0.6666666666666666
 40
0.6666666666666666
 40
1.0
 40
1.0
 40
1.0
 40
1.0
 10
-88.5846
 20
34.3444
 30
0.0
 10
-90.7337
 20
31.5744
 30
0.0
 10
-93.1503
 20
29.0179
 30
0.0
 10
-95.8001
 20
26.711
 30
0.0
 10
-95.8001
 20
26.711
 30
0.0
 10
-98.1727
 20
29.4998
 30
0.0
 10
-99.9756
 20
32.7172
 30
0.0
 10
-101.1095
 20
36.1854
 30
0.0
 10
-101.1095
 20
36.1854
 30
0.0
 10
-99.3736
 20
35.223
 30
0.0
 10
-97.3154
 20
35.0046
 30
0.0
 10
-95.4129
 20
35.5814
 30
0.0
 10
-95.4129
 20
35.5814
 30
0.0
 10
-93.51
 20
36.1578
 30
0.0
 10
-91.9284
 20
37.4793
 30
0.0
 10
-91.035
 20
39.2386
 30
0.0
 10
-91.035
 20
39.2386
 30
0.0
 10
-90.4743
 20
37.4934
 30
0.0
 10
-89.6482
 20
35.8432
 30
0.0
 10
-88.5846
 20
34.3444
 30
0.0
  0
SPLINE
  5
7E
330
1F
100
AcDbEntity
  8
layer 1
 62
     7
370
     9
100
AcDbSpline
210
0.0
220
0.0
230
1.0
 70
    11
 71
     3
 72
    16
 73
    12
 74
     0
 42
0.0000000001
 43
0.0000000001
 12
1.0
 22
0.0
 32
0.0
 13
1.0
 23
0.0
 33
0.0
 40
0.0
 40
0.0
 40
0.0
 40
0.0
 40
0.25
 40
0.25
 40
0.25
 40
0.25
 40
0.5
 40
0.5
 40
0.5
 40
0.5
 40
1.0
 40
1.0
 40
1.0
 40
1.0
 10
-82.1406
 20
42.651
 30
0.0
 10
-83.7397
 20
43.7268
 30
0.0
 10
-85.7581
 20
43.9928
 30
0.0
 10
-87.5864
 20
43.3698
 30
0.0
 10
-87.5864
 20
43.3698
 30
0.0
 10
-87.0815
 20
41.4722
 30
0.0
 10
-86.3342
 20
39.6466
 30
0.0
 10
-85.3626
 20
37.9365
 30
0.0
 10
-85.3626
 20
37.9365
 30
0.0
 10
-83.8185
 20
39.1375
 30
0.0
 10
-82.6919
 20
40.7861
 30
0.0
 10
-82.1406
 20
42.651
 30
0.0
  0
SPLINE
  5
7F
330
1F
100
AcDbEntity
  8
layer 1
 62
     7
370
     9
100
AcDbSpline
210
0.0
220
0.0
230
1.0
 70
    11
 71
     3
 72
    16
 73
    12
 74
     0
 42
0.0000000001
 43
0.0000000001
 12
1.0
 22
0.0
 32
0.0
 13
1.0
 23
0.0
 33
0.0
 40
0.0
 40
0.0
 40
0.0
 40
0.0
 40
0.25
 40
0.25
 40
0.25
 40
0.25
 40
0.5
 40
0.5
 40
0.5
 40
0.5
 40
1.0
 40
1.0
 40
1.0
 40
1.0
 10
-82.0497
 20
43.9982
 30
0.0
 10
-80.9076
 20
48.0915
 30
0.0
 10
-81.2778
 20
52.4536
 30
0.0
 10
-83.0935
 20
56.3013
 30
0.0
 10
-83.0935
 20
56.3013
 30
0.0
 10
-84.9369
 20
54.2448
 30
0.0
 10
-86.3829
 20
51.8702
 30
0.0
 10
-87.3594
 20
49.2967
 30
0.0
 10
-87.3594
 20
49.2967
 30
0.0
 10
-84.9326
 20
48.3218
 30
0.0
 10
-83.0148
 20
46.4075
 30
0.0
 10
-82.0497
 20
43.9982
 30
0.0
  0
SPLINE
  5
80
330
1F
100
AcDbEntity
  8
layer 1
 62
     7
370
     9
100
AcDbSpline
210
0.0
220
0.0
230
1.0
 70
    11
 71
     3
 72
    32
 73
    28
 74
     0
 42
0.0000000001
 43
0.0000000001
 12
1.0
 22
0.0
 32
0.0
 13
1.0
 23
0.0
 33
0.0
 40
0.0
 40
0.0
 40
0.0
 40
0.0
 40
0.125
 40
0.125
 40
0.125
 40
0.125
 40
0.25
 40
0.25
 40
0.25
 40
0.25
 40
0.375
 40
0.375
 40
0.375
 40
0.375
 40
0.5
 40
0.5
 40
0.5
 40
0.5
 40
0.625
 40
0.625
 40
0.625
 40
0.625
 40
0.75
 40
0.75
 40
0.75
 40
0.75
 40
1.0
 40
1.0
 40
1.0
 40
1.0
 10
-76.831
 20
26.0824
 30
0.0
 10
-79.3648
 20
26.9899
 30
0.0
 10
-81.7501
 20
28.2607
 30
0.0
 10
-83.9105
 20
29.8542
 30
0.0
 10
-83.9105
 20
29.8542
 30
0.0
 10
-86.8716
 20
27.7376
 30
0.0
 10
-89.6357
 20
25.363
 30
0.0
 10
-92.1699
 20
22.7595
 30
0.0
 10
-92.1699
 20
22.7595
 30
0.0
 10
-89.433
 20
20.2737
 30
0.0
 10
-86.2245
 20
18.3505
 30
0.0
 10
-82.7306
 20
17.102
 30
0.0
 10
-82.7306
 20
17.102
 30
0.0
 10
-80.3676
 20
17.7842
 30
0.0
 10
-77.929
 20
18.1764
 30
0.0
 10
-75.4694
 20
18.2693
 30
0.0
 10
-75.4694
 20
18.2693
 30
0.0
 10
-76.0886
 20
18.6609
 30
0.0
 10
-76.761
 20
18.9631
 30
0.0
 10
-77.4662
 20
19.1674
 30
0.0
 10
-77.4662
 20
19.1674
 30
0.0
 10
-78.6293
 20
20.005
 30
0.0
 10
-79.262
 20
21.3859
 30
0.0
 10
-79.1315
 20
22.8032
 30
0.0
 10
-79.1315
 20
22.8032
 30
0.0
 10
-79.0015
 20
24.2206
 30
0.0
 10
-78.1277
 20
25.4662
 30
0.0
 10
-76.831
 20
26.0824
 30
0.0
  0
SPLINE
  5
81
330
1F
100
AcDbEntity
  8
layer 1
 62
     7
370
     9
100
AcDbSpline
210
0.0
220
0.0
230
1.0
 70
    11
 71
     3
 72
    12
 73
     8
 74
     0
 42
0.0000000001
 43
0.0000000001
 12
1.0
 22
0.0
 32
0.0
 13
1.0
 23
0.0
 33
0.0
 40
0.0
 40
0.0
 40
0.0
 40
0.0
 40
0.3333333333333333
 40
0.3333333333333333
 40
0.3333333333333333
 40
0.3333333333333333
 40
1.0
 40
1.0
 40
1.0
 40
1.0
 10
-66.7564
 20
30.8419
 30
0.0
 10
-70.7362
 20
33.6549
 30
0.0
 10
-75.9027
 20
34.2323
 30
0.0
 10
-80.4162
 20
32.3687
 30
0.0
 10
-80.4162
 20
32.3687
 30
0.0
 10
-76.3849
 20
29.6922
 30
0.0
 10
-71.2896
 20
29.1227
 30
0.0
 10
-66.7564
 20
30.8419
 30
0.0
  0
SPLINE
  5
82
330
1F
100
AcDbEntity
  8
layer 1
 62
     7
370
     9
100
AcDbSpline
210
0.0
220
0.0
230
1.0
 70
    11
 71
     3
 72
    28
 73
    24
 74
     0
 42
0.0000000001
 43
0.0000000001
 12
1.0
 22
0.0
 32
0.0
 13
1.0
 23
0.0
 33
0.0
 40
0.0
 40
0.0
 40
0.0
 40
0.0
 40
0.1428571428571428
 40
0.1428571428571428
 40
0.1428571428571428
 40
0.1428571428571428
 40
0.2857142857142857
 40
0.2857142857142857
 40
0.2857142857142857
 40
0.2857142857142857
 40
0.4285714285714285
 40
0.4285714285714285
 40
0.4285714285714285
 40
0.4285714285714285
 40
0.5714285714285714
 40
0.5714285714285714
 40
0.5714285714285714
 40
0.5714285714285714
 40
0.7142857142857143
 40
0.7142857142857143
 40
0.7142857142857143
 40
0.7142857142857143
 40
1.0
 40
1.0
 40
1.0
 40
1.0
 10
-51.3271
 20
21.3229
 30
0.0
 10
-54.447
 20
19.443
 30
0.0
 10
-57.804
 20
17.9784
 30
0.0
 10
-61.3107
 20
16.9673
 30
0.0
 10
-61.3107
 20
16.9673
 30
0.0
 10
-64.312
 20
17.8111
 30
0.0
 10
-67.4052
 20
18.2936
 30
0.0
 10
-70.523
 20
18.4041
 30
0.0
 10
-70.523
 20
18.4041
 30
0.0
 10
-69.1171
 20
18.8711
 30
0.0
 10
-68.0739
 20
20.0506
 30
0.0
 10
-67.7921
 20
21.4913
 30
0.0
 10
-67.7921
 20
21.4913
 30
0.0
 10
-67.5103
 20
22.932
 30
0.0
 10
-68.0335
 20
24.4114
 30
0.0
 10
-69.1615
 20
25.364
 30
0.0
 10
-69.1615
 20
25.364
 30
0.0
 10
-66.7216
 20
25.7227
 30
0.0
 10
-64.3405
 20
26.4023
 30
0.0
 10
-62.0823
 20
27.3844
 30
0.0
 10
-62.0823
 20
27.3844
 30
0.0
 10
-58.9287
 20
24.693
 30
0.0
 10
-55.2754
 20
22.634
 30
0.0
 10
-51.3271
 20
21.3229
 30
0.0
  0
SPLINE
  5
83
330
1F
100
AcDbEntity
  8
layer 1
 62
     7
370
     9
100
AcDbSpline
210
0.0
220
0.0
230
1.0
 70
    11
 71
     3
 72
    36
 73
    32
 74
     0
 42
0.0000000001
 43
0.0000000001
 12
1.0
 22
0.0
 32
0.0
 13
1.0
 23
0.0
 33
0.0
 40
0.0
 40
0.0
 40
0.0
 40
0.0
 40
0.1111111111111111
 40
0.1111111111111111
 40
0.1111111111111111
 40
0.1111111111111111
 40
0.2222222222222222
 40
0.2222222222222222
 40
0.2222222222222222
 40
0.2222222222222222
 40
0.3333333333333333
 40
0.3333333333333333
 40
0.3333333333333333
 40
0.3333333333333333
 40
0.4444444444444444
 40
0.4444444444444444
 40
0.4444444444444444
 40
0.4444444444444444
 40
0.5555555555555556
 40
0.5555555555555556
 40
0.5555555555555556
 40
0.5555555555555556
 40
0.6666666666666666
 40
0.6666666666666666
 40
0.6666666666666666
 40
0.6666666666666666
 40
0.7777777777777778
 40
0.7777777777777778
 40
0.7777777777777778
 40
0.7777777777777778
 40
1.0
 40
1.0
 40
1.0
 40
1.0
 10
-59.4956
 20
34.7484
 30
0.0
 10
-61.6845
 20
39.2166
 30
0.0
 10
-66.2315
 20
42.0828
 30
0.0
 10
-71.2492
 20
42.1574
 30
0.0
 10
-71.2492
 20
42.1574
 30
0.0
 10
-69.3855
 20
46.7454
 30
0.0
 10
-69.7537
 20
51.9264
 30
0.0
 10
-72.2475
 20
56.2116
 30
0.0
 10
-72.2475
 20
56.2116
 30
0.0
 10
-73.3902
 20
57.992
 30
0.0
 10
-74.555
 20
59.7581
 30
0.0
 10
-75.7421
 20
61.5102
 30
0.0
 10
-75.7421
 20
61.5102
 30
0.0
 10
-68.1498
 20
64.1285
 30
0.0
 10
-59.8136
 20
63.6269
 30
0.0
 10
-52.5978
 20
60.1181
 30
0.0
 10
-52.5978
 20
60.1181
 30
0.0
 10
-57.9163
 20
59.8724
 30
0.0
 10
-62.7333
 20
56.9382
 30
0.0
 10
-65.3496
 20
52.3501
 30
0.0
 10
-65.3496
 20
52.3501
 30
0.0
 10
-66.5738
 20
49.5634
 30
0.0
 10
-66.8445
 20
46.4574
 30
0.0
 10
-66.1212
 20
43.5044
 30
0.0
 10
-66.1212
 20
43.5044
 30
0.0
 10
-64.2299
 20
40.8143
 30
0.0
 10
-60.6055
 20
39.9468
 30
0.0
 10
-57.6804
 20
41.4837
 30
0.0
 10
-57.6804
 20
41.4837
 30
0.0
 10
-56.852
 20
39.0819
 30
0.0
 10
-57.5688
 20
36.4233
 30
0.0
 10
-59.4956
 20
34.7484
 30
0.0
  0
SPLINE
  5
84
330
1F
100
AcDbEntity
  8
layer 1
 62
     7
370
     9
100
AcDbSpline
210
0.0
220
0.0
230
1.0
 70
    11
 71
     3
 72
    48
 73
    44
 74
     0
 42
0.0000000001
 43
0.0000000001
 12
1.0
 22
0.0
 32
0.0
 13
1.0
 23
0.0
 33
0.0
 40
0.0
 40
0.0
 40
0.0
 40
0.0
 40
0.0833333333333333
 40
0.0833333333333333
 40
0.0833333333333333
 40
0.0833333333333333
 40
0.1666666666666667
 40
0.1666666666666667
 40
0.1666666666666667
 40
0.1666666666666667
 40
0.25
 40
0.25
 40
0.25
 40
0.25
 40
0.3333333333333333
 40
0.3333333333333333
 40
0.3333333333333333
 40
0.3333333333333333
 40
0.4166666666666667
 40
0.4166666666666667
 40
0.4166666666666667
 40
0.4166666666666667
 40
0.5
 40
0.5
 40
0.5
 40
0.5
 40
0.5833333333333334
 40
0.5833333333333334
 40
0.5833333333333334
 40
0.5833333333333334
 40
0.6666666666666666
 40
0.6666666666666666
 40
0.6666666666666666
 40
0.6666666666666666
 40
0.75
 40
0.75
 40
0.75
 40
0.75
 40
0.8333333333333334
 40
0.8333333333333334
 40
0.8333333333333334
 40
0.8333333333333334
 40
1.0
 40
1.0
 40
1.0
 40
1.0
 10
-51.5539
 20
59.5344
 30
0.0
 10
-52.8335
 20
59.3137
 30
0.0
 10
-53.9566
 20
58.5618
 30
0.0
 10
-54.6398
 20
57.4687
 30
0.0
 10
-54.6398
 20
57.4687
 30
0.0
 10
-56.4786
 20
54.1489
 30
0.0
 10
-56.5968
 20
50.1579
 30
0.0
 10
-54.9574
 20
46.7373
 30
0.0
 10
-54.9574
 20
46.7373
 30
0.0
 10
-53.3937
 20
43.1092
 30
0.0
 10
-53.0438
 20
39.0812
 30
0.0
 10
-53.9592
 20
35.2424
 30
0.0
 10
-53.9592
 20
35.2424
 30
0.0
 10
-54.67
 20
33.6047
 30
0.0
 10
-55.5684
 20
32.0526
 30
0.0
 10
-56.6366
 20
30.6175
 30
0.0
 10
-56.6366
 20
30.6175
 30
0.0
 10
-54.5397
 20
26.9778
 30
0.0
 10
-50.741
 20
24.6184
 30
0.0
 10
-46.5168
 20
24.3312
 30
0.0
 10
-46.5168
 20
24.3312
 30
0.0
 10
-47.914
 20
26.2296
 30
0.0
 10
-47.7223
 20
28.8484
 30
0.0
 10
-46.063
 20
30.5275
 30
0.0
 10
-46.063
 20
30.5275
 30
0.0
 10
-45.3003
 20
31.289
 30
0.0
 10
-44.3439
 20
31.8319
 30
0.0
 10
-43.2947
 20
32.0993
 30
0.0
 10
-43.2947
 20
32.0993
 30
0.0
 10
-40.6656
 20
37.706
 30
0.0
 10
-40.9186
 20
44.2208
 30
0.0
 10
-43.9755
 20
49.611
 30
0.0
 10
-43.9755
 20
49.611
 30
0.0
 10
-47.0427
 20
48.1001
 30
0.0
 10
-50.4865
 20
47.4996
 30
0.0
 10
-53.8912
 20
47.8823
 30
0.0
 10
-53.8912
 20
47.8823
 30
0.0
 10
-51.2667
 20
48.3283
 30
0.0
 10
-49.1918
 20
50.3288
 30
0.0
 10
-48.6734
 20
52.9131
 30
0.0
 10
-48.6734
 20
52.9131
 30
0.0
 10
-48.155
 20
55.4976
 30
0.0
 10
-49.3006
 20
58.1305
 30
0.0
 10
-51.5539
 20
59.5344
 30
0.0
  0
SPLINE
  5
85
330
1F
100
AcDbEntity
  8
layer 1
 62
     7
370
     9
100
AcDbSpline
210
0.0
220
0.0
230
1.0
 70
    11
 71
     3
 72
    48
 73
    44
 74
     0
 42
0.0000000001
 43
0.0000000001
 12
1.0
 22
0.0
 32
0.0
 13
1.0
 23
0.0
 33
0.0
 40
0.0
 40
0.0
 40
0.0
 40
0.0
 40
0.0833333333333333
 40
0.0833333333333333
 40
0.0833333333333333
 40
0.0833333333333333
 40
0.1666666666666667
 40
0.1666666666666667
 40
0.1666666666666667
 40
0.1666666666666667
 40
0.25
 40
0.25
 40
0.25
 40
0.25
 40
0.3333333333333333
 40
0.3333333333333333
 40
0.3333333333333333
 40
0.3333333333333333
 40
0.4166666666666667
 40
0.4166666666666667
 40
0.4166666666666667
 40
0.4166666666666667
 40
0.5
 40
0.5
 40
0.5
 40
0.5
 40
0.5833333333333334
 40
0.5833333333333334
 40
0.5833333333333334
 40
0.5833333333333334
 40
0.6666666666666666
 40
0.6666666666666666
 40
0.6666666666666666
 40
0.6666666666666666
 40
0.75
 40
0.75
 40
0.75
 40
0.75
 40
0.8333333333333334
 40
0.8333333333333334
 40
0.8333333333333334
 40
0.8333333333333334
 40
1.0
 40
1.0
 40
1.0
 40
1.0
 10
-48.1504
 20
70.3109
 30
0.0
 10
-49.5444
 20
70.1949
 30
0.0
 10
-50.8331
 20
69.5311
 30
0.0
 10
-51.7286
 20
68.4679
 30
0.0
 10
-51.7286
 20
68.4679
 30
0.0
 10
-52.624
 20
67.4046
 30
0.0
 10
-53.0514
 20
66.0306
 30
0.0
 10
-52.9155
 20
64.6533
 30
0.0
 10
-52.9155
 20
64.6533
 30
0.0
 10
-57.0745
 20
66.2181
 30
0.0
 10
-61.49
 20
67.0098
 30
0.0
 10
-65.9396
 20
66.9881
 30
0.0
 10
-65.9396
 20
66.9881
 30
0.0
 10
-65.1069
 20
68.0221
 30
0.0
 10
-64.8063
 20
69.3801
 30
0.0
 10
-65.1265
 20
70.6637
 30
0.0
 10
-65.1265
 20
70.6637
 30
0.0
 10
-65.4462
 20
71.9474
 30
0.0
 10
-66.3501
 20
73.0112
 30
0.0
 10
-67.5733
 20
73.5437
 30
0.0
 10
-67.5733
 20
73.5437
 30
0.0
 10
-70.5716
 20
74.9374
 30
0.0
 10
-74.1467
 20
73.725
 30
0.0
 10
-75.6511
 20
70.8046
 30
0.0
 10
-75.6511
 20
70.8046
 30
0.0
 10
-76.4575
 20
69.0729
 30
0.0
 10
-75.811
 20
67.018
 30
0.0
 10
-74.1536
 20
66.045
 30
0.0
 10
-74.1536
 20
66.045
 30
0.0
 10
-75.612
 20
65.6423
 30
0.0
 10
-77.0379
 20
65.1322
 30
0.0
 10
-78.4194
 20
64.5187
 30
0.0
 10
-78.4194
 20
64.5187
 30
0.0
 10
-80.9727
 20
67.0689
 30
0.0
 10
-83.606
 20
69.54
 30
0.0
 10
-86.3155
 20
71.9273
 30
0.0
 10
-86.3155
 20
71.9273
 30
0.0
 10
-76.8576
 20
78.9014
 30
0.0
 10
-64.153
 20
79.7617
 30
0.0
 10
-53.8233
 20
74.1274
 30
0.0
 10
-53.8233
 20
74.1274
 30
0.0
 10
-51.8156
 20
73.034
 30
0.0
 10
-49.9163
 20
71.7562
 30
0.0
 10
-48.1504
 20
70.3109
 30
0.0
  0
ENDSEC
  0
SECTION
  2
OBJECTS
  0
DICTIONARY
  5
C
330
0
100
AcDbDictionary
281
     1
  3
ACAD_GROUP
350
D
  3
ACAD_LAYOUT
350
1A
  3
ACAD_MATERIAL
350
3B
  3
ACAD_MLEADERSTYLE
350
A7
  3
ACAD_MLINESTYLE
350
17
  3
ACAD_PLOTSETTINGS
350
19
  3
ACAD_PLOTSTYLENAME
350
E
  3
ACAD_TABLESTYLE
350
A6
  3
ACAD_VISUALSTYLE
350
2A
  0
DICTIONARY
  5
D
102
{ACAD_REACTORS
330
C
102
}
330
C
100
AcDbDictionary
281
     1
  0
DICTIONARY
  5
1A
102
{ACAD_REACTORS
330
C
102
}
330
C
100
AcDbDictionary
281
     1
  3
Layout1
350
1E
  3
Layout2
350
26
  3
Model
350
22
  0
DICTIONARY
  5
3B
102
{ACAD_REACTORS
330
C
102
}
330
C
100
AcDbDictionary
281
     1
  3
ByBlock
350
3D
  3
ByLayer
350
3C
  3
Global
350
3E
  0
DICTIONARY
  5
A7
102
{ACAD_REACTORS
330
C
102
}
330
C
100
AcDbDictionary
281
     1
  0
DICTIONARY
  5
17
102
{ACAD_REACTORS
330
C
102
}
330
C
100
AcDbDictionary
281
     1
  3
Standard
350
18
  0
DICTIONARY
  5
19
102
{ACAD_REACTORS
330
C
102
}
330
C
100
AcDbDictionary
281
     1
  0
ACDBDICTIONARYWDFLT
  5
E
102
{ACAD_REACTORS
330
C
102
}
330
C
100
AcDbDictionary
281
     1
  3
Normal
350
F
100
AcDbDictionaryWithDefault
340
F
  0
DICTIONARY
  5
A6
102
{ACAD_REACTORS
330
C
102
}
330
C
100
AcDbDictionary
281
     1
  0
DICTIONARY
  5
2A
102
{ACAD_REACTORS
330
C
102
}
330
C
100
AcDbDictionary
281
     1
  3
2dWireframe
350
2F
  3
3D Hidden
350
31
  3
3dWireframe
350
30
  3
Basic
350
32
  3
Brighten
350
36
  3
ColorChange
350
3A
  3
Conceptual
350
34
  3
Dim
350
35
  3
Facepattern
350
39
  3
Flat
350
2B
  3
FlatWithEdges
350
2C
  3
Gouraud
350
2D
  3
GouraudWithEdges
350
2E
  3
Linepattern
350
38
  3
Realistic
350
33
  3
Thicken
350
37
  0
LAYOUT
  5
1E
102
{ACAD_REACTORS
330
1A
102
}
330
1A
100
AcDbPlotSettings
  1

  2
none_device
  4

  6

 40
0.0
 41
0.0
 42
0.0
 43
0.0
 44
0.0
 45
0.0
 46
0.0
 47
0.0
 48
0.0
 49
0.0
140
0.0
141
0.0
142
1.0
143
1.0
 70
   688
 72
     0
 73
     0
 74
     5
  7

 75
    16
 76
     0
 77
     2
 78
   300
147
1.0
148
0.0
149
0.0
100
AcDbLayout
  1
Layout1
 70
     1
 71
     1
 10
0.0
 20
0.0
 11
12.0
 21
9.0
 12
0.0
 22
0.0
 32
0.0
 14
1.000000000000000E+20
 24
1.000000000000000E+20
 34
1.000000000000000E+20
 15
-1.000000000000000E+20
 25
-1.000000000000000E+20
 35
-1.000000000000000E+20
146
0.0
 13
0.0
 23
0.0
 33
0.0
 16
1.0
 26
0.0
 36
0.0
 17
0.0
 27
1.0
 37
0.0
 76
     0
330
1B
  0
LAYOUT
  5
26
102
{ACAD_REACTORS
330
1A
102
}
330
1A
100
AcDbPlotSettings
  1

  2
none_device
  4

  6

 40
0.0
 41
0.0
 42
0.0
 43
0.0
 44
0.0
 45
0.0
 46
0.0
 47
0.0
 48
0.0
 49
0.0
140
0.0
141
0.0
142
1.0
143
1.0
 70
   688
 72
     0
 73
     0
 74
     5
  7

 75
    16
 76
     0
 77
     2
 78
   300
147
1.0
148
0.0
149
0.0
100
AcDbLayout
  1
Layout2
 70
     1
 71
     2
 10
0.0
 20
0.0
 11
0.0
 21
0.0
 12
0.0
 22
0.0
 32
0.0
 14
0.0
 24
0.0
 34
0.0
 15
0.0
 25
0.0
 35
0.0
146
0.0
 13
0.0
 23
0.0
 33
0.0
 16
1.0
 26
0.0
 36
0.0
 17
0.0
 27
1.0
 37
0.0
 76
     0
330
23
  0
LAYOUT
  5
22
102
{ACAD_REACTORS
330
1A
102
}
330
1A
100
AcDbPlotSettings
  1

  2
none_device
  4

  6

 40
0.0
 41
0.0
 42
0.0
 43
0.0
 44
0.0
 45
0.0
 46
0.0
 47
0.0
 48
0.0
 49
0.0
140
0.0
141
0.0
142
1.0
143
1.0
 70
  1712
 72
     0
 73
     0
 74
     0
  7

 75
     0
 76
     0
 77
     2
 78
   300
147
1.0
148
0.0
149
0.0
100
AcDbLayout
  1
Model
 70
     1
 71
     0
 10
0.0
 20
0.0
 11
12.0
 21
9.0
 12
0.0
 22
0.0
 32
0.0
 14
-187.3274
 24
-100.3529
 34
0.0
 15
-21.3357
 25
130.3359
 35
0.0
146
0.0
 13
0.0
 23
0.0
 33
0.0
 16
1.0
 26
0.0
 36
0.0
 17
0.0
 27
1.0
 37
0.0
 76
     0
330
1F
331
29
  0
MATERIAL
  5
3D
102
{ACAD_REACTORS
330
3B
102
}
330
3B
100
AcDbMaterial
  1
ByBlock
 72
     1
 94
      127
  0
MATERIAL
  5
3C
102
{ACAD_REACTORS
330
3B
102
}
330
3B
100
AcDbMaterial
  1
ByLayer
 72
     1
 94
      127
  0
MATERIAL
  5
3E
102
{ACAD_REACTORS
330
3B
102
}
330
3B
100
AcDbMaterial
  1
Global
 72
     1
 94
      127
  0
MLINESTYLE
  5
18
102
{ACAD_REACTORS
330
17
102
}
330
17
100
AcDbMlineStyle
  2
Standard
 70
     0
  3

 62
   256
 51
90.0
 52
90.0
 71
     2
 49
0.5
 62
   256
  6
BYLAYER
 49
-0.5
 62
   256
  6
BYLAYER
  0
ACDBPLACEHOLDER
  5
F
102
{ACAD_REACTORS
330
E
102
}
330
E
  0
VISUALSTYLE
  5
2F
102
{ACAD_REACTORS
330
2A
102
}
102
{ACAD_XDICTIONARY
360
8E
102
}
330
2A
100
AcDbVisualStyle
  2
2dWireframe
 70
     4
 71
     0
 72
     2
 73
     0
 90
        0
 40
-0.6
 41
-30.0
 62
     5
 63
     7
421
 16777215
 74
     1
 91
        4
 64
     7
 65
   257
 75
     1
175
     1
 42
1.0
 92
        0
 66
   257
 43
1.0
 76
     1
 77
     6
 78
     2
 67
     7
 79
     5
170
     0
171
     0
290
     0
174
     0
 93
        1
 44
0.0
173
     0
291
     0
 45
0.0
  0
VISUALSTYLE
  5
31
102
{ACAD_REACTORS
330
2A
102
}
102
{ACAD_XDICTIONARY
360
92
102
}
330
2A
100
AcDbVisualStyle
  2
3D Hidden
 70
     6
 71
     1
 72
     2
 73
     2
 90
        0
 40
-0.6
 41
-30.0
 62
     5
 63
     7
421
 16777215
 74
     2
 91
        2
 64
     7
 65
   257
 75
     2
175
     1
 42
40.0
 92
        0
 66
   257
 43
1.0
 76
     1
 77
     6
 78
     2
 67
     7
 79
     3
170
     0
171
     0
290
     0
174
     0
 93
        1
 44
0.0
173
     0
291
     0
 45
0.0
  0
VISUALSTYLE
  5
30
102
{ACAD_REACTORS
330
2A
102
}
102
{ACAD_XDICTIONARY
360
90
102
}
330
2A
100
AcDbVisualStyle
  2
3dWireframe
 70
     5
 71
     0
 72
     2
 73
     0
 90
        0
 40
-0.6
 41
-30.0
 62
     5
 63
     7
421
 16777215
 74
     1
 91
        4
 64
     7
 65
   257
 75
     1
175
     1
 42
1.0
 92
        0
 66
   257
 43
1.0
 76
     1
 77
     6
 78
     2
 67
     7
 79
     5
170
     0
171
     0
290
     0
174
     0
 93
        1
 44
0.0
173
     0
291
     0
 45
0.0
  0
VISUALSTYLE
  5
32
102
{ACAD_REACTORS
330
2A
102
}
102
{ACAD_XDICTIONARY
360
94
102
}
330
2A
100
AcDbVisualStyle
  2
Basic
 70
     7
 71
     1
 72
     0
 73
     1
 90
        0
 40
-0.6
 41
-30.0
 62
     5
 63
     7
421
 16777215
 74
     0
 91
        4
 64
     7
 65
   257
 75
     1
175
     1
 42
1.0
 92
        8
 66
     7
 43
1.0
 76
     1
 77
     6
 78
     2
 67
     7
 79
     5
170
     0
171
     0
290
     0
174
     0
 93
        1
 44
0.0
173
     0
291
     1
 45
0.0
  0
VISUALSTYLE
  5
36
102
{ACAD_REACTORS
330
2A
102
}
102
{ACAD_XDICTIONARY
360
9C
102
}
330
2A
100
AcDbVisualStyle
  2
Brighten
 70
    12
 71
     2
 72
     2
 73
     0
 90
        0
 40
-0.6
 41
-30.0
 62
     5
 63
     7
421
 16777215
 74
     1
 91
        4
 64
     7
 65
   257
 75
     1
175
     1
 42
1.0
 92
        8
 66
     7
 43
1.0
 76
     1
 77
     6
 78
     2
 67
     7
 79
     5
170
     0
171
     0
290
     0
174
     0
 93
        1
 44
50.0
173
     0
291
     1
 45
0.0
  0
VISUALSTYLE
  5
3A
102
{ACAD_REACTORS
330
2A
102
}
102
{ACAD_XDICTIONARY
360
A4
102
}
330
2A
100
AcDbVisualStyle
  2
ColorChange
 70
    16
 71
     2
 72
     2
 73
     3
 90
        0
 40
-0.6
 41
-30.0
 62
     5
 63
     8
421
  8421504
 74
     1
 91
        4
 64
     7
 65
   257
 75
     1
175
     1
 42
1.0
 92
        8
 66
     8
424
  8421504
 43
1.0
 76
     1
 77
     6
 78
     2
 67
     7
 79
     5
170
     0
171
     0
290
     0
174
     0
 93
        1
 44
0.0
173
     0
291
     1
 45
0.0
  0
VISUALSTYLE
  5
34
102
{ACAD_REACTORS
330
2A
102
}
102
{ACAD_XDICTIONARY
360
98
102
}
330
2A
100
AcDbVisualStyle
  2
Conceptual
 70
     9
 71
     3
 72
     2
 73
     0
 90
        0
 40
-0.6
 41
-30.0
 62
     5
 63
     7
421
 16777215
 74
     2
 91
        2
 64
     7
 65
   257
 75
     1
175
     1
 42
40.0
 92
        8
 66
     7
 43
1.0
 76
     1
 77
     6
 78
     2
 67
     7
 79
     3
170
     0
171
     0
290
     0
174
     0
 93
        1
 44
0.0
173
     0
291
     0
 45
0.0
  0
VISUALSTYLE
  5
35
102
{ACAD_REACTORS
330
2A
102
}
102
{ACAD_XDICTIONARY
360
9A
102
}
330
2A
100
AcDbVisualStyle
  2
Dim
 70
    11
 71
     2
 72
     2
 73
     0
 90
        0
 40
-0.6
 41
-30.0
 62
     5
 63
     7
421
 16777215
 74
     1
 91
        4
 64
     7
 65
   257
 75
     1
175
     1
 42
1.0
 92
        8
 66
     7
 43
1.0
 76
     1
 77
     6
 78
     2
 67
     7
 79
     5
170
     0
171
     0
290
     0
174
     0
 93
        1
 44
-50.0
173
     0
291
     1
 45
0.0
  0
VISUALSTYLE
  5
39
102
{ACAD_REACTORS
330
2A
102
}
102
{ACAD_XDICTIONARY
360
A2
102
}
330
2A
100
AcDbVisualStyle
  2
Facepattern
 70
    15
 71
     2
 72
     2
 73
     0
 90
        0
 40
-0.6
 41
-30.0
 62
     5
 63
     7
421
 16777215
 74
     1
 91
        4
 64
     7
 65
   257
 75
     1
175
     1
 42
1.0
 92
        8
 66
     7
 43
1.0
 76
     1
 77
     6
 78
     2
 67
     7
 79
     5
170
     0
171
     0
290
     0
174
     0
 93
        1
 44
0.0
173
     0
291
     1
 45
0.0
  0
VISUALSTYLE
  5
2B
102
{ACAD_REACTORS
330
2A
102
}
102
{ACAD_XDICTIONARY
360
86
102
}
330
2A
100
AcDbVisualStyle
  2
Flat
 70
     0
 71
     2
 72
     1
 73
     1
 90
        2
 40
-0.6
 41
30.0
 62
     5
 63
     7
421
 16777215
 74
     0
 91
        4
 64
     7
 65
   257
 75
     1
175
     1
 42
1.0
 92
        8
 66
     7
 43
1.0
 76
     1
 77
     6
 78
     2
 67
     7
 79
     5
170
     0
171
     0
290
     0
174
     0
 93
       13
 44
0.0
173
     0
291
     1
 45
0.0
  0
VISUALSTYLE
  5
2C
102
{ACAD_REACTORS
330
2A
102
}
102
{ACAD_XDICTIONARY
360
88
102
}
330
2A
100
AcDbVisualStyle
  2
FlatWithEdges
 70
     1
 71
     2
 72
     1
 73
     1
 90
        2
 40
-0.6
 41
30.0
 62
     5
 63
     7
421
 16777215
 74
     1
 91
        4
 64
     7
 65
   257
 75
     1
175
     1
 42
1.0
 92
        0
 66
   257
 43
1.0
 76
     1
 77
     6
 78
     2
 67
     7
 79
     5
170
     0
171
     0
290
     0
174
     0
 93
       13
 44
0.0
173
     0
291
     1
 45
0.0
  0
VISUALSTYLE
  5
2D
102
{ACAD_REACTORS
330
2A
102
}
102
{ACAD_XDICTIONARY
360
8A
102
}
330
2A
100
AcDbVisualStyle
  2
Gouraud
 70
     2
 71
     2
 72
     2
 73
     1
 90
        2
 40
-0.6
 41
30.0
 62
     5
 63
     7
421
 16777215
 74
     0
 91
        4
 64
     7
 65
   257
 75
     1
175
     1
 42
1.0
 92
        0
 66
     7
 43
1.0
 76
     1
 77
     6
 78
     2
 67
     7
 79
     5
170
     0
171
     0
290
     0
174
     0
 93
       13
 44
0.0
173
     0
291
     1
 45
0.0
  0
VISUALSTYLE
  5
2E
102
{ACAD_REACTORS
330
2A
102
}
102
{ACAD_XDICTIONARY
360
8C
102
}
330
2A
100
AcDbVisualStyle
  2
GouraudWithEdges
 70
     3
 71
     2
 72
     2
 73
     1
 90
        2
 40
-0.6
 41
30.0
 62
     5
 63
     7
421
 16777215
 74
     1
 91
        4
 64
     7
 65
   257
 75
     1
175
     1
 42
1.0
 92
        0
 66
   257
 43
1.0
 76
     1
 77
     6
 78
     2
 67
     7
 79
     5
170
     0
171
     0
290
     0
174
     0
 93
       13
 44
0.0
173
     0
291
     1
 45
0.0
  0
VISUALSTYLE
  5
38
102
{ACAD_REACTORS
330
2A
102
}
102
{ACAD_XDICTIONARY
360
A0
102
}
330
2A
100
AcDbVisualStyle
  2
Linepattern
 70
    14
 71
     2
 72
     2
 73
     0
 90
        0
 40
-0.6
 41
-30.0
 62
     5
 63
     7
421
 16777215
 74
     1
 91
        4
 64
     7
 65
   257
 75
     7
175
     7
 42
1.0
 92
        8
 66
     7
 43
1.0
 76
     1
 77
     6
 78
     2
 67
     7
 79
     5
170
     0
171
     0
290
     0
174
     0
 93
        1
 44
0.0
173
     0
291
     1
 45
0.0
  0
VISUALSTYLE
  5
33
102
{ACAD_REACTORS
330
2A
102
}
102
{ACAD_XDICTIONARY
360
96
102
}
330
2A
100
AcDbVisualStyle
  2
Realistic
 70
     8
 71
     2
 72
     2
 73
     0
 90
        0
 40
-0.6
 41
-30.0
 62
     5
 63
     7
421
 16777215
 74
     1
 91
        0
 64
     7
 65
   257
 75
     1
175
     1
 42
1.0
 92
        8
 66
     8
424
  7895160
 43
1.0
 76
     1
 77
     6
 78
     2
 67
     7
 79
     5
170
     0
171
     0
290
     0
174
     0
 93
       13
 44
0.0
173
     0
291
     0
 45
0.0
  0
VISUALSTYLE
  5
37
102
{ACAD_REACTORS
330
2A
102
}
102
{ACAD_XDICTIONARY
360
9E
102
}
330
2A
100
AcDbVisualStyle
  2
Thicken
 70
    13
 71
     2
 72
     2
 73
     0
 90
        0
 40
-0.6
 41
-30.0
 62
     5
 63
     7
421
 16777215
 74
     1
 91
        4
 64
     7
 65
   257
 75
     1
175
     1
 42
1.0
 92
       12
 66
     7
 43
1.0
 76
     1
 77
     6
 78
     2
 67
     7
 79
     5
170
     0
171
     0
290
     0
174
     0
 93
        1
 44
0.0
173
     0
291
     1
 45
0.0
  0
DICTIONARY
  5
8E
330
2F
100
AcDbDictionary
280
     1
281
     1
  3
ACAD_XREC_ROUNDTRIP
360
8F
  0
DICTIONARY
  5
92
330
31
100
AcDbDictionary
280
     1
281
     1
  3
ACAD_XREC_ROUNDTRIP
360
93
  0
DICTIONARY
  5
90
330
30
100
AcDbDictionary
280
     1
281
     1
  3
ACAD_XREC_ROUNDTRIP
360
91
  0
DICTIONARY
  5
94
330
32
100
AcDbDictionary
280
     1
281
     1
  3
ACAD_XREC_ROUNDTRIP
360
95
  0
DICTIONARY
  5
9C
330
36
100
AcDbDictionary
280
     1
281
     1
  3
ACAD_XREC_ROUNDTRIP
360
9D
  0
DICTIONARY
  5
A4
330
3A
100
AcDbDictionary
280
     1
281
     1
  3
ACAD_XREC_ROUNDTRIP
360
A5
  0
DICTIONARY
  5
98
330
34
100
AcDbDictionary
280
     1
281
     1
  3
ACAD_XREC_ROUNDTRIP
360
99
  0
DICTIONARY
  5
9A
330
35
100
AcDbDictionary
280
     1
281
     1
  3
ACAD_XREC_ROUNDTRIP
360
9B
  0
DICTIONARY
  5
A2
330
39
100
AcDbDictionary
280
     1
281
     1
  3
ACAD_XREC_ROUNDTRIP
360
A3
  0
DICTIONARY
  5
86
330
2B
100
AcDbDictionary
280
     1
281
     1
  3
ACAD_XREC_ROUNDTRIP
360
87
  0
DICTIONARY
  5
88
330
2C
100
AcDbDictionary
280
     1
281
     1
  3
ACAD_XREC_ROUNDTRIP
360
89
  0
DICTIONARY
  5
8A
330
2D
100
AcDbDictionary
280
     1
281
     1
  3
ACAD_XREC_ROUNDTRIP
360
8B
  0
DICTIONARY
  5
8C
330
2E
100
AcDbDictionary
280
     1
281
     1
  3
ACAD_XREC_ROUNDTRIP
360
8D
  0
DICTIONARY
  5
A0
330
38
100
AcDbDictionary
280
     1
281
     1
  3
ACAD_XREC_ROUNDTRIP
360
A1
  0
DICTIONARY
  5
96
330
33
100
AcDbDictionary
280
     1
281
     1
  3
ACAD_XREC_ROUNDTRIP
360
97
  0
DICTIONARY
  5
9E
330
37
100
AcDbDictionary
280
     1
281
     1
  3
ACAD_XREC_ROUNDTRIP
360
9F
  0
XRECORD
  5
8F
102
{ACAD_REACTORS
330
8E
102
}
330
8E
100
AcDbXrecord
280
     1
102
RTVSPropertyOp0
 70
     1
102
RTVSPropertyOp1
 70
     1
102
RTVSPropertyOp2
 70
     1
102
RTVSPropertyOp3
 70
     1
102
RTVSPropertyOp4
 70
     1
102
RTVSPropertyOp5
 70
     1
102
RTVSPropertyOp6
 70
     1
102
RTVSPropertyOp7
 70
     1
102
RTVSPropertyOp8
 70
     1
102
RTVSPropertyOp9
 70
     1
102
RTVSPropertyOp10
 70
     1
102
RTVSPropertyOp11
 70
     1
102
RTVSPropertyOp12
 70
     1
102
RTVSPropertyOp13
 70
     1
102
RTVSPropertyOp14
 70
     1
102
RTVSPropertyOp15
 70
     1
102
RTVSPropertyOp16
 70
     1
102
RTVSPropertyOp17
 70
     1
102
RTVSPropertyOp18
 70
     1
102
RTVSPropertyOp19
 70
     1
102
RTVSPropertyOp20
 70
     1
102
RTVSPropertyOp21
 70
     1
102
RTVSPropertyOp22
 70
     1
102
RTVSPropertyOp23
 70
     1
102
RTVSPropertyOp24
 70
     1
102
RTVSPropertyOp25
 70
     1
102
RTVSPropertyOp26
 70
     1
102
RTVSPropertyOp27
 70
     1
102
RTVSPropertyOp28
 70
     1
102
RTVSPropertyOp29
 70
     1
102
RTVSPropertyOp30
 70
     1
102
RTVSPropertyOp31
 70
     1
102
RTVSPropertyOp32
 70
     1
  0
XRECORD
  5
93
102
{ACAD_REACTORS
330
92
102
}
330
92
100
AcDbXrecord
280
     1
102
RTVSPropertyOp0
 70
     1
102
RTVSPropertyOp1
 70
     1
102
RTVSPropertyOp2
 70
     1
102
RTVSPropertyOp3
 70
     1
102
RTVSPropertyOp4
 70
     1
102
RTVSPropertyOp5
 70
     1
102
RTVSPropertyOp6
 70
     1
102
RTVSPropertyOp7
 70
     1
102
RTVSPropertyOp8
 70
     1
102
RTVSPropertyOp9
 70
     1
102
RTVSPropertyOp10
 70
     1
102
RTVSPropertyOp11
 70
     1
102
RTVSPropertyOp12
 70
     1
102
RTVSPropertyOp13
 70
     1
102
RTVSPropertyOp14
 70
     1
102
RTVSPropertyOp15
 70
     1
102
RTVSPropertyOp16
 70
     1
102
RTVSPropertyOp17
 70
     1
102
RTVSPropertyOp18
 70
     1
102
RTVSPropertyOp19
 70
     1
102
RTVSPropertyOp20
 70
     1
102
RTVSPropertyOp21
 70
     1
102
RTVSPropertyOp22
 70
     1
102
RTVSPropertyOp23
 70
     1
102
RTVSPropertyOp24
 70
     1
102
RTVSPropertyOp25
 70
     1
102
RTVSPropertyOp26
 70
     1
102
RTVSPropertyOp27
 70
     1
102
RTVSPropertyOp28
 70
     1
102
RTVSPropertyOp29
 70
     1
102
RTVSPropertyOp30
 70
     1
102
RTVSPropertyOp31
 70
     1
102
RTVSPropertyOp32
 70
     1
  0
XRECORD
  5
91
102
{ACAD_REACTORS
330
90
102
}
330
90
100
AcDbXrecord
280
     1
102
RTVSPropertyOp0
 70
     1
102
RTVSPropertyOp1
 70
     1
102
RTVSPropertyOp2
 70
     1
102
RTVSPropertyOp3
 70
     1
102
RTVSPropertyOp4
 70
     1
102
RTVSPropertyOp5
 70
     1
102
RTVSPropertyOp6
 70
     1
102
RTVSPropertyOp7
 70
     1
102
RTVSPropertyOp8
 70
     1
102
RTVSPropertyOp9
 70
     1
102
RTVSPropertyOp10
 70
     1
102
RTVSPropertyOp11
 70
     1
102
RTVSPropertyOp12
 70
     1
102
RTVSPropertyOp13
 70
     1
102
RTVSPropertyOp14
 70
     1
102
RTVSPropertyOp15
 70
     1
102
RTVSPropertyOp16
 70
     1
102
RTVSPropertyOp17
 70
     1
102
RTVSPropertyOp18
 70
     1
102
RTVSPropertyOp19
 70
     1
102
RTVSPropertyOp20
 70
     1
102
RTVSPropertyOp21
 70
     1
102
RTVSPropertyOp22
 70
     1
102
RTVSPropertyOp23
 70
     1
102
RTVSPropertyOp24
 70
     1
102
RTVSPropertyOp25
 70
     1
102
RTVSPropertyOp26
 70
     1
102
RTVSPropertyOp27
 70
     1
102
RTVSPropertyOp28
 70
     1
102
RTVSPropertyOp29
 70
     1
102
RTVSPropertyOp30
 70
     1
102
RTVSPropertyOp31
 70
     1
102
RTVSPropertyOp32
 70
     1
  0
XRECORD
  5
95
102
{ACAD_REACTORS
330
94
102
}
330
94
100
AcDbXrecord
280
     1
102
RTVSPropertyOp0
 70
     1
102
RTVSPropertyOp1
 70
     1
102
RTVSPropertyOp2
 70
     1
102
RTVSPropertyOp3
 70
     1
102
RTVSPropertyOp4
 70
     1
102
RTVSPropertyOp5
 70
     1
102
RTVSPropertyOp6
 70
     1
102
RTVSPropertyOp7
 70
     1
102
RTVSPropertyOp8
 70
     1
102
RTVSPropertyOp9
 70
     1
102
RTVSPropertyOp10
 70
     1
102
RTVSPropertyOp11
 70
     1
102
RTVSPropertyOp12
 70
     1
102
RTVSPropertyOp13
 70
     1
102
RTVSPropertyOp14
 70
     1
102
RTVSPropertyOp15
 70
     1
102
RTVSPropertyOp16
 70
     1
102
RTVSPropertyOp17
 70
     1
102
RTVSPropertyOp18
 70
     1
102
RTVSPropertyOp19
 70
     1
102
RTVSPropertyOp20
 70
     1
102
RTVSPropertyOp21
 70
     1
102
RTVSPropertyOp22
 70
     1
102
RTVSPropertyOp23
 70
     1
102
RTVSPropertyOp24
 70
     1
102
RTVSPropertyOp25
 70
     1
102
RTVSPropertyOp26
 70
     1
102
RTVSPropertyOp27
 70
     1
102
RTVSPropertyOp28
 70
     1
102
RTVSPropertyOp29
 70
     1
102
RTVSPropertyOp30
 70
     1
102
RTVSPropertyOp31
 70
     1
102
RTVSPropertyOp32
 70
     1
  0
XRECORD
  5
9D
102
{ACAD_REACTORS
330
9C
102
}
330
9C
100
AcDbXrecord
280
     1
102
RTVSPropertyOp0
 70
     1
102
RTVSPropertyOp1
 70
     1
102
RTVSPropertyOp2
 70
     1
102
RTVSPropertyOp3
 70
     1
102
RTVSPropertyOp4
 70
     1
102
RTVSPropertyOp5
 70
     1
102
RTVSPropertyOp6
 70
     1
102
RTVSPropertyOp7
 70
     1
102
RTVSPropertyOp8
 70
     1
102
RTVSPropertyOp9
 70
     1
102
RTVSPropertyOp10
 70
     1
102
RTVSPropertyOp11
 70
     1
102
RTVSPropertyOp12
 70
     1
102
RTVSPropertyOp13
 70
     1
102
RTVSPropertyOp14
 70
     1
102
RTVSPropertyOp15
 70
     1
102
RTVSPropertyOp16
 70
     1
102
RTVSPropertyOp17
 70
     1
102
RTVSPropertyOp18
 70
     1
102
RTVSPropertyOp19
 70
     1
102
RTVSPropertyOp20
 70
     1
102
RTVSPropertyOp21
 70
     1
102
RTVSPropertyOp22
 70
     1
102
RTVSPropertyOp23
 70
     1
102
RTVSPropertyOp24
 70
     1
102
RTVSPropertyOp25
 70
     1
102
RTVSPropertyOp26
 70
     1
102
RTVSPropertyOp27
 70
     1
102
RTVSPropertyOp28
 70
     1
102
RTVSPropertyOp29
 70
     1
102
RTVSPropertyOp30
 70
     1
102
RTVSPropertyOp31
 70
     1
102
RTVSPropertyOp32
 70
     1
  0
XRECORD
  5
A5
102
{ACAD_REACTORS
330
A4
102
}
330
A4
100
AcDbXrecord
280
     1
102
RTVSPropertyOp0
 70
     1
102
RTVSPropertyOp1
 70
     1
102
RTVSPropertyOp2
 70
     1
102
RTVSPropertyOp3
 70
     1
102
RTVSPropertyOp4
 70
     1
102
RTVSPropertyOp5
 70
     1
102
RTVSPropertyOp6
 70
     1
102
RTVSPropertyOp7
 70
     1
102
RTVSPropertyOp8
 70
     1
102
RTVSPropertyOp9
 70
     1
102
RTVSPropertyOp10
 70
     1
102
RTVSPropertyOp11
 70
     1
102
RTVSPropertyOp12
 70
     1
102
RTVSPropertyOp13
 70
     1
102
RTVSPropertyOp14
 70
     1
102
RTVSPropertyOp15
 70
     1
102
RTVSPropertyOp16
 70
     1
102
RTVSPropertyOp17
 70
     1
102
RTVSPropertyOp18
 70
     1
102
RTVSPropertyOp19
 70
     1
102
RTVSPropertyOp20
 70
     1
102
RTVSPropertyOp21
 70
     1
102
RTVSPropertyOp22
 70
     1
102
RTVSPropertyOp23
 70
     1
102
RTVSPropertyOp24
 70
     1
102
RTVSPropertyOp25
 70
     1
102
RTVSPropertyOp26
 70
     1
102
RTVSPropertyOp27
 70
     1
102
RTVSPropertyOp28
 70
     1
102
RTVSPropertyOp29
 70
     1
102
RTVSPropertyOp30
 70
     1
102
RTVSPropertyOp31
 70
     1
102
RTVSPropertyOp32
 70
     1
  0
XRECORD
  5
99
102
{ACAD_REACTORS
330
98
102
}
330
98
100
AcDbXrecord
280
     1
102
RTVSPropertyOp0
 70
     1
102
RTVSPropertyOp1
 70
     1
102
RTVSPropertyOp2
 70
     1
102
RTVSPropertyOp3
 70
     1
102
RTVSPropertyOp4
 70
     1
102
RTVSPropertyOp5
 70
     1
102
RTVSPropertyOp6
 70
     1
102
RTVSPropertyOp7
 70
     1
102
RTVSPropertyOp8
 70
     1
102
RTVSPropertyOp9
 70
     1
102
RTVSPropertyOp10
 70
     1
102
RTVSPropertyOp11
 70
     1
102
RTVSPropertyOp12
 70
     1
102
RTVSPropertyOp13
 70
     1
102
RTVSPropertyOp14
 70
     1
102
RTVSPropertyOp15
 70
     1
102
RTVSPropertyOp16
 70
     1
102
RTVSPropertyOp17
 70
     1
102
RTVSPropertyOp18
 70
     1
102
RTVSPropertyOp19
 70
     1
102
RTVSPropertyOp20
 70
     1
102
RTVSPropertyOp21
 70
     1
102
RTVSPropertyOp22
 70
     1
102
RTVSPropertyOp23
 70
     1
102
RTVSPropertyOp24
 70
     1
102
RTVSPropertyOp25
 70
     1
102
RTVSPropertyOp26
 70
     1
102
RTVSPropertyOp27
 70
     1
102
RTVSPropertyOp28
 70
     1
102
RTVSPropertyOp29
 70
     1
102
RTVSPropertyOp30
 70
     1
102
RTVSPropertyOp31
 70
     1
102
RTVSPropertyOp32
 70
     1
  0
XRECORD
  5
9B
102
{ACAD_REACTORS
330
9A
102
}
330
9A
100
AcDbXrecord
280
     1
102
RTVSPropertyOp0
 70
     1
102
RTVSPropertyOp1
 70
     1
102
RTVSPropertyOp2
 70
     1
102
RTVSPropertyOp3
 70
     1
102
RTVSPropertyOp4
 70
     1
102
RTVSPropertyOp5
 70
     1
102
RTVSPropertyOp6
 70
     1
102
RTVSPropertyOp7
 70
     1
102
RTVSPropertyOp8
 70
     1
102
RTVSPropertyOp9
 70
     1
102
RTVSPropertyOp10
 70
     1
102
RTVSPropertyOp11
 70
     1
102
RTVSPropertyOp12
 70
     1
102
RTVSPropertyOp13
 70
     1
102
RTVSPropertyOp14
 70
     1
102
RTVSPropertyOp15
 70
     1
102
RTVSPropertyOp16
 70
     1
102
RTVSPropertyOp17
 70
     1
102
RTVSPropertyOp18
 70
     1
102
RTVSPropertyOp19
 70
     1
102
RTVSPropertyOp20
 70
     1
102
RTVSPropertyOp21
 70
     1
102
RTVSPropertyOp22
 70
     1
102
RTVSPropertyOp23
 70
     1
102
RTVSPropertyOp24
 70
     1
102
RTVSPropertyOp25
 70
     1
102
RTVSPropertyOp26
 70
     1
102
RTVSPropertyOp27
 70
     1
102
RTVSPropertyOp28
 70
     1
102
RTVSPropertyOp29
 70
     1
102
RTVSPropertyOp30
 70
     1
102
RTVSPropertyOp31
 70
     1
102
RTVSPropertyOp32
 70
     1
  0
XRECORD
  5
A3
102
{ACAD_REACTORS
330
A2
102
}
330
A2
100
AcDbXrecord
280
     1
102
RTVSPropertyOp0
 70
     1
102
RTVSPropertyOp1
 70
     1
102
RTVSPropertyOp2
 70
     1
102
RTVSPropertyOp3
 70
     1
102
RTVSPropertyOp4
 70
     1
102
RTVSPropertyOp5
 70
     1
102
RTVSPropertyOp6
 70
     1
102
RTVSPropertyOp7
 70
     1
102
RTVSPropertyOp8
 70
     1
102
RTVSPropertyOp9
 70
     1
102
RTVSPropertyOp10
 70
     1
102
RTVSPropertyOp11
 70
     1
102
RTVSPropertyOp12
 70
     1
102
RTVSPropertyOp13
 70
     1
102
RTVSPropertyOp14
 70
     1
102
RTVSPropertyOp15
 70
     1
102
RTVSPropertyOp16
 70
     1
102
RTVSPropertyOp17
 70
     1
102
RTVSPropertyOp18
 70
     1
102
RTVSPropertyOp19
 70
     1
102
RTVSPropertyOp20
 70
     1
102
RTVSPropertyOp21
 70
     1
102
RTVSPropertyOp22
 70
     1
102
RTVSPropertyOp23
 70
     1
102
RTVSPropertyOp24
 70
     1
102
RTVSPropertyOp25
 70
     1
102
RTVSPropertyOp26
 70
     1
102
RTVSPropertyOp27
 70
     1
102
RTVSPropertyOp28
 70
     1
102
RTVSPropertyOp29
 70
     1
102
RTVSPropertyOp30
 70
     1
102
RTVSPropertyOp31
 70
     1
102
RTVSPropertyOp32
 70
     1
  0
XRECORD
  5
87
102
{ACAD_REACTORS
330
86
102
}
330
86
100
AcDbXrecord
280
     1
102
RTVSPropertyOp0
 70
     1
102
RTVSPropertyOp1
 70
     1
102
RTVSPropertyOp2
 70
     1
102
RTVSPropertyOp3
 70
     1
102
RTVSPropertyOp4
 70
     1
102
RTVSPropertyOp5
 70
     1
102
RTVSPropertyOp6
 70
     1
102
RTVSPropertyOp7
 70
     1
102
RTVSPropertyOp8
 70
     1
102
RTVSPropertyOp9
 70
     1
102
RTVSPropertyOp10
 70
     1
102
RTVSPropertyOp11
 70
     1
102
RTVSPropertyOp12
 70
     1
102
RTVSPropertyOp13
 70
     1
102
RTVSPropertyOp14
 70
     1
102
RTVSPropertyOp15
 70
     1
102
RTVSPropertyOp16
 70
     1
102
RTVSPropertyOp17
 70
     1
102
RTVSPropertyOp18
 70
     1
102
RTVSPropertyOp19
 70
     1
102
RTVSPropertyOp20
 70
     1
102
RTVSPropertyOp21
 70
     1
102
RTVSPropertyOp22
 70
     1
102
RTVSPropertyOp23
 70
     1
102
RTVSPropertyOp24
 70
     1
102
RTVSPropertyOp25
 70
     1
102
RTVSPropertyOp26
 70
     1
102
RTVSPropertyOp27
 70
     1
102
RTVSPropertyOp28
 70
     1
102
RTVSPropertyOp29
 70
     1
102
RTVSPropertyOp30
 70
     1
102
RTVSPropertyOp31
 70
     1
102
RTVSPropertyOp32
 70
     1
  0
XRECORD
  5
89
102
{ACAD_REACTORS
330
88
102
}
330
88
100
AcDbXrecord
280
     1
102
RTVSPropertyOp0
 70
     1
102
RTVSPropertyOp1
 70
     1
102
RTVSPropertyOp2
 70
     1
102
RTVSPropertyOp3
 70
     1
102
RTVSPropertyOp4
 70
     1
102
RTVSPropertyOp5
 70
     1
102
RTVSPropertyOp6
 70
     1
102
RTVSPropertyOp7
 70
     1
102
RTVSPropertyOp8
 70
     1
102
RTVSPropertyOp9
 70
     1
102
RTVSPropertyOp10
 70
     1
102
RTVSPropertyOp11
 70
     1
102
RTVSPropertyOp12
 70
     1
102
RTVSPropertyOp13
 70
     1
102
RTVSPropertyOp14
 70
     1
102
RTVSPropertyOp15
 70
     1
102
RTVSPropertyOp16
 70
     1
102
RTVSPropertyOp17
 70
     1
102
RTVSPropertyOp18
 70
     1
102
RTVSPropertyOp19
 70
     1
102
RTVSPropertyOp20
 70
     1
102
RTVSPropertyOp21
 70
     1
102
RTVSPropertyOp22
 70
     1
102
RTVSPropertyOp23
 70
     1
102
RTVSPropertyOp24
 70
     1
102
RTVSPropertyOp25
 70
     1
102
RTVSPropertyOp26
 70
     1
102
RTVSPropertyOp27
 70
     1
102
RTVSPropertyOp28
 70
     1
102
RTVSPropertyOp29
 70
     1
102
RTVSPropertyOp30
 70
     1
102
RTVSPropertyOp31
 70
     1
102
RTVSPropertyOp32
 70
     1
  0
XRECORD
  5
8B
102
{ACAD_REACTORS
330
8A
102
}
330
8A
100
AcDbXrecord
280
     1
102
RTVSPropertyOp0
 70
     1
102
RTVSPropertyOp1
 70
     1
102
RTVSPropertyOp2
 70
     1
102
RTVSPropertyOp3
 70
     1
102
RTVSPropertyOp4
 70
     1
102
RTVSPropertyOp5
 70
     1
102
RTVSPropertyOp6
 70
     1
102
RTVSPropertyOp7
 70
     1
102
RTVSPropertyOp8
 70
     1
102
RTVSPropertyOp9
 70
     1
102
RTVSPropertyOp10
 70
     1
102
RTVSPropertyOp11
 70
     1
102
RTVSPropertyOp12
 70
     1
102
RTVSPropertyOp13
 70
     1
102
RTVSPropertyOp14
 70
     1
102
RTVSPropertyOp15
 70
     1
102
RTVSPropertyOp16
 70
     1
102
RTVSPropertyOp17
 70
     1
102
RTVSPropertyOp18
 70
     1
102
RTVSPropertyOp19
 70
     1
102
RTVSPropertyOp20
 70
     1
102
RTVSPropertyOp21
 70
     1
102
RTVSPropertyOp22
 70
     1
102
RTVSPropertyOp23
 70
     1
102
RTVSPropertyOp24
 70
     1
102
RTVSPropertyOp25
 70
     1
102
RTVSPropertyOp26
 70
     1
102
RTVSPropertyOp27
 70
     1
102
RTVSPropertyOp28
 70
     1
102
RTVSPropertyOp29
 70
     1
102
RTVSPropertyOp30
 70
     1
102
RTVSPropertyOp31
 70
     1
102
RTVSPropertyOp32
 70
     1
  0
XRECORD
  5
8D
102
{ACAD_REACTORS
330
8C
102
}
330
8C
100
AcDbXrecord
280
     1
102
RTVSPropertyOp0
 70
     1
102
RTVSPropertyOp1
 70
     1
102
RTVSPropertyOp2
 70
     1
102
RTVSPropertyOp3
 70
     1
102
RTVSPropertyOp4
 70
     1
102
RTVSPropertyOp5
 70
     1
102
RTVSPropertyOp6
 70
     1
102
RTVSPropertyOp7
 70
     1
102
RTVSPropertyOp8
 70
     1
102
RTVSPropertyOp9
 70
     1
102
RTVSPropertyOp10
 70
     1
102
RTVSPropertyOp11
 70
     1
102
RTVSPropertyOp12
 70
     1
102
RTVSPropertyOp13
 70
     1
102
RTVSPropertyOp14
 70
     1
102
RTVSPropertyOp15
 70
     1
102
RTVSPropertyOp16
 70
     1
102
RTVSPropertyOp17
 70
     1
102
RTVSPropertyOp18
 70
     1
102
RTVSPropertyOp19
 70
     1
102
RTVSPropertyOp20
 70
     1
102
RTVSPropertyOp21
 70
     1
102
RTVSPropertyOp22
 70
     1
102
RTVSPropertyOp23
 70
     1
102
RTVSPropertyOp24
 70
     1
102
RTVSPropertyOp25
 70
     1
102
RTVSPropertyOp26
 70
     1
102
RTVSPropertyOp27
 70
     1
102
RTVSPropertyOp28
 70
     1
102
RTVSPropertyOp29
 70
     1
102
RTVSPropertyOp30
 70
     1
102
RTVSPropertyOp31
 70
     1
102
RTVSPropertyOp32
 70
     1
  0
XRECORD
  5
A1
102
{ACAD_REACTORS
330
A0
102
}
330
A0
100
AcDbXrecord
280
     1
102
RTVSPropertyOp0
 70
     1
102
RTVSPropertyOp1
 70
     1
102
RTVSPropertyOp2
 70
     1
102
RTVSPropertyOp3
 70
     1
102
RTVSPropertyOp4
 70
     1
102
RTVSPropertyOp5
 70
     1
102
RTVSPropertyOp6
 70
     1
102
RTVSPropertyOp7
 70
     1
102
RTVSPropertyOp8
 70
     1
102
RTVSPropertyOp9
 70
     1
102
RTVSPropertyOp10
 70
     1
102
RTVSPropertyOp11
 70
     1
102
RTVSPropertyOp12
 70
     1
102
RTVSPropertyOp13
 70
     1
102
RTVSPropertyOp14
 70
     1
102
RTVSPropertyOp15
 70
     1
102
RTVSPropertyOp16
 70
     1
102
RTVSPropertyOp17
 70
     1
102
RTVSPropertyOp18
 70
     1
102
RTVSPropertyOp19
 70
     1
102
RTVSPropertyOp20
 70
     1
102
RTVSPropertyOp21
 70
     1
102
RTVSPropertyOp22
 70
     1
102
RTVSPropertyOp23
 70
     1
102
RTVSPropertyOp24
 70
     1
102
RTVSPropertyOp25
 70
     1
102
RTVSPropertyOp26
 70
     1
102
RTVSPropertyOp27
 70
     1
102
RTVSPropertyOp28
 70
     1
102
RTVSPropertyOp29
 70
     1
102
RTVSPropertyOp30
 70
     1
102
RTVSPropertyOp31
 70
     1
102
RTVSPropertyOp32
 70
     1
  0
XRECORD
  5
97
102
{ACAD_REACTORS
330
96
102
}
330
96
100
AcDbXrecord
280
     1
102
RTVSPropertyOp0
 70
     1
102
RTVSPropertyOp1
 70
     1
102
RTVSPropertyOp2
 70
     1
102
RTVSPropertyOp3
 70
     1
102
RTVSPropertyOp4
 70
     1
102
RTVSPropertyOp5
 70
     1
102
RTVSPropertyOp6
 70
     1
102
RTVSPropertyOp7
 70
     1
102
RTVSPropertyOp8
 70
     1
102
RTVSPropertyOp9
 70
     1
102
RTVSPropertyOp10
 70
     1
102
RTVSPropertyOp11
 70
     1
102
RTVSPropertyOp12
 70
     1
102
RTVSPropertyOp13
 70
     1
102
RTVSPropertyOp14
 70
     1
102
RTVSPropertyOp15
 70
     1
102
RTVSPropertyOp16
 70
     1
102
RTVSPropertyOp17
 70
     1
102
RTVSPropertyOp18
 70
     1
102
RTVSPropertyOp19
 70
     1
102
RTVSPropertyOp20
 70
     1
102
RTVSPropertyOp21
 70
     1
102
RTVSPropertyOp22
 70
     1
102
RTVSPropertyOp23
 70
     1
102
RTVSPropertyOp24
 70
     1
102
RTVSPropertyOp25
 70
     1
102
RTVSPropertyOp26
 70
     1
102
RTVSPropertyOp27
 70
     1
102
RTVSPropertyOp28
 70
     1
102
RTVSPropertyOp29
 70
     1
102
RTVSPropertyOp30
 70
     1
102
RTVSPropertyOp31
 70
     1
102
RTVSPropertyOp32
 70
     1
  0
XRECORD
  5
9F
102
{ACAD_REACTORS
330
9E
102
}
330
9E
100
AcDbXrecord
280
     1
102
RTVSPropertyOp0
 70
     1
102
RTVSPropertyOp1
 70
     1
102
RTVSPropertyOp2
 70
     1
102
RTVSPropertyOp3
 70
     1
102
RTVSPropertyOp4
 70
     1
102
RTVSPropertyOp5
 70
     1
102
RTVSPropertyOp6
 70
     1
102
RTVSPropertyOp7
 70
     1
102
RTVSPropertyOp8
 70
     1
102
RTVSPropertyOp9
 70
     1
102
RTVSPropertyOp10
 70
     1
102
RTVSPropertyOp11
 70
     1
102
RTVSPropertyOp12
 70
     1
102
RTVSPropertyOp13
 70
     1
102
RTVSPropertyOp14
 70
     1
102
RTVSPropertyOp15
 70
     1
102
RTVSPropertyOp16
 70
     1
102
RTVSPropertyOp17
 70
     1
102
RTVSPropertyOp18
 70
     1
102
RTVSPropertyOp19
 70
     1
102
RTVSPropertyOp20
 70
     1
102
RTVSPropertyOp21
 70
     1
102
RTVSPropertyOp22
 70
     1
102
RTVSPropertyOp23
 70
     1
102
RTVSPropertyOp24
 70
     1
102
RTVSPropertyOp25
 70
     1
102
RTVSPropertyOp26
 70
     1
102
RTVSPropertyOp27
 70
     1
102
RTVSPropertyOp28
 70
     1
102
RTVSPropertyOp29
 70
     1
102
RTVSPropertyOp30
 70
     1
102
RTVSPropertyOp31
 70
     1
102
RTVSPropertyOp32
 70
     1
  0
ENDSEC
  0
EOF
