  0
SECTION
  2
HEADER
  9
$ACADVER
  1
AC1021
  9
$ACADMAINTVER
 70
    25
  9
$DWGCODEPAGE
  3
ANSI_1252
  9
$INSBASE
 10
0.0
 20
0.0
 30
0.0
  9
$EXTMIN
 10
52.731
 20
-98.8079
 30
0.0
  9
$EXTMAX
 10
196.5397
 20
132.2419
 30
0.0
  9
$LIMMIN
 10
0.0
 20
0.0
  9
$LIMMAX
 10
12.0
 20
9.0
  9
$ORTHOMODE
 70
     0
  9
$REGENMODE
 70
     1
  9
$FILLMODE
 70
     1
  9
$QTEXTMODE
 70
     0
  9
$MIRRTEXT
 70
     1
  9
$LTSCALE
 40
1.0
  9
$ATTMODE
 70
     1
  9
$TEXTSIZE
 40
0.2
  9
$TRACEWID
 40
0.05
  9
$TEXTSTYLE
  7
Standard
  9
$CLAYER
  8
0
  9
$CELTYPE
  6
ByLayer
  9
$CECOLOR
 62
   256
  9
$CELTSCALE
 40
1.0
  9
$DISPSILH
 70
     0
  9
$DIMSCALE
 40
1.0
  9
$DIMASZ
 40
0.18
  9
$DIMEXO
 40
0.0625
  9
$DIMDLI
 40
0.38
  9
$DIMRND
 40
0.0
  9
$DIMDLE
 40
0.0
  9
$DIMEXE
 40
0.18
  9
$DIMTP
 40
0.0
  9
$DIMTM
 40
0.0
  9
$DIMTXT
 40
0.18
  9
$DIMCEN
 40
0.09
  9
$DIMTSZ
 40
0.0
  9
$DIMTOL
 70
     0
  9
$DIMLIM
 70
     0
  9
$DIMTIH
 70
     1
  9
$DIMTOH
 70
     1
  9
$DIMSE1
 70
     0
  9
$DIMSE2
 70
     0
  9
$DIMTAD
 70
     0
  9
$DIMZIN
 70
     0
  9
$DIMBLK
  1

  9
$DIMASO
 70
     1
  9
$DIMSHO
 70
     1
  9
$DIMPOST
  1

  9
$DIMAPOST
  1

  9
$DIMALT
 70
     0
  9
$DIMALTD
 70
     2
  9
$DIMALTF
 40
25.4
  9
$DIMLFAC
 40
1.0
  9
$DIMTOFL
 70
     0
  9
$DIMTVP
 40
0.0
  9
$DIMTIX
 70
     0
  9
$DIMSOXD
 70
     0
  9
$DIMSAH
 70
     0
  9
$DIMBLK1
  1

  9
$DIMBLK2
  1

  9
$DIMSTYLE
  2
Standard
  9
$DIMCLRD
 70
     0
  9
$DIMCLRE
 70
     0
  9
$DIMCLRT
 70
     0
  9
$DIMTFAC
 40
1.0
  9
$DIMGAP
 40
0.09
  9
$DIMJUST
 70
     0
  9
$DIMSD1
 70
     0
  9
$DIMSD2
 70
     0
  9
$DIMTOLJ
 70
     1
  9
$DIMTZIN
 70
     0
  9
$DIMALTZ
 70
     0
  9
$DIMALTTZ
 70
     0
  9
$DIMUPT
 70
     0
  9
$DIMDEC
 70
     4
  9
$DIMTDEC
 70
     4
  9
$DIMALTU
 70
     2
  9
$DIMALTTD
 70
     2
  9
$DIMTXSTY
  7
Standard
  9
$DIMAUNIT
 70
     0
  9
$DIMADEC
 70
     0
  9
$DIMALTRND
 40
0.0
  9
$DIMAZIN
 70
     0
  9
$DIMDSEP
 70
    46
  9
$DIMATFIT
 70
     3
  9
$DIMFRAC
 70
     0
  9
$DIMLDRBLK
  1

  9
$DIMLUNIT
 70
     2
  9
$DIMLWD
 70
    -2
  9
$DIMLWE
 70
    -2
  9
$DIMTMOVE
 70
     0
  9
$DIMFXL
 40
1.0
  9
$DIMFXLON
 70
     0
  9
$DIMJOGANG
 40
0.7853981633974483
  9
$DIMTFILL
 70
     0
  9
$DIMTFILLCLR
 70
     0
  9
$DIMARCSYM
 70
     0
  9
$DIMLTYPE
  6

  9
$DIMLTEX1
  6

  9
$DIMLTEX2
  6

  9
$LUNITS
 70
     2
  9
$LUPREC
 70
     4
  9
$SKETCHINC
 40
0.1
  9
$FILLETRAD
 40
0.5
  9
$AUNITS
 70
     0
  9
$AUPREC
 70
     0
  9
$MENU
  1
.
  9
$ELEVATION
 40
0.0
  9
$PELEVATION
 40
0.0
  9
$THICKNESS
 40
0.0
  9
$LIMCHECK
 70
     0
  9
$CHAMFERA
 40
0.5
  9
$CHAMFERB
 40
0.5
  9
$CHAMFERC
 40
1.0
  9
$CHAMFERD
 40
0.0
  9
$SKPOLY
 70
     0
  9
$TDCREATE
 40
2458492.715907338
  9
$TDUCREATE
 40
2458492.715907338
  9
$TDUPDATE
 40
2458492.715907558
  9
$TDUUPDATE
 40
2458492.715907558
  9
$TDINDWG
 40
0.0000000116
  9
$TDUSRTIMER
 40
0.0000000116
  9
$USRTIMER
 70
     1
  9
$ANGBASE
 50
0.0
  9
$ANGDIR
 70
     0
  9
$PDMODE
 70
     0
  9
$PDSIZE
 40
0.0
  9
$PLINEWID
 40
0.0
  9
$SPLFRAME
 70
     0
  9
$SPLINETYPE
 70
     6
  9
$SPLINESEGS
 70
     8
  9
$HANDSEED
  5
F6
  9
$SURFTAB1
 70
     6
  9
$SURFTAB2
 70
     6
  9
$SURFTYPE
 70
     6
  9
$SURFU
 70
     6
  9
$SURFV
 70
     6
  9
$UCSBASE
  2

  9
$UCSNAME
  2

  9
$UCSORG
 10
0.0
 20
0.0
 30
0.0
  9
$UCSXDIR
 10
1.0
 20
0.0
 30
0.0
  9
$UCSYDIR
 10
0.0
 20
1.0
 30
0.0
  9
$UCSORTHOREF
  2

  9
$UCSORTHOVIEW
 70
     0
  9
$UCSORGTOP
 10
0.0
 20
0.0
 30
0.0
  9
$UCSORGBOTTOM
 10
0.0
 20
0.0
 30
0.0
  9
$UCSORGLEFT
 10
0.0
 20
0.0
 30
0.0
  9
$UCSORGRIGHT
 10
0.0
 20
0.0
 30
0.0
  9
$UCSORGFRONT
 10
0.0
 20
0.0
 30
0.0
  9
$UCSORGBACK
 10
0.0
 20
0.0
 30
0.0
  9
$PUCSBASE
  2

  9
$PUCSNAME
  2

  9
$PUCSORG
 10
0.0
 20
0.0
 30
0.0
  9
$PUCSXDIR
 10
1.0
 20
0.0
 30
0.0
  9
$PUCSYDIR
 10
0.0
 20
1.0
 30
0.0
  9
$PUCSORTHOREF
  2

  9
$PUCSORTHOVIEW
 70
     0
  9
$PUCSORGTOP
 10
0.0
 20
0.0
 30
0.0
  9
$PUCSORGBOTTOM
 10
0.0
 20
0.0
 30
0.0
  9
$PUCSORGLEFT
 10
0.0
 20
0.0
 30
0.0
  9
$PUCSORGRIGHT
 10
0.0
 20
0.0
 30
0.0
  9
$PUCSORGFRONT
 10
0.0
 20
0.0
 30
0.0
  9
$PUCSORGBACK
 10
0.0
 20
0.0
 30
0.0
  9
$USERI1
 70
     0
  9
$USERI2
 70
     0
  9
$USERI3
 70
     0
  9
$USERI4
 70
     0
  9
$USERI5
 70
     0
  9
$USERR1
 40
0.0
  9
$USERR2
 40
0.0
  9
$USERR3
 40
0.0
  9
$USERR4
 40
0.0
  9
$USERR5
 40
0.0
  9
$WORLDVIEW
 70
     1
  9
$SHADEDGE
 70
     3
  9
$SHADEDIF
 70
    70
  9
$TILEMODE
 70
     1
  9
$MAXACTVP
 70
    64
  9
$PINSBASE
 10
0.0
 20
0.0
 30
0.0
  9
$PLIMCHECK
 70
     0
  9
$PEXTMIN
 10
1.000000000000000E+20
 20
1.000000000000000E+20
 30
1.000000000000000E+20
  9
$PEXTMAX
 10
-1.000000000000000E+20
 20
-1.000000000000000E+20
 30
-1.000000000000000E+20
  9
$PLIMMIN
 10
0.0
 20
0.0
  9
$PLIMMAX
 10
12.0
 20
9.0
  9
$UNITMODE
 70
     0
  9
$VISRETAIN
 70
     1
  9
$PLINEGEN
 70
     0
  9
$PSLTSCALE
 70
     1
  9
$TREEDEPTH
 70
  3020
  9
$CMLSTYLE
  2
Standard
  9
$CMLJUST
 70
     0
  9
$CMLSCALE
 40
1.0
  9
$PROXYGRAPHICS
 70
     1
  9
$MEASUREMENT
 70
     0
  9
$CELWEIGHT
370
    -1
  9
$ENDCAPS
280
     0
  9
$JOINSTYLE
280
     0
  9
$LWDISPLAY
290
     0
  9
$INSUNITS
 70
     4
  9
$HYPERLINKBASE
  1

  9
$STYLESHEET
  1

  9
$XEDIT
290
     1
  9
$CEPSNTYPE
380
     0
  9
$PSTYLEMODE
290
     1
  9
$FINGERPRINTGUID
  2
{33699E86-9EF6-412B-9A42-561BF6716F3A}
  9
$VERSIONGUID
  2
{FAEB1C32-E019-11D5-929B-00C0DF256EC4}
  9
$EXTNAMES
290
     1
  9
$PSVPSCALE
 40
0.0
  9
$OLESTARTUP
290
     0
  9
$SORTENTS
280
   127
  9
$INDEXCTL
280
     0
  9
$HIDETEXT
280
     1
  9
$XCLIPFRAME
290
     0
  9
$HALOGAP
280
     0
  9
$OBSCOLOR
 70
   257
  9
$OBSLTYPE
280
     0
  9
$INTERSECTIONDISPLAY
280
     0
  9
$INTERSECTIONCOLOR
 70
   257
  9
$DIMASSOC
280
     2
  9
$PROJECTNAME
  1

  9
$CAMERADISPLAY
290
     0
  9
$LENSLENGTH
 40
50.0
  9
$CAMERAHEIGHT
 40
0.0
  9
$STEPSPERSEC
 40
2.0
  9
$STEPSIZE
 40
6.0
  9
$3DDWFPREC
 40
2.0
  9
$PSOLWIDTH
 40
0.25
  9
$PSOLHEIGHT
 40
4.0
  9
$LOFTANG1
 40
1.570796326794897
  9
$LOFTANG2
 40
1.570796326794897
  9
$LOFTMAG1
 40
0.0
  9
$LOFTMAG2
 40
0.0
  9
$LOFTPARAM
 70
     7
  9
$LOFTNORMALS
280
     1
  9
$LATITUDE
 40
37.795
  9
$LONGITUDE
 40
-122.394
  9
$NORTHDIRECTION
 40
0.0
  9
$TIMEZONE
 70
 -8000
  9
$LIGHTGLYPHDISPLAY
280
     1
  9
$TILEMODELIGHTSYNCH
280
     1
  9
$SOLIDHIST
280
     1
  9
$SHOWHIST
280
     1
  9
$DWFFRAME
280
     2
  9
$DGNFRAME
280
     2
  9
$REALWORLDSCALE
290
     1
  9
$INTERFERECOLOR
 62
   256
  9
$CSHADOW
280
     0
  9
$SHADOWPLANELOCATION
 40
0.0
  0
ENDSEC
  0
SECTION
  2
CLASSES
  0
CLASS
  1
ACDBDICTIONARYWDFLT
  2
AcDbDictionaryWithDefault
  3
ObjectDBX Classes
 90
        0
 91
        4
280
     0
281
     0
  0
CLASS
  1
VISUALSTYLE
  2
AcDbVisualStyle
  3
ObjectDBX Classes
 90
     4095
 91
        4
280
     0
281
     0
  0
CLASS
  1
MATERIAL
  2
AcDbMaterial
  3
ObjectDBX Classes
 90
     1153
 91
        4
280
     0
281
     0
  0
ENDSEC
  0
SECTION
  2
TABLES
  0
TABLE
  2
VPORT
  5
8
330
0
100
AcDbSymbolTable
 70
     1
  0
VPORT
  5
29
330
8
100
AcDbSymbolTableRecord
100
AcDbViewportTableRecord
  2
*Active
 70
     0
 10
0.0
 20
0.0
 11
1.0
 21
1.0
 12
10.42990654205607
 22
4.5
 13
0.0
 23
0.0
 14
0.5
 24
0.5
 15
0.5
 25
0.5
 16
0.0
 26
0.0
 36
1.0
 17
0.0
 27
0.0
 37
0.0
 40
9.0
 41
1.972972972850329
 42
50.0
 43
0.0
 44
0.0
 50
0.0
 51
0.0
 71
     0
 72
   100
 73
     1
 74
     3
 75
     0
 76
     0
 77
     0
 78
     0
281
     0
 65
     1
110
0.0
120
0.0
130
0.0
111
1.0
121
0.0
131
0.0
112
0.0
122
1.0
132
0.0
 79
     0
146
0.0
 60
     3
 61
     5
292
     1
282
     1
141
0.0
142
0.0
 63
   250
  0
ENDTAB
  0
TABLE
  2
LTYPE
  5
5
330
0
100
AcDbSymbolTable
 70
     1
  0
LTYPE
  5
14
330
5
100
AcDbSymbolTableRecord
100
AcDbLinetypeTableRecord
  2
ByBlock
 70
     0
  3

 72
    65
 73
     0
 40
0.0
  0
LTYPE
  5
15
330
5
100
AcDbSymbolTableRecord
100
AcDbLinetypeTableRecord
  2
ByLayer
 70
     0
  3

 72
    65
 73
     0
 40
0.0
  0
LTYPE
  5
16
330
5
100
AcDbSymbolTableRecord
100
AcDbLinetypeTableRecord
  2
Continuous
 70
     0
  3
Solid line
 72
    65
 73
     0
 40
0.0
  0
ENDTAB
  0
TABLE
  2
LAYER
  5
2
330
0
100
AcDbSymbolTable
 70
     2
  0
LAYER
  5
10
330
2
100
AcDbSymbolTableRecord
100
AcDbLayerTableRecord
  2
0
 70
     0
 62
     7
  6
Continuous
370
    -3
390
F
347
3E
  0
LAYER
  5
40
330
2
100
AcDbSymbolTableRecord
100
AcDbLayerTableRecord
  2
layer 1
 70
     0
 62
     7
  6
Continuous
370
    -3
390
F
347
3E
  0
ENDTAB
  0
TABLE
  2
STYLE
  5
3
330
0
100
AcDbSymbolTable
 70
     1
  0
STYLE
  5
11
330
3
100
AcDbSymbolTableRecord
100
AcDbTextStyleTableRecord
  2
Standard
 70
     0
 40
0.0
 41
1.0
 50
0.0
 71
     0
 42
0.2
  3
txt
  4

  0
ENDTAB
  0
TABLE
  2
VIEW
  5
6
330
0
100
AcDbSymbolTable
 70
     0
  0
ENDTAB
  0
TABLE
  2
UCS
  5
7
330
0
100
AcDbSymbolTable
 70
     0
  0
ENDTAB
  0
TABLE
  2
APPID
  5
9
330
0
100
AcDbSymbolTable
 70
     2
  0
APPID
  5
12
330
9
100
AcDbSymbolTableRecord
100
AcDbRegAppTableRecord
  2
ACAD
 70
     0
  0
APPID
  5
3F
330
9
100
AcDbSymbolTableRecord
100
AcDbRegAppTableRecord
  2
ODA
 70
     0
  0
ENDTAB
  0
TABLE
  2
DIMSTYLE
  5
A
330
0
100
AcDbSymbolTable
 70
     1
100
AcDbDimStyleTable
  0
DIMSTYLE
105
27
330
A
100
AcDbSymbolTableRecord
100
AcDbDimStyleTableRecord
  2
Standard
 70
     0
178
     0
340
11
  0
ENDTAB
  0
TABLE
  2
BLOCK_RECORD
  5
1
330
0
100
AcDbSymbolTable
 70
     1
  0
BLOCK_RECORD
  5
1F
330
1
100
AcDbSymbolTableRecord
100
AcDbBlockTableRecord
  2
*Model_Space
340
22
 70
     0
280
     1
281
     0
  0
BLOCK_RECORD
  5
1B
330
1
100
AcDbSymbolTableRecord
100
AcDbBlockTableRecord
  2
*Paper_Space
340
1E
 70
     0
280
     1
281
     0
  0
BLOCK_RECORD
  5
23
330
1
100
AcDbSymbolTableRecord
100
AcDbBlockTableRecord
  2
*Paper_Space0
340
26
 70
     0
280
     1
281
     0
  0
ENDTAB
  0
ENDSEC
  0
SECTION
  2
BLOCKS
  0
BLOCK
  5
20
330
1F
100
AcDbEntity
  8
0
100
AcDbBlockBegin
  2
*Model_Space
 70
     0
 10
0.0
 20
0.0
 30
0.0
  3
*Model_Space
  1

  0
ENDBLK
  5
21
330
1F
100
AcDbEntity
  8
0
100
AcDbBlockEnd
  0
BLOCK
  5
1C
330
1B
100
AcDbEntity
 67
     1
  8
0
100
AcDbBlockBegin
  2
*Paper_Space
 70
     0
 10
0.0
 20
0.0
 30
0.0
  3
*Paper_Space
  1

  0
ENDBLK
  5
1D
330
1B
100
AcDbEntity
 67
     1
  8
0
100
AcDbBlockEnd
  0
BLOCK
  5
24
330
23
100
AcDbEntity
  8
0
100
AcDbBlockBegin
  2
*Paper_Space0
 70
     0
 10
0.0
 20
0.0
 30
0.0
  3
*Paper_Space0
  1

  0
ENDBLK
  5
25
330
23
100
AcDbEntity
  8
0
100
AcDbBlockEnd
  0
ENDSEC
  0
SECTION
  2
ENTITIES
  0
SPLINE
  5
41
330
1F
100
AcDbEntity
  8
layer 1
 62
   250
370
     9
100
AcDbSpline
210
0.0
220
0.0
230
1.0
 70
    11
 71
     3
 72
    20
 73
    16
 74
     0
 42
0.0000000001
 43
0.0000000001
 12
1.0
 22
0.0
 32
0.0
 13
1.0
 23
0.0
 33
0.0
 40
0.0
 40
0.0
 40
0.0
 40
0.0
 40
0.2
 40
0.2
 40
0.2
 40
0.2
 40
0.4
 40
0.4
 40
0.4
 40
0.4
 40
0.6
 40
0.6
 40
0.6
 40
0.6
 40
1.0
 40
1.0
 40
1.0
 40
1.0
 10
52.7691
 20
-98.7698
 30
0.0
 10
52.7691
 20
-98.7698
 30
0.0
 10
52.7691
 20
132.2038
 30
0.0
 10
52.7691
 20
132.2038
 30
0.0
 10
52.7691
 20
132.2038
 30
0.0
 10
52.7691
 20
132.2038
 30
0.0
 10
196.5016
 20
132.2038
 30
0.0
 10
196.5016
 20
132.2038
 30
0.0
 10
196.5016
 20
132.2038
 30
0.0
 10
196.5016
 20
132.2038
 30
0.0
 10
196.5016
 20
-98.7698
 30
0.0
 10
196.5016
 20
-98.7698
 30
0.0
 10
196.5016
 20
-98.7698
 30
0.0
 10
196.5016
 20
-98.7698
 30
0.0
 10
52.7691
 20
-98.7698
 30
0.0
 10
52.7691
 20
-98.7698
 30
0.0
  0
SPLINE
  5
42
330
1F
100
AcDbEntity
  8
layer 1
 62
     7
370
     9
100
AcDbSpline
210
0.0
220
0.0
230
1.0
 70
    11
 71
     3
 72
    16
 73
    12
 74
     0
 42
0.0000000001
 43
0.0000000001
 12
1.0
 22
0.0
 32
0.0
 13
1.0
 23
0.0
 33
0.0
 40
0.0
 40
0.0
 40
0.0
 40
0.0
 40
0.25
 40
0.25
 40
0.25
 40
0.25
 40
0.5
 40
0.5
 40
0.5
 40
0.5
 40
1.0
 40
1.0
 40
1.0
 40
1.0
 10
64.6871
 20
-83.3357
 30
0.0
 10
63.2983
 20
-81.687
 30
0.0
 10
62.3912
 20
-79.6874
 30
0.0
 10
62.065
 20
-77.5566
 30
0.0
 10
62.065
 20
-77.5566
 30
0.0
 10
62.065
 20
-77.5566
 30
0.0
 10
62.065
 20
-86.5166
 30
0.0
 10
62.065
 20
-86.5166
 30
0.0
 10
62.065
 20
-86.5166
 30
0.0
 10
62.8777
 20
-85.4072
 30
0.0
 10
63.7531
 20
-84.3452
 30
0.0
 10
64.6871
 20
-83.3357
 30
0.0
  0
SPLINE
  5
43
330
1F
100
AcDbEntity
  8
layer 1
 62
     7
370
     9
100
AcDbSpline
210
0.0
220
0.0
230
1.0
 70
    11
 71
     3
 72
    20
 73
    16
 74
     0
 42
0.0000000001
 43
0.0000000001
 12
1.0
 22
0.0
 32
0.0
 13
1.0
 23
0.0
 33
0.0
 40
0.0
 40
0.0
 40
0.0
 40
0.0
 40
0.2
 40
0.2
 40
0.2
 40
0.2
 40
0.4
 40
0.4
 40
0.4
 40
0.4
 40
0.6
 40
0.6
 40
0.6
 40
0.6
 40
1.0
 40
1.0
 40
1.0
 40
1.0
 10
62.065
 20
-74.0102
 30
0.0
 10
62.6813
 20
-69.9833
 30
0.0
 10
65.3436
 20
-66.5651
 30
0.0
 10
69.0968
 20
-64.9819
 30
0.0
 10
69.0968
 20
-64.9819
 30
0.0
 10
66.0834
 20
-64.763
 30
0.0
 10
63.5495
 20
-62.6375
 30
0.0
 10
62.81
 20
-59.7081
 30
0.0
 10
62.81
 20
-59.7081
 30
0.0
 10
62.5621
 20
-59.6866
 30
0.0
 10
62.3137
 20
-59.6708
 30
0.0
 10
62.065
 20
-59.6605
 30
0.0
 10
62.065
 20
-59.6605
 30
0.0
 10
62.065
 20
-59.6605
 30
0.0
 10
62.065
 20
-74.0102
 30
0.0
 10
62.065
 20
-74.0102
 30
0.0
  0
SPLINE
  5
44
330
1F
100
AcDbEntity
  8
layer 1
 62
     7
370
     9
100
AcDbSpline
210
0.0
220
0.0
230
1.0
 70
    11
 71
     3
 72
    20
 73
    16
 74
     0
 42
0.0000000001
 43
0.0000000001
 12
1.0
 22
0.0
 32
0.0
 13
1.0
 23
0.0
 33
0.0
 40
0.0
 40
0.0
 40
0.0
 40
0.0
 40
0.2
 40
0.2
 40
0.2
 40
0.2
 40
0.4
 40
0.4
 40
0.4
 40
0.4
 40
0.6
 40
0.6
 40
0.6
 40
0.6
 40
1.0
 40
1.0
 40
1.0
 40
1.0
 10
65.4618
 20
-86.9112
 30
0.0
 10
67.78
 20
-87.363
 30
0.0
 10
70.0325
 20
-88.1037
 30
0.0
 10
72.1664
 20
-89.1161
 30
0.0
 10
72.1664
 20
-89.1161
 30
0.0
 10
72.1664
 20
-89.1161
 30
0.0
 10
62.065
 20
-89.1161
 30
0.0
 10
62.065
 20
-89.1161
 30
0.0
 10
62.065
 20
-89.1161
 30
0.0
 10
62.065
 20
-89.1161
 30
0.0
 10
62.065
 20
-88.867
 30
0.0
 10
62.065
 20
-88.867
 30
0.0
 10
62.065
 20
-88.867
 30
0.0
 10
62.6453
 20
-87.5402
 30
0.0
 10
64.023
 20
-86.747
 30
0.0
 10
65.4618
 20
-86.9112
 30
0.0
  0
SPLINE
  5
45
330
1F
100
AcDbEntity
  8
layer 1
 62
     7
370
     9
100
AcDbSpline
210
0.0
220
0.0
230
1.0
 70
    11
 71
     3
 72
    56
 73
    52
 74
     0
 42
0.0000000001
 43
0.0000000001
 12
1.0
 22
0.0
 32
0.0
 13
1.0
 23
0.0
 33
0.0
 40
0.0
 40
0.0
 40
0.0
 40
0.0
 40
0.0714285714285714
 40
0.0714285714285714
 40
0.0714285714285714
 40
0.0714285714285714
 40
0.1428571428571428
 40
0.1428571428571428
 40
0.1428571428571428
 40
0.1428571428571428
 40
0.2142857142857143
 40
0.2142857142857143
 40
0.2142857142857143
 40
0.2142857142857143
 40
0.2857142857142857
 40
0.2857142857142857
 40
0.2857142857142857
 40
0.2857142857142857
 40
0.3571428571428572
 40
0.3571428571428572
 40
0.3571428571428572
 40
0.3571428571428572
 40
0.4285714285714285
 40
0.4285714285714285
 40
0.4285714285714285
 40
0.4285714285714285
 40
0.5
 40
0.5
 40
0.5
 40
0.5
 40
0.5714285714285714
 40
0.5714285714285714
 40
0.5714285714285714
 40
0.5714285714285714
 40
0.6428571428571429
 40
0.6428571428571429
 40
0.6428571428571429
 40
0.6428571428571429
 40
0.7142857142857143
 40
0.7142857142857143
 40
0.7142857142857143
 40
0.7142857142857143
 40
0.7857142857142857
 40
0.7857142857142857
 40
0.7857142857142857
 40
0.7857142857142857
 40
0.8571428571428571
 40
0.8571428571428571
 40
0.8571428571428571
 40
0.8571428571428571
 40
1.0
 40
1.0
 40
1.0
 40
1.0
 10
74.4016
 20
-89.1161
 30
0.0
 10
78.2717
 20
-88.7068
 30
0.0
 10
81.6088
 20
-86.2151
 30
0.0
 10
83.1006
 20
-82.6207
 30
0.0
 10
83.1006
 20
-82.6207
 30
0.0
 10
83.4225
 20
-83.411
 30
0.0
 10
84.1265
 20
-83.9815
 30
0.0
 10
84.9664
 20
-84.1325
 30
0.0
 10
84.9664
 20
-84.1325
 30
0.0
 10
85.8062
 20
-84.2836
 30
0.0
 10
86.665
 20
-83.9942
 30
0.0
 10
87.242
 20
-83.3656
 30
0.0
 10
87.242
 20
-83.3656
 30
0.0
 10
85.4214
 20
-82.1645
 30
0.0
 10
84.4763
 20
-80.006
 30
0.0
 10
84.8287
 20
-77.8533
 30
0.0
 10
84.8287
 20
-77.8533
 30
0.0
 10
85.1864
 20
-74.4126
 30
0.0
 10
85.0258
 20
-70.9374
 30
0.0
 10
84.3519
 20
-67.5442
 30
0.0
 10
84.3519
 20
-67.5442
 30
0.0
 10
85.876
 20
-69.208
 30
0.0
 10
87.4054
 20
-70.8667
 30
0.0
 10
88.9405
 20
-72.52
 30
0.0
 10
88.9405
 20
-72.52
 30
0.0
 10
90.5515
 20
-74.7809
 30
0.0
 10
91.3401
 20
-77.5254
 30
0.0
 10
91.1751
 20
-80.2966
 30
0.0
 10
91.1751
 20
-80.2966
 30
0.0
 10
92.5274
 20
-79.7361
 30
0.0
 10
93.4805
 20
-78.4994
 30
0.0
 10
93.6778
 20
-77.0489
 30
0.0
 10
93.6778
 20
-77.0489
 30
0.0
 10
98.2572
 20
-79.1424
 30
0.0
 10
100.5889
 20
-84.294
 30
0.0
 10
99.1402
 20
-89.1161
 30
0.0
 10
99.1402
 20
-89.1161
 30
0.0
 10
99.1402
 20
-89.1161
 30
0.0
 10
94.0569
 20
-89.1161
 30
0.0
 10
94.0569
 20
-89.1161
 30
0.0
 10
94.0569
 20
-89.1161
 30
0.0
 10
94.3133
 20
-87.1703
 30
0.0
 10
93.873
 20
-85.1966
 30
0.0
 10
92.814
 20
-83.5443
 30
0.0
 10
92.814
 20
-83.5443
 30
0.0
 10
91.5023
 20
-86.1284
 30
0.0
 10
89.2602
 20
-88.1193
 30
0.0
 10
86.5392
 20
-89.1161
 30
0.0
 10
86.5392
 20
-89.1161
 30
0.0
 10
86.5392
 20
-89.1161
 30
0.0
 10
74.4016
 20
-89.1161
 30
0.0
 10
74.4016
 20
-89.1161
 30
0.0
  0
SPLINE
  5
46
330
1F
100
AcDbEntity
  8
layer 1
 62
     7
370
     9
100
AcDbSpline
210
0.0
220
0.0
230
1.0
 70
    11
 71
     3
 72
    68
 73
    64
 74
     0
 42
0.0000000001
 43
0.0000000001
 12
1.0
 22
0.0
 32
0.0
 13
1.0
 23
0.0
 33
0.0
 40
0.0
 40
0.0
 40
0.0
 40
0.0
 40
0.0588235294117647
 40
0.0588235294117647
 40
0.0588235294117647
 40
0.0588235294117647
 40
0.1176470588235294
 40
0.1176470588235294
 40
0.1176470588235294
 40
0.1176470588235294
 40
0.1764705882352941
 40
0.1764705882352941
 40
0.1764705882352941
 40
0.1764705882352941
 40
0.2352941176470588
 40
0.2352941176470588
 40
0.2352941176470588
 40
0.2352941176470588
 40
0.2941176470588235
 40
0.2941176470588235
 40
0.2941176470588235
 40
0.2941176470588235
 40
0.3529411764705883
 40
0.3529411764705883
 40
0.3529411764705883
 40
0.3529411764705883
 40
0.4117647058823529
 40
0.4117647058823529
 40
0.4117647058823529
 40
0.4117647058823529
 40
0.4705882352941176
 40
0.4705882352941176
 40
0.4705882352941176
 40
0.4705882352941176
 40
0.5294117647058824
 40
0.5294117647058824
 40
0.5294117647058824
 40
0.5294117647058824
 40
0.5882352941176471
 40
0.5882352941176471
 40
0.5882352941176471
 40
0.5882352941176471
 40
0.6470588235294118
 40
0.6470588235294118
 40
0.6470588235294118
 40
0.6470588235294118
 40
0.7058823529411765
 40
0.7058823529411765
 40
0.7058823529411765
 40
0.7058823529411765
 40
0.7647058823529411
 40
0.7647058823529411
 40
0.7647058823529411
 40
0.7647058823529411
 40
0.8235294117647058
 40
0.8235294117647058
 40
0.8235294117647058
 40
0.8235294117647058
 40
0.8823529411764706
 40
0.8823529411764706
 40
0.8823529411764706
 40
0.8823529411764706
 40
1.0
 40
1.0
 40
1.0
 40
1.0
 10
65.3226
 20
-0.1141
 30
0.0
 10
65.6127
 20
1.3859
 30
0.0
 10
65.7194
 20
2.9155
 30
0.0
 10
65.6405
 20
4.4414
 30
0.0
 10
65.6405
 20
4.4414
 30
0.0
 10
65.6212
 20
5.739
 30
0.0
 10
65.7209
 20
7.0354
 30
0.0
 10
65.9384
 20
8.3148
 30
0.0
 10
65.9384
 20
8.3148
 30
0.0
 10
66.5703
 20
10.8032
 30
0.0
 10
67.9921
 20
13.0196
 30
0.0
 10
69.9906
 20
14.6314
 30
0.0
 10
69.9906
 20
14.6314
 30
0.0
 10
73.1666
 20
17.0315
 30
0.0
 10
77.5089
 20
17.1747
 30
0.0
 10
80.836
 20
14.9889
 30
0.0
 10
80.836
 20
14.9889
 30
0.0
 10
82.1286
 20
14.3524
 30
0.0
 10
83.6761
 20
14.546
 30
0.0
 10
84.7721
 20
15.4812
 30
0.0
 10
84.7721
 20
15.4812
 30
0.0
 10
84.8502
 20
15.5408
 30
0.0
 10
84.9273
 20
15.6015
 30
0.0
 10
85.0036
 20
15.6629
 30
0.0
 10
85.0036
 20
15.6629
 30
0.0
 10
84.9967
 20
16.0143
 30
0.0
 10
84.9929
 20
16.3656
 30
0.0
 10
84.9924
 20
16.7171
 30
0.0
 10
84.9924
 20
16.7171
 30
0.0
 10
84.9929
 20
17.0683
 30
0.0
 10
84.9967
 20
17.4198
 30
0.0
 10
85.0036
 20
17.7712
 30
0.0
 10
85.0036
 20
17.7712
 30
0.0
 10
84.9273
 20
17.8326
 30
0.0
 10
84.8502
 20
17.8933
 30
0.0
 10
84.7721
 20
17.9529
 30
0.0
 10
84.7721
 20
17.9529
 30
0.0
 10
83.6761
 20
18.8881
 30
0.0
 10
82.1286
 20
19.0817
 30
0.0
 10
80.836
 20
18.4452
 30
0.0
 10
80.836
 20
18.4452
 30
0.0
 10
77.5089
 20
16.2594
 30
0.0
 10
73.1666
 20
16.4025
 30
0.0
 10
69.9906
 20
18.8027
 30
0.0
 10
69.9906
 20
18.8027
 30
0.0
 10
67.9921
 20
20.4145
 30
0.0
 10
66.5703
 20
22.6308
 30
0.0
 10
65.9384
 20
25.1193
 30
0.0
 10
65.9384
 20
25.1193
 30
0.0
 10
65.7209
 20
26.3987
 30
0.0
 10
65.6212
 20
27.6953
 30
0.0
 10
65.6405
 20
28.9927
 30
0.0
 10
65.6405
 20
28.9927
 30
0.0
 10
65.7194
 20
30.5184
 30
0.0
 10
65.6127
 20
32.0482
 30
0.0
 10
65.3226
 20
33.5483
 30
0.0
 10
65.3226
 20
33.5483
 30
0.0
 10
64.1698
 20
28.0124
 30
0.0
 10
63.5974
 20
22.3715
 30
0.0
 10
63.6144
 20
16.7171
 30
0.0
 10
63.6144
 20
16.7171
 30
0.0
 10
63.5974
 20
11.0624
 30
0.0
 10
64.1698
 20
5.4217
 30
0.0
 10
65.3226
 20
-0.1141
 30
0.0
  0
SPLINE
  5
47
330
1F
100
AcDbEntity
  8
layer 1
 62
     7
370
     9
100
AcDbSpline
210
0.0
220
0.0
230
1.0
 70
    11
 71
     3
 72
    84
 73
    80
 74
     0
 42
0.0000000001
 43
0.0000000001
 12
1.0
 22
0.0
 32
0.0
 13
1.0
 23
0.0
 33
0.0
 40
0.0
 40
0.0
 40
0.0
 40
0.0
 40
0.0476190476190476
 40
0.0476190476190476
 40
0.0476190476190476
 40
0.0476190476190476
 40
0.0952380952380952
 40
0.0952380952380952
 40
0.0952380952380952
 40
0.0952380952380952
 40
0.1428571428571428
 40
0.1428571428571428
 40
0.1428571428571428
 40
0.1428571428571428
 40
0.1904761904761905
 40
0.1904761904761905
 40
0.1904761904761905
 40
0.1904761904761905
 40
0.2380952380952381
 40
0.2380952380952381
 40
0.2380952380952381
 40
0.2380952380952381
 40
0.2857142857142857
 40
0.2857142857142857
 40
0.2857142857142857
 40
0.2857142857142857
 40
0.3333333333333333
 40
0.3333333333333333
 40
0.3333333333333333
 40
0.3333333333333333
 40
0.3809523809523809
 40
0.3809523809523809
 40
0.3809523809523809
 40
0.3809523809523809
 40
0.4285714285714285
 40
0.4285714285714285
 40
0.4285714285714285
 40
0.4285714285714285
 40
0.4761904761904762
 40
0.4761904761904762
 40
0.4761904761904762
 40
0.4761904761904762
 40
0.5238095238095238
 40
0.5238095238095238
 40
0.5238095238095238
 40
0.5238095238095238
 40
0.5714285714285714
 40
0.5714285714285714
 40
0.5714285714285714
 40
0.5714285714285714
 40
0.6190476190476191
 40
0.6190476190476191
 40
0.6190476190476191
 40
0.6190476190476191
 40
0.6666666666666666
 40
0.6666666666666666
 40
0.6666666666666666
 40
0.6666666666666666
 40
0.7142857142857143
 40
0.7142857142857143
 40
0.7142857142857143
 40
0.7142857142857143
 40
0.7619047619047619
 40
0.7619047619047619
 40
0.7619047619047619
 40
0.7619047619047619
 40
0.8095238095238095
 40
0.8095238095238095
 40
0.8095238095238095
 40
0.8095238095238095
 40
0.8571428571428571
 40
0.8571428571428571
 40
0.8571428571428571
 40
0.8571428571428571
 40
0.9047619047619048
 40
0.9047619047619048
 40
0.9047619047619048
 40
0.9047619047619048
 40
1.0
 40
1.0
 40
1.0
 40
1.0
 10
85.0961
 20
13.3628
 30
0.0
 10
85.035
 20
13.2819
 30
0.0
 10
84.9653
 20
13.2076
 30
0.0
 10
84.8884
 20
13.1416
 30
0.0
 10
84.8884
 20
13.1416
 30
0.0
 10
84.3113
 20
12.3762
 30
0.0
 10
83.6518
 20
11.6768
 30
0.0
 10
82.9217
 20
11.056
 30
0.0
 10
82.9217
 20
11.056
 30
0.0
 10
84.1491
 20
7.3355
 30
0.0
 10
83.9148
 20
3.2876
 30
0.0
 10
82.2662
 20
-0.2662
 30
0.0
 10
82.2662
 20
-0.2662
 30
0.0
 10
81.5807
 20
-1.5457
 30
0.0
 10
80.3824
 20
-2.4722
 30
0.0
 10
78.9716
 20
-2.8136
 30
0.0
 10
78.9716
 20
-2.8136
 30
0.0
 10
77.5609
 20
-3.1547
 30
0.0
 10
76.0716
 20
-2.8786
 30
0.0
 10
74.877
 20
-2.054
 30
0.0
 10
74.877
 20
-2.054
 30
0.0
 10
74.0919
 20
-1.3194
 30
0.0
 10
73.5073
 20
-0.3964
 30
0.0
 10
73.1787
 20
0.6275
 30
0.0
 10
73.1787
 20
0.6275
 30
0.0
 10
72.807
 20
1.1025
 30
0.0
 10
72.2396
 20
1.3825
 30
0.0
 10
71.6366
 20
1.3882
 30
0.0
 10
71.6366
 20
1.3882
 30
0.0
 10
71.0335
 20
1.394
 30
0.0
 10
70.4606
 20
1.1251
 30
0.0
 10
70.0801
 20
0.6574
 30
0.0
 10
70.0801
 20
0.6574
 30
0.0
 10
69.3823
 20
0.0114
 30
0.0
 10
68.9833
 20
-0.8946
 30
0.0
 10
68.9775
 20
-1.8454
 30
0.0
 10
68.9775
 20
-1.8454
 30
0.0
 10
69.6723
 20
-4.4486
 30
0.0
 10
71.7265
 20
-6.4683
 30
0.0
 10
74.3406
 20
-7.1192
 30
0.0
 10
74.3406
 20
-7.1192
 30
0.0
 10
73.9575
 20
-8.4047
 30
0.0
 10
72.8183
 20
-9.3183
 30
0.0
 10
71.4804
 20
-9.4135
 30
0.0
 10
71.4804
 20
-9.4135
 30
0.0
 10
71.7944
 20
-10.6112
 30
0.0
 10
72.0924
 20
-11.8129
 30
0.0
 10
72.3742
 20
-13.0187
 30
0.0
 10
72.3742
 20
-13.0187
 30
0.0
 10
73.2658
 20
-13.899
 30
0.0
 10
74.5781
 20
-14.2001
 30
0.0
 10
75.7642
 20
-13.7962
 30
0.0
 10
75.7642
 20
-13.7962
 30
0.0
 10
76.9504
 20
-13.3925
 30
0.0
 10
77.8065
 20
-12.3533
 30
0.0
 10
77.9758
 20
-11.1119
 30
0.0
 10
77.9758
 20
-11.1119
 30
0.0
 10
77.7713
 20
-8.1961
 30
0.0
 10
78.7855
 20
-5.3261
 30
0.0
 10
80.7766
 20
-3.1863
 30
0.0
 10
80.7766
 20
-3.1863
 30
0.0
 10
83.5856
 20
-1.3206
 30
0.0
 10
87.3592
 20
-1.9452
 30
0.0
 10
89.4171
 20
-4.6165
 30
0.0
 10
89.4171
 20
-4.6165
 30
0.0
 10
88.5393
 20
-2.7271
 30
0.0
 10
87.7245
 20
-0.8092
 30
0.0
 10
86.974
 20
1.1341
 30
0.0
 10
86.974
 20
1.1341
 30
0.0
 10
86.2862
 20
1.3836
 30
0.0
 10
85.5235
 20
1.3182
 30
0.0
 10
84.8884
 20
0.9552
 30
0.0
 10
84.8884
 20
0.9552
 30
0.0
 10
85.0991
 20
2.274
 30
0.0
 10
85.5646
 20
3.539
 30
0.0
 10
86.2589
 20
4.6797
 30
0.0
 10
86.2589
 20
4.6797
 30
0.0
 10
85.6901
 20
7.5469
 30
0.0
 10
85.3017
 20
10.4469
 30
0.0
 10
85.0961
 20
13.3628
 30
0.0
  0
SPLINE
  5
48
330
1F
100
AcDbEntity
  8
layer 1
 62
     7
370
     9
100
AcDbSpline
210
0.0
220
0.0
230
1.0
 70
    11
 71
     3
 72
    16
 73
    12
 74
     0
 42
0.0000000001
 43
0.0000000001
 12
1.0
 22
0.0
 32
0.0
 13
1.0
 23
0.0
 33
0.0
 40
0.0
 40
0.0
 40
0.0
 40
0.0
 40
0.25
 40
0.25
 40
0.25
 40
0.25
 40
0.5
 40
0.5
 40
0.5
 40
0.5
 40
1.0
 40
1.0
 40
1.0
 40
1.0
 10
91.6221
 20
-22.0169
 30
0.0
 10
93.4141
 20
-18.9384
 30
0.0
 10
93.9275
 20
-15.2798
 30
0.0
 10
93.0522
 20
-11.8268
 30
0.0
 10
93.0522
 20
-11.8268
 30
0.0
 10
95.1452
 20
-14.8507
 30
0.0
 10
97.5967
 20
-17.6097
 30
0.0
 10
100.3532
 20
-20.0441
 30
0.0
 10
100.3532
 20
-20.0441
 30
0.0
 10
97.3039
 20
-19.7035
 30
0.0
 10
94.2286
 20
-20.3983
 30
0.0
 10
91.6221
 20
-22.0169
 30
0.0
  0
SPLINE
  5
49
330
1F
100
AcDbEntity
  8
layer 1
 62
     7
370
     9
100
AcDbSpline
210
0.0
220
0.0
230
1.0
 70
    11
 71
     3
 72
    32
 73
    28
 74
     0
 42
0.0000000001
 43
0.0000000001
 12
1.0
 22
0.0
 32
0.0
 13
1.0
 23
0.0
 33
0.0
 40
0.0
 40
0.0
 40
0.0
 40
0.0
 40
0.125
 40
0.125
 40
0.125
 40
0.125
 40
0.25
 40
0.25
 40
0.25
 40
0.25
 40
0.375
 40
0.375
 40
0.375
 40
0.375
 40
0.5
 40
0.5
 40
0.5
 40
0.5
 40
0.625
 40
0.625
 40
0.625
 40
0.625
 40
0.75
 40
0.75
 40
0.75
 40
0.75
 40
1.0
 40
1.0
 40
1.0
 40
1.0
 10
68.7392
 20
0.9255
 30
0.0
 10
68.8207
 20
2.1066
 30
0.0
 10
69.4355
 20
3.1862
 30
0.0
 10
70.4097
 20
3.8589
 30
0.0
 10
70.4097
 20
3.8589
 30
0.0
 10
71.3839
 20
4.5315
 30
0.0
 10
72.6115
 20
4.7241
 30
0.0
 10
73.7448
 20
4.3818
 30
0.0
 10
73.7448
 20
4.3818
 30
0.0
 10
74.2643
 20
5.6729
 30
0.0
 10
75.4947
 20
6.5376
 30
0.0
 10
76.8854
 20
6.589
 30
0.0
 10
76.8854
 20
6.589
 30
0.0
 10
78.2762
 20
6.6405
 30
0.0
 10
79.567
 20
5.8693
 30
0.0
 10
80.1806
 20
4.6201
 30
0.0
 10
80.1806
 20
4.6201
 30
0.0
 10
81.2814
 20
7.3778
 30
0.0
 10
80.19
 20
10.5254
 30
0.0
 10
77.6182
 20
12.0094
 30
0.0
 10
77.6182
 20
12.0094
 30
0.0
 10
75.5814
 20
12.7237
 30
0.0
 10
73.319
 20
12.3166
 30
0.0
 10
71.6591
 20
10.9368
 30
0.0
 10
71.6591
 20
10.9368
 30
0.0
 10
68.9115
 20
8.3951
 30
0.0
 10
67.7888
 20
4.5458
 30
0.0
 10
68.7392
 20
0.9255
 30
0.0
  0
SPLINE
  5
4A
330
1F
100
AcDbEntity
  8
layer 1
 62
     7
370
     9
100
AcDbSpline
210
0.0
220
0.0
230
1.0
 70
    11
 71
     3
 72
    52
 73
    48
 74
     0
 42
0.0000000001
 43
0.0000000001
 12
1.0
 22
0.0
 32
0.0
 13
1.0
 23
0.0
 33
0.0
 40
0.0
 40
0.0
 40
0.0
 40
0.0
 40
0.0769230769230769
 40
0.0769230769230769
 40
0.0769230769230769
 40
0.0769230769230769
 40
0.1538461538461539
 40
0.1538461538461539
 40
0.1538461538461539
 40
0.1538461538461539
 40
0.2307692307692308
 40
0.2307692307692308
 40
0.2307692307692308
 40
0.2307692307692308
 40
0.3076923076923077
 40
0.3076923076923077
 40
0.3076923076923077
 40
0.3076923076923077
 40
0.3846153846153846
 40
0.3846153846153846
 40
0.3846153846153846
 40
0.3846153846153846
 40
0.4615384615384616
 40
0.4615384615384616
 40
0.4615384615384616
 40
0.4615384615384616
 40
0.5384615384615384
 40
0.5384615384615384
 40
0.5384615384615384
 40
0.5384615384615384
 40
0.6153846153846154
 40
0.6153846153846154
 40
0.6153846153846154
 40
0.6153846153846154
 40
0.6923076923076923
 40
0.6923076923076923
 40
0.6923076923076923
 40
0.6923076923076923
 40
0.7692307692307693
 40
0.7692307692307693
 40
0.7692307692307693
 40
0.7692307692307693
 40
0.8461538461538461
 40
0.8461538461538461
 40
0.8461538461538461
 40
0.8461538461538461
 40
1.0
 40
1.0
 40
1.0
 40
1.0
 10
73.2682
 20
-15.5216
 30
0.0
 10
74.081
 20
-16.3865
 30
0.0
 10
75.2356
 20
-16.8462
 30
0.0
 10
76.4206
 20
-16.7772
 30
0.0
 10
76.4206
 20
-16.7772
 30
0.0
 10
77.6055
 20
-16.7082
 30
0.0
 10
78.6988
 20
-16.1174
 30
0.0
 10
79.406
 20
-15.164
 30
0.0
 10
79.406
 20
-15.164
 30
0.0
 10
80.4012
 20
-16.4649
 30
0.0
 10
82.115
 20
-16.9865
 30
0.0
 10
83.666
 20
-16.4604
 30
0.0
 10
83.666
 20
-16.4604
 30
0.0
 10
85.2173
 20
-15.9344
 30
0.0
 10
86.2604
 20
-14.4778
 30
0.0
 10
86.2589
 20
-12.8399
 30
0.0
 10
86.2589
 20
-12.8399
 30
0.0
 10
86.3486
 20
-10.7273
 30
0.0
 10
84.9219
 20
-8.85
 30
0.0
 10
82.8621
 20
-8.3707
 30
0.0
 10
82.8621
 20
-8.3707
 30
0.0
 10
83.525
 20
-7.1585
 30
0.0
 10
85.0405
 20
-6.7067
 30
0.0
 10
86.2589
 20
-7.3577
 30
0.0
 10
86.2589
 20
-7.3577
 30
0.0
 10
88.6691
 20
-9.0947
 30
0.0
 10
90.0521
 20
-11.9213
 30
0.0
 10
89.9443
 20
-14.8904
 30
0.0
 10
89.9443
 20
-14.8904
 30
0.0
 10
89.8366
 20
-17.8593
 30
0.0
 10
88.2523
 20
-20.5783
 30
0.0
 10
85.7225
 20
-22.1362
 30
0.0
 10
85.7225
 20
-22.1362
 30
0.0
 10
85.4796
 20
-21.1582
 30
0.0
 10
84.6873
 20
-20.4124
 30
0.0
 10
83.6965
 20
-20.2292
 30
0.0
 10
83.6965
 20
-20.2292
 30
0.0
 10
83.1746
 20
-21.3152
 30
0.0
 10
82.2248
 20
-22.1354
 30
0.0
 10
81.0745
 20
-22.4936
 30
0.0
 10
81.0745
 20
-22.4936
 30
0.0
 10
80.0103
 20
-22.4644
 30
0.0
 10
78.9847
 20
-22.0876
 30
0.0
 10
78.1545
 20
-21.421
 30
0.0
 10
78.1545
 20
-21.421
 30
0.0
 10
76.0909
 20
-19.8593
 30
0.0
 10
74.4183
 20
-17.8398
 30
0.0
 10
73.2682
 20
-15.5216
 30
0.0
  0
SPLINE
  5
4B
330
1F
100
AcDbEntity
  8
layer 1
 62
     7
370
     9
100
AcDbSpline
210
0.0
220
0.0
230
1.0
 70
    11
 71
     3
 72
    20
 73
    16
 74
     0
 42
0.0000000001
 43
0.0000000001
 12
1.0
 22
0.0
 32
0.0
 13
1.0
 23
0.0
 33
0.0
 40
0.0
 40
0.0
 40
0.0
 40
0.0
 40
0.2
 40
0.2
 40
0.2
 40
0.2
 40
0.4
 40
0.4
 40
0.4
 40
0.4
 40
0.6
 40
0.6
 40
0.6
 40
0.6
 40
1.0
 40
1.0
 40
1.0
 40
1.0
 10
82.2662
 20
-33.3392
 30
0.0
 10
82.8776
 20
-31.2091
 30
0.0
 10
82.5754
 20
-28.9208
 30
0.0
 10
81.432
 20
-27.0225
 30
0.0
 10
81.432
 20
-27.0225
 30
0.0
 10
83.9929
 20
-27.552
 30
0.0
 10
86.6581
 20
-26.9671
 30
0.0
 10
88.7616
 20
-25.4136
 30
0.0
 10
88.7616
 20
-25.4136
 30
0.0
 10
87.4865
 20
-27.9988
 30
0.0
 10
86.9504
 20
-30.8858
 30
0.0
 10
87.2123
 20
-33.7562
 30
0.0
 10
87.2123
 20
-33.7562
 30
0.0
 10
85.7552
 20
-32.7472
 30
0.0
 10
83.8717
 20
-32.5883
 30
0.0
 10
82.2662
 20
-33.3392
 30
0.0
  0
SPLINE
  5
4C
330
1F
100
AcDbEntity
  8
layer 1
 62
     7
370
     9
100
AcDbSpline
210
0.0
220
0.0
230
1.0
 70
    11
 71
     3
 72
    16
 73
    12
 74
     0
 42
0.0000000001
 43
0.0000000001
 12
1.0
 22
0.0
 32
0.0
 13
1.0
 23
0.0
 33
0.0
 40
0.0
 40
0.0
 40
0.0
 40
0.0
 40
0.25
 40
0.25
 40
0.25
 40
0.25
 40
0.5
 40
0.5
 40
0.5
 40
0.5
 40
1.0
 40
1.0
 40
1.0
 40
1.0
 10
94.4825
 20
-45.8532
 30
0.0
 10
91.7558
 20
-42.575
 30
0.0
 10
88.9136
 20
-39.3948
 30
0.0
 10
85.961
 20
-36.3187
 30
0.0
 10
85.961
 20
-36.3187
 30
0.0
 10
84.8236
 20
-35.5519
 30
0.0
 10
83.4509
 20
-35.214
 30
0.0
 10
82.0875
 20
-35.3653
 30
0.0
 10
82.0875
 20
-35.3653
 30
0.0
 10
85.8294
 20
-39.2974
 30
0.0
 10
89.9852
 20
-42.8138
 30
0.0
 10
94.4825
 20
-45.8532
 30
0.0
  0
SPLINE
  5
4D
330
1F
100
AcDbEntity
  8
layer 1
 62
     7
370
     9
100
AcDbSpline
210
0.0
220
0.0
230
1.0
 70
    11
 71
     3
 72
    16
 73
    12
 74
     0
 42
0.0000000001
 43
0.0000000001
 12
1.0
 22
0.0
 32
0.0
 13
1.0
 23
0.0
 33
0.0
 40
0.0
 40
0.0
 40
0.0
 40
0.0
 40
0.25
 40
0.25
 40
0.25
 40
0.25
 40
0.5
 40
0.5
 40
0.5
 40
0.5
 40
1.0
 40
1.0
 40
1.0
 40
1.0
 10
72.1131
 20
-19.363
 30
0.0
 10
74.9261
 20
-22.5674
 30
0.0
 10
77.624
 20
-25.8709
 30
0.0
 10
80.202
 20
-29.2672
 30
0.0
 10
80.202
 20
-29.2672
 30
0.0
 10
80.782
 20
-30.5102
 30
0.0
 10
80.9016
 20
-31.9189
 30
0.0
 10
80.5396
 20
-33.2419
 30
0.0
 10
80.5396
 20
-33.2419
 30
0.0
 10
77.2392
 20
-28.9325
 30
0.0
 10
74.414
 20
-24.2792
 30
0.0
 10
72.1131
 20
-19.363
 30
0.0
  0
SPLINE
  5
4E
330
1F
100
AcDbEntity
  8
layer 1
 62
     7
370
     9
100
AcDbSpline
210
0.0
220
0.0
230
1.0
 70
    11
 71
     3
 72
    44
 73
    40
 74
     0
 42
0.0000000001
 43
0.0000000001
 12
1.0
 22
0.0
 32
0.0
 13
1.0
 23
0.0
 33
0.0
 40
0.0
 40
0.0
 40
0.0
 40
0.0
 40
0.0909090909090909
 40
0.0909090909090909
 40
0.0909090909090909
 40
0.0909090909090909
 40
0.1818181818181818
 40
0.1818181818181818
 40
0.1818181818181818
 40
0.1818181818181818
 40
0.2727272727272727
 40
0.2727272727272727
 40
0.2727272727272727
 40
0.2727272727272727
 40
0.3636363636363636
 40
0.3636363636363636
 40
0.3636363636363636
 40
0.3636363636363636
 40
0.4545454545454545
 40
0.4545454545454545
 40
0.4545454545454545
 40
0.4545454545454545
 40
0.5454545454545454
 40
0.5454545454545454
 40
0.5454545454545454
 40
0.5454545454545454
 40
0.6363636363636364
 40
0.6363636363636364
 40
0.6363636363636364
 40
0.6363636363636364
 40
0.7272727272727273
 40
0.7272727272727273
 40
0.7272727272727273
 40
0.7272727272727273
 40
0.8181818181818182
 40
0.8181818181818182
 40
0.8181818181818182
 40
0.8181818181818182
 40
1.0
 40
1.0
 40
1.0
 40
1.0
 10
97.1341
 20
-43.4993
 30
0.0
 10
95.6027
 20
-41.4503
 30
0.0
 10
95.7662
 20
-38.5967
 30
0.0
 10
97.5216
 20
-36.7357
 30
0.0
 10
97.5216
 20
-36.7357
 30
0.0
 10
95.909
 20
-34.9197
 30
0.0
 10
95.656
 20
-32.2692
 30
0.0
 10
96.8958
 20
-30.1809
 30
0.0
 10
96.8958
 20
-30.1809
 30
0.0
 10
97.9465
 20
-28.7617
 30
0.0
 10
99.8437
 20
-28.2658
 30
0.0
 10
101.4544
 20
-28.989
 30
0.0
 10
101.4544
 20
-28.989
 30
0.0
 10
102.6594
 20
-29.736
 30
0.0
 10
103.2946
 20
-31.1359
 30
0.0
 10
103.0634
 20
-32.5348
 30
0.0
 10
103.0634
 20
-32.5348
 30
0.0
 10
104.4383
 20
-31.0552
 30
0.0
 10
104.5391
 20
-28.7976
 30
0.0
 10
103.3018
 20
-27.2012
 30
0.0
 10
103.3018
 20
-27.2012
 30
0.0
 10
102.2604
 20
-25.3416
 30
0.0
 10
100.3356
 20
-24.1484
 30
0.0
 10
98.2068
 20
-24.043
 30
0.0
 10
98.2068
 20
-24.043
 30
0.0
 10
94.9931
 20
-23.9968
 30
0.0
 10
92.2242
 20
-26.2977
 30
0.0
 10
91.6817
 20
-29.4658
 30
0.0
 10
91.6817
 20
-29.4658
 30
0.0
 10
92.5208
 20
-29.8702
 30
0.0
 10
93.1411
 20
-30.6214
 30
0.0
 10
93.3799
 20
-31.5217
 30
0.0
 10
93.3799
 20
-31.5217
 30
0.0
 10
92.2884
 20
-32.0094
 30
0.0
 10
91.5629
 20
-33.0687
 30
0.0
 10
91.5028
 20
-34.2628
 30
0.0
 10
91.5028
 20
-34.2628
 30
0.0
 10
91.5707
 20
-38.1337
 30
0.0
 10
93.7243
 20
-41.6661
 30
0.0
 10
97.1341
 20
-43.4993
 30
0.0
  0
SPLINE
  5
4F
330
1F
100
AcDbEntity
  8
layer 1
 62
     7
370
     9
100
AcDbSpline
210
0.0
220
0.0
230
1.0
 70
    11
 71
     3
 72
    32
 73
    28
 74
     0
 42
0.0000000001
 43
0.0000000001
 12
1.0
 22
0.0
 32
0.0
 13
1.0
 23
0.0
 33
0.0
 40
0.0
 40
0.0
 40
0.0
 40
0.0
 40
0.125
 40
0.125
 40
0.125
 40
0.125
 40
0.25
 40
0.25
 40
0.25
 40
0.25
 40
0.375
 40
0.375
 40
0.375
 40
0.375
 40
0.5
 40
0.5
 40
0.5
 40
0.5
 40
0.625
 40
0.625
 40
0.625
 40
0.625
 40
0.75
 40
0.75
 40
0.75
 40
0.75
 40
1.0
 40
1.0
 40
1.0
 40
1.0
 10
71.9572
 20
-70.6429
 30
0.0
 10
70.4525
 20
-71.5104
 30
0.0
 10
69.5504
 20
-73.1385
 30
0.0
 10
69.6129
 20
-74.8742
 30
0.0
 10
69.6129
 20
-74.8742
 30
0.0
 10
69.6753
 20
-76.61
 30
0.0
 10
70.692
 20
-78.169
 30
0.0
 10
72.2551
 20
-78.926
 30
0.0
 10
72.2551
 20
-78.926
 30
0.0
 10
71.9289
 20
-80.8329
 30
0.0
 10
72.9
 20
-82.7262
 30
0.0
 10
74.6388
 20
-83.5741
 30
0.0
 10
74.6388
 20
-83.5741
 30
0.0
 10
72.5879
 20
-83.7527
 30
0.0
 10
70.5534
 20
-83.0823
 30
0.0
 10
69.0105
 20
-81.7196
 30
0.0
 10
69.0105
 20
-81.7196
 30
0.0
 10
67.4675
 20
-80.3569
 30
0.0
 10
66.551
 20
-78.4208
 30
0.0
 10
66.4748
 20
-76.3637
 30
0.0
 10
66.4748
 20
-76.3637
 30
0.0
 10
66.314
 20
-74.845
 30
0.0
 10
66.8307
 20
-73.3327
 30
0.0
 10
67.8874
 20
-72.2301
 30
0.0
 10
67.8874
 20
-72.2301
 30
0.0
 10
68.944
 20
-71.1276
 30
0.0
 10
70.433
 20
-70.5469
 30
0.0
 10
71.9572
 20
-70.6429
 30
0.0
  0
SPLINE
  5
50
330
1F
100
AcDbEntity
  8
layer 1
 62
     7
370
     9
100
AcDbSpline
210
0.0
220
0.0
230
1.0
 70
    11
 71
     3
 72
    40
 73
    36
 74
     0
 42
0.0000000001
 43
0.0000000001
 12
1.0
 22
0.0
 32
0.0
 13
1.0
 23
0.0
 33
0.0
 40
0.0
 40
0.0
 40
0.0
 40
0.0
 40
0.1
 40
0.1
 40
0.1
 40
0.1
 40
0.2
 40
0.2
 40
0.2
 40
0.2
 40
0.3
 40
0.3
 40
0.3
 40
0.3
 40
0.4
 40
0.4
 40
0.4
 40
0.4
 40
0.5
 40
0.5
 40
0.5
 40
0.5
 40
0.6
 40
0.6
 40
0.6
 40
0.6
 40
0.7
 40
0.7
 40
0.7
 40
0.7
 40
0.8
 40
0.8
 40
0.8
 40
0.8
 40
1.0
 40
1.0
 40
1.0
 40
1.0
 10
76.486
 20
-82.8591
 30
0.0
 10
75.7867
 20
-82.7759
 30
0.0
 10
75.1676
 20
-82.3677
 30
0.0
 10
74.8156
 20
-81.7577
 30
0.0
 10
74.8156
 20
-81.7577
 30
0.0
 10
74.4637
 20
-81.1476
 30
0.0
 10
74.4202
 20
-80.4073
 30
0.0
 10
74.6984
 20
-79.7604
 30
0.0
 10
74.6984
 20
-79.7604
 30
0.0
 10
75.0437
 20
-78.998
 30
0.0
 10
75.6918
 20
-78.4149
 30
0.0
 10
76.486
 20
-78.1513
 30
0.0
 10
76.486
 20
-78.1513
 30
0.0
 10
78.5603
 20
-75.9084
 30
0.0
 10
79.1768
 20
-72.6802
 30
0.0
 10
78.0749
 20
-69.8307
 30
0.0
 10
78.0749
 20
-69.8307
 30
0.0
 10
76.9732
 20
-66.9812
 30
0.0
 10
74.3453
 20
-65.0076
 30
0.0
 10
71.3015
 20
-64.7435
 30
0.0
 10
71.3015
 20
-64.7435
 30
0.0
 10
74.2645
 20
-62.7894
 30
0.0
 10
75.9666
 20
-59.4083
 30
0.0
 10
75.771
 20
-55.8643
 30
0.0
 10
75.771
 20
-55.8643
 30
0.0
 10
77.9911
 20
-58.3153
 30
0.0
 10
78.3079
 20
-61.945
 30
0.0
 10
76.5456
 20
-64.7435
 30
0.0
 10
76.5456
 20
-64.7435
 30
0.0
 10
77.6361
 20
-65.125
 30
0.0
 10
78.8405
 20
-64.9936
 30
0.0
 10
79.8232
 20
-64.386
 30
0.0
 10
79.8232
 20
-64.386
 30
0.0
 10
83.4097
 20
-70.5254
 30
0.0
 10
81.9942
 20
-78.3624
 30
0.0
 10
76.486
 20
-82.8591
 30
0.0
  0
SPLINE
  5
51
330
1F
100
AcDbEntity
  8
layer 1
 62
     7
370
     9
100
AcDbSpline
210
0.0
220
0.0
230
1.0
 70
    11
 71
     3
 72
    32
 73
    28
 74
     0
 42
0.0000000001
 43
0.0000000001
 12
1.0
 22
0.0
 32
0.0
 13
1.0
 23
0.0
 33
0.0
 40
0.0
 40
0.0
 40
0.0
 40
0.0
 40
0.125
 40
0.125
 40
0.125
 40
0.125
 40
0.25
 40
0.25
 40
0.25
 40
0.25
 40
0.375
 40
0.375
 40
0.375
 40
0.375
 40
0.5
 40
0.5
 40
0.5
 40
0.5
 40
0.625
 40
0.625
 40
0.625
 40
0.625
 40
0.75
 40
0.75
 40
0.75
 40
0.75
 40
1.0
 40
1.0
 40
1.0
 40
1.0
 10
73.8939
 20
-36.9146
 30
0.0
 10
73.8904
 20
-34.7263
 30
0.0
 10
73.5659
 20
-32.5503
 30
0.0
 10
72.9306
 20
-30.4563
 30
0.0
 10
72.9306
 20
-30.4563
 30
0.0
 10
68.1984
 20
-23.6731
 30
0.0
 10
64.534
 20
-16.2047
 30
0.0
 10
62.065
 20
-8.3111
 30
0.0
 10
62.065
 20
-8.3111
 30
0.0
 10
64.0334
 20
-18.4173
 30
0.0
 10
67.2758
 20
-28.2333
 30
0.0
 10
71.7144
 20
-37.5237
 30
0.0
 10
71.7144
 20
-37.5237
 30
0.0
 10
73.1395
 20
-39.0625
 30
0.0
 10
74.8785
 20
-40.2774
 30
0.0
 10
76.8138
 20
-41.086
 30
0.0
 10
76.8138
 20
-41.086
 30
0.0
 10
78.2414
 20
-41.6526
 30
0.0
 10
79.8691
 20
-41.3177
 30
0.0
 10
80.9571
 20
-40.2336
 30
0.0
 10
80.9571
 20
-40.2336
 30
0.0
 10
79.4203
 20
-38.6455
 30
0.0
 10
77.9546
 20
-36.99
 30
0.0
 10
76.5646
 20
-35.2721
 30
0.0
 10
76.5646
 20
-35.2721
 30
0.0
 10
75.867
 20
-36.0844
 30
0.0
 10
74.9334
 20
-36.6585
 30
0.0
 10
73.8939
 20
-36.9146
 30
0.0
  0
SPLINE
  5
52
330
1F
100
AcDbEntity
  8
layer 1
 62
     7
370
     9
100
AcDbSpline
210
0.0
220
0.0
230
1.0
 70
    11
 71
     3
 72
    52
 73
    48
 74
     0
 42
0.0000000001
 43
0.0000000001
 12
1.0
 22
0.0
 32
0.0
 13
1.0
 23
0.0
 33
0.0
 40
0.0
 40
0.0
 40
0.0
 40
0.0
 40
0.0769230769230769
 40
0.0769230769230769
 40
0.0769230769230769
 40
0.0769230769230769
 40
0.1538461538461539
 40
0.1538461538461539
 40
0.1538461538461539
 40
0.1538461538461539
 40
0.2307692307692308
 40
0.2307692307692308
 40
0.2307692307692308
 40
0.2307692307692308
 40
0.3076923076923077
 40
0.3076923076923077
 40
0.3076923076923077
 40
0.3076923076923077
 40
0.3846153846153846
 40
0.3846153846153846
 40
0.3846153846153846
 40
0.3846153846153846
 40
0.4615384615384616
 40
0.4615384615384616
 40
0.4615384615384616
 40
0.4615384615384616
 40
0.5384615384615384
 40
0.5384615384615384
 40
0.5384615384615384
 40
0.5384615384615384
 40
0.6153846153846154
 40
0.6153846153846154
 40
0.6153846153846154
 40
0.6153846153846154
 40
0.6923076923076923
 40
0.6923076923076923
 40
0.6923076923076923
 40
0.6923076923076923
 40
0.7692307692307693
 40
0.7692307692307693
 40
0.7692307692307693
 40
0.7692307692307693
 40
0.8461538461538461
 40
0.8461538461538461
 40
0.8461538461538461
 40
0.8461538461538461
 40
1.0
 40
1.0
 40
1.0
 40
1.0
 10
81.4908
 20
-40.7837
 30
0.0
 10
80.5432
 20
-43.3041
 30
0.0
 10
77.977
 20
-44.8329
 30
0.0
 10
75.3094
 20
-44.4659
 30
0.0
 10
75.3094
 20
-44.4659
 30
0.0
 10
75.9269
 20
-45.5407
 30
0.0
 10
76.5486
 20
-46.6132
 30
0.0
 10
77.1738
 20
-47.6836
 30
0.0
 10
77.1738
 20
-47.6836
 30
0.0
 10
78.1593
 20
-49.3258
 30
0.0
 10
79.1834
 20
-50.9446
 30
0.0
 10
80.2451
 20
-52.5387
 30
0.0
 10
80.2451
 20
-52.5387
 30
0.0
 10
81.2677
 20
-53.4464
 30
0.0
 10
82.362
 20
-54.2696
 30
0.0
 10
83.5178
 20
-55.0005
 30
0.0
 10
83.5178
 20
-55.0005
 30
0.0
 10
85.1888
 20
-55.9091
 30
0.0
 10
87.2539
 20
-55.645
 30
0.0
 10
88.6425
 20
-54.345
 30
0.0
 10
88.6425
 20
-54.345
 30
0.0
 10
90.1377
 20
-52.72
 30
0.0
 10
92.3916
 20
-52.0256
 30
0.0
 10
94.5419
 20
-52.5275
 30
0.0
 10
94.5419
 20
-52.5275
 30
0.0
 10
94.7244
 20
-52.322
 30
0.0
 10
94.899
 20
-52.1101
 30
0.0
 10
95.0656
 20
-51.8918
 30
0.0
 10
95.0656
 20
-51.8918
 30
0.0
 10
94.9505
 20
-51.8259
 30
0.0
 10
94.8355
 20
-51.7597
 30
0.0
 10
94.7208
 20
-51.6931
 30
0.0
 10
94.7208
 20
-51.6931
 30
0.0
 10
92.4975
 20
-50.2256
 30
0.0
 10
90.348
 20
-48.6492
 30
0.0
 10
88.2802
 20
-46.9698
 30
0.0
 10
88.2802
 20
-46.9698
 30
0.0
 10
87.3864
 20
-48.5564
 30
0.0
 10
85.7255
 20
-49.5577
 30
0.0
 10
83.905
 20
-49.6074
 30
0.0
 10
83.905
 20
-49.6074
 30
0.0
 10
84.3756
 20
-46.8342
 30
0.0
 10
83.8064
 20
-43.9849
 30
0.0
 10
82.307
 20
-41.6051
 30
0.0
 10
82.307
 20
-41.6051
 30
0.0
 10
82.0331
 20
-41.3332
 30
0.0
 10
81.7609
 20
-41.0594
 30
0.0
 10
81.4908
 20
-40.7837
 30
0.0
  0
SPLINE
  5
53
330
1F
100
AcDbEntity
  8
layer 1
 62
     7
370
     9
100
AcDbSpline
210
0.0
220
0.0
230
1.0
 70
    11
 71
     3
 72
    88
 73
    84
 74
     0
 42
0.0000000001
 43
0.0000000001
 12
1.0
 22
0.0
 32
0.0
 13
1.0
 23
0.0
 33
0.0
 40
0.0
 40
0.0
 40
0.0
 40
0.0
 40
0.0454545454545455
 40
0.0454545454545455
 40
0.0454545454545455
 40
0.0454545454545455
 40
0.0909090909090909
 40
0.0909090909090909
 40
0.0909090909090909
 40
0.0909090909090909
 40
0.1363636363636364
 40
0.1363636363636364
 40
0.1363636363636364
 40
0.1363636363636364
 40
0.1818181818181818
 40
0.1818181818181818
 40
0.1818181818181818
 40
0.1818181818181818
 40
0.2272727272727273
 40
0.2272727272727273
 40
0.2272727272727273
 40
0.2272727272727273
 40
0.2727272727272727
 40
0.2727272727272727
 40
0.2727272727272727
 40
0.2727272727272727
 40
0.3181818181818182
 40
0.3181818181818182
 40
0.3181818181818182
 40
0.3181818181818182
 40
0.3636363636363636
 40
0.3636363636363636
 40
0.3636363636363636
 40
0.3636363636363636
 40
0.4090909090909091
 40
0.4090909090909091
 40
0.4090909090909091
 40
0.4090909090909091
 40
0.4545454545454545
 40
0.4545454545454545
 40
0.4545454545454545
 40
0.4545454545454545
 40
0.5
 40
0.5
 40
0.5
 40
0.5
 40
0.5454545454545454
 40
0.5454545454545454
 40
0.5454545454545454
 40
0.5454545454545454
 40
0.5909090909090909
 40
0.5909090909090909
 40
0.5909090909090909
 40
0.5909090909090909
 40
0.6363636363636364
 40
0.6363636363636364
 40
0.6363636363636364
 40
0.6363636363636364
 40
0.6818181818181818
 40
0.6818181818181818
 40
0.6818181818181818
 40
0.6818181818181818
 40
0.7272727272727273
 40
0.7272727272727273
 40
0.7272727272727273
 40
0.7272727272727273
 40
0.7727272727272727
 40
0.7727272727272727
 40
0.7727272727272727
 40
0.7727272727272727
 40
0.8181818181818182
 40
0.8181818181818182
 40
0.8181818181818182
 40
0.8181818181818182
 40
0.8636363636363636
 40
0.8636363636363636
 40
0.8636363636363636
 40
0.8636363636363636
 40
0.9090909090909091
 40
0.9090909090909091
 40
0.9090909090909091
 40
0.9090909090909091
 40
1.0
 40
1.0
 40
1.0
 40
1.0
 10
98.5346
 20
-62.0023
 30
0.0
 10
99.3643
 20
-59.3911
 30
0.0
 10
98.7775
 20
-56.5363
 30
0.0
 10
96.9852
 20
-54.464
 30
0.0
 10
96.9852
 20
-54.464
 30
0.0
 10
97.0119
 20
-54.0034
 30
0.0
 10
97.1521
 20
-53.5567
 30
0.0
 10
97.3934
 20
-53.1635
 30
0.0
 10
97.3934
 20
-53.1635
 30
0.0
 10
99.3134
 20
-54.1453
 30
0.0
 10
101.2728
 20
-55.0482
 30
0.0
 10
103.2665
 20
-55.8703
 30
0.0
 10
103.2665
 20
-55.8703
 30
0.0
 10
102.6196
 20
-58.1368
 30
0.0
 10
102.9339
 20
-60.5696
 30
0.0
 10
104.1354
 20
-62.5975
 30
0.0
 10
104.1354
 20
-62.5975
 30
0.0
 10
105.3368
 20
-64.6253
 30
0.0
 10
107.3198
 20
-66.0695
 30
0.0
 10
109.6184
 20
-66.5907
 30
0.0
 10
109.6184
 20
-66.5907
 30
0.0
 10
109.4541
 20
-67.6642
 30
0.0
 10
109.5148
 20
-68.76
 30
0.0
 10
109.7972
 20
-69.8087
 30
0.0
 10
109.7972
 20
-69.8087
 30
0.0
 10
109.9431
 20
-70.8495
 30
0.0
 10
110.5417
 20
-71.7727
 30
0.0
 10
111.4327
 20
-72.3302
 30
0.0
 10
111.4327
 20
-72.3302
 30
0.0
 10
112.3235
 20
-72.8878
 30
0.0
 10
113.4157
 20
-73.0227
 30
0.0
 10
114.4155
 20
-72.6988
 30
0.0
 10
114.4155
 20
-72.6988
 30
0.0
 10
115.8314
 20
-72.1771
 30
0.0
 10
116.8087
 20
-70.8724
 30
0.0
 10
116.9116
 20
-69.3671
 30
0.0
 10
116.9116
 20
-69.3671
 30
0.0
 10
117.0145
 20
-67.8617
 30
0.0
 10
116.2237
 20
-66.4363
 30
0.0
 10
114.8922
 20
-65.7267
 30
0.0
 10
114.8922
 20
-65.7267
 30
0.0
 10
115.6616
 20
-64.7812
 30
0.0
 10
117.0122
 20
-64.552
 30
0.0
 10
118.0505
 20
-65.1904
 30
0.0
 10
118.0505
 20
-65.1904
 30
0.0
 10
119.7538
 20
-66.8495
 30
0.0
 10
120.4263
 20
-69.3003
 30
0.0
 10
119.8085
 20
-71.5965
 30
0.0
 10
119.8085
 20
-71.5965
 30
0.0
 10
118.8018
 20
-74.0831
 30
0.0
 10
116.7656
 20
-76.0108
 30
0.0
 10
114.2274
 20
-76.8798
 30
0.0
 10
114.2274
 20
-76.8798
 30
0.0
 10
111.6892
 20
-77.7487
 30
0.0
 10
108.8988
 20
-77.4735
 30
0.0
 10
106.5793
 20
-76.1252
 30
0.0
 10
106.5793
 20
-76.1252
 30
0.0
 10
106.9918
 20
-74.6489
 30
0.0
 10
106.7875
 20
-73.0684
 30
0.0
 10
106.0131
 20
-71.7454
 30
0.0
 10
106.0131
 20
-71.7454
 30
0.0
 10
104.3674
 20
-73.595
 30
0.0
 10
101.7678
 20
-74.2678
 30
0.0
 10
99.4314
 20
-73.4486
 30
0.0
 10
99.4314
 20
-73.4486
 30
0.0
 10
97.1508
 20
-71.6643
 30
0.0
 10
94.9609
 20
-69.7669
 30
0.0
 10
92.8701
 20
-67.7636
 30
0.0
 10
92.8701
 20
-67.7636
 30
0.0
 10
92.8706
 20
-67.7603
 30
0.0
 10
92.8713
 20
-67.7569
 30
0.0
 10
92.8719
 20
-67.7536
 30
0.0
 10
92.8719
 20
-67.7536
 30
0.0
 10
93.7388
 20
-67.6317
 30
0.0
 10
94.5436
 20
-67.2345
 30
0.0
 10
95.1676
 20
-66.6206
 30
0.0
 10
95.1676
 20
-66.6206
 30
0.0
 10
96.8674
 20
-65.4299
 30
0.0
 10
99.1488
 20
-65.5027
 30
0.0
 10
100.7693
 20
-66.7993
 30
0.0
 10
100.7693
 20
-66.7993
 30
0.0
 10
101.3623
 20
-64.8641
 30
0.0
 10
100.3978
 20
-62.7934
 30
0.0
 10
98.5346
 20
-62.0023
 30
0.0
  0
SPLINE
  5
54
330
1F
100
AcDbEntity
  8
layer 1
 62
     7
370
     9
100
AcDbSpline
210
0.0
220
0.0
230
1.0
 70
    11
 71
     3
 72
    44
 73
    40
 74
     0
 42
0.0000000001
 43
0.0000000001
 12
1.0
 22
0.0
 32
0.0
 13
1.0
 23
0.0
 33
0.0
 40
0.0
 40
0.0
 40
0.0
 40
0.0
 40
0.0909090909090909
 40
0.0909090909090909
 40
0.0909090909090909
 40
0.0909090909090909
 40
0.1818181818181818
 40
0.1818181818181818
 40
0.1818181818181818
 40
0.1818181818181818
 40
0.2727272727272727
 40
0.2727272727272727
 40
0.2727272727272727
 40
0.2727272727272727
 40
0.3636363636363636
 40
0.3636363636363636
 40
0.3636363636363636
 40
0.3636363636363636
 40
0.4545454545454545
 40
0.4545454545454545
 40
0.4545454545454545
 40
0.4545454545454545
 40
0.5454545454545454
 40
0.5454545454545454
 40
0.5454545454545454
 40
0.5454545454545454
 40
0.6363636363636364
 40
0.6363636363636364
 40
0.6363636363636364
 40
0.6363636363636364
 40
0.7272727272727273
 40
0.7272727272727273
 40
0.7272727272727273
 40
0.7272727272727273
 40
0.8181818181818182
 40
0.8181818181818182
 40
0.8181818181818182
 40
0.8181818181818182
 40
1.0
 40
1.0
 40
1.0
 40
1.0
 10
95.0187
 20
-63.1047
 30
0.0
 10
95.9085
 20
-62.0185
 30
0.0
 10
96.2515
 20
-60.5843
 30
0.0
 10
95.9495
 20
-59.2131
 30
0.0
 10
95.9495
 20
-59.2131
 30
0.0
 10
95.6473
 20
-57.8419
 30
0.0
 10
94.7333
 20
-56.6846
 30
0.0
 10
93.4693
 20
-56.0729
 30
0.0
 10
93.4693
 20
-56.0729
 30
0.0
 10
93.9208
 20
-57.0189
 30
0.0
 10
93.9697
 20
-58.1074
 30
0.0
 10
93.6047
 20
-59.0901
 30
0.0
 10
93.6047
 20
-59.0901
 30
0.0
 10
93.2397
 20
-60.0726
 30
0.0
 10
92.4922
 20
-60.8653
 30
0.0
 10
91.5327
 20
-61.2873
 30
0.0
 10
91.5327
 20
-61.2873
 30
0.0
 10
90.54
 20
-61.4719
 30
0.0
 10
89.5185
 20
-61.1756
 30
0.0
 10
88.7786
 20
-60.4886
 30
0.0
 10
88.7786
 20
-60.4886
 30
0.0
 10
88.0387
 20
-59.8016
 30
0.0
 10
87.6678
 20
-58.8047
 30
0.0
 10
87.7785
 20
-57.8011
 30
0.0
 10
87.7785
 20
-57.8011
 30
0.0
 10
86.2289
 20
-57.8171
 30
0.0
 10
84.6938
 20
-57.503
 30
0.0
 10
83.2751
 20
-56.8795
 30
0.0
 10
83.2751
 20
-56.8795
 30
0.0
 10
83.4347
 20
-57.0978
 30
0.0
 10
83.5951
 20
-57.3157
 30
0.0
 10
83.7561
 20
-57.533
 30
0.0
 10
83.7561
 20
-57.533
 30
0.0
 10
85.6464
 20
-60.0265
 30
0.0
 10
87.6704
 20
-62.4159
 30
0.0
 10
89.8189
 20
-64.6909
 30
0.0
 10
89.8189
 20
-64.6909
 30
0.0
 10
91.7088
 20
-65.0707
 30
0.0
 10
93.6628
 20
-64.4747
 30
0.0
 10
95.0187
 20
-63.1047
 30
0.0
  0
SPLINE
  5
55
330
1F
100
AcDbEntity
  8
layer 1
 62
     7
370
     9
100
AcDbSpline
210
0.0
220
0.0
230
1.0
 70
    11
 71
     3
 72
    16
 73
    12
 74
     0
 42
0.0000000001
 43
0.0000000001
 12
1.0
 22
0.0
 32
0.0
 13
1.0
 23
0.0
 33
0.0
 40
0.0
 40
0.0
 40
0.0
 40
0.0
 40
0.25
 40
0.25
 40
0.25
 40
0.25
 40
0.5
 40
0.5
 40
0.5
 40
0.5
 40
1.0
 40
1.0
 40
1.0
 40
1.0
 10
90.6984
 20
4.4711
 30
0.0
 10
90.9078
 20
6.2739
 30
0.0
 10
91.1562
 20
8.0721
 30
0.0
 10
91.4432
 20
9.8641
 30
0.0
 10
91.4432
 20
9.8641
 30
0.0
 10
91.7684
 20
11.6628
 30
0.0
 10
90.9507
 20
13.4758
 30
0.0
 10
89.3874
 20
14.4228
 30
0.0
 10
89.3874
 20
14.4228
 30
0.0
 10
89.5897
 20
11.079
 30
0.0
 10
90.0278
 20
7.7533
 30
0.0
 10
90.6984
 20
4.4711
 30
0.0
  0
SPLINE
  5
56
330
1F
100
AcDbEntity
  8
layer 1
 62
     7
370
     9
100
AcDbSpline
210
0.0
220
0.0
230
1.0
 70
    11
 71
     3
 72
    16
 73
    12
 74
     0
 42
0.0000000001
 43
0.0000000001
 12
1.0
 22
0.0
 32
0.0
 13
1.0
 23
0.0
 33
0.0
 40
0.0
 40
0.0
 40
0.0
 40
0.0
 40
0.25
 40
0.25
 40
0.25
 40
0.25
 40
0.5
 40
0.5
 40
0.5
 40
0.5
 40
1.0
 40
1.0
 40
1.0
 40
1.0
 10
89.3576
 20
15.7934
 30
0.0
 10
91.9609
 20
14.3499
 30
0.0
 10
95.1939
 20
14.7212
 30
0.0
 10
97.4023
 20
16.7171
 30
0.0
 10
97.4023
 20
16.7171
 30
0.0
 10
95.1939
 20
18.7129
 30
0.0
 10
91.9609
 20
19.0842
 30
0.0
 10
89.3576
 20
17.6408
 30
0.0
 10
89.3576
 20
17.6408
 30
0.0
 10
89.3576
 20
17.6408
 30
0.0
 10
89.3576
 20
15.7934
 30
0.0
 10
89.3576
 20
15.7934
 30
0.0
  0
SPLINE
  5
57
330
1F
100
AcDbEntity
  8
layer 1
 62
     7
370
     9
100
AcDbSpline
210
0.0
220
0.0
230
1.0
 70
    11
 71
     3
 72
    16
 73
    12
 74
     0
 42
0.0000000001
 43
0.0000000001
 12
1.0
 22
0.0
 32
0.0
 13
1.0
 23
0.0
 33
0.0
 40
0.0
 40
0.0
 40
0.0
 40
0.0
 40
0.25
 40
0.25
 40
0.25
 40
0.25
 40
0.5
 40
0.5
 40
0.5
 40
0.5
 40
1.0
 40
1.0
 40
1.0
 40
1.0
 10
98.7729
 20
-10.933
 30
0.0
 10
99.3311
 20
-8.3826
 30
0.0
 10
98.451
 20
-5.7311
 30
0.0
 10
96.4786
 20
-4.0205
 30
0.0
 10
96.4786
 20
-4.0205
 30
0.0
 10
94.9987
 20
-2.8667
 30
0.0
 10
93.6037
 20
-1.608
 30
0.0
 10
92.3046
 20
-0.2537
 30
0.0
 10
92.3046
 20
-0.2537
 30
0.0
 10
94.0113
 20
-4.067
 30
0.0
 10
96.1838
 20
-7.6541
 30
0.0
 10
98.7729
 20
-10.933
 30
0.0
  0
SPLINE
  5
58
330
1F
100
AcDbEntity
  8
layer 1
 62
     7
370
     9
100
AcDbSpline
210
0.0
220
0.0
230
1.0
 70
    11
 71
     3
 72
    48
 73
    44
 74
     0
 42
0.0000000001
 43
0.0000000001
 12
1.0
 22
0.0
 32
0.0
 13
1.0
 23
0.0
 33
0.0
 40
0.0
 40
0.0
 40
0.0
 40
0.0
 40
0.0833333333333333
 40
0.0833333333333333
 40
0.0833333333333333
 40
0.0833333333333333
 40
0.1666666666666667
 40
0.1666666666666667
 40
0.1666666666666667
 40
0.1666666666666667
 40
0.25
 40
0.25
 40
0.25
 40
0.25
 40
0.3333333333333333
 40
0.3333333333333333
 40
0.3333333333333333
 40
0.3333333333333333
 40
0.4166666666666667
 40
0.4166666666666667
 40
0.4166666666666667
 40
0.4166666666666667
 40
0.5
 40
0.5
 40
0.5
 40
0.5
 40
0.5833333333333334
 40
0.5833333333333334
 40
0.5833333333333334
 40
0.5833333333333334
 40
0.6666666666666666
 40
0.6666666666666666
 40
0.6666666666666666
 40
0.6666666666666666
 40
0.75
 40
0.75
 40
0.75
 40
0.75
 40
0.8333333333333334
 40
0.8333333333333334
 40
0.8333333333333334
 40
0.8333333333333334
 40
1.0
 40
1.0
 40
1.0
 40
1.0
 10
111.3168
 20
-8.1322
 30
0.0
 10
110.644
 20
-9.4328
 30
0.0
 10
110.7655
 20
-11.0021
 30
0.0
 10
111.6309
 20
-12.1832
 30
0.0
 10
111.6309
 20
-12.1832
 30
0.0
 10
112.4963
 20
-13.3644
 30
0.0
 10
113.9559
 20
-13.9535
 30
0.0
 10
115.3986
 20
-13.7039
 30
0.0
 10
115.3986
 20
-13.7039
 30
0.0
 10
116.7873
 20
-13.227
 30
0.0
 10
117.6966
 20
-11.8934
 30
0.0
 10
117.6333
 20
-10.4265
 30
0.0
 10
117.6333
 20
-10.4265
 30
0.0
 10
119.6452
 20
-10.8204
 30
0.0
 10
121.6613
 20
-9.7689
 30
0.0
 10
122.4901
 20
-7.8939
 30
0.0
 10
122.4901
 20
-7.8939
 30
0.0
 10
122.5527
 20
-10.9669
 30
0.0
 10
121.5292
 20
-13.9632
 30
0.0
 10
119.5999
 20
-16.3558
 30
0.0
 10
119.5999
 20
-16.3558
 30
0.0
 10
119.3862
 20
-15.4658
 30
0.0
 10
118.6984
 20
-14.7667
 30
0.0
 10
117.8122
 20
-14.5383
 30
0.0
 10
117.8122
 20
-14.5383
 30
0.0
 10
118.0583
 20
-15.4712
 30
0.0
 10
117.9192
 20
-16.4638
 30
0.0
 10
117.426
 20
-17.2931
 30
0.0
 10
117.426
 20
-17.2931
 30
0.0
 10
116.9331
 20
-18.1224
 30
0.0
 10
116.1273
 20
-18.7187
 30
0.0
 10
115.1902
 20
-18.948
 30
0.0
 10
115.1902
 20
-18.948
 30
0.0
 10
113.892
 20
-19.0617
 30
0.0
 10
112.6086
 20
-18.605
 30
0.0
 10
111.6743
 20
-17.6966
 30
0.0
 10
111.6743
 20
-17.6966
 30
0.0
 10
109.966
 20
-15.7994
 30
0.0
 10
109.1525
 20
-13.2611
 30
0.0
 10
109.4397
 20
-10.7245
 30
0.0
 10
109.4397
 20
-10.7245
 30
0.0
 10
109.659
 20
-9.6288
 30
0.0
 10
110.3442
 20
-8.6827
 30
0.0
 10
111.3168
 20
-8.1322
 30
0.0
  0
SPLINE
  5
59
330
1F
100
AcDbEntity
  8
layer 1
 62
     7
370
     9
100
AcDbSpline
210
0.0
220
0.0
230
1.0
 70
    11
 71
     3
 72
    72
 73
    68
 74
     0
 42
0.0000000001
 43
0.0000000001
 12
1.0
 22
0.0
 32
0.0
 13
1.0
 23
0.0
 33
0.0
 40
0.0
 40
0.0
 40
0.0
 40
0.0
 40
0.0555555555555556
 40
0.0555555555555556
 40
0.0555555555555556
 40
0.0555555555555556
 40
0.1111111111111111
 40
0.1111111111111111
 40
0.1111111111111111
 40
0.1111111111111111
 40
0.1666666666666667
 40
0.1666666666666667
 40
0.1666666666666667
 40
0.1666666666666667
 40
0.2222222222222222
 40
0.2222222222222222
 40
0.2222222222222222
 40
0.2222222222222222
 40
0.2777777777777778
 40
0.2777777777777778
 40
0.2777777777777778
 40
0.2777777777777778
 40
0.3333333333333333
 40
0.3333333333333333
 40
0.3333333333333333
 40
0.3333333333333333
 40
0.3888888888888889
 40
0.3888888888888889
 40
0.3888888888888889
 40
0.3888888888888889
 40
0.4444444444444444
 40
0.4444444444444444
 40
0.4444444444444444
 40
0.4444444444444444
 40
0.5
 40
0.5
 40
0.5
 40
0.5
 40
0.5555555555555556
 40
0.5555555555555556
 40
0.5555555555555556
 40
0.5555555555555556
 40
0.6111111111111112
 40
0.6111111111111112
 40
0.6111111111111112
 40
0.6111111111111112
 40
0.6666666666666666
 40
0.6666666666666666
 40
0.6666666666666666
 40
0.6666666666666666
 40
0.7222222222222222
 40
0.7222222222222222
 40
0.7222222222222222
 40
0.7222222222222222
 40
0.7777777777777778
 40
0.7777777777777778
 40
0.7777777777777778
 40
0.7777777777777778
 40
0.8333333333333334
 40
0.8333333333333334
 40
0.8333333333333334
 40
0.8333333333333334
 40
0.8888888888888888
 40
0.8888888888888888
 40
0.8888888888888888
 40
0.8888888888888888
 40
1.0
 40
1.0
 40
1.0
 40
1.0
 10
99.9349
 20
-12.5122
 30
0.0
 10
101.47
 20
-11.2092
 30
0.0
 10
103.6483
 20
-10.9842
 30
0.0
 10
105.4172
 20
-11.9461
 30
0.0
 10
105.4172
 20
-11.9461
 30
0.0
 10
104.6094
 20
-8.2062
 30
0.0
 10
106.4526
 20
-4.3968
 30
0.0
 10
109.8866
 20
-2.7095
 30
0.0
 10
109.8866
 20
-2.7095
 30
0.0
 10
111.4656
 20
-2.0611
 30
0.0
 10
113.2467
 20
-2.1204
 30
0.0
 10
114.7792
 20
-2.8723
 30
0.0
 10
114.7792
 20
-2.8723
 30
0.0
 10
116.3116
 20
-3.6242
 30
0.0
 10
117.4484
 20
-4.9968
 30
0.0
 10
117.9015
 20
-6.6426
 30
0.0
 10
117.9015
 20
-6.6426
 30
0.0
 10
118.0635
 20
-6.9626
 30
0.0
 10
118.3459
 20
-7.2051
 30
0.0
 10
118.687
 20
-7.3169
 30
0.0
 10
118.687
 20
-7.3169
 30
0.0
 10
119.0277
 20
-7.4287
 30
0.0
 10
119.3989
 20
-7.4004
 30
0.0
 10
119.719
 20
-7.2384
 30
0.0
 10
119.719
 20
-7.2384
 30
0.0
 10
121.4738
 20
-6.563
 30
0.0
 10
122.7571
 20
-5.0319
 30
0.0
 10
123.1157
 20
-3.1863
 30
0.0
 10
123.1157
 20
-3.1863
 30
0.0
 10
123.255
 20
-0.6859
 30
0.0
 10
123.3147
 20
1.8181
 30
0.0
 10
123.2945
 20
4.3221
 30
0.0
 10
123.2945
 20
4.3221
 30
0.0
 10
122.1021
 20
3.0861
 30
0.0
 10
120.4553
 20
2.393
 30
0.0
 10
118.738
 20
2.4042
 30
0.0
 10
118.738
 20
2.4042
 30
0.0
 10
117.0206
 20
2.4155
 30
0.0
 10
115.383
 20
3.1302
 30
0.0
 10
114.2069
 20
4.3818
 30
0.0
 10
114.2069
 20
4.3818
 30
0.0
 10
111.6492
 20
7.5161
 30
0.0
 10
111.479
 20
11.9663
 30
0.0
 10
113.7898
 20
15.2868
 30
0.0
 10
113.7898
 20
15.2868
 30
0.0
 10
111.0905
 20
15.6715
 30
0.0
 10
108.3375
 20
15.3428
 30
0.0
 10
105.8045
 20
14.3334
 30
0.0
 10
105.8045
 20
14.3334
 30
0.0
 10
104.9255
 20
13.6608
 30
0.0
 10
104.3542
 20
12.6624
 30
0.0
 10
104.2198
 20
11.5639
 30
0.0
 10
104.2198
 20
11.5639
 30
0.0
 10
104.0851
 20
10.4649
 30
0.0
 10
104.3988
 20
9.3584
 30
0.0
 10
105.0896
 20
8.4935
 30
0.0
 10
105.0896
 20
8.4935
 30
0.0
 10
107.9148
 20
6.4417
 30
0.0
 10
109.0722
 20
2.7876
 30
0.0
 10
107.9434
 20
-0.5166
 30
0.0
 10
107.9434
 20
-0.5166
 30
0.0
 10
106.8146
 20
-3.821
 30
0.0
 10
103.6635
 20
-6.0033
 30
0.0
 10
100.1732
 20
-5.8977
 30
0.0
 10
100.1732
 20
-5.8977
 30
0.0
 10
100.9379
 20
-8.0526
 30
0.0
 10
100.8526
 20
-10.4179
 30
0.0
 10
99.9349
 20
-12.5122
 30
0.0
  0
SPLINE
  5
5A
330
1F
100
AcDbEntity
  8
layer 1
 62
     7
370
     9
100
AcDbSpline
210
0.0
220
0.0
230
1.0
 70
    11
 71
     3
 72
    48
 73
    44
 74
     0
 42
0.0000000001
 43
0.0000000001
 12
1.0
 22
0.0
 32
0.0
 13
1.0
 23
0.0
 33
0.0
 40
0.0
 40
0.0
 40
0.0
 40
0.0
 40
0.0833333333333333
 40
0.0833333333333333
 40
0.0833333333333333
 40
0.0833333333333333
 40
0.1666666666666667
 40
0.1666666666666667
 40
0.1666666666666667
 40
0.1666666666666667
 40
0.25
 40
0.25
 40
0.25
 40
0.25
 40
0.3333333333333333
 40
0.3333333333333333
 40
0.3333333333333333
 40
0.3333333333333333
 40
0.4166666666666667
 40
0.4166666666666667
 40
0.4166666666666667
 40
0.4166666666666667
 40
0.5
 40
0.5
 40
0.5
 40
0.5
 40
0.5833333333333334
 40
0.5833333333333334
 40
0.5833333333333334
 40
0.5833333333333334
 40
0.6666666666666666
 40
0.6666666666666666
 40
0.6666666666666666
 40
0.6666666666666666
 40
0.75
 40
0.75
 40
0.75
 40
0.75
 40
0.8333333333333334
 40
0.8333333333333334
 40
0.8333333333333334
 40
0.8333333333333334
 40
1.0
 40
1.0
 40
1.0
 40
1.0
 10
96.5383
 20
11.1453
 30
0.0
 10
98.4302
 20
13.2882
 30
0.0
 10
101.1583
 20
14.5055
 30
0.0
 10
104.0169
 20
14.4824
 30
0.0
 10
104.0169
 20
14.4824
 30
0.0
 10
101.9385
 20
13.2871
 30
0.0
 10
100.8401
 20
10.9108
 30
0.0
 10
101.2758
 20
8.5531
 30
0.0
 10
101.2758
 20
8.5531
 30
0.0
 10
99.686
 20
8.1215
 30
0.0
 10
98.5374
 20
6.7394
 30
0.0
 10
98.404
 20
5.0975
 30
0.0
 10
98.404
 20
5.0975
 30
0.0
 10
98.2705
 20
3.4556
 30
0.0
 10
99.1807
 20
1.9063
 30
0.0
 10
100.6799
 20
1.2234
 30
0.0
 10
100.6799
 20
1.2234
 30
0.0
 10
101.5461
 20
0.9275
 30
0.0
 10
102.4829
 20
0.9066
 30
0.0
 10
103.3615
 20
1.1638
 30
0.0
 10
103.3615
 20
1.1638
 30
0.0
 10
102.8696
 20
0.1861
 30
0.0
 10
102.0019
 20
-0.55
 30
0.0
 10
100.957
 20
-0.8758
 30
0.0
 10
100.957
 20
-0.8758
 30
0.0
 10
99.9123
 20
-1.2016
 30
0.0
 10
98.7798
 20
-1.0892
 30
0.0
 10
97.8195
 20
-0.5642
 30
0.0
 10
97.8195
 20
-0.5642
 30
0.0
 10
95.8304
 20
0.6526
 30
0.0
 10
94.4704
 20
2.6762
 30
0.0
 10
94.095
 20
4.9776
 30
0.0
 10
94.095
 20
4.9776
 30
0.0
 10
94.0051
 20
6.0341
 30
0.0
 10
94.3584
 20
7.0803
 30
0.0
 10
95.0705
 20
7.8658
 30
0.0
 10
95.0705
 20
7.8658
 30
0.0
 10
95.7825
 20
8.6513
 30
0.0
 10
96.7891
 20
9.1054
 30
0.0
 10
97.8492
 20
9.1193
 30
0.0
 10
97.8492
 20
9.1193
 30
0.0
 10
97.6408
 20
9.9176
 30
0.0
 10
97.1812
 20
10.6279
 30
0.0
 10
96.5383
 20
11.1453
 30
0.0
  0
SPLINE
  5
5B
330
1F
100
AcDbEntity
  8
layer 1
 62
     7
370
     9
100
AcDbSpline
210
0.0
220
0.0
230
1.0
 70
    11
 71
     3
 72
    24
 73
    20
 74
     0
 42
0.0000000001
 43
0.0000000001
 12
1.0
 22
0.0
 32
0.0
 13
1.0
 23
0.0
 33
0.0
 40
0.0
 40
0.0
 40
0.0
 40
0.0
 40
0.1666666666666667
 40
0.1666666666666667
 40
0.1666666666666667
 40
0.1666666666666667
 40
0.3333333333333333
 40
0.3333333333333333
 40
0.3333333333333333
 40
0.3333333333333333
 40
0.5
 40
0.5
 40
0.5
 40
0.5
 40
0.6666666666666666
 40
0.6666666666666666
 40
0.6666666666666666
 40
0.6666666666666666
 40
1.0
 40
1.0
 40
1.0
 40
1.0
 10
118.6166
 20
15.0783
 30
0.0
 10
119.1983
 20
12.8319
 30
0.0
 10
120.8131
 20
10.9959
 30
0.0
 10
122.9667
 20
10.1323
 30
0.0
 10
122.9667
 20
10.1323
 30
0.0
 10
122.7854
 20
8.4943
 30
0.0
 10
122.0118
 20
6.9791
 30
0.0
 10
120.7917
 20
5.8716
 30
0.0
 10
120.7917
 20
5.8716
 30
0.0
 10
119.2871
 20
4.9705
 30
0.0
 10
117.3795
 20
5.1076
 30
0.0
 10
116.0193
 20
6.2144
 30
0.0
 10
116.0193
 20
6.2144
 30
0.0
 10
114.6589
 20
7.3213
 30
0.0
 10
114.1371
 20
9.1612
 30
0.0
 10
114.7135
 20
10.8175
 30
0.0
 10
114.7135
 20
10.8175
 30
0.0
 10
115.2976
 20
12.7582
 30
0.0
 10
116.7344
 20
14.3268
 30
0.0
 10
118.6166
 20
15.0783
 30
0.0
  0
SPLINE
  5
5C
330
1F
100
AcDbEntity
  8
layer 1
 62
     7
370
     9
100
AcDbSpline
210
0.0
220
0.0
230
1.0
 70
    11
 71
     3
 72
    16
 73
    12
 74
     0
 42
0.0000000001
 43
0.0000000001
 12
1.0
 22
0.0
 32
0.0
 13
1.0
 23
0.0
 33
0.0
 40
0.0
 40
0.0
 40
0.0
 40
0.0
 40
0.25
 40
0.25
 40
0.25
 40
0.25
 40
0.5
 40
0.5
 40
0.5
 40
0.5
 40
1.0
 40
1.0
 40
1.0
 40
1.0
 10
64.6871
 20
116.7705
 30
0.0
 10
63.2983
 20
115.1206
 30
0.0
 10
62.3912
 20
113.1223
 30
0.0
 10
62.065
 20
110.9902
 30
0.0
 10
62.065
 20
110.9902
 30
0.0
 10
62.065
 20
110.9902
 30
0.0
 10
62.065
 20
119.9513
 30
0.0
 10
62.065
 20
119.9513
 30
0.0
 10
62.065
 20
119.9513
 30
0.0
 10
62.8777
 20
118.8415
 30
0.0
 10
63.7531
 20
117.7795
 30
0.0
 10
64.6871
 20
116.7705
 30
0.0
  0
SPLINE
  5
5D
330
1F
100
AcDbEntity
  8
layer 1
 62
     7
370
     9
100
AcDbSpline
210
0.0
220
0.0
230
1.0
 70
    11
 71
     3
 72
    20
 73
    16
 74
     0
 42
0.0000000001
 43
0.0000000001
 12
1.0
 22
0.0
 32
0.0
 13
1.0
 23
0.0
 33
0.0
 40
0.0
 40
0.0
 40
0.0
 40
0.0
 40
0.2
 40
0.2
 40
0.2
 40
0.2
 40
0.4
 40
0.4
 40
0.4
 40
0.4
 40
0.6
 40
0.6
 40
0.6
 40
0.6
 40
1.0
 40
1.0
 40
1.0
 40
1.0
 10
62.065
 20
107.4444
 30
0.0
 10
62.6813
 20
103.418
 30
0.0
 10
65.3436
 20
99.9994
 30
0.0
 10
69.0968
 20
98.4156
 30
0.0
 10
69.0968
 20
98.4156
 30
0.0
 10
66.0834
 20
98.1976
 30
0.0
 10
63.5495
 20
96.0721
 30
0.0
 10
62.81
 20
93.1423
 30
0.0
 10
62.81
 20
93.1423
 30
0.0
 10
62.5621
 20
93.1209
 30
0.0
 10
62.3137
 20
93.1043
 30
0.0
 10
62.065
 20
93.0944
 30
0.0
 10
62.065
 20
93.0944
 30
0.0
 10
62.065
 20
93.0944
 30
0.0
 10
62.065
 20
107.4444
 30
0.0
 10
62.065
 20
107.4444
 30
0.0
  0
SPLINE
  5
5E
330
1F
100
AcDbEntity
  8
layer 1
 62
     7
370
     9
100
AcDbSpline
210
0.0
220
0.0
230
1.0
 70
    11
 71
     3
 72
    20
 73
    16
 74
     0
 42
0.0000000001
 43
0.0000000001
 12
1.0
 22
0.0
 32
0.0
 13
1.0
 23
0.0
 33
0.0
 40
0.0
 40
0.0
 40
0.0
 40
0.0
 40
0.2
 40
0.2
 40
0.2
 40
0.2
 40
0.4
 40
0.4
 40
0.4
 40
0.4
 40
0.6
 40
0.6
 40
0.6
 40
0.6
 40
1.0
 40
1.0
 40
1.0
 40
1.0
 10
65.4618
 20
120.346
 30
0.0
 10
67.78
 20
120.7969
 30
0.0
 10
70.0325
 20
121.5384
 30
0.0
 10
72.1664
 20
122.5508
 30
0.0
 10
72.1664
 20
122.5508
 30
0.0
 10
72.1664
 20
122.5508
 30
0.0
 10
62.065
 20
122.5508
 30
0.0
 10
62.065
 20
122.5508
 30
0.0
 10
62.065
 20
122.5508
 30
0.0
 10
62.065
 20
122.5508
 30
0.0
 10
62.065
 20
122.3014
 30
0.0
 10
62.065
 20
122.3014
 30
0.0
 10
62.065
 20
122.3014
 30
0.0
 10
62.6453
 20
120.9736
 30
0.0
 10
64.023
 20
120.1808
 30
0.0
 10
65.4618
 20
120.346
 30
0.0
  0
SPLINE
  5
5F
330
1F
100
AcDbEntity
  8
layer 1
 62
     7
370
     9
100
AcDbSpline
210
0.0
220
0.0
230
1.0
 70
    11
 71
     3
 72
    56
 73
    52
 74
     0
 42
0.0000000001
 43
0.0000000001
 12
1.0
 22
0.0
 32
0.0
 13
1.0
 23
0.0
 33
0.0
 40
0.0
 40
0.0
 40
0.0
 40
0.0
 40
0.0714285714285714
 40
0.0714285714285714
 40
0.0714285714285714
 40
0.0714285714285714
 40
0.1428571428571428
 40
0.1428571428571428
 40
0.1428571428571428
 40
0.1428571428571428
 40
0.2142857142857143
 40
0.2142857142857143
 40
0.2142857142857143
 40
0.2142857142857143
 40
0.2857142857142857
 40
0.2857142857142857
 40
0.2857142857142857
 40
0.2857142857142857
 40
0.3571428571428572
 40
0.3571428571428572
 40
0.3571428571428572
 40
0.3571428571428572
 40
0.4285714285714285
 40
0.4285714285714285
 40
0.4285714285714285
 40
0.4285714285714285
 40
0.5
 40
0.5
 40
0.5
 40
0.5
 40
0.5714285714285714
 40
0.5714285714285714
 40
0.5714285714285714
 40
0.5714285714285714
 40
0.6428571428571429
 40
0.6428571428571429
 40
0.6428571428571429
 40
0.6428571428571429
 40
0.7142857142857143
 40
0.7142857142857143
 40
0.7142857142857143
 40
0.7142857142857143
 40
0.7857142857142857
 40
0.7857142857142857
 40
0.7857142857142857
 40
0.7857142857142857
 40
0.8571428571428571
 40
0.8571428571428571
 40
0.8571428571428571
 40
0.8571428571428571
 40
1.0
 40
1.0
 40
1.0
 40
1.0
 10
74.4016
 20
122.5508
 30
0.0
 10
78.2717
 20
122.1412
 30
0.0
 10
81.6088
 20
119.6491
 30
0.0
 10
83.1006
 20
116.0554
 30
0.0
 10
83.1006
 20
116.0554
 30
0.0
 10
83.4225
 20
116.8448
 30
0.0
 10
84.1265
 20
117.4162
 30
0.0
 10
84.9664
 20
117.5665
 30
0.0
 10
84.9664
 20
117.5665
 30
0.0
 10
85.8062
 20
117.7185
 30
0.0
 10
86.665
 20
117.4278
 30
0.0
 10
87.242
 20
116.8002
 30
0.0
 10
87.242
 20
116.8002
 30
0.0
 10
85.4214
 20
115.5979
 30
0.0
 10
84.4763
 20
113.4394
 30
0.0
 10
84.8287
 20
111.2875
 30
0.0
 10
84.8287
 20
111.2875
 30
0.0
 10
85.1864
 20
107.8474
 30
0.0
 10
85.0258
 20
104.3709
 30
0.0
 10
84.3519
 20
100.9787
 30
0.0
 10
84.3519
 20
100.9787
 30
0.0
 10
85.876
 20
102.6418
 30
0.0
 10
87.4054
 20
104.2999
 30
0.0
 10
88.9405
 20
105.9547
 30
0.0
 10
88.9405
 20
105.9547
 30
0.0
 10
90.5515
 20
108.2157
 30
0.0
 10
91.3401
 20
110.9588
 30
0.0
 10
91.1751
 20
113.73
 30
0.0
 10
91.1751
 20
113.73
 30
0.0
 10
92.5274
 20
113.1702
 30
0.0
 10
93.4805
 20
111.9332
 30
0.0
 10
93.6778
 20
110.4832
 30
0.0
 10
93.6778
 20
110.4832
 30
0.0
 10
98.2572
 20
112.5773
 30
0.0
 10
100.5889
 20
117.7284
 30
0.0
 10
99.1402
 20
122.5508
 30
0.0
 10
99.1402
 20
122.5508
 30
0.0
 10
99.1402
 20
122.5508
 30
0.0
 10
94.0569
 20
122.5508
 30
0.0
 10
94.0569
 20
122.5508
 30
0.0
 10
94.0569
 20
122.5508
 30
0.0
 10
94.3133
 20
120.6036
 30
0.0
 10
93.873
 20
118.6301
 30
0.0
 10
92.814
 20
116.9786
 30
0.0
 10
92.814
 20
116.9786
 30
0.0
 10
91.5023
 20
119.5632
 30
0.0
 10
89.2602
 20
121.5533
 30
0.0
 10
86.5392
 20
122.5508
 30
0.0
 10
86.5392
 20
122.5508
 30
0.0
 10
86.5392
 20
122.5508
 30
0.0
 10
74.4016
 20
122.5508
 30
0.0
 10
74.4016
 20
122.5508
 30
0.0
  0
SPLINE
  5
60
330
1F
100
AcDbEntity
  8
layer 1
 62
     7
370
     9
100
AcDbSpline
210
0.0
220
0.0
230
1.0
 70
    11
 71
     3
 72
    16
 73
    12
 74
     0
 42
0.0000000001
 43
0.0000000001
 12
1.0
 22
0.0
 32
0.0
 13
1.0
 23
0.0
 33
0.0
 40
0.0
 40
0.0
 40
0.0
 40
0.0
 40
0.25
 40
0.25
 40
0.25
 40
0.25
 40
0.5
 40
0.5
 40
0.5
 40
0.5
 40
1.0
 40
1.0
 40
1.0
 40
1.0
 10
101.1414
 20
122.5508
 30
0.0
 10
102.1131
 20
120.8398
 30
0.0
 10
102.7456
 20
118.9588
 30
0.0
 10
103.0039
 20
117.0083
 30
0.0
 10
103.0039
 20
117.0083
 30
0.0
 10
107.5119
 20
119.5731
 30
0.0
 10
112.3823
 20
121.4426
 30
0.0
 10
117.4494
 20
122.5508
 30
0.0
 10
117.4494
 20
122.5508
 30
0.0
 10
117.4494
 20
122.5508
 30
0.0
 10
101.1414
 20
122.5508
 30
0.0
 10
101.1414
 20
122.5508
 30
0.0
  0
SPLINE
  5
61
330
1F
100
AcDbEntity
  8
layer 1
 62
     7
370
     9
100
AcDbSpline
210
0.0
220
0.0
230
1.0
 70
    11
 71
     3
 72
    84
 73
    80
 74
     0
 42
0.0000000001
 43
0.0000000001
 12
1.0
 22
0.0
 32
0.0
 13
1.0
 23
0.0
 33
0.0
 40
0.0
 40
0.0
 40
0.0
 40
0.0
 40
0.0476190476190476
 40
0.0476190476190476
 40
0.0476190476190476
 40
0.0476190476190476
 40
0.0952380952380952
 40
0.0952380952380952
 40
0.0952380952380952
 40
0.0952380952380952
 40
0.1428571428571428
 40
0.1428571428571428
 40
0.1428571428571428
 40
0.1428571428571428
 40
0.1904761904761905
 40
0.1904761904761905
 40
0.1904761904761905
 40
0.1904761904761905
 40
0.2380952380952381
 40
0.2380952380952381
 40
0.2380952380952381
 40
0.2380952380952381
 40
0.2857142857142857
 40
0.2857142857142857
 40
0.2857142857142857
 40
0.2857142857142857
 40
0.3333333333333333
 40
0.3333333333333333
 40
0.3333333333333333
 40
0.3333333333333333
 40
0.3809523809523809
 40
0.3809523809523809
 40
0.3809523809523809
 40
0.3809523809523809
 40
0.4285714285714285
 40
0.4285714285714285
 40
0.4285714285714285
 40
0.4285714285714285
 40
0.4761904761904762
 40
0.4761904761904762
 40
0.4761904761904762
 40
0.4761904761904762
 40
0.5238095238095238
 40
0.5238095238095238
 40
0.5238095238095238
 40
0.5238095238095238
 40
0.5714285714285714
 40
0.5714285714285714
 40
0.5714285714285714
 40
0.5714285714285714
 40
0.6190476190476191
 40
0.6190476190476191
 40
0.6190476190476191
 40
0.6190476190476191
 40
0.6666666666666666
 40
0.6666666666666666
 40
0.6666666666666666
 40
0.6666666666666666
 40
0.7142857142857143
 40
0.7142857142857143
 40
0.7142857142857143
 40
0.7142857142857143
 40
0.7619047619047619
 40
0.7619047619047619
 40
0.7619047619047619
 40
0.7619047619047619
 40
0.8095238095238095
 40
0.8095238095238095
 40
0.8095238095238095
 40
0.8095238095238095
 40
0.8571428571428571
 40
0.8571428571428571
 40
0.8571428571428571
 40
0.8571428571428571
 40
0.9047619047619048
 40
0.9047619047619048
 40
0.9047619047619048
 40
0.9047619047619048
 40
1.0
 40
1.0
 40
1.0
 40
1.0
 10
85.0961
 20
20.0711
 30
0.0
 10
85.035
 20
20.1522
 30
0.0
 10
84.9653
 20
20.2264
 30
0.0
 10
84.8884
 20
20.2924
 30
0.0
 10
84.8884
 20
20.2924
 30
0.0
 10
84.3113
 20
21.0579
 30
0.0
 10
83.6518
 20
21.7573
 30
0.0
 10
82.9217
 20
22.3781
 30
0.0
 10
82.9217
 20
22.3781
 30
0.0
 10
84.1491
 20
26.0986
 30
0.0
 10
83.9148
 20
30.1465
 30
0.0
 10
82.2662
 20
33.7004
 30
0.0
 10
82.2662
 20
33.7004
 30
0.0
 10
81.5807
 20
34.9798
 30
0.0
 10
80.3824
 20
35.9063
 30
0.0
 10
78.9716
 20
36.2475
 30
0.0
 10
78.9716
 20
36.2475
 30
0.0
 10
77.5609
 20
36.5889
 30
0.0
 10
76.0716
 20
36.3126
 30
0.0
 10
74.877
 20
35.4881
 30
0.0
 10
74.877
 20
35.4881
 30
0.0
 10
74.0919
 20
34.7534
 30
0.0
 10
73.5073
 20
33.8303
 30
0.0
 10
73.1787
 20
32.8066
 30
0.0
 10
73.1787
 20
32.8066
 30
0.0
 10
72.807
 20
32.3316
 30
0.0
 10
72.2396
 20
32.0516
 30
0.0
 10
71.6366
 20
32.0457
 30
0.0
 10
71.6366
 20
32.0457
 30
0.0
 10
71.0335
 20
32.0399
 30
0.0
 10
70.4606
 20
32.3089
 30
0.0
 10
70.0801
 20
32.7767
 30
0.0
 10
70.0801
 20
32.7767
 30
0.0
 10
69.3823
 20
33.4227
 30
0.0
 10
68.9833
 20
34.3287
 30
0.0
 10
68.9775
 20
35.2795
 30
0.0
 10
68.9775
 20
35.2795
 30
0.0
 10
69.6723
 20
37.8825
 30
0.0
 10
71.7265
 20
39.9024
 30
0.0
 10
74.3406
 20
40.5533
 30
0.0
 10
74.3406
 20
40.5533
 30
0.0
 10
73.9575
 20
41.8388
 30
0.0
 10
72.8183
 20
42.7526
 30
0.0
 10
71.4804
 20
42.8476
 30
0.0
 10
71.4804
 20
42.8476
 30
0.0
 10
71.7944
 20
44.0452
 30
0.0
 10
72.0924
 20
45.247
 30
0.0
 10
72.3742
 20
46.4528
 30
0.0
 10
72.3742
 20
46.4528
 30
0.0
 10
73.2658
 20
47.3331
 30
0.0
 10
74.5781
 20
47.6342
 30
0.0
 10
75.7642
 20
47.2303
 30
0.0
 10
75.7642
 20
47.2303
 30
0.0
 10
76.9504
 20
46.8266
 30
0.0
 10
77.8065
 20
45.7872
 30
0.0
 10
77.9758
 20
44.546
 30
0.0
 10
77.9758
 20
44.546
 30
0.0
 10
77.7713
 20
41.6301
 30
0.0
 10
78.7855
 20
38.7603
 30
0.0
 10
80.7766
 20
36.6204
 30
0.0
 10
80.7766
 20
36.6204
 30
0.0
 10
83.5856
 20
34.7547
 30
0.0
 10
87.3592
 20
35.3793
 30
0.0
 10
89.4171
 20
38.0504
 30
0.0
 10
89.4171
 20
38.0504
 30
0.0
 10
88.5393
 20
36.1613
 30
0.0
 10
87.7245
 20
34.2434
 30
0.0
 10
86.974
 20
32.3
 30
0.0
 10
86.974
 20
32.3
 30
0.0
 10
86.2862
 20
32.0505
 30
0.0
 10
85.5235
 20
32.1159
 30
0.0
 10
84.8884
 20
32.4787
 30
0.0
 10
84.8884
 20
32.4787
 30
0.0
 10
85.0991
 20
31.1602
 30
0.0
 10
85.5646
 20
29.8951
 30
0.0
 10
86.2589
 20
28.7544
 30
0.0
 10
86.2589
 20
28.7544
 30
0.0
 10
85.6901
 20
25.8871
 30
0.0
 10
85.3017
 20
22.987
 30
0.0
 10
85.0961
 20
20.0711
 30
0.0
  0
SPLINE
  5
62
330
1F
100
AcDbEntity
  8
layer 1
 62
     7
370
     9
100
AcDbSpline
210
0.0
220
0.0
230
1.0
 70
    11
 71
     3
 72
    16
 73
    12
 74
     0
 42
0.0000000001
 43
0.0000000001
 12
1.0
 22
0.0
 32
0.0
 13
1.0
 23
0.0
 33
0.0
 40
0.0
 40
0.0
 40
0.0
 40
0.0
 40
0.25
 40
0.25
 40
0.25
 40
0.25
 40
0.5
 40
0.5
 40
0.5
 40
0.5
 40
1.0
 40
1.0
 40
1.0
 40
1.0
 10
91.6221
 20
55.4509
 30
0.0
 10
93.4141
 20
52.3725
 30
0.0
 10
93.9275
 20
48.7139
 30
0.0
 10
93.0522
 20
45.2609
 30
0.0
 10
93.0522
 20
45.2609
 30
0.0
 10
95.1452
 20
48.2848
 30
0.0
 10
97.5967
 20
51.044
 30
0.0
 10
100.3532
 20
53.4782
 30
0.0
 10
100.3532
 20
53.4782
 30
0.0
 10
97.3039
 20
53.1376
 30
0.0
 10
94.2286
 20
53.8324
 30
0.0
 10
91.6221
 20
55.4509
 30
0.0
  0
SPLINE
  5
63
330
1F
100
AcDbEntity
  8
layer 1
 62
     7
370
     9
100
AcDbSpline
210
0.0
220
0.0
230
1.0
 70
    11
 71
     3
 72
    32
 73
    28
 74
     0
 42
0.0000000001
 43
0.0000000001
 12
1.0
 22
0.0
 32
0.0
 13
1.0
 23
0.0
 33
0.0
 40
0.0
 40
0.0
 40
0.0
 40
0.0
 40
0.125
 40
0.125
 40
0.125
 40
0.125
 40
0.25
 40
0.25
 40
0.25
 40
0.25
 40
0.375
 40
0.375
 40
0.375
 40
0.375
 40
0.5
 40
0.5
 40
0.5
 40
0.5
 40
0.625
 40
0.625
 40
0.625
 40
0.625
 40
0.75
 40
0.75
 40
0.75
 40
0.75
 40
1.0
 40
1.0
 40
1.0
 40
1.0
 10
68.7392
 20
32.5086
 30
0.0
 10
68.8207
 20
31.3275
 30
0.0
 10
69.4355
 20
30.2477
 30
0.0
 10
70.4097
 20
29.5751
 30
0.0
 10
70.4097
 20
29.5751
 30
0.0
 10
71.3839
 20
28.9024
 30
0.0
 10
72.6115
 20
28.71
 30
0.0
 10
73.7448
 20
29.0523
 30
0.0
 10
73.7448
 20
29.0523
 30
0.0
 10
74.2643
 20
27.7612
 30
0.0
 10
75.4947
 20
26.8965
 30
0.0
 10
76.8854
 20
26.8449
 30
0.0
 10
76.8854
 20
26.8449
 30
0.0
 10
78.2762
 20
26.7936
 30
0.0
 10
79.567
 20
27.5649
 30
0.0
 10
80.1806
 20
28.8139
 30
0.0
 10
80.1806
 20
28.8139
 30
0.0
 10
81.2814
 20
26.0564
 30
0.0
 10
80.19
 20
22.9087
 30
0.0
 10
77.6182
 20
21.4247
 30
0.0
 10
77.6182
 20
21.4247
 30
0.0
 10
75.5814
 20
20.7102
 30
0.0
 10
73.319
 20
21.1175
 30
0.0
 10
71.6591
 20
22.4973
 30
0.0
 10
71.6591
 20
22.4973
 30
0.0
 10
68.9115
 20
25.039
 30
0.0
 10
67.7888
 20
28.8883
 30
0.0
 10
68.7392
 20
32.5086
 30
0.0
  0
SPLINE
  5
64
330
1F
100
AcDbEntity
  8
layer 1
 62
     7
370
     9
100
AcDbSpline
210
0.0
220
0.0
230
1.0
 70
    11
 71
     3
 72
    52
 73
    48
 74
     0
 42
0.0000000001
 43
0.0000000001
 12
1.0
 22
0.0
 32
0.0
 13
1.0
 23
0.0
 33
0.0
 40
0.0
 40
0.0
 40
0.0
 40
0.0
 40
0.0769230769230769
 40
0.0769230769230769
 40
0.0769230769230769
 40
0.0769230769230769
 40
0.1538461538461539
 40
0.1538461538461539
 40
0.1538461538461539
 40
0.1538461538461539
 40
0.2307692307692308
 40
0.2307692307692308
 40
0.2307692307692308
 40
0.2307692307692308
 40
0.3076923076923077
 40
0.3076923076923077
 40
0.3076923076923077
 40
0.3076923076923077
 40
0.3846153846153846
 40
0.3846153846153846
 40
0.3846153846153846
 40
0.3846153846153846
 40
0.4615384615384616
 40
0.4615384615384616
 40
0.4615384615384616
 40
0.4615384615384616
 40
0.5384615384615384
 40
0.5384615384615384
 40
0.5384615384615384
 40
0.5384615384615384
 40
0.6153846153846154
 40
0.6153846153846154
 40
0.6153846153846154
 40
0.6153846153846154
 40
0.6923076923076923
 40
0.6923076923076923
 40
0.6923076923076923
 40
0.6923076923076923
 40
0.7692307692307693
 40
0.7692307692307693
 40
0.7692307692307693
 40
0.7692307692307693
 40
0.8461538461538461
 40
0.8461538461538461
 40
0.8461538461538461
 40
0.8461538461538461
 40
1.0
 40
1.0
 40
1.0
 40
1.0
 10
73.2682
 20
48.9557
 30
0.0
 10
74.081
 20
49.8204
 30
0.0
 10
75.2356
 20
50.2804
 30
0.0
 10
76.4206
 20
50.2113
 30
0.0
 10
76.4206
 20
50.2113
 30
0.0
 10
77.6055
 20
50.1423
 30
0.0
 10
78.6988
 20
49.5515
 30
0.0
 10
79.406
 20
48.598
 30
0.0
 10
79.406
 20
48.598
 30
0.0
 10
80.4012
 20
49.899
 30
0.0
 10
82.115
 20
50.4206
 30
0.0
 10
83.666
 20
49.8946
 30
0.0
 10
83.666
 20
49.8946
 30
0.0
 10
85.2173
 20
49.3684
 30
0.0
 10
86.2604
 20
47.9119
 30
0.0
 10
86.2589
 20
46.2741
 30
0.0
 10
86.2589
 20
46.2741
 30
0.0
 10
86.3486
 20
44.1613
 30
0.0
 10
84.9219
 20
42.2839
 30
0.0
 10
82.8621
 20
41.8048
 30
0.0
 10
82.8621
 20
41.8048
 30
0.0
 10
83.525
 20
40.5926
 30
0.0
 10
85.0405
 20
40.1406
 30
0.0
 10
86.2589
 20
40.7918
 30
0.0
 10
86.2589
 20
40.7918
 30
0.0
 10
88.6691
 20
42.5288
 30
0.0
 10
90.0521
 20
45.3554
 30
0.0
 10
89.9443
 20
48.3243
 30
0.0
 10
89.9443
 20
48.3243
 30
0.0
 10
89.8366
 20
51.2936
 30
0.0
 10
88.2523
 20
54.0123
 30
0.0
 10
85.7225
 20
55.5702
 30
0.0
 10
85.7225
 20
55.5702
 30
0.0
 10
85.4796
 20
54.5921
 30
0.0
 10
84.6873
 20
53.8464
 30
0.0
 10
83.6965
 20
53.6633
 30
0.0
 10
83.6965
 20
53.6633
 30
0.0
 10
83.1746
 20
54.7494
 30
0.0
 10
82.2248
 20
55.5695
 30
0.0
 10
81.0745
 20
55.9277
 30
0.0
 10
81.0745
 20
55.9277
 30
0.0
 10
80.0103
 20
55.8983
 30
0.0
 10
78.9847
 20
55.5217
 30
0.0
 10
78.1545
 20
54.8551
 30
0.0
 10
78.1545
 20
54.8551
 30
0.0
 10
76.0909
 20
53.2934
 30
0.0
 10
74.4183
 20
51.2739
 30
0.0
 10
73.2682
 20
48.9557
 30
0.0
  0
SPLINE
  5
65
330
1F
100
AcDbEntity
  8
layer 1
 62
     7
370
     9
100
AcDbSpline
210
0.0
220
0.0
230
1.0
 70
    11
 71
     3
 72
    20
 73
    16
 74
     0
 42
0.0000000001
 43
0.0000000001
 12
1.0
 22
0.0
 32
0.0
 13
1.0
 23
0.0
 33
0.0
 40
0.0
 40
0.0
 40
0.0
 40
0.0
 40
0.2
 40
0.2
 40
0.2
 40
0.2
 40
0.4
 40
0.4
 40
0.4
 40
0.4
 40
0.6
 40
0.6
 40
0.6
 40
0.6
 40
1.0
 40
1.0
 40
1.0
 40
1.0
 10
82.2662
 20
66.7727
 30
0.0
 10
82.8776
 20
64.6432
 30
0.0
 10
82.5754
 20
62.3549
 30
0.0
 10
81.432
 20
60.4566
 30
0.0
 10
81.432
 20
60.4566
 30
0.0
 10
83.9929
 20
60.9861
 30
0.0
 10
86.6581
 20
60.4011
 30
0.0
 10
88.7616
 20
58.8477
 30
0.0
 10
88.7616
 20
58.8477
 30
0.0
 10
87.4865
 20
61.4327
 30
0.0
 10
86.9504
 20
64.3199
 30
0.0
 10
87.2123
 20
67.1905
 30
0.0
 10
87.2123
 20
67.1905
 30
0.0
 10
85.7552
 20
66.1813
 30
0.0
 10
83.8717
 20
66.0224
 30
0.0
 10
82.2662
 20
66.7727
 30
0.0
  0
SPLINE
  5
66
330
1F
100
AcDbEntity
  8
layer 1
 62
     7
370
     9
100
AcDbSpline
210
0.0
220
0.0
230
1.0
 70
    11
 71
     3
 72
    72
 73
    68
 74
     0
 42
0.0000000001
 43
0.0000000001
 12
1.0
 22
0.0
 32
0.0
 13
1.0
 23
0.0
 33
0.0
 40
0.0
 40
0.0
 40
0.0
 40
0.0
 40
0.0555555555555556
 40
0.0555555555555556
 40
0.0555555555555556
 40
0.0555555555555556
 40
0.1111111111111111
 40
0.1111111111111111
 40
0.1111111111111111
 40
0.1111111111111111
 40
0.1666666666666667
 40
0.1666666666666667
 40
0.1666666666666667
 40
0.1666666666666667
 40
0.2222222222222222
 40
0.2222222222222222
 40
0.2222222222222222
 40
0.2222222222222222
 40
0.2777777777777778
 40
0.2777777777777778
 40
0.2777777777777778
 40
0.2777777777777778
 40
0.3333333333333333
 40
0.3333333333333333
 40
0.3333333333333333
 40
0.3333333333333333
 40
0.3888888888888889
 40
0.3888888888888889
 40
0.3888888888888889
 40
0.3888888888888889
 40
0.4444444444444444
 40
0.4444444444444444
 40
0.4444444444444444
 40
0.4444444444444444
 40
0.5
 40
0.5
 40
0.5
 40
0.5
 40
0.5555555555555556
 40
0.5555555555555556
 40
0.5555555555555556
 40
0.5555555555555556
 40
0.6111111111111112
 40
0.6111111111111112
 40
0.6111111111111112
 40
0.6111111111111112
 40
0.6666666666666666
 40
0.6666666666666666
 40
0.6666666666666666
 40
0.6666666666666666
 40
0.7222222222222222
 40
0.7222222222222222
 40
0.7222222222222222
 40
0.7222222222222222
 40
0.7777777777777778
 40
0.7777777777777778
 40
0.7777777777777778
 40
0.7777777777777778
 40
0.8333333333333334
 40
0.8333333333333334
 40
0.8333333333333334
 40
0.8333333333333334
 40
0.8888888888888888
 40
0.8888888888888888
 40
0.8888888888888888
 40
0.8888888888888888
 40
1.0
 40
1.0
 40
1.0
 40
1.0
 10
124.5161
 20
88.5842
 30
0.0
 10
124.5161
 20
88.5842
 30
0.0
 10
124.4863
 20
88.5825
 30
0.0
 10
124.4863
 20
88.5825
 30
0.0
 10
124.4863
 20
88.5825
 30
0.0
 10
119.8784
 20
88.3943
 30
0.0
 10
115.3073
 20
87.6792
 30
0.0
 10
110.8626
 20
86.4488
 30
0.0
 10
110.8626
 20
86.4488
 30
0.0
 10
114.0102
 20
87.0268
 30
0.0
 10
117.2551
 20
86.2291
 30
0.0
 10
119.7747
 20
84.2556
 30
0.0
 10
119.7747
 20
84.2556
 30
0.0
 10
122.2944
 20
82.282
 30
0.0
 10
123.847
 20
79.3241
 30
0.0
 10
124.0394
 20
76.1285
 30
0.0
 10
124.0394
 20
76.1285
 30
0.0
 10
124.3206
 20
73.24
 30
0.0
 10
123.9332
 20
70.3234
 30
0.0
 10
122.9071
 20
67.6084
 30
0.0
 10
122.9071
 20
67.6084
 30
0.0
 10
122.3568
 20
66.1984
 30
0.0
 10
122.3816
 20
64.6297
 30
0.0
 10
122.9756
 20
63.2385
 30
0.0
 10
122.9756
 20
63.2385
 30
0.0
 10
123.4782
 20
63.308
 30
0.0
 10
123.9817
 20
63.3687
 30
0.0
 10
124.4863
 20
63.4209
 30
0.0
 10
124.4863
 20
63.4209
 30
0.0
 10
124.536
 20
63.4262
 30
0.0
 10
124.5857
 20
63.4312
 30
0.0
 10
124.6354
 20
63.4361
 30
0.0
 10
124.6354
 20
63.4361
 30
0.0
 10
124.6849
 20
63.4312
 30
0.0
 10
124.7347
 20
63.4262
 30
0.0
 10
124.7842
 20
63.4209
 30
0.0
 10
124.7842
 20
63.4209
 30
0.0
 10
125.2889
 20
63.3687
 30
0.0
 10
125.7924
 20
63.308
 30
0.0
 10
126.2948
 20
63.2385
 30
0.0
 10
126.2948
 20
63.2385
 30
0.0
 10
126.889
 20
64.6297
 30
0.0
 10
126.9136
 20
66.1984
 30
0.0
 10
126.3633
 20
67.6084
 30
0.0
 10
126.3633
 20
67.6084
 30
0.0
 10
125.3373
 20
70.3234
 30
0.0
 10
124.95
 20
73.24
 30
0.0
 10
125.2313
 20
76.1285
 30
0.0
 10
125.2313
 20
76.1285
 30
0.0
 10
125.4235
 20
79.3241
 30
0.0
 10
126.9762
 20
82.282
 30
0.0
 10
129.4959
 20
84.2556
 30
0.0
 10
129.4959
 20
84.2556
 30
0.0
 10
132.0155
 20
86.2291
 30
0.0
 10
135.2602
 20
87.0268
 30
0.0
 10
138.4078
 20
86.4488
 30
0.0
 10
138.4078
 20
86.4488
 30
0.0
 10
133.9633
 20
87.6792
 30
0.0
 10
129.392
 20
88.3943
 30
0.0
 10
124.7842
 20
88.5825
 30
0.0
 10
124.7842
 20
88.5825
 30
0.0
 10
124.7842
 20
88.5825
 30
0.0
 10
124.7545
 20
88.5842
 30
0.0
 10
124.7545
 20
88.5842
 30
0.0
 10
124.7545
 20
88.5842
 30
0.0
 10
124.6753
 20
88.5941
 30
0.0
 10
124.5952
 20
88.5941
 30
0.0
 10
124.5161
 20
88.5842
 30
0.0
  0
SPLINE
  5
67
330
1F
100
AcDbEntity
  8
layer 1
 62
     7
370
     9
100
AcDbSpline
210
0.0
220
0.0
230
1.0
 70
    11
 71
     3
 72
    16
 73
    12
 74
     0
 42
0.0000000001
 43
0.0000000001
 12
1.0
 22
0.0
 32
0.0
 13
1.0
 23
0.0
 33
0.0
 40
0.0
 40
0.0
 40
0.0
 40
0.0
 40
0.25
 40
0.25
 40
0.25
 40
0.25
 40
0.5
 40
0.5
 40
0.5
 40
0.5
 40
1.0
 40
1.0
 40
1.0
 40
1.0
 10
94.4825
 20
79.2878
 30
0.0
 10
91.7558
 20
76.0096
 30
0.0
 10
88.9136
 20
72.8288
 30
0.0
 10
85.961
 20
69.752
 30
0.0
 10
85.961
 20
69.752
 30
0.0
 10
84.8236
 20
68.9857
 30
0.0
 10
83.4509
 20
68.6488
 30
0.0
 10
82.0875
 20
68.7991
 30
0.0
 10
82.0875
 20
68.7991
 30
0.0
 10
85.8294
 20
72.7313
 30
0.0
 10
89.9852
 20
76.2474
 30
0.0
 10
94.4825
 20
79.2878
 30
0.0
  0
SPLINE
  5
68
330
1F
100
AcDbEntity
  8
layer 1
 62
     7
370
     9
100
AcDbSpline
210
0.0
220
0.0
230
1.0
 70
    11
 71
     3
 72
    16
 73
    12
 74
     0
 42
0.0000000001
 43
0.0000000001
 12
1.0
 22
0.0
 32
0.0
 13
1.0
 23
0.0
 33
0.0
 40
0.0
 40
0.0
 40
0.0
 40
0.0
 40
0.25
 40
0.25
 40
0.25
 40
0.25
 40
0.5
 40
0.5
 40
0.5
 40
0.5
 40
1.0
 40
1.0
 40
1.0
 40
1.0
 10
72.1131
 20
52.7971
 30
0.0
 10
74.9261
 20
56.0015
 30
0.0
 10
77.624
 20
59.3051
 30
0.0
 10
80.202
 20
62.7014
 30
0.0
 10
80.202
 20
62.7014
 30
0.0
 10
80.782
 20
63.9443
 30
0.0
 10
80.9016
 20
65.3529
 30
0.0
 10
80.5396
 20
66.6752
 30
0.0
 10
80.5396
 20
66.6752
 30
0.0
 10
77.2392
 20
62.3666
 30
0.0
 10
74.414
 20
57.7133
 30
0.0
 10
72.1131
 20
52.7971
 30
0.0
  0
SPLINE
  5
69
330
1F
100
AcDbEntity
  8
layer 1
 62
     7
370
     9
100
AcDbSpline
210
0.0
220
0.0
230
1.0
 70
    11
 71
     3
 72
    80
 73
    76
 74
     0
 42
0.0000000001
 43
0.0000000001
 12
1.0
 22
0.0
 32
0.0
 13
1.0
 23
0.0
 33
0.0
 40
0.0
 40
0.0
 40
0.0
 40
0.0
 40
0.05
 40
0.05
 40
0.05
 40
0.05
 40
0.1
 40
0.1
 40
0.1
 40
0.1
 40
0.15
 40
0.15
 40
0.15
 40
0.15
 40
0.2
 40
0.2
 40
0.2
 40
0.2
 40
0.25
 40
0.25
 40
0.25
 40
0.25
 40
0.3
 40
0.3
 40
0.3
 40
0.3
 40
0.35
 40
0.35
 40
0.35
 40
0.35
 40
0.4
 40
0.4
 40
0.4
 40
0.4
 40
0.45
 40
0.45
 40
0.45
 40
0.45
 40
0.5
 40
0.5
 40
0.5
 40
0.5
 40
0.55
 40
0.55
 40
0.55
 40
0.55
 40
0.6
 40
0.6
 40
0.6
 40
0.6
 40
0.65
 40
0.65
 40
0.65
 40
0.65
 40
0.7
 40
0.7
 40
0.7
 40
0.7
 40
0.75
 40
0.75
 40
0.75
 40
0.75
 40
0.8
 40
0.8
 40
0.8
 40
0.8
 40
0.85
 40
0.85
 40
0.85
 40
0.85
 40
0.9
 40
0.9
 40
0.9
 40
0.9
 40
1.0
 40
1.0
 40
1.0
 40
1.0
 10
121.1789
 20
63.1382
 30
0.0
 10
120.7755
 20
64.0969
 30
0.0
 10
120.1885
 20
64.9672
 30
0.0
 10
119.451
 20
65.7007
 30
0.0
 10
119.451
 20
65.7007
 30
0.0
 10
116.2921
 20
64.6145
 30
0.0
 10
112.8121
 20
65.0085
 30
0.0
 10
109.9759
 20
66.7727
 30
0.0
 10
109.9759
 20
66.7727
 30
0.0
 10
107.6817
 20
68.9494
 30
0.0
 10
106.9702
 20
72.3168
 30
0.0
 10
108.1883
 20
75.235
 30
0.0
 10
108.1883
 20
75.235
 30
0.0
 10
108.7219
 20
75.9831
 30
0.0
 10
109.4137
 20
76.6024
 30
0.0
 10
110.2144
 20
77.0533
 30
0.0
 10
110.2144
 20
77.0533
 30
0.0
 10
111.4202
 20
77.8593
 30
0.0
 10
111.7863
 20
79.4678
 30
0.0
 10
111.0486
 20
80.718
 30
0.0
 10
111.0486
 20
80.718
 30
0.0
 10
110.5796
 20
81.3373
 30
0.0
 10
109.9792
 20
81.846
 30
0.0
 10
109.2907
 20
82.2077
 30
0.0
 10
109.2907
 20
82.2077
 30
0.0
 10
106.3286
 20
81.4612
 30
0.0
 10
104.2534
 20
78.7956
 30
0.0
 10
104.2553
 20
75.742
 30
0.0
 10
104.2553
 20
75.742
 30
0.0
 10
103.0003
 20
76.5232
 30
0.0
 10
102.3232
 20
77.9716
 30
0.0
 10
102.5271
 20
79.4364
 30
0.0
 10
102.5271
 20
79.4364
 30
0.0
 10
101.3045
 20
79.1821
 30
0.0
 10
100.1353
 20
78.718
 30
0.0
 10
99.0708
 20
78.0657
 30
0.0
 10
99.0708
 20
78.0657
 30
0.0
 10
98.7143
 20
76.9162
 30
0.0
 10
98.5237
 20
75.7222
 30
0.0
 10
98.5047
 20
74.5199
 30
0.0
 10
98.5047
 20
74.5199
 30
0.0
 10
98.5348
 20
73.098
 30
0.0
 10
99.6216
 20
71.9204
 30
0.0
 10
101.0373
 20
71.7784
 30
0.0
 10
101.0373
 20
71.7784
 30
0.0
 10
102.4647
 20
71.7355
 30
0.0
 10
103.8746
 20
71.453
 30
0.0
 10
105.2087
 20
70.9444
 30
0.0
 10
105.2087
 20
70.9444
 30
0.0
 10
107.659
 20
69.6595
 30
0.0
 10
108.9963
 20
66.9362
 30
0.0
 10
108.516
 20
64.2108
 30
0.0
 10
108.516
 20
64.2108
 30
0.0
 10
108.1482
 20
61.9422
 30
0.0
 10
107.3366
 20
59.7685
 30
0.0
 10
106.1281
 20
57.8137
 30
0.0
 10
106.1281
 20
57.8137
 30
0.0
 10
106.2908
 20
57.9317
 30
0.0
 10
106.4615
 20
58.0382
 30
0.0
 10
106.6389
 20
58.1326
 30
0.0
 10
106.6389
 20
58.1326
 30
0.0
 10
107.9936
 20
59.1103
 30
0.0
 10
109.446
 20
59.9452
 30
0.0
 10
110.9726
 20
60.6238
 30
0.0
 10
110.9726
 20
60.6238
 30
0.0
 10
111.4756
 20
61.4976
 30
0.0
 10
111.424
 20
62.5843
 30
0.0
 10
110.84
 20
63.4064
 30
0.0
 10
110.84
 20
63.4064
 30
0.0
 10
112.2208
 20
63.41
 30
0.0
 10
113.5552
 20
62.9078
 30
0.0
 10
114.5907
 20
61.9944
 30
0.0
 10
114.5907
 20
61.9944
 30
0.0
 10
116.7635
 20
62.5002
 30
0.0
 10
118.963
 20
62.8822
 30
0.0
 10
121.1789
 20
63.1382
 30
0.0
  0
SPLINE
  5
6A
330
1F
100
AcDbEntity
  8
layer 1
 62
     7
370
     9
100
AcDbSpline
210
0.0
220
0.0
230
1.0
 70
    11
 71
     3
 72
    44
 73
    40
 74
     0
 42
0.0000000001
 43
0.0000000001
 12
1.0
 22
0.0
 32
0.0
 13
1.0
 23
0.0
 33
0.0
 40
0.0
 40
0.0
 40
0.0
 40
0.0
 40
0.0909090909090909
 40
0.0909090909090909
 40
0.0909090909090909
 40
0.0909090909090909
 40
0.1818181818181818
 40
0.1818181818181818
 40
0.1818181818181818
 40
0.1818181818181818
 40
0.2727272727272727
 40
0.2727272727272727
 40
0.2727272727272727
 40
0.2727272727272727
 40
0.3636363636363636
 40
0.3636363636363636
 40
0.3636363636363636
 40
0.3636363636363636
 40
0.4545454545454545
 40
0.4545454545454545
 40
0.4545454545454545
 40
0.4545454545454545
 40
0.5454545454545454
 40
0.5454545454545454
 40
0.5454545454545454
 40
0.5454545454545454
 40
0.6363636363636364
 40
0.6363636363636364
 40
0.6363636363636364
 40
0.6363636363636364
 40
0.7272727272727273
 40
0.7272727272727273
 40
0.7272727272727273
 40
0.7272727272727273
 40
0.8181818181818182
 40
0.8181818181818182
 40
0.8181818181818182
 40
0.8181818181818182
 40
1.0
 40
1.0
 40
1.0
 40
1.0
 10
97.1341
 20
76.9328
 30
0.0
 10
95.6027
 20
74.8849
 30
0.0
 10
95.7662
 20
72.0311
 30
0.0
 10
97.5216
 20
70.1699
 30
0.0
 10
97.5216
 20
70.1699
 30
0.0
 10
95.909
 20
68.3532
 30
0.0
 10
95.656
 20
65.7033
 30
0.0
 10
96.8958
 20
63.615
 30
0.0
 10
96.8958
 20
63.615
 30
0.0
 10
97.9465
 20
62.1958
 30
0.0
 10
99.8437
 20
61.6999
 30
0.0
 10
101.4544
 20
62.4231
 30
0.0
 10
101.4544
 20
62.4231
 30
0.0
 10
102.6594
 20
63.1702
 30
0.0
 10
103.2946
 20
64.5702
 30
0.0
 10
103.0634
 20
65.9687
 30
0.0
 10
103.0634
 20
65.9687
 30
0.0
 10
104.4383
 20
64.4891
 30
0.0
 10
104.5391
 20
62.2317
 30
0.0
 10
103.3018
 20
60.6355
 30
0.0
 10
103.3018
 20
60.6355
 30
0.0
 10
102.2604
 20
58.7757
 30
0.0
 10
100.3356
 20
57.5825
 30
0.0
 10
98.2068
 20
57.4771
 30
0.0
 10
98.2068
 20
57.4771
 30
0.0
 10
94.9931
 20
57.4307
 30
0.0
 10
92.2242
 20
59.7318
 30
0.0
 10
91.6817
 20
62.8999
 30
0.0
 10
91.6817
 20
62.8999
 30
0.0
 10
92.5208
 20
63.3043
 30
0.0
 10
93.1411
 20
64.0553
 30
0.0
 10
93.3799
 20
64.9557
 30
0.0
 10
93.3799
 20
64.9557
 30
0.0
 10
92.2884
 20
65.4436
 30
0.0
 10
91.5629
 20
66.5035
 30
0.0
 10
91.5028
 20
67.6975
 30
0.0
 10
91.5028
 20
67.6975
 30
0.0
 10
91.5707
 20
71.567
 30
0.0
 10
93.7243
 20
75.0996
 30
0.0
 10
97.1341
 20
76.9328
 30
0.0
  0
SPLINE
  5
6B
330
1F
100
AcDbEntity
  8
layer 1
 62
     7
370
     9
100
AcDbSpline
210
0.0
220
0.0
230
1.0
 70
    11
 71
     3
 72
    28
 73
    24
 74
     0
 42
0.0000000001
 43
0.0000000001
 12
1.0
 22
0.0
 32
0.0
 13
1.0
 23
0.0
 33
0.0
 40
0.0
 40
0.0
 40
0.0
 40
0.0
 40
0.1428571428571428
 40
0.1428571428571428
 40
0.1428571428571428
 40
0.1428571428571428
 40
0.2857142857142857
 40
0.2857142857142857
 40
0.2857142857142857
 40
0.2857142857142857
 40
0.4285714285714285
 40
0.4285714285714285
 40
0.4285714285714285
 40
0.4285714285714285
 40
0.5714285714285714
 40
0.5714285714285714
 40
0.5714285714285714
 40
0.5714285714285714
 40
0.7142857142857143
 40
0.7142857142857143
 40
0.7142857142857143
 40
0.7142857142857143
 40
1.0
 40
1.0
 40
1.0
 40
1.0
 10
113.909
 20
76.9625
 30
0.0
 10
115.306
 20
76.1186
 30
0.0
 10
116.1595
 20
74.6041
 30
0.0
 10
116.1595
 20
72.9708
 30
0.0
 10
116.1595
 20
72.9708
 30
0.0
 10
116.1595
 20
71.3374
 30
0.0
 10
115.306
 20
69.823
 30
0.0
 10
113.909
 20
68.9774
 30
0.0
 10
113.909
 20
68.9774
 30
0.0
 10
115.7615
 20
68.5282
 30
0.0
 10
117.7176
 20
68.9576
 30
0.0
 10
119.2125
 20
70.1401
 30
0.0
 10
119.2125
 20
70.1401
 30
0.0
 10
121.0133
 20
72.2127
 30
0.0
 10
121.4546
 20
75.1376
 30
0.0
 10
120.3448
 20
77.6479
 30
0.0
 10
120.3448
 20
77.6479
 30
0.0
 10
118.9291
 20
81.3192
 30
0.0
 10
115.0913
 20
83.4513
 30
0.0
 10
111.2274
 20
82.713
 30
0.0
 10
111.2274
 20
82.713
 30
0.0
 10
113.344
 20
81.6478
 30
0.0
 10
114.4532
 20
79.2696
 30
0.0
 10
113.909
 20
76.9625
 30
0.0
  0
SPLINE
  5
6C
330
1F
100
AcDbEntity
  8
layer 1
 62
     7
370
     9
100
AcDbSpline
210
0.0
220
0.0
230
1.0
 70
    11
 71
     3
 72
    32
 73
    28
 74
     0
 42
0.0000000001
 43
0.0000000001
 12
1.0
 22
0.0
 32
0.0
 13
1.0
 23
0.0
 33
0.0
 40
0.0
 40
0.0
 40
0.0
 40
0.0
 40
0.125
 40
0.125
 40
0.125
 40
0.125
 40
0.25
 40
0.25
 40
0.25
 40
0.25
 40
0.375
 40
0.375
 40
0.375
 40
0.375
 40
0.5
 40
0.5
 40
0.5
 40
0.5
 40
0.625
 40
0.625
 40
0.625
 40
0.625
 40
0.75
 40
0.75
 40
0.75
 40
0.75
 40
1.0
 40
1.0
 40
1.0
 40
1.0
 10
71.9572
 20
104.077
 30
0.0
 10
70.4525
 20
104.944
 30
0.0
 10
69.5504
 20
106.5724
 30
0.0
 10
69.6129
 20
108.3081
 30
0.0
 10
69.6129
 20
108.3081
 30
0.0
 10
69.6753
 20
110.0439
 30
0.0
 10
70.692
 20
111.6029
 30
0.0
 10
72.2551
 20
112.361
 30
0.0
 10
72.2551
 20
112.361
 30
0.0
 10
71.9289
 20
114.2668
 30
0.0
 10
72.9
 20
116.1611
 30
0.0
 10
74.6388
 20
117.0083
 30
0.0
 10
74.6388
 20
117.0083
 30
0.0
 10
72.5879
 20
117.1867
 30
0.0
 10
70.5534
 20
116.5162
 30
0.0
 10
69.0105
 20
115.1537
 30
0.0
 10
69.0105
 20
115.1537
 30
0.0
 10
67.4675
 20
113.7911
 30
0.0
 10
66.551
 20
111.8556
 30
0.0
 10
66.4748
 20
109.7978
 30
0.0
 10
66.4748
 20
109.7978
 30
0.0
 10
66.314
 20
108.2784
 30
0.0
 10
66.8307
 20
106.7673
 30
0.0
 10
67.8874
 20
105.6641
 30
0.0
 10
67.8874
 20
105.6641
 30
0.0
 10
68.944
 20
104.5609
 30
0.0
 10
70.433
 20
103.9812
 30
0.0
 10
71.9572
 20
104.077
 30
0.0
  0
SPLINE
  5
6D
330
1F
100
AcDbEntity
  8
layer 1
 62
     7
370
     9
100
AcDbSpline
210
0.0
220
0.0
230
1.0
 70
    11
 71
     3
 72
    40
 73
    36
 74
     0
 42
0.0000000001
 43
0.0000000001
 12
1.0
 22
0.0
 32
0.0
 13
1.0
 23
0.0
 33
0.0
 40
0.0
 40
0.0
 40
0.0
 40
0.0
 40
0.1
 40
0.1
 40
0.1
 40
0.1
 40
0.2
 40
0.2
 40
0.2
 40
0.2
 40
0.3
 40
0.3
 40
0.3
 40
0.3
 40
0.4
 40
0.4
 40
0.4
 40
0.4
 40
0.5
 40
0.5
 40
0.5
 40
0.5
 40
0.6
 40
0.6
 40
0.6
 40
0.6
 40
0.7
 40
0.7
 40
0.7
 40
0.7
 40
0.8
 40
0.8
 40
0.8
 40
0.8
 40
1.0
 40
1.0
 40
1.0
 40
1.0
 10
76.486
 20
116.2932
 30
0.0
 10
75.7867
 20
116.2106
 30
0.0
 10
75.1676
 20
115.8011
 30
0.0
 10
74.8156
 20
115.1916
 30
0.0
 10
74.8156
 20
115.1916
 30
0.0
 10
74.4637
 20
114.5823
 30
0.0
 10
74.4202
 20
113.8407
 30
0.0
 10
74.6984
 20
113.195
 30
0.0
 10
74.6984
 20
113.195
 30
0.0
 10
75.0437
 20
112.432
 30
0.0
 10
75.6918
 20
111.849
 30
0.0
 10
76.486
 20
111.5847
 30
0.0
 10
76.486
 20
111.5847
 30
0.0
 10
78.5603
 20
109.342
 30
0.0
 10
79.1768
 20
106.1149
 30
0.0
 10
78.0749
 20
103.2644
 30
0.0
 10
78.0749
 20
103.2644
 30
0.0
 10
76.9732
 20
100.4156
 30
0.0
 10
74.3453
 20
98.442
 30
0.0
 10
71.3015
 20
98.1778
 30
0.0
 10
71.3015
 20
98.1778
 30
0.0
 10
74.2645
 20
96.2241
 30
0.0
 10
75.9666
 20
92.8418
 30
0.0
 10
75.771
 20
89.2993
 30
0.0
 10
75.771
 20
89.2993
 30
0.0
 10
77.9911
 20
91.7501
 30
0.0
 10
78.3079
 20
95.3785
 30
0.0
 10
76.5456
 20
98.1778
 30
0.0
 10
76.5456
 20
98.1778
 30
0.0
 10
77.6361
 20
98.5593
 30
0.0
 10
78.8405
 20
98.4272
 30
0.0
 10
79.8232
 20
97.8194
 30
0.0
 10
79.8232
 20
97.8194
 30
0.0
 10
83.4097
 20
103.9597
 30
0.0
 10
81.9942
 20
111.7961
 30
0.0
 10
76.486
 20
116.2932
 30
0.0
  0
SPLINE
  5
6E
330
1F
100
AcDbEntity
  8
layer 1
 62
     7
370
     9
100
AcDbSpline
210
0.0
220
0.0
230
1.0
 70
    11
 71
     3
 72
    32
 73
    28
 74
     0
 42
0.0000000001
 43
0.0000000001
 12
1.0
 22
0.0
 32
0.0
 13
1.0
 23
0.0
 33
0.0
 40
0.0
 40
0.0
 40
0.0
 40
0.0
 40
0.125
 40
0.125
 40
0.125
 40
0.125
 40
0.25
 40
0.25
 40
0.25
 40
0.25
 40
0.375
 40
0.375
 40
0.375
 40
0.375
 40
0.5
 40
0.5
 40
0.5
 40
0.5
 40
0.625
 40
0.625
 40
0.625
 40
0.625
 40
0.75
 40
0.75
 40
0.75
 40
0.75
 40
1.0
 40
1.0
 40
1.0
 40
1.0
 10
73.8939
 20
70.3482
 30
0.0
 10
73.8904
 20
68.1599
 30
0.0
 10
73.5659
 20
65.9844
 30
0.0
 10
72.9306
 20
63.8904
 30
0.0
 10
72.9306
 20
63.8904
 30
0.0
 10
68.1984
 20
57.1072
 30
0.0
 10
64.534
 20
49.6388
 30
0.0
 10
62.065
 20
41.7452
 30
0.0
 10
62.065
 20
41.7452
 30
0.0
 10
64.0334
 20
51.8514
 30
0.0
 10
67.2758
 20
61.6674
 30
0.0
 10
71.7144
 20
70.9576
 30
0.0
 10
71.7144
 20
70.9576
 30
0.0
 10
73.1395
 20
72.4968
 30
0.0
 10
74.8785
 20
73.7107
 30
0.0
 10
76.8138
 20
74.5199
 30
0.0
 10
76.8138
 20
74.5199
 30
0.0
 10
78.2414
 20
75.0864
 30
0.0
 10
79.8691
 20
74.7511
 30
0.0
 10
80.9571
 20
73.6677
 30
0.0
 10
80.9571
 20
73.6677
 30
0.0
 10
79.4203
 20
72.079
 30
0.0
 10
77.9546
 20
70.4241
 30
0.0
 10
76.5646
 20
68.7066
 30
0.0
 10
76.5646
 20
68.7066
 30
0.0
 10
75.867
 20
69.5191
 30
0.0
 10
74.9334
 20
70.0922
 30
0.0
 10
73.8939
 20
70.3482
 30
0.0
  0
SPLINE
  5
6F
330
1F
100
AcDbEntity
  8
layer 1
 62
     7
370
     9
100
AcDbSpline
210
0.0
220
0.0
230
1.0
 70
    11
 71
     3
 72
    52
 73
    48
 74
     0
 42
0.0000000001
 43
0.0000000001
 12
1.0
 22
0.0
 32
0.0
 13
1.0
 23
0.0
 33
0.0
 40
0.0
 40
0.0
 40
0.0
 40
0.0
 40
0.0769230769230769
 40
0.0769230769230769
 40
0.0769230769230769
 40
0.0769230769230769
 40
0.1538461538461539
 40
0.1538461538461539
 40
0.1538461538461539
 40
0.1538461538461539
 40
0.2307692307692308
 40
0.2307692307692308
 40
0.2307692307692308
 40
0.2307692307692308
 40
0.3076923076923077
 40
0.3076923076923077
 40
0.3076923076923077
 40
0.3076923076923077
 40
0.3846153846153846
 40
0.3846153846153846
 40
0.3846153846153846
 40
0.3846153846153846
 40
0.4615384615384616
 40
0.4615384615384616
 40
0.4615384615384616
 40
0.4615384615384616
 40
0.5384615384615384
 40
0.5384615384615384
 40
0.5384615384615384
 40
0.5384615384615384
 40
0.6153846153846154
 40
0.6153846153846154
 40
0.6153846153846154
 40
0.6153846153846154
 40
0.6923076923076923
 40
0.6923076923076923
 40
0.6923076923076923
 40
0.6923076923076923
 40
0.7692307692307693
 40
0.7692307692307693
 40
0.7692307692307693
 40
0.7692307692307693
 40
0.8461538461538461
 40
0.8461538461538461
 40
0.8461538461538461
 40
0.8461538461538461
 40
1.0
 40
1.0
 40
1.0
 40
1.0
 10
81.4908
 20
74.2177
 30
0.0
 10
80.5432
 20
76.7379
 30
0.0
 10
77.977
 20
78.2672
 30
0.0
 10
75.3094
 20
77.9006
 30
0.0
 10
75.3094
 20
77.9006
 30
0.0
 10
75.9269
 20
78.9757
 30
0.0
 10
76.5486
 20
80.0475
 30
0.0
 10
77.1738
 20
81.1177
 30
0.0
 10
77.1738
 20
81.1177
 30
0.0
 10
78.1593
 20
82.7593
 30
0.0
 10
79.1834
 20
84.3794
 30
0.0
 10
80.2451
 20
85.9731
 30
0.0
 10
80.2451
 20
85.9731
 30
0.0
 10
81.2677
 20
86.8798
 30
0.0
 10
82.362
 20
87.7039
 30
0.0
 10
83.5178
 20
88.4339
 30
0.0
 10
83.5178
 20
88.4339
 30
0.0
 10
85.1888
 20
89.3439
 30
0.0
 10
87.2539
 20
89.0796
 30
0.0
 10
88.6425
 20
87.7782
 30
0.0
 10
88.6425
 20
87.7782
 30
0.0
 10
90.1377
 20
86.1548
 30
0.0
 10
92.3916
 20
85.4595
 30
0.0
 10
94.5419
 20
85.9616
 30
0.0
 10
94.5419
 20
85.9616
 30
0.0
 10
94.7244
 20
85.7568
 30
0.0
 10
94.899
 20
85.5437
 30
0.0
 10
95.0656
 20
85.3258
 30
0.0
 10
95.0656
 20
85.3258
 30
0.0
 10
94.9505
 20
85.2597
 30
0.0
 10
94.8355
 20
85.1936
 30
0.0
 10
94.7208
 20
85.1275
 30
0.0
 10
94.7208
 20
85.1275
 30
0.0
 10
92.4975
 20
83.6593
 30
0.0
 10
90.348
 20
82.0838
 30
0.0
 10
88.2802
 20
80.4042
 30
0.0
 10
88.2802
 20
80.4042
 30
0.0
 10
87.3864
 20
81.9897
 30
0.0
 10
85.7255
 20
82.9921
 30
0.0
 10
83.905
 20
83.0417
 30
0.0
 10
83.905
 20
83.0417
 30
0.0
 10
84.3756
 20
80.2688
 30
0.0
 10
83.8064
 20
77.4183
 30
0.0
 10
82.307
 20
75.0385
 30
0.0
 10
82.307
 20
75.0385
 30
0.0
 10
82.0331
 20
74.7676
 30
0.0
 10
81.7609
 20
74.4935
 30
0.0
 10
81.4908
 20
74.2177
 30
0.0
  0
SPLINE
  5
70
330
1F
100
AcDbEntity
  8
layer 1
 62
     7
370
     9
100
AcDbSpline
210
0.0
220
0.0
230
1.0
 70
    11
 71
     3
 72
    88
 73
    84
 74
     0
 42
0.0000000001
 43
0.0000000001
 12
1.0
 22
0.0
 32
0.0
 13
1.0
 23
0.0
 33
0.0
 40
0.0
 40
0.0
 40
0.0
 40
0.0
 40
0.0454545454545455
 40
0.0454545454545455
 40
0.0454545454545455
 40
0.0454545454545455
 40
0.0909090909090909
 40
0.0909090909090909
 40
0.0909090909090909
 40
0.0909090909090909
 40
0.1363636363636364
 40
0.1363636363636364
 40
0.1363636363636364
 40
0.1363636363636364
 40
0.1818181818181818
 40
0.1818181818181818
 40
0.1818181818181818
 40
0.1818181818181818
 40
0.2272727272727273
 40
0.2272727272727273
 40
0.2272727272727273
 40
0.2272727272727273
 40
0.2727272727272727
 40
0.2727272727272727
 40
0.2727272727272727
 40
0.2727272727272727
 40
0.3181818181818182
 40
0.3181818181818182
 40
0.3181818181818182
 40
0.3181818181818182
 40
0.3636363636363636
 40
0.3636363636363636
 40
0.3636363636363636
 40
0.3636363636363636
 40
0.4090909090909091
 40
0.4090909090909091
 40
0.4090909090909091
 40
0.4090909090909091
 40
0.4545454545454545
 40
0.4545454545454545
 40
0.4545454545454545
 40
0.4545454545454545
 40
0.5
 40
0.5
 40
0.5
 40
0.5
 40
0.5454545454545454
 40
0.5454545454545454
 40
0.5454545454545454
 40
0.5454545454545454
 40
0.5909090909090909
 40
0.5909090909090909
 40
0.5909090909090909
 40
0.5909090909090909
 40
0.6363636363636364
 40
0.6363636363636364
 40
0.6363636363636364
 40
0.6363636363636364
 40
0.6818181818181818
 40
0.6818181818181818
 40
0.6818181818181818
 40
0.6818181818181818
 40
0.7272727272727273
 40
0.7272727272727273
 40
0.7272727272727273
 40
0.7272727272727273
 40
0.7727272727272727
 40
0.7727272727272727
 40
0.7727272727272727
 40
0.7727272727272727
 40
0.8181818181818182
 40
0.8181818181818182
 40
0.8181818181818182
 40
0.8181818181818182
 40
0.8636363636363636
 40
0.8636363636363636
 40
0.8636363636363636
 40
0.8636363636363636
 40
0.9090909090909091
 40
0.9090909090909091
 40
0.9090909090909091
 40
0.9090909090909091
 40
1.0
 40
1.0
 40
1.0
 40
1.0
 10
98.5346
 20
95.4363
 30
0.0
 10
99.3643
 20
92.8252
 30
0.0
 10
98.7775
 20
89.9698
 30
0.0
 10
96.9852
 20
87.8988
 30
0.0
 10
96.9852
 20
87.8988
 30
0.0
 10
97.0119
 20
87.438
 30
0.0
 10
97.1521
 20
86.9905
 30
0.0
 10
97.3934
 20
86.5974
 30
0.0
 10
97.3934
 20
86.5974
 30
0.0
 10
99.3134
 20
87.5801
 30
0.0
 10
101.2728
 20
88.4818
 30
0.0
 10
103.2665
 20
89.3042
 30
0.0
 10
103.2665
 20
89.3042
 30
0.0
 10
102.6196
 20
91.5701
 30
0.0
 10
102.9339
 20
94.0044
 30
0.0
 10
104.1354
 20
96.0308
 30
0.0
 10
104.1354
 20
96.0308
 30
0.0
 10
105.3368
 20
98.0589
 30
0.0
 10
107.3198
 20
99.5039
 30
0.0
 10
109.6184
 20
100.0242
 30
0.0
 10
109.6184
 20
100.0242
 30
0.0
 10
109.4541
 20
101.0976
 30
0.0
 10
109.5148
 20
102.1943
 30
0.0
 10
109.7972
 20
103.243
 30
0.0
 10
109.7972
 20
103.243
 30
0.0
 10
109.9431
 20
104.2834
 30
0.0
 10
110.5417
 20
105.2066
 30
0.0
 10
111.4327
 20
105.7648
 30
0.0
 10
111.4327
 20
105.7648
 30
0.0
 10
112.3235
 20
106.3214
 30
0.0
 10
113.4157
 20
106.4568
 30
0.0
 10
114.4155
 20
106.1331
 30
0.0
 10
114.4155
 20
106.1331
 30
0.0
 10
115.8314
 20
105.6113
 30
0.0
 10
116.8087
 20
104.3065
 30
0.0
 10
116.9116
 20
102.802
 30
0.0
 10
116.9116
 20
102.802
 30
0.0
 10
117.0145
 20
101.2958
 30
0.0
 10
116.2237
 20
99.8706
 30
0.0
 10
114.8922
 20
99.1605
 30
0.0
 10
114.8922
 20
99.1605
 30
0.0
 10
115.6616
 20
98.2158
 30
0.0
 10
117.0122
 20
97.9862
 30
0.0
 10
118.0505
 20
98.6237
 30
0.0
 10
118.0505
 20
98.6237
 30
0.0
 10
119.7538
 20
100.2835
 30
0.0
 10
120.4263
 20
102.7343
 30
0.0
 10
119.8085
 20
105.0299
 30
0.0
 10
119.8085
 20
105.0299
 30
0.0
 10
118.8018
 20
107.5171
 30
0.0
 10
116.7656
 20
109.4444
 30
0.0
 10
114.2274
 20
110.3131
 30
0.0
 10
114.2274
 20
110.3131
 30
0.0
 10
111.6892
 20
111.1834
 30
0.0
 10
108.8988
 20
110.9076
 30
0.0
 10
106.5793
 20
109.56
 30
0.0
 10
106.5793
 20
109.56
 30
0.0
 10
106.9918
 20
108.0835
 30
0.0
 10
106.7875
 20
106.5031
 30
0.0
 10
106.0131
 20
105.1802
 30
0.0
 10
106.0131
 20
105.1802
 30
0.0
 10
104.3674
 20
107.0299
 30
0.0
 10
101.7678
 20
107.702
 30
0.0
 10
99.4314
 20
106.8829
 30
0.0
 10
99.4314
 20
106.8829
 30
0.0
 10
97.1508
 20
105.0993
 30
0.0
 10
94.9609
 20
103.2017
 30
0.0
 10
92.8701
 20
101.1984
 30
0.0
 10
92.8701
 20
101.1984
 30
0.0
 10
92.8706
 20
101.1951
 30
0.0
 10
92.8713
 20
101.1918
 30
0.0
 10
92.8719
 20
101.1868
 30
0.0
 10
92.8719
 20
101.1868
 30
0.0
 10
93.7388
 20
101.0663
 30
0.0
 10
94.5436
 20
100.6683
 30
0.0
 10
95.1676
 20
100.0539
 30
0.0
 10
95.1676
 20
100.0539
 30
0.0
 10
96.8674
 20
98.8632
 30
0.0
 10
99.1488
 20
98.9375
 30
0.0
 10
100.7693
 20
100.2339
 30
0.0
 10
100.7693
 20
100.2339
 30
0.0
 10
101.3623
 20
98.2984
 30
0.0
 10
100.3978
 20
96.2273
 30
0.0
 10
98.5346
 20
95.4363
 30
0.0
  0
SPLINE
  5
71
330
1F
100
AcDbEntity
  8
layer 1
 62
     7
370
     9
100
AcDbSpline
210
0.0
220
0.0
230
1.0
 70
    11
 71
     3
 72
    44
 73
    40
 74
     0
 42
0.0000000001
 43
0.0000000001
 12
1.0
 22
0.0
 32
0.0
 13
1.0
 23
0.0
 33
0.0
 40
0.0
 40
0.0
 40
0.0
 40
0.0
 40
0.0909090909090909
 40
0.0909090909090909
 40
0.0909090909090909
 40
0.0909090909090909
 40
0.1818181818181818
 40
0.1818181818181818
 40
0.1818181818181818
 40
0.1818181818181818
 40
0.2727272727272727
 40
0.2727272727272727
 40
0.2727272727272727
 40
0.2727272727272727
 40
0.3636363636363636
 40
0.3636363636363636
 40
0.3636363636363636
 40
0.3636363636363636
 40
0.4545454545454545
 40
0.4545454545454545
 40
0.4545454545454545
 40
0.4545454545454545
 40
0.5454545454545454
 40
0.5454545454545454
 40
0.5454545454545454
 40
0.5454545454545454
 40
0.6363636363636364
 40
0.6363636363636364
 40
0.6363636363636364
 40
0.6363636363636364
 40
0.7272727272727273
 40
0.7272727272727273
 40
0.7272727272727273
 40
0.7272727272727273
 40
0.8181818181818182
 40
0.8181818181818182
 40
0.8181818181818182
 40
0.8181818181818182
 40
1.0
 40
1.0
 40
1.0
 40
1.0
 10
95.0187
 20
96.5395
 30
0.0
 10
95.9085
 20
95.4528
 30
0.0
 10
96.2515
 20
94.0177
 30
0.0
 10
95.9495
 20
92.6469
 30
0.0
 10
95.9495
 20
92.6469
 30
0.0
 10
95.6473
 20
91.2761
 30
0.0
 10
94.7333
 20
90.1184
 30
0.0
 10
93.4693
 20
89.5074
 30
0.0
 10
93.4693
 20
89.5074
 30
0.0
 10
93.9208
 20
90.4537
 30
0.0
 10
93.9697
 20
91.542
 30
0.0
 10
93.6047
 20
92.5247
 30
0.0
 10
93.6047
 20
92.5247
 30
0.0
 10
93.2397
 20
93.5073
 30
0.0
 10
92.4922
 20
94.3
 30
0.0
 10
91.5327
 20
94.7212
 30
0.0
 10
91.5327
 20
94.7212
 30
0.0
 10
90.54
 20
94.9061
 30
0.0
 10
89.5185
 20
94.6105
 30
0.0
 10
88.7786
 20
93.9219
 30
0.0
 10
88.7786
 20
93.9219
 30
0.0
 10
88.0387
 20
93.2348
 30
0.0
 10
87.6678
 20
92.2389
 30
0.0
 10
87.7785
 20
91.2349
 30
0.0
 10
87.7785
 20
91.2349
 30
0.0
 10
86.2289
 20
91.2513
 30
0.0
 10
84.6938
 20
90.9376
 30
0.0
 10
83.2751
 20
90.3133
 30
0.0
 10
83.2751
 20
90.3133
 30
0.0
 10
83.4347
 20
90.5313
 30
0.0
 10
83.5951
 20
90.7493
 30
0.0
 10
83.7561
 20
90.9673
 30
0.0
 10
83.7561
 20
90.9673
 30
0.0
 10
85.6464
 20
93.4611
 30
0.0
 10
87.6704
 20
95.8508
 30
0.0
 10
89.8189
 20
98.1249
 30
0.0
 10
89.8189
 20
98.1249
 30
0.0
 10
91.7088
 20
98.5048
 30
0.0
 10
93.6628
 20
97.9086
 30
0.0
 10
95.0187
 20
96.5395
 30
0.0
  0
SPLINE
  5
72
330
1F
100
AcDbEntity
  8
layer 1
 62
     7
370
     9
100
AcDbSpline
210
0.0
220
0.0
230
1.0
 70
    11
 71
     3
 72
    24
 73
    20
 74
     0
 42
0.0000000001
 43
0.0000000001
 12
1.0
 22
0.0
 32
0.0
 13
1.0
 23
0.0
 33
0.0
 40
0.0
 40
0.0
 40
0.0
 40
0.0
 40
0.1666666666666667
 40
0.1666666666666667
 40
0.1666666666666667
 40
0.1666666666666667
 40
0.3333333333333333
 40
0.3333333333333333
 40
0.3333333333333333
 40
0.3333333333333333
 40
0.5
 40
0.5
 40
0.5
 40
0.5
 40
0.6666666666666666
 40
0.6666666666666666
 40
0.6666666666666666
 40
0.6666666666666666
 40
1.0
 40
1.0
 40
1.0
 40
1.0
 10
108.6649
 20
96.2109
 30
0.0
 10
110.0159
 20
96.333
 30
0.0
 10
111.3663
 20
95.9747
 30
0.0
 10
112.4788
 20
95.1985
 30
0.0
 10
112.4788
 20
95.1985
 30
0.0
 10
113.3969
 20
94.3083
 30
0.0
 10
114.5997
 20
93.7699
 30
0.0
 10
115.8754
 20
93.6791
 30
0.0
 10
115.8754
 20
93.6791
 30
0.0
 10
115.9415
 20
93.466
 30
0.0
 10
115.9901
 20
93.248
 30
0.0
 10
116.0204
 20
93.0284
 30
0.0
 10
116.0204
 20
93.0284
 30
0.0
 10
111.9706
 20
92.272
 30
0.0
 10
107.9992
 20
91.1424
 30
0.0
 10
104.1568
 20
89.656
 30
0.0
 10
104.1568
 20
89.656
 30
0.0
 10
103.6057
 20
92.708
 30
0.0
 10
105.6179
 20
95.6345
 30
0.0
 10
108.6649
 20
96.2109
 30
0.0
  0
SPLINE
  5
73
330
1F
100
AcDbEntity
  8
layer 1
 62
     7
370
     9
100
AcDbSpline
210
0.0
220
0.0
230
1.0
 70
    11
 71
     3
 72
    48
 73
    44
 74
     0
 42
0.0000000001
 43
0.0000000001
 12
1.0
 22
0.0
 32
0.0
 13
1.0
 23
0.0
 33
0.0
 40
0.0
 40
0.0
 40
0.0
 40
0.0
 40
0.0833333333333333
 40
0.0833333333333333
 40
0.0833333333333333
 40
0.0833333333333333
 40
0.1666666666666667
 40
0.1666666666666667
 40
0.1666666666666667
 40
0.1666666666666667
 40
0.25
 40
0.25
 40
0.25
 40
0.25
 40
0.3333333333333333
 40
0.3333333333333333
 40
0.3333333333333333
 40
0.3333333333333333
 40
0.4166666666666667
 40
0.4166666666666667
 40
0.4166666666666667
 40
0.4166666666666667
 40
0.5
 40
0.5
 40
0.5
 40
0.5
 40
0.5833333333333334
 40
0.5833333333333334
 40
0.5833333333333334
 40
0.5833333333333334
 40
0.6666666666666666
 40
0.6666666666666666
 40
0.6666666666666666
 40
0.6666666666666666
 40
0.75
 40
0.75
 40
0.75
 40
0.75
 40
0.8333333333333334
 40
0.8333333333333334
 40
0.8333333333333334
 40
0.8333333333333334
 40
1.0
 40
1.0
 40
1.0
 40
1.0
 10
124.6354
 20
115.37
 30
0.0
 10
124.3796
 20
113.3056
 30
0.0
 10
123.2654
 20
111.4444
 30
0.0
 10
121.5664
 20
110.2454
 30
0.0
 10
121.5664
 20
110.2454
 30
0.0
 10
123.7072
 20
107.8656
 30
0.0
 10
124.6412
 20
104.6385
 30
0.0
 10
124.1009
 20
101.4841
 30
0.0
 10
124.1009
 20
101.4841
 30
0.0
 10
123.5607
 20
98.3297
 30
0.0
 10
121.6059
 20
95.5965
 30
0.0
 10
118.7955
 20
94.0655
 30
0.0
 10
118.7955
 20
94.0655
 30
0.0
 10
118.7689
 20
93.8707
 30
0.0
 10
118.8132
 20
93.6708
 30
0.0
 10
118.9202
 20
93.504
 30
0.0
 10
118.9202
 20
93.504
 30
0.0
 10
120.767
 20
93.7666
 30
0.0
 10
122.624
 20
93.9516
 30
0.0
 10
124.4863
 20
94.0573
 30
0.0
 10
124.4863
 20
94.0573
 30
0.0
 10
124.5853
 20
94.0688
 30
0.0
 10
124.6853
 20
94.0688
 30
0.0
 10
124.7842
 20
94.0573
 30
0.0
 10
124.7842
 20
94.0573
 30
0.0
 10
126.6466
 20
93.9516
 30
0.0
 10
128.5036
 20
93.7666
 30
0.0
 10
130.3504
 20
93.504
 30
0.0
 10
130.3504
 20
93.504
 30
0.0
 10
130.4574
 20
93.6708
 30
0.0
 10
130.5017
 20
93.8707
 30
0.0
 10
130.4751
 20
94.0655
 30
0.0
 10
130.4751
 20
94.0655
 30
0.0
 10
127.6647
 20
95.5965
 30
0.0
 10
125.7099
 20
98.3297
 30
0.0
 10
125.1697
 20
101.4841
 30
0.0
 10
125.1697
 20
101.4841
 30
0.0
 10
124.6294
 20
104.6385
 30
0.0
 10
125.5632
 20
107.8656
 30
0.0
 10
127.7042
 20
110.2454
 30
0.0
 10
127.7042
 20
110.2454
 30
0.0
 10
126.0052
 20
111.4444
 30
0.0
 10
124.8909
 20
113.3056
 30
0.0
 10
124.6354
 20
115.37
 30
0.0
  0
SPLINE
  5
74
330
1F
100
AcDbEntity
  8
layer 1
 62
     7
370
     9
100
AcDbSpline
210
0.0
220
0.0
230
1.0
 70
    11
 71
     3
 72
    16
 73
    12
 74
     0
 42
0.0000000001
 43
0.0000000001
 12
1.0
 22
0.0
 32
0.0
 13
1.0
 23
0.0
 33
0.0
 40
0.0
 40
0.0
 40
0.0
 40
0.0
 40
0.25
 40
0.25
 40
0.25
 40
0.25
 40
0.5
 40
0.5
 40
0.5
 40
0.5
 40
1.0
 40
1.0
 40
1.0
 40
1.0
 10
90.6984
 20
28.963
 30
0.0
 10
90.9078
 20
27.16
 30
0.0
 10
91.1562
 20
25.362
 30
0.0
 10
91.4432
 20
23.57
 30
0.0
 10
91.4432
 20
23.57
 30
0.0
 10
91.7684
 20
21.7713
 30
0.0
 10
90.9507
 20
19.9583
 30
0.0
 10
89.3874
 20
19.0113
 30
0.0
 10
89.3874
 20
19.0113
 30
0.0
 10
89.5897
 20
22.3553
 30
0.0
 10
90.0278
 20
25.6806
 30
0.0
 10
90.6984
 20
28.963
 30
0.0
  0
SPLINE
  5
75
330
1F
100
AcDbEntity
  8
layer 1
 62
     7
370
     9
100
AcDbSpline
210
0.0
220
0.0
230
1.0
 70
    11
 71
     3
 72
    16
 73
    12
 74
     0
 42
0.0000000001
 43
0.0000000001
 12
1.0
 22
0.0
 32
0.0
 13
1.0
 23
0.0
 33
0.0
 40
0.0
 40
0.0
 40
0.0
 40
0.0
 40
0.25
 40
0.25
 40
0.25
 40
0.25
 40
0.5
 40
0.5
 40
0.5
 40
0.5
 40
1.0
 40
1.0
 40
1.0
 40
1.0
 10
98.7729
 20
44.3671
 30
0.0
 10
99.3311
 20
41.8167
 30
0.0
 10
98.451
 20
39.1652
 30
0.0
 10
96.4786
 20
37.4545
 30
0.0
 10
96.4786
 20
37.4545
 30
0.0
 10
94.9987
 20
36.3008
 30
0.0
 10
93.6037
 20
35.0421
 30
0.0
 10
92.3046
 20
33.6878
 30
0.0
 10
92.3046
 20
33.6878
 30
0.0
 10
94.0113
 20
37.5011
 30
0.0
 10
96.1838
 20
41.0882
 30
0.0
 10
98.7729
 20
44.3671
 30
0.0
  0
SPLINE
  5
76
330
1F
100
AcDbEntity
  8
layer 1
 62
     7
370
     9
100
AcDbSpline
210
0.0
220
0.0
230
1.0
 70
    11
 71
     3
 72
    16
 73
    12
 74
     0
 42
0.0000000001
 43
0.0000000001
 12
1.0
 22
0.0
 32
0.0
 13
1.0
 23
0.0
 33
0.0
 40
0.0
 40
0.0
 40
0.0
 40
0.0
 40
0.25
 40
0.25
 40
0.25
 40
0.25
 40
0.5
 40
0.5
 40
0.5
 40
0.5
 40
1.0
 40
1.0
 40
1.0
 40
1.0
 10
101.1268
 20
46.9593
 30
0.0
 10
103.2436
 20
46.8401
 30
0.0
 10
105.2906
 20
47.7364
 30
0.0
 10
106.6389
 20
49.3729
 30
0.0
 10
106.6389
 20
49.3729
 30
0.0
 10
107.3979
 20
51.0708
 30
0.0
 10
108.5773
 20
52.5476
 30
0.0
 10
110.0654
 20
53.6633
 30
0.0
 10
110.0654
 20
53.6633
 30
0.0
 10
106.5761
 20
52.2042
 30
0.0
 10
103.5045
 20
49.9004
 30
0.0
 10
101.1268
 20
46.9593
 30
0.0
  0
SPLINE
  5
77
330
1F
100
AcDbEntity
  8
layer 1
 62
     7
370
     9
100
AcDbSpline
210
0.0
220
0.0
230
1.0
 70
    11
 71
     3
 72
    48
 73
    44
 74
     0
 42
0.0000000001
 43
0.0000000001
 12
1.0
 22
0.0
 32
0.0
 13
1.0
 23
0.0
 33
0.0
 40
0.0
 40
0.0
 40
0.0
 40
0.0
 40
0.0833333333333333
 40
0.0833333333333333
 40
0.0833333333333333
 40
0.0833333333333333
 40
0.1666666666666667
 40
0.1666666666666667
 40
0.1666666666666667
 40
0.1666666666666667
 40
0.25
 40
0.25
 40
0.25
 40
0.25
 40
0.3333333333333333
 40
0.3333333333333333
 40
0.3333333333333333
 40
0.3333333333333333
 40
0.4166666666666667
 40
0.4166666666666667
 40
0.4166666666666667
 40
0.4166666666666667
 40
0.5
 40
0.5
 40
0.5
 40
0.5
 40
0.5833333333333334
 40
0.5833333333333334
 40
0.5833333333333334
 40
0.5833333333333334
 40
0.6666666666666666
 40
0.6666666666666666
 40
0.6666666666666666
 40
0.6666666666666666
 40
0.75
 40
0.75
 40
0.75
 40
0.75
 40
0.8333333333333334
 40
0.8333333333333334
 40
0.8333333333333334
 40
0.8333333333333334
 40
1.0
 40
1.0
 40
1.0
 40
1.0
 10
111.3168
 20
41.5664
 30
0.0
 10
110.644
 20
42.8667
 30
0.0
 10
110.7655
 20
44.4362
 30
0.0
 10
111.6309
 20
45.6173
 30
0.0
 10
111.6309
 20
45.6173
 30
0.0
 10
112.4963
 20
46.7985
 30
0.0
 10
113.9559
 20
47.3876
 30
0.0
 10
115.3986
 20
47.138
 30
0.0
 10
115.3986
 20
47.138
 30
0.0
 10
116.7873
 20
46.6611
 30
0.0
 10
117.6966
 20
45.3275
 30
0.0
 10
117.6333
 20
43.8606
 30
0.0
 10
117.6333
 20
43.8606
 30
0.0
 10
119.6452
 20
44.2545
 30
0.0
 10
121.6613
 20
43.203
 30
0.0
 10
122.4901
 20
41.328
 30
0.0
 10
122.4901
 20
41.328
 30
0.0
 10
122.5527
 20
44.4008
 30
0.0
 10
121.5292
 20
47.3973
 30
0.0
 10
119.5999
 20
49.7899
 30
0.0
 10
119.5999
 20
49.7899
 30
0.0
 10
119.3862
 20
48.8998
 30
0.0
 10
118.6984
 20
48.2008
 30
0.0
 10
117.8122
 20
47.9724
 30
0.0
 10
117.8122
 20
47.9724
 30
0.0
 10
118.0583
 20
48.9053
 30
0.0
 10
117.9192
 20
49.8979
 30
0.0
 10
117.426
 20
50.7272
 30
0.0
 10
117.426
 20
50.7272
 30
0.0
 10
116.9331
 20
51.5565
 30
0.0
 10
116.1273
 20
52.1528
 30
0.0
 10
115.1902
 20
52.3821
 30
0.0
 10
115.1902
 20
52.3821
 30
0.0
 10
113.892
 20
52.4958
 30
0.0
 10
112.6086
 20
52.039
 30
0.0
 10
111.6743
 20
51.1307
 30
0.0
 10
111.6743
 20
51.1307
 30
0.0
 10
109.966
 20
49.2335
 30
0.0
 10
109.1525
 20
46.6953
 30
0.0
 10
109.4397
 20
44.1586
 30
0.0
 10
109.4397
 20
44.1586
 30
0.0
 10
109.659
 20
43.0628
 30
0.0
 10
110.3442
 20
42.1168
 30
0.0
 10
111.3168
 20
41.5664
 30
0.0
  0
SPLINE
  5
78
330
1F
100
AcDbEntity
  8
layer 1
 62
     7
370
     9
100
AcDbSpline
210
0.0
220
0.0
230
1.0
 70
    11
 71
     3
 72
    72
 73
    68
 74
     0
 42
0.0000000001
 43
0.0000000001
 12
1.0
 22
0.0
 32
0.0
 13
1.0
 23
0.0
 33
0.0
 40
0.0
 40
0.0
 40
0.0
 40
0.0
 40
0.0555555555555556
 40
0.0555555555555556
 40
0.0555555555555556
 40
0.0555555555555556
 40
0.1111111111111111
 40
0.1111111111111111
 40
0.1111111111111111
 40
0.1111111111111111
 40
0.1666666666666667
 40
0.1666666666666667
 40
0.1666666666666667
 40
0.1666666666666667
 40
0.2222222222222222
 40
0.2222222222222222
 40
0.2222222222222222
 40
0.2222222222222222
 40
0.2777777777777778
 40
0.2777777777777778
 40
0.2777777777777778
 40
0.2777777777777778
 40
0.3333333333333333
 40
0.3333333333333333
 40
0.3333333333333333
 40
0.3333333333333333
 40
0.3888888888888889
 40
0.3888888888888889
 40
0.3888888888888889
 40
0.3888888888888889
 40
0.4444444444444444
 40
0.4444444444444444
 40
0.4444444444444444
 40
0.4444444444444444
 40
0.5
 40
0.5
 40
0.5
 40
0.5
 40
0.5555555555555556
 40
0.5555555555555556
 40
0.5555555555555556
 40
0.5555555555555556
 40
0.6111111111111112
 40
0.6111111111111112
 40
0.6111111111111112
 40
0.6111111111111112
 40
0.6666666666666666
 40
0.6666666666666666
 40
0.6666666666666666
 40
0.6666666666666666
 40
0.7222222222222222
 40
0.7222222222222222
 40
0.7222222222222222
 40
0.7222222222222222
 40
0.7777777777777778
 40
0.7777777777777778
 40
0.7777777777777778
 40
0.7777777777777778
 40
0.8333333333333334
 40
0.8333333333333334
 40
0.8333333333333334
 40
0.8333333333333334
 40
0.8888888888888888
 40
0.8888888888888888
 40
0.8888888888888888
 40
0.8888888888888888
 40
1.0
 40
1.0
 40
1.0
 40
1.0
 10
99.9349
 20
45.9463
 30
0.0
 10
101.47
 20
44.6433
 30
0.0
 10
103.6483
 20
44.4183
 30
0.0
 10
105.4172
 20
45.3801
 30
0.0
 10
105.4172
 20
45.3801
 30
0.0
 10
104.6094
 20
41.6403
 30
0.0
 10
106.4526
 20
37.8309
 30
0.0
 10
109.8866
 20
36.1436
 30
0.0
 10
109.8866
 20
36.1436
 30
0.0
 10
111.4656
 20
35.4952
 30
0.0
 10
113.2467
 20
35.5545
 30
0.0
 10
114.7792
 20
36.3064
 30
0.0
 10
114.7792
 20
36.3064
 30
0.0
 10
116.3116
 20
37.0584
 30
0.0
 10
117.4484
 20
38.431
 30
0.0
 10
117.9015
 20
40.0765
 30
0.0
 10
117.9015
 20
40.0765
 30
0.0
 10
118.0635
 20
40.3966
 30
0.0
 10
118.3459
 20
40.6392
 30
0.0
 10
118.687
 20
40.751
 30
0.0
 10
118.687
 20
40.751
 30
0.0
 10
119.0277
 20
40.8628
 30
0.0
 10
119.3989
 20
40.8346
 30
0.0
 10
119.719
 20
40.6725
 30
0.0
 10
119.719
 20
40.6725
 30
0.0
 10
121.4738
 20
39.9971
 30
0.0
 10
122.7571
 20
38.466
 30
0.0
 10
123.1157
 20
36.6204
 30
0.0
 10
123.1157
 20
36.6204
 30
0.0
 10
123.255
 20
34.12
 30
0.0
 10
123.3147
 20
31.616
 30
0.0
 10
123.2945
 20
29.112
 30
0.0
 10
123.2945
 20
29.112
 30
0.0
 10
122.1021
 20
30.348
 30
0.0
 10
120.4553
 20
31.0411
 30
0.0
 10
118.738
 20
31.0299
 30
0.0
 10
118.738
 20
31.0299
 30
0.0
 10
117.0206
 20
31.0186
 30
0.0
 10
115.383
 20
30.3039
 30
0.0
 10
114.2069
 20
29.0523
 30
0.0
 10
114.2069
 20
29.0523
 30
0.0
 10
111.6492
 20
25.918
 30
0.0
 10
111.479
 20
21.4678
 30
0.0
 10
113.7898
 20
18.1473
 30
0.0
 10
113.7898
 20
18.1473
 30
0.0
 10
111.0905
 20
17.7626
 30
0.0
 10
108.3375
 20
18.0913
 30
0.0
 10
105.8045
 20
19.1007
 30
0.0
 10
105.8045
 20
19.1007
 30
0.0
 10
104.9255
 20
19.7733
 30
0.0
 10
104.3542
 20
20.7715
 30
0.0
 10
104.2198
 20
21.8704
 30
0.0
 10
104.2198
 20
21.8704
 30
0.0
 10
104.0851
 20
22.969
 30
0.0
 10
104.3988
 20
24.0757
 30
0.0
 10
105.0896
 20
24.9406
 30
0.0
 10
105.0896
 20
24.9406
 30
0.0
 10
107.9148
 20
26.9924
 30
0.0
 10
109.0722
 20
30.6466
 30
0.0
 10
107.9434
 20
33.9509
 30
0.0
 10
107.9434
 20
33.9509
 30
0.0
 10
106.8146
 20
37.2551
 30
0.0
 10
103.6635
 20
39.4374
 30
0.0
 10
100.1732
 20
39.3317
 30
0.0
 10
100.1732
 20
39.3317
 30
0.0
 10
100.9379
 20
41.4867
 30
0.0
 10
100.8526
 20
43.852
 30
0.0
 10
99.9349
 20
45.9463
 30
0.0
  0
SPLINE
  5
79
330
1F
100
AcDbEntity
  8
layer 1
 62
     7
370
     9
100
AcDbSpline
210
0.0
220
0.0
230
1.0
 70
    11
 71
     3
 72
    48
 73
    44
 74
     0
 42
0.0000000001
 43
0.0000000001
 12
1.0
 22
0.0
 32
0.0
 13
1.0
 23
0.0
 33
0.0
 40
0.0
 40
0.0
 40
0.0
 40
0.0
 40
0.0833333333333333
 40
0.0833333333333333
 40
0.0833333333333333
 40
0.0833333333333333
 40
0.1666666666666667
 40
0.1666666666666667
 40
0.1666666666666667
 40
0.1666666666666667
 40
0.25
 40
0.25
 40
0.25
 40
0.25
 40
0.3333333333333333
 40
0.3333333333333333
 40
0.3333333333333333
 40
0.3333333333333333
 40
0.4166666666666667
 40
0.4166666666666667
 40
0.4166666666666667
 40
0.4166666666666667
 40
0.5
 40
0.5
 40
0.5
 40
0.5
 40
0.5833333333333334
 40
0.5833333333333334
 40
0.5833333333333334
 40
0.5833333333333334
 40
0.6666666666666666
 40
0.6666666666666666
 40
0.6666666666666666
 40
0.6666666666666666
 40
0.75
 40
0.75
 40
0.75
 40
0.75
 40
0.8333333333333334
 40
0.8333333333333334
 40
0.8333333333333334
 40
0.8333333333333334
 40
1.0
 40
1.0
 40
1.0
 40
1.0
 10
96.5383
 20
22.2888
 30
0.0
 10
98.4302
 20
20.1457
 30
0.0
 10
101.1583
 20
18.9284
 30
0.0
 10
104.0169
 20
18.9517
 30
0.0
 10
104.0169
 20
18.9517
 30
0.0
 10
101.9385
 20
20.1472
 30
0.0
 10
100.8401
 20
22.5233
 30
0.0
 10
101.2758
 20
24.881
 30
0.0
 10
101.2758
 20
24.881
 30
0.0
 10
99.686
 20
25.3127
 30
0.0
 10
98.5374
 20
26.6947
 30
0.0
 10
98.404
 20
28.3366
 30
0.0
 10
98.404
 20
28.3366
 30
0.0
 10
98.2705
 20
29.9785
 30
0.0
 10
99.1807
 20
31.5278
 30
0.0
 10
100.6799
 20
32.2107
 30
0.0
 10
100.6799
 20
32.2107
 30
0.0
 10
101.5461
 20
32.5066
 30
0.0
 10
102.4829
 20
32.5275
 30
0.0
 10
103.3615
 20
32.2701
 30
0.0
 10
103.3615
 20
32.2701
 30
0.0
 10
102.8696
 20
33.248
 30
0.0
 10
102.0019
 20
33.9841
 30
0.0
 10
100.957
 20
34.3099
 30
0.0
 10
100.957
 20
34.3099
 30
0.0
 10
99.9123
 20
34.6358
 30
0.0
 10
98.7798
 20
34.5233
 30
0.0
 10
97.8195
 20
33.9985
 30
0.0
 10
97.8195
 20
33.9985
 30
0.0
 10
95.8304
 20
32.7814
 30
0.0
 10
94.4704
 20
30.7579
 30
0.0
 10
94.095
 20
28.4565
 30
0.0
 10
94.095
 20
28.4565
 30
0.0
 10
94.0051
 20
27.4
 30
0.0
 10
94.3584
 20
26.3538
 30
0.0
 10
95.0705
 20
25.5683
 30
0.0
 10
95.0705
 20
25.5683
 30
0.0
 10
95.7825
 20
24.7829
 30
0.0
 10
96.7891
 20
24.3289
 30
0.0
 10
97.8492
 20
24.3148
 30
0.0
 10
97.8492
 20
24.3148
 30
0.0
 10
97.6408
 20
23.5165
 30
0.0
 10
97.1812
 20
22.8062
 30
0.0
 10
96.5383
 20
22.2888
 30
0.0
  0
SPLINE
  5
7A
330
1F
100
AcDbEntity
  8
layer 1
 62
     7
370
     9
100
AcDbSpline
210
0.0
220
0.0
230
1.0
 70
    11
 71
     3
 72
    24
 73
    20
 74
     0
 42
0.0000000001
 43
0.0000000001
 12
1.0
 22
0.0
 32
0.0
 13
1.0
 23
0.0
 33
0.0
 40
0.0
 40
0.0
 40
0.0
 40
0.0
 40
0.1666666666666667
 40
0.1666666666666667
 40
0.1666666666666667
 40
0.1666666666666667
 40
0.3333333333333333
 40
0.3333333333333333
 40
0.3333333333333333
 40
0.3333333333333333
 40
0.5
 40
0.5
 40
0.5
 40
0.5
 40
0.6666666666666666
 40
0.6666666666666666
 40
0.6666666666666666
 40
0.6666666666666666
 40
1.0
 40
1.0
 40
1.0
 40
1.0
 10
118.6166
 20
18.3558
 30
0.0
 10
119.1983
 20
20.602
 30
0.0
 10
120.8131
 20
22.4382
 30
0.0
 10
122.9667
 20
23.3018
 30
0.0
 10
122.9667
 20
23.3018
 30
0.0
 10
122.7854
 20
24.9397
 30
0.0
 10
122.0118
 20
26.4548
 30
0.0
 10
120.7917
 20
27.5625
 30
0.0
 10
120.7917
 20
27.5625
 30
0.0
 10
119.2871
 20
28.4636
 30
0.0
 10
117.3795
 20
28.3265
 30
0.0
 10
116.0193
 20
27.2196
 30
0.0
 10
116.0193
 20
27.2196
 30
0.0
 10
114.6589
 20
26.1127
 30
0.0
 10
114.1371
 20
24.2727
 30
0.0
 10
114.7135
 20
22.6166
 30
0.0
 10
114.7135
 20
22.6166
 30
0.0
 10
115.2976
 20
20.6759
 30
0.0
 10
116.7344
 20
19.1073
 30
0.0
 10
118.6166
 20
18.3558
 30
0.0
  0
SPLINE
  5
7B
330
1F
100
AcDbEntity
  8
layer 1
 62
     7
370
     9
100
AcDbSpline
210
0.0
220
0.0
230
1.0
 70
    11
 71
     3
 72
    16
 73
    12
 74
     0
 42
0.0000000001
 43
0.0000000001
 12
1.0
 22
0.0
 32
0.0
 13
1.0
 23
0.0
 33
0.0
 40
0.0
 40
0.0
 40
0.0
 40
0.0
 40
0.25
 40
0.25
 40
0.25
 40
0.25
 40
0.5
 40
0.5
 40
0.5
 40
0.5
 40
1.0
 40
1.0
 40
1.0
 40
1.0
 10
184.5835
 20
-83.3357
 30
0.0
 10
185.9722
 20
-81.687
 30
0.0
 10
186.8795
 20
-79.6874
 30
0.0
 10
187.2055
 20
-77.5566
 30
0.0
 10
187.2055
 20
-77.5566
 30
0.0
 10
187.2055
 20
-77.5566
 30
0.0
 10
187.2055
 20
-86.5166
 30
0.0
 10
187.2055
 20
-86.5166
 30
0.0
 10
187.2055
 20
-86.5166
 30
0.0
 10
186.3928
 20
-85.4072
 30
0.0
 10
185.5174
 20
-84.3452
 30
0.0
 10
184.5835
 20
-83.3357
 30
0.0
  0
SPLINE
  5
7C
330
1F
100
AcDbEntity
  8
layer 1
 62
     7
370
     9
100
AcDbSpline
210
0.0
220
0.0
230
1.0
 70
    11
 71
     3
 72
    20
 73
    16
 74
     0
 42
0.0000000001
 43
0.0000000001
 12
1.0
 22
0.0
 32
0.0
 13
1.0
 23
0.0
 33
0.0
 40
0.0
 40
0.0
 40
0.0
 40
0.0
 40
0.2
 40
0.2
 40
0.2
 40
0.2
 40
0.4
 40
0.4
 40
0.4
 40
0.4
 40
0.6
 40
0.6
 40
0.6
 40
0.6
 40
1.0
 40
1.0
 40
1.0
 40
1.0
 10
187.2055
 20
-74.0102
 30
0.0
 10
186.5894
 20
-69.9833
 30
0.0
 10
183.9271
 20
-66.5651
 30
0.0
 10
180.1738
 20
-64.9819
 30
0.0
 10
180.1738
 20
-64.9819
 30
0.0
 10
183.1873
 20
-64.763
 30
0.0
 10
185.7212
 20
-62.6375
 30
0.0
 10
186.4606
 20
-59.7081
 30
0.0
 10
186.4606
 20
-59.7081
 30
0.0
 10
186.7085
 20
-59.6866
 30
0.0
 10
186.9569
 20
-59.6708
 30
0.0
 10
187.2055
 20
-59.6605
 30
0.0
 10
187.2055
 20
-59.6605
 30
0.0
 10
187.2055
 20
-59.6605
 30
0.0
 10
187.2055
 20
-74.0102
 30
0.0
 10
187.2055
 20
-74.0102
 30
0.0
  0
SPLINE
  5
7D
330
1F
100
AcDbEntity
  8
layer 1
 62
     7
370
     9
100
AcDbSpline
210
0.0
220
0.0
230
1.0
 70
    11
 71
     3
 72
    20
 73
    16
 74
     0
 42
0.0000000001
 43
0.0000000001
 12
1.0
 22
0.0
 32
0.0
 13
1.0
 23
0.0
 33
0.0
 40
0.0
 40
0.0
 40
0.0
 40
0.0
 40
0.2
 40
0.2
 40
0.2
 40
0.2
 40
0.4
 40
0.4
 40
0.4
 40
0.4
 40
0.6
 40
0.6
 40
0.6
 40
0.6
 40
1.0
 40
1.0
 40
1.0
 40
1.0
 10
183.8088
 20
-86.9112
 30
0.0
 10
181.4906
 20
-87.363
 30
0.0
 10
179.2381
 20
-88.1037
 30
0.0
 10
177.1042
 20
-89.1161
 30
0.0
 10
177.1042
 20
-89.1161
 30
0.0
 10
177.1042
 20
-89.1161
 30
0.0
 10
187.2055
 20
-89.1161
 30
0.0
 10
187.2055
 20
-89.1161
 30
0.0
 10
187.2055
 20
-89.1161
 30
0.0
 10
187.2055
 20
-89.1161
 30
0.0
 10
187.2055
 20
-88.867
 30
0.0
 10
187.2055
 20
-88.867
 30
0.0
 10
187.2055
 20
-88.867
 30
0.0
 10
186.6253
 20
-87.5402
 30
0.0
 10
185.2476
 20
-86.747
 30
0.0
 10
183.8088
 20
-86.9112
 30
0.0
  0
SPLINE
  5
7E
330
1F
100
AcDbEntity
  8
layer 1
 62
     7
370
     9
100
AcDbSpline
210
0.0
220
0.0
230
1.0
 70
    11
 71
     3
 72
    56
 73
    52
 74
     0
 42
0.0000000001
 43
0.0000000001
 12
1.0
 22
0.0
 32
0.0
 13
1.0
 23
0.0
 33
0.0
 40
0.0
 40
0.0
 40
0.0
 40
0.0
 40
0.0714285714285714
 40
0.0714285714285714
 40
0.0714285714285714
 40
0.0714285714285714
 40
0.1428571428571428
 40
0.1428571428571428
 40
0.1428571428571428
 40
0.1428571428571428
 40
0.2142857142857143
 40
0.2142857142857143
 40
0.2142857142857143
 40
0.2142857142857143
 40
0.2857142857142857
 40
0.2857142857142857
 40
0.2857142857142857
 40
0.2857142857142857
 40
0.3571428571428572
 40
0.3571428571428572
 40
0.3571428571428572
 40
0.3571428571428572
 40
0.4285714285714285
 40
0.4285714285714285
 40
0.4285714285714285
 40
0.4285714285714285
 40
0.5
 40
0.5
 40
0.5
 40
0.5
 40
0.5714285714285714
 40
0.5714285714285714
 40
0.5714285714285714
 40
0.5714285714285714
 40
0.6428571428571429
 40
0.6428571428571429
 40
0.6428571428571429
 40
0.6428571428571429
 40
0.7142857142857143
 40
0.7142857142857143
 40
0.7142857142857143
 40
0.7142857142857143
 40
0.7857142857142857
 40
0.7857142857142857
 40
0.7857142857142857
 40
0.7857142857142857
 40
0.8571428571428571
 40
0.8571428571428571
 40
0.8571428571428571
 40
0.8571428571428571
 40
1.0
 40
1.0
 40
1.0
 40
1.0
 10
174.8689
 20
-89.1161
 30
0.0
 10
170.9989
 20
-88.7068
 30
0.0
 10
167.6618
 20
-86.2151
 30
0.0
 10
166.17
 20
-82.6207
 30
0.0
 10
166.17
 20
-82.6207
 30
0.0
 10
165.8481
 20
-83.411
 30
0.0
 10
165.1441
 20
-83.9815
 30
0.0
 10
164.3042
 20
-84.1325
 30
0.0
 10
164.3042
 20
-84.1325
 30
0.0
 10
163.4643
 20
-84.2836
 30
0.0
 10
162.6056
 20
-83.9942
 30
0.0
 10
162.0284
 20
-83.3656
 30
0.0
 10
162.0284
 20
-83.3656
 30
0.0
 10
163.8492
 20
-82.1645
 30
0.0
 10
164.7943
 20
-80.006
 30
0.0
 10
164.4419
 20
-77.8533
 30
0.0
 10
164.4419
 20
-77.8533
 30
0.0
 10
164.0842
 20
-74.4126
 30
0.0
 10
164.2449
 20
-70.9374
 30
0.0
 10
164.9185
 20
-67.5442
 30
0.0
 10
164.9185
 20
-67.5442
 30
0.0
 10
163.3947
 20
-69.208
 30
0.0
 10
161.8652
 20
-70.8667
 30
0.0
 10
160.3301
 20
-72.52
 30
0.0
 10
160.3301
 20
-72.52
 30
0.0
 10
158.7191
 20
-74.7809
 30
0.0
 10
157.9305
 20
-77.5254
 30
0.0
 10
158.0955
 20
-80.2966
 30
0.0
 10
158.0955
 20
-80.2966
 30
0.0
 10
156.7431
 20
-79.7361
 30
0.0
 10
155.7901
 20
-78.4994
 30
0.0
 10
155.5926
 20
-77.0489
 30
0.0
 10
155.5926
 20
-77.0489
 30
0.0
 10
151.0135
 20
-79.1424
 30
0.0
 10
148.6815
 20
-84.294
 30
0.0
 10
150.1304
 20
-89.1161
 30
0.0
 10
150.1304
 20
-89.1161
 30
0.0
 10
150.1304
 20
-89.1161
 30
0.0
 10
155.2136
 20
-89.1161
 30
0.0
 10
155.2136
 20
-89.1161
 30
0.0
 10
155.2136
 20
-89.1161
 30
0.0
 10
154.9573
 20
-87.1703
 30
0.0
 10
155.3976
 20
-85.1966
 30
0.0
 10
156.4567
 20
-83.5443
 30
0.0
 10
156.4567
 20
-83.5443
 30
0.0
 10
157.7683
 20
-86.1284
 30
0.0
 10
160.0104
 20
-88.1193
 30
0.0
 10
162.7314
 20
-89.1161
 30
0.0
 10
162.7314
 20
-89.1161
 30
0.0
 10
162.7314
 20
-89.1161
 30
0.0
 10
174.8689
 20
-89.1161
 30
0.0
 10
174.8689
 20
-89.1161
 30
0.0
  0
SPLINE
  5
7F
330
1F
100
AcDbEntity
  8
layer 1
 62
     7
370
     9
100
AcDbSpline
210
0.0
220
0.0
230
1.0
 70
    11
 71
     3
 72
    68
 73
    64
 74
     0
 42
0.0000000001
 43
0.0000000001
 12
1.0
 22
0.0
 32
0.0
 13
1.0
 23
0.0
 33
0.0
 40
0.0
 40
0.0
 40
0.0
 40
0.0
 40
0.0588235294117647
 40
0.0588235294117647
 40
0.0588235294117647
 40
0.0588235294117647
 40
0.1176470588235294
 40
0.1176470588235294
 40
0.1176470588235294
 40
0.1176470588235294
 40
0.1764705882352941
 40
0.1764705882352941
 40
0.1764705882352941
 40
0.1764705882352941
 40
0.2352941176470588
 40
0.2352941176470588
 40
0.2352941176470588
 40
0.2352941176470588
 40
0.2941176470588235
 40
0.2941176470588235
 40
0.2941176470588235
 40
0.2941176470588235
 40
0.3529411764705883
 40
0.3529411764705883
 40
0.3529411764705883
 40
0.3529411764705883
 40
0.4117647058823529
 40
0.4117647058823529
 40
0.4117647058823529
 40
0.4117647058823529
 40
0.4705882352941176
 40
0.4705882352941176
 40
0.4705882352941176
 40
0.4705882352941176
 40
0.5294117647058824
 40
0.5294117647058824
 40
0.5294117647058824
 40
0.5294117647058824
 40
0.5882352941176471
 40
0.5882352941176471
 40
0.5882352941176471
 40
0.5882352941176471
 40
0.6470588235294118
 40
0.6470588235294118
 40
0.6470588235294118
 40
0.6470588235294118
 40
0.7058823529411765
 40
0.7058823529411765
 40
0.7058823529411765
 40
0.7058823529411765
 40
0.7647058823529411
 40
0.7647058823529411
 40
0.7647058823529411
 40
0.7647058823529411
 40
0.8235294117647058
 40
0.8235294117647058
 40
0.8235294117647058
 40
0.8235294117647058
 40
0.8823529411764706
 40
0.8823529411764706
 40
0.8823529411764706
 40
0.8823529411764706
 40
1.0
 40
1.0
 40
1.0
 40
1.0
 10
183.9479
 20
-0.1141
 30
0.0
 10
183.6579
 20
1.3859
 30
0.0
 10
183.5512
 20
2.9155
 30
0.0
 10
183.63
 20
4.4414
 30
0.0
 10
183.63
 20
4.4414
 30
0.0
 10
183.6494
 20
5.739
 30
0.0
 10
183.5497
 20
7.0354
 30
0.0
 10
183.3322
 20
8.3148
 30
0.0
 10
183.3322
 20
8.3148
 30
0.0
 10
182.7003
 20
10.8032
 30
0.0
 10
181.2785
 20
13.0196
 30
0.0
 10
179.2799
 20
14.6314
 30
0.0
 10
179.2799
 20
14.6314
 30
0.0
 10
176.104
 20
17.0315
 30
0.0
 10
171.7616
 20
17.1747
 30
0.0
 10
168.4344
 20
14.9889
 30
0.0
 10
168.4344
 20
14.9889
 30
0.0
 10
167.1418
 20
14.3524
 30
0.0
 10
165.5945
 20
14.546
 30
0.0
 10
164.4984
 20
15.4812
 30
0.0
 10
164.4984
 20
15.4812
 30
0.0
 10
164.4204
 20
15.5408
 30
0.0
 10
164.3433
 20
15.6015
 30
0.0
 10
164.2668
 20
15.6629
 30
0.0
 10
164.2668
 20
15.6629
 30
0.0
 10
164.2739
 20
16.0143
 30
0.0
 10
164.2776
 20
16.3656
 30
0.0
 10
164.2781
 20
16.7171
 30
0.0
 10
164.2781
 20
16.7171
 30
0.0
 10
164.2776
 20
17.0683
 30
0.0
 10
164.2739
 20
17.4198
 30
0.0
 10
164.2668
 20
17.7712
 30
0.0
 10
164.2668
 20
17.7712
 30
0.0
 10
164.3433
 20
17.8326
 30
0.0
 10
164.4204
 20
17.8933
 30
0.0
 10
164.4984
 20
17.9529
 30
0.0
 10
164.4984
 20
17.9529
 30
0.0
 10
165.5945
 20
18.8881
 30
0.0
 10
167.1418
 20
19.0817
 30
0.0
 10
168.4344
 20
18.4452
 30
0.0
 10
168.4344
 20
18.4452
 30
0.0
 10
171.7616
 20
16.2594
 30
0.0
 10
176.104
 20
16.4025
 30
0.0
 10
179.2799
 20
18.8027
 30
0.0
 10
179.2799
 20
18.8027
 30
0.0
 10
181.2785
 20
20.4145
 30
0.0
 10
182.7003
 20
22.6308
 30
0.0
 10
183.3322
 20
25.1193
 30
0.0
 10
183.3322
 20
25.1193
 30
0.0
 10
183.5497
 20
26.3987
 30
0.0
 10
183.6494
 20
27.6953
 30
0.0
 10
183.63
 20
28.9927
 30
0.0
 10
183.63
 20
28.9927
 30
0.0
 10
183.5512
 20
30.5184
 30
0.0
 10
183.6579
 20
32.0482
 30
0.0
 10
183.9479
 20
33.5483
 30
0.0
 10
183.9479
 20
33.5483
 30
0.0
 10
185.1007
 20
28.0124
 30
0.0
 10
185.6732
 20
22.3715
 30
0.0
 10
185.6561
 20
16.7171
 30
0.0
 10
185.6561
 20
16.7171
 30
0.0
 10
185.6732
 20
11.0624
 30
0.0
 10
185.1007
 20
5.4217
 30
0.0
 10
183.9479
 20
-0.1141
 30
0.0
  0
SPLINE
  5
80
330
1F
100
AcDbEntity
  8
layer 1
 62
     7
370
     9
100
AcDbSpline
210
0.0
220
0.0
230
1.0
 70
    11
 71
     3
 72
    84
 73
    80
 74
     0
 42
0.0000000001
 43
0.0000000001
 12
1.0
 22
0.0
 32
0.0
 13
1.0
 23
0.0
 33
0.0
 40
0.0
 40
0.0
 40
0.0
 40
0.0
 40
0.0476190476190476
 40
0.0476190476190476
 40
0.0476190476190476
 40
0.0476190476190476
 40
0.0952380952380952
 40
0.0952380952380952
 40
0.0952380952380952
 40
0.0952380952380952
 40
0.1428571428571428
 40
0.1428571428571428
 40
0.1428571428571428
 40
0.1428571428571428
 40
0.1904761904761905
 40
0.1904761904761905
 40
0.1904761904761905
 40
0.1904761904761905
 40
0.2380952380952381
 40
0.2380952380952381
 40
0.2380952380952381
 40
0.2380952380952381
 40
0.2857142857142857
 40
0.2857142857142857
 40
0.2857142857142857
 40
0.2857142857142857
 40
0.3333333333333333
 40
0.3333333333333333
 40
0.3333333333333333
 40
0.3333333333333333
 40
0.3809523809523809
 40
0.3809523809523809
 40
0.3809523809523809
 40
0.3809523809523809
 40
0.4285714285714285
 40
0.4285714285714285
 40
0.4285714285714285
 40
0.4285714285714285
 40
0.4761904761904762
 40
0.4761904761904762
 40
0.4761904761904762
 40
0.4761904761904762
 40
0.5238095238095238
 40
0.5238095238095238
 40
0.5238095238095238
 40
0.5238095238095238
 40
0.5714285714285714
 40
0.5714285714285714
 40
0.5714285714285714
 40
0.5714285714285714
 40
0.6190476190476191
 40
0.6190476190476191
 40
0.6190476190476191
 40
0.6190476190476191
 40
0.6666666666666666
 40
0.6666666666666666
 40
0.6666666666666666
 40
0.6666666666666666
 40
0.7142857142857143
 40
0.7142857142857143
 40
0.7142857142857143
 40
0.7142857142857143
 40
0.7619047619047619
 40
0.7619047619047619
 40
0.7619047619047619
 40
0.7619047619047619
 40
0.8095238095238095
 40
0.8095238095238095
 40
0.8095238095238095
 40
0.8095238095238095
 40
0.8571428571428571
 40
0.8571428571428571
 40
0.8571428571428571
 40
0.8571428571428571
 40
0.9047619047619048
 40
0.9047619047619048
 40
0.9047619047619048
 40
0.9047619047619048
 40
1.0
 40
1.0
 40
1.0
 40
1.0
 10
164.1745
 20
13.3628
 30
0.0
 10
164.2356
 20
13.2819
 30
0.0
 10
164.3053
 20
13.2076
 30
0.0
 10
164.3823
 20
13.1416
 30
0.0
 10
164.3823
 20
13.1416
 30
0.0
 10
164.9591
 20
12.3762
 30
0.0
 10
165.6187
 20
11.6768
 30
0.0
 10
166.3487
 20
11.056
 30
0.0
 10
166.3487
 20
11.056
 30
0.0
 10
165.1215
 20
7.3355
 30
0.0
 10
165.3558
 20
3.2876
 30
0.0
 10
167.0042
 20
-0.2662
 30
0.0
 10
167.0042
 20
-0.2662
 30
0.0
 10
167.6897
 20
-1.5457
 30
0.0
 10
168.8881
 20
-2.4722
 30
0.0
 10
170.299
 20
-2.8136
 30
0.0
 10
170.299
 20
-2.8136
 30
0.0
 10
171.7097
 20
-3.1547
 30
0.0
 10
173.199
 20
-2.8786
 30
0.0
 10
174.3936
 20
-2.054
 30
0.0
 10
174.3936
 20
-2.054
 30
0.0
 10
175.1787
 20
-1.3194
 30
0.0
 10
175.7633
 20
-0.3964
 30
0.0
 10
176.0918
 20
0.6275
 30
0.0
 10
176.0918
 20
0.6275
 30
0.0
 10
176.4634
 20
1.1025
 30
0.0
 10
177.031
 20
1.3825
 30
0.0
 10
177.634
 20
1.3882
 30
0.0
 10
177.634
 20
1.3882
 30
0.0
 10
178.2371
 20
1.394
 30
0.0
 10
178.8098
 20
1.1251
 30
0.0
 10
179.1905
 20
0.6574
 30
0.0
 10
179.1905
 20
0.6574
 30
0.0
 10
179.8883
 20
0.0114
 30
0.0
 10
180.2874
 20
-0.8946
 30
0.0
 10
180.293
 20
-1.8454
 30
0.0
 10
180.293
 20
-1.8454
 30
0.0
 10
179.5983
 20
-4.4486
 30
0.0
 10
177.5441
 20
-6.4683
 30
0.0
 10
174.9298
 20
-7.1192
 30
0.0
 10
174.9298
 20
-7.1192
 30
0.0
 10
175.3129
 20
-8.4047
 30
0.0
 10
176.4523
 20
-9.3183
 30
0.0
 10
177.7902
 20
-9.4135
 30
0.0
 10
177.7902
 20
-9.4135
 30
0.0
 10
177.4761
 20
-10.6112
 30
0.0
 10
177.1782
 20
-11.8129
 30
0.0
 10
176.8963
 20
-13.0187
 30
0.0
 10
176.8963
 20
-13.0187
 30
0.0
 10
176.0048
 20
-13.899
 30
0.0
 10
174.6923
 20
-14.2001
 30
0.0
 10
173.5064
 20
-13.7962
 30
0.0
 10
173.5064
 20
-13.7962
 30
0.0
 10
172.3202
 20
-13.3925
 30
0.0
 10
171.4641
 20
-12.3533
 30
0.0
 10
171.2948
 20
-11.1119
 30
0.0
 10
171.2948
 20
-11.1119
 30
0.0
 10
171.4993
 20
-8.1961
 30
0.0
 10
170.4851
 20
-5.3261
 30
0.0
 10
168.494
 20
-3.1863
 30
0.0
 10
168.494
 20
-3.1863
 30
0.0
 10
165.685
 20
-1.3206
 30
0.0
 10
161.9115
 20
-1.9452
 30
0.0
 10
159.8533
 20
-4.6165
 30
0.0
 10
159.8533
 20
-4.6165
 30
0.0
 10
160.7311
 20
-2.7271
 30
0.0
 10
161.546
 20
-0.8092
 30
0.0
 10
162.2966
 20
1.1341
 30
0.0
 10
162.2966
 20
1.1341
 30
0.0
 10
162.9843
 20
1.3836
 30
0.0
 10
163.7469
 20
1.3182
 30
0.0
 10
164.3823
 20
0.9552
 30
0.0
 10
164.3823
 20
0.9552
 30
0.0
 10
164.1714
 20
2.274
 30
0.0
 10
163.706
 20
3.539
 30
0.0
 10
163.0117
 20
4.6797
 30
0.0
 10
163.0117
 20
4.6797
 30
0.0
 10
163.5804
 20
7.5469
 30
0.0
 10
163.9689
 20
10.4469
 30
0.0
 10
164.1745
 20
13.3628
 30
0.0
  0
SPLINE
  5
81
330
1F
100
AcDbEntity
  8
layer 1
 62
     7
370
     9
100
AcDbSpline
210
0.0
220
0.0
230
1.0
 70
    11
 71
     3
 72
    16
 73
    12
 74
     0
 42
0.0000000001
 43
0.0000000001
 12
1.0
 22
0.0
 32
0.0
 13
1.0
 23
0.0
 33
0.0
 40
0.0
 40
0.0
 40
0.0
 40
0.0
 40
0.25
 40
0.25
 40
0.25
 40
0.25
 40
0.5
 40
0.5
 40
0.5
 40
0.5
 40
1.0
 40
1.0
 40
1.0
 40
1.0
 10
157.6486
 20
-22.0169
 30
0.0
 10
155.8565
 20
-18.9384
 30
0.0
 10
155.3429
 20
-15.2798
 30
0.0
 10
156.2184
 20
-11.8268
 30
0.0
 10
156.2184
 20
-11.8268
 30
0.0
 10
154.1254
 20
-14.8507
 30
0.0
 10
151.6739
 20
-17.6097
 30
0.0
 10
148.9174
 20
-20.0441
 30
0.0
 10
148.9174
 20
-20.0441
 30
0.0
 10
151.9665
 20
-19.7035
 30
0.0
 10
155.0418
 20
-20.3983
 30
0.0
 10
157.6486
 20
-22.0169
 30
0.0
  0
SPLINE
  5
82
330
1F
100
AcDbEntity
  8
layer 1
 62
     7
370
     9
100
AcDbSpline
210
0.0
220
0.0
230
1.0
 70
    11
 71
     3
 72
    32
 73
    28
 74
     0
 42
0.0000000001
 43
0.0000000001
 12
1.0
 22
0.0
 32
0.0
 13
1.0
 23
0.0
 33
0.0
 40
0.0
 40
0.0
 40
0.0
 40
0.0
 40
0.125
 40
0.125
 40
0.125
 40
0.125
 40
0.25
 40
0.25
 40
0.25
 40
0.25
 40
0.375
 40
0.375
 40
0.375
 40
0.375
 40
0.5
 40
0.5
 40
0.5
 40
0.5
 40
0.625
 40
0.625
 40
0.625
 40
0.625
 40
0.75
 40
0.75
 40
0.75
 40
0.75
 40
1.0
 40
1.0
 40
1.0
 40
1.0
 10
180.5314
 20
0.9255
 30
0.0
 10
180.4499
 20
2.1066
 30
0.0
 10
179.8349
 20
3.1862
 30
0.0
 10
178.8609
 20
3.8589
 30
0.0
 10
178.8609
 20
3.8589
 30
0.0
 10
177.8865
 20
4.5315
 30
0.0
 10
176.6591
 20
4.7241
 30
0.0
 10
175.5257
 20
4.3818
 30
0.0
 10
175.5257
 20
4.3818
 30
0.0
 10
175.0063
 20
5.6729
 30
0.0
 10
173.7759
 20
6.5376
 30
0.0
 10
172.3852
 20
6.589
 30
0.0
 10
172.3852
 20
6.589
 30
0.0
 10
170.9944
 20
6.6405
 30
0.0
 10
169.7036
 20
5.8693
 30
0.0
 10
169.0899
 20
4.6201
 30
0.0
 10
169.0899
 20
4.6201
 30
0.0
 10
167.9892
 20
7.3778
 30
0.0
 10
169.0806
 20
10.5254
 30
0.0
 10
171.6524
 20
12.0094
 30
0.0
 10
171.6524
 20
12.0094
 30
0.0
 10
173.6892
 20
12.7237
 30
0.0
 10
175.9516
 20
12.3166
 30
0.0
 10
177.6113
 20
10.9368
 30
0.0
 10
177.6113
 20
10.9368
 30
0.0
 10
180.3591
 20
8.3951
 30
0.0
 10
181.4818
 20
4.5458
 30
0.0
 10
180.5314
 20
0.9255
 30
0.0
  0
SPLINE
  5
83
330
1F
100
AcDbEntity
  8
layer 1
 62
     7
370
     9
100
AcDbSpline
210
0.0
220
0.0
230
1.0
 70
    11
 71
     3
 72
    52
 73
    48
 74
     0
 42
0.0000000001
 43
0.0000000001
 12
1.0
 22
0.0
 32
0.0
 13
1.0
 23
0.0
 33
0.0
 40
0.0
 40
0.0
 40
0.0
 40
0.0
 40
0.0769230769230769
 40
0.0769230769230769
 40
0.0769230769230769
 40
0.0769230769230769
 40
0.1538461538461539
 40
0.1538461538461539
 40
0.1538461538461539
 40
0.1538461538461539
 40
0.2307692307692308
 40
0.2307692307692308
 40
0.2307692307692308
 40
0.2307692307692308
 40
0.3076923076923077
 40
0.3076923076923077
 40
0.3076923076923077
 40
0.3076923076923077
 40
0.3846153846153846
 40
0.3846153846153846
 40
0.3846153846153846
 40
0.3846153846153846
 40
0.4615384615384616
 40
0.4615384615384616
 40
0.4615384615384616
 40
0.4615384615384616
 40
0.5384615384615384
 40
0.5384615384615384
 40
0.5384615384615384
 40
0.5384615384615384
 40
0.6153846153846154
 40
0.6153846153846154
 40
0.6153846153846154
 40
0.6153846153846154
 40
0.6923076923076923
 40
0.6923076923076923
 40
0.6923076923076923
 40
0.6923076923076923
 40
0.7692307692307693
 40
0.7692307692307693
 40
0.7692307692307693
 40
0.7692307692307693
 40
0.8461538461538461
 40
0.8461538461538461
 40
0.8461538461538461
 40
0.8461538461538461
 40
1.0
 40
1.0
 40
1.0
 40
1.0
 10
176.0025
 20
-15.5216
 30
0.0
 10
175.1896
 20
-16.3865
 30
0.0
 10
174.0349
 20
-16.8462
 30
0.0
 10
172.8499
 20
-16.7772
 30
0.0
 10
172.8499
 20
-16.7772
 30
0.0
 10
171.6649
 20
-16.7082
 30
0.0
 10
170.5716
 20
-16.1174
 30
0.0
 10
169.8646
 20
-15.164
 30
0.0
 10
169.8646
 20
-15.164
 30
0.0
 10
168.8694
 20
-16.4649
 30
0.0
 10
167.1555
 20
-16.9865
 30
0.0
 10
165.6044
 20
-16.4604
 30
0.0
 10
165.6044
 20
-16.4604
 30
0.0
 10
164.0533
 20
-15.9344
 30
0.0
 10
163.0102
 20
-14.4778
 30
0.0
 10
163.0117
 20
-12.8399
 30
0.0
 10
163.0117
 20
-12.8399
 30
0.0
 10
162.922
 20
-10.7273
 30
0.0
 10
164.3487
 20
-8.85
 30
0.0
 10
166.4083
 20
-8.3707
 30
0.0
 10
166.4083
 20
-8.3707
 30
0.0
 10
165.7456
 20
-7.1585
 30
0.0
 10
164.2302
 20
-6.7067
 30
0.0
 10
163.0117
 20
-7.3577
 30
0.0
 10
163.0117
 20
-7.3577
 30
0.0
 10
160.6015
 20
-9.0947
 30
0.0
 10
159.2185
 20
-11.9213
 30
0.0
 10
159.3263
 20
-14.8904
 30
0.0
 10
159.3263
 20
-14.8904
 30
0.0
 10
159.434
 20
-17.8593
 30
0.0
 10
161.0182
 20
-20.5783
 30
0.0
 10
163.5481
 20
-22.1362
 30
0.0
 10
163.5481
 20
-22.1362
 30
0.0
 10
163.7909
 20
-21.1582
 30
0.0
 10
164.5833
 20
-20.4124
 30
0.0
 10
165.5742
 20
-20.2292
 30
0.0
 10
165.5742
 20
-20.2292
 30
0.0
 10
166.0959
 20
-21.3152
 30
0.0
 10
167.0457
 20
-22.1354
 30
0.0
 10
168.1961
 20
-22.4936
 30
0.0
 10
168.1961
 20
-22.4936
 30
0.0
 10
169.2604
 20
-22.4644
 30
0.0
 10
170.2858
 20
-22.0876
 30
0.0
 10
171.116
 20
-21.421
 30
0.0
 10
171.116
 20
-21.421
 30
0.0
 10
173.1795
 20
-19.8593
 30
0.0
 10
174.8523
 20
-17.8398
 30
0.0
 10
176.0025
 20
-15.5216
 30
0.0
  0
SPLINE
  5
84
330
1F
100
AcDbEntity
  8
layer 1
 62
     7
370
     9
100
AcDbSpline
210
0.0
220
0.0
230
1.0
 70
    11
 71
     3
 72
    20
 73
    16
 74
     0
 42
0.0000000001
 43
0.0000000001
 12
1.0
 22
0.0
 32
0.0
 13
1.0
 23
0.0
 33
0.0
 40
0.0
 40
0.0
 40
0.0
 40
0.0
 40
0.2
 40
0.2
 40
0.2
 40
0.2
 40
0.4
 40
0.4
 40
0.4
 40
0.4
 40
0.6
 40
0.6
 40
0.6
 40
0.6
 40
1.0
 40
1.0
 40
1.0
 40
1.0
 10
167.0042
 20
-33.3392
 30
0.0
 10
166.393
 20
-31.2091
 30
0.0
 10
166.6952
 20
-28.9208
 30
0.0
 10
167.8385
 20
-27.0225
 30
0.0
 10
167.8385
 20
-27.0225
 30
0.0
 10
165.2777
 20
-27.552
 30
0.0
 10
162.6125
 20
-26.9671
 30
0.0
 10
160.5088
 20
-25.4136
 30
0.0
 10
160.5088
 20
-25.4136
 30
0.0
 10
161.7839
 20
-27.9988
 30
0.0
 10
162.3202
 20
-30.8858
 30
0.0
 10
162.0583
 20
-33.7562
 30
0.0
 10
162.0583
 20
-33.7562
 30
0.0
 10
163.5152
 20
-32.7472
 30
0.0
 10
165.3988
 20
-32.5883
 30
0.0
 10
167.0042
 20
-33.3392
 30
0.0
  0
SPLINE
  5
85
330
1F
100
AcDbEntity
  8
layer 1
 62
     7
370
     9
100
AcDbSpline
210
0.0
220
0.0
230
1.0
 70
    11
 71
     3
 72
    16
 73
    12
 74
     0
 42
0.0000000001
 43
0.0000000001
 12
1.0
 22
0.0
 32
0.0
 13
1.0
 23
0.0
 33
0.0
 40
0.0
 40
0.0
 40
0.0
 40
0.0
 40
0.25
 40
0.25
 40
0.25
 40
0.25
 40
0.5
 40
0.5
 40
0.5
 40
0.5
 40
1.0
 40
1.0
 40
1.0
 40
1.0
 10
154.7881
 20
-45.8532
 30
0.0
 10
157.5147
 20
-42.575
 30
0.0
 10
160.357
 20
-39.3948
 30
0.0
 10
163.3096
 20
-36.3187
 30
0.0
 10
163.3096
 20
-36.3187
 30
0.0
 10
164.447
 20
-35.5519
 30
0.0
 10
165.8197
 20
-35.214
 30
0.0
 10
167.1831
 20
-35.3653
 30
0.0
 10
167.1831
 20
-35.3653
 30
0.0
 10
163.4411
 20
-39.2974
 30
0.0
 10
159.2854
 20
-42.8138
 30
0.0
 10
154.7881
 20
-45.8532
 30
0.0
  0
SPLINE
  5
86
330
1F
100
AcDbEntity
  8
layer 1
 62
     7
370
     9
100
AcDbSpline
210
0.0
220
0.0
230
1.0
 70
    11
 71
     3
 72
    16
 73
    12
 74
     0
 42
0.0000000001
 43
0.0000000001
 12
1.0
 22
0.0
 32
0.0
 13
1.0
 23
0.0
 33
0.0
 40
0.0
 40
0.0
 40
0.0
 40
0.0
 40
0.25
 40
0.25
 40
0.25
 40
0.25
 40
0.5
 40
0.5
 40
0.5
 40
0.5
 40
1.0
 40
1.0
 40
1.0
 40
1.0
 10
177.1575
 20
-19.363
 30
0.0
 10
174.3445
 20
-22.5674
 30
0.0
 10
171.6466
 20
-25.8709
 30
0.0
 10
169.0686
 20
-29.2672
 30
0.0
 10
169.0686
 20
-29.2672
 30
0.0
 10
168.4886
 20
-30.5102
 30
0.0
 10
168.3689
 20
-31.9189
 30
0.0
 10
168.7309
 20
-33.2419
 30
0.0
 10
168.7309
 20
-33.2419
 30
0.0
 10
172.0314
 20
-28.9325
 30
0.0
 10
174.8566
 20
-24.2792
 30
0.0
 10
177.1575
 20
-19.363
 30
0.0
  0
SPLINE
  5
87
330
1F
100
AcDbEntity
  8
layer 1
 62
     7
370
     9
100
AcDbSpline
210
0.0
220
0.0
230
1.0
 70
    11
 71
     3
 72
    44
 73
    40
 74
     0
 42
0.0000000001
 43
0.0000000001
 12
1.0
 22
0.0
 32
0.0
 13
1.0
 23
0.0
 33
0.0
 40
0.0
 40
0.0
 40
0.0
 40
0.0
 40
0.0909090909090909
 40
0.0909090909090909
 40
0.0909090909090909
 40
0.0909090909090909
 40
0.1818181818181818
 40
0.1818181818181818
 40
0.1818181818181818
 40
0.1818181818181818
 40
0.2727272727272727
 40
0.2727272727272727
 40
0.2727272727272727
 40
0.2727272727272727
 40
0.3636363636363636
 40
0.3636363636363636
 40
0.3636363636363636
 40
0.3636363636363636
 40
0.4545454545454545
 40
0.4545454545454545
 40
0.4545454545454545
 40
0.4545454545454545
 40
0.5454545454545454
 40
0.5454545454545454
 40
0.5454545454545454
 40
0.5454545454545454
 40
0.6363636363636364
 40
0.6363636363636364
 40
0.6363636363636364
 40
0.6363636363636364
 40
0.7272727272727273
 40
0.7272727272727273
 40
0.7272727272727273
 40
0.7272727272727273
 40
0.8181818181818182
 40
0.8181818181818182
 40
0.8181818181818182
 40
0.8181818181818182
 40
1.0
 40
1.0
 40
1.0
 40
1.0
 10
152.1363
 20
-43.4993
 30
0.0
 10
153.6678
 20
-41.4503
 30
0.0
 10
153.5044
 20
-38.5967
 30
0.0
 10
151.749
 20
-36.7357
 30
0.0
 10
151.749
 20
-36.7357
 30
0.0
 10
153.3616
 20
-34.9197
 30
0.0
 10
153.6146
 20
-32.2692
 30
0.0
 10
152.3748
 20
-30.1809
 30
0.0
 10
152.3748
 20
-30.1809
 30
0.0
 10
151.324
 20
-28.7617
 30
0.0
 10
149.4268
 20
-28.2658
 30
0.0
 10
147.816
 20
-28.989
 30
0.0
 10
147.816
 20
-28.989
 30
0.0
 10
146.6112
 20
-29.736
 30
0.0
 10
145.976
 20
-31.1359
 30
0.0
 10
146.2071
 20
-32.5348
 30
0.0
 10
146.2071
 20
-32.5348
 30
0.0
 10
144.8323
 20
-31.0552
 30
0.0
 10
144.7316
 20
-28.7976
 30
0.0
 10
145.9688
 20
-27.2012
 30
0.0
 10
145.9688
 20
-27.2012
 30
0.0
 10
147.0101
 20
-25.3416
 30
0.0
 10
148.9349
 20
-24.1484
 30
0.0
 10
151.0639
 20
-24.043
 30
0.0
 10
151.0639
 20
-24.043
 30
0.0
 10
154.2775
 20
-23.9968
 30
0.0
 10
157.0464
 20
-26.2977
 30
0.0
 10
157.5889
 20
-29.4658
 30
0.0
 10
157.5889
 20
-29.4658
 30
0.0
 10
156.7498
 20
-29.8702
 30
0.0
 10
156.1294
 20
-30.6214
 30
0.0
 10
155.8905
 20
-31.5217
 30
0.0
 10
155.8905
 20
-31.5217
 30
0.0
 10
156.9822
 20
-32.0094
 30
0.0
 10
157.7077
 20
-33.0687
 30
0.0
 10
157.7676
 20
-34.2628
 30
0.0
 10
157.7676
 20
-34.2628
 30
0.0
 10
157.6999
 20
-38.1337
 30
0.0
 10
155.5462
 20
-41.6661
 30
0.0
 10
152.1363
 20
-43.4993
 30
0.0
  0
SPLINE
  5
88
330
1F
100
AcDbEntity
  8
layer 1
 62
     7
370
     9
100
AcDbSpline
210
0.0
220
0.0
230
1.0
 70
    11
 71
     3
 72
    32
 73
    28
 74
     0
 42
0.0000000001
 43
0.0000000001
 12
1.0
 22
0.0
 32
0.0
 13
1.0
 23
0.0
 33
0.0
 40
0.0
 40
0.0
 40
0.0
 40
0.0
 40
0.125
 40
0.125
 40
0.125
 40
0.125
 40
0.25
 40
0.25
 40
0.25
 40
0.25
 40
0.375
 40
0.375
 40
0.375
 40
0.375
 40
0.5
 40
0.5
 40
0.5
 40
0.5
 40
0.625
 40
0.625
 40
0.625
 40
0.625
 40
0.75
 40
0.75
 40
0.75
 40
0.75
 40
1.0
 40
1.0
 40
1.0
 40
1.0
 10
177.3134
 20
-70.6429
 30
0.0
 10
178.8181
 20
-71.5104
 30
0.0
 10
179.7201
 20
-73.1385
 30
0.0
 10
179.6577
 20
-74.8742
 30
0.0
 10
179.6577
 20
-74.8742
 30
0.0
 10
179.5953
 20
-76.61
 30
0.0
 10
178.5786
 20
-78.169
 30
0.0
 10
177.0155
 20
-78.926
 30
0.0
 10
177.0155
 20
-78.926
 30
0.0
 10
177.3415
 20
-80.8329
 30
0.0
 10
176.3706
 20
-82.7262
 30
0.0
 10
174.6319
 20
-83.5741
 30
0.0
 10
174.6319
 20
-83.5741
 30
0.0
 10
176.6827
 20
-83.7527
 30
0.0
 10
178.7171
 20
-83.0823
 30
0.0
 10
180.2601
 20
-81.7196
 30
0.0
 10
180.2601
 20
-81.7196
 30
0.0
 10
181.803
 20
-80.3569
 30
0.0
 10
182.7196
 20
-78.4208
 30
0.0
 10
182.7958
 20
-76.3637
 30
0.0
 10
182.7958
 20
-76.3637
 30
0.0
 10
182.9566
 20
-74.845
 30
0.0
 10
182.4398
 20
-73.3327
 30
0.0
 10
181.3832
 20
-72.2301
 30
0.0
 10
181.3832
 20
-72.2301
 30
0.0
 10
180.3265
 20
-71.1276
 30
0.0
 10
178.8376
 20
-70.5469
 30
0.0
 10
177.3134
 20
-70.6429
 30
0.0
  0
SPLINE
  5
89
330
1F
100
AcDbEntity
  8
layer 1
 62
     7
370
     9
100
AcDbSpline
210
0.0
220
0.0
230
1.0
 70
    11
 71
     3
 72
    40
 73
    36
 74
     0
 42
0.0000000001
 43
0.0000000001
 12
1.0
 22
0.0
 32
0.0
 13
1.0
 23
0.0
 33
0.0
 40
0.0
 40
0.0
 40
0.0
 40
0.0
 40
0.1
 40
0.1
 40
0.1
 40
0.1
 40
0.2
 40
0.2
 40
0.2
 40
0.2
 40
0.3
 40
0.3
 40
0.3
 40
0.3
 40
0.4
 40
0.4
 40
0.4
 40
0.4
 40
0.5
 40
0.5
 40
0.5
 40
0.5
 40
0.6
 40
0.6
 40
0.6
 40
0.6
 40
0.7
 40
0.7
 40
0.7
 40
0.7
 40
0.8
 40
0.8
 40
0.8
 40
0.8
 40
1.0
 40
1.0
 40
1.0
 40
1.0
 10
172.7845
 20
-82.8591
 30
0.0
 10
173.4839
 20
-82.7759
 30
0.0
 10
174.1031
 20
-82.3677
 30
0.0
 10
174.4548
 20
-81.7577
 30
0.0
 10
174.4548
 20
-81.7577
 30
0.0
 10
174.8068
 20
-81.1476
 30
0.0
 10
174.8504
 20
-80.4073
 30
0.0
 10
174.5722
 20
-79.7604
 30
0.0
 10
174.5722
 20
-79.7604
 30
0.0
 10
174.2269
 20
-78.998
 30
0.0
 10
173.5788
 20
-78.4149
 30
0.0
 10
172.7845
 20
-78.1513
 30
0.0
 10
172.7845
 20
-78.1513
 30
0.0
 10
170.7103
 20
-75.9084
 30
0.0
 10
170.0938
 20
-72.6802
 30
0.0
 10
171.1956
 20
-69.8307
 30
0.0
 10
171.1956
 20
-69.8307
 30
0.0
 10
172.2974
 20
-66.9812
 30
0.0
 10
174.9253
 20
-65.0076
 30
0.0
 10
177.9689
 20
-64.7435
 30
0.0
 10
177.9689
 20
-64.7435
 30
0.0
 10
175.0059
 20
-62.7894
 30
0.0
 10
173.304
 20
-59.4083
 30
0.0
 10
173.4996
 20
-55.8643
 30
0.0
 10
173.4996
 20
-55.8643
 30
0.0
 10
171.2793
 20
-58.3153
 30
0.0
 10
170.9627
 20
-61.945
 30
0.0
 10
172.7249
 20
-64.7435
 30
0.0
 10
172.7249
 20
-64.7435
 30
0.0
 10
171.6345
 20
-65.125
 30
0.0
 10
170.4301
 20
-64.9936
 30
0.0
 10
169.4475
 20
-64.386
 30
0.0
 10
169.4475
 20
-64.386
 30
0.0
 10
165.8607
 20
-70.5254
 30
0.0
 10
167.2764
 20
-78.3624
 30
0.0
 10
172.7845
 20
-82.8591
 30
0.0
  0
SPLINE
  5
8A
330
1F
100
AcDbEntity
  8
layer 1
 62
     7
370
     9
100
AcDbSpline
210
0.0
220
0.0
230
1.0
 70
    11
 71
     3
 72
    32
 73
    28
 74
     0
 42
0.0000000001
 43
0.0000000001
 12
1.0
 22
0.0
 32
0.0
 13
1.0
 23
0.0
 33
0.0
 40
0.0
 40
0.0
 40
0.0
 40
0.0
 40
0.125
 40
0.125
 40
0.125
 40
0.125
 40
0.25
 40
0.25
 40
0.25
 40
0.25
 40
0.375
 40
0.375
 40
0.375
 40
0.375
 40
0.5
 40
0.5
 40
0.5
 40
0.5
 40
0.625
 40
0.625
 40
0.625
 40
0.625
 40
0.75
 40
0.75
 40
0.75
 40
0.75
 40
1.0
 40
1.0
 40
1.0
 40
1.0
 10
175.3767
 20
-36.9146
 30
0.0
 10
175.38
 20
-34.7263
 30
0.0
 10
175.7047
 20
-32.5503
 30
0.0
 10
176.34
 20
-30.4563
 30
0.0
 10
176.34
 20
-30.4563
 30
0.0
 10
181.0722
 20
-23.6731
 30
0.0
 10
184.7366
 20
-16.2047
 30
0.0
 10
187.2055
 20
-8.3111
 30
0.0
 10
187.2055
 20
-8.3111
 30
0.0
 10
185.2371
 20
-18.4173
 30
0.0
 10
181.9947
 20
-28.2333
 30
0.0
 10
177.556
 20
-37.5237
 30
0.0
 10
177.556
 20
-37.5237
 30
0.0
 10
176.1309
 20
-39.0625
 30
0.0
 10
174.3921
 20
-40.2774
 30
0.0
 10
172.4568
 20
-41.086
 30
0.0
 10
172.4568
 20
-41.086
 30
0.0
 10
171.0293
 20
-41.6526
 30
0.0
 10
169.4015
 20
-41.3177
 30
0.0
 10
168.3135
 20
-40.2336
 30
0.0
 10
168.3135
 20
-40.2336
 30
0.0
 10
169.8503
 20
-38.6455
 30
0.0
 10
171.3158
 20
-36.99
 30
0.0
 10
172.706
 20
-35.2721
 30
0.0
 10
172.706
 20
-35.2721
 30
0.0
 10
173.4037
 20
-36.0844
 30
0.0
 10
174.3372
 20
-36.6585
 30
0.0
 10
175.3767
 20
-36.9146
 30
0.0
  0
SPLINE
  5
8B
330
1F
100
AcDbEntity
  8
layer 1
 62
     7
370
     9
100
AcDbSpline
210
0.0
220
0.0
230
1.0
 70
    11
 71
     3
 72
    52
 73
    48
 74
     0
 42
0.0000000001
 43
0.0000000001
 12
1.0
 22
0.0
 32
0.0
 13
1.0
 23
0.0
 33
0.0
 40
0.0
 40
0.0
 40
0.0
 40
0.0
 40
0.0769230769230769
 40
0.0769230769230769
 40
0.0769230769230769
 40
0.0769230769230769
 40
0.1538461538461539
 40
0.1538461538461539
 40
0.1538461538461539
 40
0.1538461538461539
 40
0.2307692307692308
 40
0.2307692307692308
 40
0.2307692307692308
 40
0.2307692307692308
 40
0.3076923076923077
 40
0.3076923076923077
 40
0.3076923076923077
 40
0.3076923076923077
 40
0.3846153846153846
 40
0.3846153846153846
 40
0.3846153846153846
 40
0.3846153846153846
 40
0.4615384615384616
 40
0.4615384615384616
 40
0.4615384615384616
 40
0.4615384615384616
 40
0.5384615384615384
 40
0.5384615384615384
 40
0.5384615384615384
 40
0.5384615384615384
 40
0.6153846153846154
 40
0.6153846153846154
 40
0.6153846153846154
 40
0.6153846153846154
 40
0.6923076923076923
 40
0.6923076923076923
 40
0.6923076923076923
 40
0.6923076923076923
 40
0.7692307692307693
 40
0.7692307692307693
 40
0.7692307692307693
 40
0.7692307692307693
 40
0.8461538461538461
 40
0.8461538461538461
 40
0.8461538461538461
 40
0.8461538461538461
 40
1.0
 40
1.0
 40
1.0
 40
1.0
 10
167.7798
 20
-40.7837
 30
0.0
 10
168.7274
 20
-43.3041
 30
0.0
 10
171.2935
 20
-44.8329
 30
0.0
 10
173.9612
 20
-44.4659
 30
0.0
 10
173.9612
 20
-44.4659
 30
0.0
 10
173.3435
 20
-45.5407
 30
0.0
 10
172.722
 20
-46.6132
 30
0.0
 10
172.0968
 20
-47.6836
 30
0.0
 10
172.0968
 20
-47.6836
 30
0.0
 10
171.1112
 20
-49.3258
 30
0.0
 10
170.0872
 20
-50.9446
 30
0.0
 10
169.0253
 20
-52.5387
 30
0.0
 10
169.0253
 20
-52.5387
 30
0.0
 10
168.0029
 20
-53.4464
 30
0.0
 10
166.9084
 20
-54.2696
 30
0.0
 10
165.7529
 20
-55.0005
 30
0.0
 10
165.7529
 20
-55.0005
 30
0.0
 10
164.0819
 20
-55.9091
 30
0.0
 10
162.0167
 20
-55.645
 30
0.0
 10
160.628
 20
-54.345
 30
0.0
 10
160.628
 20
-54.345
 30
0.0
 10
159.1329
 20
-52.72
 30
0.0
 10
156.879
 20
-52.0256
 30
0.0
 10
154.7285
 20
-52.5275
 30
0.0
 10
154.7285
 20
-52.5275
 30
0.0
 10
154.5462
 20
-52.322
 30
0.0
 10
154.3716
 20
-52.1101
 30
0.0
 10
154.205
 20
-51.8918
 30
0.0
 10
154.205
 20
-51.8918
 30
0.0
 10
154.3201
 20
-51.8259
 30
0.0
 10
154.4351
 20
-51.7597
 30
0.0
 10
154.5498
 20
-51.6931
 30
0.0
 10
154.5498
 20
-51.6931
 30
0.0
 10
156.7731
 20
-50.2256
 30
0.0
 10
158.9226
 20
-48.6492
 30
0.0
 10
160.9903
 20
-46.9698
 30
0.0
 10
160.9903
 20
-46.9698
 30
0.0
 10
161.8842
 20
-48.5564
 30
0.0
 10
163.5451
 20
-49.5577
 30
0.0
 10
165.3656
 20
-49.6074
 30
0.0
 10
165.3656
 20
-49.6074
 30
0.0
 10
164.895
 20
-46.8342
 30
0.0
 10
165.464
 20
-43.9849
 30
0.0
 10
166.9636
 20
-41.6051
 30
0.0
 10
166.9636
 20
-41.6051
 30
0.0
 10
167.2375
 20
-41.3332
 30
0.0
 10
167.5096
 20
-41.0594
 30
0.0
 10
167.7798
 20
-40.7837
 30
0.0
  0
SPLINE
  5
8C
330
1F
100
AcDbEntity
  8
layer 1
 62
     7
370
     9
100
AcDbSpline
210
0.0
220
0.0
230
1.0
 70
    11
 71
     3
 72
    88
 73
    84
 74
     0
 42
0.0000000001
 43
0.0000000001
 12
1.0
 22
0.0
 32
0.0
 13
1.0
 23
0.0
 33
0.0
 40
0.0
 40
0.0
 40
0.0
 40
0.0
 40
0.0454545454545455
 40
0.0454545454545455
 40
0.0454545454545455
 40
0.0454545454545455
 40
0.0909090909090909
 40
0.0909090909090909
 40
0.0909090909090909
 40
0.0909090909090909
 40
0.1363636363636364
 40
0.1363636363636364
 40
0.1363636363636364
 40
0.1363636363636364
 40
0.1818181818181818
 40
0.1818181818181818
 40
0.1818181818181818
 40
0.1818181818181818
 40
0.2272727272727273
 40
0.2272727272727273
 40
0.2272727272727273
 40
0.2272727272727273
 40
0.2727272727272727
 40
0.2727272727272727
 40
0.2727272727272727
 40
0.2727272727272727
 40
0.3181818181818182
 40
0.3181818181818182
 40
0.3181818181818182
 40
0.3181818181818182
 40
0.3636363636363636
 40
0.3636363636363636
 40
0.3636363636363636
 40
0.3636363636363636
 40
0.4090909090909091
 40
0.4090909090909091
 40
0.4090909090909091
 40
0.4090909090909091
 40
0.4545454545454545
 40
0.4545454545454545
 40
0.4545454545454545
 40
0.4545454545454545
 40
0.5
 40
0.5
 40
0.5
 40
0.5
 40
0.5454545454545454
 40
0.5454545454545454
 40
0.5454545454545454
 40
0.5454545454545454
 40
0.5909090909090909
 40
0.5909090909090909
 40
0.5909090909090909
 40
0.5909090909090909
 40
0.6363636363636364
 40
0.6363636363636364
 40
0.6363636363636364
 40
0.6363636363636364
 40
0.6818181818181818
 40
0.6818181818181818
 40
0.6818181818181818
 40
0.6818181818181818
 40
0.7272727272727273
 40
0.7272727272727273
 40
0.7272727272727273
 40
0.7272727272727273
 40
0.7727272727272727
 40
0.7727272727272727
 40
0.7727272727272727
 40
0.7727272727272727
 40
0.8181818181818182
 40
0.8181818181818182
 40
0.8181818181818182
 40
0.8181818181818182
 40
0.8636363636363636
 40
0.8636363636363636
 40
0.8636363636363636
 40
0.8636363636363636
 40
0.9090909090909091
 40
0.9090909090909091
 40
0.9090909090909091
 40
0.9090909090909091
 40
1.0
 40
1.0
 40
1.0
 40
1.0
 10
150.736
 20
-62.0023
 30
0.0
 10
149.9063
 20
-59.3911
 30
0.0
 10
150.4929
 20
-56.5363
 30
0.0
 10
152.2854
 20
-54.464
 30
0.0
 10
152.2854
 20
-54.464
 30
0.0
 10
152.2585
 20
-54.0034
 30
0.0
 10
152.1185
 20
-53.5567
 30
0.0
 10
151.8772
 20
-53.1635
 30
0.0
 10
151.8772
 20
-53.1635
 30
0.0
 10
149.9572
 20
-54.1453
 30
0.0
 10
147.9978
 20
-55.0482
 30
0.0
 10
146.0041
 20
-55.8703
 30
0.0
 10
146.0041
 20
-55.8703
 30
0.0
 10
146.6508
 20
-58.1368
 30
0.0
 10
146.3367
 20
-60.5696
 30
0.0
 10
145.1352
 20
-62.5975
 30
0.0
 10
145.1352
 20
-62.5975
 30
0.0
 10
143.9338
 20
-64.6253
 30
0.0
 10
141.9508
 20
-66.0695
 30
0.0
 10
139.6521
 20
-66.5907
 30
0.0
 10
139.6521
 20
-66.5907
 30
0.0
 10
139.8165
 20
-67.6642
 30
0.0
 10
139.7556
 20
-68.76
 30
0.0
 10
139.4734
 20
-69.8087
 30
0.0
 10
139.4734
 20
-69.8087
 30
0.0
 10
139.3276
 20
-70.8495
 30
0.0
 10
138.7289
 20
-71.7727
 30
0.0
 10
137.8379
 20
-72.3302
 30
0.0
 10
137.8379
 20
-72.3302
 30
0.0
 10
136.9469
 20
-72.8878
 30
0.0
 10
135.8549
 20
-73.0227
 30
0.0
 10
134.8551
 20
-72.6988
 30
0.0
 10
134.8551
 20
-72.6988
 30
0.0
 10
133.4392
 20
-72.1771
 30
0.0
 10
132.4619
 20
-70.8724
 30
0.0
 10
132.359
 20
-69.3671
 30
0.0
 10
132.359
 20
-69.3671
 30
0.0
 10
132.256
 20
-67.8617
 30
0.0
 10
133.0467
 20
-66.4363
 30
0.0
 10
134.3783
 20
-65.7267
 30
0.0
 10
134.3783
 20
-65.7267
 30
0.0
 10
133.609
 20
-64.7812
 30
0.0
 10
132.2584
 20
-64.552
 30
0.0
 10
131.2201
 20
-65.1904
 30
0.0
 10
131.2201
 20
-65.1904
 30
0.0
 10
129.5168
 20
-66.8495
 30
0.0
 10
128.8443
 20
-69.3003
 30
0.0
 10
129.4621
 20
-71.5965
 30
0.0
 10
129.4621
 20
-71.5965
 30
0.0
 10
130.4687
 20
-74.0831
 30
0.0
 10
132.505
 20
-76.0108
 30
0.0
 10
135.0432
 20
-76.8798
 30
0.0
 10
135.0432
 20
-76.8798
 30
0.0
 10
137.5814
 20
-77.7487
 30
0.0
 10
140.3718
 20
-77.4735
 30
0.0
 10
142.6913
 20
-76.1252
 30
0.0
 10
142.6913
 20
-76.1252
 30
0.0
 10
142.2788
 20
-74.6489
 30
0.0
 10
142.4831
 20
-73.0684
 30
0.0
 10
143.2573
 20
-71.7454
 30
0.0
 10
143.2573
 20
-71.7454
 30
0.0
 10
144.903
 20
-73.595
 30
0.0
 10
147.5029
 20
-74.2678
 30
0.0
 10
149.8391
 20
-73.4486
 30
0.0
 10
149.8391
 20
-73.4486
 30
0.0
 10
152.1198
 20
-71.6643
 30
0.0
 10
154.3097
 20
-69.7669
 30
0.0
 10
156.4005
 20
-67.7636
 30
0.0
 10
156.4005
 20
-67.7636
 30
0.0
 10
156.4
 20
-67.7603
 30
0.0
 10
156.3993
 20
-67.7569
 30
0.0
 10
156.3987
 20
-67.7536
 30
0.0
 10
156.3987
 20
-67.7536
 30
0.0
 10
155.5318
 20
-67.6317
 30
0.0
 10
154.727
 20
-67.2345
 30
0.0
 10
154.103
 20
-66.6206
 30
0.0
 10
154.103
 20
-66.6206
 30
0.0
 10
152.403
 20
-65.4299
 30
0.0
 10
150.1217
 20
-65.5027
 30
0.0
 10
148.5014
 20
-66.7993
 30
0.0
 10
148.5014
 20
-66.7993
 30
0.0
 10
147.9081
 20
-64.8641
 30
0.0
 10
148.8728
 20
-62.7934
 30
0.0
 10
150.736
 20
-62.0023
 30
0.0
  0
SPLINE
  5
8D
330
1F
100
AcDbEntity
  8
layer 1
 62
     7
370
     9
100
AcDbSpline
210
0.0
220
0.0
230
1.0
 70
    11
 71
     3
 72
    44
 73
    40
 74
     0
 42
0.0000000001
 43
0.0000000001
 12
1.0
 22
0.0
 32
0.0
 13
1.0
 23
0.0
 33
0.0
 40
0.0
 40
0.0
 40
0.0
 40
0.0
 40
0.0909090909090909
 40
0.0909090909090909
 40
0.0909090909090909
 40
0.0909090909090909
 40
0.1818181818181818
 40
0.1818181818181818
 40
0.1818181818181818
 40
0.1818181818181818
 40
0.2727272727272727
 40
0.2727272727272727
 40
0.2727272727272727
 40
0.2727272727272727
 40
0.3636363636363636
 40
0.3636363636363636
 40
0.3636363636363636
 40
0.3636363636363636
 40
0.4545454545454545
 40
0.4545454545454545
 40
0.4545454545454545
 40
0.4545454545454545
 40
0.5454545454545454
 40
0.5454545454545454
 40
0.5454545454545454
 40
0.5454545454545454
 40
0.6363636363636364
 40
0.6363636363636364
 40
0.6363636363636364
 40
0.6363636363636364
 40
0.7272727272727273
 40
0.7272727272727273
 40
0.7272727272727273
 40
0.7272727272727273
 40
0.8181818181818182
 40
0.8181818181818182
 40
0.8181818181818182
 40
0.8181818181818182
 40
1.0
 40
1.0
 40
1.0
 40
1.0
 10
154.2519
 20
-63.1047
 30
0.0
 10
153.3619
 20
-62.0185
 30
0.0
 10
153.0189
 20
-60.5843
 30
0.0
 10
153.3211
 20
-59.2131
 30
0.0
 10
153.3211
 20
-59.2131
 30
0.0
 10
153.6232
 20
-57.8419
 30
0.0
 10
154.5373
 20
-56.6846
 30
0.0
 10
155.8012
 20
-56.0729
 30
0.0
 10
155.8012
 20
-56.0729
 30
0.0
 10
155.3498
 20
-57.0189
 30
0.0
 10
155.3009
 20
-58.1074
 30
0.0
 10
155.666
 20
-59.0901
 30
0.0
 10
155.666
 20
-59.0901
 30
0.0
 10
156.0307
 20
-60.0726
 30
0.0
 10
156.7784
 20
-60.8653
 30
0.0
 10
157.7379
 20
-61.2873
 30
0.0
 10
157.7379
 20
-61.2873
 30
0.0
 10
158.7307
 20
-61.4719
 30
0.0
 10
159.7521
 20
-61.1756
 30
0.0
 10
160.492
 20
-60.4886
 30
0.0
 10
160.492
 20
-60.4886
 30
0.0
 10
161.2319
 20
-59.8016
 30
0.0
 10
161.6028
 20
-58.8047
 30
0.0
 10
161.4921
 20
-57.8011
 30
0.0
 10
161.4921
 20
-57.8011
 30
0.0
 10
163.0416
 20
-57.8171
 30
0.0
 10
164.5768
 20
-57.503
 30
0.0
 10
165.9955
 20
-56.8795
 30
0.0
 10
165.9955
 20
-56.8795
 30
0.0
 10
165.8359
 20
-57.0978
 30
0.0
 10
165.6756
 20
-57.3157
 30
0.0
 10
165.5145
 20
-57.533
 30
0.0
 10
165.5145
 20
-57.533
 30
0.0
 10
163.6241
 20
-60.0265
 30
0.0
 10
161.6002
 20
-62.4159
 30
0.0
 10
159.4515
 20
-64.6909
 30
0.0
 10
159.4515
 20
-64.6909
 30
0.0
 10
157.5618
 20
-65.0707
 30
0.0
 10
155.6078
 20
-64.4747
 30
0.0
 10
154.2519
 20
-63.1047
 30
0.0
  0
SPLINE
  5
8E
330
1F
100
AcDbEntity
  8
layer 1
 62
     7
370
     9
100
AcDbSpline
210
0.0
220
0.0
230
1.0
 70
    11
 71
     3
 72
    16
 73
    12
 74
     0
 42
0.0000000001
 43
0.0000000001
 12
1.0
 22
0.0
 32
0.0
 13
1.0
 23
0.0
 33
0.0
 40
0.0
 40
0.0
 40
0.0
 40
0.0
 40
0.25
 40
0.25
 40
0.25
 40
0.25
 40
0.5
 40
0.5
 40
0.5
 40
0.5
 40
1.0
 40
1.0
 40
1.0
 40
1.0
 10
158.5722
 20
4.4711
 30
0.0
 10
158.3628
 20
6.2739
 30
0.0
 10
158.1144
 20
8.0721
 30
0.0
 10
157.8273
 20
9.8641
 30
0.0
 10
157.8273
 20
9.8641
 30
0.0
 10
157.5022
 20
11.6628
 30
0.0
 10
158.3197
 20
13.4758
 30
0.0
 10
159.8832
 20
14.4228
 30
0.0
 10
159.8832
 20
14.4228
 30
0.0
 10
159.6809
 20
11.079
 30
0.0
 10
159.2428
 20
7.7533
 30
0.0
 10
158.5722
 20
4.4711
 30
0.0
  0
SPLINE
  5
8F
330
1F
100
AcDbEntity
  8
layer 1
 62
     7
370
     9
100
AcDbSpline
210
0.0
220
0.0
230
1.0
 70
    11
 71
     3
 72
    16
 73
    12
 74
     0
 42
0.0000000001
 43
0.0000000001
 12
1.0
 22
0.0
 32
0.0
 13
1.0
 23
0.0
 33
0.0
 40
0.0
 40
0.0
 40
0.0
 40
0.0
 40
0.25
 40
0.25
 40
0.25
 40
0.25
 40
0.5
 40
0.5
 40
0.5
 40
0.5
 40
1.0
 40
1.0
 40
1.0
 40
1.0
 10
159.913
 20
15.7934
 30
0.0
 10
157.3097
 20
14.3499
 30
0.0
 10
154.0767
 20
14.7212
 30
0.0
 10
151.8683
 20
16.7171
 30
0.0
 10
151.8683
 20
16.7171
 30
0.0
 10
154.0767
 20
18.7129
 30
0.0
 10
157.3097
 20
19.0842
 30
0.0
 10
159.913
 20
17.6408
 30
0.0
 10
159.913
 20
17.6408
 30
0.0
 10
159.913
 20
17.6408
 30
0.0
 10
159.913
 20
15.7934
 30
0.0
 10
159.913
 20
15.7934
 30
0.0
  0
SPLINE
  5
90
330
1F
100
AcDbEntity
  8
layer 1
 62
     7
370
     9
100
AcDbSpline
210
0.0
220
0.0
230
1.0
 70
    11
 71
     3
 72
    16
 73
    12
 74
     0
 42
0.0000000001
 43
0.0000000001
 12
1.0
 22
0.0
 32
0.0
 13
1.0
 23
0.0
 33
0.0
 40
0.0
 40
0.0
 40
0.0
 40
0.0
 40
0.25
 40
0.25
 40
0.25
 40
0.25
 40
0.5
 40
0.5
 40
0.5
 40
0.5
 40
1.0
 40
1.0
 40
1.0
 40
1.0
 10
150.4977
 20
-10.933
 30
0.0
 10
149.9395
 20
-8.3826
 30
0.0
 10
150.8194
 20
-5.7311
 30
0.0
 10
152.7918
 20
-4.0205
 30
0.0
 10
152.7918
 20
-4.0205
 30
0.0
 10
154.2719
 20
-2.8667
 30
0.0
 10
155.6669
 20
-1.608
 30
0.0
 10
156.966
 20
-0.2537
 30
0.0
 10
156.966
 20
-0.2537
 30
0.0
 10
155.2593
 20
-4.067
 30
0.0
 10
153.0868
 20
-7.6541
 30
0.0
 10
150.4977
 20
-10.933
 30
0.0
  0
SPLINE
  5
91
330
1F
100
AcDbEntity
  8
layer 1
 62
     7
370
     9
100
AcDbSpline
210
0.0
220
0.0
230
1.0
 70
    11
 71
     3
 72
    48
 73
    44
 74
     0
 42
0.0000000001
 43
0.0000000001
 12
1.0
 22
0.0
 32
0.0
 13
1.0
 23
0.0
 33
0.0
 40
0.0
 40
0.0
 40
0.0
 40
0.0
 40
0.0833333333333333
 40
0.0833333333333333
 40
0.0833333333333333
 40
0.0833333333333333
 40
0.1666666666666667
 40
0.1666666666666667
 40
0.1666666666666667
 40
0.1666666666666667
 40
0.25
 40
0.25
 40
0.25
 40
0.25
 40
0.3333333333333333
 40
0.3333333333333333
 40
0.3333333333333333
 40
0.3333333333333333
 40
0.4166666666666667
 40
0.4166666666666667
 40
0.4166666666666667
 40
0.4166666666666667
 40
0.5
 40
0.5
 40
0.5
 40
0.5
 40
0.5833333333333334
 40
0.5833333333333334
 40
0.5833333333333334
 40
0.5833333333333334
 40
0.6666666666666666
 40
0.6666666666666666
 40
0.6666666666666666
 40
0.6666666666666666
 40
0.75
 40
0.75
 40
0.75
 40
0.75
 40
0.8333333333333334
 40
0.8333333333333334
 40
0.8333333333333334
 40
0.8333333333333334
 40
1.0
 40
1.0
 40
1.0
 40
1.0
 10
137.9538
 20
-8.1322
 30
0.0
 10
138.6267
 20
-9.4328
 30
0.0
 10
138.5049
 20
-11.0021
 30
0.0
 10
137.6395
 20
-12.1832
 30
0.0
 10
137.6395
 20
-12.1832
 30
0.0
 10
136.7743
 20
-13.3644
 30
0.0
 10
135.3147
 20
-13.9535
 30
0.0
 10
133.8718
 20
-13.7039
 30
0.0
 10
133.8718
 20
-13.7039
 30
0.0
 10
132.4833
 20
-13.227
 30
0.0
 10
131.574
 20
-11.8934
 30
0.0
 10
131.6371
 20
-10.4265
 30
0.0
 10
131.6371
 20
-10.4265
 30
0.0
 10
129.6256
 20
-10.8204
 30
0.0
 10
127.6091
 20
-9.7689
 30
0.0
 10
126.7805
 20
-7.8939
 30
0.0
 10
126.7805
 20
-7.8939
 30
0.0
 10
126.718
 20
-10.9669
 30
0.0
 10
127.7414
 20
-13.9632
 30
0.0
 10
129.6707
 20
-16.3558
 30
0.0
 10
129.6707
 20
-16.3558
 30
0.0
 10
129.8844
 20
-15.4658
 30
0.0
 10
130.572
 20
-14.7667
 30
0.0
 10
131.4584
 20
-14.5383
 30
0.0
 10
131.4584
 20
-14.5383
 30
0.0
 10
131.2122
 20
-15.4712
 30
0.0
 10
131.3514
 20
-16.4638
 30
0.0
 10
131.8444
 20
-17.2931
 30
0.0
 10
131.8444
 20
-17.2931
 30
0.0
 10
132.3375
 20
-18.1224
 30
0.0
 10
133.1433
 20
-18.7187
 30
0.0
 10
134.0804
 20
-18.948
 30
0.0
 10
134.0804
 20
-18.948
 30
0.0
 10
135.3786
 20
-19.0617
 30
0.0
 10
136.6619
 20
-18.605
 30
0.0
 10
137.5963
 20
-17.6966
 30
0.0
 10
137.5963
 20
-17.6966
 30
0.0
 10
139.3046
 20
-15.7994
 30
0.0
 10
140.1181
 20
-13.2611
 30
0.0
 10
139.8309
 20
-10.7245
 30
0.0
 10
139.8309
 20
-10.7245
 30
0.0
 10
139.6116
 20
-9.6288
 30
0.0
 10
138.9264
 20
-8.6827
 30
0.0
 10
137.9538
 20
-8.1322
 30
0.0
  0
SPLINE
  5
92
330
1F
100
AcDbEntity
  8
layer 1
 62
     7
370
     9
100
AcDbSpline
210
0.0
220
0.0
230
1.0
 70
    11
 71
     3
 72
    72
 73
    68
 74
     0
 42
0.0000000001
 43
0.0000000001
 12
1.0
 22
0.0
 32
0.0
 13
1.0
 23
0.0
 33
0.0
 40
0.0
 40
0.0
 40
0.0
 40
0.0
 40
0.0555555555555556
 40
0.0555555555555556
 40
0.0555555555555556
 40
0.0555555555555556
 40
0.1111111111111111
 40
0.1111111111111111
 40
0.1111111111111111
 40
0.1111111111111111
 40
0.1666666666666667
 40
0.1666666666666667
 40
0.1666666666666667
 40
0.1666666666666667
 40
0.2222222222222222
 40
0.2222222222222222
 40
0.2222222222222222
 40
0.2222222222222222
 40
0.2777777777777778
 40
0.2777777777777778
 40
0.2777777777777778
 40
0.2777777777777778
 40
0.3333333333333333
 40
0.3333333333333333
 40
0.3333333333333333
 40
0.3333333333333333
 40
0.3888888888888889
 40
0.3888888888888889
 40
0.3888888888888889
 40
0.3888888888888889
 40
0.4444444444444444
 40
0.4444444444444444
 40
0.4444444444444444
 40
0.4444444444444444
 40
0.5
 40
0.5
 40
0.5
 40
0.5
 40
0.5555555555555556
 40
0.5555555555555556
 40
0.5555555555555556
 40
0.5555555555555556
 40
0.6111111111111112
 40
0.6111111111111112
 40
0.6111111111111112
 40
0.6111111111111112
 40
0.6666666666666666
 40
0.6666666666666666
 40
0.6666666666666666
 40
0.6666666666666666
 40
0.7222222222222222
 40
0.7222222222222222
 40
0.7222222222222222
 40
0.7222222222222222
 40
0.7777777777777778
 40
0.7777777777777778
 40
0.7777777777777778
 40
0.7777777777777778
 40
0.8333333333333334
 40
0.8333333333333334
 40
0.8333333333333334
 40
0.8333333333333334
 40
0.8888888888888888
 40
0.8888888888888888
 40
0.8888888888888888
 40
0.8888888888888888
 40
1.0
 40
1.0
 40
1.0
 40
1.0
 10
149.3357
 20
-12.5122
 30
0.0
 10
147.8006
 20
-11.2092
 30
0.0
 10
145.6223
 20
-10.9842
 30
0.0
 10
143.8534
 20
-11.9461
 30
0.0
 10
143.8534
 20
-11.9461
 30
0.0
 10
144.6613
 20
-8.2062
 30
0.0
 10
142.818
 20
-4.3968
 30
0.0
 10
139.384
 20
-2.7095
 30
0.0
 10
139.384
 20
-2.7095
 30
0.0
 10
137.805
 20
-2.0611
 30
0.0
 10
136.0239
 20
-2.1204
 30
0.0
 10
134.4914
 20
-2.8723
 30
0.0
 10
134.4914
 20
-2.8723
 30
0.0
 10
132.959
 20
-3.6242
 30
0.0
 10
131.8223
 20
-4.9968
 30
0.0
 10
131.3691
 20
-6.6426
 30
0.0
 10
131.3691
 20
-6.6426
 30
0.0
 10
131.2071
 20
-6.9626
 30
0.0
 10
130.9245
 20
-7.2051
 30
0.0
 10
130.5836
 20
-7.3169
 30
0.0
 10
130.5836
 20
-7.3169
 30
0.0
 10
130.2428
 20
-7.4287
 30
0.0
 10
129.8715
 20
-7.4004
 30
0.0
 10
129.5514
 20
-7.2384
 30
0.0
 10
129.5514
 20
-7.2384
 30
0.0
 10
127.7969
 20
-6.563
 30
0.0
 10
126.5135
 20
-5.0319
 30
0.0
 10
126.1548
 20
-3.1863
 30
0.0
 10
126.1548
 20
-3.1863
 30
0.0
 10
126.0154
 20
-0.6859
 30
0.0
 10
125.9558
 20
1.8181
 30
0.0
 10
125.9761
 20
4.3221
 30
0.0
 10
125.9761
 20
4.3221
 30
0.0
 10
127.1685
 20
3.0861
 30
0.0
 10
128.8153
 20
2.393
 30
0.0
 10
130.5326
 20
2.4042
 30
0.0
 10
130.5326
 20
2.4042
 30
0.0
 10
132.25
 20
2.4155
 30
0.0
 10
133.8876
 20
3.1302
 30
0.0
 10
135.0637
 20
4.3818
 30
0.0
 10
135.0637
 20
4.3818
 30
0.0
 10
137.6214
 20
7.5161
 30
0.0
 10
137.7915
 20
11.9663
 30
0.0
 10
135.4809
 20
15.2868
 30
0.0
 10
135.4809
 20
15.2868
 30
0.0
 10
138.1801
 20
15.6715
 30
0.0
 10
140.9332
 20
15.3428
 30
0.0
 10
143.4659
 20
14.3334
 30
0.0
 10
143.4659
 20
14.3334
 30
0.0
 10
144.345
 20
13.6608
 30
0.0
 10
144.9163
 20
12.6624
 30
0.0
 10
145.0509
 20
11.5639
 30
0.0
 10
145.0509
 20
11.5639
 30
0.0
 10
145.1855
 20
10.4649
 30
0.0
 10
144.8719
 20
9.3584
 30
0.0
 10
144.181
 20
8.4935
 30
0.0
 10
144.181
 20
8.4935
 30
0.0
 10
141.3558
 20
6.4417
 30
0.0
 10
140.1984
 20
2.7876
 30
0.0
 10
141.3272
 20
-0.5166
 30
0.0
 10
141.3272
 20
-0.5166
 30
0.0
 10
142.456
 20
-3.821
 30
0.0
 10
145.6071
 20
-6.0033
 30
0.0
 10
149.0972
 20
-5.8977
 30
0.0
 10
149.0972
 20
-5.8977
 30
0.0
 10
148.3327
 20
-8.0526
 30
0.0
 10
148.418
 20
-10.4179
 30
0.0
 10
149.3357
 20
-12.5122
 30
0.0
  0
SPLINE
  5
93
330
1F
100
AcDbEntity
  8
layer 1
 62
     7
370
     9
100
AcDbSpline
210
0.0
220
0.0
230
1.0
 70
    11
 71
     3
 72
    48
 73
    44
 74
     0
 42
0.0000000001
 43
0.0000000001
 12
1.0
 22
0.0
 32
0.0
 13
1.0
 23
0.0
 33
0.0
 40
0.0
 40
0.0
 40
0.0
 40
0.0
 40
0.0833333333333333
 40
0.0833333333333333
 40
0.0833333333333333
 40
0.0833333333333333
 40
0.1666666666666667
 40
0.1666666666666667
 40
0.1666666666666667
 40
0.1666666666666667
 40
0.25
 40
0.25
 40
0.25
 40
0.25
 40
0.3333333333333333
 40
0.3333333333333333
 40
0.3333333333333333
 40
0.3333333333333333
 40
0.4166666666666667
 40
0.4166666666666667
 40
0.4166666666666667
 40
0.4166666666666667
 40
0.5
 40
0.5
 40
0.5
 40
0.5
 40
0.5833333333333334
 40
0.5833333333333334
 40
0.5833333333333334
 40
0.5833333333333334
 40
0.6666666666666666
 40
0.6666666666666666
 40
0.6666666666666666
 40
0.6666666666666666
 40
0.75
 40
0.75
 40
0.75
 40
0.75
 40
0.8333333333333334
 40
0.8333333333333334
 40
0.8333333333333334
 40
0.8333333333333334
 40
1.0
 40
1.0
 40
1.0
 40
1.0
 10
152.7324
 20
11.1453
 30
0.0
 10
150.8404
 20
13.2882
 30
0.0
 10
148.1121
 20
14.5055
 30
0.0
 10
145.2537
 20
14.4824
 30
0.0
 10
145.2537
 20
14.4824
 30
0.0
 10
147.3319
 20
13.2871
 30
0.0
 10
148.4305
 20
10.9108
 30
0.0
 10
147.9948
 20
8.5531
 30
0.0
 10
147.9948
 20
8.5531
 30
0.0
 10
149.5846
 20
8.1215
 30
0.0
 10
150.7332
 20
6.7394
 30
0.0
 10
150.8666
 20
5.0975
 30
0.0
 10
150.8666
 20
5.0975
 30
0.0
 10
151.0001
 20
3.4556
 30
0.0
 10
150.0899
 20
1.9063
 30
0.0
 10
148.5907
 20
1.2234
 30
0.0
 10
148.5907
 20
1.2234
 30
0.0
 10
147.7245
 20
0.9275
 30
0.0
 10
146.7877
 20
0.9066
 30
0.0
 10
145.9092
 20
1.1638
 30
0.0
 10
145.9092
 20
1.1638
 30
0.0
 10
146.401
 20
0.1861
 30
0.0
 10
147.2687
 20
-0.55
 30
0.0
 10
148.3136
 20
-0.8758
 30
0.0
 10
148.3136
 20
-0.8758
 30
0.0
 10
149.3583
 20
-1.2016
 30
0.0
 10
150.4908
 20
-1.0892
 30
0.0
 10
151.4511
 20
-0.5642
 30
0.0
 10
151.4511
 20
-0.5642
 30
0.0
 10
153.4403
 20
0.6526
 30
0.0
 10
154.8002
 20
2.6762
 30
0.0
 10
155.1756
 20
4.9776
 30
0.0
 10
155.1756
 20
4.9776
 30
0.0
 10
155.2655
 20
6.0341
 30
0.0
 10
154.912
 20
7.0803
 30
0.0
 10
154.2
 20
7.8658
 30
0.0
 10
154.2
 20
7.8658
 30
0.0
 10
153.4881
 20
8.6513
 30
0.0
 10
152.4815
 20
9.1054
 30
0.0
 10
151.4214
 20
9.1193
 30
0.0
 10
151.4214
 20
9.1193
 30
0.0
 10
151.6298
 20
9.9176
 30
0.0
 10
152.0894
 20
10.6279
 30
0.0
 10
152.7324
 20
11.1453
 30
0.0
  0
SPLINE
  5
94
330
1F
100
AcDbEntity
  8
layer 1
 62
     7
370
     9
100
AcDbSpline
210
0.0
220
0.0
230
1.0
 70
    11
 71
     3
 72
    24
 73
    20
 74
     0
 42
0.0000000001
 43
0.0000000001
 12
1.0
 22
0.0
 32
0.0
 13
1.0
 23
0.0
 33
0.0
 40
0.0
 40
0.0
 40
0.0
 40
0.0
 40
0.1666666666666667
 40
0.1666666666666667
 40
0.1666666666666667
 40
0.1666666666666667
 40
0.3333333333333333
 40
0.3333333333333333
 40
0.3333333333333333
 40
0.3333333333333333
 40
0.5
 40
0.5
 40
0.5
 40
0.5
 40
0.6666666666666666
 40
0.6666666666666666
 40
0.6666666666666666
 40
0.6666666666666666
 40
1.0
 40
1.0
 40
1.0
 40
1.0
 10
130.654
 20
15.0783
 30
0.0
 10
130.0723
 20
12.8319
 30
0.0
 10
128.4575
 20
10.9959
 30
0.0
 10
126.3039
 20
10.1323
 30
0.0
 10
126.3039
 20
10.1323
 30
0.0
 10
126.4852
 20
8.4943
 30
0.0
 10
127.2588
 20
6.9791
 30
0.0
 10
128.4789
 20
5.8716
 30
0.0
 10
128.4789
 20
5.8716
 30
0.0
 10
129.9835
 20
4.9705
 30
0.0
 10
131.8911
 20
5.1076
 30
0.0
 10
133.2513
 20
6.2144
 30
0.0
 10
133.2513
 20
6.2144
 30
0.0
 10
134.6117
 20
7.3213
 30
0.0
 10
135.1336
 20
9.1612
 30
0.0
 10
134.5572
 20
10.8175
 30
0.0
 10
134.5572
 20
10.8175
 30
0.0
 10
133.973
 20
12.7582
 30
0.0
 10
132.5361
 20
14.3268
 30
0.0
 10
130.654
 20
15.0783
 30
0.0
  0
SPLINE
  5
95
330
1F
100
AcDbEntity
  8
layer 1
 62
     7
370
     9
100
AcDbSpline
210
0.0
220
0.0
230
1.0
 70
    11
 71
     3
 72
    16
 73
    12
 74
     0
 42
0.0000000001
 43
0.0000000001
 12
1.0
 22
0.0
 32
0.0
 13
1.0
 23
0.0
 33
0.0
 40
0.0
 40
0.0
 40
0.0
 40
0.0
 40
0.25
 40
0.25
 40
0.25
 40
0.25
 40
0.5
 40
0.5
 40
0.5
 40
0.5
 40
1.0
 40
1.0
 40
1.0
 40
1.0
 10
184.5835
 20
116.7705
 30
0.0
 10
185.9722
 20
115.1206
 30
0.0
 10
186.8795
 20
113.1223
 30
0.0
 10
187.2055
 20
110.9902
 30
0.0
 10
187.2055
 20
110.9902
 30
0.0
 10
187.2055
 20
110.9902
 30
0.0
 10
187.2055
 20
119.9513
 30
0.0
 10
187.2055
 20
119.9513
 30
0.0
 10
187.2055
 20
119.9513
 30
0.0
 10
186.3928
 20
118.8415
 30
0.0
 10
185.5174
 20
117.7795
 30
0.0
 10
184.5835
 20
116.7705
 30
0.0
  0
SPLINE
  5
96
330
1F
100
AcDbEntity
  8
layer 1
 62
     7
370
     9
100
AcDbSpline
210
0.0
220
0.0
230
1.0
 70
    11
 71
     3
 72
    20
 73
    16
 74
     0
 42
0.0000000001
 43
0.0000000001
 12
1.0
 22
0.0
 32
0.0
 13
1.0
 23
0.0
 33
0.0
 40
0.0
 40
0.0
 40
0.0
 40
0.0
 40
0.2
 40
0.2
 40
0.2
 40
0.2
 40
0.4
 40
0.4
 40
0.4
 40
0.4
 40
0.6
 40
0.6
 40
0.6
 40
0.6
 40
1.0
 40
1.0
 40
1.0
 40
1.0
 10
187.2055
 20
107.4444
 30
0.0
 10
186.5894
 20
103.418
 30
0.0
 10
183.9271
 20
99.9994
 30
0.0
 10
180.1738
 20
98.4156
 30
0.0
 10
180.1738
 20
98.4156
 30
0.0
 10
183.1873
 20
98.1976
 30
0.0
 10
185.7212
 20
96.0721
 30
0.0
 10
186.4606
 20
93.1423
 30
0.0
 10
186.4606
 20
93.1423
 30
0.0
 10
186.7085
 20
93.1209
 30
0.0
 10
186.9569
 20
93.1043
 30
0.0
 10
187.2055
 20
93.0944
 30
0.0
 10
187.2055
 20
93.0944
 30
0.0
 10
187.2055
 20
93.0944
 30
0.0
 10
187.2055
 20
107.4444
 30
0.0
 10
187.2055
 20
107.4444
 30
0.0
  0
SPLINE
  5
97
330
1F
100
AcDbEntity
  8
layer 1
 62
     7
370
     9
100
AcDbSpline
210
0.0
220
0.0
230
1.0
 70
    11
 71
     3
 72
    20
 73
    16
 74
     0
 42
0.0000000001
 43
0.0000000001
 12
1.0
 22
0.0
 32
0.0
 13
1.0
 23
0.0
 33
0.0
 40
0.0
 40
0.0
 40
0.0
 40
0.0
 40
0.2
 40
0.2
 40
0.2
 40
0.2
 40
0.4
 40
0.4
 40
0.4
 40
0.4
 40
0.6
 40
0.6
 40
0.6
 40
0.6
 40
1.0
 40
1.0
 40
1.0
 40
1.0
 10
183.8088
 20
120.346
 30
0.0
 10
181.4906
 20
120.7969
 30
0.0
 10
179.2381
 20
121.5384
 30
0.0
 10
177.1042
 20
122.5508
 30
0.0
 10
177.1042
 20
122.5508
 30
0.0
 10
177.1042
 20
122.5508
 30
0.0
 10
187.2055
 20
122.5508
 30
0.0
 10
187.2055
 20
122.5508
 30
0.0
 10
187.2055
 20
122.5508
 30
0.0
 10
187.2055
 20
122.5508
 30
0.0
 10
187.2055
 20
122.3014
 30
0.0
 10
187.2055
 20
122.3014
 30
0.0
 10
187.2055
 20
122.3014
 30
0.0
 10
186.6253
 20
120.9736
 30
0.0
 10
185.2476
 20
120.1808
 30
0.0
 10
183.8088
 20
120.346
 30
0.0
  0
SPLINE
  5
98
330
1F
100
AcDbEntity
  8
layer 1
 62
     7
370
     9
100
AcDbSpline
210
0.0
220
0.0
230
1.0
 70
    11
 71
     3
 72
    56
 73
    52
 74
     0
 42
0.0000000001
 43
0.0000000001
 12
1.0
 22
0.0
 32
0.0
 13
1.0
 23
0.0
 33
0.0
 40
0.0
 40
0.0
 40
0.0
 40
0.0
 40
0.0714285714285714
 40
0.0714285714285714
 40
0.0714285714285714
 40
0.0714285714285714
 40
0.1428571428571428
 40
0.1428571428571428
 40
0.1428571428571428
 40
0.1428571428571428
 40
0.2142857142857143
 40
0.2142857142857143
 40
0.2142857142857143
 40
0.2142857142857143
 40
0.2857142857142857
 40
0.2857142857142857
 40
0.2857142857142857
 40
0.2857142857142857
 40
0.3571428571428572
 40
0.3571428571428572
 40
0.3571428571428572
 40
0.3571428571428572
 40
0.4285714285714285
 40
0.4285714285714285
 40
0.4285714285714285
 40
0.4285714285714285
 40
0.5
 40
0.5
 40
0.5
 40
0.5
 40
0.5714285714285714
 40
0.5714285714285714
 40
0.5714285714285714
 40
0.5714285714285714
 40
0.6428571428571429
 40
0.6428571428571429
 40
0.6428571428571429
 40
0.6428571428571429
 40
0.7142857142857143
 40
0.7142857142857143
 40
0.7142857142857143
 40
0.7142857142857143
 40
0.7857142857142857
 40
0.7857142857142857
 40
0.7857142857142857
 40
0.7857142857142857
 40
0.8571428571428571
 40
0.8571428571428571
 40
0.8571428571428571
 40
0.8571428571428571
 40
1.0
 40
1.0
 40
1.0
 40
1.0
 10
174.8689
 20
122.5508
 30
0.0
 10
170.9989
 20
122.1412
 30
0.0
 10
167.6618
 20
119.6491
 30
0.0
 10
166.17
 20
116.0554
 30
0.0
 10
166.17
 20
116.0554
 30
0.0
 10
165.8481
 20
116.8448
 30
0.0
 10
165.1441
 20
117.4162
 30
0.0
 10
164.3042
 20
117.5665
 30
0.0
 10
164.3042
 20
117.5665
 30
0.0
 10
163.4643
 20
117.7185
 30
0.0
 10
162.6056
 20
117.4278
 30
0.0
 10
162.0284
 20
116.8002
 30
0.0
 10
162.0284
 20
116.8002
 30
0.0
 10
163.8492
 20
115.5979
 30
0.0
 10
164.7943
 20
113.4394
 30
0.0
 10
164.4419
 20
111.2875
 30
0.0
 10
164.4419
 20
111.2875
 30
0.0
 10
164.0842
 20
107.8474
 30
0.0
 10
164.2449
 20
104.3709
 30
0.0
 10
164.9185
 20
100.9787
 30
0.0
 10
164.9185
 20
100.9787
 30
0.0
 10
163.3947
 20
102.6418
 30
0.0
 10
161.8652
 20
104.2999
 30
0.0
 10
160.3301
 20
105.9547
 30
0.0
 10
160.3301
 20
105.9547
 30
0.0
 10
158.7191
 20
108.2157
 30
0.0
 10
157.9305
 20
110.9588
 30
0.0
 10
158.0955
 20
113.73
 30
0.0
 10
158.0955
 20
113.73
 30
0.0
 10
156.7431
 20
113.1702
 30
0.0
 10
155.7901
 20
111.9332
 30
0.0
 10
155.5926
 20
110.4832
 30
0.0
 10
155.5926
 20
110.4832
 30
0.0
 10
151.0135
 20
112.5773
 30
0.0
 10
148.6815
 20
117.7284
 30
0.0
 10
150.1304
 20
122.5508
 30
0.0
 10
150.1304
 20
122.5508
 30
0.0
 10
150.1304
 20
122.5508
 30
0.0
 10
155.2136
 20
122.5508
 30
0.0
 10
155.2136
 20
122.5508
 30
0.0
 10
155.2136
 20
122.5508
 30
0.0
 10
154.9573
 20
120.6036
 30
0.0
 10
155.3976
 20
118.6301
 30
0.0
 10
156.4567
 20
116.9786
 30
0.0
 10
156.4567
 20
116.9786
 30
0.0
 10
157.7683
 20
119.5632
 30
0.0
 10
160.0104
 20
121.5533
 30
0.0
 10
162.7314
 20
122.5508
 30
0.0
 10
162.7314
 20
122.5508
 30
0.0
 10
162.7314
 20
122.5508
 30
0.0
 10
174.8689
 20
122.5508
 30
0.0
 10
174.8689
 20
122.5508
 30
0.0
  0
SPLINE
  5
99
330
1F
100
AcDbEntity
  8
layer 1
 62
     7
370
     9
100
AcDbSpline
210
0.0
220
0.0
230
1.0
 70
    11
 71
     3
 72
    16
 73
    12
 74
     0
 42
0.0000000001
 43
0.0000000001
 12
1.0
 22
0.0
 32
0.0
 13
1.0
 23
0.0
 33
0.0
 40
0.0
 40
0.0
 40
0.0
 40
0.0
 40
0.25
 40
0.25
 40
0.25
 40
0.25
 40
0.5
 40
0.5
 40
0.5
 40
0.5
 40
1.0
 40
1.0
 40
1.0
 40
1.0
 10
148.1292
 20
122.5508
 30
0.0
 10
147.1575
 20
120.8398
 30
0.0
 10
146.525
 20
118.9588
 30
0.0
 10
146.2667
 20
117.0083
 30
0.0
 10
146.2667
 20
117.0083
 30
0.0
 10
141.7585
 20
119.5731
 30
0.0
 10
136.8883
 20
121.4426
 30
0.0
 10
131.8211
 20
122.5508
 30
0.0
 10
131.8211
 20
122.5508
 30
0.0
 10
131.8211
 20
122.5508
 30
0.0
 10
148.1292
 20
122.5508
 30
0.0
 10
148.1292
 20
122.5508
 30
0.0
  0
SPLINE
  5
9A
330
1F
100
AcDbEntity
  8
layer 1
 62
     7
370
     9
100
AcDbSpline
210
0.0
220
0.0
230
1.0
 70
    11
 71
     3
 72
    84
 73
    80
 74
     0
 42
0.0000000001
 43
0.0000000001
 12
1.0
 22
0.0
 32
0.0
 13
1.0
 23
0.0
 33
0.0
 40
0.0
 40
0.0
 40
0.0
 40
0.0
 40
0.0476190476190476
 40
0.0476190476190476
 40
0.0476190476190476
 40
0.0476190476190476
 40
0.0952380952380952
 40
0.0952380952380952
 40
0.0952380952380952
 40
0.0952380952380952
 40
0.1428571428571428
 40
0.1428571428571428
 40
0.1428571428571428
 40
0.1428571428571428
 40
0.1904761904761905
 40
0.1904761904761905
 40
0.1904761904761905
 40
0.1904761904761905
 40
0.2380952380952381
 40
0.2380952380952381
 40
0.2380952380952381
 40
0.2380952380952381
 40
0.2857142857142857
 40
0.2857142857142857
 40
0.2857142857142857
 40
0.2857142857142857
 40
0.3333333333333333
 40
0.3333333333333333
 40
0.3333333333333333
 40
0.3333333333333333
 40
0.3809523809523809
 40
0.3809523809523809
 40
0.3809523809523809
 40
0.3809523809523809
 40
0.4285714285714285
 40
0.4285714285714285
 40
0.4285714285714285
 40
0.4285714285714285
 40
0.4761904761904762
 40
0.4761904761904762
 40
0.4761904761904762
 40
0.4761904761904762
 40
0.5238095238095238
 40
0.5238095238095238
 40
0.5238095238095238
 40
0.5238095238095238
 40
0.5714285714285714
 40
0.5714285714285714
 40
0.5714285714285714
 40
0.5714285714285714
 40
0.6190476190476191
 40
0.6190476190476191
 40
0.6190476190476191
 40
0.6190476190476191
 40
0.6666666666666666
 40
0.6666666666666666
 40
0.6666666666666666
 40
0.6666666666666666
 40
0.7142857142857143
 40
0.7142857142857143
 40
0.7142857142857143
 40
0.7142857142857143
 40
0.7619047619047619
 40
0.7619047619047619
 40
0.7619047619047619
 40
0.7619047619047619
 40
0.8095238095238095
 40
0.8095238095238095
 40
0.8095238095238095
 40
0.8095238095238095
 40
0.8571428571428571
 40
0.8571428571428571
 40
0.8571428571428571
 40
0.8571428571428571
 40
0.9047619047619048
 40
0.9047619047619048
 40
0.9047619047619048
 40
0.9047619047619048
 40
1.0
 40
1.0
 40
1.0
 40
1.0
 10
164.1745
 20
20.0711
 30
0.0
 10
164.2356
 20
20.1522
 30
0.0
 10
164.3053
 20
20.2264
 30
0.0
 10
164.3823
 20
20.2924
 30
0.0
 10
164.3823
 20
20.2924
 30
0.0
 10
164.9591
 20
21.0579
 30
0.0
 10
165.6187
 20
21.7573
 30
0.0
 10
166.3487
 20
22.3781
 30
0.0
 10
166.3487
 20
22.3781
 30
0.0
 10
165.1215
 20
26.0986
 30
0.0
 10
165.3558
 20
30.1465
 30
0.0
 10
167.0042
 20
33.7004
 30
0.0
 10
167.0042
 20
33.7004
 30
0.0
 10
167.6897
 20
34.9798
 30
0.0
 10
168.8881
 20
35.9063
 30
0.0
 10
170.299
 20
36.2475
 30
0.0
 10
170.299
 20
36.2475
 30
0.0
 10
171.7097
 20
36.5889
 30
0.0
 10
173.199
 20
36.3126
 30
0.0
 10
174.3936
 20
35.4881
 30
0.0
 10
174.3936
 20
35.4881
 30
0.0
 10
175.1787
 20
34.7534
 30
0.0
 10
175.7633
 20
33.8303
 30
0.0
 10
176.0918
 20
32.8066
 30
0.0
 10
176.0918
 20
32.8066
 30
0.0
 10
176.4634
 20
32.3316
 30
0.0
 10
177.031
 20
32.0516
 30
0.0
 10
177.634
 20
32.0457
 30
0.0
 10
177.634
 20
32.0457
 30
0.0
 10
178.2371
 20
32.0399
 30
0.0
 10
178.8098
 20
32.3089
 30
0.0
 10
179.1905
 20
32.7767
 30
0.0
 10
179.1905
 20
32.7767
 30
0.0
 10
179.8883
 20
33.4227
 30
0.0
 10
180.2874
 20
34.3287
 30
0.0
 10
180.293
 20
35.2795
 30
0.0
 10
180.293
 20
35.2795
 30
0.0
 10
179.5983
 20
37.8825
 30
0.0
 10
177.5441
 20
39.9024
 30
0.0
 10
174.9298
 20
40.5533
 30
0.0
 10
174.9298
 20
40.5533
 30
0.0
 10
175.3129
 20
41.8388
 30
0.0
 10
176.4523
 20
42.7526
 30
0.0
 10
177.7902
 20
42.8476
 30
0.0
 10
177.7902
 20
42.8476
 30
0.0
 10
177.4761
 20
44.0452
 30
0.0
 10
177.1782
 20
45.247
 30
0.0
 10
176.8963
 20
46.4528
 30
0.0
 10
176.8963
 20
46.4528
 30
0.0
 10
176.0048
 20
47.3331
 30
0.0
 10
174.6923
 20
47.6342
 30
0.0
 10
173.5064
 20
47.2303
 30
0.0
 10
173.5064
 20
47.2303
 30
0.0
 10
172.3202
 20
46.8266
 30
0.0
 10
171.4641
 20
45.7872
 30
0.0
 10
171.2948
 20
44.546
 30
0.0
 10
171.2948
 20
44.546
 30
0.0
 10
171.4993
 20
41.6301
 30
0.0
 10
170.4851
 20
38.7603
 30
0.0
 10
168.494
 20
36.6204
 30
0.0
 10
168.494
 20
36.6204
 30
0.0
 10
165.685
 20
34.7547
 30
0.0
 10
161.9115
 20
35.3793
 30
0.0
 10
159.8533
 20
38.0504
 30
0.0
 10
159.8533
 20
38.0504
 30
0.0
 10
160.7311
 20
36.1613
 30
0.0
 10
161.546
 20
34.2434
 30
0.0
 10
162.2966
 20
32.3
 30
0.0
 10
162.2966
 20
32.3
 30
0.0
 10
162.9843
 20
32.0505
 30
0.0
 10
163.7469
 20
32.1159
 30
0.0
 10
164.3823
 20
32.4787
 30
0.0
 10
164.3823
 20
32.4787
 30
0.0
 10
164.1714
 20
31.1602
 30
0.0
 10
163.706
 20
29.8951
 30
0.0
 10
163.0117
 20
28.7544
 30
0.0
 10
163.0117
 20
28.7544
 30
0.0
 10
163.5804
 20
25.8871
 30
0.0
 10
163.9689
 20
22.987
 30
0.0
 10
164.1745
 20
20.0711
 30
0.0
  0
SPLINE
  5
9B
330
1F
100
AcDbEntity
  8
layer 1
 62
     7
370
     9
100
AcDbSpline
210
0.0
220
0.0
230
1.0
 70
    11
 71
     3
 72
    16
 73
    12
 74
     0
 42
0.0000000001
 43
0.0000000001
 12
1.0
 22
0.0
 32
0.0
 13
1.0
 23
0.0
 33
0.0
 40
0.0
 40
0.0
 40
0.0
 40
0.0
 40
0.25
 40
0.25
 40
0.25
 40
0.25
 40
0.5
 40
0.5
 40
0.5
 40
0.5
 40
1.0
 40
1.0
 40
1.0
 40
1.0
 10
157.6486
 20
55.4509
 30
0.0
 10
155.8565
 20
52.3725
 30
0.0
 10
155.3429
 20
48.7139
 30
0.0
 10
156.2184
 20
45.2609
 30
0.0
 10
156.2184
 20
45.2609
 30
0.0
 10
154.1254
 20
48.2848
 30
0.0
 10
151.6739
 20
51.044
 30
0.0
 10
148.9174
 20
53.4782
 30
0.0
 10
148.9174
 20
53.4782
 30
0.0
 10
151.9665
 20
53.1376
 30
0.0
 10
155.0418
 20
53.8324
 30
0.0
 10
157.6486
 20
55.4509
 30
0.0
  0
SPLINE
  5
9C
330
1F
100
AcDbEntity
  8
layer 1
 62
     7
370
     9
100
AcDbSpline
210
0.0
220
0.0
230
1.0
 70
    11
 71
     3
 72
    32
 73
    28
 74
     0
 42
0.0000000001
 43
0.0000000001
 12
1.0
 22
0.0
 32
0.0
 13
1.0
 23
0.0
 33
0.0
 40
0.0
 40
0.0
 40
0.0
 40
0.0
 40
0.125
 40
0.125
 40
0.125
 40
0.125
 40
0.25
 40
0.25
 40
0.25
 40
0.25
 40
0.375
 40
0.375
 40
0.375
 40
0.375
 40
0.5
 40
0.5
 40
0.5
 40
0.5
 40
0.625
 40
0.625
 40
0.625
 40
0.625
 40
0.75
 40
0.75
 40
0.75
 40
0.75
 40
1.0
 40
1.0
 40
1.0
 40
1.0
 10
180.5314
 20
32.5086
 30
0.0
 10
180.4499
 20
31.3275
 30
0.0
 10
179.8349
 20
30.2477
 30
0.0
 10
178.8609
 20
29.5751
 30
0.0
 10
178.8609
 20
29.5751
 30
0.0
 10
177.8865
 20
28.9024
 30
0.0
 10
176.6591
 20
28.71
 30
0.0
 10
175.5257
 20
29.0523
 30
0.0
 10
175.5257
 20
29.0523
 30
0.0
 10
175.0063
 20
27.7612
 30
0.0
 10
173.7759
 20
26.8965
 30
0.0
 10
172.3852
 20
26.8449
 30
0.0
 10
172.3852
 20
26.8449
 30
0.0
 10
170.9944
 20
26.7936
 30
0.0
 10
169.7036
 20
27.5649
 30
0.0
 10
169.0899
 20
28.8139
 30
0.0
 10
169.0899
 20
28.8139
 30
0.0
 10
167.9892
 20
26.0564
 30
0.0
 10
169.0806
 20
22.9087
 30
0.0
 10
171.6524
 20
21.4247
 30
0.0
 10
171.6524
 20
21.4247
 30
0.0
 10
173.6892
 20
20.7102
 30
0.0
 10
175.9516
 20
21.1175
 30
0.0
 10
177.6113
 20
22.4973
 30
0.0
 10
177.6113
 20
22.4973
 30
0.0
 10
180.3591
 20
25.039
 30
0.0
 10
181.4818
 20
28.8883
 30
0.0
 10
180.5314
 20
32.5086
 30
0.0
  0
SPLINE
  5
9D
330
1F
100
AcDbEntity
  8
layer 1
 62
     7
370
     9
100
AcDbSpline
210
0.0
220
0.0
230
1.0
 70
    11
 71
     3
 72
    52
 73
    48
 74
     0
 42
0.0000000001
 43
0.0000000001
 12
1.0
 22
0.0
 32
0.0
 13
1.0
 23
0.0
 33
0.0
 40
0.0
 40
0.0
 40
0.0
 40
0.0
 40
0.0769230769230769
 40
0.0769230769230769
 40
0.0769230769230769
 40
0.0769230769230769
 40
0.1538461538461539
 40
0.1538461538461539
 40
0.1538461538461539
 40
0.1538461538461539
 40
0.2307692307692308
 40
0.2307692307692308
 40
0.2307692307692308
 40
0.2307692307692308
 40
0.3076923076923077
 40
0.3076923076923077
 40
0.3076923076923077
 40
0.3076923076923077
 40
0.3846153846153846
 40
0.3846153846153846
 40
0.3846153846153846
 40
0.3846153846153846
 40
0.4615384615384616
 40
0.4615384615384616
 40
0.4615384615384616
 40
0.4615384615384616
 40
0.5384615384615384
 40
0.5384615384615384
 40
0.5384615384615384
 40
0.5384615384615384
 40
0.6153846153846154
 40
0.6153846153846154
 40
0.6153846153846154
 40
0.6153846153846154
 40
0.6923076923076923
 40
0.6923076923076923
 40
0.6923076923076923
 40
0.6923076923076923
 40
0.7692307692307693
 40
0.7692307692307693
 40
0.7692307692307693
 40
0.7692307692307693
 40
0.8461538461538461
 40
0.8461538461538461
 40
0.8461538461538461
 40
0.8461538461538461
 40
1.0
 40
1.0
 40
1.0
 40
1.0
 10
176.0025
 20
48.9557
 30
0.0
 10
175.1896
 20
49.8204
 30
0.0
 10
174.0349
 20
50.2804
 30
0.0
 10
172.8499
 20
50.2113
 30
0.0
 10
172.8499
 20
50.2113
 30
0.0
 10
171.6649
 20
50.1423
 30
0.0
 10
170.5716
 20
49.5515
 30
0.0
 10
169.8646
 20
48.598
 30
0.0
 10
169.8646
 20
48.598
 30
0.0
 10
168.8694
 20
49.899
 30
0.0
 10
167.1555
 20
50.4206
 30
0.0
 10
165.6044
 20
49.8946
 30
0.0
 10
165.6044
 20
49.8946
 30
0.0
 10
164.0533
 20
49.3684
 30
0.0
 10
163.0102
 20
47.9119
 30
0.0
 10
163.0117
 20
46.2741
 30
0.0
 10
163.0117
 20
46.2741
 30
0.0
 10
162.922
 20
44.1613
 30
0.0
 10
164.3487
 20
42.2839
 30
0.0
 10
166.4083
 20
41.8048
 30
0.0
 10
166.4083
 20
41.8048
 30
0.0
 10
165.7456
 20
40.5926
 30
0.0
 10
164.2302
 20
40.1406
 30
0.0
 10
163.0117
 20
40.7918
 30
0.0
 10
163.0117
 20
40.7918
 30
0.0
 10
160.6015
 20
42.5288
 30
0.0
 10
159.2185
 20
45.3554
 30
0.0
 10
159.3263
 20
48.3243
 30
0.0
 10
159.3263
 20
48.3243
 30
0.0
 10
159.434
 20
51.2936
 30
0.0
 10
161.0182
 20
54.0123
 30
0.0
 10
163.5481
 20
55.5702
 30
0.0
 10
163.5481
 20
55.5702
 30
0.0
 10
163.7909
 20
54.5921
 30
0.0
 10
164.5833
 20
53.8464
 30
0.0
 10
165.5742
 20
53.6633
 30
0.0
 10
165.5742
 20
53.6633
 30
0.0
 10
166.0959
 20
54.7494
 30
0.0
 10
167.0457
 20
55.5695
 30
0.0
 10
168.1961
 20
55.9277
 30
0.0
 10
168.1961
 20
55.9277
 30
0.0
 10
169.2604
 20
55.8983
 30
0.0
 10
170.2858
 20
55.5217
 30
0.0
 10
171.116
 20
54.8551
 30
0.0
 10
171.116
 20
54.8551
 30
0.0
 10
173.1795
 20
53.2934
 30
0.0
 10
174.8523
 20
51.2739
 30
0.0
 10
176.0025
 20
48.9557
 30
0.0
  0
SPLINE
  5
9E
330
1F
100
AcDbEntity
  8
layer 1
 62
     7
370
     9
100
AcDbSpline
210
0.0
220
0.0
230
1.0
 70
    11
 71
     3
 72
    20
 73
    16
 74
     0
 42
0.0000000001
 43
0.0000000001
 12
1.0
 22
0.0
 32
0.0
 13
1.0
 23
0.0
 33
0.0
 40
0.0
 40
0.0
 40
0.0
 40
0.0
 40
0.2
 40
0.2
 40
0.2
 40
0.2
 40
0.4
 40
0.4
 40
0.4
 40
0.4
 40
0.6
 40
0.6
 40
0.6
 40
0.6
 40
1.0
 40
1.0
 40
1.0
 40
1.0
 10
167.0042
 20
66.7727
 30
0.0
 10
166.393
 20
64.6432
 30
0.0
 10
166.6952
 20
62.3549
 30
0.0
 10
167.8385
 20
60.4566
 30
0.0
 10
167.8385
 20
60.4566
 30
0.0
 10
165.2777
 20
60.9861
 30
0.0
 10
162.6125
 20
60.4011
 30
0.0
 10
160.5088
 20
58.8477
 30
0.0
 10
160.5088
 20
58.8477
 30
0.0
 10
161.7839
 20
61.4327
 30
0.0
 10
162.3202
 20
64.3199
 30
0.0
 10
162.0583
 20
67.1905
 30
0.0
 10
162.0583
 20
67.1905
 30
0.0
 10
163.5152
 20
66.1813
 30
0.0
 10
165.3988
 20
66.0224
 30
0.0
 10
167.0042
 20
66.7727
 30
0.0
  0
SPLINE
  5
9F
330
1F
100
AcDbEntity
  8
layer 1
 62
     7
370
     9
100
AcDbSpline
210
0.0
220
0.0
230
1.0
 70
    11
 71
     3
 72
    16
 73
    12
 74
     0
 42
0.0000000001
 43
0.0000000001
 12
1.0
 22
0.0
 32
0.0
 13
1.0
 23
0.0
 33
0.0
 40
0.0
 40
0.0
 40
0.0
 40
0.0
 40
0.25
 40
0.25
 40
0.25
 40
0.25
 40
0.5
 40
0.5
 40
0.5
 40
0.5
 40
1.0
 40
1.0
 40
1.0
 40
1.0
 10
154.7881
 20
79.2878
 30
0.0
 10
157.5147
 20
76.0096
 30
0.0
 10
160.357
 20
72.8288
 30
0.0
 10
163.3096
 20
69.752
 30
0.0
 10
163.3096
 20
69.752
 30
0.0
 10
164.447
 20
68.9857
 30
0.0
 10
165.8197
 20
68.6488
 30
0.0
 10
167.1831
 20
68.7991
 30
0.0
 10
167.1831
 20
68.7991
 30
0.0
 10
163.4411
 20
72.7313
 30
0.0
 10
159.2854
 20
76.2474
 30
0.0
 10
154.7881
 20
79.2878
 30
0.0
  0
SPLINE
  5
A0
330
1F
100
AcDbEntity
  8
layer 1
 62
     7
370
     9
100
AcDbSpline
210
0.0
220
0.0
230
1.0
 70
    11
 71
     3
 72
    16
 73
    12
 74
     0
 42
0.0000000001
 43
0.0000000001
 12
1.0
 22
0.0
 32
0.0
 13
1.0
 23
0.0
 33
0.0
 40
0.0
 40
0.0
 40
0.0
 40
0.0
 40
0.25
 40
0.25
 40
0.25
 40
0.25
 40
0.5
 40
0.5
 40
0.5
 40
0.5
 40
1.0
 40
1.0
 40
1.0
 40
1.0
 10
177.1575
 20
52.7971
 30
0.0
 10
174.3445
 20
56.0015
 30
0.0
 10
171.6466
 20
59.3051
 30
0.0
 10
169.0686
 20
62.7014
 30
0.0
 10
169.0686
 20
62.7014
 30
0.0
 10
168.4886
 20
63.9443
 30
0.0
 10
168.3689
 20
65.3529
 30
0.0
 10
168.7309
 20
66.6752
 30
0.0
 10
168.7309
 20
66.6752
 30
0.0
 10
172.0314
 20
62.3666
 30
0.0
 10
174.8566
 20
57.7133
 30
0.0
 10
177.1575
 20
52.7971
 30
0.0
  0
SPLINE
  5
A1
330
1F
100
AcDbEntity
  8
layer 1
 62
     7
370
     9
100
AcDbSpline
210
0.0
220
0.0
230
1.0
 70
    11
 71
     3
 72
    80
 73
    76
 74
     0
 42
0.0000000001
 43
0.0000000001
 12
1.0
 22
0.0
 32
0.0
 13
1.0
 23
0.0
 33
0.0
 40
0.0
 40
0.0
 40
0.0
 40
0.0
 40
0.05
 40
0.05
 40
0.05
 40
0.05
 40
0.1
 40
0.1
 40
0.1
 40
0.1
 40
0.15
 40
0.15
 40
0.15
 40
0.15
 40
0.2
 40
0.2
 40
0.2
 40
0.2
 40
0.25
 40
0.25
 40
0.25
 40
0.25
 40
0.3
 40
0.3
 40
0.3
 40
0.3
 40
0.35
 40
0.35
 40
0.35
 40
0.35
 40
0.4
 40
0.4
 40
0.4
 40
0.4
 40
0.45
 40
0.45
 40
0.45
 40
0.45
 40
0.5
 40
0.5
 40
0.5
 40
0.5
 40
0.55
 40
0.55
 40
0.55
 40
0.55
 40
0.6
 40
0.6
 40
0.6
 40
0.6
 40
0.65
 40
0.65
 40
0.65
 40
0.65
 40
0.7
 40
0.7
 40
0.7
 40
0.7
 40
0.75
 40
0.75
 40
0.75
 40
0.75
 40
0.8
 40
0.8
 40
0.8
 40
0.8
 40
0.85
 40
0.85
 40
0.85
 40
0.85
 40
0.9
 40
0.9
 40
0.9
 40
0.9
 40
1.0
 40
1.0
 40
1.0
 40
1.0
 10
128.0915
 20
63.1382
 30
0.0
 10
128.4951
 20
64.0969
 30
0.0
 10
129.0821
 20
64.9672
 30
0.0
 10
129.8196
 20
65.7007
 30
0.0
 10
129.8196
 20
65.7007
 30
0.0
 10
132.9785
 20
64.6145
 30
0.0
 10
136.4585
 20
65.0085
 30
0.0
 10
139.2945
 20
66.7727
 30
0.0
 10
139.2945
 20
66.7727
 30
0.0
 10
141.5889
 20
68.9494
 30
0.0
 10
142.3004
 20
72.3168
 30
0.0
 10
141.0823
 20
75.235
 30
0.0
 10
141.0823
 20
75.235
 30
0.0
 10
140.5485
 20
75.9831
 30
0.0
 10
139.8569
 20
76.6024
 30
0.0
 10
139.0562
 20
77.0533
 30
0.0
 10
139.0562
 20
77.0533
 30
0.0
 10
137.8503
 20
77.8593
 30
0.0
 10
137.4843
 20
79.4678
 30
0.0
 10
138.2219
 20
80.718
 30
0.0
 10
138.2219
 20
80.718
 30
0.0
 10
138.691
 20
81.3373
 30
0.0
 10
139.2914
 20
81.846
 30
0.0
 10
139.9799
 20
82.2077
 30
0.0
 10
139.9799
 20
82.2077
 30
0.0
 10
142.9419
 20
81.4612
 30
0.0
 10
145.0172
 20
78.7956
 30
0.0
 10
145.0153
 20
75.742
 30
0.0
 10
145.0153
 20
75.742
 30
0.0
 10
146.2703
 20
76.5232
 30
0.0
 10
146.9475
 20
77.9716
 30
0.0
 10
146.7435
 20
79.4364
 30
0.0
 10
146.7435
 20
79.4364
 30
0.0
 10
147.9661
 20
79.1821
 30
0.0
 10
149.1354
 20
78.718
 30
0.0
 10
150.1998
 20
78.0657
 30
0.0
 10
150.1998
 20
78.0657
 30
0.0
 10
150.5563
 20
76.9162
 30
0.0
 10
150.7469
 20
75.7222
 30
0.0
 10
150.7657
 20
74.5199
 30
0.0
 10
150.7657
 20
74.5199
 30
0.0
 10
150.7358
 20
73.098
 30
0.0
 10
149.649
 20
71.9204
 30
0.0
 10
148.2331
 20
71.7784
 30
0.0
 10
148.2331
 20
71.7784
 30
0.0
 10
146.8059
 20
71.7355
 30
0.0
 10
145.396
 20
71.453
 30
0.0
 10
144.0618
 20
70.9444
 30
0.0
 10
144.0618
 20
70.9444
 30
0.0
 10
141.6116
 20
69.6595
 30
0.0
 10
140.2742
 20
66.9362
 30
0.0
 10
140.7546
 20
64.2108
 30
0.0
 10
140.7546
 20
64.2108
 30
0.0
 10
141.1224
 20
61.9422
 30
0.0
 10
141.934
 20
59.7685
 30
0.0
 10
143.1425
 20
57.8137
 30
0.0
 10
143.1425
 20
57.8137
 30
0.0
 10
142.9798
 20
57.9317
 30
0.0
 10
142.8091
 20
58.0382
 30
0.0
 10
142.6317
 20
58.1326
 30
0.0
 10
142.6317
 20
58.1326
 30
0.0
 10
141.277
 20
59.1103
 30
0.0
 10
139.8246
 20
59.9452
 30
0.0
 10
138.298
 20
60.6238
 30
0.0
 10
138.298
 20
60.6238
 30
0.0
 10
137.795
 20
61.4976
 30
0.0
 10
137.8466
 20
62.5843
 30
0.0
 10
138.4305
 20
63.4064
 30
0.0
 10
138.4305
 20
63.4064
 30
0.0
 10
137.0496
 20
63.41
 30
0.0
 10
135.7154
 20
62.9078
 30
0.0
 10
134.6797
 20
61.9944
 30
0.0
 10
134.6797
 20
61.9944
 30
0.0
 10
132.5071
 20
62.5002
 30
0.0
 10
130.3075
 20
62.8822
 30
0.0
 10
128.0915
 20
63.1382
 30
0.0
  0
SPLINE
  5
A2
330
1F
100
AcDbEntity
  8
layer 1
 62
     7
370
     9
100
AcDbSpline
210
0.0
220
0.0
230
1.0
 70
    11
 71
     3
 72
    44
 73
    40
 74
     0
 42
0.0000000001
 43
0.0000000001
 12
1.0
 22
0.0
 32
0.0
 13
1.0
 23
0.0
 33
0.0
 40
0.0
 40
0.0
 40
0.0
 40
0.0
 40
0.0909090909090909
 40
0.0909090909090909
 40
0.0909090909090909
 40
0.0909090909090909
 40
0.1818181818181818
 40
0.1818181818181818
 40
0.1818181818181818
 40
0.1818181818181818
 40
0.2727272727272727
 40
0.2727272727272727
 40
0.2727272727272727
 40
0.2727272727272727
 40
0.3636363636363636
 40
0.3636363636363636
 40
0.3636363636363636
 40
0.3636363636363636
 40
0.4545454545454545
 40
0.4545454545454545
 40
0.4545454545454545
 40
0.4545454545454545
 40
0.5454545454545454
 40
0.5454545454545454
 40
0.5454545454545454
 40
0.5454545454545454
 40
0.6363636363636364
 40
0.6363636363636364
 40
0.6363636363636364
 40
0.6363636363636364
 40
0.7272727272727273
 40
0.7272727272727273
 40
0.7272727272727273
 40
0.7272727272727273
 40
0.8181818181818182
 40
0.8181818181818182
 40
0.8181818181818182
 40
0.8181818181818182
 40
1.0
 40
1.0
 40
1.0
 40
1.0
 10
152.1363
 20
76.9328
 30
0.0
 10
153.6678
 20
74.8849
 30
0.0
 10
153.5044
 20
72.0311
 30
0.0
 10
151.749
 20
70.1699
 30
0.0
 10
151.749
 20
70.1699
 30
0.0
 10
153.3616
 20
68.3532
 30
0.0
 10
153.6146
 20
65.7033
 30
0.0
 10
152.3748
 20
63.615
 30
0.0
 10
152.3748
 20
63.615
 30
0.0
 10
151.324
 20
62.1958
 30
0.0
 10
149.4268
 20
61.6999
 30
0.0
 10
147.816
 20
62.4231
 30
0.0
 10
147.816
 20
62.4231
 30
0.0
 10
146.6112
 20
63.1702
 30
0.0
 10
145.976
 20
64.5702
 30
0.0
 10
146.2071
 20
65.9687
 30
0.0
 10
146.2071
 20
65.9687
 30
0.0
 10
144.8323
 20
64.4891
 30
0.0
 10
144.7316
 20
62.2317
 30
0.0
 10
145.9688
 20
60.6355
 30
0.0
 10
145.9688
 20
60.6355
 30
0.0
 10
147.0101
 20
58.7757
 30
0.0
 10
148.9349
 20
57.5825
 30
0.0
 10
151.0639
 20
57.4771
 30
0.0
 10
151.0639
 20
57.4771
 30
0.0
 10
154.2775
 20
57.4307
 30
0.0
 10
157.0464
 20
59.7318
 30
0.0
 10
157.5889
 20
62.8999
 30
0.0
 10
157.5889
 20
62.8999
 30
0.0
 10
156.7498
 20
63.3043
 30
0.0
 10
156.1294
 20
64.0553
 30
0.0
 10
155.8905
 20
64.9557
 30
0.0
 10
155.8905
 20
64.9557
 30
0.0
 10
156.9822
 20
65.4436
 30
0.0
 10
157.7077
 20
66.5035
 30
0.0
 10
157.7676
 20
67.6975
 30
0.0
 10
157.7676
 20
67.6975
 30
0.0
 10
157.6999
 20
71.567
 30
0.0
 10
155.5462
 20
75.0996
 30
0.0
 10
152.1363
 20
76.9328
 30
0.0
  0
SPLINE
  5
A3
330
1F
100
AcDbEntity
  8
layer 1
 62
     7
370
     9
100
AcDbSpline
210
0.0
220
0.0
230
1.0
 70
    11
 71
     3
 72
    28
 73
    24
 74
     0
 42
0.0000000001
 43
0.0000000001
 12
1.0
 22
0.0
 32
0.0
 13
1.0
 23
0.0
 33
0.0
 40
0.0
 40
0.0
 40
0.0
 40
0.0
 40
0.1428571428571428
 40
0.1428571428571428
 40
0.1428571428571428
 40
0.1428571428571428
 40
0.2857142857142857
 40
0.2857142857142857
 40
0.2857142857142857
 40
0.2857142857142857
 40
0.4285714285714285
 40
0.4285714285714285
 40
0.4285714285714285
 40
0.4285714285714285
 40
0.5714285714285714
 40
0.5714285714285714
 40
0.5714285714285714
 40
0.5714285714285714
 40
0.7142857142857143
 40
0.7142857142857143
 40
0.7142857142857143
 40
0.7142857142857143
 40
1.0
 40
1.0
 40
1.0
 40
1.0
 10
135.3616
 20
76.9625
 30
0.0
 10
133.9646
 20
76.1186
 30
0.0
 10
133.1109
 20
74.6041
 30
0.0
 10
133.1109
 20
72.9708
 30
0.0
 10
133.1109
 20
72.9708
 30
0.0
 10
133.1109
 20
71.3374
 30
0.0
 10
133.9646
 20
69.823
 30
0.0
 10
135.3616
 20
68.9774
 30
0.0
 10
135.3616
 20
68.9774
 30
0.0
 10
133.5091
 20
68.5282
 30
0.0
 10
131.553
 20
68.9576
 30
0.0
 10
130.0581
 20
70.1401
 30
0.0
 10
130.0581
 20
70.1401
 30
0.0
 10
128.2572
 20
72.2127
 30
0.0
 10
127.816
 20
75.1376
 30
0.0
 10
128.9258
 20
77.6479
 30
0.0
 10
128.9258
 20
77.6479
 30
0.0
 10
130.3413
 20
81.3192
 30
0.0
 10
134.1793
 20
83.4513
 30
0.0
 10
138.0432
 20
82.713
 30
0.0
 10
138.0432
 20
82.713
 30
0.0
 10
135.9266
 20
81.6478
 30
0.0
 10
134.8174
 20
79.2696
 30
0.0
 10
135.3616
 20
76.9625
 30
0.0
  0
SPLINE
  5
A4
330
1F
100
AcDbEntity
  8
layer 1
 62
     7
370
     9
100
AcDbSpline
210
0.0
220
0.0
230
1.0
 70
    11
 71
     3
 72
    32
 73
    28
 74
     0
 42
0.0000000001
 43
0.0000000001
 12
1.0
 22
0.0
 32
0.0
 13
1.0
 23
0.0
 33
0.0
 40
0.0
 40
0.0
 40
0.0
 40
0.0
 40
0.125
 40
0.125
 40
0.125
 40
0.125
 40
0.25
 40
0.25
 40
0.25
 40
0.25
 40
0.375
 40
0.375
 40
0.375
 40
0.375
 40
0.5
 40
0.5
 40
0.5
 40
0.5
 40
0.625
 40
0.625
 40
0.625
 40
0.625
 40
0.75
 40
0.75
 40
0.75
 40
0.75
 40
1.0
 40
1.0
 40
1.0
 40
1.0
 10
177.3134
 20
104.077
 30
0.0
 10
178.8181
 20
104.944
 30
0.0
 10
179.7201
 20
106.5724
 30
0.0
 10
179.6577
 20
108.3081
 30
0.0
 10
179.6577
 20
108.3081
 30
0.0
 10
179.5953
 20
110.0439
 30
0.0
 10
178.5786
 20
111.6029
 30
0.0
 10
177.0155
 20
112.361
 30
0.0
 10
177.0155
 20
112.361
 30
0.0
 10
177.3415
 20
114.2668
 30
0.0
 10
176.3706
 20
116.1611
 30
0.0
 10
174.6319
 20
117.0083
 30
0.0
 10
174.6319
 20
117.0083
 30
0.0
 10
176.6827
 20
117.1867
 30
0.0
 10
178.7171
 20
116.5162
 30
0.0
 10
180.2601
 20
115.1537
 30
0.0
 10
180.2601
 20
115.1537
 30
0.0
 10
181.803
 20
113.7911
 30
0.0
 10
182.7196
 20
111.8556
 30
0.0
 10
182.7958
 20
109.7978
 30
0.0
 10
182.7958
 20
109.7978
 30
0.0
 10
182.9566
 20
108.2784
 30
0.0
 10
182.4398
 20
106.7673
 30
0.0
 10
181.3832
 20
105.6641
 30
0.0
 10
181.3832
 20
105.6641
 30
0.0
 10
180.3265
 20
104.5609
 30
0.0
 10
178.8376
 20
103.9812
 30
0.0
 10
177.3134
 20
104.077
 30
0.0
  0
SPLINE
  5
A5
330
1F
100
AcDbEntity
  8
layer 1
 62
     7
370
     9
100
AcDbSpline
210
0.0
220
0.0
230
1.0
 70
    11
 71
     3
 72
    40
 73
    36
 74
     0
 42
0.0000000001
 43
0.0000000001
 12
1.0
 22
0.0
 32
0.0
 13
1.0
 23
0.0
 33
0.0
 40
0.0
 40
0.0
 40
0.0
 40
0.0
 40
0.1
 40
0.1
 40
0.1
 40
0.1
 40
0.2
 40
0.2
 40
0.2
 40
0.2
 40
0.3
 40
0.3
 40
0.3
 40
0.3
 40
0.4
 40
0.4
 40
0.4
 40
0.4
 40
0.5
 40
0.5
 40
0.5
 40
0.5
 40
0.6
 40
0.6
 40
0.6
 40
0.6
 40
0.7
 40
0.7
 40
0.7
 40
0.7
 40
0.8
 40
0.8
 40
0.8
 40
0.8
 40
1.0
 40
1.0
 40
1.0
 40
1.0
 10
172.7845
 20
116.2932
 30
0.0
 10
173.4839
 20
116.2106
 30
0.0
 10
174.1031
 20
115.8011
 30
0.0
 10
174.4548
 20
115.1916
 30
0.0
 10
174.4548
 20
115.1916
 30
0.0
 10
174.8068
 20
114.5823
 30
0.0
 10
174.8504
 20
113.8407
 30
0.0
 10
174.5722
 20
113.195
 30
0.0
 10
174.5722
 20
113.195
 30
0.0
 10
174.2269
 20
112.432
 30
0.0
 10
173.5788
 20
111.849
 30
0.0
 10
172.7845
 20
111.5847
 30
0.0
 10
172.7845
 20
111.5847
 30
0.0
 10
170.7103
 20
109.342
 30
0.0
 10
170.0938
 20
106.1149
 30
0.0
 10
171.1956
 20
103.2644
 30
0.0
 10
171.1956
 20
103.2644
 30
0.0
 10
172.2974
 20
100.4156
 30
0.0
 10
174.9253
 20
98.442
 30
0.0
 10
177.9689
 20
98.1778
 30
0.0
 10
177.9689
 20
98.1778
 30
0.0
 10
175.0059
 20
96.2241
 30
0.0
 10
173.304
 20
92.8418
 30
0.0
 10
173.4996
 20
89.2993
 30
0.0
 10
173.4996
 20
89.2993
 30
0.0
 10
171.2793
 20
91.7501
 30
0.0
 10
170.9627
 20
95.3785
 30
0.0
 10
172.7249
 20
98.1778
 30
0.0
 10
172.7249
 20
98.1778
 30
0.0
 10
171.6345
 20
98.5593
 30
0.0
 10
170.4301
 20
98.4272
 30
0.0
 10
169.4475
 20
97.8194
 30
0.0
 10
169.4475
 20
97.8194
 30
0.0
 10
165.8607
 20
103.9597
 30
0.0
 10
167.2764
 20
111.7961
 30
0.0
 10
172.7845
 20
116.2932
 30
0.0
  0
SPLINE
  5
A6
330
1F
100
AcDbEntity
  8
layer 1
 62
     7
370
     9
100
AcDbSpline
210
0.0
220
0.0
230
1.0
 70
    11
 71
     3
 72
    32
 73
    28
 74
     0
 42
0.0000000001
 43
0.0000000001
 12
1.0
 22
0.0
 32
0.0
 13
1.0
 23
0.0
 33
0.0
 40
0.0
 40
0.0
 40
0.0
 40
0.0
 40
0.125
 40
0.125
 40
0.125
 40
0.125
 40
0.25
 40
0.25
 40
0.25
 40
0.25
 40
0.375
 40
0.375
 40
0.375
 40
0.375
 40
0.5
 40
0.5
 40
0.5
 40
0.5
 40
0.625
 40
0.625
 40
0.625
 40
0.625
 40
0.75
 40
0.75
 40
0.75
 40
0.75
 40
1.0
 40
1.0
 40
1.0
 40
1.0
 10
175.3767
 20
70.3482
 30
0.0
 10
175.38
 20
68.1599
 30
0.0
 10
175.7047
 20
65.9844
 30
0.0
 10
176.34
 20
63.8904
 30
0.0
 10
176.34
 20
63.8904
 30
0.0
 10
181.0722
 20
57.1072
 30
0.0
 10
184.7366
 20
49.6388
 30
0.0
 10
187.2055
 20
41.7452
 30
0.0
 10
187.2055
 20
41.7452
 30
0.0
 10
185.2371
 20
51.8514
 30
0.0
 10
181.9947
 20
61.6674
 30
0.0
 10
177.556
 20
70.9576
 30
0.0
 10
177.556
 20
70.9576
 30
0.0
 10
176.1309
 20
72.4968
 30
0.0
 10
174.3921
 20
73.7107
 30
0.0
 10
172.4568
 20
74.5199
 30
0.0
 10
172.4568
 20
74.5199
 30
0.0
 10
171.0293
 20
75.0864
 30
0.0
 10
169.4015
 20
74.7511
 30
0.0
 10
168.3135
 20
73.6677
 30
0.0
 10
168.3135
 20
73.6677
 30
0.0
 10
169.8503
 20
72.079
 30
0.0
 10
171.3158
 20
70.4241
 30
0.0
 10
172.706
 20
68.7066
 30
0.0
 10
172.706
 20
68.7066
 30
0.0
 10
173.4037
 20
69.5191
 30
0.0
 10
174.3372
 20
70.0922
 30
0.0
 10
175.3767
 20
70.3482
 30
0.0
  0
SPLINE
  5
A7
330
1F
100
AcDbEntity
  8
layer 1
 62
     7
370
     9
100
AcDbSpline
210
0.0
220
0.0
230
1.0
 70
    11
 71
     3
 72
    52
 73
    48
 74
     0
 42
0.0000000001
 43
0.0000000001
 12
1.0
 22
0.0
 32
0.0
 13
1.0
 23
0.0
 33
0.0
 40
0.0
 40
0.0
 40
0.0
 40
0.0
 40
0.0769230769230769
 40
0.0769230769230769
 40
0.0769230769230769
 40
0.0769230769230769
 40
0.1538461538461539
 40
0.1538461538461539
 40
0.1538461538461539
 40
0.1538461538461539
 40
0.2307692307692308
 40
0.2307692307692308
 40
0.2307692307692308
 40
0.2307692307692308
 40
0.3076923076923077
 40
0.3076923076923077
 40
0.3076923076923077
 40
0.3076923076923077
 40
0.3846153846153846
 40
0.3846153846153846
 40
0.3846153846153846
 40
0.3846153846153846
 40
0.4615384615384616
 40
0.4615384615384616
 40
0.4615384615384616
 40
0.4615384615384616
 40
0.5384615384615384
 40
0.5384615384615384
 40
0.5384615384615384
 40
0.5384615384615384
 40
0.6153846153846154
 40
0.6153846153846154
 40
0.6153846153846154
 40
0.6153846153846154
 40
0.6923076923076923
 40
0.6923076923076923
 40
0.6923076923076923
 40
0.6923076923076923
 40
0.7692307692307693
 40
0.7692307692307693
 40
0.7692307692307693
 40
0.7692307692307693
 40
0.8461538461538461
 40
0.8461538461538461
 40
0.8461538461538461
 40
0.8461538461538461
 40
1.0
 40
1.0
 40
1.0
 40
1.0
 10
167.7798
 20
74.2177
 30
0.0
 10
168.7274
 20
76.7379
 30
0.0
 10
171.2935
 20
78.2672
 30
0.0
 10
173.9612
 20
77.9006
 30
0.0
 10
173.9612
 20
77.9006
 30
0.0
 10
173.3435
 20
78.9757
 30
0.0
 10
172.722
 20
80.0475
 30
0.0
 10
172.0968
 20
81.1177
 30
0.0
 10
172.0968
 20
81.1177
 30
0.0
 10
171.1112
 20
82.7593
 30
0.0
 10
170.0872
 20
84.3794
 30
0.0
 10
169.0253
 20
85.9731
 30
0.0
 10
169.0253
 20
85.9731
 30
0.0
 10
168.0029
 20
86.8798
 30
0.0
 10
166.9084
 20
87.7039
 30
0.0
 10
165.7529
 20
88.4339
 30
0.0
 10
165.7529
 20
88.4339
 30
0.0
 10
164.0819
 20
89.3439
 30
0.0
 10
162.0167
 20
89.0796
 30
0.0
 10
160.628
 20
87.7782
 30
0.0
 10
160.628
 20
87.7782
 30
0.0
 10
159.1329
 20
86.1548
 30
0.0
 10
156.879
 20
85.4595
 30
0.0
 10
154.7285
 20
85.9616
 30
0.0
 10
154.7285
 20
85.9616
 30
0.0
 10
154.5462
 20
85.7568
 30
0.0
 10
154.3716
 20
85.5437
 30
0.0
 10
154.205
 20
85.3258
 30
0.0
 10
154.205
 20
85.3258
 30
0.0
 10
154.3201
 20
85.2597
 30
0.0
 10
154.4351
 20
85.1936
 30
0.0
 10
154.5498
 20
85.1275
 30
0.0
 10
154.5498
 20
85.1275
 30
0.0
 10
156.7731
 20
83.6593
 30
0.0
 10
158.9226
 20
82.0838
 30
0.0
 10
160.9903
 20
80.4042
 30
0.0
 10
160.9903
 20
80.4042
 30
0.0
 10
161.8842
 20
81.9897
 30
0.0
 10
163.5451
 20
82.9921
 30
0.0
 10
165.3656
 20
83.0417
 30
0.0
 10
165.3656
 20
83.0417
 30
0.0
 10
164.895
 20
80.2688
 30
0.0
 10
165.464
 20
77.4183
 30
0.0
 10
166.9636
 20
75.0385
 30
0.0
 10
166.9636
 20
75.0385
 30
0.0
 10
167.2375
 20
74.7676
 30
0.0
 10
167.5096
 20
74.4935
 30
0.0
 10
167.7798
 20
74.2177
 30
0.0
  0
SPLINE
  5
A8
330
1F
100
AcDbEntity
  8
layer 1
 62
     7
370
     9
100
AcDbSpline
210
0.0
220
0.0
230
1.0
 70
    11
 71
     3
 72
    88
 73
    84
 74
     0
 42
0.0000000001
 43
0.0000000001
 12
1.0
 22
0.0
 32
0.0
 13
1.0
 23
0.0
 33
0.0
 40
0.0
 40
0.0
 40
0.0
 40
0.0
 40
0.0454545454545455
 40
0.0454545454545455
 40
0.0454545454545455
 40
0.0454545454545455
 40
0.0909090909090909
 40
0.0909090909090909
 40
0.0909090909090909
 40
0.0909090909090909
 40
0.1363636363636364
 40
0.1363636363636364
 40
0.1363636363636364
 40
0.1363636363636364
 40
0.1818181818181818
 40
0.1818181818181818
 40
0.1818181818181818
 40
0.1818181818181818
 40
0.2272727272727273
 40
0.2272727272727273
 40
0.2272727272727273
 40
0.2272727272727273
 40
0.2727272727272727
 40
0.2727272727272727
 40
0.2727272727272727
 40
0.2727272727272727
 40
0.3181818181818182
 40
0.3181818181818182
 40
0.3181818181818182
 40
0.3181818181818182
 40
0.3636363636363636
 40
0.3636363636363636
 40
0.3636363636363636
 40
0.3636363636363636
 40
0.4090909090909091
 40
0.4090909090909091
 40
0.4090909090909091
 40
0.4090909090909091
 40
0.4545454545454545
 40
0.4545454545454545
 40
0.4545454545454545
 40
0.4545454545454545
 40
0.5
 40
0.5
 40
0.5
 40
0.5
 40
0.5454545454545454
 40
0.5454545454545454
 40
0.5454545454545454
 40
0.5454545454545454
 40
0.5909090909090909
 40
0.5909090909090909
 40
0.5909090909090909
 40
0.5909090909090909
 40
0.6363636363636364
 40
0.6363636363636364
 40
0.6363636363636364
 40
0.6363636363636364
 40
0.6818181818181818
 40
0.6818181818181818
 40
0.6818181818181818
 40
0.6818181818181818
 40
0.7272727272727273
 40
0.7272727272727273
 40
0.7272727272727273
 40
0.7272727272727273
 40
0.7727272727272727
 40
0.7727272727272727
 40
0.7727272727272727
 40
0.7727272727272727
 40
0.8181818181818182
 40
0.8181818181818182
 40
0.8181818181818182
 40
0.8181818181818182
 40
0.8636363636363636
 40
0.8636363636363636
 40
0.8636363636363636
 40
0.8636363636363636
 40
0.9090909090909091
 40
0.9090909090909091
 40
0.9090909090909091
 40
0.9090909090909091
 40
1.0
 40
1.0
 40
1.0
 40
1.0
 10
150.736
 20
95.4363
 30
0.0
 10
149.9063
 20
92.8252
 30
0.0
 10
150.4929
 20
89.9698
 30
0.0
 10
152.2854
 20
87.8988
 30
0.0
 10
152.2854
 20
87.8988
 30
0.0
 10
152.2585
 20
87.438
 30
0.0
 10
152.1185
 20
86.9905
 30
0.0
 10
151.8772
 20
86.5974
 30
0.0
 10
151.8772
 20
86.5974
 30
0.0
 10
149.9572
 20
87.5801
 30
0.0
 10
147.9978
 20
88.4818
 30
0.0
 10
146.0041
 20
89.3042
 30
0.0
 10
146.0041
 20
89.3042
 30
0.0
 10
146.6508
 20
91.5701
 30
0.0
 10
146.3367
 20
94.0044
 30
0.0
 10
145.1352
 20
96.0308
 30
0.0
 10
145.1352
 20
96.0308
 30
0.0
 10
143.9338
 20
98.0589
 30
0.0
 10
141.9508
 20
99.5039
 30
0.0
 10
139.6521
 20
100.0242
 30
0.0
 10
139.6521
 20
100.0242
 30
0.0
 10
139.8165
 20
101.0976
 30
0.0
 10
139.7556
 20
102.1943
 30
0.0
 10
139.4734
 20
103.243
 30
0.0
 10
139.4734
 20
103.243
 30
0.0
 10
139.3276
 20
104.2834
 30
0.0
 10
138.7289
 20
105.2066
 30
0.0
 10
137.8379
 20
105.7648
 30
0.0
 10
137.8379
 20
105.7648
 30
0.0
 10
136.9469
 20
106.3214
 30
0.0
 10
135.8549
 20
106.4568
 30
0.0
 10
134.8551
 20
106.1331
 30
0.0
 10
134.8551
 20
106.1331
 30
0.0
 10
133.4392
 20
105.6113
 30
0.0
 10
132.4619
 20
104.3065
 30
0.0
 10
132.359
 20
102.802
 30
0.0
 10
132.359
 20
102.802
 30
0.0
 10
132.256
 20
101.2958
 30
0.0
 10
133.0467
 20
99.8706
 30
0.0
 10
134.3783
 20
99.1605
 30
0.0
 10
134.3783
 20
99.1605
 30
0.0
 10
133.609
 20
98.2158
 30
0.0
 10
132.2584
 20
97.9862
 30
0.0
 10
131.2201
 20
98.6237
 30
0.0
 10
131.2201
 20
98.6237
 30
0.0
 10
129.5168
 20
100.2835
 30
0.0
 10
128.8443
 20
102.7343
 30
0.0
 10
129.4621
 20
105.0299
 30
0.0
 10
129.4621
 20
105.0299
 30
0.0
 10
130.4687
 20
107.5171
 30
0.0
 10
132.505
 20
109.4444
 30
0.0
 10
135.0432
 20
110.3131
 30
0.0
 10
135.0432
 20
110.3131
 30
0.0
 10
137.5814
 20
111.1834
 30
0.0
 10
140.3718
 20
110.9076
 30
0.0
 10
142.6913
 20
109.56
 30
0.0
 10
142.6913
 20
109.56
 30
0.0
 10
142.2788
 20
108.0835
 30
0.0
 10
142.4831
 20
106.5031
 30
0.0
 10
143.2573
 20
105.1802
 30
0.0
 10
143.2573
 20
105.1802
 30
0.0
 10
144.903
 20
107.0299
 30
0.0
 10
147.5029
 20
107.702
 30
0.0
 10
149.8391
 20
106.8829
 30
0.0
 10
149.8391
 20
106.8829
 30
0.0
 10
152.1198
 20
105.0993
 30
0.0
 10
154.3097
 20
103.2017
 30
0.0
 10
156.4005
 20
101.1984
 30
0.0
 10
156.4005
 20
101.1984
 30
0.0
 10
156.4
 20
101.1951
 30
0.0
 10
156.3993
 20
101.1918
 30
0.0
 10
156.3987
 20
101.1868
 30
0.0
 10
156.3987
 20
101.1868
 30
0.0
 10
155.5318
 20
101.0663
 30
0.0
 10
154.727
 20
100.6683
 30
0.0
 10
154.103
 20
100.0539
 30
0.0
 10
154.103
 20
100.0539
 30
0.0
 10
152.403
 20
98.8632
 30
0.0
 10
150.1217
 20
98.9375
 30
0.0
 10
148.5014
 20
100.2339
 30
0.0
 10
148.5014
 20
100.2339
 30
0.0
 10
147.9081
 20
98.2984
 30
0.0
 10
148.8728
 20
96.2273
 30
0.0
 10
150.736
 20
95.4363
 30
0.0
  0
SPLINE
  5
A9
330
1F
100
AcDbEntity
  8
layer 1
 62
     7
370
     9
100
AcDbSpline
210
0.0
220
0.0
230
1.0
 70
    11
 71
     3
 72
    44
 73
    40
 74
     0
 42
0.0000000001
 43
0.0000000001
 12
1.0
 22
0.0
 32
0.0
 13
1.0
 23
0.0
 33
0.0
 40
0.0
 40
0.0
 40
0.0
 40
0.0
 40
0.0909090909090909
 40
0.0909090909090909
 40
0.0909090909090909
 40
0.0909090909090909
 40
0.1818181818181818
 40
0.1818181818181818
 40
0.1818181818181818
 40
0.1818181818181818
 40
0.2727272727272727
 40
0.2727272727272727
 40
0.2727272727272727
 40
0.2727272727272727
 40
0.3636363636363636
 40
0.3636363636363636
 40
0.3636363636363636
 40
0.3636363636363636
 40
0.4545454545454545
 40
0.4545454545454545
 40
0.4545454545454545
 40
0.4545454545454545
 40
0.5454545454545454
 40
0.5454545454545454
 40
0.5454545454545454
 40
0.5454545454545454
 40
0.6363636363636364
 40
0.6363636363636364
 40
0.6363636363636364
 40
0.6363636363636364
 40
0.7272727272727273
 40
0.7272727272727273
 40
0.7272727272727273
 40
0.7272727272727273
 40
0.8181818181818182
 40
0.8181818181818182
 40
0.8181818181818182
 40
0.8181818181818182
 40
1.0
 40
1.0
 40
1.0
 40
1.0
 10
154.2519
 20
96.5395
 30
0.0
 10
153.3619
 20
95.4528
 30
0.0
 10
153.0189
 20
94.0177
 30
0.0
 10
153.3211
 20
92.6469
 30
0.0
 10
153.3211
 20
92.6469
 30
0.0
 10
153.6232
 20
91.2761
 30
0.0
 10
154.5373
 20
90.1184
 30
0.0
 10
155.8012
 20
89.5074
 30
0.0
 10
155.8012
 20
89.5074
 30
0.0
 10
155.3498
 20
90.4537
 30
0.0
 10
155.3009
 20
91.542
 30
0.0
 10
155.666
 20
92.5247
 30
0.0
 10
155.666
 20
92.5247
 30
0.0
 10
156.0307
 20
93.5073
 30
0.0
 10
156.7784
 20
94.3
 30
0.0
 10
157.7379
 20
94.7212
 30
0.0
 10
157.7379
 20
94.7212
 30
0.0
 10
158.7307
 20
94.9061
 30
0.0
 10
159.7521
 20
94.6105
 30
0.0
 10
160.492
 20
93.9219
 30
0.0
 10
160.492
 20
93.9219
 30
0.0
 10
161.2319
 20
93.2348
 30
0.0
 10
161.6028
 20
92.2389
 30
0.0
 10
161.4921
 20
91.2349
 30
0.0
 10
161.4921
 20
91.2349
 30
0.0
 10
163.0416
 20
91.2513
 30
0.0
 10
164.5768
 20
90.9376
 30
0.0
 10
165.9955
 20
90.3133
 30
0.0
 10
165.9955
 20
90.3133
 30
0.0
 10
165.8359
 20
90.5313
 30
0.0
 10
165.6756
 20
90.7493
 30
0.0
 10
165.5145
 20
90.9673
 30
0.0
 10
165.5145
 20
90.9673
 30
0.0
 10
163.6241
 20
93.4611
 30
0.0
 10
161.6002
 20
95.8508
 30
0.0
 10
159.4515
 20
98.1249
 30
0.0
 10
159.4515
 20
98.1249
 30
0.0
 10
157.5618
 20
98.5048
 30
0.0
 10
155.6078
 20
97.9086
 30
0.0
 10
154.2519
 20
96.5395
 30
0.0
  0
SPLINE
  5
AA
330
1F
100
AcDbEntity
  8
layer 1
 62
     7
370
     9
100
AcDbSpline
210
0.0
220
0.0
230
1.0
 70
    11
 71
     3
 72
    24
 73
    20
 74
     0
 42
0.0000000001
 43
0.0000000001
 12
1.0
 22
0.0
 32
0.0
 13
1.0
 23
0.0
 33
0.0
 40
0.0
 40
0.0
 40
0.0
 40
0.0
 40
0.1666666666666667
 40
0.1666666666666667
 40
0.1666666666666667
 40
0.1666666666666667
 40
0.3333333333333333
 40
0.3333333333333333
 40
0.3333333333333333
 40
0.3333333333333333
 40
0.5
 40
0.5
 40
0.5
 40
0.5
 40
0.6666666666666666
 40
0.6666666666666666
 40
0.6666666666666666
 40
0.6666666666666666
 40
1.0
 40
1.0
 40
1.0
 40
1.0
 10
140.6056
 20
96.2109
 30
0.0
 10
139.2547
 20
96.333
 30
0.0
 10
137.9043
 20
95.9747
 30
0.0
 10
136.7918
 20
95.1985
 30
0.0
 10
136.7918
 20
95.1985
 30
0.0
 10
135.8736
 20
94.3083
 30
0.0
 10
134.6709
 20
93.7699
 30
0.0
 10
133.3951
 20
93.6791
 30
0.0
 10
133.3951
 20
93.6791
 30
0.0
 10
133.3291
 20
93.466
 30
0.0
 10
133.2805
 20
93.248
 30
0.0
 10
133.25
 20
93.0284
 30
0.0
 10
133.25
 20
93.0284
 30
0.0
 10
137.3
 20
92.272
 30
0.0
 10
141.2714
 20
91.1424
 30
0.0
 10
145.1138
 20
89.656
 30
0.0
 10
145.1138
 20
89.656
 30
0.0
 10
145.6649
 20
92.708
 30
0.0
 10
143.6527
 20
95.6345
 30
0.0
 10
140.6056
 20
96.2109
 30
0.0
  0
SPLINE
  5
AB
330
1F
100
AcDbEntity
  8
layer 1
 62
     7
370
     9
100
AcDbSpline
210
0.0
220
0.0
230
1.0
 70
    11
 71
     3
 72
    16
 73
    12
 74
     0
 42
0.0000000001
 43
0.0000000001
 12
1.0
 22
0.0
 32
0.0
 13
1.0
 23
0.0
 33
0.0
 40
0.0
 40
0.0
 40
0.0
 40
0.0
 40
0.25
 40
0.25
 40
0.25
 40
0.25
 40
0.5
 40
0.5
 40
0.5
 40
0.5
 40
1.0
 40
1.0
 40
1.0
 40
1.0
 10
158.5722
 20
28.963
 30
0.0
 10
158.3628
 20
27.16
 30
0.0
 10
158.1144
 20
25.362
 30
0.0
 10
157.8273
 20
23.57
 30
0.0
 10
157.8273
 20
23.57
 30
0.0
 10
157.5022
 20
21.7713
 30
0.0
 10
158.3197
 20
19.9583
 30
0.0
 10
159.8832
 20
19.0113
 30
0.0
 10
159.8832
 20
19.0113
 30
0.0
 10
159.6809
 20
22.3553
 30
0.0
 10
159.2428
 20
25.6806
 30
0.0
 10
158.5722
 20
28.963
 30
0.0
  0
SPLINE
  5
AC
330
1F
100
AcDbEntity
  8
layer 1
 62
     7
370
     9
100
AcDbSpline
210
0.0
220
0.0
230
1.0
 70
    11
 71
     3
 72
    16
 73
    12
 74
     0
 42
0.0000000001
 43
0.0000000001
 12
1.0
 22
0.0
 32
0.0
 13
1.0
 23
0.0
 33
0.0
 40
0.0
 40
0.0
 40
0.0
 40
0.0
 40
0.25
 40
0.25
 40
0.25
 40
0.25
 40
0.5
 40
0.5
 40
0.5
 40
0.5
 40
1.0
 40
1.0
 40
1.0
 40
1.0
 10
150.4977
 20
44.3671
 30
0.0
 10
149.9395
 20
41.8167
 30
0.0
 10
150.8194
 20
39.1652
 30
0.0
 10
152.7918
 20
37.4545
 30
0.0
 10
152.7918
 20
37.4545
 30
0.0
 10
154.2719
 20
36.3008
 30
0.0
 10
155.6669
 20
35.0421
 30
0.0
 10
156.966
 20
33.6878
 30
0.0
 10
156.966
 20
33.6878
 30
0.0
 10
155.2593
 20
37.5011
 30
0.0
 10
153.0868
 20
41.0882
 30
0.0
 10
150.4977
 20
44.3671
 30
0.0
  0
SPLINE
  5
AD
330
1F
100
AcDbEntity
  8
layer 1
 62
     7
370
     9
100
AcDbSpline
210
0.0
220
0.0
230
1.0
 70
    11
 71
     3
 72
    16
 73
    12
 74
     0
 42
0.0000000001
 43
0.0000000001
 12
1.0
 22
0.0
 32
0.0
 13
1.0
 23
0.0
 33
0.0
 40
0.0
 40
0.0
 40
0.0
 40
0.0
 40
0.25
 40
0.25
 40
0.25
 40
0.25
 40
0.5
 40
0.5
 40
0.5
 40
0.5
 40
1.0
 40
1.0
 40
1.0
 40
1.0
 10
148.1438
 20
46.9593
 30
0.0
 10
146.0269
 20
46.8401
 30
0.0
 10
143.9798
 20
47.7364
 30
0.0
 10
142.6317
 20
49.3729
 30
0.0
 10
142.6317
 20
49.3729
 30
0.0
 10
141.8727
 20
51.0708
 30
0.0
 10
140.6933
 20
52.5476
 30
0.0
 10
139.2051
 20
53.6633
 30
0.0
 10
139.2051
 20
53.6633
 30
0.0
 10
142.6945
 20
52.2042
 30
0.0
 10
145.7661
 20
49.9004
 30
0.0
 10
148.1438
 20
46.9593
 30
0.0
  0
SPLINE
  5
AE
330
1F
100
AcDbEntity
  8
layer 1
 62
     7
370
     9
100
AcDbSpline
210
0.0
220
0.0
230
1.0
 70
    11
 71
     3
 72
    48
 73
    44
 74
     0
 42
0.0000000001
 43
0.0000000001
 12
1.0
 22
0.0
 32
0.0
 13
1.0
 23
0.0
 33
0.0
 40
0.0
 40
0.0
 40
0.0
 40
0.0
 40
0.0833333333333333
 40
0.0833333333333333
 40
0.0833333333333333
 40
0.0833333333333333
 40
0.1666666666666667
 40
0.1666666666666667
 40
0.1666666666666667
 40
0.1666666666666667
 40
0.25
 40
0.25
 40
0.25
 40
0.25
 40
0.3333333333333333
 40
0.3333333333333333
 40
0.3333333333333333
 40
0.3333333333333333
 40
0.4166666666666667
 40
0.4166666666666667
 40
0.4166666666666667
 40
0.4166666666666667
 40
0.5
 40
0.5
 40
0.5
 40
0.5
 40
0.5833333333333334
 40
0.5833333333333334
 40
0.5833333333333334
 40
0.5833333333333334
 40
0.6666666666666666
 40
0.6666666666666666
 40
0.6666666666666666
 40
0.6666666666666666
 40
0.75
 40
0.75
 40
0.75
 40
0.75
 40
0.8333333333333334
 40
0.8333333333333334
 40
0.8333333333333334
 40
0.8333333333333334
 40
1.0
 40
1.0
 40
1.0
 40
1.0
 10
137.9538
 20
41.5664
 30
0.0
 10
138.6267
 20
42.8667
 30
0.0
 10
138.5049
 20
44.4362
 30
0.0
 10
137.6395
 20
45.6173
 30
0.0
 10
137.6395
 20
45.6173
 30
0.0
 10
136.7743
 20
46.7985
 30
0.0
 10
135.3147
 20
47.3876
 30
0.0
 10
133.8718
 20
47.138
 30
0.0
 10
133.8718
 20
47.138
 30
0.0
 10
132.4833
 20
46.6611
 30
0.0
 10
131.574
 20
45.3275
 30
0.0
 10
131.6371
 20
43.8606
 30
0.0
 10
131.6371
 20
43.8606
 30
0.0
 10
129.6256
 20
44.2545
 30
0.0
 10
127.6091
 20
43.203
 30
0.0
 10
126.7805
 20
41.328
 30
0.0
 10
126.7805
 20
41.328
 30
0.0
 10
126.718
 20
44.4008
 30
0.0
 10
127.7414
 20
47.3973
 30
0.0
 10
129.6707
 20
49.7899
 30
0.0
 10
129.6707
 20
49.7899
 30
0.0
 10
129.8844
 20
48.8998
 30
0.0
 10
130.572
 20
48.2008
 30
0.0
 10
131.4584
 20
47.9724
 30
0.0
 10
131.4584
 20
47.9724
 30
0.0
 10
131.2122
 20
48.9053
 30
0.0
 10
131.3514
 20
49.8979
 30
0.0
 10
131.8444
 20
50.7272
 30
0.0
 10
131.8444
 20
50.7272
 30
0.0
 10
132.3375
 20
51.5565
 30
0.0
 10
133.1433
 20
52.1528
 30
0.0
 10
134.0804
 20
52.3821
 30
0.0
 10
134.0804
 20
52.3821
 30
0.0
 10
135.3786
 20
52.4958
 30
0.0
 10
136.6619
 20
52.039
 30
0.0
 10
137.5963
 20
51.1307
 30
0.0
 10
137.5963
 20
51.1307
 30
0.0
 10
139.3046
 20
49.2335
 30
0.0
 10
140.1181
 20
46.6953
 30
0.0
 10
139.8309
 20
44.1586
 30
0.0
 10
139.8309
 20
44.1586
 30
0.0
 10
139.6116
 20
43.0628
 30
0.0
 10
138.9264
 20
42.1168
 30
0.0
 10
137.9538
 20
41.5664
 30
0.0
  0
SPLINE
  5
AF
330
1F
100
AcDbEntity
  8
layer 1
 62
     7
370
     9
100
AcDbSpline
210
0.0
220
0.0
230
1.0
 70
    11
 71
     3
 72
    72
 73
    68
 74
     0
 42
0.0000000001
 43
0.0000000001
 12
1.0
 22
0.0
 32
0.0
 13
1.0
 23
0.0
 33
0.0
 40
0.0
 40
0.0
 40
0.0
 40
0.0
 40
0.0555555555555556
 40
0.0555555555555556
 40
0.0555555555555556
 40
0.0555555555555556
 40
0.1111111111111111
 40
0.1111111111111111
 40
0.1111111111111111
 40
0.1111111111111111
 40
0.1666666666666667
 40
0.1666666666666667
 40
0.1666666666666667
 40
0.1666666666666667
 40
0.2222222222222222
 40
0.2222222222222222
 40
0.2222222222222222
 40
0.2222222222222222
 40
0.2777777777777778
 40
0.2777777777777778
 40
0.2777777777777778
 40
0.2777777777777778
 40
0.3333333333333333
 40
0.3333333333333333
 40
0.3333333333333333
 40
0.3333333333333333
 40
0.3888888888888889
 40
0.3888888888888889
 40
0.3888888888888889
 40
0.3888888888888889
 40
0.4444444444444444
 40
0.4444444444444444
 40
0.4444444444444444
 40
0.4444444444444444
 40
0.5
 40
0.5
 40
0.5
 40
0.5
 40
0.5555555555555556
 40
0.5555555555555556
 40
0.5555555555555556
 40
0.5555555555555556
 40
0.6111111111111112
 40
0.6111111111111112
 40
0.6111111111111112
 40
0.6111111111111112
 40
0.6666666666666666
 40
0.6666666666666666
 40
0.6666666666666666
 40
0.6666666666666666
 40
0.7222222222222222
 40
0.7222222222222222
 40
0.7222222222222222
 40
0.7222222222222222
 40
0.7777777777777778
 40
0.7777777777777778
 40
0.7777777777777778
 40
0.7777777777777778
 40
0.8333333333333334
 40
0.8333333333333334
 40
0.8333333333333334
 40
0.8333333333333334
 40
0.8888888888888888
 40
0.8888888888888888
 40
0.8888888888888888
 40
0.8888888888888888
 40
1.0
 40
1.0
 40
1.0
 40
1.0
 10
149.3357
 20
45.9463
 30
0.0
 10
147.8006
 20
44.6433
 30
0.0
 10
145.6223
 20
44.4183
 30
0.0
 10
143.8534
 20
45.3801
 30
0.0
 10
143.8534
 20
45.3801
 30
0.0
 10
144.6613
 20
41.6403
 30
0.0
 10
142.818
 20
37.8309
 30
0.0
 10
139.384
 20
36.1436
 30
0.0
 10
139.384
 20
36.1436
 30
0.0
 10
137.805
 20
35.4952
 30
0.0
 10
136.0239
 20
35.5545
 30
0.0
 10
134.4914
 20
36.3064
 30
0.0
 10
134.4914
 20
36.3064
 30
0.0
 10
132.959
 20
37.0584
 30
0.0
 10
131.8223
 20
38.431
 30
0.0
 10
131.3691
 20
40.0765
 30
0.0
 10
131.3691
 20
40.0765
 30
0.0
 10
131.2071
 20
40.3966
 30
0.0
 10
130.9245
 20
40.6392
 30
0.0
 10
130.5836
 20
40.751
 30
0.0
 10
130.5836
 20
40.751
 30
0.0
 10
130.2428
 20
40.8628
 30
0.0
 10
129.8715
 20
40.8346
 30
0.0
 10
129.5514
 20
40.6725
 30
0.0
 10
129.5514
 20
40.6725
 30
0.0
 10
127.7969
 20
39.9971
 30
0.0
 10
126.5135
 20
38.466
 30
0.0
 10
126.1548
 20
36.6204
 30
0.0
 10
126.1548
 20
36.6204
 30
0.0
 10
126.0154
 20
34.12
 30
0.0
 10
125.9558
 20
31.616
 30
0.0
 10
125.9761
 20
29.112
 30
0.0
 10
125.9761
 20
29.112
 30
0.0
 10
127.1685
 20
30.348
 30
0.0
 10
128.8153
 20
31.0411
 30
0.0
 10
130.5326
 20
31.0299
 30
0.0
 10
130.5326
 20
31.0299
 30
0.0
 10
132.25
 20
31.0186
 30
0.0
 10
133.8876
 20
30.3039
 30
0.0
 10
135.0637
 20
29.0523
 30
0.0
 10
135.0637
 20
29.0523
 30
0.0
 10
137.6214
 20
25.918
 30
0.0
 10
137.7915
 20
21.4678
 30
0.0
 10
135.4809
 20
18.1473
 30
0.0
 10
135.4809
 20
18.1473
 30
0.0
 10
138.1801
 20
17.7626
 30
0.0
 10
140.9332
 20
18.0913
 30
0.0
 10
143.4659
 20
19.1007
 30
0.0
 10
143.4659
 20
19.1007
 30
0.0
 10
144.345
 20
19.7733
 30
0.0
 10
144.9163
 20
20.7715
 30
0.0
 10
145.0509
 20
21.8704
 30
0.0
 10
145.0509
 20
21.8704
 30
0.0
 10
145.1855
 20
22.969
 30
0.0
 10
144.8719
 20
24.0757
 30
0.0
 10
144.181
 20
24.9406
 30
0.0
 10
144.181
 20
24.9406
 30
0.0
 10
141.3558
 20
26.9924
 30
0.0
 10
140.1984
 20
30.6466
 30
0.0
 10
141.3272
 20
33.9509
 30
0.0
 10
141.3272
 20
33.9509
 30
0.0
 10
142.456
 20
37.2551
 30
0.0
 10
145.6071
 20
39.4374
 30
0.0
 10
149.0972
 20
39.3317
 30
0.0
 10
149.0972
 20
39.3317
 30
0.0
 10
148.3327
 20
41.4867
 30
0.0
 10
148.418
 20
43.852
 30
0.0
 10
149.3357
 20
45.9463
 30
0.0
  0
SPLINE
  5
B0
330
1F
100
AcDbEntity
  8
layer 1
 62
     7
370
     9
100
AcDbSpline
210
0.0
220
0.0
230
1.0
 70
    11
 71
     3
 72
    48
 73
    44
 74
     0
 42
0.0000000001
 43
0.0000000001
 12
1.0
 22
0.0
 32
0.0
 13
1.0
 23
0.0
 33
0.0
 40
0.0
 40
0.0
 40
0.0
 40
0.0
 40
0.0833333333333333
 40
0.0833333333333333
 40
0.0833333333333333
 40
0.0833333333333333
 40
0.1666666666666667
 40
0.1666666666666667
 40
0.1666666666666667
 40
0.1666666666666667
 40
0.25
 40
0.25
 40
0.25
 40
0.25
 40
0.3333333333333333
 40
0.3333333333333333
 40
0.3333333333333333
 40
0.3333333333333333
 40
0.4166666666666667
 40
0.4166666666666667
 40
0.4166666666666667
 40
0.4166666666666667
 40
0.5
 40
0.5
 40
0.5
 40
0.5
 40
0.5833333333333334
 40
0.5833333333333334
 40
0.5833333333333334
 40
0.5833333333333334
 40
0.6666666666666666
 40
0.6666666666666666
 40
0.6666666666666666
 40
0.6666666666666666
 40
0.75
 40
0.75
 40
0.75
 40
0.75
 40
0.8333333333333334
 40
0.8333333333333334
 40
0.8333333333333334
 40
0.8333333333333334
 40
1.0
 40
1.0
 40
1.0
 40
1.0
 10
152.7324
 20
22.2888
 30
0.0
 10
150.8404
 20
20.1457
 30
0.0
 10
148.1121
 20
18.9284
 30
0.0
 10
145.2537
 20
18.9517
 30
0.0
 10
145.2537
 20
18.9517
 30
0.0
 10
147.3319
 20
20.1472
 30
0.0
 10
148.4305
 20
22.5233
 30
0.0
 10
147.9948
 20
24.881
 30
0.0
 10
147.9948
 20
24.881
 30
0.0
 10
149.5846
 20
25.3127
 30
0.0
 10
150.7332
 20
26.6947
 30
0.0
 10
150.8666
 20
28.3366
 30
0.0
 10
150.8666
 20
28.3366
 30
0.0
 10
151.0001
 20
29.9785
 30
0.0
 10
150.0899
 20
31.5278
 30
0.0
 10
148.5907
 20
32.2107
 30
0.0
 10
148.5907
 20
32.2107
 30
0.0
 10
147.7245
 20
32.5066
 30
0.0
 10
146.7877
 20
32.5275
 30
0.0
 10
145.9092
 20
32.2701
 30
0.0
 10
145.9092
 20
32.2701
 30
0.0
 10
146.401
 20
33.248
 30
0.0
 10
147.2687
 20
33.9841
 30
0.0
 10
148.3136
 20
34.3099
 30
0.0
 10
148.3136
 20
34.3099
 30
0.0
 10
149.3583
 20
34.6358
 30
0.0
 10
150.4908
 20
34.5233
 30
0.0
 10
151.4511
 20
33.9985
 30
0.0
 10
151.4511
 20
33.9985
 30
0.0
 10
153.4403
 20
32.7814
 30
0.0
 10
154.8002
 20
30.7579
 30
0.0
 10
155.1756
 20
28.4565
 30
0.0
 10
155.1756
 20
28.4565
 30
0.0
 10
155.2655
 20
27.4
 30
0.0
 10
154.912
 20
26.3538
 30
0.0
 10
154.2
 20
25.5683
 30
0.0
 10
154.2
 20
25.5683
 30
0.0
 10
153.4881
 20
24.7829
 30
0.0
 10
152.4815
 20
24.3289
 30
0.0
 10
151.4214
 20
24.3148
 30
0.0
 10
151.4214
 20
24.3148
 30
0.0
 10
151.6298
 20
23.5165
 30
0.0
 10
152.0894
 20
22.8062
 30
0.0
 10
152.7324
 20
22.2888
 30
0.0
  0
SPLINE
  5
B1
330
1F
100
AcDbEntity
  8
layer 1
 62
     7
370
     9
100
AcDbSpline
210
0.0
220
0.0
230
1.0
 70
    11
 71
     3
 72
    24
 73
    20
 74
     0
 42
0.0000000001
 43
0.0000000001
 12
1.0
 22
0.0
 32
0.0
 13
1.0
 23
0.0
 33
0.0
 40
0.0
 40
0.0
 40
0.0
 40
0.0
 40
0.1666666666666667
 40
0.1666666666666667
 40
0.1666666666666667
 40
0.1666666666666667
 40
0.3333333333333333
 40
0.3333333333333333
 40
0.3333333333333333
 40
0.3333333333333333
 40
0.5
 40
0.5
 40
0.5
 40
0.5
 40
0.6666666666666666
 40
0.6666666666666666
 40
0.6666666666666666
 40
0.6666666666666666
 40
1.0
 40
1.0
 40
1.0
 40
1.0
 10
130.654
 20
18.3558
 30
0.0
 10
132.5361
 20
19.1073
 30
0.0
 10
133.973
 20
20.6759
 30
0.0
 10
134.5572
 20
22.6166
 30
0.0
 10
134.5572
 20
22.6166
 30
0.0
 10
135.1336
 20
24.2727
 30
0.0
 10
134.6117
 20
26.1127
 30
0.0
 10
133.2513
 20
27.2196
 30
0.0
 10
133.2513
 20
27.2196
 30
0.0
 10
131.8911
 20
28.3265
 30
0.0
 10
129.9835
 20
28.4636
 30
0.0
 10
128.4789
 20
27.5625
 30
0.0
 10
128.4789
 20
27.5625
 30
0.0
 10
127.2588
 20
26.4548
 30
0.0
 10
126.4852
 20
24.9397
 30
0.0
 10
126.3039
 20
23.3018
 30
0.0
 10
126.3039
 20
23.3018
 30
0.0
 10
128.4575
 20
22.4382
 30
0.0
 10
130.0723
 20
20.602
 30
0.0
 10
130.654
 20
18.3558
 30
0.0
  0
SPLINE
  5
B2
330
1F
100
AcDbEntity
  8
layer 1
 62
     7
370
     9
100
AcDbSpline
210
0.0
220
0.0
230
1.0
 70
    11
 71
     3
 72
    56
 73
    52
 74
     0
 42
0.0000000001
 43
0.0000000001
 12
1.0
 22
0.0
 32
0.0
 13
1.0
 23
0.0
 33
0.0
 40
0.0
 40
0.0
 40
0.0
 40
0.0
 40
0.0714285714285714
 40
0.0714285714285714
 40
0.0714285714285714
 40
0.0714285714285714
 40
0.1428571428571428
 40
0.1428571428571428
 40
0.1428571428571428
 40
0.1428571428571428
 40
0.2142857142857143
 40
0.2142857142857143
 40
0.2142857142857143
 40
0.2142857142857143
 40
0.2857142857142857
 40
0.2857142857142857
 40
0.2857142857142857
 40
0.2857142857142857
 40
0.3571428571428572
 40
0.3571428571428572
 40
0.3571428571428572
 40
0.3571428571428572
 40
0.4285714285714285
 40
0.4285714285714285
 40
0.4285714285714285
 40
0.4285714285714285
 40
0.5
 40
0.5
 40
0.5
 40
0.5
 40
0.5714285714285714
 40
0.5714285714285714
 40
0.5714285714285714
 40
0.5714285714285714
 40
0.6428571428571429
 40
0.6428571428571429
 40
0.6428571428571429
 40
0.6428571428571429
 40
0.7142857142857143
 40
0.7142857142857143
 40
0.7142857142857143
 40
0.7142857142857143
 40
0.7857142857142857
 40
0.7857142857142857
 40
0.7857142857142857
 40
0.7857142857142857
 40
0.8571428571428571
 40
0.8571428571428571
 40
0.8571428571428571
 40
0.8571428571428571
 40
1.0
 40
1.0
 40
1.0
 40
1.0
 10
187.2055
 20
-26.7512
 30
0.0
 10
187.2055
 20
-26.7512
 30
0.0
 10
187.2055
 20
-45.3168
 30
0.0
 10
187.2055
 20
-45.3168
 30
0.0
 10
187.2055
 20
-45.3168
 30
0.0
 10
185.6646
 20
-45.2729
 30
0.0
 10
184.1771
 20
-45.8824
 30
0.0
 10
183.11
 20
-46.9949
 30
0.0
 10
183.11
 20
-46.9949
 30
0.0
 10
182.0429
 20
-48.1073
 30
0.0
 10
181.496
 20
-49.6192
 30
0.0
 10
181.604
 20
-51.1567
 30
0.0
 10
181.604
 20
-51.1567
 30
0.0
 10
179.7793
 20
-51.5671
 30
0.0
 10
178.6072
 20
-53.3484
 30
0.0
 10
178.9524
 20
-55.1865
 30
0.0
 10
178.9524
 20
-55.1865
 30
0.0
 10
179.2976
 20
-57.0245
 30
0.0
 10
181.036
 20
-58.2593
 30
0.0
 10
182.8852
 20
-57.9799
 30
0.0
 10
182.8852
 20
-57.9799
 30
0.0
 10
182.9263
 20
-59.5832
 30
0.0
 10
181.9972
 20
-61.0534
 30
0.0
 10
180.5314
 20
-61.7042
 30
0.0
 10
180.5314
 20
-61.7042
 30
0.0
 10
179.9737
 20
-61.8724
 30
0.0
 10
179.3687
 20
-61.7241
 30
0.0
 10
178.9522
 20
-61.317
 30
0.0
 10
178.9522
 20
-61.317
 30
0.0
 10
177.4763
 20
-59.7979
 30
0.0
 10
176.6347
 20
-57.7736
 30
0.0
 10
176.5983
 20
-55.6559
 30
0.0
 10
176.5983
 20
-55.6559
 30
0.0
 10
176.4013
 20
-53.4609
 30
0.0
 10
176.5521
 20
-51.2487
 30
0.0
 10
177.0454
 20
-49.1009
 30
0.0
 10
177.0454
 20
-49.1009
 30
0.0
 10
178.2822
 20
-46.4801
 30
0.0
 10
179.6343
 20
-43.9152
 30
0.0
 10
181.0975
 20
-41.4136
 30
0.0
 10
181.0975
 20
-41.4136
 30
0.0
 10
182.1815
 20
-41.8468
 30
0.0
 10
183.3825
 20
-41.8889
 30
0.0
 10
184.4941
 20
-41.5329
 30
0.0
 10
184.4941
 20
-41.5329
 30
0.0
 10
183.4994
 20
-39.5894
 30
0.0
 10
183.2964
 20
-37.336
 30
0.0
 10
183.9281
 20
-35.2461
 30
0.0
 10
183.9281
 20
-35.2461
 30
0.0
 10
185.0923
 20
-32.4426
 30
0.0
 10
186.1851
 20
-29.6101
 30
0.0
 10
187.2055
 20
-26.7512
 30
0.0
  0
SPLINE
  5
B3
330
1F
100
AcDbEntity
  8
layer 1
 62
     7
370
     9
100
AcDbSpline
210
0.0
220
0.0
230
1.0
 70
    11
 71
     3
 72
    56
 73
    52
 74
     0
 42
0.0000000001
 43
0.0000000001
 12
1.0
 22
0.0
 32
0.0
 13
1.0
 23
0.0
 33
0.0
 40
0.0
 40
0.0
 40
0.0
 40
0.0
 40
0.0714285714285714
 40
0.0714285714285714
 40
0.0714285714285714
 40
0.0714285714285714
 40
0.1428571428571428
 40
0.1428571428571428
 40
0.1428571428571428
 40
0.1428571428571428
 40
0.2142857142857143
 40
0.2142857142857143
 40
0.2142857142857143
 40
0.2142857142857143
 40
0.2857142857142857
 40
0.2857142857142857
 40
0.2857142857142857
 40
0.2857142857142857
 40
0.3571428571428572
 40
0.3571428571428572
 40
0.3571428571428572
 40
0.3571428571428572
 40
0.4285714285714285
 40
0.4285714285714285
 40
0.4285714285714285
 40
0.4285714285714285
 40
0.5
 40
0.5
 40
0.5
 40
0.5
 40
0.5714285714285714
 40
0.5714285714285714
 40
0.5714285714285714
 40
0.5714285714285714
 40
0.6428571428571429
 40
0.6428571428571429
 40
0.6428571428571429
 40
0.6428571428571429
 40
0.7142857142857143
 40
0.7142857142857143
 40
0.7142857142857143
 40
0.7142857142857143
 40
0.7857142857142857
 40
0.7857142857142857
 40
0.7857142857142857
 40
0.7857142857142857
 40
0.8571428571428571
 40
0.8571428571428571
 40
0.8571428571428571
 40
0.8571428571428571
 40
1.0
 40
1.0
 40
1.0
 40
1.0
 10
187.2055
 20
60.1851
 30
0.0
 10
186.1851
 20
63.0442
 30
0.0
 10
185.0923
 20
65.8767
 30
0.0
 10
183.9281
 20
68.6802
 30
0.0
 10
183.9281
 20
68.6802
 30
0.0
 10
183.2964
 20
70.7693
 30
0.0
 10
183.4994
 20
73.0237
 30
0.0
 10
184.4941
 20
74.9674
 30
0.0
 10
184.4941
 20
74.9674
 30
0.0
 10
183.3825
 20
75.3225
 30
0.0
 10
182.1815
 20
75.2812
 30
0.0
 10
181.0975
 20
74.8485
 30
0.0
 10
181.0975
 20
74.8485
 30
0.0
 10
179.6343
 20
77.3489
 30
0.0
 10
178.2822
 20
79.9137
 30
0.0
 10
177.0454
 20
82.5347
 30
0.0
 10
177.0454
 20
82.5347
 30
0.0
 10
176.5521
 20
84.6833
 30
0.0
 10
176.4013
 20
86.8947
 30
0.0
 10
176.5983
 20
89.0895
 30
0.0
 10
176.5983
 20
89.0895
 30
0.0
 10
176.6347
 20
91.2084
 30
0.0
 10
177.4763
 20
93.2315
 30
0.0
 10
178.9522
 20
94.7509
 30
0.0
 10
178.9522
 20
94.7509
 30
0.0
 10
179.3687
 20
95.1588
 30
0.0
 10
179.9737
 20
95.3058
 30
0.0
 10
180.5314
 20
95.139
 30
0.0
 10
180.5314
 20
95.139
 30
0.0
 10
181.9972
 20
94.4867
 30
0.0
 10
182.9263
 20
93.0168
 30
0.0
 10
182.8852
 20
91.4149
 30
0.0
 10
182.8852
 20
91.4149
 30
0.0
 10
181.036
 20
91.694
 30
0.0
 10
179.2976
 20
90.4586
 30
0.0
 10
178.9524
 20
88.6205
 30
0.0
 10
178.9524
 20
88.6205
 30
0.0
 10
178.6072
 20
86.7824
 30
0.0
 10
179.7793
 20
85.0004
 30
0.0
 10
181.604
 20
84.5908
 30
0.0
 10
181.604
 20
84.5908
 30
0.0
 10
181.496
 20
83.0532
 30
0.0
 10
182.0429
 20
81.5421
 30
0.0
 10
183.11
 20
80.429
 30
0.0
 10
183.11
 20
80.429
 30
0.0
 10
184.1771
 20
79.3159
 30
0.0
 10
185.6646
 20
78.7065
 30
0.0
 10
187.2055
 20
78.7511
 30
0.0
 10
187.2055
 20
78.7511
 30
0.0
 10
187.2055
 20
78.7511
 30
0.0
 10
187.2055
 20
60.1851
 30
0.0
 10
187.2055
 20
60.1851
 30
0.0
  0
SPLINE
  5
B4
330
1F
100
AcDbEntity
  8
layer 1
 62
     7
370
     9
100
AcDbSpline
210
0.0
220
0.0
230
1.0
 70
    11
 71
     3
 72
    56
 73
    52
 74
     0
 42
0.0000000001
 43
0.0000000001
 12
1.0
 22
0.0
 32
0.0
 13
1.0
 23
0.0
 33
0.0
 40
0.0
 40
0.0
 40
0.0
 40
0.0
 40
0.0714285714285714
 40
0.0714285714285714
 40
0.0714285714285714
 40
0.0714285714285714
 40
0.1428571428571428
 40
0.1428571428571428
 40
0.1428571428571428
 40
0.1428571428571428
 40
0.2142857142857143
 40
0.2142857142857143
 40
0.2142857142857143
 40
0.2142857142857143
 40
0.2857142857142857
 40
0.2857142857142857
 40
0.2857142857142857
 40
0.2857142857142857
 40
0.3571428571428572
 40
0.3571428571428572
 40
0.3571428571428572
 40
0.3571428571428572
 40
0.4285714285714285
 40
0.4285714285714285
 40
0.4285714285714285
 40
0.4285714285714285
 40
0.5
 40
0.5
 40
0.5
 40
0.5
 40
0.5714285714285714
 40
0.5714285714285714
 40
0.5714285714285714
 40
0.5714285714285714
 40
0.6428571428571429
 40
0.6428571428571429
 40
0.6428571428571429
 40
0.6428571428571429
 40
0.7142857142857143
 40
0.7142857142857143
 40
0.7142857142857143
 40
0.7142857142857143
 40
0.7857142857142857
 40
0.7857142857142857
 40
0.7857142857142857
 40
0.7857142857142857
 40
0.8571428571428571
 40
0.8571428571428571
 40
0.8571428571428571
 40
0.8571428571428571
 40
1.0
 40
1.0
 40
1.0
 40
1.0
 10
62.065
 20
-26.7512
 30
0.0
 10
62.065
 20
-26.7512
 30
0.0
 10
62.065
 20
-45.3168
 30
0.0
 10
62.065
 20
-45.3168
 30
0.0
 10
62.065
 20
-45.3168
 30
0.0
 10
63.6058
 20
-45.2729
 30
0.0
 10
65.0935
 20
-45.8824
 30
0.0
 10
66.1606
 20
-46.9949
 30
0.0
 10
66.1606
 20
-46.9949
 30
0.0
 10
67.2276
 20
-48.1073
 30
0.0
 10
67.7746
 20
-49.6192
 30
0.0
 10
67.6665
 20
-51.1567
 30
0.0
 10
67.6665
 20
-51.1567
 30
0.0
 10
69.4911
 20
-51.5671
 30
0.0
 10
70.6634
 20
-53.3484
 30
0.0
 10
70.3182
 20
-55.1865
 30
0.0
 10
70.3182
 20
-55.1865
 30
0.0
 10
69.973
 20
-57.0245
 30
0.0
 10
68.2345
 20
-58.2593
 30
0.0
 10
66.3853
 20
-57.9799
 30
0.0
 10
66.3853
 20
-57.9799
 30
0.0
 10
66.3442
 20
-59.5832
 30
0.0
 10
67.2733
 20
-61.0534
 30
0.0
 10
68.7392
 20
-61.7042
 30
0.0
 10
68.7392
 20
-61.7042
 30
0.0
 10
69.2968
 20
-61.8724
 30
0.0
 10
69.9017
 20
-61.7241
 30
0.0
 10
70.3184
 20
-61.317
 30
0.0
 10
70.3184
 20
-61.317
 30
0.0
 10
71.7942
 20
-59.7979
 30
0.0
 10
72.6359
 20
-57.7736
 30
0.0
 10
72.6721
 20
-55.6559
 30
0.0
 10
72.6721
 20
-55.6559
 30
0.0
 10
72.8693
 20
-53.4609
 30
0.0
 10
72.7184
 20
-51.2487
 30
0.0
 10
72.2252
 20
-49.1009
 30
0.0
 10
72.2252
 20
-49.1009
 30
0.0
 10
70.9884
 20
-46.4801
 30
0.0
 10
69.6363
 20
-43.9152
 30
0.0
 10
68.1731
 20
-41.4136
 30
0.0
 10
68.1731
 20
-41.4136
 30
0.0
 10
67.089
 20
-41.8468
 30
0.0
 10
65.8882
 20
-41.8889
 30
0.0
 10
64.7764
 20
-41.5329
 30
0.0
 10
64.7764
 20
-41.5329
 30
0.0
 10
65.7711
 20
-39.5894
 30
0.0
 10
65.9741
 20
-37.336
 30
0.0
 10
65.3426
 20
-35.2461
 30
0.0
 10
65.3426
 20
-35.2461
 30
0.0
 10
64.1783
 20
-32.4426
 30
0.0
 10
63.0854
 20
-29.6101
 30
0.0
 10
62.065
 20
-26.7512
 30
0.0
  0
SPLINE
  5
B5
330
1F
100
AcDbEntity
  8
layer 1
 62
     7
370
     9
100
AcDbSpline
210
0.0
220
0.0
230
1.0
 70
    11
 71
     3
 72
    56
 73
    52
 74
     0
 42
0.0000000001
 43
0.0000000001
 12
1.0
 22
0.0
 32
0.0
 13
1.0
 23
0.0
 33
0.0
 40
0.0
 40
0.0
 40
0.0
 40
0.0
 40
0.0714285714285714
 40
0.0714285714285714
 40
0.0714285714285714
 40
0.0714285714285714
 40
0.1428571428571428
 40
0.1428571428571428
 40
0.1428571428571428
 40
0.1428571428571428
 40
0.2142857142857143
 40
0.2142857142857143
 40
0.2142857142857143
 40
0.2142857142857143
 40
0.2857142857142857
 40
0.2857142857142857
 40
0.2857142857142857
 40
0.2857142857142857
 40
0.3571428571428572
 40
0.3571428571428572
 40
0.3571428571428572
 40
0.3571428571428572
 40
0.4285714285714285
 40
0.4285714285714285
 40
0.4285714285714285
 40
0.4285714285714285
 40
0.5
 40
0.5
 40
0.5
 40
0.5
 40
0.5714285714285714
 40
0.5714285714285714
 40
0.5714285714285714
 40
0.5714285714285714
 40
0.6428571428571429
 40
0.6428571428571429
 40
0.6428571428571429
 40
0.6428571428571429
 40
0.7142857142857143
 40
0.7142857142857143
 40
0.7142857142857143
 40
0.7142857142857143
 40
0.7857142857142857
 40
0.7857142857142857
 40
0.7857142857142857
 40
0.7857142857142857
 40
0.8571428571428571
 40
0.8571428571428571
 40
0.8571428571428571
 40
0.8571428571428571
 40
1.0
 40
1.0
 40
1.0
 40
1.0
 10
62.065
 20
60.1851
 30
0.0
 10
63.0854
 20
63.0442
 30
0.0
 10
64.1783
 20
65.8767
 30
0.0
 10
65.3426
 20
68.6802
 30
0.0
 10
65.3426
 20
68.6802
 30
0.0
 10
65.9741
 20
70.7693
 30
0.0
 10
65.7711
 20
73.0237
 30
0.0
 10
64.7764
 20
74.9674
 30
0.0
 10
64.7764
 20
74.9674
 30
0.0
 10
65.8882
 20
75.3225
 30
0.0
 10
67.089
 20
75.2812
 30
0.0
 10
68.1731
 20
74.8485
 30
0.0
 10
68.1731
 20
74.8485
 30
0.0
 10
69.6363
 20
77.3489
 30
0.0
 10
70.9884
 20
79.9137
 30
0.0
 10
72.2252
 20
82.5347
 30
0.0
 10
72.2252
 20
82.5347
 30
0.0
 10
72.7184
 20
84.6833
 30
0.0
 10
72.8693
 20
86.8947
 30
0.0
 10
72.6721
 20
89.0895
 30
0.0
 10
72.6721
 20
89.0895
 30
0.0
 10
72.6359
 20
91.2084
 30
0.0
 10
71.7942
 20
93.2315
 30
0.0
 10
70.3184
 20
94.7509
 30
0.0
 10
70.3184
 20
94.7509
 30
0.0
 10
69.9017
 20
95.1588
 30
0.0
 10
69.2968
 20
95.3058
 30
0.0
 10
68.7392
 20
95.139
 30
0.0
 10
68.7392
 20
95.139
 30
0.0
 10
67.2733
 20
94.4867
 30
0.0
 10
66.3442
 20
93.0168
 30
0.0
 10
66.3853
 20
91.4149
 30
0.0
 10
66.3853
 20
91.4149
 30
0.0
 10
68.2345
 20
91.694
 30
0.0
 10
69.973
 20
90.4586
 30
0.0
 10
70.3182
 20
88.6205
 30
0.0
 10
70.3182
 20
88.6205
 30
0.0
 10
70.6634
 20
86.7824
 30
0.0
 10
69.4911
 20
85.0004
 30
0.0
 10
67.6665
 20
84.5908
 30
0.0
 10
67.6665
 20
84.5908
 30
0.0
 10
67.7746
 20
83.0532
 30
0.0
 10
67.2276
 20
81.5421
 30
0.0
 10
66.1606
 20
80.429
 30
0.0
 10
66.1606
 20
80.429
 30
0.0
 10
65.0935
 20
79.3159
 30
0.0
 10
63.6058
 20
78.7065
 30
0.0
 10
62.065
 20
78.7511
 30
0.0
 10
62.065
 20
78.7511
 30
0.0
 10
62.065
 20
78.7511
 30
0.0
 10
62.065
 20
60.1851
 30
0.0
 10
62.065
 20
60.1851
 30
0.0
  0
SPLINE
  5
B6
330
1F
100
AcDbEntity
  8
layer 1
 62
     7
370
     9
100
AcDbSpline
210
0.0
220
0.0
230
1.0
 70
    11
 71
     3
 72
    24
 73
    20
 74
     0
 42
0.0000000001
 43
0.0000000001
 12
1.0
 22
0.0
 32
0.0
 13
1.0
 23
0.0
 33
0.0
 40
0.0
 40
0.0
 40
0.0
 40
0.0
 40
0.1666666666666667
 40
0.1666666666666667
 40
0.1666666666666667
 40
0.1666666666666667
 40
0.3333333333333333
 40
0.3333333333333333
 40
0.3333333333333333
 40
0.3333333333333333
 40
0.5
 40
0.5
 40
0.5
 40
0.5
 40
0.6666666666666666
 40
0.6666666666666666
 40
0.6666666666666666
 40
0.6666666666666666
 40
1.0
 40
1.0
 40
1.0
 40
1.0
 10
187.2055
 20
-46.8418
 30
0.0
 10
187.2055
 20
-46.8418
 30
0.0
 10
187.2055
 20
-55.7996
 30
0.0
 10
187.2055
 20
-55.7996
 30
0.0
 10
187.2055
 20
-55.7996
 30
0.0
 10
186.9572
 20
-55.796
 30
0.0
 10
186.7088
 20
-55.7976
 30
0.0
 10
186.4606
 20
-55.8049
 30
0.0
 10
186.4606
 20
-55.8049
 30
0.0
 10
185.8872
 20
-54.2467
 30
0.0
 10
185.1054
 20
-52.7734
 30
0.0
 10
184.1366
 20
-51.4249
 30
0.0
 10
184.1366
 20
-51.4249
 30
0.0
 10
183.9186
 20
-50.4086
 30
0.0
 10
184.122
 20
-49.3471
 30
0.0
 10
184.7004
 20
-48.4834
 30
0.0
 10
184.7004
 20
-48.4834
 30
0.0
 10
185.2788
 20
-47.6195
 30
0.0
 10
186.1827
 20
-47.0273
 30
0.0
 10
187.2055
 20
-46.8418
 30
0.0
  0
SPLINE
  5
B7
330
1F
100
AcDbEntity
  8
layer 1
 62
     7
370
     9
100
AcDbSpline
210
0.0
220
0.0
230
1.0
 70
    11
 71
     3
 72
    24
 73
    20
 74
     0
 42
0.0000000001
 43
0.0000000001
 12
1.0
 22
0.0
 32
0.0
 13
1.0
 23
0.0
 33
0.0
 40
0.0
 40
0.0
 40
0.0
 40
0.0
 40
0.1666666666666667
 40
0.1666666666666667
 40
0.1666666666666667
 40
0.1666666666666667
 40
0.3333333333333333
 40
0.3333333333333333
 40
0.3333333333333333
 40
0.3333333333333333
 40
0.5
 40
0.5
 40
0.5
 40
0.5
 40
0.6666666666666666
 40
0.6666666666666666
 40
0.6666666666666666
 40
0.6666666666666666
 40
1.0
 40
1.0
 40
1.0
 40
1.0
 10
187.2055
 20
80.2754
 30
0.0
 10
187.2055
 20
80.2754
 30
0.0
 10
187.2055
 20
89.2332
 30
0.0
 10
187.2055
 20
89.2332
 30
0.0
 10
187.2055
 20
89.2332
 30
0.0
 10
186.9572
 20
89.2299
 30
0.0
 10
186.7088
 20
89.2316
 30
0.0
 10
186.4606
 20
89.2382
 30
0.0
 10
186.4606
 20
89.2382
 30
0.0
 10
185.8872
 20
87.6808
 30
0.0
 10
185.1054
 20
86.2076
 30
0.0
 10
184.1366
 20
84.8584
 30
0.0
 10
184.1366
 20
84.8584
 30
0.0
 10
183.9186
 20
83.8427
 30
0.0
 10
184.122
 20
82.7808
 30
0.0
 10
184.7004
 20
81.917
 30
0.0
 10
184.7004
 20
81.917
 30
0.0
 10
185.2788
 20
81.0533
 30
0.0
 10
186.1827
 20
80.4621
 30
0.0
 10
187.2055
 20
80.2754
 30
0.0
  0
SPLINE
  5
B8
330
1F
100
AcDbEntity
  8
layer 1
 62
     7
370
     9
100
AcDbSpline
210
0.0
220
0.0
230
1.0
 70
    11
 71
     3
 72
    16
 73
    12
 74
     0
 42
0.0000000001
 43
0.0000000001
 12
1.0
 22
0.0
 32
0.0
 13
1.0
 23
0.0
 33
0.0
 40
0.0
 40
0.0
 40
0.0
 40
0.0
 40
0.25
 40
0.25
 40
0.25
 40
0.25
 40
0.5
 40
0.5
 40
0.5
 40
0.5
 40
1.0
 40
1.0
 40
1.0
 40
1.0
 10
125.8867
 20
117.7234
 30
0.0
 10
126.9485
 20
115.1272
 30
0.0
 10
129.52
 20
113.4724
 30
0.0
 10
132.3225
 20
113.5814
 30
0.0
 10
132.3225
 20
113.5814
 30
0.0
 10
134.4547
 20
114.0257
 30
0.0
 10
136.6285
 20
114.2404
 30
0.0
 10
138.8065
 20
114.2222
 30
0.0
 10
138.8065
 20
114.2222
 30
0.0
 10
134.8384
 20
116.3973
 30
0.0
 10
130.4101
 20
117.5979
 30
0.0
 10
125.8867
 20
117.7234
 30
0.0
  0
SPLINE
  5
B9
330
1F
100
AcDbEntity
  8
layer 1
 62
     7
370
     9
100
AcDbSpline
210
0.0
220
0.0
230
1.0
 70
    11
 71
     3
 72
    16
 73
    12
 74
     0
 42
0.0000000001
 43
0.0000000001
 12
1.0
 22
0.0
 32
0.0
 13
1.0
 23
0.0
 33
0.0
 40
0.0
 40
0.0
 40
0.0
 40
0.0
 40
0.25
 40
0.25
 40
0.25
 40
0.25
 40
0.5
 40
0.5
 40
0.5
 40
0.5
 40
1.0
 40
1.0
 40
1.0
 40
1.0
 10
123.3839
 20
117.7234
 30
0.0
 10
122.3219
 20
115.1272
 30
0.0
 10
119.7506
 20
113.4724
 30
0.0
 10
116.9481
 20
113.5814
 30
0.0
 10
116.9481
 20
113.5814
 30
0.0
 10
114.8157
 20
114.0257
 30
0.0
 10
112.6421
 20
114.2404
 30
0.0
 10
110.4641
 20
114.2222
 30
0.0
 10
110.4641
 20
114.2222
 30
0.0
 10
114.4322
 20
116.3973
 30
0.0
 10
118.8606
 20
117.5979
 30
0.0
 10
123.3839
 20
117.7234
 30
0.0
  0
SPLINE
  5
BA
330
1F
100
AcDbEntity
  8
layer 1
 62
     7
370
     9
100
AcDbSpline
210
0.0
220
0.0
230
1.0
 70
    11
 71
     3
 72
    24
 73
    20
 74
     0
 42
0.0000000001
 43
0.0000000001
 12
1.0
 22
0.0
 32
0.0
 13
1.0
 23
0.0
 33
0.0
 40
0.0
 40
0.0
 40
0.0
 40
0.0
 40
0.1666666666666667
 40
0.1666666666666667
 40
0.1666666666666667
 40
0.1666666666666667
 40
0.3333333333333333
 40
0.3333333333333333
 40
0.3333333333333333
 40
0.3333333333333333
 40
0.5
 40
0.5
 40
0.5
 40
0.5
 40
0.6666666666666666
 40
0.6666666666666666
 40
0.6666666666666666
 40
0.6666666666666666
 40
1.0
 40
1.0
 40
1.0
 40
1.0
 10
62.065
 20
80.2754
 30
0.0
 10
62.065
 20
80.2754
 30
0.0
 10
62.065
 20
89.2332
 30
0.0
 10
62.065
 20
89.2332
 30
0.0
 10
62.065
 20
89.2332
 30
0.0
 10
62.3134
 20
89.2299
 30
0.0
 10
62.5618
 20
89.2316
 30
0.0
 10
62.81
 20
89.2382
 30
0.0
 10
62.81
 20
89.2382
 30
0.0
 10
63.3833
 20
87.6808
 30
0.0
 10
64.165
 20
86.2076
 30
0.0
 10
65.134
 20
84.8584
 30
0.0
 10
65.134
 20
84.8584
 30
0.0
 10
65.352
 20
83.8427
 30
0.0
 10
65.1485
 20
82.7808
 30
0.0
 10
64.5701
 20
81.917
 30
0.0
 10
64.5701
 20
81.917
 30
0.0
 10
63.9918
 20
81.0533
 30
0.0
 10
63.0879
 20
80.4621
 30
0.0
 10
62.065
 20
80.2754
 30
0.0
  0
SPLINE
  5
BB
330
1F
100
AcDbEntity
  8
layer 1
 62
     7
370
     9
100
AcDbSpline
210
0.0
220
0.0
230
1.0
 70
    11
 71
     3
 72
    24
 73
    20
 74
     0
 42
0.0000000001
 43
0.0000000001
 12
1.0
 22
0.0
 32
0.0
 13
1.0
 23
0.0
 33
0.0
 40
0.0
 40
0.0
 40
0.0
 40
0.0
 40
0.1666666666666667
 40
0.1666666666666667
 40
0.1666666666666667
 40
0.1666666666666667
 40
0.3333333333333333
 40
0.3333333333333333
 40
0.3333333333333333
 40
0.3333333333333333
 40
0.5
 40
0.5
 40
0.5
 40
0.5
 40
0.6666666666666666
 40
0.6666666666666666
 40
0.6666666666666666
 40
0.6666666666666666
 40
1.0
 40
1.0
 40
1.0
 40
1.0
 10
62.065
 20
-46.8418
 30
0.0
 10
62.065
 20
-46.8418
 30
0.0
 10
62.065
 20
-55.7996
 30
0.0
 10
62.065
 20
-55.7996
 30
0.0
 10
62.065
 20
-55.7996
 30
0.0
 10
62.3134
 20
-55.796
 30
0.0
 10
62.5618
 20
-55.7976
 30
0.0
 10
62.81
 20
-55.8049
 30
0.0
 10
62.81
 20
-55.8049
 30
0.0
 10
63.3833
 20
-54.2467
 30
0.0
 10
64.165
 20
-52.7734
 30
0.0
 10
65.134
 20
-51.4249
 30
0.0
 10
65.134
 20
-51.4249
 30
0.0
 10
65.352
 20
-50.4086
 30
0.0
 10
65.1485
 20
-49.3471
 30
0.0
 10
64.5701
 20
-48.4834
 30
0.0
 10
64.5701
 20
-48.4834
 30
0.0
 10
63.9918
 20
-47.6195
 30
0.0
 10
63.0879
 20
-47.0273
 30
0.0
 10
62.065
 20
-46.8418
 30
0.0
  0
SPLINE
  5
BC
330
1F
100
AcDbEntity
  8
layer 1
 62
     7
370
     9
100
AcDbSpline
210
0.0
220
0.0
230
1.0
 70
    11
 71
     3
 72
    16
 73
    12
 74
     0
 42
0.0000000001
 43
0.0000000001
 12
1.0
 22
0.0
 32
0.0
 13
1.0
 23
0.0
 33
0.0
 40
0.0
 40
0.0
 40
0.0
 40
0.0
 40
0.25
 40
0.25
 40
0.25
 40
0.25
 40
0.5
 40
0.5
 40
0.5
 40
0.5
 40
1.0
 40
1.0
 40
1.0
 40
1.0
 10
122.4524
 20
57.7587
 30
0.0
 10
119.8132
 20
57.5316
 30
0.0
 10
117.1959
 20
57.0988
 30
0.0
 10
114.6241
 20
56.4641
 30
0.0
 10
114.6241
 20
56.4641
 30
0.0
 10
115.965
 20
56.273
 30
0.0
 10
117.2971
 20
56.0245
 30
0.0
 10
118.6166
 20
55.7191
 30
0.0
 10
118.6166
 20
55.7191
 30
0.0
 10
120.2024
 20
55.4945
 30
0.0
 10
121.752
 20
56.3184
 30
0.0
 10
122.4524
 20
57.7587
 30
0.0
  0
SPLINE
  5
BD
330
1F
100
AcDbEntity
  8
layer 1
 62
     7
370
     9
100
AcDbSpline
210
0.0
220
0.0
230
1.0
 70
    11
 71
     3
 72
    16
 73
    12
 74
     0
 42
0.0000000001
 43
0.0000000001
 12
1.0
 22
0.0
 32
0.0
 13
1.0
 23
0.0
 33
0.0
 40
0.0
 40
0.0
 40
0.0
 40
0.0
 40
0.25
 40
0.25
 40
0.25
 40
0.25
 40
0.5
 40
0.5
 40
0.5
 40
0.5
 40
1.0
 40
1.0
 40
1.0
 40
1.0
 10
126.8182
 20
57.7587
 30
0.0
 10
129.4574
 20
57.5316
 30
0.0
 10
132.0748
 20
57.0988
 30
0.0
 10
134.6465
 20
56.4641
 30
0.0
 10
134.6465
 20
56.4641
 30
0.0
 10
133.3056
 20
56.273
 30
0.0
 10
131.9735
 20
56.0245
 30
0.0
 10
130.654
 20
55.7191
 30
0.0
 10
130.654
 20
55.7191
 30
0.0
 10
129.0682
 20
55.4945
 30
0.0
 10
127.5186
 20
56.3184
 30
0.0
 10
126.8182
 20
57.7587
 30
0.0
  0
SPLINE
  5
BE
330
1F
100
AcDbEntity
  8
layer 1
 62
     7
370
     9
100
AcDbSpline
210
0.0
220
0.0
230
1.0
 70
    11
 71
     3
 72
    16
 73
    12
 74
     0
 42
0.0000000001
 43
0.0000000001
 12
1.0
 22
0.0
 32
0.0
 13
1.0
 23
0.0
 33
0.0
 40
0.0
 40
0.0
 40
0.0
 40
0.0
 40
0.25
 40
0.25
 40
0.25
 40
0.25
 40
0.5
 40
0.5
 40
0.5
 40
0.5
 40
1.0
 40
1.0
 40
1.0
 40
1.0
 10
101.1414
 20
-89.1161
 30
0.0
 10
101.1414
 20
-89.1161
 30
0.0
 10
117.4494
 20
-89.1161
 30
0.0
 10
117.4494
 20
-89.1161
 30
0.0
 10
117.4494
 20
-89.1161
 30
0.0
 10
112.3823
 20
-88.008
 30
0.0
 10
107.5119
 20
-86.1395
 30
0.0
 10
103.0039
 20
-83.5741
 30
0.0
 10
103.0039
 20
-83.5741
 30
0.0
 10
102.7456
 20
-85.5241
 30
0.0
 10
102.1131
 20
-87.4059
 30
0.0
 10
101.1414
 20
-89.1161
 30
0.0
  0
SPLINE
  5
BF
330
1F
100
AcDbEntity
  8
layer 1
 62
     7
370
     9
100
AcDbSpline
210
0.0
220
0.0
230
1.0
 70
    11
 71
     3
 72
    80
 73
    76
 74
     0
 42
0.0000000001
 43
0.0000000001
 12
1.0
 22
0.0
 32
0.0
 13
1.0
 23
0.0
 33
0.0
 40
0.0
 40
0.0
 40
0.0
 40
0.0
 40
0.05
 40
0.05
 40
0.05
 40
0.05
 40
0.1
 40
0.1
 40
0.1
 40
0.1
 40
0.15
 40
0.15
 40
0.15
 40
0.15
 40
0.2
 40
0.2
 40
0.2
 40
0.2
 40
0.25
 40
0.25
 40
0.25
 40
0.25
 40
0.3
 40
0.3
 40
0.3
 40
0.3
 40
0.35
 40
0.35
 40
0.35
 40
0.35
 40
0.4
 40
0.4
 40
0.4
 40
0.4
 40
0.45
 40
0.45
 40
0.45
 40
0.45
 40
0.5
 40
0.5
 40
0.5
 40
0.5
 40
0.55
 40
0.55
 40
0.55
 40
0.55
 40
0.6
 40
0.6
 40
0.6
 40
0.6
 40
0.65
 40
0.65
 40
0.65
 40
0.65
 40
0.7
 40
0.7
 40
0.7
 40
0.7
 40
0.75
 40
0.75
 40
0.75
 40
0.75
 40
0.8
 40
0.8
 40
0.8
 40
0.8
 40
0.85
 40
0.85
 40
0.85
 40
0.85
 40
0.9
 40
0.9
 40
0.9
 40
0.9
 40
1.0
 40
1.0
 40
1.0
 40
1.0
 10
121.1789
 20
-29.7041
 30
0.0
 10
118.963
 20
-29.4481
 30
0.0
 10
116.7635
 20
-29.0663
 30
0.0
 10
114.5907
 20
-28.5603
 30
0.0
 10
114.5907
 20
-28.5603
 30
0.0
 10
113.5552
 20
-29.4736
 30
0.0
 10
112.2208
 20
-29.9759
 30
0.0
 10
110.84
 20
-29.9723
 30
0.0
 10
110.84
 20
-29.9723
 30
0.0
 10
111.424
 20
-29.1503
 30
0.0
 10
111.4756
 20
-28.0635
 30
0.0
 10
110.9726
 20
-27.1897
 30
0.0
 10
110.9726
 20
-27.1897
 30
0.0
 10
109.446
 20
-26.511
 30
0.0
 10
107.9936
 20
-25.6762
 30
0.0
 10
106.6389
 20
-24.6985
 30
0.0
 10
106.6389
 20
-24.6985
 30
0.0
 10
106.4615
 20
-24.6041
 30
0.0
 10
106.2908
 20
-24.4976
 30
0.0
 10
106.1281
 20
-24.3796
 30
0.0
 10
106.1281
 20
-24.3796
 30
0.0
 10
107.3366
 20
-26.3344
 30
0.0
 10
108.1482
 20
-28.5081
 30
0.0
 10
108.516
 20
-30.7767
 30
0.0
 10
108.516
 20
-30.7767
 30
0.0
 10
108.9963
 20
-33.5019
 30
0.0
 10
107.659
 20
-36.2248
 30
0.0
 10
105.2087
 20
-37.5104
 30
0.0
 10
105.2087
 20
-37.5104
 30
0.0
 10
103.8746
 20
-38.0196
 30
0.0
 10
102.4647
 20
-38.3015
 30
0.0
 10
101.0373
 20
-38.3448
 30
0.0
 10
101.0373
 20
-38.3448
 30
0.0
 10
99.6216
 20
-38.487
 30
0.0
 10
98.5348
 20
-39.6634
 30
0.0
 10
98.5047
 20
-41.086
 30
0.0
 10
98.5047
 20
-41.086
 30
0.0
 10
98.5237
 20
-42.2888
 30
0.0
 10
98.7143
 20
-43.4826
 30
0.0
 10
99.0708
 20
-44.6316
 30
0.0
 10
99.0708
 20
-44.6316
 30
0.0
 10
100.1353
 20
-45.2846
 30
0.0
 10
101.3045
 20
-45.7483
 30
0.0
 10
102.5271
 20
-46.0022
 30
0.0
 10
102.5271
 20
-46.0022
 30
0.0
 10
102.3232
 20
-44.5375
 30
0.0
 10
103.0003
 20
-43.0897
 30
0.0
 10
104.2553
 20
-42.3076
 30
0.0
 10
104.2553
 20
-42.3076
 30
0.0
 10
104.2534
 20
-45.3622
 30
0.0
 10
106.3286
 20
-48.0268
 30
0.0
 10
109.2907
 20
-48.7732
 30
0.0
 10
109.2907
 20
-48.7732
 30
0.0
 10
109.9792
 20
-48.4121
 30
0.0
 10
110.5796
 20
-47.9034
 30
0.0
 10
111.0486
 20
-47.2834
 30
0.0
 10
111.0486
 20
-47.2834
 30
0.0
 10
111.7863
 20
-46.0337
 30
0.0
 10
111.4202
 20
-44.4257
 30
0.0
 10
110.2144
 20
-43.6185
 30
0.0
 10
110.2144
 20
-43.6185
 30
0.0
 10
109.4137
 20
-43.1688
 30
0.0
 10
108.7219
 20
-42.5482
 30
0.0
 10
108.1883
 20
-41.8011
 30
0.0
 10
108.1883
 20
-41.8011
 30
0.0
 10
106.9702
 20
-38.8827
 30
0.0
 10
107.6817
 20
-35.5154
 30
0.0
 10
109.9759
 20
-33.3392
 30
0.0
 10
109.9759
 20
-33.3392
 30
0.0
 10
112.8121
 20
-31.5744
 30
0.0
 10
116.2921
 20
-31.1804
 30
0.0
 10
119.451
 20
-32.2666
 30
0.0
 10
119.451
 20
-32.2666
 30
0.0
 10
120.1885
 20
-31.5333
 30
0.0
 10
120.7755
 20
-30.6628
 30
0.0
 10
121.1789
 20
-29.7041
 30
0.0
  0
SPLINE
  5
C0
330
1F
100
AcDbEntity
  8
layer 1
 62
     7
370
     9
100
AcDbSpline
210
0.0
220
0.0
230
1.0
 70
    11
 71
     3
 72
    28
 73
    24
 74
     0
 42
0.0000000001
 43
0.0000000001
 12
1.0
 22
0.0
 32
0.0
 13
1.0
 23
0.0
 33
0.0
 40
0.0
 40
0.0
 40
0.0
 40
0.0
 40
0.1428571428571428
 40
0.1428571428571428
 40
0.1428571428571428
 40
0.1428571428571428
 40
0.2857142857142857
 40
0.2857142857142857
 40
0.2857142857142857
 40
0.2857142857142857
 40
0.4285714285714285
 40
0.4285714285714285
 40
0.4285714285714285
 40
0.4285714285714285
 40
0.5714285714285714
 40
0.5714285714285714
 40
0.5714285714285714
 40
0.5714285714285714
 40
0.7142857142857143
 40
0.7142857142857143
 40
0.7142857142857143
 40
0.7142857142857143
 40
1.0
 40
1.0
 40
1.0
 40
1.0
 10
113.909
 20
-43.5292
 30
0.0
 10
114.4532
 20
-45.8355
 30
0.0
 10
113.344
 20
-48.214
 30
0.0
 10
111.2274
 20
-49.2796
 30
0.0
 10
111.2274
 20
-49.2796
 30
0.0
 10
115.0913
 20
-50.0165
 30
0.0
 10
118.9291
 20
-47.8844
 30
0.0
 10
120.3448
 20
-44.2144
 30
0.0
 10
120.3448
 20
-44.2144
 30
0.0
 10
121.4546
 20
-41.7038
 30
0.0
 10
121.0133
 20
-38.7778
 30
0.0
 10
119.2125
 20
-36.706
 30
0.0
 10
119.2125
 20
-36.706
 30
0.0
 10
117.7176
 20
-35.5233
 30
0.0
 10
115.7615
 20
-35.0948
 30
0.0
 10
113.909
 20
-35.544
 30
0.0
 10
113.909
 20
-35.544
 30
0.0
 10
115.306
 20
-36.3894
 30
0.0
 10
116.1595
 20
-37.9037
 30
0.0
 10
116.1595
 20
-39.5365
 30
0.0
 10
116.1595
 20
-39.5365
 30
0.0
 10
116.1595
 20
-41.1695
 30
0.0
 10
115.306
 20
-42.6838
 30
0.0
 10
113.909
 20
-43.5292
 30
0.0
  0
SPLINE
  5
C1
330
1F
100
AcDbEntity
  8
layer 1
 62
     7
370
     9
100
AcDbSpline
210
0.0
220
0.0
230
1.0
 70
    11
 71
     3
 72
    24
 73
    20
 74
     0
 42
0.0000000001
 43
0.0000000001
 12
1.0
 22
0.0
 32
0.0
 13
1.0
 23
0.0
 33
0.0
 40
0.0
 40
0.0
 40
0.0
 40
0.0
 40
0.1666666666666667
 40
0.1666666666666667
 40
0.1666666666666667
 40
0.1666666666666667
 40
0.3333333333333333
 40
0.3333333333333333
 40
0.3333333333333333
 40
0.3333333333333333
 40
0.5
 40
0.5
 40
0.5
 40
0.5
 40
0.6666666666666666
 40
0.6666666666666666
 40
0.6666666666666666
 40
0.6666666666666666
 40
1.0
 40
1.0
 40
1.0
 40
1.0
 10
108.6649
 20
-62.7769
 30
0.0
 10
105.6179
 20
-62.1997
 30
0.0
 10
103.6057
 20
-59.274
 30
0.0
 10
104.1568
 20
-56.2221
 30
0.0
 10
104.1568
 20
-56.2221
 30
0.0
 10
107.9992
 20
-57.7091
 30
0.0
 10
111.9706
 20
-58.8379
 30
0.0
 10
116.0204
 20
-59.5944
 30
0.0
 10
116.0204
 20
-59.5944
 30
0.0
 10
115.9901
 20
-59.8148
 30
0.0
 10
115.9415
 20
-60.0321
 30
0.0
 10
115.8754
 20
-60.2443
 30
0.0
 10
115.8754
 20
-60.2443
 30
0.0
 10
114.5997
 20
-60.3355
 30
0.0
 10
113.3969
 20
-60.8736
 30
0.0
 10
112.4788
 20
-61.7639
 30
0.0
 10
112.4788
 20
-61.7639
 30
0.0
 10
111.3663
 20
-62.5397
 30
0.0
 10
110.0159
 20
-62.8985
 30
0.0
 10
108.6649
 20
-62.7769
 30
0.0
  0
SPLINE
  5
C2
330
1F
100
AcDbEntity
  8
layer 1
 62
     7
370
     9
100
AcDbSpline
210
0.0
220
0.0
230
1.0
 70
    11
 71
     3
 72
    48
 73
    44
 74
     0
 42
0.0000000001
 43
0.0000000001
 12
1.0
 22
0.0
 32
0.0
 13
1.0
 23
0.0
 33
0.0
 40
0.0
 40
0.0
 40
0.0
 40
0.0
 40
0.0833333333333333
 40
0.0833333333333333
 40
0.0833333333333333
 40
0.0833333333333333
 40
0.1666666666666667
 40
0.1666666666666667
 40
0.1666666666666667
 40
0.1666666666666667
 40
0.25
 40
0.25
 40
0.25
 40
0.25
 40
0.3333333333333333
 40
0.3333333333333333
 40
0.3333333333333333
 40
0.3333333333333333
 40
0.4166666666666667
 40
0.4166666666666667
 40
0.4166666666666667
 40
0.4166666666666667
 40
0.5
 40
0.5
 40
0.5
 40
0.5
 40
0.5833333333333334
 40
0.5833333333333334
 40
0.5833333333333334
 40
0.5833333333333334
 40
0.6666666666666666
 40
0.6666666666666666
 40
0.6666666666666666
 40
0.6666666666666666
 40
0.75
 40
0.75
 40
0.75
 40
0.75
 40
0.8333333333333334
 40
0.8333333333333334
 40
0.8333333333333334
 40
0.8333333333333334
 40
1.0
 40
1.0
 40
1.0
 40
1.0
 10
124.6354
 20
-81.9354
 30
0.0
 10
124.8909
 20
-79.8712
 30
0.0
 10
126.0052
 20
-78.0104
 30
0.0
 10
127.7042
 20
-76.8106
 30
0.0
 10
127.7042
 20
-76.8106
 30
0.0
 10
125.5632
 20
-74.4319
 30
0.0
 10
124.6294
 20
-71.2041
 30
0.0
 10
125.1697
 20
-68.0497
 30
0.0
 10
125.1697
 20
-68.0497
 30
0.0
 10
125.7099
 20
-64.8954
 30
0.0
 10
127.6647
 20
-62.1622
 30
0.0
 10
130.4751
 20
-60.6316
 30
0.0
 10
130.4751
 20
-60.6316
 30
0.0
 10
130.5017
 20
-60.4357
 30
0.0
 10
130.4574
 20
-60.2367
 30
0.0
 10
130.3504
 20
-60.0705
 30
0.0
 10
130.3504
 20
-60.0705
 30
0.0
 10
128.5036
 20
-60.3323
 30
0.0
 10
126.6466
 20
-60.5166
 30
0.0
 10
124.7842
 20
-60.6233
 30
0.0
 10
124.7842
 20
-60.6233
 30
0.0
 10
124.7842
 20
-60.6233
 30
0.0
 10
124.4863
 20
-60.6233
 30
0.0
 10
124.4863
 20
-60.6233
 30
0.0
 10
124.4863
 20
-60.6233
 30
0.0
 10
122.624
 20
-60.5166
 30
0.0
 10
120.767
 20
-60.3323
 30
0.0
 10
118.9202
 20
-60.0705
 30
0.0
 10
118.9202
 20
-60.0705
 30
0.0
 10
118.8132
 20
-60.2367
 30
0.0
 10
118.7689
 20
-60.4357
 30
0.0
 10
118.7955
 20
-60.6316
 30
0.0
 10
118.7955
 20
-60.6316
 30
0.0
 10
121.6059
 20
-62.1622
 30
0.0
 10
123.5607
 20
-64.8954
 30
0.0
 10
124.1009
 20
-68.0497
 30
0.0
 10
124.1009
 20
-68.0497
 30
0.0
 10
124.6412
 20
-71.2041
 30
0.0
 10
123.7072
 20
-74.4319
 30
0.0
 10
121.5664
 20
-76.8106
 30
0.0
 10
121.5664
 20
-76.8106
 30
0.0
 10
123.2654
 20
-78.0104
 30
0.0
 10
124.3796
 20
-79.8712
 30
0.0
 10
124.6354
 20
-81.9354
 30
0.0
  0
SPLINE
  5
C3
330
1F
100
AcDbEntity
  8
layer 1
 62
     7
370
     9
100
AcDbSpline
210
0.0
220
0.0
230
1.0
 70
    11
 71
     3
 72
    16
 73
    12
 74
     0
 42
0.0000000001
 43
0.0000000001
 12
1.0
 22
0.0
 32
0.0
 13
1.0
 23
0.0
 33
0.0
 40
0.0
 40
0.0
 40
0.0
 40
0.0
 40
0.25
 40
0.25
 40
0.25
 40
0.25
 40
0.5
 40
0.5
 40
0.5
 40
0.5
 40
1.0
 40
1.0
 40
1.0
 40
1.0
 10
101.1268
 20
-13.5252
 30
0.0
 10
103.5045
 20
-16.4664
 30
0.0
 10
106.5761
 20
-18.7701
 30
0.0
 10
110.0654
 20
-20.2292
 30
0.0
 10
110.0654
 20
-20.2292
 30
0.0
 10
108.5773
 20
-19.1133
 30
0.0
 10
107.3979
 20
-17.6367
 30
0.0
 10
106.6389
 20
-15.9386
 30
0.0
 10
106.6389
 20
-15.9386
 30
0.0
 10
105.2906
 20
-14.3023
 30
0.0
 10
103.2436
 20
-13.406
 30
0.0
 10
101.1268
 20
-13.5252
 30
0.0
  0
SPLINE
  5
C4
330
1F
100
AcDbEntity
  8
layer 1
 62
   250
370
     9
100
AcDbSpline
210
0.0
220
0.0
230
1.0
 70
     8
 71
     3
 72
    16
 73
    12
 74
     0
 42
0.0000000001
 43
0.0000000001
 12
1.0
 22
0.0
 32
0.0
 13
1.0
 23
0.0
 33
0.0
 40
0.0
 40
0.0
 40
0.0
 40
0.0
 40
0.25
 40
0.25
 40
0.25
 40
0.25
 40
0.5
 40
0.5
 40
0.5
 40
0.5
 40
1.0
 40
1.0
 40
1.0
 40
1.0
 10
122.4602
 20
-24.341
 30
0.0
 10
121.7641
 20
-22.8911
 30
0.0
 10
120.209
 20
-22.0594
 30
0.0
 10
118.6166
 20
-22.285
 30
0.0
 10
118.6166
 20
-22.285
 30
0.0
 10
117.2971
 20
-22.5904
 30
0.0
 10
115.965
 20
-22.8389
 30
0.0
 10
114.6241
 20
-23.03
 30
0.0
 10
114.6241
 20
-23.03
 30
0.0
 10
117.1959
 20
-23.6647
 30
0.0
 10
119.8132
 20
-24.0975
 30
0.0
 10
122.4524
 20
-24.3246
 30
0.0
  0
SPLINE
  5
C5
330
1F
100
AcDbEntity
  8
layer 1
 62
     7
370
     9
100
AcDbSpline
210
0.0
220
0.0
230
1.0
 70
    11
 71
     3
 72
    16
 73
    12
 74
     0
 42
0.0000000001
 43
0.0000000001
 12
1.0
 22
0.0
 32
0.0
 13
1.0
 23
0.0
 33
0.0
 40
0.0
 40
0.0
 40
0.0
 40
0.0
 40
0.25
 40
0.25
 40
0.25
 40
0.25
 40
0.5
 40
0.5
 40
0.5
 40
0.5
 40
1.0
 40
1.0
 40
1.0
 40
1.0
 10
148.1292
 20
-89.1161
 30
0.0
 10
148.1292
 20
-89.1161
 30
0.0
 10
131.8211
 20
-89.1161
 30
0.0
 10
131.8211
 20
-89.1161
 30
0.0
 10
131.8211
 20
-89.1161
 30
0.0
 10
136.8883
 20
-88.008
 30
0.0
 10
141.7585
 20
-86.1395
 30
0.0
 10
146.2667
 20
-83.5741
 30
0.0
 10
146.2667
 20
-83.5741
 30
0.0
 10
146.525
 20
-85.5241
 30
0.0
 10
147.1575
 20
-87.4059
 30
0.0
 10
148.1292
 20
-89.1161
 30
0.0
  0
SPLINE
  5
C6
330
1F
100
AcDbEntity
  8
layer 1
 62
     7
370
     9
100
AcDbSpline
210
0.0
220
0.0
230
1.0
 70
    11
 71
     3
 72
    80
 73
    76
 74
     0
 42
0.0000000001
 43
0.0000000001
 12
1.0
 22
0.0
 32
0.0
 13
1.0
 23
0.0
 33
0.0
 40
0.0
 40
0.0
 40
0.0
 40
0.0
 40
0.05
 40
0.05
 40
0.05
 40
0.05
 40
0.1
 40
0.1
 40
0.1
 40
0.1
 40
0.15
 40
0.15
 40
0.15
 40
0.15
 40
0.2
 40
0.2
 40
0.2
 40
0.2
 40
0.25
 40
0.25
 40
0.25
 40
0.25
 40
0.3
 40
0.3
 40
0.3
 40
0.3
 40
0.35
 40
0.35
 40
0.35
 40
0.35
 40
0.4
 40
0.4
 40
0.4
 40
0.4
 40
0.45
 40
0.45
 40
0.45
 40
0.45
 40
0.5
 40
0.5
 40
0.5
 40
0.5
 40
0.55
 40
0.55
 40
0.55
 40
0.55
 40
0.6
 40
0.6
 40
0.6
 40
0.6
 40
0.65
 40
0.65
 40
0.65
 40
0.65
 40
0.7
 40
0.7
 40
0.7
 40
0.7
 40
0.75
 40
0.75
 40
0.75
 40
0.75
 40
0.8
 40
0.8
 40
0.8
 40
0.8
 40
0.85
 40
0.85
 40
0.85
 40
0.85
 40
0.9
 40
0.9
 40
0.9
 40
0.9
 40
1.0
 40
1.0
 40
1.0
 40
1.0
 10
128.0915
 20
-29.7041
 30
0.0
 10
130.3075
 20
-29.4481
 30
0.0
 10
132.5071
 20
-29.0663
 30
0.0
 10
134.6797
 20
-28.5603
 30
0.0
 10
134.6797
 20
-28.5603
 30
0.0
 10
135.7154
 20
-29.4736
 30
0.0
 10
137.0496
 20
-29.9759
 30
0.0
 10
138.4305
 20
-29.9723
 30
0.0
 10
138.4305
 20
-29.9723
 30
0.0
 10
137.8466
 20
-29.1503
 30
0.0
 10
137.795
 20
-28.0635
 30
0.0
 10
138.298
 20
-27.1897
 30
0.0
 10
138.298
 20
-27.1897
 30
0.0
 10
139.8246
 20
-26.511
 30
0.0
 10
141.277
 20
-25.6762
 30
0.0
 10
142.6317
 20
-24.6985
 30
0.0
 10
142.6317
 20
-24.6985
 30
0.0
 10
142.8091
 20
-24.6041
 30
0.0
 10
142.9798
 20
-24.4976
 30
0.0
 10
143.1425
 20
-24.3796
 30
0.0
 10
143.1425
 20
-24.3796
 30
0.0
 10
141.934
 20
-26.3344
 30
0.0
 10
141.1224
 20
-28.5081
 30
0.0
 10
140.7546
 20
-30.7767
 30
0.0
 10
140.7546
 20
-30.7767
 30
0.0
 10
140.2742
 20
-33.5019
 30
0.0
 10
141.6116
 20
-36.2248
 30
0.0
 10
144.0618
 20
-37.5104
 30
0.0
 10
144.0618
 20
-37.5104
 30
0.0
 10
145.396
 20
-38.0196
 30
0.0
 10
146.8059
 20
-38.3015
 30
0.0
 10
148.2331
 20
-38.3448
 30
0.0
 10
148.2331
 20
-38.3448
 30
0.0
 10
149.649
 20
-38.487
 30
0.0
 10
150.7358
 20
-39.6634
 30
0.0
 10
150.7657
 20
-41.086
 30
0.0
 10
150.7657
 20
-41.086
 30
0.0
 10
150.7469
 20
-42.2888
 30
0.0
 10
150.5563
 20
-43.4826
 30
0.0
 10
150.1998
 20
-44.6316
 30
0.0
 10
150.1998
 20
-44.6316
 30
0.0
 10
149.1354
 20
-45.2846
 30
0.0
 10
147.9661
 20
-45.7483
 30
0.0
 10
146.7435
 20
-46.0022
 30
0.0
 10
146.7435
 20
-46.0022
 30
0.0
 10
146.9475
 20
-44.5375
 30
0.0
 10
146.2703
 20
-43.0897
 30
0.0
 10
145.0153
 20
-42.3076
 30
0.0
 10
145.0153
 20
-42.3076
 30
0.0
 10
145.0172
 20
-45.3622
 30
0.0
 10
142.9419
 20
-48.0268
 30
0.0
 10
139.9799
 20
-48.7732
 30
0.0
 10
139.9799
 20
-48.7732
 30
0.0
 10
139.2914
 20
-48.4121
 30
0.0
 10
138.691
 20
-47.9034
 30
0.0
 10
138.2219
 20
-47.2834
 30
0.0
 10
138.2219
 20
-47.2834
 30
0.0
 10
137.4843
 20
-46.0337
 30
0.0
 10
137.8503
 20
-44.4257
 30
0.0
 10
139.0562
 20
-43.6185
 30
0.0
 10
139.0562
 20
-43.6185
 30
0.0
 10
139.8569
 20
-43.1688
 30
0.0
 10
140.5485
 20
-42.5482
 30
0.0
 10
141.0823
 20
-41.8011
 30
0.0
 10
141.0823
 20
-41.8011
 30
0.0
 10
142.3004
 20
-38.8827
 30
0.0
 10
141.5889
 20
-35.5154
 30
0.0
 10
139.2945
 20
-33.3392
 30
0.0
 10
139.2945
 20
-33.3392
 30
0.0
 10
136.4585
 20
-31.5744
 30
0.0
 10
132.9785
 20
-31.1804
 30
0.0
 10
129.8196
 20
-32.2666
 30
0.0
 10
129.8196
 20
-32.2666
 30
0.0
 10
129.0821
 20
-31.5333
 30
0.0
 10
128.4951
 20
-30.6628
 30
0.0
 10
128.0915
 20
-29.7041
 30
0.0
  0
SPLINE
  5
C7
330
1F
100
AcDbEntity
  8
layer 1
 62
     7
370
     9
100
AcDbSpline
210
0.0
220
0.0
230
1.0
 70
    11
 71
     3
 72
    28
 73
    24
 74
     0
 42
0.0000000001
 43
0.0000000001
 12
1.0
 22
0.0
 32
0.0
 13
1.0
 23
0.0
 33
0.0
 40
0.0
 40
0.0
 40
0.0
 40
0.0
 40
0.1428571428571428
 40
0.1428571428571428
 40
0.1428571428571428
 40
0.1428571428571428
 40
0.2857142857142857
 40
0.2857142857142857
 40
0.2857142857142857
 40
0.2857142857142857
 40
0.4285714285714285
 40
0.4285714285714285
 40
0.4285714285714285
 40
0.4285714285714285
 40
0.5714285714285714
 40
0.5714285714285714
 40
0.5714285714285714
 40
0.5714285714285714
 40
0.7142857142857143
 40
0.7142857142857143
 40
0.7142857142857143
 40
0.7142857142857143
 40
1.0
 40
1.0
 40
1.0
 40
1.0
 10
135.3616
 20
-43.5292
 30
0.0
 10
134.8174
 20
-45.8355
 30
0.0
 10
135.9266
 20
-48.214
 30
0.0
 10
138.0432
 20
-49.2796
 30
0.0
 10
138.0432
 20
-49.2796
 30
0.0
 10
134.1793
 20
-50.0165
 30
0.0
 10
130.3413
 20
-47.8844
 30
0.0
 10
128.9258
 20
-44.2144
 30
0.0
 10
128.9258
 20
-44.2144
 30
0.0
 10
127.816
 20
-41.7038
 30
0.0
 10
128.2572
 20
-38.7778
 30
0.0
 10
130.0581
 20
-36.706
 30
0.0
 10
130.0581
 20
-36.706
 30
0.0
 10
131.553
 20
-35.5233
 30
0.0
 10
133.5091
 20
-35.0948
 30
0.0
 10
135.3616
 20
-35.544
 30
0.0
 10
135.3616
 20
-35.544
 30
0.0
 10
133.9646
 20
-36.3894
 30
0.0
 10
133.1109
 20
-37.9037
 30
0.0
 10
133.1109
 20
-39.5365
 30
0.0
 10
133.1109
 20
-39.5365
 30
0.0
 10
133.1109
 20
-41.1695
 30
0.0
 10
133.9646
 20
-42.6838
 30
0.0
 10
135.3616
 20
-43.5292
 30
0.0
  0
SPLINE
  5
C8
330
1F
100
AcDbEntity
  8
layer 1
 62
     7
370
     9
100
AcDbSpline
210
0.0
220
0.0
230
1.0
 70
    11
 71
     3
 72
    24
 73
    20
 74
     0
 42
0.0000000001
 43
0.0000000001
 12
1.0
 22
0.0
 32
0.0
 13
1.0
 23
0.0
 33
0.0
 40
0.0
 40
0.0
 40
0.0
 40
0.0
 40
0.1666666666666667
 40
0.1666666666666667
 40
0.1666666666666667
 40
0.1666666666666667
 40
0.3333333333333333
 40
0.3333333333333333
 40
0.3333333333333333
 40
0.3333333333333333
 40
0.5
 40
0.5
 40
0.5
 40
0.5
 40
0.6666666666666666
 40
0.6666666666666666
 40
0.6666666666666666
 40
0.6666666666666666
 40
1.0
 40
1.0
 40
1.0
 40
1.0
 10
140.6056
 20
-62.7769
 30
0.0
 10
143.6527
 20
-62.1997
 30
0.0
 10
145.6649
 20
-59.274
 30
0.0
 10
145.1138
 20
-56.2221
 30
0.0
 10
145.1138
 20
-56.2221
 30
0.0
 10
141.2714
 20
-57.7091
 30
0.0
 10
137.3
 20
-58.8379
 30
0.0
 10
133.25
 20
-59.5944
 30
0.0
 10
133.25
 20
-59.5944
 30
0.0
 10
133.2805
 20
-59.8148
 30
0.0
 10
133.3291
 20
-60.0321
 30
0.0
 10
133.3951
 20
-60.2443
 30
0.0
 10
133.3951
 20
-60.2443
 30
0.0
 10
134.6709
 20
-60.3355
 30
0.0
 10
135.8736
 20
-60.8736
 30
0.0
 10
136.7918
 20
-61.7639
 30
0.0
 10
136.7918
 20
-61.7639
 30
0.0
 10
137.9043
 20
-62.5397
 30
0.0
 10
139.2547
 20
-62.8985
 30
0.0
 10
140.6056
 20
-62.7769
 30
0.0
  0
SPLINE
  5
C9
330
1F
100
AcDbEntity
  8
layer 1
 62
     7
370
     9
100
AcDbSpline
210
0.0
220
0.0
230
1.0
 70
    11
 71
     3
 72
    16
 73
    12
 74
     0
 42
0.0000000001
 43
0.0000000001
 12
1.0
 22
0.0
 32
0.0
 13
1.0
 23
0.0
 33
0.0
 40
0.0
 40
0.0
 40
0.0
 40
0.0
 40
0.25
 40
0.25
 40
0.25
 40
0.25
 40
0.5
 40
0.5
 40
0.5
 40
0.5
 40
1.0
 40
1.0
 40
1.0
 40
1.0
 10
148.1438
 20
-13.5252
 30
0.0
 10
145.7661
 20
-16.4664
 30
0.0
 10
142.6945
 20
-18.7701
 30
0.0
 10
139.2051
 20
-20.2292
 30
0.0
 10
139.2051
 20
-20.2292
 30
0.0
 10
140.6933
 20
-19.1133
 30
0.0
 10
141.8727
 20
-17.6367
 30
0.0
 10
142.6317
 20
-15.9386
 30
0.0
 10
142.6317
 20
-15.9386
 30
0.0
 10
143.9798
 20
-14.3023
 30
0.0
 10
146.0269
 20
-13.406
 30
0.0
 10
148.1438
 20
-13.5252
 30
0.0
  0
SPLINE
  5
CA
330
1F
100
AcDbEntity
  8
layer 1
 62
   250
370
     9
100
AcDbSpline
210
0.0
220
0.0
230
1.0
 70
     8
 71
     3
 72
    16
 73
    12
 74
     0
 42
0.0000000001
 43
0.0000000001
 12
1.0
 22
0.0
 32
0.0
 13
1.0
 23
0.0
 33
0.0
 40
0.0
 40
0.0
 40
0.0
 40
0.0
 40
0.25
 40
0.25
 40
0.25
 40
0.25
 40
0.5
 40
0.5
 40
0.5
 40
0.5
 40
1.0
 40
1.0
 40
1.0
 40
1.0
 10
126.8103
 20
-24.341
 30
0.0
 10
127.5065
 20
-22.8911
 30
0.0
 10
129.0616
 20
-22.0594
 30
0.0
 10
130.654
 20
-22.285
 30
0.0
 10
130.654
 20
-22.285
 30
0.0
 10
131.9735
 20
-22.5904
 30
0.0
 10
133.3056
 20
-22.8389
 30
0.0
 10
134.6465
 20
-23.03
 30
0.0
 10
134.6465
 20
-23.03
 30
0.0
 10
132.0748
 20
-23.6647
 30
0.0
 10
129.4574
 20
-24.0975
 30
0.0
 10
126.8182
 20
-24.3246
 30
0.0
  0
SPLINE
  5
CB
330
1F
100
AcDbEntity
  8
layer 1
 62
     7
370
     9
100
AcDbSpline
210
0.0
220
0.0
230
1.0
 70
    11
 71
     3
 72
    16
 73
    12
 74
     0
 42
0.0000000001
 43
0.0000000001
 12
1.0
 22
0.0
 32
0.0
 13
1.0
 23
0.0
 33
0.0
 40
0.0
 40
0.0
 40
0.0
 40
0.0
 40
0.25
 40
0.25
 40
0.25
 40
0.25
 40
0.5
 40
0.5
 40
0.5
 40
0.5
 40
1.0
 40
1.0
 40
1.0
 40
1.0
 10
125.8867
 20
-84.2892
 30
0.0
 10
130.4101
 20
-84.1631
 30
0.0
 10
134.8384
 20
-82.9631
 30
0.0
 10
138.8065
 20
-80.7881
 30
0.0
 10
138.8065
 20
-80.7881
 30
0.0
 10
136.6285
 20
-80.8061
 30
0.0
 10
134.4547
 20
-80.5914
 30
0.0
 10
132.3225
 20
-80.1476
 30
0.0
 10
132.3225
 20
-80.1476
 30
0.0
 10
129.52
 20
-80.0386
 30
0.0
 10
126.9485
 20
-81.6934
 30
0.0
 10
125.8867
 20
-84.2892
 30
0.0
  0
SPLINE
  5
CC
330
1F
100
AcDbEntity
  8
layer 1
 62
     7
370
     9
100
AcDbSpline
210
0.0
220
0.0
230
1.0
 70
    11
 71
     3
 72
    16
 73
    12
 74
     0
 42
0.0000000001
 43
0.0000000001
 12
1.0
 22
0.0
 32
0.0
 13
1.0
 23
0.0
 33
0.0
 40
0.0
 40
0.0
 40
0.0
 40
0.0
 40
0.25
 40
0.25
 40
0.25
 40
0.25
 40
0.5
 40
0.5
 40
0.5
 40
0.5
 40
1.0
 40
1.0
 40
1.0
 40
1.0
 10
123.3839
 20
-84.2892
 30
0.0
 10
118.8606
 20
-84.1631
 30
0.0
 10
114.4322
 20
-82.9631
 30
0.0
 10
110.4641
 20
-80.7881
 30
0.0
 10
110.4641
 20
-80.7881
 30
0.0
 10
112.6421
 20
-80.8061
 30
0.0
 10
114.8157
 20
-80.5914
 30
0.0
 10
116.9481
 20
-80.1476
 30
0.0
 10
116.9481
 20
-80.1476
 30
0.0
 10
119.7506
 20
-80.0386
 30
0.0
 10
122.3219
 20
-81.6934
 30
0.0
 10
123.3839
 20
-84.2892
 30
0.0
  0
SPLINE
  5
CD
330
1F
100
AcDbEntity
  8
layer 1
 62
     7
370
     9
100
AcDbSpline
210
0.0
220
0.0
230
1.0
 70
    11
 71
     3
 72
    72
 73
    68
 74
     0
 42
0.0000000001
 43
0.0000000001
 12
1.0
 22
0.0
 32
0.0
 13
1.0
 23
0.0
 33
0.0
 40
0.0
 40
0.0
 40
0.0
 40
0.0
 40
0.0555555555555556
 40
0.0555555555555556
 40
0.0555555555555556
 40
0.0555555555555556
 40
0.1111111111111111
 40
0.1111111111111111
 40
0.1111111111111111
 40
0.1111111111111111
 40
0.1666666666666667
 40
0.1666666666666667
 40
0.1666666666666667
 40
0.1666666666666667
 40
0.2222222222222222
 40
0.2222222222222222
 40
0.2222222222222222
 40
0.2222222222222222
 40
0.2777777777777778
 40
0.2777777777777778
 40
0.2777777777777778
 40
0.2777777777777778
 40
0.3333333333333333
 40
0.3333333333333333
 40
0.3333333333333333
 40
0.3333333333333333
 40
0.3888888888888889
 40
0.3888888888888889
 40
0.3888888888888889
 40
0.3888888888888889
 40
0.4444444444444444
 40
0.4444444444444444
 40
0.4444444444444444
 40
0.4444444444444444
 40
0.5
 40
0.5
 40
0.5
 40
0.5
 40
0.5555555555555556
 40
0.5555555555555556
 40
0.5555555555555556
 40
0.5555555555555556
 40
0.6111111111111112
 40
0.6111111111111112
 40
0.6111111111111112
 40
0.6111111111111112
 40
0.6666666666666666
 40
0.6666666666666666
 40
0.6666666666666666
 40
0.6666666666666666
 40
0.7222222222222222
 40
0.7222222222222222
 40
0.7222222222222222
 40
0.7222222222222222
 40
0.7777777777777778
 40
0.7777777777777778
 40
0.7777777777777778
 40
0.7777777777777778
 40
0.8333333333333334
 40
0.8333333333333334
 40
0.8333333333333334
 40
0.8333333333333334
 40
0.8888888888888888
 40
0.8888888888888888
 40
0.8888888888888888
 40
0.8888888888888888
 40
1.0
 40
1.0
 40
1.0
 40
1.0
 10
124.8378
 20
-55.1459
 30
0.0
 10
124.8378
 20
-55.1459
 30
0.0
 10
124.7323
 20
-55.1489
 30
0.0
 10
124.7323
 20
-55.1489
 30
0.0
 10
124.7323
 20
-55.1489
 30
0.0
 10
124.6602
 20
-55.1496
 30
0.0
 10
124.5881
 20
-55.1499
 30
0.0
 10
124.5161
 20
-55.1494
 30
0.0
 10
124.5161
 20
-55.1494
 30
0.0
 10
124.5161
 20
-55.1494
 30
0.0
 10
124.4863
 20
-55.1481
 30
0.0
 10
124.4863
 20
-55.1481
 30
0.0
 10
124.4863
 20
-55.1481
 30
0.0
 10
119.8784
 20
-54.9603
 30
0.0
 10
115.3073
 20
-54.2445
 30
0.0
 10
110.8626
 20
-53.0147
 30
0.0
 10
110.8626
 20
-53.0147
 30
0.0
 10
114.0102
 20
-53.5935
 30
0.0
 10
117.2551
 20
-52.795
 30
0.0
 10
119.7747
 20
-50.8218
 30
0.0
 10
119.7747
 20
-50.8218
 30
0.0
 10
122.2944
 20
-48.8484
 30
0.0
 10
123.847
 20
-45.8896
 30
0.0
 10
124.0394
 20
-42.6948
 30
0.0
 10
124.0394
 20
-42.6948
 30
0.0
 10
124.3206
 20
-39.8052
 30
0.0
 10
123.9332
 20
-36.8895
 30
0.0
 10
122.9071
 20
-34.1734
 30
0.0
 10
122.9071
 20
-34.1734
 30
0.0
 10
122.3568
 20
-32.7643
 30
0.0
 10
122.3816
 20
-31.1956
 30
0.0
 10
122.9756
 20
-29.8043
 30
0.0
 10
122.9756
 20
-29.8043
 30
0.0
 10
123.4782
 20
-29.8739
 30
0.0
 10
123.9817
 20
-29.9348
 30
0.0
 10
124.4863
 20
-29.987
 30
0.0
 10
124.4863
 20
-29.987
 30
0.0
 10
124.536
 20
-29.9919
 30
0.0
 10
124.5857
 20
-29.9971
 30
0.0
 10
124.6354
 20
-30.002
 30
0.0
 10
124.6354
 20
-30.002
 30
0.0
 10
124.6849
 20
-29.9971
 30
0.0
 10
124.7347
 20
-29.9919
 30
0.0
 10
124.7842
 20
-29.987
 30
0.0
 10
124.7842
 20
-29.987
 30
0.0
 10
125.2889
 20
-29.9348
 30
0.0
 10
125.7924
 20
-29.8739
 30
0.0
 10
126.2948
 20
-29.8043
 30
0.0
 10
126.2948
 20
-29.8043
 30
0.0
 10
126.889
 20
-31.1956
 30
0.0
 10
126.9136
 20
-32.7643
 30
0.0
 10
126.3633
 20
-34.1734
 30
0.0
 10
126.3633
 20
-34.1734
 30
0.0
 10
125.3373
 20
-36.8895
 30
0.0
 10
124.95
 20
-39.8052
 30
0.0
 10
125.2313
 20
-42.6948
 30
0.0
 10
125.2313
 20
-42.6948
 30
0.0
 10
125.4235
 20
-45.8896
 30
0.0
 10
126.9762
 20
-48.8484
 30
0.0
 10
129.4959
 20
-50.8218
 30
0.0
 10
129.4959
 20
-50.8218
 30
0.0
 10
132.0155
 20
-52.795
 30
0.0
 10
135.2602
 20
-53.5935
 30
0.0
 10
138.4078
 20
-53.0147
 30
0.0
 10
138.4078
 20
-53.0147
 30
0.0
 10
133.9805
 20
-54.2398
 30
0.0
 10
129.4276
 20
-54.9547
 30
0.0
 10
124.8378
 20
-55.1459
 30
0.0
  0
SPLINE
  5
CE
330
1F
100
AcDbEntity
  8
layer 1
 62
     7
370
     9
100
AcDbSpline
210
0.0
220
0.0
230
1.0
 70
    11
 71
     3
 72
    24
 73
    20
 74
     0
 42
0.0000000001
 43
0.0000000001
 12
1.0
 22
0.0
 32
0.0
 13
1.0
 23
0.0
 33
0.0
 40
0.0
 40
0.0
 40
0.0
 40
0.0
 40
0.1666666666666667
 40
0.1666666666666667
 40
0.1666666666666667
 40
0.1666666666666667
 40
0.3333333333333333
 40
0.3333333333333333
 40
0.3333333333333333
 40
0.3333333333333333
 40
0.5
 40
0.5
 40
0.5
 40
0.5
 40
0.6666666666666666
 40
0.6666666666666666
 40
0.6666666666666666
 40
0.6666666666666666
 40
1.0
 40
1.0
 40
1.0
 40
1.0
 10
123.5627
 20
-24.4303
 30
0.0
 10
122.1512
 20
-21.2903
 30
0.0
 10
122.5142
 20
-17.637
 30
0.0
 10
124.5161
 20
-14.8362
 30
0.0
 10
124.5161
 20
-14.8362
 30
0.0
 10
124.5161
 20
-14.8362
 30
0.0
 10
124.6167
 20
-14.717
 30
0.0
 10
124.6167
 20
-14.717
 30
0.0
 10
124.6167
 20
-14.717
 30
0.0
 10
124.6167
 20
-14.717
 30
0.0
 10
124.7545
 20
-14.8362
 30
0.0
 10
124.7545
 20
-14.8362
 30
0.0
 10
124.7545
 20
-14.8362
 30
0.0
 10
126.7563
 20
-17.637
 30
0.0
 10
127.1194
 20
-21.2903
 30
0.0
 10
125.7079
 20
-24.4303
 30
0.0
 10
125.7079
 20
-24.4303
 30
0.0
 10
125.7079
 20
-24.4303
 30
0.0
 10
123.5627
 20
-24.4303
 30
0.0
 10
123.5627
 20
-24.4303
 30
0.0
  0
SPLINE
  5
CF
330
1F
100
AcDbEntity
  8
layer 1
 62
   250
370
     9
100
AcDbSpline
210
0.0
220
0.0
230
1.0
 70
    24
 71
     3
 72
     8
 73
     4
 74
     0
 42
0.0000000001
 43
0.0000000001
 12
1.0
 22
0.0
 32
0.0
 13
1.0
 23
0.0
 33
0.0
 40
0.0
 40
0.0
 40
0.0
 40
0.0
 40
1.0
 40
1.0
 40
1.0
 40
1.0
 10
124.4863
 20
-24.9927
 30
0.0
 10
124.4863
 20
-24.9927
 30
0.0
 10
124.5161
 20
-24.9965
 30
0.0
 10
124.5161
 20
-24.9965
 30
0.0
  0
SPLINE
  5
D0
330
1F
100
AcDbEntity
  8
layer 1
 62
   250
370
     9
100
AcDbSpline
210
0.0
220
0.0
230
1.0
 70
    24
 71
     3
 72
     8
 73
     4
 74
     0
 42
0.0000000001
 43
0.0000000001
 12
1.0
 22
0.0
 32
0.0
 13
1.0
 23
0.0
 33
0.0
 40
0.0
 40
0.0
 40
0.0
 40
0.0
 40
1.0
 40
1.0
 40
1.0
 40
1.0
 10
124.7842
 20
-24.9927
 30
0.0
 10
124.7842
 20
-24.9927
 30
0.0
 10
124.7545
 20
-24.9965
 30
0.0
 10
124.7545
 20
-24.9965
 30
0.0
  0
SPLINE
  5
D1
330
1F
100
AcDbEntity
  8
layer 1
 62
   250
370
     9
100
AcDbSpline
210
0.0
220
0.0
230
1.0
 70
    24
 71
     3
 72
     8
 73
     4
 74
     0
 42
0.0000000001
 43
0.0000000001
 12
1.0
 22
0.0
 32
0.0
 13
1.0
 23
0.0
 33
0.0
 40
0.0
 40
0.0
 40
0.0
 40
0.0
 40
1.0
 40
1.0
 40
1.0
 40
1.0
 10
124.4863
 20
58.4268
 30
0.0
 10
124.4863
 20
58.4268
 30
0.0
 10
124.5161
 20
58.4306
 30
0.0
 10
124.5161
 20
58.4306
 30
0.0
  0
SPLINE
  5
D2
330
1F
100
AcDbEntity
  8
layer 1
 62
     7
370
     9
100
AcDbSpline
210
0.0
220
0.0
230
1.0
 70
    11
 71
     3
 72
    24
 73
    20
 74
     0
 42
0.0000000001
 43
0.0000000001
 12
1.0
 22
0.0
 32
0.0
 13
1.0
 23
0.0
 33
0.0
 40
0.0
 40
0.0
 40
0.0
 40
0.0
 40
0.1666666666666667
 40
0.1666666666666667
 40
0.1666666666666667
 40
0.1666666666666667
 40
0.3333333333333333
 40
0.3333333333333333
 40
0.3333333333333333
 40
0.3333333333333333
 40
0.5
 40
0.5
 40
0.5
 40
0.5
 40
0.6666666666666666
 40
0.6666666666666666
 40
0.6666666666666666
 40
0.6666666666666666
 40
1.0
 40
1.0
 40
1.0
 40
1.0
 10
124.5161
 20
48.2703
 30
0.0
 10
122.5142
 20
51.0711
 30
0.0
 10
122.1512
 20
54.7246
 30
0.0
 10
123.5627
 20
57.8644
 30
0.0
 10
123.5627
 20
57.8644
 30
0.0
 10
123.5627
 20
57.8644
 30
0.0
 10
125.7079
 20
57.8644
 30
0.0
 10
125.7079
 20
57.8644
 30
0.0
 10
125.7079
 20
57.8644
 30
0.0
 10
127.1194
 20
54.7246
 30
0.0
 10
126.7563
 20
51.0711
 30
0.0
 10
124.7545
 20
48.2703
 30
0.0
 10
124.7545
 20
48.2703
 30
0.0
 10
124.7545
 20
48.2703
 30
0.0
 10
124.6167
 20
48.1587
 30
0.0
 10
124.6167
 20
48.1587
 30
0.0
 10
124.6167
 20
48.1587
 30
0.0
 10
124.6167
 20
48.1587
 30
0.0
 10
124.5161
 20
48.2703
 30
0.0
 10
124.5161
 20
48.2703
 30
0.0
  0
SPLINE
  5
D3
330
1F
100
AcDbEntity
  8
layer 1
 62
   250
370
     9
100
AcDbSpline
210
0.0
220
0.0
230
1.0
 70
    24
 71
     3
 72
     8
 73
     4
 74
     0
 42
0.0000000001
 43
0.0000000001
 12
1.0
 22
0.0
 32
0.0
 13
1.0
 23
0.0
 33
0.0
 40
0.0
 40
0.0
 40
0.0
 40
0.0
 40
1.0
 40
1.0
 40
1.0
 40
1.0
 10
124.7842
 20
58.4268
 30
0.0
 10
124.7842
 20
58.4268
 30
0.0
 10
124.7545
 20
58.4306
 30
0.0
 10
124.7545
 20
58.4306
 30
0.0
  0
ENDSEC
  0
SECTION
  2
OBJECTS
  0
DICTIONARY
  5
C
330
0
100
AcDbDictionary
281
     1
  3
ACAD_GROUP
350
D
  3
ACAD_LAYOUT
350
1A
  3
ACAD_MATERIAL
350
3B
  3
ACAD_MLEADERSTYLE
350
F5
  3
ACAD_MLINESTYLE
350
17
  3
ACAD_PLOTSETTINGS
350
19
  3
ACAD_PLOTSTYLENAME
350
E
  3
ACAD_TABLESTYLE
350
F4
  3
ACAD_VISUALSTYLE
350
2A
  0
DICTIONARY
  5
D
102
{ACAD_REACTORS
330
C
102
}
330
C
100
AcDbDictionary
281
     1
  0
DICTIONARY
  5
1A
102
{ACAD_REACTORS
330
C
102
}
330
C
100
AcDbDictionary
281
     1
  3
Layout1
350
1E
  3
Layout2
350
26
  3
Model
350
22
  0
DICTIONARY
  5
3B
102
{ACAD_REACTORS
330
C
102
}
330
C
100
AcDbDictionary
281
     1
  3
ByBlock
350
3D
  3
ByLayer
350
3C
  3
Global
350
3E
  0
DICTIONARY
  5
F5
102
{ACAD_REACTORS
330
C
102
}
330
C
100
AcDbDictionary
281
     1
  0
DICTIONARY
  5
17
102
{ACAD_REACTORS
330
C
102
}
330
C
100
AcDbDictionary
281
     1
  3
Standard
350
18
  0
DICTIONARY
  5
19
102
{ACAD_REACTORS
330
C
102
}
330
C
100
AcDbDictionary
281
     1
  0
ACDBDICTIONARYWDFLT
  5
E
102
{ACAD_REACTORS
330
C
102
}
330
C
100
AcDbDictionary
281
     1
  3
Normal
350
F
100
AcDbDictionaryWithDefault
340
F
  0
DICTIONARY
  5
F4
102
{ACAD_REACTORS
330
C
102
}
330
C
100
AcDbDictionary
281
     1
  0
DICTIONARY
  5
2A
102
{ACAD_REACTORS
330
C
102
}
330
C
100
AcDbDictionary
281
     1
  3
2dWireframe
350
2F
  3
3D Hidden
350
31
  3
3dWireframe
350
30
  3
Basic
350
32
  3
Brighten
350
36
  3
ColorChange
350
3A
  3
Conceptual
350
34
  3
Dim
350
35
  3
Facepattern
350
39
  3
Flat
350
2B
  3
FlatWithEdges
350
2C
  3
Gouraud
350
2D
  3
GouraudWithEdges
350
2E
  3
Linepattern
350
38
  3
Realistic
350
33
  3
Thicken
350
37
  0
LAYOUT
  5
1E
102
{ACAD_REACTORS
330
1A
102
}
330
1A
100
AcDbPlotSettings
  1

  2
none_device
  4

  6

 40
0.0
 41
0.0
 42
0.0
 43
0.0
 44
0.0
 45
0.0
 46
0.0
 47
0.0
 48
0.0
 49
0.0
140
0.0
141
0.0
142
1.0
143
1.0
 70
   688
 72
     0
 73
     0
 74
     5
  7

 75
    16
 76
     0
 77
     2
 78
   300
147
1.0
148
0.0
149
0.0
100
AcDbLayout
  1
Layout1
 70
     1
 71
     1
 10
0.0
 20
0.0
 11
12.0
 21
9.0
 12
0.0
 22
0.0
 32
0.0
 14
1.000000000000000E+20
 24
1.000000000000000E+20
 34
1.000000000000000E+20
 15
-1.000000000000000E+20
 25
-1.000000000000000E+20
 35
-1.000000000000000E+20
146
0.0
 13
0.0
 23
0.0
 33
0.0
 16
1.0
 26
0.0
 36
0.0
 17
0.0
 27
1.0
 37
0.0
 76
     0
330
1B
  0
LAYOUT
  5
26
102
{ACAD_REACTORS
330
1A
102
}
330
1A
100
AcDbPlotSettings
  1

  2
none_device
  4

  6

 40
0.0
 41
0.0
 42
0.0
 43
0.0
 44
0.0
 45
0.0
 46
0.0
 47
0.0
 48
0.0
 49
0.0
140
0.0
141
0.0
142
1.0
143
1.0
 70
   688
 72
     0
 73
     0
 74
     5
  7

 75
    16
 76
     0
 77
     2
 78
   300
147
1.0
148
0.0
149
0.0
100
AcDbLayout
  1
Layout2
 70
     1
 71
     2
 10
0.0
 20
0.0
 11
0.0
 21
0.0
 12
0.0
 22
0.0
 32
0.0
 14
0.0
 24
0.0
 34
0.0
 15
0.0
 25
0.0
 35
0.0
146
0.0
 13
0.0
 23
0.0
 33
0.0
 16
1.0
 26
0.0
 36
0.0
 17
0.0
 27
1.0
 37
0.0
 76
     0
330
23
  0
LAYOUT
  5
22
102
{ACAD_REACTORS
330
1A
102
}
330
1A
100
AcDbPlotSettings
  1

  2
none_device
  4

  6

 40
0.0
 41
0.0
 42
0.0
 43
0.0
 44
0.0
 45
0.0
 46
0.0
 47
0.0
 48
0.0
 49
0.0
140
0.0
141
0.0
142
1.0
143
1.0
 70
  1712
 72
     0
 73
     0
 74
     0
  7

 75
     0
 76
     0
 77
     2
 78
   300
147
1.0
148
0.0
149
0.0
100
AcDbLayout
  1
Model
 70
     1
 71
     0
 10
0.0
 20
0.0
 11
12.0
 21
9.0
 12
0.0
 22
0.0
 32
0.0
 14
52.731
 24
-98.8079
 34
0.0
 15
196.5397
 25
132.2419
 35
0.0
146
0.0
 13
0.0
 23
0.0
 33
0.0
 16
1.0
 26
0.0
 36
0.0
 17
0.0
 27
1.0
 37
0.0
 76
     0
330
1F
331
29
  0
MATERIAL
  5
3D
102
{ACAD_REACTORS
330
3B
102
}
330
3B
100
AcDbMaterial
  1
ByBlock
 72
     1
 94
      127
  0
MATERIAL
  5
3C
102
{ACAD_REACTORS
330
3B
102
}
330
3B
100
AcDbMaterial
  1
ByLayer
 72
     1
 94
      127
  0
MATERIAL
  5
3E
102
{ACAD_REACTORS
330
3B
102
}
330
3B
100
AcDbMaterial
  1
Global
 72
     1
 94
      127
  0
MLINESTYLE
  5
18
102
{ACAD_REACTORS
330
17
102
}
330
17
100
AcDbMlineStyle
  2
Standard
 70
     0
  3

 62
   256
 51
90.0
 52
90.0
 71
     2
 49
0.5
 62
   256
  6
BYLAYER
 49
-0.5
 62
   256
  6
BYLAYER
  0
ACDBPLACEHOLDER
  5
F
102
{ACAD_REACTORS
330
E
102
}
330
E
  0
VISUALSTYLE
  5
2F
102
{ACAD_REACTORS
330
2A
102
}
102
{ACAD_XDICTIONARY
360
DC
102
}
330
2A
100
AcDbVisualStyle
  2
2dWireframe
 70
     4
 71
     0
 72
     2
 73
     0
 90
        0
 40
-0.6
 41
-30.0
 62
     5
 63
     7
421
 16777215
 74
     1
 91
        4
 64
     7
 65
   257
 75
     1
175
     1
 42
1.0
 92
        0
 66
   257
 43
1.0
 76
     1
 77
     6
 78
     2
 67
     7
 79
     5
170
     0
171
     0
290
     0
174
     0
 93
        1
 44
0.0
173
     0
291
     0
 45
0.0
  0
VISUALSTYLE
  5
31
102
{ACAD_REACTORS
330
2A
102
}
102
{ACAD_XDICTIONARY
360
E0
102
}
330
2A
100
AcDbVisualStyle
  2
3D Hidden
 70
     6
 71
     1
 72
     2
 73
     2
 90
        0
 40
-0.6
 41
-30.0
 62
     5
 63
     7
421
 16777215
 74
     2
 91
        2
 64
     7
 65
   257
 75
     2
175
     1
 42
40.0
 92
        0
 66
   257
 43
1.0
 76
     1
 77
     6
 78
     2
 67
     7
 79
     3
170
     0
171
     0
290
     0
174
     0
 93
        1
 44
0.0
173
     0
291
     0
 45
0.0
  0
VISUALSTYLE
  5
30
102
{ACAD_REACTORS
330
2A
102
}
102
{ACAD_XDICTIONARY
360
DE
102
}
330
2A
100
AcDbVisualStyle
  2
3dWireframe
 70
     5
 71
     0
 72
     2
 73
     0
 90
        0
 40
-0.6
 41
-30.0
 62
     5
 63
     7
421
 16777215
 74
     1
 91
        4
 64
     7
 65
   257
 75
     1
175
     1
 42
1.0
 92
        0
 66
   257
 43
1.0
 76
     1
 77
     6
 78
     2
 67
     7
 79
     5
170
     0
171
     0
290
     0
174
     0
 93
        1
 44
0.0
173
     0
291
     0
 45
0.0
  0
VISUALSTYLE
  5
32
102
{ACAD_REACTORS
330
2A
102
}
102
{ACAD_XDICTIONARY
360
E2
102
}
330
2A
100
AcDbVisualStyle
  2
Basic
 70
     7
 71
     1
 72
     0
 73
     1
 90
        0
 40
-0.6
 41
-30.0
 62
     5
 63
     7
421
 16777215
 74
     0
 91
        4
 64
     7
 65
   257
 75
     1
175
     1
 42
1.0
 92
        8
 66
     7
 43
1.0
 76
     1
 77
     6
 78
     2
 67
     7
 79
     5
170
     0
171
     0
290
     0
174
     0
 93
        1
 44
0.0
173
     0
291
     1
 45
0.0
  0
VISUALSTYLE
  5
36
102
{ACAD_REACTORS
330
2A
102
}
102
{ACAD_XDICTIONARY
360
EA
102
}
330
2A
100
AcDbVisualStyle
  2
Brighten
 70
    12
 71
     2
 72
     2
 73
     0
 90
        0
 40
-0.6
 41
-30.0
 62
     5
 63
     7
421
 16777215
 74
     1
 91
        4
 64
     7
 65
   257
 75
     1
175
     1
 42
1.0
 92
        8
 66
     7
 43
1.0
 76
     1
 77
     6
 78
     2
 67
     7
 79
     5
170
     0
171
     0
290
     0
174
     0
 93
        1
 44
50.0
173
     0
291
     1
 45
0.0
  0
VISUALSTYLE
  5
3A
102
{ACAD_REACTORS
330
2A
102
}
102
{ACAD_XDICTIONARY
360
F2
102
}
330
2A
100
AcDbVisualStyle
  2
ColorChange
 70
    16
 71
     2
 72
     2
 73
     3
 90
        0
 40
-0.6
 41
-30.0
 62
     5
 63
     8
421
  8421504
 74
     1
 91
        4
 64
     7
 65
   257
 75
     1
175
     1
 42
1.0
 92
        8
 66
     8
424
  8421504
 43
1.0
 76
     1
 77
     6
 78
     2
 67
     7
 79
     5
170
     0
171
     0
290
     0
174
     0
 93
        1
 44
0.0
173
     0
291
     1
 45
0.0
  0
VISUALSTYLE
  5
34
102
{ACAD_REACTORS
330
2A
102
}
102
{ACAD_XDICTIONARY
360
E6
102
}
330
2A
100
AcDbVisualStyle
  2
Conceptual
 70
     9
 71
     3
 72
     2
 73
     0
 90
        0
 40
-0.6
 41
-30.0
 62
     5
 63
     7
421
 16777215
 74
     2
 91
        2
 64
     7
 65
   257
 75
     1
175
     1
 42
40.0
 92
        8
 66
     7
 43
1.0
 76
     1
 77
     6
 78
     2
 67
     7
 79
     3
170
     0
171
     0
290
     0
174
     0
 93
        1
 44
0.0
173
     0
291
     0
 45
0.0
  0
VISUALSTYLE
  5
35
102
{ACAD_REACTORS
330
2A
102
}
102
{ACAD_XDICTIONARY
360
E8
102
}
330
2A
100
AcDbVisualStyle
  2
Dim
 70
    11
 71
     2
 72
     2
 73
     0
 90
        0
 40
-0.6
 41
-30.0
 62
     5
 63
     7
421
 16777215
 74
     1
 91
        4
 64
     7
 65
   257
 75
     1
175
     1
 42
1.0
 92
        8
 66
     7
 43
1.0
 76
     1
 77
     6
 78
     2
 67
     7
 79
     5
170
     0
171
     0
290
     0
174
     0
 93
        1
 44
-50.0
173
     0
291
     1
 45
0.0
  0
VISUALSTYLE
  5
39
102
{ACAD_REACTORS
330
2A
102
}
102
{ACAD_XDICTIONARY
360
F0
102
}
330
2A
100
AcDbVisualStyle
  2
Facepattern
 70
    15
 71
     2
 72
     2
 73
     0
 90
        0
 40
-0.6
 41
-30.0
 62
     5
 63
     7
421
 16777215
 74
     1
 91
        4
 64
     7
 65
   257
 75
     1
175
     1
 42
1.0
 92
        8
 66
     7
 43
1.0
 76
     1
 77
     6
 78
     2
 67
     7
 79
     5
170
     0
171
     0
290
     0
174
     0
 93
        1
 44
0.0
173
     0
291
     1
 45
0.0
  0
VISUALSTYLE
  5
2B
102
{ACAD_REACTORS
330
2A
102
}
102
{ACAD_XDICTIONARY
360
D4
102
}
330
2A
100
AcDbVisualStyle
  2
Flat
 70
     0
 71
     2
 72
     1
 73
     1
 90
        2
 40
-0.6
 41
30.0
 62
     5
 63
     7
421
 16777215
 74
     0
 91
        4
 64
     7
 65
   257
 75
     1
175
     1
 42
1.0
 92
        8
 66
     7
 43
1.0
 76
     1
 77
     6
 78
     2
 67
     7
 79
     5
170
     0
171
     0
290
     0
174
     0
 93
       13
 44
0.0
173
     0
291
     1
 45
0.0
  0
VISUALSTYLE
  5
2C
102
{ACAD_REACTORS
330
2A
102
}
102
{ACAD_XDICTIONARY
360
D6
102
}
330
2A
100
AcDbVisualStyle
  2
FlatWithEdges
 70
     1
 71
     2
 72
     1
 73
     1
 90
        2
 40
-0.6
 41
30.0
 62
     5
 63
     7
421
 16777215
 74
     1
 91
        4
 64
     7
 65
   257
 75
     1
175
     1
 42
1.0
 92
        0
 66
   257
 43
1.0
 76
     1
 77
     6
 78
     2
 67
     7
 79
     5
170
     0
171
     0
290
     0
174
     0
 93
       13
 44
0.0
173
     0
291
     1
 45
0.0
  0
VISUALSTYLE
  5
2D
102
{ACAD_REACTORS
330
2A
102
}
102
{ACAD_XDICTIONARY
360
D8
102
}
330
2A
100
AcDbVisualStyle
  2
Gouraud
 70
     2
 71
     2
 72
     2
 73
     1
 90
        2
 40
-0.6
 41
30.0
 62
     5
 63
     7
421
 16777215
 74
     0
 91
        4
 64
     7
 65
   257
 75
     1
175
     1
 42
1.0
 92
        0
 66
     7
 43
1.0
 76
     1
 77
     6
 78
     2
 67
     7
 79
     5
170
     0
171
     0
290
     0
174
     0
 93
       13
 44
0.0
173
     0
291
     1
 45
0.0
  0
VISUALSTYLE
  5
2E
102
{ACAD_REACTORS
330
2A
102
}
102
{ACAD_XDICTIONARY
360
DA
102
}
330
2A
100
AcDbVisualStyle
  2
GouraudWithEdges
 70
     3
 71
     2
 72
     2
 73
     1
 90
        2
 40
-0.6
 41
30.0
 62
     5
 63
     7
421
 16777215
 74
     1
 91
        4
 64
     7
 65
   257
 75
     1
175
     1
 42
1.0
 92
        0
 66
   257
 43
1.0
 76
     1
 77
     6
 78
     2
 67
     7
 79
     5
170
     0
171
     0
290
     0
174
     0
 93
       13
 44
0.0
173
     0
291
     1
 45
0.0
  0
VISUALSTYLE
  5
38
102
{ACAD_REACTORS
330
2A
102
}
102
{ACAD_XDICTIONARY
360
EE
102
}
330
2A
100
AcDbVisualStyle
  2
Linepattern
 70
    14
 71
     2
 72
     2
 73
     0
 90
        0
 40
-0.6
 41
-30.0
 62
     5
 63
     7
421
 16777215
 74
     1
 91
        4
 64
     7
 65
   257
 75
     7
175
     7
 42
1.0
 92
        8
 66
     7
 43
1.0
 76
     1
 77
     6
 78
     2
 67
     7
 79
     5
170
     0
171
     0
290
     0
174
     0
 93
        1
 44
0.0
173
     0
291
     1
 45
0.0
  0
VISUALSTYLE
  5
33
102
{ACAD_REACTORS
330
2A
102
}
102
{ACAD_XDICTIONARY
360
E4
102
}
330
2A
100
AcDbVisualStyle
  2
Realistic
 70
     8
 71
     2
 72
     2
 73
     0
 90
        0
 40
-0.6
 41
-30.0
 62
     5
 63
     7
421
 16777215
 74
     1
 91
        0
 64
     7
 65
   257
 75
     1
175
     1
 42
1.0
 92
        8
 66
     8
424
  7895160
 43
1.0
 76
     1
 77
     6
 78
     2
 67
     7
 79
     5
170
     0
171
     0
290
     0
174
     0
 93
       13
 44
0.0
173
     0
291
     0
 45
0.0
  0
VISUALSTYLE
  5
37
102
{ACAD_REACTORS
330
2A
102
}
102
{ACAD_XDICTIONARY
360
EC
102
}
330
2A
100
AcDbVisualStyle
  2
Thicken
 70
    13
 71
     2
 72
     2
 73
     0
 90
        0
 40
-0.6
 41
-30.0
 62
     5
 63
     7
421
 16777215
 74
     1
 91
        4
 64
     7
 65
   257
 75
     1
175
     1
 42
1.0
 92
       12
 66
     7
 43
1.0
 76
     1
 77
     6
 78
     2
 67
     7
 79
     5
170
     0
171
     0
290
     0
174
     0
 93
        1
 44
0.0
173
     0
291
     1
 45
0.0
  0
DICTIONARY
  5
DC
330
2F
100
AcDbDictionary
280
     1
281
     1
  3
ACAD_XREC_ROUNDTRIP
360
DD
  0
DICTIONARY
  5
E0
330
31
100
AcDbDictionary
280
     1
281
     1
  3
ACAD_XREC_ROUNDTRIP
360
E1
  0
DICTIONARY
  5
DE
330
30
100
AcDbDictionary
280
     1
281
     1
  3
ACAD_XREC_ROUNDTRIP
360
DF
  0
DICTIONARY
  5
E2
330
32
100
AcDbDictionary
280
     1
281
     1
  3
ACAD_XREC_ROUNDTRIP
360
E3
  0
DICTIONARY
  5
EA
330
36
100
AcDbDictionary
280
     1
281
     1
  3
ACAD_XREC_ROUNDTRIP
360
EB
  0
DICTIONARY
  5
F2
330
3A
100
AcDbDictionary
280
     1
281
     1
  3
ACAD_XREC_ROUNDTRIP
360
F3
  0
DICTIONARY
  5
E6
330
34
100
AcDbDictionary
280
     1
281
     1
  3
ACAD_XREC_ROUNDTRIP
360
E7
  0
DICTIONARY
  5
E8
330
35
100
AcDbDictionary
280
     1
281
     1
  3
ACAD_XREC_ROUNDTRIP
360
E9
  0
DICTIONARY
  5
F0
330
39
100
AcDbDictionary
280
     1
281
     1
  3
ACAD_XREC_ROUNDTRIP
360
F1
  0
DICTIONARY
  5
D4
330
2B
100
AcDbDictionary
280
     1
281
     1
  3
ACAD_XREC_ROUNDTRIP
360
D5
  0
DICTIONARY
  5
D6
330
2C
100
AcDbDictionary
280
     1
281
     1
  3
ACAD_XREC_ROUNDTRIP
360
D7
  0
DICTIONARY
  5
D8
330
2D
100
AcDbDictionary
280
     1
281
     1
  3
ACAD_XREC_ROUNDTRIP
360
D9
  0
DICTIONARY
  5
DA
330
2E
100
AcDbDictionary
280
     1
281
     1
  3
ACAD_XREC_ROUNDTRIP
360
DB
  0
DICTIONARY
  5
EE
330
38
100
AcDbDictionary
280
     1
281
     1
  3
ACAD_XREC_ROUNDTRIP
360
EF
  0
DICTIONARY
  5
E4
330
33
100
AcDbDictionary
280
     1
281
     1
  3
ACAD_XREC_ROUNDTRIP
360
E5
  0
DICTIONARY
  5
EC
330
37
100
AcDbDictionary
280
     1
281
     1
  3
ACAD_XREC_ROUNDTRIP
360
ED
  0
XRECORD
  5
DD
102
{ACAD_REACTORS
330
DC
102
}
330
DC
100
AcDbXrecord
280
     1
102
RTVSPropertyOp0
 70
     1
102
RTVSPropertyOp1
 70
     1
102
RTVSPropertyOp2
 70
     1
102
RTVSPropertyOp3
 70
     1
102
RTVSPropertyOp4
 70
     1
102
RTVSPropertyOp5
 70
     1
102
RTVSPropertyOp6
 70
     1
102
RTVSPropertyOp7
 70
     1
102
RTVSPropertyOp8
 70
     1
102
RTVSPropertyOp9
 70
     1
102
RTVSPropertyOp10
 70
     1
102
RTVSPropertyOp11
 70
     1
102
RTVSPropertyOp12
 70
     1
102
RTVSPropertyOp13
 70
     1
102
RTVSPropertyOp14
 70
     1
102
RTVSPropertyOp15
 70
     1
102
RTVSPropertyOp16
 70
     1
102
RTVSPropertyOp17
 70
     1
102
RTVSPropertyOp18
 70
     1
102
RTVSPropertyOp19
 70
     1
102
RTVSPropertyOp20
 70
     1
102
RTVSPropertyOp21
 70
     1
102
RTVSPropertyOp22
 70
     1
102
RTVSPropertyOp23
 70
     1
102
RTVSPropertyOp24
 70
     1
102
RTVSPropertyOp25
 70
     1
102
RTVSPropertyOp26
 70
     1
102
RTVSPropertyOp27
 70
     1
102
RTVSPropertyOp28
 70
     1
102
RTVSPropertyOp29
 70
     1
102
RTVSPropertyOp30
 70
     1
102
RTVSPropertyOp31
 70
     1
102
RTVSPropertyOp32
 70
     1
  0
XRECORD
  5
E1
102
{ACAD_REACTORS
330
E0
102
}
330
E0
100
AcDbXrecord
280
     1
102
RTVSPropertyOp0
 70
     1
102
RTVSPropertyOp1
 70
     1
102
RTVSPropertyOp2
 70
     1
102
RTVSPropertyOp3
 70
     1
102
RTVSPropertyOp4
 70
     1
102
RTVSPropertyOp5
 70
     1
102
RTVSPropertyOp6
 70
     1
102
RTVSPropertyOp7
 70
     1
102
RTVSPropertyOp8
 70
     1
102
RTVSPropertyOp9
 70
     1
102
RTVSPropertyOp10
 70
     1
102
RTVSPropertyOp11
 70
     1
102
RTVSPropertyOp12
 70
     1
102
RTVSPropertyOp13
 70
     1
102
RTVSPropertyOp14
 70
     1
102
RTVSPropertyOp15
 70
     1
102
RTVSPropertyOp16
 70
     1
102
RTVSPropertyOp17
 70
     1
102
RTVSPropertyOp18
 70
     1
102
RTVSPropertyOp19
 70
     1
102
RTVSPropertyOp20
 70
     1
102
RTVSPropertyOp21
 70
     1
102
RTVSPropertyOp22
 70
     1
102
RTVSPropertyOp23
 70
     1
102
RTVSPropertyOp24
 70
     1
102
RTVSPropertyOp25
 70
     1
102
RTVSPropertyOp26
 70
     1
102
RTVSPropertyOp27
 70
     1
102
RTVSPropertyOp28
 70
     1
102
RTVSPropertyOp29
 70
     1
102
RTVSPropertyOp30
 70
     1
102
RTVSPropertyOp31
 70
     1
102
RTVSPropertyOp32
 70
     1
  0
XRECORD
  5
DF
102
{ACAD_REACTORS
330
DE
102
}
330
DE
100
AcDbXrecord
280
     1
102
RTVSPropertyOp0
 70
     1
102
RTVSPropertyOp1
 70
     1
102
RTVSPropertyOp2
 70
     1
102
RTVSPropertyOp3
 70
     1
102
RTVSPropertyOp4
 70
     1
102
RTVSPropertyOp5
 70
     1
102
RTVSPropertyOp6
 70
     1
102
RTVSPropertyOp7
 70
     1
102
RTVSPropertyOp8
 70
     1
102
RTVSPropertyOp9
 70
     1
102
RTVSPropertyOp10
 70
     1
102
RTVSPropertyOp11
 70
     1
102
RTVSPropertyOp12
 70
     1
102
RTVSPropertyOp13
 70
     1
102
RTVSPropertyOp14
 70
     1
102
RTVSPropertyOp15
 70
     1
102
RTVSPropertyOp16
 70
     1
102
RTVSPropertyOp17
 70
     1
102
RTVSPropertyOp18
 70
     1
102
RTVSPropertyOp19
 70
     1
102
RTVSPropertyOp20
 70
     1
102
RTVSPropertyOp21
 70
     1
102
RTVSPropertyOp22
 70
     1
102
RTVSPropertyOp23
 70
     1
102
RTVSPropertyOp24
 70
     1
102
RTVSPropertyOp25
 70
     1
102
RTVSPropertyOp26
 70
     1
102
RTVSPropertyOp27
 70
     1
102
RTVSPropertyOp28
 70
     1
102
RTVSPropertyOp29
 70
     1
102
RTVSPropertyOp30
 70
     1
102
RTVSPropertyOp31
 70
     1
102
RTVSPropertyOp32
 70
     1
  0
XRECORD
  5
E3
102
{ACAD_REACTORS
330
E2
102
}
330
E2
100
AcDbXrecord
280
     1
102
RTVSPropertyOp0
 70
     1
102
RTVSPropertyOp1
 70
     1
102
RTVSPropertyOp2
 70
     1
102
RTVSPropertyOp3
 70
     1
102
RTVSPropertyOp4
 70
     1
102
RTVSPropertyOp5
 70
     1
102
RTVSPropertyOp6
 70
     1
102
RTVSPropertyOp7
 70
     1
102
RTVSPropertyOp8
 70
     1
102
RTVSPropertyOp9
 70
     1
102
RTVSPropertyOp10
 70
     1
102
RTVSPropertyOp11
 70
     1
102
RTVSPropertyOp12
 70
     1
102
RTVSPropertyOp13
 70
     1
102
RTVSPropertyOp14
 70
     1
102
RTVSPropertyOp15
 70
     1
102
RTVSPropertyOp16
 70
     1
102
RTVSPropertyOp17
 70
     1
102
RTVSPropertyOp18
 70
     1
102
RTVSPropertyOp19
 70
     1
102
RTVSPropertyOp20
 70
     1
102
RTVSPropertyOp21
 70
     1
102
RTVSPropertyOp22
 70
     1
102
RTVSPropertyOp23
 70
     1
102
RTVSPropertyOp24
 70
     1
102
RTVSPropertyOp25
 70
     1
102
RTVSPropertyOp26
 70
     1
102
RTVSPropertyOp27
 70
     1
102
RTVSPropertyOp28
 70
     1
102
RTVSPropertyOp29
 70
     1
102
RTVSPropertyOp30
 70
     1
102
RTVSPropertyOp31
 70
     1
102
RTVSPropertyOp32
 70
     1
  0
XRECORD
  5
EB
102
{ACAD_REACTORS
330
EA
102
}
330
EA
100
AcDbXrecord
280
     1
102
RTVSPropertyOp0
 70
     1
102
RTVSPropertyOp1
 70
     1
102
RTVSPropertyOp2
 70
     1
102
RTVSPropertyOp3
 70
     1
102
RTVSPropertyOp4
 70
     1
102
RTVSPropertyOp5
 70
     1
102
RTVSPropertyOp6
 70
     1
102
RTVSPropertyOp7
 70
     1
102
RTVSPropertyOp8
 70
     1
102
RTVSPropertyOp9
 70
     1
102
RTVSPropertyOp10
 70
     1
102
RTVSPropertyOp11
 70
     1
102
RTVSPropertyOp12
 70
     1
102
RTVSPropertyOp13
 70
     1
102
RTVSPropertyOp14
 70
     1
102
RTVSPropertyOp15
 70
     1
102
RTVSPropertyOp16
 70
     1
102
RTVSPropertyOp17
 70
     1
102
RTVSPropertyOp18
 70
     1
102
RTVSPropertyOp19
 70
     1
102
RTVSPropertyOp20
 70
     1
102
RTVSPropertyOp21
 70
     1
102
RTVSPropertyOp22
 70
     1
102
RTVSPropertyOp23
 70
     1
102
RTVSPropertyOp24
 70
     1
102
RTVSPropertyOp25
 70
     1
102
RTVSPropertyOp26
 70
     1
102
RTVSPropertyOp27
 70
     1
102
RTVSPropertyOp28
 70
     1
102
RTVSPropertyOp29
 70
     1
102
RTVSPropertyOp30
 70
     1
102
RTVSPropertyOp31
 70
     1
102
RTVSPropertyOp32
 70
     1
  0
XRECORD
  5
F3
102
{ACAD_REACTORS
330
F2
102
}
330
F2
100
AcDbXrecord
280
     1
102
RTVSPropertyOp0
 70
     1
102
RTVSPropertyOp1
 70
     1
102
RTVSPropertyOp2
 70
     1
102
RTVSPropertyOp3
 70
     1
102
RTVSPropertyOp4
 70
     1
102
RTVSPropertyOp5
 70
     1
102
RTVSPropertyOp6
 70
     1
102
RTVSPropertyOp7
 70
     1
102
RTVSPropertyOp8
 70
     1
102
RTVSPropertyOp9
 70
     1
102
RTVSPropertyOp10
 70
     1
102
RTVSPropertyOp11
 70
     1
102
RTVSPropertyOp12
 70
     1
102
RTVSPropertyOp13
 70
     1
102
RTVSPropertyOp14
 70
     1
102
RTVSPropertyOp15
 70
     1
102
RTVSPropertyOp16
 70
     1
102
RTVSPropertyOp17
 70
     1
102
RTVSPropertyOp18
 70
     1
102
RTVSPropertyOp19
 70
     1
102
RTVSPropertyOp20
 70
     1
102
RTVSPropertyOp21
 70
     1
102
RTVSPropertyOp22
 70
     1
102
RTVSPropertyOp23
 70
     1
102
RTVSPropertyOp24
 70
     1
102
RTVSPropertyOp25
 70
     1
102
RTVSPropertyOp26
 70
     1
102
RTVSPropertyOp27
 70
     1
102
RTVSPropertyOp28
 70
     1
102
RTVSPropertyOp29
 70
     1
102
RTVSPropertyOp30
 70
     1
102
RTVSPropertyOp31
 70
     1
102
RTVSPropertyOp32
 70
     1
  0
XRECORD
  5
E7
102
{ACAD_REACTORS
330
E6
102
}
330
E6
100
AcDbXrecord
280
     1
102
RTVSPropertyOp0
 70
     1
102
RTVSPropertyOp1
 70
     1
102
RTVSPropertyOp2
 70
     1
102
RTVSPropertyOp3
 70
     1
102
RTVSPropertyOp4
 70
     1
102
RTVSPropertyOp5
 70
     1
102
RTVSPropertyOp6
 70
     1
102
RTVSPropertyOp7
 70
     1
102
RTVSPropertyOp8
 70
     1
102
RTVSPropertyOp9
 70
     1
102
RTVSPropertyOp10
 70
     1
102
RTVSPropertyOp11
 70
     1
102
RTVSPropertyOp12
 70
     1
102
RTVSPropertyOp13
 70
     1
102
RTVSPropertyOp14
 70
     1
102
RTVSPropertyOp15
 70
     1
102
RTVSPropertyOp16
 70
     1
102
RTVSPropertyOp17
 70
     1
102
RTVSPropertyOp18
 70
     1
102
RTVSPropertyOp19
 70
     1
102
RTVSPropertyOp20
 70
     1
102
RTVSPropertyOp21
 70
     1
102
RTVSPropertyOp22
 70
     1
102
RTVSPropertyOp23
 70
     1
102
RTVSPropertyOp24
 70
     1
102
RTVSPropertyOp25
 70
     1
102
RTVSPropertyOp26
 70
     1
102
RTVSPropertyOp27
 70
     1
102
RTVSPropertyOp28
 70
     1
102
RTVSPropertyOp29
 70
     1
102
RTVSPropertyOp30
 70
     1
102
RTVSPropertyOp31
 70
     1
102
RTVSPropertyOp32
 70
     1
  0
XRECORD
  5
E9
102
{ACAD_REACTORS
330
E8
102
}
330
E8
100
AcDbXrecord
280
     1
102
RTVSPropertyOp0
 70
     1
102
RTVSPropertyOp1
 70
     1
102
RTVSPropertyOp2
 70
     1
102
RTVSPropertyOp3
 70
     1
102
RTVSPropertyOp4
 70
     1
102
RTVSPropertyOp5
 70
     1
102
RTVSPropertyOp6
 70
     1
102
RTVSPropertyOp7
 70
     1
102
RTVSPropertyOp8
 70
     1
102
RTVSPropertyOp9
 70
     1
102
RTVSPropertyOp10
 70
     1
102
RTVSPropertyOp11
 70
     1
102
RTVSPropertyOp12
 70
     1
102
RTVSPropertyOp13
 70
     1
102
RTVSPropertyOp14
 70
     1
102
RTVSPropertyOp15
 70
     1
102
RTVSPropertyOp16
 70
     1
102
RTVSPropertyOp17
 70
     1
102
RTVSPropertyOp18
 70
     1
102
RTVSPropertyOp19
 70
     1
102
RTVSPropertyOp20
 70
     1
102
RTVSPropertyOp21
 70
     1
102
RTVSPropertyOp22
 70
     1
102
RTVSPropertyOp23
 70
     1
102
RTVSPropertyOp24
 70
     1
102
RTVSPropertyOp25
 70
     1
102
RTVSPropertyOp26
 70
     1
102
RTVSPropertyOp27
 70
     1
102
RTVSPropertyOp28
 70
     1
102
RTVSPropertyOp29
 70
     1
102
RTVSPropertyOp30
 70
     1
102
RTVSPropertyOp31
 70
     1
102
RTVSPropertyOp32
 70
     1
  0
XRECORD
  5
F1
102
{ACAD_REACTORS
330
F0
102
}
330
F0
100
AcDbXrecord
280
     1
102
RTVSPropertyOp0
 70
     1
102
RTVSPropertyOp1
 70
     1
102
RTVSPropertyOp2
 70
     1
102
RTVSPropertyOp3
 70
     1
102
RTVSPropertyOp4
 70
     1
102
RTVSPropertyOp5
 70
     1
102
RTVSPropertyOp6
 70
     1
102
RTVSPropertyOp7
 70
     1
102
RTVSPropertyOp8
 70
     1
102
RTVSPropertyOp9
 70
     1
102
RTVSPropertyOp10
 70
     1
102
RTVSPropertyOp11
 70
     1
102
RTVSPropertyOp12
 70
     1
102
RTVSPropertyOp13
 70
     1
102
RTVSPropertyOp14
 70
     1
102
RTVSPropertyOp15
 70
     1
102
RTVSPropertyOp16
 70
     1
102
RTVSPropertyOp17
 70
     1
102
RTVSPropertyOp18
 70
     1
102
RTVSPropertyOp19
 70
     1
102
RTVSPropertyOp20
 70
     1
102
RTVSPropertyOp21
 70
     1
102
RTVSPropertyOp22
 70
     1
102
RTVSPropertyOp23
 70
     1
102
RTVSPropertyOp24
 70
     1
102
RTVSPropertyOp25
 70
     1
102
RTVSPropertyOp26
 70
     1
102
RTVSPropertyOp27
 70
     1
102
RTVSPropertyOp28
 70
     1
102
RTVSPropertyOp29
 70
     1
102
RTVSPropertyOp30
 70
     1
102
RTVSPropertyOp31
 70
     1
102
RTVSPropertyOp32
 70
     1
  0
XRECORD
  5
D5
102
{ACAD_REACTORS
330
D4
102
}
330
D4
100
AcDbXrecord
280
     1
102
RTVSPropertyOp0
 70
     1
102
RTVSPropertyOp1
 70
     1
102
RTVSPropertyOp2
 70
     1
102
RTVSPropertyOp3
 70
     1
102
RTVSPropertyOp4
 70
     1
102
RTVSPropertyOp5
 70
     1
102
RTVSPropertyOp6
 70
     1
102
RTVSPropertyOp7
 70
     1
102
RTVSPropertyOp8
 70
     1
102
RTVSPropertyOp9
 70
     1
102
RTVSPropertyOp10
 70
     1
102
RTVSPropertyOp11
 70
     1
102
RTVSPropertyOp12
 70
     1
102
RTVSPropertyOp13
 70
     1
102
RTVSPropertyOp14
 70
     1
102
RTVSPropertyOp15
 70
     1
102
RTVSPropertyOp16
 70
     1
102
RTVSPropertyOp17
 70
     1
102
RTVSPropertyOp18
 70
     1
102
RTVSPropertyOp19
 70
     1
102
RTVSPropertyOp20
 70
     1
102
RTVSPropertyOp21
 70
     1
102
RTVSPropertyOp22
 70
     1
102
RTVSPropertyOp23
 70
     1
102
RTVSPropertyOp24
 70
     1
102
RTVSPropertyOp25
 70
     1
102
RTVSPropertyOp26
 70
     1
102
RTVSPropertyOp27
 70
     1
102
RTVSPropertyOp28
 70
     1
102
RTVSPropertyOp29
 70
     1
102
RTVSPropertyOp30
 70
     1
102
RTVSPropertyOp31
 70
     1
102
RTVSPropertyOp32
 70
     1
  0
XRECORD
  5
D7
102
{ACAD_REACTORS
330
D6
102
}
330
D6
100
AcDbXrecord
280
     1
102
RTVSPropertyOp0
 70
     1
102
RTVSPropertyOp1
 70
     1
102
RTVSPropertyOp2
 70
     1
102
RTVSPropertyOp3
 70
     1
102
RTVSPropertyOp4
 70
     1
102
RTVSPropertyOp5
 70
     1
102
RTVSPropertyOp6
 70
     1
102
RTVSPropertyOp7
 70
     1
102
RTVSPropertyOp8
 70
     1
102
RTVSPropertyOp9
 70
     1
102
RTVSPropertyOp10
 70
     1
102
RTVSPropertyOp11
 70
     1
102
RTVSPropertyOp12
 70
     1
102
RTVSPropertyOp13
 70
     1
102
RTVSPropertyOp14
 70
     1
102
RTVSPropertyOp15
 70
     1
102
RTVSPropertyOp16
 70
     1
102
RTVSPropertyOp17
 70
     1
102
RTVSPropertyOp18
 70
     1
102
RTVSPropertyOp19
 70
     1
102
RTVSPropertyOp20
 70
     1
102
RTVSPropertyOp21
 70
     1
102
RTVSPropertyOp22
 70
     1
102
RTVSPropertyOp23
 70
     1
102
RTVSPropertyOp24
 70
     1
102
RTVSPropertyOp25
 70
     1
102
RTVSPropertyOp26
 70
     1
102
RTVSPropertyOp27
 70
     1
102
RTVSPropertyOp28
 70
     1
102
RTVSPropertyOp29
 70
     1
102
RTVSPropertyOp30
 70
     1
102
RTVSPropertyOp31
 70
     1
102
RTVSPropertyOp32
 70
     1
  0
XRECORD
  5
D9
102
{ACAD_REACTORS
330
D8
102
}
330
D8
100
AcDbXrecord
280
     1
102
RTVSPropertyOp0
 70
     1
102
RTVSPropertyOp1
 70
     1
102
RTVSPropertyOp2
 70
     1
102
RTVSPropertyOp3
 70
     1
102
RTVSPropertyOp4
 70
     1
102
RTVSPropertyOp5
 70
     1
102
RTVSPropertyOp6
 70
     1
102
RTVSPropertyOp7
 70
     1
102
RTVSPropertyOp8
 70
     1
102
RTVSPropertyOp9
 70
     1
102
RTVSPropertyOp10
 70
     1
102
RTVSPropertyOp11
 70
     1
102
RTVSPropertyOp12
 70
     1
102
RTVSPropertyOp13
 70
     1
102
RTVSPropertyOp14
 70
     1
102
RTVSPropertyOp15
 70
     1
102
RTVSPropertyOp16
 70
     1
102
RTVSPropertyOp17
 70
     1
102
RTVSPropertyOp18
 70
     1
102
RTVSPropertyOp19
 70
     1
102
RTVSPropertyOp20
 70
     1
102
RTVSPropertyOp21
 70
     1
102
RTVSPropertyOp22
 70
     1
102
RTVSPropertyOp23
 70
     1
102
RTVSPropertyOp24
 70
     1
102
RTVSPropertyOp25
 70
     1
102
RTVSPropertyOp26
 70
     1
102
RTVSPropertyOp27
 70
     1
102
RTVSPropertyOp28
 70
     1
102
RTVSPropertyOp29
 70
     1
102
RTVSPropertyOp30
 70
     1
102
RTVSPropertyOp31
 70
     1
102
RTVSPropertyOp32
 70
     1
  0
XRECORD
  5
DB
102
{ACAD_REACTORS
330
DA
102
}
330
DA
100
AcDbXrecord
280
     1
102
RTVSPropertyOp0
 70
     1
102
RTVSPropertyOp1
 70
     1
102
RTVSPropertyOp2
 70
     1
102
RTVSPropertyOp3
 70
     1
102
RTVSPropertyOp4
 70
     1
102
RTVSPropertyOp5
 70
     1
102
RTVSPropertyOp6
 70
     1
102
RTVSPropertyOp7
 70
     1
102
RTVSPropertyOp8
 70
     1
102
RTVSPropertyOp9
 70
     1
102
RTVSPropertyOp10
 70
     1
102
RTVSPropertyOp11
 70
     1
102
RTVSPropertyOp12
 70
     1
102
RTVSPropertyOp13
 70
     1
102
RTVSPropertyOp14
 70
     1
102
RTVSPropertyOp15
 70
     1
102
RTVSPropertyOp16
 70
     1
102
RTVSPropertyOp17
 70
     1
102
RTVSPropertyOp18
 70
     1
102
RTVSPropertyOp19
 70
     1
102
RTVSPropertyOp20
 70
     1
102
RTVSPropertyOp21
 70
     1
102
RTVSPropertyOp22
 70
     1
102
RTVSPropertyOp23
 70
     1
102
RTVSPropertyOp24
 70
     1
102
RTVSPropertyOp25
 70
     1
102
RTVSPropertyOp26
 70
     1
102
RTVSPropertyOp27
 70
     1
102
RTVSPropertyOp28
 70
     1
102
RTVSPropertyOp29
 70
     1
102
RTVSPropertyOp30
 70
     1
102
RTVSPropertyOp31
 70
     1
102
RTVSPropertyOp32
 70
     1
  0
XRECORD
  5
EF
102
{ACAD_REACTORS
330
EE
102
}
330
EE
100
AcDbXrecord
280
     1
102
RTVSPropertyOp0
 70
     1
102
RTVSPropertyOp1
 70
     1
102
RTVSPropertyOp2
 70
     1
102
RTVSPropertyOp3
 70
     1
102
RTVSPropertyOp4
 70
     1
102
RTVSPropertyOp5
 70
     1
102
RTVSPropertyOp6
 70
     1
102
RTVSPropertyOp7
 70
     1
102
RTVSPropertyOp8
 70
     1
102
RTVSPropertyOp9
 70
     1
102
RTVSPropertyOp10
 70
     1
102
RTVSPropertyOp11
 70
     1
102
RTVSPropertyOp12
 70
     1
102
RTVSPropertyOp13
 70
     1
102
RTVSPropertyOp14
 70
     1
102
RTVSPropertyOp15
 70
     1
102
RTVSPropertyOp16
 70
     1
102
RTVSPropertyOp17
 70
     1
102
RTVSPropertyOp18
 70
     1
102
RTVSPropertyOp19
 70
     1
102
RTVSPropertyOp20
 70
     1
102
RTVSPropertyOp21
 70
     1
102
RTVSPropertyOp22
 70
     1
102
RTVSPropertyOp23
 70
     1
102
RTVSPropertyOp24
 70
     1
102
RTVSPropertyOp25
 70
     1
102
RTVSPropertyOp26
 70
     1
102
RTVSPropertyOp27
 70
     1
102
RTVSPropertyOp28
 70
     1
102
RTVSPropertyOp29
 70
     1
102
RTVSPropertyOp30
 70
     1
102
RTVSPropertyOp31
 70
     1
102
RTVSPropertyOp32
 70
     1
  0
XRECORD
  5
E5
102
{ACAD_REACTORS
330
E4
102
}
330
E4
100
AcDbXrecord
280
     1
102
RTVSPropertyOp0
 70
     1
102
RTVSPropertyOp1
 70
     1
102
RTVSPropertyOp2
 70
     1
102
RTVSPropertyOp3
 70
     1
102
RTVSPropertyOp4
 70
     1
102
RTVSPropertyOp5
 70
     1
102
RTVSPropertyOp6
 70
     1
102
RTVSPropertyOp7
 70
     1
102
RTVSPropertyOp8
 70
     1
102
RTVSPropertyOp9
 70
     1
102
RTVSPropertyOp10
 70
     1
102
RTVSPropertyOp11
 70
     1
102
RTVSPropertyOp12
 70
     1
102
RTVSPropertyOp13
 70
     1
102
RTVSPropertyOp14
 70
     1
102
RTVSPropertyOp15
 70
     1
102
RTVSPropertyOp16
 70
     1
102
RTVSPropertyOp17
 70
     1
102
RTVSPropertyOp18
 70
     1
102
RTVSPropertyOp19
 70
     1
102
RTVSPropertyOp20
 70
     1
102
RTVSPropertyOp21
 70
     1
102
RTVSPropertyOp22
 70
     1
102
RTVSPropertyOp23
 70
     1
102
RTVSPropertyOp24
 70
     1
102
RTVSPropertyOp25
 70
     1
102
RTVSPropertyOp26
 70
     1
102
RTVSPropertyOp27
 70
     1
102
RTVSPropertyOp28
 70
     1
102
RTVSPropertyOp29
 70
     1
102
RTVSPropertyOp30
 70
     1
102
RTVSPropertyOp31
 70
     1
102
RTVSPropertyOp32
 70
     1
  0
XRECORD
  5
ED
102
{ACAD_REACTORS
330
EC
102
}
330
EC
100
AcDbXrecord
280
     1
102
RTVSPropertyOp0
 70
     1
102
RTVSPropertyOp1
 70
     1
102
RTVSPropertyOp2
 70
     1
102
RTVSPropertyOp3
 70
     1
102
RTVSPropertyOp4
 70
     1
102
RTVSPropertyOp5
 70
     1
102
RTVSPropertyOp6
 70
     1
102
RTVSPropertyOp7
 70
     1
102
RTVSPropertyOp8
 70
     1
102
RTVSPropertyOp9
 70
     1
102
RTVSPropertyOp10
 70
     1
102
RTVSPropertyOp11
 70
     1
102
RTVSPropertyOp12
 70
     1
102
RTVSPropertyOp13
 70
     1
102
RTVSPropertyOp14
 70
     1
102
RTVSPropertyOp15
 70
     1
102
RTVSPropertyOp16
 70
     1
102
RTVSPropertyOp17
 70
     1
102
RTVSPropertyOp18
 70
     1
102
RTVSPropertyOp19
 70
     1
102
RTVSPropertyOp20
 70
     1
102
RTVSPropertyOp21
 70
     1
102
RTVSPropertyOp22
 70
     1
102
RTVSPropertyOp23
 70
     1
102
RTVSPropertyOp24
 70
     1
102
RTVSPropertyOp25
 70
     1
102
RTVSPropertyOp26
 70
     1
102
RTVSPropertyOp27
 70
     1
102
RTVSPropertyOp28
 70
     1
102
RTVSPropertyOp29
 70
     1
102
RTVSPropertyOp30
 70
     1
102
RTVSPropertyOp31
 70
     1
102
RTVSPropertyOp32
 70
     1
  0
ENDSEC
  0
EOF
