  0
SECTION
  2
HEADER
  9
$ACADVER
  1
AC1021
  9
$ACADMAINTVER
 70
    25
  9
$DWGCODEPAGE
  3
ANSI_1252
  9
$INSBASE
 10
0.0
 20
0.0
 30
0.0
  9
$EXTMIN
 10
-56.0783
 20
-114.9849
 30
0.0
  9
$EXTMAX
 10
67.6294
 20
131.8744
 30
0.0
  9
$LIMMIN
 10
0.0
 20
0.0
  9
$LIMMAX
 10
12.0
 20
9.0
  9
$ORTHOMODE
 70
     0
  9
$REGENMODE
 70
     1
  9
$FILLMODE
 70
     1
  9
$QTEXTMODE
 70
     0
  9
$MIRRTEXT
 70
     1
  9
$LTSCALE
 40
1.0
  9
$ATTMODE
 70
     1
  9
$TEXTSIZE
 40
0.2
  9
$TRACEWID
 40
0.05
  9
$TEXTSTYLE
  7
Standard
  9
$CLAYER
  8
0
  9
$CELTYPE
  6
ByLayer
  9
$CECOLOR
 62
   256
  9
$CELTSCALE
 40
1.0
  9
$DISPSILH
 70
     0
  9
$DIMSCALE
 40
1.0
  9
$DIMASZ
 40
0.18
  9
$DIMEXO
 40
0.0625
  9
$DIMDLI
 40
0.38
  9
$DIMRND
 40
0.0
  9
$DIMDLE
 40
0.0
  9
$DIMEXE
 40
0.18
  9
$DIMTP
 40
0.0
  9
$DIMTM
 40
0.0
  9
$DIMTXT
 40
0.18
  9
$DIMCEN
 40
0.09
  9
$DIMTSZ
 40
0.0
  9
$DIMTOL
 70
     0
  9
$DIMLIM
 70
     0
  9
$DIMTIH
 70
     1
  9
$DIMTOH
 70
     1
  9
$DIMSE1
 70
     0
  9
$DIMSE2
 70
     0
  9
$DIMTAD
 70
     0
  9
$DIMZIN
 70
     0
  9
$DIMBLK
  1

  9
$DIMASO
 70
     1
  9
$DIMSHO
 70
     1
  9
$DIMPOST
  1

  9
$DIMAPOST
  1

  9
$DIMALT
 70
     0
  9
$DIMALTD
 70
     2
  9
$DIMALTF
 40
25.4
  9
$DIMLFAC
 40
1.0
  9
$DIMTOFL
 70
     0
  9
$DIMTVP
 40
0.0
  9
$DIMTIX
 70
     0
  9
$DIMSOXD
 70
     0
  9
$DIMSAH
 70
     0
  9
$DIMBLK1
  1

  9
$DIMBLK2
  1

  9
$DIMSTYLE
  2
Standard
  9
$DIMCLRD
 70
     0
  9
$DIMCLRE
 70
     0
  9
$DIMCLRT
 70
     0
  9
$DIMTFAC
 40
1.0
  9
$DIMGAP
 40
0.09
  9
$DIMJUST
 70
     0
  9
$DIMSD1
 70
     0
  9
$DIMSD2
 70
     0
  9
$DIMTOLJ
 70
     1
  9
$DIMTZIN
 70
     0
  9
$DIMALTZ
 70
     0
  9
$DIMALTTZ
 70
     0
  9
$DIMUPT
 70
     0
  9
$DIMDEC
 70
     4
  9
$DIMTDEC
 70
     4
  9
$DIMALTU
 70
     2
  9
$DIMALTTD
 70
     2
  9
$DIMTXSTY
  7
Standard
  9
$DIMAUNIT
 70
     0
  9
$DIMADEC
 70
     0
  9
$DIMALTRND
 40
0.0
  9
$DIMAZIN
 70
     0
  9
$DIMDSEP
 70
    46
  9
$DIMATFIT
 70
     3
  9
$DIMFRAC
 70
     0
  9
$DIMLDRBLK
  1

  9
$DIMLUNIT
 70
     2
  9
$DIMLWD
 70
    -2
  9
$DIMLWE
 70
    -2
  9
$DIMTMOVE
 70
     0
  9
$DIMFXL
 40
1.0
  9
$DIMFXLON
 70
     0
  9
$DIMJOGANG
 40
0.7853981633974483
  9
$DIMTFILL
 70
     0
  9
$DIMTFILLCLR
 70
     0
  9
$DIMARCSYM
 70
     0
  9
$DIMLTYPE
  6

  9
$DIMLTEX1
  6

  9
$DIMLTEX2
  6

  9
$LUNITS
 70
     2
  9
$LUPREC
 70
     4
  9
$SKETCHINC
 40
0.1
  9
$FILLETRAD
 40
0.5
  9
$AUNITS
 70
     0
  9
$AUPREC
 70
     0
  9
$MENU
  1
.
  9
$ELEVATION
 40
0.0
  9
$PELEVATION
 40
0.0
  9
$THICKNESS
 40
0.0
  9
$LIMCHECK
 70
     0
  9
$CHAMFERA
 40
0.5
  9
$CHAMFERB
 40
0.5
  9
$CHAMFERC
 40
1.0
  9
$CHAMFERD
 40
0.0
  9
$SKPOLY
 70
     0
  9
$TDCREATE
 40
2458492.698339283
  9
$TDUCREATE
 40
2458492.698339283
  9
$TDUPDATE
 40
2458492.698339398
  9
$TDUUPDATE
 40
2458492.698339398
  9
$TDINDWG
 40
0.0000000116
  9
$TDUSRTIMER
 40
0.0000000116
  9
$USRTIMER
 70
     1
  9
$ANGBASE
 50
0.0
  9
$ANGDIR
 70
     0
  9
$PDMODE
 70
     0
  9
$PDSIZE
 40
0.0
  9
$PLINEWID
 40
0.0
  9
$SPLFRAME
 70
     0
  9
$SPLINETYPE
 70
     6
  9
$SPLINESEGS
 70
     8
  9
$HANDSEED
  5
A8
  9
$SURFTAB1
 70
     6
  9
$SURFTAB2
 70
     6
  9
$SURFTYPE
 70
     6
  9
$SURFU
 70
     6
  9
$SURFV
 70
     6
  9
$UCSBASE
  2

  9
$UCSNAME
  2

  9
$UCSORG
 10
0.0
 20
0.0
 30
0.0
  9
$UCSXDIR
 10
1.0
 20
0.0
 30
0.0
  9
$UCSYDIR
 10
0.0
 20
1.0
 30
0.0
  9
$UCSORTHOREF
  2

  9
$UCSORTHOVIEW
 70
     0
  9
$UCSORGTOP
 10
0.0
 20
0.0
 30
0.0
  9
$UCSORGBOTTOM
 10
0.0
 20
0.0
 30
0.0
  9
$UCSORGLEFT
 10
0.0
 20
0.0
 30
0.0
  9
$UCSORGRIGHT
 10
0.0
 20
0.0
 30
0.0
  9
$UCSORGFRONT
 10
0.0
 20
0.0
 30
0.0
  9
$UCSORGBACK
 10
0.0
 20
0.0
 30
0.0
  9
$PUCSBASE
  2

  9
$PUCSNAME
  2

  9
$PUCSORG
 10
0.0
 20
0.0
 30
0.0
  9
$PUCSXDIR
 10
1.0
 20
0.0
 30
0.0
  9
$PUCSYDIR
 10
0.0
 20
1.0
 30
0.0
  9
$PUCSORTHOREF
  2

  9
$PUCSORTHOVIEW
 70
     0
  9
$PUCSORGTOP
 10
0.0
 20
0.0
 30
0.0
  9
$PUCSORGBOTTOM
 10
0.0
 20
0.0
 30
0.0
  9
$PUCSORGLEFT
 10
0.0
 20
0.0
 30
0.0
  9
$PUCSORGRIGHT
 10
0.0
 20
0.0
 30
0.0
  9
$PUCSORGFRONT
 10
0.0
 20
0.0
 30
0.0
  9
$PUCSORGBACK
 10
0.0
 20
0.0
 30
0.0
  9
$USERI1
 70
     0
  9
$USERI2
 70
     0
  9
$USERI3
 70
     0
  9
$USERI4
 70
     0
  9
$USERI5
 70
     0
  9
$USERR1
 40
0.0
  9
$USERR2
 40
0.0
  9
$USERR3
 40
0.0
  9
$USERR4
 40
0.0
  9
$USERR5
 40
0.0
  9
$WORLDVIEW
 70
     1
  9
$SHADEDGE
 70
     3
  9
$SHADEDIF
 70
    70
  9
$TILEMODE
 70
     1
  9
$MAXACTVP
 70
    64
  9
$PINSBASE
 10
0.0
 20
0.0
 30
0.0
  9
$PLIMCHECK
 70
     0
  9
$PEXTMIN
 10
1.000000000000000E+20
 20
1.000000000000000E+20
 30
1.000000000000000E+20
  9
$PEXTMAX
 10
-1.000000000000000E+20
 20
-1.000000000000000E+20
 30
-1.000000000000000E+20
  9
$PLIMMIN
 10
0.0
 20
0.0
  9
$PLIMMAX
 10
12.0
 20
9.0
  9
$UNITMODE
 70
     0
  9
$VISRETAIN
 70
     1
  9
$PLINEGEN
 70
     0
  9
$PSLTSCALE
 70
     1
  9
$TREEDEPTH
 70
  3020
  9
$CMLSTYLE
  2
Standard
  9
$CMLJUST
 70
     0
  9
$CMLSCALE
 40
1.0
  9
$PROXYGRAPHICS
 70
     1
  9
$MEASUREMENT
 70
     0
  9
$CELWEIGHT
370
    -1
  9
$ENDCAPS
280
     0
  9
$JOINSTYLE
280
     0
  9
$LWDISPLAY
290
     0
  9
$INSUNITS
 70
     4
  9
$HYPERLINKBASE
  1

  9
$STYLESHEET
  1

  9
$XEDIT
290
     1
  9
$CEPSNTYPE
380
     0
  9
$PSTYLEMODE
290
     1
  9
$FINGERPRINTGUID
  2
{E5B4CBF1-C132-4F23-8EAB-F8C872BAE643}
  9
$VERSIONGUID
  2
{FAEB1C32-E019-11D5-929B-00C0DF256EC4}
  9
$EXTNAMES
290
     1
  9
$PSVPSCALE
 40
0.0
  9
$OLESTARTUP
290
     0
  9
$SORTENTS
280
   127
  9
$INDEXCTL
280
     0
  9
$HIDETEXT
280
     1
  9
$XCLIPFRAME
290
     0
  9
$HALOGAP
280
     0
  9
$OBSCOLOR
 70
   257
  9
$OBSLTYPE
280
     0
  9
$INTERSECTIONDISPLAY
280
     0
  9
$INTERSECTIONCOLOR
 70
   257
  9
$DIMASSOC
280
     2
  9
$PROJECTNAME
  1

  9
$CAMERADISPLAY
290
     0
  9
$LENSLENGTH
 40
50.0
  9
$CAMERAHEIGHT
 40
0.0
  9
$STEPSPERSEC
 40
2.0
  9
$STEPSIZE
 40
6.0
  9
$3DDWFPREC
 40
2.0
  9
$PSOLWIDTH
 40
0.25
  9
$PSOLHEIGHT
 40
4.0
  9
$LOFTANG1
 40
1.570796326794897
  9
$LOFTANG2
 40
1.570796326794897
  9
$LOFTMAG1
 40
0.0
  9
$LOFTMAG2
 40
0.0
  9
$LOFTPARAM
 70
     7
  9
$LOFTNORMALS
280
     1
  9
$LATITUDE
 40
37.795
  9
$LONGITUDE
 40
-122.394
  9
$NORTHDIRECTION
 40
0.0
  9
$TIMEZONE
 70
 -8000
  9
$LIGHTGLYPHDISPLAY
280
     1
  9
$TILEMODELIGHTSYNCH
280
     1
  9
$SOLIDHIST
280
     1
  9
$SHOWHIST
280
     1
  9
$DWFFRAME
280
     2
  9
$DGNFRAME
280
     2
  9
$REALWORLDSCALE
290
     1
  9
$INTERFERECOLOR
 62
   256
  9
$CSHADOW
280
     0
  9
$SHADOWPLANELOCATION
 40
0.0
  0
ENDSEC
  0
SECTION
  2
CLASSES
  0
CLASS
  1
ACDBDICTIONARYWDFLT
  2
AcDbDictionaryWithDefault
  3
ObjectDBX Classes
 90
        0
 91
        4
280
     0
281
     0
  0
CLASS
  1
VISUALSTYLE
  2
AcDbVisualStyle
  3
ObjectDBX Classes
 90
     4095
 91
        4
280
     0
281
     0
  0
CLASS
  1
MATERIAL
  2
AcDbMaterial
  3
ObjectDBX Classes
 90
     1153
 91
        4
280
     0
281
     0
  0
ENDSEC
  0
SECTION
  2
TABLES
  0
TABLE
  2
VPORT
  5
8
330
0
100
AcDbSymbolTable
 70
     1
  0
VPORT
  5
29
330
8
100
AcDbSymbolTableRecord
100
AcDbViewportTableRecord
  2
*Active
 70
     0
 10
0.0
 20
0.0
 11
1.0
 21
1.0
 12
10.42990654205607
 22
4.5
 13
0.0
 23
0.0
 14
0.5
 24
0.5
 15
0.5
 25
0.5
 16
0.0
 26
0.0
 36
1.0
 17
0.0
 27
0.0
 37
0.0
 40
9.0
 41
1.972972972850329
 42
50.0
 43
0.0
 44
0.0
 50
0.0
 51
0.0
 71
     0
 72
   100
 73
     1
 74
     3
 75
     0
 76
     0
 77
     0
 78
     0
281
     0
 65
     1
110
0.0
120
0.0
130
0.0
111
1.0
121
0.0
131
0.0
112
0.0
122
1.0
132
0.0
 79
     0
146
0.0
 60
     3
 61
     5
292
     1
282
     1
141
0.0
142
0.0
 63
   250
  0
ENDTAB
  0
TABLE
  2
LTYPE
  5
5
330
0
100
AcDbSymbolTable
 70
     1
  0
LTYPE
  5
14
330
5
100
AcDbSymbolTableRecord
100
AcDbLinetypeTableRecord
  2
ByBlock
 70
     0
  3

 72
    65
 73
     0
 40
0.0
  0
LTYPE
  5
15
330
5
100
AcDbSymbolTableRecord
100
AcDbLinetypeTableRecord
  2
ByLayer
 70
     0
  3

 72
    65
 73
     0
 40
0.0
  0
LTYPE
  5
16
330
5
100
AcDbSymbolTableRecord
100
AcDbLinetypeTableRecord
  2
Continuous
 70
     0
  3
Solid line
 72
    65
 73
     0
 40
0.0
  0
ENDTAB
  0
TABLE
  2
LAYER
  5
2
330
0
100
AcDbSymbolTable
 70
     2
  0
LAYER
  5
10
330
2
100
AcDbSymbolTableRecord
100
AcDbLayerTableRecord
  2
0
 70
     0
 62
     7
  6
Continuous
370
    -3
390
F
347
3E
  0
LAYER
  5
40
330
2
100
AcDbSymbolTableRecord
100
AcDbLayerTableRecord
  2
layer 1
 70
     0
 62
     7
  6
Continuous
370
    -3
390
F
347
3E
  0
ENDTAB
  0
TABLE
  2
STYLE
  5
3
330
0
100
AcDbSymbolTable
 70
     1
  0
STYLE
  5
11
330
3
100
AcDbSymbolTableRecord
100
AcDbTextStyleTableRecord
  2
Standard
 70
     0
 40
0.0
 41
1.0
 50
0.0
 71
     0
 42
0.2
  3
txt
  4

  0
ENDTAB
  0
TABLE
  2
VIEW
  5
6
330
0
100
AcDbSymbolTable
 70
     0
  0
ENDTAB
  0
TABLE
  2
UCS
  5
7
330
0
100
AcDbSymbolTable
 70
     0
  0
ENDTAB
  0
TABLE
  2
APPID
  5
9
330
0
100
AcDbSymbolTable
 70
     2
  0
APPID
  5
12
330
9
100
AcDbSymbolTableRecord
100
AcDbRegAppTableRecord
  2
ACAD
 70
     0
  0
APPID
  5
3F
330
9
100
AcDbSymbolTableRecord
100
AcDbRegAppTableRecord
  2
ODA
 70
     0
  0
ENDTAB
  0
TABLE
  2
DIMSTYLE
  5
A
330
0
100
AcDbSymbolTable
 70
     1
100
AcDbDimStyleTable
  0
DIMSTYLE
105
27
330
A
100
AcDbSymbolTableRecord
100
AcDbDimStyleTableRecord
  2
Standard
 70
     0
178
     0
340
11
  0
ENDTAB
  0
TABLE
  2
BLOCK_RECORD
  5
1
330
0
100
AcDbSymbolTable
 70
     1
  0
BLOCK_RECORD
  5
1F
330
1
100
AcDbSymbolTableRecord
100
AcDbBlockTableRecord
  2
*Model_Space
340
22
 70
     0
280
     1
281
     0
  0
BLOCK_RECORD
  5
1B
330
1
100
AcDbSymbolTableRecord
100
AcDbBlockTableRecord
  2
*Paper_Space
340
1E
 70
     0
280
     1
281
     0
  0
BLOCK_RECORD
  5
23
330
1
100
AcDbSymbolTableRecord
100
AcDbBlockTableRecord
  2
*Paper_Space0
340
26
 70
     0
280
     1
281
     0
  0
ENDTAB
  0
ENDSEC
  0
SECTION
  2
BLOCKS
  0
BLOCK
  5
20
330
1F
100
AcDbEntity
  8
0
100
AcDbBlockBegin
  2
*Model_Space
 70
     0
 10
0.0
 20
0.0
 30
0.0
  3
*Model_Space
  1

  0
ENDBLK
  5
21
330
1F
100
AcDbEntity
  8
0
100
AcDbBlockEnd
  0
BLOCK
  5
1C
330
1B
100
AcDbEntity
 67
     1
  8
0
100
AcDbBlockBegin
  2
*Paper_Space
 70
     0
 10
0.0
 20
0.0
 30
0.0
  3
*Paper_Space
  1

  0
ENDBLK
  5
1D
330
1B
100
AcDbEntity
 67
     1
  8
0
100
AcDbBlockEnd
  0
BLOCK
  5
24
330
23
100
AcDbEntity
  8
0
100
AcDbBlockBegin
  2
*Paper_Space0
 70
     0
 10
0.0
 20
0.0
 30
0.0
  3
*Paper_Space0
  1

  0
ENDBLK
  5
25
330
23
100
AcDbEntity
  8
0
100
AcDbBlockEnd
  0
ENDSEC
  0
SECTION
  2
ENTITIES
  0
SPLINE
  5
41
330
1F
100
AcDbEntity
  8
layer 1
100
AcDbSpline
210
0.0
220
0.0
230
1.0
 70
    11
 71
     3
 72
    20
 73
    16
 74
     0
 42
0.0000000001
 43
0.0000000001
 12
1.0
 22
0.0
 32
0.0
 13
1.0
 23
0.0
 33
0.0
 40
0.0
 40
0.0
 40
0.0
 40
0.0
 40
0.2
 40
0.2
 40
0.2
 40
0.2
 40
0.4
 40
0.4
 40
0.4
 40
0.4
 40
0.6
 40
0.6
 40
0.6
 40
0.6
 40
1.0
 40
1.0
 40
1.0
 40
1.0
 10
67.6294
 20
-114.9849
 30
0.0
 10
67.6294
 20
-114.9849
 30
0.0
 10
67.6294
 20
131.8744
 30
0.0
 10
67.6294
 20
131.8744
 30
0.0
 10
67.6294
 20
131.8744
 30
0.0
 10
67.6294
 20
131.8744
 30
0.0
 10
-56.0783
 20
131.8744
 30
0.0
 10
-56.0783
 20
131.8744
 30
0.0
 10
-56.0783
 20
131.8744
 30
0.0
 10
-56.0783
 20
131.8744
 30
0.0
 10
-56.0783
 20
-114.9849
 30
0.0
 10
-56.0783
 20
-114.9849
 30
0.0
 10
-56.0783
 20
-114.9849
 30
0.0
 10
-56.0783
 20
-114.9849
 30
0.0
 10
67.6294
 20
-114.9849
 30
0.0
 10
67.6294
 20
-114.9849
 30
0.0
  0
SPLINE
  5
42
330
1F
100
AcDbEntity
  8
layer 1
 62
     7
100
AcDbSpline
210
0.0
220
0.0
230
1.0
 70
    11
 71
     3
 72
   236
 73
   232
 74
     0
 42
0.0000000001
 43
0.0000000001
 12
1.0
 22
0.0
 32
0.0
 13
1.0
 23
0.0
 33
0.0
 40
0.0
 40
0.0
 40
0.0
 40
0.0
 40
0.0169491525423729
 40
0.0169491525423729
 40
0.0169491525423729
 40
0.0169491525423729
 40
0.0338983050847458
 40
0.0338983050847458
 40
0.0338983050847458
 40
0.0338983050847458
 40
0.0508474576271186
 40
0.0508474576271186
 40
0.0508474576271186
 40
0.0508474576271186
 40
0.0677966101694915
 40
0.0677966101694915
 40
0.0677966101694915
 40
0.0677966101694915
 40
0.0847457627118644
 40
0.0847457627118644
 40
0.0847457627118644
 40
0.0847457627118644
 40
0.1016949152542373
 40
0.1016949152542373
 40
0.1016949152542373
 40
0.1016949152542373
 40
0.1186440677966102
 40
0.1186440677966102
 40
0.1186440677966102
 40
0.1186440677966102
 40
0.1355932203389831
 40
0.1355932203389831
 40
0.1355932203389831
 40
0.1355932203389831
 40
0.1525423728813559
 40
0.1525423728813559
 40
0.1525423728813559
 40
0.1525423728813559
 40
0.1694915254237288
 40
0.1694915254237288
 40
0.1694915254237288
 40
0.1694915254237288
 40
0.1864406779661017
 40
0.1864406779661017
 40
0.1864406779661017
 40
0.1864406779661017
 40
0.2033898305084746
 40
0.2033898305084746
 40
0.2033898305084746
 40
0.2033898305084746
 40
0.2203389830508475
 40
0.2203389830508475
 40
0.2203389830508475
 40
0.2203389830508475
 40
0.2372881355932203
 40
0.2372881355932203
 40
0.2372881355932203
 40
0.2372881355932203
 40
0.2542372881355932
 40
0.2542372881355932
 40
0.2542372881355932
 40
0.2542372881355932
 40
0.2711864406779661
 40
0.2711864406779661
 40
0.2711864406779661
 40
0.2711864406779661
 40
0.288135593220339
 40
0.288135593220339
 40
0.288135593220339
 40
0.288135593220339
 40
0.3050847457627119
 40
0.3050847457627119
 40
0.3050847457627119
 40
0.3050847457627119
 40
0.3220338983050847
 40
0.3220338983050847
 40
0.3220338983050847
 40
0.3220338983050847
 40
0.3389830508474576
 40
0.3389830508474576
 40
0.3389830508474576
 40
0.3389830508474576
 40
0.3559322033898305
 40
0.3559322033898305
 40
0.3559322033898305
 40
0.3559322033898305
 40
0.3728813559322034
 40
0.3728813559322034
 40
0.3728813559322034
 40
0.3728813559322034
 40
0.3898305084745763
 40
0.3898305084745763
 40
0.3898305084745763
 40
0.3898305084745763
 40
0.4067796610169492
 40
0.4067796610169492
 40
0.4067796610169492
 40
0.4067796610169492
 40
0.423728813559322
 40
0.423728813559322
 40
0.423728813559322
 40
0.423728813559322
 40
0.4406779661016949
 40
0.4406779661016949
 40
0.4406779661016949
 40
0.4406779661016949
 40
0.4576271186440678
 40
0.4576271186440678
 40
0.4576271186440678
 40
0.4576271186440678
 40
0.4745762711864407
 40
0.4745762711864407
 40
0.4745762711864407
 40
0.4745762711864407
 40
0.4915254237288136
 40
0.4915254237288136
 40
0.4915254237288136
 40
0.4915254237288136
 40
0.5084745762711864
 40
0.5084745762711864
 40
0.5084745762711864
 40
0.5084745762711864
 40
0.5254237288135594
 40
0.5254237288135594
 40
0.5254237288135594
 40
0.5254237288135594
 40
0.5423728813559322
 40
0.5423728813559322
 40
0.5423728813559322
 40
0.5423728813559322
 40
0.559322033898305
 40
0.559322033898305
 40
0.559322033898305
 40
0.559322033898305
 40
0.576271186440678
 40
0.576271186440678
 40
0.576271186440678
 40
0.576271186440678
 40
0.5932203389830508
 40
0.5932203389830508
 40
0.5932203389830508
 40
0.5932203389830508
 40
0.6101694915254238
 40
0.6101694915254238
 40
0.6101694915254238
 40
0.6101694915254238
 40
0.6271186440677966
 40
0.6271186440677966
 40
0.6271186440677966
 40
0.6271186440677966
 40
0.6440677966101694
 40
0.6440677966101694
 40
0.6440677966101694
 40
0.6440677966101694
 40
0.6610169491525424
 40
0.6610169491525424
 40
0.6610169491525424
 40
0.6610169491525424
 40
0.6779661016949152
 40
0.6779661016949152
 40
0.6779661016949152
 40
0.6779661016949152
 40
0.6949152542372882
 40
0.6949152542372882
 40
0.6949152542372882
 40
0.6949152542372882
 40
0.711864406779661
 40
0.711864406779661
 40
0.711864406779661
 40
0.711864406779661
 40
0.7288135593220338
 40
0.7288135593220338
 40
0.7288135593220338
 40
0.7288135593220338
 40
0.7457627118644068
 40
0.7457627118644068
 40
0.7457627118644068
 40
0.7457627118644068
 40
0.7627118644067796
 40
0.7627118644067796
 40
0.7627118644067796
 40
0.7627118644067796
 40
0.7796610169491526
 40
0.7796610169491526
 40
0.7796610169491526
 40
0.7796610169491526
 40
0.7966101694915254
 40
0.7966101694915254
 40
0.7966101694915254
 40
0.7966101694915254
 40
0.8135593220338984
 40
0.8135593220338984
 40
0.8135593220338984
 40
0.8135593220338984
 40
0.8305084745762712
 40
0.8305084745762712
 40
0.8305084745762712
 40
0.8305084745762712
 40
0.847457627118644
 40
0.847457627118644
 40
0.847457627118644
 40
0.847457627118644
 40
0.864406779661017
 40
0.864406779661017
 40
0.864406779661017
 40
0.864406779661017
 40
0.8813559322033898
 40
0.8813559322033898
 40
0.8813559322033898
 40
0.8813559322033898
 40
0.8983050847457628
 40
0.8983050847457628
 40
0.8983050847457628
 40
0.8983050847457628
 40
0.9152542372881356
 40
0.9152542372881356
 40
0.9152542372881356
 40
0.9152542372881356
 40
0.9322033898305084
 40
0.9322033898305084
 40
0.9322033898305084
 40
0.9322033898305084
 40
0.9491525423728814
 40
0.9491525423728814
 40
0.9491525423728814
 40
0.9491525423728814
 40
0.9661016949152542
 40
0.9661016949152542
 40
0.9661016949152542
 40
0.9661016949152542
 40
1.0
 40
1.0
 40
1.0
 40
1.0
 10
46.8309
 20
8.4588
 30
0.0
 10
46.8549
 20
8.881
 30
0.0
 10
47.0762
 20
9.3704
 30
0.0
 10
47.494
 20
9.967
 30
0.0
 10
47.494
 20
9.967
 30
0.0
 10
48.1582
 20
10.9151
 30
0.0
 10
48.1369
 20
11.0348
 30
0.0
 10
47.1068
 20
12.1356
 30
0.0
 10
47.1068
 20
12.1356
 30
0.0
 10
45.6145
 20
13.7305
 30
0.0
 10
45.3628
 20
14.8372
 30
0.0
 10
45.9559
 20
17.1929
 30
0.0
 10
45.9559
 20
17.1929
 30
0.0
 10
46.5243
 20
19.4503
 30
0.0
 10
47.269
 20
20.4782
 30
0.0
 10
52.2448
 20
25.873
 30
0.0
 10
52.2448
 20
25.873
 30
0.0
 10
56.5067
 20
30.4938
 30
0.0
 10
58.5667
 20
34.123
 30
0.0
 10
58.5667
 20
37.0101
 30
0.0
 10
58.5667
 20
37.0101
 30
0.0
 10
58.5667
 20
38.1574
 30
0.0
 10
58.268
 20
39.4833
 30
0.0
 10
57.8871
 20
40.0274
 30
0.0
 10
57.8871
 20
40.0274
 30
0.0
 10
56.8188
 20
42.0535
 30
0.0
 10
55.3687
 20
42.5066
 30
0.0
 10
54.9697
 20
42.4888
 30
0.0
 10
54.9697
 20
42.4888
 30
0.0
 10
53.3362
 20
42.7537
 30
0.0
 10
53.3357
 20
42.399
 30
0.0
 10
53.6055
 20
41.0501
 30
0.0
 10
53.6055
 20
41.0501
 30
0.0
 10
53.833
 20
39.9125
 30
0.0
 10
53.6543
 20
39.4941
 30
0.0
 10
52.4673
 20
38.3853
 30
0.0
 10
52.4673
 20
38.3853
 30
0.0
 10
51.095
 20
37.0685
 30
0.0
 10
51.165
 20
35.8358
 30
0.0
 10
53.551
 20
34.9452
 30
0.0
 10
53.551
 20
34.9452
 30
0.0
 10
50.4432
 20
33.9537
 30
0.0
 10
46.8765
 20
36.9111
 30
0.0
 10
48.1903
 20
41.2711
 30
0.0
 10
48.1903
 20
41.2711
 30
0.0
 10
49.5125
 20
44.049
 30
0.0
 10
51.5699
 20
44.7803
 30
0.0
 10
54.3656
 20
44.7803
 30
0.0
 10
54.3656
 20
44.7803
 30
0.0
 10
59.8345
 20
44.4234
 30
0.0
 10
62.7776
 20
36.9694
 30
0.0
 10
58.216
 20
30.7829
 30
0.0
 10
58.216
 20
30.7829
 30
0.0
 10
58.0572
 20
30.158
 30
0.0
 10
59.1659
 20
30.7455
 30
0.0
 10
59.6697
 20
30.5185
 30
0.0
 10
59.6697
 20
30.5185
 30
0.0
 10
60.5827
 20
30.1069
 30
0.0
 10
60.6024
 20
29.8879
 30
0.0
 10
59.78
 20
28.0362
 30
0.0
 10
59.78
 20
28.0362
 30
0.0
 10
59.0815
 20
26.4634
 30
0.0
 10
58.0785
 20
25.932
 30
0.0
 10
55.5795
 20
24.6736
 30
0.0
 10
55.5795
 20
24.6736
 30
0.0
 10
53.9565
 20
23.8563
 30
0.0
 10
52.3704
 20
22.8767
 30
0.0
 10
52.055
 20
22.4965
 30
0.0
 10
52.055
 20
22.4965
 30
0.0
 10
51.3442
 20
21.64
 30
0.0
 10
51.7611
 20
21.5268
 30
0.0
 10
53.2755
 20
22.4301
 30
0.0
 10
53.2755
 20
22.4301
 30
0.0
 10
55.3326
 20
23.6569
 30
0.0
 10
57.2437
 20
23.061
 30
0.0
 10
58.149
 20
22.1557
 30
0.0
 10
58.149
 20
22.1557
 30
0.0
 10
58.7291
 20
21.5756
 30
0.0
 10
58.4949
 20
21.1854
 30
0.0
 10
56.9727
 20
19.5853
 30
0.0
 10
56.9727
 20
19.5853
 30
0.0
 10
55.4008
 20
17.9329
 30
0.0
 10
54.5921
 20
17.8803
 30
0.0
 10
52.5487
 20
17.8803
 30
0.0
 10
52.5487
 20
17.8803
 30
0.0
 10
51.3076
 20
18.1001
 30
0.0
 10
46.1554
 20
17.8368
 30
0.0
 10
47.9983
 20
13.246
 30
0.0
 10
47.9983
 20
13.246
 30
0.0
 10
48.6103
 20
12.6338
 30
0.0
 10
48.7514
 20
12.628
 30
0.0
 10
49.1677
 20
13.1972
 30
0.0
 10
49.1677
 20
13.1972
 30
0.0
 10
50.1173
 20
14.4957
 30
0.0
 10
52.6803
 20
15.9664
 30
0.0
 10
54.5065
 20
15.9682
 30
0.0
 10
54.5065
 20
15.9682
 30
0.0
 10
55.5119
 20
15.969
 30
0.0
 10
57.1247
 20
15.8091
 30
0.0
 10
57.0865
 20
15.604
 30
0.0
 10
57.0865
 20
15.604
 30
0.0
 10
56.8102
 20
14.1253
 30
0.0
 10
55.2066
 20
12.0764
 30
0.0
 10
53.9108
 20
11.7918
 30
0.0
 10
53.9108
 20
11.7918
 30
0.0
 10
53.1451
 20
11.6235
 30
0.0
 10
52.0245
 20
10.9895
 30
0.0
 10
52.0245
 20
10.6082
 30
0.0
 10
52.0245
 20
10.6082
 30
0.0
 10
52.0245
 20
10.0654
 30
0.0
 10
52.4173
 20
10.0018
 30
0.0
 10
54.227
 20
10.2507
 30
0.0
 10
54.227
 20
10.2507
 30
0.0
 10
57.1465
 20
10.6521
 30
0.0
 10
59.3476
 20
9.78
 30
0.0
 10
59.231
 20
8.5413
 30
0.0
 10
59.231
 20
8.5413
 30
0.0
 10
59.3476
 20
7.3025
 30
0.0
 10
57.1465
 20
6.266
 30
0.0
 10
54.227
 20
6.6673
 30
0.0
 10
54.227
 20
6.6673
 30
0.0
 10
52.4173
 20
6.9163
 30
0.0
 10
52.0245
 20
6.8525
 30
0.0
 10
52.0245
 20
6.3098
 30
0.0
 10
52.0245
 20
6.3098
 30
0.0
 10
52.0245
 20
5.9285
 30
0.0
 10
53.1451
 20
5.2946
 30
0.0
 10
53.9108
 20
5.1262
 30
0.0
 10
53.9108
 20
5.1262
 30
0.0
 10
55.2066
 20
4.8416
 30
0.0
 10
56.8102
 20
2.7928
 30
0.0
 10
57.0865
 20
1.314
 30
0.0
 10
57.0865
 20
1.314
 30
0.0
 10
57.1247
 20
1.1089
 30
0.0
 10
55.5119
 20
0.949
 30
0.0
 10
54.5065
 20
0.9498
 30
0.0
 10
54.5065
 20
0.9498
 30
0.0
 10
52.6803
 20
0.9516
 30
0.0
 10
50.1173
 20
2.4224
 30
0.0
 10
49.1677
 20
3.7208
 30
0.0
 10
49.1677
 20
3.7208
 30
0.0
 10
48.7514
 20
4.29
 30
0.0
 10
48.6103
 20
4.2842
 30
0.0
 10
47.9983
 20
3.672
 30
0.0
 10
47.9983
 20
3.672
 30
0.0
 10
46.1554
 20
-0.9188
 30
0.0
 10
51.3076
 20
-1.1821
 30
0.0
 10
52.5487
 20
-0.9623
 30
0.0
 10
52.5487
 20
-0.9623
 30
0.0
 10
54.5921
 20
-0.9623
 30
0.0
 10
55.4008
 20
-1.0149
 30
0.0
 10
56.9727
 20
-2.6673
 30
0.0
 10
56.9727
 20
-2.6673
 30
0.0
 10
58.4949
 20
-4.2674
 30
0.0
 10
58.7291
 20
-4.6576
 30
0.0
 10
58.149
 20
-5.2376
 30
0.0
 10
58.149
 20
-5.2376
 30
0.0
 10
57.2437
 20
-6.1429
 30
0.0
 10
55.3326
 20
-6.7388
 30
0.0
 10
53.2755
 20
-5.5121
 30
0.0
 10
53.2755
 20
-5.5121
 30
0.0
 10
51.7611
 20
-4.6088
 30
0.0
 10
51.3442
 20
-4.722
 30
0.0
 10
52.055
 20
-5.5785
 30
0.0
 10
52.055
 20
-5.5785
 30
0.0
 10
52.3704
 20
-5.9587
 30
0.0
 10
53.9565
 20
-6.9383
 30
0.0
 10
55.5795
 20
-7.7556
 30
0.0
 10
55.5795
 20
-7.7556
 30
0.0
 10
58.0785
 20
-9.014
 30
0.0
 10
59.0815
 20
-9.5454
 30
0.0
 10
59.78
 20
-11.1182
 30
0.0
 10
59.78
 20
-11.1182
 30
0.0
 10
60.6024
 20
-12.9698
 30
0.0
 10
60.5827
 20
-13.1889
 30
0.0
 10
59.6697
 20
-13.6005
 30
0.0
 10
59.6697
 20
-13.6005
 30
0.0
 10
59.1659
 20
-13.8275
 30
0.0
 10
58.0572
 20
-13.24
 30
0.0
 10
58.216
 20
-13.8649
 30
0.0
 10
58.216
 20
-13.8649
 30
0.0
 10
62.7776
 20
-20.0514
 30
0.0
 10
59.8345
 20
-27.5054
 30
0.0
 10
54.3656
 20
-27.8622
 30
0.0
 10
54.3656
 20
-27.8622
 30
0.0
 10
51.5699
 20
-27.8622
 30
0.0
 10
49.5125
 20
-27.131
 30
0.0
 10
48.1903
 20
-24.3531
 30
0.0
 10
48.1903
 20
-24.3531
 30
0.0
 10
46.8765
 20
-19.9931
 30
0.0
 10
50.4432
 20
-17.0356
 30
0.0
 10
53.551
 20
-18.0272
 30
0.0
 10
53.551
 20
-18.0272
 30
0.0
 10
51.165
 20
-18.9178
 30
0.0
 10
51.095
 20
-20.1505
 30
0.0
 10
52.4673
 20
-21.4672
 30
0.0
 10
52.4673
 20
-21.4672
 30
0.0
 10
53.6543
 20
-22.5761
 30
0.0
 10
53.833
 20
-22.9945
 30
0.0
 10
53.6055
 20
-24.1321
 30
0.0
 10
53.6055
 20
-24.1321
 30
0.0
 10
53.3357
 20
-25.481
 30
0.0
 10
53.3362
 20
-25.8357
 30
0.0
 10
54.9697
 20
-25.5708
 30
0.0
 10
54.9697
 20
-25.5708
 30
0.0
 10
55.3687
 20
-25.5886
 30
0.0
 10
56.8188
 20
-25.1354
 30
0.0
 10
57.8871
 20
-23.1094
 30
0.0
 10
57.8871
 20
-23.1094
 30
0.0
 10
58.268
 20
-22.5652
 30
0.0
 10
58.5667
 20
-21.2396
 30
0.0
 10
58.5667
 20
-20.0923
 30
0.0
 10
58.5667
 20
-20.0923
 30
0.0
 10
58.5667
 20
-17.2051
 30
0.0
 10
56.5067
 20
-13.576
 30
0.0
 10
52.2448
 20
-8.9551
 30
0.0
 10
52.2448
 20
-8.9551
 30
0.0
 10
47.269
 20
-3.5604
 30
0.0
 10
46.5243
 20
-2.5324
 30
0.0
 10
45.9559
 20
-0.2751
 30
0.0
 10
45.9559
 20
-0.2751
 30
0.0
 10
45.3628
 20
2.0806
 30
0.0
 10
45.6145
 20
3.1874
 30
0.0
 10
47.1068
 20
4.7822
 30
0.0
 10
47.1068
 20
4.7822
 30
0.0
 10
48.1369
 20
5.883
 30
0.0
 10
48.1582
 20
6.0027
 30
0.0
 10
47.494
 20
6.9509
 30
0.0
 10
47.494
 20
6.9509
 30
0.0
 10
47.0762
 20
7.5474
 30
0.0
 10
46.8549
 20
8.0368
 30
0.0
 10
46.8309
 20
8.4588
 30
0.0
  0
SPLINE
  5
43
330
1F
100
AcDbEntity
  8
layer 1
 62
     7
100
AcDbSpline
210
0.0
220
0.0
230
1.0
 70
    11
 71
     3
 72
    36
 73
    32
 74
     0
 42
0.0000000001
 43
0.0000000001
 12
1.0
 22
0.0
 32
0.0
 13
1.0
 23
0.0
 33
0.0
 40
0.0
 40
0.0
 40
0.0
 40
0.0
 40
0.1111111111111111
 40
0.1111111111111111
 40
0.1111111111111111
 40
0.1111111111111111
 40
0.2222222222222222
 40
0.2222222222222222
 40
0.2222222222222222
 40
0.2222222222222222
 40
0.3333333333333333
 40
0.3333333333333333
 40
0.3333333333333333
 40
0.3333333333333333
 40
0.4444444444444444
 40
0.4444444444444444
 40
0.4444444444444444
 40
0.4444444444444444
 40
0.5555555555555556
 40
0.5555555555555556
 40
0.5555555555555556
 40
0.5555555555555556
 40
0.6666666666666666
 40
0.6666666666666666
 40
0.6666666666666666
 40
0.6666666666666666
 40
0.7777777777777778
 40
0.7777777777777778
 40
0.7777777777777778
 40
0.7777777777777778
 40
1.0
 40
1.0
 40
1.0
 40
1.0
 10
-4.5691
 20
90.345
 30
0.0
 10
-10.0389
 20
89.8624
 30
0.0
 10
-12.6898
 20
90.5046
 30
0.0
 10
-14.0206
 20
91.7444
 30
0.0
 10
-14.0206
 20
91.7444
 30
0.0
 10
-15.7485
 20
93.3541
 30
0.0
 10
-14.5112
 20
96.5867
 30
0.0
 10
-12.1922
 20
96.5867
 30
0.0
 10
-12.1922
 20
96.5867
 30
0.0
 10
-11.2104
 20
96.5867
 30
0.0
 10
-10.9353
 20
96.8263
 30
0.0
 10
-11.5135
 20
97.5094
 30
0.0
 10
-11.5135
 20
97.5094
 30
0.0
 10
-12.8623
 20
99.1027
 30
0.0
 10
-12.1277
 20
100.5401
 30
0.0
 10
-11.365
 20
101.3028
 30
0.0
 10
-11.365
 20
101.3028
 30
0.0
 10
-9.5946
 20
103.0732
 30
0.0
 10
-5.6708
 20
101.0411
 30
0.0
 10
-1.3066
 20
96.473
 30
0.0
 10
-1.3066
 20
96.473
 30
0.0
 10
0.3014
 20
94.8739
 30
0.0
 10
2.024
 20
93.0664
 30
0.0
 10
3.828
 20
91.2406
 30
0.0
 10
3.828
 20
91.2406
 30
0.0
 10
4.0944
 20
91.3267
 30
0.0
 10
0.6713
 20
90.8073
 30
0.0
 10
-4.5691
 20
90.3449
 30
0.0
 10
-4.5691
 20
90.3449
 30
0.0
 10
-4.5691
 20
90.3449
 30
0.0
 10
-4.5691
 20
90.345
 30
0.0
 10
-4.5691
 20
90.345
 30
0.0
  0
SPLINE
  5
44
330
1F
100
AcDbEntity
  8
layer 1
 62
     7
100
AcDbSpline
210
0.0
220
0.0
230
1.0
 70
    11
 71
     3
 72
    56
 73
    52
 74
     0
 42
0.0000000001
 43
0.0000000001
 12
1.0
 22
0.0
 32
0.0
 13
1.0
 23
0.0
 33
0.0
 40
0.0
 40
0.0
 40
0.0
 40
0.0
 40
0.0714285714285714
 40
0.0714285714285714
 40
0.0714285714285714
 40
0.0714285714285714
 40
0.1428571428571428
 40
0.1428571428571428
 40
0.1428571428571428
 40
0.1428571428571428
 40
0.2142857142857143
 40
0.2142857142857143
 40
0.2142857142857143
 40
0.2142857142857143
 40
0.2857142857142857
 40
0.2857142857142857
 40
0.2857142857142857
 40
0.2857142857142857
 40
0.3571428571428572
 40
0.3571428571428572
 40
0.3571428571428572
 40
0.3571428571428572
 40
0.4285714285714285
 40
0.4285714285714285
 40
0.4285714285714285
 40
0.4285714285714285
 40
0.5
 40
0.5
 40
0.5
 40
0.5
 40
0.5714285714285714
 40
0.5714285714285714
 40
0.5714285714285714
 40
0.5714285714285714
 40
0.6428571428571429
 40
0.6428571428571429
 40
0.6428571428571429
 40
0.6428571428571429
 40
0.7142857142857143
 40
0.7142857142857143
 40
0.7142857142857143
 40
0.7142857142857143
 40
0.7857142857142857
 40
0.7857142857142857
 40
0.7857142857142857
 40
0.7857142857142857
 40
0.8571428571428571
 40
0.8571428571428571
 40
0.8571428571428571
 40
0.8571428571428571
 40
1.0
 40
1.0
 40
1.0
 40
1.0
 10
-0.7562
 20
39.2988
 30
0.0
 10
-1.2509
 20
36.9646
 30
0.0
 10
-1.6509
 20
37.1082
 30
0.0
 10
-1.2921
 20
39.4831
 30
0.0
 10
-1.2921
 20
39.4831
 30
0.0
 10
-0.2579
 20
48.3977
 30
0.0
 10
0.2999
 20
56.3565
 30
0.0
 10
-4.1153
 20
63.8157
 30
0.0
 10
-4.1153
 20
63.8157
 30
0.0
 10
-6.6758
 20
68.5793
 30
0.0
 10
-12.0491
 20
73.4762
 30
0.0
 10
-18.0401
 20
75.6945
 30
0.0
 10
-18.0401
 20
75.6945
 30
0.0
 10
-19.2573
 20
76.0621
 30
0.0
 10
-23.2952
 20
76.6423
 30
0.0
 10
-27.0132
 20
76.984
 30
0.0
 10
-27.0132
 20
76.984
 30
0.0
 10
-30.7314
 20
77.3257
 30
0.0
 10
-34.5585
 20
77.485
 30
0.0
 10
-35.518
 20
77.759
 30
0.0
 10
-35.518
 20
77.759
 30
0.0
 10
-39.5734
 20
78.9166
 30
0.0
 10
-43.0408
 20
81.7626
 30
0.0
 10
-43.5388
 20
84.2525
 30
0.0
 10
-43.5388
 20
84.2525
 30
0.0
 10
-43.8148
 20
85.6319
 30
0.0
 10
-43.0613
 20
85.4821
 30
0.0
 10
-41.6189
 20
85.4821
 30
0.0
 10
-41.6189
 20
85.4821
 30
0.0
 10
-41.6189
 20
85.4821
 30
0.0
 10
-39.9783
 20
85.4821
 30
0.0
 10
-39.9783
 20
85.4821
 30
0.0
 10
-39.9783
 20
85.4821
 30
0.0
 10
-45.9607
 20
89.7864
 30
0.0
 10
-48.9303
 20
97.2133
 30
0.0
 10
-46.7025
 20
102.4956
 30
0.0
 10
-46.7025
 20
102.4956
 30
0.0
 10
-47.0051
 20
90.7608
 30
0.0
 10
-35.1939
 20
83.1285
 30
0.0
 10
-25.8957
 20
80.6948
 30
0.0
 10
-25.8957
 20
80.6948
 30
0.0
 10
-17.4814
 20
78.203
 30
0.0
 10
-12.3419
 20
75.605
 30
0.0
 10
-8.6646
 20
71.9846
 30
0.0
 10
-8.6646
 20
71.9846
 30
0.0
 10
0.3301
 20
63.1425
 30
0.0
 10
1.6899
 20
54.2889
 30
0.0
 10
-0.7562
 20
39.2989
 30
0.0
 10
-0.7562
 20
39.2989
 30
0.0
 10
-0.7562
 20
39.2989
 30
0.0
 10
-0.7562
 20
39.2988
 30
0.0
 10
-0.7562
 20
39.2988
 30
0.0
  0
SPLINE
  5
45
330
1F
100
AcDbEntity
  8
layer 1
 62
     7
100
AcDbSpline
210
0.0
220
0.0
230
1.0
 70
    11
 71
     3
 72
   108
 73
   104
 74
     0
 42
0.0000000001
 43
0.0000000001
 12
1.0
 22
0.0
 32
0.0
 13
1.0
 23
0.0
 33
0.0
 40
0.0
 40
0.0
 40
0.0
 40
0.0
 40
0.037037037037037
 40
0.037037037037037
 40
0.037037037037037
 40
0.037037037037037
 40
0.0740740740740741
 40
0.0740740740740741
 40
0.0740740740740741
 40
0.0740740740740741
 40
0.1111111111111111
 40
0.1111111111111111
 40
0.1111111111111111
 40
0.1111111111111111
 40
0.1481481481481481
 40
0.1481481481481481
 40
0.1481481481481481
 40
0.1481481481481481
 40
0.1851851851851852
 40
0.1851851851851852
 40
0.1851851851851852
 40
0.1851851851851852
 40
0.2222222222222222
 40
0.2222222222222222
 40
0.2222222222222222
 40
0.2222222222222222
 40
0.2592592592592592
 40
0.2592592592592592
 40
0.2592592592592592
 40
0.2592592592592592
 40
0.2962962962962963
 40
0.2962962962962963
 40
0.2962962962962963
 40
0.2962962962962963
 40
0.3333333333333333
 40
0.3333333333333333
 40
0.3333333333333333
 40
0.3333333333333333
 40
0.3703703703703703
 40
0.3703703703703703
 40
0.3703703703703703
 40
0.3703703703703703
 40
0.4074074074074074
 40
0.4074074074074074
 40
0.4074074074074074
 40
0.4074074074074074
 40
0.4444444444444444
 40
0.4444444444444444
 40
0.4444444444444444
 40
0.4444444444444444
 40
0.4814814814814815
 40
0.4814814814814815
 40
0.4814814814814815
 40
0.4814814814814815
 40
0.5185185185185185
 40
0.5185185185185185
 40
0.5185185185185185
 40
0.5185185185185185
 40
0.5555555555555556
 40
0.5555555555555556
 40
0.5555555555555556
 40
0.5555555555555556
 40
0.5925925925925926
 40
0.5925925925925926
 40
0.5925925925925926
 40
0.5925925925925926
 40
0.6296296296296297
 40
0.6296296296296297
 40
0.6296296296296297
 40
0.6296296296296297
 40
0.6666666666666666
 40
0.6666666666666666
 40
0.6666666666666666
 40
0.6666666666666666
 40
0.7037037037037037
 40
0.7037037037037037
 40
0.7037037037037037
 40
0.7037037037037037
 40
0.7407407407407407
 40
0.7407407407407407
 40
0.7407407407407407
 40
0.7407407407407407
 40
0.7777777777777778
 40
0.7777777777777778
 40
0.7777777777777778
 40
0.7777777777777778
 40
0.8148148148148148
 40
0.8148148148148148
 40
0.8148148148148148
 40
0.8148148148148148
 40
0.8518518518518519
 40
0.8518518518518519
 40
0.8518518518518519
 40
0.8518518518518519
 40
0.8888888888888888
 40
0.8888888888888888
 40
0.8888888888888888
 40
0.8888888888888888
 40
0.9259259259259259
 40
0.9259259259259259
 40
0.9259259259259259
 40
0.9259259259259259
 40
1.0
 40
1.0
 40
1.0
 40
1.0
 10
-0.9197
 20
64.9325
 30
0.0
 10
-5.1677
 20
74.2226
 30
0.0
 10
-12.853
 20
81.3368
 30
0.0
 10
-22.6518
 20
82.6415
 30
0.0
 10
-22.6518
 20
82.6415
 30
0.0
 10
-26.7089
 20
83.1016
 30
0.0
 10
-29.7753
 20
83.8014
 30
0.0
 10
-31.4415
 20
84.6475
 30
0.0
 10
-31.4415
 20
84.6475
 30
0.0
 10
-33.5373
 20
85.7119
 30
0.0
 10
-35.6695
 20
88.3472
 30
0.0
 10
-35.989
 20
90.2681
 30
0.0
 10
-35.989
 20
90.2681
 30
0.0
 10
-36.706
 20
94.5798
 30
0.0
 10
-37.5416
 20
96.0907
 30
0.0
 10
-41.0994
 20
99.5095
 30
0.0
 10
-41.0994
 20
99.5095
 30
0.0
 10
-43.5959
 20
102.0003
 30
0.0
 10
-44.2813
 20
102.7594
 30
0.0
 10
-44.3653
 20
104.9613
 30
0.0
 10
-44.3653
 20
104.9613
 30
0.0
 10
-44.2373
 20
106.237
 30
0.0
 10
-43.6178
 20
107.971
 30
0.0
 10
-42.7987
 20
109.3479
 30
0.0
 10
-42.7987
 20
109.3479
 30
0.0
 10
-42.0536
 20
110.6002
 30
0.0
 10
-40.9154
 20
113.1137
 30
0.0
 10
-40.2692
 20
114.9335
 30
0.0
 10
-40.2692
 20
114.9335
 30
0.0
 10
-38.6279
 20
119.5567
 30
0.0
 10
-36.9585
 20
121.7853
 30
0.0
 10
-33.6134
 20
123.4321
 30
0.0
 10
-33.6134
 20
123.4321
 30
0.0
 10
-30.083
 20
124.8314
 30
0.0
 10
-25.4255
 20
125.3566
 30
0.0
 10
-22.1448
 20
123.7535
 30
0.0
 10
-22.1448
 20
123.7535
 30
0.0
 10
-19.0552
 20
122.1773
 30
0.0
 10
-17.4244
 20
118.8927
 30
0.0
 10
-17.4223
 20
115.3577
 30
0.0
 10
-17.4223
 20
115.3577
 30
0.0
 10
-17.4205
 20
112.5323
 30
0.0
 10
-20.2691
 20
109.9059
 30
0.0
 10
-23.3353
 20
109.9059
 30
0.0
 10
-23.3353
 20
109.9059
 30
0.0
 10
-27.5479
 20
109.549
 30
0.0
 10
-30.1651
 20
114.3118
 30
0.0
 10
-28.4638
 20
116.5518
 30
0.0
 10
-28.4638
 20
116.5518
 30
0.0
 10
-28.3576
 20
116.1506
 30
0.0
 10
-28.4903
 20
114.475
 30
0.0
 10
-26.9788
 20
114.3207
 30
0.0
 10
-26.9788
 20
114.3207
 30
0.0
 10
-25.7764
 20
114.198
 30
0.0
 10
-25.3473
 20
113.2739
 30
0.0
 10
-24.9326
 20
112.545
 30
0.0
 10
-24.9326
 20
112.545
 30
0.0
 10
-23.96
 20
110.8361
 30
0.0
 10
-22.1516
 20
110.7054
 30
0.0
 10
-21.4287
 20
112.2916
 30
0.0
 10
-21.4287
 20
112.2916
 30
0.0
 10
-20.9889
 20
113.2571
 30
0.0
 10
-21.1013
 20
113.5232
 30
0.0
 10
-22.5111
 20
114.8531
 30
0.0
 10
-22.5111
 20
114.8531
 30
0.0
 10
-23.9979
 20
116.2559
 30
0.0
 10
-24.1226
 20
116.8099
 30
0.0
 10
-23.5862
 20
117.7662
 30
0.0
 10
-23.5862
 20
117.7662
 30
0.0
 10
-21.8509
 20
120.8594
 30
0.0
 10
-23.6115
 20
122.6547
 30
0.0
 10
-27.374
 20
122.6547
 30
0.0
 10
-27.374
 20
122.6547
 30
0.0
 10
-31.1087
 20
122.6547
 30
0.0
 10
-34.8557
 20
120.1341
 30
0.0
 10
-36.5313
 20
116.4947
 30
0.0
 10
-36.5313
 20
116.4947
 30
0.0
 10
-38.1541
 20
112.97
 30
0.0
 10
-38.1446
 20
107.6939
 30
0.0
 10
-36.509
 20
104.1409
 30
0.0
 10
-36.509
 20
104.1409
 30
0.0
 10
-34.6178
 20
100.0327
 30
0.0
 10
-32.8186
 20
97.8156
 30
0.0
 10
-28.3891
 20
94.1349
 30
0.0
 10
-28.3891
 20
94.1349
 30
0.0
 10
-20.4268
 20
87.1404
 30
0.0
 10
-7.7024
 20
81.7982
 30
0.0
 10
-1.7919
 20
72.3893
 30
0.0
 10
-1.7919
 20
72.3893
 30
0.0
 10
-0.491
 20
70.2333
 30
0.0
 10
13.5248
 20
43.5337
 30
0.0
 10
-4.8042
 20
22.8887
 30
0.0
 10
-4.8042
 20
22.8887
 30
0.0
 10
-13.2778
 20
13.3444
 30
0.0
 10
-26.697
 20
8.412
 30
0.0
 10
-34.3147
 20
9.1319
 30
0.0
 10
-34.3147
 20
9.1319
 30
0.0
 10
-28.5019
 20
10.4378
 30
0.0
 10
-11.9243
 20
15.2272
 30
0.0
 10
-2.8282
 20
28.8246
 30
0.0
 10
-2.8282
 20
28.8246
 30
0.0
 10
5.46
 20
41.2145
 30
0.0
 10
1.723
 20
60.463
 30
0.0
 10
-0.9197
 20
64.9325
 30
0.0
  0
SPLINE
  5
46
330
1F
100
AcDbEntity
  8
layer 1
 62
     7
100
AcDbSpline
210
0.0
220
0.0
230
1.0
 70
    11
 71
     3
 72
    32
 73
    28
 74
     0
 42
0.0000000001
 43
0.0000000001
 12
1.0
 22
0.0
 32
0.0
 13
1.0
 23
0.0
 33
0.0
 40
0.0
 40
0.0
 40
0.0
 40
0.0
 40
0.125
 40
0.125
 40
0.125
 40
0.125
 40
0.25
 40
0.25
 40
0.25
 40
0.25
 40
0.375
 40
0.375
 40
0.375
 40
0.375
 40
0.5
 40
0.5
 40
0.5
 40
0.5
 40
0.625
 40
0.625
 40
0.625
 40
0.625
 40
0.75
 40
0.75
 40
0.75
 40
0.75
 40
1.0
 40
1.0
 40
1.0
 40
1.0
 10
-1.8905
 20
80.1251
 30
0.0
 10
-3.5163
 20
83.4596
 30
0.0
 10
-7.6215
 20
86.2385
 30
0.0
 10
-10.0255
 20
87.9957
 30
0.0
 10
-10.0255
 20
87.9957
 30
0.0
 10
-6.358
 20
87.7752
 30
0.0
 10
-4.3074
 20
85.3599
 30
0.0
 10
-3.3045
 20
83.9871
 30
0.0
 10
-3.3045
 20
83.9871
 30
0.0
 10
-2.2589
 20
82.556
 30
0.0
 10
-1.7273
 20
82.5901
 30
0.0
 10
-2.0197
 20
84.3917
 30
0.0
 10
-2.0197
 20
84.3917
 30
0.0
 10
-3.1955
 20
88.4871
 30
0.0
 10
-0.07
 20
86.3264
 30
0.0
 10
0.8921
 20
84.0397
 30
0.0
 10
0.8921
 20
84.0397
 30
0.0
 10
4.6062
 20
75.346
 30
0.0
 10
4.6148
 20
67.5752
 30
0.0
 10
4.9541
 20
61.0762
 30
0.0
 10
4.9541
 20
61.0762
 30
0.0
 10
3.9449
 20
65.2808
 30
0.0
 10
1.0871
 20
74.6903
 30
0.0
 10
-1.8906
 20
80.1249
 30
0.0
 10
-1.8906
 20
80.1249
 30
0.0
 10
-1.8906
 20
80.1249
 30
0.0
 10
-1.8905
 20
80.1251
 30
0.0
 10
-1.8905
 20
80.1251
 30
0.0
  0
SPLINE
  5
47
330
1F
100
AcDbEntity
  8
layer 1
 62
     7
100
AcDbSpline
210
0.0
220
0.0
230
1.0
 70
    11
 71
     3
 72
    20
 73
    16
 74
     0
 42
0.0000000001
 43
0.0000000001
 12
1.0
 22
0.0
 32
0.0
 13
1.0
 23
0.0
 33
0.0
 40
0.0
 40
0.0
 40
0.0
 40
0.0
 40
0.2
 40
0.2
 40
0.2
 40
0.2
 40
0.4
 40
0.4
 40
0.4
 40
0.4
 40
0.6
 40
0.6
 40
0.6
 40
0.6
 40
1.0
 40
1.0
 40
1.0
 40
1.0
 10
3.3027
 20
86.1625
 30
0.0
 10
2.9816
 20
82.9816
 30
0.0
 10
4.9442
 20
80.3399
 30
0.0
 10
5.6622
 20
71.6859
 30
0.0
 10
5.6622
 20
71.6859
 30
0.0
 10
6.3803
 20
80.3399
 30
0.0
 10
8.3429
 20
82.9816
 30
0.0
 10
8.0218
 20
86.1625
 30
0.0
 10
8.0218
 20
86.1625
 30
0.0
 10
8.1609
 20
87.0969
 30
0.0
 10
7.2172
 20
89.5611
 30
0.0
 10
5.6622
 20
89.5189
 30
0.0
 10
5.6622
 20
89.5189
 30
0.0
 10
4.1073
 20
89.5611
 30
0.0
 10
3.1636
 20
87.0969
 30
0.0
 10
3.3027
 20
86.1625
 30
0.0
  0
SPLINE
  5
48
330
1F
100
AcDbEntity
  8
layer 1
 62
     7
100
AcDbSpline
210
0.0
220
0.0
230
1.0
 70
    11
 71
     3
 72
    40
 73
    36
 74
     0
 42
0.0000000001
 43
0.0000000001
 12
1.0
 22
0.0
 32
0.0
 13
1.0
 23
0.0
 33
0.0
 40
0.0
 40
0.0
 40
0.0
 40
0.0
 40
0.1
 40
0.1
 40
0.1
 40
0.1
 40
0.2
 40
0.2
 40
0.2
 40
0.2
 40
0.3
 40
0.3
 40
0.3
 40
0.3
 40
0.4
 40
0.4
 40
0.4
 40
0.4
 40
0.5
 40
0.5
 40
0.5
 40
0.5
 40
0.6
 40
0.6
 40
0.6
 40
0.6
 40
0.7
 40
0.7
 40
0.7
 40
0.7
 40
0.8
 40
0.8
 40
0.8
 40
0.8
 40
1.0
 40
1.0
 40
1.0
 40
1.0
 10
-5.2761
 20
60.1919
 30
0.0
 10
-6.9023
 20
62.8186
 30
0.0
 10
-9.0642
 20
65.1663
 30
0.0
 10
-11.0169
 20
66.6304
 30
0.0
 10
-11.0169
 20
66.6304
 30
0.0
 10
-25.1157
 20
76.9056
 30
0.0
 10
-46.8396
 20
66.8842
 30
0.0
 10
-42.9273
 20
48.8462
 30
0.0
 10
-42.9273
 20
48.8462
 30
0.0
 10
-48.154
 20
53.6933
 30
0.0
 10
-46.7161
 20
61.2389
 30
0.0
 10
-42.2783
 20
65.232
 30
0.0
 10
-42.2783
 20
65.232
 30
0.0
 10
-43.1478
 20
64.8264
 30
0.0
 10
-45.0003
 20
64.6277
 30
0.0
 10
-46.6678
 20
65.5015
 30
0.0
 10
-46.6678
 20
65.5015
 30
0.0
 10
-42.85
 20
74.4521
 30
0.0
 10
-29.2498
 20
75.4706
 30
0.0
 10
-21.6351
 20
74.3174
 30
0.0
 10
-21.6351
 20
74.3174
 30
0.0
 10
-13.6809
 20
72.7883
 30
0.0
 10
-6.6511
 20
65.3904
 30
0.0
 10
-3.4316
 20
58.1358
 30
0.0
 10
-3.4316
 20
58.1358
 30
0.0
 10
-2.173
 20
55.3
 30
0.0
 10
-1.9442
 20
51.2964
 30
0.0
 10
-2.0405
 20
49.0377
 30
0.0
 10
-2.0405
 20
49.0377
 30
0.0
 10
-2.0405
 20
49.0377
 30
0.0
 10
-2.3642
 20
48.9457
 30
0.0
 10
-2.3642
 20
48.9457
 30
0.0
 10
-2.3642
 20
48.9457
 30
0.0
 10
-2.4511
 20
52.9563
 30
0.0
 10
-3.4222
 20
57.155
 30
0.0
 10
-5.2761
 20
60.1919
 30
0.0
  0
SPLINE
  5
49
330
1F
100
AcDbEntity
  8
layer 1
 62
     7
100
AcDbSpline
210
0.0
220
0.0
230
1.0
 70
    11
 71
     3
 72
   116
 73
   112
 74
     0
 42
0.0000000001
 43
0.0000000001
 12
1.0
 22
0.0
 32
0.0
 13
1.0
 23
0.0
 33
0.0
 40
0.0
 40
0.0
 40
0.0
 40
0.0
 40
0.0344827586206897
 40
0.0344827586206897
 40
0.0344827586206897
 40
0.0344827586206897
 40
0.0689655172413793
 40
0.0689655172413793
 40
0.0689655172413793
 40
0.0689655172413793
 40
0.103448275862069
 40
0.103448275862069
 40
0.103448275862069
 40
0.103448275862069
 40
0.1379310344827586
 40
0.1379310344827586
 40
0.1379310344827586
 40
0.1379310344827586
 40
0.1724137931034483
 40
0.1724137931034483
 40
0.1724137931034483
 40
0.1724137931034483
 40
0.2068965517241379
 40
0.2068965517241379
 40
0.2068965517241379
 40
0.2068965517241379
 40
0.2413793103448276
 40
0.2413793103448276
 40
0.2413793103448276
 40
0.2413793103448276
 40
0.2758620689655172
 40
0.2758620689655172
 40
0.2758620689655172
 40
0.2758620689655172
 40
0.3103448275862069
 40
0.3103448275862069
 40
0.3103448275862069
 40
0.3103448275862069
 40
0.3448275862068966
 40
0.3448275862068966
 40
0.3448275862068966
 40
0.3448275862068966
 40
0.3793103448275862
 40
0.3793103448275862
 40
0.3793103448275862
 40
0.3793103448275862
 40
0.4137931034482759
 40
0.4137931034482759
 40
0.4137931034482759
 40
0.4137931034482759
 40
0.4482758620689655
 40
0.4482758620689655
 40
0.4482758620689655
 40
0.4482758620689655
 40
0.4827586206896552
 40
0.4827586206896552
 40
0.4827586206896552
 40
0.4827586206896552
 40
0.5172413793103449
 40
0.5172413793103449
 40
0.5172413793103449
 40
0.5172413793103449
 40
0.5517241379310345
 40
0.5517241379310345
 40
0.5517241379310345
 40
0.5517241379310345
 40
0.5862068965517241
 40
0.5862068965517241
 40
0.5862068965517241
 40
0.5862068965517241
 40
0.6206896551724138
 40
0.6206896551724138
 40
0.6206896551724138
 40
0.6206896551724138
 40
0.6551724137931034
 40
0.6551724137931034
 40
0.6551724137931034
 40
0.6551724137931034
 40
0.6896551724137931
 40
0.6896551724137931
 40
0.6896551724137931
 40
0.6896551724137931
 40
0.7241379310344828
 40
0.7241379310344828
 40
0.7241379310344828
 40
0.7241379310344828
 40
0.7586206896551724
 40
0.7586206896551724
 40
0.7586206896551724
 40
0.7586206896551724
 40
0.7931034482758621
 40
0.7931034482758621
 40
0.7931034482758621
 40
0.7931034482758621
 40
0.8275862068965517
 40
0.8275862068965517
 40
0.8275862068965517
 40
0.8275862068965517
 40
0.8620689655172413
 40
0.8620689655172413
 40
0.8620689655172413
 40
0.8620689655172413
 40
0.896551724137931
 40
0.896551724137931
 40
0.896551724137931
 40
0.896551724137931
 40
0.9310344827586207
 40
0.9310344827586207
 40
0.9310344827586207
 40
0.9310344827586207
 40
1.0
 40
1.0
 40
1.0
 40
1.0
 10
-4.1041
 20
38.5967
 30
0.0
 10
-5.8237
 20
30.7452
 30
0.0
 10
-11.5755
 20
23.089
 30
0.0
 10
-20.0615
 20
17.3561
 30
0.0
 10
-20.0615
 20
17.3561
 30
0.0
 10
-24.4641
 20
14.3817
 30
0.0
 10
-30.489
 20
11.4685
 30
0.0
 10
-32.9012
 20
11.1477
 30
0.0
 10
-32.9012
 20
11.1477
 30
0.0
 10
-32.9012
 20
11.1477
 30
0.0
 10
-34.6457
 20
10.9156
 30
0.0
 10
-34.6457
 20
10.9156
 30
0.0
 10
-34.6457
 20
10.9156
 30
0.0
 10
-34.6457
 20
10.9156
 30
0.0
 10
-32.9012
 20
11.6479
 30
0.0
 10
-32.9012
 20
11.6479
 30
0.0
 10
-32.9012
 20
11.6479
 30
0.0
 10
-26.0687
 20
14.5156
 30
0.0
 10
-19.6781
 20
18.6633
 30
0.0
 10
-16.0432
 20
22.5895
 30
0.0
 10
-16.0432
 20
22.5895
 30
0.0
 10
-11.513
 20
27.4826
 30
0.0
 10
-9.6447
 20
31.8514
 30
0.0
 10
-9.256
 20
38.4612
 30
0.0
 10
-9.256
 20
38.4612
 30
0.0
 10
-8.7294
 20
47.4169
 30
0.0
 10
-11.6205
 20
53.9478
 30
0.0
 10
-17.4181
 20
56.8987
 30
0.0
 10
-17.4181
 20
56.8987
 30
0.0
 10
-19.9278
 20
58.176
 30
0.0
 10
-21.535
 20
58.5128
 30
0.0
 10
-25.2159
 20
58.5326
 30
0.0
 10
-25.2159
 20
58.5326
 30
0.0
 10
-30.6519
 20
58.5617
 30
0.0
 10
-34.6834
 20
55.4428
 30
0.0
 10
-35.7308
 20
50.398
 30
0.0
 10
-35.7308
 20
50.398
 30
0.0
 10
-36.1683
 20
48.291
 30
0.0
 10
-36.1251
 20
47.7752
 30
0.0
 10
-35.3685
 20
46.0648
 30
0.0
 10
-35.3685
 20
46.0648
 30
0.0
 10
-34.3621
 20
43.79
 30
0.0
 10
-33.2564
 20
43.0753
 30
0.0
 10
-31.0291
 20
43.2602
 30
0.0
 10
-31.0291
 20
43.2602
 30
0.0
 10
-31.0291
 20
43.2602
 30
0.0
 10
-29.9508
 20
43.3644
 30
0.0
 10
-29.337
 20
43.5818
 30
0.0
 10
-29.337
 20
43.5818
 30
0.0
 10
-28.5731
 20
43.9493
 30
0.0
 10
-28.2291
 20
44.9576
 30
0.0
 10
-29.5387
 20
45.7335
 30
0.0
 10
-29.5387
 20
45.7335
 30
0.0
 10
-30.661
 20
46.7718
 30
0.0
 10
-30.3453
 20
48.4354
 30
0.0
 10
-28.9936
 20
49.0982
 30
0.0
 10
-28.9936
 20
49.0982
 30
0.0
 10
-27.5013
 20
49.83
 30
0.0
 10
-28.6148
 20
52.7796
 30
0.0
 10
-30.7679
 20
52.0916
 30
0.0
 10
-30.7679
 20
52.0916
 30
0.0
 10
-31.5567
 20
51.8395
 30
0.0
 10
-31.5557
 20
51.858
 30
0.0
 10
-30.746
 20
52.5179
 30
0.0
 10
-30.746
 20
52.5179
 30
0.0
 10
-29.1083
 20
53.8522
 30
0.0
 10
-26.3596
 20
53.1258
 30
0.0
 10
-25.1226
 20
51.0315
 30
0.0
 10
-25.1226
 20
51.0315
 30
0.0
 10
-23.3592
 20
48.046
 30
0.0
 10
-24.8014
 20
43.7429
 30
0.0
 10
-28.0619
 20
42.2621
 30
0.0
 10
-28.0619
 20
42.2621
 30
0.0
 10
-30.3123
 20
41.2401
 30
0.0
 10
-31.5656
 20
41.2406
 30
0.0
 10
-33.8196
 20
42.2643
 30
0.0
 10
-33.8196
 20
42.2643
 30
0.0
 10
-36.4358
 20
43.4524
 30
0.0
 10
-37.6662
 20
46.1505
 30
0.0
 10
-37.384
 20
50.0812
 30
0.0
 10
-37.384
 20
50.0812
 30
0.0
 10
-37.1331
 20
53.5756
 30
0.0
 10
-36.0181
 20
55.9465
 30
0.0
 10
-33.5966
 20
58.1341
 30
0.0
 10
-33.5966
 20
58.1341
 30
0.0
 10
-31.3864
 20
60.1309
 30
0.0
 10
-29.6942
 20
60.8422
 30
0.0
 10
-26.3228
 20
61.1911
 30
0.0
 10
-26.3228
 20
61.1911
 30
0.0
 10
-21.9399
 20
61.6449
 30
0.0
 10
-21.568
 20
61.9768
 30
0.0
 10
-23.0728
 20
64.0902
 30
0.0
 10
-23.0728
 20
64.0902
 30
0.0
 10
-23.8194
 20
65.1386
 30
0.0
 10
-23.852
 20
65.4008
 30
0.0
 10
-23.326
 20
66.1202
 30
0.0
 10
-23.326
 20
66.1202
 30
0.0
 10
-22.4654
 20
67.2972
 30
0.0
 10
-17.1077
 20
67.1206
 30
0.0
 10
-14.1639
 20
65.8184
 30
0.0
 10
-14.1639
 20
65.8184
 30
0.0
 10
-9.8547
 20
63.9123
 30
0.0
 10
-6.158
 20
59.2295
 30
0.0
 10
-4.3557
 20
53.3937
 30
0.0
 10
-4.3557
 20
53.3937
 30
0.0
 10
-3.3003
 20
49.977
 30
0.0
 10
-3.1787
 20
42.8221
 30
0.0
 10
-4.1041
 20
38.597
 30
0.0
 10
-4.1041
 20
38.597
 30
0.0
 10
-4.1041
 20
38.597
 30
0.0
 10
-4.1041
 20
38.5967
 30
0.0
 10
-4.1041
 20
38.5967
 30
0.0
  0
SPLINE
  5
4A
330
1F
100
AcDbEntity
  8
layer 1
 62
     7
100
AcDbSpline
210
0.0
220
0.0
230
1.0
 70
    11
 71
     3
 72
    20
 73
    16
 74
     0
 42
0.0000000001
 43
0.0000000001
 12
1.0
 22
0.0
 32
0.0
 13
1.0
 23
0.0
 33
0.0
 40
0.0
 40
0.0
 40
0.0
 40
0.0
 40
0.2
 40
0.2
 40
0.2
 40
0.2
 40
0.4
 40
0.4
 40
0.4
 40
0.4
 40
0.6
 40
0.6
 40
0.6
 40
0.6
 40
1.0
 40
1.0
 40
1.0
 40
1.0
 10
-7.586
 20
55.2766
 30
0.0
 10
-7.9198
 20
54.6168
 30
0.0
 10
-8.4655
 20
54.3036
 30
0.0
 10
-9.2605
 20
54.3151
 30
0.0
 10
-9.2605
 20
54.3151
 30
0.0
 10
-10.5545
 20
54.3341
 30
0.0
 10
-10.7116
 20
54.0898
 30
0.0
 10
-9.9164
 20
53.2947
 30
0.0
 10
-9.9164
 20
53.2947
 30
0.0
 10
-8.271
 20
52.3758
 30
0.0
 10
-6.6196
 20
53.2746
 30
0.0
 10
-6.5197
 20
55.0396
 30
0.0
 10
-6.5197
 20
55.0396
 30
0.0
 10
-6.5281
 20
56.1755
 30
0.0
 10
-7.2033
 20
56.0131
 30
0.0
 10
-7.586
 20
55.2766
 30
0.0
  0
SPLINE
  5
4B
330
1F
100
AcDbEntity
  8
layer 1
 62
     7
100
AcDbSpline
210
0.0
220
0.0
230
1.0
 70
    11
 71
     3
 72
    24
 73
    20
 74
     0
 42
0.0000000001
 43
0.0000000001
 12
1.0
 22
0.0
 32
0.0
 13
1.0
 23
0.0
 33
0.0
 40
0.0
 40
0.0
 40
0.0
 40
0.0
 40
0.1666666666666667
 40
0.1666666666666667
 40
0.1666666666666667
 40
0.1666666666666667
 40
0.3333333333333333
 40
0.3333333333333333
 40
0.3333333333333333
 40
0.3333333333333333
 40
0.5
 40
0.5
 40
0.5
 40
0.5
 40
0.6666666666666666
 40
0.6666666666666666
 40
0.6666666666666666
 40
0.6666666666666666
 40
1.0
 40
1.0
 40
1.0
 40
1.0
 10
-10.5271
 20
60.5347
 30
0.0
 10
-11.3324
 20
61.34
 30
0.0
 10
-11.6471
 20
61.1608
 30
0.0
 10
-11.4291
 20
60.0209
 30
0.0
 10
-11.4291
 20
60.0209
 30
0.0
 10
-11.188
 20
58.7592
 30
0.0
 10
-12.0485
 20
57.4573
 30
0.0
 10
-13.4658
 20
57.7591
 30
0.0
 10
-13.4658
 20
57.7591
 30
0.0
 10
-14.4065
 20
57.9594
 30
0.0
 10
-15.1433
 20
57.8737
 30
0.0
 10
-13.9898
 20
57.1659
 30
0.0
 10
-13.9898
 20
57.1659
 30
0.0
 10
-11.4796
 20
55.3861
 30
0.0
 10
-9.1984
 20
58.5561
 30
0.0
 10
-10.5271
 20
60.5346
 30
0.0
 10
-10.5271
 20
60.5346
 30
0.0
 10
-10.5271
 20
60.5346
 30
0.0
 10
-10.5271
 20
60.5347
 30
0.0
 10
-10.5271
 20
60.5347
 30
0.0
  0
SPLINE
  5
4C
330
1F
100
AcDbEntity
  8
layer 1
 62
     7
100
AcDbSpline
210
0.0
220
0.0
230
1.0
 70
    11
 71
     3
 72
    24
 73
    20
 74
     0
 42
0.0000000001
 43
0.0000000001
 12
1.0
 22
0.0
 32
0.0
 13
1.0
 23
0.0
 33
0.0
 40
0.0
 40
0.0
 40
0.0
 40
0.0
 40
0.1666666666666667
 40
0.1666666666666667
 40
0.1666666666666667
 40
0.1666666666666667
 40
0.3333333333333333
 40
0.3333333333333333
 40
0.3333333333333333
 40
0.3333333333333333
 40
0.5
 40
0.5
 40
0.5
 40
0.5
 40
0.6666666666666666
 40
0.6666666666666666
 40
0.6666666666666666
 40
0.6666666666666666
 40
1.0
 40
1.0
 40
1.0
 40
1.0
 10
-15.4053
 20
63.3411
 30
0.0
 10
-16.2
 20
63.9552
 30
0.0
 10
-16.3454
 20
63.5457
 30
0.0
 10
-16.1937
 20
62.6867
 30
0.0
 10
-16.1937
 20
62.6867
 30
0.0
 10
-15.9529
 20
61.3213
 30
0.0
 10
-16.8364
 20
59.7506
 30
0.0
 10
-17.9254
 20
59.834
 30
0.0
 10
-17.9254
 20
59.834
 30
0.0
 10
-19.316
 20
59.44
 30
0.0
 10
-18.6358
 20
59.2486
 30
0.0
 10
-18.2367
 20
58.8946
 30
0.0
 10
-18.2367
 20
58.8946
 30
0.0
 10
-15.4283
 20
57.7128
 30
0.0
 10
-13.078
 20
61.7026
 30
0.0
 10
-15.4054
 20
63.3411
 30
0.0
 10
-15.4054
 20
63.3411
 30
0.0
 10
-15.4054
 20
63.3411
 30
0.0
 10
-15.4053
 20
63.3411
 30
0.0
 10
-15.4053
 20
63.3411
 30
0.0
  0
SPLINE
  5
4D
330
1F
100
AcDbEntity
  8
layer 1
 62
     7
100
AcDbSpline
210
0.0
220
0.0
230
1.0
 70
    11
 71
     3
 72
    28
 73
    24
 74
     0
 42
0.0000000001
 43
0.0000000001
 12
1.0
 22
0.0
 32
0.0
 13
1.0
 23
0.0
 33
0.0
 40
0.0
 40
0.0
 40
0.0
 40
0.0
 40
0.1428571428571428
 40
0.1428571428571428
 40
0.1428571428571428
 40
0.1428571428571428
 40
0.2857142857142857
 40
0.2857142857142857
 40
0.2857142857142857
 40
0.2857142857142857
 40
0.4285714285714285
 40
0.4285714285714285
 40
0.4285714285714285
 40
0.4285714285714285
 40
0.5714285714285714
 40
0.5714285714285714
 40
0.5714285714285714
 40
0.5714285714285714
 40
0.7142857142857143
 40
0.7142857142857143
 40
0.7142857142857143
 40
0.7142857142857143
 40
1.0
 40
1.0
 40
1.0
 40
1.0
 10
-18.7924
 20
25.0765
 30
0.0
 10
-17.0057
 20
28.5042
 30
0.0
 10
-15.5604
 20
32.8866
 30
0.0
 10
-16.9793
 20
35.9746
 30
0.0
 10
-16.9793
 20
35.9746
 30
0.0
 10
-19.2002
 20
40.2995
 30
0.0
 10
-24.1669
 20
41.07
 30
0.0
 10
-24.6291
 20
37.1675
 30
0.0
 10
-24.6291
 20
37.1675
 30
0.0
 10
-27.1522
 20
43.9181
 30
0.0
 10
-19.1579
 20
44.0851
 30
0.0
 10
-16.982
 20
39.5239
 30
0.0
 10
-16.982
 20
39.5239
 30
0.0
 10
-17.7651
 20
42.2372
 30
0.0
 10
-17.2761
 20
44.5185
 30
0.0
 10
-15.7894
 20
45.9644
 30
0.0
 10
-15.7894
 20
45.9644
 30
0.0
 10
-10.1523
 20
42.5692
 30
0.0
 10
-13.3645
 20
28.2076
 30
0.0
 10
-18.7924
 20
25.0763
 30
0.0
 10
-18.7924
 20
25.0763
 30
0.0
 10
-18.7924
 20
25.0763
 30
0.0
 10
-18.7924
 20
25.0765
 30
0.0
 10
-18.7924
 20
25.0765
 30
0.0
  0
SPLINE
  5
4E
330
1F
100
AcDbEntity
  8
layer 1
 62
     7
100
AcDbSpline
210
0.0
220
0.0
230
1.0
 70
    11
 71
     3
 72
    36
 73
    32
 74
     0
 42
0.0000000001
 43
0.0000000001
 12
1.0
 22
0.0
 32
0.0
 13
1.0
 23
0.0
 33
0.0
 40
0.0
 40
0.0
 40
0.0
 40
0.0
 40
0.1111111111111111
 40
0.1111111111111111
 40
0.1111111111111111
 40
0.1111111111111111
 40
0.2222222222222222
 40
0.2222222222222222
 40
0.2222222222222222
 40
0.2222222222222222
 40
0.3333333333333333
 40
0.3333333333333333
 40
0.3333333333333333
 40
0.3333333333333333
 40
0.4444444444444444
 40
0.4444444444444444
 40
0.4444444444444444
 40
0.4444444444444444
 40
0.5555555555555556
 40
0.5555555555555556
 40
0.5555555555555556
 40
0.5555555555555556
 40
0.6666666666666666
 40
0.6666666666666666
 40
0.6666666666666666
 40
0.6666666666666666
 40
0.7777777777777778
 40
0.7777777777777778
 40
0.7777777777777778
 40
0.7777777777777778
 40
1.0
 40
1.0
 40
1.0
 40
1.0
 10
-27.6686
 20
104.6117
 30
0.0
 10
-26.1949
 20
104.1106
 30
0.0
 10
-25.542
 20
103.1761
 30
0.0
 10
-25.2997
 20
102.1777
 30
0.0
 10
-25.2997
 20
102.1777
 30
0.0
 10
-24.9359
 20
106.9025
 30
0.0
 10
-22.7077
 20
107.078
 30
0.0
 10
-21.4924
 20
107.4855
 30
0.0
 10
-21.4924
 20
107.4855
 30
0.0
 10
-17.4814
 20
107.5104
 30
0.0
 10
-16.3889
 20
105.6347
 30
0.0
 10
-16.8354
 20
102.0085
 30
0.0
 10
-16.8354
 20
102.0085
 30
0.0
 10
-17.9285
 20
105.0111
 30
0.0
 10
-21.6282
 20
105.0062
 30
0.0
 10
-22.0733
 20
102.5911
 30
0.0
 10
-22.0733
 20
102.5911
 30
0.0
 10
-23.0313
 20
96.2401
 30
0.0
 10
-19.3534
 20
91.5192
 30
0.0
 10
-16.0551
 20
88.2656
 30
0.0
 10
-16.0551
 20
88.2656
 30
0.0
 10
-18.3887
 20
89.1798
 30
0.0
 10
-22.3743
 20
91.585
 30
0.0
 10
-24.8536
 20
94.6293
 30
0.0
 10
-24.8536
 20
94.6293
 30
0.0
 10
-27.9457
 20
98.4257
 30
0.0
 10
-29.1879
 20
103.0146
 30
0.0
 10
-27.6686
 20
104.6115
 30
0.0
 10
-27.6686
 20
104.6115
 30
0.0
 10
-27.6686
 20
104.6115
 30
0.0
 10
-27.6686
 20
104.6117
 30
0.0
 10
-27.6686
 20
104.6117
 30
0.0
  0
SPLINE
  5
4F
330
1F
100
AcDbEntity
  8
layer 1
 62
     7
100
AcDbSpline
210
0.0
220
0.0
230
1.0
 70
    11
 71
     3
 72
    64
 73
    60
 74
     0
 42
0.0000000001
 43
0.0000000001
 12
1.0
 22
0.0
 32
0.0
 13
1.0
 23
0.0
 33
0.0
 40
0.0
 40
0.0
 40
0.0
 40
0.0
 40
0.0625
 40
0.0625
 40
0.0625
 40
0.0625
 40
0.125
 40
0.125
 40
0.125
 40
0.125
 40
0.1875
 40
0.1875
 40
0.1875
 40
0.1875
 40
0.25
 40
0.25
 40
0.25
 40
0.25
 40
0.3125
 40
0.3125
 40
0.3125
 40
0.3125
 40
0.375
 40
0.375
 40
0.375
 40
0.375
 40
0.4375
 40
0.4375
 40
0.4375
 40
0.4375
 40
0.5
 40
0.5
 40
0.5
 40
0.5
 40
0.5625
 40
0.5625
 40
0.5625
 40
0.5625
 40
0.625
 40
0.625
 40
0.625
 40
0.625
 40
0.6875
 40
0.6875
 40
0.6875
 40
0.6875
 40
0.75
 40
0.75
 40
0.75
 40
0.75
 40
0.8125
 40
0.8125
 40
0.8125
 40
0.8125
 40
0.875
 40
0.875
 40
0.875
 40
0.875
 40
1.0
 40
1.0
 40
1.0
 40
1.0
 10
-32.8126
 20
14.3974
 30
0.0
 10
-30.4681
 20
15.9573
 30
0.0
 10
-28.5738
 20
17.6896
 30
0.0
 10
-27.4016
 20
20.2504
 30
0.0
 10
-27.4016
 20
20.2504
 30
0.0
 10
-26.3014
 20
22.6724
 30
0.0
 10
-26.3087
 20
27.213
 30
0.0
 10
-27.4167
 20
29.7978
 30
0.0
 10
-27.4167
 20
29.7978
 30
0.0
 10
-29.2165
 20
33.4187
 30
0.0
 10
-32.7569
 20
34.0095
 30
0.0
 10
-35.2241
 20
32.9456
 30
0.0
 10
-35.2241
 20
32.9456
 30
0.0
 10
-37.1542
 20
32.1134
 30
0.0
 10
-37.4115
 20
28.7544
 30
0.0
 10
-34.841
 20
27.8069
 30
0.0
 10
-34.841
 20
27.8069
 30
0.0
 10
-34.2675
 20
27.75
 30
0.0
 10
-33.8772
 20
27.9038
 30
0.0
 10
-34.1912
 20
28.3151
 30
0.0
 10
-34.1912
 20
28.3151
 30
0.0
 10
-34.8488
 20
29.0511
 30
0.0
 10
-34.9381
 20
29.4405
 30
0.0
 10
-34.5797
 20
30.0087
 30
0.0
 10
-34.5797
 20
30.0087
 30
0.0
 10
-33.9169
 20
31.0594
 30
0.0
 10
-32.2034
 20
30.9484
 30
0.0
 10
-31.789
 20
29.8282
 30
0.0
 10
-31.789
 20
29.8282
 30
0.0
 10
-31.3971
 20
28.7691
 30
0.0
 10
-31.4695
 20
27.236
 30
0.0
 10
-33.0162
 20
26.4873
 30
0.0
 10
-33.0162
 20
26.4873
 30
0.0
 10
-35.1966
 20
25.6372
 30
0.0
 10
-36.9063
 20
26.4891
 30
0.0
 10
-37.9415
 20
27.9519
 30
0.0
 10
-37.9415
 20
27.9519
 30
0.0
 10
-39.2182
 20
29.9559
 30
0.0
 10
-38.9324
 20
32.8594
 30
0.0
 10
-37.4267
 20
34.3183
 30
0.0
 10
-37.4267
 20
34.3183
 30
0.0
 10
-33.8569
 20
37.9151
 30
0.0
 10
-28.701
 20
36.1098
 30
0.0
 10
-26.3583
 20
32.5533
 30
0.0
 10
-26.3583
 20
32.5533
 30
0.0
 10
-25.6384
 20
31.4527
 30
0.0
 10
-25.1975
 20
31.2595
 30
0.0
 10
-25.0308
 20
32.0082
 30
0.0
 10
-25.0308
 20
32.0082
 30
0.0
 10
-24.6454
 20
33.7395
 30
0.0
 10
-23.3099
 20
33.0401
 30
0.0
 10
-22.6471
 20
31.2916
 30
0.0
 10
-22.6471
 20
31.2916
 30
0.0
 10
-19.3222
 20
22.9195
 30
0.0
 10
-25.7286
 20
16.2744
 30
0.0
 10
-32.8126
 20
14.3976
 30
0.0
 10
-32.8126
 20
14.3976
 30
0.0
 10
-32.8126
 20
14.3976
 30
0.0
 10
-32.8126
 20
14.3974
 30
0.0
 10
-32.8126
 20
14.3974
 30
0.0
  0
SPLINE
  5
50
330
1F
100
AcDbEntity
  8
layer 1
 62
     7
100
AcDbSpline
210
0.0
220
0.0
230
1.0
 70
    11
 71
     3
 72
   236
 73
   232
 74
     0
 42
0.0000000001
 43
0.0000000001
 12
1.0
 22
0.0
 32
0.0
 13
1.0
 23
0.0
 33
0.0
 40
0.0
 40
0.0
 40
0.0
 40
0.0
 40
0.0169491525423729
 40
0.0169491525423729
 40
0.0169491525423729
 40
0.0169491525423729
 40
0.0338983050847458
 40
0.0338983050847458
 40
0.0338983050847458
 40
0.0338983050847458
 40
0.0508474576271186
 40
0.0508474576271186
 40
0.0508474576271186
 40
0.0508474576271186
 40
0.0677966101694915
 40
0.0677966101694915
 40
0.0677966101694915
 40
0.0677966101694915
 40
0.0847457627118644
 40
0.0847457627118644
 40
0.0847457627118644
 40
0.0847457627118644
 40
0.1016949152542373
 40
0.1016949152542373
 40
0.1016949152542373
 40
0.1016949152542373
 40
0.1186440677966102
 40
0.1186440677966102
 40
0.1186440677966102
 40
0.1186440677966102
 40
0.1355932203389831
 40
0.1355932203389831
 40
0.1355932203389831
 40
0.1355932203389831
 40
0.1525423728813559
 40
0.1525423728813559
 40
0.1525423728813559
 40
0.1525423728813559
 40
0.1694915254237288
 40
0.1694915254237288
 40
0.1694915254237288
 40
0.1694915254237288
 40
0.1864406779661017
 40
0.1864406779661017
 40
0.1864406779661017
 40
0.1864406779661017
 40
0.2033898305084746
 40
0.2033898305084746
 40
0.2033898305084746
 40
0.2033898305084746
 40
0.2203389830508475
 40
0.2203389830508475
 40
0.2203389830508475
 40
0.2203389830508475
 40
0.2372881355932203
 40
0.2372881355932203
 40
0.2372881355932203
 40
0.2372881355932203
 40
0.2542372881355932
 40
0.2542372881355932
 40
0.2542372881355932
 40
0.2542372881355932
 40
0.2711864406779661
 40
0.2711864406779661
 40
0.2711864406779661
 40
0.2711864406779661
 40
0.288135593220339
 40
0.288135593220339
 40
0.288135593220339
 40
0.288135593220339
 40
0.3050847457627119
 40
0.3050847457627119
 40
0.3050847457627119
 40
0.3050847457627119
 40
0.3220338983050847
 40
0.3220338983050847
 40
0.3220338983050847
 40
0.3220338983050847
 40
0.3389830508474576
 40
0.3389830508474576
 40
0.3389830508474576
 40
0.3389830508474576
 40
0.3559322033898305
 40
0.3559322033898305
 40
0.3559322033898305
 40
0.3559322033898305
 40
0.3728813559322034
 40
0.3728813559322034
 40
0.3728813559322034
 40
0.3728813559322034
 40
0.3898305084745763
 40
0.3898305084745763
 40
0.3898305084745763
 40
0.3898305084745763
 40
0.4067796610169492
 40
0.4067796610169492
 40
0.4067796610169492
 40
0.4067796610169492
 40
0.423728813559322
 40
0.423728813559322
 40
0.423728813559322
 40
0.423728813559322
 40
0.4406779661016949
 40
0.4406779661016949
 40
0.4406779661016949
 40
0.4406779661016949
 40
0.4576271186440678
 40
0.4576271186440678
 40
0.4576271186440678
 40
0.4576271186440678
 40
0.4745762711864407
 40
0.4745762711864407
 40
0.4745762711864407
 40
0.4745762711864407
 40
0.4915254237288136
 40
0.4915254237288136
 40
0.4915254237288136
 40
0.4915254237288136
 40
0.5084745762711864
 40
0.5084745762711864
 40
0.5084745762711864
 40
0.5084745762711864
 40
0.5254237288135594
 40
0.5254237288135594
 40
0.5254237288135594
 40
0.5254237288135594
 40
0.5423728813559322
 40
0.5423728813559322
 40
0.5423728813559322
 40
0.5423728813559322
 40
0.559322033898305
 40
0.559322033898305
 40
0.559322033898305
 40
0.559322033898305
 40
0.576271186440678
 40
0.576271186440678
 40
0.576271186440678
 40
0.576271186440678
 40
0.5932203389830508
 40
0.5932203389830508
 40
0.5932203389830508
 40
0.5932203389830508
 40
0.6101694915254238
 40
0.6101694915254238
 40
0.6101694915254238
 40
0.6101694915254238
 40
0.6271186440677966
 40
0.6271186440677966
 40
0.6271186440677966
 40
0.6271186440677966
 40
0.6440677966101694
 40
0.6440677966101694
 40
0.6440677966101694
 40
0.6440677966101694
 40
0.6610169491525424
 40
0.6610169491525424
 40
0.6610169491525424
 40
0.6610169491525424
 40
0.6779661016949152
 40
0.6779661016949152
 40
0.6779661016949152
 40
0.6779661016949152
 40
0.6949152542372882
 40
0.6949152542372882
 40
0.6949152542372882
 40
0.6949152542372882
 40
0.711864406779661
 40
0.711864406779661
 40
0.711864406779661
 40
0.711864406779661
 40
0.7288135593220338
 40
0.7288135593220338
 40
0.7288135593220338
 40
0.7288135593220338
 40
0.7457627118644068
 40
0.7457627118644068
 40
0.7457627118644068
 40
0.7457627118644068
 40
0.7627118644067796
 40
0.7627118644067796
 40
0.7627118644067796
 40
0.7627118644067796
 40
0.7796610169491526
 40
0.7796610169491526
 40
0.7796610169491526
 40
0.7796610169491526
 40
0.7966101694915254
 40
0.7966101694915254
 40
0.7966101694915254
 40
0.7966101694915254
 40
0.8135593220338984
 40
0.8135593220338984
 40
0.8135593220338984
 40
0.8135593220338984
 40
0.8305084745762712
 40
0.8305084745762712
 40
0.8305084745762712
 40
0.8305084745762712
 40
0.847457627118644
 40
0.847457627118644
 40
0.847457627118644
 40
0.847457627118644
 40
0.864406779661017
 40
0.864406779661017
 40
0.864406779661017
 40
0.864406779661017
 40
0.8813559322033898
 40
0.8813559322033898
 40
0.8813559322033898
 40
0.8813559322033898
 40
0.8983050847457628
 40
0.8983050847457628
 40
0.8983050847457628
 40
0.8983050847457628
 40
0.9152542372881356
 40
0.9152542372881356
 40
0.9152542372881356
 40
0.9152542372881356
 40
0.9322033898305084
 40
0.9322033898305084
 40
0.9322033898305084
 40
0.9322033898305084
 40
0.9491525423728814
 40
0.9491525423728814
 40
0.9491525423728814
 40
0.9491525423728814
 40
0.9661016949152542
 40
0.9661016949152542
 40
0.9661016949152542
 40
0.9661016949152542
 40
1.0
 40
1.0
 40
1.0
 40
1.0
 10
-35.7761
 20
8.4588
 30
0.0
 10
-35.8002
 20
8.881
 30
0.0
 10
-36.0214
 20
9.3704
 30
0.0
 10
-36.4393
 20
9.967
 30
0.0
 10
-36.4393
 20
9.967
 30
0.0
 10
-37.1034
 20
10.9151
 30
0.0
 10
-37.0822
 20
11.0348
 30
0.0
 10
-36.0521
 20
12.1356
 30
0.0
 10
-36.0521
 20
12.1356
 30
0.0
 10
-34.5598
 20
13.7305
 30
0.0
 10
-34.308
 20
14.8372
 30
0.0
 10
-34.9011
 20
17.1929
 30
0.0
 10
-34.9011
 20
17.1929
 30
0.0
 10
-35.4695
 20
19.4503
 30
0.0
 10
-36.2143
 20
20.4782
 30
0.0
 10
-41.19
 20
25.873
 30
0.0
 10
-41.19
 20
25.873
 30
0.0
 10
-45.452
 20
30.4938
 30
0.0
 10
-47.512
 20
34.123
 30
0.0
 10
-47.512
 20
37.0101
 30
0.0
 10
-47.512
 20
37.0101
 30
0.0
 10
-47.512
 20
38.1574
 30
0.0
 10
-47.2133
 20
39.4833
 30
0.0
 10
-46.8323
 20
40.0274
 30
0.0
 10
-46.8323
 20
40.0274
 30
0.0
 10
-45.764
 20
42.0535
 30
0.0
 10
-44.3139
 20
42.5066
 30
0.0
 10
-43.915
 20
42.4888
 30
0.0
 10
-43.915
 20
42.4888
 30
0.0
 10
-42.2814
 20
42.7537
 30
0.0
 10
-42.2809
 20
42.399
 30
0.0
 10
-42.5508
 20
41.0501
 30
0.0
 10
-42.5508
 20
41.0501
 30
0.0
 10
-42.7782
 20
39.9125
 30
0.0
 10
-42.5996
 20
39.4941
 30
0.0
 10
-41.4125
 20
38.3853
 30
0.0
 10
-41.4125
 20
38.3853
 30
0.0
 10
-40.0402
 20
37.0685
 30
0.0
 10
-40.1103
 20
35.8358
 30
0.0
 10
-42.4962
 20
34.9452
 30
0.0
 10
-42.4962
 20
34.9452
 30
0.0
 10
-39.3884
 20
33.9537
 30
0.0
 10
-35.8218
 20
36.9111
 30
0.0
 10
-37.1356
 20
41.2711
 30
0.0
 10
-37.1356
 20
41.2711
 30
0.0
 10
-38.4578
 20
44.049
 30
0.0
 10
-40.5151
 20
44.7803
 30
0.0
 10
-43.3108
 20
44.7803
 30
0.0
 10
-43.3108
 20
44.7803
 30
0.0
 10
-48.7798
 20
44.4234
 30
0.0
 10
-51.7228
 20
36.9694
 30
0.0
 10
-47.1612
 20
30.7829
 30
0.0
 10
-47.1612
 20
30.7829
 30
0.0
 10
-47.0025
 20
30.158
 30
0.0
 10
-48.1112
 20
30.7455
 30
0.0
 10
-48.6149
 20
30.5185
 30
0.0
 10
-48.6149
 20
30.5185
 30
0.0
 10
-49.528
 20
30.1069
 30
0.0
 10
-49.5476
 20
29.8879
 30
0.0
 10
-48.7252
 20
28.0362
 30
0.0
 10
-48.7252
 20
28.0362
 30
0.0
 10
-48.0268
 20
26.4634
 30
0.0
 10
-47.0237
 20
25.932
 30
0.0
 10
-44.5247
 20
24.6736
 30
0.0
 10
-44.5247
 20
24.6736
 30
0.0
 10
-42.9017
 20
23.8563
 30
0.0
 10
-41.3156
 20
22.8767
 30
0.0
 10
-41.0003
 20
22.4965
 30
0.0
 10
-41.0003
 20
22.4965
 30
0.0
 10
-40.2895
 20
21.64
 30
0.0
 10
-40.7064
 20
21.5268
 30
0.0
 10
-42.2207
 20
22.4301
 30
0.0
 10
-42.2207
 20
22.4301
 30
0.0
 10
-44.2778
 20
23.6569
 30
0.0
 10
-46.189
 20
23.061
 30
0.0
 10
-47.0943
 20
22.1557
 30
0.0
 10
-47.0943
 20
22.1557
 30
0.0
 10
-47.6744
 20
21.5756
 30
0.0
 10
-47.4401
 20
21.1854
 30
0.0
 10
-45.918
 20
19.5853
 30
0.0
 10
-45.918
 20
19.5853
 30
0.0
 10
-44.346
 20
17.9329
 30
0.0
 10
-43.5373
 20
17.8803
 30
0.0
 10
-41.494
 20
17.8803
 30
0.0
 10
-41.494
 20
17.8803
 30
0.0
 10
-40.2529
 20
18.1001
 30
0.0
 10
-35.1006
 20
17.8368
 30
0.0
 10
-36.9435
 20
13.246
 30
0.0
 10
-36.9435
 20
13.246
 30
0.0
 10
-37.5556
 20
12.6338
 30
0.0
 10
-37.6967
 20
12.628
 30
0.0
 10
-38.1129
 20
13.1972
 30
0.0
 10
-38.1129
 20
13.1972
 30
0.0
 10
-39.0626
 20
14.4957
 30
0.0
 10
-41.6255
 20
15.9664
 30
0.0
 10
-43.4518
 20
15.9682
 30
0.0
 10
-43.4518
 20
15.9682
 30
0.0
 10
-44.4571
 20
15.969
 30
0.0
 10
-46.07
 20
15.8091
 30
0.0
 10
-46.0317
 20
15.604
 30
0.0
 10
-46.0317
 20
15.604
 30
0.0
 10
-45.7554
 20
14.1253
 30
0.0
 10
-44.1519
 20
12.0764
 30
0.0
 10
-42.856
 20
11.7918
 30
0.0
 10
-42.856
 20
11.7918
 30
0.0
 10
-42.0904
 20
11.6235
 30
0.0
 10
-40.9698
 20
10.9895
 30
0.0
 10
-40.9698
 20
10.6082
 30
0.0
 10
-40.9698
 20
10.6082
 30
0.0
 10
-40.9698
 20
10.0654
 30
0.0
 10
-41.3626
 20
10.0018
 30
0.0
 10
-43.1722
 20
10.2507
 30
0.0
 10
-43.1722
 20
10.2507
 30
0.0
 10
-46.0917
 20
10.6521
 30
0.0
 10
-48.2928
 20
9.78
 30
0.0
 10
-48.1763
 20
8.5413
 30
0.0
 10
-48.1763
 20
8.5413
 30
0.0
 10
-48.2928
 20
7.3025
 30
0.0
 10
-46.0917
 20
6.266
 30
0.0
 10
-43.1722
 20
6.6673
 30
0.0
 10
-43.1722
 20
6.6673
 30
0.0
 10
-41.3626
 20
6.9163
 30
0.0
 10
-40.9698
 20
6.8525
 30
0.0
 10
-40.9698
 20
6.3098
 30
0.0
 10
-40.9698
 20
6.3098
 30
0.0
 10
-40.9698
 20
5.9285
 30
0.0
 10
-42.0904
 20
5.2946
 30
0.0
 10
-42.856
 20
5.1262
 30
0.0
 10
-42.856
 20
5.1262
 30
0.0
 10
-44.1519
 20
4.8416
 30
0.0
 10
-45.7554
 20
2.7928
 30
0.0
 10
-46.0317
 20
1.314
 30
0.0
 10
-46.0317
 20
1.314
 30
0.0
 10
-46.07
 20
1.1089
 30
0.0
 10
-44.4571
 20
0.949
 30
0.0
 10
-43.4518
 20
0.9498
 30
0.0
 10
-43.4518
 20
0.9498
 30
0.0
 10
-41.6255
 20
0.9516
 30
0.0
 10
-39.0626
 20
2.4224
 30
0.0
 10
-38.1129
 20
3.7208
 30
0.0
 10
-38.1129
 20
3.7208
 30
0.0
 10
-37.6967
 20
4.29
 30
0.0
 10
-37.5556
 20
4.2842
 30
0.0
 10
-36.9435
 20
3.672
 30
0.0
 10
-36.9435
 20
3.672
 30
0.0
 10
-35.1006
 20
-0.9188
 30
0.0
 10
-40.2529
 20
-1.1821
 30
0.0
 10
-41.494
 20
-0.9623
 30
0.0
 10
-41.494
 20
-0.9623
 30
0.0
 10
-43.5373
 20
-0.9623
 30
0.0
 10
-44.346
 20
-1.0149
 30
0.0
 10
-45.918
 20
-2.6673
 30
0.0
 10
-45.918
 20
-2.6673
 30
0.0
 10
-47.4401
 20
-4.2674
 30
0.0
 10
-47.6744
 20
-4.6576
 30
0.0
 10
-47.0943
 20
-5.2376
 30
0.0
 10
-47.0943
 20
-5.2376
 30
0.0
 10
-46.189
 20
-6.1429
 30
0.0
 10
-44.2778
 20
-6.7388
 30
0.0
 10
-42.2207
 20
-5.5121
 30
0.0
 10
-42.2207
 20
-5.5121
 30
0.0
 10
-40.7064
 20
-4.6088
 30
0.0
 10
-40.2895
 20
-4.722
 30
0.0
 10
-41.0003
 20
-5.5785
 30
0.0
 10
-41.0003
 20
-5.5785
 30
0.0
 10
-41.3156
 20
-5.9587
 30
0.0
 10
-42.9017
 20
-6.9383
 30
0.0
 10
-44.5247
 20
-7.7556
 30
0.0
 10
-44.5247
 20
-7.7556
 30
0.0
 10
-47.0237
 20
-9.014
 30
0.0
 10
-48.0268
 20
-9.5454
 30
0.0
 10
-48.7252
 20
-11.1182
 30
0.0
 10
-48.7252
 20
-11.1182
 30
0.0
 10
-49.5476
 20
-12.9698
 30
0.0
 10
-49.528
 20
-13.1889
 30
0.0
 10
-48.6149
 20
-13.6005
 30
0.0
 10
-48.6149
 20
-13.6005
 30
0.0
 10
-48.1112
 20
-13.8275
 30
0.0
 10
-47.0025
 20
-13.24
 30
0.0
 10
-47.1612
 20
-13.8649
 30
0.0
 10
-47.1612
 20
-13.8649
 30
0.0
 10
-51.7228
 20
-20.0514
 30
0.0
 10
-48.7798
 20
-27.5054
 30
0.0
 10
-43.3108
 20
-27.8622
 30
0.0
 10
-43.3108
 20
-27.8622
 30
0.0
 10
-40.5151
 20
-27.8622
 30
0.0
 10
-38.4578
 20
-27.131
 30
0.0
 10
-37.1356
 20
-24.3531
 30
0.0
 10
-37.1356
 20
-24.3531
 30
0.0
 10
-35.8218
 20
-19.9931
 30
0.0
 10
-39.3884
 20
-17.0356
 30
0.0
 10
-42.4962
 20
-18.0272
 30
0.0
 10
-42.4962
 20
-18.0272
 30
0.0
 10
-40.1103
 20
-18.9178
 30
0.0
 10
-40.0402
 20
-20.1505
 30
0.0
 10
-41.4125
 20
-21.4672
 30
0.0
 10
-41.4125
 20
-21.4672
 30
0.0
 10
-42.5996
 20
-22.5761
 30
0.0
 10
-42.7782
 20
-22.9945
 30
0.0
 10
-42.5508
 20
-24.1321
 30
0.0
 10
-42.5508
 20
-24.1321
 30
0.0
 10
-42.2809
 20
-25.481
 30
0.0
 10
-42.2814
 20
-25.8357
 30
0.0
 10
-43.915
 20
-25.5708
 30
0.0
 10
-43.915
 20
-25.5708
 30
0.0
 10
-44.3139
 20
-25.5886
 30
0.0
 10
-45.764
 20
-25.1354
 30
0.0
 10
-46.8323
 20
-23.1094
 30
0.0
 10
-46.8323
 20
-23.1094
 30
0.0
 10
-47.2133
 20
-22.5652
 30
0.0
 10
-47.512
 20
-21.2396
 30
0.0
 10
-47.512
 20
-20.0923
 30
0.0
 10
-47.512
 20
-20.0923
 30
0.0
 10
-47.512
 20
-17.2051
 30
0.0
 10
-45.452
 20
-13.576
 30
0.0
 10
-41.19
 20
-8.9551
 30
0.0
 10
-41.19
 20
-8.9551
 30
0.0
 10
-36.2143
 20
-3.5604
 30
0.0
 10
-35.4695
 20
-2.5324
 30
0.0
 10
-34.9011
 20
-0.2751
 30
0.0
 10
-34.9011
 20
-0.2751
 30
0.0
 10
-34.308
 20
2.0806
 30
0.0
 10
-34.5598
 20
3.1874
 30
0.0
 10
-36.0521
 20
4.7822
 30
0.0
 10
-36.0521
 20
4.7822
 30
0.0
 10
-37.0822
 20
5.883
 30
0.0
 10
-37.1034
 20
6.0027
 30
0.0
 10
-36.4393
 20
6.9509
 30
0.0
 10
-36.4393
 20
6.9509
 30
0.0
 10
-36.0214
 20
7.5474
 30
0.0
 10
-35.8002
 20
8.0368
 30
0.0
 10
-35.7761
 20
8.4588
 30
0.0
  0
SPLINE
  5
51
330
1F
100
AcDbEntity
  8
layer 1
 62
     7
100
AcDbSpline
210
0.0
220
0.0
230
1.0
 70
    11
 71
     3
 72
    40
 73
    36
 74
     0
 42
0.0000000001
 43
0.0000000001
 12
1.0
 22
0.0
 32
0.0
 13
1.0
 23
0.0
 33
0.0
 40
0.0
 40
0.0
 40
0.0
 40
0.0
 40
0.1
 40
0.1
 40
0.1
 40
0.1
 40
0.2
 40
0.2
 40
0.2
 40
0.2
 40
0.3
 40
0.3
 40
0.3
 40
0.3
 40
0.4
 40
0.4
 40
0.4
 40
0.4
 40
0.5
 40
0.5
 40
0.5
 40
0.5
 40
0.6
 40
0.6
 40
0.6
 40
0.6
 40
0.7
 40
0.7
 40
0.7
 40
0.7
 40
0.8
 40
0.8
 40
0.8
 40
0.8
 40
1.0
 40
1.0
 40
1.0
 40
1.0
 10
-39.6685
 20
74.8864
 30
0.0
 10
-41.5817
 20
72.4544
 30
0.0
 10
-45.2441
 20
71.1767
 30
0.0
 10
-46.5525
 20
72.485
 30
0.0
 10
-46.5525
 20
72.485
 30
0.0
 10
-47.2934
 20
73.226
 30
0.0
 10
-47.2011
 20
74.4651
 30
0.0
 10
-46.3703
 20
74.93
 30
0.0
 10
-46.3703
 20
74.93
 30
0.0
 10
-45.9432
 20
75.169
 30
0.0
 10
-45.5346
 20
75.336
 30
0.0
 10
-45.68
 20
75.697
 30
0.0
 10
-45.68
 20
75.697
 30
0.0
 10
-45.755
 20
75.8831
 30
0.0
 10
-46.1051
 20
76.1518
 30
0.0
 10
-46.4013
 20
76.4488
 30
0.0
 10
-46.4013
 20
76.4488
 30
0.0
 10
-47.1386
 20
77.1884
 30
0.0
 10
-47.372
 20
78.1478
 30
0.0
 10
-47.0133
 20
78.8182
 30
0.0
 10
-47.0133
 20
78.8182
 30
0.0
 10
-46.1517
 20
80.4282
 30
0.0
 10
-44.5546
 20
80.023
 30
0.0
 10
-42.0945
 20
78.3286
 30
0.0
 10
-42.0945
 20
78.3286
 30
0.0
 10
-40.8412
 20
77.4654
 30
0.0
 10
-39.6847
 20
76.9591
 30
0.0
 10
-38.3693
 20
76.728
 30
0.0
 10
-38.3693
 20
76.728
 30
0.0
 10
-39.2533
 20
75.4682
 30
0.0
 10
-38.6719
 20
76.1537
 30
0.0
 10
-39.6687
 20
74.8864
 30
0.0
 10
-39.6687
 20
74.8864
 30
0.0
 10
-39.6687
 20
74.8864
 30
0.0
 10
-39.6685
 20
74.8864
 30
0.0
 10
-39.6685
 20
74.8864
 30
0.0
  0
SPLINE
  5
52
330
1F
100
AcDbEntity
  8
layer 1
 62
     7
100
AcDbSpline
210
0.0
220
0.0
230
1.0
 70
    11
 71
     3
 72
    52
 73
    48
 74
     0
 42
0.0000000001
 43
0.0000000001
 12
1.0
 22
0.0
 32
0.0
 13
1.0
 23
0.0
 33
0.0
 40
0.0
 40
0.0
 40
0.0
 40
0.0
 40
0.0769230769230769
 40
0.0769230769230769
 40
0.0769230769230769
 40
0.0769230769230769
 40
0.1538461538461539
 40
0.1538461538461539
 40
0.1538461538461539
 40
0.1538461538461539
 40
0.2307692307692308
 40
0.2307692307692308
 40
0.2307692307692308
 40
0.2307692307692308
 40
0.3076923076923077
 40
0.3076923076923077
 40
0.3076923076923077
 40
0.3076923076923077
 40
0.3846153846153846
 40
0.3846153846153846
 40
0.3846153846153846
 40
0.3846153846153846
 40
0.4615384615384616
 40
0.4615384615384616
 40
0.4615384615384616
 40
0.4615384615384616
 40
0.5384615384615384
 40
0.5384615384615384
 40
0.5384615384615384
 40
0.5384615384615384
 40
0.6153846153846154
 40
0.6153846153846154
 40
0.6153846153846154
 40
0.6153846153846154
 40
0.6923076923076923
 40
0.6923076923076923
 40
0.6923076923076923
 40
0.6923076923076923
 40
0.7692307692307693
 40
0.7692307692307693
 40
0.7692307692307693
 40
0.7692307692307693
 40
0.8461538461538461
 40
0.8461538461538461
 40
0.8461538461538461
 40
0.8461538461538461
 40
1.0
 40
1.0
 40
1.0
 40
1.0
 10
3.7163
 20
106.7299
 30
0.0
 10
4.0023
 20
106.6242
 30
0.0
 10
3.9156
 20
106.5293
 30
0.0
 10
4.206
 20
106.7088
 30
0.0
 10
4.206
 20
106.7088
 30
0.0
 10
4.3995
 20
112.1214
 30
0.0
 10
3.3597
 20
119.5445
 30
0.0
 10
0.1011
 20
121.6831
 30
0.0
 10
0.1011
 20
121.6831
 30
0.0
 10
-3.5404
 20
124.962
 30
0.0
 10
-9.6738
 20
125.4194
 30
0.0
 10
-7.9131
 20
121.3857
 30
0.0
 10
-7.9131
 20
121.3857
 30
0.0
 10
-11.0751
 20
121.0826
 30
0.0
 10
-13.6807
 20
120.0382
 30
0.0
 10
-13.7923
 20
114.7214
 30
0.0
 10
-13.7923
 20
114.7214
 30
0.0
 10
-12.9547
 20
109.4466
 30
0.0
 10
-8.9422
 20
108.2583
 30
0.0
 10
-6.2243
 20
109.3168
 30
0.0
 10
-6.2243
 20
109.3168
 30
0.0
 10
-3.7466
 20
110.3572
 30
0.0
 10
-2.7557
 20
113.5817
 30
0.0
 10
-4.1041
 20
114.4956
 30
0.0
 10
-4.1041
 20
114.4956
 30
0.0
 10
-4.9281
 20
112.0205
 30
0.0
 10
-6.0354
 20
110.8888
 30
0.0
 10
-6.9414
 20
112.4014
 30
0.0
 10
-6.9414
 20
112.4014
 30
0.0
 10
-7.5763
 20
113.3733
 30
0.0
 10
-8.958
 20
113.0234
 30
0.0
 10
-9.08
 20
112.3882
 30
0.0
 10
-9.08
 20
112.3882
 30
0.0
 10
-9.1207
 20
112.1759
 30
0.0
 10
-9.9294
 20
111.8731
 30
0.0
 10
-10.5538
 20
112.6464
 30
0.0
 10
-10.5538
 20
112.6464
 30
0.0
 10
-12.9668
 20
114.3202
 30
0.0
 10
-10.7144
 20
118.2907
 30
0.0
 10
-9.3393
 20
118.8103
 30
0.0
 10
-9.3393
 20
118.8103
 30
0.0
 10
-1.4517
 20
121.6848
 30
0.0
 10
3.0025
 20
114.8228
 30
0.0
 10
3.7164
 20
106.7299
 30
0.0
 10
3.7164
 20
106.7299
 30
0.0
 10
3.7164
 20
106.7299
 30
0.0
 10
3.7163
 20
106.7299
 30
0.0
 10
3.7163
 20
106.7299
 30
0.0
  0
SPLINE
  5
53
330
1F
100
AcDbEntity
  8
layer 1
 62
     7
100
AcDbSpline
210
0.0
220
0.0
230
1.0
 70
    11
 71
     3
 72
    20
 73
    16
 74
     0
 42
0.0000000001
 43
0.0000000001
 12
1.0
 22
0.0
 32
0.0
 13
1.0
 23
0.0
 33
0.0
 40
0.0
 40
0.0
 40
0.0
 40
0.0
 40
0.2
 40
0.2
 40
0.2
 40
0.2
 40
0.4
 40
0.4
 40
0.4
 40
0.4
 40
0.6
 40
0.6
 40
0.6
 40
0.6
 40
1.0
 40
1.0
 40
1.0
 40
1.0
 10
10.8128
 20
101.8643
 30
0.0
 10
12.3205
 20
98.3944
 30
0.0
 10
10.6361
 20
96.6194
 30
0.0
 10
5.6622
 20
92.0291
 30
0.0
 10
5.6622
 20
92.0291
 30
0.0
 10
0.6883
 20
96.6194
 30
0.0
 10
-0.996
 20
98.3944
 30
0.0
 10
0.5116
 20
101.8643
 30
0.0
 10
0.5116
 20
101.8643
 30
0.0
 10
1.6193
 20
103.9499
 30
0.0
 10
5.062
 20
103.1728
 30
0.0
 10
5.6622
 20
100.9329
 30
0.0
 10
5.6622
 20
100.9329
 30
0.0
 10
6.2624
 20
103.1728
 30
0.0
 10
9.7051
 20
103.9499
 30
0.0
 10
10.8128
 20
101.8643
 30
0.0
  0
SPLINE
  5
54
330
1F
100
AcDbEntity
  8
layer 1
 62
     7
100
AcDbSpline
210
0.0
220
0.0
230
1.0
 70
    11
 71
     3
 72
    20
 73
    16
 74
     0
 42
0.0000000001
 43
0.0000000001
 12
1.0
 22
0.0
 32
0.0
 13
1.0
 23
0.0
 33
0.0
 40
0.0
 40
0.0
 40
0.0
 40
0.0
 40
0.2
 40
0.2
 40
0.2
 40
0.2
 40
0.4
 40
0.4
 40
0.4
 40
0.4
 40
0.6
 40
0.6
 40
0.6
 40
0.6
 40
1.0
 40
1.0
 40
1.0
 40
1.0
 10
7.7359
 20
120.6651
 30
0.0
 10
7.6545
 20
119.3592
 30
0.0
 10
6.5448
 20
117.7533
 30
0.0
 10
5.6624
 20
115.6989
 30
0.0
 10
5.6624
 20
115.6989
 30
0.0
 10
4.7798
 20
117.7533
 30
0.0
 10
3.6703
 20
119.3592
 30
0.0
 10
3.5889
 20
120.6651
 30
0.0
 10
3.5889
 20
120.6651
 30
0.0
 10
3.5468
 20
121.7362
 30
0.0
 10
3.9126
 20
123.529
 30
0.0
 10
5.6624
 20
123.5883
 30
0.0
 10
5.6624
 20
123.5883
 30
0.0
 10
7.446
 20
123.4614
 30
0.0
 10
7.778
 20
121.7362
 30
0.0
 10
7.7359
 20
120.6651
 30
0.0
  0
SPLINE
  5
55
330
1F
100
AcDbEntity
  8
layer 1
 62
     7
100
AcDbSpline
210
0.0
220
0.0
230
1.0
 70
    11
 71
     3
 72
    64
 73
    60
 74
     0
 42
0.0000000001
 43
0.0000000001
 12
1.0
 22
0.0
 32
0.0
 13
1.0
 23
0.0
 33
0.0
 40
0.0
 40
0.0
 40
0.0
 40
0.0
 40
0.0625
 40
0.0625
 40
0.0625
 40
0.0625
 40
0.125
 40
0.125
 40
0.125
 40
0.125
 40
0.1875
 40
0.1875
 40
0.1875
 40
0.1875
 40
0.25
 40
0.25
 40
0.25
 40
0.25
 40
0.3125
 40
0.3125
 40
0.3125
 40
0.3125
 40
0.375
 40
0.375
 40
0.375
 40
0.375
 40
0.4375
 40
0.4375
 40
0.4375
 40
0.4375
 40
0.5
 40
0.5
 40
0.5
 40
0.5
 40
0.5625
 40
0.5625
 40
0.5625
 40
0.5625
 40
0.625
 40
0.625
 40
0.625
 40
0.625
 40
0.6875
 40
0.6875
 40
0.6875
 40
0.6875
 40
0.75
 40
0.75
 40
0.75
 40
0.75
 40
0.8125
 40
0.8125
 40
0.8125
 40
0.8125
 40
0.875
 40
0.875
 40
0.875
 40
0.875
 40
1.0
 40
1.0
 40
1.0
 40
1.0
 10
-16.3757
 20
7.1442
 30
0.0
 10
-13.943
 20
7.7993
 30
0.0
 10
-14.108
 20
6.6944
 30
0.0
 10
-15.2408
 20
6.1981
 30
0.0
 10
-15.2408
 20
6.1981
 30
0.0
 10
-15.7232
 20
5.9867
 30
0.0
 10
-17.0914
 20
5.5278
 30
0.0
 10
-17.101
 20
5.0544
 30
0.0
 10
-17.101
 20
5.0544
 30
0.0
 10
-15.0012
 20
2.2592
 30
0.0
 10
-10.9913
 20
4.7193
 30
0.0
 10
-8.3854
 20
6.5431
 30
0.0
 10
-8.3854
 20
6.5431
 30
0.0
 10
-6.3853
 20
7.9429
 30
0.0
 10
-5.7941
 20
5.9923
 30
0.0
 10
-6.8957
 20
5.5791
 30
0.0
 10
-6.8957
 20
5.5791
 30
0.0
 10
-8.4506
 20
5.5369
 30
0.0
 10
-10.2192
 20
2.3736
 30
0.0
 10
-9.4008
 20
1.9494
 30
0.0
 10
-9.4008
 20
1.9494
 30
0.0
 10
-4.337
 20
6.1493
 30
0.0
 10
0.3423
 20
0.5826
 30
0.0
 10
3.5831
 20
8.4117
 30
0.0
 10
3.5831
 20
8.4117
 30
0.0
 10
0.3423
 20
16.2408
 30
0.0
 10
-4.337
 20
10.6743
 30
0.0
 10
-9.4008
 20
14.874
 30
0.0
 10
-9.4008
 20
14.874
 30
0.0
 10
-10.219
 20
14.4498
 30
0.0
 10
-8.4506
 20
11.2865
 30
0.0
 10
-6.8957
 20
11.2443
 30
0.0
 10
-6.8957
 20
11.2443
 30
0.0
 10
-5.7941
 20
10.8309
 30
0.0
 10
-6.3852
 20
8.8805
 30
0.0
 10
-8.3854
 20
10.2803
 30
0.0
 10
-8.3854
 20
10.2803
 30
0.0
 10
-10.9913
 20
12.1041
 30
0.0
 10
-15.0012
 20
14.5642
 30
0.0
 10
-17.101
 20
11.769
 30
0.0
 10
-17.101
 20
11.769
 30
0.0
 10
-17.0914
 20
11.2956
 30
0.0
 10
-15.7234
 20
10.8368
 30
0.0
 10
-15.2408
 20
10.6253
 30
0.0
 10
-15.2408
 20
10.6253
 30
0.0
 10
-14.108
 20
10.129
 30
0.0
 10
-13.943
 20
9.0241
 30
0.0
 10
-16.3757
 20
9.6792
 30
0.0
 10
-16.3757
 20
9.6792
 30
0.0
 10
-18.7418
 20
10.3163
 30
0.0
 10
-20.2026
 20
10.4854
 30
0.0
 10
-23.4871
 20
8.4114
 30
0.0
 10
-23.4871
 20
8.4114
 30
0.0
 10
-20.2026
 20
6.3373
 30
0.0
 10
-18.7418
 20
6.5065
 30
0.0
 10
-16.3757
 20
7.1436
 30
0.0
 10
-16.3757
 20
7.1436
 30
0.0
 10
-16.3757
 20
7.1436
 30
0.0
 10
-16.3757
 20
7.1442
 30
0.0
 10
-16.3757
 20
7.1442
 30
0.0
  0
SPLINE
  5
56
330
1F
100
AcDbEntity
  8
layer 1
 62
     7
100
AcDbSpline
210
0.0
220
0.0
230
1.0
 70
    11
 71
     3
 72
    64
 73
    60
 74
     0
 42
0.0000000001
 43
0.0000000001
 12
1.0
 22
0.0
 32
0.0
 13
1.0
 23
0.0
 33
0.0
 40
0.0
 40
0.0
 40
0.0
 40
0.0
 40
0.0625
 40
0.0625
 40
0.0625
 40
0.0625
 40
0.125
 40
0.125
 40
0.125
 40
0.125
 40
0.1875
 40
0.1875
 40
0.1875
 40
0.1875
 40
0.25
 40
0.25
 40
0.25
 40
0.25
 40
0.3125
 40
0.3125
 40
0.3125
 40
0.3125
 40
0.375
 40
0.375
 40
0.375
 40
0.375
 40
0.4375
 40
0.4375
 40
0.4375
 40
0.4375
 40
0.5
 40
0.5
 40
0.5
 40
0.5
 40
0.5625
 40
0.5625
 40
0.5625
 40
0.5625
 40
0.625
 40
0.625
 40
0.625
 40
0.625
 40
0.6875
 40
0.6875
 40
0.6875
 40
0.6875
 40
0.75
 40
0.75
 40
0.75
 40
0.75
 40
0.8125
 40
0.8125
 40
0.8125
 40
0.8125
 40
0.875
 40
0.875
 40
0.875
 40
0.875
 40
1.0
 40
1.0
 40
1.0
 40
1.0
 10
4.3946
 20
30.4569
 30
0.0
 10
5.0497
 20
28.0241
 30
0.0
 10
3.9447
 20
28.1891
 30
0.0
 10
3.4484
 20
29.3219
 30
0.0
 10
3.4484
 20
29.3219
 30
0.0
 10
3.2371
 20
29.8044
 30
0.0
 10
2.7782
 20
31.1726
 30
0.0
 10
2.3047
 20
31.1822
 30
0.0
 10
2.3047
 20
31.1822
 30
0.0
 10
-0.4905
 20
29.0824
 30
0.0
 10
1.9696
 20
25.0725
 30
0.0
 10
3.7934
 20
22.4665
 30
0.0
 10
3.7934
 20
22.4665
 30
0.0
 10
5.1932
 20
20.4665
 30
0.0
 10
3.2427
 20
19.8752
 30
0.0
 10
2.8294
 20
20.9769
 30
0.0
 10
2.8294
 20
20.9769
 30
0.0
 10
2.7872
 20
22.5318
 30
0.0
 10
-0.3761
 20
24.3004
 30
0.0
 10
-0.8002
 20
23.482
 30
0.0
 10
-0.8002
 20
23.482
 30
0.0
 10
3.3996
 20
18.4182
 30
0.0
 10
-2.1671
 20
13.7389
 30
0.0
 10
5.6621
 20
10.4981
 30
0.0
 10
5.6621
 20
10.4981
 30
0.0
 10
13.4912
 20
13.7389
 30
0.0
 10
7.9247
 20
18.4182
 30
0.0
 10
12.1243
 20
23.482
 30
0.0
 10
12.1243
 20
23.482
 30
0.0
 10
11.7002
 20
24.3002
 30
0.0
 10
8.5369
 20
22.5318
 30
0.0
 10
8.4947
 20
20.9769
 30
0.0
 10
8.4947
 20
20.9769
 30
0.0
 10
8.0813
 20
19.8752
 30
0.0
 10
6.1309
 20
20.4664
 30
0.0
 10
7.5307
 20
22.4665
 30
0.0
 10
7.5307
 20
22.4665
 30
0.0
 10
9.3545
 20
25.0725
 30
0.0
 10
11.8146
 20
29.0824
 30
0.0
 10
9.0194
 20
31.1822
 30
0.0
 10
9.0194
 20
31.1822
 30
0.0
 10
8.5459
 20
31.1726
 30
0.0
 10
8.0872
 20
29.8046
 30
0.0
 10
7.8757
 20
29.3219
 30
0.0
 10
7.8757
 20
29.3219
 30
0.0
 10
7.3794
 20
28.1891
 30
0.0
 10
6.2744
 20
28.0241
 30
0.0
 10
6.9295
 20
30.4569
 30
0.0
 10
6.9295
 20
30.4569
 30
0.0
 10
7.5666
 20
32.823
 30
0.0
 10
7.7358
 20
34.2838
 30
0.0
 10
5.6617
 20
37.5683
 30
0.0
 10
5.6617
 20
37.5683
 30
0.0
 10
3.5877
 20
34.2838
 30
0.0
 10
3.7568
 20
32.823
 30
0.0
 10
4.3939
 20
30.4569
 30
0.0
 10
4.3939
 20
30.4569
 30
0.0
 10
4.3939
 20
30.4569
 30
0.0
 10
4.3946
 20
30.4569
 30
0.0
 10
4.3946
 20
30.4569
 30
0.0
  0
SPLINE
  5
57
330
1F
100
AcDbEntity
  8
layer 1
 62
     7
100
AcDbSpline
210
0.0
220
0.0
230
1.0
 70
    11
 71
     3
 72
    36
 73
    32
 74
     0
 42
0.0000000001
 43
0.0000000001
 12
1.0
 22
0.0
 32
0.0
 13
1.0
 23
0.0
 33
0.0
 40
0.0
 40
0.0
 40
0.0
 40
0.0
 40
0.1111111111111111
 40
0.1111111111111111
 40
0.1111111111111111
 40
0.1111111111111111
 40
0.2222222222222222
 40
0.2222222222222222
 40
0.2222222222222222
 40
0.2222222222222222
 40
0.3333333333333333
 40
0.3333333333333333
 40
0.3333333333333333
 40
0.3333333333333333
 40
0.4444444444444444
 40
0.4444444444444444
 40
0.4444444444444444
 40
0.4444444444444444
 40
0.5555555555555556
 40
0.5555555555555556
 40
0.5555555555555556
 40
0.5555555555555556
 40
0.6666666666666666
 40
0.6666666666666666
 40
0.6666666666666666
 40
0.6666666666666666
 40
0.7777777777777778
 40
0.7777777777777778
 40
0.7777777777777778
 40
0.7777777777777778
 40
1.0
 40
1.0
 40
1.0
 40
1.0
 10
-4.5691
 20
-73.4272
 30
0.0
 10
-10.0389
 20
-72.9445
 30
0.0
 10
-12.6898
 20
-73.5868
 30
0.0
 10
-14.0206
 20
-74.8265
 30
0.0
 10
-14.0206
 20
-74.8265
 30
0.0
 10
-15.7485
 20
-76.4362
 30
0.0
 10
-14.5112
 20
-79.6689
 30
0.0
 10
-12.1922
 20
-79.6689
 30
0.0
 10
-12.1922
 20
-79.6689
 30
0.0
 10
-11.2104
 20
-79.6689
 30
0.0
 10
-10.9353
 20
-79.9084
 30
0.0
 10
-11.5135
 20
-80.5915
 30
0.0
 10
-11.5135
 20
-80.5915
 30
0.0
 10
-12.8623
 20
-82.1849
 30
0.0
 10
-12.1277
 20
-83.6223
 30
0.0
 10
-11.365
 20
-84.385
 30
0.0
 10
-11.365
 20
-84.385
 30
0.0
 10
-9.5946
 20
-86.1554
 30
0.0
 10
-5.6708
 20
-84.1232
 30
0.0
 10
-1.3066
 20
-79.5552
 30
0.0
 10
-1.3066
 20
-79.5552
 30
0.0
 10
0.3014
 20
-77.956
 30
0.0
 10
2.024
 20
-76.1486
 30
0.0
 10
3.828
 20
-74.3228
 30
0.0
 10
3.828
 20
-74.3228
 30
0.0
 10
4.0944
 20
-74.4088
 30
0.0
 10
0.6713
 20
-73.8894
 30
0.0
 10
-4.5691
 20
-73.427
 30
0.0
 10
-4.5691
 20
-73.427
 30
0.0
 10
-4.5691
 20
-73.427
 30
0.0
 10
-4.5691
 20
-73.4272
 30
0.0
 10
-4.5691
 20
-73.4272
 30
0.0
  0
SPLINE
  5
58
330
1F
100
AcDbEntity
  8
layer 1
 62
     7
100
AcDbSpline
210
0.0
220
0.0
230
1.0
 70
    11
 71
     3
 72
    52
 73
    48
 74
     0
 42
0.0000000001
 43
0.0000000001
 12
1.0
 22
0.0
 32
0.0
 13
1.0
 23
0.0
 33
0.0
 40
0.0
 40
0.0
 40
0.0
 40
0.0
 40
0.0769230769230769
 40
0.0769230769230769
 40
0.0769230769230769
 40
0.0769230769230769
 40
0.1538461538461539
 40
0.1538461538461539
 40
0.1538461538461539
 40
0.1538461538461539
 40
0.2307692307692308
 40
0.2307692307692308
 40
0.2307692307692308
 40
0.2307692307692308
 40
0.3076923076923077
 40
0.3076923076923077
 40
0.3076923076923077
 40
0.3076923076923077
 40
0.3846153846153846
 40
0.3846153846153846
 40
0.3846153846153846
 40
0.3846153846153846
 40
0.4615384615384616
 40
0.4615384615384616
 40
0.4615384615384616
 40
0.4615384615384616
 40
0.5384615384615384
 40
0.5384615384615384
 40
0.5384615384615384
 40
0.5384615384615384
 40
0.6153846153846154
 40
0.6153846153846154
 40
0.6153846153846154
 40
0.6153846153846154
 40
0.6923076923076923
 40
0.6923076923076923
 40
0.6923076923076923
 40
0.6923076923076923
 40
0.7692307692307693
 40
0.7692307692307693
 40
0.7692307692307693
 40
0.7692307692307693
 40
0.8461538461538461
 40
0.8461538461538461
 40
0.8461538461538461
 40
0.8461538461538461
 40
1.0
 40
1.0
 40
1.0
 40
1.0
 10
-0.7562
 20
-22.3809
 30
0.0
 10
-1.2509
 20
-20.0468
 30
0.0
 10
-1.6509
 20
-20.1903
 30
0.0
 10
-1.2921
 20
-22.5652
 30
0.0
 10
-1.2921
 20
-22.5652
 30
0.0
 10
-0.2579
 20
-31.4798
 30
0.0
 10
0.2999
 20
-39.4386
 30
0.0
 10
-4.1153
 20
-46.8979
 30
0.0
 10
-4.1153
 20
-46.8979
 30
0.0
 10
-6.6758
 20
-51.6614
 30
0.0
 10
-12.0491
 20
-56.5584
 30
0.0
 10
-18.0401
 20
-58.7766
 30
0.0
 10
-18.0401
 20
-58.7766
 30
0.0
 10
-19.2573
 20
-59.1441
 30
0.0
 10
-23.2952
 20
-59.7243
 30
0.0
 10
-27.0132
 20
-60.066
 30
0.0
 10
-27.0132
 20
-60.066
 30
0.0
 10
-30.7314
 20
-60.4077
 30
0.0
 10
-34.5585
 20
-60.567
 30
0.0
 10
-35.518
 20
-60.8409
 30
0.0
 10
-35.518
 20
-60.8409
 30
0.0
 10
-39.5734
 20
-61.9986
 30
0.0
 10
-43.0408
 20
-64.8446
 30
0.0
 10
-43.5388
 20
-67.3345
 30
0.0
 10
-43.5388
 20
-67.3345
 30
0.0
 10
-43.8148
 20
-68.7139
 30
0.0
 10
-43.0611
 20
-68.5639
 30
0.0
 10
-41.6188
 20
-68.5639
 30
0.0
 10
-41.6188
 20
-68.5639
 30
0.0
 10
-41.6188
 20
-68.5639
 30
0.0
 10
-39.9781
 20
-68.5639
 30
0.0
 10
-39.9781
 20
-68.5639
 30
0.0
 10
-39.9781
 20
-68.5639
 30
0.0
 10
-45.9607
 20
-72.8684
 30
0.0
 10
-48.9301
 20
-80.2953
 30
0.0
 10
-46.7025
 20
-85.5776
 30
0.0
 10
-46.7025
 20
-85.5776
 30
0.0
 10
-47.0051
 20
-73.8428
 30
0.0
 10
-35.1939
 20
-66.2105
 30
0.0
 10
-25.8957
 20
-63.7767
 30
0.0
 10
-25.8957
 20
-63.7767
 30
0.0
 10
-17.4814
 20
-61.285
 30
0.0
 10
-12.3419
 20
-58.687
 30
0.0
 10
-8.6646
 20
-55.0666
 30
0.0
 10
-8.6646
 20
-55.0666
 30
0.0
 10
0.3301
 20
-46.2245
 30
0.0
 10
1.6899
 20
-37.3709
 30
0.0
 10
-0.7562
 20
-22.3809
 30
0.0
  0
SPLINE
  5
59
330
1F
100
AcDbEntity
  8
layer 1
 62
     7
100
AcDbSpline
210
0.0
220
0.0
230
1.0
 70
    11
 71
     3
 72
   112
 73
   108
 74
     0
 42
0.0000000001
 43
0.0000000001
 12
1.0
 22
0.0
 32
0.0
 13
1.0
 23
0.0
 33
0.0
 40
0.0
 40
0.0
 40
0.0
 40
0.0
 40
0.0357142857142857
 40
0.0357142857142857
 40
0.0357142857142857
 40
0.0357142857142857
 40
0.0714285714285714
 40
0.0714285714285714
 40
0.0714285714285714
 40
0.0714285714285714
 40
0.1071428571428571
 40
0.1071428571428571
 40
0.1071428571428571
 40
0.1071428571428571
 40
0.1428571428571428
 40
0.1428571428571428
 40
0.1428571428571428
 40
0.1428571428571428
 40
0.1785714285714286
 40
0.1785714285714286
 40
0.1785714285714286
 40
0.1785714285714286
 40
0.2142857142857143
 40
0.2142857142857143
 40
0.2142857142857143
 40
0.2142857142857143
 40
0.25
 40
0.25
 40
0.25
 40
0.25
 40
0.2857142857142857
 40
0.2857142857142857
 40
0.2857142857142857
 40
0.2857142857142857
 40
0.3214285714285715
 40
0.3214285714285715
 40
0.3214285714285715
 40
0.3214285714285715
 40
0.3571428571428572
 40
0.3571428571428572
 40
0.3571428571428572
 40
0.3571428571428572
 40
0.3928571428571428
 40
0.3928571428571428
 40
0.3928571428571428
 40
0.3928571428571428
 40
0.4285714285714285
 40
0.4285714285714285
 40
0.4285714285714285
 40
0.4285714285714285
 40
0.4642857142857143
 40
0.4642857142857143
 40
0.4642857142857143
 40
0.4642857142857143
 40
0.5
 40
0.5
 40
0.5
 40
0.5
 40
0.5357142857142857
 40
0.5357142857142857
 40
0.5357142857142857
 40
0.5357142857142857
 40
0.5714285714285714
 40
0.5714285714285714
 40
0.5714285714285714
 40
0.5714285714285714
 40
0.6071428571428571
 40
0.6071428571428571
 40
0.6071428571428571
 40
0.6071428571428571
 40
0.6428571428571429
 40
0.6428571428571429
 40
0.6428571428571429
 40
0.6428571428571429
 40
0.6785714285714286
 40
0.6785714285714286
 40
0.6785714285714286
 40
0.6785714285714286
 40
0.7142857142857143
 40
0.7142857142857143
 40
0.7142857142857143
 40
0.7142857142857143
 40
0.75
 40
0.75
 40
0.75
 40
0.75
 40
0.7857142857142857
 40
0.7857142857142857
 40
0.7857142857142857
 40
0.7857142857142857
 40
0.8214285714285714
 40
0.8214285714285714
 40
0.8214285714285714
 40
0.8214285714285714
 40
0.8571428571428571
 40
0.8571428571428571
 40
0.8571428571428571
 40
0.8571428571428571
 40
0.8928571428571429
 40
0.8928571428571429
 40
0.8928571428571429
 40
0.8928571428571429
 40
0.9285714285714286
 40
0.9285714285714286
 40
0.9285714285714286
 40
0.9285714285714286
 40
1.0
 40
1.0
 40
1.0
 40
1.0
 10
-0.9197
 20
-48.0145
 30
0.0
 10
-5.1677
 20
-57.3046
 30
0.0
 10
-12.853
 20
-64.4188
 30
0.0
 10
-22.6518
 20
-65.7237
 30
0.0
 10
-22.6518
 20
-65.7237
 30
0.0
 10
-26.7089
 20
-66.1836
 30
0.0
 10
-29.7753
 20
-66.8835
 30
0.0
 10
-31.4415
 20
-67.7296
 30
0.0
 10
-31.4415
 20
-67.7296
 30
0.0
 10
-33.5373
 20
-68.7938
 30
0.0
 10
-35.6695
 20
-71.4292
 30
0.0
 10
-35.989
 20
-73.3502
 30
0.0
 10
-35.989
 20
-73.3502
 30
0.0
 10
-36.7062
 20
-77.662
 30
0.0
 10
-37.5416
 20
-79.1729
 30
0.0
 10
-41.0994
 20
-82.5917
 30
0.0
 10
-41.0994
 20
-82.5917
 30
0.0
 10
-42.8831
 20
-84.3064
 30
0.0
 10
-44.2318
 20
-85.4126
 30
0.0
 10
-44.3653
 20
-88.0435
 30
0.0
 10
-44.3653
 20
-88.0435
 30
0.0
 10
-44.5966
 20
-89.3047
 30
0.0
 10
-43.6178
 20
-91.0531
 30
0.0
 10
-42.7987
 20
-92.4301
 30
0.0
 10
-42.7987
 20
-92.4301
 30
0.0
 10
-42.0536
 20
-93.6823
 30
0.0
 10
-40.9154
 20
-96.1958
 30
0.0
 10
-40.2692
 20
-98.0157
 30
0.0
 10
-40.2692
 20
-98.0157
 30
0.0
 10
-38.6279
 20
-102.6388
 30
0.0
 10
-36.9585
 20
-104.8675
 30
0.0
 10
-33.6134
 20
-106.5142
 30
0.0
 10
-33.6134
 20
-106.5142
 30
0.0
 10
-30.083
 20
-107.9136
 30
0.0
 10
-25.4255
 20
-108.4387
 30
0.0
 10
-22.1448
 20
-106.8357
 30
0.0
 10
-22.1448
 20
-106.8357
 30
0.0
 10
-19.0552
 20
-105.2595
 30
0.0
 10
-17.4244
 20
-101.9748
 30
0.0
 10
-17.4223
 20
-98.4398
 30
0.0
 10
-17.4223
 20
-98.4398
 30
0.0
 10
-17.4205
 20
-95.6144
 30
0.0
 10
-20.2691
 20
-92.988
 30
0.0
 10
-23.3353
 20
-92.988
 30
0.0
 10
-23.3353
 20
-92.988
 30
0.0
 10
-27.5479
 20
-92.6312
 30
0.0
 10
-30.1651
 20
-97.3939
 30
0.0
 10
-28.4638
 20
-99.6339
 30
0.0
 10
-28.4638
 20
-99.6339
 30
0.0
 10
-28.3576
 20
-99.2327
 30
0.0
 10
-28.4903
 20
-97.5571
 30
0.0
 10
-26.9788
 20
-97.4028
 30
0.0
 10
-26.9788
 20
-97.4028
 30
0.0
 10
-25.7764
 20
-97.2802
 30
0.0
 10
-25.3473
 20
-96.3561
 30
0.0
 10
-24.9326
 20
-95.6271
 30
0.0
 10
-24.9326
 20
-95.6271
 30
0.0
 10
-23.96
 20
-93.9182
 30
0.0
 10
-22.1516
 20
-93.7875
 30
0.0
 10
-21.4287
 20
-95.3738
 30
0.0
 10
-21.4287
 20
-95.3738
 30
0.0
 10
-20.9889
 20
-96.3393
 30
0.0
 10
-21.1013
 20
-96.6053
 30
0.0
 10
-22.5111
 20
-97.9352
 30
0.0
 10
-22.5111
 20
-97.9352
 30
0.0
 10
-23.9979
 20
-99.338
 30
0.0
 10
-24.1226
 20
-99.8921
 30
0.0
 10
-23.5862
 20
-100.8483
 30
0.0
 10
-23.5862
 20
-100.8483
 30
0.0
 10
-21.8509
 20
-103.9416
 30
0.0
 10
-23.6115
 20
-105.7368
 30
0.0
 10
-27.374
 20
-105.7368
 30
0.0
 10
-27.374
 20
-105.7368
 30
0.0
 10
-31.1087
 20
-105.7368
 30
0.0
 10
-34.8557
 20
-103.2163
 30
0.0
 10
-36.5313
 20
-99.5769
 30
0.0
 10
-36.5313
 20
-99.5769
 30
0.0
 10
-38.1541
 20
-96.0521
 30
0.0
 10
-38.1446
 20
-90.776
 30
0.0
 10
-36.509
 20
-87.2231
 30
0.0
 10
-36.509
 20
-87.2231
 30
0.0
 10
-34.6178
 20
-83.1149
 30
0.0
 10
-32.8186
 20
-80.8978
 30
0.0
 10
-28.3891
 20
-77.217
 30
0.0
 10
-28.3891
 20
-77.217
 30
0.0
 10
-20.4268
 20
-70.2225
 30
0.0
 10
-7.7024
 20
-64.8804
 30
0.0
 10
-1.7919
 20
-55.4714
 30
0.0
 10
-1.7919
 20
-55.4714
 30
0.0
 10
-0.491
 20
-53.3154
 30
0.0
 10
13.5248
 20
-26.6158
 30
0.0
 10
-4.8042
 20
-5.9708
 30
0.0
 10
-4.8042
 20
-5.9708
 30
0.0
 10
-13.2778
 20
3.5735
 30
0.0
 10
-26.697
 20
8.5058
 30
0.0
 10
-34.3147
 20
7.786
 30
0.0
 10
-34.3147
 20
7.786
 30
0.0
 10
-28.5019
 20
6.4801
 30
0.0
 10
-11.9243
 20
1.6906
 30
0.0
 10
-2.8282
 20
-11.9068
 30
0.0
 10
-2.8282
 20
-11.9068
 30
0.0
 10
5.46
 20
-24.2967
 30
0.0
 10
1.723
 20
-43.5452
 30
0.0
 10
-0.9197
 20
-48.0147
 30
0.0
 10
-0.9197
 20
-48.0147
 30
0.0
 10
-0.9197
 20
-48.0147
 30
0.0
 10
-0.9197
 20
-48.0145
 30
0.0
 10
-0.9197
 20
-48.0145
 30
0.0
  0
SPLINE
  5
5A
330
1F
100
AcDbEntity
  8
layer 1
 62
     7
100
AcDbSpline
210
0.0
220
0.0
230
1.0
 70
    11
 71
     3
 72
    32
 73
    28
 74
     0
 42
0.0000000001
 43
0.0000000001
 12
1.0
 22
0.0
 32
0.0
 13
1.0
 23
0.0
 33
0.0
 40
0.0
 40
0.0
 40
0.0
 40
0.0
 40
0.125
 40
0.125
 40
0.125
 40
0.125
 40
0.25
 40
0.25
 40
0.25
 40
0.25
 40
0.375
 40
0.375
 40
0.375
 40
0.375
 40
0.5
 40
0.5
 40
0.5
 40
0.5
 40
0.625
 40
0.625
 40
0.625
 40
0.625
 40
0.75
 40
0.75
 40
0.75
 40
0.75
 40
1.0
 40
1.0
 40
1.0
 40
1.0
 10
-1.8905
 20
-63.2071
 30
0.0
 10
-3.5163
 20
-66.5416
 30
0.0
 10
-7.6215
 20
-69.3205
 30
0.0
 10
-10.0255
 20
-71.0777
 30
0.0
 10
-10.0255
 20
-71.0777
 30
0.0
 10
-6.358
 20
-70.8572
 30
0.0
 10
-4.3074
 20
-68.4419
 30
0.0
 10
-3.3045
 20
-67.0691
 30
0.0
 10
-3.3045
 20
-67.0691
 30
0.0
 10
-2.2589
 20
-65.638
 30
0.0
 10
-1.7273
 20
-65.6721
 30
0.0
 10
-2.0197
 20
-67.4736
 30
0.0
 10
-2.0197
 20
-67.4736
 30
0.0
 10
-3.1955
 20
-71.5691
 30
0.0
 10
-0.07
 20
-69.4084
 30
0.0
 10
0.8921
 20
-67.1217
 30
0.0
 10
0.8921
 20
-67.1217
 30
0.0
 10
4.6062
 20
-58.428
 30
0.0
 10
4.6148
 20
-50.6572
 30
0.0
 10
4.9541
 20
-44.1582
 30
0.0
 10
4.9541
 20
-44.1582
 30
0.0
 10
3.9449
 20
-48.3628
 30
0.0
 10
1.0871
 20
-57.7723
 30
0.0
 10
-1.8906
 20
-63.2069
 30
0.0
 10
-1.8906
 20
-63.2069
 30
0.0
 10
-1.8906
 20
-63.2069
 30
0.0
 10
-1.8905
 20
-63.2071
 30
0.0
 10
-1.8905
 20
-63.2071
 30
0.0
  0
SPLINE
  5
5B
330
1F
100
AcDbEntity
  8
layer 1
 62
     7
100
AcDbSpline
210
0.0
220
0.0
230
1.0
 70
    11
 71
     3
 72
    20
 73
    16
 74
     0
 42
0.0000000001
 43
0.0000000001
 12
1.0
 22
0.0
 32
0.0
 13
1.0
 23
0.0
 33
0.0
 40
0.0
 40
0.0
 40
0.0
 40
0.0
 40
0.2
 40
0.2
 40
0.2
 40
0.2
 40
0.4
 40
0.4
 40
0.4
 40
0.4
 40
0.6
 40
0.6
 40
0.6
 40
0.6
 40
1.0
 40
1.0
 40
1.0
 40
1.0
 10
3.3027
 20
-69.2445
 30
0.0
 10
2.9816
 20
-66.0636
 30
0.0
 10
4.9442
 20
-63.4218
 30
0.0
 10
5.6622
 20
-54.7679
 30
0.0
 10
5.6622
 20
-54.7679
 30
0.0
 10
6.3803
 20
-63.4218
 30
0.0
 10
8.3429
 20
-66.0636
 30
0.0
 10
8.0218
 20
-69.2445
 30
0.0
 10
8.0218
 20
-69.2445
 30
0.0
 10
8.1609
 20
-70.1788
 30
0.0
 10
7.2172
 20
-72.643
 30
0.0
 10
5.6622
 20
-72.6008
 30
0.0
 10
5.6622
 20
-72.6008
 30
0.0
 10
4.1073
 20
-72.643
 30
0.0
 10
3.1636
 20
-70.1788
 30
0.0
 10
3.3027
 20
-69.2445
 30
0.0
  0
SPLINE
  5
5C
330
1F
100
AcDbEntity
  8
layer 1
 62
     7
100
AcDbSpline
210
0.0
220
0.0
230
1.0
 70
    11
 71
     3
 72
    40
 73
    36
 74
     0
 42
0.0000000001
 43
0.0000000001
 12
1.0
 22
0.0
 32
0.0
 13
1.0
 23
0.0
 33
0.0
 40
0.0
 40
0.0
 40
0.0
 40
0.0
 40
0.1
 40
0.1
 40
0.1
 40
0.1
 40
0.2
 40
0.2
 40
0.2
 40
0.2
 40
0.3
 40
0.3
 40
0.3
 40
0.3
 40
0.4
 40
0.4
 40
0.4
 40
0.4
 40
0.5
 40
0.5
 40
0.5
 40
0.5
 40
0.6
 40
0.6
 40
0.6
 40
0.6
 40
0.7
 40
0.7
 40
0.7
 40
0.7
 40
0.8
 40
0.8
 40
0.8
 40
0.8
 40
1.0
 40
1.0
 40
1.0
 40
1.0
 10
-5.2761
 20
-43.2738
 30
0.0
 10
-6.9023
 20
-45.9006
 30
0.0
 10
-9.064
 20
-48.2482
 30
0.0
 10
-11.0169
 20
-49.7124
 30
0.0
 10
-11.0169
 20
-49.7124
 30
0.0
 10
-25.1157
 20
-59.9877
 30
0.0
 10
-46.8396
 20
-49.9662
 30
0.0
 10
-42.9273
 20
-31.9282
 30
0.0
 10
-42.9273
 20
-31.9282
 30
0.0
 10
-48.154
 20
-36.7755
 30
0.0
 10
-46.7161
 20
-44.3211
 30
0.0
 10
-42.2783
 20
-48.314
 30
0.0
 10
-42.2783
 20
-48.314
 30
0.0
 10
-43.1478
 20
-47.9083
 30
0.0
 10
-45.0003
 20
-47.7097
 30
0.0
 10
-46.6678
 20
-48.5835
 30
0.0
 10
-46.6678
 20
-48.5835
 30
0.0
 10
-42.85
 20
-57.5341
 30
0.0
 10
-29.2498
 20
-58.5526
 30
0.0
 10
-21.6351
 20
-57.3994
 30
0.0
 10
-21.6351
 20
-57.3994
 30
0.0
 10
-13.6809
 20
-55.8703
 30
0.0
 10
-6.6511
 20
-48.4724
 30
0.0
 10
-3.4316
 20
-41.2178
 30
0.0
 10
-3.4316
 20
-41.2178
 30
0.0
 10
-2.173
 20
-38.382
 30
0.0
 10
-1.9442
 20
-34.3784
 30
0.0
 10
-2.0405
 20
-32.1197
 30
0.0
 10
-2.0405
 20
-32.1197
 30
0.0
 10
-2.0405
 20
-32.1197
 30
0.0
 10
-2.3642
 20
-32.0277
 30
0.0
 10
-2.3642
 20
-32.0277
 30
0.0
 10
-2.3642
 20
-32.0277
 30
0.0
 10
-2.4511
 20
-36.0383
 30
0.0
 10
-3.4222
 20
-40.237
 30
0.0
 10
-5.2761
 20
-43.2738
 30
0.0
  0
SPLINE
  5
5D
330
1F
100
AcDbEntity
  8
layer 1
 62
     7
100
AcDbSpline
210
0.0
220
0.0
230
1.0
 70
    11
 71
     3
 72
   116
 73
   112
 74
     0
 42
0.0000000001
 43
0.0000000001
 12
1.0
 22
0.0
 32
0.0
 13
1.0
 23
0.0
 33
0.0
 40
0.0
 40
0.0
 40
0.0
 40
0.0
 40
0.0344827586206897
 40
0.0344827586206897
 40
0.0344827586206897
 40
0.0344827586206897
 40
0.0689655172413793
 40
0.0689655172413793
 40
0.0689655172413793
 40
0.0689655172413793
 40
0.103448275862069
 40
0.103448275862069
 40
0.103448275862069
 40
0.103448275862069
 40
0.1379310344827586
 40
0.1379310344827586
 40
0.1379310344827586
 40
0.1379310344827586
 40
0.1724137931034483
 40
0.1724137931034483
 40
0.1724137931034483
 40
0.1724137931034483
 40
0.2068965517241379
 40
0.2068965517241379
 40
0.2068965517241379
 40
0.2068965517241379
 40
0.2413793103448276
 40
0.2413793103448276
 40
0.2413793103448276
 40
0.2413793103448276
 40
0.2758620689655172
 40
0.2758620689655172
 40
0.2758620689655172
 40
0.2758620689655172
 40
0.3103448275862069
 40
0.3103448275862069
 40
0.3103448275862069
 40
0.3103448275862069
 40
0.3448275862068966
 40
0.3448275862068966
 40
0.3448275862068966
 40
0.3448275862068966
 40
0.3793103448275862
 40
0.3793103448275862
 40
0.3793103448275862
 40
0.3793103448275862
 40
0.4137931034482759
 40
0.4137931034482759
 40
0.4137931034482759
 40
0.4137931034482759
 40
0.4482758620689655
 40
0.4482758620689655
 40
0.4482758620689655
 40
0.4482758620689655
 40
0.4827586206896552
 40
0.4827586206896552
 40
0.4827586206896552
 40
0.4827586206896552
 40
0.5172413793103449
 40
0.5172413793103449
 40
0.5172413793103449
 40
0.5172413793103449
 40
0.5517241379310345
 40
0.5517241379310345
 40
0.5517241379310345
 40
0.5517241379310345
 40
0.5862068965517241
 40
0.5862068965517241
 40
0.5862068965517241
 40
0.5862068965517241
 40
0.6206896551724138
 40
0.6206896551724138
 40
0.6206896551724138
 40
0.6206896551724138
 40
0.6551724137931034
 40
0.6551724137931034
 40
0.6551724137931034
 40
0.6551724137931034
 40
0.6896551724137931
 40
0.6896551724137931
 40
0.6896551724137931
 40
0.6896551724137931
 40
0.7241379310344828
 40
0.7241379310344828
 40
0.7241379310344828
 40
0.7241379310344828
 40
0.7586206896551724
 40
0.7586206896551724
 40
0.7586206896551724
 40
0.7586206896551724
 40
0.7931034482758621
 40
0.7931034482758621
 40
0.7931034482758621
 40
0.7931034482758621
 40
0.8275862068965517
 40
0.8275862068965517
 40
0.8275862068965517
 40
0.8275862068965517
 40
0.8620689655172413
 40
0.8620689655172413
 40
0.8620689655172413
 40
0.8620689655172413
 40
0.896551724137931
 40
0.896551724137931
 40
0.896551724137931
 40
0.896551724137931
 40
0.9310344827586207
 40
0.9310344827586207
 40
0.9310344827586207
 40
0.9310344827586207
 40
1.0
 40
1.0
 40
1.0
 40
1.0
 10
-4.1041
 20
-21.6789
 30
0.0
 10
-5.8237
 20
-13.8272
 30
0.0
 10
-11.5755
 20
-6.1711
 30
0.0
 10
-20.0615
 20
-0.4381
 30
0.0
 10
-20.0615
 20
-0.4381
 30
0.0
 10
-24.4641
 20
2.5361
 30
0.0
 10
-30.489
 20
5.4493
 30
0.0
 10
-32.9012
 20
5.7703
 30
0.0
 10
-32.9012
 20
5.7703
 30
0.0
 10
-32.9012
 20
5.7703
 30
0.0
 10
-34.6457
 20
6.0024
 30
0.0
 10
-34.6457
 20
6.0024
 30
0.0
 10
-34.6457
 20
6.0024
 30
0.0
 10
-34.6457
 20
6.0024
 30
0.0
 10
-32.9012
 20
5.2702
 30
0.0
 10
-32.9012
 20
5.2702
 30
0.0
 10
-32.9012
 20
5.2702
 30
0.0
 10
-26.0687
 20
2.4024
 30
0.0
 10
-19.6781
 20
-1.7453
 30
0.0
 10
-16.0432
 20
-5.6716
 30
0.0
 10
-16.0432
 20
-5.6716
 30
0.0
 10
-11.513
 20
-10.5646
 30
0.0
 10
-9.6447
 20
-14.9336
 30
0.0
 10
-9.256
 20
-21.5434
 30
0.0
 10
-9.256
 20
-21.5434
 30
0.0
 10
-8.7294
 20
-30.4988
 30
0.0
 10
-11.6207
 20
-37.03
 30
0.0
 10
-17.4181
 20
-39.9808
 30
0.0
 10
-17.4181
 20
-39.9808
 30
0.0
 10
-19.9278
 20
-41.2582
 30
0.0
 10
-21.535
 20
-41.5949
 30
0.0
 10
-25.2159
 20
-41.6147
 30
0.0
 10
-25.2159
 20
-41.6147
 30
0.0
 10
-30.6519
 20
-41.6439
 30
0.0
 10
-34.6834
 20
-38.5249
 30
0.0
 10
-35.7308
 20
-33.4801
 30
0.0
 10
-35.7308
 20
-33.4801
 30
0.0
 10
-36.1683
 20
-31.3731
 30
0.0
 10
-36.1251
 20
-30.8574
 30
0.0
 10
-35.3685
 20
-29.147
 30
0.0
 10
-35.3685
 20
-29.147
 30
0.0
 10
-34.3621
 20
-26.8722
 30
0.0
 10
-33.2564
 20
-26.1574
 30
0.0
 10
-31.0291
 20
-26.3424
 30
0.0
 10
-31.0291
 20
-26.3424
 30
0.0
 10
-31.0291
 20
-26.3424
 30
0.0
 10
-29.9508
 20
-26.4465
 30
0.0
 10
-29.337
 20
-26.664
 30
0.0
 10
-29.337
 20
-26.664
 30
0.0
 10
-28.5731
 20
-27.0314
 30
0.0
 10
-28.2291
 20
-28.0397
 30
0.0
 10
-29.5387
 20
-28.8156
 30
0.0
 10
-29.5387
 20
-28.8156
 30
0.0
 10
-30.661
 20
-29.854
 30
0.0
 10
-30.3453
 20
-31.5175
 30
0.0
 10
-28.9936
 20
-32.1804
 30
0.0
 10
-28.9936
 20
-32.1804
 30
0.0
 10
-27.5013
 20
-32.9121
 30
0.0
 10
-28.6148
 20
-35.8618
 30
0.0
 10
-30.7679
 20
-35.1737
 30
0.0
 10
-30.7679
 20
-35.1737
 30
0.0
 10
-31.5567
 20
-34.9217
 30
0.0
 10
-31.5557
 20
-34.9401
 30
0.0
 10
-30.746
 20
-35.6
 30
0.0
 10
-30.746
 20
-35.6
 30
0.0
 10
-29.1083
 20
-36.9344
 30
0.0
 10
-26.3596
 20
-36.2079
 30
0.0
 10
-25.1226
 20
-34.1136
 30
0.0
 10
-25.1226
 20
-34.1136
 30
0.0
 10
-23.3592
 20
-31.1282
 30
0.0
 10
-24.8014
 20
-26.825
 30
0.0
 10
-28.0619
 20
-25.3443
 30
0.0
 10
-28.0619
 20
-25.3443
 30
0.0
 10
-30.3123
 20
-24.3222
 30
0.0
 10
-31.5656
 20
-24.3227
 30
0.0
 10
-33.8196
 20
-25.3464
 30
0.0
 10
-33.8196
 20
-25.3464
 30
0.0
 10
-36.4358
 20
-26.5346
 30
0.0
 10
-37.6662
 20
-29.2327
 30
0.0
 10
-37.384
 20
-33.1633
 30
0.0
 10
-37.384
 20
-33.1633
 30
0.0
 10
-37.1331
 20
-36.6578
 30
0.0
 10
-36.0181
 20
-39.0287
 30
0.0
 10
-33.5966
 20
-41.2163
 30
0.0
 10
-33.5966
 20
-41.2163
 30
0.0
 10
-31.3864
 20
-43.213
 30
0.0
 10
-29.6942
 20
-43.9243
 30
0.0
 10
-26.3228
 20
-44.2733
 30
0.0
 10
-26.3228
 20
-44.2733
 30
0.0
 10
-21.9399
 20
-44.7271
 30
0.0
 10
-21.568
 20
-45.0589
 30
0.0
 10
-23.0728
 20
-47.1723
 30
0.0
 10
-23.0728
 20
-47.1723
 30
0.0
 10
-23.8194
 20
-48.2207
 30
0.0
 10
-23.852
 20
-48.483
 30
0.0
 10
-23.326
 20
-49.2023
 30
0.0
 10
-23.326
 20
-49.2023
 30
0.0
 10
-22.4654
 20
-50.3793
 30
0.0
 10
-17.1077
 20
-50.2028
 30
0.0
 10
-14.1639
 20
-48.9005
 30
0.0
 10
-14.1639
 20
-48.9005
 30
0.0
 10
-9.8547
 20
-46.9945
 30
0.0
 10
-6.158
 20
-42.3117
 30
0.0
 10
-4.3557
 20
-36.4758
 30
0.0
 10
-4.3557
 20
-36.4758
 30
0.0
 10
-3.3003
 20
-33.0591
 30
0.0
 10
-3.1787
 20
-25.9042
 30
0.0
 10
-4.1041
 20
-21.6792
 30
0.0
 10
-4.1041
 20
-21.6792
 30
0.0
 10
-4.1041
 20
-21.6792
 30
0.0
 10
-4.1041
 20
-21.6789
 30
0.0
 10
-4.1041
 20
-21.6789
 30
0.0
  0
SPLINE
  5
5E
330
1F
100
AcDbEntity
  8
layer 1
 62
     7
100
AcDbSpline
210
0.0
220
0.0
230
1.0
 70
    11
 71
     3
 72
    20
 73
    16
 74
     0
 42
0.0000000001
 43
0.0000000001
 12
1.0
 22
0.0
 32
0.0
 13
1.0
 23
0.0
 33
0.0
 40
0.0
 40
0.0
 40
0.0
 40
0.0
 40
0.2
 40
0.2
 40
0.2
 40
0.2
 40
0.4
 40
0.4
 40
0.4
 40
0.4
 40
0.6
 40
0.6
 40
0.6
 40
0.6
 40
1.0
 40
1.0
 40
1.0
 40
1.0
 10
-7.586
 20
-38.3586
 30
0.0
 10
-7.9198
 20
-37.6988
 30
0.0
 10
-8.4655
 20
-37.3856
 30
0.0
 10
-9.2605
 20
-37.3971
 30
0.0
 10
-9.2605
 20
-37.3971
 30
0.0
 10
-10.5545
 20
-37.416
 30
0.0
 10
-10.7116
 20
-37.1718
 30
0.0
 10
-9.9164
 20
-36.3767
 30
0.0
 10
-9.9164
 20
-36.3767
 30
0.0
 10
-8.271
 20
-35.4577
 30
0.0
 10
-6.6196
 20
-36.3566
 30
0.0
 10
-6.5197
 20
-38.1216
 30
0.0
 10
-6.5197
 20
-38.1216
 30
0.0
 10
-6.5281
 20
-39.2575
 30
0.0
 10
-7.2033
 20
-39.0951
 30
0.0
 10
-7.586
 20
-38.3586
 30
0.0
  0
SPLINE
  5
5F
330
1F
100
AcDbEntity
  8
layer 1
 62
     7
100
AcDbSpline
210
0.0
220
0.0
230
1.0
 70
    11
 71
     3
 72
    24
 73
    20
 74
     0
 42
0.0000000001
 43
0.0000000001
 12
1.0
 22
0.0
 32
0.0
 13
1.0
 23
0.0
 33
0.0
 40
0.0
 40
0.0
 40
0.0
 40
0.0
 40
0.1666666666666667
 40
0.1666666666666667
 40
0.1666666666666667
 40
0.1666666666666667
 40
0.3333333333333333
 40
0.3333333333333333
 40
0.3333333333333333
 40
0.3333333333333333
 40
0.5
 40
0.5
 40
0.5
 40
0.5
 40
0.6666666666666666
 40
0.6666666666666666
 40
0.6666666666666666
 40
0.6666666666666666
 40
1.0
 40
1.0
 40
1.0
 40
1.0
 10
-10.5271
 20
-43.6167
 30
0.0
 10
-11.3324
 20
-44.422
 30
0.0
 10
-11.6471
 20
-44.2428
 30
0.0
 10
-11.4291
 20
-43.1029
 30
0.0
 10
-11.4291
 20
-43.1029
 30
0.0
 10
-11.188
 20
-41.8412
 30
0.0
 10
-12.0485
 20
-40.5393
 30
0.0
 10
-13.4658
 20
-40.8411
 30
0.0
 10
-13.4658
 20
-40.8411
 30
0.0
 10
-14.4065
 20
-41.0414
 30
0.0
 10
-15.1433
 20
-40.9557
 30
0.0
 10
-13.9898
 20
-40.2479
 30
0.0
 10
-13.9898
 20
-40.2479
 30
0.0
 10
-11.4796
 20
-38.4681
 30
0.0
 10
-9.1984
 20
-41.6381
 30
0.0
 10
-10.5271
 20
-43.6165
 30
0.0
 10
-10.5271
 20
-43.6165
 30
0.0
 10
-10.5271
 20
-43.6165
 30
0.0
 10
-10.5271
 20
-43.6167
 30
0.0
 10
-10.5271
 20
-43.6167
 30
0.0
  0
SPLINE
  5
60
330
1F
100
AcDbEntity
  8
layer 1
 62
     7
100
AcDbSpline
210
0.0
220
0.0
230
1.0
 70
    11
 71
     3
 72
    24
 73
    20
 74
     0
 42
0.0000000001
 43
0.0000000001
 12
1.0
 22
0.0
 32
0.0
 13
1.0
 23
0.0
 33
0.0
 40
0.0
 40
0.0
 40
0.0
 40
0.0
 40
0.1666666666666667
 40
0.1666666666666667
 40
0.1666666666666667
 40
0.1666666666666667
 40
0.3333333333333333
 40
0.3333333333333333
 40
0.3333333333333333
 40
0.3333333333333333
 40
0.5
 40
0.5
 40
0.5
 40
0.5
 40
0.6666666666666666
 40
0.6666666666666666
 40
0.6666666666666666
 40
0.6666666666666666
 40
1.0
 40
1.0
 40
1.0
 40
1.0
 10
-15.4053
 20
-46.4231
 30
0.0
 10
-16.2
 20
-47.0372
 30
0.0
 10
-16.3454
 20
-46.6277
 30
0.0
 10
-16.1937
 20
-45.7687
 30
0.0
 10
-16.1937
 20
-45.7687
 30
0.0
 10
-15.9529
 20
-44.4033
 30
0.0
 10
-16.8364
 20
-42.8326
 30
0.0
 10
-17.9254
 20
-42.916
 30
0.0
 10
-17.9254
 20
-42.916
 30
0.0
 10
-19.316
 20
-42.522
 30
0.0
 10
-18.6358
 20
-42.3306
 30
0.0
 10
-18.2367
 20
-41.9765
 30
0.0
 10
-18.2367
 20
-41.9765
 30
0.0
 10
-15.4283
 20
-40.7948
 30
0.0
 10
-13.078
 20
-44.7846
 30
0.0
 10
-15.4054
 20
-46.4231
 30
0.0
 10
-15.4054
 20
-46.4231
 30
0.0
 10
-15.4054
 20
-46.4231
 30
0.0
 10
-15.4053
 20
-46.4231
 30
0.0
 10
-15.4053
 20
-46.4231
 30
0.0
  0
SPLINE
  5
61
330
1F
100
AcDbEntity
  8
layer 1
 62
     7
100
AcDbSpline
210
0.0
220
0.0
230
1.0
 70
    11
 71
     3
 72
    24
 73
    20
 74
     0
 42
0.0000000001
 43
0.0000000001
 12
1.0
 22
0.0
 32
0.0
 13
1.0
 23
0.0
 33
0.0
 40
0.0
 40
0.0
 40
0.0
 40
0.0
 40
0.1666666666666667
 40
0.1666666666666667
 40
0.1666666666666667
 40
0.1666666666666667
 40
0.3333333333333333
 40
0.3333333333333333
 40
0.3333333333333333
 40
0.3333333333333333
 40
0.5
 40
0.5
 40
0.5
 40
0.5
 40
0.6666666666666666
 40
0.6666666666666666
 40
0.6666666666666666
 40
0.6666666666666666
 40
1.0
 40
1.0
 40
1.0
 40
1.0
 10
-18.7924
 20
-8.1584
 30
0.0
 10
-17.0057
 20
-11.5861
 30
0.0
 10
-15.5604
 20
-15.9686
 30
0.0
 10
-16.9793
 20
-19.0566
 30
0.0
 10
-16.9793
 20
-19.0566
 30
0.0
 10
-19.2002
 20
-23.3815
 30
0.0
 10
-24.1669
 20
-24.1521
 30
0.0
 10
-24.6293
 20
-20.2495
 30
0.0
 10
-24.6293
 20
-20.2495
 30
0.0
 10
-27.1522
 20
-27.0001
 30
0.0
 10
-19.158
 20
-27.1671
 30
0.0
 10
-16.982
 20
-22.6061
 30
0.0
 10
-16.982
 20
-22.6061
 30
0.0
 10
-17.7651
 20
-25.3194
 30
0.0
 10
-17.2761
 20
-27.6006
 30
0.0
 10
-15.7894
 20
-29.0466
 30
0.0
 10
-15.7894
 20
-29.0466
 30
0.0
 10
-10.1523
 20
-25.6514
 30
0.0
 10
-13.3645
 20
-11.2898
 30
0.0
 10
-18.7924
 20
-8.1584
 30
0.0
  0
SPLINE
  5
62
330
1F
100
AcDbEntity
  8
layer 1
 62
     7
100
AcDbSpline
210
0.0
220
0.0
230
1.0
 70
    11
 71
     3
 72
    32
 73
    28
 74
     0
 42
0.0000000001
 43
0.0000000001
 12
1.0
 22
0.0
 32
0.0
 13
1.0
 23
0.0
 33
0.0
 40
0.0
 40
0.0
 40
0.0
 40
0.0
 40
0.125
 40
0.125
 40
0.125
 40
0.125
 40
0.25
 40
0.25
 40
0.25
 40
0.25
 40
0.375
 40
0.375
 40
0.375
 40
0.375
 40
0.5
 40
0.5
 40
0.5
 40
0.5
 40
0.625
 40
0.625
 40
0.625
 40
0.625
 40
0.75
 40
0.75
 40
0.75
 40
0.75
 40
1.0
 40
1.0
 40
1.0
 40
1.0
 10
-27.6686
 20
-87.6937
 30
0.0
 10
-26.1949
 20
-87.1926
 30
0.0
 10
-25.542
 20
-86.2581
 30
0.0
 10
-25.2997
 20
-85.2596
 30
0.0
 10
-25.2997
 20
-85.2596
 30
0.0
 10
-24.9359
 20
-89.9845
 30
0.0
 10
-22.7077
 20
-90.16
 30
0.0
 10
-21.4924
 20
-90.5675
 30
0.0
 10
-21.4924
 20
-90.5675
 30
0.0
 10
-17.4814
 20
-90.5924
 30
0.0
 10
-16.3889
 20
-88.7167
 30
0.0
 10
-16.8354
 20
-85.0905
 30
0.0
 10
-16.8354
 20
-85.0905
 30
0.0
 10
-17.9283
 20
-88.0931
 30
0.0
 10
-21.6282
 20
-88.0883
 30
0.0
 10
-22.0731
 20
-85.6732
 30
0.0
 10
-22.0731
 20
-85.6732
 30
0.0
 10
-23.0311
 20
-79.3222
 30
0.0
 10
-19.3532
 20
-74.6014
 30
0.0
 10
-16.0549
 20
-71.3477
 30
0.0
 10
-16.0549
 20
-71.3477
 30
0.0
 10
-18.3886
 20
-72.2621
 30
0.0
 10
-22.3741
 20
-74.6671
 30
0.0
 10
-24.8536
 20
-77.7114
 30
0.0
 10
-24.8536
 20
-77.7114
 30
0.0
 10
-27.9457
 20
-81.5079
 30
0.0
 10
-29.1879
 20
-86.0967
 30
0.0
 10
-27.6686
 20
-87.6937
 30
0.0
  0
SPLINE
  5
63
330
1F
100
AcDbEntity
  8
layer 1
 62
     7
100
AcDbSpline
210
0.0
220
0.0
230
1.0
 70
    11
 71
     3
 72
    64
 73
    60
 74
     0
 42
0.0000000001
 43
0.0000000001
 12
1.0
 22
0.0
 32
0.0
 13
1.0
 23
0.0
 33
0.0
 40
0.0
 40
0.0
 40
0.0
 40
0.0
 40
0.0625
 40
0.0625
 40
0.0625
 40
0.0625
 40
0.125
 40
0.125
 40
0.125
 40
0.125
 40
0.1875
 40
0.1875
 40
0.1875
 40
0.1875
 40
0.25
 40
0.25
 40
0.25
 40
0.25
 40
0.3125
 40
0.3125
 40
0.3125
 40
0.3125
 40
0.375
 40
0.375
 40
0.375
 40
0.375
 40
0.4375
 40
0.4375
 40
0.4375
 40
0.4375
 40
0.5
 40
0.5
 40
0.5
 40
0.5
 40
0.5625
 40
0.5625
 40
0.5625
 40
0.5625
 40
0.625
 40
0.625
 40
0.625
 40
0.625
 40
0.6875
 40
0.6875
 40
0.6875
 40
0.6875
 40
0.75
 40
0.75
 40
0.75
 40
0.75
 40
0.8125
 40
0.8125
 40
0.8125
 40
0.8125
 40
0.875
 40
0.875
 40
0.875
 40
0.875
 40
1.0
 40
1.0
 40
1.0
 40
1.0
 10
-32.8126
 20
2.5206
 30
0.0
 10
-30.4681
 20
0.9607
 30
0.0
 10
-28.5738
 20
-0.7716
 30
0.0
 10
-27.4016
 20
-3.3324
 30
0.0
 10
-27.4016
 20
-3.3324
 30
0.0
 10
-26.3014
 20
-5.7544
 30
0.0
 10
-26.3087
 20
-10.2949
 30
0.0
 10
-27.4167
 20
-12.8798
 30
0.0
 10
-27.4167
 20
-12.8798
 30
0.0
 10
-29.2165
 20
-16.5007
 30
0.0
 10
-32.7569
 20
-17.0915
 30
0.0
 10
-35.2241
 20
-16.0276
 30
0.0
 10
-35.2241
 20
-16.0276
 30
0.0
 10
-37.1542
 20
-15.1953
 30
0.0
 10
-37.4115
 20
-11.8364
 30
0.0
 10
-34.841
 20
-10.8889
 30
0.0
 10
-34.841
 20
-10.8889
 30
0.0
 10
-34.2675
 20
-10.832
 30
0.0
 10
-33.8772
 20
-10.9858
 30
0.0
 10
-34.1912
 20
-11.3971
 30
0.0
 10
-34.1912
 20
-11.3971
 30
0.0
 10
-34.8488
 20
-12.1331
 30
0.0
 10
-34.9381
 20
-12.5224
 30
0.0
 10
-34.5797
 20
-13.0906
 30
0.0
 10
-34.5797
 20
-13.0906
 30
0.0
 10
-33.9169
 20
-14.1413
 30
0.0
 10
-32.2034
 20
-14.0304
 30
0.0
 10
-31.789
 20
-12.9101
 30
0.0
 10
-31.789
 20
-12.9101
 30
0.0
 10
-31.3971
 20
-11.851
 30
0.0
 10
-31.4695
 20
-10.318
 30
0.0
 10
-33.0162
 20
-9.5693
 30
0.0
 10
-33.0162
 20
-9.5693
 30
0.0
 10
-35.1966
 20
-8.7192
 30
0.0
 10
-36.9063
 20
-9.5711
 30
0.0
 10
-37.9415
 20
-11.0339
 30
0.0
 10
-37.9415
 20
-11.0339
 30
0.0
 10
-39.2182
 20
-13.0379
 30
0.0
 10
-38.9324
 20
-15.9414
 30
0.0
 10
-37.4267
 20
-17.4002
 30
0.0
 10
-37.4267
 20
-17.4002
 30
0.0
 10
-33.8569
 20
-20.9971
 30
0.0
 10
-28.701
 20
-19.1917
 30
0.0
 10
-26.3583
 20
-15.6353
 30
0.0
 10
-26.3583
 20
-15.6353
 30
0.0
 10
-25.6384
 20
-14.5346
 30
0.0
 10
-25.1975
 20
-14.3415
 30
0.0
 10
-25.0308
 20
-15.0902
 30
0.0
 10
-25.0308
 20
-15.0902
 30
0.0
 10
-24.6454
 20
-16.8215
 30
0.0
 10
-23.3099
 20
-16.1221
 30
0.0
 10
-22.6471
 20
-14.3736
 30
0.0
 10
-22.6471
 20
-14.3736
 30
0.0
 10
-19.3222
 20
-6.0015
 30
0.0
 10
-25.7286
 20
0.6436
 30
0.0
 10
-32.8126
 20
2.5205
 30
0.0
 10
-32.8126
 20
2.5205
 30
0.0
 10
-32.8126
 20
2.5205
 30
0.0
 10
-32.8126
 20
2.5206
 30
0.0
 10
-32.8126
 20
2.5206
 30
0.0
  0
SPLINE
  5
64
330
1F
100
AcDbEntity
  8
layer 1
 62
     7
100
AcDbSpline
210
0.0
220
0.0
230
1.0
 70
    11
 71
     3
 72
    40
 73
    36
 74
     0
 42
0.0000000001
 43
0.0000000001
 12
1.0
 22
0.0
 32
0.0
 13
1.0
 23
0.0
 33
0.0
 40
0.0
 40
0.0
 40
0.0
 40
0.0
 40
0.1
 40
0.1
 40
0.1
 40
0.1
 40
0.2
 40
0.2
 40
0.2
 40
0.2
 40
0.3
 40
0.3
 40
0.3
 40
0.3
 40
0.4
 40
0.4
 40
0.4
 40
0.4
 40
0.5
 40
0.5
 40
0.5
 40
0.5
 40
0.6
 40
0.6
 40
0.6
 40
0.6
 40
0.7
 40
0.7
 40
0.7
 40
0.7
 40
0.8
 40
0.8
 40
0.8
 40
0.8
 40
1.0
 40
1.0
 40
1.0
 40
1.0
 10
-39.6685
 20
-57.9686
 30
0.0
 10
-41.5817
 20
-55.5365
 30
0.0
 10
-45.2441
 20
-54.2588
 30
0.0
 10
-46.5525
 20
-55.567
 30
0.0
 10
-46.5525
 20
-55.567
 30
0.0
 10
-47.2934
 20
-56.308
 30
0.0
 10
-47.2011
 20
-57.5471
 30
0.0
 10
-46.3703
 20
-58.0119
 30
0.0
 10
-46.3703
 20
-58.0119
 30
0.0
 10
-45.9432
 20
-58.2509
 30
0.0
 10
-45.5346
 20
-58.4179
 30
0.0
 10
-45.68
 20
-58.7789
 30
0.0
 10
-45.68
 20
-58.7789
 30
0.0
 10
-45.755
 20
-58.965
 30
0.0
 10
-46.1051
 20
-59.2337
 30
0.0
 10
-46.4013
 20
-59.5308
 30
0.0
 10
-46.4013
 20
-59.5308
 30
0.0
 10
-47.1386
 20
-60.2704
 30
0.0
 10
-47.372
 20
-61.2298
 30
0.0
 10
-47.0133
 20
-61.9002
 30
0.0
 10
-47.0133
 20
-61.9002
 30
0.0
 10
-46.1517
 20
-63.5102
 30
0.0
 10
-44.5546
 20
-63.105
 30
0.0
 10
-42.0945
 20
-61.4106
 30
0.0
 10
-42.0945
 20
-61.4106
 30
0.0
 10
-40.8412
 20
-60.5473
 30
0.0
 10
-39.6847
 20
-60.0411
 30
0.0
 10
-38.3693
 20
-59.81
 30
0.0
 10
-38.3693
 20
-59.81
 30
0.0
 10
-39.2533
 20
-58.5501
 30
0.0
 10
-38.6719
 20
-59.2357
 30
0.0
 10
-39.6687
 20
-57.9684
 30
0.0
 10
-39.6687
 20
-57.9684
 30
0.0
 10
-39.6687
 20
-57.9684
 30
0.0
 10
-39.6685
 20
-57.9686
 30
0.0
 10
-39.6685
 20
-57.9686
 30
0.0
  0
SPLINE
  5
65
330
1F
100
AcDbEntity
  8
layer 1
 62
     7
100
AcDbSpline
210
0.0
220
0.0
230
1.0
 70
    11
 71
     3
 72
    52
 73
    48
 74
     0
 42
0.0000000001
 43
0.0000000001
 12
1.0
 22
0.0
 32
0.0
 13
1.0
 23
0.0
 33
0.0
 40
0.0
 40
0.0
 40
0.0
 40
0.0
 40
0.0769230769230769
 40
0.0769230769230769
 40
0.0769230769230769
 40
0.0769230769230769
 40
0.1538461538461539
 40
0.1538461538461539
 40
0.1538461538461539
 40
0.1538461538461539
 40
0.2307692307692308
 40
0.2307692307692308
 40
0.2307692307692308
 40
0.2307692307692308
 40
0.3076923076923077
 40
0.3076923076923077
 40
0.3076923076923077
 40
0.3076923076923077
 40
0.3846153846153846
 40
0.3846153846153846
 40
0.3846153846153846
 40
0.3846153846153846
 40
0.4615384615384616
 40
0.4615384615384616
 40
0.4615384615384616
 40
0.4615384615384616
 40
0.5384615384615384
 40
0.5384615384615384
 40
0.5384615384615384
 40
0.5384615384615384
 40
0.6153846153846154
 40
0.6153846153846154
 40
0.6153846153846154
 40
0.6153846153846154
 40
0.6923076923076923
 40
0.6923076923076923
 40
0.6923076923076923
 40
0.6923076923076923
 40
0.7692307692307693
 40
0.7692307692307693
 40
0.7692307692307693
 40
0.7692307692307693
 40
0.8461538461538461
 40
0.8461538461538461
 40
0.8461538461538461
 40
0.8461538461538461
 40
1.0
 40
1.0
 40
1.0
 40
1.0
 10
3.7163
 20
-89.8119
 30
0.0
 10
4.0023
 20
-89.7062
 30
0.0
 10
3.9156
 20
-89.6113
 30
0.0
 10
4.206
 20
-89.7908
 30
0.0
 10
4.206
 20
-89.7908
 30
0.0
 10
4.3995
 20
-95.2033
 30
0.0
 10
3.3597
 20
-102.6265
 30
0.0
 10
0.1011
 20
-104.7651
 30
0.0
 10
0.1011
 20
-104.7651
 30
0.0
 10
-3.5404
 20
-108.0439
 30
0.0
 10
-9.6738
 20
-108.5014
 30
0.0
 10
-7.9131
 20
-104.4677
 30
0.0
 10
-7.9131
 20
-104.4677
 30
0.0
 10
-11.0751
 20
-104.1646
 30
0.0
 10
-13.6807
 20
-103.1201
 30
0.0
 10
-13.7923
 20
-97.8034
 30
0.0
 10
-13.7923
 20
-97.8034
 30
0.0
 10
-12.9547
 20
-92.5286
 30
0.0
 10
-8.9422
 20
-91.3403
 30
0.0
 10
-6.2243
 20
-92.3987
 30
0.0
 10
-6.2243
 20
-92.3987
 30
0.0
 10
-3.7466
 20
-93.4392
 30
0.0
 10
-2.7557
 20
-96.6637
 30
0.0
 10
-4.1041
 20
-97.5775
 30
0.0
 10
-4.1041
 20
-97.5775
 30
0.0
 10
-4.9281
 20
-95.1025
 30
0.0
 10
-6.0354
 20
-93.9708
 30
0.0
 10
-6.9414
 20
-95.4834
 30
0.0
 10
-6.9414
 20
-95.4834
 30
0.0
 10
-7.5763
 20
-96.4553
 30
0.0
 10
-8.958
 20
-96.1053
 30
0.0
 10
-9.08
 20
-95.4702
 30
0.0
 10
-9.08
 20
-95.4702
 30
0.0
 10
-9.1207
 20
-95.2579
 30
0.0
 10
-9.9294
 20
-94.9551
 30
0.0
 10
-10.5538
 20
-95.7284
 30
0.0
 10
-10.5538
 20
-95.7284
 30
0.0
 10
-12.9668
 20
-97.4021
 30
0.0
 10
-10.7144
 20
-101.3727
 30
0.0
 10
-9.3393
 20
-101.8922
 30
0.0
 10
-9.3393
 20
-101.8922
 30
0.0
 10
-1.4517
 20
-104.7667
 30
0.0
 10
3.0025
 20
-97.9047
 30
0.0
 10
3.7164
 20
-89.8119
 30
0.0
 10
3.7164
 20
-89.8119
 30
0.0
 10
3.7164
 20
-89.8119
 30
0.0
 10
3.7163
 20
-89.8119
 30
0.0
 10
3.7163
 20
-89.8119
 30
0.0
  0
SPLINE
  5
66
330
1F
100
AcDbEntity
  8
layer 1
 62
     7
100
AcDbSpline
210
0.0
220
0.0
230
1.0
 70
    11
 71
     3
 72
    20
 73
    16
 74
     0
 42
0.0000000001
 43
0.0000000001
 12
1.0
 22
0.0
 32
0.0
 13
1.0
 23
0.0
 33
0.0
 40
0.0
 40
0.0
 40
0.0
 40
0.0
 40
0.2
 40
0.2
 40
0.2
 40
0.2
 40
0.4
 40
0.4
 40
0.4
 40
0.4
 40
0.6
 40
0.6
 40
0.6
 40
0.6
 40
1.0
 40
1.0
 40
1.0
 40
1.0
 10
10.8128
 20
-84.9464
 30
0.0
 10
12.3205
 20
-81.4765
 30
0.0
 10
10.6361
 20
-79.7015
 30
0.0
 10
5.6622
 20
-75.1112
 30
0.0
 10
5.6622
 20
-75.1112
 30
0.0
 10
0.6883
 20
-79.7015
 30
0.0
 10
-0.996
 20
-81.4765
 30
0.0
 10
0.5116
 20
-84.9464
 30
0.0
 10
0.5116
 20
-84.9464
 30
0.0
 10
1.6193
 20
-87.032
 30
0.0
 10
5.062
 20
-86.2549
 30
0.0
 10
5.6622
 20
-84.0151
 30
0.0
 10
5.6622
 20
-84.0151
 30
0.0
 10
6.2624
 20
-86.2549
 30
0.0
 10
9.7051
 20
-87.032
 30
0.0
 10
10.8128
 20
-84.9464
 30
0.0
  0
SPLINE
  5
67
330
1F
100
AcDbEntity
  8
layer 1
 62
     7
100
AcDbSpline
210
0.0
220
0.0
230
1.0
 70
    11
 71
     3
 72
    20
 73
    16
 74
     0
 42
0.0000000001
 43
0.0000000001
 12
1.0
 22
0.0
 32
0.0
 13
1.0
 23
0.0
 33
0.0
 40
0.0
 40
0.0
 40
0.0
 40
0.0
 40
0.2
 40
0.2
 40
0.2
 40
0.2
 40
0.4
 40
0.4
 40
0.4
 40
0.4
 40
0.6
 40
0.6
 40
0.6
 40
0.6
 40
1.0
 40
1.0
 40
1.0
 40
1.0
 10
7.7359
 20
-103.7472
 30
0.0
 10
7.6545
 20
-102.4413
 30
0.0
 10
6.5448
 20
-100.8355
 30
0.0
 10
5.6624
 20
-98.781
 30
0.0
 10
5.6624
 20
-98.781
 30
0.0
 10
4.7798
 20
-100.8355
 30
0.0
 10
3.6703
 20
-102.4413
 30
0.0
 10
3.5889
 20
-103.7472
 30
0.0
 10
3.5889
 20
-103.7472
 30
0.0
 10
3.5468
 20
-104.8183
 30
0.0
 10
3.9126
 20
-106.6111
 30
0.0
 10
5.6624
 20
-106.6705
 30
0.0
 10
5.6624
 20
-106.6705
 30
0.0
 10
7.446
 20
-106.5436
 30
0.0
 10
7.778
 20
-104.8183
 30
0.0
 10
7.7359
 20
-103.7472
 30
0.0
  0
SPLINE
  5
68
330
1F
100
AcDbEntity
  8
layer 1
 62
     7
100
AcDbSpline
210
0.0
220
0.0
230
1.0
 70
    11
 71
     3
 72
    64
 73
    60
 74
     0
 42
0.0000000001
 43
0.0000000001
 12
1.0
 22
0.0
 32
0.0
 13
1.0
 23
0.0
 33
0.0
 40
0.0
 40
0.0
 40
0.0
 40
0.0
 40
0.0625
 40
0.0625
 40
0.0625
 40
0.0625
 40
0.125
 40
0.125
 40
0.125
 40
0.125
 40
0.1875
 40
0.1875
 40
0.1875
 40
0.1875
 40
0.25
 40
0.25
 40
0.25
 40
0.25
 40
0.3125
 40
0.3125
 40
0.3125
 40
0.3125
 40
0.375
 40
0.375
 40
0.375
 40
0.375
 40
0.4375
 40
0.4375
 40
0.4375
 40
0.4375
 40
0.5
 40
0.5
 40
0.5
 40
0.5
 40
0.5625
 40
0.5625
 40
0.5625
 40
0.5625
 40
0.625
 40
0.625
 40
0.625
 40
0.625
 40
0.6875
 40
0.6875
 40
0.6875
 40
0.6875
 40
0.75
 40
0.75
 40
0.75
 40
0.75
 40
0.8125
 40
0.8125
 40
0.8125
 40
0.8125
 40
0.875
 40
0.875
 40
0.875
 40
0.875
 40
1.0
 40
1.0
 40
1.0
 40
1.0
 10
4.3946
 20
-13.539
 30
0.0
 10
5.0497
 20
-11.1063
 30
0.0
 10
3.9447
 20
-11.2713
 30
0.0
 10
3.4484
 20
-12.4041
 30
0.0
 10
3.4484
 20
-12.4041
 30
0.0
 10
3.2371
 20
-12.8866
 30
0.0
 10
2.7782
 20
-14.2547
 30
0.0
 10
2.3047
 20
-14.2643
 30
0.0
 10
2.3047
 20
-14.2643
 30
0.0
 10
-0.4905
 20
-12.1646
 30
0.0
 10
1.9696
 20
-8.1546
 30
0.0
 10
3.7934
 20
-5.5487
 30
0.0
 10
3.7934
 20
-5.5487
 30
0.0
 10
5.1932
 20
-3.5487
 30
0.0
 10
3.2427
 20
-2.9574
 30
0.0
 10
2.8294
 20
-4.059
 30
0.0
 10
2.8294
 20
-4.059
 30
0.0
 10
2.7872
 20
-5.614
 30
0.0
 10
-0.3761
 20
-7.3825
 30
0.0
 10
-0.8002
 20
-6.5641
 30
0.0
 10
-0.8002
 20
-6.5641
 30
0.0
 10
3.3996
 20
-1.5003
 30
0.0
 10
-2.1671
 20
3.179
 30
0.0
 10
5.6621
 20
6.4198
 30
0.0
 10
5.6621
 20
6.4198
 30
0.0
 10
13.4912
 20
3.179
 30
0.0
 10
7.9247
 20
-1.5003
 30
0.0
 10
12.1243
 20
-6.5641
 30
0.0
 10
12.1243
 20
-6.5641
 30
0.0
 10
11.7002
 20
-7.3824
 30
0.0
 10
8.5369
 20
-5.614
 30
0.0
 10
8.4947
 20
-4.059
 30
0.0
 10
8.4947
 20
-4.059
 30
0.0
 10
8.0813
 20
-2.9574
 30
0.0
 10
6.1309
 20
-3.5485
 30
0.0
 10
7.5307
 20
-5.5487
 30
0.0
 10
7.5307
 20
-5.5487
 30
0.0
 10
9.3545
 20
-8.1546
 30
0.0
 10
11.8146
 20
-12.1646
 30
0.0
 10
9.0194
 20
-14.2643
 30
0.0
 10
9.0194
 20
-14.2643
 30
0.0
 10
8.5459
 20
-14.2547
 30
0.0
 10
8.0872
 20
-12.8867
 30
0.0
 10
7.8757
 20
-12.4041
 30
0.0
 10
7.8757
 20
-12.4041
 30
0.0
 10
7.3794
 20
-11.2713
 30
0.0
 10
6.2744
 20
-11.1063
 30
0.0
 10
6.9295
 20
-13.539
 30
0.0
 10
6.9295
 20
-13.539
 30
0.0
 10
7.5666
 20
-15.9051
 30
0.0
 10
7.7358
 20
-17.366
 30
0.0
 10
5.6617
 20
-20.6504
 30
0.0
 10
5.6617
 20
-20.6504
 30
0.0
 10
3.5877
 20
-17.366
 30
0.0
 10
3.7568
 20
-15.9051
 30
0.0
 10
4.3939
 20
-13.539
 30
0.0
 10
4.3939
 20
-13.539
 30
0.0
 10
4.3939
 20
-13.539
 30
0.0
 10
4.3946
 20
-13.539
 30
0.0
 10
4.3946
 20
-13.539
 30
0.0
  0
SPLINE
  5
69
330
1F
100
AcDbEntity
  8
layer 1
 62
     7
100
AcDbSpline
210
0.0
220
0.0
230
1.0
 70
    11
 71
     3
 72
    36
 73
    32
 74
     0
 42
0.0000000001
 43
0.0000000001
 12
1.0
 22
0.0
 32
0.0
 13
1.0
 23
0.0
 33
0.0
 40
0.0
 40
0.0
 40
0.0
 40
0.0
 40
0.1111111111111111
 40
0.1111111111111111
 40
0.1111111111111111
 40
0.1111111111111111
 40
0.2222222222222222
 40
0.2222222222222222
 40
0.2222222222222222
 40
0.2222222222222222
 40
0.3333333333333333
 40
0.3333333333333333
 40
0.3333333333333333
 40
0.3333333333333333
 40
0.4444444444444444
 40
0.4444444444444444
 40
0.4444444444444444
 40
0.4444444444444444
 40
0.5555555555555556
 40
0.5555555555555556
 40
0.5555555555555556
 40
0.5555555555555556
 40
0.6666666666666666
 40
0.6666666666666666
 40
0.6666666666666666
 40
0.6666666666666666
 40
0.7777777777777778
 40
0.7777777777777778
 40
0.7777777777777778
 40
0.7777777777777778
 40
1.0
 40
1.0
 40
1.0
 40
1.0
 10
15.6573
 20
90.345
 30
0.0
 10
21.1271
 20
89.8624
 30
0.0
 10
23.7781
 20
90.5046
 30
0.0
 10
25.1088
 20
91.7444
 30
0.0
 10
25.1088
 20
91.7444
 30
0.0
 10
26.8367
 20
93.3541
 30
0.0
 10
25.5994
 20
96.5867
 30
0.0
 10
23.2804
 20
96.5867
 30
0.0
 10
23.2804
 20
96.5867
 30
0.0
 10
22.2986
 20
96.5867
 30
0.0
 10
22.0235
 20
96.8263
 30
0.0
 10
22.6018
 20
97.5094
 30
0.0
 10
22.6018
 20
97.5094
 30
0.0
 10
23.9505
 20
99.1027
 30
0.0
 10
23.216
 20
100.5401
 30
0.0
 10
22.4532
 20
101.3028
 30
0.0
 10
22.4532
 20
101.3028
 30
0.0
 10
20.6829
 20
103.0732
 30
0.0
 10
16.759
 20
101.0411
 30
0.0
 10
12.3948
 20
96.473
 30
0.0
 10
12.3948
 20
96.473
 30
0.0
 10
10.7868
 20
94.8739
 30
0.0
 10
9.0642
 20
93.0664
 30
0.0
 10
7.2602
 20
91.2406
 30
0.0
 10
7.2602
 20
91.2406
 30
0.0
 10
6.9938
 20
91.3267
 30
0.0
 10
10.4169
 20
90.8073
 30
0.0
 10
15.6573
 20
90.3449
 30
0.0
 10
15.6573
 20
90.3449
 30
0.0
 10
15.6573
 20
90.3449
 30
0.0
 10
15.6573
 20
90.345
 30
0.0
 10
15.6573
 20
90.345
 30
0.0
  0
SPLINE
  5
6A
330
1F
100
AcDbEntity
  8
layer 1
 62
     7
100
AcDbSpline
210
0.0
220
0.0
230
1.0
 70
    11
 71
     3
 72
    52
 73
    48
 74
     0
 42
0.0000000001
 43
0.0000000001
 12
1.0
 22
0.0
 32
0.0
 13
1.0
 23
0.0
 33
0.0
 40
0.0
 40
0.0
 40
0.0
 40
0.0
 40
0.0769230769230769
 40
0.0769230769230769
 40
0.0769230769230769
 40
0.0769230769230769
 40
0.1538461538461539
 40
0.1538461538461539
 40
0.1538461538461539
 40
0.1538461538461539
 40
0.2307692307692308
 40
0.2307692307692308
 40
0.2307692307692308
 40
0.2307692307692308
 40
0.3076923076923077
 40
0.3076923076923077
 40
0.3076923076923077
 40
0.3076923076923077
 40
0.3846153846153846
 40
0.3846153846153846
 40
0.3846153846153846
 40
0.3846153846153846
 40
0.4615384615384616
 40
0.4615384615384616
 40
0.4615384615384616
 40
0.4615384615384616
 40
0.5384615384615384
 40
0.5384615384615384
 40
0.5384615384615384
 40
0.5384615384615384
 40
0.6153846153846154
 40
0.6153846153846154
 40
0.6153846153846154
 40
0.6153846153846154
 40
0.6923076923076923
 40
0.6923076923076923
 40
0.6923076923076923
 40
0.6923076923076923
 40
0.7692307692307693
 40
0.7692307692307693
 40
0.7692307692307693
 40
0.7692307692307693
 40
0.8461538461538461
 40
0.8461538461538461
 40
0.8461538461538461
 40
0.8461538461538461
 40
1.0
 40
1.0
 40
1.0
 40
1.0
 10
11.8444
 20
39.2988
 30
0.0
 10
12.3391
 20
36.9646
 30
0.0
 10
12.7392
 20
37.1082
 30
0.0
 10
12.3803
 20
39.4831
 30
0.0
 10
12.3803
 20
39.4831
 30
0.0
 10
11.3461
 20
48.3977
 30
0.0
 10
10.7883
 20
56.3565
 30
0.0
 10
15.2035
 20
63.8157
 30
0.0
 10
15.2035
 20
63.8157
 30
0.0
 10
17.764
 20
68.5793
 30
0.0
 10
23.1373
 20
73.4762
 30
0.0
 10
29.1283
 20
75.6945
 30
0.0
 10
29.1283
 20
75.6945
 30
0.0
 10
30.3455
 20
76.0619
 30
0.0
 10
34.3834
 20
76.6423
 30
0.0
 10
38.1016
 20
76.984
 30
0.0
 10
38.1016
 20
76.984
 30
0.0
 10
41.8197
 20
77.3257
 30
0.0
 10
45.6469
 20
77.485
 30
0.0
 10
46.6064
 20
77.759
 30
0.0
 10
46.6064
 20
77.759
 30
0.0
 10
50.6618
 20
78.9166
 30
0.0
 10
54.1294
 20
81.7626
 30
0.0
 10
54.6272
 20
84.2525
 30
0.0
 10
54.6272
 20
84.2525
 30
0.0
 10
54.9032
 20
85.6319
 30
0.0
 10
54.1495
 20
85.4819
 30
0.0
 10
52.7072
 20
85.4819
 30
0.0
 10
52.7072
 20
85.4819
 30
0.0
 10
52.7072
 20
85.4819
 30
0.0
 10
51.0665
 20
85.4819
 30
0.0
 10
51.0665
 20
85.4819
 30
0.0
 10
51.0665
 20
85.4819
 30
0.0
 10
57.0489
 20
89.7862
 30
0.0
 10
60.0185
 20
97.2131
 30
0.0
 10
57.7907
 20
102.4955
 30
0.0
 10
57.7907
 20
102.4955
 30
0.0
 10
58.0933
 20
90.7606
 30
0.0
 10
46.2822
 20
83.1283
 30
0.0
 10
36.984
 20
80.6946
 30
0.0
 10
36.984
 20
80.6946
 30
0.0
 10
28.5697
 20
78.2029
 30
0.0
 10
23.4301
 20
75.6048
 30
0.0
 10
19.7528
 20
71.9844
 30
0.0
 10
19.7528
 20
71.9844
 30
0.0
 10
10.7581
 20
63.1423
 30
0.0
 10
9.3983
 20
54.2887
 30
0.0
 10
11.8444
 20
39.2988
 30
0.0
  0
SPLINE
  5
6B
330
1F
100
AcDbEntity
  8
layer 1
 62
     7
100
AcDbSpline
210
0.0
220
0.0
230
1.0
 70
    11
 71
     3
 72
   108
 73
   104
 74
     0
 42
0.0000000001
 43
0.0000000001
 12
1.0
 22
0.0
 32
0.0
 13
1.0
 23
0.0
 33
0.0
 40
0.0
 40
0.0
 40
0.0
 40
0.0
 40
0.037037037037037
 40
0.037037037037037
 40
0.037037037037037
 40
0.037037037037037
 40
0.0740740740740741
 40
0.0740740740740741
 40
0.0740740740740741
 40
0.0740740740740741
 40
0.1111111111111111
 40
0.1111111111111111
 40
0.1111111111111111
 40
0.1111111111111111
 40
0.1481481481481481
 40
0.1481481481481481
 40
0.1481481481481481
 40
0.1481481481481481
 40
0.1851851851851852
 40
0.1851851851851852
 40
0.1851851851851852
 40
0.1851851851851852
 40
0.2222222222222222
 40
0.2222222222222222
 40
0.2222222222222222
 40
0.2222222222222222
 40
0.2592592592592592
 40
0.2592592592592592
 40
0.2592592592592592
 40
0.2592592592592592
 40
0.2962962962962963
 40
0.2962962962962963
 40
0.2962962962962963
 40
0.2962962962962963
 40
0.3333333333333333
 40
0.3333333333333333
 40
0.3333333333333333
 40
0.3333333333333333
 40
0.3703703703703703
 40
0.3703703703703703
 40
0.3703703703703703
 40
0.3703703703703703
 40
0.4074074074074074
 40
0.4074074074074074
 40
0.4074074074074074
 40
0.4074074074074074
 40
0.4444444444444444
 40
0.4444444444444444
 40
0.4444444444444444
 40
0.4444444444444444
 40
0.4814814814814815
 40
0.4814814814814815
 40
0.4814814814814815
 40
0.4814814814814815
 40
0.5185185185185185
 40
0.5185185185185185
 40
0.5185185185185185
 40
0.5185185185185185
 40
0.5555555555555556
 40
0.5555555555555556
 40
0.5555555555555556
 40
0.5555555555555556
 40
0.5925925925925926
 40
0.5925925925925926
 40
0.5925925925925926
 40
0.5925925925925926
 40
0.6296296296296297
 40
0.6296296296296297
 40
0.6296296296296297
 40
0.6296296296296297
 40
0.6666666666666666
 40
0.6666666666666666
 40
0.6666666666666666
 40
0.6666666666666666
 40
0.7037037037037037
 40
0.7037037037037037
 40
0.7037037037037037
 40
0.7037037037037037
 40
0.7407407407407407
 40
0.7407407407407407
 40
0.7407407407407407
 40
0.7407407407407407
 40
0.7777777777777778
 40
0.7777777777777778
 40
0.7777777777777778
 40
0.7777777777777778
 40
0.8148148148148148
 40
0.8148148148148148
 40
0.8148148148148148
 40
0.8148148148148148
 40
0.8518518518518519
 40
0.8518518518518519
 40
0.8518518518518519
 40
0.8518518518518519
 40
0.8888888888888888
 40
0.8888888888888888
 40
0.8888888888888888
 40
0.8888888888888888
 40
0.9259259259259259
 40
0.9259259259259259
 40
0.9259259259259259
 40
0.9259259259259259
 40
1.0
 40
1.0
 40
1.0
 40
1.0
 10
12.0079
 20
64.9325
 30
0.0
 10
16.2559
 20
74.2226
 30
0.0
 10
23.9413
 20
81.3368
 30
0.0
 10
33.7401
 20
82.6415
 30
0.0
 10
33.7401
 20
82.6415
 30
0.0
 10
37.7971
 20
83.1016
 30
0.0
 10
40.8635
 20
83.8014
 30
0.0
 10
42.5297
 20
84.6475
 30
0.0
 10
42.5297
 20
84.6475
 30
0.0
 10
44.6255
 20
85.7119
 30
0.0
 10
46.7577
 20
88.3472
 30
0.0
 10
47.0772
 20
90.2681
 30
0.0
 10
47.0772
 20
90.2681
 30
0.0
 10
47.7942
 20
94.5798
 30
0.0
 10
48.6298
 20
96.0907
 30
0.0
 10
52.1876
 20
99.5095
 30
0.0
 10
52.1876
 20
99.5095
 30
0.0
 10
54.6841
 20
102.0003
 30
0.0
 10
55.3695
 20
102.7594
 30
0.0
 10
55.4536
 20
104.9613
 30
0.0
 10
55.4536
 20
104.9613
 30
0.0
 10
55.3255
 20
106.237
 30
0.0
 10
54.706
 20
107.971
 30
0.0
 10
53.8869
 20
109.3479
 30
0.0
 10
53.8869
 20
109.3479
 30
0.0
 10
53.1418
 20
110.6002
 30
0.0
 10
52.0036
 20
113.1137
 30
0.0
 10
51.3574
 20
114.9335
 30
0.0
 10
51.3574
 20
114.9335
 30
0.0
 10
49.7161
 20
119.5567
 30
0.0
 10
48.0468
 20
121.7853
 30
0.0
 10
44.7017
 20
123.4321
 30
0.0
 10
44.7017
 20
123.4321
 30
0.0
 10
41.1713
 20
124.8314
 30
0.0
 10
36.5137
 20
125.3566
 30
0.0
 10
33.233
 20
123.7535
 30
0.0
 10
33.233
 20
123.7535
 30
0.0
 10
30.1434
 20
122.1773
 30
0.0
 10
28.5126
 20
118.8927
 30
0.0
 10
28.5105
 20
115.3577
 30
0.0
 10
28.5105
 20
115.3577
 30
0.0
 10
28.5087
 20
112.5323
 30
0.0
 10
31.3573
 20
109.9059
 30
0.0
 10
34.4235
 20
109.9059
 30
0.0
 10
34.4235
 20
109.9059
 30
0.0
 10
38.6362
 20
109.549
 30
0.0
 10
41.2533
 20
114.3118
 30
0.0
 10
39.552
 20
116.5518
 30
0.0
 10
39.552
 20
116.5518
 30
0.0
 10
39.4459
 20
116.1506
 30
0.0
 10
39.5786
 20
114.475
 30
0.0
 10
38.067
 20
114.3207
 30
0.0
 10
38.067
 20
114.3207
 30
0.0
 10
36.8646
 20
114.198
 30
0.0
 10
36.4355
 20
113.2739
 30
0.0
 10
36.0208
 20
112.545
 30
0.0
 10
36.0208
 20
112.545
 30
0.0
 10
35.0482
 20
110.8361
 30
0.0
 10
33.2398
 20
110.7054
 30
0.0
 10
32.5169
 20
112.2916
 30
0.0
 10
32.5169
 20
112.2916
 30
0.0
 10
32.0772
 20
113.2571
 30
0.0
 10
32.1896
 20
113.5232
 30
0.0
 10
33.5993
 20
114.8531
 30
0.0
 10
33.5993
 20
114.8531
 30
0.0
 10
35.0862
 20
116.2559
 30
0.0
 10
35.2108
 20
116.8099
 30
0.0
 10
34.6744
 20
117.7662
 30
0.0
 10
34.6744
 20
117.7662
 30
0.0
 10
32.9391
 20
120.8594
 30
0.0
 10
34.6998
 20
122.6547
 30
0.0
 10
38.4623
 20
122.6547
 30
0.0
 10
38.4623
 20
122.6547
 30
0.0
 10
42.1969
 20
122.6547
 30
0.0
 10
45.9439
 20
120.1341
 30
0.0
 10
47.6195
 20
116.4947
 30
0.0
 10
47.6195
 20
116.4947
 30
0.0
 10
49.2424
 20
112.97
 30
0.0
 10
49.2328
 20
107.6939
 30
0.0
 10
47.5973
 20
104.1409
 30
0.0
 10
47.5973
 20
104.1409
 30
0.0
 10
45.706
 20
100.0327
 30
0.0
 10
43.9068
 20
97.8156
 30
0.0
 10
39.4774
 20
94.1349
 30
0.0
 10
39.4774
 20
94.1349
 30
0.0
 10
31.515
 20
87.1404
 30
0.0
 10
18.7906
 20
81.7982
 30
0.0
 10
12.8801
 20
72.3893
 30
0.0
 10
12.8801
 20
72.3893
 30
0.0
 10
11.5792
 20
70.2333
 30
0.0
 10
-2.4366
 20
43.5337
 30
0.0
 10
15.8924
 20
22.8887
 30
0.0
 10
15.8924
 20
22.8887
 30
0.0
 10
24.3661
 20
13.3444
 30
0.0
 10
37.7853
 20
8.412
 30
0.0
 10
45.4029
 20
9.1319
 30
0.0
 10
45.4029
 20
9.1319
 30
0.0
 10
39.5901
 20
10.4378
 30
0.0
 10
23.0125
 20
15.2272
 30
0.0
 10
13.9165
 20
28.8246
 30
0.0
 10
13.9165
 20
28.8246
 30
0.0
 10
5.6283
 20
41.2145
 30
0.0
 10
9.3652
 20
60.463
 30
0.0
 10
12.0079
 20
64.9325
 30
0.0
  0
SPLINE
  5
6C
330
1F
100
AcDbEntity
  8
layer 1
 62
     7
100
AcDbSpline
210
0.0
220
0.0
230
1.0
 70
    11
 71
     3
 72
    32
 73
    28
 74
     0
 42
0.0000000001
 43
0.0000000001
 12
1.0
 22
0.0
 32
0.0
 13
1.0
 23
0.0
 33
0.0
 40
0.0
 40
0.0
 40
0.0
 40
0.0
 40
0.125
 40
0.125
 40
0.125
 40
0.125
 40
0.25
 40
0.25
 40
0.25
 40
0.25
 40
0.375
 40
0.375
 40
0.375
 40
0.375
 40
0.5
 40
0.5
 40
0.5
 40
0.5
 40
0.625
 40
0.625
 40
0.625
 40
0.625
 40
0.75
 40
0.75
 40
0.75
 40
0.75
 40
1.0
 40
1.0
 40
1.0
 40
1.0
 10
12.9787
 20
80.1251
 30
0.0
 10
14.6045
 20
83.4596
 30
0.0
 10
18.7097
 20
86.2385
 30
0.0
 10
21.1137
 20
87.9957
 30
0.0
 10
21.1137
 20
87.9957
 30
0.0
 10
17.4462
 20
87.7752
 30
0.0
 10
15.3956
 20
85.3599
 30
0.0
 10
14.3927
 20
83.9871
 30
0.0
 10
14.3927
 20
83.9871
 30
0.0
 10
13.3471
 20
82.556
 30
0.0
 10
12.8155
 20
82.5901
 30
0.0
 10
13.1079
 20
84.3917
 30
0.0
 10
13.1079
 20
84.3917
 30
0.0
 10
14.2837
 20
88.4871
 30
0.0
 10
11.1582
 20
86.3264
 30
0.0
 10
10.1962
 20
84.0397
 30
0.0
 10
10.1962
 20
84.0397
 30
0.0
 10
6.482
 20
75.346
 30
0.0
 10
6.4734
 20
67.5752
 30
0.0
 10
6.1342
 20
61.0762
 30
0.0
 10
6.1342
 20
61.0762
 30
0.0
 10
7.1433
 20
65.2808
 30
0.0
 10
10.0012
 20
74.6903
 30
0.0
 10
12.9788
 20
80.1249
 30
0.0
 10
12.9788
 20
80.1249
 30
0.0
 10
12.9788
 20
80.1249
 30
0.0
 10
12.9787
 20
80.1251
 30
0.0
 10
12.9787
 20
80.1251
 30
0.0
  0
SPLINE
  5
6D
330
1F
100
AcDbEntity
  8
layer 1
 62
     7
100
AcDbSpline
210
0.0
220
0.0
230
1.0
 70
    11
 71
     3
 72
    44
 73
    40
 74
     0
 42
0.0000000001
 43
0.0000000001
 12
1.0
 22
0.0
 32
0.0
 13
1.0
 23
0.0
 33
0.0
 40
0.0
 40
0.0
 40
0.0
 40
0.0
 40
0.0909090909090909
 40
0.0909090909090909
 40
0.0909090909090909
 40
0.0909090909090909
 40
0.1818181818181818
 40
0.1818181818181818
 40
0.1818181818181818
 40
0.1818181818181818
 40
0.2727272727272727
 40
0.2727272727272727
 40
0.2727272727272727
 40
0.2727272727272727
 40
0.3636363636363636
 40
0.3636363636363636
 40
0.3636363636363636
 40
0.3636363636363636
 40
0.4545454545454545
 40
0.4545454545454545
 40
0.4545454545454545
 40
0.4545454545454545
 40
0.5454545454545454
 40
0.5454545454545454
 40
0.5454545454545454
 40
0.5454545454545454
 40
0.6363636363636364
 40
0.6363636363636364
 40
0.6363636363636364
 40
0.6363636363636364
 40
0.7272727272727273
 40
0.7272727272727273
 40
0.7272727272727273
 40
0.7272727272727273
 40
0.8181818181818182
 40
0.8181818181818182
 40
0.8181818181818182
 40
0.8181818181818182
 40
1.0
 40
1.0
 40
1.0
 40
1.0
 10
16.3644
 20
60.1919
 30
0.0
 10
17.9905
 20
62.8186
 30
0.0
 10
20.1524
 20
65.1663
 30
0.0
 10
22.1051
 20
66.6304
 30
0.0
 10
22.1051
 20
66.6304
 30
0.0
 10
36.2039
 20
76.9057
 30
0.0
 10
57.9278
 20
66.8842
 30
0.0
 10
54.0155
 20
48.8462
 30
0.0
 10
54.0155
 20
48.8462
 30
0.0
 10
59.2423
 20
53.6935
 30
0.0
 10
57.8044
 20
61.2389
 30
0.0
 10
53.3664
 20
65.232
 30
0.0
 10
53.3664
 20
65.232
 30
0.0
 10
54.2359
 20
64.8264
 30
0.0
 10
56.0884
 20
64.6277
 30
0.0
 10
57.7559
 20
65.5015
 30
0.0
 10
57.7559
 20
65.5015
 30
0.0
 10
53.938
 20
74.4521
 30
0.0
 10
40.3378
 20
75.4706
 30
0.0
 10
32.7232
 20
74.3174
 30
0.0
 10
32.7232
 20
74.3174
 30
0.0
 10
24.7689
 20
72.7883
 30
0.0
 10
17.7391
 20
65.3904
 30
0.0
 10
14.5196
 20
58.1358
 30
0.0
 10
14.5196
 20
58.1358
 30
0.0
 10
13.2611
 20
55.3
 30
0.0
 10
13.0323
 20
51.2964
 30
0.0
 10
13.1285
 20
49.0377
 30
0.0
 10
13.1285
 20
49.0377
 30
0.0
 10
13.1285
 20
49.0377
 30
0.0
 10
13.4523
 20
48.9457
 30
0.0
 10
13.4523
 20
48.9457
 30
0.0
 10
13.4523
 20
48.9457
 30
0.0
 10
13.5391
 20
52.9563
 30
0.0
 10
14.5102
 20
57.155
 30
0.0
 10
16.3642
 20
60.1919
 30
0.0
 10
16.3642
 20
60.1919
 30
0.0
 10
16.3642
 20
60.1919
 30
0.0
 10
16.3644
 20
60.1919
 30
0.0
 10
16.3644
 20
60.1919
 30
0.0
  0
SPLINE
  5
6E
330
1F
100
AcDbEntity
  8
layer 1
 62
     7
100
AcDbSpline
210
0.0
220
0.0
230
1.0
 70
    11
 71
     3
 72
   116
 73
   112
 74
     0
 42
0.0000000001
 43
0.0000000001
 12
1.0
 22
0.0
 32
0.0
 13
1.0
 23
0.0
 33
0.0
 40
0.0
 40
0.0
 40
0.0
 40
0.0
 40
0.0344827586206897
 40
0.0344827586206897
 40
0.0344827586206897
 40
0.0344827586206897
 40
0.0689655172413793
 40
0.0689655172413793
 40
0.0689655172413793
 40
0.0689655172413793
 40
0.103448275862069
 40
0.103448275862069
 40
0.103448275862069
 40
0.103448275862069
 40
0.1379310344827586
 40
0.1379310344827586
 40
0.1379310344827586
 40
0.1379310344827586
 40
0.1724137931034483
 40
0.1724137931034483
 40
0.1724137931034483
 40
0.1724137931034483
 40
0.2068965517241379
 40
0.2068965517241379
 40
0.2068965517241379
 40
0.2068965517241379
 40
0.2413793103448276
 40
0.2413793103448276
 40
0.2413793103448276
 40
0.2413793103448276
 40
0.2758620689655172
 40
0.2758620689655172
 40
0.2758620689655172
 40
0.2758620689655172
 40
0.3103448275862069
 40
0.3103448275862069
 40
0.3103448275862069
 40
0.3103448275862069
 40
0.3448275862068966
 40
0.3448275862068966
 40
0.3448275862068966
 40
0.3448275862068966
 40
0.3793103448275862
 40
0.3793103448275862
 40
0.3793103448275862
 40
0.3793103448275862
 40
0.4137931034482759
 40
0.4137931034482759
 40
0.4137931034482759
 40
0.4137931034482759
 40
0.4482758620689655
 40
0.4482758620689655
 40
0.4482758620689655
 40
0.4482758620689655
 40
0.4827586206896552
 40
0.4827586206896552
 40
0.4827586206896552
 40
0.4827586206896552
 40
0.5172413793103449
 40
0.5172413793103449
 40
0.5172413793103449
 40
0.5172413793103449
 40
0.5517241379310345
 40
0.5517241379310345
 40
0.5517241379310345
 40
0.5517241379310345
 40
0.5862068965517241
 40
0.5862068965517241
 40
0.5862068965517241
 40
0.5862068965517241
 40
0.6206896551724138
 40
0.6206896551724138
 40
0.6206896551724138
 40
0.6206896551724138
 40
0.6551724137931034
 40
0.6551724137931034
 40
0.6551724137931034
 40
0.6551724137931034
 40
0.6896551724137931
 40
0.6896551724137931
 40
0.6896551724137931
 40
0.6896551724137931
 40
0.7241379310344828
 40
0.7241379310344828
 40
0.7241379310344828
 40
0.7241379310344828
 40
0.7586206896551724
 40
0.7586206896551724
 40
0.7586206896551724
 40
0.7586206896551724
 40
0.7931034482758621
 40
0.7931034482758621
 40
0.7931034482758621
 40
0.7931034482758621
 40
0.8275862068965517
 40
0.8275862068965517
 40
0.8275862068965517
 40
0.8275862068965517
 40
0.8620689655172413
 40
0.8620689655172413
 40
0.8620689655172413
 40
0.8620689655172413
 40
0.896551724137931
 40
0.896551724137931
 40
0.896551724137931
 40
0.896551724137931
 40
0.9310344827586207
 40
0.9310344827586207
 40
0.9310344827586207
 40
0.9310344827586207
 40
1.0
 40
1.0
 40
1.0
 40
1.0
 10
15.1923
 20
38.5967
 30
0.0
 10
16.912
 20
30.745
 30
0.0
 10
22.6637
 20
23.089
 30
0.0
 10
31.1498
 20
17.356
 30
0.0
 10
31.1498
 20
17.356
 30
0.0
 10
35.5523
 20
14.3817
 30
0.0
 10
41.5774
 20
11.4683
 30
0.0
 10
43.9895
 20
11.1476
 30
0.0
 10
43.9895
 20
11.1476
 30
0.0
 10
43.9895
 20
11.1476
 30
0.0
 10
45.7341
 20
10.9155
 30
0.0
 10
45.7341
 20
10.9155
 30
0.0
 10
45.7341
 20
10.9155
 30
0.0
 10
45.7341
 20
10.9155
 30
0.0
 10
43.9895
 20
11.6477
 30
0.0
 10
43.9895
 20
11.6477
 30
0.0
 10
43.9895
 20
11.6477
 30
0.0
 10
37.1571
 20
14.5154
 30
0.0
 10
30.7665
 20
18.6632
 30
0.0
 10
27.1316
 20
22.5893
 30
0.0
 10
27.1316
 20
22.5893
 30
0.0
 10
22.6014
 20
27.4825
 30
0.0
 10
20.7331
 20
31.8513
 30
0.0
 10
20.3444
 20
38.461
 30
0.0
 10
20.3444
 20
38.461
 30
0.0
 10
19.8178
 20
47.4167
 30
0.0
 10
22.7089
 20
53.9477
 30
0.0
 10
28.5065
 20
56.8985
 30
0.0
 10
28.5065
 20
56.8985
 30
0.0
 10
31.0162
 20
58.1759
 30
0.0
 10
32.6234
 20
58.5126
 30
0.0
 10
36.3043
 20
58.5324
 30
0.0
 10
36.3043
 20
58.5324
 30
0.0
 10
41.7403
 20
58.5616
 30
0.0
 10
45.7718
 20
55.4426
 30
0.0
 10
46.8192
 20
50.3978
 30
0.0
 10
46.8192
 20
50.3978
 30
0.0
 10
47.2567
 20
48.2908
 30
0.0
 10
47.2135
 20
47.775
 30
0.0
 10
46.4569
 20
46.0647
 30
0.0
 10
46.4569
 20
46.0647
 30
0.0
 10
45.4505
 20
43.7899
 30
0.0
 10
44.3448
 20
43.0751
 30
0.0
 10
42.1174
 20
43.2601
 30
0.0
 10
42.1174
 20
43.2601
 30
0.0
 10
42.1174
 20
43.2601
 30
0.0
 10
41.0392
 20
43.3642
 30
0.0
 10
40.4254
 20
43.5817
 30
0.0
 10
40.4254
 20
43.5817
 30
0.0
 10
39.6615
 20
43.9491
 30
0.0
 10
39.3175
 20
44.9574
 30
0.0
 10
40.6271
 20
45.7333
 30
0.0
 10
40.6271
 20
45.7333
 30
0.0
 10
41.7494
 20
46.7717
 30
0.0
 10
41.4337
 20
48.4352
 30
0.0
 10
40.082
 20
49.0981
 30
0.0
 10
40.082
 20
49.0981
 30
0.0
 10
38.5897
 20
49.8298
 30
0.0
 10
39.7032
 20
52.7795
 30
0.0
 10
41.8563
 20
52.0914
 30
0.0
 10
41.8563
 20
52.0914
 30
0.0
 10
42.6451
 20
51.8394
 30
0.0
 10
42.6441
 20
51.8578
 30
0.0
 10
41.8344
 20
52.5177
 30
0.0
 10
41.8344
 20
52.5177
 30
0.0
 10
40.1967
 20
53.8521
 30
0.0
 10
37.448
 20
53.1256
 30
0.0
 10
36.211
 20
51.0313
 30
0.0
 10
36.211
 20
51.0313
 30
0.0
 10
34.4476
 20
48.0459
 30
0.0
 10
35.8898
 20
43.7427
 30
0.0
 10
39.1503
 20
42.2619
 30
0.0
 10
39.1503
 20
42.2619
 30
0.0
 10
41.4007
 20
41.2399
 30
0.0
 10
42.654
 20
41.2404
 30
0.0
 10
44.908
 20
42.2641
 30
0.0
 10
44.908
 20
42.2641
 30
0.0
 10
47.5242
 20
43.4523
 30
0.0
 10
48.7546
 20
46.1504
 30
0.0
 10
48.4724
 20
50.081
 30
0.0
 10
48.4724
 20
50.081
 30
0.0
 10
48.2215
 20
53.5755
 30
0.0
 10
47.1065
 20
55.9464
 30
0.0
 10
44.685
 20
58.134
 30
0.0
 10
44.685
 20
58.134
 30
0.0
 10
42.4748
 20
60.1307
 30
0.0
 10
40.7826
 20
60.842
 30
0.0
 10
37.4112
 20
61.191
 30
0.0
 10
37.4112
 20
61.191
 30
0.0
 10
33.0283
 20
61.6448
 30
0.0
 10
32.6564
 20
61.9766
 30
0.0
 10
34.1612
 20
64.09
 30
0.0
 10
34.1612
 20
64.09
 30
0.0
 10
34.9078
 20
65.1384
 30
0.0
 10
34.9404
 20
65.4007
 30
0.0
 10
34.4144
 20
66.12
 30
0.0
 10
34.4144
 20
66.12
 30
0.0
 10
33.5538
 20
67.297
 30
0.0
 10
28.1961
 20
67.1204
 30
0.0
 10
25.2522
 20
65.8182
 30
0.0
 10
25.2522
 20
65.8182
 30
0.0
 10
20.9431
 20
63.9121
 30
0.0
 10
17.2464
 20
59.2293
 30
0.0
 10
15.444
 20
53.3935
 30
0.0
 10
15.444
 20
53.3935
 30
0.0
 10
14.3887
 20
49.9768
 30
0.0
 10
14.2671
 20
42.8219
 30
0.0
 10
15.1925
 20
38.5969
 30
0.0
 10
15.1925
 20
38.5969
 30
0.0
 10
15.1925
 20
38.5969
 30
0.0
 10
15.1923
 20
38.5967
 30
0.0
 10
15.1923
 20
38.5967
 30
0.0
  0
SPLINE
  5
6F
330
1F
100
AcDbEntity
  8
layer 1
 62
     7
100
AcDbSpline
210
0.0
220
0.0
230
1.0
 70
    11
 71
     3
 72
    20
 73
    16
 74
     0
 42
0.0000000001
 43
0.0000000001
 12
1.0
 22
0.0
 32
0.0
 13
1.0
 23
0.0
 33
0.0
 40
0.0
 40
0.0
 40
0.0
 40
0.0
 40
0.2
 40
0.2
 40
0.2
 40
0.2
 40
0.4
 40
0.4
 40
0.4
 40
0.4
 40
0.6
 40
0.6
 40
0.6
 40
0.6
 40
1.0
 40
1.0
 40
1.0
 40
1.0
 10
18.6744
 20
55.2766
 30
0.0
 10
19.0082
 20
54.6168
 30
0.0
 10
19.5539
 20
54.3036
 30
0.0
 10
20.3489
 20
54.3151
 30
0.0
 10
20.3489
 20
54.3151
 30
0.0
 10
21.6429
 20
54.3341
 30
0.0
 10
21.8
 20
54.0898
 30
0.0
 10
21.0048
 20
53.2947
 30
0.0
 10
21.0048
 20
53.2947
 30
0.0
 10
19.3593
 20
52.3758
 30
0.0
 10
17.708
 20
53.2746
 30
0.0
 10
17.6081
 20
55.0396
 30
0.0
 10
17.6081
 20
55.0396
 30
0.0
 10
17.6165
 20
56.1755
 30
0.0
 10
18.2917
 20
56.0131
 30
0.0
 10
18.6744
 20
55.2766
 30
0.0
  0
SPLINE
  5
70
330
1F
100
AcDbEntity
  8
layer 1
 62
     7
100
AcDbSpline
210
0.0
220
0.0
230
1.0
 70
    11
 71
     3
 72
    24
 73
    20
 74
     0
 42
0.0000000001
 43
0.0000000001
 12
1.0
 22
0.0
 32
0.0
 13
1.0
 23
0.0
 33
0.0
 40
0.0
 40
0.0
 40
0.0
 40
0.0
 40
0.1666666666666667
 40
0.1666666666666667
 40
0.1666666666666667
 40
0.1666666666666667
 40
0.3333333333333333
 40
0.3333333333333333
 40
0.3333333333333333
 40
0.3333333333333333
 40
0.5
 40
0.5
 40
0.5
 40
0.5
 40
0.6666666666666666
 40
0.6666666666666666
 40
0.6666666666666666
 40
0.6666666666666666
 40
1.0
 40
1.0
 40
1.0
 40
1.0
 10
21.6154
 20
60.5347
 30
0.0
 10
22.4206
 20
61.34
 30
0.0
 10
22.7353
 20
61.1608
 30
0.0
 10
22.5174
 20
60.0209
 30
0.0
 10
22.5174
 20
60.0209
 30
0.0
 10
22.2762
 20
58.7592
 30
0.0
 10
23.1367
 20
57.4573
 30
0.0
 10
24.554
 20
57.7591
 30
0.0
 10
24.554
 20
57.7591
 30
0.0
 10
25.4947
 20
57.9594
 30
0.0
 10
26.2316
 20
57.8737
 30
0.0
 10
25.078
 20
57.1659
 30
0.0
 10
25.078
 20
57.1659
 30
0.0
 10
22.5678
 20
55.3861
 30
0.0
 10
20.2866
 20
58.5561
 30
0.0
 10
21.6154
 20
60.5346
 30
0.0
 10
21.6154
 20
60.5346
 30
0.0
 10
21.6154
 20
60.5346
 30
0.0
 10
21.6154
 20
60.5347
 30
0.0
 10
21.6154
 20
60.5347
 30
0.0
  0
SPLINE
  5
71
330
1F
100
AcDbEntity
  8
layer 1
 62
     7
100
AcDbSpline
210
0.0
220
0.0
230
1.0
 70
    11
 71
     3
 72
    24
 73
    20
 74
     0
 42
0.0000000001
 43
0.0000000001
 12
1.0
 22
0.0
 32
0.0
 13
1.0
 23
0.0
 33
0.0
 40
0.0
 40
0.0
 40
0.0
 40
0.0
 40
0.1666666666666667
 40
0.1666666666666667
 40
0.1666666666666667
 40
0.1666666666666667
 40
0.3333333333333333
 40
0.3333333333333333
 40
0.3333333333333333
 40
0.3333333333333333
 40
0.5
 40
0.5
 40
0.5
 40
0.5
 40
0.6666666666666666
 40
0.6666666666666666
 40
0.6666666666666666
 40
0.6666666666666666
 40
1.0
 40
1.0
 40
1.0
 40
1.0
 10
26.4935
 20
63.3411
 30
0.0
 10
27.2882
 20
63.9552
 30
0.0
 10
27.4336
 20
63.5457
 30
0.0
 10
27.2819
 20
62.6867
 30
0.0
 10
27.2819
 20
62.6867
 30
0.0
 10
27.0411
 20
61.3213
 30
0.0
 10
27.9246
 20
59.7506
 30
0.0
 10
29.0136
 20
59.834
 30
0.0
 10
29.0136
 20
59.834
 30
0.0
 10
30.4042
 20
59.44
 30
0.0
 10
29.724
 20
59.2486
 30
0.0
 10
29.325
 20
58.8946
 30
0.0
 10
29.325
 20
58.8946
 30
0.0
 10
26.5166
 20
57.7128
 30
0.0
 10
24.1663
 20
61.7026
 30
0.0
 10
26.4937
 20
63.3411
 30
0.0
 10
26.4937
 20
63.3411
 30
0.0
 10
26.4937
 20
63.3411
 30
0.0
 10
26.4935
 20
63.3411
 30
0.0
 10
26.4935
 20
63.3411
 30
0.0
  0
SPLINE
  5
72
330
1F
100
AcDbEntity
  8
layer 1
 62
     7
100
AcDbSpline
210
0.0
220
0.0
230
1.0
 70
    11
 71
     3
 72
    28
 73
    24
 74
     0
 42
0.0000000001
 43
0.0000000001
 12
1.0
 22
0.0
 32
0.0
 13
1.0
 23
0.0
 33
0.0
 40
0.0
 40
0.0
 40
0.0
 40
0.0
 40
0.1428571428571428
 40
0.1428571428571428
 40
0.1428571428571428
 40
0.1428571428571428
 40
0.2857142857142857
 40
0.2857142857142857
 40
0.2857142857142857
 40
0.2857142857142857
 40
0.4285714285714285
 40
0.4285714285714285
 40
0.4285714285714285
 40
0.4285714285714285
 40
0.5714285714285714
 40
0.5714285714285714
 40
0.5714285714285714
 40
0.5714285714285714
 40
0.7142857142857143
 40
0.7142857142857143
 40
0.7142857142857143
 40
0.7142857142857143
 40
1.0
 40
1.0
 40
1.0
 40
1.0
 10
29.8806
 20
25.0765
 30
0.0
 10
28.0939
 20
28.5042
 30
0.0
 10
26.6486
 20
32.8866
 30
0.0
 10
28.0676
 20
35.9746
 30
0.0
 10
28.0676
 20
35.9746
 30
0.0
 10
30.2885
 20
40.2995
 30
0.0
 10
35.2551
 20
41.07
 30
0.0
 10
35.7173
 20
37.1675
 30
0.0
 10
35.7173
 20
37.1675
 30
0.0
 10
38.2404
 20
43.9181
 30
0.0
 10
30.2461
 20
44.0851
 30
0.0
 10
28.0702
 20
39.5239
 30
0.0
 10
28.0702
 20
39.5239
 30
0.0
 10
28.8534
 20
42.2372
 30
0.0
 10
28.3643
 20
44.5185
 30
0.0
 10
26.8776
 20
45.9644
 30
0.0
 10
26.8776
 20
45.9644
 30
0.0
 10
21.2405
 20
42.5692
 30
0.0
 10
24.4528
 20
28.2076
 30
0.0
 10
29.8806
 20
25.0763
 30
0.0
 10
29.8806
 20
25.0763
 30
0.0
 10
29.8806
 20
25.0763
 30
0.0
 10
29.8806
 20
25.0765
 30
0.0
 10
29.8806
 20
25.0765
 30
0.0
  0
SPLINE
  5
73
330
1F
100
AcDbEntity
  8
layer 1
 62
     7
100
AcDbSpline
210
0.0
220
0.0
230
1.0
 70
    11
 71
     3
 72
    36
 73
    32
 74
     0
 42
0.0000000001
 43
0.0000000001
 12
1.0
 22
0.0
 32
0.0
 13
1.0
 23
0.0
 33
0.0
 40
0.0
 40
0.0
 40
0.0
 40
0.0
 40
0.1111111111111111
 40
0.1111111111111111
 40
0.1111111111111111
 40
0.1111111111111111
 40
0.2222222222222222
 40
0.2222222222222222
 40
0.2222222222222222
 40
0.2222222222222222
 40
0.3333333333333333
 40
0.3333333333333333
 40
0.3333333333333333
 40
0.3333333333333333
 40
0.4444444444444444
 40
0.4444444444444444
 40
0.4444444444444444
 40
0.4444444444444444
 40
0.5555555555555556
 40
0.5555555555555556
 40
0.5555555555555556
 40
0.5555555555555556
 40
0.6666666666666666
 40
0.6666666666666666
 40
0.6666666666666666
 40
0.6666666666666666
 40
0.7777777777777778
 40
0.7777777777777778
 40
0.7777777777777778
 40
0.7777777777777778
 40
1.0
 40
1.0
 40
1.0
 40
1.0
 10
38.757
 20
104.6117
 30
0.0
 10
37.2833
 20
104.1106
 30
0.0
 10
36.6304
 20
103.1761
 30
0.0
 10
36.3881
 20
102.1777
 30
0.0
 10
36.3881
 20
102.1777
 30
0.0
 10
36.0243
 20
106.9025
 30
0.0
 10
33.7961
 20
107.078
 30
0.0
 10
32.5807
 20
107.4855
 30
0.0
 10
32.5807
 20
107.4855
 30
0.0
 10
28.5698
 20
107.5104
 30
0.0
 10
27.4773
 20
105.6347
 30
0.0
 10
27.9238
 20
102.0085
 30
0.0
 10
27.9238
 20
102.0085
 30
0.0
 10
29.0169
 20
105.0111
 30
0.0
 10
32.7166
 20
105.0062
 30
0.0
 10
33.1616
 20
102.5911
 30
0.0
 10
33.1616
 20
102.5911
 30
0.0
 10
34.1197
 20
96.2401
 30
0.0
 10
30.4418
 20
91.5192
 30
0.0
 10
27.1435
 20
88.2656
 30
0.0
 10
27.1435
 20
88.2656
 30
0.0
 10
29.4771
 20
89.1798
 30
0.0
 10
33.4626
 20
91.585
 30
0.0
 10
35.942
 20
94.6293
 30
0.0
 10
35.942
 20
94.6293
 30
0.0
 10
39.0341
 20
98.4257
 30
0.0
 10
40.2763
 20
103.0146
 30
0.0
 10
38.757
 20
104.6115
 30
0.0
 10
38.757
 20
104.6115
 30
0.0
 10
38.757
 20
104.6115
 30
0.0
 10
38.757
 20
104.6117
 30
0.0
 10
38.757
 20
104.6117
 30
0.0
  0
SPLINE
  5
74
330
1F
100
AcDbEntity
  8
layer 1
 62
     7
100
AcDbSpline
210
0.0
220
0.0
230
1.0
 70
    11
 71
     3
 72
    64
 73
    60
 74
     0
 42
0.0000000001
 43
0.0000000001
 12
1.0
 22
0.0
 32
0.0
 13
1.0
 23
0.0
 33
0.0
 40
0.0
 40
0.0
 40
0.0
 40
0.0
 40
0.0625
 40
0.0625
 40
0.0625
 40
0.0625
 40
0.125
 40
0.125
 40
0.125
 40
0.125
 40
0.1875
 40
0.1875
 40
0.1875
 40
0.1875
 40
0.25
 40
0.25
 40
0.25
 40
0.25
 40
0.3125
 40
0.3125
 40
0.3125
 40
0.3125
 40
0.375
 40
0.375
 40
0.375
 40
0.375
 40
0.4375
 40
0.4375
 40
0.4375
 40
0.4375
 40
0.5
 40
0.5
 40
0.5
 40
0.5
 40
0.5625
 40
0.5625
 40
0.5625
 40
0.5625
 40
0.625
 40
0.625
 40
0.625
 40
0.625
 40
0.6875
 40
0.6875
 40
0.6875
 40
0.6875
 40
0.75
 40
0.75
 40
0.75
 40
0.75
 40
0.8125
 40
0.8125
 40
0.8125
 40
0.8125
 40
0.875
 40
0.875
 40
0.875
 40
0.875
 40
1.0
 40
1.0
 40
1.0
 40
1.0
 10
43.9009
 20
14.3974
 30
0.0
 10
41.5563
 20
15.9573
 30
0.0
 10
39.662
 20
17.6896
 30
0.0
 10
38.4898
 20
20.2504
 30
0.0
 10
38.4898
 20
20.2504
 30
0.0
 10
37.3896
 20
22.6724
 30
0.0
 10
37.3969
 20
27.213
 30
0.0
 10
38.505
 20
29.7978
 30
0.0
 10
38.505
 20
29.7978
 30
0.0
 10
40.3047
 20
33.4187
 30
0.0
 10
43.8451
 20
34.0095
 30
0.0
 10
46.3123
 20
32.9456
 30
0.0
 10
46.3123
 20
32.9456
 30
0.0
 10
48.2424
 20
32.1134
 30
0.0
 10
48.4998
 20
28.7544
 30
0.0
 10
45.9292
 20
27.8069
 30
0.0
 10
45.9292
 20
27.8069
 30
0.0
 10
45.3557
 20
27.75
 30
0.0
 10
44.9654
 20
27.9038
 30
0.0
 10
45.2794
 20
28.3151
 30
0.0
 10
45.2794
 20
28.3151
 30
0.0
 10
45.937
 20
29.0511
 30
0.0
 10
46.0263
 20
29.4405
 30
0.0
 10
45.668
 20
30.0087
 30
0.0
 10
45.668
 20
30.0087
 30
0.0
 10
45.0051
 20
31.0594
 30
0.0
 10
43.2916
 20
30.9484
 30
0.0
 10
42.8772
 20
29.8282
 30
0.0
 10
42.8772
 20
29.8282
 30
0.0
 10
42.4854
 20
28.7691
 30
0.0
 10
42.5577
 20
27.236
 30
0.0
 10
44.1044
 20
26.4873
 30
0.0
 10
44.1044
 20
26.4873
 30
0.0
 10
46.2848
 20
25.6372
 30
0.0
 10
47.9945
 20
26.4891
 30
0.0
 10
49.0297
 20
27.9519
 30
0.0
 10
49.0297
 20
27.9519
 30
0.0
 10
50.3064
 20
29.9559
 30
0.0
 10
50.0206
 20
32.8594
 30
0.0
 10
48.5149
 20
34.3183
 30
0.0
 10
48.5149
 20
34.3183
 30
0.0
 10
44.9451
 20
37.9151
 30
0.0
 10
39.7892
 20
36.1098
 30
0.0
 10
37.4465
 20
32.5533
 30
0.0
 10
37.4465
 20
32.5533
 30
0.0
 10
36.7267
 20
31.4527
 30
0.0
 10
36.2857
 20
31.2595
 30
0.0
 10
36.119
 20
32.0082
 30
0.0
 10
36.119
 20
32.0082
 30
0.0
 10
35.7337
 20
33.7395
 30
0.0
 10
34.3981
 20
33.0401
 30
0.0
 10
33.7353
 20
31.2916
 30
0.0
 10
33.7353
 20
31.2916
 30
0.0
 10
30.4104
 20
22.9195
 30
0.0
 10
36.8168
 20
16.2744
 30
0.0
 10
43.9009
 20
14.3976
 30
0.0
 10
43.9009
 20
14.3976
 30
0.0
 10
43.9009
 20
14.3976
 30
0.0
 10
43.9009
 20
14.3974
 30
0.0
 10
43.9009
 20
14.3974
 30
0.0
  0
SPLINE
  5
75
330
1F
100
AcDbEntity
  8
layer 1
 62
     7
100
AcDbSpline
210
0.0
220
0.0
230
1.0
 70
    11
 71
     3
 72
    40
 73
    36
 74
     0
 42
0.0000000001
 43
0.0000000001
 12
1.0
 22
0.0
 32
0.0
 13
1.0
 23
0.0
 33
0.0
 40
0.0
 40
0.0
 40
0.0
 40
0.0
 40
0.1
 40
0.1
 40
0.1
 40
0.1
 40
0.2
 40
0.2
 40
0.2
 40
0.2
 40
0.3
 40
0.3
 40
0.3
 40
0.3
 40
0.4
 40
0.4
 40
0.4
 40
0.4
 40
0.5
 40
0.5
 40
0.5
 40
0.5
 40
0.6
 40
0.6
 40
0.6
 40
0.6
 40
0.7
 40
0.7
 40
0.7
 40
0.7
 40
0.8
 40
0.8
 40
0.8
 40
0.8
 40
1.0
 40
1.0
 40
1.0
 40
1.0
 10
50.7568
 20
74.8864
 30
0.0
 10
52.6699
 20
72.4544
 30
0.0
 10
56.3323
 20
71.1767
 30
0.0
 10
57.6407
 20
72.4849
 30
0.0
 10
57.6407
 20
72.4849
 30
0.0
 10
58.3816
 20
73.2258
 30
0.0
 10
58.2893
 20
74.4649
 30
0.0
 10
57.4585
 20
74.9298
 30
0.0
 10
57.4585
 20
74.9298
 30
0.0
 10
57.0314
 20
75.1688
 30
0.0
 10
56.6228
 20
75.3358
 30
0.0
 10
56.7682
 20
75.6968
 30
0.0
 10
56.7682
 20
75.6968
 30
0.0
 10
56.8432
 20
75.8829
 30
0.0
 10
57.1933
 20
76.1516
 30
0.0
 10
57.4895
 20
76.4486
 30
0.0
 10
57.4895
 20
76.4486
 30
0.0
 10
58.2269
 20
77.1883
 30
0.0
 10
58.4603
 20
78.1476
 30
0.0
 10
58.1016
 20
78.8181
 30
0.0
 10
58.1016
 20
78.8181
 30
0.0
 10
57.24
 20
80.4281
 30
0.0
 10
55.6428
 20
80.0229
 30
0.0
 10
53.1827
 20
78.3285
 30
0.0
 10
53.1827
 20
78.3285
 30
0.0
 10
51.9294
 20
77.4652
 30
0.0
 10
50.7729
 20
76.959
 30
0.0
 10
49.4575
 20
76.7279
 30
0.0
 10
49.4575
 20
76.7279
 30
0.0
 10
50.3415
 20
75.468
 30
0.0
 10
49.7601
 20
76.1536
 30
0.0
 10
50.7569
 20
74.8863
 30
0.0
 10
50.7569
 20
74.8863
 30
0.0
 10
50.7569
 20
74.8863
 30
0.0
 10
50.7568
 20
74.8864
 30
0.0
 10
50.7568
 20
74.8864
 30
0.0
  0
SPLINE
  5
76
330
1F
100
AcDbEntity
  8
layer 1
 62
     7
100
AcDbSpline
210
0.0
220
0.0
230
1.0
 70
    11
 71
     3
 72
    52
 73
    48
 74
     0
 42
0.0000000001
 43
0.0000000001
 12
1.0
 22
0.0
 32
0.0
 13
1.0
 23
0.0
 33
0.0
 40
0.0
 40
0.0
 40
0.0
 40
0.0
 40
0.0769230769230769
 40
0.0769230769230769
 40
0.0769230769230769
 40
0.0769230769230769
 40
0.1538461538461539
 40
0.1538461538461539
 40
0.1538461538461539
 40
0.1538461538461539
 40
0.2307692307692308
 40
0.2307692307692308
 40
0.2307692307692308
 40
0.2307692307692308
 40
0.3076923076923077
 40
0.3076923076923077
 40
0.3076923076923077
 40
0.3076923076923077
 40
0.3846153846153846
 40
0.3846153846153846
 40
0.3846153846153846
 40
0.3846153846153846
 40
0.4615384615384616
 40
0.4615384615384616
 40
0.4615384615384616
 40
0.4615384615384616
 40
0.5384615384615384
 40
0.5384615384615384
 40
0.5384615384615384
 40
0.5384615384615384
 40
0.6153846153846154
 40
0.6153846153846154
 40
0.6153846153846154
 40
0.6153846153846154
 40
0.6923076923076923
 40
0.6923076923076923
 40
0.6923076923076923
 40
0.6923076923076923
 40
0.7692307692307693
 40
0.7692307692307693
 40
0.7692307692307693
 40
0.7692307692307693
 40
0.8461538461538461
 40
0.8461538461538461
 40
0.8461538461538461
 40
0.8461538461538461
 40
1.0
 40
1.0
 40
1.0
 40
1.0
 10
7.372
 20
106.7299
 30
0.0
 10
7.086
 20
106.6242
 30
0.0
 10
7.1727
 20
106.5293
 30
0.0
 10
6.8822
 20
106.7088
 30
0.0
 10
6.8822
 20
106.7088
 30
0.0
 10
6.6887
 20
112.1214
 30
0.0
 10
7.7285
 20
119.5445
 30
0.0
 10
10.9871
 20
121.6831
 30
0.0
 10
10.9871
 20
121.6831
 30
0.0
 10
14.6286
 20
124.962
 30
0.0
 10
20.762
 20
125.4194
 30
0.0
 10
19.0013
 20
121.3857
 30
0.0
 10
19.0013
 20
121.3857
 30
0.0
 10
22.1633
 20
121.0826
 30
0.0
 10
24.7689
 20
120.0382
 30
0.0
 10
24.8805
 20
114.7214
 30
0.0
 10
24.8805
 20
114.7214
 30
0.0
 10
24.043
 20
109.4466
 30
0.0
 10
20.0304
 20
108.2583
 30
0.0
 10
17.3125
 20
109.3168
 30
0.0
 10
17.3125
 20
109.3168
 30
0.0
 10
14.8348
 20
110.3572
 30
0.0
 10
13.8439
 20
113.5817
 30
0.0
 10
15.1923
 20
114.4956
 30
0.0
 10
15.1923
 20
114.4956
 30
0.0
 10
16.0164
 20
112.0205
 30
0.0
 10
17.1236
 20
110.8888
 30
0.0
 10
18.0296
 20
112.4014
 30
0.0
 10
18.0296
 20
112.4014
 30
0.0
 10
18.6645
 20
113.3733
 30
0.0
 10
20.0462
 20
113.0234
 30
0.0
 10
20.1682
 20
112.3882
 30
0.0
 10
20.1682
 20
112.3882
 30
0.0
 10
20.2089
 20
112.1759
 30
0.0
 10
21.0176
 20
111.8731
 30
0.0
 10
21.6421
 20
112.6464
 30
0.0
 10
21.6421
 20
112.6464
 30
0.0
 10
24.055
 20
114.3202
 30
0.0
 10
21.8026
 20
118.2907
 30
0.0
 10
20.4275
 20
118.8103
 30
0.0
 10
20.4275
 20
118.8103
 30
0.0
 10
12.5399
 20
121.6848
 30
0.0
 10
8.0857
 20
114.8228
 30
0.0
 10
7.3718
 20
106.7299
 30
0.0
 10
7.3718
 20
106.7299
 30
0.0
 10
7.3718
 20
106.7299
 30
0.0
 10
7.372
 20
106.7299
 30
0.0
 10
7.372
 20
106.7299
 30
0.0
  0
SPLINE
  5
77
330
1F
100
AcDbEntity
  8
layer 1
 62
     7
100
AcDbSpline
210
0.0
220
0.0
230
1.0
 70
    11
 71
     3
 72
    64
 73
    60
 74
     0
 42
0.0000000001
 43
0.0000000001
 12
1.0
 22
0.0
 32
0.0
 13
1.0
 23
0.0
 33
0.0
 40
0.0
 40
0.0
 40
0.0
 40
0.0
 40
0.0625
 40
0.0625
 40
0.0625
 40
0.0625
 40
0.125
 40
0.125
 40
0.125
 40
0.125
 40
0.1875
 40
0.1875
 40
0.1875
 40
0.1875
 40
0.25
 40
0.25
 40
0.25
 40
0.25
 40
0.3125
 40
0.3125
 40
0.3125
 40
0.3125
 40
0.375
 40
0.375
 40
0.375
 40
0.375
 40
0.4375
 40
0.4375
 40
0.4375
 40
0.4375
 40
0.5
 40
0.5
 40
0.5
 40
0.5
 40
0.5625
 40
0.5625
 40
0.5625
 40
0.5625
 40
0.625
 40
0.625
 40
0.625
 40
0.625
 40
0.6875
 40
0.6875
 40
0.6875
 40
0.6875
 40
0.75
 40
0.75
 40
0.75
 40
0.75
 40
0.8125
 40
0.8125
 40
0.8125
 40
0.8125
 40
0.875
 40
0.875
 40
0.875
 40
0.875
 40
1.0
 40
1.0
 40
1.0
 40
1.0
 10
27.4639
 20
7.1442
 30
0.0
 10
25.0312
 20
7.7993
 30
0.0
 10
25.1962
 20
6.6944
 30
0.0
 10
26.329
 20
6.1981
 30
0.0
 10
26.329
 20
6.1981
 30
0.0
 10
26.8115
 20
5.9867
 30
0.0
 10
28.1797
 20
5.5278
 30
0.0
 10
28.1892
 20
5.0544
 30
0.0
 10
28.1892
 20
5.0544
 30
0.0
 10
26.0895
 20
2.2592
 30
0.0
 10
22.0796
 20
4.7193
 30
0.0
 10
19.4736
 20
6.5431
 30
0.0
 10
19.4736
 20
6.5431
 30
0.0
 10
17.4736
 20
7.9429
 30
0.0
 10
16.8823
 20
5.9923
 30
0.0
 10
17.9839
 20
5.5791
 30
0.0
 10
17.9839
 20
5.5791
 30
0.0
 10
19.5389
 20
5.5369
 30
0.0
 10
21.3074
 20
2.3736
 30
0.0
 10
20.489
 20
1.9494
 30
0.0
 10
20.489
 20
1.9494
 30
0.0
 10
15.4253
 20
6.1493
 30
0.0
 10
10.7459
 20
0.5826
 30
0.0
 10
7.5051
 20
8.4117
 30
0.0
 10
7.5051
 20
8.4117
 30
0.0
 10
10.7459
 20
16.2408
 30
0.0
 10
15.4253
 20
10.6743
 30
0.0
 10
20.489
 20
14.874
 30
0.0
 10
20.489
 20
14.874
 30
0.0
 10
21.3073
 20
14.4498
 30
0.0
 10
19.5389
 20
11.2865
 30
0.0
 10
17.9839
 20
11.2443
 30
0.0
 10
17.9839
 20
11.2443
 30
0.0
 10
16.8823
 20
10.8309
 30
0.0
 10
17.4734
 20
8.8805
 30
0.0
 10
19.4736
 20
10.2803
 30
0.0
 10
19.4736
 20
10.2803
 30
0.0
 10
22.0796
 20
12.1041
 30
0.0
 10
26.0895
 20
14.5642
 30
0.0
 10
28.1892
 20
11.769
 30
0.0
 10
28.1892
 20
11.769
 30
0.0
 10
28.1797
 20
11.2956
 30
0.0
 10
26.8116
 20
10.8368
 30
0.0
 10
26.329
 20
10.6253
 30
0.0
 10
26.329
 20
10.6253
 30
0.0
 10
25.1962
 20
10.129
 30
0.0
 10
25.0312
 20
9.0241
 30
0.0
 10
27.4639
 20
9.6792
 30
0.0
 10
27.4639
 20
9.6792
 30
0.0
 10
29.83
 20
10.3163
 30
0.0
 10
31.2909
 20
10.4854
 30
0.0
 10
34.5753
 20
8.4114
 30
0.0
 10
34.5753
 20
8.4114
 30
0.0
 10
31.2909
 20
6.3373
 30
0.0
 10
29.83
 20
6.5065
 30
0.0
 10
27.4639
 20
7.1436
 30
0.0
 10
27.4639
 20
7.1436
 30
0.0
 10
27.4639
 20
7.1436
 30
0.0
 10
27.4639
 20
7.1442
 30
0.0
 10
27.4639
 20
7.1442
 30
0.0
  0
SPLINE
  5
78
330
1F
100
AcDbEntity
  8
layer 1
 62
     7
100
AcDbSpline
210
0.0
220
0.0
230
1.0
 70
    11
 71
     3
 72
    36
 73
    32
 74
     0
 42
0.0000000001
 43
0.0000000001
 12
1.0
 22
0.0
 32
0.0
 13
1.0
 23
0.0
 33
0.0
 40
0.0
 40
0.0
 40
0.0
 40
0.0
 40
0.1111111111111111
 40
0.1111111111111111
 40
0.1111111111111111
 40
0.1111111111111111
 40
0.2222222222222222
 40
0.2222222222222222
 40
0.2222222222222222
 40
0.2222222222222222
 40
0.3333333333333333
 40
0.3333333333333333
 40
0.3333333333333333
 40
0.3333333333333333
 40
0.4444444444444444
 40
0.4444444444444444
 40
0.4444444444444444
 40
0.4444444444444444
 40
0.5555555555555556
 40
0.5555555555555556
 40
0.5555555555555556
 40
0.5555555555555556
 40
0.6666666666666666
 40
0.6666666666666666
 40
0.6666666666666666
 40
0.6666666666666666
 40
0.7777777777777778
 40
0.7777777777777778
 40
0.7777777777777778
 40
0.7777777777777778
 40
1.0
 40
1.0
 40
1.0
 40
1.0
 10
15.6573
 20
-73.4272
 30
0.0
 10
21.1271
 20
-72.9445
 30
0.0
 10
23.7781
 20
-73.5868
 30
0.0
 10
25.1088
 20
-74.8265
 30
0.0
 10
25.1088
 20
-74.8265
 30
0.0
 10
26.8367
 20
-76.4362
 30
0.0
 10
25.5994
 20
-79.6689
 30
0.0
 10
23.2804
 20
-79.6689
 30
0.0
 10
23.2804
 20
-79.6689
 30
0.0
 10
22.2986
 20
-79.6689
 30
0.0
 10
22.0235
 20
-79.9084
 30
0.0
 10
22.6018
 20
-80.5915
 30
0.0
 10
22.6018
 20
-80.5915
 30
0.0
 10
23.9505
 20
-82.1849
 30
0.0
 10
23.216
 20
-83.6223
 30
0.0
 10
22.4532
 20
-84.385
 30
0.0
 10
22.4532
 20
-84.385
 30
0.0
 10
20.6829
 20
-86.1554
 30
0.0
 10
16.759
 20
-84.1232
 30
0.0
 10
12.3948
 20
-79.5552
 30
0.0
 10
12.3948
 20
-79.5552
 30
0.0
 10
10.7868
 20
-77.956
 30
0.0
 10
9.0642
 20
-76.1486
 30
0.0
 10
7.2602
 20
-74.3228
 30
0.0
 10
7.2602
 20
-74.3228
 30
0.0
 10
6.9938
 20
-74.4088
 30
0.0
 10
10.4169
 20
-73.8894
 30
0.0
 10
15.6573
 20
-73.427
 30
0.0
 10
15.6573
 20
-73.427
 30
0.0
 10
15.6573
 20
-73.427
 30
0.0
 10
15.6573
 20
-73.4272
 30
0.0
 10
15.6573
 20
-73.4272
 30
0.0
  0
SPLINE
  5
79
330
1F
100
AcDbEntity
  8
layer 1
 62
     7
100
AcDbSpline
210
0.0
220
0.0
230
1.0
 70
    11
 71
     3
 72
    52
 73
    48
 74
     0
 42
0.0000000001
 43
0.0000000001
 12
1.0
 22
0.0
 32
0.0
 13
1.0
 23
0.0
 33
0.0
 40
0.0
 40
0.0
 40
0.0
 40
0.0
 40
0.0769230769230769
 40
0.0769230769230769
 40
0.0769230769230769
 40
0.0769230769230769
 40
0.1538461538461539
 40
0.1538461538461539
 40
0.1538461538461539
 40
0.1538461538461539
 40
0.2307692307692308
 40
0.2307692307692308
 40
0.2307692307692308
 40
0.2307692307692308
 40
0.3076923076923077
 40
0.3076923076923077
 40
0.3076923076923077
 40
0.3076923076923077
 40
0.3846153846153846
 40
0.3846153846153846
 40
0.3846153846153846
 40
0.3846153846153846
 40
0.4615384615384616
 40
0.4615384615384616
 40
0.4615384615384616
 40
0.4615384615384616
 40
0.5384615384615384
 40
0.5384615384615384
 40
0.5384615384615384
 40
0.5384615384615384
 40
0.6153846153846154
 40
0.6153846153846154
 40
0.6153846153846154
 40
0.6153846153846154
 40
0.6923076923076923
 40
0.6923076923076923
 40
0.6923076923076923
 40
0.6923076923076923
 40
0.7692307692307693
 40
0.7692307692307693
 40
0.7692307692307693
 40
0.7692307692307693
 40
0.8461538461538461
 40
0.8461538461538461
 40
0.8461538461538461
 40
0.8461538461538461
 40
1.0
 40
1.0
 40
1.0
 40
1.0
 10
11.8444
 20
-22.3809
 30
0.0
 10
12.3391
 20
-20.0468
 30
0.0
 10
12.7392
 20
-20.1903
 30
0.0
 10
12.3803
 20
-22.5652
 30
0.0
 10
12.3803
 20
-22.5652
 30
0.0
 10
11.3461
 20
-31.4798
 30
0.0
 10
10.7883
 20
-39.4386
 30
0.0
 10
15.2035
 20
-46.8979
 30
0.0
 10
15.2035
 20
-46.8979
 30
0.0
 10
17.764
 20
-51.6614
 30
0.0
 10
23.1373
 20
-56.5584
 30
0.0
 10
29.1283
 20
-58.7766
 30
0.0
 10
29.1283
 20
-58.7766
 30
0.0
 10
30.3455
 20
-59.1441
 30
0.0
 10
34.3834
 20
-59.7245
 30
0.0
 10
38.1016
 20
-60.0662
 30
0.0
 10
38.1016
 20
-60.0662
 30
0.0
 10
41.8197
 20
-60.4079
 30
0.0
 10
45.6469
 20
-60.5671
 30
0.0
 10
46.6064
 20
-60.8411
 30
0.0
 10
46.6064
 20
-60.8411
 30
0.0
 10
50.6618
 20
-61.9988
 30
0.0
 10
54.1294
 20
-64.8448
 30
0.0
 10
54.6272
 20
-67.3347
 30
0.0
 10
54.6272
 20
-67.3347
 30
0.0
 10
54.9032
 20
-68.7141
 30
0.0
 10
54.1495
 20
-68.5641
 30
0.0
 10
52.7072
 20
-68.5641
 30
0.0
 10
52.7072
 20
-68.5641
 30
0.0
 10
52.7072
 20
-68.5641
 30
0.0
 10
51.0665
 20
-68.5641
 30
0.0
 10
51.0665
 20
-68.5641
 30
0.0
 10
51.0665
 20
-68.5641
 30
0.0
 10
57.0489
 20
-72.8684
 30
0.0
 10
60.0185
 20
-80.2953
 30
0.0
 10
57.7907
 20
-85.5776
 30
0.0
 10
57.7907
 20
-85.5776
 30
0.0
 10
58.0933
 20
-73.8428
 30
0.0
 10
46.2822
 20
-66.2105
 30
0.0
 10
36.984
 20
-63.7767
 30
0.0
 10
36.984
 20
-63.7767
 30
0.0
 10
28.5697
 20
-61.285
 30
0.0
 10
23.4301
 20
-58.687
 30
0.0
 10
19.7528
 20
-55.0666
 30
0.0
 10
19.7528
 20
-55.0666
 30
0.0
 10
10.7581
 20
-46.2245
 30
0.0
 10
9.3983
 20
-37.3709
 30
0.0
 10
11.8444
 20
-22.3809
 30
0.0
  0
SPLINE
  5
7A
330
1F
100
AcDbEntity
  8
layer 1
 62
     7
100
AcDbSpline
210
0.0
220
0.0
230
1.0
 70
    11
 71
     3
 72
   108
 73
   104
 74
     0
 42
0.0000000001
 43
0.0000000001
 12
1.0
 22
0.0
 32
0.0
 13
1.0
 23
0.0
 33
0.0
 40
0.0
 40
0.0
 40
0.0
 40
0.0
 40
0.037037037037037
 40
0.037037037037037
 40
0.037037037037037
 40
0.037037037037037
 40
0.0740740740740741
 40
0.0740740740740741
 40
0.0740740740740741
 40
0.0740740740740741
 40
0.1111111111111111
 40
0.1111111111111111
 40
0.1111111111111111
 40
0.1111111111111111
 40
0.1481481481481481
 40
0.1481481481481481
 40
0.1481481481481481
 40
0.1481481481481481
 40
0.1851851851851852
 40
0.1851851851851852
 40
0.1851851851851852
 40
0.1851851851851852
 40
0.2222222222222222
 40
0.2222222222222222
 40
0.2222222222222222
 40
0.2222222222222222
 40
0.2592592592592592
 40
0.2592592592592592
 40
0.2592592592592592
 40
0.2592592592592592
 40
0.2962962962962963
 40
0.2962962962962963
 40
0.2962962962962963
 40
0.2962962962962963
 40
0.3333333333333333
 40
0.3333333333333333
 40
0.3333333333333333
 40
0.3333333333333333
 40
0.3703703703703703
 40
0.3703703703703703
 40
0.3703703703703703
 40
0.3703703703703703
 40
0.4074074074074074
 40
0.4074074074074074
 40
0.4074074074074074
 40
0.4074074074074074
 40
0.4444444444444444
 40
0.4444444444444444
 40
0.4444444444444444
 40
0.4444444444444444
 40
0.4814814814814815
 40
0.4814814814814815
 40
0.4814814814814815
 40
0.4814814814814815
 40
0.5185185185185185
 40
0.5185185185185185
 40
0.5185185185185185
 40
0.5185185185185185
 40
0.5555555555555556
 40
0.5555555555555556
 40
0.5555555555555556
 40
0.5555555555555556
 40
0.5925925925925926
 40
0.5925925925925926
 40
0.5925925925925926
 40
0.5925925925925926
 40
0.6296296296296297
 40
0.6296296296296297
 40
0.6296296296296297
 40
0.6296296296296297
 40
0.6666666666666666
 40
0.6666666666666666
 40
0.6666666666666666
 40
0.6666666666666666
 40
0.7037037037037037
 40
0.7037037037037037
 40
0.7037037037037037
 40
0.7037037037037037
 40
0.7407407407407407
 40
0.7407407407407407
 40
0.7407407407407407
 40
0.7407407407407407
 40
0.7777777777777778
 40
0.7777777777777778
 40
0.7777777777777778
 40
0.7777777777777778
 40
0.8148148148148148
 40
0.8148148148148148
 40
0.8148148148148148
 40
0.8148148148148148
 40
0.8518518518518519
 40
0.8518518518518519
 40
0.8518518518518519
 40
0.8518518518518519
 40
0.8888888888888888
 40
0.8888888888888888
 40
0.8888888888888888
 40
0.8888888888888888
 40
0.9259259259259259
 40
0.9259259259259259
 40
0.9259259259259259
 40
0.9259259259259259
 40
1.0
 40
1.0
 40
1.0
 40
1.0
 10
12.0079
 20
-48.0145
 30
0.0
 10
16.2559
 20
-57.3046
 30
0.0
 10
23.9413
 20
-64.4188
 30
0.0
 10
33.7401
 20
-65.7235
 30
0.0
 10
33.7401
 20
-65.7235
 30
0.0
 10
37.7971
 20
-66.1836
 30
0.0
 10
40.8635
 20
-66.8833
 30
0.0
 10
42.5297
 20
-67.7295
 30
0.0
 10
42.5297
 20
-67.7295
 30
0.0
 10
44.6255
 20
-68.7938
 30
0.0
 10
46.7577
 20
-71.4292
 30
0.0
 10
47.0772
 20
-73.35
 30
0.0
 10
47.0772
 20
-73.35
 30
0.0
 10
47.7942
 20
-77.6618
 30
0.0
 10
48.6298
 20
-79.1727
 30
0.0
 10
52.1876
 20
-82.5915
 30
0.0
 10
52.1876
 20
-82.5915
 30
0.0
 10
53.9713
 20
-84.3062
 30
0.0
 10
55.32
 20
-85.4124
 30
0.0
 10
55.4536
 20
-88.0433
 30
0.0
 10
55.4536
 20
-88.0433
 30
0.0
 10
55.6848
 20
-89.3045
 30
0.0
 10
54.706
 20
-91.053
 30
0.0
 10
53.8869
 20
-92.4299
 30
0.0
 10
53.8869
 20
-92.4299
 30
0.0
 10
53.1418
 20
-93.6822
 30
0.0
 10
52.0036
 20
-96.1957
 30
0.0
 10
51.3574
 20
-98.0155
 30
0.0
 10
51.3574
 20
-98.0155
 30
0.0
 10
49.7161
 20
-102.6386
 30
0.0
 10
48.0468
 20
-104.8673
 30
0.0
 10
44.7017
 20
-106.5141
 30
0.0
 10
44.7017
 20
-106.5141
 30
0.0
 10
41.1714
 20
-107.9134
 30
0.0
 10
36.5137
 20
-108.4386
 30
0.0
 10
33.233
 20
-106.8355
 30
0.0
 10
33.233
 20
-106.8355
 30
0.0
 10
30.1434
 20
-105.2593
 30
0.0
 10
28.5126
 20
-101.9747
 30
0.0
 10
28.5105
 20
-98.4397
 30
0.0
 10
28.5105
 20
-98.4397
 30
0.0
 10
28.5087
 20
-95.6143
 30
0.0
 10
31.3573
 20
-92.9879
 30
0.0
 10
34.4235
 20
-92.9879
 30
0.0
 10
34.4235
 20
-92.9879
 30
0.0
 10
38.6362
 20
-92.631
 30
0.0
 10
41.2533
 20
-97.3937
 30
0.0
 10
39.552
 20
-99.6338
 30
0.0
 10
39.552
 20
-99.6338
 30
0.0
 10
39.4459
 20
-99.2325
 30
0.0
 10
39.5786
 20
-97.5569
 30
0.0
 10
38.067
 20
-97.4026
 30
0.0
 10
38.067
 20
-97.4026
 30
0.0
 10
36.8646
 20
-97.28
 30
0.0
 10
36.4355
 20
-96.3559
 30
0.0
 10
36.0208
 20
-95.627
 30
0.0
 10
36.0208
 20
-95.627
 30
0.0
 10
35.0482
 20
-93.9181
 30
0.0
 10
33.2398
 20
-93.7874
 30
0.0
 10
32.5169
 20
-95.3736
 30
0.0
 10
32.5169
 20
-95.3736
 30
0.0
 10
32.0772
 20
-96.3391
 30
0.0
 10
32.1896
 20
-96.6051
 30
0.0
 10
33.5993
 20
-97.9351
 30
0.0
 10
33.5993
 20
-97.9351
 30
0.0
 10
35.0862
 20
-99.3379
 30
0.0
 10
35.2108
 20
-99.8919
 30
0.0
 10
34.6744
 20
-100.8481
 30
0.0
 10
34.6744
 20
-100.8481
 30
0.0
 10
32.9391
 20
-103.9414
 30
0.0
 10
34.6998
 20
-105.7367
 30
0.0
 10
38.4623
 20
-105.7367
 30
0.0
 10
38.4623
 20
-105.7367
 30
0.0
 10
42.1969
 20
-105.7367
 30
0.0
 10
45.9439
 20
-103.2161
 30
0.0
 10
47.6195
 20
-99.5767
 30
0.0
 10
47.6195
 20
-99.5767
 30
0.0
 10
49.2424
 20
-96.0519
 30
0.0
 10
49.2328
 20
-90.7759
 30
0.0
 10
47.5973
 20
-87.2229
 30
0.0
 10
47.5973
 20
-87.2229
 30
0.0
 10
45.706
 20
-83.1147
 30
0.0
 10
43.9068
 20
-80.8976
 30
0.0
 10
39.4774
 20
-77.2169
 30
0.0
 10
39.4774
 20
-77.2169
 30
0.0
 10
31.515
 20
-70.2224
 30
0.0
 10
18.7906
 20
-64.8802
 30
0.0
 10
12.8801
 20
-55.4712
 30
0.0
 10
12.8801
 20
-55.4712
 30
0.0
 10
11.5792
 20
-53.3153
 30
0.0
 10
-2.4366
 20
-26.6157
 30
0.0
 10
15.8924
 20
-5.9707
 30
0.0
 10
15.8924
 20
-5.9707
 30
0.0
 10
24.3661
 20
3.5736
 30
0.0
 10
37.7853
 20
8.506
 30
0.0
 10
45.4029
 20
7.7861
 30
0.0
 10
45.4029
 20
7.7861
 30
0.0
 10
39.5901
 20
6.4803
 30
0.0
 10
23.0125
 20
1.6908
 30
0.0
 10
13.9165
 20
-11.9066
 30
0.0
 10
13.9165
 20
-11.9066
 30
0.0
 10
5.6283
 20
-24.2965
 30
0.0
 10
9.3652
 20
-43.545
 30
0.0
 10
12.0079
 20
-48.0145
 30
0.0
  0
SPLINE
  5
7B
330
1F
100
AcDbEntity
  8
layer 1
 62
     7
100
AcDbSpline
210
0.0
220
0.0
230
1.0
 70
    11
 71
     3
 72
    32
 73
    28
 74
     0
 42
0.0000000001
 43
0.0000000001
 12
1.0
 22
0.0
 32
0.0
 13
1.0
 23
0.0
 33
0.0
 40
0.0
 40
0.0
 40
0.0
 40
0.0
 40
0.125
 40
0.125
 40
0.125
 40
0.125
 40
0.25
 40
0.25
 40
0.25
 40
0.25
 40
0.375
 40
0.375
 40
0.375
 40
0.375
 40
0.5
 40
0.5
 40
0.5
 40
0.5
 40
0.625
 40
0.625
 40
0.625
 40
0.625
 40
0.75
 40
0.75
 40
0.75
 40
0.75
 40
1.0
 40
1.0
 40
1.0
 40
1.0
 10
12.9787
 20
-63.2071
 30
0.0
 10
14.6045
 20
-66.5416
 30
0.0
 10
18.7097
 20
-69.3205
 30
0.0
 10
21.1137
 20
-71.0777
 30
0.0
 10
21.1137
 20
-71.0777
 30
0.0
 10
17.4462
 20
-70.8572
 30
0.0
 10
15.3956
 20
-68.4419
 30
0.0
 10
14.3927
 20
-67.0691
 30
0.0
 10
14.3927
 20
-67.0691
 30
0.0
 10
13.3471
 20
-65.638
 30
0.0
 10
12.8155
 20
-65.6721
 30
0.0
 10
13.1079
 20
-67.4736
 30
0.0
 10
13.1079
 20
-67.4736
 30
0.0
 10
14.2837
 20
-71.5691
 30
0.0
 10
11.1582
 20
-69.4084
 30
0.0
 10
10.1962
 20
-67.1217
 30
0.0
 10
10.1962
 20
-67.1217
 30
0.0
 10
6.482
 20
-58.428
 30
0.0
 10
6.4734
 20
-50.6572
 30
0.0
 10
6.1342
 20
-44.1582
 30
0.0
 10
6.1342
 20
-44.1582
 30
0.0
 10
7.1433
 20
-48.3628
 30
0.0
 10
10.0012
 20
-57.7723
 30
0.0
 10
12.9788
 20
-63.2069
 30
0.0
 10
12.9788
 20
-63.2069
 30
0.0
 10
12.9788
 20
-63.2069
 30
0.0
 10
12.9787
 20
-63.2071
 30
0.0
 10
12.9787
 20
-63.2071
 30
0.0
  0
SPLINE
  5
7C
330
1F
100
AcDbEntity
  8
layer 1
 62
     7
100
AcDbSpline
210
0.0
220
0.0
230
1.0
 70
    11
 71
     3
 72
    44
 73
    40
 74
     0
 42
0.0000000001
 43
0.0000000001
 12
1.0
 22
0.0
 32
0.0
 13
1.0
 23
0.0
 33
0.0
 40
0.0
 40
0.0
 40
0.0
 40
0.0
 40
0.0909090909090909
 40
0.0909090909090909
 40
0.0909090909090909
 40
0.0909090909090909
 40
0.1818181818181818
 40
0.1818181818181818
 40
0.1818181818181818
 40
0.1818181818181818
 40
0.2727272727272727
 40
0.2727272727272727
 40
0.2727272727272727
 40
0.2727272727272727
 40
0.3636363636363636
 40
0.3636363636363636
 40
0.3636363636363636
 40
0.3636363636363636
 40
0.4545454545454545
 40
0.4545454545454545
 40
0.4545454545454545
 40
0.4545454545454545
 40
0.5454545454545454
 40
0.5454545454545454
 40
0.5454545454545454
 40
0.5454545454545454
 40
0.6363636363636364
 40
0.6363636363636364
 40
0.6363636363636364
 40
0.6363636363636364
 40
0.7272727272727273
 40
0.7272727272727273
 40
0.7272727272727273
 40
0.7272727272727273
 40
0.8181818181818182
 40
0.8181818181818182
 40
0.8181818181818182
 40
0.8181818181818182
 40
1.0
 40
1.0
 40
1.0
 40
1.0
 10
16.3644
 20
-43.2738
 30
0.0
 10
17.9905
 20
-45.9006
 30
0.0
 10
20.1524
 20
-48.2482
 30
0.0
 10
22.1051
 20
-49.7124
 30
0.0
 10
22.1051
 20
-49.7124
 30
0.0
 10
36.2039
 20
-59.9877
 30
0.0
 10
57.9278
 20
-49.9662
 30
0.0
 10
54.0155
 20
-31.9282
 30
0.0
 10
54.0155
 20
-31.9282
 30
0.0
 10
59.2423
 20
-36.7755
 30
0.0
 10
57.8044
 20
-44.3209
 30
0.0
 10
53.3664
 20
-48.314
 30
0.0
 10
53.3664
 20
-48.314
 30
0.0
 10
54.2359
 20
-47.9083
 30
0.0
 10
56.0884
 20
-47.7097
 30
0.0
 10
57.7559
 20
-48.5835
 30
0.0
 10
57.7559
 20
-48.5835
 30
0.0
 10
53.938
 20
-57.5341
 30
0.0
 10
40.3378
 20
-58.5526
 30
0.0
 10
32.7232
 20
-57.3994
 30
0.0
 10
32.7232
 20
-57.3994
 30
0.0
 10
24.7689
 20
-55.8703
 30
0.0
 10
17.7391
 20
-48.4724
 30
0.0
 10
14.5196
 20
-41.2178
 30
0.0
 10
14.5196
 20
-41.2178
 30
0.0
 10
13.2611
 20
-38.382
 30
0.0
 10
13.0323
 20
-34.3784
 30
0.0
 10
13.1285
 20
-32.1197
 30
0.0
 10
13.1285
 20
-32.1197
 30
0.0
 10
13.1285
 20
-32.1197
 30
0.0
 10
13.4523
 20
-32.0277
 30
0.0
 10
13.4523
 20
-32.0277
 30
0.0
 10
13.4523
 20
-32.0277
 30
0.0
 10
13.5391
 20
-36.0383
 30
0.0
 10
14.5102
 20
-40.237
 30
0.0
 10
16.3642
 20
-43.2738
 30
0.0
 10
16.3642
 20
-43.2738
 30
0.0
 10
16.3642
 20
-43.2738
 30
0.0
 10
16.3644
 20
-43.2738
 30
0.0
 10
16.3644
 20
-43.2738
 30
0.0
  0
SPLINE
  5
7D
330
1F
100
AcDbEntity
  8
layer 1
 62
     7
100
AcDbSpline
210
0.0
220
0.0
230
1.0
 70
    11
 71
     3
 72
   116
 73
   112
 74
     0
 42
0.0000000001
 43
0.0000000001
 12
1.0
 22
0.0
 32
0.0
 13
1.0
 23
0.0
 33
0.0
 40
0.0
 40
0.0
 40
0.0
 40
0.0
 40
0.0344827586206897
 40
0.0344827586206897
 40
0.0344827586206897
 40
0.0344827586206897
 40
0.0689655172413793
 40
0.0689655172413793
 40
0.0689655172413793
 40
0.0689655172413793
 40
0.103448275862069
 40
0.103448275862069
 40
0.103448275862069
 40
0.103448275862069
 40
0.1379310344827586
 40
0.1379310344827586
 40
0.1379310344827586
 40
0.1379310344827586
 40
0.1724137931034483
 40
0.1724137931034483
 40
0.1724137931034483
 40
0.1724137931034483
 40
0.2068965517241379
 40
0.2068965517241379
 40
0.2068965517241379
 40
0.2068965517241379
 40
0.2413793103448276
 40
0.2413793103448276
 40
0.2413793103448276
 40
0.2413793103448276
 40
0.2758620689655172
 40
0.2758620689655172
 40
0.2758620689655172
 40
0.2758620689655172
 40
0.3103448275862069
 40
0.3103448275862069
 40
0.3103448275862069
 40
0.3103448275862069
 40
0.3448275862068966
 40
0.3448275862068966
 40
0.3448275862068966
 40
0.3448275862068966
 40
0.3793103448275862
 40
0.3793103448275862
 40
0.3793103448275862
 40
0.3793103448275862
 40
0.4137931034482759
 40
0.4137931034482759
 40
0.4137931034482759
 40
0.4137931034482759
 40
0.4482758620689655
 40
0.4482758620689655
 40
0.4482758620689655
 40
0.4482758620689655
 40
0.4827586206896552
 40
0.4827586206896552
 40
0.4827586206896552
 40
0.4827586206896552
 40
0.5172413793103449
 40
0.5172413793103449
 40
0.5172413793103449
 40
0.5172413793103449
 40
0.5517241379310345
 40
0.5517241379310345
 40
0.5517241379310345
 40
0.5517241379310345
 40
0.5862068965517241
 40
0.5862068965517241
 40
0.5862068965517241
 40
0.5862068965517241
 40
0.6206896551724138
 40
0.6206896551724138
 40
0.6206896551724138
 40
0.6206896551724138
 40
0.6551724137931034
 40
0.6551724137931034
 40
0.6551724137931034
 40
0.6551724137931034
 40
0.6896551724137931
 40
0.6896551724137931
 40
0.6896551724137931
 40
0.6896551724137931
 40
0.7241379310344828
 40
0.7241379310344828
 40
0.7241379310344828
 40
0.7241379310344828
 40
0.7586206896551724
 40
0.7586206896551724
 40
0.7586206896551724
 40
0.7586206896551724
 40
0.7931034482758621
 40
0.7931034482758621
 40
0.7931034482758621
 40
0.7931034482758621
 40
0.8275862068965517
 40
0.8275862068965517
 40
0.8275862068965517
 40
0.8275862068965517
 40
0.8620689655172413
 40
0.8620689655172413
 40
0.8620689655172413
 40
0.8620689655172413
 40
0.896551724137931
 40
0.896551724137931
 40
0.896551724137931
 40
0.896551724137931
 40
0.9310344827586207
 40
0.9310344827586207
 40
0.9310344827586207
 40
0.9310344827586207
 40
1.0
 40
1.0
 40
1.0
 40
1.0
 10
15.1923
 20
-21.6789
 30
0.0
 10
16.912
 20
-13.8272
 30
0.0
 10
22.6637
 20
-6.1711
 30
0.0
 10
31.1498
 20
-0.4381
 30
0.0
 10
31.1498
 20
-0.4381
 30
0.0
 10
35.5523
 20
2.5361
 30
0.0
 10
41.5774
 20
5.4495
 30
0.0
 10
43.9895
 20
5.7703
 30
0.0
 10
43.9895
 20
5.7703
 30
0.0
 10
43.9895
 20
5.7703
 30
0.0
 10
45.7341
 20
6.0024
 30
0.0
 10
45.7341
 20
6.0024
 30
0.0
 10
45.7341
 20
6.0024
 30
0.0
 10
45.7341
 20
6.0024
 30
0.0
 10
43.9895
 20
5.2702
 30
0.0
 10
43.9895
 20
5.2702
 30
0.0
 10
43.9895
 20
5.2702
 30
0.0
 10
37.1571
 20
2.4024
 30
0.0
 10
30.7665
 20
-1.7453
 30
0.0
 10
27.1316
 20
-5.6715
 30
0.0
 10
27.1316
 20
-5.6715
 30
0.0
 10
22.6014
 20
-10.5646
 30
0.0
 10
20.7331
 20
-14.9334
 30
0.0
 10
20.3444
 20
-21.5432
 30
0.0
 10
20.3444
 20
-21.5432
 30
0.0
 10
19.8178
 20
-30.4988
 30
0.0
 10
22.7089
 20
-37.0298
 30
0.0
 10
28.5065
 20
-39.9806
 30
0.0
 10
28.5065
 20
-39.9806
 30
0.0
 10
31.0162
 20
-41.258
 30
0.0
 10
32.6234
 20
-41.5948
 30
0.0
 10
36.3043
 20
-41.6145
 30
0.0
 10
36.3043
 20
-41.6145
 30
0.0
 10
41.7403
 20
-41.6437
 30
0.0
 10
45.7718
 20
-38.5248
 30
0.0
 10
46.8192
 20
-33.48
 30
0.0
 10
46.8192
 20
-33.48
 30
0.0
 10
47.2567
 20
-31.373
 30
0.0
 10
47.2135
 20
-30.8572
 30
0.0
 10
46.4569
 20
-29.1468
 30
0.0
 10
46.4569
 20
-29.1468
 30
0.0
 10
45.4505
 20
-26.872
 30
0.0
 10
44.3448
 20
-26.1572
 30
0.0
 10
42.1174
 20
-26.3422
 30
0.0
 10
42.1174
 20
-26.3422
 30
0.0
 10
42.1174
 20
-26.3422
 30
0.0
 10
41.0392
 20
-26.4464
 30
0.0
 10
40.4254
 20
-26.6638
 30
0.0
 10
40.4254
 20
-26.6638
 30
0.0
 10
39.6615
 20
-27.0312
 30
0.0
 10
39.3175
 20
-28.0396
 30
0.0
 10
40.6271
 20
-28.8155
 30
0.0
 10
40.6271
 20
-28.8155
 30
0.0
 10
41.7494
 20
-29.8538
 30
0.0
 10
41.4337
 20
-31.5174
 30
0.0
 10
40.082
 20
-32.1802
 30
0.0
 10
40.082
 20
-32.1802
 30
0.0
 10
38.5897
 20
-32.9119
 30
0.0
 10
39.7032
 20
-35.8616
 30
0.0
 10
41.8563
 20
-35.1736
 30
0.0
 10
41.8563
 20
-35.1736
 30
0.0
 10
42.6451
 20
-34.9215
 30
0.0
 10
42.6441
 20
-34.94
 30
0.0
 10
41.8344
 20
-35.5998
 30
0.0
 10
41.8344
 20
-35.5998
 30
0.0
 10
40.1967
 20
-36.9342
 30
0.0
 10
37.448
 20
-36.2078
 30
0.0
 10
36.211
 20
-34.1135
 30
0.0
 10
36.211
 20
-34.1135
 30
0.0
 10
34.4476
 20
-31.128
 30
0.0
 10
35.8898
 20
-26.8249
 30
0.0
 10
39.1503
 20
-25.3441
 30
0.0
 10
39.1503
 20
-25.3441
 30
0.0
 10
41.4007
 20
-24.3221
 30
0.0
 10
42.654
 20
-24.3226
 30
0.0
 10
44.908
 20
-25.3462
 30
0.0
 10
44.908
 20
-25.3462
 30
0.0
 10
47.5242
 20
-26.5344
 30
0.0
 10
48.7546
 20
-29.2325
 30
0.0
 10
48.4724
 20
-33.1632
 30
0.0
 10
48.4724
 20
-33.1632
 30
0.0
 10
48.2215
 20
-36.6576
 30
0.0
 10
47.1065
 20
-39.0285
 30
0.0
 10
44.685
 20
-41.2161
 30
0.0
 10
44.685
 20
-41.2161
 30
0.0
 10
42.4748
 20
-43.2128
 30
0.0
 10
40.7826
 20
-43.9241
 30
0.0
 10
37.4112
 20
-44.2731
 30
0.0
 10
37.4112
 20
-44.2731
 30
0.0
 10
33.0283
 20
-44.7269
 30
0.0
 10
32.6564
 20
-45.0587
 30
0.0
 10
34.1612
 20
-47.1722
 30
0.0
 10
34.1612
 20
-47.1722
 30
0.0
 10
34.9078
 20
-48.2205
 30
0.0
 10
34.9404
 20
-48.4828
 30
0.0
 10
34.4144
 20
-49.2022
 30
0.0
 10
34.4144
 20
-49.2022
 30
0.0
 10
33.5538
 20
-50.3791
 30
0.0
 10
28.1961
 20
-50.2026
 30
0.0
 10
25.2522
 20
-48.9003
 30
0.0
 10
25.2522
 20
-48.9003
 30
0.0
 10
20.9431
 20
-46.9943
 30
0.0
 10
17.2464
 20
-42.3115
 30
0.0
 10
15.444
 20
-36.4756
 30
0.0
 10
15.444
 20
-36.4756
 30
0.0
 10
14.3887
 20
-33.059
 30
0.0
 10
14.2671
 20
-25.9041
 30
0.0
 10
15.1925
 20
-21.679
 30
0.0
 10
15.1925
 20
-21.679
 30
0.0
 10
15.1925
 20
-21.679
 30
0.0
 10
15.1923
 20
-21.6789
 30
0.0
 10
15.1923
 20
-21.6789
 30
0.0
  0
SPLINE
  5
7E
330
1F
100
AcDbEntity
  8
layer 1
 62
     7
100
AcDbSpline
210
0.0
220
0.0
230
1.0
 70
    11
 71
     3
 72
    20
 73
    16
 74
     0
 42
0.0000000001
 43
0.0000000001
 12
1.0
 22
0.0
 32
0.0
 13
1.0
 23
0.0
 33
0.0
 40
0.0
 40
0.0
 40
0.0
 40
0.0
 40
0.2
 40
0.2
 40
0.2
 40
0.2
 40
0.4
 40
0.4
 40
0.4
 40
0.4
 40
0.6
 40
0.6
 40
0.6
 40
0.6
 40
1.0
 40
1.0
 40
1.0
 40
1.0
 10
18.6744
 20
-38.3586
 30
0.0
 10
19.0082
 20
-37.6988
 30
0.0
 10
19.5539
 20
-37.3856
 30
0.0
 10
20.3489
 20
-37.3971
 30
0.0
 10
20.3489
 20
-37.3971
 30
0.0
 10
21.6429
 20
-37.416
 30
0.0
 10
21.8
 20
-37.1718
 30
0.0
 10
21.0048
 20
-36.3767
 30
0.0
 10
21.0048
 20
-36.3767
 30
0.0
 10
19.3593
 20
-35.4577
 30
0.0
 10
17.708
 20
-36.3566
 30
0.0
 10
17.6081
 20
-38.1216
 30
0.0
 10
17.6081
 20
-38.1216
 30
0.0
 10
17.6165
 20
-39.2575
 30
0.0
 10
18.2917
 20
-39.0951
 30
0.0
 10
18.6744
 20
-38.3586
 30
0.0
  0
SPLINE
  5
7F
330
1F
100
AcDbEntity
  8
layer 1
 62
     7
100
AcDbSpline
210
0.0
220
0.0
230
1.0
 70
    11
 71
     3
 72
    24
 73
    20
 74
     0
 42
0.0000000001
 43
0.0000000001
 12
1.0
 22
0.0
 32
0.0
 13
1.0
 23
0.0
 33
0.0
 40
0.0
 40
0.0
 40
0.0
 40
0.0
 40
0.1666666666666667
 40
0.1666666666666667
 40
0.1666666666666667
 40
0.1666666666666667
 40
0.3333333333333333
 40
0.3333333333333333
 40
0.3333333333333333
 40
0.3333333333333333
 40
0.5
 40
0.5
 40
0.5
 40
0.5
 40
0.6666666666666666
 40
0.6666666666666666
 40
0.6666666666666666
 40
0.6666666666666666
 40
1.0
 40
1.0
 40
1.0
 40
1.0
 10
21.6154
 20
-43.6167
 30
0.0
 10
22.4206
 20
-44.422
 30
0.0
 10
22.7353
 20
-44.2428
 30
0.0
 10
22.5174
 20
-43.1029
 30
0.0
 10
22.5174
 20
-43.1029
 30
0.0
 10
22.2762
 20
-41.8412
 30
0.0
 10
23.1367
 20
-40.5393
 30
0.0
 10
24.554
 20
-40.8411
 30
0.0
 10
24.554
 20
-40.8411
 30
0.0
 10
25.4947
 20
-41.0414
 30
0.0
 10
26.2316
 20
-40.9557
 30
0.0
 10
25.078
 20
-40.2479
 30
0.0
 10
25.078
 20
-40.2479
 30
0.0
 10
22.5678
 20
-38.4681
 30
0.0
 10
20.2866
 20
-41.6381
 30
0.0
 10
21.6154
 20
-43.6165
 30
0.0
 10
21.6154
 20
-43.6165
 30
0.0
 10
21.6154
 20
-43.6165
 30
0.0
 10
21.6154
 20
-43.6167
 30
0.0
 10
21.6154
 20
-43.6167
 30
0.0
  0
SPLINE
  5
80
330
1F
100
AcDbEntity
  8
layer 1
 62
     7
100
AcDbSpline
210
0.0
220
0.0
230
1.0
 70
    11
 71
     3
 72
    24
 73
    20
 74
     0
 42
0.0000000001
 43
0.0000000001
 12
1.0
 22
0.0
 32
0.0
 13
1.0
 23
0.0
 33
0.0
 40
0.0
 40
0.0
 40
0.0
 40
0.0
 40
0.1666666666666667
 40
0.1666666666666667
 40
0.1666666666666667
 40
0.1666666666666667
 40
0.3333333333333333
 40
0.3333333333333333
 40
0.3333333333333333
 40
0.3333333333333333
 40
0.5
 40
0.5
 40
0.5
 40
0.5
 40
0.6666666666666666
 40
0.6666666666666666
 40
0.6666666666666666
 40
0.6666666666666666
 40
1.0
 40
1.0
 40
1.0
 40
1.0
 10
26.4935
 20
-46.4231
 30
0.0
 10
27.2882
 20
-47.0372
 30
0.0
 10
27.4336
 20
-46.6277
 30
0.0
 10
27.2819
 20
-45.7687
 30
0.0
 10
27.2819
 20
-45.7687
 30
0.0
 10
27.0411
 20
-44.4033
 30
0.0
 10
27.9246
 20
-42.8326
 30
0.0
 10
29.0136
 20
-42.916
 30
0.0
 10
29.0136
 20
-42.916
 30
0.0
 10
30.4042
 20
-42.522
 30
0.0
 10
29.724
 20
-42.3306
 30
0.0
 10
29.325
 20
-41.9765
 30
0.0
 10
29.325
 20
-41.9765
 30
0.0
 10
26.5166
 20
-40.7948
 30
0.0
 10
24.1663
 20
-44.7846
 30
0.0
 10
26.4937
 20
-46.4231
 30
0.0
 10
26.4937
 20
-46.4231
 30
0.0
 10
26.4937
 20
-46.4231
 30
0.0
 10
26.4935
 20
-46.4231
 30
0.0
 10
26.4935
 20
-46.4231
 30
0.0
  0
SPLINE
  5
81
330
1F
100
AcDbEntity
  8
layer 1
 62
     7
100
AcDbSpline
210
0.0
220
0.0
230
1.0
 70
    11
 71
     3
 72
    28
 73
    24
 74
     0
 42
0.0000000001
 43
0.0000000001
 12
1.0
 22
0.0
 32
0.0
 13
1.0
 23
0.0
 33
0.0
 40
0.0
 40
0.0
 40
0.0
 40
0.0
 40
0.1428571428571428
 40
0.1428571428571428
 40
0.1428571428571428
 40
0.1428571428571428
 40
0.2857142857142857
 40
0.2857142857142857
 40
0.2857142857142857
 40
0.2857142857142857
 40
0.4285714285714285
 40
0.4285714285714285
 40
0.4285714285714285
 40
0.4285714285714285
 40
0.5714285714285714
 40
0.5714285714285714
 40
0.5714285714285714
 40
0.5714285714285714
 40
0.7142857142857143
 40
0.7142857142857143
 40
0.7142857142857143
 40
0.7142857142857143
 40
1.0
 40
1.0
 40
1.0
 40
1.0
 10
29.8806
 20
-8.1584
 30
0.0
 10
28.0939
 20
-11.5861
 30
0.0
 10
26.6486
 20
-15.9686
 30
0.0
 10
28.0676
 20
-19.0566
 30
0.0
 10
28.0676
 20
-19.0566
 30
0.0
 10
30.2885
 20
-23.3815
 30
0.0
 10
35.2551
 20
-24.152
 30
0.0
 10
35.7173
 20
-20.2495
 30
0.0
 10
35.7173
 20
-20.2495
 30
0.0
 10
38.2404
 20
-27.0001
 30
0.0
 10
30.2461
 20
-27.1671
 30
0.0
 10
28.0702
 20
-22.6059
 30
0.0
 10
28.0702
 20
-22.6059
 30
0.0
 10
28.8534
 20
-25.3192
 30
0.0
 10
28.3643
 20
-27.6004
 30
0.0
 10
26.8776
 20
-29.0464
 30
0.0
 10
26.8776
 20
-29.0464
 30
0.0
 10
21.2405
 20
-25.6512
 30
0.0
 10
24.4528
 20
-11.2896
 30
0.0
 10
29.8806
 20
-8.1583
 30
0.0
 10
29.8806
 20
-8.1583
 30
0.0
 10
29.8806
 20
-8.1583
 30
0.0
 10
29.8806
 20
-8.1584
 30
0.0
 10
29.8806
 20
-8.1584
 30
0.0
  0
SPLINE
  5
82
330
1F
100
AcDbEntity
  8
layer 1
 62
     7
100
AcDbSpline
210
0.0
220
0.0
230
1.0
 70
    11
 71
     3
 72
    36
 73
    32
 74
     0
 42
0.0000000001
 43
0.0000000001
 12
1.0
 22
0.0
 32
0.0
 13
1.0
 23
0.0
 33
0.0
 40
0.0
 40
0.0
 40
0.0
 40
0.0
 40
0.1111111111111111
 40
0.1111111111111111
 40
0.1111111111111111
 40
0.1111111111111111
 40
0.2222222222222222
 40
0.2222222222222222
 40
0.2222222222222222
 40
0.2222222222222222
 40
0.3333333333333333
 40
0.3333333333333333
 40
0.3333333333333333
 40
0.3333333333333333
 40
0.4444444444444444
 40
0.4444444444444444
 40
0.4444444444444444
 40
0.4444444444444444
 40
0.5555555555555556
 40
0.5555555555555556
 40
0.5555555555555556
 40
0.5555555555555556
 40
0.6666666666666666
 40
0.6666666666666666
 40
0.6666666666666666
 40
0.6666666666666666
 40
0.7777777777777778
 40
0.7777777777777778
 40
0.7777777777777778
 40
0.7777777777777778
 40
1.0
 40
1.0
 40
1.0
 40
1.0
 10
38.757
 20
-87.6937
 30
0.0
 10
37.2833
 20
-87.1926
 30
0.0
 10
36.6304
 20
-86.2581
 30
0.0
 10
36.3881
 20
-85.2596
 30
0.0
 10
36.3881
 20
-85.2596
 30
0.0
 10
36.0243
 20
-89.9845
 30
0.0
 10
33.7961
 20
-90.16
 30
0.0
 10
32.5807
 20
-90.5675
 30
0.0
 10
32.5807
 20
-90.5675
 30
0.0
 10
28.5698
 20
-90.5924
 30
0.0
 10
27.4773
 20
-88.7167
 30
0.0
 10
27.9238
 20
-85.0905
 30
0.0
 10
27.9238
 20
-85.0905
 30
0.0
 10
29.0169
 20
-88.0931
 30
0.0
 10
32.7166
 20
-88.0881
 30
0.0
 10
33.1616
 20
-85.6731
 30
0.0
 10
33.1616
 20
-85.6731
 30
0.0
 10
34.1197
 20
-79.3221
 30
0.0
 10
30.4418
 20
-74.6012
 30
0.0
 10
27.1435
 20
-71.3476
 30
0.0
 10
27.1435
 20
-71.3476
 30
0.0
 10
29.4771
 20
-72.2618
 30
0.0
 10
33.4626
 20
-74.667
 30
0.0
 10
35.942
 20
-77.7112
 30
0.0
 10
35.942
 20
-77.7112
 30
0.0
 10
39.0341
 20
-81.5077
 30
0.0
 10
40.2763
 20
-86.0965
 30
0.0
 10
38.757
 20
-87.6935
 30
0.0
 10
38.757
 20
-87.6935
 30
0.0
 10
38.757
 20
-87.6935
 30
0.0
 10
38.757
 20
-87.6937
 30
0.0
 10
38.757
 20
-87.6937
 30
0.0
  0
SPLINE
  5
83
330
1F
100
AcDbEntity
  8
layer 1
 62
     7
100
AcDbSpline
210
0.0
220
0.0
230
1.0
 70
    11
 71
     3
 72
    64
 73
    60
 74
     0
 42
0.0000000001
 43
0.0000000001
 12
1.0
 22
0.0
 32
0.0
 13
1.0
 23
0.0
 33
0.0
 40
0.0
 40
0.0
 40
0.0
 40
0.0
 40
0.0625
 40
0.0625
 40
0.0625
 40
0.0625
 40
0.125
 40
0.125
 40
0.125
 40
0.125
 40
0.1875
 40
0.1875
 40
0.1875
 40
0.1875
 40
0.25
 40
0.25
 40
0.25
 40
0.25
 40
0.3125
 40
0.3125
 40
0.3125
 40
0.3125
 40
0.375
 40
0.375
 40
0.375
 40
0.375
 40
0.4375
 40
0.4375
 40
0.4375
 40
0.4375
 40
0.5
 40
0.5
 40
0.5
 40
0.5
 40
0.5625
 40
0.5625
 40
0.5625
 40
0.5625
 40
0.625
 40
0.625
 40
0.625
 40
0.625
 40
0.6875
 40
0.6875
 40
0.6875
 40
0.6875
 40
0.75
 40
0.75
 40
0.75
 40
0.75
 40
0.8125
 40
0.8125
 40
0.8125
 40
0.8125
 40
0.875
 40
0.875
 40
0.875
 40
0.875
 40
1.0
 40
1.0
 40
1.0
 40
1.0
 10
43.9009
 20
2.5206
 30
0.0
 10
41.5563
 20
0.9607
 30
0.0
 10
39.662
 20
-0.7716
 30
0.0
 10
38.4898
 20
-3.3324
 30
0.0
 10
38.4898
 20
-3.3324
 30
0.0
 10
37.3896
 20
-5.7544
 30
0.0
 10
37.3969
 20
-10.2949
 30
0.0
 10
38.505
 20
-12.8798
 30
0.0
 10
38.505
 20
-12.8798
 30
0.0
 10
40.3047
 20
-16.5007
 30
0.0
 10
43.8451
 20
-17.0915
 30
0.0
 10
46.3123
 20
-16.0276
 30
0.0
 10
46.3123
 20
-16.0276
 30
0.0
 10
48.2424
 20
-15.1953
 30
0.0
 10
48.4998
 20
-11.8364
 30
0.0
 10
45.9292
 20
-10.8889
 30
0.0
 10
45.9292
 20
-10.8889
 30
0.0
 10
45.3557
 20
-10.832
 30
0.0
 10
44.9654
 20
-10.9858
 30
0.0
 10
45.2794
 20
-11.3971
 30
0.0
 10
45.2794
 20
-11.3971
 30
0.0
 10
45.937
 20
-12.1331
 30
0.0
 10
46.0263
 20
-12.5224
 30
0.0
 10
45.668
 20
-13.0906
 30
0.0
 10
45.668
 20
-13.0906
 30
0.0
 10
45.0051
 20
-14.1413
 30
0.0
 10
43.2916
 20
-14.0304
 30
0.0
 10
42.8772
 20
-12.9101
 30
0.0
 10
42.8772
 20
-12.9101
 30
0.0
 10
42.4854
 20
-11.851
 30
0.0
 10
42.5577
 20
-10.318
 30
0.0
 10
44.1044
 20
-9.5693
 30
0.0
 10
44.1044
 20
-9.5693
 30
0.0
 10
46.2848
 20
-8.7192
 30
0.0
 10
47.9945
 20
-9.5711
 30
0.0
 10
49.0297
 20
-11.0339
 30
0.0
 10
49.0297
 20
-11.0339
 30
0.0
 10
50.3064
 20
-13.0379
 30
0.0
 10
50.0206
 20
-15.9414
 30
0.0
 10
48.5149
 20
-17.4002
 30
0.0
 10
48.5149
 20
-17.4002
 30
0.0
 10
44.9451
 20
-20.9971
 30
0.0
 10
39.7892
 20
-19.1917
 30
0.0
 10
37.4465
 20
-15.6353
 30
0.0
 10
37.4465
 20
-15.6353
 30
0.0
 10
36.7267
 20
-14.5346
 30
0.0
 10
36.2857
 20
-14.3415
 30
0.0
 10
36.119
 20
-15.0902
 30
0.0
 10
36.119
 20
-15.0902
 30
0.0
 10
35.7337
 20
-16.8215
 30
0.0
 10
34.3981
 20
-16.1221
 30
0.0
 10
33.7353
 20
-14.3736
 30
0.0
 10
33.7353
 20
-14.3736
 30
0.0
 10
30.4104
 20
-6.0015
 30
0.0
 10
36.8168
 20
0.6436
 30
0.0
 10
43.9009
 20
2.5205
 30
0.0
 10
43.9009
 20
2.5205
 30
0.0
 10
43.9009
 20
2.5205
 30
0.0
 10
43.9009
 20
2.5206
 30
0.0
 10
43.9009
 20
2.5206
 30
0.0
  0
SPLINE
  5
84
330
1F
100
AcDbEntity
  8
layer 1
 62
     7
100
AcDbSpline
210
0.0
220
0.0
230
1.0
 70
    11
 71
     3
 72
    40
 73
    36
 74
     0
 42
0.0000000001
 43
0.0000000001
 12
1.0
 22
0.0
 32
0.0
 13
1.0
 23
0.0
 33
0.0
 40
0.0
 40
0.0
 40
0.0
 40
0.0
 40
0.1
 40
0.1
 40
0.1
 40
0.1
 40
0.2
 40
0.2
 40
0.2
 40
0.2
 40
0.3
 40
0.3
 40
0.3
 40
0.3
 40
0.4
 40
0.4
 40
0.4
 40
0.4
 40
0.5
 40
0.5
 40
0.5
 40
0.5
 40
0.6
 40
0.6
 40
0.6
 40
0.6
 40
0.7
 40
0.7
 40
0.7
 40
0.7
 40
0.8
 40
0.8
 40
0.8
 40
0.8
 40
1.0
 40
1.0
 40
1.0
 40
1.0
 10
50.7568
 20
-57.9686
 30
0.0
 10
52.6699
 20
-55.5365
 30
0.0
 10
56.3323
 20
-54.2588
 30
0.0
 10
57.6407
 20
-55.567
 30
0.0
 10
57.6407
 20
-55.567
 30
0.0
 10
58.3816
 20
-56.308
 30
0.0
 10
58.2893
 20
-57.5471
 30
0.0
 10
57.4585
 20
-58.0119
 30
0.0
 10
57.4585
 20
-58.0119
 30
0.0
 10
57.0314
 20
-58.2509
 30
0.0
 10
56.6228
 20
-58.4179
 30
0.0
 10
56.7682
 20
-58.7789
 30
0.0
 10
56.7682
 20
-58.7789
 30
0.0
 10
56.8432
 20
-58.965
 30
0.0
 10
57.1933
 20
-59.2337
 30
0.0
 10
57.4895
 20
-59.5308
 30
0.0
 10
57.4895
 20
-59.5308
 30
0.0
 10
58.2269
 20
-60.2704
 30
0.0
 10
58.4603
 20
-61.2298
 30
0.0
 10
58.1016
 20
-61.9002
 30
0.0
 10
58.1016
 20
-61.9002
 30
0.0
 10
57.24
 20
-63.5102
 30
0.0
 10
55.6428
 20
-63.105
 30
0.0
 10
53.1827
 20
-61.4106
 30
0.0
 10
53.1827
 20
-61.4106
 30
0.0
 10
51.9294
 20
-60.5473
 30
0.0
 10
50.7729
 20
-60.0411
 30
0.0
 10
49.4575
 20
-59.81
 30
0.0
 10
49.4575
 20
-59.81
 30
0.0
 10
50.3415
 20
-58.5501
 30
0.0
 10
49.7601
 20
-59.2357
 30
0.0
 10
50.7569
 20
-57.9684
 30
0.0
 10
50.7569
 20
-57.9684
 30
0.0
 10
50.7569
 20
-57.9684
 30
0.0
 10
50.7568
 20
-57.9686
 30
0.0
 10
50.7568
 20
-57.9686
 30
0.0
  0
SPLINE
  5
85
330
1F
100
AcDbEntity
  8
layer 1
 62
     7
100
AcDbSpline
210
0.0
220
0.0
230
1.0
 70
    11
 71
     3
 72
    52
 73
    48
 74
     0
 42
0.0000000001
 43
0.0000000001
 12
1.0
 22
0.0
 32
0.0
 13
1.0
 23
0.0
 33
0.0
 40
0.0
 40
0.0
 40
0.0
 40
0.0
 40
0.0769230769230769
 40
0.0769230769230769
 40
0.0769230769230769
 40
0.0769230769230769
 40
0.1538461538461539
 40
0.1538461538461539
 40
0.1538461538461539
 40
0.1538461538461539
 40
0.2307692307692308
 40
0.2307692307692308
 40
0.2307692307692308
 40
0.2307692307692308
 40
0.3076923076923077
 40
0.3076923076923077
 40
0.3076923076923077
 40
0.3076923076923077
 40
0.3846153846153846
 40
0.3846153846153846
 40
0.3846153846153846
 40
0.3846153846153846
 40
0.4615384615384616
 40
0.4615384615384616
 40
0.4615384615384616
 40
0.4615384615384616
 40
0.5384615384615384
 40
0.5384615384615384
 40
0.5384615384615384
 40
0.5384615384615384
 40
0.6153846153846154
 40
0.6153846153846154
 40
0.6153846153846154
 40
0.6153846153846154
 40
0.6923076923076923
 40
0.6923076923076923
 40
0.6923076923076923
 40
0.6923076923076923
 40
0.7692307692307693
 40
0.7692307692307693
 40
0.7692307692307693
 40
0.7692307692307693
 40
0.8461538461538461
 40
0.8461538461538461
 40
0.8461538461538461
 40
0.8461538461538461
 40
1.0
 40
1.0
 40
1.0
 40
1.0
 10
7.372
 20
-89.8119
 30
0.0
 10
7.086
 20
-89.7062
 30
0.0
 10
7.1727
 20
-89.6113
 30
0.0
 10
6.8822
 20
-89.7908
 30
0.0
 10
6.8822
 20
-89.7908
 30
0.0
 10
6.6887
 20
-95.2033
 30
0.0
 10
7.7285
 20
-102.6265
 30
0.0
 10
10.9871
 20
-104.7651
 30
0.0
 10
10.9871
 20
-104.7651
 30
0.0
 10
14.6286
 20
-108.0439
 30
0.0
 10
20.762
 20
-108.5014
 30
0.0
 10
19.0013
 20
-104.4677
 30
0.0
 10
19.0013
 20
-104.4677
 30
0.0
 10
22.1633
 20
-104.1646
 30
0.0
 10
24.7689
 20
-103.1201
 30
0.0
 10
24.8805
 20
-97.8034
 30
0.0
 10
24.8805
 20
-97.8034
 30
0.0
 10
24.043
 20
-92.5286
 30
0.0
 10
20.0304
 20
-91.3403
 30
0.0
 10
17.3125
 20
-92.3987
 30
0.0
 10
17.3125
 20
-92.3987
 30
0.0
 10
14.8348
 20
-93.4392
 30
0.0
 10
13.8439
 20
-96.6637
 30
0.0
 10
15.1923
 20
-97.5775
 30
0.0
 10
15.1923
 20
-97.5775
 30
0.0
 10
16.0164
 20
-95.1025
 30
0.0
 10
17.1236
 20
-93.9708
 30
0.0
 10
18.0296
 20
-95.4834
 30
0.0
 10
18.0296
 20
-95.4834
 30
0.0
 10
18.6645
 20
-96.4553
 30
0.0
 10
20.0462
 20
-96.1053
 30
0.0
 10
20.1682
 20
-95.4702
 30
0.0
 10
20.1682
 20
-95.4702
 30
0.0
 10
20.2089
 20
-95.2579
 30
0.0
 10
21.0176
 20
-94.9551
 30
0.0
 10
21.6421
 20
-95.7284
 30
0.0
 10
21.6421
 20
-95.7284
 30
0.0
 10
24.055
 20
-97.4021
 30
0.0
 10
21.8026
 20
-101.3727
 30
0.0
 10
20.4275
 20
-101.8922
 30
0.0
 10
20.4275
 20
-101.8922
 30
0.0
 10
12.5399
 20
-104.7667
 30
0.0
 10
8.0857
 20
-97.9047
 30
0.0
 10
7.3718
 20
-89.8119
 30
0.0
 10
7.3718
 20
-89.8119
 30
0.0
 10
7.3718
 20
-89.8119
 30
0.0
 10
7.372
 20
-89.8119
 30
0.0
 10
7.372
 20
-89.8119
 30
0.0
  0
ENDSEC
  0
SECTION
  2
OBJECTS
  0
DICTIONARY
  5
C
330
0
100
AcDbDictionary
281
     1
  3
ACAD_GROUP
350
D
  3
ACAD_LAYOUT
350
1A
  3
ACAD_MATERIAL
350
3B
  3
ACAD_MLEADERSTYLE
350
A7
  3
ACAD_MLINESTYLE
350
17
  3
ACAD_PLOTSETTINGS
350
19
  3
ACAD_PLOTSTYLENAME
350
E
  3
ACAD_TABLESTYLE
350
A6
  3
ACAD_VISUALSTYLE
350
2A
  0
DICTIONARY
  5
D
102
{ACAD_REACTORS
330
C
102
}
330
C
100
AcDbDictionary
281
     1
  0
DICTIONARY
  5
1A
102
{ACAD_REACTORS
330
C
102
}
330
C
100
AcDbDictionary
281
     1
  3
Layout1
350
1E
  3
Layout2
350
26
  3
Model
350
22
  0
DICTIONARY
  5
3B
102
{ACAD_REACTORS
330
C
102
}
330
C
100
AcDbDictionary
281
     1
  3
ByBlock
350
3D
  3
ByLayer
350
3C
  3
Global
350
3E
  0
DICTIONARY
  5
A7
102
{ACAD_REACTORS
330
C
102
}
330
C
100
AcDbDictionary
281
     1
  0
DICTIONARY
  5
17
102
{ACAD_REACTORS
330
C
102
}
330
C
100
AcDbDictionary
281
     1
  3
Standard
350
18
  0
DICTIONARY
  5
19
102
{ACAD_REACTORS
330
C
102
}
330
C
100
AcDbDictionary
281
     1
  0
ACDBDICTIONARYWDFLT
  5
E
102
{ACAD_REACTORS
330
C
102
}
330
C
100
AcDbDictionary
281
     1
  3
Normal
350
F
100
AcDbDictionaryWithDefault
340
F
  0
DICTIONARY
  5
A6
102
{ACAD_REACTORS
330
C
102
}
330
C
100
AcDbDictionary
281
     1
  0
DICTIONARY
  5
2A
102
{ACAD_REACTORS
330
C
102
}
330
C
100
AcDbDictionary
281
     1
  3
2dWireframe
350
2F
  3
3D Hidden
350
31
  3
3dWireframe
350
30
  3
Basic
350
32
  3
Brighten
350
36
  3
ColorChange
350
3A
  3
Conceptual
350
34
  3
Dim
350
35
  3
Facepattern
350
39
  3
Flat
350
2B
  3
FlatWithEdges
350
2C
  3
Gouraud
350
2D
  3
GouraudWithEdges
350
2E
  3
Linepattern
350
38
  3
Realistic
350
33
  3
Thicken
350
37
  0
LAYOUT
  5
1E
102
{ACAD_REACTORS
330
1A
102
}
330
1A
100
AcDbPlotSettings
  1

  2
none_device
  4

  6

 40
0.0
 41
0.0
 42
0.0
 43
0.0
 44
0.0
 45
0.0
 46
0.0
 47
0.0
 48
0.0
 49
0.0
140
0.0
141
0.0
142
1.0
143
1.0
 70
   688
 72
     0
 73
     0
 74
     5
  7

 75
    16
 76
     0
 77
     2
 78
   300
147
1.0
148
0.0
149
0.0
100
AcDbLayout
  1
Layout1
 70
     1
 71
     1
 10
0.0
 20
0.0
 11
12.0
 21
9.0
 12
0.0
 22
0.0
 32
0.0
 14
1.000000000000000E+20
 24
1.000000000000000E+20
 34
1.000000000000000E+20
 15
-1.000000000000000E+20
 25
-1.000000000000000E+20
 35
-1.000000000000000E+20
146
0.0
 13
0.0
 23
0.0
 33
0.0
 16
1.0
 26
0.0
 36
0.0
 17
0.0
 27
1.0
 37
0.0
 76
     0
330
1B
  0
LAYOUT
  5
26
102
{ACAD_REACTORS
330
1A
102
}
330
1A
100
AcDbPlotSettings
  1

  2
none_device
  4

  6

 40
0.0
 41
0.0
 42
0.0
 43
0.0
 44
0.0
 45
0.0
 46
0.0
 47
0.0
 48
0.0
 49
0.0
140
0.0
141
0.0
142
1.0
143
1.0
 70
   688
 72
     0
 73
     0
 74
     5
  7

 75
    16
 76
     0
 77
     2
 78
   300
147
1.0
148
0.0
149
0.0
100
AcDbLayout
  1
Layout2
 70
     1
 71
     2
 10
0.0
 20
0.0
 11
0.0
 21
0.0
 12
0.0
 22
0.0
 32
0.0
 14
0.0
 24
0.0
 34
0.0
 15
0.0
 25
0.0
 35
0.0
146
0.0
 13
0.0
 23
0.0
 33
0.0
 16
1.0
 26
0.0
 36
0.0
 17
0.0
 27
1.0
 37
0.0
 76
     0
330
23
  0
LAYOUT
  5
22
102
{ACAD_REACTORS
330
1A
102
}
330
1A
100
AcDbPlotSettings
  1

  2
none_device
  4

  6

 40
0.0
 41
0.0
 42
0.0
 43
0.0
 44
0.0
 45
0.0
 46
0.0
 47
0.0
 48
0.0
 49
0.0
140
0.0
141
0.0
142
1.0
143
1.0
 70
  1712
 72
     0
 73
     0
 74
     0
  7

 75
     0
 76
     0
 77
     2
 78
   300
147
1.0
148
0.0
149
0.0
100
AcDbLayout
  1
Model
 70
     1
 71
     0
 10
0.0
 20
0.0
 11
12.0
 21
9.0
 12
0.0
 22
0.0
 32
0.0
 14
-56.0783
 24
-114.9849
 34
0.0
 15
67.6294
 25
131.8744
 35
0.0
146
0.0
 13
0.0
 23
0.0
 33
0.0
 16
1.0
 26
0.0
 36
0.0
 17
0.0
 27
1.0
 37
0.0
 76
     0
330
1F
331
29
  0
MATERIAL
  5
3D
102
{ACAD_REACTORS
330
3B
102
}
330
3B
100
AcDbMaterial
  1
ByBlock
 72
     1
 94
      127
  0
MATERIAL
  5
3C
102
{ACAD_REACTORS
330
3B
102
}
330
3B
100
AcDbMaterial
  1
ByLayer
 72
     1
 94
      127
  0
MATERIAL
  5
3E
102
{ACAD_REACTORS
330
3B
102
}
330
3B
100
AcDbMaterial
  1
Global
 72
     1
 94
      127
  0
MLINESTYLE
  5
18
102
{ACAD_REACTORS
330
17
102
}
330
17
100
AcDbMlineStyle
  2
Standard
 70
     0
  3

 62
   256
 51
90.0
 52
90.0
 71
     2
 49
0.5
 62
   256
  6
BYLAYER
 49
-0.5
 62
   256
  6
BYLAYER
  0
ACDBPLACEHOLDER
  5
F
102
{ACAD_REACTORS
330
E
102
}
330
E
  0
VISUALSTYLE
  5
2F
102
{ACAD_REACTORS
330
2A
102
}
102
{ACAD_XDICTIONARY
360
8E
102
}
330
2A
100
AcDbVisualStyle
  2
2dWireframe
 70
     4
 71
     0
 72
     2
 73
     0
 90
        0
 40
-0.6
 41
-30.0
 62
     5
 63
     7
421
 16777215
 74
     1
 91
        4
 64
     7
 65
   257
 75
     1
175
     1
 42
1.0
 92
        0
 66
   257
 43
1.0
 76
     1
 77
     6
 78
     2
 67
     7
 79
     5
170
     0
171
     0
290
     0
174
     0
 93
        1
 44
0.0
173
     0
291
     0
 45
0.0
  0
VISUALSTYLE
  5
31
102
{ACAD_REACTORS
330
2A
102
}
102
{ACAD_XDICTIONARY
360
92
102
}
330
2A
100
AcDbVisualStyle
  2
3D Hidden
 70
     6
 71
     1
 72
     2
 73
     2
 90
        0
 40
-0.6
 41
-30.0
 62
     5
 63
     7
421
 16777215
 74
     2
 91
        2
 64
     7
 65
   257
 75
     2
175
     1
 42
40.0
 92
        0
 66
   257
 43
1.0
 76
     1
 77
     6
 78
     2
 67
     7
 79
     3
170
     0
171
     0
290
     0
174
     0
 93
        1
 44
0.0
173
     0
291
     0
 45
0.0
  0
VISUALSTYLE
  5
30
102
{ACAD_REACTORS
330
2A
102
}
102
{ACAD_XDICTIONARY
360
90
102
}
330
2A
100
AcDbVisualStyle
  2
3dWireframe
 70
     5
 71
     0
 72
     2
 73
     0
 90
        0
 40
-0.6
 41
-30.0
 62
     5
 63
     7
421
 16777215
 74
     1
 91
        4
 64
     7
 65
   257
 75
     1
175
     1
 42
1.0
 92
        0
 66
   257
 43
1.0
 76
     1
 77
     6
 78
     2
 67
     7
 79
     5
170
     0
171
     0
290
     0
174
     0
 93
        1
 44
0.0
173
     0
291
     0
 45
0.0
  0
VISUALSTYLE
  5
32
102
{ACAD_REACTORS
330
2A
102
}
102
{ACAD_XDICTIONARY
360
94
102
}
330
2A
100
AcDbVisualStyle
  2
Basic
 70
     7
 71
     1
 72
     0
 73
     1
 90
        0
 40
-0.6
 41
-30.0
 62
     5
 63
     7
421
 16777215
 74
     0
 91
        4
 64
     7
 65
   257
 75
     1
175
     1
 42
1.0
 92
        8
 66
     7
 43
1.0
 76
     1
 77
     6
 78
     2
 67
     7
 79
     5
170
     0
171
     0
290
     0
174
     0
 93
        1
 44
0.0
173
     0
291
     1
 45
0.0
  0
VISUALSTYLE
  5
36
102
{ACAD_REACTORS
330
2A
102
}
102
{ACAD_XDICTIONARY
360
9C
102
}
330
2A
100
AcDbVisualStyle
  2
Brighten
 70
    12
 71
     2
 72
     2
 73
     0
 90
        0
 40
-0.6
 41
-30.0
 62
     5
 63
     7
421
 16777215
 74
     1
 91
        4
 64
     7
 65
   257
 75
     1
175
     1
 42
1.0
 92
        8
 66
     7
 43
1.0
 76
     1
 77
     6
 78
     2
 67
     7
 79
     5
170
     0
171
     0
290
     0
174
     0
 93
        1
 44
50.0
173
     0
291
     1
 45
0.0
  0
VISUALSTYLE
  5
3A
102
{ACAD_REACTORS
330
2A
102
}
102
{ACAD_XDICTIONARY
360
A4
102
}
330
2A
100
AcDbVisualStyle
  2
ColorChange
 70
    16
 71
     2
 72
     2
 73
     3
 90
        0
 40
-0.6
 41
-30.0
 62
     5
 63
     8
421
  8421504
 74
     1
 91
        4
 64
     7
 65
   257
 75
     1
175
     1
 42
1.0
 92
        8
 66
     8
424
  8421504
 43
1.0
 76
     1
 77
     6
 78
     2
 67
     7
 79
     5
170
     0
171
     0
290
     0
174
     0
 93
        1
 44
0.0
173
     0
291
     1
 45
0.0
  0
VISUALSTYLE
  5
34
102
{ACAD_REACTORS
330
2A
102
}
102
{ACAD_XDICTIONARY
360
98
102
}
330
2A
100
AcDbVisualStyle
  2
Conceptual
 70
     9
 71
     3
 72
     2
 73
     0
 90
        0
 40
-0.6
 41
-30.0
 62
     5
 63
     7
421
 16777215
 74
     2
 91
        2
 64
     7
 65
   257
 75
     1
175
     1
 42
40.0
 92
        8
 66
     7
 43
1.0
 76
     1
 77
     6
 78
     2
 67
     7
 79
     3
170
     0
171
     0
290
     0
174
     0
 93
        1
 44
0.0
173
     0
291
     0
 45
0.0
  0
VISUALSTYLE
  5
35
102
{ACAD_REACTORS
330
2A
102
}
102
{ACAD_XDICTIONARY
360
9A
102
}
330
2A
100
AcDbVisualStyle
  2
Dim
 70
    11
 71
     2
 72
     2
 73
     0
 90
        0
 40
-0.6
 41
-30.0
 62
     5
 63
     7
421
 16777215
 74
     1
 91
        4
 64
     7
 65
   257
 75
     1
175
     1
 42
1.0
 92
        8
 66
     7
 43
1.0
 76
     1
 77
     6
 78
     2
 67
     7
 79
     5
170
     0
171
     0
290
     0
174
     0
 93
        1
 44
-50.0
173
     0
291
     1
 45
0.0
  0
VISUALSTYLE
  5
39
102
{ACAD_REACTORS
330
2A
102
}
102
{ACAD_XDICTIONARY
360
A2
102
}
330
2A
100
AcDbVisualStyle
  2
Facepattern
 70
    15
 71
     2
 72
     2
 73
     0
 90
        0
 40
-0.6
 41
-30.0
 62
     5
 63
     7
421
 16777215
 74
     1
 91
        4
 64
     7
 65
   257
 75
     1
175
     1
 42
1.0
 92
        8
 66
     7
 43
1.0
 76
     1
 77
     6
 78
     2
 67
     7
 79
     5
170
     0
171
     0
290
     0
174
     0
 93
        1
 44
0.0
173
     0
291
     1
 45
0.0
  0
VISUALSTYLE
  5
2B
102
{ACAD_REACTORS
330
2A
102
}
102
{ACAD_XDICTIONARY
360
86
102
}
330
2A
100
AcDbVisualStyle
  2
Flat
 70
     0
 71
     2
 72
     1
 73
     1
 90
        2
 40
-0.6
 41
30.0
 62
     5
 63
     7
421
 16777215
 74
     0
 91
        4
 64
     7
 65
   257
 75
     1
175
     1
 42
1.0
 92
        8
 66
     7
 43
1.0
 76
     1
 77
     6
 78
     2
 67
     7
 79
     5
170
     0
171
     0
290
     0
174
     0
 93
       13
 44
0.0
173
     0
291
     1
 45
0.0
  0
VISUALSTYLE
  5
2C
102
{ACAD_REACTORS
330
2A
102
}
102
{ACAD_XDICTIONARY
360
88
102
}
330
2A
100
AcDbVisualStyle
  2
FlatWithEdges
 70
     1
 71
     2
 72
     1
 73
     1
 90
        2
 40
-0.6
 41
30.0
 62
     5
 63
     7
421
 16777215
 74
     1
 91
        4
 64
     7
 65
   257
 75
     1
175
     1
 42
1.0
 92
        0
 66
   257
 43
1.0
 76
     1
 77
     6
 78
     2
 67
     7
 79
     5
170
     0
171
     0
290
     0
174
     0
 93
       13
 44
0.0
173
     0
291
     1
 45
0.0
  0
VISUALSTYLE
  5
2D
102
{ACAD_REACTORS
330
2A
102
}
102
{ACAD_XDICTIONARY
360
8A
102
}
330
2A
100
AcDbVisualStyle
  2
Gouraud
 70
     2
 71
     2
 72
     2
 73
     1
 90
        2
 40
-0.6
 41
30.0
 62
     5
 63
     7
421
 16777215
 74
     0
 91
        4
 64
     7
 65
   257
 75
     1
175
     1
 42
1.0
 92
        0
 66
     7
 43
1.0
 76
     1
 77
     6
 78
     2
 67
     7
 79
     5
170
     0
171
     0
290
     0
174
     0
 93
       13
 44
0.0
173
     0
291
     1
 45
0.0
  0
VISUALSTYLE
  5
2E
102
{ACAD_REACTORS
330
2A
102
}
102
{ACAD_XDICTIONARY
360
8C
102
}
330
2A
100
AcDbVisualStyle
  2
GouraudWithEdges
 70
     3
 71
     2
 72
     2
 73
     1
 90
        2
 40
-0.6
 41
30.0
 62
     5
 63
     7
421
 16777215
 74
     1
 91
        4
 64
     7
 65
   257
 75
     1
175
     1
 42
1.0
 92
        0
 66
   257
 43
1.0
 76
     1
 77
     6
 78
     2
 67
     7
 79
     5
170
     0
171
     0
290
     0
174
     0
 93
       13
 44
0.0
173
     0
291
     1
 45
0.0
  0
VISUALSTYLE
  5
38
102
{ACAD_REACTORS
330
2A
102
}
102
{ACAD_XDICTIONARY
360
A0
102
}
330
2A
100
AcDbVisualStyle
  2
Linepattern
 70
    14
 71
     2
 72
     2
 73
     0
 90
        0
 40
-0.6
 41
-30.0
 62
     5
 63
     7
421
 16777215
 74
     1
 91
        4
 64
     7
 65
   257
 75
     7
175
     7
 42
1.0
 92
        8
 66
     7
 43
1.0
 76
     1
 77
     6
 78
     2
 67
     7
 79
     5
170
     0
171
     0
290
     0
174
     0
 93
        1
 44
0.0
173
     0
291
     1
 45
0.0
  0
VISUALSTYLE
  5
33
102
{ACAD_REACTORS
330
2A
102
}
102
{ACAD_XDICTIONARY
360
96
102
}
330
2A
100
AcDbVisualStyle
  2
Realistic
 70
     8
 71
     2
 72
     2
 73
     0
 90
        0
 40
-0.6
 41
-30.0
 62
     5
 63
     7
421
 16777215
 74
     1
 91
        0
 64
     7
 65
   257
 75
     1
175
     1
 42
1.0
 92
        8
 66
     8
424
  7895160
 43
1.0
 76
     1
 77
     6
 78
     2
 67
     7
 79
     5
170
     0
171
     0
290
     0
174
     0
 93
       13
 44
0.0
173
     0
291
     0
 45
0.0
  0
VISUALSTYLE
  5
37
102
{ACAD_REACTORS
330
2A
102
}
102
{ACAD_XDICTIONARY
360
9E
102
}
330
2A
100
AcDbVisualStyle
  2
Thicken
 70
    13
 71
     2
 72
     2
 73
     0
 90
        0
 40
-0.6
 41
-30.0
 62
     5
 63
     7
421
 16777215
 74
     1
 91
        4
 64
     7
 65
   257
 75
     1
175
     1
 42
1.0
 92
       12
 66
     7
 43
1.0
 76
     1
 77
     6
 78
     2
 67
     7
 79
     5
170
     0
171
     0
290
     0
174
     0
 93
        1
 44
0.0
173
     0
291
     1
 45
0.0
  0
DICTIONARY
  5
8E
330
2F
100
AcDbDictionary
280
     1
281
     1
  3
ACAD_XREC_ROUNDTRIP
360
8F
  0
DICTIONARY
  5
92
330
31
100
AcDbDictionary
280
     1
281
     1
  3
ACAD_XREC_ROUNDTRIP
360
93
  0
DICTIONARY
  5
90
330
30
100
AcDbDictionary
280
     1
281
     1
  3
ACAD_XREC_ROUNDTRIP
360
91
  0
DICTIONARY
  5
94
330
32
100
AcDbDictionary
280
     1
281
     1
  3
ACAD_XREC_ROUNDTRIP
360
95
  0
DICTIONARY
  5
9C
330
36
100
AcDbDictionary
280
     1
281
     1
  3
ACAD_XREC_ROUNDTRIP
360
9D
  0
DICTIONARY
  5
A4
330
3A
100
AcDbDictionary
280
     1
281
     1
  3
ACAD_XREC_ROUNDTRIP
360
A5
  0
DICTIONARY
  5
98
330
34
100
AcDbDictionary
280
     1
281
     1
  3
ACAD_XREC_ROUNDTRIP
360
99
  0
DICTIONARY
  5
9A
330
35
100
AcDbDictionary
280
     1
281
     1
  3
ACAD_XREC_ROUNDTRIP
360
9B
  0
DICTIONARY
  5
A2
330
39
100
AcDbDictionary
280
     1
281
     1
  3
ACAD_XREC_ROUNDTRIP
360
A3
  0
DICTIONARY
  5
86
330
2B
100
AcDbDictionary
280
     1
281
     1
  3
ACAD_XREC_ROUNDTRIP
360
87
  0
DICTIONARY
  5
88
330
2C
100
AcDbDictionary
280
     1
281
     1
  3
ACAD_XREC_ROUNDTRIP
360
89
  0
DICTIONARY
  5
8A
330
2D
100
AcDbDictionary
280
     1
281
     1
  3
ACAD_XREC_ROUNDTRIP
360
8B
  0
DICTIONARY
  5
8C
330
2E
100
AcDbDictionary
280
     1
281
     1
  3
ACAD_XREC_ROUNDTRIP
360
8D
  0
DICTIONARY
  5
A0
330
38
100
AcDbDictionary
280
     1
281
     1
  3
ACAD_XREC_ROUNDTRIP
360
A1
  0
DICTIONARY
  5
96
330
33
100
AcDbDictionary
280
     1
281
     1
  3
ACAD_XREC_ROUNDTRIP
360
97
  0
DICTIONARY
  5
9E
330
37
100
AcDbDictionary
280
     1
281
     1
  3
ACAD_XREC_ROUNDTRIP
360
9F
  0
XRECORD
  5
8F
102
{ACAD_REACTORS
330
8E
102
}
330
8E
100
AcDbXrecord
280
     1
102
RTVSPropertyOp0
 70
     1
102
RTVSPropertyOp1
 70
     1
102
RTVSPropertyOp2
 70
     1
102
RTVSPropertyOp3
 70
     1
102
RTVSPropertyOp4
 70
     1
102
RTVSPropertyOp5
 70
     1
102
RTVSPropertyOp6
 70
     1
102
RTVSPropertyOp7
 70
     1
102
RTVSPropertyOp8
 70
     1
102
RTVSPropertyOp9
 70
     1
102
RTVSPropertyOp10
 70
     1
102
RTVSPropertyOp11
 70
     1
102
RTVSPropertyOp12
 70
     1
102
RTVSPropertyOp13
 70
     1
102
RTVSPropertyOp14
 70
     1
102
RTVSPropertyOp15
 70
     1
102
RTVSPropertyOp16
 70
     1
102
RTVSPropertyOp17
 70
     1
102
RTVSPropertyOp18
 70
     1
102
RTVSPropertyOp19
 70
     1
102
RTVSPropertyOp20
 70
     1
102
RTVSPropertyOp21
 70
     1
102
RTVSPropertyOp22
 70
     1
102
RTVSPropertyOp23
 70
     1
102
RTVSPropertyOp24
 70
     1
102
RTVSPropertyOp25
 70
     1
102
RTVSPropertyOp26
 70
     1
102
RTVSPropertyOp27
 70
     1
102
RTVSPropertyOp28
 70
     1
102
RTVSPropertyOp29
 70
     1
102
RTVSPropertyOp30
 70
     1
102
RTVSPropertyOp31
 70
     1
102
RTVSPropertyOp32
 70
     1
  0
XRECORD
  5
93
102
{ACAD_REACTORS
330
92
102
}
330
92
100
AcDbXrecord
280
     1
102
RTVSPropertyOp0
 70
     1
102
RTVSPropertyOp1
 70
     1
102
RTVSPropertyOp2
 70
     1
102
RTVSPropertyOp3
 70
     1
102
RTVSPropertyOp4
 70
     1
102
RTVSPropertyOp5
 70
     1
102
RTVSPropertyOp6
 70
     1
102
RTVSPropertyOp7
 70
     1
102
RTVSPropertyOp8
 70
     1
102
RTVSPropertyOp9
 70
     1
102
RTVSPropertyOp10
 70
     1
102
RTVSPropertyOp11
 70
     1
102
RTVSPropertyOp12
 70
     1
102
RTVSPropertyOp13
 70
     1
102
RTVSPropertyOp14
 70
     1
102
RTVSPropertyOp15
 70
     1
102
RTVSPropertyOp16
 70
     1
102
RTVSPropertyOp17
 70
     1
102
RTVSPropertyOp18
 70
     1
102
RTVSPropertyOp19
 70
     1
102
RTVSPropertyOp20
 70
     1
102
RTVSPropertyOp21
 70
     1
102
RTVSPropertyOp22
 70
     1
102
RTVSPropertyOp23
 70
     1
102
RTVSPropertyOp24
 70
     1
102
RTVSPropertyOp25
 70
     1
102
RTVSPropertyOp26
 70
     1
102
RTVSPropertyOp27
 70
     1
102
RTVSPropertyOp28
 70
     1
102
RTVSPropertyOp29
 70
     1
102
RTVSPropertyOp30
 70
     1
102
RTVSPropertyOp31
 70
     1
102
RTVSPropertyOp32
 70
     1
  0
XRECORD
  5
91
102
{ACAD_REACTORS
330
90
102
}
330
90
100
AcDbXrecord
280
     1
102
RTVSPropertyOp0
 70
     1
102
RTVSPropertyOp1
 70
     1
102
RTVSPropertyOp2
 70
     1
102
RTVSPropertyOp3
 70
     1
102
RTVSPropertyOp4
 70
     1
102
RTVSPropertyOp5
 70
     1
102
RTVSPropertyOp6
 70
     1
102
RTVSPropertyOp7
 70
     1
102
RTVSPropertyOp8
 70
     1
102
RTVSPropertyOp9
 70
     1
102
RTVSPropertyOp10
 70
     1
102
RTVSPropertyOp11
 70
     1
102
RTVSPropertyOp12
 70
     1
102
RTVSPropertyOp13
 70
     1
102
RTVSPropertyOp14
 70
     1
102
RTVSPropertyOp15
 70
     1
102
RTVSPropertyOp16
 70
     1
102
RTVSPropertyOp17
 70
     1
102
RTVSPropertyOp18
 70
     1
102
RTVSPropertyOp19
 70
     1
102
RTVSPropertyOp20
 70
     1
102
RTVSPropertyOp21
 70
     1
102
RTVSPropertyOp22
 70
     1
102
RTVSPropertyOp23
 70
     1
102
RTVSPropertyOp24
 70
     1
102
RTVSPropertyOp25
 70
     1
102
RTVSPropertyOp26
 70
     1
102
RTVSPropertyOp27
 70
     1
102
RTVSPropertyOp28
 70
     1
102
RTVSPropertyOp29
 70
     1
102
RTVSPropertyOp30
 70
     1
102
RTVSPropertyOp31
 70
     1
102
RTVSPropertyOp32
 70
     1
  0
XRECORD
  5
95
102
{ACAD_REACTORS
330
94
102
}
330
94
100
AcDbXrecord
280
     1
102
RTVSPropertyOp0
 70
     1
102
RTVSPropertyOp1
 70
     1
102
RTVSPropertyOp2
 70
     1
102
RTVSPropertyOp3
 70
     1
102
RTVSPropertyOp4
 70
     1
102
RTVSPropertyOp5
 70
     1
102
RTVSPropertyOp6
 70
     1
102
RTVSPropertyOp7
 70
     1
102
RTVSPropertyOp8
 70
     1
102
RTVSPropertyOp9
 70
     1
102
RTVSPropertyOp10
 70
     1
102
RTVSPropertyOp11
 70
     1
102
RTVSPropertyOp12
 70
     1
102
RTVSPropertyOp13
 70
     1
102
RTVSPropertyOp14
 70
     1
102
RTVSPropertyOp15
 70
     1
102
RTVSPropertyOp16
 70
     1
102
RTVSPropertyOp17
 70
     1
102
RTVSPropertyOp18
 70
     1
102
RTVSPropertyOp19
 70
     1
102
RTVSPropertyOp20
 70
     1
102
RTVSPropertyOp21
 70
     1
102
RTVSPropertyOp22
 70
     1
102
RTVSPropertyOp23
 70
     1
102
RTVSPropertyOp24
 70
     1
102
RTVSPropertyOp25
 70
     1
102
RTVSPropertyOp26
 70
     1
102
RTVSPropertyOp27
 70
     1
102
RTVSPropertyOp28
 70
     1
102
RTVSPropertyOp29
 70
     1
102
RTVSPropertyOp30
 70
     1
102
RTVSPropertyOp31
 70
     1
102
RTVSPropertyOp32
 70
     1
  0
XRECORD
  5
9D
102
{ACAD_REACTORS
330
9C
102
}
330
9C
100
AcDbXrecord
280
     1
102
RTVSPropertyOp0
 70
     1
102
RTVSPropertyOp1
 70
     1
102
RTVSPropertyOp2
 70
     1
102
RTVSPropertyOp3
 70
     1
102
RTVSPropertyOp4
 70
     1
102
RTVSPropertyOp5
 70
     1
102
RTVSPropertyOp6
 70
     1
102
RTVSPropertyOp7
 70
     1
102
RTVSPropertyOp8
 70
     1
102
RTVSPropertyOp9
 70
     1
102
RTVSPropertyOp10
 70
     1
102
RTVSPropertyOp11
 70
     1
102
RTVSPropertyOp12
 70
     1
102
RTVSPropertyOp13
 70
     1
102
RTVSPropertyOp14
 70
     1
102
RTVSPropertyOp15
 70
     1
102
RTVSPropertyOp16
 70
     1
102
RTVSPropertyOp17
 70
     1
102
RTVSPropertyOp18
 70
     1
102
RTVSPropertyOp19
 70
     1
102
RTVSPropertyOp20
 70
     1
102
RTVSPropertyOp21
 70
     1
102
RTVSPropertyOp22
 70
     1
102
RTVSPropertyOp23
 70
     1
102
RTVSPropertyOp24
 70
     1
102
RTVSPropertyOp25
 70
     1
102
RTVSPropertyOp26
 70
     1
102
RTVSPropertyOp27
 70
     1
102
RTVSPropertyOp28
 70
     1
102
RTVSPropertyOp29
 70
     1
102
RTVSPropertyOp30
 70
     1
102
RTVSPropertyOp31
 70
     1
102
RTVSPropertyOp32
 70
     1
  0
XRECORD
  5
A5
102
{ACAD_REACTORS
330
A4
102
}
330
A4
100
AcDbXrecord
280
     1
102
RTVSPropertyOp0
 70
     1
102
RTVSPropertyOp1
 70
     1
102
RTVSPropertyOp2
 70
     1
102
RTVSPropertyOp3
 70
     1
102
RTVSPropertyOp4
 70
     1
102
RTVSPropertyOp5
 70
     1
102
RTVSPropertyOp6
 70
     1
102
RTVSPropertyOp7
 70
     1
102
RTVSPropertyOp8
 70
     1
102
RTVSPropertyOp9
 70
     1
102
RTVSPropertyOp10
 70
     1
102
RTVSPropertyOp11
 70
     1
102
RTVSPropertyOp12
 70
     1
102
RTVSPropertyOp13
 70
     1
102
RTVSPropertyOp14
 70
     1
102
RTVSPropertyOp15
 70
     1
102
RTVSPropertyOp16
 70
     1
102
RTVSPropertyOp17
 70
     1
102
RTVSPropertyOp18
 70
     1
102
RTVSPropertyOp19
 70
     1
102
RTVSPropertyOp20
 70
     1
102
RTVSPropertyOp21
 70
     1
102
RTVSPropertyOp22
 70
     1
102
RTVSPropertyOp23
 70
     1
102
RTVSPropertyOp24
 70
     1
102
RTVSPropertyOp25
 70
     1
102
RTVSPropertyOp26
 70
     1
102
RTVSPropertyOp27
 70
     1
102
RTVSPropertyOp28
 70
     1
102
RTVSPropertyOp29
 70
     1
102
RTVSPropertyOp30
 70
     1
102
RTVSPropertyOp31
 70
     1
102
RTVSPropertyOp32
 70
     1
  0
XRECORD
  5
99
102
{ACAD_REACTORS
330
98
102
}
330
98
100
AcDbXrecord
280
     1
102
RTVSPropertyOp0
 70
     1
102
RTVSPropertyOp1
 70
     1
102
RTVSPropertyOp2
 70
     1
102
RTVSPropertyOp3
 70
     1
102
RTVSPropertyOp4
 70
     1
102
RTVSPropertyOp5
 70
     1
102
RTVSPropertyOp6
 70
     1
102
RTVSPropertyOp7
 70
     1
102
RTVSPropertyOp8
 70
     1
102
RTVSPropertyOp9
 70
     1
102
RTVSPropertyOp10
 70
     1
102
RTVSPropertyOp11
 70
     1
102
RTVSPropertyOp12
 70
     1
102
RTVSPropertyOp13
 70
     1
102
RTVSPropertyOp14
 70
     1
102
RTVSPropertyOp15
 70
     1
102
RTVSPropertyOp16
 70
     1
102
RTVSPropertyOp17
 70
     1
102
RTVSPropertyOp18
 70
     1
102
RTVSPropertyOp19
 70
     1
102
RTVSPropertyOp20
 70
     1
102
RTVSPropertyOp21
 70
     1
102
RTVSPropertyOp22
 70
     1
102
RTVSPropertyOp23
 70
     1
102
RTVSPropertyOp24
 70
     1
102
RTVSPropertyOp25
 70
     1
102
RTVSPropertyOp26
 70
     1
102
RTVSPropertyOp27
 70
     1
102
RTVSPropertyOp28
 70
     1
102
RTVSPropertyOp29
 70
     1
102
RTVSPropertyOp30
 70
     1
102
RTVSPropertyOp31
 70
     1
102
RTVSPropertyOp32
 70
     1
  0
XRECORD
  5
9B
102
{ACAD_REACTORS
330
9A
102
}
330
9A
100
AcDbXrecord
280
     1
102
RTVSPropertyOp0
 70
     1
102
RTVSPropertyOp1
 70
     1
102
RTVSPropertyOp2
 70
     1
102
RTVSPropertyOp3
 70
     1
102
RTVSPropertyOp4
 70
     1
102
RTVSPropertyOp5
 70
     1
102
RTVSPropertyOp6
 70
     1
102
RTVSPropertyOp7
 70
     1
102
RTVSPropertyOp8
 70
     1
102
RTVSPropertyOp9
 70
     1
102
RTVSPropertyOp10
 70
     1
102
RTVSPropertyOp11
 70
     1
102
RTVSPropertyOp12
 70
     1
102
RTVSPropertyOp13
 70
     1
102
RTVSPropertyOp14
 70
     1
102
RTVSPropertyOp15
 70
     1
102
RTVSPropertyOp16
 70
     1
102
RTVSPropertyOp17
 70
     1
102
RTVSPropertyOp18
 70
     1
102
RTVSPropertyOp19
 70
     1
102
RTVSPropertyOp20
 70
     1
102
RTVSPropertyOp21
 70
     1
102
RTVSPropertyOp22
 70
     1
102
RTVSPropertyOp23
 70
     1
102
RTVSPropertyOp24
 70
     1
102
RTVSPropertyOp25
 70
     1
102
RTVSPropertyOp26
 70
     1
102
RTVSPropertyOp27
 70
     1
102
RTVSPropertyOp28
 70
     1
102
RTVSPropertyOp29
 70
     1
102
RTVSPropertyOp30
 70
     1
102
RTVSPropertyOp31
 70
     1
102
RTVSPropertyOp32
 70
     1
  0
XRECORD
  5
A3
102
{ACAD_REACTORS
330
A2
102
}
330
A2
100
AcDbXrecord
280
     1
102
RTVSPropertyOp0
 70
     1
102
RTVSPropertyOp1
 70
     1
102
RTVSPropertyOp2
 70
     1
102
RTVSPropertyOp3
 70
     1
102
RTVSPropertyOp4
 70
     1
102
RTVSPropertyOp5
 70
     1
102
RTVSPropertyOp6
 70
     1
102
RTVSPropertyOp7
 70
     1
102
RTVSPropertyOp8
 70
     1
102
RTVSPropertyOp9
 70
     1
102
RTVSPropertyOp10
 70
     1
102
RTVSPropertyOp11
 70
     1
102
RTVSPropertyOp12
 70
     1
102
RTVSPropertyOp13
 70
     1
102
RTVSPropertyOp14
 70
     1
102
RTVSPropertyOp15
 70
     1
102
RTVSPropertyOp16
 70
     1
102
RTVSPropertyOp17
 70
     1
102
RTVSPropertyOp18
 70
     1
102
RTVSPropertyOp19
 70
     1
102
RTVSPropertyOp20
 70
     1
102
RTVSPropertyOp21
 70
     1
102
RTVSPropertyOp22
 70
     1
102
RTVSPropertyOp23
 70
     1
102
RTVSPropertyOp24
 70
     1
102
RTVSPropertyOp25
 70
     1
102
RTVSPropertyOp26
 70
     1
102
RTVSPropertyOp27
 70
     1
102
RTVSPropertyOp28
 70
     1
102
RTVSPropertyOp29
 70
     1
102
RTVSPropertyOp30
 70
     1
102
RTVSPropertyOp31
 70
     1
102
RTVSPropertyOp32
 70
     1
  0
XRECORD
  5
87
102
{ACAD_REACTORS
330
86
102
}
330
86
100
AcDbXrecord
280
     1
102
RTVSPropertyOp0
 70
     1
102
RTVSPropertyOp1
 70
     1
102
RTVSPropertyOp2
 70
     1
102
RTVSPropertyOp3
 70
     1
102
RTVSPropertyOp4
 70
     1
102
RTVSPropertyOp5
 70
     1
102
RTVSPropertyOp6
 70
     1
102
RTVSPropertyOp7
 70
     1
102
RTVSPropertyOp8
 70
     1
102
RTVSPropertyOp9
 70
     1
102
RTVSPropertyOp10
 70
     1
102
RTVSPropertyOp11
 70
     1
102
RTVSPropertyOp12
 70
     1
102
RTVSPropertyOp13
 70
     1
102
RTVSPropertyOp14
 70
     1
102
RTVSPropertyOp15
 70
     1
102
RTVSPropertyOp16
 70
     1
102
RTVSPropertyOp17
 70
     1
102
RTVSPropertyOp18
 70
     1
102
RTVSPropertyOp19
 70
     1
102
RTVSPropertyOp20
 70
     1
102
RTVSPropertyOp21
 70
     1
102
RTVSPropertyOp22
 70
     1
102
RTVSPropertyOp23
 70
     1
102
RTVSPropertyOp24
 70
     1
102
RTVSPropertyOp25
 70
     1
102
RTVSPropertyOp26
 70
     1
102
RTVSPropertyOp27
 70
     1
102
RTVSPropertyOp28
 70
     1
102
RTVSPropertyOp29
 70
     1
102
RTVSPropertyOp30
 70
     1
102
RTVSPropertyOp31
 70
     1
102
RTVSPropertyOp32
 70
     1
  0
XRECORD
  5
89
102
{ACAD_REACTORS
330
88
102
}
330
88
100
AcDbXrecord
280
     1
102
RTVSPropertyOp0
 70
     1
102
RTVSPropertyOp1
 70
     1
102
RTVSPropertyOp2
 70
     1
102
RTVSPropertyOp3
 70
     1
102
RTVSPropertyOp4
 70
     1
102
RTVSPropertyOp5
 70
     1
102
RTVSPropertyOp6
 70
     1
102
RTVSPropertyOp7
 70
     1
102
RTVSPropertyOp8
 70
     1
102
RTVSPropertyOp9
 70
     1
102
RTVSPropertyOp10
 70
     1
102
RTVSPropertyOp11
 70
     1
102
RTVSPropertyOp12
 70
     1
102
RTVSPropertyOp13
 70
     1
102
RTVSPropertyOp14
 70
     1
102
RTVSPropertyOp15
 70
     1
102
RTVSPropertyOp16
 70
     1
102
RTVSPropertyOp17
 70
     1
102
RTVSPropertyOp18
 70
     1
102
RTVSPropertyOp19
 70
     1
102
RTVSPropertyOp20
 70
     1
102
RTVSPropertyOp21
 70
     1
102
RTVSPropertyOp22
 70
     1
102
RTVSPropertyOp23
 70
     1
102
RTVSPropertyOp24
 70
     1
102
RTVSPropertyOp25
 70
     1
102
RTVSPropertyOp26
 70
     1
102
RTVSPropertyOp27
 70
     1
102
RTVSPropertyOp28
 70
     1
102
RTVSPropertyOp29
 70
     1
102
RTVSPropertyOp30
 70
     1
102
RTVSPropertyOp31
 70
     1
102
RTVSPropertyOp32
 70
     1
  0
XRECORD
  5
8B
102
{ACAD_REACTORS
330
8A
102
}
330
8A
100
AcDbXrecord
280
     1
102
RTVSPropertyOp0
 70
     1
102
RTVSPropertyOp1
 70
     1
102
RTVSPropertyOp2
 70
     1
102
RTVSPropertyOp3
 70
     1
102
RTVSPropertyOp4
 70
     1
102
RTVSPropertyOp5
 70
     1
102
RTVSPropertyOp6
 70
     1
102
RTVSPropertyOp7
 70
     1
102
RTVSPropertyOp8
 70
     1
102
RTVSPropertyOp9
 70
     1
102
RTVSPropertyOp10
 70
     1
102
RTVSPropertyOp11
 70
     1
102
RTVSPropertyOp12
 70
     1
102
RTVSPropertyOp13
 70
     1
102
RTVSPropertyOp14
 70
     1
102
RTVSPropertyOp15
 70
     1
102
RTVSPropertyOp16
 70
     1
102
RTVSPropertyOp17
 70
     1
102
RTVSPropertyOp18
 70
     1
102
RTVSPropertyOp19
 70
     1
102
RTVSPropertyOp20
 70
     1
102
RTVSPropertyOp21
 70
     1
102
RTVSPropertyOp22
 70
     1
102
RTVSPropertyOp23
 70
     1
102
RTVSPropertyOp24
 70
     1
102
RTVSPropertyOp25
 70
     1
102
RTVSPropertyOp26
 70
     1
102
RTVSPropertyOp27
 70
     1
102
RTVSPropertyOp28
 70
     1
102
RTVSPropertyOp29
 70
     1
102
RTVSPropertyOp30
 70
     1
102
RTVSPropertyOp31
 70
     1
102
RTVSPropertyOp32
 70
     1
  0
XRECORD
  5
8D
102
{ACAD_REACTORS
330
8C
102
}
330
8C
100
AcDbXrecord
280
     1
102
RTVSPropertyOp0
 70
     1
102
RTVSPropertyOp1
 70
     1
102
RTVSPropertyOp2
 70
     1
102
RTVSPropertyOp3
 70
     1
102
RTVSPropertyOp4
 70
     1
102
RTVSPropertyOp5
 70
     1
102
RTVSPropertyOp6
 70
     1
102
RTVSPropertyOp7
 70
     1
102
RTVSPropertyOp8
 70
     1
102
RTVSPropertyOp9
 70
     1
102
RTVSPropertyOp10
 70
     1
102
RTVSPropertyOp11
 70
     1
102
RTVSPropertyOp12
 70
     1
102
RTVSPropertyOp13
 70
     1
102
RTVSPropertyOp14
 70
     1
102
RTVSPropertyOp15
 70
     1
102
RTVSPropertyOp16
 70
     1
102
RTVSPropertyOp17
 70
     1
102
RTVSPropertyOp18
 70
     1
102
RTVSPropertyOp19
 70
     1
102
RTVSPropertyOp20
 70
     1
102
RTVSPropertyOp21
 70
     1
102
RTVSPropertyOp22
 70
     1
102
RTVSPropertyOp23
 70
     1
102
RTVSPropertyOp24
 70
     1
102
RTVSPropertyOp25
 70
     1
102
RTVSPropertyOp26
 70
     1
102
RTVSPropertyOp27
 70
     1
102
RTVSPropertyOp28
 70
     1
102
RTVSPropertyOp29
 70
     1
102
RTVSPropertyOp30
 70
     1
102
RTVSPropertyOp31
 70
     1
102
RTVSPropertyOp32
 70
     1
  0
XRECORD
  5
A1
102
{ACAD_REACTORS
330
A0
102
}
330
A0
100
AcDbXrecord
280
     1
102
RTVSPropertyOp0
 70
     1
102
RTVSPropertyOp1
 70
     1
102
RTVSPropertyOp2
 70
     1
102
RTVSPropertyOp3
 70
     1
102
RTVSPropertyOp4
 70
     1
102
RTVSPropertyOp5
 70
     1
102
RTVSPropertyOp6
 70
     1
102
RTVSPropertyOp7
 70
     1
102
RTVSPropertyOp8
 70
     1
102
RTVSPropertyOp9
 70
     1
102
RTVSPropertyOp10
 70
     1
102
RTVSPropertyOp11
 70
     1
102
RTVSPropertyOp12
 70
     1
102
RTVSPropertyOp13
 70
     1
102
RTVSPropertyOp14
 70
     1
102
RTVSPropertyOp15
 70
     1
102
RTVSPropertyOp16
 70
     1
102
RTVSPropertyOp17
 70
     1
102
RTVSPropertyOp18
 70
     1
102
RTVSPropertyOp19
 70
     1
102
RTVSPropertyOp20
 70
     1
102
RTVSPropertyOp21
 70
     1
102
RTVSPropertyOp22
 70
     1
102
RTVSPropertyOp23
 70
     1
102
RTVSPropertyOp24
 70
     1
102
RTVSPropertyOp25
 70
     1
102
RTVSPropertyOp26
 70
     1
102
RTVSPropertyOp27
 70
     1
102
RTVSPropertyOp28
 70
     1
102
RTVSPropertyOp29
 70
     1
102
RTVSPropertyOp30
 70
     1
102
RTVSPropertyOp31
 70
     1
102
RTVSPropertyOp32
 70
     1
  0
XRECORD
  5
97
102
{ACAD_REACTORS
330
96
102
}
330
96
100
AcDbXrecord
280
     1
102
RTVSPropertyOp0
 70
     1
102
RTVSPropertyOp1
 70
     1
102
RTVSPropertyOp2
 70
     1
102
RTVSPropertyOp3
 70
     1
102
RTVSPropertyOp4
 70
     1
102
RTVSPropertyOp5
 70
     1
102
RTVSPropertyOp6
 70
     1
102
RTVSPropertyOp7
 70
     1
102
RTVSPropertyOp8
 70
     1
102
RTVSPropertyOp9
 70
     1
102
RTVSPropertyOp10
 70
     1
102
RTVSPropertyOp11
 70
     1
102
RTVSPropertyOp12
 70
     1
102
RTVSPropertyOp13
 70
     1
102
RTVSPropertyOp14
 70
     1
102
RTVSPropertyOp15
 70
     1
102
RTVSPropertyOp16
 70
     1
102
RTVSPropertyOp17
 70
     1
102
RTVSPropertyOp18
 70
     1
102
RTVSPropertyOp19
 70
     1
102
RTVSPropertyOp20
 70
     1
102
RTVSPropertyOp21
 70
     1
102
RTVSPropertyOp22
 70
     1
102
RTVSPropertyOp23
 70
     1
102
RTVSPropertyOp24
 70
     1
102
RTVSPropertyOp25
 70
     1
102
RTVSPropertyOp26
 70
     1
102
RTVSPropertyOp27
 70
     1
102
RTVSPropertyOp28
 70
     1
102
RTVSPropertyOp29
 70
     1
102
RTVSPropertyOp30
 70
     1
102
RTVSPropertyOp31
 70
     1
102
RTVSPropertyOp32
 70
     1
  0
XRECORD
  5
9F
102
{ACAD_REACTORS
330
9E
102
}
330
9E
100
AcDbXrecord
280
     1
102
RTVSPropertyOp0
 70
     1
102
RTVSPropertyOp1
 70
     1
102
RTVSPropertyOp2
 70
     1
102
RTVSPropertyOp3
 70
     1
102
RTVSPropertyOp4
 70
     1
102
RTVSPropertyOp5
 70
     1
102
RTVSPropertyOp6
 70
     1
102
RTVSPropertyOp7
 70
     1
102
RTVSPropertyOp8
 70
     1
102
RTVSPropertyOp9
 70
     1
102
RTVSPropertyOp10
 70
     1
102
RTVSPropertyOp11
 70
     1
102
RTVSPropertyOp12
 70
     1
102
RTVSPropertyOp13
 70
     1
102
RTVSPropertyOp14
 70
     1
102
RTVSPropertyOp15
 70
     1
102
RTVSPropertyOp16
 70
     1
102
RTVSPropertyOp17
 70
     1
102
RTVSPropertyOp18
 70
     1
102
RTVSPropertyOp19
 70
     1
102
RTVSPropertyOp20
 70
     1
102
RTVSPropertyOp21
 70
     1
102
RTVSPropertyOp22
 70
     1
102
RTVSPropertyOp23
 70
     1
102
RTVSPropertyOp24
 70
     1
102
RTVSPropertyOp25
 70
     1
102
RTVSPropertyOp26
 70
     1
102
RTVSPropertyOp27
 70
     1
102
RTVSPropertyOp28
 70
     1
102
RTVSPropertyOp29
 70
     1
102
RTVSPropertyOp30
 70
     1
102
RTVSPropertyOp31
 70
     1
102
RTVSPropertyOp32
 70
     1
  0
ENDSEC
  0
EOF
