  0
SECTION
  2
HEADER
  9
$ACADVER
  1
AC1021
  9
$ACADMAINTVER
 70
    25
  9
$DWGCODEPAGE
  3
ANSI_1252
  9
$INSBASE
 10
0.0
 20
0.0
 30
0.0
  9
$EXTMIN
 10
-187.194
 20
-115.1818
 30
0.0
  9
$EXTMAX
 10
-51.441
 20
132.0909
 30
0.0
  9
$LIMMIN
 10
0.0
 20
0.0
  9
$LIMMAX
 10
12.0
 20
9.0
  9
$ORTHOMODE
 70
     0
  9
$REGENMODE
 70
     1
  9
$FILLMODE
 70
     1
  9
$QTEXTMODE
 70
     0
  9
$MIRRTEXT
 70
     1
  9
$LTSCALE
 40
1.0
  9
$ATTMODE
 70
     1
  9
$TEXTSIZE
 40
0.2
  9
$TRACEWID
 40
0.05
  9
$TEXTSTYLE
  7
Standard
  9
$CLAYER
  8
0
  9
$CELTYPE
  6
ByLayer
  9
$CECOLOR
 62
   256
  9
$CELTSCALE
 40
1.0
  9
$DISPSILH
 70
     0
  9
$DIMSCALE
 40
1.0
  9
$DIMASZ
 40
0.18
  9
$DIMEXO
 40
0.0625
  9
$DIMDLI
 40
0.38
  9
$DIMRND
 40
0.0
  9
$DIMDLE
 40
0.0
  9
$DIMEXE
 40
0.18
  9
$DIMTP
 40
0.0
  9
$DIMTM
 40
0.0
  9
$DIMTXT
 40
0.18
  9
$DIMCEN
 40
0.09
  9
$DIMTSZ
 40
0.0
  9
$DIMTOL
 70
     0
  9
$DIMLIM
 70
     0
  9
$DIMTIH
 70
     1
  9
$DIMTOH
 70
     1
  9
$DIMSE1
 70
     0
  9
$DIMSE2
 70
     0
  9
$DIMTAD
 70
     0
  9
$DIMZIN
 70
     0
  9
$DIMBLK
  1

  9
$DIMASO
 70
     1
  9
$DIMSHO
 70
     1
  9
$DIMPOST
  1

  9
$DIMAPOST
  1

  9
$DIMALT
 70
     0
  9
$DIMALTD
 70
     2
  9
$DIMALTF
 40
25.4
  9
$DIMLFAC
 40
1.0
  9
$DIMTOFL
 70
     0
  9
$DIMTVP
 40
0.0
  9
$DIMTIX
 70
     0
  9
$DIMSOXD
 70
     0
  9
$DIMSAH
 70
     0
  9
$DIMBLK1
  1

  9
$DIMBLK2
  1

  9
$DIMSTYLE
  2
Standard
  9
$DIMCLRD
 70
     0
  9
$DIMCLRE
 70
     0
  9
$DIMCLRT
 70
     0
  9
$DIMTFAC
 40
1.0
  9
$DIMGAP
 40
0.09
  9
$DIMJUST
 70
     0
  9
$DIMSD1
 70
     0
  9
$DIMSD2
 70
     0
  9
$DIMTOLJ
 70
     1
  9
$DIMTZIN
 70
     0
  9
$DIMALTZ
 70
     0
  9
$DIMALTTZ
 70
     0
  9
$DIMUPT
 70
     0
  9
$DIMDEC
 70
     4
  9
$DIMTDEC
 70
     4
  9
$DIMALTU
 70
     2
  9
$DIMALTTD
 70
     2
  9
$DIMTXSTY
  7
Standard
  9
$DIMAUNIT
 70
     0
  9
$DIMADEC
 70
     0
  9
$DIMALTRND
 40
0.0
  9
$DIMAZIN
 70
     0
  9
$DIMDSEP
 70
    46
  9
$DIMATFIT
 70
     3
  9
$DIMFRAC
 70
     0
  9
$DIMLDRBLK
  1

  9
$DIMLUNIT
 70
     2
  9
$DIMLWD
 70
    -2
  9
$DIMLWE
 70
    -2
  9
$DIMTMOVE
 70
     0
  9
$DIMFXL
 40
1.0
  9
$DIMFXLON
 70
     0
  9
$DIMJOGANG
 40
0.7853981633974483
  9
$DIMTFILL
 70
     0
  9
$DIMTFILLCLR
 70
     0
  9
$DIMARCSYM
 70
     0
  9
$DIMLTYPE
  6

  9
$DIMLTEX1
  6

  9
$DIMLTEX2
  6

  9
$LUNITS
 70
     2
  9
$LUPREC
 70
     4
  9
$SKETCHINC
 40
0.1
  9
$FILLETRAD
 40
0.5
  9
$AUNITS
 70
     0
  9
$AUPREC
 70
     0
  9
$MENU
  1
.
  9
$ELEVATION
 40
0.0
  9
$PELEVATION
 40
0.0
  9
$THICKNESS
 40
0.0
  9
$LIMCHECK
 70
     0
  9
$CHAMFERA
 40
0.5
  9
$CHAMFERB
 40
0.5
  9
$CHAMFERC
 40
1.0
  9
$CHAMFERD
 40
0.0
  9
$SKPOLY
 70
     0
  9
$TDCREATE
 40
2458492.68784471
  9
$TDUCREATE
 40
2458492.68784471
  9
$TDUPDATE
 40
2458492.687844861
  9
$TDUUPDATE
 40
2458492.687844861
  9
$TDINDWG
 40
0.0000000116
  9
$TDUSRTIMER
 40
0.0000000116
  9
$USRTIMER
 70
     1
  9
$ANGBASE
 50
0.0
  9
$ANGDIR
 70
     0
  9
$PDMODE
 70
     0
  9
$PDSIZE
 40
0.0
  9
$PLINEWID
 40
0.0
  9
$SPLFRAME
 70
     0
  9
$SPLINETYPE
 70
     6
  9
$SPLINESEGS
 70
     8
  9
$HANDSEED
  5
AD
  9
$SURFTAB1
 70
     6
  9
$SURFTAB2
 70
     6
  9
$SURFTYPE
 70
     6
  9
$SURFU
 70
     6
  9
$SURFV
 70
     6
  9
$UCSBASE
  2

  9
$UCSNAME
  2

  9
$UCSORG
 10
0.0
 20
0.0
 30
0.0
  9
$UCSXDIR
 10
1.0
 20
0.0
 30
0.0
  9
$UCSYDIR
 10
0.0
 20
1.0
 30
0.0
  9
$UCSORTHOREF
  2

  9
$UCSORTHOVIEW
 70
     0
  9
$UCSORGTOP
 10
0.0
 20
0.0
 30
0.0
  9
$UCSORGBOTTOM
 10
0.0
 20
0.0
 30
0.0
  9
$UCSORGLEFT
 10
0.0
 20
0.0
 30
0.0
  9
$UCSORGRIGHT
 10
0.0
 20
0.0
 30
0.0
  9
$UCSORGFRONT
 10
0.0
 20
0.0
 30
0.0
  9
$UCSORGBACK
 10
0.0
 20
0.0
 30
0.0
  9
$PUCSBASE
  2

  9
$PUCSNAME
  2

  9
$PUCSORG
 10
0.0
 20
0.0
 30
0.0
  9
$PUCSXDIR
 10
1.0
 20
0.0
 30
0.0
  9
$PUCSYDIR
 10
0.0
 20
1.0
 30
0.0
  9
$PUCSORTHOREF
  2

  9
$PUCSORTHOVIEW
 70
     0
  9
$PUCSORGTOP
 10
0.0
 20
0.0
 30
0.0
  9
$PUCSORGBOTTOM
 10
0.0
 20
0.0
 30
0.0
  9
$PUCSORGLEFT
 10
0.0
 20
0.0
 30
0.0
  9
$PUCSORGRIGHT
 10
0.0
 20
0.0
 30
0.0
  9
$PUCSORGFRONT
 10
0.0
 20
0.0
 30
0.0
  9
$PUCSORGBACK
 10
0.0
 20
0.0
 30
0.0
  9
$USERI1
 70
     0
  9
$USERI2
 70
     0
  9
$USERI3
 70
     0
  9
$USERI4
 70
     0
  9
$USERI5
 70
     0
  9
$USERR1
 40
0.0
  9
$USERR2
 40
0.0
  9
$USERR3
 40
0.0
  9
$USERR4
 40
0.0
  9
$USERR5
 40
0.0
  9
$WORLDVIEW
 70
     1
  9
$SHADEDGE
 70
     3
  9
$SHADEDIF
 70
    70
  9
$TILEMODE
 70
     1
  9
$MAXACTVP
 70
    64
  9
$PINSBASE
 10
0.0
 20
0.0
 30
0.0
  9
$PLIMCHECK
 70
     0
  9
$PEXTMIN
 10
1.000000000000000E+20
 20
1.000000000000000E+20
 30
1.000000000000000E+20
  9
$PEXTMAX
 10
-1.000000000000000E+20
 20
-1.000000000000000E+20
 30
-1.000000000000000E+20
  9
$PLIMMIN
 10
0.0
 20
0.0
  9
$PLIMMAX
 10
12.0
 20
9.0
  9
$UNITMODE
 70
     0
  9
$VISRETAIN
 70
     1
  9
$PLINEGEN
 70
     0
  9
$PSLTSCALE
 70
     1
  9
$TREEDEPTH
 70
  3020
  9
$CMLSTYLE
  2
Standard
  9
$CMLJUST
 70
     0
  9
$CMLSCALE
 40
1.0
  9
$PROXYGRAPHICS
 70
     1
  9
$MEASUREMENT
 70
     0
  9
$CELWEIGHT
370
    -1
  9
$ENDCAPS
280
     0
  9
$JOINSTYLE
280
     0
  9
$LWDISPLAY
290
     0
  9
$INSUNITS
 70
     4
  9
$HYPERLINKBASE
  1

  9
$STYLESHEET
  1

  9
$XEDIT
290
     1
  9
$CEPSNTYPE
380
     0
  9
$PSTYLEMODE
290
     1
  9
$FINGERPRINTGUID
  2
{5DD9AB36-1889-4C65-BB87-726713838A4C}
  9
$VERSIONGUID
  2
{FAEB1C32-E019-11D5-929B-00C0DF256EC4}
  9
$EXTNAMES
290
     1
  9
$PSVPSCALE
 40
0.0
  9
$OLESTARTUP
290
     0
  9
$SORTENTS
280
   127
  9
$INDEXCTL
280
     0
  9
$HIDETEXT
280
     1
  9
$XCLIPFRAME
290
     0
  9
$HALOGAP
280
     0
  9
$OBSCOLOR
 70
   257
  9
$OBSLTYPE
280
     0
  9
$INTERSECTIONDISPLAY
280
     0
  9
$INTERSECTIONCOLOR
 70
   257
  9
$DIMASSOC
280
     2
  9
$PROJECTNAME
  1

  9
$CAMERADISPLAY
290
     0
  9
$LENSLENGTH
 40
50.0
  9
$CAMERAHEIGHT
 40
0.0
  9
$STEPSPERSEC
 40
2.0
  9
$STEPSIZE
 40
6.0
  9
$3DDWFPREC
 40
2.0
  9
$PSOLWIDTH
 40
0.25
  9
$PSOLHEIGHT
 40
4.0
  9
$LOFTANG1
 40
1.570796326794897
  9
$LOFTANG2
 40
1.570796326794897
  9
$LOFTMAG1
 40
0.0
  9
$LOFTMAG2
 40
0.0
  9
$LOFTPARAM
 70
     7
  9
$LOFTNORMALS
280
     1
  9
$LATITUDE
 40
37.795
  9
$LONGITUDE
 40
-122.394
  9
$NORTHDIRECTION
 40
0.0
  9
$TIMEZONE
 70
 -8000
  9
$LIGHTGLYPHDISPLAY
280
     1
  9
$TILEMODELIGHTSYNCH
280
     1
  9
$SOLIDHIST
280
     1
  9
$SHOWHIST
280
     1
  9
$DWFFRAME
280
     2
  9
$DGNFRAME
280
     2
  9
$REALWORLDSCALE
290
     1
  9
$INTERFERECOLOR
 62
   256
  9
$CSHADOW
280
     0
  9
$SHADOWPLANELOCATION
 40
0.0
  0
ENDSEC
  0
SECTION
  2
CLASSES
  0
CLASS
  1
ACDBDICTIONARYWDFLT
  2
AcDbDictionaryWithDefault
  3
ObjectDBX Classes
 90
        0
 91
        4
280
     0
281
     0
  0
CLASS
  1
VISUALSTYLE
  2
AcDbVisualStyle
  3
ObjectDBX Classes
 90
     4095
 91
        4
280
     0
281
     0
  0
CLASS
  1
MATERIAL
  2
AcDbMaterial
  3
ObjectDBX Classes
 90
     1153
 91
        4
280
     0
281
     0
  0
ENDSEC
  0
SECTION
  2
TABLES
  0
TABLE
  2
VPORT
  5
8
330
0
100
AcDbSymbolTable
 70
     1
  0
VPORT
  5
29
330
8
100
AcDbSymbolTableRecord
100
AcDbViewportTableRecord
  2
*Active
 70
     0
 10
0.0
 20
0.0
 11
1.0
 21
1.0
 12
10.42990654205607
 22
4.5
 13
0.0
 23
0.0
 14
0.5
 24
0.5
 15
0.5
 25
0.5
 16
0.0
 26
0.0
 36
1.0
 17
0.0
 27
0.0
 37
0.0
 40
9.0
 41
1.972972972850329
 42
50.0
 43
0.0
 44
0.0
 50
0.0
 51
0.0
 71
     0
 72
   100
 73
     1
 74
     3
 75
     0
 76
     0
 77
     0
 78
     0
281
     0
 65
     1
110
0.0
120
0.0
130
0.0
111
1.0
121
0.0
131
0.0
112
0.0
122
1.0
132
0.0
 79
     0
146
0.0
 60
     3
 61
     5
292
     1
282
     1
141
0.0
142
0.0
 63
   250
  0
ENDTAB
  0
TABLE
  2
LTYPE
  5
5
330
0
100
AcDbSymbolTable
 70
     1
  0
LTYPE
  5
14
330
5
100
AcDbSymbolTableRecord
100
AcDbLinetypeTableRecord
  2
ByBlock
 70
     0
  3

 72
    65
 73
     0
 40
0.0
  0
LTYPE
  5
15
330
5
100
AcDbSymbolTableRecord
100
AcDbLinetypeTableRecord
  2
ByLayer
 70
     0
  3

 72
    65
 73
     0
 40
0.0
  0
LTYPE
  5
16
330
5
100
AcDbSymbolTableRecord
100
AcDbLinetypeTableRecord
  2
Continuous
 70
     0
  3
Solid line
 72
    65
 73
     0
 40
0.0
  0
ENDTAB
  0
TABLE
  2
LAYER
  5
2
330
0
100
AcDbSymbolTable
 70
     2
  0
LAYER
  5
10
330
2
100
AcDbSymbolTableRecord
100
AcDbLayerTableRecord
  2
0
 70
     0
 62
     7
  6
Continuous
370
    -3
390
F
347
3E
  0
LAYER
  5
40
330
2
100
AcDbSymbolTableRecord
100
AcDbLayerTableRecord
  2
layer 1
 70
     0
 62
     7
  6
Continuous
370
    -3
390
F
347
3E
  0
ENDTAB
  0
TABLE
  2
STYLE
  5
3
330
0
100
AcDbSymbolTable
 70
     1
  0
STYLE
  5
11
330
3
100
AcDbSymbolTableRecord
100
AcDbTextStyleTableRecord
  2
Standard
 70
     0
 40
0.0
 41
1.0
 50
0.0
 71
     0
 42
0.2
  3
txt
  4

  0
ENDTAB
  0
TABLE
  2
VIEW
  5
6
330
0
100
AcDbSymbolTable
 70
     0
  0
ENDTAB
  0
TABLE
  2
UCS
  5
7
330
0
100
AcDbSymbolTable
 70
     0
  0
ENDTAB
  0
TABLE
  2
APPID
  5
9
330
0
100
AcDbSymbolTable
 70
     2
  0
APPID
  5
12
330
9
100
AcDbSymbolTableRecord
100
AcDbRegAppTableRecord
  2
ACAD
 70
     0
  0
APPID
  5
3F
330
9
100
AcDbSymbolTableRecord
100
AcDbRegAppTableRecord
  2
ODA
 70
     0
  0
ENDTAB
  0
TABLE
  2
DIMSTYLE
  5
A
330
0
100
AcDbSymbolTable
 70
     1
100
AcDbDimStyleTable
  0
DIMSTYLE
105
27
330
A
100
AcDbSymbolTableRecord
100
AcDbDimStyleTableRecord
  2
Standard
 70
     0
178
     0
340
11
  0
ENDTAB
  0
TABLE
  2
BLOCK_RECORD
  5
1
330
0
100
AcDbSymbolTable
 70
     1
  0
BLOCK_RECORD
  5
1F
330
1
100
AcDbSymbolTableRecord
100
AcDbBlockTableRecord
  2
*Model_Space
340
22
 70
     0
280
     1
281
     0
  0
BLOCK_RECORD
  5
1B
330
1
100
AcDbSymbolTableRecord
100
AcDbBlockTableRecord
  2
*Paper_Space
340
1E
 70
     0
280
     1
281
     0
  0
BLOCK_RECORD
  5
23
330
1
100
AcDbSymbolTableRecord
100
AcDbBlockTableRecord
  2
*Paper_Space0
340
26
 70
     0
280
     1
281
     0
  0
ENDTAB
  0
ENDSEC
  0
SECTION
  2
BLOCKS
  0
BLOCK
  5
20
330
1F
100
AcDbEntity
  8
0
100
AcDbBlockBegin
  2
*Model_Space
 70
     0
 10
0.0
 20
0.0
 30
0.0
  3
*Model_Space
  1

  0
ENDBLK
  5
21
330
1F
100
AcDbEntity
  8
0
100
AcDbBlockEnd
  0
BLOCK
  5
1C
330
1B
100
AcDbEntity
 67
     1
  8
0
100
AcDbBlockBegin
  2
*Paper_Space
 70
     0
 10
0.0
 20
0.0
 30
0.0
  3
*Paper_Space
  1

  0
ENDBLK
  5
1D
330
1B
100
AcDbEntity
 67
     1
  8
0
100
AcDbBlockEnd
  0
BLOCK
  5
24
330
23
100
AcDbEntity
  8
0
100
AcDbBlockBegin
  2
*Paper_Space0
 70
     0
 10
0.0
 20
0.0
 30
0.0
  3
*Paper_Space0
  1

  0
ENDBLK
  5
25
330
23
100
AcDbEntity
  8
0
100
AcDbBlockEnd
  0
ENDSEC
  0
SECTION
  2
ENTITIES
  0
SPLINE
  5
41
330
1F
100
AcDbEntity
  8
layer 1
 62
   250
370
     9
100
AcDbSpline
210
0.0
220
0.0
230
1.0
 70
    11
 71
     3
 72
    20
 73
    16
 74
     0
 42
0.0000000001
 43
0.0000000001
 12
1.0
 22
0.0
 32
0.0
 13
1.0
 23
0.0
 33
0.0
 40
0.0
 40
0.0
 40
0.0
 40
0.0
 40
0.2
 40
0.2
 40
0.2
 40
0.2
 40
0.4
 40
0.4
 40
0.4
 40
0.4
 40
0.6
 40
0.6
 40
0.6
 40
0.6
 40
1.0
 40
1.0
 40
1.0
 40
1.0
 10
-187.1559
 20
-115.1437
 30
0.0
 10
-187.1559
 20
-115.1437
 30
0.0
 10
-187.1559
 20
132.0528
 30
0.0
 10
-187.1559
 20
132.0528
 30
0.0
 10
-187.1559
 20
132.0528
 30
0.0
 10
-187.1559
 20
132.0528
 30
0.0
 10
-51.4791
 20
132.0528
 30
0.0
 10
-51.4791
 20
132.0528
 30
0.0
 10
-51.4791
 20
132.0528
 30
0.0
 10
-51.4791
 20
132.0528
 30
0.0
 10
-51.4791
 20
-115.1437
 30
0.0
 10
-51.4791
 20
-115.1437
 30
0.0
 10
-51.4791
 20
-115.1437
 30
0.0
 10
-51.4791
 20
-115.1437
 30
0.0
 10
-187.1559
 20
-115.1437
 30
0.0
 10
-187.1559
 20
-115.1437
 30
0.0
  0
SPLINE
  5
42
330
1F
100
AcDbEntity
  8
layer 1
 62
     7
370
     9
100
AcDbSpline
210
0.0
220
0.0
230
1.0
 70
    11
 71
     3
 72
    68
 73
    64
 74
     0
 42
0.0000000001
 43
0.0000000001
 12
1.0
 22
0.0
 32
0.0
 13
1.0
 23
0.0
 33
0.0
 40
0.0
 40
0.0
 40
0.0
 40
0.0
 40
0.0588235294117647
 40
0.0588235294117647
 40
0.0588235294117647
 40
0.0588235294117647
 40
0.1176470588235294
 40
0.1176470588235294
 40
0.1176470588235294
 40
0.1176470588235294
 40
0.1764705882352941
 40
0.1764705882352941
 40
0.1764705882352941
 40
0.1764705882352941
 40
0.2352941176470588
 40
0.2352941176470588
 40
0.2352941176470588
 40
0.2352941176470588
 40
0.2941176470588235
 40
0.2941176470588235
 40
0.2941176470588235
 40
0.2941176470588235
 40
0.3529411764705883
 40
0.3529411764705883
 40
0.3529411764705883
 40
0.3529411764705883
 40
0.4117647058823529
 40
0.4117647058823529
 40
0.4117647058823529
 40
0.4117647058823529
 40
0.4705882352941176
 40
0.4705882352941176
 40
0.4705882352941176
 40
0.4705882352941176
 40
0.5294117647058824
 40
0.5294117647058824
 40
0.5294117647058824
 40
0.5294117647058824
 40
0.5882352941176471
 40
0.5882352941176471
 40
0.5882352941176471
 40
0.5882352941176471
 40
0.6470588235294118
 40
0.6470588235294118
 40
0.6470588235294118
 40
0.6470588235294118
 40
0.7058823529411765
 40
0.7058823529411765
 40
0.7058823529411765
 40
0.7058823529411765
 40
0.7647058823529411
 40
0.7647058823529411
 40
0.7647058823529411
 40
0.7647058823529411
 40
0.8235294117647058
 40
0.8235294117647058
 40
0.8235294117647058
 40
0.8235294117647058
 40
0.8823529411764706
 40
0.8823529411764706
 40
0.8823529411764706
 40
0.8823529411764706
 40
1.0
 40
1.0
 40
1.0
 40
1.0
 10
-143.0992
 20
8.0886
 30
0.0
 10
-145.6844
 20
7.2992
 30
0.0
 10
-148.3623
 20
6.8527
 30
0.0
 10
-151.064
 20
6.7612
 30
0.0
 10
-151.064
 20
6.7612
 30
0.0
 10
-149.0337
 20
6.6232
 30
0.0
 10
-147.1337
 20
5.7127
 30
0.0
 10
-145.7541
 20
4.217
 30
0.0
 10
-145.7541
 20
4.217
 30
0.0
 10
-147.648
 20
4.7232
 30
0.0
 10
-149.6013
 20
4.9745
 30
0.0
 10
-151.5618
 20
4.9639
 30
0.0
 10
-151.5618
 20
4.9639
 30
0.0
 10
-149.7453
 20
4.0836
 30
0.0
 10
-148.2543
 20
2.6508
 30
0.0
 10
-147.3027
 20
0.8707
 30
0.0
 10
-147.3027
 20
0.8707
 30
0.0
 10
-149.2605
 20
1.9181
 30
0.0
 10
-151.384
 20
2.6197
 30
0.0
 10
-153.5806
 20
2.945
 30
0.0
 10
-153.5806
 20
2.945
 30
0.0
 10
-152.0447
 20
1.7747
 30
0.0
 10
-150.8585
 20
0.2062
 30
0.0
 10
-150.1512
 20
-1.5903
 30
0.0
 10
-150.1512
 20
-1.5903
 30
0.0
 10
-152.058
 20
0.0215
 30
0.0
 10
-154.2164
 20
1.3106
 30
0.0
 10
-156.5398
 20
2.2258
 30
0.0
 10
-156.5398
 20
2.2258
 30
0.0
 10
-154.6593
 20
3.5804
 30
0.0
 10
-153.5633
 20
5.7717
 30
0.0
 10
-153.6074
 20
8.0886
 30
0.0
 10
-153.6074
 20
8.0886
 30
0.0
 10
-153.5633
 20
10.406
 30
0.0
 10
-154.6593
 20
12.5971
 30
0.0
 10
-156.5398
 20
13.9515
 30
0.0
 10
-156.5398
 20
13.9515
 30
0.0
 10
-154.2164
 20
14.8669
 30
0.0
 10
-152.058
 20
16.1557
 30
0.0
 10
-150.1512
 20
17.7679
 30
0.0
 10
-150.1512
 20
17.7679
 30
0.0
 10
-150.8585
 20
15.9713
 30
0.0
 10
-152.0447
 20
14.4025
 30
0.0
 10
-153.5806
 20
13.2325
 30
0.0
 10
-153.5806
 20
13.2325
 30
0.0
 10
-151.384
 20
13.5578
 30
0.0
 10
-149.2605
 20
14.2596
 30
0.0
 10
-147.3027
 20
15.3068
 30
0.0
 10
-147.3027
 20
15.3068
 30
0.0
 10
-148.2543
 20
13.5269
 30
0.0
 10
-149.7453
 20
12.0939
 30
0.0
 10
-151.5618
 20
11.2137
 30
0.0
 10
-151.5618
 20
11.2137
 30
0.0
 10
-149.6013
 20
11.203
 30
0.0
 10
-147.648
 20
11.4544
 30
0.0
 10
-145.7541
 20
11.9607
 30
0.0
 10
-145.7541
 20
11.9607
 30
0.0
 10
-147.1337
 20
10.465
 30
0.0
 10
-149.0337
 20
9.5544
 30
0.0
 10
-151.064
 20
9.416
 30
0.0
 10
-151.064
 20
9.416
 30
0.0
 10
-148.3623
 20
9.3249
 30
0.0
 10
-145.6844
 20
8.8784
 30
0.0
 10
-143.0992
 20
8.0886
 30
0.0
  0
SPLINE
  5
43
330
1F
100
AcDbEntity
  8
layer 1
 62
     7
370
     9
100
AcDbSpline
210
0.0
220
0.0
230
1.0
 70
    11
 71
     3
 72
    28
 73
    24
 74
     0
 42
0.0000000001
 43
0.0000000001
 12
1.0
 22
0.0
 32
0.0
 13
1.0
 23
0.0
 33
0.0
 40
0.0
 40
0.0
 40
0.0
 40
0.0
 40
0.1428571428571428
 40
0.1428571428571428
 40
0.1428571428571428
 40
0.1428571428571428
 40
0.2857142857142857
 40
0.2857142857142857
 40
0.2857142857142857
 40
0.2857142857142857
 40
0.4285714285714285
 40
0.4285714285714285
 40
0.4285714285714285
 40
0.4285714285714285
 40
0.5714285714285714
 40
0.5714285714285714
 40
0.5714285714285714
 40
0.5714285714285714
 40
0.7142857142857143
 40
0.7142857142857143
 40
0.7142857142857143
 40
0.7142857142857143
 40
1.0
 40
1.0
 40
1.0
 40
1.0
 10
-180.4889
 20
8.0886
 30
0.0
 10
-180.4889
 20
8.0886
 30
0.0
 10
-180.4889
 20
-2.9638
 30
0.0
 10
-180.4889
 20
-2.9638
 30
0.0
 10
-180.4889
 20
-2.9638
 30
0.0
 10
-177.8432
 20
3.4877
 30
0.0
 10
-170.9089
 20
7.0677
 30
0.0
 10
-164.1171
 20
5.4892
 30
0.0
 10
-164.1171
 20
5.4892
 30
0.0
 10
-165.1484
 20
5.9364
 30
0.0
 10
-165.8049
 20
6.965
 30
0.0
 10
-165.7765
 20
8.0886
 30
0.0
 10
-165.7765
 20
8.0886
 30
0.0
 10
-165.8049
 20
9.2126
 30
0.0
 10
-165.1484
 20
10.2412
 30
0.0
 10
-164.1171
 20
10.6883
 30
0.0
 10
-164.1171
 20
10.6883
 30
0.0
 10
-170.9089
 20
9.1095
 30
0.0
 10
-177.8432
 20
12.6899
 30
0.0
 10
-180.4889
 20
19.141
 30
0.0
 10
-180.4889
 20
19.141
 30
0.0
 10
-180.4889
 20
19.141
 30
0.0
 10
-180.4889
 20
8.0886
 30
0.0
 10
-180.4889
 20
8.0886
 30
0.0
  0
SPLINE
  5
44
330
1F
100
AcDbEntity
  8
layer 1
 62
     7
370
     9
100
AcDbSpline
210
0.0
220
0.0
230
1.0
 70
    11
 71
     3
 72
    60
 73
    56
 74
     0
 42
0.0000000001
 43
0.0000000001
 12
1.0
 22
0.0
 32
0.0
 13
1.0
 23
0.0
 33
0.0
 40
0.0
 40
0.0
 40
0.0
 40
0.0
 40
0.0666666666666667
 40
0.0666666666666667
 40
0.0666666666666667
 40
0.0666666666666667
 40
0.1333333333333333
 40
0.1333333333333333
 40
0.1333333333333333
 40
0.1333333333333333
 40
0.2
 40
0.2
 40
0.2
 40
0.2
 40
0.2666666666666667
 40
0.2666666666666667
 40
0.2666666666666667
 40
0.2666666666666667
 40
0.3333333333333333
 40
0.3333333333333333
 40
0.3333333333333333
 40
0.3333333333333333
 40
0.4
 40
0.4
 40
0.4
 40
0.4
 40
0.4666666666666667
 40
0.4666666666666667
 40
0.4666666666666667
 40
0.4666666666666667
 40
0.5333333333333333
 40
0.5333333333333333
 40
0.5333333333333333
 40
0.5333333333333333
 40
0.6
 40
0.6
 40
0.6
 40
0.6
 40
0.6666666666666666
 40
0.6666666666666666
 40
0.6666666666666666
 40
0.6666666666666666
 40
0.7333333333333333
 40
0.7333333333333333
 40
0.7333333333333333
 40
0.7333333333333333
 40
0.8
 40
0.8
 40
0.8
 40
0.8
 40
0.8666666666666667
 40
0.8666666666666667
 40
0.8666666666666667
 40
0.8666666666666667
 40
1.0
 40
1.0
 40
1.0
 40
1.0
 10
-179.9712
 20
-86.5831
 30
0.0
 10
-180.0111
 20
-86.4765
 30
0.0
 10
-180.1111
 20
-86.4046
 30
0.0
 10
-180.2249
 20
-86.4012
 30
0.0
 10
-180.2249
 20
-86.4012
 30
0.0
 10
-180.3384
 20
-86.3978
 30
0.0
 10
-180.443
 20
-86.4635
 30
0.0
 10
-180.4889
 20
-86.5675
 30
0.0
 10
-180.4889
 20
-86.5675
 30
0.0
 10
-180.4889
 20
-86.5675
 30
0.0
 10
-180.4889
 20
-106.2121
 30
0.0
 10
-180.4889
 20
-106.2121
 30
0.0
 10
-180.4889
 20
-106.2121
 30
0.0
 10
-180.4119
 20
-106.2506
 30
0.0
 10
-180.3226
 20
-106.2541
 30
0.0
 10
-180.2429
 20
-106.2217
 30
0.0
 10
-180.2429
 20
-106.2217
 30
0.0
 10
-180.1636
 20
-106.1895
 30
0.0
 10
-180.1019
 20
-106.1243
 30
0.0
 10
-180.0739
 20
-106.043
 30
0.0
 10
-180.0739
 20
-106.043
 30
0.0
 10
-179.1603
 20
-104.772
 30
0.0
 10
-177.9306
 20
-103.7615
 30
0.0
 10
-176.5065
 20
-103.1117
 30
0.0
 10
-176.5065
 20
-103.1117
 30
0.0
 10
-176.3571
 20
-103.0072
 30
0.0
 10
-176.2616
 20
-102.8423
 30
0.0
 10
-176.246
 20
-102.6609
 30
0.0
 10
-176.246
 20
-102.6609
 30
0.0
 10
-176.2298
 20
-102.4796
 30
0.0
 10
-176.2947
 20
-102.3004
 30
0.0
 10
-176.4234
 20
-102.1714
 30
0.0
 10
-176.4234
 20
-102.1714
 30
0.0
 10
-177.3018
 20
-101.3123
 30
0.0
 10
-178.3215
 20
-100.6106
 30
0.0
 10
-179.4377
 20
-100.0974
 30
0.0
 10
-179.4377
 20
-100.0974
 30
0.0
 10
-177.6815
 20
-98.567
 30
0.0
 10
-175.0687
 20
-98.5552
 30
0.0
 10
-173.2986
 20
-100.0697
 30
0.0
 10
-173.2986
 20
-100.0697
 30
0.0
 10
-173.2128
 20
-100.1167
 30
0.0
 10
-173.1059
 20
-100.0989
 30
0.0
 10
-173.0404
 20
-100.0265
 30
0.0
 10
-173.0404
 20
-100.0265
 30
0.0
 10
-172.9744
 20
-99.9542
 30
0.0
 10
-172.9667
 20
-99.8463
 30
0.0
 10
-173.0219
 20
-99.7655
 30
0.0
 10
-173.0219
 20
-99.7655
 30
0.0
 10
-175.3396
 20
-97.3328
 30
0.0
 10
-177.2619
 20
-94.5521
 30
0.0
 10
-178.7188
 20
-91.5244
 30
0.0
 10
-178.7188
 20
-91.5244
 30
0.0
 10
-179.3527
 20
-89.9398
 30
0.0
 10
-179.7738
 20
-88.2783
 30
0.0
 10
-179.9712
 20
-86.5831
 30
0.0
  0
SPLINE
  5
45
330
1F
100
AcDbEntity
  8
layer 1
 62
     7
370
     9
100
AcDbSpline
210
0.0
220
0.0
230
1.0
 70
    11
 71
     3
 72
    28
 73
    24
 74
     0
 42
0.0000000001
 43
0.0000000001
 12
1.0
 22
0.0
 32
0.0
 13
1.0
 23
0.0
 33
0.0
 40
0.0
 40
0.0
 40
0.0
 40
0.0
 40
0.1428571428571428
 40
0.1428571428571428
 40
0.1428571428571428
 40
0.1428571428571428
 40
0.2857142857142857
 40
0.2857142857142857
 40
0.2857142857142857
 40
0.2857142857142857
 40
0.4285714285714285
 40
0.4285714285714285
 40
0.4285714285714285
 40
0.4285714285714285
 40
0.5714285714285714
 40
0.5714285714285714
 40
0.5714285714285714
 40
0.5714285714285714
 40
0.7142857142857143
 40
0.7142857142857143
 40
0.7142857142857143
 40
0.7142857142857143
 40
1.0
 40
1.0
 40
1.0
 40
1.0
 10
-169.2055
 20
-107.2876
 30
0.0
 10
-172.4828
 20
-106.5467
 30
0.0
 10
-175.9202
 20
-107.196
 30
0.0
 10
-178.7017
 20
-109.0812
 30
0.0
 10
-178.7017
 20
-109.0812
 30
0.0
 10
-178.707
 20
-109.0846
 30
0.0
 10
-178.71
 20
-109.0907
 30
0.0
 10
-178.71
 20
-109.097
 30
0.0
 10
-178.71
 20
-109.097
 30
0.0
 10
-178.71
 20
-109.1034
 30
0.0
 10
-178.707
 20
-109.1092
 30
0.0
 10
-178.7017
 20
-109.1129
 30
0.0
 10
-178.7017
 20
-109.1129
 30
0.0
 10
-178.7017
 20
-109.1129
 30
0.0
 10
-164.3962
 20
-109.1129
 30
0.0
 10
-164.3962
 20
-109.1129
 30
0.0
 10
-164.3962
 20
-109.1129
 30
0.0
 10
-164.3686
 20
-108.9769
 30
0.0
 10
-164.4214
 20
-108.8371
 30
0.0
 10
-164.5317
 20
-108.7533
 30
0.0
 10
-164.5317
 20
-108.7533
 30
0.0
 10
-166.0467
 20
-108.1366
 30
0.0
 10
-167.6098
 20
-107.6464
 30
0.0
 10
-169.2055
 20
-107.2876
 30
0.0
  0
SPLINE
  5
46
330
1F
100
AcDbEntity
  8
layer 1
 62
     7
370
     9
100
AcDbSpline
210
0.0
220
0.0
230
1.0
 70
    11
 71
     3
 72
   120
 73
   116
 74
     0
 42
0.0000000001
 43
0.0000000001
 12
1.0
 22
0.0
 32
0.0
 13
1.0
 23
0.0
 33
0.0
 40
0.0
 40
0.0
 40
0.0
 40
0.0
 40
0.0333333333333333
 40
0.0333333333333333
 40
0.0333333333333333
 40
0.0333333333333333
 40
0.0666666666666667
 40
0.0666666666666667
 40
0.0666666666666667
 40
0.0666666666666667
 40
0.1
 40
0.1
 40
0.1
 40
0.1
 40
0.1333333333333333
 40
0.1333333333333333
 40
0.1333333333333333
 40
0.1333333333333333
 40
0.1666666666666667
 40
0.1666666666666667
 40
0.1666666666666667
 40
0.1666666666666667
 40
0.2
 40
0.2
 40
0.2
 40
0.2
 40
0.2333333333333333
 40
0.2333333333333333
 40
0.2333333333333333
 40
0.2333333333333333
 40
0.2666666666666667
 40
0.2666666666666667
 40
0.2666666666666667
 40
0.2666666666666667
 40
0.3
 40
0.3
 40
0.3
 40
0.3
 40
0.3333333333333333
 40
0.3333333333333333
 40
0.3333333333333333
 40
0.3333333333333333
 40
0.3666666666666666
 40
0.3666666666666666
 40
0.3666666666666666
 40
0.3666666666666666
 40
0.4
 40
0.4
 40
0.4
 40
0.4
 40
0.4333333333333333
 40
0.4333333333333333
 40
0.4333333333333333
 40
0.4333333333333333
 40
0.4666666666666667
 40
0.4666666666666667
 40
0.4666666666666667
 40
0.4666666666666667
 40
0.5
 40
0.5
 40
0.5
 40
0.5
 40
0.5333333333333333
 40
0.5333333333333333
 40
0.5333333333333333
 40
0.5333333333333333
 40
0.5666666666666667
 40
0.5666666666666667
 40
0.5666666666666667
 40
0.5666666666666667
 40
0.6
 40
0.6
 40
0.6
 40
0.6
 40
0.6333333333333333
 40
0.6333333333333333
 40
0.6333333333333333
 40
0.6333333333333333
 40
0.6666666666666666
 40
0.6666666666666666
 40
0.6666666666666666
 40
0.6666666666666666
 40
0.7
 40
0.7
 40
0.7
 40
0.7
 40
0.7333333333333333
 40
0.7333333333333333
 40
0.7333333333333333
 40
0.7333333333333333
 40
0.7666666666666667
 40
0.7666666666666667
 40
0.7666666666666667
 40
0.7666666666666667
 40
0.8
 40
0.8
 40
0.8
 40
0.8
 40
0.8333333333333334
 40
0.8333333333333334
 40
0.8333333333333334
 40
0.8333333333333334
 40
0.8666666666666667
 40
0.8666666666666667
 40
0.8666666666666667
 40
0.8666666666666667
 40
0.9
 40
0.9
 40
0.9
 40
0.9
 40
0.9333333333333333
 40
0.9333333333333333
 40
0.9333333333333333
 40
0.9333333333333333
 40
1.0
 40
1.0
 40
1.0
 40
1.0
 10
-150.9533
 20
-108.5781
 30
0.0
 10
-151.0579
 20
-108.6138
 30
0.0
 10
-151.1417
 20
-108.6937
 30
0.0
 10
-151.1828
 20
-108.7966
 30
0.0
 10
-151.1828
 20
-108.7966
 30
0.0
 10
-151.2238
 20
-108.8993
 30
0.0
 10
-151.2177
 20
-109.0149
 30
0.0
 10
-151.166
 20
-109.1129
 30
0.0
 10
-151.166
 20
-109.1129
 30
0.0
 10
-151.166
 20
-109.1129
 30
0.0
 10
-135.3146
 20
-109.1129
 30
0.0
 10
-135.3146
 20
-109.1129
 30
0.0
 10
-135.3146
 20
-109.1129
 30
0.0
 10
-135.2639
 20
-108.9927
 30
0.0
 10
-135.2705
 20
-108.8562
 30
0.0
 10
-135.3322
 20
-108.7416
 30
0.0
 10
-135.3322
 20
-108.7416
 30
0.0
 10
-135.3939
 20
-108.6269
 30
0.0
 10
-135.5042
 20
-108.5464
 30
0.0
 10
-135.6326
 20
-108.5229
 30
0.0
 10
-135.6326
 20
-108.5229
 30
0.0
 10
-137.19
 20
-108.1166
 30
0.0
 10
-138.3876
 20
-106.8695
 30
0.0
 10
-138.7297
 20
-105.2964
 30
0.0
 10
-138.7297
 20
-105.2964
 30
0.0
 10
-139.0134
 20
-104.162
 30
0.0
 10
-138.7317
 20
-102.9604
 30
0.0
 10
-137.974
 20
-102.07
 30
0.0
 10
-137.974
 20
-102.07
 30
0.0
 10
-136.4381
 20
-100.7685
 30
0.0
 10
-134.171
 20
-100.824
 30
0.0
 10
-132.701
 20
-102.1991
 30
0.0
 10
-132.701
 20
-102.1991
 30
0.0
 10
-131.9809
 20
-103.0149
 30
0.0
 10
-131.9575
 20
-104.2323
 30
0.0
 10
-132.6458
 20
-105.0752
 30
0.0
 10
-132.6458
 20
-105.0752
 30
0.0
 10
-132.8735
 20
-105.3489
 30
0.0
 10
-133.1482
 20
-105.5798
 30
0.0
 10
-133.457
 20
-105.7572
 30
0.0
 10
-133.457
 20
-105.7572
 30
0.0
 10
-133.5345
 20
-105.8089
 30
0.0
 10
-133.618
 20
-105.8509
 30
0.0
 10
-133.7058
 20
-105.8818
 30
0.0
 10
-133.7058
 20
-105.8818
 30
0.0
 10
-133.7655
 20
-105.9278
 30
0.0
 10
-133.7981
 20
-106.0007
 30
0.0
 10
-133.7924
 20
-106.0758
 30
0.0
 10
-133.7924
 20
-106.0758
 30
0.0
 10
-133.787
 20
-106.1511
 30
0.0
 10
-133.7441
 20
-106.2184
 30
0.0
 10
-133.6782
 20
-106.2552
 30
0.0
 10
-133.6782
 20
-106.2552
 30
0.0
 10
-132.2829
 20
-107.8247
 30
0.0
 10
-130.1039
 20
-108.4431
 30
0.0
 10
-128.0921
 20
-107.8407
 30
0.0
 10
-128.0921
 20
-107.8407
 30
0.0
 10
-127.9808
 20
-107.8146
 30
0.0
 10
-127.8729
 20
-107.7775
 30
0.0
 10
-127.7693
 20
-107.7301
 30
0.0
 10
-127.7693
 20
-107.7301
 30
0.0
 10
-127.7134
 20
-107.7007
 30
0.0
 10
-127.6797
 20
-107.6424
 30
0.0
 10
-127.6816
 20
-107.5797
 30
0.0
 10
-127.6816
 20
-107.5797
 30
0.0
 10
-127.6835
 20
-107.5169
 30
0.0
 10
-127.7211
 20
-107.4607
 30
0.0
 10
-127.7786
 20
-107.435
 30
0.0
 10
-127.7786
 20
-107.435
 30
0.0
 10
-128.7979
 20
-106.9502
 30
0.0
 10
-129.4344
 20
-105.9086
 30
0.0
 10
-129.4007
 20
-104.7802
 30
0.0
 10
-129.4007
 20
-104.7802
 30
0.0
 10
-127.0359
 20
-105.8901
 30
0.0
 10
-124.3023
 20
-105.9036
 30
0.0
 10
-121.9269
 20
-104.8169
 30
0.0
 10
-121.9269
 20
-104.8169
 30
0.0
 10
-119.5508
 20
-103.7303
 30
0.0
 10
-117.7736
 20
-101.6536
 30
0.0
 10
-117.0668
 20
-99.1385
 30
0.0
 10
-117.0668
 20
-99.1385
 30
0.0
 10
-117.0668
 20
-99.1385
 30
0.0
 10
-117.0232
 20
-98.9727
 30
0.0
 10
-117.0232
 20
-98.9727
 30
0.0
 10
-117.0232
 20
-98.9727
 30
0.0
 10
-117.004
 20
-98.8749
 30
0.0
 10
-117.0431
 20
-98.7749
 30
0.0
 10
-117.1235
 20
-98.7158
 30
0.0
 10
-117.1235
 20
-98.7158
 30
0.0
 10
-117.2037
 20
-98.6568
 30
0.0
 10
-117.3106
 20
-98.649
 30
0.0
 10
-117.3987
 20
-98.6961
 30
0.0
 10
-117.3987
 20
-98.6961
 30
0.0
 10
-118.7955
 20
-100.8312
 30
0.0
 10
-121.0267
 20
-102.2794
 30
0.0
 10
-123.5455
 20
-102.6863
 30
0.0
 10
-123.5455
 20
-102.6863
 30
0.0
 10
-126.0644
 20
-103.0933
 30
0.0
 10
-128.6381
 20
-102.4211
 30
0.0
 10
-130.6362
 20
-100.8347
 30
0.0
 10
-130.6362
 20
-100.8347
 30
0.0
 10
-132.3185
 20
-99.2433
 30
0.0
 10
-133.1693
 20
-96.9629
 30
0.0
 10
-132.9405
 20
-94.6586
 30
0.0
 10
-132.9405
 20
-94.6586
 30
0.0
 10
-132.9538
 20
-94.5815
 30
0.0
 10
-133.0107
 20
-94.5194
 30
0.0
 10
-133.0862
 20
-94.4997
 30
0.0
 10
-133.0862
 20
-94.4997
 30
0.0
 10
-133.1617
 20
-94.4798
 30
0.0
 10
-133.2417
 20
-94.5058
 30
0.0
 10
-133.2911
 20
-94.5663
 30
0.0
 10
-133.2911
 20
-94.5663
 30
0.0
 10
-137.1678
 20
-101.3256
 30
0.0
 10
-143.4893
 20
-106.3405
 30
0.0
 10
-150.9533
 20
-108.5781
 30
0.0
  0
SPLINE
  5
47
330
1F
100
AcDbEntity
  8
layer 1
 62
     7
370
     9
100
AcDbSpline
210
0.0
220
0.0
230
1.0
 70
    11
 71
     3
 72
    36
 73
    32
 74
     0
 42
0.0000000001
 43
0.0000000001
 12
1.0
 22
0.0
 32
0.0
 13
1.0
 23
0.0
 33
0.0
 40
0.0
 40
0.0
 40
0.0
 40
0.0
 40
0.1111111111111111
 40
0.1111111111111111
 40
0.1111111111111111
 40
0.1111111111111111
 40
0.2222222222222222
 40
0.2222222222222222
 40
0.2222222222222222
 40
0.2222222222222222
 40
0.3333333333333333
 40
0.3333333333333333
 40
0.3333333333333333
 40
0.3333333333333333
 40
0.4444444444444444
 40
0.4444444444444444
 40
0.4444444444444444
 40
0.4444444444444444
 40
0.5555555555555556
 40
0.5555555555555556
 40
0.5555555555555556
 40
0.5555555555555556
 40
0.6666666666666666
 40
0.6666666666666666
 40
0.6666666666666666
 40
0.6666666666666666
 40
0.7777777777777778
 40
0.7777777777777778
 40
0.7777777777777778
 40
0.7777777777777778
 40
1.0
 40
1.0
 40
1.0
 40
1.0
 10
-125.3631
 20
-108.6519
 30
0.0
 10
-125.4463
 20
-108.6925
 30
0.0
 10
-125.505
 20
-108.7702
 30
0.0
 10
-125.5218
 20
-108.8611
 30
0.0
 10
-125.5218
 20
-108.8611
 30
0.0
 10
-125.5382
 20
-108.952
 30
0.0
 10
-125.5106
 20
-109.0454
 30
0.0
 10
-125.4474
 20
-109.1129
 30
0.0
 10
-125.4474
 20
-109.1129
 30
0.0
 10
-125.4474
 20
-109.1129
 30
0.0
 10
-113.222
 20
-109.1129
 30
0.0
 10
-113.222
 20
-109.1129
 30
0.0
 10
-113.222
 20
-109.1129
 30
0.0
 10
-113.2125
 20
-108.9676
 30
0.0
 10
-113.2792
 20
-108.8279
 30
0.0
 10
-113.3979
 20
-108.7442
 30
0.0
 10
-113.3979
 20
-108.7442
 30
0.0
 10
-115.6969
 20
-107.1669
 30
0.0
 10
-116.9772
 20
-104.4804
 30
0.0
 10
-116.7534
 20
-101.7013
 30
0.0
 10
-116.7534
 20
-101.7013
 30
0.0
 10
-116.7879
 20
-101.639
 30
0.0
 10
-116.8523
 20
-101.599
 30
0.0
 10
-116.9231
 20
-101.5954
 30
0.0
 10
-116.9231
 20
-101.5954
 30
0.0
 10
-116.9945
 20
-101.5916
 30
0.0
 10
-117.0627
 20
-101.6247
 30
0.0
 10
-117.1036
 20
-101.6829
 30
0.0
 10
-117.1036
 20
-101.6829
 30
0.0
 10
-118.8959
 20
-104.9509
 30
0.0
 10
-121.8402
 20
-107.4349
 30
0.0
 10
-125.3631
 20
-108.6519
 30
0.0
  0
SPLINE
  5
48
330
1F
100
AcDbEntity
  8
layer 1
 62
     7
370
     9
100
AcDbSpline
210
0.0
220
0.0
230
1.0
 70
    11
 71
     3
 72
    88
 73
    84
 74
     0
 42
0.0000000001
 43
0.0000000001
 12
1.0
 22
0.0
 32
0.0
 13
1.0
 23
0.0
 33
0.0
 40
0.0
 40
0.0
 40
0.0
 40
0.0
 40
0.0454545454545455
 40
0.0454545454545455
 40
0.0454545454545455
 40
0.0454545454545455
 40
0.0909090909090909
 40
0.0909090909090909
 40
0.0909090909090909
 40
0.0909090909090909
 40
0.1363636363636364
 40
0.1363636363636364
 40
0.1363636363636364
 40
0.1363636363636364
 40
0.1818181818181818
 40
0.1818181818181818
 40
0.1818181818181818
 40
0.1818181818181818
 40
0.2272727272727273
 40
0.2272727272727273
 40
0.2272727272727273
 40
0.2272727272727273
 40
0.2727272727272727
 40
0.2727272727272727
 40
0.2727272727272727
 40
0.2727272727272727
 40
0.3181818181818182
 40
0.3181818181818182
 40
0.3181818181818182
 40
0.3181818181818182
 40
0.3636363636363636
 40
0.3636363636363636
 40
0.3636363636363636
 40
0.3636363636363636
 40
0.4090909090909091
 40
0.4090909090909091
 40
0.4090909090909091
 40
0.4090909090909091
 40
0.4545454545454545
 40
0.4545454545454545
 40
0.4545454545454545
 40
0.4545454545454545
 40
0.5
 40
0.5
 40
0.5
 40
0.5
 40
0.5454545454545454
 40
0.5454545454545454
 40
0.5454545454545454
 40
0.5454545454545454
 40
0.5909090909090909
 40
0.5909090909090909
 40
0.5909090909090909
 40
0.5909090909090909
 40
0.6363636363636364
 40
0.6363636363636364
 40
0.6363636363636364
 40
0.6363636363636364
 40
0.6818181818181818
 40
0.6818181818181818
 40
0.6818181818181818
 40
0.6818181818181818
 40
0.7272727272727273
 40
0.7272727272727273
 40
0.7272727272727273
 40
0.7272727272727273
 40
0.7727272727272727
 40
0.7727272727272727
 40
0.7727272727272727
 40
0.7727272727272727
 40
0.8181818181818182
 40
0.8181818181818182
 40
0.8181818181818182
 40
0.8181818181818182
 40
0.8636363636363636
 40
0.8636363636363636
 40
0.8636363636363636
 40
0.8636363636363636
 40
0.9090909090909091
 40
0.9090909090909091
 40
0.9090909090909091
 40
0.9090909090909091
 40
1.0
 40
1.0
 40
1.0
 40
1.0
 10
-106.2628
 20
-108.6426
 30
0.0
 10
-106.3644
 20
-108.662
 30
0.0
 10
-106.4513
 20
-108.7267
 30
0.0
 10
-106.4989
 20
-108.8185
 30
0.0
 10
-106.4989
 20
-108.8185
 30
0.0
 10
-106.5464
 20
-108.9103
 30
0.0
 10
-106.5491
 20
-109.0188
 30
0.0
 10
-106.5057
 20
-109.1129
 30
0.0
 10
-106.5057
 20
-109.1129
 30
0.0
 10
-106.5057
 20
-109.1129
 30
0.0
 10
-93.335
 20
-109.1129
 30
0.0
 10
-93.335
 20
-109.1129
 30
0.0
 10
-93.335
 20
-109.1129
 30
0.0
 10
-93.2805
 20
-108.9755
 30
0.0
 10
-93.2836
 20
-108.8221
 30
0.0
 10
-93.343
 20
-108.6869
 30
0.0
 10
-93.343
 20
-108.6869
 30
0.0
 10
-93.4029
 20
-108.5518
 30
0.0
 10
-93.5143
 20
-108.4462
 30
0.0
 10
-93.6523
 20
-108.3939
 30
0.0
 10
-93.6523
 20
-108.3939
 30
0.0
 10
-95.7221
 20
-107.6361
 30
0.0
 10
-97.6485
 20
-106.5327
 30
0.0
 10
-99.3492
 20
-105.1306
 30
0.0
 10
-99.3492
 20
-105.1306
 30
0.0
 10
-103.5941
 20
-102.22
 30
0.0
 10
-106.7472
 20
-97.977
 30
0.0
 10
-108.3092
 20
-93.0729
 30
0.0
 10
-108.3092
 20
-93.0729
 30
0.0
 10
-109.0595
 20
-90.6501
 30
0.0
 10
-110.6223
 20
-88.5598
 30
0.0
 10
-112.7342
 20
-87.1547
 30
0.0
 10
-112.7342
 20
-87.1547
 30
0.0
 10
-112.3226
 20
-89.0708
 30
0.0
 10
-112.3414
 20
-91.0545
 30
0.0
 10
-112.7894
 20
-92.9623
 30
0.0
 10
-112.7894
 20
-92.9623
 30
0.0
 10
-113.1756
 20
-94.7537
 30
0.0
 10
-113.3888
 20
-96.5782
 30
0.0
 10
-113.4255
 20
-98.4103
 30
0.0
 10
-113.4255
 20
-98.4103
 30
0.0
 10
-113.6727
 20
-100.657
 30
0.0
 10
-112.3107
 20
-102.7693
 30
0.0
 10
-110.1621
 20
-103.4711
 30
0.0
 10
-110.1621
 20
-103.4711
 30
0.0
 10
-110.9381
 20
-103.8674
 30
0.0
 10
-111.8268
 20
-103.9846
 30
0.0
 10
-112.679
 20
-103.803
 30
0.0
 10
-112.679
 20
-103.803
 30
0.0
 10
-112.7733
 20
-103.797
 30
0.0
 10
-112.8633
 20
-103.8454
 30
0.0
 10
-112.9101
 20
-103.9277
 30
0.0
 10
-112.9101
 20
-103.9277
 30
0.0
 10
-112.9572
 20
-104.0099
 30
0.0
 10
-112.9534
 20
-104.1118
 30
0.0
 10
-112.9002
 20
-104.1903
 30
0.0
 10
-112.9002
 20
-104.1903
 30
0.0
 10
-112.2284
 20
-105.8913
 30
0.0
 10
-110.3644
 20
-106.793
 30
0.0
 10
-108.6135
 20
-106.2643
 30
0.0
 10
-108.6135
 20
-106.2643
 30
0.0
 10
-107.3374
 20
-105.723
 30
0.0
 10
-106.7337
 20
-104.2564
 30
0.0
 10
-107.2584
 20
-102.9734
 30
0.0
 10
-107.2584
 20
-102.9734
 30
0.0
 10
-107.893
 20
-101.3579
 30
0.0
 10
-109.3991
 20
-100.2502
 30
0.0
 10
-111.1301
 20
-100.125
 30
0.0
 10
-111.1301
 20
-100.125
 30
0.0
 10
-110.377
 20
-100.0384
 30
0.0
 10
-109.6202
 20
-99.983
 30
0.0
 10
-108.8625
 20
-99.959
 30
0.0
 10
-108.8625
 20
-99.959
 30
0.0
 10
-107.6677
 20
-100.04
 30
0.0
 10
-106.5142
 20
-100.4309
 30
0.0
 10
-105.5163
 20
-101.0928
 30
0.0
 10
-105.5163
 20
-101.0928
 30
0.0
 10
-104.2743
 20
-102.0227
 30
0.0
 10
-103.6086
 20
-103.5343
 30
0.0
 10
-103.7611
 20
-105.0783
 30
0.0
 10
-103.7611
 20
-105.0783
 30
0.0
 10
-103.9141
 20
-106.6222
 30
0.0
 10
-104.8629
 20
-107.9741
 30
0.0
 10
-106.2628
 20
-108.6426
 30
0.0
  0
SPLINE
  5
49
330
1F
100
AcDbEntity
  8
layer 1
 62
     7
370
     9
100
AcDbSpline
210
0.0
220
0.0
230
1.0
 70
    11
 71
     3
 72
    32
 73
    28
 74
     0
 42
0.0000000001
 43
0.0000000001
 12
1.0
 22
0.0
 32
0.0
 13
1.0
 23
0.0
 33
0.0
 40
0.0
 40
0.0
 40
0.0
 40
0.0
 40
0.125
 40
0.125
 40
0.125
 40
0.125
 40
0.25
 40
0.25
 40
0.25
 40
0.25
 40
0.375
 40
0.375
 40
0.375
 40
0.375
 40
0.5
 40
0.5
 40
0.5
 40
0.5
 40
0.625
 40
0.625
 40
0.625
 40
0.625
 40
0.75
 40
0.75
 40
0.75
 40
0.75
 40
1.0
 40
1.0
 40
1.0
 40
1.0
 10
-76.1191
 20
-108.781
 30
0.0
 10
-76.252
 20
-108.8421
 30
0.0
 10
-76.3439
 20
-108.9676
 30
0.0
 10
-76.3619
 20
-109.1129
 30
0.0
 10
-76.3619
 20
-109.1129
 30
0.0
 10
-76.3619
 20
-109.1129
 30
0.0
 10
-57.3689
 20
-109.1129
 30
0.0
 10
-57.3689
 20
-109.1129
 30
0.0
 10
-57.3689
 20
-109.1129
 30
0.0
 10
-57.3689
 20
-109.1129
 30
0.0
 10
-57.3689
 20
-108.2832
 30
0.0
 10
-57.3689
 20
-108.2832
 30
0.0
 10
-57.3689
 20
-108.2832
 30
0.0
 10
-61.2935
 20
-108.6358
 30
0.0
 10
-65.0342
 20
-106.5515
 30
0.0
 10
-66.7993
 20
-103.0287
 30
0.0
 10
-66.7993
 20
-103.0287
 30
0.0
 10
-66.8554
 20
-102.9263
 30
0.0
 10
-66.9587
 20
-102.8582
 30
0.0
 10
-67.075
 20
-102.8471
 30
0.0
 10
-67.075
 20
-102.8471
 30
0.0
 10
-67.1913
 20
-102.836
 30
0.0
 10
-67.3057
 20
-102.8833
 30
0.0
 10
-67.38
 20
-102.9734
 30
0.0
 10
-67.38
 20
-102.9734
 30
0.0
 10
-69.6633
 20
-105.7212
 30
0.0
 10
-72.7014
 20
-107.7401
 30
0.0
 10
-76.1191
 20
-108.781
 30
0.0
  0
SPLINE
  5
4A
330
1F
100
AcDbEntity
  8
layer 1
 62
     7
370
     9
100
AcDbSpline
210
0.0
220
0.0
230
1.0
 70
    11
 71
     3
 72
    88
 73
    84
 74
     0
 42
0.0000000001
 43
0.0000000001
 12
1.0
 22
0.0
 32
0.0
 13
1.0
 23
0.0
 33
0.0
 40
0.0
 40
0.0
 40
0.0
 40
0.0
 40
0.0454545454545455
 40
0.0454545454545455
 40
0.0454545454545455
 40
0.0454545454545455
 40
0.0909090909090909
 40
0.0909090909090909
 40
0.0909090909090909
 40
0.0909090909090909
 40
0.1363636363636364
 40
0.1363636363636364
 40
0.1363636363636364
 40
0.1363636363636364
 40
0.1818181818181818
 40
0.1818181818181818
 40
0.1818181818181818
 40
0.1818181818181818
 40
0.2272727272727273
 40
0.2272727272727273
 40
0.2272727272727273
 40
0.2272727272727273
 40
0.2727272727272727
 40
0.2727272727272727
 40
0.2727272727272727
 40
0.2727272727272727
 40
0.3181818181818182
 40
0.3181818181818182
 40
0.3181818181818182
 40
0.3181818181818182
 40
0.3636363636363636
 40
0.3636363636363636
 40
0.3636363636363636
 40
0.3636363636363636
 40
0.4090909090909091
 40
0.4090909090909091
 40
0.4090909090909091
 40
0.4090909090909091
 40
0.4545454545454545
 40
0.4545454545454545
 40
0.4545454545454545
 40
0.4545454545454545
 40
0.5
 40
0.5
 40
0.5
 40
0.5
 40
0.5454545454545454
 40
0.5454545454545454
 40
0.5454545454545454
 40
0.5454545454545454
 40
0.5909090909090909
 40
0.5909090909090909
 40
0.5909090909090909
 40
0.5909090909090909
 40
0.6363636363636364
 40
0.6363636363636364
 40
0.6363636363636364
 40
0.6363636363636364
 40
0.6818181818181818
 40
0.6818181818181818
 40
0.6818181818181818
 40
0.6818181818181818
 40
0.7272727272727273
 40
0.7272727272727273
 40
0.7272727272727273
 40
0.7272727272727273
 40
0.7727272727272727
 40
0.7727272727272727
 40
0.7727272727272727
 40
0.7727272727272727
 40
0.8181818181818182
 40
0.8181818181818182
 40
0.8181818181818182
 40
0.8181818181818182
 40
0.8636363636363636
 40
0.8636363636363636
 40
0.8636363636363636
 40
0.8636363636363636
 40
0.9090909090909091
 40
0.9090909090909091
 40
0.9090909090909091
 40
0.9090909090909091
 40
1.0
 40
1.0
 40
1.0
 40
1.0
 10
-60.5217
 20
-101.7013
 30
0.0
 10
-60.4563
 20
-103.8271
 30
0.0
 10
-59.2518
 20
-105.7531
 30
0.0
 10
-57.3689
 20
-106.7423
 30
0.0
 10
-57.3689
 20
-106.7423
 30
0.0
 10
-57.3689
 20
-106.7423
 30
0.0
 10
-57.3689
 20
-47.9358
 30
0.0
 10
-57.3689
 20
-47.9358
 30
0.0
 10
-57.3689
 20
-47.9358
 30
0.0
 10
-57.4931
 20
-48.275
 30
0.0
 10
-57.7203
 20
-48.5666
 30
0.0
 10
-58.019
 20
-48.7697
 30
0.0
 10
-58.019
 20
-48.7697
 30
0.0
 10
-58.5986
 20
-49.1215
 30
0.0
 10
-59.2516
 20
-49.3342
 30
0.0
 10
-59.9271
 20
-49.3921
 30
0.0
 10
-59.9271
 20
-49.3921
 30
0.0
 10
-60.1707
 20
-49.4671
 30
0.0
 10
-60.361
 20
-49.658
 30
0.0
 10
-60.4358
 20
-49.9018
 30
0.0
 10
-60.4358
 20
-49.9018
 30
0.0
 10
-60.5106
 20
-50.1451
 30
0.0
 10
-60.4598
 20
-50.4099
 30
0.0
 10
-60.3004
 20
-50.6088
 30
0.0
 10
-60.3004
 20
-50.6088
 30
0.0
 10
-59.7172
 20
-51.2365
 30
0.0
 10
-59.159
 20
-51.8868
 30
0.0
 10
-58.6273
 20
-52.5586
 30
0.0
 10
-58.6273
 20
-52.5586
 30
0.0
 10
-58.4523
 20
-52.9135
 30
0.0
 10
-58.4372
 20
-53.3258
 30
0.0
 10
-58.5858
 20
-53.6921
 30
0.0
 10
-58.5858
 20
-53.6921
 30
0.0
 10
-59.2964
 20
-55.4281
 30
0.0
 10
-61.0997
 20
-56.4551
 30
0.0
 10
-62.9553
 20
-56.1811
 30
0.0
 10
-62.9553
 20
-56.1811
 30
0.0
 10
-63.0174
 20
-56.2034
 30
0.0
 10
-63.0646
 20
-56.2544
 30
0.0
 10
-63.0813
 20
-56.3183
 30
0.0
 10
-63.0813
 20
-56.3183
 30
0.0
 10
-63.0979
 20
-56.382
 30
0.0
 10
-63.0817
 20
-56.4498
 30
0.0
 10
-63.0383
 20
-56.4992
 30
0.0
 10
-63.0383
 20
-56.4992
 30
0.0
 10
-62.364
 20
-57.9976
 30
0.0
 10
-62.2271
 20
-59.6826
 30
0.0
 10
-62.6511
 20
-61.2698
 30
0.0
 10
-62.6511
 20
-61.2698
 30
0.0
 10
-63.228
 20
-60.0696
 30
0.0
 10
-64.1792
 20
-59.0893
 30
0.0
 10
-65.3613
 20
-58.4766
 30
0.0
 10
-65.3613
 20
-58.4766
 30
0.0
 10
-65.4872
 20
-58.3701
 30
0.0
 10
-65.6623
 20
-58.3433
 30
0.0
 10
-65.8145
 20
-58.4077
 30
0.0
 10
-65.8145
 20
-58.4077
 30
0.0
 10
-65.9663
 20
-58.472
 30
0.0
 10
-66.0692
 20
-58.6162
 30
0.0
 10
-66.0803
 20
-58.7809
 30
0.0
 10
-66.0803
 20
-58.7809
 30
0.0
 10
-66.0838
 20
-60.7376
 30
0.0
 10
-67.3985
 20
-62.449
 30
0.0
 10
-69.2882
 20
-62.9568
 30
0.0
 10
-69.2882
 20
-62.9568
 30
0.0
 10
-69.3906
 20
-62.9959
 30
0.0
 10
-69.4643
 20
-63.0871
 30
0.0
 10
-69.4814
 20
-63.1956
 30
0.0
 10
-69.4814
 20
-63.1956
 30
0.0
 10
-69.4986
 20
-63.304
 30
0.0
 10
-69.4565
 20
-63.4132
 30
0.0
 10
-69.3713
 20
-63.4822
 30
0.0
 10
-69.3713
 20
-63.4822
 30
0.0
 10
-65.9157
 20
-66.9143
 30
0.0
 10
-62.9725
 20
-70.8262
 30
0.0
 10
-60.6322
 20
-75.0972
 30
0.0
 10
-60.6322
 20
-75.0972
 30
0.0
 10
-57.5313
 20
-81.2043
 30
0.0
 10
-57.1007
 20
-88.3236
 30
0.0
 10
-59.4431
 20
-94.7599
 30
0.0
 10
-59.4431
 20
-94.7599
 30
0.0
 10
-60.1731
 20
-97.0008
 30
0.0
 10
-60.5371
 20
-99.3446
 30
0.0
 10
-60.5217
 20
-101.7013
 30
0.0
  0
SPLINE
  5
4B
330
1F
100
AcDbEntity
  8
layer 1
 62
     7
370
     9
100
AcDbSpline
210
0.0
220
0.0
230
1.0
 70
    11
 71
     3
 72
    64
 73
    60
 74
     0
 42
0.0000000001
 43
0.0000000001
 12
1.0
 22
0.0
 32
0.0
 13
1.0
 23
0.0
 33
0.0
 40
0.0
 40
0.0
 40
0.0
 40
0.0
 40
0.0625
 40
0.0625
 40
0.0625
 40
0.0625
 40
0.125
 40
0.125
 40
0.125
 40
0.125
 40
0.1875
 40
0.1875
 40
0.1875
 40
0.1875
 40
0.25
 40
0.25
 40
0.25
 40
0.25
 40
0.3125
 40
0.3125
 40
0.3125
 40
0.3125
 40
0.375
 40
0.375
 40
0.375
 40
0.375
 40
0.4375
 40
0.4375
 40
0.4375
 40
0.4375
 40
0.5
 40
0.5
 40
0.5
 40
0.5
 40
0.5625
 40
0.5625
 40
0.5625
 40
0.5625
 40
0.625
 40
0.625
 40
0.625
 40
0.625
 40
0.6875
 40
0.6875
 40
0.6875
 40
0.6875
 40
0.75
 40
0.75
 40
0.75
 40
0.75
 40
0.8125
 40
0.8125
 40
0.8125
 40
0.8125
 40
0.875
 40
0.875
 40
0.875
 40
0.875
 40
1.0
 40
1.0
 40
1.0
 40
1.0
 10
-57.3689
 20
-46.7498
 30
0.0
 10
-57.3689
 20
-46.7498
 30
0.0
 10
-57.3689
 20
-11.4279
 30
0.0
 10
-57.3689
 20
-11.4279
 30
0.0
 10
-57.3689
 20
-11.4279
 30
0.0
 10
-59.5611
 20
-13.2413
 30
0.0
 10
-60.3224
 20
-16.2675
 30
0.0
 10
-59.2496
 20
-18.9026
 30
0.0
 10
-59.2496
 20
-18.9026
 30
0.0
 10
-56.9304
 20
-25.136
 30
0.0
 10
-58.9497
 20
-32.1531
 30
0.0
 10
-64.2274
 20
-36.2006
 30
0.0
 10
-64.2274
 20
-36.2006
 30
0.0
 10
-64.3019
 20
-36.2271
 30
0.0
 10
-64.3556
 20
-36.2926
 30
0.0
 10
-64.3673
 20
-36.3708
 30
0.0
 10
-64.3673
 20
-36.3708
 30
0.0
 10
-64.3788
 20
-36.4489
 30
0.0
 10
-64.3464
 20
-36.5271
 30
0.0
 10
-64.2827
 20
-36.5738
 30
0.0
 10
-64.2827
 20
-36.5738
 30
0.0
 10
-62.9773
 20
-37.2667
 30
0.0
 10
-62.2805
 20
-38.7332
 30
0.0
 10
-62.5681
 20
-40.183
 30
0.0
 10
-62.5681
 20
-40.183
 30
0.0
 10
-62.5719
 20
-40.2547
 30
0.0
 10
-62.5322
 20
-40.3221
 30
0.0
 10
-62.4674
 20
-40.3539
 30
0.0
 10
-62.4674
 20
-40.3539
 30
0.0
 10
-62.4028
 20
-40.3854
 30
0.0
 10
-62.3253
 20
-40.3754
 30
0.0
 10
-62.2709
 20
-40.3282
 30
0.0
 10
-62.2709
 20
-40.3282
 30
0.0
 10
-62.223
 20
-40.3106
 30
0.0
 10
-62.1744
 20
-40.2945
 30
0.0
 10
-62.1257
 20
-40.2796
 30
0.0
 10
-62.1257
 20
-40.2796
 30
0.0
 10
-60.9908
 20
-39.7362
 30
0.0
 10
-60.0883
 20
-38.8042
 30
0.0
 10
-59.5815
 20
-37.6526
 30
0.0
 10
-59.5815
 20
-37.6526
 30
0.0
 10
-59.0747
 20
-39.9798
 30
0.0
 10
-59.5554
 20
-42.4129
 30
0.0
 10
-60.9088
 20
-44.3727
 30
0.0
 10
-60.9088
 20
-44.3727
 30
0.0
 10
-60.9866
 20
-44.4788
 30
0.0
 10
-60.9943
 20
-44.6207
 30
0.0
 10
-60.9283
 20
-44.7348
 30
0.0
 10
-60.9283
 20
-44.7348
 30
0.0
 10
-60.8624
 20
-44.8487
 30
0.0
 10
-60.7354
 20
-44.9127
 30
0.0
 10
-60.6046
 20
-44.8981
 30
0.0
 10
-60.6046
 20
-44.8981
 30
0.0
 10
-59.6375
 20
-44.9207
 30
0.0
 10
-58.7105
 20
-45.2886
 30
0.0
 10
-57.9913
 20
-45.9351
 30
0.0
 10
-57.9913
 20
-45.9351
 30
0.0
 10
-57.7061
 20
-46.1375
 30
0.0
 10
-57.4892
 20
-46.4217
 30
0.0
 10
-57.3689
 20
-46.7498
 30
0.0
  0
SPLINE
  5
4C
330
1F
100
AcDbEntity
  8
layer 1
 62
     7
370
     9
100
AcDbSpline
210
0.0
220
0.0
230
1.0
 70
    11
 71
     3
 72
   180
 73
   176
 74
     0
 42
0.0000000001
 43
0.0000000001
 12
1.0
 22
0.0
 32
0.0
 13
1.0
 23
0.0
 33
0.0
 40
0.0
 40
0.0
 40
0.0
 40
0.0
 40
0.0222222222222222
 40
0.0222222222222222
 40
0.0222222222222222
 40
0.0222222222222222
 40
0.0444444444444444
 40
0.0444444444444444
 40
0.0444444444444444
 40
0.0444444444444444
 40
0.0666666666666667
 40
0.0666666666666667
 40
0.0666666666666667
 40
0.0666666666666667
 40
0.0888888888888889
 40
0.0888888888888889
 40
0.0888888888888889
 40
0.0888888888888889
 40
0.1111111111111111
 40
0.1111111111111111
 40
0.1111111111111111
 40
0.1111111111111111
 40
0.1333333333333333
 40
0.1333333333333333
 40
0.1333333333333333
 40
0.1333333333333333
 40
0.1555555555555556
 40
0.1555555555555556
 40
0.1555555555555556
 40
0.1555555555555556
 40
0.1777777777777778
 40
0.1777777777777778
 40
0.1777777777777778
 40
0.1777777777777778
 40
0.2
 40
0.2
 40
0.2
 40
0.2
 40
0.2222222222222222
 40
0.2222222222222222
 40
0.2222222222222222
 40
0.2222222222222222
 40
0.2444444444444444
 40
0.2444444444444444
 40
0.2444444444444444
 40
0.2444444444444444
 40
0.2666666666666667
 40
0.2666666666666667
 40
0.2666666666666667
 40
0.2666666666666667
 40
0.2888888888888889
 40
0.2888888888888889
 40
0.2888888888888889
 40
0.2888888888888889
 40
0.3111111111111111
 40
0.3111111111111111
 40
0.3111111111111111
 40
0.3111111111111111
 40
0.3333333333333333
 40
0.3333333333333333
 40
0.3333333333333333
 40
0.3333333333333333
 40
0.3555555555555556
 40
0.3555555555555556
 40
0.3555555555555556
 40
0.3555555555555556
 40
0.3777777777777778
 40
0.3777777777777778
 40
0.3777777777777778
 40
0.3777777777777778
 40
0.4
 40
0.4
 40
0.4
 40
0.4
 40
0.4222222222222222
 40
0.4222222222222222
 40
0.4222222222222222
 40
0.4222222222222222
 40
0.4444444444444444
 40
0.4444444444444444
 40
0.4444444444444444
 40
0.4444444444444444
 40
0.4666666666666667
 40
0.4666666666666667
 40
0.4666666666666667
 40
0.4666666666666667
 40
0.4888888888888889
 40
0.4888888888888889
 40
0.4888888888888889
 40
0.4888888888888889
 40
0.5111111111111111
 40
0.5111111111111111
 40
0.5111111111111111
 40
0.5111111111111111
 40
0.5333333333333333
 40
0.5333333333333333
 40
0.5333333333333333
 40
0.5333333333333333
 40
0.5555555555555556
 40
0.5555555555555556
 40
0.5555555555555556
 40
0.5555555555555556
 40
0.5777777777777777
 40
0.5777777777777777
 40
0.5777777777777777
 40
0.5777777777777777
 40
0.6
 40
0.6
 40
0.6
 40
0.6
 40
0.6222222222222222
 40
0.6222222222222222
 40
0.6222222222222222
 40
0.6222222222222222
 40
0.6444444444444445
 40
0.6444444444444445
 40
0.6444444444444445
 40
0.6444444444444445
 40
0.6666666666666666
 40
0.6666666666666666
 40
0.6666666666666666
 40
0.6666666666666666
 40
0.6888888888888889
 40
0.6888888888888889
 40
0.6888888888888889
 40
0.6888888888888889
 40
0.7111111111111111
 40
0.7111111111111111
 40
0.7111111111111111
 40
0.7111111111111111
 40
0.7333333333333333
 40
0.7333333333333333
 40
0.7333333333333333
 40
0.7333333333333333
 40
0.7555555555555555
 40
0.7555555555555555
 40
0.7555555555555555
 40
0.7555555555555555
 40
0.7777777777777778
 40
0.7777777777777778
 40
0.7777777777777778
 40
0.7777777777777778
 40
0.8
 40
0.8
 40
0.8
 40
0.8
 40
0.8222222222222222
 40
0.8222222222222222
 40
0.8222222222222222
 40
0.8222222222222222
 40
0.8444444444444444
 40
0.8444444444444444
 40
0.8444444444444444
 40
0.8444444444444444
 40
0.8666666666666667
 40
0.8666666666666667
 40
0.8666666666666667
 40
0.8666666666666667
 40
0.8888888888888888
 40
0.8888888888888888
 40
0.8888888888888888
 40
0.8888888888888888
 40
0.9111111111111111
 40
0.9111111111111111
 40
0.9111111111111111
 40
0.9111111111111111
 40
0.9333333333333333
 40
0.9333333333333333
 40
0.9333333333333333
 40
0.9333333333333333
 40
0.9555555555555556
 40
0.9555555555555556
 40
0.9555555555555556
 40
0.9555555555555556
 40
1.0
 40
1.0
 40
1.0
 40
1.0
 10
-62.098
 20
-12.4587
 30
0.0
 10
-62.3511
 20
-12.732
 30
0.0
 10
-62.77
 20
-12.768
 30
0.0
 10
-63.0658
 20
-12.5419
 30
0.0
 10
-63.0658
 20
-12.5419
 30
0.0
 10
-67.252
 20
-9.8026
 30
0.0
 10
-72.4348
 20
-9.0535
 30
0.0
 10
-77.2251
 20
-10.4951
 30
0.0
 10
-77.2251
 20
-10.4951
 30
0.0
 10
-79.7854
 20
-11.2631
 30
0.0
 10
-81.9222
 20
-13.0405
 30
0.0
 10
-83.1433
 20
-15.418
 30
0.0
 10
-83.1433
 20
-15.418
 30
0.0
 10
-84.5134
 20
-18.74
 30
0.0
 10
-83.5734
 20
-22.5665
 30
0.0
 10
-80.8204
 20
-24.8761
 30
0.0
 10
-80.8204
 20
-24.8761
 30
0.0
 10
-82.0313
 20
-20.6907
 30
0.0
 10
-79.8134
 20
-16.2791
 30
0.0
 10
-75.7318
 20
-14.7542
 30
0.0
 10
-75.7318
 20
-14.7542
 30
0.0
 10
-75.788
 20
-15.5091
 30
0.0
 10
-75.788
 20
-16.2671
 30
0.0
 10
-75.7318
 20
-17.0221
 30
0.0
 10
-75.7318
 20
-17.0221
 30
0.0
 10
-73.4531
 20
-15.6103
 30
0.0
 10
-70.5676
 20
-15.6267
 30
0.0
 10
-68.3052
 20
-17.0642
 30
0.0
 10
-68.3052
 20
-17.0642
 30
0.0
 10
-66.0427
 20
-18.5017
 30
0.0
 10
-64.8022
 20
-21.1072
 30
0.0
 10
-65.1124
 20
-23.7698
 30
0.0
 10
-65.1124
 20
-23.7698
 30
0.0
 10
-67.2503
 20
-20.2047
 30
0.0
 10
-71.506
 20
-18.507
 30
0.0
 10
-75.5105
 20
-19.6215
 30
0.0
 10
-75.5105
 20
-19.6215
 30
0.0
 10
-73.3995
 20
-20.9677
 30
0.0
 10
-71.9626
 20
-23.1505
 30
0.0
 10
-71.5614
 20
-25.6219
 30
0.0
 10
-71.5614
 20
-25.6219
 30
0.0
 10
-71.16
 20
-28.0936
 30
0.0
 10
-71.8322
 20
-30.619
 30
0.0
 10
-73.4089
 20
-32.5639
 30
0.0
 10
-73.4089
 20
-32.5639
 30
0.0
 10
-75.7915
 20
-34.9015
 30
0.0
 10
-78.9289
 20
-36.3132
 30
0.0
 10
-82.2584
 20
-36.5462
 30
0.0
 10
-82.2584
 20
-36.5462
 30
0.0
 10
-82.3652
 20
-36.5351
 30
0.0
 10
-82.4547
 20
-36.4608
 30
0.0
 10
-82.4851
 20
-36.3577
 30
0.0
 10
-82.4851
 20
-36.3577
 30
0.0
 10
-82.5153
 20
-36.2547
 30
0.0
 10
-82.4805
 20
-36.1435
 30
0.0
 10
-82.3966
 20
-36.0761
 30
0.0
 10
-82.3966
 20
-36.0761
 30
0.0
 10
-78.495
 20
-35.0984
 30
0.0
 10
-75.8592
 20
-31.4598
 30
0.0
 10
-76.1466
 20
-27.4479
 30
0.0
 10
-76.1466
 20
-27.4479
 30
0.0
 10
-79.7828
 20
-31.8837
 30
0.0
 10
-85.2064
 20
-34.4688
 30
0.0
 10
-90.9422
 20
-34.4999
 30
0.0
 10
-90.9422
 20
-34.4999
 30
0.0
 10
-94.0569
 20
-34.6903
 30
0.0
 10
-97.1764
 20
-34.219
 30
0.0
 10
-100.0961
 20
-33.1172
 30
0.0
 10
-100.0961
 20
-33.1172
 30
0.0
 10
-100.1766
 20
-33.0759
 30
0.0
 10
-100.2248
 20
-32.9908
 30
0.0
 10
-100.2188
 20
-32.9003
 30
0.0
 10
-100.2188
 20
-32.9003
 30
0.0
 10
-100.213
 20
-32.8103
 30
0.0
 10
-100.1536
 20
-32.732
 30
0.0
 10
-100.0681
 20
-32.7022
 30
0.0
 10
-100.0681
 20
-32.7022
 30
0.0
 10
-95.4936
 20
-33.9947
 30
0.0
 10
-90.5778
 20
-33.0628
 30
0.0
 10
-86.7938
 20
-30.1856
 30
0.0
 10
-86.7938
 20
-30.1856
 30
0.0
 10
-83.9849
 20
-26.6899
 30
0.0
 10
-83.805
 20
-21.7644
 30
0.0
 10
-86.3515
 20
-18.0728
 30
0.0
 10
-86.3515
 20
-18.0728
 30
0.0
 10
-85.6463
 20
-20.5009
 30
0.0
 10
-86.1501
 20
-23.1203
 30
0.0
 10
-87.7054
 20
-25.1137
 30
0.0
 10
-87.7054
 20
-25.1137
 30
0.0
 10
-89.2606
 20
-27.1068
 30
0.0
 10
-91.6787
 20
-28.2323
 30
0.0
 10
-94.2053
 20
-28.1392
 30
0.0
 10
-94.2053
 20
-28.1392
 30
0.0
 10
-91.3534
 20
-26.8371
 30
0.0
 10
-89.963
 20
-23.5766
 30
0.0
 10
-90.9974
 20
-20.617
 30
0.0
 10
-90.9974
 20
-20.617
 30
0.0
 10
-92.5551
 20
-23.1973
 30
0.0
 10
-95.1223
 20
-25.0068
 30
0.0
 10
-98.0762
 20
-25.6058
 30
0.0
 10
-98.0762
 20
-25.6058
 30
0.0
 10
-101.03
 20
-26.2051
 30
0.0
 10
-104.0995
 20
-25.5391
 30
0.0
 10
-106.5395
 20
-23.7698
 30
0.0
 10
-106.5395
 20
-23.7698
 30
0.0
 10
-101.2307
 20
-16.4055
 30
0.0
 10
-92.7724
 20
-11.9613
 30
0.0
 10
-83.6965
 20
-11.7674
 30
0.0
 10
-83.6965
 20
-11.7674
 30
0.0
 10
-85.5517
 20
-10.1874
 30
0.0
 10
-87.8512
 20
-9.2214
 30
0.0
 10
-90.2785
 20
-9.0021
 30
0.0
 10
-90.2785
 20
-9.0021
 30
0.0
 10
-87.3969
 20
-6.3315
 30
0.0
 10
-84.2669
 20
-3.9421
 30
0.0
 10
-80.931
 20
-1.867
 30
0.0
 10
-80.931
 20
-1.867
 30
0.0
 10
-79.8016
 20
-2.4273
 30
0.0
 10
-78.9705
 20
-3.4493
 30
0.0
 10
-78.6522
 20
-4.6695
 30
0.0
 10
-78.6522
 20
-4.6695
 30
0.0
 10
-78.3339
 20
-5.8893
 30
0.0
 10
-78.5599
 20
-7.1872
 30
0.0
 10
-79.2716
 20
-8.2276
 30
0.0
 10
-79.2716
 20
-8.2276
 30
0.0
 10
-76.1478
 20
-6.4304
 30
0.0
 10
-74.8642
 20
-2.5794
 30
0.0
 10
-76.285
 20
0.7324
 30
0.0
 10
-76.285
 20
0.7324
 30
0.0
 10
-74.3072
 20
1.9364
 30
0.0
 10
-72.1056
 20
2.7266
 30
0.0
 10
-69.8136
 20
3.0554
 30
0.0
 10
-69.8136
 20
3.0554
 30
0.0
 10
-67.5957
 20
3.4326
 30
0.0
 10
-65.3162
 20
3.1834
 30
0.0
 10
-63.2318
 20
2.3365
 30
0.0
 10
-63.2318
 20
2.3365
 30
0.0
 10
-61.3289
 20
1.1413
 30
0.0
 10
-60.2432
 20
-1.0086
 30
0.0
 10
-60.4111
 20
-3.2496
 30
0.0
 10
-60.4111
 20
-3.2496
 30
0.0
 10
-60.4188
 20
-3.3569
 30
0.0
 10
-60.484
 20
-3.452
 30
0.0
 10
-60.5814
 20
-3.4979
 30
0.0
 10
-60.5814
 20
-3.4979
 30
0.0
 10
-60.6788
 20
-3.5436
 30
0.0
 10
-60.7933
 20
-3.5336
 30
0.0
 10
-60.8812
 20
-3.4711
 30
0.0
 10
-60.8812
 20
-3.4711
 30
0.0
 10
-62.4134
 20
-0.9699
 30
0.0
 10
-65.6423
 20
-0.1172
 30
0.0
 10
-68.2097
 20
-1.5351
 30
0.0
 10
-68.2097
 20
-1.5351
 30
0.0
 10
-69.2869
 20
-2.197
 30
0.0
 10
-69.9946
 20
-3.3221
 30
0.0
 10
-70.1247
 20
-4.5794
 30
0.0
 10
-70.1247
 20
-4.5794
 30
0.0
 10
-70.2548
 20
-5.8367
 30
0.0
 10
-69.7922
 20
-7.083
 30
0.0
 10
-68.8735
 20
-7.9509
 30
0.0
 10
-68.8735
 20
-7.9509
 30
0.0
 10
-65.6421
 20
-9.9747
 30
0.0
 10
-61.4018
 20
-9.2083
 30
0.0
 10
-59.0835
 20
-6.1813
 30
0.0
 10
-59.0835
 20
-6.1813
 30
0.0
 10
-58.1418
 20
-5.0308
 30
0.0
 10
-57.5471
 20
-3.6359
 30
0.0
 10
-57.3689
 20
-2.1597
 30
0.0
 10
-57.3689
 20
-2.1597
 30
0.0
 10
-57.3689
 20
-2.1597
 30
0.0
 10
-57.3689
 20
-9.4996
 30
0.0
 10
-57.3689
 20
-9.4996
 30
0.0
 10
-57.3689
 20
-9.4996
 30
0.0
 10
-59.298
 20
-9.759
 30
0.0
 10
-61.0213
 20
-10.8373
 30
0.0
 10
-62.098
 20
-12.4587
 30
0.0
  0
SPLINE
  5
4D
330
1F
100
AcDbEntity
  8
layer 1
 62
     7
370
     9
100
AcDbSpline
210
0.0
220
0.0
230
1.0
 70
    11
 71
     3
 72
   128
 73
   124
 74
     0
 42
0.0000000001
 43
0.0000000001
 12
1.0
 22
0.0
 32
0.0
 13
1.0
 23
0.0
 33
0.0
 40
0.0
 40
0.0
 40
0.0
 40
0.0
 40
0.03125
 40
0.03125
 40
0.03125
 40
0.03125
 40
0.0625
 40
0.0625
 40
0.0625
 40
0.0625
 40
0.09375
 40
0.09375
 40
0.09375
 40
0.09375
 40
0.125
 40
0.125
 40
0.125
 40
0.125
 40
0.15625
 40
0.15625
 40
0.15625
 40
0.15625
 40
0.1875
 40
0.1875
 40
0.1875
 40
0.1875
 40
0.21875
 40
0.21875
 40
0.21875
 40
0.21875
 40
0.25
 40
0.25
 40
0.25
 40
0.25
 40
0.28125
 40
0.28125
 40
0.28125
 40
0.28125
 40
0.3125
 40
0.3125
 40
0.3125
 40
0.3125
 40
0.34375
 40
0.34375
 40
0.34375
 40
0.34375
 40
0.375
 40
0.375
 40
0.375
 40
0.375
 40
0.40625
 40
0.40625
 40
0.40625
 40
0.40625
 40
0.4375
 40
0.4375
 40
0.4375
 40
0.4375
 40
0.46875
 40
0.46875
 40
0.46875
 40
0.46875
 40
0.5
 40
0.5
 40
0.5
 40
0.5
 40
0.53125
 40
0.53125
 40
0.53125
 40
0.53125
 40
0.5625
 40
0.5625
 40
0.5625
 40
0.5625
 40
0.59375
 40
0.59375
 40
0.59375
 40
0.59375
 40
0.625
 40
0.625
 40
0.625
 40
0.625
 40
0.65625
 40
0.65625
 40
0.65625
 40
0.65625
 40
0.6875
 40
0.6875
 40
0.6875
 40
0.6875
 40
0.71875
 40
0.71875
 40
0.71875
 40
0.71875
 40
0.75
 40
0.75
 40
0.75
 40
0.75
 40
0.78125
 40
0.78125
 40
0.78125
 40
0.78125
 40
0.8125
 40
0.8125
 40
0.8125
 40
0.8125
 40
0.84375
 40
0.84375
 40
0.84375
 40
0.84375
 40
0.875
 40
0.875
 40
0.875
 40
0.875
 40
0.90625
 40
0.90625
 40
0.90625
 40
0.90625
 40
0.9375
 40
0.9375
 40
0.9375
 40
0.9375
 40
1.0
 40
1.0
 40
1.0
 40
1.0
 10
-111.7087
 20
8.0886
 30
0.0
 10
-111.688
 20
7.9583
 30
0.0
 10
-111.6068
 20
7.8456
 30
0.0
 10
-111.4899
 20
7.7848
 30
0.0
 10
-111.4899
 20
7.7848
 30
0.0
 10
-107.1419
 20
6.1534
 30
0.0
 10
-104.2575
 20
2.0024
 30
0.0
 10
-104.244
 20
-2.6415
 30
0.0
 10
-104.244
 20
-2.6415
 30
0.0
 10
-104.2294
 20
-2.8982
 30
0.0
 10
-104.0589
 20
-3.1201
 30
0.0
 10
-103.814
 20
-3.1999
 30
0.0
 10
-103.814
 20
-3.1999
 30
0.0
 10
-103.5692
 20
-3.2792
 30
0.0
 10
-103.3005
 20
-3.2002
 30
0.0
 10
-103.1377
 20
-3.001
 30
0.0
 10
-103.1377
 20
-3.001
 30
0.0
 10
-102.7204
 20
0.1583
 30
0.0
 10
-101.2603
 20
3.0877
 30
0.0
 10
-98.9897
 20
5.3233
 30
0.0
 10
-98.9897
 20
5.3233
 30
0.0
 10
-98.5475
 20
5.7387
 30
0.0
 10
-97.9087
 20
5.8679
 30
0.0
 10
-97.34
 20
5.6567
 30
0.0
 10
-97.34
 20
5.6567
 30
0.0
 10
-96.7713
 20
5.4459
 30
0.0
 10
-96.3712
 20
4.9309
 30
0.0
 10
-96.3073
 20
4.3277
 30
0.0
 10
-96.3073
 20
4.3277
 30
0.0
 10
-96.3187
 20
3.5345
 30
0.0
 10
-96.3
 20
2.7411
 30
0.0
 10
-96.2516
 20
1.9495
 30
0.0
 10
-96.2516
 20
1.9495
 30
0.0
 10
-95.1377
 20
4.1744
 30
0.0
 10
-93.3331
 20
5.979
 30
0.0
 10
-91.1081
 20
7.093
 30
0.0
 10
-91.1081
 20
7.093
 30
0.0
 10
-90.5574
 20
7.2912
 30
0.0
 10
-89.942
 20
7.1509
 30
0.0
 10
-89.5316
 20
6.7336
 30
0.0
 10
-89.5316
 20
6.7336
 30
0.0
 10
-89.2341
 20
6.1235
 30
0.0
 10
-89.1651
 20
5.4268
 30
0.0
 10
-89.338
 20
4.7703
 30
0.0
 10
-89.338
 20
4.7703
 30
0.0
 10
-86.0225
 20
6.3308
 30
0.0
 10
-82.138
 20
6.0802
 30
0.0
 10
-79.0503
 20
4.1066
 30
0.0
 10
-79.0503
 20
4.1066
 30
0.0
 10
-77.3106
 20
5.0593
 30
0.0
 10
-75.4982
 20
5.8728
 30
0.0
 10
-73.6301
 20
6.54
 30
0.0
 10
-73.6301
 20
6.54
 30
0.0
 10
-68.7567
 20
8.4553
 30
0.0
 10
-63.2206
 20
7.472
 30
0.0
 10
-59.3048
 20
3.9958
 30
0.0
 10
-59.3048
 20
3.9958
 30
0.0
 10
-58.2368
 20
2.801
 30
0.0
 10
-57.561
 20
1.3071
 30
0.0
 10
-57.3689
 20
-0.2839
 30
0.0
 10
-57.3689
 20
-0.2839
 30
0.0
 10
-57.3689
 20
-0.2839
 30
0.0
 10
-57.3689
 20
16.4615
 30
0.0
 10
-57.3689
 20
16.4615
 30
0.0
 10
-57.3689
 20
16.4615
 30
0.0
 10
-57.561
 20
14.8704
 30
0.0
 10
-58.2368
 20
13.3766
 30
0.0
 10
-59.3048
 20
12.1817
 30
0.0
 10
-59.3048
 20
12.1817
 30
0.0
 10
-63.2206
 20
8.7056
 30
0.0
 10
-68.7567
 20
7.7222
 30
0.0
 10
-73.6301
 20
9.6372
 30
0.0
 10
-73.6301
 20
9.6372
 30
0.0
 10
-75.4982
 20
10.3047
 30
0.0
 10
-77.3106
 20
11.1184
 30
0.0
 10
-79.0503
 20
12.071
 30
0.0
 10
-79.0503
 20
12.071
 30
0.0
 10
-82.138
 20
10.097
 30
0.0
 10
-86.0225
 20
9.8464
 30
0.0
 10
-89.338
 20
11.4073
 30
0.0
 10
-89.338
 20
11.4073
 30
0.0
 10
-89.1651
 20
10.7509
 30
0.0
 10
-89.2341
 20
10.0541
 30
0.0
 10
-89.5316
 20
9.4436
 30
0.0
 10
-89.5316
 20
9.4436
 30
0.0
 10
-89.942
 20
9.0267
 30
0.0
 10
-90.5574
 20
8.886
 30
0.0
 10
-91.1081
 20
9.0842
 30
0.0
 10
-91.1081
 20
9.0842
 30
0.0
 10
-93.3331
 20
10.1986
 30
0.0
 10
-95.1377
 20
12.0031
 30
0.0
 10
-96.2516
 20
14.2282
 30
0.0
 10
-96.2516
 20
14.2282
 30
0.0
 10
-96.3
 20
13.4364
 30
0.0
 10
-96.3187
 20
12.6427
 30
0.0
 10
-96.3073
 20
11.8499
 30
0.0
 10
-96.3073
 20
11.8499
 30
0.0
 10
-96.3712
 20
11.2466
 30
0.0
 10
-96.7713
 20
10.7316
 30
0.0
 10
-97.34
 20
10.5205
 30
0.0
 10
-97.34
 20
10.5205
 30
0.0
 10
-97.9087
 20
10.3097
 30
0.0
 10
-98.5475
 20
10.4389
 30
0.0
 10
-98.9897
 20
10.8543
 30
0.0
 10
-98.9897
 20
10.8543
 30
0.0
 10
-101.2603
 20
13.0896
 30
0.0
 10
-102.7204
 20
16.0192
 30
0.0
 10
-103.1377
 20
19.1785
 30
0.0
 10
-103.1377
 20
19.1785
 30
0.0
 10
-103.3005
 20
19.3778
 30
0.0
 10
-103.5692
 20
19.4568
 30
0.0
 10
-103.814
 20
19.3771
 30
0.0
 10
-103.814
 20
19.3771
 30
0.0
 10
-104.0589
 20
19.2978
 30
0.0
 10
-104.2294
 20
19.0758
 30
0.0
 10
-104.244
 20
18.8187
 30
0.0
 10
-104.244
 20
18.8187
 30
0.0
 10
-104.2575
 20
14.1753
 30
0.0
 10
-107.1419
 20
10.0242
 30
0.0
 10
-111.4899
 20
8.3929
 30
0.0
 10
-111.4899
 20
8.3929
 30
0.0
 10
-111.6068
 20
8.3319
 30
0.0
 10
-111.688
 20
8.2193
 30
0.0
 10
-111.7087
 20
8.0886
 30
0.0
  0
SPLINE
  5
4E
330
1F
100
AcDbEntity
  8
layer 1
 62
     7
370
     9
100
AcDbSpline
210
0.0
220
0.0
230
1.0
 70
    11
 71
     3
 72
    24
 73
    20
 74
     0
 42
0.0000000001
 43
0.0000000001
 12
1.0
 22
0.0
 32
0.0
 13
1.0
 23
0.0
 33
0.0
 40
0.0
 40
0.0
 40
0.0
 40
0.0
 40
0.1666666666666667
 40
0.1666666666666667
 40
0.1666666666666667
 40
0.1666666666666667
 40
0.3333333333333333
 40
0.3333333333333333
 40
0.3333333333333333
 40
0.3333333333333333
 40
0.5
 40
0.5
 40
0.5
 40
0.5
 40
0.6666666666666666
 40
0.6666666666666666
 40
0.6666666666666666
 40
0.6666666666666666
 40
1.0
 40
1.0
 40
1.0
 40
1.0
 10
-87.1256
 20
-1.0373
 30
0.0
 10
-87.1268
 20
-0.9389
 30
0.0
 10
-87.2066
 20
-0.8588
 30
0.0
 10
-87.3054
 20
-0.8576
 30
0.0
 10
-87.3054
 20
-0.8576
 30
0.0
 10
-96.5839
 20
-2.0647
 30
0.0
 10
-104.2602
 20
-8.6653
 30
0.0
 10
-106.8438
 20
-17.6579
 30
0.0
 10
-106.8438
 20
-17.6579
 30
0.0
 10
-106.8633
 20
-17.7778
 30
0.0
 10
-106.81
 20
-17.8982
 30
0.0
 10
-106.7081
 20
-17.964
 30
0.0
 10
-106.7081
 20
-17.964
 30
0.0
 10
-106.6062
 20
-18.0299
 30
0.0
 10
-106.4748
 20
-18.0292
 30
0.0
 10
-106.3735
 20
-17.9622
 30
0.0
 10
-106.3735
 20
-17.9622
 30
0.0
 10
-100.5828
 20
-11.6471
 30
0.0
 10
-94.1298
 20
-5.9728
 30
0.0
 10
-87.1256
 20
-1.0373
 30
0.0
  0
SPLINE
  5
4F
330
1F
100
AcDbEntity
  8
layer 1
 62
     7
370
     9
100
AcDbSpline
210
0.0
220
0.0
230
1.0
 70
    11
 71
     3
 72
    84
 73
    80
 74
     0
 42
0.0000000001
 43
0.0000000001
 12
1.0
 22
0.0
 32
0.0
 13
1.0
 23
0.0
 33
0.0
 40
0.0
 40
0.0
 40
0.0
 40
0.0
 40
0.0476190476190476
 40
0.0476190476190476
 40
0.0476190476190476
 40
0.0476190476190476
 40
0.0952380952380952
 40
0.0952380952380952
 40
0.0952380952380952
 40
0.0952380952380952
 40
0.1428571428571428
 40
0.1428571428571428
 40
0.1428571428571428
 40
0.1428571428571428
 40
0.1904761904761905
 40
0.1904761904761905
 40
0.1904761904761905
 40
0.1904761904761905
 40
0.2380952380952381
 40
0.2380952380952381
 40
0.2380952380952381
 40
0.2380952380952381
 40
0.2857142857142857
 40
0.2857142857142857
 40
0.2857142857142857
 40
0.2857142857142857
 40
0.3333333333333333
 40
0.3333333333333333
 40
0.3333333333333333
 40
0.3333333333333333
 40
0.3809523809523809
 40
0.3809523809523809
 40
0.3809523809523809
 40
0.3809523809523809
 40
0.4285714285714285
 40
0.4285714285714285
 40
0.4285714285714285
 40
0.4285714285714285
 40
0.4761904761904762
 40
0.4761904761904762
 40
0.4761904761904762
 40
0.4761904761904762
 40
0.5238095238095238
 40
0.5238095238095238
 40
0.5238095238095238
 40
0.5238095238095238
 40
0.5714285714285714
 40
0.5714285714285714
 40
0.5714285714285714
 40
0.5714285714285714
 40
0.6190476190476191
 40
0.6190476190476191
 40
0.6190476190476191
 40
0.6190476190476191
 40
0.6666666666666666
 40
0.6666666666666666
 40
0.6666666666666666
 40
0.6666666666666666
 40
0.7142857142857143
 40
0.7142857142857143
 40
0.7142857142857143
 40
0.7142857142857143
 40
0.7619047619047619
 40
0.7619047619047619
 40
0.7619047619047619
 40
0.7619047619047619
 40
0.8095238095238095
 40
0.8095238095238095
 40
0.8095238095238095
 40
0.8095238095238095
 40
0.8571428571428571
 40
0.8571428571428571
 40
0.8571428571428571
 40
0.8571428571428571
 40
0.9047619047619048
 40
0.9047619047619048
 40
0.9047619047619048
 40
0.9047619047619048
 40
1.0
 40
1.0
 40
1.0
 40
1.0
 10
-125.7314
 20
8.0886
 30
0.0
 10
-125.6452
 20
-1.3021
 30
0.0
 10
-122.1913
 20
-10.3499
 30
0.0
 10
-115.9973
 20
-17.4091
 30
0.0
 10
-115.9973
 20
-17.4091
 30
0.0
 10
-114.1187
 20
-13.1168
 30
0.0
 10
-115.0626
 20
-8.1119
 30
0.0
 10
-118.3759
 20
-4.7982
 30
0.0
 10
-118.3759
 20
-4.7982
 30
0.0
 10
-114.4805
 20
-4.7614
 30
0.0
 10
-111.1109
 20
-7.5034
 30
0.0
 10
-110.356
 20
-11.3252
 30
0.0
 10
-110.356
 20
-11.3252
 30
0.0
 10
-108.3567
 20
-8.9691
 30
0.0
 10
-107.4217
 20
-5.8908
 30
0.0
 10
-107.7727
 20
-2.8209
 30
0.0
 10
-107.7727
 20
-2.8209
 30
0.0
 10
-108.1238
 20
0.2491
 30
0.0
 10
-109.7294
 20
3.0366
 30
0.0
 10
-112.2088
 20
4.8807
 30
0.0
 10
-112.2088
 20
4.8807
 30
0.0
 10
-111.8524
 20
2.0962
 30
0.0
 10
-113.5777
 20
-0.5326
 30
0.0
 10
-116.2739
 20
-1.3141
 30
0.0
 10
-116.2739
 20
-1.3141
 30
0.0
 10
-119.5111
 20
-2.205
 30
0.0
 10
-122.8756
 20
-0.3886
 30
0.0
 10
-123.9069
 20
2.8067
 30
0.0
 10
-123.9069
 20
2.8067
 30
0.0
 10
-124.1851
 20
3.8797
 30
0.0
 10
-123.9905
 20
5.0209
 30
0.0
 10
-123.3719
 20
5.9407
 30
0.0
 10
-123.3719
 20
5.9407
 30
0.0
 10
-122.7534
 20
6.8608
 30
0.0
 10
-121.7701
 20
7.4716
 30
0.0
 10
-120.671
 20
7.6188
 30
0.0
 10
-120.671
 20
7.6188
 30
0.0
 10
-120.5315
 20
7.7384
 30
0.0
 10
-120.4427
 20
7.9062
 30
0.0
 10
-120.4224
 20
8.0886
 30
0.0
 10
-120.4224
 20
8.0886
 30
0.0
 10
-120.4427
 20
8.2714
 30
0.0
 10
-120.5315
 20
8.4392
 30
0.0
 10
-120.671
 20
8.5588
 30
0.0
 10
-120.671
 20
8.5588
 30
0.0
 10
-121.7701
 20
8.7059
 30
0.0
 10
-122.7534
 20
9.3164
 30
0.0
 10
-123.3719
 20
10.2365
 30
0.0
 10
-123.3719
 20
10.2365
 30
0.0
 10
-123.9905
 20
11.1566
 30
0.0
 10
-124.1851
 20
12.2978
 30
0.0
 10
-123.9069
 20
13.3709
 30
0.0
 10
-123.9069
 20
13.3709
 30
0.0
 10
-122.8756
 20
16.5662
 30
0.0
 10
-119.5111
 20
18.3826
 30
0.0
 10
-116.2739
 20
17.4913
 30
0.0
 10
-116.2739
 20
17.4913
 30
0.0
 10
-113.5777
 20
16.7102
 30
0.0
 10
-111.8524
 20
14.0813
 30
0.0
 10
-112.2088
 20
11.2969
 30
0.0
 10
-112.2088
 20
11.2969
 30
0.0
 10
-109.7294
 20
13.1406
 30
0.0
 10
-108.1238
 20
15.9284
 30
0.0
 10
-107.7727
 20
18.9984
 30
0.0
 10
-107.7727
 20
18.9984
 30
0.0
 10
-107.4217
 20
22.0683
 30
0.0
 10
-108.3567
 20
25.1463
 30
0.0
 10
-110.356
 20
27.5024
 30
0.0
 10
-110.356
 20
27.5024
 30
0.0
 10
-111.1109
 20
23.6809
 30
0.0
 10
-114.4805
 20
20.939
 30
0.0
 10
-118.3759
 20
20.9758
 30
0.0
 10
-118.3759
 20
20.9758
 30
0.0
 10
-115.0626
 20
24.2891
 30
0.0
 10
-114.1187
 20
29.2943
 30
0.0
 10
-115.9973
 20
33.5867
 30
0.0
 10
-115.9973
 20
33.5867
 30
0.0
 10
-122.1913
 20
26.5275
 30
0.0
 10
-125.6452
 20
17.4797
 30
0.0
 10
-125.7314
 20
8.0886
 30
0.0
  0
SPLINE
  5
50
330
1F
100
AcDbEntity
  8
layer 1
 62
     7
370
     9
100
AcDbSpline
210
0.0
220
0.0
230
1.0
 70
    11
 71
     3
 72
   348
 73
   344
 74
     0
 42
0.0000000001
 43
0.0000000001
 12
1.0
 22
0.0
 32
0.0
 13
1.0
 23
0.0
 33
0.0
 40
0.0
 40
0.0
 40
0.0
 40
0.0
 40
0.0114942528735632
 40
0.0114942528735632
 40
0.0114942528735632
 40
0.0114942528735632
 40
0.0229885057471264
 40
0.0229885057471264
 40
0.0229885057471264
 40
0.0229885057471264
 40
0.0344827586206897
 40
0.0344827586206897
 40
0.0344827586206897
 40
0.0344827586206897
 40
0.0459770114942529
 40
0.0459770114942529
 40
0.0459770114942529
 40
0.0459770114942529
 40
0.0574712643678161
 40
0.0574712643678161
 40
0.0574712643678161
 40
0.0574712643678161
 40
0.0689655172413793
 40
0.0689655172413793
 40
0.0689655172413793
 40
0.0689655172413793
 40
0.0804597701149425
 40
0.0804597701149425
 40
0.0804597701149425
 40
0.0804597701149425
 40
0.0919540229885057
 40
0.0919540229885057
 40
0.0919540229885057
 40
0.0919540229885057
 40
0.103448275862069
 40
0.103448275862069
 40
0.103448275862069
 40
0.103448275862069
 40
0.1149425287356322
 40
0.1149425287356322
 40
0.1149425287356322
 40
0.1149425287356322
 40
0.1264367816091954
 40
0.1264367816091954
 40
0.1264367816091954
 40
0.1264367816091954
 40
0.1379310344827586
 40
0.1379310344827586
 40
0.1379310344827586
 40
0.1379310344827586
 40
0.1494252873563219
 40
0.1494252873563219
 40
0.1494252873563219
 40
0.1494252873563219
 40
0.1609195402298851
 40
0.1609195402298851
 40
0.1609195402298851
 40
0.1609195402298851
 40
0.1724137931034483
 40
0.1724137931034483
 40
0.1724137931034483
 40
0.1724137931034483
 40
0.1839080459770115
 40
0.1839080459770115
 40
0.1839080459770115
 40
0.1839080459770115
 40
0.1954022988505747
 40
0.1954022988505747
 40
0.1954022988505747
 40
0.1954022988505747
 40
0.2068965517241379
 40
0.2068965517241379
 40
0.2068965517241379
 40
0.2068965517241379
 40
0.2183908045977012
 40
0.2183908045977012
 40
0.2183908045977012
 40
0.2183908045977012
 40
0.2298850574712644
 40
0.2298850574712644
 40
0.2298850574712644
 40
0.2298850574712644
 40
0.2413793103448276
 40
0.2413793103448276
 40
0.2413793103448276
 40
0.2413793103448276
 40
0.2528735632183908
 40
0.2528735632183908
 40
0.2528735632183908
 40
0.2528735632183908
 40
0.264367816091954
 40
0.264367816091954
 40
0.264367816091954
 40
0.264367816091954
 40
0.2758620689655172
 40
0.2758620689655172
 40
0.2758620689655172
 40
0.2758620689655172
 40
0.2873563218390804
 40
0.2873563218390804
 40
0.2873563218390804
 40
0.2873563218390804
 40
0.2988505747126437
 40
0.2988505747126437
 40
0.2988505747126437
 40
0.2988505747126437
 40
0.3103448275862069
 40
0.3103448275862069
 40
0.3103448275862069
 40
0.3103448275862069
 40
0.3218390804597701
 40
0.3218390804597701
 40
0.3218390804597701
 40
0.3218390804597701
 40
0.3333333333333333
 40
0.3333333333333333
 40
0.3333333333333333
 40
0.3333333333333333
 40
0.3448275862068966
 40
0.3448275862068966
 40
0.3448275862068966
 40
0.3448275862068966
 40
0.3563218390804598
 40
0.3563218390804598
 40
0.3563218390804598
 40
0.3563218390804598
 40
0.367816091954023
 40
0.367816091954023
 40
0.367816091954023
 40
0.367816091954023
 40
0.3793103448275862
 40
0.3793103448275862
 40
0.3793103448275862
 40
0.3793103448275862
 40
0.3908045977011494
 40
0.3908045977011494
 40
0.3908045977011494
 40
0.3908045977011494
 40
0.4022988505747127
 40
0.4022988505747127
 40
0.4022988505747127
 40
0.4022988505747127
 40
0.4137931034482759
 40
0.4137931034482759
 40
0.4137931034482759
 40
0.4137931034482759
 40
0.4252873563218391
 40
0.4252873563218391
 40
0.4252873563218391
 40
0.4252873563218391
 40
0.4367816091954023
 40
0.4367816091954023
 40
0.4367816091954023
 40
0.4367816091954023
 40
0.4482758620689655
 40
0.4482758620689655
 40
0.4482758620689655
 40
0.4482758620689655
 40
0.4597701149425287
 40
0.4597701149425287
 40
0.4597701149425287
 40
0.4597701149425287
 40
0.4712643678160919
 40
0.4712643678160919
 40
0.4712643678160919
 40
0.4712643678160919
 40
0.4827586206896552
 40
0.4827586206896552
 40
0.4827586206896552
 40
0.4827586206896552
 40
0.4942528735632184
 40
0.4942528735632184
 40
0.4942528735632184
 40
0.4942528735632184
 40
0.5057471264367817
 40
0.5057471264367817
 40
0.5057471264367817
 40
0.5057471264367817
 40
0.5172413793103449
 40
0.5172413793103449
 40
0.5172413793103449
 40
0.5172413793103449
 40
0.5287356321839081
 40
0.5287356321839081
 40
0.5287356321839081
 40
0.5287356321839081
 40
0.5402298850574713
 40
0.5402298850574713
 40
0.5402298850574713
 40
0.5402298850574713
 40
0.5517241379310345
 40
0.5517241379310345
 40
0.5517241379310345
 40
0.5517241379310345
 40
0.5632183908045977
 40
0.5632183908045977
 40
0.5632183908045977
 40
0.5632183908045977
 40
0.5747126436781609
 40
0.5747126436781609
 40
0.5747126436781609
 40
0.5747126436781609
 40
0.5862068965517241
 40
0.5862068965517241
 40
0.5862068965517241
 40
0.5862068965517241
 40
0.5977011494252874
 40
0.5977011494252874
 40
0.5977011494252874
 40
0.5977011494252874
 40
0.6091954022988506
 40
0.6091954022988506
 40
0.6091954022988506
 40
0.6091954022988506
 40
0.6206896551724138
 40
0.6206896551724138
 40
0.6206896551724138
 40
0.6206896551724138
 40
0.632183908045977
 40
0.632183908045977
 40
0.632183908045977
 40
0.632183908045977
 40
0.6436781609195402
 40
0.6436781609195402
 40
0.6436781609195402
 40
0.6436781609195402
 40
0.6551724137931034
 40
0.6551724137931034
 40
0.6551724137931034
 40
0.6551724137931034
 40
0.6666666666666666
 40
0.6666666666666666
 40
0.6666666666666666
 40
0.6666666666666666
 40
0.6781609195402298
 40
0.6781609195402298
 40
0.6781609195402298
 40
0.6781609195402298
 40
0.6896551724137931
 40
0.6896551724137931
 40
0.6896551724137931
 40
0.6896551724137931
 40
0.7011494252873564
 40
0.7011494252873564
 40
0.7011494252873564
 40
0.7011494252873564
 40
0.7126436781609196
 40
0.7126436781609196
 40
0.7126436781609196
 40
0.7126436781609196
 40
0.7241379310344828
 40
0.7241379310344828
 40
0.7241379310344828
 40
0.7241379310344828
 40
0.735632183908046
 40
0.735632183908046
 40
0.735632183908046
 40
0.735632183908046
 40
0.7471264367816092
 40
0.7471264367816092
 40
0.7471264367816092
 40
0.7471264367816092
 40
0.7586206896551724
 40
0.7586206896551724
 40
0.7586206896551724
 40
0.7586206896551724
 40
0.7701149425287356
 40
0.7701149425287356
 40
0.7701149425287356
 40
0.7701149425287356
 40
0.7816091954022989
 40
0.7816091954022989
 40
0.7816091954022989
 40
0.7816091954022989
 40
0.7931034482758621
 40
0.7931034482758621
 40
0.7931034482758621
 40
0.7931034482758621
 40
0.8045977011494253
 40
0.8045977011494253
 40
0.8045977011494253
 40
0.8045977011494253
 40
0.8160919540229885
 40
0.8160919540229885
 40
0.8160919540229885
 40
0.8160919540229885
 40
0.8275862068965517
 40
0.8275862068965517
 40
0.8275862068965517
 40
0.8275862068965517
 40
0.8390804597701149
 40
0.8390804597701149
 40
0.8390804597701149
 40
0.8390804597701149
 40
0.8505747126436781
 40
0.8505747126436781
 40
0.8505747126436781
 40
0.8505747126436781
 40
0.8620689655172413
 40
0.8620689655172413
 40
0.8620689655172413
 40
0.8620689655172413
 40
0.8735632183908046
 40
0.8735632183908046
 40
0.8735632183908046
 40
0.8735632183908046
 40
0.8850574712643678
 40
0.8850574712643678
 40
0.8850574712643678
 40
0.8850574712643678
 40
0.896551724137931
 40
0.896551724137931
 40
0.896551724137931
 40
0.896551724137931
 40
0.9080459770114943
 40
0.9080459770114943
 40
0.9080459770114943
 40
0.9080459770114943
 40
0.9195402298850575
 40
0.9195402298850575
 40
0.9195402298850575
 40
0.9195402298850575
 40
0.9310344827586207
 40
0.9310344827586207
 40
0.9310344827586207
 40
0.9310344827586207
 40
0.9425287356321839
 40
0.9425287356321839
 40
0.9425287356321839
 40
0.9425287356321839
 40
0.9540229885057471
 40
0.9540229885057471
 40
0.9540229885057471
 40
0.9540229885057471
 40
0.9655172413793104
 40
0.9655172413793104
 40
0.9655172413793104
 40
0.9655172413793104
 40
0.9770114942528736
 40
0.9770114942528736
 40
0.9770114942528736
 40
0.9770114942528736
 40
1.0
 40
1.0
 40
1.0
 40
1.0
 10
-146.3155
 20
-10.1683
 30
0.0
 10
-145.2176
 20
-10.906
 30
0.0
 10
-144.7274
 20
-12.2721
 30
0.0
 10
-145.1061
 20
-13.5395
 30
0.0
 10
-145.1061
 20
-13.5395
 30
0.0
 10
-145.4847
 20
-14.8067
 30
0.0
 10
-146.644
 20
-15.6801
 30
0.0
 10
-147.9664
 20
-15.6946
 30
0.0
 10
-147.9664
 20
-15.6946
 30
0.0
 10
-149.4422
 20
-15.8203
 30
0.0
 10
-150.8961
 20
-15.2723
 30
0.0
 10
-151.9216
 20
-14.2039
 30
0.0
 10
-151.9216
 20
-14.2039
 30
0.0
 10
-152.9471
 20
-13.1355
 30
0.0
 10
-153.435
 20
-11.6605
 30
0.0
 10
-153.2487
 20
-10.1912
 30
0.0
 10
-153.2487
 20
-10.1912
 30
0.0
 10
-153.2698
 20
-10.0667
 30
0.0
 10
-153.3744
 20
-9.9739
 30
0.0
 10
-153.5001
 20
-9.9674
 30
0.0
 10
-153.5001
 20
-9.9674
 30
0.0
 10
-153.6262
 20
-9.9609
 30
0.0
 10
-153.74
 20
-10.0422
 30
0.0
 10
-153.7741
 20
-10.1633
 30
0.0
 10
-153.7741
 20
-10.1633
 30
0.0
 10
-154.7456
 20
-12.6013
 30
0.0
 10
-156.9131
 20
-14.3602
 30
0.0
 10
-159.4986
 20
-14.8094
 30
0.0
 10
-159.4986
 20
-14.8094
 30
0.0
 10
-157.4403
 20
-13.47
 30
0.0
 10
-156.3164
 20
-11.0823
 30
0.0
 10
-156.595
 20
-8.6427
 30
0.0
 10
-156.595
 20
-8.6427
 30
0.0
 10
-157.0732
 20
-9.2853
 30
0.0
 10
-157.7725
 20
-9.7287
 30
0.0
 10
-158.5586
 20
-9.8869
 30
0.0
 10
-158.5586
 20
-9.8869
 30
0.0
 10
-157.115
 20
-7.9552
 30
0.0
 10
-156.6751
 20
-5.452
 30
0.0
 10
-157.3736
 20
-3.1439
 30
0.0
 10
-157.3736
 20
-3.1439
 30
0.0
 10
-158.0722
 20
-0.8358
 30
0.0
 10
-159.8258
 20
1.0033
 30
0.0
 10
-162.0983
 20
1.8111
 30
0.0
 10
-162.0983
 20
1.8111
 30
0.0
 10
-162.2122
 20
1.8035
 30
0.0
 10
-162.3118
 20
1.7302
 30
0.0
 10
-162.3532
 20
1.6237
 30
0.0
 10
-162.3532
 20
1.6237
 30
0.0
 10
-162.3946
 20
1.5172
 30
0.0
 10
-162.3708
 20
1.3961
 30
0.0
 10
-162.2919
 20
1.3133
 30
0.0
 10
-162.2919
 20
1.3133
 30
0.0
 10
-160.8118
 20
0.3541
 30
0.0
 10
-159.8117
 20
-1.191
 30
0.0
 10
-159.5426
 20
-2.9338
 30
0.0
 10
-159.5426
 20
-2.9338
 30
0.0
 10
-159.2732
 20
-4.6768
 30
0.0
 10
-159.76
 20
-6.4514
 30
0.0
 10
-160.8813
 20
-7.8127
 30
0.0
 10
-160.8813
 20
-7.8127
 30
0.0
 10
-163.4987
 20
-10.1004
 30
0.0
 10
-167.3794
 20
-10.1821
 30
0.0
 10
-170.0904
 20
-8.0066
 30
0.0
 10
-170.0904
 20
-8.0066
 30
0.0
 10
-171.4193
 20
-6.9687
 30
0.0
 10
-172.1287
 20
-5.3255
 30
0.0
 10
-171.9719
 20
-3.6467
 30
0.0
 10
-171.9719
 20
-3.6467
 30
0.0
 10
-171.8152
 20
-1.9674
 30
0.0
 10
-170.8143
 20
-0.4839
 30
0.0
 10
-169.3163
 20
0.2902
 30
0.0
 10
-169.3163
 20
0.2902
 30
0.0
 10
-169.2568
 20
0.3423
 30
0.0
 10
-169.2361
 20
0.4251
 30
0.0
 10
-169.2637
 20
0.4989
 30
0.0
 10
-169.2637
 20
0.4989
 30
0.0
 10
-169.2913
 20
0.5729
 30
0.0
 10
-169.3619
 20
0.6216
 30
0.0
 10
-169.4404
 20
0.622
 30
0.0
 10
-169.4404
 20
0.622
 30
0.0
 10
-171.3837
 20
0.1969
 30
0.0
 10
-173.0542
 20
-1.0354
 30
0.0
 10
-174.0332
 20
-2.7668
 30
0.0
 10
-174.0332
 20
-2.7668
 30
0.0
 10
-175.0124
 20
-4.4982
 30
0.0
 10
-175.2078
 20
-6.5645
 30
0.0
 10
-174.5705
 20
-8.4488
 30
0.0
 10
-174.5705
 20
-8.4488
 30
0.0
 10
-173.2599
 20
-12.8971
 30
0.0
 10
-169.5614
 20
-16.2319
 30
0.0
 10
-165.002
 20
-17.0773
 30
0.0
 10
-165.002
 20
-17.0773
 30
0.0
 10
-162.5337
 20
-17.4525
 30
0.0
 10
-160.0156
 20
-17.3398
 30
0.0
 10
-157.5906
 20
-16.7454
 30
0.0
 10
-157.5906
 20
-16.7454
 30
0.0
 10
-158.1558
 20
-18.7064
 30
0.0
 10
-159.5499
 20
-20.3228
 30
0.0
 10
-161.4066
 20
-21.1701
 30
0.0
 10
-161.4066
 20
-21.1701
 30
0.0
 10
-158.8797
 20
-21.5985
 30
0.0
 10
-156.3021
 20
-20.7738
 30
0.0
 10
-154.493
 20
-18.9577
 30
0.0
 10
-154.493
 20
-18.9577
 30
0.0
 10
-153.5833
 20
-18.1342
 30
0.0
 10
-152.2083
 20
-18.0989
 30
0.0
 10
-151.2575
 20
-18.8745
 30
0.0
 10
-151.2575
 20
-18.8745
 30
0.0
 10
-150.2098
 20
-18.4205
 30
0.0
 10
-148.99
 20
-18.6695
 30
0.0
 10
-148.2044
 20
-19.4985
 30
0.0
 10
-148.2044
 20
-19.4985
 30
0.0
 10
-147.4188
 20
-20.3273
 30
0.0
 10
-147.2352
 20
-21.5586
 30
0.0
 10
-147.7454
 20
-22.5807
 30
0.0
 10
-147.7454
 20
-22.5807
 30
0.0
 10
-147.7775
 20
-22.6309
 30
0.0
 10
-147.7795
 20
-22.6944
 30
0.0
 10
-147.7502
 20
-22.7463
 30
0.0
 10
-147.7502
 20
-22.7463
 30
0.0
 10
-147.7216
 20
-22.7983
 30
0.0
 10
-147.6664
 20
-22.8301
 30
0.0
 10
-147.607
 20
-22.8294
 30
0.0
 10
-147.607
 20
-22.8294
 30
0.0
 10
-145.0233
 20
-21.8755
 30
0.0
 10
-142.7148
 20
-20.2986
 30
0.0
 10
-140.8869
 20
-18.2388
 30
0.0
 10
-140.8869
 20
-18.2388
 30
0.0
 10
-140.5784
 20
-17.8744
 30
0.0
 10
-140.0848
 20
-17.7246
 30
0.0
 10
-139.6257
 20
-17.8556
 30
0.0
 10
-139.6257
 20
-17.8556
 30
0.0
 10
-139.1666
 20
-17.9867
 30
0.0
 10
-138.8267
 20
-18.3745
 30
0.0
 10
-138.7573
 20
-18.8474
 30
0.0
 10
-138.7573
 20
-18.8474
 30
0.0
 10
-138.588
 20
-19.9568
 30
0.0
 10
-138.5975
 20
-21.0865
 30
0.0
 10
-138.7854
 20
-22.1936
 30
0.0
 10
-138.7854
 20
-22.1936
 30
0.0
 10
-138.8102
 20
-22.2522
 30
0.0
 10
-138.8057
 20
-22.3194
 30
0.0
 10
-138.7726
 20
-22.3741
 30
0.0
 10
-138.7726
 20
-22.3741
 30
0.0
 10
-138.7401
 20
-22.429
 30
0.0
 10
-138.683
 20
-22.4646
 30
0.0
 10
-138.619
 20
-22.4699
 30
0.0
 10
-138.619
 20
-22.4699
 30
0.0
 10
-136.7815
 20
-20.9853
 30
0.0
 10
-135.4877
 20
-18.9332
 30
0.0
 10
-134.9409
 20
-16.6347
 30
0.0
 10
-134.9409
 20
-16.6347
 30
0.0
 10
-134.7661
 20
-16.3679
 30
0.0
 10
-134.4723
 20
-16.2028
 30
0.0
 10
-134.1533
 20
-16.1916
 30
0.0
 10
-134.1533
 20
-16.1916
 30
0.0
 10
-133.8345
 20
-16.1805
 30
0.0
 10
-133.5302
 20
-16.3254
 30
0.0
 10
-133.3371
 20
-16.5795
 30
0.0
 10
-133.3371
 20
-16.5795
 30
0.0
 10
-133.1065
 20
-16.8991
 30
0.0
 10
-132.9547
 20
-17.2685
 30
0.0
 10
-132.8945
 20
-17.6579
 30
0.0
 10
-132.8945
 20
-17.6579
 30
0.0
 10
-132.8818
 20
-17.7146
 30
0.0
 10
-132.8773
 20
-17.7728
 30
0.0
 10
-132.8807
 20
-17.8307
 30
0.0
 10
-132.8807
 20
-17.8307
 30
0.0
 10
-132.8554
 20
-17.9798
 30
0.0
 10
-132.729
 20
-18.0901
 30
0.0
 10
-132.578
 20
-18.0951
 30
0.0
 10
-132.578
 20
-18.0951
 30
0.0
 10
-132.4273
 20
-18.1001
 30
0.0
 10
-132.2936
 20
-17.9981
 30
0.0
 10
-132.2584
 20
-17.8518
 30
0.0
 10
-132.2584
 20
-17.8518
 30
0.0
 10
-132.03
 20
-16.852
 30
0.0
 10
-131.4754
 20
-15.9568
 30
0.0
 10
-130.6822
 20
-15.3072
 30
0.0
 10
-130.6822
 20
-15.3072
 30
0.0
 10
-129.4379
 20
-14.5476
 30
0.0
 10
-127.8679
 20
-14.5691
 30
0.0
 10
-126.6446
 20
-15.3628
 30
0.0
 10
-126.6446
 20
-15.3628
 30
0.0
 10
-126.4465
 20
-15.4471
 30
0.0
 10
-126.2169
 20
-15.4057
 30
0.0
 10
-126.0609
 20
-15.257
 30
0.0
 10
-126.0609
 20
-15.257
 30
0.0
 10
-128.9555
 20
-9.5543
 30
0.0
 10
-130.6055
 20
-3.3022
 30
0.0
 10
-130.9017
 20
3.086
 30
0.0
 10
-130.9017
 20
3.086
 30
0.0
 10
-131.1134
 20
3.0677
 30
0.0
 10
-131.3149
 20
2.9899
 30
0.0
 10
-131.4842
 20
2.8619
 30
0.0
 10
-131.4842
 20
2.8619
 30
0.0
 10
-132.0894
 20
1.8261
 30
0.0
 10
-133.1532
 20
1.1416
 30
0.0
 10
-134.3469
 20
1.0201
 30
0.0
 10
-134.3469
 20
1.0201
 30
0.0
 10
-135.5402
 20
0.8987
 30
0.0
 10
-136.7201
 20
1.3547
 30
0.0
 10
-137.5219
 20
2.2476
 30
0.0
 10
-137.5219
 20
2.2476
 30
0.0
 10
-137.6835
 20
2.3794
 30
0.0
 10
-137.8851
 20
2.4672
 30
0.0
 10
-138.1094
 20
2.489
 30
0.0
 10
-138.1094
 20
2.489
 30
0.0
 10
-138.202
 20
2.496
 30
0.0
 10
-138.2948
 20
2.497
 30
0.0
 10
-138.3868
 20
2.4817
 30
0.0
 10
-138.3868
 20
2.4817
 30
0.0
 10
-138.4581
 20
2.4695
 30
0.0
 10
-138.5274
 20
2.4526
 30
0.0
 10
-138.5953
 20
2.4277
 30
0.0
 10
-138.5953
 20
2.4277
 30
0.0
 10
-138.7286
 20
2.3786
 30
0.0
 10
-138.8509
 20
2.3047
 30
0.0
 10
-138.9562
 20
2.2096
 30
0.0
 10
-138.9562
 20
2.2096
 30
0.0
 10
-139.062
 20
2.1142
 30
0.0
 10
-139.1467
 20
1.9989
 30
0.0
 10
-139.2099
 20
1.8709
 30
0.0
 10
-139.2099
 20
1.8709
 30
0.0
 10
-139.252
 20
1.7793
 30
0.0
 10
-139.2854
 20
1.6839
 30
0.0
 10
-139.3004
 20
1.5835
 30
0.0
 10
-139.3004
 20
1.5835
 30
0.0
 10
-139.3046
 20
1.5559
 30
0.0
 10
-139.3088
 20
1.5283
 30
0.0
 10
-139.313
 20
1.5003
 30
0.0
 10
-139.313
 20
1.5003
 30
0.0
 10
-139.3724
 20
0.8949
 30
0.0
 10
-138.9298
 20
0.3561
 30
0.0
 10
-138.3243
 20
0.2967
 30
0.0
 10
-138.3243
 20
0.2967
 30
0.0
 10
-138.1006
 20
0.2744
 30
0.0
 10
-137.8855
 20
0.3215
 30
0.0
 10
-137.7012
 20
0.4196
 30
0.0
 10
-137.7012
 20
0.4196
 30
0.0
 10
-136.2909
 20
0.965
 30
0.0
 10
-134.691
 20
0.5859
 30
0.0
 10
-133.6751
 20
-0.5334
 30
0.0
 10
-133.6751
 20
-0.5334
 30
0.0
 10
-132.6592
 20
-1.6528
 30
0.0
 10
-132.4369
 20
-3.2819
 30
0.0
 10
-133.1156
 20
-4.6327
 30
0.0
 10
-133.1156
 20
-4.6327
 30
0.0
 10
-133.9001
 20
-5.8179
 30
0.0
 10
-135.2601
 20
-6.4909
 30
0.0
 10
-136.678
 20
-6.3951
 30
0.0
 10
-136.678
 20
-6.3951
 30
0.0
 10
-138.0959
 20
-6.2993
 30
0.0
 10
-139.3536
 20
-5.4497
 30
0.0
 10
-139.971
 20
-4.1698
 30
0.0
 10
-139.971
 20
-4.1698
 30
0.0
 10
-140.0702
 20
-3.9862
 30
0.0
 10
-140.2235
 20
-3.828
 30
0.0
 10
-140.4221
 20
-3.7222
 30
0.0
 10
-140.4221
 20
-3.7222
 30
0.0
 10
-140.5052
 20
-3.6808
 30
0.0
 10
-140.5907
 20
-3.6439
 30
0.0
 10
-140.6815
 20
-3.6233
 30
0.0
 10
-140.6815
 20
-3.6233
 30
0.0
 10
-140.752
 20
-3.6072
 30
0.0
 10
-140.8225
 20
-3.5965
 30
0.0
 10
-140.8949
 20
-3.5934
 30
0.0
 10
-140.8949
 20
-3.5934
 30
0.0
 10
-141.0367
 20
-3.588
 30
0.0
 10
-141.1778
 20
-3.6098
 30
0.0
 10
-141.3115
 20
-3.6574
 30
0.0
 10
-141.3115
 20
-3.6574
 30
0.0
 10
-141.4456
 20
-3.7053
 30
0.0
 10
-141.5682
 20
-3.7796
 30
0.0
 10
-141.6755
 20
-3.8736
 30
0.0
 10
-141.6755
 20
-3.8736
 30
0.0
 10
-141.7491
 20
-3.9421
 30
0.0
 10
-141.8162
 20
-4.0181
 30
0.0
 10
-141.8683
 20
-4.1046
 30
0.0
 10
-141.8683
 20
-4.1046
 30
0.0
 10
-141.8829
 20
-4.1287
 30
0.0
 10
-141.8975
 20
-4.1529
 30
0.0
 10
-141.912
 20
-4.1771
 30
0.0
 10
-141.912
 20
-4.1771
 30
0.0
 10
-142.1979
 20
-4.7139
 30
0.0
 10
-141.9943
 20
-5.3807
 30
0.0
 10
-141.4575
 20
-5.6666
 30
0.0
 10
-141.4575
 20
-5.6666
 30
0.0
 10
-141.2589
 20
-5.7724
 30
0.0
 10
-141.0424
 20
-5.8111
 30
0.0
 10
-140.8344
 20
-5.7908
 30
0.0
 10
-140.8344
 20
-5.7908
 30
0.0
 10
-139.2999
 20
-5.8038
 30
0.0
 10
-137.971
 20
-6.8588
 30
0.0
 10
-137.6108
 20
-8.3507
 30
0.0
 10
-137.6108
 20
-8.3507
 30
0.0
 10
-137.2505
 20
-9.8422
 30
0.0
 10
-137.9511
 20
-11.3876
 30
0.0
 10
-139.3107
 20
-12.0993
 30
0.0
 10
-139.3107
 20
-12.0993
 30
0.0
 10
-140.4362
 20
-12.7768
 30
0.0
 10
-141.838
 20
-12.8025
 30
0.0
 10
-142.9876
 20
-12.1667
 30
0.0
 10
-142.9876
 20
-12.1667
 30
0.0
 10
-144.1374
 20
-11.5306
 30
0.0
 10
-144.8605
 20
-10.33
 30
0.0
 10
-144.8854
 20
-9.0163
 30
0.0
 10
-144.8854
 20
-9.0163
 30
0.0
 10
-144.9042
 20
-8.8086
 30
0.0
 10
-144.983
 20
-8.6032
 30
0.0
 10
-145.1245
 20
-8.4277
 30
0.0
 10
-145.1245
 20
-8.4277
 30
0.0
 10
-145.1842
 20
-8.3572
 30
0.0
 10
-145.2486
 20
-8.2898
 30
0.0
 10
-145.3238
 20
-8.2349
 30
0.0
 10
-145.3238
 20
-8.2349
 30
0.0
 10
-145.3824
 20
-8.1924
 30
0.0
 10
-145.443
 20
-8.1548
 30
0.0
 10
-145.5085
 20
-8.1238
 30
0.0
 10
-145.5085
 20
-8.1238
 30
0.0
 10
-145.6364
 20
-8.0633
 30
0.0
 10
-145.7752
 20
-8.0276
 30
0.0
 10
-145.9166
 20
-8.0188
 30
0.0
 10
-145.9166
 20
-8.0188
 30
0.0
 10
-146.0588
 20
-8.0099
 30
0.0
 10
-146.201
 20
-8.0302
 30
0.0
 10
-146.3362
 20
-8.0748
 30
0.0
 10
-146.3362
 20
-8.0748
 30
0.0
 10
-146.4308
 20
-8.1089
 30
0.0
 10
-146.5224
 20
-8.1521
 30
0.0
 10
-146.6044
 20
-8.2115
 30
0.0
 10
-146.6044
 20
-8.2115
 30
0.0
 10
-146.6275
 20
-8.2281
 30
0.0
 10
-146.6501
 20
-8.2445
 30
0.0
 10
-146.6731
 20
-8.2606
 30
0.0
 10
-146.6731
 20
-8.2606
 30
0.0
 10
-147.1467
 20
-8.6423
 30
0.0
 10
-147.2214
 20
-9.3355
 30
0.0
 10
-146.8402
 20
-9.8096
 30
0.0
 10
-146.8402
 20
-9.8096
 30
0.0
 10
-146.6987
 20
-9.9847
 30
0.0
 10
-146.5151
 20
-10.1054
 30
0.0
 10
-146.3155
 20
-10.1683
 30
0.0
  0
SPLINE
  5
51
330
1F
100
AcDbEntity
  8
layer 1
 62
     7
370
     9
100
AcDbSpline
210
0.0
220
0.0
230
1.0
 70
    11
 71
     3
 72
    60
 73
    56
 74
     0
 42
0.0000000001
 43
0.0000000001
 12
1.0
 22
0.0
 32
0.0
 13
1.0
 23
0.0
 33
0.0
 40
0.0
 40
0.0
 40
0.0
 40
0.0
 40
0.0666666666666667
 40
0.0666666666666667
 40
0.0666666666666667
 40
0.0666666666666667
 40
0.1333333333333333
 40
0.1333333333333333
 40
0.1333333333333333
 40
0.1333333333333333
 40
0.2
 40
0.2
 40
0.2
 40
0.2
 40
0.2666666666666667
 40
0.2666666666666667
 40
0.2666666666666667
 40
0.2666666666666667
 40
0.3333333333333333
 40
0.3333333333333333
 40
0.3333333333333333
 40
0.3333333333333333
 40
0.4
 40
0.4
 40
0.4
 40
0.4
 40
0.4666666666666667
 40
0.4666666666666667
 40
0.4666666666666667
 40
0.4666666666666667
 40
0.5333333333333333
 40
0.5333333333333333
 40
0.5333333333333333
 40
0.5333333333333333
 40
0.6
 40
0.6
 40
0.6
 40
0.6
 40
0.6666666666666666
 40
0.6666666666666666
 40
0.6666666666666666
 40
0.6666666666666666
 40
0.7333333333333333
 40
0.7333333333333333
 40
0.7333333333333333
 40
0.7333333333333333
 40
0.8
 40
0.8
 40
0.8
 40
0.8
 40
0.8666666666666667
 40
0.8666666666666667
 40
0.8666666666666667
 40
0.8666666666666667
 40
1.0
 40
1.0
 40
1.0
 40
1.0
 10
-130.9447
 20
8.0886
 30
0.0
 10
-130.9413
 20
7.0983
 30
0.0
 10
-130.9535
 20
6.1081
 30
0.0
 10
-130.9819
 20
5.1179
 30
0.0
 10
-130.9819
 20
5.1179
 30
0.0
 10
-131.0914
 20
5.129
 30
0.0
 10
-131.1927
 20
5.183
 30
0.0
 10
-131.2632
 20
5.2682
 30
0.0
 10
-131.2632
 20
5.2682
 30
0.0
 10
-131.6846
 20
6.384
 30
0.0
 10
-132.5921
 20
7.2475
 30
0.0
 10
-133.7276
 20
7.6135
 30
0.0
 10
-133.7276
 20
7.6135
 30
0.0
 10
-134.8634
 20
7.9794
 30
0.0
 10
-136.104
 20
7.8077
 30
0.0
 10
-137.098
 20
7.1478
 30
0.0
 10
-137.098
 20
7.1478
 30
0.0
 10
-137.2719
 20
7.0316
 30
0.0
 10
-137.4816
 20
6.9643
 30
0.0
 10
-137.7066
 20
6.9643
 30
0.0
 10
-137.7066
 20
6.9643
 30
0.0
 10
-138.3151
 20
6.9643
 30
0.0
 10
-138.8079
 20
7.4575
 30
0.0
 10
-138.8079
 20
8.0656
 30
0.0
 10
-138.8079
 20
8.0656
 30
0.0
 10
-138.8075
 20
8.0736
 30
0.0
 10
-138.8072
 20
8.0813
 30
0.0
 10
-138.8068
 20
8.0886
 30
0.0
 10
-138.8068
 20
8.0886
 30
0.0
 10
-138.8072
 20
8.0963
 30
0.0
 10
-138.8075
 20
8.1039
 30
0.0
 10
-138.8079
 20
8.1116
 30
0.0
 10
-138.8079
 20
8.1116
 30
0.0
 10
-138.8079
 20
8.7202
 30
0.0
 10
-138.3151
 20
9.213
 30
0.0
 10
-137.7066
 20
9.213
 30
0.0
 10
-137.7066
 20
9.213
 30
0.0
 10
-137.4816
 20
9.213
 30
0.0
 10
-137.2719
 20
9.1455
 30
0.0
 10
-137.098
 20
9.0298
 30
0.0
 10
-137.098
 20
9.0298
 30
0.0
 10
-136.104
 20
8.3695
 30
0.0
 10
-134.8634
 20
8.1982
 30
0.0
 10
-133.7276
 20
8.5642
 30
0.0
 10
-133.7276
 20
8.5642
 30
0.0
 10
-132.5921
 20
8.9298
 30
0.0
 10
-131.6846
 20
9.7935
 30
0.0
 10
-131.2632
 20
10.9095
 30
0.0
 10
-131.2632
 20
10.9095
 30
0.0
 10
-131.1927
 20
10.9945
 30
0.0
 10
-131.0914
 20
11.0482
 30
0.0
 10
-130.9819
 20
11.0593
 30
0.0
 10
-130.9819
 20
11.0593
 30
0.0
 10
-130.9535
 20
10.0694
 30
0.0
 10
-130.9413
 20
9.0792
 30
0.0
 10
-130.9447
 20
8.0886
 30
0.0
  0
SPLINE
  5
52
330
1F
100
AcDbEntity
  8
layer 1
 62
     7
370
     9
100
AcDbSpline
210
0.0
220
0.0
230
1.0
 70
    11
 71
     3
 72
    32
 73
    28
 74
     0
 42
0.0000000001
 43
0.0000000001
 12
1.0
 22
0.0
 32
0.0
 13
1.0
 23
0.0
 33
0.0
 40
0.0
 40
0.0
 40
0.0
 40
0.0
 40
0.125
 40
0.125
 40
0.125
 40
0.125
 40
0.25
 40
0.25
 40
0.25
 40
0.25
 40
0.375
 40
0.375
 40
0.375
 40
0.375
 40
0.5
 40
0.5
 40
0.5
 40
0.5
 40
0.625
 40
0.625
 40
0.625
 40
0.625
 40
0.75
 40
0.75
 40
0.75
 40
0.75
 40
1.0
 40
1.0
 40
1.0
 40
1.0
 10
-126.617
 20
-22.7466
 30
0.0
 10
-128.7642
 20
-27.7108
 30
0.0
 10
-133.4091
 20
-31.1417
 30
0.0
 10
-138.7854
 20
-31.7342
 30
0.0
 10
-138.7854
 20
-31.7342
 30
0.0
 10
-149.9412
 20
-32.9084
 30
0.0
 10
-161.1522
 20
-30.086
 30
0.0
 10
-170.4222
 20
-23.7698
 30
0.0
 10
-170.4222
 20
-23.7698
 30
0.0
 10
-165.5615
 20
-29.4318
 30
0.0
 10
-158.8295
 20
-33.1612
 30
0.0
 10
-151.451
 20
-34.2787
 30
0.0
 10
-151.451
 20
-34.2787
 30
0.0
 10
-140.002
 20
-36.8298
 30
0.0
 10
-128.051
 20
-33.2238
 30
0.0
 10
-119.9245
 20
-24.7653
 30
0.0
 10
-119.9245
 20
-24.7653
 30
0.0
 10
-121.4466
 20
-22.9232
 30
0.0
 10
-122.8297
 20
-20.9707
 30
0.0
 10
-124.0628
 20
-18.9239
 30
0.0
 10
-124.0628
 20
-18.9239
 30
0.0
 10
-124.356
 20
-18.9631
 30
0.0
 10
-124.5737
 20
-19.2153
 30
0.0
 10
-124.5707
 20
-19.5108
 30
0.0
 10
-124.5707
 20
-19.5108
 30
0.0
 10
-124.8477
 20
-20.7979
 30
0.0
 10
-125.5728
 20
-21.9445
 30
0.0
 10
-126.617
 20
-22.7466
 30
0.0
  0
SPLINE
  5
53
330
1F
100
AcDbEntity
  8
layer 1
 62
     7
370
     9
100
AcDbSpline
210
0.0
220
0.0
230
1.0
 70
    11
 71
     3
 72
    72
 73
    68
 74
     0
 42
0.0000000001
 43
0.0000000001
 12
1.0
 22
0.0
 32
0.0
 13
1.0
 23
0.0
 33
0.0
 40
0.0
 40
0.0
 40
0.0
 40
0.0
 40
0.0555555555555556
 40
0.0555555555555556
 40
0.0555555555555556
 40
0.0555555555555556
 40
0.1111111111111111
 40
0.1111111111111111
 40
0.1111111111111111
 40
0.1111111111111111
 40
0.1666666666666667
 40
0.1666666666666667
 40
0.1666666666666667
 40
0.1666666666666667
 40
0.2222222222222222
 40
0.2222222222222222
 40
0.2222222222222222
 40
0.2222222222222222
 40
0.2777777777777778
 40
0.2777777777777778
 40
0.2777777777777778
 40
0.2777777777777778
 40
0.3333333333333333
 40
0.3333333333333333
 40
0.3333333333333333
 40
0.3333333333333333
 40
0.3888888888888889
 40
0.3888888888888889
 40
0.3888888888888889
 40
0.3888888888888889
 40
0.4444444444444444
 40
0.4444444444444444
 40
0.4444444444444444
 40
0.4444444444444444
 40
0.5
 40
0.5
 40
0.5
 40
0.5
 40
0.5555555555555556
 40
0.5555555555555556
 40
0.5555555555555556
 40
0.5555555555555556
 40
0.6111111111111112
 40
0.6111111111111112
 40
0.6111111111111112
 40
0.6111111111111112
 40
0.6666666666666666
 40
0.6666666666666666
 40
0.6666666666666666
 40
0.6666666666666666
 40
0.7222222222222222
 40
0.7222222222222222
 40
0.7222222222222222
 40
0.7222222222222222
 40
0.7777777777777778
 40
0.7777777777777778
 40
0.7777777777777778
 40
0.7777777777777778
 40
0.8333333333333334
 40
0.8333333333333334
 40
0.8333333333333334
 40
0.8333333333333334
 40
0.8888888888888888
 40
0.8888888888888888
 40
0.8888888888888888
 40
0.8888888888888888
 40
1.0
 40
1.0
 40
1.0
 40
1.0
 10
-137.7342
 20
-71.1147
 30
0.0
 10
-137.9634
 20
-72.835
 30
0.0
 10
-138.8566
 20
-74.3966
 30
0.0
 10
-140.2232
 20
-75.4662
 30
0.0
 10
-140.2232
 20
-75.4662
 30
0.0
 10
-140.7785
 20
-75.772
 30
0.0
 10
-141.4525
 20
-75.7682
 30
0.0
 10
-142.0048
 20
-75.4566
 30
0.0
 10
-142.0048
 20
-75.4566
 30
0.0
 10
-142.5569
 20
-75.1446
 30
0.0
 10
-142.9083
 20
-74.5694
 30
0.0
 10
-142.9332
 20
-73.9356
 30
0.0
 10
-142.9332
 20
-73.9356
 30
0.0
 10
-143.1893
 20
-71.7923
 30
0.0
 10
-143.9997
 20
-69.7524
 30
0.0
 10
-145.2839
 20
-68.0176
 30
0.0
 10
-145.2839
 20
-68.0176
 30
0.0
 10
-145.5511
 20
-67.7222
 30
0.0
 10
-145.5629
 20
-67.2757
 30
0.0
 10
-145.3115
 20
-66.9668
 30
0.0
 10
-145.3115
 20
-66.9668
 30
0.0
 10
-143.5981
 20
-65.6699
 30
0.0
 10
-143.2196
 20
-63.2492
 30
0.0
 10
-144.4542
 20
-61.491
 30
0.0
 10
-144.4542
 20
-61.491
 30
0.0
 10
-144.6792
 20
-61.3071
 30
0.0
 10
-144.8022
 20
-61.0269
 30
0.0
 10
-144.7858
 20
-60.7372
 30
0.0
 10
-144.7858
 20
-60.7372
 30
0.0
 10
-144.7696
 20
-60.4471
 30
0.0
 10
-144.6156
 20
-60.1827
 30
0.0
 10
-144.3715
 20
-60.0252
 30
0.0
 10
-144.3715
 20
-60.0252
 30
0.0
 10
-144.0296
 20
-59.7282
 30
0.0
 10
-143.8292
 20
-59.301
 30
0.0
 10
-143.8184
 20
-58.8483
 30
0.0
 10
-143.8184
 20
-58.8483
 30
0.0
 10
-143.8081
 20
-58.3957
 30
0.0
 10
-143.9887
 20
-57.9597
 30
0.0
 10
-144.316
 20
-57.647
 30
0.0
 10
-144.316
 20
-57.647
 30
0.0
 10
-144.555
 20
-57.5017
 30
0.0
 10
-144.7194
 20
-57.2603
 30
0.0
 10
-144.7673
 20
-56.9843
 30
0.0
 10
-144.7673
 20
-56.9843
 30
0.0
 10
-144.8152
 20
-56.7089
 30
0.0
 10
-144.7412
 20
-56.426
 30
0.0
 10
-144.565
 20
-56.2092
 30
0.0
 10
-144.565
 20
-56.2092
 30
0.0
 10
-144.25
 20
-55.0253
 30
0.0
 10
-144.834
 20
-53.7872
 30
0.0
 10
-145.9477
 20
-53.2775
 30
0.0
 10
-145.9477
 20
-53.2775
 30
0.0
 10
-146.2627
 20
-52.9966
 30
0.0
 10
-146.4152
 20
-52.5762
 30
0.0
 10
-146.3538
 20
-52.1585
 30
0.0
 10
-146.3538
 20
-52.1585
 30
0.0
 10
-146.2926
 20
-51.7412
 30
0.0
 10
-146.0258
 20
-51.3821
 30
0.0
 10
-145.6434
 20
-51.2036
 30
0.0
 10
-145.6434
 20
-51.2036
 30
0.0
 10
-142.6126
 20
-54.531
 30
0.0
 10
-140.2634
 20
-58.4206
 30
0.0
 10
-138.7297
 20
-62.6526
 30
0.0
 10
-138.7297
 20
-62.6526
 30
0.0
 10
-137.7613
 20
-65.3616
 30
0.0
 10
-137.4211
 20
-68.2552
 30
0.0
 10
-137.7342
 20
-71.1147
 30
0.0
  0
SPLINE
  5
54
330
1F
100
AcDbEntity
  8
layer 1
 62
     7
370
     9
100
AcDbSpline
210
0.0
220
0.0
230
1.0
 70
    11
 71
     3
 72
    36
 73
    32
 74
     0
 42
0.0000000001
 43
0.0000000001
 12
1.0
 22
0.0
 32
0.0
 13
1.0
 23
0.0
 33
0.0
 40
0.0
 40
0.0
 40
0.0
 40
0.0
 40
0.1111111111111111
 40
0.1111111111111111
 40
0.1111111111111111
 40
0.1111111111111111
 40
0.2222222222222222
 40
0.2222222222222222
 40
0.2222222222222222
 40
0.2222222222222222
 40
0.3333333333333333
 40
0.3333333333333333
 40
0.3333333333333333
 40
0.3333333333333333
 40
0.4444444444444444
 40
0.4444444444444444
 40
0.4444444444444444
 40
0.4444444444444444
 40
0.5555555555555556
 40
0.5555555555555556
 40
0.5555555555555556
 40
0.5555555555555556
 40
0.6666666666666666
 40
0.6666666666666666
 40
0.6666666666666666
 40
0.6666666666666666
 40
0.7777777777777778
 40
0.7777777777777778
 40
0.7777777777777778
 40
0.7777777777777778
 40
1.0
 40
1.0
 40
1.0
 40
1.0
 10
-146.473
 20
-65.9433
 30
0.0
 10
-146.5256
 20
-66.0532
 30
0.0
 10
-146.634
 20
-66.1252
 30
0.0
 10
-146.7554
 20
-66.131
 30
0.0
 10
-146.7554
 20
-66.131
 30
0.0
 10
-146.8765
 20
-66.1367
 30
0.0
 10
-146.9915
 20
-66.0755
 30
0.0
 10
-147.054
 20
-65.9712
 30
0.0
 10
-147.054
 20
-65.9712
 30
0.0
 10
-148.2389
 20
-64.7962
 30
0.0
 10
-149.663
 20
-63.8907
 30
0.0
 10
-151.2299
 20
-63.3163
 30
0.0
 10
-151.2299
 20
-63.3163
 30
0.0
 10
-154.1657
 20
-62.4648
 30
0.0
 10
-157.2177
 20
-62.0819
 30
0.0
 10
-160.2731
 20
-62.1823
 30
0.0
 10
-160.2731
 20
-62.1823
 30
0.0
 10
-159.8883
 20
-61.872
 30
0.0
 10
-159.4917
 20
-61.5768
 30
0.0
 10
-159.084
 20
-61.2974
 30
0.0
 10
-159.084
 20
-61.2974
 30
0.0
 10
-158.0833
 20
-61.6661
 30
0.0
 10
-156.9621
 20
-61.4654
 30
0.0
 10
-156.1523
 20
-60.7721
 30
0.0
 10
-156.1523
 20
-60.7721
 30
0.0
 10
-154.1301
 20
-60.3444
 30
0.0
 10
-152.0427
 20
-60.3256
 30
0.0
 10
-150.0128
 20
-60.7165
 30
0.0
 10
-150.0128
 20
-60.7165
 30
0.0
 10
-147.6702
 20
-61.2979
 30
0.0
 10
-146.1435
 20
-63.5523
 30
0.0
 10
-146.473
 20
-65.9433
 30
0.0
  0
SPLINE
  5
55
330
1F
100
AcDbEntity
  8
layer 1
 62
     7
370
     9
100
AcDbSpline
210
0.0
220
0.0
230
1.0
 70
    11
 71
     3
 72
    48
 73
    44
 74
     0
 42
0.0000000001
 43
0.0000000001
 12
1.0
 22
0.0
 32
0.0
 13
1.0
 23
0.0
 33
0.0
 40
0.0
 40
0.0
 40
0.0
 40
0.0
 40
0.0833333333333333
 40
0.0833333333333333
 40
0.0833333333333333
 40
0.0833333333333333
 40
0.1666666666666667
 40
0.1666666666666667
 40
0.1666666666666667
 40
0.1666666666666667
 40
0.25
 40
0.25
 40
0.25
 40
0.25
 40
0.3333333333333333
 40
0.3333333333333333
 40
0.3333333333333333
 40
0.3333333333333333
 40
0.4166666666666667
 40
0.4166666666666667
 40
0.4166666666666667
 40
0.4166666666666667
 40
0.5
 40
0.5
 40
0.5
 40
0.5
 40
0.5833333333333334
 40
0.5833333333333334
 40
0.5833333333333334
 40
0.5833333333333334
 40
0.6666666666666666
 40
0.6666666666666666
 40
0.6666666666666666
 40
0.6666666666666666
 40
0.75
 40
0.75
 40
0.75
 40
0.75
 40
0.8333333333333334
 40
0.8333333333333334
 40
0.8333333333333334
 40
0.8333333333333334
 40
1.0
 40
1.0
 40
1.0
 40
1.0
 10
-146.9432
 20
-49.4335
 30
0.0
 10
-147.6606
 20
-49.983
 30
0.0
 10
-148.6647
 20
-49.9542
 30
0.0
 10
-149.349
 20
-49.3645
 30
0.0
 10
-149.349
 20
-49.3645
 30
0.0
 10
-149.5
 20
-48.8683
 30
0.0
 10
-149.853
 20
-48.4582
 30
0.0
 10
-150.3209
 20
-48.2347
 30
0.0
 10
-150.3209
 20
-48.2347
 30
0.0
 10
-150.7892
 20
-48.011
 30
0.0
 10
-151.3296
 20
-47.9945
 30
0.0
 10
-151.8105
 20
-48.1891
 30
0.0
 10
-151.8105
 20
-48.1891
 30
0.0
 10
-151.8726
 20
-48.2144
 30
0.0
 10
-151.9431
 20
-48.2106
 30
0.0
 10
-152.0021
 20
-48.1785
 30
0.0
 10
-152.0021
 20
-48.1785
 30
0.0
 10
-152.0611
 20
-48.1462
 30
0.0
 10
-152.1024
 20
-48.0892
 30
0.0
 10
-152.1147
 20
-48.0232
 30
0.0
 10
-152.1147
 20
-48.0232
 30
0.0
 10
-152.3209
 20
-46.808
 30
0.0
 10
-153.1012
 20
-45.7676
 30
0.0
 10
-154.2102
 20
-45.2295
 30
0.0
 10
-154.2102
 20
-45.2295
 30
0.0
 10
-155.3188
 20
-44.6915
 30
0.0
 10
-156.6191
 20
-44.7226
 30
0.0
 10
-157.7009
 20
-45.3127
 30
0.0
 10
-157.7009
 20
-45.3127
 30
0.0
 10
-158.3754
 20
-42.7934
 30
0.0
 10
-159.5614
 20
-40.4401
 30
0.0
 10
-161.1855
 20
-38.3991
 30
0.0
 10
-161.1855
 20
-38.3991
 30
0.0
 10
-161.2158
 20
-38.3336
 30
0.0
 10
-161.2043
 20
-38.2561
 30
0.0
 10
-161.1564
 20
-38.2025
 30
0.0
 10
-161.1564
 20
-38.2025
 30
0.0
 10
-161.1085
 20
-38.1485
 30
0.0
 10
-161.033
 20
-38.1277
 30
0.0
 10
-160.9644
 20
-38.1504
 30
0.0
 10
-160.9644
 20
-38.1504
 30
0.0
 10
-155.6108
 20
-40.9781
 30
0.0
 10
-150.8509
 20
-44.8088
 30
0.0
 10
-146.9432
 20
-49.4335
 30
0.0
  0
SPLINE
  5
56
330
1F
100
AcDbEntity
  8
layer 1
 62
     7
370
     9
100
AcDbSpline
210
0.0
220
0.0
230
1.0
 70
    11
 71
     3
 72
    28
 73
    24
 74
     0
 42
0.0000000001
 43
0.0000000001
 12
1.0
 22
0.0
 32
0.0
 13
1.0
 23
0.0
 33
0.0
 40
0.0
 40
0.0
 40
0.0
 40
0.0
 40
0.1428571428571428
 40
0.1428571428571428
 40
0.1428571428571428
 40
0.1428571428571428
 40
0.2857142857142857
 40
0.2857142857142857
 40
0.2857142857142857
 40
0.2857142857142857
 40
0.4285714285714285
 40
0.4285714285714285
 40
0.4285714285714285
 40
0.4285714285714285
 40
0.5714285714285714
 40
0.5714285714285714
 40
0.5714285714285714
 40
0.5714285714285714
 40
0.7142857142857143
 40
0.7142857142857143
 40
0.7142857142857143
 40
0.7142857142857143
 40
1.0
 40
1.0
 40
1.0
 40
1.0
 10
-157.397
 20
-46.3083
 30
0.0
 10
-156.647
 20
-51.504
 30
0.0
 10
-158.0562
 20
-56.7801
 30
0.0
 10
-161.2962
 20
-60.9101
 30
0.0
 10
-161.2962
 20
-60.9101
 30
0.0
 10
-160.6851
 20
-60.9921
 30
0.0
 10
-160.0731
 20
-60.7641
 30
0.0
 10
-159.6645
 20
-60.3019
 30
0.0
 10
-159.6645
 20
-60.3019
 30
0.0
 10
-159.4185
 20
-59.0557
 30
0.0
 10
-158.3609
 20
-58.1344
 30
0.0
 10
-157.0927
 20
-58.0619
 30
0.0
 10
-157.0927
 20
-58.0619
 30
0.0
 10
-156.8387
 20
-57.4029
 30
0.0
 10
-156.5336
 20
-56.7648
 30
0.0
 10
-156.1799
 20
-56.1535
 30
0.0
 10
-156.1799
 20
-56.1535
 30
0.0
 10
-155.663
 20
-55.2671
 30
0.0
 10
-155.128
 20
-54.3915
 30
0.0
 10
-154.5761
 20
-53.5266
 30
0.0
 10
-154.5761
 20
-53.5266
 30
0.0
 10
-153.5281
 20
-50.7529
 30
0.0
 10
-154.7464
 20
-47.6365
 30
0.0
 10
-157.397
 20
-46.3083
 30
0.0
  0
SPLINE
  5
57
330
1F
100
AcDbEntity
  8
layer 1
 62
     7
370
     9
100
AcDbSpline
210
0.0
220
0.0
230
1.0
 70
    11
 71
     3
 72
    20
 73
    16
 74
     0
 42
0.0000000001
 43
0.0000000001
 12
1.0
 22
0.0
 32
0.0
 13
1.0
 23
0.0
 33
0.0
 40
0.0
 40
0.0
 40
0.0
 40
0.0
 40
0.2
 40
0.2
 40
0.2
 40
0.2
 40
0.4
 40
0.4
 40
0.4
 40
0.4
 40
0.6
 40
0.6
 40
0.6
 40
0.6
 40
1.0
 40
1.0
 40
1.0
 40
1.0
 10
-155.0464
 20
-75.9268
 30
0.0
 10
-151.9913
 20
-75.9268
 30
0.0
 10
-149.515
 20
-78.0317
 30
0.0
 10
-149.515
 20
-80.6281
 30
0.0
 10
-149.515
 20
-80.6281
 30
0.0
 10
-149.515
 20
-83.2248
 30
0.0
 10
-151.9913
 20
-85.3295
 30
0.0
 10
-155.0464
 20
-85.3295
 30
0.0
 10
-155.0464
 20
-85.3295
 30
0.0
 10
-158.1014
 20
-85.3295
 30
0.0
 10
-160.5778
 20
-83.2248
 30
0.0
 10
-160.5778
 20
-80.6281
 30
0.0
 10
-160.5778
 20
-80.6281
 30
0.0
 10
-160.5778
 20
-78.0317
 30
0.0
 10
-158.1014
 20
-75.9268
 30
0.0
 10
-155.0464
 20
-75.9268
 30
0.0
  0
SPLINE
  5
58
330
1F
100
AcDbEntity
  8
layer 1
 62
     7
370
     9
100
AcDbSpline
210
0.0
220
0.0
230
1.0
 70
    11
 71
     3
 72
   120
 73
   116
 74
     0
 42
0.0000000001
 43
0.0000000001
 12
1.0
 22
0.0
 32
0.0
 13
1.0
 23
0.0
 33
0.0
 40
0.0
 40
0.0
 40
0.0
 40
0.0
 40
0.0333333333333333
 40
0.0333333333333333
 40
0.0333333333333333
 40
0.0333333333333333
 40
0.0666666666666667
 40
0.0666666666666667
 40
0.0666666666666667
 40
0.0666666666666667
 40
0.1
 40
0.1
 40
0.1
 40
0.1
 40
0.1333333333333333
 40
0.1333333333333333
 40
0.1333333333333333
 40
0.1333333333333333
 40
0.1666666666666667
 40
0.1666666666666667
 40
0.1666666666666667
 40
0.1666666666666667
 40
0.2
 40
0.2
 40
0.2
 40
0.2
 40
0.2333333333333333
 40
0.2333333333333333
 40
0.2333333333333333
 40
0.2333333333333333
 40
0.2666666666666667
 40
0.2666666666666667
 40
0.2666666666666667
 40
0.2666666666666667
 40
0.3
 40
0.3
 40
0.3
 40
0.3
 40
0.3333333333333333
 40
0.3333333333333333
 40
0.3333333333333333
 40
0.3333333333333333
 40
0.3666666666666666
 40
0.3666666666666666
 40
0.3666666666666666
 40
0.3666666666666666
 40
0.4
 40
0.4
 40
0.4
 40
0.4
 40
0.4333333333333333
 40
0.4333333333333333
 40
0.4333333333333333
 40
0.4333333333333333
 40
0.4666666666666667
 40
0.4666666666666667
 40
0.4666666666666667
 40
0.4666666666666667
 40
0.5
 40
0.5
 40
0.5
 40
0.5
 40
0.5333333333333333
 40
0.5333333333333333
 40
0.5333333333333333
 40
0.5333333333333333
 40
0.5666666666666667
 40
0.5666666666666667
 40
0.5666666666666667
 40
0.5666666666666667
 40
0.6
 40
0.6
 40
0.6
 40
0.6
 40
0.6333333333333333
 40
0.6333333333333333
 40
0.6333333333333333
 40
0.6333333333333333
 40
0.6666666666666666
 40
0.6666666666666666
 40
0.6666666666666666
 40
0.6666666666666666
 40
0.7
 40
0.7
 40
0.7
 40
0.7
 40
0.7333333333333333
 40
0.7333333333333333
 40
0.7333333333333333
 40
0.7333333333333333
 40
0.7666666666666667
 40
0.7666666666666667
 40
0.7666666666666667
 40
0.7666666666666667
 40
0.8
 40
0.8
 40
0.8
 40
0.8
 40
0.8333333333333334
 40
0.8333333333333334
 40
0.8333333333333334
 40
0.8333333333333334
 40
0.8666666666666667
 40
0.8666666666666667
 40
0.8666666666666667
 40
0.8666666666666667
 40
0.9
 40
0.9
 40
0.9
 40
0.9
 40
0.9333333333333333
 40
0.9333333333333333
 40
0.9333333333333333
 40
0.9333333333333333
 40
1.0
 40
1.0
 40
1.0
 40
1.0
 10
-145.8925
 20
-76.7289
 30
0.0
 10
-145.8905
 20
-76.745
 30
0.0
 10
-145.8882
 20
-76.761
 30
0.0
 10
-145.8867
 20
-76.7772
 30
0.0
 10
-145.8867
 20
-76.7772
 30
0.0
 10
-147.5882
 20
-74.2637
 30
0.0
 10
-150.9525
 20
-72.5525
 30
0.0
 10
-154.8249
 20
-72.5525
 30
0.0
 10
-154.8249
 20
-72.5525
 30
0.0
 10
-160.4148
 20
-72.5525
 30
0.0
 10
-164.9468
 20
-76.1184
 30
0.0
 10
-164.9468
 20
-80.5173
 30
0.0
 10
-164.9468
 20
-80.5173
 30
0.0
 10
-164.9468
 20
-84.8634
 30
0.0
 10
-160.5229
 20
-88.3963
 30
0.0
 10
-155.0188
 20
-88.4801
 30
0.0
 10
-155.0188
 20
-88.4801
 30
0.0
 10
-154.9782
 20
-88.7412
 30
0.0
 10
-155.0713
 20
-89.0054
 30
0.0
 10
-155.2674
 20
-89.1828
 30
0.0
 10
-155.2674
 20
-89.1828
 30
0.0
 10
-157.3928
 20
-90.7028
 30
0.0
 10
-158.1493
 20
-93.5122
 30
0.0
 10
-157.0744
 20
-95.8938
 30
0.0
 10
-157.0744
 20
-95.8938
 30
0.0
 10
-156.0244
 20
-98.2732
 30
0.0
 10
-153.7335
 20
-99.867
 30
0.0
 10
-151.1376
 20
-100.0235
 30
0.0
 10
-151.1376
 20
-100.0235
 30
0.0
 10
-150.9927
 20
-100.0748
 30
0.0
 10
-150.8931
 20
-100.2081
 30
0.0
 10
-150.885
 20
-100.3616
 30
0.0
 10
-150.885
 20
-100.3616
 30
0.0
 10
-150.877
 20
-100.5148
 30
0.0
 10
-150.9621
 20
-100.658
 30
0.0
 10
-151.1008
 20
-100.7242
 30
0.0
 10
-151.1008
 20
-100.7242
 30
0.0
 10
-154.3707
 20
-101.0378
 30
0.0
 10
-157.6205
 20
-99.9475
 30
0.0
 10
-160.0397
 20
-97.725
 30
0.0
 10
-160.0397
 20
-97.725
 30
0.0
 10
-162.459
 20
-95.5026
 30
0.0
 10
-163.8205
 20
-92.3573
 30
0.0
 10
-163.7852
 20
-89.0722
 30
0.0
 10
-163.7852
 20
-89.0722
 30
0.0
 10
-166.5318
 20
-92.5903
 30
0.0
 10
-165.9669
 20
-97.6577
 30
0.0
 10
-162.513
 20
-100.4844
 30
0.0
 10
-162.513
 20
-100.4844
 30
0.0
 10
-162.4819
 20
-100.5711
 30
0.0
 10
-162.5069
 20
-100.6681
 30
0.0
 10
-162.5759
 20
-100.729
 30
0.0
 10
-162.5759
 20
-100.729
 30
0.0
 10
-162.6452
 20
-100.79
 30
0.0
 10
-162.7445
 20
-100.8027
 30
0.0
 10
-162.8265
 20
-100.7611
 30
0.0
 10
-162.8265
 20
-100.7611
 30
0.0
 10
-167.4998
 20
-98.3301
 30
0.0
 10
-170.4242
 20
-93.4921
 30
0.0
 10
-170.4039
 20
-88.2242
 30
0.0
 10
-170.4039
 20
-88.2242
 30
0.0
 10
-171.2875
 20
-88.7302
 30
0.0
 10
-172.0394
 20
-89.4376
 30
0.0
 10
-172.5977
 20
-90.2891
 30
0.0
 10
-172.5977
 20
-90.2891
 30
0.0
 10
-172.6594
 20
-90.3196
 30
0.0
 10
-172.7322
 20
-90.3148
 30
0.0
 10
-172.7893
 20
-90.2768
 30
0.0
 10
-172.7893
 20
-90.2768
 30
0.0
 10
-172.8465
 20
-90.2388
 30
0.0
 10
-172.879
 20
-90.1731
 30
0.0
 10
-172.8744
 20
-90.1046
 30
0.0
 10
-172.8744
 20
-90.1046
 30
0.0
 10
-173.0779
 20
-89.042
 30
0.0
 10
-173.1461
 20
-87.958
 30
0.0
 10
-173.0771
 20
-86.8784
 30
0.0
 10
-173.0771
 20
-86.8784
 30
0.0
 10
-173.0086
 20
-84.7408
 30
0.0
 10
-172.2736
 20
-82.6781
 30
0.0
 10
-170.9756
 20
-80.9785
 30
0.0
 10
-170.9756
 20
-80.9785
 30
0.0
 10
-170.9073
 20
-80.8929
 30
0.0
 10
-170.7974
 20
-80.8517
 30
0.0
 10
-170.6897
 20
-80.8708
 30
0.0
 10
-170.6897
 20
-80.8708
 30
0.0
 10
-170.582
 20
-80.8901
 30
0.0
 10
-170.4935
 20
-80.9667
 30
0.0
 10
-170.4594
 20
-81.0708
 30
0.0
 10
-170.4594
 20
-81.0708
 30
0.0
 10
-169.9045
 20
-82.1212
 30
0.0
 10
-168.6832
 20
-82.6313
 30
0.0
 10
-167.5462
 20
-82.2875
 30
0.0
 10
-167.5462
 20
-82.2875
 30
0.0
 10
-166.365
 20
-82.1145
 30
0.0
 10
-165.5481
 20
-81.0166
 30
0.0
 10
-165.7209
 20
-79.8354
 30
0.0
 10
-165.7209
 20
-79.8354
 30
0.0
 10
-165.8941
 20
-78.6544
 30
0.0
 10
-166.9921
 20
-77.8372
 30
0.0
 10
-168.1731
 20
-78.0103
 30
0.0
 10
-168.1731
 20
-78.0103
 30
0.0
 10
-169.8485
 20
-78.3595
 30
0.0
 10
-171.3411
 20
-79.3024
 30
0.0
 10
-172.3767
 20
-80.6651
 30
0.0
 10
-172.3767
 20
-80.6651
 30
0.0
 10
-171.0837
 20
-77.6527
 30
0.0
 10
-169.302
 20
-74.8745
 30
0.0
 10
-167.1035
 20
-72.4422
 30
0.0
 10
-167.1035
 20
-72.4422
 30
0.0
 10
-163.6795
 20
-68.8495
 30
0.0
 10
-158.7537
 20
-67.0948
 30
0.0
 10
-153.8293
 20
-67.7134
 30
0.0
 10
-153.8293
 20
-67.7134
 30
0.0
 10
-149.5407
 20
-68.7331
 30
0.0
 10
-146.36
 20
-72.3453
 30
0.0
 10
-145.8925
 20
-76.7289
 30
0.0
  0
SPLINE
  5
59
330
1F
100
AcDbEntity
  8
layer 1
 62
     7
370
     9
100
AcDbSpline
210
0.0
220
0.0
230
1.0
 70
    11
 71
     3
 72
    36
 73
    32
 74
     0
 42
0.0000000001
 43
0.0000000001
 12
1.0
 22
0.0
 32
0.0
 13
1.0
 23
0.0
 33
0.0
 40
0.0
 40
0.0
 40
0.0
 40
0.0
 40
0.1111111111111111
 40
0.1111111111111111
 40
0.1111111111111111
 40
0.1111111111111111
 40
0.2222222222222222
 40
0.2222222222222222
 40
0.2222222222222222
 40
0.2222222222222222
 40
0.3333333333333333
 40
0.3333333333333333
 40
0.3333333333333333
 40
0.3333333333333333
 40
0.4444444444444444
 40
0.4444444444444444
 40
0.4444444444444444
 40
0.4444444444444444
 40
0.5555555555555556
 40
0.5555555555555556
 40
0.5555555555555556
 40
0.5555555555555556
 40
0.6666666666666666
 40
0.6666666666666666
 40
0.6666666666666666
 40
0.6666666666666666
 40
0.7777777777777778
 40
0.7777777777777778
 40
0.7777777777777778
 40
0.7777777777777778
 40
1.0
 40
1.0
 40
1.0
 40
1.0
 10
-146.941
 20
-86.6081
 30
0.0
 10
-148.3354
 20
-87.9021
 30
0.0
 10
-149.9588
 20
-88.9252
 30
0.0
 10
-151.7277
 20
-89.6254
 30
0.0
 10
-151.7277
 20
-89.6254
 30
0.0
 10
-152.6923
 20
-90.3686
 30
0.0
 10
-153.0778
 20
-91.643
 30
0.0
 10
-152.6865
 20
-92.7964
 30
0.0
 10
-152.6865
 20
-92.7964
 30
0.0
 10
-152.2634
 20
-94.8463
 30
0.0
 10
-150.2853
 20
-96.1868
 30
0.0
 10
-148.2247
 20
-95.82
 30
0.0
 10
-148.2247
 20
-95.82
 30
0.0
 10
-144.711
 20
-95.3165
 30
0.0
 10
-141.5138
 20
-93.5139
 30
0.0
 10
-139.2643
 20
-90.7683
 30
0.0
 10
-139.2643
 20
-90.7683
 30
0.0
 10
-139.2437
 20
-90.744
 30
0.0
 10
-139.2233
 20
-90.7195
 30
0.0
 10
-139.203
 20
-90.6949
 30
0.0
 10
-139.203
 20
-90.6949
 30
0.0
 10
-140.066
 20
-91.2893
 30
0.0
 10
-141.2218
 20
-91.6528
 30
0.0
 10
-142.491
 20
-91.6528
 30
0.0
 10
-142.491
 20
-91.6528
 30
0.0
 10
-145.1689
 20
-91.6528
 30
0.0
 10
-147.3398
 20
-90.0352
 30
0.0
 10
-147.3398
 20
-88.0398
 30
0.0
 10
-147.3398
 20
-88.0398
 30
0.0
 10
-147.3398
 20
-87.5336
 30
0.0
 10
-147.2004
 20
-87.0518
 30
0.0
 10
-146.941
 20
-86.6081
 30
0.0
  0
SPLINE
  5
5A
330
1F
100
AcDbEntity
  8
layer 1
 62
     7
370
     9
100
AcDbSpline
210
0.0
220
0.0
230
1.0
 70
    11
 71
     3
 72
    32
 73
    28
 74
     0
 42
0.0000000001
 43
0.0000000001
 12
1.0
 22
0.0
 32
0.0
 13
1.0
 23
0.0
 33
0.0
 40
0.0
 40
0.0
 40
0.0
 40
0.0
 40
0.125
 40
0.125
 40
0.125
 40
0.125
 40
0.25
 40
0.25
 40
0.25
 40
0.25
 40
0.375
 40
0.375
 40
0.375
 40
0.375
 40
0.5
 40
0.5
 40
0.5
 40
0.5
 40
0.625
 40
0.625
 40
0.625
 40
0.625
 40
0.75
 40
0.75
 40
0.75
 40
0.75
 40
1.0
 40
1.0
 40
1.0
 40
1.0
 10
-145.8618
 20
-85.4429
 30
0.0
 10
-144.9888
 20
-84.8136
 30
0.0
 10
-143.8005
 20
-84.4267
 30
0.0
 10
-142.491
 20
-84.4267
 30
0.0
 10
-142.491
 20
-84.4267
 30
0.0
 10
-139.8131
 20
-84.4267
 30
0.0
 10
-137.6421
 20
-86.0443
 30
0.0
 10
-137.6421
 20
-88.0398
 30
0.0
 10
-137.6421
 20
-88.0398
 30
0.0
 10
-137.6421
 20
-88.2083
 30
0.0
 10
-137.6575
 20
-88.3742
 30
0.0
 10
-137.6882
 20
-88.5372
 30
0.0
 10
-137.6882
 20
-88.5372
 30
0.0
 10
-136.1035
 20
-85.8335
 30
0.0
 10
-135.3444
 20
-82.7255
 30
0.0
 10
-135.5035
 20
-79.5958
 30
0.0
 10
-135.5035
 20
-79.5958
 30
0.0
 10
-136.5542
 20
-80.562
 30
0.0
 10
-137.9579
 20
-81.0516
 30
0.0
 10
-139.3819
 20
-80.9485
 30
0.0
 10
-139.3819
 20
-80.9485
 30
0.0
 10
-140.8061
 20
-80.8458
 30
0.0
 10
-142.1243
 20
-80.1595
 30
0.0
 10
-143.0257
 20
-79.052
 30
0.0
 10
-143.0257
 20
-79.052
 30
0.0
 10
-143.4161
 20
-81.3875
 30
0.0
 10
-144.3918
 20
-83.5862
 30
0.0
 10
-145.8618
 20
-85.4429
 30
0.0
  0
SPLINE
  5
5B
330
1F
100
AcDbEntity
  8
layer 1
 62
     7
370
     9
100
AcDbSpline
210
0.0
220
0.0
230
1.0
 70
    11
 71
     3
 72
    44
 73
    40
 74
     0
 42
0.0000000001
 43
0.0000000001
 12
1.0
 22
0.0
 32
0.0
 13
1.0
 23
0.0
 33
0.0
 40
0.0
 40
0.0
 40
0.0
 40
0.0
 40
0.0909090909090909
 40
0.0909090909090909
 40
0.0909090909090909
 40
0.0909090909090909
 40
0.1818181818181818
 40
0.1818181818181818
 40
0.1818181818181818
 40
0.1818181818181818
 40
0.2727272727272727
 40
0.2727272727272727
 40
0.2727272727272727
 40
0.2727272727272727
 40
0.3636363636363636
 40
0.3636363636363636
 40
0.3636363636363636
 40
0.3636363636363636
 40
0.4545454545454545
 40
0.4545454545454545
 40
0.4545454545454545
 40
0.4545454545454545
 40
0.5454545454545454
 40
0.5454545454545454
 40
0.5454545454545454
 40
0.5454545454545454
 40
0.6363636363636364
 40
0.6363636363636364
 40
0.6363636363636364
 40
0.6363636363636364
 40
0.7272727272727273
 40
0.7272727272727273
 40
0.7272727272727273
 40
0.7272727272727273
 40
0.8181818181818182
 40
0.8181818181818182
 40
0.8181818181818182
 40
0.8181818181818182
 40
1.0
 40
1.0
 40
1.0
 40
1.0
 10
-141.827
 20
-43.4603
 30
0.0
 10
-142.3626
 20
-44.8567
 30
0.0
 10
-142.107
 20
-46.4333
 30
0.0
 10
-141.1575
 20
-47.5891
 30
0.0
 10
-141.1575
 20
-47.5891
 30
0.0
 10
-140.2078
 20
-48.7449
 30
0.0
 10
-138.7106
 20
-49.3013
 30
0.0
 10
-137.2363
 20
-49.0464
 30
0.0
 10
-137.2363
 20
-49.0464
 30
0.0
 10
-137.7645
 20
-50.8203
 30
0.0
 10
-137.9522
 20
-52.6782
 30
0.0
 10
-137.7893
 20
-54.5222
 30
0.0
 10
-137.7893
 20
-54.5222
 30
0.0
 10
-141.8488
 20
-48.6977
 30
0.0
 10
-146.816
 20
-43.5625
 30
0.0
 10
-152.5018
 20
-39.3119
 30
0.0
 10
-152.5018
 20
-39.3119
 30
0.0
 10
-152.5804
 20
-39.2479
 30
0.0
 10
-152.621
 20
-39.1483
 30
0.0
 10
-152.6099
 20
-39.0479
 30
0.0
 10
-152.6099
 20
-39.0479
 30
0.0
 10
-152.5988
 20
-38.9471
 30
0.0
 10
-152.5371
 20
-38.8593
 30
0.0
 10
-152.4466
 20
-38.8142
 30
0.0
 10
-152.4466
 20
-38.8142
 30
0.0
 10
-146.4458
 20
-41.2789
 30
0.0
 10
-139.7687
 20
-41.553
 30
0.0
 10
-133.5858
 20
-39.5882
 30
0.0
 10
-133.5858
 20
-39.5882
 30
0.0
 10
-133.4597
 20
-39.5258
 30
0.0
 10
-133.3099
 20
-39.5369
 30
0.0
 10
-133.1941
 20
-39.6177
 30
0.0
 10
-133.1941
 20
-39.6177
 30
0.0
 10
-133.0792
 20
-39.6982
 30
0.0
 10
-133.0172
 20
-39.8358
 30
0.0
 10
-133.0328
 20
-39.9756
 30
0.0
 10
-133.0328
 20
-39.9756
 30
0.0
 10
-134.5393
 20
-43.3246
 30
0.0
 10
-138.4358
 20
-44.8686
 30
0.0
 10
-141.827
 20
-43.4603
 30
0.0
  0
SPLINE
  5
5C
330
1F
100
AcDbEntity
  8
layer 1
 62
     7
370
     9
100
AcDbSpline
210
0.0
220
0.0
230
1.0
 70
    11
 71
     3
 72
    80
 73
    76
 74
     0
 42
0.0000000001
 43
0.0000000001
 12
1.0
 22
0.0
 32
0.0
 13
1.0
 23
0.0
 33
0.0
 40
0.0
 40
0.0
 40
0.0
 40
0.0
 40
0.05
 40
0.05
 40
0.05
 40
0.05
 40
0.1
 40
0.1
 40
0.1
 40
0.1
 40
0.15
 40
0.15
 40
0.15
 40
0.15
 40
0.2
 40
0.2
 40
0.2
 40
0.2
 40
0.25
 40
0.25
 40
0.25
 40
0.25
 40
0.3
 40
0.3
 40
0.3
 40
0.3
 40
0.35
 40
0.35
 40
0.35
 40
0.35
 40
0.4
 40
0.4
 40
0.4
 40
0.4
 40
0.45
 40
0.45
 40
0.45
 40
0.45
 40
0.5
 40
0.5
 40
0.5
 40
0.5
 40
0.55
 40
0.55
 40
0.55
 40
0.55
 40
0.6
 40
0.6
 40
0.6
 40
0.6
 40
0.65
 40
0.65
 40
0.65
 40
0.65
 40
0.7
 40
0.7
 40
0.7
 40
0.7
 40
0.75
 40
0.75
 40
0.75
 40
0.75
 40
0.8
 40
0.8
 40
0.8
 40
0.8
 40
0.85
 40
0.85
 40
0.85
 40
0.85
 40
0.9
 40
0.9
 40
0.9
 40
0.9
 40
1.0
 40
1.0
 40
1.0
 40
1.0
 10
-131.0141
 20
-89.3949
 30
0.0
 10
-131.1137
 20
-89.4987
 30
0.0
 10
-131.2716
 20
-89.5211
 30
0.0
 10
-131.3961
 20
-89.4491
 30
0.0
 10
-131.3961
 20
-89.4491
 30
0.0
 10
-131.5207
 20
-89.3768
 30
0.0
 10
-131.58
 20
-89.2288
 30
0.0
 10
-131.5394
 20
-89.0906
 30
0.0
 10
-131.5394
 20
-89.0906
 30
0.0
 10
-129.4908
 20
-80.1256
 30
0.0
 10
-130.3829
 20
-70.7392
 30
0.0
 10
-134.0836
 20
-62.3207
 30
0.0
 10
-134.0836
 20
-62.3207
 30
0.0
 10
-131.0509
 20
-62.9749
 30
0.0
 10
-128.4611
 20
-64.9339
 30
0.0
 10
-127.006
 20
-67.6738
 30
0.0
 10
-127.006
 20
-67.6738
 30
0.0
 10
-125.5505
 20
-70.4139
 30
0.0
 10
-125.3781
 20
-73.6562
 30
0.0
 10
-126.5339
 20
-76.5354
 30
0.0
 10
-126.5339
 20
-76.5354
 30
0.0
 10
-125.1746
 20
-76.604
 30
0.0
 10
-123.846
 20
-76.1146
 30
0.0
 10
-122.8557
 20
-75.1803
 30
0.0
 10
-122.8557
 20
-75.1803
 30
0.0
 10
-122.1208
 20
-77.8274
 30
0.0
 10
-123.1834
 20
-80.6461
 30
0.0
 10
-125.483
 20
-82.1493
 30
0.0
 10
-125.483
 20
-82.1493
 30
0.0
 10
-124.898
 20
-83.1406
 30
0.0
 10
-123.841
 20
-83.7581
 30
0.0
 10
-122.6898
 20
-83.7809
 30
0.0
 10
-122.6898
 20
-83.7809
 30
0.0
 10
-123.3102
 20
-85.617
 30
0.0
 10
-124.7212
 20
-87.0782
 30
0.0
 10
-126.5339
 20
-87.7631
 30
0.0
 10
-126.5339
 20
-87.7631
 30
0.0
 10
-122.5756
 20
-89.0841
 30
0.0
 10
-118.2801
 20
-87.0461
 30
0.0
 10
-116.7994
 20
-83.1448
 30
0.0
 10
-116.7994
 20
-83.1448
 30
0.0
 10
-116.7066
 20
-83.0021
 30
0.0
 10
-116.5269
 20
-82.943
 30
0.0
 10
-116.3675
 20
-83.0027
 30
0.0
 10
-116.3675
 20
-83.0027
 30
0.0
 10
-116.2081
 20
-83.0626
 30
0.0
 10
-116.1115
 20
-83.2252
 30
0.0
 10
-116.1357
 20
-83.3937
 30
0.0
 10
-116.1357
 20
-83.3937
 30
0.0
 10
-115.5987
 20
-87.4672
 30
0.0
 10
-116.7924
 20
-91.5793
 30
0.0
 10
-119.4267
 20
-94.7323
 30
0.0
 10
-119.4267
 20
-94.7323
 30
0.0
 10
-120.3269
 20
-95.5307
 30
0.0
 10
-121.5229
 20
-95.9111
 30
0.0
 10
-122.719
 20
-95.7794
 30
0.0
 10
-122.719
 20
-95.7794
 30
0.0
 10
-123.915
 20
-95.6477
 30
0.0
 10
-124.9994
 20
-95.0162
 30
0.0
 10
-125.7042
 20
-94.0409
 30
0.0
 10
-125.7042
 20
-94.0409
 30
0.0
 10
-125.9407
 20
-95.6399
 30
0.0
 10
-125.3214
 20
-97.2456
 30
0.0
 10
-124.0728
 20
-98.2721
 30
0.0
 10
-124.0728
 20
-98.2721
 30
0.0
 10
-126.0295
 20
-98.1273
 30
0.0
 10
-127.6429
 20
-96.6811
 30
0.0
 10
-128.0001
 20
-94.7518
 30
0.0
 10
-128.0001
 20
-94.7518
 30
0.0
 10
-128.3576
 20
-92.8224
 30
0.0
 10
-127.3689
 20
-90.8946
 30
0.0
 10
-125.5934
 20
-90.0586
 30
0.0
 10
-125.5934
 20
-90.0586
 30
0.0
 10
-127.0056
 20
-88.5623
 30
0.0
 10
-129.2826
 20
-88.2837
 30
0.0
 10
-131.0141
 20
-89.3949
 30
0.0
  0
SPLINE
  5
5D
330
1F
100
AcDbEntity
  8
layer 1
 62
     7
370
     9
100
AcDbSpline
210
0.0
220
0.0
230
1.0
 70
    11
 71
     3
 72
    96
 73
    92
 74
     0
 42
0.0000000001
 43
0.0000000001
 12
1.0
 22
0.0
 32
0.0
 13
1.0
 23
0.0
 33
0.0
 40
0.0
 40
0.0
 40
0.0
 40
0.0
 40
0.0416666666666667
 40
0.0416666666666667
 40
0.0416666666666667
 40
0.0416666666666667
 40
0.0833333333333333
 40
0.0833333333333333
 40
0.0833333333333333
 40
0.0833333333333333
 40
0.125
 40
0.125
 40
0.125
 40
0.125
 40
0.1666666666666667
 40
0.1666666666666667
 40
0.1666666666666667
 40
0.1666666666666667
 40
0.2083333333333333
 40
0.2083333333333333
 40
0.2083333333333333
 40
0.2083333333333333
 40
0.25
 40
0.25
 40
0.25
 40
0.25
 40
0.2916666666666667
 40
0.2916666666666667
 40
0.2916666666666667
 40
0.2916666666666667
 40
0.3333333333333333
 40
0.3333333333333333
 40
0.3333333333333333
 40
0.3333333333333333
 40
0.375
 40
0.375
 40
0.375
 40
0.375
 40
0.4166666666666667
 40
0.4166666666666667
 40
0.4166666666666667
 40
0.4166666666666667
 40
0.4583333333333333
 40
0.4583333333333333
 40
0.4583333333333333
 40
0.4583333333333333
 40
0.5
 40
0.5
 40
0.5
 40
0.5
 40
0.5416666666666666
 40
0.5416666666666666
 40
0.5416666666666666
 40
0.5416666666666666
 40
0.5833333333333334
 40
0.5833333333333334
 40
0.5833333333333334
 40
0.5833333333333334
 40
0.625
 40
0.625
 40
0.625
 40
0.625
 40
0.6666666666666666
 40
0.6666666666666666
 40
0.6666666666666666
 40
0.6666666666666666
 40
0.7083333333333334
 40
0.7083333333333334
 40
0.7083333333333334
 40
0.7083333333333334
 40
0.75
 40
0.75
 40
0.75
 40
0.75
 40
0.7916666666666666
 40
0.7916666666666666
 40
0.7916666666666666
 40
0.7916666666666666
 40
0.8333333333333334
 40
0.8333333333333334
 40
0.8333333333333334
 40
0.8333333333333334
 40
0.875
 40
0.875
 40
0.875
 40
0.875
 40
0.9166666666666666
 40
0.9166666666666666
 40
0.9166666666666666
 40
0.9166666666666666
 40
1.0
 40
1.0
 40
1.0
 40
1.0
 10
-123.4643
 20
-53.9136
 30
0.0
 10
-122.1725
 20
-55.7236
 30
0.0
 10
-122.1284
 20
-58.1421
 30
0.0
 10
-123.3536
 20
-59.9976
 30
0.0
 10
-123.3536
 20
-59.9976
 30
0.0
 10
-121.3152
 20
-59.6125
 30
0.0
 10
-119.7245
 20
-58.0122
 30
0.0
 10
-119.3504
 20
-55.9719
 30
0.0
 10
-119.3504
 20
-55.9719
 30
0.0
 10
-118.9768
 20
-53.9317
 30
0.0
 10
-119.8974
 20
-51.8715
 30
0.0
 10
-121.6666
 20
-50.7885
 30
0.0
 10
-121.6666
 20
-50.7885
 30
0.0
 10
-120.1188
 20
-50.7007
 30
0.0
 10
-118.5821
 20
-51.097
 30
0.0
 10
-117.2696
 20
-51.9225
 30
0.0
 10
-117.2696
 20
-51.9225
 30
0.0
 10
-115.3197
 20
-53.4323
 30
0.0
 10
-114.2678
 20
-55.827
 30
0.0
 10
-114.4744
 20
-58.2846
 30
0.0
 10
-114.4744
 20
-58.2846
 30
0.0
 10
-114.6809
 20
-60.7418
 30
0.0
 10
-116.1184
 20
-62.9273
 30
0.0
 10
-118.2928
 20
-64.0907
 30
0.0
 10
-118.2928
 20
-64.0907
 30
0.0
 10
-117.147
 20
-64.9871
 30
0.0
 10
-116.3778
 20
-66.2789
 30
0.0
 10
-116.1357
 20
-67.7134
 30
0.0
 10
-116.1357
 20
-67.7134
 30
0.0
 10
-117.5589
 20
-67.5431
 30
0.0
 10
-118.9967
 20
-67.5336
 30
0.0
 10
-120.4224
 20
-67.6858
 30
0.0
 10
-120.4224
 20
-67.6858
 30
0.0
 10
-115.9104
 20
-72.4622
 30
0.0
 10
-113.278
 20
-78.7092
 30
0.0
 10
-113.0108
 20
-85.2744
 30
0.0
 10
-113.0108
 20
-85.2744
 30
0.0
 10
-111.2098
 20
-84.6489
 30
0.0
 10
-109.2185
 20
-84.9157
 30
0.0
 10
-107.6455
 20
-85.9933
 30
0.0
 10
-107.6455
 20
-85.9933
 30
0.0
 10
-108.1728
 20
-81.9929
 30
0.0
 10
-109.9095
 20
-78.249
 30
0.0
 10
-112.6235
 20
-75.263
 30
0.0
 10
-112.6235
 20
-75.263
 30
0.0
 10
-110.8361
 20
-74.0605
 30
0.0
 10
-108.4303
 20
-74.3943
 30
0.0
 10
-107.0373
 20
-76.0376
 30
0.0
 10
-107.0373
 20
-76.0376
 30
0.0
 10
-106.7204
 20
-70.1452
 30
0.0
 10
-108.6139
 20
-64.3463
 30
0.0
 10
-112.3471
 20
-59.7765
 30
0.0
 10
-112.3471
 20
-59.7765
 30
0.0
 10
-111.1477
 20
-59.1825
 30
0.0
 10
-109.7279
 20
-59.2453
 30
0.0
 10
-108.5859
 20
-59.9424
 30
0.0
 10
-108.5859
 20
-59.9424
 30
0.0
 10
-108.4797
 20
-55.0231
 30
0.0
 10
-110.9557
 20
-50.4069
 30
0.0
 10
-115.1125
 20
-47.7742
 30
0.0
 10
-115.1125
 20
-47.7742
 30
0.0
 10
-113.972
 20
-47.1258
 30
0.0
 10
-112.6553
 20
-46.8548
 30
0.0
 10
-111.3515
 20
-47.0001
 30
0.0
 10
-111.3515
 20
-47.0001
 30
0.0
 10
-112.6691
 20
-45.0042
 30
0.0
 10
-114.7653
 20
-43.655
 30
0.0
 10
-117.127
 20
-43.2813
 30
0.0
 10
-117.127
 20
-43.2813
 30
0.0
 10
-119.4891
 20
-42.9076
 30
0.0
 10
-121.8993
 20
-43.5446
 30
0.0
 10
-123.7685
 20
-45.0364
 30
0.0
 10
-123.7685
 20
-45.0364
 30
0.0
 10
-123.6467
 20
-43.5771
 30
0.0
 10
-122.9385
 20
-42.2298
 30
0.0
 10
-121.805
 20
-41.3032
 30
0.0
 10
-121.805
 20
-41.3032
 30
0.0
 10
-124.2269
 20
-41.2204
 30
0.0
 10
-126.5799
 20
-42.1174
 30
0.0
 10
-128.3315
 20
-43.7922
 30
0.0
 10
-128.3315
 20
-43.7922
 30
0.0
 10
-130.6208
 20
-45.9895
 30
0.0
 10
-131.659
 20
-49.1867
 30
0.0
 10
-131.0968
 20
-52.3095
 30
0.0
 10
-131.0968
 20
-52.3095
 30
0.0
 10
-130.8182
 20
-54.0141
 30
0.0
 10
-129.5203
 20
-55.3714
 30
0.0
 10
-127.8303
 20
-55.7266
 30
0.0
 10
-127.8303
 20
-55.7266
 30
0.0
 10
-126.1403
 20
-56.0819
 30
0.0
 10
-124.4054
 20
-55.3614
 30
0.0
 10
-123.4643
 20
-53.9136
 30
0.0
  0
SPLINE
  5
5E
330
1F
100
AcDbEntity
  8
layer 1
 62
     7
370
     9
100
AcDbSpline
210
0.0
220
0.0
230
1.0
 70
    11
 71
     3
 72
   112
 73
   108
 74
     0
 42
0.0000000001
 43
0.0000000001
 12
1.0
 22
0.0
 32
0.0
 13
1.0
 23
0.0
 33
0.0
 40
0.0
 40
0.0
 40
0.0
 40
0.0
 40
0.0357142857142857
 40
0.0357142857142857
 40
0.0357142857142857
 40
0.0357142857142857
 40
0.0714285714285714
 40
0.0714285714285714
 40
0.0714285714285714
 40
0.0714285714285714
 40
0.1071428571428571
 40
0.1071428571428571
 40
0.1071428571428571
 40
0.1071428571428571
 40
0.1428571428571428
 40
0.1428571428571428
 40
0.1428571428571428
 40
0.1428571428571428
 40
0.1785714285714286
 40
0.1785714285714286
 40
0.1785714285714286
 40
0.1785714285714286
 40
0.2142857142857143
 40
0.2142857142857143
 40
0.2142857142857143
 40
0.2142857142857143
 40
0.25
 40
0.25
 40
0.25
 40
0.25
 40
0.2857142857142857
 40
0.2857142857142857
 40
0.2857142857142857
 40
0.2857142857142857
 40
0.3214285714285715
 40
0.3214285714285715
 40
0.3214285714285715
 40
0.3214285714285715
 40
0.3571428571428572
 40
0.3571428571428572
 40
0.3571428571428572
 40
0.3571428571428572
 40
0.3928571428571428
 40
0.3928571428571428
 40
0.3928571428571428
 40
0.3928571428571428
 40
0.4285714285714285
 40
0.4285714285714285
 40
0.4285714285714285
 40
0.4285714285714285
 40
0.4642857142857143
 40
0.4642857142857143
 40
0.4642857142857143
 40
0.4642857142857143
 40
0.5
 40
0.5
 40
0.5
 40
0.5
 40
0.5357142857142857
 40
0.5357142857142857
 40
0.5357142857142857
 40
0.5357142857142857
 40
0.5714285714285714
 40
0.5714285714285714
 40
0.5714285714285714
 40
0.5714285714285714
 40
0.6071428571428571
 40
0.6071428571428571
 40
0.6071428571428571
 40
0.6071428571428571
 40
0.6428571428571429
 40
0.6428571428571429
 40
0.6428571428571429
 40
0.6428571428571429
 40
0.6785714285714286
 40
0.6785714285714286
 40
0.6785714285714286
 40
0.6785714285714286
 40
0.7142857142857143
 40
0.7142857142857143
 40
0.7142857142857143
 40
0.7142857142857143
 40
0.75
 40
0.75
 40
0.75
 40
0.75
 40
0.7857142857142857
 40
0.7857142857142857
 40
0.7857142857142857
 40
0.7857142857142857
 40
0.8214285714285714
 40
0.8214285714285714
 40
0.8214285714285714
 40
0.8214285714285714
 40
0.8571428571428571
 40
0.8571428571428571
 40
0.8571428571428571
 40
0.8571428571428571
 40
0.8928571428571429
 40
0.8928571428571429
 40
0.8928571428571429
 40
0.8928571428571429
 40
0.9285714285714286
 40
0.9285714285714286
 40
0.9285714285714286
 40
0.9285714285714286
 40
1.0
 40
1.0
 40
1.0
 40
1.0
 10
-92.7191
 20
-67.8378
 30
0.0
 10
-94.8449
 20
-67.6141
 30
0.0
 10
-96.4355
 20
-65.7846
 30
0.0
 10
-96.3624
 20
-63.6482
 30
0.0
 10
-96.3624
 20
-63.6482
 30
0.0
 10
-96.2589
 20
-62.4402
 30
0.0
 10
-95.829
 20
-61.2836
 30
0.0
 10
-95.1181
 20
-60.3019
 30
0.0
 10
-95.1181
 20
-60.3019
 30
0.0
 10
-94.4984
 20
-59.1407
 30
0.0
 10
-94.4176
 20
-57.7666
 30
0.0
 10
-94.8966
 20
-56.541
 30
0.0
 10
-94.8966
 20
-56.541
 30
0.0
 10
-94.9633
 20
-56.29
 30
0.0
 10
-95.1844
 20
-56.1111
 30
0.0
 10
-95.4434
 20
-56.0988
 30
0.0
 10
-95.4434
 20
-56.0988
 30
0.0
 10
-95.7025
 20
-56.0861
 30
0.0
 10
-95.9401
 20
-56.2425
 30
0.0
 10
-96.0306
 20
-56.4854
 30
0.0
 10
-96.0306
 20
-56.4854
 30
0.0
 10
-95.916
 20
-59.0334
 30
0.0
 10
-97.8079
 20
-61.2285
 30
0.0
 10
-100.3448
 20
-61.491
 30
0.0
 10
-100.3448
 20
-61.491
 30
0.0
 10
-98.6042
 20
-57.0886
 30
0.0
 10
-98.992
 20
-52.129
 30
0.0
 10
-101.3955
 20
-48.0508
 30
0.0
 10
-101.3955
 20
-48.0508
 30
0.0
 10
-104.9929
 20
-41.7058
 30
0.0
 10
-109.5654
 20
-35.9665
 30
0.0
 10
-114.9465
 20
-31.0429
 30
0.0
 10
-114.9465
 20
-31.0429
 30
0.0
 10
-117.2408
 20
-32.7317
 30
0.0
 10
-119.5359
 20
-34.4186
 30
0.0
 10
-121.8326
 20
-36.1037
 30
0.0
 10
-121.8326
 20
-36.1037
 30
0.0
 10
-118.1656
 20
-36.1025
 30
0.0
 10
-114.5928
 20
-37.2644
 30
0.0
 10
-111.6279
 20
-39.4223
 30
0.0
 10
-111.6279
 20
-39.4223
 30
0.0
 10
-108.5008
 20
-42.078
 30
0.0
 10
-106.2298
 20
-45.5997
 30
0.0
 10
-105.1013
 20
-49.5443
 30
0.0
 10
-105.1013
 20
-49.5443
 30
0.0
 10
-102.6444
 20
-57.8811
 30
0.0
 10
-101.7815
 20
-66.6065
 30
0.0
 10
-102.5571
 20
-75.263
 30
0.0
 10
-102.5571
 20
-75.263
 30
0.0
 10
-100.2919
 20
-74.1127
 30
0.0
 10
-97.627
 20
-74.0517
 30
0.0
 10
-95.3116
 20
-75.0972
 30
0.0
 10
-95.3116
 20
-75.0972
 30
0.0
 10
-99.3431
 20
-78.6161
 30
0.0
 10
-101.7022
 20
-83.6734
 30
0.0
 10
-101.8076
 20
-89.0236
 30
0.0
 10
-101.8076
 20
-89.0236
 30
0.0
 10
-101.9129
 20
-94.3737
 30
0.0
 10
-99.7546
 20
-99.5198
 30
0.0
 10
-95.8646
 20
-103.1947
 30
0.0
 10
-95.8646
 20
-103.1947
 30
0.0
 10
-95.7224
 20
-103.2537
 30
0.0
 10
-95.5584
 20
-103.221
 30
0.0
 10
-95.4495
 20
-103.112
 30
0.0
 10
-95.4495
 20
-103.112
 30
0.0
 10
-95.3408
 20
-103.0031
 30
0.0
 10
-95.3078
 20
-102.8393
 30
0.0
 10
-95.3668
 20
-102.697
 30
0.0
 10
-95.3668
 20
-102.697
 30
0.0
 10
-101.0959
 20
-96.633
 30
0.0
 10
-101.655
 20
-87.3351
 30
0.0
 10
-96.6943
 20
-80.6283
 30
0.0
 10
-96.6943
 20
-80.6283
 30
0.0
 10
-94.9805
 20
-78.5815
 30
0.0
 10
-92.8981
 20
-76.8741
 30
0.0
 10
-90.5547
 20
-75.5949
 30
0.0
 10
-90.5547
 20
-75.5949
 30
0.0
 10
-91.8317
 20
-75.3263
 30
0.0
 10
-92.8855
 20
-74.4292
 30
0.0
 10
-93.3545
 20
-73.2117
 30
0.0
 10
-93.3545
 20
-73.2117
 30
0.0
 10
-93.8236
 20
-71.9942
 30
0.0
 10
-93.6442
 20
-70.6223
 30
0.0
 10
-92.8779
 20
-69.5661
 30
0.0
 10
-92.8779
 20
-69.5661
 30
0.0
 10
-91.922
 20
-68.6043
 30
0.0
 10
-91.2932
 20
-67.3657
 30
0.0
 10
-91.0805
 20
-66.0264
 30
0.0
 10
-91.0805
 20
-66.0264
 30
0.0
 10
-91.0637
 20
-65.4286
 30
0.0
 10
-91.1384
 20
-64.8319
 30
0.0
 10
-91.3017
 20
-64.2567
 30
0.0
 10
-91.3017
 20
-64.2567
 30
0.0
 10
-91.376
 20
-64.177
 30
0.0
 10
-91.4833
 20
-64.1368
 30
0.0
 10
-91.5917
 20
-64.1475
 30
0.0
 10
-91.5917
 20
-64.1475
 30
0.0
 10
-91.7002
 20
-64.1586
 30
0.0
 10
-91.7975
 20
-64.2191
 30
0.0
 10
-91.8546
 20
-64.3119
 30
0.0
 10
-91.8546
 20
-64.3119
 30
0.0
 10
-92.2302
 20
-64.8878
 30
0.0
 10
-92.4317
 20
-65.56
 30
0.0
 10
-92.4355
 20
-66.2479
 30
0.0
 10
-92.4355
 20
-66.2479
 30
0.0
 10
-92.4217
 20
-66.7913
 30
0.0
 10
-92.5183
 20
-67.3324
 30
0.0
 10
-92.7191
 20
-67.8378
 30
0.0
  0
SPLINE
  5
5F
330
1F
100
AcDbEntity
  8
layer 1
 62
     7
370
     9
100
AcDbSpline
210
0.0
220
0.0
230
1.0
 70
    11
 71
     3
 72
    40
 73
    36
 74
     0
 42
0.0000000001
 43
0.0000000001
 12
1.0
 22
0.0
 32
0.0
 13
1.0
 23
0.0
 33
0.0
 40
0.0
 40
0.0
 40
0.0
 40
0.0
 40
0.1
 40
0.1
 40
0.1
 40
0.1
 40
0.2
 40
0.2
 40
0.2
 40
0.2
 40
0.3
 40
0.3
 40
0.3
 40
0.3
 40
0.4
 40
0.4
 40
0.4
 40
0.4
 40
0.5
 40
0.5
 40
0.5
 40
0.5
 40
0.6
 40
0.6
 40
0.6
 40
0.6
 40
0.7
 40
0.7
 40
0.7
 40
0.7
 40
0.8
 40
0.8
 40
0.8
 40
0.8
 40
1.0
 40
1.0
 40
1.0
 40
1.0
 10
-87.3469
 20
-95.6725
 30
0.0
 10
-89.6036
 20
-95.1442
 30
0.0
 10
-91.3955
 20
-93.4331
 30
0.0
 10
-92.0278
 20
-91.2033
 30
0.0
 10
-92.0278
 20
-91.2033
 30
0.0
 10
-92.6602
 20
-88.9736
 30
0.0
 10
-92.0324
 20
-86.5764
 30
0.0
 10
-90.3889
 20
-84.9425
 30
0.0
 10
-90.3889
 20
-84.9425
 30
0.0
 10
-86.9131
 20
-82.1925
 30
0.0
 10
-82.0556
 20
-82.0133
 30
0.0
 10
-78.3868
 20
-84.4999
 30
0.0
 10
-78.3868
 20
-84.4999
 30
0.0
 10
-76.552
 20
-86.3629
 30
0.0
 10
-75.588
 20
-88.9134
 30
0.0
 10
-75.7318
 20
-91.5244
 30
0.0
 10
-75.7318
 20
-91.5244
 30
0.0
 10
-73.9845
 20
-87.9172
 30
0.0
 10
-75.1648
 20
-83.574
 30
0.0
 10
-78.4974
 20
-81.3472
 30
0.0
 10
-78.4974
 20
-81.3472
 30
0.0
 10
-82.4892
 20
-78.7116
 30
0.0
 10
-87.7166
 20
-78.9119
 30
0.0
 10
-91.4951
 20
-81.8452
 30
0.0
 10
-91.4951
 20
-81.8452
 30
0.0
 10
-94.7394
 20
-84.7754
 30
0.0
 10
-96.3121
 20
-89.1281
 30
0.0
 10
-95.691
 20
-93.4553
 30
0.0
 10
-95.691
 20
-93.4553
 30
0.0
 10
-95.0698
 20
-97.7826
 30
0.0
 10
-92.3356
 20
-101.5169
 30
0.0
 10
-88.3977
 20
-103.416
 30
0.0
 10
-88.3977
 20
-103.416
 30
0.0
 10
-88.6567
 20
-100.7881
 30
0.0
 10
-88.2969
 20
-98.1362
 30
0.0
 10
-87.3469
 20
-95.6725
 30
0.0
  0
SPLINE
  5
60
330
1F
100
AcDbEntity
  8
layer 1
 62
     7
370
     9
100
AcDbSpline
210
0.0
220
0.0
230
1.0
 70
    11
 71
     3
 72
    28
 73
    24
 74
     0
 42
0.0000000001
 43
0.0000000001
 12
1.0
 22
0.0
 32
0.0
 13
1.0
 23
0.0
 33
0.0
 40
0.0
 40
0.0
 40
0.0
 40
0.0
 40
0.1428571428571428
 40
0.1428571428571428
 40
0.1428571428571428
 40
0.1428571428571428
 40
0.2857142857142857
 40
0.2857142857142857
 40
0.2857142857142857
 40
0.2857142857142857
 40
0.4285714285714285
 40
0.4285714285714285
 40
0.4285714285714285
 40
0.4285714285714285
 40
0.5714285714285714
 40
0.5714285714285714
 40
0.5714285714285714
 40
0.5714285714285714
 40
0.7142857142857143
 40
0.7142857142857143
 40
0.7142857142857143
 40
0.7142857142857143
 40
1.0
 40
1.0
 40
1.0
 40
1.0
 10
-84.692
 20
-96.8893
 30
0.0
 10
-80.3929
 20
-98.0899
 30
0.0
 10
-75.7786
 20
-96.9573
 30
0.0
 10
-72.5239
 20
-93.9026
 30
0.0
 10
-72.5239
 20
-93.9026
 30
0.0
 10
-69.8623
 20
-90.0372
 30
0.0
 10
-69.5436
 20
-85.0207
 30
0.0
 10
-71.6942
 20
-80.8495
 30
0.0
 10
-71.6942
 20
-80.8495
 30
0.0
 10
-70.2555
 20
-78.4383
 30
0.0
 10
-69.4737
 20
-75.6922
 30
0.0
 10
-69.4266
 20
-72.8848
 30
0.0
 10
-69.4266
 20
-72.8848
 30
0.0
 10
-64.1481
 20
-80.2744
 30
0.0
 10
-64.3278
 20
-90.2479
 30
0.0
 10
-69.869
 20
-97.4424
 30
0.0
 10
-69.869
 20
-97.4424
 30
0.0
 10
-72.3987
 20
-99.8876
 30
0.0
 10
-75.8106
 20
-101.2044
 30
0.0
 10
-79.327
 20
-101.0928
 30
0.0
 10
-79.327
 20
-101.0928
 30
0.0
 10
-81.8497
 20
-101.0367
 30
0.0
 10
-84.0339
 20
-99.3253
 30
0.0
 10
-84.692
 20
-96.8893
 30
0.0
  0
SPLINE
  5
61
330
1F
100
AcDbEntity
  8
layer 1
 62
     7
370
     9
100
AcDbSpline
210
0.0
220
0.0
230
1.0
 70
    11
 71
     3
 72
    36
 73
    32
 74
     0
 42
0.0000000001
 43
0.0000000001
 12
1.0
 22
0.0
 32
0.0
 13
1.0
 23
0.0
 33
0.0
 40
0.0
 40
0.0
 40
0.0
 40
0.0
 40
0.1111111111111111
 40
0.1111111111111111
 40
0.1111111111111111
 40
0.1111111111111111
 40
0.2222222222222222
 40
0.2222222222222222
 40
0.2222222222222222
 40
0.2222222222222222
 40
0.3333333333333333
 40
0.3333333333333333
 40
0.3333333333333333
 40
0.3333333333333333
 40
0.4444444444444444
 40
0.4444444444444444
 40
0.4444444444444444
 40
0.4444444444444444
 40
0.5555555555555556
 40
0.5555555555555556
 40
0.5555555555555556
 40
0.5555555555555556
 40
0.6666666666666666
 40
0.6666666666666666
 40
0.6666666666666666
 40
0.6666666666666666
 40
0.7777777777777778
 40
0.7777777777777778
 40
0.7777777777777778
 40
0.7777777777777778
 40
1.0
 40
1.0
 40
1.0
 40
1.0
 10
-73.6301
 20
-78.7476
 30
0.0
 10
-72.951
 20
-76.5039
 30
0.0
 10
-72.9415
 20
-74.1107
 30
0.0
 10
-73.6024
 20
-71.8617
 30
0.0
 10
-73.6024
 20
-71.8617
 30
0.0
 10
-74.447
 20
-73.0627
 30
0.0
 10
-75.6042
 20
-74.0096
 30
0.0
 10
-76.9487
 20
-74.5993
 30
0.0
 10
-76.9487
 20
-74.5993
 30
0.0
 10
-78.1571
 20
-66.3847
 30
0.0
 10
-82.5475
 20
-58.9744
 30
0.0
 10
-89.1721
 20
-53.9688
 30
0.0
 10
-89.1721
 20
-53.9688
 30
0.0
 10
-89.3085
 20
-53.9329
 30
0.0
 10
-89.4533
 20
-53.9761
 30
0.0
 10
-89.5469
 20
-54.0815
 30
0.0
 10
-89.5469
 20
-54.0815
 30
0.0
 10
-89.6404
 20
-54.1869
 30
0.0
 10
-89.6665
 20
-54.336
 30
0.0
 10
-89.6147
 20
-54.4667
 30
0.0
 10
-89.6147
 20
-54.4667
 30
0.0
 10
-88.2737
 20
-56.682
 30
0.0
 10
-86.9279
 20
-58.8947
 30
0.0
 10
-85.577
 20
-61.104
 30
0.0
 10
-85.577
 20
-61.104
 30
0.0
 10
-83.4321
 20
-65.2941
 30
0.0
 10
-83.3707
 20
-70.2468
 30
0.0
 10
-85.4111
 20
-74.489
 30
0.0
 10
-85.4111
 20
-74.489
 30
0.0
 10
-81.0579
 20
-74.1739
 30
0.0
 10
-76.7756
 20
-75.7222
 30
0.0
 10
-73.6301
 20
-78.7476
 30
0.0
  0
SPLINE
  5
62
330
1F
100
AcDbEntity
  8
layer 1
 62
     7
370
     9
100
AcDbSpline
210
0.0
220
0.0
230
1.0
 70
    11
 71
     3
 72
    44
 73
    40
 74
     0
 42
0.0000000001
 43
0.0000000001
 12
1.0
 22
0.0
 32
0.0
 13
1.0
 23
0.0
 33
0.0
 40
0.0
 40
0.0
 40
0.0
 40
0.0
 40
0.0909090909090909
 40
0.0909090909090909
 40
0.0909090909090909
 40
0.0909090909090909
 40
0.1818181818181818
 40
0.1818181818181818
 40
0.1818181818181818
 40
0.1818181818181818
 40
0.2727272727272727
 40
0.2727272727272727
 40
0.2727272727272727
 40
0.2727272727272727
 40
0.3636363636363636
 40
0.3636363636363636
 40
0.3636363636363636
 40
0.3636363636363636
 40
0.4545454545454545
 40
0.4545454545454545
 40
0.4545454545454545
 40
0.4545454545454545
 40
0.5454545454545454
 40
0.5454545454545454
 40
0.5454545454545454
 40
0.5454545454545454
 40
0.6363636363636364
 40
0.6363636363636364
 40
0.6363636363636364
 40
0.6363636363636364
 40
0.7272727272727273
 40
0.7272727272727273
 40
0.7272727272727273
 40
0.7272727272727273
 40
0.8181818181818182
 40
0.8181818181818182
 40
0.8181818181818182
 40
0.8181818181818182
 40
1.0
 40
1.0
 40
1.0
 40
1.0
 10
-103.2208
 20
-35.9101
 30
0.0
 10
-103.2507
 20
-35.738
 30
0.0
 10
-103.1633
 20
-35.5671
 30
0.0
 10
-103.0066
 20
-35.4901
 30
0.0
 10
-103.0066
 20
-35.4901
 30
0.0
 10
-102.8495
 20
-35.4134
 30
0.0
 10
-102.6609
 20
-35.4495
 30
0.0
 10
-102.5433
 20
-35.5782
 30
0.0
 10
-102.5433
 20
-35.5782
 30
0.0
 10
-102.3165
 20
-35.7059
 30
0.0
 10
-102.0808
 20
-35.8166
 30
0.0
 10
-101.8382
 20
-35.9101
 30
0.0
 10
-101.8382
 20
-35.9101
 30
0.0
 10
-95.7259
 20
-39.1348
 30
0.0
 10
-89.6048
 20
-42.3428
 30
0.0
 10
-83.4752
 20
-45.5342
 30
0.0
 10
-83.4752
 20
-45.5342
 30
0.0
 10
-83.2151
 20
-46.6437
 30
0.0
 10
-82.382
 20
-47.5296
 30
0.0
 10
-81.2906
 20
-47.8573
 30
0.0
 10
-81.2906
 20
-47.8573
 30
0.0
 10
-80.7008
 20
-49.4668
 30
0.0
 10
-79.4383
 20
-50.7391
 30
0.0
 10
-77.8337
 20
-51.3415
 30
0.0
 10
-77.8337
 20
-51.3415
 30
0.0
 10
-75.3125
 20
-52.3007
 30
0.0
 10
-72.879
 20
-53.4756
 30
0.0
 10
-70.5603
 20
-54.854
 30
0.0
 10
-70.5603
 20
-54.854
 30
0.0
 10
-69.4885
 20
-55.765
 30
0.0
 10
-68.9738
 20
-57.1722
 30
0.0
 10
-69.2053
 20
-58.5593
 30
0.0
 10
-69.2053
 20
-58.5593
 30
0.0
 10
-69.4227
 20
-59.8639
 30
0.0
 10
-70.1363
 20
-61.033
 30
0.0
 10
-71.1965
 20
-61.8229
 30
0.0
 10
-71.1965
 20
-61.8229
 30
0.0
 10
-81.8314
 20
-53.1365
 30
0.0
 10
-92.5065
 20
-44.4988
 30
0.0
 10
-103.2208
 20
-35.9101
 30
0.0
  0
SPLINE
  5
63
330
1F
100
AcDbEntity
  8
layer 1
 62
     7
370
     9
100
AcDbSpline
210
0.0
220
0.0
230
1.0
 70
    11
 71
     3
 72
    24
 73
    20
 74
     0
 42
0.0000000001
 43
0.0000000001
 12
1.0
 22
0.0
 32
0.0
 13
1.0
 23
0.0
 33
0.0
 40
0.0
 40
0.0
 40
0.0
 40
0.0
 40
0.1666666666666667
 40
0.1666666666666667
 40
0.1666666666666667
 40
0.1666666666666667
 40
0.3333333333333333
 40
0.3333333333333333
 40
0.3333333333333333
 40
0.3333333333333333
 40
0.5
 40
0.5
 40
0.5
 40
0.5
 40
0.6666666666666666
 40
0.6666666666666666
 40
0.6666666666666666
 40
0.6666666666666666
 40
1.0
 40
1.0
 40
1.0
 40
1.0
 10
-90.057
 20
-40.3075
 30
0.0
 10
-87.9795
 20
-41.9059
 30
0.0
 10
-85.7016
 20
-43.2261
 30
0.0
 10
-83.2816
 20
-44.2344
 30
0.0
 10
-83.2816
 20
-44.2344
 30
0.0
 10
-82.3451
 20
-43.6005
 30
0.0
 10
-81.1256
 20
-43.568
 30
0.0
 10
-80.1566
 20
-44.1512
 30
0.0
 10
-80.1566
 20
-44.1512
 30
0.0
 10
-79.0959
 20
-43.1797
 30
0.0
 10
-77.6514
 20
-42.7421
 30
0.0
 10
-76.2297
 20
-42.962
 30
0.0
 10
-76.2297
 20
-42.962
 30
0.0
 10
-71.8873
 20
-43.7967
 30
0.0
 10
-67.6154
 20
-41.2196
 30
0.0
 10
-66.3292
 20
-36.9889
 30
0.0
 10
-66.3292
 20
-36.9889
 30
0.0
 10
-73.793
 20
-40.2201
 30
0.0
 10
-81.9932
 20
-41.3667
 30
0.0
 10
-90.057
 20
-40.3075
 30
0.0
  0
SPLINE
  5
64
330
1F
100
AcDbEntity
  8
layer 1
 62
     7
370
     9
100
AcDbSpline
210
0.0
220
0.0
230
1.0
 70
    11
 71
     3
 72
    20
 73
    16
 74
     0
 42
0.0000000001
 43
0.0000000001
 12
1.0
 22
0.0
 32
0.0
 13
1.0
 23
0.0
 33
0.0
 40
0.0
 40
0.0
 40
0.0
 40
0.0
 40
0.2
 40
0.2
 40
0.2
 40
0.2
 40
0.4
 40
0.4
 40
0.4
 40
0.4
 40
0.6
 40
0.6
 40
0.6
 40
0.6
 40
1.0
 40
1.0
 40
1.0
 40
1.0
 10
-68.4169
 20
-51.079
 30
0.0
 10
-68.0153
 20
-51.1955
 30
0.0
 10
-67.5827
 20
-51.2591
 30
0.0
 10
-67.1312
 20
-51.2591
 30
0.0
 10
-67.1312
 20
-51.2591
 30
0.0
 10
-65.9837
 20
-51.2591
 30
0.0
 10
-64.9601
 20
-50.8502
 30
0.0
 10
-64.2912
 20
-50.211
 30
0.0
 10
-64.2912
 20
-50.211
 30
0.0
 10
-64.6041
 20
-51.3546
 30
0.0
 10
-65.106
 20
-52.4375
 30
0.0
 10
-65.7761
 20
-53.4159
 30
0.0
 10
-65.7761
 20
-53.4159
 30
0.0
 10
-66.6077
 20
-52.5835
 30
0.0
 10
-67.4895
 20
-51.8029
 30
0.0
 10
-68.4169
 20
-51.079
 30
0.0
  0
SPLINE
  5
65
330
1F
100
AcDbEntity
  8
layer 1
 62
     7
370
     9
100
AcDbSpline
210
0.0
220
0.0
230
1.0
 70
    11
 71
     3
 72
    20
 73
    16
 74
     0
 42
0.0000000001
 43
0.0000000001
 12
1.0
 22
0.0
 32
0.0
 13
1.0
 23
0.0
 33
0.0
 40
0.0
 40
0.0
 40
0.0
 40
0.0
 40
0.2
 40
0.2
 40
0.2
 40
0.2
 40
0.4
 40
0.4
 40
0.4
 40
0.4
 40
0.6
 40
0.6
 40
0.6
 40
0.6
 40
1.0
 40
1.0
 40
1.0
 40
1.0
 10
-67.6932
 20
-45.6507
 30
0.0
 10
-66.5614
 20
-45.1089
 30
0.0
 10
-65.5371
 20
-44.3669
 30
0.0
 10
-64.6699
 20
-43.4603
 30
0.0
 10
-64.6699
 20
-43.4603
 30
0.0
 10
-64.2079
 20
-44.6195
 30
0.0
 10
-63.9532
 20
-45.8508
 30
0.0
 10
-63.9178
 20
-47.0982
 30
0.0
 10
-63.9178
 20
-47.0982
 30
0.0
 10
-64.5336
 20
-46.2171
 30
0.0
 10
-65.7418
 20
-45.6173
 30
0.0
 10
-67.1312
 20
-45.6173
 30
0.0
 10
-67.1312
 20
-45.6173
 30
0.0
 10
-67.3225
 20
-45.6173
 30
0.0
 10
-67.5103
 20
-45.6289
 30
0.0
 10
-67.6932
 20
-45.6507
 30
0.0
  0
SPLINE
  5
66
330
1F
100
AcDbEntity
  8
layer 1
 62
     7
370
     9
100
AcDbSpline
210
0.0
220
0.0
230
1.0
 70
    11
 71
     3
 72
   124
 73
   120
 74
     0
 42
0.0000000001
 43
0.0000000001
 12
1.0
 22
0.0
 32
0.0
 13
1.0
 23
0.0
 33
0.0
 40
0.0
 40
0.0
 40
0.0
 40
0.0
 40
0.032258064516129
 40
0.032258064516129
 40
0.032258064516129
 40
0.032258064516129
 40
0.0645161290322581
 40
0.0645161290322581
 40
0.0645161290322581
 40
0.0645161290322581
 40
0.0967741935483871
 40
0.0967741935483871
 40
0.0967741935483871
 40
0.0967741935483871
 40
0.1290322580645161
 40
0.1290322580645161
 40
0.1290322580645161
 40
0.1290322580645161
 40
0.1612903225806452
 40
0.1612903225806452
 40
0.1612903225806452
 40
0.1612903225806452
 40
0.1935483870967742
 40
0.1935483870967742
 40
0.1935483870967742
 40
0.1935483870967742
 40
0.2258064516129032
 40
0.2258064516129032
 40
0.2258064516129032
 40
0.2258064516129032
 40
0.2580645161290323
 40
0.2580645161290323
 40
0.2580645161290323
 40
0.2580645161290323
 40
0.2903225806451613
 40
0.2903225806451613
 40
0.2903225806451613
 40
0.2903225806451613
 40
0.3225806451612903
 40
0.3225806451612903
 40
0.3225806451612903
 40
0.3225806451612903
 40
0.3548387096774194
 40
0.3548387096774194
 40
0.3548387096774194
 40
0.3548387096774194
 40
0.3870967741935484
 40
0.3870967741935484
 40
0.3870967741935484
 40
0.3870967741935484
 40
0.4193548387096774
 40
0.4193548387096774
 40
0.4193548387096774
 40
0.4193548387096774
 40
0.4516129032258064
 40
0.4516129032258064
 40
0.4516129032258064
 40
0.4516129032258064
 40
0.4838709677419355
 40
0.4838709677419355
 40
0.4838709677419355
 40
0.4838709677419355
 40
0.5161290322580645
 40
0.5161290322580645
 40
0.5161290322580645
 40
0.5161290322580645
 40
0.5483870967741935
 40
0.5483870967741935
 40
0.5483870967741935
 40
0.5483870967741935
 40
0.5806451612903226
 40
0.5806451612903226
 40
0.5806451612903226
 40
0.5806451612903226
 40
0.6129032258064516
 40
0.6129032258064516
 40
0.6129032258064516
 40
0.6129032258064516
 40
0.6451612903225806
 40
0.6451612903225806
 40
0.6451612903225806
 40
0.6451612903225806
 40
0.6774193548387096
 40
0.6774193548387096
 40
0.6774193548387096
 40
0.6774193548387096
 40
0.7096774193548387
 40
0.7096774193548387
 40
0.7096774193548387
 40
0.7096774193548387
 40
0.7419354838709677
 40
0.7419354838709677
 40
0.7419354838709677
 40
0.7419354838709677
 40
0.7741935483870968
 40
0.7741935483870968
 40
0.7741935483870968
 40
0.7741935483870968
 40
0.8064516129032258
 40
0.8064516129032258
 40
0.8064516129032258
 40
0.8064516129032258
 40
0.8387096774193549
 40
0.8387096774193549
 40
0.8387096774193549
 40
0.8387096774193549
 40
0.8709677419354839
 40
0.8709677419354839
 40
0.8709677419354839
 40
0.8709677419354839
 40
0.9032258064516129
 40
0.9032258064516129
 40
0.9032258064516129
 40
0.9032258064516129
 40
0.9354838709677419
 40
0.9354838709677419
 40
0.9354838709677419
 40
0.9354838709677419
 40
1.0
 40
1.0
 40
1.0
 40
1.0
 10
-180.4889
 20
-36.4478
 30
0.0
 10
-178.5855
 20
-37.4177
 30
0.0
 10
-176.3012
 20
-37.2472
 30
0.0
 10
-174.5629
 20
-36.0063
 30
0.0
 10
-174.5629
 20
-36.0063
 30
0.0
 10
-172.8246
 20
-34.765
 30
0.0
 10
-171.9214
 20
-32.66
 30
0.0
 10
-172.2199
 20
-30.545
 30
0.0
 10
-172.2199
 20
-30.545
 30
0.0
 10
-172.2218
 20
-30.4266
 30
0.0
 10
-172.1697
 20
-30.3136
 30
0.0
 10
-172.078
 20
-30.2382
 30
0.0
 10
-172.078
 20
-30.2382
 30
0.0
 10
-171.9869
 20
-30.1627
 30
0.0
 10
-171.8658
 20
-30.1331
 30
0.0
 10
-171.7497
 20
-30.158
 30
0.0
 10
-171.7497
 20
-30.158
 30
0.0
 10
-170.1995
 20
-31.6449
 30
0.0
 10
-168.6042
 20
-33.0835
 30
0.0
 10
-166.9655
 20
-34.4723
 30
0.0
 10
-166.9655
 20
-34.4723
 30
0.0
 10
-166.8955
 20
-34.5466
 30
0.0
 10
-166.8667
 20
-34.6509
 30
0.0
 10
-166.889
 20
-34.7505
 30
0.0
 10
-166.889
 20
-34.7505
 30
0.0
 10
-166.9111
 20
-34.8501
 30
0.0
 10
-166.9809
 20
-34.9321
 30
0.0
 10
-167.0763
 20
-34.9701
 30
0.0
 10
-167.0763
 20
-34.9701
 30
0.0
 10
-170.213
 20
-34.6654
 30
0.0
 10
-173.3063
 20
-35.8779
 30
0.0
 10
-175.4002
 20
-38.2332
 30
0.0
 10
-175.4002
 20
-38.2332
 30
0.0
 10
-177.9502
 20
-41.369
 30
0.0
 10
-178.323
 20
-45.7454
 30
0.0
 10
-176.3406
 20
-49.2675
 30
0.0
 10
-176.3406
 20
-49.2675
 30
0.0
 10
-176.1801
 20
-45.9776
 30
0.0
 10
-173.8857
 20
-43.1797
 30
0.0
 10
-170.6912
 20
-42.378
 30
0.0
 10
-170.6912
 20
-42.378
 30
0.0
 10
-167.4963
 20
-41.5759
 30
0.0
 10
-164.1527
 20
-42.9587
 30
0.0
 10
-162.4578
 20
-45.7829
 30
0.0
 10
-162.4578
 20
-45.7829
 30
0.0
 10
-162.3436
 20
-45.9209
 30
0.0
 10
-162.3447
 20
-46.1205
 30
0.0
 10
-162.4608
 20
-46.2569
 30
0.0
 10
-162.4608
 20
-46.2569
 30
0.0
 10
-162.5766
 20
-46.3931
 30
0.0
 10
-162.7736
 20
-46.4267
 30
0.0
 10
-162.928
 20
-46.3362
 30
0.0
 10
-162.928
 20
-46.3362
 30
0.0
 10
-164.3378
 20
-45.064
 30
0.0
 10
-166.2659
 20
-44.5329
 30
0.0
 10
-168.1286
 20
-44.9031
 30
0.0
 10
-168.1286
 20
-44.9031
 30
0.0
 10
-169.9915
 20
-45.2736
 30
0.0
 10
-171.5695
 20
-46.5018
 30
0.0
 10
-172.3858
 20
-48.2167
 30
0.0
 10
-172.3858
 20
-48.2167
 30
0.0
 10
-170.7514
 20
-47.7642
 30
0.0
 10
-169.0012
 20
-48.0439
 30
0.0
 10
-167.5895
 20
-48.9835
 30
0.0
 10
-167.5895
 20
-48.9835
 30
0.0
 10
-166.1777
 20
-49.9228
 30
0.0
 10
-165.2433
 20
-51.4293
 30
0.0
 10
-165.0296
 20
-53.1116
 30
0.0
 10
-165.0296
 20
-53.1116
 30
0.0
 10
-164.7314
 20
-55.9585
 30
0.0
 10
-165.1695
 20
-58.8345
 30
0.0
 10
-166.3018
 20
-61.4634
 30
0.0
 10
-166.3018
 20
-61.4634
 30
0.0
 10
-166.3535
 20
-61.5692
 30
0.0
 10
-166.4609
 20
-61.6362
 30
0.0
 10
-166.5782
 20
-61.6362
 30
0.0
 10
-166.5782
 20
-61.6362
 30
0.0
 10
-166.6958
 20
-61.6362
 30
0.0
 10
-166.8031
 20
-61.5692
 30
0.0
 10
-166.8549
 20
-61.4634
 30
0.0
 10
-166.8549
 20
-61.4634
 30
0.0
 10
-167.1032
 20
-60.7847
 30
0.0
 10
-167.6236
 20
-60.2409
 30
0.0
 10
-168.2904
 20
-59.9624
 30
0.0
 10
-168.2904
 20
-59.9624
 30
0.0
 10
-168.9571
 20
-59.6842
 30
0.0
 10
-169.7102
 20
-59.6968
 30
0.0
 10
-170.367
 20
-59.9976
 30
0.0
 10
-170.367
 20
-59.9976
 30
0.0
 10
-170.4421
 20
-59.9945
 30
0.0
 10
-170.5123
 20
-59.9597
 30
0.0
 10
-170.5597
 20
-59.9014
 30
0.0
 10
-170.5597
 20
-59.9014
 30
0.0
 10
-170.6073
 20
-59.8432
 30
0.0
 10
-170.6276
 20
-59.7677
 30
0.0
 10
-170.6161
 20
-59.6933
 30
0.0
 10
-170.6161
 20
-59.6933
 30
0.0
 10
-170.9686
 20
-56.3992
 30
0.0
 10
-173.7742
 20
-53.9171
 30
0.0
 10
-177.0871
 20
-53.9688
 30
0.0
 10
-177.0871
 20
-53.9688
 30
0.0
 10
-174.6506
 20
-58.4291
 30
0.0
 10
-173.9984
 20
-63.6482
 30
0.0
 10
-175.2618
 20
-68.5705
 30
0.0
 10
-175.2618
 20
-68.5705
 30
0.0
 10
-175.8987
 20
-70.9235
 30
0.0
 10
-176.779
 20
-73.2037
 30
0.0
 10
-177.8892
 20
-75.3738
 30
0.0
 10
-177.8892
 20
-75.3738
 30
0.0
 10
-178.8396
 20
-77.2463
 30
0.0
 10
-179.5049
 20
-79.2507
 30
0.0
 10
-179.862
 20
-81.3198
 30
0.0
 10
-179.862
 20
-81.3198
 30
0.0
 10
-180.0528
 20
-81.4268
 30
0.0
 10
-180.2785
 20
-81.4532
 30
0.0
 10
-180.4889
 20
-81.3929
 30
0.0
 10
-180.4889
 20
-81.3929
 30
0.0
 10
-180.4889
 20
-81.3929
 30
0.0
 10
-180.4889
 20
-36.4478
 30
0.0
 10
-180.4889
 20
-36.4478
 30
0.0
  0
SPLINE
  5
67
330
1F
100
AcDbEntity
  8
layer 1
 62
     7
370
     9
100
AcDbSpline
210
0.0
220
0.0
230
1.0
 70
    11
 71
     3
 72
    32
 73
    28
 74
     0
 42
0.0000000001
 43
0.0000000001
 12
1.0
 22
0.0
 32
0.0
 13
1.0
 23
0.0
 33
0.0
 40
0.0
 40
0.0
 40
0.0
 40
0.0
 40
0.125
 40
0.125
 40
0.125
 40
0.125
 40
0.25
 40
0.25
 40
0.25
 40
0.25
 40
0.375
 40
0.375
 40
0.375
 40
0.375
 40
0.5
 40
0.5
 40
0.5
 40
0.5
 40
0.625
 40
0.625
 40
0.625
 40
0.625
 40
0.75
 40
0.75
 40
0.75
 40
0.75
 40
1.0
 40
1.0
 40
1.0
 40
1.0
 10
-180.4889
 20
-32.5657
 30
0.0
 10
-180.4889
 20
-32.5657
 30
0.0
 10
-180.4889
 20
-15.0661
 30
0.0
 10
-180.4889
 20
-15.0661
 30
0.0
 10
-180.4889
 20
-15.0661
 30
0.0
 10
-179.4642
 20
-19.0773
 30
0.0
 10
-177.6186
 20
-22.8316
 30
0.0
 10
-175.0684
 20
-26.0929
 30
0.0
 10
-175.0684
 20
-26.0929
 30
0.0
 10
-174.7165
 20
-26.4825
 30
0.0
 10
-174.5728
 20
-27.0172
 30
0.0
 10
-174.6813
 20
-27.5307
 30
0.0
 10
-174.6813
 20
-27.5307
 30
0.0
 10
-175.3922
 20
-29.3084
 30
0.0
 10
-176.8484
 20
-30.6837
 30
0.0
 10
-178.6636
 20
-31.292
 30
0.0
 10
-178.6636
 20
-31.292
 30
0.0
 10
-178.4054
 20
-32.5198
 30
0.0
 10
-177.2148
 20
-33.3177
 30
0.0
 10
-175.9812
 20
-33.0892
 30
0.0
 10
-175.9812
 20
-33.0892
 30
0.0
 10
-176.5782
 20
-33.771
 30
0.0
 10
-177.4722
 20
-34.1159
 30
0.0
 10
-178.3724
 20
-34.0113
 30
0.0
 10
-178.3724
 20
-34.0113
 30
0.0
 10
-179.2726
 20
-33.9063
 30
0.0
 10
-180.064
 20
-33.3659
 30
0.0
 10
-180.4889
 20
-32.5657
 30
0.0
  0
SPLINE
  5
68
330
1F
100
AcDbEntity
  8
layer 1
 62
     7
370
     9
100
AcDbSpline
210
0.0
220
0.0
230
1.0
 70
    11
 71
     3
 72
    60
 73
    56
 74
     0
 42
0.0000000001
 43
0.0000000001
 12
1.0
 22
0.0
 32
0.0
 13
1.0
 23
0.0
 33
0.0
 40
0.0
 40
0.0
 40
0.0
 40
0.0
 40
0.0666666666666667
 40
0.0666666666666667
 40
0.0666666666666667
 40
0.0666666666666667
 40
0.1333333333333333
 40
0.1333333333333333
 40
0.1333333333333333
 40
0.1333333333333333
 40
0.2
 40
0.2
 40
0.2
 40
0.2
 40
0.2666666666666667
 40
0.2666666666666667
 40
0.2666666666666667
 40
0.2666666666666667
 40
0.3333333333333333
 40
0.3333333333333333
 40
0.3333333333333333
 40
0.3333333333333333
 40
0.4
 40
0.4
 40
0.4
 40
0.4
 40
0.4666666666666667
 40
0.4666666666666667
 40
0.4666666666666667
 40
0.4666666666666667
 40
0.5333333333333333
 40
0.5333333333333333
 40
0.5333333333333333
 40
0.5333333333333333
 40
0.6
 40
0.6
 40
0.6
 40
0.6
 40
0.6666666666666666
 40
0.6666666666666666
 40
0.6666666666666666
 40
0.6666666666666666
 40
0.7333333333333333
 40
0.7333333333333333
 40
0.7333333333333333
 40
0.7333333333333333
 40
0.8
 40
0.8
 40
0.8
 40
0.8
 40
0.8666666666666667
 40
0.8666666666666667
 40
0.8666666666666667
 40
0.8666666666666667
 40
1.0
 40
1.0
 40
1.0
 40
1.0
 10
-179.9712
 20
102.7605
 30
0.0
 10
-180.0111
 20
102.6539
 30
0.0
 10
-180.1111
 20
102.5823
 30
0.0
 10
-180.2249
 20
102.5789
 30
0.0
 10
-180.2249
 20
102.5789
 30
0.0
 10
-180.3384
 20
102.5754
 30
0.0
 10
-180.443
 20
102.6409
 30
0.0
 10
-180.4889
 20
102.7448
 30
0.0
 10
-180.4889
 20
102.7448
 30
0.0
 10
-180.4889
 20
102.7448
 30
0.0
 10
-180.4889
 20
122.3897
 30
0.0
 10
-180.4889
 20
122.3897
 30
0.0
 10
-180.4889
 20
122.3897
 30
0.0
 10
-180.4119
 20
122.428
 30
0.0
 10
-180.3226
 20
122.4318
 30
0.0
 10
-180.2429
 20
122.3992
 30
0.0
 10
-180.2429
 20
122.3992
 30
0.0
 10
-180.1636
 20
122.3671
 30
0.0
 10
-180.1019
 20
122.3019
 30
0.0
 10
-180.0739
 20
122.2207
 30
0.0
 10
-180.0739
 20
122.2207
 30
0.0
 10
-179.1603
 20
120.9495
 30
0.0
 10
-177.9306
 20
119.939
 30
0.0
 10
-176.5065
 20
119.289
 30
0.0
 10
-176.5065
 20
119.289
 30
0.0
 10
-176.3571
 20
119.1848
 30
0.0
 10
-176.2616
 20
119.0196
 30
0.0
 10
-176.246
 20
118.8384
 30
0.0
 10
-176.246
 20
118.8384
 30
0.0
 10
-176.2298
 20
118.6571
 30
0.0
 10
-176.2947
 20
118.4778
 30
0.0
 10
-176.4234
 20
118.349
 30
0.0
 10
-176.4234
 20
118.349
 30
0.0
 10
-177.3018
 20
117.4899
 30
0.0
 10
-178.3215
 20
116.7881
 30
0.0
 10
-179.4377
 20
116.2747
 30
0.0
 10
-179.4377
 20
116.2747
 30
0.0
 10
-177.6815
 20
114.7445
 30
0.0
 10
-175.0687
 20
114.7326
 30
0.0
 10
-173.2986
 20
116.2471
 30
0.0
 10
-173.2986
 20
116.2471
 30
0.0
 10
-173.2128
 20
116.2942
 30
0.0
 10
-173.1059
 20
116.2762
 30
0.0
 10
-173.0404
 20
116.2037
 30
0.0
 10
-173.0404
 20
116.2037
 30
0.0
 10
-172.9744
 20
116.1317
 30
0.0
 10
-172.9667
 20
116.0236
 30
0.0
 10
-173.0219
 20
115.9428
 30
0.0
 10
-173.0219
 20
115.9428
 30
0.0
 10
-175.3396
 20
113.5102
 30
0.0
 10
-177.2619
 20
110.7295
 30
0.0
 10
-178.7188
 20
107.7017
 30
0.0
 10
-178.7188
 20
107.7017
 30
0.0
 10
-179.3527
 20
106.1171
 30
0.0
 10
-179.7738
 20
104.4559
 30
0.0
 10
-179.9712
 20
102.7605
 30
0.0
  0
SPLINE
  5
69
330
1F
100
AcDbEntity
  8
layer 1
 62
     7
370
     9
100
AcDbSpline
210
0.0
220
0.0
230
1.0
 70
    11
 71
     3
 72
    28
 73
    24
 74
     0
 42
0.0000000001
 43
0.0000000001
 12
1.0
 22
0.0
 32
0.0
 13
1.0
 23
0.0
 33
0.0
 40
0.0
 40
0.0
 40
0.0
 40
0.0
 40
0.1428571428571428
 40
0.1428571428571428
 40
0.1428571428571428
 40
0.1428571428571428
 40
0.2857142857142857
 40
0.2857142857142857
 40
0.2857142857142857
 40
0.2857142857142857
 40
0.4285714285714285
 40
0.4285714285714285
 40
0.4285714285714285
 40
0.4285714285714285
 40
0.5714285714285714
 40
0.5714285714285714
 40
0.5714285714285714
 40
0.5714285714285714
 40
0.7142857142857143
 40
0.7142857142857143
 40
0.7142857142857143
 40
0.7142857142857143
 40
1.0
 40
1.0
 40
1.0
 40
1.0
 10
-169.2055
 20
123.465
 30
0.0
 10
-172.4828
 20
122.7242
 30
0.0
 10
-175.9202
 20
123.3734
 30
0.0
 10
-178.7017
 20
125.2588
 30
0.0
 10
-178.7017
 20
125.2588
 30
0.0
 10
-178.707
 20
125.2623
 30
0.0
 10
-178.71
 20
125.268
 30
0.0
 10
-178.71
 20
125.2745
 30
0.0
 10
-178.71
 20
125.2745
 30
0.0
 10
-178.71
 20
125.2806
 30
0.0
 10
-178.707
 20
125.2868
 30
0.0
 10
-178.7017
 20
125.2902
 30
0.0
 10
-178.7017
 20
125.2902
 30
0.0
 10
-178.7017
 20
125.2902
 30
0.0
 10
-164.3962
 20
125.2902
 30
0.0
 10
-164.3962
 20
125.2902
 30
0.0
 10
-164.3962
 20
125.2902
 30
0.0
 10
-164.3686
 20
125.1542
 30
0.0
 10
-164.4214
 20
125.0147
 30
0.0
 10
-164.5317
 20
124.9307
 30
0.0
 10
-164.5317
 20
124.9307
 30
0.0
 10
-166.0467
 20
124.3141
 30
0.0
 10
-167.6098
 20
123.8237
 30
0.0
 10
-169.2055
 20
123.465
 30
0.0
  0
SPLINE
  5
6A
330
1F
100
AcDbEntity
  8
layer 1
 62
     7
370
     9
100
AcDbSpline
210
0.0
220
0.0
230
1.0
 70
    11
 71
     3
 72
   120
 73
   116
 74
     0
 42
0.0000000001
 43
0.0000000001
 12
1.0
 22
0.0
 32
0.0
 13
1.0
 23
0.0
 33
0.0
 40
0.0
 40
0.0
 40
0.0
 40
0.0
 40
0.0333333333333333
 40
0.0333333333333333
 40
0.0333333333333333
 40
0.0333333333333333
 40
0.0666666666666667
 40
0.0666666666666667
 40
0.0666666666666667
 40
0.0666666666666667
 40
0.1
 40
0.1
 40
0.1
 40
0.1
 40
0.1333333333333333
 40
0.1333333333333333
 40
0.1333333333333333
 40
0.1333333333333333
 40
0.1666666666666667
 40
0.1666666666666667
 40
0.1666666666666667
 40
0.1666666666666667
 40
0.2
 40
0.2
 40
0.2
 40
0.2
 40
0.2333333333333333
 40
0.2333333333333333
 40
0.2333333333333333
 40
0.2333333333333333
 40
0.2666666666666667
 40
0.2666666666666667
 40
0.2666666666666667
 40
0.2666666666666667
 40
0.3
 40
0.3
 40
0.3
 40
0.3
 40
0.3333333333333333
 40
0.3333333333333333
 40
0.3333333333333333
 40
0.3333333333333333
 40
0.3666666666666666
 40
0.3666666666666666
 40
0.3666666666666666
 40
0.3666666666666666
 40
0.4
 40
0.4
 40
0.4
 40
0.4
 40
0.4333333333333333
 40
0.4333333333333333
 40
0.4333333333333333
 40
0.4333333333333333
 40
0.4666666666666667
 40
0.4666666666666667
 40
0.4666666666666667
 40
0.4666666666666667
 40
0.5
 40
0.5
 40
0.5
 40
0.5
 40
0.5333333333333333
 40
0.5333333333333333
 40
0.5333333333333333
 40
0.5333333333333333
 40
0.5666666666666667
 40
0.5666666666666667
 40
0.5666666666666667
 40
0.5666666666666667
 40
0.6
 40
0.6
 40
0.6
 40
0.6
 40
0.6333333333333333
 40
0.6333333333333333
 40
0.6333333333333333
 40
0.6333333333333333
 40
0.6666666666666666
 40
0.6666666666666666
 40
0.6666666666666666
 40
0.6666666666666666
 40
0.7
 40
0.7
 40
0.7
 40
0.7
 40
0.7333333333333333
 40
0.7333333333333333
 40
0.7333333333333333
 40
0.7333333333333333
 40
0.7666666666666667
 40
0.7666666666666667
 40
0.7666666666666667
 40
0.7666666666666667
 40
0.8
 40
0.8
 40
0.8
 40
0.8
 40
0.8333333333333334
 40
0.8333333333333334
 40
0.8333333333333334
 40
0.8333333333333334
 40
0.8666666666666667
 40
0.8666666666666667
 40
0.8666666666666667
 40
0.8666666666666667
 40
0.9
 40
0.9
 40
0.9
 40
0.9
 40
0.9333333333333333
 40
0.9333333333333333
 40
0.9333333333333333
 40
0.9333333333333333
 40
1.0
 40
1.0
 40
1.0
 40
1.0
 10
-150.9533
 20
124.7556
 30
0.0
 10
-151.0579
 20
124.7912
 30
0.0
 10
-151.1417
 20
124.871
 30
0.0
 10
-151.1828
 20
124.9741
 30
0.0
 10
-151.1828
 20
124.9741
 30
0.0
 10
-151.2238
 20
125.0768
 30
0.0
 10
-151.2177
 20
125.1925
 30
0.0
 10
-151.166
 20
125.2902
 30
0.0
 10
-151.166
 20
125.2902
 30
0.0
 10
-151.166
 20
125.2902
 30
0.0
 10
-135.3146
 20
125.2902
 30
0.0
 10
-135.3146
 20
125.2902
 30
0.0
 10
-135.3146
 20
125.2902
 30
0.0
 10
-135.2639
 20
125.1702
 30
0.0
 10
-135.2705
 20
125.0338
 30
0.0
 10
-135.3322
 20
124.9193
 30
0.0
 10
-135.3322
 20
124.9193
 30
0.0
 10
-135.3939
 20
124.8043
 30
0.0
 10
-135.5042
 20
124.7238
 30
0.0
 10
-135.6326
 20
124.7004
 30
0.0
 10
-135.6326
 20
124.7004
 30
0.0
 10
-137.19
 20
124.2943
 30
0.0
 10
-138.3876
 20
123.0469
 30
0.0
 10
-138.7297
 20
121.4737
 30
0.0
 10
-138.7297
 20
121.4737
 30
0.0
 10
-139.0134
 20
120.3394
 30
0.0
 10
-138.7317
 20
119.1381
 30
0.0
 10
-137.974
 20
118.2475
 30
0.0
 10
-137.974
 20
118.2475
 30
0.0
 10
-136.4381
 20
116.9461
 30
0.0
 10
-134.171
 20
117.0013
 30
0.0
 10
-132.701
 20
118.3766
 30
0.0
 10
-132.701
 20
118.3766
 30
0.0
 10
-131.9809
 20
119.1924
 30
0.0
 10
-131.9575
 20
120.4096
 30
0.0
 10
-132.6458
 20
121.2527
 30
0.0
 10
-132.6458
 20
121.2527
 30
0.0
 10
-132.8735
 20
121.5266
 30
0.0
 10
-133.1482
 20
121.7574
 30
0.0
 10
-133.457
 20
121.9347
 30
0.0
 10
-133.457
 20
121.9347
 30
0.0
 10
-133.5345
 20
121.9866
 30
0.0
 10
-133.618
 20
122.0283
 30
0.0
 10
-133.7058
 20
122.0593
 30
0.0
 10
-133.7058
 20
122.0593
 30
0.0
 10
-133.7655
 20
122.1053
 30
0.0
 10
-133.7981
 20
122.1781
 30
0.0
 10
-133.7924
 20
122.2532
 30
0.0
 10
-133.7924
 20
122.2532
 30
0.0
 10
-133.787
 20
122.3287
 30
0.0
 10
-133.7441
 20
122.3958
 30
0.0
 10
-133.6782
 20
122.4326
 30
0.0
 10
-133.6782
 20
122.4326
 30
0.0
 10
-132.2829
 20
124.0023
 30
0.0
 10
-130.1039
 20
124.6207
 30
0.0
 10
-128.0921
 20
124.0179
 30
0.0
 10
-128.0921
 20
124.0179
 30
0.0
 10
-127.9808
 20
123.9923
 30
0.0
 10
-127.8729
 20
123.9551
 30
0.0
 10
-127.7693
 20
123.9076
 30
0.0
 10
-127.7693
 20
123.9076
 30
0.0
 10
-127.7134
 20
123.8784
 30
0.0
 10
-127.6797
 20
123.8198
 30
0.0
 10
-127.6816
 20
123.7573
 30
0.0
 10
-127.6816
 20
123.7573
 30
0.0
 10
-127.6835
 20
123.6945
 30
0.0
 10
-127.7211
 20
123.6382
 30
0.0
 10
-127.7786
 20
123.6125
 30
0.0
 10
-127.7786
 20
123.6125
 30
0.0
 10
-128.7979
 20
123.1277
 30
0.0
 10
-129.4344
 20
122.0862
 30
0.0
 10
-129.4007
 20
120.9575
 30
0.0
 10
-129.4007
 20
120.9575
 30
0.0
 10
-127.0359
 20
122.0677
 30
0.0
 10
-124.3023
 20
122.0807
 30
0.0
 10
-121.9269
 20
120.9944
 30
0.0
 10
-121.9269
 20
120.9944
 30
0.0
 10
-119.5508
 20
119.9075
 30
0.0
 10
-117.7736
 20
117.8313
 30
0.0
 10
-117.0668
 20
115.3162
 30
0.0
 10
-117.0668
 20
115.3162
 30
0.0
 10
-117.0668
 20
115.3162
 30
0.0
 10
-117.0232
 20
115.1499
 30
0.0
 10
-117.0232
 20
115.1499
 30
0.0
 10
-117.0232
 20
115.1499
 30
0.0
 10
-117.004
 20
115.0522
 30
0.0
 10
-117.0431
 20
114.9522
 30
0.0
 10
-117.1235
 20
114.8936
 30
0.0
 10
-117.1235
 20
114.8936
 30
0.0
 10
-117.2037
 20
114.8341
 30
0.0
 10
-117.3106
 20
114.8265
 30
0.0
 10
-117.3987
 20
114.8736
 30
0.0
 10
-117.3987
 20
114.8736
 30
0.0
 10
-118.7955
 20
117.0086
 30
0.0
 10
-121.0267
 20
118.4567
 30
0.0
 10
-123.5455
 20
118.8637
 30
0.0
 10
-123.5455
 20
118.8637
 30
0.0
 10
-126.0644
 20
119.2706
 30
0.0
 10
-128.6381
 20
118.5989
 30
0.0
 10
-130.6362
 20
117.0124
 30
0.0
 10
-130.6362
 20
117.0124
 30
0.0
 10
-132.3185
 20
115.4208
 30
0.0
 10
-133.1693
 20
113.1403
 30
0.0
 10
-132.9405
 20
110.8361
 30
0.0
 10
-132.9405
 20
110.8361
 30
0.0
 10
-132.9538
 20
110.759
 30
0.0
 10
-133.0107
 20
110.6969
 30
0.0
 10
-133.0862
 20
110.677
 30
0.0
 10
-133.0862
 20
110.677
 30
0.0
 10
-133.1617
 20
110.657
 30
0.0
 10
-133.2417
 20
110.6836
 30
0.0
 10
-133.2911
 20
110.7437
 30
0.0
 10
-133.2911
 20
110.7437
 30
0.0
 10
-137.1678
 20
117.5029
 30
0.0
 10
-143.4893
 20
122.5181
 30
0.0
 10
-150.9533
 20
124.7556
 30
0.0
  0
SPLINE
  5
6B
330
1F
100
AcDbEntity
  8
layer 1
 62
     7
370
     9
100
AcDbSpline
210
0.0
220
0.0
230
1.0
 70
    11
 71
     3
 72
    36
 73
    32
 74
     0
 42
0.0000000001
 43
0.0000000001
 12
1.0
 22
0.0
 32
0.0
 13
1.0
 23
0.0
 33
0.0
 40
0.0
 40
0.0
 40
0.0
 40
0.0
 40
0.1111111111111111
 40
0.1111111111111111
 40
0.1111111111111111
 40
0.1111111111111111
 40
0.2222222222222222
 40
0.2222222222222222
 40
0.2222222222222222
 40
0.2222222222222222
 40
0.3333333333333333
 40
0.3333333333333333
 40
0.3333333333333333
 40
0.3333333333333333
 40
0.4444444444444444
 40
0.4444444444444444
 40
0.4444444444444444
 40
0.4444444444444444
 40
0.5555555555555556
 40
0.5555555555555556
 40
0.5555555555555556
 40
0.5555555555555556
 40
0.6666666666666666
 40
0.6666666666666666
 40
0.6666666666666666
 40
0.6666666666666666
 40
0.7777777777777778
 40
0.7777777777777778
 40
0.7777777777777778
 40
0.7777777777777778
 40
1.0
 40
1.0
 40
1.0
 40
1.0
 10
-125.3631
 20
124.8293
 30
0.0
 10
-125.4463
 20
124.8702
 30
0.0
 10
-125.505
 20
124.9477
 30
0.0
 10
-125.5218
 20
125.0385
 30
0.0
 10
-125.5218
 20
125.0385
 30
0.0
 10
-125.5382
 20
125.1293
 30
0.0
 10
-125.5106
 20
125.2228
 30
0.0
 10
-125.4474
 20
125.2902
 30
0.0
 10
-125.4474
 20
125.2902
 30
0.0
 10
-125.4474
 20
125.2902
 30
0.0
 10
-113.222
 20
125.2902
 30
0.0
 10
-113.222
 20
125.2902
 30
0.0
 10
-113.222
 20
125.2902
 30
0.0
 10
-113.2125
 20
125.1454
 30
0.0
 10
-113.2792
 20
125.0055
 30
0.0
 10
-113.3979
 20
124.9216
 30
0.0
 10
-113.3979
 20
124.9216
 30
0.0
 10
-115.6969
 20
123.3442
 30
0.0
 10
-116.9772
 20
120.6579
 30
0.0
 10
-116.7534
 20
117.8788
 30
0.0
 10
-116.7534
 20
117.8788
 30
0.0
 10
-116.7879
 20
117.8168
 30
0.0
 10
-116.8523
 20
117.7765
 30
0.0
 10
-116.9231
 20
117.7731
 30
0.0
 10
-116.9231
 20
117.7731
 30
0.0
 10
-116.9945
 20
117.7692
 30
0.0
 10
-117.0627
 20
117.8022
 30
0.0
 10
-117.1036
 20
117.8604
 30
0.0
 10
-117.1036
 20
117.8604
 30
0.0
 10
-118.8959
 20
121.1281
 30
0.0
 10
-121.8402
 20
123.6125
 30
0.0
 10
-125.3631
 20
124.8293
 30
0.0
  0
SPLINE
  5
6C
330
1F
100
AcDbEntity
  8
layer 1
 62
     7
370
     9
100
AcDbSpline
210
0.0
220
0.0
230
1.0
 70
    11
 71
     3
 72
    88
 73
    84
 74
     0
 42
0.0000000001
 43
0.0000000001
 12
1.0
 22
0.0
 32
0.0
 13
1.0
 23
0.0
 33
0.0
 40
0.0
 40
0.0
 40
0.0
 40
0.0
 40
0.0454545454545455
 40
0.0454545454545455
 40
0.0454545454545455
 40
0.0454545454545455
 40
0.0909090909090909
 40
0.0909090909090909
 40
0.0909090909090909
 40
0.0909090909090909
 40
0.1363636363636364
 40
0.1363636363636364
 40
0.1363636363636364
 40
0.1363636363636364
 40
0.1818181818181818
 40
0.1818181818181818
 40
0.1818181818181818
 40
0.1818181818181818
 40
0.2272727272727273
 40
0.2272727272727273
 40
0.2272727272727273
 40
0.2272727272727273
 40
0.2727272727272727
 40
0.2727272727272727
 40
0.2727272727272727
 40
0.2727272727272727
 40
0.3181818181818182
 40
0.3181818181818182
 40
0.3181818181818182
 40
0.3181818181818182
 40
0.3636363636363636
 40
0.3636363636363636
 40
0.3636363636363636
 40
0.3636363636363636
 40
0.4090909090909091
 40
0.4090909090909091
 40
0.4090909090909091
 40
0.4090909090909091
 40
0.4545454545454545
 40
0.4545454545454545
 40
0.4545454545454545
 40
0.4545454545454545
 40
0.5
 40
0.5
 40
0.5
 40
0.5
 40
0.5454545454545454
 40
0.5454545454545454
 40
0.5454545454545454
 40
0.5454545454545454
 40
0.5909090909090909
 40
0.5909090909090909
 40
0.5909090909090909
 40
0.5909090909090909
 40
0.6363636363636364
 40
0.6363636363636364
 40
0.6363636363636364
 40
0.6363636363636364
 40
0.6818181818181818
 40
0.6818181818181818
 40
0.6818181818181818
 40
0.6818181818181818
 40
0.7272727272727273
 40
0.7272727272727273
 40
0.7272727272727273
 40
0.7272727272727273
 40
0.7727272727272727
 40
0.7727272727272727
 40
0.7727272727272727
 40
0.7727272727272727
 40
0.8181818181818182
 40
0.8181818181818182
 40
0.8181818181818182
 40
0.8181818181818182
 40
0.8636363636363636
 40
0.8636363636363636
 40
0.8636363636363636
 40
0.8636363636363636
 40
0.9090909090909091
 40
0.9090909090909091
 40
0.9090909090909091
 40
0.9090909090909091
 40
1.0
 40
1.0
 40
1.0
 40
1.0
 10
-106.2628
 20
124.82
 30
0.0
 10
-106.3644
 20
124.8392
 30
0.0
 10
-106.4513
 20
124.9043
 30
0.0
 10
-106.4989
 20
124.9959
 30
0.0
 10
-106.4989
 20
124.9959
 30
0.0
 10
-106.5464
 20
125.0879
 30
0.0
 10
-106.5491
 20
125.1963
 30
0.0
 10
-106.5057
 20
125.2902
 30
0.0
 10
-106.5057
 20
125.2902
 30
0.0
 10
-106.5057
 20
125.2902
 30
0.0
 10
-93.335
 20
125.2902
 30
0.0
 10
-93.335
 20
125.2902
 30
0.0
 10
-93.335
 20
125.2902
 30
0.0
 10
-93.2805
 20
125.1531
 30
0.0
 10
-93.2836
 20
124.9994
 30
0.0
 10
-93.343
 20
124.8645
 30
0.0
 10
-93.343
 20
124.8645
 30
0.0
 10
-93.4029
 20
124.7292
 30
0.0
 10
-93.5143
 20
124.6238
 30
0.0
 10
-93.6523
 20
124.5713
 30
0.0
 10
-93.6523
 20
124.5713
 30
0.0
 10
-95.7221
 20
123.8137
 30
0.0
 10
-97.6485
 20
122.71
 30
0.0
 10
-99.3492
 20
121.3079
 30
0.0
 10
-99.3492
 20
121.3079
 30
0.0
 10
-103.5941
 20
118.3977
 30
0.0
 10
-106.7472
 20
114.1543
 30
0.0
 10
-108.3092
 20
109.2506
 30
0.0
 10
-108.3092
 20
109.2506
 30
0.0
 10
-109.0595
 20
106.8276
 30
0.0
 10
-110.6223
 20
104.7371
 30
0.0
 10
-112.7342
 20
103.3322
 30
0.0
 10
-112.7342
 20
103.3322
 30
0.0
 10
-112.3226
 20
105.2483
 30
0.0
 10
-112.3414
 20
107.2319
 30
0.0
 10
-112.7894
 20
109.1399
 30
0.0
 10
-112.7894
 20
109.1399
 30
0.0
 10
-113.1756
 20
110.9311
 30
0.0
 10
-113.3888
 20
112.7555
 30
0.0
 10
-113.4255
 20
114.5878
 30
0.0
 10
-113.4255
 20
114.5878
 30
0.0
 10
-113.6727
 20
116.8345
 30
0.0
 10
-112.3107
 20
118.9468
 30
0.0
 10
-110.1621
 20
119.6489
 30
0.0
 10
-110.1621
 20
119.6489
 30
0.0
 10
-110.9381
 20
120.0447
 30
0.0
 10
-111.8268
 20
120.162
 30
0.0
 10
-112.679
 20
119.9807
 30
0.0
 10
-112.679
 20
119.9807
 30
0.0
 10
-112.7733
 20
119.9747
 30
0.0
 10
-112.8633
 20
120.0229
 30
0.0
 10
-112.9101
 20
120.1053
 30
0.0
 10
-112.9101
 20
120.1053
 30
0.0
 10
-112.9572
 20
120.1874
 30
0.0
 10
-112.9534
 20
120.2892
 30
0.0
 10
-112.9002
 20
120.3678
 30
0.0
 10
-112.9002
 20
120.3678
 30
0.0
 10
-112.2284
 20
122.0685
 30
0.0
 10
-110.3644
 20
122.9706
 30
0.0
 10
-108.6135
 20
122.4418
 30
0.0
 10
-108.6135
 20
122.4418
 30
0.0
 10
-107.3374
 20
121.9003
 30
0.0
 10
-106.7337
 20
120.4337
 30
0.0
 10
-107.2584
 20
119.151
 30
0.0
 10
-107.2584
 20
119.151
 30
0.0
 10
-107.893
 20
117.5354
 30
0.0
 10
-109.3991
 20
116.4276
 30
0.0
 10
-111.1301
 20
116.3027
 30
0.0
 10
-111.1301
 20
116.3027
 30
0.0
 10
-110.377
 20
116.2157
 30
0.0
 10
-109.6202
 20
116.1605
 30
0.0
 10
-108.8625
 20
116.1367
 30
0.0
 10
-108.8625
 20
116.1367
 30
0.0
 10
-107.6677
 20
116.2175
 30
0.0
 10
-106.5142
 20
116.6085
 30
0.0
 10
-105.5163
 20
117.2702
 30
0.0
 10
-105.5163
 20
117.2702
 30
0.0
 10
-104.2743
 20
118.2003
 30
0.0
 10
-103.6086
 20
119.7118
 30
0.0
 10
-103.7611
 20
121.2557
 30
0.0
 10
-103.7611
 20
121.2557
 30
0.0
 10
-103.9141
 20
122.7996
 30
0.0
 10
-104.8629
 20
124.1516
 30
0.0
 10
-106.2628
 20
124.82
 30
0.0
  0
SPLINE
  5
6D
330
1F
100
AcDbEntity
  8
layer 1
 62
     7
370
     9
100
AcDbSpline
210
0.0
220
0.0
230
1.0
 70
    11
 71
     3
 72
    32
 73
    28
 74
     0
 42
0.0000000001
 43
0.0000000001
 12
1.0
 22
0.0
 32
0.0
 13
1.0
 23
0.0
 33
0.0
 40
0.0
 40
0.0
 40
0.0
 40
0.0
 40
0.125
 40
0.125
 40
0.125
 40
0.125
 40
0.25
 40
0.25
 40
0.25
 40
0.25
 40
0.375
 40
0.375
 40
0.375
 40
0.375
 40
0.5
 40
0.5
 40
0.5
 40
0.5
 40
0.625
 40
0.625
 40
0.625
 40
0.625
 40
0.75
 40
0.75
 40
0.75
 40
0.75
 40
1.0
 40
1.0
 40
1.0
 40
1.0
 10
-76.1191
 20
124.9583
 30
0.0
 10
-76.252
 20
125.0193
 30
0.0
 10
-76.3439
 20
125.1449
 30
0.0
 10
-76.3619
 20
125.2902
 30
0.0
 10
-76.3619
 20
125.2902
 30
0.0
 10
-76.3619
 20
125.2902
 30
0.0
 10
-57.3689
 20
125.2902
 30
0.0
 10
-57.3689
 20
125.2902
 30
0.0
 10
-57.3689
 20
125.2902
 30
0.0
 10
-57.3689
 20
125.2902
 30
0.0
 10
-57.3689
 20
124.4606
 30
0.0
 10
-57.3689
 20
124.4606
 30
0.0
 10
-57.3689
 20
124.4606
 30
0.0
 10
-61.2935
 20
124.8131
 30
0.0
 10
-65.0342
 20
122.7288
 30
0.0
 10
-66.7993
 20
119.2062
 30
0.0
 10
-66.7993
 20
119.2062
 30
0.0
 10
-66.8554
 20
119.1036
 30
0.0
 10
-66.9587
 20
119.0358
 30
0.0
 10
-67.075
 20
119.0246
 30
0.0
 10
-67.075
 20
119.0246
 30
0.0
 10
-67.1913
 20
119.0135
 30
0.0
 10
-67.3057
 20
119.061
 30
0.0
 10
-67.38
 20
119.151
 30
0.0
 10
-67.38
 20
119.151
 30
0.0
 10
-69.6633
 20
121.8988
 30
0.0
 10
-72.7014
 20
123.9175
 30
0.0
 10
-76.1191
 20
124.9583
 30
0.0
  0
SPLINE
  5
6E
330
1F
100
AcDbEntity
  8
layer 1
 62
     7
370
     9
100
AcDbSpline
210
0.0
220
0.0
230
1.0
 70
    11
 71
     3
 72
    88
 73
    84
 74
     0
 42
0.0000000001
 43
0.0000000001
 12
1.0
 22
0.0
 32
0.0
 13
1.0
 23
0.0
 33
0.0
 40
0.0
 40
0.0
 40
0.0
 40
0.0
 40
0.0454545454545455
 40
0.0454545454545455
 40
0.0454545454545455
 40
0.0454545454545455
 40
0.0909090909090909
 40
0.0909090909090909
 40
0.0909090909090909
 40
0.0909090909090909
 40
0.1363636363636364
 40
0.1363636363636364
 40
0.1363636363636364
 40
0.1363636363636364
 40
0.1818181818181818
 40
0.1818181818181818
 40
0.1818181818181818
 40
0.1818181818181818
 40
0.2272727272727273
 40
0.2272727272727273
 40
0.2272727272727273
 40
0.2272727272727273
 40
0.2727272727272727
 40
0.2727272727272727
 40
0.2727272727272727
 40
0.2727272727272727
 40
0.3181818181818182
 40
0.3181818181818182
 40
0.3181818181818182
 40
0.3181818181818182
 40
0.3636363636363636
 40
0.3636363636363636
 40
0.3636363636363636
 40
0.3636363636363636
 40
0.4090909090909091
 40
0.4090909090909091
 40
0.4090909090909091
 40
0.4090909090909091
 40
0.4545454545454545
 40
0.4545454545454545
 40
0.4545454545454545
 40
0.4545454545454545
 40
0.5
 40
0.5
 40
0.5
 40
0.5
 40
0.5454545454545454
 40
0.5454545454545454
 40
0.5454545454545454
 40
0.5454545454545454
 40
0.5909090909090909
 40
0.5909090909090909
 40
0.5909090909090909
 40
0.5909090909090909
 40
0.6363636363636364
 40
0.6363636363636364
 40
0.6363636363636364
 40
0.6363636363636364
 40
0.6818181818181818
 40
0.6818181818181818
 40
0.6818181818181818
 40
0.6818181818181818
 40
0.7272727272727273
 40
0.7272727272727273
 40
0.7272727272727273
 40
0.7272727272727273
 40
0.7727272727272727
 40
0.7727272727272727
 40
0.7727272727272727
 40
0.7727272727272727
 40
0.8181818181818182
 40
0.8181818181818182
 40
0.8181818181818182
 40
0.8181818181818182
 40
0.8636363636363636
 40
0.8636363636363636
 40
0.8636363636363636
 40
0.8636363636363636
 40
0.9090909090909091
 40
0.9090909090909091
 40
0.9090909090909091
 40
0.9090909090909091
 40
1.0
 40
1.0
 40
1.0
 40
1.0
 10
-60.5217
 20
117.8788
 30
0.0
 10
-60.4563
 20
120.0045
 30
0.0
 10
-59.2518
 20
121.9305
 30
0.0
 10
-57.3689
 20
122.9197
 30
0.0
 10
-57.3689
 20
122.9197
 30
0.0
 10
-57.3689
 20
122.9197
 30
0.0
 10
-57.3689
 20
64.1134
 30
0.0
 10
-57.3689
 20
64.1134
 30
0.0
 10
-57.3689
 20
64.1134
 30
0.0
 10
-57.4931
 20
64.4526
 30
0.0
 10
-57.7203
 20
64.7442
 30
0.0
 10
-58.019
 20
64.9473
 30
0.0
 10
-58.019
 20
64.9473
 30
0.0
 10
-58.5986
 20
65.2991
 30
0.0
 10
-59.2516
 20
65.5118
 30
0.0
 10
-59.9271
 20
65.5693
 30
0.0
 10
-59.9271
 20
65.5693
 30
0.0
 10
-60.1707
 20
65.6444
 30
0.0
 10
-60.361
 20
65.8356
 30
0.0
 10
-60.4358
 20
66.0789
 30
0.0
 10
-60.4358
 20
66.0789
 30
0.0
 10
-60.5106
 20
66.3227
 30
0.0
 10
-60.4598
 20
66.5874
 30
0.0
 10
-60.3004
 20
66.7863
 30
0.0
 10
-60.3004
 20
66.7863
 30
0.0
 10
-59.7172
 20
67.4141
 30
0.0
 10
-59.159
 20
68.0643
 30
0.0
 10
-58.6273
 20
68.7362
 30
0.0
 10
-58.6273
 20
68.7362
 30
0.0
 10
-58.4523
 20
69.0907
 30
0.0
 10
-58.4372
 20
69.5034
 30
0.0
 10
-58.5858
 20
69.8698
 30
0.0
 10
-58.5858
 20
69.8698
 30
0.0
 10
-59.2964
 20
71.6057
 30
0.0
 10
-61.0997
 20
72.6327
 30
0.0
 10
-62.9553
 20
72.3588
 30
0.0
 10
-62.9553
 20
72.3588
 30
0.0
 10
-63.0174
 20
72.3806
 30
0.0
 10
-63.0646
 20
72.432
 30
0.0
 10
-63.0813
 20
72.496
 30
0.0
 10
-63.0813
 20
72.496
 30
0.0
 10
-63.0979
 20
72.5595
 30
0.0
 10
-63.0817
 20
72.6274
 30
0.0
 10
-63.0383
 20
72.6768
 30
0.0
 10
-63.0383
 20
72.6768
 30
0.0
 10
-62.364
 20
74.1751
 30
0.0
 10
-62.2271
 20
75.8602
 30
0.0
 10
-62.6511
 20
77.4471
 30
0.0
 10
-62.6511
 20
77.4471
 30
0.0
 10
-63.228
 20
76.2472
 30
0.0
 10
-64.1792
 20
75.267
 30
0.0
 10
-65.3613
 20
74.6542
 30
0.0
 10
-65.3613
 20
74.6542
 30
0.0
 10
-65.4872
 20
74.5476
 30
0.0
 10
-65.6623
 20
74.5208
 30
0.0
 10
-65.8145
 20
74.5852
 30
0.0
 10
-65.8145
 20
74.5852
 30
0.0
 10
-65.9663
 20
74.6496
 30
0.0
 10
-66.0692
 20
74.7937
 30
0.0
 10
-66.0803
 20
74.9585
 30
0.0
 10
-66.0803
 20
74.9585
 30
0.0
 10
-66.0838
 20
76.9152
 30
0.0
 10
-67.3985
 20
78.6266
 30
0.0
 10
-69.2882
 20
79.1344
 30
0.0
 10
-69.2882
 20
79.1344
 30
0.0
 10
-69.3906
 20
79.1735
 30
0.0
 10
-69.4643
 20
79.2647
 30
0.0
 10
-69.4814
 20
79.3731
 30
0.0
 10
-69.4814
 20
79.3731
 30
0.0
 10
-69.4986
 20
79.4816
 30
0.0
 10
-69.4565
 20
79.5908
 30
0.0
 10
-69.3713
 20
79.6598
 30
0.0
 10
-69.3713
 20
79.6598
 30
0.0
 10
-65.9157
 20
83.0919
 30
0.0
 10
-62.9725
 20
87.0034
 30
0.0
 10
-60.6322
 20
91.2747
 30
0.0
 10
-60.6322
 20
91.2747
 30
0.0
 10
-57.5313
 20
97.3817
 30
0.0
 10
-57.1007
 20
104.5011
 30
0.0
 10
-59.4431
 20
110.9376
 30
0.0
 10
-59.4431
 20
110.9376
 30
0.0
 10
-60.1731
 20
113.1783
 30
0.0
 10
-60.5371
 20
115.522
 30
0.0
 10
-60.5217
 20
117.8788
 30
0.0
  0
SPLINE
  5
6F
330
1F
100
AcDbEntity
  8
layer 1
 62
     7
370
     9
100
AcDbSpline
210
0.0
220
0.0
230
1.0
 70
    11
 71
     3
 72
    64
 73
    60
 74
     0
 42
0.0000000001
 43
0.0000000001
 12
1.0
 22
0.0
 32
0.0
 13
1.0
 23
0.0
 33
0.0
 40
0.0
 40
0.0
 40
0.0
 40
0.0
 40
0.0625
 40
0.0625
 40
0.0625
 40
0.0625
 40
0.125
 40
0.125
 40
0.125
 40
0.125
 40
0.1875
 40
0.1875
 40
0.1875
 40
0.1875
 40
0.25
 40
0.25
 40
0.25
 40
0.25
 40
0.3125
 40
0.3125
 40
0.3125
 40
0.3125
 40
0.375
 40
0.375
 40
0.375
 40
0.375
 40
0.4375
 40
0.4375
 40
0.4375
 40
0.4375
 40
0.5
 40
0.5
 40
0.5
 40
0.5
 40
0.5625
 40
0.5625
 40
0.5625
 40
0.5625
 40
0.625
 40
0.625
 40
0.625
 40
0.625
 40
0.6875
 40
0.6875
 40
0.6875
 40
0.6875
 40
0.75
 40
0.75
 40
0.75
 40
0.75
 40
0.8125
 40
0.8125
 40
0.8125
 40
0.8125
 40
0.875
 40
0.875
 40
0.875
 40
0.875
 40
1.0
 40
1.0
 40
1.0
 40
1.0
 10
-57.3689
 20
62.9274
 30
0.0
 10
-57.3689
 20
62.9274
 30
0.0
 10
-57.3689
 20
27.6054
 30
0.0
 10
-57.3689
 20
27.6054
 30
0.0
 10
-57.3689
 20
27.6054
 30
0.0
 10
-59.5611
 20
29.4189
 30
0.0
 10
-60.3224
 20
32.4452
 30
0.0
 10
-59.2496
 20
35.0802
 30
0.0
 10
-59.2496
 20
35.0802
 30
0.0
 10
-56.9304
 20
41.3135
 30
0.0
 10
-58.9497
 20
48.3307
 30
0.0
 10
-64.2274
 20
52.3782
 30
0.0
 10
-64.2274
 20
52.3782
 30
0.0
 10
-64.3019
 20
52.4046
 30
0.0
 10
-64.3556
 20
52.4702
 30
0.0
 10
-64.3673
 20
52.548
 30
0.0
 10
-64.3673
 20
52.548
 30
0.0
 10
-64.3788
 20
52.6261
 30
0.0
 10
-64.3464
 20
52.7047
 30
0.0
 10
-64.2827
 20
52.7514
 30
0.0
 10
-64.2827
 20
52.7514
 30
0.0
 10
-62.9773
 20
53.4443
 30
0.0
 10
-62.2805
 20
54.9108
 30
0.0
 10
-62.5681
 20
56.3606
 30
0.0
 10
-62.5681
 20
56.3606
 30
0.0
 10
-62.5719
 20
56.4322
 30
0.0
 10
-62.5322
 20
56.4996
 30
0.0
 10
-62.4674
 20
56.531
 30
0.0
 10
-62.4674
 20
56.531
 30
0.0
 10
-62.4028
 20
56.5629
 30
0.0
 10
-62.3253
 20
56.5526
 30
0.0
 10
-62.2709
 20
56.5054
 30
0.0
 10
-62.2709
 20
56.5054
 30
0.0
 10
-62.223
 20
56.4881
 30
0.0
 10
-62.1744
 20
56.4721
 30
0.0
 10
-62.1257
 20
56.4572
 30
0.0
 10
-62.1257
 20
56.4572
 30
0.0
 10
-60.9908
 20
55.9137
 30
0.0
 10
-60.0883
 20
54.9813
 30
0.0
 10
-59.5815
 20
53.8298
 30
0.0
 10
-59.5815
 20
53.8298
 30
0.0
 10
-59.0747
 20
56.157
 30
0.0
 10
-59.5554
 20
58.5905
 30
0.0
 10
-60.9088
 20
60.5503
 30
0.0
 10
-60.9088
 20
60.5503
 30
0.0
 10
-60.9866
 20
60.6564
 30
0.0
 10
-60.9943
 20
60.7982
 30
0.0
 10
-60.9283
 20
60.912
 30
0.0
 10
-60.9283
 20
60.912
 30
0.0
 10
-60.8624
 20
61.0262
 30
0.0
 10
-60.7354
 20
61.0902
 30
0.0
 10
-60.6046
 20
61.0756
 30
0.0
 10
-60.6046
 20
61.0756
 30
0.0
 10
-59.6375
 20
61.0979
 30
0.0
 10
-58.7105
 20
61.4661
 30
0.0
 10
-57.9913
 20
62.1127
 30
0.0
 10
-57.9913
 20
62.1127
 30
0.0
 10
-57.7061
 20
62.315
 30
0.0
 10
-57.4892
 20
62.5989
 30
0.0
 10
-57.3689
 20
62.9274
 30
0.0
  0
SPLINE
  5
70
330
1F
100
AcDbEntity
  8
layer 1
 62
     7
370
     9
100
AcDbSpline
210
0.0
220
0.0
230
1.0
 70
    11
 71
     3
 72
   180
 73
   176
 74
     0
 42
0.0000000001
 43
0.0000000001
 12
1.0
 22
0.0
 32
0.0
 13
1.0
 23
0.0
 33
0.0
 40
0.0
 40
0.0
 40
0.0
 40
0.0
 40
0.0222222222222222
 40
0.0222222222222222
 40
0.0222222222222222
 40
0.0222222222222222
 40
0.0444444444444444
 40
0.0444444444444444
 40
0.0444444444444444
 40
0.0444444444444444
 40
0.0666666666666667
 40
0.0666666666666667
 40
0.0666666666666667
 40
0.0666666666666667
 40
0.0888888888888889
 40
0.0888888888888889
 40
0.0888888888888889
 40
0.0888888888888889
 40
0.1111111111111111
 40
0.1111111111111111
 40
0.1111111111111111
 40
0.1111111111111111
 40
0.1333333333333333
 40
0.1333333333333333
 40
0.1333333333333333
 40
0.1333333333333333
 40
0.1555555555555556
 40
0.1555555555555556
 40
0.1555555555555556
 40
0.1555555555555556
 40
0.1777777777777778
 40
0.1777777777777778
 40
0.1777777777777778
 40
0.1777777777777778
 40
0.2
 40
0.2
 40
0.2
 40
0.2
 40
0.2222222222222222
 40
0.2222222222222222
 40
0.2222222222222222
 40
0.2222222222222222
 40
0.2444444444444444
 40
0.2444444444444444
 40
0.2444444444444444
 40
0.2444444444444444
 40
0.2666666666666667
 40
0.2666666666666667
 40
0.2666666666666667
 40
0.2666666666666667
 40
0.2888888888888889
 40
0.2888888888888889
 40
0.2888888888888889
 40
0.2888888888888889
 40
0.3111111111111111
 40
0.3111111111111111
 40
0.3111111111111111
 40
0.3111111111111111
 40
0.3333333333333333
 40
0.3333333333333333
 40
0.3333333333333333
 40
0.3333333333333333
 40
0.3555555555555556
 40
0.3555555555555556
 40
0.3555555555555556
 40
0.3555555555555556
 40
0.3777777777777778
 40
0.3777777777777778
 40
0.3777777777777778
 40
0.3777777777777778
 40
0.4
 40
0.4
 40
0.4
 40
0.4
 40
0.4222222222222222
 40
0.4222222222222222
 40
0.4222222222222222
 40
0.4222222222222222
 40
0.4444444444444444
 40
0.4444444444444444
 40
0.4444444444444444
 40
0.4444444444444444
 40
0.4666666666666667
 40
0.4666666666666667
 40
0.4666666666666667
 40
0.4666666666666667
 40
0.4888888888888889
 40
0.4888888888888889
 40
0.4888888888888889
 40
0.4888888888888889
 40
0.5111111111111111
 40
0.5111111111111111
 40
0.5111111111111111
 40
0.5111111111111111
 40
0.5333333333333333
 40
0.5333333333333333
 40
0.5333333333333333
 40
0.5333333333333333
 40
0.5555555555555556
 40
0.5555555555555556
 40
0.5555555555555556
 40
0.5555555555555556
 40
0.5777777777777777
 40
0.5777777777777777
 40
0.5777777777777777
 40
0.5777777777777777
 40
0.6
 40
0.6
 40
0.6
 40
0.6
 40
0.6222222222222222
 40
0.6222222222222222
 40
0.6222222222222222
 40
0.6222222222222222
 40
0.6444444444444445
 40
0.6444444444444445
 40
0.6444444444444445
 40
0.6444444444444445
 40
0.6666666666666666
 40
0.6666666666666666
 40
0.6666666666666666
 40
0.6666666666666666
 40
0.6888888888888889
 40
0.6888888888888889
 40
0.6888888888888889
 40
0.6888888888888889
 40
0.7111111111111111
 40
0.7111111111111111
 40
0.7111111111111111
 40
0.7111111111111111
 40
0.7333333333333333
 40
0.7333333333333333
 40
0.7333333333333333
 40
0.7333333333333333
 40
0.7555555555555555
 40
0.7555555555555555
 40
0.7555555555555555
 40
0.7555555555555555
 40
0.7777777777777778
 40
0.7777777777777778
 40
0.7777777777777778
 40
0.7777777777777778
 40
0.8
 40
0.8
 40
0.8
 40
0.8
 40
0.8222222222222222
 40
0.8222222222222222
 40
0.8222222222222222
 40
0.8222222222222222
 40
0.8444444444444444
 40
0.8444444444444444
 40
0.8444444444444444
 40
0.8444444444444444
 40
0.8666666666666667
 40
0.8666666666666667
 40
0.8666666666666667
 40
0.8666666666666667
 40
0.8888888888888888
 40
0.8888888888888888
 40
0.8888888888888888
 40
0.8888888888888888
 40
0.9111111111111111
 40
0.9111111111111111
 40
0.9111111111111111
 40
0.9111111111111111
 40
0.9333333333333333
 40
0.9333333333333333
 40
0.9333333333333333
 40
0.9333333333333333
 40
0.9555555555555556
 40
0.9555555555555556
 40
0.9555555555555556
 40
0.9555555555555556
 40
1.0
 40
1.0
 40
1.0
 40
1.0
 10
-62.098
 20
28.6363
 30
0.0
 10
-62.3511
 20
28.9092
 30
0.0
 10
-62.77
 20
28.9452
 30
0.0
 10
-63.0658
 20
28.7194
 30
0.0
 10
-63.0658
 20
28.7194
 30
0.0
 10
-67.252
 20
25.9798
 30
0.0
 10
-72.4348
 20
25.231
 30
0.0
 10
-77.2251
 20
26.6728
 30
0.0
 10
-77.2251
 20
26.6728
 30
0.0
 10
-79.7854
 20
27.4407
 30
0.0
 10
-81.9222
 20
29.218
 30
0.0
 10
-83.1433
 20
31.5955
 30
0.0
 10
-83.1433
 20
31.5955
 30
0.0
 10
-84.5134
 20
34.9172
 30
0.0
 10
-83.5734
 20
38.7441
 30
0.0
 10
-80.8204
 20
41.0533
 30
0.0
 10
-80.8204
 20
41.0533
 30
0.0
 10
-82.0313
 20
36.8682
 30
0.0
 10
-79.8134
 20
32.4566
 30
0.0
 10
-75.7318
 20
30.9318
 30
0.0
 10
-75.7318
 20
30.9318
 30
0.0
 10
-75.788
 20
31.6867
 30
0.0
 10
-75.788
 20
32.4443
 30
0.0
 10
-75.7318
 20
33.1993
 30
0.0
 10
-75.7318
 20
33.1993
 30
0.0
 10
-73.4531
 20
31.7875
 30
0.0
 10
-70.5676
 20
31.804
 30
0.0
 10
-68.3052
 20
33.2419
 30
0.0
 10
-68.3052
 20
33.2419
 30
0.0
 10
-66.0427
 20
34.6792
 30
0.0
 10
-64.8022
 20
37.2848
 30
0.0
 10
-65.1124
 20
39.9469
 30
0.0
 10
-65.1124
 20
39.9469
 30
0.0
 10
-67.2503
 20
36.3823
 30
0.0
 10
-71.506
 20
34.6847
 30
0.0
 10
-75.5105
 20
35.7991
 30
0.0
 10
-75.5105
 20
35.7991
 30
0.0
 10
-73.3995
 20
37.1453
 30
0.0
 10
-71.9626
 20
39.3281
 30
0.0
 10
-71.5614
 20
41.7995
 30
0.0
 10
-71.5614
 20
41.7995
 30
0.0
 10
-71.16
 20
44.2712
 30
0.0
 10
-71.8322
 20
46.7966
 30
0.0
 10
-73.4089
 20
48.7414
 30
0.0
 10
-73.4089
 20
48.7414
 30
0.0
 10
-75.7915
 20
51.0791
 30
0.0
 10
-78.9289
 20
52.4908
 30
0.0
 10
-82.2584
 20
52.7238
 30
0.0
 10
-82.2584
 20
52.7238
 30
0.0
 10
-82.3652
 20
52.7128
 30
0.0
 10
-82.4547
 20
52.638
 30
0.0
 10
-82.4851
 20
52.5353
 30
0.0
 10
-82.4851
 20
52.5353
 30
0.0
 10
-82.5153
 20
52.4318
 30
0.0
 10
-82.4805
 20
52.321
 30
0.0
 10
-82.3966
 20
52.2536
 30
0.0
 10
-82.3966
 20
52.2536
 30
0.0
 10
-78.495
 20
51.276
 30
0.0
 10
-75.8592
 20
47.6374
 30
0.0
 10
-76.1466
 20
43.6254
 30
0.0
 10
-76.1466
 20
43.6254
 30
0.0
 10
-79.7828
 20
48.0612
 30
0.0
 10
-85.2064
 20
50.6464
 30
0.0
 10
-90.9422
 20
50.6775
 30
0.0
 10
-90.9422
 20
50.6775
 30
0.0
 10
-94.0569
 20
50.8675
 30
0.0
 10
-97.1764
 20
50.3966
 30
0.0
 10
-100.0961
 20
49.2944
 30
0.0
 10
-100.0961
 20
49.2944
 30
0.0
 10
-100.1766
 20
49.2534
 30
0.0
 10
-100.2248
 20
49.1683
 30
0.0
 10
-100.2188
 20
49.0779
 30
0.0
 10
-100.2188
 20
49.0779
 30
0.0
 10
-100.213
 20
48.9879
 30
0.0
 10
-100.1536
 20
48.9097
 30
0.0
 10
-100.0681
 20
48.8798
 30
0.0
 10
-100.0681
 20
48.8798
 30
0.0
 10
-95.4936
 20
50.1724
 30
0.0
 10
-90.5778
 20
49.2403
 30
0.0
 10
-86.7938
 20
46.3632
 30
0.0
 10
-86.7938
 20
46.3632
 30
0.0
 10
-83.9849
 20
42.8671
 30
0.0
 10
-83.805
 20
37.942
 30
0.0
 10
-86.3515
 20
34.25
 30
0.0
 10
-86.3515
 20
34.25
 30
0.0
 10
-85.6463
 20
36.6785
 30
0.0
 10
-86.1501
 20
39.2975
 30
0.0
 10
-87.7054
 20
41.2909
 30
0.0
 10
-87.7054
 20
41.2909
 30
0.0
 10
-89.2606
 20
43.2844
 30
0.0
 10
-91.6787
 20
44.4099
 30
0.0
 10
-94.2053
 20
44.3169
 30
0.0
 10
-94.2053
 20
44.3169
 30
0.0
 10
-91.3534
 20
43.0146
 30
0.0
 10
-89.963
 20
39.7542
 30
0.0
 10
-90.9974
 20
36.7947
 30
0.0
 10
-90.9974
 20
36.7947
 30
0.0
 10
-92.5551
 20
39.3748
 30
0.0
 10
-95.1223
 20
41.1844
 30
0.0
 10
-98.0762
 20
41.7833
 30
0.0
 10
-98.0762
 20
41.7833
 30
0.0
 10
-101.03
 20
42.3827
 30
0.0
 10
-104.0995
 20
41.7167
 30
0.0
 10
-106.5395
 20
39.9469
 30
0.0
 10
-106.5395
 20
39.9469
 30
0.0
 10
-101.2307
 20
32.5831
 30
0.0
 10
-92.7724
 20
28.1385
 30
0.0
 10
-83.6965
 20
27.945
 30
0.0
 10
-83.6965
 20
27.945
 30
0.0
 10
-85.5517
 20
26.365
 30
0.0
 10
-87.8512
 20
25.3989
 30
0.0
 10
-90.2785
 20
25.1797
 30
0.0
 10
-90.2785
 20
25.1797
 30
0.0
 10
-87.3969
 20
22.509
 30
0.0
 10
-84.2669
 20
20.1197
 30
0.0
 10
-80.931
 20
18.0446
 30
0.0
 10
-80.931
 20
18.0446
 30
0.0
 10
-79.8016
 20
18.6048
 30
0.0
 10
-78.9705
 20
19.6269
 30
0.0
 10
-78.6522
 20
20.8467
 30
0.0
 10
-78.6522
 20
20.8467
 30
0.0
 10
-78.3339
 20
22.0665
 30
0.0
 10
-78.5599
 20
23.3648
 30
0.0
 10
-79.2716
 20
24.4052
 30
0.0
 10
-79.2716
 20
24.4052
 30
0.0
 10
-76.1478
 20
22.6079
 30
0.0
 10
-74.8642
 20
18.757
 30
0.0
 10
-76.285
 20
15.4448
 30
0.0
 10
-76.285
 20
15.4448
 30
0.0
 10
-74.3072
 20
14.2412
 30
0.0
 10
-72.1056
 20
13.4506
 30
0.0
 10
-69.8136
 20
13.1218
 30
0.0
 10
-69.8136
 20
13.1218
 30
0.0
 10
-67.5957
 20
12.7451
 30
0.0
 10
-65.3162
 20
12.9938
 30
0.0
 10
-63.2318
 20
13.8411
 30
0.0
 10
-63.2318
 20
13.8411
 30
0.0
 10
-61.3289
 20
15.0364
 30
0.0
 10
-60.2432
 20
17.1861
 30
0.0
 10
-60.4111
 20
19.4272
 30
0.0
 10
-60.4111
 20
19.4272
 30
0.0
 10
-60.4188
 20
19.5346
 30
0.0
 10
-60.484
 20
19.6296
 30
0.0
 10
-60.5814
 20
19.6756
 30
0.0
 10
-60.5814
 20
19.6756
 30
0.0
 10
-60.6788
 20
19.7212
 30
0.0
 10
-60.7933
 20
19.7108
 30
0.0
 10
-60.8812
 20
19.6483
 30
0.0
 10
-60.8812
 20
19.6483
 30
0.0
 10
-62.4134
 20
17.1475
 30
0.0
 10
-65.6423
 20
16.2944
 30
0.0
 10
-68.2097
 20
17.7128
 30
0.0
 10
-68.2097
 20
17.7128
 30
0.0
 10
-69.2869
 20
18.3742
 30
0.0
 10
-69.9946
 20
19.4997
 30
0.0
 10
-70.1247
 20
20.757
 30
0.0
 10
-70.1247
 20
20.757
 30
0.0
 10
-70.2548
 20
22.0143
 30
0.0
 10
-69.7922
 20
23.2605
 30
0.0
 10
-68.8735
 20
24.1286
 30
0.0
 10
-68.8735
 20
24.1286
 30
0.0
 10
-65.6421
 20
26.1523
 30
0.0
 10
-61.4018
 20
25.3855
 30
0.0
 10
-59.0835
 20
22.3588
 30
0.0
 10
-59.0835
 20
22.3588
 30
0.0
 10
-58.1418
 20
21.2084
 30
0.0
 10
-57.5471
 20
19.8135
 30
0.0
 10
-57.3689
 20
18.3374
 30
0.0
 10
-57.3689
 20
18.3374
 30
0.0
 10
-57.3689
 20
18.3374
 30
0.0
 10
-57.3689
 20
25.6771
 30
0.0
 10
-57.3689
 20
25.6771
 30
0.0
 10
-57.3689
 20
25.6771
 30
0.0
 10
-59.298
 20
25.9366
 30
0.0
 10
-61.0213
 20
27.0149
 30
0.0
 10
-62.098
 20
28.6363
 30
0.0
  0
SPLINE
  5
71
330
1F
100
AcDbEntity
  8
layer 1
 62
     7
370
     9
100
AcDbSpline
210
0.0
220
0.0
230
1.0
 70
    11
 71
     3
 72
    24
 73
    20
 74
     0
 42
0.0000000001
 43
0.0000000001
 12
1.0
 22
0.0
 32
0.0
 13
1.0
 23
0.0
 33
0.0
 40
0.0
 40
0.0
 40
0.0
 40
0.0
 40
0.1666666666666667
 40
0.1666666666666667
 40
0.1666666666666667
 40
0.1666666666666667
 40
0.3333333333333333
 40
0.3333333333333333
 40
0.3333333333333333
 40
0.3333333333333333
 40
0.5
 40
0.5
 40
0.5
 40
0.5
 40
0.6666666666666666
 40
0.6666666666666666
 40
0.6666666666666666
 40
0.6666666666666666
 40
1.0
 40
1.0
 40
1.0
 40
1.0
 10
-87.1256
 20
17.2149
 30
0.0
 10
-87.1268
 20
17.1161
 30
0.0
 10
-87.2066
 20
17.0363
 30
0.0
 10
-87.3054
 20
17.0352
 30
0.0
 10
-87.3054
 20
17.0352
 30
0.0
 10
-96.5839
 20
18.242
 30
0.0
 10
-104.2602
 20
24.8428
 30
0.0
 10
-106.8438
 20
33.8354
 30
0.0
 10
-106.8438
 20
33.8354
 30
0.0
 10
-106.8633
 20
33.9554
 30
0.0
 10
-106.81
 20
34.0754
 30
0.0
 10
-106.7081
 20
34.1412
 30
0.0
 10
-106.7081
 20
34.1412
 30
0.0
 10
-106.6062
 20
34.2076
 30
0.0
 10
-106.4748
 20
34.2068
 30
0.0
 10
-106.3735
 20
34.1397
 30
0.0
 10
-106.3735
 20
34.1397
 30
0.0
 10
-100.5828
 20
27.8243
 30
0.0
 10
-94.1298
 20
22.15
 30
0.0
 10
-87.1256
 20
17.2149
 30
0.0
  0
SPLINE
  5
72
330
1F
100
AcDbEntity
  8
layer 1
 62
     7
370
     9
100
AcDbSpline
210
0.0
220
0.0
230
1.0
 70
    11
 71
     3
 72
   348
 73
   344
 74
     0
 42
0.0000000001
 43
0.0000000001
 12
1.0
 22
0.0
 32
0.0
 13
1.0
 23
0.0
 33
0.0
 40
0.0
 40
0.0
 40
0.0
 40
0.0
 40
0.0114942528735632
 40
0.0114942528735632
 40
0.0114942528735632
 40
0.0114942528735632
 40
0.0229885057471264
 40
0.0229885057471264
 40
0.0229885057471264
 40
0.0229885057471264
 40
0.0344827586206897
 40
0.0344827586206897
 40
0.0344827586206897
 40
0.0344827586206897
 40
0.0459770114942529
 40
0.0459770114942529
 40
0.0459770114942529
 40
0.0459770114942529
 40
0.0574712643678161
 40
0.0574712643678161
 40
0.0574712643678161
 40
0.0574712643678161
 40
0.0689655172413793
 40
0.0689655172413793
 40
0.0689655172413793
 40
0.0689655172413793
 40
0.0804597701149425
 40
0.0804597701149425
 40
0.0804597701149425
 40
0.0804597701149425
 40
0.0919540229885057
 40
0.0919540229885057
 40
0.0919540229885057
 40
0.0919540229885057
 40
0.103448275862069
 40
0.103448275862069
 40
0.103448275862069
 40
0.103448275862069
 40
0.1149425287356322
 40
0.1149425287356322
 40
0.1149425287356322
 40
0.1149425287356322
 40
0.1264367816091954
 40
0.1264367816091954
 40
0.1264367816091954
 40
0.1264367816091954
 40
0.1379310344827586
 40
0.1379310344827586
 40
0.1379310344827586
 40
0.1379310344827586
 40
0.1494252873563219
 40
0.1494252873563219
 40
0.1494252873563219
 40
0.1494252873563219
 40
0.1609195402298851
 40
0.1609195402298851
 40
0.1609195402298851
 40
0.1609195402298851
 40
0.1724137931034483
 40
0.1724137931034483
 40
0.1724137931034483
 40
0.1724137931034483
 40
0.1839080459770115
 40
0.1839080459770115
 40
0.1839080459770115
 40
0.1839080459770115
 40
0.1954022988505747
 40
0.1954022988505747
 40
0.1954022988505747
 40
0.1954022988505747
 40
0.2068965517241379
 40
0.2068965517241379
 40
0.2068965517241379
 40
0.2068965517241379
 40
0.2183908045977012
 40
0.2183908045977012
 40
0.2183908045977012
 40
0.2183908045977012
 40
0.2298850574712644
 40
0.2298850574712644
 40
0.2298850574712644
 40
0.2298850574712644
 40
0.2413793103448276
 40
0.2413793103448276
 40
0.2413793103448276
 40
0.2413793103448276
 40
0.2528735632183908
 40
0.2528735632183908
 40
0.2528735632183908
 40
0.2528735632183908
 40
0.264367816091954
 40
0.264367816091954
 40
0.264367816091954
 40
0.264367816091954
 40
0.2758620689655172
 40
0.2758620689655172
 40
0.2758620689655172
 40
0.2758620689655172
 40
0.2873563218390804
 40
0.2873563218390804
 40
0.2873563218390804
 40
0.2873563218390804
 40
0.2988505747126437
 40
0.2988505747126437
 40
0.2988505747126437
 40
0.2988505747126437
 40
0.3103448275862069
 40
0.3103448275862069
 40
0.3103448275862069
 40
0.3103448275862069
 40
0.3218390804597701
 40
0.3218390804597701
 40
0.3218390804597701
 40
0.3218390804597701
 40
0.3333333333333333
 40
0.3333333333333333
 40
0.3333333333333333
 40
0.3333333333333333
 40
0.3448275862068966
 40
0.3448275862068966
 40
0.3448275862068966
 40
0.3448275862068966
 40
0.3563218390804598
 40
0.3563218390804598
 40
0.3563218390804598
 40
0.3563218390804598
 40
0.367816091954023
 40
0.367816091954023
 40
0.367816091954023
 40
0.367816091954023
 40
0.3793103448275862
 40
0.3793103448275862
 40
0.3793103448275862
 40
0.3793103448275862
 40
0.3908045977011494
 40
0.3908045977011494
 40
0.3908045977011494
 40
0.3908045977011494
 40
0.4022988505747127
 40
0.4022988505747127
 40
0.4022988505747127
 40
0.4022988505747127
 40
0.4137931034482759
 40
0.4137931034482759
 40
0.4137931034482759
 40
0.4137931034482759
 40
0.4252873563218391
 40
0.4252873563218391
 40
0.4252873563218391
 40
0.4252873563218391
 40
0.4367816091954023
 40
0.4367816091954023
 40
0.4367816091954023
 40
0.4367816091954023
 40
0.4482758620689655
 40
0.4482758620689655
 40
0.4482758620689655
 40
0.4482758620689655
 40
0.4597701149425287
 40
0.4597701149425287
 40
0.4597701149425287
 40
0.4597701149425287
 40
0.4712643678160919
 40
0.4712643678160919
 40
0.4712643678160919
 40
0.4712643678160919
 40
0.4827586206896552
 40
0.4827586206896552
 40
0.4827586206896552
 40
0.4827586206896552
 40
0.4942528735632184
 40
0.4942528735632184
 40
0.4942528735632184
 40
0.4942528735632184
 40
0.5057471264367817
 40
0.5057471264367817
 40
0.5057471264367817
 40
0.5057471264367817
 40
0.5172413793103449
 40
0.5172413793103449
 40
0.5172413793103449
 40
0.5172413793103449
 40
0.5287356321839081
 40
0.5287356321839081
 40
0.5287356321839081
 40
0.5287356321839081
 40
0.5402298850574713
 40
0.5402298850574713
 40
0.5402298850574713
 40
0.5402298850574713
 40
0.5517241379310345
 40
0.5517241379310345
 40
0.5517241379310345
 40
0.5517241379310345
 40
0.5632183908045977
 40
0.5632183908045977
 40
0.5632183908045977
 40
0.5632183908045977
 40
0.5747126436781609
 40
0.5747126436781609
 40
0.5747126436781609
 40
0.5747126436781609
 40
0.5862068965517241
 40
0.5862068965517241
 40
0.5862068965517241
 40
0.5862068965517241
 40
0.5977011494252874
 40
0.5977011494252874
 40
0.5977011494252874
 40
0.5977011494252874
 40
0.6091954022988506
 40
0.6091954022988506
 40
0.6091954022988506
 40
0.6091954022988506
 40
0.6206896551724138
 40
0.6206896551724138
 40
0.6206896551724138
 40
0.6206896551724138
 40
0.632183908045977
 40
0.632183908045977
 40
0.632183908045977
 40
0.632183908045977
 40
0.6436781609195402
 40
0.6436781609195402
 40
0.6436781609195402
 40
0.6436781609195402
 40
0.6551724137931034
 40
0.6551724137931034
 40
0.6551724137931034
 40
0.6551724137931034
 40
0.6666666666666666
 40
0.6666666666666666
 40
0.6666666666666666
 40
0.6666666666666666
 40
0.6781609195402298
 40
0.6781609195402298
 40
0.6781609195402298
 40
0.6781609195402298
 40
0.6896551724137931
 40
0.6896551724137931
 40
0.6896551724137931
 40
0.6896551724137931
 40
0.7011494252873564
 40
0.7011494252873564
 40
0.7011494252873564
 40
0.7011494252873564
 40
0.7126436781609196
 40
0.7126436781609196
 40
0.7126436781609196
 40
0.7126436781609196
 40
0.7241379310344828
 40
0.7241379310344828
 40
0.7241379310344828
 40
0.7241379310344828
 40
0.735632183908046
 40
0.735632183908046
 40
0.735632183908046
 40
0.735632183908046
 40
0.7471264367816092
 40
0.7471264367816092
 40
0.7471264367816092
 40
0.7471264367816092
 40
0.7586206896551724
 40
0.7586206896551724
 40
0.7586206896551724
 40
0.7586206896551724
 40
0.7701149425287356
 40
0.7701149425287356
 40
0.7701149425287356
 40
0.7701149425287356
 40
0.7816091954022989
 40
0.7816091954022989
 40
0.7816091954022989
 40
0.7816091954022989
 40
0.7931034482758621
 40
0.7931034482758621
 40
0.7931034482758621
 40
0.7931034482758621
 40
0.8045977011494253
 40
0.8045977011494253
 40
0.8045977011494253
 40
0.8045977011494253
 40
0.8160919540229885
 40
0.8160919540229885
 40
0.8160919540229885
 40
0.8160919540229885
 40
0.8275862068965517
 40
0.8275862068965517
 40
0.8275862068965517
 40
0.8275862068965517
 40
0.8390804597701149
 40
0.8390804597701149
 40
0.8390804597701149
 40
0.8390804597701149
 40
0.8505747126436781
 40
0.8505747126436781
 40
0.8505747126436781
 40
0.8505747126436781
 40
0.8620689655172413
 40
0.8620689655172413
 40
0.8620689655172413
 40
0.8620689655172413
 40
0.8735632183908046
 40
0.8735632183908046
 40
0.8735632183908046
 40
0.8735632183908046
 40
0.8850574712643678
 40
0.8850574712643678
 40
0.8850574712643678
 40
0.8850574712643678
 40
0.896551724137931
 40
0.896551724137931
 40
0.896551724137931
 40
0.896551724137931
 40
0.9080459770114943
 40
0.9080459770114943
 40
0.9080459770114943
 40
0.9080459770114943
 40
0.9195402298850575
 40
0.9195402298850575
 40
0.9195402298850575
 40
0.9195402298850575
 40
0.9310344827586207
 40
0.9310344827586207
 40
0.9310344827586207
 40
0.9310344827586207
 40
0.9425287356321839
 40
0.9425287356321839
 40
0.9425287356321839
 40
0.9425287356321839
 40
0.9540229885057471
 40
0.9540229885057471
 40
0.9540229885057471
 40
0.9540229885057471
 40
0.9655172413793104
 40
0.9655172413793104
 40
0.9655172413793104
 40
0.9655172413793104
 40
0.9770114942528736
 40
0.9770114942528736
 40
0.9770114942528736
 40
0.9770114942528736
 40
1.0
 40
1.0
 40
1.0
 40
1.0
 10
-146.3155
 20
26.3458
 30
0.0
 10
-145.2176
 20
27.0832
 30
0.0
 10
-144.7274
 20
28.4493
 30
0.0
 10
-145.1061
 20
29.717
 30
0.0
 10
-145.1061
 20
29.717
 30
0.0
 10
-145.4847
 20
30.9843
 30
0.0
 10
-146.644
 20
31.8576
 30
0.0
 10
-147.9664
 20
31.8718
 30
0.0
 10
-147.9664
 20
31.8718
 30
0.0
 10
-149.4422
 20
31.9979
 30
0.0
 10
-150.8961
 20
31.4499
 30
0.0
 10
-151.9216
 20
30.3814
 30
0.0
 10
-151.9216
 20
30.3814
 30
0.0
 10
-152.9471
 20
29.3126
 30
0.0
 10
-153.435
 20
27.8381
 30
0.0
 10
-153.2487
 20
26.3688
 30
0.0
 10
-153.2487
 20
26.3688
 30
0.0
 10
-153.2698
 20
26.2443
 30
0.0
 10
-153.3744
 20
26.1516
 30
0.0
 10
-153.5001
 20
26.1446
 30
0.0
 10
-153.5001
 20
26.1446
 30
0.0
 10
-153.6262
 20
26.1381
 30
0.0
 10
-153.74
 20
26.2198
 30
0.0
 10
-153.7741
 20
26.3409
 30
0.0
 10
-153.7741
 20
26.3409
 30
0.0
 10
-154.7456
 20
28.7788
 30
0.0
 10
-156.9131
 20
30.5379
 30
0.0
 10
-159.4986
 20
30.9869
 30
0.0
 10
-159.4986
 20
30.9869
 30
0.0
 10
-157.4403
 20
29.6477
 30
0.0
 10
-156.3164
 20
27.2598
 30
0.0
 10
-156.595
 20
24.8199
 30
0.0
 10
-156.595
 20
24.8199
 30
0.0
 10
-157.0732
 20
25.4629
 30
0.0
 10
-157.7725
 20
25.9063
 30
0.0
 10
-158.5586
 20
26.0645
 30
0.0
 10
-158.5586
 20
26.0645
 30
0.0
 10
-157.115
 20
24.1324
 30
0.0
 10
-156.6751
 20
21.6296
 30
0.0
 10
-157.3736
 20
19.3214
 30
0.0
 10
-157.3736
 20
19.3214
 30
0.0
 10
-158.0722
 20
17.013
 30
0.0
 10
-159.8258
 20
15.1739
 30
0.0
 10
-162.0983
 20
14.3665
 30
0.0
 10
-162.0983
 20
14.3665
 30
0.0
 10
-162.2122
 20
14.3742
 30
0.0
 10
-162.3118
 20
14.4473
 30
0.0
 10
-162.3532
 20
14.5538
 30
0.0
 10
-162.3532
 20
14.5538
 30
0.0
 10
-162.3946
 20
14.6604
 30
0.0
 10
-162.3708
 20
14.7815
 30
0.0
 10
-162.2919
 20
14.8643
 30
0.0
 10
-162.2919
 20
14.8643
 30
0.0
 10
-160.8118
 20
15.8235
 30
0.0
 10
-159.8117
 20
17.3686
 30
0.0
 10
-159.5426
 20
19.1115
 30
0.0
 10
-159.5426
 20
19.1115
 30
0.0
 10
-159.2732
 20
20.854
 30
0.0
 10
-159.76
 20
22.6291
 30
0.0
 10
-160.8813
 20
23.9902
 30
0.0
 10
-160.8813
 20
23.9902
 30
0.0
 10
-163.4987
 20
26.278
 30
0.0
 10
-167.3794
 20
26.3596
 30
0.0
 10
-170.0904
 20
24.1838
 30
0.0
 10
-170.0904
 20
24.1838
 30
0.0
 10
-171.4193
 20
23.1459
 30
0.0
 10
-172.1287
 20
21.5027
 30
0.0
 10
-171.9719
 20
19.8238
 30
0.0
 10
-171.9719
 20
19.8238
 30
0.0
 10
-171.8152
 20
18.145
 30
0.0
 10
-170.8143
 20
16.6611
 30
0.0
 10
-169.3163
 20
15.8875
 30
0.0
 10
-169.3163
 20
15.8875
 30
0.0
 10
-169.2568
 20
15.8353
 30
0.0
 10
-169.2361
 20
15.7522
 30
0.0
 10
-169.2637
 20
15.6786
 30
0.0
 10
-169.2637
 20
15.6786
 30
0.0
 10
-169.2913
 20
15.6046
 30
0.0
 10
-169.3619
 20
15.5559
 30
0.0
 10
-169.4404
 20
15.5556
 30
0.0
 10
-169.4404
 20
15.5556
 30
0.0
 10
-171.3837
 20
15.9806
 30
0.0
 10
-173.0542
 20
17.213
 30
0.0
 10
-174.0332
 20
18.9444
 30
0.0
 10
-174.0332
 20
18.9444
 30
0.0
 10
-175.0124
 20
20.6757
 30
0.0
 10
-175.2078
 20
22.742
 30
0.0
 10
-174.5705
 20
24.6263
 30
0.0
 10
-174.5705
 20
24.6263
 30
0.0
 10
-173.2599
 20
29.0748
 30
0.0
 10
-169.5614
 20
32.4094
 30
0.0
 10
-165.002
 20
33.2549
 30
0.0
 10
-165.002
 20
33.2549
 30
0.0
 10
-162.5337
 20
33.6297
 30
0.0
 10
-160.0156
 20
33.517
 30
0.0
 10
-157.5906
 20
32.923
 30
0.0
 10
-157.5906
 20
32.923
 30
0.0
 10
-158.1558
 20
34.8839
 30
0.0
 10
-159.5499
 20
36.5003
 30
0.0
 10
-161.4066
 20
37.3476
 30
0.0
 10
-161.4066
 20
37.3476
 30
0.0
 10
-158.8797
 20
37.776
 30
0.0
 10
-156.3021
 20
36.951
 30
0.0
 10
-154.493
 20
35.1354
 30
0.0
 10
-154.493
 20
35.1354
 30
0.0
 10
-153.5833
 20
34.3117
 30
0.0
 10
-152.2083
 20
34.2765
 30
0.0
 10
-151.2575
 20
35.0521
 30
0.0
 10
-151.2575
 20
35.0521
 30
0.0
 10
-150.2098
 20
34.5981
 30
0.0
 10
-148.99
 20
34.8472
 30
0.0
 10
-148.2044
 20
35.676
 30
0.0
 10
-148.2044
 20
35.676
 30
0.0
 10
-147.4188
 20
36.5049
 30
0.0
 10
-147.2352
 20
37.7362
 30
0.0
 10
-147.7454
 20
38.7579
 30
0.0
 10
-147.7454
 20
38.7579
 30
0.0
 10
-147.7775
 20
38.8081
 30
0.0
 10
-147.7795
 20
38.8716
 30
0.0
 10
-147.7502
 20
38.9238
 30
0.0
 10
-147.7502
 20
38.9238
 30
0.0
 10
-147.7216
 20
38.9759
 30
0.0
 10
-147.6664
 20
39.0077
 30
0.0
 10
-147.607
 20
39.007
 30
0.0
 10
-147.607
 20
39.007
 30
0.0
 10
-145.0233
 20
38.0531
 30
0.0
 10
-142.7148
 20
36.4762
 30
0.0
 10
-140.8869
 20
34.4163
 30
0.0
 10
-140.8869
 20
34.4163
 30
0.0
 10
-140.5784
 20
34.0516
 30
0.0
 10
-140.0848
 20
33.9018
 30
0.0
 10
-139.6257
 20
34.0332
 30
0.0
 10
-139.6257
 20
34.0332
 30
0.0
 10
-139.1666
 20
34.1642
 30
0.0
 10
-138.8267
 20
34.552
 30
0.0
 10
-138.7573
 20
35.0246
 30
0.0
 10
-138.7573
 20
35.0246
 30
0.0
 10
-138.588
 20
36.1343
 30
0.0
 10
-138.5975
 20
37.264
 30
0.0
 10
-138.7854
 20
38.3709
 30
0.0
 10
-138.7854
 20
38.3709
 30
0.0
 10
-138.8102
 20
38.4294
 30
0.0
 10
-138.8057
 20
38.4969
 30
0.0
 10
-138.7726
 20
38.5517
 30
0.0
 10
-138.7726
 20
38.5517
 30
0.0
 10
-138.7401
 20
38.6065
 30
0.0
 10
-138.683
 20
38.6421
 30
0.0
 10
-138.619
 20
38.6475
 30
0.0
 10
-138.619
 20
38.6475
 30
0.0
 10
-136.7815
 20
37.1629
 30
0.0
 10
-135.4877
 20
35.1108
 30
0.0
 10
-134.9409
 20
32.8122
 30
0.0
 10
-134.9409
 20
32.8122
 30
0.0
 10
-134.7661
 20
32.5455
 30
0.0
 10
-134.4723
 20
32.3803
 30
0.0
 10
-134.1533
 20
32.3692
 30
0.0
 10
-134.1533
 20
32.3692
 30
0.0
 10
-133.8345
 20
32.3582
 30
0.0
 10
-133.5302
 20
32.503
 30
0.0
 10
-133.3371
 20
32.757
 30
0.0
 10
-133.3371
 20
32.757
 30
0.0
 10
-133.1065
 20
33.0766
 30
0.0
 10
-132.9547
 20
33.4461
 30
0.0
 10
-132.8945
 20
33.8354
 30
0.0
 10
-132.8945
 20
33.8354
 30
0.0
 10
-132.8818
 20
33.8921
 30
0.0
 10
-132.8773
 20
33.9504
 30
0.0
 10
-132.8807
 20
34.0082
 30
0.0
 10
-132.8807
 20
34.0082
 30
0.0
 10
-132.8554
 20
34.1569
 30
0.0
 10
-132.729
 20
34.2677
 30
0.0
 10
-132.578
 20
34.2727
 30
0.0
 10
-132.578
 20
34.2727
 30
0.0
 10
-132.4273
 20
34.2776
 30
0.0
 10
-132.2936
 20
34.1757
 30
0.0
 10
-132.2584
 20
34.029
 30
0.0
 10
-132.2584
 20
34.029
 30
0.0
 10
-132.03
 20
33.0295
 30
0.0
 10
-131.4754
 20
32.1344
 30
0.0
 10
-130.6822
 20
31.4848
 30
0.0
 10
-130.6822
 20
31.4848
 30
0.0
 10
-129.4379
 20
30.7248
 30
0.0
 10
-127.8679
 20
30.7463
 30
0.0
 10
-126.6446
 20
31.5403
 30
0.0
 10
-126.6446
 20
31.5403
 30
0.0
 10
-126.4465
 20
31.6247
 30
0.0
 10
-126.2169
 20
31.5833
 30
0.0
 10
-126.0609
 20
31.4346
 30
0.0
 10
-126.0609
 20
31.4346
 30
0.0
 10
-128.9555
 20
25.7319
 30
0.0
 10
-130.6055
 20
19.4797
 30
0.0
 10
-130.9017
 20
13.0912
 30
0.0
 10
-130.9017
 20
13.0912
 30
0.0
 10
-131.1134
 20
13.1099
 30
0.0
 10
-131.3149
 20
13.1877
 30
0.0
 10
-131.4842
 20
13.3157
 30
0.0
 10
-131.4842
 20
13.3157
 30
0.0
 10
-132.0894
 20
14.3516
 30
0.0
 10
-133.1532
 20
15.0359
 30
0.0
 10
-134.3469
 20
15.1571
 30
0.0
 10
-134.3469
 20
15.1571
 30
0.0
 10
-135.5402
 20
15.2789
 30
0.0
 10
-136.7201
 20
14.8229
 30
0.0
 10
-137.5219
 20
13.93
 30
0.0
 10
-137.5219
 20
13.93
 30
0.0
 10
-137.6835
 20
13.7981
 30
0.0
 10
-137.8851
 20
13.7104
 30
0.0
 10
-138.1094
 20
13.6885
 30
0.0
 10
-138.1094
 20
13.6885
 30
0.0
 10
-138.202
 20
13.6817
 30
0.0
 10
-138.2948
 20
13.6805
 30
0.0
 10
-138.3868
 20
13.6958
 30
0.0
 10
-138.3868
 20
13.6958
 30
0.0
 10
-138.4581
 20
13.7077
 30
0.0
 10
-138.5274
 20
13.725
 30
0.0
 10
-138.5953
 20
13.7499
 30
0.0
 10
-138.5953
 20
13.7499
 30
0.0
 10
-138.7286
 20
13.7985
 30
0.0
 10
-138.8509
 20
13.8728
 30
0.0
 10
-138.9562
 20
13.9679
 30
0.0
 10
-138.9562
 20
13.9679
 30
0.0
 10
-139.062
 20
14.0634
 30
0.0
 10
-139.1467
 20
14.1786
 30
0.0
 10
-139.2099
 20
14.3067
 30
0.0
 10
-139.2099
 20
14.3067
 30
0.0
 10
-139.252
 20
14.3983
 30
0.0
 10
-139.2854
 20
14.4937
 30
0.0
 10
-139.3004
 20
14.5937
 30
0.0
 10
-139.3004
 20
14.5937
 30
0.0
 10
-139.3046
 20
14.6217
 30
0.0
 10
-139.3088
 20
14.6493
 30
0.0
 10
-139.313
 20
14.6772
 30
0.0
 10
-139.313
 20
14.6772
 30
0.0
 10
-139.3724
 20
15.2823
 30
0.0
 10
-138.9298
 20
15.8215
 30
0.0
 10
-138.3243
 20
15.881
 30
0.0
 10
-138.3243
 20
15.881
 30
0.0
 10
-138.1006
 20
15.9028
 30
0.0
 10
-137.8855
 20
15.8561
 30
0.0
 10
-137.7012
 20
15.7579
 30
0.0
 10
-137.7012
 20
15.7579
 30
0.0
 10
-136.2909
 20
15.2126
 30
0.0
 10
-134.691
 20
15.5916
 30
0.0
 10
-133.6751
 20
16.711
 30
0.0
 10
-133.6751
 20
16.711
 30
0.0
 10
-132.6592
 20
17.8304
 30
0.0
 10
-132.4369
 20
19.4594
 30
0.0
 10
-133.1156
 20
20.8099
 30
0.0
 10
-133.1156
 20
20.8099
 30
0.0
 10
-133.9001
 20
21.9952
 30
0.0
 10
-135.2601
 20
22.6681
 30
0.0
 10
-136.678
 20
22.5727
 30
0.0
 10
-136.678
 20
22.5727
 30
0.0
 10
-138.0959
 20
22.4769
 30
0.0
 10
-139.3536
 20
21.6273
 30
0.0
 10
-139.971
 20
20.3473
 30
0.0
 10
-139.971
 20
20.3473
 30
0.0
 10
-140.0702
 20
20.1634
 30
0.0
 10
-140.2235
 20
20.0055
 30
0.0
 10
-140.4221
 20
19.8998
 30
0.0
 10
-140.4221
 20
19.8998
 30
0.0
 10
-140.5052
 20
19.8584
 30
0.0
 10
-140.5907
 20
19.8216
 30
0.0
 10
-140.6815
 20
19.8009
 30
0.0
 10
-140.6815
 20
19.8009
 30
0.0
 10
-140.752
 20
19.7844
 30
0.0
 10
-140.8225
 20
19.7737
 30
0.0
 10
-140.8949
 20
19.7709
 30
0.0
 10
-140.8949
 20
19.7709
 30
0.0
 10
-141.0367
 20
19.7652
 30
0.0
 10
-141.1778
 20
19.7874
 30
0.0
 10
-141.3115
 20
19.8349
 30
0.0
 10
-141.3115
 20
19.8349
 30
0.0
 10
-141.4456
 20
19.8828
 30
0.0
 10
-141.5682
 20
19.9568
 30
0.0
 10
-141.6755
 20
20.0511
 30
0.0
 10
-141.6755
 20
20.0511
 30
0.0
 10
-141.7491
 20
20.1197
 30
0.0
 10
-141.8162
 20
20.1956
 30
0.0
 10
-141.8683
 20
20.2821
 30
0.0
 10
-141.8683
 20
20.2821
 30
0.0
 10
-141.8829
 20
20.3064
 30
0.0
 10
-141.8975
 20
20.33
 30
0.0
 10
-141.912
 20
20.3543
 30
0.0
 10
-141.912
 20
20.3543
 30
0.0
 10
-142.1979
 20
20.8911
 30
0.0
 10
-141.9943
 20
21.5583
 30
0.0
 10
-141.4575
 20
21.8442
 30
0.0
 10
-141.4575
 20
21.8442
 30
0.0
 10
-141.2589
 20
21.9499
 30
0.0
 10
-141.0424
 20
21.9887
 30
0.0
 10
-140.8344
 20
21.9684
 30
0.0
 10
-140.8344
 20
21.9684
 30
0.0
 10
-139.2999
 20
21.9814
 30
0.0
 10
-137.971
 20
23.0364
 30
0.0
 10
-137.6108
 20
24.5282
 30
0.0
 10
-137.6108
 20
24.5282
 30
0.0
 10
-137.2505
 20
26.0197
 30
0.0
 10
-137.9511
 20
27.5648
 30
0.0
 10
-139.3107
 20
28.2769
 30
0.0
 10
-139.3107
 20
28.2769
 30
0.0
 10
-140.4362
 20
28.9544
 30
0.0
 10
-141.838
 20
28.9797
 30
0.0
 10
-142.9876
 20
28.3439
 30
0.0
 10
-142.9876
 20
28.3439
 30
0.0
 10
-144.1374
 20
27.7082
 30
0.0
 10
-144.8605
 20
26.5075
 30
0.0
 10
-144.8854
 20
25.1939
 30
0.0
 10
-144.8854
 20
25.1939
 30
0.0
 10
-144.9042
 20
24.9862
 30
0.0
 10
-144.983
 20
24.7808
 30
0.0
 10
-145.1245
 20
24.6052
 30
0.0
 10
-145.1245
 20
24.6052
 30
0.0
 10
-145.1842
 20
24.5344
 30
0.0
 10
-145.2486
 20
24.4673
 30
0.0
 10
-145.3238
 20
24.4125
 30
0.0
 10
-145.3238
 20
24.4125
 30
0.0
 10
-145.3824
 20
24.3699
 30
0.0
 10
-145.443
 20
24.3324
 30
0.0
 10
-145.5085
 20
24.3014
 30
0.0
 10
-145.5085
 20
24.3014
 30
0.0
 10
-145.6364
 20
24.2405
 30
0.0
 10
-145.7752
 20
24.2052
 30
0.0
 10
-145.9166
 20
24.1964
 30
0.0
 10
-145.9166
 20
24.1964
 30
0.0
 10
-146.0588
 20
24.1876
 30
0.0
 10
-146.201
 20
24.2079
 30
0.0
 10
-146.3362
 20
24.2523
 30
0.0
 10
-146.3362
 20
24.2523
 30
0.0
 10
-146.4308
 20
24.2864
 30
0.0
 10
-146.5224
 20
24.3298
 30
0.0
 10
-146.6044
 20
24.3892
 30
0.0
 10
-146.6044
 20
24.3892
 30
0.0
 10
-146.6275
 20
24.4056
 30
0.0
 10
-146.6501
 20
24.4217
 30
0.0
 10
-146.6731
 20
24.4382
 30
0.0
 10
-146.6731
 20
24.4382
 30
0.0
 10
-147.1467
 20
24.8199
 30
0.0
 10
-147.2214
 20
25.5131
 30
0.0
 10
-146.8402
 20
25.9871
 30
0.0
 10
-146.8402
 20
25.9871
 30
0.0
 10
-146.6987
 20
26.1623
 30
0.0
 10
-146.5151
 20
26.283
 30
0.0
 10
-146.3155
 20
26.3458
 30
0.0
  0
SPLINE
  5
73
330
1F
100
AcDbEntity
  8
layer 1
 62
     7
370
     9
100
AcDbSpline
210
0.0
220
0.0
230
1.0
 70
    11
 71
     3
 72
    32
 73
    28
 74
     0
 42
0.0000000001
 43
0.0000000001
 12
1.0
 22
0.0
 32
0.0
 13
1.0
 23
0.0
 33
0.0
 40
0.0
 40
0.0
 40
0.0
 40
0.0
 40
0.125
 40
0.125
 40
0.125
 40
0.125
 40
0.25
 40
0.25
 40
0.25
 40
0.25
 40
0.375
 40
0.375
 40
0.375
 40
0.375
 40
0.5
 40
0.5
 40
0.5
 40
0.5
 40
0.625
 40
0.625
 40
0.625
 40
0.625
 40
0.75
 40
0.75
 40
0.75
 40
0.75
 40
1.0
 40
1.0
 40
1.0
 40
1.0
 10
-126.617
 20
38.9242
 30
0.0
 10
-128.7642
 20
43.8884
 30
0.0
 10
-133.4091
 20
47.3193
 30
0.0
 10
-138.7854
 20
47.9118
 30
0.0
 10
-138.7854
 20
47.9118
 30
0.0
 10
-149.9412
 20
49.086
 30
0.0
 10
-161.1522
 20
46.2636
 30
0.0
 10
-170.4222
 20
39.9469
 30
0.0
 10
-170.4222
 20
39.9469
 30
0.0
 10
-165.5615
 20
45.6094
 30
0.0
 10
-158.8295
 20
49.3385
 30
0.0
 10
-151.451
 20
50.4563
 30
0.0
 10
-151.451
 20
50.4563
 30
0.0
 10
-140.002
 20
53.0075
 30
0.0
 10
-128.051
 20
49.4013
 30
0.0
 10
-119.9245
 20
40.943
 30
0.0
 10
-119.9245
 20
40.943
 30
0.0
 10
-121.4466
 20
39.1004
 30
0.0
 10
-122.8297
 20
37.1483
 30
0.0
 10
-124.0628
 20
35.1012
 30
0.0
 10
-124.0628
 20
35.1012
 30
0.0
 10
-124.356
 20
35.1407
 30
0.0
 10
-124.5737
 20
35.3925
 30
0.0
 10
-124.5707
 20
35.6883
 30
0.0
 10
-124.5707
 20
35.6883
 30
0.0
 10
-124.8477
 20
36.9755
 30
0.0
 10
-125.5728
 20
38.1221
 30
0.0
 10
-126.617
 20
38.9242
 30
0.0
  0
SPLINE
  5
74
330
1F
100
AcDbEntity
  8
layer 1
 62
     7
370
     9
100
AcDbSpline
210
0.0
220
0.0
230
1.0
 70
    11
 71
     3
 72
    72
 73
    68
 74
     0
 42
0.0000000001
 43
0.0000000001
 12
1.0
 22
0.0
 32
0.0
 13
1.0
 23
0.0
 33
0.0
 40
0.0
 40
0.0
 40
0.0
 40
0.0
 40
0.0555555555555556
 40
0.0555555555555556
 40
0.0555555555555556
 40
0.0555555555555556
 40
0.1111111111111111
 40
0.1111111111111111
 40
0.1111111111111111
 40
0.1111111111111111
 40
0.1666666666666667
 40
0.1666666666666667
 40
0.1666666666666667
 40
0.1666666666666667
 40
0.2222222222222222
 40
0.2222222222222222
 40
0.2222222222222222
 40
0.2222222222222222
 40
0.2777777777777778
 40
0.2777777777777778
 40
0.2777777777777778
 40
0.2777777777777778
 40
0.3333333333333333
 40
0.3333333333333333
 40
0.3333333333333333
 40
0.3333333333333333
 40
0.3888888888888889
 40
0.3888888888888889
 40
0.3888888888888889
 40
0.3888888888888889
 40
0.4444444444444444
 40
0.4444444444444444
 40
0.4444444444444444
 40
0.4444444444444444
 40
0.5
 40
0.5
 40
0.5
 40
0.5
 40
0.5555555555555556
 40
0.5555555555555556
 40
0.5555555555555556
 40
0.5555555555555556
 40
0.6111111111111112
 40
0.6111111111111112
 40
0.6111111111111112
 40
0.6111111111111112
 40
0.6666666666666666
 40
0.6666666666666666
 40
0.6666666666666666
 40
0.6666666666666666
 40
0.7222222222222222
 40
0.7222222222222222
 40
0.7222222222222222
 40
0.7222222222222222
 40
0.7777777777777778
 40
0.7777777777777778
 40
0.7777777777777778
 40
0.7777777777777778
 40
0.8333333333333334
 40
0.8333333333333334
 40
0.8333333333333334
 40
0.8333333333333334
 40
0.8888888888888888
 40
0.8888888888888888
 40
0.8888888888888888
 40
0.8888888888888888
 40
1.0
 40
1.0
 40
1.0
 40
1.0
 10
-137.7342
 20
87.2924
 30
0.0
 10
-137.9634
 20
89.0126
 30
0.0
 10
-138.8566
 20
90.5742
 30
0.0
 10
-140.2232
 20
91.6434
 30
0.0
 10
-140.2232
 20
91.6434
 30
0.0
 10
-140.7785
 20
91.9492
 30
0.0
 10
-141.4525
 20
91.9457
 30
0.0
 10
-142.0048
 20
91.6341
 30
0.0
 10
-142.0048
 20
91.6341
 30
0.0
 10
-142.5569
 20
91.3223
 30
0.0
 10
-142.9083
 20
90.7466
 30
0.0
 10
-142.9332
 20
90.1132
 30
0.0
 10
-142.9332
 20
90.1132
 30
0.0
 10
-143.1893
 20
87.9699
 30
0.0
 10
-143.9997
 20
85.9299
 30
0.0
 10
-145.2839
 20
84.1951
 30
0.0
 10
-145.2839
 20
84.1951
 30
0.0
 10
-145.5511
 20
83.8993
 30
0.0
 10
-145.5629
 20
83.4532
 30
0.0
 10
-145.3115
 20
83.1439
 30
0.0
 10
-145.3115
 20
83.1439
 30
0.0
 10
-143.5981
 20
81.8476
 30
0.0
 10
-143.2196
 20
79.4268
 30
0.0
 10
-144.4542
 20
77.6686
 30
0.0
 10
-144.4542
 20
77.6686
 30
0.0
 10
-144.6792
 20
77.4846
 30
0.0
 10
-144.8022
 20
77.2045
 30
0.0
 10
-144.7858
 20
76.9144
 30
0.0
 10
-144.7858
 20
76.9144
 30
0.0
 10
-144.7696
 20
76.6247
 30
0.0
 10
-144.6156
 20
76.3603
 30
0.0
 10
-144.3715
 20
76.2028
 30
0.0
 10
-144.3715
 20
76.2028
 30
0.0
 10
-144.0296
 20
75.9058
 30
0.0
 10
-143.8292
 20
75.4785
 30
0.0
 10
-143.8184
 20
75.0259
 30
0.0
 10
-143.8184
 20
75.0259
 30
0.0
 10
-143.8081
 20
74.5734
 30
0.0
 10
-143.9887
 20
74.1372
 30
0.0
 10
-144.316
 20
73.8245
 30
0.0
 10
-144.316
 20
73.8245
 30
0.0
 10
-144.555
 20
73.6792
 30
0.0
 10
-144.7194
 20
73.4374
 30
0.0
 10
-144.7673
 20
73.162
 30
0.0
 10
-144.7673
 20
73.162
 30
0.0
 10
-144.8152
 20
72.8864
 30
0.0
 10
-144.7412
 20
72.6036
 30
0.0
 10
-144.565
 20
72.3864
 30
0.0
 10
-144.565
 20
72.3864
 30
0.0
 10
-144.25
 20
71.203
 30
0.0
 10
-144.834
 20
69.9648
 30
0.0
 10
-145.9477
 20
69.4551
 30
0.0
 10
-145.9477
 20
69.4551
 30
0.0
 10
-146.2627
 20
69.1738
 30
0.0
 10
-146.4152
 20
68.7534
 30
0.0
 10
-146.3538
 20
68.3361
 30
0.0
 10
-146.3538
 20
68.3361
 30
0.0
 10
-146.2926
 20
67.9184
 30
0.0
 10
-146.0258
 20
67.5597
 30
0.0
 10
-145.6434
 20
67.3808
 30
0.0
 10
-145.6434
 20
67.3808
 30
0.0
 10
-142.6126
 20
70.7086
 30
0.0
 10
-140.2634
 20
74.5982
 30
0.0
 10
-138.7297
 20
78.8301
 30
0.0
 10
-138.7297
 20
78.8301
 30
0.0
 10
-137.7613
 20
81.5391
 30
0.0
 10
-137.4211
 20
84.4327
 30
0.0
 10
-137.7342
 20
87.2924
 30
0.0
  0
SPLINE
  5
75
330
1F
100
AcDbEntity
  8
layer 1
 62
     7
370
     9
100
AcDbSpline
210
0.0
220
0.0
230
1.0
 70
    11
 71
     3
 72
    36
 73
    32
 74
     0
 42
0.0000000001
 43
0.0000000001
 12
1.0
 22
0.0
 32
0.0
 13
1.0
 23
0.0
 33
0.0
 40
0.0
 40
0.0
 40
0.0
 40
0.0
 40
0.1111111111111111
 40
0.1111111111111111
 40
0.1111111111111111
 40
0.1111111111111111
 40
0.2222222222222222
 40
0.2222222222222222
 40
0.2222222222222222
 40
0.2222222222222222
 40
0.3333333333333333
 40
0.3333333333333333
 40
0.3333333333333333
 40
0.3333333333333333
 40
0.4444444444444444
 40
0.4444444444444444
 40
0.4444444444444444
 40
0.4444444444444444
 40
0.5555555555555556
 40
0.5555555555555556
 40
0.5555555555555556
 40
0.5555555555555556
 40
0.6666666666666666
 40
0.6666666666666666
 40
0.6666666666666666
 40
0.6666666666666666
 40
0.7777777777777778
 40
0.7777777777777778
 40
0.7777777777777778
 40
0.7777777777777778
 40
1.0
 40
1.0
 40
1.0
 40
1.0
 10
-146.473
 20
82.1208
 30
0.0
 10
-146.5256
 20
82.2304
 30
0.0
 10
-146.634
 20
82.3024
 30
0.0
 10
-146.7554
 20
82.3082
 30
0.0
 10
-146.7554
 20
82.3082
 30
0.0
 10
-146.8765
 20
82.3139
 30
0.0
 10
-146.9915
 20
82.2526
 30
0.0
 10
-147.054
 20
82.1488
 30
0.0
 10
-147.054
 20
82.1488
 30
0.0
 10
-148.2389
 20
80.9739
 30
0.0
 10
-149.663
 20
80.0683
 30
0.0
 10
-151.2299
 20
79.4938
 30
0.0
 10
-151.2299
 20
79.4938
 30
0.0
 10
-154.1657
 20
78.6424
 30
0.0
 10
-157.2177
 20
78.2595
 30
0.0
 10
-160.2731
 20
78.3599
 30
0.0
 10
-160.2731
 20
78.3599
 30
0.0
 10
-159.8883
 20
78.0495
 30
0.0
 10
-159.4917
 20
77.754
 30
0.0
 10
-159.084
 20
77.4751
 30
0.0
 10
-159.084
 20
77.4751
 30
0.0
 10
-158.0833
 20
77.8437
 30
0.0
 10
-156.9621
 20
77.6426
 30
0.0
 10
-156.1523
 20
76.9493
 30
0.0
 10
-156.1523
 20
76.9493
 30
0.0
 10
-154.1301
 20
76.5216
 30
0.0
 10
-152.0427
 20
76.5028
 30
0.0
 10
-150.0128
 20
76.8941
 30
0.0
 10
-150.0128
 20
76.8941
 30
0.0
 10
-147.6702
 20
77.4755
 30
0.0
 10
-146.1435
 20
79.73
 30
0.0
 10
-146.473
 20
82.1208
 30
0.0
  0
SPLINE
  5
76
330
1F
100
AcDbEntity
  8
layer 1
 62
     7
370
     9
100
AcDbSpline
210
0.0
220
0.0
230
1.0
 70
    11
 71
     3
 72
    48
 73
    44
 74
     0
 42
0.0000000001
 43
0.0000000001
 12
1.0
 22
0.0
 32
0.0
 13
1.0
 23
0.0
 33
0.0
 40
0.0
 40
0.0
 40
0.0
 40
0.0
 40
0.0833333333333333
 40
0.0833333333333333
 40
0.0833333333333333
 40
0.0833333333333333
 40
0.1666666666666667
 40
0.1666666666666667
 40
0.1666666666666667
 40
0.1666666666666667
 40
0.25
 40
0.25
 40
0.25
 40
0.25
 40
0.3333333333333333
 40
0.3333333333333333
 40
0.3333333333333333
 40
0.3333333333333333
 40
0.4166666666666667
 40
0.4166666666666667
 40
0.4166666666666667
 40
0.4166666666666667
 40
0.5
 40
0.5
 40
0.5
 40
0.5
 40
0.5833333333333334
 40
0.5833333333333334
 40
0.5833333333333334
 40
0.5833333333333334
 40
0.6666666666666666
 40
0.6666666666666666
 40
0.6666666666666666
 40
0.6666666666666666
 40
0.75
 40
0.75
 40
0.75
 40
0.75
 40
0.8333333333333334
 40
0.8333333333333334
 40
0.8333333333333334
 40
0.8333333333333334
 40
1.0
 40
1.0
 40
1.0
 40
1.0
 10
-146.9432
 20
65.6111
 30
0.0
 10
-147.6606
 20
66.1605
 30
0.0
 10
-148.6647
 20
66.1318
 30
0.0
 10
-149.349
 20
65.5421
 30
0.0
 10
-149.349
 20
65.5421
 30
0.0
 10
-149.5
 20
65.0455
 30
0.0
 10
-149.853
 20
64.6354
 30
0.0
 10
-150.3209
 20
64.4119
 30
0.0
 10
-150.3209
 20
64.4119
 30
0.0
 10
-150.7892
 20
64.1885
 30
0.0
 10
-151.3296
 20
64.1721
 30
0.0
 10
-151.8105
 20
64.3663
 30
0.0
 10
-151.8105
 20
64.3663
 30
0.0
 10
-151.8726
 20
64.3921
 30
0.0
 10
-151.9431
 20
64.3878
 30
0.0
 10
-152.0021
 20
64.3557
 30
0.0
 10
-152.0021
 20
64.3557
 30
0.0
 10
-152.0611
 20
64.3234
 30
0.0
 10
-152.1024
 20
64.2667
 30
0.0
 10
-152.1147
 20
64.2008
 30
0.0
 10
-152.1147
 20
64.2008
 30
0.0
 10
-152.3209
 20
62.9856
 30
0.0
 10
-153.1012
 20
61.9452
 30
0.0
 10
-154.2102
 20
61.4072
 30
0.0
 10
-154.2102
 20
61.4072
 30
0.0
 10
-155.3188
 20
60.8691
 30
0.0
 10
-156.6191
 20
60.9002
 30
0.0
 10
-157.7009
 20
61.4903
 30
0.0
 10
-157.7009
 20
61.4903
 30
0.0
 10
-158.3754
 20
58.9711
 30
0.0
 10
-159.5614
 20
56.6173
 30
0.0
 10
-161.1855
 20
54.5767
 30
0.0
 10
-161.1855
 20
54.5767
 30
0.0
 10
-161.2158
 20
54.5112
 30
0.0
 10
-161.2043
 20
54.4338
 30
0.0
 10
-161.1564
 20
54.3797
 30
0.0
 10
-161.1564
 20
54.3797
 30
0.0
 10
-161.1085
 20
54.3257
 30
0.0
 10
-161.033
 20
54.3054
 30
0.0
 10
-160.9644
 20
54.3279
 30
0.0
 10
-160.9644
 20
54.3279
 30
0.0
 10
-155.6108
 20
57.1558
 30
0.0
 10
-150.8509
 20
60.9863
 30
0.0
 10
-146.9432
 20
65.6111
 30
0.0
  0
SPLINE
  5
77
330
1F
100
AcDbEntity
  8
layer 1
 62
     7
370
     9
100
AcDbSpline
210
0.0
220
0.0
230
1.0
 70
    11
 71
     3
 72
    28
 73
    24
 74
     0
 42
0.0000000001
 43
0.0000000001
 12
1.0
 22
0.0
 32
0.0
 13
1.0
 23
0.0
 33
0.0
 40
0.0
 40
0.0
 40
0.0
 40
0.0
 40
0.1428571428571428
 40
0.1428571428571428
 40
0.1428571428571428
 40
0.1428571428571428
 40
0.2857142857142857
 40
0.2857142857142857
 40
0.2857142857142857
 40
0.2857142857142857
 40
0.4285714285714285
 40
0.4285714285714285
 40
0.4285714285714285
 40
0.4285714285714285
 40
0.5714285714285714
 40
0.5714285714285714
 40
0.5714285714285714
 40
0.5714285714285714
 40
0.7142857142857143
 40
0.7142857142857143
 40
0.7142857142857143
 40
0.7142857142857143
 40
1.0
 40
1.0
 40
1.0
 40
1.0
 10
-157.397
 20
62.4859
 30
0.0
 10
-156.647
 20
67.6815
 30
0.0
 10
-158.0562
 20
72.9577
 30
0.0
 10
-161.2962
 20
77.0876
 30
0.0
 10
-161.2962
 20
77.0876
 30
0.0
 10
-160.6851
 20
77.1696
 30
0.0
 10
-160.0731
 20
76.9413
 30
0.0
 10
-159.6645
 20
76.4795
 30
0.0
 10
-159.6645
 20
76.4795
 30
0.0
 10
-159.4185
 20
75.2333
 30
0.0
 10
-158.3609
 20
74.3116
 30
0.0
 10
-157.0927
 20
74.2392
 30
0.0
 10
-157.0927
 20
74.2392
 30
0.0
 10
-156.8387
 20
73.5804
 30
0.0
 10
-156.5336
 20
72.9424
 30
0.0
 10
-156.1799
 20
72.3312
 30
0.0
 10
-156.1799
 20
72.3312
 30
0.0
 10
-155.663
 20
71.4448
 30
0.0
 10
-155.128
 20
70.5687
 30
0.0
 10
-154.5761
 20
69.7038
 30
0.0
 10
-154.5761
 20
69.7038
 30
0.0
 10
-153.5281
 20
66.9305
 30
0.0
 10
-154.7464
 20
63.8137
 30
0.0
 10
-157.397
 20
62.4859
 30
0.0
  0
SPLINE
  5
78
330
1F
100
AcDbEntity
  8
layer 1
 62
     7
370
     9
100
AcDbSpline
210
0.0
220
0.0
230
1.0
 70
    11
 71
     3
 72
    20
 73
    16
 74
     0
 42
0.0000000001
 43
0.0000000001
 12
1.0
 22
0.0
 32
0.0
 13
1.0
 23
0.0
 33
0.0
 40
0.0
 40
0.0
 40
0.0
 40
0.0
 40
0.2
 40
0.2
 40
0.2
 40
0.2
 40
0.4
 40
0.4
 40
0.4
 40
0.4
 40
0.6
 40
0.6
 40
0.6
 40
0.6
 40
1.0
 40
1.0
 40
1.0
 40
1.0
 10
-155.0464
 20
92.1044
 30
0.0
 10
-151.9913
 20
92.1044
 30
0.0
 10
-149.515
 20
94.2091
 30
0.0
 10
-149.515
 20
96.8057
 30
0.0
 10
-149.515
 20
96.8057
 30
0.0
 10
-149.515
 20
99.4024
 30
0.0
 10
-151.9913
 20
101.507
 30
0.0
 10
-155.0464
 20
101.507
 30
0.0
 10
-155.0464
 20
101.507
 30
0.0
 10
-158.1014
 20
101.507
 30
0.0
 10
-160.5778
 20
99.4024
 30
0.0
 10
-160.5778
 20
96.8057
 30
0.0
 10
-160.5778
 20
96.8057
 30
0.0
 10
-160.5778
 20
94.2091
 30
0.0
 10
-158.1014
 20
92.1044
 30
0.0
 10
-155.0464
 20
92.1044
 30
0.0
  0
SPLINE
  5
79
330
1F
100
AcDbEntity
  8
layer 1
 62
     7
370
     9
100
AcDbSpline
210
0.0
220
0.0
230
1.0
 70
    11
 71
     3
 72
   120
 73
   116
 74
     0
 42
0.0000000001
 43
0.0000000001
 12
1.0
 22
0.0
 32
0.0
 13
1.0
 23
0.0
 33
0.0
 40
0.0
 40
0.0
 40
0.0
 40
0.0
 40
0.0333333333333333
 40
0.0333333333333333
 40
0.0333333333333333
 40
0.0333333333333333
 40
0.0666666666666667
 40
0.0666666666666667
 40
0.0666666666666667
 40
0.0666666666666667
 40
0.1
 40
0.1
 40
0.1
 40
0.1
 40
0.1333333333333333
 40
0.1333333333333333
 40
0.1333333333333333
 40
0.1333333333333333
 40
0.1666666666666667
 40
0.1666666666666667
 40
0.1666666666666667
 40
0.1666666666666667
 40
0.2
 40
0.2
 40
0.2
 40
0.2
 40
0.2333333333333333
 40
0.2333333333333333
 40
0.2333333333333333
 40
0.2333333333333333
 40
0.2666666666666667
 40
0.2666666666666667
 40
0.2666666666666667
 40
0.2666666666666667
 40
0.3
 40
0.3
 40
0.3
 40
0.3
 40
0.3333333333333333
 40
0.3333333333333333
 40
0.3333333333333333
 40
0.3333333333333333
 40
0.3666666666666666
 40
0.3666666666666666
 40
0.3666666666666666
 40
0.3666666666666666
 40
0.4
 40
0.4
 40
0.4
 40
0.4
 40
0.4333333333333333
 40
0.4333333333333333
 40
0.4333333333333333
 40
0.4333333333333333
 40
0.4666666666666667
 40
0.4666666666666667
 40
0.4666666666666667
 40
0.4666666666666667
 40
0.5
 40
0.5
 40
0.5
 40
0.5
 40
0.5333333333333333
 40
0.5333333333333333
 40
0.5333333333333333
 40
0.5333333333333333
 40
0.5666666666666667
 40
0.5666666666666667
 40
0.5666666666666667
 40
0.5666666666666667
 40
0.6
 40
0.6
 40
0.6
 40
0.6
 40
0.6333333333333333
 40
0.6333333333333333
 40
0.6333333333333333
 40
0.6333333333333333
 40
0.6666666666666666
 40
0.6666666666666666
 40
0.6666666666666666
 40
0.6666666666666666
 40
0.7
 40
0.7
 40
0.7
 40
0.7
 40
0.7333333333333333
 40
0.7333333333333333
 40
0.7333333333333333
 40
0.7333333333333333
 40
0.7666666666666667
 40
0.7666666666666667
 40
0.7666666666666667
 40
0.7666666666666667
 40
0.8
 40
0.8
 40
0.8
 40
0.8
 40
0.8333333333333334
 40
0.8333333333333334
 40
0.8333333333333334
 40
0.8333333333333334
 40
0.8666666666666667
 40
0.8666666666666667
 40
0.8666666666666667
 40
0.8666666666666667
 40
0.9
 40
0.9
 40
0.9
 40
0.9
 40
0.9333333333333333
 40
0.9333333333333333
 40
0.9333333333333333
 40
0.9333333333333333
 40
1.0
 40
1.0
 40
1.0
 40
1.0
 10
-145.8925
 20
92.9065
 30
0.0
 10
-145.8905
 20
92.9226
 30
0.0
 10
-145.8882
 20
92.9386
 30
0.0
 10
-145.8867
 20
92.9544
 30
0.0
 10
-145.8867
 20
92.9544
 30
0.0
 10
-147.5882
 20
90.4408
 30
0.0
 10
-150.9525
 20
88.7302
 30
0.0
 10
-154.8249
 20
88.7302
 30
0.0
 10
-154.8249
 20
88.7302
 30
0.0
 10
-160.4148
 20
88.7302
 30
0.0
 10
-164.9468
 20
92.296
 30
0.0
 10
-164.9468
 20
96.6949
 30
0.0
 10
-164.9468
 20
96.6949
 30
0.0
 10
-164.9468
 20
101.041
 30
0.0
 10
-160.5229
 20
104.5738
 30
0.0
 10
-155.0188
 20
104.6574
 30
0.0
 10
-155.0188
 20
104.6574
 30
0.0
 10
-154.9782
 20
104.9187
 30
0.0
 10
-155.0713
 20
105.1828
 30
0.0
 10
-155.2674
 20
105.3602
 30
0.0
 10
-155.2674
 20
105.3602
 30
0.0
 10
-157.3928
 20
106.8801
 30
0.0
 10
-158.1493
 20
109.6895
 30
0.0
 10
-157.0744
 20
112.0712
 30
0.0
 10
-157.0744
 20
112.0712
 30
0.0
 10
-156.0244
 20
114.4506
 30
0.0
 10
-153.7335
 20
116.0444
 30
0.0
 10
-151.1376
 20
116.2011
 30
0.0
 10
-151.1376
 20
116.2011
 30
0.0
 10
-150.9927
 20
116.2524
 30
0.0
 10
-150.8931
 20
116.3858
 30
0.0
 10
-150.885
 20
116.5391
 30
0.0
 10
-150.885
 20
116.5391
 30
0.0
 10
-150.877
 20
116.6923
 30
0.0
 10
-150.9621
 20
116.8357
 30
0.0
 10
-151.1008
 20
116.9016
 30
0.0
 10
-151.1008
 20
116.9016
 30
0.0
 10
-154.3707
 20
117.2151
 30
0.0
 10
-157.6205
 20
116.1249
 30
0.0
 10
-160.0397
 20
113.9025
 30
0.0
 10
-160.0397
 20
113.9025
 30
0.0
 10
-162.459
 20
111.6799
 30
0.0
 10
-163.8205
 20
108.5348
 30
0.0
 10
-163.7852
 20
105.2495
 30
0.0
 10
-163.7852
 20
105.2495
 30
0.0
 10
-166.5318
 20
108.7678
 30
0.0
 10
-165.9669
 20
113.8351
 30
0.0
 10
-162.513
 20
116.6621
 30
0.0
 10
-162.513
 20
116.6621
 30
0.0
 10
-162.4819
 20
116.7487
 30
0.0
 10
-162.5069
 20
116.8456
 30
0.0
 10
-162.5759
 20
116.9066
 30
0.0
 10
-162.5759
 20
116.9066
 30
0.0
 10
-162.6452
 20
116.9675
 30
0.0
 10
-162.7445
 20
116.9802
 30
0.0
 10
-162.8265
 20
116.9384
 30
0.0
 10
-162.8265
 20
116.9384
 30
0.0
 10
-167.4998
 20
114.5076
 30
0.0
 10
-170.4242
 20
109.6695
 30
0.0
 10
-170.4039
 20
104.4015
 30
0.0
 10
-170.4039
 20
104.4015
 30
0.0
 10
-171.2875
 20
104.9077
 30
0.0
 10
-172.0394
 20
105.6151
 30
0.0
 10
-172.5977
 20
106.4666
 30
0.0
 10
-172.5977
 20
106.4666
 30
0.0
 10
-172.6594
 20
106.4969
 30
0.0
 10
-172.7322
 20
106.4922
 30
0.0
 10
-172.7893
 20
106.4543
 30
0.0
 10
-172.7893
 20
106.4543
 30
0.0
 10
-172.8465
 20
106.4164
 30
0.0
 10
-172.879
 20
106.3505
 30
0.0
 10
-172.8744
 20
106.2823
 30
0.0
 10
-172.8744
 20
106.2823
 30
0.0
 10
-173.0779
 20
105.2196
 30
0.0
 10
-173.1461
 20
104.1355
 30
0.0
 10
-173.0771
 20
103.0555
 30
0.0
 10
-173.0771
 20
103.0555
 30
0.0
 10
-173.0086
 20
100.9184
 30
0.0
 10
-172.2736
 20
98.8555
 30
0.0
 10
-170.9756
 20
97.1559
 30
0.0
 10
-170.9756
 20
97.1559
 30
0.0
 10
-170.9073
 20
97.0704
 30
0.0
 10
-170.7974
 20
97.0291
 30
0.0
 10
-170.6897
 20
97.0483
 30
0.0
 10
-170.6897
 20
97.0483
 30
0.0
 10
-170.582
 20
97.0674
 30
0.0
 10
-170.4935
 20
97.1444
 30
0.0
 10
-170.4594
 20
97.2483
 30
0.0
 10
-170.4594
 20
97.2483
 30
0.0
 10
-169.9045
 20
98.2987
 30
0.0
 10
-168.6832
 20
98.8087
 30
0.0
 10
-167.5462
 20
98.465
 30
0.0
 10
-167.5462
 20
98.465
 30
0.0
 10
-166.365
 20
98.2918
 30
0.0
 10
-165.5481
 20
97.1943
 30
0.0
 10
-165.7209
 20
96.0128
 30
0.0
 10
-165.7209
 20
96.0128
 30
0.0
 10
-165.8941
 20
94.8317
 30
0.0
 10
-166.9921
 20
94.0147
 30
0.0
 10
-168.1731
 20
94.1876
 30
0.0
 10
-168.1731
 20
94.1876
 30
0.0
 10
-169.8485
 20
94.537
 30
0.0
 10
-171.3411
 20
95.4798
 30
0.0
 10
-172.3767
 20
96.8424
 30
0.0
 10
-172.3767
 20
96.8424
 30
0.0
 10
-171.0837
 20
93.8301
 30
0.0
 10
-169.302
 20
91.0517
 30
0.0
 10
-167.1035
 20
88.6198
 30
0.0
 10
-167.1035
 20
88.6198
 30
0.0
 10
-163.6795
 20
85.0271
 30
0.0
 10
-158.7537
 20
83.2723
 30
0.0
 10
-153.8293
 20
83.8909
 30
0.0
 10
-153.8293
 20
83.8909
 30
0.0
 10
-149.5407
 20
84.9102
 30
0.0
 10
-146.36
 20
88.5228
 30
0.0
 10
-145.8925
 20
92.9065
 30
0.0
  0
SPLINE
  5
7A
330
1F
100
AcDbEntity
  8
layer 1
 62
     7
370
     9
100
AcDbSpline
210
0.0
220
0.0
230
1.0
 70
    11
 71
     3
 72
    36
 73
    32
 74
     0
 42
0.0000000001
 43
0.0000000001
 12
1.0
 22
0.0
 32
0.0
 13
1.0
 23
0.0
 33
0.0
 40
0.0
 40
0.0
 40
0.0
 40
0.0
 40
0.1111111111111111
 40
0.1111111111111111
 40
0.1111111111111111
 40
0.1111111111111111
 40
0.2222222222222222
 40
0.2222222222222222
 40
0.2222222222222222
 40
0.2222222222222222
 40
0.3333333333333333
 40
0.3333333333333333
 40
0.3333333333333333
 40
0.3333333333333333
 40
0.4444444444444444
 40
0.4444444444444444
 40
0.4444444444444444
 40
0.4444444444444444
 40
0.5555555555555556
 40
0.5555555555555556
 40
0.5555555555555556
 40
0.5555555555555556
 40
0.6666666666666666
 40
0.6666666666666666
 40
0.6666666666666666
 40
0.6666666666666666
 40
0.7777777777777778
 40
0.7777777777777778
 40
0.7777777777777778
 40
0.7777777777777778
 40
1.0
 40
1.0
 40
1.0
 40
1.0
 10
-146.941
 20
102.7854
 30
0.0
 10
-148.3354
 20
104.0796
 30
0.0
 10
-149.9588
 20
105.1028
 30
0.0
 10
-151.7277
 20
105.8029
 30
0.0
 10
-151.7277
 20
105.8029
 30
0.0
 10
-152.6923
 20
106.5463
 30
0.0
 10
-153.0778
 20
107.8205
 30
0.0
 10
-152.6865
 20
108.974
 30
0.0
 10
-152.6865
 20
108.974
 30
0.0
 10
-152.2634
 20
111.0238
 30
0.0
 10
-150.2853
 20
112.3644
 30
0.0
 10
-148.2247
 20
111.9975
 30
0.0
 10
-148.2247
 20
111.9975
 30
0.0
 10
-144.711
 20
111.494
 30
0.0
 10
-141.5138
 20
109.6913
 30
0.0
 10
-139.2643
 20
106.9456
 30
0.0
 10
-139.2643
 20
106.9456
 30
0.0
 10
-139.2437
 20
106.9215
 30
0.0
 10
-139.2233
 20
106.897
 30
0.0
 10
-139.203
 20
106.8724
 30
0.0
 10
-139.203
 20
106.8724
 30
0.0
 10
-140.066
 20
107.4668
 30
0.0
 10
-141.2218
 20
107.8301
 30
0.0
 10
-142.491
 20
107.8301
 30
0.0
 10
-142.491
 20
107.8301
 30
0.0
 10
-145.1689
 20
107.8301
 30
0.0
 10
-147.3398
 20
106.2125
 30
0.0
 10
-147.3398
 20
104.2171
 30
0.0
 10
-147.3398
 20
104.2171
 30
0.0
 10
-147.3398
 20
103.7109
 30
0.0
 10
-147.2004
 20
103.2291
 30
0.0
 10
-146.941
 20
102.7854
 30
0.0
  0
SPLINE
  5
7B
330
1F
100
AcDbEntity
  8
layer 1
 62
     7
370
     9
100
AcDbSpline
210
0.0
220
0.0
230
1.0
 70
    11
 71
     3
 72
    32
 73
    28
 74
     0
 42
0.0000000001
 43
0.0000000001
 12
1.0
 22
0.0
 32
0.0
 13
1.0
 23
0.0
 33
0.0
 40
0.0
 40
0.0
 40
0.0
 40
0.0
 40
0.125
 40
0.125
 40
0.125
 40
0.125
 40
0.25
 40
0.25
 40
0.25
 40
0.25
 40
0.375
 40
0.375
 40
0.375
 40
0.375
 40
0.5
 40
0.5
 40
0.5
 40
0.5
 40
0.625
 40
0.625
 40
0.625
 40
0.625
 40
0.75
 40
0.75
 40
0.75
 40
0.75
 40
1.0
 40
1.0
 40
1.0
 40
1.0
 10
-145.8618
 20
101.6205
 30
0.0
 10
-144.9888
 20
100.9912
 30
0.0
 10
-143.8005
 20
100.6041
 30
0.0
 10
-142.491
 20
100.6041
 30
0.0
 10
-142.491
 20
100.6041
 30
0.0
 10
-139.8131
 20
100.6041
 30
0.0
 10
-137.6421
 20
102.222
 30
0.0
 10
-137.6421
 20
104.2171
 30
0.0
 10
-137.6421
 20
104.2171
 30
0.0
 10
-137.6421
 20
104.3857
 30
0.0
 10
-137.6575
 20
104.5517
 30
0.0
 10
-137.6882
 20
104.7145
 30
0.0
 10
-137.6882
 20
104.7145
 30
0.0
 10
-136.1035
 20
102.011
 30
0.0
 10
-135.3444
 20
98.903
 30
0.0
 10
-135.5035
 20
95.7733
 30
0.0
 10
-135.5035
 20
95.7733
 30
0.0
 10
-136.5542
 20
96.7398
 30
0.0
 10
-137.9579
 20
97.2291
 30
0.0
 10
-139.3819
 20
97.1261
 30
0.0
 10
-139.3819
 20
97.1261
 30
0.0
 10
-140.8061
 20
97.0234
 30
0.0
 10
-142.1243
 20
96.337
 30
0.0
 10
-143.0257
 20
95.2295
 30
0.0
 10
-143.0257
 20
95.2295
 30
0.0
 10
-143.4161
 20
97.5652
 30
0.0
 10
-144.3918
 20
99.7638
 30
0.0
 10
-145.8618
 20
101.6205
 30
0.0
  0
SPLINE
  5
7C
330
1F
100
AcDbEntity
  8
layer 1
 62
     7
370
     9
100
AcDbSpline
210
0.0
220
0.0
230
1.0
 70
    11
 71
     3
 72
    44
 73
    40
 74
     0
 42
0.0000000001
 43
0.0000000001
 12
1.0
 22
0.0
 32
0.0
 13
1.0
 23
0.0
 33
0.0
 40
0.0
 40
0.0
 40
0.0
 40
0.0
 40
0.0909090909090909
 40
0.0909090909090909
 40
0.0909090909090909
 40
0.0909090909090909
 40
0.1818181818181818
 40
0.1818181818181818
 40
0.1818181818181818
 40
0.1818181818181818
 40
0.2727272727272727
 40
0.2727272727272727
 40
0.2727272727272727
 40
0.2727272727272727
 40
0.3636363636363636
 40
0.3636363636363636
 40
0.3636363636363636
 40
0.3636363636363636
 40
0.4545454545454545
 40
0.4545454545454545
 40
0.4545454545454545
 40
0.4545454545454545
 40
0.5454545454545454
 40
0.5454545454545454
 40
0.5454545454545454
 40
0.5454545454545454
 40
0.6363636363636364
 40
0.6363636363636364
 40
0.6363636363636364
 40
0.6363636363636364
 40
0.7272727272727273
 40
0.7272727272727273
 40
0.7272727272727273
 40
0.7272727272727273
 40
0.8181818181818182
 40
0.8181818181818182
 40
0.8181818181818182
 40
0.8181818181818182
 40
1.0
 40
1.0
 40
1.0
 40
1.0
 10
-141.827
 20
59.6375
 30
0.0
 10
-142.3626
 20
61.0342
 30
0.0
 10
-142.107
 20
62.6109
 30
0.0
 10
-141.1575
 20
63.7666
 30
0.0
 10
-141.1575
 20
63.7666
 30
0.0
 10
-140.2078
 20
64.9221
 30
0.0
 10
-138.7106
 20
65.4789
 30
0.0
 10
-137.2363
 20
65.2236
 30
0.0
 10
-137.2363
 20
65.2236
 30
0.0
 10
-137.7645
 20
66.9979
 30
0.0
 10
-137.9522
 20
68.8557
 30
0.0
 10
-137.7893
 20
70.6994
 30
0.0
 10
-137.7893
 20
70.6994
 30
0.0
 10
-141.8488
 20
64.8752
 30
0.0
 10
-146.816
 20
59.7398
 30
0.0
 10
-152.5018
 20
55.4891
 30
0.0
 10
-152.5018
 20
55.4891
 30
0.0
 10
-152.5804
 20
55.4255
 30
0.0
 10
-152.621
 20
55.3259
 30
0.0
 10
-152.6099
 20
55.2251
 30
0.0
 10
-152.6099
 20
55.2251
 30
0.0
 10
-152.5988
 20
55.1246
 30
0.0
 10
-152.5371
 20
55.0365
 30
0.0
 10
-152.4466
 20
54.9913
 30
0.0
 10
-152.4466
 20
54.9913
 30
0.0
 10
-146.4458
 20
57.4561
 30
0.0
 10
-139.7687
 20
57.7305
 30
0.0
 10
-133.5858
 20
55.7658
 30
0.0
 10
-133.5858
 20
55.7658
 30
0.0
 10
-133.4597
 20
55.703
 30
0.0
 10
-133.3099
 20
55.7145
 30
0.0
 10
-133.1941
 20
55.7953
 30
0.0
 10
-133.1941
 20
55.7953
 30
0.0
 10
-133.0792
 20
55.8758
 30
0.0
 10
-133.0172
 20
56.013
 30
0.0
 10
-133.0328
 20
56.1532
 30
0.0
 10
-133.0328
 20
56.1532
 30
0.0
 10
-134.5393
 20
59.5021
 30
0.0
 10
-138.4358
 20
61.0458
 30
0.0
 10
-141.827
 20
59.6375
 30
0.0
  0
SPLINE
  5
7D
330
1F
100
AcDbEntity
  8
layer 1
 62
     7
370
     9
100
AcDbSpline
210
0.0
220
0.0
230
1.0
 70
    11
 71
     3
 72
    80
 73
    76
 74
     0
 42
0.0000000001
 43
0.0000000001
 12
1.0
 22
0.0
 32
0.0
 13
1.0
 23
0.0
 33
0.0
 40
0.0
 40
0.0
 40
0.0
 40
0.0
 40
0.05
 40
0.05
 40
0.05
 40
0.05
 40
0.1
 40
0.1
 40
0.1
 40
0.1
 40
0.15
 40
0.15
 40
0.15
 40
0.15
 40
0.2
 40
0.2
 40
0.2
 40
0.2
 40
0.25
 40
0.25
 40
0.25
 40
0.25
 40
0.3
 40
0.3
 40
0.3
 40
0.3
 40
0.35
 40
0.35
 40
0.35
 40
0.35
 40
0.4
 40
0.4
 40
0.4
 40
0.4
 40
0.45
 40
0.45
 40
0.45
 40
0.45
 40
0.5
 40
0.5
 40
0.5
 40
0.5
 40
0.55
 40
0.55
 40
0.55
 40
0.55
 40
0.6
 40
0.6
 40
0.6
 40
0.6
 40
0.65
 40
0.65
 40
0.65
 40
0.65
 40
0.7
 40
0.7
 40
0.7
 40
0.7
 40
0.75
 40
0.75
 40
0.75
 40
0.75
 40
0.8
 40
0.8
 40
0.8
 40
0.8
 40
0.85
 40
0.85
 40
0.85
 40
0.85
 40
0.9
 40
0.9
 40
0.9
 40
0.9
 40
1.0
 40
1.0
 40
1.0
 40
1.0
 10
-131.0141
 20
105.5726
 30
0.0
 10
-131.1137
 20
105.6764
 30
0.0
 10
-131.2716
 20
105.6986
 30
0.0
 10
-131.3961
 20
105.6266
 30
0.0
 10
-131.3961
 20
105.6266
 30
0.0
 10
-131.5207
 20
105.5541
 30
0.0
 10
-131.58
 20
105.4063
 30
0.0
 10
-131.5394
 20
105.2683
 30
0.0
 10
-131.5394
 20
105.2683
 30
0.0
 10
-129.4908
 20
96.3033
 30
0.0
 10
-130.3829
 20
86.9167
 30
0.0
 10
-134.0836
 20
78.4982
 30
0.0
 10
-134.0836
 20
78.4982
 30
0.0
 10
-131.0509
 20
79.1524
 30
0.0
 10
-128.4611
 20
81.1111
 30
0.0
 10
-127.006
 20
83.851
 30
0.0
 10
-127.006
 20
83.851
 30
0.0
 10
-125.5505
 20
86.5914
 30
0.0
 10
-125.3781
 20
89.8338
 30
0.0
 10
-126.5339
 20
92.7126
 30
0.0
 10
-126.5339
 20
92.7126
 30
0.0
 10
-125.1746
 20
92.7816
 30
0.0
 10
-123.846
 20
92.2922
 30
0.0
 10
-122.8557
 20
91.3579
 30
0.0
 10
-122.8557
 20
91.3579
 30
0.0
 10
-122.1208
 20
94.0047
 30
0.0
 10
-123.1834
 20
96.8233
 30
0.0
 10
-125.483
 20
98.3267
 30
0.0
 10
-125.483
 20
98.3267
 30
0.0
 10
-124.898
 20
99.3181
 30
0.0
 10
-123.841
 20
99.9354
 30
0.0
 10
-122.6898
 20
99.9584
 30
0.0
 10
-122.6898
 20
99.9584
 30
0.0
 10
-123.3102
 20
101.7944
 30
0.0
 10
-124.7212
 20
103.2556
 30
0.0
 10
-126.5339
 20
103.9408
 30
0.0
 10
-126.5339
 20
103.9408
 30
0.0
 10
-122.5756
 20
105.2614
 30
0.0
 10
-118.2801
 20
103.2238
 30
0.0
 10
-116.7994
 20
99.3223
 30
0.0
 10
-116.7994
 20
99.3223
 30
0.0
 10
-116.7066
 20
99.1794
 30
0.0
 10
-116.5269
 20
99.1204
 30
0.0
 10
-116.3675
 20
99.1801
 30
0.0
 10
-116.3675
 20
99.1801
 30
0.0
 10
-116.2081
 20
99.2399
 30
0.0
 10
-116.1115
 20
99.4028
 30
0.0
 10
-116.1357
 20
99.5714
 30
0.0
 10
-116.1357
 20
99.5714
 30
0.0
 10
-115.5987
 20
103.6445
 30
0.0
 10
-116.7924
 20
107.7569
 30
0.0
 10
-119.4267
 20
110.9096
 30
0.0
 10
-119.4267
 20
110.9096
 30
0.0
 10
-120.3269
 20
111.7082
 30
0.0
 10
-121.5229
 20
112.0888
 30
0.0
 10
-122.719
 20
111.957
 30
0.0
 10
-122.719
 20
111.957
 30
0.0
 10
-123.915
 20
111.8251
 30
0.0
 10
-124.9994
 20
111.1936
 30
0.0
 10
-125.7042
 20
110.2183
 30
0.0
 10
-125.7042
 20
110.2183
 30
0.0
 10
-125.9407
 20
111.8174
 30
0.0
 10
-125.3214
 20
113.4232
 30
0.0
 10
-124.0728
 20
114.4494
 30
0.0
 10
-124.0728
 20
114.4494
 30
0.0
 10
-126.0295
 20
114.3049
 30
0.0
 10
-127.6429
 20
112.8586
 30
0.0
 10
-128.0001
 20
110.9292
 30
0.0
 10
-128.0001
 20
110.9292
 30
0.0
 10
-128.3576
 20
108.9997
 30
0.0
 10
-127.3689
 20
107.0721
 30
0.0
 10
-125.5934
 20
106.2363
 30
0.0
 10
-125.5934
 20
106.2363
 30
0.0
 10
-127.0056
 20
104.7398
 30
0.0
 10
-129.2826
 20
104.4612
 30
0.0
 10
-131.0141
 20
105.5726
 30
0.0
  0
SPLINE
  5
7E
330
1F
100
AcDbEntity
  8
layer 1
 62
     7
370
     9
100
AcDbSpline
210
0.0
220
0.0
230
1.0
 70
    11
 71
     3
 72
    96
 73
    92
 74
     0
 42
0.0000000001
 43
0.0000000001
 12
1.0
 22
0.0
 32
0.0
 13
1.0
 23
0.0
 33
0.0
 40
0.0
 40
0.0
 40
0.0
 40
0.0
 40
0.0416666666666667
 40
0.0416666666666667
 40
0.0416666666666667
 40
0.0416666666666667
 40
0.0833333333333333
 40
0.0833333333333333
 40
0.0833333333333333
 40
0.0833333333333333
 40
0.125
 40
0.125
 40
0.125
 40
0.125
 40
0.1666666666666667
 40
0.1666666666666667
 40
0.1666666666666667
 40
0.1666666666666667
 40
0.2083333333333333
 40
0.2083333333333333
 40
0.2083333333333333
 40
0.2083333333333333
 40
0.25
 40
0.25
 40
0.25
 40
0.25
 40
0.2916666666666667
 40
0.2916666666666667
 40
0.2916666666666667
 40
0.2916666666666667
 40
0.3333333333333333
 40
0.3333333333333333
 40
0.3333333333333333
 40
0.3333333333333333
 40
0.375
 40
0.375
 40
0.375
 40
0.375
 40
0.4166666666666667
 40
0.4166666666666667
 40
0.4166666666666667
 40
0.4166666666666667
 40
0.4583333333333333
 40
0.4583333333333333
 40
0.4583333333333333
 40
0.4583333333333333
 40
0.5
 40
0.5
 40
0.5
 40
0.5
 40
0.5416666666666666
 40
0.5416666666666666
 40
0.5416666666666666
 40
0.5416666666666666
 40
0.5833333333333334
 40
0.5833333333333334
 40
0.5833333333333334
 40
0.5833333333333334
 40
0.625
 40
0.625
 40
0.625
 40
0.625
 40
0.6666666666666666
 40
0.6666666666666666
 40
0.6666666666666666
 40
0.6666666666666666
 40
0.7083333333333334
 40
0.7083333333333334
 40
0.7083333333333334
 40
0.7083333333333334
 40
0.75
 40
0.75
 40
0.75
 40
0.75
 40
0.7916666666666666
 40
0.7916666666666666
 40
0.7916666666666666
 40
0.7916666666666666
 40
0.8333333333333334
 40
0.8333333333333334
 40
0.8333333333333334
 40
0.8333333333333334
 40
0.875
 40
0.875
 40
0.875
 40
0.875
 40
0.9166666666666666
 40
0.9166666666666666
 40
0.9166666666666666
 40
0.9166666666666666
 40
1.0
 40
1.0
 40
1.0
 40
1.0
 10
-123.4643
 20
70.0912
 30
0.0
 10
-122.1725
 20
71.9012
 30
0.0
 10
-122.1284
 20
74.3196
 30
0.0
 10
-123.3536
 20
76.1752
 30
0.0
 10
-123.3536
 20
76.1752
 30
0.0
 10
-121.3152
 20
75.7897
 30
0.0
 10
-119.7245
 20
74.1897
 30
0.0
 10
-119.3504
 20
72.1495
 30
0.0
 10
-119.3504
 20
72.1495
 30
0.0
 10
-118.9768
 20
70.1088
 30
0.0
 10
-119.8974
 20
68.0487
 30
0.0
 10
-121.6666
 20
66.9661
 30
0.0
 10
-121.6666
 20
66.9661
 30
0.0
 10
-120.1188
 20
66.8783
 30
0.0
 10
-118.5821
 20
67.2746
 30
0.0
 10
-117.2696
 20
68.1001
 30
0.0
 10
-117.2696
 20
68.1001
 30
0.0
 10
-115.3197
 20
69.6099
 30
0.0
 10
-114.2678
 20
72.0046
 30
0.0
 10
-114.4744
 20
74.4618
 30
0.0
 10
-114.4744
 20
74.4618
 30
0.0
 10
-114.6809
 20
76.9194
 30
0.0
 10
-116.1184
 20
79.1049
 30
0.0
 10
-118.2928
 20
80.268
 30
0.0
 10
-118.2928
 20
80.268
 30
0.0
 10
-117.147
 20
81.1643
 30
0.0
 10
-116.3778
 20
82.4565
 30
0.0
 10
-116.1357
 20
83.8909
 30
0.0
 10
-116.1357
 20
83.8909
 30
0.0
 10
-117.5589
 20
83.7208
 30
0.0
 10
-118.9967
 20
83.7112
 30
0.0
 10
-120.4224
 20
83.8633
 30
0.0
 10
-120.4224
 20
83.8633
 30
0.0
 10
-115.9104
 20
88.6397
 30
0.0
 10
-113.278
 20
94.8866
 30
0.0
 10
-113.0108
 20
101.4519
 30
0.0
 10
-113.0108
 20
101.4519
 30
0.0
 10
-111.2098
 20
100.8264
 30
0.0
 10
-109.2185
 20
101.0932
 30
0.0
 10
-107.6455
 20
102.1708
 30
0.0
 10
-107.6455
 20
102.1708
 30
0.0
 10
-108.1728
 20
98.1703
 30
0.0
 10
-109.9095
 20
94.4266
 30
0.0
 10
-112.6235
 20
91.4407
 30
0.0
 10
-112.6235
 20
91.4407
 30
0.0
 10
-110.8361
 20
90.2381
 30
0.0
 10
-108.4303
 20
90.5715
 30
0.0
 10
-107.0373
 20
92.2152
 30
0.0
 10
-107.0373
 20
92.2152
 30
0.0
 10
-106.7204
 20
86.3224
 30
0.0
 10
-108.6139
 20
80.5239
 30
0.0
 10
-112.3471
 20
75.9537
 30
0.0
 10
-112.3471
 20
75.9537
 30
0.0
 10
-111.1477
 20
75.3601
 30
0.0
 10
-109.7279
 20
75.423
 30
0.0
 10
-108.5859
 20
76.12
 30
0.0
 10
-108.5859
 20
76.12
 30
0.0
 10
-108.4797
 20
71.2007
 30
0.0
 10
-110.9557
 20
66.5844
 30
0.0
 10
-115.1125
 20
63.9517
 30
0.0
 10
-115.1125
 20
63.9517
 30
0.0
 10
-113.972
 20
63.3033
 30
0.0
 10
-112.6553
 20
63.0324
 30
0.0
 10
-111.3515
 20
63.1773
 30
0.0
 10
-111.3515
 20
63.1773
 30
0.0
 10
-112.6691
 20
61.1819
 30
0.0
 10
-114.7653
 20
59.8322
 30
0.0
 10
-117.127
 20
59.4589
 30
0.0
 10
-117.127
 20
59.4589
 30
0.0
 10
-119.4891
 20
59.0852
 30
0.0
 10
-121.8993
 20
59.7221
 30
0.0
 10
-123.7685
 20
61.214
 30
0.0
 10
-123.7685
 20
61.214
 30
0.0
 10
-123.6467
 20
59.7547
 30
0.0
 10
-122.9385
 20
58.4073
 30
0.0
 10
-121.805
 20
57.4803
 30
0.0
 10
-121.805
 20
57.4803
 30
0.0
 10
-124.2269
 20
57.3979
 30
0.0
 10
-126.5799
 20
58.2951
 30
0.0
 10
-128.3315
 20
59.9694
 30
0.0
 10
-128.3315
 20
59.9694
 30
0.0
 10
-130.6208
 20
62.1667
 30
0.0
 10
-131.659
 20
65.3638
 30
0.0
 10
-131.0968
 20
68.4871
 30
0.0
 10
-131.0968
 20
68.4871
 30
0.0
 10
-130.8182
 20
70.1913
 30
0.0
 10
-129.5203
 20
71.549
 30
0.0
 10
-127.8303
 20
71.9038
 30
0.0
 10
-127.8303
 20
71.9038
 30
0.0
 10
-126.1403
 20
72.259
 30
0.0
 10
-124.4054
 20
71.5391
 30
0.0
 10
-123.4643
 20
70.0912
 30
0.0
  0
SPLINE
  5
7F
330
1F
100
AcDbEntity
  8
layer 1
 62
     7
370
     9
100
AcDbSpline
210
0.0
220
0.0
230
1.0
 70
    11
 71
     3
 72
   112
 73
   108
 74
     0
 42
0.0000000001
 43
0.0000000001
 12
1.0
 22
0.0
 32
0.0
 13
1.0
 23
0.0
 33
0.0
 40
0.0
 40
0.0
 40
0.0
 40
0.0
 40
0.0357142857142857
 40
0.0357142857142857
 40
0.0357142857142857
 40
0.0357142857142857
 40
0.0714285714285714
 40
0.0714285714285714
 40
0.0714285714285714
 40
0.0714285714285714
 40
0.1071428571428571
 40
0.1071428571428571
 40
0.1071428571428571
 40
0.1071428571428571
 40
0.1428571428571428
 40
0.1428571428571428
 40
0.1428571428571428
 40
0.1428571428571428
 40
0.1785714285714286
 40
0.1785714285714286
 40
0.1785714285714286
 40
0.1785714285714286
 40
0.2142857142857143
 40
0.2142857142857143
 40
0.2142857142857143
 40
0.2142857142857143
 40
0.25
 40
0.25
 40
0.25
 40
0.25
 40
0.2857142857142857
 40
0.2857142857142857
 40
0.2857142857142857
 40
0.2857142857142857
 40
0.3214285714285715
 40
0.3214285714285715
 40
0.3214285714285715
 40
0.3214285714285715
 40
0.3571428571428572
 40
0.3571428571428572
 40
0.3571428571428572
 40
0.3571428571428572
 40
0.3928571428571428
 40
0.3928571428571428
 40
0.3928571428571428
 40
0.3928571428571428
 40
0.4285714285714285
 40
0.4285714285714285
 40
0.4285714285714285
 40
0.4285714285714285
 40
0.4642857142857143
 40
0.4642857142857143
 40
0.4642857142857143
 40
0.4642857142857143
 40
0.5
 40
0.5
 40
0.5
 40
0.5
 40
0.5357142857142857
 40
0.5357142857142857
 40
0.5357142857142857
 40
0.5357142857142857
 40
0.5714285714285714
 40
0.5714285714285714
 40
0.5714285714285714
 40
0.5714285714285714
 40
0.6071428571428571
 40
0.6071428571428571
 40
0.6071428571428571
 40
0.6071428571428571
 40
0.6428571428571429
 40
0.6428571428571429
 40
0.6428571428571429
 40
0.6428571428571429
 40
0.6785714285714286
 40
0.6785714285714286
 40
0.6785714285714286
 40
0.6785714285714286
 40
0.7142857142857143
 40
0.7142857142857143
 40
0.7142857142857143
 40
0.7142857142857143
 40
0.75
 40
0.75
 40
0.75
 40
0.75
 40
0.7857142857142857
 40
0.7857142857142857
 40
0.7857142857142857
 40
0.7857142857142857
 40
0.8214285714285714
 40
0.8214285714285714
 40
0.8214285714285714
 40
0.8214285714285714
 40
0.8571428571428571
 40
0.8571428571428571
 40
0.8571428571428571
 40
0.8571428571428571
 40
0.8928571428571429
 40
0.8928571428571429
 40
0.8928571428571429
 40
0.8928571428571429
 40
0.9285714285714286
 40
0.9285714285714286
 40
0.9285714285714286
 40
0.9285714285714286
 40
1.0
 40
1.0
 40
1.0
 40
1.0
 10
-92.7191
 20
84.0155
 30
0.0
 10
-94.8449
 20
83.7913
 30
0.0
 10
-96.4355
 20
81.9622
 30
0.0
 10
-96.3624
 20
79.8257
 30
0.0
 10
-96.3624
 20
79.8257
 30
0.0
 10
-96.2589
 20
78.6178
 30
0.0
 10
-95.829
 20
77.4613
 30
0.0
 10
-95.1181
 20
76.4795
 30
0.0
 10
-95.1181
 20
76.4795
 30
0.0
 10
-94.4984
 20
75.3183
 30
0.0
 10
-94.4176
 20
73.9441
 30
0.0
 10
-94.8966
 20
72.7182
 30
0.0
 10
-94.8966
 20
72.7182
 30
0.0
 10
-94.9633
 20
72.4676
 30
0.0
 10
-95.1844
 20
72.2886
 30
0.0
 10
-95.4434
 20
72.276
 30
0.0
 10
-95.4434
 20
72.276
 30
0.0
 10
-95.7025
 20
72.2633
 30
0.0
 10
-95.9401
 20
72.42
 30
0.0
 10
-96.0306
 20
72.663
 30
0.0
 10
-96.0306
 20
72.663
 30
0.0
 10
-95.916
 20
75.2106
 30
0.0
 10
-97.8079
 20
77.4061
 30
0.0
 10
-100.3448
 20
77.6686
 30
0.0
 10
-100.3448
 20
77.6686
 30
0.0
 10
-98.6042
 20
73.2658
 30
0.0
 10
-98.992
 20
68.3066
 30
0.0
 10
-101.3955
 20
64.228
 30
0.0
 10
-101.3955
 20
64.228
 30
0.0
 10
-104.9929
 20
57.8835
 30
0.0
 10
-109.5654
 20
52.144
 30
0.0
 10
-114.9465
 20
47.2205
 30
0.0
 10
-114.9465
 20
47.2205
 30
0.0
 10
-117.2408
 20
48.9089
 30
0.0
 10
-119.5359
 20
50.5962
 30
0.0
 10
-121.8326
 20
52.2812
 30
0.0
 10
-121.8326
 20
52.2812
 30
0.0
 10
-118.1656
 20
52.2801
 30
0.0
 10
-114.5928
 20
53.442
 30
0.0
 10
-111.6279
 20
55.5999
 30
0.0
 10
-111.6279
 20
55.5999
 30
0.0
 10
-108.5008
 20
58.2555
 30
0.0
 10
-106.2298
 20
61.7774
 30
0.0
 10
-105.1013
 20
65.7218
 30
0.0
 10
-105.1013
 20
65.7218
 30
0.0
 10
-102.6444
 20
74.0587
 30
0.0
 10
-101.7815
 20
82.7837
 30
0.0
 10
-102.5571
 20
91.4407
 30
0.0
 10
-102.5571
 20
91.4407
 30
0.0
 10
-100.2919
 20
90.2902
 30
0.0
 10
-97.627
 20
90.2293
 30
0.0
 10
-95.3116
 20
91.2747
 30
0.0
 10
-95.3116
 20
91.2747
 30
0.0
 10
-99.3431
 20
94.7938
 30
0.0
 10
-101.7022
 20
99.8507
 30
0.0
 10
-101.8076
 20
105.2009
 30
0.0
 10
-101.8076
 20
105.2009
 30
0.0
 10
-101.9129
 20
110.5514
 30
0.0
 10
-99.7546
 20
115.6975
 30
0.0
 10
-95.8646
 20
119.3722
 30
0.0
 10
-95.8646
 20
119.3722
 30
0.0
 10
-95.7224
 20
119.4312
 30
0.0
 10
-95.5584
 20
119.3983
 30
0.0
 10
-95.4495
 20
119.2894
 30
0.0
 10
-95.4495
 20
119.2894
 30
0.0
 10
-95.3408
 20
119.1806
 30
0.0
 10
-95.3078
 20
119.0166
 30
0.0
 10
-95.3668
 20
118.8744
 30
0.0
 10
-95.3668
 20
118.8744
 30
0.0
 10
-101.0959
 20
112.8104
 30
0.0
 10
-101.655
 20
103.5128
 30
0.0
 10
-96.6943
 20
96.8057
 30
0.0
 10
-96.6943
 20
96.8057
 30
0.0
 10
-94.9805
 20
94.7589
 30
0.0
 10
-92.8981
 20
93.0517
 30
0.0
 10
-90.5547
 20
91.7725
 30
0.0
 10
-90.5547
 20
91.7725
 30
0.0
 10
-91.8317
 20
91.5039
 30
0.0
 10
-92.8855
 20
90.6067
 30
0.0
 10
-93.3545
 20
89.3893
 30
0.0
 10
-93.3545
 20
89.3893
 30
0.0
 10
-93.8236
 20
88.1718
 30
0.0
 10
-93.6442
 20
86.7995
 30
0.0
 10
-92.8779
 20
85.7437
 30
0.0
 10
-92.8779
 20
85.7437
 30
0.0
 10
-91.922
 20
84.7815
 30
0.0
 10
-91.2932
 20
83.5433
 30
0.0
 10
-91.0805
 20
82.204
 30
0.0
 10
-91.0805
 20
82.204
 30
0.0
 10
-91.0637
 20
81.6062
 30
0.0
 10
-91.1384
 20
81.0095
 30
0.0
 10
-91.3017
 20
80.4339
 30
0.0
 10
-91.3017
 20
80.4339
 30
0.0
 10
-91.376
 20
80.3546
 30
0.0
 10
-91.4833
 20
80.3143
 30
0.0
 10
-91.5917
 20
80.325
 30
0.0
 10
-91.5917
 20
80.325
 30
0.0
 10
-91.7002
 20
80.3358
 30
0.0
 10
-91.7975
 20
80.3967
 30
0.0
 10
-91.8546
 20
80.4895
 30
0.0
 10
-91.8546
 20
80.4895
 30
0.0
 10
-92.2302
 20
81.0654
 30
0.0
 10
-92.4317
 20
81.7376
 30
0.0
 10
-92.4355
 20
82.425
 30
0.0
 10
-92.4355
 20
82.425
 30
0.0
 10
-92.4217
 20
82.9688
 30
0.0
 10
-92.5183
 20
83.51
 30
0.0
 10
-92.7191
 20
84.0155
 30
0.0
  0
SPLINE
  5
80
330
1F
100
AcDbEntity
  8
layer 1
 62
     7
370
     9
100
AcDbSpline
210
0.0
220
0.0
230
1.0
 70
    11
 71
     3
 72
    40
 73
    36
 74
     0
 42
0.0000000001
 43
0.0000000001
 12
1.0
 22
0.0
 32
0.0
 13
1.0
 23
0.0
 33
0.0
 40
0.0
 40
0.0
 40
0.0
 40
0.0
 40
0.1
 40
0.1
 40
0.1
 40
0.1
 40
0.2
 40
0.2
 40
0.2
 40
0.2
 40
0.3
 40
0.3
 40
0.3
 40
0.3
 40
0.4
 40
0.4
 40
0.4
 40
0.4
 40
0.5
 40
0.5
 40
0.5
 40
0.5
 40
0.6
 40
0.6
 40
0.6
 40
0.6
 40
0.7
 40
0.7
 40
0.7
 40
0.7
 40
0.8
 40
0.8
 40
0.8
 40
0.8
 40
1.0
 40
1.0
 40
1.0
 40
1.0
 10
-87.3469
 20
111.85
 30
0.0
 10
-89.6036
 20
111.3215
 30
0.0
 10
-91.3955
 20
109.6105
 30
0.0
 10
-92.0278
 20
107.3809
 30
0.0
 10
-92.0278
 20
107.3809
 30
0.0
 10
-92.6602
 20
105.151
 30
0.0
 10
-92.0324
 20
102.754
 30
0.0
 10
-90.3889
 20
101.1199
 30
0.0
 10
-90.3889
 20
101.1199
 30
0.0
 10
-86.9131
 20
98.37
 30
0.0
 10
-82.0556
 20
98.1911
 30
0.0
 10
-78.3868
 20
100.6773
 30
0.0
 10
-78.3868
 20
100.6773
 30
0.0
 10
-76.552
 20
102.5405
 30
0.0
 10
-75.588
 20
105.0908
 30
0.0
 10
-75.7318
 20
107.7017
 30
0.0
 10
-75.7318
 20
107.7017
 30
0.0
 10
-73.9845
 20
104.0949
 30
0.0
 10
-75.1648
 20
99.7515
 30
0.0
 10
-78.4974
 20
97.5249
 30
0.0
 10
-78.4974
 20
97.5249
 30
0.0
 10
-82.4892
 20
94.8892
 30
0.0
 10
-87.7166
 20
95.0893
 30
0.0
 10
-91.4951
 20
98.0224
 30
0.0
 10
-91.4951
 20
98.0224
 30
0.0
 10
-94.7394
 20
100.9528
 30
0.0
 10
-96.3121
 20
105.3055
 30
0.0
 10
-95.691
 20
109.6328
 30
0.0
 10
-95.691
 20
109.6328
 30
0.0
 10
-95.0698
 20
113.96
 30
0.0
 10
-92.3356
 20
117.6944
 30
0.0
 10
-88.3977
 20
119.5934
 30
0.0
 10
-88.3977
 20
119.5934
 30
0.0
 10
-88.6567
 20
116.9656
 30
0.0
 10
-88.2969
 20
114.3137
 30
0.0
 10
-87.3469
 20
111.85
 30
0.0
  0
SPLINE
  5
81
330
1F
100
AcDbEntity
  8
layer 1
 62
     7
370
     9
100
AcDbSpline
210
0.0
220
0.0
230
1.0
 70
    11
 71
     3
 72
    28
 73
    24
 74
     0
 42
0.0000000001
 43
0.0000000001
 12
1.0
 22
0.0
 32
0.0
 13
1.0
 23
0.0
 33
0.0
 40
0.0
 40
0.0
 40
0.0
 40
0.0
 40
0.1428571428571428
 40
0.1428571428571428
 40
0.1428571428571428
 40
0.1428571428571428
 40
0.2857142857142857
 40
0.2857142857142857
 40
0.2857142857142857
 40
0.2857142857142857
 40
0.4285714285714285
 40
0.4285714285714285
 40
0.4285714285714285
 40
0.4285714285714285
 40
0.5714285714285714
 40
0.5714285714285714
 40
0.5714285714285714
 40
0.5714285714285714
 40
0.7142857142857143
 40
0.7142857142857143
 40
0.7142857142857143
 40
0.7142857142857143
 40
1.0
 40
1.0
 40
1.0
 40
1.0
 10
-84.692
 20
113.0668
 30
0.0
 10
-80.3929
 20
114.2673
 30
0.0
 10
-75.7786
 20
113.1345
 30
0.0
 10
-72.5239
 20
110.0799
 30
0.0
 10
-72.5239
 20
110.0799
 30
0.0
 10
-69.8623
 20
106.2145
 30
0.0
 10
-69.5436
 20
101.1981
 30
0.0
 10
-71.6942
 20
97.0268
 30
0.0
 10
-71.6942
 20
97.0268
 30
0.0
 10
-70.2555
 20
94.6157
 30
0.0
 10
-69.4737
 20
91.8699
 30
0.0
 10
-69.4266
 20
89.0623
 30
0.0
 10
-69.4266
 20
89.0623
 30
0.0
 10
-64.1481
 20
96.452
 30
0.0
 10
-64.3278
 20
106.4252
 30
0.0
 10
-69.869
 20
113.6201
 30
0.0
 10
-69.869
 20
113.6201
 30
0.0
 10
-72.3987
 20
116.065
 30
0.0
 10
-75.8106
 20
117.3818
 30
0.0
 10
-79.327
 20
117.2702
 30
0.0
 10
-79.327
 20
117.2702
 30
0.0
 10
-81.8497
 20
117.214
 30
0.0
 10
-84.0339
 20
115.5029
 30
0.0
 10
-84.692
 20
113.0668
 30
0.0
  0
SPLINE
  5
82
330
1F
100
AcDbEntity
  8
layer 1
 62
     7
370
     9
100
AcDbSpline
210
0.0
220
0.0
230
1.0
 70
    11
 71
     3
 72
    36
 73
    32
 74
     0
 42
0.0000000001
 43
0.0000000001
 12
1.0
 22
0.0
 32
0.0
 13
1.0
 23
0.0
 33
0.0
 40
0.0
 40
0.0
 40
0.0
 40
0.0
 40
0.1111111111111111
 40
0.1111111111111111
 40
0.1111111111111111
 40
0.1111111111111111
 40
0.2222222222222222
 40
0.2222222222222222
 40
0.2222222222222222
 40
0.2222222222222222
 40
0.3333333333333333
 40
0.3333333333333333
 40
0.3333333333333333
 40
0.3333333333333333
 40
0.4444444444444444
 40
0.4444444444444444
 40
0.4444444444444444
 40
0.4444444444444444
 40
0.5555555555555556
 40
0.5555555555555556
 40
0.5555555555555556
 40
0.5555555555555556
 40
0.6666666666666666
 40
0.6666666666666666
 40
0.6666666666666666
 40
0.6666666666666666
 40
0.7777777777777778
 40
0.7777777777777778
 40
0.7777777777777778
 40
0.7777777777777778
 40
1.0
 40
1.0
 40
1.0
 40
1.0
 10
-73.6301
 20
94.9252
 30
0.0
 10
-72.951
 20
92.6815
 30
0.0
 10
-72.9415
 20
90.2883
 30
0.0
 10
-73.6024
 20
88.0392
 30
0.0
 10
-73.6024
 20
88.0392
 30
0.0
 10
-74.447
 20
89.2402
 30
0.0
 10
-75.6042
 20
90.1872
 30
0.0
 10
-76.9487
 20
90.7769
 30
0.0
 10
-76.9487
 20
90.7769
 30
0.0
 10
-78.1571
 20
82.5622
 30
0.0
 10
-82.5475
 20
75.152
 30
0.0
 10
-89.1721
 20
70.1464
 30
0.0
 10
-89.1721
 20
70.1464
 30
0.0
 10
-89.3085
 20
70.11
 30
0.0
 10
-89.4533
 20
70.1537
 30
0.0
 10
-89.5469
 20
70.2591
 30
0.0
 10
-89.5469
 20
70.2591
 30
0.0
 10
-89.6404
 20
70.3645
 30
0.0
 10
-89.6665
 20
70.5132
 30
0.0
 10
-89.6147
 20
70.6442
 30
0.0
 10
-89.6147
 20
70.6442
 30
0.0
 10
-88.2737
 20
72.8596
 30
0.0
 10
-86.9279
 20
75.0719
 30
0.0
 10
-85.577
 20
77.2816
 30
0.0
 10
-85.577
 20
77.2816
 30
0.0
 10
-83.4321
 20
81.4716
 30
0.0
 10
-83.3707
 20
86.424
 30
0.0
 10
-85.4111
 20
90.6661
 30
0.0
 10
-85.4111
 20
90.6661
 30
0.0
 10
-81.0579
 20
90.3516
 30
0.0
 10
-76.7756
 20
91.8997
 30
0.0
 10
-73.6301
 20
94.9252
 30
0.0
  0
SPLINE
  5
83
330
1F
100
AcDbEntity
  8
layer 1
 62
     7
370
     9
100
AcDbSpline
210
0.0
220
0.0
230
1.0
 70
    11
 71
     3
 72
    44
 73
    40
 74
     0
 42
0.0000000001
 43
0.0000000001
 12
1.0
 22
0.0
 32
0.0
 13
1.0
 23
0.0
 33
0.0
 40
0.0
 40
0.0
 40
0.0
 40
0.0
 40
0.0909090909090909
 40
0.0909090909090909
 40
0.0909090909090909
 40
0.0909090909090909
 40
0.1818181818181818
 40
0.1818181818181818
 40
0.1818181818181818
 40
0.1818181818181818
 40
0.2727272727272727
 40
0.2727272727272727
 40
0.2727272727272727
 40
0.2727272727272727
 40
0.3636363636363636
 40
0.3636363636363636
 40
0.3636363636363636
 40
0.3636363636363636
 40
0.4545454545454545
 40
0.4545454545454545
 40
0.4545454545454545
 40
0.4545454545454545
 40
0.5454545454545454
 40
0.5454545454545454
 40
0.5454545454545454
 40
0.5454545454545454
 40
0.6363636363636364
 40
0.6363636363636364
 40
0.6363636363636364
 40
0.6363636363636364
 40
0.7272727272727273
 40
0.7272727272727273
 40
0.7272727272727273
 40
0.7272727272727273
 40
0.8181818181818182
 40
0.8181818181818182
 40
0.8181818181818182
 40
0.8181818181818182
 40
1.0
 40
1.0
 40
1.0
 40
1.0
 10
-103.2208
 20
52.0877
 30
0.0
 10
-103.2507
 20
51.9156
 30
0.0
 10
-103.1633
 20
51.7447
 30
0.0
 10
-103.0066
 20
51.6676
 30
0.0
 10
-103.0066
 20
51.6676
 30
0.0
 10
-102.8495
 20
51.5906
 30
0.0
 10
-102.6609
 20
51.6267
 30
0.0
 10
-102.5433
 20
51.7558
 30
0.0
 10
-102.5433
 20
51.7558
 30
0.0
 10
-102.3165
 20
51.883
 30
0.0
 10
-102.0808
 20
51.9942
 30
0.0
 10
-101.8382
 20
52.0877
 30
0.0
 10
-101.8382
 20
52.0877
 30
0.0
 10
-95.7259
 20
55.3121
 30
0.0
 10
-89.6048
 20
58.5204
 30
0.0
 10
-83.4752
 20
61.7118
 30
0.0
 10
-83.4752
 20
61.7118
 30
0.0
 10
-83.2151
 20
62.8212
 30
0.0
 10
-82.382
 20
63.7073
 30
0.0
 10
-81.2906
 20
64.0344
 30
0.0
 10
-81.2906
 20
64.0344
 30
0.0
 10
-80.7008
 20
65.6444
 30
0.0
 10
-79.4383
 20
66.9167
 30
0.0
 10
-77.8337
 20
67.519
 30
0.0
 10
-77.8337
 20
67.519
 30
0.0
 10
-75.3125
 20
68.4779
 30
0.0
 10
-72.879
 20
69.6533
 30
0.0
 10
-70.5603
 20
71.0312
 30
0.0
 10
-70.5603
 20
71.0312
 30
0.0
 10
-69.4885
 20
71.9422
 30
0.0
 10
-68.9738
 20
73.3493
 30
0.0
 10
-69.2053
 20
74.737
 30
0.0
 10
-69.2053
 20
74.737
 30
0.0
 10
-69.4227
 20
76.0411
 30
0.0
 10
-70.1363
 20
77.2107
 30
0.0
 10
-71.1965
 20
78.0005
 30
0.0
 10
-71.1965
 20
78.0005
 30
0.0
 10
-81.8314
 20
69.3137
 30
0.0
 10
-92.5065
 20
60.676
 30
0.0
 10
-103.2208
 20
52.0877
 30
0.0
  0
SPLINE
  5
84
330
1F
100
AcDbEntity
  8
layer 1
 62
     7
370
     9
100
AcDbSpline
210
0.0
220
0.0
230
1.0
 70
    11
 71
     3
 72
    24
 73
    20
 74
     0
 42
0.0000000001
 43
0.0000000001
 12
1.0
 22
0.0
 32
0.0
 13
1.0
 23
0.0
 33
0.0
 40
0.0
 40
0.0
 40
0.0
 40
0.0
 40
0.1666666666666667
 40
0.1666666666666667
 40
0.1666666666666667
 40
0.1666666666666667
 40
0.3333333333333333
 40
0.3333333333333333
 40
0.3333333333333333
 40
0.3333333333333333
 40
0.5
 40
0.5
 40
0.5
 40
0.5
 40
0.6666666666666666
 40
0.6666666666666666
 40
0.6666666666666666
 40
0.6666666666666666
 40
1.0
 40
1.0
 40
1.0
 40
1.0
 10
-90.057
 20
56.4851
 30
0.0
 10
-87.9795
 20
58.0835
 30
0.0
 10
-85.7016
 20
59.4037
 30
0.0
 10
-83.2816
 20
60.4119
 30
0.0
 10
-83.2816
 20
60.4119
 30
0.0
 10
-82.3451
 20
59.7777
 30
0.0
 10
-81.1256
 20
59.7455
 30
0.0
 10
-80.1566
 20
60.3288
 30
0.0
 10
-80.1566
 20
60.3288
 30
0.0
 10
-79.0959
 20
59.3573
 30
0.0
 10
-77.6514
 20
58.9197
 30
0.0
 10
-76.2297
 20
59.1396
 30
0.0
 10
-76.2297
 20
59.1396
 30
0.0
 10
-71.8873
 20
59.9744
 30
0.0
 10
-67.6154
 20
57.3968
 30
0.0
 10
-66.3292
 20
53.1661
 30
0.0
 10
-66.3292
 20
53.1661
 30
0.0
 10
-73.793
 20
56.3973
 30
0.0
 10
-81.9932
 20
57.5443
 30
0.0
 10
-90.057
 20
56.4851
 30
0.0
  0
SPLINE
  5
85
330
1F
100
AcDbEntity
  8
layer 1
 62
     7
370
     9
100
AcDbSpline
210
0.0
220
0.0
230
1.0
 70
    11
 71
     3
 72
    20
 73
    16
 74
     0
 42
0.0000000001
 43
0.0000000001
 12
1.0
 22
0.0
 32
0.0
 13
1.0
 23
0.0
 33
0.0
 40
0.0
 40
0.0
 40
0.0
 40
0.0
 40
0.2
 40
0.2
 40
0.2
 40
0.2
 40
0.4
 40
0.4
 40
0.4
 40
0.4
 40
0.6
 40
0.6
 40
0.6
 40
0.6
 40
1.0
 40
1.0
 40
1.0
 40
1.0
 10
-68.4169
 20
67.2566
 30
0.0
 10
-68.0153
 20
67.373
 30
0.0
 10
-67.5827
 20
67.4367
 30
0.0
 10
-67.1312
 20
67.4367
 30
0.0
 10
-67.1312
 20
67.4367
 30
0.0
 10
-65.9837
 20
67.4367
 30
0.0
 10
-64.9601
 20
67.0278
 30
0.0
 10
-64.2912
 20
66.3882
 30
0.0
 10
-64.2912
 20
66.3882
 30
0.0
 10
-64.6041
 20
67.5317
 30
0.0
 10
-65.106
 20
68.6151
 30
0.0
 10
-65.7761
 20
69.5934
 30
0.0
 10
-65.7761
 20
69.5934
 30
0.0
 10
-66.6077
 20
68.7611
 30
0.0
 10
-67.4895
 20
67.9805
 30
0.0
 10
-68.4169
 20
67.2566
 30
0.0
  0
SPLINE
  5
86
330
1F
100
AcDbEntity
  8
layer 1
 62
     7
370
     9
100
AcDbSpline
210
0.0
220
0.0
230
1.0
 70
    11
 71
     3
 72
    20
 73
    16
 74
     0
 42
0.0000000001
 43
0.0000000001
 12
1.0
 22
0.0
 32
0.0
 13
1.0
 23
0.0
 33
0.0
 40
0.0
 40
0.0
 40
0.0
 40
0.0
 40
0.2
 40
0.2
 40
0.2
 40
0.2
 40
0.4
 40
0.4
 40
0.4
 40
0.4
 40
0.6
 40
0.6
 40
0.6
 40
0.6
 40
1.0
 40
1.0
 40
1.0
 40
1.0
 10
-67.6932
 20
61.8283
 30
0.0
 10
-66.5614
 20
61.2865
 30
0.0
 10
-65.5371
 20
60.5441
 30
0.0
 10
-64.6699
 20
59.6375
 30
0.0
 10
-64.6699
 20
59.6375
 30
0.0
 10
-64.2079
 20
60.7967
 30
0.0
 10
-63.9532
 20
62.028
 30
0.0
 10
-63.9178
 20
63.2754
 30
0.0
 10
-63.9178
 20
63.2754
 30
0.0
 10
-64.5336
 20
62.3947
 30
0.0
 10
-65.7418
 20
61.795
 30
0.0
 10
-67.1312
 20
61.795
 30
0.0
 10
-67.1312
 20
61.795
 30
0.0
 10
-67.3225
 20
61.795
 30
0.0
 10
-67.5103
 20
61.8065
 30
0.0
 10
-67.6932
 20
61.8283
 30
0.0
  0
SPLINE
  5
87
330
1F
100
AcDbEntity
  8
layer 1
 62
     7
370
     9
100
AcDbSpline
210
0.0
220
0.0
230
1.0
 70
    11
 71
     3
 72
   124
 73
   120
 74
     0
 42
0.0000000001
 43
0.0000000001
 12
1.0
 22
0.0
 32
0.0
 13
1.0
 23
0.0
 33
0.0
 40
0.0
 40
0.0
 40
0.0
 40
0.0
 40
0.032258064516129
 40
0.032258064516129
 40
0.032258064516129
 40
0.032258064516129
 40
0.0645161290322581
 40
0.0645161290322581
 40
0.0645161290322581
 40
0.0645161290322581
 40
0.0967741935483871
 40
0.0967741935483871
 40
0.0967741935483871
 40
0.0967741935483871
 40
0.1290322580645161
 40
0.1290322580645161
 40
0.1290322580645161
 40
0.1290322580645161
 40
0.1612903225806452
 40
0.1612903225806452
 40
0.1612903225806452
 40
0.1612903225806452
 40
0.1935483870967742
 40
0.1935483870967742
 40
0.1935483870967742
 40
0.1935483870967742
 40
0.2258064516129032
 40
0.2258064516129032
 40
0.2258064516129032
 40
0.2258064516129032
 40
0.2580645161290323
 40
0.2580645161290323
 40
0.2580645161290323
 40
0.2580645161290323
 40
0.2903225806451613
 40
0.2903225806451613
 40
0.2903225806451613
 40
0.2903225806451613
 40
0.3225806451612903
 40
0.3225806451612903
 40
0.3225806451612903
 40
0.3225806451612903
 40
0.3548387096774194
 40
0.3548387096774194
 40
0.3548387096774194
 40
0.3548387096774194
 40
0.3870967741935484
 40
0.3870967741935484
 40
0.3870967741935484
 40
0.3870967741935484
 40
0.4193548387096774
 40
0.4193548387096774
 40
0.4193548387096774
 40
0.4193548387096774
 40
0.4516129032258064
 40
0.4516129032258064
 40
0.4516129032258064
 40
0.4516129032258064
 40
0.4838709677419355
 40
0.4838709677419355
 40
0.4838709677419355
 40
0.4838709677419355
 40
0.5161290322580645
 40
0.5161290322580645
 40
0.5161290322580645
 40
0.5161290322580645
 40
0.5483870967741935
 40
0.5483870967741935
 40
0.5483870967741935
 40
0.5483870967741935
 40
0.5806451612903226
 40
0.5806451612903226
 40
0.5806451612903226
 40
0.5806451612903226
 40
0.6129032258064516
 40
0.6129032258064516
 40
0.6129032258064516
 40
0.6129032258064516
 40
0.6451612903225806
 40
0.6451612903225806
 40
0.6451612903225806
 40
0.6451612903225806
 40
0.6774193548387096
 40
0.6774193548387096
 40
0.6774193548387096
 40
0.6774193548387096
 40
0.7096774193548387
 40
0.7096774193548387
 40
0.7096774193548387
 40
0.7096774193548387
 40
0.7419354838709677
 40
0.7419354838709677
 40
0.7419354838709677
 40
0.7419354838709677
 40
0.7741935483870968
 40
0.7741935483870968
 40
0.7741935483870968
 40
0.7741935483870968
 40
0.8064516129032258
 40
0.8064516129032258
 40
0.8064516129032258
 40
0.8064516129032258
 40
0.8387096774193549
 40
0.8387096774193549
 40
0.8387096774193549
 40
0.8387096774193549
 40
0.8709677419354839
 40
0.8709677419354839
 40
0.8709677419354839
 40
0.8709677419354839
 40
0.9032258064516129
 40
0.9032258064516129
 40
0.9032258064516129
 40
0.9032258064516129
 40
0.9354838709677419
 40
0.9354838709677419
 40
0.9354838709677419
 40
0.9354838709677419
 40
1.0
 40
1.0
 40
1.0
 40
1.0
 10
-180.4889
 20
52.6253
 30
0.0
 10
-178.5855
 20
53.5949
 30
0.0
 10
-176.3012
 20
53.4247
 30
0.0
 10
-174.5629
 20
52.1835
 30
0.0
 10
-174.5629
 20
52.1835
 30
0.0
 10
-172.8246
 20
50.9426
 30
0.0
 10
-171.9214
 20
48.8376
 30
0.0
 10
-172.2199
 20
46.7226
 30
0.0
 10
-172.2199
 20
46.7226
 30
0.0
 10
-172.2218
 20
46.6042
 30
0.0
 10
-172.1697
 20
46.4912
 30
0.0
 10
-172.078
 20
46.4157
 30
0.0
 10
-172.078
 20
46.4157
 30
0.0
 10
-171.9869
 20
46.3402
 30
0.0
 10
-171.8658
 20
46.3107
 30
0.0
 10
-171.7497
 20
46.3356
 30
0.0
 10
-171.7497
 20
46.3356
 30
0.0
 10
-170.1995
 20
47.8221
 30
0.0
 10
-168.6042
 20
49.2611
 30
0.0
 10
-166.9655
 20
50.6499
 30
0.0
 10
-166.9655
 20
50.6499
 30
0.0
 10
-166.8955
 20
50.7238
 30
0.0
 10
-166.8667
 20
50.828
 30
0.0
 10
-166.889
 20
50.9277
 30
0.0
 10
-166.889
 20
50.9277
 30
0.0
 10
-166.9111
 20
51.0277
 30
0.0
 10
-166.9809
 20
51.1097
 30
0.0
 10
-167.0763
 20
51.1473
 30
0.0
 10
-167.0763
 20
51.1473
 30
0.0
 10
-170.213
 20
50.843
 30
0.0
 10
-173.3063
 20
52.0555
 30
0.0
 10
-175.4002
 20
54.4107
 30
0.0
 10
-175.4002
 20
54.4107
 30
0.0
 10
-177.9502
 20
57.5466
 30
0.0
 10
-178.323
 20
61.9229
 30
0.0
 10
-176.3406
 20
65.4451
 30
0.0
 10
-176.3406
 20
65.4451
 30
0.0
 10
-176.1801
 20
62.1552
 30
0.0
 10
-173.8857
 20
59.3573
 30
0.0
 10
-170.6912
 20
58.5557
 30
0.0
 10
-170.6912
 20
58.5557
 30
0.0
 10
-167.4963
 20
57.7535
 30
0.0
 10
-164.1527
 20
59.1362
 30
0.0
 10
-162.4578
 20
61.9605
 30
0.0
 10
-162.4578
 20
61.9605
 30
0.0
 10
-162.3436
 20
62.0985
 30
0.0
 10
-162.3447
 20
62.2981
 30
0.0
 10
-162.4608
 20
62.4341
 30
0.0
 10
-162.4608
 20
62.4341
 30
0.0
 10
-162.5766
 20
62.5706
 30
0.0
 10
-162.7736
 20
62.6039
 30
0.0
 10
-162.928
 20
62.5135
 30
0.0
 10
-162.928
 20
62.5135
 30
0.0
 10
-164.3378
 20
61.2416
 30
0.0
 10
-166.2659
 20
60.7104
 30
0.0
 10
-168.1286
 20
61.0806
 30
0.0
 10
-168.1286
 20
61.0806
 30
0.0
 10
-169.9915
 20
61.4513
 30
0.0
 10
-171.5695
 20
62.6794
 30
0.0
 10
-172.3858
 20
64.3943
 30
0.0
 10
-172.3858
 20
64.3943
 30
0.0
 10
-170.7514
 20
63.9418
 30
0.0
 10
-169.0012
 20
64.2215
 30
0.0
 10
-167.5895
 20
65.1611
 30
0.0
 10
-167.5895
 20
65.1611
 30
0.0
 10
-166.1777
 20
66.1005
 30
0.0
 10
-165.2433
 20
67.6068
 30
0.0
 10
-165.0296
 20
69.2891
 30
0.0
 10
-165.0296
 20
69.2891
 30
0.0
 10
-164.7314
 20
72.1361
 30
0.0
 10
-165.1695
 20
75.0118
 30
0.0
 10
-166.3018
 20
77.641
 30
0.0
 10
-166.3018
 20
77.641
 30
0.0
 10
-166.3535
 20
77.7467
 30
0.0
 10
-166.4609
 20
77.8134
 30
0.0
 10
-166.5782
 20
77.8134
 30
0.0
 10
-166.5782
 20
77.8134
 30
0.0
 10
-166.6958
 20
77.8134
 30
0.0
 10
-166.8031
 20
77.7467
 30
0.0
 10
-166.8549
 20
77.641
 30
0.0
 10
-166.8549
 20
77.641
 30
0.0
 10
-167.1032
 20
76.9623
 30
0.0
 10
-167.6236
 20
76.4181
 30
0.0
 10
-168.2904
 20
76.1399
 30
0.0
 10
-168.2904
 20
76.1399
 30
0.0
 10
-168.9571
 20
75.8617
 30
0.0
 10
-169.7102
 20
75.8744
 30
0.0
 10
-170.367
 20
76.1752
 30
0.0
 10
-170.367
 20
76.1752
 30
0.0
 10
-170.4421
 20
76.1722
 30
0.0
 10
-170.5123
 20
76.1373
 30
0.0
 10
-170.5597
 20
76.079
 30
0.0
 10
-170.5597
 20
76.079
 30
0.0
 10
-170.6073
 20
76.0207
 30
0.0
 10
-170.6276
 20
75.9452
 30
0.0
 10
-170.6161
 20
75.8709
 30
0.0
 10
-170.6161
 20
75.8709
 30
0.0
 10
-170.9686
 20
72.5768
 30
0.0
 10
-173.7742
 20
70.0943
 30
0.0
 10
-177.0871
 20
70.1464
 30
0.0
 10
-177.0871
 20
70.1464
 30
0.0
 10
-174.6506
 20
74.6067
 30
0.0
 10
-173.9984
 20
79.8253
 30
0.0
 10
-175.2618
 20
84.7482
 30
0.0
 10
-175.2618
 20
84.7482
 30
0.0
 10
-175.8987
 20
87.1011
 30
0.0
 10
-176.779
 20
89.3813
 30
0.0
 10
-177.8892
 20
91.5514
 30
0.0
 10
-177.8892
 20
91.5514
 30
0.0
 10
-178.8396
 20
93.4238
 30
0.0
 10
-179.5049
 20
95.428
 30
0.0
 10
-179.862
 20
97.4974
 30
0.0
 10
-179.862
 20
97.4974
 30
0.0
 10
-180.0528
 20
97.6044
 30
0.0
 10
-180.2785
 20
97.6307
 30
0.0
 10
-180.4889
 20
97.5706
 30
0.0
 10
-180.4889
 20
97.5706
 30
0.0
 10
-180.4889
 20
97.5706
 30
0.0
 10
-180.4889
 20
52.6253
 30
0.0
 10
-180.4889
 20
52.6253
 30
0.0
  0
SPLINE
  5
88
330
1F
100
AcDbEntity
  8
layer 1
 62
     7
370
     9
100
AcDbSpline
210
0.0
220
0.0
230
1.0
 70
    11
 71
     3
 72
    32
 73
    28
 74
     0
 42
0.0000000001
 43
0.0000000001
 12
1.0
 22
0.0
 32
0.0
 13
1.0
 23
0.0
 33
0.0
 40
0.0
 40
0.0
 40
0.0
 40
0.0
 40
0.125
 40
0.125
 40
0.125
 40
0.125
 40
0.25
 40
0.25
 40
0.25
 40
0.25
 40
0.375
 40
0.375
 40
0.375
 40
0.375
 40
0.5
 40
0.5
 40
0.5
 40
0.5
 40
0.625
 40
0.625
 40
0.625
 40
0.625
 40
0.75
 40
0.75
 40
0.75
 40
0.75
 40
1.0
 40
1.0
 40
1.0
 40
1.0
 10
-180.4889
 20
48.7429
 30
0.0
 10
-180.4889
 20
48.7429
 30
0.0
 10
-180.4889
 20
31.2437
 30
0.0
 10
-180.4889
 20
31.2437
 30
0.0
 10
-180.4889
 20
31.2437
 30
0.0
 10
-179.4642
 20
35.2548
 30
0.0
 10
-177.6186
 20
39.0093
 30
0.0
 10
-175.0684
 20
42.2704
 30
0.0
 10
-175.0684
 20
42.2704
 30
0.0
 10
-174.7165
 20
42.6602
 30
0.0
 10
-174.5728
 20
43.1947
 30
0.0
 10
-174.6813
 20
43.7082
 30
0.0
 10
-174.6813
 20
43.7082
 30
0.0
 10
-175.3922
 20
45.486
 30
0.0
 10
-176.8484
 20
46.8609
 30
0.0
 10
-178.6636
 20
47.4691
 30
0.0
 10
-178.6636
 20
47.4691
 30
0.0
 10
-178.4054
 20
48.6974
 30
0.0
 10
-177.2148
 20
49.4952
 30
0.0
 10
-175.9812
 20
49.2668
 30
0.0
 10
-175.9812
 20
49.2668
 30
0.0
 10
-176.5782
 20
49.9486
 30
0.0
 10
-177.4722
 20
50.2931
 30
0.0
 10
-178.3724
 20
50.1884
 30
0.0
 10
-178.3724
 20
50.1884
 30
0.0
 10
-179.2726
 20
50.0838
 30
0.0
 10
-180.064
 20
49.5435
 30
0.0
 10
-180.4889
 20
48.7429
 30
0.0
  0
SPLINE
  5
89
330
1F
100
AcDbEntity
  8
layer 1
 62
     7
370
     9
100
AcDbSpline
210
0.0
220
0.0
230
1.0
 70
    11
 71
     3
 72
    28
 73
    24
 74
     0
 42
0.0000000001
 43
0.0000000001
 12
1.0
 22
0.0
 32
0.0
 13
1.0
 23
0.0
 33
0.0
 40
0.0
 40
0.0
 40
0.0
 40
0.0
 40
0.1428571428571428
 40
0.1428571428571428
 40
0.1428571428571428
 40
0.1428571428571428
 40
0.2857142857142857
 40
0.2857142857142857
 40
0.2857142857142857
 40
0.2857142857142857
 40
0.4285714285714285
 40
0.4285714285714285
 40
0.4285714285714285
 40
0.4285714285714285
 40
0.5714285714285714
 40
0.5714285714285714
 40
0.5714285714285714
 40
0.5714285714285714
 40
0.7142857142857143
 40
0.7142857142857143
 40
0.7142857142857143
 40
0.7142857142857143
 40
1.0
 40
1.0
 40
1.0
 40
1.0
 10
-70.3853
 20
-49.7182
 30
0.0
 10
-70.6391
 20
-49.3339
 30
0.0
 10
-70.7821
 20
-48.8989
 30
0.0
 10
-70.7821
 20
-48.4382
 30
0.0
 10
-70.7821
 20
-48.4382
 30
0.0
 10
-70.7821
 20
-47.6017
 30
0.0
 10
-70.3106
 20
-46.8502
 30
0.0
 10
-69.5629
 20
-46.3344
 30
0.0
 10
-69.5629
 20
-46.3344
 30
0.0
 10
-71.2023
 20
-46.7613
 30
0.0
 10
-72.9215
 20
-46.7809
 30
0.0
 10
-74.5704
 20
-46.3914
 30
0.0
 10
-74.5704
 20
-46.3914
 30
0.0
 10
-75.1438
 20
-46.5479
 30
0.0
 10
-75.5502
 20
-47.0571
 30
0.0
 10
-75.5755
 20
-47.6508
 30
0.0
 10
-75.5755
 20
-47.6508
 30
0.0
 10
-75.6008
 20
-48.2447
 30
0.0
 10
-75.239
 20
-48.7866
 30
0.0
 10
-74.6809
 20
-48.9908
 30
0.0
 10
-74.6809
 20
-48.9908
 30
0.0
 10
-73.2098
 20
-48.8445
 30
0.0
 10
-71.7263
 20
-49.0954
 30
0.0
 10
-70.3853
 20
-49.7182
 30
0.0
  0
SPLINE
  5
8A
330
1F
100
AcDbEntity
  8
layer 1
 62
     7
370
     9
100
AcDbSpline
210
0.0
220
0.0
230
1.0
 70
    11
 71
     3
 72
    28
 73
    24
 74
     0
 42
0.0000000001
 43
0.0000000001
 12
1.0
 22
0.0
 32
0.0
 13
1.0
 23
0.0
 33
0.0
 40
0.0
 40
0.0
 40
0.0
 40
0.0
 40
0.1428571428571428
 40
0.1428571428571428
 40
0.1428571428571428
 40
0.1428571428571428
 40
0.2857142857142857
 40
0.2857142857142857
 40
0.2857142857142857
 40
0.2857142857142857
 40
0.4285714285714285
 40
0.4285714285714285
 40
0.4285714285714285
 40
0.4285714285714285
 40
0.5714285714285714
 40
0.5714285714285714
 40
0.5714285714285714
 40
0.5714285714285714
 40
0.7142857142857143
 40
0.7142857142857143
 40
0.7142857142857143
 40
0.7142857142857143
 40
1.0
 40
1.0
 40
1.0
 40
1.0
 10
-70.3853
 20
65.8958
 30
0.0
 10
-70.6391
 20
65.5114
 30
0.0
 10
-70.7821
 20
65.0764
 30
0.0
 10
-70.7821
 20
64.6158
 30
0.0
 10
-70.7821
 20
64.6158
 30
0.0
 10
-70.7821
 20
63.7793
 30
0.0
 10
-70.3106
 20
63.0278
 30
0.0
 10
-69.5629
 20
62.5119
 30
0.0
 10
-69.5629
 20
62.5119
 30
0.0
 10
-71.2023
 20
62.9388
 30
0.0
 10
-72.9215
 20
62.9584
 30
0.0
 10
-74.5704
 20
62.5691
 30
0.0
 10
-74.5704
 20
62.5691
 30
0.0
 10
-75.1438
 20
62.7254
 30
0.0
 10
-75.5502
 20
63.2343
 30
0.0
 10
-75.5755
 20
63.8283
 30
0.0
 10
-75.5755
 20
63.8283
 30
0.0
 10
-75.6008
 20
64.4223
 30
0.0
 10
-75.239
 20
64.9642
 30
0.0
 10
-74.6809
 20
65.1684
 30
0.0
 10
-74.6809
 20
65.1684
 30
0.0
 10
-73.2098
 20
65.0217
 30
0.0
 10
-71.7263
 20
65.273
 30
0.0
 10
-70.3853
 20
65.8958
 30
0.0
  0
ENDSEC
  0
SECTION
  2
OBJECTS
  0
DICTIONARY
  5
C
330
0
100
AcDbDictionary
281
     1
  3
ACAD_GROUP
350
D
  3
ACAD_LAYOUT
350
1A
  3
ACAD_MATERIAL
350
3B
  3
ACAD_MLEADERSTYLE
350
AC
  3
ACAD_MLINESTYLE
350
17
  3
ACAD_PLOTSETTINGS
350
19
  3
ACAD_PLOTSTYLENAME
350
E
  3
ACAD_TABLESTYLE
350
AB
  3
ACAD_VISUALSTYLE
350
2A
  0
DICTIONARY
  5
D
102
{ACAD_REACTORS
330
C
102
}
330
C
100
AcDbDictionary
281
     1
  0
DICTIONARY
  5
1A
102
{ACAD_REACTORS
330
C
102
}
330
C
100
AcDbDictionary
281
     1
  3
Layout1
350
1E
  3
Layout2
350
26
  3
Model
350
22
  0
DICTIONARY
  5
3B
102
{ACAD_REACTORS
330
C
102
}
330
C
100
AcDbDictionary
281
     1
  3
ByBlock
350
3D
  3
ByLayer
350
3C
  3
Global
350
3E
  0
DICTIONARY
  5
AC
102
{ACAD_REACTORS
330
C
102
}
330
C
100
AcDbDictionary
281
     1
  0
DICTIONARY
  5
17
102
{ACAD_REACTORS
330
C
102
}
330
C
100
AcDbDictionary
281
     1
  3
Standard
350
18
  0
DICTIONARY
  5
19
102
{ACAD_REACTORS
330
C
102
}
330
C
100
AcDbDictionary
281
     1
  0
ACDBDICTIONARYWDFLT
  5
E
102
{ACAD_REACTORS
330
C
102
}
330
C
100
AcDbDictionary
281
     1
  3
Normal
350
F
100
AcDbDictionaryWithDefault
340
F
  0
DICTIONARY
  5
AB
102
{ACAD_REACTORS
330
C
102
}
330
C
100
AcDbDictionary
281
     1
  0
DICTIONARY
  5
2A
102
{ACAD_REACTORS
330
C
102
}
330
C
100
AcDbDictionary
281
     1
  3
2dWireframe
350
2F
  3
3D Hidden
350
31
  3
3dWireframe
350
30
  3
Basic
350
32
  3
Brighten
350
36
  3
ColorChange
350
3A
  3
Conceptual
350
34
  3
Dim
350
35
  3
Facepattern
350
39
  3
Flat
350
2B
  3
FlatWithEdges
350
2C
  3
Gouraud
350
2D
  3
GouraudWithEdges
350
2E
  3
Linepattern
350
38
  3
Realistic
350
33
  3
Thicken
350
37
  0
LAYOUT
  5
1E
102
{ACAD_REACTORS
330
1A
102
}
330
1A
100
AcDbPlotSettings
  1

  2
none_device
  4

  6

 40
0.0
 41
0.0
 42
0.0
 43
0.0
 44
0.0
 45
0.0
 46
0.0
 47
0.0
 48
0.0
 49
0.0
140
0.0
141
0.0
142
1.0
143
1.0
 70
   688
 72
     0
 73
     0
 74
     5
  7

 75
    16
 76
     0
 77
     2
 78
   300
147
1.0
148
0.0
149
0.0
100
AcDbLayout
  1
Layout1
 70
     1
 71
     1
 10
0.0
 20
0.0
 11
12.0
 21
9.0
 12
0.0
 22
0.0
 32
0.0
 14
1.000000000000000E+20
 24
1.000000000000000E+20
 34
1.000000000000000E+20
 15
-1.000000000000000E+20
 25
-1.000000000000000E+20
 35
-1.000000000000000E+20
146
0.0
 13
0.0
 23
0.0
 33
0.0
 16
1.0
 26
0.0
 36
0.0
 17
0.0
 27
1.0
 37
0.0
 76
     0
330
1B
  0
LAYOUT
  5
26
102
{ACAD_REACTORS
330
1A
102
}
330
1A
100
AcDbPlotSettings
  1

  2
none_device
  4

  6

 40
0.0
 41
0.0
 42
0.0
 43
0.0
 44
0.0
 45
0.0
 46
0.0
 47
0.0
 48
0.0
 49
0.0
140
0.0
141
0.0
142
1.0
143
1.0
 70
   688
 72
     0
 73
     0
 74
     5
  7

 75
    16
 76
     0
 77
     2
 78
   300
147
1.0
148
0.0
149
0.0
100
AcDbLayout
  1
Layout2
 70
     1
 71
     2
 10
0.0
 20
0.0
 11
0.0
 21
0.0
 12
0.0
 22
0.0
 32
0.0
 14
0.0
 24
0.0
 34
0.0
 15
0.0
 25
0.0
 35
0.0
146
0.0
 13
0.0
 23
0.0
 33
0.0
 16
1.0
 26
0.0
 36
0.0
 17
0.0
 27
1.0
 37
0.0
 76
     0
330
23
  0
LAYOUT
  5
22
102
{ACAD_REACTORS
330
1A
102
}
330
1A
100
AcDbPlotSettings
  1

  2
none_device
  4

  6

 40
0.0
 41
0.0
 42
0.0
 43
0.0
 44
0.0
 45
0.0
 46
0.0
 47
0.0
 48
0.0
 49
0.0
140
0.0
141
0.0
142
1.0
143
1.0
 70
  1712
 72
     0
 73
     0
 74
     0
  7

 75
     0
 76
     0
 77
     2
 78
   300
147
1.0
148
0.0
149
0.0
100
AcDbLayout
  1
Model
 70
     1
 71
     0
 10
0.0
 20
0.0
 11
12.0
 21
9.0
 12
0.0
 22
0.0
 32
0.0
 14
-187.194
 24
-115.1818
 34
0.0
 15
-51.441
 25
132.0909
 35
0.0
146
0.0
 13
0.0
 23
0.0
 33
0.0
 16
1.0
 26
0.0
 36
0.0
 17
0.0
 27
1.0
 37
0.0
 76
     0
330
1F
331
29
  0
MATERIAL
  5
3D
102
{ACAD_REACTORS
330
3B
102
}
330
3B
100
AcDbMaterial
  1
ByBlock
 72
     1
 94
      127
  0
MATERIAL
  5
3C
102
{ACAD_REACTORS
330
3B
102
}
330
3B
100
AcDbMaterial
  1
ByLayer
 72
     1
 94
      127
  0
MATERIAL
  5
3E
102
{ACAD_REACTORS
330
3B
102
}
330
3B
100
AcDbMaterial
  1
Global
 72
     1
 94
      127
  0
MLINESTYLE
  5
18
102
{ACAD_REACTORS
330
17
102
}
330
17
100
AcDbMlineStyle
  2
Standard
 70
     0
  3

 62
   256
 51
90.0
 52
90.0
 71
     2
 49
0.5
 62
   256
  6
BYLAYER
 49
-0.5
 62
   256
  6
BYLAYER
  0
ACDBPLACEHOLDER
  5
F
102
{ACAD_REACTORS
330
E
102
}
330
E
  0
VISUALSTYLE
  5
2F
102
{ACAD_REACTORS
330
2A
102
}
102
{ACAD_XDICTIONARY
360
93
102
}
330
2A
100
AcDbVisualStyle
  2
2dWireframe
 70
     4
 71
     0
 72
     2
 73
     0
 90
        0
 40
-0.6
 41
-30.0
 62
     5
 63
     7
421
 16777215
 74
     1
 91
        4
 64
     7
 65
   257
 75
     1
175
     1
 42
1.0
 92
        0
 66
   257
 43
1.0
 76
     1
 77
     6
 78
     2
 67
     7
 79
     5
170
     0
171
     0
290
     0
174
     0
 93
        1
 44
0.0
173
     0
291
     0
 45
0.0
  0
VISUALSTYLE
  5
31
102
{ACAD_REACTORS
330
2A
102
}
102
{ACAD_XDICTIONARY
360
97
102
}
330
2A
100
AcDbVisualStyle
  2
3D Hidden
 70
     6
 71
     1
 72
     2
 73
     2
 90
        0
 40
-0.6
 41
-30.0
 62
     5
 63
     7
421
 16777215
 74
     2
 91
        2
 64
     7
 65
   257
 75
     2
175
     1
 42
40.0
 92
        0
 66
   257
 43
1.0
 76
     1
 77
     6
 78
     2
 67
     7
 79
     3
170
     0
171
     0
290
     0
174
     0
 93
        1
 44
0.0
173
     0
291
     0
 45
0.0
  0
VISUALSTYLE
  5
30
102
{ACAD_REACTORS
330
2A
102
}
102
{ACAD_XDICTIONARY
360
95
102
}
330
2A
100
AcDbVisualStyle
  2
3dWireframe
 70
     5
 71
     0
 72
     2
 73
     0
 90
        0
 40
-0.6
 41
-30.0
 62
     5
 63
     7
421
 16777215
 74
     1
 91
        4
 64
     7
 65
   257
 75
     1
175
     1
 42
1.0
 92
        0
 66
   257
 43
1.0
 76
     1
 77
     6
 78
     2
 67
     7
 79
     5
170
     0
171
     0
290
     0
174
     0
 93
        1
 44
0.0
173
     0
291
     0
 45
0.0
  0
VISUALSTYLE
  5
32
102
{ACAD_REACTORS
330
2A
102
}
102
{ACAD_XDICTIONARY
360
99
102
}
330
2A
100
AcDbVisualStyle
  2
Basic
 70
     7
 71
     1
 72
     0
 73
     1
 90
        0
 40
-0.6
 41
-30.0
 62
     5
 63
     7
421
 16777215
 74
     0
 91
        4
 64
     7
 65
   257
 75
     1
175
     1
 42
1.0
 92
        8
 66
     7
 43
1.0
 76
     1
 77
     6
 78
     2
 67
     7
 79
     5
170
     0
171
     0
290
     0
174
     0
 93
        1
 44
0.0
173
     0
291
     1
 45
0.0
  0
VISUALSTYLE
  5
36
102
{ACAD_REACTORS
330
2A
102
}
102
{ACAD_XDICTIONARY
360
A1
102
}
330
2A
100
AcDbVisualStyle
  2
Brighten
 70
    12
 71
     2
 72
     2
 73
     0
 90
        0
 40
-0.6
 41
-30.0
 62
     5
 63
     7
421
 16777215
 74
     1
 91
        4
 64
     7
 65
   257
 75
     1
175
     1
 42
1.0
 92
        8
 66
     7
 43
1.0
 76
     1
 77
     6
 78
     2
 67
     7
 79
     5
170
     0
171
     0
290
     0
174
     0
 93
        1
 44
50.0
173
     0
291
     1
 45
0.0
  0
VISUALSTYLE
  5
3A
102
{ACAD_REACTORS
330
2A
102
}
102
{ACAD_XDICTIONARY
360
A9
102
}
330
2A
100
AcDbVisualStyle
  2
ColorChange
 70
    16
 71
     2
 72
     2
 73
     3
 90
        0
 40
-0.6
 41
-30.0
 62
     5
 63
     8
421
  8421504
 74
     1
 91
        4
 64
     7
 65
   257
 75
     1
175
     1
 42
1.0
 92
        8
 66
     8
424
  8421504
 43
1.0
 76
     1
 77
     6
 78
     2
 67
     7
 79
     5
170
     0
171
     0
290
     0
174
     0
 93
        1
 44
0.0
173
     0
291
     1
 45
0.0
  0
VISUALSTYLE
  5
34
102
{ACAD_REACTORS
330
2A
102
}
102
{ACAD_XDICTIONARY
360
9D
102
}
330
2A
100
AcDbVisualStyle
  2
Conceptual
 70
     9
 71
     3
 72
     2
 73
     0
 90
        0
 40
-0.6
 41
-30.0
 62
     5
 63
     7
421
 16777215
 74
     2
 91
        2
 64
     7
 65
   257
 75
     1
175
     1
 42
40.0
 92
        8
 66
     7
 43
1.0
 76
     1
 77
     6
 78
     2
 67
     7
 79
     3
170
     0
171
     0
290
     0
174
     0
 93
        1
 44
0.0
173
     0
291
     0
 45
0.0
  0
VISUALSTYLE
  5
35
102
{ACAD_REACTORS
330
2A
102
}
102
{ACAD_XDICTIONARY
360
9F
102
}
330
2A
100
AcDbVisualStyle
  2
Dim
 70
    11
 71
     2
 72
     2
 73
     0
 90
        0
 40
-0.6
 41
-30.0
 62
     5
 63
     7
421
 16777215
 74
     1
 91
        4
 64
     7
 65
   257
 75
     1
175
     1
 42
1.0
 92
        8
 66
     7
 43
1.0
 76
     1
 77
     6
 78
     2
 67
     7
 79
     5
170
     0
171
     0
290
     0
174
     0
 93
        1
 44
-50.0
173
     0
291
     1
 45
0.0
  0
VISUALSTYLE
  5
39
102
{ACAD_REACTORS
330
2A
102
}
102
{ACAD_XDICTIONARY
360
A7
102
}
330
2A
100
AcDbVisualStyle
  2
Facepattern
 70
    15
 71
     2
 72
     2
 73
     0
 90
        0
 40
-0.6
 41
-30.0
 62
     5
 63
     7
421
 16777215
 74
     1
 91
        4
 64
     7
 65
   257
 75
     1
175
     1
 42
1.0
 92
        8
 66
     7
 43
1.0
 76
     1
 77
     6
 78
     2
 67
     7
 79
     5
170
     0
171
     0
290
     0
174
     0
 93
        1
 44
0.0
173
     0
291
     1
 45
0.0
  0
VISUALSTYLE
  5
2B
102
{ACAD_REACTORS
330
2A
102
}
102
{ACAD_XDICTIONARY
360
8B
102
}
330
2A
100
AcDbVisualStyle
  2
Flat
 70
     0
 71
     2
 72
     1
 73
     1
 90
        2
 40
-0.6
 41
30.0
 62
     5
 63
     7
421
 16777215
 74
     0
 91
        4
 64
     7
 65
   257
 75
     1
175
     1
 42
1.0
 92
        8
 66
     7
 43
1.0
 76
     1
 77
     6
 78
     2
 67
     7
 79
     5
170
     0
171
     0
290
     0
174
     0
 93
       13
 44
0.0
173
     0
291
     1
 45
0.0
  0
VISUALSTYLE
  5
2C
102
{ACAD_REACTORS
330
2A
102
}
102
{ACAD_XDICTIONARY
360
8D
102
}
330
2A
100
AcDbVisualStyle
  2
FlatWithEdges
 70
     1
 71
     2
 72
     1
 73
     1
 90
        2
 40
-0.6
 41
30.0
 62
     5
 63
     7
421
 16777215
 74
     1
 91
        4
 64
     7
 65
   257
 75
     1
175
     1
 42
1.0
 92
        0
 66
   257
 43
1.0
 76
     1
 77
     6
 78
     2
 67
     7
 79
     5
170
     0
171
     0
290
     0
174
     0
 93
       13
 44
0.0
173
     0
291
     1
 45
0.0
  0
VISUALSTYLE
  5
2D
102
{ACAD_REACTORS
330
2A
102
}
102
{ACAD_XDICTIONARY
360
8F
102
}
330
2A
100
AcDbVisualStyle
  2
Gouraud
 70
     2
 71
     2
 72
     2
 73
     1
 90
        2
 40
-0.6
 41
30.0
 62
     5
 63
     7
421
 16777215
 74
     0
 91
        4
 64
     7
 65
   257
 75
     1
175
     1
 42
1.0
 92
        0
 66
     7
 43
1.0
 76
     1
 77
     6
 78
     2
 67
     7
 79
     5
170
     0
171
     0
290
     0
174
     0
 93
       13
 44
0.0
173
     0
291
     1
 45
0.0
  0
VISUALSTYLE
  5
2E
102
{ACAD_REACTORS
330
2A
102
}
102
{ACAD_XDICTIONARY
360
91
102
}
330
2A
100
AcDbVisualStyle
  2
GouraudWithEdges
 70
     3
 71
     2
 72
     2
 73
     1
 90
        2
 40
-0.6
 41
30.0
 62
     5
 63
     7
421
 16777215
 74
     1
 91
        4
 64
     7
 65
   257
 75
     1
175
     1
 42
1.0
 92
        0
 66
   257
 43
1.0
 76
     1
 77
     6
 78
     2
 67
     7
 79
     5
170
     0
171
     0
290
     0
174
     0
 93
       13
 44
0.0
173
     0
291
     1
 45
0.0
  0
VISUALSTYLE
  5
38
102
{ACAD_REACTORS
330
2A
102
}
102
{ACAD_XDICTIONARY
360
A5
102
}
330
2A
100
AcDbVisualStyle
  2
Linepattern
 70
    14
 71
     2
 72
     2
 73
     0
 90
        0
 40
-0.6
 41
-30.0
 62
     5
 63
     7
421
 16777215
 74
     1
 91
        4
 64
     7
 65
   257
 75
     7
175
     7
 42
1.0
 92
        8
 66
     7
 43
1.0
 76
     1
 77
     6
 78
     2
 67
     7
 79
     5
170
     0
171
     0
290
     0
174
     0
 93
        1
 44
0.0
173
     0
291
     1
 45
0.0
  0
VISUALSTYLE
  5
33
102
{ACAD_REACTORS
330
2A
102
}
102
{ACAD_XDICTIONARY
360
9B
102
}
330
2A
100
AcDbVisualStyle
  2
Realistic
 70
     8
 71
     2
 72
     2
 73
     0
 90
        0
 40
-0.6
 41
-30.0
 62
     5
 63
     7
421
 16777215
 74
     1
 91
        0
 64
     7
 65
   257
 75
     1
175
     1
 42
1.0
 92
        8
 66
     8
424
  7895160
 43
1.0
 76
     1
 77
     6
 78
     2
 67
     7
 79
     5
170
     0
171
     0
290
     0
174
     0
 93
       13
 44
0.0
173
     0
291
     0
 45
0.0
  0
VISUALSTYLE
  5
37
102
{ACAD_REACTORS
330
2A
102
}
102
{ACAD_XDICTIONARY
360
A3
102
}
330
2A
100
AcDbVisualStyle
  2
Thicken
 70
    13
 71
     2
 72
     2
 73
     0
 90
        0
 40
-0.6
 41
-30.0
 62
     5
 63
     7
421
 16777215
 74
     1
 91
        4
 64
     7
 65
   257
 75
     1
175
     1
 42
1.0
 92
       12
 66
     7
 43
1.0
 76
     1
 77
     6
 78
     2
 67
     7
 79
     5
170
     0
171
     0
290
     0
174
     0
 93
        1
 44
0.0
173
     0
291
     1
 45
0.0
  0
DICTIONARY
  5
93
330
2F
100
AcDbDictionary
280
     1
281
     1
  3
ACAD_XREC_ROUNDTRIP
360
94
  0
DICTIONARY
  5
97
330
31
100
AcDbDictionary
280
     1
281
     1
  3
ACAD_XREC_ROUNDTRIP
360
98
  0
DICTIONARY
  5
95
330
30
100
AcDbDictionary
280
     1
281
     1
  3
ACAD_XREC_ROUNDTRIP
360
96
  0
DICTIONARY
  5
99
330
32
100
AcDbDictionary
280
     1
281
     1
  3
ACAD_XREC_ROUNDTRIP
360
9A
  0
DICTIONARY
  5
A1
330
36
100
AcDbDictionary
280
     1
281
     1
  3
ACAD_XREC_ROUNDTRIP
360
A2
  0
DICTIONARY
  5
A9
330
3A
100
AcDbDictionary
280
     1
281
     1
  3
ACAD_XREC_ROUNDTRIP
360
AA
  0
DICTIONARY
  5
9D
330
34
100
AcDbDictionary
280
     1
281
     1
  3
ACAD_XREC_ROUNDTRIP
360
9E
  0
DICTIONARY
  5
9F
330
35
100
AcDbDictionary
280
     1
281
     1
  3
ACAD_XREC_ROUNDTRIP
360
A0
  0
DICTIONARY
  5
A7
330
39
100
AcDbDictionary
280
     1
281
     1
  3
ACAD_XREC_ROUNDTRIP
360
A8
  0
DICTIONARY
  5
8B
330
2B
100
AcDbDictionary
280
     1
281
     1
  3
ACAD_XREC_ROUNDTRIP
360
8C
  0
DICTIONARY
  5
8D
330
2C
100
AcDbDictionary
280
     1
281
     1
  3
ACAD_XREC_ROUNDTRIP
360
8E
  0
DICTIONARY
  5
8F
330
2D
100
AcDbDictionary
280
     1
281
     1
  3
ACAD_XREC_ROUNDTRIP
360
90
  0
DICTIONARY
  5
91
330
2E
100
AcDbDictionary
280
     1
281
     1
  3
ACAD_XREC_ROUNDTRIP
360
92
  0
DICTIONARY
  5
A5
330
38
100
AcDbDictionary
280
     1
281
     1
  3
ACAD_XREC_ROUNDTRIP
360
A6
  0
DICTIONARY
  5
9B
330
33
100
AcDbDictionary
280
     1
281
     1
  3
ACAD_XREC_ROUNDTRIP
360
9C
  0
DICTIONARY
  5
A3
330
37
100
AcDbDictionary
280
     1
281
     1
  3
ACAD_XREC_ROUNDTRIP
360
A4
  0
XRECORD
  5
94
102
{ACAD_REACTORS
330
93
102
}
330
93
100
AcDbXrecord
280
     1
102
RTVSPropertyOp0
 70
     1
102
RTVSPropertyOp1
 70
     1
102
RTVSPropertyOp2
 70
     1
102
RTVSPropertyOp3
 70
     1
102
RTVSPropertyOp4
 70
     1
102
RTVSPropertyOp5
 70
     1
102
RTVSPropertyOp6
 70
     1
102
RTVSPropertyOp7
 70
     1
102
RTVSPropertyOp8
 70
     1
102
RTVSPropertyOp9
 70
     1
102
RTVSPropertyOp10
 70
     1
102
RTVSPropertyOp11
 70
     1
102
RTVSPropertyOp12
 70
     1
102
RTVSPropertyOp13
 70
     1
102
RTVSPropertyOp14
 70
     1
102
RTVSPropertyOp15
 70
     1
102
RTVSPropertyOp16
 70
     1
102
RTVSPropertyOp17
 70
     1
102
RTVSPropertyOp18
 70
     1
102
RTVSPropertyOp19
 70
     1
102
RTVSPropertyOp20
 70
     1
102
RTVSPropertyOp21
 70
     1
102
RTVSPropertyOp22
 70
     1
102
RTVSPropertyOp23
 70
     1
102
RTVSPropertyOp24
 70
     1
102
RTVSPropertyOp25
 70
     1
102
RTVSPropertyOp26
 70
     1
102
RTVSPropertyOp27
 70
     1
102
RTVSPropertyOp28
 70
     1
102
RTVSPropertyOp29
 70
     1
102
RTVSPropertyOp30
 70
     1
102
RTVSPropertyOp31
 70
     1
102
RTVSPropertyOp32
 70
     1
  0
XRECORD
  5
98
102
{ACAD_REACTORS
330
97
102
}
330
97
100
AcDbXrecord
280
     1
102
RTVSPropertyOp0
 70
     1
102
RTVSPropertyOp1
 70
     1
102
RTVSPropertyOp2
 70
     1
102
RTVSPropertyOp3
 70
     1
102
RTVSPropertyOp4
 70
     1
102
RTVSPropertyOp5
 70
     1
102
RTVSPropertyOp6
 70
     1
102
RTVSPropertyOp7
 70
     1
102
RTVSPropertyOp8
 70
     1
102
RTVSPropertyOp9
 70
     1
102
RTVSPropertyOp10
 70
     1
102
RTVSPropertyOp11
 70
     1
102
RTVSPropertyOp12
 70
     1
102
RTVSPropertyOp13
 70
     1
102
RTVSPropertyOp14
 70
     1
102
RTVSPropertyOp15
 70
     1
102
RTVSPropertyOp16
 70
     1
102
RTVSPropertyOp17
 70
     1
102
RTVSPropertyOp18
 70
     1
102
RTVSPropertyOp19
 70
     1
102
RTVSPropertyOp20
 70
     1
102
RTVSPropertyOp21
 70
     1
102
RTVSPropertyOp22
 70
     1
102
RTVSPropertyOp23
 70
     1
102
RTVSPropertyOp24
 70
     1
102
RTVSPropertyOp25
 70
     1
102
RTVSPropertyOp26
 70
     1
102
RTVSPropertyOp27
 70
     1
102
RTVSPropertyOp28
 70
     1
102
RTVSPropertyOp29
 70
     1
102
RTVSPropertyOp30
 70
     1
102
RTVSPropertyOp31
 70
     1
102
RTVSPropertyOp32
 70
     1
  0
XRECORD
  5
96
102
{ACAD_REACTORS
330
95
102
}
330
95
100
AcDbXrecord
280
     1
102
RTVSPropertyOp0
 70
     1
102
RTVSPropertyOp1
 70
     1
102
RTVSPropertyOp2
 70
     1
102
RTVSPropertyOp3
 70
     1
102
RTVSPropertyOp4
 70
     1
102
RTVSPropertyOp5
 70
     1
102
RTVSPropertyOp6
 70
     1
102
RTVSPropertyOp7
 70
     1
102
RTVSPropertyOp8
 70
     1
102
RTVSPropertyOp9
 70
     1
102
RTVSPropertyOp10
 70
     1
102
RTVSPropertyOp11
 70
     1
102
RTVSPropertyOp12
 70
     1
102
RTVSPropertyOp13
 70
     1
102
RTVSPropertyOp14
 70
     1
102
RTVSPropertyOp15
 70
     1
102
RTVSPropertyOp16
 70
     1
102
RTVSPropertyOp17
 70
     1
102
RTVSPropertyOp18
 70
     1
102
RTVSPropertyOp19
 70
     1
102
RTVSPropertyOp20
 70
     1
102
RTVSPropertyOp21
 70
     1
102
RTVSPropertyOp22
 70
     1
102
RTVSPropertyOp23
 70
     1
102
RTVSPropertyOp24
 70
     1
102
RTVSPropertyOp25
 70
     1
102
RTVSPropertyOp26
 70
     1
102
RTVSPropertyOp27
 70
     1
102
RTVSPropertyOp28
 70
     1
102
RTVSPropertyOp29
 70
     1
102
RTVSPropertyOp30
 70
     1
102
RTVSPropertyOp31
 70
     1
102
RTVSPropertyOp32
 70
     1
  0
XRECORD
  5
9A
102
{ACAD_REACTORS
330
99
102
}
330
99
100
AcDbXrecord
280
     1
102
RTVSPropertyOp0
 70
     1
102
RTVSPropertyOp1
 70
     1
102
RTVSPropertyOp2
 70
     1
102
RTVSPropertyOp3
 70
     1
102
RTVSPropertyOp4
 70
     1
102
RTVSPropertyOp5
 70
     1
102
RTVSPropertyOp6
 70
     1
102
RTVSPropertyOp7
 70
     1
102
RTVSPropertyOp8
 70
     1
102
RTVSPropertyOp9
 70
     1
102
RTVSPropertyOp10
 70
     1
102
RTVSPropertyOp11
 70
     1
102
RTVSPropertyOp12
 70
     1
102
RTVSPropertyOp13
 70
     1
102
RTVSPropertyOp14
 70
     1
102
RTVSPropertyOp15
 70
     1
102
RTVSPropertyOp16
 70
     1
102
RTVSPropertyOp17
 70
     1
102
RTVSPropertyOp18
 70
     1
102
RTVSPropertyOp19
 70
     1
102
RTVSPropertyOp20
 70
     1
102
RTVSPropertyOp21
 70
     1
102
RTVSPropertyOp22
 70
     1
102
RTVSPropertyOp23
 70
     1
102
RTVSPropertyOp24
 70
     1
102
RTVSPropertyOp25
 70
     1
102
RTVSPropertyOp26
 70
     1
102
RTVSPropertyOp27
 70
     1
102
RTVSPropertyOp28
 70
     1
102
RTVSPropertyOp29
 70
     1
102
RTVSPropertyOp30
 70
     1
102
RTVSPropertyOp31
 70
     1
102
RTVSPropertyOp32
 70
     1
  0
XRECORD
  5
A2
102
{ACAD_REACTORS
330
A1
102
}
330
A1
100
AcDbXrecord
280
     1
102
RTVSPropertyOp0
 70
     1
102
RTVSPropertyOp1
 70
     1
102
RTVSPropertyOp2
 70
     1
102
RTVSPropertyOp3
 70
     1
102
RTVSPropertyOp4
 70
     1
102
RTVSPropertyOp5
 70
     1
102
RTVSPropertyOp6
 70
     1
102
RTVSPropertyOp7
 70
     1
102
RTVSPropertyOp8
 70
     1
102
RTVSPropertyOp9
 70
     1
102
RTVSPropertyOp10
 70
     1
102
RTVSPropertyOp11
 70
     1
102
RTVSPropertyOp12
 70
     1
102
RTVSPropertyOp13
 70
     1
102
RTVSPropertyOp14
 70
     1
102
RTVSPropertyOp15
 70
     1
102
RTVSPropertyOp16
 70
     1
102
RTVSPropertyOp17
 70
     1
102
RTVSPropertyOp18
 70
     1
102
RTVSPropertyOp19
 70
     1
102
RTVSPropertyOp20
 70
     1
102
RTVSPropertyOp21
 70
     1
102
RTVSPropertyOp22
 70
     1
102
RTVSPropertyOp23
 70
     1
102
RTVSPropertyOp24
 70
     1
102
RTVSPropertyOp25
 70
     1
102
RTVSPropertyOp26
 70
     1
102
RTVSPropertyOp27
 70
     1
102
RTVSPropertyOp28
 70
     1
102
RTVSPropertyOp29
 70
     1
102
RTVSPropertyOp30
 70
     1
102
RTVSPropertyOp31
 70
     1
102
RTVSPropertyOp32
 70
     1
  0
XRECORD
  5
AA
102
{ACAD_REACTORS
330
A9
102
}
330
A9
100
AcDbXrecord
280
     1
102
RTVSPropertyOp0
 70
     1
102
RTVSPropertyOp1
 70
     1
102
RTVSPropertyOp2
 70
     1
102
RTVSPropertyOp3
 70
     1
102
RTVSPropertyOp4
 70
     1
102
RTVSPropertyOp5
 70
     1
102
RTVSPropertyOp6
 70
     1
102
RTVSPropertyOp7
 70
     1
102
RTVSPropertyOp8
 70
     1
102
RTVSPropertyOp9
 70
     1
102
RTVSPropertyOp10
 70
     1
102
RTVSPropertyOp11
 70
     1
102
RTVSPropertyOp12
 70
     1
102
RTVSPropertyOp13
 70
     1
102
RTVSPropertyOp14
 70
     1
102
RTVSPropertyOp15
 70
     1
102
RTVSPropertyOp16
 70
     1
102
RTVSPropertyOp17
 70
     1
102
RTVSPropertyOp18
 70
     1
102
RTVSPropertyOp19
 70
     1
102
RTVSPropertyOp20
 70
     1
102
RTVSPropertyOp21
 70
     1
102
RTVSPropertyOp22
 70
     1
102
RTVSPropertyOp23
 70
     1
102
RTVSPropertyOp24
 70
     1
102
RTVSPropertyOp25
 70
     1
102
RTVSPropertyOp26
 70
     1
102
RTVSPropertyOp27
 70
     1
102
RTVSPropertyOp28
 70
     1
102
RTVSPropertyOp29
 70
     1
102
RTVSPropertyOp30
 70
     1
102
RTVSPropertyOp31
 70
     1
102
RTVSPropertyOp32
 70
     1
  0
XRECORD
  5
9E
102
{ACAD_REACTORS
330
9D
102
}
330
9D
100
AcDbXrecord
280
     1
102
RTVSPropertyOp0
 70
     1
102
RTVSPropertyOp1
 70
     1
102
RTVSPropertyOp2
 70
     1
102
RTVSPropertyOp3
 70
     1
102
RTVSPropertyOp4
 70
     1
102
RTVSPropertyOp5
 70
     1
102
RTVSPropertyOp6
 70
     1
102
RTVSPropertyOp7
 70
     1
102
RTVSPropertyOp8
 70
     1
102
RTVSPropertyOp9
 70
     1
102
RTVSPropertyOp10
 70
     1
102
RTVSPropertyOp11
 70
     1
102
RTVSPropertyOp12
 70
     1
102
RTVSPropertyOp13
 70
     1
102
RTVSPropertyOp14
 70
     1
102
RTVSPropertyOp15
 70
     1
102
RTVSPropertyOp16
 70
     1
102
RTVSPropertyOp17
 70
     1
102
RTVSPropertyOp18
 70
     1
102
RTVSPropertyOp19
 70
     1
102
RTVSPropertyOp20
 70
     1
102
RTVSPropertyOp21
 70
     1
102
RTVSPropertyOp22
 70
     1
102
RTVSPropertyOp23
 70
     1
102
RTVSPropertyOp24
 70
     1
102
RTVSPropertyOp25
 70
     1
102
RTVSPropertyOp26
 70
     1
102
RTVSPropertyOp27
 70
     1
102
RTVSPropertyOp28
 70
     1
102
RTVSPropertyOp29
 70
     1
102
RTVSPropertyOp30
 70
     1
102
RTVSPropertyOp31
 70
     1
102
RTVSPropertyOp32
 70
     1
  0
XRECORD
  5
A0
102
{ACAD_REACTORS
330
9F
102
}
330
9F
100
AcDbXrecord
280
     1
102
RTVSPropertyOp0
 70
     1
102
RTVSPropertyOp1
 70
     1
102
RTVSPropertyOp2
 70
     1
102
RTVSPropertyOp3
 70
     1
102
RTVSPropertyOp4
 70
     1
102
RTVSPropertyOp5
 70
     1
102
RTVSPropertyOp6
 70
     1
102
RTVSPropertyOp7
 70
     1
102
RTVSPropertyOp8
 70
     1
102
RTVSPropertyOp9
 70
     1
102
RTVSPropertyOp10
 70
     1
102
RTVSPropertyOp11
 70
     1
102
RTVSPropertyOp12
 70
     1
102
RTVSPropertyOp13
 70
     1
102
RTVSPropertyOp14
 70
     1
102
RTVSPropertyOp15
 70
     1
102
RTVSPropertyOp16
 70
     1
102
RTVSPropertyOp17
 70
     1
102
RTVSPropertyOp18
 70
     1
102
RTVSPropertyOp19
 70
     1
102
RTVSPropertyOp20
 70
     1
102
RTVSPropertyOp21
 70
     1
102
RTVSPropertyOp22
 70
     1
102
RTVSPropertyOp23
 70
     1
102
RTVSPropertyOp24
 70
     1
102
RTVSPropertyOp25
 70
     1
102
RTVSPropertyOp26
 70
     1
102
RTVSPropertyOp27
 70
     1
102
RTVSPropertyOp28
 70
     1
102
RTVSPropertyOp29
 70
     1
102
RTVSPropertyOp30
 70
     1
102
RTVSPropertyOp31
 70
     1
102
RTVSPropertyOp32
 70
     1
  0
XRECORD
  5
A8
102
{ACAD_REACTORS
330
A7
102
}
330
A7
100
AcDbXrecord
280
     1
102
RTVSPropertyOp0
 70
     1
102
RTVSPropertyOp1
 70
     1
102
RTVSPropertyOp2
 70
     1
102
RTVSPropertyOp3
 70
     1
102
RTVSPropertyOp4
 70
     1
102
RTVSPropertyOp5
 70
     1
102
RTVSPropertyOp6
 70
     1
102
RTVSPropertyOp7
 70
     1
102
RTVSPropertyOp8
 70
     1
102
RTVSPropertyOp9
 70
     1
102
RTVSPropertyOp10
 70
     1
102
RTVSPropertyOp11
 70
     1
102
RTVSPropertyOp12
 70
     1
102
RTVSPropertyOp13
 70
     1
102
RTVSPropertyOp14
 70
     1
102
RTVSPropertyOp15
 70
     1
102
RTVSPropertyOp16
 70
     1
102
RTVSPropertyOp17
 70
     1
102
RTVSPropertyOp18
 70
     1
102
RTVSPropertyOp19
 70
     1
102
RTVSPropertyOp20
 70
     1
102
RTVSPropertyOp21
 70
     1
102
RTVSPropertyOp22
 70
     1
102
RTVSPropertyOp23
 70
     1
102
RTVSPropertyOp24
 70
     1
102
RTVSPropertyOp25
 70
     1
102
RTVSPropertyOp26
 70
     1
102
RTVSPropertyOp27
 70
     1
102
RTVSPropertyOp28
 70
     1
102
RTVSPropertyOp29
 70
     1
102
RTVSPropertyOp30
 70
     1
102
RTVSPropertyOp31
 70
     1
102
RTVSPropertyOp32
 70
     1
  0
XRECORD
  5
8C
102
{ACAD_REACTORS
330
8B
102
}
330
8B
100
AcDbXrecord
280
     1
102
RTVSPropertyOp0
 70
     1
102
RTVSPropertyOp1
 70
     1
102
RTVSPropertyOp2
 70
     1
102
RTVSPropertyOp3
 70
     1
102
RTVSPropertyOp4
 70
     1
102
RTVSPropertyOp5
 70
     1
102
RTVSPropertyOp6
 70
     1
102
RTVSPropertyOp7
 70
     1
102
RTVSPropertyOp8
 70
     1
102
RTVSPropertyOp9
 70
     1
102
RTVSPropertyOp10
 70
     1
102
RTVSPropertyOp11
 70
     1
102
RTVSPropertyOp12
 70
     1
102
RTVSPropertyOp13
 70
     1
102
RTVSPropertyOp14
 70
     1
102
RTVSPropertyOp15
 70
     1
102
RTVSPropertyOp16
 70
     1
102
RTVSPropertyOp17
 70
     1
102
RTVSPropertyOp18
 70
     1
102
RTVSPropertyOp19
 70
     1
102
RTVSPropertyOp20
 70
     1
102
RTVSPropertyOp21
 70
     1
102
RTVSPropertyOp22
 70
     1
102
RTVSPropertyOp23
 70
     1
102
RTVSPropertyOp24
 70
     1
102
RTVSPropertyOp25
 70
     1
102
RTVSPropertyOp26
 70
     1
102
RTVSPropertyOp27
 70
     1
102
RTVSPropertyOp28
 70
     1
102
RTVSPropertyOp29
 70
     1
102
RTVSPropertyOp30
 70
     1
102
RTVSPropertyOp31
 70
     1
102
RTVSPropertyOp32
 70
     1
  0
XRECORD
  5
8E
102
{ACAD_REACTORS
330
8D
102
}
330
8D
100
AcDbXrecord
280
     1
102
RTVSPropertyOp0
 70
     1
102
RTVSPropertyOp1
 70
     1
102
RTVSPropertyOp2
 70
     1
102
RTVSPropertyOp3
 70
     1
102
RTVSPropertyOp4
 70
     1
102
RTVSPropertyOp5
 70
     1
102
RTVSPropertyOp6
 70
     1
102
RTVSPropertyOp7
 70
     1
102
RTVSPropertyOp8
 70
     1
102
RTVSPropertyOp9
 70
     1
102
RTVSPropertyOp10
 70
     1
102
RTVSPropertyOp11
 70
     1
102
RTVSPropertyOp12
 70
     1
102
RTVSPropertyOp13
 70
     1
102
RTVSPropertyOp14
 70
     1
102
RTVSPropertyOp15
 70
     1
102
RTVSPropertyOp16
 70
     1
102
RTVSPropertyOp17
 70
     1
102
RTVSPropertyOp18
 70
     1
102
RTVSPropertyOp19
 70
     1
102
RTVSPropertyOp20
 70
     1
102
RTVSPropertyOp21
 70
     1
102
RTVSPropertyOp22
 70
     1
102
RTVSPropertyOp23
 70
     1
102
RTVSPropertyOp24
 70
     1
102
RTVSPropertyOp25
 70
     1
102
RTVSPropertyOp26
 70
     1
102
RTVSPropertyOp27
 70
     1
102
RTVSPropertyOp28
 70
     1
102
RTVSPropertyOp29
 70
     1
102
RTVSPropertyOp30
 70
     1
102
RTVSPropertyOp31
 70
     1
102
RTVSPropertyOp32
 70
     1
  0
XRECORD
  5
90
102
{ACAD_REACTORS
330
8F
102
}
330
8F
100
AcDbXrecord
280
     1
102
RTVSPropertyOp0
 70
     1
102
RTVSPropertyOp1
 70
     1
102
RTVSPropertyOp2
 70
     1
102
RTVSPropertyOp3
 70
     1
102
RTVSPropertyOp4
 70
     1
102
RTVSPropertyOp5
 70
     1
102
RTVSPropertyOp6
 70
     1
102
RTVSPropertyOp7
 70
     1
102
RTVSPropertyOp8
 70
     1
102
RTVSPropertyOp9
 70
     1
102
RTVSPropertyOp10
 70
     1
102
RTVSPropertyOp11
 70
     1
102
RTVSPropertyOp12
 70
     1
102
RTVSPropertyOp13
 70
     1
102
RTVSPropertyOp14
 70
     1
102
RTVSPropertyOp15
 70
     1
102
RTVSPropertyOp16
 70
     1
102
RTVSPropertyOp17
 70
     1
102
RTVSPropertyOp18
 70
     1
102
RTVSPropertyOp19
 70
     1
102
RTVSPropertyOp20
 70
     1
102
RTVSPropertyOp21
 70
     1
102
RTVSPropertyOp22
 70
     1
102
RTVSPropertyOp23
 70
     1
102
RTVSPropertyOp24
 70
     1
102
RTVSPropertyOp25
 70
     1
102
RTVSPropertyOp26
 70
     1
102
RTVSPropertyOp27
 70
     1
102
RTVSPropertyOp28
 70
     1
102
RTVSPropertyOp29
 70
     1
102
RTVSPropertyOp30
 70
     1
102
RTVSPropertyOp31
 70
     1
102
RTVSPropertyOp32
 70
     1
  0
XRECORD
  5
92
102
{ACAD_REACTORS
330
91
102
}
330
91
100
AcDbXrecord
280
     1
102
RTVSPropertyOp0
 70
     1
102
RTVSPropertyOp1
 70
     1
102
RTVSPropertyOp2
 70
     1
102
RTVSPropertyOp3
 70
     1
102
RTVSPropertyOp4
 70
     1
102
RTVSPropertyOp5
 70
     1
102
RTVSPropertyOp6
 70
     1
102
RTVSPropertyOp7
 70
     1
102
RTVSPropertyOp8
 70
     1
102
RTVSPropertyOp9
 70
     1
102
RTVSPropertyOp10
 70
     1
102
RTVSPropertyOp11
 70
     1
102
RTVSPropertyOp12
 70
     1
102
RTVSPropertyOp13
 70
     1
102
RTVSPropertyOp14
 70
     1
102
RTVSPropertyOp15
 70
     1
102
RTVSPropertyOp16
 70
     1
102
RTVSPropertyOp17
 70
     1
102
RTVSPropertyOp18
 70
     1
102
RTVSPropertyOp19
 70
     1
102
RTVSPropertyOp20
 70
     1
102
RTVSPropertyOp21
 70
     1
102
RTVSPropertyOp22
 70
     1
102
RTVSPropertyOp23
 70
     1
102
RTVSPropertyOp24
 70
     1
102
RTVSPropertyOp25
 70
     1
102
RTVSPropertyOp26
 70
     1
102
RTVSPropertyOp27
 70
     1
102
RTVSPropertyOp28
 70
     1
102
RTVSPropertyOp29
 70
     1
102
RTVSPropertyOp30
 70
     1
102
RTVSPropertyOp31
 70
     1
102
RTVSPropertyOp32
 70
     1
  0
XRECORD
  5
A6
102
{ACAD_REACTORS
330
A5
102
}
330
A5
100
AcDbXrecord
280
     1
102
RTVSPropertyOp0
 70
     1
102
RTVSPropertyOp1
 70
     1
102
RTVSPropertyOp2
 70
     1
102
RTVSPropertyOp3
 70
     1
102
RTVSPropertyOp4
 70
     1
102
RTVSPropertyOp5
 70
     1
102
RTVSPropertyOp6
 70
     1
102
RTVSPropertyOp7
 70
     1
102
RTVSPropertyOp8
 70
     1
102
RTVSPropertyOp9
 70
     1
102
RTVSPropertyOp10
 70
     1
102
RTVSPropertyOp11
 70
     1
102
RTVSPropertyOp12
 70
     1
102
RTVSPropertyOp13
 70
     1
102
RTVSPropertyOp14
 70
     1
102
RTVSPropertyOp15
 70
     1
102
RTVSPropertyOp16
 70
     1
102
RTVSPropertyOp17
 70
     1
102
RTVSPropertyOp18
 70
     1
102
RTVSPropertyOp19
 70
     1
102
RTVSPropertyOp20
 70
     1
102
RTVSPropertyOp21
 70
     1
102
RTVSPropertyOp22
 70
     1
102
RTVSPropertyOp23
 70
     1
102
RTVSPropertyOp24
 70
     1
102
RTVSPropertyOp25
 70
     1
102
RTVSPropertyOp26
 70
     1
102
RTVSPropertyOp27
 70
     1
102
RTVSPropertyOp28
 70
     1
102
RTVSPropertyOp29
 70
     1
102
RTVSPropertyOp30
 70
     1
102
RTVSPropertyOp31
 70
     1
102
RTVSPropertyOp32
 70
     1
  0
XRECORD
  5
9C
102
{ACAD_REACTORS
330
9B
102
}
330
9B
100
AcDbXrecord
280
     1
102
RTVSPropertyOp0
 70
     1
102
RTVSPropertyOp1
 70
     1
102
RTVSPropertyOp2
 70
     1
102
RTVSPropertyOp3
 70
     1
102
RTVSPropertyOp4
 70
     1
102
RTVSPropertyOp5
 70
     1
102
RTVSPropertyOp6
 70
     1
102
RTVSPropertyOp7
 70
     1
102
RTVSPropertyOp8
 70
     1
102
RTVSPropertyOp9
 70
     1
102
RTVSPropertyOp10
 70
     1
102
RTVSPropertyOp11
 70
     1
102
RTVSPropertyOp12
 70
     1
102
RTVSPropertyOp13
 70
     1
102
RTVSPropertyOp14
 70
     1
102
RTVSPropertyOp15
 70
     1
102
RTVSPropertyOp16
 70
     1
102
RTVSPropertyOp17
 70
     1
102
RTVSPropertyOp18
 70
     1
102
RTVSPropertyOp19
 70
     1
102
RTVSPropertyOp20
 70
     1
102
RTVSPropertyOp21
 70
     1
102
RTVSPropertyOp22
 70
     1
102
RTVSPropertyOp23
 70
     1
102
RTVSPropertyOp24
 70
     1
102
RTVSPropertyOp25
 70
     1
102
RTVSPropertyOp26
 70
     1
102
RTVSPropertyOp27
 70
     1
102
RTVSPropertyOp28
 70
     1
102
RTVSPropertyOp29
 70
     1
102
RTVSPropertyOp30
 70
     1
102
RTVSPropertyOp31
 70
     1
102
RTVSPropertyOp32
 70
     1
  0
XRECORD
  5
A4
102
{ACAD_REACTORS
330
A3
102
}
330
A3
100
AcDbXrecord
280
     1
102
RTVSPropertyOp0
 70
     1
102
RTVSPropertyOp1
 70
     1
102
RTVSPropertyOp2
 70
     1
102
RTVSPropertyOp3
 70
     1
102
RTVSPropertyOp4
 70
     1
102
RTVSPropertyOp5
 70
     1
102
RTVSPropertyOp6
 70
     1
102
RTVSPropertyOp7
 70
     1
102
RTVSPropertyOp8
 70
     1
102
RTVSPropertyOp9
 70
     1
102
RTVSPropertyOp10
 70
     1
102
RTVSPropertyOp11
 70
     1
102
RTVSPropertyOp12
 70
     1
102
RTVSPropertyOp13
 70
     1
102
RTVSPropertyOp14
 70
     1
102
RTVSPropertyOp15
 70
     1
102
RTVSPropertyOp16
 70
     1
102
RTVSPropertyOp17
 70
     1
102
RTVSPropertyOp18
 70
     1
102
RTVSPropertyOp19
 70
     1
102
RTVSPropertyOp20
 70
     1
102
RTVSPropertyOp21
 70
     1
102
RTVSPropertyOp22
 70
     1
102
RTVSPropertyOp23
 70
     1
102
RTVSPropertyOp24
 70
     1
102
RTVSPropertyOp25
 70
     1
102
RTVSPropertyOp26
 70
     1
102
RTVSPropertyOp27
 70
     1
102
RTVSPropertyOp28
 70
     1
102
RTVSPropertyOp29
 70
     1
102
RTVSPropertyOp30
 70
     1
102
RTVSPropertyOp31
 70
     1
102
RTVSPropertyOp32
 70
     1
  0
ENDSEC
  0
EOF
