  0
SECTION
  2
HEADER
  9
$ACADVER
  1
AC1021
  9
$ACADMAINTVER
 70
    25
  9
$DWGCODEPAGE
  3
ANSI_1252
  9
$INSBASE
 10
0.0
 20
0.0
 30
0.0
  9
$EXTMIN
 10
-187.2518
 20
-101.1544
 30
0.0
  9
$EXTMAX
 10
32.2461
 20
118.3435
 30
0.0
  9
$LIMMIN
 10
0.0
 20
0.0
  9
$LIMMAX
 10
12.0
 20
9.0
  9
$ORTHOMODE
 70
     0
  9
$REGENMODE
 70
     1
  9
$FILLMODE
 70
     1
  9
$QTEXTMODE
 70
     0
  9
$MIRRTEXT
 70
     1
  9
$LTSCALE
 40
1.0
  9
$ATTMODE
 70
     1
  9
$TEXTSIZE
 40
0.2
  9
$TRACEWID
 40
0.05
  9
$TEXTSTYLE
  7
Standard
  9
$CLAYER
  8
0
  9
$CELTYPE
  6
ByLayer
  9
$CECOLOR
 62
   256
  9
$CELTSCALE
 40
1.0
  9
$DISPSILH
 70
     0
  9
$DIMSCALE
 40
1.0
  9
$DIMASZ
 40
0.18
  9
$DIMEXO
 40
0.0625
  9
$DIMDLI
 40
0.38
  9
$DIMRND
 40
0.0
  9
$DIMDLE
 40
0.0
  9
$DIMEXE
 40
0.18
  9
$DIMTP
 40
0.0
  9
$DIMTM
 40
0.0
  9
$DIMTXT
 40
0.18
  9
$DIMCEN
 40
0.09
  9
$DIMTSZ
 40
0.0
  9
$DIMTOL
 70
     0
  9
$DIMLIM
 70
     0
  9
$DIMTIH
 70
     1
  9
$DIMTOH
 70
     1
  9
$DIMSE1
 70
     0
  9
$DIMSE2
 70
     0
  9
$DIMTAD
 70
     0
  9
$DIMZIN
 70
     0
  9
$DIMBLK
  1

  9
$DIMASO
 70
     1
  9
$DIMSHO
 70
     1
  9
$DIMPOST
  1

  9
$DIMAPOST
  1

  9
$DIMALT
 70
     0
  9
$DIMALTD
 70
     2
  9
$DIMALTF
 40
25.4
  9
$DIMLFAC
 40
1.0
  9
$DIMTOFL
 70
     0
  9
$DIMTVP
 40
0.0
  9
$DIMTIX
 70
     0
  9
$DIMSOXD
 70
     0
  9
$DIMSAH
 70
     0
  9
$DIMBLK1
  1

  9
$DIMBLK2
  1

  9
$DIMSTYLE
  2
Standard
  9
$DIMCLRD
 70
     0
  9
$DIMCLRE
 70
     0
  9
$DIMCLRT
 70
     0
  9
$DIMTFAC
 40
1.0
  9
$DIMGAP
 40
0.09
  9
$DIMJUST
 70
     0
  9
$DIMSD1
 70
     0
  9
$DIMSD2
 70
     0
  9
$DIMTOLJ
 70
     1
  9
$DIMTZIN
 70
     0
  9
$DIMALTZ
 70
     0
  9
$DIMALTTZ
 70
     0
  9
$DIMUPT
 70
     0
  9
$DIMDEC
 70
     4
  9
$DIMTDEC
 70
     4
  9
$DIMALTU
 70
     2
  9
$DIMALTTD
 70
     2
  9
$DIMTXSTY
  7
Standard
  9
$DIMAUNIT
 70
     0
  9
$DIMADEC
 70
     0
  9
$DIMALTRND
 40
0.0
  9
$DIMAZIN
 70
     0
  9
$DIMDSEP
 70
    46
  9
$DIMATFIT
 70
     3
  9
$DIMFRAC
 70
     0
  9
$DIMLDRBLK
  1

  9
$DIMLUNIT
 70
     2
  9
$DIMLWD
 70
    -2
  9
$DIMLWE
 70
    -2
  9
$DIMTMOVE
 70
     0
  9
$DIMFXL
 40
1.0
  9
$DIMFXLON
 70
     0
  9
$DIMJOGANG
 40
0.7853981633974483
  9
$DIMTFILL
 70
     0
  9
$DIMTFILLCLR
 70
     0
  9
$DIMARCSYM
 70
     0
  9
$DIMLTYPE
  6

  9
$DIMLTEX1
  6

  9
$DIMLTEX2
  6

  9
$LUNITS
 70
     2
  9
$LUPREC
 70
     4
  9
$SKETCHINC
 40
0.1
  9
$FILLETRAD
 40
0.5
  9
$AUNITS
 70
     0
  9
$AUPREC
 70
     0
  9
$MENU
  1
.
  9
$ELEVATION
 40
0.0
  9
$PELEVATION
 40
0.0
  9
$THICKNESS
 40
0.0
  9
$LIMCHECK
 70
     0
  9
$CHAMFERA
 40
0.5
  9
$CHAMFERB
 40
0.5
  9
$CHAMFERC
 40
1.0
  9
$CHAMFERD
 40
0.0
  9
$SKPOLY
 70
     0
  9
$TDCREATE
 40
2458492.684934502
  9
$TDUCREATE
 40
2458492.684934502
  9
$TDUPDATE
 40
2458492.684934803
  9
$TDUUPDATE
 40
2458492.684934803
  9
$TDINDWG
 40
0.0000000116
  9
$TDUSRTIMER
 40
0.0000000116
  9
$USRTIMER
 70
     1
  9
$ANGBASE
 50
0.0
  9
$ANGDIR
 70
     0
  9
$PDMODE
 70
     0
  9
$PDSIZE
 40
0.0
  9
$PLINEWID
 40
0.0
  9
$SPLFRAME
 70
     0
  9
$SPLINETYPE
 70
     6
  9
$SPLINESEGS
 70
     8
  9
$HANDSEED
  5
90
  9
$SURFTAB1
 70
     6
  9
$SURFTAB2
 70
     6
  9
$SURFTYPE
 70
     6
  9
$SURFU
 70
     6
  9
$SURFV
 70
     6
  9
$UCSBASE
  2

  9
$UCSNAME
  2

  9
$UCSORG
 10
0.0
 20
0.0
 30
0.0
  9
$UCSXDIR
 10
1.0
 20
0.0
 30
0.0
  9
$UCSYDIR
 10
0.0
 20
1.0
 30
0.0
  9
$UCSORTHOREF
  2

  9
$UCSORTHOVIEW
 70
     0
  9
$UCSORGTOP
 10
0.0
 20
0.0
 30
0.0
  9
$UCSORGBOTTOM
 10
0.0
 20
0.0
 30
0.0
  9
$UCSORGLEFT
 10
0.0
 20
0.0
 30
0.0
  9
$UCSORGRIGHT
 10
0.0
 20
0.0
 30
0.0
  9
$UCSORGFRONT
 10
0.0
 20
0.0
 30
0.0
  9
$UCSORGBACK
 10
0.0
 20
0.0
 30
0.0
  9
$PUCSBASE
  2

  9
$PUCSNAME
  2

  9
$PUCSORG
 10
0.0
 20
0.0
 30
0.0
  9
$PUCSXDIR
 10
1.0
 20
0.0
 30
0.0
  9
$PUCSYDIR
 10
0.0
 20
1.0
 30
0.0
  9
$PUCSORTHOREF
  2

  9
$PUCSORTHOVIEW
 70
     0
  9
$PUCSORGTOP
 10
0.0
 20
0.0
 30
0.0
  9
$PUCSORGBOTTOM
 10
0.0
 20
0.0
 30
0.0
  9
$PUCSORGLEFT
 10
0.0
 20
0.0
 30
0.0
  9
$PUCSORGRIGHT
 10
0.0
 20
0.0
 30
0.0
  9
$PUCSORGFRONT
 10
0.0
 20
0.0
 30
0.0
  9
$PUCSORGBACK
 10
0.0
 20
0.0
 30
0.0
  9
$USERI1
 70
     0
  9
$USERI2
 70
     0
  9
$USERI3
 70
     0
  9
$USERI4
 70
     0
  9
$USERI5
 70
     0
  9
$USERR1
 40
0.0
  9
$USERR2
 40
0.0
  9
$USERR3
 40
0.0
  9
$USERR4
 40
0.0
  9
$USERR5
 40
0.0
  9
$WORLDVIEW
 70
     1
  9
$SHADEDGE
 70
     3
  9
$SHADEDIF
 70
    70
  9
$TILEMODE
 70
     1
  9
$MAXACTVP
 70
    64
  9
$PINSBASE
 10
0.0
 20
0.0
 30
0.0
  9
$PLIMCHECK
 70
     0
  9
$PEXTMIN
 10
1.000000000000000E+20
 20
1.000000000000000E+20
 30
1.000000000000000E+20
  9
$PEXTMAX
 10
-1.000000000000000E+20
 20
-1.000000000000000E+20
 30
-1.000000000000000E+20
  9
$PLIMMIN
 10
0.0
 20
0.0
  9
$PLIMMAX
 10
12.0
 20
9.0
  9
$UNITMODE
 70
     0
  9
$VISRETAIN
 70
     1
  9
$PLINEGEN
 70
     0
  9
$PSLTSCALE
 70
     1
  9
$TREEDEPTH
 70
  3020
  9
$CMLSTYLE
  2
Standard
  9
$CMLJUST
 70
     0
  9
$CMLSCALE
 40
1.0
  9
$PROXYGRAPHICS
 70
     1
  9
$MEASUREMENT
 70
     0
  9
$CELWEIGHT
370
    -1
  9
$ENDCAPS
280
     0
  9
$JOINSTYLE
280
     0
  9
$LWDISPLAY
290
     0
  9
$INSUNITS
 70
     4
  9
$HYPERLINKBASE
  1

  9
$STYLESHEET
  1

  9
$XEDIT
290
     1
  9
$CEPSNTYPE
380
     0
  9
$PSTYLEMODE
290
     1
  9
$FINGERPRINTGUID
  2
{D382D52D-EBB5-42C2-9A83-F84A2C53F88A}
  9
$VERSIONGUID
  2
{FAEB1C32-E019-11D5-929B-00C0DF256EC4}
  9
$EXTNAMES
290
     1
  9
$PSVPSCALE
 40
0.0
  9
$OLESTARTUP
290
     0
  9
$SORTENTS
280
   127
  9
$INDEXCTL
280
     0
  9
$HIDETEXT
280
     1
  9
$XCLIPFRAME
290
     0
  9
$HALOGAP
280
     0
  9
$OBSCOLOR
 70
   257
  9
$OBSLTYPE
280
     0
  9
$INTERSECTIONDISPLAY
280
     0
  9
$INTERSECTIONCOLOR
 70
   257
  9
$DIMASSOC
280
     2
  9
$PROJECTNAME
  1

  9
$CAMERADISPLAY
290
     0
  9
$LENSLENGTH
 40
50.0
  9
$CAMERAHEIGHT
 40
0.0
  9
$STEPSPERSEC
 40
2.0
  9
$STEPSIZE
 40
6.0
  9
$3DDWFPREC
 40
2.0
  9
$PSOLWIDTH
 40
0.25
  9
$PSOLHEIGHT
 40
4.0
  9
$LOFTANG1
 40
1.570796326794897
  9
$LOFTANG2
 40
1.570796326794897
  9
$LOFTMAG1
 40
0.0
  9
$LOFTMAG2
 40
0.0
  9
$LOFTPARAM
 70
     7
  9
$LOFTNORMALS
280
     1
  9
$LATITUDE
 40
37.795
  9
$LONGITUDE
 40
-122.394
  9
$NORTHDIRECTION
 40
0.0
  9
$TIMEZONE
 70
 -8000
  9
$LIGHTGLYPHDISPLAY
280
     1
  9
$TILEMODELIGHTSYNCH
280
     1
  9
$SOLIDHIST
280
     1
  9
$SHOWHIST
280
     1
  9
$DWFFRAME
280
     2
  9
$DGNFRAME
280
     2
  9
$REALWORLDSCALE
290
     1
  9
$INTERFERECOLOR
 62
   256
  9
$CSHADOW
280
     0
  9
$SHADOWPLANELOCATION
 40
0.0
  0
ENDSEC
  0
SECTION
  2
CLASSES
  0
CLASS
  1
ACDBDICTIONARYWDFLT
  2
AcDbDictionaryWithDefault
  3
ObjectDBX Classes
 90
        0
 91
        4
280
     0
281
     0
  0
CLASS
  1
VISUALSTYLE
  2
AcDbVisualStyle
  3
ObjectDBX Classes
 90
     4095
 91
        4
280
     0
281
     0
  0
CLASS
  1
MATERIAL
  2
AcDbMaterial
  3
ObjectDBX Classes
 90
     1153
 91
        4
280
     0
281
     0
  0
ENDSEC
  0
SECTION
  2
TABLES
  0
TABLE
  2
VPORT
  5
8
330
0
100
AcDbSymbolTable
 70
     1
  0
VPORT
  5
29
330
8
100
AcDbSymbolTableRecord
100
AcDbViewportTableRecord
  2
*Active
 70
     0
 10
0.0
 20
0.0
 11
1.0
 21
1.0
 12
10.42990654205607
 22
4.5
 13
0.0
 23
0.0
 14
0.5
 24
0.5
 15
0.5
 25
0.5
 16
0.0
 26
0.0
 36
1.0
 17
0.0
 27
0.0
 37
0.0
 40
9.0
 41
1.972972972850329
 42
50.0
 43
0.0
 44
0.0
 50
0.0
 51
0.0
 71
     0
 72
   100
 73
     1
 74
     3
 75
     0
 76
     0
 77
     0
 78
     0
281
     0
 65
     1
110
0.0
120
0.0
130
0.0
111
1.0
121
0.0
131
0.0
112
0.0
122
1.0
132
0.0
 79
     0
146
0.0
 60
     3
 61
     5
292
     1
282
     1
141
0.0
142
0.0
 63
   250
  0
ENDTAB
  0
TABLE
  2
LTYPE
  5
5
330
0
100
AcDbSymbolTable
 70
     1
  0
LTYPE
  5
14
330
5
100
AcDbSymbolTableRecord
100
AcDbLinetypeTableRecord
  2
ByBlock
 70
     0
  3

 72
    65
 73
     0
 40
0.0
  0
LTYPE
  5
15
330
5
100
AcDbSymbolTableRecord
100
AcDbLinetypeTableRecord
  2
ByLayer
 70
     0
  3

 72
    65
 73
     0
 40
0.0
  0
LTYPE
  5
16
330
5
100
AcDbSymbolTableRecord
100
AcDbLinetypeTableRecord
  2
Continuous
 70
     0
  3
Solid line
 72
    65
 73
     0
 40
0.0
  0
ENDTAB
  0
TABLE
  2
LAYER
  5
2
330
0
100
AcDbSymbolTable
 70
     2
  0
LAYER
  5
10
330
2
100
AcDbSymbolTableRecord
100
AcDbLayerTableRecord
  2
0
 70
     0
 62
     7
  6
Continuous
370
    -3
390
F
347
3E
  0
LAYER
  5
40
330
2
100
AcDbSymbolTableRecord
100
AcDbLayerTableRecord
  2
layer 1
 70
     0
 62
     7
  6
Continuous
370
    -3
390
F
347
3E
  0
ENDTAB
  0
TABLE
  2
STYLE
  5
3
330
0
100
AcDbSymbolTable
 70
     1
  0
STYLE
  5
11
330
3
100
AcDbSymbolTableRecord
100
AcDbTextStyleTableRecord
  2
Standard
 70
     0
 40
0.0
 41
1.0
 50
0.0
 71
     0
 42
0.2
  3
txt
  4

  0
ENDTAB
  0
TABLE
  2
VIEW
  5
6
330
0
100
AcDbSymbolTable
 70
     0
  0
ENDTAB
  0
TABLE
  2
UCS
  5
7
330
0
100
AcDbSymbolTable
 70
     0
  0
ENDTAB
  0
TABLE
  2
APPID
  5
9
330
0
100
AcDbSymbolTable
 70
     2
  0
APPID
  5
12
330
9
100
AcDbSymbolTableRecord
100
AcDbRegAppTableRecord
  2
ACAD
 70
     0
  0
APPID
  5
3F
330
9
100
AcDbSymbolTableRecord
100
AcDbRegAppTableRecord
  2
ODA
 70
     0
  0
ENDTAB
  0
TABLE
  2
DIMSTYLE
  5
A
330
0
100
AcDbSymbolTable
 70
     1
100
AcDbDimStyleTable
  0
DIMSTYLE
105
27
330
A
100
AcDbSymbolTableRecord
100
AcDbDimStyleTableRecord
  2
Standard
 70
     0
178
     0
340
11
  0
ENDTAB
  0
TABLE
  2
BLOCK_RECORD
  5
1
330
0
100
AcDbSymbolTable
 70
     1
  0
BLOCK_RECORD
  5
1F
330
1
100
AcDbSymbolTableRecord
100
AcDbBlockTableRecord
  2
*Model_Space
340
22
 70
     0
280
     1
281
     0
  0
BLOCK_RECORD
  5
1B
330
1
100
AcDbSymbolTableRecord
100
AcDbBlockTableRecord
  2
*Paper_Space
340
1E
 70
     0
280
     1
281
     0
  0
BLOCK_RECORD
  5
23
330
1
100
AcDbSymbolTableRecord
100
AcDbBlockTableRecord
  2
*Paper_Space0
340
26
 70
     0
280
     1
281
     0
  0
ENDTAB
  0
ENDSEC
  0
SECTION
  2
BLOCKS
  0
BLOCK
  5
20
330
1F
100
AcDbEntity
  8
0
100
AcDbBlockBegin
  2
*Model_Space
 70
     0
 10
0.0
 20
0.0
 30
0.0
  3
*Model_Space
  1

  0
ENDBLK
  5
21
330
1F
100
AcDbEntity
  8
0
100
AcDbBlockEnd
  0
BLOCK
  5
1C
330
1B
100
AcDbEntity
 67
     1
  8
0
100
AcDbBlockBegin
  2
*Paper_Space
 70
     0
 10
0.0
 20
0.0
 30
0.0
  3
*Paper_Space
  1

  0
ENDBLK
  5
1D
330
1B
100
AcDbEntity
 67
     1
  8
0
100
AcDbBlockEnd
  0
BLOCK
  5
24
330
23
100
AcDbEntity
  8
0
100
AcDbBlockBegin
  2
*Paper_Space0
 70
     0
 10
0.0
 20
0.0
 30
0.0
  3
*Paper_Space0
  1

  0
ENDBLK
  5
25
330
23
100
AcDbEntity
  8
0
100
AcDbBlockEnd
  0
ENDSEC
  0
SECTION
  2
ENTITIES
  0
SPLINE
  5
41
330
1F
100
AcDbEntity
  8
layer 1
 62
   250
370
     9
100
AcDbSpline
210
0.0
220
0.0
230
1.0
 70
    11
 71
     3
 72
    24
 73
    20
 74
     0
 42
0.0000000001
 43
0.0000000001
 12
1.0
 22
0.0
 32
0.0
 13
1.0
 23
0.0
 33
0.0
 40
0.0
 40
0.0
 40
0.0
 40
0.0
 40
0.1666666666666667
 40
0.1666666666666667
 40
0.1666666666666667
 40
0.1666666666666667
 40
0.3333333333333333
 40
0.3333333333333333
 40
0.3333333333333333
 40
0.3333333333333333
 40
0.5
 40
0.5
 40
0.5
 40
0.5
 40
0.6666666666666666
 40
0.6666666666666666
 40
0.6666666666666666
 40
0.6666666666666666
 40
1.0
 40
1.0
 40
1.0
 40
1.0
 10
-77.5027
 20
118.3054
 30
0.0
 10
-77.5027
 20
118.3054
 30
0.0
 10
-187.2137
 20
118.3054
 30
0.0
 10
-187.2137
 20
118.3054
 30
0.0
 10
-187.2137
 20
118.3054
 30
0.0
 10
-187.2137
 20
118.3054
 30
0.0
 10
-187.2137
 20
-101.1163
 30
0.0
 10
-187.2137
 20
-101.1163
 30
0.0
 10
-187.2137
 20
-101.1163
 30
0.0
 10
-187.2137
 20
-101.1163
 30
0.0
 10
32.208
 20
-101.1163
 30
0.0
 10
32.208
 20
-101.1163
 30
0.0
 10
32.208
 20
-101.1163
 30
0.0
 10
32.208
 20
-101.1163
 30
0.0
 10
32.208
 20
118.3054
 30
0.0
 10
32.208
 20
118.3054
 30
0.0
 10
32.208
 20
118.3054
 30
0.0
 10
32.208
 20
118.3054
 30
0.0
 10
-77.5027
 20
118.3054
 30
0.0
 10
-77.5027
 20
118.3054
 30
0.0
  0
SPLINE
  5
42
330
1F
100
AcDbEntity
  8
layer 1
 62
     7
370
     9
100
AcDbSpline
210
0.0
220
0.0
230
1.0
 70
    11
 71
     3
 72
    68
 73
    64
 74
     0
 42
0.0000000001
 43
0.0000000001
 12
1.0
 22
0.0
 32
0.0
 13
1.0
 23
0.0
 33
0.0
 40
0.0
 40
0.0
 40
0.0
 40
0.0
 40
0.0588235294117647
 40
0.0588235294117647
 40
0.0588235294117647
 40
0.0588235294117647
 40
0.1176470588235294
 40
0.1176470588235294
 40
0.1176470588235294
 40
0.1176470588235294
 40
0.1764705882352941
 40
0.1764705882352941
 40
0.1764705882352941
 40
0.1764705882352941
 40
0.2352941176470588
 40
0.2352941176470588
 40
0.2352941176470588
 40
0.2352941176470588
 40
0.2941176470588235
 40
0.2941176470588235
 40
0.2941176470588235
 40
0.2941176470588235
 40
0.3529411764705883
 40
0.3529411764705883
 40
0.3529411764705883
 40
0.3529411764705883
 40
0.4117647058823529
 40
0.4117647058823529
 40
0.4117647058823529
 40
0.4117647058823529
 40
0.4705882352941176
 40
0.4705882352941176
 40
0.4705882352941176
 40
0.4705882352941176
 40
0.5294117647058824
 40
0.5294117647058824
 40
0.5294117647058824
 40
0.5294117647058824
 40
0.5882352941176471
 40
0.5882352941176471
 40
0.5882352941176471
 40
0.5882352941176471
 40
0.6470588235294118
 40
0.6470588235294118
 40
0.6470588235294118
 40
0.6470588235294118
 40
0.7058823529411765
 40
0.7058823529411765
 40
0.7058823529411765
 40
0.7058823529411765
 40
0.7647058823529411
 40
0.7647058823529411
 40
0.7647058823529411
 40
0.7647058823529411
 40
0.8235294117647058
 40
0.8235294117647058
 40
0.8235294117647058
 40
0.8235294117647058
 40
0.8823529411764706
 40
0.8823529411764706
 40
0.8823529411764706
 40
0.8823529411764706
 40
1.0
 40
1.0
 40
1.0
 40
1.0
 10
-77.5027
 20
31.606
 30
0.0
 10
-82.3774
 20
27.015
 30
0.0
 10
-88.2616
 20
25.4871
 30
0.0
 10
-93.8822
 20
27.3522
 30
0.0
 10
-93.8822
 20
27.3522
 30
0.0
 10
-92.5044
 20
24.285
 30
0.0
 10
-90.4241
 20
22.0828
 30
0.0
 10
-88.0353
 20
21.1641
 30
0.0
 10
-88.0353
 20
21.1641
 30
0.0
 10
-87.2259
 20
20.8061
 30
0.0
 10
-86.3718
 20
20.7399
 30
0.0
 10
-85.5418
 20
20.9708
 30
0.0
 10
-85.5418
 20
20.9708
 30
0.0
 10
-85.1999
 20
21.2718
 30
0.0
 10
-84.9673
 20
21.7889
 30
0.0
 10
-84.9089
 20
22.3773
 30
0.0
 10
-84.9089
 20
22.3773
 30
0.0
 10
-84.8505
 20
22.9661
 30
0.0
 10
-84.9725
 20
23.5621
 30
0.0
 10
-85.2411
 20
24.0004
 30
0.0
 10
-85.2411
 20
24.0004
 30
0.0
 10
-83.9704
 20
24.2836
 30
0.0
 10
-82.703
 20
23.4583
 30
0.0
 10
-81.9738
 20
21.8728
 30
0.0
 10
-81.9738
 20
21.8728
 30
0.0
 10
-81.694
 20
20.1654
 30
0.0
 10
-82.3849
 20
18.4391
 30
0.0
 10
-83.5214
 20
18.0054
 30
0.0
 10
-83.5214
 20
18.0054
 30
0.0
 10
-80.875
 20
16.9021
 30
0.0
 10
-78.6792
 20
14.1299
 30
0.0
 10
-77.5027
 20
10.4085
 30
0.0
 10
-77.5027
 20
10.4085
 30
0.0
 10
-76.3265
 20
14.1299
 30
0.0
 10
-74.1304
 20
16.9021
 30
0.0
 10
-71.484
 20
18.0054
 30
0.0
 10
-71.484
 20
18.0054
 30
0.0
 10
-72.6206
 20
18.4391
 30
0.0
 10
-73.3115
 20
20.1654
 30
0.0
 10
-73.0319
 20
21.8728
 30
0.0
 10
-73.0319
 20
21.8728
 30
0.0
 10
-72.3025
 20
23.4583
 30
0.0
 10
-71.035
 20
24.2836
 30
0.0
 10
-69.7647
 20
24.0004
 30
0.0
 10
-69.7647
 20
24.0004
 30
0.0
 10
-70.033
 20
23.5621
 30
0.0
 10
-70.1553
 20
22.9661
 30
0.0
 10
-70.0969
 20
22.3773
 30
0.0
 10
-70.0969
 20
22.3773
 30
0.0
 10
-70.0384
 20
21.7889
 30
0.0
 10
-69.8056
 20
21.2718
 30
0.0
 10
-69.4636
 20
20.9708
 30
0.0
 10
-69.4636
 20
20.9708
 30
0.0
 10
-68.634
 20
20.7399
 30
0.0
 10
-67.7795
 20
20.8061
 30
0.0
 10
-66.9704
 20
21.1641
 30
0.0
 10
-66.9704
 20
21.1641
 30
0.0
 10
-64.5817
 20
22.0828
 30
0.0
 10
-62.5011
 20
24.285
 30
0.0
 10
-61.1236
 20
27.3522
 30
0.0
 10
-61.1236
 20
27.3522
 30
0.0
 10
-66.7441
 20
25.4871
 30
0.0
 10
-72.6283
 20
27.015
 30
0.0
 10
-77.5027
 20
31.606
 30
0.0
  0
SPLINE
  5
43
330
1F
100
AcDbEntity
  8
layer 1
 62
     7
370
     9
100
AcDbSpline
210
0.0
220
0.0
230
1.0
 70
    11
 71
     3
 72
    68
 73
    64
 74
     0
 42
0.0000000001
 43
0.0000000001
 12
1.0
 22
0.0
 32
0.0
 13
1.0
 23
0.0
 33
0.0
 40
0.0
 40
0.0
 40
0.0
 40
0.0
 40
0.0588235294117647
 40
0.0588235294117647
 40
0.0588235294117647
 40
0.0588235294117647
 40
0.1176470588235294
 40
0.1176470588235294
 40
0.1176470588235294
 40
0.1176470588235294
 40
0.1764705882352941
 40
0.1764705882352941
 40
0.1764705882352941
 40
0.1764705882352941
 40
0.2352941176470588
 40
0.2352941176470588
 40
0.2352941176470588
 40
0.2352941176470588
 40
0.2941176470588235
 40
0.2941176470588235
 40
0.2941176470588235
 40
0.2941176470588235
 40
0.3529411764705883
 40
0.3529411764705883
 40
0.3529411764705883
 40
0.3529411764705883
 40
0.4117647058823529
 40
0.4117647058823529
 40
0.4117647058823529
 40
0.4117647058823529
 40
0.4705882352941176
 40
0.4705882352941176
 40
0.4705882352941176
 40
0.4705882352941176
 40
0.5294117647058824
 40
0.5294117647058824
 40
0.5294117647058824
 40
0.5294117647058824
 40
0.5882352941176471
 40
0.5882352941176471
 40
0.5882352941176471
 40
0.5882352941176471
 40
0.6470588235294118
 40
0.6470588235294118
 40
0.6470588235294118
 40
0.6470588235294118
 40
0.7058823529411765
 40
0.7058823529411765
 40
0.7058823529411765
 40
0.7058823529411765
 40
0.7647058823529411
 40
0.7647058823529411
 40
0.7647058823529411
 40
0.7647058823529411
 40
0.8235294117647058
 40
0.8235294117647058
 40
0.8235294117647058
 40
0.8235294117647058
 40
0.8823529411764706
 40
0.8823529411764706
 40
0.8823529411764706
 40
0.8823529411764706
 40
1.0
 40
1.0
 40
1.0
 40
1.0
 10
-97.8803
 20
23.6779
 30
0.0
 10
-96.5489
 20
18.1229
 30
0.0
 10
-97.8904
 20
11.9206
 30
0.0
 10
-101.1426
 20
8.5947
 30
0.0
 10
-101.1426
 20
8.5947
 30
0.0
 10
-97.8904
 20
5.2683
 30
0.0
 10
-96.5489
 20
-0.9334
 30
0.0
 10
-97.8803
 20
-6.4885
 30
0.0
 10
-97.8803
 20
-6.4885
 30
0.0
 10
-95.9712
 20
-5.5092
 30
0.0
 10
-94.195
 20
-4.0244
 30
0.0
 10
-92.6354
 20
-2.1055
 30
0.0
 10
-92.6354
 20
-2.1055
 30
0.0
 10
-92.1167
 20
-1.5208
 30
0.0
 10
-91.7093
 20
-0.7433
 30
0.0
 10
-91.4531
 20
0.1506
 30
0.0
 10
-91.4531
 20
0.1506
 30
0.0
 10
-91.2232
 20
1.0761
 30
0.0
 10
-91.503
 20
2.1112
 30
0.0
 10
-92.098
 20
2.5353
 30
0.0
 10
-92.098
 20
2.5353
 30
0.0
 10
-92.9808
 20
2.8633
 30
0.0
 10
-93.9152
 20
2.5404
 30
0.0
 10
-94.613
 20
1.6653
 30
0.0
 10
-94.613
 20
1.6653
 30
0.0
 10
-94.0676
 20
3.6168
 30
0.0
 10
-92.8778
 20
4.9947
 30
0.0
 10
-91.4805
 20
5.2917
 30
0.0
 10
-91.4805
 20
5.2917
 30
0.0
 10
-90.0835
 20
5.5891
 30
0.0
 10
-88.685
 20
4.7624
 30
0.0
 10
-87.799
 20
3.1155
 30
0.0
 10
-87.799
 20
3.1155
 30
0.0
 10
-85.6757
 20
5.9665
 30
0.0
 10
-83.0608
 20
7.8651
 30
0.0
 10
-80.2524
 20
8.5947
 30
0.0
 10
-80.2524
 20
8.5947
 30
0.0
 10
-83.0608
 20
9.3243
 30
0.0
 10
-85.6757
 20
11.223
 30
0.0
 10
-87.799
 20
14.0735
 30
0.0
 10
-87.799
 20
14.0735
 30
0.0
 10
-88.685
 20
12.4265
 30
0.0
 10
-90.0835
 20
11.5998
 30
0.0
 10
-91.4805
 20
11.8973
 30
0.0
 10
-91.4805
 20
11.8973
 30
0.0
 10
-92.8778
 20
12.1947
 30
0.0
 10
-94.0676
 20
13.5721
 30
0.0
 10
-94.613
 20
15.5236
 30
0.0
 10
-94.613
 20
15.5236
 30
0.0
 10
-93.9152
 20
14.649
 30
0.0
 10
-92.9808
 20
14.3257
 30
0.0
 10
-92.098
 20
14.6536
 30
0.0
 10
-92.098
 20
14.6536
 30
0.0
 10
-91.503
 20
15.0777
 30
0.0
 10
-91.2232
 20
16.113
 30
0.0
 10
-91.4531
 20
17.0383
 30
0.0
 10
-91.4531
 20
17.0383
 30
0.0
 10
-91.7093
 20
17.9322
 30
0.0
 10
-92.1167
 20
18.7103
 30
0.0
 10
-92.6354
 20
19.2944
 30
0.0
 10
-92.6354
 20
19.2944
 30
0.0
 10
-94.195
 20
21.2138
 30
0.0
 10
-95.9712
 20
22.6981
 30
0.0
 10
-97.8803
 20
23.6779
 30
0.0
  0
SPLINE
  5
44
330
1F
100
AcDbEntity
  8
layer 1
 62
     7
370
     9
100
AcDbSpline
210
0.0
220
0.0
230
1.0
 70
    11
 71
     3
 72
   124
 73
   120
 74
     0
 42
0.0000000001
 43
0.0000000001
 12
1.0
 22
0.0
 32
0.0
 13
1.0
 23
0.0
 33
0.0
 40
0.0
 40
0.0
 40
0.0
 40
0.0
 40
0.032258064516129
 40
0.032258064516129
 40
0.032258064516129
 40
0.032258064516129
 40
0.0645161290322581
 40
0.0645161290322581
 40
0.0645161290322581
 40
0.0645161290322581
 40
0.0967741935483871
 40
0.0967741935483871
 40
0.0967741935483871
 40
0.0967741935483871
 40
0.1290322580645161
 40
0.1290322580645161
 40
0.1290322580645161
 40
0.1290322580645161
 40
0.1612903225806452
 40
0.1612903225806452
 40
0.1612903225806452
 40
0.1612903225806452
 40
0.1935483870967742
 40
0.1935483870967742
 40
0.1935483870967742
 40
0.1935483870967742
 40
0.2258064516129032
 40
0.2258064516129032
 40
0.2258064516129032
 40
0.2258064516129032
 40
0.2580645161290323
 40
0.2580645161290323
 40
0.2580645161290323
 40
0.2580645161290323
 40
0.2903225806451613
 40
0.2903225806451613
 40
0.2903225806451613
 40
0.2903225806451613
 40
0.3225806451612903
 40
0.3225806451612903
 40
0.3225806451612903
 40
0.3225806451612903
 40
0.3548387096774194
 40
0.3548387096774194
 40
0.3548387096774194
 40
0.3548387096774194
 40
0.3870967741935484
 40
0.3870967741935484
 40
0.3870967741935484
 40
0.3870967741935484
 40
0.4193548387096774
 40
0.4193548387096774
 40
0.4193548387096774
 40
0.4193548387096774
 40
0.4516129032258064
 40
0.4516129032258064
 40
0.4516129032258064
 40
0.4516129032258064
 40
0.4838709677419355
 40
0.4838709677419355
 40
0.4838709677419355
 40
0.4838709677419355
 40
0.5161290322580645
 40
0.5161290322580645
 40
0.5161290322580645
 40
0.5161290322580645
 40
0.5483870967741935
 40
0.5483870967741935
 40
0.5483870967741935
 40
0.5483870967741935
 40
0.5806451612903226
 40
0.5806451612903226
 40
0.5806451612903226
 40
0.5806451612903226
 40
0.6129032258064516
 40
0.6129032258064516
 40
0.6129032258064516
 40
0.6129032258064516
 40
0.6451612903225806
 40
0.6451612903225806
 40
0.6451612903225806
 40
0.6451612903225806
 40
0.6774193548387096
 40
0.6774193548387096
 40
0.6774193548387096
 40
0.6774193548387096
 40
0.7096774193548387
 40
0.7096774193548387
 40
0.7096774193548387
 40
0.7096774193548387
 40
0.7419354838709677
 40
0.7419354838709677
 40
0.7419354838709677
 40
0.7419354838709677
 40
0.7741935483870968
 40
0.7741935483870968
 40
0.7741935483870968
 40
0.7741935483870968
 40
0.8064516129032258
 40
0.8064516129032258
 40
0.8064516129032258
 40
0.8064516129032258
 40
0.8387096774193549
 40
0.8387096774193549
 40
0.8387096774193549
 40
0.8387096774193549
 40
0.8709677419354839
 40
0.8709677419354839
 40
0.8709677419354839
 40
0.8709677419354839
 40
0.9032258064516129
 40
0.9032258064516129
 40
0.9032258064516129
 40
0.9032258064516129
 40
0.9354838709677419
 40
0.9354838709677419
 40
0.9354838709677419
 40
0.9354838709677419
 40
1.0
 40
1.0
 40
1.0
 40
1.0
 10
-99.1267
 20
54.4886
 30
0.0
 10
-100.811
 20
53.7762
 30
0.0
 10
-102.1766
 20
51.9243
 30
0.0
 10
-102.8177
 20
49.4832
 30
0.0
 10
-102.8177
 20
49.4832
 30
0.0
 10
-103.4588
 20
47.042
 30
0.0
 10
-103.3022
 20
44.2912
 30
0.0
 10
-102.394
 20
42.0484
 30
0.0
 10
-102.394
 20
42.0484
 30
0.0
 10
-100.0148
 20
38.4626
 30
0.0
 10
-96.553
 20
37.0181
 30
0.0
 10
-93.2802
 20
38.2456
 30
0.0
 10
-93.2802
 20
38.2456
 30
0.0
 10
-94.3663
 20
38.8943
 30
0.0
 10
-95.3807
 20
39.7852
 30
0.0
 10
-96.2896
 20
40.8881
 30
0.0
 10
-96.2896
 20
40.8881
 30
0.0
 10
-97.0521
 20
41.8704
 30
0.0
 10
-97.4649
 20
43.3303
 30
0.0
 10
-97.4059
 20
44.8353
 30
0.0
 10
-97.4059
 20
44.8353
 30
0.0
 10
-97.3469
 20
46.3398
 30
0.0
 10
-96.8227
 20
47.7172
 30
0.0
 10
-95.9885
 20
48.5588
 30
0.0
 10
-95.9885
 20
48.5588
 30
0.0
 10
-95.1228
 20
49.6875
 30
0.0
 10
-94.1139
 20
50.5428
 30
0.0
 10
-93.0223
 20
51.0727
 30
0.0
 10
-93.0223
 20
51.0727
 30
0.0
 10
-92.3151
 20
51.4158
 30
0.0
 10
-91.5475
 20
51.3467
 30
0.0
 10
-90.8728
 20
50.8794
 30
0.0
 10
-90.8728
 20
50.8794
 30
0.0
 10
-89.4067
 20
50.0293
 30
0.0
 10
-87.7817
 20
50.0293
 30
0.0
 10
-86.3156
 20
50.8794
 30
0.0
 10
-86.3156
 20
50.8794
 30
0.0
 10
-85.7002
 20
51.0493
 30
0.0
 10
-85.0646
 20
50.8403
 30
0.0
 10
-84.5531
 20
50.2992
 30
0.0
 10
-84.5531
 20
50.2992
 30
0.0
 10
-83.6921
 20
49.3449
 30
0.0
 10
-82.7871
 20
48.483
 30
0.0
 10
-81.8448
 20
47.7209
 30
0.0
 10
-81.8448
 20
47.7209
 30
0.0
 10
-83.0464
 20
44.4153
 30
0.0
 10
-83.0136
 20
40.4102
 30
0.0
 10
-81.7587
 20
37.1497
 30
0.0
 10
-81.7587
 20
37.1497
 30
0.0
 10
-86.8574
 20
31.5856
 30
0.0
 10
-93.5226
 20
30.4131
 30
0.0
 10
-99.3418
 20
34.0558
 30
0.0
 10
-99.3418
 20
34.0558
 30
0.0
 10
-104.0555
 20
36.1445
 30
0.0
 10
-108.237
 20
40.3241
 30
0.0
 10
-111.3362
 20
46.0449
 30
0.0
 10
-111.3362
 20
46.0449
 30
0.0
 10
-112.538
 20
48.7845
 30
0.0
 10
-113.6592
 20
51.6019
 30
0.0
 10
-114.6969
 20
54.4886
 30
0.0
 10
-114.6969
 20
54.4886
 30
0.0
 10
-113.6592
 20
57.3756
 30
0.0
 10
-112.538
 20
60.1931
 30
0.0
 10
-111.3362
 20
62.9326
 30
0.0
 10
-111.3362
 20
62.9326
 30
0.0
 10
-108.237
 20
68.6534
 30
0.0
 10
-104.0555
 20
72.8331
 30
0.0
 10
-99.3418
 20
74.9219
 30
0.0
 10
-99.3418
 20
74.9219
 30
0.0
 10
-93.5226
 20
78.5645
 30
0.0
 10
-86.8574
 20
77.392
 30
0.0
 10
-81.7587
 20
71.8283
 30
0.0
 10
-81.7587
 20
71.8283
 30
0.0
 10
-83.0136
 20
68.5675
 30
0.0
 10
-83.0464
 20
64.5628
 30
0.0
 10
-81.8448
 20
61.2568
 30
0.0
 10
-81.8448
 20
61.2568
 30
0.0
 10
-82.7871
 20
60.4946
 30
0.0
 10
-83.6921
 20
59.6333
 30
0.0
 10
-84.5531
 20
58.6788
 30
0.0
 10
-84.5531
 20
58.6788
 30
0.0
 10
-85.0646
 20
58.1378
 30
0.0
 10
-85.7002
 20
57.9283
 30
0.0
 10
-86.3156
 20
58.0987
 30
0.0
 10
-86.3156
 20
58.0987
 30
0.0
 10
-87.7817
 20
58.9488
 30
0.0
 10
-89.4067
 20
58.9488
 30
0.0
 10
-90.8728
 20
58.0987
 30
0.0
 10
-90.8728
 20
58.0987
 30
0.0
 10
-91.5475
 20
57.6308
 30
0.0
 10
-92.3151
 20
57.5618
 30
0.0
 10
-93.0223
 20
57.9054
 30
0.0
 10
-93.0223
 20
57.9054
 30
0.0
 10
-94.1139
 20
58.4348
 30
0.0
 10
-95.1228
 20
59.2899
 30
0.0
 10
-95.9885
 20
60.4188
 30
0.0
 10
-95.9885
 20
60.4188
 30
0.0
 10
-96.8227
 20
61.2604
 30
0.0
 10
-97.3469
 20
62.6377
 30
0.0
 10
-97.4059
 20
64.1423
 30
0.0
 10
-97.4059
 20
64.1423
 30
0.0
 10
-97.4649
 20
65.6474
 30
0.0
 10
-97.0521
 20
67.1071
 30
0.0
 10
-96.2896
 20
68.0895
 30
0.0
 10
-96.2896
 20
68.0895
 30
0.0
 10
-95.3807
 20
69.1924
 30
0.0
 10
-94.3663
 20
70.0833
 30
0.0
 10
-93.2802
 20
70.7326
 30
0.0
 10
-93.2802
 20
70.7326
 30
0.0
 10
-96.553
 20
71.9595
 30
0.0
 10
-100.0148
 20
70.515
 30
0.0
 10
-102.394
 20
66.9293
 30
0.0
 10
-102.394
 20
66.9293
 30
0.0
 10
-103.3022
 20
64.6864
 30
0.0
 10
-103.4588
 20
61.9361
 30
0.0
 10
-102.8177
 20
59.4945
 30
0.0
 10
-102.8177
 20
59.4945
 30
0.0
 10
-102.1766
 20
57.0533
 30
0.0
 10
-100.811
 20
55.2015
 30
0.0
 10
-99.1267
 20
54.4886
 30
0.0
  0
SPLINE
  5
45
330
1F
100
AcDbEntity
  8
layer 1
 62
     7
370
     9
100
AcDbSpline
210
0.0
220
0.0
230
1.0
 70
    11
 71
     3
 72
   108
 73
   104
 74
     0
 42
0.0000000001
 43
0.0000000001
 12
1.0
 22
0.0
 32
0.0
 13
1.0
 23
0.0
 33
0.0
 40
0.0
 40
0.0
 40
0.0
 40
0.0
 40
0.037037037037037
 40
0.037037037037037
 40
0.037037037037037
 40
0.037037037037037
 40
0.0740740740740741
 40
0.0740740740740741
 40
0.0740740740740741
 40
0.0740740740740741
 40
0.1111111111111111
 40
0.1111111111111111
 40
0.1111111111111111
 40
0.1111111111111111
 40
0.1481481481481481
 40
0.1481481481481481
 40
0.1481481481481481
 40
0.1481481481481481
 40
0.1851851851851852
 40
0.1851851851851852
 40
0.1851851851851852
 40
0.1851851851851852
 40
0.2222222222222222
 40
0.2222222222222222
 40
0.2222222222222222
 40
0.2222222222222222
 40
0.2592592592592592
 40
0.2592592592592592
 40
0.2592592592592592
 40
0.2592592592592592
 40
0.2962962962962963
 40
0.2962962962962963
 40
0.2962962962962963
 40
0.2962962962962963
 40
0.3333333333333333
 40
0.3333333333333333
 40
0.3333333333333333
 40
0.3333333333333333
 40
0.3703703703703703
 40
0.3703703703703703
 40
0.3703703703703703
 40
0.3703703703703703
 40
0.4074074074074074
 40
0.4074074074074074
 40
0.4074074074074074
 40
0.4074074074074074
 40
0.4444444444444444
 40
0.4444444444444444
 40
0.4444444444444444
 40
0.4444444444444444
 40
0.4814814814814815
 40
0.4814814814814815
 40
0.4814814814814815
 40
0.4814814814814815
 40
0.5185185185185185
 40
0.5185185185185185
 40
0.5185185185185185
 40
0.5185185185185185
 40
0.5555555555555556
 40
0.5555555555555556
 40
0.5555555555555556
 40
0.5555555555555556
 40
0.5925925925925926
 40
0.5925925925925926
 40
0.5925925925925926
 40
0.5925925925925926
 40
0.6296296296296297
 40
0.6296296296296297
 40
0.6296296296296297
 40
0.6296296296296297
 40
0.6666666666666666
 40
0.6666666666666666
 40
0.6666666666666666
 40
0.6666666666666666
 40
0.7037037037037037
 40
0.7037037037037037
 40
0.7037037037037037
 40
0.7037037037037037
 40
0.7407407407407407
 40
0.7407407407407407
 40
0.7407407407407407
 40
0.7407407407407407
 40
0.7777777777777778
 40
0.7777777777777778
 40
0.7777777777777778
 40
0.7777777777777778
 40
0.8148148148148148
 40
0.8148148148148148
 40
0.8148148148148148
 40
0.8148148148148148
 40
0.8518518518518519
 40
0.8518518518518519
 40
0.8518518518518519
 40
0.8518518518518519
 40
0.8888888888888888
 40
0.8888888888888888
 40
0.8888888888888888
 40
0.8888888888888888
 40
0.9259259259259259
 40
0.9259259259259259
 40
0.9259259259259259
 40
0.9259259259259259
 40
1.0
 40
1.0
 40
1.0
 40
1.0
 10
-127.3713
 20
80.7169
 30
0.0
 10
-127.3713
 20
80.7169
 30
0.0
 10
-127.4145
 20
80.6589
 30
0.0
 10
-127.4145
 20
80.6589
 30
0.0
 10
-127.4145
 20
80.6589
 30
0.0
 10
-132.3058
 20
75.4288
 30
0.0
 10
-138.8297
 20
75.199
 30
0.0
 10
-143.8797
 20
80.0788
 30
0.0
 10
-143.8797
 20
80.0788
 30
0.0
 10
-145.0918
 20
81.6844
 30
0.0
 10
-145.5775
 20
84.1954
 30
0.0
 10
-145.1261
 20
86.5245
 30
0.0
 10
-145.1261
 20
86.5245
 30
0.0
 10
-144.7205
 20
86.2815
 30
0.0
 10
-144.3319
 20
85.979
 30
0.0
 10
-143.9655
 20
85.622
 30
0.0
 10
-143.9655
 20
85.622
 30
0.0
 10
-142.2357
 20
83.2399
 30
0.0
 10
-139.9331
 20
82.0171
 30
0.0
 10
-137.5887
 20
82.2362
 30
0.0
 10
-137.5887
 20
82.2362
 30
0.0
 10
-135.2444
 20
82.4548
 30
0.0
 10
-133.0606
 20
84.0966
 30
0.0
 10
-131.5413
 20
86.7824
 30
0.0
 10
-131.5413
 20
86.7824
 30
0.0
 10
-131.3455
 20
87.3854
 30
0.0
 10
-131.3144
 20
88.0794
 30
0.0
 10
-131.4555
 20
88.7161
 30
0.0
 10
-131.4555
 20
88.7161
 30
0.0
 10
-131.7909
 20
89.8108
 30
0.0
 10
-131.7589
 20
91.079
 30
0.0
 10
-131.3694
 20
92.1324
 30
0.0
 10
-131.3694
 20
92.1324
 30
0.0
 10
-133.126
 20
96.245
 30
0.0
 10
-136.1517
 20
98.7435
 30
0.0
 10
-139.4086
 20
98.7715
 30
0.0
 10
-139.4086
 20
98.7715
 30
0.0
 10
-142.9194
 20
99.1971
 30
0.0
 10
-146.4111
 20
97.6585
 30
0.0
 10
-149.2103
 20
94.4531
 30
0.0
 10
-149.2103
 20
94.4531
 30
0.0
 10
-150.561
 20
92.8484
 30
0.0
 10
-151.3967
 20
90.4627
 30
0.0
 10
-151.5112
 20
87.8847
 30
0.0
 10
-151.5112
 20
87.8847
 30
0.0
 10
-151.6258
 20
85.3068
 30
0.0
 10
-151.0086
 20
82.7761
 30
0.0
 10
-149.8123
 20
80.9166
 30
0.0
 10
-149.8123
 20
80.9166
 30
0.0
 10
-143.816
 20
71.901
 30
0.0
 10
-135.8431
 20
66.4507
 30
0.0
 10
-127.3713
 20
65.5757
 30
0.0
 10
-127.3713
 20
65.5757
 30
0.0
 10
-118.8998
 20
66.4507
 30
0.0
 10
-110.9268
 20
71.901
 30
0.0
 10
-104.9306
 20
80.9166
 30
0.0
 10
-104.9306
 20
80.9166
 30
0.0
 10
-103.7339
 20
82.7761
 30
0.0
 10
-103.1171
 20
85.3068
 30
0.0
 10
-103.2316
 20
87.8847
 30
0.0
 10
-103.2316
 20
87.8847
 30
0.0
 10
-103.3463
 20
90.4627
 30
0.0
 10
-104.1819
 20
92.8484
 30
0.0
 10
-105.5322
 20
94.4531
 30
0.0
 10
-105.5322
 20
94.4531
 30
0.0
 10
-108.3317
 20
97.6585
 30
0.0
 10
-111.8233
 20
99.1971
 30
0.0
 10
-115.334
 20
98.7715
 30
0.0
 10
-115.334
 20
98.7715
 30
0.0
 10
-118.5909
 20
98.7435
 30
0.0
 10
-121.6169
 20
96.245
 30
0.0
 10
-123.3732
 20
92.1324
 30
0.0
 10
-123.3732
 20
92.1324
 30
0.0
 10
-122.984
 20
91.079
 30
0.0
 10
-122.952
 20
89.8108
 30
0.0
 10
-123.2874
 20
88.7161
 30
0.0
 10
-123.2874
 20
88.7161
 30
0.0
 10
-123.4281
 20
88.0794
 30
0.0
 10
-123.3974
 20
87.3854
 30
0.0
 10
-123.2013
 20
86.7824
 30
0.0
 10
-123.2013
 20
86.7824
 30
0.0
 10
-121.682
 20
84.0966
 30
0.0
 10
-119.4982
 20
82.4548
 30
0.0
 10
-117.1541
 20
82.2362
 30
0.0
 10
-117.1541
 20
82.2362
 30
0.0
 10
-114.8095
 20
82.0171
 30
0.0
 10
-112.5072
 20
83.2399
 30
0.0
 10
-110.7772
 20
85.622
 30
0.0
 10
-110.7772
 20
85.622
 30
0.0
 10
-110.4109
 20
85.979
 30
0.0
 10
-110.022
 20
86.2815
 30
0.0
 10
-109.6165
 20
86.5245
 30
0.0
 10
-109.6165
 20
86.5245
 30
0.0
 10
-109.1651
 20
84.1954
 30
0.0
 10
-109.6507
 20
81.6844
 30
0.0
 10
-110.8632
 20
80.0788
 30
0.0
 10
-110.8632
 20
80.0788
 30
0.0
 10
-115.9132
 20
75.199
 30
0.0
 10
-122.437
 20
75.4288
 30
0.0
 10
-127.3284
 20
80.6589
 30
0.0
 10
-127.3284
 20
80.6589
 30
0.0
 10
-127.3284
 20
80.6589
 30
0.0
 10
-127.3713
 20
80.7169
 30
0.0
 10
-127.3713
 20
80.7169
 30
0.0
  0
SPLINE
  5
46
330
1F
100
AcDbEntity
  8
layer 1
 62
     7
370
     9
100
AcDbSpline
210
0.0
220
0.0
230
1.0
 70
    11
 71
     3
 72
   132
 73
   128
 74
     0
 42
0.0000000001
 43
0.0000000001
 12
1.0
 22
0.0
 32
0.0
 13
1.0
 23
0.0
 33
0.0
 40
0.0
 40
0.0
 40
0.0
 40
0.0
 40
0.0303030303030303
 40
0.0303030303030303
 40
0.0303030303030303
 40
0.0303030303030303
 40
0.0606060606060606
 40
0.0606060606060606
 40
0.0606060606060606
 40
0.0606060606060606
 40
0.0909090909090909
 40
0.0909090909090909
 40
0.0909090909090909
 40
0.0909090909090909
 40
0.1212121212121212
 40
0.1212121212121212
 40
0.1212121212121212
 40
0.1212121212121212
 40
0.1515151515151515
 40
0.1515151515151515
 40
0.1515151515151515
 40
0.1515151515151515
 40
0.1818181818181818
 40
0.1818181818181818
 40
0.1818181818181818
 40
0.1818181818181818
 40
0.2121212121212121
 40
0.2121212121212121
 40
0.2121212121212121
 40
0.2121212121212121
 40
0.2424242424242424
 40
0.2424242424242424
 40
0.2424242424242424
 40
0.2424242424242424
 40
0.2727272727272727
 40
0.2727272727272727
 40
0.2727272727272727
 40
0.2727272727272727
 40
0.303030303030303
 40
0.303030303030303
 40
0.303030303030303
 40
0.303030303030303
 40
0.3333333333333333
 40
0.3333333333333333
 40
0.3333333333333333
 40
0.3333333333333333
 40
0.3636363636363636
 40
0.3636363636363636
 40
0.3636363636363636
 40
0.3636363636363636
 40
0.3939393939393939
 40
0.3939393939393939
 40
0.3939393939393939
 40
0.3939393939393939
 40
0.4242424242424243
 40
0.4242424242424243
 40
0.4242424242424243
 40
0.4242424242424243
 40
0.4545454545454545
 40
0.4545454545454545
 40
0.4545454545454545
 40
0.4545454545454545
 40
0.4848484848484849
 40
0.4848484848484849
 40
0.4848484848484849
 40
0.4848484848484849
 40
0.5151515151515151
 40
0.5151515151515151
 40
0.5151515151515151
 40
0.5151515151515151
 40
0.5454545454545454
 40
0.5454545454545454
 40
0.5454545454545454
 40
0.5454545454545454
 40
0.5757575757575758
 40
0.5757575757575758
 40
0.5757575757575758
 40
0.5757575757575758
 40
0.6060606060606061
 40
0.6060606060606061
 40
0.6060606060606061
 40
0.6060606060606061
 40
0.6363636363636364
 40
0.6363636363636364
 40
0.6363636363636364
 40
0.6363636363636364
 40
0.6666666666666666
 40
0.6666666666666666
 40
0.6666666666666666
 40
0.6666666666666666
 40
0.696969696969697
 40
0.696969696969697
 40
0.696969696969697
 40
0.696969696969697
 40
0.7272727272727273
 40
0.7272727272727273
 40
0.7272727272727273
 40
0.7272727272727273
 40
0.7575757575757576
 40
0.7575757575757576
 40
0.7575757575757576
 40
0.7575757575757576
 40
0.7878787878787878
 40
0.7878787878787878
 40
0.7878787878787878
 40
0.7878787878787878
 40
0.8181818181818182
 40
0.8181818181818182
 40
0.8181818181818182
 40
0.8181818181818182
 40
0.8484848484848485
 40
0.8484848484848485
 40
0.8484848484848485
 40
0.8484848484848485
 40
0.8787878787878788
 40
0.8787878787878788
 40
0.8787878787878788
 40
0.8787878787878788
 40
0.9090909090909091
 40
0.9090909090909091
 40
0.9090909090909091
 40
0.9090909090909091
 40
0.9393939393939394
 40
0.9393939393939394
 40
0.9393939393939394
 40
0.9393939393939394
 40
1.0
 40
1.0
 40
1.0
 40
1.0
 10
-139.3182
 20
54.5532
 30
0.0
 10
-139.8884
 20
53.4177
 30
0.0
 10
-140.3663
 20
52.1842
 30
0.0
 10
-140.7414
 20
50.8794
 30
0.0
 10
-140.7414
 20
50.8794
 30
0.0
 10
-141.6703
 20
47.4533
 30
0.0
 10
-143.2003
 20
44.4686
 30
0.0
 10
-145.1693
 20
42.2421
 30
0.0
 10
-145.1693
 20
42.2421
 30
0.0
 10
-149.2866
 20
37.1427
 30
0.0
 10
-154.277
 20
33.8818
 30
0.0
 10
-159.5711
 20
32.8308
 30
0.0
 10
-159.5711
 20
32.8308
 30
0.0
 10
-163.6217
 20
31.852
 30
0.0
 10
-167.7693
 20
33.2107
 30
0.0
 10
-171.1783
 20
36.6337
 30
0.0
 10
-171.1783
 20
36.6337
 30
0.0
 10
-172.9438
 20
38.2892
 30
0.0
 10
-173.9017
 20
41.3385
 30
0.0
 10
-173.6287
 20
44.4336
 30
0.0
 10
-173.6287
 20
44.4336
 30
0.0
 10
-172.8294
 20
47.9614
 30
0.0
 10
-170.8553
 20
50.6034
 30
0.0
 10
-168.427
 20
51.3951
 30
0.0
 10
-168.427
 20
51.3951
 30
0.0
 10
-166.4453
 20
50.6506
 30
0.0
 10
-164.3668
 20
50.7172
 30
0.0
 10
-162.4084
 20
51.5882
 30
0.0
 10
-162.4084
 20
51.5882
 30
0.0
 10
-162.134
 20
51.9426
 30
0.0
 10
-161.7454
 20
52.0189
 30
0.0
 10
-161.4196
 20
51.7815
 30
0.0
 10
-161.4196
 20
51.7815
 30
0.0
 10
-160.0148
 20
51.1855
 30
0.0
 10
-158.73
 20
50.0786
 30
0.0
 10
-157.6796
 20
48.5588
 30
0.0
 10
-157.6796
 20
48.5588
 30
0.0
 10
-156.8428
 20
47.5545
 30
0.0
 10
-156.43
 20
45.9539
 30
0.0
 10
-156.5989
 20
44.367
 30
0.0
 10
-156.5989
 20
44.367
 30
0.0
 10
-156.7679
 20
42.78
 30
0.0
 10
-157.4925
 20
41.4514
 30
0.0
 10
-158.4962
 20
40.8881
 30
0.0
 10
-158.4962
 20
40.8881
 30
0.0
 10
-159.374
 20
40.5554
 30
0.0
 10
-160.1572
 20
39.8101
 30
0.0
 10
-160.7317
 20
38.7611
 30
0.0
 10
-160.7317
 20
38.7611
 30
0.0
 10
-158.4102
 20
38.0768
 30
0.0
 10
-156.0036
 20
38.5053
 30
0.0
 10
-153.8533
 20
39.9855
 30
0.0
 10
-153.8533
 20
39.9855
 30
0.0
 10
-152.4068
 20
40.9764
 30
0.0
 10
-151.2467
 20
42.7154
 30
0.0
 10
-150.5861
 20
44.8846
 30
0.0
 10
-150.5861
 20
44.8846
 30
0.0
 10
-150.2164
 20
46.9378
 30
0.0
 10
-150.4199
 20
49.1283
 30
0.0
 10
-151.1497
 20
50.9522
 30
0.0
 10
-151.1497
 20
50.9522
 30
0.0
 10
-151.8797
 20
52.776
 30
0.0
 10
-153.0729
 20
54.0757
 30
0.0
 10
-154.4552
 20
54.5532
 30
0.0
 10
-154.4552
 20
54.5532
 30
0.0
 10
-153.0729
 20
55.0305
 30
0.0
 10
-151.8797
 20
56.3308
 30
0.0
 10
-151.1497
 20
58.1546
 30
0.0
 10
-151.1497
 20
58.1546
 30
0.0
 10
-150.4199
 20
59.9785
 30
0.0
 10
-150.2164
 20
62.1684
 30
0.0
 10
-150.5861
 20
64.2222
 30
0.0
 10
-150.5861
 20
64.2222
 30
0.0
 10
-151.2467
 20
66.3908
 30
0.0
 10
-152.4068
 20
68.1302
 30
0.0
 10
-153.8533
 20
69.1207
 30
0.0
 10
-153.8533
 20
69.1207
 30
0.0
 10
-156.0036
 20
70.6013
 30
0.0
 10
-158.4102
 20
71.03
 30
0.0
 10
-160.7317
 20
70.3456
 30
0.0
 10
-160.7317
 20
70.3456
 30
0.0
 10
-160.1572
 20
69.2966
 30
0.0
 10
-159.374
 20
68.5512
 30
0.0
 10
-158.4962
 20
68.2182
 30
0.0
 10
-158.4962
 20
68.2182
 30
0.0
 10
-157.4925
 20
67.6553
 30
0.0
 10
-156.7679
 20
66.3266
 30
0.0
 10
-156.5989
 20
64.7397
 30
0.0
 10
-156.5989
 20
64.7397
 30
0.0
 10
-156.43
 20
63.1528
 30
0.0
 10
-156.8428
 20
61.5517
 30
0.0
 10
-157.6796
 20
60.5479
 30
0.0
 10
-157.6796
 20
60.5479
 30
0.0
 10
-158.73
 20
59.0282
 30
0.0
 10
-160.0148
 20
57.9207
 30
0.0
 10
-161.4196
 20
57.3253
 30
0.0
 10
-161.4196
 20
57.3253
 30
0.0
 10
-161.7454
 20
57.0879
 30
0.0
 10
-162.134
 20
57.1641
 30
0.0
 10
-162.4084
 20
57.5186
 30
0.0
 10
-162.4084
 20
57.5186
 30
0.0
 10
-164.3668
 20
58.389
 30
0.0
 10
-166.4453
 20
58.4561
 30
0.0
 10
-168.427
 20
57.7117
 30
0.0
 10
-168.427
 20
57.7117
 30
0.0
 10
-170.8553
 20
58.5034
 30
0.0
 10
-172.8294
 20
61.1454
 30
0.0
 10
-173.6287
 20
64.6732
 30
0.0
 10
-173.6287
 20
64.6732
 30
0.0
 10
-173.9017
 20
67.7683
 30
0.0
 10
-172.9438
 20
70.817
 30
0.0
 10
-171.1783
 20
72.4726
 30
0.0
 10
-171.1783
 20
72.4726
 30
0.0
 10
-167.7693
 20
75.896
 30
0.0
 10
-163.6217
 20
77.2546
 30
0.0
 10
-159.5711
 20
76.2758
 30
0.0
 10
-159.5711
 20
76.2758
 30
0.0
 10
-154.277
 20
75.2248
 30
0.0
 10
-149.2866
 20
71.9635
 30
0.0
 10
-145.1693
 20
66.8647
 30
0.0
 10
-145.1693
 20
66.8647
 30
0.0
 10
-143.2003
 20
64.6381
 30
0.0
 10
-141.6703
 20
61.6529
 30
0.0
 10
-140.7414
 20
58.2273
 30
0.0
 10
-140.7414
 20
58.2273
 30
0.0
 10
-140.3663
 20
56.9221
 30
0.0
 10
-139.8884
 20
55.6885
 30
0.0
 10
-139.3182
 20
54.5532
 30
0.0
  0
SPLINE
  5
47
330
1F
100
AcDbEntity
  8
layer 1
 62
     7
370
     9
100
AcDbSpline
210
0.0
220
0.0
230
1.0
 70
    11
 71
     3
 72
   124
 73
   120
 74
     0
 42
0.0000000001
 43
0.0000000001
 12
1.0
 22
0.0
 32
0.0
 13
1.0
 23
0.0
 33
0.0
 40
0.0
 40
0.0
 40
0.0
 40
0.0
 40
0.032258064516129
 40
0.032258064516129
 40
0.032258064516129
 40
0.032258064516129
 40
0.0645161290322581
 40
0.0645161290322581
 40
0.0645161290322581
 40
0.0645161290322581
 40
0.0967741935483871
 40
0.0967741935483871
 40
0.0967741935483871
 40
0.0967741935483871
 40
0.1290322580645161
 40
0.1290322580645161
 40
0.1290322580645161
 40
0.1290322580645161
 40
0.1612903225806452
 40
0.1612903225806452
 40
0.1612903225806452
 40
0.1612903225806452
 40
0.1935483870967742
 40
0.1935483870967742
 40
0.1935483870967742
 40
0.1935483870967742
 40
0.2258064516129032
 40
0.2258064516129032
 40
0.2258064516129032
 40
0.2258064516129032
 40
0.2580645161290323
 40
0.2580645161290323
 40
0.2580645161290323
 40
0.2580645161290323
 40
0.2903225806451613
 40
0.2903225806451613
 40
0.2903225806451613
 40
0.2903225806451613
 40
0.3225806451612903
 40
0.3225806451612903
 40
0.3225806451612903
 40
0.3225806451612903
 40
0.3548387096774194
 40
0.3548387096774194
 40
0.3548387096774194
 40
0.3548387096774194
 40
0.3870967741935484
 40
0.3870967741935484
 40
0.3870967741935484
 40
0.3870967741935484
 40
0.4193548387096774
 40
0.4193548387096774
 40
0.4193548387096774
 40
0.4193548387096774
 40
0.4516129032258064
 40
0.4516129032258064
 40
0.4516129032258064
 40
0.4516129032258064
 40
0.4838709677419355
 40
0.4838709677419355
 40
0.4838709677419355
 40
0.4838709677419355
 40
0.5161290322580645
 40
0.5161290322580645
 40
0.5161290322580645
 40
0.5161290322580645
 40
0.5483870967741935
 40
0.5483870967741935
 40
0.5483870967741935
 40
0.5483870967741935
 40
0.5806451612903226
 40
0.5806451612903226
 40
0.5806451612903226
 40
0.5806451612903226
 40
0.6129032258064516
 40
0.6129032258064516
 40
0.6129032258064516
 40
0.6129032258064516
 40
0.6451612903225806
 40
0.6451612903225806
 40
0.6451612903225806
 40
0.6451612903225806
 40
0.6774193548387096
 40
0.6774193548387096
 40
0.6774193548387096
 40
0.6774193548387096
 40
0.7096774193548387
 40
0.7096774193548387
 40
0.7096774193548387
 40
0.7096774193548387
 40
0.7419354838709677
 40
0.7419354838709677
 40
0.7419354838709677
 40
0.7419354838709677
 40
0.7741935483870968
 40
0.7741935483870968
 40
0.7741935483870968
 40
0.7741935483870968
 40
0.8064516129032258
 40
0.8064516129032258
 40
0.8064516129032258
 40
0.8064516129032258
 40
0.8387096774193549
 40
0.8387096774193549
 40
0.8387096774193549
 40
0.8387096774193549
 40
0.8709677419354839
 40
0.8709677419354839
 40
0.8709677419354839
 40
0.8709677419354839
 40
0.9032258064516129
 40
0.9032258064516129
 40
0.9032258064516129
 40
0.9032258064516129
 40
0.9354838709677419
 40
0.9354838709677419
 40
0.9354838709677419
 40
0.9354838709677419
 40
1.0
 40
1.0
 40
1.0
 40
1.0
 10
-127.3713
 20
43.4462
 30
0.0
 10
-133.3315
 20
42.4973
 30
0.0
 10
-139.0974
 20
39.7176
 30
0.0
 10
-144.3095
 20
35.2802
 30
0.0
 10
-144.3095
 20
35.2802
 30
0.0
 10
-146.3734
 20
33.504
 30
0.0
 10
-148.1732
 20
31.1133
 30
0.0
 10
-149.5973
 20
28.2546
 30
0.0
 10
-149.5973
 20
28.2546
 30
0.0
 10
-150.8235
 20
26.3591
 30
0.0
 10
-151.4896
 20
23.8035
 30
0.0
 10
-151.4459
 20
21.1641
 30
0.0
 10
-151.4459
 20
21.1641
 30
0.0
 10
-150.7305
 20
17.4503
 30
0.0
 10
-149.039
 20
14.3328
 30
0.0
 10
-146.7597
 20
12.5262
 30
0.0
 10
-146.7597
 20
12.5262
 30
0.0
 10
-142.6629
 20
14.6231
 30
0.0
 10
-138.218
 20
14.6231
 30
0.0
 10
-134.1209
 20
12.5262
 30
0.0
 10
-134.1209
 20
12.5262
 30
0.0
 10
-133.0186
 20
13.3946
 30
0.0
 10
-132.0517
 20
14.6028
 30
0.0
 10
-131.2837
 20
16.0718
 30
0.0
 10
-131.2837
 20
16.0718
 30
0.0
 10
-131.1783
 20
16.4379
 30
0.0
 10
-131.1555
 20
16.8452
 30
0.0
 10
-131.2189
 20
17.232
 30
0.0
 10
-131.2189
 20
17.232
 30
0.0
 10
-131.4256
 20
18.2155
 30
0.0
 10
-131.395
 20
19.2761
 30
0.0
 10
-131.1331
 20
20.229
 30
0.0
 10
-131.1331
 20
20.229
 30
0.0
 10
-130.9733
 20
20.68
 30
0.0
 10
-131.0163
 20
21.2317
 30
0.0
 10
-131.2405
 20
21.6151
 30
0.0
 10
-131.2405
 20
21.6151
 30
0.0
 10
-132.4513
 20
24.4924
 30
0.0
 10
-134.4337
 20
26.442
 30
0.0
 10
-136.6759
 20
26.9616
 30
0.0
 10
-136.6759
 20
26.9616
 30
0.0
 10
-138.9184
 20
27.4807
 30
0.0
 10
-141.2008
 20
26.5182
 30
0.0
 10
-142.9338
 20
24.3222
 30
0.0
 10
-142.9338
 20
24.3222
 30
0.0
 10
-143.5705
 20
23.6148
 30
0.0
 10
-144.3345
 20
23.2107
 30
0.0
 10
-145.1261
 20
23.1624
 30
0.0
 10
-145.1261
 20
23.1624
 30
0.0
 10
-145.2542
 20
24.1436
 30
0.0
 10
-145.2395
 20
25.155
 30
0.0
 10
-145.0832
 20
26.1272
 30
0.0
 10
-145.0832
 20
26.1272
 30
0.0
 10
-143.4453
 20
29.9626
 30
0.0
 10
-140.6786
 20
32.3844
 30
0.0
 10
-137.646
 20
32.6377
 30
0.0
 10
-137.646
 20
32.6377
 30
0.0
 10
-133.9351
 20
33.1735
 30
0.0
 10
-130.2355
 20
31.4621
 30
0.0
 10
-127.3713
 20
27.884
 30
0.0
 10
-127.3713
 20
27.884
 30
0.0
 10
-124.5073
 20
31.4621
 30
0.0
 10
-120.8074
 20
33.1735
 30
0.0
 10
-117.0966
 20
32.6377
 30
0.0
 10
-117.0966
 20
32.6377
 30
0.0
 10
-114.0642
 20
32.3844
 30
0.0
 10
-111.2973
 20
29.9626
 30
0.0
 10
-109.6593
 20
26.1272
 30
0.0
 10
-109.6593
 20
26.1272
 30
0.0
 10
-109.5033
 20
25.155
 30
0.0
 10
-109.4886
 20
24.1436
 30
0.0
 10
-109.6165
 20
23.1624
 30
0.0
 10
-109.6165
 20
23.1624
 30
0.0
 10
-110.4083
 20
23.2107
 30
0.0
 10
-111.1721
 20
23.6148
 30
0.0
 10
-111.8091
 20
24.3222
 30
0.0
 10
-111.8091
 20
24.3222
 30
0.0
 10
-113.5421
 20
26.5182
 30
0.0
 10
-115.8246
 20
27.4807
 30
0.0
 10
-118.0667
 20
26.9616
 30
0.0
 10
-118.0667
 20
26.9616
 30
0.0
 10
-120.3092
 20
26.442
 30
0.0
 10
-122.2917
 20
24.4924
 30
0.0
 10
-123.5021
 20
21.6151
 30
0.0
 10
-123.5021
 20
21.6151
 30
0.0
 10
-123.7267
 20
21.2317
 30
0.0
 10
-123.7695
 20
20.68
 30
0.0
 10
-123.6098
 20
20.229
 30
0.0
 10
-123.6098
 20
20.229
 30
0.0
 10
-123.3478
 20
19.2761
 30
0.0
 10
-123.3173
 20
18.2155
 30
0.0
 10
-123.5238
 20
17.232
 30
0.0
 10
-123.5238
 20
17.232
 30
0.0
 10
-123.5871
 20
16.8452
 30
0.0
 10
-123.5643
 20
16.4379
 30
0.0
 10
-123.4592
 20
16.0718
 30
0.0
 10
-123.4592
 20
16.0718
 30
0.0
 10
-122.6912
 20
14.6028
 30
0.0
 10
-121.724
 20
13.3946
 30
0.0
 10
-120.6218
 20
12.5262
 30
0.0
 10
-120.6218
 20
12.5262
 30
0.0
 10
-116.5249
 20
14.6231
 30
0.0
 10
-112.0797
 20
14.6231
 30
0.0
 10
-107.9828
 20
12.5262
 30
0.0
 10
-107.9828
 20
12.5262
 30
0.0
 10
-105.7038
 20
14.3328
 30
0.0
 10
-104.0124
 20
17.4503
 30
0.0
 10
-103.297
 20
21.1641
 30
0.0
 10
-103.297
 20
21.1641
 30
0.0
 10
-103.2532
 20
23.8035
 30
0.0
 10
-103.9193
 20
26.3591
 30
0.0
 10
-105.1454
 20
28.2546
 30
0.0
 10
-105.1454
 20
28.2546
 30
0.0
 10
-106.5698
 20
31.1133
 30
0.0
 10
-108.3692
 20
33.504
 30
0.0
 10
-110.4331
 20
35.2802
 30
0.0
 10
-110.4331
 20
35.2802
 30
0.0
 10
-115.6454
 20
39.7176
 30
0.0
 10
-121.4114
 20
42.4973
 30
0.0
 10
-127.3713
 20
43.4462
 30
0.0
  0
SPLINE
  5
48
330
1F
100
AcDbEntity
  8
layer 1
 62
     7
370
     9
100
AcDbSpline
210
0.0
220
0.0
230
1.0
 70
    11
 71
     3
 72
    52
 73
    48
 74
     0
 42
0.0000000001
 43
0.0000000001
 12
1.0
 22
0.0
 32
0.0
 13
1.0
 23
0.0
 33
0.0
 40
0.0
 40
0.0
 40
0.0
 40
0.0
 40
0.0769230769230769
 40
0.0769230769230769
 40
0.0769230769230769
 40
0.0769230769230769
 40
0.1538461538461539
 40
0.1538461538461539
 40
0.1538461538461539
 40
0.1538461538461539
 40
0.2307692307692308
 40
0.2307692307692308
 40
0.2307692307692308
 40
0.2307692307692308
 40
0.3076923076923077
 40
0.3076923076923077
 40
0.3076923076923077
 40
0.3076923076923077
 40
0.3846153846153846
 40
0.3846153846153846
 40
0.3846153846153846
 40
0.3846153846153846
 40
0.4615384615384616
 40
0.4615384615384616
 40
0.4615384615384616
 40
0.4615384615384616
 40
0.5384615384615384
 40
0.5384615384615384
 40
0.5384615384615384
 40
0.5384615384615384
 40
0.6153846153846154
 40
0.6153846153846154
 40
0.6153846153846154
 40
0.6153846153846154
 40
0.6923076923076923
 40
0.6923076923076923
 40
0.6923076923076923
 40
0.6923076923076923
 40
0.7692307692307693
 40
0.7692307692307693
 40
0.7692307692307693
 40
0.7692307692307693
 40
0.8461538461538461
 40
0.8461538461538461
 40
0.8461538461538461
 40
0.8461538461538461
 40
1.0
 40
1.0
 40
1.0
 40
1.0
 10
-124.4936
 20
54.5532
 30
0.0
 10
-123.9002
 20
55.7689
 30
0.0
 10
-123.347
 20
57.0274
 30
0.0
 10
-122.836
 20
58.324
 30
0.0
 10
-122.836
 20
58.324
 30
0.0
 10
-124.3312
 20
57.6212
 30
0.0
 10
-125.8361
 20
56.9658
 30
0.0
 10
-127.35
 20
56.3581
 30
0.0
 10
-127.35
 20
56.3581
 30
0.0
 10
-127.35
 20
56.3581
 30
0.0
 10
-127.3713
 20
56.346
 30
0.0
 10
-127.3713
 20
56.346
 30
0.0
 10
-127.3713
 20
56.346
 30
0.0
 10
-127.3713
 20
56.346
 30
0.0
 10
-127.3929
 20
56.3581
 30
0.0
 10
-127.3929
 20
56.3581
 30
0.0
 10
-127.3929
 20
56.3581
 30
0.0
 10
-128.9068
 20
56.9658
 30
0.0
 10
-130.4117
 20
57.6212
 30
0.0
 10
-131.9069
 20
58.324
 30
0.0
 10
-131.9069
 20
58.324
 30
0.0
 10
-131.3959
 20
57.0274
 30
0.0
 10
-130.8426
 20
55.7689
 30
0.0
 10
-130.2491
 20
54.5532
 30
0.0
 10
-130.2491
 20
54.5532
 30
0.0
 10
-130.8426
 20
53.3378
 30
0.0
 10
-131.3959
 20
52.0794
 30
0.0
 10
-131.9069
 20
50.7824
 30
0.0
 10
-131.9069
 20
50.7824
 30
0.0
 10
-130.4117
 20
51.4856
 30
0.0
 10
-128.9068
 20
52.141
 30
0.0
 10
-127.3929
 20
52.7486
 30
0.0
 10
-127.3929
 20
52.7486
 30
0.0
 10
-127.3929
 20
52.7486
 30
0.0
 10
-127.3713
 20
52.7607
 30
0.0
 10
-127.3713
 20
52.7607
 30
0.0
 10
-127.3713
 20
52.7607
 30
0.0
 10
-127.3713
 20
52.7607
 30
0.0
 10
-127.35
 20
52.7486
 30
0.0
 10
-127.35
 20
52.7486
 30
0.0
 10
-127.35
 20
52.7486
 30
0.0
 10
-125.8361
 20
52.141
 30
0.0
 10
-124.3312
 20
51.4856
 30
0.0
 10
-122.836
 20
50.7824
 30
0.0
 10
-122.836
 20
50.7824
 30
0.0
 10
-123.347
 20
52.0794
 30
0.0
 10
-123.9002
 20
53.3378
 30
0.0
 10
-124.4936
 20
54.5532
 30
0.0
  0
SPLINE
  5
49
330
1F
100
AcDbEntity
  8
layer 1
 62
     7
370
     9
100
AcDbSpline
210
0.0
220
0.0
230
1.0
 70
    11
 71
     3
 72
    68
 73
    64
 74
     0
 42
0.0000000001
 43
0.0000000001
 12
1.0
 22
0.0
 32
0.0
 13
1.0
 23
0.0
 33
0.0
 40
0.0
 40
0.0
 40
0.0
 40
0.0
 40
0.0588235294117647
 40
0.0588235294117647
 40
0.0588235294117647
 40
0.0588235294117647
 40
0.1176470588235294
 40
0.1176470588235294
 40
0.1176470588235294
 40
0.1176470588235294
 40
0.1764705882352941
 40
0.1764705882352941
 40
0.1764705882352941
 40
0.1764705882352941
 40
0.2352941176470588
 40
0.2352941176470588
 40
0.2352941176470588
 40
0.2352941176470588
 40
0.2941176470588235
 40
0.2941176470588235
 40
0.2941176470588235
 40
0.2941176470588235
 40
0.3529411764705883
 40
0.3529411764705883
 40
0.3529411764705883
 40
0.3529411764705883
 40
0.4117647058823529
 40
0.4117647058823529
 40
0.4117647058823529
 40
0.4117647058823529
 40
0.4705882352941176
 40
0.4705882352941176
 40
0.4705882352941176
 40
0.4705882352941176
 40
0.5294117647058824
 40
0.5294117647058824
 40
0.5294117647058824
 40
0.5294117647058824
 40
0.5882352941176471
 40
0.5882352941176471
 40
0.5882352941176471
 40
0.5882352941176471
 40
0.6470588235294118
 40
0.6470588235294118
 40
0.6470588235294118
 40
0.6470588235294118
 40
0.7058823529411765
 40
0.7058823529411765
 40
0.7058823529411765
 40
0.7058823529411765
 40
0.7647058823529411
 40
0.7647058823529411
 40
0.7647058823529411
 40
0.7647058823529411
 40
0.8235294117647058
 40
0.8235294117647058
 40
0.8235294117647058
 40
0.8235294117647058
 40
0.8823529411764706
 40
0.8823529411764706
 40
0.8823529411764706
 40
0.8823529411764706
 40
1.0
 40
1.0
 40
1.0
 40
1.0
 10
-156.5013
 20
23.6779
 30
0.0
 10
-157.8327
 20
18.1229
 30
0.0
 10
-156.4912
 20
11.9206
 30
0.0
 10
-153.239
 20
8.5947
 30
0.0
 10
-153.239
 20
8.5947
 30
0.0
 10
-156.4912
 20
5.2683
 30
0.0
 10
-157.8327
 20
-0.9334
 30
0.0
 10
-156.5013
 20
-6.4885
 30
0.0
 10
-156.5013
 20
-6.4885
 30
0.0
 10
-158.4102
 20
-5.5092
 30
0.0
 10
-160.1866
 20
-4.0244
 30
0.0
 10
-161.7462
 20
-2.1055
 30
0.0
 10
-161.7462
 20
-2.1055
 30
0.0
 10
-162.2647
 20
-1.5208
 30
0.0
 10
-162.6722
 20
-0.7433
 30
0.0
 10
-162.9283
 20
0.1506
 30
0.0
 10
-162.9283
 20
0.1506
 30
0.0
 10
-163.1584
 20
1.0761
 30
0.0
 10
-162.8784
 20
2.1112
 30
0.0
 10
-162.2836
 20
2.5353
 30
0.0
 10
-162.2836
 20
2.5353
 30
0.0
 10
-161.4006
 20
2.8633
 30
0.0
 10
-160.4664
 20
2.5404
 30
0.0
 10
-159.7686
 20
1.6653
 30
0.0
 10
-159.7686
 20
1.6653
 30
0.0
 10
-160.3138
 20
3.6168
 30
0.0
 10
-161.5037
 20
4.9947
 30
0.0
 10
-162.9009
 20
5.2917
 30
0.0
 10
-162.9009
 20
5.2917
 30
0.0
 10
-164.2981
 20
5.5891
 30
0.0
 10
-165.6966
 20
4.7624
 30
0.0
 10
-166.5825
 20
3.1155
 30
0.0
 10
-166.5825
 20
3.1155
 30
0.0
 10
-168.7059
 20
5.9665
 30
0.0
 10
-171.3208
 20
7.8651
 30
0.0
 10
-174.129
 20
8.5947
 30
0.0
 10
-174.129
 20
8.5947
 30
0.0
 10
-171.3208
 20
9.3243
 30
0.0
 10
-168.7059
 20
11.223
 30
0.0
 10
-166.5825
 20
14.0735
 30
0.0
 10
-166.5825
 20
14.0735
 30
0.0
 10
-165.6966
 20
12.4265
 30
0.0
 10
-164.2981
 20
11.5998
 30
0.0
 10
-162.9009
 20
11.8973
 30
0.0
 10
-162.9009
 20
11.8973
 30
0.0
 10
-161.5037
 20
12.1947
 30
0.0
 10
-160.3138
 20
13.5721
 30
0.0
 10
-159.7686
 20
15.5236
 30
0.0
 10
-159.7686
 20
15.5236
 30
0.0
 10
-160.4664
 20
14.649
 30
0.0
 10
-161.4006
 20
14.3257
 30
0.0
 10
-162.2836
 20
14.6536
 30
0.0
 10
-162.2836
 20
14.6536
 30
0.0
 10
-162.8784
 20
15.0777
 30
0.0
 10
-163.1584
 20
16.113
 30
0.0
 10
-162.9283
 20
17.0383
 30
0.0
 10
-162.9283
 20
17.0383
 30
0.0
 10
-162.6722
 20
17.9322
 30
0.0
 10
-162.2647
 20
18.7103
 30
0.0
 10
-161.7462
 20
19.2944
 30
0.0
 10
-161.7462
 20
19.2944
 30
0.0
 10
-160.1866
 20
21.2138
 30
0.0
 10
-158.4102
 20
22.6981
 30
0.0
 10
-156.5013
 20
23.6779
 30
0.0
  0
SPLINE
  5
4A
330
1F
100
AcDbEntity
  8
layer 1
 62
     7
370
     9
100
AcDbSpline
210
0.0
220
0.0
230
1.0
 70
    11
 71
     3
 72
    44
 73
    40
 74
     0
 42
0.0000000001
 43
0.0000000001
 12
1.0
 22
0.0
 32
0.0
 13
1.0
 23
0.0
 33
0.0
 40
0.0
 40
0.0
 40
0.0
 40
0.0
 40
0.0909090909090909
 40
0.0909090909090909
 40
0.0909090909090909
 40
0.0909090909090909
 40
0.1818181818181818
 40
0.1818181818181818
 40
0.1818181818181818
 40
0.1818181818181818
 40
0.2727272727272727
 40
0.2727272727272727
 40
0.2727272727272727
 40
0.2727272727272727
 40
0.3636363636363636
 40
0.3636363636363636
 40
0.3636363636363636
 40
0.3636363636363636
 40
0.4545454545454545
 40
0.4545454545454545
 40
0.4545454545454545
 40
0.4545454545454545
 40
0.5454545454545454
 40
0.5454545454545454
 40
0.5454545454545454
 40
0.5454545454545454
 40
0.6363636363636364
 40
0.6363636363636364
 40
0.6363636363636364
 40
0.6363636363636364
 40
0.7272727272727273
 40
0.7272727272727273
 40
0.7272727272727273
 40
0.7272727272727273
 40
0.8181818181818182
 40
0.8181818181818182
 40
0.8181818181818182
 40
0.8181818181818182
 40
1.0
 40
1.0
 40
1.0
 40
1.0
 10
-175.2194
 20
29.93
 30
0.0
 10
-175.3212
 20
24.1086
 30
0.0
 10
-175.3643
 20
18.2856
 30
0.0
 10
-175.3484
 20
12.4621
 30
0.0
 10
-175.3484
 20
12.4621
 30
0.0
 10
-174.0242
 20
14.5255
 30
0.0
 10
-172.448
 20
16.1887
 30
0.0
 10
-170.7055
 20
17.3607
 30
0.0
 10
-170.7055
 20
17.3607
 30
0.0
 10
-171.384
 20
17.6383
 30
0.0
 10
-171.9487
 20
18.3442
 30
0.0
 10
-172.2531
 20
19.2944
 30
0.0
 10
-172.2531
 20
19.2944
 30
0.0
 10
-172.7174
 20
20.4364
 30
0.0
 10
-172.4882
 20
21.9253
 30
0.0
 10
-171.7372
 20
22.6462
 30
0.0
 10
-171.7372
 20
22.6462
 30
0.0
 10
-170.7791
 20
23.3951
 30
0.0
 10
-169.7216
 20
23.8137
 30
0.0
 10
-168.642
 20
23.8711
 30
0.0
 10
-168.642
 20
23.8711
 30
0.0
 10
-169.1024
 20
23.3947
 30
0.0
 10
-169.3503
 20
22.577
 30
0.0
 10
-169.2868
 20
21.7443
 30
0.0
 10
-169.2868
 20
21.7443
 30
0.0
 10
-169.2142
 20
21.275
 30
0.0
 10
-168.9592
 20
20.9179
 30
0.0
 10
-168.642
 20
20.8417
 30
0.0
 10
-168.642
 20
20.8417
 30
0.0
 10
-166.9357
 20
20.5864
 30
0.0
 10
-165.2195
 20
21.1509
 30
0.0
 10
-163.741
 20
22.4531
 30
0.0
 10
-163.741
 20
22.4531
 30
0.0
 10
-162.4086
 20
23.683
 30
0.0
 10
-161.206
 20
25.2033
 30
0.0
 10
-160.1728
 20
26.9652
 30
0.0
 10
-160.1728
 20
26.9652
 30
0.0
 10
-165.2694
 20
25.4459
 30
0.0
 10
-170.5578
 20
26.4877
 30
0.0
 10
-175.2194
 20
29.93
 30
0.0
  0
SPLINE
  5
4B
330
1F
100
AcDbEntity
  8
layer 1
 62
     7
370
     9
100
AcDbSpline
210
0.0
220
0.0
230
1.0
 70
    11
 71
     3
 72
    40
 73
    36
 74
     0
 42
0.0000000001
 43
0.0000000001
 12
1.0
 22
0.0
 32
0.0
 13
1.0
 23
0.0
 33
0.0
 40
0.0
 40
0.0
 40
0.0
 40
0.0
 40
0.1
 40
0.1
 40
0.1
 40
0.1
 40
0.2
 40
0.2
 40
0.2
 40
0.2
 40
0.3
 40
0.3
 40
0.3
 40
0.3
 40
0.4
 40
0.4
 40
0.4
 40
0.4
 40
0.5
 40
0.5
 40
0.5
 40
0.5
 40
0.6
 40
0.6
 40
0.6
 40
0.6
 40
0.7
 40
0.7
 40
0.7
 40
0.7
 40
0.8
 40
0.8
 40
0.8
 40
0.8
 40
1.0
 40
1.0
 40
1.0
 40
1.0
 10
-170.2326
 20
91.2945
 30
0.0
 10
-170.8713
 20
90.8471
 30
0.0
 10
-171.4531
 20
90.2364
 30
0.0
 10
-171.9522
 20
89.4895
 30
0.0
 10
-171.9522
 20
89.4895
 30
0.0
 10
-172.4379
 20
88.6093
 30
0.0
 10
-172.4102
 20
87.3239
 30
0.0
 10
-171.8877
 20
86.4925
 30
0.0
 10
-171.8877
 20
86.4925
 30
0.0
 10
-171.0188
 20
85.2575
 30
0.0
 10
-169.8323
 20
84.6564
 30
0.0
 10
-168.642
 20
84.8487
 30
0.0
 10
-168.642
 20
84.8487
 30
0.0
 10
-169.1897
 20
85.3363
 30
0.0
 10
-169.4534
 20
86.3115
 30
0.0
 10
-169.2868
 20
87.234
 30
0.0
 10
-169.2868
 20
87.234
 30
0.0
 10
-169.0691
 20
87.8934
 30
0.0
 10
-168.5884
 20
88.26
 30
0.0
 10
-168.1045
 20
88.1359
 30
0.0
 10
-168.1045
 20
88.1359
 30
0.0
 10
-164.9482
 20
88.0154
 30
0.0
 10
-162.0253
 20
85.6145
 30
0.0
 10
-160.2589
 20
81.69
 30
0.0
 10
-160.2589
 20
81.69
 30
0.0
 10
-165.3072
 20
83.1626
 30
0.0
 10
-170.534
 20
82.3283
 30
0.0
 10
-175.2624
 20
79.2951
 30
0.0
 10
-175.2624
 20
79.2951
 30
0.0
 10
-175.2624
 20
79.2951
 30
0.0
 10
-175.2624
 20
96.6085
 30
0.0
 10
-175.2624
 20
96.6085
 30
0.0
 10
-175.2624
 20
96.6085
 30
0.0
 10
-174.0616
 20
93.9955
 30
0.0
 10
-172.278
 20
92.1105
 30
0.0
 10
-170.2326
 20
91.2945
 30
0.0
  0
SPLINE
  5
4C
330
1F
100
AcDbEntity
  8
layer 1
 62
     7
370
     9
100
AcDbSpline
210
0.0
220
0.0
230
1.0
 70
    11
 71
     3
 72
    40
 73
    36
 74
     0
 42
0.0000000001
 43
0.0000000001
 12
1.0
 22
0.0
 32
0.0
 13
1.0
 23
0.0
 33
0.0
 40
0.0
 40
0.0
 40
0.0
 40
0.0
 40
0.1
 40
0.1
 40
0.1
 40
0.1
 40
0.2
 40
0.2
 40
0.2
 40
0.2
 40
0.3
 40
0.3
 40
0.3
 40
0.3
 40
0.4
 40
0.4
 40
0.4
 40
0.4
 40
0.5
 40
0.5
 40
0.5
 40
0.5
 40
0.6
 40
0.6
 40
0.6
 40
0.6
 40
0.7
 40
0.7
 40
0.7
 40
0.7
 40
0.8
 40
0.8
 40
0.8
 40
0.8
 40
1.0
 40
1.0
 40
1.0
 40
1.0
 10
-166.3204
 20
94.9687
 30
0.0
 10
-164.9239
 20
96.9303
 30
0.0
 10
-162.8979
 20
97.508
 30
0.0
 10
-161.1186
 20
96.4514
 30
0.0
 10
-161.1186
 20
96.4514
 30
0.0
 10
-160.3416
 20
95.9399
 30
0.0
 10
-159.791
 20
94.8715
 30
0.0
 10
-159.6569
 20
93.6151
 30
0.0
 10
-159.6569
 20
93.6151
 30
0.0
 10
-160.2634
 20
93.9472
 30
0.0
 10
-160.903
 20
94.1216
 30
0.0
 10
-161.5485
 20
94.1307
 30
0.0
 10
-161.5485
 20
94.1307
 30
0.0
 10
-161.8854
 20
94.2598
 30
0.0
 10
-162.2427
 20
94.111
 30
0.0
 10
-162.4865
 20
93.7387
 30
0.0
 10
-162.4865
 20
93.7387
 30
0.0
 10
-162.73
 20
93.3671
 30
0.0
 10
-162.8231
 20
92.8286
 30
0.0
 10
-162.7308
 20
92.3262
 30
0.0
 10
-162.7308
 20
92.3262
 30
0.0
 10
-161.2692
 20
88.7863
 30
0.0
 10
-158.9375
 20
86.2505
 30
0.0
 10
-156.2394
 20
85.2677
 30
0.0
 10
-156.2394
 20
85.2677
 30
0.0
 10
-157.2916
 20
90.6624
 30
0.0
 10
-156.2575
 20
96.4864
 30
0.0
 10
-153.556
 20
100.3833
 30
0.0
 10
-153.556
 20
100.3833
 30
0.0
 10
-153.556
 20
100.3833
 30
0.0
 10
-172.396
 20
100.3833
 30
0.0
 10
-172.396
 20
100.3833
 30
0.0
 10
-172.396
 20
100.3833
 30
0.0
 10
-170.128
 20
99.2764
 30
0.0
 10
-168.0526
 20
97.4272
 30
0.0
 10
-166.3204
 20
94.9687
 30
0.0
  0
SPLINE
  5
4D
330
1F
100
AcDbEntity
  8
layer 1
 62
     7
370
     9
100
AcDbSpline
210
0.0
220
0.0
230
1.0
 70
    11
 71
     3
 72
    68
 73
    64
 74
     0
 42
0.0000000001
 43
0.0000000001
 12
1.0
 22
0.0
 32
0.0
 13
1.0
 23
0.0
 33
0.0
 40
0.0
 40
0.0
 40
0.0
 40
0.0
 40
0.0588235294117647
 40
0.0588235294117647
 40
0.0588235294117647
 40
0.0588235294117647
 40
0.1176470588235294
 40
0.1176470588235294
 40
0.1176470588235294
 40
0.1176470588235294
 40
0.1764705882352941
 40
0.1764705882352941
 40
0.1764705882352941
 40
0.1764705882352941
 40
0.2352941176470588
 40
0.2352941176470588
 40
0.2352941176470588
 40
0.2352941176470588
 40
0.2941176470588235
 40
0.2941176470588235
 40
0.2941176470588235
 40
0.2941176470588235
 40
0.3529411764705883
 40
0.3529411764705883
 40
0.3529411764705883
 40
0.3529411764705883
 40
0.4117647058823529
 40
0.4117647058823529
 40
0.4117647058823529
 40
0.4117647058823529
 40
0.4705882352941176
 40
0.4705882352941176
 40
0.4705882352941176
 40
0.4705882352941176
 40
0.5294117647058824
 40
0.5294117647058824
 40
0.5294117647058824
 40
0.5294117647058824
 40
0.5882352941176471
 40
0.5882352941176471
 40
0.5882352941176471
 40
0.5882352941176471
 40
0.6470588235294118
 40
0.6470588235294118
 40
0.6470588235294118
 40
0.6470588235294118
 40
0.7058823529411765
 40
0.7058823529411765
 40
0.7058823529411765
 40
0.7058823529411765
 40
0.7647058823529411
 40
0.7647058823529411
 40
0.7647058823529411
 40
0.7647058823529411
 40
0.8235294117647058
 40
0.8235294117647058
 40
0.8235294117647058
 40
0.8235294117647058
 40
0.8823529411764706
 40
0.8823529411764706
 40
0.8823529411764706
 40
0.8823529411764706
 40
1.0
 40
1.0
 40
1.0
 40
1.0
 10
-57.1255
 20
23.6779
 30
0.0
 10
-58.4568
 20
18.1229
 30
0.0
 10
-57.1151
 20
11.9206
 30
0.0
 10
-53.8628
 20
8.5947
 30
0.0
 10
-53.8628
 20
8.5947
 30
0.0
 10
-57.1151
 20
5.2683
 30
0.0
 10
-58.4568
 20
-0.9334
 30
0.0
 10
-57.1255
 20
-6.4885
 30
0.0
 10
-57.1255
 20
-6.4885
 30
0.0
 10
-59.0343
 20
-5.5092
 30
0.0
 10
-60.8106
 20
-4.0244
 30
0.0
 10
-62.3703
 20
-2.1055
 30
0.0
 10
-62.3703
 20
-2.1055
 30
0.0
 10
-62.8888
 20
-1.5208
 30
0.0
 10
-63.2964
 20
-0.7433
 30
0.0
 10
-63.5526
 20
0.1506
 30
0.0
 10
-63.5526
 20
0.1506
 30
0.0
 10
-63.7826
 20
1.0761
 30
0.0
 10
-63.5025
 20
2.1112
 30
0.0
 10
-62.9077
 20
2.5353
 30
0.0
 10
-62.9077
 20
2.5353
 30
0.0
 10
-62.0246
 20
2.8633
 30
0.0
 10
-61.0904
 20
2.5404
 30
0.0
 10
-60.3927
 20
1.6653
 30
0.0
 10
-60.3927
 20
1.6653
 30
0.0
 10
-60.9379
 20
3.6168
 30
0.0
 10
-62.1277
 20
4.9947
 30
0.0
 10
-63.525
 20
5.2917
 30
0.0
 10
-63.525
 20
5.2917
 30
0.0
 10
-64.9223
 20
5.5891
 30
0.0
 10
-66.3207
 20
4.7624
 30
0.0
 10
-67.2067
 20
3.1155
 30
0.0
 10
-67.2067
 20
3.1155
 30
0.0
 10
-69.33
 20
5.9665
 30
0.0
 10
-71.9449
 20
7.8651
 30
0.0
 10
-74.7531
 20
8.5947
 30
0.0
 10
-74.7531
 20
8.5947
 30
0.0
 10
-71.9449
 20
9.3243
 30
0.0
 10
-69.33
 20
11.223
 30
0.0
 10
-67.2067
 20
14.0735
 30
0.0
 10
-67.2067
 20
14.0735
 30
0.0
 10
-66.3207
 20
12.4265
 30
0.0
 10
-64.9223
 20
11.5998
 30
0.0
 10
-63.525
 20
11.8973
 30
0.0
 10
-63.525
 20
11.8973
 30
0.0
 10
-62.1277
 20
12.1947
 30
0.0
 10
-60.9379
 20
13.5721
 30
0.0
 10
-60.3927
 20
15.5236
 30
0.0
 10
-60.3927
 20
15.5236
 30
0.0
 10
-61.0904
 20
14.649
 30
0.0
 10
-62.0246
 20
14.3257
 30
0.0
 10
-62.9077
 20
14.6536
 30
0.0
 10
-62.9077
 20
14.6536
 30
0.0
 10
-63.5025
 20
15.0777
 30
0.0
 10
-63.7826
 20
16.113
 30
0.0
 10
-63.5526
 20
17.0383
 30
0.0
 10
-63.5526
 20
17.0383
 30
0.0
 10
-63.2964
 20
17.9322
 30
0.0
 10
-62.8888
 20
18.7103
 30
0.0
 10
-62.3703
 20
19.2944
 30
0.0
 10
-62.3703
 20
19.2944
 30
0.0
 10
-60.8106
 20
21.2138
 30
0.0
 10
-59.0343
 20
22.6981
 30
0.0
 10
-57.1255
 20
23.6779
 30
0.0
  0
SPLINE
  5
4E
330
1F
100
AcDbEntity
  8
layer 1
 62
     7
370
     9
100
AcDbSpline
210
0.0
220
0.0
230
1.0
 70
    11
 71
     3
 72
   124
 73
   120
 74
     0
 42
0.0000000001
 43
0.0000000001
 12
1.0
 22
0.0
 32
0.0
 13
1.0
 23
0.0
 33
0.0
 40
0.0
 40
0.0
 40
0.0
 40
0.0
 40
0.032258064516129
 40
0.032258064516129
 40
0.032258064516129
 40
0.032258064516129
 40
0.0645161290322581
 40
0.0645161290322581
 40
0.0645161290322581
 40
0.0645161290322581
 40
0.0967741935483871
 40
0.0967741935483871
 40
0.0967741935483871
 40
0.0967741935483871
 40
0.1290322580645161
 40
0.1290322580645161
 40
0.1290322580645161
 40
0.1290322580645161
 40
0.1612903225806452
 40
0.1612903225806452
 40
0.1612903225806452
 40
0.1612903225806452
 40
0.1935483870967742
 40
0.1935483870967742
 40
0.1935483870967742
 40
0.1935483870967742
 40
0.2258064516129032
 40
0.2258064516129032
 40
0.2258064516129032
 40
0.2258064516129032
 40
0.2580645161290323
 40
0.2580645161290323
 40
0.2580645161290323
 40
0.2580645161290323
 40
0.2903225806451613
 40
0.2903225806451613
 40
0.2903225806451613
 40
0.2903225806451613
 40
0.3225806451612903
 40
0.3225806451612903
 40
0.3225806451612903
 40
0.3225806451612903
 40
0.3548387096774194
 40
0.3548387096774194
 40
0.3548387096774194
 40
0.3548387096774194
 40
0.3870967741935484
 40
0.3870967741935484
 40
0.3870967741935484
 40
0.3870967741935484
 40
0.4193548387096774
 40
0.4193548387096774
 40
0.4193548387096774
 40
0.4193548387096774
 40
0.4516129032258064
 40
0.4516129032258064
 40
0.4516129032258064
 40
0.4516129032258064
 40
0.4838709677419355
 40
0.4838709677419355
 40
0.4838709677419355
 40
0.4838709677419355
 40
0.5161290322580645
 40
0.5161290322580645
 40
0.5161290322580645
 40
0.5161290322580645
 40
0.5483870967741935
 40
0.5483870967741935
 40
0.5483870967741935
 40
0.5483870967741935
 40
0.5806451612903226
 40
0.5806451612903226
 40
0.5806451612903226
 40
0.5806451612903226
 40
0.6129032258064516
 40
0.6129032258064516
 40
0.6129032258064516
 40
0.6129032258064516
 40
0.6451612903225806
 40
0.6451612903225806
 40
0.6451612903225806
 40
0.6451612903225806
 40
0.6774193548387096
 40
0.6774193548387096
 40
0.6774193548387096
 40
0.6774193548387096
 40
0.7096774193548387
 40
0.7096774193548387
 40
0.7096774193548387
 40
0.7096774193548387
 40
0.7419354838709677
 40
0.7419354838709677
 40
0.7419354838709677
 40
0.7419354838709677
 40
0.7741935483870968
 40
0.7741935483870968
 40
0.7741935483870968
 40
0.7741935483870968
 40
0.8064516129032258
 40
0.8064516129032258
 40
0.8064516129032258
 40
0.8064516129032258
 40
0.8387096774193549
 40
0.8387096774193549
 40
0.8387096774193549
 40
0.8387096774193549
 40
0.8709677419354839
 40
0.8709677419354839
 40
0.8709677419354839
 40
0.8709677419354839
 40
0.9032258064516129
 40
0.9032258064516129
 40
0.9032258064516129
 40
0.9032258064516129
 40
0.9354838709677419
 40
0.9354838709677419
 40
0.9354838709677419
 40
0.9354838709677419
 40
1.0
 40
1.0
 40
1.0
 40
1.0
 10
-55.8787
 20
54.4886
 30
0.0
 10
-54.1944
 20
53.7762
 30
0.0
 10
-52.8291
 20
51.9243
 30
0.0
 10
-52.188
 20
49.4832
 30
0.0
 10
-52.188
 20
49.4832
 30
0.0
 10
-51.5467
 20
47.042
 30
0.0
 10
-51.7035
 20
44.2912
 30
0.0
 10
-52.6115
 20
42.0484
 30
0.0
 10
-52.6115
 20
42.0484
 30
0.0
 10
-54.9909
 20
38.4626
 30
0.0
 10
-58.4528
 20
37.0181
 30
0.0
 10
-61.7255
 20
38.2456
 30
0.0
 10
-61.7255
 20
38.2456
 30
0.0
 10
-60.6394
 20
38.8943
 30
0.0
 10
-59.6247
 20
39.7852
 30
0.0
 10
-58.7162
 20
40.8881
 30
0.0
 10
-58.7162
 20
40.8881
 30
0.0
 10
-57.9536
 20
41.8704
 30
0.0
 10
-57.5408
 20
43.3303
 30
0.0
 10
-57.5999
 20
44.8353
 30
0.0
 10
-57.5999
 20
44.8353
 30
0.0
 10
-57.6589
 20
46.3398
 30
0.0
 10
-58.1831
 20
47.7172
 30
0.0
 10
-59.017
 20
48.5588
 30
0.0
 10
-59.017
 20
48.5588
 30
0.0
 10
-59.8826
 20
49.6875
 30
0.0
 10
-60.8918
 20
50.5428
 30
0.0
 10
-61.9835
 20
51.0727
 30
0.0
 10
-61.9835
 20
51.0727
 30
0.0
 10
-62.6904
 20
51.4158
 30
0.0
 10
-63.4581
 20
51.3467
 30
0.0
 10
-64.1329
 20
50.8794
 30
0.0
 10
-64.1329
 20
50.8794
 30
0.0
 10
-65.599
 20
50.0293
 30
0.0
 10
-67.2237
 20
50.0293
 30
0.0
 10
-68.6898
 20
50.8794
 30
0.0
 10
-68.6898
 20
50.8794
 30
0.0
 10
-69.3055
 20
51.0493
 30
0.0
 10
-69.9408
 20
50.8403
 30
0.0
 10
-70.4524
 20
50.2992
 30
0.0
 10
-70.4524
 20
50.2992
 30
0.0
 10
-71.3133
 20
49.3449
 30
0.0
 10
-72.2184
 20
48.483
 30
0.0
 10
-73.1609
 20
47.7209
 30
0.0
 10
-73.1609
 20
47.7209
 30
0.0
 10
-71.9594
 20
44.4153
 30
0.0
 10
-71.9918
 20
40.4102
 30
0.0
 10
-73.2467
 20
37.1497
 30
0.0
 10
-73.2467
 20
37.1497
 30
0.0
 10
-68.148
 20
31.5856
 30
0.0
 10
-61.4831
 20
30.4131
 30
0.0
 10
-55.6637
 20
34.0558
 30
0.0
 10
-55.6637
 20
34.0558
 30
0.0
 10
-50.9502
 20
36.1445
 30
0.0
 10
-46.7684
 20
40.3241
 30
0.0
 10
-43.6695
 20
46.0449
 30
0.0
 10
-43.6695
 20
46.0449
 30
0.0
 10
-42.4678
 20
48.7845
 30
0.0
 10
-41.3463
 20
51.6019
 30
0.0
 10
-40.3085
 20
54.4886
 30
0.0
 10
-40.3085
 20
54.4886
 30
0.0
 10
-41.3463
 20
57.3756
 30
0.0
 10
-42.4678
 20
60.1931
 30
0.0
 10
-43.6695
 20
62.9326
 30
0.0
 10
-43.6695
 20
62.9326
 30
0.0
 10
-46.7684
 20
68.6534
 30
0.0
 10
-50.9502
 20
72.8331
 30
0.0
 10
-55.6637
 20
74.9219
 30
0.0
 10
-55.6637
 20
74.9219
 30
0.0
 10
-61.4831
 20
78.5645
 30
0.0
 10
-68.148
 20
77.392
 30
0.0
 10
-73.2467
 20
71.8283
 30
0.0
 10
-73.2467
 20
71.8283
 30
0.0
 10
-71.9918
 20
68.5675
 30
0.0
 10
-71.9594
 20
64.5628
 30
0.0
 10
-73.1609
 20
61.2568
 30
0.0
 10
-73.1609
 20
61.2568
 30
0.0
 10
-72.2184
 20
60.4946
 30
0.0
 10
-71.3133
 20
59.6333
 30
0.0
 10
-70.4524
 20
58.6788
 30
0.0
 10
-70.4524
 20
58.6788
 30
0.0
 10
-69.9408
 20
58.1378
 30
0.0
 10
-69.3055
 20
57.9283
 30
0.0
 10
-68.6898
 20
58.0987
 30
0.0
 10
-68.6898
 20
58.0987
 30
0.0
 10
-67.2237
 20
58.9488
 30
0.0
 10
-65.599
 20
58.9488
 30
0.0
 10
-64.1329
 20
58.0987
 30
0.0
 10
-64.1329
 20
58.0987
 30
0.0
 10
-63.4581
 20
57.6308
 30
0.0
 10
-62.6904
 20
57.5618
 30
0.0
 10
-61.9835
 20
57.9054
 30
0.0
 10
-61.9835
 20
57.9054
 30
0.0
 10
-60.8918
 20
58.4348
 30
0.0
 10
-59.8826
 20
59.2899
 30
0.0
 10
-59.017
 20
60.4188
 30
0.0
 10
-59.017
 20
60.4188
 30
0.0
 10
-58.1831
 20
61.2604
 30
0.0
 10
-57.6589
 20
62.6377
 30
0.0
 10
-57.5999
 20
64.1423
 30
0.0
 10
-57.5999
 20
64.1423
 30
0.0
 10
-57.5408
 20
65.6474
 30
0.0
 10
-57.9536
 20
67.1071
 30
0.0
 10
-58.7162
 20
68.0895
 30
0.0
 10
-58.7162
 20
68.0895
 30
0.0
 10
-59.6247
 20
69.1924
 30
0.0
 10
-60.6394
 20
70.0833
 30
0.0
 10
-61.7255
 20
70.7326
 30
0.0
 10
-61.7255
 20
70.7326
 30
0.0
 10
-58.4528
 20
71.9595
 30
0.0
 10
-54.9909
 20
70.515
 30
0.0
 10
-52.6115
 20
66.9293
 30
0.0
 10
-52.6115
 20
66.9293
 30
0.0
 10
-51.7035
 20
64.6864
 30
0.0
 10
-51.5467
 20
61.9361
 30
0.0
 10
-52.188
 20
59.4945
 30
0.0
 10
-52.188
 20
59.4945
 30
0.0
 10
-52.8291
 20
57.0533
 30
0.0
 10
-54.1944
 20
55.2015
 30
0.0
 10
-55.8787
 20
54.4886
 30
0.0
  0
SPLINE
  5
4F
330
1F
100
AcDbEntity
  8
layer 1
 62
     7
370
     9
100
AcDbSpline
210
0.0
220
0.0
230
1.0
 70
    11
 71
     3
 72
   108
 73
   104
 74
     0
 42
0.0000000001
 43
0.0000000001
 12
1.0
 22
0.0
 32
0.0
 13
1.0
 23
0.0
 33
0.0
 40
0.0
 40
0.0
 40
0.0
 40
0.0
 40
0.037037037037037
 40
0.037037037037037
 40
0.037037037037037
 40
0.037037037037037
 40
0.0740740740740741
 40
0.0740740740740741
 40
0.0740740740740741
 40
0.0740740740740741
 40
0.1111111111111111
 40
0.1111111111111111
 40
0.1111111111111111
 40
0.1111111111111111
 40
0.1481481481481481
 40
0.1481481481481481
 40
0.1481481481481481
 40
0.1481481481481481
 40
0.1851851851851852
 40
0.1851851851851852
 40
0.1851851851851852
 40
0.1851851851851852
 40
0.2222222222222222
 40
0.2222222222222222
 40
0.2222222222222222
 40
0.2222222222222222
 40
0.2592592592592592
 40
0.2592592592592592
 40
0.2592592592592592
 40
0.2592592592592592
 40
0.2962962962962963
 40
0.2962962962962963
 40
0.2962962962962963
 40
0.2962962962962963
 40
0.3333333333333333
 40
0.3333333333333333
 40
0.3333333333333333
 40
0.3333333333333333
 40
0.3703703703703703
 40
0.3703703703703703
 40
0.3703703703703703
 40
0.3703703703703703
 40
0.4074074074074074
 40
0.4074074074074074
 40
0.4074074074074074
 40
0.4074074074074074
 40
0.4444444444444444
 40
0.4444444444444444
 40
0.4444444444444444
 40
0.4444444444444444
 40
0.4814814814814815
 40
0.4814814814814815
 40
0.4814814814814815
 40
0.4814814814814815
 40
0.5185185185185185
 40
0.5185185185185185
 40
0.5185185185185185
 40
0.5185185185185185
 40
0.5555555555555556
 40
0.5555555555555556
 40
0.5555555555555556
 40
0.5555555555555556
 40
0.5925925925925926
 40
0.5925925925925926
 40
0.5925925925925926
 40
0.5925925925925926
 40
0.6296296296296297
 40
0.6296296296296297
 40
0.6296296296296297
 40
0.6296296296296297
 40
0.6666666666666666
 40
0.6666666666666666
 40
0.6666666666666666
 40
0.6666666666666666
 40
0.7037037037037037
 40
0.7037037037037037
 40
0.7037037037037037
 40
0.7037037037037037
 40
0.7407407407407407
 40
0.7407407407407407
 40
0.7407407407407407
 40
0.7407407407407407
 40
0.7777777777777778
 40
0.7777777777777778
 40
0.7777777777777778
 40
0.7777777777777778
 40
0.8148148148148148
 40
0.8148148148148148
 40
0.8148148148148148
 40
0.8148148148148148
 40
0.8518518518518519
 40
0.8518518518518519
 40
0.8518518518518519
 40
0.8518518518518519
 40
0.8888888888888888
 40
0.8888888888888888
 40
0.8888888888888888
 40
0.8888888888888888
 40
0.9259259259259259
 40
0.9259259259259259
 40
0.9259259259259259
 40
0.9259259259259259
 40
1.0
 40
1.0
 40
1.0
 40
1.0
 10
-27.6342
 20
80.7169
 30
0.0
 10
-27.6342
 20
80.7169
 30
0.0
 10
-27.5913
 20
80.6589
 30
0.0
 10
-27.5913
 20
80.6589
 30
0.0
 10
-27.5913
 20
80.6589
 30
0.0
 10
-22.6999
 20
75.4288
 30
0.0
 10
-16.1757
 20
75.199
 30
0.0
 10
-11.126
 20
80.0788
 30
0.0
 10
-11.126
 20
80.0788
 30
0.0
 10
-9.9136
 20
81.6844
 30
0.0
 10
-9.428
 20
84.1954
 30
0.0
 10
-9.8793
 20
86.5245
 30
0.0
 10
-9.8793
 20
86.5245
 30
0.0
 10
-10.2849
 20
86.2815
 30
0.0
 10
-10.6735
 20
85.979
 30
0.0
 10
-11.04
 20
85.622
 30
0.0
 10
-11.04
 20
85.622
 30
0.0
 10
-12.7698
 20
83.2399
 30
0.0
 10
-15.0727
 20
82.0171
 30
0.0
 10
-17.4168
 20
82.2362
 30
0.0
 10
-17.4168
 20
82.2362
 30
0.0
 10
-19.7613
 20
82.4548
 30
0.0
 10
-21.9449
 20
84.0966
 30
0.0
 10
-23.4642
 20
86.7824
 30
0.0
 10
-23.4642
 20
86.7824
 30
0.0
 10
-23.6602
 20
87.3854
 30
0.0
 10
-23.691
 20
88.0794
 30
0.0
 10
-23.5502
 20
88.7161
 30
0.0
 10
-23.5502
 20
88.7161
 30
0.0
 10
-23.2149
 20
89.8108
 30
0.0
 10
-23.2469
 20
91.079
 30
0.0
 10
-23.636
 20
92.1324
 30
0.0
 10
-23.636
 20
92.1324
 30
0.0
 10
-21.8797
 20
96.245
 30
0.0
 10
-18.8537
 20
98.7435
 30
0.0
 10
-15.5972
 20
98.7715
 30
0.0
 10
-15.5972
 20
98.7715
 30
0.0
 10
-12.0861
 20
99.1971
 30
0.0
 10
-8.5946
 20
97.6585
 30
0.0
 10
-5.7954
 20
94.4531
 30
0.0
 10
-5.7954
 20
94.4531
 30
0.0
 10
-4.4447
 20
92.8484
 30
0.0
 10
-3.6091
 20
90.4627
 30
0.0
 10
-3.4945
 20
87.8847
 30
0.0
 10
-3.4945
 20
87.8847
 30
0.0
 10
-3.3799
 20
85.3068
 30
0.0
 10
-3.9968
 20
82.7761
 30
0.0
 10
-5.1932
 20
80.9166
 30
0.0
 10
-5.1932
 20
80.9166
 30
0.0
 10
-11.1897
 20
71.901
 30
0.0
 10
-19.1623
 20
66.4507
 30
0.0
 10
-27.6342
 20
65.5757
 30
0.0
 10
-27.6342
 20
65.5757
 30
0.0
 10
-36.106
 20
66.4507
 30
0.0
 10
-44.0789
 20
71.901
 30
0.0
 10
-50.0751
 20
80.9166
 30
0.0
 10
-50.0751
 20
80.9166
 30
0.0
 10
-51.2715
 20
82.7761
 30
0.0
 10
-51.8887
 20
85.3068
 30
0.0
 10
-51.7738
 20
87.8847
 30
0.0
 10
-51.7738
 20
87.8847
 30
0.0
 10
-51.6592
 20
90.4627
 30
0.0
 10
-50.8238
 20
92.8484
 30
0.0
 10
-49.4732
 20
94.4531
 30
0.0
 10
-49.4732
 20
94.4531
 30
0.0
 10
-46.674
 20
97.6585
 30
0.0
 10
-43.1825
 20
99.1971
 30
0.0
 10
-39.6714
 20
98.7715
 30
0.0
 10
-39.6714
 20
98.7715
 30
0.0
 10
-36.4146
 20
98.7435
 30
0.0
 10
-33.3888
 20
96.245
 30
0.0
 10
-31.6323
 20
92.1324
 30
0.0
 10
-31.6323
 20
92.1324
 30
0.0
 10
-32.0218
 20
91.079
 30
0.0
 10
-32.0534
 20
89.8108
 30
0.0
 10
-31.7184
 20
88.7161
 30
0.0
 10
-31.7184
 20
88.7161
 30
0.0
 10
-31.5776
 20
88.0794
 30
0.0
 10
-31.6084
 20
87.3854
 30
0.0
 10
-31.8041
 20
86.7824
 30
0.0
 10
-31.8041
 20
86.7824
 30
0.0
 10
-33.3238
 20
84.0966
 30
0.0
 10
-35.5072
 20
82.4548
 30
0.0
 10
-37.8516
 20
82.2362
 30
0.0
 10
-37.8516
 20
82.2362
 30
0.0
 10
-40.196
 20
82.0171
 30
0.0
 10
-42.4985
 20
83.2399
 30
0.0
 10
-44.2283
 20
85.622
 30
0.0
 10
-44.2283
 20
85.622
 30
0.0
 10
-44.5948
 20
85.979
 30
0.0
 10
-44.9834
 20
86.2815
 30
0.0
 10
-45.3892
 20
86.5245
 30
0.0
 10
-45.3892
 20
86.5245
 30
0.0
 10
-45.8403
 20
84.1954
 30
0.0
 10
-45.3551
 20
81.6844
 30
0.0
 10
-44.1426
 20
80.0788
 30
0.0
 10
-44.1426
 20
80.0788
 30
0.0
 10
-39.0926
 20
75.199
 30
0.0
 10
-32.5687
 20
75.4288
 30
0.0
 10
-27.6774
 20
80.6589
 30
0.0
 10
-27.6774
 20
80.6589
 30
0.0
 10
-27.6774
 20
80.6589
 30
0.0
 10
-27.6342
 20
80.7169
 30
0.0
 10
-27.6342
 20
80.7169
 30
0.0
  0
SPLINE
  5
50
330
1F
100
AcDbEntity
  8
layer 1
 62
     7
370
     9
100
AcDbSpline
210
0.0
220
0.0
230
1.0
 70
    11
 71
     3
 72
   132
 73
   128
 74
     0
 42
0.0000000001
 43
0.0000000001
 12
1.0
 22
0.0
 32
0.0
 13
1.0
 23
0.0
 33
0.0
 40
0.0
 40
0.0
 40
0.0
 40
0.0
 40
0.0303030303030303
 40
0.0303030303030303
 40
0.0303030303030303
 40
0.0303030303030303
 40
0.0606060606060606
 40
0.0606060606060606
 40
0.0606060606060606
 40
0.0606060606060606
 40
0.0909090909090909
 40
0.0909090909090909
 40
0.0909090909090909
 40
0.0909090909090909
 40
0.1212121212121212
 40
0.1212121212121212
 40
0.1212121212121212
 40
0.1212121212121212
 40
0.1515151515151515
 40
0.1515151515151515
 40
0.1515151515151515
 40
0.1515151515151515
 40
0.1818181818181818
 40
0.1818181818181818
 40
0.1818181818181818
 40
0.1818181818181818
 40
0.2121212121212121
 40
0.2121212121212121
 40
0.2121212121212121
 40
0.2121212121212121
 40
0.2424242424242424
 40
0.2424242424242424
 40
0.2424242424242424
 40
0.2424242424242424
 40
0.2727272727272727
 40
0.2727272727272727
 40
0.2727272727272727
 40
0.2727272727272727
 40
0.303030303030303
 40
0.303030303030303
 40
0.303030303030303
 40
0.303030303030303
 40
0.3333333333333333
 40
0.3333333333333333
 40
0.3333333333333333
 40
0.3333333333333333
 40
0.3636363636363636
 40
0.3636363636363636
 40
0.3636363636363636
 40
0.3636363636363636
 40
0.3939393939393939
 40
0.3939393939393939
 40
0.3939393939393939
 40
0.3939393939393939
 40
0.4242424242424243
 40
0.4242424242424243
 40
0.4242424242424243
 40
0.4242424242424243
 40
0.4545454545454545
 40
0.4545454545454545
 40
0.4545454545454545
 40
0.4545454545454545
 40
0.4848484848484849
 40
0.4848484848484849
 40
0.4848484848484849
 40
0.4848484848484849
 40
0.5151515151515151
 40
0.5151515151515151
 40
0.5151515151515151
 40
0.5151515151515151
 40
0.5454545454545454
 40
0.5454545454545454
 40
0.5454545454545454
 40
0.5454545454545454
 40
0.5757575757575758
 40
0.5757575757575758
 40
0.5757575757575758
 40
0.5757575757575758
 40
0.6060606060606061
 40
0.6060606060606061
 40
0.6060606060606061
 40
0.6060606060606061
 40
0.6363636363636364
 40
0.6363636363636364
 40
0.6363636363636364
 40
0.6363636363636364
 40
0.6666666666666666
 40
0.6666666666666666
 40
0.6666666666666666
 40
0.6666666666666666
 40
0.696969696969697
 40
0.696969696969697
 40
0.696969696969697
 40
0.696969696969697
 40
0.7272727272727273
 40
0.7272727272727273
 40
0.7272727272727273
 40
0.7272727272727273
 40
0.7575757575757576
 40
0.7575757575757576
 40
0.7575757575757576
 40
0.7575757575757576
 40
0.7878787878787878
 40
0.7878787878787878
 40
0.7878787878787878
 40
0.7878787878787878
 40
0.8181818181818182
 40
0.8181818181818182
 40
0.8181818181818182
 40
0.8181818181818182
 40
0.8484848484848485
 40
0.8484848484848485
 40
0.8484848484848485
 40
0.8484848484848485
 40
0.8787878787878788
 40
0.8787878787878788
 40
0.8787878787878788
 40
0.8787878787878788
 40
0.9090909090909091
 40
0.9090909090909091
 40
0.9090909090909091
 40
0.9090909090909091
 40
0.9393939393939394
 40
0.9393939393939394
 40
0.9393939393939394
 40
0.9393939393939394
 40
1.0
 40
1.0
 40
1.0
 40
1.0
 10
-15.6875
 20
54.5532
 30
0.0
 10
-15.1173
 20
53.4177
 30
0.0
 10
-14.6395
 20
52.1842
 30
0.0
 10
-14.2643
 20
50.8794
 30
0.0
 10
-14.2643
 20
50.8794
 30
0.0
 10
-13.3354
 20
47.4533
 30
0.0
 10
-11.8051
 20
44.4686
 30
0.0
 10
-9.8361
 20
42.2421
 30
0.0
 10
-9.8361
 20
42.2421
 30
0.0
 10
-5.7188
 20
37.1427
 30
0.0
 10
-0.7285
 20
33.8818
 30
0.0
 10
4.5654
 20
32.8308
 30
0.0
 10
4.5654
 20
32.8308
 30
0.0
 10
8.6159
 20
31.852
 30
0.0
 10
12.7637
 20
33.2107
 30
0.0
 10
16.1729
 20
36.6337
 30
0.0
 10
16.1729
 20
36.6337
 30
0.0
 10
17.9381
 20
38.2892
 30
0.0
 10
18.896
 20
41.3385
 30
0.0
 10
18.6232
 20
44.4336
 30
0.0
 10
18.6232
 20
44.4336
 30
0.0
 10
17.8237
 20
47.9614
 30
0.0
 10
15.8496
 20
50.6034
 30
0.0
 10
13.4215
 20
51.3951
 30
0.0
 10
13.4215
 20
51.3951
 30
0.0
 10
11.4398
 20
50.6506
 30
0.0
 10
9.3612
 20
50.7172
 30
0.0
 10
7.4028
 20
51.5882
 30
0.0
 10
7.4028
 20
51.5882
 30
0.0
 10
7.1285
 20
51.9426
 30
0.0
 10
6.7399
 20
52.0189
 30
0.0
 10
6.414
 20
51.7815
 30
0.0
 10
6.414
 20
51.7815
 30
0.0
 10
5.0093
 20
51.1855
 30
0.0
 10
3.7245
 20
50.0786
 30
0.0
 10
2.6738
 20
48.5588
 30
0.0
 10
2.6738
 20
48.5588
 30
0.0
 10
1.837
 20
47.5545
 30
0.0
 10
1.4245
 20
45.9539
 30
0.0
 10
1.5934
 20
44.367
 30
0.0
 10
1.5934
 20
44.367
 30
0.0
 10
1.7624
 20
42.78
 30
0.0
 10
2.487
 20
41.4514
 30
0.0
 10
3.4908
 20
40.8881
 30
0.0
 10
3.4908
 20
40.8881
 30
0.0
 10
4.3682
 20
40.5554
 30
0.0
 10
5.1517
 20
39.8101
 30
0.0
 10
5.726
 20
38.7611
 30
0.0
 10
5.726
 20
38.7611
 30
0.0
 10
3.4045
 20
38.0768
 30
0.0
 10
0.9979
 20
38.5053
 30
0.0
 10
-1.1522
 20
39.9855
 30
0.0
 10
-1.1522
 20
39.9855
 30
0.0
 10
-2.5989
 20
40.9764
 30
0.0
 10
-3.7588
 20
42.7154
 30
0.0
 10
-4.4197
 20
44.8846
 30
0.0
 10
-4.4197
 20
44.8846
 30
0.0
 10
-4.7891
 20
46.9378
 30
0.0
 10
-4.5855
 20
49.1283
 30
0.0
 10
-3.8558
 20
50.9522
 30
0.0
 10
-3.8558
 20
50.9522
 30
0.0
 10
-3.1261
 20
52.776
 30
0.0
 10
-1.9329
 20
54.0757
 30
0.0
 10
-0.5506
 20
54.5532
 30
0.0
 10
-0.5506
 20
54.5532
 30
0.0
 10
-1.9329
 20
55.0305
 30
0.0
 10
-3.1261
 20
56.3308
 30
0.0
 10
-3.8558
 20
58.1546
 30
0.0
 10
-3.8558
 20
58.1546
 30
0.0
 10
-4.5855
 20
59.9785
 30
0.0
 10
-4.7891
 20
62.1684
 30
0.0
 10
-4.4197
 20
64.2222
 30
0.0
 10
-4.4197
 20
64.2222
 30
0.0
 10
-3.7588
 20
66.3908
 30
0.0
 10
-2.5989
 20
68.1302
 30
0.0
 10
-1.1522
 20
69.1207
 30
0.0
 10
-1.1522
 20
69.1207
 30
0.0
 10
0.9979
 20
70.6013
 30
0.0
 10
3.4045
 20
71.03
 30
0.0
 10
5.726
 20
70.3456
 30
0.0
 10
5.726
 20
70.3456
 30
0.0
 10
5.1517
 20
69.2966
 30
0.0
 10
4.3682
 20
68.5512
 30
0.0
 10
3.4908
 20
68.2182
 30
0.0
 10
3.4908
 20
68.2182
 30
0.0
 10
2.487
 20
67.6553
 30
0.0
 10
1.7624
 20
66.3266
 30
0.0
 10
1.5934
 20
64.7397
 30
0.0
 10
1.5934
 20
64.7397
 30
0.0
 10
1.4245
 20
63.1528
 30
0.0
 10
1.837
 20
61.5517
 30
0.0
 10
2.6738
 20
60.5479
 30
0.0
 10
2.6738
 20
60.5479
 30
0.0
 10
3.7245
 20
59.0282
 30
0.0
 10
5.0093
 20
57.9207
 30
0.0
 10
6.414
 20
57.3253
 30
0.0
 10
6.414
 20
57.3253
 30
0.0
 10
6.7399
 20
57.0879
 30
0.0
 10
7.1285
 20
57.1641
 30
0.0
 10
7.4028
 20
57.5186
 30
0.0
 10
7.4028
 20
57.5186
 30
0.0
 10
9.3612
 20
58.389
 30
0.0
 10
11.4398
 20
58.4561
 30
0.0
 10
13.4215
 20
57.7117
 30
0.0
 10
13.4215
 20
57.7117
 30
0.0
 10
15.8496
 20
58.5034
 30
0.0
 10
17.8237
 20
61.1454
 30
0.0
 10
18.6232
 20
64.6732
 30
0.0
 10
18.6232
 20
64.6732
 30
0.0
 10
18.896
 20
67.7683
 30
0.0
 10
17.9381
 20
70.817
 30
0.0
 10
16.1729
 20
72.4726
 30
0.0
 10
16.1729
 20
72.4726
 30
0.0
 10
12.7637
 20
75.896
 30
0.0
 10
8.6159
 20
77.2546
 30
0.0
 10
4.5654
 20
76.2758
 30
0.0
 10
4.5654
 20
76.2758
 30
0.0
 10
-0.7285
 20
75.2248
 30
0.0
 10
-5.7188
 20
71.9635
 30
0.0
 10
-9.8361
 20
66.8647
 30
0.0
 10
-9.8361
 20
66.8647
 30
0.0
 10
-11.8051
 20
64.6381
 30
0.0
 10
-13.3354
 20
61.6529
 30
0.0
 10
-14.2643
 20
58.2273
 30
0.0
 10
-14.2643
 20
58.2273
 30
0.0
 10
-14.6395
 20
56.9221
 30
0.0
 10
-15.1173
 20
55.6885
 30
0.0
 10
-15.6875
 20
54.5532
 30
0.0
  0
SPLINE
  5
51
330
1F
100
AcDbEntity
  8
layer 1
 62
     7
370
     9
100
AcDbSpline
210
0.0
220
0.0
230
1.0
 70
    11
 71
     3
 72
   124
 73
   120
 74
     0
 42
0.0000000001
 43
0.0000000001
 12
1.0
 22
0.0
 32
0.0
 13
1.0
 23
0.0
 33
0.0
 40
0.0
 40
0.0
 40
0.0
 40
0.0
 40
0.032258064516129
 40
0.032258064516129
 40
0.032258064516129
 40
0.032258064516129
 40
0.0645161290322581
 40
0.0645161290322581
 40
0.0645161290322581
 40
0.0645161290322581
 40
0.0967741935483871
 40
0.0967741935483871
 40
0.0967741935483871
 40
0.0967741935483871
 40
0.1290322580645161
 40
0.1290322580645161
 40
0.1290322580645161
 40
0.1290322580645161
 40
0.1612903225806452
 40
0.1612903225806452
 40
0.1612903225806452
 40
0.1612903225806452
 40
0.1935483870967742
 40
0.1935483870967742
 40
0.1935483870967742
 40
0.1935483870967742
 40
0.2258064516129032
 40
0.2258064516129032
 40
0.2258064516129032
 40
0.2258064516129032
 40
0.2580645161290323
 40
0.2580645161290323
 40
0.2580645161290323
 40
0.2580645161290323
 40
0.2903225806451613
 40
0.2903225806451613
 40
0.2903225806451613
 40
0.2903225806451613
 40
0.3225806451612903
 40
0.3225806451612903
 40
0.3225806451612903
 40
0.3225806451612903
 40
0.3548387096774194
 40
0.3548387096774194
 40
0.3548387096774194
 40
0.3548387096774194
 40
0.3870967741935484
 40
0.3870967741935484
 40
0.3870967741935484
 40
0.3870967741935484
 40
0.4193548387096774
 40
0.4193548387096774
 40
0.4193548387096774
 40
0.4193548387096774
 40
0.4516129032258064
 40
0.4516129032258064
 40
0.4516129032258064
 40
0.4516129032258064
 40
0.4838709677419355
 40
0.4838709677419355
 40
0.4838709677419355
 40
0.4838709677419355
 40
0.5161290322580645
 40
0.5161290322580645
 40
0.5161290322580645
 40
0.5161290322580645
 40
0.5483870967741935
 40
0.5483870967741935
 40
0.5483870967741935
 40
0.5483870967741935
 40
0.5806451612903226
 40
0.5806451612903226
 40
0.5806451612903226
 40
0.5806451612903226
 40
0.6129032258064516
 40
0.6129032258064516
 40
0.6129032258064516
 40
0.6129032258064516
 40
0.6451612903225806
 40
0.6451612903225806
 40
0.6451612903225806
 40
0.6451612903225806
 40
0.6774193548387096
 40
0.6774193548387096
 40
0.6774193548387096
 40
0.6774193548387096
 40
0.7096774193548387
 40
0.7096774193548387
 40
0.7096774193548387
 40
0.7096774193548387
 40
0.7419354838709677
 40
0.7419354838709677
 40
0.7419354838709677
 40
0.7419354838709677
 40
0.7741935483870968
 40
0.7741935483870968
 40
0.7741935483870968
 40
0.7741935483870968
 40
0.8064516129032258
 40
0.8064516129032258
 40
0.8064516129032258
 40
0.8064516129032258
 40
0.8387096774193549
 40
0.8387096774193549
 40
0.8387096774193549
 40
0.8387096774193549
 40
0.8709677419354839
 40
0.8709677419354839
 40
0.8709677419354839
 40
0.8709677419354839
 40
0.9032258064516129
 40
0.9032258064516129
 40
0.9032258064516129
 40
0.9032258064516129
 40
0.9354838709677419
 40
0.9354838709677419
 40
0.9354838709677419
 40
0.9354838709677419
 40
1.0
 40
1.0
 40
1.0
 40
1.0
 10
-27.6342
 20
43.4462
 30
0.0
 10
-21.6739
 20
42.4973
 30
0.0
 10
-15.9081
 20
39.7176
 30
0.0
 10
-10.6963
 20
35.2802
 30
0.0
 10
-10.6963
 20
35.2802
 30
0.0
 10
-8.632
 20
33.504
 30
0.0
 10
-6.8326
 20
31.1133
 30
0.0
 10
-5.4082
 20
28.2546
 30
0.0
 10
-5.4082
 20
28.2546
 30
0.0
 10
-4.1822
 20
26.3591
 30
0.0
 10
-3.5161
 20
23.8035
 30
0.0
 10
-3.5595
 20
21.1641
 30
0.0
 10
-3.5595
 20
21.1641
 30
0.0
 10
-4.2752
 20
17.4503
 30
0.0
 10
-5.9667
 20
14.3328
 30
0.0
 10
-8.2457
 20
12.5262
 30
0.0
 10
-8.2457
 20
12.5262
 30
0.0
 10
-12.3425
 20
14.6231
 30
0.0
 10
-16.7877
 20
14.6231
 30
0.0
 10
-20.8849
 20
12.5262
 30
0.0
 10
-20.8849
 20
12.5262
 30
0.0
 10
-21.9871
 20
13.3946
 30
0.0
 10
-22.9541
 20
14.6028
 30
0.0
 10
-23.7221
 20
16.0718
 30
0.0
 10
-23.7221
 20
16.0718
 30
0.0
 10
-23.8274
 20
16.4379
 30
0.0
 10
-23.8499
 20
16.8452
 30
0.0
 10
-23.7865
 20
17.232
 30
0.0
 10
-23.7865
 20
17.232
 30
0.0
 10
-23.5802
 20
18.2155
 30
0.0
 10
-23.6107
 20
19.2761
 30
0.0
 10
-23.8726
 20
20.229
 30
0.0
 10
-23.8726
 20
20.229
 30
0.0
 10
-24.0324
 20
20.68
 30
0.0
 10
-23.9895
 20
21.2317
 30
0.0
 10
-23.7653
 20
21.6151
 30
0.0
 10
-23.7653
 20
21.6151
 30
0.0
 10
-22.5545
 20
24.4924
 30
0.0
 10
-20.572
 20
26.442
 30
0.0
 10
-18.3295
 20
26.9616
 30
0.0
 10
-18.3295
 20
26.9616
 30
0.0
 10
-16.0874
 20
27.4807
 30
0.0
 10
-13.8049
 20
26.5182
 30
0.0
 10
-12.0717
 20
24.3222
 30
0.0
 10
-12.0717
 20
24.3222
 30
0.0
 10
-11.4349
 20
23.6148
 30
0.0
 10
-10.6712
 20
23.2107
 30
0.0
 10
-9.8793
 20
23.1624
 30
0.0
 10
-9.8793
 20
23.1624
 30
0.0
 10
-9.7515
 20
24.1436
 30
0.0
 10
-9.7662
 20
25.155
 30
0.0
 10
-9.9222
 20
26.1272
 30
0.0
 10
-9.9222
 20
26.1272
 30
0.0
 10
-11.5602
 20
29.9626
 30
0.0
 10
-14.3271
 20
32.3844
 30
0.0
 10
-17.3597
 20
32.6377
 30
0.0
 10
-17.3597
 20
32.6377
 30
0.0
 10
-21.0706
 20
33.1735
 30
0.0
 10
-24.7702
 20
31.4621
 30
0.0
 10
-27.6342
 20
27.884
 30
0.0
 10
-27.6342
 20
27.884
 30
0.0
 10
-30.4984
 20
31.4621
 30
0.0
 10
-34.198
 20
33.1735
 30
0.0
 10
-37.9089
 20
32.6377
 30
0.0
 10
-37.9089
 20
32.6377
 30
0.0
 10
-40.9415
 20
32.3844
 30
0.0
 10
-43.7085
 20
29.9626
 30
0.0
 10
-45.3461
 20
26.1272
 30
0.0
 10
-45.3461
 20
26.1272
 30
0.0
 10
-45.5024
 20
25.155
 30
0.0
 10
-45.5168
 20
24.1436
 30
0.0
 10
-45.3892
 20
23.1624
 30
0.0
 10
-45.3892
 20
23.1624
 30
0.0
 10
-44.5973
 20
23.2107
 30
0.0
 10
-43.8334
 20
23.6148
 30
0.0
 10
-43.1966
 20
24.3222
 30
0.0
 10
-43.1966
 20
24.3222
 30
0.0
 10
-41.4637
 20
26.5182
 30
0.0
 10
-39.1812
 20
27.4807
 30
0.0
 10
-36.9388
 20
26.9616
 30
0.0
 10
-36.9388
 20
26.9616
 30
0.0
 10
-34.6966
 20
26.442
 30
0.0
 10
-32.7141
 20
24.4924
 30
0.0
 10
-31.5033
 20
21.6151
 30
0.0
 10
-31.5033
 20
21.6151
 30
0.0
 10
-31.2788
 20
21.2317
 30
0.0
 10
-31.2362
 20
20.68
 30
0.0
 10
-31.396
 20
20.229
 30
0.0
 10
-31.396
 20
20.229
 30
0.0
 10
-31.6579
 20
19.2761
 30
0.0
 10
-31.6881
 20
18.2155
 30
0.0
 10
-31.4817
 20
17.232
 30
0.0
 10
-31.4817
 20
17.232
 30
0.0
 10
-31.4187
 20
16.8452
 30
0.0
 10
-31.4411
 20
16.4379
 30
0.0
 10
-31.5462
 20
16.0718
 30
0.0
 10
-31.5462
 20
16.0718
 30
0.0
 10
-32.3145
 20
14.6028
 30
0.0
 10
-33.2815
 20
13.3946
 30
0.0
 10
-34.3837
 20
12.5262
 30
0.0
 10
-34.3837
 20
12.5262
 30
0.0
 10
-38.4806
 20
14.6231
 30
0.0
 10
-42.9258
 20
14.6231
 30
0.0
 10
-47.0229
 20
12.5262
 30
0.0
 10
-47.0229
 20
12.5262
 30
0.0
 10
-49.3019
 20
14.3328
 30
0.0
 10
-50.9934
 20
17.4503
 30
0.0
 10
-51.7088
 20
21.1641
 30
0.0
 10
-51.7088
 20
21.1641
 30
0.0
 10
-51.7525
 20
23.8035
 30
0.0
 10
-51.0864
 20
26.3591
 30
0.0
 10
-49.8601
 20
28.2546
 30
0.0
 10
-49.8601
 20
28.2546
 30
0.0
 10
-48.436
 20
31.1133
 30
0.0
 10
-46.6363
 20
33.504
 30
0.0
 10
-44.5724
 20
35.2802
 30
0.0
 10
-44.5724
 20
35.2802
 30
0.0
 10
-39.3603
 20
39.7176
 30
0.0
 10
-33.5943
 20
42.4973
 30
0.0
 10
-27.6342
 20
43.4462
 30
0.0
  0
SPLINE
  5
52
330
1F
100
AcDbEntity
  8
layer 1
 62
     7
370
     9
100
AcDbSpline
210
0.0
220
0.0
230
1.0
 70
    11
 71
     3
 72
    52
 73
    48
 74
     0
 42
0.0000000001
 43
0.0000000001
 12
1.0
 22
0.0
 32
0.0
 13
1.0
 23
0.0
 33
0.0
 40
0.0
 40
0.0
 40
0.0
 40
0.0
 40
0.0769230769230769
 40
0.0769230769230769
 40
0.0769230769230769
 40
0.0769230769230769
 40
0.1538461538461539
 40
0.1538461538461539
 40
0.1538461538461539
 40
0.1538461538461539
 40
0.2307692307692308
 40
0.2307692307692308
 40
0.2307692307692308
 40
0.2307692307692308
 40
0.3076923076923077
 40
0.3076923076923077
 40
0.3076923076923077
 40
0.3076923076923077
 40
0.3846153846153846
 40
0.3846153846153846
 40
0.3846153846153846
 40
0.3846153846153846
 40
0.4615384615384616
 40
0.4615384615384616
 40
0.4615384615384616
 40
0.4615384615384616
 40
0.5384615384615384
 40
0.5384615384615384
 40
0.5384615384615384
 40
0.5384615384615384
 40
0.6153846153846154
 40
0.6153846153846154
 40
0.6153846153846154
 40
0.6153846153846154
 40
0.6923076923076923
 40
0.6923076923076923
 40
0.6923076923076923
 40
0.6923076923076923
 40
0.7692307692307693
 40
0.7692307692307693
 40
0.7692307692307693
 40
0.7692307692307693
 40
0.8461538461538461
 40
0.8461538461538461
 40
0.8461538461538461
 40
0.8461538461538461
 40
1.0
 40
1.0
 40
1.0
 40
1.0
 10
-30.5119
 20
54.5532
 30
0.0
 10
-31.1055
 20
55.7689
 30
0.0
 10
-31.6587
 20
57.0274
 30
0.0
 10
-32.1697
 20
58.324
 30
0.0
 10
-32.1697
 20
58.324
 30
0.0
 10
-30.6742
 20
57.6212
 30
0.0
 10
-29.1693
 20
56.9658
 30
0.0
 10
-27.6557
 20
56.3581
 30
0.0
 10
-27.6557
 20
56.3581
 30
0.0
 10
-27.6557
 20
56.3581
 30
0.0
 10
-27.6342
 20
56.346
 30
0.0
 10
-27.6342
 20
56.346
 30
0.0
 10
-27.6342
 20
56.346
 30
0.0
 10
-27.6342
 20
56.346
 30
0.0
 10
-27.6129
 20
56.3581
 30
0.0
 10
-27.6129
 20
56.3581
 30
0.0
 10
-27.6129
 20
56.3581
 30
0.0
 10
-26.099
 20
56.9658
 30
0.0
 10
-24.5941
 20
57.6212
 30
0.0
 10
-23.0988
 20
58.324
 30
0.0
 10
-23.0988
 20
58.324
 30
0.0
 10
-23.6098
 20
57.0274
 30
0.0
 10
-24.1631
 20
55.7689
 30
0.0
 10
-24.7564
 20
54.5532
 30
0.0
 10
-24.7564
 20
54.5532
 30
0.0
 10
-24.1631
 20
53.3378
 30
0.0
 10
-23.6098
 20
52.0794
 30
0.0
 10
-23.0988
 20
50.7824
 30
0.0
 10
-23.0988
 20
50.7824
 30
0.0
 10
-24.5941
 20
51.4856
 30
0.0
 10
-26.099
 20
52.141
 30
0.0
 10
-27.6129
 20
52.7486
 30
0.0
 10
-27.6129
 20
52.7486
 30
0.0
 10
-27.6129
 20
52.7486
 30
0.0
 10
-27.6342
 20
52.7607
 30
0.0
 10
-27.6342
 20
52.7607
 30
0.0
 10
-27.6342
 20
52.7607
 30
0.0
 10
-27.6342
 20
52.7607
 30
0.0
 10
-27.6557
 20
52.7486
 30
0.0
 10
-27.6557
 20
52.7486
 30
0.0
 10
-27.6557
 20
52.7486
 30
0.0
 10
-29.1693
 20
52.141
 30
0.0
 10
-30.6742
 20
51.4856
 30
0.0
 10
-32.1697
 20
50.7824
 30
0.0
 10
-32.1697
 20
50.7824
 30
0.0
 10
-31.6587
 20
52.0794
 30
0.0
 10
-31.1055
 20
53.3378
 30
0.0
 10
-30.5119
 20
54.5532
 30
0.0
  0
SPLINE
  5
53
330
1F
100
AcDbEntity
  8
layer 1
 62
     7
370
     9
100
AcDbSpline
210
0.0
220
0.0
230
1.0
 70
    11
 71
     3
 72
    68
 73
    64
 74
     0
 42
0.0000000001
 43
0.0000000001
 12
1.0
 22
0.0
 32
0.0
 13
1.0
 23
0.0
 33
0.0
 40
0.0
 40
0.0
 40
0.0
 40
0.0
 40
0.0588235294117647
 40
0.0588235294117647
 40
0.0588235294117647
 40
0.0588235294117647
 40
0.1176470588235294
 40
0.1176470588235294
 40
0.1176470588235294
 40
0.1176470588235294
 40
0.1764705882352941
 40
0.1764705882352941
 40
0.1764705882352941
 40
0.1764705882352941
 40
0.2352941176470588
 40
0.2352941176470588
 40
0.2352941176470588
 40
0.2352941176470588
 40
0.2941176470588235
 40
0.2941176470588235
 40
0.2941176470588235
 40
0.2941176470588235
 40
0.3529411764705883
 40
0.3529411764705883
 40
0.3529411764705883
 40
0.3529411764705883
 40
0.4117647058823529
 40
0.4117647058823529
 40
0.4117647058823529
 40
0.4117647058823529
 40
0.4705882352941176
 40
0.4705882352941176
 40
0.4705882352941176
 40
0.4705882352941176
 40
0.5294117647058824
 40
0.5294117647058824
 40
0.5294117647058824
 40
0.5294117647058824
 40
0.5882352941176471
 40
0.5882352941176471
 40
0.5882352941176471
 40
0.5882352941176471
 40
0.6470588235294118
 40
0.6470588235294118
 40
0.6470588235294118
 40
0.6470588235294118
 40
0.7058823529411765
 40
0.7058823529411765
 40
0.7058823529411765
 40
0.7058823529411765
 40
0.7647058823529411
 40
0.7647058823529411
 40
0.7647058823529411
 40
0.7647058823529411
 40
0.8235294117647058
 40
0.8235294117647058
 40
0.8235294117647058
 40
0.8235294117647058
 40
0.8823529411764706
 40
0.8823529411764706
 40
0.8823529411764706
 40
0.8823529411764706
 40
1.0
 40
1.0
 40
1.0
 40
1.0
 10
1.4959
 20
23.6779
 30
0.0
 10
2.827
 20
18.1229
 30
0.0
 10
1.4855
 20
11.9206
 30
0.0
 10
-1.7667
 20
8.5947
 30
0.0
 10
-1.7667
 20
8.5947
 30
0.0
 10
1.4855
 20
5.2683
 30
0.0
 10
2.827
 20
-0.9334
 30
0.0
 10
1.4959
 20
-6.4885
 30
0.0
 10
1.4959
 20
-6.4885
 30
0.0
 10
3.4047
 20
-5.5092
 30
0.0
 10
5.1811
 20
-4.0244
 30
0.0
 10
6.7407
 20
-2.1055
 30
0.0
 10
6.7407
 20
-2.1055
 30
0.0
 10
7.2592
 20
-1.5208
 30
0.0
 10
7.6665
 20
-0.7433
 30
0.0
 10
7.9228
 20
0.1506
 30
0.0
 10
7.9228
 20
0.1506
 30
0.0
 10
8.1527
 20
1.0761
 30
0.0
 10
7.8729
 20
2.1112
 30
0.0
 10
7.2779
 20
2.5353
 30
0.0
 10
7.2779
 20
2.5353
 30
0.0
 10
6.3951
 20
2.8633
 30
0.0
 10
5.4606
 20
2.5404
 30
0.0
 10
4.7632
 20
1.6653
 30
0.0
 10
4.7632
 20
1.6653
 30
0.0
 10
5.3083
 20
3.6168
 30
0.0
 10
6.4981
 20
4.9947
 30
0.0
 10
7.8953
 20
5.2917
 30
0.0
 10
7.8953
 20
5.2917
 30
0.0
 10
9.2924
 20
5.5891
 30
0.0
 10
10.6911
 20
4.7624
 30
0.0
 10
11.5768
 20
3.1155
 30
0.0
 10
11.5768
 20
3.1155
 30
0.0
 10
13.7001
 20
5.9665
 30
0.0
 10
16.3151
 20
7.8651
 30
0.0
 10
19.1234
 20
8.5947
 30
0.0
 10
19.1234
 20
8.5947
 30
0.0
 10
16.3151
 20
9.3243
 30
0.0
 10
13.7001
 20
11.223
 30
0.0
 10
11.5768
 20
14.0735
 30
0.0
 10
11.5768
 20
14.0735
 30
0.0
 10
10.6911
 20
12.4265
 30
0.0
 10
9.2924
 20
11.5998
 30
0.0
 10
7.8953
 20
11.8973
 30
0.0
 10
7.8953
 20
11.8973
 30
0.0
 10
6.4981
 20
12.1947
 30
0.0
 10
5.3083
 20
13.5721
 30
0.0
 10
4.7632
 20
15.5236
 30
0.0
 10
4.7632
 20
15.5236
 30
0.0
 10
5.4606
 20
14.649
 30
0.0
 10
6.3951
 20
14.3257
 30
0.0
 10
7.2779
 20
14.6536
 30
0.0
 10
7.2779
 20
14.6536
 30
0.0
 10
7.8729
 20
15.0777
 30
0.0
 10
8.1527
 20
16.113
 30
0.0
 10
7.9228
 20
17.0383
 30
0.0
 10
7.9228
 20
17.0383
 30
0.0
 10
7.6665
 20
17.9322
 30
0.0
 10
7.2592
 20
18.7103
 30
0.0
 10
6.7407
 20
19.2944
 30
0.0
 10
6.7407
 20
19.2944
 30
0.0
 10
5.1811
 20
21.2138
 30
0.0
 10
3.4047
 20
22.6981
 30
0.0
 10
1.4959
 20
23.6779
 30
0.0
  0
SPLINE
  5
54
330
1F
100
AcDbEntity
  8
layer 1
 62
     7
370
     9
100
AcDbSpline
210
0.0
220
0.0
230
1.0
 70
    11
 71
     3
 72
    44
 73
    40
 74
     0
 42
0.0000000001
 43
0.0000000001
 12
1.0
 22
0.0
 32
0.0
 13
1.0
 23
0.0
 33
0.0
 40
0.0
 40
0.0
 40
0.0
 40
0.0
 40
0.0909090909090909
 40
0.0909090909090909
 40
0.0909090909090909
 40
0.0909090909090909
 40
0.1818181818181818
 40
0.1818181818181818
 40
0.1818181818181818
 40
0.1818181818181818
 40
0.2727272727272727
 40
0.2727272727272727
 40
0.2727272727272727
 40
0.2727272727272727
 40
0.3636363636363636
 40
0.3636363636363636
 40
0.3636363636363636
 40
0.3636363636363636
 40
0.4545454545454545
 40
0.4545454545454545
 40
0.4545454545454545
 40
0.4545454545454545
 40
0.5454545454545454
 40
0.5454545454545454
 40
0.5454545454545454
 40
0.5454545454545454
 40
0.6363636363636364
 40
0.6363636363636364
 40
0.6363636363636364
 40
0.6363636363636364
 40
0.7272727272727273
 40
0.7272727272727273
 40
0.7272727272727273
 40
0.7272727272727273
 40
0.8181818181818182
 40
0.8181818181818182
 40
0.8181818181818182
 40
0.8181818181818182
 40
1.0
 40
1.0
 40
1.0
 40
1.0
 10
20.2139
 20
29.93
 30
0.0
 10
20.3155
 20
24.1086
 30
0.0
 10
20.3587
 20
18.2856
 30
0.0
 10
20.3429
 20
12.4621
 30
0.0
 10
20.3429
 20
12.4621
 30
0.0
 10
19.0184
 20
14.5255
 30
0.0
 10
17.4423
 20
16.1887
 30
0.0
 10
15.7
 20
17.3607
 30
0.0
 10
15.7
 20
17.3607
 30
0.0
 10
16.3784
 20
17.6383
 30
0.0
 10
16.9432
 20
18.3442
 30
0.0
 10
17.2475
 20
19.2944
 30
0.0
 10
17.2475
 20
19.2944
 30
0.0
 10
17.7118
 20
20.4364
 30
0.0
 10
17.4827
 20
21.9253
 30
0.0
 10
16.7316
 20
22.6462
 30
0.0
 10
16.7316
 20
22.6462
 30
0.0
 10
15.7736
 20
23.3951
 30
0.0
 10
14.716
 20
23.8137
 30
0.0
 10
13.6362
 20
23.8711
 30
0.0
 10
13.6362
 20
23.8711
 30
0.0
 10
14.0968
 20
23.3947
 30
0.0
 10
14.3447
 20
22.577
 30
0.0
 10
14.281
 20
21.7443
 30
0.0
 10
14.281
 20
21.7443
 30
0.0
 10
14.2085
 20
21.275
 30
0.0
 10
13.9537
 20
20.9179
 30
0.0
 10
13.6362
 20
20.8417
 30
0.0
 10
13.6362
 20
20.8417
 30
0.0
 10
11.9301
 20
20.5864
 30
0.0
 10
10.2138
 20
21.1509
 30
0.0
 10
8.7353
 20
22.4531
 30
0.0
 10
8.7353
 20
22.4531
 30
0.0
 10
7.4031
 20
23.683
 30
0.0
 10
6.2004
 20
25.2033
 30
0.0
 10
5.1673
 20
26.9652
 30
0.0
 10
5.1673
 20
26.9652
 30
0.0
 10
10.2639
 20
25.4459
 30
0.0
 10
15.5523
 20
26.4877
 30
0.0
 10
20.2139
 20
29.93
 30
0.0
  0
SPLINE
  5
55
330
1F
100
AcDbEntity
  8
layer 1
 62
     7
370
     9
100
AcDbSpline
210
0.0
220
0.0
230
1.0
 70
    11
 71
     3
 72
    40
 73
    36
 74
     0
 42
0.0000000001
 43
0.0000000001
 12
1.0
 22
0.0
 32
0.0
 13
1.0
 23
0.0
 33
0.0
 40
0.0
 40
0.0
 40
0.0
 40
0.0
 40
0.1
 40
0.1
 40
0.1
 40
0.1
 40
0.2
 40
0.2
 40
0.2
 40
0.2
 40
0.3
 40
0.3
 40
0.3
 40
0.3
 40
0.4
 40
0.4
 40
0.4
 40
0.4
 40
0.5
 40
0.5
 40
0.5
 40
0.5
 40
0.6
 40
0.6
 40
0.6
 40
0.6
 40
0.7
 40
0.7
 40
0.7
 40
0.7
 40
0.8
 40
0.8
 40
0.8
 40
0.8
 40
1.0
 40
1.0
 40
1.0
 40
1.0
 10
15.2269
 20
91.2945
 30
0.0
 10
15.8658
 20
90.8471
 30
0.0
 10
16.4475
 20
90.2364
 30
0.0
 10
16.9466
 20
89.4895
 30
0.0
 10
16.9466
 20
89.4895
 30
0.0
 10
17.4323
 20
88.6093
 30
0.0
 10
17.4046
 20
87.3239
 30
0.0
 10
16.8822
 20
86.4925
 30
0.0
 10
16.8822
 20
86.4925
 30
0.0
 10
16.0131
 20
85.2575
 30
0.0
 10
14.8265
 20
84.6564
 30
0.0
 10
13.6362
 20
84.8487
 30
0.0
 10
13.6362
 20
84.8487
 30
0.0
 10
14.184
 20
85.3363
 30
0.0
 10
14.4477
 20
86.3115
 30
0.0
 10
14.281
 20
87.234
 30
0.0
 10
14.281
 20
87.234
 30
0.0
 10
14.0634
 20
87.8934
 30
0.0
 10
13.5827
 20
88.26
 30
0.0
 10
13.0988
 20
88.1359
 30
0.0
 10
13.0988
 20
88.1359
 30
0.0
 10
9.9427
 20
88.0154
 30
0.0
 10
7.0197
 20
85.6145
 30
0.0
 10
5.2533
 20
81.69
 30
0.0
 10
5.2533
 20
81.69
 30
0.0
 10
10.3016
 20
83.1626
 30
0.0
 10
15.5284
 20
82.3283
 30
0.0
 10
20.2568
 20
79.2951
 30
0.0
 10
20.2568
 20
79.2951
 30
0.0
 10
20.2568
 20
79.2951
 30
0.0
 10
20.2568
 20
96.6085
 30
0.0
 10
20.2568
 20
96.6085
 30
0.0
 10
20.2568
 20
96.6085
 30
0.0
 10
19.0561
 20
93.9955
 30
0.0
 10
17.2722
 20
92.1105
 30
0.0
 10
15.2269
 20
91.2945
 30
0.0
  0
SPLINE
  5
56
330
1F
100
AcDbEntity
  8
layer 1
 62
     7
370
     9
100
AcDbSpline
210
0.0
220
0.0
230
1.0
 70
    11
 71
     3
 72
    40
 73
    36
 74
     0
 42
0.0000000001
 43
0.0000000001
 12
1.0
 22
0.0
 32
0.0
 13
1.0
 23
0.0
 33
0.0
 40
0.0
 40
0.0
 40
0.0
 40
0.0
 40
0.1
 40
0.1
 40
0.1
 40
0.1
 40
0.2
 40
0.2
 40
0.2
 40
0.2
 40
0.3
 40
0.3
 40
0.3
 40
0.3
 40
0.4
 40
0.4
 40
0.4
 40
0.4
 40
0.5
 40
0.5
 40
0.5
 40
0.5
 40
0.6
 40
0.6
 40
0.6
 40
0.6
 40
0.7
 40
0.7
 40
0.7
 40
0.7
 40
0.8
 40
0.8
 40
0.8
 40
0.8
 40
1.0
 40
1.0
 40
1.0
 40
1.0
 10
11.3149
 20
94.9687
 30
0.0
 10
9.9185
 20
96.9303
 30
0.0
 10
7.8922
 20
97.508
 30
0.0
 10
6.1129
 20
96.4514
 30
0.0
 10
6.1129
 20
96.4514
 30
0.0
 10
5.336
 20
95.9399
 30
0.0
 10
4.7856
 20
94.8715
 30
0.0
 10
4.6515
 20
93.6151
 30
0.0
 10
4.6515
 20
93.6151
 30
0.0
 10
5.2577
 20
93.9472
 30
0.0
 10
5.8976
 20
94.1216
 30
0.0
 10
6.543
 20
94.1307
 30
0.0
 10
6.543
 20
94.1307
 30
0.0
 10
6.8798
 20
94.2598
 30
0.0
 10
7.237
 20
94.111
 30
0.0
 10
7.4808
 20
93.7387
 30
0.0
 10
7.4808
 20
93.7387
 30
0.0
 10
7.7244
 20
93.3671
 30
0.0
 10
7.8177
 20
92.8286
 30
0.0
 10
7.7252
 20
92.3262
 30
0.0
 10
7.7252
 20
92.3262
 30
0.0
 10
6.2638
 20
88.7863
 30
0.0
 10
3.9317
 20
86.2505
 30
0.0
 10
1.2337
 20
85.2677
 30
0.0
 10
1.2337
 20
85.2677
 30
0.0
 10
2.2861
 20
90.6624
 30
0.0
 10
1.2518
 20
96.4864
 30
0.0
 10
-1.4498
 20
100.3833
 30
0.0
 10
-1.4498
 20
100.3833
 30
0.0
 10
-1.4498
 20
100.3833
 30
0.0
 10
17.3905
 20
100.3833
 30
0.0
 10
17.3905
 20
100.3833
 30
0.0
 10
17.3905
 20
100.3833
 30
0.0
 10
15.1225
 20
99.2764
 30
0.0
 10
13.047
 20
97.4272
 30
0.0
 10
11.3149
 20
94.9687
 30
0.0
  0
SPLINE
  5
57
330
1F
100
AcDbEntity
  8
layer 1
 62
     7
370
     9
100
AcDbSpline
210
0.0
220
0.0
230
1.0
 70
    11
 71
     3
 72
    68
 73
    64
 74
     0
 42
0.0000000001
 43
0.0000000001
 12
1.0
 22
0.0
 32
0.0
 13
1.0
 23
0.0
 33
0.0
 40
0.0
 40
0.0
 40
0.0
 40
0.0
 40
0.0588235294117647
 40
0.0588235294117647
 40
0.0588235294117647
 40
0.0588235294117647
 40
0.1176470588235294
 40
0.1176470588235294
 40
0.1176470588235294
 40
0.1176470588235294
 40
0.1764705882352941
 40
0.1764705882352941
 40
0.1764705882352941
 40
0.1764705882352941
 40
0.2352941176470588
 40
0.2352941176470588
 40
0.2352941176470588
 40
0.2352941176470588
 40
0.2941176470588235
 40
0.2941176470588235
 40
0.2941176470588235
 40
0.2941176470588235
 40
0.3529411764705883
 40
0.3529411764705883
 40
0.3529411764705883
 40
0.3529411764705883
 40
0.4117647058823529
 40
0.4117647058823529
 40
0.4117647058823529
 40
0.4117647058823529
 40
0.4705882352941176
 40
0.4705882352941176
 40
0.4705882352941176
 40
0.4705882352941176
 40
0.5294117647058824
 40
0.5294117647058824
 40
0.5294117647058824
 40
0.5294117647058824
 40
0.5882352941176471
 40
0.5882352941176471
 40
0.5882352941176471
 40
0.5882352941176471
 40
0.6470588235294118
 40
0.6470588235294118
 40
0.6470588235294118
 40
0.6470588235294118
 40
0.7058823529411765
 40
0.7058823529411765
 40
0.7058823529411765
 40
0.7058823529411765
 40
0.7647058823529411
 40
0.7647058823529411
 40
0.7647058823529411
 40
0.7647058823529411
 40
0.8235294117647058
 40
0.8235294117647058
 40
0.8235294117647058
 40
0.8235294117647058
 40
0.8823529411764706
 40
0.8823529411764706
 40
0.8823529411764706
 40
0.8823529411764706
 40
1.0
 40
1.0
 40
1.0
 40
1.0
 10
-77.5027
 20
-14.4171
 30
0.0
 10
-82.3774
 20
-9.826
 30
0.0
 10
-88.2616
 20
-8.2976
 30
0.0
 10
-93.8822
 20
-10.1627
 30
0.0
 10
-93.8822
 20
-10.1627
 30
0.0
 10
-92.5044
 20
-7.0961
 30
0.0
 10
-90.4241
 20
-4.8939
 30
0.0
 10
-88.0353
 20
-3.9746
 30
0.0
 10
-88.0353
 20
-3.9746
 30
0.0
 10
-87.2259
 20
-3.6172
 30
0.0
 10
-86.3718
 20
-3.551
 30
0.0
 10
-85.5418
 20
-3.7814
 30
0.0
 10
-85.5418
 20
-3.7814
 30
0.0
 10
-85.1999
 20
-4.0829
 30
0.0
 10
-84.9673
 20
-4.6
 30
0.0
 10
-84.9089
 20
-5.1884
 30
0.0
 10
-84.9089
 20
-5.1884
 30
0.0
 10
-84.8505
 20
-5.7766
 30
0.0
 10
-84.9725
 20
-6.373
 30
0.0
 10
-85.2411
 20
-6.8109
 30
0.0
 10
-85.2411
 20
-6.8109
 30
0.0
 10
-83.9704
 20
-7.0941
 30
0.0
 10
-82.703
 20
-6.2694
 30
0.0
 10
-81.9738
 20
-4.6839
 30
0.0
 10
-81.9738
 20
-4.6839
 30
0.0
 10
-81.694
 20
-2.9765
 30
0.0
 10
-82.3849
 20
-1.2497
 30
0.0
 10
-83.5214
 20
-0.8165
 30
0.0
 10
-83.5214
 20
-0.8165
 30
0.0
 10
-80.875
 20
0.2869
 30
0.0
 10
-78.6792
 20
3.059
 30
0.0
 10
-77.5027
 20
6.7805
 30
0.0
 10
-77.5027
 20
6.7805
 30
0.0
 10
-76.3265
 20
3.059
 30
0.0
 10
-74.1304
 20
0.2869
 30
0.0
 10
-71.484
 20
-0.8165
 30
0.0
 10
-71.484
 20
-0.8165
 30
0.0
 10
-72.6206
 20
-1.2497
 30
0.0
 10
-73.3115
 20
-2.9765
 30
0.0
 10
-73.0319
 20
-4.6839
 30
0.0
 10
-73.0319
 20
-4.6839
 30
0.0
 10
-72.3025
 20
-6.2694
 30
0.0
 10
-71.035
 20
-7.0941
 30
0.0
 10
-69.7647
 20
-6.8109
 30
0.0
 10
-69.7647
 20
-6.8109
 30
0.0
 10
-70.033
 20
-6.373
 30
0.0
 10
-70.1553
 20
-5.7766
 30
0.0
 10
-70.0969
 20
-5.1884
 30
0.0
 10
-70.0969
 20
-5.1884
 30
0.0
 10
-70.0384
 20
-4.6
 30
0.0
 10
-69.8056
 20
-4.0829
 30
0.0
 10
-69.4636
 20
-3.7814
 30
0.0
 10
-69.4636
 20
-3.7814
 30
0.0
 10
-68.634
 20
-3.551
 30
0.0
 10
-67.7795
 20
-3.6172
 30
0.0
 10
-66.9704
 20
-3.9746
 30
0.0
 10
-66.9704
 20
-3.9746
 30
0.0
 10
-64.5817
 20
-4.8939
 30
0.0
 10
-62.5011
 20
-7.0961
 30
0.0
 10
-61.1236
 20
-10.1627
 30
0.0
 10
-61.1236
 20
-10.1627
 30
0.0
 10
-66.7441
 20
-8.2976
 30
0.0
 10
-72.6283
 20
-9.826
 30
0.0
 10
-77.5027
 20
-14.4171
 30
0.0
  0
SPLINE
  5
58
330
1F
100
AcDbEntity
  8
layer 1
 62
     7
370
     9
100
AcDbSpline
210
0.0
220
0.0
230
1.0
 70
    11
 71
     3
 72
   124
 73
   120
 74
     0
 42
0.0000000001
 43
0.0000000001
 12
1.0
 22
0.0
 32
0.0
 13
1.0
 23
0.0
 33
0.0
 40
0.0
 40
0.0
 40
0.0
 40
0.0
 40
0.032258064516129
 40
0.032258064516129
 40
0.032258064516129
 40
0.032258064516129
 40
0.0645161290322581
 40
0.0645161290322581
 40
0.0645161290322581
 40
0.0645161290322581
 40
0.0967741935483871
 40
0.0967741935483871
 40
0.0967741935483871
 40
0.0967741935483871
 40
0.1290322580645161
 40
0.1290322580645161
 40
0.1290322580645161
 40
0.1290322580645161
 40
0.1612903225806452
 40
0.1612903225806452
 40
0.1612903225806452
 40
0.1612903225806452
 40
0.1935483870967742
 40
0.1935483870967742
 40
0.1935483870967742
 40
0.1935483870967742
 40
0.2258064516129032
 40
0.2258064516129032
 40
0.2258064516129032
 40
0.2258064516129032
 40
0.2580645161290323
 40
0.2580645161290323
 40
0.2580645161290323
 40
0.2580645161290323
 40
0.2903225806451613
 40
0.2903225806451613
 40
0.2903225806451613
 40
0.2903225806451613
 40
0.3225806451612903
 40
0.3225806451612903
 40
0.3225806451612903
 40
0.3225806451612903
 40
0.3548387096774194
 40
0.3548387096774194
 40
0.3548387096774194
 40
0.3548387096774194
 40
0.3870967741935484
 40
0.3870967741935484
 40
0.3870967741935484
 40
0.3870967741935484
 40
0.4193548387096774
 40
0.4193548387096774
 40
0.4193548387096774
 40
0.4193548387096774
 40
0.4516129032258064
 40
0.4516129032258064
 40
0.4516129032258064
 40
0.4516129032258064
 40
0.4838709677419355
 40
0.4838709677419355
 40
0.4838709677419355
 40
0.4838709677419355
 40
0.5161290322580645
 40
0.5161290322580645
 40
0.5161290322580645
 40
0.5161290322580645
 40
0.5483870967741935
 40
0.5483870967741935
 40
0.5483870967741935
 40
0.5483870967741935
 40
0.5806451612903226
 40
0.5806451612903226
 40
0.5806451612903226
 40
0.5806451612903226
 40
0.6129032258064516
 40
0.6129032258064516
 40
0.6129032258064516
 40
0.6129032258064516
 40
0.6451612903225806
 40
0.6451612903225806
 40
0.6451612903225806
 40
0.6451612903225806
 40
0.6774193548387096
 40
0.6774193548387096
 40
0.6774193548387096
 40
0.6774193548387096
 40
0.7096774193548387
 40
0.7096774193548387
 40
0.7096774193548387
 40
0.7096774193548387
 40
0.7419354838709677
 40
0.7419354838709677
 40
0.7419354838709677
 40
0.7419354838709677
 40
0.7741935483870968
 40
0.7741935483870968
 40
0.7741935483870968
 40
0.7741935483870968
 40
0.8064516129032258
 40
0.8064516129032258
 40
0.8064516129032258
 40
0.8064516129032258
 40
0.8387096774193549
 40
0.8387096774193549
 40
0.8387096774193549
 40
0.8387096774193549
 40
0.8709677419354839
 40
0.8709677419354839
 40
0.8709677419354839
 40
0.8709677419354839
 40
0.9032258064516129
 40
0.9032258064516129
 40
0.9032258064516129
 40
0.9032258064516129
 40
0.9354838709677419
 40
0.9354838709677419
 40
0.9354838709677419
 40
0.9354838709677419
 40
1.0
 40
1.0
 40
1.0
 40
1.0
 10
-99.1267
 20
-37.2996
 30
0.0
 10
-100.811
 20
-36.5872
 30
0.0
 10
-102.1766
 20
-34.7354
 30
0.0
 10
-102.8177
 20
-32.2943
 30
0.0
 10
-102.8177
 20
-32.2943
 30
0.0
 10
-103.4588
 20
-29.8525
 30
0.0
 10
-103.3022
 20
-27.1023
 30
0.0
 10
-102.394
 20
-24.8595
 30
0.0
 10
-102.394
 20
-24.8595
 30
0.0
 10
-100.0148
 20
-21.2737
 30
0.0
 10
-96.553
 20
-19.8291
 30
0.0
 10
-93.2802
 20
-21.0561
 30
0.0
 10
-93.2802
 20
-21.0561
 30
0.0
 10
-94.3663
 20
-21.7054
 30
0.0
 10
-95.3807
 20
-22.5963
 30
0.0
 10
-96.2896
 20
-23.699
 30
0.0
 10
-96.2896
 20
-23.699
 30
0.0
 10
-97.0521
 20
-24.6815
 30
0.0
 10
-97.4649
 20
-26.1412
 30
0.0
 10
-97.4059
 20
-27.6463
 30
0.0
 10
-97.4059
 20
-27.6463
 30
0.0
 10
-97.3469
 20
-29.1509
 30
0.0
 10
-96.8227
 20
-30.5283
 30
0.0
 10
-95.9885
 20
-31.3698
 30
0.0
 10
-95.9885
 20
-31.3698
 30
0.0
 10
-95.1228
 20
-32.4986
 30
0.0
 10
-94.1139
 20
-33.3539
 30
0.0
 10
-93.0223
 20
-33.8838
 30
0.0
 10
-93.0223
 20
-33.8838
 30
0.0
 10
-92.3151
 20
-34.2269
 30
0.0
 10
-91.5475
 20
-34.1577
 30
0.0
 10
-90.8728
 20
-33.69
 30
0.0
 10
-90.8728
 20
-33.69
 30
0.0
 10
-89.4067
 20
-32.8404
 30
0.0
 10
-87.7817
 20
-32.8404
 30
0.0
 10
-86.3156
 20
-33.69
 30
0.0
 10
-86.3156
 20
-33.69
 30
0.0
 10
-85.7002
 20
-33.8603
 30
0.0
 10
-85.0646
 20
-33.6508
 30
0.0
 10
-84.5531
 20
-33.1098
 30
0.0
 10
-84.5531
 20
-33.1098
 30
0.0
 10
-83.6921
 20
-32.1555
 30
0.0
 10
-82.7871
 20
-31.2941
 30
0.0
 10
-81.8448
 20
-30.5319
 30
0.0
 10
-81.8448
 20
-30.5319
 30
0.0
 10
-83.0464
 20
-27.2258
 30
0.0
 10
-83.0136
 20
-23.2211
 30
0.0
 10
-81.7587
 20
-19.9604
 30
0.0
 10
-81.7587
 20
-19.9604
 30
0.0
 10
-86.8574
 20
-14.3967
 30
0.0
 10
-93.5226
 20
-13.2242
 30
0.0
 10
-99.3418
 20
-16.8669
 30
0.0
 10
-99.3418
 20
-16.8669
 30
0.0
 10
-104.0555
 20
-18.9556
 30
0.0
 10
-108.237
 20
-23.1352
 30
0.0
 10
-111.3362
 20
-28.8554
 30
0.0
 10
-111.3362
 20
-28.8554
 30
0.0
 10
-112.538
 20
-31.5956
 30
0.0
 10
-113.6592
 20
-34.413
 30
0.0
 10
-114.6969
 20
-37.2996
 30
0.0
 10
-114.6969
 20
-37.2996
 30
0.0
 10
-113.6592
 20
-40.1867
 30
0.0
 10
-112.538
 20
-43.004
 30
0.0
 10
-111.3362
 20
-45.7437
 30
0.0
 10
-111.3362
 20
-45.7437
 30
0.0
 10
-108.237
 20
-51.4645
 30
0.0
 10
-104.0555
 20
-55.6442
 30
0.0
 10
-99.3418
 20
-57.7331
 30
0.0
 10
-99.3418
 20
-57.7331
 30
0.0
 10
-93.5226
 20
-61.3756
 30
0.0
 10
-86.8574
 20
-60.2028
 30
0.0
 10
-81.7587
 20
-54.639
 30
0.0
 10
-81.7587
 20
-54.639
 30
0.0
 10
-83.0136
 20
-51.3786
 30
0.0
 10
-83.0464
 20
-47.3734
 30
0.0
 10
-81.8448
 20
-44.0679
 30
0.0
 10
-81.8448
 20
-44.0679
 30
0.0
 10
-82.7871
 20
-43.3056
 30
0.0
 10
-83.6921
 20
-42.4438
 30
0.0
 10
-84.5531
 20
-41.4893
 30
0.0
 10
-84.5531
 20
-41.4893
 30
0.0
 10
-85.0646
 20
-40.9484
 30
0.0
 10
-85.7002
 20
-40.7394
 30
0.0
 10
-86.3156
 20
-40.9092
 30
0.0
 10
-86.3156
 20
-40.9092
 30
0.0
 10
-87.7817
 20
-41.7593
 30
0.0
 10
-89.4067
 20
-41.7593
 30
0.0
 10
-90.8728
 20
-40.9092
 30
0.0
 10
-90.8728
 20
-40.9092
 30
0.0
 10
-91.5475
 20
-40.4419
 30
0.0
 10
-92.3151
 20
-40.3727
 30
0.0
 10
-93.0223
 20
-40.7159
 30
0.0
 10
-93.0223
 20
-40.7159
 30
0.0
 10
-94.1139
 20
-41.2458
 30
0.0
 10
-95.1228
 20
-42.101
 30
0.0
 10
-95.9885
 20
-43.2299
 30
0.0
 10
-95.9885
 20
-43.2299
 30
0.0
 10
-96.8227
 20
-44.0713
 30
0.0
 10
-97.3469
 20
-45.4488
 30
0.0
 10
-97.4059
 20
-46.9534
 30
0.0
 10
-97.4059
 20
-46.9534
 30
0.0
 10
-97.4649
 20
-48.4584
 30
0.0
 10
-97.0521
 20
-49.9178
 30
0.0
 10
-96.2896
 20
-50.9006
 30
0.0
 10
-96.2896
 20
-50.9006
 30
0.0
 10
-95.3807
 20
-52.0035
 30
0.0
 10
-94.3663
 20
-52.8943
 30
0.0
 10
-93.2802
 20
-53.5432
 30
0.0
 10
-93.2802
 20
-53.5432
 30
0.0
 10
-96.553
 20
-54.7705
 30
0.0
 10
-100.0148
 20
-53.326
 30
0.0
 10
-102.394
 20
-49.7402
 30
0.0
 10
-102.394
 20
-49.7402
 30
0.0
 10
-103.3022
 20
-47.4974
 30
0.0
 10
-103.4588
 20
-44.7466
 30
0.0
 10
-102.8177
 20
-42.3054
 30
0.0
 10
-102.8177
 20
-42.3054
 30
0.0
 10
-102.1766
 20
-39.8638
 30
0.0
 10
-100.811
 20
-38.0124
 30
0.0
 10
-99.1267
 20
-37.2996
 30
0.0
  0
SPLINE
  5
59
330
1F
100
AcDbEntity
  8
layer 1
 62
     7
370
     9
100
AcDbSpline
210
0.0
220
0.0
230
1.0
 70
    11
 71
     3
 72
   108
 73
   104
 74
     0
 42
0.0000000001
 43
0.0000000001
 12
1.0
 22
0.0
 32
0.0
 13
1.0
 23
0.0
 33
0.0
 40
0.0
 40
0.0
 40
0.0
 40
0.0
 40
0.037037037037037
 40
0.037037037037037
 40
0.037037037037037
 40
0.037037037037037
 40
0.0740740740740741
 40
0.0740740740740741
 40
0.0740740740740741
 40
0.0740740740740741
 40
0.1111111111111111
 40
0.1111111111111111
 40
0.1111111111111111
 40
0.1111111111111111
 40
0.1481481481481481
 40
0.1481481481481481
 40
0.1481481481481481
 40
0.1481481481481481
 40
0.1851851851851852
 40
0.1851851851851852
 40
0.1851851851851852
 40
0.1851851851851852
 40
0.2222222222222222
 40
0.2222222222222222
 40
0.2222222222222222
 40
0.2222222222222222
 40
0.2592592592592592
 40
0.2592592592592592
 40
0.2592592592592592
 40
0.2592592592592592
 40
0.2962962962962963
 40
0.2962962962962963
 40
0.2962962962962963
 40
0.2962962962962963
 40
0.3333333333333333
 40
0.3333333333333333
 40
0.3333333333333333
 40
0.3333333333333333
 40
0.3703703703703703
 40
0.3703703703703703
 40
0.3703703703703703
 40
0.3703703703703703
 40
0.4074074074074074
 40
0.4074074074074074
 40
0.4074074074074074
 40
0.4074074074074074
 40
0.4444444444444444
 40
0.4444444444444444
 40
0.4444444444444444
 40
0.4444444444444444
 40
0.4814814814814815
 40
0.4814814814814815
 40
0.4814814814814815
 40
0.4814814814814815
 40
0.5185185185185185
 40
0.5185185185185185
 40
0.5185185185185185
 40
0.5185185185185185
 40
0.5555555555555556
 40
0.5555555555555556
 40
0.5555555555555556
 40
0.5555555555555556
 40
0.5925925925925926
 40
0.5925925925925926
 40
0.5925925925925926
 40
0.5925925925925926
 40
0.6296296296296297
 40
0.6296296296296297
 40
0.6296296296296297
 40
0.6296296296296297
 40
0.6666666666666666
 40
0.6666666666666666
 40
0.6666666666666666
 40
0.6666666666666666
 40
0.7037037037037037
 40
0.7037037037037037
 40
0.7037037037037037
 40
0.7037037037037037
 40
0.7407407407407407
 40
0.7407407407407407
 40
0.7407407407407407
 40
0.7407407407407407
 40
0.7777777777777778
 40
0.7777777777777778
 40
0.7777777777777778
 40
0.7777777777777778
 40
0.8148148148148148
 40
0.8148148148148148
 40
0.8148148148148148
 40
0.8148148148148148
 40
0.8518518518518519
 40
0.8518518518518519
 40
0.8518518518518519
 40
0.8518518518518519
 40
0.8888888888888888
 40
0.8888888888888888
 40
0.8888888888888888
 40
0.8888888888888888
 40
0.9259259259259259
 40
0.9259259259259259
 40
0.9259259259259259
 40
0.9259259259259259
 40
1.0
 40
1.0
 40
1.0
 40
1.0
 10
-127.3713
 20
-63.5278
 30
0.0
 10
-127.3713
 20
-63.5278
 30
0.0
 10
-127.4145
 20
-63.4699
 30
0.0
 10
-127.4145
 20
-63.4699
 30
0.0
 10
-127.4145
 20
-63.4699
 30
0.0
 10
-132.3058
 20
-58.2396
 30
0.0
 10
-138.8297
 20
-58.0098
 30
0.0
 10
-143.8797
 20
-62.8897
 30
0.0
 10
-143.8797
 20
-62.8897
 30
0.0
 10
-145.0918
 20
-64.4957
 30
0.0
 10
-145.5775
 20
-67.0063
 30
0.0
 10
-145.1261
 20
-69.3355
 30
0.0
 10
-145.1261
 20
-69.3355
 30
0.0
 10
-144.7205
 20
-69.0925
 30
0.0
 10
-144.3319
 20
-68.7901
 30
0.0
 10
-143.9655
 20
-68.4332
 30
0.0
 10
-143.9655
 20
-68.4332
 30
0.0
 10
-142.2357
 20
-66.0507
 30
0.0
 10
-139.9331
 20
-64.828
 30
0.0
 10
-137.5887
 20
-65.047
 30
0.0
 10
-137.5887
 20
-65.047
 30
0.0
 10
-135.2444
 20
-65.2658
 30
0.0
 10
-133.0606
 20
-66.9076
 30
0.0
 10
-131.5413
 20
-69.5933
 30
0.0
 10
-131.5413
 20
-69.5933
 30
0.0
 10
-131.3455
 20
-70.1962
 30
0.0
 10
-131.3144
 20
-70.8905
 30
0.0
 10
-131.4555
 20
-71.527
 30
0.0
 10
-131.4555
 20
-71.527
 30
0.0
 10
-131.7909
 20
-72.6217
 30
0.0
 10
-131.7589
 20
-73.8899
 30
0.0
 10
-131.3694
 20
-74.9434
 30
0.0
 10
-131.3694
 20
-74.9434
 30
0.0
 10
-133.126
 20
-79.0557
 30
0.0
 10
-136.1517
 20
-81.5545
 30
0.0
 10
-139.4086
 20
-81.5826
 30
0.0
 10
-139.4086
 20
-81.5826
 30
0.0
 10
-142.9194
 20
-82.0081
 30
0.0
 10
-146.4111
 20
-80.4696
 30
0.0
 10
-149.2103
 20
-77.2641
 30
0.0
 10
-149.2103
 20
-77.2641
 30
0.0
 10
-150.561
 20
-75.6592
 30
0.0
 10
-151.3967
 20
-73.2738
 30
0.0
 10
-151.5112
 20
-70.6957
 30
0.0
 10
-151.5112
 20
-70.6957
 30
0.0
 10
-151.6258
 20
-68.1179
 30
0.0
 10
-151.0086
 20
-65.5872
 30
0.0
 10
-149.8123
 20
-63.7277
 30
0.0
 10
-149.8123
 20
-63.7277
 30
0.0
 10
-143.816
 20
-54.7119
 30
0.0
 10
-135.8431
 20
-49.2613
 30
0.0
 10
-127.3713
 20
-48.3867
 30
0.0
 10
-127.3713
 20
-48.3867
 30
0.0
 10
-118.8998
 20
-49.2613
 30
0.0
 10
-110.9268
 20
-54.7119
 30
0.0
 10
-104.9306
 20
-63.7277
 30
0.0
 10
-104.9306
 20
-63.7277
 30
0.0
 10
-103.7339
 20
-65.5872
 30
0.0
 10
-103.1171
 20
-68.1179
 30
0.0
 10
-103.2316
 20
-70.6957
 30
0.0
 10
-103.2316
 20
-70.6957
 30
0.0
 10
-103.3463
 20
-73.2738
 30
0.0
 10
-104.1819
 20
-75.6592
 30
0.0
 10
-105.5322
 20
-77.2641
 30
0.0
 10
-105.5322
 20
-77.2641
 30
0.0
 10
-108.3317
 20
-80.4696
 30
0.0
 10
-111.8233
 20
-82.0081
 30
0.0
 10
-115.334
 20
-81.5826
 30
0.0
 10
-115.334
 20
-81.5826
 30
0.0
 10
-118.5909
 20
-81.5545
 30
0.0
 10
-121.6169
 20
-79.0557
 30
0.0
 10
-123.3732
 20
-74.9434
 30
0.0
 10
-123.3732
 20
-74.9434
 30
0.0
 10
-122.984
 20
-73.8899
 30
0.0
 10
-122.952
 20
-72.6217
 30
0.0
 10
-123.2874
 20
-71.527
 30
0.0
 10
-123.2874
 20
-71.527
 30
0.0
 10
-123.4281
 20
-70.8905
 30
0.0
 10
-123.3974
 20
-70.1962
 30
0.0
 10
-123.2013
 20
-69.5933
 30
0.0
 10
-123.2013
 20
-69.5933
 30
0.0
 10
-121.682
 20
-66.9076
 30
0.0
 10
-119.4982
 20
-65.2658
 30
0.0
 10
-117.1541
 20
-65.047
 30
0.0
 10
-117.1541
 20
-65.047
 30
0.0
 10
-114.8095
 20
-64.828
 30
0.0
 10
-112.5072
 20
-66.0507
 30
0.0
 10
-110.7772
 20
-68.4332
 30
0.0
 10
-110.7772
 20
-68.4332
 30
0.0
 10
-110.4109
 20
-68.7901
 30
0.0
 10
-110.022
 20
-69.0925
 30
0.0
 10
-109.6165
 20
-69.3355
 30
0.0
 10
-109.6165
 20
-69.3355
 30
0.0
 10
-109.1651
 20
-67.0063
 30
0.0
 10
-109.6507
 20
-64.4957
 30
0.0
 10
-110.8632
 20
-62.8897
 30
0.0
 10
-110.8632
 20
-62.8897
 30
0.0
 10
-115.9132
 20
-58.0098
 30
0.0
 10
-122.437
 20
-58.2396
 30
0.0
 10
-127.3284
 20
-63.4699
 30
0.0
 10
-127.3284
 20
-63.4699
 30
0.0
 10
-127.3284
 20
-63.4699
 30
0.0
 10
-127.3713
 20
-63.5278
 30
0.0
 10
-127.3713
 20
-63.5278
 30
0.0
  0
SPLINE
  5
5A
330
1F
100
AcDbEntity
  8
layer 1
 62
     7
370
     9
100
AcDbSpline
210
0.0
220
0.0
230
1.0
 70
    11
 71
     3
 72
   132
 73
   128
 74
     0
 42
0.0000000001
 43
0.0000000001
 12
1.0
 22
0.0
 32
0.0
 13
1.0
 23
0.0
 33
0.0
 40
0.0
 40
0.0
 40
0.0
 40
0.0
 40
0.0303030303030303
 40
0.0303030303030303
 40
0.0303030303030303
 40
0.0303030303030303
 40
0.0606060606060606
 40
0.0606060606060606
 40
0.0606060606060606
 40
0.0606060606060606
 40
0.0909090909090909
 40
0.0909090909090909
 40
0.0909090909090909
 40
0.0909090909090909
 40
0.1212121212121212
 40
0.1212121212121212
 40
0.1212121212121212
 40
0.1212121212121212
 40
0.1515151515151515
 40
0.1515151515151515
 40
0.1515151515151515
 40
0.1515151515151515
 40
0.1818181818181818
 40
0.1818181818181818
 40
0.1818181818181818
 40
0.1818181818181818
 40
0.2121212121212121
 40
0.2121212121212121
 40
0.2121212121212121
 40
0.2121212121212121
 40
0.2424242424242424
 40
0.2424242424242424
 40
0.2424242424242424
 40
0.2424242424242424
 40
0.2727272727272727
 40
0.2727272727272727
 40
0.2727272727272727
 40
0.2727272727272727
 40
0.303030303030303
 40
0.303030303030303
 40
0.303030303030303
 40
0.303030303030303
 40
0.3333333333333333
 40
0.3333333333333333
 40
0.3333333333333333
 40
0.3333333333333333
 40
0.3636363636363636
 40
0.3636363636363636
 40
0.3636363636363636
 40
0.3636363636363636
 40
0.3939393939393939
 40
0.3939393939393939
 40
0.3939393939393939
 40
0.3939393939393939
 40
0.4242424242424243
 40
0.4242424242424243
 40
0.4242424242424243
 40
0.4242424242424243
 40
0.4545454545454545
 40
0.4545454545454545
 40
0.4545454545454545
 40
0.4545454545454545
 40
0.4848484848484849
 40
0.4848484848484849
 40
0.4848484848484849
 40
0.4848484848484849
 40
0.5151515151515151
 40
0.5151515151515151
 40
0.5151515151515151
 40
0.5151515151515151
 40
0.5454545454545454
 40
0.5454545454545454
 40
0.5454545454545454
 40
0.5454545454545454
 40
0.5757575757575758
 40
0.5757575757575758
 40
0.5757575757575758
 40
0.5757575757575758
 40
0.6060606060606061
 40
0.6060606060606061
 40
0.6060606060606061
 40
0.6060606060606061
 40
0.6363636363636364
 40
0.6363636363636364
 40
0.6363636363636364
 40
0.6363636363636364
 40
0.6666666666666666
 40
0.6666666666666666
 40
0.6666666666666666
 40
0.6666666666666666
 40
0.696969696969697
 40
0.696969696969697
 40
0.696969696969697
 40
0.696969696969697
 40
0.7272727272727273
 40
0.7272727272727273
 40
0.7272727272727273
 40
0.7272727272727273
 40
0.7575757575757576
 40
0.7575757575757576
 40
0.7575757575757576
 40
0.7575757575757576
 40
0.7878787878787878
 40
0.7878787878787878
 40
0.7878787878787878
 40
0.7878787878787878
 40
0.8181818181818182
 40
0.8181818181818182
 40
0.8181818181818182
 40
0.8181818181818182
 40
0.8484848484848485
 40
0.8484848484848485
 40
0.8484848484848485
 40
0.8484848484848485
 40
0.8787878787878788
 40
0.8787878787878788
 40
0.8787878787878788
 40
0.8787878787878788
 40
0.9090909090909091
 40
0.9090909090909091
 40
0.9090909090909091
 40
0.9090909090909091
 40
0.9393939393939394
 40
0.9393939393939394
 40
0.9393939393939394
 40
0.9393939393939394
 40
1.0
 40
1.0
 40
1.0
 40
1.0
 10
-139.3182
 20
-37.3641
 30
0.0
 10
-139.8884
 20
-36.2288
 30
0.0
 10
-140.3663
 20
-34.9952
 30
0.0
 10
-140.7414
 20
-33.69
 30
0.0
 10
-140.7414
 20
-33.69
 30
0.0
 10
-141.6703
 20
-30.2644
 30
0.0
 10
-143.2003
 20
-27.2797
 30
0.0
 10
-145.1693
 20
-25.0526
 30
0.0
 10
-145.1693
 20
-25.0526
 30
0.0
 10
-149.2866
 20
-19.9538
 30
0.0
 10
-154.277
 20
-16.6929
 30
0.0
 10
-159.5711
 20
-15.6419
 30
0.0
 10
-159.5711
 20
-15.6419
 30
0.0
 10
-163.6217
 20
-14.6627
 30
0.0
 10
-167.7693
 20
-16.0217
 30
0.0
 10
-171.1783
 20
-19.4447
 30
0.0
 10
-171.1783
 20
-19.4447
 30
0.0
 10
-172.9438
 20
-21.1003
 30
0.0
 10
-173.9017
 20
-24.149
 30
0.0
 10
-173.6287
 20
-27.2441
 30
0.0
 10
-173.6287
 20
-27.2441
 30
0.0
 10
-172.8294
 20
-30.7724
 30
0.0
 10
-170.8553
 20
-33.4139
 30
0.0
 10
-168.427
 20
-34.2056
 30
0.0
 10
-168.427
 20
-34.2056
 30
0.0
 10
-166.4453
 20
-33.4617
 30
0.0
 10
-164.3668
 20
-33.5283
 30
0.0
 10
-162.4084
 20
-34.3993
 30
0.0
 10
-162.4084
 20
-34.3993
 30
0.0
 10
-162.134
 20
-34.7537
 30
0.0
 10
-161.7454
 20
-34.8294
 30
0.0
 10
-161.4196
 20
-34.5925
 30
0.0
 10
-161.4196
 20
-34.5925
 30
0.0
 10
-160.0148
 20
-33.9966
 30
0.0
 10
-158.73
 20
-32.8897
 30
0.0
 10
-157.6796
 20
-31.3698
 30
0.0
 10
-157.6796
 20
-31.3698
 30
0.0
 10
-156.8428
 20
-30.3656
 30
0.0
 10
-156.43
 20
-28.765
 30
0.0
 10
-156.5989
 20
-27.178
 30
0.0
 10
-156.5989
 20
-27.178
 30
0.0
 10
-156.7679
 20
-25.5911
 30
0.0
 10
-157.4925
 20
-24.2625
 30
0.0
 10
-158.4962
 20
-23.699
 30
0.0
 10
-158.4962
 20
-23.699
 30
0.0
 10
-159.374
 20
-23.3661
 30
0.0
 10
-160.1572
 20
-22.6206
 30
0.0
 10
-160.7317
 20
-21.5717
 30
0.0
 10
-160.7317
 20
-21.5717
 30
0.0
 10
-158.4102
 20
-20.8877
 30
0.0
 10
-156.0036
 20
-21.316
 30
0.0
 10
-153.8533
 20
-22.7965
 30
0.0
 10
-153.8533
 20
-22.7965
 30
0.0
 10
-152.4068
 20
-23.7871
 30
0.0
 10
-151.2467
 20
-25.5265
 30
0.0
 10
-150.5861
 20
-27.6957
 30
0.0
 10
-150.5861
 20
-27.6957
 30
0.0
 10
-150.2164
 20
-29.7489
 30
0.0
 10
-150.4199
 20
-31.9393
 30
0.0
 10
-151.1497
 20
-33.7633
 30
0.0
 10
-151.1497
 20
-33.7633
 30
0.0
 10
-151.8797
 20
-35.5865
 30
0.0
 10
-153.0729
 20
-36.8868
 30
0.0
 10
-154.4552
 20
-37.3641
 30
0.0
 10
-154.4552
 20
-37.3641
 30
0.0
 10
-153.0729
 20
-37.8416
 30
0.0
 10
-151.8797
 20
-39.1417
 30
0.0
 10
-151.1497
 20
-40.9651
 30
0.0
 10
-151.1497
 20
-40.9651
 30
0.0
 10
-150.4199
 20
-42.789
 30
0.0
 10
-150.2164
 20
-44.9795
 30
0.0
 10
-150.5861
 20
-47.0333
 30
0.0
 10
-150.5861
 20
-47.0333
 30
0.0
 10
-151.2467
 20
-49.2019
 30
0.0
 10
-152.4068
 20
-50.9413
 30
0.0
 10
-153.8533
 20
-51.9318
 30
0.0
 10
-153.8533
 20
-51.9318
 30
0.0
 10
-156.0036
 20
-53.4123
 30
0.0
 10
-158.4102
 20
-53.8409
 30
0.0
 10
-160.7317
 20
-53.1565
 30
0.0
 10
-160.7317
 20
-53.1565
 30
0.0
 10
-160.1572
 20
-52.1077
 30
0.0
 10
-159.374
 20
-51.3623
 30
0.0
 10
-158.4962
 20
-51.0292
 30
0.0
 10
-158.4962
 20
-51.0292
 30
0.0
 10
-157.4925
 20
-50.4659
 30
0.0
 10
-156.7679
 20
-49.1372
 30
0.0
 10
-156.5989
 20
-47.5508
 30
0.0
 10
-156.5989
 20
-47.5508
 30
0.0
 10
-156.43
 20
-45.9639
 30
0.0
 10
-156.8428
 20
-44.3628
 30
0.0
 10
-157.6796
 20
-43.3585
 30
0.0
 10
-157.6796
 20
-43.3585
 30
0.0
 10
-158.73
 20
-41.8387
 30
0.0
 10
-160.0148
 20
-40.7318
 30
0.0
 10
-161.4196
 20
-40.1358
 30
0.0
 10
-161.4196
 20
-40.1358
 30
0.0
 10
-161.7454
 20
-39.8988
 30
0.0
 10
-162.134
 20
-39.9747
 30
0.0
 10
-162.4084
 20
-40.3295
 30
0.0
 10
-162.4084
 20
-40.3295
 30
0.0
 10
-164.3668
 20
-41.2001
 30
0.0
 10
-166.4453
 20
-41.2667
 30
0.0
 10
-168.427
 20
-40.5228
 30
0.0
 10
-168.427
 20
-40.5228
 30
0.0
 10
-170.8553
 20
-41.3145
 30
0.0
 10
-172.8294
 20
-43.9559
 30
0.0
 10
-173.6287
 20
-47.4843
 30
0.0
 10
-173.6287
 20
-47.4843
 30
0.0
 10
-173.9017
 20
-50.5792
 30
0.0
 10
-172.9438
 20
-53.6282
 30
0.0
 10
-171.1783
 20
-55.2837
 30
0.0
 10
-171.1783
 20
-55.2837
 30
0.0
 10
-167.7693
 20
-58.7067
 30
0.0
 10
-163.6217
 20
-60.0657
 30
0.0
 10
-159.5711
 20
-59.0866
 30
0.0
 10
-159.5711
 20
-59.0866
 30
0.0
 10
-154.277
 20
-58.0356
 30
0.0
 10
-149.2866
 20
-54.7746
 30
0.0
 10
-145.1693
 20
-49.6756
 30
0.0
 10
-145.1693
 20
-49.6756
 30
0.0
 10
-143.2003
 20
-47.4487
 30
0.0
 10
-141.6703
 20
-44.464
 30
0.0
 10
-140.7414
 20
-41.0384
 30
0.0
 10
-140.7414
 20
-41.0384
 30
0.0
 10
-140.3663
 20
-39.7331
 30
0.0
 10
-139.8884
 20
-38.4996
 30
0.0
 10
-139.3182
 20
-37.3641
 30
0.0
  0
SPLINE
  5
5B
330
1F
100
AcDbEntity
  8
layer 1
 62
     7
370
     9
100
AcDbSpline
210
0.0
220
0.0
230
1.0
 70
    11
 71
     3
 72
   124
 73
   120
 74
     0
 42
0.0000000001
 43
0.0000000001
 12
1.0
 22
0.0
 32
0.0
 13
1.0
 23
0.0
 33
0.0
 40
0.0
 40
0.0
 40
0.0
 40
0.0
 40
0.032258064516129
 40
0.032258064516129
 40
0.032258064516129
 40
0.032258064516129
 40
0.0645161290322581
 40
0.0645161290322581
 40
0.0645161290322581
 40
0.0645161290322581
 40
0.0967741935483871
 40
0.0967741935483871
 40
0.0967741935483871
 40
0.0967741935483871
 40
0.1290322580645161
 40
0.1290322580645161
 40
0.1290322580645161
 40
0.1290322580645161
 40
0.1612903225806452
 40
0.1612903225806452
 40
0.1612903225806452
 40
0.1612903225806452
 40
0.1935483870967742
 40
0.1935483870967742
 40
0.1935483870967742
 40
0.1935483870967742
 40
0.2258064516129032
 40
0.2258064516129032
 40
0.2258064516129032
 40
0.2258064516129032
 40
0.2580645161290323
 40
0.2580645161290323
 40
0.2580645161290323
 40
0.2580645161290323
 40
0.2903225806451613
 40
0.2903225806451613
 40
0.2903225806451613
 40
0.2903225806451613
 40
0.3225806451612903
 40
0.3225806451612903
 40
0.3225806451612903
 40
0.3225806451612903
 40
0.3548387096774194
 40
0.3548387096774194
 40
0.3548387096774194
 40
0.3548387096774194
 40
0.3870967741935484
 40
0.3870967741935484
 40
0.3870967741935484
 40
0.3870967741935484
 40
0.4193548387096774
 40
0.4193548387096774
 40
0.4193548387096774
 40
0.4193548387096774
 40
0.4516129032258064
 40
0.4516129032258064
 40
0.4516129032258064
 40
0.4516129032258064
 40
0.4838709677419355
 40
0.4838709677419355
 40
0.4838709677419355
 40
0.4838709677419355
 40
0.5161290322580645
 40
0.5161290322580645
 40
0.5161290322580645
 40
0.5161290322580645
 40
0.5483870967741935
 40
0.5483870967741935
 40
0.5483870967741935
 40
0.5483870967741935
 40
0.5806451612903226
 40
0.5806451612903226
 40
0.5806451612903226
 40
0.5806451612903226
 40
0.6129032258064516
 40
0.6129032258064516
 40
0.6129032258064516
 40
0.6129032258064516
 40
0.6451612903225806
 40
0.6451612903225806
 40
0.6451612903225806
 40
0.6451612903225806
 40
0.6774193548387096
 40
0.6774193548387096
 40
0.6774193548387096
 40
0.6774193548387096
 40
0.7096774193548387
 40
0.7096774193548387
 40
0.7096774193548387
 40
0.7096774193548387
 40
0.7419354838709677
 40
0.7419354838709677
 40
0.7419354838709677
 40
0.7419354838709677
 40
0.7741935483870968
 40
0.7741935483870968
 40
0.7741935483870968
 40
0.7741935483870968
 40
0.8064516129032258
 40
0.8064516129032258
 40
0.8064516129032258
 40
0.8064516129032258
 40
0.8387096774193549
 40
0.8387096774193549
 40
0.8387096774193549
 40
0.8387096774193549
 40
0.8709677419354839
 40
0.8709677419354839
 40
0.8709677419354839
 40
0.8709677419354839
 40
0.9032258064516129
 40
0.9032258064516129
 40
0.9032258064516129
 40
0.9032258064516129
 40
0.9354838709677419
 40
0.9354838709677419
 40
0.9354838709677419
 40
0.9354838709677419
 40
1.0
 40
1.0
 40
1.0
 40
1.0
 10
-127.3713
 20
-26.2573
 30
0.0
 10
-133.3315
 20
-25.3079
 30
0.0
 10
-139.0974
 20
-22.5285
 30
0.0
 10
-144.3095
 20
-18.0911
 30
0.0
 10
-144.3095
 20
-18.0911
 30
0.0
 10
-146.3734
 20
-16.3151
 30
0.0
 10
-148.1732
 20
-13.9238
 30
0.0
 10
-149.5973
 20
-11.0652
 30
0.0
 10
-149.5973
 20
-11.0652
 30
0.0
 10
-150.8235
 20
-9.1696
 30
0.0
 10
-151.4896
 20
-6.6146
 30
0.0
 10
-151.4459
 20
-3.9746
 30
0.0
 10
-151.4459
 20
-3.9746
 30
0.0
 10
-150.7305
 20
-0.2618
 30
0.0
 10
-149.039
 20
2.8561
 30
0.0
 10
-146.7597
 20
4.6628
 30
0.0
 10
-146.7597
 20
4.6628
 30
0.0
 10
-142.6629
 20
2.5658
 30
0.0
 10
-138.218
 20
2.5658
 30
0.0
 10
-134.1209
 20
4.6628
 30
0.0
 10
-134.1209
 20
4.6628
 30
0.0
 10
-133.0186
 20
3.7948
 30
0.0
 10
-132.0517
 20
2.5861
 30
0.0
 10
-131.2837
 20
1.1171
 30
0.0
 10
-131.2837
 20
1.1171
 30
0.0
 10
-131.1783
 20
0.7516
 30
0.0
 10
-131.1555
 20
0.3443
 30
0.0
 10
-131.2189
 20
-0.0426
 30
0.0
 10
-131.2189
 20
-0.0426
 30
0.0
 10
-131.4256
 20
-1.026
 30
0.0
 10
-131.395
 20
-2.0872
 30
0.0
 10
-131.1331
 20
-3.0401
 30
0.0
 10
-131.1331
 20
-3.0401
 30
0.0
 10
-130.9733
 20
-3.4905
 30
0.0
 10
-131.0163
 20
-4.0422
 30
0.0
 10
-131.2405
 20
-4.4261
 30
0.0
 10
-131.2405
 20
-4.4261
 30
0.0
 10
-132.4513
 20
-7.3031
 30
0.0
 10
-134.4337
 20
-9.2531
 30
0.0
 10
-136.6759
 20
-9.7721
 30
0.0
 10
-136.6759
 20
-9.7721
 30
0.0
 10
-138.9184
 20
-10.2913
 30
0.0
 10
-141.2008
 20
-9.3287
 30
0.0
 10
-142.9338
 20
-7.1332
 30
0.0
 10
-142.9338
 20
-7.1332
 30
0.0
 10
-143.5705
 20
-6.4259
 30
0.0
 10
-144.3345
 20
-6.0218
 30
0.0
 10
-145.1261
 20
-5.9729
 30
0.0
 10
-145.1261
 20
-5.9729
 30
0.0
 10
-145.2542
 20
-6.9547
 30
0.0
 10
-145.2395
 20
-7.9655
 30
0.0
 10
-145.0832
 20
-8.9383
 30
0.0
 10
-145.0832
 20
-8.9383
 30
0.0
 10
-143.4453
 20
-12.7731
 30
0.0
 10
-140.6786
 20
-15.1949
 30
0.0
 10
-137.646
 20
-15.4482
 30
0.0
 10
-137.646
 20
-15.4482
 30
0.0
 10
-133.9351
 20
-15.9846
 30
0.0
 10
-130.2355
 20
-14.2726
 30
0.0
 10
-127.3713
 20
-10.695
 30
0.0
 10
-127.3713
 20
-10.695
 30
0.0
 10
-124.5073
 20
-14.2726
 30
0.0
 10
-120.8074
 20
-15.9846
 30
0.0
 10
-117.0966
 20
-15.4482
 30
0.0
 10
-117.0966
 20
-15.4482
 30
0.0
 10
-114.0642
 20
-15.1949
 30
0.0
 10
-111.2973
 20
-12.7731
 30
0.0
 10
-109.6593
 20
-8.9383
 30
0.0
 10
-109.6593
 20
-8.9383
 30
0.0
 10
-109.5033
 20
-7.9655
 30
0.0
 10
-109.4886
 20
-6.9547
 30
0.0
 10
-109.6165
 20
-5.9729
 30
0.0
 10
-109.6165
 20
-5.9729
 30
0.0
 10
-110.4083
 20
-6.0218
 30
0.0
 10
-111.1721
 20
-6.4259
 30
0.0
 10
-111.8091
 20
-7.1332
 30
0.0
 10
-111.8091
 20
-7.1332
 30
0.0
 10
-113.5421
 20
-9.3287
 30
0.0
 10
-115.8246
 20
-10.2913
 30
0.0
 10
-118.0667
 20
-9.7721
 30
0.0
 10
-118.0667
 20
-9.7721
 30
0.0
 10
-120.3092
 20
-9.2531
 30
0.0
 10
-122.2917
 20
-7.3031
 30
0.0
 10
-123.5021
 20
-4.4261
 30
0.0
 10
-123.5021
 20
-4.4261
 30
0.0
 10
-123.7267
 20
-4.0422
 30
0.0
 10
-123.7695
 20
-3.4905
 30
0.0
 10
-123.6098
 20
-3.0401
 30
0.0
 10
-123.6098
 20
-3.0401
 30
0.0
 10
-123.3478
 20
-2.0872
 30
0.0
 10
-123.3173
 20
-1.026
 30
0.0
 10
-123.5238
 20
-0.0426
 30
0.0
 10
-123.5238
 20
-0.0426
 30
0.0
 10
-123.5871
 20
0.3443
 30
0.0
 10
-123.5643
 20
0.7516
 30
0.0
 10
-123.4592
 20
1.1171
 30
0.0
 10
-123.4592
 20
1.1171
 30
0.0
 10
-122.6912
 20
2.5861
 30
0.0
 10
-121.724
 20
3.7948
 30
0.0
 10
-120.6218
 20
4.6628
 30
0.0
 10
-120.6218
 20
4.6628
 30
0.0
 10
-116.5249
 20
2.5658
 30
0.0
 10
-112.0797
 20
2.5658
 30
0.0
 10
-107.9828
 20
4.6628
 30
0.0
 10
-107.9828
 20
4.6628
 30
0.0
 10
-105.7038
 20
2.8561
 30
0.0
 10
-104.0124
 20
-0.2618
 30
0.0
 10
-103.297
 20
-3.9746
 30
0.0
 10
-103.297
 20
-3.9746
 30
0.0
 10
-103.2532
 20
-6.6146
 30
0.0
 10
-103.9193
 20
-9.1696
 30
0.0
 10
-105.1454
 20
-11.0652
 30
0.0
 10
-105.1454
 20
-11.0652
 30
0.0
 10
-106.5698
 20
-13.9238
 30
0.0
 10
-108.3692
 20
-16.3151
 30
0.0
 10
-110.4331
 20
-18.0911
 30
0.0
 10
-110.4331
 20
-18.0911
 30
0.0
 10
-115.6454
 20
-22.5285
 30
0.0
 10
-121.4114
 20
-25.3079
 30
0.0
 10
-127.3713
 20
-26.2573
 30
0.0
  0
SPLINE
  5
5C
330
1F
100
AcDbEntity
  8
layer 1
 62
     7
370
     9
100
AcDbSpline
210
0.0
220
0.0
230
1.0
 70
    11
 71
     3
 72
    52
 73
    48
 74
     0
 42
0.0000000001
 43
0.0000000001
 12
1.0
 22
0.0
 32
0.0
 13
1.0
 23
0.0
 33
0.0
 40
0.0
 40
0.0
 40
0.0
 40
0.0
 40
0.0769230769230769
 40
0.0769230769230769
 40
0.0769230769230769
 40
0.0769230769230769
 40
0.1538461538461539
 40
0.1538461538461539
 40
0.1538461538461539
 40
0.1538461538461539
 40
0.2307692307692308
 40
0.2307692307692308
 40
0.2307692307692308
 40
0.2307692307692308
 40
0.3076923076923077
 40
0.3076923076923077
 40
0.3076923076923077
 40
0.3076923076923077
 40
0.3846153846153846
 40
0.3846153846153846
 40
0.3846153846153846
 40
0.3846153846153846
 40
0.4615384615384616
 40
0.4615384615384616
 40
0.4615384615384616
 40
0.4615384615384616
 40
0.5384615384615384
 40
0.5384615384615384
 40
0.5384615384615384
 40
0.5384615384615384
 40
0.6153846153846154
 40
0.6153846153846154
 40
0.6153846153846154
 40
0.6153846153846154
 40
0.6923076923076923
 40
0.6923076923076923
 40
0.6923076923076923
 40
0.6923076923076923
 40
0.7692307692307693
 40
0.7692307692307693
 40
0.7692307692307693
 40
0.7692307692307693
 40
0.8461538461538461
 40
0.8461538461538461
 40
0.8461538461538461
 40
0.8461538461538461
 40
1.0
 40
1.0
 40
1.0
 40
1.0
 10
-124.4936
 20
-37.3641
 30
0.0
 10
-123.9002
 20
-38.5799
 30
0.0
 10
-123.347
 20
-39.8384
 30
0.0
 10
-122.836
 20
-41.1349
 30
0.0
 10
-122.836
 20
-41.1349
 30
0.0
 10
-124.3312
 20
-40.4323
 30
0.0
 10
-125.8361
 20
-39.7769
 30
0.0
 10
-127.35
 20
-39.1692
 30
0.0
 10
-127.35
 20
-39.1692
 30
0.0
 10
-127.35
 20
-39.1692
 30
0.0
 10
-127.3713
 20
-39.157
 30
0.0
 10
-127.3713
 20
-39.157
 30
0.0
 10
-127.3713
 20
-39.157
 30
0.0
 10
-127.3713
 20
-39.157
 30
0.0
 10
-127.3929
 20
-39.1692
 30
0.0
 10
-127.3929
 20
-39.1692
 30
0.0
 10
-127.3929
 20
-39.1692
 30
0.0
 10
-128.9068
 20
-39.7769
 30
0.0
 10
-130.4117
 20
-40.4323
 30
0.0
 10
-131.9069
 20
-41.1349
 30
0.0
 10
-131.9069
 20
-41.1349
 30
0.0
 10
-131.3959
 20
-39.8384
 30
0.0
 10
-130.8426
 20
-38.5799
 30
0.0
 10
-130.2491
 20
-37.3641
 30
0.0
 10
-130.2491
 20
-37.3641
 30
0.0
 10
-130.8426
 20
-36.1489
 30
0.0
 10
-131.3959
 20
-34.8905
 30
0.0
 10
-131.9069
 20
-33.5933
 30
0.0
 10
-131.9069
 20
-33.5933
 30
0.0
 10
-130.4117
 20
-34.2961
 30
0.0
 10
-128.9068
 20
-34.9521
 30
0.0
 10
-127.3929
 20
-35.5592
 30
0.0
 10
-127.3929
 20
-35.5592
 30
0.0
 10
-127.3929
 20
-35.5592
 30
0.0
 10
-127.3713
 20
-35.5718
 30
0.0
 10
-127.3713
 20
-35.5718
 30
0.0
 10
-127.3713
 20
-35.5718
 30
0.0
 10
-127.3713
 20
-35.5718
 30
0.0
 10
-127.35
 20
-35.5592
 30
0.0
 10
-127.35
 20
-35.5592
 30
0.0
 10
-127.35
 20
-35.5592
 30
0.0
 10
-125.8361
 20
-34.9521
 30
0.0
 10
-124.3312
 20
-34.2961
 30
0.0
 10
-122.836
 20
-33.5933
 30
0.0
 10
-122.836
 20
-33.5933
 30
0.0
 10
-123.347
 20
-34.8905
 30
0.0
 10
-123.9002
 20
-36.1489
 30
0.0
 10
-124.4936
 20
-37.3641
 30
0.0
  0
SPLINE
  5
5D
330
1F
100
AcDbEntity
  8
layer 1
 62
     7
370
     9
100
AcDbSpline
210
0.0
220
0.0
230
1.0
 70
    11
 71
     3
 72
    44
 73
    40
 74
     0
 42
0.0000000001
 43
0.0000000001
 12
1.0
 22
0.0
 32
0.0
 13
1.0
 23
0.0
 33
0.0
 40
0.0
 40
0.0
 40
0.0
 40
0.0
 40
0.0909090909090909
 40
0.0909090909090909
 40
0.0909090909090909
 40
0.0909090909090909
 40
0.1818181818181818
 40
0.1818181818181818
 40
0.1818181818181818
 40
0.1818181818181818
 40
0.2727272727272727
 40
0.2727272727272727
 40
0.2727272727272727
 40
0.2727272727272727
 40
0.3636363636363636
 40
0.3636363636363636
 40
0.3636363636363636
 40
0.3636363636363636
 40
0.4545454545454545
 40
0.4545454545454545
 40
0.4545454545454545
 40
0.4545454545454545
 40
0.5454545454545454
 40
0.5454545454545454
 40
0.5454545454545454
 40
0.5454545454545454
 40
0.6363636363636364
 40
0.6363636363636364
 40
0.6363636363636364
 40
0.6363636363636364
 40
0.7272727272727273
 40
0.7272727272727273
 40
0.7272727272727273
 40
0.7272727272727273
 40
0.8181818181818182
 40
0.8181818181818182
 40
0.8181818181818182
 40
0.8181818181818182
 40
1.0
 40
1.0
 40
1.0
 40
1.0
 10
-175.2194
 20
-12.7411
 30
0.0
 10
-175.3212
 20
-6.9197
 30
0.0
 10
-175.3643
 20
-1.0962
 30
0.0
 10
-175.3484
 20
4.7268
 30
0.0
 10
-175.3484
 20
4.7268
 30
0.0
 10
-174.0242
 20
2.6634
 30
0.0
 10
-172.448
 20
1.0008
 30
0.0
 10
-170.7055
 20
-0.1717
 30
0.0
 10
-170.7055
 20
-0.1717
 30
0.0
 10
-171.384
 20
-0.4494
 30
0.0
 10
-171.9487
 20
-1.1551
 30
0.0
 10
-172.2531
 20
-2.1055
 30
0.0
 10
-172.2531
 20
-2.1055
 30
0.0
 10
-172.7174
 20
-3.2475
 30
0.0
 10
-172.4882
 20
-4.7362
 30
0.0
 10
-171.7372
 20
-5.4573
 30
0.0
 10
-171.7372
 20
-5.4573
 30
0.0
 10
-170.7791
 20
-6.2062
 30
0.0
 10
-169.7216
 20
-6.6242
 30
0.0
 10
-168.642
 20
-6.6822
 30
0.0
 10
-168.642
 20
-6.6822
 30
0.0
 10
-169.1024
 20
-6.2062
 30
0.0
 10
-169.3503
 20
-5.3881
 30
0.0
 10
-169.2868
 20
-4.5548
 30
0.0
 10
-169.2868
 20
-4.5548
 30
0.0
 10
-169.2142
 20
-4.0855
 30
0.0
 10
-168.9592
 20
-3.729
 30
0.0
 10
-168.642
 20
-3.6528
 30
0.0
 10
-168.642
 20
-3.6528
 30
0.0
 10
-166.9357
 20
-3.3975
 30
0.0
 10
-165.2195
 20
-3.9614
 30
0.0
 10
-163.741
 20
-5.264
 30
0.0
 10
-163.741
 20
-5.264
 30
0.0
 10
-162.4086
 20
-6.4935
 30
0.0
 10
-161.206
 20
-8.0144
 30
0.0
 10
-160.1728
 20
-9.7763
 30
0.0
 10
-160.1728
 20
-9.7763
 30
0.0
 10
-165.2694
 20
-8.2564
 30
0.0
 10
-170.5578
 20
-9.2988
 30
0.0
 10
-175.2194
 20
-12.7411
 30
0.0
  0
SPLINE
  5
5E
330
1F
100
AcDbEntity
  8
layer 1
 62
     7
370
     9
100
AcDbSpline
210
0.0
220
0.0
230
1.0
 70
    11
 71
     3
 72
    40
 73
    36
 74
     0
 42
0.0000000001
 43
0.0000000001
 12
1.0
 22
0.0
 32
0.0
 13
1.0
 23
0.0
 33
0.0
 40
0.0
 40
0.0
 40
0.0
 40
0.0
 40
0.1
 40
0.1
 40
0.1
 40
0.1
 40
0.2
 40
0.2
 40
0.2
 40
0.2
 40
0.3
 40
0.3
 40
0.3
 40
0.3
 40
0.4
 40
0.4
 40
0.4
 40
0.4
 40
0.5
 40
0.5
 40
0.5
 40
0.5
 40
0.6
 40
0.6
 40
0.6
 40
0.6
 40
0.7
 40
0.7
 40
0.7
 40
0.7
 40
0.8
 40
0.8
 40
0.8
 40
0.8
 40
1.0
 40
1.0
 40
1.0
 40
1.0
 10
-170.2326
 20
-74.1054
 30
0.0
 10
-170.8713
 20
-73.6582
 30
0.0
 10
-171.4531
 20
-73.0473
 30
0.0
 10
-171.9522
 20
-72.3007
 30
0.0
 10
-171.9522
 20
-72.3007
 30
0.0
 10
-172.4379
 20
-71.4201
 30
0.0
 10
-172.4102
 20
-70.1351
 30
0.0
 10
-171.8877
 20
-69.3033
 30
0.0
 10
-171.8877
 20
-69.3033
 30
0.0
 10
-171.0188
 20
-68.0686
 30
0.0
 10
-169.8323
 20
-67.4677
 30
0.0
 10
-168.642
 20
-67.6595
 30
0.0
 10
-168.642
 20
-67.6595
 30
0.0
 10
-169.1897
 20
-68.1474
 30
0.0
 10
-169.4534
 20
-69.1227
 30
0.0
 10
-169.2868
 20
-70.0446
 30
0.0
 10
-169.2868
 20
-70.0446
 30
0.0
 10
-169.0691
 20
-70.7042
 30
0.0
 10
-168.5884
 20
-71.0711
 30
0.0
 10
-168.1045
 20
-70.9469
 30
0.0
 10
-168.1045
 20
-70.9469
 30
0.0
 10
-164.9482
 20
-70.8265
 30
0.0
 10
-162.0253
 20
-68.4251
 30
0.0
 10
-160.2589
 20
-64.5011
 30
0.0
 10
-160.2589
 20
-64.5011
 30
0.0
 10
-165.3072
 20
-65.9735
 30
0.0
 10
-170.534
 20
-65.1391
 30
0.0
 10
-175.2624
 20
-62.1059
 30
0.0
 10
-175.2624
 20
-62.1059
 30
0.0
 10
-175.2624
 20
-62.1059
 30
0.0
 10
-175.2624
 20
-79.4194
 30
0.0
 10
-175.2624
 20
-79.4194
 30
0.0
 10
-175.2624
 20
-79.4194
 30
0.0
 10
-174.0616
 20
-76.8062
 30
0.0
 10
-172.278
 20
-74.9216
 30
0.0
 10
-170.2326
 20
-74.1054
 30
0.0
  0
SPLINE
  5
5F
330
1F
100
AcDbEntity
  8
layer 1
 62
     7
370
     9
100
AcDbSpline
210
0.0
220
0.0
230
1.0
 70
    11
 71
     3
 72
    40
 73
    36
 74
     0
 42
0.0000000001
 43
0.0000000001
 12
1.0
 22
0.0
 32
0.0
 13
1.0
 23
0.0
 33
0.0
 40
0.0
 40
0.0
 40
0.0
 40
0.0
 40
0.1
 40
0.1
 40
0.1
 40
0.1
 40
0.2
 40
0.2
 40
0.2
 40
0.2
 40
0.3
 40
0.3
 40
0.3
 40
0.3
 40
0.4
 40
0.4
 40
0.4
 40
0.4
 40
0.5
 40
0.5
 40
0.5
 40
0.5
 40
0.6
 40
0.6
 40
0.6
 40
0.6
 40
0.7
 40
0.7
 40
0.7
 40
0.7
 40
0.8
 40
0.8
 40
0.8
 40
0.8
 40
1.0
 40
1.0
 40
1.0
 40
1.0
 10
-166.3204
 20
-77.7796
 30
0.0
 10
-164.9239
 20
-79.7413
 30
0.0
 10
-162.8979
 20
-80.3187
 30
0.0
 10
-161.1186
 20
-79.2622
 30
0.0
 10
-161.1186
 20
-79.2622
 30
0.0
 10
-160.3416
 20
-78.7505
 30
0.0
 10
-159.791
 20
-77.6824
 30
0.0
 10
-159.6569
 20
-76.4261
 30
0.0
 10
-159.6569
 20
-76.4261
 30
0.0
 10
-160.2634
 20
-76.7579
 30
0.0
 10
-160.903
 20
-76.9323
 30
0.0
 10
-161.5485
 20
-76.9417
 30
0.0
 10
-161.5485
 20
-76.9417
 30
0.0
 10
-161.8854
 20
-77.0709
 30
0.0
 10
-162.2427
 20
-76.9218
 30
0.0
 10
-162.4865
 20
-76.5498
 30
0.0
 10
-162.4865
 20
-76.5498
 30
0.0
 10
-162.73
 20
-76.1778
 30
0.0
 10
-162.8231
 20
-75.6396
 30
0.0
 10
-162.7308
 20
-75.1368
 30
0.0
 10
-162.7308
 20
-75.1368
 30
0.0
 10
-161.2692
 20
-71.5969
 30
0.0
 10
-158.9375
 20
-69.0616
 30
0.0
 10
-156.2394
 20
-68.0787
 30
0.0
 10
-156.2394
 20
-68.0787
 30
0.0
 10
-157.2916
 20
-73.4732
 30
0.0
 10
-156.2575
 20
-79.2978
 30
0.0
 10
-153.556
 20
-83.194
 30
0.0
 10
-153.556
 20
-83.194
 30
0.0
 10
-153.556
 20
-83.194
 30
0.0
 10
-172.396
 20
-83.194
 30
0.0
 10
-172.396
 20
-83.194
 30
0.0
 10
-172.396
 20
-83.194
 30
0.0
 10
-170.128
 20
-82.0875
 30
0.0
 10
-168.0526
 20
-80.238
 30
0.0
 10
-166.3204
 20
-77.7796
 30
0.0
  0
SPLINE
  5
60
330
1F
100
AcDbEntity
  8
layer 1
 62
     7
370
     9
100
AcDbSpline
210
0.0
220
0.0
230
1.0
 70
    11
 71
     3
 72
    40
 73
    36
 74
     0
 42
0.0000000001
 43
0.0000000001
 12
1.0
 22
0.0
 32
0.0
 13
1.0
 23
0.0
 33
0.0
 40
0.0
 40
0.0
 40
0.0
 40
0.0
 40
0.1
 40
0.1
 40
0.1
 40
0.1
 40
0.2
 40
0.2
 40
0.2
 40
0.2
 40
0.3
 40
0.3
 40
0.3
 40
0.3
 40
0.4
 40
0.4
 40
0.4
 40
0.4
 40
0.5
 40
0.5
 40
0.5
 40
0.5
 40
0.6
 40
0.6
 40
0.6
 40
0.6
 40
0.7
 40
0.7
 40
0.7
 40
0.7
 40
0.8
 40
0.8
 40
0.8
 40
0.8
 40
1.0
 40
1.0
 40
1.0
 40
1.0
 10
-93.9679
 20
-76.4904
 30
0.0
 10
-93.4305
 20
-77.3658
 30
0.0
 10
-92.5715
 20
-77.6025
 30
0.0
 10
-91.8616
 20
-77.0707
 30
0.0
 10
-91.8616
 20
-77.0707
 30
0.0
 10
-91.2695
 20
-76.4479
 30
0.0
 10
-91.0689
 20
-75.271
 30
0.0
 10
-91.3887
 20
-74.2988
 30
0.0
 10
-91.3887
 20
-74.2988
 30
0.0
 10
-92.9501
 20
-71.6497
 30
0.0
 10
-94.953
 20
-69.6697
 30
0.0
 10
-97.1923
 20
-68.5621
 30
0.0
 10
-97.1923
 20
-68.5621
 30
0.0
 10
-96.3531
 20
-73.9695
 30
0.0
 10
-97.6975
 20
-79.6137
 30
0.0
 10
-100.6314
 20
-83.0009
 30
0.0
 10
-100.6314
 20
-83.0009
 30
0.0
 10
-94.6012
 20
-82.6283
 30
0.0
 10
-88.563
 20
-82.6283
 30
0.0
 10
-82.5326
 20
-83.0009
 30
0.0
 10
-82.5326
 20
-83.0009
 30
0.0
 10
-84.52
 20
-82.0816
 30
0.0
 10
-86.2935
 20
-80.3387
 30
0.0
 10
-87.6485
 20
-77.9729
 30
0.0
 10
-87.6485
 20
-77.9729
 30
0.0
 10
-88.7976
 20
-79.3511
 30
0.0
 10
-90.2182
 20
-80.1217
 30
0.0
 10
-91.6895
 20
-80.1645
 30
0.0
 10
-91.6895
 20
-80.1645
 30
0.0
 10
-92.3315
 20
-80.1991
 30
0.0
 10
-92.9514
 20
-79.8138
 30
0.0
 10
-93.3891
 20
-79.1084
 30
0.0
 10
-93.3891
 20
-79.1084
 30
0.0
 10
-93.8263
 20
-78.4032
 30
0.0
 10
-94.0376
 20
-77.4477
 30
0.0
 10
-93.9679
 20
-76.4904
 30
0.0
  0
SPLINE
  5
61
330
1F
100
AcDbEntity
  8
layer 1
 62
     7
370
     9
100
AcDbSpline
210
0.0
220
0.0
230
1.0
 70
    11
 71
     3
 72
   124
 73
   120
 74
     0
 42
0.0000000001
 43
0.0000000001
 12
1.0
 22
0.0
 32
0.0
 13
1.0
 23
0.0
 33
0.0
 40
0.0
 40
0.0
 40
0.0
 40
0.0
 40
0.032258064516129
 40
0.032258064516129
 40
0.032258064516129
 40
0.032258064516129
 40
0.0645161290322581
 40
0.0645161290322581
 40
0.0645161290322581
 40
0.0645161290322581
 40
0.0967741935483871
 40
0.0967741935483871
 40
0.0967741935483871
 40
0.0967741935483871
 40
0.1290322580645161
 40
0.1290322580645161
 40
0.1290322580645161
 40
0.1290322580645161
 40
0.1612903225806452
 40
0.1612903225806452
 40
0.1612903225806452
 40
0.1612903225806452
 40
0.1935483870967742
 40
0.1935483870967742
 40
0.1935483870967742
 40
0.1935483870967742
 40
0.2258064516129032
 40
0.2258064516129032
 40
0.2258064516129032
 40
0.2258064516129032
 40
0.2580645161290323
 40
0.2580645161290323
 40
0.2580645161290323
 40
0.2580645161290323
 40
0.2903225806451613
 40
0.2903225806451613
 40
0.2903225806451613
 40
0.2903225806451613
 40
0.3225806451612903
 40
0.3225806451612903
 40
0.3225806451612903
 40
0.3225806451612903
 40
0.3548387096774194
 40
0.3548387096774194
 40
0.3548387096774194
 40
0.3548387096774194
 40
0.3870967741935484
 40
0.3870967741935484
 40
0.3870967741935484
 40
0.3870967741935484
 40
0.4193548387096774
 40
0.4193548387096774
 40
0.4193548387096774
 40
0.4193548387096774
 40
0.4516129032258064
 40
0.4516129032258064
 40
0.4516129032258064
 40
0.4516129032258064
 40
0.4838709677419355
 40
0.4838709677419355
 40
0.4838709677419355
 40
0.4838709677419355
 40
0.5161290322580645
 40
0.5161290322580645
 40
0.5161290322580645
 40
0.5161290322580645
 40
0.5483870967741935
 40
0.5483870967741935
 40
0.5483870967741935
 40
0.5483870967741935
 40
0.5806451612903226
 40
0.5806451612903226
 40
0.5806451612903226
 40
0.5806451612903226
 40
0.6129032258064516
 40
0.6129032258064516
 40
0.6129032258064516
 40
0.6129032258064516
 40
0.6451612903225806
 40
0.6451612903225806
 40
0.6451612903225806
 40
0.6451612903225806
 40
0.6774193548387096
 40
0.6774193548387096
 40
0.6774193548387096
 40
0.6774193548387096
 40
0.7096774193548387
 40
0.7096774193548387
 40
0.7096774193548387
 40
0.7096774193548387
 40
0.7419354838709677
 40
0.7419354838709677
 40
0.7419354838709677
 40
0.7419354838709677
 40
0.7741935483870968
 40
0.7741935483870968
 40
0.7741935483870968
 40
0.7741935483870968
 40
0.8064516129032258
 40
0.8064516129032258
 40
0.8064516129032258
 40
0.8064516129032258
 40
0.8387096774193549
 40
0.8387096774193549
 40
0.8387096774193549
 40
0.8387096774193549
 40
0.8709677419354839
 40
0.8709677419354839
 40
0.8709677419354839
 40
0.8709677419354839
 40
0.9032258064516129
 40
0.9032258064516129
 40
0.9032258064516129
 40
0.9032258064516129
 40
0.9354838709677419
 40
0.9354838709677419
 40
0.9354838709677419
 40
0.9354838709677419
 40
1.0
 40
1.0
 40
1.0
 40
1.0
 10
-55.8787
 20
-37.2996
 30
0.0
 10
-54.1944
 20
-36.5872
 30
0.0
 10
-52.8291
 20
-34.7354
 30
0.0
 10
-52.188
 20
-32.2943
 30
0.0
 10
-52.188
 20
-32.2943
 30
0.0
 10
-51.5467
 20
-29.8525
 30
0.0
 10
-51.7035
 20
-27.1023
 30
0.0
 10
-52.6115
 20
-24.8595
 30
0.0
 10
-52.6115
 20
-24.8595
 30
0.0
 10
-54.9909
 20
-21.2737
 30
0.0
 10
-58.4528
 20
-19.8291
 30
0.0
 10
-61.7255
 20
-21.0561
 30
0.0
 10
-61.7255
 20
-21.0561
 30
0.0
 10
-60.6394
 20
-21.7054
 30
0.0
 10
-59.6247
 20
-22.5963
 30
0.0
 10
-58.7162
 20
-23.699
 30
0.0
 10
-58.7162
 20
-23.699
 30
0.0
 10
-57.9536
 20
-24.6815
 30
0.0
 10
-57.5408
 20
-26.1412
 30
0.0
 10
-57.5999
 20
-27.6463
 30
0.0
 10
-57.5999
 20
-27.6463
 30
0.0
 10
-57.6589
 20
-29.1509
 30
0.0
 10
-58.1831
 20
-30.5283
 30
0.0
 10
-59.017
 20
-31.3698
 30
0.0
 10
-59.017
 20
-31.3698
 30
0.0
 10
-59.8826
 20
-32.4986
 30
0.0
 10
-60.8918
 20
-33.3539
 30
0.0
 10
-61.9835
 20
-33.8838
 30
0.0
 10
-61.9835
 20
-33.8838
 30
0.0
 10
-62.6904
 20
-34.2269
 30
0.0
 10
-63.4581
 20
-34.1577
 30
0.0
 10
-64.1329
 20
-33.69
 30
0.0
 10
-64.1329
 20
-33.69
 30
0.0
 10
-65.599
 20
-32.8404
 30
0.0
 10
-67.2237
 20
-32.8404
 30
0.0
 10
-68.6898
 20
-33.69
 30
0.0
 10
-68.6898
 20
-33.69
 30
0.0
 10
-69.3055
 20
-33.8603
 30
0.0
 10
-69.9408
 20
-33.6508
 30
0.0
 10
-70.4524
 20
-33.1098
 30
0.0
 10
-70.4524
 20
-33.1098
 30
0.0
 10
-71.3133
 20
-32.1555
 30
0.0
 10
-72.2184
 20
-31.2941
 30
0.0
 10
-73.1609
 20
-30.5319
 30
0.0
 10
-73.1609
 20
-30.5319
 30
0.0
 10
-71.9594
 20
-27.2258
 30
0.0
 10
-71.9918
 20
-23.2211
 30
0.0
 10
-73.2467
 20
-19.9604
 30
0.0
 10
-73.2467
 20
-19.9604
 30
0.0
 10
-68.148
 20
-14.3967
 30
0.0
 10
-61.4831
 20
-13.2242
 30
0.0
 10
-55.6637
 20
-16.8669
 30
0.0
 10
-55.6637
 20
-16.8669
 30
0.0
 10
-50.9502
 20
-18.9556
 30
0.0
 10
-46.7684
 20
-23.1352
 30
0.0
 10
-43.6695
 20
-28.8554
 30
0.0
 10
-43.6695
 20
-28.8554
 30
0.0
 10
-42.4678
 20
-31.5956
 30
0.0
 10
-41.3463
 20
-34.413
 30
0.0
 10
-40.3085
 20
-37.2996
 30
0.0
 10
-40.3085
 20
-37.2996
 30
0.0
 10
-41.3463
 20
-40.1867
 30
0.0
 10
-42.4678
 20
-43.004
 30
0.0
 10
-43.6695
 20
-45.7437
 30
0.0
 10
-43.6695
 20
-45.7437
 30
0.0
 10
-46.7684
 20
-51.4645
 30
0.0
 10
-50.9502
 20
-55.6442
 30
0.0
 10
-55.6637
 20
-57.7331
 30
0.0
 10
-55.6637
 20
-57.7331
 30
0.0
 10
-61.4831
 20
-61.3756
 30
0.0
 10
-68.148
 20
-60.2028
 30
0.0
 10
-73.2467
 20
-54.639
 30
0.0
 10
-73.2467
 20
-54.639
 30
0.0
 10
-71.9918
 20
-51.3786
 30
0.0
 10
-71.9594
 20
-47.3734
 30
0.0
 10
-73.1609
 20
-44.0679
 30
0.0
 10
-73.1609
 20
-44.0679
 30
0.0
 10
-72.2184
 20
-43.3056
 30
0.0
 10
-71.3133
 20
-42.4438
 30
0.0
 10
-70.4524
 20
-41.4893
 30
0.0
 10
-70.4524
 20
-41.4893
 30
0.0
 10
-69.9408
 20
-40.9484
 30
0.0
 10
-69.3055
 20
-40.7394
 30
0.0
 10
-68.6898
 20
-40.9092
 30
0.0
 10
-68.6898
 20
-40.9092
 30
0.0
 10
-67.2237
 20
-41.7593
 30
0.0
 10
-65.599
 20
-41.7593
 30
0.0
 10
-64.1329
 20
-40.9092
 30
0.0
 10
-64.1329
 20
-40.9092
 30
0.0
 10
-63.4581
 20
-40.4419
 30
0.0
 10
-62.6904
 20
-40.3727
 30
0.0
 10
-61.9835
 20
-40.7159
 30
0.0
 10
-61.9835
 20
-40.7159
 30
0.0
 10
-60.8918
 20
-41.2458
 30
0.0
 10
-59.8826
 20
-42.101
 30
0.0
 10
-59.017
 20
-43.2299
 30
0.0
 10
-59.017
 20
-43.2299
 30
0.0
 10
-58.1831
 20
-44.0713
 30
0.0
 10
-57.6589
 20
-45.4488
 30
0.0
 10
-57.5999
 20
-46.9534
 30
0.0
 10
-57.5999
 20
-46.9534
 30
0.0
 10
-57.5408
 20
-48.4584
 30
0.0
 10
-57.9536
 20
-49.9178
 30
0.0
 10
-58.7162
 20
-50.9006
 30
0.0
 10
-58.7162
 20
-50.9006
 30
0.0
 10
-59.6247
 20
-52.0035
 30
0.0
 10
-60.6394
 20
-52.8943
 30
0.0
 10
-61.7255
 20
-53.5432
 30
0.0
 10
-61.7255
 20
-53.5432
 30
0.0
 10
-58.4528
 20
-54.7705
 30
0.0
 10
-54.9909
 20
-53.326
 30
0.0
 10
-52.6115
 20
-49.7402
 30
0.0
 10
-52.6115
 20
-49.7402
 30
0.0
 10
-51.7035
 20
-47.4974
 30
0.0
 10
-51.5467
 20
-44.7466
 30
0.0
 10
-52.188
 20
-42.3054
 30
0.0
 10
-52.188
 20
-42.3054
 30
0.0
 10
-52.8291
 20
-39.8638
 30
0.0
 10
-54.1944
 20
-38.0124
 30
0.0
 10
-55.8787
 20
-37.2996
 30
0.0
  0
SPLINE
  5
62
330
1F
100
AcDbEntity
  8
layer 1
 62
     7
370
     9
100
AcDbSpline
210
0.0
220
0.0
230
1.0
 70
    11
 71
     3
 72
   108
 73
   104
 74
     0
 42
0.0000000001
 43
0.0000000001
 12
1.0
 22
0.0
 32
0.0
 13
1.0
 23
0.0
 33
0.0
 40
0.0
 40
0.0
 40
0.0
 40
0.0
 40
0.037037037037037
 40
0.037037037037037
 40
0.037037037037037
 40
0.037037037037037
 40
0.0740740740740741
 40
0.0740740740740741
 40
0.0740740740740741
 40
0.0740740740740741
 40
0.1111111111111111
 40
0.1111111111111111
 40
0.1111111111111111
 40
0.1111111111111111
 40
0.1481481481481481
 40
0.1481481481481481
 40
0.1481481481481481
 40
0.1481481481481481
 40
0.1851851851851852
 40
0.1851851851851852
 40
0.1851851851851852
 40
0.1851851851851852
 40
0.2222222222222222
 40
0.2222222222222222
 40
0.2222222222222222
 40
0.2222222222222222
 40
0.2592592592592592
 40
0.2592592592592592
 40
0.2592592592592592
 40
0.2592592592592592
 40
0.2962962962962963
 40
0.2962962962962963
 40
0.2962962962962963
 40
0.2962962962962963
 40
0.3333333333333333
 40
0.3333333333333333
 40
0.3333333333333333
 40
0.3333333333333333
 40
0.3703703703703703
 40
0.3703703703703703
 40
0.3703703703703703
 40
0.3703703703703703
 40
0.4074074074074074
 40
0.4074074074074074
 40
0.4074074074074074
 40
0.4074074074074074
 40
0.4444444444444444
 40
0.4444444444444444
 40
0.4444444444444444
 40
0.4444444444444444
 40
0.4814814814814815
 40
0.4814814814814815
 40
0.4814814814814815
 40
0.4814814814814815
 40
0.5185185185185185
 40
0.5185185185185185
 40
0.5185185185185185
 40
0.5185185185185185
 40
0.5555555555555556
 40
0.5555555555555556
 40
0.5555555555555556
 40
0.5555555555555556
 40
0.5925925925925926
 40
0.5925925925925926
 40
0.5925925925925926
 40
0.5925925925925926
 40
0.6296296296296297
 40
0.6296296296296297
 40
0.6296296296296297
 40
0.6296296296296297
 40
0.6666666666666666
 40
0.6666666666666666
 40
0.6666666666666666
 40
0.6666666666666666
 40
0.7037037037037037
 40
0.7037037037037037
 40
0.7037037037037037
 40
0.7037037037037037
 40
0.7407407407407407
 40
0.7407407407407407
 40
0.7407407407407407
 40
0.7407407407407407
 40
0.7777777777777778
 40
0.7777777777777778
 40
0.7777777777777778
 40
0.7777777777777778
 40
0.8148148148148148
 40
0.8148148148148148
 40
0.8148148148148148
 40
0.8148148148148148
 40
0.8518518518518519
 40
0.8518518518518519
 40
0.8518518518518519
 40
0.8518518518518519
 40
0.8888888888888888
 40
0.8888888888888888
 40
0.8888888888888888
 40
0.8888888888888888
 40
0.9259259259259259
 40
0.9259259259259259
 40
0.9259259259259259
 40
0.9259259259259259
 40
1.0
 40
1.0
 40
1.0
 40
1.0
 10
-27.6342
 20
-63.5278
 30
0.0
 10
-27.6342
 20
-63.5278
 30
0.0
 10
-27.5913
 20
-63.4699
 30
0.0
 10
-27.5913
 20
-63.4699
 30
0.0
 10
-27.5913
 20
-63.4699
 30
0.0
 10
-22.6999
 20
-58.2396
 30
0.0
 10
-16.1757
 20
-58.0098
 30
0.0
 10
-11.126
 20
-62.8897
 30
0.0
 10
-11.126
 20
-62.8897
 30
0.0
 10
-9.9136
 20
-64.4957
 30
0.0
 10
-9.428
 20
-67.0063
 30
0.0
 10
-9.8793
 20
-69.3355
 30
0.0
 10
-9.8793
 20
-69.3355
 30
0.0
 10
-10.2849
 20
-69.0925
 30
0.0
 10
-10.6735
 20
-68.7901
 30
0.0
 10
-11.04
 20
-68.4332
 30
0.0
 10
-11.04
 20
-68.4332
 30
0.0
 10
-12.7698
 20
-66.0507
 30
0.0
 10
-15.0727
 20
-64.828
 30
0.0
 10
-17.4168
 20
-65.047
 30
0.0
 10
-17.4168
 20
-65.047
 30
0.0
 10
-19.7613
 20
-65.2658
 30
0.0
 10
-21.9449
 20
-66.9076
 30
0.0
 10
-23.4642
 20
-69.5933
 30
0.0
 10
-23.4642
 20
-69.5933
 30
0.0
 10
-23.6602
 20
-70.1962
 30
0.0
 10
-23.691
 20
-70.8905
 30
0.0
 10
-23.5502
 20
-71.527
 30
0.0
 10
-23.5502
 20
-71.527
 30
0.0
 10
-23.2149
 20
-72.6217
 30
0.0
 10
-23.2469
 20
-73.8899
 30
0.0
 10
-23.636
 20
-74.9434
 30
0.0
 10
-23.636
 20
-74.9434
 30
0.0
 10
-21.8797
 20
-79.0557
 30
0.0
 10
-18.8537
 20
-81.5545
 30
0.0
 10
-15.5972
 20
-81.5826
 30
0.0
 10
-15.5972
 20
-81.5826
 30
0.0
 10
-12.0861
 20
-82.0081
 30
0.0
 10
-8.5946
 20
-80.4696
 30
0.0
 10
-5.7954
 20
-77.2641
 30
0.0
 10
-5.7954
 20
-77.2641
 30
0.0
 10
-4.4447
 20
-75.6592
 30
0.0
 10
-3.6091
 20
-73.2738
 30
0.0
 10
-3.4945
 20
-70.6957
 30
0.0
 10
-3.4945
 20
-70.6957
 30
0.0
 10
-3.3799
 20
-68.1179
 30
0.0
 10
-3.9968
 20
-65.5872
 30
0.0
 10
-5.1932
 20
-63.7277
 30
0.0
 10
-5.1932
 20
-63.7277
 30
0.0
 10
-11.1897
 20
-54.7119
 30
0.0
 10
-19.1623
 20
-49.2613
 30
0.0
 10
-27.6342
 20
-48.3867
 30
0.0
 10
-27.6342
 20
-48.3867
 30
0.0
 10
-36.106
 20
-49.2613
 30
0.0
 10
-44.0789
 20
-54.7119
 30
0.0
 10
-50.0751
 20
-63.7277
 30
0.0
 10
-50.0751
 20
-63.7277
 30
0.0
 10
-51.2715
 20
-65.5872
 30
0.0
 10
-51.8887
 20
-68.1179
 30
0.0
 10
-51.7738
 20
-70.6957
 30
0.0
 10
-51.7738
 20
-70.6957
 30
0.0
 10
-51.6592
 20
-73.2738
 30
0.0
 10
-50.8238
 20
-75.6592
 30
0.0
 10
-49.4732
 20
-77.2641
 30
0.0
 10
-49.4732
 20
-77.2641
 30
0.0
 10
-46.674
 20
-80.4696
 30
0.0
 10
-43.1825
 20
-82.0081
 30
0.0
 10
-39.6714
 20
-81.5826
 30
0.0
 10
-39.6714
 20
-81.5826
 30
0.0
 10
-36.4146
 20
-81.5545
 30
0.0
 10
-33.3888
 20
-79.0557
 30
0.0
 10
-31.6323
 20
-74.9434
 30
0.0
 10
-31.6323
 20
-74.9434
 30
0.0
 10
-32.0218
 20
-73.8899
 30
0.0
 10
-32.0534
 20
-72.6217
 30
0.0
 10
-31.7184
 20
-71.527
 30
0.0
 10
-31.7184
 20
-71.527
 30
0.0
 10
-31.5776
 20
-70.8905
 30
0.0
 10
-31.6084
 20
-70.1962
 30
0.0
 10
-31.8041
 20
-69.5933
 30
0.0
 10
-31.8041
 20
-69.5933
 30
0.0
 10
-33.3238
 20
-66.9076
 30
0.0
 10
-35.5072
 20
-65.2658
 30
0.0
 10
-37.8516
 20
-65.047
 30
0.0
 10
-37.8516
 20
-65.047
 30
0.0
 10
-40.196
 20
-64.828
 30
0.0
 10
-42.4985
 20
-66.0507
 30
0.0
 10
-44.2283
 20
-68.4332
 30
0.0
 10
-44.2283
 20
-68.4332
 30
0.0
 10
-44.5948
 20
-68.7901
 30
0.0
 10
-44.9834
 20
-69.0925
 30
0.0
 10
-45.3892
 20
-69.3355
 30
0.0
 10
-45.3892
 20
-69.3355
 30
0.0
 10
-45.8403
 20
-67.0063
 30
0.0
 10
-45.3551
 20
-64.4957
 30
0.0
 10
-44.1426
 20
-62.8897
 30
0.0
 10
-44.1426
 20
-62.8897
 30
0.0
 10
-39.0926
 20
-58.0098
 30
0.0
 10
-32.5687
 20
-58.2396
 30
0.0
 10
-27.6774
 20
-63.4699
 30
0.0
 10
-27.6774
 20
-63.4699
 30
0.0
 10
-27.6774
 20
-63.4699
 30
0.0
 10
-27.6342
 20
-63.5278
 30
0.0
 10
-27.6342
 20
-63.5278
 30
0.0
  0
SPLINE
  5
63
330
1F
100
AcDbEntity
  8
layer 1
 62
     7
370
     9
100
AcDbSpline
210
0.0
220
0.0
230
1.0
 70
    11
 71
     3
 72
   132
 73
   128
 74
     0
 42
0.0000000001
 43
0.0000000001
 12
1.0
 22
0.0
 32
0.0
 13
1.0
 23
0.0
 33
0.0
 40
0.0
 40
0.0
 40
0.0
 40
0.0
 40
0.0303030303030303
 40
0.0303030303030303
 40
0.0303030303030303
 40
0.0303030303030303
 40
0.0606060606060606
 40
0.0606060606060606
 40
0.0606060606060606
 40
0.0606060606060606
 40
0.0909090909090909
 40
0.0909090909090909
 40
0.0909090909090909
 40
0.0909090909090909
 40
0.1212121212121212
 40
0.1212121212121212
 40
0.1212121212121212
 40
0.1212121212121212
 40
0.1515151515151515
 40
0.1515151515151515
 40
0.1515151515151515
 40
0.1515151515151515
 40
0.1818181818181818
 40
0.1818181818181818
 40
0.1818181818181818
 40
0.1818181818181818
 40
0.2121212121212121
 40
0.2121212121212121
 40
0.2121212121212121
 40
0.2121212121212121
 40
0.2424242424242424
 40
0.2424242424242424
 40
0.2424242424242424
 40
0.2424242424242424
 40
0.2727272727272727
 40
0.2727272727272727
 40
0.2727272727272727
 40
0.2727272727272727
 40
0.303030303030303
 40
0.303030303030303
 40
0.303030303030303
 40
0.303030303030303
 40
0.3333333333333333
 40
0.3333333333333333
 40
0.3333333333333333
 40
0.3333333333333333
 40
0.3636363636363636
 40
0.3636363636363636
 40
0.3636363636363636
 40
0.3636363636363636
 40
0.3939393939393939
 40
0.3939393939393939
 40
0.3939393939393939
 40
0.3939393939393939
 40
0.4242424242424243
 40
0.4242424242424243
 40
0.4242424242424243
 40
0.4242424242424243
 40
0.4545454545454545
 40
0.4545454545454545
 40
0.4545454545454545
 40
0.4545454545454545
 40
0.4848484848484849
 40
0.4848484848484849
 40
0.4848484848484849
 40
0.4848484848484849
 40
0.5151515151515151
 40
0.5151515151515151
 40
0.5151515151515151
 40
0.5151515151515151
 40
0.5454545454545454
 40
0.5454545454545454
 40
0.5454545454545454
 40
0.5454545454545454
 40
0.5757575757575758
 40
0.5757575757575758
 40
0.5757575757575758
 40
0.5757575757575758
 40
0.6060606060606061
 40
0.6060606060606061
 40
0.6060606060606061
 40
0.6060606060606061
 40
0.6363636363636364
 40
0.6363636363636364
 40
0.6363636363636364
 40
0.6363636363636364
 40
0.6666666666666666
 40
0.6666666666666666
 40
0.6666666666666666
 40
0.6666666666666666
 40
0.696969696969697
 40
0.696969696969697
 40
0.696969696969697
 40
0.696969696969697
 40
0.7272727272727273
 40
0.7272727272727273
 40
0.7272727272727273
 40
0.7272727272727273
 40
0.7575757575757576
 40
0.7575757575757576
 40
0.7575757575757576
 40
0.7575757575757576
 40
0.7878787878787878
 40
0.7878787878787878
 40
0.7878787878787878
 40
0.7878787878787878
 40
0.8181818181818182
 40
0.8181818181818182
 40
0.8181818181818182
 40
0.8181818181818182
 40
0.8484848484848485
 40
0.8484848484848485
 40
0.8484848484848485
 40
0.8484848484848485
 40
0.8787878787878788
 40
0.8787878787878788
 40
0.8787878787878788
 40
0.8787878787878788
 40
0.9090909090909091
 40
0.9090909090909091
 40
0.9090909090909091
 40
0.9090909090909091
 40
0.9393939393939394
 40
0.9393939393939394
 40
0.9393939393939394
 40
0.9393939393939394
 40
1.0
 40
1.0
 40
1.0
 40
1.0
 10
-15.6875
 20
-37.3641
 30
0.0
 10
-15.1173
 20
-36.2288
 30
0.0
 10
-14.6395
 20
-34.9952
 30
0.0
 10
-14.2643
 20
-33.69
 30
0.0
 10
-14.2643
 20
-33.69
 30
0.0
 10
-13.3354
 20
-30.2644
 30
0.0
 10
-11.8051
 20
-27.2797
 30
0.0
 10
-9.8361
 20
-25.0526
 30
0.0
 10
-9.8361
 20
-25.0526
 30
0.0
 10
-5.7188
 20
-19.9538
 30
0.0
 10
-0.7285
 20
-16.6929
 30
0.0
 10
4.5654
 20
-15.6419
 30
0.0
 10
4.5654
 20
-15.6419
 30
0.0
 10
8.6159
 20
-14.6627
 30
0.0
 10
12.7637
 20
-16.0217
 30
0.0
 10
16.1729
 20
-19.4447
 30
0.0
 10
16.1729
 20
-19.4447
 30
0.0
 10
17.9381
 20
-21.1003
 30
0.0
 10
18.896
 20
-24.149
 30
0.0
 10
18.6232
 20
-27.2441
 30
0.0
 10
18.6232
 20
-27.2441
 30
0.0
 10
17.8237
 20
-30.7724
 30
0.0
 10
15.8496
 20
-33.4139
 30
0.0
 10
13.4215
 20
-34.2056
 30
0.0
 10
13.4215
 20
-34.2056
 30
0.0
 10
11.4398
 20
-33.4617
 30
0.0
 10
9.3612
 20
-33.5283
 30
0.0
 10
7.4028
 20
-34.3993
 30
0.0
 10
7.4028
 20
-34.3993
 30
0.0
 10
7.1285
 20
-34.7537
 30
0.0
 10
6.7399
 20
-34.8294
 30
0.0
 10
6.414
 20
-34.5925
 30
0.0
 10
6.414
 20
-34.5925
 30
0.0
 10
5.0093
 20
-33.9966
 30
0.0
 10
3.7245
 20
-32.8897
 30
0.0
 10
2.6738
 20
-31.3698
 30
0.0
 10
2.6738
 20
-31.3698
 30
0.0
 10
1.837
 20
-30.3656
 30
0.0
 10
1.4245
 20
-28.765
 30
0.0
 10
1.5934
 20
-27.178
 30
0.0
 10
1.5934
 20
-27.178
 30
0.0
 10
1.7624
 20
-25.5911
 30
0.0
 10
2.487
 20
-24.2625
 30
0.0
 10
3.4908
 20
-23.699
 30
0.0
 10
3.4908
 20
-23.699
 30
0.0
 10
4.3682
 20
-23.3661
 30
0.0
 10
5.1517
 20
-22.6206
 30
0.0
 10
5.726
 20
-21.5717
 30
0.0
 10
5.726
 20
-21.5717
 30
0.0
 10
3.4045
 20
-20.8877
 30
0.0
 10
0.9979
 20
-21.316
 30
0.0
 10
-1.1522
 20
-22.7965
 30
0.0
 10
-1.1522
 20
-22.7965
 30
0.0
 10
-2.5989
 20
-23.7871
 30
0.0
 10
-3.7588
 20
-25.5265
 30
0.0
 10
-4.4197
 20
-27.6957
 30
0.0
 10
-4.4197
 20
-27.6957
 30
0.0
 10
-4.7891
 20
-29.7489
 30
0.0
 10
-4.5855
 20
-31.9393
 30
0.0
 10
-3.8558
 20
-33.7633
 30
0.0
 10
-3.8558
 20
-33.7633
 30
0.0
 10
-3.1261
 20
-35.5865
 30
0.0
 10
-1.9329
 20
-36.8868
 30
0.0
 10
-0.5506
 20
-37.3641
 30
0.0
 10
-0.5506
 20
-37.3641
 30
0.0
 10
-1.9329
 20
-37.8416
 30
0.0
 10
-3.1261
 20
-39.1417
 30
0.0
 10
-3.8558
 20
-40.9651
 30
0.0
 10
-3.8558
 20
-40.9651
 30
0.0
 10
-4.5855
 20
-42.789
 30
0.0
 10
-4.7891
 20
-44.9795
 30
0.0
 10
-4.4197
 20
-47.0333
 30
0.0
 10
-4.4197
 20
-47.0333
 30
0.0
 10
-3.7588
 20
-49.2019
 30
0.0
 10
-2.5989
 20
-50.9413
 30
0.0
 10
-1.1522
 20
-51.9318
 30
0.0
 10
-1.1522
 20
-51.9318
 30
0.0
 10
0.9979
 20
-53.4123
 30
0.0
 10
3.4045
 20
-53.8409
 30
0.0
 10
5.726
 20
-53.1565
 30
0.0
 10
5.726
 20
-53.1565
 30
0.0
 10
5.1517
 20
-52.1077
 30
0.0
 10
4.3682
 20
-51.3623
 30
0.0
 10
3.4908
 20
-51.0292
 30
0.0
 10
3.4908
 20
-51.0292
 30
0.0
 10
2.487
 20
-50.4659
 30
0.0
 10
1.7624
 20
-49.1372
 30
0.0
 10
1.5934
 20
-47.5508
 30
0.0
 10
1.5934
 20
-47.5508
 30
0.0
 10
1.4245
 20
-45.9639
 30
0.0
 10
1.837
 20
-44.3628
 30
0.0
 10
2.6738
 20
-43.3585
 30
0.0
 10
2.6738
 20
-43.3585
 30
0.0
 10
3.7245
 20
-41.8387
 30
0.0
 10
5.0093
 20
-40.7318
 30
0.0
 10
6.414
 20
-40.1358
 30
0.0
 10
6.414
 20
-40.1358
 30
0.0
 10
6.7399
 20
-39.8988
 30
0.0
 10
7.1285
 20
-39.9747
 30
0.0
 10
7.4028
 20
-40.3295
 30
0.0
 10
7.4028
 20
-40.3295
 30
0.0
 10
9.3612
 20
-41.2001
 30
0.0
 10
11.4398
 20
-41.2667
 30
0.0
 10
13.4215
 20
-40.5228
 30
0.0
 10
13.4215
 20
-40.5228
 30
0.0
 10
15.8496
 20
-41.3145
 30
0.0
 10
17.8237
 20
-43.9559
 30
0.0
 10
18.6232
 20
-47.4843
 30
0.0
 10
18.6232
 20
-47.4843
 30
0.0
 10
18.896
 20
-50.5792
 30
0.0
 10
17.9381
 20
-53.6282
 30
0.0
 10
16.1729
 20
-55.2837
 30
0.0
 10
16.1729
 20
-55.2837
 30
0.0
 10
12.7637
 20
-58.7067
 30
0.0
 10
8.6159
 20
-60.0657
 30
0.0
 10
4.5654
 20
-59.0866
 30
0.0
 10
4.5654
 20
-59.0866
 30
0.0
 10
-0.7285
 20
-58.0356
 30
0.0
 10
-5.7188
 20
-54.7746
 30
0.0
 10
-9.8361
 20
-49.6756
 30
0.0
 10
-9.8361
 20
-49.6756
 30
0.0
 10
-11.8051
 20
-47.4487
 30
0.0
 10
-13.3354
 20
-44.464
 30
0.0
 10
-14.2643
 20
-41.0384
 30
0.0
 10
-14.2643
 20
-41.0384
 30
0.0
 10
-14.6395
 20
-39.7331
 30
0.0
 10
-15.1173
 20
-38.4996
 30
0.0
 10
-15.6875
 20
-37.3641
 30
0.0
  0
SPLINE
  5
64
330
1F
100
AcDbEntity
  8
layer 1
 62
     7
370
     9
100
AcDbSpline
210
0.0
220
0.0
230
1.0
 70
    11
 71
     3
 72
   124
 73
   120
 74
     0
 42
0.0000000001
 43
0.0000000001
 12
1.0
 22
0.0
 32
0.0
 13
1.0
 23
0.0
 33
0.0
 40
0.0
 40
0.0
 40
0.0
 40
0.0
 40
0.032258064516129
 40
0.032258064516129
 40
0.032258064516129
 40
0.032258064516129
 40
0.0645161290322581
 40
0.0645161290322581
 40
0.0645161290322581
 40
0.0645161290322581
 40
0.0967741935483871
 40
0.0967741935483871
 40
0.0967741935483871
 40
0.0967741935483871
 40
0.1290322580645161
 40
0.1290322580645161
 40
0.1290322580645161
 40
0.1290322580645161
 40
0.1612903225806452
 40
0.1612903225806452
 40
0.1612903225806452
 40
0.1612903225806452
 40
0.1935483870967742
 40
0.1935483870967742
 40
0.1935483870967742
 40
0.1935483870967742
 40
0.2258064516129032
 40
0.2258064516129032
 40
0.2258064516129032
 40
0.2258064516129032
 40
0.2580645161290323
 40
0.2580645161290323
 40
0.2580645161290323
 40
0.2580645161290323
 40
0.2903225806451613
 40
0.2903225806451613
 40
0.2903225806451613
 40
0.2903225806451613
 40
0.3225806451612903
 40
0.3225806451612903
 40
0.3225806451612903
 40
0.3225806451612903
 40
0.3548387096774194
 40
0.3548387096774194
 40
0.3548387096774194
 40
0.3548387096774194
 40
0.3870967741935484
 40
0.3870967741935484
 40
0.3870967741935484
 40
0.3870967741935484
 40
0.4193548387096774
 40
0.4193548387096774
 40
0.4193548387096774
 40
0.4193548387096774
 40
0.4516129032258064
 40
0.4516129032258064
 40
0.4516129032258064
 40
0.4516129032258064
 40
0.4838709677419355
 40
0.4838709677419355
 40
0.4838709677419355
 40
0.4838709677419355
 40
0.5161290322580645
 40
0.5161290322580645
 40
0.5161290322580645
 40
0.5161290322580645
 40
0.5483870967741935
 40
0.5483870967741935
 40
0.5483870967741935
 40
0.5483870967741935
 40
0.5806451612903226
 40
0.5806451612903226
 40
0.5806451612903226
 40
0.5806451612903226
 40
0.6129032258064516
 40
0.6129032258064516
 40
0.6129032258064516
 40
0.6129032258064516
 40
0.6451612903225806
 40
0.6451612903225806
 40
0.6451612903225806
 40
0.6451612903225806
 40
0.6774193548387096
 40
0.6774193548387096
 40
0.6774193548387096
 40
0.6774193548387096
 40
0.7096774193548387
 40
0.7096774193548387
 40
0.7096774193548387
 40
0.7096774193548387
 40
0.7419354838709677
 40
0.7419354838709677
 40
0.7419354838709677
 40
0.7419354838709677
 40
0.7741935483870968
 40
0.7741935483870968
 40
0.7741935483870968
 40
0.7741935483870968
 40
0.8064516129032258
 40
0.8064516129032258
 40
0.8064516129032258
 40
0.8064516129032258
 40
0.8387096774193549
 40
0.8387096774193549
 40
0.8387096774193549
 40
0.8387096774193549
 40
0.8709677419354839
 40
0.8709677419354839
 40
0.8709677419354839
 40
0.8709677419354839
 40
0.9032258064516129
 40
0.9032258064516129
 40
0.9032258064516129
 40
0.9032258064516129
 40
0.9354838709677419
 40
0.9354838709677419
 40
0.9354838709677419
 40
0.9354838709677419
 40
1.0
 40
1.0
 40
1.0
 40
1.0
 10
-27.6342
 20
-26.2573
 30
0.0
 10
-21.6739
 20
-25.3079
 30
0.0
 10
-15.9081
 20
-22.5285
 30
0.0
 10
-10.6963
 20
-18.0911
 30
0.0
 10
-10.6963
 20
-18.0911
 30
0.0
 10
-8.632
 20
-16.3151
 30
0.0
 10
-6.8326
 20
-13.9238
 30
0.0
 10
-5.4082
 20
-11.0652
 30
0.0
 10
-5.4082
 20
-11.0652
 30
0.0
 10
-4.1822
 20
-9.1696
 30
0.0
 10
-3.5161
 20
-6.6146
 30
0.0
 10
-3.5595
 20
-3.9746
 30
0.0
 10
-3.5595
 20
-3.9746
 30
0.0
 10
-4.2752
 20
-0.2618
 30
0.0
 10
-5.9667
 20
2.8561
 30
0.0
 10
-8.2457
 20
4.6628
 30
0.0
 10
-8.2457
 20
4.6628
 30
0.0
 10
-12.3425
 20
2.5658
 30
0.0
 10
-16.7877
 20
2.5658
 30
0.0
 10
-20.8849
 20
4.6628
 30
0.0
 10
-20.8849
 20
4.6628
 30
0.0
 10
-21.9871
 20
3.7948
 30
0.0
 10
-22.9541
 20
2.5861
 30
0.0
 10
-23.7221
 20
1.1171
 30
0.0
 10
-23.7221
 20
1.1171
 30
0.0
 10
-23.8274
 20
0.7516
 30
0.0
 10
-23.8499
 20
0.3443
 30
0.0
 10
-23.7865
 20
-0.0426
 30
0.0
 10
-23.7865
 20
-0.0426
 30
0.0
 10
-23.5802
 20
-1.026
 30
0.0
 10
-23.6107
 20
-2.0872
 30
0.0
 10
-23.8726
 20
-3.0401
 30
0.0
 10
-23.8726
 20
-3.0401
 30
0.0
 10
-24.0324
 20
-3.4905
 30
0.0
 10
-23.9895
 20
-4.0422
 30
0.0
 10
-23.7653
 20
-4.4261
 30
0.0
 10
-23.7653
 20
-4.4261
 30
0.0
 10
-22.5545
 20
-7.3031
 30
0.0
 10
-20.572
 20
-9.2531
 30
0.0
 10
-18.3295
 20
-9.7721
 30
0.0
 10
-18.3295
 20
-9.7721
 30
0.0
 10
-16.0874
 20
-10.2913
 30
0.0
 10
-13.8049
 20
-9.3287
 30
0.0
 10
-12.0717
 20
-7.1332
 30
0.0
 10
-12.0717
 20
-7.1332
 30
0.0
 10
-11.4349
 20
-6.4259
 30
0.0
 10
-10.6712
 20
-6.0218
 30
0.0
 10
-9.8793
 20
-5.9729
 30
0.0
 10
-9.8793
 20
-5.9729
 30
0.0
 10
-9.7515
 20
-6.9547
 30
0.0
 10
-9.7662
 20
-7.9655
 30
0.0
 10
-9.9222
 20
-8.9383
 30
0.0
 10
-9.9222
 20
-8.9383
 30
0.0
 10
-11.5602
 20
-12.7731
 30
0.0
 10
-14.3271
 20
-15.1949
 30
0.0
 10
-17.3597
 20
-15.4482
 30
0.0
 10
-17.3597
 20
-15.4482
 30
0.0
 10
-21.0706
 20
-15.9846
 30
0.0
 10
-24.7702
 20
-14.2726
 30
0.0
 10
-27.6342
 20
-10.695
 30
0.0
 10
-27.6342
 20
-10.695
 30
0.0
 10
-30.4984
 20
-14.2726
 30
0.0
 10
-34.198
 20
-15.9846
 30
0.0
 10
-37.9089
 20
-15.4482
 30
0.0
 10
-37.9089
 20
-15.4482
 30
0.0
 10
-40.9415
 20
-15.1949
 30
0.0
 10
-43.7085
 20
-12.7731
 30
0.0
 10
-45.3461
 20
-8.9383
 30
0.0
 10
-45.3461
 20
-8.9383
 30
0.0
 10
-45.5024
 20
-7.9655
 30
0.0
 10
-45.5168
 20
-6.9547
 30
0.0
 10
-45.3892
 20
-5.9729
 30
0.0
 10
-45.3892
 20
-5.9729
 30
0.0
 10
-44.5973
 20
-6.0218
 30
0.0
 10
-43.8334
 20
-6.4259
 30
0.0
 10
-43.1966
 20
-7.1332
 30
0.0
 10
-43.1966
 20
-7.1332
 30
0.0
 10
-41.4637
 20
-9.3287
 30
0.0
 10
-39.1812
 20
-10.2913
 30
0.0
 10
-36.9388
 20
-9.7721
 30
0.0
 10
-36.9388
 20
-9.7721
 30
0.0
 10
-34.6966
 20
-9.2531
 30
0.0
 10
-32.7141
 20
-7.3031
 30
0.0
 10
-31.5033
 20
-4.4261
 30
0.0
 10
-31.5033
 20
-4.4261
 30
0.0
 10
-31.2788
 20
-4.0422
 30
0.0
 10
-31.2362
 20
-3.4905
 30
0.0
 10
-31.396
 20
-3.0401
 30
0.0
 10
-31.396
 20
-3.0401
 30
0.0
 10
-31.6579
 20
-2.0872
 30
0.0
 10
-31.6881
 20
-1.026
 30
0.0
 10
-31.4817
 20
-0.0426
 30
0.0
 10
-31.4817
 20
-0.0426
 30
0.0
 10
-31.4187
 20
0.3443
 30
0.0
 10
-31.4411
 20
0.7516
 30
0.0
 10
-31.5462
 20
1.1171
 30
0.0
 10
-31.5462
 20
1.1171
 30
0.0
 10
-32.3145
 20
2.5861
 30
0.0
 10
-33.2815
 20
3.7948
 30
0.0
 10
-34.3837
 20
4.6628
 30
0.0
 10
-34.3837
 20
4.6628
 30
0.0
 10
-38.4806
 20
2.5658
 30
0.0
 10
-42.9258
 20
2.5658
 30
0.0
 10
-47.0229
 20
4.6628
 30
0.0
 10
-47.0229
 20
4.6628
 30
0.0
 10
-49.3019
 20
2.8561
 30
0.0
 10
-50.9934
 20
-0.2618
 30
0.0
 10
-51.7088
 20
-3.9746
 30
0.0
 10
-51.7088
 20
-3.9746
 30
0.0
 10
-51.7525
 20
-6.6146
 30
0.0
 10
-51.0864
 20
-9.1696
 30
0.0
 10
-49.8601
 20
-11.0652
 30
0.0
 10
-49.8601
 20
-11.0652
 30
0.0
 10
-48.436
 20
-13.9238
 30
0.0
 10
-46.6363
 20
-16.3151
 30
0.0
 10
-44.5724
 20
-18.0911
 30
0.0
 10
-44.5724
 20
-18.0911
 30
0.0
 10
-39.3603
 20
-22.5285
 30
0.0
 10
-33.5943
 20
-25.3079
 30
0.0
 10
-27.6342
 20
-26.2573
 30
0.0
  0
SPLINE
  5
65
330
1F
100
AcDbEntity
  8
layer 1
 62
     7
370
     9
100
AcDbSpline
210
0.0
220
0.0
230
1.0
 70
    11
 71
     3
 72
    52
 73
    48
 74
     0
 42
0.0000000001
 43
0.0000000001
 12
1.0
 22
0.0
 32
0.0
 13
1.0
 23
0.0
 33
0.0
 40
0.0
 40
0.0
 40
0.0
 40
0.0
 40
0.0769230769230769
 40
0.0769230769230769
 40
0.0769230769230769
 40
0.0769230769230769
 40
0.1538461538461539
 40
0.1538461538461539
 40
0.1538461538461539
 40
0.1538461538461539
 40
0.2307692307692308
 40
0.2307692307692308
 40
0.2307692307692308
 40
0.2307692307692308
 40
0.3076923076923077
 40
0.3076923076923077
 40
0.3076923076923077
 40
0.3076923076923077
 40
0.3846153846153846
 40
0.3846153846153846
 40
0.3846153846153846
 40
0.3846153846153846
 40
0.4615384615384616
 40
0.4615384615384616
 40
0.4615384615384616
 40
0.4615384615384616
 40
0.5384615384615384
 40
0.5384615384615384
 40
0.5384615384615384
 40
0.5384615384615384
 40
0.6153846153846154
 40
0.6153846153846154
 40
0.6153846153846154
 40
0.6153846153846154
 40
0.6923076923076923
 40
0.6923076923076923
 40
0.6923076923076923
 40
0.6923076923076923
 40
0.7692307692307693
 40
0.7692307692307693
 40
0.7692307692307693
 40
0.7692307692307693
 40
0.8461538461538461
 40
0.8461538461538461
 40
0.8461538461538461
 40
0.8461538461538461
 40
1.0
 40
1.0
 40
1.0
 40
1.0
 10
-30.5119
 20
-37.3641
 30
0.0
 10
-31.1055
 20
-38.5799
 30
0.0
 10
-31.6587
 20
-39.8384
 30
0.0
 10
-32.1697
 20
-41.1349
 30
0.0
 10
-32.1697
 20
-41.1349
 30
0.0
 10
-30.6742
 20
-40.4323
 30
0.0
 10
-29.1693
 20
-39.7769
 30
0.0
 10
-27.6557
 20
-39.1692
 30
0.0
 10
-27.6557
 20
-39.1692
 30
0.0
 10
-27.6557
 20
-39.1692
 30
0.0
 10
-27.6342
 20
-39.157
 30
0.0
 10
-27.6342
 20
-39.157
 30
0.0
 10
-27.6342
 20
-39.157
 30
0.0
 10
-27.6342
 20
-39.157
 30
0.0
 10
-27.6129
 20
-39.1692
 30
0.0
 10
-27.6129
 20
-39.1692
 30
0.0
 10
-27.6129
 20
-39.1692
 30
0.0
 10
-26.099
 20
-39.7769
 30
0.0
 10
-24.5941
 20
-40.4323
 30
0.0
 10
-23.0988
 20
-41.1349
 30
0.0
 10
-23.0988
 20
-41.1349
 30
0.0
 10
-23.6098
 20
-39.8384
 30
0.0
 10
-24.1631
 20
-38.5799
 30
0.0
 10
-24.7564
 20
-37.3641
 30
0.0
 10
-24.7564
 20
-37.3641
 30
0.0
 10
-24.1631
 20
-36.1489
 30
0.0
 10
-23.6098
 20
-34.8905
 30
0.0
 10
-23.0988
 20
-33.5933
 30
0.0
 10
-23.0988
 20
-33.5933
 30
0.0
 10
-24.5941
 20
-34.2961
 30
0.0
 10
-26.099
 20
-34.9521
 30
0.0
 10
-27.6129
 20
-35.5592
 30
0.0
 10
-27.6129
 20
-35.5592
 30
0.0
 10
-27.6129
 20
-35.5592
 30
0.0
 10
-27.6342
 20
-35.5718
 30
0.0
 10
-27.6342
 20
-35.5718
 30
0.0
 10
-27.6342
 20
-35.5718
 30
0.0
 10
-27.6342
 20
-35.5718
 30
0.0
 10
-27.6557
 20
-35.5592
 30
0.0
 10
-27.6557
 20
-35.5592
 30
0.0
 10
-27.6557
 20
-35.5592
 30
0.0
 10
-29.1693
 20
-34.9521
 30
0.0
 10
-30.6742
 20
-34.2961
 30
0.0
 10
-32.1697
 20
-33.5933
 30
0.0
 10
-32.1697
 20
-33.5933
 30
0.0
 10
-31.6587
 20
-34.8905
 30
0.0
 10
-31.1055
 20
-36.1489
 30
0.0
 10
-30.5119
 20
-37.3641
 30
0.0
  0
SPLINE
  5
66
330
1F
100
AcDbEntity
  8
layer 1
 62
     7
370
     9
100
AcDbSpline
210
0.0
220
0.0
230
1.0
 70
    11
 71
     3
 72
    44
 73
    40
 74
     0
 42
0.0000000001
 43
0.0000000001
 12
1.0
 22
0.0
 32
0.0
 13
1.0
 23
0.0
 33
0.0
 40
0.0
 40
0.0
 40
0.0
 40
0.0
 40
0.0909090909090909
 40
0.0909090909090909
 40
0.0909090909090909
 40
0.0909090909090909
 40
0.1818181818181818
 40
0.1818181818181818
 40
0.1818181818181818
 40
0.1818181818181818
 40
0.2727272727272727
 40
0.2727272727272727
 40
0.2727272727272727
 40
0.2727272727272727
 40
0.3636363636363636
 40
0.3636363636363636
 40
0.3636363636363636
 40
0.3636363636363636
 40
0.4545454545454545
 40
0.4545454545454545
 40
0.4545454545454545
 40
0.4545454545454545
 40
0.5454545454545454
 40
0.5454545454545454
 40
0.5454545454545454
 40
0.5454545454545454
 40
0.6363636363636364
 40
0.6363636363636364
 40
0.6363636363636364
 40
0.6363636363636364
 40
0.7272727272727273
 40
0.7272727272727273
 40
0.7272727272727273
 40
0.7272727272727273
 40
0.8181818181818182
 40
0.8181818181818182
 40
0.8181818181818182
 40
0.8181818181818182
 40
1.0
 40
1.0
 40
1.0
 40
1.0
 10
20.2139
 20
-12.7411
 30
0.0
 10
20.3155
 20
-6.9197
 30
0.0
 10
20.3587
 20
-1.0962
 30
0.0
 10
20.3429
 20
4.7268
 30
0.0
 10
20.3429
 20
4.7268
 30
0.0
 10
19.0184
 20
2.6634
 30
0.0
 10
17.4423
 20
1.0008
 30
0.0
 10
15.7
 20
-0.1717
 30
0.0
 10
15.7
 20
-0.1717
 30
0.0
 10
16.3784
 20
-0.4494
 30
0.0
 10
16.9432
 20
-1.1551
 30
0.0
 10
17.2475
 20
-2.1055
 30
0.0
 10
17.2475
 20
-2.1055
 30
0.0
 10
17.7118
 20
-3.2475
 30
0.0
 10
17.4827
 20
-4.7362
 30
0.0
 10
16.7316
 20
-5.4573
 30
0.0
 10
16.7316
 20
-5.4573
 30
0.0
 10
15.7736
 20
-6.2062
 30
0.0
 10
14.716
 20
-6.6242
 30
0.0
 10
13.6362
 20
-6.6822
 30
0.0
 10
13.6362
 20
-6.6822
 30
0.0
 10
14.0968
 20
-6.2062
 30
0.0
 10
14.3447
 20
-5.3881
 30
0.0
 10
14.281
 20
-4.5548
 30
0.0
 10
14.281
 20
-4.5548
 30
0.0
 10
14.2085
 20
-4.0855
 30
0.0
 10
13.9537
 20
-3.729
 30
0.0
 10
13.6362
 20
-3.6528
 30
0.0
 10
13.6362
 20
-3.6528
 30
0.0
 10
11.9301
 20
-3.3975
 30
0.0
 10
10.2138
 20
-3.9614
 30
0.0
 10
8.7353
 20
-5.264
 30
0.0
 10
8.7353
 20
-5.264
 30
0.0
 10
7.4031
 20
-6.4935
 30
0.0
 10
6.2004
 20
-8.0144
 30
0.0
 10
5.1673
 20
-9.7763
 30
0.0
 10
5.1673
 20
-9.7763
 30
0.0
 10
10.2639
 20
-8.2564
 30
0.0
 10
15.5523
 20
-9.2988
 30
0.0
 10
20.2139
 20
-12.7411
 30
0.0
  0
SPLINE
  5
67
330
1F
100
AcDbEntity
  8
layer 1
 62
     7
370
     9
100
AcDbSpline
210
0.0
220
0.0
230
1.0
 70
    11
 71
     3
 72
    40
 73
    36
 74
     0
 42
0.0000000001
 43
0.0000000001
 12
1.0
 22
0.0
 32
0.0
 13
1.0
 23
0.0
 33
0.0
 40
0.0
 40
0.0
 40
0.0
 40
0.0
 40
0.1
 40
0.1
 40
0.1
 40
0.1
 40
0.2
 40
0.2
 40
0.2
 40
0.2
 40
0.3
 40
0.3
 40
0.3
 40
0.3
 40
0.4
 40
0.4
 40
0.4
 40
0.4
 40
0.5
 40
0.5
 40
0.5
 40
0.5
 40
0.6
 40
0.6
 40
0.6
 40
0.6
 40
0.7
 40
0.7
 40
0.7
 40
0.7
 40
0.8
 40
0.8
 40
0.8
 40
0.8
 40
1.0
 40
1.0
 40
1.0
 40
1.0
 10
15.2269
 20
-74.1054
 30
0.0
 10
15.8658
 20
-73.6582
 30
0.0
 10
16.4475
 20
-73.0473
 30
0.0
 10
16.9466
 20
-72.3007
 30
0.0
 10
16.9466
 20
-72.3007
 30
0.0
 10
17.4323
 20
-71.4201
 30
0.0
 10
17.4046
 20
-70.1351
 30
0.0
 10
16.8822
 20
-69.3033
 30
0.0
 10
16.8822
 20
-69.3033
 30
0.0
 10
16.0131
 20
-68.0686
 30
0.0
 10
14.8265
 20
-67.4677
 30
0.0
 10
13.6362
 20
-67.6595
 30
0.0
 10
13.6362
 20
-67.6595
 30
0.0
 10
14.184
 20
-68.1474
 30
0.0
 10
14.4477
 20
-69.1227
 30
0.0
 10
14.281
 20
-70.0446
 30
0.0
 10
14.281
 20
-70.0446
 30
0.0
 10
14.0634
 20
-70.7042
 30
0.0
 10
13.5827
 20
-71.0711
 30
0.0
 10
13.0988
 20
-70.9469
 30
0.0
 10
13.0988
 20
-70.9469
 30
0.0
 10
9.9427
 20
-70.8265
 30
0.0
 10
7.0197
 20
-68.4251
 30
0.0
 10
5.2533
 20
-64.5011
 30
0.0
 10
5.2533
 20
-64.5011
 30
0.0
 10
10.3016
 20
-65.9735
 30
0.0
 10
15.5284
 20
-65.1391
 30
0.0
 10
20.2568
 20
-62.1059
 30
0.0
 10
20.2568
 20
-62.1059
 30
0.0
 10
20.2568
 20
-62.1059
 30
0.0
 10
20.2568
 20
-79.4194
 30
0.0
 10
20.2568
 20
-79.4194
 30
0.0
 10
20.2568
 20
-79.4194
 30
0.0
 10
19.0561
 20
-76.8062
 30
0.0
 10
17.2722
 20
-74.9216
 30
0.0
 10
15.2269
 20
-74.1054
 30
0.0
  0
SPLINE
  5
68
330
1F
100
AcDbEntity
  8
layer 1
 62
     7
370
     9
100
AcDbSpline
210
0.0
220
0.0
230
1.0
 70
    11
 71
     3
 72
    40
 73
    36
 74
     0
 42
0.0000000001
 43
0.0000000001
 12
1.0
 22
0.0
 32
0.0
 13
1.0
 23
0.0
 33
0.0
 40
0.0
 40
0.0
 40
0.0
 40
0.0
 40
0.1
 40
0.1
 40
0.1
 40
0.1
 40
0.2
 40
0.2
 40
0.2
 40
0.2
 40
0.3
 40
0.3
 40
0.3
 40
0.3
 40
0.4
 40
0.4
 40
0.4
 40
0.4
 40
0.5
 40
0.5
 40
0.5
 40
0.5
 40
0.6
 40
0.6
 40
0.6
 40
0.6
 40
0.7
 40
0.7
 40
0.7
 40
0.7
 40
0.8
 40
0.8
 40
0.8
 40
0.8
 40
1.0
 40
1.0
 40
1.0
 40
1.0
 10
11.3149
 20
-77.7796
 30
0.0
 10
9.9185
 20
-79.7413
 30
0.0
 10
7.8922
 20
-80.3187
 30
0.0
 10
6.1129
 20
-79.2622
 30
0.0
 10
6.1129
 20
-79.2622
 30
0.0
 10
5.336
 20
-78.7505
 30
0.0
 10
4.7856
 20
-77.6824
 30
0.0
 10
4.6515
 20
-76.4261
 30
0.0
 10
4.6515
 20
-76.4261
 30
0.0
 10
5.2577
 20
-76.7579
 30
0.0
 10
5.8976
 20
-76.9323
 30
0.0
 10
6.543
 20
-76.9417
 30
0.0
 10
6.543
 20
-76.9417
 30
0.0
 10
6.8798
 20
-77.0709
 30
0.0
 10
7.237
 20
-76.9218
 30
0.0
 10
7.4808
 20
-76.5498
 30
0.0
 10
7.4808
 20
-76.5498
 30
0.0
 10
7.7244
 20
-76.1778
 30
0.0
 10
7.8177
 20
-75.6396
 30
0.0
 10
7.7252
 20
-75.1368
 30
0.0
 10
7.7252
 20
-75.1368
 30
0.0
 10
6.2638
 20
-71.5969
 30
0.0
 10
3.9317
 20
-69.0616
 30
0.0
 10
1.2337
 20
-68.0787
 30
0.0
 10
1.2337
 20
-68.0787
 30
0.0
 10
2.2861
 20
-73.4732
 30
0.0
 10
1.2518
 20
-79.2978
 30
0.0
 10
-1.4498
 20
-83.194
 30
0.0
 10
-1.4498
 20
-83.194
 30
0.0
 10
-1.4498
 20
-83.194
 30
0.0
 10
17.3905
 20
-83.194
 30
0.0
 10
17.3905
 20
-83.194
 30
0.0
 10
17.3905
 20
-83.194
 30
0.0
 10
15.1225
 20
-82.0875
 30
0.0
 10
13.047
 20
-80.238
 30
0.0
 10
11.3149
 20
-77.7796
 30
0.0
  0
SPLINE
  5
69
330
1F
100
AcDbEntity
  8
layer 1
 62
     7
370
     9
100
AcDbSpline
210
0.0
220
0.0
230
1.0
 70
    11
 71
     3
 72
    40
 73
    36
 74
     0
 42
0.0000000001
 43
0.0000000001
 12
1.0
 22
0.0
 32
0.0
 13
1.0
 23
0.0
 33
0.0
 40
0.0
 40
0.0
 40
0.0
 40
0.0
 40
0.1
 40
0.1
 40
0.1
 40
0.1
 40
0.2
 40
0.2
 40
0.2
 40
0.2
 40
0.3
 40
0.3
 40
0.3
 40
0.3
 40
0.4
 40
0.4
 40
0.4
 40
0.4
 40
0.5
 40
0.5
 40
0.5
 40
0.5
 40
0.6
 40
0.6
 40
0.6
 40
0.6
 40
0.7
 40
0.7
 40
0.7
 40
0.7
 40
0.8
 40
0.8
 40
0.8
 40
0.8
 40
1.0
 40
1.0
 40
1.0
 40
1.0
 10
-61.0375
 20
-76.4904
 30
0.0
 10
-61.575
 20
-77.3658
 30
0.0
 10
-62.4342
 20
-77.6025
 30
0.0
 10
-63.1441
 20
-77.0707
 30
0.0
 10
-63.1441
 20
-77.0707
 30
0.0
 10
-63.736
 20
-76.4479
 30
0.0
 10
-63.9369
 20
-75.271
 30
0.0
 10
-63.6171
 20
-74.2988
 30
0.0
 10
-63.6171
 20
-74.2988
 30
0.0
 10
-62.0554
 20
-71.6497
 30
0.0
 10
-60.0524
 20
-69.6697
 30
0.0
 10
-57.8132
 20
-68.5621
 30
0.0
 10
-57.8132
 20
-68.5621
 30
0.0
 10
-58.6526
 20
-73.9695
 30
0.0
 10
-57.3079
 20
-79.6137
 30
0.0
 10
-54.374
 20
-83.0009
 30
0.0
 10
-54.374
 20
-83.0009
 30
0.0
 10
-60.4045
 20
-82.6283
 30
0.0
 10
-66.4424
 20
-82.6283
 30
0.0
 10
-72.4729
 20
-83.0009
 30
0.0
 10
-72.4729
 20
-83.0009
 30
0.0
 10
-70.4855
 20
-82.0816
 30
0.0
 10
-68.7122
 20
-80.3387
 30
0.0
 10
-67.357
 20
-77.9729
 30
0.0
 10
-67.357
 20
-77.9729
 30
0.0
 10
-66.2078
 20
-79.3511
 30
0.0
 10
-64.7872
 20
-80.1217
 30
0.0
 10
-63.316
 20
-80.1645
 30
0.0
 10
-63.316
 20
-80.1645
 30
0.0
 10
-62.6743
 20
-80.1991
 30
0.0
 10
-62.054
 20
-79.8138
 30
0.0
 10
-61.6167
 20
-79.1084
 30
0.0
 10
-61.6167
 20
-79.1084
 30
0.0
 10
-61.1795
 20
-78.4032
 30
0.0
 10
-60.9679
 20
-77.4477
 30
0.0
 10
-61.0375
 20
-76.4904
 30
0.0
  0
SPLINE
  5
6A
330
1F
100
AcDbEntity
  8
layer 1
 62
     7
370
     9
100
AcDbSpline
210
0.0
220
0.0
230
1.0
 70
    11
 71
     3
 72
    88
 73
    84
 74
     0
 42
0.0000000001
 43
0.0000000001
 12
1.0
 22
0.0
 32
0.0
 13
1.0
 23
0.0
 33
0.0
 40
0.0
 40
0.0
 40
0.0
 40
0.0
 40
0.0454545454545455
 40
0.0454545454545455
 40
0.0454545454545455
 40
0.0454545454545455
 40
0.0909090909090909
 40
0.0909090909090909
 40
0.0909090909090909
 40
0.0909090909090909
 40
0.1363636363636364
 40
0.1363636363636364
 40
0.1363636363636364
 40
0.1363636363636364
 40
0.1818181818181818
 40
0.1818181818181818
 40
0.1818181818181818
 40
0.1818181818181818
 40
0.2272727272727273
 40
0.2272727272727273
 40
0.2272727272727273
 40
0.2272727272727273
 40
0.2727272727272727
 40
0.2727272727272727
 40
0.2727272727272727
 40
0.2727272727272727
 40
0.3181818181818182
 40
0.3181818181818182
 40
0.3181818181818182
 40
0.3181818181818182
 40
0.3636363636363636
 40
0.3636363636363636
 40
0.3636363636363636
 40
0.3636363636363636
 40
0.4090909090909091
 40
0.4090909090909091
 40
0.4090909090909091
 40
0.4090909090909091
 40
0.4545454545454545
 40
0.4545454545454545
 40
0.4545454545454545
 40
0.4545454545454545
 40
0.5
 40
0.5
 40
0.5
 40
0.5
 40
0.5454545454545454
 40
0.5454545454545454
 40
0.5454545454545454
 40
0.5454545454545454
 40
0.5909090909090909
 40
0.5909090909090909
 40
0.5909090909090909
 40
0.5909090909090909
 40
0.6363636363636364
 40
0.6363636363636364
 40
0.6363636363636364
 40
0.6363636363636364
 40
0.6818181818181818
 40
0.6818181818181818
 40
0.6818181818181818
 40
0.6818181818181818
 40
0.7272727272727273
 40
0.7272727272727273
 40
0.7272727272727273
 40
0.7272727272727273
 40
0.7727272727272727
 40
0.7727272727272727
 40
0.7727272727272727
 40
0.7727272727272727
 40
0.8181818181818182
 40
0.8181818181818182
 40
0.8181818181818182
 40
0.8181818181818182
 40
0.8636363636363636
 40
0.8636363636363636
 40
0.8636363636363636
 40
0.8636363636363636
 40
0.9090909090909091
 40
0.9090909090909091
 40
0.9090909090909091
 40
0.9090909090909091
 40
1.0
 40
1.0
 40
1.0
 40
1.0
 10
-72.43
 20
-75.2335
 30
0.0
 10
-71.968
 20
-75.1148
 30
0.0
 10
-71.6499
 20
-74.6634
 30
0.0
 10
-71.5701
 20
-74.0733
 30
0.0
 10
-71.5701
 20
-74.0733
 30
0.0
 10
-72.2228
 20
-74.0956
 30
0.0
 10
-72.8361
 20
-73.609
 30
0.0
 10
-73.1911
 20
-72.7879
 30
0.0
 10
-73.1911
 20
-72.7879
 30
0.0
 10
-73.5461
 20
-71.9666
 30
0.0
 10
-73.5915
 20
-70.9284
 30
0.0
 10
-73.3111
 20
-70.0446
 30
0.0
 10
-73.3111
 20
-70.0446
 30
0.0
 10
-72.5051
 20
-68.4247
 30
0.0
 10
-71.1533
 20
-67.6363
 30
0.0
 10
-69.8291
 20
-68.0141
 30
0.0
 10
-69.8291
 20
-68.0141
 30
0.0
 10
-70.1487
 20
-68.3387
 30
0.0
 10
-70.3352
 20
-68.8861
 30
0.0
 10
-70.3234
 20
-69.4645
 30
0.0
 10
-70.3234
 20
-69.4645
 30
0.0
 10
-70.2543
 20
-70.0507
 30
0.0
 10
-70.0241
 20
-70.5664
 30
0.0
 10
-69.6887
 20
-70.8853
 30
0.0
 10
-69.6887
 20
-70.8853
 30
0.0
 10
-69.3533
 20
-71.2042
 30
0.0
 10
-68.9439
 20
-71.2967
 30
0.0
 10
-68.5608
 20
-71.1403
 30
0.0
 10
-68.5608
 20
-71.1403
 30
0.0
 10
-65.7478
 20
-70.8549
 30
0.0
 10
-63.1792
 20
-68.6439
 30
0.0
 10
-61.5965
 20
-65.1458
 30
0.0
 10
-61.5965
 20
-65.1458
 30
0.0
 10
-67.053
 20
-66.2988
 30
0.0
 10
-72.6134
 20
-64.8705
 30
0.0
 10
-77.5027
 20
-61.0603
 30
0.0
 10
-77.5027
 20
-61.0603
 30
0.0
 10
-82.3921
 20
-64.8705
 30
0.0
 10
-87.9528
 20
-66.2988
 30
0.0
 10
-93.4092
 20
-65.1458
 30
0.0
 10
-93.4092
 20
-65.1458
 30
0.0
 10
-91.8262
 20
-68.6439
 30
0.0
 10
-89.2576
 20
-70.8549
 30
0.0
 10
-86.4449
 20
-71.1403
 30
0.0
 10
-86.4449
 20
-71.1403
 30
0.0
 10
-86.0615
 20
-71.2967
 30
0.0
 10
-85.6522
 20
-71.2042
 30
0.0
 10
-85.317
 20
-70.8853
 30
0.0
 10
-85.317
 20
-70.8853
 30
0.0
 10
-84.9817
 20
-70.5664
 30
0.0
 10
-84.7512
 20
-70.0507
 30
0.0
 10
-84.682
 20
-69.4645
 30
0.0
 10
-84.682
 20
-69.4645
 30
0.0
 10
-84.6702
 20
-68.8861
 30
0.0
 10
-84.8571
 20
-68.3387
 30
0.0
 10
-85.1766
 20
-68.0141
 30
0.0
 10
-85.1766
 20
-68.0141
 30
0.0
 10
-83.8524
 20
-67.6363
 30
0.0
 10
-82.5003
 20
-68.4247
 30
0.0
 10
-81.6943
 20
-70.0446
 30
0.0
 10
-81.6943
 20
-70.0446
 30
0.0
 10
-81.4142
 20
-70.9284
 30
0.0
 10
-81.4597
 20
-71.9666
 30
0.0
 10
-81.8146
 20
-72.7879
 30
0.0
 10
-81.8146
 20
-72.7879
 30
0.0
 10
-82.1696
 20
-73.609
 30
0.0
 10
-82.783
 20
-74.0956
 30
0.0
 10
-83.4356
 20
-74.0733
 30
0.0
 10
-83.4356
 20
-74.0733
 30
0.0
 10
-83.3559
 20
-74.6634
 30
0.0
 10
-83.0375
 20
-75.1148
 30
0.0
 10
-82.6402
 20
-75.2014
 30
0.0
 10
-82.6402
 20
-75.2014
 30
0.0
 10
-82.5959
 20
-75.2131
 30
0.0
 10
-82.5524
 20
-75.2347
 30
0.0
 10
-82.5113
 20
-75.2657
 30
0.0
 10
-82.5113
 20
-75.2657
 30
0.0
 10
-80.299
 20
-76.546
 30
0.0
 10
-78.5036
 20
-79.062
 30
0.0
 10
-77.5027
 20
-82.2851
 30
0.0
 10
-77.5027
 20
-82.2851
 30
0.0
 10
-76.5018
 20
-79.062
 30
0.0
 10
-74.7067
 20
-76.546
 30
0.0
 10
-72.43
 20
-75.2335
 30
0.0
  0
SPLINE
  5
6B
330
1F
100
AcDbEntity
  8
layer 1
 62
     7
370
     9
100
AcDbSpline
210
0.0
220
0.0
230
1.0
 70
    11
 71
     3
 72
    88
 73
    84
 74
     0
 42
0.0000000001
 43
0.0000000001
 12
1.0
 22
0.0
 32
0.0
 13
1.0
 23
0.0
 33
0.0
 40
0.0
 40
0.0
 40
0.0
 40
0.0
 40
0.0454545454545455
 40
0.0454545454545455
 40
0.0454545454545455
 40
0.0454545454545455
 40
0.0909090909090909
 40
0.0909090909090909
 40
0.0909090909090909
 40
0.0909090909090909
 40
0.1363636363636364
 40
0.1363636363636364
 40
0.1363636363636364
 40
0.1363636363636364
 40
0.1818181818181818
 40
0.1818181818181818
 40
0.1818181818181818
 40
0.1818181818181818
 40
0.2272727272727273
 40
0.2272727272727273
 40
0.2272727272727273
 40
0.2272727272727273
 40
0.2727272727272727
 40
0.2727272727272727
 40
0.2727272727272727
 40
0.2727272727272727
 40
0.3181818181818182
 40
0.3181818181818182
 40
0.3181818181818182
 40
0.3181818181818182
 40
0.3636363636363636
 40
0.3636363636363636
 40
0.3636363636363636
 40
0.3636363636363636
 40
0.4090909090909091
 40
0.4090909090909091
 40
0.4090909090909091
 40
0.4090909090909091
 40
0.4545454545454545
 40
0.4545454545454545
 40
0.4545454545454545
 40
0.4545454545454545
 40
0.5
 40
0.5
 40
0.5
 40
0.5
 40
0.5454545454545454
 40
0.5454545454545454
 40
0.5454545454545454
 40
0.5454545454545454
 40
0.5909090909090909
 40
0.5909090909090909
 40
0.5909090909090909
 40
0.5909090909090909
 40
0.6363636363636364
 40
0.6363636363636364
 40
0.6363636363636364
 40
0.6363636363636364
 40
0.6818181818181818
 40
0.6818181818181818
 40
0.6818181818181818
 40
0.6818181818181818
 40
0.7272727272727273
 40
0.7272727272727273
 40
0.7272727272727273
 40
0.7272727272727273
 40
0.7727272727272727
 40
0.7727272727272727
 40
0.7727272727272727
 40
0.7727272727272727
 40
0.8181818181818182
 40
0.8181818181818182
 40
0.8181818181818182
 40
0.8181818181818182
 40
0.8636363636363636
 40
0.8636363636363636
 40
0.8636363636363636
 40
0.8636363636363636
 40
0.9090909090909091
 40
0.9090909090909091
 40
0.9090909090909091
 40
0.9090909090909091
 40
1.0
 40
1.0
 40
1.0
 40
1.0
 10
-72.43
 20
92.4227
 30
0.0
 10
-74.7067
 20
93.7352
 30
0.0
 10
-76.5018
 20
96.251
 30
0.0
 10
-77.5027
 20
99.4743
 30
0.0
 10
-77.5027
 20
99.4743
 30
0.0
 10
-78.5036
 20
96.251
 30
0.0
 10
-80.299
 20
93.7352
 30
0.0
 10
-82.5113
 20
92.4549
 30
0.0
 10
-82.5113
 20
92.4549
 30
0.0
 10
-82.5542
 20
92.433
 30
0.0
 10
-82.597
 20
92.4116
 30
0.0
 10
-82.6402
 20
92.3903
 30
0.0
 10
-82.6402
 20
92.3903
 30
0.0
 10
-83.0375
 20
92.3038
 30
0.0
 10
-83.3559
 20
91.8523
 30
0.0
 10
-83.4356
 20
91.2625
 30
0.0
 10
-83.4356
 20
91.2625
 30
0.0
 10
-82.783
 20
91.2844
 30
0.0
 10
-82.1696
 20
90.7982
 30
0.0
 10
-81.8146
 20
89.9771
 30
0.0
 10
-81.8146
 20
89.9771
 30
0.0
 10
-81.4597
 20
89.156
 30
0.0
 10
-81.4142
 20
88.1176
 30
0.0
 10
-81.6943
 20
87.234
 30
0.0
 10
-81.6943
 20
87.234
 30
0.0
 10
-82.5003
 20
85.6133
 30
0.0
 10
-83.8524
 20
84.8252
 30
0.0
 10
-85.1766
 20
85.2031
 30
0.0
 10
-85.1766
 20
85.2031
 30
0.0
 10
-84.8571
 20
85.528
 30
0.0
 10
-84.6702
 20
86.0751
 30
0.0
 10
-84.682
 20
86.6537
 30
0.0
 10
-84.682
 20
86.6537
 30
0.0
 10
-84.7512
 20
87.24
 30
0.0
 10
-84.9817
 20
87.7556
 30
0.0
 10
-85.317
 20
88.0744
 30
0.0
 10
-85.317
 20
88.0744
 30
0.0
 10
-85.6522
 20
88.3932
 30
0.0
 10
-86.0615
 20
88.4857
 30
0.0
 10
-86.4449
 20
88.3297
 30
0.0
 10
-86.4449
 20
88.3297
 30
0.0
 10
-89.2576
 20
88.0438
 30
0.0
 10
-91.8262
 20
85.833
 30
0.0
 10
-93.4092
 20
82.3347
 30
0.0
 10
-93.4092
 20
82.3347
 30
0.0
 10
-87.9528
 20
83.4879
 30
0.0
 10
-82.3921
 20
82.0597
 30
0.0
 10
-77.5027
 20
78.2493
 30
0.0
 10
-77.5027
 20
78.2493
 30
0.0
 10
-72.6134
 20
82.0597
 30
0.0
 10
-67.053
 20
83.4879
 30
0.0
 10
-61.5965
 20
82.3347
 30
0.0
 10
-61.5965
 20
82.3347
 30
0.0
 10
-63.1792
 20
85.833
 30
0.0
 10
-65.7478
 20
88.0438
 30
0.0
 10
-68.5608
 20
88.3297
 30
0.0
 10
-68.5608
 20
88.3297
 30
0.0
 10
-68.9439
 20
88.4857
 30
0.0
 10
-69.3533
 20
88.3932
 30
0.0
 10
-69.6887
 20
88.0744
 30
0.0
 10
-69.6887
 20
88.0744
 30
0.0
 10
-70.0241
 20
87.7556
 30
0.0
 10
-70.2543
 20
87.24
 30
0.0
 10
-70.3234
 20
86.6537
 30
0.0
 10
-70.3234
 20
86.6537
 30
0.0
 10
-70.3352
 20
86.0751
 30
0.0
 10
-70.1487
 20
85.528
 30
0.0
 10
-69.8291
 20
85.2031
 30
0.0
 10
-69.8291
 20
85.2031
 30
0.0
 10
-71.1533
 20
84.8252
 30
0.0
 10
-72.5051
 20
85.6133
 30
0.0
 10
-73.3111
 20
87.234
 30
0.0
 10
-73.3111
 20
87.234
 30
0.0
 10
-73.5915
 20
88.1176
 30
0.0
 10
-73.5461
 20
89.156
 30
0.0
 10
-73.1911
 20
89.9771
 30
0.0
 10
-73.1911
 20
89.9771
 30
0.0
 10
-72.8361
 20
90.7982
 30
0.0
 10
-72.2228
 20
91.2844
 30
0.0
 10
-71.5701
 20
91.2625
 30
0.0
 10
-71.5701
 20
91.2625
 30
0.0
 10
-71.6499
 20
91.8523
 30
0.0
 10
-71.968
 20
92.3038
 30
0.0
 10
-72.43
 20
92.4227
 30
0.0
  0
SPLINE
  5
6C
330
1F
100
AcDbEntity
  8
layer 1
 62
     7
370
     9
100
AcDbSpline
210
0.0
220
0.0
230
1.0
 70
    11
 71
     3
 72
    40
 73
    36
 74
     0
 42
0.0000000001
 43
0.0000000001
 12
1.0
 22
0.0
 32
0.0
 13
1.0
 23
0.0
 33
0.0
 40
0.0
 40
0.0
 40
0.0
 40
0.0
 40
0.1
 40
0.1
 40
0.1
 40
0.1
 40
0.2
 40
0.2
 40
0.2
 40
0.2
 40
0.3
 40
0.3
 40
0.3
 40
0.3
 40
0.4
 40
0.4
 40
0.4
 40
0.4
 40
0.5
 40
0.5
 40
0.5
 40
0.5
 40
0.6
 40
0.6
 40
0.6
 40
0.6
 40
0.7
 40
0.7
 40
0.7
 40
0.7
 40
0.8
 40
0.8
 40
0.8
 40
0.8
 40
1.0
 40
1.0
 40
1.0
 40
1.0
 10
-93.9679
 20
93.6797
 30
0.0
 10
-94.0376
 20
94.6366
 30
0.0
 10
-93.8263
 20
95.5921
 30
0.0
 10
-93.3891
 20
96.2973
 30
0.0
 10
-93.3891
 20
96.2973
 30
0.0
 10
-92.9514
 20
97.0025
 30
0.0
 10
-92.3315
 20
97.388
 30
0.0
 10
-91.6895
 20
97.3534
 30
0.0
 10
-91.6895
 20
97.3534
 30
0.0
 10
-90.2182
 20
97.3107
 30
0.0
 10
-88.7976
 20
96.5403
 30
0.0
 10
-87.6485
 20
95.162
 30
0.0
 10
-87.6485
 20
95.162
 30
0.0
 10
-86.2935
 20
97.5278
 30
0.0
 10
-84.52
 20
99.2709
 30
0.0
 10
-82.5326
 20
100.1896
 30
0.0
 10
-82.5326
 20
100.1896
 30
0.0
 10
-88.563
 20
99.8175
 30
0.0
 10
-94.6012
 20
99.8175
 30
0.0
 10
-100.6314
 20
100.1896
 30
0.0
 10
-100.6314
 20
100.1896
 30
0.0
 10
-97.6975
 20
96.8028
 30
0.0
 10
-96.3531
 20
91.1587
 30
0.0
 10
-97.1923
 20
85.7513
 30
0.0
 10
-97.1923
 20
85.7513
 30
0.0
 10
-94.953
 20
86.8592
 30
0.0
 10
-92.9501
 20
88.8386
 30
0.0
 10
-91.3887
 20
91.4877
 30
0.0
 10
-91.3887
 20
91.4877
 30
0.0
 10
-91.0689
 20
92.4605
 30
0.0
 10
-91.2695
 20
93.6371
 30
0.0
 10
-91.8616
 20
94.2594
 30
0.0
 10
-91.8616
 20
94.2594
 30
0.0
 10
-92.5715
 20
94.7917
 30
0.0
 10
-93.4305
 20
94.5547
 30
0.0
 10
-93.9679
 20
93.6797
 30
0.0
  0
SPLINE
  5
6D
330
1F
100
AcDbEntity
  8
layer 1
 62
     7
370
     9
100
AcDbSpline
210
0.0
220
0.0
230
1.0
 70
    11
 71
     3
 72
    40
 73
    36
 74
     0
 42
0.0000000001
 43
0.0000000001
 12
1.0
 22
0.0
 32
0.0
 13
1.0
 23
0.0
 33
0.0
 40
0.0
 40
0.0
 40
0.0
 40
0.0
 40
0.1
 40
0.1
 40
0.1
 40
0.1
 40
0.2
 40
0.2
 40
0.2
 40
0.2
 40
0.3
 40
0.3
 40
0.3
 40
0.3
 40
0.4
 40
0.4
 40
0.4
 40
0.4
 40
0.5
 40
0.5
 40
0.5
 40
0.5
 40
0.6
 40
0.6
 40
0.6
 40
0.6
 40
0.7
 40
0.7
 40
0.7
 40
0.7
 40
0.8
 40
0.8
 40
0.8
 40
0.8
 40
1.0
 40
1.0
 40
1.0
 40
1.0
 10
-61.0375
 20
93.6797
 30
0.0
 10
-61.575
 20
94.5547
 30
0.0
 10
-62.4342
 20
94.7917
 30
0.0
 10
-63.1441
 20
94.2594
 30
0.0
 10
-63.1441
 20
94.2594
 30
0.0
 10
-63.736
 20
93.6371
 30
0.0
 10
-63.9369
 20
92.4605
 30
0.0
 10
-63.6171
 20
91.4877
 30
0.0
 10
-63.6171
 20
91.4877
 30
0.0
 10
-62.0554
 20
88.8386
 30
0.0
 10
-60.0524
 20
86.8592
 30
0.0
 10
-57.8132
 20
85.7513
 30
0.0
 10
-57.8132
 20
85.7513
 30
0.0
 10
-58.6526
 20
91.1587
 30
0.0
 10
-57.3079
 20
96.8028
 30
0.0
 10
-54.374
 20
100.1896
 30
0.0
 10
-54.374
 20
100.1896
 30
0.0
 10
-60.4045
 20
99.8175
 30
0.0
 10
-66.4424
 20
99.8175
 30
0.0
 10
-72.4729
 20
100.1896
 30
0.0
 10
-72.4729
 20
100.1896
 30
0.0
 10
-70.4855
 20
99.2709
 30
0.0
 10
-68.7122
 20
97.5278
 30
0.0
 10
-67.357
 20
95.162
 30
0.0
 10
-67.357
 20
95.162
 30
0.0
 10
-66.2078
 20
96.5403
 30
0.0
 10
-64.7872
 20
97.3107
 30
0.0
 10
-63.316
 20
97.3534
 30
0.0
 10
-63.316
 20
97.3534
 30
0.0
 10
-62.6743
 20
97.388
 30
0.0
 10
-62.054
 20
97.0025
 30
0.0
 10
-61.6167
 20
96.2973
 30
0.0
 10
-61.6167
 20
96.2973
 30
0.0
 10
-61.1795
 20
95.5921
 30
0.0
 10
-60.9679
 20
94.6366
 30
0.0
 10
-61.0375
 20
93.6797
 30
0.0
  0
ENDSEC
  0
SECTION
  2
OBJECTS
  0
DICTIONARY
  5
C
330
0
100
AcDbDictionary
281
     1
  3
ACAD_GROUP
350
D
  3
ACAD_LAYOUT
350
1A
  3
ACAD_MATERIAL
350
3B
  3
ACAD_MLEADERSTYLE
350
8F
  3
ACAD_MLINESTYLE
350
17
  3
ACAD_PLOTSETTINGS
350
19
  3
ACAD_PLOTSTYLENAME
350
E
  3
ACAD_TABLESTYLE
350
8E
  3
ACAD_VISUALSTYLE
350
2A
  0
DICTIONARY
  5
D
102
{ACAD_REACTORS
330
C
102
}
330
C
100
AcDbDictionary
281
     1
  0
DICTIONARY
  5
1A
102
{ACAD_REACTORS
330
C
102
}
330
C
100
AcDbDictionary
281
     1
  3
Layout1
350
1E
  3
Layout2
350
26
  3
Model
350
22
  0
DICTIONARY
  5
3B
102
{ACAD_REACTORS
330
C
102
}
330
C
100
AcDbDictionary
281
     1
  3
ByBlock
350
3D
  3
ByLayer
350
3C
  3
Global
350
3E
  0
DICTIONARY
  5
8F
102
{ACAD_REACTORS
330
C
102
}
330
C
100
AcDbDictionary
281
     1
  0
DICTIONARY
  5
17
102
{ACAD_REACTORS
330
C
102
}
330
C
100
AcDbDictionary
281
     1
  3
Standard
350
18
  0
DICTIONARY
  5
19
102
{ACAD_REACTORS
330
C
102
}
330
C
100
AcDbDictionary
281
     1
  0
ACDBDICTIONARYWDFLT
  5
E
102
{ACAD_REACTORS
330
C
102
}
330
C
100
AcDbDictionary
281
     1
  3
Normal
350
F
100
AcDbDictionaryWithDefault
340
F
  0
DICTIONARY
  5
8E
102
{ACAD_REACTORS
330
C
102
}
330
C
100
AcDbDictionary
281
     1
  0
DICTIONARY
  5
2A
102
{ACAD_REACTORS
330
C
102
}
330
C
100
AcDbDictionary
281
     1
  3
2dWireframe
350
2F
  3
3D Hidden
350
31
  3
3dWireframe
350
30
  3
Basic
350
32
  3
Brighten
350
36
  3
ColorChange
350
3A
  3
Conceptual
350
34
  3
Dim
350
35
  3
Facepattern
350
39
  3
Flat
350
2B
  3
FlatWithEdges
350
2C
  3
Gouraud
350
2D
  3
GouraudWithEdges
350
2E
  3
Linepattern
350
38
  3
Realistic
350
33
  3
Thicken
350
37
  0
LAYOUT
  5
1E
102
{ACAD_REACTORS
330
1A
102
}
330
1A
100
AcDbPlotSettings
  1

  2
none_device
  4

  6

 40
0.0
 41
0.0
 42
0.0
 43
0.0
 44
0.0
 45
0.0
 46
0.0
 47
0.0
 48
0.0
 49
0.0
140
0.0
141
0.0
142
1.0
143
1.0
 70
   688
 72
     0
 73
     0
 74
     5
  7

 75
    16
 76
     0
 77
     2
 78
   300
147
1.0
148
0.0
149
0.0
100
AcDbLayout
  1
Layout1
 70
     1
 71
     1
 10
0.0
 20
0.0
 11
12.0
 21
9.0
 12
0.0
 22
0.0
 32
0.0
 14
1.000000000000000E+20
 24
1.000000000000000E+20
 34
1.000000000000000E+20
 15
-1.000000000000000E+20
 25
-1.000000000000000E+20
 35
-1.000000000000000E+20
146
0.0
 13
0.0
 23
0.0
 33
0.0
 16
1.0
 26
0.0
 36
0.0
 17
0.0
 27
1.0
 37
0.0
 76
     0
330
1B
  0
LAYOUT
  5
26
102
{ACAD_REACTORS
330
1A
102
}
330
1A
100
AcDbPlotSettings
  1

  2
none_device
  4

  6

 40
0.0
 41
0.0
 42
0.0
 43
0.0
 44
0.0
 45
0.0
 46
0.0
 47
0.0
 48
0.0
 49
0.0
140
0.0
141
0.0
142
1.0
143
1.0
 70
   688
 72
     0
 73
     0
 74
     5
  7

 75
    16
 76
     0
 77
     2
 78
   300
147
1.0
148
0.0
149
0.0
100
AcDbLayout
  1
Layout2
 70
     1
 71
     2
 10
0.0
 20
0.0
 11
0.0
 21
0.0
 12
0.0
 22
0.0
 32
0.0
 14
0.0
 24
0.0
 34
0.0
 15
0.0
 25
0.0
 35
0.0
146
0.0
 13
0.0
 23
0.0
 33
0.0
 16
1.0
 26
0.0
 36
0.0
 17
0.0
 27
1.0
 37
0.0
 76
     0
330
23
  0
LAYOUT
  5
22
102
{ACAD_REACTORS
330
1A
102
}
330
1A
100
AcDbPlotSettings
  1

  2
none_device
  4

  6

 40
0.0
 41
0.0
 42
0.0
 43
0.0
 44
0.0
 45
0.0
 46
0.0
 47
0.0
 48
0.0
 49
0.0
140
0.0
141
0.0
142
1.0
143
1.0
 70
  1712
 72
     0
 73
     0
 74
     0
  7

 75
     0
 76
     0
 77
     2
 78
   300
147
1.0
148
0.0
149
0.0
100
AcDbLayout
  1
Model
 70
     1
 71
     0
 10
0.0
 20
0.0
 11
12.0
 21
9.0
 12
0.0
 22
0.0
 32
0.0
 14
-187.2518
 24
-101.1544
 34
0.0
 15
32.2461
 25
118.3435
 35
0.0
146
0.0
 13
0.0
 23
0.0
 33
0.0
 16
1.0
 26
0.0
 36
0.0
 17
0.0
 27
1.0
 37
0.0
 76
     0
330
1F
331
29
  0
MATERIAL
  5
3D
102
{ACAD_REACTORS
330
3B
102
}
330
3B
100
AcDbMaterial
  1
ByBlock
 72
     1
 94
      127
  0
MATERIAL
  5
3C
102
{ACAD_REACTORS
330
3B
102
}
330
3B
100
AcDbMaterial
  1
ByLayer
 72
     1
 94
      127
  0
MATERIAL
  5
3E
102
{ACAD_REACTORS
330
3B
102
}
330
3B
100
AcDbMaterial
  1
Global
 72
     1
 94
      127
  0
MLINESTYLE
  5
18
102
{ACAD_REACTORS
330
17
102
}
330
17
100
AcDbMlineStyle
  2
Standard
 70
     0
  3

 62
   256
 51
90.0
 52
90.0
 71
     2
 49
0.5
 62
   256
  6
BYLAYER
 49
-0.5
 62
   256
  6
BYLAYER
  0
ACDBPLACEHOLDER
  5
F
102
{ACAD_REACTORS
330
E
102
}
330
E
  0
VISUALSTYLE
  5
2F
102
{ACAD_REACTORS
330
2A
102
}
102
{ACAD_XDICTIONARY
360
76
102
}
330
2A
100
AcDbVisualStyle
  2
2dWireframe
 70
     4
 71
     0
 72
     2
 73
     0
 90
        0
 40
-0.6
 41
-30.0
 62
     5
 63
     7
421
 16777215
 74
     1
 91
        4
 64
     7
 65
   257
 75
     1
175
     1
 42
1.0
 92
        0
 66
   257
 43
1.0
 76
     1
 77
     6
 78
     2
 67
     7
 79
     5
170
     0
171
     0
290
     0
174
     0
 93
        1
 44
0.0
173
     0
291
     0
 45
0.0
  0
VISUALSTYLE
  5
31
102
{ACAD_REACTORS
330
2A
102
}
102
{ACAD_XDICTIONARY
360
7A
102
}
330
2A
100
AcDbVisualStyle
  2
3D Hidden
 70
     6
 71
     1
 72
     2
 73
     2
 90
        0
 40
-0.6
 41
-30.0
 62
     5
 63
     7
421
 16777215
 74
     2
 91
        2
 64
     7
 65
   257
 75
     2
175
     1
 42
40.0
 92
        0
 66
   257
 43
1.0
 76
     1
 77
     6
 78
     2
 67
     7
 79
     3
170
     0
171
     0
290
     0
174
     0
 93
        1
 44
0.0
173
     0
291
     0
 45
0.0
  0
VISUALSTYLE
  5
30
102
{ACAD_REACTORS
330
2A
102
}
102
{ACAD_XDICTIONARY
360
78
102
}
330
2A
100
AcDbVisualStyle
  2
3dWireframe
 70
     5
 71
     0
 72
     2
 73
     0
 90
        0
 40
-0.6
 41
-30.0
 62
     5
 63
     7
421
 16777215
 74
     1
 91
        4
 64
     7
 65
   257
 75
     1
175
     1
 42
1.0
 92
        0
 66
   257
 43
1.0
 76
     1
 77
     6
 78
     2
 67
     7
 79
     5
170
     0
171
     0
290
     0
174
     0
 93
        1
 44
0.0
173
     0
291
     0
 45
0.0
  0
VISUALSTYLE
  5
32
102
{ACAD_REACTORS
330
2A
102
}
102
{ACAD_XDICTIONARY
360
7C
102
}
330
2A
100
AcDbVisualStyle
  2
Basic
 70
     7
 71
     1
 72
     0
 73
     1
 90
        0
 40
-0.6
 41
-30.0
 62
     5
 63
     7
421
 16777215
 74
     0
 91
        4
 64
     7
 65
   257
 75
     1
175
     1
 42
1.0
 92
        8
 66
     7
 43
1.0
 76
     1
 77
     6
 78
     2
 67
     7
 79
     5
170
     0
171
     0
290
     0
174
     0
 93
        1
 44
0.0
173
     0
291
     1
 45
0.0
  0
VISUALSTYLE
  5
36
102
{ACAD_REACTORS
330
2A
102
}
102
{ACAD_XDICTIONARY
360
84
102
}
330
2A
100
AcDbVisualStyle
  2
Brighten
 70
    12
 71
     2
 72
     2
 73
     0
 90
        0
 40
-0.6
 41
-30.0
 62
     5
 63
     7
421
 16777215
 74
     1
 91
        4
 64
     7
 65
   257
 75
     1
175
     1
 42
1.0
 92
        8
 66
     7
 43
1.0
 76
     1
 77
     6
 78
     2
 67
     7
 79
     5
170
     0
171
     0
290
     0
174
     0
 93
        1
 44
50.0
173
     0
291
     1
 45
0.0
  0
VISUALSTYLE
  5
3A
102
{ACAD_REACTORS
330
2A
102
}
102
{ACAD_XDICTIONARY
360
8C
102
}
330
2A
100
AcDbVisualStyle
  2
ColorChange
 70
    16
 71
     2
 72
     2
 73
     3
 90
        0
 40
-0.6
 41
-30.0
 62
     5
 63
     8
421
  8421504
 74
     1
 91
        4
 64
     7
 65
   257
 75
     1
175
     1
 42
1.0
 92
        8
 66
     8
424
  8421504
 43
1.0
 76
     1
 77
     6
 78
     2
 67
     7
 79
     5
170
     0
171
     0
290
     0
174
     0
 93
        1
 44
0.0
173
     0
291
     1
 45
0.0
  0
VISUALSTYLE
  5
34
102
{ACAD_REACTORS
330
2A
102
}
102
{ACAD_XDICTIONARY
360
80
102
}
330
2A
100
AcDbVisualStyle
  2
Conceptual
 70
     9
 71
     3
 72
     2
 73
     0
 90
        0
 40
-0.6
 41
-30.0
 62
     5
 63
     7
421
 16777215
 74
     2
 91
        2
 64
     7
 65
   257
 75
     1
175
     1
 42
40.0
 92
        8
 66
     7
 43
1.0
 76
     1
 77
     6
 78
     2
 67
     7
 79
     3
170
     0
171
     0
290
     0
174
     0
 93
        1
 44
0.0
173
     0
291
     0
 45
0.0
  0
VISUALSTYLE
  5
35
102
{ACAD_REACTORS
330
2A
102
}
102
{ACAD_XDICTIONARY
360
82
102
}
330
2A
100
AcDbVisualStyle
  2
Dim
 70
    11
 71
     2
 72
     2
 73
     0
 90
        0
 40
-0.6
 41
-30.0
 62
     5
 63
     7
421
 16777215
 74
     1
 91
        4
 64
     7
 65
   257
 75
     1
175
     1
 42
1.0
 92
        8
 66
     7
 43
1.0
 76
     1
 77
     6
 78
     2
 67
     7
 79
     5
170
     0
171
     0
290
     0
174
     0
 93
        1
 44
-50.0
173
     0
291
     1
 45
0.0
  0
VISUALSTYLE
  5
39
102
{ACAD_REACTORS
330
2A
102
}
102
{ACAD_XDICTIONARY
360
8A
102
}
330
2A
100
AcDbVisualStyle
  2
Facepattern
 70
    15
 71
     2
 72
     2
 73
     0
 90
        0
 40
-0.6
 41
-30.0
 62
     5
 63
     7
421
 16777215
 74
     1
 91
        4
 64
     7
 65
   257
 75
     1
175
     1
 42
1.0
 92
        8
 66
     7
 43
1.0
 76
     1
 77
     6
 78
     2
 67
     7
 79
     5
170
     0
171
     0
290
     0
174
     0
 93
        1
 44
0.0
173
     0
291
     1
 45
0.0
  0
VISUALSTYLE
  5
2B
102
{ACAD_REACTORS
330
2A
102
}
102
{ACAD_XDICTIONARY
360
6E
102
}
330
2A
100
AcDbVisualStyle
  2
Flat
 70
     0
 71
     2
 72
     1
 73
     1
 90
        2
 40
-0.6
 41
30.0
 62
     5
 63
     7
421
 16777215
 74
     0
 91
        4
 64
     7
 65
   257
 75
     1
175
     1
 42
1.0
 92
        8
 66
     7
 43
1.0
 76
     1
 77
     6
 78
     2
 67
     7
 79
     5
170
     0
171
     0
290
     0
174
     0
 93
       13
 44
0.0
173
     0
291
     1
 45
0.0
  0
VISUALSTYLE
  5
2C
102
{ACAD_REACTORS
330
2A
102
}
102
{ACAD_XDICTIONARY
360
70
102
}
330
2A
100
AcDbVisualStyle
  2
FlatWithEdges
 70
     1
 71
     2
 72
     1
 73
     1
 90
        2
 40
-0.6
 41
30.0
 62
     5
 63
     7
421
 16777215
 74
     1
 91
        4
 64
     7
 65
   257
 75
     1
175
     1
 42
1.0
 92
        0
 66
   257
 43
1.0
 76
     1
 77
     6
 78
     2
 67
     7
 79
     5
170
     0
171
     0
290
     0
174
     0
 93
       13
 44
0.0
173
     0
291
     1
 45
0.0
  0
VISUALSTYLE
  5
2D
102
{ACAD_REACTORS
330
2A
102
}
102
{ACAD_XDICTIONARY
360
72
102
}
330
2A
100
AcDbVisualStyle
  2
Gouraud
 70
     2
 71
     2
 72
     2
 73
     1
 90
        2
 40
-0.6
 41
30.0
 62
     5
 63
     7
421
 16777215
 74
     0
 91
        4
 64
     7
 65
   257
 75
     1
175
     1
 42
1.0
 92
        0
 66
     7
 43
1.0
 76
     1
 77
     6
 78
     2
 67
     7
 79
     5
170
     0
171
     0
290
     0
174
     0
 93
       13
 44
0.0
173
     0
291
     1
 45
0.0
  0
VISUALSTYLE
  5
2E
102
{ACAD_REACTORS
330
2A
102
}
102
{ACAD_XDICTIONARY
360
74
102
}
330
2A
100
AcDbVisualStyle
  2
GouraudWithEdges
 70
     3
 71
     2
 72
     2
 73
     1
 90
        2
 40
-0.6
 41
30.0
 62
     5
 63
     7
421
 16777215
 74
     1
 91
        4
 64
     7
 65
   257
 75
     1
175
     1
 42
1.0
 92
        0
 66
   257
 43
1.0
 76
     1
 77
     6
 78
     2
 67
     7
 79
     5
170
     0
171
     0
290
     0
174
     0
 93
       13
 44
0.0
173
     0
291
     1
 45
0.0
  0
VISUALSTYLE
  5
38
102
{ACAD_REACTORS
330
2A
102
}
102
{ACAD_XDICTIONARY
360
88
102
}
330
2A
100
AcDbVisualStyle
  2
Linepattern
 70
    14
 71
     2
 72
     2
 73
     0
 90
        0
 40
-0.6
 41
-30.0
 62
     5
 63
     7
421
 16777215
 74
     1
 91
        4
 64
     7
 65
   257
 75
     7
175
     7
 42
1.0
 92
        8
 66
     7
 43
1.0
 76
     1
 77
     6
 78
     2
 67
     7
 79
     5
170
     0
171
     0
290
     0
174
     0
 93
        1
 44
0.0
173
     0
291
     1
 45
0.0
  0
VISUALSTYLE
  5
33
102
{ACAD_REACTORS
330
2A
102
}
102
{ACAD_XDICTIONARY
360
7E
102
}
330
2A
100
AcDbVisualStyle
  2
Realistic
 70
     8
 71
     2
 72
     2
 73
     0
 90
        0
 40
-0.6
 41
-30.0
 62
     5
 63
     7
421
 16777215
 74
     1
 91
        0
 64
     7
 65
   257
 75
     1
175
     1
 42
1.0
 92
        8
 66
     8
424
  7895160
 43
1.0
 76
     1
 77
     6
 78
     2
 67
     7
 79
     5
170
     0
171
     0
290
     0
174
     0
 93
       13
 44
0.0
173
     0
291
     0
 45
0.0
  0
VISUALSTYLE
  5
37
102
{ACAD_REACTORS
330
2A
102
}
102
{ACAD_XDICTIONARY
360
86
102
}
330
2A
100
AcDbVisualStyle
  2
Thicken
 70
    13
 71
     2
 72
     2
 73
     0
 90
        0
 40
-0.6
 41
-30.0
 62
     5
 63
     7
421
 16777215
 74
     1
 91
        4
 64
     7
 65
   257
 75
     1
175
     1
 42
1.0
 92
       12
 66
     7
 43
1.0
 76
     1
 77
     6
 78
     2
 67
     7
 79
     5
170
     0
171
     0
290
     0
174
     0
 93
        1
 44
0.0
173
     0
291
     1
 45
0.0
  0
DICTIONARY
  5
76
330
2F
100
AcDbDictionary
280
     1
281
     1
  3
ACAD_XREC_ROUNDTRIP
360
77
  0
DICTIONARY
  5
7A
330
31
100
AcDbDictionary
280
     1
281
     1
  3
ACAD_XREC_ROUNDTRIP
360
7B
  0
DICTIONARY
  5
78
330
30
100
AcDbDictionary
280
     1
281
     1
  3
ACAD_XREC_ROUNDTRIP
360
79
  0
DICTIONARY
  5
7C
330
32
100
AcDbDictionary
280
     1
281
     1
  3
ACAD_XREC_ROUNDTRIP
360
7D
  0
DICTIONARY
  5
84
330
36
100
AcDbDictionary
280
     1
281
     1
  3
ACAD_XREC_ROUNDTRIP
360
85
  0
DICTIONARY
  5
8C
330
3A
100
AcDbDictionary
280
     1
281
     1
  3
ACAD_XREC_ROUNDTRIP
360
8D
  0
DICTIONARY
  5
80
330
34
100
AcDbDictionary
280
     1
281
     1
  3
ACAD_XREC_ROUNDTRIP
360
81
  0
DICTIONARY
  5
82
330
35
100
AcDbDictionary
280
     1
281
     1
  3
ACAD_XREC_ROUNDTRIP
360
83
  0
DICTIONARY
  5
8A
330
39
100
AcDbDictionary
280
     1
281
     1
  3
ACAD_XREC_ROUNDTRIP
360
8B
  0
DICTIONARY
  5
6E
330
2B
100
AcDbDictionary
280
     1
281
     1
  3
ACAD_XREC_ROUNDTRIP
360
6F
  0
DICTIONARY
  5
70
330
2C
100
AcDbDictionary
280
     1
281
     1
  3
ACAD_XREC_ROUNDTRIP
360
71
  0
DICTIONARY
  5
72
330
2D
100
AcDbDictionary
280
     1
281
     1
  3
ACAD_XREC_ROUNDTRIP
360
73
  0
DICTIONARY
  5
74
330
2E
100
AcDbDictionary
280
     1
281
     1
  3
ACAD_XREC_ROUNDTRIP
360
75
  0
DICTIONARY
  5
88
330
38
100
AcDbDictionary
280
     1
281
     1
  3
ACAD_XREC_ROUNDTRIP
360
89
  0
DICTIONARY
  5
7E
330
33
100
AcDbDictionary
280
     1
281
     1
  3
ACAD_XREC_ROUNDTRIP
360
7F
  0
DICTIONARY
  5
86
330
37
100
AcDbDictionary
280
     1
281
     1
  3
ACAD_XREC_ROUNDTRIP
360
87
  0
XRECORD
  5
77
102
{ACAD_REACTORS
330
76
102
}
330
76
100
AcDbXrecord
280
     1
102
RTVSPropertyOp0
 70
     1
102
RTVSPropertyOp1
 70
     1
102
RTVSPropertyOp2
 70
     1
102
RTVSPropertyOp3
 70
     1
102
RTVSPropertyOp4
 70
     1
102
RTVSPropertyOp5
 70
     1
102
RTVSPropertyOp6
 70
     1
102
RTVSPropertyOp7
 70
     1
102
RTVSPropertyOp8
 70
     1
102
RTVSPropertyOp9
 70
     1
102
RTVSPropertyOp10
 70
     1
102
RTVSPropertyOp11
 70
     1
102
RTVSPropertyOp12
 70
     1
102
RTVSPropertyOp13
 70
     1
102
RTVSPropertyOp14
 70
     1
102
RTVSPropertyOp15
 70
     1
102
RTVSPropertyOp16
 70
     1
102
RTVSPropertyOp17
 70
     1
102
RTVSPropertyOp18
 70
     1
102
RTVSPropertyOp19
 70
     1
102
RTVSPropertyOp20
 70
     1
102
RTVSPropertyOp21
 70
     1
102
RTVSPropertyOp22
 70
     1
102
RTVSPropertyOp23
 70
     1
102
RTVSPropertyOp24
 70
     1
102
RTVSPropertyOp25
 70
     1
102
RTVSPropertyOp26
 70
     1
102
RTVSPropertyOp27
 70
     1
102
RTVSPropertyOp28
 70
     1
102
RTVSPropertyOp29
 70
     1
102
RTVSPropertyOp30
 70
     1
102
RTVSPropertyOp31
 70
     1
102
RTVSPropertyOp32
 70
     1
  0
XRECORD
  5
7B
102
{ACAD_REACTORS
330
7A
102
}
330
7A
100
AcDbXrecord
280
     1
102
RTVSPropertyOp0
 70
     1
102
RTVSPropertyOp1
 70
     1
102
RTVSPropertyOp2
 70
     1
102
RTVSPropertyOp3
 70
     1
102
RTVSPropertyOp4
 70
     1
102
RTVSPropertyOp5
 70
     1
102
RTVSPropertyOp6
 70
     1
102
RTVSPropertyOp7
 70
     1
102
RTVSPropertyOp8
 70
     1
102
RTVSPropertyOp9
 70
     1
102
RTVSPropertyOp10
 70
     1
102
RTVSPropertyOp11
 70
     1
102
RTVSPropertyOp12
 70
     1
102
RTVSPropertyOp13
 70
     1
102
RTVSPropertyOp14
 70
     1
102
RTVSPropertyOp15
 70
     1
102
RTVSPropertyOp16
 70
     1
102
RTVSPropertyOp17
 70
     1
102
RTVSPropertyOp18
 70
     1
102
RTVSPropertyOp19
 70
     1
102
RTVSPropertyOp20
 70
     1
102
RTVSPropertyOp21
 70
     1
102
RTVSPropertyOp22
 70
     1
102
RTVSPropertyOp23
 70
     1
102
RTVSPropertyOp24
 70
     1
102
RTVSPropertyOp25
 70
     1
102
RTVSPropertyOp26
 70
     1
102
RTVSPropertyOp27
 70
     1
102
RTVSPropertyOp28
 70
     1
102
RTVSPropertyOp29
 70
     1
102
RTVSPropertyOp30
 70
     1
102
RTVSPropertyOp31
 70
     1
102
RTVSPropertyOp32
 70
     1
  0
XRECORD
  5
79
102
{ACAD_REACTORS
330
78
102
}
330
78
100
AcDbXrecord
280
     1
102
RTVSPropertyOp0
 70
     1
102
RTVSPropertyOp1
 70
     1
102
RTVSPropertyOp2
 70
     1
102
RTVSPropertyOp3
 70
     1
102
RTVSPropertyOp4
 70
     1
102
RTVSPropertyOp5
 70
     1
102
RTVSPropertyOp6
 70
     1
102
RTVSPropertyOp7
 70
     1
102
RTVSPropertyOp8
 70
     1
102
RTVSPropertyOp9
 70
     1
102
RTVSPropertyOp10
 70
     1
102
RTVSPropertyOp11
 70
     1
102
RTVSPropertyOp12
 70
     1
102
RTVSPropertyOp13
 70
     1
102
RTVSPropertyOp14
 70
     1
102
RTVSPropertyOp15
 70
     1
102
RTVSPropertyOp16
 70
     1
102
RTVSPropertyOp17
 70
     1
102
RTVSPropertyOp18
 70
     1
102
RTVSPropertyOp19
 70
     1
102
RTVSPropertyOp20
 70
     1
102
RTVSPropertyOp21
 70
     1
102
RTVSPropertyOp22
 70
     1
102
RTVSPropertyOp23
 70
     1
102
RTVSPropertyOp24
 70
     1
102
RTVSPropertyOp25
 70
     1
102
RTVSPropertyOp26
 70
     1
102
RTVSPropertyOp27
 70
     1
102
RTVSPropertyOp28
 70
     1
102
RTVSPropertyOp29
 70
     1
102
RTVSPropertyOp30
 70
     1
102
RTVSPropertyOp31
 70
     1
102
RTVSPropertyOp32
 70
     1
  0
XRECORD
  5
7D
102
{ACAD_REACTORS
330
7C
102
}
330
7C
100
AcDbXrecord
280
     1
102
RTVSPropertyOp0
 70
     1
102
RTVSPropertyOp1
 70
     1
102
RTVSPropertyOp2
 70
     1
102
RTVSPropertyOp3
 70
     1
102
RTVSPropertyOp4
 70
     1
102
RTVSPropertyOp5
 70
     1
102
RTVSPropertyOp6
 70
     1
102
RTVSPropertyOp7
 70
     1
102
RTVSPropertyOp8
 70
     1
102
RTVSPropertyOp9
 70
     1
102
RTVSPropertyOp10
 70
     1
102
RTVSPropertyOp11
 70
     1
102
RTVSPropertyOp12
 70
     1
102
RTVSPropertyOp13
 70
     1
102
RTVSPropertyOp14
 70
     1
102
RTVSPropertyOp15
 70
     1
102
RTVSPropertyOp16
 70
     1
102
RTVSPropertyOp17
 70
     1
102
RTVSPropertyOp18
 70
     1
102
RTVSPropertyOp19
 70
     1
102
RTVSPropertyOp20
 70
     1
102
RTVSPropertyOp21
 70
     1
102
RTVSPropertyOp22
 70
     1
102
RTVSPropertyOp23
 70
     1
102
RTVSPropertyOp24
 70
     1
102
RTVSPropertyOp25
 70
     1
102
RTVSPropertyOp26
 70
     1
102
RTVSPropertyOp27
 70
     1
102
RTVSPropertyOp28
 70
     1
102
RTVSPropertyOp29
 70
     1
102
RTVSPropertyOp30
 70
     1
102
RTVSPropertyOp31
 70
     1
102
RTVSPropertyOp32
 70
     1
  0
XRECORD
  5
85
102
{ACAD_REACTORS
330
84
102
}
330
84
100
AcDbXrecord
280
     1
102
RTVSPropertyOp0
 70
     1
102
RTVSPropertyOp1
 70
     1
102
RTVSPropertyOp2
 70
     1
102
RTVSPropertyOp3
 70
     1
102
RTVSPropertyOp4
 70
     1
102
RTVSPropertyOp5
 70
     1
102
RTVSPropertyOp6
 70
     1
102
RTVSPropertyOp7
 70
     1
102
RTVSPropertyOp8
 70
     1
102
RTVSPropertyOp9
 70
     1
102
RTVSPropertyOp10
 70
     1
102
RTVSPropertyOp11
 70
     1
102
RTVSPropertyOp12
 70
     1
102
RTVSPropertyOp13
 70
     1
102
RTVSPropertyOp14
 70
     1
102
RTVSPropertyOp15
 70
     1
102
RTVSPropertyOp16
 70
     1
102
RTVSPropertyOp17
 70
     1
102
RTVSPropertyOp18
 70
     1
102
RTVSPropertyOp19
 70
     1
102
RTVSPropertyOp20
 70
     1
102
RTVSPropertyOp21
 70
     1
102
RTVSPropertyOp22
 70
     1
102
RTVSPropertyOp23
 70
     1
102
RTVSPropertyOp24
 70
     1
102
RTVSPropertyOp25
 70
     1
102
RTVSPropertyOp26
 70
     1
102
RTVSPropertyOp27
 70
     1
102
RTVSPropertyOp28
 70
     1
102
RTVSPropertyOp29
 70
     1
102
RTVSPropertyOp30
 70
     1
102
RTVSPropertyOp31
 70
     1
102
RTVSPropertyOp32
 70
     1
  0
XRECORD
  5
8D
102
{ACAD_REACTORS
330
8C
102
}
330
8C
100
AcDbXrecord
280
     1
102
RTVSPropertyOp0
 70
     1
102
RTVSPropertyOp1
 70
     1
102
RTVSPropertyOp2
 70
     1
102
RTVSPropertyOp3
 70
     1
102
RTVSPropertyOp4
 70
     1
102
RTVSPropertyOp5
 70
     1
102
RTVSPropertyOp6
 70
     1
102
RTVSPropertyOp7
 70
     1
102
RTVSPropertyOp8
 70
     1
102
RTVSPropertyOp9
 70
     1
102
RTVSPropertyOp10
 70
     1
102
RTVSPropertyOp11
 70
     1
102
RTVSPropertyOp12
 70
     1
102
RTVSPropertyOp13
 70
     1
102
RTVSPropertyOp14
 70
     1
102
RTVSPropertyOp15
 70
     1
102
RTVSPropertyOp16
 70
     1
102
RTVSPropertyOp17
 70
     1
102
RTVSPropertyOp18
 70
     1
102
RTVSPropertyOp19
 70
     1
102
RTVSPropertyOp20
 70
     1
102
RTVSPropertyOp21
 70
     1
102
RTVSPropertyOp22
 70
     1
102
RTVSPropertyOp23
 70
     1
102
RTVSPropertyOp24
 70
     1
102
RTVSPropertyOp25
 70
     1
102
RTVSPropertyOp26
 70
     1
102
RTVSPropertyOp27
 70
     1
102
RTVSPropertyOp28
 70
     1
102
RTVSPropertyOp29
 70
     1
102
RTVSPropertyOp30
 70
     1
102
RTVSPropertyOp31
 70
     1
102
RTVSPropertyOp32
 70
     1
  0
XRECORD
  5
81
102
{ACAD_REACTORS
330
80
102
}
330
80
100
AcDbXrecord
280
     1
102
RTVSPropertyOp0
 70
     1
102
RTVSPropertyOp1
 70
     1
102
RTVSPropertyOp2
 70
     1
102
RTVSPropertyOp3
 70
     1
102
RTVSPropertyOp4
 70
     1
102
RTVSPropertyOp5
 70
     1
102
RTVSPropertyOp6
 70
     1
102
RTVSPropertyOp7
 70
     1
102
RTVSPropertyOp8
 70
     1
102
RTVSPropertyOp9
 70
     1
102
RTVSPropertyOp10
 70
     1
102
RTVSPropertyOp11
 70
     1
102
RTVSPropertyOp12
 70
     1
102
RTVSPropertyOp13
 70
     1
102
RTVSPropertyOp14
 70
     1
102
RTVSPropertyOp15
 70
     1
102
RTVSPropertyOp16
 70
     1
102
RTVSPropertyOp17
 70
     1
102
RTVSPropertyOp18
 70
     1
102
RTVSPropertyOp19
 70
     1
102
RTVSPropertyOp20
 70
     1
102
RTVSPropertyOp21
 70
     1
102
RTVSPropertyOp22
 70
     1
102
RTVSPropertyOp23
 70
     1
102
RTVSPropertyOp24
 70
     1
102
RTVSPropertyOp25
 70
     1
102
RTVSPropertyOp26
 70
     1
102
RTVSPropertyOp27
 70
     1
102
RTVSPropertyOp28
 70
     1
102
RTVSPropertyOp29
 70
     1
102
RTVSPropertyOp30
 70
     1
102
RTVSPropertyOp31
 70
     1
102
RTVSPropertyOp32
 70
     1
  0
XRECORD
  5
83
102
{ACAD_REACTORS
330
82
102
}
330
82
100
AcDbXrecord
280
     1
102
RTVSPropertyOp0
 70
     1
102
RTVSPropertyOp1
 70
     1
102
RTVSPropertyOp2
 70
     1
102
RTVSPropertyOp3
 70
     1
102
RTVSPropertyOp4
 70
     1
102
RTVSPropertyOp5
 70
     1
102
RTVSPropertyOp6
 70
     1
102
RTVSPropertyOp7
 70
     1
102
RTVSPropertyOp8
 70
     1
102
RTVSPropertyOp9
 70
     1
102
RTVSPropertyOp10
 70
     1
102
RTVSPropertyOp11
 70
     1
102
RTVSPropertyOp12
 70
     1
102
RTVSPropertyOp13
 70
     1
102
RTVSPropertyOp14
 70
     1
102
RTVSPropertyOp15
 70
     1
102
RTVSPropertyOp16
 70
     1
102
RTVSPropertyOp17
 70
     1
102
RTVSPropertyOp18
 70
     1
102
RTVSPropertyOp19
 70
     1
102
RTVSPropertyOp20
 70
     1
102
RTVSPropertyOp21
 70
     1
102
RTVSPropertyOp22
 70
     1
102
RTVSPropertyOp23
 70
     1
102
RTVSPropertyOp24
 70
     1
102
RTVSPropertyOp25
 70
     1
102
RTVSPropertyOp26
 70
     1
102
RTVSPropertyOp27
 70
     1
102
RTVSPropertyOp28
 70
     1
102
RTVSPropertyOp29
 70
     1
102
RTVSPropertyOp30
 70
     1
102
RTVSPropertyOp31
 70
     1
102
RTVSPropertyOp32
 70
     1
  0
XRECORD
  5
8B
102
{ACAD_REACTORS
330
8A
102
}
330
8A
100
AcDbXrecord
280
     1
102
RTVSPropertyOp0
 70
     1
102
RTVSPropertyOp1
 70
     1
102
RTVSPropertyOp2
 70
     1
102
RTVSPropertyOp3
 70
     1
102
RTVSPropertyOp4
 70
     1
102
RTVSPropertyOp5
 70
     1
102
RTVSPropertyOp6
 70
     1
102
RTVSPropertyOp7
 70
     1
102
RTVSPropertyOp8
 70
     1
102
RTVSPropertyOp9
 70
     1
102
RTVSPropertyOp10
 70
     1
102
RTVSPropertyOp11
 70
     1
102
RTVSPropertyOp12
 70
     1
102
RTVSPropertyOp13
 70
     1
102
RTVSPropertyOp14
 70
     1
102
RTVSPropertyOp15
 70
     1
102
RTVSPropertyOp16
 70
     1
102
RTVSPropertyOp17
 70
     1
102
RTVSPropertyOp18
 70
     1
102
RTVSPropertyOp19
 70
     1
102
RTVSPropertyOp20
 70
     1
102
RTVSPropertyOp21
 70
     1
102
RTVSPropertyOp22
 70
     1
102
RTVSPropertyOp23
 70
     1
102
RTVSPropertyOp24
 70
     1
102
RTVSPropertyOp25
 70
     1
102
RTVSPropertyOp26
 70
     1
102
RTVSPropertyOp27
 70
     1
102
RTVSPropertyOp28
 70
     1
102
RTVSPropertyOp29
 70
     1
102
RTVSPropertyOp30
 70
     1
102
RTVSPropertyOp31
 70
     1
102
RTVSPropertyOp32
 70
     1
  0
XRECORD
  5
6F
102
{ACAD_REACTORS
330
6E
102
}
330
6E
100
AcDbXrecord
280
     1
102
RTVSPropertyOp0
 70
     1
102
RTVSPropertyOp1
 70
     1
102
RTVSPropertyOp2
 70
     1
102
RTVSPropertyOp3
 70
     1
102
RTVSPropertyOp4
 70
     1
102
RTVSPropertyOp5
 70
     1
102
RTVSPropertyOp6
 70
     1
102
RTVSPropertyOp7
 70
     1
102
RTVSPropertyOp8
 70
     1
102
RTVSPropertyOp9
 70
     1
102
RTVSPropertyOp10
 70
     1
102
RTVSPropertyOp11
 70
     1
102
RTVSPropertyOp12
 70
     1
102
RTVSPropertyOp13
 70
     1
102
RTVSPropertyOp14
 70
     1
102
RTVSPropertyOp15
 70
     1
102
RTVSPropertyOp16
 70
     1
102
RTVSPropertyOp17
 70
     1
102
RTVSPropertyOp18
 70
     1
102
RTVSPropertyOp19
 70
     1
102
RTVSPropertyOp20
 70
     1
102
RTVSPropertyOp21
 70
     1
102
RTVSPropertyOp22
 70
     1
102
RTVSPropertyOp23
 70
     1
102
RTVSPropertyOp24
 70
     1
102
RTVSPropertyOp25
 70
     1
102
RTVSPropertyOp26
 70
     1
102
RTVSPropertyOp27
 70
     1
102
RTVSPropertyOp28
 70
     1
102
RTVSPropertyOp29
 70
     1
102
RTVSPropertyOp30
 70
     1
102
RTVSPropertyOp31
 70
     1
102
RTVSPropertyOp32
 70
     1
  0
XRECORD
  5
71
102
{ACAD_REACTORS
330
70
102
}
330
70
100
AcDbXrecord
280
     1
102
RTVSPropertyOp0
 70
     1
102
RTVSPropertyOp1
 70
     1
102
RTVSPropertyOp2
 70
     1
102
RTVSPropertyOp3
 70
     1
102
RTVSPropertyOp4
 70
     1
102
RTVSPropertyOp5
 70
     1
102
RTVSPropertyOp6
 70
     1
102
RTVSPropertyOp7
 70
     1
102
RTVSPropertyOp8
 70
     1
102
RTVSPropertyOp9
 70
     1
102
RTVSPropertyOp10
 70
     1
102
RTVSPropertyOp11
 70
     1
102
RTVSPropertyOp12
 70
     1
102
RTVSPropertyOp13
 70
     1
102
RTVSPropertyOp14
 70
     1
102
RTVSPropertyOp15
 70
     1
102
RTVSPropertyOp16
 70
     1
102
RTVSPropertyOp17
 70
     1
102
RTVSPropertyOp18
 70
     1
102
RTVSPropertyOp19
 70
     1
102
RTVSPropertyOp20
 70
     1
102
RTVSPropertyOp21
 70
     1
102
RTVSPropertyOp22
 70
     1
102
RTVSPropertyOp23
 70
     1
102
RTVSPropertyOp24
 70
     1
102
RTVSPropertyOp25
 70
     1
102
RTVSPropertyOp26
 70
     1
102
RTVSPropertyOp27
 70
     1
102
RTVSPropertyOp28
 70
     1
102
RTVSPropertyOp29
 70
     1
102
RTVSPropertyOp30
 70
     1
102
RTVSPropertyOp31
 70
     1
102
RTVSPropertyOp32
 70
     1
  0
XRECORD
  5
73
102
{ACAD_REACTORS
330
72
102
}
330
72
100
AcDbXrecord
280
     1
102
RTVSPropertyOp0
 70
     1
102
RTVSPropertyOp1
 70
     1
102
RTVSPropertyOp2
 70
     1
102
RTVSPropertyOp3
 70
     1
102
RTVSPropertyOp4
 70
     1
102
RTVSPropertyOp5
 70
     1
102
RTVSPropertyOp6
 70
     1
102
RTVSPropertyOp7
 70
     1
102
RTVSPropertyOp8
 70
     1
102
RTVSPropertyOp9
 70
     1
102
RTVSPropertyOp10
 70
     1
102
RTVSPropertyOp11
 70
     1
102
RTVSPropertyOp12
 70
     1
102
RTVSPropertyOp13
 70
     1
102
RTVSPropertyOp14
 70
     1
102
RTVSPropertyOp15
 70
     1
102
RTVSPropertyOp16
 70
     1
102
RTVSPropertyOp17
 70
     1
102
RTVSPropertyOp18
 70
     1
102
RTVSPropertyOp19
 70
     1
102
RTVSPropertyOp20
 70
     1
102
RTVSPropertyOp21
 70
     1
102
RTVSPropertyOp22
 70
     1
102
RTVSPropertyOp23
 70
     1
102
RTVSPropertyOp24
 70
     1
102
RTVSPropertyOp25
 70
     1
102
RTVSPropertyOp26
 70
     1
102
RTVSPropertyOp27
 70
     1
102
RTVSPropertyOp28
 70
     1
102
RTVSPropertyOp29
 70
     1
102
RTVSPropertyOp30
 70
     1
102
RTVSPropertyOp31
 70
     1
102
RTVSPropertyOp32
 70
     1
  0
XRECORD
  5
75
102
{ACAD_REACTORS
330
74
102
}
330
74
100
AcDbXrecord
280
     1
102
RTVSPropertyOp0
 70
     1
102
RTVSPropertyOp1
 70
     1
102
RTVSPropertyOp2
 70
     1
102
RTVSPropertyOp3
 70
     1
102
RTVSPropertyOp4
 70
     1
102
RTVSPropertyOp5
 70
     1
102
RTVSPropertyOp6
 70
     1
102
RTVSPropertyOp7
 70
     1
102
RTVSPropertyOp8
 70
     1
102
RTVSPropertyOp9
 70
     1
102
RTVSPropertyOp10
 70
     1
102
RTVSPropertyOp11
 70
     1
102
RTVSPropertyOp12
 70
     1
102
RTVSPropertyOp13
 70
     1
102
RTVSPropertyOp14
 70
     1
102
RTVSPropertyOp15
 70
     1
102
RTVSPropertyOp16
 70
     1
102
RTVSPropertyOp17
 70
     1
102
RTVSPropertyOp18
 70
     1
102
RTVSPropertyOp19
 70
     1
102
RTVSPropertyOp20
 70
     1
102
RTVSPropertyOp21
 70
     1
102
RTVSPropertyOp22
 70
     1
102
RTVSPropertyOp23
 70
     1
102
RTVSPropertyOp24
 70
     1
102
RTVSPropertyOp25
 70
     1
102
RTVSPropertyOp26
 70
     1
102
RTVSPropertyOp27
 70
     1
102
RTVSPropertyOp28
 70
     1
102
RTVSPropertyOp29
 70
     1
102
RTVSPropertyOp30
 70
     1
102
RTVSPropertyOp31
 70
     1
102
RTVSPropertyOp32
 70
     1
  0
XRECORD
  5
89
102
{ACAD_REACTORS
330
88
102
}
330
88
100
AcDbXrecord
280
     1
102
RTVSPropertyOp0
 70
     1
102
RTVSPropertyOp1
 70
     1
102
RTVSPropertyOp2
 70
     1
102
RTVSPropertyOp3
 70
     1
102
RTVSPropertyOp4
 70
     1
102
RTVSPropertyOp5
 70
     1
102
RTVSPropertyOp6
 70
     1
102
RTVSPropertyOp7
 70
     1
102
RTVSPropertyOp8
 70
     1
102
RTVSPropertyOp9
 70
     1
102
RTVSPropertyOp10
 70
     1
102
RTVSPropertyOp11
 70
     1
102
RTVSPropertyOp12
 70
     1
102
RTVSPropertyOp13
 70
     1
102
RTVSPropertyOp14
 70
     1
102
RTVSPropertyOp15
 70
     1
102
RTVSPropertyOp16
 70
     1
102
RTVSPropertyOp17
 70
     1
102
RTVSPropertyOp18
 70
     1
102
RTVSPropertyOp19
 70
     1
102
RTVSPropertyOp20
 70
     1
102
RTVSPropertyOp21
 70
     1
102
RTVSPropertyOp22
 70
     1
102
RTVSPropertyOp23
 70
     1
102
RTVSPropertyOp24
 70
     1
102
RTVSPropertyOp25
 70
     1
102
RTVSPropertyOp26
 70
     1
102
RTVSPropertyOp27
 70
     1
102
RTVSPropertyOp28
 70
     1
102
RTVSPropertyOp29
 70
     1
102
RTVSPropertyOp30
 70
     1
102
RTVSPropertyOp31
 70
     1
102
RTVSPropertyOp32
 70
     1
  0
XRECORD
  5
7F
102
{ACAD_REACTORS
330
7E
102
}
330
7E
100
AcDbXrecord
280
     1
102
RTVSPropertyOp0
 70
     1
102
RTVSPropertyOp1
 70
     1
102
RTVSPropertyOp2
 70
     1
102
RTVSPropertyOp3
 70
     1
102
RTVSPropertyOp4
 70
     1
102
RTVSPropertyOp5
 70
     1
102
RTVSPropertyOp6
 70
     1
102
RTVSPropertyOp7
 70
     1
102
RTVSPropertyOp8
 70
     1
102
RTVSPropertyOp9
 70
     1
102
RTVSPropertyOp10
 70
     1
102
RTVSPropertyOp11
 70
     1
102
RTVSPropertyOp12
 70
     1
102
RTVSPropertyOp13
 70
     1
102
RTVSPropertyOp14
 70
     1
102
RTVSPropertyOp15
 70
     1
102
RTVSPropertyOp16
 70
     1
102
RTVSPropertyOp17
 70
     1
102
RTVSPropertyOp18
 70
     1
102
RTVSPropertyOp19
 70
     1
102
RTVSPropertyOp20
 70
     1
102
RTVSPropertyOp21
 70
     1
102
RTVSPropertyOp22
 70
     1
102
RTVSPropertyOp23
 70
     1
102
RTVSPropertyOp24
 70
     1
102
RTVSPropertyOp25
 70
     1
102
RTVSPropertyOp26
 70
     1
102
RTVSPropertyOp27
 70
     1
102
RTVSPropertyOp28
 70
     1
102
RTVSPropertyOp29
 70
     1
102
RTVSPropertyOp30
 70
     1
102
RTVSPropertyOp31
 70
     1
102
RTVSPropertyOp32
 70
     1
  0
XRECORD
  5
87
102
{ACAD_REACTORS
330
86
102
}
330
86
100
AcDbXrecord
280
     1
102
RTVSPropertyOp0
 70
     1
102
RTVSPropertyOp1
 70
     1
102
RTVSPropertyOp2
 70
     1
102
RTVSPropertyOp3
 70
     1
102
RTVSPropertyOp4
 70
     1
102
RTVSPropertyOp5
 70
     1
102
RTVSPropertyOp6
 70
     1
102
RTVSPropertyOp7
 70
     1
102
RTVSPropertyOp8
 70
     1
102
RTVSPropertyOp9
 70
     1
102
RTVSPropertyOp10
 70
     1
102
RTVSPropertyOp11
 70
     1
102
RTVSPropertyOp12
 70
     1
102
RTVSPropertyOp13
 70
     1
102
RTVSPropertyOp14
 70
     1
102
RTVSPropertyOp15
 70
     1
102
RTVSPropertyOp16
 70
     1
102
RTVSPropertyOp17
 70
     1
102
RTVSPropertyOp18
 70
     1
102
RTVSPropertyOp19
 70
     1
102
RTVSPropertyOp20
 70
     1
102
RTVSPropertyOp21
 70
     1
102
RTVSPropertyOp22
 70
     1
102
RTVSPropertyOp23
 70
     1
102
RTVSPropertyOp24
 70
     1
102
RTVSPropertyOp25
 70
     1
102
RTVSPropertyOp26
 70
     1
102
RTVSPropertyOp27
 70
     1
102
RTVSPropertyOp28
 70
     1
102
RTVSPropertyOp29
 70
     1
102
RTVSPropertyOp30
 70
     1
102
RTVSPropertyOp31
 70
     1
102
RTVSPropertyOp32
 70
     1
  0
ENDSEC
  0
EOF
