  0
SECTION
  2
HEADER
  9
$ACADVER
  1
AC1021
  9
$ACADMAINTVER
 70
    25
  9
$DWGCODEPAGE
  3
ANSI_1252
  9
$INSBASE
 10
0.0
 20
0.0
 30
0.0
  9
$EXTMIN
 10
-187.3813
 20
-115.0866
 30
0.0
  9
$EXTMAX
 10
196.4186
 20
132.1059
 30
0.0
  9
$LIMMIN
 10
0.0
 20
0.0
  9
$LIMMAX
 10
12.0
 20
9.0
  9
$ORTHOMODE
 70
     0
  9
$REGENMODE
 70
     1
  9
$FILLMODE
 70
     1
  9
$QTEXTMODE
 70
     0
  9
$MIRRTEXT
 70
     1
  9
$LTSCALE
 40
1.0
  9
$ATTMODE
 70
     1
  9
$TEXTSIZE
 40
0.2
  9
$TRACEWID
 40
0.05
  9
$TEXTSTYLE
  7
Standard
  9
$CLAYER
  8
0
  9
$CELTYPE
  6
ByLayer
  9
$CECOLOR
 62
   256
  9
$CELTSCALE
 40
1.0
  9
$DISPSILH
 70
     0
  9
$DIMSCALE
 40
1.0
  9
$DIMASZ
 40
0.18
  9
$DIMEXO
 40
0.0625
  9
$DIMDLI
 40
0.38
  9
$DIMRND
 40
0.0
  9
$DIMDLE
 40
0.0
  9
$DIMEXE
 40
0.18
  9
$DIMTP
 40
0.0
  9
$DIMTM
 40
0.0
  9
$DIMTXT
 40
0.18
  9
$DIMCEN
 40
0.09
  9
$DIMTSZ
 40
0.0
  9
$DIMTOL
 70
     0
  9
$DIMLIM
 70
     0
  9
$DIMTIH
 70
     1
  9
$DIMTOH
 70
     1
  9
$DIMSE1
 70
     0
  9
$DIMSE2
 70
     0
  9
$DIMTAD
 70
     0
  9
$DIMZIN
 70
     0
  9
$DIMBLK
  1

  9
$DIMASO
 70
     1
  9
$DIMSHO
 70
     1
  9
$DIMPOST
  1

  9
$DIMAPOST
  1

  9
$DIMALT
 70
     0
  9
$DIMALTD
 70
     2
  9
$DIMALTF
 40
25.4
  9
$DIMLFAC
 40
1.0
  9
$DIMTOFL
 70
     0
  9
$DIMTVP
 40
0.0
  9
$DIMTIX
 70
     0
  9
$DIMSOXD
 70
     0
  9
$DIMSAH
 70
     0
  9
$DIMBLK1
  1

  9
$DIMBLK2
  1

  9
$DIMSTYLE
  2
Standard
  9
$DIMCLRD
 70
     0
  9
$DIMCLRE
 70
     0
  9
$DIMCLRT
 70
     0
  9
$DIMTFAC
 40
1.0
  9
$DIMGAP
 40
0.09
  9
$DIMJUST
 70
     0
  9
$DIMSD1
 70
     0
  9
$DIMSD2
 70
     0
  9
$DIMTOLJ
 70
     1
  9
$DIMTZIN
 70
     0
  9
$DIMALTZ
 70
     0
  9
$DIMALTTZ
 70
     0
  9
$DIMUPT
 70
     0
  9
$DIMDEC
 70
     4
  9
$DIMTDEC
 70
     4
  9
$DIMALTU
 70
     2
  9
$DIMALTTD
 70
     2
  9
$DIMTXSTY
  7
Standard
  9
$DIMAUNIT
 70
     0
  9
$DIMADEC
 70
     0
  9
$DIMALTRND
 40
0.0
  9
$DIMAZIN
 70
     0
  9
$DIMDSEP
 70
    46
  9
$DIMATFIT
 70
     3
  9
$DIMFRAC
 70
     0
  9
$DIMLDRBLK
  1

  9
$DIMLUNIT
 70
     2
  9
$DIMLWD
 70
    -2
  9
$DIMLWE
 70
    -2
  9
$DIMTMOVE
 70
     0
  9
$DIMFXL
 40
1.0
  9
$DIMFXLON
 70
     0
  9
$DIMJOGANG
 40
0.7853981633974483
  9
$DIMTFILL
 70
     0
  9
$DIMTFILLCLR
 70
     0
  9
$DIMARCSYM
 70
     0
  9
$DIMLTYPE
  6

  9
$DIMLTEX1
  6

  9
$DIMLTEX2
  6

  9
$LUNITS
 70
     2
  9
$LUPREC
 70
     4
  9
$SKETCHINC
 40
0.1
  9
$FILLETRAD
 40
0.5
  9
$AUNITS
 70
     0
  9
$AUPREC
 70
     0
  9
$MENU
  1
.
  9
$ELEVATION
 40
0.0
  9
$PELEVATION
 40
0.0
  9
$THICKNESS
 40
0.0
  9
$LIMCHECK
 70
     0
  9
$CHAMFERA
 40
0.5
  9
$CHAMFERB
 40
0.5
  9
$CHAMFERC
 40
1.0
  9
$CHAMFERD
 40
0.0
  9
$SKPOLY
 70
     0
  9
$TDCREATE
 40
2458492.82697978
  9
$TDUCREATE
 40
2458492.82697978
  9
$TDUPDATE
 40
2458492.826980035
  9
$TDUUPDATE
 40
2458492.826980035
  9
$TDINDWG
 40
0.0000000116
  9
$TDUSRTIMER
 40
0.0000000116
  9
$USRTIMER
 70
     1
  9
$ANGBASE
 50
0.0
  9
$ANGDIR
 70
     0
  9
$PDMODE
 70
     0
  9
$PDSIZE
 40
0.0
  9
$PLINEWID
 40
0.0
  9
$SPLFRAME
 70
     0
  9
$SPLINETYPE
 70
     6
  9
$SPLINESEGS
 70
     8
  9
$HANDSEED
  5
108
  9
$SURFTAB1
 70
     6
  9
$SURFTAB2
 70
     6
  9
$SURFTYPE
 70
     6
  9
$SURFU
 70
     6
  9
$SURFV
 70
     6
  9
$UCSBASE
  2

  9
$UCSNAME
  2

  9
$UCSORG
 10
0.0
 20
0.0
 30
0.0
  9
$UCSXDIR
 10
1.0
 20
0.0
 30
0.0
  9
$UCSYDIR
 10
0.0
 20
1.0
 30
0.0
  9
$UCSORTHOREF
  2

  9
$UCSORTHOVIEW
 70
     0
  9
$UCSORGTOP
 10
0.0
 20
0.0
 30
0.0
  9
$UCSORGBOTTOM
 10
0.0
 20
0.0
 30
0.0
  9
$UCSORGLEFT
 10
0.0
 20
0.0
 30
0.0
  9
$UCSORGRIGHT
 10
0.0
 20
0.0
 30
0.0
  9
$UCSORGFRONT
 10
0.0
 20
0.0
 30
0.0
  9
$UCSORGBACK
 10
0.0
 20
0.0
 30
0.0
  9
$PUCSBASE
  2

  9
$PUCSNAME
  2

  9
$PUCSORG
 10
0.0
 20
0.0
 30
0.0
  9
$PUCSXDIR
 10
1.0
 20
0.0
 30
0.0
  9
$PUCSYDIR
 10
0.0
 20
1.0
 30
0.0
  9
$PUCSORTHOREF
  2

  9
$PUCSORTHOVIEW
 70
     0
  9
$PUCSORGTOP
 10
0.0
 20
0.0
 30
0.0
  9
$PUCSORGBOTTOM
 10
0.0
 20
0.0
 30
0.0
  9
$PUCSORGLEFT
 10
0.0
 20
0.0
 30
0.0
  9
$PUCSORGRIGHT
 10
0.0
 20
0.0
 30
0.0
  9
$PUCSORGFRONT
 10
0.0
 20
0.0
 30
0.0
  9
$PUCSORGBACK
 10
0.0
 20
0.0
 30
0.0
  9
$USERI1
 70
     0
  9
$USERI2
 70
     0
  9
$USERI3
 70
     0
  9
$USERI4
 70
     0
  9
$USERI5
 70
     0
  9
$USERR1
 40
0.0
  9
$USERR2
 40
0.0
  9
$USERR3
 40
0.0
  9
$USERR4
 40
0.0
  9
$USERR5
 40
0.0
  9
$WORLDVIEW
 70
     1
  9
$SHADEDGE
 70
     3
  9
$SHADEDIF
 70
    70
  9
$TILEMODE
 70
     1
  9
$MAXACTVP
 70
    64
  9
$PINSBASE
 10
0.0
 20
0.0
 30
0.0
  9
$PLIMCHECK
 70
     0
  9
$PEXTMIN
 10
1.000000000000000E+20
 20
1.000000000000000E+20
 30
1.000000000000000E+20
  9
$PEXTMAX
 10
-1.000000000000000E+20
 20
-1.000000000000000E+20
 30
-1.000000000000000E+20
  9
$PLIMMIN
 10
0.0
 20
0.0
  9
$PLIMMAX
 10
12.0
 20
9.0
  9
$UNITMODE
 70
     0
  9
$VISRETAIN
 70
     1
  9
$PLINEGEN
 70
     0
  9
$PSLTSCALE
 70
     1
  9
$TREEDEPTH
 70
  3020
  9
$CMLSTYLE
  2
Standard
  9
$CMLJUST
 70
     0
  9
$CMLSCALE
 40
1.0
  9
$PROXYGRAPHICS
 70
     1
  9
$MEASUREMENT
 70
     0
  9
$CELWEIGHT
370
    -1
  9
$ENDCAPS
280
     0
  9
$JOINSTYLE
280
     0
  9
$LWDISPLAY
290
     0
  9
$INSUNITS
 70
     4
  9
$HYPERLINKBASE
  1

  9
$STYLESHEET
  1

  9
$XEDIT
290
     1
  9
$CEPSNTYPE
380
     0
  9
$PSTYLEMODE
290
     1
  9
$FINGERPRINTGUID
  2
{5C133458-1FF6-4F52-9C79-6678EFB9F00B}
  9
$VERSIONGUID
  2
{FAEB1C32-E019-11D5-929B-00C0DF256EC4}
  9
$EXTNAMES
290
     1
  9
$PSVPSCALE
 40
0.0
  9
$OLESTARTUP
290
     0
  9
$SORTENTS
280
   127
  9
$INDEXCTL
280
     0
  9
$HIDETEXT
280
     1
  9
$XCLIPFRAME
290
     0
  9
$HALOGAP
280
     0
  9
$OBSCOLOR
 70
   257
  9
$OBSLTYPE
280
     0
  9
$INTERSECTIONDISPLAY
280
     0
  9
$INTERSECTIONCOLOR
 70
   257
  9
$DIMASSOC
280
     2
  9
$PROJECTNAME
  1

  9
$CAMERADISPLAY
290
     0
  9
$LENSLENGTH
 40
50.0
  9
$CAMERAHEIGHT
 40
0.0
  9
$STEPSPERSEC
 40
2.0
  9
$STEPSIZE
 40
6.0
  9
$3DDWFPREC
 40
2.0
  9
$PSOLWIDTH
 40
0.25
  9
$PSOLHEIGHT
 40
4.0
  9
$LOFTANG1
 40
1.570796326794897
  9
$LOFTANG2
 40
1.570796326794897
  9
$LOFTMAG1
 40
0.0
  9
$LOFTMAG2
 40
0.0
  9
$LOFTPARAM
 70
     7
  9
$LOFTNORMALS
280
     1
  9
$LATITUDE
 40
37.795
  9
$LONGITUDE
 40
-122.394
  9
$NORTHDIRECTION
 40
0.0
  9
$TIMEZONE
 70
 -8000
  9
$LIGHTGLYPHDISPLAY
280
     1
  9
$TILEMODELIGHTSYNCH
280
     1
  9
$SOLIDHIST
280
     1
  9
$SHOWHIST
280
     1
  9
$DWFFRAME
280
     2
  9
$DGNFRAME
280
     2
  9
$REALWORLDSCALE
290
     1
  9
$INTERFERECOLOR
 62
   256
  9
$CSHADOW
280
     0
  9
$SHADOWPLANELOCATION
 40
0.0
  0
ENDSEC
  0
SECTION
  2
CLASSES
  0
CLASS
  1
ACDBDICTIONARYWDFLT
  2
AcDbDictionaryWithDefault
  3
ObjectDBX Classes
 90
        0
 91
        4
280
     0
281
     0
  0
CLASS
  1
VISUALSTYLE
  2
AcDbVisualStyle
  3
ObjectDBX Classes
 90
     4095
 91
        4
280
     0
281
     0
  0
CLASS
  1
MATERIAL
  2
AcDbMaterial
  3
ObjectDBX Classes
 90
     1153
 91
        4
280
     0
281
     0
  0
ENDSEC
  0
SECTION
  2
TABLES
  0
TABLE
  2
VPORT
  5
8
330
0
100
AcDbSymbolTable
 70
     1
  0
VPORT
  5
29
330
8
100
AcDbSymbolTableRecord
100
AcDbViewportTableRecord
  2
*Active
 70
     0
 10
0.0
 20
0.0
 11
1.0
 21
1.0
 12
10.42990654205607
 22
4.5
 13
0.0
 23
0.0
 14
0.5
 24
0.5
 15
0.5
 25
0.5
 16
0.0
 26
0.0
 36
1.0
 17
0.0
 27
0.0
 37
0.0
 40
9.0
 41
1.972972972850329
 42
50.0
 43
0.0
 44
0.0
 50
0.0
 51
0.0
 71
     0
 72
   100
 73
     1
 74
     3
 75
     0
 76
     0
 77
     0
 78
     0
281
     0
 65
     1
110
0.0
120
0.0
130
0.0
111
1.0
121
0.0
131
0.0
112
0.0
122
1.0
132
0.0
 79
     0
146
0.0
 60
     3
 61
     5
292
     1
282
     1
141
0.0
142
0.0
 63
   250
  0
ENDTAB
  0
TABLE
  2
LTYPE
  5
5
330
0
100
AcDbSymbolTable
 70
     1
  0
LTYPE
  5
14
330
5
100
AcDbSymbolTableRecord
100
AcDbLinetypeTableRecord
  2
ByBlock
 70
     0
  3

 72
    65
 73
     0
 40
0.0
  0
LTYPE
  5
15
330
5
100
AcDbSymbolTableRecord
100
AcDbLinetypeTableRecord
  2
ByLayer
 70
     0
  3

 72
    65
 73
     0
 40
0.0
  0
LTYPE
  5
16
330
5
100
AcDbSymbolTableRecord
100
AcDbLinetypeTableRecord
  2
Continuous
 70
     0
  3
Solid line
 72
    65
 73
     0
 40
0.0
  0
ENDTAB
  0
TABLE
  2
LAYER
  5
2
330
0
100
AcDbSymbolTable
 70
     2
  0
LAYER
  5
10
330
2
100
AcDbSymbolTableRecord
100
AcDbLayerTableRecord
  2
0
 70
     0
 62
     7
  6
Continuous
370
    -3
390
F
347
3E
  0
LAYER
  5
40
330
2
100
AcDbSymbolTableRecord
100
AcDbLayerTableRecord
  2
layer 1
 70
     0
 62
     7
  6
Continuous
370
    -3
390
F
347
3E
  0
ENDTAB
  0
TABLE
  2
STYLE
  5
3
330
0
100
AcDbSymbolTable
 70
     1
  0
STYLE
  5
11
330
3
100
AcDbSymbolTableRecord
100
AcDbTextStyleTableRecord
  2
Standard
 70
     0
 40
0.0
 41
1.0
 50
0.0
 71
     0
 42
0.2
  3
txt
  4

  0
ENDTAB
  0
TABLE
  2
VIEW
  5
6
330
0
100
AcDbSymbolTable
 70
     0
  0
ENDTAB
  0
TABLE
  2
UCS
  5
7
330
0
100
AcDbSymbolTable
 70
     0
  0
ENDTAB
  0
TABLE
  2
APPID
  5
9
330
0
100
AcDbSymbolTable
 70
     2
  0
APPID
  5
12
330
9
100
AcDbSymbolTableRecord
100
AcDbRegAppTableRecord
  2
ACAD
 70
     0
  0
APPID
  5
3F
330
9
100
AcDbSymbolTableRecord
100
AcDbRegAppTableRecord
  2
ODA
 70
     0
  0
ENDTAB
  0
TABLE
  2
DIMSTYLE
  5
A
330
0
100
AcDbSymbolTable
 70
     1
100
AcDbDimStyleTable
  0
DIMSTYLE
105
27
330
A
100
AcDbSymbolTableRecord
100
AcDbDimStyleTableRecord
  2
Standard
 70
     0
178
     0
340
11
  0
ENDTAB
  0
TABLE
  2
BLOCK_RECORD
  5
1
330
0
100
AcDbSymbolTable
 70
     1
  0
BLOCK_RECORD
  5
1F
330
1
100
AcDbSymbolTableRecord
100
AcDbBlockTableRecord
  2
*Model_Space
340
22
 70
     0
280
     1
281
     0
  0
BLOCK_RECORD
  5
1B
330
1
100
AcDbSymbolTableRecord
100
AcDbBlockTableRecord
  2
*Paper_Space
340
1E
 70
     0
280
     1
281
     0
  0
BLOCK_RECORD
  5
23
330
1
100
AcDbSymbolTableRecord
100
AcDbBlockTableRecord
  2
*Paper_Space0
340
26
 70
     0
280
     1
281
     0
  0
ENDTAB
  0
ENDSEC
  0
SECTION
  2
BLOCKS
  0
BLOCK
  5
20
330
1F
100
AcDbEntity
  8
0
100
AcDbBlockBegin
  2
*Model_Space
 70
     0
 10
0.0
 20
0.0
 30
0.0
  3
*Model_Space
  1

  0
ENDBLK
  5
21
330
1F
100
AcDbEntity
  8
0
100
AcDbBlockEnd
  0
BLOCK
  5
1C
330
1B
100
AcDbEntity
 67
     1
  8
0
100
AcDbBlockBegin
  2
*Paper_Space
 70
     0
 10
0.0
 20
0.0
 30
0.0
  3
*Paper_Space
  1

  0
ENDBLK
  5
1D
330
1B
100
AcDbEntity
 67
     1
  8
0
100
AcDbBlockEnd
  0
BLOCK
  5
24
330
23
100
AcDbEntity
  8
0
100
AcDbBlockBegin
  2
*Paper_Space0
 70
     0
 10
0.0
 20
0.0
 30
0.0
  3
*Paper_Space0
  1

  0
ENDBLK
  5
25
330
23
100
AcDbEntity
  8
0
100
AcDbBlockEnd
  0
ENDSEC
  0
SECTION
  2
ENTITIES
  0
SPLINE
  5
41
330
1F
100
AcDbEntity
  8
layer 1
 62
   250
370
     9
100
AcDbSpline
210
0.0
220
0.0
230
1.0
 70
    11
 71
     3
 72
    32
 73
    28
 74
     0
 42
0.0000000001
 43
0.0000000001
 12
1.0
 22
0.0
 32
0.0
 13
1.0
 23
0.0
 33
0.0
 40
0.0
 40
0.0
 40
0.0
 40
0.0
 40
0.125
 40
0.125
 40
0.125
 40
0.125
 40
0.25
 40
0.25
 40
0.25
 40
0.25
 40
0.375
 40
0.375
 40
0.375
 40
0.375
 40
0.5
 40
0.5
 40
0.5
 40
0.5
 40
0.625
 40
0.625
 40
0.625
 40
0.625
 40
0.75
 40
0.75
 40
0.75
 40
0.75
 40
1.0
 40
1.0
 40
1.0
 40
1.0
 10
-187.3432
 20
-49.3811
 30
0.0
 10
-187.3432
 20
-49.3811
 30
0.0
 10
-187.3432
 20
-115.0485
 30
0.0
 10
-187.3432
 20
-115.0485
 30
0.0
 10
-187.3432
 20
-115.0485
 30
0.0
 10
-187.3432
 20
-115.0485
 30
0.0
 10
-108.5842
 20
-115.0485
 30
0.0
 10
-108.5842
 20
-115.0485
 30
0.0
 10
-108.5842
 20
-115.0485
 30
0.0
 10
-108.5842
 20
-115.0485
 30
0.0
 10
-108.5842
 20
-49.3811
 30
0.0
 10
-108.5842
 20
-49.3811
 30
0.0
 10
-108.5842
 20
-49.3811
 30
0.0
 10
-108.5842
 20
-49.3811
 30
0.0
 10
-108.5842
 20
131.629
 30
0.0
 10
-108.5842
 20
131.629
 30
0.0
 10
-108.5842
 20
131.629
 30
0.0
 10
-108.5842
 20
131.629
 30
0.0
 10
-187.3432
 20
131.629
 30
0.0
 10
-187.3432
 20
131.629
 30
0.0
 10
-187.3432
 20
131.629
 30
0.0
 10
-187.3432
 20
131.629
 30
0.0
 10
-187.3432
 20
-49.3811
 30
0.0
 10
-187.3432
 20
-49.3811
 30
0.0
 10
-187.3432
 20
-49.3811
 30
0.0
 10
-187.3432
 20
-49.3811
 30
0.0
 10
-187.3432
 20
-49.3811
 30
0.0
 10
-187.3432
 20
-49.3811
 30
0.0
  0
SPLINE
  5
42
330
1F
100
AcDbEntity
  8
layer 1
 62
     7
370
    20
100
AcDbSpline
210
0.0
220
0.0
230
1.0
 70
    11
 71
     3
 72
    32
 73
    28
 74
     0
 42
0.0000000001
 43
0.0000000001
 12
1.0
 22
0.0
 32
0.0
 13
1.0
 23
0.0
 33
0.0
 40
0.0
 40
0.0
 40
0.0
 40
0.0
 40
0.125
 40
0.125
 40
0.125
 40
0.125
 40
0.25
 40
0.25
 40
0.25
 40
0.25
 40
0.375
 40
0.375
 40
0.375
 40
0.375
 40
0.5
 40
0.5
 40
0.5
 40
0.5
 40
0.625
 40
0.625
 40
0.625
 40
0.625
 40
0.75
 40
0.75
 40
0.75
 40
0.75
 40
1.0
 40
1.0
 40
1.0
 40
1.0
 10
-134.6984
 20
104.3775
 30
0.0
 10
-133.1705
 20
105.0025
 30
0.0
 10
-131.3648
 20
105.9054
 30
0.0
 10
-129.7674
 20
106.739
 30
0.0
 10
-129.7674
 20
106.739
 30
0.0
 10
-129.7674
 20
106.739
 30
0.0
 10
-132.4066
 20
101.5299
 30
0.0
 10
-124.6973
 20
93.7513
 30
0.0
 10
-124.6973
 20
93.7513
 30
0.0
 10
-124.6973
 20
93.7513
 30
0.0
 10
-124.8363
 20
93.8208
 30
0.0
 10
-124.8363
 20
93.8208
 30
0.0
 10
-124.8363
 20
93.8208
 30
0.0
 10
-126.0864
 20
92.2928
 30
0.0
 10
-127.6143
 20
90.7649
 30
0.0
 10
-129.4201
 20
89.3063
 30
0.0
 10
-129.4201
 20
89.3063
 30
0.0
 10
-134.6984
 20
95.2792
 30
0.0
 10
-137.6155
 20
89.0285
 30
0.0
 10
-137.6155
 20
89.0285
 30
0.0
 10
-137.6155
 20
89.0285
 30
0.0
 10
-137.6155
 20
89.0285
 30
0.0
 10
-139.1434
 20
89.6535
 30
0.0
 10
-139.1434
 20
95.0014
 30
0.0
 10
-139.1434
 20
95.0014
 30
0.0
 10
-139.1434
 20
97.2934
 30
0.0
 10
-136.8514
 20
100.2798
 30
0.0
 10
-134.6984
 20
104.3775
 30
0.0
  0
SPLINE
  5
43
330
1F
100
AcDbEntity
  8
layer 1
 62
     7
370
    20
100
AcDbSpline
210
0.0
220
0.0
230
1.0
 70
    11
 71
     3
 72
    12
 73
     8
 74
     0
 42
0.0000000001
 43
0.0000000001
 12
1.0
 22
0.0
 32
0.0
 13
1.0
 23
0.0
 33
0.0
 40
0.0
 40
0.0
 40
0.0
 40
0.0
 40
0.3333333333333333
 40
0.3333333333333333
 40
0.3333333333333333
 40
0.3333333333333333
 40
1.0
 40
1.0
 40
1.0
 40
1.0
 10
-120.8774
 20
100.141
 30
0.0
 10
-126.781
 20
108.6835
 30
0.0
 10
-119.0716
 20
118.0595
 30
0.0
 10
-117.9605
 20
119.7265
 30
0.0
 10
-117.9605
 20
119.7265
 30
0.0
 10
-117.9605
 20
119.7265
 30
0.0
 10
-116.1548
 20
110.0726
 30
0.0
 10
-120.8774
 20
100.141
 30
0.0
  0
SPLINE
  5
44
330
1F
100
AcDbEntity
  8
layer 1
 62
     7
370
    20
100
AcDbSpline
210
0.0
220
0.0
230
1.0
 70
    11
 71
     3
 72
    52
 73
    48
 74
     0
 42
0.0000000001
 43
0.0000000001
 12
1.0
 22
0.0
 32
0.0
 13
1.0
 23
0.0
 33
0.0
 40
0.0
 40
0.0
 40
0.0
 40
0.0
 40
0.0769230769230769
 40
0.0769230769230769
 40
0.0769230769230769
 40
0.0769230769230769
 40
0.1538461538461539
 40
0.1538461538461539
 40
0.1538461538461539
 40
0.1538461538461539
 40
0.2307692307692308
 40
0.2307692307692308
 40
0.2307692307692308
 40
0.2307692307692308
 40
0.3076923076923077
 40
0.3076923076923077
 40
0.3076923076923077
 40
0.3076923076923077
 40
0.3846153846153846
 40
0.3846153846153846
 40
0.3846153846153846
 40
0.3846153846153846
 40
0.4615384615384616
 40
0.4615384615384616
 40
0.4615384615384616
 40
0.4615384615384616
 40
0.5384615384615384
 40
0.5384615384615384
 40
0.5384615384615384
 40
0.5384615384615384
 40
0.6153846153846154
 40
0.6153846153846154
 40
0.6153846153846154
 40
0.6153846153846154
 40
0.6923076923076923
 40
0.6923076923076923
 40
0.6923076923076923
 40
0.6923076923076923
 40
0.7692307692307693
 40
0.7692307692307693
 40
0.7692307692307693
 40
0.7692307692307693
 40
0.8461538461538461
 40
0.8461538461538461
 40
0.8461538461538461
 40
0.8461538461538461
 40
1.0
 40
1.0
 40
1.0
 40
1.0
 10
-161.785
 20
98.3351
 30
0.0
 10
-165.1881
 20
95.8348
 30
0.0
 10
-168.4523
 20
93.1262
 30
0.0
 10
-168.4523
 20
90.0703
 30
0.0
 10
-168.4523
 20
90.0703
 30
0.0
 10
-168.6608
 20
88.8897
 30
0.0
 10
-167.4106
 20
85.2781
 30
0.0
 10
-163.5212
 20
85.2781
 30
0.0
 10
-163.5212
 20
85.2781
 30
0.0
 10
-158.1733
 20
85.4865
 30
0.0
 10
-158.3123
 20
91.3205
 30
0.0
 10
-161.9238
 20
91.9455
 30
0.0
 10
-161.9238
 20
91.9455
 30
0.0
 10
-164.7713
 20
91.9455
 30
0.0
 10
-164.7713
 20
89.723
 30
0.0
 10
-164.7713
 20
89.723
 30
0.0
 10
-164.7713
 20
89.723
 30
0.0
 10
-164.7713
 20
89.723
 30
0.0
 10
-166.5771
 20
92.5706
 30
0.0
 10
-158.2428
 20
96.6683
 30
0.0
 10
-158.2428
 20
96.6683
 30
0.0
 10
-153.9368
 20
94.9319
 30
0.0
 10
-146.3665
 20
94.6541
 30
0.0
 10
-141.5047
 20
98.1268
 30
0.0
 10
-141.5047
 20
98.1268
 30
0.0
 10
-141.991
 20
94.3763
 30
0.0
 10
-142.4078
 20
88.6812
 30
0.0
 10
-138.2406
 20
83.8891
 30
0.0
 10
-138.2406
 20
83.8891
 30
0.0
 10
-156.9232
 20
75.3464
 30
0.0
 10
-179.4953
 20
86.945
 30
0.0
 10
-178.8702
 20
111.3228
 30
0.0
 10
-178.8702
 20
111.3228
 30
0.0
 10
-178.5924
 20
115.6982
 30
0.0
 10
-177.7588
 20
119.5875
 30
0.0
 10
-176.5087
 20
122.9213
 30
0.0
 10
-176.5087
 20
122.9213
 30
0.0
 10
-176.5087
 20
122.9213
 30
0.0
 10
-168.1745
 20
122.9213
 30
0.0
 10
-168.1745
 20
122.9213
 30
0.0
 10
-168.1745
 20
122.9213
 30
0.0
 10
-167.5494
 20
121.8795
 30
0.0
 10
-166.7855
 20
120.7683
 30
0.0
 10
-166.0215
 20
119.5875
 30
0.0
 10
-166.0215
 20
119.5875
 30
0.0
 10
-170.0497
 20
112.4339
 30
0.0
 10
-168.3828
 20
103.4051
 30
0.0
 10
-161.785
 20
98.3351
 30
0.0
  0
SPLINE
  5
45
330
1F
100
AcDbEntity
  8
layer 1
 62
     7
370
    20
100
AcDbSpline
210
0.0
220
0.0
230
1.0
 70
    11
 71
     3
 72
    20
 73
    16
 74
     0
 42
0.0000000001
 43
0.0000000001
 12
1.0
 22
0.0
 32
0.0
 13
1.0
 23
0.0
 33
0.0
 40
0.0
 40
0.0
 40
0.0
 40
0.0
 40
0.2
 40
0.2
 40
0.2
 40
0.2
 40
0.4
 40
0.4
 40
0.4
 40
0.4
 40
0.6
 40
0.6
 40
0.6
 40
0.6
 40
1.0
 40
1.0
 40
1.0
 40
1.0
 10
-163.8685
 20
116.8789
 30
0.0
 10
-161.5765
 20
114.0313
 30
0.0
 10
-158.7289
 20
110.9755
 30
0.0
 10
-155.3953
 20
108.5447
 30
0.0
 10
-155.3953
 20
108.5447
 30
0.0
 10
-155.6731
 20
106.739
 30
0.0
 10
-156.2981
 20
103.2663
 30
0.0
 10
-159.1457
 20
100.9743
 30
0.0
 10
-159.1457
 20
100.9743
 30
0.0
 10
-163.3129
 20
103.8914
 30
0.0
 10
-165.1881
 20
109.0308
 30
0.0
 10
-165.1881
 20
111.1838
 30
0.0
 10
-165.1881
 20
111.1838
 30
0.0
 10
-165.1881
 20
112.3646
 30
0.0
 10
-164.8408
 20
114.6564
 30
0.0
 10
-163.8685
 20
116.8789
 30
0.0
  0
SPLINE
  5
46
330
1F
100
AcDbEntity
  8
layer 1
 62
     7
370
    20
100
AcDbSpline
210
0.0
220
0.0
230
1.0
 70
    11
 71
     3
 72
    68
 73
    64
 74
     0
 42
0.0000000001
 43
0.0000000001
 12
1.0
 22
0.0
 32
0.0
 13
1.0
 23
0.0
 33
0.0
 40
0.0
 40
0.0
 40
0.0
 40
0.0
 40
0.0588235294117647
 40
0.0588235294117647
 40
0.0588235294117647
 40
0.0588235294117647
 40
0.1176470588235294
 40
0.1176470588235294
 40
0.1176470588235294
 40
0.1176470588235294
 40
0.1764705882352941
 40
0.1764705882352941
 40
0.1764705882352941
 40
0.1764705882352941
 40
0.2352941176470588
 40
0.2352941176470588
 40
0.2352941176470588
 40
0.2352941176470588
 40
0.2941176470588235
 40
0.2941176470588235
 40
0.2941176470588235
 40
0.2941176470588235
 40
0.3529411764705883
 40
0.3529411764705883
 40
0.3529411764705883
 40
0.3529411764705883
 40
0.4117647058823529
 40
0.4117647058823529
 40
0.4117647058823529
 40
0.4117647058823529
 40
0.4705882352941176
 40
0.4705882352941176
 40
0.4705882352941176
 40
0.4705882352941176
 40
0.5294117647058824
 40
0.5294117647058824
 40
0.5294117647058824
 40
0.5294117647058824
 40
0.5882352941176471
 40
0.5882352941176471
 40
0.5882352941176471
 40
0.5882352941176471
 40
0.6470588235294118
 40
0.6470588235294118
 40
0.6470588235294118
 40
0.6470588235294118
 40
0.7058823529411765
 40
0.7058823529411765
 40
0.7058823529411765
 40
0.7058823529411765
 40
0.7647058823529411
 40
0.7647058823529411
 40
0.7647058823529411
 40
0.7647058823529411
 40
0.8235294117647058
 40
0.8235294117647058
 40
0.8235294117647058
 40
0.8235294117647058
 40
0.8823529411764706
 40
0.8823529411764706
 40
0.8823529411764706
 40
0.8823529411764706
 40
1.0
 40
1.0
 40
1.0
 40
1.0
 10
-144.283
 20
107.086
 30
0.0
 10
-142.5466
 20
106.6
 30
0.0
 10
-139.2129
 20
106.5305
 30
0.0
 10
-137.1292
 20
107.086
 30
0.0
 10
-137.1292
 20
107.086
 30
0.0
 10
-135.3235
 20
110.0031
 30
0.0
 10
-134.2123
 20
113.5452
 30
0.0
 10
-134.2123
 20
117.7818
 30
0.0
 10
-134.2123
 20
117.7818
 30
0.0
 10
-134.2123
 20
119.657
 30
0.0
 10
-134.6289
 20
121.3934
 30
0.0
 10
-135.1152
 20
122.9213
 30
0.0
 10
-135.1152
 20
122.9213
 30
0.0
 10
-135.1152
 20
122.9213
 30
0.0
 10
-135.3235
 20
122.9213
 30
0.0
 10
-135.3235
 20
122.9213
 30
0.0
 10
-135.3235
 20
122.9213
 30
0.0
 10
-137.8933
 20
119.3792
 30
0.0
 10
-142.8938
 20
119.3792
 30
0.0
 10
-144.283
 20
120.0043
 30
0.0
 10
-144.283
 20
120.0043
 30
0.0
 10
-144.283
 20
120.0043
 30
0.0
 10
-144.3523
 20
120.0043
 30
0.0
 10
-144.3523
 20
120.0043
 30
0.0
 10
-144.3523
 20
120.0043
 30
0.0
 10
-144.3523
 20
120.0043
 30
0.0
 10
-144.4218
 20
120.0043
 30
0.0
 10
-144.4218
 20
120.0737
 30
0.0
 10
-144.4218
 20
120.0737
 30
0.0
 10
-144.4218
 20
120.0737
 30
0.0
 10
-144.4913
 20
120.0737
 30
0.0
 10
-144.4913
 20
120.0737
 30
0.0
 10
-144.4913
 20
120.0737
 30
0.0
 10
-144.5608
 20
120.0737
 30
0.0
 10
-144.5608
 20
120.1432
 30
0.0
 10
-144.6301
 20
120.1432
 30
0.0
 10
-144.6301
 20
120.1432
 30
0.0
 10
-144.6301
 20
120.1432
 30
0.0
 10
-144.6301
 20
120.1432
 30
0.0
 10
-144.6301
 20
120.1432
 30
0.0
 10
-144.6301
 20
120.1432
 30
0.0
 10
-144.6301
 20
120.1432
 30
0.0
 10
-144.6301
 20
120.1432
 30
0.0
 10
-144.6301
 20
120.1432
 30
0.0
 10
-144.6301
 20
120.1432
 30
0.0
 10
-144.6301
 20
120.1432
 30
0.0
 10
-144.6301
 20
120.0737
 30
0.0
 10
-144.6301
 20
120.0737
 30
0.0
 10
-144.6301
 20
120.0737
 30
0.0
 10
-144.6301
 20
120.0737
 30
0.0
 10
-144.5608
 20
120.0737
 30
0.0
 10
-144.5608
 20
120.0737
 30
0.0
 10
-144.5608
 20
120.0737
 30
0.0
 10
-144.5608
 20
120.0737
 30
0.0
 10
-144.5608
 20
120.0043
 30
0.0
 10
-144.5608
 20
120.0043
 30
0.0
 10
-144.5608
 20
120.0043
 30
0.0
 10
-144.5608
 20
120.0043
 30
0.0
 10
-144.5608
 20
119.9348
 30
0.0
 10
-144.5608
 20
119.9348
 30
0.0
 10
-144.5608
 20
119.9348
 30
0.0
 10
-142.6856
 20
116.0455
 30
0.0
 10
-142.4078
 20
111.1145
 30
0.0
 10
-144.283
 20
107.086
 30
0.0
  0
SPLINE
  5
47
330
1F
100
AcDbEntity
  8
layer 1
 62
     7
370
    20
100
AcDbSpline
210
0.0
220
0.0
230
1.0
 70
    11
 71
     3
 72
    24
 73
    20
 74
     0
 42
0.0000000001
 43
0.0000000001
 12
1.0
 22
0.0
 32
0.0
 13
1.0
 23
0.0
 33
0.0
 40
0.0
 40
0.0
 40
0.0
 40
0.0
 40
0.1666666666666667
 40
0.1666666666666667
 40
0.1666666666666667
 40
0.1666666666666667
 40
0.3333333333333333
 40
0.3333333333333333
 40
0.3333333333333333
 40
0.3333333333333333
 40
0.5
 40
0.5
 40
0.5
 40
0.5
 40
0.6666666666666666
 40
0.6666666666666666
 40
0.6666666666666666
 40
0.6666666666666666
 40
1.0
 40
1.0
 40
1.0
 40
1.0
 10
-162.0628
 20
119.796
 30
0.0
 10
-159.8403
 20
116.9484
 30
0.0
 10
-157.34
 20
114.1703
 30
0.0
 10
-154.7007
 20
111.9478
 30
0.0
 10
-154.7007
 20
111.9478
 30
0.0
 10
-153.5201
 20
117.0179
 30
0.0
 10
-147.4776
 20
115.1427
 30
0.0
 10
-147.4083
 20
113.684
 30
0.0
 10
-147.4083
 20
113.684
 30
0.0
 10
-146.0887
 20
118.7541
 30
0.0
 10
-149.3528
 20
122.2267
 30
0.0
 10
-153.5201
 20
122.9213
 30
0.0
 10
-153.5201
 20
122.9213
 30
0.0
 10
-153.5201
 20
122.9213
 30
0.0
 10
-156.4371
 20
122.9213
 30
0.0
 10
-156.4371
 20
122.9213
 30
0.0
 10
-156.4371
 20
122.9213
 30
0.0
 10
-158.4511
 20
122.574
 30
0.0
 10
-160.4653
 20
121.6017
 30
0.0
 10
-162.0628
 20
119.796
 30
0.0
  0
SPLINE
  5
48
330
1F
100
AcDbEntity
  8
layer 1
 62
     7
370
    20
100
AcDbSpline
210
0.0
220
0.0
230
1.0
 70
    11
 71
     3
 72
    16
 73
    12
 74
     0
 42
0.0000000001
 43
0.0000000001
 12
1.0
 22
0.0
 32
0.0
 13
1.0
 23
0.0
 33
0.0
 40
0.0
 40
0.0
 40
0.0
 40
0.0
 40
0.25
 40
0.25
 40
0.25
 40
0.25
 40
0.5
 40
0.5
 40
0.5
 40
0.5
 40
1.0
 40
1.0
 40
1.0
 40
1.0
 10
-163.3822
 20
122.9213
 30
0.0
 10
-163.5907
 20
122.7128
 30
0.0
 10
-163.799
 20
122.5045
 30
0.0
 10
-164.0073
 20
122.2962
 30
0.0
 10
-164.0073
 20
122.2962
 30
0.0
 10
-164.0073
 20
122.2962
 30
0.0
 10
-164.4241
 20
122.9213
 30
0.0
 10
-164.4241
 20
122.9213
 30
0.0
 10
-164.4241
 20
122.9213
 30
0.0
 10
-164.4241
 20
122.9213
 30
0.0
 10
-163.3822
 20
122.9213
 30
0.0
 10
-163.3822
 20
122.9213
 30
0.0
  0
SPLINE
  5
49
330
1F
100
AcDbEntity
  8
layer 1
 62
     7
370
    20
100
AcDbSpline
210
0.0
220
0.0
230
1.0
 70
    11
 71
     3
 72
    20
 73
    16
 74
     0
 42
0.0000000001
 43
0.0000000001
 12
1.0
 22
0.0
 32
0.0
 13
1.0
 23
0.0
 33
0.0
 40
0.0
 40
0.0
 40
0.0
 40
0.0
 40
0.2
 40
0.2
 40
0.2
 40
0.2
 40
0.4
 40
0.4
 40
0.4
 40
0.4
 40
0.6
 40
0.6
 40
0.6
 40
0.6
 40
1.0
 40
1.0
 40
1.0
 40
1.0
 10
-131.9898
 20
122.9213
 30
0.0
 10
-130.8785
 20
117.5735
 30
0.0
 10
-131.4343
 20
113.059
 30
0.0
 10
-132.6149
 20
109.2392
 30
0.0
 10
-132.6149
 20
109.2392
 30
0.0
 10
-128.3089
 20
111.3228
 30
0.0
 10
-124.5585
 20
114.5176
 30
0.0
 10
-122.197
 20
118.1985
 30
0.0
 10
-122.197
 20
118.1985
 30
0.0
 10
-120.9469
 20
120.0737
 30
0.0
 10
-120.2523
 20
121.6017
 30
0.0
 10
-119.8357
 20
122.9213
 30
0.0
 10
-119.8357
 20
122.9213
 30
0.0
 10
-119.8357
 20
122.9213
 30
0.0
 10
-131.9898
 20
122.9213
 30
0.0
 10
-131.9898
 20
122.9213
 30
0.0
  0
SPLINE
  5
4A
330
1F
100
AcDbEntity
  8
layer 1
 62
     7
370
    20
100
AcDbSpline
210
0.0
220
0.0
230
1.0
 70
    11
 71
     3
 72
    32
 73
    28
 74
     0
 42
0.0000000001
 43
0.0000000001
 12
1.0
 22
0.0
 32
0.0
 13
1.0
 23
0.0
 33
0.0
 40
0.0
 40
0.0
 40
0.0
 40
0.0
 40
0.125
 40
0.125
 40
0.125
 40
0.125
 40
0.25
 40
0.25
 40
0.25
 40
0.25
 40
0.375
 40
0.375
 40
0.375
 40
0.375
 40
0.5
 40
0.5
 40
0.5
 40
0.5
 40
0.625
 40
0.625
 40
0.625
 40
0.625
 40
0.75
 40
0.75
 40
0.75
 40
0.75
 40
1.0
 40
1.0
 40
1.0
 40
1.0
 10
-134.6984
 20
54.0245
 30
0.0
 10
-133.1705
 20
53.4689
 30
0.0
 10
-131.3648
 20
52.5661
 30
0.0
 10
-129.7674
 20
51.6632
 30
0.0
 10
-129.7674
 20
51.6632
 30
0.0
 10
-129.7674
 20
51.6632
 30
0.0
 10
-132.4066
 20
56.8721
 30
0.0
 10
-124.6973
 20
64.7202
 30
0.0
 10
-124.6973
 20
64.7202
 30
0.0
 10
-124.6973
 20
64.7202
 30
0.0
 10
-124.8363
 20
64.5812
 30
0.0
 10
-124.8363
 20
64.5812
 30
0.0
 10
-124.8363
 20
64.5812
 30
0.0
 10
-126.0864
 20
66.1093
 30
0.0
 10
-127.6143
 20
67.6373
 30
0.0
 10
-129.4201
 20
69.0957
 30
0.0
 10
-129.4201
 20
69.0957
 30
0.0
 10
-134.6984
 20
63.1228
 30
0.0
 10
-137.6155
 20
69.3735
 30
0.0
 10
-137.6155
 20
69.3735
 30
0.0
 10
-137.6155
 20
69.3735
 30
0.0
 10
-137.6155
 20
69.3735
 30
0.0
 10
-139.1434
 20
68.7484
 30
0.0
 10
-139.1434
 20
63.4006
 30
0.0
 10
-139.1434
 20
63.4006
 30
0.0
 10
-139.1434
 20
61.1088
 30
0.0
 10
-136.8514
 20
58.1222
 30
0.0
 10
-134.6984
 20
54.0245
 30
0.0
  0
SPLINE
  5
4B
330
1F
100
AcDbEntity
  8
layer 1
 62
     7
370
    20
100
AcDbSpline
210
0.0
220
0.0
230
1.0
 70
    11
 71
     3
 72
    12
 73
     8
 74
     0
 42
0.0000000001
 43
0.0000000001
 12
1.0
 22
0.0
 32
0.0
 13
1.0
 23
0.0
 33
0.0
 40
0.0
 40
0.0
 40
0.0
 40
0.0
 40
0.3333333333333333
 40
0.3333333333333333
 40
0.3333333333333333
 40
0.3333333333333333
 40
1.0
 40
1.0
 40
1.0
 40
1.0
 10
-120.8774
 20
58.2612
 30
0.0
 10
-126.781
 20
49.7185
 30
0.0
 10
-119.0716
 20
40.3424
 30
0.0
 10
-117.9605
 20
38.6755
 30
0.0
 10
-117.9605
 20
38.6755
 30
0.0
 10
-117.9605
 20
38.6755
 30
0.0
 10
-116.1548
 20
48.3294
 30
0.0
 10
-120.8774
 20
58.2612
 30
0.0
  0
SPLINE
  5
4C
330
1F
100
AcDbEntity
  8
layer 1
 62
     7
370
    20
100
AcDbSpline
210
0.0
220
0.0
230
1.0
 70
    11
 71
     3
 72
    52
 73
    48
 74
     0
 42
0.0000000001
 43
0.0000000001
 12
1.0
 22
0.0
 32
0.0
 13
1.0
 23
0.0
 33
0.0
 40
0.0
 40
0.0
 40
0.0
 40
0.0
 40
0.0769230769230769
 40
0.0769230769230769
 40
0.0769230769230769
 40
0.0769230769230769
 40
0.1538461538461539
 40
0.1538461538461539
 40
0.1538461538461539
 40
0.1538461538461539
 40
0.2307692307692308
 40
0.2307692307692308
 40
0.2307692307692308
 40
0.2307692307692308
 40
0.3076923076923077
 40
0.3076923076923077
 40
0.3076923076923077
 40
0.3076923076923077
 40
0.3846153846153846
 40
0.3846153846153846
 40
0.3846153846153846
 40
0.3846153846153846
 40
0.4615384615384616
 40
0.4615384615384616
 40
0.4615384615384616
 40
0.4615384615384616
 40
0.5384615384615384
 40
0.5384615384615384
 40
0.5384615384615384
 40
0.5384615384615384
 40
0.6153846153846154
 40
0.6153846153846154
 40
0.6153846153846154
 40
0.6153846153846154
 40
0.6923076923076923
 40
0.6923076923076923
 40
0.6923076923076923
 40
0.6923076923076923
 40
0.7692307692307693
 40
0.7692307692307693
 40
0.7692307692307693
 40
0.7692307692307693
 40
0.8461538461538461
 40
0.8461538461538461
 40
0.8461538461538461
 40
0.8461538461538461
 40
1.0
 40
1.0
 40
1.0
 40
1.0
 10
-161.785
 20
60.0669
 30
0.0
 10
-165.1881
 20
62.5672
 30
0.0
 10
-168.4523
 20
65.2758
 30
0.0
 10
-168.4523
 20
68.3316
 30
0.0
 10
-168.4523
 20
68.3316
 30
0.0
 10
-168.6608
 20
69.5125
 30
0.0
 10
-167.4106
 20
73.1239
 30
0.0
 10
-163.5212
 20
73.1239
 30
0.0
 10
-163.5212
 20
73.1239
 30
0.0
 10
-158.1733
 20
72.9156
 30
0.0
 10
-158.3123
 20
67.0815
 30
0.0
 10
-161.9238
 20
66.4564
 30
0.0
 10
-161.9238
 20
66.4564
 30
0.0
 10
-164.7713
 20
66.4564
 30
0.0
 10
-164.7713
 20
68.6789
 30
0.0
 10
-164.7713
 20
68.6789
 30
0.0
 10
-164.7713
 20
68.6789
 30
0.0
 10
-164.7713
 20
68.6789
 30
0.0
 10
-166.5771
 20
65.8313
 30
0.0
 10
-158.2428
 20
61.7338
 30
0.0
 10
-158.2428
 20
61.7338
 30
0.0
 10
-153.9368
 20
63.4701
 30
0.0
 10
-146.3665
 20
63.7478
 30
0.0
 10
-141.5047
 20
60.2752
 30
0.0
 10
-141.5047
 20
60.2752
 30
0.0
 10
-141.991
 20
64.0256
 30
0.0
 10
-142.4078
 20
69.7208
 30
0.0
 10
-138.2406
 20
74.513
 30
0.0
 10
-138.2406
 20
74.513
 30
0.0
 10
-156.9232
 20
83.125
 30
0.0
 10
-179.4953
 20
71.457
 30
0.0
 10
-178.8702
 20
47.0792
 30
0.0
 10
-178.8702
 20
47.0792
 30
0.0
 10
-178.3839
 20
39.2313
 30
0.0
 10
-176.0226
 20
32.8416
 30
0.0
 10
-172.7583
 20
28.7439
 30
0.0
 10
-172.7583
 20
28.7439
 30
0.0
 10
-171.4388
 20
30.4803
 30
0.0
 10
-170.1192
 20
32.286
 30
0.0
 10
-169.0078
 20
34.0917
 30
0.0
 10
-169.0078
 20
34.0917
 30
0.0
 10
-168.244
 20
35.4113
 30
0.0
 10
-167.2021
 20
37.0781
 30
0.0
 10
-166.0215
 20
38.8145
 30
0.0
 10
-166.0215
 20
38.8145
 30
0.0
 10
-170.0497
 20
45.9681
 30
0.0
 10
-168.3828
 20
54.9968
 30
0.0
 10
-161.785
 20
60.0669
 30
0.0
  0
SPLINE
  5
4D
330
1F
100
AcDbEntity
  8
layer 1
 62
     7
370
    20
100
AcDbSpline
210
0.0
220
0.0
230
1.0
 70
    11
 71
     3
 72
    20
 73
    16
 74
     0
 42
0.0000000001
 43
0.0000000001
 12
1.0
 22
0.0
 32
0.0
 13
1.0
 23
0.0
 33
0.0
 40
0.0
 40
0.0
 40
0.0
 40
0.0
 40
0.2
 40
0.2
 40
0.2
 40
0.2
 40
0.4
 40
0.4
 40
0.4
 40
0.4
 40
0.6
 40
0.6
 40
0.6
 40
0.6
 40
1.0
 40
1.0
 40
1.0
 40
1.0
 10
-163.8685
 20
41.5231
 30
0.0
 10
-161.5765
 20
44.4401
 30
0.0
 10
-158.7289
 20
47.4265
 30
0.0
 10
-155.3953
 20
49.8575
 30
0.0
 10
-155.3953
 20
49.8575
 30
0.0
 10
-155.6731
 20
51.7327
 30
0.0
 10
-156.2981
 20
55.1358
 30
0.0
 10
-159.1457
 20
57.4276
 30
0.0
 10
-159.1457
 20
57.4276
 30
0.0
 10
-163.3129
 20
54.5108
 30
0.0
 10
-165.1881
 20
49.3712
 30
0.0
 10
-165.1881
 20
47.2182
 30
0.0
 10
-165.1881
 20
47.2182
 30
0.0
 10
-165.1881
 20
46.0376
 30
0.0
 10
-164.8408
 20
43.7456
 30
0.0
 10
-163.8685
 20
41.5231
 30
0.0
  0
SPLINE
  5
4E
330
1F
100
AcDbEntity
  8
layer 1
 62
     7
370
    20
100
AcDbSpline
210
0.0
220
0.0
230
1.0
 70
    11
 71
     3
 72
    64
 73
    60
 74
     0
 42
0.0000000001
 43
0.0000000001
 12
1.0
 22
0.0
 32
0.0
 13
1.0
 23
0.0
 33
0.0
 40
0.0
 40
0.0
 40
0.0
 40
0.0
 40
0.0625
 40
0.0625
 40
0.0625
 40
0.0625
 40
0.125
 40
0.125
 40
0.125
 40
0.125
 40
0.1875
 40
0.1875
 40
0.1875
 40
0.1875
 40
0.25
 40
0.25
 40
0.25
 40
0.25
 40
0.3125
 40
0.3125
 40
0.3125
 40
0.3125
 40
0.375
 40
0.375
 40
0.375
 40
0.375
 40
0.4375
 40
0.4375
 40
0.4375
 40
0.4375
 40
0.5
 40
0.5
 40
0.5
 40
0.5
 40
0.5625
 40
0.5625
 40
0.5625
 40
0.5625
 40
0.625
 40
0.625
 40
0.625
 40
0.625
 40
0.6875
 40
0.6875
 40
0.6875
 40
0.6875
 40
0.75
 40
0.75
 40
0.75
 40
0.75
 40
0.8125
 40
0.8125
 40
0.8125
 40
0.8125
 40
0.875
 40
0.875
 40
0.875
 40
0.875
 40
1.0
 40
1.0
 40
1.0
 40
1.0
 10
-144.283
 20
51.3159
 30
0.0
 10
-142.5466
 20
51.802
 30
0.0
 10
-139.2129
 20
51.8715
 30
0.0
 10
-137.1292
 20
51.3159
 30
0.0
 10
-137.1292
 20
51.3159
 30
0.0
 10
-135.3235
 20
48.4683
 30
0.0
 10
-134.2123
 20
44.8569
 30
0.0
 10
-134.2123
 20
40.6202
 30
0.0
 10
-134.2123
 20
40.6202
 30
0.0
 10
-134.2123
 20
38.6755
 30
0.0
 10
-134.6984
 20
36.8698
 30
0.0
 10
-135.1847
 20
35.2724
 30
0.0
 10
-135.1847
 20
35.2724
 30
0.0
 10
-137.7543
 20
39.0923
 30
0.0
 10
-142.8243
 20
39.0228
 30
0.0
 10
-144.283
 20
38.3977
 30
0.0
 10
-144.283
 20
38.3977
 30
0.0
 10
-144.283
 20
38.3977
 30
0.0
 10
-144.3523
 20
38.3977
 30
0.0
 10
-144.3523
 20
38.3977
 30
0.0
 10
-144.3523
 20
38.3977
 30
0.0
 10
-144.3523
 20
38.3977
 30
0.0
 10
-144.4218
 20
38.3977
 30
0.0
 10
-144.4218
 20
38.3282
 30
0.0
 10
-144.4218
 20
38.3282
 30
0.0
 10
-144.4218
 20
38.3282
 30
0.0
 10
-144.4913
 20
38.3282
 30
0.0
 10
-144.4913
 20
38.3282
 30
0.0
 10
-144.4913
 20
38.3282
 30
0.0
 10
-144.5608
 20
38.3282
 30
0.0
 10
-144.5608
 20
38.2589
 30
0.0
 10
-144.6301
 20
38.2589
 30
0.0
 10
-144.6301
 20
38.2589
 30
0.0
 10
-144.6301
 20
38.2589
 30
0.0
 10
-144.6301
 20
38.2589
 30
0.0
 10
-144.6301
 20
38.2589
 30
0.0
 10
-144.6301
 20
38.2589
 30
0.0
 10
-144.6301
 20
38.2589
 30
0.0
 10
-144.6301
 20
38.2589
 30
0.0
 10
-144.6301
 20
38.2589
 30
0.0
 10
-144.6301
 20
38.2589
 30
0.0
 10
-144.6301
 20
38.2589
 30
0.0
 10
-144.6301
 20
38.3282
 30
0.0
 10
-144.6301
 20
38.3282
 30
0.0
 10
-144.6301
 20
38.3282
 30
0.0
 10
-144.6301
 20
38.3282
 30
0.0
 10
-144.5608
 20
38.3282
 30
0.0
 10
-144.5608
 20
38.3282
 30
0.0
 10
-144.5608
 20
38.3282
 30
0.0
 10
-144.5608
 20
38.3282
 30
0.0
 10
-144.5608
 20
38.3977
 30
0.0
 10
-144.5608
 20
38.3977
 30
0.0
 10
-144.5608
 20
38.3977
 30
0.0
 10
-144.5608
 20
38.3977
 30
0.0
 10
-144.5608
 20
38.4672
 30
0.0
 10
-144.5608
 20
38.4672
 30
0.0
 10
-144.5608
 20
38.4672
 30
0.0
 10
-142.6856
 20
42.4259
 30
0.0
 10
-142.4078
 20
47.2877
 30
0.0
 10
-144.283
 20
51.3159
 30
0.0
  0
SPLINE
  5
4F
330
1F
100
AcDbEntity
  8
layer 1
 62
     7
370
    20
100
AcDbSpline
210
0.0
220
0.0
230
1.0
 70
    11
 71
     3
 72
    16
 73
    12
 74
     0
 42
0.0000000001
 43
0.0000000001
 12
1.0
 22
0.0
 32
0.0
 13
1.0
 23
0.0
 33
0.0
 40
0.0
 40
0.0
 40
0.0
 40
0.0
 40
0.25
 40
0.25
 40
0.25
 40
0.25
 40
0.5
 40
0.5
 40
0.5
 40
0.5
 40
1.0
 40
1.0
 40
1.0
 40
1.0
 10
-162.0628
 20
38.6062
 30
0.0
 10
-159.8403
 20
41.4536
 30
0.0
 10
-157.34
 20
44.2318
 30
0.0
 10
-154.7007
 20
46.5236
 30
0.0
 10
-154.7007
 20
46.5236
 30
0.0
 10
-153.5201
 20
41.3843
 30
0.0
 10
-147.4776
 20
43.2595
 30
0.0
 10
-147.4083
 20
44.7179
 30
0.0
 10
-147.4083
 20
44.7179
 30
0.0
 10
-145.1858
 20
36.2447
 30
0.0
 10
-156.0898
 20
32.0082
 30
0.0
 10
-162.0628
 20
38.6062
 30
0.0
  0
SPLINE
  5
50
330
1F
100
AcDbEntity
  8
layer 1
 62
     7
370
    20
100
AcDbSpline
210
0.0
220
0.0
230
1.0
 70
    11
 71
     3
 72
    44
 73
    40
 74
     0
 42
0.0000000001
 43
0.0000000001
 12
1.0
 22
0.0
 32
0.0
 13
1.0
 23
0.0
 33
0.0
 40
0.0
 40
0.0
 40
0.0
 40
0.0
 40
0.0909090909090909
 40
0.0909090909090909
 40
0.0909090909090909
 40
0.0909090909090909
 40
0.1818181818181818
 40
0.1818181818181818
 40
0.1818181818181818
 40
0.1818181818181818
 40
0.2727272727272727
 40
0.2727272727272727
 40
0.2727272727272727
 40
0.2727272727272727
 40
0.3636363636363636
 40
0.3636363636363636
 40
0.3636363636363636
 40
0.3636363636363636
 40
0.4545454545454545
 40
0.4545454545454545
 40
0.4545454545454545
 40
0.4545454545454545
 40
0.5454545454545454
 40
0.5454545454545454
 40
0.5454545454545454
 40
0.5454545454545454
 40
0.6363636363636364
 40
0.6363636363636364
 40
0.6363636363636364
 40
0.6363636363636364
 40
0.7272727272727273
 40
0.7272727272727273
 40
0.7272727272727273
 40
0.7272727272727273
 40
0.8181818181818182
 40
0.8181818181818182
 40
0.8181818181818182
 40
0.8181818181818182
 40
1.0
 40
1.0
 40
1.0
 40
1.0
 10
-140.5326
 20
27.1464
 30
0.0
 10
-149.4223
 20
35.4808
 30
0.0
 10
-157.8956
 20
29.6467
 30
0.0
 10
-164.0073
 20
36.1059
 30
0.0
 10
-164.0073
 20
36.1059
 30
0.0
 10
-165.3964
 20
34.1612
 30
0.0
 10
-166.7855
 20
32.286
 30
0.0
 10
-167.8272
 20
30.4803
 30
0.0
 10
-167.8272
 20
30.4803
 30
0.0
 10
-167.8272
 20
30.4803
 30
0.0
 10
-164.6323
 20
29.7857
 30
0.0
 10
-165.8825
 20
26.3131
 30
0.0
 10
-165.8825
 20
26.3131
 30
0.0
 10
-166.1605
 20
25.4797
 30
0.0
 10
-166.5771
 20
24.7156
 30
0.0
 10
-167.1326
 20
24.0211
 30
0.0
 10
-167.1326
 20
24.0211
 30
0.0
 10
-165.2574
 20
22.9099
 30
0.0
 10
-163.0351
 20
22.0071
 30
0.0
 10
-161.0209
 20
21.5208
 30
0.0
 10
-161.0209
 20
21.5208
 30
0.0
 10
-161.0904
 20
21.5903
 30
0.0
 10
-163.0351
 20
25.8268
 30
0.0
 10
-157.7566
 20
25.9658
 30
0.0
 10
-157.7566
 20
25.9658
 30
0.0
 10
-152.4782
 20
26.1741
 30
0.0
 10
-151.4366
 20
26.1741
 30
0.0
 10
-149.6306
 20
29.2994
 30
0.0
 10
-149.6306
 20
29.2994
 30
0.0
 10
-149.4223
 20
29.1606
 30
0.0
 10
-145.8109
 20
26.5214
 30
0.0
 10
-148.7973
 20
23.6045
 30
0.0
 10
-148.7973
 20
23.6045
 30
0.0
 10
-148.7973
 20
23.6045
 30
0.0
 10
-147.1998
 20
24.6461
 30
0.0
 10
-145.1163
 20
23.8823
 30
0.0
 10
-145.1163
 20
23.8823
 30
0.0
 10
-143.5189
 20
24.7156
 30
0.0
 10
-141.9215
 20
25.8963
 30
0.0
 10
-140.5326
 20
27.1464
 30
0.0
  0
SPLINE
  5
51
330
1F
100
AcDbEntity
  8
layer 1
 62
     7
370
    20
100
AcDbSpline
210
0.0
220
0.0
230
1.0
 70
    11
 71
     3
 72
    32
 73
    28
 74
     0
 42
0.0000000001
 43
0.0000000001
 12
1.0
 22
0.0
 32
0.0
 13
1.0
 23
0.0
 33
0.0
 40
0.0
 40
0.0
 40
0.0
 40
0.0
 40
0.125
 40
0.125
 40
0.125
 40
0.125
 40
0.25
 40
0.25
 40
0.25
 40
0.25
 40
0.375
 40
0.375
 40
0.375
 40
0.375
 40
0.5
 40
0.5
 40
0.5
 40
0.5
 40
0.625
 40
0.625
 40
0.625
 40
0.625
 40
0.75
 40
0.75
 40
0.75
 40
0.75
 40
1.0
 40
1.0
 40
1.0
 40
1.0
 10
-134.6984
 20
-19.3171
 30
0.0
 10
-133.1705
 20
-18.7616
 30
0.0
 10
-131.3648
 20
-17.8587
 30
0.0
 10
-129.7674
 20
-16.9558
 30
0.0
 10
-129.7674
 20
-16.9558
 30
0.0
 10
-129.7674
 20
-16.9558
 30
0.0
 10
-132.4066
 20
-22.1647
 30
0.0
 10
-124.6973
 20
-30.0128
 30
0.0
 10
-124.6973
 20
-30.0128
 30
0.0
 10
-124.6973
 20
-30.0128
 30
0.0
 10
-124.8363
 20
-29.8738
 30
0.0
 10
-124.8363
 20
-29.8738
 30
0.0
 10
-124.8363
 20
-29.8738
 30
0.0
 10
-126.0864
 20
-31.4018
 30
0.0
 10
-127.6143
 20
-32.9299
 30
0.0
 10
-129.4201
 20
-34.3883
 30
0.0
 10
-129.4201
 20
-34.3883
 30
0.0
 10
-134.6984
 20
-28.4154
 30
0.0
 10
-137.6155
 20
-34.6661
 30
0.0
 10
-137.6155
 20
-34.6661
 30
0.0
 10
-137.6155
 20
-34.6661
 30
0.0
 10
-137.6155
 20
-34.6661
 30
0.0
 10
-139.1434
 20
-34.0411
 30
0.0
 10
-139.1434
 20
-28.6932
 30
0.0
 10
-139.1434
 20
-28.6932
 30
0.0
 10
-139.1434
 20
-26.4012
 30
0.0
 10
-136.8514
 20
-23.4148
 30
0.0
 10
-134.6984
 20
-19.3171
 30
0.0
  0
SPLINE
  5
52
330
1F
100
AcDbEntity
  8
layer 1
 62
     7
370
    20
100
AcDbSpline
210
0.0
220
0.0
230
1.0
 70
    11
 71
     3
 72
    12
 73
     8
 74
     0
 42
0.0000000001
 43
0.0000000001
 12
1.0
 22
0.0
 32
0.0
 13
1.0
 23
0.0
 33
0.0
 40
0.0
 40
0.0
 40
0.0
 40
0.0
 40
0.3333333333333333
 40
0.3333333333333333
 40
0.3333333333333333
 40
0.3333333333333333
 40
1.0
 40
1.0
 40
1.0
 40
1.0
 10
-120.8774
 20
-23.5538
 30
0.0
 10
-126.781
 20
-15.0111
 30
0.0
 10
-119.0716
 20
-5.6351
 30
0.0
 10
-117.9605
 20
-3.9681
 30
0.0
 10
-117.9605
 20
-3.9681
 30
0.0
 10
-117.9605
 20
-3.9681
 30
0.0
 10
-116.1548
 20
-13.622
 30
0.0
 10
-120.8774
 20
-23.5538
 30
0.0
  0
SPLINE
  5
53
330
1F
100
AcDbEntity
  8
layer 1
 62
     7
370
    20
100
AcDbSpline
210
0.0
220
0.0
230
1.0
 70
    11
 71
     3
 72
    52
 73
    48
 74
     0
 42
0.0000000001
 43
0.0000000001
 12
1.0
 22
0.0
 32
0.0
 13
1.0
 23
0.0
 33
0.0
 40
0.0
 40
0.0
 40
0.0
 40
0.0
 40
0.0769230769230769
 40
0.0769230769230769
 40
0.0769230769230769
 40
0.0769230769230769
 40
0.1538461538461539
 40
0.1538461538461539
 40
0.1538461538461539
 40
0.1538461538461539
 40
0.2307692307692308
 40
0.2307692307692308
 40
0.2307692307692308
 40
0.2307692307692308
 40
0.3076923076923077
 40
0.3076923076923077
 40
0.3076923076923077
 40
0.3076923076923077
 40
0.3846153846153846
 40
0.3846153846153846
 40
0.3846153846153846
 40
0.3846153846153846
 40
0.4615384615384616
 40
0.4615384615384616
 40
0.4615384615384616
 40
0.4615384615384616
 40
0.5384615384615384
 40
0.5384615384615384
 40
0.5384615384615384
 40
0.5384615384615384
 40
0.6153846153846154
 40
0.6153846153846154
 40
0.6153846153846154
 40
0.6153846153846154
 40
0.6923076923076923
 40
0.6923076923076923
 40
0.6923076923076923
 40
0.6923076923076923
 40
0.7692307692307693
 40
0.7692307692307693
 40
0.7692307692307693
 40
0.7692307692307693
 40
0.8461538461538461
 40
0.8461538461538461
 40
0.8461538461538461
 40
0.8461538461538461
 40
1.0
 40
1.0
 40
1.0
 40
1.0
 10
-161.785
 20
-25.3596
 30
0.0
 10
-165.1881
 20
-27.8598
 30
0.0
 10
-168.4523
 20
-30.5684
 30
0.0
 10
-168.4523
 20
-33.6243
 30
0.0
 10
-168.4523
 20
-33.6243
 30
0.0
 10
-168.6608
 20
-34.8051
 30
0.0
 10
-167.4106
 20
-38.4166
 30
0.0
 10
-163.5212
 20
-38.4166
 30
0.0
 10
-163.5212
 20
-38.4166
 30
0.0
 10
-158.1733
 20
-38.2083
 30
0.0
 10
-158.3123
 20
-32.3741
 30
0.0
 10
-161.9238
 20
-31.7491
 30
0.0
 10
-161.9238
 20
-31.7491
 30
0.0
 10
-164.7713
 20
-31.7491
 30
0.0
 10
-164.7713
 20
-33.9716
 30
0.0
 10
-164.7713
 20
-33.9716
 30
0.0
 10
-164.7713
 20
-33.9716
 30
0.0
 10
-164.7713
 20
-33.9716
 30
0.0
 10
-166.5771
 20
-31.124
 30
0.0
 10
-158.2428
 20
-27.0263
 30
0.0
 10
-158.2428
 20
-27.0263
 30
0.0
 10
-153.9368
 20
-28.8322
 30
0.0
 10
-146.3665
 20
-29.0405
 30
0.0
 10
-141.5047
 20
-25.5678
 30
0.0
 10
-141.5047
 20
-25.5678
 30
0.0
 10
-141.991
 20
-29.3183
 30
0.0
 10
-142.4078
 20
-35.0134
 30
0.0
 10
-138.2406
 20
-39.8057
 30
0.0
 10
-138.2406
 20
-39.8057
 30
0.0
 10
-156.9232
 20
-48.4177
 30
0.0
 10
-179.4953
 20
-36.7496
 30
0.0
 10
-178.8702
 20
-12.3719
 30
0.0
 10
-178.8702
 20
-12.3719
 30
0.0
 10
-178.3839
 20
-4.5237
 30
0.0
 10
-176.0226
 20
1.8658
 30
0.0
 10
-172.7583
 20
5.9635
 30
0.0
 10
-172.7583
 20
5.9635
 30
0.0
 10
-171.4388
 20
4.2273
 30
0.0
 10
-170.1192
 20
2.4214
 30
0.0
 10
-169.0078
 20
0.6157
 30
0.0
 10
-169.0078
 20
0.6157
 30
0.0
 10
-168.244
 20
-0.704
 30
0.0
 10
-167.2021
 20
-2.3707
 30
0.0
 10
-166.0215
 20
-4.1071
 30
0.0
 10
-166.0215
 20
-4.1071
 30
0.0
 10
-170.0497
 20
-11.2607
 30
0.0
 10
-168.3828
 20
-20.2895
 30
0.0
 10
-161.785
 20
-25.3596
 30
0.0
  0
SPLINE
  5
54
330
1F
100
AcDbEntity
  8
layer 1
 62
     7
370
    20
100
AcDbSpline
210
0.0
220
0.0
230
1.0
 70
    11
 71
     3
 72
    20
 73
    16
 74
     0
 42
0.0000000001
 43
0.0000000001
 12
1.0
 22
0.0
 32
0.0
 13
1.0
 23
0.0
 33
0.0
 40
0.0
 40
0.0
 40
0.0
 40
0.0
 40
0.2
 40
0.2
 40
0.2
 40
0.2
 40
0.4
 40
0.4
 40
0.4
 40
0.4
 40
0.6
 40
0.6
 40
0.6
 40
0.6
 40
1.0
 40
1.0
 40
1.0
 40
1.0
 10
-163.8685
 20
-6.8157
 30
0.0
 10
-161.5765
 20
-9.7328
 30
0.0
 10
-158.7289
 20
-12.7191
 30
0.0
 10
-155.3953
 20
-15.1499
 30
0.0
 10
-155.3953
 20
-15.1499
 30
0.0
 10
-155.6731
 20
-17.0251
 30
0.0
 10
-156.2981
 20
-20.4285
 30
0.0
 10
-159.1457
 20
-22.7203
 30
0.0
 10
-159.1457
 20
-22.7203
 30
0.0
 10
-163.3129
 20
-19.8034
 30
0.0
 10
-165.1881
 20
-14.6638
 30
0.0
 10
-165.1881
 20
-12.5108
 30
0.0
 10
-165.1881
 20
-12.5108
 30
0.0
 10
-165.1881
 20
-11.3302
 30
0.0
 10
-164.8408
 20
-9.0382
 30
0.0
 10
-163.8685
 20
-6.8157
 30
0.0
  0
SPLINE
  5
55
330
1F
100
AcDbEntity
  8
layer 1
 62
     7
370
    20
100
AcDbSpline
210
0.0
220
0.0
230
1.0
 70
    11
 71
     3
 72
    64
 73
    60
 74
     0
 42
0.0000000001
 43
0.0000000001
 12
1.0
 22
0.0
 32
0.0
 13
1.0
 23
0.0
 33
0.0
 40
0.0
 40
0.0
 40
0.0
 40
0.0
 40
0.0625
 40
0.0625
 40
0.0625
 40
0.0625
 40
0.125
 40
0.125
 40
0.125
 40
0.125
 40
0.1875
 40
0.1875
 40
0.1875
 40
0.1875
 40
0.25
 40
0.25
 40
0.25
 40
0.25
 40
0.3125
 40
0.3125
 40
0.3125
 40
0.3125
 40
0.375
 40
0.375
 40
0.375
 40
0.375
 40
0.4375
 40
0.4375
 40
0.4375
 40
0.4375
 40
0.5
 40
0.5
 40
0.5
 40
0.5
 40
0.5625
 40
0.5625
 40
0.5625
 40
0.5625
 40
0.625
 40
0.625
 40
0.625
 40
0.625
 40
0.6875
 40
0.6875
 40
0.6875
 40
0.6875
 40
0.75
 40
0.75
 40
0.75
 40
0.75
 40
0.8125
 40
0.8125
 40
0.8125
 40
0.8125
 40
0.875
 40
0.875
 40
0.875
 40
0.875
 40
1.0
 40
1.0
 40
1.0
 40
1.0
 10
-144.283
 20
-16.6086
 30
0.0
 10
-142.5466
 20
-17.0946
 30
0.0
 10
-139.2129
 20
-17.2336
 30
0.0
 10
-137.1292
 20
-16.6086
 30
0.0
 10
-137.1292
 20
-16.6086
 30
0.0
 10
-135.3235
 20
-13.761
 30
0.0
 10
-134.2123
 20
-10.1494
 30
0.0
 10
-134.2123
 20
-5.9128
 30
0.0
 10
-134.2123
 20
-5.9128
 30
0.0
 10
-134.2123
 20
-3.9681
 30
0.0
 10
-134.6984
 20
-2.1624
 30
0.0
 10
-135.1847
 20
-0.565
 30
0.0
 10
-135.1847
 20
-0.565
 30
0.0
 10
-137.7543
 20
-4.3849
 30
0.0
 10
-142.8243
 20
-4.3154
 30
0.0
 10
-144.283
 20
-3.6904
 30
0.0
 10
-144.283
 20
-3.6904
 30
0.0
 10
-144.283
 20
-3.6904
 30
0.0
 10
-144.3523
 20
-3.6904
 30
0.0
 10
-144.3523
 20
-3.6904
 30
0.0
 10
-144.3523
 20
-3.6904
 30
0.0
 10
-144.3523
 20
-3.6904
 30
0.0
 10
-144.4218
 20
-3.6904
 30
0.0
 10
-144.4218
 20
-3.6209
 30
0.0
 10
-144.4218
 20
-3.6209
 30
0.0
 10
-144.4218
 20
-3.6209
 30
0.0
 10
-144.4913
 20
-3.6209
 30
0.0
 10
-144.4913
 20
-3.6209
 30
0.0
 10
-144.4913
 20
-3.6209
 30
0.0
 10
-144.5608
 20
-3.6209
 30
0.0
 10
-144.5608
 20
-3.5516
 30
0.0
 10
-144.6301
 20
-3.5516
 30
0.0
 10
-144.6301
 20
-3.5516
 30
0.0
 10
-144.6301
 20
-3.5516
 30
0.0
 10
-144.6301
 20
-3.5516
 30
0.0
 10
-144.6301
 20
-3.5516
 30
0.0
 10
-144.6301
 20
-3.5516
 30
0.0
 10
-144.6301
 20
-3.5516
 30
0.0
 10
-144.6301
 20
-3.5516
 30
0.0
 10
-144.6301
 20
-3.5516
 30
0.0
 10
-144.6301
 20
-3.5516
 30
0.0
 10
-144.6301
 20
-3.5516
 30
0.0
 10
-144.6301
 20
-3.6209
 30
0.0
 10
-144.6301
 20
-3.6209
 30
0.0
 10
-144.6301
 20
-3.6209
 30
0.0
 10
-144.6301
 20
-3.6209
 30
0.0
 10
-144.5608
 20
-3.6209
 30
0.0
 10
-144.5608
 20
-3.6209
 30
0.0
 10
-144.5608
 20
-3.6209
 30
0.0
 10
-144.5608
 20
-3.6209
 30
0.0
 10
-144.5608
 20
-3.6904
 30
0.0
 10
-144.5608
 20
-3.6904
 30
0.0
 10
-144.5608
 20
-3.6904
 30
0.0
 10
-144.5608
 20
-3.6904
 30
0.0
 10
-144.5608
 20
-3.7598
 30
0.0
 10
-144.5608
 20
-3.7598
 30
0.0
 10
-144.5608
 20
-3.7598
 30
0.0
 10
-142.6856
 20
-7.7186
 30
0.0
 10
-142.4078
 20
-12.5803
 30
0.0
 10
-144.283
 20
-16.6086
 30
0.0
  0
SPLINE
  5
56
330
1F
100
AcDbEntity
  8
layer 1
 62
     7
370
    20
100
AcDbSpline
210
0.0
220
0.0
230
1.0
 70
    11
 71
     3
 72
    16
 73
    12
 74
     0
 42
0.0000000001
 43
0.0000000001
 12
1.0
 22
0.0
 32
0.0
 13
1.0
 23
0.0
 33
0.0
 40
0.0
 40
0.0
 40
0.0
 40
0.0
 40
0.25
 40
0.25
 40
0.25
 40
0.25
 40
0.5
 40
0.5
 40
0.5
 40
0.5
 40
1.0
 40
1.0
 40
1.0
 40
1.0
 10
-162.0628
 20
-3.8986
 30
0.0
 10
-159.8403
 20
-6.7462
 30
0.0
 10
-157.34
 20
-9.5243
 30
0.0
 10
-154.7007
 20
-11.8163
 30
0.0
 10
-154.7007
 20
-11.8163
 30
0.0
 10
-153.5201
 20
-6.6769
 30
0.0
 10
-147.4776
 20
-8.5521
 30
0.0
 10
-147.4083
 20
-10.0106
 30
0.0
 10
-147.4083
 20
-10.0106
 30
0.0
 10
-145.1858
 20
-1.5373
 30
0.0
 10
-156.0898
 20
2.6992
 30
0.0
 10
-162.0628
 20
-3.8986
 30
0.0
  0
SPLINE
  5
57
330
1F
100
AcDbEntity
  8
layer 1
 62
     7
370
    20
100
AcDbSpline
210
0.0
220
0.0
230
1.0
 70
    11
 71
     3
 72
    44
 73
    40
 74
     0
 42
0.0000000001
 43
0.0000000001
 12
1.0
 22
0.0
 32
0.0
 13
1.0
 23
0.0
 33
0.0
 40
0.0
 40
0.0
 40
0.0
 40
0.0
 40
0.0909090909090909
 40
0.0909090909090909
 40
0.0909090909090909
 40
0.0909090909090909
 40
0.1818181818181818
 40
0.1818181818181818
 40
0.1818181818181818
 40
0.1818181818181818
 40
0.2727272727272727
 40
0.2727272727272727
 40
0.2727272727272727
 40
0.2727272727272727
 40
0.3636363636363636
 40
0.3636363636363636
 40
0.3636363636363636
 40
0.3636363636363636
 40
0.4545454545454545
 40
0.4545454545454545
 40
0.4545454545454545
 40
0.4545454545454545
 40
0.5454545454545454
 40
0.5454545454545454
 40
0.5454545454545454
 40
0.5454545454545454
 40
0.6363636363636364
 40
0.6363636363636364
 40
0.6363636363636364
 40
0.6363636363636364
 40
0.7272727272727273
 40
0.7272727272727273
 40
0.7272727272727273
 40
0.7272727272727273
 40
0.8181818181818182
 40
0.8181818181818182
 40
0.8181818181818182
 40
0.8181818181818182
 40
1.0
 40
1.0
 40
1.0
 40
1.0
 10
-140.5326
 20
7.5609
 30
0.0
 10
-149.4223
 20
-0.7733
 30
0.0
 10
-157.8956
 20
5.0606
 30
0.0
 10
-164.0073
 20
-1.3984
 30
0.0
 10
-164.0073
 20
-1.3984
 30
0.0
 10
-165.3964
 20
0.5462
 30
0.0
 10
-166.7855
 20
2.4214
 30
0.0
 10
-167.8272
 20
4.2273
 30
0.0
 10
-167.8272
 20
4.2273
 30
0.0
 10
-167.8272
 20
4.2273
 30
0.0
 10
-164.6323
 20
4.9217
 30
0.0
 10
-165.8825
 20
8.3943
 30
0.0
 10
-165.8825
 20
8.3943
 30
0.0
 10
-166.1605
 20
9.2279
 30
0.0
 10
-166.5771
 20
9.9917
 30
0.0
 10
-167.1326
 20
10.6863
 30
0.0
 10
-167.1326
 20
10.6863
 30
0.0
 10
-165.2574
 20
11.7974
 30
0.0
 10
-163.0351
 20
12.7003
 30
0.0
 10
-161.0209
 20
13.1866
 30
0.0
 10
-161.0209
 20
13.1866
 30
0.0
 10
-161.0904
 20
13.1171
 30
0.0
 10
-163.0351
 20
8.8806
 30
0.0
 10
-157.7566
 20
8.7416
 30
0.0
 10
-157.7566
 20
8.7416
 30
0.0
 10
-152.4782
 20
8.5333
 30
0.0
 10
-151.4366
 20
8.5333
 30
0.0
 10
-149.6306
 20
5.3384
 30
0.0
 10
-149.6306
 20
5.3384
 30
0.0
 10
-149.4223
 20
5.5467
 30
0.0
 10
-145.8109
 20
8.186
 30
0.0
 10
-148.7973
 20
11.1031
 30
0.0
 10
-148.7973
 20
11.1031
 30
0.0
 10
-148.7973
 20
11.1031
 30
0.0
 10
-147.1998
 20
10.0612
 30
0.0
 10
-145.1163
 20
10.8251
 30
0.0
 10
-145.1163
 20
10.8251
 30
0.0
 10
-143.5189
 20
9.9222
 30
0.0
 10
-141.9215
 20
8.8111
 30
0.0
 10
-140.5326
 20
7.5609
 30
0.0
  0
SPLINE
  5
58
330
1F
100
AcDbEntity
  8
layer 1
 62
     7
370
    20
100
AcDbSpline
210
0.0
220
0.0
230
1.0
 70
    11
 71
     3
 72
    68
 73
    64
 74
     0
 42
0.0000000001
 43
0.0000000001
 12
1.0
 22
0.0
 32
0.0
 13
1.0
 23
0.0
 33
0.0
 40
0.0
 40
0.0
 40
0.0
 40
0.0
 40
0.0588235294117647
 40
0.0588235294117647
 40
0.0588235294117647
 40
0.0588235294117647
 40
0.1176470588235294
 40
0.1176470588235294
 40
0.1176470588235294
 40
0.1176470588235294
 40
0.1764705882352941
 40
0.1764705882352941
 40
0.1764705882352941
 40
0.1764705882352941
 40
0.2352941176470588
 40
0.2352941176470588
 40
0.2352941176470588
 40
0.2352941176470588
 40
0.2941176470588235
 40
0.2941176470588235
 40
0.2941176470588235
 40
0.2941176470588235
 40
0.3529411764705883
 40
0.3529411764705883
 40
0.3529411764705883
 40
0.3529411764705883
 40
0.4117647058823529
 40
0.4117647058823529
 40
0.4117647058823529
 40
0.4117647058823529
 40
0.4705882352941176
 40
0.4705882352941176
 40
0.4705882352941176
 40
0.4705882352941176
 40
0.5294117647058824
 40
0.5294117647058824
 40
0.5294117647058824
 40
0.5294117647058824
 40
0.5882352941176471
 40
0.5882352941176471
 40
0.5882352941176471
 40
0.5882352941176471
 40
0.6470588235294118
 40
0.6470588235294118
 40
0.6470588235294118
 40
0.6470588235294118
 40
0.7058823529411765
 40
0.7058823529411765
 40
0.7058823529411765
 40
0.7058823529411765
 40
0.7647058823529411
 40
0.7647058823529411
 40
0.7647058823529411
 40
0.7647058823529411
 40
0.8235294117647058
 40
0.8235294117647058
 40
0.8235294117647058
 40
0.8235294117647058
 40
0.8823529411764706
 40
0.8823529411764706
 40
0.8823529411764706
 40
0.8823529411764706
 40
1.0
 40
1.0
 40
1.0
 40
1.0
 10
-123.0306
 20
17.3538
 30
0.0
 10
-129.0033
 20
20.6874
 30
0.0
 10
-130.2534
 20
26.1741
 30
0.0
 10
-132.9622
 20
31.9387
 30
0.0
 10
-132.9622
 20
31.9387
 30
0.0
 10
-132.9622
 20
31.9387
 30
0.0
 10
-132.9622
 20
32.0082
 30
0.0
 10
-132.9622
 20
32.0082
 30
0.0
 10
-132.9622
 20
32.0082
 30
0.0
 10
-130.6007
 20
38.9533
 30
0.0
 10
-131.1565
 20
44.5096
 30
0.0
 10
-132.6149
 20
49.1629
 30
0.0
 10
-132.6149
 20
49.1629
 30
0.0
 10
-128.3089
 20
47.0792
 30
0.0
 10
-124.5585
 20
43.8846
 30
0.0
 10
-122.197
 20
40.2034
 30
0.0
 10
-122.197
 20
40.2034
 30
0.0
 10
-117.9605
 20
33.7444
 30
0.0
 10
-119.6967
 20
30.8969
 30
0.0
 10
-119.6967
 20
30.8969
 30
0.0
 10
-119.6967
 20
30.8969
 30
0.0
 10
-119.0716
 20
33.2583
 30
0.0
 10
-121.5719
 20
34.2307
 30
0.0
 10
-122.7526
 20
33.9527
 30
0.0
 10
-122.7526
 20
33.9527
 30
0.0
 10
-127.2671
 20
33.0499
 30
0.0
 10
-125.7391
 20
26.8686
 30
0.0
 10
-120.7386
 20
27.702
 30
0.0
 10
-120.7386
 20
27.702
 30
0.0
 10
-121.9887
 20
20.2706
 30
0.0
 10
-117.1269
 20
17.7704
 30
0.0
 10
-115.738
 20
17.3538
 30
0.0
 10
-115.738
 20
17.3538
 30
0.0
 10
-117.1269
 20
16.8675
 30
0.0
 10
-121.9887
 20
14.4367
 30
0.0
 10
-120.7386
 20
7.0054
 30
0.0
 10
-120.7386
 20
7.0054
 30
0.0
 10
-125.7391
 20
7.8387
 30
0.0
 10
-127.2671
 20
1.6575
 30
0.0
 10
-122.7526
 20
0.7546
 30
0.0
 10
-122.7526
 20
0.7546
 30
0.0
 10
-121.5719
 20
0.4769
 30
0.0
 10
-119.0716
 20
1.449
 30
0.0
 10
-119.6967
 20
3.8105
 30
0.0
 10
-119.6967
 20
3.8105
 30
0.0
 10
-119.6967
 20
3.8105
 30
0.0
 10
-117.9605
 20
0.9629
 30
0.0
 10
-122.197
 20
-5.4961
 30
0.0
 10
-122.197
 20
-5.4961
 30
0.0
 10
-124.5585
 20
-9.1772
 30
0.0
 10
-128.3089
 20
-12.3719
 30
0.0
 10
-132.6149
 20
-14.4556
 30
0.0
 10
-132.6149
 20
-14.4556
 30
0.0
 10
-131.1565
 20
-9.8023
 30
0.0
 10
-130.6007
 20
-4.2459
 30
0.0
 10
-132.9622
 20
2.6992
 30
0.0
 10
-132.9622
 20
2.6992
 30
0.0
 10
-132.9622
 20
2.6992
 30
0.0
 10
-132.9622
 20
2.7687
 30
0.0
 10
-132.9622
 20
2.7687
 30
0.0
 10
-132.9622
 20
2.7687
 30
0.0
 10
-130.2534
 20
8.5333
 30
0.0
 10
-129.0033
 20
14.0199
 30
0.0
 10
-123.0306
 20
17.3538
 30
0.0
  0
SPLINE
  5
59
330
1F
100
AcDbEntity
  8
layer 1
 62
     7
370
    20
100
AcDbSpline
210
0.0
220
0.0
230
1.0
 70
    11
 71
     3
 72
    28
 73
    24
 74
     0
 42
0.0000000001
 43
0.0000000001
 12
1.0
 22
0.0
 32
0.0
 13
1.0
 23
0.0
 33
0.0
 40
0.0
 40
0.0
 40
0.0
 40
0.0
 40
0.1428571428571428
 40
0.1428571428571428
 40
0.1428571428571428
 40
0.1428571428571428
 40
0.2857142857142857
 40
0.2857142857142857
 40
0.2857142857142857
 40
0.2857142857142857
 40
0.4285714285714285
 40
0.4285714285714285
 40
0.4285714285714285
 40
0.4285714285714285
 40
0.5714285714285714
 40
0.5714285714285714
 40
0.5714285714285714
 40
0.5714285714285714
 40
0.7142857142857143
 40
0.7142857142857143
 40
0.7142857142857143
 40
0.7142857142857143
 40
1.0
 40
1.0
 40
1.0
 40
1.0
 10
-136.2264
 20
17.3538
 30
0.0
 10
-138.9351
 20
18.3954
 30
0.0
 10
-140.3936
 20
19.5761
 30
0.0
 10
-142.3383
 20
21.7986
 30
0.0
 10
-142.3383
 20
21.7986
 30
0.0
 10
-141.0186
 20
22.4236
 30
0.0
 10
-139.0739
 20
23.6738
 30
0.0
 10
-138.1711
 20
24.7851
 30
0.0
 10
-138.1711
 20
24.7851
 30
0.0
 10
-132.5454
 20
19.5761
 30
0.0
 10
-130.8092
 20
18.3259
 30
0.0
 10
-124.4195
 20
17.3538
 30
0.0
 10
-124.4195
 20
17.3538
 30
0.0
 10
-130.8092
 20
16.3814
 30
0.0
 10
-132.5454
 20
15.1313
 30
0.0
 10
-138.1711
 20
9.9222
 30
0.0
 10
-138.1711
 20
9.9222
 30
0.0
 10
-139.0739
 20
11.0336
 30
0.0
 10
-141.0186
 20
12.2837
 30
0.0
 10
-142.3383
 20
12.9088
 30
0.0
 10
-142.3383
 20
12.9088
 30
0.0
 10
-140.3936
 20
15.1313
 30
0.0
 10
-138.9351
 20
16.3119
 30
0.0
 10
-136.2264
 20
17.3538
 30
0.0
  0
SPLINE
  5
5A
330
1F
100
AcDbEntity
  8
layer 1
 62
     7
370
    20
100
AcDbSpline
210
0.0
220
0.0
230
1.0
 70
    11
 71
     3
 72
    20
 73
    16
 74
     0
 42
0.0000000001
 43
0.0000000001
 12
1.0
 22
0.0
 32
0.0
 13
1.0
 23
0.0
 33
0.0
 40
0.0
 40
0.0
 40
0.0
 40
0.0
 40
0.2
 40
0.2
 40
0.2
 40
0.2
 40
0.4
 40
0.4
 40
0.4
 40
0.4
 40
0.6
 40
0.6
 40
0.6
 40
0.6
 40
1.0
 40
1.0
 40
1.0
 40
1.0
 10
-157.9651
 20
17.3538
 30
0.0
 10
-157.2705
 20
18.1176
 30
0.0
 10
-154.8397
 20
20.4791
 30
0.0
 10
-150.8115
 20
20.7569
 30
0.0
 10
-150.8115
 20
20.7569
 30
0.0
 10
-146.9221
 20
20.7569
 30
0.0
 10
-145.7414
 20
18.3259
 30
0.0
 10
-145.4636
 20
17.3538
 30
0.0
 10
-145.4636
 20
17.3538
 30
0.0
 10
-145.7414
 20
16.3814
 30
0.0
 10
-146.9221
 20
13.9504
 30
0.0
 10
-150.8115
 20
13.9504
 30
0.0
 10
-150.8115
 20
13.9504
 30
0.0
 10
-154.8397
 20
14.2284
 30
0.0
 10
-157.2705
 20
16.5897
 30
0.0
 10
-157.9651
 20
17.3538
 30
0.0
  0
SPLINE
  5
5B
330
1F
100
AcDbEntity
  8
layer 1
 62
     7
370
    20
100
AcDbSpline
210
0.0
220
0.0
230
1.0
 70
    11
 71
     3
 72
    32
 73
    28
 74
     0
 42
0.0000000001
 43
0.0000000001
 12
1.0
 22
0.0
 32
0.0
 13
1.0
 23
0.0
 33
0.0
 40
0.0
 40
0.0
 40
0.0
 40
0.0
 40
0.125
 40
0.125
 40
0.125
 40
0.125
 40
0.25
 40
0.25
 40
0.25
 40
0.25
 40
0.375
 40
0.375
 40
0.375
 40
0.375
 40
0.5
 40
0.5
 40
0.5
 40
0.5
 40
0.625
 40
0.625
 40
0.625
 40
0.625
 40
0.75
 40
0.75
 40
0.75
 40
0.75
 40
1.0
 40
1.0
 40
1.0
 40
1.0
 10
-134.6984
 20
-69.6701
 30
0.0
 10
-133.1705
 20
-70.2952
 30
0.0
 10
-131.3648
 20
-71.198
 30
0.0
 10
-129.7674
 20
-72.0314
 30
0.0
 10
-129.7674
 20
-72.0314
 30
0.0
 10
-129.7674
 20
-72.0314
 30
0.0
 10
-132.4066
 20
-66.8225
 30
0.0
 10
-124.6973
 20
-59.0439
 30
0.0
 10
-124.6973
 20
-59.0439
 30
0.0
 10
-124.6973
 20
-59.0439
 30
0.0
 10
-124.8363
 20
-59.1134
 30
0.0
 10
-124.8363
 20
-59.1134
 30
0.0
 10
-124.8363
 20
-59.1134
 30
0.0
 10
-126.0864
 20
-57.5855
 30
0.0
 10
-127.6143
 20
-56.0575
 30
0.0
 10
-129.4201
 20
-54.5989
 30
0.0
 10
-129.4201
 20
-54.5989
 30
0.0
 10
-134.6984
 20
-60.5718
 30
0.0
 10
-137.6155
 20
-54.3211
 30
0.0
 10
-137.6155
 20
-54.3211
 30
0.0
 10
-137.6155
 20
-54.3211
 30
0.0
 10
-137.6155
 20
-54.3211
 30
0.0
 10
-139.1434
 20
-54.9462
 30
0.0
 10
-139.1434
 20
-60.294
 30
0.0
 10
-139.1434
 20
-60.294
 30
0.0
 10
-139.1434
 20
-62.586
 30
0.0
 10
-136.8514
 20
-65.5724
 30
0.0
 10
-134.6984
 20
-69.6701
 30
0.0
  0
SPLINE
  5
5C
330
1F
100
AcDbEntity
  8
layer 1
 62
     7
370
    20
100
AcDbSpline
210
0.0
220
0.0
230
1.0
 70
    11
 71
     3
 72
    12
 73
     8
 74
     0
 42
0.0000000001
 43
0.0000000001
 12
1.0
 22
0.0
 32
0.0
 13
1.0
 23
0.0
 33
0.0
 40
0.0
 40
0.0
 40
0.0
 40
0.0
 40
0.3333333333333333
 40
0.3333333333333333
 40
0.3333333333333333
 40
0.3333333333333333
 40
1.0
 40
1.0
 40
1.0
 40
1.0
 10
-120.8774
 20
-65.4336
 30
0.0
 10
-126.781
 20
-73.9761
 30
0.0
 10
-119.0716
 20
-83.3522
 30
0.0
 10
-117.9605
 20
-85.0191
 30
0.0
 10
-117.9605
 20
-85.0191
 30
0.0
 10
-117.9605
 20
-85.0191
 30
0.0
 10
-116.1548
 20
-75.3652
 30
0.0
 10
-120.8774
 20
-65.4336
 30
0.0
  0
SPLINE
  5
5D
330
1F
100
AcDbEntity
  8
layer 1
 62
     7
370
    20
100
AcDbSpline
210
0.0
220
0.0
230
1.0
 70
    11
 71
     3
 72
    52
 73
    48
 74
     0
 42
0.0000000001
 43
0.0000000001
 12
1.0
 22
0.0
 32
0.0
 13
1.0
 23
0.0
 33
0.0
 40
0.0
 40
0.0
 40
0.0
 40
0.0
 40
0.0769230769230769
 40
0.0769230769230769
 40
0.0769230769230769
 40
0.0769230769230769
 40
0.1538461538461539
 40
0.1538461538461539
 40
0.1538461538461539
 40
0.1538461538461539
 40
0.2307692307692308
 40
0.2307692307692308
 40
0.2307692307692308
 40
0.2307692307692308
 40
0.3076923076923077
 40
0.3076923076923077
 40
0.3076923076923077
 40
0.3076923076923077
 40
0.3846153846153846
 40
0.3846153846153846
 40
0.3846153846153846
 40
0.3846153846153846
 40
0.4615384615384616
 40
0.4615384615384616
 40
0.4615384615384616
 40
0.4615384615384616
 40
0.5384615384615384
 40
0.5384615384615384
 40
0.5384615384615384
 40
0.5384615384615384
 40
0.6153846153846154
 40
0.6153846153846154
 40
0.6153846153846154
 40
0.6153846153846154
 40
0.6923076923076923
 40
0.6923076923076923
 40
0.6923076923076923
 40
0.6923076923076923
 40
0.7692307692307693
 40
0.7692307692307693
 40
0.7692307692307693
 40
0.7692307692307693
 40
0.8461538461538461
 40
0.8461538461538461
 40
0.8461538461538461
 40
0.8461538461538461
 40
1.0
 40
1.0
 40
1.0
 40
1.0
 10
-161.785
 20
-63.6277
 30
0.0
 10
-165.1881
 20
-61.1274
 30
0.0
 10
-168.4523
 20
-58.4188
 30
0.0
 10
-168.4523
 20
-55.363
 30
0.0
 10
-168.4523
 20
-55.363
 30
0.0
 10
-168.6608
 20
-54.1823
 30
0.0
 10
-167.4106
 20
-50.5707
 30
0.0
 10
-163.5212
 20
-50.5707
 30
0.0
 10
-163.5212
 20
-50.5707
 30
0.0
 10
-158.1733
 20
-50.779
 30
0.0
 10
-158.3123
 20
-56.6131
 30
0.0
 10
-161.9238
 20
-57.2382
 30
0.0
 10
-161.9238
 20
-57.2382
 30
0.0
 10
-164.7713
 20
-57.2382
 30
0.0
 10
-164.7713
 20
-55.0157
 30
0.0
 10
-164.7713
 20
-55.0157
 30
0.0
 10
-164.7713
 20
-55.0157
 30
0.0
 10
-164.7713
 20
-55.0157
 30
0.0
 10
-166.5771
 20
-57.8633
 30
0.0
 10
-158.2428
 20
-61.961
 30
0.0
 10
-158.2428
 20
-61.961
 30
0.0
 10
-153.9368
 20
-60.2245
 30
0.0
 10
-146.3665
 20
-59.9468
 30
0.0
 10
-141.5047
 20
-63.4194
 30
0.0
 10
-141.5047
 20
-63.4194
 30
0.0
 10
-141.991
 20
-59.669
 30
0.0
 10
-142.4078
 20
-53.9738
 30
0.0
 10
-138.2406
 20
-49.1818
 30
0.0
 10
-138.2406
 20
-49.1818
 30
0.0
 10
-156.9232
 20
-40.639
 30
0.0
 10
-179.4953
 20
-52.2376
 30
0.0
 10
-178.8702
 20
-76.6154
 30
0.0
 10
-178.8702
 20
-76.6154
 30
0.0
 10
-178.3839
 20
-84.4635
 30
0.0
 10
-176.0226
 20
-90.853
 30
0.0
 10
-172.7583
 20
-94.9507
 30
0.0
 10
-172.7583
 20
-94.9507
 30
0.0
 10
-171.4388
 20
-93.2145
 30
0.0
 10
-170.1192
 20
-91.4086
 30
0.0
 10
-169.0078
 20
-89.6029
 30
0.0
 10
-169.0078
 20
-89.6029
 30
0.0
 10
-168.244
 20
-88.2833
 30
0.0
 10
-167.2021
 20
-86.6165
 30
0.0
 10
-166.0215
 20
-84.8801
 30
0.0
 10
-166.0215
 20
-84.8801
 30
0.0
 10
-170.0497
 20
-77.7265
 30
0.0
 10
-168.3828
 20
-68.6978
 30
0.0
 10
-161.785
 20
-63.6277
 30
0.0
  0
SPLINE
  5
5E
330
1F
100
AcDbEntity
  8
layer 1
 62
     7
370
    20
100
AcDbSpline
210
0.0
220
0.0
230
1.0
 70
    11
 71
     3
 72
    20
 73
    16
 74
     0
 42
0.0000000001
 43
0.0000000001
 12
1.0
 22
0.0
 32
0.0
 13
1.0
 23
0.0
 33
0.0
 40
0.0
 40
0.0
 40
0.0
 40
0.0
 40
0.2
 40
0.2
 40
0.2
 40
0.2
 40
0.4
 40
0.4
 40
0.4
 40
0.4
 40
0.6
 40
0.6
 40
0.6
 40
0.6
 40
1.0
 40
1.0
 40
1.0
 40
1.0
 10
-163.8685
 20
-82.1715
 30
0.0
 10
-161.5765
 20
-79.324
 30
0.0
 10
-158.7289
 20
-76.2681
 30
0.0
 10
-155.3953
 20
-73.8373
 30
0.0
 10
-155.3953
 20
-73.8373
 30
0.0
 10
-155.6731
 20
-72.0314
 30
0.0
 10
-156.2981
 20
-68.559
 30
0.0
 10
-159.1457
 20
-66.267
 30
0.0
 10
-159.1457
 20
-66.267
 30
0.0
 10
-163.3129
 20
-69.184
 30
0.0
 10
-165.1881
 20
-74.3234
 30
0.0
 10
-165.1881
 20
-76.4764
 30
0.0
 10
-165.1881
 20
-76.4764
 30
0.0
 10
-165.1881
 20
-77.657
 30
0.0
 10
-164.8408
 20
-79.949
 30
0.0
 10
-163.8685
 20
-82.1715
 30
0.0
  0
SPLINE
  5
5F
330
1F
100
AcDbEntity
  8
layer 1
 62
     7
370
    20
100
AcDbSpline
210
0.0
220
0.0
230
1.0
 70
    11
 71
     3
 72
    64
 73
    60
 74
     0
 42
0.0000000001
 43
0.0000000001
 12
1.0
 22
0.0
 32
0.0
 13
1.0
 23
0.0
 33
0.0
 40
0.0
 40
0.0
 40
0.0
 40
0.0
 40
0.0625
 40
0.0625
 40
0.0625
 40
0.0625
 40
0.125
 40
0.125
 40
0.125
 40
0.125
 40
0.1875
 40
0.1875
 40
0.1875
 40
0.1875
 40
0.25
 40
0.25
 40
0.25
 40
0.25
 40
0.3125
 40
0.3125
 40
0.3125
 40
0.3125
 40
0.375
 40
0.375
 40
0.375
 40
0.375
 40
0.4375
 40
0.4375
 40
0.4375
 40
0.4375
 40
0.5
 40
0.5
 40
0.5
 40
0.5
 40
0.5625
 40
0.5625
 40
0.5625
 40
0.5625
 40
0.625
 40
0.625
 40
0.625
 40
0.625
 40
0.6875
 40
0.6875
 40
0.6875
 40
0.6875
 40
0.75
 40
0.75
 40
0.75
 40
0.75
 40
0.8125
 40
0.8125
 40
0.8125
 40
0.8125
 40
0.875
 40
0.875
 40
0.875
 40
0.875
 40
1.0
 40
1.0
 40
1.0
 40
1.0
 10
-144.283
 20
-72.3787
 30
0.0
 10
-142.5466
 20
-71.8926
 30
0.0
 10
-139.2129
 20
-71.8231
 30
0.0
 10
-137.1292
 20
-72.3787
 30
0.0
 10
-137.1292
 20
-72.3787
 30
0.0
 10
-135.3235
 20
-75.2958
 30
0.0
 10
-134.2123
 20
-78.8379
 30
0.0
 10
-134.2123
 20
-83.0744
 30
0.0
 10
-134.2123
 20
-83.0744
 30
0.0
 10
-134.2123
 20
-85.0191
 30
0.0
 10
-134.6984
 20
-86.8248
 30
0.0
 10
-135.1847
 20
-88.4222
 30
0.0
 10
-135.1847
 20
-88.4222
 30
0.0
 10
-137.7543
 20
-84.6718
 30
0.0
 10
-142.8243
 20
-84.6718
 30
0.0
 10
-144.283
 20
-85.2969
 30
0.0
 10
-144.283
 20
-85.2969
 30
0.0
 10
-144.283
 20
-85.2969
 30
0.0
 10
-144.3523
 20
-85.2969
 30
0.0
 10
-144.3523
 20
-85.2969
 30
0.0
 10
-144.3523
 20
-85.2969
 30
0.0
 10
-144.3523
 20
-85.2969
 30
0.0
 10
-144.4218
 20
-85.3664
 30
0.0
 10
-144.4218
 20
-85.3664
 30
0.0
 10
-144.4218
 20
-85.3664
 30
0.0
 10
-144.4218
 20
-85.3664
 30
0.0
 10
-144.4913
 20
-85.3664
 30
0.0
 10
-144.4913
 20
-85.3664
 30
0.0
 10
-144.4913
 20
-85.3664
 30
0.0
 10
-144.5608
 20
-85.3664
 30
0.0
 10
-144.5608
 20
-85.4359
 30
0.0
 10
-144.6301
 20
-85.4359
 30
0.0
 10
-144.6301
 20
-85.4359
 30
0.0
 10
-144.6301
 20
-85.4359
 30
0.0
 10
-144.6301
 20
-85.4359
 30
0.0
 10
-144.6301
 20
-85.4359
 30
0.0
 10
-144.6301
 20
-85.4359
 30
0.0
 10
-144.6301
 20
-85.4359
 30
0.0
 10
-144.6301
 20
-85.4359
 30
0.0
 10
-144.6301
 20
-85.4359
 30
0.0
 10
-144.6301
 20
-85.4359
 30
0.0
 10
-144.6301
 20
-85.4359
 30
0.0
 10
-144.6301
 20
-85.3664
 30
0.0
 10
-144.6301
 20
-85.3664
 30
0.0
 10
-144.6301
 20
-85.3664
 30
0.0
 10
-144.6301
 20
-85.3664
 30
0.0
 10
-144.5608
 20
-85.3664
 30
0.0
 10
-144.5608
 20
-85.3664
 30
0.0
 10
-144.5608
 20
-85.3664
 30
0.0
 10
-144.5608
 20
-85.3664
 30
0.0
 10
-144.5608
 20
-85.2969
 30
0.0
 10
-144.5608
 20
-85.2969
 30
0.0
 10
-144.5608
 20
-85.2969
 30
0.0
 10
-144.5608
 20
-85.2969
 30
0.0
 10
-144.5608
 20
-85.2969
 30
0.0
 10
-144.5608
 20
-85.2969
 30
0.0
 10
-144.5608
 20
-85.2969
 30
0.0
 10
-142.6856
 20
-81.3382
 30
0.0
 10
-142.4078
 20
-76.4069
 30
0.0
 10
-144.283
 20
-72.3787
 30
0.0
  0
SPLINE
  5
60
330
1F
100
AcDbEntity
  8
layer 1
 62
     7
370
    20
100
AcDbSpline
210
0.0
220
0.0
230
1.0
 70
    11
 71
     3
 72
    16
 73
    12
 74
     0
 42
0.0000000001
 43
0.0000000001
 12
1.0
 22
0.0
 32
0.0
 13
1.0
 23
0.0
 33
0.0
 40
0.0
 40
0.0
 40
0.0
 40
0.0
 40
0.25
 40
0.25
 40
0.25
 40
0.25
 40
0.5
 40
0.5
 40
0.5
 40
0.5
 40
1.0
 40
1.0
 40
1.0
 40
1.0
 10
-162.0628
 20
-85.0886
 30
0.0
 10
-159.8403
 20
-82.241
 30
0.0
 10
-157.34
 20
-79.463
 30
0.0
 10
-154.7007
 20
-77.2405
 30
0.0
 10
-154.7007
 20
-77.2405
 30
0.0
 10
-153.5201
 20
-82.3105
 30
0.0
 10
-147.4776
 20
-80.4353
 30
0.0
 10
-147.4083
 20
-78.9767
 30
0.0
 10
-147.4083
 20
-78.9767
 30
0.0
 10
-145.1858
 20
-87.4499
 30
0.0
 10
-156.0898
 20
-91.6866
 30
0.0
 10
-162.0628
 20
-85.0886
 30
0.0
  0
SPLINE
  5
61
330
1F
100
AcDbEntity
  8
layer 1
 62
     7
370
    20
100
AcDbSpline
210
0.0
220
0.0
230
1.0
 70
    11
 71
     3
 72
    44
 73
    40
 74
     0
 42
0.0000000001
 43
0.0000000001
 12
1.0
 22
0.0
 32
0.0
 13
1.0
 23
0.0
 33
0.0
 40
0.0
 40
0.0
 40
0.0
 40
0.0
 40
0.0909090909090909
 40
0.0909090909090909
 40
0.0909090909090909
 40
0.0909090909090909
 40
0.1818181818181818
 40
0.1818181818181818
 40
0.1818181818181818
 40
0.1818181818181818
 40
0.2727272727272727
 40
0.2727272727272727
 40
0.2727272727272727
 40
0.2727272727272727
 40
0.3636363636363636
 40
0.3636363636363636
 40
0.3636363636363636
 40
0.3636363636363636
 40
0.4545454545454545
 40
0.4545454545454545
 40
0.4545454545454545
 40
0.4545454545454545
 40
0.5454545454545454
 40
0.5454545454545454
 40
0.5454545454545454
 40
0.5454545454545454
 40
0.6363636363636364
 40
0.6363636363636364
 40
0.6363636363636364
 40
0.6363636363636364
 40
0.7272727272727273
 40
0.7272727272727273
 40
0.7272727272727273
 40
0.7272727272727273
 40
0.8181818181818182
 40
0.8181818181818182
 40
0.8181818181818182
 40
0.8181818181818182
 40
1.0
 40
1.0
 40
1.0
 40
1.0
 10
-140.5326
 20
-96.6177
 30
0.0
 10
-149.4223
 20
-88.214
 30
0.0
 10
-157.8956
 20
-94.0479
 30
0.0
 10
-164.0073
 20
-87.5889
 30
0.0
 10
-164.0073
 20
-87.5889
 30
0.0
 10
-165.3964
 20
-89.5334
 30
0.0
 10
-166.7855
 20
-91.4086
 30
0.0
 10
-167.8272
 20
-93.2145
 30
0.0
 10
-167.8272
 20
-93.2145
 30
0.0
 10
-167.8272
 20
-93.2145
 30
0.0
 10
-164.6323
 20
-93.9089
 30
0.0
 10
-165.8825
 20
-97.3815
 30
0.0
 10
-165.8825
 20
-97.3815
 30
0.0
 10
-166.1605
 20
-98.2151
 30
0.0
 10
-166.5771
 20
-98.979
 30
0.0
 10
-167.1326
 20
-99.6735
 30
0.0
 10
-167.1326
 20
-99.6735
 30
0.0
 10
-165.2574
 20
-100.7847
 30
0.0
 10
-163.0351
 20
-101.6877
 30
0.0
 10
-161.0209
 20
-102.2433
 30
0.0
 10
-161.0209
 20
-102.2433
 30
0.0
 10
-161.0904
 20
-102.1043
 30
0.0
 10
-163.0351
 20
-97.8678
 30
0.0
 10
-157.7566
 20
-97.7288
 30
0.0
 10
-157.7566
 20
-97.7288
 30
0.0
 10
-152.4782
 20
-97.5205
 30
0.0
 10
-151.4366
 20
-97.5205
 30
0.0
 10
-149.6306
 20
-94.3952
 30
0.0
 10
-149.6306
 20
-94.3952
 30
0.0
 10
-149.4223
 20
-94.534
 30
0.0
 10
-145.8109
 20
-97.2427
 30
0.0
 10
-148.7973
 20
-100.0903
 30
0.0
 10
-148.7973
 20
-100.0903
 30
0.0
 10
-148.7973
 20
-100.0903
 30
0.0
 10
-147.1998
 20
-99.0485
 30
0.0
 10
-145.1163
 20
-99.8125
 30
0.0
 10
-145.1163
 20
-99.8125
 30
0.0
 10
-143.5189
 20
-98.979
 30
0.0
 10
-141.9215
 20
-97.7983
 30
0.0
 10
-140.5326
 20
-96.6177
 30
0.0
  0
SPLINE
  5
62
330
1F
100
AcDbEntity
  8
layer 1
 62
     7
370
    20
100
AcDbSpline
210
0.0
220
0.0
230
1.0
 70
    11
 71
     3
 72
    20
 73
    16
 74
     0
 42
0.0000000001
 43
0.0000000001
 12
1.0
 22
0.0
 32
0.0
 13
1.0
 23
0.0
 33
0.0
 40
0.0
 40
0.0
 40
0.0
 40
0.0
 40
0.2
 40
0.2
 40
0.2
 40
0.2
 40
0.4
 40
0.4
 40
0.4
 40
0.4
 40
0.6
 40
0.6
 40
0.6
 40
0.6
 40
1.0
 40
1.0
 40
1.0
 40
1.0
 10
-140.2546
 20
-44.5283
 30
0.0
 10
-138.6573
 20
-45.084
 30
0.0
 10
-136.9904
 20
-45.7784
 30
0.0
 10
-135.393
 20
-46.612
 30
0.0
 10
-135.393
 20
-46.612
 30
0.0
 10
-133.9346
 20
-45.7784
 30
0.0
 10
-132.4759
 20
-45.0145
 30
0.0
 10
-131.0175
 20
-44.5283
 30
0.0
 10
-131.0175
 20
-44.5283
 30
0.0
 10
-132.4759
 20
-43.9727
 30
0.0
 10
-133.9346
 20
-43.2088
 30
0.0
 10
-135.393
 20
-42.3753
 30
0.0
 10
-135.393
 20
-42.3753
 30
0.0
 10
-136.9904
 20
-43.2088
 30
0.0
 10
-138.6573
 20
-43.9032
 30
0.0
 10
-140.2546
 20
-44.5283
 30
0.0
  0
SPLINE
  5
63
330
1F
100
AcDbEntity
  8
layer 1
 62
     7
370
    20
100
AcDbSpline
210
0.0
220
0.0
230
1.0
 70
    11
 71
     3
 72
    20
 73
    16
 74
     0
 42
0.0000000001
 43
0.0000000001
 12
1.0
 22
0.0
 32
0.0
 13
1.0
 23
0.0
 33
0.0
 40
0.0
 40
0.0
 40
0.0
 40
0.0
 40
0.2
 40
0.2
 40
0.2
 40
0.2
 40
0.4
 40
0.4
 40
0.4
 40
0.4
 40
0.6
 40
0.6
 40
0.6
 40
0.6
 40
1.0
 40
1.0
 40
1.0
 40
1.0
 10
-181.5788
 20
-44.5283
 30
0.0
 10
-181.0232
 20
-45.1533
 30
0.0
 10
-176.0921
 20
-50.5012
 30
0.0
 10
-163.938
 20
-45.4313
 30
0.0
 10
-163.938
 20
-45.4313
 30
0.0
 10
-163.1044
 20
-45.084
 30
0.0
 10
-162.3405
 20
-44.7368
 30
0.0
 10
-161.5765
 20
-44.5283
 30
0.0
 10
-161.5765
 20
-44.5283
 30
0.0
 10
-162.3405
 20
-44.2505
 30
0.0
 10
-163.1044
 20
-43.9032
 30
0.0
 10
-163.938
 20
-43.5561
 30
0.0
 10
-163.938
 20
-43.5561
 30
0.0
 10
-176.0921
 20
-38.486
 30
0.0
 10
-181.0232
 20
-43.8339
 30
0.0
 10
-181.5788
 20
-44.5283
 30
0.0
  0
SPLINE
  5
64
330
1F
100
AcDbEntity
  8
layer 1
 62
     7
370
    20
100
AcDbSpline
210
0.0
220
0.0
230
1.0
 70
    11
 71
     3
 72
    44
 73
    40
 74
     0
 42
0.0000000001
 43
0.0000000001
 12
1.0
 22
0.0
 32
0.0
 13
1.0
 23
0.0
 33
0.0
 40
0.0
 40
0.0
 40
0.0
 40
0.0
 40
0.0909090909090909
 40
0.0909090909090909
 40
0.0909090909090909
 40
0.0909090909090909
 40
0.1818181818181818
 40
0.1818181818181818
 40
0.1818181818181818
 40
0.1818181818181818
 40
0.2727272727272727
 40
0.2727272727272727
 40
0.2727272727272727
 40
0.2727272727272727
 40
0.3636363636363636
 40
0.3636363636363636
 40
0.3636363636363636
 40
0.3636363636363636
 40
0.4545454545454545
 40
0.4545454545454545
 40
0.4545454545454545
 40
0.4545454545454545
 40
0.5454545454545454
 40
0.5454545454545454
 40
0.5454545454545454
 40
0.5454545454545454
 40
0.6363636363636364
 40
0.6363636363636364
 40
0.6363636363636364
 40
0.6363636363636364
 40
0.7272727272727273
 40
0.7272727272727273
 40
0.7272727272727273
 40
0.7272727272727273
 40
0.8181818181818182
 40
0.8181818181818182
 40
0.8181818181818182
 40
0.8181818181818182
 40
1.0
 40
1.0
 40
1.0
 40
1.0
 10
-115.8075
 20
-106.341
 30
0.0
 10
-115.8075
 20
-106.341
 30
0.0
 10
-115.738
 20
-106.341
 30
0.0
 10
-115.738
 20
-106.341
 30
0.0
 10
-115.738
 20
-106.341
 30
0.0
 10
-117.1269
 20
-105.8547
 30
0.0
 10
-121.9887
 20
-103.424
 30
0.0
 10
-120.7386
 20
-95.9926
 30
0.0
 10
-120.7386
 20
-95.9926
 30
0.0
 10
-125.7391
 20
-96.826
 30
0.0
 10
-127.2671
 20
-90.6447
 30
0.0
 10
-122.7526
 20
-89.7419
 30
0.0
 10
-122.7526
 20
-89.7419
 30
0.0
 10
-121.5719
 20
-89.4641
 30
0.0
 10
-119.0716
 20
-90.5058
 30
0.0
 10
-119.6967
 20
-92.7977
 30
0.0
 10
-119.6967
 20
-92.7977
 30
0.0
 10
-119.6967
 20
-92.7977
 30
0.0
 10
-117.9605
 20
-89.9502
 30
0.0
 10
-122.197
 20
-83.4912
 30
0.0
 10
-122.197
 20
-83.4912
 30
0.0
 10
-124.5585
 20
-79.8102
 30
0.0
 10
-128.3089
 20
-76.6154
 30
0.0
 10
-132.6149
 20
-74.5317
 30
0.0
 10
-132.6149
 20
-74.5317
 30
0.0
 10
-131.1565
 20
-79.1852
 30
0.0
 10
-130.6007
 20
-84.7413
 30
0.0
 10
-132.9622
 20
-91.6866
 30
0.0
 10
-132.9622
 20
-91.6866
 30
0.0
 10
-132.9622
 20
-91.6866
 30
0.0
 10
-132.9622
 20
-91.7559
 30
0.0
 10
-132.9622
 20
-91.7559
 30
0.0
 10
-132.9622
 20
-91.7559
 30
0.0
 10
-130.2534
 20
-97.5205
 30
0.0
 10
-129.0033
 20
-103.0072
 30
0.0
 10
-123.0306
 20
-106.341
 30
0.0
 10
-123.0306
 20
-106.341
 30
0.0
 10
-123.0306
 20
-106.341
 30
0.0
 10
-115.8075
 20
-106.341
 30
0.0
 10
-115.8075
 20
-106.341
 30
0.0
  0
SPLINE
  5
65
330
1F
100
AcDbEntity
  8
layer 1
 62
     7
370
    20
100
AcDbSpline
210
0.0
220
0.0
230
1.0
 70
    11
 71
     3
 72
    20
 73
    16
 74
     0
 42
0.0000000001
 43
0.0000000001
 12
1.0
 22
0.0
 32
0.0
 13
1.0
 23
0.0
 33
0.0
 40
0.0
 40
0.0
 40
0.0
 40
0.0
 40
0.2
 40
0.2
 40
0.2
 40
0.2
 40
0.4
 40
0.4
 40
0.4
 40
0.4
 40
0.6
 40
0.6
 40
0.6
 40
0.6
 40
1.0
 40
1.0
 40
1.0
 40
1.0
 10
-124.4195
 20
-106.341
 30
0.0
 10
-130.8092
 20
-105.3687
 30
0.0
 10
-132.5454
 20
-104.1185
 30
0.0
 10
-138.1711
 20
-98.9095
 30
0.0
 10
-138.1711
 20
-98.9095
 30
0.0
 10
-139.0739
 20
-100.0208
 30
0.0
 10
-141.0186
 20
-101.271
 30
0.0
 10
-142.3383
 20
-101.896
 30
0.0
 10
-142.3383
 20
-101.896
 30
0.0
 10
-140.3936
 20
-104.1185
 30
0.0
 10
-138.9351
 20
-105.2992
 30
0.0
 10
-136.2264
 20
-106.341
 30
0.0
 10
-136.2264
 20
-106.341
 30
0.0
 10
-136.2264
 20
-106.341
 30
0.0
 10
-124.4195
 20
-106.341
 30
0.0
 10
-124.4195
 20
-106.341
 30
0.0
  0
SPLINE
  5
66
330
1F
100
AcDbEntity
  8
layer 1
 62
     7
370
    20
100
AcDbSpline
210
0.0
220
0.0
230
1.0
 70
    11
 71
     3
 72
    16
 73
    12
 74
     0
 42
0.0000000001
 43
0.0000000001
 12
1.0
 22
0.0
 32
0.0
 13
1.0
 23
0.0
 33
0.0
 40
0.0
 40
0.0
 40
0.0
 40
0.0
 40
0.25
 40
0.25
 40
0.25
 40
0.25
 40
0.5
 40
0.5
 40
0.5
 40
0.5
 40
1.0
 40
1.0
 40
1.0
 40
1.0
 10
-145.4636
 20
-106.341
 30
0.0
 10
-145.7414
 20
-105.3687
 30
0.0
 10
-146.9221
 20
-102.9379
 30
0.0
 10
-150.8115
 20
-102.9379
 30
0.0
 10
-150.8115
 20
-102.9379
 30
0.0
 10
-154.8397
 20
-103.2157
 30
0.0
 10
-157.2705
 20
-105.577
 30
0.0
 10
-157.9651
 20
-106.341
 30
0.0
 10
-157.9651
 20
-106.341
 30
0.0
 10
-157.9651
 20
-106.341
 30
0.0
 10
-145.4636
 20
-106.341
 30
0.0
 10
-145.4636
 20
-106.341
 30
0.0
  0
SPLINE
  5
67
330
1F
100
AcDbEntity
  8
layer 1
 62
     7
370
    20
100
AcDbSpline
210
0.0
220
0.0
230
1.0
 70
    11
 71
     3
 72
    16
 73
    12
 74
     0
 42
0.0000000001
 43
0.0000000001
 12
1.0
 22
0.0
 32
0.0
 13
1.0
 23
0.0
 33
0.0
 40
0.0
 40
0.0
 40
0.0
 40
0.0
 40
0.25
 40
0.25
 40
0.25
 40
0.25
 40
0.5
 40
0.5
 40
0.5
 40
0.5
 40
1.0
 40
1.0
 40
1.0
 40
1.0
 10
-159.7708
 20
-106.341
 30
0.0
 10
-162.0628
 20
-105.9242
 30
0.0
 10
-166.3688
 20
-104.7436
 30
0.0
 10
-170.397
 20
-102.0348
 30
0.0
 10
-170.397
 20
-102.0348
 30
0.0
 10
-172.8973
 20
-103.3545
 30
0.0
 10
-175.467
 20
-104.6741
 30
0.0
 10
-181.5788
 20
-106.341
 30
0.0
 10
-181.5788
 20
-106.341
 30
0.0
 10
-181.5788
 20
-106.341
 30
0.0
 10
-159.7708
 20
-106.341
 30
0.0
 10
-159.7708
 20
-106.341
 30
0.0
  0
SPLINE
  5
68
330
1F
100
AcDbEntity
  8
layer 1
 62
     7
370
    20
100
AcDbSpline
210
0.0
220
0.0
230
1.0
 70
    11
 71
     3
 72
    20
 73
    16
 74
     0
 42
0.0000000001
 43
0.0000000001
 12
1.0
 22
0.0
 32
0.0
 13
1.0
 23
0.0
 33
0.0
 40
0.0
 40
0.0
 40
0.0
 40
0.0
 40
0.2
 40
0.2
 40
0.2
 40
0.2
 40
0.4
 40
0.4
 40
0.4
 40
0.4
 40
0.6
 40
0.6
 40
0.6
 40
0.6
 40
1.0
 40
1.0
 40
1.0
 40
1.0
 10
-161.5765
 20
79.2358
 30
0.0
 10
-162.3405
 20
78.9578
 30
0.0
 10
-163.1044
 20
78.6108
 30
0.0
 10
-163.938
 20
78.2635
 30
0.0
 10
-163.938
 20
78.2635
 30
0.0
 10
-176.0921
 20
73.1934
 30
0.0
 10
-181.0232
 20
78.5413
 30
0.0
 10
-181.5788
 20
79.2358
 30
0.0
 10
-181.5788
 20
79.2358
 30
0.0
 10
-181.0232
 20
79.8609
 30
0.0
 10
-176.0921
 20
85.2086
 30
0.0
 10
-163.938
 20
80.1387
 30
0.0
 10
-163.938
 20
80.1387
 30
0.0
 10
-163.1044
 20
79.7914
 30
0.0
 10
-162.3405
 20
79.4441
 30
0.0
 10
-161.5765
 20
79.2358
 30
0.0
  0
SPLINE
  5
69
330
1F
100
AcDbEntity
  8
layer 1
 62
     7
370
    20
100
AcDbSpline
210
0.0
220
0.0
230
1.0
 70
    11
 71
     3
 72
    20
 73
    16
 74
     0
 42
0.0000000001
 43
0.0000000001
 12
1.0
 22
0.0
 32
0.0
 13
1.0
 23
0.0
 33
0.0
 40
0.0
 40
0.0
 40
0.0
 40
0.0
 40
0.2
 40
0.2
 40
0.2
 40
0.2
 40
0.4
 40
0.4
 40
0.4
 40
0.4
 40
0.6
 40
0.6
 40
0.6
 40
0.6
 40
1.0
 40
1.0
 40
1.0
 40
1.0
 10
-131.0175
 20
79.2358
 30
0.0
 10
-132.4759
 20
78.6801
 30
0.0
 10
-133.9346
 20
77.9162
 30
0.0
 10
-135.393
 20
77.0826
 30
0.0
 10
-135.393
 20
77.0826
 30
0.0
 10
-136.9904
 20
77.9162
 30
0.0
 10
-138.6573
 20
78.6108
 30
0.0
 10
-140.2546
 20
79.2358
 30
0.0
 10
-140.2546
 20
79.2358
 30
0.0
 10
-138.6573
 20
79.7914
 30
0.0
 10
-136.9904
 20
80.486
 30
0.0
 10
-135.393
 20
81.3193
 30
0.0
 10
-135.393
 20
81.3193
 30
0.0
 10
-133.9346
 20
80.486
 30
0.0
 10
-132.4759
 20
79.7219
 30
0.0
 10
-131.0175
 20
79.2358
 30
0.0
  0
SPLINE
  5
6A
330
1F
100
AcDbEntity
  8
layer 1
 62
     7
370
    20
100
AcDbSpline
210
0.0
220
0.0
230
1.0
 70
    11
 71
     3
 72
    20
 73
    16
 74
     0
 42
0.0000000001
 43
0.0000000001
 12
1.0
 22
0.0
 32
0.0
 13
1.0
 23
0.0
 33
0.0
 40
0.0
 40
0.0
 40
0.0
 40
0.0
 40
0.2
 40
0.2
 40
0.2
 40
0.2
 40
0.4
 40
0.4
 40
0.4
 40
0.4
 40
0.6
 40
0.6
 40
0.6
 40
0.6
 40
1.0
 40
1.0
 40
1.0
 40
1.0
 10
-170.397
 20
21.6598
 30
0.0
 10
-166.3688
 20
18.951
 30
0.0
 10
-162.0628
 20
17.8399
 30
0.0
 10
-159.7708
 20
17.3538
 30
0.0
 10
-159.7708
 20
17.3538
 30
0.0
 10
-162.0628
 20
16.8675
 30
0.0
 10
-166.3688
 20
15.7564
 30
0.0
 10
-170.397
 20
13.0476
 30
0.0
 10
-170.397
 20
13.0476
 30
0.0
 10
-172.8973
 20
14.3672
 30
0.0
 10
-175.467
 20
15.6869
 30
0.0
 10
-181.5788
 20
17.3538
 30
0.0
 10
-181.5788
 20
17.3538
 30
0.0
 10
-175.467
 20
19.0205
 30
0.0
 10
-172.8973
 20
20.3401
 30
0.0
 10
-170.397
 20
21.6598
 30
0.0
  0
SPLINE
  5
6B
330
1F
100
AcDbEntity
  8
layer 1
 62
     7
370
    20
100
AcDbSpline
210
0.0
220
0.0
230
1.0
 70
    11
 71
     3
 72
    20
 73
    16
 74
     0
 42
0.0000000001
 43
0.0000000001
 12
1.0
 22
0.0
 32
0.0
 13
1.0
 23
0.0
 33
0.0
 40
0.0
 40
0.0
 40
0.0
 40
0.0
 40
0.2
 40
0.2
 40
0.2
 40
0.2
 40
0.4
 40
0.4
 40
0.4
 40
0.4
 40
0.6
 40
0.6
 40
0.6
 40
0.6
 40
1.0
 40
1.0
 40
1.0
 40
1.0
 10
-145.1163
 20
-23.3453
 30
0.0
 10
-143.3106
 20
-22.5815
 30
0.0
 10
-141.6437
 20
-21.5396
 30
0.0
 10
-140.1853
 20
-20.1505
 30
0.0
 10
-140.1853
 20
-20.1505
 30
0.0
 10
-142.2688
 20
-20.2895
 30
0.0
 10
-144.283
 20
-20.0117
 30
0.0
 10
-146.2275
 20
-19.5949
 30
0.0
 10
-146.2275
 20
-19.5949
 30
0.0
 10
-147.8249
 20
-21.4006
 30
0.0
 10
-150.0474
 20
-23.2758
 30
0.0
 10
-153.2423
 20
-24.804
 30
0.0
 10
-153.2423
 20
-24.804
 30
0.0
 10
-149.8391
 20
-24.5955
 30
0.0
 10
-148.3805
 20
-24.7345
 30
0.0
 10
-145.1163
 20
-23.3453
 30
0.0
  0
SPLINE
  5
6C
330
1F
100
AcDbEntity
  8
layer 1
 62
     7
370
    20
100
AcDbSpline
210
0.0
220
0.0
230
1.0
 70
    11
 71
     3
 72
    20
 73
    16
 74
     0
 42
0.0000000001
 43
0.0000000001
 12
1.0
 22
0.0
 32
0.0
 13
1.0
 23
0.0
 33
0.0
 40
0.0
 40
0.0
 40
0.0
 40
0.0
 40
0.2
 40
0.2
 40
0.2
 40
0.2
 40
0.4
 40
0.4
 40
0.4
 40
0.4
 40
0.6
 40
0.6
 40
0.6
 40
0.6
 40
1.0
 40
1.0
 40
1.0
 40
1.0
 10
-145.1163
 20
-65.6419
 30
0.0
 10
-143.3106
 20
-66.4058
 30
0.0
 10
-141.6437
 20
-67.4476
 30
0.0
 10
-140.1853
 20
-68.8367
 30
0.0
 10
-140.1853
 20
-68.8367
 30
0.0
 10
-142.2688
 20
-68.7673
 30
0.0
 10
-144.283
 20
-68.9755
 30
0.0
 10
-146.2275
 20
-69.3923
 30
0.0
 10
-146.2275
 20
-69.3923
 30
0.0
 10
-147.8249
 20
-67.5866
 30
0.0
 10
-150.0474
 20
-65.7114
 30
0.0
 10
-153.2423
 20
-64.2528
 30
0.0
 10
-153.2423
 20
-64.2528
 30
0.0
 10
-149.8391
 20
-64.3918
 30
0.0
 10
-148.3805
 20
-64.2528
 30
0.0
 10
-145.1163
 20
-65.6419
 30
0.0
  0
SPLINE
  5
6D
330
1F
100
AcDbEntity
  8
layer 1
 62
     7
370
    20
100
AcDbSpline
210
0.0
220
0.0
230
1.0
 70
    11
 71
     3
 72
    20
 73
    16
 74
     0
 42
0.0000000001
 43
0.0000000001
 12
1.0
 22
0.0
 32
0.0
 13
1.0
 23
0.0
 33
0.0
 40
0.0
 40
0.0
 40
0.0
 40
0.0
 40
0.2
 40
0.2
 40
0.2
 40
0.2
 40
0.4
 40
0.4
 40
0.4
 40
0.4
 40
0.6
 40
0.6
 40
0.6
 40
0.6
 40
1.0
 40
1.0
 40
1.0
 40
1.0
 10
-145.1163
 20
58.0527
 30
0.0
 10
-143.3106
 20
57.2888
 30
0.0
 10
-141.6437
 20
56.247
 30
0.0
 10
-140.1853
 20
54.8581
 30
0.0
 10
-140.1853
 20
54.8581
 30
0.0
 10
-142.2688
 20
54.9273
 30
0.0
 10
-144.283
 20
54.7191
 30
0.0
 10
-146.2275
 20
54.3023
 30
0.0
 10
-146.2275
 20
54.3023
 30
0.0
 10
-147.8249
 20
56.1082
 30
0.0
 10
-150.0474
 20
57.9834
 30
0.0
 10
-153.2423
 20
59.5113
 30
0.0
 10
-153.2423
 20
59.5113
 30
0.0
 10
-149.8391
 20
59.3028
 30
0.0
 10
-148.3805
 20
59.4418
 30
0.0
 10
-145.1163
 20
58.0527
 30
0.0
  0
SPLINE
  5
6E
330
1F
100
AcDbEntity
  8
layer 1
 62
     7
370
    20
100
AcDbSpline
210
0.0
220
0.0
230
1.0
 70
    11
 71
     3
 72
    16
 73
    12
 74
     0
 42
0.0000000001
 43
0.0000000001
 12
1.0
 22
0.0
 32
0.0
 13
1.0
 23
0.0
 33
0.0
 40
0.0
 40
0.0
 40
0.0
 40
0.0
 40
0.25
 40
0.25
 40
0.25
 40
0.25
 40
0.5
 40
0.5
 40
0.5
 40
0.5
 40
1.0
 40
1.0
 40
1.0
 40
1.0
 10
-181.926
 20
-79.5323
 30
0.0
 10
-181.926
 20
-79.5323
 30
0.0
 10
-181.926
 20
-105.4382
 30
0.0
 10
-181.926
 20
-105.4382
 30
0.0
 10
-181.926
 20
-105.4382
 30
0.0
 10
-179.4258
 20
-103.0072
 30
0.0
 10
-176.995
 20
-100.2986
 30
0.0
 10
-174.842
 20
-97.59
 30
0.0
 10
-174.842
 20
-97.59
 30
0.0
 10
-178.3146
 20
-93.6311
 30
0.0
 10
-181.2315
 20
-86.6165
 30
0.0
 10
-181.926
 20
-79.5323
 30
0.0
  0
SPLINE
  5
6F
330
1F
100
AcDbEntity
  8
layer 1
 62
     7
370
    20
100
AcDbSpline
210
0.0
220
0.0
230
1.0
 70
    11
 71
     3
 72
    16
 73
    12
 74
     0
 42
0.0000000001
 43
0.0000000001
 12
1.0
 22
0.0
 32
0.0
 13
1.0
 23
0.0
 33
0.0
 40
0.0
 40
0.0
 40
0.0
 40
0.0
 40
0.25
 40
0.25
 40
0.25
 40
0.25
 40
0.5
 40
0.5
 40
0.5
 40
0.5
 40
1.0
 40
1.0
 40
1.0
 40
1.0
 10
-181.926
 20
-48.9733
 30
0.0
 10
-181.926
 20
-48.9733
 30
0.0
 10
-181.926
 20
-72.726
 30
0.0
 10
-181.926
 20
-72.726
 30
0.0
 10
-181.926
 20
-72.726
 30
0.0
 10
-180.9537
 20
-60.7108
 30
0.0
 10
-175.5365
 20
-54.7379
 30
0.0
 10
-175.5365
 20
-54.7379
 30
0.0
 10
-175.5365
 20
-54.7379
 30
0.0
 10
-175.5365
 20
-54.7379
 30
0.0
 10
-181.0232
 20
-54.1823
 30
0.0
 10
-181.926
 20
-48.9733
 30
0.0
  0
SPLINE
  5
70
330
1F
100
AcDbEntity
  8
layer 1
 62
     7
370
    20
100
AcDbSpline
210
0.0
220
0.0
230
1.0
 70
    11
 71
     3
 72
    16
 73
    12
 74
     0
 42
0.0000000001
 43
0.0000000001
 12
1.0
 22
0.0
 32
0.0
 13
1.0
 23
0.0
 33
0.0
 40
0.0
 40
0.0
 40
0.0
 40
0.0
 40
0.25
 40
0.25
 40
0.25
 40
0.25
 40
0.5
 40
0.5
 40
0.5
 40
0.5
 40
1.0
 40
1.0
 40
1.0
 40
1.0
 10
-181.926
 20
-43.1393
 30
0.0
 10
-181.926
 20
-43.1393
 30
0.0
 10
-181.926
 20
-45.8479
 30
0.0
 10
-181.926
 20
-45.8479
 30
0.0
 10
-181.926
 20
-45.8479
 30
0.0
 10
-181.8566
 20
-45.4313
 30
0.0
 10
-181.7873
 20
-44.945
 30
0.0
 10
-181.6483
 20
-44.5283
 30
0.0
 10
-181.6483
 20
-44.5283
 30
0.0
 10
-181.7873
 20
-44.0422
 30
0.0
 10
-181.8566
 20
-43.5561
 30
0.0
 10
-181.926
 20
-43.1393
 30
0.0
  0
SPLINE
  5
71
330
1F
100
AcDbEntity
  8
layer 1
 62
     7
370
    20
100
AcDbSpline
210
0.0
220
0.0
230
1.0
 70
    11
 71
     3
 72
    16
 73
    12
 74
     0
 42
0.0000000001
 43
0.0000000001
 12
1.0
 22
0.0
 32
0.0
 13
1.0
 23
0.0
 33
0.0
 40
0.0
 40
0.0
 40
0.0
 40
0.0
 40
0.25
 40
0.25
 40
0.25
 40
0.25
 40
0.5
 40
0.5
 40
0.5
 40
0.5
 40
1.0
 40
1.0
 40
1.0
 40
1.0
 10
-181.926
 20
-16.3308
 30
0.0
 10
-181.926
 20
-16.3308
 30
0.0
 10
-181.926
 20
-40.014
 30
0.0
 10
-181.926
 20
-40.014
 30
0.0
 10
-181.926
 20
-40.014
 30
0.0
 10
-181.0232
 20
-34.8051
 30
0.0
 10
-175.5365
 20
-34.2493
 30
0.0
 10
-175.5365
 20
-34.2493
 30
0.0
 10
-175.5365
 20
-34.2493
 30
0.0
 10
-175.5365
 20
-34.2493
 30
0.0
 10
-180.9537
 20
-28.2764
 30
0.0
 10
-181.926
 20
-16.3308
 30
0.0
  0
SPLINE
  5
72
330
1F
100
AcDbEntity
  8
layer 1
 62
     7
370
    20
100
AcDbSpline
210
0.0
220
0.0
230
1.0
 70
    11
 71
     3
 72
    16
 73
    12
 74
     0
 42
0.0000000001
 43
0.0000000001
 12
1.0
 22
0.0
 32
0.0
 13
1.0
 23
0.0
 33
0.0
 40
0.0
 40
0.0
 40
0.0
 40
0.0
 40
0.25
 40
0.25
 40
0.25
 40
0.25
 40
0.5
 40
0.5
 40
0.5
 40
0.5
 40
1.0
 40
1.0
 40
1.0
 40
1.0
 10
-181.926
 20
16.4507
 30
0.0
 10
-181.926
 20
16.4507
 30
0.0
 10
-181.926
 20
-9.455
 30
0.0
 10
-181.926
 20
-9.455
 30
0.0
 10
-181.926
 20
-9.455
 30
0.0
 10
-181.2315
 20
-2.3707
 30
0.0
 10
-178.3146
 20
4.6439
 30
0.0
 10
-174.842
 20
8.6028
 30
0.0
 10
-174.842
 20
8.6028
 30
0.0
 10
-176.995
 20
11.2419
 30
0.0
 10
-179.4258
 20
13.9504
 30
0.0
 10
-181.926
 20
16.4507
 30
0.0
  0
SPLINE
  5
73
330
1F
100
AcDbEntity
  8
layer 1
 62
     7
370
    20
100
AcDbSpline
210
0.0
220
0.0
230
1.0
 70
    11
 71
     3
 72
    16
 73
    12
 74
     0
 42
0.0000000001
 43
0.0000000001
 12
1.0
 22
0.0
 32
0.0
 13
1.0
 23
0.0
 33
0.0
 40
0.0
 40
0.0
 40
0.0
 40
0.0
 40
0.25
 40
0.25
 40
0.25
 40
0.25
 40
0.5
 40
0.5
 40
0.5
 40
0.5
 40
1.0
 40
1.0
 40
1.0
 40
1.0
 10
-181.926
 20
44.1623
 30
0.0
 10
-181.926
 20
44.1623
 30
0.0
 10
-181.926
 20
18.2566
 30
0.0
 10
-181.926
 20
18.2566
 30
0.0
 10
-181.926
 20
18.2566
 30
0.0
 10
-179.4258
 20
20.6874
 30
0.0
 10
-176.995
 20
23.4655
 30
0.0
 10
-174.842
 20
26.1048
 30
0.0
 10
-174.842
 20
26.1048
 30
0.0
 10
-178.3146
 20
30.0635
 30
0.0
 10
-181.2315
 20
37.0781
 30
0.0
 10
-181.926
 20
44.1623
 30
0.0
  0
SPLINE
  5
74
330
1F
100
AcDbEntity
  8
layer 1
 62
     7
370
    20
100
AcDbSpline
210
0.0
220
0.0
230
1.0
 70
    11
 71
     3
 72
    16
 73
    12
 74
     0
 42
0.0000000001
 43
0.0000000001
 12
1.0
 22
0.0
 32
0.0
 13
1.0
 23
0.0
 33
0.0
 40
0.0
 40
0.0
 40
0.0
 40
0.0
 40
0.25
 40
0.25
 40
0.25
 40
0.25
 40
0.5
 40
0.5
 40
0.5
 40
0.5
 40
1.0
 40
1.0
 40
1.0
 40
1.0
 10
-181.926
 20
74.7213
 30
0.0
 10
-181.926
 20
74.7213
 30
0.0
 10
-181.926
 20
51.0381
 30
0.0
 10
-181.926
 20
51.0381
 30
0.0
 10
-181.926
 20
51.0381
 30
0.0
 10
-180.9537
 20
62.984
 30
0.0
 10
-175.5365
 20
68.9567
 30
0.0
 10
-175.5365
 20
68.9567
 30
0.0
 10
-175.5365
 20
68.9567
 30
0.0
 10
-175.5365
 20
68.9567
 30
0.0
 10
-181.0232
 20
69.5125
 30
0.0
 10
-181.926
 20
74.7213
 30
0.0
  0
SPLINE
  5
75
330
1F
100
AcDbEntity
  8
layer 1
 62
     7
370
    20
100
AcDbSpline
210
0.0
220
0.0
230
1.0
 70
    11
 71
     3
 72
    16
 73
    12
 74
     0
 42
0.0000000001
 43
0.0000000001
 12
1.0
 22
0.0
 32
0.0
 13
1.0
 23
0.0
 33
0.0
 40
0.0
 40
0.0
 40
0.0
 40
0.0
 40
0.25
 40
0.25
 40
0.25
 40
0.25
 40
0.5
 40
0.5
 40
0.5
 40
0.5
 40
1.0
 40
1.0
 40
1.0
 40
1.0
 10
-181.926
 20
80.5553
 30
0.0
 10
-181.926
 20
80.5553
 30
0.0
 10
-181.926
 20
77.8467
 30
0.0
 10
-181.926
 20
77.8467
 30
0.0
 10
-181.926
 20
77.8467
 30
0.0
 10
-181.8566
 20
78.2635
 30
0.0
 10
-181.7873
 20
78.7496
 30
0.0
 10
-181.6483
 20
79.2358
 30
0.0
 10
-181.6483
 20
79.2358
 30
0.0
 10
-181.7873
 20
79.6524
 30
0.0
 10
-181.8566
 20
80.1387
 30
0.0
 10
-181.926
 20
80.5553
 30
0.0
  0
SPLINE
  5
76
330
1F
100
AcDbEntity
  8
layer 1
 62
     7
370
    20
100
AcDbSpline
210
0.0
220
0.0
230
1.0
 70
    11
 71
     3
 72
    16
 73
    12
 74
     0
 42
0.0000000001
 43
0.0000000001
 12
1.0
 22
0.0
 32
0.0
 13
1.0
 23
0.0
 33
0.0
 40
0.0
 40
0.0
 40
0.0
 40
0.0
 40
0.25
 40
0.25
 40
0.25
 40
0.25
 40
0.5
 40
0.5
 40
0.5
 40
0.5
 40
1.0
 40
1.0
 40
1.0
 40
1.0
 10
-181.926
 20
107.364
 30
0.0
 10
-181.926
 20
107.364
 30
0.0
 10
-181.926
 20
83.6806
 30
0.0
 10
-181.926
 20
83.6806
 30
0.0
 10
-181.926
 20
83.6806
 30
0.0
 10
-181.0232
 20
88.8897
 30
0.0
 10
-175.5365
 20
89.4453
 30
0.0
 10
-175.5365
 20
89.4453
 30
0.0
 10
-175.5365
 20
89.4453
 30
0.0
 10
-175.5365
 20
89.4453
 30
0.0
 10
-180.9537
 20
95.4182
 30
0.0
 10
-181.926
 20
107.364
 30
0.0
  0
SPLINE
  5
77
330
1F
100
AcDbEntity
  8
layer 1
 62
     7
370
    20
100
AcDbSpline
210
0.0
220
0.0
230
1.0
 70
    11
 71
     3
 72
    16
 73
    12
 74
     0
 42
0.0000000001
 43
0.0000000001
 12
1.0
 22
0.0
 32
0.0
 13
1.0
 23
0.0
 33
0.0
 40
0.0
 40
0.0
 40
0.0
 40
0.0
 40
0.25
 40
0.25
 40
0.25
 40
0.25
 40
0.5
 40
0.5
 40
0.5
 40
0.5
 40
1.0
 40
1.0
 40
1.0
 40
1.0
 10
-181.926
 20
122.9213
 30
0.0
 10
-181.926
 20
122.9213
 30
0.0
 10
-181.926
 20
114.2398
 30
0.0
 10
-181.926
 20
114.2398
 30
0.0
 10
-181.926
 20
114.2398
 30
0.0
 10
-181.6483
 20
117.2262
 30
0.0
 10
-180.9537
 20
120.2125
 30
0.0
 10
-179.9813
 20
122.9213
 30
0.0
 10
-179.9813
 20
122.9213
 30
0.0
 10
-179.9813
 20
122.9213
 30
0.0
 10
-181.926
 20
122.9213
 30
0.0
 10
-181.926
 20
122.9213
 30
0.0
  0
SPLINE
  5
78
330
1F
100
AcDbEntity
  8
layer 1
 62
     7
370
    20
100
AcDbSpline
210
0.0
220
0.0
230
1.0
 70
    11
 71
     3
 72
    16
 73
    12
 74
     0
 42
0.0000000001
 43
0.0000000001
 12
1.0
 22
0.0
 32
0.0
 13
1.0
 23
0.0
 33
0.0
 40
0.0
 40
0.0
 40
0.0
 40
0.0
 40
0.25
 40
0.25
 40
0.25
 40
0.25
 40
0.5
 40
0.5
 40
0.5
 40
0.5
 40
1.0
 40
1.0
 40
1.0
 40
1.0
 10
-114.0016
 20
117.504
 30
0.0
 10
-114.0016
 20
117.504
 30
0.0
 10
-114.0016
 20
122.9213
 30
0.0
 10
-114.0016
 20
122.9213
 30
0.0
 10
-114.0016
 20
122.9213
 30
0.0
 10
-114.0016
 20
122.9213
 30
0.0
 10
-114.7656
 20
122.9213
 30
0.0
 10
-114.7656
 20
122.9213
 30
0.0
 10
-114.7656
 20
122.9213
 30
0.0
 10
-114.3489
 20
121.1156
 30
0.0
 10
-114.0711
 20
119.3097
 30
0.0
 10
-114.0016
 20
117.504
 30
0.0
  0
SPLINE
  5
79
330
1F
100
AcDbEntity
  8
layer 1
 62
     7
370
    20
100
AcDbSpline
210
0.0
220
0.0
230
1.0
 70
    11
 71
     3
 72
    16
 73
    12
 74
     0
 42
0.0000000001
 43
0.0000000001
 12
1.0
 22
0.0
 32
0.0
 13
1.0
 23
0.0
 33
0.0
 40
0.0
 40
0.0
 40
0.0
 40
0.0
 40
0.25
 40
0.25
 40
0.25
 40
0.25
 40
0.5
 40
0.5
 40
0.5
 40
0.5
 40
1.0
 40
1.0
 40
1.0
 40
1.0
 10
-114.0016
 20
89.9313
 30
0.0
 10
-114.0016
 20
89.9313
 30
0.0
 10
-114.0016
 20
115.0037
 30
0.0
 10
-114.0016
 20
115.0037
 30
0.0
 10
-114.0016
 20
115.0037
 30
0.0
 10
-114.2101
 20
108.3362
 30
0.0
 10
-115.9463
 20
102.4328
 30
0.0
 10
-118.6551
 20
97.5712
 30
0.0
 10
-118.6551
 20
97.5712
 30
0.0
 10
-115.8768
 20
94.7236
 30
0.0
 10
-114.4879
 20
92.1538
 30
0.0
 10
-114.0016
 20
89.9313
 30
0.0
  0
SPLINE
  5
7A
330
1F
100
AcDbEntity
  8
layer 1
 62
     7
370
    20
100
AcDbSpline
210
0.0
220
0.0
230
1.0
 70
    11
 71
     3
 72
    56
 73
    52
 74
     0
 42
0.0000000001
 43
0.0000000001
 12
1.0
 22
0.0
 32
0.0
 13
1.0
 23
0.0
 33
0.0
 40
0.0
 40
0.0
 40
0.0
 40
0.0
 40
0.0714285714285714
 40
0.0714285714285714
 40
0.0714285714285714
 40
0.0714285714285714
 40
0.1428571428571428
 40
0.1428571428571428
 40
0.1428571428571428
 40
0.1428571428571428
 40
0.2142857142857143
 40
0.2142857142857143
 40
0.2142857142857143
 40
0.2142857142857143
 40
0.2857142857142857
 40
0.2857142857142857
 40
0.2857142857142857
 40
0.2857142857142857
 40
0.3571428571428572
 40
0.3571428571428572
 40
0.3571428571428572
 40
0.3571428571428572
 40
0.4285714285714285
 40
0.4285714285714285
 40
0.4285714285714285
 40
0.4285714285714285
 40
0.5
 40
0.5
 40
0.5
 40
0.5
 40
0.5714285714285714
 40
0.5714285714285714
 40
0.5714285714285714
 40
0.5714285714285714
 40
0.6428571428571429
 40
0.6428571428571429
 40
0.6428571428571429
 40
0.6428571428571429
 40
0.7142857142857143
 40
0.7142857142857143
 40
0.7142857142857143
 40
0.7142857142857143
 40
0.7857142857142857
 40
0.7857142857142857
 40
0.7857142857142857
 40
0.7857142857142857
 40
0.8571428571428571
 40
0.8571428571428571
 40
0.8571428571428571
 40
0.8571428571428571
 40
1.0
 40
1.0
 40
1.0
 40
1.0
 10
-114.0016
 20
72.5683
 30
0.0
 10
-114.0016
 20
72.5683
 30
0.0
 10
-114.0016
 20
85.8336
 30
0.0
 10
-114.0016
 20
85.8336
 30
0.0
 10
-114.0016
 20
85.8336
 30
0.0
 10
-114.6961
 20
82.7083
 30
0.0
 10
-116.9186
 20
80.9026
 30
0.0
 10
-116.9186
 20
80.9026
 30
0.0
 10
-116.9186
 20
80.9026
 30
0.0
 10
-116.9186
 20
80.9026
 30
0.0
 10
-121.0858
 20
79.3051
 30
0.0
 10
-127.4061
 20
86.7367
 30
0.0
 10
-127.4061
 20
86.7367
 30
0.0
 10
-125.6696
 20
88.2646
 30
0.0
 10
-124.0027
 20
89.862
 30
0.0
 10
-122.5443
 20
91.6678
 30
0.0
 10
-122.5443
 20
91.6678
 30
0.0
 10
-122.5443
 20
91.6678
 30
0.0
 10
-122.4748
 20
91.6678
 30
0.0
 10
-122.4748
 20
91.6678
 30
0.0
 10
-122.4748
 20
91.6678
 30
0.0
 10
-113.5155
 20
83.9584
 30
0.0
 10
-116.9186
 20
80.9026
 30
0.0
 10
-116.9186
 20
80.9026
 30
0.0
 10
-116.9186
 20
80.9026
 30
0.0
 10
-117.891
 20
80.208
 30
0.0
 10
-118.8634
 20
79.6524
 30
0.0
 10
-119.8357
 20
79.2358
 30
0.0
 10
-119.8357
 20
79.2358
 30
0.0
 10
-118.8634
 20
78.7496
 30
0.0
 10
-117.891
 20
78.194
 30
0.0
 10
-116.9186
 20
77.4994
 30
0.0
 10
-116.9186
 20
77.4994
 30
0.0
 10
-116.9186
 20
77.4994
 30
0.0
 10
-113.5155
 20
74.4435
 30
0.0
 10
-122.4748
 20
66.7344
 30
0.0
 10
-122.4748
 20
66.7344
 30
0.0
 10
-122.4748
 20
66.7344
 30
0.0
 10
-122.5443
 20
66.7344
 30
0.0
 10
-122.5443
 20
66.7344
 30
0.0
 10
-122.5443
 20
66.7344
 30
0.0
 10
-124.0027
 20
68.5401
 30
0.0
 10
-125.6696
 20
70.1375
 30
0.0
 10
-127.4061
 20
71.6655
 30
0.0
 10
-127.4061
 20
71.6655
 30
0.0
 10
-121.0858
 20
79.0968
 30
0.0
 10
-116.9186
 20
77.4994
 30
0.0
 10
-116.9186
 20
77.4994
 30
0.0
 10
-116.9186
 20
77.4994
 30
0.0
 10
-116.9186
 20
77.4994
 30
0.0
 10
-114.6961
 20
75.6937
 30
0.0
 10
-114.0016
 20
72.5683
 30
0.0
  0
SPLINE
  5
7B
330
1F
100
AcDbEntity
  8
layer 1
 62
     7
370
    20
100
AcDbSpline
210
0.0
220
0.0
230
1.0
 70
    11
 71
     3
 72
    16
 73
    12
 74
     0
 42
0.0000000001
 43
0.0000000001
 12
1.0
 22
0.0
 32
0.0
 13
1.0
 23
0.0
 33
0.0
 40
0.0
 40
0.0
 40
0.0
 40
0.0
 40
0.25
 40
0.25
 40
0.25
 40
0.25
 40
0.5
 40
0.5
 40
0.5
 40
0.5
 40
1.0
 40
1.0
 40
1.0
 40
1.0
 10
-114.0016
 20
43.3983
 30
0.0
 10
-114.0016
 20
43.3983
 30
0.0
 10
-114.0016
 20
68.4706
 30
0.0
 10
-114.0016
 20
68.4706
 30
0.0
 10
-114.0016
 20
68.4706
 30
0.0
 10
-114.4879
 20
66.2481
 30
0.0
 10
-115.8768
 20
63.6783
 30
0.0
 10
-118.6551
 20
60.8308
 30
0.0
 10
-118.6551
 20
60.8308
 30
0.0
 10
-115.9463
 20
55.9692
 30
0.0
 10
-114.2101
 20
50.0658
 30
0.0
 10
-114.0016
 20
43.3983
 30
0.0
  0
SPLINE
  5
7C
330
1F
100
AcDbEntity
  8
layer 1
 62
     7
370
    20
100
AcDbSpline
210
0.0
220
0.0
230
1.0
 70
    11
 71
     3
 72
    16
 73
    12
 74
     0
 42
0.0000000001
 43
0.0000000001
 12
1.0
 22
0.0
 32
0.0
 13
1.0
 23
0.0
 33
0.0
 40
0.0
 40
0.0
 40
0.0
 40
0.0
 40
0.25
 40
0.25
 40
0.25
 40
0.25
 40
0.5
 40
0.5
 40
0.5
 40
0.5
 40
1.0
 40
1.0
 40
1.0
 40
1.0
 10
-114.0016
 20
-6.2601
 30
0.0
 10
-114.0016
 20
-6.2601
 30
0.0
 10
-114.0016
 20
40.9675
 30
0.0
 10
-114.0016
 20
40.9675
 30
0.0
 10
-114.0016
 20
40.9675
 30
0.0
 10
-114.2101
 20
32.7026
 30
0.0
 10
-119.9052
 20
24.7851
 30
0.0
 10
-114.6961
 20
17.3538
 30
0.0
 10
-114.6961
 20
17.3538
 30
0.0
 10
-119.9052
 20
9.9222
 30
0.0
 10
-114.2101
 20
2.0048
 30
0.0
 10
-114.0016
 20
-6.2601
 30
0.0
  0
SPLINE
  5
7D
330
1F
100
AcDbEntity
  8
layer 1
 62
     7
370
    20
100
AcDbSpline
210
0.0
220
0.0
230
1.0
 70
    11
 71
     3
 72
    16
 73
    12
 74
     0
 42
0.0000000001
 43
0.0000000001
 12
1.0
 22
0.0
 32
0.0
 13
1.0
 23
0.0
 33
0.0
 40
0.0
 40
0.0
 40
0.0
 40
0.0
 40
0.25
 40
0.25
 40
0.25
 40
0.25
 40
0.5
 40
0.5
 40
0.5
 40
0.5
 40
1.0
 40
1.0
 40
1.0
 40
1.0
 10
-114.0016
 20
-33.7633
 30
0.0
 10
-114.0016
 20
-33.7633
 30
0.0
 10
-114.0016
 20
-8.6909
 30
0.0
 10
-114.0016
 20
-8.6909
 30
0.0
 10
-114.0016
 20
-8.6909
 30
0.0
 10
-114.2101
 20
-15.3584
 30
0.0
 10
-115.9463
 20
-21.2618
 30
0.0
 10
-118.6551
 20
-26.1234
 30
0.0
 10
-118.6551
 20
-26.1234
 30
0.0
 10
-115.8768
 20
-28.971
 30
0.0
 10
-114.4879
 20
-31.5408
 30
0.0
 10
-114.0016
 20
-33.7633
 30
0.0
  0
SPLINE
  5
7E
330
1F
100
AcDbEntity
  8
layer 1
 62
     7
370
    20
100
AcDbSpline
210
0.0
220
0.0
230
1.0
 70
    11
 71
     3
 72
    56
 73
    52
 74
     0
 42
0.0000000001
 43
0.0000000001
 12
1.0
 22
0.0
 32
0.0
 13
1.0
 23
0.0
 33
0.0
 40
0.0
 40
0.0
 40
0.0
 40
0.0
 40
0.0714285714285714
 40
0.0714285714285714
 40
0.0714285714285714
 40
0.0714285714285714
 40
0.1428571428571428
 40
0.1428571428571428
 40
0.1428571428571428
 40
0.1428571428571428
 40
0.2142857142857143
 40
0.2142857142857143
 40
0.2142857142857143
 40
0.2142857142857143
 40
0.2857142857142857
 40
0.2857142857142857
 40
0.2857142857142857
 40
0.2857142857142857
 40
0.3571428571428572
 40
0.3571428571428572
 40
0.3571428571428572
 40
0.3571428571428572
 40
0.4285714285714285
 40
0.4285714285714285
 40
0.4285714285714285
 40
0.4285714285714285
 40
0.5
 40
0.5
 40
0.5
 40
0.5
 40
0.5714285714285714
 40
0.5714285714285714
 40
0.5714285714285714
 40
0.5714285714285714
 40
0.6428571428571429
 40
0.6428571428571429
 40
0.6428571428571429
 40
0.6428571428571429
 40
0.7142857142857143
 40
0.7142857142857143
 40
0.7142857142857143
 40
0.7142857142857143
 40
0.7857142857142857
 40
0.7857142857142857
 40
0.7857142857142857
 40
0.7857142857142857
 40
0.8571428571428571
 40
0.8571428571428571
 40
0.8571428571428571
 40
0.8571428571428571
 40
1.0
 40
1.0
 40
1.0
 40
1.0
 10
-114.0016
 20
-51.1263
 30
0.0
 10
-114.0016
 20
-51.1263
 30
0.0
 10
-114.0016
 20
-37.861
 30
0.0
 10
-114.0016
 20
-37.861
 30
0.0
 10
-114.0016
 20
-37.861
 30
0.0
 10
-114.6961
 20
-40.9863
 30
0.0
 10
-116.9186
 20
-42.792
 30
0.0
 10
-116.9186
 20
-42.792
 30
0.0
 10
-116.9186
 20
-42.792
 30
0.0
 10
-116.9186
 20
-42.792
 30
0.0
 10
-121.0858
 20
-44.3895
 30
0.0
 10
-127.4061
 20
-36.9581
 30
0.0
 10
-127.4061
 20
-36.9581
 30
0.0
 10
-125.6696
 20
-35.4302
 30
0.0
 10
-124.0027
 20
-33.8328
 30
0.0
 10
-122.5443
 20
-32.0268
 30
0.0
 10
-122.5443
 20
-32.0268
 30
0.0
 10
-122.5443
 20
-32.0268
 30
0.0
 10
-122.4748
 20
-32.0268
 30
0.0
 10
-122.4748
 20
-32.0268
 30
0.0
 10
-122.4748
 20
-32.0268
 30
0.0
 10
-113.5155
 20
-39.7362
 30
0.0
 10
-116.9186
 20
-42.792
 30
0.0
 10
-116.9186
 20
-42.792
 30
0.0
 10
-116.9186
 20
-42.792
 30
0.0
 10
-117.891
 20
-43.4866
 30
0.0
 10
-118.8634
 20
-44.0422
 30
0.0
 10
-119.8357
 20
-44.5283
 30
0.0
 10
-119.8357
 20
-44.5283
 30
0.0
 10
-118.8634
 20
-44.945
 30
0.0
 10
-117.891
 20
-45.5006
 30
0.0
 10
-116.9186
 20
-46.1952
 30
0.0
 10
-116.9186
 20
-46.1952
 30
0.0
 10
-116.9186
 20
-46.1952
 30
0.0
 10
-113.5155
 20
-49.2511
 30
0.0
 10
-122.4748
 20
-56.9604
 30
0.0
 10
-122.4748
 20
-56.9604
 30
0.0
 10
-122.4748
 20
-56.9604
 30
0.0
 10
-122.5443
 20
-57.0297
 30
0.0
 10
-122.5443
 20
-57.0297
 30
0.0
 10
-122.5443
 20
-57.0297
 30
0.0
 10
-124.0027
 20
-55.1545
 30
0.0
 10
-125.6696
 20
-53.5573
 30
0.0
 10
-127.4061
 20
-52.0291
 30
0.0
 10
-127.4061
 20
-52.0291
 30
0.0
 10
-121.0858
 20
-44.5978
 30
0.0
 10
-116.9186
 20
-46.1952
 30
0.0
 10
-116.9186
 20
-46.1952
 30
0.0
 10
-116.9186
 20
-46.1952
 30
0.0
 10
-116.9186
 20
-46.1952
 30
0.0
 10
-114.6961
 20
-48.0009
 30
0.0
 10
-114.0016
 20
-51.1263
 30
0.0
  0
SPLINE
  5
7F
330
1F
100
AcDbEntity
  8
layer 1
 62
     7
370
    20
100
AcDbSpline
210
0.0
220
0.0
230
1.0
 70
    11
 71
     3
 72
    16
 73
    12
 74
     0
 42
0.0000000001
 43
0.0000000001
 12
1.0
 22
0.0
 32
0.0
 13
1.0
 23
0.0
 33
0.0
 40
0.0
 40
0.0
 40
0.0
 40
0.0
 40
0.25
 40
0.25
 40
0.25
 40
0.25
 40
0.5
 40
0.5
 40
0.5
 40
0.5
 40
1.0
 40
1.0
 40
1.0
 40
1.0
 10
-114.0016
 20
-80.2963
 30
0.0
 10
-114.0016
 20
-80.2963
 30
0.0
 10
-114.0016
 20
-55.224
 30
0.0
 10
-114.0016
 20
-55.224
 30
0.0
 10
-114.0016
 20
-55.224
 30
0.0
 10
-114.4879
 20
-57.4465
 30
0.0
 10
-115.8768
 20
-60.0163
 30
0.0
 10
-118.6551
 20
-62.8638
 30
0.0
 10
-118.6551
 20
-62.8638
 30
0.0
 10
-115.9463
 20
-67.7254
 30
0.0
 10
-114.2101
 20
-73.6288
 30
0.0
 10
-114.0016
 20
-80.2963
 30
0.0
  0
SPLINE
  5
80
330
1F
100
AcDbEntity
  8
layer 1
 62
     7
370
    20
100
AcDbSpline
210
0.0
220
0.0
230
1.0
 70
    11
 71
     3
 72
    16
 73
    12
 74
     0
 42
0.0000000001
 43
0.0000000001
 12
1.0
 22
0.0
 32
0.0
 13
1.0
 23
0.0
 33
0.0
 40
0.0
 40
0.0
 40
0.0
 40
0.0
 40
0.25
 40
0.25
 40
0.25
 40
0.25
 40
0.5
 40
0.5
 40
0.5
 40
0.5
 40
1.0
 40
1.0
 40
1.0
 40
1.0
 10
-114.0016
 20
-106.341
 30
0.0
 10
-114.0016
 20
-106.341
 30
0.0
 10
-114.0016
 20
-82.7966
 30
0.0
 10
-114.0016
 20
-82.7966
 30
0.0
 10
-114.0016
 20
-82.7966
 30
0.0
 10
-114.2101
 20
-90.992
 30
0.0
 10
-119.9052
 20
-98.9095
 30
0.0
 10
-114.6961
 20
-106.341
 30
0.0
 10
-114.6961
 20
-106.341
 30
0.0
 10
-114.6961
 20
-106.341
 30
0.0
 10
-114.0016
 20
-106.341
 30
0.0
 10
-114.0016
 20
-106.341
 30
0.0
  0
SPLINE
  5
81
330
1F
100
AcDbEntity
  8
layer 1
 62
     7
370
    20
100
AcDbSpline
210
0.0
220
0.0
230
1.0
 70
    11
 71
     3
 72
    24
 73
    20
 74
     0
 42
0.0000000001
 43
0.0000000001
 12
1.0
 22
0.0
 32
0.0
 13
1.0
 23
0.0
 33
0.0
 40
0.0
 40
0.0
 40
0.0
 40
0.0
 40
0.1666666666666667
 40
0.1666666666666667
 40
0.1666666666666667
 40
0.1666666666666667
 40
0.3333333333333333
 40
0.3333333333333333
 40
0.3333333333333333
 40
0.3333333333333333
 40
0.5
 40
0.5
 40
0.5
 40
0.5
 40
0.6666666666666666
 40
0.6666666666666666
 40
0.6666666666666666
 40
0.6666666666666666
 40
1.0
 40
1.0
 40
1.0
 40
1.0
 10
-145.1163
 20
100.3493
 30
0.0
 10
-143.3106
 20
101.1133
 30
0.0
 10
-141.6437
 20
102.155
 30
0.0
 10
-140.1853
 20
103.5441
 30
0.0
 10
-140.1853
 20
103.5441
 30
0.0
 10
-142.2688
 20
103.4746
 30
0.0
 10
-144.283
 20
103.6829
 30
0.0
 10
-146.2275
 20
104.0997
 30
0.0
 10
-146.2275
 20
104.0997
 30
0.0
 10
-147.8249
 20
102.294
 30
0.0
 10
-150.0474
 20
100.4188
 30
0.0
 10
-153.2423
 20
98.9601
 30
0.0
 10
-153.2423
 20
98.9601
 30
0.0
 10
-149.8391
 20
99.0991
 30
0.0
 10
-148.3805
 20
98.9601
 30
0.0
 10
-145.1163
 20
100.3493
 30
0.0
 10
-145.1163
 20
100.3493
 30
0.0
 10
-145.1163
 20
100.3493
 30
0.0
 10
-145.1163
 20
100.3493
 30
0.0
 10
-145.1163
 20
100.3493
 30
0.0
  0
SPLINE
  5
82
330
1F
100
AcDbEntity
  8
layer 1
 62
   250
370
     9
100
AcDbSpline
210
0.0
220
0.0
230
1.0
 70
    11
 71
     3
 72
    32
 73
    28
 74
     0
 42
0.0000000001
 43
0.0000000001
 12
1.0
 22
0.0
 32
0.0
 13
1.0
 23
0.0
 33
0.0
 40
0.0
 40
0.0
 40
0.0
 40
0.0
 40
0.125
 40
0.125
 40
0.125
 40
0.125
 40
0.25
 40
0.25
 40
0.25
 40
0.25
 40
0.375
 40
0.375
 40
0.375
 40
0.375
 40
0.5
 40
0.5
 40
0.5
 40
0.5
 40
0.625
 40
0.625
 40
0.625
 40
0.625
 40
0.75
 40
0.75
 40
0.75
 40
0.75
 40
1.0
 40
1.0
 40
1.0
 40
1.0
 10
-85.7428
 20
-49.2736
 30
0.0
 10
-85.7428
 20
-49.2736
 30
0.0
 10
-85.7428
 20
-115.0485
 30
0.0
 10
-85.7428
 20
-115.0485
 30
0.0
 10
-85.7428
 20
-115.0485
 30
0.0
 10
-85.7428
 20
-115.0485
 30
0.0
 10
-6.855
 20
-115.0485
 30
0.0
 10
-6.855
 20
-115.0485
 30
0.0
 10
-6.855
 20
-115.0485
 30
0.0
 10
-6.855
 20
-115.0485
 30
0.0
 10
-6.855
 20
-49.2736
 30
0.0
 10
-6.855
 20
-49.2736
 30
0.0
 10
-6.855
 20
-49.2736
 30
0.0
 10
-6.855
 20
-49.2736
 30
0.0
 10
-6.855
 20
132.0325
 30
0.0
 10
-6.855
 20
132.0325
 30
0.0
 10
-6.855
 20
132.0325
 30
0.0
 10
-6.855
 20
132.0325
 30
0.0
 10
-85.7428
 20
132.0325
 30
0.0
 10
-85.7428
 20
132.0325
 30
0.0
 10
-85.7428
 20
132.0325
 30
0.0
 10
-85.7428
 20
132.0325
 30
0.0
 10
-85.7428
 20
-49.2736
 30
0.0
 10
-85.7428
 20
-49.2736
 30
0.0
 10
-85.7428
 20
-49.2736
 30
0.0
 10
-85.7428
 20
-49.2736
 30
0.0
 10
-85.7428
 20
-49.2736
 30
0.0
 10
-85.7428
 20
-49.2736
 30
0.0
  0
SPLINE
  5
83
330
1F
100
AcDbEntity
  8
layer 1
 62
     7
370
     9
100
AcDbSpline
210
0.0
220
0.0
230
1.0
 70
    11
 71
     3
 72
    28
 73
    24
 74
     0
 42
0.0000000001
 43
0.0000000001
 12
1.0
 22
0.0
 32
0.0
 13
1.0
 23
0.0
 33
0.0
 40
0.0
 40
0.0
 40
0.0
 40
0.0
 40
0.1428571428571428
 40
0.1428571428571428
 40
0.1428571428571428
 40
0.1428571428571428
 40
0.2857142857142857
 40
0.2857142857142857
 40
0.2857142857142857
 40
0.2857142857142857
 40
0.4285714285714285
 40
0.4285714285714285
 40
0.4285714285714285
 40
0.4285714285714285
 40
0.5714285714285714
 40
0.5714285714285714
 40
0.5714285714285714
 40
0.5714285714285714
 40
0.7142857142857143
 40
0.7142857142857143
 40
0.7142857142857143
 40
0.7142857142857143
 40
1.0
 40
1.0
 40
1.0
 40
1.0
 10
-80.108
 20
-36.8998
 30
0.0
 10
-64.7339
 20
-48.8652
 30
0.0
 10
-35.4465
 20
-44.3435
 30
0.0
 10
-39.6205
 20
-27.9258
 30
0.0
 10
-39.6205
 20
-27.9258
 30
0.0
 10
-33.3596
 20
-24.0303
 30
0.0
 10
-29.6726
 20
-16.4475
 30
0.0
 10
-28.4898
 20
-12.8996
 30
0.0
 10
-28.4898
 20
-12.8996
 30
0.0
 10
-25.7768
 20
-18.5344
 30
0.0
 10
-29.1159
 20
-30.2216
 30
0.0
 10
-34.0553
 20
-37.3869
 30
0.0
 10
-34.0553
 20
-37.3869
 30
0.0
 10
-37.603
 20
-44.0653
 30
0.0
 10
-42.89
 20
-49.2826
 30
0.0
 10
-50.751
 20
-52.2739
 30
0.0
 10
-50.751
 20
-52.2739
 30
0.0
 10
-64.3164
 20
-52.3435
 30
0.0
 10
-74.5425
 20
-55.5436
 30
0.0
 10
-80.108
 20
-63.3349
 30
0.0
 10
-80.108
 20
-63.3349
 30
0.0
 10
-80.108
 20
-63.3349
 30
0.0
 10
-80.108
 20
-36.8998
 30
0.0
 10
-80.108
 20
-36.8998
 30
0.0
  0
SPLINE
  5
84
330
1F
100
AcDbEntity
  8
layer 1
 62
     7
370
     9
100
AcDbSpline
210
0.0
220
0.0
230
1.0
 70
    11
 71
     3
 72
    32
 73
    28
 74
     0
 42
0.0000000001
 43
0.0000000001
 12
1.0
 22
0.0
 32
0.0
 13
1.0
 23
0.0
 33
0.0
 40
0.0
 40
0.0
 40
0.0
 40
0.0
 40
0.125
 40
0.125
 40
0.125
 40
0.125
 40
0.25
 40
0.25
 40
0.25
 40
0.25
 40
0.375
 40
0.375
 40
0.375
 40
0.375
 40
0.5
 40
0.5
 40
0.5
 40
0.5
 40
0.625
 40
0.625
 40
0.625
 40
0.625
 40
0.75
 40
0.75
 40
0.75
 40
0.75
 40
1.0
 40
1.0
 40
1.0
 40
1.0
 10
-80.108
 20
-7.1951
 30
0.0
 10
-77.2557
 20
-10.1866
 30
0.0
 10
-72.9425
 20
-11.2996
 30
0.0
 10
-64.9425
 20
-9.4213
 30
0.0
 10
-64.9425
 20
-9.4213
 30
0.0
 10
-69.812
 20
-15.6822
 30
0.0
 10
-68.6294
 20
-25.8389
 30
0.0
 10
-63.0642
 20
-28.4129
 30
0.0
 10
-63.0642
 20
-28.4129
 30
0.0
 10
-66.4033
 20
-16.5866
 30
0.0
 10
-45.7422
 20
-21.178
 30
0.0
 10
-50.2641
 20
-5.4561
 30
0.0
 10
-50.2641
 20
-5.4561
 30
0.0
 10
-40.5248
 20
0.8745
 30
0.0
 10
-38.2987
 20
11.2398
 30
0.0
 10
-40.3162
 20
23.9007
 30
0.0
 10
-40.3162
 20
23.9007
 30
0.0
 10
-30.1595
 20
11.6571
 30
0.0
 10
-22.5073
 20
-8.1691
 30
0.0
 10
-43.3075
 20
-25.0736
 30
0.0
 10
-43.3075
 20
-25.0736
 30
0.0
 10
-62.0903
 20
-18.7431
 30
0.0
 10
-62.786
 20
-37.3869
 30
0.0
 10
-80.108
 20
-36.0651
 30
0.0
 10
-80.108
 20
-36.0651
 30
0.0
 10
-80.108
 20
-36.0651
 30
0.0
 10
-80.108
 20
-7.1951
 30
0.0
 10
-80.108
 20
-7.1951
 30
0.0
  0
SPLINE
  5
85
330
1F
100
AcDbEntity
  8
layer 1
 62
     7
370
     9
100
AcDbSpline
210
0.0
220
0.0
230
1.0
 70
    11
 71
     3
 72
    32
 73
    28
 74
     0
 42
0.0000000001
 43
0.0000000001
 12
1.0
 22
0.0
 32
0.0
 13
1.0
 23
0.0
 33
0.0
 40
0.0
 40
0.0
 40
0.0
 40
0.0
 40
0.125
 40
0.125
 40
0.125
 40
0.125
 40
0.25
 40
0.25
 40
0.25
 40
0.25
 40
0.375
 40
0.375
 40
0.375
 40
0.375
 40
0.5
 40
0.5
 40
0.5
 40
0.5
 40
0.625
 40
0.625
 40
0.625
 40
0.625
 40
0.75
 40
0.75
 40
0.75
 40
0.75
 40
1.0
 40
1.0
 40
1.0
 40
1.0
 10
-80.108
 20
31.7617
 30
0.0
 10
-72.6642
 20
22.7181
 30
0.0
 10
-57.7772
 20
23.9007
 30
0.0
 10
-54.3685
 20
41.5009
 30
0.0
 10
-54.3685
 20
41.5009
 30
0.0
 10
-50.751
 20
38.3705
 30
0.0
 10
-48.2466
 20
34.0574
 30
0.0
 10
-46.7162
 20
29.8834
 30
0.0
 10
-46.7162
 20
29.8834
 30
0.0
 10
-43.1684
 20
20.4224
 30
0.0
 10
-46.7162
 20
7.6223
 30
0.0
 10
-53.0467
 20
5.3267
 30
0.0
 10
-53.0467
 20
5.3267
 30
0.0
 10
-54.1597
 20
16.4572
 30
0.0
 10
-65.499
 20
4.8397
 30
0.0
 10
-69.5338
 20
19.379
 30
0.0
 10
-69.5338
 20
19.379
 30
0.0
 10
-73.847
 20
13.8138
 30
0.0
 10
-72.247
 20
6.5789
 30
0.0
 10
-67.2382
 20
0.9441
 30
0.0
 10
-67.2382
 20
0.9441
 30
0.0
 10
-70.5773
 20
2.057
 30
0.0
 10
-75.9339
 20
1.7788
 30
0.0
 10
-80.108
 20
-1.143
 30
0.0
 10
-80.108
 20
-1.143
 30
0.0
 10
-80.108
 20
-1.143
 30
0.0
 10
-80.108
 20
31.7617
 30
0.0
 10
-80.108
 20
31.7617
 30
0.0
  0
SPLINE
  5
86
330
1F
100
AcDbEntity
  8
layer 1
 62
     7
370
     9
100
AcDbSpline
210
0.0
220
0.0
230
1.0
 70
    11
 71
     3
 72
    24
 73
    20
 74
     0
 42
0.0000000001
 43
0.0000000001
 12
1.0
 22
0.0
 32
0.0
 13
1.0
 23
0.0
 33
0.0
 40
0.0
 40
0.0
 40
0.0
 40
0.0
 40
0.1666666666666667
 40
0.1666666666666667
 40
0.1666666666666667
 40
0.1666666666666667
 40
0.3333333333333333
 40
0.3333333333333333
 40
0.3333333333333333
 40
0.3333333333333333
 40
0.5
 40
0.5
 40
0.5
 40
0.5
 40
0.6666666666666666
 40
0.6666666666666666
 40
0.6666666666666666
 40
0.6666666666666666
 40
1.0
 40
1.0
 40
1.0
 40
1.0
 10
-80.108
 20
92.0059
 30
0.0
 10
-77.8818
 20
87.2058
 30
0.0
 10
-72.8731
 20
83.5188
 30
0.0
 10
-65.6382
 20
85.3971
 30
0.0
 10
-65.6382
 20
85.3971
 30
0.0
 10
-69.8816
 20
75.7275
 30
0.0
 10
-67.2382
 20
66.1968
 30
0.0
 10
-64.8729
 20
55.9011
 30
0.0
 10
-64.8729
 20
55.9011
 30
0.0
 10
-74.4035
 20
54.0924
 30
0.0
 10
-78.4383
 20
49.4315
 30
0.0
 10
-75.3078
 20
42.3357
 30
0.0
 10
-75.3078
 20
42.3357
 30
0.0
 10
-73.2903
 20
37.6748
 30
0.0
 10
-70.0905
 20
31.1356
 30
0.0
 10
-80.108
 20
33.0835
 30
0.0
 10
-80.108
 20
33.0835
 30
0.0
 10
-80.108
 20
33.0835
 30
0.0
 10
-80.108
 20
92.0059
 30
0.0
 10
-80.108
 20
92.0059
 30
0.0
  0
SPLINE
  5
87
330
1F
100
AcDbEntity
  8
layer 1
 62
     7
370
     9
100
AcDbSpline
210
0.0
220
0.0
230
1.0
 70
    11
 71
     3
 72
    28
 73
    24
 74
     0
 42
0.0000000001
 43
0.0000000001
 12
1.0
 22
0.0
 32
0.0
 13
1.0
 23
0.0
 33
0.0
 40
0.0
 40
0.0
 40
0.0
 40
0.0
 40
0.1428571428571428
 40
0.1428571428571428
 40
0.1428571428571428
 40
0.1428571428571428
 40
0.2857142857142857
 40
0.2857142857142857
 40
0.2857142857142857
 40
0.2857142857142857
 40
0.4285714285714285
 40
0.4285714285714285
 40
0.4285714285714285
 40
0.4285714285714285
 40
0.5714285714285714
 40
0.5714285714285714
 40
0.5714285714285714
 40
0.5714285714285714
 40
0.7142857142857143
 40
0.7142857142857143
 40
0.7142857142857143
 40
0.7142857142857143
 40
1.0
 40
1.0
 40
1.0
 40
1.0
 10
-39.6205
 20
123.3106
 30
0.0
 10
-39.3423
 20
123.1714
 30
0.0
 10
-39.1334
 20
122.9627
 30
0.0
 10
-38.8552
 20
122.8235
 30
0.0
 10
-38.8552
 20
122.8235
 30
0.0
 10
-44.351
 20
119.9019
 30
0.0
 10
-49.4988
 20
114.3364
 30
0.0
 10
-62.3685
 20
119.0669
 30
0.0
 10
-62.3685
 20
119.0669
 30
0.0
 10
-63.1338
 20
114.1278
 30
0.0
 10
-60.1424
 20
110.4408
 30
0.0
 10
-53.4642
 20
108.0061
 30
0.0
 10
-53.4642
 20
108.0061
 30
0.0
 10
-60.5598
 20
98.4058
 30
0.0
 10
-68.2122
 20
90.2666
 30
0.0
 10
-80.108
 20
98.8233
 30
0.0
 10
-80.108
 20
98.8233
 30
0.0
 10
-80.108
 20
98.8233
 30
0.0
 10
-80.108
 20
123.3106
 30
0.0
 10
-80.108
 20
123.3106
 30
0.0
 10
-80.108
 20
123.3106
 30
0.0
 10
-80.108
 20
123.3106
 30
0.0
 10
-39.6205
 20
123.3106
 30
0.0
 10
-39.6205
 20
123.3106
 30
0.0
  0
SPLINE
  5
88
330
1F
100
AcDbEntity
  8
layer 1
 62
     7
370
     9
100
AcDbSpline
210
0.0
220
0.0
230
1.0
 70
    11
 71
     3
 72
    20
 73
    16
 74
     0
 42
0.0000000001
 43
0.0000000001
 12
1.0
 22
0.0
 32
0.0
 13
1.0
 23
0.0
 33
0.0
 40
0.0
 40
0.0
 40
0.0
 40
0.0
 40
0.2
 40
0.2
 40
0.2
 40
0.2
 40
0.4
 40
0.4
 40
0.4
 40
0.4
 40
0.6
 40
0.6
 40
0.6
 40
0.6
 40
1.0
 40
1.0
 40
1.0
 40
1.0
 10
-12.4898
 20
111.8321
 30
0.0
 10
-19.2377
 20
115.5886
 30
0.0
 10
-27.1682
 20
119.2758
 30
0.0
 10
-30.2987
 20
122.8235
 30
0.0
 10
-30.2987
 20
122.8235
 30
0.0
 10
-30.2291
 20
123.0323
 30
0.0
 10
-30.0899
 20
123.1714
 30
0.0
 10
-29.8812
 20
123.3106
 30
0.0
 10
-29.8812
 20
123.3106
 30
0.0
 10
-29.8812
 20
123.3106
 30
0.0
 10
-12.4898
 20
123.3106
 30
0.0
 10
-12.4898
 20
123.3106
 30
0.0
 10
-12.4898
 20
123.3106
 30
0.0
 10
-12.4898
 20
123.3106
 30
0.0
 10
-12.4898
 20
111.8321
 30
0.0
 10
-12.4898
 20
111.8321
 30
0.0
  0
SPLINE
  5
89
330
1F
100
AcDbEntity
  8
layer 1
 62
     7
370
     9
100
AcDbSpline
210
0.0
220
0.0
230
1.0
 70
    11
 71
     3
 72
    28
 73
    24
 74
     0
 42
0.0000000001
 43
0.0000000001
 12
1.0
 22
0.0
 32
0.0
 13
1.0
 23
0.0
 33
0.0
 40
0.0
 40
0.0
 40
0.0
 40
0.0
 40
0.1428571428571428
 40
0.1428571428571428
 40
0.1428571428571428
 40
0.1428571428571428
 40
0.2857142857142857
 40
0.2857142857142857
 40
0.2857142857142857
 40
0.2857142857142857
 40
0.4285714285714285
 40
0.4285714285714285
 40
0.4285714285714285
 40
0.4285714285714285
 40
0.5714285714285714
 40
0.5714285714285714
 40
0.5714285714285714
 40
0.5714285714285714
 40
0.7142857142857143
 40
0.7142857142857143
 40
0.7142857142857143
 40
0.7142857142857143
 40
1.0
 40
1.0
 40
1.0
 40
1.0
 10
-12.4898
 20
84.4928
 30
0.0
 10
-14.2985
 20
86.7883
 30
0.0
 10
-16.8725
 20
87.9711
 30
0.0
 10
-19.029
 20
88.6666
 30
0.0
 10
-19.029
 20
88.6666
 30
0.0
 10
-14.2985
 20
93.5363
 30
0.0
 10
-14.7158
 20
98.7537
 30
0.0
 10
-17.429
 20
104.1103
 30
0.0
 10
-17.429
 20
104.1103
 30
0.0
 10
-18.6812
 20
94.4407
 30
0.0
 10
-31.0638
 20
101.6755
 30
0.0
 10
-37.3248
 20
96.1103
 30
0.0
 10
-37.3248
 20
96.1103
 30
0.0
 10
-43.0988
 20
102.4407
 30
0.0
 10
-40.2466
 20
110.4408
 30
0.0
 10
-33.4292
 20
119.2062
 30
0.0
 10
-33.4292
 20
119.2062
 30
0.0
 10
-28.003
 20
114.6843
 30
0.0
 10
-17.3594
 20
109.4669
 30
0.0
 10
-12.4898
 20
106.9625
 30
0.0
 10
-12.4898
 20
106.9625
 30
0.0
 10
-12.4898
 20
106.9625
 30
0.0
 10
-12.4898
 20
84.4928
 30
0.0
 10
-12.4898
 20
84.4928
 30
0.0
  0
SPLINE
  5
8A
330
1F
100
AcDbEntity
  8
layer 1
 62
     7
370
     9
100
AcDbSpline
210
0.0
220
0.0
230
1.0
 70
    11
 71
     3
 72
    56
 73
    52
 74
     0
 42
0.0000000001
 43
0.0000000001
 12
1.0
 22
0.0
 32
0.0
 13
1.0
 23
0.0
 33
0.0
 40
0.0
 40
0.0
 40
0.0
 40
0.0
 40
0.0714285714285714
 40
0.0714285714285714
 40
0.0714285714285714
 40
0.0714285714285714
 40
0.1428571428571428
 40
0.1428571428571428
 40
0.1428571428571428
 40
0.1428571428571428
 40
0.2142857142857143
 40
0.2142857142857143
 40
0.2142857142857143
 40
0.2142857142857143
 40
0.2857142857142857
 40
0.2857142857142857
 40
0.2857142857142857
 40
0.2857142857142857
 40
0.3571428571428572
 40
0.3571428571428572
 40
0.3571428571428572
 40
0.3571428571428572
 40
0.4285714285714285
 40
0.4285714285714285
 40
0.4285714285714285
 40
0.4285714285714285
 40
0.5
 40
0.5
 40
0.5
 40
0.5
 40
0.5714285714285714
 40
0.5714285714285714
 40
0.5714285714285714
 40
0.5714285714285714
 40
0.6428571428571429
 40
0.6428571428571429
 40
0.6428571428571429
 40
0.6428571428571429
 40
0.7142857142857143
 40
0.7142857142857143
 40
0.7142857142857143
 40
0.7142857142857143
 40
0.7857142857142857
 40
0.7857142857142857
 40
0.7857142857142857
 40
0.7857142857142857
 40
0.8571428571428571
 40
0.8571428571428571
 40
0.8571428571428571
 40
0.8571428571428571
 40
1.0
 40
1.0
 40
1.0
 40
1.0
 10
-12.4898
 20
43.0314
 30
0.0
 10
-21.8812
 20
52.4924
 30
0.0
 10
-30.9248
 20
34.6835
 30
0.0
 10
-44.9771
 20
42.0574
 30
0.0
 10
-44.9771
 20
42.0574
 30
0.0
 10
-57.2901
 20
53.0489
 30
0.0
 10
-66.4033
 20
70.2316
 30
0.0
 10
-60.3512
 20
84.91
 30
0.0
 10
-60.3512
 20
84.91
 30
0.0
 10
-59.5163
 20
77.3275
 30
0.0
 10
-58.2641
 20
72.8752
 30
0.0
 10
-50.8206
 20
63.2056
 30
0.0
 10
-50.8206
 20
63.2056
 30
0.0
 10
-48.4554
 20
44.9793
 30
0.0
 10
-27.8637
 20
44.2836
 30
0.0
 10
-15.5507
 20
54.3707
 30
0.0
 10
-15.5507
 20
54.3707
 30
0.0
 10
-24.0378
 20
52.3532
 30
0.0
 10
-29.1855
 20
54.7881
 30
0.0
 10
-30.8552
 20
61.6055
 30
0.0
 10
-30.8552
 20
61.6055
 30
0.0
 10
-34.0553
 20
72.3187
 30
0.0
 10
-41.7074
 20
70.4405
 30
0.0
 10
-48.7337
 20
70.2316
 30
0.0
 10
-48.7337
 20
70.2316
 30
0.0
 10
-58.8208
 20
82.9623
 30
0.0
 10
-56.6641
 20
98.8929
 30
0.0
 10
-45.3944
 20
108.98
 30
0.0
 10
-45.3944
 20
108.98
 30
0.0
 10
-45.0467
 20
96.3189
 30
0.0
 10
-44.0032
 20
90.1276
 30
0.0
 10
-39.8987
 20
85.3275
 30
0.0
 10
-39.8987
 20
85.3275
 30
0.0
 10
-39.8291
 20
81.0841
 30
0.0
 10
-39.4813
 20
76.7014
 30
0.0
 10
-31.3421
 20
71.4144
 30
0.0
 10
-31.3421
 20
71.4144
 30
0.0
 10
-26.9594
 20
69.7448
 30
0.0
 10
-25.9161
 20
65.1535
 30
0.0
 10
-26.6812
 20
62.2316
 30
0.0
 10
-26.6812
 20
62.2316
 30
0.0
 10
-20.6289
 20
64.6664
 30
0.0
 10
-19.2377
 20
70.023
 30
0.0
 10
-22.5073
 20
78.3014
 30
0.0
 10
-22.5073
 20
78.3014
 30
0.0
 10
-18.6116
 20
77.2579
 30
0.0
 10
-15.6897
 20
78.6491
 30
0.0
 10
-12.4898
 20
79.484
 30
0.0
 10
-12.4898
 20
79.484
 30
0.0
 10
-12.4898
 20
79.484
 30
0.0
 10
-12.4898
 20
43.0314
 30
0.0
 10
-12.4898
 20
43.0314
 30
0.0
  0
SPLINE
  5
8B
330
1F
100
AcDbEntity
  8
layer 1
 62
     7
370
     9
100
AcDbSpline
210
0.0
220
0.0
230
1.0
 70
    11
 71
     3
 72
    24
 73
    20
 74
     0
 42
0.0000000001
 43
0.0000000001
 12
1.0
 22
0.0
 32
0.0
 13
1.0
 23
0.0
 33
0.0
 40
0.0
 40
0.0
 40
0.0
 40
0.0
 40
0.1666666666666667
 40
0.1666666666666667
 40
0.1666666666666667
 40
0.1666666666666667
 40
0.3333333333333333
 40
0.3333333333333333
 40
0.3333333333333333
 40
0.3333333333333333
 40
0.5
 40
0.5
 40
0.5
 40
0.5
 40
0.6666666666666666
 40
0.6666666666666666
 40
0.6666666666666666
 40
0.6666666666666666
 40
1.0
 40
1.0
 40
1.0
 40
1.0
 10
-12.4898
 20
7.8311
 30
0.0
 10
-27.029
 20
2.3353
 30
0.0
 10
-28.6291
 20
18.8225
 30
0.0
 10
-38.9944
 20
32.4574
 30
0.0
 10
-38.9944
 20
32.4574
 30
0.0
 10
-35.3769
 20
30.9966
 30
0.0
 10
-31.6203
 20
29.8138
 30
0.0
 10
-28.2116
 20
29.7444
 30
0.0
 10
-28.2116
 20
29.7444
 30
0.0
 10
-22.1595
 20
29.4661
 30
0.0
 10
-21.4638
 20
31.2748
 30
0.0
 10
-19.6551
 20
35.24
 30
0.0
 10
-19.6551
 20
35.24
 30
0.0
 10
-17.9159
 20
39.0662
 30
0.0
 10
-15.968
 20
40.9445
 30
0.0
 10
-12.4898
 20
40.4574
 30
0.0
 10
-12.4898
 20
40.4574
 30
0.0
 10
-12.4898
 20
40.4574
 30
0.0
 10
-12.4898
 20
7.8311
 30
0.0
 10
-12.4898
 20
7.8311
 30
0.0
  0
SPLINE
  5
8C
330
1F
100
AcDbEntity
  8
layer 1
 62
     7
370
     9
100
AcDbSpline
210
0.0
220
0.0
230
1.0
 70
    11
 71
     3
 72
    56
 73
    52
 74
     0
 42
0.0000000001
 43
0.0000000001
 12
1.0
 22
0.0
 32
0.0
 13
1.0
 23
0.0
 33
0.0
 40
0.0
 40
0.0
 40
0.0
 40
0.0
 40
0.0714285714285714
 40
0.0714285714285714
 40
0.0714285714285714
 40
0.0714285714285714
 40
0.1428571428571428
 40
0.1428571428571428
 40
0.1428571428571428
 40
0.1428571428571428
 40
0.2142857142857143
 40
0.2142857142857143
 40
0.2142857142857143
 40
0.2142857142857143
 40
0.2857142857142857
 40
0.2857142857142857
 40
0.2857142857142857
 40
0.2857142857142857
 40
0.3571428571428572
 40
0.3571428571428572
 40
0.3571428571428572
 40
0.3571428571428572
 40
0.4285714285714285
 40
0.4285714285714285
 40
0.4285714285714285
 40
0.4285714285714285
 40
0.5
 40
0.5
 40
0.5
 40
0.5
 40
0.5714285714285714
 40
0.5714285714285714
 40
0.5714285714285714
 40
0.5714285714285714
 40
0.6428571428571429
 40
0.6428571428571429
 40
0.6428571428571429
 40
0.6428571428571429
 40
0.7142857142857143
 40
0.7142857142857143
 40
0.7142857142857143
 40
0.7142857142857143
 40
0.7857142857142857
 40
0.7857142857142857
 40
0.7857142857142857
 40
0.7857142857142857
 40
0.8571428571428571
 40
0.8571428571428571
 40
0.8571428571428571
 40
0.8571428571428571
 40
1.0
 40
1.0
 40
1.0
 40
1.0
 10
-28.9073
 20
-106.3268
 30
0.0
 10
-28.9073
 20
-106.3268
 30
0.0
 10
-12.4898
 20
-106.3268
 30
0.0
 10
-12.4898
 20
-106.3268
 30
0.0
 10
-12.4898
 20
-106.3268
 30
0.0
 10
-12.4898
 20
-106.3268
 30
0.0
 10
-12.4898
 20
1.0135
 30
0.0
 10
-12.4898
 20
1.0135
 30
0.0
 10
-12.4898
 20
1.0135
 30
0.0
 10
-14.0897
 20
-1.2821
 30
0.0
 10
-17.2202
 20
-2.9517
 30
0.0
 10
-23.4117
 20
-1.8385
 30
0.0
 10
-23.4117
 20
-1.8385
 30
0.0
 10
-20.7681
 20
-16.2387
 30
0.0
 10
-22.3681
 20
-28.7606
 30
0.0
 10
-28.9769
 20
-39.0565
 30
0.0
 10
-28.9769
 20
-39.0565
 30
0.0
 10
-21.1159
 20
-39.0565
 30
0.0
 10
-17.7768
 20
-46.013
 30
0.0
 10
-22.5073
 20
-54.1522
 30
0.0
 10
-22.5073
 20
-54.1522
 30
0.0
 10
-29.4638
 20
-62.1524
 30
0.0
 10
-28.1422
 20
-67.9958
 30
0.0
 10
-18.542
 20
-71.7524
 30
0.0
 10
-18.542
 20
-71.7524
 30
0.0
 10
-28.4898
 20
-74.6046
 30
0.0
 10
-37.603
 20
-66.048
 30
0.0
 10
-38.8552
 20
-54.4304
 30
0.0
 10
-38.8552
 20
-54.4304
 30
0.0
 10
-37.8118
 20
-52.5521
 30
0.0
 10
-59.5859
 20
-67.0915
 30
0.0
 10
-46.0901
 20
-82.9525
 30
0.0
 10
-46.0901
 20
-82.9525
 30
0.0
 10
-42.9596
 20
-73.5611
 30
0.0
 10
-33.4292
 20
-83.8568
 30
0.0
 10
-31.3421
 20
-71.6134
 30
0.0
 10
-31.3421
 20
-71.6134
 30
0.0
 10
-26.1247
 20
-74.396
 30
0.0
 10
-22.3681
 20
-78.1526
 30
0.0
 10
-26.7508
 20
-85.3178
 30
0.0
 10
-26.7508
 20
-85.3178
 30
0.0
 10
-24.1768
 20
-82.6742
 30
0.0
 10
-20.142
 20
-85.5961
 30
0.0
 10
-14.4375
 20
-90.7438
 30
0.0
 10
-14.4375
 20
-90.7438
 30
0.0
 10
-17.429
 20
-94.3614
 30
0.0
 10
-21.8116
 20
-98.5354
 30
0.0
 10
-28.0726
 20
-95.9614
 30
0.0
 10
-28.0726
 20
-95.9614
 30
0.0
 10
-23.2028
 20
-99.857
 30
0.0
 10
-25.7072
 20
-103.0571
 30
0.0
 10
-28.9073
 20
-106.3268
 30
0.0
  0
SPLINE
  5
8D
330
1F
100
AcDbEntity
  8
layer 1
 62
     7
370
     9
100
AcDbSpline
210
0.0
220
0.0
230
1.0
 70
    11
 71
     3
 72
    28
 73
    24
 74
     0
 42
0.0000000001
 43
0.0000000001
 12
1.0
 22
0.0
 32
0.0
 13
1.0
 23
0.0
 33
0.0
 40
0.0
 40
0.0
 40
0.0
 40
0.0
 40
0.1428571428571428
 40
0.1428571428571428
 40
0.1428571428571428
 40
0.1428571428571428
 40
0.2857142857142857
 40
0.2857142857142857
 40
0.2857142857142857
 40
0.2857142857142857
 40
0.4285714285714285
 40
0.4285714285714285
 40
0.4285714285714285
 40
0.4285714285714285
 40
0.5714285714285714
 40
0.5714285714285714
 40
0.5714285714285714
 40
0.5714285714285714
 40
0.7142857142857143
 40
0.7142857142857143
 40
0.7142857142857143
 40
0.7142857142857143
 40
1.0
 40
1.0
 40
1.0
 40
1.0
 10
-80.108
 20
-106.3268
 30
0.0
 10
-80.108
 20
-106.3268
 30
0.0
 10
-30.3681
 20
-106.3268
 30
0.0
 10
-30.3681
 20
-106.3268
 30
0.0
 10
-30.3681
 20
-106.3268
 30
0.0
 10
-33.4292
 20
-94.6396
 30
0.0
 10
-46.7162
 20
-102.431
 30
0.0
 10
-47.9684
 20
-90.5352
 30
0.0
 10
-47.9684
 20
-90.5352
 30
0.0
 10
-57.4294
 20
-80.3091
 30
0.0
 10
-58.9598
 20
-71.6134
 30
0.0
 10
-51.238
 20
-59.7176
 30
0.0
 10
-51.238
 20
-59.7176
 30
0.0
 10
-61.6034
 20
-64.5175
 30
0.0
 10
-71.9687
 20
-56.5175
 30
0.0
 10
-80.108
 20
-63.4046
 30
0.0
 10
-80.108
 20
-63.4046
 30
0.0
 10
-80.108
 20
-63.4046
 30
0.0
 10
-80.108
 20
-106.3268
 30
0.0
 10
-80.108
 20
-106.3268
 30
0.0
 10
-80.108
 20
-106.3268
 30
0.0
 10
-80.108
 20
-106.3268
 30
0.0
 10
-80.108
 20
-106.3268
 30
0.0
 10
-80.108
 20
-106.3268
 30
0.0
  0
SPLINE
  5
8E
330
1F
100
AcDbEntity
  8
layer 1
 62
   250
370
     9
100
AcDbSpline
210
0.0
220
0.0
230
1.0
 70
    11
 71
     3
 72
    32
 73
    28
 74
     0
 42
0.0000000001
 43
0.0000000001
 12
1.0
 22
0.0
 32
0.0
 13
1.0
 23
0.0
 33
0.0
 40
0.0
 40
0.0
 40
0.0
 40
0.0
 40
0.125
 40
0.125
 40
0.125
 40
0.125
 40
0.25
 40
0.25
 40
0.25
 40
0.25
 40
0.375
 40
0.375
 40
0.375
 40
0.375
 40
0.5
 40
0.5
 40
0.5
 40
0.5
 40
0.625
 40
0.625
 40
0.625
 40
0.625
 40
0.75
 40
0.75
 40
0.75
 40
0.75
 40
1.0
 40
1.0
 40
1.0
 40
1.0
 10
15.9864
 20
-49.2642
 30
0.0
 10
15.9864
 20
-49.2642
 30
0.0
 10
15.9864
 20
-115.0485
 30
0.0
 10
15.9864
 20
-115.0485
 30
0.0
 10
15.9864
 20
-115.0485
 30
0.0
 10
15.9864
 20
-115.0485
 30
0.0
 10
94.8855
 20
-115.0485
 30
0.0
 10
94.8855
 20
-115.0485
 30
0.0
 10
94.8855
 20
-115.0485
 30
0.0
 10
94.8855
 20
-115.0485
 30
0.0
 10
94.8855
 20
-49.2642
 30
0.0
 10
94.8855
 20
-49.2642
 30
0.0
 10
94.8855
 20
-49.2642
 30
0.0
 10
94.8855
 20
-49.2642
 30
0.0
 10
94.8855
 20
132.0678
 30
0.0
 10
94.8855
 20
132.0678
 30
0.0
 10
94.8855
 20
132.0678
 30
0.0
 10
94.8855
 20
132.0678
 30
0.0
 10
15.9864
 20
132.0678
 30
0.0
 10
15.9864
 20
132.0678
 30
0.0
 10
15.9864
 20
132.0678
 30
0.0
 10
15.9864
 20
132.0678
 30
0.0
 10
15.9864
 20
-49.2642
 30
0.0
 10
15.9864
 20
-49.2642
 30
0.0
 10
15.9864
 20
-49.2642
 30
0.0
 10
15.9864
 20
-49.2642
 30
0.0
 10
15.9864
 20
-49.2642
 30
0.0
 10
15.9864
 20
-49.2642
 30
0.0
  0
SPLINE
  5
8F
330
1F
100
AcDbEntity
  8
layer 1
 62
     7
370
     9
100
AcDbSpline
210
0.0
220
0.0
230
1.0
 70
    11
 71
     3
 72
    24
 73
    20
 74
     0
 42
0.0000000001
 43
0.0000000001
 12
1.0
 22
0.0
 32
0.0
 13
1.0
 23
0.0
 33
0.0
 40
0.0
 40
0.0
 40
0.0
 40
0.0
 40
0.1666666666666667
 40
0.1666666666666667
 40
0.1666666666666667
 40
0.1666666666666667
 40
0.3333333333333333
 40
0.3333333333333333
 40
0.3333333333333333
 40
0.3333333333333333
 40
0.5
 40
0.5
 40
0.5
 40
0.5
 40
0.6666666666666666
 40
0.6666666666666666
 40
0.6666666666666666
 40
0.6666666666666666
 40
1.0
 40
1.0
 40
1.0
 40
1.0
 10
55.4706
 20
95.6533
 30
0.0
 10
55.4706
 20
95.6533
 30
0.0
 10
55.4706
 20
95.6533
 30
0.0
 10
55.4706
 20
95.6533
 30
0.0
 10
55.4706
 20
95.6533
 30
0.0
 10
55.4706
 20
95.6533
 30
0.0
 10
55.4706
 20
95.6533
 30
0.0
 10
55.4706
 20
95.6533
 30
0.0
 10
55.4706
 20
95.6533
 30
0.0
 10
52.6876
 20
100.4541
 30
0.0
 10
51.992
 20
108.9424
 30
0.0
 10
55.4706
 20
115.2737
 30
0.0
 10
55.4706
 20
115.2737
 30
0.0
 10
58.9495
 20
108.9424
 30
0.0
 10
58.1842
 20
100.4541
 30
0.0
 10
55.4706
 20
95.6533
 30
0.0
 10
55.4706
 20
95.6533
 30
0.0
 10
55.4706
 20
95.6533
 30
0.0
 10
55.4706
 20
95.6533
 30
0.0
 10
55.4706
 20
95.6533
 30
0.0
  0
SPLINE
  5
90
330
1F
100
AcDbEntity
  8
layer 1
 62
     7
370
     9
100
AcDbSpline
210
0.0
220
0.0
230
1.0
 70
    11
 71
     3
 72
    68
 73
    64
 74
     0
 42
0.0000000001
 43
0.0000000001
 12
1.0
 22
0.0
 32
0.0
 13
1.0
 23
0.0
 33
0.0
 40
0.0
 40
0.0
 40
0.0
 40
0.0
 40
0.0588235294117647
 40
0.0588235294117647
 40
0.0588235294117647
 40
0.0588235294117647
 40
0.1176470588235294
 40
0.1176470588235294
 40
0.1176470588235294
 40
0.1176470588235294
 40
0.1764705882352941
 40
0.1764705882352941
 40
0.1764705882352941
 40
0.1764705882352941
 40
0.2352941176470588
 40
0.2352941176470588
 40
0.2352941176470588
 40
0.2352941176470588
 40
0.2941176470588235
 40
0.2941176470588235
 40
0.2941176470588235
 40
0.2941176470588235
 40
0.3529411764705883
 40
0.3529411764705883
 40
0.3529411764705883
 40
0.3529411764705883
 40
0.4117647058823529
 40
0.4117647058823529
 40
0.4117647058823529
 40
0.4117647058823529
 40
0.4705882352941176
 40
0.4705882352941176
 40
0.4705882352941176
 40
0.4705882352941176
 40
0.5294117647058824
 40
0.5294117647058824
 40
0.5294117647058824
 40
0.5294117647058824
 40
0.5882352941176471
 40
0.5882352941176471
 40
0.5882352941176471
 40
0.5882352941176471
 40
0.6470588235294118
 40
0.6470588235294118
 40
0.6470588235294118
 40
0.6470588235294118
 40
0.7058823529411765
 40
0.7058823529411765
 40
0.7058823529411765
 40
0.7058823529411765
 40
0.7647058823529411
 40
0.7647058823529411
 40
0.7647058823529411
 40
0.7647058823529411
 40
0.8235294117647058
 40
0.8235294117647058
 40
0.8235294117647058
 40
0.8235294117647058
 40
0.8823529411764706
 40
0.8823529411764706
 40
0.8823529411764706
 40
0.8823529411764706
 40
1.0
 40
1.0
 40
1.0
 40
1.0
 10
55.4706
 20
70.1191
 30
0.0
 10
55.4706
 20
70.1191
 30
0.0
 10
55.4706
 20
70.1191
 30
0.0
 10
55.4706
 20
70.1191
 30
0.0
 10
55.4706
 20
70.1191
 30
0.0
 10
55.4706
 20
70.1191
 30
0.0
 10
55.4706
 20
70.1191
 30
0.0
 10
55.4706
 20
70.1191
 30
0.0
 10
55.4706
 20
70.1191
 30
0.0
 10
55.4706
 20
70.1191
 30
0.0
 10
55.4706
 20
70.1191
 30
0.0
 10
55.4706
 20
70.1191
 30
0.0
 10
55.4706
 20
70.1191
 30
0.0
 10
55.4706
 20
70.1191
 30
0.0
 10
55.4706
 20
70.1191
 30
0.0
 10
55.4706
 20
70.1191
 30
0.0
 10
55.4706
 20
70.1191
 30
0.0
 10
55.4706
 20
70.1191
 30
0.0
 10
55.4706
 20
70.1191
 30
0.0
 10
55.4706
 20
70.1191
 30
0.0
 10
55.4706
 20
70.1191
 30
0.0
 10
55.4706
 20
70.1191
 30
0.0
 10
55.4706
 20
70.1191
 30
0.0
 10
55.4706
 20
70.1191
 30
0.0
 10
55.4706
 20
70.1191
 30
0.0
 10
78.57
 20
65.8748
 30
0.0
 10
86.5711
 20
91.8962
 30
0.0
 10
69.8034
 20
106.1592
 30
0.0
 10
69.8034
 20
106.1592
 30
0.0
 10
73.2126
 20
94.3314
 30
0.0
 10
68.0639
 20
85.0082
 30
0.0
 10
55.4706
 20
78.3289
 30
0.0
 10
55.4706
 20
78.3289
 30
0.0
 10
55.4706
 20
78.3289
 30
0.0
 10
55.4706
 20
78.3289
 30
0.0
 10
55.4706
 20
78.3289
 30
0.0
 10
55.4706
 20
78.3289
 30
0.0
 10
55.4706
 20
78.3289
 30
0.0
 10
55.4706
 20
78.3289
 30
0.0
 10
55.4706
 20
78.3289
 30
0.0
 10
55.4706
 20
78.3289
 30
0.0
 10
55.4706
 20
78.3289
 30
0.0
 10
55.4706
 20
78.3289
 30
0.0
 10
55.4706
 20
78.3289
 30
0.0
 10
55.4706
 20
78.3289
 30
0.0
 10
55.4706
 20
78.3289
 30
0.0
 10
55.4706
 20
78.3289
 30
0.0
 10
55.4706
 20
78.3289
 30
0.0
 10
55.4706
 20
78.3289
 30
0.0
 10
55.4706
 20
78.3289
 30
0.0
 10
55.4706
 20
78.3289
 30
0.0
 10
55.4706
 20
78.3289
 30
0.0
 10
55.4706
 20
78.3289
 30
0.0
 10
55.4706
 20
78.3289
 30
0.0
 10
55.4706
 20
78.3289
 30
0.0
 10
55.4706
 20
78.3289
 30
0.0
 10
55.4706
 20
78.3289
 30
0.0
 10
42.8776
 20
85.0082
 30
0.0
 10
37.6592
 20
94.3314
 30
0.0
 10
41.0684
 20
106.1592
 30
0.0
 10
41.0684
 20
106.1592
 30
0.0
 10
24.3007
 20
91.8962
 30
0.0
 10
32.3021
 20
65.8748
 30
0.0
 10
55.4706
 20
70.1191
 30
0.0
  0
SPLINE
  5
91
330
1F
100
AcDbEntity
  8
layer 1
 62
     7
370
     9
100
AcDbSpline
210
0.0
220
0.0
230
1.0
 70
    11
 71
     3
 72
    20
 73
    16
 74
     0
 42
0.0000000001
 43
0.0000000001
 12
1.0
 22
0.0
 32
0.0
 13
1.0
 23
0.0
 33
0.0
 40
0.0
 40
0.0
 40
0.0
 40
0.0
 40
0.2
 40
0.2
 40
0.2
 40
0.2
 40
0.4
 40
0.4
 40
0.4
 40
0.4
 40
0.6
 40
0.6
 40
0.6
 40
0.6
 40
1.0
 40
1.0
 40
1.0
 40
1.0
 10
55.4706
 20
23.851
 30
0.0
 10
58.8104
 20
37.9749
 30
0.0
 10
68.1335
 20
50.5682
 30
0.0
 10
77.1784
 20
61.7698
 30
0.0
 10
77.1784
 20
61.7698
 30
0.0
 10
71.821
 20
58.291
 30
0.0
 10
58.1842
 20
57.4562
 30
0.0
 10
55.4706
 20
63.3701
 30
0.0
 10
55.4706
 20
63.3701
 30
0.0
 10
52.6876
 20
57.4562
 30
0.0
 10
39.0508
 20
58.291
 30
0.0
 10
33.6935
 20
61.7698
 30
0.0
 10
33.6935
 20
61.7698
 30
0.0
 10
42.7383
 20
50.5682
 30
0.0
 10
52.0614
 20
37.9749
 30
0.0
 10
55.4706
 20
23.851
 30
0.0
  0
SPLINE
  5
92
330
1F
100
AcDbEntity
  8
layer 1
 62
     7
370
     9
100
AcDbSpline
210
0.0
220
0.0
230
1.0
 70
    11
 71
     3
 72
    36
 73
    32
 74
     0
 42
0.0000000001
 43
0.0000000001
 12
1.0
 22
0.0
 32
0.0
 13
1.0
 23
0.0
 33
0.0
 40
0.0
 40
0.0
 40
0.0
 40
0.0
 40
0.1111111111111111
 40
0.1111111111111111
 40
0.1111111111111111
 40
0.1111111111111111
 40
0.2222222222222222
 40
0.2222222222222222
 40
0.2222222222222222
 40
0.2222222222222222
 40
0.3333333333333333
 40
0.3333333333333333
 40
0.3333333333333333
 40
0.3333333333333333
 40
0.4444444444444444
 40
0.4444444444444444
 40
0.4444444444444444
 40
0.4444444444444444
 40
0.5555555555555556
 40
0.5555555555555556
 40
0.5555555555555556
 40
0.5555555555555556
 40
0.6666666666666666
 40
0.6666666666666666
 40
0.6666666666666666
 40
0.6666666666666666
 40
0.7777777777777778
 40
0.7777777777777778
 40
0.7777777777777778
 40
0.7777777777777778
 40
1.0
 40
1.0
 40
1.0
 40
1.0
 10
55.4706
 20
-24.8521
 30
0.0
 10
55.4706
 20
-24.8521
 30
0.0
 10
55.4706
 20
-24.8521
 30
0.0
 10
55.4706
 20
-24.8521
 30
0.0
 10
55.4706
 20
-24.8521
 30
0.0
 10
55.4706
 20
-24.8521
 30
0.0
 10
55.4706
 20
-24.8521
 30
0.0
 10
55.4706
 20
-24.8521
 30
0.0
 10
55.4706
 20
-24.8521
 30
0.0
 10
55.4706
 20
-24.8521
 30
0.0
 10
55.4706
 20
-24.8521
 30
0.0
 10
55.4706
 20
-24.8521
 30
0.0
 10
55.4706
 20
-24.8521
 30
0.0
 10
55.4706
 20
-24.8521
 30
0.0
 10
55.4706
 20
-24.8521
 30
0.0
 10
55.4706
 20
-24.8521
 30
0.0
 10
55.4706
 20
-24.8521
 30
0.0
 10
60.4801
 20
-28.9571
 30
0.0
 10
70.1513
 20
-22.9039
 30
0.0
 10
64.794
 20
-16.7813
 30
0.0
 10
64.794
 20
-16.7813
 30
0.0
 10
59.9932
 20
-10.102
 30
0.0
 10
57.0015
 20
-3.6315
 30
0.0
 10
55.4706
 20
2.6304
 30
0.0
 10
55.4706
 20
2.6304
 30
0.0
 10
53.94
 20
-3.6315
 30
0.0
 10
50.9483
 20
-10.102
 30
0.0
 10
46.0779
 20
-16.7813
 30
0.0
 10
46.0779
 20
-16.7813
 30
0.0
 10
40.7207
 20
-22.9039
 30
0.0
 10
50.3918
 20
-28.9571
 30
0.0
 10
55.4706
 20
-24.8521
 30
0.0
  0
SPLINE
  5
93
330
1F
100
AcDbEntity
  8
layer 1
 62
     7
370
     9
100
AcDbSpline
210
0.0
220
0.0
230
1.0
 70
    11
 71
     3
 72
    36
 73
    32
 74
     0
 42
0.0000000001
 43
0.0000000001
 12
1.0
 22
0.0
 32
0.0
 13
1.0
 23
0.0
 33
0.0
 40
0.0
 40
0.0
 40
0.0
 40
0.0
 40
0.1111111111111111
 40
0.1111111111111111
 40
0.1111111111111111
 40
0.1111111111111111
 40
0.2222222222222222
 40
0.2222222222222222
 40
0.2222222222222222
 40
0.2222222222222222
 40
0.3333333333333333
 40
0.3333333333333333
 40
0.3333333333333333
 40
0.3333333333333333
 40
0.4444444444444444
 40
0.4444444444444444
 40
0.4444444444444444
 40
0.4444444444444444
 40
0.5555555555555556
 40
0.5555555555555556
 40
0.5555555555555556
 40
0.5555555555555556
 40
0.6666666666666666
 40
0.6666666666666666
 40
0.6666666666666666
 40
0.6666666666666666
 40
0.7777777777777778
 40
0.7777777777777778
 40
0.7777777777777778
 40
0.7777777777777778
 40
1.0
 40
1.0
 40
1.0
 40
1.0
 10
55.4706
 20
-82.8784
 30
0.0
 10
60.1324
 20
-76.4077
 30
0.0
 10
65.2113
 20
-70.0765
 30
0.0
 10
69.8034
 20
-63.0492
 30
0.0
 10
69.8034
 20
-63.0492
 30
0.0
 10
58.3233
 20
-65.1364
 30
0.0
 10
55.6795
 20
-54.1436
 30
0.0
 10
63.7503
 20
-52.1955
 30
0.0
 10
63.7503
 20
-52.1955
 30
0.0
 10
79.5441
 20
-65.1364
 30
0.0
 10
89.563
 20
-34.8014
 30
0.0
 10
71.1252
 20
-28.6092
 30
0.0
 10
71.1252
 20
-28.6092
 30
0.0
 10
67.2291
 20
-35.7755
 30
0.0
 10
58.8104
 20
-35.6364
 30
0.0
 10
55.4706
 20
-31.3226
 30
0.0
 10
55.4706
 20
-31.3226
 30
0.0
 10
52.0614
 20
-35.6364
 30
0.0
 10
43.6428
 20
-35.7755
 30
0.0
 10
39.7466
 20
-28.6092
 30
0.0
 10
39.7466
 20
-28.6092
 30
0.0
 10
21.3785
 20
-34.8014
 30
0.0
 10
31.3974
 20
-65.1364
 30
0.0
 10
47.1216
 20
-52.1955
 30
0.0
 10
47.1216
 20
-52.1955
 30
0.0
 10
55.1924
 20
-54.1436
 30
0.0
 10
52.5486
 20
-65.1364
 30
0.0
 10
41.0684
 20
-63.0492
 30
0.0
 10
41.0684
 20
-63.0492
 30
0.0
 10
45.6606
 20
-70.0765
 30
0.0
 10
50.7397
 20
-76.4077
 30
0.0
 10
55.4706
 20
-82.8784
 30
0.0
  0
SPLINE
  5
94
330
1F
100
AcDbEntity
  8
layer 1
 62
     7
370
     9
100
AcDbSpline
210
0.0
220
0.0
230
1.0
 70
    11
 71
     3
 72
    12
 73
     8
 74
     0
 42
0.0000000001
 43
0.0000000001
 12
1.0
 22
0.0
 32
0.0
 13
1.0
 23
0.0
 33
0.0
 40
0.0
 40
0.0
 40
0.0
 40
0.0
 40
0.3333333333333333
 40
0.3333333333333333
 40
0.3333333333333333
 40
0.3333333333333333
 40
1.0
 40
1.0
 40
1.0
 40
1.0
 10
81.6313
 20
123.275
 30
0.0
 10
79.2656
 20
121.8834
 30
0.0
 10
73.2126
 20
119.3787
 30
0.0
 10
67.0204
 20
123.275
 30
0.0
 10
67.0204
 20
123.275
 30
0.0
 10
67.0204
 20
123.275
 30
0.0
 10
81.6313
 20
123.275
 30
0.0
 10
81.6313
 20
123.275
 30
0.0
  0
SPLINE
  5
95
330
1F
100
AcDbEntity
  8
layer 1
 62
     7
370
     9
100
AcDbSpline
210
0.0
220
0.0
230
1.0
 70
    11
 71
     3
 72
    12
 73
     8
 74
     0
 42
0.0000000001
 43
0.0000000001
 12
1.0
 22
0.0
 32
0.0
 13
1.0
 23
0.0
 33
0.0
 40
0.0
 40
0.0
 40
0.0
 40
0.0
 40
0.3333333333333333
 40
0.3333333333333333
 40
0.3333333333333333
 40
0.3333333333333333
 40
1.0
 40
1.0
 40
1.0
 40
1.0
 10
43.8516
 20
123.275
 30
0.0
 10
37.6592
 20
119.3787
 30
0.0
 10
31.6063
 20
121.8834
 30
0.0
 10
29.2406
 20
123.275
 30
0.0
 10
29.2406
 20
123.275
 30
0.0
 10
29.2406
 20
123.275
 30
0.0
 10
43.8516
 20
123.275
 30
0.0
 10
43.8516
 20
123.275
 30
0.0
  0
SPLINE
  5
96
330
1F
100
AcDbEntity
  8
layer 1
 62
     7
370
     9
100
AcDbSpline
210
0.0
220
0.0
230
1.0
 70
    11
 71
     3
 72
    20
 73
    16
 74
     0
 42
0.0000000001
 43
0.0000000001
 12
1.0
 22
0.0
 32
0.0
 13
1.0
 23
0.0
 33
0.0
 40
0.0
 40
0.0
 40
0.0
 40
0.0
 40
0.2
 40
0.2
 40
0.2
 40
0.2
 40
0.4
 40
0.4
 40
0.4
 40
0.4
 40
0.6
 40
0.6
 40
0.6
 40
0.6
 40
1.0
 40
1.0
 40
1.0
 40
1.0
 10
89.2151
 20
89.1132
 30
0.0
 10
88.728
 20
91.9659
 30
0.0
 10
87.8235
 20
94.8185
 30
0.0
 10
86.5711
 20
97.4623
 30
0.0
 10
86.5711
 20
97.4623
 30
0.0
 10
83.8577
 20
103.0283
 30
0.0
 10
79.5441
 20
107.6204
 30
0.0
 10
73.4909
 20
110.6817
 30
0.0
 10
73.4909
 20
110.6817
 30
0.0
 10
80.8659
 20
110.8904
 30
0.0
 10
87.6148
 20
115.552
 30
0.0
 10
89.2151
 20
121.6747
 30
0.0
 10
89.2151
 20
121.6747
 30
0.0
 10
89.2151
 20
121.6747
 30
0.0
 10
89.2151
 20
89.1132
 30
0.0
 10
89.2151
 20
89.1132
 30
0.0
  0
SPLINE
  5
97
330
1F
100
AcDbEntity
  8
layer 1
 62
     7
370
     9
100
AcDbSpline
210
0.0
220
0.0
230
1.0
 70
    11
 71
     3
 72
    28
 73
    24
 74
     0
 42
0.0000000001
 43
0.0000000001
 12
1.0
 22
0.0
 32
0.0
 13
1.0
 23
0.0
 33
0.0
 40
0.0
 40
0.0
 40
0.0
 40
0.0
 40
0.1428571428571428
 40
0.1428571428571428
 40
0.1428571428571428
 40
0.1428571428571428
 40
0.2857142857142857
 40
0.2857142857142857
 40
0.2857142857142857
 40
0.2857142857142857
 40
0.4285714285714285
 40
0.4285714285714285
 40
0.4285714285714285
 40
0.4285714285714285
 40
0.5714285714285714
 40
0.5714285714285714
 40
0.5714285714285714
 40
0.5714285714285714
 40
0.7142857142857143
 40
0.7142857142857143
 40
0.7142857142857143
 40
0.7142857142857143
 40
1.0
 40
1.0
 40
1.0
 40
1.0
 10
89.2151
 20
38.5314
 30
0.0
 10
88.9368
 20
39.7838
 30
0.0
 10
88.3801
 20
40.9668
 30
0.0
 10
87.406
 20
42.1495
 30
0.0
 10
87.406
 20
42.1495
 30
0.0
 10
81.7009
 20
47.298
 30
0.0
 10
73.4909
 20
42.7061
 30
0.0
 10
76.6914
 20
39.0882
 30
0.0
 10
76.6914
 20
39.0882
 30
0.0
 10
77.248
 20
38.5314
 30
0.0
 10
70.8469
 20
37.7662
 30
0.0
 10
72.9343
 20
40.271
 30
0.0
 10
72.9343
 20
40.271
 30
0.0
 10
78.6394
 20
47.2286
 30
0.0
 10
82.9533
 20
54.5339
 30
0.0
 10
85.8059
 20
61.7698
 30
0.0
 10
85.8059
 20
61.7698
 30
0.0
 10
87.3365
 20
65.7358
 30
0.0
 10
88.5889
 20
70.0495
 30
0.0
 10
89.2151
 20
74.4327
 30
0.0
 10
89.2151
 20
74.4327
 30
0.0
 10
89.2151
 20
74.4327
 30
0.0
 10
89.2151
 20
38.5314
 30
0.0
 10
89.2151
 20
38.5314
 30
0.0
  0
SPLINE
  5
98
330
1F
100
AcDbEntity
  8
layer 1
 62
     7
370
     9
100
AcDbSpline
210
0.0
220
0.0
230
1.0
 70
    11
 71
     3
 72
    28
 73
    24
 74
     0
 42
0.0000000001
 43
0.0000000001
 12
1.0
 22
0.0
 32
0.0
 13
1.0
 23
0.0
 33
0.0
 40
0.0
 40
0.0
 40
0.0
 40
0.0
 40
0.1428571428571428
 40
0.1428571428571428
 40
0.1428571428571428
 40
0.1428571428571428
 40
0.2857142857142857
 40
0.2857142857142857
 40
0.2857142857142857
 40
0.2857142857142857
 40
0.4285714285714285
 40
0.4285714285714285
 40
0.4285714285714285
 40
0.4285714285714285
 40
0.5714285714285714
 40
0.5714285714285714
 40
0.5714285714285714
 40
0.5714285714285714
 40
0.7142857142857143
 40
0.7142857142857143
 40
0.7142857142857143
 40
0.7142857142857143
 40
1.0
 40
1.0
 40
1.0
 40
1.0
 10
89.2151
 20
11.5362
 30
0.0
 10
87.9627
 20
15.5019
 30
0.0
 10
84.2056
 20
18.4242
 30
0.0
 10
78.0828
 20
17.3108
 30
0.0
 10
78.0828
 20
17.3108
 30
0.0
 10
70.7775
 20
16.0585
 30
0.0
 10
66.4637
 20
7.9877
 30
0.0
 10
74.9519
 20
4.2306
 30
0.0
 10
74.9519
 20
4.2306
 30
0.0
 10
63.1241
 20
4.7872
 30
0.0
 10
60.4107
 20
20.4418
 30
0.0
 10
67.6466
 20
31.9913
 30
0.0
 10
67.6466
 20
31.9913
 30
0.0
 10
71.4731
 20
29.2779
 30
0.0
 10
75.4391
 20
28.1648
 30
0.0
 10
78.9179
 20
28.1648
 30
0.0
 10
78.9179
 20
28.1648
 30
0.0
 10
84.5535
 20
28.0952
 30
0.0
 10
88.3106
 20
31.1565
 30
0.0
 10
89.2151
 20
34.9136
 30
0.0
 10
89.2151
 20
34.9136
 30
0.0
 10
89.2151
 20
34.9136
 30
0.0
 10
89.2151
 20
11.5362
 30
0.0
 10
89.2151
 20
11.5362
 30
0.0
  0
SPLINE
  5
99
330
1F
100
AcDbEntity
  8
layer 1
 62
     7
370
     9
100
AcDbSpline
210
0.0
220
0.0
230
1.0
 70
    11
 71
     3
 72
    28
 73
    24
 74
     0
 42
0.0000000001
 43
0.0000000001
 12
1.0
 22
0.0
 32
0.0
 13
1.0
 23
0.0
 33
0.0
 40
0.0
 40
0.0
 40
0.0
 40
0.0
 40
0.1428571428571428
 40
0.1428571428571428
 40
0.1428571428571428
 40
0.1428571428571428
 40
0.2857142857142857
 40
0.2857142857142857
 40
0.2857142857142857
 40
0.2857142857142857
 40
0.4285714285714285
 40
0.4285714285714285
 40
0.4285714285714285
 40
0.4285714285714285
 40
0.5714285714285714
 40
0.5714285714285714
 40
0.5714285714285714
 40
0.5714285714285714
 40
0.7142857142857143
 40
0.7142857142857143
 40
0.7142857142857143
 40
0.7142857142857143
 40
1.0
 40
1.0
 40
1.0
 40
1.0
 10
89.2151
 20
-33.6186
 30
0.0
 10
88.728
 20
-31.1139
 30
0.0
 10
87.9627
 20
-28.6788
 30
0.0
 10
86.919
 20
-26.3827
 30
0.0
 10
86.919
 20
-26.3827
 30
0.0
 10
84.4143
 20
-21.095
 30
0.0
 10
80.4485
 20
-16.2942
 30
0.0
 10
74.8129
 20
-12.5371
 30
0.0
 10
74.8129
 20
-12.5371
 30
0.0
 10
68.6901
 20
-8.4323
 30
0.0
 10
66.5333
 20
-5.2317
 30
0.0
 10
63.8895
 20
0.6822
 30
0.0
 10
63.8895
 20
0.6822
 30
0.0
 10
68.3422
 20
-3.214
 30
0.0
 10
73.143
 20
-4.5359
 30
0.0
 10
77.387
 20
-4.2577
 30
0.0
 10
77.387
 20
-4.2577
 30
0.0
 10
83.9274
 20
-3.7011
 30
0.0
 10
87.8931
 20
0.3343
 30
0.0
 10
89.2151
 20
4.7872
 30
0.0
 10
89.2151
 20
4.7872
 30
0.0
 10
89.2151
 20
4.7872
 30
0.0
 10
89.2151
 20
-33.6186
 30
0.0
 10
89.2151
 20
-33.6186
 30
0.0
  0
SPLINE
  5
9A
330
1F
100
AcDbEntity
  8
layer 1
 62
     7
370
     9
100
AcDbSpline
210
0.0
220
0.0
230
1.0
 70
    11
 71
     3
 72
    24
 73
    20
 74
     0
 42
0.0000000001
 43
0.0000000001
 12
1.0
 22
0.0
 32
0.0
 13
1.0
 23
0.0
 33
0.0
 40
0.0
 40
0.0
 40
0.0
 40
0.0
 40
0.1666666666666667
 40
0.1666666666666667
 40
0.1666666666666667
 40
0.1666666666666667
 40
0.3333333333333333
 40
0.3333333333333333
 40
0.3333333333333333
 40
0.3333333333333333
 40
0.5
 40
0.5
 40
0.5
 40
0.5
 40
0.6666666666666666
 40
0.6666666666666666
 40
0.6666666666666666
 40
0.6666666666666666
 40
1.0
 40
1.0
 40
1.0
 40
1.0
 10
89.2151
 20
-97.8372
 30
0.0
 10
81.4226
 20
-94.2888
 30
0.0
 10
72.3776
 20
-94.8455
 30
0.0
 10
65.6288
 20
-99.0896
 30
0.0
 10
65.6288
 20
-99.0896
 30
0.0
 10
63.8895
 20
-95.5411
 30
0.0
 10
61.8717
 20
-92.2712
 30
0.0
 10
59.7149
 20
-89.001
 30
0.0
 10
59.7149
 20
-89.001
 30
0.0
 10
67.5074
 20
-76.9645
 30
0.0
 10
80.1006
 20
-67.9197
 30
0.0
 10
86.2928
 20
-55.8133
 30
0.0
 10
86.2928
 20
-55.8133
 30
0.0
 10
87.6845
 20
-53.0303
 30
0.0
 10
88.6583
 20
-50.0386
 30
0.0
 10
89.2151
 20
-46.9077
 30
0.0
 10
89.2151
 20
-46.9077
 30
0.0
 10
89.2151
 20
-46.9077
 30
0.0
 10
89.2151
 20
-97.8372
 30
0.0
 10
89.2151
 20
-97.8372
 30
0.0
  0
SPLINE
  5
9B
330
1F
100
AcDbEntity
  8
layer 1
 62
     7
370
     9
100
AcDbSpline
210
0.0
220
0.0
230
1.0
 70
    11
 71
     3
 72
    12
 73
     8
 74
     0
 42
0.0000000001
 43
0.0000000001
 12
1.0
 22
0.0
 32
0.0
 13
1.0
 23
0.0
 33
0.0
 40
0.0
 40
0.0
 40
0.0
 40
0.0
 40
0.3333333333333333
 40
0.3333333333333333
 40
0.3333333333333333
 40
0.3333333333333333
 40
1.0
 40
1.0
 40
1.0
 40
1.0
 10
68.6205
 20
-106.2559
 30
0.0
 10
70.9862
 20
-99.7854
 30
0.0
 10
83.6489
 20
-103.1249
 30
0.0
 10
87.7539
 20
-106.2559
 30
0.0
 10
87.7539
 20
-106.2559
 30
0.0
 10
87.7539
 20
-106.2559
 30
0.0
 10
68.6205
 20
-106.2559
 30
0.0
 10
68.6205
 20
-106.2559
 30
0.0
  0
SPLINE
  5
9C
330
1F
100
AcDbEntity
  8
layer 1
 62
     7
370
     9
100
AcDbSpline
210
0.0
220
0.0
230
1.0
 70
    11
 71
     3
 72
    16
 73
    12
 74
     0
 42
0.0000000001
 43
0.0000000001
 12
1.0
 22
0.0
 32
0.0
 13
1.0
 23
0.0
 33
0.0
 40
0.0
 40
0.0
 40
0.0
 40
0.0
 40
0.25
 40
0.25
 40
0.25
 40
0.25
 40
0.5
 40
0.5
 40
0.5
 40
0.5
 40
1.0
 40
1.0
 40
1.0
 40
1.0
 10
50.67
 20
-106.2559
 30
0.0
 10
52.3397
 20
-102.5684
 30
0.0
 10
53.8706
 20
-99.3678
 30
0.0
 10
55.4706
 20
-96.4456
 30
0.0
 10
55.4706
 20
-96.4456
 30
0.0
 10
57.0015
 20
-99.3678
 30
0.0
 10
58.5321
 20
-102.5684
 30
0.0
 10
60.2018
 20
-106.2559
 30
0.0
 10
60.2018
 20
-106.2559
 30
0.0
 10
60.2018
 20
-106.2559
 30
0.0
 10
50.67
 20
-106.2559
 30
0.0
 10
50.67
 20
-106.2559
 30
0.0
  0
SPLINE
  5
9D
330
1F
100
AcDbEntity
  8
layer 1
 62
     7
370
     9
100
AcDbSpline
210
0.0
220
0.0
230
1.0
 70
    11
 71
     3
 72
    12
 73
     8
 74
     0
 42
0.0000000001
 43
0.0000000001
 12
1.0
 22
0.0
 32
0.0
 13
1.0
 23
0.0
 33
0.0
 40
0.0
 40
0.0
 40
0.0
 40
0.0
 40
0.3333333333333333
 40
0.3333333333333333
 40
0.3333333333333333
 40
0.3333333333333333
 40
1.0
 40
1.0
 40
1.0
 40
1.0
 10
23.1876
 20
-106.2559
 30
0.0
 10
27.223
 20
-103.1249
 30
0.0
 10
39.8857
 20
-99.7854
 30
0.0
 10
42.2514
 20
-106.2559
 30
0.0
 10
42.2514
 20
-106.2559
 30
0.0
 10
42.2514
 20
-106.2559
 30
0.0
 10
23.1876
 20
-106.2559
 30
0.0
 10
23.1876
 20
-106.2559
 30
0.0
  0
SPLINE
  5
9E
330
1F
100
AcDbEntity
  8
layer 1
 62
     7
370
     9
100
AcDbSpline
210
0.0
220
0.0
230
1.0
 70
    11
 71
     3
 72
    24
 73
    20
 74
     0
 42
0.0000000001
 43
0.0000000001
 12
1.0
 22
0.0
 32
0.0
 13
1.0
 23
0.0
 33
0.0
 40
0.0
 40
0.0
 40
0.0
 40
0.0
 40
0.1666666666666667
 40
0.1666666666666667
 40
0.1666666666666667
 40
0.1666666666666667
 40
0.3333333333333333
 40
0.3333333333333333
 40
0.3333333333333333
 40
0.3333333333333333
 40
0.5
 40
0.5
 40
0.5
 40
0.5
 40
0.6666666666666666
 40
0.6666666666666666
 40
0.6666666666666666
 40
0.6666666666666666
 40
1.0
 40
1.0
 40
1.0
 40
1.0
 10
21.6568
 20
-46.9077
 30
0.0
 10
22.2135
 20
-50.0386
 30
0.0
 10
23.257
 20
-53.0303
 30
0.0
 10
24.6486
 20
-55.8133
 30
0.0
 10
24.6486
 20
-55.8133
 30
0.0
 10
30.7712
 20
-67.9197
 30
0.0
 10
43.3645
 20
-76.9645
 30
0.0
 10
51.157
 20
-89.001
 30
0.0
 10
51.157
 20
-89.001
 30
0.0
 10
49.0001
 20
-92.2712
 30
0.0
 10
47.052
 20
-95.5411
 30
0.0
 10
45.3127
 20
-99.0896
 30
0.0
 10
45.3127
 20
-99.0896
 30
0.0
 10
38.4943
 20
-94.8455
 30
0.0
 10
29.4494
 20
-94.2888
 30
0.0
 10
21.6568
 20
-97.8372
 30
0.0
 10
21.6568
 20
-97.8372
 30
0.0
 10
21.6568
 20
-97.8372
 30
0.0
 10
21.6568
 20
-46.9077
 30
0.0
 10
21.6568
 20
-46.9077
 30
0.0
  0
SPLINE
  5
9F
330
1F
100
AcDbEntity
  8
layer 1
 62
     7
370
     9
100
AcDbSpline
210
0.0
220
0.0
230
1.0
 70
    11
 71
     3
 72
    28
 73
    24
 74
     0
 42
0.0000000001
 43
0.0000000001
 12
1.0
 22
0.0
 32
0.0
 13
1.0
 23
0.0
 33
0.0
 40
0.0
 40
0.0
 40
0.0
 40
0.0
 40
0.1428571428571428
 40
0.1428571428571428
 40
0.1428571428571428
 40
0.1428571428571428
 40
0.2857142857142857
 40
0.2857142857142857
 40
0.2857142857142857
 40
0.2857142857142857
 40
0.4285714285714285
 40
0.4285714285714285
 40
0.4285714285714285
 40
0.4285714285714285
 40
0.5714285714285714
 40
0.5714285714285714
 40
0.5714285714285714
 40
0.5714285714285714
 40
0.7142857142857143
 40
0.7142857142857143
 40
0.7142857142857143
 40
0.7142857142857143
 40
1.0
 40
1.0
 40
1.0
 40
1.0
 10
21.6568
 20
4.7872
 30
0.0
 10
22.9787
 20
0.3343
 30
0.0
 10
26.9447
 20
-3.7011
 30
0.0
 10
33.5542
 20
-4.2577
 30
0.0
 10
33.5542
 20
-4.2577
 30
0.0
 10
37.7985
 20
-4.5359
 30
0.0
 10
42.5297
 20
-3.214
 30
0.0
 10
46.9826
 20
0.6822
 30
0.0
 10
46.9826
 20
0.6822
 30
0.0
 10
44.3386
 20
-5.2317
 30
0.0
 10
42.1818
 20
-8.4323
 30
0.0
 10
36.059
 20
-12.5371
 30
0.0
 10
36.059
 20
-12.5371
 30
0.0
 10
30.4233
 20
-16.2942
 30
0.0
 10
26.4576
 20
-21.095
 30
0.0
 10
23.9528
 20
-26.3827
 30
0.0
 10
23.9528
 20
-26.3827
 30
0.0
 10
22.9093
 20
-28.6788
 30
0.0
 10
22.1439
 20
-31.1139
 30
0.0
 10
21.6568
 20
-33.6186
 30
0.0
 10
21.6568
 20
-33.6186
 30
0.0
 10
21.6568
 20
-33.6186
 30
0.0
 10
21.6568
 20
4.7872
 30
0.0
 10
21.6568
 20
4.7872
 30
0.0
  0
SPLINE
  5
A0
330
1F
100
AcDbEntity
  8
layer 1
 62
     7
370
     9
100
AcDbSpline
210
0.0
220
0.0
230
1.0
 70
    11
 71
     3
 72
    28
 73
    24
 74
     0
 42
0.0000000001
 43
0.0000000001
 12
1.0
 22
0.0
 32
0.0
 13
1.0
 23
0.0
 33
0.0
 40
0.0
 40
0.0
 40
0.0
 40
0.0
 40
0.1428571428571428
 40
0.1428571428571428
 40
0.1428571428571428
 40
0.1428571428571428
 40
0.2857142857142857
 40
0.2857142857142857
 40
0.2857142857142857
 40
0.2857142857142857
 40
0.4285714285714285
 40
0.4285714285714285
 40
0.4285714285714285
 40
0.4285714285714285
 40
0.5714285714285714
 40
0.5714285714285714
 40
0.5714285714285714
 40
0.5714285714285714
 40
0.7142857142857143
 40
0.7142857142857143
 40
0.7142857142857143
 40
0.7142857142857143
 40
1.0
 40
1.0
 40
1.0
 40
1.0
 10
21.6568
 20
34.9136
 30
0.0
 10
22.5614
 20
31.1565
 30
0.0
 10
26.3185
 20
28.0952
 30
0.0
 10
31.9542
 20
28.1648
 30
0.0
 10
31.9542
 20
28.1648
 30
0.0
 10
35.4328
 20
28.1648
 30
0.0
 10
39.3987
 20
29.2779
 30
0.0
 10
43.2255
 20
31.9913
 30
0.0
 10
43.2255
 20
31.9913
 30
0.0
 10
50.4612
 20
20.4418
 30
0.0
 10
47.7478
 20
4.7872
 30
0.0
 10
35.9895
 20
4.2306
 30
0.0
 10
35.9895
 20
4.2306
 30
0.0
 10
44.4082
 20
7.9877
 30
0.0
 10
40.0945
 20
16.0585
 30
0.0
 10
32.8586
 20
17.3108
 30
0.0
 10
32.8586
 20
17.3108
 30
0.0
 10
26.6662
 20
18.4242
 30
0.0
 10
22.9093
 20
15.5019
 30
0.0
 10
21.6568
 20
11.5362
 30
0.0
 10
21.6568
 20
11.5362
 30
0.0
 10
21.6568
 20
11.5362
 30
0.0
 10
21.6568
 20
34.9136
 30
0.0
 10
21.6568
 20
34.9136
 30
0.0
  0
SPLINE
  5
A1
330
1F
100
AcDbEntity
  8
layer 1
 62
     7
370
     9
100
AcDbSpline
210
0.0
220
0.0
230
1.0
 70
    11
 71
     3
 72
    28
 73
    24
 74
     0
 42
0.0000000001
 43
0.0000000001
 12
1.0
 22
0.0
 32
0.0
 13
1.0
 23
0.0
 33
0.0
 40
0.0
 40
0.0
 40
0.0
 40
0.0
 40
0.1428571428571428
 40
0.1428571428571428
 40
0.1428571428571428
 40
0.1428571428571428
 40
0.2857142857142857
 40
0.2857142857142857
 40
0.2857142857142857
 40
0.2857142857142857
 40
0.4285714285714285
 40
0.4285714285714285
 40
0.4285714285714285
 40
0.4285714285714285
 40
0.5714285714285714
 40
0.5714285714285714
 40
0.5714285714285714
 40
0.5714285714285714
 40
0.7142857142857143
 40
0.7142857142857143
 40
0.7142857142857143
 40
0.7142857142857143
 40
1.0
 40
1.0
 40
1.0
 40
1.0
 10
21.6568
 20
74.4327
 30
0.0
 10
22.3526
 20
70.0495
 30
0.0
 10
23.5353
 20
65.7358
 30
0.0
 10
25.1356
 20
61.7698
 30
0.0
 10
25.1356
 20
61.7698
 30
0.0
 10
27.9186
 20
54.5339
 30
0.0
 10
32.2324
 20
47.2286
 30
0.0
 10
37.9375
 20
40.271
 30
0.0
 10
37.9375
 20
40.271
 30
0.0
 10
40.0945
 20
37.7662
 30
0.0
 10
33.6935
 20
38.5314
 30
0.0
 10
34.1804
 20
39.0882
 30
0.0
 10
34.1804
 20
39.0882
 30
0.0
 10
37.381
 20
42.7061
 30
0.0
 10
29.1712
 20
47.298
 30
0.0
 10
23.4659
 20
42.1495
 30
0.0
 10
23.4659
 20
42.1495
 30
0.0
 10
22.5614
 20
40.9668
 30
0.0
 10
21.9352
 20
39.7838
 30
0.0
 10
21.6568
 20
38.5314
 30
0.0
 10
21.6568
 20
38.5314
 30
0.0
 10
21.6568
 20
38.5314
 30
0.0
 10
21.6568
 20
74.4327
 30
0.0
 10
21.6568
 20
74.4327
 30
0.0
  0
SPLINE
  5
A2
330
1F
100
AcDbEntity
  8
layer 1
 62
     7
370
     9
100
AcDbSpline
210
0.0
220
0.0
230
1.0
 70
    11
 71
     3
 72
    20
 73
    16
 74
     0
 42
0.0000000001
 43
0.0000000001
 12
1.0
 22
0.0
 32
0.0
 13
1.0
 23
0.0
 33
0.0
 40
0.0
 40
0.0
 40
0.0
 40
0.0
 40
0.2
 40
0.2
 40
0.2
 40
0.2
 40
0.4
 40
0.4
 40
0.4
 40
0.4
 40
0.6
 40
0.6
 40
0.6
 40
0.6
 40
1.0
 40
1.0
 40
1.0
 40
1.0
 10
21.6568
 20
121.6747
 30
0.0
 10
23.257
 20
115.552
 30
0.0
 10
30.006
 20
110.8904
 30
0.0
 10
37.381
 20
110.6817
 30
0.0
 10
37.381
 20
110.6817
 30
0.0
 10
31.3974
 20
107.6204
 30
0.0
 10
27.0141
 20
103.0283
 30
0.0
 10
24.3007
 20
97.4623
 30
0.0
 10
24.3007
 20
97.4623
 30
0.0
 10
23.0484
 20
94.8185
 30
0.0
 10
22.1439
 20
91.9659
 30
0.0
 10
21.6568
 20
89.0436
 30
0.0
 10
21.6568
 20
89.0436
 30
0.0
 10
21.6568
 20
89.0436
 30
0.0
 10
21.6568
 20
121.6747
 30
0.0
 10
21.6568
 20
121.6747
 30
0.0
  0
SPLINE
  5
A3
330
1F
100
AcDbEntity
  8
layer 1
 62
     7
370
     9
100
AcDbSpline
210
0.0
220
0.0
230
1.0
 70
    27
 71
     3
 72
     8
 73
     4
 74
     0
 42
0.0000000001
 43
0.0000000001
 12
1.0
 22
0.0
 32
0.0
 13
1.0
 23
0.0
 33
0.0
 40
0.0
 40
0.0
 40
0.0
 40
0.0
 40
1.0
 40
1.0
 40
1.0
 40
1.0
 10
55.4706
 20
-96.4456
 30
0.0
 10
55.4706
 20
-96.4456
 30
0.0
 10
55.4706
 20
-96.4456
 30
0.0
 10
55.4706
 20
-96.4456
 30
0.0
  0
SPLINE
  5
A4
330
1F
100
AcDbEntity
  8
layer 1
 62
   250
370
     9
100
AcDbSpline
210
0.0
220
0.0
230
1.0
 70
    11
 71
     3
 72
    32
 73
    28
 74
     0
 42
0.0000000001
 43
0.0000000001
 12
1.0
 22
0.0
 32
0.0
 13
1.0
 23
0.0
 33
0.0
 40
0.0
 40
0.0
 40
0.0
 40
0.0
 40
0.125
 40
0.125
 40
0.125
 40
0.125
 40
0.25
 40
0.25
 40
0.25
 40
0.25
 40
0.375
 40
0.375
 40
0.375
 40
0.375
 40
0.5
 40
0.5
 40
0.5
 40
0.5
 40
0.625
 40
0.625
 40
0.625
 40
0.625
 40
0.75
 40
0.75
 40
0.75
 40
0.75
 40
1.0
 40
1.0
 40
1.0
 40
1.0
 10
117.7269
 20
-49.1094
 30
0.0
 10
117.7269
 20
-49.1094
 30
0.0
 10
117.7269
 20
-114.689
 30
0.0
 10
117.7269
 20
-114.689
 30
0.0
 10
117.7269
 20
-114.689
 30
0.0
 10
117.7269
 20
-114.689
 30
0.0
 10
196.3805
 20
-114.689
 30
0.0
 10
196.3805
 20
-114.689
 30
0.0
 10
196.3805
 20
-114.689
 30
0.0
 10
196.3805
 20
-114.689
 30
0.0
 10
196.3805
 20
-49.1094
 30
0.0
 10
196.3805
 20
-49.1094
 30
0.0
 10
196.3805
 20
-49.1094
 30
0.0
 10
196.3805
 20
-49.1094
 30
0.0
 10
196.3805
 20
131.6585
 30
0.0
 10
196.3805
 20
131.6585
 30
0.0
 10
196.3805
 20
131.6585
 30
0.0
 10
196.3805
 20
131.6585
 30
0.0
 10
117.7269
 20
131.6585
 30
0.0
 10
117.7269
 20
131.6585
 30
0.0
 10
117.7269
 20
131.6585
 30
0.0
 10
117.7269
 20
131.6585
 30
0.0
 10
117.7269
 20
-49.1094
 30
0.0
 10
117.7269
 20
-49.1094
 30
0.0
 10
117.7269
 20
-49.1094
 30
0.0
 10
117.7269
 20
-49.1094
 30
0.0
 10
117.7269
 20
-49.1094
 30
0.0
 10
117.7269
 20
-49.1094
 30
0.0
  0
SPLINE
  5
A5
330
1F
100
AcDbEntity
  8
layer 1
 62
     7
370
     9
100
AcDbSpline
210
0.0
220
0.0
230
1.0
 70
    11
 71
     3
 72
    64
 73
    60
 74
     0
 42
0.0000000001
 43
0.0000000001
 12
1.0
 22
0.0
 32
0.0
 13
1.0
 23
0.0
 33
0.0
 40
0.0
 40
0.0
 40
0.0
 40
0.0
 40
0.0625
 40
0.0625
 40
0.0625
 40
0.0625
 40
0.125
 40
0.125
 40
0.125
 40
0.125
 40
0.1875
 40
0.1875
 40
0.1875
 40
0.1875
 40
0.25
 40
0.25
 40
0.25
 40
0.25
 40
0.3125
 40
0.3125
 40
0.3125
 40
0.3125
 40
0.375
 40
0.375
 40
0.375
 40
0.375
 40
0.4375
 40
0.4375
 40
0.4375
 40
0.4375
 40
0.5
 40
0.5
 40
0.5
 40
0.5
 40
0.5625
 40
0.5625
 40
0.5625
 40
0.5625
 40
0.625
 40
0.625
 40
0.625
 40
0.625
 40
0.6875
 40
0.6875
 40
0.6875
 40
0.6875
 40
0.75
 40
0.75
 40
0.75
 40
0.75
 40
0.8125
 40
0.8125
 40
0.8125
 40
0.8125
 40
0.875
 40
0.875
 40
0.875
 40
0.875
 40
1.0
 40
1.0
 40
1.0
 40
1.0
 10
180.948
 20
3.9416
 30
0.0
 10
180.2546
 20
4.1496
 30
0.0
 10
180.1158
 20
3.5254
 30
0.0
 10
180.1158
 20
3.5254
 30
0.0
 10
180.1158
 20
3.5254
 30
0.0
 10
180.1158
 20
3.5254
 30
0.0
 10
179.4222
 20
6.3
 30
0.0
 10
176.8558
 20
6.3
 30
0.0
 10
176.8558
 20
6.3
 30
0.0
 10
174.3589
 20
6.3
 30
0.0
 10
173.3186
 20
3.1094
 30
0.0
 10
173.2492
 20
2.9706
 30
0.0
 10
173.2492
 20
2.9706
 30
0.0
 10
167.9085
 20
4.219
 30
0.0
 10
164.4405
 20
8.1033
 30
0.0
 10
162.013
 20
12.3341
 30
0.0
 10
162.013
 20
12.3341
 30
0.0
 10
165.8972
 20
11.9181
 30
0.0
 10
166.3826
 20
8.2419
 30
0.0
 10
173.804
 20
8.2419
 30
0.0
 10
173.804
 20
8.2419
 30
0.0
 10
180.1158
 20
8.2419
 30
0.0
 10
181.7111
 20
14.2068
 30
0.0
 10
181.7111
 20
17.12
 30
0.0
 10
181.7111
 20
17.12
 30
0.0
 10
181.7111
 20
18.6458
 30
0.0
 10
181.0868
 20
21.767
 30
0.0
 10
178.7979
 20
23.7785
 30
0.0
 10
178.7979
 20
23.7785
 30
0.0
 10
178.7979
 20
23.7785
 30
0.0
 10
182.1273
 20
23.5703
 30
0.0
 10
183.237
 20
29.3966
 30
0.0
 10
183.237
 20
29.3966
 30
0.0
 10
183.237
 20
29.3966
 30
0.0
 10
183.237
 20
29.3272
 30
0.0
 10
183.237
 20
29.3272
 30
0.0
 10
183.237
 20
29.3272
 30
0.0
 10
185.6645
 20
27.0383
 30
0.0
 10
187.676
 20
23.4317
 30
0.0
 10
187.8146
 20
18.0216
 30
0.0
 10
187.8146
 20
18.0216
 30
0.0
 10
187.8146
 20
18.0216
 30
0.0
 10
183.9306
 20
18.4378
 30
0.0
 10
183.9306
 20
13.86
 30
0.0
 10
183.9306
 20
13.86
 30
0.0
 10
183.9306
 20
11.6405
 30
0.0
 10
185.0403
 20
10.8082
 30
0.0
 10
186.3581
 20
9.4903
 30
0.0
 10
186.3581
 20
9.4903
 30
0.0
 10
186.3581
 20
9.4903
 30
0.0
 10
186.3581
 20
9.4903
 30
0.0
 10
186.3581
 20
9.4903
 30
0.0
 10
186.3581
 20
9.4903
 30
0.0
 10
186.3581
 20
9.4903
 30
0.0
 10
184.208
 20
6.0917
 30
0.0
 10
181.0174
 20
4.011
 30
0.0
 10
181.0174
 20
4.011
 30
0.0
 10
181.0174
 20
4.011
 30
0.0
 10
181.0174
 20
4.011
 30
0.0
 10
180.948
 20
3.9416
 30
0.0
  0
SPLINE
  5
A6
330
1F
100
AcDbEntity
  8
layer 1
 62
     7
370
     9
100
AcDbSpline
210
0.0
220
0.0
230
1.0
 70
    11
 71
     3
 72
    12
 73
     8
 74
     0
 42
0.0000000001
 43
0.0000000001
 12
1.0
 22
0.0
 32
0.0
 13
1.0
 23
0.0
 33
0.0
 40
0.0
 40
0.0
 40
0.0
 40
0.0
 40
0.3333333333333333
 40
0.3333333333333333
 40
0.3333333333333333
 40
0.3333333333333333
 40
1.0
 40
1.0
 40
1.0
 40
1.0
 10
136.2805
 20
33.9743
 30
0.0
 10
136.4888
 20
33.9049
 30
0.0
 10
137.2516
 20
33.4887
 30
0.0
 10
138.0146
 20
34.2517
 30
0.0
 10
138.0146
 20
34.2517
 30
0.0
 10
137.3904
 20
34.1823
 30
0.0
 10
136.8356
 20
34.1129
 30
0.0
 10
136.2805
 20
33.9743
 30
0.0
  0
SPLINE
  5
A7
330
1F
100
AcDbEntity
  8
layer 1
 62
     7
370
     9
100
AcDbSpline
210
0.0
220
0.0
230
1.0
 70
    11
 71
     3
 72
    36
 73
    32
 74
     0
 42
0.0000000001
 43
0.0000000001
 12
1.0
 22
0.0
 32
0.0
 13
1.0
 23
0.0
 33
0.0
 40
0.0
 40
0.0
 40
0.0
 40
0.0
 40
0.1111111111111111
 40
0.1111111111111111
 40
0.1111111111111111
 40
0.1111111111111111
 40
0.2222222222222222
 40
0.2222222222222222
 40
0.2222222222222222
 40
0.2222222222222222
 40
0.3333333333333333
 40
0.3333333333333333
 40
0.3333333333333333
 40
0.3333333333333333
 40
0.4444444444444444
 40
0.4444444444444444
 40
0.4444444444444444
 40
0.4444444444444444
 40
0.5555555555555556
 40
0.5555555555555556
 40
0.5555555555555556
 40
0.5555555555555556
 40
0.6666666666666666
 40
0.6666666666666666
 40
0.6666666666666666
 40
0.6666666666666666
 40
0.7777777777777778
 40
0.7777777777777778
 40
0.7777777777777778
 40
0.7777777777777778
 40
1.0
 40
1.0
 40
1.0
 40
1.0
 10
162.9146
 20
18.4378
 30
0.0
 10
162.9146
 20
18.4378
 30
0.0
 10
165.1342
 20
24.6108
 30
0.0
 10
170.4749
 20
24.6108
 30
0.0
 10
170.4749
 20
24.6108
 30
0.0
 10
175.885
 20
24.6108
 30
0.0
 10
178.9367
 20
21.8364
 30
0.0
 10
178.9367
 20
17.3974
 30
0.0
 10
178.9367
 20
17.3974
 30
0.0
 10
178.9367
 20
13.0277
 30
0.0
 10
175.3993
 20
10.5308
 30
0.0
 10
173.3186
 20
10.5308
 30
0.0
 10
173.3186
 20
10.5308
 30
0.0
 10
171.1685
 20
10.5308
 30
0.0
 10
170.7523
 20
11.5018
 30
0.0
 10
170.7523
 20
11.5018
 30
0.0
 10
170.7523
 20
11.5018
 30
0.0
 10
170.7523
 20
11.5018
 30
0.0
 10
173.3186
 20
10.6002
 30
0.0
 10
173.3186
 20
13.5132
 30
0.0
 10
173.3186
 20
13.5132
 30
0.0
 10
173.3186
 20
16.4957
 30
0.0
 10
167.9085
 20
18.1604
 30
0.0
 10
170.6829
 20
21.0734
 30
0.0
 10
170.6829
 20
21.0734
 30
0.0
 10
170.6829
 20
21.0734
 30
0.0
 10
165.8972
 20
22.8075
 30
0.0
 10
165.689
 20
17.8828
 30
0.0
 10
165.689
 20
17.8828
 30
0.0
 10
165.689
 20
17.8828
 30
0.0
 10
165.4116
 20
18.2296
 30
0.0
 10
162.9146
 20
18.4378
 30
0.0
  0
SPLINE
  5
A8
330
1F
100
AcDbEntity
  8
layer 1
 62
     7
370
     9
100
AcDbSpline
210
0.0
220
0.0
230
1.0
 70
    11
 71
     3
 72
    20
 73
    16
 74
     0
 42
0.0000000001
 43
0.0000000001
 12
1.0
 22
0.0
 32
0.0
 13
1.0
 23
0.0
 33
0.0
 40
0.0
 40
0.0
 40
0.0
 40
0.0
 40
0.2
 40
0.2
 40
0.2
 40
0.2
 40
0.4
 40
0.4
 40
0.4
 40
0.4
 40
0.6
 40
0.6
 40
0.6
 40
0.6
 40
1.0
 40
1.0
 40
1.0
 40
1.0
 10
174.8445
 20
2.7626
 30
0.0
 10
174.8445
 20
2.7626
 30
0.0
 10
176.301
 20
4.3578
 30
0.0
 10
177.272
 20
2.6237
 30
0.0
 10
177.272
 20
2.6237
 30
0.0
 10
177.2026
 20
2.6237
 30
0.0
 10
177.1334
 20
2.6237
 30
0.0
 10
177.1334
 20
2.6237
 30
0.0
 10
177.1334
 20
2.6237
 30
0.0
 10
176.9252
 20
2.6237
 30
0.0
 10
176.8558
 20
2.6237
 30
0.0
 10
176.7172
 20
2.6237
 30
0.0
 10
176.7172
 20
2.6237
 30
0.0
 10
176.093
 20
2.6237
 30
0.0
 10
175.4687
 20
2.6932
 30
0.0
 10
174.8445
 20
2.7626
 30
0.0
  0
SPLINE
  5
A9
330
1F
100
AcDbEntity
  8
layer 1
 62
     7
370
     9
100
AcDbSpline
210
0.0
220
0.0
230
1.0
 70
    11
 71
     3
 72
    64
 73
    60
 74
     0
 42
0.0000000001
 43
0.0000000001
 12
1.0
 22
0.0
 32
0.0
 13
1.0
 23
0.0
 33
0.0
 40
0.0
 40
0.0
 40
0.0
 40
0.0
 40
0.0625
 40
0.0625
 40
0.0625
 40
0.0625
 40
0.125
 40
0.125
 40
0.125
 40
0.125
 40
0.1875
 40
0.1875
 40
0.1875
 40
0.1875
 40
0.25
 40
0.25
 40
0.25
 40
0.25
 40
0.3125
 40
0.3125
 40
0.3125
 40
0.3125
 40
0.375
 40
0.375
 40
0.375
 40
0.375
 40
0.4375
 40
0.4375
 40
0.4375
 40
0.4375
 40
0.5
 40
0.5
 40
0.5
 40
0.5
 40
0.5625
 40
0.5625
 40
0.5625
 40
0.5625
 40
0.625
 40
0.625
 40
0.625
 40
0.625
 40
0.6875
 40
0.6875
 40
0.6875
 40
0.6875
 40
0.75
 40
0.75
 40
0.75
 40
0.75
 40
0.8125
 40
0.8125
 40
0.8125
 40
0.8125
 40
0.875
 40
0.875
 40
0.875
 40
0.875
 40
1.0
 40
1.0
 40
1.0
 40
1.0
 10
180.948
 20
-2.8556
 30
0.0
 10
180.2546
 20
-2.9944
 30
0.0
 10
180.1158
 20
-2.3701
 30
0.0
 10
180.1158
 20
-2.3701
 30
0.0
 10
180.1158
 20
-2.3701
 30
0.0
 10
180.1158
 20
-2.3701
 30
0.0
 10
179.4222
 20
-5.2139
 30
0.0
 10
176.8558
 20
-5.2139
 30
0.0
 10
176.8558
 20
-5.2139
 30
0.0
 10
174.3589
 20
-5.2139
 30
0.0
 10
173.3186
 20
-2.0233
 30
0.0
 10
173.2492
 20
-1.8845
 30
0.0
 10
173.2492
 20
-1.8845
 30
0.0
 10
167.9085
 20
-3.0636
 30
0.0
 10
164.4405
 20
-7.0172
 30
0.0
 10
162.013
 20
-11.1786
 30
0.0
 10
162.013
 20
-11.1786
 30
0.0
 10
165.8972
 20
-10.832
 30
0.0
 10
166.3826
 20
-7.1558
 30
0.0
 10
173.804
 20
-7.1558
 30
0.0
 10
173.804
 20
-7.1558
 30
0.0
 10
180.1158
 20
-7.1558
 30
0.0
 10
181.7111
 20
-13.1207
 30
0.0
 10
181.7111
 20
-15.9645
 30
0.0
 10
181.7111
 20
-15.9645
 30
0.0
 10
181.7111
 20
-17.5598
 30
0.0
 10
181.0868
 20
-20.681
 30
0.0
 10
178.7979
 20
-22.6231
 30
0.0
 10
178.7979
 20
-22.6231
 30
0.0
 10
178.7979
 20
-22.6231
 30
0.0
 10
182.1273
 20
-22.4843
 30
0.0
 10
183.237
 20
-28.2412
 30
0.0
 10
183.237
 20
-28.2412
 30
0.0
 10
183.237
 20
-28.2412
 30
0.0
 10
183.237
 20
-28.2412
 30
0.0
 10
183.237
 20
-28.2412
 30
0.0
 10
183.237
 20
-28.2412
 30
0.0
 10
185.6645
 20
-25.9522
 30
0.0
 10
187.676
 20
-22.2762
 30
0.0
 10
187.8146
 20
-16.9355
 30
0.0
 10
187.8146
 20
-16.9355
 30
0.0
 10
187.8146
 20
-16.9355
 30
0.0
 10
183.9306
 20
-17.2824
 30
0.0
 10
183.9306
 20
-12.7739
 30
0.0
 10
183.9306
 20
-12.7739
 30
0.0
 10
183.9306
 20
-10.5544
 30
0.0
 10
185.0403
 20
-9.6527
 30
0.0
 10
186.3581
 20
-8.4043
 30
0.0
 10
186.3581
 20
-8.4043
 30
0.0
 10
186.3581
 20
-8.4043
 30
0.0
 10
186.3581
 20
-8.4043
 30
0.0
 10
186.3581
 20
-8.4043
 30
0.0
 10
186.3581
 20
-8.4043
 30
0.0
 10
186.3581
 20
-8.4043
 30
0.0
 10
184.208
 20
-4.9363
 30
0.0
 10
181.0174
 20
-2.925
 30
0.0
 10
181.0174
 20
-2.925
 30
0.0
 10
181.0174
 20
-2.925
 30
0.0
 10
181.0174
 20
-2.925
 30
0.0
 10
180.948
 20
-2.8556
 30
0.0
  0
SPLINE
  5
AA
330
1F
100
AcDbEntity
  8
layer 1
 62
     7
370
     9
100
AcDbSpline
210
0.0
220
0.0
230
1.0
 70
    11
 71
     3
 72
    12
 73
     8
 74
     0
 42
0.0000000001
 43
0.0000000001
 12
1.0
 22
0.0
 32
0.0
 13
1.0
 23
0.0
 33
0.0
 40
0.0
 40
0.0
 40
0.0
 40
0.0
 40
0.3333333333333333
 40
0.3333333333333333
 40
0.3333333333333333
 40
0.3333333333333333
 40
1.0
 40
1.0
 40
1.0
 40
1.0
 10
136.2805
 20
-32.8882
 30
0.0
 10
136.4888
 20
-32.7494
 30
0.0
 10
137.2516
 20
-32.3334
 30
0.0
 10
138.0146
 20
-33.0962
 30
0.0
 10
138.0146
 20
-33.0962
 30
0.0
 10
137.3904
 20
-33.0962
 30
0.0
 10
136.8356
 20
-32.9576
 30
0.0
 10
136.2805
 20
-32.8882
 30
0.0
  0
SPLINE
  5
AB
330
1F
100
AcDbEntity
  8
layer 1
 62
     7
370
     9
100
AcDbSpline
210
0.0
220
0.0
230
1.0
 70
    11
 71
     3
 72
    36
 73
    32
 74
     0
 42
0.0000000001
 43
0.0000000001
 12
1.0
 22
0.0
 32
0.0
 13
1.0
 23
0.0
 33
0.0
 40
0.0
 40
0.0
 40
0.0
 40
0.0
 40
0.1111111111111111
 40
0.1111111111111111
 40
0.1111111111111111
 40
0.1111111111111111
 40
0.2222222222222222
 40
0.2222222222222222
 40
0.2222222222222222
 40
0.2222222222222222
 40
0.3333333333333333
 40
0.3333333333333333
 40
0.3333333333333333
 40
0.3333333333333333
 40
0.4444444444444444
 40
0.4444444444444444
 40
0.4444444444444444
 40
0.4444444444444444
 40
0.5555555555555556
 40
0.5555555555555556
 40
0.5555555555555556
 40
0.5555555555555556
 40
0.6666666666666666
 40
0.6666666666666666
 40
0.6666666666666666
 40
0.6666666666666666
 40
0.7777777777777778
 40
0.7777777777777778
 40
0.7777777777777778
 40
0.7777777777777778
 40
1.0
 40
1.0
 40
1.0
 40
1.0
 10
162.9146
 20
-17.2824
 30
0.0
 10
162.9146
 20
-17.2824
 30
0.0
 10
165.1342
 20
-23.5247
 30
0.0
 10
170.4749
 20
-23.5247
 30
0.0
 10
170.4749
 20
-23.5247
 30
0.0
 10
175.885
 20
-23.5247
 30
0.0
 10
178.9367
 20
-20.681
 30
0.0
 10
178.9367
 20
-16.3113
 30
0.0
 10
178.9367
 20
-16.3113
 30
0.0
 10
178.9367
 20
-11.9417
 30
0.0
 10
175.3993
 20
-9.3753
 30
0.0
 10
173.3186
 20
-9.3753
 30
0.0
 10
173.3186
 20
-9.3753
 30
0.0
 10
171.1685
 20
-9.3753
 30
0.0
 10
170.7523
 20
-10.3464
 30
0.0
 10
170.7523
 20
-10.3464
 30
0.0
 10
170.7523
 20
-10.3464
 30
0.0
 10
170.7523
 20
-10.3464
 30
0.0
 10
173.3186
 20
-9.4447
 30
0.0
 10
173.3186
 20
-12.4271
 30
0.0
 10
173.3186
 20
-12.4271
 30
0.0
 10
173.3186
 20
-15.3403
 30
0.0
 10
167.9085
 20
-17.0049
 30
0.0
 10
170.6829
 20
-19.9179
 30
0.0
 10
170.6829
 20
-19.9179
 30
0.0
 10
170.6829
 20
-19.9179
 30
0.0
 10
165.8972
 20
-21.7214
 30
0.0
 10
165.689
 20
-16.7275
 30
0.0
 10
165.689
 20
-16.7275
 30
0.0
 10
165.689
 20
-16.7275
 30
0.0
 10
165.4116
 20
-17.1436
 30
0.0
 10
162.9146
 20
-17.2824
 30
0.0
  0
SPLINE
  5
AC
330
1F
100
AcDbEntity
  8
layer 1
 62
     7
370
     9
100
AcDbSpline
210
0.0
220
0.0
230
1.0
 70
    11
 71
     3
 72
    20
 73
    16
 74
     0
 42
0.0000000001
 43
0.0000000001
 12
1.0
 22
0.0
 32
0.0
 13
1.0
 23
0.0
 33
0.0
 40
0.0
 40
0.0
 40
0.0
 40
0.0
 40
0.2
 40
0.2
 40
0.2
 40
0.2
 40
0.4
 40
0.4
 40
0.4
 40
0.4
 40
0.6
 40
0.6
 40
0.6
 40
0.6
 40
1.0
 40
1.0
 40
1.0
 40
1.0
 10
174.8445
 20
-1.6071
 30
0.0
 10
174.8445
 20
-1.6765
 30
0.0
 10
176.301
 20
-3.2718
 30
0.0
 10
177.272
 20
-1.5377
 30
0.0
 10
177.272
 20
-1.5377
 30
0.0
 10
177.2026
 20
-1.5377
 30
0.0
 10
177.1334
 20
-1.5377
 30
0.0
 10
177.1334
 20
-1.5377
 30
0.0
 10
177.1334
 20
-1.5377
 30
0.0
 10
176.9252
 20
-1.5377
 30
0.0
 10
176.8558
 20
-1.5377
 30
0.0
 10
176.7172
 20
-1.5377
 30
0.0
 10
176.7172
 20
-1.5377
 30
0.0
 10
176.093
 20
-1.5377
 30
0.0
 10
175.4687
 20
-1.5377
 30
0.0
 10
174.8445
 20
-1.6071
 30
0.0
  0
SPLINE
  5
AD
330
1F
100
AcDbEntity
  8
layer 1
 62
     7
370
     9
100
AcDbSpline
210
0.0
220
0.0
230
1.0
 70
    11
 71
     3
 72
    28
 73
    24
 74
     0
 42
0.0000000001
 43
0.0000000001
 12
1.0
 22
0.0
 32
0.0
 13
1.0
 23
0.0
 33
0.0
 40
0.0
 40
0.0
 40
0.0
 40
0.0
 40
0.1428571428571428
 40
0.1428571428571428
 40
0.1428571428571428
 40
0.1428571428571428
 40
0.2857142857142857
 40
0.2857142857142857
 40
0.2857142857142857
 40
0.2857142857142857
 40
0.4285714285714285
 40
0.4285714285714285
 40
0.4285714285714285
 40
0.4285714285714285
 40
0.5714285714285714
 40
0.5714285714285714
 40
0.5714285714285714
 40
0.5714285714285714
 40
0.7142857142857143
 40
0.7142857142857143
 40
0.7142857142857143
 40
0.7142857142857143
 40
1.0
 40
1.0
 40
1.0
 40
1.0
 10
150.7073
 20
0.543
 30
0.0
 10
150.7073
 20
0.543
 30
0.0
 10
150.7768
 20
0.543
 30
0.0
 10
150.7768
 20
0.543
 30
0.0
 10
150.7768
 20
0.543
 30
0.0
 10
155.7706
 20
1.4447
 30
0.0
 10
156.8803
 20
4.3578
 30
0.0
 10
160.9033
 20
4.3578
 30
0.0
 10
160.9033
 20
4.3578
 30
0.0
 10
165.0648
 20
4.3578
 30
0.0
 10
167.7005
 20
1.2367
 30
0.0
 10
174.7057
 20
0.543
 30
0.0
 10
174.7057
 20
0.543
 30
0.0
 10
167.7005
 20
-0.1506
 30
0.0
 10
165.0648
 20
-3.2718
 30
0.0
 10
160.9033
 20
-3.2718
 30
0.0
 10
160.9033
 20
-3.2718
 30
0.0
 10
156.8803
 20
-3.2718
 30
0.0
 10
155.7706
 20
-0.3586
 30
0.0
 10
150.7768
 20
0.543
 30
0.0
 10
150.7768
 20
0.543
 30
0.0
 10
150.7768
 20
0.543
 30
0.0
 10
150.7073
 20
0.543
 30
0.0
 10
150.7073
 20
0.543
 30
0.0
  0
SPLINE
  5
AE
330
1F
100
AcDbEntity
  8
layer 1
 62
     7
370
     9
100
AcDbSpline
210
0.0
220
0.0
230
1.0
 70
    11
 71
     3
 72
    20
 73
    16
 74
     0
 42
0.0000000001
 43
0.0000000001
 12
1.0
 22
0.0
 32
0.0
 13
1.0
 23
0.0
 33
0.0
 40
0.0
 40
0.0
 40
0.0
 40
0.0
 40
0.2
 40
0.2
 40
0.2
 40
0.2
 40
0.4
 40
0.4
 40
0.4
 40
0.4
 40
0.6
 40
0.6
 40
0.6
 40
0.6
 40
1.0
 40
1.0
 40
1.0
 40
1.0
 10
132.6739
 20
0.543
 30
0.0
 10
132.8127
 20
1.0979
 30
0.0
 10
133.5756
 20
3.6642
 30
0.0
 10
135.8645
 20
3.6642
 30
0.0
 10
135.8645
 20
3.6642
 30
0.0
 10
138.8469
 20
3.6642
 30
0.0
 10
140.1648
 20
1.3753
 30
0.0
 10
144.3264
 20
0.543
 30
0.0
 10
144.3264
 20
0.543
 30
0.0
 10
140.1648
 20
-0.22
 30
0.0
 10
138.8469
 20
-2.5087
 30
0.0
 10
135.8645
 20
-2.5087
 30
0.0
 10
135.8645
 20
-2.5087
 30
0.0
 10
133.5756
 20
-2.5087
 30
0.0
 10
132.8127
 20
-0.0812
 30
0.0
 10
132.6739
 20
0.543
 30
0.0
  0
SPLINE
  5
AF
330
1F
100
AcDbEntity
  8
layer 1
 62
     7
370
     9
100
AcDbSpline
210
0.0
220
0.0
230
1.0
 70
    11
 71
     3
 72
    64
 73
    60
 74
     0
 42
0.0000000001
 43
0.0000000001
 12
1.0
 22
0.0
 32
0.0
 13
1.0
 23
0.0
 33
0.0
 40
0.0
 40
0.0
 40
0.0
 40
0.0
 40
0.0625
 40
0.0625
 40
0.0625
 40
0.0625
 40
0.125
 40
0.125
 40
0.125
 40
0.125
 40
0.1875
 40
0.1875
 40
0.1875
 40
0.1875
 40
0.25
 40
0.25
 40
0.25
 40
0.25
 40
0.3125
 40
0.3125
 40
0.3125
 40
0.3125
 40
0.375
 40
0.375
 40
0.375
 40
0.375
 40
0.4375
 40
0.4375
 40
0.4375
 40
0.4375
 40
0.5
 40
0.5
 40
0.5
 40
0.5
 40
0.5625
 40
0.5625
 40
0.5625
 40
0.5625
 40
0.625
 40
0.625
 40
0.625
 40
0.625
 40
0.6875
 40
0.6875
 40
0.6875
 40
0.6875
 40
0.75
 40
0.75
 40
0.75
 40
0.75
 40
0.8125
 40
0.8125
 40
0.8125
 40
0.8125
 40
0.875
 40
0.875
 40
0.875
 40
0.875
 40
1.0
 40
1.0
 40
1.0
 40
1.0
 10
180.948
 20
-73.8797
 30
0.0
 10
180.2546
 20
-74.0877
 30
0.0
 10
180.1158
 20
-73.4635
 30
0.0
 10
180.1158
 20
-73.4635
 30
0.0
 10
180.1158
 20
-73.4635
 30
0.0
 10
180.1158
 20
-73.4635
 30
0.0
 10
179.4222
 20
-76.3073
 30
0.0
 10
176.8558
 20
-76.3073
 30
0.0
 10
176.8558
 20
-76.3073
 30
0.0
 10
174.3589
 20
-76.3073
 30
0.0
 10
173.3186
 20
-73.0473
 30
0.0
 10
173.2492
 20
-72.9779
 30
0.0
 10
173.2492
 20
-72.9779
 30
0.0
 10
167.9085
 20
-74.1571
 30
0.0
 10
164.4405
 20
-78.1106
 30
0.0
 10
162.013
 20
-82.2722
 30
0.0
 10
162.013
 20
-82.2722
 30
0.0
 10
165.8972
 20
-81.9254
 30
0.0
 10
166.3826
 20
-78.2494
 30
0.0
 10
173.804
 20
-78.2494
 30
0.0
 10
173.804
 20
-78.2494
 30
0.0
 10
180.1158
 20
-78.2494
 30
0.0
 10
181.7111
 20
-84.2141
 30
0.0
 10
181.7111
 20
-87.0579
 30
0.0
 10
181.7111
 20
-87.0579
 30
0.0
 10
181.7111
 20
-88.5837
 30
0.0
 10
181.0868
 20
-91.7049
 30
0.0
 10
178.7979
 20
-93.7164
 30
0.0
 10
178.7979
 20
-93.7164
 30
0.0
 10
178.7979
 20
-93.7164
 30
0.0
 10
182.1273
 20
-93.5084
 30
0.0
 10
183.237
 20
-99.3345
 30
0.0
 10
183.237
 20
-99.3345
 30
0.0
 10
183.237
 20
-99.3345
 30
0.0
 10
183.237
 20
-99.2651
 30
0.0
 10
183.237
 20
-99.2651
 30
0.0
 10
183.237
 20
-99.2651
 30
0.0
 10
185.6645
 20
-96.9764
 30
0.0
 10
187.676
 20
-93.3696
 30
0.0
 10
187.8146
 20
-87.9595
 30
0.0
 10
187.8146
 20
-87.9595
 30
0.0
 10
187.8146
 20
-87.9595
 30
0.0
 10
183.9306
 20
-88.3757
 30
0.0
 10
183.9306
 20
-83.8675
 30
0.0
 10
183.9306
 20
-83.8675
 30
0.0
 10
183.9306
 20
-81.5786
 30
0.0
 10
185.0403
 20
-80.7463
 30
0.0
 10
186.3581
 20
-79.4978
 30
0.0
 10
186.3581
 20
-79.4978
 30
0.0
 10
186.3581
 20
-79.4978
 30
0.0
 10
186.3581
 20
-79.4284
 30
0.0
 10
186.3581
 20
-79.4284
 30
0.0
 10
186.3581
 20
-79.4284
 30
0.0
 10
186.3581
 20
-79.4284
 30
0.0
 10
184.208
 20
-76.0298
 30
0.0
 10
181.0174
 20
-74.0183
 30
0.0
 10
181.0174
 20
-74.0183
 30
0.0
 10
181.0174
 20
-74.0183
 30
0.0
 10
181.0174
 20
-73.9489
 30
0.0
 10
180.948
 20
-73.8797
 30
0.0
  0
SPLINE
  5
B0
330
1F
100
AcDbEntity
  8
layer 1
 62
     7
370
     9
100
AcDbSpline
210
0.0
220
0.0
230
1.0
 70
    11
 71
     3
 72
    12
 73
     8
 74
     0
 42
0.0000000001
 43
0.0000000001
 12
1.0
 22
0.0
 32
0.0
 13
1.0
 23
0.0
 33
0.0
 40
0.0
 40
0.0
 40
0.0
 40
0.0
 40
0.3333333333333333
 40
0.3333333333333333
 40
0.3333333333333333
 40
0.3333333333333333
 40
1.0
 40
1.0
 40
1.0
 40
1.0
 10
136.2805
 20
-103.9816
 30
0.0
 10
136.4888
 20
-103.843
 30
0.0
 10
137.2516
 20
-103.4268
 30
0.0
 10
138.0146
 20
-104.1896
 30
0.0
 10
138.0146
 20
-104.1896
 30
0.0
 10
137.3904
 20
-104.1204
 30
0.0
 10
136.8356
 20
-104.051
 30
0.0
 10
136.2805
 20
-103.9816
 30
0.0
  0
SPLINE
  5
B1
330
1F
100
AcDbEntity
  8
layer 1
 62
     7
370
     9
100
AcDbSpline
210
0.0
220
0.0
230
1.0
 70
    11
 71
     3
 72
    36
 73
    32
 74
     0
 42
0.0000000001
 43
0.0000000001
 12
1.0
 22
0.0
 32
0.0
 13
1.0
 23
0.0
 33
0.0
 40
0.0
 40
0.0
 40
0.0
 40
0.0
 40
0.1111111111111111
 40
0.1111111111111111
 40
0.1111111111111111
 40
0.1111111111111111
 40
0.2222222222222222
 40
0.2222222222222222
 40
0.2222222222222222
 40
0.2222222222222222
 40
0.3333333333333333
 40
0.3333333333333333
 40
0.3333333333333333
 40
0.3333333333333333
 40
0.4444444444444444
 40
0.4444444444444444
 40
0.4444444444444444
 40
0.4444444444444444
 40
0.5555555555555556
 40
0.5555555555555556
 40
0.5555555555555556
 40
0.5555555555555556
 40
0.6666666666666666
 40
0.6666666666666666
 40
0.6666666666666666
 40
0.6666666666666666
 40
0.7777777777777778
 40
0.7777777777777778
 40
0.7777777777777778
 40
0.7777777777777778
 40
1.0
 40
1.0
 40
1.0
 40
1.0
 10
162.9146
 20
-88.3757
 30
0.0
 10
162.9146
 20
-88.3757
 30
0.0
 10
165.1342
 20
-94.5487
 30
0.0
 10
170.4749
 20
-94.5487
 30
0.0
 10
170.4749
 20
-94.5487
 30
0.0
 10
175.885
 20
-94.5487
 30
0.0
 10
178.9367
 20
-91.7743
 30
0.0
 10
178.9367
 20
-87.3353
 30
0.0
 10
178.9367
 20
-87.3353
 30
0.0
 10
178.9367
 20
-82.9656
 30
0.0
 10
175.3993
 20
-80.4687
 30
0.0
 10
173.3186
 20
-80.4687
 30
0.0
 10
173.3186
 20
-80.4687
 30
0.0
 10
171.1685
 20
-80.4687
 30
0.0
 10
170.7523
 20
-81.4397
 30
0.0
 10
170.7523
 20
-81.4397
 30
0.0
 10
170.7523
 20
-81.4397
 30
0.0
 10
170.7523
 20
-81.4397
 30
0.0
 10
173.3186
 20
-80.5381
 30
0.0
 10
173.3186
 20
-83.4513
 30
0.0
 10
173.3186
 20
-83.4513
 30
0.0
 10
173.3186
 20
-86.4336
 30
0.0
 10
167.9085
 20
-88.0983
 30
0.0
 10
170.6829
 20
-91.0115
 30
0.0
 10
170.6829
 20
-91.0115
 30
0.0
 10
170.6829
 20
-91.0115
 30
0.0
 10
165.8972
 20
-92.7454
 30
0.0
 10
165.689
 20
-87.8209
 30
0.0
 10
165.689
 20
-87.8209
 30
0.0
 10
165.689
 20
-87.8209
 30
0.0
 10
165.4116
 20
-88.1677
 30
0.0
 10
162.9146
 20
-88.3757
 30
0.0
  0
SPLINE
  5
B2
330
1F
100
AcDbEntity
  8
layer 1
 62
     7
370
     9
100
AcDbSpline
210
0.0
220
0.0
230
1.0
 70
    11
 71
     3
 72
    20
 73
    16
 74
     0
 42
0.0000000001
 43
0.0000000001
 12
1.0
 22
0.0
 32
0.0
 13
1.0
 23
0.0
 33
0.0
 40
0.0
 40
0.0
 40
0.0
 40
0.0
 40
0.2
 40
0.2
 40
0.2
 40
0.2
 40
0.4
 40
0.4
 40
0.4
 40
0.4
 40
0.6
 40
0.6
 40
0.6
 40
0.6
 40
1.0
 40
1.0
 40
1.0
 40
1.0
 10
174.8445
 20
-72.7005
 30
0.0
 10
174.8445
 20
-72.7699
 30
0.0
 10
176.301
 20
-74.2957
 30
0.0
 10
177.272
 20
-72.5618
 30
0.0
 10
177.272
 20
-72.5618
 30
0.0
 10
177.2026
 20
-72.5618
 30
0.0
 10
177.1334
 20
-72.5618
 30
0.0
 10
177.1334
 20
-72.5618
 30
0.0
 10
177.1334
 20
-72.5618
 30
0.0
 10
176.9252
 20
-72.5618
 30
0.0
 10
176.8558
 20
-72.5618
 30
0.0
 10
176.7172
 20
-72.5618
 30
0.0
 10
176.7172
 20
-72.5618
 30
0.0
 10
176.093
 20
-72.5618
 30
0.0
 10
175.4687
 20
-72.6313
 30
0.0
 10
174.8445
 20
-72.7005
 30
0.0
  0
SPLINE
  5
B3
330
1F
100
AcDbEntity
  8
layer 1
 62
     7
370
     9
100
AcDbSpline
210
0.0
220
0.0
230
1.0
 70
    11
 71
     3
 72
    64
 73
    60
 74
     0
 42
0.0000000001
 43
0.0000000001
 12
1.0
 22
0.0
 32
0.0
 13
1.0
 23
0.0
 33
0.0
 40
0.0
 40
0.0
 40
0.0
 40
0.0
 40
0.0625
 40
0.0625
 40
0.0625
 40
0.0625
 40
0.125
 40
0.125
 40
0.125
 40
0.125
 40
0.1875
 40
0.1875
 40
0.1875
 40
0.1875
 40
0.25
 40
0.25
 40
0.25
 40
0.25
 40
0.3125
 40
0.3125
 40
0.3125
 40
0.3125
 40
0.375
 40
0.375
 40
0.375
 40
0.375
 40
0.4375
 40
0.4375
 40
0.4375
 40
0.4375
 40
0.5
 40
0.5
 40
0.5
 40
0.5
 40
0.5625
 40
0.5625
 40
0.5625
 40
0.5625
 40
0.625
 40
0.625
 40
0.625
 40
0.625
 40
0.6875
 40
0.6875
 40
0.6875
 40
0.6875
 40
0.75
 40
0.75
 40
0.75
 40
0.75
 40
0.8125
 40
0.8125
 40
0.8125
 40
0.8125
 40
0.875
 40
0.875
 40
0.875
 40
0.875
 40
1.0
 40
1.0
 40
1.0
 40
1.0
 10
180.948
 20
-67.1517
 30
0.0
 10
180.2546
 20
-66.9437
 30
0.0
 10
180.1158
 20
-67.568
 30
0.0
 10
180.1158
 20
-67.568
 30
0.0
 10
180.1158
 20
-67.568
 30
0.0
 10
180.1158
 20
-67.568
 30
0.0
 10
179.4222
 20
-64.7242
 30
0.0
 10
176.8558
 20
-64.7242
 30
0.0
 10
176.8558
 20
-64.7242
 30
0.0
 10
174.3589
 20
-64.7242
 30
0.0
 10
173.3186
 20
-67.9148
 30
0.0
 10
173.2492
 20
-68.0534
 30
0.0
 10
173.2492
 20
-68.0534
 30
0.0
 10
167.9085
 20
-66.8743
 30
0.0
 10
164.4405
 20
-62.9209
 30
0.0
 10
162.013
 20
-58.7593
 30
0.0
 10
162.013
 20
-58.7593
 30
0.0
 10
165.8972
 20
-59.1061
 30
0.0
 10
166.3826
 20
-62.7821
 30
0.0
 10
173.804
 20
-62.7821
 30
0.0
 10
173.804
 20
-62.7821
 30
0.0
 10
180.1158
 20
-62.7821
 30
0.0
 10
181.7111
 20
-56.8172
 30
0.0
 10
181.7111
 20
-54.0428
 30
0.0
 10
181.7111
 20
-54.0428
 30
0.0
 10
181.7111
 20
-52.4475
 30
0.0
 10
181.0868
 20
-49.257
 30
0.0
 10
178.7979
 20
-47.315
 30
0.0
 10
178.7979
 20
-47.315
 30
0.0
 10
178.7979
 20
-47.315
 30
0.0
 10
182.1273
 20
-47.4536
 30
0.0
 10
183.237
 20
-41.6969
 30
0.0
 10
183.237
 20
-41.6969
 30
0.0
 10
183.237
 20
-41.6969
 30
0.0
 10
183.237
 20
-41.6969
 30
0.0
 10
183.237
 20
-41.6969
 30
0.0
 10
183.237
 20
-41.6969
 30
0.0
 10
185.6645
 20
-44.0551
 30
0.0
 10
187.676
 20
-47.6619
 30
0.0
 10
187.8146
 20
-53.0718
 30
0.0
 10
187.8146
 20
-53.0718
 30
0.0
 10
187.8146
 20
-53.0718
 30
0.0
 10
183.9306
 20
-52.6557
 30
0.0
 10
183.9306
 20
-57.164
 30
0.0
 10
183.9306
 20
-57.164
 30
0.0
 10
183.9306
 20
-59.4529
 30
0.0
 10
185.0403
 20
-60.2852
 30
0.0
 10
186.3581
 20
-61.5336
 30
0.0
 10
186.3581
 20
-61.5336
 30
0.0
 10
186.3581
 20
-61.5336
 30
0.0
 10
186.3581
 20
-61.5336
 30
0.0
 10
186.3581
 20
-61.5336
 30
0.0
 10
186.3581
 20
-61.5336
 30
0.0
 10
186.3581
 20
-61.5336
 30
0.0
 10
184.208
 20
-65.0016
 30
0.0
 10
181.0174
 20
-67.0131
 30
0.0
 10
181.0174
 20
-67.0131
 30
0.0
 10
181.0174
 20
-67.0131
 30
0.0
 10
181.0174
 20
-67.0823
 30
0.0
 10
180.948
 20
-67.1517
 30
0.0
  0
SPLINE
  5
B4
330
1F
100
AcDbEntity
  8
layer 1
 62
     7
370
     9
100
AcDbSpline
210
0.0
220
0.0
230
1.0
 70
    11
 71
     3
 72
    12
 73
     8
 74
     0
 42
0.0000000001
 43
0.0000000001
 12
1.0
 22
0.0
 32
0.0
 13
1.0
 23
0.0
 33
0.0
 40
0.0
 40
0.0
 40
0.0
 40
0.0
 40
0.3333333333333333
 40
0.3333333333333333
 40
0.3333333333333333
 40
0.3333333333333333
 40
1.0
 40
1.0
 40
1.0
 40
1.0
 10
136.2805
 20
-37.0499
 30
0.0
 10
136.4888
 20
-37.1885
 30
0.0
 10
137.2516
 20
-37.6047
 30
0.0
 10
138.0146
 20
-36.8417
 30
0.0
 10
138.0146
 20
-36.8417
 30
0.0
 10
137.3904
 20
-36.9111
 30
0.0
 10
136.8356
 20
-36.9805
 30
0.0
 10
136.2805
 20
-37.0499
 30
0.0
  0
SPLINE
  5
B5
330
1F
100
AcDbEntity
  8
layer 1
 62
     7
370
     9
100
AcDbSpline
210
0.0
220
0.0
230
1.0
 70
    11
 71
     3
 72
    36
 73
    32
 74
     0
 42
0.0000000001
 43
0.0000000001
 12
1.0
 22
0.0
 32
0.0
 13
1.0
 23
0.0
 33
0.0
 40
0.0
 40
0.0
 40
0.0
 40
0.0
 40
0.1111111111111111
 40
0.1111111111111111
 40
0.1111111111111111
 40
0.1111111111111111
 40
0.2222222222222222
 40
0.2222222222222222
 40
0.2222222222222222
 40
0.2222222222222222
 40
0.3333333333333333
 40
0.3333333333333333
 40
0.3333333333333333
 40
0.3333333333333333
 40
0.4444444444444444
 40
0.4444444444444444
 40
0.4444444444444444
 40
0.4444444444444444
 40
0.5555555555555556
 40
0.5555555555555556
 40
0.5555555555555556
 40
0.5555555555555556
 40
0.6666666666666666
 40
0.6666666666666666
 40
0.6666666666666666
 40
0.6666666666666666
 40
0.7777777777777778
 40
0.7777777777777778
 40
0.7777777777777778
 40
0.7777777777777778
 40
1.0
 40
1.0
 40
1.0
 40
1.0
 10
162.9146
 20
-52.6557
 30
0.0
 10
162.9146
 20
-52.6557
 30
0.0
 10
165.1342
 20
-46.4134
 30
0.0
 10
170.4749
 20
-46.4134
 30
0.0
 10
170.4749
 20
-46.4134
 30
0.0
 10
175.885
 20
-46.4134
 30
0.0
 10
178.9367
 20
-49.257
 30
0.0
 10
178.9367
 20
-53.6266
 30
0.0
 10
178.9367
 20
-53.6266
 30
0.0
 10
178.9367
 20
-58.0656
 30
0.0
 10
175.3993
 20
-60.5626
 30
0.0
 10
173.3186
 20
-60.5626
 30
0.0
 10
173.3186
 20
-60.5626
 30
0.0
 10
171.1685
 20
-60.5626
 30
0.0
 10
170.7523
 20
-59.5915
 30
0.0
 10
170.7523
 20
-59.5915
 30
0.0
 10
170.7523
 20
-59.5915
 30
0.0
 10
170.7523
 20
-59.5915
 30
0.0
 10
173.3186
 20
-60.4932
 30
0.0
 10
173.3186
 20
-57.5802
 30
0.0
 10
173.3186
 20
-57.5802
 30
0.0
 10
173.3186
 20
-54.5976
 30
0.0
 10
167.9085
 20
-52.9332
 30
0.0
 10
170.6829
 20
-50.02
 30
0.0
 10
170.6829
 20
-50.02
 30
0.0
 10
170.6829
 20
-50.02
 30
0.0
 10
165.8972
 20
-48.2861
 30
0.0
 10
165.689
 20
-53.2106
 30
0.0
 10
165.689
 20
-53.2106
 30
0.0
 10
165.689
 20
-53.2106
 30
0.0
 10
165.4116
 20
-52.7943
 30
0.0
 10
162.9146
 20
-52.6557
 30
0.0
  0
SPLINE
  5
B6
330
1F
100
AcDbEntity
  8
layer 1
 62
     7
370
     9
100
AcDbSpline
210
0.0
220
0.0
230
1.0
 70
    11
 71
     3
 72
    20
 73
    16
 74
     0
 42
0.0000000001
 43
0.0000000001
 12
1.0
 22
0.0
 32
0.0
 13
1.0
 23
0.0
 33
0.0
 40
0.0
 40
0.0
 40
0.0
 40
0.0
 40
0.2
 40
0.2
 40
0.2
 40
0.2
 40
0.4
 40
0.4
 40
0.4
 40
0.4
 40
0.6
 40
0.6
 40
0.6
 40
0.6
 40
1.0
 40
1.0
 40
1.0
 40
1.0
 10
174.8445
 20
-68.3308
 30
0.0
 10
174.8445
 20
-68.3308
 30
0.0
 10
176.301
 20
-66.6663
 30
0.0
 10
177.272
 20
-68.4002
 30
0.0
 10
177.272
 20
-68.4002
 30
0.0
 10
177.2026
 20
-68.4002
 30
0.0
 10
177.1334
 20
-68.4002
 30
0.0
 10
177.1334
 20
-68.4002
 30
0.0
 10
177.1334
 20
-68.4002
 30
0.0
 10
176.9252
 20
-68.4696
 30
0.0
 10
176.8558
 20
-68.4696
 30
0.0
 10
176.7172
 20
-68.4696
 30
0.0
 10
176.7172
 20
-68.4696
 30
0.0
 10
176.093
 20
-68.4696
 30
0.0
 10
175.4687
 20
-68.4002
 30
0.0
 10
174.8445
 20
-68.3308
 30
0.0
  0
SPLINE
  5
B7
330
1F
100
AcDbEntity
  8
layer 1
 62
     7
370
     9
100
AcDbSpline
210
0.0
220
0.0
230
1.0
 70
    11
 71
     3
 72
    28
 73
    24
 74
     0
 42
0.0000000001
 43
0.0000000001
 12
1.0
 22
0.0
 32
0.0
 13
1.0
 23
0.0
 33
0.0
 40
0.0
 40
0.0
 40
0.0
 40
0.0
 40
0.1428571428571428
 40
0.1428571428571428
 40
0.1428571428571428
 40
0.1428571428571428
 40
0.2857142857142857
 40
0.2857142857142857
 40
0.2857142857142857
 40
0.2857142857142857
 40
0.4285714285714285
 40
0.4285714285714285
 40
0.4285714285714285
 40
0.4285714285714285
 40
0.5714285714285714
 40
0.5714285714285714
 40
0.5714285714285714
 40
0.5714285714285714
 40
0.7142857142857143
 40
0.7142857142857143
 40
0.7142857142857143
 40
0.7142857142857143
 40
1.0
 40
1.0
 40
1.0
 40
1.0
 10
150.7073
 20
-70.4809
 30
0.0
 10
150.7073
 20
-70.4809
 30
0.0
 10
150.7768
 20
-70.5503
 30
0.0
 10
150.7768
 20
-70.5503
 30
0.0
 10
150.7768
 20
-70.5503
 30
0.0
 10
155.7706
 20
-71.452
 30
0.0
 10
156.8803
 20
-74.2957
 30
0.0
 10
160.9033
 20
-74.2957
 30
0.0
 10
160.9033
 20
-74.2957
 30
0.0
 10
165.0648
 20
-74.2957
 30
0.0
 10
167.7005
 20
-71.244
 30
0.0
 10
174.7057
 20
-70.4809
 30
0.0
 10
174.7057
 20
-70.4809
 30
0.0
 10
167.7005
 20
-69.7875
 30
0.0
 10
165.0648
 20
-66.7355
 30
0.0
 10
160.9033
 20
-66.7355
 30
0.0
 10
160.9033
 20
-66.7355
 30
0.0
 10
156.8803
 20
-66.7355
 30
0.0
 10
155.7706
 20
-69.5793
 30
0.0
 10
150.7768
 20
-70.4809
 30
0.0
 10
150.7768
 20
-70.4809
 30
0.0
 10
150.7768
 20
-70.4809
 30
0.0
 10
150.7073
 20
-70.4809
 30
0.0
 10
150.7073
 20
-70.4809
 30
0.0
  0
SPLINE
  5
B8
330
1F
100
AcDbEntity
  8
layer 1
 62
     7
370
     9
100
AcDbSpline
210
0.0
220
0.0
230
1.0
 70
    11
 71
     3
 72
    20
 73
    16
 74
     0
 42
0.0000000001
 43
0.0000000001
 12
1.0
 22
0.0
 32
0.0
 13
1.0
 23
0.0
 33
0.0
 40
0.0
 40
0.0
 40
0.0
 40
0.0
 40
0.2
 40
0.2
 40
0.2
 40
0.2
 40
0.4
 40
0.4
 40
0.4
 40
0.4
 40
0.6
 40
0.6
 40
0.6
 40
0.6
 40
1.0
 40
1.0
 40
1.0
 40
1.0
 10
132.6739
 20
-70.4809
 30
0.0
 10
132.8127
 20
-71.1052
 30
0.0
 10
133.5756
 20
-73.6021
 30
0.0
 10
135.8645
 20
-73.6021
 30
0.0
 10
135.8645
 20
-73.6021
 30
0.0
 10
138.8469
 20
-73.6021
 30
0.0
 10
140.1648
 20
-71.3134
 30
0.0
 10
144.3264
 20
-70.4809
 30
0.0
 10
144.3264
 20
-70.4809
 30
0.0
 10
140.1648
 20
-69.7181
 30
0.0
 10
138.8469
 20
-67.4292
 30
0.0
 10
135.8645
 20
-67.4292
 30
0.0
 10
135.8645
 20
-67.4292
 30
0.0
 10
133.5756
 20
-67.4292
 30
0.0
 10
132.8127
 20
-69.9261
 30
0.0
 10
132.6739
 20
-70.4809
 30
0.0
  0
SPLINE
  5
B9
330
1F
100
AcDbEntity
  8
layer 1
 62
     7
370
     9
100
AcDbSpline
210
0.0
220
0.0
230
1.0
 70
    11
 71
     3
 72
    36
 73
    32
 74
     0
 42
0.0000000001
 43
0.0000000001
 12
1.0
 22
0.0
 32
0.0
 13
1.0
 23
0.0
 33
0.0
 40
0.0
 40
0.0
 40
0.0
 40
0.0
 40
0.1111111111111111
 40
0.1111111111111111
 40
0.1111111111111111
 40
0.1111111111111111
 40
0.2222222222222222
 40
0.2222222222222222
 40
0.2222222222222222
 40
0.2222222222222222
 40
0.3333333333333333
 40
0.3333333333333333
 40
0.3333333333333333
 40
0.3333333333333333
 40
0.4444444444444444
 40
0.4444444444444444
 40
0.4444444444444444
 40
0.4444444444444444
 40
0.5555555555555556
 40
0.5555555555555556
 40
0.5555555555555556
 40
0.5555555555555556
 40
0.6666666666666666
 40
0.6666666666666666
 40
0.6666666666666666
 40
0.6666666666666666
 40
0.7777777777777778
 40
0.7777777777777778
 40
0.7777777777777778
 40
0.7777777777777778
 40
1.0
 40
1.0
 40
1.0
 40
1.0
 10
176.301
 20
-34.969
 30
0.0
 10
178.5205
 20
-34.5529
 30
0.0
 10
180.6012
 20
-33.6511
 30
0.0
 10
182.0579
 20
-32.5414
 30
0.0
 10
182.0579
 20
-32.5414
 30
0.0
 10
182.0579
 20
-32.5414
 30
0.0
 10
182.0579
 20
-32.5414
 30
0.0
 10
182.0579
 20
-32.5414
 30
0.0
 10
182.0579
 20
-32.5414
 30
0.0
 10
183.5144
 20
-33.8593
 30
0.0
 10
184.7629
 20
-34.6915
 30
0.0
 10
185.8727
 20
-34.969
 30
0.0
 10
185.8727
 20
-34.969
 30
0.0
 10
185.8727
 20
-34.969
 30
0.0
 10
185.8033
 20
-34.969
 30
0.0
 10
185.8033
 20
-34.969
 30
0.0
 10
185.8033
 20
-34.969
 30
0.0
 10
185.8033
 20
-34.969
 30
0.0
 10
185.8727
 20
-34.969
 30
0.0
 10
185.8727
 20
-34.969
 30
0.0
 10
185.8727
 20
-34.969
 30
0.0
 10
184.7629
 20
-35.3158
 30
0.0
 10
183.5144
 20
-36.0788
 30
0.0
 10
182.0579
 20
-37.4659
 30
0.0
 10
182.0579
 20
-37.4659
 30
0.0
 10
182.0579
 20
-37.4659
 30
0.0
 10
182.0579
 20
-37.4659
 30
0.0
 10
182.0579
 20
-37.4659
 30
0.0
 10
182.0579
 20
-37.4659
 30
0.0
 10
180.6012
 20
-36.2868
 30
0.0
 10
178.5205
 20
-35.3852
 30
0.0
 10
176.301
 20
-34.969
 30
0.0
  0
SPLINE
  5
BA
330
1F
100
AcDbEntity
  8
layer 1
 62
     7
370
     9
100
AcDbSpline
210
0.0
220
0.0
230
1.0
 70
    11
 71
     3
 72
    20
 73
    16
 74
     0
 42
0.0000000001
 43
0.0000000001
 12
1.0
 22
0.0
 32
0.0
 13
1.0
 23
0.0
 33
0.0
 40
0.0
 40
0.0
 40
0.0
 40
0.0
 40
0.2
 40
0.2
 40
0.2
 40
0.2
 40
0.4
 40
0.4
 40
0.4
 40
0.4
 40
0.6
 40
0.6
 40
0.6
 40
0.6
 40
1.0
 40
1.0
 40
1.0
 40
1.0
 10
158.9612
 20
-34.969
 30
0.0
 10
162.221
 20
-33.0268
 30
0.0
 10
162.9146
 20
-29.9057
 30
0.0
 10
166.3826
 20
-33.0962
 30
0.0
 10
166.3826
 20
-33.0962
 30
0.0
 10
167.4231
 20
-33.9979
 30
0.0
 10
168.7408
 20
-34.6915
 30
0.0
 10
170.1974
 20
-34.969
 30
0.0
 10
170.1974
 20
-34.969
 30
0.0
 10
168.7408
 20
-35.3158
 30
0.0
 10
167.4231
 20
-35.94
 30
0.0
 10
166.3826
 20
-36.8417
 30
0.0
 10
166.3826
 20
-36.8417
 30
0.0
 10
162.9146
 20
-40.0322
 30
0.0
 10
162.221
 20
-36.9111
 30
0.0
 10
158.9612
 20
-34.969
 30
0.0
  0
SPLINE
  5
BB
330
1F
100
AcDbEntity
  8
layer 1
 62
     7
370
     9
100
AcDbSpline
210
0.0
220
0.0
230
1.0
 70
    11
 71
     3
 72
    92
 73
    88
 74
     0
 42
0.0000000001
 43
0.0000000001
 12
1.0
 22
0.0
 32
0.0
 13
1.0
 23
0.0
 33
0.0
 40
0.0
 40
0.0
 40
0.0
 40
0.0
 40
0.0434782608695652
 40
0.0434782608695652
 40
0.0434782608695652
 40
0.0434782608695652
 40
0.0869565217391304
 40
0.0869565217391304
 40
0.0869565217391304
 40
0.0869565217391304
 40
0.1304347826086956
 40
0.1304347826086956
 40
0.1304347826086956
 40
0.1304347826086956
 40
0.1739130434782609
 40
0.1739130434782609
 40
0.1739130434782609
 40
0.1739130434782609
 40
0.2173913043478261
 40
0.2173913043478261
 40
0.2173913043478261
 40
0.2173913043478261
 40
0.2608695652173913
 40
0.2608695652173913
 40
0.2608695652173913
 40
0.2608695652173913
 40
0.3043478260869565
 40
0.3043478260869565
 40
0.3043478260869565
 40
0.3043478260869565
 40
0.3478260869565217
 40
0.3478260869565217
 40
0.3478260869565217
 40
0.3478260869565217
 40
0.391304347826087
 40
0.391304347826087
 40
0.391304347826087
 40
0.391304347826087
 40
0.4347826086956522
 40
0.4347826086956522
 40
0.4347826086956522
 40
0.4347826086956522
 40
0.4782608695652174
 40
0.4782608695652174
 40
0.4782608695652174
 40
0.4782608695652174
 40
0.5217391304347826
 40
0.5217391304347826
 40
0.5217391304347826
 40
0.5217391304347826
 40
0.5652173913043478
 40
0.5652173913043478
 40
0.5652173913043478
 40
0.5652173913043478
 40
0.6086956521739131
 40
0.6086956521739131
 40
0.6086956521739131
 40
0.6086956521739131
 40
0.6521739130434783
 40
0.6521739130434783
 40
0.6521739130434783
 40
0.6521739130434783
 40
0.6956521739130435
 40
0.6956521739130435
 40
0.6956521739130435
 40
0.6956521739130435
 40
0.7391304347826086
 40
0.7391304347826086
 40
0.7391304347826086
 40
0.7391304347826086
 40
0.782608695652174
 40
0.782608695652174
 40
0.782608695652174
 40
0.782608695652174
 40
0.8260869565217391
 40
0.8260869565217391
 40
0.8260869565217391
 40
0.8260869565217391
 40
0.8695652173913043
 40
0.8695652173913043
 40
0.8695652173913043
 40
0.8695652173913043
 40
0.9130434782608695
 40
0.9130434782608695
 40
0.9130434782608695
 40
0.9130434782608695
 40
1.0
 40
1.0
 40
1.0
 40
1.0
 10
143.5633
 20
-34.969
 30
0.0
 10
149.4589
 20
-33.2351
 30
0.0
 10
155.0076
 20
-28.8654
 30
0.0
 10
156.9497
 20
-23.1779
 30
0.0
 10
156.9497
 20
-23.1779
 30
0.0
 10
157.5739
 20
-21.9294
 30
0.0
 10
158.337
 20
-19.6405
 30
0.0
 10
159.2386
 20
-17.213
 30
0.0
 10
159.2386
 20
-17.213
 30
0.0
 10
159.2386
 20
-17.213
 30
0.0
 10
159.2386
 20
-17.213
 30
0.0
 10
159.2386
 20
-17.213
 30
0.0
 10
159.2386
 20
-17.213
 30
0.0
 10
159.2386
 20
-17.213
 30
0.0
 10
159.2386
 20
-17.213
 30
0.0
 10
159.2386
 20
-17.213
 30
0.0
 10
159.2386
 20
-17.213
 30
0.0
 10
161.0419
 20
-23.5941
 30
0.0
 10
166.9375
 20
-27.4087
 30
0.0
 10
172.9718
 20
-27.4087
 30
0.0
 10
172.9718
 20
-27.4087
 30
0.0
 10
175.9542
 20
-27.4087
 30
0.0
 10
178.1737
 20
-28.796
 30
0.0
 10
179.977
 20
-30.4607
 30
0.0
 10
179.977
 20
-30.4607
 30
0.0
 10
179.977
 20
-30.4607
 30
0.0
 10
179.977
 20
-30.4607
 30
0.0
 10
179.977
 20
-30.4607
 30
0.0
 10
179.977
 20
-30.4607
 30
0.0
 10
176.8558
 20
-33.3045
 30
0.0
 10
172.833
 20
-32.5414
 30
0.0
 10
172.833
 20
-32.5414
 30
0.0
 10
172.833
 20
-32.5414
 30
0.0
 10
173.3186
 20
-31.3623
 30
0.0
 10
173.1798
 20
-30.1833
 30
0.0
 10
172.2782
 20
-29.559
 30
0.0
 10
172.2782
 20
-29.559
 30
0.0
 10
170.8217
 20
-28.5186
 30
0.0
 10
168.2553
 20
-29.2814
 30
0.0
 10
168.4633
 20
-31.7092
 30
0.0
 10
168.4633
 20
-31.7092
 30
0.0
 10
167.6311
 20
-26.9927
 30
0.0
 10
157.4353
 20
-27.7555
 30
0.0
 10
156.048
 20
-34.969
 30
0.0
 10
156.048
 20
-34.969
 30
0.0
 10
157.4353
 20
-42.2518
 30
0.0
 10
167.6311
 20
-42.9454
 30
0.0
 10
168.4633
 20
-38.2289
 30
0.0
 10
168.4633
 20
-38.2289
 30
0.0
 10
168.2553
 20
-40.6565
 30
0.0
 10
170.8217
 20
-41.4195
 30
0.0
 10
172.2782
 20
-40.4485
 30
0.0
 10
172.2782
 20
-40.4485
 30
0.0
 10
173.1798
 20
-39.8242
 30
0.0
 10
173.3186
 20
-38.5758
 30
0.0
 10
172.833
 20
-37.3965
 30
0.0
 10
172.833
 20
-37.3965
 30
0.0
 10
172.833
 20
-37.3965
 30
0.0
 10
176.8558
 20
-36.703
 30
0.0
 10
179.977
 20
-39.4774
 30
0.0
 10
179.977
 20
-39.4774
 30
0.0
 10
179.977
 20
-39.4774
 30
0.0
 10
179.977
 20
-39.4774
 30
0.0
 10
179.977
 20
-39.4774
 30
0.0
 10
179.977
 20
-39.4774
 30
0.0
 10
178.1737
 20
-41.1419
 30
0.0
 10
175.9542
 20
-42.5292
 30
0.0
 10
172.9718
 20
-42.5292
 30
0.0
 10
172.9718
 20
-42.5292
 30
0.0
 10
166.9375
 20
-42.5292
 30
0.0
 10
161.0419
 20
-46.344
 30
0.0
 10
159.2386
 20
-52.7249
 30
0.0
 10
159.2386
 20
-52.7249
 30
0.0
 10
159.2386
 20
-52.7249
 30
0.0
 10
159.2386
 20
-52.7249
 30
0.0
 10
159.2386
 20
-52.7249
 30
0.0
 10
159.2386
 20
-52.7249
 30
0.0
 10
159.2386
 20
-52.7249
 30
0.0
 10
159.2386
 20
-52.7249
 30
0.0
 10
159.2386
 20
-52.7249
 30
0.0
 10
159.2386
 20
-52.7249
 30
0.0
 10
158.337
 20
-50.2974
 30
0.0
 10
157.5739
 20
-48.0779
 30
0.0
 10
156.9497
 20
-46.76
 30
0.0
 10
156.9497
 20
-46.76
 30
0.0
 10
155.0076
 20
-41.0727
 30
0.0
 10
149.4589
 20
-36.703
 30
0.0
 10
143.5633
 20
-34.969
 30
0.0
  0
SPLINE
  5
BC
330
1F
100
AcDbEntity
  8
layer 1
 62
     7
370
     9
100
AcDbSpline
210
0.0
220
0.0
230
1.0
 70
    11
 71
     3
 72
    64
 73
    60
 74
     0
 42
0.0000000001
 43
0.0000000001
 12
1.0
 22
0.0
 32
0.0
 13
1.0
 23
0.0
 33
0.0
 40
0.0
 40
0.0
 40
0.0
 40
0.0
 40
0.0625
 40
0.0625
 40
0.0625
 40
0.0625
 40
0.125
 40
0.125
 40
0.125
 40
0.125
 40
0.1875
 40
0.1875
 40
0.1875
 40
0.1875
 40
0.25
 40
0.25
 40
0.25
 40
0.25
 40
0.3125
 40
0.3125
 40
0.3125
 40
0.3125
 40
0.375
 40
0.375
 40
0.375
 40
0.375
 40
0.4375
 40
0.4375
 40
0.4375
 40
0.4375
 40
0.5
 40
0.5
 40
0.5
 40
0.5
 40
0.5625
 40
0.5625
 40
0.5625
 40
0.5625
 40
0.625
 40
0.625
 40
0.625
 40
0.625
 40
0.6875
 40
0.6875
 40
0.6875
 40
0.6875
 40
0.75
 40
0.75
 40
0.75
 40
0.75
 40
0.8125
 40
0.8125
 40
0.8125
 40
0.8125
 40
0.875
 40
0.875
 40
0.875
 40
0.875
 40
1.0
 40
1.0
 40
1.0
 40
1.0
 10
180.948
 20
68.2378
 30
0.0
 10
180.2546
 20
68.0298
 30
0.0
 10
180.1158
 20
68.654
 30
0.0
 10
180.1158
 20
68.654
 30
0.0
 10
180.1158
 20
68.654
 30
0.0
 10
180.1158
 20
68.654
 30
0.0
 10
179.4222
 20
65.8797
 30
0.0
 10
176.8558
 20
65.8797
 30
0.0
 10
176.8558
 20
65.8797
 30
0.0
 10
174.3589
 20
65.8797
 30
0.0
 10
173.3186
 20
69.0701
 30
0.0
 10
173.2492
 20
69.2089
 30
0.0
 10
173.2492
 20
69.2089
 30
0.0
 10
167.9085
 20
67.9604
 30
0.0
 10
164.4405
 20
64.0762
 30
0.0
 10
162.013
 20
59.8453
 30
0.0
 10
162.013
 20
59.8453
 30
0.0
 10
165.8972
 20
60.2616
 30
0.0
 10
166.3826
 20
63.9376
 30
0.0
 10
173.804
 20
63.9376
 30
0.0
 10
173.804
 20
63.9376
 30
0.0
 10
180.1158
 20
63.9376
 30
0.0
 10
181.7111
 20
57.9726
 30
0.0
 10
181.7111
 20
55.0595
 30
0.0
 10
181.7111
 20
55.0595
 30
0.0
 10
181.7111
 20
53.5336
 30
0.0
 10
181.0868
 20
50.4124
 30
0.0
 10
178.7979
 20
48.4011
 30
0.0
 10
178.7979
 20
48.4011
 30
0.0
 10
178.7979
 20
48.4011
 30
0.0
 10
182.1273
 20
48.6091
 30
0.0
 10
183.237
 20
42.783
 30
0.0
 10
183.237
 20
42.783
 30
0.0
 10
183.237
 20
42.783
 30
0.0
 10
183.237
 20
42.8522
 30
0.0
 10
183.237
 20
42.8522
 30
0.0
 10
183.237
 20
42.8522
 30
0.0
 10
185.6645
 20
45.1411
 30
0.0
 10
187.676
 20
48.7479
 30
0.0
 10
187.8146
 20
54.1578
 30
0.0
 10
187.8146
 20
54.1578
 30
0.0
 10
187.8146
 20
54.1578
 30
0.0
 10
183.9306
 20
53.7418
 30
0.0
 10
183.9306
 20
58.3195
 30
0.0
 10
183.9306
 20
58.3195
 30
0.0
 10
183.9306
 20
60.539
 30
0.0
 10
185.0403
 20
61.3712
 30
0.0
 10
186.3581
 20
62.6891
 30
0.0
 10
186.3581
 20
62.6891
 30
0.0
 10
186.3581
 20
62.6891
 30
0.0
 10
186.3581
 20
62.6891
 30
0.0
 10
186.3581
 20
62.6891
 30
0.0
 10
186.3581
 20
62.6891
 30
0.0
 10
186.3581
 20
62.6891
 30
0.0
 10
184.208
 20
66.0877
 30
0.0
 10
181.0174
 20
68.1684
 30
0.0
 10
181.0174
 20
68.1684
 30
0.0
 10
181.0174
 20
68.1684
 30
0.0
 10
181.0174
 20
68.1684
 30
0.0
 10
180.948
 20
68.2378
 30
0.0
  0
SPLINE
  5
BD
330
1F
100
AcDbEntity
  8
layer 1
 62
     7
370
     9
100
AcDbSpline
210
0.0
220
0.0
230
1.0
 70
    11
 71
     3
 72
    12
 73
     8
 74
     0
 42
0.0000000001
 43
0.0000000001
 12
1.0
 22
0.0
 32
0.0
 13
1.0
 23
0.0
 33
0.0
 40
0.0
 40
0.0
 40
0.0
 40
0.0
 40
0.3333333333333333
 40
0.3333333333333333
 40
0.3333333333333333
 40
0.3333333333333333
 40
1.0
 40
1.0
 40
1.0
 40
1.0
 10
136.2805
 20
38.1359
 30
0.0
 10
136.4888
 20
38.2745
 30
0.0
 10
137.2516
 20
38.6908
 30
0.0
 10
138.0146
 20
37.9277
 30
0.0
 10
138.0146
 20
37.9277
 30
0.0
 10
137.3904
 20
37.9971
 30
0.0
 10
136.8356
 20
38.0665
 30
0.0
 10
136.2805
 20
38.1359
 30
0.0
  0
SPLINE
  5
BE
330
1F
100
AcDbEntity
  8
layer 1
 62
     7
370
     9
100
AcDbSpline
210
0.0
220
0.0
230
1.0
 70
    11
 71
     3
 72
    36
 73
    32
 74
     0
 42
0.0000000001
 43
0.0000000001
 12
1.0
 22
0.0
 32
0.0
 13
1.0
 23
0.0
 33
0.0
 40
0.0
 40
0.0
 40
0.0
 40
0.0
 40
0.1111111111111111
 40
0.1111111111111111
 40
0.1111111111111111
 40
0.1111111111111111
 40
0.2222222222222222
 40
0.2222222222222222
 40
0.2222222222222222
 40
0.2222222222222222
 40
0.3333333333333333
 40
0.3333333333333333
 40
0.3333333333333333
 40
0.3333333333333333
 40
0.4444444444444444
 40
0.4444444444444444
 40
0.4444444444444444
 40
0.4444444444444444
 40
0.5555555555555556
 40
0.5555555555555556
 40
0.5555555555555556
 40
0.5555555555555556
 40
0.6666666666666666
 40
0.6666666666666666
 40
0.6666666666666666
 40
0.6666666666666666
 40
0.7777777777777778
 40
0.7777777777777778
 40
0.7777777777777778
 40
0.7777777777777778
 40
1.0
 40
1.0
 40
1.0
 40
1.0
 10
162.9146
 20
53.7418
 30
0.0
 10
162.9146
 20
53.7418
 30
0.0
 10
165.1342
 20
47.5687
 30
0.0
 10
170.4749
 20
47.5687
 30
0.0
 10
170.4749
 20
47.5687
 30
0.0
 10
175.885
 20
47.5687
 30
0.0
 10
178.9367
 20
50.343
 30
0.0
 10
178.9367
 20
54.7821
 30
0.0
 10
178.9367
 20
54.7821
 30
0.0
 10
178.9367
 20
59.1517
 30
0.0
 10
175.3993
 20
61.6486
 30
0.0
 10
173.3186
 20
61.6486
 30
0.0
 10
173.3186
 20
61.6486
 30
0.0
 10
171.1685
 20
61.6486
 30
0.0
 10
170.7523
 20
60.6776
 30
0.0
 10
170.7523
 20
60.6776
 30
0.0
 10
170.7523
 20
60.6776
 30
0.0
 10
170.7523
 20
60.6776
 30
0.0
 10
173.3186
 20
61.5792
 30
0.0
 10
173.3186
 20
58.6663
 30
0.0
 10
173.3186
 20
58.6663
 30
0.0
 10
173.3186
 20
55.6837
 30
0.0
 10
167.9085
 20
54.0192
 30
0.0
 10
170.6829
 20
51.1061
 30
0.0
 10
170.6829
 20
51.1061
 30
0.0
 10
170.6829
 20
51.1061
 30
0.0
 10
165.8972
 20
49.3722
 30
0.0
 10
165.689
 20
54.2966
 30
0.0
 10
165.689
 20
54.2966
 30
0.0
 10
165.689
 20
54.2966
 30
0.0
 10
165.4116
 20
53.9498
 30
0.0
 10
162.9146
 20
53.7418
 30
0.0
  0
SPLINE
  5
BF
330
1F
100
AcDbEntity
  8
layer 1
 62
     7
370
     9
100
AcDbSpline
210
0.0
220
0.0
230
1.0
 70
    11
 71
     3
 72
    20
 73
    16
 74
     0
 42
0.0000000001
 43
0.0000000001
 12
1.0
 22
0.0
 32
0.0
 13
1.0
 23
0.0
 33
0.0
 40
0.0
 40
0.0
 40
0.0
 40
0.0
 40
0.2
 40
0.2
 40
0.2
 40
0.2
 40
0.4
 40
0.4
 40
0.4
 40
0.4
 40
0.6
 40
0.6
 40
0.6
 40
0.6
 40
1.0
 40
1.0
 40
1.0
 40
1.0
 10
174.8445
 20
69.4169
 30
0.0
 10
174.8445
 20
69.4169
 30
0.0
 10
176.301
 20
67.8216
 30
0.0
 10
177.272
 20
69.5557
 30
0.0
 10
177.272
 20
69.5557
 30
0.0
 10
177.2026
 20
69.5557
 30
0.0
 10
177.1334
 20
69.5557
 30
0.0
 10
177.1334
 20
69.5557
 30
0.0
 10
177.1334
 20
69.5557
 30
0.0
 10
176.9252
 20
69.5557
 30
0.0
 10
176.8558
 20
69.5557
 30
0.0
 10
176.7172
 20
69.5557
 30
0.0
 10
176.7172
 20
69.5557
 30
0.0
 10
176.093
 20
69.5557
 30
0.0
 10
175.4687
 20
69.4863
 30
0.0
 10
174.8445
 20
69.4169
 30
0.0
  0
SPLINE
  5
C0
330
1F
100
AcDbEntity
  8
layer 1
 62
     7
370
     9
100
AcDbSpline
210
0.0
220
0.0
230
1.0
 70
    11
 71
     3
 72
    64
 73
    60
 74
     0
 42
0.0000000001
 43
0.0000000001
 12
1.0
 22
0.0
 32
0.0
 13
1.0
 23
0.0
 33
0.0
 40
0.0
 40
0.0
 40
0.0
 40
0.0
 40
0.0625
 40
0.0625
 40
0.0625
 40
0.0625
 40
0.125
 40
0.125
 40
0.125
 40
0.125
 40
0.1875
 40
0.1875
 40
0.1875
 40
0.1875
 40
0.25
 40
0.25
 40
0.25
 40
0.25
 40
0.3125
 40
0.3125
 40
0.3125
 40
0.3125
 40
0.375
 40
0.375
 40
0.375
 40
0.375
 40
0.4375
 40
0.4375
 40
0.4375
 40
0.4375
 40
0.5
 40
0.5
 40
0.5
 40
0.5
 40
0.5625
 40
0.5625
 40
0.5625
 40
0.5625
 40
0.625
 40
0.625
 40
0.625
 40
0.625
 40
0.6875
 40
0.6875
 40
0.6875
 40
0.6875
 40
0.75
 40
0.75
 40
0.75
 40
0.75
 40
0.8125
 40
0.8125
 40
0.8125
 40
0.8125
 40
0.875
 40
0.875
 40
0.875
 40
0.875
 40
1.0
 40
1.0
 40
1.0
 40
1.0
 10
180.948
 20
75.035
 30
0.0
 10
180.2546
 20
75.1738
 30
0.0
 10
180.1158
 20
74.5496
 30
0.0
 10
180.1158
 20
74.5496
 30
0.0
 10
180.1158
 20
74.5496
 30
0.0
 10
180.1158
 20
74.5496
 30
0.0
 10
179.4222
 20
77.3933
 30
0.0
 10
176.8558
 20
77.3933
 30
0.0
 10
176.8558
 20
77.3933
 30
0.0
 10
174.3589
 20
77.3933
 30
0.0
 10
173.3186
 20
74.2027
 30
0.0
 10
173.2492
 20
74.0639
 30
0.0
 10
173.2492
 20
74.0639
 30
0.0
 10
167.9085
 20
75.2432
 30
0.0
 10
164.4405
 20
79.1966
 30
0.0
 10
162.013
 20
83.4275
 30
0.0
 10
162.013
 20
83.4275
 30
0.0
 10
165.8972
 20
83.0114
 30
0.0
 10
166.3826
 20
79.3354
 30
0.0
 10
173.804
 20
79.3354
 30
0.0
 10
173.804
 20
79.3354
 30
0.0
 10
180.1158
 20
79.3354
 30
0.0
 10
181.7111
 20
85.3002
 30
0.0
 10
181.7111
 20
88.1439
 30
0.0
 10
181.7111
 20
88.1439
 30
0.0
 10
181.7111
 20
89.7392
 30
0.0
 10
181.0868
 20
92.8604
 30
0.0
 10
178.7979
 20
94.8025
 30
0.0
 10
178.7979
 20
94.8025
 30
0.0
 10
178.7979
 20
94.8025
 30
0.0
 10
182.1273
 20
94.6637
 30
0.0
 10
183.237
 20
100.4206
 30
0.0
 10
183.237
 20
100.4206
 30
0.0
 10
183.237
 20
100.4206
 30
0.0
 10
183.237
 20
100.4206
 30
0.0
 10
183.237
 20
100.4206
 30
0.0
 10
183.237
 20
100.4206
 30
0.0
 10
185.6645
 20
98.1317
 30
0.0
 10
187.676
 20
94.4557
 30
0.0
 10
187.8146
 20
89.115
 30
0.0
 10
187.8146
 20
89.115
 30
0.0
 10
187.8146
 20
89.115
 30
0.0
 10
183.9306
 20
89.4618
 30
0.0
 10
183.9306
 20
84.9535
 30
0.0
 10
183.9306
 20
84.9535
 30
0.0
 10
183.9306
 20
82.6646
 30
0.0
 10
185.0403
 20
81.8324
 30
0.0
 10
186.3581
 20
80.5839
 30
0.0
 10
186.3581
 20
80.5839
 30
0.0
 10
186.3581
 20
80.5839
 30
0.0
 10
186.3581
 20
80.5839
 30
0.0
 10
186.3581
 20
80.5839
 30
0.0
 10
186.3581
 20
80.5839
 30
0.0
 10
186.3581
 20
80.5839
 30
0.0
 10
184.208
 20
77.1159
 30
0.0
 10
181.0174
 20
75.1044
 30
0.0
 10
181.0174
 20
75.1044
 30
0.0
 10
181.0174
 20
75.1044
 30
0.0
 10
181.0174
 20
75.1044
 30
0.0
 10
180.948
 20
75.035
 30
0.0
  0
SPLINE
  5
C1
330
1F
100
AcDbEntity
  8
layer 1
 62
     7
370
     9
100
AcDbSpline
210
0.0
220
0.0
230
1.0
 70
    11
 71
     3
 72
    12
 73
     8
 74
     0
 42
0.0000000001
 43
0.0000000001
 12
1.0
 22
0.0
 32
0.0
 13
1.0
 23
0.0
 33
0.0
 40
0.0
 40
0.0
 40
0.0
 40
0.0
 40
0.3333333333333333
 40
0.3333333333333333
 40
0.3333333333333333
 40
0.3333333333333333
 40
1.0
 40
1.0
 40
1.0
 40
1.0
 10
136.2805
 20
105.0677
 30
0.0
 10
136.4888
 20
104.9291
 30
0.0
 10
137.2516
 20
104.5128
 30
0.0
 10
138.0146
 20
105.2757
 30
0.0
 10
138.0146
 20
105.2757
 30
0.0
 10
137.3904
 20
105.2757
 30
0.0
 10
136.8356
 20
105.1371
 30
0.0
 10
136.2805
 20
105.0677
 30
0.0
  0
SPLINE
  5
C2
330
1F
100
AcDbEntity
  8
layer 1
 62
     7
370
     9
100
AcDbSpline
210
0.0
220
0.0
230
1.0
 70
    11
 71
     3
 72
    36
 73
    32
 74
     0
 42
0.0000000001
 43
0.0000000001
 12
1.0
 22
0.0
 32
0.0
 13
1.0
 23
0.0
 33
0.0
 40
0.0
 40
0.0
 40
0.0
 40
0.0
 40
0.1111111111111111
 40
0.1111111111111111
 40
0.1111111111111111
 40
0.1111111111111111
 40
0.2222222222222222
 40
0.2222222222222222
 40
0.2222222222222222
 40
0.2222222222222222
 40
0.3333333333333333
 40
0.3333333333333333
 40
0.3333333333333333
 40
0.3333333333333333
 40
0.4444444444444444
 40
0.4444444444444444
 40
0.4444444444444444
 40
0.4444444444444444
 40
0.5555555555555556
 40
0.5555555555555556
 40
0.5555555555555556
 40
0.5555555555555556
 40
0.6666666666666666
 40
0.6666666666666666
 40
0.6666666666666666
 40
0.6666666666666666
 40
0.7777777777777778
 40
0.7777777777777778
 40
0.7777777777777778
 40
0.7777777777777778
 40
1.0
 40
1.0
 40
1.0
 40
1.0
 10
162.9146
 20
89.4618
 30
0.0
 10
162.9146
 20
89.4618
 30
0.0
 10
165.1342
 20
95.7041
 30
0.0
 10
170.4749
 20
95.7041
 30
0.0
 10
170.4749
 20
95.7041
 30
0.0
 10
175.885
 20
95.7041
 30
0.0
 10
178.9367
 20
92.8604
 30
0.0
 10
178.9367
 20
88.4907
 30
0.0
 10
178.9367
 20
88.4907
 30
0.0
 10
178.9367
 20
84.1211
 30
0.0
 10
175.3993
 20
81.5548
 30
0.0
 10
173.3186
 20
81.5548
 30
0.0
 10
173.3186
 20
81.5548
 30
0.0
 10
171.1685
 20
81.5548
 30
0.0
 10
170.7523
 20
82.5258
 30
0.0
 10
170.7523
 20
82.5258
 30
0.0
 10
170.7523
 20
82.5258
 30
0.0
 10
170.7523
 20
82.5258
 30
0.0
 10
173.3186
 20
81.6242
 30
0.0
 10
173.3186
 20
84.6067
 30
0.0
 10
173.3186
 20
84.6067
 30
0.0
 10
173.3186
 20
87.5197
 30
0.0
 10
167.9085
 20
89.1844
 30
0.0
 10
170.6829
 20
92.0975
 30
0.0
 10
170.6829
 20
92.0975
 30
0.0
 10
170.6829
 20
92.0975
 30
0.0
 10
165.8972
 20
93.9008
 30
0.0
 10
165.689
 20
88.907
 30
0.0
 10
165.689
 20
88.907
 30
0.0
 10
165.689
 20
88.907
 30
0.0
 10
165.4116
 20
89.3232
 30
0.0
 10
162.9146
 20
89.4618
 30
0.0
  0
SPLINE
  5
C3
330
1F
100
AcDbEntity
  8
layer 1
 62
     7
370
     9
100
AcDbSpline
210
0.0
220
0.0
230
1.0
 70
    11
 71
     3
 72
    20
 73
    16
 74
     0
 42
0.0000000001
 43
0.0000000001
 12
1.0
 22
0.0
 32
0.0
 13
1.0
 23
0.0
 33
0.0
 40
0.0
 40
0.0
 40
0.0
 40
0.0
 40
0.2
 40
0.2
 40
0.2
 40
0.2
 40
0.4
 40
0.4
 40
0.4
 40
0.4
 40
0.6
 40
0.6
 40
0.6
 40
0.6
 40
1.0
 40
1.0
 40
1.0
 40
1.0
 10
174.8445
 20
73.7865
 30
0.0
 10
174.8445
 20
73.8559
 30
0.0
 10
176.301
 20
75.4512
 30
0.0
 10
177.272
 20
73.7173
 30
0.0
 10
177.272
 20
73.7173
 30
0.0
 10
177.2026
 20
73.7173
 30
0.0
 10
177.1334
 20
73.7173
 30
0.0
 10
177.1334
 20
73.7173
 30
0.0
 10
177.1334
 20
73.7173
 30
0.0
 10
176.9252
 20
73.7173
 30
0.0
 10
176.8558
 20
73.7173
 30
0.0
 10
176.7172
 20
73.7173
 30
0.0
 10
176.7172
 20
73.7173
 30
0.0
 10
176.093
 20
73.7173
 30
0.0
 10
175.4687
 20
73.7173
 30
0.0
 10
174.8445
 20
73.7865
 30
0.0
  0
SPLINE
  5
C4
330
1F
100
AcDbEntity
  8
layer 1
 62
     7
370
     9
100
AcDbSpline
210
0.0
220
0.0
230
1.0
 70
    11
 71
     3
 72
    28
 73
    24
 74
     0
 42
0.0000000001
 43
0.0000000001
 12
1.0
 22
0.0
 32
0.0
 13
1.0
 23
0.0
 33
0.0
 40
0.0
 40
0.0
 40
0.0
 40
0.0
 40
0.1428571428571428
 40
0.1428571428571428
 40
0.1428571428571428
 40
0.1428571428571428
 40
0.2857142857142857
 40
0.2857142857142857
 40
0.2857142857142857
 40
0.2857142857142857
 40
0.4285714285714285
 40
0.4285714285714285
 40
0.4285714285714285
 40
0.4285714285714285
 40
0.5714285714285714
 40
0.5714285714285714
 40
0.5714285714285714
 40
0.5714285714285714
 40
0.7142857142857143
 40
0.7142857142857143
 40
0.7142857142857143
 40
0.7142857142857143
 40
1.0
 40
1.0
 40
1.0
 40
1.0
 10
150.7073
 20
71.6364
 30
0.0
 10
150.7073
 20
71.6364
 30
0.0
 10
150.7768
 20
71.6364
 30
0.0
 10
150.7768
 20
71.6364
 30
0.0
 10
150.7768
 20
71.6364
 30
0.0
 10
155.7706
 20
70.7348
 30
0.0
 10
156.8803
 20
67.8216
 30
0.0
 10
160.9033
 20
67.8216
 30
0.0
 10
160.9033
 20
67.8216
 30
0.0
 10
165.0648
 20
67.8216
 30
0.0
 10
167.7005
 20
70.9428
 30
0.0
 10
174.7057
 20
71.6364
 30
0.0
 10
174.7057
 20
71.6364
 30
0.0
 10
167.7005
 20
72.33
 30
0.0
 10
165.0648
 20
75.4512
 30
0.0
 10
160.9033
 20
75.4512
 30
0.0
 10
160.9033
 20
75.4512
 30
0.0
 10
156.8803
 20
75.4512
 30
0.0
 10
155.7706
 20
72.5381
 30
0.0
 10
150.7768
 20
71.6364
 30
0.0
 10
150.7768
 20
71.6364
 30
0.0
 10
150.7768
 20
71.6364
 30
0.0
 10
150.7073
 20
71.6364
 30
0.0
 10
150.7073
 20
71.6364
 30
0.0
  0
SPLINE
  5
C5
330
1F
100
AcDbEntity
  8
layer 1
 62
     7
370
     9
100
AcDbSpline
210
0.0
220
0.0
230
1.0
 70
    11
 71
     3
 72
    20
 73
    16
 74
     0
 42
0.0000000001
 43
0.0000000001
 12
1.0
 22
0.0
 32
0.0
 13
1.0
 23
0.0
 33
0.0
 40
0.0
 40
0.0
 40
0.0
 40
0.0
 40
0.2
 40
0.2
 40
0.2
 40
0.2
 40
0.4
 40
0.4
 40
0.4
 40
0.4
 40
0.6
 40
0.6
 40
0.6
 40
0.6
 40
1.0
 40
1.0
 40
1.0
 40
1.0
 10
132.6739
 20
71.6364
 30
0.0
 10
132.8127
 20
71.0816
 30
0.0
 10
133.5756
 20
68.5152
 30
0.0
 10
135.8645
 20
68.5152
 30
0.0
 10
135.8645
 20
68.5152
 30
0.0
 10
138.8469
 20
68.5152
 30
0.0
 10
140.1648
 20
70.8042
 30
0.0
 10
144.3264
 20
71.6364
 30
0.0
 10
144.3264
 20
71.6364
 30
0.0
 10
140.1648
 20
72.3994
 30
0.0
 10
138.8469
 20
74.6882
 30
0.0
 10
135.8645
 20
74.6882
 30
0.0
 10
135.8645
 20
74.6882
 30
0.0
 10
133.5756
 20
74.6882
 30
0.0
 10
132.8127
 20
72.2606
 30
0.0
 10
132.6739
 20
71.6364
 30
0.0
  0
SPLINE
  5
C6
330
1F
100
AcDbEntity
  8
layer 1
 62
     7
370
     9
100
AcDbSpline
210
0.0
220
0.0
230
1.0
 70
    11
 71
     3
 72
    24
 73
    20
 74
     0
 42
0.0000000001
 43
0.0000000001
 12
1.0
 22
0.0
 32
0.0
 13
1.0
 23
0.0
 33
0.0
 40
0.0
 40
0.0
 40
0.0
 40
0.0
 40
0.1666666666666667
 40
0.1666666666666667
 40
0.1666666666666667
 40
0.1666666666666667
 40
0.3333333333333333
 40
0.3333333333333333
 40
0.3333333333333333
 40
0.3333333333333333
 40
0.5
 40
0.5
 40
0.5
 40
0.5
 40
0.6666666666666666
 40
0.6666666666666666
 40
0.6666666666666666
 40
0.6666666666666666
 40
1.0
 40
1.0
 40
1.0
 40
1.0
 10
181.0868
 20
122.9625
 30
0.0
 10
180.6706
 20
121.714
 30
0.0
 10
179.977
 20
120.4655
 30
0.0
 10
178.7979
 20
119.4945
 30
0.0
 10
178.7979
 20
119.4945
 30
0.0
 10
178.7979
 20
119.4945
 30
0.0
 10
182.1273
 20
119.6331
 30
0.0
 10
183.237
 20
113.8764
 30
0.0
 10
183.237
 20
113.8764
 30
0.0
 10
183.237
 20
113.8764
 30
0.0
 10
183.237
 20
113.8764
 30
0.0
 10
183.237
 20
113.8764
 30
0.0
 10
183.237
 20
113.8764
 30
0.0
 10
185.2485
 20
115.8877
 30
0.0
 10
187.0518
 20
118.8008
 30
0.0
 10
187.676
 20
122.9625
 30
0.0
 10
187.676
 20
122.9625
 30
0.0
 10
187.676
 20
122.9625
 30
0.0
 10
181.0868
 20
122.9625
 30
0.0
 10
181.0868
 20
122.9625
 30
0.0
  0
SPLINE
  5
C7
330
1F
100
AcDbEntity
  8
layer 1
 62
     7
370
     9
100
AcDbSpline
210
0.0
220
0.0
230
1.0
 70
    11
 71
     3
 72
    12
 73
     8
 74
     0
 42
0.0000000001
 43
0.0000000001
 12
1.0
 22
0.0
 32
0.0
 13
1.0
 23
0.0
 33
0.0
 40
0.0
 40
0.0
 40
0.0
 40
0.0
 40
0.3333333333333333
 40
0.3333333333333333
 40
0.3333333333333333
 40
0.3333333333333333
 40
1.0
 40
1.0
 40
1.0
 40
1.0
 10
136.2805
 20
109.2293
 30
0.0
 10
136.4888
 20
109.3679
 30
0.0
 10
137.2516
 20
109.7841
 30
0.0
 10
138.0146
 20
109.0211
 30
0.0
 10
138.0146
 20
109.0211
 30
0.0
 10
137.3904
 20
109.0905
 30
0.0
 10
136.8356
 20
109.1599
 30
0.0
 10
136.2805
 20
109.2293
 30
0.0
  0
SPLINE
  5
C8
330
1F
100
AcDbEntity
  8
layer 1
 62
     7
370
     9
100
AcDbSpline
210
0.0
220
0.0
230
1.0
 70
    11
 71
     3
 72
    28
 73
    24
 74
     0
 42
0.0000000001
 43
0.0000000001
 12
1.0
 22
0.0
 32
0.0
 13
1.0
 23
0.0
 33
0.0
 40
0.0
 40
0.0
 40
0.0
 40
0.0
 40
0.1428571428571428
 40
0.1428571428571428
 40
0.1428571428571428
 40
0.1428571428571428
 40
0.2857142857142857
 40
0.2857142857142857
 40
0.2857142857142857
 40
0.2857142857142857
 40
0.4285714285714285
 40
0.4285714285714285
 40
0.4285714285714285
 40
0.4285714285714285
 40
0.5714285714285714
 40
0.5714285714285714
 40
0.5714285714285714
 40
0.5714285714285714
 40
0.7142857142857143
 40
0.7142857142857143
 40
0.7142857142857143
 40
0.7142857142857143
 40
1.0
 40
1.0
 40
1.0
 40
1.0
 10
163.8857
 20
122.9625
 30
0.0
 10
164.9261
 20
121.0898
 30
0.0
 10
167.0763
 20
118.5928
 30
0.0
 10
170.4749
 20
118.5928
 30
0.0
 10
170.4749
 20
118.5928
 30
0.0
 10
174.5671
 20
118.5928
 30
0.0
 10
177.3414
 20
120.2573
 30
0.0
 10
178.4511
 20
122.9625
 30
0.0
 10
178.4511
 20
122.9625
 30
0.0
 10
178.4511
 20
122.9625
 30
0.0
 10
170.128
 20
122.9625
 30
0.0
 10
170.128
 20
122.9625
 30
0.0
 10
170.128
 20
122.9625
 30
0.0
 10
170.2668
 20
122.6851
 30
0.0
 10
170.4054
 20
122.4768
 30
0.0
 10
170.6829
 20
122.1994
 30
0.0
 10
170.6829
 20
122.1994
 30
0.0
 10
170.6829
 20
122.1994
 30
0.0
 10
167.8391
 20
121.1592
 30
0.0
 10
166.452
 20
122.9625
 30
0.0
 10
166.452
 20
122.9625
 30
0.0
 10
166.452
 20
122.9625
 30
0.0
 10
163.8857
 20
122.9625
 30
0.0
 10
163.8857
 20
122.9625
 30
0.0
  0
SPLINE
  5
C9
330
1F
100
AcDbEntity
  8
layer 1
 62
     7
370
     9
100
AcDbSpline
210
0.0
220
0.0
230
1.0
 70
    11
 71
     3
 72
    36
 73
    32
 74
     0
 42
0.0000000001
 43
0.0000000001
 12
1.0
 22
0.0
 32
0.0
 13
1.0
 23
0.0
 33
0.0
 40
0.0
 40
0.0
 40
0.0
 40
0.0
 40
0.1111111111111111
 40
0.1111111111111111
 40
0.1111111111111111
 40
0.1111111111111111
 40
0.2222222222222222
 40
0.2222222222222222
 40
0.2222222222222222
 40
0.2222222222222222
 40
0.3333333333333333
 40
0.3333333333333333
 40
0.3333333333333333
 40
0.3333333333333333
 40
0.4444444444444444
 40
0.4444444444444444
 40
0.4444444444444444
 40
0.4444444444444444
 40
0.5555555555555556
 40
0.5555555555555556
 40
0.5555555555555556
 40
0.5555555555555556
 40
0.6666666666666666
 40
0.6666666666666666
 40
0.6666666666666666
 40
0.6666666666666666
 40
0.7777777777777778
 40
0.7777777777777778
 40
0.7777777777777778
 40
0.7777777777777778
 40
1.0
 40
1.0
 40
1.0
 40
1.0
 10
176.301
 20
107.1484
 30
0.0
 10
178.5205
 20
106.7324
 30
0.0
 10
180.6012
 20
105.8307
 30
0.0
 10
182.0579
 20
104.6514
 30
0.0
 10
182.0579
 20
104.6514
 30
0.0
 10
182.0579
 20
104.6514
 30
0.0
 10
182.0579
 20
104.6514
 30
0.0
 10
182.0579
 20
104.6514
 30
0.0
 10
182.0579
 20
104.6514
 30
0.0
 10
183.5144
 20
106.0387
 30
0.0
 10
184.7629
 20
106.871
 30
0.0
 10
185.8727
 20
107.1484
 30
0.0
 10
185.8727
 20
107.1484
 30
0.0
 10
185.8727
 20
107.1484
 30
0.0
 10
185.8033
 20
107.1484
 30
0.0
 10
185.8033
 20
107.1484
 30
0.0
 10
185.8033
 20
107.1484
 30
0.0
 10
185.8033
 20
107.1484
 30
0.0
 10
185.8727
 20
107.1484
 30
0.0
 10
185.8727
 20
107.1484
 30
0.0
 10
185.8727
 20
107.1484
 30
0.0
 10
184.7629
 20
107.4952
 30
0.0
 10
183.5144
 20
108.2582
 30
0.0
 10
182.0579
 20
109.6453
 30
0.0
 10
182.0579
 20
109.6453
 30
0.0
 10
182.0579
 20
109.6453
 30
0.0
 10
182.0579
 20
109.6453
 30
0.0
 10
182.0579
 20
109.6453
 30
0.0
 10
182.0579
 20
109.6453
 30
0.0
 10
180.6012
 20
108.4663
 30
0.0
 10
178.5205
 20
107.5646
 30
0.0
 10
176.301
 20
107.1484
 30
0.0
  0
SPLINE
  5
CA
330
1F
100
AcDbEntity
  8
layer 1
 62
     7
370
     9
100
AcDbSpline
210
0.0
220
0.0
230
1.0
 70
    11
 71
     3
 72
    20
 73
    16
 74
     0
 42
0.0000000001
 43
0.0000000001
 12
1.0
 22
0.0
 32
0.0
 13
1.0
 23
0.0
 33
0.0
 40
0.0
 40
0.0
 40
0.0
 40
0.0
 40
0.2
 40
0.2
 40
0.2
 40
0.2
 40
0.4
 40
0.4
 40
0.4
 40
0.4
 40
0.6
 40
0.6
 40
0.6
 40
0.6
 40
1.0
 40
1.0
 40
1.0
 40
1.0
 10
158.9612
 20
107.1484
 30
0.0
 10
162.221
 20
105.2065
 30
0.0
 10
162.9146
 20
102.0853
 30
0.0
 10
166.3826
 20
105.2757
 30
0.0
 10
166.3826
 20
105.2757
 30
0.0
 10
167.4231
 20
106.2467
 30
0.0
 10
168.7408
 20
106.871
 30
0.0
 10
170.1974
 20
107.1484
 30
0.0
 10
170.1974
 20
107.1484
 30
0.0
 10
168.7408
 20
107.4952
 30
0.0
 10
167.4231
 20
108.1194
 30
0.0
 10
166.3826
 20
109.0211
 30
0.0
 10
166.3826
 20
109.0211
 30
0.0
 10
162.9146
 20
112.2117
 30
0.0
 10
162.221
 20
109.0905
 30
0.0
 10
158.9612
 20
107.1484
 30
0.0
  0
SPLINE
  5
CB
330
1F
100
AcDbEntity
  8
layer 1
 62
     7
370
     9
100
AcDbSpline
210
0.0
220
0.0
230
1.0
 70
    11
 71
     3
 72
    88
 73
    84
 74
     0
 42
0.0000000001
 43
0.0000000001
 12
1.0
 22
0.0
 32
0.0
 13
1.0
 23
0.0
 33
0.0
 40
0.0
 40
0.0
 40
0.0
 40
0.0
 40
0.0454545454545455
 40
0.0454545454545455
 40
0.0454545454545455
 40
0.0454545454545455
 40
0.0909090909090909
 40
0.0909090909090909
 40
0.0909090909090909
 40
0.0909090909090909
 40
0.1363636363636364
 40
0.1363636363636364
 40
0.1363636363636364
 40
0.1363636363636364
 40
0.1818181818181818
 40
0.1818181818181818
 40
0.1818181818181818
 40
0.1818181818181818
 40
0.2272727272727273
 40
0.2272727272727273
 40
0.2272727272727273
 40
0.2272727272727273
 40
0.2727272727272727
 40
0.2727272727272727
 40
0.2727272727272727
 40
0.2727272727272727
 40
0.3181818181818182
 40
0.3181818181818182
 40
0.3181818181818182
 40
0.3181818181818182
 40
0.3636363636363636
 40
0.3636363636363636
 40
0.3636363636363636
 40
0.3636363636363636
 40
0.4090909090909091
 40
0.4090909090909091
 40
0.4090909090909091
 40
0.4090909090909091
 40
0.4545454545454545
 40
0.4545454545454545
 40
0.4545454545454545
 40
0.4545454545454545
 40
0.5
 40
0.5
 40
0.5
 40
0.5
 40
0.5454545454545454
 40
0.5454545454545454
 40
0.5454545454545454
 40
0.5454545454545454
 40
0.5909090909090909
 40
0.5909090909090909
 40
0.5909090909090909
 40
0.5909090909090909
 40
0.6363636363636364
 40
0.6363636363636364
 40
0.6363636363636364
 40
0.6363636363636364
 40
0.6818181818181818
 40
0.6818181818181818
 40
0.6818181818181818
 40
0.6818181818181818
 40
0.7272727272727273
 40
0.7272727272727273
 40
0.7272727272727273
 40
0.7272727272727273
 40
0.7727272727272727
 40
0.7727272727272727
 40
0.7727272727272727
 40
0.7727272727272727
 40
0.8181818181818182
 40
0.8181818181818182
 40
0.8181818181818182
 40
0.8181818181818182
 40
0.8636363636363636
 40
0.8636363636363636
 40
0.8636363636363636
 40
0.8636363636363636
 40
0.9090909090909091
 40
0.9090909090909091
 40
0.9090909090909091
 40
0.9090909090909091
 40
1.0
 40
1.0
 40
1.0
 40
1.0
 10
143.5633
 20
107.1484
 30
0.0
 10
149.4589
 20
105.4145
 30
0.0
 10
155.0076
 20
101.0448
 30
0.0
 10
156.9497
 20
95.3573
 30
0.0
 10
156.9497
 20
95.3573
 30
0.0
 10
157.5739
 20
94.0395
 30
0.0
 10
158.337
 20
91.8893
 30
0.0
 10
159.2386
 20
89.3924
 30
0.0
 10
159.2386
 20
89.3924
 30
0.0
 10
159.2386
 20
89.3924
 30
0.0
 10
159.2386
 20
89.3924
 30
0.0
 10
159.2386
 20
89.3924
 30
0.0
 10
159.2386
 20
89.3924
 30
0.0
 10
159.2386
 20
89.3924
 30
0.0
 10
159.2386
 20
89.3924
 30
0.0
 10
159.2386
 20
89.3924
 30
0.0
 10
159.2386
 20
89.3924
 30
0.0
 10
161.0419
 20
95.7735
 30
0.0
 10
166.9375
 20
99.5884
 30
0.0
 10
172.9718
 20
99.5884
 30
0.0
 10
172.9718
 20
99.5884
 30
0.0
 10
175.9542
 20
99.5884
 30
0.0
 10
178.1737
 20
100.9754
 30
0.0
 10
179.977
 20
102.6401
 30
0.0
 10
179.977
 20
102.6401
 30
0.0
 10
179.977
 20
102.6401
 30
0.0
 10
179.977
 20
102.6401
 30
0.0
 10
179.977
 20
102.6401
 30
0.0
 10
179.977
 20
102.6401
 30
0.0
 10
176.8558
 20
105.4145
 30
0.0
 10
172.833
 20
104.7208
 30
0.0
 10
172.833
 20
104.7208
 30
0.0
 10
172.833
 20
104.7208
 30
0.0
 10
173.3186
 20
103.5418
 30
0.0
 10
173.1798
 20
102.3627
 30
0.0
 10
172.2782
 20
101.7385
 30
0.0
 10
172.2782
 20
101.7385
 30
0.0
 10
170.8217
 20
100.698
 30
0.0
 10
168.2553
 20
101.4611
 30
0.0
 10
168.4633
 20
103.8886
 30
0.0
 10
168.4633
 20
103.8886
 30
0.0
 10
167.6311
 20
99.1721
 30
0.0
 10
157.4353
 20
99.9352
 30
0.0
 10
156.048
 20
107.1484
 30
0.0
 10
156.048
 20
107.1484
 30
0.0
 10
157.4353
 20
114.4312
 30
0.0
 10
167.6311
 20
115.1248
 30
0.0
 10
168.4633
 20
110.4084
 30
0.0
 10
168.4633
 20
110.4084
 30
0.0
 10
168.2553
 20
112.8359
 30
0.0
 10
170.8217
 20
113.5989
 30
0.0
 10
172.2782
 20
112.6279
 30
0.0
 10
172.2782
 20
112.6279
 30
0.0
 10
173.1798
 20
112.0037
 30
0.0
 10
173.3186
 20
110.7552
 30
0.0
 10
172.833
 20
109.5761
 30
0.0
 10
172.833
 20
109.5761
 30
0.0
 10
172.833
 20
109.5761
 30
0.0
 10
176.8558
 20
108.8825
 30
0.0
 10
179.977
 20
111.6568
 30
0.0
 10
179.977
 20
111.6568
 30
0.0
 10
179.977
 20
111.6568
 30
0.0
 10
179.977
 20
111.6568
 30
0.0
 10
179.977
 20
111.6568
 30
0.0
 10
179.977
 20
111.6568
 30
0.0
 10
178.1737
 20
113.3215
 30
0.0
 10
175.9542
 20
114.7086
 30
0.0
 10
172.9718
 20
114.7086
 30
0.0
 10
172.9718
 20
114.7086
 30
0.0
 10
167.5617
 20
114.7086
 30
0.0
 10
162.2904
 20
117.7604
 30
0.0
 10
159.9323
 20
122.9625
 30
0.0
 10
159.9323
 20
122.9625
 30
0.0
 10
159.9323
 20
122.9625
 30
0.0
 10
158.545
 20
122.9625
 30
0.0
 10
158.545
 20
122.9625
 30
0.0
 10
158.545
 20
122.9625
 30
0.0
 10
157.9208
 20
121.2978
 30
0.0
 10
157.3659
 20
119.9107
 30
0.0
 10
156.9497
 20
118.9396
 30
0.0
 10
156.9497
 20
118.9396
 30
0.0
 10
155.0076
 20
113.2521
 30
0.0
 10
149.4589
 20
108.8825
 30
0.0
 10
143.5633
 20
107.1484
 30
0.0
  0
SPLINE
  5
CC
330
1F
100
AcDbEntity
  8
layer 1
 62
     7
370
     9
100
AcDbSpline
210
0.0
220
0.0
230
1.0
 70
    11
 71
     3
 72
    92
 73
    88
 74
     0
 42
0.0000000001
 43
0.0000000001
 12
1.0
 22
0.0
 32
0.0
 13
1.0
 23
0.0
 33
0.0
 40
0.0
 40
0.0
 40
0.0
 40
0.0
 40
0.0434782608695652
 40
0.0434782608695652
 40
0.0434782608695652
 40
0.0434782608695652
 40
0.0869565217391304
 40
0.0869565217391304
 40
0.0869565217391304
 40
0.0869565217391304
 40
0.1304347826086956
 40
0.1304347826086956
 40
0.1304347826086956
 40
0.1304347826086956
 40
0.1739130434782609
 40
0.1739130434782609
 40
0.1739130434782609
 40
0.1739130434782609
 40
0.2173913043478261
 40
0.2173913043478261
 40
0.2173913043478261
 40
0.2173913043478261
 40
0.2608695652173913
 40
0.2608695652173913
 40
0.2608695652173913
 40
0.2608695652173913
 40
0.3043478260869565
 40
0.3043478260869565
 40
0.3043478260869565
 40
0.3043478260869565
 40
0.3478260869565217
 40
0.3478260869565217
 40
0.3478260869565217
 40
0.3478260869565217
 40
0.391304347826087
 40
0.391304347826087
 40
0.391304347826087
 40
0.391304347826087
 40
0.4347826086956522
 40
0.4347826086956522
 40
0.4347826086956522
 40
0.4347826086956522
 40
0.4782608695652174
 40
0.4782608695652174
 40
0.4782608695652174
 40
0.4782608695652174
 40
0.5217391304347826
 40
0.5217391304347826
 40
0.5217391304347826
 40
0.5217391304347826
 40
0.5652173913043478
 40
0.5652173913043478
 40
0.5652173913043478
 40
0.5652173913043478
 40
0.6086956521739131
 40
0.6086956521739131
 40
0.6086956521739131
 40
0.6086956521739131
 40
0.6521739130434783
 40
0.6521739130434783
 40
0.6521739130434783
 40
0.6521739130434783
 40
0.6956521739130435
 40
0.6956521739130435
 40
0.6956521739130435
 40
0.6956521739130435
 40
0.7391304347826086
 40
0.7391304347826086
 40
0.7391304347826086
 40
0.7391304347826086
 40
0.782608695652174
 40
0.782608695652174
 40
0.782608695652174
 40
0.782608695652174
 40
0.8260869565217391
 40
0.8260869565217391
 40
0.8260869565217391
 40
0.8260869565217391
 40
0.8695652173913043
 40
0.8695652173913043
 40
0.8695652173913043
 40
0.8695652173913043
 40
0.9130434782608695
 40
0.9130434782608695
 40
0.9130434782608695
 40
0.9130434782608695
 40
1.0
 40
1.0
 40
1.0
 40
1.0
 10
156.048
 20
36.1244
 30
0.0
 10
157.4353
 20
28.8416
 30
0.0
 10
167.6311
 20
28.1482
 30
0.0
 10
168.4633
 20
32.8644
 30
0.0
 10
168.4633
 20
32.8644
 30
0.0
 10
168.2553
 20
30.4369
 30
0.0
 10
170.8217
 20
29.6047
 30
0.0
 10
172.2782
 20
30.6451
 30
0.0
 10
172.2782
 20
30.6451
 30
0.0
 10
173.1798
 20
31.2693
 30
0.0
 10
173.3186
 20
32.5178
 30
0.0
 10
172.833
 20
33.6275
 30
0.0
 10
172.833
 20
33.6275
 30
0.0
 10
172.833
 20
33.6275
 30
0.0
 10
176.8558
 20
34.3905
 30
0.0
 10
179.977
 20
31.616
 30
0.0
 10
179.977
 20
31.616
 30
0.0
 10
179.977
 20
31.616
 30
0.0
 10
179.977
 20
31.616
 30
0.0
 10
179.977
 20
31.616
 30
0.0
 10
179.977
 20
31.616
 30
0.0
 10
178.1737
 20
29.9515
 30
0.0
 10
175.9542
 20
28.4948
 30
0.0
 10
172.9718
 20
28.4948
 30
0.0
 10
172.9718
 20
28.4948
 30
0.0
 10
166.9375
 20
28.4948
 30
0.0
 10
161.0419
 20
24.7494
 30
0.0
 10
159.2386
 20
18.3684
 30
0.0
 10
159.2386
 20
18.3684
 30
0.0
 10
159.2386
 20
18.3684
 30
0.0
 10
159.2386
 20
18.3684
 30
0.0
 10
159.2386
 20
18.3684
 30
0.0
 10
159.2386
 20
18.3684
 30
0.0
 10
159.2386
 20
18.3684
 30
0.0
 10
159.2386
 20
18.3684
 30
0.0
 10
159.2386
 20
18.3684
 30
0.0
 10
159.2386
 20
18.3684
 30
0.0
 10
158.337
 20
20.796
 30
0.0
 10
157.5739
 20
23.0155
 30
0.0
 10
156.9497
 20
24.264
 30
0.0
 10
156.9497
 20
24.264
 30
0.0
 10
155.0076
 20
30.0209
 30
0.0
 10
149.4589
 20
34.3211
 30
0.0
 10
143.5633
 20
36.1244
 30
0.0
 10
143.5633
 20
36.1244
 30
0.0
 10
149.4589
 20
37.8583
 30
0.0
 10
155.0076
 20
42.1588
 30
0.0
 10
156.9497
 20
47.9155
 30
0.0
 10
156.9497
 20
47.9155
 30
0.0
 10
157.5739
 20
49.1639
 30
0.0
 10
158.337
 20
51.3835
 30
0.0
 10
159.2386
 20
53.811
 30
0.0
 10
159.2386
 20
53.811
 30
0.0
 10
159.2386
 20
53.811
 30
0.0
 10
159.2386
 20
53.811
 30
0.0
 10
159.2386
 20
53.811
 30
0.0
 10
159.2386
 20
53.811
 30
0.0
 10
159.2386
 20
53.811
 30
0.0
 10
159.2386
 20
53.811
 30
0.0
 10
159.2386
 20
53.811
 30
0.0
 10
159.2386
 20
53.811
 30
0.0
 10
161.0419
 20
47.43
 30
0.0
 10
166.9375
 20
43.6846
 30
0.0
 10
172.9718
 20
43.6846
 30
0.0
 10
172.9718
 20
43.6846
 30
0.0
 10
175.9542
 20
43.6846
 30
0.0
 10
178.1737
 20
42.228
 30
0.0
 10
179.977
 20
40.5635
 30
0.0
 10
179.977
 20
40.5635
 30
0.0
 10
179.977
 20
40.5635
 30
0.0
 10
179.977
 20
40.5635
 30
0.0
 10
179.977
 20
40.5635
 30
0.0
 10
179.977
 20
40.5635
 30
0.0
 10
176.8558
 20
37.7891
 30
0.0
 10
172.833
 20
38.552
 30
0.0
 10
172.833
 20
38.552
 30
0.0
 10
172.833
 20
38.552
 30
0.0
 10
173.3186
 20
39.6618
 30
0.0
 10
173.1798
 20
40.9103
 30
0.0
 10
172.2782
 20
41.5345
 30
0.0
 10
172.2782
 20
41.5345
 30
0.0
 10
170.8217
 20
42.5748
 30
0.0
 10
168.2553
 20
41.7425
 30
0.0
 10
168.4633
 20
39.315
 30
0.0
 10
168.4633
 20
39.315
 30
0.0
 10
167.6311
 20
44.0315
 30
0.0
 10
157.4353
 20
43.3378
 30
0.0
 10
156.048
 20
36.1244
 30
0.0
  0
SPLINE
  5
CD
330
1F
100
AcDbEntity
  8
layer 1
 62
     7
370
     9
100
AcDbSpline
210
0.0
220
0.0
230
1.0
 70
    11
 71
     3
 72
    20
 73
    16
 74
     0
 42
0.0000000001
 43
0.0000000001
 12
1.0
 22
0.0
 32
0.0
 13
1.0
 23
0.0
 33
0.0
 40
0.0
 40
0.0
 40
0.0
 40
0.0
 40
0.2
 40
0.2
 40
0.2
 40
0.2
 40
0.4
 40
0.4
 40
0.4
 40
0.4
 40
0.6
 40
0.6
 40
0.6
 40
0.6
 40
1.0
 40
1.0
 40
1.0
 40
1.0
 10
170.1974
 20
36.1244
 30
0.0
 10
168.7408
 20
35.7776
 30
0.0
 10
167.4231
 20
35.1534
 30
0.0
 10
166.3826
 20
34.2517
 30
0.0
 10
166.3826
 20
34.2517
 30
0.0
 10
162.9146
 20
30.9917
 30
0.0
 10
162.221
 20
34.1823
 30
0.0
 10
158.9612
 20
36.1244
 30
0.0
 10
158.9612
 20
36.1244
 30
0.0
 10
162.221
 20
37.9971
 30
0.0
 10
162.9146
 20
41.1877
 30
0.0
 10
166.3826
 20
37.9277
 30
0.0
 10
166.3826
 20
37.9277
 30
0.0
 10
167.4231
 20
37.0261
 30
0.0
 10
168.7408
 20
36.4018
 30
0.0
 10
170.1974
 20
36.1244
 30
0.0
  0
SPLINE
  5
CE
330
1F
100
AcDbEntity
  8
layer 1
 62
     7
370
     9
100
AcDbSpline
210
0.0
220
0.0
230
1.0
 70
    11
 71
     3
 72
    36
 73
    32
 74
     0
 42
0.0000000001
 43
0.0000000001
 12
1.0
 22
0.0
 32
0.0
 13
1.0
 23
0.0
 33
0.0
 40
0.0
 40
0.0
 40
0.0
 40
0.0
 40
0.1111111111111111
 40
0.1111111111111111
 40
0.1111111111111111
 40
0.1111111111111111
 40
0.2222222222222222
 40
0.2222222222222222
 40
0.2222222222222222
 40
0.2222222222222222
 40
0.3333333333333333
 40
0.3333333333333333
 40
0.3333333333333333
 40
0.3333333333333333
 40
0.4444444444444444
 40
0.4444444444444444
 40
0.4444444444444444
 40
0.4444444444444444
 40
0.5555555555555556
 40
0.5555555555555556
 40
0.5555555555555556
 40
0.5555555555555556
 40
0.6666666666666666
 40
0.6666666666666666
 40
0.6666666666666666
 40
0.6666666666666666
 40
0.7777777777777778
 40
0.7777777777777778
 40
0.7777777777777778
 40
0.7777777777777778
 40
1.0
 40
1.0
 40
1.0
 40
1.0
 10
185.8033
 20
36.1244
 30
0.0
 10
185.8033
 20
36.1244
 30
0.0
 10
185.8727
 20
36.1244
 30
0.0
 10
185.8727
 20
36.1244
 30
0.0
 10
185.8727
 20
36.1244
 30
0.0
 10
184.7629
 20
35.7776
 30
0.0
 10
183.5144
 20
35.0148
 30
0.0
 10
182.0579
 20
33.6275
 30
0.0
 10
182.0579
 20
33.6275
 30
0.0
 10
182.0579
 20
33.6275
 30
0.0
 10
182.0579
 20
33.6275
 30
0.0
 10
182.0579
 20
33.6275
 30
0.0
 10
182.0579
 20
33.6275
 30
0.0
 10
180.6012
 20
34.8065
 30
0.0
 10
178.5205
 20
35.7082
 30
0.0
 10
176.301
 20
36.1244
 30
0.0
 10
176.301
 20
36.1244
 30
0.0
 10
178.5205
 20
36.4712
 30
0.0
 10
180.6012
 20
37.3729
 30
0.0
 10
182.0579
 20
38.552
 30
0.0
 10
182.0579
 20
38.552
 30
0.0
 10
182.0579
 20
38.552
 30
0.0
 10
182.0579
 20
38.552
 30
0.0
 10
182.0579
 20
38.552
 30
0.0
 10
182.0579
 20
38.552
 30
0.0
 10
183.5144
 20
37.1649
 30
0.0
 10
184.7629
 20
36.4018
 30
0.0
 10
185.8727
 20
36.1244
 30
0.0
 10
185.8727
 20
36.1244
 30
0.0
 10
185.8727
 20
36.1244
 30
0.0
 10
185.8033
 20
36.1244
 30
0.0
 10
185.8033
 20
36.1244
 30
0.0
  0
SPLINE
  5
CF
330
1F
100
AcDbEntity
  8
layer 1
 62
     7
370
     9
100
AcDbSpline
210
0.0
220
0.0
230
1.0
 70
    11
 71
     3
 72
    32
 73
    28
 74
     0
 42
0.0000000001
 43
0.0000000001
 12
1.0
 22
0.0
 32
0.0
 13
1.0
 23
0.0
 33
0.0
 40
0.0
 40
0.0
 40
0.0
 40
0.0
 40
0.125
 40
0.125
 40
0.125
 40
0.125
 40
0.25
 40
0.25
 40
0.25
 40
0.25
 40
0.375
 40
0.375
 40
0.375
 40
0.375
 40
0.5
 40
0.5
 40
0.5
 40
0.5
 40
0.625
 40
0.625
 40
0.625
 40
0.625
 40
0.75
 40
0.75
 40
0.75
 40
0.75
 40
1.0
 40
1.0
 40
1.0
 40
1.0
 10
190.6584
 20
-13.537
 30
0.0
 10
190.0341
 20
-8.7511
 30
0.0
 10
187.5372
 20
-4.312
 30
0.0
 10
183.029
 20
-1.0523
 30
0.0
 10
183.029
 20
-1.0523
 30
0.0
 10
182.9595
 20
-0.9829
 30
0.0
 10
182.9595
 20
-0.9135
 30
0.0
 10
182.8901
 20
-0.9135
 30
0.0
 10
182.8901
 20
-0.9135
 30
0.0
 10
183.5838
 20
-0.0812
 30
0.0
 10
184.1386
 20
0.335
 30
0.0
 10
184.5548
 20
0.543
 30
0.0
 10
184.5548
 20
0.543
 30
0.0
 10
184.1386
 20
0.751
 30
0.0
 10
183.5838
 20
1.0979
 30
0.0
 10
182.8901
 20
1.9995
 30
0.0
 10
182.8901
 20
1.9995
 30
0.0
 10
182.9595
 20
2.0689
 30
0.0
 10
182.9595
 20
2.1383
 30
0.0
 10
183.029
 20
2.1383
 30
0.0
 10
183.029
 20
2.1383
 30
0.0
 10
187.5372
 20
5.3981
 30
0.0
 10
190.0341
 20
9.9066
 30
0.0
 10
190.6584
 20
14.623
 30
0.0
 10
190.6584
 20
14.623
 30
0.0
 10
190.6584
 20
14.623
 30
0.0
 10
190.6584
 20
-13.537
 30
0.0
 10
190.6584
 20
-13.537
 30
0.0
  0
SPLINE
  5
D0
330
1F
100
AcDbEntity
  8
layer 1
 62
     7
370
     9
100
AcDbSpline
210
0.0
220
0.0
230
1.0
 70
    11
 71
     3
 72
    32
 73
    28
 74
     0
 42
0.0000000001
 43
0.0000000001
 12
1.0
 22
0.0
 32
0.0
 13
1.0
 23
0.0
 33
0.0
 40
0.0
 40
0.0
 40
0.0
 40
0.0
 40
0.125
 40
0.125
 40
0.125
 40
0.125
 40
0.25
 40
0.25
 40
0.25
 40
0.25
 40
0.375
 40
0.375
 40
0.375
 40
0.375
 40
0.5
 40
0.5
 40
0.5
 40
0.5
 40
0.625
 40
0.625
 40
0.625
 40
0.625
 40
0.75
 40
0.75
 40
0.75
 40
0.75
 40
1.0
 40
1.0
 40
1.0
 40
1.0
 10
190.6584
 20
-31.0155
 30
0.0
 10
190.4504
 20
-30.1139
 30
0.0
 10
189.8955
 20
-29.3508
 30
0.0
 10
188.7857
 20
-29.1428
 30
0.0
 10
188.7857
 20
-29.1428
 30
0.0
 10
187.9534
 20
-29.1428
 30
0.0
 10
186.4969
 20
-29.559
 30
0.0
 10
186.4969
 20
-30.9461
 30
0.0
 10
186.4969
 20
-30.9461
 30
0.0
 10
186.4969
 20
-32.4026
 30
0.0
 10
187.1904
 20
-32.5414
 30
0.0
 10
187.1904
 20
-32.5414
 30
0.0
 10
187.1904
 20
-32.5414
 30
0.0
 10
187.1904
 20
-32.5414
 30
0.0
 10
185.2485
 20
-32.8188
 30
0.0
 10
184.1386
 20
-31.0155
 30
0.0
 10
184.1386
 20
-31.0155
 30
0.0
 10
184.1386
 20
-31.0155
 30
0.0
 10
184.1386
 20
-31.0155
 30
0.0
 10
184.1386
 20
-31.0155
 30
0.0
 10
184.1386
 20
-31.0155
 30
0.0
 10
187.8146
 20
-27.4781
 30
0.0
 10
190.0341
 20
-23.0391
 30
0.0
 10
190.6584
 20
-18.5308
 30
0.0
 10
190.6584
 20
-18.5308
 30
0.0
 10
190.6584
 20
-18.5308
 30
0.0
 10
190.6584
 20
-31.0155
 30
0.0
 10
190.6584
 20
-31.0155
 30
0.0
  0
SPLINE
  5
D1
330
1F
100
AcDbEntity
  8
layer 1
 62
     7
370
     9
100
AcDbSpline
210
0.0
220
0.0
230
1.0
 70
    11
 71
     3
 72
    16
 73
    12
 74
     0
 42
0.0000000001
 43
0.0000000001
 12
1.0
 22
0.0
 32
0.0
 13
1.0
 23
0.0
 33
0.0
 40
0.0
 40
0.0
 40
0.0
 40
0.0
 40
0.25
 40
0.25
 40
0.25
 40
0.25
 40
0.5
 40
0.5
 40
0.5
 40
0.5
 40
1.0
 40
1.0
 40
1.0
 40
1.0
 10
190.6584
 20
-37.7433
 30
0.0
 10
190.4504
 20
-36.4256
 30
0.0
 10
189.4793
 20
-35.1772
 30
0.0
 10
188.092
 20
-34.969
 30
0.0
 10
188.092
 20
-34.969
 30
0.0
 10
189.4793
 20
-34.7609
 30
0.0
 10
190.4504
 20
-33.5125
 30
0.0
 10
190.6584
 20
-32.1946
 30
0.0
 10
190.6584
 20
-32.1946
 30
0.0
 10
190.6584
 20
-32.1946
 30
0.0
 10
190.6584
 20
-37.7433
 30
0.0
 10
190.6584
 20
-37.7433
 30
0.0
  0
SPLINE
  5
D2
330
1F
100
AcDbEntity
  8
layer 1
 62
     7
370
     9
100
AcDbSpline
210
0.0
220
0.0
230
1.0
 70
    11
 71
     3
 72
    32
 73
    28
 74
     0
 42
0.0000000001
 43
0.0000000001
 12
1.0
 22
0.0
 32
0.0
 13
1.0
 23
0.0
 33
0.0
 40
0.0
 40
0.0
 40
0.0
 40
0.0
 40
0.125
 40
0.125
 40
0.125
 40
0.125
 40
0.25
 40
0.25
 40
0.25
 40
0.25
 40
0.375
 40
0.375
 40
0.375
 40
0.375
 40
0.5
 40
0.5
 40
0.5
 40
0.5
 40
0.625
 40
0.625
 40
0.625
 40
0.625
 40
0.75
 40
0.75
 40
0.75
 40
0.75
 40
1.0
 40
1.0
 40
1.0
 40
1.0
 10
190.6584
 20
-51.4073
 30
0.0
 10
190.0341
 20
-46.8988
 30
0.0
 10
187.8146
 20
-42.4598
 30
0.0
 10
184.1386
 20
-38.9226
 30
0.0
 10
184.1386
 20
-38.9226
 30
0.0
 10
184.1386
 20
-38.9226
 30
0.0
 10
184.1386
 20
-38.9226
 30
0.0
 10
184.1386
 20
-38.9226
 30
0.0
 10
184.1386
 20
-38.9226
 30
0.0
 10
185.2485
 20
-37.1191
 30
0.0
 10
187.1904
 20
-37.3965
 30
0.0
 10
187.1904
 20
-37.3965
 30
0.0
 10
187.1904
 20
-37.3965
 30
0.0
 10
187.1904
 20
-37.3965
 30
0.0
 10
186.4969
 20
-37.5353
 30
0.0
 10
186.4969
 20
-38.9918
 30
0.0
 10
186.4969
 20
-38.9918
 30
0.0
 10
186.4969
 20
-40.3791
 30
0.0
 10
187.9534
 20
-40.7953
 30
0.0
 10
188.7857
 20
-40.7953
 30
0.0
 10
188.7857
 20
-40.7953
 30
0.0
 10
189.8955
 20
-40.5871
 30
0.0
 10
190.4504
 20
-39.8242
 30
0.0
 10
190.6584
 20
-38.9226
 30
0.0
 10
190.6584
 20
-38.9226
 30
0.0
 10
190.6584
 20
-38.9226
 30
0.0
 10
190.6584
 20
-51.4073
 30
0.0
 10
190.6584
 20
-51.4073
 30
0.0
  0
SPLINE
  5
D3
330
1F
100
AcDbEntity
  8
layer 1
 62
     7
370
     9
100
AcDbSpline
210
0.0
220
0.0
230
1.0
 70
    11
 71
     3
 72
    32
 73
    28
 74
     0
 42
0.0000000001
 43
0.0000000001
 12
1.0
 22
0.0
 32
0.0
 13
1.0
 23
0.0
 33
0.0
 40
0.0
 40
0.0
 40
0.0
 40
0.0
 40
0.125
 40
0.125
 40
0.125
 40
0.125
 40
0.25
 40
0.25
 40
0.25
 40
0.25
 40
0.375
 40
0.375
 40
0.375
 40
0.375
 40
0.5
 40
0.5
 40
0.5
 40
0.5
 40
0.625
 40
0.625
 40
0.625
 40
0.625
 40
0.75
 40
0.75
 40
0.75
 40
0.75
 40
1.0
 40
1.0
 40
1.0
 40
1.0
 10
190.6584
 20
-84.5609
 30
0.0
 10
190.0341
 20
-79.8445
 30
0.0
 10
187.5372
 20
-75.3362
 30
0.0
 10
183.029
 20
-72.0762
 30
0.0
 10
183.029
 20
-72.0762
 30
0.0
 10
182.9595
 20
-72.0762
 30
0.0
 10
182.9595
 20
-72.007
 30
0.0
 10
182.8901
 20
-71.9376
 30
0.0
 10
182.8901
 20
-71.9376
 30
0.0
 10
183.5838
 20
-71.1052
 30
0.0
 10
184.1386
 20
-70.6891
 30
0.0
 10
184.5548
 20
-70.4809
 30
0.0
 10
184.5548
 20
-70.4809
 30
0.0
 10
184.1386
 20
-70.3423
 30
0.0
 10
183.5838
 20
-69.9261
 30
0.0
 10
182.8901
 20
-69.0245
 30
0.0
 10
182.8901
 20
-69.0245
 30
0.0
 10
182.9595
 20
-69.0245
 30
0.0
 10
182.9595
 20
-68.9551
 30
0.0
 10
183.029
 20
-68.9551
 30
0.0
 10
183.029
 20
-68.9551
 30
0.0
 10
187.5372
 20
-65.6953
 30
0.0
 10
190.0341
 20
-61.1868
 30
0.0
 10
190.6584
 20
-56.4011
 30
0.0
 10
190.6584
 20
-56.4011
 30
0.0
 10
190.6584
 20
-56.4011
 30
0.0
 10
190.6584
 20
-84.5609
 30
0.0
 10
190.6584
 20
-84.5609
 30
0.0
  0
SPLINE
  5
D4
330
1F
100
AcDbEntity
  8
layer 1
 62
     7
370
     9
100
AcDbSpline
210
0.0
220
0.0
230
1.0
 70
    11
 71
     3
 72
    32
 73
    28
 74
     0
 42
0.0000000001
 43
0.0000000001
 12
1.0
 22
0.0
 32
0.0
 13
1.0
 23
0.0
 33
0.0
 40
0.0
 40
0.0
 40
0.0
 40
0.0
 40
0.125
 40
0.125
 40
0.125
 40
0.125
 40
0.25
 40
0.25
 40
0.25
 40
0.25
 40
0.375
 40
0.375
 40
0.375
 40
0.375
 40
0.5
 40
0.5
 40
0.5
 40
0.5
 40
0.625
 40
0.625
 40
0.625
 40
0.625
 40
0.75
 40
0.75
 40
0.75
 40
0.75
 40
1.0
 40
1.0
 40
1.0
 40
1.0
 10
190.6584
 20
-102.1089
 30
0.0
 10
190.4504
 20
-101.2073
 30
0.0
 10
189.8955
 20
-100.4442
 30
0.0
 10
188.7857
 20
-100.1668
 30
0.0
 10
188.7857
 20
-100.1668
 30
0.0
 10
187.9534
 20
-100.1668
 30
0.0
 10
186.4969
 20
-100.6524
 30
0.0
 10
186.4969
 20
-102.0395
 30
0.0
 10
186.4969
 20
-102.0395
 30
0.0
 10
186.4969
 20
-103.4268
 30
0.0
 10
187.1904
 20
-103.5654
 30
0.0
 10
187.1904
 20
-103.5654
 30
0.0
 10
187.1904
 20
-103.5654
 30
0.0
 10
187.1904
 20
-103.5654
 30
0.0
 10
185.2485
 20
-103.843
 30
0.0
 10
184.1386
 20
-102.1089
 30
0.0
 10
184.1386
 20
-102.1089
 30
0.0
 10
184.1386
 20
-102.1089
 30
0.0
 10
184.1386
 20
-102.1089
 30
0.0
 10
184.1386
 20
-102.1089
 30
0.0
 10
184.1386
 20
-102.1089
 30
0.0
 10
187.8146
 20
-98.5715
 30
0.0
 10
190.0341
 20
-94.1327
 30
0.0
 10
190.6584
 20
-89.6242
 30
0.0
 10
190.6584
 20
-89.6242
 30
0.0
 10
190.6584
 20
-89.6242
 30
0.0
 10
190.6584
 20
-102.1089
 30
0.0
 10
190.6584
 20
-102.1089
 30
0.0
  0
SPLINE
  5
D5
330
1F
100
AcDbEntity
  8
layer 1
 62
     7
370
     9
100
AcDbSpline
210
0.0
220
0.0
230
1.0
 70
    11
 71
     3
 72
    36
 73
    32
 74
     0
 42
0.0000000001
 43
0.0000000001
 12
1.0
 22
0.0
 32
0.0
 13
1.0
 23
0.0
 33
0.0
 40
0.0
 40
0.0
 40
0.0
 40
0.0
 40
0.1111111111111111
 40
0.1111111111111111
 40
0.1111111111111111
 40
0.1111111111111111
 40
0.2222222222222222
 40
0.2222222222222222
 40
0.2222222222222222
 40
0.2222222222222222
 40
0.3333333333333333
 40
0.3333333333333333
 40
0.3333333333333333
 40
0.3333333333333333
 40
0.4444444444444444
 40
0.4444444444444444
 40
0.4444444444444444
 40
0.4444444444444444
 40
0.5555555555555556
 40
0.5555555555555556
 40
0.5555555555555556
 40
0.5555555555555556
 40
0.6666666666666666
 40
0.6666666666666666
 40
0.6666666666666666
 40
0.6666666666666666
 40
0.7777777777777778
 40
0.7777777777777778
 40
0.7777777777777778
 40
0.7777777777777778
 40
1.0
 40
1.0
 40
1.0
 40
1.0
 10
190.6584
 20
111.102
 30
0.0
 10
190.4504
 20
112.0037
 30
0.0
 10
189.8955
 20
112.7665
 30
0.0
 10
188.7857
 20
112.9747
 30
0.0
 10
188.7857
 20
112.9747
 30
0.0
 10
187.9534
 20
112.9747
 30
0.0
 10
186.4969
 20
112.5585
 30
0.0
 10
186.4969
 20
111.1714
 30
0.0
 10
186.4969
 20
111.1714
 30
0.0
 10
186.4969
 20
109.7147
 30
0.0
 10
187.1904
 20
109.5761
 30
0.0
 10
187.1904
 20
109.5761
 30
0.0
 10
187.1904
 20
109.5761
 30
0.0
 10
187.1904
 20
109.5761
 30
0.0
 10
185.2485
 20
109.2987
 30
0.0
 10
184.1386
 20
111.102
 30
0.0
 10
184.1386
 20
111.102
 30
0.0
 10
184.1386
 20
111.102
 30
0.0
 10
184.1386
 20
111.102
 30
0.0
 10
184.1386
 20
111.102
 30
0.0
 10
184.1386
 20
111.102
 30
0.0
 10
187.676
 20
114.5006
 30
0.0
 10
189.8261
 20
118.6622
 30
0.0
 10
190.5198
 20
122.9625
 30
0.0
 10
190.5198
 20
122.9625
 30
0.0
 10
190.5198
 20
122.9625
 30
0.0
 10
190.6584
 20
122.9625
 30
0.0
 10
190.6584
 20
122.9625
 30
0.0
 10
190.6584
 20
122.9625
 30
0.0
 10
190.6584
 20
122.9625
 30
0.0
 10
190.6584
 20
111.102
 30
0.0
 10
190.6584
 20
111.102
 30
0.0
  0
SPLINE
  5
D6
330
1F
100
AcDbEntity
  8
layer 1
 62
     7
370
     9
100
AcDbSpline
210
0.0
220
0.0
230
1.0
 70
    11
 71
     3
 72
    16
 73
    12
 74
     0
 42
0.0000000001
 43
0.0000000001
 12
1.0
 22
0.0
 32
0.0
 13
1.0
 23
0.0
 33
0.0
 40
0.0
 40
0.0
 40
0.0
 40
0.0
 40
0.25
 40
0.25
 40
0.25
 40
0.25
 40
0.5
 40
0.5
 40
0.5
 40
0.5
 40
1.0
 40
1.0
 40
1.0
 40
1.0
 10
190.6584
 20
104.374
 30
0.0
 10
190.4504
 20
105.6919
 30
0.0
 10
189.4793
 20
106.9404
 30
0.0
 10
188.092
 20
107.1484
 30
0.0
 10
188.092
 20
107.1484
 30
0.0
 10
189.4793
 20
107.3566
 30
0.0
 10
190.4504
 20
108.6051
 30
0.0
 10
190.6584
 20
109.9229
 30
0.0
 10
190.6584
 20
109.9229
 30
0.0
 10
190.6584
 20
109.9229
 30
0.0
 10
190.6584
 20
104.374
 30
0.0
 10
190.6584
 20
104.374
 30
0.0
  0
SPLINE
  5
D7
330
1F
100
AcDbEntity
  8
layer 1
 62
     7
370
     9
100
AcDbSpline
210
0.0
220
0.0
230
1.0
 70
    11
 71
     3
 72
    32
 73
    28
 74
     0
 42
0.0000000001
 43
0.0000000001
 12
1.0
 22
0.0
 32
0.0
 13
1.0
 23
0.0
 33
0.0
 40
0.0
 40
0.0
 40
0.0
 40
0.0
 40
0.125
 40
0.125
 40
0.125
 40
0.125
 40
0.25
 40
0.25
 40
0.25
 40
0.25
 40
0.375
 40
0.375
 40
0.375
 40
0.375
 40
0.5
 40
0.5
 40
0.5
 40
0.5
 40
0.625
 40
0.625
 40
0.625
 40
0.625
 40
0.75
 40
0.75
 40
0.75
 40
0.75
 40
1.0
 40
1.0
 40
1.0
 40
1.0
 10
190.6584
 20
90.7103
 30
0.0
 10
190.0341
 20
95.2187
 30
0.0
 10
187.8146
 20
99.6576
 30
0.0
 10
184.1386
 20
103.195
 30
0.0
 10
184.1386
 20
103.195
 30
0.0
 10
184.1386
 20
103.195
 30
0.0
 10
184.1386
 20
103.195
 30
0.0
 10
184.1386
 20
103.195
 30
0.0
 10
184.1386
 20
103.195
 30
0.0
 10
185.2485
 20
104.9983
 30
0.0
 10
187.1904
 20
104.7208
 30
0.0
 10
187.1904
 20
104.7208
 30
0.0
 10
187.1904
 20
104.7208
 30
0.0
 10
187.1904
 20
104.7208
 30
0.0
 10
186.4969
 20
104.5822
 30
0.0
 10
186.4969
 20
103.1256
 30
0.0
 10
186.4969
 20
103.1256
 30
0.0
 10
186.4969
 20
101.7385
 30
0.0
 10
187.9534
 20
101.3223
 30
0.0
 10
188.7857
 20
101.3223
 30
0.0
 10
188.7857
 20
101.3223
 30
0.0
 10
189.8955
 20
101.5303
 30
0.0
 10
190.4504
 20
102.2933
 30
0.0
 10
190.6584
 20
103.195
 30
0.0
 10
190.6584
 20
103.195
 30
0.0
 10
190.6584
 20
103.195
 30
0.0
 10
190.6584
 20
90.7103
 30
0.0
 10
190.6584
 20
90.7103
 30
0.0
  0
SPLINE
  5
D8
330
1F
100
AcDbEntity
  8
layer 1
 62
     7
370
     9
100
AcDbSpline
210
0.0
220
0.0
230
1.0
 70
    11
 71
     3
 72
    32
 73
    28
 74
     0
 42
0.0000000001
 43
0.0000000001
 12
1.0
 22
0.0
 32
0.0
 13
1.0
 23
0.0
 33
0.0
 40
0.0
 40
0.0
 40
0.0
 40
0.0
 40
0.125
 40
0.125
 40
0.125
 40
0.125
 40
0.25
 40
0.25
 40
0.25
 40
0.25
 40
0.375
 40
0.375
 40
0.375
 40
0.375
 40
0.5
 40
0.5
 40
0.5
 40
0.5
 40
0.625
 40
0.625
 40
0.625
 40
0.625
 40
0.75
 40
0.75
 40
0.75
 40
0.75
 40
1.0
 40
1.0
 40
1.0
 40
1.0
 10
190.6584
 20
57.5564
 30
0.0
 10
190.0341
 20
62.2729
 30
0.0
 10
187.5372
 20
66.7813
 30
0.0
 10
183.029
 20
70.0411
 30
0.0
 10
183.029
 20
70.0411
 30
0.0
 10
182.9595
 20
70.0411
 30
0.0
 10
182.9595
 20
70.1105
 30
0.0
 10
182.8901
 20
70.1799
 30
0.0
 10
182.8901
 20
70.1799
 30
0.0
 10
183.5838
 20
71.0816
 30
0.0
 10
184.1386
 20
71.4284
 30
0.0
 10
184.5548
 20
71.6364
 30
0.0
 10
184.5548
 20
71.6364
 30
0.0
 10
184.1386
 20
71.8446
 30
0.0
 10
183.5838
 20
72.2606
 30
0.0
 10
182.8901
 20
73.0931
 30
0.0
 10
182.8901
 20
73.0931
 30
0.0
 10
182.9595
 20
73.0931
 30
0.0
 10
182.9595
 20
73.1623
 30
0.0
 10
183.029
 20
73.2317
 30
0.0
 10
183.029
 20
73.2317
 30
0.0
 10
187.5372
 20
76.4917
 30
0.0
 10
190.0341
 20
80.9305
 30
0.0
 10
190.6584
 20
85.7164
 30
0.0
 10
190.6584
 20
85.7164
 30
0.0
 10
190.6584
 20
85.7164
 30
0.0
 10
190.6584
 20
57.5564
 30
0.0
 10
190.6584
 20
57.5564
 30
0.0
  0
SPLINE
  5
D9
330
1F
100
AcDbEntity
  8
layer 1
 62
     7
370
     9
100
AcDbSpline
210
0.0
220
0.0
230
1.0
 70
    11
 71
     3
 72
    32
 73
    28
 74
     0
 42
0.0000000001
 43
0.0000000001
 12
1.0
 22
0.0
 32
0.0
 13
1.0
 23
0.0
 33
0.0
 40
0.0
 40
0.0
 40
0.0
 40
0.0
 40
0.125
 40
0.125
 40
0.125
 40
0.125
 40
0.25
 40
0.25
 40
0.25
 40
0.25
 40
0.375
 40
0.375
 40
0.375
 40
0.375
 40
0.5
 40
0.5
 40
0.5
 40
0.5
 40
0.625
 40
0.625
 40
0.625
 40
0.625
 40
0.75
 40
0.75
 40
0.75
 40
0.75
 40
1.0
 40
1.0
 40
1.0
 40
1.0
 10
190.6584
 20
40.0778
 30
0.0
 10
190.4504
 20
40.9795
 30
0.0
 10
189.8955
 20
41.6731
 30
0.0
 10
188.7857
 20
41.9505
 30
0.0
 10
188.7857
 20
41.9505
 30
0.0
 10
187.9534
 20
41.9505
 30
0.0
 10
186.4969
 20
41.4651
 30
0.0
 10
186.4969
 20
40.0778
 30
0.0
 10
186.4969
 20
40.0778
 30
0.0
 10
186.4969
 20
38.6908
 30
0.0
 10
187.1904
 20
38.552
 30
0.0
 10
187.1904
 20
38.552
 30
0.0
 10
187.1904
 20
38.552
 30
0.0
 10
187.1904
 20
38.552
 30
0.0
 10
185.2485
 20
38.2745
 30
0.0
 10
184.1386
 20
40.0086
 30
0.0
 10
184.1386
 20
40.0086
 30
0.0
 10
184.1386
 20
40.0086
 30
0.0
 10
184.1386
 20
40.0086
 30
0.0
 10
184.1386
 20
40.0086
 30
0.0
 10
184.1386
 20
40.0086
 30
0.0
 10
187.8146
 20
43.6152
 30
0.0
 10
190.0341
 20
48.0543
 30
0.0
 10
190.6584
 20
52.5625
 30
0.0
 10
190.6584
 20
52.5625
 30
0.0
 10
190.6584
 20
52.5625
 30
0.0
 10
190.6584
 20
40.0778
 30
0.0
 10
190.6584
 20
40.0778
 30
0.0
  0
SPLINE
  5
DA
330
1F
100
AcDbEntity
  8
layer 1
 62
     7
370
     9
100
AcDbSpline
210
0.0
220
0.0
230
1.0
 70
    11
 71
     3
 72
    16
 73
    12
 74
     0
 42
0.0000000001
 43
0.0000000001
 12
1.0
 22
0.0
 32
0.0
 13
1.0
 23
0.0
 33
0.0
 40
0.0
 40
0.0
 40
0.0
 40
0.0
 40
0.25
 40
0.25
 40
0.25
 40
0.25
 40
0.5
 40
0.5
 40
0.5
 40
0.5
 40
1.0
 40
1.0
 40
1.0
 40
1.0
 10
190.6584
 20
33.2807
 30
0.0
 10
190.4504
 20
34.5985
 30
0.0
 10
189.4793
 20
35.9164
 30
0.0
 10
188.092
 20
36.1244
 30
0.0
 10
188.092
 20
36.1244
 30
0.0
 10
189.4793
 20
36.2632
 30
0.0
 10
190.4504
 20
37.5809
 30
0.0
 10
190.6584
 20
38.8988
 30
0.0
 10
190.6584
 20
38.8988
 30
0.0
 10
190.6584
 20
38.8988
 30
0.0
 10
190.6584
 20
33.2807
 30
0.0
 10
190.6584
 20
33.2807
 30
0.0
  0
SPLINE
  5
DB
330
1F
100
AcDbEntity
  8
layer 1
 62
     7
370
     9
100
AcDbSpline
210
0.0
220
0.0
230
1.0
 70
    11
 71
     3
 72
   304
 73
   300
 74
     0
 42
0.0000000001
 43
0.0000000001
 12
1.0
 22
0.0
 32
0.0
 13
1.0
 23
0.0
 33
0.0
 40
0.0
 40
0.0
 40
0.0
 40
0.0
 40
0.0131578947368421
 40
0.0131578947368421
 40
0.0131578947368421
 40
0.0131578947368421
 40
0.0263157894736842
 40
0.0263157894736842
 40
0.0263157894736842
 40
0.0263157894736842
 40
0.0394736842105263
 40
0.0394736842105263
 40
0.0394736842105263
 40
0.0394736842105263
 40
0.0526315789473684
 40
0.0526315789473684
 40
0.0526315789473684
 40
0.0526315789473684
 40
0.0657894736842105
 40
0.0657894736842105
 40
0.0657894736842105
 40
0.0657894736842105
 40
0.0789473684210526
 40
0.0789473684210526
 40
0.0789473684210526
 40
0.0789473684210526
 40
0.0921052631578947
 40
0.0921052631578947
 40
0.0921052631578947
 40
0.0921052631578947
 40
0.1052631578947368
 40
0.1052631578947368
 40
0.1052631578947368
 40
0.1052631578947368
 40
0.1184210526315789
 40
0.1184210526315789
 40
0.1184210526315789
 40
0.1184210526315789
 40
0.131578947368421
 40
0.131578947368421
 40
0.131578947368421
 40
0.131578947368421
 40
0.1447368421052632
 40
0.1447368421052632
 40
0.1447368421052632
 40
0.1447368421052632
 40
0.1578947368421053
 40
0.1578947368421053
 40
0.1578947368421053
 40
0.1578947368421053
 40
0.1710526315789474
 40
0.1710526315789474
 40
0.1710526315789474
 40
0.1710526315789474
 40
0.1842105263157895
 40
0.1842105263157895
 40
0.1842105263157895
 40
0.1842105263157895
 40
0.1973684210526316
 40
0.1973684210526316
 40
0.1973684210526316
 40
0.1973684210526316
 40
0.2105263157894737
 40
0.2105263157894737
 40
0.2105263157894737
 40
0.2105263157894737
 40
0.2236842105263158
 40
0.2236842105263158
 40
0.2236842105263158
 40
0.2236842105263158
 40
0.2368421052631579
 40
0.2368421052631579
 40
0.2368421052631579
 40
0.2368421052631579
 40
0.25
 40
0.25
 40
0.25
 40
0.25
 40
0.2631578947368421
 40
0.2631578947368421
 40
0.2631578947368421
 40
0.2631578947368421
 40
0.2763157894736842
 40
0.2763157894736842
 40
0.2763157894736842
 40
0.2763157894736842
 40
0.2894736842105263
 40
0.2894736842105263
 40
0.2894736842105263
 40
0.2894736842105263
 40
0.3026315789473684
 40
0.3026315789473684
 40
0.3026315789473684
 40
0.3026315789473684
 40
0.3157894736842105
 40
0.3157894736842105
 40
0.3157894736842105
 40
0.3157894736842105
 40
0.3289473684210527
 40
0.3289473684210527
 40
0.3289473684210527
 40
0.3289473684210527
 40
0.3421052631578947
 40
0.3421052631578947
 40
0.3421052631578947
 40
0.3421052631578947
 40
0.3552631578947368
 40
0.3552631578947368
 40
0.3552631578947368
 40
0.3552631578947368
 40
0.3684210526315789
 40
0.3684210526315789
 40
0.3684210526315789
 40
0.3684210526315789
 40
0.3815789473684211
 40
0.3815789473684211
 40
0.3815789473684211
 40
0.3815789473684211
 40
0.3947368421052632
 40
0.3947368421052632
 40
0.3947368421052632
 40
0.3947368421052632
 40
0.4078947368421053
 40
0.4078947368421053
 40
0.4078947368421053
 40
0.4078947368421053
 40
0.4210526315789473
 40
0.4210526315789473
 40
0.4210526315789473
 40
0.4210526315789473
 40
0.4342105263157895
 40
0.4342105263157895
 40
0.4342105263157895
 40
0.4342105263157895
 40
0.4473684210526316
 40
0.4473684210526316
 40
0.4473684210526316
 40
0.4473684210526316
 40
0.4605263157894737
 40
0.4605263157894737
 40
0.4605263157894737
 40
0.4605263157894737
 40
0.4736842105263158
 40
0.4736842105263158
 40
0.4736842105263158
 40
0.4736842105263158
 40
0.4868421052631579
 40
0.4868421052631579
 40
0.4868421052631579
 40
0.4868421052631579
 40
0.5
 40
0.5
 40
0.5
 40
0.5
 40
0.5131578947368421
 40
0.5131578947368421
 40
0.5131578947368421
 40
0.5131578947368421
 40
0.5263157894736842
 40
0.5263157894736842
 40
0.5263157894736842
 40
0.5263157894736842
 40
0.5394736842105263
 40
0.5394736842105263
 40
0.5394736842105263
 40
0.5394736842105263
 40
0.5526315789473685
 40
0.5526315789473685
 40
0.5526315789473685
 40
0.5526315789473685
 40
0.5657894736842105
 40
0.5657894736842105
 40
0.5657894736842105
 40
0.5657894736842105
 40
0.5789473684210527
 40
0.5789473684210527
 40
0.5789473684210527
 40
0.5789473684210527
 40
0.5921052631578947
 40
0.5921052631578947
 40
0.5921052631578947
 40
0.5921052631578947
 40
0.6052631578947368
 40
0.6052631578947368
 40
0.6052631578947368
 40
0.6052631578947368
 40
0.618421052631579
 40
0.618421052631579
 40
0.618421052631579
 40
0.618421052631579
 40
0.631578947368421
 40
0.631578947368421
 40
0.631578947368421
 40
0.631578947368421
 40
0.6447368421052632
 40
0.6447368421052632
 40
0.6447368421052632
 40
0.6447368421052632
 40
0.6578947368421053
 40
0.6578947368421053
 40
0.6578947368421053
 40
0.6578947368421053
 40
0.6710526315789473
 40
0.6710526315789473
 40
0.6710526315789473
 40
0.6710526315789473
 40
0.6842105263157895
 40
0.6842105263157895
 40
0.6842105263157895
 40
0.6842105263157895
 40
0.6973684210526315
 40
0.6973684210526315
 40
0.6973684210526315
 40
0.6973684210526315
 40
0.7105263157894737
 40
0.7105263157894737
 40
0.7105263157894737
 40
0.7105263157894737
 40
0.7236842105263158
 40
0.7236842105263158
 40
0.7236842105263158
 40
0.7236842105263158
 40
0.7368421052631579
 40
0.7368421052631579
 40
0.7368421052631579
 40
0.7368421052631579
 40
0.75
 40
0.75
 40
0.75
 40
0.75
 40
0.7631578947368421
 40
0.7631578947368421
 40
0.7631578947368421
 40
0.7631578947368421
 40
0.7763157894736842
 40
0.7763157894736842
 40
0.7763157894736842
 40
0.7763157894736842
 40
0.7894736842105263
 40
0.7894736842105263
 40
0.7894736842105263
 40
0.7894736842105263
 40
0.8026315789473685
 40
0.8026315789473685
 40
0.8026315789473685
 40
0.8026315789473685
 40
0.8157894736842105
 40
0.8157894736842105
 40
0.8157894736842105
 40
0.8157894736842105
 40
0.8289473684210527
 40
0.8289473684210527
 40
0.8289473684210527
 40
0.8289473684210527
 40
0.8421052631578947
 40
0.8421052631578947
 40
0.8421052631578947
 40
0.8421052631578947
 40
0.8552631578947368
 40
0.8552631578947368
 40
0.8552631578947368
 40
0.8552631578947368
 40
0.868421052631579
 40
0.868421052631579
 40
0.868421052631579
 40
0.868421052631579
 40
0.881578947368421
 40
0.881578947368421
 40
0.881578947368421
 40
0.881578947368421
 40
0.8947368421052632
 40
0.8947368421052632
 40
0.8947368421052632
 40
0.8947368421052632
 40
0.9078947368421053
 40
0.9078947368421053
 40
0.9078947368421053
 40
0.9078947368421053
 40
0.9210526315789473
 40
0.9210526315789473
 40
0.9210526315789473
 40
0.9210526315789473
 40
0.9342105263157895
 40
0.9342105263157895
 40
0.9342105263157895
 40
0.9342105263157895
 40
0.9473684210526315
 40
0.9473684210526315
 40
0.9473684210526315
 40
0.9473684210526315
 40
0.9605263157894737
 40
0.9605263157894737
 40
0.9605263157894737
 40
0.9605263157894737
 40
0.9736842105263158
 40
0.9736842105263158
 40
0.9736842105263158
 40
0.9736842105263158
 40
1.0
 40
1.0
 40
1.0
 40
1.0
 10
123.4492
 20
-0.4974
 30
0.0
 10
123.4492
 20
-0.4974
 30
0.0
 10
123.4492
 20
-69.4407
 30
0.0
 10
123.4492
 20
-69.4407
 30
0.0
 10
123.4492
 20
-69.4407
 30
0.0
 10
125.1137
 20
-68.3308
 30
0.0
 10
127.2638
 20
-66.6663
 30
0.0
 10
128.5817
 20
-65.2096
 30
0.0
 10
128.5817
 20
-65.2096
 30
0.0
 10
130.6624
 20
-63.0595
 30
0.0
 10
134.6855
 20
-64.1
 30
0.0
 10
134.6855
 20
-64.1
 30
0.0
 10
134.6855
 20
-64.1
 30
0.0
 10
131.8417
 20
-60.632
 30
0.0
 10
135.1709
 20
-52.1701
 30
0.0
 10
141.1358
 20
-51.7539
 30
0.0
 10
141.1358
 20
-51.7539
 30
0.0
 10
146.5459
 20
-51.3379
 30
0.0
 10
148.696
 20
-55.1527
 30
0.0
 10
148.696
 20
-55.1527
 30
0.0
 10
148.696
 20
-55.1527
 30
0.0
 10
146.4071
 20
-55.0139
 30
0.0
 10
140.1648
 20
-55.7075
 30
0.0
 10
140.1648
 20
-62.5741
 30
0.0
 10
140.1648
 20
-62.5741
 30
0.0
 10
140.1648
 20
-66.6663
 30
0.0
 10
143.5633
 20
-68.747
 30
0.0
 10
147.1007
 20
-69.0245
 30
0.0
 10
147.1007
 20
-69.0245
 30
0.0
 10
147.1007
 20
-69.0245
 30
0.0
 10
147.1701
 20
-69.0245
 30
0.0
 10
147.3088
 20
-69.0939
 30
0.0
 10
147.3088
 20
-69.0939
 30
0.0
 10
146.8925
 20
-67.1517
 30
0.0
 10
145.0198
 20
-68.539
 30
0.0
 10
145.0198
 20
-68.539
 30
0.0
 10
145.0198
 20
-68.539
 30
0.0
 10
145.0198
 20
-68.539
 30
0.0
 10
145.2974
 20
-66.3195
 30
0.0
 10
148.0718
 20
-66.5275
 30
0.0
 10
148.0718
 20
-66.5275
 30
0.0
 10
149.3895
 20
-66.5969
 30
0.0
 10
150.0137
 20
-67.776
 30
0.0
 10
150.3605
 20
-68.8164
 30
0.0
 10
150.3605
 20
-68.8164
 30
0.0
 10
150.3605
 20
-68.8164
 30
0.0
 10
150.4299
 20
-68.8164
 30
0.0
 10
150.4299
 20
-68.8164
 30
0.0
 10
150.4299
 20
-68.8164
 30
0.0
 10
151.609
 20
-68.539
 30
0.0
 10
152.7189
 20
-67.984
 30
0.0
 10
153.5511
 20
-67.2212
 30
0.0
 10
153.5511
 20
-67.2212
 30
0.0
 10
157.2965
 20
-63.8226
 30
0.0
 10
162.9146
 20
-64.6548
 30
0.0
 10
162.9146
 20
-64.6548
 30
0.0
 10
162.9146
 20
-64.6548
 30
0.0
 10
162.221
 20
-63.9612
 30
0.0
 10
160.9725
 20
-61.603
 30
0.0
 10
159.7241
 20
-58.9673
 30
0.0
 10
159.7241
 20
-58.9673
 30
0.0
 10
156.1175
 20
-60.2852
 30
0.0
 10
153.2043
 20
-65.3484
 30
0.0
 10
148.8346
 20
-65.3484
 30
0.0
 10
148.8346
 20
-65.3484
 30
0.0
 10
146.1991
 20
-65.3484
 30
0.0
 10
143.3553
 20
-64.3774
 30
0.0
 10
143.3553
 20
-61.7416
 30
0.0
 10
143.3553
 20
-61.7416
 30
0.0
 10
143.3553
 20
-59.5223
 30
0.0
 10
144.8812
 20
-58.6205
 30
0.0
 10
146.6151
 20
-58.6205
 30
0.0
 10
146.6151
 20
-58.6205
 30
0.0
 10
147.5168
 20
-58.6205
 30
0.0
 10
148.904
 20
-59.3835
 30
0.0
 10
148.904
 20
-60.9094
 30
0.0
 10
148.904
 20
-60.9094
 30
0.0
 10
148.904
 20
-63.1289
 30
0.0
 10
147.4476
 20
-63.1289
 30
0.0
 10
147.4476
 20
-63.1289
 30
0.0
 10
147.4476
 20
-63.1289
 30
0.0
 10
152.372
 20
-63.1289
 30
0.0
 10
153.3431
 20
-55.9849
 30
0.0
 10
157.3659
 20
-53.488
 30
0.0
 10
157.3659
 20
-53.488
 30
0.0
 10
157.3659
 20
-53.488
 30
0.0
 10
157.3659
 20
-53.488
 30
0.0
 10
157.3659
 20
-53.488
 30
0.0
 10
157.3659
 20
-53.488
 30
0.0
 10
156.4643
 20
-51.3379
 30
0.0
 10
155.7706
 20
-49.7426
 30
0.0
 10
155.7706
 20
-49.7426
 30
0.0
 10
155.7706
 20
-49.7426
 30
0.0
 10
154.2447
 20
-52.6557
 30
0.0
 10
151.7478
 20
-52.9332
 30
0.0
 10
148.4878
 20
-48.2861
 30
0.0
 10
148.4878
 20
-48.2861
 30
0.0
 10
145.6441
 20
-44.3325
 30
0.0
 10
142.9391
 20
-47.5231
 30
0.0
 10
142.9391
 20
-47.5231
 30
0.0
 10
142.9391
 20
-47.5231
 30
0.0
 10
141.1358
 20
-41.6275
 30
0.0
 10
147.3088
 20
-40.3097
 30
0.0
 10
147.3088
 20
-40.3097
 30
0.0
 10
147.3088
 20
-40.3097
 30
0.0
 10
147.3088
 20
-40.3097
 30
0.0
 10
146.3377
 20
-39.1306
 30
0.0
 10
144.6038
 20
-38.2289
 30
0.0
 10
144.6038
 20
-38.2289
 30
0.0
 10
144.5344
 20
-38.1595
 30
0.0
 10
144.3956
 20
-38.0901
 30
0.0
 10
144.257
 20
-38.0207
 30
0.0
 10
144.257
 20
-38.0207
 30
0.0
 10
143.4939
 20
-39.2692
 30
0.0
 10
142.3149
 20
-40.3097
 30
0.0
 10
140.581
 20
-40.4485
 30
0.0
 10
140.581
 20
-40.4485
 30
0.0
 10
136.9048
 20
-40.5871
 30
0.0
 10
136.3499
 20
-37.3965
 30
0.0
 10
136.2805
 20
-37.0499
 30
0.0
 10
136.2805
 20
-37.0499
 30
0.0
 10
128.9285
 20
-38.5758
 30
0.0
 10
129.7608
 20
-44.8873
 30
0.0
 10
129.7608
 20
-44.8873
 30
0.0
 10
129.7608
 20
-44.8873
 30
0.0
 10
132.5351
 20
-42.1824
 30
0.0
 10
133.5062
 20
-44.8873
 30
0.0
 10
135.0321
 20
-45.0261
 30
0.0
 10
135.0321
 20
-45.0261
 30
0.0
 10
136.5582
 20
-45.2341
 30
0.0
 10
137.6678
 20
-43.5696
 30
0.0
 10
137.6678
 20
-43.5696
 30
0.0
 10
137.6678
 20
-43.5696
 30
0.0
 10
139.7485
 20
-51.8927
 30
0.0
 10
132.8127
 20
-50.991
 30
0.0
 10
132.8127
 20
-50.991
 30
0.0
 10
132.8127
 20
-50.991
 30
0.0
 10
135.5177
 20
-54.5284
 30
0.0
 10
133.1594
 20
-60.5626
 30
0.0
 10
127.0558
 20
-62.8515
 30
0.0
 10
127.0558
 20
-62.8515
 30
0.0
 10
129.414
 20
-58.8287
 30
0.0
 10
125.9462
 20
-52.7249
 30
0.0
 10
126.0848
 20
-47.0376
 30
0.0
 10
126.0848
 20
-47.0376
 30
0.0
 10
126.2928
 20
-40.3097
 30
0.0
 10
129.2754
 20
-36.5642
 30
0.0
 10
133.3676
 20
-34.969
 30
0.0
 10
133.3676
 20
-34.969
 30
0.0
 10
133.3676
 20
-34.969
 30
0.0
 10
133.2982
 20
-34.969
 30
0.0
 10
133.2982
 20
-34.969
 30
0.0
 10
133.2982
 20
-34.969
 30
0.0
 10
133.2982
 20
-34.969
 30
0.0
 10
133.3676
 20
-34.969
 30
0.0
 10
133.3676
 20
-34.969
 30
0.0
 10
133.3676
 20
-34.969
 30
0.0
 10
129.2754
 20
-33.3737
 30
0.0
 10
126.2928
 20
-29.6283
 30
0.0
 10
126.0848
 20
-22.9699
 30
0.0
 10
126.0848
 20
-22.9699
 30
0.0
 10
125.9462
 20
-17.2824
 30
0.0
 10
129.414
 20
-11.1786
 30
0.0
 10
127.0558
 20
-7.0866
 30
0.0
 10
127.0558
 20
-7.0866
 30
0.0
 10
133.1594
 20
-9.3753
 30
0.0
 10
135.5177
 20
-15.4097
 30
0.0
 10
132.8127
 20
-18.9471
 30
0.0
 10
132.8127
 20
-18.9471
 30
0.0
 10
132.8127
 20
-18.9471
 30
0.0
 10
139.7485
 20
-18.0452
 30
0.0
 10
137.6678
 20
-26.3685
 30
0.0
 10
137.6678
 20
-26.3685
 30
0.0
 10
137.6678
 20
-26.3685
 30
0.0
 10
136.5582
 20
-24.7038
 30
0.0
 10
135.0321
 20
-24.9118
 30
0.0
 10
135.0321
 20
-24.9118
 30
0.0
 10
133.5062
 20
-25.12
 30
0.0
 10
132.5351
 20
-27.7555
 30
0.0
 10
129.7608
 20
-25.12
 30
0.0
 10
129.7608
 20
-25.12
 30
0.0
 10
129.7608
 20
-25.12
 30
0.0
 10
128.9285
 20
-31.3623
 30
0.0
 10
136.2805
 20
-32.8882
 30
0.0
 10
136.2805
 20
-32.8882
 30
0.0
 10
136.3499
 20
-32.5414
 30
0.0
 10
136.9048
 20
-29.3508
 30
0.0
 10
140.581
 20
-29.559
 30
0.0
 10
140.581
 20
-29.559
 30
0.0
 10
142.3149
 20
-29.6283
 30
0.0
 10
143.4939
 20
-30.6687
 30
0.0
 10
144.257
 20
-31.9172
 30
0.0
 10
144.257
 20
-31.9172
 30
0.0
 10
144.3956
 20
-31.8478
 30
0.0
 10
144.5344
 20
-31.8478
 30
0.0
 10
144.6038
 20
-31.7784
 30
0.0
 10
144.6038
 20
-31.7784
 30
0.0
 10
146.3377
 20
-30.8075
 30
0.0
 10
147.3088
 20
-29.6977
 30
0.0
 10
147.3088
 20
-29.6977
 30
0.0
 10
147.3088
 20
-29.6977
 30
0.0
 10
147.3088
 20
-29.6977
 30
0.0
 10
141.1358
 20
-28.3106
 30
0.0
 10
142.9391
 20
-22.4149
 30
0.0
 10
142.9391
 20
-22.4149
 30
0.0
 10
142.9391
 20
-22.4149
 30
0.0
 10
145.6441
 20
-25.6748
 30
0.0
 10
148.4878
 20
-21.7214
 30
0.0
 10
148.4878
 20
-21.7214
 30
0.0
 10
151.7478
 20
-17.0049
 30
0.0
 10
154.2447
 20
-17.2824
 30
0.0
 10
155.7706
 20
-20.2647
 30
0.0
 10
155.7706
 20
-20.2647
 30
0.0
 10
155.7706
 20
-20.2647
 30
0.0
 10
156.4643
 20
-18.6002
 30
0.0
 10
157.3659
 20
-16.4501
 30
0.0
 10
157.3659
 20
-16.4501
 30
0.0
 10
157.3659
 20
-16.4501
 30
0.0
 10
157.3659
 20
-16.4501
 30
0.0
 10
157.3659
 20
-16.4501
 30
0.0
 10
157.3659
 20
-16.4501
 30
0.0
 10
153.3431
 20
-13.9532
 30
0.0
 10
152.372
 20
-6.8784
 30
0.0
 10
147.4476
 20
-6.8784
 30
0.0
 10
147.4476
 20
-6.8784
 30
0.0
 10
147.4476
 20
-6.8784
 30
0.0
 10
148.904
 20
-6.8784
 30
0.0
 10
148.904
 20
-9.0285
 30
0.0
 10
148.904
 20
-9.0285
 30
0.0
 10
148.904
 20
-10.5544
 30
0.0
 10
147.5168
 20
-11.3174
 30
0.0
 10
146.6151
 20
-11.3174
 30
0.0
 10
146.6151
 20
-11.3174
 30
0.0
 10
144.8812
 20
-11.3174
 30
0.0
 10
143.3553
 20
-10.4158
 30
0.0
 10
143.3553
 20
-8.1963
 30
0.0
 10
143.3553
 20
-8.1963
 30
0.0
 10
143.3553
 20
-5.6299
 30
0.0
 10
146.1991
 20
-4.5897
 30
0.0
 10
148.8346
 20
-4.5897
 30
0.0
 10
148.8346
 20
-4.5897
 30
0.0
 10
153.2043
 20
-4.5897
 30
0.0
 10
156.1175
 20
-9.6527
 30
0.0
 10
159.7241
 20
-10.9706
 30
0.0
 10
159.7241
 20
-10.9706
 30
0.0
 10
160.9725
 20
-8.3351
 30
0.0
 10
162.221
 20
-5.9767
 30
0.0
 10
162.9146
 20
-5.2831
 30
0.0
 10
162.9146
 20
-5.2831
 30
0.0
 10
162.9146
 20
-5.2831
 30
0.0
 10
157.2965
 20
-6.1155
 30
0.0
 10
153.5511
 20
-2.7169
 30
0.0
 10
153.5511
 20
-2.7169
 30
0.0
 10
152.7189
 20
-1.9539
 30
0.0
 10
151.609
 20
-1.4685
 30
0.0
 10
150.4299
 20
-1.1217
 30
0.0
 10
150.4299
 20
-1.1217
 30
0.0
 10
150.4299
 20
-1.1217
 30
0.0
 10
150.3605
 20
-1.1217
 30
0.0
 10
150.3605
 20
-1.1217
 30
0.0
 10
150.3605
 20
-1.1217
 30
0.0
 10
150.0137
 20
-2.1619
 30
0.0
 10
149.3895
 20
-3.3412
 30
0.0
 10
148.0718
 20
-3.4104
 30
0.0
 10
148.0718
 20
-3.4104
 30
0.0
 10
145.2974
 20
-3.6878
 30
0.0
 10
145.0198
 20
-1.3991
 30
0.0
 10
145.0198
 20
-1.3991
 30
0.0
 10
145.0198
 20
-1.3991
 30
0.0
 10
145.0198
 20
-1.3991
 30
0.0
 10
146.8925
 20
-2.7862
 30
0.0
 10
147.3088
 20
-0.8442
 30
0.0
 10
147.3088
 20
-0.8442
 30
0.0
 10
147.1701
 20
-0.9135
 30
0.0
 10
147.1007
 20
-0.9135
 30
0.0
 10
147.1007
 20
-0.9135
 30
0.0
 10
147.1007
 20
-0.9135
 30
0.0
 10
143.5633
 20
-1.1909
 30
0.0
 10
140.1648
 20
-3.3412
 30
0.0
 10
140.1648
 20
-7.4332
 30
0.0
 10
140.1648
 20
-7.4332
 30
0.0
 10
140.1648
 20
-14.2998
 30
0.0
 10
146.4071
 20
-14.924
 30
0.0
 10
148.696
 20
-14.7854
 30
0.0
 10
148.696
 20
-14.7854
 30
0.0
 10
148.696
 20
-14.7854
 30
0.0
 10
146.5459
 20
-18.6002
 30
0.0
 10
141.1358
 20
-18.184
 30
0.0
 10
141.1358
 20
-18.184
 30
0.0
 10
135.1709
 20
-17.7678
 30
0.0
 10
131.8417
 20
-9.3059
 30
0.0
 10
134.6855
 20
-5.8381
 30
0.0
 10
134.6855
 20
-5.8381
 30
0.0
 10
134.6855
 20
-5.8381
 30
0.0
 10
130.6624
 20
-6.9478
 30
0.0
 10
128.5817
 20
-4.7283
 30
0.0
 10
128.5817
 20
-4.7283
 30
0.0
 10
127.2638
 20
-3.2718
 30
0.0
 10
125.1137
 20
-1.6071
 30
0.0
 10
123.4492
 20
-0.4974
 30
0.0
  0
SPLINE
  5
DC
330
1F
100
AcDbEntity
  8
layer 1
 62
     7
370
     9
100
AcDbSpline
210
0.0
220
0.0
230
1.0
 70
    11
 71
     3
 72
   304
 73
   300
 74
     0
 42
0.0000000001
 43
0.0000000001
 12
1.0
 22
0.0
 32
0.0
 13
1.0
 23
0.0
 33
0.0
 40
0.0
 40
0.0
 40
0.0
 40
0.0
 40
0.0131578947368421
 40
0.0131578947368421
 40
0.0131578947368421
 40
0.0131578947368421
 40
0.0263157894736842
 40
0.0263157894736842
 40
0.0263157894736842
 40
0.0263157894736842
 40
0.0394736842105263
 40
0.0394736842105263
 40
0.0394736842105263
 40
0.0394736842105263
 40
0.0526315789473684
 40
0.0526315789473684
 40
0.0526315789473684
 40
0.0526315789473684
 40
0.0657894736842105
 40
0.0657894736842105
 40
0.0657894736842105
 40
0.0657894736842105
 40
0.0789473684210526
 40
0.0789473684210526
 40
0.0789473684210526
 40
0.0789473684210526
 40
0.0921052631578947
 40
0.0921052631578947
 40
0.0921052631578947
 40
0.0921052631578947
 40
0.1052631578947368
 40
0.1052631578947368
 40
0.1052631578947368
 40
0.1052631578947368
 40
0.1184210526315789
 40
0.1184210526315789
 40
0.1184210526315789
 40
0.1184210526315789
 40
0.131578947368421
 40
0.131578947368421
 40
0.131578947368421
 40
0.131578947368421
 40
0.1447368421052632
 40
0.1447368421052632
 40
0.1447368421052632
 40
0.1447368421052632
 40
0.1578947368421053
 40
0.1578947368421053
 40
0.1578947368421053
 40
0.1578947368421053
 40
0.1710526315789474
 40
0.1710526315789474
 40
0.1710526315789474
 40
0.1710526315789474
 40
0.1842105263157895
 40
0.1842105263157895
 40
0.1842105263157895
 40
0.1842105263157895
 40
0.1973684210526316
 40
0.1973684210526316
 40
0.1973684210526316
 40
0.1973684210526316
 40
0.2105263157894737
 40
0.2105263157894737
 40
0.2105263157894737
 40
0.2105263157894737
 40
0.2236842105263158
 40
0.2236842105263158
 40
0.2236842105263158
 40
0.2236842105263158
 40
0.2368421052631579
 40
0.2368421052631579
 40
0.2368421052631579
 40
0.2368421052631579
 40
0.25
 40
0.25
 40
0.25
 40
0.25
 40
0.2631578947368421
 40
0.2631578947368421
 40
0.2631578947368421
 40
0.2631578947368421
 40
0.2763157894736842
 40
0.2763157894736842
 40
0.2763157894736842
 40
0.2763157894736842
 40
0.2894736842105263
 40
0.2894736842105263
 40
0.2894736842105263
 40
0.2894736842105263
 40
0.3026315789473684
 40
0.3026315789473684
 40
0.3026315789473684
 40
0.3026315789473684
 40
0.3157894736842105
 40
0.3157894736842105
 40
0.3157894736842105
 40
0.3157894736842105
 40
0.3289473684210527
 40
0.3289473684210527
 40
0.3289473684210527
 40
0.3289473684210527
 40
0.3421052631578947
 40
0.3421052631578947
 40
0.3421052631578947
 40
0.3421052631578947
 40
0.3552631578947368
 40
0.3552631578947368
 40
0.3552631578947368
 40
0.3552631578947368
 40
0.3684210526315789
 40
0.3684210526315789
 40
0.3684210526315789
 40
0.3684210526315789
 40
0.3815789473684211
 40
0.3815789473684211
 40
0.3815789473684211
 40
0.3815789473684211
 40
0.3947368421052632
 40
0.3947368421052632
 40
0.3947368421052632
 40
0.3947368421052632
 40
0.4078947368421053
 40
0.4078947368421053
 40
0.4078947368421053
 40
0.4078947368421053
 40
0.4210526315789473
 40
0.4210526315789473
 40
0.4210526315789473
 40
0.4210526315789473
 40
0.4342105263157895
 40
0.4342105263157895
 40
0.4342105263157895
 40
0.4342105263157895
 40
0.4473684210526316
 40
0.4473684210526316
 40
0.4473684210526316
 40
0.4473684210526316
 40
0.4605263157894737
 40
0.4605263157894737
 40
0.4605263157894737
 40
0.4605263157894737
 40
0.4736842105263158
 40
0.4736842105263158
 40
0.4736842105263158
 40
0.4736842105263158
 40
0.4868421052631579
 40
0.4868421052631579
 40
0.4868421052631579
 40
0.4868421052631579
 40
0.5
 40
0.5
 40
0.5
 40
0.5
 40
0.5131578947368421
 40
0.5131578947368421
 40
0.5131578947368421
 40
0.5131578947368421
 40
0.5263157894736842
 40
0.5263157894736842
 40
0.5263157894736842
 40
0.5263157894736842
 40
0.5394736842105263
 40
0.5394736842105263
 40
0.5394736842105263
 40
0.5394736842105263
 40
0.5526315789473685
 40
0.5526315789473685
 40
0.5526315789473685
 40
0.5526315789473685
 40
0.5657894736842105
 40
0.5657894736842105
 40
0.5657894736842105
 40
0.5657894736842105
 40
0.5789473684210527
 40
0.5789473684210527
 40
0.5789473684210527
 40
0.5789473684210527
 40
0.5921052631578947
 40
0.5921052631578947
 40
0.5921052631578947
 40
0.5921052631578947
 40
0.6052631578947368
 40
0.6052631578947368
 40
0.6052631578947368
 40
0.6052631578947368
 40
0.618421052631579
 40
0.618421052631579
 40
0.618421052631579
 40
0.618421052631579
 40
0.631578947368421
 40
0.631578947368421
 40
0.631578947368421
 40
0.631578947368421
 40
0.6447368421052632
 40
0.6447368421052632
 40
0.6447368421052632
 40
0.6447368421052632
 40
0.6578947368421053
 40
0.6578947368421053
 40
0.6578947368421053
 40
0.6578947368421053
 40
0.6710526315789473
 40
0.6710526315789473
 40
0.6710526315789473
 40
0.6710526315789473
 40
0.6842105263157895
 40
0.6842105263157895
 40
0.6842105263157895
 40
0.6842105263157895
 40
0.6973684210526315
 40
0.6973684210526315
 40
0.6973684210526315
 40
0.6973684210526315
 40
0.7105263157894737
 40
0.7105263157894737
 40
0.7105263157894737
 40
0.7105263157894737
 40
0.7236842105263158
 40
0.7236842105263158
 40
0.7236842105263158
 40
0.7236842105263158
 40
0.7368421052631579
 40
0.7368421052631579
 40
0.7368421052631579
 40
0.7368421052631579
 40
0.75
 40
0.75
 40
0.75
 40
0.75
 40
0.7631578947368421
 40
0.7631578947368421
 40
0.7631578947368421
 40
0.7631578947368421
 40
0.7763157894736842
 40
0.7763157894736842
 40
0.7763157894736842
 40
0.7763157894736842
 40
0.7894736842105263
 40
0.7894736842105263
 40
0.7894736842105263
 40
0.7894736842105263
 40
0.8026315789473685
 40
0.8026315789473685
 40
0.8026315789473685
 40
0.8026315789473685
 40
0.8157894736842105
 40
0.8157894736842105
 40
0.8157894736842105
 40
0.8157894736842105
 40
0.8289473684210527
 40
0.8289473684210527
 40
0.8289473684210527
 40
0.8289473684210527
 40
0.8421052631578947
 40
0.8421052631578947
 40
0.8421052631578947
 40
0.8421052631578947
 40
0.8552631578947368
 40
0.8552631578947368
 40
0.8552631578947368
 40
0.8552631578947368
 40
0.868421052631579
 40
0.868421052631579
 40
0.868421052631579
 40
0.868421052631579
 40
0.881578947368421
 40
0.881578947368421
 40
0.881578947368421
 40
0.881578947368421
 40
0.8947368421052632
 40
0.8947368421052632
 40
0.8947368421052632
 40
0.8947368421052632
 40
0.9078947368421053
 40
0.9078947368421053
 40
0.9078947368421053
 40
0.9078947368421053
 40
0.9210526315789473
 40
0.9210526315789473
 40
0.9210526315789473
 40
0.9210526315789473
 40
0.9342105263157895
 40
0.9342105263157895
 40
0.9342105263157895
 40
0.9342105263157895
 40
0.9473684210526315
 40
0.9473684210526315
 40
0.9473684210526315
 40
0.9473684210526315
 40
0.9605263157894737
 40
0.9605263157894737
 40
0.9605263157894737
 40
0.9605263157894737
 40
0.9736842105263158
 40
0.9736842105263158
 40
0.9736842105263158
 40
0.9736842105263158
 40
1.0
 40
1.0
 40
1.0
 40
1.0
 10
123.4492
 20
70.5267
 30
0.0
 10
123.4492
 20
70.5267
 30
0.0
 10
123.4492
 20
1.6527
 30
0.0
 10
123.4492
 20
1.6527
 30
0.0
 10
123.4492
 20
1.6527
 30
0.0
 10
125.1137
 20
2.7626
 30
0.0
 10
127.2638
 20
4.4272
 30
0.0
 10
128.5817
 20
5.8143
 30
0.0
 10
128.5817
 20
5.8143
 30
0.0
 10
130.6624
 20
8.0338
 30
0.0
 10
134.6855
 20
6.9934
 30
0.0
 10
134.6855
 20
6.9934
 30
0.0
 10
134.6855
 20
6.9934
 30
0.0
 10
131.8417
 20
10.392
 30
0.0
 10
135.1709
 20
18.8539
 30
0.0
 10
141.1358
 20
19.2701
 30
0.0
 10
141.1358
 20
19.2701
 30
0.0
 10
146.5459
 20
19.7555
 30
0.0
 10
148.696
 20
15.9409
 30
0.0
 10
148.696
 20
15.9409
 30
0.0
 10
148.696
 20
15.9409
 30
0.0
 10
146.4071
 20
16.0101
 30
0.0
 10
140.1648
 20
15.3859
 30
0.0
 10
140.1648
 20
8.5193
 30
0.0
 10
140.1648
 20
8.5193
 30
0.0
 10
140.1648
 20
4.4272
 30
0.0
 10
143.5633
 20
2.3463
 30
0.0
 10
147.1007
 20
1.9995
 30
0.0
 10
147.1007
 20
1.9995
 30
0.0
 10
147.1007
 20
1.9995
 30
0.0
 10
147.1701
 20
1.9995
 30
0.0
 10
147.3088
 20
1.9995
 30
0.0
 10
147.3088
 20
1.9995
 30
0.0
 10
146.8925
 20
3.8722
 30
0.0
 10
145.0198
 20
2.4851
 30
0.0
 10
145.0198
 20
2.4851
 30
0.0
 10
145.0198
 20
2.4851
 30
0.0
 10
145.0198
 20
2.4851
 30
0.0
 10
145.2974
 20
4.7047
 30
0.0
 10
148.0718
 20
4.5659
 30
0.0
 10
148.0718
 20
4.5659
 30
0.0
 10
149.3895
 20
4.4272
 30
0.0
 10
150.0137
 20
3.3174
 30
0.0
 10
150.3605
 20
2.2077
 30
0.0
 10
150.3605
 20
2.2077
 30
0.0
 10
150.3605
 20
2.2769
 30
0.0
 10
150.4299
 20
2.2769
 30
0.0
 10
150.4299
 20
2.2769
 30
0.0
 10
150.4299
 20
2.2769
 30
0.0
 10
151.609
 20
2.5545
 30
0.0
 10
152.7189
 20
3.1094
 30
0.0
 10
153.5511
 20
3.803
 30
0.0
 10
153.5511
 20
3.803
 30
0.0
 10
157.2965
 20
7.2016
 30
0.0
 10
162.9146
 20
6.3692
 30
0.0
 10
162.9146
 20
6.3692
 30
0.0
 10
162.9146
 20
6.3692
 30
0.0
 10
162.221
 20
7.1322
 30
0.0
 10
160.9725
 20
9.4903
 30
0.0
 10
159.7241
 20
12.0567
 30
0.0
 10
159.7241
 20
12.0567
 30
0.0
 10
156.1175
 20
10.8082
 30
0.0
 10
153.2043
 20
5.6757
 30
0.0
 10
148.8346
 20
5.6757
 30
0.0
 10
148.8346
 20
5.6757
 30
0.0
 10
146.1991
 20
5.6757
 30
0.0
 10
143.3553
 20
6.716
 30
0.0
 10
143.3553
 20
9.2823
 30
0.0
 10
143.3553
 20
9.2823
 30
0.0
 10
143.3553
 20
11.5712
 30
0.0
 10
144.8812
 20
12.4729
 30
0.0
 10
146.6151
 20
12.4729
 30
0.0
 10
146.6151
 20
12.4729
 30
0.0
 10
147.5168
 20
12.4729
 30
0.0
 10
148.904
 20
11.6405
 30
0.0
 10
148.904
 20
10.184
 30
0.0
 10
148.904
 20
10.184
 30
0.0
 10
148.904
 20
7.9644
 30
0.0
 10
147.4476
 20
7.9644
 30
0.0
 10
147.4476
 20
7.9644
 30
0.0
 10
147.4476
 20
7.9644
 30
0.0
 10
152.372
 20
7.9644
 30
0.0
 10
153.3431
 20
15.0392
 30
0.0
 10
157.3659
 20
17.6054
 30
0.0
 10
157.3659
 20
17.6054
 30
0.0
 10
157.3659
 20
17.6054
 30
0.0
 10
157.3659
 20
17.6054
 30
0.0
 10
157.3659
 20
17.6054
 30
0.0
 10
157.3659
 20
17.6054
 30
0.0
 10
156.4643
 20
19.7555
 30
0.0
 10
155.7706
 20
21.3508
 30
0.0
 10
155.7706
 20
21.3508
 30
0.0
 10
155.7706
 20
21.3508
 30
0.0
 10
154.2447
 20
18.4378
 30
0.0
 10
151.7478
 20
18.091
 30
0.0
 10
148.4878
 20
22.8075
 30
0.0
 10
148.4878
 20
22.8075
 30
0.0
 10
145.6441
 20
26.7609
 30
0.0
 10
142.9391
 20
23.5703
 30
0.0
 10
142.9391
 20
23.5703
 30
0.0
 10
142.9391
 20
23.5703
 30
0.0
 10
141.1358
 20
29.3966
 30
0.0
 10
147.3088
 20
30.7837
 30
0.0
 10
147.3088
 20
30.7837
 30
0.0
 10
147.3088
 20
30.7837
 30
0.0
 10
147.3088
 20
30.7837
 30
0.0
 10
146.3377
 20
31.8936
 30
0.0
 10
144.6038
 20
32.8644
 30
0.0
 10
144.6038
 20
32.8644
 30
0.0
 10
144.5344
 20
32.9338
 30
0.0
 10
144.3956
 20
33.0032
 30
0.0
 10
144.257
 20
33.0726
 30
0.0
 10
144.257
 20
33.0726
 30
0.0
 10
143.4939
 20
31.7548
 30
0.0
 10
142.3149
 20
30.7837
 30
0.0
 10
140.581
 20
30.6451
 30
0.0
 10
140.581
 20
30.6451
 30
0.0
 10
136.9048
 20
30.4369
 30
0.0
 10
136.3499
 20
33.6275
 30
0.0
 10
136.2805
 20
33.9743
 30
0.0
 10
136.2805
 20
33.9743
 30
0.0
 10
128.9285
 20
32.5178
 30
0.0
 10
129.7608
 20
26.2061
 30
0.0
 10
129.7608
 20
26.2061
 30
0.0
 10
129.7608
 20
26.2061
 30
0.0
 10
132.5351
 20
28.8416
 30
0.0
 10
133.5062
 20
26.2061
 30
0.0
 10
135.0321
 20
25.9979
 30
0.0
 10
135.0321
 20
25.9979
 30
0.0
 10
136.5582
 20
25.8592
 30
0.0
 10
137.6678
 20
27.4545
 30
0.0
 10
137.6678
 20
27.4545
 30
0.0
 10
137.6678
 20
27.4545
 30
0.0
 10
139.7485
 20
19.2007
 30
0.0
 10
132.8127
 20
20.0331
 30
0.0
 10
132.8127
 20
20.0331
 30
0.0
 10
132.8127
 20
20.0331
 30
0.0
 10
135.5177
 20
16.5651
 30
0.0
 10
133.1594
 20
10.5308
 30
0.0
 10
127.0558
 20
8.2419
 30
0.0
 10
127.0558
 20
8.2419
 30
0.0
 10
129.414
 20
12.2647
 30
0.0
 10
125.9462
 20
18.3684
 30
0.0
 10
126.0848
 20
24.0559
 30
0.0
 10
126.0848
 20
24.0559
 30
0.0
 10
126.2928
 20
30.7837
 30
0.0
 10
129.2754
 20
34.5291
 30
0.0
 10
133.3676
 20
36.055
 30
0.0
 10
133.3676
 20
36.055
 30
0.0
 10
133.3676
 20
36.055
 30
0.0
 10
133.2982
 20
36.1244
 30
0.0
 10
133.2982
 20
36.1244
 30
0.0
 10
133.2982
 20
36.1244
 30
0.0
 10
133.2982
 20
36.1244
 30
0.0
 10
133.3676
 20
36.1244
 30
0.0
 10
133.3676
 20
36.1244
 30
0.0
 10
133.3676
 20
36.1244
 30
0.0
 10
129.2754
 20
37.6503
 30
0.0
 10
126.2928
 20
41.3957
 30
0.0
 10
126.0848
 20
48.1237
 30
0.0
 10
126.0848
 20
48.1237
 30
0.0
 10
125.9462
 20
53.811
 30
0.0
 10
129.414
 20
59.9147
 30
0.0
 10
127.0558
 20
63.9376
 30
0.0
 10
127.0558
 20
63.9376
 30
0.0
 10
133.1594
 20
61.6486
 30
0.0
 10
135.5177
 20
55.6145
 30
0.0
 10
132.8127
 20
52.1465
 30
0.0
 10
132.8127
 20
52.1465
 30
0.0
 10
132.8127
 20
52.1465
 30
0.0
 10
139.7485
 20
52.9788
 30
0.0
 10
137.6678
 20
44.7249
 30
0.0
 10
137.6678
 20
44.7249
 30
0.0
 10
137.6678
 20
44.7249
 30
0.0
 10
136.5582
 20
46.3202
 30
0.0
 10
135.0321
 20
46.1816
 30
0.0
 10
135.0321
 20
46.1816
 30
0.0
 10
133.5062
 20
45.9734
 30
0.0
 10
132.5351
 20
43.3378
 30
0.0
 10
129.7608
 20
45.9734
 30
0.0
 10
129.7608
 20
45.9734
 30
0.0
 10
129.7608
 20
45.9734
 30
0.0
 10
128.9285
 20
39.6618
 30
0.0
 10
136.2805
 20
38.1359
 30
0.0
 10
136.2805
 20
38.1359
 30
0.0
 10
136.3499
 20
38.552
 30
0.0
 10
136.9048
 20
41.7425
 30
0.0
 10
140.581
 20
41.5345
 30
0.0
 10
140.581
 20
41.5345
 30
0.0
 10
142.3149
 20
41.3957
 30
0.0
 10
143.4939
 20
40.4247
 30
0.0
 10
144.257
 20
39.1068
 30
0.0
 10
144.257
 20
39.1068
 30
0.0
 10
144.3956
 20
39.1762
 30
0.0
 10
144.5344
 20
39.2456
 30
0.0
 10
144.6038
 20
39.315
 30
0.0
 10
144.6038
 20
39.315
 30
0.0
 10
146.3377
 20
40.286
 30
0.0
 10
147.3088
 20
41.3957
 30
0.0
 10
147.3088
 20
41.3957
 30
0.0
 10
147.3088
 20
41.3957
 30
0.0
 10
147.3088
 20
41.3957
 30
0.0
 10
141.1358
 20
42.783
 30
0.0
 10
142.9391
 20
48.6091
 30
0.0
 10
142.9391
 20
48.6091
 30
0.0
 10
142.9391
 20
48.6091
 30
0.0
 10
145.6441
 20
45.4185
 30
0.0
 10
148.4878
 20
49.3722
 30
0.0
 10
148.4878
 20
49.3722
 30
0.0
 10
151.7478
 20
54.0884
 30
0.0
 10
154.2447
 20
53.7418
 30
0.0
 10
155.7706
 20
50.8286
 30
0.0
 10
155.7706
 20
50.8286
 30
0.0
 10
155.7706
 20
50.8286
 30
0.0
 10
156.4643
 20
52.4239
 30
0.0
 10
157.3659
 20
54.574
 30
0.0
 10
157.3659
 20
54.574
 30
0.0
 10
157.3659
 20
54.574
 30
0.0
 10
157.3659
 20
54.574
 30
0.0
 10
157.3659
 20
54.574
 30
0.0
 10
157.3659
 20
54.574
 30
0.0
 10
153.3431
 20
57.1404
 30
0.0
 10
152.372
 20
64.215
 30
0.0
 10
147.4476
 20
64.215
 30
0.0
 10
147.4476
 20
64.215
 30
0.0
 10
147.4476
 20
64.215
 30
0.0
 10
148.904
 20
64.215
 30
0.0
 10
148.904
 20
61.9955
 30
0.0
 10
148.904
 20
61.9955
 30
0.0
 10
148.904
 20
60.539
 30
0.0
 10
147.5168
 20
59.7065
 30
0.0
 10
146.6151
 20
59.7065
 30
0.0
 10
146.6151
 20
59.7065
 30
0.0
 10
144.8812
 20
59.7065
 30
0.0
 10
143.3553
 20
60.6084
 30
0.0
 10
143.3553
 20
62.8971
 30
0.0
 10
143.3553
 20
62.8971
 30
0.0
 10
143.3553
 20
65.4635
 30
0.0
 10
146.1991
 20
66.5039
 30
0.0
 10
148.8346
 20
66.5039
 30
0.0
 10
148.8346
 20
66.5039
 30
0.0
 10
153.2043
 20
66.5039
 30
0.0
 10
156.1175
 20
61.3712
 30
0.0
 10
159.7241
 20
60.1228
 30
0.0
 10
159.7241
 20
60.1228
 30
0.0
 10
160.9725
 20
62.6891
 30
0.0
 10
162.221
 20
65.0472
 30
0.0
 10
162.9146
 20
65.8103
 30
0.0
 10
162.9146
 20
65.8103
 30
0.0
 10
162.9146
 20
65.8103
 30
0.0
 10
157.2965
 20
64.978
 30
0.0
 10
153.5511
 20
68.3766
 30
0.0
 10
153.5511
 20
68.3766
 30
0.0
 10
152.7189
 20
69.0701
 30
0.0
 10
151.609
 20
69.6251
 30
0.0
 10
150.4299
 20
69.9025
 30
0.0
 10
150.4299
 20
69.9025
 30
0.0
 10
150.4299
 20
69.9025
 30
0.0
 10
150.3605
 20
69.9025
 30
0.0
 10
150.3605
 20
69.9719
 30
0.0
 10
150.3605
 20
69.9719
 30
0.0
 10
150.0137
 20
68.862
 30
0.0
 10
149.3895
 20
67.7524
 30
0.0
 10
148.0718
 20
67.6136
 30
0.0
 10
148.0718
 20
67.6136
 30
0.0
 10
145.2974
 20
67.475
 30
0.0
 10
145.0198
 20
69.6943
 30
0.0
 10
145.0198
 20
69.6943
 30
0.0
 10
145.0198
 20
69.6943
 30
0.0
 10
145.0198
 20
69.6943
 30
0.0
 10
146.8925
 20
68.3072
 30
0.0
 10
147.3088
 20
70.1799
 30
0.0
 10
147.3088
 20
70.1799
 30
0.0
 10
147.1701
 20
70.1799
 30
0.0
 10
147.1007
 20
70.1799
 30
0.0
 10
147.1007
 20
70.1799
 30
0.0
 10
147.1007
 20
70.1799
 30
0.0
 10
143.5633
 20
69.8331
 30
0.0
 10
140.1648
 20
67.7524
 30
0.0
 10
140.1648
 20
63.6602
 30
0.0
 10
140.1648
 20
63.6602
 30
0.0
 10
140.1648
 20
56.7936
 30
0.0
 10
146.4071
 20
56.1693
 30
0.0
 10
148.696
 20
56.2387
 30
0.0
 10
148.696
 20
56.2387
 30
0.0
 10
148.696
 20
56.2387
 30
0.0
 10
146.5459
 20
52.4239
 30
0.0
 10
141.1358
 20
52.9094
 30
0.0
 10
141.1358
 20
52.9094
 30
0.0
 10
135.1709
 20
53.3256
 30
0.0
 10
131.8417
 20
61.7875
 30
0.0
 10
134.6855
 20
65.186
 30
0.0
 10
134.6855
 20
65.186
 30
0.0
 10
134.6855
 20
65.186
 30
0.0
 10
130.6624
 20
64.1456
 30
0.0
 10
128.5817
 20
66.3651
 30
0.0
 10
128.5817
 20
66.3651
 30
0.0
 10
127.2638
 20
67.7524
 30
0.0
 10
125.1137
 20
69.4169
 30
0.0
 10
123.4492
 20
70.5267
 30
0.0
  0
SPLINE
  5
DD
330
1F
100
AcDbEntity
  8
layer 1
 62
     7
370
     9
100
AcDbSpline
210
0.0
220
0.0
230
1.0
 70
    11
 71
     3
 72
   172
 73
   168
 74
     0
 42
0.0000000001
 43
0.0000000001
 12
1.0
 22
0.0
 32
0.0
 13
1.0
 23
0.0
 33
0.0
 40
0.0
 40
0.0
 40
0.0
 40
0.0
 40
0.0232558139534884
 40
0.0232558139534884
 40
0.0232558139534884
 40
0.0232558139534884
 40
0.0465116279069767
 40
0.0465116279069767
 40
0.0465116279069767
 40
0.0465116279069767
 40
0.0697674418604651
 40
0.0697674418604651
 40
0.0697674418604651
 40
0.0697674418604651
 40
0.0930232558139535
 40
0.0930232558139535
 40
0.0930232558139535
 40
0.0930232558139535
 40
0.1162790697674419
 40
0.1162790697674419
 40
0.1162790697674419
 40
0.1162790697674419
 40
0.1395348837209302
 40
0.1395348837209302
 40
0.1395348837209302
 40
0.1395348837209302
 40
0.1627906976744186
 40
0.1627906976744186
 40
0.1627906976744186
 40
0.1627906976744186
 40
0.186046511627907
 40
0.186046511627907
 40
0.186046511627907
 40
0.186046511627907
 40
0.2093023255813954
 40
0.2093023255813954
 40
0.2093023255813954
 40
0.2093023255813954
 40
0.2325581395348837
 40
0.2325581395348837
 40
0.2325581395348837
 40
0.2325581395348837
 40
0.2558139534883721
 40
0.2558139534883721
 40
0.2558139534883721
 40
0.2558139534883721
 40
0.2790697674418605
 40
0.2790697674418605
 40
0.2790697674418605
 40
0.2790697674418605
 40
0.3023255813953488
 40
0.3023255813953488
 40
0.3023255813953488
 40
0.3023255813953488
 40
0.3255813953488372
 40
0.3255813953488372
 40
0.3255813953488372
 40
0.3255813953488372
 40
0.3488372093023256
 40
0.3488372093023256
 40
0.3488372093023256
 40
0.3488372093023256
 40
0.3720930232558139
 40
0.3720930232558139
 40
0.3720930232558139
 40
0.3720930232558139
 40
0.3953488372093023
 40
0.3953488372093023
 40
0.3953488372093023
 40
0.3953488372093023
 40
0.4186046511627907
 40
0.4186046511627907
 40
0.4186046511627907
 40
0.4186046511627907
 40
0.4418604651162791
 40
0.4418604651162791
 40
0.4418604651162791
 40
0.4418604651162791
 40
0.4651162790697674
 40
0.4651162790697674
 40
0.4651162790697674
 40
0.4651162790697674
 40
0.4883720930232558
 40
0.4883720930232558
 40
0.4883720930232558
 40
0.4883720930232558
 40
0.5116279069767442
 40
0.5116279069767442
 40
0.5116279069767442
 40
0.5116279069767442
 40
0.5348837209302325
 40
0.5348837209302325
 40
0.5348837209302325
 40
0.5348837209302325
 40
0.5581395348837209
 40
0.5581395348837209
 40
0.5581395348837209
 40
0.5581395348837209
 40
0.5813953488372093
 40
0.5813953488372093
 40
0.5813953488372093
 40
0.5813953488372093
 40
0.6046511627906976
 40
0.6046511627906976
 40
0.6046511627906976
 40
0.6046511627906976
 40
0.627906976744186
 40
0.627906976744186
 40
0.627906976744186
 40
0.627906976744186
 40
0.6511627906976745
 40
0.6511627906976745
 40
0.6511627906976745
 40
0.6511627906976745
 40
0.6744186046511628
 40
0.6744186046511628
 40
0.6744186046511628
 40
0.6744186046511628
 40
0.6976744186046512
 40
0.6976744186046512
 40
0.6976744186046512
 40
0.6976744186046512
 40
0.7209302325581395
 40
0.7209302325581395
 40
0.7209302325581395
 40
0.7209302325581395
 40
0.7441860465116279
 40
0.7441860465116279
 40
0.7441860465116279
 40
0.7441860465116279
 40
0.7674418604651163
 40
0.7674418604651163
 40
0.7674418604651163
 40
0.7674418604651163
 40
0.7906976744186046
 40
0.7906976744186046
 40
0.7906976744186046
 40
0.7906976744186046
 40
0.813953488372093
 40
0.813953488372093
 40
0.813953488372093
 40
0.813953488372093
 40
0.8372093023255814
 40
0.8372093023255814
 40
0.8372093023255814
 40
0.8372093023255814
 40
0.8604651162790697
 40
0.8604651162790697
 40
0.8604651162790697
 40
0.8604651162790697
 40
0.8837209302325582
 40
0.8837209302325582
 40
0.8837209302325582
 40
0.8837209302325582
 40
0.9069767441860465
 40
0.9069767441860465
 40
0.9069767441860465
 40
0.9069767441860465
 40
0.9302325581395349
 40
0.9302325581395349
 40
0.9302325581395349
 40
0.9302325581395349
 40
0.9534883720930233
 40
0.9534883720930233
 40
0.9534883720930233
 40
0.9534883720930233
 40
1.0
 40
1.0
 40
1.0
 40
1.0
 10
123.4492
 20
122.9625
 30
0.0
 10
123.4492
 20
122.9625
 30
0.0
 10
123.4492
 20
72.6769
 30
0.0
 10
123.4492
 20
72.6769
 30
0.0
 10
123.4492
 20
72.6769
 30
0.0
 10
125.1137
 20
73.7865
 30
0.0
 10
127.2638
 20
75.4512
 30
0.0
 10
128.5817
 20
76.9077
 30
0.0
 10
128.5817
 20
76.9077
 30
0.0
 10
130.6624
 20
79.1272
 30
0.0
 10
134.6855
 20
78.0176
 30
0.0
 10
134.6855
 20
78.0176
 30
0.0
 10
134.6855
 20
78.0176
 30
0.0
 10
131.8417
 20
81.4855
 30
0.0
 10
135.1709
 20
89.9474
 30
0.0
 10
141.1358
 20
90.3634
 30
0.0
 10
141.1358
 20
90.3634
 30
0.0
 10
146.5459
 20
90.7797
 30
0.0
 10
148.696
 20
86.9649
 30
0.0
 10
148.696
 20
86.9649
 30
0.0
 10
148.696
 20
86.9649
 30
0.0
 10
146.4071
 20
87.1037
 30
0.0
 10
140.1648
 20
86.4794
 30
0.0
 10
140.1648
 20
79.6128
 30
0.0
 10
140.1648
 20
79.6128
 30
0.0
 10
140.1648
 20
75.5206
 30
0.0
 10
143.5633
 20
73.3705
 30
0.0
 10
147.1007
 20
73.0931
 30
0.0
 10
147.1007
 20
73.0931
 30
0.0
 10
147.1007
 20
73.0931
 30
0.0
 10
147.1701
 20
73.0931
 30
0.0
 10
147.3088
 20
73.0237
 30
0.0
 10
147.3088
 20
73.0237
 30
0.0
 10
146.8925
 20
74.9658
 30
0.0
 10
145.0198
 20
73.5785
 30
0.0
 10
145.0198
 20
73.5785
 30
0.0
 10
145.0198
 20
73.5785
 30
0.0
 10
145.0198
 20
73.5785
 30
0.0
 10
145.2974
 20
75.8674
 30
0.0
 10
148.0718
 20
75.59
 30
0.0
 10
148.0718
 20
75.59
 30
0.0
 10
149.3895
 20
75.5206
 30
0.0
 10
150.0137
 20
74.3416
 30
0.0
 10
150.3605
 20
73.3011
 30
0.0
 10
150.3605
 20
73.3011
 30
0.0
 10
150.3605
 20
73.3011
 30
0.0
 10
150.4299
 20
73.3011
 30
0.0
 10
150.4299
 20
73.3011
 30
0.0
 10
150.4299
 20
73.3011
 30
0.0
 10
151.609
 20
73.6479
 30
0.0
 10
152.7189
 20
74.1333
 30
0.0
 10
153.5511
 20
74.8964
 30
0.0
 10
153.5511
 20
74.8964
 30
0.0
 10
157.2965
 20
78.295
 30
0.0
 10
162.9146
 20
77.4627
 30
0.0
 10
162.9146
 20
77.4627
 30
0.0
 10
162.9146
 20
77.4627
 30
0.0
 10
162.221
 20
78.1562
 30
0.0
 10
160.9725
 20
80.5145
 30
0.0
 10
159.7241
 20
83.15
 30
0.0
 10
159.7241
 20
83.15
 30
0.0
 10
156.1175
 20
81.8324
 30
0.0
 10
153.2043
 20
76.7691
 30
0.0
 10
148.8346
 20
76.7691
 30
0.0
 10
148.8346
 20
76.7691
 30
0.0
 10
146.1991
 20
76.7691
 30
0.0
 10
143.3553
 20
77.8093
 30
0.0
 10
143.3553
 20
80.3757
 30
0.0
 10
143.3553
 20
80.3757
 30
0.0
 10
143.3553
 20
82.5952
 30
0.0
 10
144.8812
 20
83.4969
 30
0.0
 10
146.6151
 20
83.4969
 30
0.0
 10
146.6151
 20
83.4969
 30
0.0
 10
147.5168
 20
83.4969
 30
0.0
 10
148.904
 20
82.734
 30
0.0
 10
148.904
 20
81.2081
 30
0.0
 10
148.904
 20
81.2081
 30
0.0
 10
148.904
 20
79.0578
 30
0.0
 10
147.4476
 20
79.0578
 30
0.0
 10
147.4476
 20
79.0578
 30
0.0
 10
147.4476
 20
79.0578
 30
0.0
 10
152.372
 20
79.0578
 30
0.0
 10
153.3431
 20
86.1326
 30
0.0
 10
157.3659
 20
88.6295
 30
0.0
 10
157.3659
 20
88.6295
 30
0.0
 10
157.3659
 20
88.6295
 30
0.0
 10
157.3659
 20
88.6295
 30
0.0
 10
157.3659
 20
88.6295
 30
0.0
 10
157.3659
 20
88.6295
 30
0.0
 10
156.4643
 20
90.7797
 30
0.0
 10
155.7706
 20
92.4444
 30
0.0
 10
155.7706
 20
92.4444
 30
0.0
 10
155.7706
 20
92.4444
 30
0.0
 10
154.2447
 20
89.4618
 30
0.0
 10
151.7478
 20
89.1844
 30
0.0
 10
148.4878
 20
93.9008
 30
0.0
 10
148.4878
 20
93.9008
 30
0.0
 10
145.6441
 20
97.8543
 30
0.0
 10
142.9391
 20
94.5945
 30
0.0
 10
142.9391
 20
94.5945
 30
0.0
 10
142.9391
 20
94.5945
 30
0.0
 10
141.1358
 20
100.49
 30
0.0
 10
147.3088
 20
101.8771
 30
0.0
 10
147.3088
 20
101.8771
 30
0.0
 10
147.3088
 20
101.8771
 30
0.0
 10
147.3088
 20
101.8771
 30
0.0
 10
146.3377
 20
102.987
 30
0.0
 10
144.6038
 20
103.958
 30
0.0
 10
144.6038
 20
103.958
 30
0.0
 10
144.5344
 20
104.0272
 30
0.0
 10
144.3956
 20
104.0272
 30
0.0
 10
144.257
 20
104.0966
 30
0.0
 10
144.257
 20
104.0966
 30
0.0
 10
143.4939
 20
102.8481
 30
0.0
 10
142.3149
 20
101.8079
 30
0.0
 10
140.581
 20
101.7385
 30
0.0
 10
140.581
 20
101.7385
 30
0.0
 10
136.9048
 20
101.5303
 30
0.0
 10
136.3499
 20
104.7208
 30
0.0
 10
136.2805
 20
105.0677
 30
0.0
 10
136.2805
 20
105.0677
 30
0.0
 10
128.9285
 20
103.5418
 30
0.0
 10
129.7608
 20
97.2994
 30
0.0
 10
129.7608
 20
97.2994
 30
0.0
 10
129.7608
 20
97.2994
 30
0.0
 10
132.5351
 20
99.9352
 30
0.0
 10
133.5062
 20
97.2994
 30
0.0
 10
135.0321
 20
97.0914
 30
0.0
 10
135.0321
 20
97.0914
 30
0.0
 10
136.5582
 20
96.8832
 30
0.0
 10
137.6678
 20
98.5479
 30
0.0
 10
137.6678
 20
98.5479
 30
0.0
 10
137.6678
 20
98.5479
 30
0.0
 10
139.7485
 20
90.2248
 30
0.0
 10
132.8127
 20
91.1265
 30
0.0
 10
132.8127
 20
91.1265
 30
0.0
 10
132.8127
 20
91.1265
 30
0.0
 10
135.5177
 20
87.5891
 30
0.0
 10
133.1594
 20
81.5548
 30
0.0
 10
127.0558
 20
79.266
 30
0.0
 10
127.0558
 20
79.266
 30
0.0
 10
129.414
 20
83.3583
 30
0.0
 10
125.9462
 20
89.4618
 30
0.0
 10
126.0848
 20
95.1493
 30
0.0
 10
126.0848
 20
95.1493
 30
0.0
 10
126.2928
 20
101.8079
 30
0.0
 10
129.2754
 20
105.5533
 30
0.0
 10
133.3676
 20
107.1484
 30
0.0
 10
133.3676
 20
107.1484
 30
0.0
 10
133.3676
 20
107.1484
 30
0.0
 10
133.2982
 20
107.1484
 30
0.0
 10
133.2982
 20
107.1484
 30
0.0
 10
133.2982
 20
107.1484
 30
0.0
 10
133.2982
 20
107.1484
 30
0.0
 10
133.3676
 20
107.1484
 30
0.0
 10
133.3676
 20
107.1484
 30
0.0
 10
133.3676
 20
107.1484
 30
0.0
 10
129.2754
 20
108.7437
 30
0.0
 10
126.2928
 20
112.4891
 30
0.0
 10
126.0848
 20
119.2171
 30
0.0
 10
126.0848
 20
119.2171
 30
0.0
 10
126.0848
 20
120.4655
 30
0.0
 10
126.2236
 20
121.714
 30
0.0
 10
126.4316
 20
122.9625
 30
0.0
 10
126.4316
 20
122.9625
 30
0.0
 10
126.4316
 20
122.9625
 30
0.0
 10
123.4492
 20
122.9625
 30
0.0
 10
123.4492
 20
122.9625
 30
0.0
  0
SPLINE
  5
DE
330
1F
100
AcDbEntity
  8
layer 1
 62
     7
370
     9
100
AcDbSpline
210
0.0
220
0.0
230
1.0
 70
    11
 71
     3
 72
    52
 73
    48
 74
     0
 42
0.0000000001
 43
0.0000000001
 12
1.0
 22
0.0
 32
0.0
 13
1.0
 23
0.0
 33
0.0
 40
0.0
 40
0.0
 40
0.0
 40
0.0
 40
0.0769230769230769
 40
0.0769230769230769
 40
0.0769230769230769
 40
0.0769230769230769
 40
0.1538461538461539
 40
0.1538461538461539
 40
0.1538461538461539
 40
0.1538461538461539
 40
0.2307692307692308
 40
0.2307692307692308
 40
0.2307692307692308
 40
0.2307692307692308
 40
0.3076923076923077
 40
0.3076923076923077
 40
0.3076923076923077
 40
0.3076923076923077
 40
0.3846153846153846
 40
0.3846153846153846
 40
0.3846153846153846
 40
0.3846153846153846
 40
0.4615384615384616
 40
0.4615384615384616
 40
0.4615384615384616
 40
0.4615384615384616
 40
0.5384615384615384
 40
0.5384615384615384
 40
0.5384615384615384
 40
0.5384615384615384
 40
0.6153846153846154
 40
0.6153846153846154
 40
0.6153846153846154
 40
0.6153846153846154
 40
0.6923076923076923
 40
0.6923076923076923
 40
0.6923076923076923
 40
0.6923076923076923
 40
0.7692307692307693
 40
0.7692307692307693
 40
0.7692307692307693
 40
0.7692307692307693
 40
0.8461538461538461
 40
0.8461538461538461
 40
0.8461538461538461
 40
0.8461538461538461
 40
1.0
 40
1.0
 40
1.0
 40
1.0
 10
135.1015
 20
122.9625
 30
0.0
 10
136.9048
 20
122.4076
 30
0.0
 10
138.9163
 20
120.7429
 30
0.0
 10
137.6678
 20
115.7491
 30
0.0
 10
137.6678
 20
115.7491
 30
0.0
 10
137.6678
 20
115.7491
 30
0.0
 10
136.5582
 20
117.4138
 30
0.0
 10
135.0321
 20
117.2055
 30
0.0
 10
135.0321
 20
117.2055
 30
0.0
 10
133.5062
 20
117.0669
 30
0.0
 10
132.5351
 20
114.3618
 30
0.0
 10
129.7608
 20
117.0669
 30
0.0
 10
129.7608
 20
117.0669
 30
0.0
 10
129.7608
 20
117.0669
 30
0.0
 10
128.9285
 20
110.7552
 30
0.0
 10
136.2805
 20
109.2293
 30
0.0
 10
136.2805
 20
109.2293
 30
0.0
 10
136.3499
 20
109.5761
 30
0.0
 10
136.9048
 20
112.7665
 30
0.0
 10
140.581
 20
112.6279
 30
0.0
 10
140.581
 20
112.6279
 30
0.0
 10
142.3149
 20
112.4891
 30
0.0
 10
143.4939
 20
111.4488
 30
0.0
 10
144.257
 20
110.2004
 30
0.0
 10
144.257
 20
110.2004
 30
0.0
 10
144.3956
 20
110.2696
 30
0.0
 10
144.5344
 20
110.339
 30
0.0
 10
144.6038
 20
110.4084
 30
0.0
 10
144.6038
 20
110.4084
 30
0.0
 10
146.3377
 20
111.31
 30
0.0
 10
147.3088
 20
112.4199
 30
0.0
 10
147.3088
 20
112.4199
 30
0.0
 10
147.3088
 20
112.4199
 30
0.0
 10
147.3088
 20
112.4199
 30
0.0
 10
141.1358
 20
113.807
 30
0.0
 10
142.9391
 20
119.7025
 30
0.0
 10
142.9391
 20
119.7025
 30
0.0
 10
142.9391
 20
119.7025
 30
0.0
 10
145.6441
 20
116.5119
 30
0.0
 10
148.4878
 20
120.4655
 30
0.0
 10
148.4878
 20
120.4655
 30
0.0
 10
149.2509
 20
121.5752
 30
0.0
 10
149.9445
 20
122.3382
 30
0.0
 10
150.6379
 20
122.9625
 30
0.0
 10
150.6379
 20
122.9625
 30
0.0
 10
150.6379
 20
122.9625
 30
0.0
 10
135.1015
 20
122.9625
 30
0.0
 10
135.1015
 20
122.9625
 30
0.0
  0
SPLINE
  5
DF
330
1F
100
AcDbEntity
  8
layer 1
 62
     7
370
     9
100
AcDbSpline
210
0.0
220
0.0
230
1.0
 70
    11
 71
     3
 72
    16
 73
    12
 74
     0
 42
0.0000000001
 43
0.0000000001
 12
1.0
 22
0.0
 32
0.0
 13
1.0
 23
0.0
 33
0.0
 40
0.0
 40
0.0
 40
0.0
 40
0.0
 40
0.25
 40
0.25
 40
0.25
 40
0.25
 40
0.5
 40
0.5
 40
0.5
 40
0.5
 40
1.0
 40
1.0
 40
1.0
 40
1.0
 10
155.077
 20
122.9625
 30
0.0
 10
155.3544
 20
122.6851
 30
0.0
 10
155.5626
 20
122.3382
 30
0.0
 10
155.7706
 20
121.922
 30
0.0
 10
155.7706
 20
121.922
 30
0.0
 10
155.7706
 20
121.922
 30
0.0
 10
155.9786
 20
122.2688
 30
0.0
 10
156.1869
 20
122.9625
 30
0.0
 10
156.1869
 20
122.9625
 30
0.0
 10
156.1869
 20
122.9625
 30
0.0
 10
155.077
 20
122.9625
 30
0.0
 10
155.077
 20
122.9625
 30
0.0
  0
SPLINE
  5
E0
330
1F
100
AcDbEntity
  8
layer 1
 62
     7
370
     9
100
AcDbSpline
210
0.0
220
0.0
230
1.0
 70
    11
 71
     3
 72
   156
 73
   152
 74
     0
 42
0.0000000001
 43
0.0000000001
 12
1.0
 22
0.0
 32
0.0
 13
1.0
 23
0.0
 33
0.0
 40
0.0
 40
0.0
 40
0.0
 40
0.0
 40
0.0256410256410256
 40
0.0256410256410256
 40
0.0256410256410256
 40
0.0256410256410256
 40
0.0512820512820513
 40
0.0512820512820513
 40
0.0512820512820513
 40
0.0512820512820513
 40
0.0769230769230769
 40
0.0769230769230769
 40
0.0769230769230769
 40
0.0769230769230769
 40
0.1025641025641026
 40
0.1025641025641026
 40
0.1025641025641026
 40
0.1025641025641026
 40
0.1282051282051282
 40
0.1282051282051282
 40
0.1282051282051282
 40
0.1282051282051282
 40
0.1538461538461539
 40
0.1538461538461539
 40
0.1538461538461539
 40
0.1538461538461539
 40
0.1794871794871795
 40
0.1794871794871795
 40
0.1794871794871795
 40
0.1794871794871795
 40
0.2051282051282051
 40
0.2051282051282051
 40
0.2051282051282051
 40
0.2051282051282051
 40
0.2307692307692308
 40
0.2307692307692308
 40
0.2307692307692308
 40
0.2307692307692308
 40
0.2564102564102564
 40
0.2564102564102564
 40
0.2564102564102564
 40
0.2564102564102564
 40
0.282051282051282
 40
0.282051282051282
 40
0.282051282051282
 40
0.282051282051282
 40
0.3076923076923077
 40
0.3076923076923077
 40
0.3076923076923077
 40
0.3076923076923077
 40
0.3333333333333333
 40
0.3333333333333333
 40
0.3333333333333333
 40
0.3333333333333333
 40
0.358974358974359
 40
0.358974358974359
 40
0.358974358974359
 40
0.358974358974359
 40
0.3846153846153846
 40
0.3846153846153846
 40
0.3846153846153846
 40
0.3846153846153846
 40
0.4102564102564102
 40
0.4102564102564102
 40
0.4102564102564102
 40
0.4102564102564102
 40
0.4358974358974359
 40
0.4358974358974359
 40
0.4358974358974359
 40
0.4358974358974359
 40
0.4615384615384616
 40
0.4615384615384616
 40
0.4615384615384616
 40
0.4615384615384616
 40
0.4871794871794872
 40
0.4871794871794872
 40
0.4871794871794872
 40
0.4871794871794872
 40
0.5128205128205128
 40
0.5128205128205128
 40
0.5128205128205128
 40
0.5128205128205128
 40
0.5384615384615384
 40
0.5384615384615384
 40
0.5384615384615384
 40
0.5384615384615384
 40
0.5641025641025641
 40
0.5641025641025641
 40
0.5641025641025641
 40
0.5641025641025641
 40
0.5897435897435898
 40
0.5897435897435898
 40
0.5897435897435898
 40
0.5897435897435898
 40
0.6153846153846154
 40
0.6153846153846154
 40
0.6153846153846154
 40
0.6153846153846154
 40
0.6410256410256411
 40
0.6410256410256411
 40
0.6410256410256411
 40
0.6410256410256411
 40
0.6666666666666666
 40
0.6666666666666666
 40
0.6666666666666666
 40
0.6666666666666666
 40
0.6923076923076923
 40
0.6923076923076923
 40
0.6923076923076923
 40
0.6923076923076923
 40
0.717948717948718
 40
0.717948717948718
 40
0.717948717948718
 40
0.717948717948718
 40
0.7435897435897436
 40
0.7435897435897436
 40
0.7435897435897436
 40
0.7435897435897436
 40
0.7692307692307693
 40
0.7692307692307693
 40
0.7692307692307693
 40
0.7692307692307693
 40
0.7948717948717948
 40
0.7948717948717948
 40
0.7948717948717948
 40
0.7948717948717948
 40
0.8205128205128205
 40
0.8205128205128205
 40
0.8205128205128205
 40
0.8205128205128205
 40
0.8461538461538461
 40
0.8461538461538461
 40
0.8461538461538461
 40
0.8461538461538461
 40
0.8717948717948718
 40
0.8717948717948718
 40
0.8717948717948718
 40
0.8717948717948718
 40
0.8974358974358975
 40
0.8974358974358975
 40
0.8974358974358975
 40
0.8974358974358975
 40
0.9230769230769231
 40
0.9230769230769231
 40
0.9230769230769231
 40
0.9230769230769231
 40
0.9487179487179487
 40
0.9487179487179487
 40
0.9487179487179487
 40
0.9487179487179487
 40
1.0
 40
1.0
 40
1.0
 40
1.0
 10
133.3676
 20
-105.9931
 30
0.0
 10
133.3676
 20
-105.9931
 30
0.0
 10
123.4492
 20
-105.9931
 30
0.0
 10
123.4492
 20
-105.9931
 30
0.0
 10
123.4492
 20
-105.9931
 30
0.0
 10
123.4492
 20
-105.9931
 30
0.0
 10
123.4492
 20
-71.5908
 30
0.0
 10
123.4492
 20
-71.5908
 30
0.0
 10
123.4492
 20
-71.5908
 30
0.0
 10
125.1137
 20
-72.7005
 30
0.0
 10
127.2638
 20
-74.3652
 30
0.0
 10
128.5817
 20
-75.7524
 30
0.0
 10
128.5817
 20
-75.7524
 30
0.0
 10
130.6624
 20
-77.9718
 30
0.0
 10
134.6855
 20
-76.9315
 30
0.0
 10
134.6855
 20
-76.9315
 30
0.0
 10
134.6855
 20
-76.9315
 30
0.0
 10
131.8417
 20
-80.3995
 30
0.0
 10
135.1709
 20
-88.792
 30
0.0
 10
141.1358
 20
-89.208
 30
0.0
 10
141.1358
 20
-89.208
 30
0.0
 10
146.5459
 20
-89.6936
 30
0.0
 10
148.696
 20
-85.8788
 30
0.0
 10
148.696
 20
-85.8788
 30
0.0
 10
148.696
 20
-85.8788
 30
0.0
 10
146.4071
 20
-85.9482
 30
0.0
 10
140.1648
 20
-85.324
 30
0.0
 10
140.1648
 20
-78.5268
 30
0.0
 10
140.1648
 20
-78.5268
 30
0.0
 10
140.1648
 20
-74.3652
 30
0.0
 10
143.5633
 20
-72.2844
 30
0.0
 10
147.1007
 20
-71.9376
 30
0.0
 10
147.1007
 20
-71.9376
 30
0.0
 10
147.1007
 20
-71.9376
 30
0.0
 10
147.1701
 20
-71.9376
 30
0.0
 10
147.3088
 20
-71.9376
 30
0.0
 10
147.3088
 20
-71.9376
 30
0.0
 10
146.8925
 20
-73.8797
 30
0.0
 10
145.0198
 20
-72.423
 30
0.0
 10
145.0198
 20
-72.423
 30
0.0
 10
145.0198
 20
-72.423
 30
0.0
 10
145.0198
 20
-72.423
 30
0.0
 10
145.2974
 20
-74.712
 30
0.0
 10
148.0718
 20
-74.504
 30
0.0
 10
148.0718
 20
-74.504
 30
0.0
 10
149.3895
 20
-74.3652
 30
0.0
 10
150.0137
 20
-73.2555
 30
0.0
 10
150.3605
 20
-72.1456
 30
0.0
 10
150.3605
 20
-72.1456
 30
0.0
 10
150.3605
 20
-72.215
 30
0.0
 10
150.4299
 20
-72.215
 30
0.0
 10
150.4299
 20
-72.215
 30
0.0
 10
150.4299
 20
-72.215
 30
0.0
 10
151.609
 20
-72.4924
 30
0.0
 10
152.7189
 20
-73.0473
 30
0.0
 10
153.5511
 20
-73.8103
 30
0.0
 10
153.5511
 20
-73.8103
 30
0.0
 10
157.2965
 20
-77.1395
 30
0.0
 10
162.9146
 20
-76.3767
 30
0.0
 10
162.9146
 20
-76.3767
 30
0.0
 10
162.9146
 20
-76.3767
 30
0.0
 10
162.221
 20
-77.0701
 30
0.0
 10
160.9725
 20
-79.4284
 30
0.0
 10
159.7241
 20
-81.9948
 30
0.0
 10
159.7241
 20
-81.9948
 30
0.0
 10
156.1175
 20
-80.7463
 30
0.0
 10
153.2043
 20
-75.6136
 30
0.0
 10
148.8346
 20
-75.6136
 30
0.0
 10
148.8346
 20
-75.6136
 30
0.0
 10
146.1991
 20
-75.6136
 30
0.0
 10
143.3553
 20
-76.6541
 30
0.0
 10
143.3553
 20
-79.2202
 30
0.0
 10
143.3553
 20
-79.2202
 30
0.0
 10
143.3553
 20
-81.5092
 30
0.0
 10
144.8812
 20
-82.4108
 30
0.0
 10
146.6151
 20
-82.4108
 30
0.0
 10
146.6151
 20
-82.4108
 30
0.0
 10
147.5168
 20
-82.4108
 30
0.0
 10
148.904
 20
-81.648
 30
0.0
 10
148.904
 20
-80.1221
 30
0.0
 10
148.904
 20
-80.1221
 30
0.0
 10
148.904
 20
-77.9025
 30
0.0
 10
147.4476
 20
-77.9025
 30
0.0
 10
147.4476
 20
-77.9025
 30
0.0
 10
147.4476
 20
-77.9025
 30
0.0
 10
152.372
 20
-77.9025
 30
0.0
 10
153.3431
 20
-84.9771
 30
0.0
 10
157.3659
 20
-87.5435
 30
0.0
 10
157.3659
 20
-87.5435
 30
0.0
 10
157.3659
 20
-87.5435
 30
0.0
 10
157.3659
 20
-87.5435
 30
0.0
 10
157.3659
 20
-87.5435
 30
0.0
 10
157.3659
 20
-87.5435
 30
0.0
 10
156.4643
 20
-89.6936
 30
0.0
 10
155.7706
 20
-91.2889
 30
0.0
 10
155.7706
 20
-91.2889
 30
0.0
 10
155.7706
 20
-91.2889
 30
0.0
 10
154.2447
 20
-88.3757
 30
0.0
 10
151.7478
 20
-88.0983
 30
0.0
 10
148.4878
 20
-92.7454
 30
0.0
 10
148.4878
 20
-92.7454
 30
0.0
 10
145.6441
 20
-96.6988
 30
0.0
 10
142.9391
 20
-93.5084
 30
0.0
 10
142.9391
 20
-93.5084
 30
0.0
 10
142.9391
 20
-93.5084
 30
0.0
 10
141.1358
 20
-99.4039
 30
0.0
 10
147.3088
 20
-100.7218
 30
0.0
 10
147.3088
 20
-100.7218
 30
0.0
 10
147.3088
 20
-100.7218
 30
0.0
 10
147.3088
 20
-100.7218
 30
0.0
 10
146.3377
 20
-101.8315
 30
0.0
 10
144.6038
 20
-102.8025
 30
0.0
 10
144.6038
 20
-102.8025
 30
0.0
 10
144.5344
 20
-102.8719
 30
0.0
 10
144.3956
 20
-102.9411
 30
0.0
 10
144.257
 20
-103.0106
 30
0.0
 10
144.257
 20
-103.0106
 30
0.0
 10
143.4939
 20
-101.7621
 30
0.0
 10
142.3149
 20
-100.7218
 30
0.0
 10
140.581
 20
-100.583
 30
0.0
 10
140.581
 20
-100.583
 30
0.0
 10
136.9048
 20
-100.4442
 30
0.0
 10
136.3499
 20
-103.5654
 30
0.0
 10
136.2805
 20
-103.9816
 30
0.0
 10
136.2805
 20
-103.9816
 30
0.0
 10
128.9285
 20
-102.5251
 30
0.0
 10
129.7608
 20
-96.144
 30
0.0
 10
129.7608
 20
-96.144
 30
0.0
 10
129.7608
 20
-96.144
 30
0.0
 10
132.5351
 20
-98.7797
 30
0.0
 10
133.5062
 20
-96.144
 30
0.0
 10
135.0321
 20
-96.0054
 30
0.0
 10
135.0321
 20
-96.0054
 30
0.0
 10
136.5582
 20
-95.7971
 30
0.0
 10
137.6678
 20
-97.4618
 30
0.0
 10
137.6678
 20
-97.4618
 30
0.0
 10
137.6678
 20
-97.4618
 30
0.0
 10
139.7485
 20
-89.1388
 30
0.0
 10
132.8127
 20
-90.0404
 30
0.0
 10
132.8127
 20
-90.0404
 30
0.0
 10
132.8127
 20
-90.0404
 30
0.0
 10
135.5177
 20
-86.503
 30
0.0
 10
133.1594
 20
-80.4687
 30
0.0
 10
127.0558
 20
-78.18
 30
0.0
 10
127.0558
 20
-78.18
 30
0.0
 10
129.414
 20
-82.2028
 30
0.0
 10
125.9462
 20
-88.3063
 30
0.0
 10
126.0848
 20
-93.9938
 30
0.0
 10
126.0848
 20
-93.9938
 30
0.0
 10
126.2928
 20
-100.7218
 30
0.0
 10
129.2754
 20
-104.4672
 30
0.0
 10
133.3676
 20
-105.9931
 30
0.0
  0
SPLINE
  5
E1
330
1F
100
AcDbEntity
  8
layer 1
 62
     7
370
     9
100
AcDbSpline
210
0.0
220
0.0
230
1.0
 70
    11
 71
     3
 72
    52
 73
    48
 74
     0
 42
0.0000000001
 43
0.0000000001
 12
1.0
 22
0.0
 32
0.0
 13
1.0
 23
0.0
 33
0.0
 40
0.0
 40
0.0
 40
0.0
 40
0.0
 40
0.0769230769230769
 40
0.0769230769230769
 40
0.0769230769230769
 40
0.0769230769230769
 40
0.1538461538461539
 40
0.1538461538461539
 40
0.1538461538461539
 40
0.1538461538461539
 40
0.2307692307692308
 40
0.2307692307692308
 40
0.2307692307692308
 40
0.2307692307692308
 40
0.3076923076923077
 40
0.3076923076923077
 40
0.3076923076923077
 40
0.3076923076923077
 40
0.3846153846153846
 40
0.3846153846153846
 40
0.3846153846153846
 40
0.3846153846153846
 40
0.4615384615384616
 40
0.4615384615384616
 40
0.4615384615384616
 40
0.4615384615384616
 40
0.5384615384615384
 40
0.5384615384615384
 40
0.5384615384615384
 40
0.5384615384615384
 40
0.6153846153846154
 40
0.6153846153846154
 40
0.6153846153846154
 40
0.6153846153846154
 40
0.6923076923076923
 40
0.6923076923076923
 40
0.6923076923076923
 40
0.6923076923076923
 40
0.7692307692307693
 40
0.7692307692307693
 40
0.7692307692307693
 40
0.7692307692307693
 40
0.8461538461538461
 40
0.8461538461538461
 40
0.8461538461538461
 40
0.8461538461538461
 40
1.0
 40
1.0
 40
1.0
 40
1.0
 10
156.048
 20
-105.9931
 30
0.0
 10
156.048
 20
-105.9931
 30
0.0
 10
143.7022
 20
-105.9931
 30
0.0
 10
143.7022
 20
-105.9931
 30
0.0
 10
143.7022
 20
-105.9931
 30
0.0
 10
149.5283
 20
-104.259
 30
0.0
 10
155.0076
 20
-99.8894
 30
0.0
 10
156.9497
 20
-94.2713
 30
0.0
 10
156.9497
 20
-94.2713
 30
0.0
 10
157.5739
 20
-92.9534
 30
0.0
 10
158.337
 20
-90.7341
 30
0.0
 10
159.2386
 20
-88.3063
 30
0.0
 10
159.2386
 20
-88.3063
 30
0.0
 10
159.2386
 20
-88.3063
 30
0.0
 10
159.2386
 20
-88.3063
 30
0.0
 10
159.2386
 20
-88.3063
 30
0.0
 10
159.2386
 20
-88.3063
 30
0.0
 10
159.2386
 20
-88.3063
 30
0.0
 10
159.2386
 20
-88.3063
 30
0.0
 10
159.2386
 20
-88.3063
 30
0.0
 10
159.2386
 20
-88.3063
 30
0.0
 10
161.0419
 20
-94.6875
 30
0.0
 10
166.9375
 20
-98.5023
 30
0.0
 10
172.9718
 20
-98.5023
 30
0.0
 10
172.9718
 20
-98.5023
 30
0.0
 10
175.9542
 20
-98.5023
 30
0.0
 10
178.1737
 20
-99.8894
 30
0.0
 10
179.977
 20
-101.5541
 30
0.0
 10
179.977
 20
-101.5541
 30
0.0
 10
179.977
 20
-101.5541
 30
0.0
 10
179.977
 20
-101.5541
 30
0.0
 10
179.977
 20
-101.5541
 30
0.0
 10
179.977
 20
-101.5541
 30
0.0
 10
176.8558
 20
-104.3284
 30
0.0
 10
172.833
 20
-103.6348
 30
0.0
 10
172.833
 20
-103.6348
 30
0.0
 10
172.833
 20
-103.6348
 30
0.0
 10
173.3186
 20
-102.4557
 30
0.0
 10
173.1798
 20
-101.2073
 30
0.0
 10
172.2782
 20
-100.583
 30
0.0
 10
172.2782
 20
-100.583
 30
0.0
 10
170.8217
 20
-99.612
 30
0.0
 10
168.2553
 20
-100.375
 30
0.0
 10
168.4633
 20
-102.8025
 30
0.0
 10
168.4633
 20
-102.8025
 30
0.0
 10
167.6311
 20
-98.0861
 30
0.0
 10
157.5045
 20
-98.7797
 30
0.0
 10
156.048
 20
-105.9931
 30
0.0
  0
SPLINE
  5
E2
330
1F
100
AcDbEntity
  8
layer 1
 62
     7
370
     9
100
AcDbSpline
210
0.0
220
0.0
230
1.0
 70
    11
 71
     3
 72
    16
 73
    12
 74
     0
 42
0.0000000001
 43
0.0000000001
 12
1.0
 22
0.0
 32
0.0
 13
1.0
 23
0.0
 33
0.0
 40
0.0
 40
0.0
 40
0.0
 40
0.0
 40
0.25
 40
0.25
 40
0.25
 40
0.25
 40
0.5
 40
0.5
 40
0.5
 40
0.5
 40
1.0
 40
1.0
 40
1.0
 40
1.0
 10
170.0586
 20
-105.9931
 30
0.0
 10
170.0586
 20
-105.9931
 30
0.0
 10
159.0306
 20
-105.9931
 30
0.0
 10
159.0306
 20
-105.9931
 30
0.0
 10
159.0306
 20
-105.9931
 30
0.0
 10
162.221
 20
-104.051
 30
0.0
 10
162.9146
 20
-100.9992
 30
0.0
 10
166.3826
 20
-104.1896
 30
0.0
 10
166.3826
 20
-104.1896
 30
0.0
 10
167.3537
 20
-105.0915
 30
0.0
 10
168.6021
 20
-105.6463
 30
0.0
 10
170.0586
 20
-105.9931
 30
0.0
  0
SPLINE
  5
E3
330
1F
100
AcDbEntity
  8
layer 1
 62
     7
370
     9
100
AcDbSpline
210
0.0
220
0.0
230
1.0
 70
    11
 71
     3
 72
    20
 73
    16
 74
     0
 42
0.0000000001
 43
0.0000000001
 12
1.0
 22
0.0
 32
0.0
 13
1.0
 23
0.0
 33
0.0
 40
0.0
 40
0.0
 40
0.0
 40
0.0
 40
0.2
 40
0.2
 40
0.2
 40
0.2
 40
0.4
 40
0.4
 40
0.4
 40
0.4
 40
0.6
 40
0.6
 40
0.6
 40
0.6
 40
1.0
 40
1.0
 40
1.0
 40
1.0
 10
185.7339
 20
-105.9931
 30
0.0
 10
185.7339
 20
-105.9931
 30
0.0
 10
176.5092
 20
-105.9931
 30
0.0
 10
176.5092
 20
-105.9931
 30
0.0
 10
176.5092
 20
-105.9931
 30
0.0
 10
178.6593
 20
-105.5769
 30
0.0
 10
180.6706
 20
-104.7446
 30
0.0
 10
182.0579
 20
-103.5654
 30
0.0
 10
182.0579
 20
-103.5654
 30
0.0
 10
182.0579
 20
-103.5654
 30
0.0
 10
182.0579
 20
-103.5654
 30
0.0
 10
182.0579
 20
-103.5654
 30
0.0
 10
182.0579
 20
-103.5654
 30
0.0
 10
183.445
 20
-104.9527
 30
0.0
 10
184.6934
 20
-105.6463
 30
0.0
 10
185.7339
 20
-105.9931
 30
0.0
  0
SPLINE
  5
E4
330
1F
100
AcDbEntity
  8
layer 1
 62
     7
370
     9
100
AcDbSpline
210
0.0
220
0.0
230
1.0
 70
    11
 71
     3
 72
    16
 73
    12
 74
     0
 42
0.0000000001
 43
0.0000000001
 12
1.0
 22
0.0
 32
0.0
 13
1.0
 23
0.0
 33
0.0
 40
0.0
 40
0.0
 40
0.0
 40
0.0
 40
0.25
 40
0.25
 40
0.25
 40
0.25
 40
0.5
 40
0.5
 40
0.5
 40
0.5
 40
1.0
 40
1.0
 40
1.0
 40
1.0
 10
190.6584
 20
-105.9931
 30
0.0
 10
190.6584
 20
-105.9931
 30
0.0
 10
188.3002
 20
-105.9931
 30
0.0
 10
188.3002
 20
-105.9931
 30
0.0
 10
188.3002
 20
-105.9931
 30
0.0
 10
189.5487
 20
-105.7157
 30
0.0
 10
190.4504
 20
-104.4672
 30
0.0
 10
190.6584
 20
-103.288
 30
0.0
 10
190.6584
 20
-103.288
 30
0.0
 10
190.6584
 20
-103.288
 30
0.0
 10
190.6584
 20
-105.9931
 30
0.0
 10
190.6584
 20
-105.9931
 30
0.0
  0
SPLINE
  5
E5
330
1F
100
AcDbEntity
  8
layer 1
 62
     7
370
     9
100
AcDbSpline
210
0.0
220
0.0
230
1.0
 70
    11
 71
     3
 72
    36
 73
    32
 74
     0
 42
0.0000000001
 43
0.0000000001
 12
1.0
 22
0.0
 32
0.0
 13
1.0
 23
0.0
 33
0.0
 40
0.0
 40
0.0
 40
0.0
 40
0.0
 40
0.1111111111111111
 40
0.1111111111111111
 40
0.1111111111111111
 40
0.1111111111111111
 40
0.2222222222222222
 40
0.2222222222222222
 40
0.2222222222222222
 40
0.2222222222222222
 40
0.3333333333333333
 40
0.3333333333333333
 40
0.3333333333333333
 40
0.3333333333333333
 40
0.4444444444444444
 40
0.4444444444444444
 40
0.4444444444444444
 40
0.4444444444444444
 40
0.5555555555555556
 40
0.5555555555555556
 40
0.5555555555555556
 40
0.5555555555555556
 40
0.6666666666666666
 40
0.6666666666666666
 40
0.6666666666666666
 40
0.6666666666666666
 40
0.7777777777777778
 40
0.7777777777777778
 40
0.7777777777777778
 40
0.7777777777777778
 40
1.0
 40
1.0
 40
1.0
 40
1.0
 10
184.1386
 20
32.171
 30
0.0
 10
184.1386
 20
32.171
 30
0.0
 10
184.1386
 20
32.171
 30
0.0
 10
184.1386
 20
32.171
 30
0.0
 10
184.1386
 20
32.171
 30
0.0
 10
185.2485
 20
33.9049
 30
0.0
 10
187.1904
 20
33.6275
 30
0.0
 10
187.1904
 20
33.6275
 30
0.0
 10
187.1904
 20
33.6275
 30
0.0
 10
187.1904
 20
33.6275
 30
0.0
 10
186.4969
 20
33.4887
 30
0.0
 10
186.4969
 20
32.1016
 30
0.0
 10
186.4969
 20
32.1016
 30
0.0
 10
186.4969
 20
30.7143
 30
0.0
 10
187.9534
 20
30.2289
 30
0.0
 10
188.7857
 20
30.2289
 30
0.0
 10
188.7857
 20
30.2289
 30
0.0
 10
189.8955
 20
30.5063
 30
0.0
 10
190.4504
 20
31.1999
 30
0.0
 10
190.6584
 20
32.1016
 30
0.0
 10
190.6584
 20
32.1016
 30
0.0
 10
190.6584
 20
32.1016
 30
0.0
 10
190.6584
 20
19.6169
 30
0.0
 10
190.6584
 20
19.6169
 30
0.0
 10
190.6584
 20
19.6169
 30
0.0
 10
190.0341
 20
24.1251
 30
0.0
 10
187.8146
 20
28.5642
 30
0.0
 10
184.1386
 20
32.171
 30
0.0
 10
184.1386
 20
32.171
 30
0.0
 10
184.1386
 20
32.171
 30
0.0
 10
184.1386
 20
32.171
 30
0.0
 10
184.1386
 20
32.171
 30
0.0
  0
ENDSEC
  0
SECTION
  2
OBJECTS
  0
DICTIONARY
  5
C
330
0
100
AcDbDictionary
281
     1
  3
ACAD_GROUP
350
D
  3
ACAD_LAYOUT
350
1A
  3
ACAD_MATERIAL
350
3B
  3
ACAD_MLEADERSTYLE
350
107
  3
ACAD_MLINESTYLE
350
17
  3
ACAD_PLOTSETTINGS
350
19
  3
ACAD_PLOTSTYLENAME
350
E
  3
ACAD_TABLESTYLE
350
106
  3
ACAD_VISUALSTYLE
350
2A
  0
DICTIONARY
  5
D
102
{ACAD_REACTORS
330
C
102
}
330
C
100
AcDbDictionary
281
     1
  0
DICTIONARY
  5
1A
102
{ACAD_REACTORS
330
C
102
}
330
C
100
AcDbDictionary
281
     1
  3
Layout1
350
1E
  3
Layout2
350
26
  3
Model
350
22
  0
DICTIONARY
  5
3B
102
{ACAD_REACTORS
330
C
102
}
330
C
100
AcDbDictionary
281
     1
  3
ByBlock
350
3D
  3
ByLayer
350
3C
  3
Global
350
3E
  0
DICTIONARY
  5
107
102
{ACAD_REACTORS
330
C
102
}
330
C
100
AcDbDictionary
281
     1
  0
DICTIONARY
  5
17
102
{ACAD_REACTORS
330
C
102
}
330
C
100
AcDbDictionary
281
     1
  3
Standard
350
18
  0
DICTIONARY
  5
19
102
{ACAD_REACTORS
330
C
102
}
330
C
100
AcDbDictionary
281
     1
  0
ACDBDICTIONARYWDFLT
  5
E
102
{ACAD_REACTORS
330
C
102
}
330
C
100
AcDbDictionary
281
     1
  3
Normal
350
F
100
AcDbDictionaryWithDefault
340
F
  0
DICTIONARY
  5
106
102
{ACAD_REACTORS
330
C
102
}
330
C
100
AcDbDictionary
281
     1
  0
DICTIONARY
  5
2A
102
{ACAD_REACTORS
330
C
102
}
330
C
100
AcDbDictionary
281
     1
  3
2dWireframe
350
2F
  3
3D Hidden
350
31
  3
3dWireframe
350
30
  3
Basic
350
32
  3
Brighten
350
36
  3
ColorChange
350
3A
  3
Conceptual
350
34
  3
Dim
350
35
  3
Facepattern
350
39
  3
Flat
350
2B
  3
FlatWithEdges
350
2C
  3
Gouraud
350
2D
  3
GouraudWithEdges
350
2E
  3
Linepattern
350
38
  3
Realistic
350
33
  3
Thicken
350
37
  0
LAYOUT
  5
1E
102
{ACAD_REACTORS
330
1A
102
}
330
1A
100
AcDbPlotSettings
  1

  2
none_device
  4

  6

 40
0.0
 41
0.0
 42
0.0
 43
0.0
 44
0.0
 45
0.0
 46
0.0
 47
0.0
 48
0.0
 49
0.0
140
0.0
141
0.0
142
1.0
143
1.0
 70
   688
 72
     0
 73
     0
 74
     5
  7

 75
    16
 76
     0
 77
     2
 78
   300
147
1.0
148
0.0
149
0.0
100
AcDbLayout
  1
Layout1
 70
     1
 71
     1
 10
0.0
 20
0.0
 11
12.0
 21
9.0
 12
0.0
 22
0.0
 32
0.0
 14
1.000000000000000E+20
 24
1.000000000000000E+20
 34
1.000000000000000E+20
 15
-1.000000000000000E+20
 25
-1.000000000000000E+20
 35
-1.000000000000000E+20
146
0.0
 13
0.0
 23
0.0
 33
0.0
 16
1.0
 26
0.0
 36
0.0
 17
0.0
 27
1.0
 37
0.0
 76
     0
330
1B
  0
LAYOUT
  5
26
102
{ACAD_REACTORS
330
1A
102
}
330
1A
100
AcDbPlotSettings
  1

  2
none_device
  4

  6

 40
0.0
 41
0.0
 42
0.0
 43
0.0
 44
0.0
 45
0.0
 46
0.0
 47
0.0
 48
0.0
 49
0.0
140
0.0
141
0.0
142
1.0
143
1.0
 70
   688
 72
     0
 73
     0
 74
     5
  7

 75
    16
 76
     0
 77
     2
 78
   300
147
1.0
148
0.0
149
0.0
100
AcDbLayout
  1
Layout2
 70
     1
 71
     2
 10
0.0
 20
0.0
 11
0.0
 21
0.0
 12
0.0
 22
0.0
 32
0.0
 14
0.0
 24
0.0
 34
0.0
 15
0.0
 25
0.0
 35
0.0
146
0.0
 13
0.0
 23
0.0
 33
0.0
 16
1.0
 26
0.0
 36
0.0
 17
0.0
 27
1.0
 37
0.0
 76
     0
330
23
  0
LAYOUT
  5
22
102
{ACAD_REACTORS
330
1A
102
}
330
1A
100
AcDbPlotSettings
  1

  2
none_device
  4

  6

 40
0.0
 41
0.0
 42
0.0
 43
0.0
 44
0.0
 45
0.0
 46
0.0
 47
0.0
 48
0.0
 49
0.0
140
0.0
141
0.0
142
1.0
143
1.0
 70
  1712
 72
     0
 73
     0
 74
     0
  7

 75
     0
 76
     0
 77
     2
 78
   300
147
1.0
148
0.0
149
0.0
100
AcDbLayout
  1
Model
 70
     1
 71
     0
 10
0.0
 20
0.0
 11
12.0
 21
9.0
 12
0.0
 22
0.0
 32
0.0
 14
-187.3813
 24
-115.0866
 34
0.0
 15
196.4186
 25
132.1059
 35
0.0
146
0.0
 13
0.0
 23
0.0
 33
0.0
 16
1.0
 26
0.0
 36
0.0
 17
0.0
 27
1.0
 37
0.0
 76
     0
330
1F
331
29
  0
MATERIAL
  5
3D
102
{ACAD_REACTORS
330
3B
102
}
330
3B
100
AcDbMaterial
  1
ByBlock
 72
     1
 94
      127
  0
MATERIAL
  5
3C
102
{ACAD_REACTORS
330
3B
102
}
330
3B
100
AcDbMaterial
  1
ByLayer
 72
     1
 94
      127
  0
MATERIAL
  5
3E
102
{ACAD_REACTORS
330
3B
102
}
330
3B
100
AcDbMaterial
  1
Global
 72
     1
 94
      127
  0
MLINESTYLE
  5
18
102
{ACAD_REACTORS
330
17
102
}
330
17
100
AcDbMlineStyle
  2
Standard
 70
     0
  3

 62
   256
 51
90.0
 52
90.0
 71
     2
 49
0.5
 62
   256
  6
BYLAYER
 49
-0.5
 62
   256
  6
BYLAYER
  0
ACDBPLACEHOLDER
  5
F
102
{ACAD_REACTORS
330
E
102
}
330
E
  0
VISUALSTYLE
  5
2F
102
{ACAD_REACTORS
330
2A
102
}
102
{ACAD_XDICTIONARY
360
EE
102
}
330
2A
100
AcDbVisualStyle
  2
2dWireframe
 70
     4
 71
     0
 72
     2
 73
     0
 90
        0
 40
-0.6
 41
-30.0
 62
     5
 63
     7
421
 16777215
 74
     1
 91
        4
 64
     7
 65
   257
 75
     1
175
     1
 42
1.0
 92
        0
 66
   257
 43
1.0
 76
     1
 77
     6
 78
     2
 67
     7
 79
     5
170
     0
171
     0
290
     0
174
     0
 93
        1
 44
0.0
173
     0
291
     0
 45
0.0
  0
VISUALSTYLE
  5
31
102
{ACAD_REACTORS
330
2A
102
}
102
{ACAD_XDICTIONARY
360
F2
102
}
330
2A
100
AcDbVisualStyle
  2
3D Hidden
 70
     6
 71
     1
 72
     2
 73
     2
 90
        0
 40
-0.6
 41
-30.0
 62
     5
 63
     7
421
 16777215
 74
     2
 91
        2
 64
     7
 65
   257
 75
     2
175
     1
 42
40.0
 92
        0
 66
   257
 43
1.0
 76
     1
 77
     6
 78
     2
 67
     7
 79
     3
170
     0
171
     0
290
     0
174
     0
 93
        1
 44
0.0
173
     0
291
     0
 45
0.0
  0
VISUALSTYLE
  5
30
102
{ACAD_REACTORS
330
2A
102
}
102
{ACAD_XDICTIONARY
360
F0
102
}
330
2A
100
AcDbVisualStyle
  2
3dWireframe
 70
     5
 71
     0
 72
     2
 73
     0
 90
        0
 40
-0.6
 41
-30.0
 62
     5
 63
     7
421
 16777215
 74
     1
 91
        4
 64
     7
 65
   257
 75
     1
175
     1
 42
1.0
 92
        0
 66
   257
 43
1.0
 76
     1
 77
     6
 78
     2
 67
     7
 79
     5
170
     0
171
     0
290
     0
174
     0
 93
        1
 44
0.0
173
     0
291
     0
 45
0.0
  0
VISUALSTYLE
  5
32
102
{ACAD_REACTORS
330
2A
102
}
102
{ACAD_XDICTIONARY
360
F4
102
}
330
2A
100
AcDbVisualStyle
  2
Basic
 70
     7
 71
     1
 72
     0
 73
     1
 90
        0
 40
-0.6
 41
-30.0
 62
     5
 63
     7
421
 16777215
 74
     0
 91
        4
 64
     7
 65
   257
 75
     1
175
     1
 42
1.0
 92
        8
 66
     7
 43
1.0
 76
     1
 77
     6
 78
     2
 67
     7
 79
     5
170
     0
171
     0
290
     0
174
     0
 93
        1
 44
0.0
173
     0
291
     1
 45
0.0
  0
VISUALSTYLE
  5
36
102
{ACAD_REACTORS
330
2A
102
}
102
{ACAD_XDICTIONARY
360
FC
102
}
330
2A
100
AcDbVisualStyle
  2
Brighten
 70
    12
 71
     2
 72
     2
 73
     0
 90
        0
 40
-0.6
 41
-30.0
 62
     5
 63
     7
421
 16777215
 74
     1
 91
        4
 64
     7
 65
   257
 75
     1
175
     1
 42
1.0
 92
        8
 66
     7
 43
1.0
 76
     1
 77
     6
 78
     2
 67
     7
 79
     5
170
     0
171
     0
290
     0
174
     0
 93
        1
 44
50.0
173
     0
291
     1
 45
0.0
  0
VISUALSTYLE
  5
3A
102
{ACAD_REACTORS
330
2A
102
}
102
{ACAD_XDICTIONARY
360
104
102
}
330
2A
100
AcDbVisualStyle
  2
ColorChange
 70
    16
 71
     2
 72
     2
 73
     3
 90
        0
 40
-0.6
 41
-30.0
 62
     5
 63
     8
421
  8421504
 74
     1
 91
        4
 64
     7
 65
   257
 75
     1
175
     1
 42
1.0
 92
        8
 66
     8
424
  8421504
 43
1.0
 76
     1
 77
     6
 78
     2
 67
     7
 79
     5
170
     0
171
     0
290
     0
174
     0
 93
        1
 44
0.0
173
     0
291
     1
 45
0.0
  0
VISUALSTYLE
  5
34
102
{ACAD_REACTORS
330
2A
102
}
102
{ACAD_XDICTIONARY
360
F8
102
}
330
2A
100
AcDbVisualStyle
  2
Conceptual
 70
     9
 71
     3
 72
     2
 73
     0
 90
        0
 40
-0.6
 41
-30.0
 62
     5
 63
     7
421
 16777215
 74
     2
 91
        2
 64
     7
 65
   257
 75
     1
175
     1
 42
40.0
 92
        8
 66
     7
 43
1.0
 76
     1
 77
     6
 78
     2
 67
     7
 79
     3
170
     0
171
     0
290
     0
174
     0
 93
        1
 44
0.0
173
     0
291
     0
 45
0.0
  0
VISUALSTYLE
  5
35
102
{ACAD_REACTORS
330
2A
102
}
102
{ACAD_XDICTIONARY
360
FA
102
}
330
2A
100
AcDbVisualStyle
  2
Dim
 70
    11
 71
     2
 72
     2
 73
     0
 90
        0
 40
-0.6
 41
-30.0
 62
     5
 63
     7
421
 16777215
 74
     1
 91
        4
 64
     7
 65
   257
 75
     1
175
     1
 42
1.0
 92
        8
 66
     7
 43
1.0
 76
     1
 77
     6
 78
     2
 67
     7
 79
     5
170
     0
171
     0
290
     0
174
     0
 93
        1
 44
-50.0
173
     0
291
     1
 45
0.0
  0
VISUALSTYLE
  5
39
102
{ACAD_REACTORS
330
2A
102
}
102
{ACAD_XDICTIONARY
360
102
102
}
330
2A
100
AcDbVisualStyle
  2
Facepattern
 70
    15
 71
     2
 72
     2
 73
     0
 90
        0
 40
-0.6
 41
-30.0
 62
     5
 63
     7
421
 16777215
 74
     1
 91
        4
 64
     7
 65
   257
 75
     1
175
     1
 42
1.0
 92
        8
 66
     7
 43
1.0
 76
     1
 77
     6
 78
     2
 67
     7
 79
     5
170
     0
171
     0
290
     0
174
     0
 93
        1
 44
0.0
173
     0
291
     1
 45
0.0
  0
VISUALSTYLE
  5
2B
102
{ACAD_REACTORS
330
2A
102
}
102
{ACAD_XDICTIONARY
360
E6
102
}
330
2A
100
AcDbVisualStyle
  2
Flat
 70
     0
 71
     2
 72
     1
 73
     1
 90
        2
 40
-0.6
 41
30.0
 62
     5
 63
     7
421
 16777215
 74
     0
 91
        4
 64
     7
 65
   257
 75
     1
175
     1
 42
1.0
 92
        8
 66
     7
 43
1.0
 76
     1
 77
     6
 78
     2
 67
     7
 79
     5
170
     0
171
     0
290
     0
174
     0
 93
       13
 44
0.0
173
     0
291
     1
 45
0.0
  0
VISUALSTYLE
  5
2C
102
{ACAD_REACTORS
330
2A
102
}
102
{ACAD_XDICTIONARY
360
E8
102
}
330
2A
100
AcDbVisualStyle
  2
FlatWithEdges
 70
     1
 71
     2
 72
     1
 73
     1
 90
        2
 40
-0.6
 41
30.0
 62
     5
 63
     7
421
 16777215
 74
     1
 91
        4
 64
     7
 65
   257
 75
     1
175
     1
 42
1.0
 92
        0
 66
   257
 43
1.0
 76
     1
 77
     6
 78
     2
 67
     7
 79
     5
170
     0
171
     0
290
     0
174
     0
 93
       13
 44
0.0
173
     0
291
     1
 45
0.0
  0
VISUALSTYLE
  5
2D
102
{ACAD_REACTORS
330
2A
102
}
102
{ACAD_XDICTIONARY
360
EA
102
}
330
2A
100
AcDbVisualStyle
  2
Gouraud
 70
     2
 71
     2
 72
     2
 73
     1
 90
        2
 40
-0.6
 41
30.0
 62
     5
 63
     7
421
 16777215
 74
     0
 91
        4
 64
     7
 65
   257
 75
     1
175
     1
 42
1.0
 92
        0
 66
     7
 43
1.0
 76
     1
 77
     6
 78
     2
 67
     7
 79
     5
170
     0
171
     0
290
     0
174
     0
 93
       13
 44
0.0
173
     0
291
     1
 45
0.0
  0
VISUALSTYLE
  5
2E
102
{ACAD_REACTORS
330
2A
102
}
102
{ACAD_XDICTIONARY
360
EC
102
}
330
2A
100
AcDbVisualStyle
  2
GouraudWithEdges
 70
     3
 71
     2
 72
     2
 73
     1
 90
        2
 40
-0.6
 41
30.0
 62
     5
 63
     7
421
 16777215
 74
     1
 91
        4
 64
     7
 65
   257
 75
     1
175
     1
 42
1.0
 92
        0
 66
   257
 43
1.0
 76
     1
 77
     6
 78
     2
 67
     7
 79
     5
170
     0
171
     0
290
     0
174
     0
 93
       13
 44
0.0
173
     0
291
     1
 45
0.0
  0
VISUALSTYLE
  5
38
102
{ACAD_REACTORS
330
2A
102
}
102
{ACAD_XDICTIONARY
360
100
102
}
330
2A
100
AcDbVisualStyle
  2
Linepattern
 70
    14
 71
     2
 72
     2
 73
     0
 90
        0
 40
-0.6
 41
-30.0
 62
     5
 63
     7
421
 16777215
 74
     1
 91
        4
 64
     7
 65
   257
 75
     7
175
     7
 42
1.0
 92
        8
 66
     7
 43
1.0
 76
     1
 77
     6
 78
     2
 67
     7
 79
     5
170
     0
171
     0
290
     0
174
     0
 93
        1
 44
0.0
173
     0
291
     1
 45
0.0
  0
VISUALSTYLE
  5
33
102
{ACAD_REACTORS
330
2A
102
}
102
{ACAD_XDICTIONARY
360
F6
102
}
330
2A
100
AcDbVisualStyle
  2
Realistic
 70
     8
 71
     2
 72
     2
 73
     0
 90
        0
 40
-0.6
 41
-30.0
 62
     5
 63
     7
421
 16777215
 74
     1
 91
        0
 64
     7
 65
   257
 75
     1
175
     1
 42
1.0
 92
        8
 66
     8
424
  7895160
 43
1.0
 76
     1
 77
     6
 78
     2
 67
     7
 79
     5
170
     0
171
     0
290
     0
174
     0
 93
       13
 44
0.0
173
     0
291
     0
 45
0.0
  0
VISUALSTYLE
  5
37
102
{ACAD_REACTORS
330
2A
102
}
102
{ACAD_XDICTIONARY
360
FE
102
}
330
2A
100
AcDbVisualStyle
  2
Thicken
 70
    13
 71
     2
 72
     2
 73
     0
 90
        0
 40
-0.6
 41
-30.0
 62
     5
 63
     7
421
 16777215
 74
     1
 91
        4
 64
     7
 65
   257
 75
     1
175
     1
 42
1.0
 92
       12
 66
     7
 43
1.0
 76
     1
 77
     6
 78
     2
 67
     7
 79
     5
170
     0
171
     0
290
     0
174
     0
 93
        1
 44
0.0
173
     0
291
     1
 45
0.0
  0
DICTIONARY
  5
EE
330
2F
100
AcDbDictionary
280
     1
281
     1
  3
ACAD_XREC_ROUNDTRIP
360
EF
  0
DICTIONARY
  5
F2
330
31
100
AcDbDictionary
280
     1
281
     1
  3
ACAD_XREC_ROUNDTRIP
360
F3
  0
DICTIONARY
  5
F0
330
30
100
AcDbDictionary
280
     1
281
     1
  3
ACAD_XREC_ROUNDTRIP
360
F1
  0
DICTIONARY
  5
F4
330
32
100
AcDbDictionary
280
     1
281
     1
  3
ACAD_XREC_ROUNDTRIP
360
F5
  0
DICTIONARY
  5
FC
330
36
100
AcDbDictionary
280
     1
281
     1
  3
ACAD_XREC_ROUNDTRIP
360
FD
  0
DICTIONARY
  5
104
330
3A
100
AcDbDictionary
280
     1
281
     1
  3
ACAD_XREC_ROUNDTRIP
360
105
  0
DICTIONARY
  5
F8
330
34
100
AcDbDictionary
280
     1
281
     1
  3
ACAD_XREC_ROUNDTRIP
360
F9
  0
DICTIONARY
  5
FA
330
35
100
AcDbDictionary
280
     1
281
     1
  3
ACAD_XREC_ROUNDTRIP
360
FB
  0
DICTIONARY
  5
102
330
39
100
AcDbDictionary
280
     1
281
     1
  3
ACAD_XREC_ROUNDTRIP
360
103
  0
DICTIONARY
  5
E6
330
2B
100
AcDbDictionary
280
     1
281
     1
  3
ACAD_XREC_ROUNDTRIP
360
E7
  0
DICTIONARY
  5
E8
330
2C
100
AcDbDictionary
280
     1
281
     1
  3
ACAD_XREC_ROUNDTRIP
360
E9
  0
DICTIONARY
  5
EA
330
2D
100
AcDbDictionary
280
     1
281
     1
  3
ACAD_XREC_ROUNDTRIP
360
EB
  0
DICTIONARY
  5
EC
330
2E
100
AcDbDictionary
280
     1
281
     1
  3
ACAD_XREC_ROUNDTRIP
360
ED
  0
DICTIONARY
  5
100
330
38
100
AcDbDictionary
280
     1
281
     1
  3
ACAD_XREC_ROUNDTRIP
360
101
  0
DICTIONARY
  5
F6
330
33
100
AcDbDictionary
280
     1
281
     1
  3
ACAD_XREC_ROUNDTRIP
360
F7
  0
DICTIONARY
  5
FE
330
37
100
AcDbDictionary
280
     1
281
     1
  3
ACAD_XREC_ROUNDTRIP
360
FF
  0
XRECORD
  5
EF
102
{ACAD_REACTORS
330
EE
102
}
330
EE
100
AcDbXrecord
280
     1
102
RTVSPropertyOp0
 70
     1
102
RTVSPropertyOp1
 70
     1
102
RTVSPropertyOp2
 70
     1
102
RTVSPropertyOp3
 70
     1
102
RTVSPropertyOp4
 70
     1
102
RTVSPropertyOp5
 70
     1
102
RTVSPropertyOp6
 70
     1
102
RTVSPropertyOp7
 70
     1
102
RTVSPropertyOp8
 70
     1
102
RTVSPropertyOp9
 70
     1
102
RTVSPropertyOp10
 70
     1
102
RTVSPropertyOp11
 70
     1
102
RTVSPropertyOp12
 70
     1
102
RTVSPropertyOp13
 70
     1
102
RTVSPropertyOp14
 70
     1
102
RTVSPropertyOp15
 70
     1
102
RTVSPropertyOp16
 70
     1
102
RTVSPropertyOp17
 70
     1
102
RTVSPropertyOp18
 70
     1
102
RTVSPropertyOp19
 70
     1
102
RTVSPropertyOp20
 70
     1
102
RTVSPropertyOp21
 70
     1
102
RTVSPropertyOp22
 70
     1
102
RTVSPropertyOp23
 70
     1
102
RTVSPropertyOp24
 70
     1
102
RTVSPropertyOp25
 70
     1
102
RTVSPropertyOp26
 70
     1
102
RTVSPropertyOp27
 70
     1
102
RTVSPropertyOp28
 70
     1
102
RTVSPropertyOp29
 70
     1
102
RTVSPropertyOp30
 70
     1
102
RTVSPropertyOp31
 70
     1
102
RTVSPropertyOp32
 70
     1
  0
XRECORD
  5
F3
102
{ACAD_REACTORS
330
F2
102
}
330
F2
100
AcDbXrecord
280
     1
102
RTVSPropertyOp0
 70
     1
102
RTVSPropertyOp1
 70
     1
102
RTVSPropertyOp2
 70
     1
102
RTVSPropertyOp3
 70
     1
102
RTVSPropertyOp4
 70
     1
102
RTVSPropertyOp5
 70
     1
102
RTVSPropertyOp6
 70
     1
102
RTVSPropertyOp7
 70
     1
102
RTVSPropertyOp8
 70
     1
102
RTVSPropertyOp9
 70
     1
102
RTVSPropertyOp10
 70
     1
102
RTVSPropertyOp11
 70
     1
102
RTVSPropertyOp12
 70
     1
102
RTVSPropertyOp13
 70
     1
102
RTVSPropertyOp14
 70
     1
102
RTVSPropertyOp15
 70
     1
102
RTVSPropertyOp16
 70
     1
102
RTVSPropertyOp17
 70
     1
102
RTVSPropertyOp18
 70
     1
102
RTVSPropertyOp19
 70
     1
102
RTVSPropertyOp20
 70
     1
102
RTVSPropertyOp21
 70
     1
102
RTVSPropertyOp22
 70
     1
102
RTVSPropertyOp23
 70
     1
102
RTVSPropertyOp24
 70
     1
102
RTVSPropertyOp25
 70
     1
102
RTVSPropertyOp26
 70
     1
102
RTVSPropertyOp27
 70
     1
102
RTVSPropertyOp28
 70
     1
102
RTVSPropertyOp29
 70
     1
102
RTVSPropertyOp30
 70
     1
102
RTVSPropertyOp31
 70
     1
102
RTVSPropertyOp32
 70
     1
  0
XRECORD
  5
F1
102
{ACAD_REACTORS
330
F0
102
}
330
F0
100
AcDbXrecord
280
     1
102
RTVSPropertyOp0
 70
     1
102
RTVSPropertyOp1
 70
     1
102
RTVSPropertyOp2
 70
     1
102
RTVSPropertyOp3
 70
     1
102
RTVSPropertyOp4
 70
     1
102
RTVSPropertyOp5
 70
     1
102
RTVSPropertyOp6
 70
     1
102
RTVSPropertyOp7
 70
     1
102
RTVSPropertyOp8
 70
     1
102
RTVSPropertyOp9
 70
     1
102
RTVSPropertyOp10
 70
     1
102
RTVSPropertyOp11
 70
     1
102
RTVSPropertyOp12
 70
     1
102
RTVSPropertyOp13
 70
     1
102
RTVSPropertyOp14
 70
     1
102
RTVSPropertyOp15
 70
     1
102
RTVSPropertyOp16
 70
     1
102
RTVSPropertyOp17
 70
     1
102
RTVSPropertyOp18
 70
     1
102
RTVSPropertyOp19
 70
     1
102
RTVSPropertyOp20
 70
     1
102
RTVSPropertyOp21
 70
     1
102
RTVSPropertyOp22
 70
     1
102
RTVSPropertyOp23
 70
     1
102
RTVSPropertyOp24
 70
     1
102
RTVSPropertyOp25
 70
     1
102
RTVSPropertyOp26
 70
     1
102
RTVSPropertyOp27
 70
     1
102
RTVSPropertyOp28
 70
     1
102
RTVSPropertyOp29
 70
     1
102
RTVSPropertyOp30
 70
     1
102
RTVSPropertyOp31
 70
     1
102
RTVSPropertyOp32
 70
     1
  0
XRECORD
  5
F5
102
{ACAD_REACTORS
330
F4
102
}
330
F4
100
AcDbXrecord
280
     1
102
RTVSPropertyOp0
 70
     1
102
RTVSPropertyOp1
 70
     1
102
RTVSPropertyOp2
 70
     1
102
RTVSPropertyOp3
 70
     1
102
RTVSPropertyOp4
 70
     1
102
RTVSPropertyOp5
 70
     1
102
RTVSPropertyOp6
 70
     1
102
RTVSPropertyOp7
 70
     1
102
RTVSPropertyOp8
 70
     1
102
RTVSPropertyOp9
 70
     1
102
RTVSPropertyOp10
 70
     1
102
RTVSPropertyOp11
 70
     1
102
RTVSPropertyOp12
 70
     1
102
RTVSPropertyOp13
 70
     1
102
RTVSPropertyOp14
 70
     1
102
RTVSPropertyOp15
 70
     1
102
RTVSPropertyOp16
 70
     1
102
RTVSPropertyOp17
 70
     1
102
RTVSPropertyOp18
 70
     1
102
RTVSPropertyOp19
 70
     1
102
RTVSPropertyOp20
 70
     1
102
RTVSPropertyOp21
 70
     1
102
RTVSPropertyOp22
 70
     1
102
RTVSPropertyOp23
 70
     1
102
RTVSPropertyOp24
 70
     1
102
RTVSPropertyOp25
 70
     1
102
RTVSPropertyOp26
 70
     1
102
RTVSPropertyOp27
 70
     1
102
RTVSPropertyOp28
 70
     1
102
RTVSPropertyOp29
 70
     1
102
RTVSPropertyOp30
 70
     1
102
RTVSPropertyOp31
 70
     1
102
RTVSPropertyOp32
 70
     1
  0
XRECORD
  5
FD
102
{ACAD_REACTORS
330
FC
102
}
330
FC
100
AcDbXrecord
280
     1
102
RTVSPropertyOp0
 70
     1
102
RTVSPropertyOp1
 70
     1
102
RTVSPropertyOp2
 70
     1
102
RTVSPropertyOp3
 70
     1
102
RTVSPropertyOp4
 70
     1
102
RTVSPropertyOp5
 70
     1
102
RTVSPropertyOp6
 70
     1
102
RTVSPropertyOp7
 70
     1
102
RTVSPropertyOp8
 70
     1
102
RTVSPropertyOp9
 70
     1
102
RTVSPropertyOp10
 70
     1
102
RTVSPropertyOp11
 70
     1
102
RTVSPropertyOp12
 70
     1
102
RTVSPropertyOp13
 70
     1
102
RTVSPropertyOp14
 70
     1
102
RTVSPropertyOp15
 70
     1
102
RTVSPropertyOp16
 70
     1
102
RTVSPropertyOp17
 70
     1
102
RTVSPropertyOp18
 70
     1
102
RTVSPropertyOp19
 70
     1
102
RTVSPropertyOp20
 70
     1
102
RTVSPropertyOp21
 70
     1
102
RTVSPropertyOp22
 70
     1
102
RTVSPropertyOp23
 70
     1
102
RTVSPropertyOp24
 70
     1
102
RTVSPropertyOp25
 70
     1
102
RTVSPropertyOp26
 70
     1
102
RTVSPropertyOp27
 70
     1
102
RTVSPropertyOp28
 70
     1
102
RTVSPropertyOp29
 70
     1
102
RTVSPropertyOp30
 70
     1
102
RTVSPropertyOp31
 70
     1
102
RTVSPropertyOp32
 70
     1
  0
XRECORD
  5
105
102
{ACAD_REACTORS
330
104
102
}
330
104
100
AcDbXrecord
280
     1
102
RTVSPropertyOp0
 70
     1
102
RTVSPropertyOp1
 70
     1
102
RTVSPropertyOp2
 70
     1
102
RTVSPropertyOp3
 70
     1
102
RTVSPropertyOp4
 70
     1
102
RTVSPropertyOp5
 70
     1
102
RTVSPropertyOp6
 70
     1
102
RTVSPropertyOp7
 70
     1
102
RTVSPropertyOp8
 70
     1
102
RTVSPropertyOp9
 70
     1
102
RTVSPropertyOp10
 70
     1
102
RTVSPropertyOp11
 70
     1
102
RTVSPropertyOp12
 70
     1
102
RTVSPropertyOp13
 70
     1
102
RTVSPropertyOp14
 70
     1
102
RTVSPropertyOp15
 70
     1
102
RTVSPropertyOp16
 70
     1
102
RTVSPropertyOp17
 70
     1
102
RTVSPropertyOp18
 70
     1
102
RTVSPropertyOp19
 70
     1
102
RTVSPropertyOp20
 70
     1
102
RTVSPropertyOp21
 70
     1
102
RTVSPropertyOp22
 70
     1
102
RTVSPropertyOp23
 70
     1
102
RTVSPropertyOp24
 70
     1
102
RTVSPropertyOp25
 70
     1
102
RTVSPropertyOp26
 70
     1
102
RTVSPropertyOp27
 70
     1
102
RTVSPropertyOp28
 70
     1
102
RTVSPropertyOp29
 70
     1
102
RTVSPropertyOp30
 70
     1
102
RTVSPropertyOp31
 70
     1
102
RTVSPropertyOp32
 70
     1
  0
XRECORD
  5
F9
102
{ACAD_REACTORS
330
F8
102
}
330
F8
100
AcDbXrecord
280
     1
102
RTVSPropertyOp0
 70
     1
102
RTVSPropertyOp1
 70
     1
102
RTVSPropertyOp2
 70
     1
102
RTVSPropertyOp3
 70
     1
102
RTVSPropertyOp4
 70
     1
102
RTVSPropertyOp5
 70
     1
102
RTVSPropertyOp6
 70
     1
102
RTVSPropertyOp7
 70
     1
102
RTVSPropertyOp8
 70
     1
102
RTVSPropertyOp9
 70
     1
102
RTVSPropertyOp10
 70
     1
102
RTVSPropertyOp11
 70
     1
102
RTVSPropertyOp12
 70
     1
102
RTVSPropertyOp13
 70
     1
102
RTVSPropertyOp14
 70
     1
102
RTVSPropertyOp15
 70
     1
102
RTVSPropertyOp16
 70
     1
102
RTVSPropertyOp17
 70
     1
102
RTVSPropertyOp18
 70
     1
102
RTVSPropertyOp19
 70
     1
102
RTVSPropertyOp20
 70
     1
102
RTVSPropertyOp21
 70
     1
102
RTVSPropertyOp22
 70
     1
102
RTVSPropertyOp23
 70
     1
102
RTVSPropertyOp24
 70
     1
102
RTVSPropertyOp25
 70
     1
102
RTVSPropertyOp26
 70
     1
102
RTVSPropertyOp27
 70
     1
102
RTVSPropertyOp28
 70
     1
102
RTVSPropertyOp29
 70
     1
102
RTVSPropertyOp30
 70
     1
102
RTVSPropertyOp31
 70
     1
102
RTVSPropertyOp32
 70
     1
  0
XRECORD
  5
FB
102
{ACAD_REACTORS
330
FA
102
}
330
FA
100
AcDbXrecord
280
     1
102
RTVSPropertyOp0
 70
     1
102
RTVSPropertyOp1
 70
     1
102
RTVSPropertyOp2
 70
     1
102
RTVSPropertyOp3
 70
     1
102
RTVSPropertyOp4
 70
     1
102
RTVSPropertyOp5
 70
     1
102
RTVSPropertyOp6
 70
     1
102
RTVSPropertyOp7
 70
     1
102
RTVSPropertyOp8
 70
     1
102
RTVSPropertyOp9
 70
     1
102
RTVSPropertyOp10
 70
     1
102
RTVSPropertyOp11
 70
     1
102
RTVSPropertyOp12
 70
     1
102
RTVSPropertyOp13
 70
     1
102
RTVSPropertyOp14
 70
     1
102
RTVSPropertyOp15
 70
     1
102
RTVSPropertyOp16
 70
     1
102
RTVSPropertyOp17
 70
     1
102
RTVSPropertyOp18
 70
     1
102
RTVSPropertyOp19
 70
     1
102
RTVSPropertyOp20
 70
     1
102
RTVSPropertyOp21
 70
     1
102
RTVSPropertyOp22
 70
     1
102
RTVSPropertyOp23
 70
     1
102
RTVSPropertyOp24
 70
     1
102
RTVSPropertyOp25
 70
     1
102
RTVSPropertyOp26
 70
     1
102
RTVSPropertyOp27
 70
     1
102
RTVSPropertyOp28
 70
     1
102
RTVSPropertyOp29
 70
     1
102
RTVSPropertyOp30
 70
     1
102
RTVSPropertyOp31
 70
     1
102
RTVSPropertyOp32
 70
     1
  0
XRECORD
  5
103
102
{ACAD_REACTORS
330
102
102
}
330
102
100
AcDbXrecord
280
     1
102
RTVSPropertyOp0
 70
     1
102
RTVSPropertyOp1
 70
     1
102
RTVSPropertyOp2
 70
     1
102
RTVSPropertyOp3
 70
     1
102
RTVSPropertyOp4
 70
     1
102
RTVSPropertyOp5
 70
     1
102
RTVSPropertyOp6
 70
     1
102
RTVSPropertyOp7
 70
     1
102
RTVSPropertyOp8
 70
     1
102
RTVSPropertyOp9
 70
     1
102
RTVSPropertyOp10
 70
     1
102
RTVSPropertyOp11
 70
     1
102
RTVSPropertyOp12
 70
     1
102
RTVSPropertyOp13
 70
     1
102
RTVSPropertyOp14
 70
     1
102
RTVSPropertyOp15
 70
     1
102
RTVSPropertyOp16
 70
     1
102
RTVSPropertyOp17
 70
     1
102
RTVSPropertyOp18
 70
     1
102
RTVSPropertyOp19
 70
     1
102
RTVSPropertyOp20
 70
     1
102
RTVSPropertyOp21
 70
     1
102
RTVSPropertyOp22
 70
     1
102
RTVSPropertyOp23
 70
     1
102
RTVSPropertyOp24
 70
     1
102
RTVSPropertyOp25
 70
     1
102
RTVSPropertyOp26
 70
     1
102
RTVSPropertyOp27
 70
     1
102
RTVSPropertyOp28
 70
     1
102
RTVSPropertyOp29
 70
     1
102
RTVSPropertyOp30
 70
     1
102
RTVSPropertyOp31
 70
     1
102
RTVSPropertyOp32
 70
     1
  0
XRECORD
  5
E7
102
{ACAD_REACTORS
330
E6
102
}
330
E6
100
AcDbXrecord
280
     1
102
RTVSPropertyOp0
 70
     1
102
RTVSPropertyOp1
 70
     1
102
RTVSPropertyOp2
 70
     1
102
RTVSPropertyOp3
 70
     1
102
RTVSPropertyOp4
 70
     1
102
RTVSPropertyOp5
 70
     1
102
RTVSPropertyOp6
 70
     1
102
RTVSPropertyOp7
 70
     1
102
RTVSPropertyOp8
 70
     1
102
RTVSPropertyOp9
 70
     1
102
RTVSPropertyOp10
 70
     1
102
RTVSPropertyOp11
 70
     1
102
RTVSPropertyOp12
 70
     1
102
RTVSPropertyOp13
 70
     1
102
RTVSPropertyOp14
 70
     1
102
RTVSPropertyOp15
 70
     1
102
RTVSPropertyOp16
 70
     1
102
RTVSPropertyOp17
 70
     1
102
RTVSPropertyOp18
 70
     1
102
RTVSPropertyOp19
 70
     1
102
RTVSPropertyOp20
 70
     1
102
RTVSPropertyOp21
 70
     1
102
RTVSPropertyOp22
 70
     1
102
RTVSPropertyOp23
 70
     1
102
RTVSPropertyOp24
 70
     1
102
RTVSPropertyOp25
 70
     1
102
RTVSPropertyOp26
 70
     1
102
RTVSPropertyOp27
 70
     1
102
RTVSPropertyOp28
 70
     1
102
RTVSPropertyOp29
 70
     1
102
RTVSPropertyOp30
 70
     1
102
RTVSPropertyOp31
 70
     1
102
RTVSPropertyOp32
 70
     1
  0
XRECORD
  5
E9
102
{ACAD_REACTORS
330
E8
102
}
330
E8
100
AcDbXrecord
280
     1
102
RTVSPropertyOp0
 70
     1
102
RTVSPropertyOp1
 70
     1
102
RTVSPropertyOp2
 70
     1
102
RTVSPropertyOp3
 70
     1
102
RTVSPropertyOp4
 70
     1
102
RTVSPropertyOp5
 70
     1
102
RTVSPropertyOp6
 70
     1
102
RTVSPropertyOp7
 70
     1
102
RTVSPropertyOp8
 70
     1
102
RTVSPropertyOp9
 70
     1
102
RTVSPropertyOp10
 70
     1
102
RTVSPropertyOp11
 70
     1
102
RTVSPropertyOp12
 70
     1
102
RTVSPropertyOp13
 70
     1
102
RTVSPropertyOp14
 70
     1
102
RTVSPropertyOp15
 70
     1
102
RTVSPropertyOp16
 70
     1
102
RTVSPropertyOp17
 70
     1
102
RTVSPropertyOp18
 70
     1
102
RTVSPropertyOp19
 70
     1
102
RTVSPropertyOp20
 70
     1
102
RTVSPropertyOp21
 70
     1
102
RTVSPropertyOp22
 70
     1
102
RTVSPropertyOp23
 70
     1
102
RTVSPropertyOp24
 70
     1
102
RTVSPropertyOp25
 70
     1
102
RTVSPropertyOp26
 70
     1
102
RTVSPropertyOp27
 70
     1
102
RTVSPropertyOp28
 70
     1
102
RTVSPropertyOp29
 70
     1
102
RTVSPropertyOp30
 70
     1
102
RTVSPropertyOp31
 70
     1
102
RTVSPropertyOp32
 70
     1
  0
XRECORD
  5
EB
102
{ACAD_REACTORS
330
EA
102
}
330
EA
100
AcDbXrecord
280
     1
102
RTVSPropertyOp0
 70
     1
102
RTVSPropertyOp1
 70
     1
102
RTVSPropertyOp2
 70
     1
102
RTVSPropertyOp3
 70
     1
102
RTVSPropertyOp4
 70
     1
102
RTVSPropertyOp5
 70
     1
102
RTVSPropertyOp6
 70
     1
102
RTVSPropertyOp7
 70
     1
102
RTVSPropertyOp8
 70
     1
102
RTVSPropertyOp9
 70
     1
102
RTVSPropertyOp10
 70
     1
102
RTVSPropertyOp11
 70
     1
102
RTVSPropertyOp12
 70
     1
102
RTVSPropertyOp13
 70
     1
102
RTVSPropertyOp14
 70
     1
102
RTVSPropertyOp15
 70
     1
102
RTVSPropertyOp16
 70
     1
102
RTVSPropertyOp17
 70
     1
102
RTVSPropertyOp18
 70
     1
102
RTVSPropertyOp19
 70
     1
102
RTVSPropertyOp20
 70
     1
102
RTVSPropertyOp21
 70
     1
102
RTVSPropertyOp22
 70
     1
102
RTVSPropertyOp23
 70
     1
102
RTVSPropertyOp24
 70
     1
102
RTVSPropertyOp25
 70
     1
102
RTVSPropertyOp26
 70
     1
102
RTVSPropertyOp27
 70
     1
102
RTVSPropertyOp28
 70
     1
102
RTVSPropertyOp29
 70
     1
102
RTVSPropertyOp30
 70
     1
102
RTVSPropertyOp31
 70
     1
102
RTVSPropertyOp32
 70
     1
  0
XRECORD
  5
ED
102
{ACAD_REACTORS
330
EC
102
}
330
EC
100
AcDbXrecord
280
     1
102
RTVSPropertyOp0
 70
     1
102
RTVSPropertyOp1
 70
     1
102
RTVSPropertyOp2
 70
     1
102
RTVSPropertyOp3
 70
     1
102
RTVSPropertyOp4
 70
     1
102
RTVSPropertyOp5
 70
     1
102
RTVSPropertyOp6
 70
     1
102
RTVSPropertyOp7
 70
     1
102
RTVSPropertyOp8
 70
     1
102
RTVSPropertyOp9
 70
     1
102
RTVSPropertyOp10
 70
     1
102
RTVSPropertyOp11
 70
     1
102
RTVSPropertyOp12
 70
     1
102
RTVSPropertyOp13
 70
     1
102
RTVSPropertyOp14
 70
     1
102
RTVSPropertyOp15
 70
     1
102
RTVSPropertyOp16
 70
     1
102
RTVSPropertyOp17
 70
     1
102
RTVSPropertyOp18
 70
     1
102
RTVSPropertyOp19
 70
     1
102
RTVSPropertyOp20
 70
     1
102
RTVSPropertyOp21
 70
     1
102
RTVSPropertyOp22
 70
     1
102
RTVSPropertyOp23
 70
     1
102
RTVSPropertyOp24
 70
     1
102
RTVSPropertyOp25
 70
     1
102
RTVSPropertyOp26
 70
     1
102
RTVSPropertyOp27
 70
     1
102
RTVSPropertyOp28
 70
     1
102
RTVSPropertyOp29
 70
     1
102
RTVSPropertyOp30
 70
     1
102
RTVSPropertyOp31
 70
     1
102
RTVSPropertyOp32
 70
     1
  0
XRECORD
  5
101
102
{ACAD_REACTORS
330
100
102
}
330
100
100
AcDbXrecord
280
     1
102
RTVSPropertyOp0
 70
     1
102
RTVSPropertyOp1
 70
     1
102
RTVSPropertyOp2
 70
     1
102
RTVSPropertyOp3
 70
     1
102
RTVSPropertyOp4
 70
     1
102
RTVSPropertyOp5
 70
     1
102
RTVSPropertyOp6
 70
     1
102
RTVSPropertyOp7
 70
     1
102
RTVSPropertyOp8
 70
     1
102
RTVSPropertyOp9
 70
     1
102
RTVSPropertyOp10
 70
     1
102
RTVSPropertyOp11
 70
     1
102
RTVSPropertyOp12
 70
     1
102
RTVSPropertyOp13
 70
     1
102
RTVSPropertyOp14
 70
     1
102
RTVSPropertyOp15
 70
     1
102
RTVSPropertyOp16
 70
     1
102
RTVSPropertyOp17
 70
     1
102
RTVSPropertyOp18
 70
     1
102
RTVSPropertyOp19
 70
     1
102
RTVSPropertyOp20
 70
     1
102
RTVSPropertyOp21
 70
     1
102
RTVSPropertyOp22
 70
     1
102
RTVSPropertyOp23
 70
     1
102
RTVSPropertyOp24
 70
     1
102
RTVSPropertyOp25
 70
     1
102
RTVSPropertyOp26
 70
     1
102
RTVSPropertyOp27
 70
     1
102
RTVSPropertyOp28
 70
     1
102
RTVSPropertyOp29
 70
     1
102
RTVSPropertyOp30
 70
     1
102
RTVSPropertyOp31
 70
     1
102
RTVSPropertyOp32
 70
     1
  0
XRECORD
  5
F7
102
{ACAD_REACTORS
330
F6
102
}
330
F6
100
AcDbXrecord
280
     1
102
RTVSPropertyOp0
 70
     1
102
RTVSPropertyOp1
 70
     1
102
RTVSPropertyOp2
 70
     1
102
RTVSPropertyOp3
 70
     1
102
RTVSPropertyOp4
 70
     1
102
RTVSPropertyOp5
 70
     1
102
RTVSPropertyOp6
 70
     1
102
RTVSPropertyOp7
 70
     1
102
RTVSPropertyOp8
 70
     1
102
RTVSPropertyOp9
 70
     1
102
RTVSPropertyOp10
 70
     1
102
RTVSPropertyOp11
 70
     1
102
RTVSPropertyOp12
 70
     1
102
RTVSPropertyOp13
 70
     1
102
RTVSPropertyOp14
 70
     1
102
RTVSPropertyOp15
 70
     1
102
RTVSPropertyOp16
 70
     1
102
RTVSPropertyOp17
 70
     1
102
RTVSPropertyOp18
 70
     1
102
RTVSPropertyOp19
 70
     1
102
RTVSPropertyOp20
 70
     1
102
RTVSPropertyOp21
 70
     1
102
RTVSPropertyOp22
 70
     1
102
RTVSPropertyOp23
 70
     1
102
RTVSPropertyOp24
 70
     1
102
RTVSPropertyOp25
 70
     1
102
RTVSPropertyOp26
 70
     1
102
RTVSPropertyOp27
 70
     1
102
RTVSPropertyOp28
 70
     1
102
RTVSPropertyOp29
 70
     1
102
RTVSPropertyOp30
 70
     1
102
RTVSPropertyOp31
 70
     1
102
RTVSPropertyOp32
 70
     1
  0
XRECORD
  5
FF
102
{ACAD_REACTORS
330
FE
102
}
330
FE
100
AcDbXrecord
280
     1
102
RTVSPropertyOp0
 70
     1
102
RTVSPropertyOp1
 70
     1
102
RTVSPropertyOp2
 70
     1
102
RTVSPropertyOp3
 70
     1
102
RTVSPropertyOp4
 70
     1
102
RTVSPropertyOp5
 70
     1
102
RTVSPropertyOp6
 70
     1
102
RTVSPropertyOp7
 70
     1
102
RTVSPropertyOp8
 70
     1
102
RTVSPropertyOp9
 70
     1
102
RTVSPropertyOp10
 70
     1
102
RTVSPropertyOp11
 70
     1
102
RTVSPropertyOp12
 70
     1
102
RTVSPropertyOp13
 70
     1
102
RTVSPropertyOp14
 70
     1
102
RTVSPropertyOp15
 70
     1
102
RTVSPropertyOp16
 70
     1
102
RTVSPropertyOp17
 70
     1
102
RTVSPropertyOp18
 70
     1
102
RTVSPropertyOp19
 70
     1
102
RTVSPropertyOp20
 70
     1
102
RTVSPropertyOp21
 70
     1
102
RTVSPropertyOp22
 70
     1
102
RTVSPropertyOp23
 70
     1
102
RTVSPropertyOp24
 70
     1
102
RTVSPropertyOp25
 70
     1
102
RTVSPropertyOp26
 70
     1
102
RTVSPropertyOp27
 70
     1
102
RTVSPropertyOp28
 70
     1
102
RTVSPropertyOp29
 70
     1
102
RTVSPropertyOp30
 70
     1
102
RTVSPropertyOp31
 70
     1
102
RTVSPropertyOp32
 70
     1
  0
ENDSEC
  0
EOF
