  0
SECTION
  2
HEADER
  9
$ACADVER
  1
AC1021
  9
$ACADMAINTVER
 70
    25
  9
$DWGCODEPAGE
  3
ANSI_1252
  9
$INSBASE
 10
0.0
 20
0.0
 30
0.0
  9
$EXTMIN
 10
-187.3384
 20
-115.6052
 30
0.0
  9
$EXTMAX
 10
-63.3185
 20
131.5884
 30
0.0
  9
$LIMMIN
 10
0.0
 20
0.0
  9
$LIMMAX
 10
12.0
 20
9.0
  9
$ORTHOMODE
 70
     0
  9
$REGENMODE
 70
     1
  9
$FILLMODE
 70
     1
  9
$QTEXTMODE
 70
     0
  9
$MIRRTEXT
 70
     1
  9
$LTSCALE
 40
1.0
  9
$ATTMODE
 70
     1
  9
$TEXTSIZE
 40
0.2
  9
$TRACEWID
 40
0.05
  9
$TEXTSTYLE
  7
Standard
  9
$CLAYER
  8
0
  9
$CELTYPE
  6
ByLayer
  9
$CECOLOR
 62
   256
  9
$CELTSCALE
 40
1.0
  9
$DISPSILH
 70
     0
  9
$DIMSCALE
 40
1.0
  9
$DIMASZ
 40
0.18
  9
$DIMEXO
 40
0.0625
  9
$DIMDLI
 40
0.38
  9
$DIMRND
 40
0.0
  9
$DIMDLE
 40
0.0
  9
$DIMEXE
 40
0.18
  9
$DIMTP
 40
0.0
  9
$DIMTM
 40
0.0
  9
$DIMTXT
 40
0.18
  9
$DIMCEN
 40
0.09
  9
$DIMTSZ
 40
0.0
  9
$DIMTOL
 70
     0
  9
$DIMLIM
 70
     0
  9
$DIMTIH
 70
     1
  9
$DIMTOH
 70
     1
  9
$DIMSE1
 70
     0
  9
$DIMSE2
 70
     0
  9
$DIMTAD
 70
     0
  9
$DIMZIN
 70
     0
  9
$DIMBLK
  1

  9
$DIMASO
 70
     1
  9
$DIMSHO
 70
     1
  9
$DIMPOST
  1

  9
$DIMAPOST
  1

  9
$DIMALT
 70
     0
  9
$DIMALTD
 70
     2
  9
$DIMALTF
 40
25.4
  9
$DIMLFAC
 40
1.0
  9
$DIMTOFL
 70
     0
  9
$DIMTVP
 40
0.0
  9
$DIMTIX
 70
     0
  9
$DIMSOXD
 70
     0
  9
$DIMSAH
 70
     0
  9
$DIMBLK1
  1

  9
$DIMBLK2
  1

  9
$DIMSTYLE
  2
Standard
  9
$DIMCLRD
 70
     0
  9
$DIMCLRE
 70
     0
  9
$DIMCLRT
 70
     0
  9
$DIMTFAC
 40
1.0
  9
$DIMGAP
 40
0.09
  9
$DIMJUST
 70
     0
  9
$DIMSD1
 70
     0
  9
$DIMSD2
 70
     0
  9
$DIMTOLJ
 70
     1
  9
$DIMTZIN
 70
     0
  9
$DIMALTZ
 70
     0
  9
$DIMALTTZ
 70
     0
  9
$DIMUPT
 70
     0
  9
$DIMDEC
 70
     4
  9
$DIMTDEC
 70
     4
  9
$DIMALTU
 70
     2
  9
$DIMALTTD
 70
     2
  9
$DIMTXSTY
  7
Standard
  9
$DIMAUNIT
 70
     0
  9
$DIMADEC
 70
     0
  9
$DIMALTRND
 40
0.0
  9
$DIMAZIN
 70
     0
  9
$DIMDSEP
 70
    46
  9
$DIMATFIT
 70
     3
  9
$DIMFRAC
 70
     0
  9
$DIMLDRBLK
  1

  9
$DIMLUNIT
 70
     2
  9
$DIMLWD
 70
    -2
  9
$DIMLWE
 70
    -2
  9
$DIMTMOVE
 70
     0
  9
$DIMFXL
 40
1.0
  9
$DIMFXLON
 70
     0
  9
$DIMJOGANG
 40
0.7853981633974483
  9
$DIMTFILL
 70
     0
  9
$DIMTFILLCLR
 70
     0
  9
$DIMARCSYM
 70
     0
  9
$DIMLTYPE
  6

  9
$DIMLTEX1
  6

  9
$DIMLTEX2
  6

  9
$LUNITS
 70
     2
  9
$LUPREC
 70
     4
  9
$SKETCHINC
 40
0.1
  9
$FILLETRAD
 40
0.5
  9
$AUNITS
 70
     0
  9
$AUPREC
 70
     0
  9
$MENU
  1
.
  9
$ELEVATION
 40
0.0
  9
$PELEVATION
 40
0.0
  9
$THICKNESS
 40
0.0
  9
$LIMCHECK
 70
     0
  9
$CHAMFERA
 40
0.5
  9
$CHAMFERB
 40
0.5
  9
$CHAMFERC
 40
1.0
  9
$CHAMFERD
 40
0.0
  9
$SKPOLY
 70
     0
  9
$TDCREATE
 40
2458492.821120359
  9
$TDUCREATE
 40
2458492.821120359
  9
$TDUPDATE
 40
2458492.821120544
  9
$TDUUPDATE
 40
2458492.821120544
  9
$TDINDWG
 40
0.0000000116
  9
$TDUSRTIMER
 40
0.0000000116
  9
$USRTIMER
 70
     1
  9
$ANGBASE
 50
0.0
  9
$ANGDIR
 70
     0
  9
$PDMODE
 70
     0
  9
$PDSIZE
 40
0.0
  9
$PLINEWID
 40
0.0
  9
$SPLFRAME
 70
     0
  9
$SPLINETYPE
 70
     6
  9
$SPLINESEGS
 70
     8
  9
$HANDSEED
  5
B9
  9
$SURFTAB1
 70
     6
  9
$SURFTAB2
 70
     6
  9
$SURFTYPE
 70
     6
  9
$SURFU
 70
     6
  9
$SURFV
 70
     6
  9
$UCSBASE
  2

  9
$UCSNAME
  2

  9
$UCSORG
 10
0.0
 20
0.0
 30
0.0
  9
$UCSXDIR
 10
1.0
 20
0.0
 30
0.0
  9
$UCSYDIR
 10
0.0
 20
1.0
 30
0.0
  9
$UCSORTHOREF
  2

  9
$UCSORTHOVIEW
 70
     0
  9
$UCSORGTOP
 10
0.0
 20
0.0
 30
0.0
  9
$UCSORGBOTTOM
 10
0.0
 20
0.0
 30
0.0
  9
$UCSORGLEFT
 10
0.0
 20
0.0
 30
0.0
  9
$UCSORGRIGHT
 10
0.0
 20
0.0
 30
0.0
  9
$UCSORGFRONT
 10
0.0
 20
0.0
 30
0.0
  9
$UCSORGBACK
 10
0.0
 20
0.0
 30
0.0
  9
$PUCSBASE
  2

  9
$PUCSNAME
  2

  9
$PUCSORG
 10
0.0
 20
0.0
 30
0.0
  9
$PUCSXDIR
 10
1.0
 20
0.0
 30
0.0
  9
$PUCSYDIR
 10
0.0
 20
1.0
 30
0.0
  9
$PUCSORTHOREF
  2

  9
$PUCSORTHOVIEW
 70
     0
  9
$PUCSORGTOP
 10
0.0
 20
0.0
 30
0.0
  9
$PUCSORGBOTTOM
 10
0.0
 20
0.0
 30
0.0
  9
$PUCSORGLEFT
 10
0.0
 20
0.0
 30
0.0
  9
$PUCSORGRIGHT
 10
0.0
 20
0.0
 30
0.0
  9
$PUCSORGFRONT
 10
0.0
 20
0.0
 30
0.0
  9
$PUCSORGBACK
 10
0.0
 20
0.0
 30
0.0
  9
$USERI1
 70
     0
  9
$USERI2
 70
     0
  9
$USERI3
 70
     0
  9
$USERI4
 70
     0
  9
$USERI5
 70
     0
  9
$USERR1
 40
0.0
  9
$USERR2
 40
0.0
  9
$USERR3
 40
0.0
  9
$USERR4
 40
0.0
  9
$USERR5
 40
0.0
  9
$WORLDVIEW
 70
     1
  9
$SHADEDGE
 70
     3
  9
$SHADEDIF
 70
    70
  9
$TILEMODE
 70
     1
  9
$MAXACTVP
 70
    64
  9
$PINSBASE
 10
0.0
 20
0.0
 30
0.0
  9
$PLIMCHECK
 70
     0
  9
$PEXTMIN
 10
1.000000000000000E+20
 20
1.000000000000000E+20
 30
1.000000000000000E+20
  9
$PEXTMAX
 10
-1.000000000000000E+20
 20
-1.000000000000000E+20
 30
-1.000000000000000E+20
  9
$PLIMMIN
 10
0.0
 20
0.0
  9
$PLIMMAX
 10
12.0
 20
9.0
  9
$UNITMODE
 70
     0
  9
$VISRETAIN
 70
     1
  9
$PLINEGEN
 70
     0
  9
$PSLTSCALE
 70
     1
  9
$TREEDEPTH
 70
  3020
  9
$CMLSTYLE
  2
Standard
  9
$CMLJUST
 70
     0
  9
$CMLSCALE
 40
1.0
  9
$PROXYGRAPHICS
 70
     1
  9
$MEASUREMENT
 70
     0
  9
$CELWEIGHT
370
    -1
  9
$ENDCAPS
280
     0
  9
$JOINSTYLE
280
     0
  9
$LWDISPLAY
290
     0
  9
$INSUNITS
 70
     4
  9
$HYPERLINKBASE
  1

  9
$STYLESHEET
  1

  9
$XEDIT
290
     1
  9
$CEPSNTYPE
380
     0
  9
$PSTYLEMODE
290
     1
  9
$FINGERPRINTGUID
  2
{DDE6F359-F03A-4056-B317-D4FD0194009C}
  9
$VERSIONGUID
  2
{FAEB1C32-E019-11D5-929B-00C0DF256EC4}
  9
$EXTNAMES
290
     1
  9
$PSVPSCALE
 40
0.0
  9
$OLESTARTUP
290
     0
  9
$SORTENTS
280
   127
  9
$INDEXCTL
280
     0
  9
$HIDETEXT
280
     1
  9
$XCLIPFRAME
290
     0
  9
$HALOGAP
280
     0
  9
$OBSCOLOR
 70
   257
  9
$OBSLTYPE
280
     0
  9
$INTERSECTIONDISPLAY
280
     0
  9
$INTERSECTIONCOLOR
 70
   257
  9
$DIMASSOC
280
     2
  9
$PROJECTNAME
  1

  9
$CAMERADISPLAY
290
     0
  9
$LENSLENGTH
 40
50.0
  9
$CAMERAHEIGHT
 40
0.0
  9
$STEPSPERSEC
 40
2.0
  9
$STEPSIZE
 40
6.0
  9
$3DDWFPREC
 40
2.0
  9
$PSOLWIDTH
 40
0.25
  9
$PSOLHEIGHT
 40
4.0
  9
$LOFTANG1
 40
1.570796326794897
  9
$LOFTANG2
 40
1.570796326794897
  9
$LOFTMAG1
 40
0.0
  9
$LOFTMAG2
 40
0.0
  9
$LOFTPARAM
 70
     7
  9
$LOFTNORMALS
280
     1
  9
$LATITUDE
 40
37.795
  9
$LONGITUDE
 40
-122.394
  9
$NORTHDIRECTION
 40
0.0
  9
$TIMEZONE
 70
 -8000
  9
$LIGHTGLYPHDISPLAY
280
     1
  9
$TILEMODELIGHTSYNCH
280
     1
  9
$SOLIDHIST
280
     1
  9
$SHOWHIST
280
     1
  9
$DWFFRAME
280
     2
  9
$DGNFRAME
280
     2
  9
$REALWORLDSCALE
290
     1
  9
$INTERFERECOLOR
 62
   256
  9
$CSHADOW
280
     0
  9
$SHADOWPLANELOCATION
 40
0.0
  0
ENDSEC
  0
SECTION
  2
CLASSES
  0
CLASS
  1
ACDBDICTIONARYWDFLT
  2
AcDbDictionaryWithDefault
  3
ObjectDBX Classes
 90
        0
 91
        4
280
     0
281
     0
  0
CLASS
  1
VISUALSTYLE
  2
AcDbVisualStyle
  3
ObjectDBX Classes
 90
     4095
 91
        4
280
     0
281
     0
  0
CLASS
  1
MATERIAL
  2
AcDbMaterial
  3
ObjectDBX Classes
 90
     1153
 91
        4
280
     0
281
     0
  0
ENDSEC
  0
SECTION
  2
TABLES
  0
TABLE
  2
VPORT
  5
8
330
0
100
AcDbSymbolTable
 70
     1
  0
VPORT
  5
29
330
8
100
AcDbSymbolTableRecord
100
AcDbViewportTableRecord
  2
*Active
 70
     0
 10
0.0
 20
0.0
 11
1.0
 21
1.0
 12
10.42990654205607
 22
4.5
 13
0.0
 23
0.0
 14
0.5
 24
0.5
 15
0.5
 25
0.5
 16
0.0
 26
0.0
 36
1.0
 17
0.0
 27
0.0
 37
0.0
 40
9.0
 41
1.972972972850329
 42
50.0
 43
0.0
 44
0.0
 50
0.0
 51
0.0
 71
     0
 72
   100
 73
     1
 74
     3
 75
     0
 76
     0
 77
     0
 78
     0
281
     0
 65
     1
110
0.0
120
0.0
130
0.0
111
1.0
121
0.0
131
0.0
112
0.0
122
1.0
132
0.0
 79
     0
146
0.0
 60
     3
 61
     5
292
     1
282
     1
141
0.0
142
0.0
 63
   250
  0
ENDTAB
  0
TABLE
  2
LTYPE
  5
5
330
0
100
AcDbSymbolTable
 70
     1
  0
LTYPE
  5
14
330
5
100
AcDbSymbolTableRecord
100
AcDbLinetypeTableRecord
  2
ByBlock
 70
     0
  3

 72
    65
 73
     0
 40
0.0
  0
LTYPE
  5
15
330
5
100
AcDbSymbolTableRecord
100
AcDbLinetypeTableRecord
  2
ByLayer
 70
     0
  3

 72
    65
 73
     0
 40
0.0
  0
LTYPE
  5
16
330
5
100
AcDbSymbolTableRecord
100
AcDbLinetypeTableRecord
  2
Continuous
 70
     0
  3
Solid line
 72
    65
 73
     0
 40
0.0
  0
ENDTAB
  0
TABLE
  2
LAYER
  5
2
330
0
100
AcDbSymbolTable
 70
     2
  0
LAYER
  5
10
330
2
100
AcDbSymbolTableRecord
100
AcDbLayerTableRecord
  2
0
 70
     0
 62
     7
  6
Continuous
370
    -3
390
F
347
3E
  0
LAYER
  5
40
330
2
100
AcDbSymbolTableRecord
100
AcDbLayerTableRecord
  2
layer 1
 70
     0
 62
     7
  6
Continuous
370
    -3
390
F
347
3E
  0
ENDTAB
  0
TABLE
  2
STYLE
  5
3
330
0
100
AcDbSymbolTable
 70
     1
  0
STYLE
  5
11
330
3
100
AcDbSymbolTableRecord
100
AcDbTextStyleTableRecord
  2
Standard
 70
     0
 40
0.0
 41
1.0
 50
0.0
 71
     0
 42
0.2
  3
txt
  4

  0
ENDTAB
  0
TABLE
  2
VIEW
  5
6
330
0
100
AcDbSymbolTable
 70
     0
  0
ENDTAB
  0
TABLE
  2
UCS
  5
7
330
0
100
AcDbSymbolTable
 70
     0
  0
ENDTAB
  0
TABLE
  2
APPID
  5
9
330
0
100
AcDbSymbolTable
 70
     2
  0
APPID
  5
12
330
9
100
AcDbSymbolTableRecord
100
AcDbRegAppTableRecord
  2
ACAD
 70
     0
  0
APPID
  5
3F
330
9
100
AcDbSymbolTableRecord
100
AcDbRegAppTableRecord
  2
ODA
 70
     0
  0
ENDTAB
  0
TABLE
  2
DIMSTYLE
  5
A
330
0
100
AcDbSymbolTable
 70
     1
100
AcDbDimStyleTable
  0
DIMSTYLE
105
27
330
A
100
AcDbSymbolTableRecord
100
AcDbDimStyleTableRecord
  2
Standard
 70
     0
178
     0
340
11
  0
ENDTAB
  0
TABLE
  2
BLOCK_RECORD
  5
1
330
0
100
AcDbSymbolTable
 70
     1
  0
BLOCK_RECORD
  5
1F
330
1
100
AcDbSymbolTableRecord
100
AcDbBlockTableRecord
  2
*Model_Space
340
22
 70
     0
280
     1
281
     0
  0
BLOCK_RECORD
  5
1B
330
1
100
AcDbSymbolTableRecord
100
AcDbBlockTableRecord
  2
*Paper_Space
340
1E
 70
     0
280
     1
281
     0
  0
BLOCK_RECORD
  5
23
330
1
100
AcDbSymbolTableRecord
100
AcDbBlockTableRecord
  2
*Paper_Space0
340
26
 70
     0
280
     1
281
     0
  0
ENDTAB
  0
ENDSEC
  0
SECTION
  2
BLOCKS
  0
BLOCK
  5
20
330
1F
100
AcDbEntity
  8
0
100
AcDbBlockBegin
  2
*Model_Space
 70
     0
 10
0.0
 20
0.0
 30
0.0
  3
*Model_Space
  1

  0
ENDBLK
  5
21
330
1F
100
AcDbEntity
  8
0
100
AcDbBlockEnd
  0
BLOCK
  5
1C
330
1B
100
AcDbEntity
 67
     1
  8
0
100
AcDbBlockBegin
  2
*Paper_Space
 70
     0
 10
0.0
 20
0.0
 30
0.0
  3
*Paper_Space
  1

  0
ENDBLK
  5
1D
330
1B
100
AcDbEntity
 67
     1
  8
0
100
AcDbBlockEnd
  0
BLOCK
  5
24
330
23
100
AcDbEntity
  8
0
100
AcDbBlockBegin
  2
*Paper_Space0
 70
     0
 10
0.0
 20
0.0
 30
0.0
  3
*Paper_Space0
  1

  0
ENDBLK
  5
25
330
23
100
AcDbEntity
  8
0
100
AcDbBlockEnd
  0
ENDSEC
  0
SECTION
  2
ENTITIES
  0
LWPOLYLINE
  5
41
330
1F
100
AcDbEntity
  8
layer 1
 62
   250
370
    13
100
AcDbPolyline
 90
        5
 70
     1
 43
0.0
 10
-187.2734
 20
-115.5402
 10
-63.3836
 20
-115.5402
 10
-63.3836
 20
131.5234
 10
-187.2734
 20
131.5234
 10
-187.2734
 20
-115.5402
  0
SPLINE
  5
42
330
1F
100
AcDbEntity
  8
layer 1
 62
     7
370
    13
100
AcDbSpline
210
0.0
220
0.0
230
1.0
 70
    11
 71
     3
 72
    16
 73
    12
 74
     0
 42
0.0000000001
 43
0.0000000001
 12
1.0
 22
0.0
 32
0.0
 13
1.0
 23
0.0
 33
0.0
 40
0.0
 40
0.0
 40
0.0
 40
0.0
 40
0.25
 40
0.25
 40
0.25
 40
0.25
 40
0.5
 40
0.5
 40
0.5
 40
0.5
 40
1.0
 40
1.0
 40
1.0
 40
1.0
 10
-172.0187
 20
-93.1633
 30
0.0
 10
-168.8397
 20
-90.3321
 30
0.0
 10
-167.2005
 20
-85.4146
 30
0.0
 10
-169.4358
 20
-85.4146
 30
0.0
 10
-169.4358
 20
-85.4146
 30
0.0
 10
-172.267
 20
-85.4146
 30
0.0
 10
-177.1845
 20
-92.6666
 30
0.0
 10
-175.4956
 20
-94.3554
 30
0.0
 10
-175.4956
 20
-94.3554
 30
0.0
 10
-174.8002
 20
-95.0508
 30
0.0
 10
-173.8068
 20
-94.7031
 30
0.0
 10
-172.0187
 20
-93.1633
 30
0.0
  0
SPLINE
  5
43
330
1F
100
AcDbEntity
  8
layer 1
 62
     7
370
    13
100
AcDbSpline
210
0.0
220
0.0
230
1.0
 70
    11
 71
     3
 72
    24
 73
    20
 74
     0
 42
0.0000000001
 43
0.0000000001
 12
1.0
 22
0.0
 32
0.0
 13
1.0
 23
0.0
 33
0.0
 40
0.0
 40
0.0
 40
0.0
 40
0.0
 40
0.1666666666666667
 40
0.1666666666666667
 40
0.1666666666666667
 40
0.1666666666666667
 40
0.3333333333333333
 40
0.3333333333333333
 40
0.3333333333333333
 40
0.3333333333333333
 40
0.5
 40
0.5
 40
0.5
 40
0.5
 40
0.6666666666666666
 40
0.6666666666666666
 40
0.6666666666666666
 40
0.6666666666666666
 40
1.0
 40
1.0
 40
1.0
 40
1.0
 10
-179.1216
 20
-85.6133
 30
0.0
 10
-179.1713
 20
-85.5636
 30
0.0
 10
-179.9661
 20
-85.1662
 30
0.0
 10
-180.9098
 20
-84.6695
 30
0.0
 10
-180.9098
 20
-84.6695
 30
0.0
 10
-180.9098
 20
-84.6695
 30
0.0
 10
-182.5986
 20
-83.8251
 30
0.0
 10
-182.5986
 20
-83.8251
 30
0.0
 10
-182.5986
 20
-83.8251
 30
0.0
 10
-182.5986
 20
-83.8251
 30
0.0
 10
-182.5986
 20
-89.1896
 30
0.0
 10
-182.5986
 20
-89.1896
 30
0.0
 10
-182.5986
 20
-89.1896
 30
0.0
 10
-182.5986
 20
-89.1896
 30
0.0
 10
-180.8105
 20
-87.4511
 30
0.0
 10
-180.8105
 20
-87.4511
 30
0.0
 10
-180.8105
 20
-87.4511
 30
0.0
 10
-179.817
 20
-86.4577
 30
0.0
 10
-179.072
 20
-85.663
 30
0.0
 10
-179.1216
 20
-85.6133
 30
0.0
  0
SPLINE
  5
44
330
1F
100
AcDbEntity
  8
layer 1
 62
     7
370
    13
100
AcDbSpline
210
0.0
220
0.0
230
1.0
 70
    11
 71
     3
 72
    20
 73
    16
 74
     0
 42
0.0000000001
 43
0.0000000001
 12
1.0
 22
0.0
 32
0.0
 13
1.0
 23
0.0
 33
0.0
 40
0.0
 40
0.0
 40
0.0
 40
0.0
 40
0.2
 40
0.2
 40
0.2
 40
0.2
 40
0.4
 40
0.4
 40
0.4
 40
0.4
 40
0.6
 40
0.6
 40
0.6
 40
0.6
 40
1.0
 40
1.0
 40
1.0
 40
1.0
 10
-154.4847
 20
-82.633
 30
0.0
 10
-152.0011
 20
-81.5899
 30
0.0
 10
-151.3057
 20
-80.5468
 30
0.0
 10
-152.3488
 20
-79.5037
 30
0.0
 10
-152.3488
 20
-79.5037
 30
0.0
 10
-153.6403
 20
-78.1626
 30
0.0
 10
-156.5709
 20
-78.8083
 30
0.0
 10
-159.6008
 20
-81.1429
 30
0.0
 10
-159.6008
 20
-81.1429
 30
0.0
 10
-160.8426
 20
-82.0866
 30
0.0
 10
-160.9916
 20
-82.3847
 30
0.0
 10
-160.3459
 20
-82.782
 30
0.0
 10
-160.3459
 20
-82.782
 30
0.0
 10
-159.2531
 20
-83.5271
 30
0.0
 10
-156.4716
 20
-83.4774
 30
0.0
 10
-154.4847
 20
-82.633
 30
0.0
  0
SPLINE
  5
45
330
1F
100
AcDbEntity
  8
layer 1
 62
     7
370
    13
100
AcDbSpline
210
0.0
220
0.0
230
1.0
 70
    11
 71
     3
 72
    16
 73
    12
 74
     0
 42
0.0000000001
 43
0.0000000001
 12
1.0
 22
0.0
 32
0.0
 13
1.0
 23
0.0
 33
0.0
 40
0.0
 40
0.0
 40
0.0
 40
0.0
 40
0.25
 40
0.25
 40
0.25
 40
0.25
 40
0.5
 40
0.5
 40
0.5
 40
0.5
 40
1.0
 40
1.0
 40
1.0
 40
1.0
 10
-168.7404
 20
-81.5899
 30
0.0
 10
-169.0881
 20
-80.6462
 30
0.0
 10
-173.3598
 20
-78.6593
 30
0.0
 10
-175.1479
 20
-78.6593
 30
0.0
 10
-175.1479
 20
-78.6593
 30
0.0
 10
-177.4328
 20
-78.6593
 30
0.0
 10
-177.4328
 20
-79.9011
 30
0.0
 10
-175.1976
 20
-81.0932
 30
0.0
 10
-175.1976
 20
-81.0932
 30
0.0
 10
-172.2173
 20
-82.633
 30
0.0
 10
-168.2933
 20
-82.9807
 30
0.0
 10
-168.7404
 20
-81.5899
 30
0.0
  0
SPLINE
  5
46
330
1F
100
AcDbEntity
  8
layer 1
 62
     7
370
    13
100
AcDbSpline
210
0.0
220
0.0
230
1.0
 70
    11
 71
     3
 72
    16
 73
    12
 74
     0
 42
0.0000000001
 43
0.0000000001
 12
1.0
 22
0.0
 32
0.0
 13
1.0
 23
0.0
 33
0.0
 40
0.0
 40
0.0
 40
0.0
 40
0.0
 40
0.25
 40
0.25
 40
0.25
 40
0.25
 40
0.5
 40
0.5
 40
0.5
 40
0.5
 40
1.0
 40
1.0
 40
1.0
 40
1.0
 10
-161.9465
 20
-76.864
 30
0.0
 10
-161.1059
 20
-74.6501
 30
0.0
 10
-161.3405
 20
-71.2121
 30
0.0
 10
-162.364
 20
-71.0107
 30
0.0
 10
-162.364
 20
-71.0107
 30
0.0
 10
-164.1673
 20
-70.6559
 30
0.0
 10
-166.0684
 20
-76.4579
 30
0.0
 10
-164.8053
 20
-78.5289
 30
0.0
 10
-164.8053
 20
-78.5289
 30
0.0
 10
-163.9338
 20
-80.0166
 30
0.0
 10
-162.8935
 20
-79.3607
 30
0.0
 10
-161.9465
 20
-76.864
 30
0.0
  0
SPLINE
  5
47
330
1F
100
AcDbEntity
  8
layer 1
 62
     7
370
    13
100
AcDbSpline
210
0.0
220
0.0
230
1.0
 70
    11
 71
     3
 72
   120
 73
   116
 74
     0
 42
0.0000000001
 43
0.0000000001
 12
1.0
 22
0.0
 32
0.0
 13
1.0
 23
0.0
 33
0.0
 40
0.0
 40
0.0
 40
0.0
 40
0.0
 40
0.0333333333333333
 40
0.0333333333333333
 40
0.0333333333333333
 40
0.0333333333333333
 40
0.0666666666666667
 40
0.0666666666666667
 40
0.0666666666666667
 40
0.0666666666666667
 40
0.1
 40
0.1
 40
0.1
 40
0.1
 40
0.1333333333333333
 40
0.1333333333333333
 40
0.1333333333333333
 40
0.1333333333333333
 40
0.1666666666666667
 40
0.1666666666666667
 40
0.1666666666666667
 40
0.1666666666666667
 40
0.2
 40
0.2
 40
0.2
 40
0.2
 40
0.2333333333333333
 40
0.2333333333333333
 40
0.2333333333333333
 40
0.2333333333333333
 40
0.2666666666666667
 40
0.2666666666666667
 40
0.2666666666666667
 40
0.2666666666666667
 40
0.3
 40
0.3
 40
0.3
 40
0.3
 40
0.3333333333333333
 40
0.3333333333333333
 40
0.3333333333333333
 40
0.3333333333333333
 40
0.3666666666666666
 40
0.3666666666666666
 40
0.3666666666666666
 40
0.3666666666666666
 40
0.4
 40
0.4
 40
0.4
 40
0.4
 40
0.4333333333333333
 40
0.4333333333333333
 40
0.4333333333333333
 40
0.4333333333333333
 40
0.4666666666666667
 40
0.4666666666666667
 40
0.4666666666666667
 40
0.4666666666666667
 40
0.5
 40
0.5
 40
0.5
 40
0.5
 40
0.5333333333333333
 40
0.5333333333333333
 40
0.5333333333333333
 40
0.5333333333333333
 40
0.5666666666666667
 40
0.5666666666666667
 40
0.5666666666666667
 40
0.5666666666666667
 40
0.6
 40
0.6
 40
0.6
 40
0.6
 40
0.6333333333333333
 40
0.6333333333333333
 40
0.6333333333333333
 40
0.6333333333333333
 40
0.6666666666666666
 40
0.6666666666666666
 40
0.6666666666666666
 40
0.6666666666666666
 40
0.7
 40
0.7
 40
0.7
 40
0.7
 40
0.7333333333333333
 40
0.7333333333333333
 40
0.7333333333333333
 40
0.7333333333333333
 40
0.7666666666666667
 40
0.7666666666666667
 40
0.7666666666666667
 40
0.7666666666666667
 40
0.8
 40
0.8
 40
0.8
 40
0.8
 40
0.8333333333333334
 40
0.8333333333333334
 40
0.8333333333333334
 40
0.8333333333333334
 40
0.8666666666666667
 40
0.8666666666666667
 40
0.8666666666666667
 40
0.8666666666666667
 40
0.9
 40
0.9
 40
0.9
 40
0.9
 40
0.9333333333333333
 40
0.9333333333333333
 40
0.9333333333333333
 40
0.9333333333333333
 40
1.0
 40
1.0
 40
1.0
 40
1.0
 10
-98.0582
 20
-107.1209
 30
0.0
 10
-96.27
 20
-104.9851
 30
0.0
 10
-95.1276
 20
-101.8061
 30
0.0
 10
-95.1276
 20
-98.8755
 30
0.0
 10
-95.1276
 20
-98.8755
 30
0.0
 10
-95.1276
 20
-98.0311
 30
0.0
 10
-95.3759
 20
-97.286
 30
0.0
 10
-95.6739
 20
-97.286
 30
0.0
 10
-95.6739
 20
-97.286
 30
0.0
 10
-96.2115
 20
-97.286
 30
0.0
 10
-95.7084
 20
-101.0024
 30
0.0
 10
-100.2934
 20
-101.4584
 30
0.0
 10
-100.2934
 20
-101.4584
 30
0.0
 10
-102.4242
 20
-101.4584
 30
0.0
 10
-103.1125
 20
-100.1404
 30
0.0
 10
-104.0684
 20
-98.5775
 30
0.0
 10
-104.0684
 20
-98.5775
 30
0.0
 10
-101.9124
 20
-99.0853
 30
0.0
 10
-100.6157
 20
-98.5472
 30
0.0
 10
-99.2006
 20
-97.4847
 30
0.0
 10
-99.2006
 20
-97.4847
 30
0.0
 10
-97.2634
 20
-95.7462
 30
0.0
 10
-97.5615
 20
-91.4248
 30
0.0
 10
-99.9457
 20
-87.9975
 30
0.0
 10
-99.9457
 20
-87.9975
 30
0.0
 10
-101.5848
 20
-85.5636
 30
0.0
 10
-102.5783
 20
-85.3153
 30
0.0
 10
-101.6345
 20
-87.6001
 30
0.0
 10
-101.6345
 20
-87.6001
 30
0.0
 10
-101.1875
 20
-88.5936
 30
0.0
 10
-101.0881
 20
-89.6367
 30
0.0
 10
-101.3365
 20
-90.034
 30
0.0
 10
-101.3365
 20
-90.034
 30
0.0
 10
-101.6345
 20
-90.5307
 30
0.0
 10
-101.8332
 20
-90.4314
 30
0.0
 10
-102.0815
 20
-89.587
 30
0.0
 10
-102.0815
 20
-89.587
 30
0.0
 10
-102.6279
 20
-88.0472
 30
0.0
 10
-103.224
 20
-88.2459
 30
0.0
 10
-103.6213
 20
-90.1334
 30
0.0
 10
-103.6213
 20
-90.1334
 30
0.0
 10
-104.0684
 20
-92.3686
 30
0.0
 10
-105.3598
 20
-93.66
 30
0.0
 10
-107.0983
 20
-93.66
 30
0.0
 10
-107.0983
 20
-93.66
 30
0.0
 10
-107.0983
 20
-93.66
 30
0.0
 10
-108.5388
 20
-93.66
 30
0.0
 10
-108.5388
 20
-93.66
 30
0.0
 10
-108.5388
 20
-93.66
 30
0.0
 10
-108.5388
 20
-93.66
 30
0.0
 10
-107.4957
 20
-91.3752
 30
0.0
 10
-107.4957
 20
-91.3752
 30
0.0
 10
-107.4957
 20
-91.3752
 30
0.0
 10
-106.3533
 20
-88.7426
 30
0.0
 10
-106.6016
 20
-86.7061
 30
0.0
 10
-108.2408
 20
-85.8616
 30
0.0
 10
-108.2408
 20
-85.8616
 30
0.0
 10
-109.6316
 20
-85.0669
 30
0.0
 10
-117.0823
 20
-85.6133
 30
0.0
 10
-119.4665
 20
-86.6067
 30
0.0
 10
-119.4665
 20
-86.6067
 30
0.0
 10
-120.5096
 20
-87.0538
 30
0.0
 10
-121.6023
 20
-87.9975
 30
0.0
 10
-121.95
 20
-88.7426
 30
0.0
 10
-121.95
 20
-88.7426
 30
0.0
 10
-122.7945
 20
-90.6798
 30
0.0
 10
-122.7448
 20
-90.7791
 30
0.0
 10
-121.1553
 20
-89.6863
 30
0.0
 10
-121.1553
 20
-89.6863
 30
0.0
 10
-120.3606
 20
-89.1399
 30
0.0
 10
-119.2678
 20
-88.5439
 30
0.0
 10
-118.7711
 20
-88.3452
 30
0.0
 10
-118.7711
 20
-88.3452
 30
0.0
 10
-117.9267
 20
-88.0472
 30
0.0
 10
-117.9267
 20
-88.1465
 30
0.0
 10
-118.9201
 20
-89.3386
 30
0.0
 10
-118.9201
 20
-89.3386
 30
0.0
 10
-119.5161
 20
-90.0837
 30
0.0
 10
-119.9632
 20
-90.9778
 30
0.0
 10
-119.9632
 20
-91.2758
 30
0.0
 10
-119.9632
 20
-91.2758
 30
0.0
 10
-119.9632
 20
-91.6235
 30
0.0
 10
-120.6586
 20
-93.362
 30
0.0
 10
-121.5527
 20
-95.1998
 30
0.0
 10
-121.5527
 20
-95.1998
 30
0.0
 10
-121.5527
 20
-95.1998
 30
0.0
 10
-123.0925
 20
-98.5278
 30
0.0
 10
-123.0925
 20
-98.5278
 30
0.0
 10
-123.0925
 20
-98.5278
 30
0.0
 10
-123.0925
 20
-98.5278
 30
0.0
 10
-121.6023
 20
-100.3656
 30
0.0
 10
-121.6023
 20
-100.3656
 30
0.0
 10
-121.6023
 20
-100.3656
 30
0.0
 10
-117.728
 20
-105.2334
 30
0.0
 10
-112.3138
 20
-106.8229
 30
0.0
 10
-107.3467
 20
-104.6374
 30
0.0
 10
-107.3467
 20
-104.6374
 30
0.0
 10
-106.0552
 20
-104.0413
 30
0.0
 10
-104.9625
 20
-103.793
 30
0.0
 10
-104.9625
 20
-104.091
 30
0.0
 10
-104.9625
 20
-104.091
 30
0.0
 10
-104.9625
 20
-104.3393
 30
0.0
 10
-105.9062
 20
-105.6308
 30
0.0
 10
-107.0983
 20
-106.8726
 30
0.0
 10
-107.0983
 20
-106.8726
 30
0.0
 10
-107.0983
 20
-106.8726
 30
0.0
 10
-109.2342
 20
-109.2071
 30
0.0
 10
-109.2342
 20
-109.2071
 30
0.0
 10
-109.2342
 20
-109.2071
 30
0.0
 10
-109.2342
 20
-109.2071
 30
0.0
 10
-99.896
 20
-109.2071
 30
0.0
 10
-99.896
 20
-109.2071
 30
0.0
 10
-99.896
 20
-109.2071
 30
0.0
 10
-99.896
 20
-109.2071
 30
0.0
 10
-98.0582
 20
-107.1209
 30
0.0
 10
-98.0582
 20
-107.1209
 30
0.0
  0
SPLINE
  5
48
330
1F
100
AcDbEntity
  8
layer 1
 62
     7
370
    13
100
AcDbSpline
210
0.0
220
0.0
230
1.0
 70
    11
 71
     3
 72
    72
 73
    68
 74
     0
 42
0.0000000001
 43
0.0000000001
 12
1.0
 22
0.0
 32
0.0
 13
1.0
 23
0.0
 33
0.0
 40
0.0
 40
0.0
 40
0.0
 40
0.0
 40
0.0555555555555556
 40
0.0555555555555556
 40
0.0555555555555556
 40
0.0555555555555556
 40
0.1111111111111111
 40
0.1111111111111111
 40
0.1111111111111111
 40
0.1111111111111111
 40
0.1666666666666667
 40
0.1666666666666667
 40
0.1666666666666667
 40
0.1666666666666667
 40
0.2222222222222222
 40
0.2222222222222222
 40
0.2222222222222222
 40
0.2222222222222222
 40
0.2777777777777778
 40
0.2777777777777778
 40
0.2777777777777778
 40
0.2777777777777778
 40
0.3333333333333333
 40
0.3333333333333333
 40
0.3333333333333333
 40
0.3333333333333333
 40
0.3888888888888889
 40
0.3888888888888889
 40
0.3888888888888889
 40
0.3888888888888889
 40
0.4444444444444444
 40
0.4444444444444444
 40
0.4444444444444444
 40
0.4444444444444444
 40
0.5
 40
0.5
 40
0.5
 40
0.5
 40
0.5555555555555556
 40
0.5555555555555556
 40
0.5555555555555556
 40
0.5555555555555556
 40
0.6111111111111112
 40
0.6111111111111112
 40
0.6111111111111112
 40
0.6111111111111112
 40
0.6666666666666666
 40
0.6666666666666666
 40
0.6666666666666666
 40
0.6666666666666666
 40
0.7222222222222222
 40
0.7222222222222222
 40
0.7222222222222222
 40
0.7222222222222222
 40
0.7777777777777778
 40
0.7777777777777778
 40
0.7777777777777778
 40
0.7777777777777778
 40
0.8333333333333334
 40
0.8333333333333334
 40
0.8333333333333334
 40
0.8333333333333334
 40
0.8888888888888888
 40
0.8888888888888888
 40
0.8888888888888888
 40
0.8888888888888888
 40
1.0
 40
1.0
 40
1.0
 40
1.0
 10
-68.7521
 20
-102.4518
 30
0.0
 10
-68.7521
 20
-102.4518
 30
0.0
 10
-68.7521
 20
-95.7462
 30
0.0
 10
-68.7521
 20
-95.7462
 30
0.0
 10
-68.7521
 20
-95.7462
 30
0.0
 10
-68.7521
 20
-95.7462
 30
0.0
 10
-70.2423
 20
-96.4913
 30
0.0
 10
-70.2423
 20
-96.4913
 30
0.0
 10
-70.2423
 20
-96.4913
 30
0.0
 10
-71.037
 20
-96.9383
 30
0.0
 10
-72.3781
 20
-97.8324
 30
0.0
 10
-73.2225
 20
-98.5278
 30
0.0
 10
-73.2225
 20
-98.5278
 30
0.0
 10
-75.1597
 20
-100.167
 30
0.0
 10
-77.5936
 20
-101.3591
 30
0.0
 10
-79.9778
 20
-101.9055
 30
0.0
 10
-79.9778
 20
-101.9055
 30
0.0
 10
-81.6667
 20
-102.2532
 30
0.0
 10
-81.766
 20
-102.4022
 30
0.0
 10
-80.9216
 20
-102.7499
 30
0.0
 10
-80.9216
 20
-102.7499
 30
0.0
 10
-79.6798
 20
-103.2466
 30
0.0
 10
-78.0407
 20
-104.538
 30
0.0
 10
-78.0407
 20
-105.0844
 30
0.0
 10
-78.0407
 20
-105.0844
 30
0.0
 10
-78.0407
 20
-105.2831
 30
0.0
 10
-79.1334
 20
-104.8857
 30
0.0
 10
-80.4745
 20
-104.24
 30
0.0
 10
-80.4745
 20
-104.24
 30
0.0
 10
-82.7098
 20
-103.0976
 30
0.0
 10
-84.7959
 20
-102.6505
 30
0.0
 10
-84.7959
 20
-103.2963
 30
0.0
 10
-84.7959
 20
-103.2963
 30
0.0
 10
-84.7959
 20
-103.4453
 30
0.0
 10
-84.3986
 20
-104.091
 30
0.0
 10
-83.9515
 20
-104.7864
 30
0.0
 10
-83.9515
 20
-104.7864
 30
0.0
 10
-83.9515
 20
-104.7864
 30
0.0
 10
-83.1568
 20
-106.0778
 30
0.0
 10
-83.1568
 20
-106.0778
 30
0.0
 10
-83.1568
 20
-106.0778
 30
0.0
 10
-83.1568
 20
-106.0778
 30
0.0
 10
-86.3854
 20
-104.7864
 30
0.0
 10
-86.3854
 20
-104.7864
 30
0.0
 10
-86.3854
 20
-104.7864
 30
0.0
 10
-88.1736
 20
-104.091
 30
0.0
 10
-90.1604
 20
-102.9982
 30
0.0
 10
-90.8558
 20
-102.4022
 30
0.0
 10
-90.8558
 20
-102.4022
 30
0.0
 10
-91.8989
 20
-101.4087
 30
0.0
 10
-92.0479
 20
-101.3591
 30
0.0
 10
-92.0479
 20
-102.1538
 30
0.0
 10
-92.0479
 20
-102.1538
 30
0.0
 10
-92.0479
 20
-103.6936
 30
0.0
 10
-90.6075
 20
-105.9288
 30
0.0
 10
-88.571
 20
-107.6177
 30
0.0
 10
-88.571
 20
-107.6177
 30
0.0
 10
-88.571
 20
-107.6177
 30
0.0
 10
-86.6338
 20
-109.2071
 30
0.0
 10
-86.6338
 20
-109.2071
 30
0.0
 10
-86.6338
 20
-109.2071
 30
0.0
 10
-86.6338
 20
-109.2071
 30
0.0
 10
-68.7521
 20
-109.2071
 30
0.0
 10
-68.7521
 20
-109.2071
 30
0.0
 10
-68.7521
 20
-109.2071
 30
0.0
 10
-68.7521
 20
-109.2071
 30
0.0
 10
-68.7521
 20
-102.4518
 30
0.0
 10
-68.7521
 20
-102.4518
 30
0.0
  0
SPLINE
  5
49
330
1F
100
AcDbEntity
  8
layer 1
 62
     7
370
    13
100
AcDbSpline
210
0.0
220
0.0
230
1.0
 70
    11
 71
     3
 72
    56
 73
    52
 74
     0
 42
0.0000000001
 43
0.0000000001
 12
1.0
 22
0.0
 32
0.0
 13
1.0
 23
0.0
 33
0.0
 40
0.0
 40
0.0
 40
0.0
 40
0.0
 40
0.0714285714285714
 40
0.0714285714285714
 40
0.0714285714285714
 40
0.0714285714285714
 40
0.1428571428571428
 40
0.1428571428571428
 40
0.1428571428571428
 40
0.1428571428571428
 40
0.2142857142857143
 40
0.2142857142857143
 40
0.2142857142857143
 40
0.2142857142857143
 40
0.2857142857142857
 40
0.2857142857142857
 40
0.2857142857142857
 40
0.2857142857142857
 40
0.3571428571428572
 40
0.3571428571428572
 40
0.3571428571428572
 40
0.3571428571428572
 40
0.4285714285714285
 40
0.4285714285714285
 40
0.4285714285714285
 40
0.4285714285714285
 40
0.5
 40
0.5
 40
0.5
 40
0.5
 40
0.5714285714285714
 40
0.5714285714285714
 40
0.5714285714285714
 40
0.5714285714285714
 40
0.6428571428571429
 40
0.6428571428571429
 40
0.6428571428571429
 40
0.6428571428571429
 40
0.7142857142857143
 40
0.7142857142857143
 40
0.7142857142857143
 40
0.7142857142857143
 40
0.7857142857142857
 40
0.7857142857142857
 40
0.7857142857142857
 40
0.7857142857142857
 40
0.8571428571428571
 40
0.8571428571428571
 40
0.8571428571428571
 40
0.8571428571428571
 40
1.0
 40
1.0
 40
1.0
 40
1.0
 10
-82.213
 20
-99.1239
 30
0.0
 10
-81.0209
 20
-98.6768
 30
0.0
 10
-79.5308
 20
-98.4781
 30
0.0
 10
-78.9347
 20
-98.5775
 30
0.0
 10
-78.9347
 20
-98.5775
 30
0.0
 10
-78.0903
 20
-98.7762
 30
0.0
 10
-77.5439
 20
-98.4285
 30
0.0
 10
-76.7492
 20
-97.1867
 30
0.0
 10
-76.7492
 20
-97.1867
 30
0.0
 10
-75.9048
 20
-95.8456
 30
0.0
 10
-75.3584
 20
-95.4979
 30
0.0
 10
-74.0173
 20
-95.4979
 30
0.0
 10
-74.0173
 20
-95.4979
 30
0.0
 10
-73.1232
 20
-95.4979
 30
0.0
 10
-72.3781
 20
-95.2992
 30
0.0
 10
-72.3781
 20
-95.1005
 30
0.0
 10
-72.3781
 20
-95.1005
 30
0.0
 10
-72.3781
 20
-94.9018
 30
0.0
 10
-71.5337
 20
-94.3058
 30
0.0
 10
-70.5403
 20
-93.8587
 30
0.0
 10
-70.5403
 20
-93.8587
 30
0.0
 10
-70.5403
 20
-93.8587
 30
0.0
 10
-68.7521
 20
-92.9646
 30
0.0
 10
-68.7521
 20
-92.9646
 30
0.0
 10
-68.7521
 20
-92.9646
 30
0.0
 10
-68.7521
 20
-92.9646
 30
0.0
 10
-68.7521
 20
-83.1297
 30
0.0
 10
-68.7521
 20
-83.1297
 30
0.0
 10
-68.7521
 20
-83.1297
 30
0.0
 10
-68.7521
 20
-83.1297
 30
0.0
 10
-71.0867
 20
-85.4146
 30
0.0
 10
-71.0867
 20
-85.4146
 30
0.0
 10
-71.0867
 20
-85.4146
 30
0.0
 10
-72.4278
 20
-86.7061
 30
0.0
 10
-74.2656
 20
-88.8916
 30
0.0
 10
-75.2094
 20
-90.3321
 30
0.0
 10
-75.2094
 20
-90.3321
 30
0.0
 10
-79.8288
 20
-97.1867
 30
0.0
 10
-84.3986
 20
-99.1735
 30
0.0
 10
-90.4088
 20
-97.0873
 30
0.0
 10
-90.4088
 20
-97.0873
 30
0.0
 10
-91.6009
 20
-96.6403
 30
0.0
 10
-92.5447
 20
-96.4913
 30
0.0
 10
-92.5447
 20
-96.7396
 30
0.0
 10
-92.5447
 20
-96.7396
 30
0.0
 10
-92.5447
 20
-97.2364
 30
0.0
 10
-90.4585
 20
-99.1735
 30
0.0
 10
-89.465
 20
-99.5212
 30
0.0
 10
-89.465
 20
-99.5212
 30
0.0
 10
-87.9252
 20
-100.0676
 30
0.0
 10
-84.3489
 20
-99.8689
 30
0.0
 10
-82.213
 20
-99.1239
 30
0.0
  0
SPLINE
  5
4A
330
1F
100
AcDbEntity
  8
layer 1
 62
     7
370
    13
100
AcDbSpline
210
0.0
220
0.0
230
1.0
 70
    11
 71
     3
 72
    36
 73
    32
 74
     0
 42
0.0000000001
 43
0.0000000001
 12
1.0
 22
0.0
 32
0.0
 13
1.0
 23
0.0
 33
0.0
 40
0.0
 40
0.0
 40
0.0
 40
0.0
 40
0.1111111111111111
 40
0.1111111111111111
 40
0.1111111111111111
 40
0.1111111111111111
 40
0.2222222222222222
 40
0.2222222222222222
 40
0.2222222222222222
 40
0.2222222222222222
 40
0.3333333333333333
 40
0.3333333333333333
 40
0.3333333333333333
 40
0.3333333333333333
 40
0.4444444444444444
 40
0.4444444444444444
 40
0.4444444444444444
 40
0.4444444444444444
 40
0.5555555555555556
 40
0.5555555555555556
 40
0.5555555555555556
 40
0.5555555555555556
 40
0.6666666666666666
 40
0.6666666666666666
 40
0.6666666666666666
 40
0.6666666666666666
 40
0.7777777777777778
 40
0.7777777777777778
 40
0.7777777777777778
 40
0.7777777777777778
 40
1.0
 40
1.0
 40
1.0
 40
1.0
 10
-81.8653
 20
-94.7528
 30
0.0
 10
-79.4811
 20
-93.66
 30
0.0
 10
-78.0407
 20
-91.5738
 30
0.0
 10
-78.0407
 20
-89.1896
 30
0.0
 10
-78.0407
 20
-89.1896
 30
0.0
 10
-78.0407
 20
-89.1896
 30
0.0
 10
-78.0407
 20
-87.7492
 30
0.0
 10
-78.0407
 20
-87.7492
 30
0.0
 10
-78.0407
 20
-87.7492
 30
0.0
 10
-78.0407
 20
-87.7492
 30
0.0
 10
-78.9844
 20
-89.5373
 30
0.0
 10
-78.9844
 20
-89.5373
 30
0.0
 10
-78.9844
 20
-89.5373
 30
0.0
 10
-80.3255
 20
-92.2196
 30
0.0
 10
-83.3555
 20
-93.7594
 30
0.0
 10
-86.8821
 20
-93.5607
 30
0.0
 10
-86.8821
 20
-93.5607
 30
0.0
 10
-89.316
 20
-93.4117
 30
0.0
 10
-90.3591
 20
-92.9646
 30
0.0
 10
-93.3394
 20
-90.9778
 30
0.0
 10
-93.3394
 20
-90.9778
 30
0.0
 10
-95.2766
 20
-89.6367
 30
0.0
 10
-97.0151
 20
-88.6432
 30
0.0
 10
-97.1144
 20
-88.7426
 30
0.0
 10
-97.1144
 20
-88.7426
 30
0.0
 10
-97.2138
 20
-88.8419
 30
0.0
 10
-96.6674
 20
-89.7857
 30
0.0
 10
-95.9223
 20
-90.7791
 30
0.0
 10
-95.9223
 20
-90.7791
 30
0.0
 10
-92.3956
 20
-95.3985
 30
0.0
 10
-86.7828
 20
-96.988
 30
0.0
 10
-81.8653
 20
-94.7528
 30
0.0
  0
SPLINE
  5
4B
330
1F
100
AcDbEntity
  8
layer 1
 62
     7
370
    13
100
AcDbSpline
210
0.0
220
0.0
230
1.0
 70
    11
 71
     3
 72
    24
 73
    20
 74
     0
 42
0.0000000001
 43
0.0000000001
 12
1.0
 22
0.0
 32
0.0
 13
1.0
 23
0.0
 33
0.0
 40
0.0
 40
0.0
 40
0.0
 40
0.0
 40
0.1666666666666667
 40
0.1666666666666667
 40
0.1666666666666667
 40
0.1666666666666667
 40
0.3333333333333333
 40
0.3333333333333333
 40
0.3333333333333333
 40
0.3333333333333333
 40
0.5
 40
0.5
 40
0.5
 40
0.5
 40
0.6666666666666666
 40
0.6666666666666666
 40
0.6666666666666666
 40
0.6666666666666666
 40
1.0
 40
1.0
 40
1.0
 40
1.0
 10
-71.186
 20
-78.411
 30
0.0
 10
-71.037
 20
-76.8215
 30
0.0
 10
-70.3913
 20
-74.4869
 30
0.0
 10
-69.7952
 20
-73.2451
 30
0.0
 10
-69.7952
 20
-73.2451
 30
0.0
 10
-69.1495
 20
-71.904
 30
0.0
 10
-68.7521
 20
-70.2649
 30
0.0
 10
-68.8515
 20
-69.2714
 30
0.0
 10
-68.8515
 20
-69.2714
 30
0.0
 10
-69.0005
 20
-67.533
 30
0.0
 10
-69.0005
 20
-67.5826
 30
0.0
 10
-70.4906
 20
-70.5629
 30
0.0
 10
-70.4906
 20
-70.5629
 30
0.0
 10
-71.6331
 20
-72.7981
 30
0.0
 10
-72.0801
 20
-74.5863
 30
0.0
 10
-72.2788
 20
-77.4175
 30
0.0
 10
-72.2788
 20
-77.4175
 30
0.0
 10
-72.5271
 20
-81.9376
 30
0.0
 10
-71.6331
 20
-82.782
 30
0.0
 10
-71.186
 20
-78.411
 30
0.0
  0
SPLINE
  5
4C
330
1F
100
AcDbEntity
  8
layer 1
 62
     7
370
    13
100
AcDbSpline
210
0.0
220
0.0
230
1.0
 70
    11
 71
     3
 72
    52
 73
    48
 74
     0
 42
0.0000000001
 43
0.0000000001
 12
1.0
 22
0.0
 32
0.0
 13
1.0
 23
0.0
 33
0.0
 40
0.0
 40
0.0
 40
0.0
 40
0.0
 40
0.0769230769230769
 40
0.0769230769230769
 40
0.0769230769230769
 40
0.0769230769230769
 40
0.1538461538461539
 40
0.1538461538461539
 40
0.1538461538461539
 40
0.1538461538461539
 40
0.2307692307692308
 40
0.2307692307692308
 40
0.2307692307692308
 40
0.2307692307692308
 40
0.3076923076923077
 40
0.3076923076923077
 40
0.3076923076923077
 40
0.3076923076923077
 40
0.3846153846153846
 40
0.3846153846153846
 40
0.3846153846153846
 40
0.3846153846153846
 40
0.4615384615384616
 40
0.4615384615384616
 40
0.4615384615384616
 40
0.4615384615384616
 40
0.5384615384615384
 40
0.5384615384615384
 40
0.5384615384615384
 40
0.5384615384615384
 40
0.6153846153846154
 40
0.6153846153846154
 40
0.6153846153846154
 40
0.6153846153846154
 40
0.6923076923076923
 40
0.6923076923076923
 40
0.6923076923076923
 40
0.6923076923076923
 40
0.7692307692307693
 40
0.7692307692307693
 40
0.7692307692307693
 40
0.7692307692307693
 40
0.8461538461538461
 40
0.8461538461538461
 40
0.8461538461538461
 40
0.8461538461538461
 40
1.0
 40
1.0
 40
1.0
 40
1.0
 10
-159.7002
 20
-108.2137
 30
0.0
 10
-157.9617
 20
-106.8229
 30
0.0
 10
-151.8025
 20
-98.1304
 30
0.0
 10
-152.8456
 20
-98.5278
 30
0.0
 10
-152.8456
 20
-98.5278
 30
0.0
 10
-153.2926
 20
-98.7265
 30
0.0
 10
-154.3357
 20
-98.8755
 30
0.0
 10
-155.1304
 20
-98.8755
 30
0.0
 10
-155.1304
 20
-98.8755
 30
0.0
 10
-156.2729
 20
-98.8755
 30
0.0
 10
-156.6702
 20
-99.1735
 30
0.0
 10
-156.9186
 20
-100.167
 30
0.0
 10
-156.9186
 20
-100.167
 30
0.0
 10
-157.6637
 20
-103.0976
 30
0.0
 10
-162.1341
 20
-103.1472
 30
0.0
 10
-164.8163
 20
-100.2663
 30
0.0
 10
-164.8163
 20
-100.2663
 30
0.0
 10
-165.7104
 20
-99.3722
 30
0.0
 10
-166.6045
 20
-98.0311
 30
0.0
 10
-166.8032
 20
-97.3357
 30
0.0
 10
-166.8032
 20
-97.3357
 30
0.0
 10
-167.2005
 20
-96.0939
 30
0.0
 10
-167.2005
 20
-96.1436
 30
0.0
 10
-169.0384
 20
-98.3291
 30
0.0
 10
-169.0384
 20
-98.3291
 30
0.0
 10
-172.4657
 20
-102.4518
 30
0.0
 10
-176.191
 20
-102.7499
 30
0.0
 10
-177.9295
 20
-98.9749
 30
0.0
 10
-177.9295
 20
-98.9749
 30
0.0
 10
-178.4759
 20
-97.7827
 30
0.0
 10
-179.0223
 20
-97.3357
 30
0.0
 10
-180.0157
 20
-97.3357
 30
0.0
 10
-180.0157
 20
-97.3357
 30
0.0
 10
-180.7608
 20
-97.286
 30
0.0
 10
-182.3006
 20
-96.839
 30
0.0
 10
-182.5986
 20
-96.4913
 30
0.0
 10
-182.5986
 20
-96.4913
 30
0.0
 10
-182.5986
 20
-96.4913
 30
0.0
 10
-182.5986
 20
-109.2071
 30
0.0
 10
-182.5986
 20
-109.2071
 30
0.0
 10
-182.5986
 20
-109.2071
 30
0.0
 10
-182.5986
 20
-109.2071
 30
0.0
 10
-171.7703
 20
-109.2071
 30
0.0
 10
-171.7703
 20
-109.2071
 30
0.0
 10
-171.7703
 20
-109.2071
 30
0.0
 10
-161.8361
 20
-109.2071
 30
0.0
 10
-160.8923
 20
-109.1078
 30
0.0
 10
-159.7002
 20
-108.2137
 30
0.0
  0
SPLINE
  5
4D
330
1F
100
AcDbEntity
  8
layer 1
 62
     7
370
    13
100
AcDbSpline
210
0.0
220
0.0
230
1.0
 70
    11
 71
     3
 72
    24
 73
    20
 74
     0
 42
0.0000000001
 43
0.0000000001
 12
1.0
 22
0.0
 32
0.0
 13
1.0
 23
0.0
 33
0.0
 40
0.0
 40
0.0
 40
0.0
 40
0.0
 40
0.1666666666666667
 40
0.1666666666666667
 40
0.1666666666666667
 40
0.1666666666666667
 40
0.3333333333333333
 40
0.3333333333333333
 40
0.3333333333333333
 40
0.3333333333333333
 40
0.5
 40
0.5
 40
0.5
 40
0.5
 40
0.6666666666666666
 40
0.6666666666666666
 40
0.6666666666666666
 40
0.6666666666666666
 40
1.0
 40
1.0
 40
1.0
 40
1.0
 10
-145.8419
 20
-106.0778
 30
0.0
 10
-144.0041
 20
-104.389
 30
0.0
 10
-142.812
 20
-103.0479
 30
0.0
 10
-143.259
 20
-102.9982
 30
0.0
 10
-143.259
 20
-102.9982
 30
0.0
 10
-151.2064
 20
-106.0778
 30
0.0
 10
-149.2692
 20
-105.0347
 30
0.0
 10
-156.7696
 20
-109.2071
 30
0.0
 10
-156.7696
 20
-109.2071
 30
0.0
 10
-156.7696
 20
-109.2071
 30
0.0
 10
-152.8456
 20
-109.1575
 30
0.0
 10
-152.8456
 20
-109.1575
 30
0.0
 10
-152.8456
 20
-109.1575
 30
0.0
 10
-152.8456
 20
-109.1575
 30
0.0
 10
-149.2196
 20
-109.1575
 30
0.0
 10
-149.2196
 20
-109.1575
 30
0.0
 10
-149.2196
 20
-109.1575
 30
0.0
 10
-149.2196
 20
-109.1575
 30
0.0
 10
-145.8419
 20
-106.0778
 30
0.0
 10
-145.8419
 20
-106.0778
 30
0.0
  0
SPLINE
  5
4E
330
1F
100
AcDbEntity
  8
layer 1
 62
     7
370
    13
100
AcDbSpline
210
0.0
220
0.0
230
1.0
 70
    11
 71
     3
 72
    36
 73
    32
 74
     0
 42
0.0000000001
 43
0.0000000001
 12
1.0
 22
0.0
 32
0.0
 13
1.0
 23
0.0
 33
0.0
 40
0.0
 40
0.0
 40
0.0
 40
0.0
 40
0.1111111111111111
 40
0.1111111111111111
 40
0.1111111111111111
 40
0.1111111111111111
 40
0.2222222222222222
 40
0.2222222222222222
 40
0.2222222222222222
 40
0.2222222222222222
 40
0.3333333333333333
 40
0.3333333333333333
 40
0.3333333333333333
 40
0.3333333333333333
 40
0.4444444444444444
 40
0.4444444444444444
 40
0.4444444444444444
 40
0.4444444444444444
 40
0.5555555555555556
 40
0.5555555555555556
 40
0.5555555555555556
 40
0.5555555555555556
 40
0.6666666666666666
 40
0.6666666666666666
 40
0.6666666666666666
 40
0.6666666666666666
 40
0.7777777777777778
 40
0.7777777777777778
 40
0.7777777777777778
 40
0.7777777777777778
 40
1.0
 40
1.0
 40
1.0
 40
1.0
 10
-122.5461
 20
-107.866
 30
0.0
 10
-123.8375
 20
-107.1706
 30
0.0
 10
-125.7251
 20
-105.6805
 30
0.0
 10
-126.7185
 20
-104.538
 30
0.0
 10
-126.7185
 20
-104.538
 30
0.0
 10
-126.7185
 20
-104.538
 30
0.0
 10
-128.5066
 20
-102.5015
 30
0.0
 10
-128.5066
 20
-102.5015
 30
0.0
 10
-128.5066
 20
-102.5015
 30
0.0
 10
-128.5066
 20
-102.5015
 30
0.0
 10
-131.3876
 20
-104.24
 30
0.0
 10
-131.3876
 20
-104.24
 30
0.0
 10
-131.3876
 20
-104.24
 30
0.0
 10
-132.9274
 20
-105.1838
 30
0.0
 10
-136.0567
 20
-106.6739
 30
0.0
 10
-138.3416
 20
-107.568
 30
0.0
 10
-138.3416
 20
-107.568
 30
0.0
 10
-138.3416
 20
-107.568
 30
0.0
 10
-142.4643
 20
-109.1575
 30
0.0
 10
-142.4643
 20
-109.1575
 30
0.0
 10
-142.4643
 20
-109.1575
 30
0.0
 10
-142.4643
 20
-109.1575
 30
0.0
 10
-131.3379
 20
-109.1575
 30
0.0
 10
-131.3379
 20
-109.1575
 30
0.0
 10
-131.3379
 20
-109.1575
 30
0.0
 10
-131.3379
 20
-109.1575
 30
0.0
 10
-120.2115
 20
-109.2071
 30
0.0
 10
-120.2115
 20
-109.2071
 30
0.0
 10
-120.2115
 20
-109.2071
 30
0.0
 10
-120.2115
 20
-109.2071
 30
0.0
 10
-122.5461
 20
-107.866
 30
0.0
 10
-122.5461
 20
-107.866
 30
0.0
  0
SPLINE
  5
4F
330
1F
100
AcDbEntity
  8
layer 1
 62
     7
370
    13
100
AcDbSpline
210
0.0
220
0.0
230
1.0
 70
    11
 71
     3
 72
    76
 73
    72
 74
     0
 42
0.0000000001
 43
0.0000000001
 12
1.0
 22
0.0
 32
0.0
 13
1.0
 23
0.0
 33
0.0
 40
0.0
 40
0.0
 40
0.0
 40
0.0
 40
0.0526315789473684
 40
0.0526315789473684
 40
0.0526315789473684
 40
0.0526315789473684
 40
0.1052631578947368
 40
0.1052631578947368
 40
0.1052631578947368
 40
0.1052631578947368
 40
0.1578947368421053
 40
0.1578947368421053
 40
0.1578947368421053
 40
0.1578947368421053
 40
0.2105263157894737
 40
0.2105263157894737
 40
0.2105263157894737
 40
0.2105263157894737
 40
0.2631578947368421
 40
0.2631578947368421
 40
0.2631578947368421
 40
0.2631578947368421
 40
0.3157894736842105
 40
0.3157894736842105
 40
0.3157894736842105
 40
0.3157894736842105
 40
0.3684210526315789
 40
0.3684210526315789
 40
0.3684210526315789
 40
0.3684210526315789
 40
0.4210526315789473
 40
0.4210526315789473
 40
0.4210526315789473
 40
0.4210526315789473
 40
0.4736842105263158
 40
0.4736842105263158
 40
0.4736842105263158
 40
0.4736842105263158
 40
0.5263157894736842
 40
0.5263157894736842
 40
0.5263157894736842
 40
0.5263157894736842
 40
0.5789473684210527
 40
0.5789473684210527
 40
0.5789473684210527
 40
0.5789473684210527
 40
0.631578947368421
 40
0.631578947368421
 40
0.631578947368421
 40
0.631578947368421
 40
0.6842105263157895
 40
0.6842105263157895
 40
0.6842105263157895
 40
0.6842105263157895
 40
0.7368421052631579
 40
0.7368421052631579
 40
0.7368421052631579
 40
0.7368421052631579
 40
0.7894736842105263
 40
0.7894736842105263
 40
0.7894736842105263
 40
0.7894736842105263
 40
0.8421052631578947
 40
0.8421052631578947
 40
0.8421052631578947
 40
0.8421052631578947
 40
0.8947368421052632
 40
0.8947368421052632
 40
0.8947368421052632
 40
0.8947368421052632
 40
1.0
 40
1.0
 40
1.0
 40
1.0
 10
-148.1765
 20
-95.2495
 30
0.0
 10
-148.0274
 20
-94.9515
 30
0.0
 10
-145.3452
 20
-93.9581
 30
0.0
 10
-142.2656
 20
-92.9646
 30
0.0
 10
-142.2656
 20
-92.9646
 30
0.0
 10
-131.5366
 20
-89.587
 30
0.0
 10
-128.308
 20
-86.9047
 30
0.0
 10
-127.4635
 20
-80.6462
 30
0.0
 10
-127.4635
 20
-80.6462
 30
0.0
 10
-127.4635
 20
-80.6462
 30
0.0
 10
-127.1158
 20
-78.411
 30
0.0
 10
-127.1158
 20
-78.411
 30
0.0
 10
-127.1158
 20
-78.411
 30
0.0
 10
-127.1158
 20
-78.411
 30
0.0
 10
-128.5066
 20
-80.0998
 30
0.0
 10
-128.5066
 20
-80.0998
 30
0.0
 10
-128.5066
 20
-80.0998
 30
0.0
 10
-129.6988
 20
-81.5899
 30
0.0
 10
-132.232
 20
-83.3284
 30
0.0
 10
-133.1261
 20
-83.3284
 30
0.0
 10
-133.1261
 20
-83.3284
 30
0.0
 10
-133.2751
 20
-83.3284
 30
0.0
 10
-133.4241
 20
-82.8317
 30
0.0
 10
-133.4241
 20
-82.2853
 30
0.0
 10
-133.4241
 20
-82.2853
 30
0.0
 10
-133.4241
 20
-81.4409
 30
0.0
 10
-135.2123
 20
-76.4738
 30
0.0
 10
-135.8083
 20
-75.6294
 30
0.0
 10
-135.8083
 20
-75.6294
 30
0.0
 10
-135.9077
 20
-75.53
 30
0.0
 10
-136.7521
 20
-76.0764
 30
0.0
 10
-137.7455
 20
-76.8711
 30
0.0
 10
-137.7455
 20
-76.8711
 30
0.0
 10
-140.08
 20
-78.6096
 30
0.0
 10
-143.0603
 20
-79.0567
 30
0.0
 10
-145.1962
 20
-77.9639
 30
0.0
 10
-145.1962
 20
-77.9639
 30
0.0
 10
-146.6366
 20
-77.2188
 30
0.0
 10
-146.7857
 20
-77.2188
 30
0.0
 10
-147.0837
 20
-77.9639
 30
0.0
 10
-147.0837
 20
-77.9639
 30
0.0
 10
-147.2824
 20
-78.4606
 30
0.0
 10
-146.9347
 20
-79.156
 30
0.0
 10
-146.0903
 20
-79.8018
 30
0.0
 10
-146.0903
 20
-79.8018
 30
0.0
 10
-144.6001
 20
-80.9939
 30
0.0
 10
-144.5008
 20
-81.8383
 30
0.0
 10
-145.6432
 20
-83.8748
 30
0.0
 10
-145.6432
 20
-83.8748
 30
0.0
 10
-146.5373
 20
-85.3153
 30
0.0
 10
-149.7659
 20
-87.4511
 30
0.0
 10
-151.1071
 20
-87.5008
 30
0.0
 10
-151.1071
 20
-87.5008
 30
0.0
 10
-151.4548
 20
-87.5008
 30
0.0
 10
-152.1502
 20
-87.6995
 30
0.0
 10
-152.5475
 20
-87.9478
 30
0.0
 10
-152.5475
 20
-87.9478
 30
0.0
 10
-153.1933
 20
-88.3949
 30
0.0
 10
-153.1436
 20
-88.6432
 30
0.0
 10
-152.1005
 20
-89.7857
 30
0.0
 10
-152.1005
 20
-89.7857
 30
0.0
 10
-151.2064
 20
-90.7294
 30
0.0
 10
-150.7594
 20
-91.8719
 30
0.0
 10
-150.6103
 20
-93.9084
 30
0.0
 10
-150.6103
 20
-93.9084
 30
0.0
 10
-150.4117
 20
-96.4913
 30
0.0
 10
-150.2626
 20
-96.69
 30
0.0
 10
-149.4182
 20
-96.2429
 30
0.0
 10
-149.4182
 20
-96.2429
 30
0.0
 10
-148.9215
 20
-95.9946
 30
0.0
 10
-148.3255
 20
-95.4979
 30
0.0
 10
-148.1765
 20
-95.2495
 30
0.0
  0
SPLINE
  5
50
330
1F
100
AcDbEntity
  8
layer 1
 62
     7
370
    13
100
AcDbSpline
210
0.0
220
0.0
230
1.0
 70
    11
 71
     3
 72
    40
 73
    36
 74
     0
 42
0.0000000001
 43
0.0000000001
 12
1.0
 22
0.0
 32
0.0
 13
1.0
 23
0.0
 33
0.0
 40
0.0
 40
0.0
 40
0.0
 40
0.0
 40
0.1
 40
0.1
 40
0.1
 40
0.1
 40
0.2
 40
0.2
 40
0.2
 40
0.2
 40
0.3
 40
0.3
 40
0.3
 40
0.3
 40
0.4
 40
0.4
 40
0.4
 40
0.4
 40
0.5
 40
0.5
 40
0.5
 40
0.5
 40
0.6
 40
0.6
 40
0.6
 40
0.6
 40
0.7
 40
0.7
 40
0.7
 40
0.7
 40
0.8
 40
0.8
 40
0.8
 40
0.8
 40
1.0
 40
1.0
 40
1.0
 40
1.0
 10
-154.8821
 20
-73.4438
 30
0.0
 10
-154.6337
 20
-73.0961
 30
0.0
 10
-153.4913
 20
-72.9471
 30
0.0
 10
-151.8025
 20
-73.0961
 30
0.0
 10
-151.8025
 20
-73.0961
 30
0.0
 10
-151.8025
 20
-73.0961
 30
0.0
 10
-149.1202
 20
-73.2948
 30
0.0
 10
-149.1202
 20
-73.2948
 30
0.0
 10
-149.1202
 20
-73.2948
 30
0.0
 10
-149.1202
 20
-73.2948
 30
0.0
 10
-149.8156
 20
-71.457
 30
0.0
 10
-149.8156
 20
-71.457
 30
0.0
 10
-149.8156
 20
-71.457
 30
0.0
 10
-150.1633
 20
-70.4636
 30
0.0
 10
-150.4613
 20
-69.2218
 30
0.0
 10
-150.4613
 20
-68.6754
 30
0.0
 10
-150.4613
 20
-68.6754
 30
0.0
 10
-150.511
 20
-67.9303
 30
0.0
 10
-150.66
 20
-67.8807
 30
0.0
 10
-151.6038
 20
-68.3774
 30
0.0
 10
-151.6038
 20
-68.3774
 30
0.0
 10
-152.1998
 20
-68.6754
 30
0.0
 10
-153.3423
 20
-68.8244
 30
0.0
 10
-154.1867
 20
-68.6754
 30
0.0
 10
-154.1867
 20
-68.6754
 30
0.0
 10
-155.6271
 20
-68.3774
 30
0.0
 10
-155.6768
 20
-68.427
 30
0.0
 10
-155.6768
 20
-70.3642
 30
0.0
 10
-155.6768
 20
-70.3642
 30
0.0
 10
-155.6768
 20
-71.457
 30
0.0
 10
-155.8258
 20
-72.7484
 30
0.0
 10
-155.9748
 20
-73.1955
 30
0.0
 10
-155.9748
 20
-73.1955
 30
0.0
 10
-156.3225
 20
-74.1392
 30
0.0
 10
-155.4285
 20
-74.3379
 30
0.0
 10
-154.8821
 20
-73.4438
 30
0.0
  0
SPLINE
  5
51
330
1F
100
AcDbEntity
  8
layer 1
 62
     7
370
    13
100
AcDbSpline
210
0.0
220
0.0
230
1.0
 70
    11
 71
     3
 72
    64
 73
    60
 74
     0
 42
0.0000000001
 43
0.0000000001
 12
1.0
 22
0.0
 32
0.0
 13
1.0
 23
0.0
 33
0.0
 40
0.0
 40
0.0
 40
0.0
 40
0.0
 40
0.0625
 40
0.0625
 40
0.0625
 40
0.0625
 40
0.125
 40
0.125
 40
0.125
 40
0.125
 40
0.1875
 40
0.1875
 40
0.1875
 40
0.1875
 40
0.25
 40
0.25
 40
0.25
 40
0.25
 40
0.3125
 40
0.3125
 40
0.3125
 40
0.3125
 40
0.375
 40
0.375
 40
0.375
 40
0.375
 40
0.4375
 40
0.4375
 40
0.4375
 40
0.4375
 40
0.5
 40
0.5
 40
0.5
 40
0.5
 40
0.5625
 40
0.5625
 40
0.5625
 40
0.5625
 40
0.625
 40
0.625
 40
0.625
 40
0.625
 40
0.6875
 40
0.6875
 40
0.6875
 40
0.6875
 40
0.75
 40
0.75
 40
0.75
 40
0.75
 40
0.8125
 40
0.8125
 40
0.8125
 40
0.8125
 40
0.875
 40
0.875
 40
0.875
 40
0.875
 40
1.0
 40
1.0
 40
1.0
 40
1.0
 10
-142.812
 20
-71.9537
 30
0.0
 10
-141.8682
 20
-71.7053
 30
0.0
 10
-140.5271
 20
-71.7053
 30
0.0
 10
-139.633
 20
-71.9537
 30
0.0
 10
-139.633
 20
-71.9537
 30
0.0
 10
-138.2919
 20
-72.3511
 30
0.0
 10
-138.0435
 20
-72.2517
 30
0.0
 10
-137.4475
 20
-71.0099
 30
0.0
 10
-137.4475
 20
-71.0099
 30
0.0
 10
-137.0998
 20
-70.2649
 30
0.0
 10
-136.2554
 20
-69.5695
 30
0.0
 10
-135.6593
 20
-69.4701
 30
0.0
 10
-135.6593
 20
-69.4701
 30
0.0
 10
-133.1757
 20
-69.1224
 30
0.0
 10
-132.7784
 20
-63.1619
 30
0.0
 10
-135.0632
 20
-60.728
 30
0.0
 10
-135.0632
 20
-60.728
 30
0.0
 10
-137.1991
 20
-58.4928
 30
0.0
 10
-141.1728
 20
-59.7346
 30
0.0
 10
-141.1728
 20
-62.6652
 30
0.0
 10
-141.1728
 20
-62.6652
 30
0.0
 10
-141.1728
 20
-64.503
 30
0.0
 10
-140.5768
 20
-64.652
 30
0.0
 10
-139.8814
 20
-63.0129
 30
0.0
 10
-139.8814
 20
-63.0129
 30
0.0
 10
-139.186
 20
-61.4234
 30
0.0
 10
-136.8017
 20
-61.175
 30
0.0
 10
-136.007
 20
-62.6155
 30
0.0
 10
-136.007
 20
-62.6155
 30
0.0
 10
-135.1626
 20
-64.205
 30
0.0
 10
-135.858
 20
-65.7448
 30
0.0
 10
-137.8448
 20
-66.5395
 30
0.0
 10
-137.8448
 20
-66.5395
 30
0.0
 10
-140.9245
 20
-67.831
 30
0.0
 10
-143.259
 20
-66.1422
 30
0.0
 10
-143.259
 20
-62.5658
 30
0.0
 10
-143.259
 20
-62.5658
 30
0.0
 10
-143.259
 20
-62.5658
 30
0.0
 10
-143.259
 20
-60.9267
 30
0.0
 10
-143.259
 20
-60.9267
 30
0.0
 10
-143.259
 20
-60.9267
 30
0.0
 10
-143.259
 20
-60.9267
 30
0.0
 10
-144.6001
 20
-62.1685
 30
0.0
 10
-144.6001
 20
-62.1685
 30
0.0
 10
-144.6001
 20
-62.1685
 30
0.0
 10
-146.2889
 20
-63.7083
 30
0.0
 10
-147.8784
 20
-67.0362
 30
0.0
 10
-147.8784
 20
-68.9734
 30
0.0
 10
-147.8784
 20
-68.9734
 30
0.0
 10
-147.9281
 20
-69.7682
 30
0.0
 10
-147.5804
 20
-71.2583
 30
0.0
 10
-147.1334
 20
-72.3014
 30
0.0
 10
-147.1334
 20
-72.3014
 30
0.0
 10
-146.3883
 20
-74.0896
 30
0.0
 10
-146.2889
 20
-74.1392
 30
0.0
 10
-145.3949
 20
-73.2948
 30
0.0
 10
-145.3949
 20
-73.2948
 30
0.0
 10
-144.8485
 20
-72.8478
 30
0.0
 10
-143.706
 20
-72.2517
 30
0.0
 10
-142.812
 20
-71.9537
 30
0.0
  0
SPLINE
  5
52
330
1F
100
AcDbEntity
  8
layer 1
 62
     7
370
    13
100
AcDbSpline
210
0.0
220
0.0
230
1.0
 70
    11
 71
     3
 72
    44
 73
    40
 74
     0
 42
0.0000000001
 43
0.0000000001
 12
1.0
 22
0.0
 32
0.0
 13
1.0
 23
0.0
 33
0.0
 40
0.0
 40
0.0
 40
0.0
 40
0.0
 40
0.0909090909090909
 40
0.0909090909090909
 40
0.0909090909090909
 40
0.0909090909090909
 40
0.1818181818181818
 40
0.1818181818181818
 40
0.1818181818181818
 40
0.1818181818181818
 40
0.2727272727272727
 40
0.2727272727272727
 40
0.2727272727272727
 40
0.2727272727272727
 40
0.3636363636363636
 40
0.3636363636363636
 40
0.3636363636363636
 40
0.3636363636363636
 40
0.4545454545454545
 40
0.4545454545454545
 40
0.4545454545454545
 40
0.4545454545454545
 40
0.5454545454545454
 40
0.5454545454545454
 40
0.5454545454545454
 40
0.5454545454545454
 40
0.6363636363636364
 40
0.6363636363636364
 40
0.6363636363636364
 40
0.6363636363636364
 40
0.7272727272727273
 40
0.7272727272727273
 40
0.7272727272727273
 40
0.7272727272727273
 40
0.8181818181818182
 40
0.8181818181818182
 40
0.8181818181818182
 40
0.8181818181818182
 40
1.0
 40
1.0
 40
1.0
 40
1.0
 10
-80.1268
 20
-28.1933
 30
0.0
 10
-79.5308
 20
-27.3986
 30
0.0
 10
-79.1334
 20
-26.2065
 30
0.0
 10
-79.1831
 20
-25.4614
 30
0.0
 10
-79.1831
 20
-25.4614
 30
0.0
 10
-79.3321
 20
-24.3686
 30
0.0
 10
-79.5805
 20
-24.17
 30
0.0
 10
-80.6732
 20
-24.319
 30
0.0
 10
-80.6732
 20
-24.319
 30
0.0
 10
-81.4183
 20
-24.3686
 30
0.0
 10
-82.3124
 20
-24.0706
 30
0.0
 10
-82.7098
 20
-23.6732
 30
0.0
 10
-82.7098
 20
-23.6732
 30
0.0
 10
-83.0575
 20
-23.2262
 30
0.0
 10
-83.6535
 20
-22.8288
 30
0.0
 10
-84.0012
 20
-22.8288
 30
0.0
 10
-84.0012
 20
-22.8288
 30
0.0
 10
-84.8456
 20
-22.8288
 30
0.0
 10
-85.839
 20
-25.1137
 30
0.0
 10
-85.839
 20
-27.2496
 30
0.0
 10
-85.839
 20
-27.2496
 30
0.0
 10
-85.839
 20
-29.3358
 30
0.0
 10
-85.0443
 20
-30.0808
 30
0.0
 10
-84.5973
 20
-28.3423
 30
0.0
 10
-84.5973
 20
-28.3423
 30
0.0
 10
-84.3986
 20
-27.6469
 30
0.0
 10
-83.9019
 20
-26.9515
 30
0.0
 10
-83.5045
 20
-26.8025
 30
0.0
 10
-83.5045
 20
-26.8025
 30
0.0
 10
-82.4117
 20
-26.4052
 30
0.0
 10
-81.8653
 20
-27.8953
 30
0.0
 10
-82.6601
 20
-29.1371
 30
0.0
 10
-82.6601
 20
-29.1371
 30
0.0
 10
-82.9581
 20
-29.6338
 30
0.0
 10
-83.2561
 20
-30.1802
 30
0.0
 10
-83.2561
 20
-30.3789
 30
0.0
 10
-83.2561
 20
-30.3789
 30
0.0
 10
-83.2561
 20
-30.9749
 30
0.0
 10
-81.2196
 20
-29.5345
 30
0.0
 10
-80.1268
 20
-28.1933
 30
0.0
  0
SPLINE
  5
53
330
1F
100
AcDbEntity
  8
layer 1
 62
     7
370
    13
100
AcDbSpline
210
0.0
220
0.0
230
1.0
 70
    11
 71
     3
 72
   208
 73
   204
 74
     0
 42
0.0000000001
 43
0.0000000001
 12
1.0
 22
0.0
 32
0.0
 13
1.0
 23
0.0
 33
0.0
 40
0.0
 40
0.0
 40
0.0
 40
0.0
 40
0.0192307692307692
 40
0.0192307692307692
 40
0.0192307692307692
 40
0.0192307692307692
 40
0.0384615384615385
 40
0.0384615384615385
 40
0.0384615384615385
 40
0.0384615384615385
 40
0.0576923076923077
 40
0.0576923076923077
 40
0.0576923076923077
 40
0.0576923076923077
 40
0.0769230769230769
 40
0.0769230769230769
 40
0.0769230769230769
 40
0.0769230769230769
 40
0.0961538461538462
 40
0.0961538461538462
 40
0.0961538461538462
 40
0.0961538461538462
 40
0.1153846153846154
 40
0.1153846153846154
 40
0.1153846153846154
 40
0.1153846153846154
 40
0.1346153846153846
 40
0.1346153846153846
 40
0.1346153846153846
 40
0.1346153846153846
 40
0.1538461538461539
 40
0.1538461538461539
 40
0.1538461538461539
 40
0.1538461538461539
 40
0.1730769230769231
 40
0.1730769230769231
 40
0.1730769230769231
 40
0.1730769230769231
 40
0.1923076923076923
 40
0.1923076923076923
 40
0.1923076923076923
 40
0.1923076923076923
 40
0.2115384615384615
 40
0.2115384615384615
 40
0.2115384615384615
 40
0.2115384615384615
 40
0.2307692307692308
 40
0.2307692307692308
 40
0.2307692307692308
 40
0.2307692307692308
 40
0.25
 40
0.25
 40
0.25
 40
0.25
 40
0.2692307692307692
 40
0.2692307692307692
 40
0.2692307692307692
 40
0.2692307692307692
 40
0.2884615384615384
 40
0.2884615384615384
 40
0.2884615384615384
 40
0.2884615384615384
 40
0.3076923076923077
 40
0.3076923076923077
 40
0.3076923076923077
 40
0.3076923076923077
 40
0.3269230769230769
 40
0.3269230769230769
 40
0.3269230769230769
 40
0.3269230769230769
 40
0.3461538461538461
 40
0.3461538461538461
 40
0.3461538461538461
 40
0.3461538461538461
 40
0.3653846153846154
 40
0.3653846153846154
 40
0.3653846153846154
 40
0.3653846153846154
 40
0.3846153846153846
 40
0.3846153846153846
 40
0.3846153846153846
 40
0.3846153846153846
 40
0.4038461538461539
 40
0.4038461538461539
 40
0.4038461538461539
 40
0.4038461538461539
 40
0.4230769230769231
 40
0.4230769230769231
 40
0.4230769230769231
 40
0.4230769230769231
 40
0.4423076923076923
 40
0.4423076923076923
 40
0.4423076923076923
 40
0.4423076923076923
 40
0.4615384615384616
 40
0.4615384615384616
 40
0.4615384615384616
 40
0.4615384615384616
 40
0.4807692307692308
 40
0.4807692307692308
 40
0.4807692307692308
 40
0.4807692307692308
 40
0.5
 40
0.5
 40
0.5
 40
0.5
 40
0.5192307692307693
 40
0.5192307692307693
 40
0.5192307692307693
 40
0.5192307692307693
 40
0.5384615384615384
 40
0.5384615384615384
 40
0.5384615384615384
 40
0.5384615384615384
 40
0.5576923076923077
 40
0.5576923076923077
 40
0.5576923076923077
 40
0.5576923076923077
 40
0.5769230769230769
 40
0.5769230769230769
 40
0.5769230769230769
 40
0.5769230769230769
 40
0.5961538461538461
 40
0.5961538461538461
 40
0.5961538461538461
 40
0.5961538461538461
 40
0.6153846153846154
 40
0.6153846153846154
 40
0.6153846153846154
 40
0.6153846153846154
 40
0.6346153846153846
 40
0.6346153846153846
 40
0.6346153846153846
 40
0.6346153846153846
 40
0.6538461538461539
 40
0.6538461538461539
 40
0.6538461538461539
 40
0.6538461538461539
 40
0.6730769230769231
 40
0.6730769230769231
 40
0.6730769230769231
 40
0.6730769230769231
 40
0.6923076923076923
 40
0.6923076923076923
 40
0.6923076923076923
 40
0.6923076923076923
 40
0.7115384615384616
 40
0.7115384615384616
 40
0.7115384615384616
 40
0.7115384615384616
 40
0.7307692307692307
 40
0.7307692307692307
 40
0.7307692307692307
 40
0.7307692307692307
 40
0.75
 40
0.75
 40
0.75
 40
0.75
 40
0.7692307692307693
 40
0.7692307692307693
 40
0.7692307692307693
 40
0.7692307692307693
 40
0.7884615384615384
 40
0.7884615384615384
 40
0.7884615384615384
 40
0.7884615384615384
 40
0.8076923076923077
 40
0.8076923076923077
 40
0.8076923076923077
 40
0.8076923076923077
 40
0.8269230769230769
 40
0.8269230769230769
 40
0.8269230769230769
 40
0.8269230769230769
 40
0.8461538461538461
 40
0.8461538461538461
 40
0.8461538461538461
 40
0.8461538461538461
 40
0.8653846153846154
 40
0.8653846153846154
 40
0.8653846153846154
 40
0.8653846153846154
 40
0.8846153846153846
 40
0.8846153846153846
 40
0.8846153846153846
 40
0.8846153846153846
 40
0.9038461538461539
 40
0.9038461538461539
 40
0.9038461538461539
 40
0.9038461538461539
 40
0.9230769230769231
 40
0.9230769230769231
 40
0.9230769230769231
 40
0.9230769230769231
 40
0.9423076923076923
 40
0.9423076923076923
 40
0.9423076923076923
 40
0.9423076923076923
 40
0.9615384615384616
 40
0.9615384615384616
 40
0.9615384615384616
 40
0.9615384615384616
 40
1.0
 40
1.0
 40
1.0
 40
1.0
 10
-124.7316
 20
-86.0107
 30
0.0
 10
-121.205
 20
-78.3613
 30
0.0
 10
-120.6586
 20
-71.3576
 30
0.0
 10
-123.0925
 20
-64.95
 30
0.0
 10
-123.0925
 20
-64.95
 30
0.0
 10
-124.7813
 20
-60.579
 30
0.0
 10
-129.5497
 20
-55.8602
 30
0.0
 10
-133.4241
 20
-54.7178
 30
0.0
 10
-133.4241
 20
-54.7178
 30
0.0
 10
-138.2422
 20
-53.2773
 30
0.0
 10
-141.9179
 20
-53.923
 30
0.0
 10
-145.6432
 20
-56.7046
 30
0.0
 10
-145.6432
 20
-56.7046
 30
0.0
 10
-145.6432
 20
-56.7046
 30
0.0
 10
-147.5307
 20
-58.1451
 30
0.0
 10
-147.5307
 20
-58.1451
 30
0.0
 10
-147.5307
 20
-58.1451
 30
0.0
 10
-147.5307
 20
-58.1451
 30
0.0
 10
-148.5242
 20
-56.953
 30
0.0
 10
-148.5242
 20
-56.953
 30
0.0
 10
-148.5242
 20
-56.953
 30
0.0
 10
-149.8156
 20
-55.4132
 30
0.0
 10
-149.7659
 20
-52.3336
 30
0.0
 10
-148.3751
 20
-50.5454
 30
0.0
 10
-148.3751
 20
-50.5454
 30
0.0
 10
-147.7294
 20
-49.8003
 30
0.0
 10
-146.1896
 20
-48.4592
 30
0.0
 10
-144.8982
 20
-47.6645
 30
0.0
 10
-144.8982
 20
-47.6645
 30
0.0
 10
-144.8982
 20
-47.6645
 30
0.0
 10
-142.5139
 20
-46.1743
 30
0.0
 10
-142.5139
 20
-46.1743
 30
0.0
 10
-142.5139
 20
-46.1743
 30
0.0
 10
-142.5139
 20
-46.1743
 30
0.0
 10
-143.9544
 20
-45.6279
 30
0.0
 10
-143.9544
 20
-45.6279
 30
0.0
 10
-143.9544
 20
-45.6279
 30
0.0
 10
-144.7491
 20
-45.3299
 30
0.0
 10
-145.7922
 20
-45.0816
 30
0.0
 10
-146.2889
 20
-45.0816
 30
0.0
 10
-146.2889
 20
-45.0816
 30
0.0
 10
-146.9347
 20
-45.0816
 30
0.0
 10
-146.7857
 20
-44.7835
 30
0.0
 10
-145.6929
 20
-43.7901
 30
0.0
 10
-145.6929
 20
-43.7901
 30
0.0
 10
-144.6498
 20
-42.896
 30
0.0
 10
-143.6067
 20
-42.4986
 30
0.0
 10
-142.0669
 20
-42.449
 30
0.0
 10
-142.0669
 20
-42.449
 30
0.0
 10
-142.0669
 20
-42.449
 30
0.0
 10
-139.8814
 20
-42.3993
 30
0.0
 10
-139.8814
 20
-42.3993
 30
0.0
 10
-139.8814
 20
-42.3993
 30
0.0
 10
-139.8814
 20
-42.3993
 30
0.0
 10
-142.2159
 20
-41.3562
 30
0.0
 10
-142.2159
 20
-41.3562
 30
0.0
 10
-142.2159
 20
-41.3562
 30
0.0
 10
-145.0968
 20
-39.9654
 30
0.0
 10
-150.511
 20
-39.8661
 30
0.0
 10
-152.8456
 20
-41.0582
 30
0.0
 10
-152.8456
 20
-41.0582
 30
0.0
 10
-156.3722
 20
-42.9457
 30
0.0
 10
-157.3656
 20
-45.1312
 30
0.0
 10
-156.4716
 20
-49.2043
 30
0.0
 10
-156.4716
 20
-49.2043
 30
0.0
 10
-156.4716
 20
-49.2043
 30
0.0
 10
-156.0742
 20
-50.9428
 30
0.0
 10
-156.0742
 20
-50.9428
 30
0.0
 10
-156.0742
 20
-50.9428
 30
0.0
 10
-156.0742
 20
-50.9428
 30
0.0
 10
-158.6074
 20
-50.5951
 30
0.0
 10
-158.6074
 20
-50.5951
 30
0.0
 10
-158.6074
 20
-50.5951
 30
0.0
 10
-164.1209
 20
-49.85
 30
0.0
 10
-165.8098
 20
-45.926
 30
0.0
 10
-163.1772
 20
-39.8164
 30
0.0
 10
-163.1772
 20
-39.8164
 30
0.0
 10
-162.8295
 20
-38.972
 30
0.0
 10
-162.9785
 20
-38.972
 30
0.0
 10
-164.568
 20
-39.5184
 30
0.0
 10
-164.568
 20
-39.5184
 30
0.0
 10
-168.8894
 20
-41.0085
 30
0.0
 10
-172.5154
 20
-44.3862
 30
0.0
 10
-174.0552
 20
-48.4095
 30
0.0
 10
-174.0552
 20
-48.4095
 30
0.0
 10
-174.7506
 20
-50.2474
 30
0.0
 10
-174.8996
 20
-51.7375
 30
0.0
 10
-174.7009
 20
-54.8171
 30
0.0
 10
-174.7009
 20
-54.8171
 30
0.0
 10
-174.5022
 20
-57.6484
 30
0.0
 10
-174.6016
 20
-59.1882
 30
0.0
 10
-175.0983
 20
-60.0823
 30
0.0
 10
-175.0983
 20
-60.0823
 30
0.0
 10
-176.2407
 20
-62.0691
 30
0.0
 10
-175.9924
 20
-63.1619
 30
0.0
 10
-174.0055
 20
-65.0494
 30
0.0
 10
-174.0055
 20
-65.0494
 30
0.0
 10
-172.267
 20
-66.6885
 30
0.0
 10
-172.1677
 20
-66.8872
 30
0.0
 10
-172.7637
 20
-68.3277
 30
0.0
 10
-172.7637
 20
-68.3277
 30
0.0
 10
-173.1114
 20
-69.1721
 30
0.0
 10
-174.1048
 20
-70.1655
 30
0.0
 10
-175.1479
 20
-70.6622
 30
0.0
 10
-175.1479
 20
-70.6622
 30
0.0
 10
-177.4825
 20
-71.755
 30
0.0
 10
-179.519
 20
-71.0099
 30
0.0
 10
-181.3072
 20
-68.3774
 30
0.0
 10
-181.3072
 20
-68.3774
 30
0.0
 10
-181.3072
 20
-68.3774
 30
0.0
 10
-182.5986
 20
-66.5395
 30
0.0
 10
-182.5986
 20
-66.5395
 30
0.0
 10
-182.5986
 20
-66.5395
 30
0.0
 10
-182.5986
 20
-66.5395
 30
0.0
 10
-182.5986
 20
-73.1955
 30
0.0
 10
-182.5986
 20
-73.1955
 30
0.0
 10
-182.5986
 20
-73.1955
 30
0.0
 10
-182.5986
 20
-79.6527
 30
0.0
 10
-182.549
 20
-79.8514
 30
0.0
 10
-181.6549
 20
-79.007
 30
0.0
 10
-181.6549
 20
-79.007
 30
0.0
 10
-181.1085
 20
-78.56
 30
0.0
 10
-180.4628
 20
-78.1626
 30
0.0
 10
-180.1647
 20
-78.1626
 30
0.0
 10
-180.1647
 20
-78.1626
 30
0.0
 10
-179.8667
 20
-78.1626
 30
0.0
 10
-179.668
 20
-77.2188
 30
0.0
 10
-179.668
 20
-76.0267
 30
0.0
 10
-179.668
 20
-76.0267
 30
0.0
 10
-179.7674
 20
-73.0465
 30
0.0
 10
-177.9792
 20
-71.7053
 30
0.0
 10
-174.0552
 20
-71.755
 30
0.0
 10
-174.0552
 20
-71.755
 30
0.0
 10
-174.0552
 20
-71.755
 30
0.0
 10
-171.2736
 20
-71.8047
 30
0.0
 10
-171.2736
 20
-71.8047
 30
0.0
 10
-171.2736
 20
-71.8047
 30
0.0
 10
-171.2736
 20
-71.8047
 30
0.0
 10
-170.7272
 20
-69.5198
 30
0.0
 10
-170.7272
 20
-69.5198
 30
0.0
 10
-170.7272
 20
-69.5198
 30
0.0
 10
-169.9325
 20
-66.4899
 30
0.0
 10
-168.1443
 20
-64.7017
 30
0.0
 10
-165.8098
 20
-64.7017
 30
0.0
 10
-165.8098
 20
-64.7017
 30
0.0
 10
-164.8163
 20
-64.7017
 30
0.0
 10
-163.7236
 20
-65.0494
 30
0.0
 10
-163.2765
 20
-65.4468
 30
0.0
 10
-163.2765
 20
-65.4468
 30
0.0
 10
-162.7301
 20
-65.9931
 30
0.0
 10
-162.1341
 20
-66.0428
 30
0.0
 10
-160.4949
 20
-65.5958
 30
0.0
 10
-160.4949
 20
-65.5958
 30
0.0
 10
-158.6571
 20
-65.0991
 30
0.0
 10
-158.4087
 20
-64.9004
 30
0.0
 10
-158.4087
 20
-63.5096
 30
0.0
 10
-158.4087
 20
-63.5096
 30
0.0
 10
-158.4087
 20
-60.4796
 30
0.0
 10
-153.8887
 20
-58.2941
 30
0.0
 10
-151.8521
 20
-60.3306
 30
0.0
 10
-151.8521
 20
-60.3306
 30
0.0
 10
-151.4051
 20
-60.7777
 30
0.0
 10
-151.0077
 20
-61.5724
 30
0.0
 10
-151.0077
 20
-62.1188
 30
0.0
 10
-151.0077
 20
-62.1188
 30
0.0
 10
-151.0077
 20
-63.2612
 30
0.0
 10
-152.3488
 20
-64.7017
 30
0.0
 10
-153.3919
 20
-64.7017
 30
0.0
 10
-153.3919
 20
-64.7017
 30
0.0
 10
-153.7893
 20
-64.7017
 30
0.0
 10
-154.584
 20
-64.2547
 30
0.0
 10
-155.1801
 20
-63.6586
 30
0.0
 10
-155.1801
 20
-63.6586
 30
0.0
 10
-156.1735
 20
-62.6155
 30
0.0
 10
-156.1735
 20
-62.6155
 30
0.0
 10
-156.1735
 20
-63.6586
 30
0.0
 10
-156.1735
 20
-63.6586
 30
0.0
 10
-156.1735
 20
-65.1487
 30
0.0
 10
-154.3854
 20
-66.7879
 30
0.0
 10
-152.6965
 20
-66.7879
 30
0.0
 10
-152.6965
 20
-66.7879
 30
0.0
 10
-150.958
 20
-66.7382
 30
0.0
 10
-150.6103
 20
-66.5395
 30
0.0
 10
-148.7228
 20
-63.907
 30
0.0
 10
-148.7228
 20
-63.907
 30
0.0
 10
-146.587
 20
-61.0757
 30
0.0
 10
-145.4942
 20
-60.1816
 30
0.0
 10
-142.3153
 20
-58.6418
 30
0.0
 10
-142.3153
 20
-58.6418
 30
0.0
 10
-136.007
 20
-55.7112
 30
0.0
 10
-128.606
 20
-58.8902
 30
0.0
 10
-125.3277
 20
-66.0428
 30
0.0
 10
-125.3277
 20
-66.0428
 30
0.0
 10
-122.5958
 20
-72.053
 30
0.0
 10
-123.3408
 20
-79.6527
 30
0.0
 10
-127.4635
 20
-87.3021
 30
0.0
 10
-127.4635
 20
-87.3021
 30
0.0
 10
-128.7053
 20
-89.587
 30
0.0
 10
-129.5994
 20
-91.6235
 30
0.0
 10
-129.4007
 20
-91.8222
 30
0.0
 10
-129.4007
 20
-91.8222
 30
0.0
 10
-128.755
 20
-92.4679
 30
0.0
 10
-126.2714
 20
-89.3883
 30
0.0
 10
-124.7316
 20
-86.0107
 30
0.0
  0
SPLINE
  5
54
330
1F
100
AcDbEntity
  8
layer 1
 62
     7
370
    13
100
AcDbSpline
210
0.0
220
0.0
230
1.0
 70
    11
 71
     3
 72
   208
 73
   204
 74
     0
 42
0.0000000001
 43
0.0000000001
 12
1.0
 22
0.0
 32
0.0
 13
1.0
 23
0.0
 33
0.0
 40
0.0
 40
0.0
 40
0.0
 40
0.0
 40
0.0192307692307692
 40
0.0192307692307692
 40
0.0192307692307692
 40
0.0192307692307692
 40
0.0384615384615385
 40
0.0384615384615385
 40
0.0384615384615385
 40
0.0384615384615385
 40
0.0576923076923077
 40
0.0576923076923077
 40
0.0576923076923077
 40
0.0576923076923077
 40
0.0769230769230769
 40
0.0769230769230769
 40
0.0769230769230769
 40
0.0769230769230769
 40
0.0961538461538462
 40
0.0961538461538462
 40
0.0961538461538462
 40
0.0961538461538462
 40
0.1153846153846154
 40
0.1153846153846154
 40
0.1153846153846154
 40
0.1153846153846154
 40
0.1346153846153846
 40
0.1346153846153846
 40
0.1346153846153846
 40
0.1346153846153846
 40
0.1538461538461539
 40
0.1538461538461539
 40
0.1538461538461539
 40
0.1538461538461539
 40
0.1730769230769231
 40
0.1730769230769231
 40
0.1730769230769231
 40
0.1730769230769231
 40
0.1923076923076923
 40
0.1923076923076923
 40
0.1923076923076923
 40
0.1923076923076923
 40
0.2115384615384615
 40
0.2115384615384615
 40
0.2115384615384615
 40
0.2115384615384615
 40
0.2307692307692308
 40
0.2307692307692308
 40
0.2307692307692308
 40
0.2307692307692308
 40
0.25
 40
0.25
 40
0.25
 40
0.25
 40
0.2692307692307692
 40
0.2692307692307692
 40
0.2692307692307692
 40
0.2692307692307692
 40
0.2884615384615384
 40
0.2884615384615384
 40
0.2884615384615384
 40
0.2884615384615384
 40
0.3076923076923077
 40
0.3076923076923077
 40
0.3076923076923077
 40
0.3076923076923077
 40
0.3269230769230769
 40
0.3269230769230769
 40
0.3269230769230769
 40
0.3269230769230769
 40
0.3461538461538461
 40
0.3461538461538461
 40
0.3461538461538461
 40
0.3461538461538461
 40
0.3653846153846154
 40
0.3653846153846154
 40
0.3653846153846154
 40
0.3653846153846154
 40
0.3846153846153846
 40
0.3846153846153846
 40
0.3846153846153846
 40
0.3846153846153846
 40
0.4038461538461539
 40
0.4038461538461539
 40
0.4038461538461539
 40
0.4038461538461539
 40
0.4230769230769231
 40
0.4230769230769231
 40
0.4230769230769231
 40
0.4230769230769231
 40
0.4423076923076923
 40
0.4423076923076923
 40
0.4423076923076923
 40
0.4423076923076923
 40
0.4615384615384616
 40
0.4615384615384616
 40
0.4615384615384616
 40
0.4615384615384616
 40
0.4807692307692308
 40
0.4807692307692308
 40
0.4807692307692308
 40
0.4807692307692308
 40
0.5
 40
0.5
 40
0.5
 40
0.5
 40
0.5192307692307693
 40
0.5192307692307693
 40
0.5192307692307693
 40
0.5192307692307693
 40
0.5384615384615384
 40
0.5384615384615384
 40
0.5384615384615384
 40
0.5384615384615384
 40
0.5576923076923077
 40
0.5576923076923077
 40
0.5576923076923077
 40
0.5576923076923077
 40
0.5769230769230769
 40
0.5769230769230769
 40
0.5769230769230769
 40
0.5769230769230769
 40
0.5961538461538461
 40
0.5961538461538461
 40
0.5961538461538461
 40
0.5961538461538461
 40
0.6153846153846154
 40
0.6153846153846154
 40
0.6153846153846154
 40
0.6153846153846154
 40
0.6346153846153846
 40
0.6346153846153846
 40
0.6346153846153846
 40
0.6346153846153846
 40
0.6538461538461539
 40
0.6538461538461539
 40
0.6538461538461539
 40
0.6538461538461539
 40
0.6730769230769231
 40
0.6730769230769231
 40
0.6730769230769231
 40
0.6730769230769231
 40
0.6923076923076923
 40
0.6923076923076923
 40
0.6923076923076923
 40
0.6923076923076923
 40
0.7115384615384616
 40
0.7115384615384616
 40
0.7115384615384616
 40
0.7115384615384616
 40
0.7307692307692307
 40
0.7307692307692307
 40
0.7307692307692307
 40
0.7307692307692307
 40
0.75
 40
0.75
 40
0.75
 40
0.75
 40
0.7692307692307693
 40
0.7692307692307693
 40
0.7692307692307693
 40
0.7692307692307693
 40
0.7884615384615384
 40
0.7884615384615384
 40
0.7884615384615384
 40
0.7884615384615384
 40
0.8076923076923077
 40
0.8076923076923077
 40
0.8076923076923077
 40
0.8076923076923077
 40
0.8269230769230769
 40
0.8269230769230769
 40
0.8269230769230769
 40
0.8269230769230769
 40
0.8461538461538461
 40
0.8461538461538461
 40
0.8461538461538461
 40
0.8461538461538461
 40
0.8653846153846154
 40
0.8653846153846154
 40
0.8653846153846154
 40
0.8653846153846154
 40
0.8846153846153846
 40
0.8846153846153846
 40
0.8846153846153846
 40
0.8846153846153846
 40
0.9038461538461539
 40
0.9038461538461539
 40
0.9038461538461539
 40
0.9038461538461539
 40
0.9230769230769231
 40
0.9230769230769231
 40
0.9230769230769231
 40
0.9230769230769231
 40
0.9423076923076923
 40
0.9423076923076923
 40
0.9423076923076923
 40
0.9423076923076923
 40
0.9615384615384616
 40
0.9615384615384616
 40
0.9615384615384616
 40
0.9615384615384616
 40
1.0
 40
1.0
 40
1.0
 40
1.0
 10
-105.2605
 20
-53.5753
 30
0.0
 10
-101.8829
 20
-51.9859
 30
0.0
 10
-100.5914
 20
-51.6382
 30
0.0
 10
-96.6177
 20
-51.4395
 30
0.0
 10
-96.6177
 20
-51.4395
 30
0.0
 10
-96.6177
 20
-51.4395
 30
0.0
 10
-91.9486
 20
-51.1414
 30
0.0
 10
-91.9486
 20
-51.1414
 30
0.0
 10
-91.9486
 20
-51.1414
 30
0.0
 10
-91.9486
 20
-51.1414
 30
0.0
 10
-93.6871
 20
-50.148
 30
0.0
 10
-93.6871
 20
-50.148
 30
0.0
 10
-93.6871
 20
-50.148
 30
0.0
 10
-96.0713
 20
-48.8069
 30
0.0
 10
-97.8098
 20
-46.075
 30
0.0
 10
-98.1078
 20
-43.2934
 30
0.0
 10
-98.1078
 20
-43.2934
 30
0.0
 10
-98.4059
 20
-40.6111
 30
0.0
 10
-97.9092
 20
-40.3628
 30
0.0
 10
-96.1707
 20
-42.2503
 30
0.0
 10
-96.1707
 20
-42.2503
 30
0.0
 10
-95.1772
 20
-43.2934
 30
0.0
 10
-94.4818
 20
-43.5417
 30
0.0
 10
-92.2466
 20
-43.5417
 30
0.0
 10
-92.2466
 20
-43.5417
 30
0.0
 10
-90.7565
 20
-43.5417
 30
0.0
 10
-89.3657
 20
-43.7901
 30
0.0
 10
-89.167
 20
-44.0881
 30
0.0
 10
-89.167
 20
-44.0881
 30
0.0
 10
-88.9683
 20
-44.3862
 30
0.0
 10
-88.1239
 20
-45.0816
 30
0.0
 10
-87.2298
 20
-45.6279
 30
0.0
 10
-87.2298
 20
-45.6279
 30
0.0
 10
-87.2298
 20
-45.6279
 30
0.0
 10
-85.6404
 20
-46.5717
 30
0.0
 10
-85.6404
 20
-46.5717
 30
0.0
 10
-85.6404
 20
-46.5717
 30
0.0
 10
-85.6404
 20
-46.5717
 30
0.0
 10
-87.5279
 20
-47.4658
 30
0.0
 10
-87.5279
 20
-47.4658
 30
0.0
 10
-87.5279
 20
-47.4658
 30
0.0
 10
-89.9618
 20
-48.6579
 30
0.0
 10
-89.9618
 20
-49.2539
 30
0.0
 10
-87.5775
 20
-49.2539
 30
0.0
 10
-87.5775
 20
-49.2539
 30
0.0
 10
-86.0377
 20
-49.2539
 30
0.0
 10
-85.2927
 20
-48.8566
 30
0.0
 10
-83.7032
 20
-47.1677
 30
0.0
 10
-83.7032
 20
-47.1677
 30
0.0
 10
-80.8719
 20
-44.2371
 30
0.0
 10
-80.4249
 20
-43.194
 30
0.0
 10
-81.6667
 20
-42.896
 30
0.0
 10
-81.6667
 20
-42.896
 30
0.0
 10
-82.213
 20
-42.747
 30
0.0
 10
-82.9581
 20
-42.9457
 30
0.0
 10
-83.3058
 20
-43.3431
 30
0.0
 10
-83.3058
 20
-43.3431
 30
0.0
 10
-84.2496
 20
-44.4855
 30
0.0
 10
-86.1867
 20
-44.1875
 30
0.0
 10
-87.3292
 20
-42.6973
 30
0.0
 10
-87.3292
 20
-42.6973
 30
0.0
 10
-87.9252
 20
-41.9523
 30
0.0
 10
-88.4219
 20
-41.0085
 30
0.0
 10
-88.4219
 20
-40.5615
 30
0.0
 10
-88.4219
 20
-40.5615
 30
0.0
 10
-88.4219
 20
-39.9157
 30
0.0
 10
-88.571
 20
-39.9157
 30
0.0
 10
-89.6637
 20
-40.6608
 30
0.0
 10
-89.6637
 20
-40.6608
 30
0.0
 10
-91.8493
 20
-42.0516
 30
0.0
 10
-93.5381
 20
-41.7039
 30
0.0
 10
-94.3825
 20
-39.7171
 30
0.0
 10
-94.3825
 20
-39.7171
 30
0.0
 10
-94.7799
 20
-38.7236
 30
0.0
 10
-95.3759
 20
-37.7799
 30
0.0
 10
-95.6243
 20
-37.5812
 30
0.0
 10
-95.6243
 20
-37.5812
 30
0.0
 10
-96.5184
 20
-37.0845
 30
0.0
 10
-96.2203
 20
-34.9486
 30
0.0
 10
-95.1276
 20
-33.5578
 30
0.0
 10
-95.1276
 20
-33.5578
 30
0.0
 10
-94.0348
 20
-32.2167
 30
0.0
 10
-94.0348
 20
-32.167
 30
0.0
 10
-95.0282
 20
-31.1239
 30
0.0
 10
-95.0282
 20
-31.1239
 30
0.0
 10
-95.0282
 20
-31.1239
 30
0.0
 10
-96.0216
 20
-30.0312
 30
0.0
 10
-96.0216
 20
-30.0312
 30
0.0
 10
-96.0216
 20
-30.0312
 30
0.0
 10
-96.0216
 20
-30.0312
 30
0.0
 10
-96.3693
 20
-31.3723
 30
0.0
 10
-96.3693
 20
-31.3723
 30
0.0
 10
-96.3693
 20
-31.3723
 30
0.0
 10
-96.8164
 20
-33.2101
 30
0.0
 10
-100.194
 20
-36.8361
 30
0.0
 10
-102.2306
 20
-37.6805
 30
0.0
 10
-102.2306
 20
-37.6805
 30
0.0
 10
-106.8997
 20
-39.6177
 30
0.0
 10
-111.8668
 20
-37.2832
 30
0.0
 10
-113.1582
 20
-32.5644
 30
0.0
 10
-113.1582
 20
-32.5644
 30
0.0
 10
-114.549
 20
-27.4483
 30
0.0
 10
-111.0224
 20
-22.8785
 30
0.0
 10
-105.6579
 20
-22.8288
 30
0.0
 10
-105.6579
 20
-22.8288
 30
0.0
 10
-102.148
 20
-22.7528
 30
0.0
 10
-99.7933
 20
-26.0667
 30
0.0
 10
-101.3365
 20
-28.8887
 30
0.0
 10
-101.3365
 20
-28.8887
 30
0.0
 10
-102.8913
 20
-31.9623
 30
0.0
 10
-107.4578
 20
-31.0946
 30
0.0
 10
-106.8003
 20
-27.5973
 30
0.0
 10
-106.8003
 20
-27.5973
 30
0.0
 10
-106.5023
 20
-25.9581
 30
0.0
 10
-106.5023
 20
-25.9084
 30
0.0
 10
-107.5454
 20
-26.4548
 30
0.0
 10
-107.5454
 20
-26.4548
 30
0.0
 10
-110.178
 20
-27.8456
 30
0.0
 10
-110.0786
 20
-32.1174
 30
0.0
 10
-107.3964
 20
-33.7565
 30
0.0
 10
-107.3964
 20
-33.7565
 30
0.0
 10
-103.3233
 20
-36.2897
 30
0.0
 10
-98.2367
 20
-32.5761
 30
0.0
 10
-98.2367
 20
-26.9136
 30
0.0
 10
-98.2367
 20
-26.9136
 30
0.0
 10
-98.4264
 20
-22.689
 30
0.0
 10
-102.6279
 20
-19.2525
 30
0.0
 10
-108.1414
 20
-19.8982
 30
0.0
 10
-108.1414
 20
-19.8982
 30
0.0
 10
-111.0525
 20
-20.3191
 30
0.0
 10
-114.3007
 20
-21.7361
 30
0.0
 10
-116.2378
 20
-24.9647
 30
0.0
 10
-116.2378
 20
-24.9647
 30
0.0
 10
-120.2115
 20
-31.4716
 30
0.0
 10
-120.7083
 20
-36.5878
 30
0.0
 10
-118.8208
 20
-49.85
 30
0.0
 10
-118.8208
 20
-49.85
 30
0.0
 10
-118.8208
 20
-49.85
 30
0.0
 10
-117.6783
 20
-57.8967
 30
0.0
 10
-117.6783
 20
-57.8967
 30
0.0
 10
-117.6783
 20
-57.8967
 30
0.0
 10
-117.6783
 20
-57.8967
 30
0.0
 10
-116.6352
 20
-56.1086
 30
0.0
 10
-116.6352
 20
-56.1086
 30
0.0
 10
-116.6352
 20
-56.1086
 30
0.0
 10
-115.9398
 20
-54.8668
 30
0.0
 10
-114.6484
 20
-53.7243
 30
0.0
 10
-112.7609
 20
-52.7806
 30
0.0
 10
-112.7609
 20
-52.7806
 30
0.0
 10
-111.221
 20
-51.9859
 30
0.0
 10
-109.7309
 20
-51.0421
 30
0.0
 10
-109.4826
 20
-50.6944
 30
0.0
 10
-109.4826
 20
-50.6944
 30
0.0
 10
-109.1845
 20
-50.2474
 30
0.0
 10
-109.1349
 20
-50.6447
 30
0.0
 10
-109.3335
 20
-51.8368
 30
0.0
 10
-109.3335
 20
-51.8368
 30
0.0
 10
-109.3335
 20
-51.8368
 30
0.0
 10
-109.5819
 20
-53.625
 30
0.0
 10
-109.5819
 20
-53.625
 30
0.0
 10
-109.5819
 20
-53.625
 30
0.0
 10
-109.5819
 20
-53.625
 30
0.0
 10
-108.0421
 20
-51.8368
 30
0.0
 10
-108.0421
 20
-51.8368
 30
0.0
 10
-108.0421
 20
-51.8368
 30
0.0
 10
-106.1546
 20
-49.6016
 30
0.0
 10
-106.0552
 20
-48.2108
 30
0.0
 10
-107.7937
 20
-48.2108
 30
0.0
 10
-107.7937
 20
-48.2108
 30
0.0
 10
-108.4891
 20
-48.2108
 30
0.0
 10
-109.6316
 20
-47.9625
 30
0.0
 10
-110.3766
 20
-47.6645
 30
0.0
 10
-110.3766
 20
-47.6645
 30
0.0
 10
-111.3204
 20
-47.3168
 30
0.0
 10
-112.1151
 20
-47.3168
 30
0.0
 10
-112.8105
 20
-47.7141
 30
0.0
 10
-112.8105
 20
-47.7141
 30
0.0
 10
-113.4066
 20
-48.0122
 30
0.0
 10
-113.953
 20
-48.1612
 30
0.0
 10
-114.102
 20
-48.0122
 30
0.0
 10
-114.102
 20
-48.0122
 30
0.0
 10
-114.549
 20
-47.6148
 30
0.0
 10
-112.7609
 20
-44.6345
 30
0.0
 10
-111.7178
 20
-44.0881
 30
0.0
 10
-111.7178
 20
-44.0881
 30
0.0
 10
-110.0289
 20
-43.1444
 30
0.0
 10
-106.6513
 20
-43.4424
 30
0.0
 10
-105.5089
 20
-44.5848
 30
0.0
 10
-105.5089
 20
-44.5848
 30
0.0
 10
-102.926
 20
-47.1181
 30
0.0
 10
-103.9194
 20
-50.7441
 30
0.0
 10
-107.8931
 20
-53.5257
 30
0.0
 10
-107.8931
 20
-53.5257
 30
0.0
 10
-111.5687
 20
-56.0589
 30
0.0
 10
-114.251
 20
-58.4928
 30
0.0
 10
-115.1451
 20
-60.281
 30
0.0
 10
-115.1451
 20
-60.281
 30
0.0
 10
-115.7908
 20
-61.5724
 30
0.0
 10
-115.2941
 20
-61.2247
 30
0.0
 10
-112.5622
 20
-58.6418
 30
0.0
 10
-112.5622
 20
-58.6418
 30
0.0
 10
-110.327
 20
-56.4563
 30
0.0
 10
-107.8434
 20
-54.8171
 30
0.0
 10
-105.2605
 20
-53.5753
 30
0.0
  0
SPLINE
  5
55
330
1F
100
AcDbEntity
  8
layer 1
 62
     7
370
    13
100
AcDbSpline
210
0.0
220
0.0
230
1.0
 70
    11
 71
     3
 72
    64
 73
    60
 74
     0
 42
0.0000000001
 43
0.0000000001
 12
1.0
 22
0.0
 32
0.0
 13
1.0
 23
0.0
 33
0.0
 40
0.0
 40
0.0
 40
0.0
 40
0.0
 40
0.0625
 40
0.0625
 40
0.0625
 40
0.0625
 40
0.125
 40
0.125
 40
0.125
 40
0.125
 40
0.1875
 40
0.1875
 40
0.1875
 40
0.1875
 40
0.25
 40
0.25
 40
0.25
 40
0.25
 40
0.3125
 40
0.3125
 40
0.3125
 40
0.3125
 40
0.375
 40
0.375
 40
0.375
 40
0.375
 40
0.4375
 40
0.4375
 40
0.4375
 40
0.4375
 40
0.5
 40
0.5
 40
0.5
 40
0.5
 40
0.5625
 40
0.5625
 40
0.5625
 40
0.5625
 40
0.625
 40
0.625
 40
0.625
 40
0.625
 40
0.6875
 40
0.6875
 40
0.6875
 40
0.6875
 40
0.75
 40
0.75
 40
0.75
 40
0.75
 40
0.8125
 40
0.8125
 40
0.8125
 40
0.8125
 40
0.875
 40
0.875
 40
0.875
 40
0.875
 40
1.0
 40
1.0
 40
1.0
 40
1.0
 10
-121.2546
 20
-57.8471
 30
0.0
 10
-121.7017
 20
-53.8734
 30
0.0
 10
-123.1421
 20
-50.4957
 30
0.0
 10
-124.5826
 20
-50.0487
 30
0.0
 10
-124.5826
 20
-50.0487
 30
0.0
 10
-125.7747
 20
-49.6513
 30
0.0
 10
-127.2152
 20
-47.2671
 30
0.0
 10
-127.2152
 20
-45.6776
 30
0.0
 10
-127.2152
 20
-45.6776
 30
0.0
 10
-127.2152
 20
-45.1312
 30
0.0
 10
-126.6191
 20
-43.9888
 30
0.0
 10
-125.9237
 20
-43.1444
 30
0.0
 10
-125.9237
 20
-43.1444
 30
0.0
 10
-125.9237
 20
-43.1444
 30
0.0
 10
-124.6323
 20
-41.6046
 30
0.0
 10
-124.6323
 20
-41.6046
 30
0.0
 10
-124.6323
 20
-41.6046
 30
0.0
 10
-124.6323
 20
-41.6046
 30
0.0
 10
-126.7185
 20
-39.5184
 30
0.0
 10
-126.7185
 20
-39.5184
 30
0.0
 10
-126.7185
 20
-39.5184
 30
0.0
 10
-128.5066
 20
-37.7302
 30
0.0
 10
-128.755
 20
-37.1838
 30
0.0
 10
-128.755
 20
-35.048
 30
0.0
 10
-128.755
 20
-35.048
 30
0.0
 10
-128.755
 20
-33.7068
 30
0.0
 10
-128.2086
 20
-31.2729
 30
0.0
 10
-127.4635
 20
-29.4848
 30
0.0
 10
-127.4635
 20
-29.4848
 30
0.0
 10
-125.7251
 20
-25.1137
 30
0.0
 10
-125.7747
 20
-23.2759
 30
0.0
 10
-127.7616
 20
-21.5871
 30
0.0
 10
-127.7616
 20
-21.5871
 30
0.0
 10
-129.1524
 20
-20.3949
 30
0.0
 10
-131.8843
 20
-19.7492
 30
0.0
 10
-131.8843
 20
-20.544
 30
0.0
 10
-131.8843
 20
-20.544
 30
0.0
 10
-131.8843
 20
-20.7426
 30
0.0
 10
-131.3876
 20
-22.7792
 30
0.0
 10
-130.7418
 20
-25.064
 30
0.0
 10
-130.7418
 20
-25.064
 30
0.0
 10
-129.4007
 20
-30.2795
 30
0.0
 10
-129.2517
 20
-37.5315
 30
0.0
 10
-130.5432
 20
-40.9092
 30
0.0
 10
-130.5432
 20
-40.9092
 30
0.0
 10
-130.5432
 20
-40.9092
 30
0.0
 10
-131.3379
 20
-43.1444
 30
0.0
 10
-131.3379
 20
-43.1444
 30
0.0
 10
-131.3379
 20
-43.1444
 30
0.0
 10
-131.3379
 20
-43.1444
 30
0.0
 10
-129.8478
 20
-44.8829
 30
0.0
 10
-129.8478
 20
-44.8829
 30
0.0
 10
-129.8478
 20
-44.8829
 30
0.0
 10
-127.4139
 20
-47.6645
 30
0.0
 10
-123.8375
 20
-54.4694
 30
0.0
 10
-121.8507
 20
-60.1816
 30
0.0
 10
-121.8507
 20
-60.1816
 30
0.0
 10
-121.205
 20
-62.1188
 30
0.0
 10
-120.9069
 20
-60.9267
 30
0.0
 10
-121.2546
 20
-57.8471
 30
0.0
  0
SPLINE
  5
56
330
1F
100
AcDbEntity
  8
layer 1
 62
     7
370
    13
100
AcDbSpline
210
0.0
220
0.0
230
1.0
 70
    11
 71
     3
 72
    40
 73
    36
 74
     0
 42
0.0000000001
 43
0.0000000001
 12
1.0
 22
0.0
 32
0.0
 13
1.0
 23
0.0
 33
0.0
 40
0.0
 40
0.0
 40
0.0
 40
0.0
 40
0.1
 40
0.1
 40
0.1
 40
0.1
 40
0.2
 40
0.2
 40
0.2
 40
0.2
 40
0.3
 40
0.3
 40
0.3
 40
0.3
 40
0.4
 40
0.4
 40
0.4
 40
0.4
 40
0.5
 40
0.5
 40
0.5
 40
0.5
 40
0.6
 40
0.6
 40
0.6
 40
0.6
 40
0.7
 40
0.7
 40
0.7
 40
0.7
 40
0.8
 40
0.8
 40
0.8
 40
0.8
 40
1.0
 40
1.0
 40
1.0
 40
1.0
 10
-83.7528
 20
-42.0019
 30
0.0
 10
-83.7528
 20
-41.7039
 30
0.0
 10
-82.9581
 20
-41.4555
 30
0.0
 10
-81.9647
 20
-41.4555
 30
0.0
 10
-81.9647
 20
-41.4555
 30
0.0
 10
-80.2759
 20
-41.4555
 30
0.0
 10
-80.1268
 20
-41.3562
 30
0.0
 10
-80.1268
 20
-39.9654
 30
0.0
 10
-80.1268
 20
-39.9654
 30
0.0
 10
-80.1268
 20
-39.0713
 30
0.0
 10
-80.7229
 20
-37.7799
 30
0.0
 10
-81.468
 20
-36.8361
 30
0.0
 10
-81.468
 20
-36.8361
 30
0.0
 10
-82.9581
 20
-35.048
 30
0.0
 10
-84.1005
 20
-34.7003
 30
0.0
 10
-83.2561
 20
-36.2897
 30
0.0
 10
-83.2561
 20
-36.2897
 30
0.0
 10
-82.4614
 20
-37.7302
 30
0.0
 10
-82.6104
 20
-38.8726
 30
0.0
 10
-83.5045
 20
-38.8726
 30
0.0
 10
-83.5045
 20
-38.8726
 30
0.0
 10
-83.9515
 20
-38.8726
 30
0.0
 10
-84.5973
 20
-38.1772
 30
0.0
 10
-84.9946
 20
-37.3328
 30
0.0
 10
-84.9946
 20
-37.3328
 30
0.0
 10
-85.3423
 20
-36.4884
 30
0.0
 10
-85.7894
 20
-35.942
 30
0.0
 10
-85.9881
 20
-36.1407
 30
0.0
 10
-85.9881
 20
-36.1407
 30
0.0
 10
-86.5841
 20
-36.7368
 30
0.0
 10
-86.3854
 20
-41.2072
 30
0.0
 10
-85.7397
 20
-41.9026
 30
0.0
 10
-85.7397
 20
-41.9026
 30
0.0
 10
-84.945
 20
-42.6477
 30
0.0
 10
-83.7528
 20
-42.6973
 30
0.0
 10
-83.7528
 20
-42.0019
 30
0.0
  0
SPLINE
  5
57
330
1F
100
AcDbEntity
  8
layer 1
 62
     7
370
    13
100
AcDbSpline
210
0.0
220
0.0
230
1.0
 70
    11
 71
     3
 72
    24
 73
    20
 74
     0
 42
0.0000000001
 43
0.0000000001
 12
1.0
 22
0.0
 32
0.0
 13
1.0
 23
0.0
 33
0.0
 40
0.0
 40
0.0
 40
0.0
 40
0.0
 40
0.1666666666666667
 40
0.1666666666666667
 40
0.1666666666666667
 40
0.1666666666666667
 40
0.3333333333333333
 40
0.3333333333333333
 40
0.3333333333333333
 40
0.3333333333333333
 40
0.5
 40
0.5
 40
0.5
 40
0.5
 40
0.6666666666666666
 40
0.6666666666666666
 40
0.6666666666666666
 40
0.6666666666666666
 40
1.0
 40
1.0
 40
1.0
 40
1.0
 10
-76.4512
 20
-41.4555
 30
0.0
 10
-75.3584
 20
-40.8595
 30
0.0
 10
-73.9179
 20
-38.0282
 30
0.0
 10
-73.9179
 20
-36.5381
 30
0.0
 10
-73.9179
 20
-36.5381
 30
0.0
 10
-73.9179
 20
-35.8427
 30
0.0
 10
-74.1166
 20
-35.8924
 30
0.0
 10
-75.3087
 20
-36.7865
 30
0.0
 10
-75.3087
 20
-36.7865
 30
0.0
 10
-76.0538
 20
-37.3825
 30
0.0
 10
-77.1466
 20
-37.8295
 30
0.0
 10
-77.7426
 20
-37.8295
 30
0.0
 10
-77.7426
 20
-37.8295
 30
0.0
 10
-78.6864
 20
-37.8295
 30
0.0
 10
-78.8354
 20
-38.1772
 30
0.0
 10
-78.8851
 20
-39.9157
 30
0.0
 10
-78.8851
 20
-39.9157
 30
0.0
 10
-78.8851
 20
-42.1509
 30
0.0
 10
-78.3387
 20
-42.449
 30
0.0
 10
-76.4512
 20
-41.4555
 30
0.0
  0
SPLINE
  5
58
330
1F
100
AcDbEntity
  8
layer 1
 62
     7
370
    13
100
AcDbSpline
210
0.0
220
0.0
230
1.0
 70
    11
 71
     3
 72
    36
 73
    32
 74
     0
 42
0.0000000001
 43
0.0000000001
 12
1.0
 22
0.0
 32
0.0
 13
1.0
 23
0.0
 33
0.0
 40
0.0
 40
0.0
 40
0.0
 40
0.0
 40
0.1111111111111111
 40
0.1111111111111111
 40
0.1111111111111111
 40
0.1111111111111111
 40
0.2222222222222222
 40
0.2222222222222222
 40
0.2222222222222222
 40
0.2222222222222222
 40
0.3333333333333333
 40
0.3333333333333333
 40
0.3333333333333333
 40
0.3333333333333333
 40
0.4444444444444444
 40
0.4444444444444444
 40
0.4444444444444444
 40
0.4444444444444444
 40
0.5555555555555556
 40
0.5555555555555556
 40
0.5555555555555556
 40
0.5555555555555556
 40
0.6666666666666666
 40
0.6666666666666666
 40
0.6666666666666666
 40
0.6666666666666666
 40
0.7777777777777778
 40
0.7777777777777778
 40
0.7777777777777778
 40
0.7777777777777778
 40
1.0
 40
1.0
 40
1.0
 40
1.0
 10
-88.72
 20
-38.1772
 30
0.0
 10
-86.9815
 20
-35.942
 30
0.0
 10
-86.9815
 20
-34.9486
 30
0.0
 10
-88.6703
 20
-36.0911
 30
0.0
 10
-88.6703
 20
-36.0911
 30
0.0
 10
-89.3657
 20
-36.5381
 30
0.0
 10
-90.1604
 20
-36.7368
 30
0.0
 10
-90.4585
 20
-36.5878
 30
0.0
 10
-90.4585
 20
-36.5878
 30
0.0
 10
-91.4519
 20
-35.942
 30
0.0
 10
-91.0049
 20
-34.7499
 30
0.0
 10
-89.5644
 20
-34.1042
 30
0.0
 10
-89.5644
 20
-34.1042
 30
0.0
 10
-88.2233
 20
-33.5578
 30
0.0
 10
-88.1736
 20
-33.5081
 30
0.0
 10
-89.316
 20
-33.3095
 30
0.0
 10
-89.316
 20
-33.3095
 30
0.0
 10
-91.1042
 20
-33.0114
 30
0.0
 10
-94.0348
 20
-34.1539
 30
0.0
 10
-94.3825
 20
-35.346
 30
0.0
 10
-94.3825
 20
-35.346
 30
0.0
 10
-94.6309
 20
-36.0911
 30
0.0
 10
-94.3825
 20
-36.6374
 30
0.0
 10
-93.6374
 20
-37.1342
 30
0.0
 10
-93.6374
 20
-37.1342
 30
0.0
 10
-93.0414
 20
-37.5812
 30
0.0
 10
-92.5447
 20
-38.3759
 30
0.0
 10
-92.5447
 20
-38.9223
 30
0.0
 10
-92.5447
 20
-38.9223
 30
0.0
 10
-92.5447
 20
-40.6111
 30
0.0
 10
-90.2101
 20
-40.2138
 30
0.0
 10
-88.72
 20
-38.1772
 30
0.0
  0
SPLINE
  5
59
330
1F
100
AcDbEntity
  8
layer 1
 62
     7
370
    13
100
AcDbSpline
210
0.0
220
0.0
230
1.0
 70
    11
 71
     3
 72
    44
 73
    40
 74
     0
 42
0.0000000001
 43
0.0000000001
 12
1.0
 22
0.0
 32
0.0
 13
1.0
 23
0.0
 33
0.0
 40
0.0
 40
0.0
 40
0.0
 40
0.0
 40
0.0909090909090909
 40
0.0909090909090909
 40
0.0909090909090909
 40
0.0909090909090909
 40
0.1818181818181818
 40
0.1818181818181818
 40
0.1818181818181818
 40
0.1818181818181818
 40
0.2727272727272727
 40
0.2727272727272727
 40
0.2727272727272727
 40
0.2727272727272727
 40
0.3636363636363636
 40
0.3636363636363636
 40
0.3636363636363636
 40
0.3636363636363636
 40
0.4545454545454545
 40
0.4545454545454545
 40
0.4545454545454545
 40
0.4545454545454545
 40
0.5454545454545454
 40
0.5454545454545454
 40
0.5454545454545454
 40
0.5454545454545454
 40
0.6363636363636364
 40
0.6363636363636364
 40
0.6363636363636364
 40
0.6363636363636364
 40
0.7272727272727273
 40
0.7272727272727273
 40
0.7272727272727273
 40
0.7272727272727273
 40
0.8181818181818182
 40
0.8181818181818182
 40
0.8181818181818182
 40
0.8181818181818182
 40
1.0
 40
1.0
 40
1.0
 40
1.0
 10
-75.8551
 20
-34.3029
 30
0.0
 10
-75.9545
 20
-33.3591
 30
0.0
 10
-75.7558
 20
-32.2167
 30
0.0
 10
-75.4578
 20
-31.869
 30
0.0
 10
-75.4578
 20
-31.869
 30
0.0
 10
-73.9179
 20
-30.0312
 30
0.0
 10
-77.8916
 20
-29.3854
 30
0.0
 10
-80.8222
 20
-30.9749
 30
0.0
 10
-80.8222
 20
-30.9749
 30
0.0
 10
-80.8222
 20
-30.9749
 30
0.0
 10
-82.4614
 20
-31.869
 30
0.0
 10
-82.4614
 20
-31.869
 30
0.0
 10
-82.4614
 20
-31.869
 30
0.0
 10
-82.4614
 20
-31.869
 30
0.0
 10
-80.5242
 20
-32.167
 30
0.0
 10
-80.5242
 20
-32.167
 30
0.0
 10
-80.5242
 20
-32.167
 30
0.0
 10
-79.4315
 20
-32.316
 30
0.0
 10
-78.5374
 20
-32.6141
 30
0.0
 10
-78.587
 20
-32.8128
 30
0.0
 10
-78.587
 20
-32.8128
 30
0.0
 10
-78.587
 20
-33.0114
 30
0.0
 10
-78.587
 20
-33.4585
 30
0.0
 10
-78.587
 20
-33.7565
 30
0.0
 10
-78.587
 20
-33.7565
 30
0.0
 10
-78.587
 20
-34.1539
 30
0.0
 10
-79.3321
 20
-34.2035
 30
0.0
 10
-80.7726
 20
-33.9552
 30
0.0
 10
-80.7726
 20
-33.9552
 30
0.0
 10
-82.3124
 20
-33.7068
 30
0.0
 10
-82.8091
 20
-33.7565
 30
0.0
 10
-82.4614
 20
-34.1539
 30
0.0
 10
-82.4614
 20
-34.1539
 30
0.0
 10
-81.3686
 20
-35.2963
 30
0.0
 10
-78.7857
 20
-36.2897
 30
0.0
 10
-77.2956
 20
-36.1904
 30
0.0
 10
-77.2956
 20
-36.1904
 30
0.0
 10
-75.8551
 20
-36.0414
 30
0.0
 10
-75.7558
 20
-35.8924
 30
0.0
 10
-75.8551
 20
-34.3029
 30
0.0
  0
SPLINE
  5
5A
330
1F
100
AcDbEntity
  8
layer 1
 62
     7
370
    13
100
AcDbSpline
210
0.0
220
0.0
230
1.0
 70
    11
 71
     3
 72
    44
 73
    40
 74
     0
 42
0.0000000001
 43
0.0000000001
 12
1.0
 22
0.0
 32
0.0
 13
1.0
 23
0.0
 33
0.0
 40
0.0
 40
0.0
 40
0.0
 40
0.0
 40
0.0909090909090909
 40
0.0909090909090909
 40
0.0909090909090909
 40
0.0909090909090909
 40
0.1818181818181818
 40
0.1818181818181818
 40
0.1818181818181818
 40
0.1818181818181818
 40
0.2727272727272727
 40
0.2727272727272727
 40
0.2727272727272727
 40
0.2727272727272727
 40
0.3636363636363636
 40
0.3636363636363636
 40
0.3636363636363636
 40
0.3636363636363636
 40
0.4545454545454545
 40
0.4545454545454545
 40
0.4545454545454545
 40
0.4545454545454545
 40
0.5454545454545454
 40
0.5454545454545454
 40
0.5454545454545454
 40
0.5454545454545454
 40
0.6363636363636364
 40
0.6363636363636364
 40
0.6363636363636364
 40
0.6363636363636364
 40
0.7272727272727273
 40
0.7272727272727273
 40
0.7272727272727273
 40
0.7272727272727273
 40
0.8181818181818182
 40
0.8181818181818182
 40
0.8181818181818182
 40
0.8181818181818182
 40
1.0
 40
1.0
 40
1.0
 40
1.0
 10
-87.8756
 20
-31.72
 30
0.0
 10
-87.8756
 20
-31.4716
 30
0.0
 10
-88.3723
 20
-31.1239
 30
0.0
 10
-88.9187
 20
-30.9749
 30
0.0
 10
-88.9187
 20
-30.9749
 30
0.0
 10
-90.1108
 20
-30.6769
 30
0.0
 10
-90.8558
 20
-29.1868
 30
0.0
 10
-90.1108
 20
-28.4914
 30
0.0
 10
-90.1108
 20
-28.4914
 30
0.0
 10
-89.8127
 20
-28.1933
 30
0.0
 10
-89.1173
 20
-28.392
 30
0.0
 10
-88.2233
 20
-29.0874
 30
0.0
 10
-88.2233
 20
-29.0874
 30
0.0
 10
-86.6835
 20
-30.2795
 30
0.0
 10
-86.4848
 20
-29.7331
 30
0.0
 10
-87.6272
 20
-27.4979
 30
0.0
 10
-87.6272
 20
-27.4979
 30
0.0
 10
-88.3723
 20
-26.1071
 30
0.0
 10
-90.2598
 20
-24.4183
 30
0.0
 10
-91.0545
 20
-24.4183
 30
0.0
 10
-91.0545
 20
-24.4183
 30
0.0
 10
-91.3029
 20
-24.4183
 30
0.0
 10
-91.5016
 20
-25.0144
 30
0.0
 10
-91.6009
 20
-25.8091
 30
0.0
 10
-91.6009
 20
-25.8091
 30
0.0
 10
-91.7499
 20
-26.8025
 30
0.0
 10
-92.1473
 20
-27.2992
 30
0.0
 10
-93.091
 20
-27.4979
 30
0.0
 10
-93.091
 20
-27.4979
 30
0.0
 10
-94.2335
 20
-27.796
 30
0.0
 10
-94.4322
 20
-28.094
 30
0.0
 10
-94.1838
 20
-29.5345
 30
0.0
 10
-94.1838
 20
-29.5345
 30
0.0
 10
-94.0845
 20
-30.1305
 30
0.0
 10
-89.9618
 20
-32.167
 30
0.0
 10
-88.8193
 20
-32.167
 30
0.0
 10
-88.8193
 20
-32.167
 30
0.0
 10
-88.3226
 20
-32.167
 30
0.0
 10
-87.8756
 20
-31.9683
 30
0.0
 10
-87.8756
 20
-31.72
 30
0.0
  0
SPLINE
  5
5B
330
1F
100
AcDbEntity
  8
layer 1
 62
     7
370
    13
100
AcDbSpline
210
0.0
220
0.0
230
1.0
 70
    11
 71
     3
 72
    20
 73
    16
 74
     0
 42
0.0000000001
 43
0.0000000001
 12
1.0
 22
0.0
 32
0.0
 13
1.0
 23
0.0
 33
0.0
 40
0.0
 40
0.0
 40
0.0
 40
0.0
 40
0.2
 40
0.2
 40
0.2
 40
0.2
 40
0.4
 40
0.4
 40
0.4
 40
0.4
 40
0.6
 40
0.6
 40
0.6
 40
0.6
 40
1.0
 40
1.0
 40
1.0
 40
1.0
 10
-74.961
 20
-28.243
 30
0.0
 10
-74.961
 20
-27.5973
 30
0.0
 10
-77.1962
 20
-23.8719
 30
0.0
 10
-77.5936
 20
-23.8719
 30
0.0
 10
-77.5936
 20
-23.8719
 30
0.0
 10
-77.7923
 20
-23.8719
 30
0.0
 10
-78.0407
 20
-24.8157
 30
0.0
 10
-78.14
 20
-25.9084
 30
0.0
 10
-78.14
 20
-25.9084
 30
0.0
 10
-78.3387
 20
-27.6469
 30
0.0
 10
-78.1897
 20
-27.9946
 30
0.0
 10
-77.2956
 20
-28.1933
 30
0.0
 10
-77.2956
 20
-28.1933
 30
0.0
 10
-75.5074
 20
-28.541
 30
0.0
 10
-74.961
 20
-28.541
 30
0.0
 10
-74.961
 20
-28.243
 30
0.0
  0
SPLINE
  5
5C
330
1F
100
AcDbEntity
  8
layer 1
 62
     7
370
    13
100
AcDbSpline
210
0.0
220
0.0
230
1.0
 70
    11
 71
     3
 72
    56
 73
    52
 74
     0
 42
0.0000000001
 43
0.0000000001
 12
1.0
 22
0.0
 32
0.0
 13
1.0
 23
0.0
 33
0.0
 40
0.0
 40
0.0
 40
0.0
 40
0.0
 40
0.0714285714285714
 40
0.0714285714285714
 40
0.0714285714285714
 40
0.0714285714285714
 40
0.1428571428571428
 40
0.1428571428571428
 40
0.1428571428571428
 40
0.1428571428571428
 40
0.2142857142857143
 40
0.2142857142857143
 40
0.2142857142857143
 40
0.2142857142857143
 40
0.2857142857142857
 40
0.2857142857142857
 40
0.2857142857142857
 40
0.2857142857142857
 40
0.3571428571428572
 40
0.3571428571428572
 40
0.3571428571428572
 40
0.3571428571428572
 40
0.4285714285714285
 40
0.4285714285714285
 40
0.4285714285714285
 40
0.4285714285714285
 40
0.5
 40
0.5
 40
0.5
 40
0.5
 40
0.5714285714285714
 40
0.5714285714285714
 40
0.5714285714285714
 40
0.5714285714285714
 40
0.6428571428571429
 40
0.6428571428571429
 40
0.6428571428571429
 40
0.6428571428571429
 40
0.7142857142857143
 40
0.7142857142857143
 40
0.7142857142857143
 40
0.7142857142857143
 40
0.7857142857142857
 40
0.7857142857142857
 40
0.7857142857142857
 40
0.7857142857142857
 40
0.8571428571428571
 40
0.8571428571428571
 40
0.8571428571428571
 40
0.8571428571428571
 40
1.0
 40
1.0
 40
1.0
 40
1.0
 10
-94.1838
 20
-25.8588
 30
0.0
 10
-93.8858
 20
-25.5111
 30
0.0
 10
-93.5878
 20
-24.8157
 30
0.0
 10
-93.5878
 20
-24.3686
 30
0.0
 10
-93.5878
 20
-24.3686
 30
0.0
 10
-93.5878
 20
-22.9778
 30
0.0
 10
-89.9121
 20
-22.1334
 30
0.0
 10
-89.167
 20
-23.3752
 30
0.0
 10
-89.167
 20
-23.3752
 30
0.0
 10
-88.72
 20
-24.17
 30
0.0
 10
-87.3789
 20
-23.9713
 30
0.0
 10
-87.3789
 20
-23.1269
 30
0.0
 10
-87.3789
 20
-23.1269
 30
0.0
 10
-87.3789
 20
-22.3818
 30
0.0
 10
-85.0443
 20
-20.2459
 30
0.0
 10
-84.1999
 20
-20.2459
 30
0.0
 10
-84.1999
 20
-20.2459
 30
0.0
 10
-83.9515
 20
-20.2459
 30
0.0
 10
-83.3058
 20
-20.693
 30
0.0
 10
-82.7594
 20
-21.2394
 30
0.0
 10
-82.7594
 20
-21.2394
 30
0.0
 10
-81.8653
 20
-22.1831
 30
0.0
 10
-79.0838
 20
-22.5308
 30
0.0
 10
-79.0838
 20
-21.6864
 30
0.0
 10
-79.0838
 20
-21.6864
 30
0.0
 10
-79.0838
 20
-20.842
 30
0.0
 10
-84.4482
 20
-17.1663
 30
0.0
 10
-87.2298
 20
-16.0735
 30
0.0
 10
-87.2298
 20
-16.0735
 30
0.0
 10
-91.3029
 20
-14.4841
 30
0.0
 10
-100.0947
 20
-14.3847
 30
0.0
 10
-104.7141
 20
-15.8252
 30
0.0
 10
-104.7141
 20
-15.8252
 30
0.0
 10
-104.7141
 20
-15.8252
 30
0.0
 10
-107.7937
 20
-16.8186
 30
0.0
 10
-107.7937
 20
-16.8186
 30
0.0
 10
-107.7937
 20
-16.8186
 30
0.0
 10
-107.7937
 20
-16.8186
 30
0.0
 10
-104.8135
 20
-17.1663
 30
0.0
 10
-104.8135
 20
-17.1663
 30
0.0
 10
-104.8135
 20
-17.1663
 30
0.0
 10
-100.9888
 20
-17.663
 30
0.0
 10
-97.9588
 20
-19.6002
 30
0.0
 10
-96.6674
 20
-22.4811
 30
0.0
 10
-96.6674
 20
-22.4811
 30
0.0
 10
-96.121
 20
-23.6732
 30
0.0
 10
-95.6739
 20
-25.064
 30
0.0
 10
-95.6739
 20
-25.5608
 30
0.0
 10
-95.6739
 20
-25.5608
 30
0.0
 10
-95.6739
 20
-26.6038
 30
0.0
 10
-95.0779
 20
-26.7032
 30
0.0
 10
-94.1838
 20
-25.8588
 30
0.0
  0
SPLINE
  5
5D
330
1F
100
AcDbEntity
  8
layer 1
 62
     7
370
    13
100
AcDbSpline
210
0.0
220
0.0
230
1.0
 70
    11
 71
     3
 72
    72
 73
    68
 74
     0
 42
0.0000000001
 43
0.0000000001
 12
1.0
 22
0.0
 32
0.0
 13
1.0
 23
0.0
 33
0.0
 40
0.0
 40
0.0
 40
0.0
 40
0.0
 40
0.0555555555555556
 40
0.0555555555555556
 40
0.0555555555555556
 40
0.0555555555555556
 40
0.1111111111111111
 40
0.1111111111111111
 40
0.1111111111111111
 40
0.1111111111111111
 40
0.1666666666666667
 40
0.1666666666666667
 40
0.1666666666666667
 40
0.1666666666666667
 40
0.2222222222222222
 40
0.2222222222222222
 40
0.2222222222222222
 40
0.2222222222222222
 40
0.2777777777777778
 40
0.2777777777777778
 40
0.2777777777777778
 40
0.2777777777777778
 40
0.3333333333333333
 40
0.3333333333333333
 40
0.3333333333333333
 40
0.3333333333333333
 40
0.3888888888888889
 40
0.3888888888888889
 40
0.3888888888888889
 40
0.3888888888888889
 40
0.4444444444444444
 40
0.4444444444444444
 40
0.4444444444444444
 40
0.4444444444444444
 40
0.5
 40
0.5
 40
0.5
 40
0.5
 40
0.5555555555555556
 40
0.5555555555555556
 40
0.5555555555555556
 40
0.5555555555555556
 40
0.6111111111111112
 40
0.6111111111111112
 40
0.6111111111111112
 40
0.6111111111111112
 40
0.6666666666666666
 40
0.6666666666666666
 40
0.6666666666666666
 40
0.6666666666666666
 40
0.7222222222222222
 40
0.7222222222222222
 40
0.7222222222222222
 40
0.7222222222222222
 40
0.7777777777777778
 40
0.7777777777777778
 40
0.7777777777777778
 40
0.7777777777777778
 40
0.8333333333333334
 40
0.8333333333333334
 40
0.8333333333333334
 40
0.8333333333333334
 40
0.8888888888888888
 40
0.8888888888888888
 40
0.8888888888888888
 40
0.8888888888888888
 40
1.0
 40
1.0
 40
1.0
 40
1.0
 10
-179.37
 20
-47.9625
 30
0.0
 10
-175.744
 20
-42.2006
 30
0.0
 10
-169.3861
 20
-37.7799
 30
0.0
 10
-161.687
 20
-35.644
 30
0.0
 10
-161.687
 20
-35.644
 30
0.0
 10
-161.687
 20
-35.644
 30
0.0
 10
-159.1538
 20
-34.9486
 30
0.0
 10
-159.1538
 20
-34.9486
 30
0.0
 10
-159.1538
 20
-34.9486
 30
0.0
 10
-159.1538
 20
-34.9486
 30
0.0
 10
-162.2334
 20
-34.2532
 30
0.0
 10
-162.2334
 20
-34.2532
 30
0.0
 10
-162.2334
 20
-34.2532
 30
0.0
 10
-169.3364
 20
-32.7134
 30
0.0
 10
-172.8631
 20
-30.0808
 30
0.0
 10
-173.4591
 20
-25.7594
 30
0.0
 10
-173.4591
 20
-25.7594
 30
0.0
 10
-173.6578
 20
-24.468
 30
0.0
 10
-174.4029
 20
-22.5805
 30
0.0
 10
-175.1479
 20
-21.5374
 30
0.0
 10
-175.1479
 20
-21.5374
 30
0.0
 10
-175.8433
 20
-20.4943
 30
0.0
 10
-176.2904
 20
-19.5009
 30
0.0
 10
-176.0917
 20
-19.3022
 30
0.0
 10
-176.0917
 20
-19.3022
 30
0.0
 10
-175.9427
 20
-19.1532
 30
0.0
 10
-174.7506
 20
-19.3518
 30
0.0
 10
-173.5088
 20
-19.7989
 30
0.0
 10
-173.5088
 20
-19.7989
 30
0.0
 10
-171.4226
 20
-20.544
 30
0.0
 10
-171.2736
 20
-20.544
 30
0.0
 10
-171.671
 20
-19.7989
 30
0.0
 10
-171.671
 20
-19.7989
 30
0.0
 10
-172.565
 20
-18.2094
 30
0.0
 10
-175.595
 20
-15.4278
 30
0.0
 10
-177.2838
 20
-14.7324
 30
0.0
 10
-177.2838
 20
-14.7324
 30
0.0
 10
-179.5687
 20
-13.7887
 30
0.0
 10
-179.7177
 20
-13.8383
 30
0.0
 10
-178.7739
 20
-15.3285
 30
0.0
 10
-178.7739
 20
-15.3285
 30
0.0
 10
-177.6315
 20
-17.0173
 30
0.0
 10
-177.6812
 20
-18.8055
 30
0.0
 10
-178.8733
 20
-20.2956
 30
0.0
 10
-178.8733
 20
-20.2956
 30
0.0
 10
-180.5124
 20
-22.3818
 30
0.0
 10
-180.6118
 20
-23.5739
 30
0.0
 10
-179.37
 20
-25.1634
 30
0.0
 10
-179.37
 20
-25.1634
 30
0.0
 10
-179.37
 20
-25.1634
 30
0.0
 10
-178.2276
 20
-26.6535
 30
0.0
 10
-178.2276
 20
-26.6535
 30
0.0
 10
-178.2276
 20
-26.6535
 30
0.0
 10
-179.9457
 20
-27.5674
 30
0.0
 10
-181.0109
 20
-27.3689
 30
0.0
 10
-182.5986
 20
-26.0575
 30
0.0
 10
-182.5986
 20
-26.0575
 30
0.0
 10
-182.5986
 20
-26.0575
 30
0.0
 10
-182.549
 20
-40.3628
 30
0.0
 10
-182.549
 20
-40.3628
 30
0.0
 10
-182.549
 20
-40.3628
 30
0.0
 10
-182.549
 20
-54.6184
 30
0.0
 10
-182.549
 20
-54.6681
 30
0.0
 10
-181.6052
 20
-52.3336
 30
0.0
 10
-181.6052
 20
-52.3336
 30
0.0
 10
-181.1085
 20
-51.0421
 30
0.0
 10
-180.1151
 20
-49.0553
 30
0.0
 10
-179.37
 20
-47.9625
 30
0.0
  0
SPLINE
  5
5E
330
1F
100
AcDbEntity
  8
layer 1
 62
     7
370
    13
100
AcDbSpline
210
0.0
220
0.0
230
1.0
 70
    11
 71
     3
 72
    68
 73
    64
 74
     0
 42
0.0000000001
 43
0.0000000001
 12
1.0
 22
0.0
 32
0.0
 13
1.0
 23
0.0
 33
0.0
 40
0.0
 40
0.0
 40
0.0
 40
0.0
 40
0.0588235294117647
 40
0.0588235294117647
 40
0.0588235294117647
 40
0.0588235294117647
 40
0.1176470588235294
 40
0.1176470588235294
 40
0.1176470588235294
 40
0.1176470588235294
 40
0.1764705882352941
 40
0.1764705882352941
 40
0.1764705882352941
 40
0.1764705882352941
 40
0.2352941176470588
 40
0.2352941176470588
 40
0.2352941176470588
 40
0.2352941176470588
 40
0.2941176470588235
 40
0.2941176470588235
 40
0.2941176470588235
 40
0.2941176470588235
 40
0.3529411764705883
 40
0.3529411764705883
 40
0.3529411764705883
 40
0.3529411764705883
 40
0.4117647058823529
 40
0.4117647058823529
 40
0.4117647058823529
 40
0.4117647058823529
 40
0.4705882352941176
 40
0.4705882352941176
 40
0.4705882352941176
 40
0.4705882352941176
 40
0.5294117647058824
 40
0.5294117647058824
 40
0.5294117647058824
 40
0.5294117647058824
 40
0.5882352941176471
 40
0.5882352941176471
 40
0.5882352941176471
 40
0.5882352941176471
 40
0.6470588235294118
 40
0.6470588235294118
 40
0.6470588235294118
 40
0.6470588235294118
 40
0.7058823529411765
 40
0.7058823529411765
 40
0.7058823529411765
 40
0.7058823529411765
 40
0.7647058823529411
 40
0.7647058823529411
 40
0.7647058823529411
 40
0.7647058823529411
 40
0.8235294117647058
 40
0.8235294117647058
 40
0.8235294117647058
 40
0.8235294117647058
 40
0.8823529411764706
 40
0.8823529411764706
 40
0.8823529411764706
 40
0.8823529411764706
 40
1.0
 40
1.0
 40
1.0
 40
1.0
 10
-157.2166
 20
-30.8259
 30
0.0
 10
-157.2166
 20
-30.6272
 30
0.0
 10
-157.6637
 20
-29.9318
 30
0.0
 10
-158.2597
 20
-29.2364
 30
0.0
 10
-158.2597
 20
-29.2364
 30
0.0
 10
-159.6505
 20
-27.4483
 30
0.0
 10
-161.2897
 20
-22.8288
 30
0.0
 10
-161.687
 20
-19.6002
 30
0.0
 10
-161.687
 20
-19.6002
 30
0.0
 10
-162.3824
 20
-13.6893
 30
0.0
 10
-160.3956
 20
-8.2752
 30
0.0
 10
-155.6271
 20
-2.861
 30
0.0
 10
-155.6271
 20
-2.861
 30
0.0
 10
-151.8521
 20
1.4107
 30
0.0
 10
-148.9215
 20
5.9805
 30
0.0
 10
-150.3123
 20
5.3348
 30
0.0
 10
-150.3123
 20
5.3348
 30
0.0
 10
-150.8587
 20
5.0864
 30
0.0
 10
-151.9018
 20
4.9374
 30
0.0
 10
-152.6965
 20
4.9871
 30
0.0
 10
-152.6965
 20
4.9871
 30
0.0
 10
-153.4913
 20
5.0367
 30
0.0
 10
-154.137
 20
4.7884
 30
0.0
 10
-154.137
 20
4.4904
 30
0.0
 10
-154.137
 20
4.4904
 30
0.0
 10
-154.137
 20
4.1427
 30
0.0
 10
-154.4847
 20
3.4473
 30
0.0
 10
-154.9814
 20
2.9505
 30
0.0
 10
-154.9814
 20
2.9505
 30
0.0
 10
-156.7199
 20
0.9637
 30
0.0
 10
-161.091
 20
2.1558
 30
0.0
 10
-163.5745
 20
5.1858
 30
0.0
 10
-163.5745
 20
5.1858
 30
0.0
 10
-164.3196
 20
6.1295
 30
0.0
 10
-164.6176
 20
6.2288
 30
0.0
 10
-164.866
 20
5.6328
 30
0.0
 10
-164.866
 20
5.6328
 30
0.0
 10
-165.015
 20
5.2354
 30
0.0
 10
-165.6607
 20
4.391
 30
0.0
 10
-166.3065
 20
3.7453
 30
0.0
 10
-166.3065
 20
3.7453
 30
0.0
 10
-167.4489
 20
2.6028
 30
0.0
 10
-167.4489
 20
2.5532
 30
0.0
 10
-166.5051
 20
1.6591
 30
0.0
 10
-166.5051
 20
1.6591
 30
0.0
 10
-165.1144
 20
0.467
 30
0.0
 10
-165.2634
 20
-1.0232
 30
0.0
 10
-166.8032
 20
-2.2649
 30
0.0
 10
-166.8032
 20
-2.2649
 30
0.0
 10
-170.0815
 20
-4.7982
 30
0.0
 10
-170.3795
 20
-8.1261
 30
0.0
 10
-167.9456
 20
-13.292
 30
0.0
 10
-167.9456
 20
-13.292
 30
0.0
 10
-166.9522
 20
-15.2788
 30
0.0
 10
-165.9091
 20
-18.0107
 30
0.0
 10
-165.5614
 20
-19.4015
 30
0.0
 10
-165.5614
 20
-19.4015
 30
0.0
 10
-165.2137
 20
-20.7923
 30
0.0
 10
-164.3693
 20
-23.0275
 30
0.0
 10
-163.7236
 20
-24.319
 30
0.0
 10
-163.7236
 20
-24.319
 30
0.0
 10
-162.1341
 20
-27.4979
 30
0.0
 10
-157.2166
 20
-32.3657
 30
0.0
 10
-157.2166
 20
-30.8259
 30
0.0
  0
SPLINE
  5
5F
330
1F
100
AcDbEntity
  8
layer 1
 62
     7
370
    13
100
AcDbSpline
210
0.0
220
0.0
230
1.0
 70
    11
 71
     3
 72
    64
 73
    60
 74
     0
 42
0.0000000001
 43
0.0000000001
 12
1.0
 22
0.0
 32
0.0
 13
1.0
 23
0.0
 33
0.0
 40
0.0
 40
0.0
 40
0.0
 40
0.0
 40
0.0625
 40
0.0625
 40
0.0625
 40
0.0625
 40
0.125
 40
0.125
 40
0.125
 40
0.125
 40
0.1875
 40
0.1875
 40
0.1875
 40
0.1875
 40
0.25
 40
0.25
 40
0.25
 40
0.25
 40
0.3125
 40
0.3125
 40
0.3125
 40
0.3125
 40
0.375
 40
0.375
 40
0.375
 40
0.375
 40
0.4375
 40
0.4375
 40
0.4375
 40
0.4375
 40
0.5
 40
0.5
 40
0.5
 40
0.5
 40
0.5625
 40
0.5625
 40
0.5625
 40
0.5625
 40
0.625
 40
0.625
 40
0.625
 40
0.625
 40
0.6875
 40
0.6875
 40
0.6875
 40
0.6875
 40
0.75
 40
0.75
 40
0.75
 40
0.75
 40
0.8125
 40
0.8125
 40
0.8125
 40
0.8125
 40
0.875
 40
0.875
 40
0.875
 40
0.875
 40
1.0
 40
1.0
 40
1.0
 40
1.0
 10
-173.4591
 20
-9.5169
 30
0.0
 10
-174.0552
 20
-5.0465
 30
0.0
 10
-173.2604
 20
-2.0663
 30
0.0
 10
-170.8762
 20
0.318
 30
0.0
 10
-170.8762
 20
0.318
 30
0.0
 10
-169.9325
 20
1.3114
 30
0.0
 10
-169.1377
 20
2.1558
 30
0.0
 10
-169.1377
 20
2.2551
 30
0.0
 10
-169.1377
 20
2.2551
 30
0.0
 10
-169.1377
 20
2.3545
 30
0.0
 10
-169.8828
 20
2.4042
 30
0.0
 10
-170.7769
 20
2.4042
 30
0.0
 10
-170.7769
 20
2.4042
 30
0.0
 10
-172.416
 20
2.3545
 30
0.0
 10
-174.3035
 20
3.944
 30
0.0
 10
-174.3035
 20
5.3844
 30
0.0
 10
-174.3035
 20
5.3844
 30
0.0
 10
-174.3035
 20
5.7321
 30
0.0
 10
-174.9989
 20
6.1792
 30
0.0
 10
-175.7937
 20
6.3779
 30
0.0
 10
-175.7937
 20
6.3779
 30
0.0
 10
-177.4825
 20
6.7256
 30
0.0
 10
-178.6746
 20
7.868
 30
0.0
 10
-179.1713
 20
9.6065
 30
0.0
 10
-179.1713
 20
9.6065
 30
0.0
 10
-179.6184
 20
10.9973
 30
0.0
 10
-177.8302
 20
15.3187
 30
0.0
 10
-176.6381
 20
15.7657
 30
0.0
 10
-176.6381
 20
15.7657
 30
0.0
 10
-175.3963
 20
16.2624
 30
0.0
 10
-175.6943
 20
16.8585
 30
0.0
 10
-177.3335
 20
17.1565
 30
0.0
 10
-177.3335
 20
17.1565
 30
0.0
 10
-178.1282
 20
17.3055
 30
0.0
 10
-179.519
 20
18.0506
 30
0.0
 10
-180.3634
 20
18.7957
 30
0.0
 10
-180.3634
 20
18.7957
 30
0.0
 10
-181.2575
 20
19.4911
 30
0.0
 10
-182.4496
 20
20.0871
 30
0.0
 10
-182.5986
 20
20.0871
 30
0.0
 10
-182.5986
 20
20.0871
 30
0.0
 10
-182.6483
 20
8.8614
 30
0.0
 10
-182.5986
 20
0.2683
 30
0.0
 10
-182.5986
 20
-11.8515
 30
0.0
 10
-182.5986
 20
-11.8515
 30
0.0
 10
-182.5986
 20
-11.8515
 30
0.0
 10
-180.1151
 20
-11.6031
 30
0.0
 10
-180.1151
 20
-11.6031
 30
0.0
 10
-180.1151
 20
-11.6031
 30
0.0
 10
-178.6746
 20
-11.4541
 30
0.0
 10
-176.7871
 20
-11.7025
 30
0.0
 10
-175.595
 20
-12.1495
 30
0.0
 10
-175.595
 20
-12.1495
 30
0.0
 10
-174.4525
 20
-12.5469
 30
0.0
 10
-173.4095
 20
-12.9443
 30
0.0
 10
-173.2604
 20
-12.9443
 30
0.0
 10
-173.2604
 20
-12.9443
 30
0.0
 10
-173.1114
 20
-12.9939
 30
0.0
 10
-173.1611
 20
-11.4541
 30
0.0
 10
-173.4591
 20
-9.5169
 30
0.0
  0
SPLINE
  5
60
330
1F
100
AcDbEntity
  8
layer 1
 62
     7
370
    13
100
AcDbSpline
210
0.0
220
0.0
230
1.0
 70
    11
 71
     3
 72
    16
 73
    12
 74
     0
 42
0.0000000001
 43
0.0000000001
 12
1.0
 22
0.0
 32
0.0
 13
1.0
 23
0.0
 33
0.0
 40
0.0
 40
0.0
 40
0.0
 40
0.0
 40
0.25
 40
0.25
 40
0.25
 40
0.25
 40
0.5
 40
0.5
 40
0.5
 40
0.5
 40
1.0
 40
1.0
 40
1.0
 40
1.0
 10
-167.8463
 20
11.2953
 30
0.0
 10
-166.4555
 20
12.7358
 30
0.0
 10
-164.866
 20
16.4115
 30
0.0
 10
-165.313
 20
17.1069
 30
0.0
 10
-165.313
 20
17.1069
 30
0.0
 10
-165.7104
 20
17.7526
 30
0.0
 10
-168.3927
 20
16.1134
 30
0.0
 10
-169.8331
 20
14.3749
 30
0.0
 10
-169.8331
 20
14.3749
 30
0.0
 10
-173.2604
 20
10.3516
 30
0.0
 10
-171.4226
 20
7.57
 30
0.0
 10
-167.8463
 20
11.2953
 30
0.0
  0
SPLINE
  5
61
330
1F
100
AcDbEntity
  8
layer 1
 62
     7
370
    13
100
AcDbSpline
210
0.0
220
0.0
230
1.0
 70
    11
 71
     3
 72
    24
 73
    20
 74
     0
 42
0.0000000001
 43
0.0000000001
 12
1.0
 22
0.0
 32
0.0
 13
1.0
 23
0.0
 33
0.0
 40
0.0
 40
0.0
 40
0.0
 40
0.0
 40
0.1666666666666667
 40
0.1666666666666667
 40
0.1666666666666667
 40
0.1666666666666667
 40
0.3333333333333333
 40
0.3333333333333333
 40
0.3333333333333333
 40
0.3333333333333333
 40
0.5
 40
0.5
 40
0.5
 40
0.5
 40
0.6666666666666666
 40
0.6666666666666666
 40
0.6666666666666666
 40
0.6666666666666666
 40
1.0
 40
1.0
 40
1.0
 40
1.0
 10
-153.5906
 20
21.0806
 30
0.0
 10
-152.5972
 20
21.5773
 30
0.0
 10
-151.7031
 20
22.4217
 30
0.0
 10
-151.6038
 20
22.8687
 30
0.0
 10
-151.6038
 20
22.8687
 30
0.0
 10
-151.5044
 20
23.5641
 30
0.0
 10
-151.9018
 20
23.7131
 30
0.0
 10
-153.7893
 20
23.7131
 30
0.0
 10
-153.7893
 20
23.7131
 30
0.0
 10
-156.4716
 20
23.7131
 30
0.0
 10
-158.2597
 20
23.1667
 30
0.0
 10
-159.5015
 20
21.8753
 30
0.0
 10
-159.5015
 20
21.8753
 30
0.0
 10
-160.2466
 20
21.1799
 30
0.0
 10
-160.2962
 20
20.8819
 30
0.0
 10
-159.7002
 20
20.5342
 30
0.0
 10
-159.7002
 20
20.5342
 30
0.0
 10
-158.5577
 20
19.7891
 30
0.0
 10
-155.4781
 20
20.0375
 30
0.0
 10
-153.5906
 20
21.0806
 30
0.0
  0
SPLINE
  5
62
330
1F
100
AcDbEntity
  8
layer 1
 62
     7
370
    13
100
AcDbSpline
210
0.0
220
0.0
230
1.0
 70
    11
 71
     3
 72
    16
 73
    12
 74
     0
 42
0.0000000001
 43
0.0000000001
 12
1.0
 22
0.0
 32
0.0
 13
1.0
 23
0.0
 33
0.0
 40
0.0
 40
0.0
 40
0.0
 40
0.0
 40
0.25
 40
0.25
 40
0.25
 40
0.25
 40
0.5
 40
0.5
 40
0.5
 40
0.5
 40
1.0
 40
1.0
 40
1.0
 40
1.0
 10
-166.5548
 20
21.1302
 30
0.0
 10
-166.5548
 20
23.1171
 30
0.0
 10
-174.0055
 20
25.9483
 30
0.0
 10
-175.0486
 20
24.3092
 30
0.0
 10
-175.0486
 20
24.3092
 30
0.0
 10
-175.3466
 20
23.8621
 30
0.0
 10
-173.6578
 20
22.1733
 30
0.0
 10
-171.969
 20
21.2296
 30
0.0
 10
-171.969
 20
21.2296
 30
0.0
 10
-170.6775
 20
20.5342
 30
0.0
 10
-166.5548
 20
20.4348
 30
0.0
 10
-166.5548
 20
21.1302
 30
0.0
  0
SPLINE
  5
63
330
1F
100
AcDbEntity
  8
layer 1
 62
     7
370
    13
100
AcDbSpline
210
0.0
220
0.0
230
1.0
 70
    11
 71
     3
 72
    24
 73
    20
 74
     0
 42
0.0000000001
 43
0.0000000001
 12
1.0
 22
0.0
 32
0.0
 13
1.0
 23
0.0
 33
0.0
 40
0.0
 40
0.0
 40
0.0
 40
0.0
 40
0.1666666666666667
 40
0.1666666666666667
 40
0.1666666666666667
 40
0.1666666666666667
 40
0.3333333333333333
 40
0.3333333333333333
 40
0.3333333333333333
 40
0.3333333333333333
 40
0.5
 40
0.5
 40
0.5
 40
0.5
 40
0.6666666666666666
 40
0.6666666666666666
 40
0.6666666666666666
 40
0.6666666666666666
 40
1.0
 40
1.0
 40
1.0
 40
1.0
 10
-161.091
 20
28.1339
 30
0.0
 10
-161.091
 20
30.4684
 30
0.0
 10
-161.3393
 20
31.7102
 30
0.0
 10
-161.9354
 20
32.2566
 30
0.0
 10
-161.9354
 20
32.2566
 30
0.0
 10
-162.6805
 20
33.0017
 30
0.0
 10
-162.8295
 20
33.0017
 30
0.0
 10
-163.4255
 20
32.2566
 30
0.0
 10
-163.4255
 20
32.2566
 30
0.0
 10
-164.568
 20
30.8658
 30
0.0
 10
-164.7667
 20
26.0477
 30
0.0
 10
-163.7236
 20
24.4582
 30
0.0
 10
-163.7236
 20
24.4582
 30
0.0
 10
-162.8791
 20
23.1667
 30
0.0
 10
-162.7798
 20
23.1667
 30
0.0
 10
-161.9851
 20
23.9615
 30
0.0
 10
-161.9851
 20
23.9615
 30
0.0
 10
-161.3393
 20
24.5575
 30
0.0
 10
-161.091
 20
25.7
 30
0.0
 10
-161.091
 20
28.1339
 30
0.0
  0
SPLINE
  5
64
330
1F
100
AcDbEntity
  8
layer 1
 62
     7
370
    13
100
AcDbSpline
210
0.0
220
0.0
230
1.0
 70
    11
 71
     3
 72
    32
 73
    28
 74
     0
 42
0.0000000001
 43
0.0000000001
 12
1.0
 22
0.0
 32
0.0
 13
1.0
 23
0.0
 33
0.0
 40
0.0
 40
0.0
 40
0.0
 40
0.0
 40
0.125
 40
0.125
 40
0.125
 40
0.125
 40
0.25
 40
0.25
 40
0.25
 40
0.25
 40
0.375
 40
0.375
 40
0.375
 40
0.375
 40
0.5
 40
0.5
 40
0.5
 40
0.5
 40
0.625
 40
0.625
 40
0.625
 40
0.625
 40
0.75
 40
0.75
 40
0.75
 40
0.75
 40
1.0
 40
1.0
 40
1.0
 40
1.0
 10
-84.2992
 20
-6.8347
 30
0.0
 10
-83.5542
 20
-5.0465
 30
0.0
 10
-82.3124
 20
-4.5001
 30
0.0
 10
-80.1765
 20
-4.9969
 30
0.0
 10
-80.1765
 20
-4.9969
 30
0.0
 10
-75.7061
 20
-5.9903
 30
0.0
 10
-77.991
 20
1.8578
 30
0.0
 10
-83.0575
 20
5.0864
 30
0.0
 10
-83.0575
 20
5.0864
 30
0.0
 10
-85.839
 20
6.8249
 30
0.0
 10
-86.9318
 20
7.1229
 30
0.0
 10
-85.69
 20
5.7321
 30
0.0
 10
-85.69
 20
5.7321
 30
0.0
 10
-84.1502
 20
4.0433
 30
0.0
 10
-83.1568
 20
1.063
 30
0.0
 10
-83.7528
 20
-0.0794
 30
0.0
 10
-83.7528
 20
-0.0794
 30
0.0
 10
-84.8456
 20
-2.1159
 30
0.0
 10
-87.0808
 20
-0.6755
 30
0.0
 10
-88.7696
 20
3.1492
 30
0.0
 10
-88.7696
 20
3.1492
 30
0.0
 10
-90.1108
 20
6.1792
 30
0.0
 10
-90.6572
 20
5.5335
 30
0.0
 10
-90.3591
 20
1.063
 30
0.0
 10
-90.3591
 20
1.063
 30
0.0
 10
-89.9618
 20
-6.04
 30
0.0
 10
-86.0377
 20
-11.1064
 30
0.0
 10
-84.2992
 20
-6.8347
 30
0.0
  0
SPLINE
  5
65
330
1F
100
AcDbEntity
  8
layer 1
 62
     7
370
    13
100
AcDbSpline
210
0.0
220
0.0
230
1.0
 70
    11
 71
     3
 72
    44
 73
    40
 74
     0
 42
0.0000000001
 43
0.0000000001
 12
1.0
 22
0.0
 32
0.0
 13
1.0
 23
0.0
 33
0.0
 40
0.0
 40
0.0
 40
0.0
 40
0.0
 40
0.0909090909090909
 40
0.0909090909090909
 40
0.0909090909090909
 40
0.0909090909090909
 40
0.1818181818181818
 40
0.1818181818181818
 40
0.1818181818181818
 40
0.1818181818181818
 40
0.2727272727272727
 40
0.2727272727272727
 40
0.2727272727272727
 40
0.2727272727272727
 40
0.3636363636363636
 40
0.3636363636363636
 40
0.3636363636363636
 40
0.3636363636363636
 40
0.4545454545454545
 40
0.4545454545454545
 40
0.4545454545454545
 40
0.4545454545454545
 40
0.5454545454545454
 40
0.5454545454545454
 40
0.5454545454545454
 40
0.5454545454545454
 40
0.6363636363636364
 40
0.6363636363636364
 40
0.6363636363636364
 40
0.6363636363636364
 40
0.7272727272727273
 40
0.7272727272727273
 40
0.7272727272727273
 40
0.7272727272727273
 40
0.8181818181818182
 40
0.8181818181818182
 40
0.8181818181818182
 40
0.8181818181818182
 40
1.0
 40
1.0
 40
1.0
 40
1.0
 10
-97.0151
 20
-4.2021
 30
0.0
 10
-94.9786
 20
-2.4636
 30
0.0
 10
-93.0414
 20
2.0565
 30
0.0
 10
-93.091
 20
4.7387
 30
0.0
 10
-93.091
 20
4.7387
 30
0.0
 10
-93.1407
 20
6.1295
 30
0.0
 10
-93.1904
 20
6.2288
 30
0.0
 10
-93.5878
 20
5.3348
 30
0.0
 10
-93.5878
 20
5.3348
 30
0.0
 10
-94.0667
 20
4.1532
 30
0.0
 10
-98.1802
 20
0.8571
 30
0.0
 10
-99.3185
 20
2.0439
 30
0.0
 10
-99.3185
 20
2.0439
 30
0.0
 10
-100.5151
 20
3.2916
 30
0.0
 10
-98.6274
 20
5.9936
 30
0.0
 10
-97.3131
 20
7.0236
 30
0.0
 10
-97.3131
 20
7.0236
 30
0.0
 10
-94.7799
 20
8.9111
 30
0.0
 10
-95.2269
 20
9.1098
 30
0.0
 10
-99.2503
 20
7.9177
 30
0.0
 10
-99.2503
 20
7.9177
 30
0.0
 10
-102.5286
 20
6.9242
 30
0.0
 10
-105.2108
 20
5.2851
 30
0.0
 10
-106.0552
 20
3.6956
 30
0.0
 10
-106.0552
 20
3.6956
 30
0.0
 10
-106.8997
 20
2.1061
 30
0.0
 10
-106.2539
 20
-0.0794
 30
0.0
 10
-104.9128
 20
-0.0794
 30
0.0
 10
-104.9128
 20
-0.0794
 30
0.0
 10
-103.3233
 20
-0.0794
 30
0.0
 10
-101.3365
 20
-2.3643
 30
0.0
 10
-101.3365
 20
-4.2021
 30
0.0
 10
-101.3365
 20
-4.2021
 30
0.0
 10
-101.3365
 20
-5.5432
 30
0.0
 10
-101.1378
 20
-5.7916
 30
0.0
 10
-100.0947
 20
-5.7916
 30
0.0
 10
-100.0947
 20
-5.7916
 30
0.0
 10
-99.3496
 20
-5.7916
 30
0.0
 10
-98.0085
 20
-5.0465
 30
0.0
 10
-97.0151
 20
-4.2021
 30
0.0
  0
SPLINE
  5
66
330
1F
100
AcDbEntity
  8
layer 1
 62
     7
370
    13
100
AcDbSpline
210
0.0
220
0.0
230
1.0
 70
    11
 71
     3
 72
    40
 73
    36
 74
     0
 42
0.0000000001
 43
0.0000000001
 12
1.0
 22
0.0
 32
0.0
 13
1.0
 23
0.0
 33
0.0
 40
0.0
 40
0.0
 40
0.0
 40
0.0
 40
0.1
 40
0.1
 40
0.1
 40
0.1
 40
0.2
 40
0.2
 40
0.2
 40
0.2
 40
0.3
 40
0.3
 40
0.3
 40
0.3
 40
0.4
 40
0.4
 40
0.4
 40
0.4
 40
0.5
 40
0.5
 40
0.5
 40
0.5
 40
0.6
 40
0.6
 40
0.6
 40
0.6
 40
0.7
 40
0.7
 40
0.7
 40
0.7
 40
0.8
 40
0.8
 40
0.8
 40
0.8
 40
1.0
 40
1.0
 40
1.0
 40
1.0
 10
-72.7755
 20
6.9739
 30
0.0
 10
-70.9377
 20
7.4706
 30
0.0
 10
-70.6893
 20
9.0104
 30
0.0
 10
-72.1298
 20
11.0966
 30
0.0
 10
-72.1298
 20
11.0966
 30
0.0
 10
-73.6199
 20
13.2822
 30
0.0
 10
-73.6696
 20
13.8285
 30
0.0
 10
-72.6265
 20
15.2193
 30
0.0
 10
-72.6265
 20
15.2193
 30
0.0
 10
-71.6827
 20
16.5108
 30
0.0
 10
-71.6827
 20
17.2559
 30
0.0
 10
-72.6762
 20
18.2493
 30
0.0
 10
-72.6762
 20
18.2493
 30
0.0
 10
-74.6133
 20
20.1865
 30
0.0
 10
-80.3752
 20
18.2493
 30
0.0
 10
-84.0012
 20
14.4246
 30
0.0
 10
-84.0012
 20
14.4246
 30
0.0
 10
-85.1055
 20
13.2487
 30
0.0
 10
-86.4619
 20
12.4354
 30
0.0
 10
-84.1005
 20
13.3318
 30
0.0
 10
-84.1005
 20
13.3318
 30
0.0
 10
-80.5739
 20
14.673
 30
0.0
 10
-77.1176
 20
14.4291
 30
0.0
 10
-77.1176
 20
12.2932
 30
0.0
 10
-77.1176
 20
12.2932
 30
0.0
 10
-77.1176
 20
10.9521
 30
0.0
 10
-77.6621
 20
10.1032
 30
0.0
 10
-81.6232
 20
9.7991
 30
0.0
 10
-81.6232
 20
9.7991
 30
0.0
 10
-84.3769
 20
9.5562
 30
0.0
 10
-86.1541
 20
10.0373
 30
0.0
 10
-82.8588
 20
8.315
 30
0.0
 10
-82.8588
 20
8.315
 30
0.0
 10
-79.1334
 20
6.3282
 30
0.0
 10
-76.3518
 20
5.9805
 30
0.0
 10
-72.7755
 20
6.9739
 30
0.0
  0
SPLINE
  5
67
330
1F
100
AcDbEntity
  8
layer 1
 62
     7
370
    13
100
AcDbSpline
210
0.0
220
0.0
230
1.0
 70
    11
 71
     3
 72
   324
 73
   320
 74
     0
 42
0.0000000001
 43
0.0000000001
 12
1.0
 22
0.0
 32
0.0
 13
1.0
 23
0.0
 33
0.0
 40
0.0
 40
0.0
 40
0.0
 40
0.0
 40
0.0123456790123457
 40
0.0123456790123457
 40
0.0123456790123457
 40
0.0123456790123457
 40
0.0246913580246914
 40
0.0246913580246914
 40
0.0246913580246914
 40
0.0246913580246914
 40
0.037037037037037
 40
0.037037037037037
 40
0.037037037037037
 40
0.037037037037037
 40
0.0493827160493827
 40
0.0493827160493827
 40
0.0493827160493827
 40
0.0493827160493827
 40
0.0617283950617284
 40
0.0617283950617284
 40
0.0617283950617284
 40
0.0617283950617284
 40
0.0740740740740741
 40
0.0740740740740741
 40
0.0740740740740741
 40
0.0740740740740741
 40
0.0864197530864197
 40
0.0864197530864197
 40
0.0864197530864197
 40
0.0864197530864197
 40
0.0987654320987654
 40
0.0987654320987654
 40
0.0987654320987654
 40
0.0987654320987654
 40
0.1111111111111111
 40
0.1111111111111111
 40
0.1111111111111111
 40
0.1111111111111111
 40
0.1234567901234568
 40
0.1234567901234568
 40
0.1234567901234568
 40
0.1234567901234568
 40
0.1358024691358025
 40
0.1358024691358025
 40
0.1358024691358025
 40
0.1358024691358025
 40
0.1481481481481481
 40
0.1481481481481481
 40
0.1481481481481481
 40
0.1481481481481481
 40
0.1604938271604938
 40
0.1604938271604938
 40
0.1604938271604938
 40
0.1604938271604938
 40
0.1728395061728395
 40
0.1728395061728395
 40
0.1728395061728395
 40
0.1728395061728395
 40
0.1851851851851852
 40
0.1851851851851852
 40
0.1851851851851852
 40
0.1851851851851852
 40
0.1975308641975309
 40
0.1975308641975309
 40
0.1975308641975309
 40
0.1975308641975309
 40
0.2098765432098765
 40
0.2098765432098765
 40
0.2098765432098765
 40
0.2098765432098765
 40
0.2222222222222222
 40
0.2222222222222222
 40
0.2222222222222222
 40
0.2222222222222222
 40
0.2345679012345679
 40
0.2345679012345679
 40
0.2345679012345679
 40
0.2345679012345679
 40
0.2469135802469136
 40
0.2469135802469136
 40
0.2469135802469136
 40
0.2469135802469136
 40
0.2592592592592592
 40
0.2592592592592592
 40
0.2592592592592592
 40
0.2592592592592592
 40
0.2716049382716049
 40
0.2716049382716049
 40
0.2716049382716049
 40
0.2716049382716049
 40
0.2839506172839506
 40
0.2839506172839506
 40
0.2839506172839506
 40
0.2839506172839506
 40
0.2962962962962963
 40
0.2962962962962963
 40
0.2962962962962963
 40
0.2962962962962963
 40
0.308641975308642
 40
0.308641975308642
 40
0.308641975308642
 40
0.308641975308642
 40
0.3209876543209876
 40
0.3209876543209876
 40
0.3209876543209876
 40
0.3209876543209876
 40
0.3333333333333333
 40
0.3333333333333333
 40
0.3333333333333333
 40
0.3333333333333333
 40
0.345679012345679
 40
0.345679012345679
 40
0.345679012345679
 40
0.345679012345679
 40
0.3580246913580247
 40
0.3580246913580247
 40
0.3580246913580247
 40
0.3580246913580247
 40
0.3703703703703703
 40
0.3703703703703703
 40
0.3703703703703703
 40
0.3703703703703703
 40
0.382716049382716
 40
0.382716049382716
 40
0.382716049382716
 40
0.382716049382716
 40
0.3950617283950617
 40
0.3950617283950617
 40
0.3950617283950617
 40
0.3950617283950617
 40
0.4074074074074074
 40
0.4074074074074074
 40
0.4074074074074074
 40
0.4074074074074074
 40
0.4197530864197531
 40
0.4197530864197531
 40
0.4197530864197531
 40
0.4197530864197531
 40
0.4320987654320987
 40
0.4320987654320987
 40
0.4320987654320987
 40
0.4320987654320987
 40
0.4444444444444444
 40
0.4444444444444444
 40
0.4444444444444444
 40
0.4444444444444444
 40
0.4567901234567901
 40
0.4567901234567901
 40
0.4567901234567901
 40
0.4567901234567901
 40
0.4691358024691358
 40
0.4691358024691358
 40
0.4691358024691358
 40
0.4691358024691358
 40
0.4814814814814815
 40
0.4814814814814815
 40
0.4814814814814815
 40
0.4814814814814815
 40
0.4938271604938271
 40
0.4938271604938271
 40
0.4938271604938271
 40
0.4938271604938271
 40
0.5061728395061729
 40
0.5061728395061729
 40
0.5061728395061729
 40
0.5061728395061729
 40
0.5185185185185185
 40
0.5185185185185185
 40
0.5185185185185185
 40
0.5185185185185185
 40
0.5308641975308642
 40
0.5308641975308642
 40
0.5308641975308642
 40
0.5308641975308642
 40
0.5432098765432098
 40
0.5432098765432098
 40
0.5432098765432098
 40
0.5432098765432098
 40
0.5555555555555556
 40
0.5555555555555556
 40
0.5555555555555556
 40
0.5555555555555556
 40
0.5679012345679012
 40
0.5679012345679012
 40
0.5679012345679012
 40
0.5679012345679012
 40
0.5802469135802469
 40
0.5802469135802469
 40
0.5802469135802469
 40
0.5802469135802469
 40
0.5925925925925926
 40
0.5925925925925926
 40
0.5925925925925926
 40
0.5925925925925926
 40
0.6049382716049383
 40
0.6049382716049383
 40
0.6049382716049383
 40
0.6049382716049383
 40
0.6172839506172839
 40
0.6172839506172839
 40
0.6172839506172839
 40
0.6172839506172839
 40
0.6296296296296297
 40
0.6296296296296297
 40
0.6296296296296297
 40
0.6296296296296297
 40
0.6419753086419753
 40
0.6419753086419753
 40
0.6419753086419753
 40
0.6419753086419753
 40
0.654320987654321
 40
0.654320987654321
 40
0.654320987654321
 40
0.654320987654321
 40
0.6666666666666666
 40
0.6666666666666666
 40
0.6666666666666666
 40
0.6666666666666666
 40
0.6790123456790124
 40
0.6790123456790124
 40
0.6790123456790124
 40
0.6790123456790124
 40
0.691358024691358
 40
0.691358024691358
 40
0.691358024691358
 40
0.691358024691358
 40
0.7037037037037037
 40
0.7037037037037037
 40
0.7037037037037037
 40
0.7037037037037037
 40
0.7160493827160493
 40
0.7160493827160493
 40
0.7160493827160493
 40
0.7160493827160493
 40
0.7283950617283951
 40
0.7283950617283951
 40
0.7283950617283951
 40
0.7283950617283951
 40
0.7407407407407407
 40
0.7407407407407407
 40
0.7407407407407407
 40
0.7407407407407407
 40
0.7530864197530864
 40
0.7530864197530864
 40
0.7530864197530864
 40
0.7530864197530864
 40
0.7654320987654321
 40
0.7654320987654321
 40
0.7654320987654321
 40
0.7654320987654321
 40
0.7777777777777778
 40
0.7777777777777778
 40
0.7777777777777778
 40
0.7777777777777778
 40
0.7901234567901234
 40
0.7901234567901234
 40
0.7901234567901234
 40
0.7901234567901234
 40
0.8024691358024691
 40
0.8024691358024691
 40
0.8024691358024691
 40
0.8024691358024691
 40
0.8148148148148148
 40
0.8148148148148148
 40
0.8148148148148148
 40
0.8148148148148148
 40
0.8271604938271605
 40
0.8271604938271605
 40
0.8271604938271605
 40
0.8271604938271605
 40
0.8395061728395061
 40
0.8395061728395061
 40
0.8395061728395061
 40
0.8395061728395061
 40
0.8518518518518519
 40
0.8518518518518519
 40
0.8518518518518519
 40
0.8518518518518519
 40
0.8641975308641975
 40
0.8641975308641975
 40
0.8641975308641975
 40
0.8641975308641975
 40
0.8765432098765432
 40
0.8765432098765432
 40
0.8765432098765432
 40
0.8765432098765432
 40
0.8888888888888888
 40
0.8888888888888888
 40
0.8888888888888888
 40
0.8888888888888888
 40
0.9012345679012346
 40
0.9012345679012346
 40
0.9012345679012346
 40
0.9012345679012346
 40
0.9135802469135802
 40
0.9135802469135802
 40
0.9135802469135802
 40
0.9135802469135802
 40
0.9259259259259259
 40
0.9259259259259259
 40
0.9259259259259259
 40
0.9259259259259259
 40
0.9382716049382716
 40
0.9382716049382716
 40
0.9382716049382716
 40
0.9382716049382716
 40
0.9506172839506173
 40
0.9506172839506173
 40
0.9506172839506173
 40
0.9506172839506173
 40
0.9629629629629629
 40
0.9629629629629629
 40
0.9629629629629629
 40
0.9629629629629629
 40
0.9753086419753086
 40
0.9753086419753086
 40
0.9753086419753086
 40
0.9753086419753086
 40
1.0
 40
1.0
 40
1.0
 40
1.0
 10
-85.392
 20
-87.8982
 30
0.0
 10
-85.243
 20
-85.2159
 30
0.0
 10
-84.1999
 20
-83.8748
 30
0.0
 10
-83.0575
 20
-84.8185
 30
0.0
 10
-83.0575
 20
-84.8185
 30
0.0
 10
-82.2627
 20
-85.5139
 30
0.0
 10
-81.6667
 20
-85.0669
 30
0.0
 10
-81.6667
 20
-83.8251
 30
0.0
 10
-81.6667
 20
-83.8251
 30
0.0
 10
-81.6667
 20
-83.3284
 30
0.0
 10
-81.2196
 20
-82.3847
 30
0.0
 10
-80.7229
 20
-81.7389
 30
0.0
 10
-80.7229
 20
-81.7389
 30
0.0
 10
-80.7229
 20
-81.7389
 30
0.0
 10
-79.7295
 20
-80.4971
 30
0.0
 10
-79.7295
 20
-80.4971
 30
0.0
 10
-79.7295
 20
-80.4971
 30
0.0
 10
-79.7295
 20
-80.4971
 30
0.0
 10
-79.7295
 20
-82.2853
 30
0.0
 10
-79.7295
 20
-82.2853
 30
0.0
 10
-79.7295
 20
-82.2853
 30
0.0
 10
-79.6798
 20
-83.2787
 30
0.0
 10
-79.3818
 20
-84.9179
 30
0.0
 10
-78.9347
 20
-85.8616
 30
0.0
 10
-78.9347
 20
-85.8616
 30
0.0
 10
-78.9347
 20
-85.8616
 30
0.0
 10
-78.1897
 20
-87.6001
 30
0.0
 10
-78.1897
 20
-87.6001
 30
0.0
 10
-78.1897
 20
-87.6001
 30
0.0
 10
-78.1897
 20
-87.6001
 30
0.0
 10
-77.842
 20
-85.7623
 30
0.0
 10
-77.842
 20
-85.7623
 30
0.0
 10
-77.842
 20
-85.7623
 30
0.0
 10
-77.693
 20
-84.7689
 30
0.0
 10
-77.0969
 20
-83.3781
 30
0.0
 10
-76.5505
 20
-82.7324
 30
0.0
 10
-76.5505
 20
-82.7324
 30
0.0
 10
-75.6068
 20
-81.5899
 30
0.0
 10
-75.6068
 20
-81.5402
 30
0.0
 10
-76.8485
 20
-80.5965
 30
0.0
 10
-76.8485
 20
-80.5965
 30
0.0
 10
-78.8851
 20
-79.007
 30
0.0
 10
-79.1334
 20
-78.0633
 30
0.0
 10
-78.6367
 20
-73.9902
 30
0.0
 10
-78.6367
 20
-73.9902
 30
0.0
 10
-78.1897
 20
-70.8113
 30
0.0
 10
-77.8916
 20
-70.0165
 30
0.0
 10
-76.4512
 20
-68.5264
 30
0.0
 10
-76.4512
 20
-68.5264
 30
0.0
 10
-75.5074
 20
-67.5826
 30
0.0
 10
-74.5637
 20
-66.7879
 30
0.0
 10
-74.365
 20
-66.7879
 30
0.0
 10
-74.365
 20
-66.7879
 30
0.0
 10
-74.1663
 20
-66.7879
 30
0.0
 10
-74.3153
 20
-67.7813
 30
0.0
 10
-74.7624
 20
-68.9734
 30
0.0
 10
-74.7624
 20
-68.9734
 30
0.0
 10
-75.7061
 20
-71.606
 30
0.0
 10
-75.9048
 20
-76.9208
 30
0.0
 10
-75.0604
 20
-77.7652
 30
0.0
 10
-75.0604
 20
-77.7652
 30
0.0
 10
-74.5637
 20
-78.2123
 30
0.0
 10
-74.4643
 20
-77.9142
 30
0.0
 10
-74.4643
 20
-76.5234
 30
0.0
 10
-74.4643
 20
-76.5234
 30
0.0
 10
-74.4643
 20
-73.7419
 30
0.0
 10
-72.6265
 20
-68.427
 30
0.0
 10
-70.59
 20
-65.2481
 30
0.0
 10
-70.59
 20
-65.2481
 30
0.0
 10
-70.59
 20
-65.2481
 30
0.0
 10
-68.7521
 20
-62.3671
 30
0.0
 10
-68.7521
 20
-62.3671
 30
0.0
 10
-68.7521
 20
-62.3671
 30
0.0
 10
-68.7521
 20
-62.3671
 30
0.0
 10
-68.7521
 20
-27.7463
 30
0.0
 10
-68.7521
 20
-27.7463
 30
0.0
 10
-68.7521
 20
-27.7463
 30
0.0
 10
-68.7521
 20
5.1858
 30
0.0
 10
-68.8018
 20
6.8249
 30
0.0
 10
-69.6462
 20
5.7818
 30
0.0
 10
-69.6462
 20
5.7818
 30
0.0
 10
-70.9377
 20
4.1923
 30
0.0
 10
-72.5271
 20
3.5466
 30
0.0
 10
-74.961
 20
3.5466
 30
0.0
 10
-74.961
 20
3.5466
 30
0.0
 10
-74.961
 20
3.5466
 30
0.0
 10
-77.0969
 20
3.5466
 30
0.0
 10
-77.0969
 20
3.5466
 30
0.0
 10
-77.0969
 20
3.5466
 30
0.0
 10
-77.0969
 20
3.5466
 30
0.0
 10
-75.9545
 20
1.9074
 30
0.0
 10
-75.9545
 20
1.9074
 30
0.0
 10
-75.9545
 20
1.9074
 30
0.0
 10
-75.2094
 20
0.914
 30
0.0
 10
-74.7127
 20
-0.7251
 30
0.0
 10
-74.5637
 20
-2.3643
 30
0.0
 10
-74.5637
 20
-2.3643
 30
0.0
 10
-74.365
 20
-4.6492
 30
0.0
 10
-74.514
 20
-5.1955
 30
0.0
 10
-75.6564
 20
-6.4373
 30
0.0
 10
-75.6564
 20
-6.4373
 30
0.0
 10
-76.7492
 20
-7.5798
 30
0.0
 10
-77.4446
 20
-7.8281
 30
0.0
 10
-79.3321
 20
-7.8281
 30
0.0
 10
-79.3321
 20
-7.8281
 30
0.0
 10
-80.6236
 20
-7.8281
 30
0.0
 10
-81.6667
 20
-8.0765
 30
0.0
 10
-81.6667
 20
-8.3745
 30
0.0
 10
-81.6667
 20
-8.3745
 30
0.0
 10
-81.6667
 20
-8.6725
 30
0.0
 10
-82.2627
 20
-9.5169
 30
0.0
 10
-82.9581
 20
-10.2123
 30
0.0
 10
-82.9581
 20
-10.2123
 30
0.0
 10
-83.9019
 20
-11.1561
 30
0.0
 10
-84.7959
 20
-11.4541
 30
0.0
 10
-86.4848
 20
-11.4541
 30
0.0
 10
-86.4848
 20
-11.4541
 30
0.0
 10
-89.5147
 20
-11.4541
 30
0.0
 10
-91.3029
 20
-10.0633
 30
0.0
 10
-92.197
 20
-6.934
 30
0.0
 10
-92.197
 20
-6.934
 30
0.0
 10
-92.197
 20
-6.934
 30
0.0
 10
-92.8924
 20
-4.5001
 30
0.0
 10
-92.8924
 20
-4.5001
 30
0.0
 10
-92.8924
 20
-4.5001
 30
0.0
 10
-92.8924
 20
-4.5001
 30
0.0
 10
-93.8361
 20
-5.9406
 30
0.0
 10
-93.8361
 20
-5.9406
 30
0.0
 10
-93.8361
 20
-5.9406
 30
0.0
 10
-95.5746
 20
-8.5732
 30
0.0
 10
-99.0019
 20
-9.5666
 30
0.0
 10
-102.1809
 20
-8.3248
 30
0.0
 10
-102.1809
 20
-8.3248
 30
0.0
 10
-103.224
 20
-7.9275
 30
0.0
 10
-103.7704
 20
-7.9771
 30
0.0
 10
-104.4161
 20
-8.5235
 30
0.0
 10
-104.4161
 20
-8.5235
 30
0.0
 10
-104.8631
 20
-8.9209
 30
0.0
 10
-105.7075
 20
-9.4176
 30
0.0
 10
-106.2539
 20
-9.6163
 30
0.0
 10
-106.2539
 20
-9.6163
 30
0.0
 10
-107.0983
 20
-9.9143
 30
0.0
 10
-107.148
 20
-10.0633
 30
0.0
 10
-106.5023
 20
-10.4607
 30
0.0
 10
-106.5023
 20
-10.4607
 30
0.0
 10
-106.1049
 20
-10.709
 30
0.0
 10
-104.9128
 20
-10.9574
 30
0.0
 10
-103.9194
 20
-10.9574
 30
0.0
 10
-103.9194
 20
-10.9574
 30
0.0
 10
-102.1809
 20
-11.0071
 30
0.0
 10
-102.1809
 20
-11.0567
 30
0.0
 10
-103.4227
 20
-11.5535
 30
0.0
 10
-103.4227
 20
-11.5535
 30
0.0
 10
-110.9727
 20
-14.7821
 30
0.0
 10
-112.0158
 20
-16.0735
 30
0.0
 10
-105.3102
 20
-13.7887
 30
0.0
 10
-105.3102
 20
-13.7887
 30
0.0
 10
-96.121
 20
-10.709
 30
0.0
 10
-88.3226
 20
-10.9077
 30
0.0
 10
-81.3686
 20
-14.335
 30
0.0
 10
-81.3686
 20
-14.335
 30
0.0
 10
-76.9976
 20
-16.4709
 30
0.0
 10
-73.3716
 20
-20.0969
 30
0.0
 10
-71.0867
 20
-24.6667
 30
0.0
 10
-71.0867
 20
-24.6667
 30
0.0
 10
-69.0005
 20
-28.9881
 30
0.0
 10
-68.6528
 20
-35.644
 30
0.0
 10
-70.2919
 20
-40.0648
 30
0.0
 10
-70.2919
 20
-40.0648
 30
0.0
 10
-72.7258
 20
-46.4723
 30
0.0
 10
-79.0838
 20
-51.1414
 30
0.0
 10
-86.2364
 20
-51.6878
 30
0.0
 10
-86.2364
 20
-51.6878
 30
0.0
 10
-86.2364
 20
-51.6878
 30
0.0
 10
-89.5644
 20
-51.9859
 30
0.0
 10
-89.5644
 20
-51.9859
 30
0.0
 10
-89.5644
 20
-51.9859
 30
0.0
 10
-89.5644
 20
-51.9859
 30
0.0
 10
-86.7828
 20
-53.1283
 30
0.0
 10
-86.7828
 20
-53.1283
 30
0.0
 10
-86.7828
 20
-53.1283
 30
0.0
 10
-85.1933
 20
-53.7243
 30
0.0
 10
-83.1568
 20
-54.4197
 30
0.0
 10
-82.1634
 20
-54.6184
 30
0.0
 10
-82.1634
 20
-54.6184
 30
0.0
 10
-79.5805
 20
-55.0655
 30
0.0
 10
-75.7061
 20
-53.774
 30
0.0
 10
-72.2291
 20
-51.2905
 30
0.0
 10
-72.2291
 20
-51.2905
 30
0.0
 10
-69.3482
 20
-49.2539
 30
0.0
 10
-69.2488
 20
-49.2043
 30
0.0
 10
-69.2488
 20
-50.446
 30
0.0
 10
-69.2488
 20
-50.446
 30
0.0
 10
-69.2488
 20
-51.0918
 30
0.0
 10
-69.7952
 20
-52.4329
 30
0.0
 10
-70.441
 20
-53.4263
 30
0.0
 10
-70.441
 20
-53.4263
 30
0.0
 10
-73.1232
 20
-57.3007
 30
0.0
 10
-77.5439
 20
-58.7411
 30
0.0
 10
-82.7594
 20
-57.251
 30
0.0
 10
-82.7594
 20
-57.251
 30
0.0
 10
-85.7894
 20
-56.4563
 30
0.0
 10
-85.7894
 20
-56.4563
 30
0.0
 10
-87.6769
 20
-57.7477
 30
0.0
 10
-87.6769
 20
-57.7477
 30
0.0
 10
-90.3591
 20
-59.5359
 30
0.0
 10
-90.9552
 20
-59.4365
 30
0.0
 10
-95.1772
 20
-56.3569
 30
0.0
 10
-95.1772
 20
-56.3569
 30
0.0
 10
-95.823
 20
-55.9099
 30
0.0
 10
-96.3197
 20
-56.0589
 30
0.0
 10
-97.6608
 20
-56.953
 30
0.0
 10
-97.6608
 20
-56.953
 30
0.0
 10
-98.8529
 20
-57.8967
 30
0.0
 10
-100.2437
 20
-58.2444
 30
0.0
 10
-103.2736
 20
-58.4928
 30
0.0
 10
-103.2736
 20
-58.4928
 30
0.0
 10
-107.9924
 20
-58.8405
 30
0.0
 10
-109.6812
 20
-59.6352
 30
0.0
 10
-112.6118
 20
-62.8142
 30
0.0
 10
-112.6118
 20
-62.8142
 30
0.0
 10
-114.4
 20
-64.7514
 30
0.0
 10
-116.8836
 20
-68.6754
 30
0.0
 10
-116.8836
 20
-69.5695
 30
0.0
 10
-116.8836
 20
-69.5695
 30
0.0
 10
-116.8836
 20
-69.7185
 30
0.0
 10
-115.6915
 20
-68.6754
 30
0.0
 10
-114.3007
 20
-67.2349
 30
0.0
 10
-114.3007
 20
-67.2349
 30
0.0
 10
-106.4526
 20
-59.4365
 30
0.0
 10
-93.1407
 20
-58.6915
 30
0.0
 10
-87.1802
 20
-65.7448
 30
0.0
 10
-87.1802
 20
-65.7448
 30
0.0
 10
-83.4548
 20
-70.2152
 30
0.0
 10
-84.945
 20
-76.1261
 30
0.0
 10
-89.8127
 20
-76.0764
 30
0.0
 10
-89.8127
 20
-76.0764
 30
0.0
 10
-92.889
 20
-76.1904
 30
0.0
 10
-94.0547
 20
-73.1519
 30
0.0
 10
-92.793
 20
-71.1093
 30
0.0
 10
-92.793
 20
-71.1093
 30
0.0
 10
-91.2035
 20
-68.6754
 30
0.0
 10
-87.8756
 20
-70.1159
 30
0.0
 10
-89.4154
 20
-72.5994
 30
0.0
 10
-89.4154
 20
-72.5994
 30
0.0
 10
-90.1604
 20
-73.8412
 30
0.0
 10
-89.7134
 20
-74.4373
 30
0.0
 10
-88.5213
 20
-73.6922
 30
0.0
 10
-88.5213
 20
-73.6922
 30
0.0
 10
-87.1802
 20
-72.8478
 30
0.0
 10
-87.1305
 20
-70.6622
 30
0.0
 10
-88.3723
 20
-69.3708
 30
0.0
 10
-88.3723
 20
-69.3708
 30
0.0
 10
-89.7134
 20
-68.0793
 30
0.0
 10
-91.3029
 20
-68.0297
 30
0.0
 10
-94.1838
 20
-69.3708
 30
0.0
 10
-94.1838
 20
-69.3708
 30
0.0
 10
-96.8661
 20
-70.5629
 30
0.0
 10
-99.0516
 20
-70.6622
 30
0.0
 10
-101.5352
 20
-69.6191
 30
0.0
 10
-101.5352
 20
-69.6191
 30
0.0
 10
-102.5286
 20
-69.1721
 30
0.0
 10
-103.969
 20
-68.8244
 30
0.0
 10
-104.7141
 20
-68.8244
 30
0.0
 10
-104.7141
 20
-68.8244
 30
0.0
 10
-106.999
 20
-68.8244
 30
0.0
 10
-105.9559
 20
-66.4899
 30
0.0
 10
-102.6279
 20
-64.3043
 30
0.0
 10
-102.6279
 20
-64.3043
 30
0.0
 10
-101.7338
 20
-63.7083
 30
0.0
 10
-101.8332
 20
-63.6586
 30
0.0
 10
-103.6213
 20
-63.9566
 30
0.0
 10
-103.6213
 20
-63.9566
 30
0.0
 10
-104.7141
 20
-64.1056
 30
0.0
 10
-106.0056
 20
-64.503
 30
0.0
 10
-106.5023
 20
-64.801
 30
0.0
 10
-106.5023
 20
-64.801
 30
0.0
 10
-108.0421
 20
-65.7448
 30
0.0
 10
-109.5322
 20
-68.4767
 30
0.0
 10
-110.1283
 20
-71.457
 30
0.0
 10
-110.1283
 20
-71.457
 30
0.0
 10
-110.8237
 20
-75.0333
 30
0.0
 10
-112.0655
 20
-77.1195
 30
0.0
 10
-114.6484
 20
-78.9573
 30
0.0
 10
-114.6484
 20
-78.9573
 30
0.0
 10
-117.0823
 20
-80.7455
 30
0.0
 10
-119.9632
 20
-83.4278
 30
0.0
 10
-119.9632
 20
-83.8748
 30
0.0
 10
-119.9632
 20
-83.8748
 30
0.0
 10
-119.9632
 20
-84.0238
 30
0.0
 10
-118.5227
 20
-83.4774
 30
0.0
 10
-116.7346
 20
-82.5833
 30
0.0
 10
-116.7346
 20
-82.5833
 30
0.0
 10
-113.953
 20
-81.1925
 30
0.0
 10
-113.0092
 20
-80.9939
 30
0.0
 10
-109.3832
 20
-80.9939
 30
0.0
 10
-109.3832
 20
-80.9939
 30
0.0
 10
-105.3598
 20
-80.9939
 30
0.0
 10
-105.0618
 20
-81.0932
 30
0.0
 10
-100.2934
 20
-83.7258
 30
0.0
 10
-100.2934
 20
-83.7258
 30
0.0
 10
-94.5315
 20
-86.8551
 30
0.0
 10
-91.5016
 20
-87.5008
 30
0.0
 10
-88.9683
 20
-86.2093
 30
0.0
 10
-88.9683
 20
-86.2093
 30
0.0
 10
-88.9683
 20
-86.2093
 30
0.0
 10
-87.2795
 20
-85.3153
 30
0.0
 10
-87.2795
 20
-85.3153
 30
0.0
 10
-87.2795
 20
-85.3153
 30
0.0
 10
-87.2795
 20
-85.3153
 30
0.0
 10
-87.6272
 20
-86.9047
 30
0.0
 10
-87.6272
 20
-86.9047
 30
0.0
 10
-87.6272
 20
-86.9047
 30
0.0
 10
-88.0742
 20
-88.9909
 30
0.0
 10
-87.5279
 20
-90.6798
 30
0.0
 10
-86.4351
 20
-90.4811
 30
0.0
 10
-86.4351
 20
-90.4811
 30
0.0
 10
-85.7894
 20
-90.3321
 30
0.0
 10
-85.541
 20
-89.6367
 30
0.0
 10
-85.392
 20
-87.8982
 30
0.0
  0
SPLINE
  5
68
330
1F
100
AcDbEntity
  8
layer 1
 62
     7
370
    13
100
AcDbSpline
210
0.0
220
0.0
230
1.0
 70
    11
 71
     3
 72
   208
 73
   204
 74
     0
 42
0.0000000001
 43
0.0000000001
 12
1.0
 22
0.0
 32
0.0
 13
1.0
 23
0.0
 33
0.0
 40
0.0
 40
0.0
 40
0.0
 40
0.0
 40
0.0192307692307692
 40
0.0192307692307692
 40
0.0192307692307692
 40
0.0192307692307692
 40
0.0384615384615385
 40
0.0384615384615385
 40
0.0384615384615385
 40
0.0384615384615385
 40
0.0576923076923077
 40
0.0576923076923077
 40
0.0576923076923077
 40
0.0576923076923077
 40
0.0769230769230769
 40
0.0769230769230769
 40
0.0769230769230769
 40
0.0769230769230769
 40
0.0961538461538462
 40
0.0961538461538462
 40
0.0961538461538462
 40
0.0961538461538462
 40
0.1153846153846154
 40
0.1153846153846154
 40
0.1153846153846154
 40
0.1153846153846154
 40
0.1346153846153846
 40
0.1346153846153846
 40
0.1346153846153846
 40
0.1346153846153846
 40
0.1538461538461539
 40
0.1538461538461539
 40
0.1538461538461539
 40
0.1538461538461539
 40
0.1730769230769231
 40
0.1730769230769231
 40
0.1730769230769231
 40
0.1730769230769231
 40
0.1923076923076923
 40
0.1923076923076923
 40
0.1923076923076923
 40
0.1923076923076923
 40
0.2115384615384615
 40
0.2115384615384615
 40
0.2115384615384615
 40
0.2115384615384615
 40
0.2307692307692308
 40
0.2307692307692308
 40
0.2307692307692308
 40
0.2307692307692308
 40
0.25
 40
0.25
 40
0.25
 40
0.25
 40
0.2692307692307692
 40
0.2692307692307692
 40
0.2692307692307692
 40
0.2692307692307692
 40
0.2884615384615384
 40
0.2884615384615384
 40
0.2884615384615384
 40
0.2884615384615384
 40
0.3076923076923077
 40
0.3076923076923077
 40
0.3076923076923077
 40
0.3076923076923077
 40
0.3269230769230769
 40
0.3269230769230769
 40
0.3269230769230769
 40
0.3269230769230769
 40
0.3461538461538461
 40
0.3461538461538461
 40
0.3461538461538461
 40
0.3461538461538461
 40
0.3653846153846154
 40
0.3653846153846154
 40
0.3653846153846154
 40
0.3653846153846154
 40
0.3846153846153846
 40
0.3846153846153846
 40
0.3846153846153846
 40
0.3846153846153846
 40
0.4038461538461539
 40
0.4038461538461539
 40
0.4038461538461539
 40
0.4038461538461539
 40
0.4230769230769231
 40
0.4230769230769231
 40
0.4230769230769231
 40
0.4230769230769231
 40
0.4423076923076923
 40
0.4423076923076923
 40
0.4423076923076923
 40
0.4423076923076923
 40
0.4615384615384616
 40
0.4615384615384616
 40
0.4615384615384616
 40
0.4615384615384616
 40
0.4807692307692308
 40
0.4807692307692308
 40
0.4807692307692308
 40
0.4807692307692308
 40
0.5
 40
0.5
 40
0.5
 40
0.5
 40
0.5192307692307693
 40
0.5192307692307693
 40
0.5192307692307693
 40
0.5192307692307693
 40
0.5384615384615384
 40
0.5384615384615384
 40
0.5384615384615384
 40
0.5384615384615384
 40
0.5576923076923077
 40
0.5576923076923077
 40
0.5576923076923077
 40
0.5576923076923077
 40
0.5769230769230769
 40
0.5769230769230769
 40
0.5769230769230769
 40
0.5769230769230769
 40
0.5961538461538461
 40
0.5961538461538461
 40
0.5961538461538461
 40
0.5961538461538461
 40
0.6153846153846154
 40
0.6153846153846154
 40
0.6153846153846154
 40
0.6153846153846154
 40
0.6346153846153846
 40
0.6346153846153846
 40
0.6346153846153846
 40
0.6346153846153846
 40
0.6538461538461539
 40
0.6538461538461539
 40
0.6538461538461539
 40
0.6538461538461539
 40
0.6730769230769231
 40
0.6730769230769231
 40
0.6730769230769231
 40
0.6730769230769231
 40
0.6923076923076923
 40
0.6923076923076923
 40
0.6923076923076923
 40
0.6923076923076923
 40
0.7115384615384616
 40
0.7115384615384616
 40
0.7115384615384616
 40
0.7115384615384616
 40
0.7307692307692307
 40
0.7307692307692307
 40
0.7307692307692307
 40
0.7307692307692307
 40
0.75
 40
0.75
 40
0.75
 40
0.75
 40
0.7692307692307693
 40
0.7692307692307693
 40
0.7692307692307693
 40
0.7692307692307693
 40
0.7884615384615384
 40
0.7884615384615384
 40
0.7884615384615384
 40
0.7884615384615384
 40
0.8076923076923077
 40
0.8076923076923077
 40
0.8076923076923077
 40
0.8076923076923077
 40
0.8269230769230769
 40
0.8269230769230769
 40
0.8269230769230769
 40
0.8269230769230769
 40
0.8461538461538461
 40
0.8461538461538461
 40
0.8461538461538461
 40
0.8461538461538461
 40
0.8653846153846154
 40
0.8653846153846154
 40
0.8653846153846154
 40
0.8653846153846154
 40
0.8846153846153846
 40
0.8846153846153846
 40
0.8846153846153846
 40
0.8846153846153846
 40
0.9038461538461539
 40
0.9038461538461539
 40
0.9038461538461539
 40
0.9038461538461539
 40
0.9230769230769231
 40
0.9230769230769231
 40
0.9230769230769231
 40
0.9230769230769231
 40
0.9423076923076923
 40
0.9423076923076923
 40
0.9423076923076923
 40
0.9423076923076923
 40
0.9615384615384616
 40
0.9615384615384616
 40
0.9615384615384616
 40
0.9615384615384616
 40
1.0
 40
1.0
 40
1.0
 40
1.0
 10
-139.0866
 20
-28.392
 30
0.0
 10
-139.0866
 20
-17.6134
 30
0.0
 10
-134.6162
 20
-9.2686
 30
0.0
 10
-126.6688
 20
-5.3446
 30
0.0
 10
-126.6688
 20
-5.3446
 30
0.0
 10
-123.7879
 20
-3.8544
 30
0.0
 10
-118.1254
 20
-2.3146
 30
0.0
 10
-117.579
 20
-2.8113
 30
0.0
 10
-117.579
 20
-2.8113
 30
0.0
 10
-117.4796
 20
-2.9107
 30
0.0
 10
-118.5227
 20
-3.6557
 30
0.0
 10
-119.9135
 20
-4.4008
 30
0.0
 10
-119.9135
 20
-4.4008
 30
0.0
 10
-124.8806
 20
-7.083
 30
0.0
 10
-129.4504
 20
-12.0998
 30
0.0
 10
-131.5863
 20
-17.216
 30
0.0
 10
-131.5863
 20
-17.216
 30
0.0
 10
-131.5863
 20
-17.216
 30
0.0
 10
-132.381
 20
-19.1035
 30
0.0
 10
-132.381
 20
-19.1035
 30
0.0
 10
-132.381
 20
-19.1035
 30
0.0
 10
-132.381
 20
-19.1035
 30
0.0
 10
-130.2948
 20
-18.8551
 30
0.0
 10
-130.2948
 20
-18.8551
 30
0.0
 10
-130.2948
 20
-18.8551
 30
0.0
 10
-127.5132
 20
-18.4578
 30
0.0
 10
-124.0362
 20
-19.8486
 30
0.0
 10
-122.0494
 20
-22.1334
 30
0.0
 10
-122.0494
 20
-22.1334
 30
0.0
 10
-121.1056
 20
-23.2262
 30
0.0
 10
-120.4102
 20
-23.6732
 30
0.0
 10
-120.3109
 20
-23.2759
 30
0.0
 10
-120.3109
 20
-23.2759
 30
0.0
 10
-118.175
 20
-15.4278
 30
0.0
 10
-115.9398
 20
-11.0567
 30
0.0
 10
-113.4066
 20
-9.7156
 30
0.0
 10
-113.4066
 20
-9.7156
 30
0.0
 10
-112.6118
 20
-9.3183
 30
0.0
 10
-110.625
 20
-8.7222
 30
0.0
 10
-109.0355
 20
-8.3745
 30
0.0
 10
-109.0355
 20
-8.3745
 30
0.0
 10
-105.2605
 20
-7.6294
 30
0.0
 10
-104.4161
 20
-6.9837
 30
0.0
 10
-104.8135
 20
-5.0465
 30
0.0
 10
-104.8135
 20
-5.0465
 30
0.0
 10
-105.0121
 20
-4.0034
 30
0.0
 10
-105.6082
 20
-3.3577
 30
0.0
 10
-106.85
 20
-2.861
 30
0.0
 10
-106.85
 20
-2.861
 30
0.0
 10
-108.8368
 20
-2.0166
 30
0.0
 10
-109.6316
 20
-0.8245
 30
0.0
 10
-109.6316
 20
1.4604
 30
0.0
 10
-109.6316
 20
1.4604
 30
0.0
 10
-109.6316
 20
3.5466
 30
0.0
 10
-107.8931
 20
6.9242
 30
0.0
 10
-106.2539
 20
8.017
 30
0.0
 10
-106.2539
 20
8.017
 30
0.0
 10
-106.2539
 20
8.017
 30
0.0
 10
-104.9625
 20
8.8614
 30
0.0
 10
-104.9625
 20
8.8614
 30
0.0
 10
-104.9625
 20
8.8614
 30
0.0
 10
-104.9625
 20
8.8614
 30
0.0
 10
-107.446
 20
10.0039
 30
0.0
 10
-107.446
 20
10.0039
 30
0.0
 10
-107.446
 20
10.0039
 30
0.0
 10
-110.4263
 20
11.3947
 30
0.0
 10
-112.2145
 20
13.4808
 30
0.0
 10
-112.2145
 20
15.5174
 30
0.0
 10
-112.2145
 20
15.5174
 30
0.0
 10
-112.2145
 20
15.5174
 30
0.0
 10
-112.2145
 20
17.0075
 30
0.0
 10
-112.2145
 20
17.0075
 30
0.0
 10
-112.2145
 20
17.0075
 30
0.0
 10
-112.2145
 20
17.0075
 30
0.0
 10
-115.3438
 20
14.4246
 30
0.0
 10
-115.3438
 20
14.4246
 30
0.0
 10
-115.3438
 20
14.4246
 30
0.0
 10
-120.1122
 20
10.5006
 30
0.0
 10
-126.7681
 20
7.3713
 30
0.0
 10
-134.4175
 20
5.5831
 30
0.0
 10
-134.4175
 20
5.5831
 30
0.0
 10
-137.0501
 20
4.9871
 30
0.0
 10
-137.1494
 20
4.8877
 30
0.0
 10
-136.007
 20
4.4407
 30
0.0
 10
-136.007
 20
4.4407
 30
0.0
 10
-135.3116
 20
4.1427
 30
0.0
 10
-132.6294
 20
3.8943
 30
0.0
 10
-130.0465
 20
3.8943
 30
0.0
 10
-130.0465
 20
3.8943
 30
0.0
 10
-126.0231
 20
3.8446
 30
0.0
 10
-125.0297
 20
4.0433
 30
0.0
 10
-122.4468
 20
5.2851
 30
0.0
 10
-122.4468
 20
5.2851
 30
0.0
 10
-120.8076
 20
6.0798
 30
0.0
 10
-118.6717
 20
7.6693
 30
0.0
 10
-117.6783
 20
8.8614
 30
0.0
 10
-117.6783
 20
8.8614
 30
0.0
 10
-116.3372
 20
10.4012
 30
0.0
 10
-115.8405
 20
10.6993
 30
0.0
 10
-115.8405
 20
10.0535
 30
0.0
 10
-115.8405
 20
10.0535
 30
0.0
 10
-115.8405
 20
7.9177
 30
0.0
 10
-117.1816
 20
4.7884
 30
0.0
 10
-118.8208
 20
3.1989
 30
0.0
 10
-118.8208
 20
3.1989
 30
0.0
 10
-121.1056
 20
0.8644
 30
0.0
 10
-123.6389
 20
-0.0794
 30
0.0
 10
-127.2649
 20
-0.0794
 30
0.0
 10
-127.2649
 20
-0.0794
 30
0.0
 10
-129.5994
 20
-0.0794
 30
0.0
 10
-130.3445
 20
-0.2781
 30
0.0
 10
-130.3445
 20
-0.8245
 30
0.0
 10
-130.3445
 20
-0.8245
 30
0.0
 10
-130.3445
 20
-1.2715
 30
0.0
 10
-130.8909
 20
-1.9669
 30
0.0
 10
-131.6359
 20
-2.4636
 30
0.0
 10
-131.6359
 20
-2.4636
 30
0.0
 10
-133.2751
 20
-3.5564
 30
0.0
 10
-135.9573
 20
-3.0597
 30
0.0
 10
-138.0435
 20
-1.3212
 30
0.0
 10
-138.0435
 20
-1.3212
 30
0.0
 10
-139.484
 20
-0.1291
 30
0.0
 10
-139.5833
 20
-0.0794
 30
0.0
 10
-139.8814
 20
-1.0728
 30
0.0
 10
-139.8814
 20
-1.0728
 30
0.0
 10
-140.1794
 20
-1.9669
 30
0.0
 10
-143.4577
 20
-3.7054
 30
0.0
 10
-144.9975
 20
-3.7054
 30
0.0
 10
-144.9975
 20
-3.7054
 30
0.0
 10
-145.3452
 20
-3.7054
 30
0.0
 10
-146.7857
 20
-4.0531
 30
0.0
 10
-148.2261
 20
-4.4505
 30
0.0
 10
-148.2261
 20
-4.4505
 30
0.0
 10
-152.8952
 20
-5.8413
 30
0.0
 10
-157.316
 20
-11.5038
 30
0.0
 10
-158.0114
 20
-17.0173
 30
0.0
 10
-158.0114
 20
-17.0173
 30
0.0
 10
-158.6571
 20
-21.8354
 30
0.0
 10
-156.1735
 20
-27.4483
 30
0.0
 10
-152.5475
 20
-29.3358
 30
0.0
 10
-152.5475
 20
-29.3358
 30
0.0
 10
-151.7528
 20
-29.7331
 30
0.0
 10
-150.958
 20
-30.0808
 30
0.0
 10
-150.809
 20
-30.0808
 30
0.0
 10
-150.809
 20
-30.0808
 30
0.0
 10
-150.7097
 20
-30.0808
 30
0.0
 10
-151.4051
 20
-28.541
 30
0.0
 10
-152.3488
 20
-26.6038
 30
0.0
 10
-152.3488
 20
-26.6038
 30
0.0
 10
-155.5775
 20
-20.2956
 30
0.0
 10
-155.1801
 20
-13.6893
 30
0.0
 10
-151.4051
 20
-10.0136
 30
0.0
 10
-151.4051
 20
-10.0136
 30
0.0
 10
-149.1202
 20
-7.8281
 30
0.0
 10
-147.4811
 20
-7.3314
 30
0.0
 10
-142.7623
 20
-7.3314
 30
0.0
 10
-142.7623
 20
-7.3314
 30
0.0
 10
-140.4774
 20
-7.3314
 30
0.0
 10
-138.0932
 20
-7.083
 30
0.0
 10
-137.3481
 20
-6.8347
 30
0.0
 10
-137.3481
 20
-6.8347
 30
0.0
 10
-136.5037
 20
-6.487
 30
0.0
 10
-136.007
 20
-6.487
 30
0.0
 10
-136.007
 20
-6.785
 30
0.0
 10
-136.007
 20
-6.785
 30
0.0
 10
-136.007
 20
-7.6294
 30
0.0
 10
-139.186
 20
-10.9574
 30
0.0
 10
-140.8251
 20
-11.8018
 30
0.0
 10
-140.8251
 20
-11.8018
 30
0.0
 10
-140.8251
 20
-11.8018
 30
0.0
 10
-142.3649
 20
-12.5966
 30
0.0
 10
-142.3649
 20
-12.5966
 30
0.0
 10
-142.3649
 20
-12.5966
 30
0.0
 10
-142.3649
 20
-12.5966
 30
0.0
 10
-140.9245
 20
-13.739
 30
0.0
 10
-140.9245
 20
-13.739
 30
0.0
 10
-140.9245
 20
-13.739
 30
0.0
 10
-140.0304
 20
-14.4841
 30
0.0
 10
-139.5833
 20
-15.2291
 30
0.0
 10
-139.782
 20
-15.7258
 30
0.0
 10
-139.782
 20
-15.7258
 30
0.0
 10
-139.931
 20
-16.1232
 30
0.0
 10
-141.6695
 20
-17.1663
 30
0.0
 10
-143.6067
 20
-17.961
 30
0.0
 10
-143.6067
 20
-17.961
 30
0.0
 10
-148.0771
 20
-19.8486
 30
0.0
 10
-150.511
 20
-21.2394
 30
0.0
 10
-150.511
 20
-21.9347
 30
0.0
 10
-150.511
 20
-21.9347
 30
0.0
 10
-150.511
 20
-22.6301
 30
0.0
 10
-143.259
 20
-22.1334
 30
0.0
 10
-141.7192
 20
-21.289
 30
0.0
 10
-141.7192
 20
-21.289
 30
0.0
 10
-140.7258
 20
-20.7426
 30
0.0
 10
-140.6761
 20
-20.7923
 30
0.0
 10
-141.0238
 20
-22.1831
 30
0.0
 10
-141.0238
 20
-22.1831
 30
0.0
 10
-141.9179
 20
-25.3621
 30
0.0
 10
-140.8748
 20
-32.6637
 30
0.0
 10
-139.5337
 20
-32.6637
 30
0.0
 10
-139.5337
 20
-32.6637
 30
0.0
 10
-139.335
 20
-32.6637
 30
0.0
 10
-139.1363
 20
-30.7762
 30
0.0
 10
-139.0866
 20
-28.392
 30
0.0
  0
SPLINE
  5
69
330
1F
100
AcDbEntity
  8
layer 1
 62
     7
370
    13
100
AcDbSpline
210
0.0
220
0.0
230
1.0
 70
    11
 71
     3
 72
    40
 73
    36
 74
     0
 42
0.0000000001
 43
0.0000000001
 12
1.0
 22
0.0
 32
0.0
 13
1.0
 23
0.0
 33
0.0
 40
0.0
 40
0.0
 40
0.0
 40
0.0
 40
0.1
 40
0.1
 40
0.1
 40
0.1
 40
0.2
 40
0.2
 40
0.2
 40
0.2
 40
0.3
 40
0.3
 40
0.3
 40
0.3
 40
0.4
 40
0.4
 40
0.4
 40
0.4
 40
0.5
 40
0.5
 40
0.5
 40
0.5
 40
0.6
 40
0.6
 40
0.6
 40
0.6
 40
0.7
 40
0.7
 40
0.7
 40
0.7
 40
0.8
 40
0.8
 40
0.8
 40
0.8
 40
1.0
 40
1.0
 40
1.0
 40
1.0
 10
-95.972
 20
11.2456
 30
0.0
 10
-94.8295
 20
11.6927
 30
0.0
 10
-95.1276
 20
11.941
 30
0.0
 10
-97.8098
 20
12.7855
 30
0.0
 10
-97.8098
 20
12.7855
 30
0.0
 10
-100.1444
 20
13.5802
 30
0.0
 10
-101.8168
 20
15.4122
 30
0.0
 10
-101.0472
 20
17.1694
 30
0.0
 10
-101.0472
 20
17.1694
 30
0.0
 10
-100.0413
 20
19.0462
 30
0.0
 10
-96.8035
 20
17.2907
 30
0.0
 10
-95.7236
 20
16.5108
 30
0.0
 10
-95.7236
 20
16.5108
 30
0.0
 10
-94.8295
 20
15.8651
 30
0.0
 10
-94.0845
 20
15.5174
 30
0.0
 10
-94.0845
 20
15.6664
 30
0.0
 10
-94.0845
 20
15.6664
 30
0.0
 10
-94.0845
 20
16.5108
 30
0.0
 10
-95.8726
 20
19.2924
 30
0.0
 10
-97.5615
 20
21.1799
 30
0.0
 10
-97.5615
 20
21.1799
 30
0.0
 10
-101.3861
 20
25.4516
 30
0.0
 10
-105.6082
 20
26.0477
 30
0.0
 10
-104.6148
 20
22.223
 30
0.0
 10
-104.6148
 20
22.223
 30
0.0
 10
-104.0684
 20
20.1865
 30
0.0
 10
-104.8631
 20
18.6467
 30
0.0
 10
-106.8003
 20
18.0506
 30
0.0
 10
-106.8003
 20
18.0506
 30
0.0
 10
-109.6812
 20
17.0572
 30
0.0
 10
-109.1845
 20
14.4743
 30
0.0
 10
-105.8069
 20
12.7358
 30
0.0
 10
-105.8069
 20
12.7358
 30
0.0
 10
-102.3299
 20
10.9476
 30
0.0
 10
-98.2569
 20
10.3516
 30
0.0
 10
-95.972
 20
11.2456
 30
0.0
  0
SPLINE
  5
6A
330
1F
100
AcDbEntity
  8
layer 1
 62
     7
370
    13
100
AcDbSpline
210
0.0
220
0.0
230
1.0
 70
    11
 71
     3
 72
    40
 73
    36
 74
     0
 42
0.0000000001
 43
0.0000000001
 12
1.0
 22
0.0
 32
0.0
 13
1.0
 23
0.0
 33
0.0
 40
0.0
 40
0.0
 40
0.0
 40
0.0
 40
0.1
 40
0.1
 40
0.1
 40
0.1
 40
0.2
 40
0.2
 40
0.2
 40
0.2
 40
0.3
 40
0.3
 40
0.3
 40
0.3
 40
0.4
 40
0.4
 40
0.4
 40
0.4
 40
0.5
 40
0.5
 40
0.5
 40
0.5
 40
0.6
 40
0.6
 40
0.6
 40
0.6
 40
0.7
 40
0.7
 40
0.7
 40
0.7
 40
0.8
 40
0.8
 40
0.8
 40
0.8
 40
1.0
 40
1.0
 40
1.0
 40
1.0
 10
-85.0443
 20
17.5539
 30
0.0
 10
-82.6601
 20
20.2361
 30
0.0
 10
-81.5673
 20
22.7694
 30
0.0
 10
-81.5176
 20
25.9483
 30
0.0
 10
-81.5176
 20
25.9483
 30
0.0
 10
-81.468
 20
29.1273
 30
0.0
 10
-82.213
 20
29.922
 30
0.0
 10
-84.2496
 20
28.7299
 30
0.0
 10
-84.2496
 20
28.7299
 30
0.0
 10
-86.2364
 20
27.5378
 30
0.0
 10
-87.0808
 20
27.6372
 30
0.0
 10
-88.72
 20
29.177
 30
0.0
 10
-88.72
 20
29.177
 30
0.0
 10
-90.6572
 20
30.9651
 30
0.0
 10
-91.9486
 20
30.8161
 30
0.0
 10
-92.8427
 20
28.6306
 30
0.0
 10
-92.8427
 20
28.6306
 30
0.0
 10
-93.7864
 20
26.3457
 30
0.0
 10
-93.7864
 20
23.5641
 30
0.0
 10
-92.7433
 20
20.0871
 30
0.0
 10
-92.7433
 20
20.0871
 30
0.0
 10
-91.7499
 20
16.5605
 30
0.0
 10
-91.0049
 20
15.6664
 30
0.0
 10
-91.0049
 20
17.9513
 30
0.0
 10
-91.0049
 20
17.9513
 30
0.0
 10
-91.0049
 20
20.6832
 30
0.0
 10
-89.7134
 20
23.2164
 30
0.0
 10
-88.2729
 20
23.2164
 30
0.0
 10
-88.2729
 20
23.2164
 30
0.0
 10
-85.69
 20
23.2164
 30
0.0
 10
-85.094
 20
20.6832
 30
0.0
 10
-86.8821
 20
17.3552
 30
0.0
 10
-86.8821
 20
17.3552
 30
0.0
 10
-88.2233
 20
14.822
 30
0.0
 10
-87.4285
 20
14.9213
 30
0.0
 10
-85.0443
 20
17.5539
 30
0.0
  0
SPLINE
  5
6B
330
1F
100
AcDbEntity
  8
layer 1
 62
     7
370
    13
100
AcDbSpline
210
0.0
220
0.0
230
1.0
 70
    11
 71
     3
 72
    36
 73
    32
 74
     0
 42
0.0000000001
 43
0.0000000001
 12
1.0
 22
0.0
 32
0.0
 13
1.0
 23
0.0
 33
0.0
 40
0.0
 40
0.0
 40
0.0
 40
0.0
 40
0.1111111111111111
 40
0.1111111111111111
 40
0.1111111111111111
 40
0.1111111111111111
 40
0.2222222222222222
 40
0.2222222222222222
 40
0.2222222222222222
 40
0.2222222222222222
 40
0.3333333333333333
 40
0.3333333333333333
 40
0.3333333333333333
 40
0.3333333333333333
 40
0.4444444444444444
 40
0.4444444444444444
 40
0.4444444444444444
 40
0.4444444444444444
 40
0.5555555555555556
 40
0.5555555555555556
 40
0.5555555555555556
 40
0.5555555555555556
 40
0.6666666666666666
 40
0.6666666666666666
 40
0.6666666666666666
 40
0.6666666666666666
 40
0.7777777777777778
 40
0.7777777777777778
 40
0.7777777777777778
 40
0.7777777777777778
 40
1.0
 40
1.0
 40
1.0
 40
1.0
 10
-68.7521
 20
28.4816
 30
0.0
 10
-68.8018
 20
37.2237
 30
0.0
 10
-68.8515
 20
38.2668
 30
0.0
 10
-69.4972
 20
36.9257
 30
0.0
 10
-69.4972
 20
36.9257
 30
0.0
 10
-70.8383
 20
33.8461
 30
0.0
 10
-74.2656
 20
32.0082
 30
0.0
 10
-78.6864
 20
32.0082
 30
0.0
 10
-78.6864
 20
32.0082
 30
0.0
 10
-81.319
 20
32.0082
 30
0.0
 10
-81.3686
 20
31.9586
 30
0.0
 10
-80.1765
 20
31.1638
 30
0.0
 10
-80.1765
 20
31.1638
 30
0.0
 10
-78.0346
 20
29.846
 30
0.0
 10
-76.3035
 20
25.4231
 30
0.0
 10
-78.6367
 20
22.9184
 30
0.0
 10
-78.6367
 20
22.9184
 30
0.0
 10
-79.7046
 20
21.9496
 30
0.0
 10
-78.8851
 20
21.6269
 30
0.0
 10
-76.6002
 20
21.925
 30
0.0
 10
-76.6002
 20
21.925
 30
0.0
 10
-73.7689
 20
22.3223
 30
0.0
 10
-70.739
 20
21.3289
 30
0.0
 10
-69.6959
 20
19.6401
 30
0.0
 10
-69.6959
 20
19.6401
 30
0.0
 10
-69.2985
 20
19.044
 30
0.0
 10
-68.9508
 20
18.5473
 30
0.0
 10
-68.9011
 20
18.5473
 30
0.0
 10
-68.9011
 20
18.5473
 30
0.0
 10
-68.8018
 20
18.5473
 30
0.0
 10
-68.7521
 20
23.0177
 30
0.0
 10
-68.7521
 20
28.4816
 30
0.0
  0
SPLINE
  5
6C
330
1F
100
AcDbEntity
  8
layer 1
 62
     7
370
    13
100
AcDbSpline
210
0.0
220
0.0
230
1.0
 70
    11
 71
     3
 72
    24
 73
    20
 74
     0
 42
0.0000000001
 43
0.0000000001
 12
1.0
 22
0.0
 32
0.0
 13
1.0
 23
0.0
 33
0.0
 40
0.0
 40
0.0
 40
0.0
 40
0.0
 40
0.1666666666666667
 40
0.1666666666666667
 40
0.1666666666666667
 40
0.1666666666666667
 40
0.3333333333333333
 40
0.3333333333333333
 40
0.3333333333333333
 40
0.3333333333333333
 40
0.5
 40
0.5
 40
0.5
 40
0.5
 40
0.6666666666666666
 40
0.6666666666666666
 40
0.6666666666666666
 40
0.6666666666666666
 40
1.0
 40
1.0
 40
1.0
 40
1.0
 10
-107.7937
 20
21.5276
 30
0.0
 10
-107.9427
 20
21.925
 30
0.0
 10
-108.0918
 20
22.7694
 30
0.0
 10
-108.0918
 20
23.3654
 30
0.0
 10
-108.0918
 20
23.3654
 30
0.0
 10
-108.0918
 20
24.2098
 30
0.0
 10
-108.3898
 20
23.9615
 30
0.0
 10
-109.3832
 20
22.223
 30
0.0
 10
-109.3832
 20
22.223
 30
0.0
 10
-110.0786
 20
21.0309
 30
0.0
 10
-110.6747
 20
19.9381
 30
0.0
 10
-110.6747
 20
19.8388
 30
0.0
 10
-110.6747
 20
19.8388
 30
0.0
 10
-110.6747
 20
19.7394
 30
0.0
 10
-109.9793
 20
19.9381
 30
0.0
 10
-109.0852
 20
20.2361
 30
0.0
 10
-109.0852
 20
20.2361
 30
0.0
 10
-108.1414
 20
20.6335
 30
0.0
 10
-107.6447
 20
21.1302
 30
0.0
 10
-107.7937
 20
21.5276
 30
0.0
  0
SPLINE
  5
6D
330
1F
100
AcDbEntity
  8
layer 1
 62
     7
370
    13
100
AcDbSpline
210
0.0
220
0.0
230
1.0
 70
    11
 71
     3
 72
    40
 73
    36
 74
     0
 42
0.0000000001
 43
0.0000000001
 12
1.0
 22
0.0
 32
0.0
 13
1.0
 23
0.0
 33
0.0
 40
0.0
 40
0.0
 40
0.0
 40
0.0
 40
0.1
 40
0.1
 40
0.1
 40
0.1
 40
0.2
 40
0.2
 40
0.2
 40
0.2
 40
0.3
 40
0.3
 40
0.3
 40
0.3
 40
0.4
 40
0.4
 40
0.4
 40
0.4
 40
0.5
 40
0.5
 40
0.5
 40
0.5
 40
0.6
 40
0.6
 40
0.6
 40
0.6
 40
0.7
 40
0.7
 40
0.7
 40
0.7
 40
0.8
 40
0.8
 40
0.8
 40
0.8
 40
1.0
 40
1.0
 40
1.0
 40
1.0
 10
-117.1319
 20
72.4903
 30
0.0
 10
-116.7346
 20
73.3844
 30
0.0
 10
-116.1882
 20
73.6327
 30
0.0
 10
-114.7974
 20
73.6327
 30
0.0
 10
-114.7974
 20
73.6327
 30
0.0
 10
-113.2079
 20
73.6327
 30
0.0
 10
-112.9595
 20
73.8314
 30
0.0
 10
-112.8105
 20
75.0235
 30
0.0
 10
-112.8105
 20
75.0235
 30
0.0
 10
-112.6118
 20
77.0104
 30
0.0
 10
-114.0026
 20
79.3946
 30
0.0
 10
-116.4365
 20
81.1828
 30
0.0
 10
-116.4365
 20
81.1828
 30
0.0
 10
-118.9698
 20
82.9709
 30
0.0
 10
-119.4665
 20
82.8716
 30
0.0
 10
-117.9267
 20
80.7357
 30
0.0
 10
-117.9267
 20
80.7357
 30
0.0
 10
-116.5359
 20
78.8979
 30
0.0
 10
-116.6849
 20
76.762
 30
0.0
 10
-118.1254
 20
76.762
 30
0.0
 10
-118.1254
 20
76.762
 30
0.0
 10
-118.7711
 20
76.762
 30
0.0
 10
-119.4665
 20
77.5071
 30
0.0
 10
-120.2115
 20
78.9476
 30
0.0
 10
-120.2115
 20
78.9476
 30
0.0
 10
-120.8076
 20
80.1397
 30
0.0
 10
-121.4533
 20
81.1331
 30
0.0
 10
-121.652
 20
81.1331
 30
0.0
 10
-121.652
 20
81.1331
 30
0.0
 10
-122.3474
 20
81.1828
 30
0.0
 10
-122.0494
 20
76.5137
 30
0.0
 10
-121.2546
 20
74.5765
 30
0.0
 10
-121.2546
 20
74.5765
 30
0.0
 10
-119.7148
 20
70.9008
 30
0.0
 10
-118.175
 20
70.1061
 30
0.0
 10
-117.1319
 20
72.4903
 30
0.0
  0
SPLINE
  5
6E
330
1F
100
AcDbEntity
  8
layer 1
 62
     7
370
    13
100
AcDbSpline
210
0.0
220
0.0
230
1.0
 70
    11
 71
     3
 72
    44
 73
    40
 74
     0
 42
0.0000000001
 43
0.0000000001
 12
1.0
 22
0.0
 32
0.0
 13
1.0
 23
0.0
 33
0.0
 40
0.0
 40
0.0
 40
0.0
 40
0.0
 40
0.0909090909090909
 40
0.0909090909090909
 40
0.0909090909090909
 40
0.0909090909090909
 40
0.1818181818181818
 40
0.1818181818181818
 40
0.1818181818181818
 40
0.1818181818181818
 40
0.2727272727272727
 40
0.2727272727272727
 40
0.2727272727272727
 40
0.2727272727272727
 40
0.3636363636363636
 40
0.3636363636363636
 40
0.3636363636363636
 40
0.3636363636363636
 40
0.4545454545454545
 40
0.4545454545454545
 40
0.4545454545454545
 40
0.4545454545454545
 40
0.5454545454545454
 40
0.5454545454545454
 40
0.5454545454545454
 40
0.5454545454545454
 40
0.6363636363636364
 40
0.6363636363636364
 40
0.6363636363636364
 40
0.6363636363636364
 40
0.7272727272727273
 40
0.7272727272727273
 40
0.7272727272727273
 40
0.7272727272727273
 40
0.8181818181818182
 40
0.8181818181818182
 40
0.8181818181818182
 40
0.8181818181818182
 40
1.0
 40
1.0
 40
1.0
 40
1.0
 10
-126.7681
 20
74.0798
 30
0.0
 10
-125.8244
 20
74.8248
 30
0.0
 10
-124.3343
 20
78.0038
 30
0.0
 10
-123.9369
 20
80.1397
 30
0.0
 10
-123.9369
 20
80.1397
 30
0.0
 10
-123.9369
 20
80.1397
 30
0.0
 10
-123.5892
 20
81.9278
 30
0.0
 10
-123.5892
 20
81.9278
 30
0.0
 10
-123.5892
 20
81.9278
 30
0.0
 10
-123.5892
 20
81.9278
 30
0.0
 10
-125.129
 20
80.239
 30
0.0
 10
-125.129
 20
80.239
 30
0.0
 10
-125.129
 20
80.239
 30
0.0
 10
-126.7681
 20
78.4508
 30
0.0
 10
-128.457
 20
78.0535
 30
0.0
 10
-128.9537
 20
79.3946
 30
0.0
 10
-128.9537
 20
79.3946
 30
0.0
 10
-129.202
 20
79.941
 30
0.0
 10
-128.6557
 20
80.8351
 30
0.0
 10
-127.5132
 20
81.9775
 30
0.0
 10
-127.5132
 20
81.9775
 30
0.0
 10
-125.6257
 20
83.865
 30
0.0
 10
-125.8741
 20
84.0637
 30
0.0
 10
-128.904
 20
83.2193
 30
0.0
 10
-128.904
 20
83.2193
 30
0.0
 10
-131.2386
 20
82.5239
 30
0.0
 10
-133.9208
 20
80.3383
 30
0.0
 10
-133.9208
 20
79.0966
 30
0.0
 10
-133.9208
 20
79.0966
 30
0.0
 10
-133.9208
 20
78.5502
 30
0.0
 10
-133.1261
 20
77.6561
 30
0.0
 10
-132.1326
 20
77.06
 30
0.0
 10
-132.1326
 20
77.06
 30
0.0
 10
-130.8412
 20
76.315
 30
0.0
 10
-130.3445
 20
75.6693
 30
0.0
 10
-130.3445
 20
74.7255
 30
0.0
 10
-130.3445
 20
74.7255
 30
0.0
 10
-130.3445
 20
72.9373
 30
0.0
 10
-128.7053
 20
72.5896
 30
0.0
 10
-126.7681
 20
74.0798
 30
0.0
  0
SPLINE
  5
6F
330
1F
100
AcDbEntity
  8
layer 1
 62
     7
370
    13
100
AcDbSpline
210
0.0
220
0.0
230
1.0
 70
    11
 71
     3
 72
    32
 73
    28
 74
     0
 42
0.0000000001
 43
0.0000000001
 12
1.0
 22
0.0
 32
0.0
 13
1.0
 23
0.0
 33
0.0
 40
0.0
 40
0.0
 40
0.0
 40
0.0
 40
0.125
 40
0.125
 40
0.125
 40
0.125
 40
0.25
 40
0.25
 40
0.25
 40
0.25
 40
0.375
 40
0.375
 40
0.375
 40
0.375
 40
0.5
 40
0.5
 40
0.5
 40
0.5
 40
0.625
 40
0.625
 40
0.625
 40
0.625
 40
0.75
 40
0.75
 40
0.75
 40
0.75
 40
1.0
 40
1.0
 40
1.0
 40
1.0
 10
-169.5351
 20
81.0834
 30
0.0
 10
-169.5351
 20
81.0834
 30
0.0
 10
-167.8463
 20
81.5305
 30
0.0
 10
-167.8463
 20
81.5305
 30
0.0
 10
-167.8463
 20
81.5305
 30
0.0
 10
-167.8463
 20
81.5305
 30
0.0
 10
-169.1874
 20
82.0768
 30
0.0
 10
-169.1874
 20
82.0768
 30
0.0
 10
-169.1874
 20
82.0768
 30
0.0
 10
-169.9821
 20
82.3749
 30
0.0
 10
-172.0187
 20
82.4742
 30
0.0
 10
-174.3532
 20
82.2755
 30
0.0
 10
-174.3532
 20
82.2755
 30
0.0
 10
-174.3532
 20
82.2755
 30
0.0
 10
-178.1779
 20
81.9278
 30
0.0
 10
-178.1779
 20
81.9278
 30
0.0
 10
-178.1779
 20
81.9278
 30
0.0
 10
-176.641
 20
81.605
 30
0.0
 10
-174.618
 20
80.3323
 30
0.0
 10
-173.7075
 20
78.6495
 30
0.0
 10
-173.7075
 20
78.6495
 30
0.0
 10
-173.0618
 20
77.6064
 30
0.0
 10
-173.0121
 20
77.6561
 30
0.0
 10
-172.1677
 20
79.0966
 30
0.0
 10
-172.1677
 20
79.0966
 30
0.0
 10
-171.6213
 20
79.9906
 30
0.0
 10
-170.5285
 20
80.7854
 30
0.0
 10
-169.5351
 20
81.0834
 30
0.0
  0
SPLINE
  5
70
330
1F
100
AcDbEntity
  8
layer 1
 62
     7
370
    13
100
AcDbSpline
210
0.0
220
0.0
230
1.0
 70
    11
 71
     3
 72
    20
 73
    16
 74
     0
 42
0.0000000001
 43
0.0000000001
 12
1.0
 22
0.0
 32
0.0
 13
1.0
 23
0.0
 33
0.0
 40
0.0
 40
0.0
 40
0.0
 40
0.0
 40
0.2
 40
0.2
 40
0.2
 40
0.2
 40
0.4
 40
0.4
 40
0.4
 40
0.4
 40
0.6
 40
0.6
 40
0.6
 40
0.6
 40
1.0
 40
1.0
 40
1.0
 40
1.0
 10
-180.3634
 20
82.1762
 30
0.0
 10
-179.7674
 20
82.1762
 30
0.0
 10
-181.5555
 20
83.716
 30
0.0
 10
-182.2013
 20
83.716
 30
0.0
 10
-182.2013
 20
83.716
 30
0.0
 10
-182.3999
 20
83.716
 30
0.0
 10
-182.5986
 20
83.269
 30
0.0
 10
-182.5986
 20
82.6729
 30
0.0
 10
-182.5986
 20
82.6729
 30
0.0
 10
-182.5986
 20
81.8782
 30
0.0
 10
-182.3503
 20
81.6298
 30
0.0
 10
-181.7542
 20
81.8782
 30
0.0
 10
-181.7542
 20
81.8782
 30
0.0
 10
-181.3072
 20
82.0272
 30
0.0
 10
-180.6615
 20
82.1762
 30
0.0
 10
-180.3634
 20
82.1762
 30
0.0
  0
SPLINE
  5
71
330
1F
100
AcDbEntity
  8
layer 1
 62
     7
370
    13
100
AcDbSpline
210
0.0
220
0.0
230
1.0
 70
    11
 71
     3
 72
    44
 73
    40
 74
     0
 42
0.0000000001
 43
0.0000000001
 12
1.0
 22
0.0
 32
0.0
 13
1.0
 23
0.0
 33
0.0
 40
0.0
 40
0.0
 40
0.0
 40
0.0
 40
0.0909090909090909
 40
0.0909090909090909
 40
0.0909090909090909
 40
0.0909090909090909
 40
0.1818181818181818
 40
0.1818181818181818
 40
0.1818181818181818
 40
0.1818181818181818
 40
0.2727272727272727
 40
0.2727272727272727
 40
0.2727272727272727
 40
0.2727272727272727
 40
0.3636363636363636
 40
0.3636363636363636
 40
0.3636363636363636
 40
0.3636363636363636
 40
0.4545454545454545
 40
0.4545454545454545
 40
0.4545454545454545
 40
0.4545454545454545
 40
0.5454545454545454
 40
0.5454545454545454
 40
0.5454545454545454
 40
0.5454545454545454
 40
0.6363636363636364
 40
0.6363636363636364
 40
0.6363636363636364
 40
0.6363636363636364
 40
0.7272727272727273
 40
0.7272727272727273
 40
0.7272727272727273
 40
0.7272727272727273
 40
0.8181818181818182
 40
0.8181818181818182
 40
0.8181818181818182
 40
0.8181818181818182
 40
1.0
 40
1.0
 40
1.0
 40
1.0
 10
-108.5388
 20
82.7226
 30
0.0
 10
-107.297
 20
83.3683
 30
0.0
 10
-107.297
 20
84.6597
 30
0.0
 10
-108.4395
 20
85.9015
 30
0.0
 10
-108.4395
 20
85.9015
 30
0.0
 10
-109.1845
 20
86.7459
 30
0.0
 10
-109.2342
 20
87.1433
 30
0.0
 10
-108.6878
 20
88.5341
 30
0.0
 10
-108.6878
 20
88.5341
 30
0.0
 10
-107.3964
 20
91.9117
 30
0.0
 10
-110.9727
 20
92.6071
 30
0.0
 10
-115.0954
 20
89.7759
 30
0.0
 10
-115.0954
 20
89.7759
 30
0.0
 10
-117.728
 20
87.9877
 30
0.0
 10
-119.0194
 20
86.1996
 30
0.0
 10
-116.8836
 20
87.342
 30
0.0
 10
-116.8836
 20
87.342
 30
0.0
 10
-116.2875
 20
87.6897
 30
0.0
 10
-115.0457
 20
87.8884
 30
0.0
 10
-114.1517
 20
87.789
 30
0.0
 10
-114.1517
 20
87.789
 30
0.0
 10
-112.7609
 20
87.64
 30
0.0
 10
-112.4628
 20
87.3917
 30
0.0
 10
-112.4628
 20
86.3486
 30
0.0
 10
-112.4628
 20
86.3486
 30
0.0
 10
-112.4628
 20
85.1565
 30
0.0
 10
-112.7112
 20
85.0074
 30
0.0
 10
-115.2941
 20
84.7591
 30
0.0
 10
-115.2941
 20
84.7591
 30
0.0
 10
-115.2941
 20
84.7591
 30
0.0
 10
-118.175
 20
84.4611
 30
0.0
 10
-118.175
 20
84.4611
 30
0.0
 10
-118.175
 20
84.4611
 30
0.0
 10
-118.175
 20
84.4611
 30
0.0
 10
-115.8405
 20
83.3186
 30
0.0
 10
-115.8405
 20
83.3186
 30
0.0
 10
-115.8405
 20
83.3186
 30
0.0
 10
-113.3072
 20
82.1265
 30
0.0
 10
-110.178
 20
81.8782
 30
0.0
 10
-108.5388
 20
82.7226
 30
0.0
  0
SPLINE
  5
72
330
1F
100
AcDbEntity
  8
layer 1
 62
     7
370
    13
100
AcDbSpline
210
0.0
220
0.0
230
1.0
 70
    11
 71
     3
 72
    16
 73
    12
 74
     0
 42
0.0000000001
 43
0.0000000001
 12
1.0
 22
0.0
 32
0.0
 13
1.0
 23
0.0
 33
0.0
 40
0.0
 40
0.0
 40
0.0
 40
0.0
 40
0.25
 40
0.25
 40
0.25
 40
0.25
 40
0.5
 40
0.5
 40
0.5
 40
0.5
 40
1.0
 40
1.0
 40
1.0
 40
1.0
 10
-181.0588
 20
86.1002
 30
0.0
 10
-182.1516
 20
87.2427
 30
0.0
 10
-182.3503
 20
87.342
 30
0.0
 10
-182.4993
 20
86.5473
 30
0.0
 10
-182.4993
 20
86.5473
 30
0.0
 10
-182.698
 20
85.6035
 30
0.0
 10
-181.8039
 20
84.8088
 30
0.0
 10
-180.5621
 20
84.7591
 30
0.0
 10
-180.5621
 20
84.7591
 30
0.0
 10
-180.0654
 20
84.7591
 30
0.0
 10
-180.2144
 20
85.2061
 30
0.0
 10
-181.0588
 20
86.1002
 30
0.0
  0
SPLINE
  5
73
330
1F
100
AcDbEntity
  8
layer 1
 62
     7
370
    13
100
AcDbSpline
210
0.0
220
0.0
230
1.0
 70
    11
 71
     3
 72
    20
 73
    16
 74
     0
 42
0.0000000001
 43
0.0000000001
 12
1.0
 22
0.0
 32
0.0
 13
1.0
 23
0.0
 33
0.0
 40
0.0
 40
0.0
 40
0.0
 40
0.0
 40
0.2
 40
0.2
 40
0.2
 40
0.2
 40
0.4
 40
0.4
 40
0.4
 40
0.4
 40
0.6
 40
0.6
 40
0.6
 40
0.6
 40
1.0
 40
1.0
 40
1.0
 40
1.0
 10
-122.1487
 20
86.895
 30
0.0
 10
-121.3043
 20
86.895
 30
0.0
 10
-120.6089
 20
86.1996
 30
0.0
 10
-120.6089
 20
85.3551
 30
0.0
 10
-120.6089
 20
85.3551
 30
0.0
 10
-120.6089
 20
84.5604
 30
0.0
 10
-121.3043
 20
83.865
 30
0.0
 10
-122.1487
 20
83.865
 30
0.0
 10
-122.1487
 20
83.865
 30
0.0
 10
-122.9435
 20
83.865
 30
0.0
 10
-123.6389
 20
84.5604
 30
0.0
 10
-123.6389
 20
85.3551
 30
0.0
 10
-123.6389
 20
85.3551
 30
0.0
 10
-123.6389
 20
86.1996
 30
0.0
 10
-122.9435
 20
86.895
 30
0.0
 10
-122.1487
 20
86.895
 30
0.0
  0
SPLINE
  5
74
330
1F
100
AcDbEntity
  8
layer 1
 62
     7
370
    13
100
AcDbSpline
210
0.0
220
0.0
230
1.0
 70
    11
 71
     3
 72
    48
 73
    44
 74
     0
 42
0.0000000001
 43
0.0000000001
 12
1.0
 22
0.0
 32
0.0
 13
1.0
 23
0.0
 33
0.0
 40
0.0
 40
0.0
 40
0.0
 40
0.0
 40
0.0833333333333333
 40
0.0833333333333333
 40
0.0833333333333333
 40
0.0833333333333333
 40
0.1666666666666667
 40
0.1666666666666667
 40
0.1666666666666667
 40
0.1666666666666667
 40
0.25
 40
0.25
 40
0.25
 40
0.25
 40
0.3333333333333333
 40
0.3333333333333333
 40
0.3333333333333333
 40
0.3333333333333333
 40
0.4166666666666667
 40
0.4166666666666667
 40
0.4166666666666667
 40
0.4166666666666667
 40
0.5
 40
0.5
 40
0.5
 40
0.5
 40
0.5833333333333334
 40
0.5833333333333334
 40
0.5833333333333334
 40
0.5833333333333334
 40
0.6666666666666666
 40
0.6666666666666666
 40
0.6666666666666666
 40
0.6666666666666666
 40
0.75
 40
0.75
 40
0.75
 40
0.75
 40
0.8333333333333334
 40
0.8333333333333334
 40
0.8333333333333334
 40
0.8333333333333334
 40
1.0
 40
1.0
 40
1.0
 40
1.0
 10
-180.6118
 20
25.3523
 30
0.0
 10
-179.817
 20
25.849
 30
0.0
 10
-179.668
 20
26.3457
 30
0.0
 10
-179.8667
 20
27.8855
 30
0.0
 10
-179.8667
 20
27.8855
 30
0.0
 10
-180.0654
 20
29.475
 30
0.0
 10
-179.9164
 20
29.9717
 30
0.0
 10
-179.0223
 20
30.5181
 30
0.0
 10
-179.0223
 20
30.5181
 30
0.0
 10
-178.3766
 20
30.9155
 30
0.0
 10
-177.9295
 20
31.7599
 30
0.0
 10
-177.9295
 20
32.5546
 30
0.0
 10
-177.9295
 20
32.5546
 30
0.0
 10
-177.9295
 20
34.5911
 30
0.0
 10
-176.4394
 20
39.2106
 30
0.0
 10
-174.9989
 20
41.7438
 30
0.0
 10
-174.9989
 20
41.7438
 30
0.0
 10
-174.9989
 20
41.7438
 30
0.0
 10
-173.7075
 20
43.979
 30
0.0
 10
-173.7075
 20
43.979
 30
0.0
 10
-173.7075
 20
43.979
 30
0.0
 10
-173.7075
 20
43.979
 30
0.0
 10
-175.893
 20
42.3398
 30
0.0
 10
-175.893
 20
42.3398
 30
0.0
 10
-175.893
 20
42.3398
 30
0.0
 10
-177.1348
 20
41.4954
 30
0.0
 10
-179.1216
 20
40.502
 30
0.0
 10
-180.3634
 20
40.204
 30
0.0
 10
-180.3634
 20
40.204
 30
0.0
 10
-180.3634
 20
40.204
 30
0.0
 10
-182.5986
 20
39.6576
 30
0.0
 10
-182.5986
 20
39.6576
 30
0.0
 10
-182.5986
 20
39.6576
 30
0.0
 10
-182.5986
 20
39.6576
 30
0.0
 10
-182.549
 20
31.0148
 30
0.0
 10
-182.549
 20
31.0148
 30
0.0
 10
-182.549
 20
31.0148
 30
0.0
 10
-182.549
 20
25.4516
 30
0.0
 10
-182.3503
 20
22.819
 30
0.0
 10
-182.0522
 20
23.5641
 30
0.0
 10
-182.0522
 20
23.5641
 30
0.0
 10
-181.8039
 20
24.2098
 30
0.0
 10
-181.1582
 20
25.0046
 30
0.0
 10
-180.6118
 20
25.3523
 30
0.0
  0
SPLINE
  5
75
330
1F
100
AcDbEntity
  8
layer 1
 62
     7
370
    13
100
AcDbSpline
210
0.0
220
0.0
230
1.0
 70
    11
 71
     3
 72
    52
 73
    48
 74
     0
 42
0.0000000001
 43
0.0000000001
 12
1.0
 22
0.0
 32
0.0
 13
1.0
 23
0.0
 33
0.0
 40
0.0
 40
0.0
 40
0.0
 40
0.0
 40
0.0769230769230769
 40
0.0769230769230769
 40
0.0769230769230769
 40
0.0769230769230769
 40
0.1538461538461539
 40
0.1538461538461539
 40
0.1538461538461539
 40
0.1538461538461539
 40
0.2307692307692308
 40
0.2307692307692308
 40
0.2307692307692308
 40
0.2307692307692308
 40
0.3076923076923077
 40
0.3076923076923077
 40
0.3076923076923077
 40
0.3076923076923077
 40
0.3846153846153846
 40
0.3846153846153846
 40
0.3846153846153846
 40
0.3846153846153846
 40
0.4615384615384616
 40
0.4615384615384616
 40
0.4615384615384616
 40
0.4615384615384616
 40
0.5384615384615384
 40
0.5384615384615384
 40
0.5384615384615384
 40
0.5384615384615384
 40
0.6153846153846154
 40
0.6153846153846154
 40
0.6153846153846154
 40
0.6153846153846154
 40
0.6923076923076923
 40
0.6923076923076923
 40
0.6923076923076923
 40
0.6923076923076923
 40
0.7692307692307693
 40
0.7692307692307693
 40
0.7692307692307693
 40
0.7692307692307693
 40
0.8461538461538461
 40
0.8461538461538461
 40
0.8461538461538461
 40
0.8461538461538461
 40
1.0
 40
1.0
 40
1.0
 40
1.0
 10
-165.9588
 20
38.7138
 30
0.0
 10
-165.1144
 20
38.7138
 30
0.0
 10
-165.0647
 20
38.9125
 30
0.0
 10
-165.5117
 20
39.7073
 30
0.0
 10
-165.5117
 20
39.7073
 30
0.0
 10
-165.7601
 20
40.2537
 30
0.0
 10
-166.0084
 20
41.8928
 30
0.0
 10
-166.0084
 20
43.2836
 30
0.0
 10
-166.0084
 20
43.2836
 30
0.0
 10
-166.0084
 20
46.3135
 30
0.0
 10
-164.6176
 20
48.6978
 30
0.0
 10
-161.687
 20
50.6349
 30
0.0
 10
-161.687
 20
50.6349
 30
0.0
 10
-159.8492
 20
51.8271
 30
0.0
 10
-159.7995
 20
51.9264
 30
0.0
 10
-160.793
 20
52.3734
 30
0.0
 10
-160.793
 20
52.3734
 30
0.0
 10
-162.1341
 20
52.9695
 30
0.0
 10
-164.9653
 20
52.2244
 30
0.0
 10
-165.5117
 20
51.1317
 30
0.0
 10
-165.5117
 20
51.1317
 30
0.0
 10
-165.7104
 20
50.7343
 30
0.0
 10
-166.1574
 20
48.9958
 30
0.0
 10
-166.4555
 20
47.3566
 30
0.0
 10
-166.4555
 20
47.3566
 30
0.0
 10
-167.2999
 20
42.9359
 30
0.0
 10
-169.0881
 20
39.3596
 30
0.0
 10
-172.416
 20
35.7832
 30
0.0
 10
-172.416
 20
35.7832
 30
0.0
 10
-174.0055
 20
34.0447
 30
0.0
 10
-175.3466
 20
32.5049
 30
0.0
 10
-175.3466
 20
32.4056
 30
0.0
 10
-175.3466
 20
32.4056
 30
0.0
 10
-175.3466
 20
32.2566
 30
0.0
 10
-174.7506
 20
32.1076
 30
0.0
 10
-174.0552
 20
32.1076
 30
0.0
 10
-174.0552
 20
32.1076
 30
0.0
 10
-173.3101
 20
32.1076
 30
0.0
 10
-172.2173
 20
31.7599
 30
0.0
 10
-171.5716
 20
31.3625
 30
0.0
 10
-171.5716
 20
31.3625
 30
0.0
 10
-170.4292
 20
30.5678
 30
0.0
 10
-170.4292
 20
30.6174
 30
0.0
 10
-170.1311
 20
33.399
 30
0.0
 10
-170.1311
 20
33.399
 30
0.0
 10
-169.9438
 20
35.554
 30
0.0
 10
-169.4715
 20
37.9492
 30
0.0
 10
-165.9588
 20
38.7138
 30
0.0
  0
SPLINE
  5
76
330
1F
100
AcDbEntity
  8
layer 1
 62
     7
370
    13
100
AcDbSpline
210
0.0
220
0.0
230
1.0
 70
    11
 71
     3
 72
    32
 73
    28
 74
     0
 42
0.0000000001
 43
0.0000000001
 12
1.0
 22
0.0
 32
0.0
 13
1.0
 23
0.0
 33
0.0
 40
0.0
 40
0.0
 40
0.0
 40
0.0
 40
0.125
 40
0.125
 40
0.125
 40
0.125
 40
0.25
 40
0.25
 40
0.25
 40
0.25
 40
0.375
 40
0.375
 40
0.375
 40
0.375
 40
0.5
 40
0.5
 40
0.5
 40
0.5
 40
0.625
 40
0.625
 40
0.625
 40
0.625
 40
0.75
 40
0.75
 40
0.75
 40
0.75
 40
1.0
 40
1.0
 40
1.0
 40
1.0
 10
-181.0588
 20
45.8665
 30
0.0
 10
-178.7739
 20
50.3866
 30
0.0
 10
-174.1545
 20
53.7642
 30
0.0
 10
-169.0881
 20
54.559
 30
0.0
 10
-169.0881
 20
54.559
 30
0.0
 10
-169.0881
 20
54.559
 30
0.0
 10
-166.8032
 20
54.9563
 30
0.0
 10
-166.8032
 20
54.9563
 30
0.0
 10
-166.8032
 20
54.9563
 30
0.0
 10
-166.8032
 20
54.9563
 30
0.0
 10
-168.343
 20
55.6021
 30
0.0
 10
-168.343
 20
55.6021
 30
0.0
 10
-168.343
 20
55.6021
 30
0.0
 10
-172.7637
 20
57.4399
 30
0.0
 10
-177.6812
 20
56.8935
 30
0.0
 10
-180.7608
 20
54.1616
 30
0.0
 10
-180.7608
 20
54.1616
 30
0.0
 10
-181.4556
 20
53.4754
 30
0.0
 10
-182.5986
 20
52.5721
 30
0.0
 10
-182.5986
 20
48.2507
 30
0.0
 10
-182.5986
 20
48.2507
 30
0.0
 10
-182.5986
 20
45.8665
 30
0.0
 10
-182.4496
 20
43.8797
 30
0.0
 10
-182.3503
 20
43.8797
 30
0.0
 10
-182.3503
 20
43.8797
 30
0.0
 10
-182.2013
 20
43.8797
 30
0.0
 10
-181.6549
 20
44.7737
 30
0.0
 10
-181.0588
 20
45.8665
 30
0.0
  0
SPLINE
  5
77
330
1F
100
AcDbEntity
  8
layer 1
 62
     7
370
    13
100
AcDbSpline
210
0.0
220
0.0
230
1.0
 70
    11
 71
     3
 72
    68
 73
    64
 74
     0
 42
0.0000000001
 43
0.0000000001
 12
1.0
 22
0.0
 32
0.0
 13
1.0
 23
0.0
 33
0.0
 40
0.0
 40
0.0
 40
0.0
 40
0.0
 40
0.0588235294117647
 40
0.0588235294117647
 40
0.0588235294117647
 40
0.0588235294117647
 40
0.1176470588235294
 40
0.1176470588235294
 40
0.1176470588235294
 40
0.1176470588235294
 40
0.1764705882352941
 40
0.1764705882352941
 40
0.1764705882352941
 40
0.1764705882352941
 40
0.2352941176470588
 40
0.2352941176470588
 40
0.2352941176470588
 40
0.2352941176470588
 40
0.2941176470588235
 40
0.2941176470588235
 40
0.2941176470588235
 40
0.2941176470588235
 40
0.3529411764705883
 40
0.3529411764705883
 40
0.3529411764705883
 40
0.3529411764705883
 40
0.4117647058823529
 40
0.4117647058823529
 40
0.4117647058823529
 40
0.4117647058823529
 40
0.4705882352941176
 40
0.4705882352941176
 40
0.4705882352941176
 40
0.4705882352941176
 40
0.5294117647058824
 40
0.5294117647058824
 40
0.5294117647058824
 40
0.5294117647058824
 40
0.5882352941176471
 40
0.5882352941176471
 40
0.5882352941176471
 40
0.5882352941176471
 40
0.6470588235294118
 40
0.6470588235294118
 40
0.6470588235294118
 40
0.6470588235294118
 40
0.7058823529411765
 40
0.7058823529411765
 40
0.7058823529411765
 40
0.7058823529411765
 40
0.7647058823529411
 40
0.7647058823529411
 40
0.7647058823529411
 40
0.7647058823529411
 40
0.8235294117647058
 40
0.8235294117647058
 40
0.8235294117647058
 40
0.8235294117647058
 40
0.8823529411764706
 40
0.8823529411764706
 40
0.8823529411764706
 40
0.8823529411764706
 40
1.0
 40
1.0
 40
1.0
 40
1.0
 10
-68.8904
 20
54.7823
 30
0.0
 10
-68.791
 20
54.7823
 30
0.0
 10
-68.7414
 20
55.5274
 30
0.0
 10
-68.7414
 20
56.4711
 30
0.0
 10
-68.7414
 20
56.4711
 30
0.0
 10
-68.7414
 20
57.9116
 30
0.0
 10
-68.9401
 20
58.1599
 30
0.0
 10
-70.0328
 20
58.2096
 30
0.0
 10
-70.0328
 20
58.2096
 30
0.0
 10
-71.672
 20
58.309
 30
0.0
 10
-72.8641
 20
59.3024
 30
0.0
 10
-72.8641
 20
60.4945
 30
0.0
 10
-72.8641
 20
60.4945
 30
0.0
 10
-72.8641
 20
61.7859
 30
0.0
 10
-70.8772
 20
64.1205
 30
0.0
 10
-69.7348
 20
64.1205
 30
0.0
 10
-69.7348
 20
64.1205
 30
0.0
 10
-68.8407
 20
64.1205
 30
0.0
 10
-68.7414
 20
64.5179
 30
0.0
 10
-68.7414
 20
67.9948
 30
0.0
 10
-68.7414
 20
67.9948
 30
0.0
 10
-68.7414
 20
67.9948
 30
0.0
 10
-68.7414
 20
71.8195
 30
0.0
 10
-68.7414
 20
71.8195
 30
0.0
 10
-68.7414
 20
71.8195
 30
0.0
 10
-68.7414
 20
71.8195
 30
0.0
 10
-70.9766
 20
71.5215
 30
0.0
 10
-70.9766
 20
71.5215
 30
0.0
 10
-70.9766
 20
71.5215
 30
0.0
 10
-75.298
 20
70.9255
 30
0.0
 10
-78.0796
 20
73.8561
 30
0.0
 10
-78.8246
 20
79.8166
 30
0.0
 10
-78.8246
 20
79.8166
 30
0.0
 10
-78.8246
 20
79.8166
 30
0.0
 10
-79.1723
 20
82.3002
 30
0.0
 10
-79.1723
 20
82.3002
 30
0.0
 10
-79.1723
 20
82.3002
 30
0.0
 10
-79.1723
 20
82.3002
 30
0.0
 10
-80.4141
 20
80.6113
 30
0.0
 10
-80.4141
 20
80.6113
 30
0.0
 10
-80.4141
 20
80.6113
 30
0.0
 10
-81.9539
 20
78.5748
 30
0.0
 10
-83.7421
 20
73.9057
 30
0.0
 10
-83.7421
 20
72.0182
 30
0.0
 10
-83.7421
 20
72.0182
 30
0.0
 10
-83.7421
 20
70.9255
 30
0.0
 10
-83.5434
 20
70.7764
 30
0.0
 10
-82.6493
 20
70.9751
 30
0.0
 10
-82.6493
 20
70.9751
 30
0.0
 10
-78.5874
 20
71.7038
 30
0.0
 10
-75.361
 20
67.9055
 30
0.0
 10
-78.3279
 20
63.3754
 30
0.0
 10
-78.3279
 20
63.3754
 30
0.0
 10
-79.8677
 20
60.3951
 30
0.0
 10
-79.9174
 20
58.9547
 30
0.0
 10
-78.5266
 20
57.1665
 30
0.0
 10
-78.5266
 20
57.1665
 30
0.0
 10
-76.6391
 20
54.7823
 30
0.0
 10
-73.3111
 20
53.5902
 30
0.0
 10
-70.5295
 20
54.3849
 30
0.0
 10
-70.5295
 20
54.3849
 30
0.0
 10
-69.6851
 20
54.5836
 30
0.0
 10
-68.9401
 20
54.7823
 30
0.0
 10
-68.8904
 20
54.7823
 30
0.0
  0
SPLINE
  5
78
330
1F
100
AcDbEntity
  8
layer 1
 62
     7
370
    13
100
AcDbSpline
210
0.0
220
0.0
230
1.0
 70
    11
 71
     3
 72
    60
 73
    56
 74
     0
 42
0.0000000001
 43
0.0000000001
 12
1.0
 22
0.0
 32
0.0
 13
1.0
 23
0.0
 33
0.0
 40
0.0
 40
0.0
 40
0.0
 40
0.0
 40
0.0666666666666667
 40
0.0666666666666667
 40
0.0666666666666667
 40
0.0666666666666667
 40
0.1333333333333333
 40
0.1333333333333333
 40
0.1333333333333333
 40
0.1333333333333333
 40
0.2
 40
0.2
 40
0.2
 40
0.2
 40
0.2666666666666667
 40
0.2666666666666667
 40
0.2666666666666667
 40
0.2666666666666667
 40
0.3333333333333333
 40
0.3333333333333333
 40
0.3333333333333333
 40
0.3333333333333333
 40
0.4
 40
0.4
 40
0.4
 40
0.4
 40
0.4666666666666667
 40
0.4666666666666667
 40
0.4666666666666667
 40
0.4666666666666667
 40
0.5333333333333333
 40
0.5333333333333333
 40
0.5333333333333333
 40
0.5333333333333333
 40
0.6
 40
0.6
 40
0.6
 40
0.6
 40
0.6666666666666666
 40
0.6666666666666666
 40
0.6666666666666666
 40
0.6666666666666666
 40
0.7333333333333333
 40
0.7333333333333333
 40
0.7333333333333333
 40
0.7333333333333333
 40
0.8
 40
0.8
 40
0.8
 40
0.8
 40
0.8666666666666667
 40
0.8666666666666667
 40
0.8666666666666667
 40
0.8666666666666667
 40
1.0
 40
1.0
 40
1.0
 40
1.0
 10
-166.5051
 20
59.4764
 30
0.0
 10
-166.5051
 20
59.4764
 30
0.0
 10
-166.9025
 20
60.6189
 30
0.0
 10
-166.9025
 20
60.6189
 30
0.0
 10
-166.9025
 20
60.6189
 30
0.0
 10
-167.1509
 20
61.2149
 30
0.0
 10
-167.2999
 20
63.2018
 30
0.0
 10
-167.2999
 20
64.9899
 30
0.0
 10
-167.2999
 20
64.9899
 30
0.0
 10
-167.2999
 20
68.0199
 30
0.0
 10
-167.6476
 20
68.8643
 30
0.0
 10
-168.343
 20
67.7219
 30
0.0
 10
-168.343
 20
67.7219
 30
0.0
 10
-168.5417
 20
67.4238
 30
0.0
 10
-169.0881
 20
67.1755
 30
0.0
 10
-169.6344
 20
67.1755
 30
0.0
 10
-169.6344
 20
67.1755
 30
0.0
 10
-170.5285
 20
67.1755
 30
0.0
 10
-170.5285
 20
67.2748
 30
0.0
 10
-169.5848
 20
69.1126
 30
0.0
 10
-169.5848
 20
69.1126
 30
0.0
 10
-168.2933
 20
71.5962
 30
0.0
 10
-168.343
 20
72.2916
 30
0.0
 10
-169.8331
 20
72.838
 30
0.0
 10
-169.8331
 20
72.838
 30
0.0
 10
-170.5285
 20
73.136
 30
0.0
 10
-171.2736
 20
73.5831
 30
0.0
 10
-171.4226
 20
73.8811
 30
0.0
 10
-171.4226
 20
73.8811
 30
0.0
 10
-171.969
 20
74.7752
 30
0.0
 10
-172.565
 20
74.5268
 30
0.0
 10
-173.1611
 20
73.136
 30
0.0
 10
-173.1611
 20
73.136
 30
0.0
 10
-173.5585
 20
72.2419
 30
0.0
 10
-174.1545
 20
71.8446
 30
0.0
 10
-175.0486
 20
71.8446
 30
0.0
 10
-175.0486
 20
71.8446
 30
0.0
 10
-176.5884
 20
71.8446
 30
0.0
 10
-176.6381
 20
71.9936
 30
0.0
 10
-175.595
 20
73.5831
 30
0.0
 10
-175.595
 20
73.5831
 30
0.0
 10
-173.4591
 20
76.8614
 30
0.0
 10
-178.1779
 20
77.8548
 30
0.0
 10
-181.3569
 20
74.8745
 30
0.0
 10
-181.3569
 20
74.8745
 30
0.0
 10
-182.549
 20
73.7817
 30
0.0
 10
-182.5986
 20
73.434
 30
0.0
 10
-182.5986
 20
65.7847
 30
0.0
 10
-182.5986
 20
65.7847
 30
0.0
 10
-182.5986
 20
65.7847
 30
0.0
 10
-182.5986
 20
57.8373
 30
0.0
 10
-182.5986
 20
57.8373
 30
0.0
 10
-182.5986
 20
57.8373
 30
0.0
 10
-179.1633
 20
62.1252
 30
0.0
 10
-171.8874
 20
62.0869
 30
0.0
 10
-166.5051
 20
59.4764
 30
0.0
  0
SPLINE
  5
79
330
1F
100
AcDbEntity
  8
layer 1
 62
     7
370
    13
100
AcDbSpline
210
0.0
220
0.0
230
1.0
 70
    11
 71
     3
 72
    96
 73
    92
 74
     0
 42
0.0000000001
 43
0.0000000001
 12
1.0
 22
0.0
 32
0.0
 13
1.0
 23
0.0
 33
0.0
 40
0.0
 40
0.0
 40
0.0
 40
0.0
 40
0.0416666666666667
 40
0.0416666666666667
 40
0.0416666666666667
 40
0.0416666666666667
 40
0.0833333333333333
 40
0.0833333333333333
 40
0.0833333333333333
 40
0.0833333333333333
 40
0.125
 40
0.125
 40
0.125
 40
0.125
 40
0.1666666666666667
 40
0.1666666666666667
 40
0.1666666666666667
 40
0.1666666666666667
 40
0.2083333333333333
 40
0.2083333333333333
 40
0.2083333333333333
 40
0.2083333333333333
 40
0.25
 40
0.25
 40
0.25
 40
0.25
 40
0.2916666666666667
 40
0.2916666666666667
 40
0.2916666666666667
 40
0.2916666666666667
 40
0.3333333333333333
 40
0.3333333333333333
 40
0.3333333333333333
 40
0.3333333333333333
 40
0.375
 40
0.375
 40
0.375
 40
0.375
 40
0.4166666666666667
 40
0.4166666666666667
 40
0.4166666666666667
 40
0.4166666666666667
 40
0.4583333333333333
 40
0.4583333333333333
 40
0.4583333333333333
 40
0.4583333333333333
 40
0.5
 40
0.5
 40
0.5
 40
0.5
 40
0.5416666666666666
 40
0.5416666666666666
 40
0.5416666666666666
 40
0.5416666666666666
 40
0.5833333333333334
 40
0.5833333333333334
 40
0.5833333333333334
 40
0.5833333333333334
 40
0.625
 40
0.625
 40
0.625
 40
0.625
 40
0.6666666666666666
 40
0.6666666666666666
 40
0.6666666666666666
 40
0.6666666666666666
 40
0.7083333333333334
 40
0.7083333333333334
 40
0.7083333333333334
 40
0.7083333333333334
 40
0.75
 40
0.75
 40
0.75
 40
0.75
 40
0.7916666666666666
 40
0.7916666666666666
 40
0.7916666666666666
 40
0.7916666666666666
 40
0.8333333333333334
 40
0.8333333333333334
 40
0.8333333333333334
 40
0.8333333333333334
 40
0.875
 40
0.875
 40
0.875
 40
0.875
 40
0.9166666666666666
 40
0.9166666666666666
 40
0.9166666666666666
 40
0.9166666666666666
 40
1.0
 40
1.0
 40
1.0
 40
1.0
 10
-94.0348
 20
68.5663
 30
0.0
 10
-93.5878
 20
69.1126
 30
0.0
 10
-93.7864
 20
69.2617
 30
0.0
 10
-95.0779
 20
69.2617
 30
0.0
 10
-95.0779
 20
69.2617
 30
0.0
 10
-100.3927
 20
69.2617
 30
0.0
 10
-103.7207
 20
74.4771
 30
0.0
 10
-100.7901
 20
78.2522
 30
0.0
 10
-100.7901
 20
78.2522
 30
0.0
 10
-98.6542
 20
80.9841
 30
0.0
 10
-94.0845
 20
79.1959
 30
0.0
 10
-94.0845
 20
75.6693
 30
0.0
 10
-94.0845
 20
75.6693
 30
0.0
 10
-94.0845
 20
73.8314
 30
0.0
 10
-95.8726
 20
72.2916
 30
0.0
 10
-97.6111
 20
72.6393
 30
0.0
 10
-97.6111
 20
72.6393
 30
0.0
 10
-99.0019
 20
72.9373
 30
0.0
 10
-99.0019
 20
72.9373
 30
0.0
 10
-97.9588
 20
72.0929
 30
0.0
 10
-97.9588
 20
72.0929
 30
0.0
 10
-96.4687
 20
70.8511
 30
0.0
 10
-93.4387
 20
71.4472
 30
0.0
 10
-90.3095
 20
73.5831
 30
0.0
 10
-90.3095
 20
73.5831
 30
0.0
 10
-87.7265
 20
75.3712
 30
0.0
 10
-83.4052
 20
79.941
 30
0.0
 10
-83.8522
 20
80.388
 30
0.0
 10
-83.8522
 20
80.388
 30
0.0
 10
-84.0012
 20
80.537
 30
0.0
 10
-84.8456
 20
80.388
 30
0.0
 10
-85.7894
 20
80.0403
 30
0.0
 10
-85.7894
 20
80.0403
 30
0.0
 10
-88.0742
 20
79.2456
 30
0.0
 10
-93.2897
 20
79.792
 30
0.0
 10
-96.3197
 20
81.0834
 30
0.0
 10
-96.3197
 20
81.0834
 30
0.0
 10
-99.0516
 20
82.2755
 30
0.0
 10
-104.7141
 20
87.342
 30
0.0
 10
-105.2605
 20
89.0805
 30
0.0
 10
-105.2605
 20
89.0805
 30
0.0
 10
-105.6082
 20
90.0739
 30
0.0
 10
-105.6579
 20
90.0739
 30
0.0
 10
-106.3533
 20
88.7328
 30
0.0
 10
-106.3533
 20
88.7328
 30
0.0
 10
-106.999
 20
87.491
 30
0.0
 10
-106.9493
 20
87.2427
 30
0.0
 10
-106.0056
 20
86.2492
 30
0.0
 10
-106.0056
 20
86.2492
 30
0.0
 10
-104.9625
 20
85.1068
 30
0.0
 10
-104.6148
 20
82.4742
 30
0.0
 10
-105.3598
 20
81.3814
 30
0.0
 10
-105.3598
 20
81.3814
 30
0.0
 10
-106.0056
 20
80.388
 30
0.0
 10
-107.9427
 20
79.5933
 30
0.0
 10
-109.5819
 20
79.5933
 30
0.0
 10
-109.5819
 20
79.5933
 30
0.0
 10
-109.5819
 20
79.5933
 30
0.0
 10
-111.1714
 20
79.5933
 30
0.0
 10
-111.1714
 20
79.5933
 30
0.0
 10
-111.1714
 20
79.5933
 30
0.0
 10
-111.1714
 20
79.5933
 30
0.0
 10
-110.2773
 20
77.7554
 30
0.0
 10
-110.2773
 20
77.7554
 30
0.0
 10
-110.2773
 20
77.7554
 30
0.0
 10
-109.5819
 20
76.315
 30
0.0
 10
-109.5322
 20
75.5699
 30
0.0
 10
-109.9296
 20
73.9804
 30
0.0
 10
-109.9296
 20
73.9804
 30
0.0
 10
-109.9296
 20
73.9804
 30
0.0
 10
-110.476
 20
72.0433
 30
0.0
 10
-110.476
 20
72.0433
 30
0.0
 10
-110.476
 20
72.0433
 30
0.0
 10
-110.476
 20
72.0433
 30
0.0
 10
-107.5454
 20
72.2419
 30
0.0
 10
-107.5454
 20
72.2419
 30
0.0
 10
-107.5454
 20
72.2419
 30
0.0
 10
-104.4658
 20
72.4903
 30
0.0
 10
-101.4855
 20
71.3975
 30
0.0
 10
-99.6973
 20
69.4107
 30
0.0
 10
-99.6973
 20
69.4107
 30
0.0
 10
-98.4059
 20
68.0199
 30
0.0
 10
-97.2138
 20
64.8906
 30
0.0
 10
-97.1641
 20
62.9534
 30
0.0
 10
-97.1641
 20
62.9534
 30
0.0
 10
-97.1641
 20
61.4136
 30
0.0
 10
-97.0151
 20
61.6123
 30
0.0
 10
-95.8726
 20
64.5429
 30
0.0
 10
-95.8726
 20
64.5429
 30
0.0
 10
-95.1772
 20
66.3807
 30
0.0
 10
-94.3328
 20
68.1689
 30
0.0
 10
-94.0348
 20
68.5663
 30
0.0
  0
SPLINE
  5
7A
330
1F
100
AcDbEntity
  8
layer 1
 62
     7
370
    13
100
AcDbSpline
210
0.0
220
0.0
230
1.0
 70
    11
 71
     3
 72
    72
 73
    68
 74
     0
 42
0.0000000001
 43
0.0000000001
 12
1.0
 22
0.0
 32
0.0
 13
1.0
 23
0.0
 33
0.0
 40
0.0
 40
0.0
 40
0.0
 40
0.0
 40
0.0555555555555556
 40
0.0555555555555556
 40
0.0555555555555556
 40
0.0555555555555556
 40
0.1111111111111111
 40
0.1111111111111111
 40
0.1111111111111111
 40
0.1111111111111111
 40
0.1666666666666667
 40
0.1666666666666667
 40
0.1666666666666667
 40
0.1666666666666667
 40
0.2222222222222222
 40
0.2222222222222222
 40
0.2222222222222222
 40
0.2222222222222222
 40
0.2777777777777778
 40
0.2777777777777778
 40
0.2777777777777778
 40
0.2777777777777778
 40
0.3333333333333333
 40
0.3333333333333333
 40
0.3333333333333333
 40
0.3333333333333333
 40
0.3888888888888889
 40
0.3888888888888889
 40
0.3888888888888889
 40
0.3888888888888889
 40
0.4444444444444444
 40
0.4444444444444444
 40
0.4444444444444444
 40
0.4444444444444444
 40
0.5
 40
0.5
 40
0.5
 40
0.5
 40
0.5555555555555556
 40
0.5555555555555556
 40
0.5555555555555556
 40
0.5555555555555556
 40
0.6111111111111112
 40
0.6111111111111112
 40
0.6111111111111112
 40
0.6111111111111112
 40
0.6666666666666666
 40
0.6666666666666666
 40
0.6666666666666666
 40
0.6666666666666666
 40
0.7222222222222222
 40
0.7222222222222222
 40
0.7222222222222222
 40
0.7222222222222222
 40
0.7777777777777778
 40
0.7777777777777778
 40
0.7777777777777778
 40
0.7777777777777778
 40
0.8333333333333334
 40
0.8333333333333334
 40
0.8333333333333334
 40
0.8333333333333334
 40
0.8888888888888888
 40
0.8888888888888888
 40
0.8888888888888888
 40
0.8888888888888888
 40
1.0
 40
1.0
 40
1.0
 40
1.0
 10
-170.6775
 20
85.5538
 30
0.0
 10
-169.3861
 20
86.1996
 30
0.0
 10
-167.7966
 20
87.342
 30
0.0
 10
-167.1509
 20
88.0374
 30
0.0
 10
-167.1509
 20
88.0374
 30
0.0
 10
-165.7104
 20
89.5772
 30
0.0
 10
-164.5183
 20
92.8058
 30
0.0
 10
-164.866
 20
94.147
 30
0.0
 10
-164.866
 20
94.147
 30
0.0
 10
-165.0647
 20
94.9417
 30
0.0
 10
-165.2634
 20
94.8424
 30
0.0
 10
-166.2071
 20
93.4516
 30
0.0
 10
-166.2071
 20
93.4516
 30
0.0
 10
-167.7966
 20
91.0673
 30
0.0
 10
-169.6841
 20
90.968
 30
0.0
 10
-171.7703
 20
93.0542
 30
0.0
 10
-171.7703
 20
93.0542
 30
0.0
 10
-173.2604
 20
94.5443
 30
0.0
 10
-173.3598
 20
94.892
 30
0.0
 10
-173.1114
 20
97.1272
 30
0.0
 10
-173.1114
 20
97.1272
 30
0.0
 10
-172.9127
 20
98.7167
 30
0.0
 10
-173.0121
 20
99.8591
 30
0.0
 10
-173.4095
 20
100.2068
 30
0.0
 10
-173.4095
 20
100.2068
 30
0.0
 10
-175.1976
 20
102.0447
 30
0.0
 10
-179.4693
 20
99.2134
 30
0.0
 10
-179.4693
 20
96.1835
 30
0.0
 10
-179.4693
 20
96.1835
 30
0.0
 10
-179.4693
 20
94.445
 30
0.0
 10
-180.2144
 20
94.1966
 30
0.0
 10
-181.6549
 20
95.4384
 30
0.0
 10
-181.6549
 20
95.4384
 30
0.0
 10
-182.549
 20
96.2828
 30
0.0
 10
-182.5986
 20
96.1835
 30
0.0
 10
-182.5986
 20
92.7562
 30
0.0
 10
-182.5986
 20
92.7562
 30
0.0
 10
-182.5986
 20
89.4779
 30
0.0
 10
-182.4993
 20
89.2792
 30
0.0
 10
-181.8039
 20
90.2726
 30
0.0
 10
-181.8039
 20
90.2726
 30
0.0
 10
-180.1151
 20
92.7562
 30
0.0
 10
-175.595
 20
91.9614
 30
0.0
 10
-174.0552
 20
88.9315
 30
0.0
 10
-174.0552
 20
88.9315
 30
0.0
 10
-173.2108
 20
87.2923
 30
0.0
 10
-173.2108
 20
87.2923
 30
0.0
 10
-171.82
 20
88.1864
 30
0.0
 10
-171.82
 20
88.1864
 30
0.0
 10
-171.0252
 20
88.6831
 30
0.0
 10
-170.1808
 20
89.4282
 30
0.0
 10
-169.8331
 20
89.8752
 30
0.0
 10
-169.8331
 20
89.8752
 30
0.0
 10
-169.4854
 20
90.3223
 30
0.0
 10
-169.1874
 20
90.4216
 30
0.0
 10
-168.939
 20
90.0739
 30
0.0
 10
-168.939
 20
90.0739
 30
0.0
 10
-168.045
 20
88.6334
 30
0.0
 10
-173.2604
 20
84.8088
 30
0.0
 10
-176.2407
 20
84.7591
 30
0.0
 10
-176.2407
 20
84.7591
 30
0.0
 10
-177.4825
 20
84.7094
 30
0.0
 10
-177.5322
 20
84.6597
 30
0.0
 10
-176.6381
 20
84.2624
 30
0.0
 10
-176.6381
 20
84.2624
 30
0.0
 10
-175.297
 20
83.716
 30
0.0
 10
-173.6081
 20
84.1134
 30
0.0
 10
-170.6775
 20
85.5538
 30
0.0
  0
SPLINE
  5
7B
330
1F
100
AcDbEntity
  8
layer 1
 62
     7
370
    13
100
AcDbSpline
210
0.0
220
0.0
230
1.0
 70
    11
 71
     3
 72
    40
 73
    36
 74
     0
 42
0.0000000001
 43
0.0000000001
 12
1.0
 22
0.0
 32
0.0
 13
1.0
 23
0.0
 33
0.0
 40
0.0
 40
0.0
 40
0.0
 40
0.0
 40
0.1
 40
0.1
 40
0.1
 40
0.1
 40
0.2
 40
0.2
 40
0.2
 40
0.2
 40
0.3
 40
0.3
 40
0.3
 40
0.3
 40
0.4
 40
0.4
 40
0.4
 40
0.4
 40
0.5
 40
0.5
 40
0.5
 40
0.5
 40
0.6
 40
0.6
 40
0.6
 40
0.6
 40
0.7
 40
0.7
 40
0.7
 40
0.7
 40
0.8
 40
0.8
 40
0.8
 40
0.8
 40
1.0
 40
1.0
 40
1.0
 40
1.0
 10
-126.2714
 20
85.7525
 30
0.0
 10
-125.8244
 20
86.0009
 30
0.0
 10
-126.2714
 20
86.4479
 30
0.0
 10
-127.6622
 20
87.0936
 30
0.0
 10
-127.6622
 20
87.0936
 30
0.0
 10
-129.8478
 20
88.0374
 30
0.0
 10
-130.4935
 20
88.9315
 30
0.0
 10
-129.9968
 20
90.2229
 30
0.0
 10
-129.9968
 20
90.2229
 30
0.0
 10
-129.5994
 20
91.266
 30
0.0
 10
-128.457
 20
91.1667
 30
0.0
 10
-126.3708
 20
89.9249
 30
0.0
 10
-126.3708
 20
89.9249
 30
0.0
 10
-124.2846
 20
88.6334
 30
0.0
 10
-124.2349
 20
88.8321
 30
0.0
 10
-125.8741
 20
91.4647
 30
0.0
 10
-125.8741
 20
91.4647
 30
0.0
 10
-127.4635
 20
93.9483
 30
0.0
 10
-129.5994
 20
95.6371
 30
0.0
 10
-131.1889
 20
95.6371
 30
0.0
 10
-131.1889
 20
95.6371
 30
0.0
 10
-132.232
 20
95.6371
 30
0.0
 10
-132.381
 20
95.3887
 30
0.0
 10
-132.381
 20
93.6502
 30
0.0
 10
-132.381
 20
93.6502
 30
0.0
 10
-132.381
 20
91.9117
 30
0.0
 10
-132.5797
 20
91.5641
 30
0.0
 10
-133.9208
 20
90.968
 30
0.0
 10
-133.9208
 20
90.968
 30
0.0
 10
-136.7024
 20
89.8256
 30
0.0
 10
-135.5103
 20
87.491
 30
0.0
 10
-131.5366
 20
86.0505
 30
0.0
 10
-131.5366
 20
86.0505
 30
0.0
 10
-129.2517
 20
85.2558
 30
0.0
 10
-127.2649
 20
85.1068
 30
0.0
 10
-126.2714
 20
85.7525
 30
0.0
  0
SPLINE
  5
7C
330
1F
100
AcDbEntity
  8
layer 1
 62
     7
370
    13
100
AcDbSpline
210
0.0
220
0.0
230
1.0
 70
    11
 71
     3
 72
    24
 73
    20
 74
     0
 42
0.0000000001
 43
0.0000000001
 12
1.0
 22
0.0
 32
0.0
 13
1.0
 23
0.0
 33
0.0
 40
0.0
 40
0.0
 40
0.0
 40
0.0
 40
0.1666666666666667
 40
0.1666666666666667
 40
0.1666666666666667
 40
0.1666666666666667
 40
0.3333333333333333
 40
0.3333333333333333
 40
0.3333333333333333
 40
0.3333333333333333
 40
0.5
 40
0.5
 40
0.5
 40
0.5
 40
0.6666666666666666
 40
0.6666666666666666
 40
0.6666666666666666
 40
0.6666666666666666
 40
1.0
 40
1.0
 40
1.0
 40
1.0
 10
-161.389
 20
89.7262
 30
0.0
 10
-159.1585
 20
91.7539
 30
0.0
 10
-157.2199
 20
94.8643
 30
0.0
 10
-158.4584
 20
97.8723
 30
0.0
 10
-158.4584
 20
97.8723
 30
0.0
 10
-159.6161
 20
100.7327
 30
0.0
 10
-161.8998
 20
100.8113
 30
0.0
 10
-164.419
 20
100.2068
 30
0.0
 10
-164.419
 20
100.2068
 30
0.0
 10
-162.5749
 20
98.2994
 30
0.0
 10
-161.7228
 20
96.4361
 30
0.0
 10
-161.9851
 20
93.5509
 30
0.0
 10
-161.9851
 20
93.5509
 30
0.0
 10
-162.1341
 20
92.0111
 30
0.0
 10
-162.7301
 20
90.2726
 30
0.0
 10
-163.3759
 20
89.3785
 30
0.0
 10
-163.3759
 20
89.3785
 30
0.0
 10
-164.9157
 20
87.2923
 30
0.0
 10
-163.8726
 20
87.491
 30
0.0
 10
-161.389
 20
89.7262
 30
0.0
  0
SPLINE
  5
7D
330
1F
100
AcDbEntity
  8
layer 1
 62
     7
370
    13
100
AcDbSpline
210
0.0
220
0.0
230
1.0
 70
    11
 71
     3
 72
    48
 73
    44
 74
     0
 42
0.0000000001
 43
0.0000000001
 12
1.0
 22
0.0
 32
0.0
 13
1.0
 23
0.0
 33
0.0
 40
0.0
 40
0.0
 40
0.0
 40
0.0
 40
0.0833333333333333
 40
0.0833333333333333
 40
0.0833333333333333
 40
0.0833333333333333
 40
0.1666666666666667
 40
0.1666666666666667
 40
0.1666666666666667
 40
0.1666666666666667
 40
0.25
 40
0.25
 40
0.25
 40
0.25
 40
0.3333333333333333
 40
0.3333333333333333
 40
0.3333333333333333
 40
0.3333333333333333
 40
0.4166666666666667
 40
0.4166666666666667
 40
0.4166666666666667
 40
0.4166666666666667
 40
0.5
 40
0.5
 40
0.5
 40
0.5
 40
0.5833333333333334
 40
0.5833333333333334
 40
0.5833333333333334
 40
0.5833333333333334
 40
0.6666666666666666
 40
0.6666666666666666
 40
0.6666666666666666
 40
0.6666666666666666
 40
0.75
 40
0.75
 40
0.75
 40
0.75
 40
0.8333333333333334
 40
0.8333333333333334
 40
0.8333333333333334
 40
0.8333333333333334
 40
1.0
 40
1.0
 40
1.0
 40
1.0
 10
-116.4365
 20
92.4581
 30
0.0
 10
-115.2444
 20
94.594
 30
0.0
 10
-114.8967
 20
98.4187
 30
0.0
 10
-115.8901
 20
99.0147
 30
0.0
 10
-115.8901
 20
99.0147
 30
0.0
 10
-116.1882
 20
99.2134
 30
0.0
 10
-116.9829
 20
99.1141
 30
0.0
 10
-117.6783
 20
98.7167
 30
0.0
 10
-117.6783
 20
98.7167
 30
0.0
 10
-118.9201
 20
98.071
 30
0.0
 10
-119.4665
 20
98.1703
 30
0.0
 10
-121.354
 20
99.5611
 30
0.0
 10
-121.354
 20
99.5611
 30
0.0
 10
-122.3474
 20
100.2565
 30
0.0
 10
-122.4964
 20
100.2565
 30
0.0
 10
-123.2912
 20
99.5115
 30
0.0
 10
-123.2912
 20
99.5115
 30
0.0
 10
-124.2846
 20
98.518
 30
0.0
 10
-124.4336
 20
94.0973
 30
0.0
 10
-123.5395
 20
91.5641
 30
0.0
 10
-123.5395
 20
91.5641
 30
0.0
 10
-122.7945
 20
89.4282
 30
0.0
 10
-122.0494
 20
89.4779
 30
0.0
 10
-122.0494
 20
91.7131
 30
0.0
 10
-122.0494
 20
91.7131
 30
0.0
 10
-122.0494
 20
93.6006
 30
0.0
 10
-120.9566
 20
94.892
 30
0.0
 10
-119.7148
 20
94.3953
 30
0.0
 10
-119.7148
 20
94.3953
 30
0.0
 10
-118.4234
 20
93.9483
 30
0.0
 10
-118.2247
 20
92.5575
 30
0.0
 10
-119.1188
 20
90.67
 30
0.0
 10
-119.1188
 20
90.67
 30
0.0
 10
-119.1188
 20
90.67
 30
0.0
 10
-119.9632
 20
88.8818
 30
0.0
 10
-119.9632
 20
88.8818
 30
0.0
 10
-119.9632
 20
88.8818
 30
0.0
 10
-119.9632
 20
88.8818
 30
0.0
 10
-118.7711
 20
89.6765
 30
0.0
 10
-118.7711
 20
89.6765
 30
0.0
 10
-118.7711
 20
89.6765
 30
0.0
 10
-118.1254
 20
90.1236
 30
0.0
 10
-117.0823
 20
91.3654
 30
0.0
 10
-116.4365
 20
92.4581
 30
0.0
  0
SPLINE
  5
7E
330
1F
100
AcDbEntity
  8
layer 1
 62
     7
370
    13
100
AcDbSpline
210
0.0
220
0.0
230
1.0
 70
    11
 71
     3
 72
   204
 73
   200
 74
     0
 42
0.0000000001
 43
0.0000000001
 12
1.0
 22
0.0
 32
0.0
 13
1.0
 23
0.0
 33
0.0
 40
0.0
 40
0.0
 40
0.0
 40
0.0
 40
0.0196078431372549
 40
0.0196078431372549
 40
0.0196078431372549
 40
0.0196078431372549
 40
0.0392156862745098
 40
0.0392156862745098
 40
0.0392156862745098
 40
0.0392156862745098
 40
0.0588235294117647
 40
0.0588235294117647
 40
0.0588235294117647
 40
0.0588235294117647
 40
0.0784313725490196
 40
0.0784313725490196
 40
0.0784313725490196
 40
0.0784313725490196
 40
0.0980392156862745
 40
0.0980392156862745
 40
0.0980392156862745
 40
0.0980392156862745
 40
0.1176470588235294
 40
0.1176470588235294
 40
0.1176470588235294
 40
0.1176470588235294
 40
0.1372549019607843
 40
0.1372549019607843
 40
0.1372549019607843
 40
0.1372549019607843
 40
0.1568627450980392
 40
0.1568627450980392
 40
0.1568627450980392
 40
0.1568627450980392
 40
0.1764705882352941
 40
0.1764705882352941
 40
0.1764705882352941
 40
0.1764705882352941
 40
0.196078431372549
 40
0.196078431372549
 40
0.196078431372549
 40
0.196078431372549
 40
0.2156862745098039
 40
0.2156862745098039
 40
0.2156862745098039
 40
0.2156862745098039
 40
0.2352941176470588
 40
0.2352941176470588
 40
0.2352941176470588
 40
0.2352941176470588
 40
0.2549019607843137
 40
0.2549019607843137
 40
0.2549019607843137
 40
0.2549019607843137
 40
0.2745098039215687
 40
0.2745098039215687
 40
0.2745098039215687
 40
0.2745098039215687
 40
0.2941176470588235
 40
0.2941176470588235
 40
0.2941176470588235
 40
0.2941176470588235
 40
0.3137254901960784
 40
0.3137254901960784
 40
0.3137254901960784
 40
0.3137254901960784
 40
0.3333333333333333
 40
0.3333333333333333
 40
0.3333333333333333
 40
0.3333333333333333
 40
0.3529411764705883
 40
0.3529411764705883
 40
0.3529411764705883
 40
0.3529411764705883
 40
0.3725490196078431
 40
0.3725490196078431
 40
0.3725490196078431
 40
0.3725490196078431
 40
0.392156862745098
 40
0.392156862745098
 40
0.392156862745098
 40
0.392156862745098
 40
0.4117647058823529
 40
0.4117647058823529
 40
0.4117647058823529
 40
0.4117647058823529
 40
0.4313725490196079
 40
0.4313725490196079
 40
0.4313725490196079
 40
0.4313725490196079
 40
0.4509803921568628
 40
0.4509803921568628
 40
0.4509803921568628
 40
0.4509803921568628
 40
0.4705882352941176
 40
0.4705882352941176
 40
0.4705882352941176
 40
0.4705882352941176
 40
0.4901960784313725
 40
0.4901960784313725
 40
0.4901960784313725
 40
0.4901960784313725
 40
0.5098039215686274
 40
0.5098039215686274
 40
0.5098039215686274
 40
0.5098039215686274
 40
0.5294117647058824
 40
0.5294117647058824
 40
0.5294117647058824
 40
0.5294117647058824
 40
0.5490196078431373
 40
0.5490196078431373
 40
0.5490196078431373
 40
0.5490196078431373
 40
0.5686274509803921
 40
0.5686274509803921
 40
0.5686274509803921
 40
0.5686274509803921
 40
0.5882352941176471
 40
0.5882352941176471
 40
0.5882352941176471
 40
0.5882352941176471
 40
0.6078431372549019
 40
0.6078431372549019
 40
0.6078431372549019
 40
0.6078431372549019
 40
0.6274509803921569
 40
0.6274509803921569
 40
0.6274509803921569
 40
0.6274509803921569
 40
0.6470588235294118
 40
0.6470588235294118
 40
0.6470588235294118
 40
0.6470588235294118
 40
0.6666666666666666
 40
0.6666666666666666
 40
0.6666666666666666
 40
0.6666666666666666
 40
0.6862745098039216
 40
0.6862745098039216
 40
0.6862745098039216
 40
0.6862745098039216
 40
0.7058823529411765
 40
0.7058823529411765
 40
0.7058823529411765
 40
0.7058823529411765
 40
0.7254901960784313
 40
0.7254901960784313
 40
0.7254901960784313
 40
0.7254901960784313
 40
0.7450980392156863
 40
0.7450980392156863
 40
0.7450980392156863
 40
0.7450980392156863
 40
0.7647058823529411
 40
0.7647058823529411
 40
0.7647058823529411
 40
0.7647058823529411
 40
0.7843137254901961
 40
0.7843137254901961
 40
0.7843137254901961
 40
0.7843137254901961
 40
0.803921568627451
 40
0.803921568627451
 40
0.803921568627451
 40
0.803921568627451
 40
0.8235294117647058
 40
0.8235294117647058
 40
0.8235294117647058
 40
0.8235294117647058
 40
0.8431372549019608
 40
0.8431372549019608
 40
0.8431372549019608
 40
0.8431372549019608
 40
0.8627450980392157
 40
0.8627450980392157
 40
0.8627450980392157
 40
0.8627450980392157
 40
0.8823529411764706
 40
0.8823529411764706
 40
0.8823529411764706
 40
0.8823529411764706
 40
0.9019607843137255
 40
0.9019607843137255
 40
0.9019607843137255
 40
0.9019607843137255
 40
0.9215686274509803
 40
0.9215686274509803
 40
0.9215686274509803
 40
0.9215686274509803
 40
0.9411764705882353
 40
0.9411764705882353
 40
0.9411764705882353
 40
0.9411764705882353
 40
0.9607843137254902
 40
0.9607843137254902
 40
0.9607843137254902
 40
0.9607843137254902
 40
1.0
 40
1.0
 40
1.0
 40
1.0
 10
-128.1589
 20
11.6927
 30
0.0
 10
-123.7879
 20
13.6795
 30
0.0
 10
-120.1122
 20
17.1069
 30
0.0
 10
-117.8273
 20
21.2792
 30
0.0
 10
-117.8273
 20
21.2792
 30
0.0
 10
-116.1882
 20
24.3092
 30
0.0
 10
-116.0888
 20
24.7562
 30
0.0
 10
-116.0888
 20
29.7233
 30
0.0
 10
-116.0888
 20
29.7233
 30
0.0
 10
-116.0888
 20
30.884
 30
0.0
 10
-116.5865
 20
40.2718
 30
0.0
 10
-121.2546
 20
38.2171
 30
0.0
 10
-121.2546
 20
38.2171
 30
0.0
 10
-122.1487
 20
37.4721
 30
0.0
 10
-122.2977
 20
35.8329
 30
0.0
 10
-121.503
 20
35.3859
 30
0.0
 10
-121.503
 20
35.3859
 30
0.0
 10
-119.8638
 20
34.3428
 30
0.0
 10
-122.7448
 20
33.0513
 30
0.0
 10
-124.5826
 20
34.0447
 30
0.0
 10
-124.5826
 20
34.0447
 30
0.0
 10
-128.0195
 20
36.0965
 30
0.0
 10
-127.8838
 20
41.6343
 30
0.0
 10
-122.1487
 20
42.8862
 30
0.0
 10
-122.1487
 20
42.8862
 30
0.0
 10
-111.1849
 20
43.8239
 30
0.0
 10
-111.4886
 20
28.7984
 30
0.0
 10
-113.953
 20
22.67
 30
0.0
 10
-113.953
 20
22.67
 30
0.0
 10
-115.5921
 20
18.597
 30
0.0
 10
-114.3503
 20
19.9381
 30
0.0
 10
-112.0655
 20
24.7562
 30
0.0
 10
-112.0655
 20
24.7562
 30
0.0
 10
-106.9493
 20
35.4355
 30
0.0
 10
-112.3635
 20
48.6481
 30
0.0
 10
-124.1356
 20
54.2113
 30
0.0
 10
-124.1356
 20
54.2113
 30
0.0
 10
-127.2909
 20
55.6881
 30
0.0
 10
-133.3977
 20
56.3747
 30
0.0
 10
-136.7521
 20
55.155
 30
0.0
 10
-136.7521
 20
55.155
 30
0.0
 10
-137.6958
 20
54.7577
 30
0.0
 10
-137.6462
 20
54.6583
 30
0.0
 10
-136.2554
 20
53.7642
 30
0.0
 10
-136.2554
 20
53.7642
 30
0.0
 10
-130.9405
 20
50.4859
 30
0.0
 10
-130.2948
 20
45.8665
 30
0.0
 10
-134.4672
 20
41.0484
 30
0.0
 10
-134.4672
 20
41.0484
 30
0.0
 10
-137.0501
 20
38.0184
 30
0.0
 10
-137.2488
 20
35.5349
 30
0.0
 10
-135.1129
 20
33.0017
 30
0.0
 10
-135.1129
 20
33.0017
 30
0.0
 10
-135.1129
 20
33.0017
 30
0.0
 10
-133.7221
 20
31.3128
 30
0.0
 10
-133.7221
 20
31.3128
 30
0.0
 10
-133.7221
 20
31.3128
 30
0.0
 10
-133.7221
 20
31.3128
 30
0.0
 10
-136.156
 20
31.6605
 30
0.0
 10
-136.156
 20
31.6605
 30
0.0
 10
-136.156
 20
31.6605
 30
0.0
 10
-145.3186
 20
32.8822
 30
0.0
 10
-150.3256
 20
40.9099
 30
0.0
 10
-147.5804
 20
49.4925
 30
0.0
 10
-147.5804
 20
49.4925
 30
0.0
 10
-152.6711
 20
50.0324
 30
0.0
 10
-163.6739
 20
50.9109
 30
0.0
 10
-163.6739
 20
43.1843
 30
0.0
 10
-163.6739
 20
43.1843
 30
0.0
 10
-163.6739
 20
40.502
 30
0.0
 10
-162.1837
 20
38.4158
 30
0.0
 10
-160.6936
 20
39.0119
 30
0.0
 10
-160.6936
 20
39.0119
 30
0.0
 10
-159.5015
 20
39.4589
 30
0.0
 10
-159.6008
 20
40.1046
 30
0.0
 10
-160.8426
 20
40.4523
 30
0.0
 10
-160.8426
 20
40.4523
 30
0.0
 10
-162.1837
 20
40.7504
 30
0.0
 10
-162.2831
 20
43.6313
 30
0.0
 10
-161.0413
 20
45.0221
 30
0.0
 10
-161.0413
 20
45.0221
 30
0.0
 10
-159.7002
 20
46.5122
 30
0.0
 10
-156.5212
 20
46.3135
 30
0.0
 10
-155.1801
 20
44.6247
 30
0.0
 10
-155.1801
 20
44.6247
 30
0.0
 10
-153.0699
 20
41.9116
 30
0.0
 10
-154.2348
 20
39.2127
 30
0.0
 10
-156.6206
 20
37.9191
 30
0.0
 10
-156.6206
 20
37.9191
 30
0.0
 10
-154.4964
 20
36.8259
 30
0.0
 10
-153.1663
 20
33.2021
 30
0.0
 10
-154.6834
 20
30.8658
 30
0.0
 10
-154.6834
 20
30.8658
 30
0.0
 10
-155.2298
 20
29.922
 30
0.0
 10
-155.1801
 20
29.8227
 30
0.0
 10
-154.3357
 20
30.1704
 30
0.0
 10
-154.3357
 20
30.1704
 30
0.0
 10
-151.0574
 20
31.6109
 30
0.0
 10
-146.3386
 20
30.5678
 30
0.0
 10
-145.2459
 20
28.1835
 30
0.0
 10
-145.2459
 20
28.1835
 30
0.0
 10
-144.7491
 20
27.0908
 30
0.0
 10
-144.8485
 20
26.5941
 30
0.0
 10
-145.5439
 20
25.5013
 30
0.0
 10
-145.5439
 20
25.5013
 30
0.0
 10
-146.3883
 20
24.2098
 30
0.0
 10
-146.3883
 20
24.1105
 30
0.0
 10
-145.0968
 20
22.9184
 30
0.0
 10
-145.0968
 20
22.9184
 30
0.0
 10
-143.259
 20
21.2296
 30
0.0
 10
-143.3583
 20
19.3421
 30
0.0
 10
-145.4445
 20
17.2559
 30
0.0
 10
-145.4445
 20
17.2559
 30
0.0
 10
-146.587
 20
16.1631
 30
0.0
 10
-147.8784
 20
15.4677
 30
0.0
 10
-149.3189
 20
15.2193
 30
0.0
 10
-149.3189
 20
15.2193
 30
0.0
 10
-149.3189
 20
15.2193
 30
0.0
 10
-151.5044
 20
14.822
 30
0.0
 10
-151.5044
 20
14.822
 30
0.0
 10
-151.5044
 20
14.822
 30
0.0
 10
-151.5044
 20
14.822
 30
0.0
 10
-150.0143
 20
13.5802
 30
0.0
 10
-150.0143
 20
13.5802
 30
0.0
 10
-150.0143
 20
13.5802
 30
0.0
 10
-148.8719
 20
12.6364
 30
0.0
 10
-148.4248
 20
11.7424
 30
0.0
 10
-148.3255
 20
10.2025
 30
0.0
 10
-148.3255
 20
10.2025
 30
0.0
 10
-148.3255
 20
10.2025
 30
0.0
 10
-148.1765
 20
8.1164
 30
0.0
 10
-148.1765
 20
8.1164
 30
0.0
 10
-148.1765
 20
8.1164
 30
0.0
 10
-148.1765
 20
8.1164
 30
0.0
 10
-146.5373
 20
10.4509
 30
0.0
 10
-146.5373
 20
10.4509
 30
0.0
 10
-146.5373
 20
10.4509
 30
0.0
 10
-144.5505
 20
13.2822
 30
0.0
 10
-141.2225
 20
15.7657
 30
0.0
 10
-138.6396
 20
16.4115
 30
0.0
 10
-138.6396
 20
16.4115
 30
0.0
 10
-132.7784
 20
17.8519
 30
0.0
 10
-130.3445
 20
18.3486
 30
0.0
 10
-130.3445
 20
18.0009
 30
0.0
 10
-130.3445
 20
18.0009
 30
0.0
 10
-130.3445
 20
17.8022
 30
0.0
 10
-131.2882
 20
16.7592
 30
0.0
 10
-132.4307
 20
15.7161
 30
0.0
 10
-132.4307
 20
15.7161
 30
0.0
 10
-133.6228
 20
14.673
 30
0.0
 10
-134.4175
 20
13.6795
 30
0.0
 10
-134.3182
 20
13.5802
 30
0.0
 10
-134.3182
 20
13.5802
 30
0.0
 10
-134.1692
 20
13.4312
 30
0.0
 10
-133.1261
 20
13.5305
 30
0.0
 10
-132.0333
 20
13.8285
 30
0.0
 10
-132.0333
 20
13.8285
 30
0.0
 10
-129.5497
 20
14.5239
 30
0.0
 10
-127.3642
 20
16.7095
 30
0.0
 10
-126.9172
 20
18.9447
 30
0.0
 10
-126.9172
 20
18.9447
 30
0.0
 10
-126.5695
 20
20.5838
 30
0.0
 10
-126.6191
 20
20.6335
 30
0.0
 10
-128.4073
 20
20.6335
 30
0.0
 10
-128.4073
 20
20.6335
 30
0.0
 10
-129.8974
 20
20.6335
 30
0.0
 10
-130.5432
 20
20.9315
 30
0.0
 10
-131.4372
 20
22.1733
 30
0.0
 10
-131.4372
 20
22.1733
 30
0.0
 10
-132.3313
 20
23.3654
 30
0.0
 10
-132.9771
 20
23.7131
 30
0.0
 10
-134.3679
 20
23.7131
 30
0.0
 10
-134.3679
 20
23.7131
 30
0.0
 10
-134.3679
 20
23.7131
 30
0.0
 10
-136.2057
 20
23.7131
 30
0.0
 10
-136.2057
 20
23.7131
 30
0.0
 10
-136.2057
 20
23.7131
 30
0.0
 10
-136.2057
 20
23.7131
 30
0.0
 10
-134.9142
 20
25.1039
 30
0.0
 10
-134.9142
 20
25.1039
 30
0.0
 10
-134.9142
 20
25.1039
 30
0.0
 10
-130.1955
 20
30.2201
 30
0.0
 10
-122.0494
 20
27.5378
 30
0.0
 10
-122.0494
 20
20.8322
 30
0.0
 10
-122.0494
 20
20.8322
 30
0.0
 10
-122.0494
 20
15.9644
 30
0.0
 10
-126.5198
 20
12.5868
 30
0.0
 10
-135.3116
 20
10.8979
 30
0.0
 10
-135.3116
 20
10.8979
 30
0.0
 10
-139.3846
 20
10.1032
 30
0.0
 10
-141.4212
 20
9.4078
 30
0.0
 10
-142.9113
 20
8.3647
 30
0.0
 10
-142.9113
 20
8.3647
 30
0.0
 10
-144.0537
 20
7.57
 30
0.0
 10
-145.0968
 20
6.6262
 30
0.0
 10
-145.1962
 20
6.3282
 30
0.0
 10
-145.1962
 20
6.3282
 30
0.0
 10
-145.4445
 20
5.5831
 30
0.0
 10
-132.828
 20
9.5568
 30
0.0
 10
-128.1589
 20
11.6927
 30
0.0
  0
SPLINE
  5
7F
330
1F
100
AcDbEntity
  8
layer 1
 62
     7
370
    13
100
AcDbSpline
210
0.0
220
0.0
230
1.0
 70
    11
 71
     3
 72
    60
 73
    56
 74
     0
 42
0.0000000001
 43
0.0000000001
 12
1.0
 22
0.0
 32
0.0
 13
1.0
 23
0.0
 33
0.0
 40
0.0
 40
0.0
 40
0.0
 40
0.0
 40
0.0666666666666667
 40
0.0666666666666667
 40
0.0666666666666667
 40
0.0666666666666667
 40
0.1333333333333333
 40
0.1333333333333333
 40
0.1333333333333333
 40
0.1333333333333333
 40
0.2
 40
0.2
 40
0.2
 40
0.2
 40
0.2666666666666667
 40
0.2666666666666667
 40
0.2666666666666667
 40
0.2666666666666667
 40
0.3333333333333333
 40
0.3333333333333333
 40
0.3333333333333333
 40
0.3333333333333333
 40
0.4
 40
0.4
 40
0.4
 40
0.4
 40
0.4666666666666667
 40
0.4666666666666667
 40
0.4666666666666667
 40
0.4666666666666667
 40
0.5333333333333333
 40
0.5333333333333333
 40
0.5333333333333333
 40
0.5333333333333333
 40
0.6
 40
0.6
 40
0.6
 40
0.6
 40
0.6666666666666666
 40
0.6666666666666666
 40
0.6666666666666666
 40
0.6666666666666666
 40
0.7333333333333333
 40
0.7333333333333333
 40
0.7333333333333333
 40
0.7333333333333333
 40
0.8
 40
0.8
 40
0.8
 40
0.8
 40
0.8666666666666667
 40
0.8666666666666667
 40
0.8666666666666667
 40
0.8666666666666667
 40
1.0
 40
1.0
 40
1.0
 40
1.0
 10
-87.9749
 20
32.2069
 30
0.0
 10
-86.5841
 20
31.1141
 30
0.0
 10
-86.2364
 20
31.0148
 30
0.0
 10
-85.243
 20
31.5115
 30
0.0
 10
-85.243
 20
31.5115
 30
0.0
 10
-84.1502
 20
32.1076
 30
0.0
 10
-84.1999
 20
32.2069
 30
0.0
 10
-86.9318
 20
33.5977
 30
0.0
 10
-86.9318
 20
33.5977
 30
0.0
 10
-93.9355
 20
37.1244
 30
0.0
 10
-98.0085
 20
45.1214
 30
0.0
 10
-97.6111
 20
54.6086
 30
0.0
 10
-97.6111
 20
54.6086
 30
0.0
 10
-97.5615
 20
56.9432
 30
0.0
 10
-97.5615
 20
58.93
 30
0.0
 10
-97.6608
 20
58.8804
 30
0.0
 10
-97.6608
 20
58.8804
 30
0.0
 10
-100.2934
 20
54.5093
 30
0.0
 10
-106.0056
 20
54.5093
 30
0.0
 10
-108.3401
 20
57.4896
 30
0.0
 10
-108.3401
 20
57.4896
 30
0.0
 10
-111.3204
 20
62.407
 30
0.0
 10
-107.3467
 20
66.4801
 30
0.0
 10
-102.1312
 20
64.3442
 30
0.0
 10
-102.1312
 20
64.3442
 30
0.0
 10
-101.1378
 20
63.8972
 30
0.0
 10
-101.1378
 20
63.8972
 30
0.0
 10
-102.1809
 20
65.6853
 30
0.0
 10
-102.1809
 20
65.6853
 30
0.0
 10
-106.8742
 20
72.275
 30
0.0
 10
-115.5045
 20
65.8298
 30
0.0
 10
-114.3007
 20
58.185
 30
0.0
 10
-114.3007
 20
58.185
 30
0.0
 10
-113.9379
 20
55.374
 30
0.0
 10
-113.6549
 20
53.8636
 30
0.0
 10
-109.7309
 20
47.0089
 30
0.0
 10
-109.7309
 20
47.0089
 30
0.0
 10
-107.2473
 20
42.7372
 30
0.0
 10
-106.0056
 20
38.2171
 30
0.0
 10
-106.0056
 20
33.548
 30
0.0
 10
-106.0056
 20
33.548
 30
0.0
 10
-106.0056
 20
31.3128
 30
0.0
 10
-106.2539
 20
28.8789
 30
0.0
 10
-106.552
 20
28.0842
 30
0.0
 10
-106.552
 20
28.0842
 30
0.0
 10
-106.999
 20
26.8424
 30
0.0
 10
-106.9493
 20
26.7431
 30
0.0
 10
-106.1546
 20
27.0908
 30
0.0
 10
-106.1546
 20
27.0908
 30
0.0
 10
-102.104
 20
28.8398
 30
0.0
 10
-99.9963
 20
27.5231
 30
0.0
 10
-97.2138
 20
25.3026
 30
0.0
 10
-97.2138
 20
25.3026
 30
0.0
 10
-97.1434
 20
28.8695
 30
0.0
 10
-94.1713
 20
37.4644
 30
0.0
 10
-87.9749
 20
32.2069
 30
0.0
  0
SPLINE
  5
80
330
1F
100
AcDbEntity
  8
layer 1
 62
     7
370
    13
100
AcDbSpline
210
0.0
220
0.0
230
1.0
 70
    11
 71
     3
 72
    64
 73
    60
 74
     0
 42
0.0000000001
 43
0.0000000001
 12
1.0
 22
0.0
 32
0.0
 13
1.0
 23
0.0
 33
0.0
 40
0.0
 40
0.0
 40
0.0
 40
0.0
 40
0.0625
 40
0.0625
 40
0.0625
 40
0.0625
 40
0.125
 40
0.125
 40
0.125
 40
0.125
 40
0.1875
 40
0.1875
 40
0.1875
 40
0.1875
 40
0.25
 40
0.25
 40
0.25
 40
0.25
 40
0.3125
 40
0.3125
 40
0.3125
 40
0.3125
 40
0.375
 40
0.375
 40
0.375
 40
0.375
 40
0.4375
 40
0.4375
 40
0.4375
 40
0.4375
 40
0.5
 40
0.5
 40
0.5
 40
0.5
 40
0.5625
 40
0.5625
 40
0.5625
 40
0.5625
 40
0.625
 40
0.625
 40
0.625
 40
0.625
 40
0.6875
 40
0.6875
 40
0.6875
 40
0.6875
 40
0.75
 40
0.75
 40
0.75
 40
0.75
 40
0.8125
 40
0.8125
 40
0.8125
 40
0.8125
 40
0.875
 40
0.875
 40
0.875
 40
0.875
 40
1.0
 40
1.0
 40
1.0
 40
1.0
 10
-73.5206
 20
35.8329
 30
0.0
 10
-71.9178
 20
36.6343
 30
0.0
 10
-70.6146
 20
38.3304
 30
0.0
 10
-70.2423
 20
39.8066
 30
0.0
 10
-70.2423
 20
39.8066
 30
0.0
 10
-73.2225
 20
37.7701
 30
0.0
 10
-75.9048
 20
39.2602
 30
0.0
 10
-76.0041
 20
42.4889
 30
0.0
 10
-76.0041
 20
42.4889
 30
0.0
 10
-75.5571
 20
47.605
 30
0.0
 10
-70.3794
 20
47.4315
 30
0.0
 10
-68.7521
 20
43.83
 30
0.0
 10
-68.7521
 20
43.83
 30
0.0
 10
-68.7521
 20
43.83
 30
0.0
 10
-68.7521
 20
52.6218
 30
0.0
 10
-68.7521
 20
52.6218
 30
0.0
 10
-68.7521
 20
52.6218
 30
0.0
 10
-71.1895
 20
51.6219
 30
0.0
 10
-73.3057
 20
50.9515
 30
0.0
 10
-76.0409
 20
51.1379
 30
0.0
 10
-76.0409
 20
51.1379
 30
0.0
 10
-83.7693
 20
51.6708
 30
0.0
 10
-86.5841
 20
58.5194
 30
0.0
 10
-86.5841
 20
65.288
 30
0.0
 10
-86.5841
 20
65.288
 30
0.0
 10
-86.5841
 20
67.9205
 30
0.0
 10
-86.4351
 20
71.0995
 30
0.0
 10
-86.2364
 20
72.3413
 30
0.0
 10
-86.2364
 20
72.3413
 30
0.0
 10
-86.2364
 20
72.3413
 30
0.0
 10
-85.839
 20
74.6758
 30
0.0
 10
-85.839
 20
74.6758
 30
0.0
 10
-85.839
 20
74.6758
 30
0.0
 10
-92.9856
 20
67.3305
 30
0.0
 10
-94.9434
 20
59.8276
 30
0.0
 10
-95.0912
 20
50.0764
 30
0.0
 10
-95.0912
 20
50.0764
 30
0.0
 10
-95.1049
 20
49.1661
 30
0.0
 10
-94.8284
 20
48.3747
 30
0.0
 10
-94.6749
 20
48.3747
 30
0.0
 10
-94.6749
 20
48.3747
 30
0.0
 10
-94.4265
 20
48.3747
 30
0.0
 10
-94.2646
 20
49.592
 30
0.0
 10
-93.8175
 20
50.4365
 30
0.0
 10
-93.8175
 20
50.4365
 30
0.0
 10
-91.8307
 20
53.9134
 30
0.0
 10
-87.5775
 20
54.0623
 30
0.0
 10
-85.0443
 20
51.0323
 30
0.0
 10
-85.0443
 20
51.0323
 30
0.0
 10
-84.3219
 20
50.1034
 30
0.0
 10
-83.5233
 20
48.4115
 30
0.0
 10
-84.0012
 20
45.4691
 30
0.0
 10
-84.0012
 20
45.4691
 30
0.0
 10
-84.1999
 20
42.9856
 30
0.0
 10
-84.1005
 20
40.949
 30
0.0
 10
-83.7528
 20
40.0053
 30
0.0
 10
-83.7528
 20
40.0053
 30
0.0
 10
-82.6493
 20
35.811
 30
0.0
 10
-77.5735
 20
33.6714
 30
0.0
 10
-73.5206
 20
35.8329
 30
0.0
  0
SPLINE
  5
81
330
1F
100
AcDbEntity
  8
layer 1
 62
     7
370
    13
100
AcDbSpline
210
0.0
220
0.0
230
1.0
 70
    11
 71
     3
 72
    56
 73
    52
 74
     0
 42
0.0000000001
 43
0.0000000001
 12
1.0
 22
0.0
 32
0.0
 13
1.0
 23
0.0
 33
0.0
 40
0.0
 40
0.0
 40
0.0
 40
0.0
 40
0.0714285714285714
 40
0.0714285714285714
 40
0.0714285714285714
 40
0.0714285714285714
 40
0.1428571428571428
 40
0.1428571428571428
 40
0.1428571428571428
 40
0.1428571428571428
 40
0.2142857142857143
 40
0.2142857142857143
 40
0.2142857142857143
 40
0.2142857142857143
 40
0.2857142857142857
 40
0.2857142857142857
 40
0.2857142857142857
 40
0.2857142857142857
 40
0.3571428571428572
 40
0.3571428571428572
 40
0.3571428571428572
 40
0.3571428571428572
 40
0.4285714285714285
 40
0.4285714285714285
 40
0.4285714285714285
 40
0.4285714285714285
 40
0.5
 40
0.5
 40
0.5
 40
0.5
 40
0.5714285714285714
 40
0.5714285714285714
 40
0.5714285714285714
 40
0.5714285714285714
 40
0.6428571428571429
 40
0.6428571428571429
 40
0.6428571428571429
 40
0.6428571428571429
 40
0.7142857142857143
 40
0.7142857142857143
 40
0.7142857142857143
 40
0.7142857142857143
 40
0.7857142857142857
 40
0.7857142857142857
 40
0.7857142857142857
 40
0.7857142857142857
 40
0.8571428571428571
 40
0.8571428571428571
 40
0.8571428571428571
 40
0.8571428571428571
 40
1.0
 40
1.0
 40
1.0
 40
1.0
 10
-142.961
 20
56.4465
 30
0.0
 10
-135.4606
 20
60.2712
 30
0.0
 10
-132.1823
 20
60.6189
 30
0.0
 10
-126.0728
 20
58.1353
 30
0.0
 10
-126.0728
 20
58.1353
 30
0.0
 10
-123.8872
 20
57.2412
 30
0.0
 10
-123.1421
 20
57.0922
 30
0.0
 10
-123.6389
 20
57.6386
 30
0.0
 10
-123.6389
 20
57.6386
 30
0.0
 10
-124.831
 20
59.0791
 30
0.0
 10
-128.606
 20
61.0162
 30
0.0
 10
-135.709
 20
63.7978
 30
0.0
 10
-135.709
 20
63.7978
 30
0.0
 10
-143.259
 20
66.7781
 30
0.0
 10
-146.3883
 20
68.4172
 30
0.0
 10
-149.3189
 20
70.9505
 30
0.0
 10
-149.3189
 20
70.9505
 30
0.0
 10
-150.7097
 20
72.1923
 30
0.0
 10
-151.0574
 20
72.3413
 30
0.0
 10
-150.6103
 20
71.4969
 30
0.0
 10
-150.6103
 20
71.4969
 30
0.0
 10
-150.064
 20
70.5034
 30
0.0
 10
-150.1633
 20
70.4041
 30
0.0
 10
-152.1005
 20
70.1557
 30
0.0
 10
-152.1005
 20
70.1557
 30
0.0
 10
-154.584
 20
69.808
 30
0.0
 10
-155.4285
 20
69.1623
 30
0.0
 10
-156.7696
 20
66.5297
 30
0.0
 10
-156.7696
 20
66.5297
 30
0.0
 10
-157.9617
 20
64.1952
 30
0.0
 10
-159.7002
 20
63.4005
 30
0.0
 10
-162.6805
 20
63.8475
 30
0.0
 10
-162.6805
 20
63.8475
 30
0.0
 10
-162.6805
 20
63.8475
 30
0.0
 10
-164.9157
 20
64.1952
 30
0.0
 10
-164.9157
 20
64.1952
 30
0.0
 10
-164.9157
 20
64.1952
 30
0.0
 10
-164.9157
 20
64.1952
 30
0.0
 10
-164.419
 20
61.96
 30
0.0
 10
-164.419
 20
61.96
 30
0.0
 10
-164.419
 20
61.96
 30
0.0
 10
-163.6739
 20
58.6817
 30
0.0
 10
-161.8857
 20
56.7942
 30
0.0
 10
-158.061
 20
55.155
 30
0.0
 10
-158.061
 20
55.155
 30
0.0
 10
-156.4219
 20
54.4596
 30
0.0
 10
-154.8324
 20
54.2609
 30
0.0
 10
-151.2561
 20
54.41
 30
0.0
 10
-151.2561
 20
54.41
 30
0.0
 10
-147.1334
 20
54.559
 30
0.0
 10
-146.2393
 20
54.7577
 30
0.0
 10
-142.961
 20
56.4465
 30
0.0
  0
SPLINE
  5
82
330
1F
100
AcDbEntity
  8
layer 1
 62
     7
370
    13
100
AcDbSpline
210
0.0
220
0.0
230
1.0
 70
    11
 71
     3
 72
    88
 73
    84
 74
     0
 42
0.0000000001
 43
0.0000000001
 12
1.0
 22
0.0
 32
0.0
 13
1.0
 23
0.0
 33
0.0
 40
0.0
 40
0.0
 40
0.0
 40
0.0
 40
0.0454545454545455
 40
0.0454545454545455
 40
0.0454545454545455
 40
0.0454545454545455
 40
0.0909090909090909
 40
0.0909090909090909
 40
0.0909090909090909
 40
0.0909090909090909
 40
0.1363636363636364
 40
0.1363636363636364
 40
0.1363636363636364
 40
0.1363636363636364
 40
0.1818181818181818
 40
0.1818181818181818
 40
0.1818181818181818
 40
0.1818181818181818
 40
0.2272727272727273
 40
0.2272727272727273
 40
0.2272727272727273
 40
0.2272727272727273
 40
0.2727272727272727
 40
0.2727272727272727
 40
0.2727272727272727
 40
0.2727272727272727
 40
0.3181818181818182
 40
0.3181818181818182
 40
0.3181818181818182
 40
0.3181818181818182
 40
0.3636363636363636
 40
0.3636363636363636
 40
0.3636363636363636
 40
0.3636363636363636
 40
0.4090909090909091
 40
0.4090909090909091
 40
0.4090909090909091
 40
0.4090909090909091
 40
0.4545454545454545
 40
0.4545454545454545
 40
0.4545454545454545
 40
0.4545454545454545
 40
0.5
 40
0.5
 40
0.5
 40
0.5
 40
0.5454545454545454
 40
0.5454545454545454
 40
0.5454545454545454
 40
0.5454545454545454
 40
0.5909090909090909
 40
0.5909090909090909
 40
0.5909090909090909
 40
0.5909090909090909
 40
0.6363636363636364
 40
0.6363636363636364
 40
0.6363636363636364
 40
0.6363636363636364
 40
0.6818181818181818
 40
0.6818181818181818
 40
0.6818181818181818
 40
0.6818181818181818
 40
0.7272727272727273
 40
0.7272727272727273
 40
0.7272727272727273
 40
0.7272727272727273
 40
0.7727272727272727
 40
0.7727272727272727
 40
0.7727272727272727
 40
0.7727272727272727
 40
0.8181818181818182
 40
0.8181818181818182
 40
0.8181818181818182
 40
0.8181818181818182
 40
0.8636363636363636
 40
0.8636363636363636
 40
0.8636363636363636
 40
0.8636363636363636
 40
0.9090909090909091
 40
0.9090909090909091
 40
0.9090909090909091
 40
0.9090909090909091
 40
1.0
 40
1.0
 40
1.0
 40
1.0
 10
-117.9267
 20
61.7613
 30
0.0
 10
-117.877
 20
63.8972
 30
0.0
 10
-115.4928
 20
68.5663
 30
0.0
 10
-113.9033
 20
69.6094
 30
0.0
 10
-113.9033
 20
69.6094
 30
0.0
 10
-113.9033
 20
69.6094
 30
0.0
 10
-112.6615
 20
70.4538
 30
0.0
 10
-112.6615
 20
70.4538
 30
0.0
 10
-112.6615
 20
70.4538
 30
0.0
 10
-112.6615
 20
70.4538
 30
0.0
 10
-114.102
 20
71.0498
 30
0.0
 10
-114.102
 20
71.0498
 30
0.0
 10
-114.102
 20
71.0498
 30
0.0
 10
-115.3934
 20
71.5962
 30
0.0
 10
-115.6418
 20
71.4969
 30
0.0
 10
-116.7842
 20
70.2054
 30
0.0
 10
-116.7842
 20
70.2054
 30
0.0
 10
-118.4234
 20
68.2186
 30
0.0
 10
-120.0129
 20
68.3179
 30
0.0
 10
-121.9997
 20
70.5531
 30
0.0
 10
-121.9997
 20
70.5531
 30
0.0
 10
-122.8938
 20
71.5465
 30
0.0
 10
-123.4988
 20
72.633
 30
0.0
 10
-123.5892
 20
72.8877
 30
0.0
 10
-123.5892
 20
72.8877
 30
0.0
 10
-123.9179
 20
73.8433
 30
0.0
 10
-124.4833
 20
73.3844
 30
0.0
 10
-124.7813
 20
72.3413
 30
0.0
 10
-124.7813
 20
72.3413
 30
0.0
 10
-125.129
 20
71.0995
 30
0.0
 10
-127.5132
 20
70.1061
 30
0.0
 10
-129.202
 20
70.5531
 30
0.0
 10
-129.202
 20
70.5531
 30
0.0
 10
-130.7915
 20
70.9505
 30
0.0
 10
-133.0764
 20
73.2354
 30
0.0
 10
-132.7287
 20
74.1294
 30
0.0
 10
-132.7287
 20
74.1294
 30
0.0
 10
-132.5797
 20
74.6262
 30
0.0
 10
-132.9771
 20
75.0732
 30
0.0
 10
-133.9208
 20
75.3712
 30
0.0
 10
-133.9208
 20
75.3712
 30
0.0
 10
-136.8514
 20
76.4143
 30
0.0
 10
-137.2488
 20
80.2887
 30
0.0
 10
-134.7155
 20
82.8219
 30
0.0
 10
-134.7155
 20
82.8219
 30
0.0
 10
-134.7155
 20
82.8219
 30
0.0
 10
-133.4738
 20
84.0637
 30
0.0
 10
-133.4738
 20
84.0637
 30
0.0
 10
-133.4738
 20
84.0637
 30
0.0
 10
-133.4738
 20
84.0637
 30
0.0
 10
-135.2619
 20
85.4545
 30
0.0
 10
-135.2619
 20
85.4545
 30
0.0
 10
-135.2619
 20
85.4545
 30
0.0
 10
-137.0004
 20
86.8453
 30
0.0
 10
-137.8945
 20
87.2427
 30
0.0
 10
-137.3481
 20
86.3982
 30
0.0
 10
-137.3481
 20
86.3982
 30
0.0
 10
-136.8017
 20
85.5538
 30
0.0
 10
-138.1429
 20
82.2259
 30
0.0
 10
-139.484
 20
81.1828
 30
0.0
 10
-139.484
 20
81.1828
 30
0.0
 10
-141.5772
 20
79.5082
 30
0.0
 10
-143.9167
 20
79.6543
 30
0.0
 10
-145.5439
 20
81.2324
 30
0.0
 10
-145.5439
 20
81.2324
 30
0.0
 10
-139.1576
 20
82.7069
 30
0.0
 10
-141.7835
 20
89.718
 30
0.0
 10
-146.3883
 20
87.8884
 30
0.0
 10
-146.3883
 20
87.8884
 30
0.0
 10
-149.7163
 20
86.4976
 30
0.0
 10
-150.511
 20
81.1828
 30
0.0
 10
-148.0274
 20
76.911
 30
0.0
 10
-148.0274
 20
76.911
 30
0.0
 10
-145.3949
 20
72.2916
 30
0.0
 10
-140.7258
 20
69.2617
 30
0.0
 10
-130.1955
 20
65.1389
 30
0.0
 10
-130.1955
 20
65.1389
 30
0.0
 10
-127.1158
 20
63.9468
 30
0.0
 10
-123.2912
 20
62.0593
 30
0.0
 10
-121.652
 20
60.9666
 30
0.0
 10
-121.652
 20
60.9666
 30
0.0
 10
-118.4731
 20
58.8307
 30
0.0
 10
-117.9267
 20
58.93
 30
0.0
 10
-117.9267
 20
61.7613
 30
0.0
  0
SPLINE
  5
83
330
1F
100
AcDbEntity
  8
layer 1
 62
     7
370
    13
100
AcDbSpline
210
0.0
220
0.0
230
1.0
 70
    11
 71
     3
 72
    68
 73
    64
 74
     0
 42
0.0000000001
 43
0.0000000001
 12
1.0
 22
0.0
 32
0.0
 13
1.0
 23
0.0
 33
0.0
 40
0.0
 40
0.0
 40
0.0
 40
0.0
 40
0.0588235294117647
 40
0.0588235294117647
 40
0.0588235294117647
 40
0.0588235294117647
 40
0.1176470588235294
 40
0.1176470588235294
 40
0.1176470588235294
 40
0.1176470588235294
 40
0.1764705882352941
 40
0.1764705882352941
 40
0.1764705882352941
 40
0.1764705882352941
 40
0.2352941176470588
 40
0.2352941176470588
 40
0.2352941176470588
 40
0.2352941176470588
 40
0.2941176470588235
 40
0.2941176470588235
 40
0.2941176470588235
 40
0.2941176470588235
 40
0.3529411764705883
 40
0.3529411764705883
 40
0.3529411764705883
 40
0.3529411764705883
 40
0.4117647058823529
 40
0.4117647058823529
 40
0.4117647058823529
 40
0.4117647058823529
 40
0.4705882352941176
 40
0.4705882352941176
 40
0.4705882352941176
 40
0.4705882352941176
 40
0.5294117647058824
 40
0.5294117647058824
 40
0.5294117647058824
 40
0.5294117647058824
 40
0.5882352941176471
 40
0.5882352941176471
 40
0.5882352941176471
 40
0.5882352941176471
 40
0.6470588235294118
 40
0.6470588235294118
 40
0.6470588235294118
 40
0.6470588235294118
 40
0.7058823529411765
 40
0.7058823529411765
 40
0.7058823529411765
 40
0.7058823529411765
 40
0.7647058823529411
 40
0.7647058823529411
 40
0.7647058823529411
 40
0.7647058823529411
 40
0.8235294117647058
 40
0.8235294117647058
 40
0.8235294117647058
 40
0.8235294117647058
 40
0.8823529411764706
 40
0.8823529411764706
 40
0.8823529411764706
 40
0.8823529411764706
 40
1.0
 40
1.0
 40
1.0
 40
1.0
 10
-159.8492
 20
74.5268
 30
0.0
 10
-158.061
 20
75.0732
 30
0.0
 10
-154.5344
 20
74.8745
 30
0.0
 10
-153.0442
 20
74.2288
 30
0.0
 10
-153.0442
 20
74.2288
 30
0.0
 10
-152.3488
 20
73.9308
 30
0.0
 10
-152.4482
 20
74.3778
 30
0.0
 10
-153.4913
 20
76.464
 30
0.0
 10
-153.4913
 20
76.464
 30
0.0
 10
-155.1304
 20
79.8416
 30
0.0
 10
-155.1801
 20
83.6167
 30
0.0
 10
-153.541
 20
87.0936
 30
0.0
 10
-153.541
 20
87.0936
 30
0.0
 10
-152.3488
 20
89.6269
 30
0.0
 10
-149.0705
 20
92.5575
 30
0.0
 10
-147.332
 20
92.5575
 30
0.0
 10
-147.332
 20
92.5575
 30
0.0
 10
-146.2889
 20
92.5575
 30
0.0
 10
-146.0406
 20
93.3025
 30
0.0
 10
-146.885
 20
93.8489
 30
0.0
 10
-146.885
 20
93.8489
 30
0.0
 10
-147.183
 20
93.9979
 30
0.0
 10
-147.3817
 20
94.6933
 30
0.0
 10
-147.3817
 20
95.3391
 30
0.0
 10
-147.3817
 20
95.3391
 30
0.0
 10
-147.3817
 20
97.2762
 30
0.0
 10
-144.8485
 20
97.8723
 30
0.0
 10
-143.1597
 20
96.3325
 30
0.0
 10
-143.1597
 20
96.3325
 30
0.0
 10
-142.2656
 20
95.5378
 30
0.0
 10
-142.2159
 20
95.5378
 30
0.0
 10
-142.2159
 20
96.3325
 30
0.0
 10
-142.2159
 20
96.3325
 30
0.0
 10
-142.2159
 20
97.6239
 30
0.0
 10
-144.1034
 20
99.2631
 30
0.0
 10
-145.5439
 20
99.2631
 30
0.0
 10
-145.5439
 20
99.2631
 30
0.0
 10
-148.8719
 20
99.2631
 30
0.0
 10
-153.1933
 20
96.3822
 30
0.0
 10
-155.2298
 20
92.7562
 30
0.0
 10
-155.2298
 20
92.7562
 30
0.0
 10
-156.0245
 20
91.3157
 30
0.0
 10
-157.5643
 20
89.2295
 30
0.0
 10
-158.6571
 20
88.1367
 30
0.0
 10
-158.6571
 20
88.1367
 30
0.0
 10
-160.4453
 20
86.2989
 30
0.0
 10
-164.9653
 20
83.7657
 30
0.0
 10
-166.4058
 20
83.7657
 30
0.0
 10
-166.4058
 20
83.7657
 30
0.0
 10
-167.4986
 20
83.716
 30
0.0
 10
-167.1012
 20
83.0206
 30
0.0
 10
-165.5614
 20
82.1265
 30
0.0
 10
-165.5614
 20
82.1265
 30
0.0
 10
-162.7798
 20
80.537
 30
0.0
 10
-161.8361
 20
77.3581
 30
0.0
 10
-163.1772
 20
74.2288
 30
0.0
 10
-163.1772
 20
74.2288
 30
0.0
 10
-163.5249
 20
73.3844
 30
0.0
 10
-163.4752
 20
73.285
 30
0.0
 10
-162.6308
 20
73.6327
 30
0.0
 10
-162.6308
 20
73.6327
 30
0.0
 10
-162.0844
 20
73.8314
 30
0.0
 10
-160.8426
 20
74.2288
 30
0.0
 10
-159.8492
 20
74.5268
 30
0.0
  0
SPLINE
  5
84
330
1F
100
AcDbEntity
  8
layer 1
 62
     7
370
    13
100
AcDbSpline
210
0.0
220
0.0
230
1.0
 70
    11
 71
     3
 72
    76
 73
    72
 74
     0
 42
0.0000000001
 43
0.0000000001
 12
1.0
 22
0.0
 32
0.0
 13
1.0
 23
0.0
 33
0.0
 40
0.0
 40
0.0
 40
0.0
 40
0.0
 40
0.0526315789473684
 40
0.0526315789473684
 40
0.0526315789473684
 40
0.0526315789473684
 40
0.1052631578947368
 40
0.1052631578947368
 40
0.1052631578947368
 40
0.1052631578947368
 40
0.1578947368421053
 40
0.1578947368421053
 40
0.1578947368421053
 40
0.1578947368421053
 40
0.2105263157894737
 40
0.2105263157894737
 40
0.2105263157894737
 40
0.2105263157894737
 40
0.2631578947368421
 40
0.2631578947368421
 40
0.2631578947368421
 40
0.2631578947368421
 40
0.3157894736842105
 40
0.3157894736842105
 40
0.3157894736842105
 40
0.3157894736842105
 40
0.3684210526315789
 40
0.3684210526315789
 40
0.3684210526315789
 40
0.3684210526315789
 40
0.4210526315789473
 40
0.4210526315789473
 40
0.4210526315789473
 40
0.4210526315789473
 40
0.4736842105263158
 40
0.4736842105263158
 40
0.4736842105263158
 40
0.4736842105263158
 40
0.5263157894736842
 40
0.5263157894736842
 40
0.5263157894736842
 40
0.5263157894736842
 40
0.5789473684210527
 40
0.5789473684210527
 40
0.5789473684210527
 40
0.5789473684210527
 40
0.631578947368421
 40
0.631578947368421
 40
0.631578947368421
 40
0.631578947368421
 40
0.6842105263157895
 40
0.6842105263157895
 40
0.6842105263157895
 40
0.6842105263157895
 40
0.7368421052631579
 40
0.7368421052631579
 40
0.7368421052631579
 40
0.7368421052631579
 40
0.7894736842105263
 40
0.7894736842105263
 40
0.7894736842105263
 40
0.7894736842105263
 40
0.8421052631578947
 40
0.8421052631578947
 40
0.8421052631578947
 40
0.8421052631578947
 40
0.8947368421052632
 40
0.8947368421052632
 40
0.8947368421052632
 40
0.8947368421052632
 40
1.0
 40
1.0
 40
1.0
 40
1.0
 10
-135.709
 20
92.5575
 30
0.0
 10
-135.2123
 20
92.5575
 30
0.0
 10
-134.9639
 20
93.1535
 30
0.0
 10
-134.9639
 20
94.5443
 30
0.0
 10
-134.9639
 20
94.5443
 30
0.0
 10
-134.9639
 20
95.7364
 30
0.0
 10
-134.6659
 20
96.8292
 30
0.0
 10
-134.1692
 20
97.2266
 30
0.0
 10
-134.1692
 20
97.2266
 30
0.0
 10
-133.4738
 20
97.773
 30
0.0
 10
-133.5234
 20
97.9716
 30
0.0
 10
-134.4672
 20
99.0147
 30
0.0
 10
-134.4672
 20
99.0147
 30
0.0
 10
-138.3265
 20
103.1314
 30
0.0
 10
-132.1958
 20
106.2104
 30
0.0
 10
-129.3014
 20
101.2996
 30
0.0
 10
-129.3014
 20
101.2996
 30
0.0
 10
-129.3014
 20
101.2996
 30
0.0
 10
-129.0034
 20
102.6407
 30
0.0
 10
-129.0034
 20
102.6407
 30
0.0
 10
-129.0034
 20
102.6407
 30
0.0
 10
-127.5392
 20
108.4061
 30
0.0
 10
-135.5363
 20
111.597
 30
0.0
 10
-138.0932
 20
105.9687
 30
0.0
 10
-138.0932
 20
105.9687
 30
0.0
 10
-138.6396
 20
104.8759
 30
0.0
 10
-139.5833
 20
103.8328
 30
0.0
 10
-140.1794
 20
103.6342
 30
0.0
 10
-140.1794
 20
103.6342
 30
0.0
 10
-141.5205
 20
103.2368
 30
0.0
 10
-143.5074
 20
104.4786
 30
0.0
 10
-144.7491
 20
106.5648
 30
0.0
 10
-144.7491
 20
106.5648
 30
0.0
 10
-144.7491
 20
106.5648
 30
0.0
 10
-145.6929
 20
108.1046
 30
0.0
 10
-145.6929
 20
108.1046
 30
0.0
 10
-145.6929
 20
108.1046
 30
0.0
 10
-145.6929
 20
108.1046
 30
0.0
 10
-147.332
 20
106.7138
 30
0.0
 10
-147.332
 20
106.7138
 30
0.0
 10
-147.332
 20
106.7138
 30
0.0
 10
-149.0705
 20
105.2733
 30
0.0
 10
-151.8521
 20
100.9519
 30
0.0
 10
-151.4051
 20
100.5049
 30
0.0
 10
-151.4051
 20
100.5049
 30
0.0
 10
-151.2064
 20
100.3559
 30
0.0
 10
-150.66
 20
100.4552
 30
0.0
 10
-150.064
 20
100.7532
 30
0.0
 10
-150.064
 20
100.7532
 30
0.0
 10
-148.3751
 20
101.697
 30
0.0
 10
-144.6995
 20
101.4486
 30
0.0
 10
-142.8616
 20
100.3062
 30
0.0
 10
-142.8616
 20
100.3062
 30
0.0
 10
-139.931
 20
98.518
 30
0.0
 10
-139.3846
 20
95.1901
 30
0.0
 10
-141.6695
 20
93.2032
 30
0.0
 10
-141.6695
 20
93.2032
 30
0.0
 10
-142.6133
 20
92.4085
 30
0.0
 10
-142.5636
 20
92.3588
 30
0.0
 10
-140.4774
 20
91.266
 30
0.0
 10
-140.4774
 20
91.266
 30
0.0
 10
-140.4774
 20
91.266
 30
0.0
 10
-138.3416
 20
90.1733
 30
0.0
 10
-138.3416
 20
90.1733
 30
0.0
 10
-138.3416
 20
90.1733
 30
0.0
 10
-138.3416
 20
90.1733
 30
0.0
 10
-137.3978
 20
91.3654
 30
0.0
 10
-137.3978
 20
91.3654
 30
0.0
 10
-137.3978
 20
91.3654
 30
0.0
 10
-136.8514
 20
92.0111
 30
0.0
 10
-136.1063
 20
92.5575
 30
0.0
 10
-135.709
 20
92.5575
 30
0.0
  0
SPLINE
  5
85
330
1F
100
AcDbEntity
  8
layer 1
 62
     7
370
    13
100
AcDbSpline
210
0.0
220
0.0
230
1.0
 70
    11
 71
     3
 72
    76
 73
    72
 74
     0
 42
0.0000000001
 43
0.0000000001
 12
1.0
 22
0.0
 32
0.0
 13
1.0
 23
0.0
 33
0.0
 40
0.0
 40
0.0
 40
0.0
 40
0.0
 40
0.0526315789473684
 40
0.0526315789473684
 40
0.0526315789473684
 40
0.0526315789473684
 40
0.1052631578947368
 40
0.1052631578947368
 40
0.1052631578947368
 40
0.1052631578947368
 40
0.1578947368421053
 40
0.1578947368421053
 40
0.1578947368421053
 40
0.1578947368421053
 40
0.2105263157894737
 40
0.2105263157894737
 40
0.2105263157894737
 40
0.2105263157894737
 40
0.2631578947368421
 40
0.2631578947368421
 40
0.2631578947368421
 40
0.2631578947368421
 40
0.3157894736842105
 40
0.3157894736842105
 40
0.3157894736842105
 40
0.3157894736842105
 40
0.3684210526315789
 40
0.3684210526315789
 40
0.3684210526315789
 40
0.3684210526315789
 40
0.4210526315789473
 40
0.4210526315789473
 40
0.4210526315789473
 40
0.4210526315789473
 40
0.4736842105263158
 40
0.4736842105263158
 40
0.4736842105263158
 40
0.4736842105263158
 40
0.5263157894736842
 40
0.5263157894736842
 40
0.5263157894736842
 40
0.5263157894736842
 40
0.5789473684210527
 40
0.5789473684210527
 40
0.5789473684210527
 40
0.5789473684210527
 40
0.631578947368421
 40
0.631578947368421
 40
0.631578947368421
 40
0.631578947368421
 40
0.6842105263157895
 40
0.6842105263157895
 40
0.6842105263157895
 40
0.6842105263157895
 40
0.7368421052631579
 40
0.7368421052631579
 40
0.7368421052631579
 40
0.7368421052631579
 40
0.7894736842105263
 40
0.7894736842105263
 40
0.7894736842105263
 40
0.7894736842105263
 40
0.8421052631578947
 40
0.8421052631578947
 40
0.8421052631578947
 40
0.8421052631578947
 40
0.8947368421052632
 40
0.8947368421052632
 40
0.8947368421052632
 40
0.8947368421052632
 40
1.0
 40
1.0
 40
1.0
 40
1.0
 10
-178.6249
 20
102.7898
 30
0.0
 10
-176.0917
 20
104.2799
 30
0.0
 10
-171.4723
 20
104.1805
 30
0.0
 10
-168.194
 20
102.5414
 30
0.0
 10
-168.194
 20
102.5414
 30
0.0
 10
-166.1574
 20
101.548
 30
0.0
 10
-165.8594
 20
101.4983
 30
0.0
 10
-164.419
 20
102.1937
 30
0.0
 10
-164.419
 20
102.1937
 30
0.0
 10
-163.5745
 20
102.6407
 30
0.0
 10
-163.0282
 20
103.1871
 30
0.0
 10
-163.2268
 20
103.4851
 30
0.0
 10
-163.2268
 20
103.4851
 30
0.0
 10
-163.7732
 20
104.3792
 30
0.0
 10
-162.9288
 20
106.4158
 30
0.0
 10
-161.8857
 20
106.7635
 30
0.0
 10
-161.8857
 20
106.7635
 30
0.0
 10
-160.5446
 20
107.2105
 30
0.0
 10
-158.2597
 20
105.919
 30
0.0
 10
-156.2729
 20
103.6838
 30
0.0
 10
-156.2729
 20
103.6838
 30
0.0
 10
-154.4847
 20
101.6473
 30
0.0
 10
-154.137
 20
102.2434
 30
0.0
 10
-155.3291
 20
105.0746
 30
0.0
 10
-155.3291
 20
105.0746
 30
0.0
 10
-157.7133
 20
110.6378
 30
0.0
 10
-163.5249
 20
111.4325
 30
0.0
 10
-167.3496
 20
106.7635
 30
0.0
 10
-167.3496
 20
106.7635
 30
0.0
 10
-168.79
 20
104.9753
 30
0.0
 10
-169.5848
 20
104.4289
 30
0.0
 10
-170.7272
 20
104.4289
 30
0.0
 10
-170.7272
 20
104.4289
 30
0.0
 10
-172.1677
 20
104.4289
 30
0.0
 10
-174.3035
 20
105.9687
 30
0.0
 10
-174.3035
 20
107.0118
 30
0.0
 10
-174.3035
 20
107.0118
 30
0.0
 10
-174.3035
 20
108.4026
 30
0.0
 10
-172.9127
 20
110.6378
 30
0.0
 10
-170.7769
 20
112.6743
 30
0.0
 10
-170.7769
 20
112.6743
 30
0.0
 10
-168.3927
 20
114.8599
 30
0.0
 10
-168.3927
 20
114.9095
 30
0.0
 10
-170.1808
 20
114.0155
 30
0.0
 10
-170.1808
 20
114.0155
 30
0.0
 10
-172.6147
 20
112.7737
 30
0.0
 10
-175.1976
 20
110.2901
 30
0.0
 10
-176.4394
 20
107.9556
 30
0.0
 10
-176.4394
 20
107.9556
 30
0.0
 10
-177.7308
 20
105.3727
 30
0.0
 10
-178.8733
 20
104.8263
 30
0.0
 10
-180.7608
 20
105.77
 30
0.0
 10
-180.7608
 20
105.77
 30
0.0
 10
-181.5555
 20
106.1674
 30
0.0
 10
-182.2509
 20
106.5151
 30
0.0
 10
-182.3999
 20
106.5151
 30
0.0
 10
-182.3999
 20
106.5151
 30
0.0
 10
-182.4993
 20
106.5151
 30
0.0
 10
-182.5986
 20
104.5779
 30
0.0
 10
-182.5986
 20
102.2434
 30
0.0
 10
-182.5986
 20
102.2434
 30
0.0
 10
-182.5986
 20
102.2434
 30
0.0
 10
-182.5986
 20
97.9716
 30
0.0
 10
-182.5986
 20
97.9716
 30
0.0
 10
-182.5986
 20
97.9716
 30
0.0
 10
-182.5986
 20
97.9716
 30
0.0
 10
-181.6052
 20
99.8095
 30
0.0
 10
-181.6052
 20
99.8095
 30
0.0
 10
-181.6052
 20
99.8095
 30
0.0
 10
-181.1085
 20
100.8029
 30
0.0
 10
-179.7674
 20
102.144
 30
0.0
 10
-178.6249
 20
102.7898
 30
0.0
  0
SPLINE
  5
86
330
1F
100
AcDbEntity
  8
layer 1
 62
     7
370
    13
100
AcDbSpline
210
0.0
220
0.0
230
1.0
 70
    11
 71
     3
 72
    28
 73
    24
 74
     0
 42
0.0000000001
 43
0.0000000001
 12
1.0
 22
0.0
 32
0.0
 13
1.0
 23
0.0
 33
0.0
 40
0.0
 40
0.0
 40
0.0
 40
0.0
 40
0.1428571428571428
 40
0.1428571428571428
 40
0.1428571428571428
 40
0.1428571428571428
 40
0.2857142857142857
 40
0.2857142857142857
 40
0.2857142857142857
 40
0.2857142857142857
 40
0.4285714285714285
 40
0.4285714285714285
 40
0.4285714285714285
 40
0.4285714285714285
 40
0.5714285714285714
 40
0.5714285714285714
 40
0.5714285714285714
 40
0.5714285714285714
 40
0.7142857142857143
 40
0.7142857142857143
 40
0.7142857142857143
 40
0.7142857142857143
 40
1.0
 40
1.0
 40
1.0
 40
1.0
 10
-151.0077
 20
108.7006
 30
0.0
 10
-149.3559
 20
112.2996
 30
0.0
 10
-148.626
 20
115.857
 30
0.0
 10
-152.1502
 20
118.6846
 30
0.0
 10
-152.1502
 20
118.6846
 30
0.0
 10
-150.7705
 20
116.1382
 30
0.0
 10
-152.0954
 20
111.887
 30
0.0
 10
-155.6768
 20
113.7174
 30
0.0
 10
-155.6768
 20
113.7174
 30
0.0
 10
-157.0179
 20
114.4625
 30
0.0
 10
-156.9683
 20
114.0651
 30
0.0
 10
-155.4285
 20
112.0286
 30
0.0
 10
-155.4285
 20
112.0286
 30
0.0
 10
-154.7331
 20
111.0849
 30
0.0
 10
-153.7893
 20
109.4457
 30
0.0
 10
-153.3423
 20
108.4026
 30
0.0
 10
-153.3423
 20
108.4026
 30
0.0
 10
-152.8952
 20
107.3595
 30
0.0
 10
-152.4482
 20
106.5151
 30
0.0
 10
-152.2992
 20
106.5151
 30
0.0
 10
-152.2992
 20
106.5151
 30
0.0
 10
-152.1502
 20
106.5151
 30
0.0
 10
-151.5541
 20
107.5085
 30
0.0
 10
-151.0077
 20
108.7006
 30
0.0
  0
SPLINE
  5
87
330
1F
100
AcDbEntity
  8
layer 1
 62
     7
370
    13
100
AcDbSpline
210
0.0
220
0.0
230
1.0
 70
    11
 71
     3
 72
    36
 73
    32
 74
     0
 42
0.0000000001
 43
0.0000000001
 12
1.0
 22
0.0
 32
0.0
 13
1.0
 23
0.0
 33
0.0
 40
0.0
 40
0.0
 40
0.0
 40
0.0
 40
0.1111111111111111
 40
0.1111111111111111
 40
0.1111111111111111
 40
0.1111111111111111
 40
0.2222222222222222
 40
0.2222222222222222
 40
0.2222222222222222
 40
0.2222222222222222
 40
0.3333333333333333
 40
0.3333333333333333
 40
0.3333333333333333
 40
0.3333333333333333
 40
0.4444444444444444
 40
0.4444444444444444
 40
0.4444444444444444
 40
0.4444444444444444
 40
0.5555555555555556
 40
0.5555555555555556
 40
0.5555555555555556
 40
0.5555555555555556
 40
0.6666666666666666
 40
0.6666666666666666
 40
0.6666666666666666
 40
0.6666666666666666
 40
0.7777777777777778
 40
0.7777777777777778
 40
0.7777777777777778
 40
0.7777777777777778
 40
1.0
 40
1.0
 40
1.0
 40
1.0
 10
-68.5038
 20
74.9739
 30
0.0
 10
-70.6342
 20
74.4216
 30
0.0
 10
-73.3747
 20
74.7206
 30
0.0
 10
-73.4212
 20
77.2587
 30
0.0
 10
-73.4212
 20
77.2587
 30
0.0
 10
-73.4676
 20
79.9979
 30
0.0
 10
-70.8604
 20
81.1689
 30
0.0
 10
-68.7521
 20
79.5933
 30
0.0
 10
-68.7521
 20
79.5933
 30
0.0
 10
-68.7521
 20
79.5933
 30
0.0
 10
-68.7521
 20
105.2236
 30
0.0
 10
-68.7521
 20
105.2236
 30
0.0
 10
-68.7521
 20
105.2236
 30
0.0
 10
-68.7521
 20
105.2236
 30
0.0
 10
-70.4906
 20
106.6144
 30
0.0
 10
-70.4906
 20
106.6144
 30
0.0
 10
-70.4906
 20
106.6144
 30
0.0
 10
-70.4906
 20
106.6144
 30
0.0
 10
-72.2291
 20
107.9556
 30
0.0
 10
-72.2291
 20
107.9556
 30
0.0
 10
-72.2291
 20
107.9556
 30
0.0
 10
-70.2567
 20
101.3329
 30
0.0
 10
-71.5838
 20
94.5267
 30
0.0
 10
-75.0107
 20
87.8387
 30
0.0
 10
-75.0107
 20
87.8387
 30
0.0
 10
-76.4015
 20
85.1068
 30
0.0
 10
-76.6995
 20
83.9147
 30
0.0
 10
-76.6995
 20
81.1331
 30
0.0
 10
-76.6995
 20
81.1331
 30
0.0
 10
-77.0034
 20
76.2186
 30
0.0
 10
-72.8453
 20
70.1483
 30
0.0
 10
-68.5038
 20
74.9739
 30
0.0
  0
SPLINE
  5
88
330
1F
100
AcDbEntity
  8
layer 1
 62
     7
370
    13
100
AcDbSpline
210
0.0
220
0.0
230
1.0
 70
    11
 71
     3
 72
   128
 73
   124
 74
     0
 42
0.0000000001
 43
0.0000000001
 12
1.0
 22
0.0
 32
0.0
 13
1.0
 23
0.0
 33
0.0
 40
0.0
 40
0.0
 40
0.0
 40
0.0
 40
0.03125
 40
0.03125
 40
0.03125
 40
0.03125
 40
0.0625
 40
0.0625
 40
0.0625
 40
0.0625
 40
0.09375
 40
0.09375
 40
0.09375
 40
0.09375
 40
0.125
 40
0.125
 40
0.125
 40
0.125
 40
0.15625
 40
0.15625
 40
0.15625
 40
0.15625
 40
0.1875
 40
0.1875
 40
0.1875
 40
0.1875
 40
0.21875
 40
0.21875
 40
0.21875
 40
0.21875
 40
0.25
 40
0.25
 40
0.25
 40
0.25
 40
0.28125
 40
0.28125
 40
0.28125
 40
0.28125
 40
0.3125
 40
0.3125
 40
0.3125
 40
0.3125
 40
0.34375
 40
0.34375
 40
0.34375
 40
0.34375
 40
0.375
 40
0.375
 40
0.375
 40
0.375
 40
0.40625
 40
0.40625
 40
0.40625
 40
0.40625
 40
0.4375
 40
0.4375
 40
0.4375
 40
0.4375
 40
0.46875
 40
0.46875
 40
0.46875
 40
0.46875
 40
0.5
 40
0.5
 40
0.5
 40
0.5
 40
0.53125
 40
0.53125
 40
0.53125
 40
0.53125
 40
0.5625
 40
0.5625
 40
0.5625
 40
0.5625
 40
0.59375
 40
0.59375
 40
0.59375
 40
0.59375
 40
0.625
 40
0.625
 40
0.625
 40
0.625
 40
0.65625
 40
0.65625
 40
0.65625
 40
0.65625
 40
0.6875
 40
0.6875
 40
0.6875
 40
0.6875
 40
0.71875
 40
0.71875
 40
0.71875
 40
0.71875
 40
0.75
 40
0.75
 40
0.75
 40
0.75
 40
0.78125
 40
0.78125
 40
0.78125
 40
0.78125
 40
0.8125
 40
0.8125
 40
0.8125
 40
0.8125
 40
0.84375
 40
0.84375
 40
0.84375
 40
0.84375
 40
0.875
 40
0.875
 40
0.875
 40
0.875
 40
0.90625
 40
0.90625
 40
0.90625
 40
0.90625
 40
0.9375
 40
0.9375
 40
0.9375
 40
0.9375
 40
1.0
 40
1.0
 40
1.0
 40
1.0
 10
-83.0575
 20
83.6167
 30
0.0
 10
-83.0575
 20
83.6167
 30
0.0
 10
-81.4183
 20
84.5107
 30
0.0
 10
-81.4183
 20
84.5107
 30
0.0
 10
-81.4183
 20
84.5107
 30
0.0
 10
-81.4183
 20
84.5107
 30
0.0
 10
-84.5476
 20
84.8088
 30
0.0
 10
-84.5476
 20
84.8088
 30
0.0
 10
-84.5476
 20
84.8088
 30
0.0
 10
-86.2364
 20
84.9578
 30
0.0
 10
-88.2729
 20
85.5538
 30
0.0
 10
-89.0677
 20
86.0505
 30
0.0
 10
-89.0677
 20
86.0505
 30
0.0
 10
-91.5016
 20
87.64
 30
0.0
 10
-91.5512
 20
91.0177
 30
0.0
 10
-89.1173
 20
91.415
 30
0.0
 10
-89.1173
 20
91.415
 30
0.0
 10
-88.2729
 20
91.5144
 30
0.0
 10
-88.0742
 20
91.9614
 30
0.0
 10
-88.0742
 20
94.0973
 30
0.0
 10
-88.0742
 20
94.0973
 30
0.0
 10
-88.0742
 20
96.2331
 30
0.0
 10
-88.2729
 20
96.7299
 30
0.0
 10
-89.3657
 20
97.2762
 30
0.0
 10
-89.3657
 20
97.2762
 30
0.0
 10
-90.0114
 20
97.6239
 30
0.0
 10
-91.6009
 20
99.0644
 30
0.0
 10
-92.8924
 20
100.4552
 30
0.0
 10
-92.8924
 20
100.4552
 30
0.0
 10
-96.9654
 20
105.025
 30
0.0
 10
-97.7105
 20
111.2339
 30
0.0
 10
-94.5812
 20
114.3632
 30
0.0
 10
-94.5812
 20
114.3632
 30
0.0
 10
-93.7864
 20
115.1579
 30
0.0
 10
-92.793
 20
115.8036
 30
0.0
 10
-92.346
 20
115.8036
 30
0.0
 10
-92.346
 20
115.8036
 30
0.0
 10
-90.5081
 20
115.8036
 30
0.0
 10
-91.9486
 20
117.5918
 30
0.0
 10
-95.0779
 20
119.1813
 30
0.0
 10
-95.0779
 20
119.1813
 30
0.0
 10
-97.4124
 20
120.3734
 30
0.0
 10
-101.4855
 20
120.274
 30
0.0
 10
-105.9062
 20
118.9329
 30
0.0
 10
-105.9062
 20
118.9329
 30
0.0
 10
-109.0355
 20
117.9892
 30
0.0
 10
-109.8799
 20
117.8898
 30
0.0
 10
-111.4197
 20
118.3865
 30
0.0
 10
-111.4197
 20
118.3865
 30
0.0
 10
-112.4132
 20
118.7342
 30
0.0
 10
-113.5059
 20
119.4296
 30
0.0
 10
-113.7543
 20
119.976
 30
0.0
 10
-113.7543
 20
119.976
 30
0.0
 10
-114.5987
 20
121.5158
 30
0.0
 10
-114.3503
 20
123.8007
 30
0.0
 10
-113.2079
 20
125.0425
 30
0.0
 10
-113.2079
 20
125.0425
 30
0.0
 10
-112.6615
 20
125.6385
 30
0.0
 10
-112.2145
 20
126.1849
 30
0.0
 10
-112.3138
 20
126.1849
 30
0.0
 10
-112.3138
 20
126.1849
 30
0.0
 10
-112.6118
 20
126.2346
 30
0.0
 10
-120.2612
 20
126.2346
 30
0.0
 10
-120.6089
 20
126.1849
 30
0.0
 10
-120.6089
 20
126.1849
 30
0.0
 10
-120.8573
 20
126.1849
 30
0.0
 10
-120.0625
 20
125.2908
 30
0.0
 10
-118.9201
 20
124.2477
 30
0.0
 10
-118.9201
 20
124.2477
 30
0.0
 10
-116.4862
 20
122.0622
 30
0.0
 10
-114.9464
 20
119.3799
 30
0.0
 10
-114.4994
 20
116.3997
 30
0.0
 10
-114.4994
 20
116.3997
 30
0.0
 10
-114.1517
 20
114.4128
 30
0.0
 10
-114.102
 20
114.3135
 30
0.0
 10
-112.2145
 20
114.4128
 30
0.0
 10
-112.2145
 20
114.4128
 30
0.0
 10
-109.9296
 20
114.5122
 30
0.0
 10
-107.7937
 20
113.2704
 30
0.0
 10
-106.6016
 20
111.1345
 30
0.0
 10
-106.6016
 20
111.1345
 30
0.0
 10
-106.0056
 20
110.0914
 30
0.0
 10
-105.5089
 20
109.7437
 30
0.0
 10
-104.9625
 20
109.9424
 30
0.0
 10
-104.9625
 20
109.9424
 30
0.0
 10
-102.926
 20
110.8365
 30
0.0
 10
-100.8894
 20
110.7372
 30
0.0
 10
-99.8463
 20
109.6444
 30
0.0
 10
-99.8463
 20
109.6444
 30
0.0
 10
-98.3562
 20
108.2039
 30
0.0
 10
-98.4555
 20
106.0184
 30
0.0
 10
-100.1444
 20
103.5845
 30
0.0
 10
-100.1444
 20
103.5845
 30
0.0
 10
-103.7704
 20
98.2697
 30
0.0
 10
-104.3664
 20
94.0973
 30
0.0
 10
-102.0319
 20
89.5772
 30
0.0
 10
-102.0319
 20
89.5772
 30
0.0
 10
-101.2868
 20
88.0871
 30
0.0
 10
-100.4921
 20
86.8453
 30
0.0
 10
-100.2934
 20
86.8453
 30
0.0
 10
-100.2934
 20
86.8453
 30
0.0
 10
-100.0947
 20
86.8453
 30
0.0
 10
-100.3927
 20
88.1864
 30
0.0
 10
-100.9391
 20
89.8256
 30
0.0
 10
-100.9391
 20
89.8256
 30
0.0
 10
-102.2306
 20
93.6502
 30
0.0
 10
-102.0319
 20
98.6174
 30
0.0
 10
-100.4921
 20
100.7036
 30
0.0
 10
-100.4921
 20
100.7036
 30
0.0
 10
-98.9523
 20
102.7401
 30
0.0
 10
-96.3197
 20
102.8891
 30
0.0
 10
-94.4818
 20
101.0513
 30
0.0
 10
-94.4818
 20
101.0513
 30
0.0
 10
-92.793
 20
99.3624
 30
0.0
 10
-92.644
 20
97.2266
 30
0.0
 10
-94.1838
 20
95.8358
 30
0.0
 10
-94.1838
 20
95.8358
 30
0.0
 10
-95.9223
 20
94.296
 30
0.0
 10
-96.2203
 20
92.8555
 30
0.0
 10
-95.3759
 20
90.0739
 30
0.0
 10
-95.3759
 20
90.0739
 30
0.0
 10
-93.3394
 20
83.1696
 30
0.0
 10
-88.5213
 20
80.6364
 30
0.0
 10
-83.0575
 20
83.6167
 30
0.0
  0
SPLINE
  5
89
330
1F
100
AcDbEntity
  8
layer 1
 62
     7
370
    13
100
AcDbSpline
210
0.0
220
0.0
230
1.0
 70
    11
 71
     3
 72
    24
 73
    20
 74
     0
 42
0.0000000001
 43
0.0000000001
 12
1.0
 22
0.0
 32
0.0
 13
1.0
 23
0.0
 33
0.0
 40
0.0
 40
0.0
 40
0.0
 40
0.0
 40
0.1666666666666667
 40
0.1666666666666667
 40
0.1666666666666667
 40
0.1666666666666667
 40
0.3333333333333333
 40
0.3333333333333333
 40
0.3333333333333333
 40
0.3333333333333333
 40
0.5
 40
0.5
 40
0.5
 40
0.5
 40
0.6666666666666666
 40
0.6666666666666666
 40
0.6666666666666666
 40
0.6666666666666666
 40
1.0
 40
1.0
 40
1.0
 40
1.0
 10
-78.0407
 20
90.9183
 30
0.0
 10
-74.7185
 20
93.2253
 30
0.0
 10
-73.6954
 20
98.5116
 30
0.0
 10
-73.8186
 20
102.0944
 30
0.0
 10
-73.8186
 20
102.0944
 30
0.0
 10
-74.918
 20
100.2489
 30
0.0
 10
-76.036
 20
97.912
 30
0.0
 10
-77.693
 20
96.5312
 30
0.0
 10
-77.693
 20
96.5312
 30
0.0
 10
-79.4315
 20
95.1901
 30
0.0
 10
-82.2627
 20
94.5443
 30
0.0
 10
-84.1502
 20
95.0907
 30
0.0
 10
-84.1502
 20
95.0907
 30
0.0
 10
-85.7397
 20
95.5378
 30
0.0
 10
-85.839
 20
95.4881
 30
0.0
 10
-85.839
 20
94.147
 30
0.0
 10
-85.839
 20
94.147
 30
0.0
 10
-85.839
 20
90.1733
 30
0.0
 10
-81.617
 20
88.3851
 30
0.0
 10
-78.0407
 20
90.9183
 30
0.0
  0
SPLINE
  5
8A
330
1F
100
AcDbEntity
  8
layer 1
 62
     7
370
    13
100
AcDbSpline
210
0.0
220
0.0
230
1.0
 70
    11
 71
     3
 72
   116
 73
   112
 74
     0
 42
0.0000000001
 43
0.0000000001
 12
1.0
 22
0.0
 32
0.0
 13
1.0
 23
0.0
 33
0.0
 40
0.0
 40
0.0
 40
0.0
 40
0.0
 40
0.0344827586206897
 40
0.0344827586206897
 40
0.0344827586206897
 40
0.0344827586206897
 40
0.0689655172413793
 40
0.0689655172413793
 40
0.0689655172413793
 40
0.0689655172413793
 40
0.103448275862069
 40
0.103448275862069
 40
0.103448275862069
 40
0.103448275862069
 40
0.1379310344827586
 40
0.1379310344827586
 40
0.1379310344827586
 40
0.1379310344827586
 40
0.1724137931034483
 40
0.1724137931034483
 40
0.1724137931034483
 40
0.1724137931034483
 40
0.2068965517241379
 40
0.2068965517241379
 40
0.2068965517241379
 40
0.2068965517241379
 40
0.2413793103448276
 40
0.2413793103448276
 40
0.2413793103448276
 40
0.2413793103448276
 40
0.2758620689655172
 40
0.2758620689655172
 40
0.2758620689655172
 40
0.2758620689655172
 40
0.3103448275862069
 40
0.3103448275862069
 40
0.3103448275862069
 40
0.3103448275862069
 40
0.3448275862068966
 40
0.3448275862068966
 40
0.3448275862068966
 40
0.3448275862068966
 40
0.3793103448275862
 40
0.3793103448275862
 40
0.3793103448275862
 40
0.3793103448275862
 40
0.4137931034482759
 40
0.4137931034482759
 40
0.4137931034482759
 40
0.4137931034482759
 40
0.4482758620689655
 40
0.4482758620689655
 40
0.4482758620689655
 40
0.4482758620689655
 40
0.4827586206896552
 40
0.4827586206896552
 40
0.4827586206896552
 40
0.4827586206896552
 40
0.5172413793103449
 40
0.5172413793103449
 40
0.5172413793103449
 40
0.5172413793103449
 40
0.5517241379310345
 40
0.5517241379310345
 40
0.5517241379310345
 40
0.5517241379310345
 40
0.5862068965517241
 40
0.5862068965517241
 40
0.5862068965517241
 40
0.5862068965517241
 40
0.6206896551724138
 40
0.6206896551724138
 40
0.6206896551724138
 40
0.6206896551724138
 40
0.6551724137931034
 40
0.6551724137931034
 40
0.6551724137931034
 40
0.6551724137931034
 40
0.6896551724137931
 40
0.6896551724137931
 40
0.6896551724137931
 40
0.6896551724137931
 40
0.7241379310344828
 40
0.7241379310344828
 40
0.7241379310344828
 40
0.7241379310344828
 40
0.7586206896551724
 40
0.7586206896551724
 40
0.7586206896551724
 40
0.7586206896551724
 40
0.7931034482758621
 40
0.7931034482758621
 40
0.7931034482758621
 40
0.7931034482758621
 40
0.8275862068965517
 40
0.8275862068965517
 40
0.8275862068965517
 40
0.8275862068965517
 40
0.8620689655172413
 40
0.8620689655172413
 40
0.8620689655172413
 40
0.8620689655172413
 40
0.896551724137931
 40
0.896551724137931
 40
0.896551724137931
 40
0.896551724137931
 40
0.9310344827586207
 40
0.9310344827586207
 40
0.9310344827586207
 40
0.9310344827586207
 40
1.0
 40
1.0
 40
1.0
 40
1.0
 10
-107.0487
 20
93.3522
 30
0.0
 10
-107.3467
 20
94.0973
 30
0.0
 10
-107.5454
 20
97.9716
 30
0.0
 10
-107.5454
 20
102.0447
 30
0.0
 10
-107.5454
 20
102.0447
 30
0.0
 10
-107.5454
 20
108.8
 30
0.0
 10
-107.6447
 20
109.4954
 30
0.0
 10
-108.6381
 20
110.5881
 30
0.0
 10
-108.6381
 20
110.5881
 30
0.0
 10
-109.9296
 20
111.9789
 30
0.0
 10
-110.327
 20
111.7802
 30
0.0
 10
-109.6812
 20
110.0418
 30
0.0
 10
-109.6812
 20
110.0418
 30
0.0
 10
-108.2376
 20
105.9515
 30
0.0
 10
-113.4516
 20
102.7139
 30
0.0
 10
-115.7908
 20
108.1542
 30
0.0
 10
-115.7908
 20
108.1542
 30
0.0
 10
-115.7908
 20
108.1542
 30
0.0
 10
-117.1816
 20
107.0615
 30
0.0
 10
-117.1816
 20
107.0615
 30
0.0
 10
-117.1816
 20
107.0615
 30
0.0
 10
-123.5254
 20
102.9566
 30
0.0
 10
-126.1608
 20
112.8726
 30
0.0
 10
-121.0063
 20
113.2207
 30
0.0
 10
-121.0063
 20
113.2207
 30
0.0
 10
-120.0625
 20
113.2207
 30
0.0
 10
-119.1684
 20
112.7737
 30
0.0
 10
-118.5227
 20
111.9789
 30
0.0
 10
-118.5227
 20
111.9789
 30
0.0
 10
-117.2313
 20
110.2901
 30
0.0
 10
-116.8836
 20
110.7372
 30
0.0
 10
-116.8836
 20
113.8664
 30
0.0
 10
-116.8836
 20
113.8664
 30
0.0
 10
-116.8836
 20
117.255
 30
0.0
 10
-119.2709
 20
120.2424
 30
0.0
 10
-122.8441
 20
119.827
 30
0.0
 10
-122.8441
 20
119.827
 30
0.0
 10
-124.2846
 20
119.678
 30
0.0
 10
-125.8244
 20
119.0323
 30
0.0
 10
-127.0165
 20
118.0885
 30
0.0
 10
-127.0165
 20
118.0885
 30
0.0
 10
-130.2948
 20
115.4559
 30
0.0
 10
-130.2451
 20
115.5056
 30
0.0
 10
-131.7353
 20
116.35
 30
0.0
 10
-131.7353
 20
116.35
 30
0.0
 10
-134.7155
 20
118.0388
 30
0.0
 10
-136.305
 20
122.1119
 30
0.0
 10
-134.9639
 20
124.6451
 30
0.0
 10
-134.9639
 20
124.6451
 30
0.0
 10
-134.2188
 20
126.0359
 30
0.0
 10
-134.6659
 20
125.8869
 30
0.0
 10
-137.2985
 20
124.0987
 30
0.0
 10
-137.2985
 20
124.0987
 30
0.0
 10
-140.6264
 20
121.8138
 30
0.0
 10
-144.3021
 20
117.3931
 30
0.0
 10
-146.7857
 20
112.724
 30
0.0
 10
-146.7857
 20
112.724
 30
0.0
 10
-148.9712
 20
108.7006
 30
0.0
 10
-149.0705
 20
107.4588
 30
0.0
 10
-147.0837
 20
109.6444
 30
0.0
 10
-147.0837
 20
109.6444
 30
0.0
 10
-142.8873
 20
114.3072
 30
0.0
 10
-135.1029
 20
114.5616
 30
0.0
 10
-129.8478
 20
110.7868
 30
0.0
 10
-129.8478
 20
110.7868
 30
0.0
 10
-127.1655
 20
108.5516
 30
0.0
 10
-126.1721
 20
106.6641
 30
0.0
 10
-126.1721
 20
103.8825
 30
0.0
 10
-126.1721
 20
103.8825
 30
0.0
 10
-126.1721
 20
101.0661
 30
0.0
 10
-127.6879
 20
99.0319
 30
0.0
 10
-130.0961
 20
97.9716
 30
0.0
 10
-130.0961
 20
97.9716
 30
0.0
 10
-130.0961
 20
97.9716
 30
0.0
 10
-128.457
 20
97.1272
 30
0.0
 10
-128.457
 20
97.1272
 30
0.0
 10
-128.457
 20
97.1272
 30
0.0
 10
-128.457
 20
97.1272
 30
0.0
 10
-126.7681
 20
96.3325
 30
0.0
 10
-126.7681
 20
96.3325
 30
0.0
 10
-126.7681
 20
96.3325
 30
0.0
 10
-126.7681
 20
96.3325
 30
0.0
 10
-126.1721
 20
98.5677
 30
0.0
 10
-126.1721
 20
98.5677
 30
0.0
 10
-126.1721
 20
98.5677
 30
0.0
 10
-125.8244
 20
99.7598
 30
0.0
 10
-125.129
 20
101.1506
 30
0.0
 10
-124.5826
 20
101.6473
 30
0.0
 10
-124.5826
 20
101.6473
 30
0.0
 10
-123.3408
 20
102.7401
 30
0.0
 10
-121.2546
 20
102.7401
 30
0.0
 10
-120.0129
 20
101.6473
 30
0.0
 10
-120.0129
 20
101.6473
 30
0.0
 10
-119.3175
 20
101.0016
 30
0.0
 10
-118.7711
 20
100.9022
 30
0.0
 10
-117.8273
 20
101.2499
 30
0.0
 10
-117.8273
 20
101.2499
 30
0.0
 10
-114.9464
 20
102.3427
 30
0.0
 10
-112.4132
 20
99.6108
 30
0.0
 10
-112.9099
 20
95.9351
 30
0.0
 10
-112.9099
 20
95.9351
 30
0.0
 10
-112.9099
 20
95.9351
 30
0.0
 10
-113.2079
 20
93.6999
 30
0.0
 10
-113.2079
 20
93.6999
 30
0.0
 10
-113.2079
 20
93.6999
 30
0.0
 10
-111.0192
 20
94.7109
 30
0.0
 10
-109.2768
 20
94.4595
 30
0.0
 10
-108.2408
 20
92.9052
 30
0.0
 10
-108.2408
 20
92.9052
 30
0.0
 10
-106.9493
 20
91.6137
 30
0.0
 10
-106.4526
 20
91.8124
 30
0.0
 10
-107.0487
 20
93.3522
 30
0.0
  0
SPLINE
  5
8B
330
1F
100
AcDbEntity
  8
layer 1
 62
     7
370
    13
100
AcDbSpline
210
0.0
220
0.0
230
1.0
 70
    11
 71
     3
 72
    60
 73
    56
 74
     0
 42
0.0000000001
 43
0.0000000001
 12
1.0
 22
0.0
 32
0.0
 13
1.0
 23
0.0
 33
0.0
 40
0.0
 40
0.0
 40
0.0
 40
0.0
 40
0.0666666666666667
 40
0.0666666666666667
 40
0.0666666666666667
 40
0.0666666666666667
 40
0.1333333333333333
 40
0.1333333333333333
 40
0.1333333333333333
 40
0.1333333333333333
 40
0.2
 40
0.2
 40
0.2
 40
0.2
 40
0.2666666666666667
 40
0.2666666666666667
 40
0.2666666666666667
 40
0.2666666666666667
 40
0.3333333333333333
 40
0.3333333333333333
 40
0.3333333333333333
 40
0.3333333333333333
 40
0.4
 40
0.4
 40
0.4
 40
0.4
 40
0.4666666666666667
 40
0.4666666666666667
 40
0.4666666666666667
 40
0.4666666666666667
 40
0.5333333333333333
 40
0.5333333333333333
 40
0.5333333333333333
 40
0.5333333333333333
 40
0.6
 40
0.6
 40
0.6
 40
0.6
 40
0.6666666666666666
 40
0.6666666666666666
 40
0.6666666666666666
 40
0.6666666666666666
 40
0.7333333333333333
 40
0.7333333333333333
 40
0.7333333333333333
 40
0.7333333333333333
 40
0.8
 40
0.8
 40
0.8
 40
0.8
 40
0.8666666666666667
 40
0.8666666666666667
 40
0.8666666666666667
 40
0.8666666666666667
 40
1.0
 40
1.0
 40
1.0
 40
1.0
 10
-78.1897
 20
100.2565
 30
0.0
 10
-75.8551
 20
102.4917
 30
0.0
 10
-74.7127
 20
105.472
 30
0.0
 10
-74.7127
 20
109.4457
 30
0.0
 10
-74.7127
 20
109.4457
 30
0.0
 10
-74.7127
 20
111.4822
 30
0.0
 10
-74.961
 20
113.4194
 30
0.0
 10
-75.2591
 20
113.7174
 30
0.0
 10
-75.2591
 20
113.7174
 30
0.0
 10
-75.6068
 20
114.0651
 30
0.0
 10
-75.7558
 20
113.4194
 30
0.0
 10
-75.7558
 20
111.5319
 30
0.0
 10
-75.7558
 20
111.5319
 30
0.0
 10
-75.7558
 20
108.0549
 30
0.0
 10
-76.7989
 20
105.472
 30
0.0
 10
-78.1897
 20
105.472
 30
0.0
 10
-78.1897
 20
105.472
 30
0.0
 10
-79.0341
 20
105.472
 30
0.0
 10
-79.1334
 20
105.7204
 30
0.0
 10
-78.8354
 20
106.6144
 30
0.0
 10
-78.8354
 20
106.6144
 30
0.0
 10
-77.9413
 20
109.6444
 30
0.0
 10
-77.9413
 20
110.2901
 30
0.0
 10
-78.8851
 20
110.9855
 30
0.0
 10
-78.8851
 20
110.9855
 30
0.0
 10
-79.3818
 20
111.3829
 30
0.0
 10
-80.4249
 20
111.6809
 30
0.0
 10
-81.2196
 20
111.6809
 30
0.0
 10
-81.2196
 20
111.6809
 30
0.0
 10
-81.9647
 20
111.6809
 30
0.0
 10
-83.2561
 20
112.1776
 30
0.0
 10
-84.0509
 20
112.8233
 30
0.0
 10
-84.0509
 20
112.8233
 30
0.0
 10
-84.0509
 20
112.8233
 30
0.0
 10
-85.4913
 20
113.9658
 30
0.0
 10
-85.4913
 20
113.9658
 30
0.0
 10
-85.4913
 20
113.9658
 30
0.0
 10
-85.4913
 20
113.9658
 30
0.0
 10
-85.1436
 20
112.6743
 30
0.0
 10
-85.1436
 20
112.6743
 30
0.0
 10
-85.1436
 20
112.6743
 30
0.0
 10
-84.945
 20
111.9789
 30
0.0
 10
-84.6469
 20
110.5881
 30
0.0
 10
-84.4482
 20
109.4954
 30
0.0
 10
-84.4482
 20
109.4954
 30
0.0
 10
-84.1999
 20
108.0549
 30
0.0
 10
-83.8025
 20
107.4588
 30
0.0
 10
-82.6601
 20
107.0118
 30
0.0
 10
-82.6601
 20
107.0118
 30
0.0
 10
-79.8288
 20
105.8197
 30
0.0
 10
-78.6367
 20
102.293
 30
0.0
 10
-80.3752
 20
100.0082
 30
0.0
 10
-80.3752
 20
100.0082
 30
0.0
 10
-82.0144
 20
97.8226
 30
0.0
 10
-80.5739
 20
98.0213
 30
0.0
 10
-78.1897
 20
100.2565
 30
0.0
  0
SPLINE
  5
8C
330
1F
100
AcDbEntity
  8
layer 1
 62
     7
370
    13
100
AcDbSpline
210
0.0
220
0.0
230
1.0
 70
    11
 71
     3
 72
    28
 73
    24
 74
     0
 42
0.0000000001
 43
0.0000000001
 12
1.0
 22
0.0
 32
0.0
 13
1.0
 23
0.0
 33
0.0
 40
0.0
 40
0.0
 40
0.0
 40
0.0
 40
0.1428571428571428
 40
0.1428571428571428
 40
0.1428571428571428
 40
0.1428571428571428
 40
0.2857142857142857
 40
0.2857142857142857
 40
0.2857142857142857
 40
0.2857142857142857
 40
0.4285714285714285
 40
0.4285714285714285
 40
0.4285714285714285
 40
0.4285714285714285
 40
0.5714285714285714
 40
0.5714285714285714
 40
0.5714285714285714
 40
0.5714285714285714
 40
0.7142857142857143
 40
0.7142857142857143
 40
0.7142857142857143
 40
0.7142857142857143
 40
1.0
 40
1.0
 40
1.0
 40
1.0
 10
-87.6769
 20
106.2171
 30
0.0
 10
-87.6769
 20
106.2171
 30
0.0
 10
-85.7894
 20
108.0052
 30
0.0
 10
-85.7894
 20
108.0052
 30
0.0
 10
-85.7894
 20
108.0052
 30
0.0
 10
-85.7894
 20
108.0052
 30
0.0
 10
-87.3292
 20
111.3829
 30
0.0
 10
-87.3292
 20
111.3829
 30
0.0
 10
-87.3292
 20
111.3829
 30
0.0
 10
-88.1736
 20
113.2704
 30
0.0
 10
-89.2167
 20
114.7605
 30
0.0
 10
-89.6141
 20
114.7605
 30
0.0
 10
-89.6141
 20
114.7605
 30
0.0
 10
-90.9552
 20
114.7605
 30
0.0
 10
-93.0414
 20
112.6743
 30
0.0
 10
-93.5381
 20
110.7868
 30
0.0
 10
-93.5381
 20
110.7868
 30
0.0
 10
-94.3825
 20
107.8065
 30
0.0
 10
-92.5943
 20
104.7269
 30
0.0
 10
-89.9121
 20
104.4786
 30
0.0
 10
-89.9121
 20
104.4786
 30
0.0
 10
-89.7134
 20
104.4289
 30
0.0
 10
-88.72
 20
105.2236
 30
0.0
 10
-87.6769
 20
106.2171
 30
0.0
  0
SPLINE
  5
8D
330
1F
100
AcDbEntity
  8
layer 1
 62
     7
370
    13
100
AcDbSpline
210
0.0
220
0.0
230
1.0
 70
    11
 71
     3
 72
    28
 73
    24
 74
     0
 42
0.0000000001
 43
0.0000000001
 12
1.0
 22
0.0
 32
0.0
 13
1.0
 23
0.0
 33
0.0
 40
0.0
 40
0.0
 40
0.0
 40
0.0
 40
0.1428571428571428
 40
0.1428571428571428
 40
0.1428571428571428
 40
0.1428571428571428
 40
0.2857142857142857
 40
0.2857142857142857
 40
0.2857142857142857
 40
0.2857142857142857
 40
0.4285714285714285
 40
0.4285714285714285
 40
0.4285714285714285
 40
0.4285714285714285
 40
0.5714285714285714
 40
0.5714285714285714
 40
0.5714285714285714
 40
0.5714285714285714
 40
0.7142857142857143
 40
0.7142857142857143
 40
0.7142857142857143
 40
0.7142857142857143
 40
1.0
 40
1.0
 40
1.0
 40
1.0
 10
-68.7521
 20
112.426
 30
0.0
 10
-68.7521
 20
116.2507
 30
0.0
 10
-68.7521
 20
116.3003
 30
0.0
 10
-70.1926
 20
116.648
 30
0.0
 10
-70.1926
 20
116.648
 30
0.0
 10
-70.9377
 20
116.8467
 30
0.0
 10
-72.4775
 20
117.6415
 30
0.0
 10
-73.5206
 20
118.4859
 30
0.0
 10
-73.5206
 20
118.4859
 30
0.0
 10
-74.5637
 20
119.2806
 30
0.0
 10
-75.5571
 20
119.976
 30
0.0
 10
-75.7061
 20
119.976
 30
0.0
 10
-75.7061
 20
119.976
 30
0.0
 10
-76.1035
 20
119.976
 30
0.0
 10
-74.1663
 20
115.2076
 30
0.0
 10
-73.0735
 20
113.4194
 30
0.0
 10
-73.0735
 20
113.4194
 30
0.0
 10
-71.4841
 20
110.8862
 30
0.0
 10
-69.5965
 20
108.5516
 30
0.0
 10
-69.1495
 20
108.5516
 30
0.0
 10
-69.1495
 20
108.5516
 30
0.0
 10
-68.9508
 20
108.5516
 30
0.0
 10
-68.7521
 20
110.3398
 30
0.0
 10
-68.7521
 20
112.426
 30
0.0
  0
SPLINE
  5
8E
330
1F
100
AcDbEntity
  8
layer 1
 62
     7
370
    13
100
AcDbSpline
210
0.0
220
0.0
230
1.0
 70
    11
 71
     3
 72
    32
 73
    28
 74
     0
 42
0.0000000001
 43
0.0000000001
 12
1.0
 22
0.0
 32
0.0
 13
1.0
 23
0.0
 33
0.0
 40
0.0
 40
0.0
 40
0.0
 40
0.0
 40
0.125
 40
0.125
 40
0.125
 40
0.125
 40
0.25
 40
0.25
 40
0.25
 40
0.25
 40
0.375
 40
0.375
 40
0.375
 40
0.375
 40
0.5
 40
0.5
 40
0.5
 40
0.5
 40
0.625
 40
0.625
 40
0.625
 40
0.625
 40
0.75
 40
0.75
 40
0.75
 40
0.75
 40
1.0
 40
1.0
 40
1.0
 40
1.0
 10
-178.3766
 20
114.1148
 30
0.0
 10
-175.2473
 20
116.2507
 30
0.0
 10
-172.0187
 20
117.3931
 30
0.0
 10
-168.8397
 20
117.3931
 30
0.0
 10
-168.8397
 20
117.3931
 30
0.0
 10
-167.5979
 20
117.3931
 30
0.0
 10
-166.4555
 20
117.5918
 30
0.0
 10
-166.3065
 20
117.8401
 30
0.0
 10
-166.3065
 20
117.8401
 30
0.0
 10
-165.9588
 20
118.3865
 30
0.0
 10
-168.9887
 20
119.4296
 30
0.0
 10
-175.297
 20
120.9694
 30
0.0
 10
-175.297
 20
120.9694
 30
0.0
 10
-177.7308
 20
121.5655
 30
0.0
 10
-180.2144
 20
122.4099
 30
0.0
 10
-180.8601
 20
122.8073
 30
0.0
 10
-180.8601
 20
122.8073
 30
0.0
 10
-181.5059
 20
123.2543
 30
0.0
 10
-182.4496
 20
123.751
 30
0.0
 10
-182.5986
 20
123.751
 30
0.0
 10
-182.5986
 20
123.751
 30
0.0
 10
-182.7476
 20
123.751
 30
0.0
 10
-182.5986
 20
121.0191
 30
0.0
 10
-182.5986
 20
117.8898
 30
0.0
 10
-182.5986
 20
117.8898
 30
0.0
 10
-182.5986
 20
111.2835
 30
0.0
 10
-182.549
 20
111.2339
 30
0.0
 10
-178.3766
 20
114.1148
 30
0.0
  0
SPLINE
  5
8F
330
1F
100
AcDbEntity
  8
layer 1
 62
     7
370
    13
100
AcDbSpline
210
0.0
220
0.0
230
1.0
 70
    11
 71
     3
 72
    40
 73
    36
 74
     0
 42
0.0000000001
 43
0.0000000001
 12
1.0
 22
0.0
 32
0.0
 13
1.0
 23
0.0
 33
0.0
 40
0.0
 40
0.0
 40
0.0
 40
0.0
 40
0.1
 40
0.1
 40
0.1
 40
0.1
 40
0.2
 40
0.2
 40
0.2
 40
0.2
 40
0.3
 40
0.3
 40
0.3
 40
0.3
 40
0.4
 40
0.4
 40
0.4
 40
0.4
 40
0.5
 40
0.5
 40
0.5
 40
0.5
 40
0.6
 40
0.6
 40
0.6
 40
0.6
 40
0.7
 40
0.7
 40
0.7
 40
0.7
 40
0.8
 40
0.8
 40
0.8
 40
0.8
 40
1.0
 40
1.0
 40
1.0
 40
1.0
 10
-144.6498
 20
121.3668
 30
0.0
 10
-143.8551
 20
122.2609
 30
0.0
 10
-142.1662
 20
123.6517
 30
0.0
 10
-140.9245
 20
124.4464
 30
0.0
 10
-140.9245
 20
124.4464
 30
0.0
 10
-139.633
 20
125.2412
 30
0.0
 10
-138.5899
 20
126.0359
 30
0.0
 10
-138.5899
 20
126.1849
 30
0.0
 10
-138.5899
 20
126.1849
 30
0.0
 10
-138.5899
 20
126.3836
 30
0.0
 10
-172.3664
 20
126.3339
 30
0.0
 10
-177.1348
 20
126.1352
 30
0.0
 10
-177.1348
 20
126.1352
 30
0.0
 10
-178.8733
 20
126.0359
 30
0.0
 10
-175.1479
 20
124.6451
 30
0.0
 10
-170.7769
 20
123.751
 30
0.0
 10
-170.7769
 20
123.751
 30
0.0
 10
-166.1078
 20
122.8073
 30
0.0
 10
-162.7301
 20
121.2178
 30
0.0
 10
-160.6439
 20
118.9826
 30
0.0
 10
-160.6439
 20
118.9826
 30
0.0
 10
-158.9551
 20
117.2441
 30
0.0
 10
-158.2597
 20
116.9461
 30
0.0
 10
-158.2597
 20
118.0885
 30
0.0
 10
-158.2597
 20
118.0885
 30
0.0
 10
-158.1367
 20
123.674
 30
0.0
 10
-150.9168
 20
122.416
 30
0.0
 10
-148.9712
 20
117.6911
 30
0.0
 10
-148.9712
 20
117.6911
 30
0.0
 10
-148.5508
 20
116.5025
 30
0.0
 10
-148.2261
 20
116.7474
 30
0.0
 10
-147.183
 20
118.1878
 30
0.0
 10
-147.183
 20
118.1878
 30
0.0
 10
-146.587
 20
119.0323
 30
0.0
 10
-145.4445
 20
120.423
 30
0.0
 10
-144.6498
 20
121.3668
 30
0.0
  0
SPLINE
  5
90
330
1F
100
AcDbEntity
  8
layer 1
 62
     7
370
    13
100
AcDbSpline
210
0.0
220
0.0
230
1.0
 70
    11
 71
     3
 72
    52
 73
    48
 74
     0
 42
0.0000000001
 43
0.0000000001
 12
1.0
 22
0.0
 32
0.0
 13
1.0
 23
0.0
 33
0.0
 40
0.0
 40
0.0
 40
0.0
 40
0.0
 40
0.0769230769230769
 40
0.0769230769230769
 40
0.0769230769230769
 40
0.0769230769230769
 40
0.1538461538461539
 40
0.1538461538461539
 40
0.1538461538461539
 40
0.1538461538461539
 40
0.2307692307692308
 40
0.2307692307692308
 40
0.2307692307692308
 40
0.2307692307692308
 40
0.3076923076923077
 40
0.3076923076923077
 40
0.3076923076923077
 40
0.3076923076923077
 40
0.3846153846153846
 40
0.3846153846153846
 40
0.3846153846153846
 40
0.3846153846153846
 40
0.4615384615384616
 40
0.4615384615384616
 40
0.4615384615384616
 40
0.4615384615384616
 40
0.5384615384615384
 40
0.5384615384615384
 40
0.5384615384615384
 40
0.5384615384615384
 40
0.6153846153846154
 40
0.6153846153846154
 40
0.6153846153846154
 40
0.6153846153846154
 40
0.6923076923076923
 40
0.6923076923076923
 40
0.6923076923076923
 40
0.6923076923076923
 40
0.7692307692307693
 40
0.7692307692307693
 40
0.7692307692307693
 40
0.7692307692307693
 40
0.8461538461538461
 40
0.8461538461538461
 40
0.8461538461538461
 40
0.8461538461538461
 40
1.0
 40
1.0
 40
1.0
 40
1.0
 10
-85.4913
 20
120.5224
 30
0.0
 10
-84.5476
 20
121.5655
 30
0.0
 10
-80.9713
 20
121.9132
 30
0.0
 10
-80.3752
 20
120.9694
 30
0.0
 10
-80.3752
 20
120.9694
 30
0.0
 10
-80.2262
 20
120.7211
 30
0.0
 10
-79.8288
 20
120.4727
 30
0.0
 10
-79.5805
 20
120.4727
 30
0.0
 10
-79.5805
 20
120.4727
 30
0.0
 10
-79.2824
 20
120.4727
 30
0.0
 10
-79.5805
 20
121.3668
 30
0.0
 10
-80.2262
 20
122.5092
 30
0.0
 10
-80.2262
 20
122.5092
 30
0.0
 10
-81.766
 20
125.1915
 30
0.0
 10
-81.0706
 20
125.7379
 30
0.0
 10
-78.8354
 20
123.5523
 30
0.0
 10
-78.8354
 20
123.5523
 30
0.0
 10
-78.8354
 20
123.5523
 30
0.0
 10
-77.0472
 20
121.8138
 30
0.0
 10
-77.0472
 20
121.8138
 30
0.0
 10
-77.0472
 20
121.8138
 30
0.0
 10
-77.0472
 20
121.8138
 30
0.0
 10
-77.0472
 20
126.1352
 30
0.0
 10
-77.0472
 20
126.1352
 30
0.0
 10
-77.0472
 20
126.1352
 30
0.0
 10
-77.0472
 20
126.1352
 30
0.0
 10
-97.3628
 20
126.2346
 30
0.0
 10
-97.3628
 20
126.2346
 30
0.0
 10
-97.3628
 20
126.2346
 30
0.0
 10
-97.6111
 20
126.1352
 30
0.0
 10
-96.419
 20
125.2908
 30
0.0
 10
-94.7799
 20
124.2974
 30
0.0
 10
-94.7799
 20
124.2974
 30
0.0
 10
-91.2035
 20
122.1119
 30
0.0
 10
-89.1173
 20
120.274
 30
0.0
 10
-88.0246
 20
118.1382
 30
0.0
 10
-88.0246
 20
118.1382
 30
0.0
 10
-88.0246
 20
118.1382
 30
0.0
 10
-87.1802
 20
116.5984
 30
0.0
 10
-87.1802
 20
116.5984
 30
0.0
 10
-87.1802
 20
116.5984
 30
0.0
 10
-87.1802
 20
116.5984
 30
0.0
 10
-86.7828
 20
118.0885
 30
0.0
 10
-86.7828
 20
118.0885
 30
0.0
 10
-86.7828
 20
118.0885
 30
0.0
 10
-86.5841
 20
118.8832
 30
0.0
 10
-85.9881
 20
119.976
 30
0.0
 10
-85.4913
 20
120.5224
 30
0.0
  0
SPLINE
  5
91
330
1F
100
AcDbEntity
  8
layer 1
 62
     7
370
    13
100
AcDbSpline
210
0.0
220
0.0
230
1.0
 70
    11
 71
     3
 72
    20
 73
    16
 74
     0
 42
0.0000000001
 43
0.0000000001
 12
1.0
 22
0.0
 32
0.0
 13
1.0
 23
0.0
 33
0.0
 40
0.0
 40
0.0
 40
0.0
 40
0.0
 40
0.2
 40
0.2
 40
0.2
 40
0.2
 40
0.4
 40
0.4
 40
0.4
 40
0.4
 40
0.6
 40
0.6
 40
0.6
 40
0.6
 40
1.0
 40
1.0
 40
1.0
 40
1.0
 10
-165.025
 20
-81.5799
 30
0.0
 10
-164.1806
 20
-81.5799
 30
0.0
 10
-163.4852
 20
-82.2753
 30
0.0
 10
-163.4852
 20
-83.1198
 30
0.0
 10
-163.4852
 20
-83.1198
 30
0.0
 10
-163.4852
 20
-83.9145
 30
0.0
 10
-164.1806
 20
-84.6099
 30
0.0
 10
-165.025
 20
-84.6099
 30
0.0
 10
-165.025
 20
-84.6099
 30
0.0
 10
-165.8197
 20
-84.6099
 30
0.0
 10
-166.5151
 20
-83.9145
 30
0.0
 10
-166.5151
 20
-83.1198
 30
0.0
 10
-166.5151
 20
-83.1198
 30
0.0
 10
-166.5151
 20
-82.2753
 30
0.0
 10
-165.8197
 20
-81.5799
 30
0.0
 10
-165.025
 20
-81.5799
 30
0.0
  0
SPLINE
  5
92
330
1F
100
AcDbEntity
  8
layer 1
 62
     7
370
    13
100
AcDbSpline
210
0.0
220
0.0
230
1.0
 70
    11
 71
     3
 72
    20
 73
    16
 74
     0
 42
0.0000000001
 43
0.0000000001
 12
1.0
 22
0.0
 32
0.0
 13
1.0
 23
0.0
 33
0.0
 40
0.0
 40
0.0
 40
0.0
 40
0.0
 40
0.2
 40
0.2
 40
0.2
 40
0.2
 40
0.4
 40
0.4
 40
0.4
 40
0.4
 40
0.6
 40
0.6
 40
0.6
 40
0.6
 40
1.0
 40
1.0
 40
1.0
 40
1.0
 10
-85.1026
 20
-30.9675
 30
0.0
 10
-84.2582
 20
-30.9675
 30
0.0
 10
-83.5628
 20
-31.6629
 30
0.0
 10
-83.5628
 20
-32.5073
 30
0.0
 10
-83.5628
 20
-32.5073
 30
0.0
 10
-83.5628
 20
-33.302
 30
0.0
 10
-84.2582
 20
-33.9974
 30
0.0
 10
-85.1026
 20
-33.9974
 30
0.0
 10
-85.1026
 20
-33.9974
 30
0.0
 10
-85.8973
 20
-33.9974
 30
0.0
 10
-86.5927
 20
-33.302
 30
0.0
 10
-86.5927
 20
-32.5073
 30
0.0
 10
-86.5927
 20
-32.5073
 30
0.0
 10
-86.5927
 20
-31.6629
 30
0.0
 10
-85.8973
 20
-30.9675
 30
0.0
 10
-85.1026
 20
-30.9675
 30
0.0
  0
SPLINE
  5
93
330
1F
100
AcDbEntity
  8
layer 1
 62
     7
370
    13
100
AcDbSpline
210
0.0
220
0.0
230
1.0
 70
    11
 71
     3
 72
    20
 73
    16
 74
     0
 42
0.0000000001
 43
0.0000000001
 12
1.0
 22
0.0
 32
0.0
 13
1.0
 23
0.0
 33
0.0
 40
0.0
 40
0.0
 40
0.0
 40
0.0
 40
0.2
 40
0.2
 40
0.2
 40
0.2
 40
0.4
 40
0.4
 40
0.4
 40
0.4
 40
0.6
 40
0.6
 40
0.6
 40
0.6
 40
1.0
 40
1.0
 40
1.0
 40
1.0
 10
-90.9065
 20
12.5416
 30
0.0
 10
-89.9712
 20
12.5416
 30
0.0
 10
-89.2008
 20
11.7713
 30
0.0
 10
-89.2008
 20
10.8359
 30
0.0
 10
-89.2008
 20
10.8359
 30
0.0
 10
-89.2008
 20
9.9556
 30
0.0
 10
-89.9712
 20
9.1853
 30
0.0
 10
-90.9065
 20
9.1853
 30
0.0
 10
-90.9065
 20
9.1853
 30
0.0
 10
-91.7869
 20
9.1853
 30
0.0
 10
-92.5572
 20
9.9556
 30
0.0
 10
-92.5572
 20
10.8359
 30
0.0
 10
-92.5572
 20
10.8359
 30
0.0
 10
-92.5572
 20
11.7713
 30
0.0
 10
-91.7869
 20
12.5416
 30
0.0
 10
-90.9065
 20
12.5416
 30
0.0
  0
SPLINE
  5
94
330
1F
100
AcDbEntity
  8
layer 1
 62
     7
370
    13
100
AcDbSpline
210
0.0
220
0.0
230
1.0
 70
    11
 71
     3
 72
    20
 73
    16
 74
     0
 42
0.0000000001
 43
0.0000000001
 12
1.0
 22
0.0
 32
0.0
 13
1.0
 23
0.0
 33
0.0
 40
0.0
 40
0.0
 40
0.0
 40
0.0
 40
0.2
 40
0.2
 40
0.2
 40
0.2
 40
0.4
 40
0.4
 40
0.4
 40
0.4
 40
0.6
 40
0.6
 40
0.6
 40
0.6
 40
1.0
 40
1.0
 40
1.0
 40
1.0
 10
-163.3802
 20
21.2513
 30
0.0
 10
-162.4448
 20
21.2513
 30
0.0
 10
-161.6745
 20
20.481
 30
0.0
 10
-161.6745
 20
19.5456
 30
0.0
 10
-161.6745
 20
19.5456
 30
0.0
 10
-161.6745
 20
18.6652
 30
0.0
 10
-162.4448
 20
17.8949
 30
0.0
 10
-163.3802
 20
17.8949
 30
0.0
 10
-163.3802
 20
17.8949
 30
0.0
 10
-164.2605
 20
17.8949
 30
0.0
 10
-165.0309
 20
18.6652
 30
0.0
 10
-165.0309
 20
19.5456
 30
0.0
 10
-165.0309
 20
19.5456
 30
0.0
 10
-165.0309
 20
20.481
 30
0.0
 10
-164.2605
 20
21.2513
 30
0.0
 10
-163.3802
 20
21.2513
 30
0.0
  0
SPLINE
  5
95
330
1F
100
AcDbEntity
  8
layer 1
 62
     7
370
    13
100
AcDbSpline
210
0.0
220
0.0
230
1.0
 70
    11
 71
     3
 72
    16
 73
    12
 74
     0
 42
0.0000000001
 43
0.0000000001
 12
1.0
 22
0.0
 32
0.0
 13
1.0
 23
0.0
 33
0.0
 40
0.0
 40
0.0
 40
0.0
 40
0.0
 40
0.25
 40
0.25
 40
0.25
 40
0.25
 40
0.5
 40
0.5
 40
0.5
 40
0.5
 40
1.0
 40
1.0
 40
1.0
 40
1.0
 10
-159.9313
 20
-94.1458
 30
0.0
 10
-163.1103
 20
-91.3145
 30
0.0
 10
-164.7494
 20
-86.3971
 30
0.0
 10
-162.5142
 20
-86.3971
 30
0.0
 10
-162.5142
 20
-86.3971
 30
0.0
 10
-159.683
 20
-86.3971
 30
0.0
 10
-154.7655
 20
-93.6491
 30
0.0
 10
-156.4543
 20
-95.3379
 30
0.0
 10
-156.4543
 20
-95.3379
 30
0.0
 10
-157.1497
 20
-96.0333
 30
0.0
 10
-158.1432
 20
-95.6856
 30
0.0
 10
-159.9313
 20
-94.1458
 30
0.0
  0
SPLINE
  5
96
330
1F
100
AcDbEntity
  8
layer 1
 62
     7
370
    13
100
AcDbSpline
210
0.0
220
0.0
230
1.0
 70
    11
 71
     3
 72
    24
 73
    20
 74
     0
 42
0.0000000001
 43
0.0000000001
 12
1.0
 22
0.0
 32
0.0
 13
1.0
 23
0.0
 33
0.0
 40
0.0
 40
0.0
 40
0.0
 40
0.0
 40
0.1666666666666667
 40
0.1666666666666667
 40
0.1666666666666667
 40
0.1666666666666667
 40
0.3333333333333333
 40
0.3333333333333333
 40
0.3333333333333333
 40
0.3333333333333333
 40
0.5
 40
0.5
 40
0.5
 40
0.5
 40
0.6666666666666666
 40
0.6666666666666666
 40
0.6666666666666666
 40
0.6666666666666666
 40
1.0
 40
1.0
 40
1.0
 40
1.0
 10
-157.0407
 20
14.1002
 30
0.0
 10
-158.3732
 20
16.0171
 30
0.0
 10
-159.2859
 20
16.895
 30
0.0
 10
-160.0872
 20
17.0034
 30
0.0
 10
-160.0872
 20
17.0034
 30
0.0
 10
-161.1243
 20
17.1899
 30
0.0
 10
-161.2466
 20
17.1048
 30
0.0
 10
-161.3108
 20
16.1528
 30
0.0
 10
-161.3108
 20
16.1528
 30
0.0
 10
-161.455
 20
14.3588
 30
0.0
 10
-158.868
 20
10.2892
 30
0.0
 10
-157.1042
 20
9.5795
 30
0.0
 10
-157.1042
 20
9.5795
 30
0.0
 10
-155.6737
 20
9.0011
 30
0.0
 10
-155.5922
 20
9.0578
 30
0.0
 10
-155.3932
 20
10.164
 30
0.0
 10
-155.3932
 20
10.164
 30
0.0
 10
-155.2033
 20
11.022
 30
0.0
 10
-155.6514
 20
12.1018
 30
0.0
 10
-157.0407
 20
14.1002
 30
0.0
  0
ENDSEC
  0
SECTION
  2
OBJECTS
  0
DICTIONARY
  5
C
330
0
100
AcDbDictionary
281
     1
  3
ACAD_GROUP
350
D
  3
ACAD_LAYOUT
350
1A
  3
ACAD_MATERIAL
350
3B
  3
ACAD_MLEADERSTYLE
350
B8
  3
ACAD_MLINESTYLE
350
17
  3
ACAD_PLOTSETTINGS
350
19
  3
ACAD_PLOTSTYLENAME
350
E
  3
ACAD_TABLESTYLE
350
B7
  3
ACAD_VISUALSTYLE
350
2A
  0
DICTIONARY
  5
D
102
{ACAD_REACTORS
330
C
102
}
330
C
100
AcDbDictionary
281
     1
  0
DICTIONARY
  5
1A
102
{ACAD_REACTORS
330
C
102
}
330
C
100
AcDbDictionary
281
     1
  3
Layout1
350
1E
  3
Layout2
350
26
  3
Model
350
22
  0
DICTIONARY
  5
3B
102
{ACAD_REACTORS
330
C
102
}
330
C
100
AcDbDictionary
281
     1
  3
ByBlock
350
3D
  3
ByLayer
350
3C
  3
Global
350
3E
  0
DICTIONARY
  5
B8
102
{ACAD_REACTORS
330
C
102
}
330
C
100
AcDbDictionary
281
     1
  0
DICTIONARY
  5
17
102
{ACAD_REACTORS
330
C
102
}
330
C
100
AcDbDictionary
281
     1
  3
Standard
350
18
  0
DICTIONARY
  5
19
102
{ACAD_REACTORS
330
C
102
}
330
C
100
AcDbDictionary
281
     1
  0
ACDBDICTIONARYWDFLT
  5
E
102
{ACAD_REACTORS
330
C
102
}
330
C
100
AcDbDictionary
281
     1
  3
Normal
350
F
100
AcDbDictionaryWithDefault
340
F
  0
DICTIONARY
  5
B7
102
{ACAD_REACTORS
330
C
102
}
330
C
100
AcDbDictionary
281
     1
  0
DICTIONARY
  5
2A
102
{ACAD_REACTORS
330
C
102
}
330
C
100
AcDbDictionary
281
     1
  3
2dWireframe
350
2F
  3
3D Hidden
350
31
  3
3dWireframe
350
30
  3
Basic
350
32
  3
Brighten
350
36
  3
ColorChange
350
3A
  3
Conceptual
350
34
  3
Dim
350
35
  3
Facepattern
350
39
  3
Flat
350
2B
  3
FlatWithEdges
350
2C
  3
Gouraud
350
2D
  3
GouraudWithEdges
350
2E
  3
Linepattern
350
38
  3
Realistic
350
33
  3
Thicken
350
37
  0
LAYOUT
  5
1E
102
{ACAD_REACTORS
330
1A
102
}
330
1A
100
AcDbPlotSettings
  1

  2
none_device
  4

  6

 40
0.0
 41
0.0
 42
0.0
 43
0.0
 44
0.0
 45
0.0
 46
0.0
 47
0.0
 48
0.0
 49
0.0
140
0.0
141
0.0
142
1.0
143
1.0
 70
   688
 72
     0
 73
     0
 74
     5
  7

 75
    16
 76
     0
 77
     2
 78
   300
147
1.0
148
0.0
149
0.0
100
AcDbLayout
  1
Layout1
 70
     1
 71
     1
 10
0.0
 20
0.0
 11
12.0
 21
9.0
 12
0.0
 22
0.0
 32
0.0
 14
1.000000000000000E+20
 24
1.000000000000000E+20
 34
1.000000000000000E+20
 15
-1.000000000000000E+20
 25
-1.000000000000000E+20
 35
-1.000000000000000E+20
146
0.0
 13
0.0
 23
0.0
 33
0.0
 16
1.0
 26
0.0
 36
0.0
 17
0.0
 27
1.0
 37
0.0
 76
     0
330
1B
  0
LAYOUT
  5
26
102
{ACAD_REACTORS
330
1A
102
}
330
1A
100
AcDbPlotSettings
  1

  2
none_device
  4

  6

 40
0.0
 41
0.0
 42
0.0
 43
0.0
 44
0.0
 45
0.0
 46
0.0
 47
0.0
 48
0.0
 49
0.0
140
0.0
141
0.0
142
1.0
143
1.0
 70
   688
 72
     0
 73
     0
 74
     5
  7

 75
    16
 76
     0
 77
     2
 78
   300
147
1.0
148
0.0
149
0.0
100
AcDbLayout
  1
Layout2
 70
     1
 71
     2
 10
0.0
 20
0.0
 11
0.0
 21
0.0
 12
0.0
 22
0.0
 32
0.0
 14
0.0
 24
0.0
 34
0.0
 15
0.0
 25
0.0
 35
0.0
146
0.0
 13
0.0
 23
0.0
 33
0.0
 16
1.0
 26
0.0
 36
0.0
 17
0.0
 27
1.0
 37
0.0
 76
     0
330
23
  0
LAYOUT
  5
22
102
{ACAD_REACTORS
330
1A
102
}
330
1A
100
AcDbPlotSettings
  1

  2
none_device
  4

  6

 40
0.0
 41
0.0
 42
0.0
 43
0.0
 44
0.0
 45
0.0
 46
0.0
 47
0.0
 48
0.0
 49
0.0
140
0.0
141
0.0
142
1.0
143
1.0
 70
  1712
 72
     0
 73
     0
 74
     0
  7

 75
     0
 76
     0
 77
     2
 78
   300
147
1.0
148
0.0
149
0.0
100
AcDbLayout
  1
Model
 70
     1
 71
     0
 10
0.0
 20
0.0
 11
12.0
 21
9.0
 12
0.0
 22
0.0
 32
0.0
 14
-187.3384
 24
-115.6052
 34
0.0
 15
-63.3185
 25
131.5884
 35
0.0
146
0.0
 13
0.0
 23
0.0
 33
0.0
 16
1.0
 26
0.0
 36
0.0
 17
0.0
 27
1.0
 37
0.0
 76
     0
330
1F
331
29
  0
MATERIAL
  5
3D
102
{ACAD_REACTORS
330
3B
102
}
330
3B
100
AcDbMaterial
  1
ByBlock
 72
     1
 94
      127
  0
MATERIAL
  5
3C
102
{ACAD_REACTORS
330
3B
102
}
330
3B
100
AcDbMaterial
  1
ByLayer
 72
     1
 94
      127
  0
MATERIAL
  5
3E
102
{ACAD_REACTORS
330
3B
102
}
330
3B
100
AcDbMaterial
  1
Global
 72
     1
 94
      127
  0
MLINESTYLE
  5
18
102
{ACAD_REACTORS
330
17
102
}
330
17
100
AcDbMlineStyle
  2
Standard
 70
     0
  3

 62
   256
 51
90.0
 52
90.0
 71
     2
 49
0.5
 62
   256
  6
BYLAYER
 49
-0.5
 62
   256
  6
BYLAYER
  0
ACDBPLACEHOLDER
  5
F
102
{ACAD_REACTORS
330
E
102
}
330
E
  0
VISUALSTYLE
  5
2F
102
{ACAD_REACTORS
330
2A
102
}
102
{ACAD_XDICTIONARY
360
9F
102
}
330
2A
100
AcDbVisualStyle
  2
2dWireframe
 70
     4
 71
     0
 72
     2
 73
     0
 90
        0
 40
-0.6
 41
-30.0
 62
     5
 63
     7
421
 16777215
 74
     1
 91
        4
 64
     7
 65
   257
 75
     1
175
     1
 42
1.0
 92
        0
 66
   257
 43
1.0
 76
     1
 77
     6
 78
     2
 67
     7
 79
     5
170
     0
171
     0
290
     0
174
     0
 93
        1
 44
0.0
173
     0
291
     0
 45
0.0
  0
VISUALSTYLE
  5
31
102
{ACAD_REACTORS
330
2A
102
}
102
{ACAD_XDICTIONARY
360
A3
102
}
330
2A
100
AcDbVisualStyle
  2
3D Hidden
 70
     6
 71
     1
 72
     2
 73
     2
 90
        0
 40
-0.6
 41
-30.0
 62
     5
 63
     7
421
 16777215
 74
     2
 91
        2
 64
     7
 65
   257
 75
     2
175
     1
 42
40.0
 92
        0
 66
   257
 43
1.0
 76
     1
 77
     6
 78
     2
 67
     7
 79
     3
170
     0
171
     0
290
     0
174
     0
 93
        1
 44
0.0
173
     0
291
     0
 45
0.0
  0
VISUALSTYLE
  5
30
102
{ACAD_REACTORS
330
2A
102
}
102
{ACAD_XDICTIONARY
360
A1
102
}
330
2A
100
AcDbVisualStyle
  2
3dWireframe
 70
     5
 71
     0
 72
     2
 73
     0
 90
        0
 40
-0.6
 41
-30.0
 62
     5
 63
     7
421
 16777215
 74
     1
 91
        4
 64
     7
 65
   257
 75
     1
175
     1
 42
1.0
 92
        0
 66
   257
 43
1.0
 76
     1
 77
     6
 78
     2
 67
     7
 79
     5
170
     0
171
     0
290
     0
174
     0
 93
        1
 44
0.0
173
     0
291
     0
 45
0.0
  0
VISUALSTYLE
  5
32
102
{ACAD_REACTORS
330
2A
102
}
102
{ACAD_XDICTIONARY
360
A5
102
}
330
2A
100
AcDbVisualStyle
  2
Basic
 70
     7
 71
     1
 72
     0
 73
     1
 90
        0
 40
-0.6
 41
-30.0
 62
     5
 63
     7
421
 16777215
 74
     0
 91
        4
 64
     7
 65
   257
 75
     1
175
     1
 42
1.0
 92
        8
 66
     7
 43
1.0
 76
     1
 77
     6
 78
     2
 67
     7
 79
     5
170
     0
171
     0
290
     0
174
     0
 93
        1
 44
0.0
173
     0
291
     1
 45
0.0
  0
VISUALSTYLE
  5
36
102
{ACAD_REACTORS
330
2A
102
}
102
{ACAD_XDICTIONARY
360
AD
102
}
330
2A
100
AcDbVisualStyle
  2
Brighten
 70
    12
 71
     2
 72
     2
 73
     0
 90
        0
 40
-0.6
 41
-30.0
 62
     5
 63
     7
421
 16777215
 74
     1
 91
        4
 64
     7
 65
   257
 75
     1
175
     1
 42
1.0
 92
        8
 66
     7
 43
1.0
 76
     1
 77
     6
 78
     2
 67
     7
 79
     5
170
     0
171
     0
290
     0
174
     0
 93
        1
 44
50.0
173
     0
291
     1
 45
0.0
  0
VISUALSTYLE
  5
3A
102
{ACAD_REACTORS
330
2A
102
}
102
{ACAD_XDICTIONARY
360
B5
102
}
330
2A
100
AcDbVisualStyle
  2
ColorChange
 70
    16
 71
     2
 72
     2
 73
     3
 90
        0
 40
-0.6
 41
-30.0
 62
     5
 63
     8
421
  8421504
 74
     1
 91
        4
 64
     7
 65
   257
 75
     1
175
     1
 42
1.0
 92
        8
 66
     8
424
  8421504
 43
1.0
 76
     1
 77
     6
 78
     2
 67
     7
 79
     5
170
     0
171
     0
290
     0
174
     0
 93
        1
 44
0.0
173
     0
291
     1
 45
0.0
  0
VISUALSTYLE
  5
34
102
{ACAD_REACTORS
330
2A
102
}
102
{ACAD_XDICTIONARY
360
A9
102
}
330
2A
100
AcDbVisualStyle
  2
Conceptual
 70
     9
 71
     3
 72
     2
 73
     0
 90
        0
 40
-0.6
 41
-30.0
 62
     5
 63
     7
421
 16777215
 74
     2
 91
        2
 64
     7
 65
   257
 75
     1
175
     1
 42
40.0
 92
        8
 66
     7
 43
1.0
 76
     1
 77
     6
 78
     2
 67
     7
 79
     3
170
     0
171
     0
290
     0
174
     0
 93
        1
 44
0.0
173
     0
291
     0
 45
0.0
  0
VISUALSTYLE
  5
35
102
{ACAD_REACTORS
330
2A
102
}
102
{ACAD_XDICTIONARY
360
AB
102
}
330
2A
100
AcDbVisualStyle
  2
Dim
 70
    11
 71
     2
 72
     2
 73
     0
 90
        0
 40
-0.6
 41
-30.0
 62
     5
 63
     7
421
 16777215
 74
     1
 91
        4
 64
     7
 65
   257
 75
     1
175
     1
 42
1.0
 92
        8
 66
     7
 43
1.0
 76
     1
 77
     6
 78
     2
 67
     7
 79
     5
170
     0
171
     0
290
     0
174
     0
 93
        1
 44
-50.0
173
     0
291
     1
 45
0.0
  0
VISUALSTYLE
  5
39
102
{ACAD_REACTORS
330
2A
102
}
102
{ACAD_XDICTIONARY
360
B3
102
}
330
2A
100
AcDbVisualStyle
  2
Facepattern
 70
    15
 71
     2
 72
     2
 73
     0
 90
        0
 40
-0.6
 41
-30.0
 62
     5
 63
     7
421
 16777215
 74
     1
 91
        4
 64
     7
 65
   257
 75
     1
175
     1
 42
1.0
 92
        8
 66
     7
 43
1.0
 76
     1
 77
     6
 78
     2
 67
     7
 79
     5
170
     0
171
     0
290
     0
174
     0
 93
        1
 44
0.0
173
     0
291
     1
 45
0.0
  0
VISUALSTYLE
  5
2B
102
{ACAD_REACTORS
330
2A
102
}
102
{ACAD_XDICTIONARY
360
97
102
}
330
2A
100
AcDbVisualStyle
  2
Flat
 70
     0
 71
     2
 72
     1
 73
     1
 90
        2
 40
-0.6
 41
30.0
 62
     5
 63
     7
421
 16777215
 74
     0
 91
        4
 64
     7
 65
   257
 75
     1
175
     1
 42
1.0
 92
        8
 66
     7
 43
1.0
 76
     1
 77
     6
 78
     2
 67
     7
 79
     5
170
     0
171
     0
290
     0
174
     0
 93
       13
 44
0.0
173
     0
291
     1
 45
0.0
  0
VISUALSTYLE
  5
2C
102
{ACAD_REACTORS
330
2A
102
}
102
{ACAD_XDICTIONARY
360
99
102
}
330
2A
100
AcDbVisualStyle
  2
FlatWithEdges
 70
     1
 71
     2
 72
     1
 73
     1
 90
        2
 40
-0.6
 41
30.0
 62
     5
 63
     7
421
 16777215
 74
     1
 91
        4
 64
     7
 65
   257
 75
     1
175
     1
 42
1.0
 92
        0
 66
   257
 43
1.0
 76
     1
 77
     6
 78
     2
 67
     7
 79
     5
170
     0
171
     0
290
     0
174
     0
 93
       13
 44
0.0
173
     0
291
     1
 45
0.0
  0
VISUALSTYLE
  5
2D
102
{ACAD_REACTORS
330
2A
102
}
102
{ACAD_XDICTIONARY
360
9B
102
}
330
2A
100
AcDbVisualStyle
  2
Gouraud
 70
     2
 71
     2
 72
     2
 73
     1
 90
        2
 40
-0.6
 41
30.0
 62
     5
 63
     7
421
 16777215
 74
     0
 91
        4
 64
     7
 65
   257
 75
     1
175
     1
 42
1.0
 92
        0
 66
     7
 43
1.0
 76
     1
 77
     6
 78
     2
 67
     7
 79
     5
170
     0
171
     0
290
     0
174
     0
 93
       13
 44
0.0
173
     0
291
     1
 45
0.0
  0
VISUALSTYLE
  5
2E
102
{ACAD_REACTORS
330
2A
102
}
102
{ACAD_XDICTIONARY
360
9D
102
}
330
2A
100
AcDbVisualStyle
  2
GouraudWithEdges
 70
     3
 71
     2
 72
     2
 73
     1
 90
        2
 40
-0.6
 41
30.0
 62
     5
 63
     7
421
 16777215
 74
     1
 91
        4
 64
     7
 65
   257
 75
     1
175
     1
 42
1.0
 92
        0
 66
   257
 43
1.0
 76
     1
 77
     6
 78
     2
 67
     7
 79
     5
170
     0
171
     0
290
     0
174
     0
 93
       13
 44
0.0
173
     0
291
     1
 45
0.0
  0
VISUALSTYLE
  5
38
102
{ACAD_REACTORS
330
2A
102
}
102
{ACAD_XDICTIONARY
360
B1
102
}
330
2A
100
AcDbVisualStyle
  2
Linepattern
 70
    14
 71
     2
 72
     2
 73
     0
 90
        0
 40
-0.6
 41
-30.0
 62
     5
 63
     7
421
 16777215
 74
     1
 91
        4
 64
     7
 65
   257
 75
     7
175
     7
 42
1.0
 92
        8
 66
     7
 43
1.0
 76
     1
 77
     6
 78
     2
 67
     7
 79
     5
170
     0
171
     0
290
     0
174
     0
 93
        1
 44
0.0
173
     0
291
     1
 45
0.0
  0
VISUALSTYLE
  5
33
102
{ACAD_REACTORS
330
2A
102
}
102
{ACAD_XDICTIONARY
360
A7
102
}
330
2A
100
AcDbVisualStyle
  2
Realistic
 70
     8
 71
     2
 72
     2
 73
     0
 90
        0
 40
-0.6
 41
-30.0
 62
     5
 63
     7
421
 16777215
 74
     1
 91
        0
 64
     7
 65
   257
 75
     1
175
     1
 42
1.0
 92
        8
 66
     8
424
  7895160
 43
1.0
 76
     1
 77
     6
 78
     2
 67
     7
 79
     5
170
     0
171
     0
290
     0
174
     0
 93
       13
 44
0.0
173
     0
291
     0
 45
0.0
  0
VISUALSTYLE
  5
37
102
{ACAD_REACTORS
330
2A
102
}
102
{ACAD_XDICTIONARY
360
AF
102
}
330
2A
100
AcDbVisualStyle
  2
Thicken
 70
    13
 71
     2
 72
     2
 73
     0
 90
        0
 40
-0.6
 41
-30.0
 62
     5
 63
     7
421
 16777215
 74
     1
 91
        4
 64
     7
 65
   257
 75
     1
175
     1
 42
1.0
 92
       12
 66
     7
 43
1.0
 76
     1
 77
     6
 78
     2
 67
     7
 79
     5
170
     0
171
     0
290
     0
174
     0
 93
        1
 44
0.0
173
     0
291
     1
 45
0.0
  0
DICTIONARY
  5
9F
330
2F
100
AcDbDictionary
280
     1
281
     1
  3
ACAD_XREC_ROUNDTRIP
360
A0
  0
DICTIONARY
  5
A3
330
31
100
AcDbDictionary
280
     1
281
     1
  3
ACAD_XREC_ROUNDTRIP
360
A4
  0
DICTIONARY
  5
A1
330
30
100
AcDbDictionary
280
     1
281
     1
  3
ACAD_XREC_ROUNDTRIP
360
A2
  0
DICTIONARY
  5
A5
330
32
100
AcDbDictionary
280
     1
281
     1
  3
ACAD_XREC_ROUNDTRIP
360
A6
  0
DICTIONARY
  5
AD
330
36
100
AcDbDictionary
280
     1
281
     1
  3
ACAD_XREC_ROUNDTRIP
360
AE
  0
DICTIONARY
  5
B5
330
3A
100
AcDbDictionary
280
     1
281
     1
  3
ACAD_XREC_ROUNDTRIP
360
B6
  0
DICTIONARY
  5
A9
330
34
100
AcDbDictionary
280
     1
281
     1
  3
ACAD_XREC_ROUNDTRIP
360
AA
  0
DICTIONARY
  5
AB
330
35
100
AcDbDictionary
280
     1
281
     1
  3
ACAD_XREC_ROUNDTRIP
360
AC
  0
DICTIONARY
  5
B3
330
39
100
AcDbDictionary
280
     1
281
     1
  3
ACAD_XREC_ROUNDTRIP
360
B4
  0
DICTIONARY
  5
97
330
2B
100
AcDbDictionary
280
     1
281
     1
  3
ACAD_XREC_ROUNDTRIP
360
98
  0
DICTIONARY
  5
99
330
2C
100
AcDbDictionary
280
     1
281
     1
  3
ACAD_XREC_ROUNDTRIP
360
9A
  0
DICTIONARY
  5
9B
330
2D
100
AcDbDictionary
280
     1
281
     1
  3
ACAD_XREC_ROUNDTRIP
360
9C
  0
DICTIONARY
  5
9D
330
2E
100
AcDbDictionary
280
     1
281
     1
  3
ACAD_XREC_ROUNDTRIP
360
9E
  0
DICTIONARY
  5
B1
330
38
100
AcDbDictionary
280
     1
281
     1
  3
ACAD_XREC_ROUNDTRIP
360
B2
  0
DICTIONARY
  5
A7
330
33
100
AcDbDictionary
280
     1
281
     1
  3
ACAD_XREC_ROUNDTRIP
360
A8
  0
DICTIONARY
  5
AF
330
37
100
AcDbDictionary
280
     1
281
     1
  3
ACAD_XREC_ROUNDTRIP
360
B0
  0
XRECORD
  5
A0
102
{ACAD_REACTORS
330
9F
102
}
330
9F
100
AcDbXrecord
280
     1
102
RTVSPropertyOp0
 70
     1
102
RTVSPropertyOp1
 70
     1
102
RTVSPropertyOp2
 70
     1
102
RTVSPropertyOp3
 70
     1
102
RTVSPropertyOp4
 70
     1
102
RTVSPropertyOp5
 70
     1
102
RTVSPropertyOp6
 70
     1
102
RTVSPropertyOp7
 70
     1
102
RTVSPropertyOp8
 70
     1
102
RTVSPropertyOp9
 70
     1
102
RTVSPropertyOp10
 70
     1
102
RTVSPropertyOp11
 70
     1
102
RTVSPropertyOp12
 70
     1
102
RTVSPropertyOp13
 70
     1
102
RTVSPropertyOp14
 70
     1
102
RTVSPropertyOp15
 70
     1
102
RTVSPropertyOp16
 70
     1
102
RTVSPropertyOp17
 70
     1
102
RTVSPropertyOp18
 70
     1
102
RTVSPropertyOp19
 70
     1
102
RTVSPropertyOp20
 70
     1
102
RTVSPropertyOp21
 70
     1
102
RTVSPropertyOp22
 70
     1
102
RTVSPropertyOp23
 70
     1
102
RTVSPropertyOp24
 70
     1
102
RTVSPropertyOp25
 70
     1
102
RTVSPropertyOp26
 70
     1
102
RTVSPropertyOp27
 70
     1
102
RTVSPropertyOp28
 70
     1
102
RTVSPropertyOp29
 70
     1
102
RTVSPropertyOp30
 70
     1
102
RTVSPropertyOp31
 70
     1
102
RTVSPropertyOp32
 70
     1
  0
XRECORD
  5
A4
102
{ACAD_REACTORS
330
A3
102
}
330
A3
100
AcDbXrecord
280
     1
102
RTVSPropertyOp0
 70
     1
102
RTVSPropertyOp1
 70
     1
102
RTVSPropertyOp2
 70
     1
102
RTVSPropertyOp3
 70
     1
102
RTVSPropertyOp4
 70
     1
102
RTVSPropertyOp5
 70
     1
102
RTVSPropertyOp6
 70
     1
102
RTVSPropertyOp7
 70
     1
102
RTVSPropertyOp8
 70
     1
102
RTVSPropertyOp9
 70
     1
102
RTVSPropertyOp10
 70
     1
102
RTVSPropertyOp11
 70
     1
102
RTVSPropertyOp12
 70
     1
102
RTVSPropertyOp13
 70
     1
102
RTVSPropertyOp14
 70
     1
102
RTVSPropertyOp15
 70
     1
102
RTVSPropertyOp16
 70
     1
102
RTVSPropertyOp17
 70
     1
102
RTVSPropertyOp18
 70
     1
102
RTVSPropertyOp19
 70
     1
102
RTVSPropertyOp20
 70
     1
102
RTVSPropertyOp21
 70
     1
102
RTVSPropertyOp22
 70
     1
102
RTVSPropertyOp23
 70
     1
102
RTVSPropertyOp24
 70
     1
102
RTVSPropertyOp25
 70
     1
102
RTVSPropertyOp26
 70
     1
102
RTVSPropertyOp27
 70
     1
102
RTVSPropertyOp28
 70
     1
102
RTVSPropertyOp29
 70
     1
102
RTVSPropertyOp30
 70
     1
102
RTVSPropertyOp31
 70
     1
102
RTVSPropertyOp32
 70
     1
  0
XRECORD
  5
A2
102
{ACAD_REACTORS
330
A1
102
}
330
A1
100
AcDbXrecord
280
     1
102
RTVSPropertyOp0
 70
     1
102
RTVSPropertyOp1
 70
     1
102
RTVSPropertyOp2
 70
     1
102
RTVSPropertyOp3
 70
     1
102
RTVSPropertyOp4
 70
     1
102
RTVSPropertyOp5
 70
     1
102
RTVSPropertyOp6
 70
     1
102
RTVSPropertyOp7
 70
     1
102
RTVSPropertyOp8
 70
     1
102
RTVSPropertyOp9
 70
     1
102
RTVSPropertyOp10
 70
     1
102
RTVSPropertyOp11
 70
     1
102
RTVSPropertyOp12
 70
     1
102
RTVSPropertyOp13
 70
     1
102
RTVSPropertyOp14
 70
     1
102
RTVSPropertyOp15
 70
     1
102
RTVSPropertyOp16
 70
     1
102
RTVSPropertyOp17
 70
     1
102
RTVSPropertyOp18
 70
     1
102
RTVSPropertyOp19
 70
     1
102
RTVSPropertyOp20
 70
     1
102
RTVSPropertyOp21
 70
     1
102
RTVSPropertyOp22
 70
     1
102
RTVSPropertyOp23
 70
     1
102
RTVSPropertyOp24
 70
     1
102
RTVSPropertyOp25
 70
     1
102
RTVSPropertyOp26
 70
     1
102
RTVSPropertyOp27
 70
     1
102
RTVSPropertyOp28
 70
     1
102
RTVSPropertyOp29
 70
     1
102
RTVSPropertyOp30
 70
     1
102
RTVSPropertyOp31
 70
     1
102
RTVSPropertyOp32
 70
     1
  0
XRECORD
  5
A6
102
{ACAD_REACTORS
330
A5
102
}
330
A5
100
AcDbXrecord
280
     1
102
RTVSPropertyOp0
 70
     1
102
RTVSPropertyOp1
 70
     1
102
RTVSPropertyOp2
 70
     1
102
RTVSPropertyOp3
 70
     1
102
RTVSPropertyOp4
 70
     1
102
RTVSPropertyOp5
 70
     1
102
RTVSPropertyOp6
 70
     1
102
RTVSPropertyOp7
 70
     1
102
RTVSPropertyOp8
 70
     1
102
RTVSPropertyOp9
 70
     1
102
RTVSPropertyOp10
 70
     1
102
RTVSPropertyOp11
 70
     1
102
RTVSPropertyOp12
 70
     1
102
RTVSPropertyOp13
 70
     1
102
RTVSPropertyOp14
 70
     1
102
RTVSPropertyOp15
 70
     1
102
RTVSPropertyOp16
 70
     1
102
RTVSPropertyOp17
 70
     1
102
RTVSPropertyOp18
 70
     1
102
RTVSPropertyOp19
 70
     1
102
RTVSPropertyOp20
 70
     1
102
RTVSPropertyOp21
 70
     1
102
RTVSPropertyOp22
 70
     1
102
RTVSPropertyOp23
 70
     1
102
RTVSPropertyOp24
 70
     1
102
RTVSPropertyOp25
 70
     1
102
RTVSPropertyOp26
 70
     1
102
RTVSPropertyOp27
 70
     1
102
RTVSPropertyOp28
 70
     1
102
RTVSPropertyOp29
 70
     1
102
RTVSPropertyOp30
 70
     1
102
RTVSPropertyOp31
 70
     1
102
RTVSPropertyOp32
 70
     1
  0
XRECORD
  5
AE
102
{ACAD_REACTORS
330
AD
102
}
330
AD
100
AcDbXrecord
280
     1
102
RTVSPropertyOp0
 70
     1
102
RTVSPropertyOp1
 70
     1
102
RTVSPropertyOp2
 70
     1
102
RTVSPropertyOp3
 70
     1
102
RTVSPropertyOp4
 70
     1
102
RTVSPropertyOp5
 70
     1
102
RTVSPropertyOp6
 70
     1
102
RTVSPropertyOp7
 70
     1
102
RTVSPropertyOp8
 70
     1
102
RTVSPropertyOp9
 70
     1
102
RTVSPropertyOp10
 70
     1
102
RTVSPropertyOp11
 70
     1
102
RTVSPropertyOp12
 70
     1
102
RTVSPropertyOp13
 70
     1
102
RTVSPropertyOp14
 70
     1
102
RTVSPropertyOp15
 70
     1
102
RTVSPropertyOp16
 70
     1
102
RTVSPropertyOp17
 70
     1
102
RTVSPropertyOp18
 70
     1
102
RTVSPropertyOp19
 70
     1
102
RTVSPropertyOp20
 70
     1
102
RTVSPropertyOp21
 70
     1
102
RTVSPropertyOp22
 70
     1
102
RTVSPropertyOp23
 70
     1
102
RTVSPropertyOp24
 70
     1
102
RTVSPropertyOp25
 70
     1
102
RTVSPropertyOp26
 70
     1
102
RTVSPropertyOp27
 70
     1
102
RTVSPropertyOp28
 70
     1
102
RTVSPropertyOp29
 70
     1
102
RTVSPropertyOp30
 70
     1
102
RTVSPropertyOp31
 70
     1
102
RTVSPropertyOp32
 70
     1
  0
XRECORD
  5
B6
102
{ACAD_REACTORS
330
B5
102
}
330
B5
100
AcDbXrecord
280
     1
102
RTVSPropertyOp0
 70
     1
102
RTVSPropertyOp1
 70
     1
102
RTVSPropertyOp2
 70
     1
102
RTVSPropertyOp3
 70
     1
102
RTVSPropertyOp4
 70
     1
102
RTVSPropertyOp5
 70
     1
102
RTVSPropertyOp6
 70
     1
102
RTVSPropertyOp7
 70
     1
102
RTVSPropertyOp8
 70
     1
102
RTVSPropertyOp9
 70
     1
102
RTVSPropertyOp10
 70
     1
102
RTVSPropertyOp11
 70
     1
102
RTVSPropertyOp12
 70
     1
102
RTVSPropertyOp13
 70
     1
102
RTVSPropertyOp14
 70
     1
102
RTVSPropertyOp15
 70
     1
102
RTVSPropertyOp16
 70
     1
102
RTVSPropertyOp17
 70
     1
102
RTVSPropertyOp18
 70
     1
102
RTVSPropertyOp19
 70
     1
102
RTVSPropertyOp20
 70
     1
102
RTVSPropertyOp21
 70
     1
102
RTVSPropertyOp22
 70
     1
102
RTVSPropertyOp23
 70
     1
102
RTVSPropertyOp24
 70
     1
102
RTVSPropertyOp25
 70
     1
102
RTVSPropertyOp26
 70
     1
102
RTVSPropertyOp27
 70
     1
102
RTVSPropertyOp28
 70
     1
102
RTVSPropertyOp29
 70
     1
102
RTVSPropertyOp30
 70
     1
102
RTVSPropertyOp31
 70
     1
102
RTVSPropertyOp32
 70
     1
  0
XRECORD
  5
AA
102
{ACAD_REACTORS
330
A9
102
}
330
A9
100
AcDbXrecord
280
     1
102
RTVSPropertyOp0
 70
     1
102
RTVSPropertyOp1
 70
     1
102
RTVSPropertyOp2
 70
     1
102
RTVSPropertyOp3
 70
     1
102
RTVSPropertyOp4
 70
     1
102
RTVSPropertyOp5
 70
     1
102
RTVSPropertyOp6
 70
     1
102
RTVSPropertyOp7
 70
     1
102
RTVSPropertyOp8
 70
     1
102
RTVSPropertyOp9
 70
     1
102
RTVSPropertyOp10
 70
     1
102
RTVSPropertyOp11
 70
     1
102
RTVSPropertyOp12
 70
     1
102
RTVSPropertyOp13
 70
     1
102
RTVSPropertyOp14
 70
     1
102
RTVSPropertyOp15
 70
     1
102
RTVSPropertyOp16
 70
     1
102
RTVSPropertyOp17
 70
     1
102
RTVSPropertyOp18
 70
     1
102
RTVSPropertyOp19
 70
     1
102
RTVSPropertyOp20
 70
     1
102
RTVSPropertyOp21
 70
     1
102
RTVSPropertyOp22
 70
     1
102
RTVSPropertyOp23
 70
     1
102
RTVSPropertyOp24
 70
     1
102
RTVSPropertyOp25
 70
     1
102
RTVSPropertyOp26
 70
     1
102
RTVSPropertyOp27
 70
     1
102
RTVSPropertyOp28
 70
     1
102
RTVSPropertyOp29
 70
     1
102
RTVSPropertyOp30
 70
     1
102
RTVSPropertyOp31
 70
     1
102
RTVSPropertyOp32
 70
     1
  0
XRECORD
  5
AC
102
{ACAD_REACTORS
330
AB
102
}
330
AB
100
AcDbXrecord
280
     1
102
RTVSPropertyOp0
 70
     1
102
RTVSPropertyOp1
 70
     1
102
RTVSPropertyOp2
 70
     1
102
RTVSPropertyOp3
 70
     1
102
RTVSPropertyOp4
 70
     1
102
RTVSPropertyOp5
 70
     1
102
RTVSPropertyOp6
 70
     1
102
RTVSPropertyOp7
 70
     1
102
RTVSPropertyOp8
 70
     1
102
RTVSPropertyOp9
 70
     1
102
RTVSPropertyOp10
 70
     1
102
RTVSPropertyOp11
 70
     1
102
RTVSPropertyOp12
 70
     1
102
RTVSPropertyOp13
 70
     1
102
RTVSPropertyOp14
 70
     1
102
RTVSPropertyOp15
 70
     1
102
RTVSPropertyOp16
 70
     1
102
RTVSPropertyOp17
 70
     1
102
RTVSPropertyOp18
 70
     1
102
RTVSPropertyOp19
 70
     1
102
RTVSPropertyOp20
 70
     1
102
RTVSPropertyOp21
 70
     1
102
RTVSPropertyOp22
 70
     1
102
RTVSPropertyOp23
 70
     1
102
RTVSPropertyOp24
 70
     1
102
RTVSPropertyOp25
 70
     1
102
RTVSPropertyOp26
 70
     1
102
RTVSPropertyOp27
 70
     1
102
RTVSPropertyOp28
 70
     1
102
RTVSPropertyOp29
 70
     1
102
RTVSPropertyOp30
 70
     1
102
RTVSPropertyOp31
 70
     1
102
RTVSPropertyOp32
 70
     1
  0
XRECORD
  5
B4
102
{ACAD_REACTORS
330
B3
102
}
330
B3
100
AcDbXrecord
280
     1
102
RTVSPropertyOp0
 70
     1
102
RTVSPropertyOp1
 70
     1
102
RTVSPropertyOp2
 70
     1
102
RTVSPropertyOp3
 70
     1
102
RTVSPropertyOp4
 70
     1
102
RTVSPropertyOp5
 70
     1
102
RTVSPropertyOp6
 70
     1
102
RTVSPropertyOp7
 70
     1
102
RTVSPropertyOp8
 70
     1
102
RTVSPropertyOp9
 70
     1
102
RTVSPropertyOp10
 70
     1
102
RTVSPropertyOp11
 70
     1
102
RTVSPropertyOp12
 70
     1
102
RTVSPropertyOp13
 70
     1
102
RTVSPropertyOp14
 70
     1
102
RTVSPropertyOp15
 70
     1
102
RTVSPropertyOp16
 70
     1
102
RTVSPropertyOp17
 70
     1
102
RTVSPropertyOp18
 70
     1
102
RTVSPropertyOp19
 70
     1
102
RTVSPropertyOp20
 70
     1
102
RTVSPropertyOp21
 70
     1
102
RTVSPropertyOp22
 70
     1
102
RTVSPropertyOp23
 70
     1
102
RTVSPropertyOp24
 70
     1
102
RTVSPropertyOp25
 70
     1
102
RTVSPropertyOp26
 70
     1
102
RTVSPropertyOp27
 70
     1
102
RTVSPropertyOp28
 70
     1
102
RTVSPropertyOp29
 70
     1
102
RTVSPropertyOp30
 70
     1
102
RTVSPropertyOp31
 70
     1
102
RTVSPropertyOp32
 70
     1
  0
XRECORD
  5
98
102
{ACAD_REACTORS
330
97
102
}
330
97
100
AcDbXrecord
280
     1
102
RTVSPropertyOp0
 70
     1
102
RTVSPropertyOp1
 70
     1
102
RTVSPropertyOp2
 70
     1
102
RTVSPropertyOp3
 70
     1
102
RTVSPropertyOp4
 70
     1
102
RTVSPropertyOp5
 70
     1
102
RTVSPropertyOp6
 70
     1
102
RTVSPropertyOp7
 70
     1
102
RTVSPropertyOp8
 70
     1
102
RTVSPropertyOp9
 70
     1
102
RTVSPropertyOp10
 70
     1
102
RTVSPropertyOp11
 70
     1
102
RTVSPropertyOp12
 70
     1
102
RTVSPropertyOp13
 70
     1
102
RTVSPropertyOp14
 70
     1
102
RTVSPropertyOp15
 70
     1
102
RTVSPropertyOp16
 70
     1
102
RTVSPropertyOp17
 70
     1
102
RTVSPropertyOp18
 70
     1
102
RTVSPropertyOp19
 70
     1
102
RTVSPropertyOp20
 70
     1
102
RTVSPropertyOp21
 70
     1
102
RTVSPropertyOp22
 70
     1
102
RTVSPropertyOp23
 70
     1
102
RTVSPropertyOp24
 70
     1
102
RTVSPropertyOp25
 70
     1
102
RTVSPropertyOp26
 70
     1
102
RTVSPropertyOp27
 70
     1
102
RTVSPropertyOp28
 70
     1
102
RTVSPropertyOp29
 70
     1
102
RTVSPropertyOp30
 70
     1
102
RTVSPropertyOp31
 70
     1
102
RTVSPropertyOp32
 70
     1
  0
XRECORD
  5
9A
102
{ACAD_REACTORS
330
99
102
}
330
99
100
AcDbXrecord
280
     1
102
RTVSPropertyOp0
 70
     1
102
RTVSPropertyOp1
 70
     1
102
RTVSPropertyOp2
 70
     1
102
RTVSPropertyOp3
 70
     1
102
RTVSPropertyOp4
 70
     1
102
RTVSPropertyOp5
 70
     1
102
RTVSPropertyOp6
 70
     1
102
RTVSPropertyOp7
 70
     1
102
RTVSPropertyOp8
 70
     1
102
RTVSPropertyOp9
 70
     1
102
RTVSPropertyOp10
 70
     1
102
RTVSPropertyOp11
 70
     1
102
RTVSPropertyOp12
 70
     1
102
RTVSPropertyOp13
 70
     1
102
RTVSPropertyOp14
 70
     1
102
RTVSPropertyOp15
 70
     1
102
RTVSPropertyOp16
 70
     1
102
RTVSPropertyOp17
 70
     1
102
RTVSPropertyOp18
 70
     1
102
RTVSPropertyOp19
 70
     1
102
RTVSPropertyOp20
 70
     1
102
RTVSPropertyOp21
 70
     1
102
RTVSPropertyOp22
 70
     1
102
RTVSPropertyOp23
 70
     1
102
RTVSPropertyOp24
 70
     1
102
RTVSPropertyOp25
 70
     1
102
RTVSPropertyOp26
 70
     1
102
RTVSPropertyOp27
 70
     1
102
RTVSPropertyOp28
 70
     1
102
RTVSPropertyOp29
 70
     1
102
RTVSPropertyOp30
 70
     1
102
RTVSPropertyOp31
 70
     1
102
RTVSPropertyOp32
 70
     1
  0
XRECORD
  5
9C
102
{ACAD_REACTORS
330
9B
102
}
330
9B
100
AcDbXrecord
280
     1
102
RTVSPropertyOp0
 70
     1
102
RTVSPropertyOp1
 70
     1
102
RTVSPropertyOp2
 70
     1
102
RTVSPropertyOp3
 70
     1
102
RTVSPropertyOp4
 70
     1
102
RTVSPropertyOp5
 70
     1
102
RTVSPropertyOp6
 70
     1
102
RTVSPropertyOp7
 70
     1
102
RTVSPropertyOp8
 70
     1
102
RTVSPropertyOp9
 70
     1
102
RTVSPropertyOp10
 70
     1
102
RTVSPropertyOp11
 70
     1
102
RTVSPropertyOp12
 70
     1
102
RTVSPropertyOp13
 70
     1
102
RTVSPropertyOp14
 70
     1
102
RTVSPropertyOp15
 70
     1
102
RTVSPropertyOp16
 70
     1
102
RTVSPropertyOp17
 70
     1
102
RTVSPropertyOp18
 70
     1
102
RTVSPropertyOp19
 70
     1
102
RTVSPropertyOp20
 70
     1
102
RTVSPropertyOp21
 70
     1
102
RTVSPropertyOp22
 70
     1
102
RTVSPropertyOp23
 70
     1
102
RTVSPropertyOp24
 70
     1
102
RTVSPropertyOp25
 70
     1
102
RTVSPropertyOp26
 70
     1
102
RTVSPropertyOp27
 70
     1
102
RTVSPropertyOp28
 70
     1
102
RTVSPropertyOp29
 70
     1
102
RTVSPropertyOp30
 70
     1
102
RTVSPropertyOp31
 70
     1
102
RTVSPropertyOp32
 70
     1
  0
XRECORD
  5
9E
102
{ACAD_REACTORS
330
9D
102
}
330
9D
100
AcDbXrecord
280
     1
102
RTVSPropertyOp0
 70
     1
102
RTVSPropertyOp1
 70
     1
102
RTVSPropertyOp2
 70
     1
102
RTVSPropertyOp3
 70
     1
102
RTVSPropertyOp4
 70
     1
102
RTVSPropertyOp5
 70
     1
102
RTVSPropertyOp6
 70
     1
102
RTVSPropertyOp7
 70
     1
102
RTVSPropertyOp8
 70
     1
102
RTVSPropertyOp9
 70
     1
102
RTVSPropertyOp10
 70
     1
102
RTVSPropertyOp11
 70
     1
102
RTVSPropertyOp12
 70
     1
102
RTVSPropertyOp13
 70
     1
102
RTVSPropertyOp14
 70
     1
102
RTVSPropertyOp15
 70
     1
102
RTVSPropertyOp16
 70
     1
102
RTVSPropertyOp17
 70
     1
102
RTVSPropertyOp18
 70
     1
102
RTVSPropertyOp19
 70
     1
102
RTVSPropertyOp20
 70
     1
102
RTVSPropertyOp21
 70
     1
102
RTVSPropertyOp22
 70
     1
102
RTVSPropertyOp23
 70
     1
102
RTVSPropertyOp24
 70
     1
102
RTVSPropertyOp25
 70
     1
102
RTVSPropertyOp26
 70
     1
102
RTVSPropertyOp27
 70
     1
102
RTVSPropertyOp28
 70
     1
102
RTVSPropertyOp29
 70
     1
102
RTVSPropertyOp30
 70
     1
102
RTVSPropertyOp31
 70
     1
102
RTVSPropertyOp32
 70
     1
  0
XRECORD
  5
B2
102
{ACAD_REACTORS
330
B1
102
}
330
B1
100
AcDbXrecord
280
     1
102
RTVSPropertyOp0
 70
     1
102
RTVSPropertyOp1
 70
     1
102
RTVSPropertyOp2
 70
     1
102
RTVSPropertyOp3
 70
     1
102
RTVSPropertyOp4
 70
     1
102
RTVSPropertyOp5
 70
     1
102
RTVSPropertyOp6
 70
     1
102
RTVSPropertyOp7
 70
     1
102
RTVSPropertyOp8
 70
     1
102
RTVSPropertyOp9
 70
     1
102
RTVSPropertyOp10
 70
     1
102
RTVSPropertyOp11
 70
     1
102
RTVSPropertyOp12
 70
     1
102
RTVSPropertyOp13
 70
     1
102
RTVSPropertyOp14
 70
     1
102
RTVSPropertyOp15
 70
     1
102
RTVSPropertyOp16
 70
     1
102
RTVSPropertyOp17
 70
     1
102
RTVSPropertyOp18
 70
     1
102
RTVSPropertyOp19
 70
     1
102
RTVSPropertyOp20
 70
     1
102
RTVSPropertyOp21
 70
     1
102
RTVSPropertyOp22
 70
     1
102
RTVSPropertyOp23
 70
     1
102
RTVSPropertyOp24
 70
     1
102
RTVSPropertyOp25
 70
     1
102
RTVSPropertyOp26
 70
     1
102
RTVSPropertyOp27
 70
     1
102
RTVSPropertyOp28
 70
     1
102
RTVSPropertyOp29
 70
     1
102
RTVSPropertyOp30
 70
     1
102
RTVSPropertyOp31
 70
     1
102
RTVSPropertyOp32
 70
     1
  0
XRECORD
  5
A8
102
{ACAD_REACTORS
330
A7
102
}
330
A7
100
AcDbXrecord
280
     1
102
RTVSPropertyOp0
 70
     1
102
RTVSPropertyOp1
 70
     1
102
RTVSPropertyOp2
 70
     1
102
RTVSPropertyOp3
 70
     1
102
RTVSPropertyOp4
 70
     1
102
RTVSPropertyOp5
 70
     1
102
RTVSPropertyOp6
 70
     1
102
RTVSPropertyOp7
 70
     1
102
RTVSPropertyOp8
 70
     1
102
RTVSPropertyOp9
 70
     1
102
RTVSPropertyOp10
 70
     1
102
RTVSPropertyOp11
 70
     1
102
RTVSPropertyOp12
 70
     1
102
RTVSPropertyOp13
 70
     1
102
RTVSPropertyOp14
 70
     1
102
RTVSPropertyOp15
 70
     1
102
RTVSPropertyOp16
 70
     1
102
RTVSPropertyOp17
 70
     1
102
RTVSPropertyOp18
 70
     1
102
RTVSPropertyOp19
 70
     1
102
RTVSPropertyOp20
 70
     1
102
RTVSPropertyOp21
 70
     1
102
RTVSPropertyOp22
 70
     1
102
RTVSPropertyOp23
 70
     1
102
RTVSPropertyOp24
 70
     1
102
RTVSPropertyOp25
 70
     1
102
RTVSPropertyOp26
 70
     1
102
RTVSPropertyOp27
 70
     1
102
RTVSPropertyOp28
 70
     1
102
RTVSPropertyOp29
 70
     1
102
RTVSPropertyOp30
 70
     1
102
RTVSPropertyOp31
 70
     1
102
RTVSPropertyOp32
 70
     1
  0
XRECORD
  5
B0
102
{ACAD_REACTORS
330
AF
102
}
330
AF
100
AcDbXrecord
280
     1
102
RTVSPropertyOp0
 70
     1
102
RTVSPropertyOp1
 70
     1
102
RTVSPropertyOp2
 70
     1
102
RTVSPropertyOp3
 70
     1
102
RTVSPropertyOp4
 70
     1
102
RTVSPropertyOp5
 70
     1
102
RTVSPropertyOp6
 70
     1
102
RTVSPropertyOp7
 70
     1
102
RTVSPropertyOp8
 70
     1
102
RTVSPropertyOp9
 70
     1
102
RTVSPropertyOp10
 70
     1
102
RTVSPropertyOp11
 70
     1
102
RTVSPropertyOp12
 70
     1
102
RTVSPropertyOp13
 70
     1
102
RTVSPropertyOp14
 70
     1
102
RTVSPropertyOp15
 70
     1
102
RTVSPropertyOp16
 70
     1
102
RTVSPropertyOp17
 70
     1
102
RTVSPropertyOp18
 70
     1
102
RTVSPropertyOp19
 70
     1
102
RTVSPropertyOp20
 70
     1
102
RTVSPropertyOp21
 70
     1
102
RTVSPropertyOp22
 70
     1
102
RTVSPropertyOp23
 70
     1
102
RTVSPropertyOp24
 70
     1
102
RTVSPropertyOp25
 70
     1
102
RTVSPropertyOp26
 70
     1
102
RTVSPropertyOp27
 70
     1
102
RTVSPropertyOp28
 70
     1
102
RTVSPropertyOp29
 70
     1
102
RTVSPropertyOp30
 70
     1
102
RTVSPropertyOp31
 70
     1
102
RTVSPropertyOp32
 70
     1
  0
ENDSEC
  0
EOF
