  0
SECTION
  2
HEADER
  9
$ACADVER
  1
AC1021
  9
$ACADMAINTVER
 70
    25
  9
$DWGCODEPAGE
  3
ANSI_1252
  9
$INSBASE
 10
0.0
 20
0.0
 30
0.0
  9
$EXTMIN
 10
95.782
 20
-91.0504
 30
0.0
  9
$EXTMAX
 10
197.5663
 20
107.7826
 30
0.0
  9
$LIMMIN
 10
0.0
 20
0.0
  9
$LIMMAX
 10
12.0
 20
9.0
  9
$ORTHOMODE
 70
     0
  9
$REGENMODE
 70
     1
  9
$FILLMODE
 70
     1
  9
$QTEXTMODE
 70
     0
  9
$MIRRTEXT
 70
     1
  9
$LTSCALE
 40
1.0
  9
$ATTMODE
 70
     1
  9
$TEXTSIZE
 40
0.2
  9
$TRACEWID
 40
0.05
  9
$TEXTSTYLE
  7
Standard
  9
$CLAYER
  8
0
  9
$CELTYPE
  6
ByLayer
  9
$CECOLOR
 62
   256
  9
$CELTSCALE
 40
1.0
  9
$DISPSILH
 70
     0
  9
$DIMSCALE
 40
1.0
  9
$DIMASZ
 40
0.18
  9
$DIMEXO
 40
0.0625
  9
$DIMDLI
 40
0.38
  9
$DIMRND
 40
0.0
  9
$DIMDLE
 40
0.0
  9
$DIMEXE
 40
0.18
  9
$DIMTP
 40
0.0
  9
$DIMTM
 40
0.0
  9
$DIMTXT
 40
0.18
  9
$DIMCEN
 40
0.09
  9
$DIMTSZ
 40
0.0
  9
$DIMTOL
 70
     0
  9
$DIMLIM
 70
     0
  9
$DIMTIH
 70
     1
  9
$DIMTOH
 70
     1
  9
$DIMSE1
 70
     0
  9
$DIMSE2
 70
     0
  9
$DIMTAD
 70
     0
  9
$DIMZIN
 70
     0
  9
$DIMBLK
  1

  9
$DIMASO
 70
     1
  9
$DIMSHO
 70
     1
  9
$DIMPOST
  1

  9
$DIMAPOST
  1

  9
$DIMALT
 70
     0
  9
$DIMALTD
 70
     2
  9
$DIMALTF
 40
25.4
  9
$DIMLFAC
 40
1.0
  9
$DIMTOFL
 70
     0
  9
$DIMTVP
 40
0.0
  9
$DIMTIX
 70
     0
  9
$DIMSOXD
 70
     0
  9
$DIMSAH
 70
     0
  9
$DIMBLK1
  1

  9
$DIMBLK2
  1

  9
$DIMSTYLE
  2
Standard
  9
$DIMCLRD
 70
     0
  9
$DIMCLRE
 70
     0
  9
$DIMCLRT
 70
     0
  9
$DIMTFAC
 40
1.0
  9
$DIMGAP
 40
0.09
  9
$DIMJUST
 70
     0
  9
$DIMSD1
 70
     0
  9
$DIMSD2
 70
     0
  9
$DIMTOLJ
 70
     1
  9
$DIMTZIN
 70
     0
  9
$DIMALTZ
 70
     0
  9
$DIMALTTZ
 70
     0
  9
$DIMUPT
 70
     0
  9
$DIMDEC
 70
     4
  9
$DIMTDEC
 70
     4
  9
$DIMALTU
 70
     2
  9
$DIMALTTD
 70
     2
  9
$DIMTXSTY
  7
Standard
  9
$DIMAUNIT
 70
     0
  9
$DIMADEC
 70
     0
  9
$DIMALTRND
 40
0.0
  9
$DIMAZIN
 70
     0
  9
$DIMDSEP
 70
    46
  9
$DIMATFIT
 70
     3
  9
$DIMFRAC
 70
     0
  9
$DIMLDRBLK
  1

  9
$DIMLUNIT
 70
     2
  9
$DIMLWD
 70
    -2
  9
$DIMLWE
 70
    -2
  9
$DIMTMOVE
 70
     0
  9
$DIMFXL
 40
1.0
  9
$DIMFXLON
 70
     0
  9
$DIMJOGANG
 40
0.7853981633974483
  9
$DIMTFILL
 70
     0
  9
$DIMTFILLCLR
 70
     0
  9
$DIMARCSYM
 70
     0
  9
$DIMLTYPE
  6

  9
$DIMLTEX1
  6

  9
$DIMLTEX2
  6

  9
$LUNITS
 70
     2
  9
$LUPREC
 70
     4
  9
$SKETCHINC
 40
0.1
  9
$FILLETRAD
 40
0.5
  9
$AUNITS
 70
     0
  9
$AUPREC
 70
     0
  9
$MENU
  1
.
  9
$ELEVATION
 40
0.0
  9
$PELEVATION
 40
0.0
  9
$THICKNESS
 40
0.0
  9
$LIMCHECK
 70
     0
  9
$CHAMFERA
 40
0.5
  9
$CHAMFERB
 40
0.5
  9
$CHAMFERC
 40
1.0
  9
$CHAMFERD
 40
0.0
  9
$SKPOLY
 70
     0
  9
$TDCREATE
 40
2458492.812054595
  9
$TDUCREATE
 40
2458492.812054595
  9
$TDUPDATE
 40
2458492.812054815
  9
$TDUUPDATE
 40
2458492.812054815
  9
$TDINDWG
 40
0.0000000116
  9
$TDUSRTIMER
 40
0.0000000116
  9
$USRTIMER
 70
     1
  9
$ANGBASE
 50
0.0
  9
$ANGDIR
 70
     0
  9
$PDMODE
 70
     0
  9
$PDSIZE
 40
0.0
  9
$PLINEWID
 40
0.0
  9
$SPLFRAME
 70
     0
  9
$SPLINETYPE
 70
     6
  9
$SPLINESEGS
 70
     8
  9
$HANDSEED
  5
A7
  9
$SURFTAB1
 70
     6
  9
$SURFTAB2
 70
     6
  9
$SURFTYPE
 70
     6
  9
$SURFU
 70
     6
  9
$SURFV
 70
     6
  9
$UCSBASE
  2

  9
$UCSNAME
  2

  9
$UCSORG
 10
0.0
 20
0.0
 30
0.0
  9
$UCSXDIR
 10
1.0
 20
0.0
 30
0.0
  9
$UCSYDIR
 10
0.0
 20
1.0
 30
0.0
  9
$UCSORTHOREF
  2

  9
$UCSORTHOVIEW
 70
     0
  9
$UCSORGTOP
 10
0.0
 20
0.0
 30
0.0
  9
$UCSORGBOTTOM
 10
0.0
 20
0.0
 30
0.0
  9
$UCSORGLEFT
 10
0.0
 20
0.0
 30
0.0
  9
$UCSORGRIGHT
 10
0.0
 20
0.0
 30
0.0
  9
$UCSORGFRONT
 10
0.0
 20
0.0
 30
0.0
  9
$UCSORGBACK
 10
0.0
 20
0.0
 30
0.0
  9
$PUCSBASE
  2

  9
$PUCSNAME
  2

  9
$PUCSORG
 10
0.0
 20
0.0
 30
0.0
  9
$PUCSXDIR
 10
1.0
 20
0.0
 30
0.0
  9
$PUCSYDIR
 10
0.0
 20
1.0
 30
0.0
  9
$PUCSORTHOREF
  2

  9
$PUCSORTHOVIEW
 70
     0
  9
$PUCSORGTOP
 10
0.0
 20
0.0
 30
0.0
  9
$PUCSORGBOTTOM
 10
0.0
 20
0.0
 30
0.0
  9
$PUCSORGLEFT
 10
0.0
 20
0.0
 30
0.0
  9
$PUCSORGRIGHT
 10
0.0
 20
0.0
 30
0.0
  9
$PUCSORGFRONT
 10
0.0
 20
0.0
 30
0.0
  9
$PUCSORGBACK
 10
0.0
 20
0.0
 30
0.0
  9
$USERI1
 70
     0
  9
$USERI2
 70
     0
  9
$USERI3
 70
     0
  9
$USERI4
 70
     0
  9
$USERI5
 70
     0
  9
$USERR1
 40
0.0
  9
$USERR2
 40
0.0
  9
$USERR3
 40
0.0
  9
$USERR4
 40
0.0
  9
$USERR5
 40
0.0
  9
$WORLDVIEW
 70
     1
  9
$SHADEDGE
 70
     3
  9
$SHADEDIF
 70
    70
  9
$TILEMODE
 70
     1
  9
$MAXACTVP
 70
    64
  9
$PINSBASE
 10
0.0
 20
0.0
 30
0.0
  9
$PLIMCHECK
 70
     0
  9
$PEXTMIN
 10
1.000000000000000E+20
 20
1.000000000000000E+20
 30
1.000000000000000E+20
  9
$PEXTMAX
 10
-1.000000000000000E+20
 20
-1.000000000000000E+20
 30
-1.000000000000000E+20
  9
$PLIMMIN
 10
0.0
 20
0.0
  9
$PLIMMAX
 10
12.0
 20
9.0
  9
$UNITMODE
 70
     0
  9
$VISRETAIN
 70
     1
  9
$PLINEGEN
 70
     0
  9
$PSLTSCALE
 70
     1
  9
$TREEDEPTH
 70
  3020
  9
$CMLSTYLE
  2
Standard
  9
$CMLJUST
 70
     0
  9
$CMLSCALE
 40
1.0
  9
$PROXYGRAPHICS
 70
     1
  9
$MEASUREMENT
 70
     0
  9
$CELWEIGHT
370
    -1
  9
$ENDCAPS
280
     0
  9
$JOINSTYLE
280
     0
  9
$LWDISPLAY
290
     0
  9
$INSUNITS
 70
     4
  9
$HYPERLINKBASE
  1

  9
$STYLESHEET
  1

  9
$XEDIT
290
     1
  9
$CEPSNTYPE
380
     0
  9
$PSTYLEMODE
290
     1
  9
$FINGERPRINTGUID
  2
{376DE60E-1AED-4478-B9CF-DFC40BF99375}
  9
$VERSIONGUID
  2
{FAEB1C32-E019-11D5-929B-00C0DF256EC4}
  9
$EXTNAMES
290
     1
  9
$PSVPSCALE
 40
0.0
  9
$OLESTARTUP
290
     0
  9
$SORTENTS
280
   127
  9
$INDEXCTL
280
     0
  9
$HIDETEXT
280
     1
  9
$XCLIPFRAME
290
     0
  9
$HALOGAP
280
     0
  9
$OBSCOLOR
 70
   257
  9
$OBSLTYPE
280
     0
  9
$INTERSECTIONDISPLAY
280
     0
  9
$INTERSECTIONCOLOR
 70
   257
  9
$DIMASSOC
280
     2
  9
$PROJECTNAME
  1

  9
$CAMERADISPLAY
290
     0
  9
$LENSLENGTH
 40
50.0
  9
$CAMERAHEIGHT
 40
0.0
  9
$STEPSPERSEC
 40
2.0
  9
$STEPSIZE
 40
6.0
  9
$3DDWFPREC
 40
2.0
  9
$PSOLWIDTH
 40
0.25
  9
$PSOLHEIGHT
 40
4.0
  9
$LOFTANG1
 40
1.570796326794897
  9
$LOFTANG2
 40
1.570796326794897
  9
$LOFTMAG1
 40
0.0
  9
$LOFTMAG2
 40
0.0
  9
$LOFTPARAM
 70
     7
  9
$LOFTNORMALS
280
     1
  9
$LATITUDE
 40
37.795
  9
$LONGITUDE
 40
-122.394
  9
$NORTHDIRECTION
 40
0.0
  9
$TIMEZONE
 70
 -8000
  9
$LIGHTGLYPHDISPLAY
280
     1
  9
$TILEMODELIGHTSYNCH
280
     1
  9
$SOLIDHIST
280
     1
  9
$SHOWHIST
280
     1
  9
$DWFFRAME
280
     2
  9
$DGNFRAME
280
     2
  9
$REALWORLDSCALE
290
     1
  9
$INTERFERECOLOR
 62
   256
  9
$CSHADOW
280
     0
  9
$SHADOWPLANELOCATION
 40
0.0
  0
ENDSEC
  0
SECTION
  2
CLASSES
  0
CLASS
  1
ACDBDICTIONARYWDFLT
  2
AcDbDictionaryWithDefault
  3
ObjectDBX Classes
 90
        0
 91
        4
280
     0
281
     0
  0
CLASS
  1
VISUALSTYLE
  2
AcDbVisualStyle
  3
ObjectDBX Classes
 90
     4095
 91
        4
280
     0
281
     0
  0
CLASS
  1
MATERIAL
  2
AcDbMaterial
  3
ObjectDBX Classes
 90
     1153
 91
        4
280
     0
281
     0
  0
ENDSEC
  0
SECTION
  2
TABLES
  0
TABLE
  2
VPORT
  5
8
330
0
100
AcDbSymbolTable
 70
     1
  0
VPORT
  5
29
330
8
100
AcDbSymbolTableRecord
100
AcDbViewportTableRecord
  2
*Active
 70
     0
 10
0.0
 20
0.0
 11
1.0
 21
1.0
 12
10.42990654205607
 22
4.5
 13
0.0
 23
0.0
 14
0.5
 24
0.5
 15
0.5
 25
0.5
 16
0.0
 26
0.0
 36
1.0
 17
0.0
 27
0.0
 37
0.0
 40
9.0
 41
1.972972972850329
 42
50.0
 43
0.0
 44
0.0
 50
0.0
 51
0.0
 71
     0
 72
   100
 73
     1
 74
     3
 75
     0
 76
     0
 77
     0
 78
     0
281
     0
 65
     1
110
0.0
120
0.0
130
0.0
111
1.0
121
0.0
131
0.0
112
0.0
122
1.0
132
0.0
 79
     0
146
0.0
 60
     3
 61
     5
292
     1
282
     1
141
0.0
142
0.0
 63
   250
  0
ENDTAB
  0
TABLE
  2
LTYPE
  5
5
330
0
100
AcDbSymbolTable
 70
     1
  0
LTYPE
  5
14
330
5
100
AcDbSymbolTableRecord
100
AcDbLinetypeTableRecord
  2
ByBlock
 70
     0
  3

 72
    65
 73
     0
 40
0.0
  0
LTYPE
  5
15
330
5
100
AcDbSymbolTableRecord
100
AcDbLinetypeTableRecord
  2
ByLayer
 70
     0
  3

 72
    65
 73
     0
 40
0.0
  0
LTYPE
  5
16
330
5
100
AcDbSymbolTableRecord
100
AcDbLinetypeTableRecord
  2
Continuous
 70
     0
  3
Solid line
 72
    65
 73
     0
 40
0.0
  0
ENDTAB
  0
TABLE
  2
LAYER
  5
2
330
0
100
AcDbSymbolTable
 70
     2
  0
LAYER
  5
10
330
2
100
AcDbSymbolTableRecord
100
AcDbLayerTableRecord
  2
0
 70
     0
 62
     7
  6
Continuous
370
    -3
390
F
347
3E
  0
LAYER
  5
40
330
2
100
AcDbSymbolTableRecord
100
AcDbLayerTableRecord
  2
layer 1
 70
     0
 62
     7
  6
Continuous
370
    -3
390
F
347
3E
  0
ENDTAB
  0
TABLE
  2
STYLE
  5
3
330
0
100
AcDbSymbolTable
 70
     1
  0
STYLE
  5
11
330
3
100
AcDbSymbolTableRecord
100
AcDbTextStyleTableRecord
  2
Standard
 70
     0
 40
0.0
 41
1.0
 50
0.0
 71
     0
 42
0.2
  3
txt
  4

  0
ENDTAB
  0
TABLE
  2
VIEW
  5
6
330
0
100
AcDbSymbolTable
 70
     0
  0
ENDTAB
  0
TABLE
  2
UCS
  5
7
330
0
100
AcDbSymbolTable
 70
     0
  0
ENDTAB
  0
TABLE
  2
APPID
  5
9
330
0
100
AcDbSymbolTable
 70
     2
  0
APPID
  5
12
330
9
100
AcDbSymbolTableRecord
100
AcDbRegAppTableRecord
  2
ACAD
 70
     0
  0
APPID
  5
3F
330
9
100
AcDbSymbolTableRecord
100
AcDbRegAppTableRecord
  2
ODA
 70
     0
  0
ENDTAB
  0
TABLE
  2
DIMSTYLE
  5
A
330
0
100
AcDbSymbolTable
 70
     1
100
AcDbDimStyleTable
  0
DIMSTYLE
105
27
330
A
100
AcDbSymbolTableRecord
100
AcDbDimStyleTableRecord
  2
Standard
 70
     0
178
     0
340
11
  0
ENDTAB
  0
TABLE
  2
BLOCK_RECORD
  5
1
330
0
100
AcDbSymbolTable
 70
     1
  0
BLOCK_RECORD
  5
1F
330
1
100
AcDbSymbolTableRecord
100
AcDbBlockTableRecord
  2
*Model_Space
340
22
 70
     0
280
     1
281
     0
  0
BLOCK_RECORD
  5
1B
330
1
100
AcDbSymbolTableRecord
100
AcDbBlockTableRecord
  2
*Paper_Space
340
1E
 70
     0
280
     1
281
     0
  0
BLOCK_RECORD
  5
23
330
1
100
AcDbSymbolTableRecord
100
AcDbBlockTableRecord
  2
*Paper_Space0
340
26
 70
     0
280
     1
281
     0
  0
ENDTAB
  0
ENDSEC
  0
SECTION
  2
BLOCKS
  0
BLOCK
  5
20
330
1F
100
AcDbEntity
  8
0
100
AcDbBlockBegin
  2
*Model_Space
 70
     0
 10
0.0
 20
0.0
 30
0.0
  3
*Model_Space
  1

  0
ENDBLK
  5
21
330
1F
100
AcDbEntity
  8
0
100
AcDbBlockEnd
  0
BLOCK
  5
1C
330
1B
100
AcDbEntity
 67
     1
  8
0
100
AcDbBlockBegin
  2
*Paper_Space
 70
     0
 10
0.0
 20
0.0
 30
0.0
  3
*Paper_Space
  1

  0
ENDBLK
  5
1D
330
1B
100
AcDbEntity
 67
     1
  8
0
100
AcDbBlockEnd
  0
BLOCK
  5
24
330
23
100
AcDbEntity
  8
0
100
AcDbBlockBegin
  2
*Paper_Space0
 70
     0
 10
0.0
 20
0.0
 30
0.0
  3
*Paper_Space0
  1

  0
ENDBLK
  5
25
330
23
100
AcDbEntity
  8
0
100
AcDbBlockEnd
  0
ENDSEC
  0
SECTION
  2
ENTITIES
  0
SPLINE
  5
41
330
1F
100
AcDbEntity
  8
layer 1
 62
   250
100
AcDbSpline
210
0.0
220
0.0
230
1.0
 70
    11
 71
     3
 72
    20
 73
    16
 74
     0
 42
0.0000000001
 43
0.0000000001
 12
1.0
 22
0.0
 32
0.0
 13
1.0
 23
0.0
 33
0.0
 40
0.0
 40
0.0
 40
0.0
 40
0.0
 40
0.2
 40
0.2
 40
0.2
 40
0.2
 40
0.4
 40
0.4
 40
0.4
 40
0.4
 40
0.6
 40
0.6
 40
0.6
 40
0.6
 40
1.0
 40
1.0
 40
1.0
 40
1.0
 10
95.782
 20
107.7826
 30
0.0
 10
95.782
 20
107.7826
 30
0.0
 10
197.5663
 20
107.7826
 30
0.0
 10
197.5663
 20
107.7826
 30
0.0
 10
197.5663
 20
107.7826
 30
0.0
 10
197.5663
 20
107.7826
 30
0.0
 10
197.5663
 20
-91.0504
 30
0.0
 10
197.5663
 20
-91.0504
 30
0.0
 10
197.5663
 20
-91.0504
 30
0.0
 10
197.5663
 20
-91.0504
 30
0.0
 10
95.7821
 20
-91.0504
 30
0.0
 10
95.7821
 20
-91.0504
 30
0.0
 10
95.7821
 20
-91.0504
 30
0.0
 10
95.7821
 20
-91.0504
 30
0.0
 10
95.782
 20
107.7826
 30
0.0
 10
95.782
 20
107.7826
 30
0.0
  0
SPLINE
  5
42
330
1F
100
AcDbEntity
  8
layer 1
 62
     7
100
AcDbSpline
210
0.0
220
0.0
230
1.0
 70
    11
 71
     3
 72
    16
 73
    12
 74
     0
 42
0.0000000001
 43
0.0000000001
 12
1.0
 22
0.0
 32
0.0
 13
1.0
 23
0.0
 33
0.0
 40
0.0
 40
0.0
 40
0.0
 40
0.0
 40
0.25
 40
0.25
 40
0.25
 40
0.25
 40
0.5
 40
0.5
 40
0.5
 40
0.5
 40
1.0
 40
1.0
 40
1.0
 40
1.0
 10
165.2326
 20
-85.9273
 30
0.0
 10
165.073
 20
-81.8963
 30
0.0
 10
162.4152
 20
-76.4096
 30
0.0
 10
159.3494
 20
-73.8858
 30
0.0
 10
159.3494
 20
-73.8858
 30
0.0
 10
154.9949
 20
-75.6092
 30
0.0
 10
152.4431
 20
-81.6379
 30
0.0
 10
151.3811
 20
-85.9273
 30
0.0
 10
151.3811
 20
-85.9273
 30
0.0
 10
151.3811
 20
-85.9273
 30
0.0
 10
165.2326
 20
-85.9273
 30
0.0
 10
165.2326
 20
-85.9273
 30
0.0
  0
SPLINE
  5
43
330
1F
100
AcDbEntity
  8
layer 1
 62
     7
100
AcDbSpline
210
0.0
220
0.0
230
1.0
 70
    11
 71
     3
 72
    24
 73
    20
 74
     0
 42
0.0000000001
 43
0.0000000001
 12
1.0
 22
0.0
 32
0.0
 13
1.0
 23
0.0
 33
0.0
 40
0.0
 40
0.0
 40
0.0
 40
0.0
 40
0.1666666666666667
 40
0.1666666666666667
 40
0.1666666666666667
 40
0.1666666666666667
 40
0.3333333333333333
 40
0.3333333333333333
 40
0.3333333333333333
 40
0.3333333333333333
 40
0.5
 40
0.5
 40
0.5
 40
0.5
 40
0.6666666666666666
 40
0.6666666666666666
 40
0.6666666666666666
 40
0.6666666666666666
 40
1.0
 40
1.0
 40
1.0
 40
1.0
 10
173.4533
 20
-85.9273
 30
0.0
 10
173.4533
 20
-85.9273
 30
0.0
 10
177.7534
 20
-85.9273
 30
0.0
 10
177.7534
 20
-85.9273
 30
0.0
 10
177.7534
 20
-85.9273
 30
0.0
 10
175.1491
 20
-85.4793
 30
0.0
 10
174.1374
 20
-84.5119
 30
0.0
 10
173.1297
 20
-82.8987
 30
0.0
 10
173.1297
 20
-82.8987
 30
0.0
 10
176.3533
 20
-81.0981
 30
0.0
 10
179.0543
 20
-76.3149
 30
0.0
 10
175.1243
 20
-72.1046
 30
0.0
 10
175.1243
 20
-72.1046
 30
0.0
 10
172.7043
 20
-70.0093
 30
0.0
 10
167.5639
 20
-68.4178
 30
0.0
 10
163.3968
 20
-71.3886
 30
0.0
 10
163.3968
 20
-71.3886
 30
0.0
 10
167.1477
 20
-75.1126
 30
0.0
 10
171.0582
 20
-80.0709
 30
0.0
 10
173.4533
 20
-85.9273
 30
0.0
  0
SPLINE
  5
44
330
1F
100
AcDbEntity
  8
layer 1
 62
     7
100
AcDbSpline
210
0.0
220
0.0
230
1.0
 70
    11
 71
     3
 72
    16
 73
    12
 74
     0
 42
0.0000000001
 43
0.0000000001
 12
1.0
 22
0.0
 32
0.0
 13
1.0
 23
0.0
 33
0.0
 40
0.0
 40
0.0
 40
0.0
 40
0.0
 40
0.25
 40
0.25
 40
0.25
 40
0.25
 40
0.5
 40
0.5
 40
0.5
 40
0.5
 40
1.0
 40
1.0
 40
1.0
 40
1.0
 10
191.7873
 20
-79.9751
 30
0.0
 10
190.2543
 20
-83.6321
 30
0.0
 10
188.0796
 20
-85.0578
 30
0.0
 10
185.1932
 20
-85.8677
 30
0.0
 10
185.1932
 20
-85.8677
 30
0.0
 10
185.1932
 20
-85.8677
 30
0.0
 10
191.7675
 20
-85.9656
 30
0.0
 10
191.7675
 20
-85.9656
 30
0.0
 10
191.7675
 20
-85.9656
 30
0.0
 10
191.7675
 20
-85.9656
 30
0.0
 10
191.7873
 20
-79.9751
 30
0.0
 10
191.7873
 20
-79.9751
 30
0.0
  0
SPLINE
  5
45
330
1F
100
AcDbEntity
  8
layer 1
 62
     7
100
AcDbSpline
210
0.0
220
0.0
230
1.0
 70
    11
 71
     3
 72
    88
 73
    84
 74
     0
 42
0.0000000001
 43
0.0000000001
 12
1.0
 22
0.0
 32
0.0
 13
1.0
 23
0.0
 33
0.0
 40
0.0
 40
0.0
 40
0.0
 40
0.0
 40
0.0454545454545455
 40
0.0454545454545455
 40
0.0454545454545455
 40
0.0454545454545455
 40
0.0909090909090909
 40
0.0909090909090909
 40
0.0909090909090909
 40
0.0909090909090909
 40
0.1363636363636364
 40
0.1363636363636364
 40
0.1363636363636364
 40
0.1363636363636364
 40
0.1818181818181818
 40
0.1818181818181818
 40
0.1818181818181818
 40
0.1818181818181818
 40
0.2272727272727273
 40
0.2272727272727273
 40
0.2272727272727273
 40
0.2272727272727273
 40
0.2727272727272727
 40
0.2727272727272727
 40
0.2727272727272727
 40
0.2727272727272727
 40
0.3181818181818182
 40
0.3181818181818182
 40
0.3181818181818182
 40
0.3181818181818182
 40
0.3636363636363636
 40
0.3636363636363636
 40
0.3636363636363636
 40
0.3636363636363636
 40
0.4090909090909091
 40
0.4090909090909091
 40
0.4090909090909091
 40
0.4090909090909091
 40
0.4545454545454545
 40
0.4545454545454545
 40
0.4545454545454545
 40
0.4545454545454545
 40
0.5
 40
0.5
 40
0.5
 40
0.5
 40
0.5454545454545454
 40
0.5454545454545454
 40
0.5454545454545454
 40
0.5454545454545454
 40
0.5909090909090909
 40
0.5909090909090909
 40
0.5909090909090909
 40
0.5909090909090909
 40
0.6363636363636364
 40
0.6363636363636364
 40
0.6363636363636364
 40
0.6363636363636364
 40
0.6818181818181818
 40
0.6818181818181818
 40
0.6818181818181818
 40
0.6818181818181818
 40
0.7272727272727273
 40
0.7272727272727273
 40
0.7272727272727273
 40
0.7272727272727273
 40
0.7727272727272727
 40
0.7727272727272727
 40
0.7727272727272727
 40
0.7727272727272727
 40
0.8181818181818182
 40
0.8181818181818182
 40
0.8181818181818182
 40
0.8181818181818182
 40
0.8636363636363636
 40
0.8636363636363636
 40
0.8636363636363636
 40
0.8636363636363636
 40
0.9090909090909091
 40
0.9090909090909091
 40
0.9090909090909091
 40
0.9090909090909091
 40
1.0
 40
1.0
 40
1.0
 40
1.0
 10
189.8257
 20
-76.6085
 30
0.0
 10
189.8257
 20
-73.7405
 30
0.0
 10
188.0601
 20
-71.8359
 30
0.0
 10
186.4345
 20
-73.3232
 30
0.0
 10
186.4345
 20
-73.3232
 30
0.0
 10
184.9973
 20
-75.0024
 30
0.0
 10
185.5792
 20
-77.3174
 30
0.0
 10
186.3757
 20
-79.1088
 30
0.0
 10
186.3757
 20
-79.1088
 30
0.0
 10
182.1459
 20
-76.2685
 30
0.0
 10
181.8513
 20
-67.2866
 30
0.0
 10
184.6399
 20
-63.8817
 30
0.0
 10
184.6399
 20
-63.8817
 30
0.0
 10
184.2021
 20
-63.6963
 30
0.0
 10
183.1203
 20
-62.9413
 30
0.0
 10
182.6372
 20
-63.2235
 30
0.0
 10
182.6372
 20
-63.2235
 30
0.0
 10
183.8508
 20
-66.5561
 30
0.0
 10
178.733
 20
-66.7932
 30
0.0
 10
178.664
 20
-63.1947
 30
0.0
 10
178.664
 20
-63.1947
 30
0.0
 10
178.5577
 20
-60.4442
 30
0.0
 10
182.7772
 20
-58.8033
 30
0.0
 10
185.9935
 20
-62.0276
 30
0.0
 10
185.9935
 20
-62.0276
 30
0.0
 10
186.9309
 20
-60.5657
 30
0.0
 10
188.6988
 20
-59.4388
 30
0.0
 10
191.7026
 20
-58.5435
 30
0.0
 10
191.7026
 20
-58.5435
 30
0.0
 10
189.9658
 20
-58.0748
 30
0.0
 10
187.4171
 20
-56.0136
 30
0.0
 10
185.9925
 20
-54.8269
 30
0.0
 10
185.9925
 20
-54.8269
 30
0.0
 10
182.5496
 20
-57.7112
 30
0.0
 10
178.0809
 20
-55.8023
 30
0.0
 10
178.7824
 20
-52.849
 30
0.0
 10
178.7824
 20
-52.849
 30
0.0
 10
179.4056
 20
-50.7998
 30
0.0
 10
181.4692
 20
-50.6906
 30
0.0
 10
182.3054
 20
-51.5963
 30
0.0
 10
182.3054
 20
-51.5963
 30
0.0
 10
182.5517
 20
-51.8682
 30
0.0
 10
182.904
 20
-53.1063
 30
0.0
 10
182.4621
 20
-53.6522
 30
0.0
 10
182.4621
 20
-53.6522
 30
0.0
 10
183.4479
 20
-53.783
 30
0.0
 10
184.0621
 20
-53.5277
 30
0.0
 10
184.6902
 20
-52.9436
 30
0.0
 10
184.6902
 20
-52.9436
 30
0.0
 10
182.2561
 20
-49.7243
 30
0.0
 10
181.0694
 20
-41.2821
 30
0.0
 10
186.3675
 20
-37.3933
 30
0.0
 10
186.3675
 20
-37.3933
 30
0.0
 10
184.5112
 20
-41.1357
 30
0.0
 10
185.5671
 20
-42.3771
 30
0.0
 10
186.5692
 20
-43.4713
 30
0.0
 10
186.5692
 20
-43.4713
 30
0.0
 10
188.9821
 20
-44.8022
 30
0.0
 10
189.8051
 20
-41.895
 30
0.0
 10
189.8391
 20
-40.1428
 30
0.0
 10
189.8391
 20
-40.1428
 30
0.0
 10
190.1635
 20
-34.1687
 30
0.0
 10
181.9296
 20
-31.9582
 30
0.0
 10
177.988
 20
-35.1042
 30
0.0
 10
177.988
 20
-35.1042
 30
0.0
 10
182.5631
 20
-43.7051
 30
0.0
 10
176.4479
 20
-51.3262
 30
0.0
 10
167.3495
 20
-49.9293
 30
0.0
 10
167.3495
 20
-49.9293
 30
0.0
 10
170.3681
 20
-50.7165
 30
0.0
 10
172.0791
 20
-57.3783
 30
0.0
 10
168.014
 20
-58.3315
 30
0.0
 10
168.014
 20
-58.3315
 30
0.0
 10
171.7803
 20
-59.4789
 30
0.0
 10
171.6516
 20
-64.6297
 30
0.0
 10
169.0566
 20
-66.4254
 30
0.0
 10
169.0566
 20
-66.4254
 30
0.0
 10
178.5176
 20
-67.3123
 30
0.0
 10
181.8924
 20
-74.8367
 30
0.0
 10
177.3535
 20
-82.4866
 30
0.0
 10
177.3535
 20
-82.4866
 30
0.0
 10
182.1767
 20
-84.7118
 30
0.0
 10
189.2199
 20
-82.6206
 30
0.0
 10
189.8257
 20
-76.6085
 30
0.0
  0
SPLINE
  5
46
330
1F
100
AcDbEntity
  8
layer 1
 62
     7
100
AcDbSpline
210
0.0
220
0.0
230
1.0
 70
    11
 71
     3
 72
    16
 73
    12
 74
     0
 42
0.0000000001
 43
0.0000000001
 12
1.0
 22
0.0
 32
0.0
 13
1.0
 23
0.0
 33
0.0
 40
0.0
 40
0.0
 40
0.0
 40
0.0
 40
0.25
 40
0.25
 40
0.25
 40
0.25
 40
0.5
 40
0.5
 40
0.5
 40
0.5
 40
1.0
 40
1.0
 40
1.0
 40
1.0
 10
157.5116
 20
-71.4648
 30
0.0
 10
157.0408
 20
-71.1177
 30
0.0
 10
156.1434
 20
-70.1051
 30
0.0
 10
155.9055
 20
-70.2164
 30
0.0
 10
155.9055
 20
-70.2164
 30
0.0
 10
153.3559
 20
-73.0534
 30
0.0
 10
150.9916
 20
-76.8289
 30
0.0
 10
150.3426
 20
-80.6334
 30
0.0
 10
150.3426
 20
-80.6334
 30
0.0
 10
153.2725
 20
-75.0437
 30
0.0
 10
154.4695
 20
-74.2597
 30
0.0
 10
157.5116
 20
-71.4648
 30
0.0
  0
SPLINE
  5
47
330
1F
100
AcDbEntity
  8
layer 1
 62
     7
100
AcDbSpline
210
0.0
220
0.0
230
1.0
 70
    11
 71
     3
 72
    20
 73
    16
 74
     0
 42
0.0000000001
 43
0.0000000001
 12
1.0
 22
0.0
 32
0.0
 13
1.0
 23
0.0
 33
0.0
 40
0.0
 40
0.0
 40
0.0
 40
0.0
 40
0.2
 40
0.2
 40
0.2
 40
0.2
 40
0.4
 40
0.4
 40
0.4
 40
0.4
 40
0.6
 40
0.6
 40
0.6
 40
0.6
 40
1.0
 40
1.0
 40
1.0
 40
1.0
 10
165.7231
 20
-66.9354
 30
0.0
 10
163.0919
 20
-67.4987
 30
0.0
 10
160.8472
 20
-65.4375
 30
0.0
 10
160.2137
 20
-64.262
 30
0.0
 10
160.2137
 20
-64.262
 30
0.0
 10
159.8213
 20
-64.9501
 30
0.0
 10
158.8518
 20
-66.2215
 30
0.0
 10
158.2419
 20
-66.9857
 30
0.0
 10
158.2419
 20
-66.9857
 30
0.0
 10
159.2329
 20
-67.9581
 30
0.0
 10
160.4228
 20
-68.7174
 30
0.0
 10
161.2335
 20
-69.523
 30
0.0
 10
161.2335
 20
-69.523
 30
0.0
 10
162.477
 20
-68.5536
 30
0.0
 10
164.1273
 20
-67.3505
 30
0.0
 10
165.7231
 20
-66.9354
 30
0.0
  0
SPLINE
  5
48
330
1F
100
AcDbEntity
  8
layer 1
 62
     7
100
AcDbSpline
210
0.0
220
0.0
230
1.0
 70
    11
 71
     3
 72
    16
 73
    12
 74
     0
 42
0.0000000001
 43
0.0000000001
 12
1.0
 22
0.0
 32
0.0
 13
1.0
 23
0.0
 33
0.0
 40
0.0
 40
0.0
 40
0.0
 40
0.0
 40
0.25
 40
0.25
 40
0.25
 40
0.25
 40
0.5
 40
0.5
 40
0.5
 40
0.5
 40
1.0
 40
1.0
 40
1.0
 40
1.0
 10
155.4274
 20
-51.3262
 30
0.0
 10
153.083
 20
-52.1556
 30
0.0
 10
150.802
 20
-56.9271
 30
0.0
 10
150.7403
 20
-59.1297
 30
0.0
 10
150.7403
 20
-59.1297
 30
0.0
 10
151.9023
 20
-61.3136
 30
0.0
 10
153.6979
 20
-64.1993
 30
0.0
 10
155.785
 20
-65.184
 30
0.0
 10
155.785
 20
-65.184
 30
0.0
 10
158.5531
 20
-61.836
 30
0.0
 10
159.1949
 20
-54.7815
 30
0.0
 10
155.4274
 20
-51.3262
 30
0.0
  0
SPLINE
  5
49
330
1F
100
AcDbEntity
  8
layer 1
 62
     7
100
AcDbSpline
210
0.0
220
0.0
230
1.0
 70
    11
 71
     3
 72
    20
 73
    16
 74
     0
 42
0.0000000001
 43
0.0000000001
 12
1.0
 22
0.0
 32
0.0
 13
1.0
 23
0.0
 33
0.0
 40
0.0
 40
0.0
 40
0.0
 40
0.0
 40
0.2
 40
0.2
 40
0.2
 40
0.2
 40
0.4
 40
0.4
 40
0.4
 40
0.4
 40
0.6
 40
0.6
 40
0.6
 40
0.6
 40
1.0
 40
1.0
 40
1.0
 40
1.0
 10
166.5831
 20
-63.3421
 30
0.0
 10
163.8222
 20
-62.3717
 30
0.0
 10
164.3301
 20
-58.5198
 30
0.0
 10
166.5512
 20
-58.2911
 30
0.0
 10
166.5512
 20
-58.2911
 30
0.0
 10
164.2057
 20
-57.4641
 30
0.0
 10
164.1004
 20
-54.2541
 30
0.0
 10
166.8716
 20
-53.5647
 30
0.0
 10
166.8716
 20
-53.5647
 30
0.0
 10
164.8001
 20
-52.581
 30
0.0
 10
161.112
 20
-53.4122
 30
0.0
 10
160.1414
 20
-57.4535
 30
0.0
 10
160.1414
 20
-57.4535
 30
0.0
 10
159.3793
 20
-60.6277
 30
0.0
 10
162.8097
 20
-64.7597
 30
0.0
 10
166.5831
 20
-63.3421
 30
0.0
  0
SPLINE
  5
4A
330
1F
100
AcDbEntity
  8
layer 1
 62
     7
100
AcDbSpline
210
0.0
220
0.0
230
1.0
 70
    11
 71
     3
 72
    16
 73
    12
 74
     0
 42
0.0000000001
 43
0.0000000001
 12
1.0
 22
0.0
 32
0.0
 13
1.0
 23
0.0
 33
0.0
 40
0.0
 40
0.0
 40
0.0
 40
0.0
 40
0.25
 40
0.25
 40
0.25
 40
0.25
 40
0.5
 40
0.5
 40
0.5
 40
0.5
 40
1.0
 40
1.0
 40
1.0
 40
1.0
 10
191.7873
 20
-43.9388
 30
0.0
 10
190.7201
 20
-45.5892
 30
0.0
 10
189.3663
 20
-48.0925
 30
0.0
 10
189.4436
 20
-50.674
 30
0.0
 10
189.4436
 20
-50.674
 30
0.0
 10
189.494
 20
-53.913
 30
0.0
 10
190.5499
 20
-56.5358
 30
0.0
 10
191.7873
 20
-57.673
 30
0.0
 10
191.7873
 20
-57.673
 30
0.0
 10
191.7873
 20
-57.673
 30
0.0
 10
191.7873
 20
-43.9388
 30
0.0
 10
191.7873
 20
-43.9388
 30
0.0
  0
SPLINE
  5
4B
330
1F
100
AcDbEntity
  8
layer 1
 62
     7
100
AcDbSpline
210
0.0
220
0.0
230
1.0
 70
    11
 71
     3
 72
    20
 73
    16
 74
     0
 42
0.0000000001
 43
0.0000000001
 12
1.0
 22
0.0
 32
0.0
 13
1.0
 23
0.0
 33
0.0
 40
0.0
 40
0.0
 40
0.0
 40
0.0
 40
0.2
 40
0.2
 40
0.2
 40
0.2
 40
0.4
 40
0.4
 40
0.4
 40
0.4
 40
0.6
 40
0.6
 40
0.6
 40
0.6
 40
1.0
 40
1.0
 40
1.0
 40
1.0
 10
165.6189
 20
-49.6513
 30
0.0
 10
164.4836
 20
-49.2865
 30
0.0
 10
161.3643
 20
-47.2325
 30
0.0
 10
160.84
 20
-46.8008
 30
0.0
 10
160.84
 20
-46.8008
 30
0.0
 10
160.4558
 20
-47.3033
 30
0.0
 10
158.7746
 20
-49.0445
 30
0.0
 10
157.5918
 20
-49.9385
 30
0.0
 10
157.5918
 20
-49.9385
 30
0.0
 10
158.145
 20
-50.5793
 30
0.0
 10
159.3782
 20
-52.1195
 30
0.0
 10
159.5821
 20
-53.2361
 30
0.0
 10
159.5821
 20
-53.2361
 30
0.0
 10
160.1921
 20
-51.0358
 30
0.0
 10
162.8559
 20
-49.7541
 30
0.0
 10
165.6189
 20
-49.6513
 30
0.0
  0
SPLINE
  5
4C
330
1F
100
AcDbEntity
  8
layer 1
 62
     7
100
AcDbSpline
210
0.0
220
0.0
230
1.0
 70
    11
 71
     3
 72
    32
 73
    28
 74
     0
 42
0.0000000001
 43
0.0000000001
 12
1.0
 22
0.0
 32
0.0
 13
1.0
 23
0.0
 33
0.0
 40
0.0
 40
0.0
 40
0.0
 40
0.0
 40
0.125
 40
0.125
 40
0.125
 40
0.125
 40
0.25
 40
0.25
 40
0.25
 40
0.25
 40
0.375
 40
0.375
 40
0.375
 40
0.375
 40
0.5
 40
0.5
 40
0.5
 40
0.5
 40
0.625
 40
0.625
 40
0.625
 40
0.625
 40
0.75
 40
0.75
 40
0.75
 40
0.75
 40
1.0
 40
1.0
 40
1.0
 40
1.0
 10
173.8705
 20
-32.7842
 30
0.0
 10
179.1152
 20
-28.3813
 30
0.0
 10
191.7873
 20
-30.8548
 30
0.0
 10
191.8603
 20
-39.3495
 30
0.0
 10
191.8603
 20
-39.3495
 30
0.0
 10
191.8603
 20
-39.3495
 30
0.0
 10
191.7873
 20
-25.1383
 30
0.0
 10
191.7873
 20
-25.1383
 30
0.0
 10
191.7873
 20
-25.1383
 30
0.0
 10
188.7616
 20
-32.9532
 30
0.0
 10
177.7285
 20
-30.8094
 30
0.0
 10
178.9628
 20
-22.8392
 30
0.0
 10
178.9628
 20
-22.8392
 30
0.0
 10
177.165
 20
-24.5821
 30
0.0
 10
175.1222
 20
-24.132
 30
0.0
 10
173.275
 20
-22.259
 30
0.0
 10
173.275
 20
-22.259
 30
0.0
 10
175.2633
 20
-31.4832
 30
0.0
 10
169.819
 20
-39.5648
 30
0.0
 10
163.2773
 20
-45.0249
 30
0.0
 10
163.2773
 20
-45.0249
 30
0.0
 10
173.5203
 20
-51.9671
 30
0.0
 10
181.5586
 20
-40.1346
 30
0.0
 10
174.1612
 20
-34.4388
 30
0.0
 10
174.1612
 20
-34.4388
 30
0.0
 10
173.2864
 20
-33.9691
 30
0.0
 10
173.1176
 20
-33.3159
 30
0.0
 10
173.8705
 20
-32.7842
 30
0.0
  0
SPLINE
  5
4D
330
1F
100
AcDbEntity
  8
layer 1
 62
     7
100
AcDbSpline
210
0.0
220
0.0
230
1.0
 70
    11
 71
     3
 72
    16
 73
    12
 74
     0
 42
0.0000000001
 43
0.0000000001
 12
1.0
 22
0.0
 32
0.0
 13
1.0
 23
0.0
 33
0.0
 40
0.0
 40
0.0
 40
0.0
 40
0.0
 40
0.25
 40
0.25
 40
0.25
 40
0.25
 40
0.5
 40
0.5
 40
0.5
 40
0.5
 40
1.0
 40
1.0
 40
1.0
 40
1.0
 10
157.2726
 20
-45.3329
 30
0.0
 10
155.3256
 20
-44.0604
 30
0.0
 10
153.185
 20
-41.3718
 30
0.0
 10
151.5357
 20
-38.3988
 30
0.0
 10
151.5357
 20
-38.3988
 30
0.0
 10
152.5236
 20
-42.2359
 30
0.0
 10
154.2913
 20
-45.5399
 30
0.0
 10
155.5429
 20
-47.0397
 30
0.0
 10
155.5429
 20
-47.0397
 30
0.0
 10
156.0292
 20
-46.3258
 30
0.0
 10
156.5184
 20
-46.0394
 30
0.0
 10
157.2726
 20
-45.3329
 30
0.0
  0
SPLINE
  5
4E
330
1F
100
AcDbEntity
  8
layer 1
 62
     7
100
AcDbSpline
210
0.0
220
0.0
230
1.0
 70
    11
 71
     3
 72
    16
 73
    12
 74
     0
 42
0.0000000001
 43
0.0000000001
 12
1.0
 22
0.0
 32
0.0
 13
1.0
 23
0.0
 33
0.0
 40
0.0
 40
0.0
 40
0.0
 40
0.0
 40
0.25
 40
0.25
 40
0.25
 40
0.25
 40
0.5
 40
0.5
 40
0.5
 40
0.5
 40
1.0
 40
1.0
 40
1.0
 40
1.0
 10
191.7026
 20
-24.2196
 30
0.0
 10
191.7026
 20
-24.2196
 30
0.0
 10
191.7006
 20
-13.3998
 30
0.0
 10
191.7006
 20
-13.3998
 30
0.0
 10
191.7006
 20
-13.3998
 30
0.0
 10
189.6918
 20
-19.8763
 30
0.0
 10
187.4295
 20
-17.8172
 30
0.0
 10
186.8649
 20
-22.2189
 30
0.0
 10
186.8649
 20
-22.2189
 30
0.0
 10
186.6663
 20
-24.781
 30
0.0
 10
188.9955
 20
-25.9894
 30
0.0
 10
191.7026
 20
-24.2196
 30
0.0
  0
SPLINE
  5
4F
330
1F
100
AcDbEntity
  8
layer 1
 62
     7
100
AcDbSpline
210
0.0
220
0.0
230
1.0
 70
    11
 71
     3
 72
    12
 73
     8
 74
     0
 42
0.0000000001
 43
0.0000000001
 12
1.0
 22
0.0
 32
0.0
 13
1.0
 23
0.0
 33
0.0
 40
0.0
 40
0.0
 40
0.0
 40
0.0
 40
0.3333333333333333
 40
0.3333333333333333
 40
0.3333333333333333
 40
0.3333333333333333
 40
1.0
 40
1.0
 40
1.0
 40
1.0
 10
191.7873
 20
-59.4162
 30
0.0
 10
188.3763
 20
-62.9764
 30
0.0
 10
188.5205
 20
-70.1596
 30
0.0
 10
191.7026
 20
-73.1698
 30
0.0
 10
191.7026
 20
-73.1698
 30
0.0
 10
191.7026
 20
-73.1698
 30
0.0
 10
191.7873
 20
-59.4162
 30
0.0
 10
191.7873
 20
-59.4162
 30
0.0
  0
SPLINE
  5
50
330
1F
100
AcDbEntity
  8
layer 1
 62
     7
100
AcDbSpline
210
0.0
220
0.0
230
1.0
 70
    11
 71
     3
 72
    20
 73
    16
 74
     0
 42
0.0000000001
 43
0.0000000001
 12
1.0
 22
0.0
 32
0.0
 13
1.0
 23
0.0
 33
0.0
 40
0.0
 40
0.0
 40
0.0
 40
0.0
 40
0.2
 40
0.2
 40
0.2
 40
0.2
 40
0.4
 40
0.4
 40
0.4
 40
0.4
 40
0.6
 40
0.6
 40
0.6
 40
0.6
 40
1.0
 40
1.0
 40
1.0
 40
1.0
 10
151.2677
 20
8.3328
 30
0.0
 10
151.2677
 20
5.8994
 30
0.0
 10
149.2958
 20
3.9277
 30
0.0
 10
146.8627
 20
3.9277
 30
0.0
 10
146.8627
 20
3.9277
 30
0.0
 10
144.4305
 20
3.9277
 30
0.0
 10
142.4578
 20
5.8993
 30
0.0
 10
142.4578
 20
8.3327
 30
0.0
 10
142.4578
 20
8.3327
 30
0.0
 10
142.4578
 20
10.7658
 30
0.0
 10
144.4304
 20
12.7377
 30
0.0
 10
146.8627
 20
12.7377
 30
0.0
 10
146.8627
 20
12.7377
 30
0.0
 10
149.2959
 20
12.7377
 30
0.0
 10
151.2677
 20
10.7658
 30
0.0
 10
151.2677
 20
8.3328
 30
0.0
  0
SPLINE
  5
51
330
1F
100
AcDbEntity
  8
layer 1
 62
     7
100
AcDbSpline
210
0.0
220
0.0
230
1.0
 70
    11
 71
     3
 72
    16
 73
    12
 74
     0
 42
0.0000000001
 43
0.0000000001
 12
1.0
 22
0.0
 32
0.0
 13
1.0
 23
0.0
 33
0.0
 40
0.0
 40
0.0
 40
0.0
 40
0.0
 40
0.25
 40
0.25
 40
0.25
 40
0.25
 40
0.5
 40
0.5
 40
0.5
 40
0.5
 40
1.0
 40
1.0
 40
1.0
 40
1.0
 10
101.488
 20
-6.3524
 30
0.0
 10
101.6128
 20
3.46
 30
0.0
 10
101.5448
 20
13.2722
 30
0.0
 10
101.488
 20
23.0845
 30
0.0
 10
101.488
 20
23.0845
 30
0.0
 10
103.8821
 20
13.8635
 30
0.0
 10
110.3497
 20
10.1469
 30
0.0
 10
116.5635
 20
8.3667
 30
0.0
 10
116.5635
 20
8.3667
 30
0.0
 10
110.3497
 20
6.5866
 30
0.0
 10
103.8821
 20
2.8697
 30
0.0
 10
101.488
 20
-6.3524
 30
0.0
  0
SPLINE
  5
52
330
1F
100
AcDbEntity
  8
layer 1
 62
     7
100
AcDbSpline
210
0.0
220
0.0
230
1.0
 70
    11
 71
     3
 72
    16
 73
    12
 74
     0
 42
0.0000000001
 43
0.0000000001
 12
1.0
 22
0.0
 32
0.0
 13
1.0
 23
0.0
 33
0.0
 40
0.0
 40
0.0
 40
0.0
 40
0.0
 40
0.25
 40
0.25
 40
0.25
 40
0.25
 40
0.5
 40
0.5
 40
0.5
 40
0.5
 40
1.0
 40
1.0
 40
1.0
 40
1.0
 10
128.4866
 20
-85.9273
 30
0.0
 10
128.6465
 20
-81.8963
 30
0.0
 10
131.3042
 20
-76.4096
 30
0.0
 10
134.37
 20
-73.8858
 30
0.0
 10
134.37
 20
-73.8858
 30
0.0
 10
138.7246
 20
-75.6092
 30
0.0
 10
141.2761
 20
-81.6379
 30
0.0
 10
142.3384
 20
-85.9273
 30
0.0
 10
142.3384
 20
-85.9273
 30
0.0
 10
142.3384
 20
-85.9273
 30
0.0
 10
128.4866
 20
-85.9273
 30
0.0
 10
128.4866
 20
-85.9273
 30
0.0
  0
SPLINE
  5
53
330
1F
100
AcDbEntity
  8
layer 1
 62
     7
100
AcDbSpline
210
0.0
220
0.0
230
1.0
 70
    11
 71
     3
 72
    24
 73
    20
 74
     0
 42
0.0000000001
 43
0.0000000001
 12
1.0
 22
0.0
 32
0.0
 13
1.0
 23
0.0
 33
0.0
 40
0.0
 40
0.0
 40
0.0
 40
0.0
 40
0.1666666666666667
 40
0.1666666666666667
 40
0.1666666666666667
 40
0.1666666666666667
 40
0.3333333333333333
 40
0.3333333333333333
 40
0.3333333333333333
 40
0.3333333333333333
 40
0.5
 40
0.5
 40
0.5
 40
0.5
 40
0.6666666666666666
 40
0.6666666666666666
 40
0.6666666666666666
 40
0.6666666666666666
 40
1.0
 40
1.0
 40
1.0
 40
1.0
 10
120.2659
 20
-85.9273
 30
0.0
 10
120.2659
 20
-85.9273
 30
0.0
 10
115.9662
 20
-85.9273
 30
0.0
 10
115.9662
 20
-85.9273
 30
0.0
 10
115.9662
 20
-85.9273
 30
0.0
 10
118.5704
 20
-85.4793
 30
0.0
 10
119.582
 20
-84.5119
 30
0.0
 10
120.5894
 20
-82.8987
 30
0.0
 10
120.5894
 20
-82.8987
 30
0.0
 10
117.366
 20
-81.0981
 30
0.0
 10
114.665
 20
-76.3149
 30
0.0
 10
118.5949
 20
-72.1046
 30
0.0
 10
118.5949
 20
-72.1046
 30
0.0
 10
121.0149
 20
-70.0093
 30
0.0
 10
126.1553
 20
-68.4178
 30
0.0
 10
130.3223
 20
-71.3886
 30
0.0
 10
130.3223
 20
-71.3886
 30
0.0
 10
126.5715
 20
-75.1126
 30
0.0
 10
122.661
 20
-80.0709
 30
0.0
 10
120.2659
 20
-85.9273
 30
0.0
  0
SPLINE
  5
54
330
1F
100
AcDbEntity
  8
layer 1
 62
     7
100
AcDbSpline
210
0.0
220
0.0
230
1.0
 70
    11
 71
     3
 72
    16
 73
    12
 74
     0
 42
0.0000000001
 43
0.0000000001
 12
1.0
 22
0.0
 32
0.0
 13
1.0
 23
0.0
 33
0.0
 40
0.0
 40
0.0
 40
0.0
 40
0.0
 40
0.25
 40
0.25
 40
0.25
 40
0.25
 40
0.5
 40
0.5
 40
0.5
 40
0.5
 40
1.0
 40
1.0
 40
1.0
 40
1.0
 10
101.9322
 20
-79.9751
 30
0.0
 10
103.465
 20
-83.6321
 30
0.0
 10
105.6396
 20
-85.0578
 30
0.0
 10
108.5263
 20
-85.8677
 30
0.0
 10
108.5263
 20
-85.8677
 30
0.0
 10
108.5263
 20
-85.8677
 30
0.0
 10
101.9517
 20
-85.9656
 30
0.0
 10
101.9517
 20
-85.9656
 30
0.0
 10
101.9517
 20
-85.9656
 30
0.0
 10
101.9517
 20
-85.9656
 30
0.0
 10
101.9322
 20
-79.9751
 30
0.0
 10
101.9322
 20
-79.9751
 30
0.0
  0
SPLINE
  5
55
330
1F
100
AcDbEntity
  8
layer 1
 62
     7
100
AcDbSpline
210
0.0
220
0.0
230
1.0
 70
    11
 71
     3
 72
    88
 73
    84
 74
     0
 42
0.0000000001
 43
0.0000000001
 12
1.0
 22
0.0
 32
0.0
 13
1.0
 23
0.0
 33
0.0
 40
0.0
 40
0.0
 40
0.0
 40
0.0
 40
0.0454545454545455
 40
0.0454545454545455
 40
0.0454545454545455
 40
0.0454545454545455
 40
0.0909090909090909
 40
0.0909090909090909
 40
0.0909090909090909
 40
0.0909090909090909
 40
0.1363636363636364
 40
0.1363636363636364
 40
0.1363636363636364
 40
0.1363636363636364
 40
0.1818181818181818
 40
0.1818181818181818
 40
0.1818181818181818
 40
0.1818181818181818
 40
0.2272727272727273
 40
0.2272727272727273
 40
0.2272727272727273
 40
0.2272727272727273
 40
0.2727272727272727
 40
0.2727272727272727
 40
0.2727272727272727
 40
0.2727272727272727
 40
0.3181818181818182
 40
0.3181818181818182
 40
0.3181818181818182
 40
0.3181818181818182
 40
0.3636363636363636
 40
0.3636363636363636
 40
0.3636363636363636
 40
0.3636363636363636
 40
0.4090909090909091
 40
0.4090909090909091
 40
0.4090909090909091
 40
0.4090909090909091
 40
0.4545454545454545
 40
0.4545454545454545
 40
0.4545454545454545
 40
0.4545454545454545
 40
0.5
 40
0.5
 40
0.5
 40
0.5
 40
0.5454545454545454
 40
0.5454545454545454
 40
0.5454545454545454
 40
0.5454545454545454
 40
0.5909090909090909
 40
0.5909090909090909
 40
0.5909090909090909
 40
0.5909090909090909
 40
0.6363636363636364
 40
0.6363636363636364
 40
0.6363636363636364
 40
0.6363636363636364
 40
0.6818181818181818
 40
0.6818181818181818
 40
0.6818181818181818
 40
0.6818181818181818
 40
0.7272727272727273
 40
0.7272727272727273
 40
0.7272727272727273
 40
0.7272727272727273
 40
0.7727272727272727
 40
0.7727272727272727
 40
0.7727272727272727
 40
0.7727272727272727
 40
0.8181818181818182
 40
0.8181818181818182
 40
0.8181818181818182
 40
0.8181818181818182
 40
0.8636363636363636
 40
0.8636363636363636
 40
0.8636363636363636
 40
0.8636363636363636
 40
0.9090909090909091
 40
0.9090909090909091
 40
0.9090909090909091
 40
0.9090909090909091
 40
1.0
 40
1.0
 40
1.0
 40
1.0
 10
103.8935
 20
-76.6085
 30
0.0
 10
103.8935
 20
-73.7405
 30
0.0
 10
105.6593
 20
-71.8359
 30
0.0
 10
107.2849
 20
-73.3232
 30
0.0
 10
107.2849
 20
-73.3232
 30
0.0
 10
108.7219
 20
-75.0024
 30
0.0
 10
108.1399
 20
-77.3174
 30
0.0
 10
107.3435
 20
-79.1088
 30
0.0
 10
107.3435
 20
-79.1088
 30
0.0
 10
111.5734
 20
-76.2685
 30
0.0
 10
111.8682
 20
-67.2866
 30
0.0
 10
109.0793
 20
-63.8817
 30
0.0
 10
109.0793
 20
-63.8817
 30
0.0
 10
109.5173
 20
-63.6963
 30
0.0
 10
110.5988
 20
-62.9413
 30
0.0
 10
111.082
 20
-63.2235
 30
0.0
 10
111.082
 20
-63.2235
 30
0.0
 10
109.8686
 20
-66.5561
 30
0.0
 10
114.9864
 20
-66.7932
 30
0.0
 10
115.0555
 20
-63.1947
 30
0.0
 10
115.0555
 20
-63.1947
 30
0.0
 10
115.1616
 20
-60.4442
 30
0.0
 10
110.942
 20
-58.8033
 30
0.0
 10
107.7259
 20
-62.0276
 30
0.0
 10
107.7259
 20
-62.0276
 30
0.0
 10
106.7884
 20
-60.5657
 30
0.0
 10
105.0206
 20
-59.4388
 30
0.0
 10
102.0166
 20
-58.5435
 30
0.0
 10
102.0166
 20
-58.5435
 30
0.0
 10
103.7534
 20
-58.0748
 30
0.0
 10
106.302
 20
-56.0136
 30
0.0
 10
107.7266
 20
-54.8269
 30
0.0
 10
107.7266
 20
-54.8269
 30
0.0
 10
111.1696
 20
-57.7112
 30
0.0
 10
115.6383
 20
-55.8023
 30
0.0
 10
114.9368
 20
-52.849
 30
0.0
 10
114.9368
 20
-52.849
 30
0.0
 10
114.3137
 20
-50.7998
 30
0.0
 10
112.2503
 20
-50.6906
 30
0.0
 10
111.4137
 20
-51.5963
 30
0.0
 10
111.4137
 20
-51.5963
 30
0.0
 10
111.1674
 20
-51.8682
 30
0.0
 10
110.8151
 20
-53.1063
 30
0.0
 10
111.2571
 20
-53.6522
 30
0.0
 10
111.2571
 20
-53.6522
 30
0.0
 10
110.2713
 20
-53.783
 30
0.0
 10
109.6574
 20
-53.5277
 30
0.0
 10
109.029
 20
-52.9436
 30
0.0
 10
109.029
 20
-52.9436
 30
0.0
 10
111.4631
 20
-49.7243
 30
0.0
 10
112.6498
 20
-41.2821
 30
0.0
 10
107.3519
 20
-37.3933
 30
0.0
 10
107.3519
 20
-37.3933
 30
0.0
 10
109.2082
 20
-41.1357
 30
0.0
 10
108.1523
 20
-42.3771
 30
0.0
 10
107.1499
 20
-43.4713
 30
0.0
 10
107.1499
 20
-43.4713
 30
0.0
 10
104.7374
 20
-44.8022
 30
0.0
 10
103.914
 20
-41.895
 30
0.0
 10
103.8803
 20
-40.1428
 30
0.0
 10
103.8803
 20
-40.1428
 30
0.0
 10
103.5556
 20
-34.1687
 30
0.0
 10
111.7898
 20
-31.9582
 30
0.0
 10
115.7312
 20
-35.1042
 30
0.0
 10
115.7312
 20
-35.1042
 30
0.0
 10
111.1561
 20
-43.7051
 30
0.0
 10
117.2713
 20
-51.3262
 30
0.0
 10
126.3697
 20
-49.9293
 30
0.0
 10
126.3697
 20
-49.9293
 30
0.0
 10
123.3514
 20
-50.7165
 30
0.0
 10
121.6401
 20
-57.3783
 30
0.0
 10
125.7051
 20
-58.3315
 30
0.0
 10
125.7051
 20
-58.3315
 30
0.0
 10
121.9389
 20
-59.4789
 30
0.0
 10
122.0676
 20
-64.6297
 30
0.0
 10
124.6627
 20
-66.4254
 30
0.0
 10
124.6627
 20
-66.4254
 30
0.0
 10
115.2016
 20
-67.3123
 30
0.0
 10
111.8268
 20
-74.8367
 30
0.0
 10
116.3656
 20
-82.4866
 30
0.0
 10
116.3656
 20
-82.4866
 30
0.0
 10
111.5425
 20
-84.7118
 30
0.0
 10
104.4992
 20
-82.6206
 30
0.0
 10
103.8935
 20
-76.6085
 30
0.0
  0
SPLINE
  5
56
330
1F
100
AcDbEntity
  8
layer 1
 62
     7
100
AcDbSpline
210
0.0
220
0.0
230
1.0
 70
    11
 71
     3
 72
    16
 73
    12
 74
     0
 42
0.0000000001
 43
0.0000000001
 12
1.0
 22
0.0
 32
0.0
 13
1.0
 23
0.0
 33
0.0
 40
0.0
 40
0.0
 40
0.0
 40
0.0
 40
0.25
 40
0.25
 40
0.25
 40
0.25
 40
0.5
 40
0.5
 40
0.5
 40
0.5
 40
1.0
 40
1.0
 40
1.0
 40
1.0
 10
136.2079
 20
-71.4648
 30
0.0
 10
136.6786
 20
-71.1177
 30
0.0
 10
137.5758
 20
-70.1051
 30
0.0
 10
137.8136
 20
-70.2164
 30
0.0
 10
137.8136
 20
-70.2164
 30
0.0
 10
140.3633
 20
-73.0534
 30
0.0
 10
142.7276
 20
-76.8289
 30
0.0
 10
143.3766
 20
-80.6334
 30
0.0
 10
143.3766
 20
-80.6334
 30
0.0
 10
140.447
 20
-75.0437
 30
0.0
 10
139.2499
 20
-74.2597
 30
0.0
 10
136.2079
 20
-71.4648
 30
0.0
  0
SPLINE
  5
57
330
1F
100
AcDbEntity
  8
layer 1
 62
     7
100
AcDbSpline
210
0.0
220
0.0
230
1.0
 70
    11
 71
     3
 72
    20
 73
    16
 74
     0
 42
0.0000000001
 43
0.0000000001
 12
1.0
 22
0.0
 32
0.0
 13
1.0
 23
0.0
 33
0.0
 40
0.0
 40
0.0
 40
0.0
 40
0.0
 40
0.2
 40
0.2
 40
0.2
 40
0.2
 40
0.4
 40
0.4
 40
0.4
 40
0.4
 40
0.6
 40
0.6
 40
0.6
 40
0.6
 40
1.0
 40
1.0
 40
1.0
 40
1.0
 10
127.9964
 20
-66.9354
 30
0.0
 10
130.6273
 20
-67.4987
 30
0.0
 10
132.872
 20
-65.4375
 30
0.0
 10
133.5055
 20
-64.262
 30
0.0
 10
133.5055
 20
-64.262
 30
0.0
 10
133.8982
 20
-64.9501
 30
0.0
 10
134.8676
 20
-66.2215
 30
0.0
 10
135.4774
 20
-66.9857
 30
0.0
 10
135.4774
 20
-66.9857
 30
0.0
 10
134.4863
 20
-67.9581
 30
0.0
 10
133.2964
 20
-68.7174
 30
0.0
 10
132.4857
 20
-69.523
 30
0.0
 10
132.4857
 20
-69.523
 30
0.0
 10
131.2422
 20
-68.5536
 30
0.0
 10
129.5921
 20
-67.3505
 30
0.0
 10
127.9964
 20
-66.9354
 30
0.0
  0
SPLINE
  5
58
330
1F
100
AcDbEntity
  8
layer 1
 62
     7
100
AcDbSpline
210
0.0
220
0.0
230
1.0
 70
    11
 71
     3
 72
    16
 73
    12
 74
     0
 42
0.0000000001
 43
0.0000000001
 12
1.0
 22
0.0
 32
0.0
 13
1.0
 23
0.0
 33
0.0
 40
0.0
 40
0.0
 40
0.0
 40
0.0
 40
0.25
 40
0.25
 40
0.25
 40
0.25
 40
0.5
 40
0.5
 40
0.5
 40
0.5
 40
1.0
 40
1.0
 40
1.0
 40
1.0
 10
138.2918
 20
-51.3262
 30
0.0
 10
140.6366
 20
-52.1556
 30
0.0
 10
142.9172
 20
-56.9271
 30
0.0
 10
142.979
 20
-59.1297
 30
0.0
 10
142.979
 20
-59.1297
 30
0.0
 10
141.8169
 20
-61.3136
 30
0.0
 10
140.0213
 20
-64.1993
 30
0.0
 10
137.9342
 20
-65.184
 30
0.0
 10
137.9342
 20
-65.184
 30
0.0
 10
135.1661
 20
-61.836
 30
0.0
 10
134.5245
 20
-54.7815
 30
0.0
 10
138.2918
 20
-51.3262
 30
0.0
  0
SPLINE
  5
59
330
1F
100
AcDbEntity
  8
layer 1
 62
     7
100
AcDbSpline
210
0.0
220
0.0
230
1.0
 70
    11
 71
     3
 72
    20
 73
    16
 74
     0
 42
0.0000000001
 43
0.0000000001
 12
1.0
 22
0.0
 32
0.0
 13
1.0
 23
0.0
 33
0.0
 40
0.0
 40
0.0
 40
0.0
 40
0.0
 40
0.2
 40
0.2
 40
0.2
 40
0.2
 40
0.4
 40
0.4
 40
0.4
 40
0.4
 40
0.6
 40
0.6
 40
0.6
 40
0.6
 40
1.0
 40
1.0
 40
1.0
 40
1.0
 10
127.1361
 20
-63.3421
 30
0.0
 10
129.897
 20
-62.3717
 30
0.0
 10
129.3891
 20
-58.5198
 30
0.0
 10
127.168
 20
-58.2911
 30
0.0
 10
127.168
 20
-58.2911
 30
0.0
 10
129.5138
 20
-57.4641
 30
0.0
 10
129.6187
 20
-54.2541
 30
0.0
 10
126.8475
 20
-53.5647
 30
0.0
 10
126.8475
 20
-53.5647
 30
0.0
 10
128.9194
 20
-52.581
 30
0.0
 10
132.6073
 20
-53.4122
 30
0.0
 10
133.5777
 20
-57.4535
 30
0.0
 10
133.5777
 20
-57.4535
 30
0.0
 10
134.3402
 20
-60.6277
 30
0.0
 10
130.9097
 20
-64.7597
 30
0.0
 10
127.1361
 20
-63.3421
 30
0.0
  0
SPLINE
  5
5A
330
1F
100
AcDbEntity
  8
layer 1
 62
     7
100
AcDbSpline
210
0.0
220
0.0
230
1.0
 70
    11
 71
     3
 72
    16
 73
    12
 74
     0
 42
0.0000000001
 43
0.0000000001
 12
1.0
 22
0.0
 32
0.0
 13
1.0
 23
0.0
 33
0.0
 40
0.0
 40
0.0
 40
0.0
 40
0.0
 40
0.25
 40
0.25
 40
0.25
 40
0.25
 40
0.5
 40
0.5
 40
0.5
 40
0.5
 40
1.0
 40
1.0
 40
1.0
 40
1.0
 10
101.9322
 20
-43.9388
 30
0.0
 10
102.9995
 20
-45.5892
 30
0.0
 10
104.3529
 20
-48.0925
 30
0.0
 10
104.2758
 20
-50.674
 30
0.0
 10
104.2758
 20
-50.674
 30
0.0
 10
104.2252
 20
-53.913
 30
0.0
 10
103.1693
 20
-56.5358
 30
0.0
 10
101.9322
 20
-57.673
 30
0.0
 10
101.9322
 20
-57.673
 30
0.0
 10
101.9322
 20
-57.673
 30
0.0
 10
101.9322
 20
-43.9388
 30
0.0
 10
101.9322
 20
-43.9388
 30
0.0
  0
SPLINE
  5
5B
330
1F
100
AcDbEntity
  8
layer 1
 62
     7
100
AcDbSpline
210
0.0
220
0.0
230
1.0
 70
    11
 71
     3
 72
    20
 73
    16
 74
     0
 42
0.0000000001
 43
0.0000000001
 12
1.0
 22
0.0
 32
0.0
 13
1.0
 23
0.0
 33
0.0
 40
0.0
 40
0.0
 40
0.0
 40
0.0
 40
0.2
 40
0.2
 40
0.2
 40
0.2
 40
0.4
 40
0.4
 40
0.4
 40
0.4
 40
0.6
 40
0.6
 40
0.6
 40
0.6
 40
1.0
 40
1.0
 40
1.0
 40
1.0
 10
128.1003
 20
-49.6513
 30
0.0
 10
129.2356
 20
-49.2865
 30
0.0
 10
132.3549
 20
-47.2325
 30
0.0
 10
132.8791
 20
-46.8008
 30
0.0
 10
132.8791
 20
-46.8008
 30
0.0
 10
133.2634
 20
-47.3033
 30
0.0
 10
134.9446
 20
-49.0445
 30
0.0
 10
136.1274
 20
-49.9385
 30
0.0
 10
136.1274
 20
-49.9385
 30
0.0
 10
135.5742
 20
-50.5793
 30
0.0
 10
134.341
 20
-52.1195
 30
0.0
 10
134.1371
 20
-53.2361
 30
0.0
 10
134.1371
 20
-53.2361
 30
0.0
 10
133.5271
 20
-51.0358
 30
0.0
 10
130.8633
 20
-49.7541
 30
0.0
 10
128.1003
 20
-49.6513
 30
0.0
  0
SPLINE
  5
5C
330
1F
100
AcDbEntity
  8
layer 1
 62
     7
100
AcDbSpline
210
0.0
220
0.0
230
1.0
 70
    11
 71
     3
 72
    32
 73
    28
 74
     0
 42
0.0000000001
 43
0.0000000001
 12
1.0
 22
0.0
 32
0.0
 13
1.0
 23
0.0
 33
0.0
 40
0.0
 40
0.0
 40
0.0
 40
0.0
 40
0.125
 40
0.125
 40
0.125
 40
0.125
 40
0.25
 40
0.25
 40
0.25
 40
0.25
 40
0.375
 40
0.375
 40
0.375
 40
0.375
 40
0.5
 40
0.5
 40
0.5
 40
0.5
 40
0.625
 40
0.625
 40
0.625
 40
0.625
 40
0.75
 40
0.75
 40
0.75
 40
0.75
 40
1.0
 40
1.0
 40
1.0
 40
1.0
 10
119.8487
 20
-32.7842
 30
0.0
 10
114.6043
 20
-28.3813
 30
0.0
 10
101.9322
 20
-30.8548
 30
0.0
 10
101.8588
 20
-39.3495
 30
0.0
 10
101.8588
 20
-39.3495
 30
0.0
 10
101.8588
 20
-39.3495
 30
0.0
 10
101.9322
 20
-25.1383
 30
0.0
 10
101.9322
 20
-25.1383
 30
0.0
 10
101.9322
 20
-25.1383
 30
0.0
 10
104.9576
 20
-32.9532
 30
0.0
 10
115.9907
 20
-30.8094
 30
0.0
 10
114.7567
 20
-22.8392
 30
0.0
 10
114.7567
 20
-22.8392
 30
0.0
 10
116.5543
 20
-24.5821
 30
0.0
 10
118.597
 20
-24.132
 30
0.0
 10
120.4441
 20
-22.259
 30
0.0
 10
120.4441
 20
-22.259
 30
0.0
 10
118.456
 20
-31.4832
 30
0.0
 10
123.9005
 20
-39.5648
 30
0.0
 10
130.4419
 20
-45.0249
 30
0.0
 10
130.4419
 20
-45.0249
 30
0.0
 10
120.1989
 20
-51.9671
 30
0.0
 10
112.1606
 20
-40.1346
 30
0.0
 10
119.5583
 20
-34.4388
 30
0.0
 10
119.5583
 20
-34.4388
 30
0.0
 10
120.4339
 20
-33.9691
 30
0.0
 10
120.6018
 20
-33.3159
 30
0.0
 10
119.8487
 20
-32.7842
 30
0.0
  0
SPLINE
  5
5D
330
1F
100
AcDbEntity
  8
layer 1
 62
     7
100
AcDbSpline
210
0.0
220
0.0
230
1.0
 70
    11
 71
     3
 72
    16
 73
    12
 74
     0
 42
0.0000000001
 43
0.0000000001
 12
1.0
 22
0.0
 32
0.0
 13
1.0
 23
0.0
 33
0.0
 40
0.0
 40
0.0
 40
0.0
 40
0.0
 40
0.25
 40
0.25
 40
0.25
 40
0.25
 40
0.5
 40
0.5
 40
0.5
 40
0.5
 40
1.0
 40
1.0
 40
1.0
 40
1.0
 10
136.4468
 20
-45.3329
 30
0.0
 10
138.3939
 20
-44.0604
 30
0.0
 10
140.5345
 20
-41.3718
 30
0.0
 10
142.1838
 20
-38.3988
 30
0.0
 10
142.1838
 20
-38.3988
 30
0.0
 10
141.196
 20
-42.2359
 30
0.0
 10
139.4279
 20
-45.5399
 30
0.0
 10
138.1763
 20
-47.0397
 30
0.0
 10
138.1763
 20
-47.0397
 30
0.0
 10
137.6903
 20
-46.3258
 30
0.0
 10
137.2008
 20
-46.0394
 30
0.0
 10
136.4468
 20
-45.3329
 30
0.0
  0
SPLINE
  5
5E
330
1F
100
AcDbEntity
  8
layer 1
 62
     7
100
AcDbSpline
210
0.0
220
0.0
230
1.0
 70
    11
 71
     3
 72
    16
 73
    12
 74
     0
 42
0.0000000001
 43
0.0000000001
 12
1.0
 22
0.0
 32
0.0
 13
1.0
 23
0.0
 33
0.0
 40
0.0
 40
0.0
 40
0.0
 40
0.0
 40
0.25
 40
0.25
 40
0.25
 40
0.25
 40
0.5
 40
0.5
 40
0.5
 40
0.5
 40
1.0
 40
1.0
 40
1.0
 40
1.0
 10
102.0166
 20
-24.2196
 30
0.0
 10
102.0166
 20
-24.2196
 30
0.0
 10
102.0187
 20
-13.3998
 30
0.0
 10
102.0187
 20
-13.3998
 30
0.0
 10
102.0187
 20
-13.3998
 30
0.0
 10
104.0274
 20
-19.8763
 30
0.0
 10
106.2897
 20
-17.8172
 30
0.0
 10
106.8543
 20
-22.2189
 30
0.0
 10
106.8543
 20
-22.2189
 30
0.0
 10
107.0532
 20
-24.781
 30
0.0
 10
104.7239
 20
-25.9894
 30
0.0
 10
102.0166
 20
-24.2196
 30
0.0
  0
SPLINE
  5
5F
330
1F
100
AcDbEntity
  8
layer 1
 62
     7
100
AcDbSpline
210
0.0
220
0.0
230
1.0
 70
    11
 71
     3
 72
    12
 73
     8
 74
     0
 42
0.0000000001
 43
0.0000000001
 12
1.0
 22
0.0
 32
0.0
 13
1.0
 23
0.0
 33
0.0
 40
0.0
 40
0.0
 40
0.0
 40
0.0
 40
0.3333333333333333
 40
0.3333333333333333
 40
0.3333333333333333
 40
0.3333333333333333
 40
1.0
 40
1.0
 40
1.0
 40
1.0
 10
101.9322
 20
-59.4162
 30
0.0
 10
105.3429
 20
-62.9764
 30
0.0
 10
105.1989
 20
-70.1596
 30
0.0
 10
102.0166
 20
-73.1698
 30
0.0
 10
102.0166
 20
-73.1698
 30
0.0
 10
102.0166
 20
-73.1698
 30
0.0
 10
101.9322
 20
-59.4162
 30
0.0
 10
101.9322
 20
-59.4162
 30
0.0
  0
SPLINE
  5
60
330
1F
100
AcDbEntity
  8
layer 1
 62
     7
100
AcDbSpline
210
0.0
220
0.0
230
1.0
 70
    11
 71
     3
 72
    24
 73
    20
 74
     0
 42
0.0000000001
 43
0.0000000001
 12
1.0
 22
0.0
 32
0.0
 13
1.0
 23
0.0
 33
0.0
 40
0.0
 40
0.0
 40
0.0
 40
0.0
 40
0.1666666666666667
 40
0.1666666666666667
 40
0.1666666666666667
 40
0.1666666666666667
 40
0.3333333333333333
 40
0.3333333333333333
 40
0.3333333333333333
 40
0.3333333333333333
 40
0.5
 40
0.5
 40
0.5
 40
0.5
 40
0.6666666666666666
 40
0.6666666666666666
 40
0.6666666666666666
 40
0.6666666666666666
 40
1.0
 40
1.0
 40
1.0
 40
1.0
 10
191.7026
 20
8.4005
 30
0.0
 10
191.7026
 20
8.4005
 30
0.0
 10
191.7873
 20
23.0846
 30
0.0
 10
191.7873
 20
23.0846
 30
0.0
 10
191.7873
 20
23.0846
 30
0.0
 10
189.393
 20
13.8635
 30
0.0
 10
182.9257
 20
10.1469
 30
0.0
 10
176.7116
 20
8.3667
 30
0.0
 10
176.7116
 20
8.3667
 30
0.0
 10
182.9257
 20
6.5866
 30
0.0
 10
189.3929
 20
2.8697
 30
0.0
 10
191.7873
 20
-6.3524
 30
0.0
 10
191.7873
 20
-6.3524
 30
0.0
 10
191.7873
 20
-6.3524
 30
0.0
 10
191.7026
 20
8.3328
 30
0.0
 10
191.7026
 20
8.3328
 30
0.0
 10
191.7026
 20
8.3328
 30
0.0
 10
191.7026
 20
8.3328
 30
0.0
 10
191.7026
 20
8.4005
 30
0.0
 10
191.7026
 20
8.4005
 30
0.0
  0
SPLINE
  5
61
330
1F
100
AcDbEntity
  8
layer 1
 62
     7
100
AcDbSpline
210
0.0
220
0.0
230
1.0
 70
    11
 71
     3
 72
    16
 73
    12
 74
     0
 42
0.0000000001
 43
0.0000000001
 12
1.0
 22
0.0
 32
0.0
 13
1.0
 23
0.0
 33
0.0
 40
0.0
 40
0.0
 40
0.0
 40
0.0
 40
0.25
 40
0.25
 40
0.25
 40
0.25
 40
0.5
 40
0.5
 40
0.5
 40
0.5
 40
1.0
 40
1.0
 40
1.0
 40
1.0
 10
165.2326
 20
102.6605
 30
0.0
 10
165.073
 20
98.6286
 30
0.0
 10
162.4152
 20
93.142
 30
0.0
 10
159.3494
 20
90.618
 30
0.0
 10
159.3494
 20
90.618
 30
0.0
 10
154.9949
 20
92.3415
 30
0.0
 10
152.4431
 20
98.3701
 30
0.0
 10
151.3811
 20
102.6605
 30
0.0
 10
151.3811
 20
102.6605
 30
0.0
 10
151.3811
 20
102.6605
 30
0.0
 10
165.2326
 20
102.6605
 30
0.0
 10
165.2326
 20
102.6605
 30
0.0
  0
SPLINE
  5
62
330
1F
100
AcDbEntity
  8
layer 1
 62
     7
100
AcDbSpline
210
0.0
220
0.0
230
1.0
 70
    11
 71
     3
 72
    24
 73
    20
 74
     0
 42
0.0000000001
 43
0.0000000001
 12
1.0
 22
0.0
 32
0.0
 13
1.0
 23
0.0
 33
0.0
 40
0.0
 40
0.0
 40
0.0
 40
0.0
 40
0.1666666666666667
 40
0.1666666666666667
 40
0.1666666666666667
 40
0.1666666666666667
 40
0.3333333333333333
 40
0.3333333333333333
 40
0.3333333333333333
 40
0.3333333333333333
 40
0.5
 40
0.5
 40
0.5
 40
0.5
 40
0.6666666666666666
 40
0.6666666666666666
 40
0.6666666666666666
 40
0.6666666666666666
 40
1.0
 40
1.0
 40
1.0
 40
1.0
 10
173.4533
 20
102.6605
 30
0.0
 10
173.4533
 20
102.6605
 30
0.0
 10
177.7534
 20
102.6605
 30
0.0
 10
177.7534
 20
102.6605
 30
0.0
 10
177.7534
 20
102.6605
 30
0.0
 10
175.1491
 20
102.2115
 30
0.0
 10
174.1374
 20
101.2451
 30
0.0
 10
173.1297
 20
99.6309
 30
0.0
 10
173.1297
 20
99.6309
 30
0.0
 10
176.3533
 20
97.8314
 30
0.0
 10
179.0543
 20
93.0481
 30
0.0
 10
175.1243
 20
88.8378
 30
0.0
 10
175.1243
 20
88.8378
 30
0.0
 10
172.7043
 20
86.7415
 30
0.0
 10
167.5639
 20
85.15
 30
0.0
 10
163.3968
 20
88.1211
 30
0.0
 10
163.3968
 20
88.1211
 30
0.0
 10
167.1477
 20
91.8451
 30
0.0
 10
171.0582
 20
96.803
 30
0.0
 10
173.4533
 20
102.6605
 30
0.0
  0
SPLINE
  5
63
330
1F
100
AcDbEntity
  8
layer 1
 62
     7
100
AcDbSpline
210
0.0
220
0.0
230
1.0
 70
    11
 71
     3
 72
    16
 73
    12
 74
     0
 42
0.0000000001
 43
0.0000000001
 12
1.0
 22
0.0
 32
0.0
 13
1.0
 23
0.0
 33
0.0
 40
0.0
 40
0.0
 40
0.0
 40
0.0
 40
0.25
 40
0.25
 40
0.25
 40
0.25
 40
0.5
 40
0.5
 40
0.5
 40
0.5
 40
1.0
 40
1.0
 40
1.0
 40
1.0
 10
191.7873
 20
96.7084
 30
0.0
 10
190.2543
 20
100.3654
 30
0.0
 10
188.0796
 20
101.7902
 30
0.0
 10
185.1932
 20
102.5999
 30
0.0
 10
185.1932
 20
102.5999
 30
0.0
 10
185.1932
 20
102.5999
 30
0.0
 10
191.7675
 20
102.6978
 30
0.0
 10
191.7675
 20
102.6978
 30
0.0
 10
191.7675
 20
102.6978
 30
0.0
 10
191.7675
 20
102.6978
 30
0.0
 10
191.7873
 20
96.7084
 30
0.0
 10
191.7873
 20
96.7084
 30
0.0
  0
SPLINE
  5
64
330
1F
100
AcDbEntity
  8
layer 1
 62
     7
100
AcDbSpline
210
0.0
220
0.0
230
1.0
 70
    11
 71
     3
 72
    88
 73
    84
 74
     0
 42
0.0000000001
 43
0.0000000001
 12
1.0
 22
0.0
 32
0.0
 13
1.0
 23
0.0
 33
0.0
 40
0.0
 40
0.0
 40
0.0
 40
0.0
 40
0.0454545454545455
 40
0.0454545454545455
 40
0.0454545454545455
 40
0.0454545454545455
 40
0.0909090909090909
 40
0.0909090909090909
 40
0.0909090909090909
 40
0.0909090909090909
 40
0.1363636363636364
 40
0.1363636363636364
 40
0.1363636363636364
 40
0.1363636363636364
 40
0.1818181818181818
 40
0.1818181818181818
 40
0.1818181818181818
 40
0.1818181818181818
 40
0.2272727272727273
 40
0.2272727272727273
 40
0.2272727272727273
 40
0.2272727272727273
 40
0.2727272727272727
 40
0.2727272727272727
 40
0.2727272727272727
 40
0.2727272727272727
 40
0.3181818181818182
 40
0.3181818181818182
 40
0.3181818181818182
 40
0.3181818181818182
 40
0.3636363636363636
 40
0.3636363636363636
 40
0.3636363636363636
 40
0.3636363636363636
 40
0.4090909090909091
 40
0.4090909090909091
 40
0.4090909090909091
 40
0.4090909090909091
 40
0.4545454545454545
 40
0.4545454545454545
 40
0.4545454545454545
 40
0.4545454545454545
 40
0.5
 40
0.5
 40
0.5
 40
0.5
 40
0.5454545454545454
 40
0.5454545454545454
 40
0.5454545454545454
 40
0.5454545454545454
 40
0.5909090909090909
 40
0.5909090909090909
 40
0.5909090909090909
 40
0.5909090909090909
 40
0.6363636363636364
 40
0.6363636363636364
 40
0.6363636363636364
 40
0.6363636363636364
 40
0.6818181818181818
 40
0.6818181818181818
 40
0.6818181818181818
 40
0.6818181818181818
 40
0.7272727272727273
 40
0.7272727272727273
 40
0.7272727272727273
 40
0.7272727272727273
 40
0.7727272727272727
 40
0.7727272727272727
 40
0.7727272727272727
 40
0.7727272727272727
 40
0.8181818181818182
 40
0.8181818181818182
 40
0.8181818181818182
 40
0.8181818181818182
 40
0.8636363636363636
 40
0.8636363636363636
 40
0.8636363636363636
 40
0.8636363636363636
 40
0.9090909090909091
 40
0.9090909090909091
 40
0.9090909090909091
 40
0.9090909090909091
 40
1.0
 40
1.0
 40
1.0
 40
1.0
 10
189.8257
 20
93.3418
 30
0.0
 10
189.8257
 20
90.4738
 30
0.0
 10
188.0601
 20
88.5691
 30
0.0
 10
186.4345
 20
90.0554
 30
0.0
 10
186.4345
 20
90.0554
 30
0.0
 10
184.9973
 20
91.7349
 30
0.0
 10
185.5792
 20
94.0495
 30
0.0
 10
186.3757
 20
95.8409
 30
0.0
 10
186.3757
 20
95.8409
 30
0.0
 10
182.1459
 20
93.0007
 30
0.0
 10
181.8513
 20
84.0188
 30
0.0
 10
184.6399
 20
80.6153
 30
0.0
 10
184.6399
 20
80.6153
 30
0.0
 10
184.2021
 20
80.4289
 30
0.0
 10
183.1203
 20
79.6735
 30
0.0
 10
182.6372
 20
79.9559
 30
0.0
 10
182.6372
 20
79.9559
 30
0.0
 10
183.8508
 20
83.2894
 30
0.0
 10
178.733
 20
83.5254
 30
0.0
 10
178.664
 20
79.928
 30
0.0
 10
178.664
 20
79.928
 30
0.0
 10
178.5577
 20
77.1766
 30
0.0
 10
182.7772
 20
75.5364
 30
0.0
 10
185.9935
 20
78.7607
 30
0.0
 10
185.9935
 20
78.7607
 30
0.0
 10
186.9309
 20
77.2979
 30
0.0
 10
188.6988
 20
76.171
 30
0.0
 10
191.7026
 20
75.2767
 30
0.0
 10
191.7026
 20
75.2767
 30
0.0
 10
189.9658
 20
74.8071
 30
0.0
 10
187.4171
 20
72.7458
 30
0.0
 10
185.9925
 20
71.5601
 30
0.0
 10
185.9925
 20
71.5601
 30
0.0
 10
182.5496
 20
74.4444
 30
0.0
 10
178.0809
 20
72.5345
 30
0.0
 10
178.7824
 20
69.5811
 30
0.0
 10
178.7824
 20
69.5811
 30
0.0
 10
179.4056
 20
67.532
 30
0.0
 10
181.4692
 20
67.4238
 30
0.0
 10
182.3054
 20
68.3294
 30
0.0
 10
182.3054
 20
68.3294
 30
0.0
 10
182.5517
 20
68.6004
 30
0.0
 10
182.904
 20
69.8396
 30
0.0
 10
182.4621
 20
70.3858
 30
0.0
 10
182.4621
 20
70.3858
 30
0.0
 10
183.4479
 20
70.5155
 30
0.0
 10
184.0621
 20
70.2599
 30
0.0
 10
184.6902
 20
69.6768
 30
0.0
 10
184.6902
 20
69.6768
 30
0.0
 10
182.2561
 20
66.4565
 30
0.0
 10
181.0694
 20
58.0143
 30
0.0
 10
186.3675
 20
54.1265
 30
0.0
 10
186.3675
 20
54.1265
 30
0.0
 10
184.5112
 20
57.8692
 30
0.0
 10
185.5671
 20
59.1095
 30
0.0
 10
186.5692
 20
60.2034
 30
0.0
 10
186.5692
 20
60.2034
 30
0.0
 10
188.9821
 20
61.5356
 30
0.0
 10
189.8051
 20
58.6274
 30
0.0
 10
189.8391
 20
56.875
 30
0.0
 10
189.8391
 20
56.875
 30
0.0
 10
190.1635
 20
50.9012
 30
0.0
 10
181.9296
 20
48.6915
 30
0.0
 10
177.988
 20
51.8366
 30
0.0
 10
177.988
 20
51.8366
 30
0.0
 10
182.5631
 20
60.4373
 30
0.0
 10
176.4479
 20
68.0584
 30
0.0
 10
167.3495
 20
66.6625
 30
0.0
 10
167.3495
 20
66.6625
 30
0.0
 10
170.3681
 20
67.4487
 30
0.0
 10
172.0791
 20
74.1108
 30
0.0
 10
168.014
 20
75.0646
 30
0.0
 10
168.014
 20
75.0646
 30
0.0
 10
171.7803
 20
76.2112
 30
0.0
 10
171.6516
 20
81.3631
 30
0.0
 10
169.0566
 20
83.1575
 30
0.0
 10
169.0566
 20
83.1575
 30
0.0
 10
178.5176
 20
84.0455
 30
0.0
 10
181.8924
 20
91.5689
 30
0.0
 10
177.3535
 20
99.2198
 30
0.0
 10
177.3535
 20
99.2198
 30
0.0
 10
182.1767
 20
101.4452
 30
0.0
 10
189.2199
 20
99.3537
 30
0.0
 10
189.8257
 20
93.3418
 30
0.0
  0
SPLINE
  5
65
330
1F
100
AcDbEntity
  8
layer 1
 62
     7
100
AcDbSpline
210
0.0
220
0.0
230
1.0
 70
    11
 71
     3
 72
    16
 73
    12
 74
     0
 42
0.0000000001
 43
0.0000000001
 12
1.0
 22
0.0
 32
0.0
 13
1.0
 23
0.0
 33
0.0
 40
0.0
 40
0.0
 40
0.0
 40
0.0
 40
0.25
 40
0.25
 40
0.25
 40
0.25
 40
0.5
 40
0.5
 40
0.5
 40
0.5
 40
1.0
 40
1.0
 40
1.0
 40
1.0
 10
157.5116
 20
88.1973
 30
0.0
 10
157.0408
 20
87.8511
 30
0.0
 10
156.1434
 20
86.8383
 30
0.0
 10
155.9055
 20
86.9485
 30
0.0
 10
155.9055
 20
86.9485
 30
0.0
 10
153.3559
 20
89.7856
 30
0.0
 10
150.9916
 20
93.5622
 30
0.0
 10
150.3426
 20
97.3655
 30
0.0
 10
150.3426
 20
97.3655
 30
0.0
 10
153.2725
 20
91.7759
 30
0.0
 10
154.4695
 20
90.9929
 30
0.0
 10
157.5116
 20
88.1973
 30
0.0
  0
SPLINE
  5
66
330
1F
100
AcDbEntity
  8
layer 1
 62
     7
100
AcDbSpline
210
0.0
220
0.0
230
1.0
 70
    11
 71
     3
 72
    20
 73
    16
 74
     0
 42
0.0000000001
 43
0.0000000001
 12
1.0
 22
0.0
 32
0.0
 13
1.0
 23
0.0
 33
0.0
 40
0.0
 40
0.0
 40
0.0
 40
0.0
 40
0.2
 40
0.2
 40
0.2
 40
0.2
 40
0.4
 40
0.4
 40
0.4
 40
0.4
 40
0.6
 40
0.6
 40
0.6
 40
0.6
 40
1.0
 40
1.0
 40
1.0
 40
1.0
 10
165.7231
 20
83.6677
 30
0.0
 10
163.0919
 20
84.2312
 30
0.0
 10
160.8472
 20
82.1696
 30
0.0
 10
160.2137
 20
80.9942
 30
0.0
 10
160.2137
 20
80.9942
 30
0.0
 10
159.8213
 20
81.6835
 30
0.0
 10
158.8518
 20
82.9536
 30
0.0
 10
158.2419
 20
83.719
 30
0.0
 10
158.2419
 20
83.719
 30
0.0
 10
159.2329
 20
84.6917
 30
0.0
 10
160.4228
 20
85.4498
 30
0.0
 10
161.2335
 20
86.2552
 30
0.0
 10
161.2335
 20
86.2552
 30
0.0
 10
162.477
 20
85.2861
 30
0.0
 10
164.1273
 20
84.0837
 30
0.0
 10
165.7231
 20
83.6677
 30
0.0
  0
SPLINE
  5
67
330
1F
100
AcDbEntity
  8
layer 1
 62
     7
100
AcDbSpline
210
0.0
220
0.0
230
1.0
 70
    11
 71
     3
 72
    16
 73
    12
 74
     0
 42
0.0000000001
 43
0.0000000001
 12
1.0
 22
0.0
 32
0.0
 13
1.0
 23
0.0
 33
0.0
 40
0.0
 40
0.0
 40
0.0
 40
0.0
 40
0.25
 40
0.25
 40
0.25
 40
0.25
 40
0.5
 40
0.5
 40
0.5
 40
0.5
 40
1.0
 40
1.0
 40
1.0
 40
1.0
 10
155.4274
 20
68.0585
 30
0.0
 10
153.083
 20
68.8879
 30
0.0
 10
150.802
 20
73.6607
 30
0.0
 10
150.7403
 20
75.863
 30
0.0
 10
150.7403
 20
75.863
 30
0.0
 10
151.9023
 20
78.0459
 30
0.0
 10
153.6979
 20
80.9314
 30
0.0
 10
155.785
 20
81.9172
 30
0.0
 10
155.785
 20
81.9172
 30
0.0
 10
158.5531
 20
78.5684
 30
0.0
 10
159.1949
 20
71.5147
 30
0.0
 10
155.4274
 20
68.0585
 30
0.0
  0
SPLINE
  5
68
330
1F
100
AcDbEntity
  8
layer 1
 62
     7
100
AcDbSpline
210
0.0
220
0.0
230
1.0
 70
    11
 71
     3
 72
    20
 73
    16
 74
     0
 42
0.0000000001
 43
0.0000000001
 12
1.0
 22
0.0
 32
0.0
 13
1.0
 23
0.0
 33
0.0
 40
0.0
 40
0.0
 40
0.0
 40
0.0
 40
0.2
 40
0.2
 40
0.2
 40
0.2
 40
0.4
 40
0.4
 40
0.4
 40
0.4
 40
0.6
 40
0.6
 40
0.6
 40
0.6
 40
1.0
 40
1.0
 40
1.0
 40
1.0
 10
166.5831
 20
80.0743
 30
0.0
 10
163.8222
 20
79.1049
 30
0.0
 10
164.3301
 20
75.2522
 30
0.0
 10
166.5512
 20
75.0233
 30
0.0
 10
166.5512
 20
75.0233
 30
0.0
 10
164.2057
 20
74.1964
 30
0.0
 10
164.1004
 20
70.9862
 30
0.0
 10
166.8716
 20
70.2971
 30
0.0
 10
166.8716
 20
70.2971
 30
0.0
 10
164.8001
 20
69.3142
 30
0.0
 10
161.112
 20
70.1455
 30
0.0
 10
160.1414
 20
74.186
 30
0.0
 10
160.1414
 20
74.186
 30
0.0
 10
159.3793
 20
77.361
 30
0.0
 10
162.8097
 20
81.4929
 30
0.0
 10
166.5831
 20
80.0743
 30
0.0
  0
SPLINE
  5
69
330
1F
100
AcDbEntity
  8
layer 1
 62
     7
100
AcDbSpline
210
0.0
220
0.0
230
1.0
 70
    11
 71
     3
 72
    16
 73
    12
 74
     0
 42
0.0000000001
 43
0.0000000001
 12
1.0
 22
0.0
 32
0.0
 13
1.0
 23
0.0
 33
0.0
 40
0.0
 40
0.0
 40
0.0
 40
0.0
 40
0.25
 40
0.25
 40
0.25
 40
0.25
 40
0.5
 40
0.5
 40
0.5
 40
0.5
 40
1.0
 40
1.0
 40
1.0
 40
1.0
 10
191.7873
 20
60.6723
 30
0.0
 10
190.7201
 20
62.3214
 30
0.0
 10
189.3663
 20
64.8259
 30
0.0
 10
189.4436
 20
67.4064
 30
0.0
 10
189.4436
 20
67.4064
 30
0.0
 10
189.494
 20
70.6453
 30
0.0
 10
190.5499
 20
73.269
 30
0.0
 10
191.7873
 20
74.4054
 30
0.0
 10
191.7873
 20
74.4054
 30
0.0
 10
191.7873
 20
74.4054
 30
0.0
 10
191.7873
 20
60.6723
 30
0.0
 10
191.7873
 20
60.6723
 30
0.0
  0
SPLINE
  5
6A
330
1F
100
AcDbEntity
  8
layer 1
 62
     7
100
AcDbSpline
210
0.0
220
0.0
230
1.0
 70
    11
 71
     3
 72
    20
 73
    16
 74
     0
 42
0.0000000001
 43
0.0000000001
 12
1.0
 22
0.0
 32
0.0
 13
1.0
 23
0.0
 33
0.0
 40
0.0
 40
0.0
 40
0.0
 40
0.0
 40
0.2
 40
0.2
 40
0.2
 40
0.2
 40
0.4
 40
0.4
 40
0.4
 40
0.4
 40
0.6
 40
0.6
 40
0.6
 40
0.6
 40
1.0
 40
1.0
 40
1.0
 40
1.0
 10
165.6189
 20
66.3846
 30
0.0
 10
164.4836
 20
66.0198
 30
0.0
 10
161.3643
 20
63.9646
 30
0.0
 10
160.84
 20
63.5329
 30
0.0
 10
160.84
 20
63.5329
 30
0.0
 10
160.4558
 20
64.0355
 30
0.0
 10
158.7746
 20
65.7766
 30
0.0
 10
157.5918
 20
66.6709
 30
0.0
 10
157.5918
 20
66.6709
 30
0.0
 10
158.145
 20
67.3116
 30
0.0
 10
159.3782
 20
68.8517
 30
0.0
 10
159.5821
 20
69.9685
 30
0.0
 10
159.5821
 20
69.9685
 30
0.0
 10
160.1921
 20
67.768
 30
0.0
 10
162.8559
 20
66.4874
 30
0.0
 10
165.6189
 20
66.3846
 30
0.0
  0
SPLINE
  5
6B
330
1F
100
AcDbEntity
  8
layer 1
 62
     7
100
AcDbSpline
210
0.0
220
0.0
230
1.0
 70
    11
 71
     3
 72
    32
 73
    28
 74
     0
 42
0.0000000001
 43
0.0000000001
 12
1.0
 22
0.0
 32
0.0
 13
1.0
 23
0.0
 33
0.0
 40
0.0
 40
0.0
 40
0.0
 40
0.0
 40
0.125
 40
0.125
 40
0.125
 40
0.125
 40
0.25
 40
0.25
 40
0.25
 40
0.25
 40
0.375
 40
0.375
 40
0.375
 40
0.375
 40
0.5
 40
0.5
 40
0.5
 40
0.5
 40
0.625
 40
0.625
 40
0.625
 40
0.625
 40
0.75
 40
0.75
 40
0.75
 40
0.75
 40
1.0
 40
1.0
 40
1.0
 40
1.0
 10
173.8705
 20
49.5167
 30
0.0
 10
179.1152
 20
45.1135
 30
0.0
 10
191.7873
 20
47.5869
 30
0.0
 10
191.8603
 20
56.0828
 30
0.0
 10
191.8603
 20
56.0828
 30
0.0
 10
191.8603
 20
56.0828
 30
0.0
 10
191.7873
 20
41.8708
 30
0.0
 10
191.7873
 20
41.8708
 30
0.0
 10
191.7873
 20
41.8708
 30
0.0
 10
188.7616
 20
49.6865
 30
0.0
 10
177.7285
 20
47.5416
 30
0.0
 10
178.9628
 20
39.5714
 30
0.0
 10
178.9628
 20
39.5714
 30
0.0
 10
177.165
 20
41.3144
 30
0.0
 10
175.1222
 20
40.8641
 30
0.0
 10
173.275
 20
38.9914
 30
0.0
 10
173.275
 20
38.9914
 30
0.0
 10
175.2633
 20
48.2155
 30
0.0
 10
169.819
 20
56.2972
 30
0.0
 10
163.2773
 20
61.757
 30
0.0
 10
163.2773
 20
61.757
 30
0.0
 10
173.5203
 20
68.7004
 30
0.0
 10
181.5586
 20
56.8668
 30
0.0
 10
174.1612
 20
51.171
 30
0.0
 10
174.1612
 20
51.171
 30
0.0
 10
173.2864
 20
50.7013
 30
0.0
 10
173.1176
 20
50.048
 30
0.0
 10
173.8705
 20
49.5167
 30
0.0
  0
SPLINE
  5
6C
330
1F
100
AcDbEntity
  8
layer 1
 62
     7
100
AcDbSpline
210
0.0
220
0.0
230
1.0
 70
    11
 71
     3
 72
    16
 73
    12
 74
     0
 42
0.0000000001
 43
0.0000000001
 12
1.0
 22
0.0
 32
0.0
 13
1.0
 23
0.0
 33
0.0
 40
0.0
 40
0.0
 40
0.0
 40
0.0
 40
0.25
 40
0.25
 40
0.25
 40
0.25
 40
0.5
 40
0.5
 40
0.5
 40
0.5
 40
1.0
 40
1.0
 40
1.0
 40
1.0
 10
157.2726
 20
62.0661
 30
0.0
 10
155.3256
 20
60.7929
 30
0.0
 10
153.185
 20
58.105
 30
0.0
 10
151.5357
 20
55.131
 30
0.0
 10
151.5357
 20
55.131
 30
0.0
 10
152.5236
 20
58.9684
 30
0.0
 10
154.2913
 20
62.2731
 30
0.0
 10
155.5429
 20
63.7729
 30
0.0
 10
155.5429
 20
63.7729
 30
0.0
 10
156.0292
 20
63.058
 30
0.0
 10
156.5184
 20
62.7726
 30
0.0
 10
157.2726
 20
62.0661
 30
0.0
  0
SPLINE
  5
6D
330
1F
100
AcDbEntity
  8
layer 1
 62
     7
100
AcDbSpline
210
0.0
220
0.0
230
1.0
 70
    11
 71
     3
 72
   128
 73
   124
 74
     0
 42
0.0000000001
 43
0.0000000001
 12
1.0
 22
0.0
 32
0.0
 13
1.0
 23
0.0
 33
0.0
 40
0.0
 40
0.0
 40
0.0
 40
0.0
 40
0.03125
 40
0.03125
 40
0.03125
 40
0.03125
 40
0.0625
 40
0.0625
 40
0.0625
 40
0.0625
 40
0.09375
 40
0.09375
 40
0.09375
 40
0.09375
 40
0.125
 40
0.125
 40
0.125
 40
0.125
 40
0.15625
 40
0.15625
 40
0.15625
 40
0.15625
 40
0.1875
 40
0.1875
 40
0.1875
 40
0.1875
 40
0.21875
 40
0.21875
 40
0.21875
 40
0.21875
 40
0.25
 40
0.25
 40
0.25
 40
0.25
 40
0.28125
 40
0.28125
 40
0.28125
 40
0.28125
 40
0.3125
 40
0.3125
 40
0.3125
 40
0.3125
 40
0.34375
 40
0.34375
 40
0.34375
 40
0.34375
 40
0.375
 40
0.375
 40
0.375
 40
0.375
 40
0.40625
 40
0.40625
 40
0.40625
 40
0.40625
 40
0.4375
 40
0.4375
 40
0.4375
 40
0.4375
 40
0.46875
 40
0.46875
 40
0.46875
 40
0.46875
 40
0.5
 40
0.5
 40
0.5
 40
0.5
 40
0.53125
 40
0.53125
 40
0.53125
 40
0.53125
 40
0.5625
 40
0.5625
 40
0.5625
 40
0.5625
 40
0.59375
 40
0.59375
 40
0.59375
 40
0.59375
 40
0.625
 40
0.625
 40
0.625
 40
0.625
 40
0.65625
 40
0.65625
 40
0.65625
 40
0.65625
 40
0.6875
 40
0.6875
 40
0.6875
 40
0.6875
 40
0.71875
 40
0.71875
 40
0.71875
 40
0.71875
 40
0.75
 40
0.75
 40
0.75
 40
0.75
 40
0.78125
 40
0.78125
 40
0.78125
 40
0.78125
 40
0.8125
 40
0.8125
 40
0.8125
 40
0.8125
 40
0.84375
 40
0.84375
 40
0.84375
 40
0.84375
 40
0.875
 40
0.875
 40
0.875
 40
0.875
 40
0.90625
 40
0.90625
 40
0.90625
 40
0.90625
 40
0.9375
 40
0.9375
 40
0.9375
 40
0.9375
 40
1.0
 40
1.0
 40
1.0
 40
1.0
 10
160.2591
 20
58.7622
 30
0.0
 10
162.2338
 20
56.6443
 30
0.0
 10
163.8038
 20
53.6897
 30
0.0
 10
164.7413
 20
50.3315
 30
0.0
 10
164.7413
 20
50.3315
 30
0.0
 10
165.5541
 20
47.4193
 30
0.0
 10
165.788
 20
45.262
 30
0.0
 10
165.6487
 20
41.947
 30
0.0
 10
165.6487
 20
41.947
 30
0.0
 10
165.3028
 20
37.2596
 30
0.0
 10
164.3096
 20
34.9747
 30
0.0
 10
162.3728
 20
31.2918
 30
0.0
 10
162.3728
 20
31.2918
 30
0.0
 10
164.9072
 20
32.8938
 30
0.0
 10
166.9004
 20
34.13
 30
0.0
 10
169.3996
 20
34.9531
 30
0.0
 10
169.3996
 20
34.9531
 30
0.0
 10
168.8641
 20
33.5636
 30
0.0
 10
168.5713
 20
32.0376
 30
0.0
 10
168.8403
 20
30.8395
 30
0.0
 10
168.8403
 20
30.8395
 30
0.0
 10
169.8796
 20
27.5288
 30
0.0
 10
172.2326
 20
27.9758
 30
0.0
 10
173.0907
 20
29.2026
 30
0.0
 10
173.0907
 20
29.2026
 30
0.0
 10
173.7582
 20
30.1587
 30
0.0
 10
173.6685
 20
32.6548
 30
0.0
 10
171.0479
 20
32.0862
 30
0.0
 10
171.0479
 20
32.0862
 30
0.0
 10
171.3106
 20
35.3313
 30
0.0
 10
171.4836
 20
36.1852
 30
0.0
 10
177.5399
 20
35.1817
 30
0.0
 10
177.5399
 20
35.1817
 30
0.0
 10
178.9153
 20
34.8521
 30
0.0
 10
182.8814
 20
32.5569
 30
0.0
 10
184.0671
 20
31.0838
 30
0.0
 10
184.0671
 20
31.0838
 30
0.0
 10
181.7596
 20
31.434
 30
0.0
 10
179.2315
 20
30.6367
 30
0.0
 10
178.8535
 20
28.355
 30
0.0
 10
178.8535
 20
28.355
 30
0.0
 10
178.6515
 20
26.8508
 30
0.0
 10
180.2236
 20
25.7281
 30
0.0
 10
181.5412
 20
26.4336
 30
0.0
 10
181.5412
 20
26.4336
 30
0.0
 10
182.4476
 20
27.1684
 30
0.0
 10
182.3539
 20
27.609
 30
0.0
 10
182.4507
 20
28.426
 30
0.0
 10
182.4507
 20
28.426
 30
0.0
 10
189.903
 20
25.5045
 30
0.0
 10
185.6958
 20
16.2689
 30
0.0
 10
180.0463
 20
12.7728
 30
0.0
 10
180.0463
 20
12.7728
 30
0.0
 10
184.9901
 20
18.2018
 30
0.0
 10
182.9185
 20
24.261
 30
0.0
 10
176.9671
 20
25.8186
 30
0.0
 10
176.9671
 20
25.8186
 30
0.0
 10
173.6213
 20
26.4955
 30
0.0
 10
171.669
 20
22.9165
 30
0.0
 10
173.1566
 20
20.7266
 30
0.0
 10
173.1566
 20
20.7266
 30
0.0
 10
175.4054
 20
17.8626
 30
0.0
 10
177.7388
 20
20.8152
 30
0.0
 10
177.6832
 20
22.1934
 30
0.0
 10
177.6832
 20
22.1934
 30
0.0
 10
180.4615
 20
19.9015
 30
0.0
 10
179.5509
 20
14.2459
 30
0.0
 10
175.5869
 20
13.5525
 30
0.0
 10
175.5869
 20
13.5525
 30
0.0
 10
171.496
 20
12.9096
 30
0.0
 10
166.2999
 20
14.5539
 30
0.0
 10
164.1737
 20
17.226
 30
0.0
 10
164.1737
 20
17.226
 30
0.0
 10
164.0933
 20
18.078
 30
0.0
 10
164.7342
 20
19.9117
 30
0.0
 10
165.7827
 20
20.5019
 30
0.0
 10
165.7827
 20
20.5019
 30
0.0
 10
165.9784
 20
18.5663
 30
0.0
 10
168.1448
 20
18.3655
 30
0.0
 10
168.797
 20
19.1482
 30
0.0
 10
168.797
 20
19.1482
 30
0.0
 10
169.8786
 20
20.4474
 30
0.0
 10
170.1156
 20
22.2696
 30
0.0
 10
168.4415
 20
23.3596
 30
0.0
 10
168.4415
 20
23.3596
 30
0.0
 10
164.7896
 20
24.8955
 30
0.0
 10
162.001
 20
20.7873
 30
0.0
 10
162.0526
 20
18.1911
 30
0.0
 10
162.0526
 20
18.1911
 30
0.0
 10
158.485
 20
20.7029
 30
0.0
 10
155.1165
 20
19.7923
 30
0.0
 10
152.6491
 20
15.6623
 30
0.0
 10
152.6491
 20
15.6623
 30
0.0
 10
152.2475
 20
15.9857
 30
0.0
 10
151.9898
 20
16.2916
 30
0.0
 10
151.4644
 20
16.5029
 30
0.0
 10
151.4644
 20
16.5029
 30
0.0
 10
157.3128
 20
21.5756
 30
0.0
 10
158.7157
 20
28.1828
 30
0.0
 10
154.3459
 20
35.3816
 30
0.0
 10
154.3459
 20
35.3816
 30
0.0
 10
152.6831
 20
38.7164
 30
0.0
 10
154.3015
 20
42.1044
 30
0.0
 10
157.3921
 20
42.9172
 30
0.0
 10
157.3921
 20
42.9172
 30
0.0
 10
160.3169
 20
43.5652
 30
0.0
 10
162.925
 20
41.885
 30
0.0
 10
162.9509
 20
38.4556
 30
0.0
 10
162.9509
 20
38.4556
 30
0.0
 10
164.5343
 20
40.2141
 30
0.0
 10
164.6084
 20
42.9554
 30
0.0
 10
163.7225
 20
45.0579
 30
0.0
 10
163.7225
 20
45.0579
 30
0.0
 10
161.3036
 20
49.9934
 30
0.0
 10
151.9281
 20
49.1962
 30
0.0
 10
151.48
 20
39.4765
 30
0.0
 10
151.48
 20
39.4765
 30
0.0
 10
149.4504
 20
45.7533
 30
0.0
 10
152.2949
 20
56.9473
 30
0.0
 10
159.0897
 20
59.7532
 30
0.0
 10
159.0897
 20
59.7532
 30
0.0
 10
159.2184
 20
59.7596
 30
0.0
 10
159.745
 20
59.3134
 30
0.0
 10
160.2591
 20
58.7622
 30
0.0
  0
SPLINE
  5
6E
330
1F
100
AcDbEntity
  8
layer 1
 62
     7
100
AcDbSpline
210
0.0
220
0.0
230
1.0
 70
    11
 71
     3
 72
    16
 73
    12
 74
     0
 42
0.0000000001
 43
0.0000000001
 12
1.0
 22
0.0
 32
0.0
 13
1.0
 23
0.0
 33
0.0
 40
0.0
 40
0.0
 40
0.0
 40
0.0
 40
0.25
 40
0.25
 40
0.25
 40
0.25
 40
0.5
 40
0.5
 40
0.5
 40
0.5
 40
1.0
 40
1.0
 40
1.0
 40
1.0
 10
191.7026
 20
40.9518
 30
0.0
 10
191.7026
 20
40.9518
 30
0.0
 10
191.7006
 20
30.132
 30
0.0
 10
191.7006
 20
30.132
 30
0.0
 10
191.7006
 20
30.132
 30
0.0
 10
189.6918
 20
36.6084
 30
0.0
 10
187.4295
 20
34.5493
 30
0.0
 10
186.8649
 20
38.9511
 30
0.0
 10
186.8649
 20
38.9511
 30
0.0
 10
186.6663
 20
41.5143
 30
0.0
 10
188.9955
 20
42.7215
 30
0.0
 10
191.7026
 20
40.9518
 30
0.0
  0
SPLINE
  5
6F
330
1F
100
AcDbEntity
  8
layer 1
 62
     7
100
AcDbSpline
210
0.0
220
0.0
230
1.0
 70
    11
 71
     3
 72
    12
 73
     8
 74
     0
 42
0.0000000001
 43
0.0000000001
 12
1.0
 22
0.0
 32
0.0
 13
1.0
 23
0.0
 33
0.0
 40
0.0
 40
0.0
 40
0.0
 40
0.0
 40
0.3333333333333333
 40
0.3333333333333333
 40
0.3333333333333333
 40
0.3333333333333333
 40
1.0
 40
1.0
 40
1.0
 40
1.0
 10
191.7873
 20
76.1494
 30
0.0
 10
188.3763
 20
79.7087
 30
0.0
 10
188.5205
 20
86.8929
 30
0.0
 10
191.7026
 20
89.903
 30
0.0
 10
191.7026
 20
89.903
 30
0.0
 10
191.7026
 20
89.903
 30
0.0
 10
191.7873
 20
76.1494
 30
0.0
 10
191.7873
 20
76.1494
 30
0.0
  0
SPLINE
  5
70
330
1F
100
AcDbEntity
  8
layer 1
 62
     7
100
AcDbSpline
210
0.0
220
0.0
230
1.0
 70
    11
 71
     3
 72
    20
 73
    16
 74
     0
 42
0.0000000001
 43
0.0000000001
 12
1.0
 22
0.0
 32
0.0
 13
1.0
 23
0.0
 33
0.0
 40
0.0
 40
0.0
 40
0.0
 40
0.0
 40
0.2
 40
0.2
 40
0.2
 40
0.2
 40
0.4
 40
0.4
 40
0.4
 40
0.4
 40
0.6
 40
0.6
 40
0.6
 40
0.6
 40
1.0
 40
1.0
 40
1.0
 40
1.0
 10
138.0858
 20
12.0185
 30
0.0
 10
132.9668
 20
13.8256
 30
0.0
 10
131.2525
 20
8.9467
 30
0.0
 10
122.9289
 20
8.3667
 30
0.0
 10
122.9289
 20
8.3667
 30
0.0
 10
131.2525
 20
7.7855
 30
0.0
 10
132.9667
 20
2.9066
 30
0.0
 10
138.0858
 20
4.7147
 30
0.0
 10
138.0858
 20
4.7147
 30
0.0
 10
137.6385
 20
5.5378
 30
0.0
 10
137.3028
 20
6.6214
 30
0.0
 10
137.2533
 20
8.3667
 30
0.0
 10
137.2533
 20
8.3667
 30
0.0
 10
137.3028
 20
10.0437
 30
0.0
 10
137.5707
 20
11.0585
 30
0.0
 10
138.0858
 20
12.0185
 30
0.0
  0
SPLINE
  5
71
330
1F
100
AcDbEntity
  8
layer 1
 62
     7
100
AcDbSpline
210
0.0
220
0.0
230
1.0
 70
    11
 71
     3
 72
    92
 73
    88
 74
     0
 42
0.0000000001
 43
0.0000000001
 12
1.0
 22
0.0
 32
0.0
 13
1.0
 23
0.0
 33
0.0
 40
0.0
 40
0.0
 40
0.0
 40
0.0
 40
0.0434782608695652
 40
0.0434782608695652
 40
0.0434782608695652
 40
0.0434782608695652
 40
0.0869565217391304
 40
0.0869565217391304
 40
0.0869565217391304
 40
0.0869565217391304
 40
0.1304347826086956
 40
0.1304347826086956
 40
0.1304347826086956
 40
0.1304347826086956
 40
0.1739130434782609
 40
0.1739130434782609
 40
0.1739130434782609
 40
0.1739130434782609
 40
0.2173913043478261
 40
0.2173913043478261
 40
0.2173913043478261
 40
0.2173913043478261
 40
0.2608695652173913
 40
0.2608695652173913
 40
0.2608695652173913
 40
0.2608695652173913
 40
0.3043478260869565
 40
0.3043478260869565
 40
0.3043478260869565
 40
0.3043478260869565
 40
0.3478260869565217
 40
0.3478260869565217
 40
0.3478260869565217
 40
0.3478260869565217
 40
0.391304347826087
 40
0.391304347826087
 40
0.391304347826087
 40
0.391304347826087
 40
0.4347826086956522
 40
0.4347826086956522
 40
0.4347826086956522
 40
0.4347826086956522
 40
0.4782608695652174
 40
0.4782608695652174
 40
0.4782608695652174
 40
0.4782608695652174
 40
0.5217391304347826
 40
0.5217391304347826
 40
0.5217391304347826
 40
0.5217391304347826
 40
0.5652173913043478
 40
0.5652173913043478
 40
0.5652173913043478
 40
0.5652173913043478
 40
0.6086956521739131
 40
0.6086956521739131
 40
0.6086956521739131
 40
0.6086956521739131
 40
0.6521739130434783
 40
0.6521739130434783
 40
0.6521739130434783
 40
0.6521739130434783
 40
0.6956521739130435
 40
0.6956521739130435
 40
0.6956521739130435
 40
0.6956521739130435
 40
0.7391304347826086
 40
0.7391304347826086
 40
0.7391304347826086
 40
0.7391304347826086
 40
0.782608695652174
 40
0.782608695652174
 40
0.782608695652174
 40
0.782608695652174
 40
0.8260869565217391
 40
0.8260869565217391
 40
0.8260869565217391
 40
0.8260869565217391
 40
0.8695652173913043
 40
0.8695652173913043
 40
0.8695652173913043
 40
0.8695652173913043
 40
0.9130434782608695
 40
0.9130434782608695
 40
0.9130434782608695
 40
0.9130434782608695
 40
1.0
 40
1.0
 40
1.0
 40
1.0
 10
146.8823
 20
102.6605
 30
0.0
 10
146.8823
 20
102.6605
 30
0.0
 10
145.2485
 20
102.6
 30
0.0
 10
145.2485
 20
102.6
 30
0.0
 10
145.2485
 20
102.6
 30
0.0
 10
144.9444
 20
91.88
 30
0.0
 10
142.7751
 20
88.9944
 30
0.0
 10
140.0336
 20
84.8037
 30
0.0
 10
140.0336
 20
84.8037
 30
0.0
 10
146.3013
 20
78.4652
 30
0.0
 10
146.2045
 20
70.4928
 30
0.0
 10
139.9957
 20
65.4562
 30
0.0
 10
139.9957
 20
65.4562
 30
0.0
 10
139.9957
 20
65.4562
 30
0.0
 10
140.7724
 20
64.2861
 30
0.0
 10
140.7724
 20
64.2861
 30
0.0
 10
140.7724
 20
64.2861
 30
0.0
 10
143.6372
 20
59.9687
 30
0.0
 10
145.2886
 20
52.9688
 30
0.0
 10
145.3453
 20
44.8901
 30
0.0
 10
145.3453
 20
44.8901
 30
0.0
 10
145.3587
 20
42.9843
 30
0.0
 10
145.2681
 20
42.2682
 30
0.0
 10
144.8395
 20
40.8818
 30
0.0
 10
144.8395
 20
40.8818
 30
0.0
 10
144.552
 20
39.9535
 30
0.0
 10
143.9771
 20
38.0983
 30
0.0
 10
143.5631
 20
36.7591
 30
0.0
 10
143.5631
 20
36.7591
 30
0.0
 10
143.1377
 20
35.3816
 30
0.0
 10
142.6988
 20
33.3676
 30
0.0
 10
142.5535
 20
32.1181
 30
0.0
 10
142.5535
 20
32.1181
 30
0.0
 10
142.2508
 20
29.5241
 30
0.0
 10
142.4054
 20
25.4807
 30
0.0
 10
142.8821
 20
23.4762
 30
0.0
 10
142.8821
 20
23.4762
 30
0.0
 10
143.35
 20
21.5096
 30
0.0
 10
144.7129
 20
17.9533
 30
0.0
 10
145.0157
 20
17.6484
 30
0.0
 10
145.0157
 20
17.6484
 30
0.0
 10
146.19
 20
17.909
 30
0.0
 10
147.4912
 20
17.8678
 30
0.0
 10
148.6656
 20
17.6102
 30
0.0
 10
148.6656
 20
17.6102
 30
0.0
 10
148.9683
 20
17.9154
 30
0.0
 10
150.3695
 20
21.5096
 30
0.0
 10
150.8371
 20
23.4762
 30
0.0
 10
150.8371
 20
23.4762
 30
0.0
 10
151.3141
 20
25.4807
 30
0.0
 10
151.4687
 20
29.5241
 30
0.0
 10
151.1656
 20
32.1181
 30
0.0
 10
151.1656
 20
32.1181
 30
0.0
 10
151.0206
 20
33.3676
 30
0.0
 10
150.5815
 20
35.3816
 30
0.0
 10
150.1561
 20
36.7591
 30
0.0
 10
150.1561
 20
36.7591
 30
0.0
 10
149.7421
 20
38.0983
 30
0.0
 10
149.1672
 20
39.9535
 30
0.0
 10
148.8797
 20
40.8818
 30
0.0
 10
148.8797
 20
40.8818
 30
0.0
 10
148.4512
 20
42.2682
 30
0.0
 10
148.3607
 20
42.9842
 30
0.0
 10
148.3739
 20
44.8901
 30
0.0
 10
148.3739
 20
44.8901
 30
0.0
 10
148.4306
 20
52.9688
 30
0.0
 10
150.082
 20
59.9687
 30
0.0
 10
152.9468
 20
64.2861
 30
0.0
 10
152.9468
 20
64.2861
 30
0.0
 10
152.9468
 20
64.2861
 30
0.0
 10
153.7238
 20
65.4563
 30
0.0
 10
153.7238
 20
65.4563
 30
0.0
 10
153.7238
 20
65.4563
 30
0.0
 10
147.515
 20
70.4928
 30
0.0
 10
147.4179
 20
78.4651
 30
0.0
 10
153.6855
 20
84.8037
 30
0.0
 10
153.6855
 20
84.8037
 30
0.0
 10
150.9441
 20
88.9945
 30
0.0
 10
148.7748
 20
91.8798
 30
0.0
 10
148.471
 20
102.5999
 30
0.0
 10
148.471
 20
102.5999
 30
0.0
 10
148.471
 20
102.5999
 30
0.0
 10
146.837
 20
102.6605
 30
0.0
 10
146.837
 20
102.6605
 30
0.0
 10
146.837
 20
102.6605
 30
0.0
 10
146.837
 20
102.6605
 30
0.0
 10
146.8823
 20
102.6605
 30
0.0
 10
146.8823
 20
102.6605
 30
0.0
  0
SPLINE
  5
72
330
1F
100
AcDbEntity
  8
layer 1
 62
     7
100
AcDbSpline
210
0.0
220
0.0
230
1.0
 70
    11
 71
     3
 72
    16
 73
    12
 74
     0
 42
0.0000000001
 43
0.0000000001
 12
1.0
 22
0.0
 32
0.0
 13
1.0
 23
0.0
 33
0.0
 40
0.0
 40
0.0
 40
0.0
 40
0.0
 40
0.25
 40
0.25
 40
0.25
 40
0.25
 40
0.5
 40
0.5
 40
0.5
 40
0.5
 40
1.0
 40
1.0
 40
1.0
 40
1.0
 10
128.4866
 20
102.6605
 30
0.0
 10
128.6465
 20
98.6286
 30
0.0
 10
131.3042
 20
93.142
 30
0.0
 10
134.37
 20
90.618
 30
0.0
 10
134.37
 20
90.618
 30
0.0
 10
138.7246
 20
92.3415
 30
0.0
 10
141.2761
 20
98.3701
 30
0.0
 10
142.3384
 20
102.6605
 30
0.0
 10
142.3384
 20
102.6605
 30
0.0
 10
142.3384
 20
102.6605
 30
0.0
 10
128.4866
 20
102.6605
 30
0.0
 10
128.4866
 20
102.6605
 30
0.0
  0
SPLINE
  5
73
330
1F
100
AcDbEntity
  8
layer 1
 62
     7
100
AcDbSpline
210
0.0
220
0.0
230
1.0
 70
    11
 71
     3
 72
    24
 73
    20
 74
     0
 42
0.0000000001
 43
0.0000000001
 12
1.0
 22
0.0
 32
0.0
 13
1.0
 23
0.0
 33
0.0
 40
0.0
 40
0.0
 40
0.0
 40
0.0
 40
0.1666666666666667
 40
0.1666666666666667
 40
0.1666666666666667
 40
0.1666666666666667
 40
0.3333333333333333
 40
0.3333333333333333
 40
0.3333333333333333
 40
0.3333333333333333
 40
0.5
 40
0.5
 40
0.5
 40
0.5
 40
0.6666666666666666
 40
0.6666666666666666
 40
0.6666666666666666
 40
0.6666666666666666
 40
1.0
 40
1.0
 40
1.0
 40
1.0
 10
120.2659
 20
102.6605
 30
0.0
 10
120.2659
 20
102.6605
 30
0.0
 10
115.9662
 20
102.6605
 30
0.0
 10
115.9662
 20
102.6605
 30
0.0
 10
115.9662
 20
102.6605
 30
0.0
 10
118.5704
 20
102.2115
 30
0.0
 10
119.582
 20
101.2451
 30
0.0
 10
120.5894
 20
99.6309
 30
0.0
 10
120.5894
 20
99.6309
 30
0.0
 10
117.366
 20
97.8314
 30
0.0
 10
114.665
 20
93.0481
 30
0.0
 10
118.5949
 20
88.8378
 30
0.0
 10
118.5949
 20
88.8378
 30
0.0
 10
121.0149
 20
86.7415
 30
0.0
 10
126.1553
 20
85.15
 30
0.0
 10
130.3223
 20
88.1211
 30
0.0
 10
130.3223
 20
88.1211
 30
0.0
 10
126.5715
 20
91.8451
 30
0.0
 10
122.661
 20
96.803
 30
0.0
 10
120.2659
 20
102.6605
 30
0.0
  0
SPLINE
  5
74
330
1F
100
AcDbEntity
  8
layer 1
 62
     7
100
AcDbSpline
210
0.0
220
0.0
230
1.0
 70
    11
 71
     3
 72
    16
 73
    12
 74
     0
 42
0.0000000001
 43
0.0000000001
 12
1.0
 22
0.0
 32
0.0
 13
1.0
 23
0.0
 33
0.0
 40
0.0
 40
0.0
 40
0.0
 40
0.0
 40
0.25
 40
0.25
 40
0.25
 40
0.25
 40
0.5
 40
0.5
 40
0.5
 40
0.5
 40
1.0
 40
1.0
 40
1.0
 40
1.0
 10
101.9322
 20
96.7084
 30
0.0
 10
103.465
 20
100.3654
 30
0.0
 10
105.6396
 20
101.7902
 30
0.0
 10
108.5263
 20
102.5999
 30
0.0
 10
108.5263
 20
102.5999
 30
0.0
 10
108.5263
 20
102.5999
 30
0.0
 10
101.9517
 20
102.6978
 30
0.0
 10
101.9517
 20
102.6978
 30
0.0
 10
101.9517
 20
102.6978
 30
0.0
 10
101.9517
 20
102.6978
 30
0.0
 10
101.9322
 20
96.7084
 30
0.0
 10
101.9322
 20
96.7084
 30
0.0
  0
SPLINE
  5
75
330
1F
100
AcDbEntity
  8
layer 1
 62
     7
100
AcDbSpline
210
0.0
220
0.0
230
1.0
 70
    11
 71
     3
 72
    88
 73
    84
 74
     0
 42
0.0000000001
 43
0.0000000001
 12
1.0
 22
0.0
 32
0.0
 13
1.0
 23
0.0
 33
0.0
 40
0.0
 40
0.0
 40
0.0
 40
0.0
 40
0.0454545454545455
 40
0.0454545454545455
 40
0.0454545454545455
 40
0.0454545454545455
 40
0.0909090909090909
 40
0.0909090909090909
 40
0.0909090909090909
 40
0.0909090909090909
 40
0.1363636363636364
 40
0.1363636363636364
 40
0.1363636363636364
 40
0.1363636363636364
 40
0.1818181818181818
 40
0.1818181818181818
 40
0.1818181818181818
 40
0.1818181818181818
 40
0.2272727272727273
 40
0.2272727272727273
 40
0.2272727272727273
 40
0.2272727272727273
 40
0.2727272727272727
 40
0.2727272727272727
 40
0.2727272727272727
 40
0.2727272727272727
 40
0.3181818181818182
 40
0.3181818181818182
 40
0.3181818181818182
 40
0.3181818181818182
 40
0.3636363636363636
 40
0.3636363636363636
 40
0.3636363636363636
 40
0.3636363636363636
 40
0.4090909090909091
 40
0.4090909090909091
 40
0.4090909090909091
 40
0.4090909090909091
 40
0.4545454545454545
 40
0.4545454545454545
 40
0.4545454545454545
 40
0.4545454545454545
 40
0.5
 40
0.5
 40
0.5
 40
0.5
 40
0.5454545454545454
 40
0.5454545454545454
 40
0.5454545454545454
 40
0.5454545454545454
 40
0.5909090909090909
 40
0.5909090909090909
 40
0.5909090909090909
 40
0.5909090909090909
 40
0.6363636363636364
 40
0.6363636363636364
 40
0.6363636363636364
 40
0.6363636363636364
 40
0.6818181818181818
 40
0.6818181818181818
 40
0.6818181818181818
 40
0.6818181818181818
 40
0.7272727272727273
 40
0.7272727272727273
 40
0.7272727272727273
 40
0.7272727272727273
 40
0.7727272727272727
 40
0.7727272727272727
 40
0.7727272727272727
 40
0.7727272727272727
 40
0.8181818181818182
 40
0.8181818181818182
 40
0.8181818181818182
 40
0.8181818181818182
 40
0.8636363636363636
 40
0.8636363636363636
 40
0.8636363636363636
 40
0.8636363636363636
 40
0.9090909090909091
 40
0.9090909090909091
 40
0.9090909090909091
 40
0.9090909090909091
 40
1.0
 40
1.0
 40
1.0
 40
1.0
 10
103.8935
 20
93.3418
 30
0.0
 10
103.8935
 20
90.4738
 30
0.0
 10
105.6593
 20
88.5691
 30
0.0
 10
107.2849
 20
90.0554
 30
0.0
 10
107.2849
 20
90.0554
 30
0.0
 10
108.7219
 20
91.7349
 30
0.0
 10
108.1399
 20
94.0495
 30
0.0
 10
107.3435
 20
95.8409
 30
0.0
 10
107.3435
 20
95.8409
 30
0.0
 10
111.5734
 20
93.0007
 30
0.0
 10
111.8682
 20
84.0188
 30
0.0
 10
109.0793
 20
80.6153
 30
0.0
 10
109.0793
 20
80.6153
 30
0.0
 10
109.5173
 20
80.4289
 30
0.0
 10
110.5988
 20
79.6735
 30
0.0
 10
111.082
 20
79.9559
 30
0.0
 10
111.082
 20
79.9559
 30
0.0
 10
109.8686
 20
83.2894
 30
0.0
 10
114.9864
 20
83.5254
 30
0.0
 10
115.0555
 20
79.928
 30
0.0
 10
115.0555
 20
79.928
 30
0.0
 10
115.1616
 20
77.1766
 30
0.0
 10
110.942
 20
75.5364
 30
0.0
 10
107.7259
 20
78.7607
 30
0.0
 10
107.7259
 20
78.7607
 30
0.0
 10
106.7884
 20
77.2979
 30
0.0
 10
105.0206
 20
76.171
 30
0.0
 10
102.0166
 20
75.2767
 30
0.0
 10
102.0166
 20
75.2767
 30
0.0
 10
103.7534
 20
74.8071
 30
0.0
 10
106.302
 20
72.7458
 30
0.0
 10
107.7266
 20
71.5601
 30
0.0
 10
107.7266
 20
71.5601
 30
0.0
 10
111.1696
 20
74.4444
 30
0.0
 10
115.6383
 20
72.5345
 30
0.0
 10
114.9368
 20
69.5811
 30
0.0
 10
114.9368
 20
69.5811
 30
0.0
 10
114.3137
 20
67.532
 30
0.0
 10
112.2503
 20
67.4238
 30
0.0
 10
111.4137
 20
68.3294
 30
0.0
 10
111.4137
 20
68.3294
 30
0.0
 10
111.1674
 20
68.6004
 30
0.0
 10
110.8151
 20
69.8396
 30
0.0
 10
111.2571
 20
70.3858
 30
0.0
 10
111.2571
 20
70.3858
 30
0.0
 10
110.2713
 20
70.5155
 30
0.0
 10
109.6574
 20
70.2599
 30
0.0
 10
109.029
 20
69.6768
 30
0.0
 10
109.029
 20
69.6768
 30
0.0
 10
111.4631
 20
66.4565
 30
0.0
 10
112.6498
 20
58.0143
 30
0.0
 10
107.3519
 20
54.1265
 30
0.0
 10
107.3519
 20
54.1265
 30
0.0
 10
109.2082
 20
57.8692
 30
0.0
 10
108.1523
 20
59.1095
 30
0.0
 10
107.1499
 20
60.2034
 30
0.0
 10
107.1499
 20
60.2034
 30
0.0
 10
104.7374
 20
61.5356
 30
0.0
 10
103.914
 20
58.6274
 30
0.0
 10
103.8803
 20
56.875
 30
0.0
 10
103.8803
 20
56.875
 30
0.0
 10
103.5556
 20
50.9012
 30
0.0
 10
111.7898
 20
48.6915
 30
0.0
 10
115.7312
 20
51.8366
 30
0.0
 10
115.7312
 20
51.8366
 30
0.0
 10
111.1561
 20
60.4373
 30
0.0
 10
117.2713
 20
68.0584
 30
0.0
 10
126.3697
 20
66.6625
 30
0.0
 10
126.3697
 20
66.6625
 30
0.0
 10
123.3514
 20
67.4487
 30
0.0
 10
121.6401
 20
74.1108
 30
0.0
 10
125.7051
 20
75.0646
 30
0.0
 10
125.7051
 20
75.0646
 30
0.0
 10
121.9389
 20
76.2112
 30
0.0
 10
122.0676
 20
81.3631
 30
0.0
 10
124.6627
 20
83.1575
 30
0.0
 10
124.6627
 20
83.1575
 30
0.0
 10
115.2016
 20
84.0455
 30
0.0
 10
111.8268
 20
91.5689
 30
0.0
 10
116.3656
 20
99.2198
 30
0.0
 10
116.3656
 20
99.2198
 30
0.0
 10
111.5425
 20
101.4452
 30
0.0
 10
104.4992
 20
99.3537
 30
0.0
 10
103.8935
 20
93.3418
 30
0.0
  0
SPLINE
  5
76
330
1F
100
AcDbEntity
  8
layer 1
 62
     7
100
AcDbSpline
210
0.0
220
0.0
230
1.0
 70
    11
 71
     3
 72
    16
 73
    12
 74
     0
 42
0.0000000001
 43
0.0000000001
 12
1.0
 22
0.0
 32
0.0
 13
1.0
 23
0.0
 33
0.0
 40
0.0
 40
0.0
 40
0.0
 40
0.0
 40
0.25
 40
0.25
 40
0.25
 40
0.25
 40
0.5
 40
0.5
 40
0.5
 40
0.5
 40
1.0
 40
1.0
 40
1.0
 40
1.0
 10
136.2079
 20
88.1973
 30
0.0
 10
136.6786
 20
87.8511
 30
0.0
 10
137.5758
 20
86.8383
 30
0.0
 10
137.8136
 20
86.9485
 30
0.0
 10
137.8136
 20
86.9485
 30
0.0
 10
140.3633
 20
89.7856
 30
0.0
 10
142.7276
 20
93.5622
 30
0.0
 10
143.3766
 20
97.3655
 30
0.0
 10
143.3766
 20
97.3655
 30
0.0
 10
140.447
 20
91.7759
 30
0.0
 10
139.2499
 20
90.9929
 30
0.0
 10
136.2079
 20
88.1973
 30
0.0
  0
SPLINE
  5
77
330
1F
100
AcDbEntity
  8
layer 1
 62
     7
100
AcDbSpline
210
0.0
220
0.0
230
1.0
 70
    11
 71
     3
 72
    20
 73
    16
 74
     0
 42
0.0000000001
 43
0.0000000001
 12
1.0
 22
0.0
 32
0.0
 13
1.0
 23
0.0
 33
0.0
 40
0.0
 40
0.0
 40
0.0
 40
0.0
 40
0.2
 40
0.2
 40
0.2
 40
0.2
 40
0.4
 40
0.4
 40
0.4
 40
0.4
 40
0.6
 40
0.6
 40
0.6
 40
0.6
 40
1.0
 40
1.0
 40
1.0
 40
1.0
 10
127.9964
 20
83.6677
 30
0.0
 10
130.6273
 20
84.2312
 30
0.0
 10
132.872
 20
82.1696
 30
0.0
 10
133.5055
 20
80.9942
 30
0.0
 10
133.5055
 20
80.9942
 30
0.0
 10
133.8982
 20
81.6835
 30
0.0
 10
134.8676
 20
82.9536
 30
0.0
 10
135.4774
 20
83.719
 30
0.0
 10
135.4774
 20
83.719
 30
0.0
 10
134.4863
 20
84.6917
 30
0.0
 10
133.2964
 20
85.4498
 30
0.0
 10
132.4857
 20
86.2552
 30
0.0
 10
132.4857
 20
86.2552
 30
0.0
 10
131.2422
 20
85.2861
 30
0.0
 10
129.5921
 20
84.0837
 30
0.0
 10
127.9964
 20
83.6677
 30
0.0
  0
SPLINE
  5
78
330
1F
100
AcDbEntity
  8
layer 1
 62
     7
100
AcDbSpline
210
0.0
220
0.0
230
1.0
 70
    11
 71
     3
 72
    16
 73
    12
 74
     0
 42
0.0000000001
 43
0.0000000001
 12
1.0
 22
0.0
 32
0.0
 13
1.0
 23
0.0
 33
0.0
 40
0.0
 40
0.0
 40
0.0
 40
0.0
 40
0.25
 40
0.25
 40
0.25
 40
0.25
 40
0.5
 40
0.5
 40
0.5
 40
0.5
 40
1.0
 40
1.0
 40
1.0
 40
1.0
 10
138.2918
 20
68.0585
 30
0.0
 10
140.6366
 20
68.8879
 30
0.0
 10
142.9172
 20
73.6607
 30
0.0
 10
142.979
 20
75.863
 30
0.0
 10
142.979
 20
75.863
 30
0.0
 10
141.8169
 20
78.0459
 30
0.0
 10
140.0213
 20
80.9314
 30
0.0
 10
137.9342
 20
81.9172
 30
0.0
 10
137.9342
 20
81.9172
 30
0.0
 10
135.1661
 20
78.5684
 30
0.0
 10
134.5245
 20
71.5147
 30
0.0
 10
138.2918
 20
68.0585
 30
0.0
  0
SPLINE
  5
79
330
1F
100
AcDbEntity
  8
layer 1
 62
     7
100
AcDbSpline
210
0.0
220
0.0
230
1.0
 70
    11
 71
     3
 72
    20
 73
    16
 74
     0
 42
0.0000000001
 43
0.0000000001
 12
1.0
 22
0.0
 32
0.0
 13
1.0
 23
0.0
 33
0.0
 40
0.0
 40
0.0
 40
0.0
 40
0.0
 40
0.2
 40
0.2
 40
0.2
 40
0.2
 40
0.4
 40
0.4
 40
0.4
 40
0.4
 40
0.6
 40
0.6
 40
0.6
 40
0.6
 40
1.0
 40
1.0
 40
1.0
 40
1.0
 10
127.1361
 20
80.0743
 30
0.0
 10
129.897
 20
79.1049
 30
0.0
 10
129.3891
 20
75.2522
 30
0.0
 10
127.168
 20
75.0233
 30
0.0
 10
127.168
 20
75.0233
 30
0.0
 10
129.5138
 20
74.1964
 30
0.0
 10
129.6187
 20
70.9862
 30
0.0
 10
126.8475
 20
70.2971
 30
0.0
 10
126.8475
 20
70.2971
 30
0.0
 10
128.9194
 20
69.3142
 30
0.0
 10
132.6073
 20
70.1455
 30
0.0
 10
133.5777
 20
74.186
 30
0.0
 10
133.5777
 20
74.186
 30
0.0
 10
134.3402
 20
77.361
 30
0.0
 10
130.9097
 20
81.4929
 30
0.0
 10
127.1361
 20
80.0743
 30
0.0
  0
SPLINE
  5
7A
330
1F
100
AcDbEntity
  8
layer 1
 62
     7
100
AcDbSpline
210
0.0
220
0.0
230
1.0
 70
    11
 71
     3
 72
    16
 73
    12
 74
     0
 42
0.0000000001
 43
0.0000000001
 12
1.0
 22
0.0
 32
0.0
 13
1.0
 23
0.0
 33
0.0
 40
0.0
 40
0.0
 40
0.0
 40
0.0
 40
0.25
 40
0.25
 40
0.25
 40
0.25
 40
0.5
 40
0.5
 40
0.5
 40
0.5
 40
1.0
 40
1.0
 40
1.0
 40
1.0
 10
101.9322
 20
60.6723
 30
0.0
 10
102.9995
 20
62.3214
 30
0.0
 10
104.3529
 20
64.8259
 30
0.0
 10
104.2758
 20
67.4064
 30
0.0
 10
104.2758
 20
67.4064
 30
0.0
 10
104.2252
 20
70.6453
 30
0.0
 10
103.1693
 20
73.269
 30
0.0
 10
101.9322
 20
74.4054
 30
0.0
 10
101.9322
 20
74.4054
 30
0.0
 10
101.9322
 20
74.4054
 30
0.0
 10
101.9322
 20
60.6723
 30
0.0
 10
101.9322
 20
60.6723
 30
0.0
  0
SPLINE
  5
7B
330
1F
100
AcDbEntity
  8
layer 1
 62
     7
100
AcDbSpline
210
0.0
220
0.0
230
1.0
 70
    11
 71
     3
 72
    20
 73
    16
 74
     0
 42
0.0000000001
 43
0.0000000001
 12
1.0
 22
0.0
 32
0.0
 13
1.0
 23
0.0
 33
0.0
 40
0.0
 40
0.0
 40
0.0
 40
0.0
 40
0.2
 40
0.2
 40
0.2
 40
0.2
 40
0.4
 40
0.4
 40
0.4
 40
0.4
 40
0.6
 40
0.6
 40
0.6
 40
0.6
 40
1.0
 40
1.0
 40
1.0
 40
1.0
 10
128.1003
 20
66.3846
 30
0.0
 10
129.2356
 20
66.0198
 30
0.0
 10
132.3549
 20
63.9646
 30
0.0
 10
132.8791
 20
63.5329
 30
0.0
 10
132.8791
 20
63.5329
 30
0.0
 10
133.2634
 20
64.0355
 30
0.0
 10
134.9446
 20
65.7766
 30
0.0
 10
136.1274
 20
66.6709
 30
0.0
 10
136.1274
 20
66.6709
 30
0.0
 10
135.5742
 20
67.3116
 30
0.0
 10
134.341
 20
68.8517
 30
0.0
 10
134.1371
 20
69.9685
 30
0.0
 10
134.1371
 20
69.9685
 30
0.0
 10
133.5271
 20
67.768
 30
0.0
 10
130.8633
 20
66.4874
 30
0.0
 10
128.1003
 20
66.3846
 30
0.0
  0
SPLINE
  5
7C
330
1F
100
AcDbEntity
  8
layer 1
 62
     7
100
AcDbSpline
210
0.0
220
0.0
230
1.0
 70
    11
 71
     3
 72
    32
 73
    28
 74
     0
 42
0.0000000001
 43
0.0000000001
 12
1.0
 22
0.0
 32
0.0
 13
1.0
 23
0.0
 33
0.0
 40
0.0
 40
0.0
 40
0.0
 40
0.0
 40
0.125
 40
0.125
 40
0.125
 40
0.125
 40
0.25
 40
0.25
 40
0.25
 40
0.25
 40
0.375
 40
0.375
 40
0.375
 40
0.375
 40
0.5
 40
0.5
 40
0.5
 40
0.5
 40
0.625
 40
0.625
 40
0.625
 40
0.625
 40
0.75
 40
0.75
 40
0.75
 40
0.75
 40
1.0
 40
1.0
 40
1.0
 40
1.0
 10
119.8487
 20
49.5167
 30
0.0
 10
114.6043
 20
45.1135
 30
0.0
 10
101.9322
 20
47.5869
 30
0.0
 10
101.8588
 20
56.0828
 30
0.0
 10
101.8588
 20
56.0828
 30
0.0
 10
101.8588
 20
56.0828
 30
0.0
 10
101.9322
 20
41.8708
 30
0.0
 10
101.9322
 20
41.8708
 30
0.0
 10
101.9322
 20
41.8708
 30
0.0
 10
104.9576
 20
49.6865
 30
0.0
 10
115.9907
 20
47.5416
 30
0.0
 10
114.7567
 20
39.5714
 30
0.0
 10
114.7567
 20
39.5714
 30
0.0
 10
116.5543
 20
41.3144
 30
0.0
 10
118.597
 20
40.8641
 30
0.0
 10
120.4441
 20
38.9914
 30
0.0
 10
120.4441
 20
38.9914
 30
0.0
 10
118.456
 20
48.2155
 30
0.0
 10
123.9005
 20
56.2972
 30
0.0
 10
130.4419
 20
61.757
 30
0.0
 10
130.4419
 20
61.757
 30
0.0
 10
120.1989
 20
68.7004
 30
0.0
 10
112.1606
 20
56.8668
 30
0.0
 10
119.5583
 20
51.171
 30
0.0
 10
119.5583
 20
51.171
 30
0.0
 10
120.4339
 20
50.7013
 30
0.0
 10
120.6018
 20
50.048
 30
0.0
 10
119.8487
 20
49.5167
 30
0.0
  0
SPLINE
  5
7D
330
1F
100
AcDbEntity
  8
layer 1
 62
     7
100
AcDbSpline
210
0.0
220
0.0
230
1.0
 70
    11
 71
     3
 72
    16
 73
    12
 74
     0
 42
0.0000000001
 43
0.0000000001
 12
1.0
 22
0.0
 32
0.0
 13
1.0
 23
0.0
 33
0.0
 40
0.0
 40
0.0
 40
0.0
 40
0.0
 40
0.25
 40
0.25
 40
0.25
 40
0.25
 40
0.5
 40
0.5
 40
0.5
 40
0.5
 40
1.0
 40
1.0
 40
1.0
 40
1.0
 10
136.4468
 20
62.0661
 30
0.0
 10
138.3939
 20
60.7929
 30
0.0
 10
140.5345
 20
58.105
 30
0.0
 10
142.1838
 20
55.131
 30
0.0
 10
142.1838
 20
55.131
 30
0.0
 10
141.196
 20
58.9684
 30
0.0
 10
139.4279
 20
62.2731
 30
0.0
 10
138.1763
 20
63.7729
 30
0.0
 10
138.1763
 20
63.7729
 30
0.0
 10
137.6903
 20
63.058
 30
0.0
 10
137.2008
 20
62.7726
 30
0.0
 10
136.4468
 20
62.0661
 30
0.0
  0
SPLINE
  5
7E
330
1F
100
AcDbEntity
  8
layer 1
 62
     7
100
AcDbSpline
210
0.0
220
0.0
230
1.0
 70
    11
 71
     3
 72
   128
 73
   124
 74
     0
 42
0.0000000001
 43
0.0000000001
 12
1.0
 22
0.0
 32
0.0
 13
1.0
 23
0.0
 33
0.0
 40
0.0
 40
0.0
 40
0.0
 40
0.0
 40
0.03125
 40
0.03125
 40
0.03125
 40
0.03125
 40
0.0625
 40
0.0625
 40
0.0625
 40
0.0625
 40
0.09375
 40
0.09375
 40
0.09375
 40
0.09375
 40
0.125
 40
0.125
 40
0.125
 40
0.125
 40
0.15625
 40
0.15625
 40
0.15625
 40
0.15625
 40
0.1875
 40
0.1875
 40
0.1875
 40
0.1875
 40
0.21875
 40
0.21875
 40
0.21875
 40
0.21875
 40
0.25
 40
0.25
 40
0.25
 40
0.25
 40
0.28125
 40
0.28125
 40
0.28125
 40
0.28125
 40
0.3125
 40
0.3125
 40
0.3125
 40
0.3125
 40
0.34375
 40
0.34375
 40
0.34375
 40
0.34375
 40
0.375
 40
0.375
 40
0.375
 40
0.375
 40
0.40625
 40
0.40625
 40
0.40625
 40
0.40625
 40
0.4375
 40
0.4375
 40
0.4375
 40
0.4375
 40
0.46875
 40
0.46875
 40
0.46875
 40
0.46875
 40
0.5
 40
0.5
 40
0.5
 40
0.5
 40
0.53125
 40
0.53125
 40
0.53125
 40
0.53125
 40
0.5625
 40
0.5625
 40
0.5625
 40
0.5625
 40
0.59375
 40
0.59375
 40
0.59375
 40
0.59375
 40
0.625
 40
0.625
 40
0.625
 40
0.625
 40
0.65625
 40
0.65625
 40
0.65625
 40
0.65625
 40
0.6875
 40
0.6875
 40
0.6875
 40
0.6875
 40
0.71875
 40
0.71875
 40
0.71875
 40
0.71875
 40
0.75
 40
0.75
 40
0.75
 40
0.75
 40
0.78125
 40
0.78125
 40
0.78125
 40
0.78125
 40
0.8125
 40
0.8125
 40
0.8125
 40
0.8125
 40
0.84375
 40
0.84375
 40
0.84375
 40
0.84375
 40
0.875
 40
0.875
 40
0.875
 40
0.875
 40
0.90625
 40
0.90625
 40
0.90625
 40
0.90625
 40
0.9375
 40
0.9375
 40
0.9375
 40
0.9375
 40
1.0
 40
1.0
 40
1.0
 40
1.0
 10
133.4604
 20
58.7622
 30
0.0
 10
131.4854
 20
56.6443
 30
0.0
 10
129.9154
 20
53.6897
 30
0.0
 10
128.9779
 20
50.3315
 30
0.0
 10
128.9779
 20
50.3315
 30
0.0
 10
128.1651
 20
47.4193
 30
0.0
 10
127.9315
 20
45.262
 30
0.0
 10
128.0705
 20
41.947
 30
0.0
 10
128.0705
 20
41.947
 30
0.0
 10
128.4167
 20
37.2596
 30
0.0
 10
129.4096
 20
34.9747
 30
0.0
 10
131.3464
 20
31.2918
 30
0.0
 10
131.3464
 20
31.2918
 30
0.0
 10
128.8123
 20
32.8938
 30
0.0
 10
126.8188
 20
34.13
 30
0.0
 10
124.3195
 20
34.9531
 30
0.0
 10
124.3195
 20
34.9531
 30
0.0
 10
124.8554
 20
33.5636
 30
0.0
 10
125.1479
 20
32.0376
 30
0.0
 10
124.8791
 20
30.8395
 30
0.0
 10
124.8791
 20
30.8395
 30
0.0
 10
123.8396
 20
27.5288
 30
0.0
 10
121.4866
 20
27.9758
 30
0.0
 10
120.6285
 20
29.2026
 30
0.0
 10
120.6285
 20
29.2026
 30
0.0
 10
119.961
 20
30.1587
 30
0.0
 10
120.0507
 20
32.6548
 30
0.0
 10
122.6713
 20
32.0862
 30
0.0
 10
122.6713
 20
32.0862
 30
0.0
 10
122.4086
 20
35.3313
 30
0.0
 10
122.2356
 20
36.1852
 30
0.0
 10
116.1792
 20
35.1817
 30
0.0
 10
116.1792
 20
35.1817
 30
0.0
 10
114.8039
 20
34.8521
 30
0.0
 10
110.8378
 20
32.5569
 30
0.0
 10
109.6521
 20
31.0838
 30
0.0
 10
109.6521
 20
31.0838
 30
0.0
 10
111.9597
 20
31.434
 30
0.0
 10
114.4877
 20
30.6367
 30
0.0
 10
114.8659
 20
28.355
 30
0.0
 10
114.8659
 20
28.355
 30
0.0
 10
115.0677
 20
26.8508
 30
0.0
 10
113.4956
 20
25.7281
 30
0.0
 10
112.1781
 20
26.4336
 30
0.0
 10
112.1781
 20
26.4336
 30
0.0
 10
111.2716
 20
27.1684
 30
0.0
 10
111.3652
 20
27.609
 30
0.0
 10
111.2684
 20
28.426
 30
0.0
 10
111.2684
 20
28.426
 30
0.0
 10
103.8162
 20
25.5045
 30
0.0
 10
108.0233
 20
16.2689
 30
0.0
 10
113.6728
 20
12.7728
 30
0.0
 10
113.6728
 20
12.7728
 30
0.0
 10
108.7291
 20
18.2018
 30
0.0
 10
110.8009
 20
24.261
 30
0.0
 10
116.7521
 20
25.8186
 30
0.0
 10
116.7521
 20
25.8186
 30
0.0
 10
120.0981
 20
26.4955
 30
0.0
 10
122.0502
 20
22.9165
 30
0.0
 10
120.5625
 20
20.7266
 30
0.0
 10
120.5625
 20
20.7266
 30
0.0
 10
118.3138
 20
17.8626
 30
0.0
 10
115.9804
 20
20.8152
 30
0.0
 10
116.036
 20
22.1934
 30
0.0
 10
116.036
 20
22.1934
 30
0.0
 10
113.2577
 20
19.9015
 30
0.0
 10
114.1683
 20
14.2459
 30
0.0
 10
118.1324
 20
13.5525
 30
0.0
 10
118.1324
 20
13.5525
 30
0.0
 10
122.2232
 20
12.9096
 30
0.0
 10
127.4193
 20
14.5539
 30
0.0
 10
129.5457
 20
17.226
 30
0.0
 10
129.5457
 20
17.226
 30
0.0
 10
129.6261
 20
18.078
 30
0.0
 10
128.9853
 20
19.9117
 30
0.0
 10
127.9365
 20
20.5019
 30
0.0
 10
127.9365
 20
20.5019
 30
0.0
 10
127.7408
 20
18.5663
 30
0.0
 10
125.5743
 20
18.3655
 30
0.0
 10
124.9224
 20
19.1482
 30
0.0
 10
124.9224
 20
19.1482
 30
0.0
 10
123.8406
 20
20.4474
 30
0.0
 10
123.6038
 20
22.2696
 30
0.0
 10
125.2777
 20
23.3596
 30
0.0
 10
125.2777
 20
23.3596
 30
0.0
 10
128.9296
 20
24.8955
 30
0.0
 10
131.7183
 20
20.7873
 30
0.0
 10
131.6668
 20
18.1911
 30
0.0
 10
131.6668
 20
18.1911
 30
0.0
 10
135.2342
 20
20.7029
 30
0.0
 10
138.5463
 20
20.0219
 30
0.0
 10
141.0134
 20
15.892
 30
0.0
 10
141.0134
 20
15.892
 30
0.0
 10
141.4142
 20
16.2153
 30
0.0
 10
141.7479
 20
16.4638
 30
0.0
 10
142.2742
 20
16.6748
 30
0.0
 10
142.2742
 20
16.6748
 30
0.0
 10
136.4252
 20
21.7475
 30
0.0
 10
135.0035
 20
28.1828
 30
0.0
 10
139.3733
 20
35.3816
 30
0.0
 10
139.3733
 20
35.3816
 30
0.0
 10
141.0361
 20
38.7164
 30
0.0
 10
139.4176
 20
42.1044
 30
0.0
 10
136.3273
 20
42.9172
 30
0.0
 10
136.3273
 20
42.9172
 30
0.0
 10
133.4027
 20
43.5652
 30
0.0
 10
130.7942
 20
41.885
 30
0.0
 10
130.7686
 20
38.4556
 30
0.0
 10
130.7686
 20
38.4556
 30
0.0
 10
129.1852
 20
40.2141
 30
0.0
 10
129.1108
 20
42.9554
 30
0.0
 10
129.9969
 20
45.0579
 30
0.0
 10
129.9969
 20
45.0579
 30
0.0
 10
132.4158
 20
49.9934
 30
0.0
 10
141.7911
 20
49.1962
 30
0.0
 10
142.2395
 20
39.4765
 30
0.0
 10
142.2395
 20
39.4765
 30
0.0
 10
144.2688
 20
45.7533
 30
0.0
 10
141.4246
 20
56.9473
 30
0.0
 10
134.6295
 20
59.7532
 30
0.0
 10
134.6295
 20
59.7532
 30
0.0
 10
134.5008
 20
59.7596
 30
0.0
 10
133.9744
 20
59.3134
 30
0.0
 10
133.4604
 20
58.7622
 30
0.0
  0
SPLINE
  5
7F
330
1F
100
AcDbEntity
  8
layer 1
 62
     7
100
AcDbSpline
210
0.0
220
0.0
230
1.0
 70
    11
 71
     3
 72
    16
 73
    12
 74
     0
 42
0.0000000001
 43
0.0000000001
 12
1.0
 22
0.0
 32
0.0
 13
1.0
 23
0.0
 33
0.0
 40
0.0
 40
0.0
 40
0.0
 40
0.0
 40
0.25
 40
0.25
 40
0.25
 40
0.25
 40
0.5
 40
0.5
 40
0.5
 40
0.5
 40
1.0
 40
1.0
 40
1.0
 40
1.0
 10
102.0166
 20
40.9518
 30
0.0
 10
102.0166
 20
40.9518
 30
0.0
 10
102.0187
 20
30.132
 30
0.0
 10
102.0187
 20
30.132
 30
0.0
 10
102.0187
 20
30.132
 30
0.0
 10
104.0274
 20
36.6084
 30
0.0
 10
106.2897
 20
34.5493
 30
0.0
 10
106.8543
 20
38.9511
 30
0.0
 10
106.8543
 20
38.9511
 30
0.0
 10
107.0532
 20
41.5143
 30
0.0
 10
104.7239
 20
42.7215
 30
0.0
 10
102.0166
 20
40.9518
 30
0.0
  0
SPLINE
  5
80
330
1F
100
AcDbEntity
  8
layer 1
 62
     7
100
AcDbSpline
210
0.0
220
0.0
230
1.0
 70
    11
 71
     3
 72
    12
 73
     8
 74
     0
 42
0.0000000001
 43
0.0000000001
 12
1.0
 22
0.0
 32
0.0
 13
1.0
 23
0.0
 33
0.0
 40
0.0
 40
0.0
 40
0.0
 40
0.0
 40
0.3333333333333333
 40
0.3333333333333333
 40
0.3333333333333333
 40
0.3333333333333333
 40
1.0
 40
1.0
 40
1.0
 40
1.0
 10
101.9322
 20
76.1494
 30
0.0
 10
105.3429
 20
79.7087
 30
0.0
 10
105.1989
 20
86.8929
 30
0.0
 10
102.0166
 20
89.903
 30
0.0
 10
102.0166
 20
89.903
 30
0.0
 10
102.0166
 20
89.903
 30
0.0
 10
101.9322
 20
76.1494
 30
0.0
 10
101.9322
 20
76.1494
 30
0.0
  0
SPLINE
  5
81
330
1F
100
AcDbEntity
  8
layer 1
 62
     7
100
AcDbSpline
210
0.0
220
0.0
230
1.0
 70
    11
 71
     3
 72
    92
 73
    88
 74
     0
 42
0.0000000001
 43
0.0000000001
 12
1.0
 22
0.0
 32
0.0
 13
1.0
 23
0.0
 33
0.0
 40
0.0
 40
0.0
 40
0.0
 40
0.0
 40
0.0434782608695652
 40
0.0434782608695652
 40
0.0434782608695652
 40
0.0434782608695652
 40
0.0869565217391304
 40
0.0869565217391304
 40
0.0869565217391304
 40
0.0869565217391304
 40
0.1304347826086956
 40
0.1304347826086956
 40
0.1304347826086956
 40
0.1304347826086956
 40
0.1739130434782609
 40
0.1739130434782609
 40
0.1739130434782609
 40
0.1739130434782609
 40
0.2173913043478261
 40
0.2173913043478261
 40
0.2173913043478261
 40
0.2173913043478261
 40
0.2608695652173913
 40
0.2608695652173913
 40
0.2608695652173913
 40
0.2608695652173913
 40
0.3043478260869565
 40
0.3043478260869565
 40
0.3043478260869565
 40
0.3043478260869565
 40
0.3478260869565217
 40
0.3478260869565217
 40
0.3478260869565217
 40
0.3478260869565217
 40
0.391304347826087
 40
0.391304347826087
 40
0.391304347826087
 40
0.391304347826087
 40
0.4347826086956522
 40
0.4347826086956522
 40
0.4347826086956522
 40
0.4347826086956522
 40
0.4782608695652174
 40
0.4782608695652174
 40
0.4782608695652174
 40
0.4782608695652174
 40
0.5217391304347826
 40
0.5217391304347826
 40
0.5217391304347826
 40
0.5217391304347826
 40
0.5652173913043478
 40
0.5652173913043478
 40
0.5652173913043478
 40
0.5652173913043478
 40
0.6086956521739131
 40
0.6086956521739131
 40
0.6086956521739131
 40
0.6086956521739131
 40
0.6521739130434783
 40
0.6521739130434783
 40
0.6521739130434783
 40
0.6521739130434783
 40
0.6956521739130435
 40
0.6956521739130435
 40
0.6956521739130435
 40
0.6956521739130435
 40
0.7391304347826086
 40
0.7391304347826086
 40
0.7391304347826086
 40
0.7391304347826086
 40
0.782608695652174
 40
0.782608695652174
 40
0.782608695652174
 40
0.782608695652174
 40
0.8260869565217391
 40
0.8260869565217391
 40
0.8260869565217391
 40
0.8260869565217391
 40
0.8695652173913043
 40
0.8695652173913043
 40
0.8695652173913043
 40
0.8695652173913043
 40
0.9130434782608695
 40
0.9130434782608695
 40
0.9130434782608695
 40
0.9130434782608695
 40
1.0
 40
1.0
 40
1.0
 40
1.0
 10
146.837
 20
-85.9273
 30
0.0
 10
146.837
 20
-85.9273
 30
0.0
 10
148.471
 20
-85.8677
 30
0.0
 10
148.471
 20
-85.8677
 30
0.0
 10
148.471
 20
-85.8677
 30
0.0
 10
148.7748
 20
-75.1466
 30
0.0
 10
150.9441
 20
-72.2613
 30
0.0
 10
153.6855
 20
-68.0715
 30
0.0
 10
153.6855
 20
-68.0715
 30
0.0
 10
147.4179
 20
-61.7329
 30
0.0
 10
147.5149
 20
-53.7606
 30
0.0
 10
153.7238
 20
-48.723
 30
0.0
 10
153.7238
 20
-48.723
 30
0.0
 10
153.7238
 20
-48.723
 30
0.0
 10
152.9468
 20
-47.5526
 30
0.0
 10
152.9468
 20
-47.5526
 30
0.0
 10
152.9468
 20
-47.5526
 30
0.0
 10
150.082
 20
-43.2363
 30
0.0
 10
148.4306
 20
-36.2352
 30
0.0
 10
148.3739
 20
-28.158
 30
0.0
 10
148.3739
 20
-28.158
 30
0.0
 10
148.3607
 20
-26.252
 30
0.0
 10
148.4512
 20
-25.535
 30
0.0
 10
148.8797
 20
-24.1494
 30
0.0
 10
148.8797
 20
-24.1494
 30
0.0
 10
149.1672
 20
-23.2214
 30
0.0
 10
149.742
 20
-21.3661
 30
0.0
 10
150.1561
 20
-20.0267
 30
0.0
 10
150.1561
 20
-20.0267
 30
0.0
 10
150.5815
 20
-18.6484
 30
0.0
 10
151.0206
 20
-16.6344
 30
0.0
 10
151.1656
 20
-15.3848
 30
0.0
 10
151.1656
 20
-15.3848
 30
0.0
 10
151.4687
 20
-12.7919
 30
0.0
 10
151.3141
 20
-8.7475
 30
0.0
 10
150.8371
 20
-6.7437
 30
0.0
 10
150.8371
 20
-6.7437
 30
0.0
 10
150.3695
 20
-4.7761
 30
0.0
 10
148.7581
 20
-1.1057
 30
0.0
 10
148.4543
 20
-0.8007
 30
0.0
 10
148.4543
 20
-0.8007
 30
0.0
 10
147.28
 20
-1.0613
 30
0.0
 10
146.1322
 20
-1.0595
 30
0.0
 10
144.9579
 20
-0.8007
 30
0.0
 10
144.9579
 20
-0.8007
 30
0.0
 10
144.6551
 20
-1.1056
 30
0.0
 10
143.35
 20
-4.7761
 30
0.0
 10
142.8821
 20
-6.7437
 30
0.0
 10
142.8821
 20
-6.7437
 30
0.0
 10
142.4054
 20
-8.7474
 30
0.0
 10
142.2508
 20
-12.7919
 30
0.0
 10
142.5535
 20
-15.3848
 30
0.0
 10
142.5535
 20
-15.3848
 30
0.0
 10
142.6988
 20
-16.6344
 30
0.0
 10
143.1377
 20
-18.6484
 30
0.0
 10
143.5631
 20
-20.0267
 30
0.0
 10
143.5631
 20
-20.0267
 30
0.0
 10
143.9771
 20
-21.3661
 30
0.0
 10
144.552
 20
-23.2214
 30
0.0
 10
144.8395
 20
-24.1494
 30
0.0
 10
144.8395
 20
-24.1494
 30
0.0
 10
145.2681
 20
-25.535
 30
0.0
 10
145.3587
 20
-26.252
 30
0.0
 10
145.3453
 20
-28.158
 30
0.0
 10
145.3453
 20
-28.158
 30
0.0
 10
145.2886
 20
-36.2352
 30
0.0
 10
143.6372
 20
-43.2363
 30
0.0
 10
140.7724
 20
-47.5526
 30
0.0
 10
140.7724
 20
-47.5526
 30
0.0
 10
140.7724
 20
-47.5526
 30
0.0
 10
139.9957
 20
-48.723
 30
0.0
 10
139.9957
 20
-48.723
 30
0.0
 10
139.9957
 20
-48.723
 30
0.0
 10
146.2045
 20
-53.7606
 30
0.0
 10
146.3013
 20
-61.7329
 30
0.0
 10
140.0336
 20
-68.0715
 30
0.0
 10
140.0336
 20
-68.0715
 30
0.0
 10
142.7751
 20
-72.2613
 30
0.0
 10
144.9444
 20
-75.1466
 30
0.0
 10
145.2485
 20
-85.8677
 30
0.0
 10
145.2485
 20
-85.8677
 30
0.0
 10
145.2485
 20
-85.8677
 30
0.0
 10
146.8823
 20
-85.9273
 30
0.0
 10
146.8823
 20
-85.9273
 30
0.0
 10
146.8823
 20
-85.9273
 30
0.0
 10
146.8823
 20
-85.9273
 30
0.0
 10
146.837
 20
-85.9273
 30
0.0
 10
146.837
 20
-85.9273
 30
0.0
  0
SPLINE
  5
82
330
1F
100
AcDbEntity
  8
layer 1
 62
     7
100
AcDbSpline
210
0.0
220
0.0
230
1.0
 70
    11
 71
     3
 72
   128
 73
   124
 74
     0
 42
0.0000000001
 43
0.0000000001
 12
1.0
 22
0.0
 32
0.0
 13
1.0
 23
0.0
 33
0.0
 40
0.0
 40
0.0
 40
0.0
 40
0.0
 40
0.03125
 40
0.03125
 40
0.03125
 40
0.03125
 40
0.0625
 40
0.0625
 40
0.0625
 40
0.0625
 40
0.09375
 40
0.09375
 40
0.09375
 40
0.09375
 40
0.125
 40
0.125
 40
0.125
 40
0.125
 40
0.15625
 40
0.15625
 40
0.15625
 40
0.15625
 40
0.1875
 40
0.1875
 40
0.1875
 40
0.1875
 40
0.21875
 40
0.21875
 40
0.21875
 40
0.21875
 40
0.25
 40
0.25
 40
0.25
 40
0.25
 40
0.28125
 40
0.28125
 40
0.28125
 40
0.28125
 40
0.3125
 40
0.3125
 40
0.3125
 40
0.3125
 40
0.34375
 40
0.34375
 40
0.34375
 40
0.34375
 40
0.375
 40
0.375
 40
0.375
 40
0.375
 40
0.40625
 40
0.40625
 40
0.40625
 40
0.40625
 40
0.4375
 40
0.4375
 40
0.4375
 40
0.4375
 40
0.46875
 40
0.46875
 40
0.46875
 40
0.46875
 40
0.5
 40
0.5
 40
0.5
 40
0.5
 40
0.53125
 40
0.53125
 40
0.53125
 40
0.53125
 40
0.5625
 40
0.5625
 40
0.5625
 40
0.5625
 40
0.59375
 40
0.59375
 40
0.59375
 40
0.59375
 40
0.625
 40
0.625
 40
0.625
 40
0.625
 40
0.65625
 40
0.65625
 40
0.65625
 40
0.65625
 40
0.6875
 40
0.6875
 40
0.6875
 40
0.6875
 40
0.71875
 40
0.71875
 40
0.71875
 40
0.71875
 40
0.75
 40
0.75
 40
0.75
 40
0.75
 40
0.78125
 40
0.78125
 40
0.78125
 40
0.78125
 40
0.8125
 40
0.8125
 40
0.8125
 40
0.8125
 40
0.84375
 40
0.84375
 40
0.84375
 40
0.84375
 40
0.875
 40
0.875
 40
0.875
 40
0.875
 40
0.90625
 40
0.90625
 40
0.90625
 40
0.90625
 40
0.9375
 40
0.9375
 40
0.9375
 40
0.9375
 40
1.0
 40
1.0
 40
1.0
 40
1.0
 10
160.2591
 20
-42.0289
 30
0.0
 10
162.2338
 20
-39.912
 30
0.0
 10
163.8038
 20
-36.9576
 30
0.0
 10
164.7413
 20
-33.5981
 30
0.0
 10
164.7413
 20
-33.5981
 30
0.0
 10
165.5541
 20
-30.6868
 30
0.0
 10
165.788
 20
-28.5298
 30
0.0
 10
165.6487
 20
-25.2135
 30
0.0
 10
165.6487
 20
-25.2135
 30
0.0
 10
165.3028
 20
-20.5274
 30
0.0
 10
164.3096
 20
-18.2425
 30
0.0
 10
162.3728
 20
-14.5586
 30
0.0
 10
162.3728
 20
-14.5586
 30
0.0
 10
164.9072
 20
-16.1604
 30
0.0
 10
166.9004
 20
-17.3979
 30
0.0
 10
169.3996
 20
-18.2199
 30
0.0
 10
169.3996
 20
-18.2199
 30
0.0
 10
168.8641
 20
-16.83
 30
0.0
 10
168.5713
 20
-15.3044
 30
0.0
 10
168.8403
 20
-14.1063
 30
0.0
 10
168.8403
 20
-14.1063
 30
0.0
 10
169.8796
 20
-10.7963
 30
0.0
 10
172.2326
 20
-11.2425
 30
0.0
 10
173.0907
 20
-12.4705
 30
0.0
 10
173.0907
 20
-12.4705
 30
0.0
 10
173.7582
 20
-13.4265
 30
0.0
 10
173.6685
 20
-15.9226
 30
0.0
 10
171.0479
 20
-15.354
 30
0.0
 10
171.0479
 20
-15.354
 30
0.0
 10
171.3106
 20
-18.5988
 30
0.0
 10
171.4836
 20
-19.4519
 30
0.0
 10
177.5399
 20
-18.4495
 30
0.0
 10
177.5399
 20
-18.4495
 30
0.0
 10
178.9153
 20
-18.1199
 30
0.0
 10
182.8814
 20
-15.8247
 30
0.0
 10
184.0671
 20
-14.3516
 30
0.0
 10
184.0671
 20
-14.3516
 30
0.0
 10
181.7596
 20
-14.7018
 30
0.0
 10
179.2315
 20
-13.9046
 30
0.0
 10
178.8535
 20
-11.6216
 30
0.0
 10
178.8535
 20
-11.6216
 30
0.0
 10
178.6515
 20
-10.1186
 30
0.0
 10
180.2236
 20
-8.9946
 30
0.0
 10
181.5412
 20
-9.7003
 30
0.0
 10
181.5412
 20
-9.7003
 30
0.0
 10
182.4476
 20
-10.4348
 30
0.0
 10
182.3539
 20
-10.8768
 30
0.0
 10
182.4507
 20
-11.6938
 30
0.0
 10
182.4507
 20
-11.6938
 30
0.0
 10
189.903
 20
-8.7722
 30
0.0
 10
185.6958
 20
0.4632
 30
0.0
 10
180.0463
 20
3.9608
 30
0.0
 10
180.0463
 20
3.9608
 30
0.0
 10
184.9901
 20
-1.4682
 30
0.0
 10
182.9185
 20
-7.5288
 30
0.0
 10
176.9671
 20
-9.0864
 30
0.0
 10
176.9671
 20
-9.0864
 30
0.0
 10
173.6213
 20
-9.7633
 30
0.0
 10
171.669
 20
-6.1844
 30
0.0
 10
173.1566
 20
-3.9934
 30
0.0
 10
173.1566
 20
-3.9934
 30
0.0
 10
175.4054
 20
-1.1294
 30
0.0
 10
177.7388
 20
-4.082
 30
0.0
 10
177.6832
 20
-5.4612
 30
0.0
 10
177.6832
 20
-5.4612
 30
0.0
 10
180.4615
 20
-3.1682
 30
0.0
 10
179.5509
 20
2.4865
 30
0.0
 10
175.5869
 20
3.1799
 30
0.0
 10
175.5869
 20
3.1799
 30
0.0
 10
171.496
 20
3.8226
 30
0.0
 10
166.2999
 20
2.1785
 30
0.0
 10
164.1737
 20
-0.4938
 30
0.0
 10
164.1737
 20
-0.4938
 30
0.0
 10
164.0933
 20
-1.3458
 30
0.0
 10
164.7342
 20
-3.1795
 30
0.0
 10
165.7827
 20
-3.7687
 30
0.0
 10
165.7827
 20
-3.7687
 30
0.0
 10
165.9784
 20
-1.834
 30
0.0
 10
168.1448
 20
-1.632
 30
0.0
 10
168.797
 20
-2.4161
 30
0.0
 10
168.797
 20
-2.4161
 30
0.0
 10
169.8786
 20
-3.7151
 30
0.0
 10
170.1156
 20
-5.5375
 30
0.0
 10
168.4415
 20
-6.6264
 30
0.0
 10
168.4415
 20
-6.6264
 30
0.0
 10
164.7896
 20
-8.1622
 30
0.0
 10
162.001
 20
-4.0551
 30
0.0
 10
162.0526
 20
-1.459
 30
0.0
 10
162.0526
 20
-1.459
 30
0.0
 10
158.485
 20
-3.9707
 30
0.0
 10
155.0205
 20
-3.0785
 30
0.0
 10
152.5534
 20
1.0513
 30
0.0
 10
152.5534
 20
1.0513
 30
0.0
 10
152.1517
 20
0.7281
 30
0.0
 10
151.8558
 20
0.4416
 30
0.0
 10
151.3305
 20
0.2293
 30
0.0
 10
151.3305
 20
0.2293
 30
0.0
 10
157.1788
 20
-4.8431
 30
0.0
 10
158.7157
 20
-11.4496
 30
0.0
 10
154.3459
 20
-18.6484
 30
0.0
 10
154.3459
 20
-18.6484
 30
0.0
 10
152.6831
 20
-21.9829
 30
0.0
 10
154.3015
 20
-25.3723
 30
0.0
 10
157.3921
 20
-26.184
 30
0.0
 10
157.3921
 20
-26.184
 30
0.0
 10
160.3169
 20
-26.832
 30
0.0
 10
162.925
 20
-25.1518
 30
0.0
 10
162.9509
 20
-21.7234
 30
0.0
 10
162.9509
 20
-21.7234
 30
0.0
 10
164.5343
 20
-23.4819
 30
0.0
 10
164.6084
 20
-26.2233
 30
0.0
 10
163.7225
 20
-28.3246
 30
0.0
 10
163.7225
 20
-28.3246
 30
0.0
 10
161.3036
 20
-33.2602
 30
0.0
 10
151.9281
 20
-32.463
 30
0.0
 10
151.48
 20
-22.7432
 30
0.0
 10
151.48
 20
-22.7432
 30
0.0
 10
149.4504
 20
-29.0201
 30
0.0
 10
152.2949
 20
-40.2148
 30
0.0
 10
159.0897
 20
-43.0211
 30
0.0
 10
159.0897
 20
-43.0211
 30
0.0
 10
159.2184
 20
-43.0272
 30
0.0
 10
159.745
 20
-42.5801
 30
0.0
 10
160.2591
 20
-42.0289
 30
0.0
  0
SPLINE
  5
83
330
1F
100
AcDbEntity
  8
layer 1
 62
     7
100
AcDbSpline
210
0.0
220
0.0
230
1.0
 70
    11
 71
     3
 72
   128
 73
   124
 74
     0
 42
0.0000000001
 43
0.0000000001
 12
1.0
 22
0.0
 32
0.0
 13
1.0
 23
0.0
 33
0.0
 40
0.0
 40
0.0
 40
0.0
 40
0.0
 40
0.03125
 40
0.03125
 40
0.03125
 40
0.03125
 40
0.0625
 40
0.0625
 40
0.0625
 40
0.0625
 40
0.09375
 40
0.09375
 40
0.09375
 40
0.09375
 40
0.125
 40
0.125
 40
0.125
 40
0.125
 40
0.15625
 40
0.15625
 40
0.15625
 40
0.15625
 40
0.1875
 40
0.1875
 40
0.1875
 40
0.1875
 40
0.21875
 40
0.21875
 40
0.21875
 40
0.21875
 40
0.25
 40
0.25
 40
0.25
 40
0.25
 40
0.28125
 40
0.28125
 40
0.28125
 40
0.28125
 40
0.3125
 40
0.3125
 40
0.3125
 40
0.3125
 40
0.34375
 40
0.34375
 40
0.34375
 40
0.34375
 40
0.375
 40
0.375
 40
0.375
 40
0.375
 40
0.40625
 40
0.40625
 40
0.40625
 40
0.40625
 40
0.4375
 40
0.4375
 40
0.4375
 40
0.4375
 40
0.46875
 40
0.46875
 40
0.46875
 40
0.46875
 40
0.5
 40
0.5
 40
0.5
 40
0.5
 40
0.53125
 40
0.53125
 40
0.53125
 40
0.53125
 40
0.5625
 40
0.5625
 40
0.5625
 40
0.5625
 40
0.59375
 40
0.59375
 40
0.59375
 40
0.59375
 40
0.625
 40
0.625
 40
0.625
 40
0.625
 40
0.65625
 40
0.65625
 40
0.65625
 40
0.65625
 40
0.6875
 40
0.6875
 40
0.6875
 40
0.6875
 40
0.71875
 40
0.71875
 40
0.71875
 40
0.71875
 40
0.75
 40
0.75
 40
0.75
 40
0.75
 40
0.78125
 40
0.78125
 40
0.78125
 40
0.78125
 40
0.8125
 40
0.8125
 40
0.8125
 40
0.8125
 40
0.84375
 40
0.84375
 40
0.84375
 40
0.84375
 40
0.875
 40
0.875
 40
0.875
 40
0.875
 40
0.90625
 40
0.90625
 40
0.90625
 40
0.90625
 40
0.9375
 40
0.9375
 40
0.9375
 40
0.9375
 40
1.0
 40
1.0
 40
1.0
 40
1.0
 10
133.4604
 20
-42.0289
 30
0.0
 10
131.4854
 20
-39.912
 30
0.0
 10
129.9154
 20
-36.9576
 30
0.0
 10
128.9779
 20
-33.5981
 30
0.0
 10
128.9779
 20
-33.5981
 30
0.0
 10
128.1651
 20
-30.6868
 30
0.0
 10
127.9315
 20
-28.5298
 30
0.0
 10
128.0705
 20
-25.2135
 30
0.0
 10
128.0705
 20
-25.2135
 30
0.0
 10
128.4167
 20
-20.5274
 30
0.0
 10
129.4096
 20
-18.2425
 30
0.0
 10
131.3464
 20
-14.5586
 30
0.0
 10
131.3464
 20
-14.5586
 30
0.0
 10
128.8123
 20
-16.1604
 30
0.0
 10
126.8188
 20
-17.3979
 30
0.0
 10
124.3195
 20
-18.2199
 30
0.0
 10
124.3195
 20
-18.2199
 30
0.0
 10
124.8554
 20
-16.83
 30
0.0
 10
125.1479
 20
-15.3044
 30
0.0
 10
124.8791
 20
-14.1063
 30
0.0
 10
124.8791
 20
-14.1063
 30
0.0
 10
123.8396
 20
-10.7963
 30
0.0
 10
121.4866
 20
-11.2425
 30
0.0
 10
120.6285
 20
-12.4705
 30
0.0
 10
120.6285
 20
-12.4705
 30
0.0
 10
119.961
 20
-13.4265
 30
0.0
 10
120.0507
 20
-15.9226
 30
0.0
 10
122.6713
 20
-15.354
 30
0.0
 10
122.6713
 20
-15.354
 30
0.0
 10
122.4086
 20
-18.5988
 30
0.0
 10
122.2356
 20
-19.4519
 30
0.0
 10
116.1792
 20
-18.4495
 30
0.0
 10
116.1792
 20
-18.4495
 30
0.0
 10
114.8039
 20
-18.1199
 30
0.0
 10
110.8378
 20
-15.8247
 30
0.0
 10
109.6521
 20
-14.3516
 30
0.0
 10
109.6521
 20
-14.3516
 30
0.0
 10
111.9597
 20
-14.7018
 30
0.0
 10
114.4877
 20
-13.9046
 30
0.0
 10
114.8659
 20
-11.6216
 30
0.0
 10
114.8659
 20
-11.6216
 30
0.0
 10
115.0677
 20
-10.1186
 30
0.0
 10
113.4956
 20
-8.9946
 30
0.0
 10
112.1781
 20
-9.7003
 30
0.0
 10
112.1781
 20
-9.7003
 30
0.0
 10
111.2716
 20
-10.4348
 30
0.0
 10
111.3652
 20
-10.8768
 30
0.0
 10
111.2684
 20
-11.6938
 30
0.0
 10
111.2684
 20
-11.6938
 30
0.0
 10
103.8162
 20
-8.7722
 30
0.0
 10
108.0233
 20
0.4632
 30
0.0
 10
113.6728
 20
3.9608
 30
0.0
 10
113.6728
 20
3.9608
 30
0.0
 10
108.7291
 20
-1.4682
 30
0.0
 10
110.8009
 20
-7.5288
 30
0.0
 10
116.7521
 20
-9.0864
 30
0.0
 10
116.7521
 20
-9.0864
 30
0.0
 10
120.0981
 20
-9.7633
 30
0.0
 10
122.0502
 20
-6.1844
 30
0.0
 10
120.5625
 20
-3.9934
 30
0.0
 10
120.5625
 20
-3.9934
 30
0.0
 10
118.3138
 20
-1.1294
 30
0.0
 10
115.9804
 20
-4.082
 30
0.0
 10
116.036
 20
-5.4612
 30
0.0
 10
116.036
 20
-5.4612
 30
0.0
 10
113.2577
 20
-3.1682
 30
0.0
 10
114.1683
 20
2.4865
 30
0.0
 10
118.1324
 20
3.1799
 30
0.0
 10
118.1324
 20
3.1799
 30
0.0
 10
122.2232
 20
3.8226
 30
0.0
 10
127.4193
 20
2.1785
 30
0.0
 10
129.5457
 20
-0.4938
 30
0.0
 10
129.5457
 20
-0.4938
 30
0.0
 10
129.6261
 20
-1.3458
 30
0.0
 10
128.9853
 20
-3.1795
 30
0.0
 10
127.9365
 20
-3.7687
 30
0.0
 10
127.9365
 20
-3.7687
 30
0.0
 10
127.7408
 20
-1.834
 30
0.0
 10
125.5743
 20
-1.632
 30
0.0
 10
124.9224
 20
-2.4161
 30
0.0
 10
124.9224
 20
-2.4161
 30
0.0
 10
123.8406
 20
-3.7151
 30
0.0
 10
123.6038
 20
-5.5375
 30
0.0
 10
125.2777
 20
-6.6264
 30
0.0
 10
125.2777
 20
-6.6264
 30
0.0
 10
128.9296
 20
-8.1622
 30
0.0
 10
131.7183
 20
-4.0551
 30
0.0
 10
131.6668
 20
-1.459
 30
0.0
 10
131.6668
 20
-1.459
 30
0.0
 10
135.2342
 20
-3.9707
 30
0.0
 10
138.5463
 20
-3.27
 30
0.0
 10
141.0134
 20
0.8599
 30
0.0
 10
141.0134
 20
0.8599
 30
0.0
 10
141.4142
 20
0.5364
 30
0.0
 10
141.7294
 20
0.2882
 30
0.0
 10
142.2547
 20
0.0769
 30
0.0
 10
142.2547
 20
0.0769
 30
0.0
 10
136.4065
 20
-4.9955
 30
0.0
 10
135.0035
 20
-11.4496
 30
0.0
 10
139.3733
 20
-18.6484
 30
0.0
 10
139.3733
 20
-18.6484
 30
0.0
 10
141.0361
 20
-21.9829
 30
0.0
 10
139.4176
 20
-25.3723
 30
0.0
 10
136.3273
 20
-26.184
 30
0.0
 10
136.3273
 20
-26.184
 30
0.0
 10
133.4027
 20
-26.832
 30
0.0
 10
130.7942
 20
-25.1518
 30
0.0
 10
130.7686
 20
-21.7234
 30
0.0
 10
130.7686
 20
-21.7234
 30
0.0
 10
129.1852
 20
-23.4819
 30
0.0
 10
129.1108
 20
-26.2233
 30
0.0
 10
129.9969
 20
-28.3246
 30
0.0
 10
129.9969
 20
-28.3246
 30
0.0
 10
132.4158
 20
-33.2602
 30
0.0
 10
141.7911
 20
-32.463
 30
0.0
 10
142.2395
 20
-22.7432
 30
0.0
 10
142.2395
 20
-22.7432
 30
0.0
 10
144.2688
 20
-29.0201
 30
0.0
 10
141.4246
 20
-40.2148
 30
0.0
 10
134.6295
 20
-43.0211
 30
0.0
 10
134.6295
 20
-43.0211
 30
0.0
 10
134.5008
 20
-43.0272
 30
0.0
 10
133.9744
 20
-42.5801
 30
0.0
 10
133.4604
 20
-42.0289
 30
0.0
  0
SPLINE
  5
84
330
1F
100
AcDbEntity
  8
layer 1
 62
     7
100
AcDbSpline
210
0.0
220
0.0
230
1.0
 70
    11
 71
     3
 72
    20
 73
    16
 74
     0
 42
0.0000000001
 43
0.0000000001
 12
1.0
 22
0.0
 32
0.0
 13
1.0
 23
0.0
 33
0.0
 40
0.0
 40
0.0
 40
0.0
 40
0.0
 40
0.2
 40
0.2
 40
0.2
 40
0.2
 40
0.4
 40
0.4
 40
0.4
 40
0.4
 40
0.6
 40
0.6
 40
0.6
 40
0.6
 40
1.0
 40
1.0
 40
1.0
 40
1.0
 10
155.2823
 20
12.0185
 30
0.0
 10
160.4022
 20
13.8256
 30
0.0
 10
162.1164
 20
8.9467
 30
0.0
 10
170.4401
 20
8.3667
 30
0.0
 10
170.4401
 20
8.3667
 30
0.0
 10
162.1164
 20
7.7855
 30
0.0
 10
160.4022
 20
2.9066
 30
0.0
 10
155.2823
 20
4.7147
 30
0.0
 10
155.2823
 20
4.7147
 30
0.0
 10
155.7294
 20
5.5378
 30
0.0
 10
156.0662
 20
6.6214
 30
0.0
 10
156.1147
 20
8.3667
 30
0.0
 10
156.1147
 20
8.3667
 30
0.0
 10
156.0662
 20
10.0437
 30
0.0
 10
155.7974
 20
11.0585
 30
0.0
 10
155.2823
 20
12.0185
 30
0.0
  0
ENDSEC
  0
SECTION
  2
OBJECTS
  0
DICTIONARY
  5
C
330
0
100
AcDbDictionary
281
     1
  3
ACAD_GROUP
350
D
  3
ACAD_LAYOUT
350
1A
  3
ACAD_MATERIAL
350
3B
  3
ACAD_MLEADERSTYLE
350
A6
  3
ACAD_MLINESTYLE
350
17
  3
ACAD_PLOTSETTINGS
350
19
  3
ACAD_PLOTSTYLENAME
350
E
  3
ACAD_TABLESTYLE
350
A5
  3
ACAD_VISUALSTYLE
350
2A
  0
DICTIONARY
  5
D
102
{ACAD_REACTORS
330
C
102
}
330
C
100
AcDbDictionary
281
     1
  0
DICTIONARY
  5
1A
102
{ACAD_REACTORS
330
C
102
}
330
C
100
AcDbDictionary
281
     1
  3
Layout1
350
1E
  3
Layout2
350
26
  3
Model
350
22
  0
DICTIONARY
  5
3B
102
{ACAD_REACTORS
330
C
102
}
330
C
100
AcDbDictionary
281
     1
  3
ByBlock
350
3D
  3
ByLayer
350
3C
  3
Global
350
3E
  0
DICTIONARY
  5
A6
102
{ACAD_REACTORS
330
C
102
}
330
C
100
AcDbDictionary
281
     1
  0
DICTIONARY
  5
17
102
{ACAD_REACTORS
330
C
102
}
330
C
100
AcDbDictionary
281
     1
  3
Standard
350
18
  0
DICTIONARY
  5
19
102
{ACAD_REACTORS
330
C
102
}
330
C
100
AcDbDictionary
281
     1
  0
ACDBDICTIONARYWDFLT
  5
E
102
{ACAD_REACTORS
330
C
102
}
330
C
100
AcDbDictionary
281
     1
  3
Normal
350
F
100
AcDbDictionaryWithDefault
340
F
  0
DICTIONARY
  5
A5
102
{ACAD_REACTORS
330
C
102
}
330
C
100
AcDbDictionary
281
     1
  0
DICTIONARY
  5
2A
102
{ACAD_REACTORS
330
C
102
}
330
C
100
AcDbDictionary
281
     1
  3
2dWireframe
350
2F
  3
3D Hidden
350
31
  3
3dWireframe
350
30
  3
Basic
350
32
  3
Brighten
350
36
  3
ColorChange
350
3A
  3
Conceptual
350
34
  3
Dim
350
35
  3
Facepattern
350
39
  3
Flat
350
2B
  3
FlatWithEdges
350
2C
  3
Gouraud
350
2D
  3
GouraudWithEdges
350
2E
  3
Linepattern
350
38
  3
Realistic
350
33
  3
Thicken
350
37
  0
LAYOUT
  5
1E
102
{ACAD_REACTORS
330
1A
102
}
330
1A
100
AcDbPlotSettings
  1

  2
none_device
  4

  6

 40
0.0
 41
0.0
 42
0.0
 43
0.0
 44
0.0
 45
0.0
 46
0.0
 47
0.0
 48
0.0
 49
0.0
140
0.0
141
0.0
142
1.0
143
1.0
 70
   688
 72
     0
 73
     0
 74
     5
  7

 75
    16
 76
     0
 77
     2
 78
   300
147
1.0
148
0.0
149
0.0
100
AcDbLayout
  1
Layout1
 70
     1
 71
     1
 10
0.0
 20
0.0
 11
12.0
 21
9.0
 12
0.0
 22
0.0
 32
0.0
 14
1.000000000000000E+20
 24
1.000000000000000E+20
 34
1.000000000000000E+20
 15
-1.000000000000000E+20
 25
-1.000000000000000E+20
 35
-1.000000000000000E+20
146
0.0
 13
0.0
 23
0.0
 33
0.0
 16
1.0
 26
0.0
 36
0.0
 17
0.0
 27
1.0
 37
0.0
 76
     0
330
1B
  0
LAYOUT
  5
26
102
{ACAD_REACTORS
330
1A
102
}
330
1A
100
AcDbPlotSettings
  1

  2
none_device
  4

  6

 40
0.0
 41
0.0
 42
0.0
 43
0.0
 44
0.0
 45
0.0
 46
0.0
 47
0.0
 48
0.0
 49
0.0
140
0.0
141
0.0
142
1.0
143
1.0
 70
   688
 72
     0
 73
     0
 74
     5
  7

 75
    16
 76
     0
 77
     2
 78
   300
147
1.0
148
0.0
149
0.0
100
AcDbLayout
  1
Layout2
 70
     1
 71
     2
 10
0.0
 20
0.0
 11
0.0
 21
0.0
 12
0.0
 22
0.0
 32
0.0
 14
0.0
 24
0.0
 34
0.0
 15
0.0
 25
0.0
 35
0.0
146
0.0
 13
0.0
 23
0.0
 33
0.0
 16
1.0
 26
0.0
 36
0.0
 17
0.0
 27
1.0
 37
0.0
 76
     0
330
23
  0
LAYOUT
  5
22
102
{ACAD_REACTORS
330
1A
102
}
330
1A
100
AcDbPlotSettings
  1

  2
none_device
  4

  6

 40
0.0
 41
0.0
 42
0.0
 43
0.0
 44
0.0
 45
0.0
 46
0.0
 47
0.0
 48
0.0
 49
0.0
140
0.0
141
0.0
142
1.0
143
1.0
 70
  1712
 72
     0
 73
     0
 74
     0
  7

 75
     0
 76
     0
 77
     2
 78
   300
147
1.0
148
0.0
149
0.0
100
AcDbLayout
  1
Model
 70
     1
 71
     0
 10
0.0
 20
0.0
 11
12.0
 21
9.0
 12
0.0
 22
0.0
 32
0.0
 14
95.782
 24
-91.0504
 34
0.0
 15
197.5663
 25
107.7826
 35
0.0
146
0.0
 13
0.0
 23
0.0
 33
0.0
 16
1.0
 26
0.0
 36
0.0
 17
0.0
 27
1.0
 37
0.0
 76
     0
330
1F
331
29
  0
MATERIAL
  5
3D
102
{ACAD_REACTORS
330
3B
102
}
330
3B
100
AcDbMaterial
  1
ByBlock
 72
     1
 94
      127
  0
MATERIAL
  5
3C
102
{ACAD_REACTORS
330
3B
102
}
330
3B
100
AcDbMaterial
  1
ByLayer
 72
     1
 94
      127
  0
MATERIAL
  5
3E
102
{ACAD_REACTORS
330
3B
102
}
330
3B
100
AcDbMaterial
  1
Global
 72
     1
 94
      127
  0
MLINESTYLE
  5
18
102
{ACAD_REACTORS
330
17
102
}
330
17
100
AcDbMlineStyle
  2
Standard
 70
     0
  3

 62
   256
 51
90.0
 52
90.0
 71
     2
 49
0.5
 62
   256
  6
BYLAYER
 49
-0.5
 62
   256
  6
BYLAYER
  0
ACDBPLACEHOLDER
  5
F
102
{ACAD_REACTORS
330
E
102
}
330
E
  0
VISUALSTYLE
  5
2F
102
{ACAD_REACTORS
330
2A
102
}
102
{ACAD_XDICTIONARY
360
8D
102
}
330
2A
100
AcDbVisualStyle
  2
2dWireframe
 70
     4
 71
     0
 72
     2
 73
     0
 90
        0
 40
-0.6
 41
-30.0
 62
     5
 63
     7
421
 16777215
 74
     1
 91
        4
 64
     7
 65
   257
 75
     1
175
     1
 42
1.0
 92
        0
 66
   257
 43
1.0
 76
     1
 77
     6
 78
     2
 67
     7
 79
     5
170
     0
171
     0
290
     0
174
     0
 93
        1
 44
0.0
173
     0
291
     0
 45
0.0
  0
VISUALSTYLE
  5
31
102
{ACAD_REACTORS
330
2A
102
}
102
{ACAD_XDICTIONARY
360
91
102
}
330
2A
100
AcDbVisualStyle
  2
3D Hidden
 70
     6
 71
     1
 72
     2
 73
     2
 90
        0
 40
-0.6
 41
-30.0
 62
     5
 63
     7
421
 16777215
 74
     2
 91
        2
 64
     7
 65
   257
 75
     2
175
     1
 42
40.0
 92
        0
 66
   257
 43
1.0
 76
     1
 77
     6
 78
     2
 67
     7
 79
     3
170
     0
171
     0
290
     0
174
     0
 93
        1
 44
0.0
173
     0
291
     0
 45
0.0
  0
VISUALSTYLE
  5
30
102
{ACAD_REACTORS
330
2A
102
}
102
{ACAD_XDICTIONARY
360
8F
102
}
330
2A
100
AcDbVisualStyle
  2
3dWireframe
 70
     5
 71
     0
 72
     2
 73
     0
 90
        0
 40
-0.6
 41
-30.0
 62
     5
 63
     7
421
 16777215
 74
     1
 91
        4
 64
     7
 65
   257
 75
     1
175
     1
 42
1.0
 92
        0
 66
   257
 43
1.0
 76
     1
 77
     6
 78
     2
 67
     7
 79
     5
170
     0
171
     0
290
     0
174
     0
 93
        1
 44
0.0
173
     0
291
     0
 45
0.0
  0
VISUALSTYLE
  5
32
102
{ACAD_REACTORS
330
2A
102
}
102
{ACAD_XDICTIONARY
360
93
102
}
330
2A
100
AcDbVisualStyle
  2
Basic
 70
     7
 71
     1
 72
     0
 73
     1
 90
        0
 40
-0.6
 41
-30.0
 62
     5
 63
     7
421
 16777215
 74
     0
 91
        4
 64
     7
 65
   257
 75
     1
175
     1
 42
1.0
 92
        8
 66
     7
 43
1.0
 76
     1
 77
     6
 78
     2
 67
     7
 79
     5
170
     0
171
     0
290
     0
174
     0
 93
        1
 44
0.0
173
     0
291
     1
 45
0.0
  0
VISUALSTYLE
  5
36
102
{ACAD_REACTORS
330
2A
102
}
102
{ACAD_XDICTIONARY
360
9B
102
}
330
2A
100
AcDbVisualStyle
  2
Brighten
 70
    12
 71
     2
 72
     2
 73
     0
 90
        0
 40
-0.6
 41
-30.0
 62
     5
 63
     7
421
 16777215
 74
     1
 91
        4
 64
     7
 65
   257
 75
     1
175
     1
 42
1.0
 92
        8
 66
     7
 43
1.0
 76
     1
 77
     6
 78
     2
 67
     7
 79
     5
170
     0
171
     0
290
     0
174
     0
 93
        1
 44
50.0
173
     0
291
     1
 45
0.0
  0
VISUALSTYLE
  5
3A
102
{ACAD_REACTORS
330
2A
102
}
102
{ACAD_XDICTIONARY
360
A3
102
}
330
2A
100
AcDbVisualStyle
  2
ColorChange
 70
    16
 71
     2
 72
     2
 73
     3
 90
        0
 40
-0.6
 41
-30.0
 62
     5
 63
     8
421
  8421504
 74
     1
 91
        4
 64
     7
 65
   257
 75
     1
175
     1
 42
1.0
 92
        8
 66
     8
424
  8421504
 43
1.0
 76
     1
 77
     6
 78
     2
 67
     7
 79
     5
170
     0
171
     0
290
     0
174
     0
 93
        1
 44
0.0
173
     0
291
     1
 45
0.0
  0
VISUALSTYLE
  5
34
102
{ACAD_REACTORS
330
2A
102
}
102
{ACAD_XDICTIONARY
360
97
102
}
330
2A
100
AcDbVisualStyle
  2
Conceptual
 70
     9
 71
     3
 72
     2
 73
     0
 90
        0
 40
-0.6
 41
-30.0
 62
     5
 63
     7
421
 16777215
 74
     2
 91
        2
 64
     7
 65
   257
 75
     1
175
     1
 42
40.0
 92
        8
 66
     7
 43
1.0
 76
     1
 77
     6
 78
     2
 67
     7
 79
     3
170
     0
171
     0
290
     0
174
     0
 93
        1
 44
0.0
173
     0
291
     0
 45
0.0
  0
VISUALSTYLE
  5
35
102
{ACAD_REACTORS
330
2A
102
}
102
{ACAD_XDICTIONARY
360
99
102
}
330
2A
100
AcDbVisualStyle
  2
Dim
 70
    11
 71
     2
 72
     2
 73
     0
 90
        0
 40
-0.6
 41
-30.0
 62
     5
 63
     7
421
 16777215
 74
     1
 91
        4
 64
     7
 65
   257
 75
     1
175
     1
 42
1.0
 92
        8
 66
     7
 43
1.0
 76
     1
 77
     6
 78
     2
 67
     7
 79
     5
170
     0
171
     0
290
     0
174
     0
 93
        1
 44
-50.0
173
     0
291
     1
 45
0.0
  0
VISUALSTYLE
  5
39
102
{ACAD_REACTORS
330
2A
102
}
102
{ACAD_XDICTIONARY
360
A1
102
}
330
2A
100
AcDbVisualStyle
  2
Facepattern
 70
    15
 71
     2
 72
     2
 73
     0
 90
        0
 40
-0.6
 41
-30.0
 62
     5
 63
     7
421
 16777215
 74
     1
 91
        4
 64
     7
 65
   257
 75
     1
175
     1
 42
1.0
 92
        8
 66
     7
 43
1.0
 76
     1
 77
     6
 78
     2
 67
     7
 79
     5
170
     0
171
     0
290
     0
174
     0
 93
        1
 44
0.0
173
     0
291
     1
 45
0.0
  0
VISUALSTYLE
  5
2B
102
{ACAD_REACTORS
330
2A
102
}
102
{ACAD_XDICTIONARY
360
85
102
}
330
2A
100
AcDbVisualStyle
  2
Flat
 70
     0
 71
     2
 72
     1
 73
     1
 90
        2
 40
-0.6
 41
30.0
 62
     5
 63
     7
421
 16777215
 74
     0
 91
        4
 64
     7
 65
   257
 75
     1
175
     1
 42
1.0
 92
        8
 66
     7
 43
1.0
 76
     1
 77
     6
 78
     2
 67
     7
 79
     5
170
     0
171
     0
290
     0
174
     0
 93
       13
 44
0.0
173
     0
291
     1
 45
0.0
  0
VISUALSTYLE
  5
2C
102
{ACAD_REACTORS
330
2A
102
}
102
{ACAD_XDICTIONARY
360
87
102
}
330
2A
100
AcDbVisualStyle
  2
FlatWithEdges
 70
     1
 71
     2
 72
     1
 73
     1
 90
        2
 40
-0.6
 41
30.0
 62
     5
 63
     7
421
 16777215
 74
     1
 91
        4
 64
     7
 65
   257
 75
     1
175
     1
 42
1.0
 92
        0
 66
   257
 43
1.0
 76
     1
 77
     6
 78
     2
 67
     7
 79
     5
170
     0
171
     0
290
     0
174
     0
 93
       13
 44
0.0
173
     0
291
     1
 45
0.0
  0
VISUALSTYLE
  5
2D
102
{ACAD_REACTORS
330
2A
102
}
102
{ACAD_XDICTIONARY
360
89
102
}
330
2A
100
AcDbVisualStyle
  2
Gouraud
 70
     2
 71
     2
 72
     2
 73
     1
 90
        2
 40
-0.6
 41
30.0
 62
     5
 63
     7
421
 16777215
 74
     0
 91
        4
 64
     7
 65
   257
 75
     1
175
     1
 42
1.0
 92
        0
 66
     7
 43
1.0
 76
     1
 77
     6
 78
     2
 67
     7
 79
     5
170
     0
171
     0
290
     0
174
     0
 93
       13
 44
0.0
173
     0
291
     1
 45
0.0
  0
VISUALSTYLE
  5
2E
102
{ACAD_REACTORS
330
2A
102
}
102
{ACAD_XDICTIONARY
360
8B
102
}
330
2A
100
AcDbVisualStyle
  2
GouraudWithEdges
 70
     3
 71
     2
 72
     2
 73
     1
 90
        2
 40
-0.6
 41
30.0
 62
     5
 63
     7
421
 16777215
 74
     1
 91
        4
 64
     7
 65
   257
 75
     1
175
     1
 42
1.0
 92
        0
 66
   257
 43
1.0
 76
     1
 77
     6
 78
     2
 67
     7
 79
     5
170
     0
171
     0
290
     0
174
     0
 93
       13
 44
0.0
173
     0
291
     1
 45
0.0
  0
VISUALSTYLE
  5
38
102
{ACAD_REACTORS
330
2A
102
}
102
{ACAD_XDICTIONARY
360
9F
102
}
330
2A
100
AcDbVisualStyle
  2
Linepattern
 70
    14
 71
     2
 72
     2
 73
     0
 90
        0
 40
-0.6
 41
-30.0
 62
     5
 63
     7
421
 16777215
 74
     1
 91
        4
 64
     7
 65
   257
 75
     7
175
     7
 42
1.0
 92
        8
 66
     7
 43
1.0
 76
     1
 77
     6
 78
     2
 67
     7
 79
     5
170
     0
171
     0
290
     0
174
     0
 93
        1
 44
0.0
173
     0
291
     1
 45
0.0
  0
VISUALSTYLE
  5
33
102
{ACAD_REACTORS
330
2A
102
}
102
{ACAD_XDICTIONARY
360
95
102
}
330
2A
100
AcDbVisualStyle
  2
Realistic
 70
     8
 71
     2
 72
     2
 73
     0
 90
        0
 40
-0.6
 41
-30.0
 62
     5
 63
     7
421
 16777215
 74
     1
 91
        0
 64
     7
 65
   257
 75
     1
175
     1
 42
1.0
 92
        8
 66
     8
424
  7895160
 43
1.0
 76
     1
 77
     6
 78
     2
 67
     7
 79
     5
170
     0
171
     0
290
     0
174
     0
 93
       13
 44
0.0
173
     0
291
     0
 45
0.0
  0
VISUALSTYLE
  5
37
102
{ACAD_REACTORS
330
2A
102
}
102
{ACAD_XDICTIONARY
360
9D
102
}
330
2A
100
AcDbVisualStyle
  2
Thicken
 70
    13
 71
     2
 72
     2
 73
     0
 90
        0
 40
-0.6
 41
-30.0
 62
     5
 63
     7
421
 16777215
 74
     1
 91
        4
 64
     7
 65
   257
 75
     1
175
     1
 42
1.0
 92
       12
 66
     7
 43
1.0
 76
     1
 77
     6
 78
     2
 67
     7
 79
     5
170
     0
171
     0
290
     0
174
     0
 93
        1
 44
0.0
173
     0
291
     1
 45
0.0
  0
DICTIONARY
  5
8D
330
2F
100
AcDbDictionary
280
     1
281
     1
  3
ACAD_XREC_ROUNDTRIP
360
8E
  0
DICTIONARY
  5
91
330
31
100
AcDbDictionary
280
     1
281
     1
  3
ACAD_XREC_ROUNDTRIP
360
92
  0
DICTIONARY
  5
8F
330
30
100
AcDbDictionary
280
     1
281
     1
  3
ACAD_XREC_ROUNDTRIP
360
90
  0
DICTIONARY
  5
93
330
32
100
AcDbDictionary
280
     1
281
     1
  3
ACAD_XREC_ROUNDTRIP
360
94
  0
DICTIONARY
  5
9B
330
36
100
AcDbDictionary
280
     1
281
     1
  3
ACAD_XREC_ROUNDTRIP
360
9C
  0
DICTIONARY
  5
A3
330
3A
100
AcDbDictionary
280
     1
281
     1
  3
ACAD_XREC_ROUNDTRIP
360
A4
  0
DICTIONARY
  5
97
330
34
100
AcDbDictionary
280
     1
281
     1
  3
ACAD_XREC_ROUNDTRIP
360
98
  0
DICTIONARY
  5
99
330
35
100
AcDbDictionary
280
     1
281
     1
  3
ACAD_XREC_ROUNDTRIP
360
9A
  0
DICTIONARY
  5
A1
330
39
100
AcDbDictionary
280
     1
281
     1
  3
ACAD_XREC_ROUNDTRIP
360
A2
  0
DICTIONARY
  5
85
330
2B
100
AcDbDictionary
280
     1
281
     1
  3
ACAD_XREC_ROUNDTRIP
360
86
  0
DICTIONARY
  5
87
330
2C
100
AcDbDictionary
280
     1
281
     1
  3
ACAD_XREC_ROUNDTRIP
360
88
  0
DICTIONARY
  5
89
330
2D
100
AcDbDictionary
280
     1
281
     1
  3
ACAD_XREC_ROUNDTRIP
360
8A
  0
DICTIONARY
  5
8B
330
2E
100
AcDbDictionary
280
     1
281
     1
  3
ACAD_XREC_ROUNDTRIP
360
8C
  0
DICTIONARY
  5
9F
330
38
100
AcDbDictionary
280
     1
281
     1
  3
ACAD_XREC_ROUNDTRIP
360
A0
  0
DICTIONARY
  5
95
330
33
100
AcDbDictionary
280
     1
281
     1
  3
ACAD_XREC_ROUNDTRIP
360
96
  0
DICTIONARY
  5
9D
330
37
100
AcDbDictionary
280
     1
281
     1
  3
ACAD_XREC_ROUNDTRIP
360
9E
  0
XRECORD
  5
8E
102
{ACAD_REACTORS
330
8D
102
}
330
8D
100
AcDbXrecord
280
     1
102
RTVSPropertyOp0
 70
     1
102
RTVSPropertyOp1
 70
     1
102
RTVSPropertyOp2
 70
     1
102
RTVSPropertyOp3
 70
     1
102
RTVSPropertyOp4
 70
     1
102
RTVSPropertyOp5
 70
     1
102
RTVSPropertyOp6
 70
     1
102
RTVSPropertyOp7
 70
     1
102
RTVSPropertyOp8
 70
     1
102
RTVSPropertyOp9
 70
     1
102
RTVSPropertyOp10
 70
     1
102
RTVSPropertyOp11
 70
     1
102
RTVSPropertyOp12
 70
     1
102
RTVSPropertyOp13
 70
     1
102
RTVSPropertyOp14
 70
     1
102
RTVSPropertyOp15
 70
     1
102
RTVSPropertyOp16
 70
     1
102
RTVSPropertyOp17
 70
     1
102
RTVSPropertyOp18
 70
     1
102
RTVSPropertyOp19
 70
     1
102
RTVSPropertyOp20
 70
     1
102
RTVSPropertyOp21
 70
     1
102
RTVSPropertyOp22
 70
     1
102
RTVSPropertyOp23
 70
     1
102
RTVSPropertyOp24
 70
     1
102
RTVSPropertyOp25
 70
     1
102
RTVSPropertyOp26
 70
     1
102
RTVSPropertyOp27
 70
     1
102
RTVSPropertyOp28
 70
     1
102
RTVSPropertyOp29
 70
     1
102
RTVSPropertyOp30
 70
     1
102
RTVSPropertyOp31
 70
     1
102
RTVSPropertyOp32
 70
     1
  0
XRECORD
  5
92
102
{ACAD_REACTORS
330
91
102
}
330
91
100
AcDbXrecord
280
     1
102
RTVSPropertyOp0
 70
     1
102
RTVSPropertyOp1
 70
     1
102
RTVSPropertyOp2
 70
     1
102
RTVSPropertyOp3
 70
     1
102
RTVSPropertyOp4
 70
     1
102
RTVSPropertyOp5
 70
     1
102
RTVSPropertyOp6
 70
     1
102
RTVSPropertyOp7
 70
     1
102
RTVSPropertyOp8
 70
     1
102
RTVSPropertyOp9
 70
     1
102
RTVSPropertyOp10
 70
     1
102
RTVSPropertyOp11
 70
     1
102
RTVSPropertyOp12
 70
     1
102
RTVSPropertyOp13
 70
     1
102
RTVSPropertyOp14
 70
     1
102
RTVSPropertyOp15
 70
     1
102
RTVSPropertyOp16
 70
     1
102
RTVSPropertyOp17
 70
     1
102
RTVSPropertyOp18
 70
     1
102
RTVSPropertyOp19
 70
     1
102
RTVSPropertyOp20
 70
     1
102
RTVSPropertyOp21
 70
     1
102
RTVSPropertyOp22
 70
     1
102
RTVSPropertyOp23
 70
     1
102
RTVSPropertyOp24
 70
     1
102
RTVSPropertyOp25
 70
     1
102
RTVSPropertyOp26
 70
     1
102
RTVSPropertyOp27
 70
     1
102
RTVSPropertyOp28
 70
     1
102
RTVSPropertyOp29
 70
     1
102
RTVSPropertyOp30
 70
     1
102
RTVSPropertyOp31
 70
     1
102
RTVSPropertyOp32
 70
     1
  0
XRECORD
  5
90
102
{ACAD_REACTORS
330
8F
102
}
330
8F
100
AcDbXrecord
280
     1
102
RTVSPropertyOp0
 70
     1
102
RTVSPropertyOp1
 70
     1
102
RTVSPropertyOp2
 70
     1
102
RTVSPropertyOp3
 70
     1
102
RTVSPropertyOp4
 70
     1
102
RTVSPropertyOp5
 70
     1
102
RTVSPropertyOp6
 70
     1
102
RTVSPropertyOp7
 70
     1
102
RTVSPropertyOp8
 70
     1
102
RTVSPropertyOp9
 70
     1
102
RTVSPropertyOp10
 70
     1
102
RTVSPropertyOp11
 70
     1
102
RTVSPropertyOp12
 70
     1
102
RTVSPropertyOp13
 70
     1
102
RTVSPropertyOp14
 70
     1
102
RTVSPropertyOp15
 70
     1
102
RTVSPropertyOp16
 70
     1
102
RTVSPropertyOp17
 70
     1
102
RTVSPropertyOp18
 70
     1
102
RTVSPropertyOp19
 70
     1
102
RTVSPropertyOp20
 70
     1
102
RTVSPropertyOp21
 70
     1
102
RTVSPropertyOp22
 70
     1
102
RTVSPropertyOp23
 70
     1
102
RTVSPropertyOp24
 70
     1
102
RTVSPropertyOp25
 70
     1
102
RTVSPropertyOp26
 70
     1
102
RTVSPropertyOp27
 70
     1
102
RTVSPropertyOp28
 70
     1
102
RTVSPropertyOp29
 70
     1
102
RTVSPropertyOp30
 70
     1
102
RTVSPropertyOp31
 70
     1
102
RTVSPropertyOp32
 70
     1
  0
XRECORD
  5
94
102
{ACAD_REACTORS
330
93
102
}
330
93
100
AcDbXrecord
280
     1
102
RTVSPropertyOp0
 70
     1
102
RTVSPropertyOp1
 70
     1
102
RTVSPropertyOp2
 70
     1
102
RTVSPropertyOp3
 70
     1
102
RTVSPropertyOp4
 70
     1
102
RTVSPropertyOp5
 70
     1
102
RTVSPropertyOp6
 70
     1
102
RTVSPropertyOp7
 70
     1
102
RTVSPropertyOp8
 70
     1
102
RTVSPropertyOp9
 70
     1
102
RTVSPropertyOp10
 70
     1
102
RTVSPropertyOp11
 70
     1
102
RTVSPropertyOp12
 70
     1
102
RTVSPropertyOp13
 70
     1
102
RTVSPropertyOp14
 70
     1
102
RTVSPropertyOp15
 70
     1
102
RTVSPropertyOp16
 70
     1
102
RTVSPropertyOp17
 70
     1
102
RTVSPropertyOp18
 70
     1
102
RTVSPropertyOp19
 70
     1
102
RTVSPropertyOp20
 70
     1
102
RTVSPropertyOp21
 70
     1
102
RTVSPropertyOp22
 70
     1
102
RTVSPropertyOp23
 70
     1
102
RTVSPropertyOp24
 70
     1
102
RTVSPropertyOp25
 70
     1
102
RTVSPropertyOp26
 70
     1
102
RTVSPropertyOp27
 70
     1
102
RTVSPropertyOp28
 70
     1
102
RTVSPropertyOp29
 70
     1
102
RTVSPropertyOp30
 70
     1
102
RTVSPropertyOp31
 70
     1
102
RTVSPropertyOp32
 70
     1
  0
XRECORD
  5
9C
102
{ACAD_REACTORS
330
9B
102
}
330
9B
100
AcDbXrecord
280
     1
102
RTVSPropertyOp0
 70
     1
102
RTVSPropertyOp1
 70
     1
102
RTVSPropertyOp2
 70
     1
102
RTVSPropertyOp3
 70
     1
102
RTVSPropertyOp4
 70
     1
102
RTVSPropertyOp5
 70
     1
102
RTVSPropertyOp6
 70
     1
102
RTVSPropertyOp7
 70
     1
102
RTVSPropertyOp8
 70
     1
102
RTVSPropertyOp9
 70
     1
102
RTVSPropertyOp10
 70
     1
102
RTVSPropertyOp11
 70
     1
102
RTVSPropertyOp12
 70
     1
102
RTVSPropertyOp13
 70
     1
102
RTVSPropertyOp14
 70
     1
102
RTVSPropertyOp15
 70
     1
102
RTVSPropertyOp16
 70
     1
102
RTVSPropertyOp17
 70
     1
102
RTVSPropertyOp18
 70
     1
102
RTVSPropertyOp19
 70
     1
102
RTVSPropertyOp20
 70
     1
102
RTVSPropertyOp21
 70
     1
102
RTVSPropertyOp22
 70
     1
102
RTVSPropertyOp23
 70
     1
102
RTVSPropertyOp24
 70
     1
102
RTVSPropertyOp25
 70
     1
102
RTVSPropertyOp26
 70
     1
102
RTVSPropertyOp27
 70
     1
102
RTVSPropertyOp28
 70
     1
102
RTVSPropertyOp29
 70
     1
102
RTVSPropertyOp30
 70
     1
102
RTVSPropertyOp31
 70
     1
102
RTVSPropertyOp32
 70
     1
  0
XRECORD
  5
A4
102
{ACAD_REACTORS
330
A3
102
}
330
A3
100
AcDbXrecord
280
     1
102
RTVSPropertyOp0
 70
     1
102
RTVSPropertyOp1
 70
     1
102
RTVSPropertyOp2
 70
     1
102
RTVSPropertyOp3
 70
     1
102
RTVSPropertyOp4
 70
     1
102
RTVSPropertyOp5
 70
     1
102
RTVSPropertyOp6
 70
     1
102
RTVSPropertyOp7
 70
     1
102
RTVSPropertyOp8
 70
     1
102
RTVSPropertyOp9
 70
     1
102
RTVSPropertyOp10
 70
     1
102
RTVSPropertyOp11
 70
     1
102
RTVSPropertyOp12
 70
     1
102
RTVSPropertyOp13
 70
     1
102
RTVSPropertyOp14
 70
     1
102
RTVSPropertyOp15
 70
     1
102
RTVSPropertyOp16
 70
     1
102
RTVSPropertyOp17
 70
     1
102
RTVSPropertyOp18
 70
     1
102
RTVSPropertyOp19
 70
     1
102
RTVSPropertyOp20
 70
     1
102
RTVSPropertyOp21
 70
     1
102
RTVSPropertyOp22
 70
     1
102
RTVSPropertyOp23
 70
     1
102
RTVSPropertyOp24
 70
     1
102
RTVSPropertyOp25
 70
     1
102
RTVSPropertyOp26
 70
     1
102
RTVSPropertyOp27
 70
     1
102
RTVSPropertyOp28
 70
     1
102
RTVSPropertyOp29
 70
     1
102
RTVSPropertyOp30
 70
     1
102
RTVSPropertyOp31
 70
     1
102
RTVSPropertyOp32
 70
     1
  0
XRECORD
  5
98
102
{ACAD_REACTORS
330
97
102
}
330
97
100
AcDbXrecord
280
     1
102
RTVSPropertyOp0
 70
     1
102
RTVSPropertyOp1
 70
     1
102
RTVSPropertyOp2
 70
     1
102
RTVSPropertyOp3
 70
     1
102
RTVSPropertyOp4
 70
     1
102
RTVSPropertyOp5
 70
     1
102
RTVSPropertyOp6
 70
     1
102
RTVSPropertyOp7
 70
     1
102
RTVSPropertyOp8
 70
     1
102
RTVSPropertyOp9
 70
     1
102
RTVSPropertyOp10
 70
     1
102
RTVSPropertyOp11
 70
     1
102
RTVSPropertyOp12
 70
     1
102
RTVSPropertyOp13
 70
     1
102
RTVSPropertyOp14
 70
     1
102
RTVSPropertyOp15
 70
     1
102
RTVSPropertyOp16
 70
     1
102
RTVSPropertyOp17
 70
     1
102
RTVSPropertyOp18
 70
     1
102
RTVSPropertyOp19
 70
     1
102
RTVSPropertyOp20
 70
     1
102
RTVSPropertyOp21
 70
     1
102
RTVSPropertyOp22
 70
     1
102
RTVSPropertyOp23
 70
     1
102
RTVSPropertyOp24
 70
     1
102
RTVSPropertyOp25
 70
     1
102
RTVSPropertyOp26
 70
     1
102
RTVSPropertyOp27
 70
     1
102
RTVSPropertyOp28
 70
     1
102
RTVSPropertyOp29
 70
     1
102
RTVSPropertyOp30
 70
     1
102
RTVSPropertyOp31
 70
     1
102
RTVSPropertyOp32
 70
     1
  0
XRECORD
  5
9A
102
{ACAD_REACTORS
330
99
102
}
330
99
100
AcDbXrecord
280
     1
102
RTVSPropertyOp0
 70
     1
102
RTVSPropertyOp1
 70
     1
102
RTVSPropertyOp2
 70
     1
102
RTVSPropertyOp3
 70
     1
102
RTVSPropertyOp4
 70
     1
102
RTVSPropertyOp5
 70
     1
102
RTVSPropertyOp6
 70
     1
102
RTVSPropertyOp7
 70
     1
102
RTVSPropertyOp8
 70
     1
102
RTVSPropertyOp9
 70
     1
102
RTVSPropertyOp10
 70
     1
102
RTVSPropertyOp11
 70
     1
102
RTVSPropertyOp12
 70
     1
102
RTVSPropertyOp13
 70
     1
102
RTVSPropertyOp14
 70
     1
102
RTVSPropertyOp15
 70
     1
102
RTVSPropertyOp16
 70
     1
102
RTVSPropertyOp17
 70
     1
102
RTVSPropertyOp18
 70
     1
102
RTVSPropertyOp19
 70
     1
102
RTVSPropertyOp20
 70
     1
102
RTVSPropertyOp21
 70
     1
102
RTVSPropertyOp22
 70
     1
102
RTVSPropertyOp23
 70
     1
102
RTVSPropertyOp24
 70
     1
102
RTVSPropertyOp25
 70
     1
102
RTVSPropertyOp26
 70
     1
102
RTVSPropertyOp27
 70
     1
102
RTVSPropertyOp28
 70
     1
102
RTVSPropertyOp29
 70
     1
102
RTVSPropertyOp30
 70
     1
102
RTVSPropertyOp31
 70
     1
102
RTVSPropertyOp32
 70
     1
  0
XRECORD
  5
A2
102
{ACAD_REACTORS
330
A1
102
}
330
A1
100
AcDbXrecord
280
     1
102
RTVSPropertyOp0
 70
     1
102
RTVSPropertyOp1
 70
     1
102
RTVSPropertyOp2
 70
     1
102
RTVSPropertyOp3
 70
     1
102
RTVSPropertyOp4
 70
     1
102
RTVSPropertyOp5
 70
     1
102
RTVSPropertyOp6
 70
     1
102
RTVSPropertyOp7
 70
     1
102
RTVSPropertyOp8
 70
     1
102
RTVSPropertyOp9
 70
     1
102
RTVSPropertyOp10
 70
     1
102
RTVSPropertyOp11
 70
     1
102
RTVSPropertyOp12
 70
     1
102
RTVSPropertyOp13
 70
     1
102
RTVSPropertyOp14
 70
     1
102
RTVSPropertyOp15
 70
     1
102
RTVSPropertyOp16
 70
     1
102
RTVSPropertyOp17
 70
     1
102
RTVSPropertyOp18
 70
     1
102
RTVSPropertyOp19
 70
     1
102
RTVSPropertyOp20
 70
     1
102
RTVSPropertyOp21
 70
     1
102
RTVSPropertyOp22
 70
     1
102
RTVSPropertyOp23
 70
     1
102
RTVSPropertyOp24
 70
     1
102
RTVSPropertyOp25
 70
     1
102
RTVSPropertyOp26
 70
     1
102
RTVSPropertyOp27
 70
     1
102
RTVSPropertyOp28
 70
     1
102
RTVSPropertyOp29
 70
     1
102
RTVSPropertyOp30
 70
     1
102
RTVSPropertyOp31
 70
     1
102
RTVSPropertyOp32
 70
     1
  0
XRECORD
  5
86
102
{ACAD_REACTORS
330
85
102
}
330
85
100
AcDbXrecord
280
     1
102
RTVSPropertyOp0
 70
     1
102
RTVSPropertyOp1
 70
     1
102
RTVSPropertyOp2
 70
     1
102
RTVSPropertyOp3
 70
     1
102
RTVSPropertyOp4
 70
     1
102
RTVSPropertyOp5
 70
     1
102
RTVSPropertyOp6
 70
     1
102
RTVSPropertyOp7
 70
     1
102
RTVSPropertyOp8
 70
     1
102
RTVSPropertyOp9
 70
     1
102
RTVSPropertyOp10
 70
     1
102
RTVSPropertyOp11
 70
     1
102
RTVSPropertyOp12
 70
     1
102
RTVSPropertyOp13
 70
     1
102
RTVSPropertyOp14
 70
     1
102
RTVSPropertyOp15
 70
     1
102
RTVSPropertyOp16
 70
     1
102
RTVSPropertyOp17
 70
     1
102
RTVSPropertyOp18
 70
     1
102
RTVSPropertyOp19
 70
     1
102
RTVSPropertyOp20
 70
     1
102
RTVSPropertyOp21
 70
     1
102
RTVSPropertyOp22
 70
     1
102
RTVSPropertyOp23
 70
     1
102
RTVSPropertyOp24
 70
     1
102
RTVSPropertyOp25
 70
     1
102
RTVSPropertyOp26
 70
     1
102
RTVSPropertyOp27
 70
     1
102
RTVSPropertyOp28
 70
     1
102
RTVSPropertyOp29
 70
     1
102
RTVSPropertyOp30
 70
     1
102
RTVSPropertyOp31
 70
     1
102
RTVSPropertyOp32
 70
     1
  0
XRECORD
  5
88
102
{ACAD_REACTORS
330
87
102
}
330
87
100
AcDbXrecord
280
     1
102
RTVSPropertyOp0
 70
     1
102
RTVSPropertyOp1
 70
     1
102
RTVSPropertyOp2
 70
     1
102
RTVSPropertyOp3
 70
     1
102
RTVSPropertyOp4
 70
     1
102
RTVSPropertyOp5
 70
     1
102
RTVSPropertyOp6
 70
     1
102
RTVSPropertyOp7
 70
     1
102
RTVSPropertyOp8
 70
     1
102
RTVSPropertyOp9
 70
     1
102
RTVSPropertyOp10
 70
     1
102
RTVSPropertyOp11
 70
     1
102
RTVSPropertyOp12
 70
     1
102
RTVSPropertyOp13
 70
     1
102
RTVSPropertyOp14
 70
     1
102
RTVSPropertyOp15
 70
     1
102
RTVSPropertyOp16
 70
     1
102
RTVSPropertyOp17
 70
     1
102
RTVSPropertyOp18
 70
     1
102
RTVSPropertyOp19
 70
     1
102
RTVSPropertyOp20
 70
     1
102
RTVSPropertyOp21
 70
     1
102
RTVSPropertyOp22
 70
     1
102
RTVSPropertyOp23
 70
     1
102
RTVSPropertyOp24
 70
     1
102
RTVSPropertyOp25
 70
     1
102
RTVSPropertyOp26
 70
     1
102
RTVSPropertyOp27
 70
     1
102
RTVSPropertyOp28
 70
     1
102
RTVSPropertyOp29
 70
     1
102
RTVSPropertyOp30
 70
     1
102
RTVSPropertyOp31
 70
     1
102
RTVSPropertyOp32
 70
     1
  0
XRECORD
  5
8A
102
{ACAD_REACTORS
330
89
102
}
330
89
100
AcDbXrecord
280
     1
102
RTVSPropertyOp0
 70
     1
102
RTVSPropertyOp1
 70
     1
102
RTVSPropertyOp2
 70
     1
102
RTVSPropertyOp3
 70
     1
102
RTVSPropertyOp4
 70
     1
102
RTVSPropertyOp5
 70
     1
102
RTVSPropertyOp6
 70
     1
102
RTVSPropertyOp7
 70
     1
102
RTVSPropertyOp8
 70
     1
102
RTVSPropertyOp9
 70
     1
102
RTVSPropertyOp10
 70
     1
102
RTVSPropertyOp11
 70
     1
102
RTVSPropertyOp12
 70
     1
102
RTVSPropertyOp13
 70
     1
102
RTVSPropertyOp14
 70
     1
102
RTVSPropertyOp15
 70
     1
102
RTVSPropertyOp16
 70
     1
102
RTVSPropertyOp17
 70
     1
102
RTVSPropertyOp18
 70
     1
102
RTVSPropertyOp19
 70
     1
102
RTVSPropertyOp20
 70
     1
102
RTVSPropertyOp21
 70
     1
102
RTVSPropertyOp22
 70
     1
102
RTVSPropertyOp23
 70
     1
102
RTVSPropertyOp24
 70
     1
102
RTVSPropertyOp25
 70
     1
102
RTVSPropertyOp26
 70
     1
102
RTVSPropertyOp27
 70
     1
102
RTVSPropertyOp28
 70
     1
102
RTVSPropertyOp29
 70
     1
102
RTVSPropertyOp30
 70
     1
102
RTVSPropertyOp31
 70
     1
102
RTVSPropertyOp32
 70
     1
  0
XRECORD
  5
8C
102
{ACAD_REACTORS
330
8B
102
}
330
8B
100
AcDbXrecord
280
     1
102
RTVSPropertyOp0
 70
     1
102
RTVSPropertyOp1
 70
     1
102
RTVSPropertyOp2
 70
     1
102
RTVSPropertyOp3
 70
     1
102
RTVSPropertyOp4
 70
     1
102
RTVSPropertyOp5
 70
     1
102
RTVSPropertyOp6
 70
     1
102
RTVSPropertyOp7
 70
     1
102
RTVSPropertyOp8
 70
     1
102
RTVSPropertyOp9
 70
     1
102
RTVSPropertyOp10
 70
     1
102
RTVSPropertyOp11
 70
     1
102
RTVSPropertyOp12
 70
     1
102
RTVSPropertyOp13
 70
     1
102
RTVSPropertyOp14
 70
     1
102
RTVSPropertyOp15
 70
     1
102
RTVSPropertyOp16
 70
     1
102
RTVSPropertyOp17
 70
     1
102
RTVSPropertyOp18
 70
     1
102
RTVSPropertyOp19
 70
     1
102
RTVSPropertyOp20
 70
     1
102
RTVSPropertyOp21
 70
     1
102
RTVSPropertyOp22
 70
     1
102
RTVSPropertyOp23
 70
     1
102
RTVSPropertyOp24
 70
     1
102
RTVSPropertyOp25
 70
     1
102
RTVSPropertyOp26
 70
     1
102
RTVSPropertyOp27
 70
     1
102
RTVSPropertyOp28
 70
     1
102
RTVSPropertyOp29
 70
     1
102
RTVSPropertyOp30
 70
     1
102
RTVSPropertyOp31
 70
     1
102
RTVSPropertyOp32
 70
     1
  0
XRECORD
  5
A0
102
{ACAD_REACTORS
330
9F
102
}
330
9F
100
AcDbXrecord
280
     1
102
RTVSPropertyOp0
 70
     1
102
RTVSPropertyOp1
 70
     1
102
RTVSPropertyOp2
 70
     1
102
RTVSPropertyOp3
 70
     1
102
RTVSPropertyOp4
 70
     1
102
RTVSPropertyOp5
 70
     1
102
RTVSPropertyOp6
 70
     1
102
RTVSPropertyOp7
 70
     1
102
RTVSPropertyOp8
 70
     1
102
RTVSPropertyOp9
 70
     1
102
RTVSPropertyOp10
 70
     1
102
RTVSPropertyOp11
 70
     1
102
RTVSPropertyOp12
 70
     1
102
RTVSPropertyOp13
 70
     1
102
RTVSPropertyOp14
 70
     1
102
RTVSPropertyOp15
 70
     1
102
RTVSPropertyOp16
 70
     1
102
RTVSPropertyOp17
 70
     1
102
RTVSPropertyOp18
 70
     1
102
RTVSPropertyOp19
 70
     1
102
RTVSPropertyOp20
 70
     1
102
RTVSPropertyOp21
 70
     1
102
RTVSPropertyOp22
 70
     1
102
RTVSPropertyOp23
 70
     1
102
RTVSPropertyOp24
 70
     1
102
RTVSPropertyOp25
 70
     1
102
RTVSPropertyOp26
 70
     1
102
RTVSPropertyOp27
 70
     1
102
RTVSPropertyOp28
 70
     1
102
RTVSPropertyOp29
 70
     1
102
RTVSPropertyOp30
 70
     1
102
RTVSPropertyOp31
 70
     1
102
RTVSPropertyOp32
 70
     1
  0
XRECORD
  5
96
102
{ACAD_REACTORS
330
95
102
}
330
95
100
AcDbXrecord
280
     1
102
RTVSPropertyOp0
 70
     1
102
RTVSPropertyOp1
 70
     1
102
RTVSPropertyOp2
 70
     1
102
RTVSPropertyOp3
 70
     1
102
RTVSPropertyOp4
 70
     1
102
RTVSPropertyOp5
 70
     1
102
RTVSPropertyOp6
 70
     1
102
RTVSPropertyOp7
 70
     1
102
RTVSPropertyOp8
 70
     1
102
RTVSPropertyOp9
 70
     1
102
RTVSPropertyOp10
 70
     1
102
RTVSPropertyOp11
 70
     1
102
RTVSPropertyOp12
 70
     1
102
RTVSPropertyOp13
 70
     1
102
RTVSPropertyOp14
 70
     1
102
RTVSPropertyOp15
 70
     1
102
RTVSPropertyOp16
 70
     1
102
RTVSPropertyOp17
 70
     1
102
RTVSPropertyOp18
 70
     1
102
RTVSPropertyOp19
 70
     1
102
RTVSPropertyOp20
 70
     1
102
RTVSPropertyOp21
 70
     1
102
RTVSPropertyOp22
 70
     1
102
RTVSPropertyOp23
 70
     1
102
RTVSPropertyOp24
 70
     1
102
RTVSPropertyOp25
 70
     1
102
RTVSPropertyOp26
 70
     1
102
RTVSPropertyOp27
 70
     1
102
RTVSPropertyOp28
 70
     1
102
RTVSPropertyOp29
 70
     1
102
RTVSPropertyOp30
 70
     1
102
RTVSPropertyOp31
 70
     1
102
RTVSPropertyOp32
 70
     1
  0
XRECORD
  5
9E
102
{ACAD_REACTORS
330
9D
102
}
330
9D
100
AcDbXrecord
280
     1
102
RTVSPropertyOp0
 70
     1
102
RTVSPropertyOp1
 70
     1
102
RTVSPropertyOp2
 70
     1
102
RTVSPropertyOp3
 70
     1
102
RTVSPropertyOp4
 70
     1
102
RTVSPropertyOp5
 70
     1
102
RTVSPropertyOp6
 70
     1
102
RTVSPropertyOp7
 70
     1
102
RTVSPropertyOp8
 70
     1
102
RTVSPropertyOp9
 70
     1
102
RTVSPropertyOp10
 70
     1
102
RTVSPropertyOp11
 70
     1
102
RTVSPropertyOp12
 70
     1
102
RTVSPropertyOp13
 70
     1
102
RTVSPropertyOp14
 70
     1
102
RTVSPropertyOp15
 70
     1
102
RTVSPropertyOp16
 70
     1
102
RTVSPropertyOp17
 70
     1
102
RTVSPropertyOp18
 70
     1
102
RTVSPropertyOp19
 70
     1
102
RTVSPropertyOp20
 70
     1
102
RTVSPropertyOp21
 70
     1
102
RTVSPropertyOp22
 70
     1
102
RTVSPropertyOp23
 70
     1
102
RTVSPropertyOp24
 70
     1
102
RTVSPropertyOp25
 70
     1
102
RTVSPropertyOp26
 70
     1
102
RTVSPropertyOp27
 70
     1
102
RTVSPropertyOp28
 70
     1
102
RTVSPropertyOp29
 70
     1
102
RTVSPropertyOp30
 70
     1
102
RTVSPropertyOp31
 70
     1
102
RTVSPropertyOp32
 70
     1
  0
ENDSEC
  0
EOF
