  0
SECTION
  2
HEADER
  9
$ACADVER
  1
AC1021
  9
$ACADMAINTVER
 70
    25
  9
$DWGCODEPAGE
  3
ANSI_1252
  9
$INSBASE
 10
0.0
 20
0.0
 30
0.0
  9
$EXTMIN
 10
-187.633
 20
-75.8635
 30
0.0
  9
$EXTMAX
 10
-60.0887
 20
102.9463
 30
0.0
  9
$LIMMIN
 10
0.0
 20
0.0
  9
$LIMMAX
 10
12.0
 20
9.0
  9
$ORTHOMODE
 70
     0
  9
$REGENMODE
 70
     1
  9
$FILLMODE
 70
     1
  9
$QTEXTMODE
 70
     0
  9
$MIRRTEXT
 70
     1
  9
$LTSCALE
 40
1.0
  9
$ATTMODE
 70
     1
  9
$TEXTSIZE
 40
0.2
  9
$TRACEWID
 40
0.05
  9
$TEXTSTYLE
  7
Standard
  9
$CLAYER
  8
0
  9
$CELTYPE
  6
ByLayer
  9
$CECOLOR
 62
   256
  9
$CELTSCALE
 40
1.0
  9
$DISPSILH
 70
     0
  9
$DIMSCALE
 40
1.0
  9
$DIMASZ
 40
0.18
  9
$DIMEXO
 40
0.0625
  9
$DIMDLI
 40
0.38
  9
$DIMRND
 40
0.0
  9
$DIMDLE
 40
0.0
  9
$DIMEXE
 40
0.18
  9
$DIMTP
 40
0.0
  9
$DIMTM
 40
0.0
  9
$DIMTXT
 40
0.18
  9
$DIMCEN
 40
0.09
  9
$DIMTSZ
 40
0.0
  9
$DIMTOL
 70
     0
  9
$DIMLIM
 70
     0
  9
$DIMTIH
 70
     1
  9
$DIMTOH
 70
     1
  9
$DIMSE1
 70
     0
  9
$DIMSE2
 70
     0
  9
$DIMTAD
 70
     0
  9
$DIMZIN
 70
     0
  9
$DIMBLK
  1

  9
$DIMASO
 70
     1
  9
$DIMSHO
 70
     1
  9
$DIMPOST
  1

  9
$DIMAPOST
  1

  9
$DIMALT
 70
     0
  9
$DIMALTD
 70
     2
  9
$DIMALTF
 40
25.4
  9
$DIMLFAC
 40
1.0
  9
$DIMTOFL
 70
     0
  9
$DIMTVP
 40
0.0
  9
$DIMTIX
 70
     0
  9
$DIMSOXD
 70
     0
  9
$DIMSAH
 70
     0
  9
$DIMBLK1
  1

  9
$DIMBLK2
  1

  9
$DIMSTYLE
  2
Standard
  9
$DIMCLRD
 70
     0
  9
$DIMCLRE
 70
     0
  9
$DIMCLRT
 70
     0
  9
$DIMTFAC
 40
1.0
  9
$DIMGAP
 40
0.09
  9
$DIMJUST
 70
     0
  9
$DIMSD1
 70
     0
  9
$DIMSD2
 70
     0
  9
$DIMTOLJ
 70
     1
  9
$DIMTZIN
 70
     0
  9
$DIMALTZ
 70
     0
  9
$DIMALTTZ
 70
     0
  9
$DIMUPT
 70
     0
  9
$DIMDEC
 70
     4
  9
$DIMTDEC
 70
     4
  9
$DIMALTU
 70
     2
  9
$DIMALTTD
 70
     2
  9
$DIMTXSTY
  7
Standard
  9
$DIMAUNIT
 70
     0
  9
$DIMADEC
 70
     0
  9
$DIMALTRND
 40
0.0
  9
$DIMAZIN
 70
     0
  9
$DIMDSEP
 70
    46
  9
$DIMATFIT
 70
     3
  9
$DIMFRAC
 70
     0
  9
$DIMLDRBLK
  1

  9
$DIMLUNIT
 70
     2
  9
$DIMLWD
 70
    -2
  9
$DIMLWE
 70
    -2
  9
$DIMTMOVE
 70
     0
  9
$DIMFXL
 40
1.0
  9
$DIMFXLON
 70
     0
  9
$DIMJOGANG
 40
0.7853981633974483
  9
$DIMTFILL
 70
     0
  9
$DIMTFILLCLR
 70
     0
  9
$DIMARCSYM
 70
     0
  9
$DIMLTYPE
  6

  9
$DIMLTEX1
  6

  9
$DIMLTEX2
  6

  9
$LUNITS
 70
     2
  9
$LUPREC
 70
     4
  9
$SKETCHINC
 40
0.1
  9
$FILLETRAD
 40
0.5
  9
$AUNITS
 70
     0
  9
$AUPREC
 70
     0
  9
$MENU
  1
.
  9
$ELEVATION
 40
0.0
  9
$PELEVATION
 40
0.0
  9
$THICKNESS
 40
0.0
  9
$LIMCHECK
 70
     0
  9
$CHAMFERA
 40
0.5
  9
$CHAMFERB
 40
0.5
  9
$CHAMFERC
 40
1.0
  9
$CHAMFERD
 40
0.0
  9
$SKPOLY
 70
     0
  9
$TDCREATE
 40
2458492.804166748
  9
$TDUCREATE
 40
2458492.804166748
  9
$TDUPDATE
 40
2458492.804167095
  9
$TDUUPDATE
 40
2458492.804167095
  9
$TDINDWG
 40
0.0000000116
  9
$TDUSRTIMER
 40
0.0000000116
  9
$USRTIMER
 70
     1
  9
$ANGBASE
 50
0.0
  9
$ANGDIR
 70
     0
  9
$PDMODE
 70
     0
  9
$PDSIZE
 40
0.0
  9
$PLINEWID
 40
0.0
  9
$SPLFRAME
 70
     0
  9
$SPLINETYPE
 70
     6
  9
$SPLINESEGS
 70
     8
  9
$HANDSEED
  5
D0
  9
$SURFTAB1
 70
     6
  9
$SURFTAB2
 70
     6
  9
$SURFTYPE
 70
     6
  9
$SURFU
 70
     6
  9
$SURFV
 70
     6
  9
$UCSBASE
  2

  9
$UCSNAME
  2

  9
$UCSORG
 10
0.0
 20
0.0
 30
0.0
  9
$UCSXDIR
 10
1.0
 20
0.0
 30
0.0
  9
$UCSYDIR
 10
0.0
 20
1.0
 30
0.0
  9
$UCSORTHOREF
  2

  9
$UCSORTHOVIEW
 70
     0
  9
$UCSORGTOP
 10
0.0
 20
0.0
 30
0.0
  9
$UCSORGBOTTOM
 10
0.0
 20
0.0
 30
0.0
  9
$UCSORGLEFT
 10
0.0
 20
0.0
 30
0.0
  9
$UCSORGRIGHT
 10
0.0
 20
0.0
 30
0.0
  9
$UCSORGFRONT
 10
0.0
 20
0.0
 30
0.0
  9
$UCSORGBACK
 10
0.0
 20
0.0
 30
0.0
  9
$PUCSBASE
  2

  9
$PUCSNAME
  2

  9
$PUCSORG
 10
0.0
 20
0.0
 30
0.0
  9
$PUCSXDIR
 10
1.0
 20
0.0
 30
0.0
  9
$PUCSYDIR
 10
0.0
 20
1.0
 30
0.0
  9
$PUCSORTHOREF
  2

  9
$PUCSORTHOVIEW
 70
     0
  9
$PUCSORGTOP
 10
0.0
 20
0.0
 30
0.0
  9
$PUCSORGBOTTOM
 10
0.0
 20
0.0
 30
0.0
  9
$PUCSORGLEFT
 10
0.0
 20
0.0
 30
0.0
  9
$PUCSORGRIGHT
 10
0.0
 20
0.0
 30
0.0
  9
$PUCSORGFRONT
 10
0.0
 20
0.0
 30
0.0
  9
$PUCSORGBACK
 10
0.0
 20
0.0
 30
0.0
  9
$USERI1
 70
     0
  9
$USERI2
 70
     0
  9
$USERI3
 70
     0
  9
$USERI4
 70
     0
  9
$USERI5
 70
     0
  9
$USERR1
 40
0.0
  9
$USERR2
 40
0.0
  9
$USERR3
 40
0.0
  9
$USERR4
 40
0.0
  9
$USERR5
 40
0.0
  9
$WORLDVIEW
 70
     1
  9
$SHADEDGE
 70
     3
  9
$SHADEDIF
 70
    70
  9
$TILEMODE
 70
     1
  9
$MAXACTVP
 70
    64
  9
$PINSBASE
 10
0.0
 20
0.0
 30
0.0
  9
$PLIMCHECK
 70
     0
  9
$PEXTMIN
 10
1.000000000000000E+20
 20
1.000000000000000E+20
 30
1.000000000000000E+20
  9
$PEXTMAX
 10
-1.000000000000000E+20
 20
-1.000000000000000E+20
 30
-1.000000000000000E+20
  9
$PLIMMIN
 10
0.0
 20
0.0
  9
$PLIMMAX
 10
12.0
 20
9.0
  9
$UNITMODE
 70
     0
  9
$VISRETAIN
 70
     1
  9
$PLINEGEN
 70
     0
  9
$PSLTSCALE
 70
     1
  9
$TREEDEPTH
 70
  3020
  9
$CMLSTYLE
  2
Standard
  9
$CMLJUST
 70
     0
  9
$CMLSCALE
 40
1.0
  9
$PROXYGRAPHICS
 70
     1
  9
$MEASUREMENT
 70
     0
  9
$CELWEIGHT
370
    -1
  9
$ENDCAPS
280
     0
  9
$JOINSTYLE
280
     0
  9
$LWDISPLAY
290
     0
  9
$INSUNITS
 70
     4
  9
$HYPERLINKBASE
  1

  9
$STYLESHEET
  1

  9
$XEDIT
290
     1
  9
$CEPSNTYPE
380
     0
  9
$PSTYLEMODE
290
     1
  9
$FINGERPRINTGUID
  2
{DA13896B-01A5-4FB6-AE01-F2F56BA1F618}
  9
$VERSIONGUID
  2
{FAEB1C32-E019-11D5-929B-00C0DF256EC4}
  9
$EXTNAMES
290
     1
  9
$PSVPSCALE
 40
0.0
  9
$OLESTARTUP
290
     0
  9
$SORTENTS
280
   127
  9
$INDEXCTL
280
     0
  9
$HIDETEXT
280
     1
  9
$XCLIPFRAME
290
     0
  9
$HALOGAP
280
     0
  9
$OBSCOLOR
 70
   257
  9
$OBSLTYPE
280
     0
  9
$INTERSECTIONDISPLAY
280
     0
  9
$INTERSECTIONCOLOR
 70
   257
  9
$DIMASSOC
280
     2
  9
$PROJECTNAME
  1

  9
$CAMERADISPLAY
290
     0
  9
$LENSLENGTH
 40
50.0
  9
$CAMERAHEIGHT
 40
0.0
  9
$STEPSPERSEC
 40
2.0
  9
$STEPSIZE
 40
6.0
  9
$3DDWFPREC
 40
2.0
  9
$PSOLWIDTH
 40
0.25
  9
$PSOLHEIGHT
 40
4.0
  9
$LOFTANG1
 40
1.570796326794897
  9
$LOFTANG2
 40
1.570796326794897
  9
$LOFTMAG1
 40
0.0
  9
$LOFTMAG2
 40
0.0
  9
$LOFTPARAM
 70
     7
  9
$LOFTNORMALS
280
     1
  9
$LATITUDE
 40
37.795
  9
$LONGITUDE
 40
-122.394
  9
$NORTHDIRECTION
 40
0.0
  9
$TIMEZONE
 70
 -8000
  9
$LIGHTGLYPHDISPLAY
280
     1
  9
$TILEMODELIGHTSYNCH
280
     1
  9
$SOLIDHIST
280
     1
  9
$SHOWHIST
280
     1
  9
$DWFFRAME
280
     2
  9
$DGNFRAME
280
     2
  9
$REALWORLDSCALE
290
     1
  9
$INTERFERECOLOR
 62
   256
  9
$CSHADOW
280
     0
  9
$SHADOWPLANELOCATION
 40
0.0
  0
ENDSEC
  0
SECTION
  2
CLASSES
  0
CLASS
  1
ACDBDICTIONARYWDFLT
  2
AcDbDictionaryWithDefault
  3
ObjectDBX Classes
 90
        0
 91
        4
280
     0
281
     0
  0
CLASS
  1
VISUALSTYLE
  2
AcDbVisualStyle
  3
ObjectDBX Classes
 90
     4095
 91
        4
280
     0
281
     0
  0
CLASS
  1
MATERIAL
  2
AcDbMaterial
  3
ObjectDBX Classes
 90
     1153
 91
        4
280
     0
281
     0
  0
ENDSEC
  0
SECTION
  2
TABLES
  0
TABLE
  2
VPORT
  5
8
330
0
100
AcDbSymbolTable
 70
     1
  0
VPORT
  5
29
330
8
100
AcDbSymbolTableRecord
100
AcDbViewportTableRecord
  2
*Active
 70
     0
 10
0.0
 20
0.0
 11
1.0
 21
1.0
 12
10.42990654205607
 22
4.5
 13
0.0
 23
0.0
 14
0.5
 24
0.5
 15
0.5
 25
0.5
 16
0.0
 26
0.0
 36
1.0
 17
0.0
 27
0.0
 37
0.0
 40
9.0
 41
1.972972972850329
 42
50.0
 43
0.0
 44
0.0
 50
0.0
 51
0.0
 71
     0
 72
   100
 73
     1
 74
     3
 75
     0
 76
     0
 77
     0
 78
     0
281
     0
 65
     1
110
0.0
120
0.0
130
0.0
111
1.0
121
0.0
131
0.0
112
0.0
122
1.0
132
0.0
 79
     0
146
0.0
 60
     3
 61
     5
292
     1
282
     1
141
0.0
142
0.0
 63
   250
  0
ENDTAB
  0
TABLE
  2
LTYPE
  5
5
330
0
100
AcDbSymbolTable
 70
     1
  0
LTYPE
  5
14
330
5
100
AcDbSymbolTableRecord
100
AcDbLinetypeTableRecord
  2
ByBlock
 70
     0
  3

 72
    65
 73
     0
 40
0.0
  0
LTYPE
  5
15
330
5
100
AcDbSymbolTableRecord
100
AcDbLinetypeTableRecord
  2
ByLayer
 70
     0
  3

 72
    65
 73
     0
 40
0.0
  0
LTYPE
  5
16
330
5
100
AcDbSymbolTableRecord
100
AcDbLinetypeTableRecord
  2
Continuous
 70
     0
  3
Solid line
 72
    65
 73
     0
 40
0.0
  0
ENDTAB
  0
TABLE
  2
LAYER
  5
2
330
0
100
AcDbSymbolTable
 70
     2
  0
LAYER
  5
10
330
2
100
AcDbSymbolTableRecord
100
AcDbLayerTableRecord
  2
0
 70
     0
 62
     7
  6
Continuous
370
    -3
390
F
347
3E
  0
LAYER
  5
40
330
2
100
AcDbSymbolTableRecord
100
AcDbLayerTableRecord
  2
layer 1
 70
     0
 62
     7
  6
Continuous
370
    -3
390
F
347
3E
  0
ENDTAB
  0
TABLE
  2
STYLE
  5
3
330
0
100
AcDbSymbolTable
 70
     1
  0
STYLE
  5
11
330
3
100
AcDbSymbolTableRecord
100
AcDbTextStyleTableRecord
  2
Standard
 70
     0
 40
0.0
 41
1.0
 50
0.0
 71
     0
 42
0.2
  3
txt
  4

  0
ENDTAB
  0
TABLE
  2
VIEW
  5
6
330
0
100
AcDbSymbolTable
 70
     0
  0
ENDTAB
  0
TABLE
  2
UCS
  5
7
330
0
100
AcDbSymbolTable
 70
     0
  0
ENDTAB
  0
TABLE
  2
APPID
  5
9
330
0
100
AcDbSymbolTable
 70
     2
  0
APPID
  5
12
330
9
100
AcDbSymbolTableRecord
100
AcDbRegAppTableRecord
  2
ACAD
 70
     0
  0
APPID
  5
3F
330
9
100
AcDbSymbolTableRecord
100
AcDbRegAppTableRecord
  2
ODA
 70
     0
  0
ENDTAB
  0
TABLE
  2
DIMSTYLE
  5
A
330
0
100
AcDbSymbolTable
 70
     1
100
AcDbDimStyleTable
  0
DIMSTYLE
105
27
330
A
100
AcDbSymbolTableRecord
100
AcDbDimStyleTableRecord
  2
Standard
 70
     0
178
     0
340
11
  0
ENDTAB
  0
TABLE
  2
BLOCK_RECORD
  5
1
330
0
100
AcDbSymbolTable
 70
     1
  0
BLOCK_RECORD
  5
1F
330
1
100
AcDbSymbolTableRecord
100
AcDbBlockTableRecord
  2
*Model_Space
340
22
 70
     0
280
     1
281
     0
  0
BLOCK_RECORD
  5
1B
330
1
100
AcDbSymbolTableRecord
100
AcDbBlockTableRecord
  2
*Paper_Space
340
1E
 70
     0
280
     1
281
     0
  0
BLOCK_RECORD
  5
23
330
1
100
AcDbSymbolTableRecord
100
AcDbBlockTableRecord
  2
*Paper_Space0
340
26
 70
     0
280
     1
281
     0
  0
ENDTAB
  0
ENDSEC
  0
SECTION
  2
BLOCKS
  0
BLOCK
  5
20
330
1F
100
AcDbEntity
  8
0
100
AcDbBlockBegin
  2
*Model_Space
 70
     0
 10
0.0
 20
0.0
 30
0.0
  3
*Model_Space
  1

  0
ENDBLK
  5
21
330
1F
100
AcDbEntity
  8
0
100
AcDbBlockEnd
  0
BLOCK
  5
1C
330
1B
100
AcDbEntity
 67
     1
  8
0
100
AcDbBlockBegin
  2
*Paper_Space
 70
     0
 10
0.0
 20
0.0
 30
0.0
  3
*Paper_Space
  1

  0
ENDBLK
  5
1D
330
1B
100
AcDbEntity
 67
     1
  8
0
100
AcDbBlockEnd
  0
BLOCK
  5
24
330
23
100
AcDbEntity
  8
0
100
AcDbBlockBegin
  2
*Paper_Space0
 70
     0
 10
0.0
 20
0.0
 30
0.0
  3
*Paper_Space0
  1

  0
ENDBLK
  5
25
330
23
100
AcDbEntity
  8
0
100
AcDbBlockEnd
  0
ENDSEC
  0
SECTION
  2
ENTITIES
  0
SPLINE
  5
41
330
1F
100
AcDbEntity
  8
layer 1
 62
   250
370
     9
100
AcDbSpline
210
0.0
220
0.0
230
1.0
 70
    11
 71
     3
 72
    20
 73
    16
 74
     0
 42
0.0000000001
 43
0.0000000001
 12
1.0
 22
0.0
 32
0.0
 13
1.0
 23
0.0
 33
0.0
 40
0.0
 40
0.0
 40
0.0
 40
0.0
 40
0.2
 40
0.2
 40
0.2
 40
0.2
 40
0.4
 40
0.4
 40
0.4
 40
0.4
 40
0.6
 40
0.6
 40
0.6
 40
0.6
 40
1.0
 40
1.0
 40
1.0
 40
1.0
 10
-60.1268
 20
-75.8254
 30
0.0
 10
-60.1268
 20
-75.8254
 30
0.0
 10
-187.5949
 20
-75.8254
 30
0.0
 10
-187.5949
 20
-75.8254
 30
0.0
 10
-187.5949
 20
-75.8254
 30
0.0
 10
-187.5949
 20
-75.8254
 30
0.0
 10
-187.5949
 20
102.9082
 30
0.0
 10
-187.5949
 20
102.9082
 30
0.0
 10
-187.5949
 20
102.9082
 30
0.0
 10
-187.5949
 20
102.9082
 30
0.0
 10
-60.1268
 20
102.9082
 30
0.0
 10
-60.1268
 20
102.9082
 30
0.0
 10
-60.1268
 20
102.9082
 30
0.0
 10
-60.1268
 20
102.9082
 30
0.0
 10
-60.1268
 20
-75.8254
 30
0.0
 10
-60.1268
 20
-75.8254
 30
0.0
  0
SPLINE
  5
42
330
1F
100
AcDbEntity
  8
layer 1
 62
     7
370
     9
100
AcDbSpline
210
0.0
220
0.0
230
1.0
 70
    11
 71
     3
 72
    16
 73
    12
 74
     0
 42
0.0000000001
 43
0.0000000001
 12
1.0
 22
0.0
 32
0.0
 13
1.0
 23
0.0
 33
0.0
 40
0.0
 40
0.0
 40
0.0
 40
0.0
 40
0.25
 40
0.25
 40
0.25
 40
0.25
 40
0.5
 40
0.5
 40
0.5
 40
0.5
 40
1.0
 40
1.0
 40
1.0
 40
1.0
 10
-175.5846
 20
-68.5235
 30
0.0
 10
-175.5846
 20
-68.5235
 30
0.0
 10
-177.4125
 20
-68.5235
 30
0.0
 10
-177.4125
 20
-68.5235
 30
0.0
 10
-177.4125
 20
-68.5235
 30
0.0
 10
-177.4125
 20
-68.5235
 30
0.0
 10
-177.4125
 20
-63.9588
 30
0.0
 10
-177.4125
 20
-63.9588
 30
0.0
 10
-177.4125
 20
-63.9588
 30
0.0
 10
-176.9829
 20
-65.5462
 30
0.0
 10
-176.3692
 20
-67.0781
 30
0.0
 10
-175.5846
 20
-68.5235
 30
0.0
  0
SPLINE
  5
43
330
1F
100
AcDbEntity
  8
layer 1
 62
     7
370
     9
100
AcDbSpline
210
0.0
220
0.0
230
1.0
 70
    11
 71
     3
 72
    20
 73
    16
 74
     0
 42
0.0000000001
 43
0.0000000001
 12
1.0
 22
0.0
 32
0.0
 13
1.0
 23
0.0
 33
0.0
 40
0.0
 40
0.0
 40
0.0
 40
0.0
 40
0.2
 40
0.2
 40
0.2
 40
0.2
 40
0.4
 40
0.4
 40
0.4
 40
0.4
 40
0.6
 40
0.6
 40
0.6
 40
0.6
 40
1.0
 40
1.0
 40
1.0
 40
1.0
 10
-175.1325
 20
-65.235
 30
0.0
 10
-175.3447
 20
-66.3186
 30
0.0
 10
-175.3707
 20
-67.4309
 30
0.0
 10
-175.2091
 20
-68.5235
 30
0.0
 10
-175.2091
 20
-68.5235
 30
0.0
 10
-175.2091
 20
-68.5235
 30
0.0
 10
-173.3065
 20
-68.5235
 30
0.0
 10
-173.3065
 20
-68.5235
 30
0.0
 10
-173.3065
 20
-68.5235
 30
0.0
 10
-174.2599
 20
-67.0955
 30
0.0
 10
-174.0864
 20
-65.1959
 30
0.0
 10
-172.89
 20
-63.9643
 30
0.0
 10
-172.89
 20
-63.9643
 30
0.0
 10
-173.8315
 20
-63.8688
 30
0.0
 10
-174.7306
 20
-64.3784
 30
0.0
 10
-175.1325
 20
-65.235
 30
0.0
  0
SPLINE
  5
44
330
1F
100
AcDbEntity
  8
layer 1
 62
     7
370
     9
100
AcDbSpline
210
0.0
220
0.0
230
1.0
 70
    11
 71
     3
 72
    20
 73
    16
 74
     0
 42
0.0000000001
 43
0.0000000001
 12
1.0
 22
0.0
 32
0.0
 13
1.0
 23
0.0
 33
0.0
 40
0.0
 40
0.0
 40
0.0
 40
0.0
 40
0.2
 40
0.2
 40
0.2
 40
0.2
 40
0.4
 40
0.4
 40
0.4
 40
0.4
 40
0.6
 40
0.6
 40
0.6
 40
0.6
 40
1.0
 40
1.0
 40
1.0
 40
1.0
 10
-157.1201
 20
-59.2182
 30
0.0
 10
-161.5389
 20
-61.82
 30
0.0
 10
-165.628
 20
-64.9442
 30
0.0
 10
-169.2994
 20
-68.5235
 30
0.0
 10
-169.2994
 20
-68.5235
 30
0.0
 10
-169.2994
 20
-68.5235
 30
0.0
 10
-167.8651
 20
-68.5235
 30
0.0
 10
-167.8651
 20
-68.5235
 30
0.0
 10
-167.8651
 20
-68.5235
 30
0.0
 10
-163.239
 20
-64.2612
 30
0.0
 10
-158.006
 20
-60.7099
 30
0.0
 10
-152.3367
 20
-57.9851
 30
0.0
 10
-152.3367
 20
-57.9851
 30
0.0
 10
-154.0025
 20
-58.0387
 30
0.0
 10
-155.6357
 20
-58.4597
 30
0.0
 10
-157.1201
 20
-59.2182
 30
0.0
  0
SPLINE
  5
45
330
1F
100
AcDbEntity
  8
layer 1
 62
     7
370
     9
100
AcDbSpline
210
0.0
220
0.0
230
1.0
 70
    11
 71
     3
 72
    16
 73
    12
 74
     0
 42
0.0000000001
 43
0.0000000001
 12
1.0
 22
0.0
 32
0.0
 13
1.0
 23
0.0
 33
0.0
 40
0.0
 40
0.0
 40
0.0
 40
0.0
 40
0.25
 40
0.25
 40
0.25
 40
0.25
 40
0.5
 40
0.5
 40
0.5
 40
0.5
 40
1.0
 40
1.0
 40
1.0
 40
1.0
 10
-158.6436
 20
-68.5235
 30
0.0
 10
-158.6436
 20
-68.5235
 30
0.0
 10
-162.335
 20
-68.5235
 30
0.0
 10
-162.335
 20
-68.5235
 30
0.0
 10
-162.335
 20
-68.5235
 30
0.0
 10
-161.7642
 20
-66.0787
 30
0.0
 10
-160.2533
 20
-63.9573
 30
0.0
 10
-158.129
 20
-62.619
 30
0.0
 10
-158.129
 20
-62.619
 30
0.0
 10
-158.8696
 20
-64.4956
 30
0.0
 10
-159.0486
 20
-66.547
 30
0.0
 10
-158.6436
 20
-68.5235
 30
0.0
  0
SPLINE
  5
46
330
1F
100
AcDbEntity
  8
layer 1
 62
     7
370
     9
100
AcDbSpline
210
0.0
220
0.0
230
1.0
 70
    11
 71
     3
 72
    44
 73
    40
 74
     0
 42
0.0000000001
 43
0.0000000001
 12
1.0
 22
0.0
 32
0.0
 13
1.0
 23
0.0
 33
0.0
 40
0.0
 40
0.0
 40
0.0
 40
0.0
 40
0.0909090909090909
 40
0.0909090909090909
 40
0.0909090909090909
 40
0.0909090909090909
 40
0.1818181818181818
 40
0.1818181818181818
 40
0.1818181818181818
 40
0.1818181818181818
 40
0.2727272727272727
 40
0.2727272727272727
 40
0.2727272727272727
 40
0.2727272727272727
 40
0.3636363636363636
 40
0.3636363636363636
 40
0.3636363636363636
 40
0.3636363636363636
 40
0.4545454545454545
 40
0.4545454545454545
 40
0.4545454545454545
 40
0.4545454545454545
 40
0.5454545454545454
 40
0.5454545454545454
 40
0.5454545454545454
 40
0.5454545454545454
 40
0.6363636363636364
 40
0.6363636363636364
 40
0.6363636363636364
 40
0.6363636363636364
 40
0.7272727272727273
 40
0.7272727272727273
 40
0.7272727272727273
 40
0.7272727272727273
 40
0.8181818181818182
 40
0.8181818181818182
 40
0.8181818181818182
 40
0.8181818181818182
 40
1.0
 40
1.0
 40
1.0
 40
1.0
 10
-143.7415
 20
-67.0286
 30
0.0
 10
-143.8252
 20
-67.5597
 30
0.0
 10
-143.683
 20
-68.1016
 30
0.0
 10
-143.3497
 20
-68.5235
 30
0.0
 10
-143.3497
 20
-68.5235
 30
0.0
 10
-143.3497
 20
-68.5235
 30
0.0
 10
-136.6438
 20
-68.5235
 30
0.0
 10
-136.6438
 20
-68.5235
 30
0.0
 10
-136.6438
 20
-68.5235
 30
0.0
 10
-136.2864
 20
-68.1277
 30
0.0
 10
-136.1214
 20
-67.5945
 30
0.0
 10
-136.193
 20
-67.066
 30
0.0
 10
-136.193
 20
-67.066
 30
0.0
 10
-135.3644
 20
-65.6349
 30
0.0
 10
-135.2945
 20
-63.8874
 30
0.0
 10
-136.0056
 20
-62.3947
 30
0.0
 10
-136.0056
 20
-62.3947
 30
0.0
 10
-136.5656
 20
-61.5127
 30
0.0
 10
-137.1013
 20
-60.6154
 30
0.0
 10
-137.6129
 20
-59.704
 30
0.0
 10
-137.6129
 20
-59.704
 30
0.0
 10
-137.5321
 20
-61.0458
 30
0.0
 10
-137.71
 20
-62.3907
 30
0.0
 10
-138.136
 20
-63.6652
 30
0.0
 10
-138.136
 20
-63.6652
 30
0.0
 10
-138.4367
 20
-62.3803
 30
0.0
 10
-138.5501
 20
-61.0587
 30
0.0
 10
-138.4724
 20
-59.7414
 30
0.0
 10
-138.4724
 20
-59.7414
 30
0.0
 10
-138.9056
 20
-60.0879
 30
0.0
 10
-139.2618
 20
-60.5204
 30
0.0
 10
-139.5186
 20
-61.0121
 30
0.0
 10
-139.5186
 20
-61.0121
 30
0.0
 10
-139.2847
 20
-60.0867
 30
0.0
 10
-139.3233
 20
-59.1131
 30
0.0
 10
-139.6307
 20
-58.2092
 30
0.0
 10
-139.6307
 20
-58.2092
 30
0.0
 10
-142.0039
 20
-60.5686
 30
0.0
 10
-143.4606
 20
-63.6944
 30
0.0
 10
-143.7415
 20
-67.0286
 30
0.0
  0
SPLINE
  5
47
330
1F
100
AcDbEntity
  8
layer 1
 62
     7
370
     9
100
AcDbSpline
210
0.0
220
0.0
230
1.0
 70
    11
 71
     3
 72
    44
 73
    40
 74
     0
 42
0.0000000001
 43
0.0000000001
 12
1.0
 22
0.0
 32
0.0
 13
1.0
 23
0.0
 33
0.0
 40
0.0
 40
0.0
 40
0.0
 40
0.0
 40
0.0909090909090909
 40
0.0909090909090909
 40
0.0909090909090909
 40
0.0909090909090909
 40
0.1818181818181818
 40
0.1818181818181818
 40
0.1818181818181818
 40
0.1818181818181818
 40
0.2727272727272727
 40
0.2727272727272727
 40
0.2727272727272727
 40
0.2727272727272727
 40
0.3636363636363636
 40
0.3636363636363636
 40
0.3636363636363636
 40
0.3636363636363636
 40
0.4545454545454545
 40
0.4545454545454545
 40
0.4545454545454545
 40
0.4545454545454545
 40
0.5454545454545454
 40
0.5454545454545454
 40
0.5454545454545454
 40
0.5454545454545454
 40
0.6363636363636364
 40
0.6363636363636364
 40
0.6363636363636364
 40
0.6363636363636364
 40
0.7272727272727273
 40
0.7272727272727273
 40
0.7272727272727273
 40
0.7272727272727273
 40
0.8181818181818182
 40
0.8181818181818182
 40
0.8181818181818182
 40
0.8181818181818182
 40
1.0
 40
1.0
 40
1.0
 40
1.0
 10
-128.1583
 20
-63.9271
 30
0.0
 10
-127.7291
 20
-65.4205
 30
0.0
 10
-127.6435
 20
-66.9918
 30
0.0
 10
-127.9076
 20
-68.5235
 30
0.0
 10
-127.9076
 20
-68.5235
 30
0.0
 10
-127.9076
 20
-68.5235
 30
0.0
 10
-134.0343
 20
-68.5235
 30
0.0
 10
-134.0343
 20
-68.5235
 30
0.0
 10
-134.0343
 20
-68.5235
 30
0.0
 10
-133.8095
 20
-66.0147
 30
0.0
 10
-133.9318
 20
-63.487
 30
0.0
 10
-134.3989
 20
-61.0121
 30
0.0
 10
-134.3989
 20
-61.0121
 30
0.0
 10
-133.6726
 20
-61.5395
 30
0.0
 10
-133.0079
 20
-62.1475
 30
0.0
 10
-132.4185
 20
-62.8245
 30
0.0
 10
-132.4185
 20
-62.8245
 30
0.0
 10
-132.2648
 20
-62.232
 30
0.0
 10
-132.2462
 20
-61.6129
 30
0.0
 10
-132.3625
 20
-61.0121
 30
0.0
 10
-132.3625
 20
-61.0121
 30
0.0
 10
-131.6899
 20
-61.5783
 30
0.0
 10
-130.8299
 20
-61.8716
 30
0.0
 10
-129.9524
 20
-61.8342
 30
0.0
 10
-129.9524
 20
-61.8342
 30
0.0
 10
-129.8398
 20
-61.5971
 30
0.0
 10
-129.8844
 20
-61.3153
 30
0.0
 10
-130.0639
 20
-61.1242
 30
0.0
 10
-130.0639
 20
-61.1242
 30
0.0
 10
-131.7605
 20
-60.5483
 30
0.0
 10
-133.3141
 20
-59.6184
 30
0.0
 10
-134.6232
 20
-58.3961
 30
0.0
 10
-134.6232
 20
-58.3961
 30
0.0
 10
-132.3203
 20
-57.8838
 30
0.0
 10
-129.9151
 20
-58.5731
 30
0.0
 10
-128.2331
 20
-60.2273
 30
0.0
 10
-128.2331
 20
-60.2273
 30
0.0
 10
-127.6664
 20
-61.39
 30
0.0
 10
-127.6394
 20
-62.7423
 30
0.0
 10
-128.1583
 20
-63.9271
 30
0.0
  0
SPLINE
  5
48
330
1F
100
AcDbEntity
  8
layer 1
 62
     7
370
     9
100
AcDbSpline
210
0.0
220
0.0
230
1.0
 70
    11
 71
     3
 72
    24
 73
    20
 74
     0
 42
0.0000000001
 43
0.0000000001
 12
1.0
 22
0.0
 32
0.0
 13
1.0
 23
0.0
 33
0.0
 40
0.0
 40
0.0
 40
0.0
 40
0.0
 40
0.1666666666666667
 40
0.1666666666666667
 40
0.1666666666666667
 40
0.1666666666666667
 40
0.3333333333333333
 40
0.3333333333333333
 40
0.3333333333333333
 40
0.3333333333333333
 40
0.5
 40
0.5
 40
0.5
 40
0.5
 40
0.6666666666666666
 40
0.6666666666666666
 40
0.6666666666666666
 40
0.6666666666666666
 40
1.0
 40
1.0
 40
1.0
 40
1.0
 10
-112.9487
 20
-62.8431
 30
0.0
 10
-114.356
 20
-64.8077
 30
0.0
 10
-115.8573
 20
-66.7033
 30
0.0
 10
-117.4471
 20
-68.5235
 30
0.0
 10
-117.4471
 20
-68.5235
 30
0.0
 10
-117.4471
 20
-68.5235
 30
0.0
 10
-111.0295
 20
-68.5235
 30
0.0
 10
-111.0295
 20
-68.5235
 30
0.0
 10
-111.0295
 20
-68.5235
 30
0.0
 10
-111.118
 20
-67.6487
 30
0.0
 10
-111.4036
 20
-66.8055
 30
0.0
 10
-111.8649
 20
-66.057
 30
0.0
 10
-111.8649
 20
-66.057
 30
0.0
 10
-112.199
 20
-66.5352
 30
0.0
 10
-112.6492
 20
-66.9208
 30
0.0
 10
-113.1728
 20
-67.1782
 30
0.0
 10
-113.1728
 20
-67.1782
 30
0.0
 10
-113.0715
 20
-65.7347
 30
0.0
 10
-112.9968
 20
-64.2896
 30
0.0
 10
-112.9487
 20
-62.8431
 30
0.0
  0
SPLINE
  5
49
330
1F
100
AcDbEntity
  8
layer 1
 62
     7
370
     9
100
AcDbSpline
210
0.0
220
0.0
230
1.0
 70
    11
 71
     3
 72
    20
 73
    16
 74
     0
 42
0.0000000001
 43
0.0000000001
 12
1.0
 22
0.0
 32
0.0
 13
1.0
 23
0.0
 33
0.0
 40
0.0
 40
0.0
 40
0.0
 40
0.0
 40
0.2
 40
0.2
 40
0.2
 40
0.2
 40
0.4
 40
0.4
 40
0.4
 40
0.4
 40
0.6
 40
0.6
 40
0.6
 40
0.6
 40
1.0
 40
1.0
 40
1.0
 40
1.0
 10
-111.5287
 20
-61.0495
 30
0.0
 10
-110.1121
 20
-63.3406
 30
0.0
 10
-109.1336
 20
-65.8749
 30
0.0
 10
-108.6421
 20
-68.5235
 30
0.0
 10
-108.6421
 20
-68.5235
 30
0.0
 10
-108.6421
 20
-68.5235
 30
0.0
 10
-110.3701
 20
-68.5235
 30
0.0
 10
-110.3701
 20
-68.5235
 30
0.0
 10
-110.3701
 20
-68.5235
 30
0.0
 10
-110.5416
 20
-67.2708
 30
0.0
 10
-110.894
 20
-66.0497
 30
0.0
 10
-111.4166
 20
-64.8986
 30
0.0
 10
-111.4166
 20
-64.8986
 30
0.0
 10
-111.405
 20
-63.6146
 30
0.0
 10
-111.4424
 20
-62.3306
 30
0.0
 10
-111.5287
 20
-61.0495
 30
0.0
  0
SPLINE
  5
4A
330
1F
100
AcDbEntity
  8
layer 1
 62
     7
370
     9
100
AcDbSpline
210
0.0
220
0.0
230
1.0
 70
    11
 71
     3
 72
    32
 73
    28
 74
     0
 42
0.0000000001
 43
0.0000000001
 12
1.0
 22
0.0
 32
0.0
 13
1.0
 23
0.0
 33
0.0
 40
0.0
 40
0.0
 40
0.0
 40
0.0
 40
0.125
 40
0.125
 40
0.125
 40
0.125
 40
0.25
 40
0.25
 40
0.25
 40
0.25
 40
0.375
 40
0.375
 40
0.375
 40
0.375
 40
0.5
 40
0.5
 40
0.5
 40
0.5
 40
0.625
 40
0.625
 40
0.625
 40
0.625
 40
0.75
 40
0.75
 40
0.75
 40
0.75
 40
1.0
 40
1.0
 40
1.0
 40
1.0
 10
-84.51
 20
-60.2273
 30
0.0
 10
-86.239
 20
-62.6231
 30
0.0
 10
-86.952
 20
-65.6045
 30
0.0
 10
-86.4942
 20
-68.5235
 30
0.0
 10
-86.4942
 20
-68.5235
 30
0.0
 10
-86.4942
 20
-68.5235
 30
0.0
 10
-89.347
 20
-68.5235
 30
0.0
 10
-89.347
 20
-68.5235
 30
0.0
 10
-89.347
 20
-68.5235
 30
0.0
 10
-88.9448
 20
-67.9583
 30
0.0
 10
-88.619
 20
-67.3424
 30
0.0
 10
-88.3777
 20
-66.6922
 30
0.0
 10
-88.3777
 20
-66.6922
 30
0.0
 10
-89.3899
 20
-67.3901
 30
0.0
 10
-90.7688
 20
-67.1859
 30
0.0
 10
-91.5357
 20
-66.2251
 30
0.0
 10
-91.5357
 20
-66.2251
 30
0.0
 10
-90.5189
 20
-65.9699
 30
0.0
 10
-89.6013
 20
-65.4169
 30
0.0
 10
-88.9011
 20
-64.6371
 30
0.0
 10
-88.9011
 20
-64.6371
 30
0.0
 10
-89.3359
 20
-64.6022
 30
0.0
 10
-89.7329
 20
-64.3764
 30
0.0
 10
-89.9847
 20
-64.0205
 30
0.0
 10
-89.9847
 20
-64.0205
 30
0.0
 10
-88.9993
 20
-61.8429
 30
0.0
 10
-86.8948
 20
-60.385
 30
0.0
 10
-84.51
 20
-60.2273
 30
0.0
  0
SPLINE
  5
4B
330
1F
100
AcDbEntity
  8
layer 1
 62
     7
370
     9
100
AcDbSpline
210
0.0
220
0.0
230
1.0
 70
    11
 71
     3
 72
    28
 73
    24
 74
     0
 42
0.0000000001
 43
0.0000000001
 12
1.0
 22
0.0
 32
0.0
 13
1.0
 23
0.0
 33
0.0
 40
0.0
 40
0.0
 40
0.0
 40
0.0
 40
0.1428571428571428
 40
0.1428571428571428
 40
0.1428571428571428
 40
0.1428571428571428
 40
0.2857142857142857
 40
0.2857142857142857
 40
0.2857142857142857
 40
0.2857142857142857
 40
0.4285714285714285
 40
0.4285714285714285
 40
0.4285714285714285
 40
0.4285714285714285
 40
0.5714285714285714
 40
0.5714285714285714
 40
0.5714285714285714
 40
0.5714285714285714
 40
0.7142857142857143
 40
0.7142857142857143
 40
0.7142857142857143
 40
0.7142857142857143
 40
1.0
 40
1.0
 40
1.0
 40
1.0
 10
-72.2526
 20
-35.3387
 30
0.0
 10
-72.3241
 20
-36.1862
 30
0.0
 10
-72.0301
 20
-37.0238
 30
0.0
 10
-71.4447
 20
-37.6409
 30
0.0
 10
-71.4447
 20
-37.6409
 30
0.0
 10
-70.8592
 20
-38.2576
 30
0.0
 10
-70.0382
 20
-38.5952
 30
0.0
 10
-69.1881
 20
-38.5682
 30
0.0
 10
-69.1881
 20
-38.5682
 30
0.0
 10
-69.1881
 20
-38.5682
 30
0.0
 10
-69.1881
 20
-31.8931
 30
0.0
 10
-69.1881
 20
-31.8931
 30
0.0
 10
-69.1881
 20
-31.8931
 30
0.0
 10
-70.155
 20
-31.943
 30
0.0
 10
-71.1221
 20
-31.793
 30
0.0
 10
-72.0283
 20
-31.4522
 30
0.0
 10
-72.0283
 20
-31.4522
 30
0.0
 10
-72.1523
 20
-32.6957
 30
0.0
 10
-71.7134
 20
-33.9295
 30
0.0
 10
-70.8326
 20
-34.8156
 30
0.0
 10
-70.8326
 20
-34.8156
 30
0.0
 10
-71.2991
 20
-35.0076
 30
0.0
 10
-71.7729
 20
-35.1821
 30
0.0
 10
-72.2526
 20
-35.3387
 30
0.0
  0
SPLINE
  5
4C
330
1F
100
AcDbEntity
  8
layer 1
 62
     7
370
     9
100
AcDbSpline
210
0.0
220
0.0
230
1.0
 70
    11
 71
     3
 72
    24
 73
    20
 74
     0
 42
0.0000000001
 43
0.0000000001
 12
1.0
 22
0.0
 32
0.0
 13
1.0
 23
0.0
 33
0.0
 40
0.0
 40
0.0
 40
0.0
 40
0.0
 40
0.1666666666666667
 40
0.1666666666666667
 40
0.1666666666666667
 40
0.1666666666666667
 40
0.3333333333333333
 40
0.3333333333333333
 40
0.3333333333333333
 40
0.3333333333333333
 40
0.5
 40
0.5
 40
0.5
 40
0.5
 40
0.6666666666666666
 40
0.6666666666666666
 40
0.6666666666666666
 40
0.6666666666666666
 40
1.0
 40
1.0
 40
1.0
 40
1.0
 10
-73.2991
 20
-25.9214
 30
0.0
 10
-72.6882
 20
-28.0227
 30
0.0
 10
-71.1852
 20
-29.7492
 30
0.0
 10
-69.1881
 20
-30.6435
 30
0.0
 10
-69.1881
 20
-30.6435
 30
0.0
 10
-69.1881
 20
-30.6435
 30
0.0
 10
-69.1881
 20
-21.2197
 30
0.0
 10
-69.1881
 20
-21.2197
 30
0.0
 10
-69.1881
 20
-21.2197
 30
0.0
 10
-69.8264
 20
-21.28
 30
0.0
 10
-70.4021
 20
-21.6284
 30
0.0
 10
-70.7514
 20
-22.166
 30
0.0
 10
-70.7514
 20
-22.166
 30
0.0
 10
-71.101
 20
-22.7029
 30
0.0
 10
-71.1857
 20
-23.3707
 30
0.0
 10
-70.9821
 20
-23.9782
 30
0.0
 10
-70.9821
 20
-23.9782
 30
0.0
 10
-71.9099
 20
-24.414
 30
0.0
 10
-72.7083
 20
-25.0835
 30
0.0
 10
-73.2991
 20
-25.9214
 30
0.0
  0
SPLINE
  5
4D
330
1F
100
AcDbEntity
  8
layer 1
 62
     7
370
     9
100
AcDbSpline
210
0.0
220
0.0
230
1.0
 70
    11
 71
     3
 72
    60
 73
    56
 74
     0
 42
0.0000000001
 43
0.0000000001
 12
1.0
 22
0.0
 32
0.0
 13
1.0
 23
0.0
 33
0.0
 40
0.0
 40
0.0
 40
0.0
 40
0.0
 40
0.0666666666666667
 40
0.0666666666666667
 40
0.0666666666666667
 40
0.0666666666666667
 40
0.1333333333333333
 40
0.1333333333333333
 40
0.1333333333333333
 40
0.1333333333333333
 40
0.2
 40
0.2
 40
0.2
 40
0.2
 40
0.2666666666666667
 40
0.2666666666666667
 40
0.2666666666666667
 40
0.2666666666666667
 40
0.3333333333333333
 40
0.3333333333333333
 40
0.3333333333333333
 40
0.3333333333333333
 40
0.4
 40
0.4
 40
0.4
 40
0.4
 40
0.4666666666666667
 40
0.4666666666666667
 40
0.4666666666666667
 40
0.4666666666666667
 40
0.5333333333333333
 40
0.5333333333333333
 40
0.5333333333333333
 40
0.5333333333333333
 40
0.6
 40
0.6
 40
0.6
 40
0.6
 40
0.6666666666666666
 40
0.6666666666666666
 40
0.6666666666666666
 40
0.6666666666666666
 40
0.7333333333333333
 40
0.7333333333333333
 40
0.7333333333333333
 40
0.7333333333333333
 40
0.8
 40
0.8
 40
0.8
 40
0.8
 40
0.8666666666666667
 40
0.8666666666666667
 40
0.8666666666666667
 40
0.8666666666666667
 40
1.0
 40
1.0
 40
1.0
 40
1.0
 10
-70.3841
 20
-13.5894
 30
0.0
 10
-70.378
 20
-14.2029
 30
0.0
 10
-70.6869
 20
-14.7772
 30
0.0
 10
-71.2021
 20
-15.1105
 30
0.0
 10
-71.2021
 20
-15.1105
 30
0.0
 10
-71.7175
 20
-15.4443
 30
0.0
 10
-72.3677
 20
-15.4908
 30
0.0
 10
-72.9251
 20
-15.2335
 30
0.0
 10
-72.9251
 20
-15.2335
 30
0.0
 10
-74.2988
 20
-14.4632
 30
0.0
 10
-75.1332
 20
-12.9964
 30
0.0
 10
-75.0927
 20
-11.4222
 30
0.0
 10
-75.0927
 20
-11.4222
 30
0.0
 10
-75.6619
 20
-13.7732
 30
0.0
 10
-75.4248
 20
-16.2471
 30
0.0
 10
-74.4201
 20
-18.4474
 30
0.0
 10
-74.4201
 20
-18.4474
 30
0.0
 10
-77.2117
 20
-16.5846
 30
0.0
 10
-78.2009
 20
-12.9469
 30
0.0
 10
-76.7371
 20
-9.927
 30
0.0
 10
-76.7371
 20
-9.927
 30
0.0
 10
-78.0963
 20
-9.8209
 30
0.0
 10
-79.3465
 20
-9.1417
 30
0.0
 10
-80.1752
 20
-8.0588
 30
0.0
 10
-80.1752
 20
-8.0588
 30
0.0
 10
-78.6136
 20
-7.4573
 30
0.0
 10
-77.6175
 20
-5.9174
 30
0.0
 10
-77.7087
 20
-4.2468
 30
0.0
 10
-77.7087
 20
-4.2468
 30
0.0
 10
-78.5101
 20
-4.3547
 30
0.0
 10
-79.3174
 20
-4.0992
 30
0.0
 10
-79.9104
 20
-3.5496
 30
0.0
 10
-79.9104
 20
-3.5496
 30
0.0
 10
-80.5037
 20
-2.9998
 30
0.0
 10
-80.8199
 20
-2.214
 30
0.0
 10
-80.7731
 20
-1.4065
 30
0.0
 10
-80.7731
 20
-1.4065
 30
0.0
 10
-77.0662
 20
-2.7395
 30
0.0
 10
-73.0989
 20
-3.1879
 30
0.0
 10
-69.1881
 20
-2.7154
 30
0.0
 10
-69.1881
 20
-2.7154
 30
0.0
 10
-69.1881
 20
-2.7154
 30
0.0
 10
-69.1881
 20
-4.4427
 30
0.0
 10
-69.1881
 20
-4.4427
 30
0.0
 10
-69.1881
 20
-4.4427
 30
0.0
 10
-70.693
 20
-4.8959
 30
0.0
 10
-71.9562
 20
-5.9276
 30
0.0
 10
-72.701
 20
-7.3114
 30
0.0
 10
-72.701
 20
-7.3114
 30
0.0
 10
-73.3192
 20
-8.4365
 30
0.0
 10
-73.4194
 20
-9.7745
 30
0.0
 10
-72.9748
 20
-10.9787
 30
0.0
 10
-72.9748
 20
-10.9787
 30
0.0
 10
-72.5302
 20
-12.1834
 30
0.0
 10
-71.5851
 20
-13.1356
 30
0.0
 10
-70.3841
 20
-13.5894
 30
0.0
  0
SPLINE
  5
4E
330
1F
100
AcDbEntity
  8
layer 1
 62
     7
370
     9
100
AcDbSpline
210
0.0
220
0.0
230
1.0
 70
    11
 71
     3
 72
    24
 73
    20
 74
     0
 42
0.0000000001
 43
0.0000000001
 12
1.0
 22
0.0
 32
0.0
 13
1.0
 23
0.0
 33
0.0
 40
0.0
 40
0.0
 40
0.0
 40
0.0
 40
0.1666666666666667
 40
0.1666666666666667
 40
0.1666666666666667
 40
0.1666666666666667
 40
0.3333333333333333
 40
0.3333333333333333
 40
0.3333333333333333
 40
0.3333333333333333
 40
0.5
 40
0.5
 40
0.5
 40
0.5
 40
0.6666666666666666
 40
0.6666666666666666
 40
0.6666666666666666
 40
0.6666666666666666
 40
1.0
 40
1.0
 40
1.0
 40
1.0
 10
-72.5517
 20
8.0856
 30
0.0
 10
-72.4617
 20
5.5351
 30
0.0
 10
-71.226
 20
3.1611
 30
0.0
 10
-69.1881
 20
1.625
 30
0.0
 10
-69.1881
 20
1.625
 30
0.0
 10
-69.1881
 20
1.625
 30
0.0
 10
-69.1881
 20
8.6803
 30
0.0
 10
-69.1881
 20
8.6803
 30
0.0
 10
-69.1881
 20
8.6803
 30
0.0
 10
-69.9195
 20
9.7935
 30
0.0
 10
-70.4272
 20
11.038
 30
0.0
 10
-70.6831
 20
12.3452
 30
0.0
 10
-70.6831
 20
12.3452
 30
0.0
 10
-71.4232
 20
11.1296
 30
0.0
 10
-71.5612
 20
9.6404
 30
0.0
 10
-71.0567
 20
8.3098
 30
0.0
 10
-71.0567
 20
8.3098
 30
0.0
 10
-71.5649
 20
8.3345
 30
0.0
 10
-72.073
 20
8.258
 30
0.0
 10
-72.5517
 20
8.0856
 30
0.0
  0
SPLINE
  5
4F
330
1F
100
AcDbEntity
  8
layer 1
 62
     7
370
     9
100
AcDbSpline
210
0.0
220
0.0
230
1.0
 70
    11
 71
     3
 72
    16
 73
    12
 74
     0
 42
0.0000000001
 43
0.0000000001
 12
1.0
 22
0.0
 32
0.0
 13
1.0
 23
0.0
 33
0.0
 40
0.0
 40
0.0
 40
0.0
 40
0.0
 40
0.25
 40
0.25
 40
0.25
 40
0.25
 40
0.5
 40
0.5
 40
0.5
 40
0.5
 40
1.0
 40
1.0
 40
1.0
 40
1.0
 10
-69.1881
 20
16.9743
 30
0.0
 10
-69.1881
 20
16.9743
 30
0.0
 10
-69.1881
 20
24.5782
 30
0.0
 10
-69.1881
 20
24.5782
 30
0.0
 10
-69.1881
 20
24.5782
 30
0.0
 10
-69.6571
 20
22.7424
 30
0.0
 10
-70.0068
 20
20.8784
 30
0.0
 10
-70.2347
 20
18.9975
 30
0.0
 10
-70.2347
 20
18.9975
 30
0.0
 10
-70.3843
 20
18.164
 30
0.0
 10
-69.955
 20
17.3341
 30
0.0
 10
-69.1881
 20
16.9743
 30
0.0
  0
SPLINE
  5
50
330
1F
100
AcDbEntity
  8
layer 1
 62
     7
370
     9
100
AcDbSpline
210
0.0
220
0.0
230
1.0
 70
    11
 71
     3
 72
    20
 73
    16
 74
     0
 42
0.0000000001
 43
0.0000000001
 12
1.0
 22
0.0
 32
0.0
 13
1.0
 23
0.0
 33
0.0
 40
0.0
 40
0.0
 40
0.0
 40
0.0
 40
0.2
 40
0.2
 40
0.2
 40
0.2
 40
0.4
 40
0.4
 40
0.4
 40
0.4
 40
0.6
 40
0.6
 40
0.6
 40
0.6
 40
1.0
 40
1.0
 40
1.0
 40
1.0
 10
-74.1211
 20
53.901
 30
0.0
 10
-72.1297
 20
55.8343
 30
0.0
 10
-70.4639
 20
58.0769
 30
0.0
 10
-69.1881
 20
60.5417
 30
0.0
 10
-69.1881
 20
60.5417
 30
0.0
 10
-69.1881
 20
60.5417
 30
0.0
 10
-69.1881
 20
45.806
 30
0.0
 10
-69.1881
 20
45.806
 30
0.0
 10
-69.1881
 20
45.806
 30
0.0
 10
-70.404
 20
47.2885
 30
0.0
 10
-71.2492
 20
49.038
 30
0.0
 10
-71.6546
 20
50.9117
 30
0.0
 10
-71.6546
 20
50.9117
 30
0.0
 10
-73.0428
 20
51.2607
 30
0.0
 10
-74.0426
 20
52.4719
 30
0.0
 10
-74.1211
 20
53.901
 30
0.0
  0
SPLINE
  5
51
330
1F
100
AcDbEntity
  8
layer 1
 62
     7
370
     9
100
AcDbSpline
210
0.0
220
0.0
230
1.0
 70
    11
 71
     3
 72
    64
 73
    60
 74
     0
 42
0.0000000001
 43
0.0000000001
 12
1.0
 22
0.0
 32
0.0
 13
1.0
 23
0.0
 33
0.0
 40
0.0
 40
0.0
 40
0.0
 40
0.0
 40
0.0625
 40
0.0625
 40
0.0625
 40
0.0625
 40
0.125
 40
0.125
 40
0.125
 40
0.125
 40
0.1875
 40
0.1875
 40
0.1875
 40
0.1875
 40
0.25
 40
0.25
 40
0.25
 40
0.25
 40
0.3125
 40
0.3125
 40
0.3125
 40
0.3125
 40
0.375
 40
0.375
 40
0.375
 40
0.375
 40
0.4375
 40
0.4375
 40
0.4375
 40
0.4375
 40
0.5
 40
0.5
 40
0.5
 40
0.5
 40
0.5625
 40
0.5625
 40
0.5625
 40
0.5625
 40
0.625
 40
0.625
 40
0.625
 40
0.625
 40
0.6875
 40
0.6875
 40
0.6875
 40
0.6875
 40
0.75
 40
0.75
 40
0.75
 40
0.75
 40
0.8125
 40
0.8125
 40
0.8125
 40
0.8125
 40
0.875
 40
0.875
 40
0.875
 40
0.875
 40
1.0
 40
1.0
 40
1.0
 40
1.0
 10
-78.6802
 20
82.5264
 30
0.0
 10
-77.8708
 20
82.1883
 30
0.0
 10
-77.2343
 20
81.535
 30
0.0
 10
-76.9172
 20
80.7173
 30
0.0
 10
-76.9172
 20
80.7173
 30
0.0
 10
-76.5998
 20
79.8988
 30
0.0
 10
-76.6292
 20
78.9875
 30
0.0
 10
-76.9987
 20
78.1915
 30
0.0
 10
-76.9987
 20
78.1915
 30
0.0
 10
-77.1733
 20
76.6258
 30
0.0
 10
-76.4317
 20
75.0985
 30
0.0
 10
-75.0927
 20
74.2681
 30
0.0
 10
-75.0927
 20
74.2681
 30
0.0
 10
-73.7539
 20
73.2495
 30
0.0
 10
-72.2666
 20
72.4432
 30
0.0
 10
-70.6831
 20
71.876
 30
0.0
 10
-70.6831
 20
71.876
 30
0.0
 10
-70.4024
 20
72.5457
 30
0.0
 10
-70.4578
 20
73.3092
 30
0.0
 10
-70.8326
 20
73.9319
 30
0.0
 10
-70.8326
 20
73.9319
 30
0.0
 10
-71.1666
 20
74.2337
 30
0.0
 10
-71.3191
 20
74.6881
 30
0.0
 10
-71.2354
 20
75.1304
 30
0.0
 10
-71.2354
 20
75.1304
 30
0.0
 10
-71.1514
 20
75.5729
 30
0.0
 10
-70.843
 20
75.9399
 30
0.0
 10
-70.4214
 20
76.0989
 30
0.0
 10
-70.4214
 20
76.0989
 30
0.0
 10
-70.0532
 20
76.378
 30
0.0
 10
-69.929
 20
76.8752
 30
0.0
 10
-70.1226
 20
77.2947
 30
0.0
 10
-70.1226
 20
77.2947
 30
0.0
 10
-70.4308
 20
78.0167
 30
0.0
 10
-70.4704
 20
78.8254
 30
0.0
 10
-70.2347
 20
79.5745
 30
0.0
 10
-70.2347
 20
79.5745
 30
0.0
 10
-69.7907
 20
78.6085
 30
0.0
 10
-69.4403
 20
77.6026
 30
0.0
 10
-69.1881
 20
76.5702
 30
0.0
 10
-69.1881
 20
76.5702
 30
0.0
 10
-69.1881
 20
76.5702
 30
0.0
 10
-69.1881
 20
82.7915
 30
0.0
 10
-69.1881
 20
82.7915
 30
0.0
 10
-69.1881
 20
82.7915
 30
0.0
 10
-69.6079
 20
83.6715
 30
0.0
 10
-70.1487
 20
84.4881
 30
0.0
 10
-70.7952
 20
85.2174
 30
0.0
 10
-70.7952
 20
85.2174
 30
0.0
 10
-71.3295
 20
85.5192
 30
0.0
 10
-71.9758
 20
85.55
 30
0.0
 10
-72.5361
 20
85.2992
 30
0.0
 10
-72.5361
 20
85.2992
 30
0.0
 10
-73.0963
 20
85.0486
 30
0.0
 10
-73.5043
 20
84.5465
 30
0.0
 10
-73.6351
 20
83.9469
 30
0.0
 10
-73.6351
 20
83.9469
 30
0.0
 10
-75.4414
 20
84.1958
 30
0.0
 10
-77.2693
 20
83.6811
 30
0.0
 10
-78.6802
 20
82.5264
 30
0.0
  0
SPLINE
  5
52
330
1F
100
AcDbEntity
  8
layer 1
 62
     7
370
     9
100
AcDbSpline
210
0.0
220
0.0
230
1.0
 70
    11
 71
     3
 72
    52
 73
    48
 74
     0
 42
0.0000000001
 43
0.0000000001
 12
1.0
 22
0.0
 32
0.0
 13
1.0
 23
0.0
 33
0.0
 40
0.0
 40
0.0
 40
0.0
 40
0.0
 40
0.0769230769230769
 40
0.0769230769230769
 40
0.0769230769230769
 40
0.0769230769230769
 40
0.1538461538461539
 40
0.1538461538461539
 40
0.1538461538461539
 40
0.1538461538461539
 40
0.2307692307692308
 40
0.2307692307692308
 40
0.2307692307692308
 40
0.2307692307692308
 40
0.3076923076923077
 40
0.3076923076923077
 40
0.3076923076923077
 40
0.3076923076923077
 40
0.3846153846153846
 40
0.3846153846153846
 40
0.3846153846153846
 40
0.3846153846153846
 40
0.4615384615384616
 40
0.4615384615384616
 40
0.4615384615384616
 40
0.4615384615384616
 40
0.5384615384615384
 40
0.5384615384615384
 40
0.5384615384615384
 40
0.5384615384615384
 40
0.6153846153846154
 40
0.6153846153846154
 40
0.6153846153846154
 40
0.6153846153846154
 40
0.6923076923076923
 40
0.6923076923076923
 40
0.6923076923076923
 40
0.6923076923076923
 40
0.7692307692307693
 40
0.7692307692307693
 40
0.7692307692307693
 40
0.7692307692307693
 40
0.8461538461538461
 40
0.8461538461538461
 40
0.8461538461538461
 40
0.8461538461538461
 40
1.0
 40
1.0
 40
1.0
 40
1.0
 10
-85.2948
 20
88.8423
 30
0.0
 10
-84.4872
 20
87.8064
 30
0.0
 10
-83.9137
 20
86.6083
 30
0.0
 10
-83.6131
 20
85.3295
 30
0.0
 10
-83.6131
 20
85.3295
 30
0.0
 10
-83.5789
 20
85.1034
 30
0.0
 10
-83.6659
 20
84.8762
 30
0.0
 10
-83.8418
 20
84.731
 30
0.0
 10
-83.8418
 20
84.731
 30
0.0
 10
-84.0178
 20
84.5858
 30
0.0
 10
-84.2573
 20
84.5429
 30
0.0
 10
-84.4725
 20
84.6195
 30
0.0
 10
-84.4725
 20
84.6195
 30
0.0
 10
-85.6036
 20
84.8503
 30
0.0
 10
-86.5513
 20
85.617
 30
0.0
 10
-87.0137
 20
86.6746
 30
0.0
 10
-87.0137
 20
86.6746
 30
0.0
 10
-87.3947
 20
86.416
 30
0.0
 10
-87.8711
 20
86.342
 30
0.0
 10
-88.3126
 20
86.4722
 30
0.0
 10
-88.3126
 20
86.4722
 30
0.0
 10
-88.7538
 20
86.6023
 30
0.0
 10
-89.114
 20
86.9235
 30
0.0
 10
-89.2933
 20
87.3472
 30
0.0
 10
-89.2933
 20
87.3472
 30
0.0
 10
-90.2743
 20
90.0237
 30
0.0
 10
-90.2169
 20
92.97
 30
0.0
 10
-89.1327
 20
95.6062
 30
0.0
 10
-89.1327
 20
95.6062
 30
0.0
 10
-89.1327
 20
95.6062
 30
0.0
 10
-86.3922
 20
95.6062
 30
0.0
 10
-86.3922
 20
95.6062
 30
0.0
 10
-86.3922
 20
95.6062
 30
0.0
 10
-86.2743
 20
94.4604
 30
0.0
 10
-85.7208
 20
93.4033
 30
0.0
 10
-84.8463
 20
92.6542
 30
0.0
 10
-84.8463
 20
92.6542
 30
0.0
 10
-84.2107
 20
92.4668
 30
0.0
 10
-83.6735
 20
92.0371
 30
0.0
 10
-83.3515
 20
91.458
 30
0.0
 10
-83.3515
 20
91.458
 30
0.0
 10
-83.1247
 20
90.8414
 30
0.0
 10
-83.2237
 20
90.1519
 30
0.0
 10
-83.6158
 20
89.6246
 30
0.0
 10
-83.6158
 20
89.6246
 30
0.0
 10
-84.0075
 20
89.0974
 30
0.0
 10
-84.6388
 20
88.8032
 30
0.0
 10
-85.2948
 20
88.8423
 30
0.0
  0
SPLINE
  5
53
330
1F
100
AcDbEntity
  8
layer 1
 62
     7
370
     9
100
AcDbSpline
210
0.0
220
0.0
230
1.0
 70
    11
 71
     3
 72
    40
 73
    36
 74
     0
 42
0.0000000001
 43
0.0000000001
 12
1.0
 22
0.0
 32
0.0
 13
1.0
 23
0.0
 33
0.0
 40
0.0
 40
0.0
 40
0.0
 40
0.0
 40
0.1
 40
0.1
 40
0.1
 40
0.1
 40
0.2
 40
0.2
 40
0.2
 40
0.2
 40
0.3
 40
0.3
 40
0.3
 40
0.3
 40
0.4
 40
0.4
 40
0.4
 40
0.4
 40
0.5
 40
0.5
 40
0.5
 40
0.5
 40
0.6
 40
0.6
 40
0.6
 40
0.6
 40
0.7
 40
0.7
 40
0.7
 40
0.7
 40
0.8
 40
0.8
 40
0.8
 40
0.8
 40
1.0
 40
1.0
 40
1.0
 40
1.0
 10
-117.0969
 20
92.5049
 30
0.0
 10
-117.5308
 20
92.8971
 30
0.0
 10
-117.787
 20
93.4492
 30
0.0
 10
-117.8057
 20
94.0338
 30
0.0
 10
-117.8057
 20
94.0338
 30
0.0
 10
-117.8243
 20
94.6189
 30
0.0
 10
-117.6049
 20
95.1866
 30
0.0
 10
-117.197
 20
95.6062
 30
0.0
 10
-117.197
 20
95.6062
 30
0.0
 10
-117.197
 20
95.6062
 30
0.0
 10
-108.6756
 20
95.6062
 30
0.0
 10
-108.6756
 20
95.6062
 30
0.0
 10
-108.6756
 20
95.6062
 30
0.0
 10
-108.4098
 20
94.5111
 30
0.0
 10
-108.4272
 20
93.3665
 30
0.0
 10
-108.7258
 20
92.28
 30
0.0
 10
-108.7258
 20
92.28
 30
0.0
 10
-108.7465
 20
91.5176
 30
0.0
 10
-109.2378
 20
90.8474
 30
0.0
 10
-109.9591
 20
90.5985
 30
0.0
 10
-109.9591
 20
90.5985
 30
0.0
 10
-110.3002
 20
90.4473
 30
0.0
 10
-110.6369
 20
90.2852
 30
0.0
 10
-110.9682
 20
90.1128
 30
0.0
 10
-110.9682
 20
90.1128
 30
0.0
 10
-111.3466
 20
88.808
 30
0.0
 10
-112.3149
 20
87.757
 30
0.0
 10
-113.584
 20
87.2724
 30
0.0
 10
-113.584
 20
87.2724
 30
0.0
 10
-114.8514
 20
88.3464
 30
0.0
 10
-115.6439
 20
89.8778
 30
0.0
 10
-115.7884
 20
91.5326
 30
0.0
 10
-115.7884
 20
91.5326
 30
0.0
 10
-116.3437
 20
91.655
 30
0.0
 10
-116.8191
 20
92.0088
 30
0.0
 10
-117.0969
 20
92.5049
 30
0.0
  0
SPLINE
  5
54
330
1F
100
AcDbEntity
  8
layer 1
 62
     7
370
     9
100
AcDbSpline
210
0.0
220
0.0
230
1.0
 70
    11
 71
     3
 72
    20
 73
    16
 74
     0
 42
0.0000000001
 43
0.0000000001
 12
1.0
 22
0.0
 32
0.0
 13
1.0
 23
0.0
 33
0.0
 40
0.0
 40
0.0
 40
0.0
 40
0.0
 40
0.2
 40
0.2
 40
0.2
 40
0.2
 40
0.4
 40
0.4
 40
0.4
 40
0.4
 40
0.6
 40
0.6
 40
0.6
 40
0.6
 40
1.0
 40
1.0
 40
1.0
 40
1.0
 10
-132.979
 20
94.0367
 30
0.0
 10
-133.6757
 20
94.2356
 30
0.0
 10
-134.1494
 20
94.8817
 30
0.0
 10
-134.1294
 20
95.6062
 30
0.0
 10
-134.1294
 20
95.6062
 30
0.0
 10
-134.1294
 20
95.6062
 30
0.0
 10
-126.9566
 20
95.6062
 30
0.0
 10
-126.9566
 20
95.6062
 30
0.0
 10
-126.9566
 20
95.6062
 30
0.0
 10
-128.2994
 20
94.9281
 30
0.0
 10
-129.8446
 20
94.7689
 30
0.0
 10
-131.2975
 20
95.1578
 30
0.0
 10
-131.2975
 20
95.1578
 30
0.0
 10
-131.6265
 20
94.5183
 30
0.0
 10
-132.2624
 20
94.0946
 30
0.0
 10
-132.979
 20
94.0367
 30
0.0
  0
SPLINE
  5
55
330
1F
100
AcDbEntity
  8
layer 1
 62
     7
370
     9
100
AcDbSpline
210
0.0
220
0.0
230
1.0
 70
    11
 71
     3
 72
    20
 73
    16
 74
     0
 42
0.0000000001
 43
0.0000000001
 12
1.0
 22
0.0
 32
0.0
 13
1.0
 23
0.0
 33
0.0
 40
0.0
 40
0.0
 40
0.0
 40
0.0
 40
0.2
 40
0.2
 40
0.2
 40
0.2
 40
0.4
 40
0.4
 40
0.4
 40
0.4
 40
0.6
 40
0.6
 40
0.6
 40
0.6
 40
1.0
 40
1.0
 40
1.0
 40
1.0
 10
-139.5558
 20
90.0754
 30
0.0
 10
-141.0325
 20
91.6809
 30
0.0
 10
-142.1811
 20
93.5601
 30
0.0
 10
-142.9363
 20
95.6062
 30
0.0
 10
-142.9363
 20
95.6062
 30
0.0
 10
-142.9363
 20
95.6062
 30
0.0
 10
-136.0508
 20
95.6062
 30
0.0
 10
-136.0508
 20
95.6062
 30
0.0
 10
-136.0508
 20
95.6062
 30
0.0
 10
-136.3582
 20
94.8419
 30
0.0
 10
-136.9621
 20
94.2351
 30
0.0
 10
-137.725
 20
93.9247
 30
0.0
 10
-137.725
 20
93.9247
 30
0.0
 10
-137.7262
 20
92.4312
 30
0.0
 10
-138.3983
 20
91.0181
 30
0.0
 10
-139.5558
 20
90.0754
 30
0.0
  0
SPLINE
  5
56
330
1F
100
AcDbEntity
  8
layer 1
 62
     7
370
     9
100
AcDbSpline
210
0.0
220
0.0
230
1.0
 70
    11
 71
     3
 72
    48
 73
    44
 74
     0
 42
0.0000000001
 43
0.0000000001
 12
1.0
 22
0.0
 32
0.0
 13
1.0
 23
0.0
 33
0.0
 40
0.0
 40
0.0
 40
0.0
 40
0.0
 40
0.0833333333333333
 40
0.0833333333333333
 40
0.0833333333333333
 40
0.0833333333333333
 40
0.1666666666666667
 40
0.1666666666666667
 40
0.1666666666666667
 40
0.1666666666666667
 40
0.25
 40
0.25
 40
0.25
 40
0.25
 40
0.3333333333333333
 40
0.3333333333333333
 40
0.3333333333333333
 40
0.3333333333333333
 40
0.4166666666666667
 40
0.4166666666666667
 40
0.4166666666666667
 40
0.4166666666666667
 40
0.5
 40
0.5
 40
0.5
 40
0.5
 40
0.5833333333333334
 40
0.5833333333333334
 40
0.5833333333333334
 40
0.5833333333333334
 40
0.6666666666666666
 40
0.6666666666666666
 40
0.6666666666666666
 40
0.6666666666666666
 40
0.75
 40
0.75
 40
0.75
 40
0.75
 40
0.8333333333333334
 40
0.8333333333333334
 40
0.8333333333333334
 40
0.8333333333333334
 40
1.0
 40
1.0
 40
1.0
 40
1.0
 10
-175.0953
 20
85.4041
 30
0.0
 10
-173.1432
 20
89.2276
 30
0.0
 10
-170.5373
 20
92.6801
 30
0.0
 10
-167.3961
 20
95.6062
 30
0.0
 10
-167.3961
 20
95.6062
 30
0.0
 10
-167.3961
 20
95.6062
 30
0.0
 10
-169.2922
 20
95.6062
 30
0.0
 10
-169.2922
 20
95.6062
 30
0.0
 10
-169.2922
 20
95.6062
 30
0.0
 10
-170.0745
 20
94.9794
 30
0.0
 10
-170.9314
 20
94.452
 30
0.0
 10
-171.8438
 20
94.0367
 30
0.0
 10
-171.8438
 20
94.0367
 30
0.0
 10
-172.4802
 20
94.443
 30
0.0
 10
-173.0244
 20
94.9775
 30
0.0
 10
-173.4426
 20
95.6062
 30
0.0
 10
-173.4426
 20
95.6062
 30
0.0
 10
-173.4426
 20
95.6062
 30
0.0
 10
-177.1293
 20
95.6062
 30
0.0
 10
-177.1293
 20
95.6062
 30
0.0
 10
-177.1293
 20
95.6062
 30
0.0
 10
-176.8923
 20
94.5557
 30
0.0
 10
-176.3995
 20
93.5794
 30
0.0
 10
-175.6931
 20
92.7657
 30
0.0
 10
-175.6931
 20
92.7657
 30
0.0
 10
-176.4434
 20
91.7725
 30
0.0
 10
-176.6663
 20
90.4774
 30
0.0
 10
-176.291
 20
89.2908
 30
0.0
 10
-176.291
 20
89.2908
 30
0.0
 10
-176.0311
 20
89.4601
 30
0.0
 10
-175.7925
 20
89.6615
 30
0.0
 10
-175.581
 20
89.8885
 30
0.0
 10
-175.581
 20
89.8885
 30
0.0
 10
-175.2651
 20
90.1424
 30
0.0
 10
-174.8133
 20
90.1321
 30
0.0
 10
-174.5088
 20
89.8644
 30
0.0
 10
-174.5088
 20
89.8644
 30
0.0
 10
-174.2051
 20
89.5976
 30
0.0
 10
-174.1369
 20
89.1503
 30
0.0
 10
-174.3479
 20
88.8044
 30
0.0
 10
-174.3479
 20
88.8044
 30
0.0
 10
-174.9988
 20
87.7985
 30
0.0
 10
-175.2646
 20
86.5907
 30
0.0
 10
-175.0953
 20
85.4041
 30
0.0
  0
SPLINE
  5
57
330
1F
100
AcDbEntity
  8
layer 1
 62
     7
370
     9
100
AcDbSpline
210
0.0
220
0.0
230
1.0
 70
    11
 71
     3
 72
    16
 73
    12
 74
     0
 42
0.0000000001
 43
0.0000000001
 12
1.0
 22
0.0
 32
0.0
 13
1.0
 23
0.0
 33
0.0
 40
0.0
 40
0.0
 40
0.0
 40
0.0
 40
0.25
 40
0.25
 40
0.25
 40
0.25
 40
0.5
 40
0.5
 40
0.5
 40
0.5
 40
1.0
 40
1.0
 40
1.0
 40
1.0
 10
-177.4125
 20
67.2278
 30
0.0
 10
-177.4125
 20
67.2278
 30
0.0
 10
-177.4125
 20
71.6223
 30
0.0
 10
-177.4125
 20
71.6223
 30
0.0
 10
-177.4125
 20
71.6223
 30
0.0
 10
-176.4362
 20
71.3367
 30
0.0
 10
-175.7653
 20
70.4417
 30
0.0
 10
-175.7653
 20
69.4251
 30
0.0
 10
-175.7653
 20
69.4251
 30
0.0
 10
-175.7653
 20
68.4083
 30
0.0
 10
-176.4362
 20
67.5134
 30
0.0
 10
-177.4125
 20
67.2278
 30
0.0
  0
SPLINE
  5
58
330
1F
100
AcDbEntity
  8
layer 1
 62
     7
370
     9
100
AcDbSpline
210
0.0
220
0.0
230
1.0
 70
    11
 71
     3
 72
    40
 73
    36
 74
     0
 42
0.0000000001
 43
0.0000000001
 12
1.0
 22
0.0
 32
0.0
 13
1.0
 23
0.0
 33
0.0
 40
0.0
 40
0.0
 40
0.0
 40
0.0
 40
0.1
 40
0.1
 40
0.1
 40
0.1
 40
0.2
 40
0.2
 40
0.2
 40
0.2
 40
0.3
 40
0.3
 40
0.3
 40
0.3
 40
0.4
 40
0.4
 40
0.4
 40
0.4
 40
0.5
 40
0.5
 40
0.5
 40
0.5
 40
0.6
 40
0.6
 40
0.6
 40
0.6
 40
0.7
 40
0.7
 40
0.7
 40
0.7
 40
0.8
 40
0.8
 40
0.8
 40
0.8
 40
1.0
 40
1.0
 40
1.0
 40
1.0
 10
-176.1415
 20
49.7153
 30
0.0
 10
-176.4512
 20
48.8885
 30
0.0
 10
-176.8792
 20
48.1105
 30
0.0
 10
-177.4125
 20
47.406
 30
0.0
 10
-177.4125
 20
47.406
 30
0.0
 10
-177.4125
 20
47.406
 30
0.0
 10
-177.4125
 20
58.2292
 30
0.0
 10
-177.4125
 20
58.2292
 30
0.0
 10
-177.4125
 20
58.2292
 30
0.0
 10
-176.817
 20
57.0035
 30
0.0
 10
-176.4379
 20
55.6848
 30
0.0
 10
-176.291
 20
54.3306
 30
0.0
 10
-176.291
 20
54.3306
 30
0.0
 10
-176.2018
 20
54.154
 30
0.0
 10
-175.9925
 20
54.0745
 30
0.0
 10
-175.8082
 20
54.1468
 30
0.0
 10
-175.8082
 20
54.1468
 30
0.0
 10
-175.6237
 20
54.2197
 30
0.0
 10
-175.5255
 20
54.421
 30
0.0
 10
-175.581
 20
54.6108
 30
0.0
 10
-175.581
 20
54.6108
 30
0.0
 10
-175.7419
 20
56.4466
 30
0.0
 10
-176.3723
 20
58.2094
 30
0.0
 10
-177.4125
 20
59.7305
 30
0.0
 10
-177.4125
 20
59.7305
 30
0.0
 10
-177.4125
 20
59.7305
 30
0.0
 10
-177.4125
 20
63.0422
 30
0.0
 10
-177.4125
 20
63.0422
 30
0.0
 10
-177.4125
 20
63.0422
 30
0.0
 10
-175.0915
 20
59.8474
 30
0.0
 10
-173.8832
 20
55.9802
 30
0.0
 10
-173.9743
 20
52.0327
 30
0.0
 10
-173.9743
 20
52.0327
 30
0.0
 10
-174.0363
 20
50.8352
 30
0.0
 10
-174.9511
 20
49.857
 30
0.0
 10
-176.1415
 20
49.7153
 30
0.0
  0
SPLINE
  5
59
330
1F
100
AcDbEntity
  8
layer 1
 62
     7
370
     9
100
AcDbSpline
210
0.0
220
0.0
230
1.0
 70
    11
 71
     3
 72
    32
 73
    28
 74
     0
 42
0.0000000001
 43
0.0000000001
 12
1.0
 22
0.0
 32
0.0
 13
1.0
 23
0.0
 33
0.0
 40
0.0
 40
0.0
 40
0.0
 40
0.0
 40
0.125
 40
0.125
 40
0.125
 40
0.125
 40
0.25
 40
0.25
 40
0.25
 40
0.25
 40
0.375
 40
0.375
 40
0.375
 40
0.375
 40
0.5
 40
0.5
 40
0.5
 40
0.5
 40
0.625
 40
0.625
 40
0.625
 40
0.625
 40
0.75
 40
0.75
 40
0.75
 40
0.75
 40
1.0
 40
1.0
 40
1.0
 40
1.0
 10
-176.6272
 20
8.3472
 30
0.0
 10
-176.5585
 20
8.9504
 30
0.0
 10
-176.8713
 20
9.5331
 30
0.0
 10
-177.4125
 20
9.8099
 30
0.0
 10
-177.4125
 20
9.8099
 30
0.0
 10
-177.4125
 20
9.8099
 30
0.0
 10
-177.4125
 20
-0.1035
 30
0.0
 10
-177.4125
 20
-0.1035
 30
0.0
 10
-177.4125
 20
-0.1035
 30
0.0
 10
-177.1322
 20
0.1328
 30
0.0
 10
-176.8248
 20
0.3352
 30
0.0
 10
-176.4965
 20
0.4992
 30
0.0
 10
-176.4965
 20
0.4992
 30
0.0
 10
-176.5337
 20
0.1015
 30
0.0
 10
-176.4627
 20
-0.2988
 30
0.0
 10
-176.291
 20
-0.6591
 30
0.0
 10
-176.291
 20
-0.6591
 30
0.0
 10
-174.7518
 20
-0.3066
 30
0.0
 10
-173.4186
 20
0.6492
 30
0.0
 10
-172.5912
 20
1.9938
 30
0.0
 10
-172.5912
 20
1.9938
 30
0.0
 10
-174.0887
 20
2.0613
 30
0.0
 10
-175.4592
 20
2.8543
 30
0.0
 10
-176.2631
 20
4.12
 30
0.0
 10
-176.2631
 20
4.12
 30
0.0
 10
-177.0671
 20
5.3851
 30
0.0
 10
-177.2027
 20
6.9627
 30
0.0
 10
-176.6272
 20
8.3472
 30
0.0
  0
SPLINE
  5
5A
330
1F
100
AcDbEntity
  8
layer 1
 62
     7
370
     9
100
AcDbSpline
210
0.0
220
0.0
230
1.0
 70
    11
 71
     3
 72
    16
 73
    12
 74
     0
 42
0.0000000001
 43
0.0000000001
 12
1.0
 22
0.0
 32
0.0
 13
1.0
 23
0.0
 33
0.0
 40
0.0
 40
0.0
 40
0.0
 40
0.0
 40
0.25
 40
0.25
 40
0.25
 40
0.25
 40
0.5
 40
0.5
 40
0.5
 40
0.5
 40
1.0
 40
1.0
 40
1.0
 40
1.0
 10
-177.4125
 20
-4.257
 30
0.0
 10
-177.4125
 20
-4.257
 30
0.0
 10
-177.4125
 20
-2.3773
 30
0.0
 10
-177.4125
 20
-2.3773
 30
0.0
 10
-177.4125
 20
-2.3773
 30
0.0
 10
-168.8016
 20
-0.4175
 30
0.0
 10
-160.554
 20
2.8863
 30
0.0
 10
-152.9718
 20
7.4124
 30
0.0
 10
-152.9718
 20
7.4124
 30
0.0
 10
-159.9093
 20
1.3778
 30
0.0
 10
-168.3579
 20
-2.6558
 30
0.0
 10
-177.4125
 20
-4.257
 30
0.0
  0
SPLINE
  5
5B
330
1F
100
AcDbEntity
  8
layer 1
 62
     7
370
     9
100
AcDbSpline
210
0.0
220
0.0
230
1.0
 70
    11
 71
     3
 72
   144
 73
   140
 74
     0
 42
0.0000000001
 43
0.0000000001
 12
1.0
 22
0.0
 32
0.0
 13
1.0
 23
0.0
 33
0.0
 40
0.0
 40
0.0
 40
0.0
 40
0.0
 40
0.0277777777777778
 40
0.0277777777777778
 40
0.0277777777777778
 40
0.0277777777777778
 40
0.0555555555555556
 40
0.0555555555555556
 40
0.0555555555555556
 40
0.0555555555555556
 40
0.0833333333333333
 40
0.0833333333333333
 40
0.0833333333333333
 40
0.0833333333333333
 40
0.1111111111111111
 40
0.1111111111111111
 40
0.1111111111111111
 40
0.1111111111111111
 40
0.1388888888888889
 40
0.1388888888888889
 40
0.1388888888888889
 40
0.1388888888888889
 40
0.1666666666666667
 40
0.1666666666666667
 40
0.1666666666666667
 40
0.1666666666666667
 40
0.1944444444444444
 40
0.1944444444444444
 40
0.1944444444444444
 40
0.1944444444444444
 40
0.2222222222222222
 40
0.2222222222222222
 40
0.2222222222222222
 40
0.2222222222222222
 40
0.25
 40
0.25
 40
0.25
 40
0.25
 40
0.2777777777777778
 40
0.2777777777777778
 40
0.2777777777777778
 40
0.2777777777777778
 40
0.3055555555555556
 40
0.3055555555555556
 40
0.3055555555555556
 40
0.3055555555555556
 40
0.3333333333333333
 40
0.3333333333333333
 40
0.3333333333333333
 40
0.3333333333333333
 40
0.3611111111111111
 40
0.3611111111111111
 40
0.3611111111111111
 40
0.3611111111111111
 40
0.3888888888888889
 40
0.3888888888888889
 40
0.3888888888888889
 40
0.3888888888888889
 40
0.4166666666666667
 40
0.4166666666666667
 40
0.4166666666666667
 40
0.4166666666666667
 40
0.4444444444444444
 40
0.4444444444444444
 40
0.4444444444444444
 40
0.4444444444444444
 40
0.4722222222222222
 40
0.4722222222222222
 40
0.4722222222222222
 40
0.4722222222222222
 40
0.5
 40
0.5
 40
0.5
 40
0.5
 40
0.5277777777777778
 40
0.5277777777777778
 40
0.5277777777777778
 40
0.5277777777777778
 40
0.5555555555555556
 40
0.5555555555555556
 40
0.5555555555555556
 40
0.5555555555555556
 40
0.5833333333333334
 40
0.5833333333333334
 40
0.5833333333333334
 40
0.5833333333333334
 40
0.6111111111111112
 40
0.6111111111111112
 40
0.6111111111111112
 40
0.6111111111111112
 40
0.6388888888888888
 40
0.6388888888888888
 40
0.6388888888888888
 40
0.6388888888888888
 40
0.6666666666666666
 40
0.6666666666666666
 40
0.6666666666666666
 40
0.6666666666666666
 40
0.6944444444444444
 40
0.6944444444444444
 40
0.6944444444444444
 40
0.6944444444444444
 40
0.7222222222222222
 40
0.7222222222222222
 40
0.7222222222222222
 40
0.7222222222222222
 40
0.75
 40
0.75
 40
0.75
 40
0.75
 40
0.7777777777777778
 40
0.7777777777777778
 40
0.7777777777777778
 40
0.7777777777777778
 40
0.8055555555555556
 40
0.8055555555555556
 40
0.8055555555555556
 40
0.8055555555555556
 40
0.8333333333333334
 40
0.8333333333333334
 40
0.8333333333333334
 40
0.8333333333333334
 40
0.8611111111111112
 40
0.8611111111111112
 40
0.8611111111111112
 40
0.8611111111111112
 40
0.8888888888888888
 40
0.8888888888888888
 40
0.8888888888888888
 40
0.8888888888888888
 40
0.9166666666666666
 40
0.9166666666666666
 40
0.9166666666666666
 40
0.9166666666666666
 40
0.9444444444444444
 40
0.9444444444444444
 40
0.9444444444444444
 40
0.9444444444444444
 40
1.0
 40
1.0
 40
1.0
 40
1.0
 10
-176.6272
 20
-46.0267
 30
0.0
 10
-176.8899
 20
-46.0099
 30
0.0
 10
-177.1533
 20
-46.0251
 30
0.0
 10
-177.4125
 20
-46.0726
 30
0.0
 10
-177.4125
 20
-46.0726
 30
0.0
 10
-177.4125
 20
-46.0726
 30
0.0
 10
-177.4125
 20
-50.2962
 30
0.0
 10
-177.4125
 20
-50.2962
 30
0.0
 10
-177.4125
 20
-50.2962
 30
0.0
 10
-176.8236
 20
-51.6032
 30
0.0
 10
-175.7322
 20
-52.6173
 30
0.0
 10
-174.3853
 20
-53.1083
 30
0.0
 10
-174.3853
 20
-53.1083
 30
0.0
 10
-175.2923
 20
-53.6633
 30
0.0
 10
-175.8342
 20
-54.661
 30
0.0
 10
-175.8051
 20
-55.7241
 30
0.0
 10
-175.8051
 20
-55.7241
 30
0.0
 10
-175.3495
 20
-55.1397
 30
0.0
 10
-174.6137
 20
-54.8465
 30
0.0
 10
-173.8808
 20
-54.9581
 30
0.0
 10
-173.8808
 20
-54.9581
 30
0.0
 10
-174.0725
 20
-55.1168
 30
0.0
 10
-174.1419
 20
-55.3802
 30
0.0
 10
-174.0532
 20
-55.6125
 30
0.0
 10
-174.0532
 20
-55.6125
 30
0.0
 10
-173.964
 20
-55.8452
 30
0.0
 10
-173.7368
 20
-55.9954
 30
0.0
 10
-173.4884
 20
-55.9856
 30
0.0
 10
-173.4884
 20
-55.9856
 30
0.0
 10
-172.5767
 20
-55.899
 30
0.0
 10
-171.7082
 20
-55.5558
 30
0.0
 10
-170.9845
 20
-54.9955
 30
0.0
 10
-170.9845
 20
-54.9955
 30
0.0
 10
-170.8958
 20
-55.9692
 30
0.0
 10
-170.2884
 20
-56.8191
 30
0.0
 10
-169.3964
 20
-57.2191
 30
0.0
 10
-169.3964
 20
-57.2191
 30
0.0
 10
-170.3842
 20
-57.3381
 30
0.0
 10
-171.3243
 20
-57.7116
 30
0.0
 10
-172.1241
 20
-58.3027
 30
0.0
 10
-172.1241
 20
-58.3027
 30
0.0
 10
-172.3073
 20
-58.3971
 30
0.0
 10
-172.4122
 20
-58.5953
 30
0.0
 10
-172.3869
 20
-58.7995
 30
0.0
 10
-172.3869
 20
-58.7995
 30
0.0
 10
-172.3616
 20
-59.0038
 30
0.0
 10
-172.2121
 20
-59.1709
 30
0.0
 10
-172.0119
 20
-59.2182
 30
0.0
 10
-172.0119
 20
-59.2182
 30
0.0
 10
-171.2297
 20
-59.1346
 30
0.0
 10
-170.439
 20
-59.1915
 30
0.0
 10
-169.6766
 20
-59.3864
 30
0.0
 10
-169.6766
 20
-59.3864
 30
0.0
 10
-169.966
 20
-59.6205
 30
0.0
 10
-170.1467
 20
-59.9639
 30
0.0
 10
-170.1751
 20
-60.3351
 30
0.0
 10
-170.1751
 20
-60.3351
 30
0.0
 10
-170.2034
 20
-60.7065
 30
0.0
 10
-170.0769
 20
-61.0731
 30
0.0
 10
-169.8261
 20
-61.3483
 30
0.0
 10
-169.8261
 20
-61.3483
 30
0.0
 10
-168.3104
 20
-62.326
 30
0.0
 10
-166.4639
 20
-62.6494
 30
0.0
 10
-164.7065
 20
-62.2452
 30
0.0
 10
-164.7065
 20
-62.2452
 30
0.0
 10
-166.5688
 20
-60.5958
 30
0.0
 10
-167.6867
 20
-58.2649
 30
0.0
 10
-167.8078
 20
-55.7801
 30
0.0
 10
-167.8078
 20
-55.7801
 30
0.0
 10
-167.9356
 20
-53.6633
 30
0.0
 10
-167.146
 20
-51.5938
 30
0.0
 10
-165.6406
 20
-50.1
 30
0.0
 10
-165.6406
 20
-50.1
 30
0.0
 10
-165.2265
 20
-49.325
 30
0.0
 10
-165.5086
 20
-48.3613
 30
0.0
 10
-166.2758
 20
-47.9325
 30
0.0
 10
-166.2758
 20
-47.9325
 30
0.0
 10
-166.817
 20
-47.8725
 30
0.0
 10
-167.3637
 20
-47.9767
 30
0.0
 10
-167.8451
 20
-48.2316
 30
0.0
 10
-167.8451
 20
-48.2316
 30
0.0
 10
-167.5468
 20
-47.0216
 30
0.0
 10
-167.1979
 20
-45.8246
 30
0.0
 10
-166.7989
 20
-44.6439
 30
0.0
 10
-166.7989
 20
-44.6439
 30
0.0
 10
-166.6639
 20
-44.2551
 30
0.0
 10
-166.8127
 20
-43.8246
 30
0.0
 10
-167.1593
 20
-43.6023
 30
0.0
 10
-167.1593
 20
-43.6023
 30
0.0
 10
-167.5058
 20
-43.3801
 30
0.0
 10
-167.9597
 20
-43.4245
 30
0.0
 10
-168.2561
 20
-43.7096
 30
0.0
 10
-168.2561
 20
-43.7096
 30
0.0
 10
-169.2355
 20
-44.4999
 30
0.0
 10
-169.952
 20
-45.5683
 30
0.0
 10
-170.3119
 20
-46.7741
 30
0.0
 10
-170.3119
 20
-46.7741
 30
0.0
 10
-170.5759
 20
-46.606
 30
0.0
 10
-170.9066
 20
-46.582
 30
0.0
 10
-171.1929
 20
-46.7098
 30
0.0
 10
-171.1929
 20
-46.7098
 30
0.0
 10
-171.4786
 20
-46.8376
 30
0.0
 10
-171.6812
 20
-47.1003
 30
0.0
 10
-171.7317
 20
-47.4092
 30
0.0
 10
-171.7317
 20
-47.4092
 30
0.0
 10
-172.3898
 20
-49.3678
 30
0.0
 10
-172.4291
 20
-51.4817
 30
0.0
 10
-171.8438
 20
-53.4633
 30
0.0
 10
-171.8438
 20
-53.4633
 30
0.0
 10
-173.8658
 20
-51.7546
 30
0.0
 10
-174.4666
 20
-48.8895
 30
0.0
 10
-173.301
 20
-46.5125
 30
0.0
 10
-173.301
 20
-46.5125
 30
0.0
 10
-173.0118
 20
-46.1531
 30
0.0
 10
-173.0395
 20
-45.633
 30
0.0
 10
-173.3661
 20
-45.3068
 30
0.0
 10
-173.3661
 20
-45.3068
 30
0.0
 10
-173.6927
 20
-44.9805
 30
0.0
 10
-174.2123
 20
-44.9524
 30
0.0
 10
-174.572
 20
-45.242
 30
0.0
 10
-174.572
 20
-45.242
 30
0.0
 10
-174.8162
 20
-45.5222
 30
0.0
 10
-175.0531
 20
-45.8087
 30
0.0
 10
-175.282
 20
-46.1015
 30
0.0
 10
-175.282
 20
-46.1015
 30
0.0
 10
-175.2663
 20
-44.9916
 30
0.0
 10
-175.3037
 20
-43.8816
 30
0.0
 10
-175.3941
 20
-42.7755
 30
0.0
 10
-175.3941
 20
-42.7755
 30
0.0
 10
-175.4351
 20
-42.6667
 30
0.0
 10
-175.5297
 20
-42.5871
 30
0.0
 10
-175.6437
 20
-42.5643
 30
0.0
 10
-175.6437
 20
-42.5643
 30
0.0
 10
-175.7569
 20
-42.5414
 30
0.0
 10
-175.875
 20
-42.5789
 30
0.0
 10
-175.9546
 20
-42.6633
 30
0.0
 10
-175.9546
 20
-42.6633
 30
0.0
 10
-176.7104
 20
-43.6093
 30
0.0
 10
-176.9612
 20
-44.8628
 30
0.0
 10
-176.6272
 20
-46.0267
 30
0.0
  0
SPLINE
  5
5C
330
1F
100
AcDbEntity
  8
layer 1
 62
     7
370
     9
100
AcDbSpline
210
0.0
220
0.0
230
1.0
 70
    11
 71
     3
 72
    20
 73
    16
 74
     0
 42
0.0000000001
 43
0.0000000001
 12
1.0
 22
0.0
 32
0.0
 13
1.0
 23
0.0
 33
0.0
 40
0.0
 40
0.0
 40
0.0
 40
0.0
 40
0.2
 40
0.2
 40
0.2
 40
0.2
 40
0.4
 40
0.4
 40
0.4
 40
0.4
 40
0.6
 40
0.6
 40
0.6
 40
0.6
 40
1.0
 40
1.0
 40
1.0
 40
1.0
 10
-176.6272
 20
-33.1341
 30
0.0
 10
-176.7182
 20
-33.9141
 30
0.0
 10
-176.987
 20
-34.6631
 30
0.0
 10
-177.4125
 20
-35.3237
 30
0.0
 10
-177.4125
 20
-35.3237
 30
0.0
 10
-177.4125
 20
-35.3237
 30
0.0
 10
-177.4125
 20
-38.5434
 30
0.0
 10
-177.4125
 20
-38.5434
 30
0.0
 10
-177.4125
 20
-38.5434
 30
0.0
 10
-176.2626
 20
-36.4895
 30
0.0
 10
-175.7793
 20
-34.1292
 30
0.0
 10
-176.0294
 20
-31.7886
 30
0.0
 10
-176.0294
 20
-31.7886
 30
0.0
 10
-176.3144
 20
-32.1936
 30
0.0
 10
-176.5175
 20
-32.651
 30
0.0
 10
-176.6272
 20
-33.1341
 30
0.0
  0
SPLINE
  5
5D
330
1F
100
AcDbEntity
  8
layer 1
 62
     7
370
     9
100
AcDbSpline
210
0.0
220
0.0
230
1.0
 70
    11
 71
     3
 72
    20
 73
    16
 74
     0
 42
0.0000000001
 43
0.0000000001
 12
1.0
 22
0.0
 32
0.0
 13
1.0
 23
0.0
 33
0.0
 40
0.0
 40
0.0
 40
0.0
 40
0.0
 40
0.2
 40
0.2
 40
0.2
 40
0.2
 40
0.4
 40
0.4
 40
0.4
 40
0.4
 40
0.6
 40
0.6
 40
0.6
 40
0.6
 40
1.0
 40
1.0
 40
1.0
 40
1.0
 10
-176.347
 20
-28.5747
 30
0.0
 10
-176.6543
 20
-29.0011
 30
0.0
 10
-177.0117
 20
-29.3884
 30
0.0
 10
-177.4125
 20
-29.7282
 30
0.0
 10
-177.4125
 20
-29.7282
 30
0.0
 10
-177.4125
 20
-29.7282
 30
0.0
 10
-177.4125
 20
-23.8325
 30
0.0
 10
-177.4125
 20
-23.8325
 30
0.0
 10
-177.4125
 20
-23.8325
 30
0.0
 10
-176.6639
 20
-24.7258
 30
0.0
 10
-176.065
 20
-25.7342
 30
0.0
 10
-175.637
 20
-26.8185
 30
0.0
 10
-175.637
 20
-26.8185
 30
0.0
 10
-176.106
 20
-27.2811
 30
0.0
 10
-176.3626
 20
-27.9164
 30
0.0
 10
-176.347
 20
-28.5747
 30
0.0
  0
SPLINE
  5
5E
330
1F
100
AcDbEntity
  8
layer 1
 62
     7
370
     9
100
AcDbSpline
210
0.0
220
0.0
230
1.0
 70
    11
 71
     3
 72
    48
 73
    44
 74
     0
 42
0.0000000001
 43
0.0000000001
 12
1.0
 22
0.0
 32
0.0
 13
1.0
 23
0.0
 33
0.0
 40
0.0
 40
0.0
 40
0.0
 40
0.0
 40
0.0833333333333333
 40
0.0833333333333333
 40
0.0833333333333333
 40
0.0833333333333333
 40
0.1666666666666667
 40
0.1666666666666667
 40
0.1666666666666667
 40
0.1666666666666667
 40
0.25
 40
0.25
 40
0.25
 40
0.25
 40
0.3333333333333333
 40
0.3333333333333333
 40
0.3333333333333333
 40
0.3333333333333333
 40
0.4166666666666667
 40
0.4166666666666667
 40
0.4166666666666667
 40
0.4166666666666667
 40
0.5
 40
0.5
 40
0.5
 40
0.5
 40
0.5833333333333334
 40
0.5833333333333334
 40
0.5833333333333334
 40
0.5833333333333334
 40
0.6666666666666666
 40
0.6666666666666666
 40
0.6666666666666666
 40
0.6666666666666666
 40
0.75
 40
0.75
 40
0.75
 40
0.75
 40
0.8333333333333334
 40
0.8333333333333334
 40
0.8333333333333334
 40
0.8333333333333334
 40
1.0
 40
1.0
 40
1.0
 40
1.0
 10
-174.9831
 20
-31.06
 30
0.0
 10
-174.4776
 20
-32.3508
 30
0.0
 10
-174.1743
 20
-33.7122
 30
0.0
 10
-174.0864
 20
-35.0958
 30
0.0
 10
-174.0864
 20
-35.0958
 30
0.0
 10
-173.852
 20
-33.6425
 30
0.0
 10
-173.9025
 20
-32.1574
 30
0.0
 10
-174.2358
 20
-30.7236
 30
0.0
 10
-174.2358
 20
-30.7236
 30
0.0
 10
-173.4216
 20
-31.831
 30
0.0
 10
-172.8895
 20
-33.1201
 30
0.0
 10
-172.6845
 20
-34.4792
 30
0.0
 10
-172.6845
 20
-34.4792
 30
0.0
 10
-172.54
 20
-33.4469
 30
0.0
 10
-172.5779
 20
-32.3969
 30
0.0
 10
-172.7967
 20
-31.3776
 30
0.0
 10
-172.7967
 20
-31.3776
 30
0.0
 10
-172.8261
 20
-31.2419
 30
0.0
 10
-172.7557
 20
-31.1044
 30
0.0
 10
-172.6279
 20
-31.0499
 30
0.0
 10
-172.6279
 20
-31.0499
 30
0.0
 10
-172.5001
 20
-30.9952
 30
0.0
 10
-172.3519
 20
-31.0385
 30
0.0
 10
-172.2735
 20
-31.1533
 30
0.0
 10
-172.2735
 20
-31.1533
 30
0.0
 10
-170.8934
 20
-32.4935
 30
0.0
 10
-170.2884
 20
-34.4429
 30
0.0
 10
-170.6667
 20
-36.329
 30
0.0
 10
-170.6667
 20
-36.329
 30
0.0
 10
-170.8248
 20
-37.702
 30
0.0
 10
-171.2232
 20
-39.0366
 30
0.0
 10
-171.8438
 20
-40.2716
 30
0.0
 10
-171.8438
 20
-40.2716
 30
0.0
 10
-172.0693
 20
-39.7758
 30
0.0
 10
-172.4164
 20
-39.3453
 30
0.0
 10
-172.8528
 20
-39.0197
 30
0.0
 10
-172.8528
 20
-39.0197
 30
0.0
 10
-173.512
 20
-38.6456
 30
0.0
 10
-174.0954
 20
-38.1512
 30
0.0
 10
-174.572
 20
-37.5623
 30
0.0
 10
-174.572
 20
-37.5623
 30
0.0
 10
-175.7052
 20
-35.5743
 30
0.0
 10
-175.8571
 20
-33.1747
 30
0.0
 10
-174.9831
 20
-31.06
 30
0.0
  0
SPLINE
  5
5F
330
1F
100
AcDbEntity
  8
layer 1
 62
     7
370
     9
100
AcDbSpline
210
0.0
220
0.0
230
1.0
 70
    11
 71
     3
 72
    64
 73
    60
 74
     0
 42
0.0000000001
 43
0.0000000001
 12
1.0
 22
0.0
 32
0.0
 13
1.0
 23
0.0
 33
0.0
 40
0.0
 40
0.0
 40
0.0
 40
0.0
 40
0.0625
 40
0.0625
 40
0.0625
 40
0.0625
 40
0.125
 40
0.125
 40
0.125
 40
0.125
 40
0.1875
 40
0.1875
 40
0.1875
 40
0.1875
 40
0.25
 40
0.25
 40
0.25
 40
0.25
 40
0.3125
 40
0.3125
 40
0.3125
 40
0.3125
 40
0.375
 40
0.375
 40
0.375
 40
0.375
 40
0.4375
 40
0.4375
 40
0.4375
 40
0.4375
 40
0.5
 40
0.5
 40
0.5
 40
0.5
 40
0.5625
 40
0.5625
 40
0.5625
 40
0.5625
 40
0.625
 40
0.625
 40
0.625
 40
0.625
 40
0.6875
 40
0.6875
 40
0.6875
 40
0.6875
 40
0.75
 40
0.75
 40
0.75
 40
0.75
 40
0.8125
 40
0.8125
 40
0.8125
 40
0.8125
 40
0.875
 40
0.875
 40
0.875
 40
0.875
 40
1.0
 40
1.0
 40
1.0
 40
1.0
 10
-172.7967
 20
-28.8924
 30
0.0
 10
-172.0319
 20
-29.2367
 30
0.0
 10
-171.1658
 20
-29.2833
 30
0.0
 10
-170.368
 20
-29.0231
 30
0.0
 10
-170.368
 20
-29.0231
 30
0.0
 10
-170.841
 20
-28.8202
 30
0.0
 10
-171.2623
 20
-28.5137
 30
0.0
 10
-171.6009
 20
-28.1262
 30
0.0
 10
-171.6009
 20
-28.1262
 30
0.0
 10
-171.7227
 20
-27.9911
 30
0.0
 10
-171.7408
 20
-27.7921
 30
0.0
 10
-171.6461
 20
-27.6368
 30
0.0
 10
-171.6461
 20
-27.6368
 30
0.0
 10
-171.5515
 20
-27.4817
 30
0.0
 10
-171.366
 20
-27.4074
 30
0.0
 10
-171.19
 20
-27.4537
 30
0.0
 10
-171.19
 20
-27.4537
 30
0.0
 10
-170.867
 20
-27.5941
 30
0.0
 10
-170.5137
 20
-27.6518
 30
0.0
 10
-170.1624
 20
-27.6218
 30
0.0
 10
-170.1624
 20
-27.6218
 30
0.0
 10
-170.0063
 20
-27.5427
 30
0.0
 10
-169.8959
 20
-27.3957
 30
0.0
 10
-169.8628
 20
-27.2241
 30
0.0
 10
-169.8628
 20
-27.2241
 30
0.0
 10
-169.8297
 20
-27.0522
 30
0.0
 10
-169.8785
 20
-26.8747
 30
0.0
 10
-169.9942
 20
-26.7437
 30
0.0
 10
-169.9942
 20
-26.7437
 30
0.0
 10
-170.8904
 20
-26.1963
 30
0.0
 10
-172.0054
 20
-26.1469
 30
0.0
 10
-172.946
 20
-26.613
 30
0.0
 10
-172.946
 20
-26.613
 30
0.0
 10
-172.8292
 20
-25.2381
 30
0.0
 10
-171.8288
 20
-24.1009
 30
0.0
 10
-170.48
 20
-23.8101
 30
0.0
 10
-170.48
 20
-23.8101
 30
0.0
 10
-169.224
 20
-23.7672
 30
0.0
 10
-168.1669
 20
-24.7411
 30
0.0
 10
-168.1066
 20
-25.9963
 30
0.0
 10
-168.1066
 20
-25.9963
 30
0.0
 10
-167.6908
 20
-26.0658
 30
0.0
 10
-167.3594
 20
-26.3834
 30
0.0
 10
-167.2726
 20
-26.7966
 30
0.0
 10
-167.2726
 20
-26.7966
 30
0.0
 10
-167.1858
 20
-27.2095
 30
0.0
 10
-167.3613
 20
-27.6337
 30
0.0
 10
-167.7144
 20
-27.8647
 30
0.0
 10
-167.7144
 20
-27.8647
 30
0.0
 10
-167.2769
 20
-29.051
 30
0.0
 10
-167.8319
 20
-30.3736
 30
0.0
 10
-168.9854
 20
-30.8917
 30
0.0
 10
-168.9854
 20
-30.8917
 30
0.0
 10
-169.1275
 20
-31.2573
 30
0.0
 10
-169.5211
 20
-31.4584
 30
0.0
 10
-169.9009
 20
-31.3588
 30
0.0
 10
-169.9009
 20
-31.3588
 30
0.0
 10
-171.1212
 20
-30.8944
 30
0.0
 10
-172.144
 20
-30.0235
 30
0.0
 10
-172.7967
 20
-28.8924
 30
0.0
  0
SPLINE
  5
60
330
1F
100
AcDbEntity
  8
layer 1
 62
     7
370
     9
100
AcDbSpline
210
0.0
220
0.0
230
1.0
 70
    11
 71
     3
 72
    68
 73
    64
 74
     0
 42
0.0000000001
 43
0.0000000001
 12
1.0
 22
0.0
 32
0.0
 13
1.0
 23
0.0
 33
0.0
 40
0.0
 40
0.0
 40
0.0
 40
0.0
 40
0.0588235294117647
 40
0.0588235294117647
 40
0.0588235294117647
 40
0.0588235294117647
 40
0.1176470588235294
 40
0.1176470588235294
 40
0.1176470588235294
 40
0.1176470588235294
 40
0.1764705882352941
 40
0.1764705882352941
 40
0.1764705882352941
 40
0.1764705882352941
 40
0.2352941176470588
 40
0.2352941176470588
 40
0.2352941176470588
 40
0.2352941176470588
 40
0.2941176470588235
 40
0.2941176470588235
 40
0.2941176470588235
 40
0.2941176470588235
 40
0.3529411764705883
 40
0.3529411764705883
 40
0.3529411764705883
 40
0.3529411764705883
 40
0.4117647058823529
 40
0.4117647058823529
 40
0.4117647058823529
 40
0.4117647058823529
 40
0.4705882352941176
 40
0.4705882352941176
 40
0.4705882352941176
 40
0.4705882352941176
 40
0.5294117647058824
 40
0.5294117647058824
 40
0.5294117647058824
 40
0.5294117647058824
 40
0.5882352941176471
 40
0.5882352941176471
 40
0.5882352941176471
 40
0.5882352941176471
 40
0.6470588235294118
 40
0.6470588235294118
 40
0.6470588235294118
 40
0.6470588235294118
 40
0.7058823529411765
 40
0.7058823529411765
 40
0.7058823529411765
 40
0.7058823529411765
 40
0.7647058823529411
 40
0.7647058823529411
 40
0.7647058823529411
 40
0.7647058823529411
 40
0.8235294117647058
 40
0.8235294117647058
 40
0.8235294117647058
 40
0.8235294117647058
 40
0.8823529411764706
 40
0.8823529411764706
 40
0.8823529411764706
 40
0.8823529411764706
 40
1.0
 40
1.0
 40
1.0
 40
1.0
 10
-175.2074
 20
-25.6971
 30
0.0
 10
-174.918
 20
-25.0719
 30
0.0
 10
-174.7837
 20
-24.3861
 30
0.0
 10
-174.815
 20
-23.6979
 30
0.0
 10
-174.815
 20
-23.6979
 30
0.0
 10
-174.7439
 20
-23.5574
 30
0.0
 10
-174.6047
 20
-23.4653
 30
0.0
 10
-174.4473
 20
-23.4539
 30
0.0
 10
-174.4473
 20
-23.4539
 30
0.0
 10
-174.2912
 20
-23.4425
 30
0.0
 10
-174.1393
 20
-23.5135
 30
0.0
 10
-174.0489
 20
-23.6418
 30
0.0
 10
-174.0489
 20
-23.6418
 30
0.0
 10
-173.9929
 20
-23.8101
 30
0.0
 10
-173.9369
 20
-23.9784
 30
0.0
 10
-173.8808
 20
-24.1465
 30
0.0
 10
-173.8808
 20
-24.1465
 30
0.0
 10
-173.7037
 20
-23.6973
 30
0.0
 10
-173.5904
 20
-23.2255
 30
0.0
 10
-173.5446
 20
-22.7451
 30
0.0
 10
-173.5446
 20
-22.7451
 30
0.0
 10
-173.4903
 20
-22.6209
 30
0.0
 10
-173.3608
 20
-22.548
 30
0.0
 10
-173.2269
 20
-22.5649
 30
0.0
 10
-173.2269
 20
-22.5649
 30
0.0
 10
-173.0926
 20
-22.5823
 30
0.0
 10
-172.9858
 20
-22.686
 30
0.0
 10
-172.9653
 20
-22.8198
 30
0.0
 10
-172.9653
 20
-22.8198
 30
0.0
 10
-173.1661
 20
-23.587
 30
0.0
 10
-173.3716
 20
-24.3532
 30
0.0
 10
-173.5819
 20
-25.118
 30
0.0
 10
-173.5819
 20
-25.118
 30
0.0
 10
-173.0461
 20
-24.3727
 30
0.0
 10
-172.6067
 20
-23.5629
 30
0.0
 10
-172.2735
 20
-22.7077
 30
0.0
 10
-172.2735
 20
-22.7077
 30
0.0
 10
-171.8981
 20
-21.3976
 30
0.0
 10
-172.0386
 20
-19.9933
 30
0.0
 10
-172.6665
 20
-18.7838
 30
0.0
 10
-172.6665
 20
-18.7838
 30
0.0
 10
-172.7672
 20
-18.5518
 30
0.0
 10
-172.981
 20
-18.3885
 30
0.0
 10
-173.2312
 20
-18.3499
 30
0.0
 10
-173.2312
 20
-18.3499
 30
0.0
 10
-173.4813
 20
-18.3119
 30
0.0
 10
-173.7337
 20
-18.4052
 30
0.0
 10
-173.8995
 20
-18.5969
 30
0.0
 10
-173.8995
 20
-18.5969
 30
0.0
 10
-174.3346
 20
-17.6351
 30
0.0
 10
-175.2284
 20
-16.9594
 30
0.0
 10
-176.2722
 20
-16.8035
 30
0.0
 10
-176.2722
 20
-16.8035
 30
0.0
 10
-175.7093
 20
-17.5628
 30
0.0
 10
-175.7889
 20
-18.621
 30
0.0
 10
-176.4591
 20
-19.2883
 30
0.0
 10
-176.4591
 20
-19.2883
 30
0.0
 10
-176.8134
 20
-20.035
 30
0.0
 10
-176.8863
 20
-20.884
 30
0.0
 10
-176.6646
 20
-21.6801
 30
0.0
 10
-176.6646
 20
-21.6801
 30
0.0
 10
-176.3651
 20
-23.0796
 30
0.0
 10
-175.8745
 20
-24.4314
 30
0.0
 10
-175.2074
 20
-25.6971
 30
0.0
  0
SPLINE
  5
61
330
1F
100
AcDbEntity
  8
layer 1
 62
     7
370
     9
100
AcDbSpline
210
0.0
220
0.0
230
1.0
 70
    11
 71
     3
 72
    20
 73
    16
 74
     0
 42
0.0000000001
 43
0.0000000001
 12
1.0
 22
0.0
 32
0.0
 13
1.0
 23
0.0
 33
0.0
 40
0.0
 40
0.0
 40
0.0
 40
0.0
 40
0.2
 40
0.2
 40
0.2
 40
0.2
 40
0.4
 40
0.4
 40
0.4
 40
0.4
 40
0.6
 40
0.6
 40
0.6
 40
0.6
 40
1.0
 40
1.0
 40
1.0
 40
1.0
 10
-174.46
 20
-26.7799
 30
0.0
 10
-174.078
 20
-26.7799
 30
0.0
 10
-173.7681
 20
-27.3826
 30
0.0
 10
-173.7681
 20
-28.1262
 30
0.0
 10
-173.7681
 20
-28.1262
 30
0.0
 10
-173.7681
 20
-28.8697
 30
0.0
 10
-174.078
 20
-29.4722
 30
0.0
 10
-174.46
 20
-29.4722
 30
0.0
 10
-174.46
 20
-29.4722
 30
0.0
 10
-174.8421
 20
-29.4722
 30
0.0
 10
-175.1518
 20
-28.8697
 30
0.0
 10
-175.1518
 20
-28.1262
 30
0.0
 10
-175.1518
 20
-28.1262
 30
0.0
 10
-175.1518
 20
-27.3826
 30
0.0
 10
-174.8421
 20
-26.7799
 30
0.0
 10
-174.46
 20
-26.7799
 30
0.0
  0
SPLINE
  5
62
330
1F
100
AcDbEntity
  8
layer 1
 62
     7
370
     9
100
AcDbSpline
210
0.0
220
0.0
230
1.0
 70
    11
 71
     3
 72
    72
 73
    68
 74
     0
 42
0.0000000001
 43
0.0000000001
 12
1.0
 22
0.0
 32
0.0
 13
1.0
 23
0.0
 33
0.0
 40
0.0
 40
0.0
 40
0.0
 40
0.0
 40
0.0555555555555556
 40
0.0555555555555556
 40
0.0555555555555556
 40
0.0555555555555556
 40
0.1111111111111111
 40
0.1111111111111111
 40
0.1111111111111111
 40
0.1111111111111111
 40
0.1666666666666667
 40
0.1666666666666667
 40
0.1666666666666667
 40
0.1666666666666667
 40
0.2222222222222222
 40
0.2222222222222222
 40
0.2222222222222222
 40
0.2222222222222222
 40
0.2777777777777778
 40
0.2777777777777778
 40
0.2777777777777778
 40
0.2777777777777778
 40
0.3333333333333333
 40
0.3333333333333333
 40
0.3333333333333333
 40
0.3333333333333333
 40
0.3888888888888889
 40
0.3888888888888889
 40
0.3888888888888889
 40
0.3888888888888889
 40
0.4444444444444444
 40
0.4444444444444444
 40
0.4444444444444444
 40
0.4444444444444444
 40
0.5
 40
0.5
 40
0.5
 40
0.5
 40
0.5555555555555556
 40
0.5555555555555556
 40
0.5555555555555556
 40
0.5555555555555556
 40
0.6111111111111112
 40
0.6111111111111112
 40
0.6111111111111112
 40
0.6111111111111112
 40
0.6666666666666666
 40
0.6666666666666666
 40
0.6666666666666666
 40
0.6666666666666666
 40
0.7222222222222222
 40
0.7222222222222222
 40
0.7222222222222222
 40
0.7222222222222222
 40
0.7777777777777778
 40
0.7777777777777778
 40
0.7777777777777778
 40
0.7777777777777778
 40
0.8333333333333334
 40
0.8333333333333334
 40
0.8333333333333334
 40
0.8333333333333334
 40
0.8888888888888888
 40
0.8888888888888888
 40
0.8888888888888888
 40
0.8888888888888888
 40
1.0
 40
1.0
 40
1.0
 40
1.0
 10
-167.9946
 20
-6.003
 30
0.0
 10
-168.2868
 20
-5.8005
 30
0.0
 10
-168.4725
 20
-5.4775
 30
0.0
 10
-168.5014
 20
-5.1232
 30
0.0
 10
-168.5014
 20
-5.1232
 30
0.0
 10
-168.5303
 20
-4.7687
 30
0.0
 10
-168.3989
 20
-4.4198
 30
0.0
 10
-168.144
 20
-4.1721
 30
0.0
 10
-168.144
 20
-4.1721
 30
0.0
 10
-166.817
 20
-2.5008
 30
0.0
 10
-164.9337
 20
-1.3607
 30
0.0
 10
-162.8376
 20
-0.9587
 30
0.0
 10
-162.8376
 20
-0.9587
 30
0.0
 10
-166.1618
 20
-4.8344
 30
0.0
 10
-165.9003
 20
-10.6266
 30
0.0
 10
-162.2396
 20
-14.1873
 30
0.0
 10
-162.2396
 20
-14.1873
 30
0.0
 10
-161.7244
 20
-14.5097
 30
0.0
 10
-161.4116
 20
-15.0743
 30
0.0
 10
-161.4116
 20
-15.6818
 30
0.0
 10
-161.4116
 20
-15.6818
 30
0.0
 10
-161.4116
 20
-16.2899
 30
0.0
 10
-161.7244
 20
-16.8546
 30
0.0
 10
-162.2396
 20
-17.1771
 30
0.0
 10
-162.2396
 20
-17.1771
 30
0.0
 10
-162.8406
 20
-17.4441
 30
0.0
 10
-163.518
 20
-17.4844
 30
0.0
 10
-164.146
 20
-17.2892
 30
0.0
 10
-164.146
 20
-17.2892
 30
0.0
 10
-163.3559
 20
-18.4348
 30
0.0
 10
-162.6683
 20
-19.648
 30
0.0
 10
-162.0903
 20
-20.9143
 30
0.0
 10
-162.0903
 20
-20.9143
 30
0.0
 10
-161.9359
 20
-21.2746
 30
0.0
 10
-162.0372
 20
-21.6941
 30
0.0
 10
-162.3397
 20
-21.9442
 30
0.0
 10
-162.3397
 20
-21.9442
 30
0.0
 10
-162.6418
 20
-22.1948
 30
0.0
 10
-163.0726
 20
-22.2165
 30
0.0
 10
-163.3981
 20
-21.9979
 30
0.0
 10
-163.3981
 20
-21.9979
 30
0.0
 10
-164.4226
 20
-21.547
 30
0.0
 10
-165.2928
 20
-20.8063
 30
0.0
 10
-165.9022
 20
-19.8674
 30
0.0
 10
-165.9022
 20
-19.8674
 30
0.0
 10
-165.9353
 20
-20.1988
 30
0.0
 10
-166.1637
 20
-20.4785
 30
0.0
 10
-166.482
 20
-20.576
 30
0.0
 10
-166.482
 20
-20.576
 30
0.0
 10
-166.8001
 20
-20.6744
 30
0.0
 10
-167.146
 20
-20.5712
 30
0.0
 10
-167.3594
 20
-20.3158
 30
0.0
 10
-167.3594
 20
-20.3158
 30
0.0
 10
-168.2622
 20
-18.8887
 30
0.0
 10
-168.7889
 20
-17.256
 30
0.0
 10
-168.8919
 20
-15.5697
 30
0.0
 10
-168.8919
 20
-15.5697
 30
0.0
 10
-169.1137
 20
-13.0782
 30
0.0
 10
-168.5798
 20
-10.5784
 30
0.0
 10
-167.3594
 20
-8.395
 30
0.0
 10
-167.3594
 20
-8.395
 30
0.0
 10
-168.4857
 20
-8.9446
 30
0.0
 10
-169.8449
 20
-8.4975
 30
0.0
 10
-170.424
 20
-7.3862
 30
0.0
 10
-170.424
 20
-7.3862
 30
0.0
 10
-169.5206
 20
-7.1137
 30
0.0
 10
-168.69
 20
-6.6412
 30
0.0
 10
-167.9946
 20
-6.003
 30
0.0
  0
SPLINE
  5
63
330
1F
100
AcDbEntity
  8
layer 1
 62
     7
370
     9
100
AcDbSpline
210
0.0
220
0.0
230
1.0
 70
    11
 71
     3
 72
    52
 73
    48
 74
     0
 42
0.0000000001
 43
0.0000000001
 12
1.0
 22
0.0
 32
0.0
 13
1.0
 23
0.0
 33
0.0
 40
0.0
 40
0.0
 40
0.0
 40
0.0
 40
0.0769230769230769
 40
0.0769230769230769
 40
0.0769230769230769
 40
0.0769230769230769
 40
0.1538461538461539
 40
0.1538461538461539
 40
0.1538461538461539
 40
0.1538461538461539
 40
0.2307692307692308
 40
0.2307692307692308
 40
0.2307692307692308
 40
0.2307692307692308
 40
0.3076923076923077
 40
0.3076923076923077
 40
0.3076923076923077
 40
0.3076923076923077
 40
0.3846153846153846
 40
0.3846153846153846
 40
0.3846153846153846
 40
0.3846153846153846
 40
0.4615384615384616
 40
0.4615384615384616
 40
0.4615384615384616
 40
0.4615384615384616
 40
0.5384615384615384
 40
0.5384615384615384
 40
0.5384615384615384
 40
0.5384615384615384
 40
0.6153846153846154
 40
0.6153846153846154
 40
0.6153846153846154
 40
0.6153846153846154
 40
0.6923076923076923
 40
0.6923076923076923
 40
0.6923076923076923
 40
0.6923076923076923
 40
0.7692307692307693
 40
0.7692307692307693
 40
0.7692307692307693
 40
0.7692307692307693
 40
0.8461538461538461
 40
0.8461538461538461
 40
0.8461538461538461
 40
0.8461538461538461
 40
1.0
 40
1.0
 40
1.0
 40
1.0
 10
-109.7901
 20
39.804
 30
0.0
 10
-109.5306
 20
40.7055
 30
0.0
 10
-108.7998
 20
41.3931
 30
0.0
 10
-107.8841
 20
41.5974
 30
0.0
 10
-107.8841
 20
41.5974
 30
0.0
 10
-108.0913
 20
42.3466
 30
0.0
 10
-108.6077
 20
42.9716
 30
0.0
 10
-109.3042
 20
43.3162
 30
0.0
 10
-109.3042
 20
43.3162
 30
0.0
 10
-108.947
 20
43.8894
 30
0.0
 10
-108.3626
 20
44.2835
 30
0.0
 10
-107.6972
 20
44.4005
 30
0.0
 10
-107.6972
 20
44.4005
 30
0.0
 10
-108.2849
 20
46.0439
 30
0.0
 10
-107.704
 20
47.8785
 30
0.0
 10
-106.2772
 20
48.8849
 30
0.0
 10
-106.2772
 20
48.8849
 30
0.0
 10
-106.9274
 20
47.8736
 30
0.0
 10
-107.0789
 20
46.6207
 30
0.0
 10
-106.6882
 20
45.4841
 30
0.0
 10
-106.6882
 20
45.4841
 30
0.0
 10
-106.5982
 20
46.0024
 30
0.0
 10
-106.2331
 20
46.4309
 30
0.0
 10
-105.7355
 20
46.602
 30
0.0
 10
-105.7355
 20
46.602
 30
0.0
 10
-105.2379
 20
46.7732
 30
0.0
 10
-104.6866
 20
46.66
 30
0.0
 10
-104.2966
 20
46.3062
 30
0.0
 10
-104.2966
 20
46.3062
 30
0.0
 10
-105.0831
 20
46.0656
 30
0.0
 10
-105.6161
 20
45.3346
 30
0.0
 10
-105.6046
 20
44.5126
 30
0.0
 10
-105.6046
 20
44.5126
 30
0.0
 10
-105.6977
 20
43.0408
 30
0.0
 10
-104.6664
 20
41.735
 30
0.0
 10
-103.213
 20
41.4854
 30
0.0
 10
-103.213
 20
41.4854
 30
0.0
 10
-98.6799
 20
40.5904
 30
0.0
 10
-94.4336
 20
38.6017
 30
0.0
 10
-90.8435
 20
35.6932
 30
0.0
 10
-90.8435
 20
35.6932
 30
0.0
 10
-94.101
 20
37.864
 30
0.0
 10
-97.7401
 20
39.3983
 30
0.0
 10
-101.5687
 20
40.2149
 30
0.0
 10
-101.5687
 20
40.2149
 30
0.0
 10
-104.3025
 20
40.7369
 30
0.0
 10
-107.1218
 20
40.5958
 30
0.0
 10
-109.7901
 20
39.804
 30
0.0
  0
SPLINE
  5
64
330
1F
100
AcDbEntity
  8
layer 1
 62
     7
370
     9
100
AcDbSpline
210
0.0
220
0.0
230
1.0
 70
    11
 71
     3
 72
    56
 73
    52
 74
     0
 42
0.0000000001
 43
0.0000000001
 12
1.0
 22
0.0
 32
0.0
 13
1.0
 23
0.0
 33
0.0
 40
0.0
 40
0.0
 40
0.0
 40
0.0
 40
0.0714285714285714
 40
0.0714285714285714
 40
0.0714285714285714
 40
0.0714285714285714
 40
0.1428571428571428
 40
0.1428571428571428
 40
0.1428571428571428
 40
0.1428571428571428
 40
0.2142857142857143
 40
0.2142857142857143
 40
0.2142857142857143
 40
0.2142857142857143
 40
0.2857142857142857
 40
0.2857142857142857
 40
0.2857142857142857
 40
0.2857142857142857
 40
0.3571428571428572
 40
0.3571428571428572
 40
0.3571428571428572
 40
0.3571428571428572
 40
0.4285714285714285
 40
0.4285714285714285
 40
0.4285714285714285
 40
0.4285714285714285
 40
0.5
 40
0.5
 40
0.5
 40
0.5
 40
0.5714285714285714
 40
0.5714285714285714
 40
0.5714285714285714
 40
0.5714285714285714
 40
0.6428571428571429
 40
0.6428571428571429
 40
0.6428571428571429
 40
0.6428571428571429
 40
0.7142857142857143
 40
0.7142857142857143
 40
0.7142857142857143
 40
0.7142857142857143
 40
0.7857142857142857
 40
0.7857142857142857
 40
0.7857142857142857
 40
0.7857142857142857
 40
0.8571428571428571
 40
0.8571428571428571
 40
0.8571428571428571
 40
0.8571428571428571
 40
1.0
 40
1.0
 40
1.0
 40
1.0
 10
-97.5896
 20
-48.5676
 30
0.0
 10
-97.745
 20
-49.8638
 30
0.0
 10
-97.0931
 20
-51.1228
 30
0.0
 10
-95.9453
 20
-51.7442
 30
0.0
 10
-95.9453
 20
-51.7442
 30
0.0
 10
-96.0061
 20
-52.2592
 30
0.0
 10
-96.2899
 20
-52.7215
 30
0.0
 10
-96.7214
 20
-53.009
 30
0.0
 10
-96.7214
 20
-53.009
 30
0.0
 10
-97.1529
 20
-53.2967
 30
0.0
 10
-97.6887
 20
-53.3807
 30
0.0
 10
-98.1875
 20
-53.2391
 30
0.0
 10
-98.1875
 20
-53.2391
 30
0.0
 10
-98.2312
 20
-54.2766
 30
0.0
 10
-97.6803
 20
-55.2481
 30
0.0
 10
-96.7672
 20
-55.7427
 30
0.0
 10
-96.7672
 20
-55.7427
 30
0.0
 10
-98.035
 20
-57.8084
 30
0.0
 10
-98.078
 20
-60.4002
 30
0.0
 10
-96.8796
 20
-62.5067
 30
0.0
 10
-96.8796
 20
-62.5067
 30
0.0
 10
-97.0509
 20
-60.8725
 30
0.0
 10
-96.6693
 20
-59.2276
 30
0.0
 10
-95.7956
 20
-57.8356
 30
0.0
 10
-95.7956
 20
-57.8356
 30
0.0
 10
-96.1799
 20
-59.1519
 30
0.0
 10
-95.8703
 20
-60.5727
 30
0.0
 10
-94.9736
 20
-61.61
 30
0.0
 10
-94.9736
 20
-61.61
 30
0.0
 10
-94.3335
 20
-61.9922
 30
0.0
 10
-93.5288
 20
-61.963
 30
0.0
 10
-92.9183
 20
-61.5352
 30
0.0
 10
-92.9183
 20
-61.5352
 30
0.0
 10
-94.3331
 20
-60.7048
 30
0.0
 10
-94.8301
 20
-58.8992
 30
0.0
 10
-94.0393
 20
-57.462
 30
0.0
 10
-94.0393
 20
-57.462
 30
0.0
 10
-93.7438
 20
-56.9256
 30
0.0
 10
-93.4065
 20
-56.4132
 30
0.0
 10
-93.0302
 20
-55.9296
 30
0.0
 10
-93.0302
 20
-55.9296
 30
0.0
 10
-92.655
 20
-55.6511
 30
0.0
 10
-92.1692
 20
-55.5678
 30
0.0
 10
-91.7223
 20
-55.7055
 30
0.0
 10
-91.7223
 20
-55.7055
 30
0.0
 10
-85.5775
 20
-58.7474
 30
0.0
 10
-78.7023
 20
-60.0032
 30
0.0
 10
-71.8788
 20
-59.3306
 30
0.0
 10
-71.8788
 20
-59.3306
 30
0.0
 10
-81.5861
 20
-59.5443
 30
0.0
 10
-90.9292
 20
-55.633
 30
0.0
 10
-97.5896
 20
-48.5676
 30
0.0
  0
SPLINE
  5
65
330
1F
100
AcDbEntity
  8
layer 1
 62
     7
370
     9
100
AcDbSpline
210
0.0
220
0.0
230
1.0
 70
    11
 71
     3
 72
   148
 73
   144
 74
     0
 42
0.0000000001
 43
0.0000000001
 12
1.0
 22
0.0
 32
0.0
 13
1.0
 23
0.0
 33
0.0
 40
0.0
 40
0.0
 40
0.0
 40
0.0
 40
0.027027027027027
 40
0.027027027027027
 40
0.027027027027027
 40
0.027027027027027
 40
0.0540540540540541
 40
0.0540540540540541
 40
0.0540540540540541
 40
0.0540540540540541
 40
0.0810810810810811
 40
0.0810810810810811
 40
0.0810810810810811
 40
0.0810810810810811
 40
0.1081081081081081
 40
0.1081081081081081
 40
0.1081081081081081
 40
0.1081081081081081
 40
0.1351351351351351
 40
0.1351351351351351
 40
0.1351351351351351
 40
0.1351351351351351
 40
0.1621621621621622
 40
0.1621621621621622
 40
0.1621621621621622
 40
0.1621621621621622
 40
0.1891891891891892
 40
0.1891891891891892
 40
0.1891891891891892
 40
0.1891891891891892
 40
0.2162162162162162
 40
0.2162162162162162
 40
0.2162162162162162
 40
0.2162162162162162
 40
0.2432432432432433
 40
0.2432432432432433
 40
0.2432432432432433
 40
0.2432432432432433
 40
0.2702702702702703
 40
0.2702702702702703
 40
0.2702702702702703
 40
0.2702702702702703
 40
0.2972972972972973
 40
0.2972972972972973
 40
0.2972972972972973
 40
0.2972972972972973
 40
0.3243243243243243
 40
0.3243243243243243
 40
0.3243243243243243
 40
0.3243243243243243
 40
0.3513513513513514
 40
0.3513513513513514
 40
0.3513513513513514
 40
0.3513513513513514
 40
0.3783783783783784
 40
0.3783783783783784
 40
0.3783783783783784
 40
0.3783783783783784
 40
0.4054054054054054
 40
0.4054054054054054
 40
0.4054054054054054
 40
0.4054054054054054
 40
0.4324324324324325
 40
0.4324324324324325
 40
0.4324324324324325
 40
0.4324324324324325
 40
0.4594594594594595
 40
0.4594594594594595
 40
0.4594594594594595
 40
0.4594594594594595
 40
0.4864864864864865
 40
0.4864864864864865
 40
0.4864864864864865
 40
0.4864864864864865
 40
0.5135135135135135
 40
0.5135135135135135
 40
0.5135135135135135
 40
0.5135135135135135
 40
0.5405405405405406
 40
0.5405405405405406
 40
0.5405405405405406
 40
0.5405405405405406
 40
0.5675675675675675
 40
0.5675675675675675
 40
0.5675675675675675
 40
0.5675675675675675
 40
0.5945945945945946
 40
0.5945945945945946
 40
0.5945945945945946
 40
0.5945945945945946
 40
0.6216216216216216
 40
0.6216216216216216
 40
0.6216216216216216
 40
0.6216216216216216
 40
0.6486486486486487
 40
0.6486486486486487
 40
0.6486486486486487
 40
0.6486486486486487
 40
0.6756756756756757
 40
0.6756756756756757
 40
0.6756756756756757
 40
0.6756756756756757
 40
0.7027027027027027
 40
0.7027027027027027
 40
0.7027027027027027
 40
0.7027027027027027
 40
0.7297297297297297
 40
0.7297297297297297
 40
0.7297297297297297
 40
0.7297297297297297
 40
0.7567567567567568
 40
0.7567567567567568
 40
0.7567567567567568
 40
0.7567567567567568
 40
0.7837837837837838
 40
0.7837837837837838
 40
0.7837837837837838
 40
0.7837837837837838
 40
0.8108108108108109
 40
0.8108108108108109
 40
0.8108108108108109
 40
0.8108108108108109
 40
0.8378378378378378
 40
0.8378378378378378
 40
0.8378378378378378
 40
0.8378378378378378
 40
0.8648648648648649
 40
0.8648648648648649
 40
0.8648648648648649
 40
0.8648648648648649
 40
0.8918918918918919
 40
0.8918918918918919
 40
0.8918918918918919
 40
0.8918918918918919
 40
0.918918918918919
 40
0.918918918918919
 40
0.918918918918919
 40
0.918918918918919
 40
0.9459459459459459
 40
0.9459459459459459
 40
0.9459459459459459
 40
0.9459459459459459
 40
1.0
 40
1.0
 40
1.0
 40
1.0
 10
-111.1175
 20
31.7782
 30
0.0
 10
-114.1016
 20
28.1164
 30
0.0
 10
-113.6026
 20
22.7393
 30
0.0
 10
-109.9963
 20
19.6887
 30
0.0
 10
-109.9963
 20
19.6887
 30
0.0
 10
-111.837
 20
19.3957
 30
0.0
 10
-113.7208
 20
19.7953
 30
0.0
 10
-115.2841
 20
20.8097
 30
0.0
 10
-115.2841
 20
20.8097
 30
0.0
 10
-115.4601
 20
20.9085
 30
0.0
 10
-115.5836
 20
21.079
 30
0.0
 10
-115.6227
 20
21.2768
 30
0.0
 10
-115.6227
 20
21.2768
 30
0.0
 10
-115.6625
 20
21.4738
 30
0.0
 10
-115.6137
 20
21.6788
 30
0.0
 10
-115.4897
 20
21.8371
 30
0.0
 10
-115.4897
 20
21.8371
 30
0.0
 10
-115.2401
 20
22.082
 30
0.0
 10
-115.0431
 20
22.3743
 30
0.0
 10
-114.9105
 20
22.6973
 30
0.0
 10
-114.9105
 20
22.6973
 30
0.0
 10
-115.7023
 20
22.7093
 30
0.0
 10
-116.493
 20
22.74
 30
0.0
 10
-117.2838
 20
22.7906
 30
0.0
 10
-117.2838
 20
22.7906
 30
0.0
 10
-117.4056
 20
22.793
 30
0.0
 10
-117.5188
 20
22.8533
 30
0.0
 10
-117.5887
 20
22.9527
 30
0.0
 10
-117.5887
 20
22.9527
 30
0.0
 10
-117.6586
 20
23.0521
 30
0.0
 10
-117.6774
 20
23.1794
 30
0.0
 10
-117.6388
 20
23.2951
 30
0.0
 10
-117.6388
 20
23.2951
 30
0.0
 10
-116.9626
 20
24.166
 30
0.0
 10
-115.967
 20
24.7306
 30
0.0
 10
-114.8731
 20
24.8643
 30
0.0
 10
-114.8731
 20
24.8643
 30
0.0
 10
-115.6439
 20
25.3526
 30
0.0
 10
-116.2652
 20
26.0445
 30
0.0
 10
-116.6665
 20
26.8641
 30
0.0
 10
-116.6665
 20
26.8641
 30
0.0
 10
-117.5477
 20
26.2488
 30
0.0
 10
-118.6313
 20
25.9944
 30
0.0
 10
-119.6937
 20
26.1541
 30
0.0
 10
-119.6937
 20
26.1541
 30
0.0
 10
-119.554
 20
26.4922
 30
0.0
 10
-119.4775
 20
26.8532
 30
0.0
 10
-119.4696
 20
27.219
 30
0.0
 10
-119.4696
 20
27.219
 30
0.0
 10
-120.0651
 20
26.8484
 30
0.0
 10
-120.6972
 20
26.5416
 30
0.0
 10
-121.3566
 20
26.3036
 30
0.0
 10
-121.3566
 20
26.3036
 30
0.0
 10
-121.2131
 20
27.3016
 30
0.0
 10
-120.7075
 20
28.2122
 30
0.0
 10
-119.9367
 20
28.8631
 30
0.0
 10
-119.9367
 20
28.8631
 30
0.0
 10
-121.8302
 20
29.7249
 30
0.0
 10
-123.1145
 20
31.5371
 30
0.0
 10
-123.3002
 20
33.609
 30
0.0
 10
-123.3002
 20
33.609
 30
0.0
 10
-123.4653
 20
34.3824
 30
0.0
 10
-123.2502
 20
35.1887
 30
0.0
 10
-122.7211
 20
35.7762
 30
0.0
 10
-122.7211
 20
35.7762
 30
0.0
 10
-122.3251
 20
35.9667
 30
0.0
 10
-122.0931
 20
36.3861
 30
0.0
 10
-122.1418
 20
36.8231
 30
0.0
 10
-122.1418
 20
36.8231
 30
0.0
 10
-122.1756
 20
37.7518
 30
0.0
 10
-121.885
 20
38.6637
 30
0.0
 10
-121.3197
 20
39.4014
 30
0.0
 10
-121.3197
 20
39.4014
 30
0.0
 10
-121.2113
 20
39.5189
 30
0.0
 10
-121.0455
 20
39.5635
 30
0.0
 10
-120.8932
 20
39.5153
 30
0.0
 10
-120.8932
 20
39.5153
 30
0.0
 10
-120.7413
 20
39.467
 30
0.0
 10
-120.6304
 20
39.3356
 30
0.0
 10
-120.6099
 20
39.1772
 30
0.0
 10
-120.6099
 20
39.1772
 30
0.0
 10
-120.7225
 20
38.096
 30
0.0
 10
-120.7165
 20
37.0057
 30
0.0
 10
-120.5906
 20
35.9257
 30
0.0
 10
-120.5906
 20
35.9257
 30
0.0
 10
-120.4514
 20
36.171
 30
0.0
 10
-120.2525
 20
36.3772
 30
0.0
 10
-120.0115
 20
36.5242
 30
0.0
 10
-120.0115
 20
36.5242
 30
0.0
 10
-119.6691
 20
36.749
 30
0.0
 10
-119.2159
 20
36.7027
 30
0.0
 10
-118.9267
 20
36.4133
 30
0.0
 10
-118.9267
 20
36.4133
 30
0.0
 10
-118.6373
 20
36.1234
 30
0.0
 10
-118.591
 20
35.6702
 30
0.0
 10
-118.8156
 20
35.328
 30
0.0
 10
-118.8156
 20
35.328
 30
0.0
 10
-118.9393
 20
34.8753
 30
0.0
 10
-119.0767
 20
34.427
 30
0.0
 10
-119.2267
 20
33.9828
 30
0.0
 10
-119.2267
 20
33.9828
 30
0.0
 10
-119.5776
 20
31.9747
 30
0.0
 10
-118.75
 20
29.9431
 30
0.0
 10
-117.0969
 20
28.751
 30
0.0
 10
-117.0969
 20
28.751
 30
0.0
 10
-117.8791
 20
30.7392
 30
0.0
 10
-117.7845
 20
32.9655
 30
0.0
 10
-116.8353
 20
34.8795
 30
0.0
 10
-116.8353
 20
34.8795
 30
0.0
 10
-116.6823
 20
35.123
 30
0.0
 10
-116.4381
 20
35.2953
 30
0.0
 10
-116.1573
 20
35.3587
 30
0.0
 10
-116.1573
 20
35.3587
 30
0.0
 10
-115.8771
 20
35.4219
 30
0.0
 10
-115.5831
 20
35.3707
 30
0.0
 10
-115.3402
 20
35.2159
 30
0.0
 10
-115.3402
 20
35.2159
 30
0.0
 10
-114.9876
 20
36.321
 30
0.0
 10
-114.3873
 20
37.3312
 30
0.0
 10
-113.584
 20
38.1683
 30
0.0
 10
-113.584
 20
38.1683
 30
0.0
 10
-113.3411
 20
38.3605
 30
0.0
 10
-113.0091
 20
38.3967
 30
0.0
 10
-112.7303
 20
38.261
 30
0.0
 10
-112.7303
 20
38.261
 30
0.0
 10
-112.4517
 20
38.1256
 30
0.0
 10
-112.2752
 20
37.8428
 30
0.0
 10
-112.2757
 20
37.5331
 30
0.0
 10
-112.2757
 20
37.5331
 30
0.0
 10
-112.3934
 20
36.2483
 30
0.0
 10
-112.7751
 20
35.0013
 30
0.0
 10
-113.3971
 20
33.8708
 30
0.0
 10
-113.3971
 20
33.8708
 30
0.0
 10
-112.9779
 20
34.0677
 30
0.0
 10
-112.5122
 20
34.1455
 30
0.0
 10
-112.0516
 20
34.0949
 30
0.0
 10
-112.0516
 20
34.0949
 30
0.0
 10
-111.5306
 20
34.0412
 30
0.0
 10
-111.0818
 20
33.7044
 30
0.0
 10
-110.886
 20
33.218
 30
0.0
 10
-110.886
 20
33.218
 30
0.0
 10
-110.6901
 20
32.7323
 30
0.0
 10
-110.7791
 20
32.1778
 30
0.0
 10
-111.1175
 20
31.7782
 30
0.0
  0
SPLINE
  5
66
330
1F
100
AcDbEntity
  8
layer 1
 62
     7
370
     9
100
AcDbSpline
210
0.0
220
0.0
230
1.0
 70
    11
 71
     3
 72
    60
 73
    56
 74
     0
 42
0.0000000001
 43
0.0000000001
 12
1.0
 22
0.0
 32
0.0
 13
1.0
 23
0.0
 33
0.0
 40
0.0
 40
0.0
 40
0.0
 40
0.0
 40
0.0666666666666667
 40
0.0666666666666667
 40
0.0666666666666667
 40
0.0666666666666667
 40
0.1333333333333333
 40
0.1333333333333333
 40
0.1333333333333333
 40
0.1333333333333333
 40
0.2
 40
0.2
 40
0.2
 40
0.2
 40
0.2666666666666667
 40
0.2666666666666667
 40
0.2666666666666667
 40
0.2666666666666667
 40
0.3333333333333333
 40
0.3333333333333333
 40
0.3333333333333333
 40
0.3333333333333333
 40
0.4
 40
0.4
 40
0.4
 40
0.4
 40
0.4666666666666667
 40
0.4666666666666667
 40
0.4666666666666667
 40
0.4666666666666667
 40
0.5333333333333333
 40
0.5333333333333333
 40
0.5333333333333333
 40
0.5333333333333333
 40
0.6
 40
0.6
 40
0.6
 40
0.6
 40
0.6666666666666666
 40
0.6666666666666666
 40
0.6666666666666666
 40
0.6666666666666666
 40
0.7333333333333333
 40
0.7333333333333333
 40
0.7333333333333333
 40
0.7333333333333333
 40
0.8
 40
0.8
 40
0.8
 40
0.8
 40
0.8666666666666667
 40
0.8666666666666667
 40
0.8666666666666667
 40
0.8666666666666667
 40
1.0
 40
1.0
 40
1.0
 40
1.0
 10
-120.4225
 20
3.489
 30
0.0
 10
-120.6569
 20
4.6208
 30
0.0
 10
-120.4428
 20
5.8002
 30
0.0
 10
-119.8246
 20
6.7772
 30
0.0
 10
-119.8246
 20
6.7772
 30
0.0
 10
-119.6069
 20
6.9815
 30
0.0
 10
-119.5678
 20
7.3123
 30
0.0
 10
-119.7311
 20
7.5618
 30
0.0
 10
-119.7311
 20
7.5618
 30
0.0
 10
-120.3255
 20
7.9426
 30
0.0
 10
-121.0727
 20
7.9922
 30
0.0
 10
-121.7115
 20
7.6932
 30
0.0
 10
-121.7115
 20
7.6932
 30
0.0
 10
-122.0671
 20
8.7358
 30
0.0
 10
-121.7658
 20
9.8905
 30
0.0
 10
-120.9456
 20
10.6265
 30
0.0
 10
-120.9456
 20
10.6265
 30
0.0
 10
-122.6107
 20
12.3369
 30
0.0
 10
-123.1484
 20
14.8498
 30
0.0
 10
-122.3287
 20
17.0912
 30
0.0
 10
-122.3287
 20
17.0912
 30
0.0
 10
-122.2991
 20
15.5887
 30
0.0
 10
-121.6664
 20
14.161
 30
0.0
 10
-120.5718
 20
13.1305
 30
0.0
 10
-120.5718
 20
13.1305
 30
0.0
 10
-121.1294
 20
14.0218
 30
0.0
 10
-121.1855
 20
15.138
 30
0.0
 10
-120.7213
 20
16.0817
 30
0.0
 10
-120.7213
 20
16.0817
 30
0.0
 10
-120.2578
 20
17.0249
 30
0.0
 10
-119.3389
 20
17.6613
 30
0.0
 10
-118.2925
 20
17.7638
 30
0.0
 10
-118.2925
 20
17.7638
 30
0.0
 10
-118.9978
 20
17.2123
 30
0.0
 10
-119.404
 20
16.3614
 30
0.0
 10
-119.3888
 20
15.4659
 30
0.0
 10
-119.3888
 20
15.4659
 30
0.0
 10
-119.3744
 20
14.5702
 30
0.0
 10
-118.9405
 20
13.7338
 30
0.0
 10
-118.2179
 20
13.2052
 30
0.0
 10
-118.2179
 20
13.2052
 30
0.0
 10
-117.634
 20
12.5905
 30
0.0
 10
-116.7004
 20
12.4657
 30
0.0
 10
-115.9753
 20
12.9062
 30
0.0
 10
-115.9753
 20
12.9062
 30
0.0
 10
-114.5398
 20
13.8055
 30
0.0
 10
-113.1778
 20
14.8179
 30
0.0
 10
-111.9023
 20
15.9329
 30
0.0
 10
-111.9023
 20
15.9329
 30
0.0
 10
-107.9319
 20
19.9937
 30
0.0
 10
-102.8911
 20
22.8442
 30
0.0
 10
-97.3653
 20
24.1545
 30
0.0
 10
-97.3653
 20
24.1545
 30
0.0
 10
-107.095
 20
19.9586
 30
0.0
 10
-115.19
 20
12.7026
 30
0.0
 10
-120.4225
 20
3.489
 30
0.0
  0
SPLINE
  5
67
330
1F
100
AcDbEntity
  8
layer 1
 62
     7
370
     9
100
AcDbSpline
210
0.0
220
0.0
230
1.0
 70
    11
 71
     3
 72
    64
 73
    60
 74
     0
 42
0.0000000001
 43
0.0000000001
 12
1.0
 22
0.0
 32
0.0
 13
1.0
 23
0.0
 33
0.0
 40
0.0
 40
0.0
 40
0.0
 40
0.0
 40
0.0625
 40
0.0625
 40
0.0625
 40
0.0625
 40
0.125
 40
0.125
 40
0.125
 40
0.125
 40
0.1875
 40
0.1875
 40
0.1875
 40
0.1875
 40
0.25
 40
0.25
 40
0.25
 40
0.25
 40
0.3125
 40
0.3125
 40
0.3125
 40
0.3125
 40
0.375
 40
0.375
 40
0.375
 40
0.375
 40
0.4375
 40
0.4375
 40
0.4375
 40
0.4375
 40
0.5
 40
0.5
 40
0.5
 40
0.5
 40
0.5625
 40
0.5625
 40
0.5625
 40
0.5625
 40
0.625
 40
0.625
 40
0.625
 40
0.625
 40
0.6875
 40
0.6875
 40
0.6875
 40
0.6875
 40
0.75
 40
0.75
 40
0.75
 40
0.75
 40
0.8125
 40
0.8125
 40
0.8125
 40
0.8125
 40
0.875
 40
0.875
 40
0.875
 40
0.875
 40
1.0
 40
1.0
 40
1.0
 40
1.0
 10
-157.2888
 20
90.0201
 30
0.0
 10
-158.5484
 20
91.6051
 30
0.0
 10
-159.3216
 20
93.5208
 30
0.0
 10
-159.515
 20
95.5356
 30
0.0
 10
-159.515
 20
95.5356
 30
0.0
 10
-159.515
 20
95.5356
 30
0.0
 10
-162.7586
 20
95.5356
 30
0.0
 10
-162.7586
 20
95.5356
 30
0.0
 10
-162.7586
 20
95.5356
 30
0.0
 10
-162.8213
 20
94.9143
 30
0.0
 10
-162.4399
 20
94.3345
 30
0.0
 10
-161.845
 20
94.1459
 30
0.0
 10
-161.845
 20
94.1459
 30
0.0
 10
-162.72
 20
93.5551
 30
0.0
 10
-163.3709
 20
92.6873
 30
0.0
 10
-163.6921
 20
91.6816
 30
0.0
 10
-163.6921
 20
91.6816
 30
0.0
 10
-162.6507
 20
91.3338
 30
0.0
 10
-161.5033
 20
91.5477
 30
0.0
 10
-160.6572
 20
92.2481
 30
0.0
 10
-160.6572
 20
92.2481
 30
0.0
 10
-161.5008
 20
88.7653
 30
0.0
 10
-160.4606
 20
85.0944
 30
0.0
 10
-157.915
 20
82.5722
 30
0.0
 10
-157.915
 20
82.5722
 30
0.0
 10
-157.6865
 20
82.354
 30
0.0
 10
-157.3654
 20
82.2636
 30
0.0
 10
-157.0569
 20
82.3294
 30
0.0
 10
-157.0569
 20
82.3294
 30
0.0
 10
-156.7482
 20
82.3957
 30
0.0
 10
-156.4921
 20
82.6103
 30
0.0
 10
-156.3733
 20
82.9024
 30
0.0
 10
-156.3733
 20
82.9024
 30
0.0
 10
-155.4127
 20
82.2606
 30
0.0
 10
-154.2941
 20
81.8955
 30
0.0
 10
-153.1401
 20
81.8466
 30
0.0
 10
-153.1401
 20
81.8466
 30
0.0
 10
-152.7253
 20
81.9315
 30
0.0
 10
-152.3982
 20
82.2491
 30
0.0
 10
-152.2993
 20
82.6608
 30
0.0
 10
-152.2993
 20
82.6608
 30
0.0
 10
-152.9015
 20
83.9824
 30
0.0
 10
-154.0302
 20
84.9907
 30
0.0
 10
-155.4115
 20
85.4396
 30
0.0
 10
-155.4115
 20
85.4396
 30
0.0
 10
-154.7919
 20
85.6795
 30
0.0
 10
-154.2417
 20
86.0688
 30
0.0
 10
-153.8096
 20
86.5728
 30
0.0
 10
-153.8096
 20
86.5728
 30
0.0
 10
-153.5957
 20
86.9235
 30
0.0
 10
-153.5366
 20
87.3477
 30
0.0
 10
-153.6468
 20
87.7437
 30
0.0
 10
-153.6468
 20
87.7437
 30
0.0
 10
-153.7572
 20
88.1397
 30
0.0
 10
-154.0266
 20
88.4723
 30
0.0
 10
-154.3911
 20
88.6621
 30
0.0
 10
-154.3911
 20
88.6621
 30
0.0
 10
-155.4537
 20
88.8714
 30
0.0
 10
-156.4482
 20
89.3377
 30
0.0
 10
-157.2888
 20
90.0201
 30
0.0
  0
SPLINE
  5
68
330
1F
100
AcDbEntity
  8
layer 1
 62
     7
370
     9
100
AcDbSpline
210
0.0
220
0.0
230
1.0
 70
    11
 71
     3
 72
    52
 73
    48
 74
     0
 42
0.0000000001
 43
0.0000000001
 12
1.0
 22
0.0
 32
0.0
 13
1.0
 23
0.0
 33
0.0
 40
0.0
 40
0.0
 40
0.0
 40
0.0
 40
0.0769230769230769
 40
0.0769230769230769
 40
0.0769230769230769
 40
0.0769230769230769
 40
0.1538461538461539
 40
0.1538461538461539
 40
0.1538461538461539
 40
0.1538461538461539
 40
0.2307692307692308
 40
0.2307692307692308
 40
0.2307692307692308
 40
0.2307692307692308
 40
0.3076923076923077
 40
0.3076923076923077
 40
0.3076923076923077
 40
0.3076923076923077
 40
0.3846153846153846
 40
0.3846153846153846
 40
0.3846153846153846
 40
0.3846153846153846
 40
0.4615384615384616
 40
0.4615384615384616
 40
0.4615384615384616
 40
0.4615384615384616
 40
0.5384615384615384
 40
0.5384615384615384
 40
0.5384615384615384
 40
0.5384615384615384
 40
0.6153846153846154
 40
0.6153846153846154
 40
0.6153846153846154
 40
0.6153846153846154
 40
0.6923076923076923
 40
0.6923076923076923
 40
0.6923076923076923
 40
0.6923076923076923
 40
0.7692307692307693
 40
0.7692307692307693
 40
0.7692307692307693
 40
0.7692307692307693
 40
0.8461538461538461
 40
0.8461538461538461
 40
0.8461538461538461
 40
0.8461538461538461
 40
1.0
 40
1.0
 40
1.0
 40
1.0
 10
-164.5196
 20
-42.1026
 30
0.0
 10
-164.2599
 20
-41.2012
 30
0.0
 10
-163.5294
 20
-40.5133
 30
0.0
 10
-162.6134
 20
-40.309
 30
0.0
 10
-162.6134
 20
-40.309
 30
0.0
 10
-162.8206
 20
-39.5599
 30
0.0
 10
-163.3373
 20
-38.9346
 30
0.0
 10
-164.0339
 20
-38.59
 30
0.0
 10
-164.0339
 20
-38.59
 30
0.0
 10
-163.6765
 20
-38.0169
 30
0.0
 10
-163.0919
 20
-37.6226
 30
0.0
 10
-162.4265
 20
-37.5061
 30
0.0
 10
-162.4265
 20
-37.5061
 30
0.0
 10
-163.0142
 20
-35.8623
 30
0.0
 10
-162.4332
 20
-34.0281
 30
0.0
 10
-161.0067
 20
-33.022
 30
0.0
 10
-161.0067
 20
-33.022
 30
0.0
 10
-161.6569
 20
-34.0328
 30
0.0
 10
-161.8083
 20
-35.2858
 30
0.0
 10
-161.4178
 20
-36.4225
 30
0.0
 10
-161.4178
 20
-36.4225
 30
0.0
 10
-161.3272
 20
-35.904
 30
0.0
 10
-160.9626
 20
-35.4757
 30
0.0
 10
-160.4648
 20
-35.3045
 30
0.0
 10
-160.4648
 20
-35.3045
 30
0.0
 10
-159.967
 20
-35.1334
 30
0.0
 10
-159.4156
 20
-35.247
 30
0.0
 10
-159.0257
 20
-35.6004
 30
0.0
 10
-159.0257
 20
-35.6004
 30
0.0
 10
-159.8122
 20
-35.8408
 30
0.0
 10
-160.3456
 20
-36.5718
 30
0.0
 10
-160.3341
 20
-37.3942
 30
0.0
 10
-160.3341
 20
-37.3942
 30
0.0
 10
-160.4274
 20
-38.8659
 30
0.0
 10
-159.3957
 20
-40.1713
 30
0.0
 10
-157.9421
 20
-40.421
 30
0.0
 10
-157.9421
 20
-40.421
 30
0.0
 10
-153.4088
 20
-41.3162
 30
0.0
 10
-149.1631
 20
-43.3047
 30
0.0
 10
-145.573
 20
-46.2135
 30
0.0
 10
-145.573
 20
-46.2135
 30
0.0
 10
-148.8303
 20
-44.0426
 30
0.0
 10
-152.4693
 20
-42.5083
 30
0.0
 10
-156.298
 20
-41.6917
 30
0.0
 10
-156.298
 20
-41.6917
 30
0.0
 10
-159.0317
 20
-41.1695
 30
0.0
 10
-161.851
 20
-41.3106
 30
0.0
 10
-164.5196
 20
-42.1026
 30
0.0
  0
SPLINE
  5
69
330
1F
100
AcDbEntity
  8
layer 1
 62
     7
370
     9
100
AcDbSpline
210
0.0
220
0.0
230
1.0
 70
    11
 71
     3
 72
    56
 73
    52
 74
     0
 42
0.0000000001
 43
0.0000000001
 12
1.0
 22
0.0
 32
0.0
 13
1.0
 23
0.0
 33
0.0
 40
0.0
 40
0.0
 40
0.0
 40
0.0
 40
0.0714285714285714
 40
0.0714285714285714
 40
0.0714285714285714
 40
0.0714285714285714
 40
0.1428571428571428
 40
0.1428571428571428
 40
0.1428571428571428
 40
0.1428571428571428
 40
0.2142857142857143
 40
0.2142857142857143
 40
0.2142857142857143
 40
0.2142857142857143
 40
0.2857142857142857
 40
0.2857142857142857
 40
0.2857142857142857
 40
0.2857142857142857
 40
0.3571428571428572
 40
0.3571428571428572
 40
0.3571428571428572
 40
0.3571428571428572
 40
0.4285714285714285
 40
0.4285714285714285
 40
0.4285714285714285
 40
0.4285714285714285
 40
0.5
 40
0.5
 40
0.5
 40
0.5
 40
0.5714285714285714
 40
0.5714285714285714
 40
0.5714285714285714
 40
0.5714285714285714
 40
0.6428571428571429
 40
0.6428571428571429
 40
0.6428571428571429
 40
0.6428571428571429
 40
0.7142857142857143
 40
0.7142857142857143
 40
0.7142857142857143
 40
0.7142857142857143
 40
0.7857142857142857
 40
0.7857142857142857
 40
0.7857142857142857
 40
0.7857142857142857
 40
0.8571428571428571
 40
0.8571428571428571
 40
0.8571428571428571
 40
0.8571428571428571
 40
1.0
 40
1.0
 40
1.0
 40
1.0
 10
-139.222
 20
79.6957
 30
0.0
 10
-138.0335
 20
78.4675
 30
0.0
 10
-136.2683
 20
77.8112
 30
0.0
 10
-134.4561
 20
77.9239
 30
0.0
 10
-134.4561
 20
77.9239
 30
0.0
 10
-134.0181
 20
76.7336
 30
0.0
 10
-134.7147
 20
75.4468
 30
0.0
 10
-136.0308
 20
75.0141
 30
0.0
 10
-136.0308
 20
75.0141
 30
0.0
 10
-135.0721
 20
73.9107
 30
0.0
 10
-133.6552
 20
73.1995
 30
0.0
 10
-132.101
 20
73.0423
 30
0.0
 10
-132.101
 20
73.0423
 30
0.0
 10
-131.7887
 20
70.0228
 30
0.0
 10
-129.6028
 20
67.4176
 30
0.0
 10
-126.4479
 20
66.3026
 30
0.0
 10
-126.4479
 20
66.3026
 30
0.0
 10
-128.071
 20
67.8327
 30
0.0
 10
-129.0514
 20
69.8185
 30
0.0
 10
-129.2202
 20
71.9218
 30
0.0
 10
-129.2202
 20
71.9218
 30
0.0
 10
-128.38
 20
70.6834
 30
0.0
 10
-127.2422
 20
69.6282
 30
0.0
 10
-125.8904
 20
68.8295
 30
0.0
 10
-125.8904
 20
68.8295
 30
0.0
 10
-124.5079
 20
68.5475
 30
0.0
 10
-123.1224
 20
69.2906
 30
0.0
 10
-122.7517
 20
70.514
 30
0.0
 10
-122.7517
 20
70.514
 30
0.0
 10
-124.2916
 20
70.4338
 30
0.0
 10
-125.7831
 20
71.0089
 30
0.0
 10
-126.774
 20
72.0653
 30
0.0
 10
-126.774
 20
72.0653
 30
0.0
 10
-127.7653
 20
73.1213
 30
0.0
 10
-128.1401
 20
74.5332
 30
0.0
 10
-127.7846
 20
75.8748
 30
0.0
 10
-127.7846
 20
75.8748
 30
0.0
 10
-127.3459
 20
76.39
 30
0.0
 10
-126.8343
 20
76.8535
 30
0.0
 10
-126.2635
 20
77.2526
 30
0.0
 10
-126.2635
 20
77.2526
 30
0.0
 10
-124.793
 20
77.8822
 30
0.0
 10
-123.2532
 20
78.3729
 30
0.0
 10
-121.6688
 20
78.7164
 30
0.0
 10
-121.6688
 20
78.7164
 30
0.0
 10
-113.4135
 20
79.9868
 30
0.0
 10
-105.7859
 20
83.4708
 30
0.0
 10
-99.7978
 20
88.7062
 30
0.0
 10
-99.7978
 20
88.7062
 30
0.0
 10
-111.1211
 20
81.2217
 30
0.0
 10
-125.2684
 20
77.9883
 30
0.0
 10
-139.222
 20
79.6957
 30
0.0
  0
SPLINE
  5
6A
330
1F
100
AcDbEntity
  8
layer 1
 62
     7
370
     9
100
AcDbSpline
210
0.0
220
0.0
230
1.0
 70
    11
 71
     3
 72
    68
 73
    64
 74
     0
 42
0.0000000001
 43
0.0000000001
 12
1.0
 22
0.0
 32
0.0
 13
1.0
 23
0.0
 33
0.0
 40
0.0
 40
0.0
 40
0.0
 40
0.0
 40
0.0588235294117647
 40
0.0588235294117647
 40
0.0588235294117647
 40
0.0588235294117647
 40
0.1176470588235294
 40
0.1176470588235294
 40
0.1176470588235294
 40
0.1176470588235294
 40
0.1764705882352941
 40
0.1764705882352941
 40
0.1764705882352941
 40
0.1764705882352941
 40
0.2352941176470588
 40
0.2352941176470588
 40
0.2352941176470588
 40
0.2352941176470588
 40
0.2941176470588235
 40
0.2941176470588235
 40
0.2941176470588235
 40
0.2941176470588235
 40
0.3529411764705883
 40
0.3529411764705883
 40
0.3529411764705883
 40
0.3529411764705883
 40
0.4117647058823529
 40
0.4117647058823529
 40
0.4117647058823529
 40
0.4117647058823529
 40
0.4705882352941176
 40
0.4705882352941176
 40
0.4705882352941176
 40
0.4705882352941176
 40
0.5294117647058824
 40
0.5294117647058824
 40
0.5294117647058824
 40
0.5294117647058824
 40
0.5882352941176471
 40
0.5882352941176471
 40
0.5882352941176471
 40
0.5882352941176471
 40
0.6470588235294118
 40
0.6470588235294118
 40
0.6470588235294118
 40
0.6470588235294118
 40
0.7058823529411765
 40
0.7058823529411765
 40
0.7058823529411765
 40
0.7058823529411765
 40
0.7647058823529411
 40
0.7647058823529411
 40
0.7647058823529411
 40
0.7647058823529411
 40
0.8235294117647058
 40
0.8235294117647058
 40
0.8235294117647058
 40
0.8235294117647058
 40
0.8823529411764706
 40
0.8823529411764706
 40
0.8823529411764706
 40
0.8823529411764706
 40
1.0
 40
1.0
 40
1.0
 40
1.0
 10
-117.5038
 20
83.5781
 30
0.0
 10
-119.8227
 20
83.903
 30
0.0
 10
-121.8597
 20
85.4222
 30
0.0
 10
-122.9169
 20
87.6166
 30
0.0
 10
-122.9169
 20
87.6166
 30
0.0
 10
-123.0952
 20
88.3392
 30
0.0
 10
-123.1019
 20
89.0919
 30
0.0
 10
-122.9367
 20
89.8084
 30
0.0
 10
-122.9367
 20
89.8084
 30
0.0
 10
-122.9507
 20
90.0899
 30
0.0
 10
-123.0759
 20
90.3558
 30
0.0
 10
-123.2826
 20
90.5432
 30
0.0
 10
-123.2826
 20
90.5432
 30
0.0
 10
-123.4893
 20
90.7306
 30
0.0
 10
-123.7594
 20
90.8221
 30
0.0
 10
-124.0282
 20
90.7968
 30
0.0
 10
-124.0282
 20
90.7968
 30
0.0
 10
-124.4482
 20
90.6836
 30
0.0
 10
-124.8316
 20
90.4624
 30
0.0
 10
-125.1449
 20
90.1543
 30
0.0
 10
-125.1449
 20
90.1543
 30
0.0
 10
-125.0352
 20
91.1392
 30
0.0
 10
-125.3299
 20
92.1377
 30
0.0
 10
-125.9567
 20
92.9068
 30
0.0
 10
-125.9567
 20
92.9068
 30
0.0
 10
-126.2297
 20
92.9707
 30
0.0
 10
-126.5094
 20
92.8651
 30
0.0
 10
-126.6739
 20
92.6362
 30
0.0
 10
-126.6739
 20
92.6362
 30
0.0
 10
-126.9602
 20
91.9117
 30
0.0
 10
-127.0482
 20
91.1137
 30
0.0
 10
-126.9271
 20
90.3291
 30
0.0
 10
-126.9271
 20
90.3291
 30
0.0
 10
-127.135
 20
90.3441
 30
0.0
 10
-127.3326
 20
90.2521
 30
0.0
 10
-127.4568
 20
90.0821
 30
0.0
 10
-127.4568
 20
90.0821
 30
0.0
 10
-127.581
 20
89.9121
 30
0.0
 10
-127.6147
 20
89.6873
 30
0.0
 10
-127.5465
 20
89.4813
 30
0.0
 10
-127.5465
 20
89.4813
 30
0.0
 10
-126.7335
 20
87.1536
 30
0.0
 10
-124.8213
 20
85.4053
 30
0.0
 10
-122.5053
 20
84.872
 30
0.0
 10
-122.5053
 20
84.872
 30
0.0
 10
-123.1562
 20
84.5634
 30
0.0
 10
-123.5985
 20
83.9228
 30
0.0
 10
-123.675
 20
83.1773
 30
0.0
 10
-123.675
 20
83.1773
 30
0.0
 10
-122.985
 20
83.0712
 30
0.0
 10
-122.2877
 20
83.2092
 30
0.0
 10
-121.694
 20
83.569
 30
0.0
 10
-121.694
 20
83.569
 30
0.0
 10
-121.7279
 20
83.2834
 30
0.0
 10
-121.6284
 20
82.9947
 30
0.0
 10
-121.4258
 20
82.7915
 30
0.0
 10
-121.4258
 20
82.7915
 30
0.0
 10
-121.2234
 20
82.5886
 30
0.0
 10
-120.9425
 20
82.4956
 30
0.0
 10
-120.6701
 20
82.5421
 30
0.0
 10
-120.6701
 20
82.5421
 30
0.0
 10
-119.5125
 20
82.43
 30
0.0
 10
-118.3722
 20
82.8025
 30
0.0
 10
-117.5038
 20
83.5781
 30
0.0
  0
SPLINE
  5
6B
330
1F
100
AcDbEntity
  8
layer 1
 62
     7
370
     9
100
AcDbSpline
210
0.0
220
0.0
230
1.0
 70
    11
 71
     3
 72
    68
 73
    64
 74
     0
 42
0.0000000001
 43
0.0000000001
 12
1.0
 22
0.0
 32
0.0
 13
1.0
 23
0.0
 33
0.0
 40
0.0
 40
0.0
 40
0.0
 40
0.0
 40
0.0588235294117647
 40
0.0588235294117647
 40
0.0588235294117647
 40
0.0588235294117647
 40
0.1176470588235294
 40
0.1176470588235294
 40
0.1176470588235294
 40
0.1176470588235294
 40
0.1764705882352941
 40
0.1764705882352941
 40
0.1764705882352941
 40
0.1764705882352941
 40
0.2352941176470588
 40
0.2352941176470588
 40
0.2352941176470588
 40
0.2352941176470588
 40
0.2941176470588235
 40
0.2941176470588235
 40
0.2941176470588235
 40
0.2941176470588235
 40
0.3529411764705883
 40
0.3529411764705883
 40
0.3529411764705883
 40
0.3529411764705883
 40
0.4117647058823529
 40
0.4117647058823529
 40
0.4117647058823529
 40
0.4117647058823529
 40
0.4705882352941176
 40
0.4705882352941176
 40
0.4705882352941176
 40
0.4705882352941176
 40
0.5294117647058824
 40
0.5294117647058824
 40
0.5294117647058824
 40
0.5294117647058824
 40
0.5882352941176471
 40
0.5882352941176471
 40
0.5882352941176471
 40
0.5882352941176471
 40
0.6470588235294118
 40
0.6470588235294118
 40
0.6470588235294118
 40
0.6470588235294118
 40
0.7058823529411765
 40
0.7058823529411765
 40
0.7058823529411765
 40
0.7058823529411765
 40
0.7647058823529411
 40
0.7647058823529411
 40
0.7647058823529411
 40
0.7647058823529411
 40
0.8235294117647058
 40
0.8235294117647058
 40
0.8235294117647058
 40
0.8235294117647058
 40
0.8823529411764706
 40
0.8823529411764706
 40
0.8823529411764706
 40
0.8823529411764706
 40
1.0
 40
1.0
 40
1.0
 40
1.0
 10
-108.7651
 20
80.1339
 30
0.0
 10
-110.5173
 20
79.9379
 30
0.0
 10
-112.1184
 20
79.0502
 30
0.0
 10
-113.2121
 20
77.6677
 30
0.0
 10
-113.2121
 20
77.6677
 30
0.0
 10
-113.5485
 20
77.4133
 30
0.0
 10
-113.7425
 20
77.0139
 30
0.0
 10
-113.7352
 20
76.5931
 30
0.0
 10
-113.7352
 20
76.5931
 30
0.0
 10
-113.728
 20
76.1719
 30
0.0
 10
-113.5194
 20
75.7796
 30
0.0
 10
-113.1748
 20
75.5374
 30
0.0
 10
-113.1748
 20
75.5374
 30
0.0
 10
-114.1872
 20
75.2377
 30
0.0
 10
-115.0696
 20
74.6056
 30
0.0
 10
-115.6788
 20
73.7438
 30
0.0
 10
-115.6788
 20
73.7438
 30
0.0
 10
-114.7904
 20
73.0984
 30
0.0
 10
-113.6317
 20
72.9567
 30
0.0
 10
-112.6142
 20
73.3702
 30
0.0
 10
-112.6142
 20
73.3702
 30
0.0
 10
-114.4676
 20
70.3025
 30
0.0
 10
-114.5808
 20
66.4894
 30
0.0
 10
-112.9133
 20
63.317
 30
0.0
 10
-112.9133
 20
63.317
 30
0.0
 10
-112.7613
 20
63.041
 30
0.0
 10
-112.4821
 20
62.8578
 30
0.0
 10
-112.1679
 20
62.8276
 30
0.0
 10
-112.1679
 20
62.8276
 30
0.0
 10
-111.8538
 20
62.7975
 30
0.0
 10
-111.5453
 20
62.9253
 30
0.0
 10
-111.3435
 20
63.1676
 30
0.0
 10
-111.3435
 20
63.1676
 30
0.0
 10
-110.6205
 20
62.2666
 30
0.0
 10
-109.664
 20
61.5819
 30
0.0
 10
-108.5784
 20
61.1872
 30
0.0
 10
-108.5784
 20
61.1872
 30
0.0
 10
-108.1574
 20
61.1439
 30
0.0
 10
-107.7495
 20
61.3475
 30
0.0
 10
-107.532
 20
61.7103
 30
0.0
 10
-107.532
 20
61.7103
 30
0.0
 10
-107.7076
 20
63.1518
 30
0.0
 10
-108.4805
 20
64.4536
 30
0.0
 10
-109.662
 20
65.298
 30
0.0
 10
-109.662
 20
65.298
 30
0.0
 10
-108.9995
 20
65.3402
 30
0.0
 10
-108.3576
 20
65.5456
 30
0.0
 10
-107.7935
 20
65.8958
 30
0.0
 10
-107.7935
 20
65.8958
 30
0.0
 10
-107.4837
 20
66.1659
 30
0.0
 10
-107.3
 20
66.5527
 30
0.0
 10
-107.2857
 20
66.9632
 30
0.0
 10
-107.2857
 20
66.9632
 30
0.0
 10
-107.2716
 20
67.3742
 30
0.0
 10
-107.4283
 20
67.7726
 30
0.0
 10
-107.7189
 20
68.063
 30
0.0
 10
-107.7189
 20
68.063
 30
0.0
 10
-108.6687
 20
68.583
 30
0.0
 10
-109.477
 20
69.3268
 30
0.0
 10
-110.073
 20
70.2307
 30
0.0
 10
-110.073
 20
70.2307
 30
0.0
 10
-111.3401
 20
73.5407
 30
0.0
 10
-110.8481
 20
77.2664
 30
0.0
 10
-108.7651
 20
80.1339
 30
0.0
  0
SPLINE
  5
6C
330
1F
100
AcDbEntity
  8
layer 1
 62
     7
370
     9
100
AcDbSpline
210
0.0
220
0.0
230
1.0
 70
    11
 71
     3
 72
    72
 73
    68
 74
     0
 42
0.0000000001
 43
0.0000000001
 12
1.0
 22
0.0
 32
0.0
 13
1.0
 23
0.0
 33
0.0
 40
0.0
 40
0.0
 40
0.0
 40
0.0
 40
0.0555555555555556
 40
0.0555555555555556
 40
0.0555555555555556
 40
0.0555555555555556
 40
0.1111111111111111
 40
0.1111111111111111
 40
0.1111111111111111
 40
0.1111111111111111
 40
0.1666666666666667
 40
0.1666666666666667
 40
0.1666666666666667
 40
0.1666666666666667
 40
0.2222222222222222
 40
0.2222222222222222
 40
0.2222222222222222
 40
0.2222222222222222
 40
0.2777777777777778
 40
0.2777777777777778
 40
0.2777777777777778
 40
0.2777777777777778
 40
0.3333333333333333
 40
0.3333333333333333
 40
0.3333333333333333
 40
0.3333333333333333
 40
0.3888888888888889
 40
0.3888888888888889
 40
0.3888888888888889
 40
0.3888888888888889
 40
0.4444444444444444
 40
0.4444444444444444
 40
0.4444444444444444
 40
0.4444444444444444
 40
0.5
 40
0.5
 40
0.5
 40
0.5
 40
0.5555555555555556
 40
0.5555555555555556
 40
0.5555555555555556
 40
0.5555555555555556
 40
0.6111111111111112
 40
0.6111111111111112
 40
0.6111111111111112
 40
0.6111111111111112
 40
0.6666666666666666
 40
0.6666666666666666
 40
0.6666666666666666
 40
0.6666666666666666
 40
0.7222222222222222
 40
0.7222222222222222
 40
0.7222222222222222
 40
0.7222222222222222
 40
0.7777777777777778
 40
0.7777777777777778
 40
0.7777777777777778
 40
0.7777777777777778
 40
0.8333333333333334
 40
0.8333333333333334
 40
0.8333333333333334
 40
0.8333333333333334
 40
0.8888888888888888
 40
0.8888888888888888
 40
0.8888888888888888
 40
0.8888888888888888
 40
1.0
 40
1.0
 40
1.0
 40
1.0
 10
-80.4742
 20
59.3942
 30
0.0
 10
-80.6163
 20
61.8682
 30
0.0
 10
-80.168
 20
64.3403
 30
0.0
 10
-79.1661
 20
66.607
 30
0.0
 10
-79.1661
 20
66.607
 30
0.0
 10
-79.6675
 20
67.3235
 30
0.0
 10
-79.7647
 20
68.248
 30
0.0
 10
-79.4228
 20
69.0532
 30
0.0
 10
-79.4228
 20
69.0532
 30
0.0
 10
-79.0808
 20
69.859
 30
0.0
 10
-78.3485
 20
70.4309
 30
0.0
 10
-77.4845
 20
70.5683
 30
0.0
 10
-77.4845
 20
70.5683
 30
0.0
 10
-75.1239
 20
71.1107
 30
0.0
 10
-72.6443
 20
70.6062
 30
0.0
 10
-70.6831
 20
69.1857
 30
0.0
 10
-70.6831
 20
69.1857
 30
0.0
 10
-70.4824
 20
68.9483
 30
0.0
 10
-70.4824
 20
68.6006
 30
0.0
 10
-70.6831
 20
68.3632
 30
0.0
 10
-70.6831
 20
68.3632
 30
0.0
 10
-71.3256
 20
68.2016
 30
0.0
 10
-71.9418
 20
67.9497
 30
0.0
 10
-72.5141
 20
67.6158
 30
0.0
 10
-72.5141
 20
67.6158
 30
0.0
 10
-71.8938
 20
67.5218
 30
0.0
 10
-71.2708
 20
67.4471
 30
0.0
 10
-70.6457
 20
67.3916
 30
0.0
 10
-70.6457
 20
67.3916
 30
0.0
 10
-71.3769
 20
66.4225
 30
0.0
 10
-72.1371
 20
65.4752
 30
0.0
 10
-72.9251
 20
64.5513
 30
0.0
 10
-72.9251
 20
64.5513
 30
0.0
 10
-73.0949
 20
64.4024
 30
0.0
 10
-73.1194
 20
64.147
 30
0.0
 10
-72.9805
 20
63.9684
 30
0.0
 10
-72.9805
 20
63.9684
 30
0.0
 10
-72.8418
 20
63.7908
 30
0.0
 10
-72.5882
 20
63.751
 30
0.0
 10
-72.402
 20
63.8787
 30
0.0
 10
-72.402
 20
63.8787
 30
0.0
 10
-71.9117
 20
64.7025
 30
0.0
 10
-71.2164
 20
65.3848
 30
0.0
 10
-70.3841
 20
65.8596
 30
0.0
 10
-70.3841
 20
65.8596
 30
0.0
 10
-70.4323
 20
63.725
 30
0.0
 10
-70.9289
 20
61.6241
 30
0.0
 10
-71.8415
 20
59.6938
 30
0.0
 10
-71.8415
 20
59.6938
 30
0.0
 10
-72.1458
 20
58.964
 30
0.0
 10
-72.9584
 20
58.5902
 30
0.0
 10
-73.7101
 20
58.8338
 30
0.0
 10
-73.7101
 20
58.8338
 30
0.0
 10
-74.0825
 20
58.894
 30
0.0
 10
-74.4633
 20
58.8813
 30
0.0
 10
-74.8311
 20
58.7964
 30
0.0
 10
-74.8311
 20
58.7964
 30
0.0
 10
-75.1181
 20
58.5096
 30
0.0
 10
-75.5609
 20
58.4486
 30
0.0
 10
-75.9147
 20
58.6469
 30
0.0
 10
-75.9147
 20
58.6469
 30
0.0
 10
-76.2549
 20
59.0344
 30
0.0
 10
-76.8275
 20
59.114
 30
0.0
 10
-77.2602
 20
58.8338
 30
0.0
 10
-77.2602
 20
58.8338
 30
0.0
 10
-78.3563
 20
58.4517
 30
0.0
 10
-79.572
 20
58.6638
 30
0.0
 10
-80.4742
 20
59.3942
 30
0.0
  0
SPLINE
  5
6D
330
1F
100
AcDbEntity
  8
layer 1
 62
     7
370
     9
100
AcDbSpline
210
0.0
220
0.0
230
1.0
 70
    11
 71
     3
 72
    12
 73
     8
 74
     0
 42
0.0000000001
 43
0.0000000001
 12
1.0
 22
0.0
 32
0.0
 13
1.0
 23
0.0
 33
0.0
 40
0.0
 40
0.0
 40
0.0
 40
0.0
 40
0.3333333333333333
 40
0.3333333333333333
 40
0.3333333333333333
 40
0.3333333333333333
 40
1.0
 40
1.0
 40
1.0
 40
1.0
 10
-68.8145
 20
67.6906
 30
0.0
 10
-69.5542
 20
68.9609
 30
0.0
 10
-69.5542
 20
70.5309
 30
0.0
 10
-68.8145
 20
71.8014
 30
0.0
 10
-68.8145
 20
71.8014
 30
0.0
 10
-68.8145
 20
71.8014
 30
0.0
 10
-68.8145
 20
67.6906
 30
0.0
 10
-68.8145
 20
67.6906
 30
0.0
  0
SPLINE
  5
6E
330
1F
100
AcDbEntity
  8
layer 1
 62
     7
370
     9
100
AcDbSpline
210
0.0
220
0.0
230
1.0
 70
    11
 71
     3
 72
    20
 73
    16
 74
     0
 42
0.0000000001
 43
0.0000000001
 12
1.0
 22
0.0
 32
0.0
 13
1.0
 23
0.0
 33
0.0
 40
0.0
 40
0.0
 40
0.0
 40
0.0
 40
0.2
 40
0.2
 40
0.2
 40
0.2
 40
0.4
 40
0.4
 40
0.4
 40
0.4
 40
0.6
 40
0.6
 40
0.6
 40
0.6
 40
1.0
 40
1.0
 40
1.0
 40
1.0
 10
-148.4128
 20
-10.901
 30
0.0
 10
-148.9285
 20
-10.901
 30
0.0
 10
-149.3474
 20
-11.7536
 30
0.0
 10
-149.3474
 20
-12.8059
 30
0.0
 10
-149.3474
 20
-12.8059
 30
0.0
 10
-149.3474
 20
-13.8576
 30
0.0
 10
-148.9285
 20
-14.7104
 30
0.0
 10
-148.4128
 20
-14.7104
 30
0.0
 10
-148.4128
 20
-14.7104
 30
0.0
 10
-147.8969
 20
-14.7104
 30
0.0
 10
-147.4787
 20
-13.8576
 30
0.0
 10
-147.4787
 20
-12.8059
 30
0.0
 10
-147.4787
 20
-12.8059
 30
0.0
 10
-147.4787
 20
-11.7536
 30
0.0
 10
-147.8969
 20
-10.901
 30
0.0
 10
-148.4128
 20
-10.901
 30
0.0
  0
SPLINE
  5
6F
330
1F
100
AcDbEntity
  8
layer 1
 62
     7
370
     9
100
AcDbSpline
210
0.0
220
0.0
230
1.0
 70
    11
 71
     3
 72
    60
 73
    56
 74
     0
 42
0.0000000001
 43
0.0000000001
 12
1.0
 22
0.0
 32
0.0
 13
1.0
 23
0.0
 33
0.0
 40
0.0
 40
0.0
 40
0.0
 40
0.0
 40
0.0666666666666667
 40
0.0666666666666667
 40
0.0666666666666667
 40
0.0666666666666667
 40
0.1333333333333333
 40
0.1333333333333333
 40
0.1333333333333333
 40
0.1333333333333333
 40
0.2
 40
0.2
 40
0.2
 40
0.2
 40
0.2666666666666667
 40
0.2666666666666667
 40
0.2666666666666667
 40
0.2666666666666667
 40
0.3333333333333333
 40
0.3333333333333333
 40
0.3333333333333333
 40
0.3333333333333333
 40
0.4
 40
0.4
 40
0.4
 40
0.4
 40
0.4666666666666667
 40
0.4666666666666667
 40
0.4666666666666667
 40
0.4666666666666667
 40
0.5333333333333333
 40
0.5333333333333333
 40
0.5333333333333333
 40
0.5333333333333333
 40
0.6
 40
0.6
 40
0.6
 40
0.6
 40
0.6666666666666666
 40
0.6666666666666666
 40
0.6666666666666666
 40
0.6666666666666666
 40
0.7333333333333333
 40
0.7333333333333333
 40
0.7333333333333333
 40
0.7333333333333333
 40
0.8
 40
0.8
 40
0.8
 40
0.8
 40
0.8666666666666667
 40
0.8666666666666667
 40
0.8666666666666667
 40
0.8666666666666667
 40
1.0
 40
1.0
 40
1.0
 40
1.0
 10
-158.1663
 20
-18.374
 30
0.0
 10
-156.2582
 20
-18.5366
 30
0.0
 10
-154.3375
 20
-18.4614
 30
0.0
 10
-152.4482
 20
-18.1498
 30
0.0
 10
-152.4482
 20
-18.1498
 30
0.0
 10
-152.5989
 20
-19.0706
 30
0.0
 10
-153.0762
 20
-19.9065
 30
0.0
 10
-153.7939
 20
-20.5038
 30
0.0
 10
-153.7939
 20
-20.5038
 30
0.0
 10
-153.7801
 20
-20.6852
 30
0.0
 10
-153.762
 20
-20.8659
 30
0.0
 10
-153.7379
 20
-21.0456
 30
0.0
 10
-153.7379
 20
-21.0456
 30
0.0
 10
-153.3583
 20
-21.0612
 30
0.0
 10
-152.978
 20
-21.0673
 30
0.0
 10
-152.5977
 20
-21.0643
 30
0.0
 10
-152.5977
 20
-21.0643
 30
0.0
 10
-152.7496
 20
-22.2299
 30
0.0
 10
-152.9051
 20
-23.3941
 30
0.0
 10
-153.0653
 20
-24.5585
 30
0.0
 10
-153.0653
 20
-24.5585
 30
0.0
 10
-152.4199
 20
-23.3381
 30
0.0
 10
-152.0444
 20
-21.9936
 30
0.0
 10
-151.9624
 20
-20.6158
 30
0.0
 10
-151.9624
 20
-20.6158
 30
0.0
 10
-151.8076
 20
-19.7463
 30
0.0
 10
-151.435
 20
-18.9297
 30
0.0
 10
-150.8788
 20
-18.2431
 30
0.0
 10
-150.8788
 20
-18.2431
 30
0.0
 10
-150.6089
 20
-20.5104
 30
0.0
 10
-150.7486
 20
-22.8078
 30
0.0
 10
-151.2898
 20
-25.0258
 30
0.0
 10
-151.2898
 20
-25.0258
 30
0.0
 10
-151.5346
 20
-25.7752
 30
0.0
 10
-151.8606
 20
-26.4958
 30
0.0
 10
-152.2613
 20
-27.1743
 30
0.0
 10
-152.2613
 20
-27.1743
 30
0.0
 10
-152.7778
 20
-27.7458
 30
0.0
 10
-153.6132
 20
-27.899
 30
0.0
 10
-154.2984
 20
-27.5483
 30
0.0
 10
-154.2984
 20
-27.5483
 30
0.0
 10
-154.5926
 20
-27.323
 30
0.0
 10
-154.9969
 20
-27.3081
 30
0.0
 10
-155.3072
 20
-27.5109
 30
0.0
 10
-155.3072
 20
-27.5109
 30
0.0
 10
-156.1648
 20
-27.7243
 30
0.0
 10
-157.07
 20
-27.6318
 30
0.0
 10
-157.8673
 20
-27.2493
 30
0.0
 10
-157.8673
 20
-27.2493
 30
0.0
 10
-158.1174
 20
-25.6447
 30
0.0
 10
-158.0089
 20
-24.0048
 30
0.0
 10
-157.5492
 20
-22.4473
 30
0.0
 10
-157.5492
 20
-22.4473
 30
0.0
 10
-158.2073
 20
-21.1975
 30
0.0
 10
-158.4249
 20
-19.7625
 30
0.0
 10
-158.1663
 20
-18.374
 30
0.0
  0
SPLINE
  5
70
330
1F
100
AcDbEntity
  8
layer 1
 62
     7
370
     9
100
AcDbSpline
210
0.0
220
0.0
230
1.0
 70
    11
 71
     3
 72
    64
 73
    60
 74
     0
 42
0.0000000001
 43
0.0000000001
 12
1.0
 22
0.0
 32
0.0
 13
1.0
 23
0.0
 33
0.0
 40
0.0
 40
0.0
 40
0.0
 40
0.0
 40
0.0625
 40
0.0625
 40
0.0625
 40
0.0625
 40
0.125
 40
0.125
 40
0.125
 40
0.125
 40
0.1875
 40
0.1875
 40
0.1875
 40
0.1875
 40
0.25
 40
0.25
 40
0.25
 40
0.25
 40
0.3125
 40
0.3125
 40
0.3125
 40
0.3125
 40
0.375
 40
0.375
 40
0.375
 40
0.375
 40
0.4375
 40
0.4375
 40
0.4375
 40
0.4375
 40
0.5
 40
0.5
 40
0.5
 40
0.5
 40
0.5625
 40
0.5625
 40
0.5625
 40
0.5625
 40
0.625
 40
0.625
 40
0.625
 40
0.625
 40
0.6875
 40
0.6875
 40
0.6875
 40
0.6875
 40
0.75
 40
0.75
 40
0.75
 40
0.75
 40
0.8125
 40
0.8125
 40
0.8125
 40
0.8125
 40
0.875
 40
0.875
 40
0.875
 40
0.875
 40
1.0
 40
1.0
 40
1.0
 40
1.0
 10
-149.0854
 20
-16.7666
 30
0.0
 10
-150.4666
 20
-19.8167
 30
0.0
 10
-150.4799
 20
-23.3111
 30
0.0
 10
-149.1226
 20
-26.3709
 30
0.0
 10
-149.1226
 20
-26.3709
 30
0.0
 10
-148.7309
 20
-27.0536
 30
0.0
 10
-148.2674
 20
-27.6927
 30
0.0
 10
-147.7395
 20
-28.2769
 30
0.0
 10
-147.7395
 20
-28.2769
 30
0.0
 10
-147.6396
 20
-28.4052
 30
0.0
 10
-147.4863
 20
-28.4817
 30
0.0
 10
-147.3237
 20
-28.4855
 30
0.0
 10
-147.3237
 20
-28.4855
 30
0.0
 10
-147.1609
 20
-28.4891
 30
0.0
 10
-147.0049
 20
-28.4194
 30
0.0
 10
-146.8988
 20
-28.2955
 30
0.0
 10
-146.8988
 20
-28.2955
 30
0.0
 10
-146.8717
 20
-28.2062
 30
0.0
 10
-146.7946
 20
-28.1411
 30
0.0
 10
-146.7024
 20
-28.1288
 30
0.0
 10
-146.7024
 20
-28.1288
 30
0.0
 10
-146.6096
 20
-28.1168
 30
0.0
 10
-146.5186
 20
-28.1601
 30
0.0
 10
-146.4692
 20
-28.2395
 30
0.0
 10
-146.4692
 20
-28.2395
 30
0.0
 10
-146.1719
 20
-29.092
 30
0.0
 10
-145.6488
 20
-29.8476
 30
0.0
 10
-144.9558
 20
-30.4258
 30
0.0
 10
-144.9558
 20
-30.4258
 30
0.0
 10
-144.796
 20
-30.7964
 30
0.0
 10
-144.6828
 20
-31.1854
 30
0.0
 10
-144.6196
 20
-31.5843
 30
0.0
 10
-144.6196
 20
-31.5843
 30
0.0
 10
-142.5663
 20
-28.2072
 30
0.0
 10
-141.966
 20
-24.1432
 30
0.0
 10
-142.9561
 20
-20.317
 30
0.0
 10
-142.9561
 20
-20.317
 30
0.0
 10
-143.6168
 20
-18.9092
 30
0.0
 10
-144.6189
 20
-17.6887
 30
0.0
 10
-145.8713
 20
-16.7666
 30
0.0
 10
-145.8713
 20
-16.7666
 30
0.0
 10
-145.6043
 20
-18.6856
 30
0.0
 10
-145.5477
 20
-20.628
 30
0.0
 10
-145.7032
 20
-22.5594
 30
0.0
 10
-145.7032
 20
-22.5594
 30
0.0
 10
-146.5317
 20
-20.7937
 30
0.0
 10
-147.1525
 20
-18.9374
 30
0.0
 10
-147.5528
 20
-17.0281
 30
0.0
 10
-147.5528
 20
-17.0281
 30
0.0
 10
-148.0313
 20
-17.2651
 30
0.0
 10
-148.2855
 20
-17.7972
 30
0.0
 10
-148.1699
 20
-18.3179
 30
0.0
 10
-148.1699
 20
-18.3179
 30
0.0
 10
-147.6685
 20
-19.8939
 30
0.0
 10
-147.5719
 20
-21.5711
 30
0.0
 10
-147.889
 20
-23.1947
 30
0.0
 10
-147.889
 20
-23.1947
 30
0.0
 10
-148.0964
 20
-21.0209
 30
0.0
 10
-148.4965
 20
-18.8694
 30
0.0
 10
-149.0854
 20
-16.7666
 30
0.0
  0
SPLINE
  5
71
330
1F
100
AcDbEntity
  8
layer 1
 62
     7
370
     9
100
AcDbSpline
210
0.0
220
0.0
230
1.0
 70
    11
 71
     3
 72
   104
 73
   100
 74
     0
 42
0.0000000001
 43
0.0000000001
 12
1.0
 22
0.0
 32
0.0
 13
1.0
 23
0.0
 33
0.0
 40
0.0
 40
0.0
 40
0.0
 40
0.0
 40
0.0384615384615385
 40
0.0384615384615385
 40
0.0384615384615385
 40
0.0384615384615385
 40
0.0769230769230769
 40
0.0769230769230769
 40
0.0769230769230769
 40
0.0769230769230769
 40
0.1153846153846154
 40
0.1153846153846154
 40
0.1153846153846154
 40
0.1153846153846154
 40
0.1538461538461539
 40
0.1538461538461539
 40
0.1538461538461539
 40
0.1538461538461539
 40
0.1923076923076923
 40
0.1923076923076923
 40
0.1923076923076923
 40
0.1923076923076923
 40
0.2307692307692308
 40
0.2307692307692308
 40
0.2307692307692308
 40
0.2307692307692308
 40
0.2692307692307692
 40
0.2692307692307692
 40
0.2692307692307692
 40
0.2692307692307692
 40
0.3076923076923077
 40
0.3076923076923077
 40
0.3076923076923077
 40
0.3076923076923077
 40
0.3461538461538461
 40
0.3461538461538461
 40
0.3461538461538461
 40
0.3461538461538461
 40
0.3846153846153846
 40
0.3846153846153846
 40
0.3846153846153846
 40
0.3846153846153846
 40
0.4230769230769231
 40
0.4230769230769231
 40
0.4230769230769231
 40
0.4230769230769231
 40
0.4615384615384616
 40
0.4615384615384616
 40
0.4615384615384616
 40
0.4615384615384616
 40
0.5
 40
0.5
 40
0.5
 40
0.5
 40
0.5384615384615384
 40
0.5384615384615384
 40
0.5384615384615384
 40
0.5384615384615384
 40
0.5769230769230769
 40
0.5769230769230769
 40
0.5769230769230769
 40
0.5769230769230769
 40
0.6153846153846154
 40
0.6153846153846154
 40
0.6153846153846154
 40
0.6153846153846154
 40
0.6538461538461539
 40
0.6538461538461539
 40
0.6538461538461539
 40
0.6538461538461539
 40
0.6923076923076923
 40
0.6923076923076923
 40
0.6923076923076923
 40
0.6923076923076923
 40
0.7307692307692307
 40
0.7307692307692307
 40
0.7307692307692307
 40
0.7307692307692307
 40
0.7692307692307693
 40
0.7692307692307693
 40
0.7692307692307693
 40
0.7692307692307693
 40
0.8076923076923077
 40
0.8076923076923077
 40
0.8076923076923077
 40
0.8076923076923077
 40
0.8461538461538461
 40
0.8461538461538461
 40
0.8461538461538461
 40
0.8461538461538461
 40
0.8846153846153846
 40
0.8846153846153846
 40
0.8846153846153846
 40
0.8846153846153846
 40
0.9230769230769231
 40
0.9230769230769231
 40
0.9230769230769231
 40
0.9230769230769231
 40
1.0
 40
1.0
 40
1.0
 40
1.0
 10
-143.6661
 20
-9.9468
 30
0.0
 10
-142.712
 20
-9.6901
 30
0.0
 10
-141.7166
 20
-10.1879
 30
0.0
 10
-141.3494
 20
-11.1051
 30
0.0
 10
-141.3494
 20
-11.1051
 30
0.0
 10
-141.2572
 20
-11.2848
 30
0.0
 10
-141.2596
 20
-11.4982
 30
0.0
 10
-141.358
 20
-11.6742
 30
0.0
 10
-141.358
 20
-11.6742
 30
0.0
 10
-141.4548
 20
-11.8506
 30
0.0
 10
-141.6346
 20
-11.967
 30
0.0
 10
-141.8353
 20
-11.9832
 30
0.0
 10
-141.8353
 20
-11.9832
 30
0.0
 10
-142.3668
 20
-11.7874
 30
0.0
 10
-142.9182
 20
-11.6494
 30
0.0
 10
-143.4799
 20
-11.5722
 30
0.0
 10
-143.4799
 20
-11.5722
 30
0.0
 10
-143.7222
 20
-11.6
 30
0.0
 10
-143.932
 20
-11.7531
 30
0.0
 10
-144.0319
 20
-11.9755
 30
0.0
 10
-144.0319
 20
-11.9755
 30
0.0
 10
-144.132
 20
-12.1984
 30
0.0
 10
-144.106
 20
-12.4569
 30
0.0
 10
-143.9651
 20
-12.6565
 30
0.0
 10
-143.9651
 20
-12.6565
 30
0.0
 10
-143.401
 20
-12.9252
 30
0.0
 10
-142.9225
 20
-13.3459
 30
0.0
 10
-142.5825
 20
-13.8708
 30
0.0
 10
-142.5825
 20
-13.8708
 30
0.0
 10
-142.4607
 20
-14.0047
 30
0.0
 10
-142.4385
 20
-14.2017
 30
0.0
 10
-142.5277
 20
-14.359
 30
0.0
 10
-142.5277
 20
-14.359
 30
0.0
 10
-142.6175
 20
-14.5163
 30
0.0
 10
-142.7976
 20
-14.5982
 30
0.0
 10
-142.9749
 20
-14.5621
 30
0.0
 10
-142.9749
 20
-14.5621
 30
0.0
 10
-143.5577
 20
-14.2312
 30
0.0
 10
-144.188
 20
-13.9914
 30
0.0
 10
-144.8437
 20
-13.8521
 30
0.0
 10
-144.8437
 20
-13.8521
 30
0.0
 10
-145.2168
 20
-13.7835
 30
0.0
 10
-145.6019
 20
-13.8714
 30
0.0
 10
-145.9087
 20
-14.0951
 30
0.0
 10
-145.9087
 20
-14.0951
 30
0.0
 10
-144.992
 20
-15.3492
 30
0.0
 10
-143.7956
 20
-16.3725
 30
0.0
 10
-142.4144
 20
-17.0843
 30
0.0
 10
-142.4144
 20
-17.0843
 30
0.0
 10
-141.4796
 20
-17.6706
 30
0.0
 10
-140.2496
 20
-17.4248
 30
0.0
 10
-139.6121
 20
-16.5238
 30
0.0
 10
-139.6121
 20
-16.5238
 30
0.0
 10
-139.5825
 20
-16.3262
 30
0.0
 10
-139.4457
 20
-16.1603
 30
0.0
 10
-139.2571
 20
-16.094
 30
0.0
 10
-139.2571
 20
-16.094
 30
0.0
 10
-138.1367
 20
-15.5589
 30
0.0
 10
-137.505
 20
-14.3481
 30
0.0
 10
-137.7064
 20
-13.1235
 30
0.0
 10
-137.7064
 20
-13.1235
 30
0.0
 10
-137.9684
 20
-12.821
 30
0.0
 10
-137.9601
 20
-12.3696
 30
0.0
 10
-137.6871
 20
-12.0766
 30
0.0
 10
-137.6871
 20
-12.0766
 30
0.0
 10
-137.3774
 20
-11.7369
 30
0.0
 10
-137.22
 20
-11.2853
 30
0.0
 10
-137.252
 20
-10.8261
 30
0.0
 10
-137.252
 20
-10.8261
 30
0.0
 10
-137.2839
 20
-10.3674
 30
0.0
 10
-137.5014
 20
-9.9421
 30
0.0
 10
-137.8552
 20
-9.6479
 30
0.0
 10
-137.8552
 20
-9.6479
 30
0.0
 10
-137.9696
 20
-9.552
 30
0.0
 10
-138.095
 20
-9.4702
 30
0.0
 10
-138.2288
 20
-9.4051
 30
0.0
 10
-138.2288
 20
-9.4051
 30
0.0
 10
-138.4188
 20
-9.3646
 30
0.0
 10
-138.5833
 20
-9.2466
 30
0.0
 10
-138.6827
 20
-9.0802
 30
0.0
 10
-138.6827
 20
-9.0802
 30
0.0
 10
-138.7815
 20
-8.9133
 30
0.0
 10
-138.8067
 20
-8.7126
 30
0.0
 10
-138.7519
 20
-8.527
 30
0.0
 10
-138.7519
 20
-8.527
 30
0.0
 10
-138.796
 20
-7.4837
 30
0.0
 10
-139.5048
 20
-6.587
 30
0.0
 10
-140.5088
 20
-6.3031
 30
0.0
 10
-140.5088
 20
-6.3031
 30
0.0
 10
-141.8098
 20
-5.9819
 30
0.0
 10
-143.1864
 20
-6.2935
 30
0.0
 10
-144.2236
 20
-7.1426
 30
0.0
 10
-144.2236
 20
-7.1426
 30
0.0
 10
-145.2602
 20
-7.9923
 30
0.0
 10
-145.8362
 20
-9.2802
 30
0.0
 10
-145.7778
 20
-10.6194
 30
0.0
 10
-145.7778
 20
-10.6194
 30
0.0
 10
-145.0986
 20
-10.3247
 30
0.0
 10
-144.3912
 20
-10.0994
 30
0.0
 10
-143.6661
 20
-9.9468
 30
0.0
  0
SPLINE
  5
72
330
1F
100
AcDbEntity
  8
layer 1
 62
     7
370
     9
100
AcDbSpline
210
0.0
220
0.0
230
1.0
 70
    11
 71
     3
 72
    64
 73
    60
 74
     0
 42
0.0000000001
 43
0.0000000001
 12
1.0
 22
0.0
 32
0.0
 13
1.0
 23
0.0
 33
0.0
 40
0.0
 40
0.0
 40
0.0
 40
0.0
 40
0.0625
 40
0.0625
 40
0.0625
 40
0.0625
 40
0.125
 40
0.125
 40
0.125
 40
0.125
 40
0.1875
 40
0.1875
 40
0.1875
 40
0.1875
 40
0.25
 40
0.25
 40
0.25
 40
0.25
 40
0.3125
 40
0.3125
 40
0.3125
 40
0.3125
 40
0.375
 40
0.375
 40
0.375
 40
0.375
 40
0.4375
 40
0.4375
 40
0.4375
 40
0.4375
 40
0.5
 40
0.5
 40
0.5
 40
0.5
 40
0.5625
 40
0.5625
 40
0.5625
 40
0.5625
 40
0.625
 40
0.625
 40
0.625
 40
0.625
 40
0.6875
 40
0.6875
 40
0.6875
 40
0.6875
 40
0.75
 40
0.75
 40
0.75
 40
0.75
 40
0.8125
 40
0.8125
 40
0.8125
 40
0.8125
 40
0.875
 40
0.875
 40
0.875
 40
0.875
 40
1.0
 40
1.0
 40
1.0
 40
1.0
 10
-146.2823
 20
-4.0799
 30
0.0
 10
-147.0386
 20
-4.6325
 30
0.0
 10
-147.4153
 20
-5.5673
 30
0.0
 10
-147.2538
 20
-6.49
 30
0.0
 10
-147.2538
 20
-6.49
 30
0.0
 10
-147.3237
 20
-6.6919
 30
0.0
 10
-147.508
 20
-6.8324
 30
0.0
 10
-147.7209
 20
-6.845
 30
0.0
 10
-147.7209
 20
-6.845
 30
0.0
 10
-147.7083
 20
-6.6009
 30
0.0
 10
-147.7269
 20
-6.3556
 30
0.0
 10
-147.7769
 20
-6.1164
 30
0.0
 10
-147.7769
 20
-6.1164
 30
0.0
 10
-147.8969
 20
-5.8554
 30
0.0
 10
-148.1806
 20
-5.7113
 30
0.0
 10
-148.4627
 20
-5.7693
 30
0.0
 10
-148.4627
 20
-5.7693
 30
0.0
 10
-148.7435
 20
-5.8277
 30
0.0
 10
-148.9478
 20
-6.0723
 30
0.0
 10
-148.9545
 20
-6.3591
 30
0.0
 10
-148.9545
 20
-6.3591
 30
0.0
 10
-148.8551
 20
-7.1981
 30
0.0
 10
-148.9509
 20
-8.0485
 30
0.0
 10
-149.2348
 20
-8.8446
 30
0.0
 10
-149.2348
 20
-8.8446
 30
0.0
 10
-150.3769
 20
-6.7382
 30
0.0
 10
-151.3031
 20
-4.5223
 30
0.0
 10
-151.9998
 20
-2.2297
 30
0.0
 10
-151.9998
 20
-2.2297
 30
0.0
 10
-152.3379
 20
-1.4203
 30
0.0
 10
-152.2969
 20
-0.5019
 30
0.0
 10
-151.8877
 20
0.2739
 30
0.0
 10
-151.8877
 20
0.2739
 30
0.0
 10
-150.5955
 20
1.4653
 30
0.0
 10
-150.3154
 20
3.3986
 30
0.0
 10
-151.2152
 20
4.9078
 30
0.0
 10
-151.2152
 20
4.9078
 30
0.0
 10
-149.6795
 20
4.5165
 30
0.0
 10
-148.379
 20
3.4999
 30
0.0
 10
-147.6275
 20
2.1052
 30
0.0
 10
-147.6275
 20
2.1052
 30
0.0
 10
-146.885
 20
2.4385
 30
0.0
 10
-146.0129
 20
2.2747
 30
0.0
 10
-145.4416
 20
1.6942
 30
0.0
 10
-145.4416
 20
1.6942
 30
0.0
 10
-144.684
 20
-0.0287
 30
0.0
 10
-144.514
 20
-1.9519
 30
0.0
 10
-144.9558
 20
-3.7809
 30
0.0
 10
-144.9558
 20
-3.7809
 30
0.0
 10
-145.4097
 20
-5.4136
 30
0.0
 10
-146.1292
 20
-6.96
 30
0.0
 10
-147.0857
 20
-8.3583
 30
0.0
 10
-147.0857
 20
-8.3583
 30
0.0
 10
-147.2274
 20
-7.9954
 30
0.0
 10
-147.214
 20
-7.5903
 30
0.0
 10
-147.0483
 20
-7.2372
 30
0.0
 10
-147.0483
 20
-7.2372
 30
0.0
 10
-146.6101
 20
-6.238
 30
0.0
 10
-146.3505
 20
-5.1689
 30
0.0
 10
-146.2823
 20
-4.0799
 30
0.0
  0
SPLINE
  5
73
330
1F
100
AcDbEntity
  8
layer 1
 62
     7
370
     9
100
AcDbSpline
210
0.0
220
0.0
230
1.0
 70
    11
 71
     3
 72
    60
 73
    56
 74
     0
 42
0.0000000001
 43
0.0000000001
 12
1.0
 22
0.0
 32
0.0
 13
1.0
 23
0.0
 33
0.0
 40
0.0
 40
0.0
 40
0.0
 40
0.0
 40
0.0666666666666667
 40
0.0666666666666667
 40
0.0666666666666667
 40
0.0666666666666667
 40
0.1333333333333333
 40
0.1333333333333333
 40
0.1333333333333333
 40
0.1333333333333333
 40
0.2
 40
0.2
 40
0.2
 40
0.2
 40
0.2666666666666667
 40
0.2666666666666667
 40
0.2666666666666667
 40
0.2666666666666667
 40
0.3333333333333333
 40
0.3333333333333333
 40
0.3333333333333333
 40
0.3333333333333333
 40
0.4
 40
0.4
 40
0.4
 40
0.4
 40
0.4666666666666667
 40
0.4666666666666667
 40
0.4666666666666667
 40
0.4666666666666667
 40
0.5333333333333333
 40
0.5333333333333333
 40
0.5333333333333333
 40
0.5333333333333333
 40
0.6
 40
0.6
 40
0.6
 40
0.6
 40
0.6666666666666666
 40
0.6666666666666666
 40
0.6666666666666666
 40
0.6666666666666666
 40
0.7333333333333333
 40
0.7333333333333333
 40
0.7333333333333333
 40
0.7333333333333333
 40
0.8
 40
0.8
 40
0.8
 40
0.8
 40
0.8666666666666667
 40
0.8666666666666667
 40
0.8666666666666667
 40
0.8666666666666667
 40
1.0
 40
1.0
 40
1.0
 40
1.0
 10
-157.4564
 20
-5.9295
 30
0.0
 10
-157.528
 20
-5.2653
 30
0.0
 10
-157.2195
 20
-4.6163
 30
0.0
 10
-156.6585
 20
-4.2534
 30
0.0
 10
-156.6585
 20
-4.2534
 30
0.0
 10
-156.0973
 20
-3.8901
 30
0.0
 10
-155.3796
 20
-3.8732
 30
0.0
 10
-154.8029
 20
-4.2107
 30
0.0
 10
-154.8029
 20
-4.2107
 30
0.0
 10
-152.7441
 20
-5.8601
 30
0.0
 10
-151.2218
 20
-8.0846
 30
0.0
 10
-150.4305
 20
-10.6008
 30
0.0
 10
-150.4305
 20
-10.6008
 30
0.0
 10
-151.1186
 20
-10.6809
 30
0.0
 10
-151.8117
 20
-10.5014
 30
0.0
 10
-152.3734
 20
-10.0963
 30
0.0
 10
-152.3734
 20
-10.0963
 30
0.0
 10
-152.1607
 20
-10.7827
 30
0.0
 10
-151.7888
 20
-11.4102
 30
0.0
 10
-151.2898
 20
-11.9272
 30
0.0
 10
-151.2898
 20
-11.9272
 30
0.0
 10
-152.2909
 20
-11.8435
 30
0.0
 10
-153.2949
 20
-12.0442
 30
0.0
 10
-154.1863
 20
-12.507
 30
0.0
 10
-154.1863
 20
-12.507
 30
0.0
 10
-153.2913
 20
-13.0892
 30
0.0
 10
-152.2161
 20
-13.3284
 30
0.0
 10
-151.1591
 20
-13.1796
 30
0.0
 10
-151.1591
 20
-13.1796
 30
0.0
 10
-151.7623
 20
-14.1475
 30
0.0
 10
-152.5646
 20
-14.9755
 30
0.0
 10
-153.5137
 20
-15.6083
 30
0.0
 10
-153.5137
 20
-15.6083
 30
0.0
 10
-153.9536
 20
-15.929
 30
0.0
 10
-154.4472
 20
-16.1693
 30
0.0
 10
-154.971
 20
-16.3183
 30
0.0
 10
-154.971
 20
-16.3183
 30
0.0
 10
-155.3007
 20
-16.3748
 30
0.0
 10
-155.6376
 20
-16.2754
 30
0.0
 10
-155.8827
 20
-16.0482
 30
0.0
 10
-155.8827
 20
-16.0482
 30
0.0
 10
-156.128
 20
-15.821
 30
0.0
 10
-156.2541
 20
-15.4927
 30
0.0
 10
-156.2227
 20
-15.1599
 30
0.0
 10
-156.2227
 20
-15.1599
 30
0.0
 10
-157.2972
 20
-14.7929
 30
0.0
 10
-158.0945
 20
-13.8817
 30
0.0
 10
-158.3157
 20
-12.7685
 30
0.0
 10
-158.3157
 20
-12.7685
 30
0.0
 10
-159.5006
 20
-12.0743
 30
0.0
 10
-160.3914
 20
-10.9713
 30
0.0
 10
-160.8193
 20
-9.6667
 30
0.0
 10
-160.8193
 20
-9.6667
 30
0.0
 10
-160.1033
 20
-8.1087
 30
0.0
 10
-158.9299
 20
-6.8052
 30
0.0
 10
-157.4564
 20
-5.9295
 30
0.0
  0
SPLINE
  5
74
330
1F
100
AcDbEntity
  8
layer 1
 62
     7
370
     9
100
AcDbSpline
210
0.0
220
0.0
230
1.0
 70
    11
 71
     3
 72
    20
 73
    16
 74
     0
 42
0.0000000001
 43
0.0000000001
 12
1.0
 22
0.0
 32
0.0
 13
1.0
 23
0.0
 33
0.0
 40
0.0
 40
0.0
 40
0.0
 40
0.0
 40
0.2
 40
0.2
 40
0.2
 40
0.2
 40
0.4
 40
0.4
 40
0.4
 40
0.4
 40
0.6
 40
0.6
 40
0.6
 40
0.6
 40
1.0
 40
1.0
 40
1.0
 40
1.0
 10
-93.6653
 20
71.8002
 30
0.0
 10
-94.1814
 20
71.8002
 30
0.0
 10
-94.5998
 20
70.9474
 30
0.0
 10
-94.5998
 20
69.8957
 30
0.0
 10
-94.5998
 20
69.8957
 30
0.0
 10
-94.5998
 20
68.8434
 30
0.0
 10
-94.1814
 20
67.9907
 30
0.0
 10
-93.6653
 20
67.9907
 30
0.0
 10
-93.6653
 20
67.9907
 30
0.0
 10
-93.1494
 20
67.9907
 30
0.0
 10
-92.731
 20
68.8434
 30
0.0
 10
-92.731
 20
69.8957
 30
0.0
 10
-92.731
 20
69.8957
 30
0.0
 10
-92.731
 20
70.9474
 30
0.0
 10
-93.1494
 20
71.8002
 30
0.0
 10
-93.6653
 20
71.8002
 30
0.0
  0
SPLINE
  5
75
330
1F
100
AcDbEntity
  8
layer 1
 62
     7
370
     9
100
AcDbSpline
210
0.0
220
0.0
230
1.0
 70
    11
 71
     3
 72
    60
 73
    56
 74
     0
 42
0.0000000001
 43
0.0000000001
 12
1.0
 22
0.0
 32
0.0
 13
1.0
 23
0.0
 33
0.0
 40
0.0
 40
0.0
 40
0.0
 40
0.0
 40
0.0666666666666667
 40
0.0666666666666667
 40
0.0666666666666667
 40
0.0666666666666667
 40
0.1333333333333333
 40
0.1333333333333333
 40
0.1333333333333333
 40
0.1333333333333333
 40
0.2
 40
0.2
 40
0.2
 40
0.2
 40
0.2666666666666667
 40
0.2666666666666667
 40
0.2666666666666667
 40
0.2666666666666667
 40
0.3333333333333333
 40
0.3333333333333333
 40
0.3333333333333333
 40
0.3333333333333333
 40
0.4
 40
0.4
 40
0.4
 40
0.4
 40
0.4666666666666667
 40
0.4666666666666667
 40
0.4666666666666667
 40
0.4666666666666667
 40
0.5333333333333333
 40
0.5333333333333333
 40
0.5333333333333333
 40
0.5333333333333333
 40
0.6
 40
0.6
 40
0.6
 40
0.6
 40
0.6666666666666666
 40
0.6666666666666666
 40
0.6666666666666666
 40
0.6666666666666666
 40
0.7333333333333333
 40
0.7333333333333333
 40
0.7333333333333333
 40
0.7333333333333333
 40
0.8
 40
0.8
 40
0.8
 40
0.8
 40
0.8666666666666667
 40
0.8666666666666667
 40
0.8666666666666667
 40
0.8666666666666667
 40
1.0
 40
1.0
 40
1.0
 40
1.0
 10
-103.4186
 20
64.3277
 30
0.0
 10
-101.5109
 20
64.1644
 30
0.0
 10
-99.5902
 20
64.2397
 30
0.0
 10
-97.701
 20
64.5513
 30
0.0
 10
-97.701
 20
64.5513
 30
0.0
 10
-97.8513
 20
63.6304
 30
0.0
 10
-98.329
 20
62.7945
 30
0.0
 10
-99.0463
 20
62.1972
 30
0.0
 10
-99.0463
 20
62.1972
 30
0.0
 10
-99.033
 20
62.0158
 30
0.0
 10
-99.0143
 20
61.835
 30
0.0
 10
-98.9903
 20
61.6555
 30
0.0
 10
-98.9903
 20
61.6555
 30
0.0
 10
-98.6107
 20
61.6403
 30
0.0
 10
-98.2304
 20
61.6338
 30
0.0
 10
-97.8504
 20
61.6367
 30
0.0
 10
-97.8504
 20
61.6367
 30
0.0
 10
-98.002
 20
60.4718
 30
0.0
 10
-98.1578
 20
59.3069
 30
0.0
 10
-98.3175
 20
58.1425
 30
0.0
 10
-98.3175
 20
58.1425
 30
0.0
 10
-97.6724
 20
59.3629
 30
0.0
 10
-97.2968
 20
60.7074
 30
0.0
 10
-97.2153
 20
62.0852
 30
0.0
 10
-97.2153
 20
62.0852
 30
0.0
 10
-97.0603
 20
62.9549
 30
0.0
 10
-96.6874
 20
63.7715
 30
0.0
 10
-96.1313
 20
64.4579
 30
0.0
 10
-96.1313
 20
64.4579
 30
0.0
 10
-95.8616
 20
62.1906
 30
0.0
 10
-96.0006
 20
59.8939
 30
0.0
 10
-96.5425
 20
57.6754
 30
0.0
 10
-96.5425
 20
57.6754
 30
0.0
 10
-96.7873
 20
56.9258
 30
0.0
 10
-97.1131
 20
56.2055
 30
0.0
 10
-97.5141
 20
55.5263
 30
0.0
 10
-97.5141
 20
55.5263
 30
0.0
 10
-98.03
 20
54.9555
 30
0.0
 10
-98.8655
 20
54.8019
 30
0.0
 10
-99.5509
 20
55.1532
 30
0.0
 10
-99.5509
 20
55.1532
 30
0.0
 10
-99.8451
 20
55.378
 30
0.0
 10
-100.2495
 20
55.3932
 30
0.0
 10
-100.5599
 20
55.1906
 30
0.0
 10
-100.5599
 20
55.1906
 30
0.0
 10
-101.4175
 20
54.9767
 30
0.0
 10
-102.3229
 20
55.0695
 30
0.0
 10
-103.1195
 20
55.4521
 30
0.0
 10
-103.1195
 20
55.4521
 30
0.0
 10
-103.3703
 20
57.0565
 30
0.0
 10
-103.2616
 20
58.6963
 30
0.0
 10
-102.8019
 20
60.2543
 30
0.0
 10
-102.8019
 20
60.2543
 30
0.0
 10
-103.4602
 20
61.5036
 30
0.0
 10
-103.6775
 20
62.9392
 30
0.0
 10
-103.4186
 20
64.3277
 30
0.0
  0
SPLINE
  5
76
330
1F
100
AcDbEntity
  8
layer 1
 62
     7
370
     9
100
AcDbSpline
210
0.0
220
0.0
230
1.0
 70
    11
 71
     3
 72
    64
 73
    60
 74
     0
 42
0.0000000001
 43
0.0000000001
 12
1.0
 22
0.0
 32
0.0
 13
1.0
 23
0.0
 33
0.0
 40
0.0
 40
0.0
 40
0.0
 40
0.0
 40
0.0625
 40
0.0625
 40
0.0625
 40
0.0625
 40
0.125
 40
0.125
 40
0.125
 40
0.125
 40
0.1875
 40
0.1875
 40
0.1875
 40
0.1875
 40
0.25
 40
0.25
 40
0.25
 40
0.25
 40
0.3125
 40
0.3125
 40
0.3125
 40
0.3125
 40
0.375
 40
0.375
 40
0.375
 40
0.375
 40
0.4375
 40
0.4375
 40
0.4375
 40
0.4375
 40
0.5
 40
0.5
 40
0.5
 40
0.5
 40
0.5625
 40
0.5625
 40
0.5625
 40
0.5625
 40
0.625
 40
0.625
 40
0.625
 40
0.625
 40
0.6875
 40
0.6875
 40
0.6875
 40
0.6875
 40
0.75
 40
0.75
 40
0.75
 40
0.75
 40
0.8125
 40
0.8125
 40
0.8125
 40
0.8125
 40
0.875
 40
0.875
 40
0.875
 40
0.875
 40
1.0
 40
1.0
 40
1.0
 40
1.0
 10
-94.3377
 20
65.9344
 30
0.0
 10
-95.7189
 20
62.8848
 30
0.0
 10
-95.7326
 20
59.3906
 30
0.0
 10
-94.375
 20
56.3302
 30
0.0
 10
-94.375
 20
56.3302
 30
0.0
 10
-93.9833
 20
55.6474
 30
0.0
 10
-93.5196
 20
55.0087
 30
0.0
 10
-92.9924
 20
54.4246
 30
0.0
 10
-92.9924
 20
54.4246
 30
0.0
 10
-92.892
 20
54.2956
 30
0.0
 10
-92.7392
 20
54.2191
 30
0.0
 10
-92.5764
 20
54.2155
 30
0.0
 10
-92.5764
 20
54.2155
 30
0.0
 10
-92.4135
 20
54.2126
 30
0.0
 10
-92.2577
 20
54.2818
 30
0.0
 10
-92.1514
 20
54.4054
 30
0.0
 10
-92.1514
 20
54.4054
 30
0.0
 10
-92.1244
 20
54.4951
 30
0.0
 10
-92.0474
 20
54.5602
 30
0.0
 10
-91.9546
 20
54.5723
 30
0.0
 10
-91.9546
 20
54.5723
 30
0.0
 10
-91.8622
 20
54.5843
 30
0.0
 10
-91.7709
 20
54.5409
 30
0.0
 10
-91.7217
 20
54.4615
 30
0.0
 10
-91.7217
 20
54.4615
 30
0.0
 10
-91.4247
 20
53.6092
 30
0.0
 10
-90.9016
 20
52.8534
 30
0.0
 10
-90.2083
 20
52.2755
 30
0.0
 10
-90.2083
 20
52.2755
 30
0.0
 10
-90.0484
 20
51.9049
 30
0.0
 10
-89.9355
 20
51.5156
 30
0.0
 10
-89.8719
 20
51.1172
 30
0.0
 10
-89.8719
 20
51.1172
 30
0.0
 10
-87.8187
 20
54.4939
 30
0.0
 10
-87.2187
 20
58.5583
 30
0.0
 10
-88.2089
 20
62.3841
 30
0.0
 10
-88.2089
 20
62.3841
 30
0.0
 10
-88.8693
 20
63.792
 30
0.0
 10
-89.8713
 20
65.0122
 30
0.0
 10
-91.1238
 20
65.9344
 30
0.0
 10
-91.1238
 20
65.9344
 30
0.0
 10
-90.8566
 20
64.0154
 30
0.0
 10
-90.8001
 20
62.073
 30
0.0
 10
-90.9557
 20
60.1421
 30
0.0
 10
-90.9557
 20
60.1421
 30
0.0
 10
-91.7843
 20
61.9073
 30
0.0
 10
-92.4049
 20
63.7636
 30
0.0
 10
-92.8055
 20
65.6729
 30
0.0
 10
-92.8055
 20
65.6729
 30
0.0
 10
-93.2835
 20
65.4359
 30
0.0
 10
-93.5382
 20
64.9038
 30
0.0
 10
-93.4222
 20
64.3837
 30
0.0
 10
-93.4222
 20
64.3837
 30
0.0
 10
-92.9214
 20
62.8071
 30
0.0
 10
-92.8247
 20
61.1298
 30
0.0
 10
-93.1419
 20
59.5064
 30
0.0
 10
-93.1419
 20
59.5064
 30
0.0
 10
-93.349
 20
61.6801
 30
0.0
 10
-93.7492
 20
63.8316
 30
0.0
 10
-94.3377
 20
65.9344
 30
0.0
  0
SPLINE
  5
77
330
1F
100
AcDbEntity
  8
layer 1
 62
     7
370
     9
100
AcDbSpline
210
0.0
220
0.0
230
1.0
 70
    11
 71
     3
 72
   104
 73
   100
 74
     0
 42
0.0000000001
 43
0.0000000001
 12
1.0
 22
0.0
 32
0.0
 13
1.0
 23
0.0
 33
0.0
 40
0.0
 40
0.0
 40
0.0
 40
0.0
 40
0.0384615384615385
 40
0.0384615384615385
 40
0.0384615384615385
 40
0.0384615384615385
 40
0.0769230769230769
 40
0.0769230769230769
 40
0.0769230769230769
 40
0.0769230769230769
 40
0.1153846153846154
 40
0.1153846153846154
 40
0.1153846153846154
 40
0.1153846153846154
 40
0.1538461538461539
 40
0.1538461538461539
 40
0.1538461538461539
 40
0.1538461538461539
 40
0.1923076923076923
 40
0.1923076923076923
 40
0.1923076923076923
 40
0.1923076923076923
 40
0.2307692307692308
 40
0.2307692307692308
 40
0.2307692307692308
 40
0.2307692307692308
 40
0.2692307692307692
 40
0.2692307692307692
 40
0.2692307692307692
 40
0.2692307692307692
 40
0.3076923076923077
 40
0.3076923076923077
 40
0.3076923076923077
 40
0.3076923076923077
 40
0.3461538461538461
 40
0.3461538461538461
 40
0.3461538461538461
 40
0.3461538461538461
 40
0.3846153846153846
 40
0.3846153846153846
 40
0.3846153846153846
 40
0.3846153846153846
 40
0.4230769230769231
 40
0.4230769230769231
 40
0.4230769230769231
 40
0.4230769230769231
 40
0.4615384615384616
 40
0.4615384615384616
 40
0.4615384615384616
 40
0.4615384615384616
 40
0.5
 40
0.5
 40
0.5
 40
0.5
 40
0.5384615384615384
 40
0.5384615384615384
 40
0.5384615384615384
 40
0.5384615384615384
 40
0.5769230769230769
 40
0.5769230769230769
 40
0.5769230769230769
 40
0.5769230769230769
 40
0.6153846153846154
 40
0.6153846153846154
 40
0.6153846153846154
 40
0.6153846153846154
 40
0.6538461538461539
 40
0.6538461538461539
 40
0.6538461538461539
 40
0.6538461538461539
 40
0.6923076923076923
 40
0.6923076923076923
 40
0.6923076923076923
 40
0.6923076923076923
 40
0.7307692307692307
 40
0.7307692307692307
 40
0.7307692307692307
 40
0.7307692307692307
 40
0.7692307692307693
 40
0.7692307692307693
 40
0.7692307692307693
 40
0.7692307692307693
 40
0.8076923076923077
 40
0.8076923076923077
 40
0.8076923076923077
 40
0.8076923076923077
 40
0.8461538461538461
 40
0.8461538461538461
 40
0.8461538461538461
 40
0.8461538461538461
 40
0.8846153846153846
 40
0.8846153846153846
 40
0.8846153846153846
 40
0.8846153846153846
 40
0.9230769230769231
 40
0.9230769230769231
 40
0.9230769230769231
 40
0.9230769230769231
 40
1.0
 40
1.0
 40
1.0
 40
1.0
 10
-88.919
 20
72.7541
 30
0.0
 10
-87.9646
 20
73.0116
 30
0.0
 10
-86.969
 20
72.5131
 30
0.0
 10
-86.602
 20
71.5959
 30
0.0
 10
-86.602
 20
71.5959
 30
0.0
 10
-86.5094
 20
71.4168
 30
0.0
 10
-86.5125
 20
71.2035
 30
0.0
 10
-86.6102
 20
71.027
 30
0.0
 10
-86.6102
 20
71.027
 30
0.0
 10
-86.7076
 20
70.8503
 30
0.0
 10
-86.8868
 20
70.7347
 30
0.0
 10
-87.0879
 20
70.7178
 30
0.0
 10
-87.0879
 20
70.7178
 30
0.0
 10
-87.6195
 20
70.9136
 30
0.0
 10
-88.1708
 20
71.0516
 30
0.0
 10
-88.732
 20
71.1288
 30
0.0
 10
-88.732
 20
71.1288
 30
0.0
 10
-88.9746
 20
71.1016
 30
0.0
 10
-89.1847
 20
70.9486
 30
0.0
 10
-89.2846
 20
70.7256
 30
0.0
 10
-89.2846
 20
70.7256
 30
0.0
 10
-89.384
 20
70.5025
 30
0.0
 10
-89.3589
 20
70.2441
 30
0.0
 10
-89.218
 20
70.0452
 30
0.0
 10
-89.218
 20
70.0452
 30
0.0
 10
-88.6536
 20
69.7758
 30
0.0
 10
-88.175
 20
69.3557
 30
0.0
 10
-87.8353
 20
68.8302
 30
0.0
 10
-87.8353
 20
68.8302
 30
0.0
 10
-87.7135
 20
68.697
 30
0.0
 10
-87.6912
 20
68.5
 30
0.0
 10
-87.7804
 20
68.342
 30
0.0
 10
-87.7804
 20
68.342
 30
0.0
 10
-87.8699
 20
68.1848
 30
0.0
 10
-88.0503
 20
68.1028
 30
0.0
 10
-88.2275
 20
68.139
 30
0.0
 10
-88.2275
 20
68.139
 30
0.0
 10
-88.8104
 20
68.4698
 30
0.0
 10
-89.4406
 20
68.7096
 30
0.0
 10
-90.0961
 20
68.8488
 30
0.0
 10
-90.0961
 20
68.8488
 30
0.0
 10
-90.4694
 20
68.9175
 30
0.0
 10
-90.8546
 20
68.8295
 30
0.0
 10
-91.1612
 20
68.6066
 30
0.0
 10
-91.1612
 20
68.6066
 30
0.0
 10
-90.2444
 20
67.3518
 30
0.0
 10
-89.048
 20
66.3285
 30
0.0
 10
-87.667
 20
65.6168
 30
0.0
 10
-87.667
 20
65.6168
 30
0.0
 10
-86.7322
 20
65.0303
 30
0.0
 10
-85.5018
 20
65.2763
 30
0.0
 10
-84.8643
 20
66.1773
 30
0.0
 10
-84.8643
 20
66.1773
 30
0.0
 10
-84.8349
 20
66.3755
 30
0.0
 10
-84.6984
 20
66.5407
 30
0.0
 10
-84.5094
 20
66.607
 30
0.0
 10
-84.5094
 20
66.607
 30
0.0
 10
-83.3895
 20
67.1422
 30
0.0
 10
-82.7575
 20
68.3529
 30
0.0
 10
-82.9584
 20
69.5781
 30
0.0
 10
-82.9584
 20
69.5781
 30
0.0
 10
-83.2207
 20
69.88
 30
0.0
 10
-83.2126
 20
70.3315
 30
0.0
 10
-82.9398
 20
70.6243
 30
0.0
 10
-82.9398
 20
70.6243
 30
0.0
 10
-82.6301
 20
70.9643
 30
0.0
 10
-82.4728
 20
71.4156
 30
0.0
 10
-82.5045
 20
71.8748
 30
0.0
 10
-82.5045
 20
71.8748
 30
0.0
 10
-82.5361
 20
72.3335
 30
0.0
 10
-82.7543
 20
72.7596
 30
0.0
 10
-83.1079
 20
73.0538
 30
0.0
 10
-83.1079
 20
73.0538
 30
0.0
 10
-83.2219
 20
73.1494
 30
0.0
 10
-83.3476
 20
73.2309
 30
0.0
 10
-83.4817
 20
73.296
 30
0.0
 10
-83.4817
 20
73.296
 30
0.0
 10
-83.6715
 20
73.3363
 30
0.0
 10
-83.8357
 20
73.4546
 30
0.0
 10
-83.9349
 20
73.6208
 30
0.0
 10
-83.9349
 20
73.6208
 30
0.0
 10
-84.0344
 20
73.7877
 30
0.0
 10
-84.0596
 20
73.9884
 30
0.0
 10
-84.0048
 20
74.1746
 30
0.0
 10
-84.0048
 20
74.1746
 30
0.0
 10
-84.0484
 20
75.2172
 30
0.0
 10
-84.7568
 20
76.1141
 30
0.0
 10
-85.7613
 20
76.3979
 30
0.0
 10
-85.7613
 20
76.3979
 30
0.0
 10
-87.0627
 20
76.719
 30
0.0
 10
-88.4392
 20
76.4081
 30
0.0
 10
-89.476
 20
75.5584
 30
0.0
 10
-89.476
 20
75.5584
 30
0.0
 10
-90.5129
 20
74.7092
 30
0.0
 10
-91.0888
 20
73.4207
 30
0.0
 10
-91.0304
 20
72.0816
 30
0.0
 10
-91.0304
 20
72.0816
 30
0.0
 10
-90.3511
 20
72.3762
 30
0.0
 10
-89.6437
 20
72.6017
 30
0.0
 10
-88.919
 20
72.7541
 30
0.0
  0
SPLINE
  5
78
330
1F
100
AcDbEntity
  8
layer 1
 62
     7
370
     9
100
AcDbSpline
210
0.0
220
0.0
230
1.0
 70
    11
 71
     3
 72
    64
 73
    60
 74
     0
 42
0.0000000001
 43
0.0000000001
 12
1.0
 22
0.0
 32
0.0
 13
1.0
 23
0.0
 33
0.0
 40
0.0
 40
0.0
 40
0.0
 40
0.0
 40
0.0625
 40
0.0625
 40
0.0625
 40
0.0625
 40
0.125
 40
0.125
 40
0.125
 40
0.125
 40
0.1875
 40
0.1875
 40
0.1875
 40
0.1875
 40
0.25
 40
0.25
 40
0.25
 40
0.25
 40
0.3125
 40
0.3125
 40
0.3125
 40
0.3125
 40
0.375
 40
0.375
 40
0.375
 40
0.375
 40
0.4375
 40
0.4375
 40
0.4375
 40
0.4375
 40
0.5
 40
0.5
 40
0.5
 40
0.5
 40
0.5625
 40
0.5625
 40
0.5625
 40
0.5625
 40
0.625
 40
0.625
 40
0.625
 40
0.625
 40
0.6875
 40
0.6875
 40
0.6875
 40
0.6875
 40
0.75
 40
0.75
 40
0.75
 40
0.75
 40
0.8125
 40
0.8125
 40
0.8125
 40
0.8125
 40
0.875
 40
0.875
 40
0.875
 40
0.875
 40
1.0
 40
1.0
 40
1.0
 40
1.0
 10
-91.5349
 20
78.6218
 30
0.0
 10
-92.2915
 20
78.0685
 30
0.0
 10
-92.6682
 20
77.1343
 30
0.0
 10
-92.5064
 20
76.2111
 30
0.0
 10
-92.5064
 20
76.2111
 30
0.0
 10
-92.5761
 20
76.0092
 30
0.0
 10
-92.7604
 20
75.8688
 30
0.0
 10
-92.9738
 20
75.8561
 30
0.0
 10
-92.9738
 20
75.8561
 30
0.0
 10
-92.9608
 20
76.1001
 30
0.0
 10
-92.9796
 20
76.3454
 30
0.0
 10
-93.0298
 20
76.5848
 30
0.0
 10
-93.0298
 20
76.5848
 30
0.0
 10
-93.1494
 20
76.8456
 30
0.0
 10
-93.4335
 20
76.9896
 30
0.0
 10
-93.7149
 20
76.9319
 30
0.0
 10
-93.7149
 20
76.9319
 30
0.0
 10
-93.9962
 20
76.874
 30
0.0
 10
-94.2002
 20
76.6293
 30
0.0
 10
-94.2069
 20
76.3418
 30
0.0
 10
-94.2069
 20
76.3418
 30
0.0
 10
-94.1075
 20
75.5029
 30
0.0
 10
-94.2033
 20
74.6526
 30
0.0
 10
-94.4871
 20
73.8565
 30
0.0
 10
-94.4871
 20
73.8565
 30
0.0
 10
-95.6293
 20
75.9627
 30
0.0
 10
-96.5557
 20
78.1788
 30
0.0
 10
-97.2525
 20
80.4713
 30
0.0
 10
-97.2525
 20
80.4713
 30
0.0
 10
-97.5903
 20
81.2807
 30
0.0
 10
-97.5491
 20
82.1992
 30
0.0
 10
-97.1405
 20
82.9748
 30
0.0
 10
-97.1405
 20
82.9748
 30
0.0
 10
-95.8484
 20
84.1662
 30
0.0
 10
-95.5678
 20
86.0996
 30
0.0
 10
-96.4679
 20
87.6087
 30
0.0
 10
-96.4679
 20
87.6087
 30
0.0
 10
-94.9324
 20
87.2175
 30
0.0
 10
-93.6313
 20
86.2016
 30
0.0
 10
-92.8804
 20
84.8064
 30
0.0
 10
-92.8804
 20
84.8064
 30
0.0
 10
-92.137
 20
85.1397
 30
0.0
 10
-91.2653
 20
84.9757
 30
0.0
 10
-90.694
 20
84.3953
 30
0.0
 10
-90.694
 20
84.3953
 30
0.0
 10
-89.9369
 20
82.6728
 30
0.0
 10
-89.7662
 20
80.7492
 30
0.0
 10
-90.2083
 20
78.9206
 30
0.0
 10
-90.2083
 20
78.9206
 30
0.0
 10
-90.6621
 20
77.2881
 30
0.0
 10
-91.3816
 20
75.741
 30
0.0
 10
-92.3385
 20
74.3427
 30
0.0
 10
-92.3385
 20
74.3427
 30
0.0
 10
-92.4801
 20
74.7056
 30
0.0
 10
-92.4668
 20
75.1111
 30
0.0
 10
-92.3009
 20
75.4637
 30
0.0
 10
-92.3009
 20
75.4637
 30
0.0
 10
-91.8623
 20
76.463
 30
0.0
 10
-91.6032
 20
77.532
 30
0.0
 10
-91.5349
 20
78.6218
 30
0.0
  0
SPLINE
  5
79
330
1F
100
AcDbEntity
  8
layer 1
 62
     7
370
     9
100
AcDbSpline
210
0.0
220
0.0
230
1.0
 70
    11
 71
     3
 72
    60
 73
    56
 74
     0
 42
0.0000000001
 43
0.0000000001
 12
1.0
 22
0.0
 32
0.0
 13
1.0
 23
0.0
 33
0.0
 40
0.0
 40
0.0
 40
0.0
 40
0.0
 40
0.0666666666666667
 40
0.0666666666666667
 40
0.0666666666666667
 40
0.0666666666666667
 40
0.1333333333333333
 40
0.1333333333333333
 40
0.1333333333333333
 40
0.1333333333333333
 40
0.2
 40
0.2
 40
0.2
 40
0.2
 40
0.2666666666666667
 40
0.2666666666666667
 40
0.2666666666666667
 40
0.2666666666666667
 40
0.3333333333333333
 40
0.3333333333333333
 40
0.3333333333333333
 40
0.3333333333333333
 40
0.4
 40
0.4
 40
0.4
 40
0.4
 40
0.4666666666666667
 40
0.4666666666666667
 40
0.4666666666666667
 40
0.4666666666666667
 40
0.5333333333333333
 40
0.5333333333333333
 40
0.5333333333333333
 40
0.5333333333333333
 40
0.6
 40
0.6
 40
0.6
 40
0.6
 40
0.6666666666666666
 40
0.6666666666666666
 40
0.6666666666666666
 40
0.6666666666666666
 40
0.7333333333333333
 40
0.7333333333333333
 40
0.7333333333333333
 40
0.7333333333333333
 40
0.8
 40
0.8
 40
0.8
 40
0.8
 40
0.8666666666666667
 40
0.8666666666666667
 40
0.8666666666666667
 40
0.8666666666666667
 40
1.0
 40
1.0
 40
1.0
 40
1.0
 10
-102.7085
 20
76.7715
 30
0.0
 10
-102.7806
 20
77.4364
 30
0.0
 10
-102.472
 20
78.0847
 30
0.0
 10
-101.9112
 20
78.4482
 30
0.0
 10
-101.9112
 20
78.4482
 30
0.0
 10
-101.3502
 20
78.8116
 30
0.0
 10
-100.6323
 20
78.8278
 30
0.0
 10
-100.0554
 20
78.4904
 30
0.0
 10
-100.0554
 20
78.4904
 30
0.0
 10
-97.9967
 20
76.8408
 30
0.0
 10
-96.4747
 20
74.6171
 30
0.0
 10
-95.6829
 20
72.1003
 30
0.0
 10
-95.6829
 20
72.1003
 30
0.0
 10
-96.371
 20
72.0201
 30
0.0
 10
-97.0641
 20
72.1998
 30
0.0
 10
-97.6263
 20
72.6046
 30
0.0
 10
-97.6263
 20
72.6046
 30
0.0
 10
-97.4128
 20
71.9182
 30
0.0
 10
-97.0417
 20
71.2909
 30
0.0
 10
-96.5425
 20
70.7738
 30
0.0
 10
-96.5425
 20
70.7738
 30
0.0
 10
-97.5431
 20
70.8575
 30
0.0
 10
-98.5473
 20
70.657
 30
0.0
 10
-99.4385
 20
70.1947
 30
0.0
 10
-99.4385
 20
70.1947
 30
0.0
 10
-98.5442
 20
69.6118
 30
0.0
 10
-97.4688
 20
69.3726
 30
0.0
 10
-96.4118
 20
69.5221
 30
0.0
 10
-96.4118
 20
69.5221
 30
0.0
 10
-97.0146
 20
68.5536
 30
0.0
 10
-97.8173
 20
67.7254
 30
0.0
 10
-98.766
 20
67.0927
 30
0.0
 10
-98.766
 20
67.0927
 30
0.0
 10
-99.2062
 20
66.7722
 30
0.0
 10
-99.6996
 20
66.5316
 30
0.0
 10
-100.2235
 20
66.3828
 30
0.0
 10
-100.2235
 20
66.3828
 30
0.0
 10
-100.5531
 20
66.3261
 30
0.0
 10
-100.8901
 20
66.4256
 30
0.0
 10
-101.1354
 20
66.6528
 30
0.0
 10
-101.1354
 20
66.6528
 30
0.0
 10
-101.3808
 20
66.88
 30
0.0
 10
-101.5065
 20
67.2085
 30
0.0
 10
-101.4754
 20
67.5411
 30
0.0
 10
-101.4754
 20
67.5411
 30
0.0
 10
-102.5494
 20
67.9081
 30
0.0
 10
-103.3467
 20
68.8193
 30
0.0
 10
-103.5679
 20
69.9331
 30
0.0
 10
-103.5679
 20
69.9331
 30
0.0
 10
-104.7534
 20
70.6267
 30
0.0
 10
-105.6436
 20
71.7296
 30
0.0
 10
-106.0719
 20
73.0345
 30
0.0
 10
-106.0719
 20
73.0345
 30
0.0
 10
-105.3557
 20
74.5923
 30
0.0
 10
-104.1826
 20
75.896
 30
0.0
 10
-102.7085
 20
76.7715
 30
0.0
  0
SPLINE
  5
7A
330
1F
100
AcDbEntity
  8
layer 1
 62
     7
370
     9
100
AcDbSpline
210
0.0
220
0.0
230
1.0
 70
    11
 71
     3
 72
    60
 73
    56
 74
     0
 42
0.0000000001
 43
0.0000000001
 12
1.0
 22
0.0
 32
0.0
 13
1.0
 23
0.0
 33
0.0
 40
0.0
 40
0.0
 40
0.0
 40
0.0
 40
0.0666666666666667
 40
0.0666666666666667
 40
0.0666666666666667
 40
0.0666666666666667
 40
0.1333333333333333
 40
0.1333333333333333
 40
0.1333333333333333
 40
0.1333333333333333
 40
0.2
 40
0.2
 40
0.2
 40
0.2
 40
0.2666666666666667
 40
0.2666666666666667
 40
0.2666666666666667
 40
0.2666666666666667
 40
0.3333333333333333
 40
0.3333333333333333
 40
0.3333333333333333
 40
0.3333333333333333
 40
0.4
 40
0.4
 40
0.4
 40
0.4
 40
0.4666666666666667
 40
0.4666666666666667
 40
0.4666666666666667
 40
0.4666666666666667
 40
0.5333333333333333
 40
0.5333333333333333
 40
0.5333333333333333
 40
0.5333333333333333
 40
0.6
 40
0.6
 40
0.6
 40
0.6
 40
0.6666666666666666
 40
0.6666666666666666
 40
0.6666666666666666
 40
0.6666666666666666
 40
0.7333333333333333
 40
0.7333333333333333
 40
0.7333333333333333
 40
0.7333333333333333
 40
0.8
 40
0.8
 40
0.8
 40
0.8
 40
0.8666666666666667
 40
0.8666666666666667
 40
0.8666666666666667
 40
0.8666666666666667
 40
1.0
 40
1.0
 40
1.0
 40
1.0
 10
-149.8326
 20
-60.0032
 30
0.0
 10
-149.6476
 20
-57.9326
 30
0.0
 10
-149.0365
 20
-55.9226
 30
0.0
 10
-148.039
 20
-54.0986
 30
0.0
 10
-148.039
 20
-54.0986
 30
0.0
 10
-148.5189
 20
-53.05
 30
0.0
 10
-148.3403
 20
-51.8181
 30
0.0
 10
-147.5834
 20
-50.9486
 30
0.0
 10
-147.5834
 20
-50.9486
 30
0.0
 10
-146.8266
 20
-50.0787
 30
0.0
 10
-145.6307
 20
-49.7322
 30
0.0
 10
-144.5261
 20
-50.0626
 30
0.0
 10
-144.5261
 20
-50.0626
 30
0.0
 10
-143.0153
 20
-50.7425
 30
0.0
 10
-141.8057
 20
-51.9522
 30
0.0
 10
-141.1258
 20
-53.4633
 30
0.0
 10
-141.1258
 20
-53.4633
 30
0.0
 10
-142.1372
 20
-53.508
 30
0.0
 10
-143.1309
 20
-53.1896
 30
0.0
 10
-143.9282
 20
-52.5665
 30
0.0
 10
-143.9282
 20
-52.5665
 30
0.0
 10
-143.8476
 20
-53.4803
 30
0.0
 10
-143.0503
 20
-54.1616
 30
0.0
 10
-142.1348
 20
-54.0986
 30
0.0
 10
-142.1348
 20
-54.0986
 30
0.0
 10
-142.5301
 20
-54.3048
 30
0.0
 10
-142.7874
 20
-54.7047
 30
0.0
 10
-142.8102
 20
-55.1503
 30
0.0
 10
-142.8102
 20
-55.1503
 30
0.0
 10
-142.8333
 20
-55.5956
 30
0.0
 10
-142.6187
 20
-56.02
 30
0.0
 10
-142.2468
 20
-56.2661
 30
0.0
 10
-142.2468
 20
-56.2661
 30
0.0
 10
-141.6501
 20
-56.2009
 30
0.0
 10
-141.0505
 20
-56.3606
 30
0.0
 10
-140.5653
 20
-56.7146
 30
0.0
 10
-140.5653
 20
-56.7146
 30
0.0
 10
-141.8196
 20
-57.9528
 30
0.0
 10
-143.0405
 20
-59.2238
 30
0.0
 10
-144.2272
 20
-60.5263
 30
0.0
 10
-144.2272
 20
-60.5263
 30
0.0
 10
-144.5714
 20
-61.022
 30
0.0
 10
-145.1632
 20
-61.2839
 30
0.0
 10
-145.7616
 20
-61.2053
 30
0.0
 10
-145.7616
 20
-61.2053
 30
0.0
 10
-146.3595
 20
-61.1266
 30
0.0
 10
-146.8633
 20
-60.7203
 30
0.0
 10
-147.0676
 20
-60.1525
 30
0.0
 10
-147.0676
 20
-60.1525
 30
0.0
 10
-147.3936
 20
-59.7332
 30
0.0
 10
-147.8859
 20
-59.476
 30
0.0
 10
-148.4164
 20
-59.4473
 30
0.0
 10
-148.4164
 20
-59.4473
 30
0.0
 10
-148.9466
 20
-59.4186
 30
0.0
 10
-149.4638
 20
-59.6215
 30
0.0
 10
-149.8326
 20
-60.0032
 30
0.0
  0
SPLINE
  5
7B
330
1F
100
AcDbEntity
  8
layer 1
 62
     7
370
     9
100
AcDbSpline
210
0.0
220
0.0
230
1.0
 70
    11
 71
     3
 72
    80
 73
    76
 74
     0
 42
0.0000000001
 43
0.0000000001
 12
1.0
 22
0.0
 32
0.0
 13
1.0
 23
0.0
 33
0.0
 40
0.0
 40
0.0
 40
0.0
 40
0.0
 40
0.05
 40
0.05
 40
0.05
 40
0.05
 40
0.1
 40
0.1
 40
0.1
 40
0.1
 40
0.15
 40
0.15
 40
0.15
 40
0.15
 40
0.2
 40
0.2
 40
0.2
 40
0.2
 40
0.25
 40
0.25
 40
0.25
 40
0.25
 40
0.3
 40
0.3
 40
0.3
 40
0.3
 40
0.35
 40
0.35
 40
0.35
 40
0.35
 40
0.4
 40
0.4
 40
0.4
 40
0.4
 40
0.45
 40
0.45
 40
0.45
 40
0.45
 40
0.5
 40
0.5
 40
0.5
 40
0.5
 40
0.55
 40
0.55
 40
0.55
 40
0.55
 40
0.6
 40
0.6
 40
0.6
 40
0.6
 40
0.65
 40
0.65
 40
0.65
 40
0.65
 40
0.7
 40
0.7
 40
0.7
 40
0.7
 40
0.75
 40
0.75
 40
0.75
 40
0.75
 40
0.8
 40
0.8
 40
0.8
 40
0.8
 40
0.85
 40
0.85
 40
0.85
 40
0.85
 40
0.9
 40
0.9
 40
0.9
 40
0.9
 40
1.0
 40
1.0
 40
1.0
 40
1.0
 10
-140.7896
 20
-40.4585
 30
0.0
 10
-140.9065
 20
-39.9521
 30
0.0
 10
-140.6986
 20
-39.4263
 30
0.0
 10
-140.2677
 20
-39.1362
 30
0.0
 10
-140.2677
 20
-39.1362
 30
0.0
 10
-139.8367
 20
-38.8459
 30
0.0
 10
-139.2714
 20
-38.8516
 30
0.0
 10
-138.846
 20
-39.1505
 30
0.0
 10
-138.846
 20
-39.1505
 30
0.0
 10
-138.5898
 20
-38.9662
 30
0.0
 10
-138.2655
 20
-38.9015
 30
0.0
 10
-137.9577
 20
-38.9731
 30
0.0
 10
-137.9577
 20
-38.9731
 30
0.0
 10
-137.6504
 20
-39.0446
 30
0.0
 10
-137.3881
 20
-39.2454
 30
0.0
 10
-137.2393
 20
-39.5242
 30
0.0
 10
-137.2393
 20
-39.5242
 30
0.0
 10
-136.7191
 20
-39.974
 30
0.0
 10
-136.3534
 20
-40.5751
 30
0.0
 10
-136.193
 20
-41.2433
 30
0.0
 10
-136.193
 20
-41.2433
 30
0.0
 10
-135.9212
 20
-41.718
 30
0.0
 10
-135.647
 20
-42.1912
 30
0.0
 10
-135.3711
 20
-42.6633
 30
0.0
 10
-135.3711
 20
-42.6633
 30
0.0
 10
-134.8389
 20
-45.6797
 30
0.0
 10
-135.5241
 20
-48.7838
 30
0.0
 10
-137.2766
 20
-51.2957
 30
0.0
 10
-137.2766
 20
-51.2957
 30
0.0
 10
-137.4284
 20
-49.7749
 30
0.0
 10
-137.3652
 20
-48.2402
 30
0.0
 10
-137.0898
 20
-46.7366
 30
0.0
 10
-137.0898
 20
-46.7366
 30
0.0
 10
-137.0808
 20
-46.6107
 30
0.0
 10
-137.1609
 20
-46.4956
 30
0.0
 10
-137.282
 20
-46.4595
 30
0.0
 10
-137.282
 20
-46.4595
 30
0.0
 10
-137.4032
 20
-46.4238
 30
0.0
 10
-137.5328
 20
-46.4768
 30
0.0
 10
-137.5943
 20
-46.5872
 30
0.0
 10
-137.5943
 20
-46.5872
 30
0.0
 10
-137.8847
 20
-47.2746
 30
0.0
 10
-138.1101
 20
-47.9877
 30
0.0
 10
-138.2669
 20
-48.7171
 30
0.0
 10
-138.2669
 20
-48.7171
 30
0.0
 10
-138.3933
 20
-48.8314
 30
0.0
 10
-138.5652
 20
-48.881
 30
0.0
 10
-138.7328
 20
-48.8519
 30
0.0
 10
-138.7328
 20
-48.8519
 30
0.0
 10
-138.9009
 20
-48.8227
 30
0.0
 10
-139.0461
 20
-48.7178
 30
0.0
 10
-139.1262
 20
-48.5676
 30
0.0
 10
-139.1262
 20
-48.5676
 30
0.0
 10
-139.2635
 20
-47.3564
 30
0.0
 10
-139.1944
 20
-46.1309
 30
0.0
 10
-138.9207
 20
-44.943
 30
0.0
 10
-138.9207
 20
-44.943
 30
0.0
 10
-139.028
 20
-44.7731
 30
0.0
 10
-139.2149
 20
-44.6702
 30
0.0
 10
-139.4161
 20
-44.6702
 30
0.0
 10
-139.4161
 20
-44.6702
 30
0.0
 10
-139.6168
 20
-44.6702
 30
0.0
 10
-139.8036
 20
-44.7731
 30
0.0
 10
-139.9115
 20
-44.943
 30
0.0
 10
-139.9115
 20
-44.943
 30
0.0
 10
-140.5214
 20
-47.1608
 30
0.0
 10
-140.4888
 20
-49.5066
 30
0.0
 10
-139.8176
 20
-51.7071
 30
0.0
 10
-139.8176
 20
-51.7071
 30
0.0
 10
-141.5893
 20
-50.4475
 30
0.0
 10
-142.7187
 20
-48.4733
 30
0.0
 10
-142.9056
 20
-46.3075
 30
0.0
 10
-142.9056
 20
-46.3075
 30
0.0
 10
-143.093
 20
-44.1417
 30
0.0
 10
-142.3191
 20
-42.0031
 30
0.0
 10
-140.7896
 20
-40.4585
 30
0.0
  0
SPLINE
  5
7C
330
1F
100
AcDbEntity
  8
layer 1
 62
     7
370
     9
100
AcDbSpline
210
0.0
220
0.0
230
1.0
 70
    11
 71
     3
 72
    20
 73
    16
 74
     0
 42
0.0000000001
 43
0.0000000001
 12
1.0
 22
0.0
 32
0.0
 13
1.0
 23
0.0
 33
0.0
 40
0.0
 40
0.0
 40
0.0
 40
0.0
 40
0.2
 40
0.2
 40
0.2
 40
0.2
 40
0.4
 40
0.4
 40
0.4
 40
0.4
 40
0.6
 40
0.6
 40
0.6
 40
0.6
 40
1.0
 40
1.0
 40
1.0
 40
1.0
 10
-138.1735
 20
-53.2012
 30
0.0
 10
-137.575
 20
-53.2012
 30
0.0
 10
-137.0898
 20
-54.0381
 30
0.0
 10
-137.0898
 20
-55.0701
 30
0.0
 10
-137.0898
 20
-55.0701
 30
0.0
 10
-137.0898
 20
-56.1025
 30
0.0
 10
-137.575
 20
-56.9391
 30
0.0
 10
-138.1735
 20
-56.9391
 30
0.0
 10
-138.1735
 20
-56.9391
 30
0.0
 10
-138.7712
 20
-56.9391
 30
0.0
 10
-139.2564
 20
-56.1025
 30
0.0
 10
-139.2564
 20
-55.0701
 30
0.0
 10
-139.2564
 20
-55.0701
 30
0.0
 10
-139.2564
 20
-54.0381
 30
0.0
 10
-138.7712
 20
-53.2012
 30
0.0
 10
-138.1735
 20
-53.2012
 30
0.0
  0
SPLINE
  5
7D
330
1F
100
AcDbEntity
  8
layer 1
 62
     7
370
     9
100
AcDbSpline
210
0.0
220
0.0
230
1.0
 70
    11
 71
     3
 72
    60
 73
    56
 74
     0
 42
0.0000000001
 43
0.0000000001
 12
1.0
 22
0.0
 32
0.0
 13
1.0
 23
0.0
 33
0.0
 40
0.0
 40
0.0
 40
0.0
 40
0.0
 40
0.0666666666666667
 40
0.0666666666666667
 40
0.0666666666666667
 40
0.0666666666666667
 40
0.1333333333333333
 40
0.1333333333333333
 40
0.1333333333333333
 40
0.1333333333333333
 40
0.2
 40
0.2
 40
0.2
 40
0.2
 40
0.2666666666666667
 40
0.2666666666666667
 40
0.2666666666666667
 40
0.2666666666666667
 40
0.3333333333333333
 40
0.3333333333333333
 40
0.3333333333333333
 40
0.3333333333333333
 40
0.4
 40
0.4
 40
0.4
 40
0.4
 40
0.4666666666666667
 40
0.4666666666666667
 40
0.4666666666666667
 40
0.4666666666666667
 40
0.5333333333333333
 40
0.5333333333333333
 40
0.5333333333333333
 40
0.5333333333333333
 40
0.6
 40
0.6
 40
0.6
 40
0.6
 40
0.6666666666666666
 40
0.6666666666666666
 40
0.6666666666666666
 40
0.6666666666666666
 40
0.7333333333333333
 40
0.7333333333333333
 40
0.7333333333333333
 40
0.7333333333333333
 40
0.8
 40
0.8
 40
0.8
 40
0.8
 40
0.8666666666666667
 40
0.8666666666666667
 40
0.8666666666666667
 40
0.8666666666666667
 40
1.0
 40
1.0
 40
1.0
 40
1.0
 10
-135.4083
 20
-55.8175
 30
0.0
 10
-135.0263
 20
-55.3573
 30
0.0
 10
-134.4725
 20
-55.0737
 30
0.0
 10
-133.8758
 20
-55.0327
 30
0.0
 10
-133.8758
 20
-55.0327
 30
0.0
 10
-132.8374
 20
-55.2458
 30
0.0
 10
-131.7677
 20
-54.8554
 30
0.0
 10
-131.1108
 20
-54.0239
 30
0.0
 10
-131.1108
 20
-54.0239
 30
0.0
 10
-132.0588
 20
-53.5244
 30
0.0
 10
-133.2158
 20
-53.6582
 30
0.0
 10
-134.0252
 20
-54.3601
 30
0.0
 10
-134.0252
 20
-54.3601
 30
0.0
 10
-134.5466
 20
-54.7319
 30
0.0
 10
-135.2674
 20
-54.6337
 30
0.0
 10
-135.6699
 20
-54.136
 30
0.0
 10
-135.6699
 20
-54.136
 30
0.0
 10
-134.652
 20
-53.0334
 30
0.0
 10
-133.4347
 20
-52.1331
 30
0.0
 10
-132.0822
 20
-51.4826
 30
0.0
 10
-132.0822
 20
-51.4826
 30
0.0
 10
-131.9593
 20
-51.3866
 30
0.0
 10
-131.8907
 20
-51.2366
 30
0.0
 10
-131.8978
 20
-51.0805
 30
0.0
 10
-131.8978
 20
-51.0805
 30
0.0
 10
-131.905
 20
-50.9247
 30
0.0
 10
-131.9877
 20
-50.782
 30
0.0
 10
-132.1196
 20
-50.698
 30
0.0
 10
-132.1196
 20
-50.698
 30
0.0
 10
-133.2575
 20
-50.5586
 30
0.0
 10
-134.4122
 20
-50.6998
 30
0.0
 10
-135.4825
 20
-51.109
 30
0.0
 10
-135.4825
 20
-51.109
 30
0.0
 10
-135.1095
 20
-48.9636
 30
0.0
 10
-133.9168
 20
-47.047
 30
0.0
 10
-132.157
 20
-45.7651
 30
0.0
 10
-132.157
 20
-45.7651
 30
0.0
 10
-131.5001
 20
-45.311
 30
0.0
 10
-130.6099
 20
-45.4063
 30
0.0
 10
-130.0639
 20
-45.9892
 30
0.0
 10
-130.0639
 20
-45.9892
 30
0.0
 10
-128.4398
 20
-46.4462
 30
0.0
 10
-126.9518
 20
-47.2929
 30
0.0
 10
-125.729
 20
-48.4556
 30
0.0
 10
-125.729
 20
-48.4556
 30
0.0
 10
-126.7432
 20
-49.3217
 30
0.0
 10
-127.5043
 20
-50.4446
 30
0.0
 10
-127.9341
 20
-51.7071
 30
0.0
 10
-127.9341
 20
-51.7071
 30
0.0
 10
-127.6063
 20
-53.813
 30
0.0
 10
-128.5609
 20
-55.9127
 30
0.0
 10
-130.3634
 20
-57.0508
 30
0.0
 10
-130.3634
 20
-57.0508
 30
0.0
 10
-132.1269
 20
-57.8626
 30
0.0
 10
-134.2174
 20
-57.3516
 30
0.0
 10
-135.4083
 20
-55.8175
 30
0.0
  0
SPLINE
  5
7E
330
1F
100
AcDbEntity
  8
layer 1
 62
     7
370
     9
100
AcDbSpline
210
0.0
220
0.0
230
1.0
 70
    11
 71
     3
 72
    68
 73
    64
 74
     0
 42
0.0000000001
 43
0.0000000001
 12
1.0
 22
0.0
 32
0.0
 13
1.0
 23
0.0
 33
0.0
 40
0.0
 40
0.0
 40
0.0
 40
0.0
 40
0.0588235294117647
 40
0.0588235294117647
 40
0.0588235294117647
 40
0.0588235294117647
 40
0.1176470588235294
 40
0.1176470588235294
 40
0.1176470588235294
 40
0.1176470588235294
 40
0.1764705882352941
 40
0.1764705882352941
 40
0.1764705882352941
 40
0.1764705882352941
 40
0.2352941176470588
 40
0.2352941176470588
 40
0.2352941176470588
 40
0.2352941176470588
 40
0.2941176470588235
 40
0.2941176470588235
 40
0.2941176470588235
 40
0.2941176470588235
 40
0.3529411764705883
 40
0.3529411764705883
 40
0.3529411764705883
 40
0.3529411764705883
 40
0.4117647058823529
 40
0.4117647058823529
 40
0.4117647058823529
 40
0.4117647058823529
 40
0.4705882352941176
 40
0.4705882352941176
 40
0.4705882352941176
 40
0.4705882352941176
 40
0.5294117647058824
 40
0.5294117647058824
 40
0.5294117647058824
 40
0.5294117647058824
 40
0.5882352941176471
 40
0.5882352941176471
 40
0.5882352941176471
 40
0.5882352941176471
 40
0.6470588235294118
 40
0.6470588235294118
 40
0.6470588235294118
 40
0.6470588235294118
 40
0.7058823529411765
 40
0.7058823529411765
 40
0.7058823529411765
 40
0.7058823529411765
 40
0.7647058823529411
 40
0.7647058823529411
 40
0.7647058823529411
 40
0.7647058823529411
 40
0.8235294117647058
 40
0.8235294117647058
 40
0.8235294117647058
 40
0.8235294117647058
 40
0.8823529411764706
 40
0.8823529411764706
 40
0.8823529411764706
 40
0.8823529411764706
 40
1.0
 40
1.0
 40
1.0
 40
1.0
 10
-124.4211
 20
-64.1136
 30
0.0
 10
-124.4669
 20
-61.5982
 30
0.0
 10
-124.0229
 20
-59.0977
 30
0.0
 10
-123.1133
 20
-56.752
 30
0.0
 10
-123.1133
 20
-56.752
 30
0.0
 10
-123.569
 20
-56.0565
 30
0.0
 10
-123.6636
 20
-55.1851
 30
0.0
 10
-123.3677
 20
-54.4083
 30
0.0
 10
-123.3677
 20
-54.4083
 30
0.0
 10
-123.0718
 20
-53.6315
 30
0.0
 10
-122.4209
 20
-53.0437
 30
0.0
 10
-121.6182
 20
-52.8281
 30
0.0
 10
-121.6182
 20
-52.8281
 30
0.0
 10
-119.2689
 20
-52.4126
 30
0.0
 10
-116.8486
 20
-52.8358
 30
0.0
 10
-114.7797
 20
-54.0239
 30
0.0
 10
-114.7797
 20
-54.0239
 30
0.0
 10
-114.623
 20
-54.3036
 30
0.0
 10
-114.5959
 20
-54.6379
 30
0.0
 10
-114.705
 20
-54.9394
 30
0.0
 10
-114.705
 20
-54.9394
 30
0.0
 10
-115.4866
 20
-54.9036
 30
0.0
 10
-116.2164
 20
-55.3271
 30
0.0
 10
-116.5738
 20
-56.0231
 30
0.0
 10
-116.5738
 20
-56.0231
 30
0.0
 10
-115.9379
 20
-55.9549
 30
0.0
 10
-115.2961
 20
-55.98
 30
0.0
 10
-114.6676
 20
-56.098
 30
0.0
 10
-114.6676
 20
-56.098
 30
0.0
 10
-115.6444
 20
-56.7937
 30
0.0
 10
-116.4286
 20
-57.7259
 30
0.0
 10
-116.9474
 20
-58.8071
 30
0.0
 10
-116.9474
 20
-58.8071
 30
0.0
 10
-117.0487
 20
-58.9592
 30
0.0
 10
-117.0325
 20
-59.1613
 30
0.0
 10
-116.9078
 20
-59.2949
 30
0.0
 10
-116.9078
 20
-59.2949
 30
0.0
 10
-116.7829
 20
-59.4286
 30
0.0
 10
-116.5828
 20
-59.4589
 30
0.0
 10
-116.4243
 20
-59.3677
 30
0.0
 10
-116.4243
 20
-59.3677
 30
0.0
 10
-115.7765
 20
-58.6452
 30
0.0
 10
-115.0768
 20
-57.9707
 30
0.0
 10
-114.3312
 20
-57.3498
 30
0.0
 10
-114.3312
 20
-57.3498
 30
0.0
 10
-114.2752
 20
-59.9232
 30
0.0
 10
-115.1213
 20
-62.435
 30
0.0
 10
-116.7233
 20
-64.4502
 30
0.0
 10
-116.7233
 20
-64.4502
 30
0.0
 10
-116.8637
 20
-64.6502
 30
0.0
 10
-117.0981
 20
-64.763
 30
0.0
 10
-117.3417
 20
-64.7479
 30
0.0
 10
-117.3417
 20
-64.7479
 30
0.0
 10
-117.5856
 20
-64.7326
 30
0.0
 10
-117.8045
 20
-64.5916
 30
0.0
 10
-117.9189
 20
-64.3753
 30
0.0
 10
-117.9189
 20
-64.3753
 30
0.0
 10
-118.7531
 20
-65.1147
 30
0.0
 10
-120.0222
 20
-65.0652
 30
0.0
 10
-120.7961
 20
-64.2631
 30
0.0
 10
-120.7961
 20
-64.2631
 30
0.0
 10
-121.8838
 20
-65.0891
 30
0.0
 10
-123.4051
 20
-65.0262
 30
0.0
 10
-124.4211
 20
-64.1136
 30
0.0
  0
SPLINE
  5
7F
330
1F
100
AcDbEntity
  8
layer 1
 62
     7
370
     9
100
AcDbSpline
210
0.0
220
0.0
230
1.0
 70
    11
 71
     3
 72
    68
 73
    64
 74
     0
 42
0.0000000001
 43
0.0000000001
 12
1.0
 22
0.0
 32
0.0
 13
1.0
 23
0.0
 33
0.0
 40
0.0
 40
0.0
 40
0.0
 40
0.0
 40
0.0588235294117647
 40
0.0588235294117647
 40
0.0588235294117647
 40
0.0588235294117647
 40
0.1176470588235294
 40
0.1176470588235294
 40
0.1176470588235294
 40
0.1176470588235294
 40
0.1764705882352941
 40
0.1764705882352941
 40
0.1764705882352941
 40
0.1764705882352941
 40
0.2352941176470588
 40
0.2352941176470588
 40
0.2352941176470588
 40
0.2352941176470588
 40
0.2941176470588235
 40
0.2941176470588235
 40
0.2941176470588235
 40
0.2941176470588235
 40
0.3529411764705883
 40
0.3529411764705883
 40
0.3529411764705883
 40
0.3529411764705883
 40
0.4117647058823529
 40
0.4117647058823529
 40
0.4117647058823529
 40
0.4117647058823529
 40
0.4705882352941176
 40
0.4705882352941176
 40
0.4705882352941176
 40
0.4705882352941176
 40
0.5294117647058824
 40
0.5294117647058824
 40
0.5294117647058824
 40
0.5294117647058824
 40
0.5882352941176471
 40
0.5882352941176471
 40
0.5882352941176471
 40
0.5882352941176471
 40
0.6470588235294118
 40
0.6470588235294118
 40
0.6470588235294118
 40
0.6470588235294118
 40
0.7058823529411765
 40
0.7058823529411765
 40
0.7058823529411765
 40
0.7058823529411765
 40
0.7647058823529411
 40
0.7647058823529411
 40
0.7647058823529411
 40
0.7647058823529411
 40
0.8235294117647058
 40
0.8235294117647058
 40
0.8235294117647058
 40
0.8235294117647058
 40
0.8823529411764706
 40
0.8823529411764706
 40
0.8823529411764706
 40
0.8823529411764706
 40
1.0
 40
1.0
 40
1.0
 40
1.0
 10
-114.341
 20
-44.0462
 30
0.0
 10
-113.6834
 20
-44.7157
 30
0.0
 10
-113.3411
 20
-45.632
 30
0.0
 10
-113.3971
 20
-46.5685
 30
0.0
 10
-113.3971
 20
-46.5685
 30
0.0
 10
-113.5129
 20
-47.3508
 30
0.0
 10
-113.2244
 20
-48.1385
 30
0.0
 10
-112.6311
 20
-48.6613
 30
0.0
 10
-112.6311
 20
-48.6613
 30
0.0
 10
-112.1005
 20
-45.4221
 30
0.0
 10
-112.5223
 20
-42.0985
 30
0.0
 10
-113.8455
 20
-39.0945
 30
0.0
 10
-113.8455
 20
-39.0945
 30
0.0
 10
-114.2819
 20
-38.3196
 30
0.0
 10
-115.1473
 20
-37.8894
 30
0.0
 10
-116.0285
 20
-38.0089
 30
0.0
 10
-116.0285
 20
-38.0089
 30
0.0
 10
-116.9102
 20
-38.1284
 30
0.0
 10
-117.6297
 20
-38.7732
 30
0.0
 10
-117.8443
 20
-39.6364
 30
0.0
 10
-117.8443
 20
-39.6364
 30
0.0
 10
-119.533
 20
-39.2095
 30
0.0
 10
-121.3228
 20
-39.6745
 30
0.0
 10
-122.5902
 20
-40.8695
 30
0.0
 10
-122.5902
 20
-40.8695
 30
0.0
 10
-121.8309
 20
-41.0637
 30
0.0
 10
-121.1962
 20
-41.5843
 30
0.0
 10
-120.8576
 20
-42.291
 30
0.0
 10
-120.8576
 20
-42.291
 30
0.0
 10
-120.5189
 20
-42.9977
 30
0.0
 10
-120.5098
 20
-43.8181
 30
0.0
 10
-120.8335
 20
-44.5317
 30
0.0
 10
-120.8335
 20
-44.5317
 30
0.0
 10
-121.2041
 20
-45.807
 30
0.0
 10
-120.9094
 20
-47.1827
 30
0.0
 10
-120.0487
 20
-48.1942
 30
0.0
 10
-120.0487
 20
-48.1942
 30
0.0
 10
-118.474
 20
-49.7172
 30
0.0
 10
-116.5683
 20
-50.8555
 30
0.0
 10
-114.4807
 20
-51.52
 30
0.0
 10
-114.4807
 20
-51.52
 30
0.0
 10
-114.2866
 20
-51.1401
 30
0.0
 10
-114.2795
 20
-50.6915
 30
0.0
 10
-114.4621
 20
-50.3056
 30
0.0
 10
-114.4621
 20
-50.3056
 30
0.0
 10
-114.8712
 20
-49.7652
 30
0.0
 10
-115.1521
 20
-49.1391
 30
0.0
 10
-115.2841
 20
-48.4745
 30
0.0
 10
-115.2841
 20
-48.4745
 30
0.0
 10
-115.4053
 20
-48.1254
 30
0.0
 10
-115.2739
 20
-47.7386
 30
0.0
 10
-114.9647
 20
-47.5356
 30
0.0
 10
-114.9647
 20
-47.5356
 30
0.0
 10
-114.6562
 20
-47.3327
 30
0.0
 10
-114.2487
 20
-47.3655
 30
0.0
 10
-113.9762
 20
-47.6147
 30
0.0
 10
-113.9762
 20
-47.6147
 30
0.0
 10
-113.79
 20
-47.1974
 30
0.0
 10
-113.7967
 20
-46.719
 30
0.0
 10
-113.995
 20
-46.307
 30
0.0
 10
-113.995
 20
-46.307
 30
0.0
 10
-114.4368
 20
-45.6407
 30
0.0
 10
-114.5634
 20
-44.8137
 30
0.0
 10
-114.341
 20
-44.0462
 30
0.0
  0
SPLINE
  5
80
330
1F
100
AcDbEntity
  8
layer 1
 62
     7
370
     9
100
AcDbSpline
210
0.0
220
0.0
230
1.0
 70
    11
 71
     3
 72
    64
 73
    60
 74
     0
 42
0.0000000001
 43
0.0000000001
 12
1.0
 22
0.0
 32
0.0
 13
1.0
 23
0.0
 33
0.0
 40
0.0
 40
0.0
 40
0.0
 40
0.0
 40
0.0625
 40
0.0625
 40
0.0625
 40
0.0625
 40
0.125
 40
0.125
 40
0.125
 40
0.125
 40
0.1875
 40
0.1875
 40
0.1875
 40
0.1875
 40
0.25
 40
0.25
 40
0.25
 40
0.25
 40
0.3125
 40
0.3125
 40
0.3125
 40
0.3125
 40
0.375
 40
0.375
 40
0.375
 40
0.375
 40
0.4375
 40
0.4375
 40
0.4375
 40
0.4375
 40
0.5
 40
0.5
 40
0.5
 40
0.5
 40
0.5625
 40
0.5625
 40
0.5625
 40
0.5625
 40
0.625
 40
0.625
 40
0.625
 40
0.625
 40
0.6875
 40
0.6875
 40
0.6875
 40
0.6875
 40
0.75
 40
0.75
 40
0.75
 40
0.75
 40
0.8125
 40
0.8125
 40
0.8125
 40
0.8125
 40
0.875
 40
0.875
 40
0.875
 40
0.875
 40
1.0
 40
1.0
 40
1.0
 40
1.0
 10
-110.4447
 20
-58.0225
 30
0.0
 10
-110.4401
 20
-60.3173
 30
0.0
 10
-109.8892
 20
-62.5783
 30
0.0
 10
-108.8379
 20
-64.6183
 30
0.0
 10
-108.8379
 20
-64.6183
 30
0.0
 10
-108.2551
 20
-66.1717
 30
0.0
 10
-106.7398
 20
-67.1746
 30
0.0
 10
-105.0822
 20
-67.1034
 30
0.0
 10
-105.0822
 20
-67.1034
 30
0.0
 10
-104.4647
 20
-67.3443
 30
0.0
 10
-103.7625
 20
-67.1724
 30
0.0
 10
-103.3257
 20
-66.6736
 30
0.0
 10
-103.3257
 20
-66.6736
 30
0.0
 10
-103.3406
 20
-66.3674
 30
0.0
 10
-103.2895
 20
-66.0615
 30
0.0
 10
-103.1762
 20
-65.7767
 30
0.0
 10
-103.1762
 20
-65.7767
 30
0.0
 10
-103.1414
 20
-65.9316
 30
0.0
 10
-103.0414
 20
-66.0639
 30
0.0
 10
-102.9015
 20
-66.1392
 30
0.0
 10
-102.9015
 20
-66.1392
 30
0.0
 10
-102.7616
 20
-66.2144
 30
0.0
 10
-102.5962
 20
-66.2253
 30
0.0
 10
-102.4476
 20
-66.1691
 30
0.0
 10
-102.4476
 20
-66.1691
 30
0.0
 10
-101.3579
 20
-65.7383
 30
0.0
 10
-100.1164
 20
-66.1469
 30
0.0
 10
-99.4952
 20
-67.1406
 30
0.0
 10
-99.4952
 20
-67.1406
 30
0.0
 10
-99.3451
 20
-64.7466
 30
0.0
 10
-99.6107
 20
-62.3441
 30
0.0
 10
-100.2802
 20
-60.0406
 30
0.0
 10
-100.2802
 20
-60.0406
 30
0.0
 10
-100.8085
 20
-59.3043
 30
0.0
 10
-101.048
 20
-58.4
 30
0.0
 10
-100.9528
 20
-57.4992
 30
0.0
 10
-100.9528
 20
-57.4992
 30
0.0
 10
-101.5203
 20
-56.255
 30
0.0
 10
-102.571
 20
-55.2961
 30
0.0
 10
-103.8621
 20
-54.8446
 30
0.0
 10
-103.8621
 20
-54.8446
 30
0.0
 10
-105.1528
 20
-54.3931
 30
0.0
 10
-106.5723
 20
-54.4883
 30
0.0
 10
-107.7917
 20
-55.1075
 30
0.0
 10
-107.7917
 20
-55.1075
 30
0.0
 10
-106.4566
 20
-56.5566
 30
0.0
 10
-105.4271
 20
-58.2596
 30
0.0
 10
-104.7646
 20
-60.1151
 30
0.0
 10
-104.7646
 20
-60.1151
 30
0.0
 10
-106.4067
 20
-59.0262
 30
0.0
 10
-108.0763
 20
-57.9795
 30
0.0
 10
-109.7722
 20
-56.9761
 30
0.0
 10
-109.7722
 20
-56.9761
 30
0.0
 10
-108.4431
 20
-58.793
 30
0.0
 10
-107.4439
 20
-60.8297
 30
0.0
 10
-106.8201
 20
-62.9926
 30
0.0
 10
-106.8201
 20
-62.9926
 30
0.0
 10
-107.7818
 20
-61.1695
 30
0.0
 10
-109.0025
 20
-59.4953
 30
0.0
 10
-110.4447
 20
-58.0225
 30
0.0
  0
SPLINE
  5
81
330
1F
100
AcDbEntity
  8
layer 1
 62
     7
370
     9
100
AcDbSpline
210
0.0
220
0.0
230
1.0
 70
    11
 71
     3
 72
    20
 73
    16
 74
     0
 42
0.0000000001
 43
0.0000000001
 12
1.0
 22
0.0
 32
0.0
 13
1.0
 23
0.0
 33
0.0
 40
0.0
 40
0.0
 40
0.0
 40
0.0
 40
0.2
 40
0.2
 40
0.2
 40
0.2
 40
0.4
 40
0.4
 40
0.4
 40
0.4
 40
0.6
 40
0.6
 40
0.6
 40
0.6
 40
1.0
 40
1.0
 40
1.0
 40
1.0
 10
-122.5535
 20
-10.2258
 30
0.0
 10
-121.8514
 20
-10.2258
 30
0.0
 10
-121.2825
 20
-11.1968
 30
0.0
 10
-121.2825
 20
-12.3942
 30
0.0
 10
-121.2825
 20
-12.3942
 30
0.0
 10
-121.2825
 20
-13.5913
 30
0.0
 10
-121.8514
 20
-14.5614
 30
0.0
 10
-122.5535
 20
-14.5614
 30
0.0
 10
-122.5535
 20
-14.5614
 30
0.0
 10
-123.2556
 20
-14.5614
 30
0.0
 10
-123.8245
 20
-13.5913
 30
0.0
 10
-123.8245
 20
-12.3942
 30
0.0
 10
-123.8245
 20
-12.3942
 30
0.0
 10
-123.8245
 20
-11.1968
 30
0.0
 10
-123.2556
 20
-10.2258
 30
0.0
 10
-122.5535
 20
-10.2258
 30
0.0
  0
SPLINE
  5
82
330
1F
100
AcDbEntity
  8
layer 1
 62
     7
370
     9
100
AcDbSpline
210
0.0
220
0.0
230
1.0
 70
    11
 71
     3
 72
    64
 73
    60
 74
     0
 42
0.0000000001
 43
0.0000000001
 12
1.0
 22
0.0
 32
0.0
 13
1.0
 23
0.0
 33
0.0
 40
0.0
 40
0.0
 40
0.0
 40
0.0
 40
0.0625
 40
0.0625
 40
0.0625
 40
0.0625
 40
0.125
 40
0.125
 40
0.125
 40
0.125
 40
0.1875
 40
0.1875
 40
0.1875
 40
0.1875
 40
0.25
 40
0.25
 40
0.25
 40
0.25
 40
0.3125
 40
0.3125
 40
0.3125
 40
0.3125
 40
0.375
 40
0.375
 40
0.375
 40
0.375
 40
0.4375
 40
0.4375
 40
0.4375
 40
0.4375
 40
0.5
 40
0.5
 40
0.5
 40
0.5
 40
0.5625
 40
0.5625
 40
0.5625
 40
0.5625
 40
0.625
 40
0.625
 40
0.625
 40
0.625
 40
0.6875
 40
0.6875
 40
0.6875
 40
0.6875
 40
0.75
 40
0.75
 40
0.75
 40
0.75
 40
0.8125
 40
0.8125
 40
0.8125
 40
0.8125
 40
0.875
 40
0.875
 40
0.875
 40
0.875
 40
1.0
 40
1.0
 40
1.0
 40
1.0
 10
-121.1704
 20
-16.9149
 30
0.0
 10
-121.1662
 20
-18.8482
 30
0.0
 10
-120.6779
 20
-20.7496
 30
0.0
 10
-119.7499
 20
-22.4461
 30
0.0
 10
-119.7499
 20
-22.4461
 30
0.0
 10
-119.4781
 20
-23.8444
 30
0.0
 10
-118.4584
 20
-24.9795
 30
0.0
 10
-117.0969
 20
-25.3985
 30
0.0
 10
-117.0969
 20
-25.3985
 30
0.0
 10
-116.5466
 20
-25.7843
 30
0.0
 10
-115.8585
 20
-25.9192
 30
0.0
 10
-115.2033
 20
-25.7697
 30
0.0
 10
-115.2033
 20
-25.7697
 30
0.0
 10
-114.5482
 20
-25.6203
 30
0.0
 10
-113.9865
 20
-25.2
 30
0.0
 10
-113.6587
 20
-24.6135
 30
0.0
 10
-113.6587
 20
-24.6135
 30
0.0
 10
-112.9603
 20
-24.9639
 30
0.0
 10
-112.1466
 20
-25.0046
 30
0.0
 10
-111.4166
 20
-24.7256
 30
0.0
 10
-111.4166
 20
-24.7256
 30
0.0
 10
-110.9434
 20
-24.7777
 30
0.0
 10
-110.5151
 20
-25.0293
 30
0.0
 10
-110.2392
 20
-25.417
 30
0.0
 10
-110.2392
 20
-25.417
 30
0.0
 10
-109.8685
 20
-21.4276
 30
0.0
 10
-110.9065
 20
-17.435
 30
0.0
 10
-113.1728
 20
-14.1311
 30
0.0
 10
-113.1728
 20
-14.1311
 30
0.0
 10
-114.7115
 20
-13.0012
 30
0.0
 10
-116.7655
 20
-12.8625
 30
0.0
 10
-118.442
 20
-13.7763
 30
0.0
 10
-118.442
 20
-13.7763
 30
0.0
 10
-117.1271
 20
-15.1672
 30
0.0
 10
-116.1766
 20
-16.8619
 30
0.0
 10
-115.6764
 20
-18.709
 30
0.0
 10
-115.6764
 20
-18.709
 30
0.0
 10
-116.513
 20
-18.4806
 30
0.0
 10
-117.2325
 20
-17.9472
 30
0.0
 10
-117.6948
 20
-17.2145
 30
0.0
 10
-117.6948
 20
-17.2145
 30
0.0
 10
-118.4198
 20
-16.417
 30
0.0
 10
-119.3509
 20
-15.8348
 30
0.0
 10
-120.3851
 20
-15.5325
 30
0.0
 10
-120.3851
 20
-15.5325
 30
0.0
 10
-120.335
 20
-16.5858
 30
0.0
 10
-119.8138
 20
-17.5603
 30
0.0
 10
-118.9651
 20
-18.1859
 30
0.0
 10
-118.9651
 20
-18.1859
 30
0.0
 10
-117.99
 20
-19.0194
 30
0.0
 10
-117.3741
 20
-20.1976
 30
0.0
 10
-117.2464
 20
-21.4746
 30
0.0
 10
-117.2464
 20
-21.4746
 30
0.0
 10
-118.0117
 20
-21.0101
 30
0.0
 10
-118.6132
 20
-20.3175
 30
0.0
 10
-118.9651
 20
-19.4938
 30
0.0
 10
-118.9651
 20
-19.4938
 30
0.0
 10
-119.4021
 20
-18.4185
 30
0.0
 10
-120.1753
 20
-17.5133
 30
0.0
 10
-121.1704
 20
-16.9149
 30
0.0
  0
SPLINE
  5
83
330
1F
100
AcDbEntity
  8
layer 1
 62
     7
370
     9
100
AcDbSpline
210
0.0
220
0.0
230
1.0
 70
    11
 71
     3
 72
    68
 73
    64
 74
     0
 42
0.0000000001
 43
0.0000000001
 12
1.0
 22
0.0
 32
0.0
 13
1.0
 23
0.0
 33
0.0
 40
0.0
 40
0.0
 40
0.0
 40
0.0
 40
0.0588235294117647
 40
0.0588235294117647
 40
0.0588235294117647
 40
0.0588235294117647
 40
0.1176470588235294
 40
0.1176470588235294
 40
0.1176470588235294
 40
0.1176470588235294
 40
0.1764705882352941
 40
0.1764705882352941
 40
0.1764705882352941
 40
0.1764705882352941
 40
0.2352941176470588
 40
0.2352941176470588
 40
0.2352941176470588
 40
0.2352941176470588
 40
0.2941176470588235
 40
0.2941176470588235
 40
0.2941176470588235
 40
0.2941176470588235
 40
0.3529411764705883
 40
0.3529411764705883
 40
0.3529411764705883
 40
0.3529411764705883
 40
0.4117647058823529
 40
0.4117647058823529
 40
0.4117647058823529
 40
0.4117647058823529
 40
0.4705882352941176
 40
0.4705882352941176
 40
0.4705882352941176
 40
0.4705882352941176
 40
0.5294117647058824
 40
0.5294117647058824
 40
0.5294117647058824
 40
0.5294117647058824
 40
0.5882352941176471
 40
0.5882352941176471
 40
0.5882352941176471
 40
0.5882352941176471
 40
0.6470588235294118
 40
0.6470588235294118
 40
0.6470588235294118
 40
0.6470588235294118
 40
0.7058823529411765
 40
0.7058823529411765
 40
0.7058823529411765
 40
0.7058823529411765
 40
0.7647058823529411
 40
0.7647058823529411
 40
0.7647058823529411
 40
0.7647058823529411
 40
0.8235294117647058
 40
0.8235294117647058
 40
0.8235294117647058
 40
0.8235294117647058
 40
0.8823529411764706
 40
0.8823529411764706
 40
0.8823529411764706
 40
0.8823529411764706
 40
1.0
 40
1.0
 40
1.0
 40
1.0
 10
-123.7859
 20
-25.2675
 30
0.0
 10
-123.5618
 20
-24.0036
 30
0.0
 10
-123.511
 20
-22.715
 30
0.0
 10
-123.6364
 20
-21.4374
 30
0.0
 10
-123.6364
 20
-21.4374
 30
0.0
 10
-124.9551
 20
-23.5906
 30
0.0
 10
-126.5787
 20
-25.5418
 30
0.0
 10
-128.4572
 20
-27.2295
 30
0.0
 10
-128.4572
 20
-27.2295
 30
0.0
 10
-128.7164
 20
-27.5703
 30
0.0
 10
-128.8242
 20
-28.0026
 30
0.0
 10
-128.7562
 20
-28.4254
 30
0.0
 10
-128.7562
 20
-28.4254
 30
0.0
 10
-128.4283
 20
-29.6627
 30
0.0
 10
-127.4797
 20
-30.6401
 30
0.0
 10
-126.2521
 20
-31.0039
 30
0.0
 10
-126.2521
 20
-31.0039
 30
0.0
 10
-126.3394
 20
-32.7552
 30
0.0
 10
-125.6403
 20
-34.4541
 30
0.0
 10
-124.3464
 20
-35.6377
 30
0.0
 10
-124.3464
 20
-35.6377
 30
0.0
 10
-122.9596
 20
-34.9502
 30
0.0
 10
-121.87
 20
-33.7812
 30
0.0
 10
-121.2825
 20
-32.3491
 30
0.0
 10
-121.2825
 20
-32.3491
 30
0.0
 10
-119.1044
 20
-30.8324
 30
0.0
 10
-118.406
 20
-27.9262
 30
0.0
 10
-119.6565
 20
-25.5851
 30
0.0
 10
-119.6565
 20
-25.5851
 30
0.0
 10
-120.1813
 20
-23.5436
 30
0.0
 10
-121.0064
 20
-21.5916
 30
0.0
 10
-122.1046
 20
-19.7926
 30
0.0
 10
-122.1046
 20
-19.7926
 30
0.0
 10
-122.3318
 20
-20.8425
 30
0.0
 10
-122.3063
 20
-21.9314
 30
0.0
 10
-122.0297
 20
-22.9692
 30
0.0
 10
-122.0297
 20
-22.9692
 30
0.0
 10
-121.3517
 20
-24.4927
 30
0.0
 10
-120.9535
 20
-26.1256
 30
0.0
 10
-120.8522
 20
-27.79
 30
0.0
 10
-120.8522
 20
-27.79
 30
0.0
 10
-120.8889
 20
-27.9756
 30
0.0
 10
-121.0414
 20
-28.1158
 30
0.0
 10
-121.2294
 20
-28.1373
 30
0.0
 10
-121.2294
 20
-28.1373
 30
0.0
 10
-121.4168
 20
-28.1585
 30
0.0
 10
-121.597
 20
-28.0559
 30
0.0
 10
-121.6747
 20
-27.8835
 30
0.0
 10
-121.6747
 20
-27.8835
 30
0.0
 10
-121.6838
 20
-26.7881
 30
0.0
 10
-121.9394
 20
-25.7089
 30
0.0
 10
-122.4221
 20
-24.7256
 30
0.0
 10
-122.4221
 20
-24.7256
 30
0.0
 10
-122.724
 20
-24.9962
 30
0.0
 10
-123.017
 20
-25.2765
 30
0.0
 10
-123.3002
 20
-25.5666
 30
0.0
 10
-123.3002
 20
-25.5666
 30
0.0
 10
-123.4044
 20
-25.6156
 30
0.0
 10
-123.5262
 20
-25.6092
 30
0.0
 10
-123.6245
 20
-25.5488
 30
0.0
 10
-123.6245
 20
-25.5488
 30
0.0
 10
-123.722
 20
-25.4885
 30
0.0
 10
-123.7835
 20
-25.3826
 30
0.0
 10
-123.7859
 20
-25.2675
 30
0.0
  0
SPLINE
  5
84
330
1F
100
AcDbEntity
  8
layer 1
 62
     7
370
     9
100
AcDbSpline
210
0.0
220
0.0
230
1.0
 70
    11
 71
     3
 72
    68
 73
    64
 74
     0
 42
0.0000000001
 43
0.0000000001
 12
1.0
 22
0.0
 32
0.0
 13
1.0
 23
0.0
 33
0.0
 40
0.0
 40
0.0
 40
0.0
 40
0.0
 40
0.0588235294117647
 40
0.0588235294117647
 40
0.0588235294117647
 40
0.0588235294117647
 40
0.1176470588235294
 40
0.1176470588235294
 40
0.1176470588235294
 40
0.1176470588235294
 40
0.1764705882352941
 40
0.1764705882352941
 40
0.1764705882352941
 40
0.1764705882352941
 40
0.2352941176470588
 40
0.2352941176470588
 40
0.2352941176470588
 40
0.2352941176470588
 40
0.2941176470588235
 40
0.2941176470588235
 40
0.2941176470588235
 40
0.2941176470588235
 40
0.3529411764705883
 40
0.3529411764705883
 40
0.3529411764705883
 40
0.3529411764705883
 40
0.4117647058823529
 40
0.4117647058823529
 40
0.4117647058823529
 40
0.4117647058823529
 40
0.4705882352941176
 40
0.4705882352941176
 40
0.4705882352941176
 40
0.4705882352941176
 40
0.5294117647058824
 40
0.5294117647058824
 40
0.5294117647058824
 40
0.5294117647058824
 40
0.5882352941176471
 40
0.5882352941176471
 40
0.5882352941176471
 40
0.5882352941176471
 40
0.6470588235294118
 40
0.6470588235294118
 40
0.6470588235294118
 40
0.6470588235294118
 40
0.7058823529411765
 40
0.7058823529411765
 40
0.7058823529411765
 40
0.7058823529411765
 40
0.7647058823529411
 40
0.7647058823529411
 40
0.7647058823529411
 40
0.7647058823529411
 40
0.8235294117647058
 40
0.8235294117647058
 40
0.8235294117647058
 40
0.8235294117647058
 40
0.8823529411764706
 40
0.8823529411764706
 40
0.8823529411764706
 40
0.8823529411764706
 40
1.0
 40
1.0
 40
1.0
 40
1.0
 10
-127.8593
 20
-18.3728
 30
0.0
 10
-127.4013
 20
-16.9342
 30
0.0
 10
-126.4817
 20
-15.686
 30
0.0
 10
-125.2431
 20
-14.8225
 30
0.0
 10
-125.2431
 20
-14.8225
 30
0.0
 10
-125.9705
 20
-14.7271
 30
0.0
 10
-126.6848
 20
-14.5519
 30
0.0
 10
-127.3736
 20
-14.2994
 30
0.0
 10
-127.3736
 20
-14.2994
 30
0.0
 10
-126.5522
 20
-14.1373
 30
0.0
 10
-125.7831
 20
-13.778
 30
0.0
 10
-125.1311
 20
-13.253
 30
0.0
 10
-125.1311
 20
-13.253
 30
0.0
 10
-126.8572
 20
-11.6959
 30
0.0
 10
-129.1787
 20
-10.972
 30
0.0
 10
-131.4844
 20
-11.2727
 30
0.0
 10
-131.4844
 20
-11.2727
 30
0.0
 10
-132.4023
 20
-11.3848
 30
0.0
 10
-133.2141
 20
-11.9219
 30
0.0
 10
-133.6769
 20
-12.7222
 30
0.0
 10
-133.6769
 20
-12.7222
 30
0.0
 10
-134.1397
 20
-13.5231
 30
0.0
 10
-134.1995
 20
-14.4946
 30
0.0
 10
-133.8383
 20
-15.3456
 30
0.0
 10
-133.8383
 20
-15.3456
 30
0.0
 10
-133.8028
 20
-15.6221
 30
0.0
 10
-133.8288
 20
-15.9025
 30
0.0
 10
-133.9132
 20
-16.1681
 30
0.0
 10
-133.9132
 20
-16.1681
 30
0.0
 10
-134.8757
 20
-17.9407
 30
0.0
 10
-135.3282
 20
-19.9456
 30
0.0
 10
-135.2209
 20
-21.9605
 30
0.0
 10
-135.2209
 20
-21.9605
 30
0.0
 10
-134.9015
 20
-22.6445
 30
0.0
 10
-134.2904
 20
-23.1478
 30
0.0
 10
-133.557
 20
-23.329
 30
0.0
 10
-133.557
 20
-23.329
 30
0.0
 10
-132.8241
 20
-23.5104
 30
0.0
 10
-132.0485
 20
-23.3507
 30
0.0
 10
-131.447
 20
-22.8946
 30
0.0
 10
-131.447
 20
-22.8946
 30
0.0
 10
-131.0867
 20
-23.2887
 30
0.0
 10
-130.5839
 20
-23.5219
 30
0.0
 10
-130.0501
 20
-23.5431
 30
0.0
 10
-130.0501
 20
-23.5431
 30
0.0
 10
-129.5167
 20
-23.5641
 30
0.0
 10
-128.9972
 20
-23.3712
 30
0.0
 10
-128.6067
 20
-23.0067
 30
0.0
 10
-128.6067
 20
-23.0067
 30
0.0
 10
-128.3571
 20
-23.2417
 30
0.0
 10
-128.0154
 20
-23.3526
 30
0.0
 10
-127.6755
 20
-23.3092
 30
0.0
 10
-127.6755
 20
-23.3092
 30
0.0
 10
-127.3357
 20
-23.2658
 30
0.0
 10
-127.0331
 20
-23.0724
 30
0.0
 10
-126.8505
 20
-22.7825
 30
0.0
 10
-126.8505
 20
-22.7825
 30
0.0
 10
-125.5325
 20
-20.7243
 30
0.0
 10
-124.8798
 20
-18.3107
 30
0.0
 10
-124.9816
 20
-15.8693
 30
0.0
 10
-124.9816
 20
-15.8693
 30
0.0
 10
-125.7006
 20
-16.9451
 30
0.0
 10
-126.6939
 20
-17.8099
 30
0.0
 10
-127.8593
 20
-18.3728
 30
0.0
  0
SPLINE
  5
85
330
1F
100
AcDbEntity
  8
layer 1
 62
     7
370
     9
100
AcDbSpline
210
0.0
220
0.0
230
1.0
 70
    11
 71
     3
 72
    64
 73
    60
 74
     0
 42
0.0000000001
 43
0.0000000001
 12
1.0
 22
0.0
 32
0.0
 13
1.0
 23
0.0
 33
0.0
 40
0.0
 40
0.0
 40
0.0
 40
0.0
 40
0.0625
 40
0.0625
 40
0.0625
 40
0.0625
 40
0.125
 40
0.125
 40
0.125
 40
0.125
 40
0.1875
 40
0.1875
 40
0.1875
 40
0.1875
 40
0.25
 40
0.25
 40
0.25
 40
0.25
 40
0.3125
 40
0.3125
 40
0.3125
 40
0.3125
 40
0.375
 40
0.375
 40
0.375
 40
0.375
 40
0.4375
 40
0.4375
 40
0.4375
 40
0.4375
 40
0.5
 40
0.5
 40
0.5
 40
0.5
 40
0.5625
 40
0.5625
 40
0.5625
 40
0.5625
 40
0.625
 40
0.625
 40
0.625
 40
0.625
 40
0.6875
 40
0.6875
 40
0.6875
 40
0.6875
 40
0.75
 40
0.75
 40
0.75
 40
0.75
 40
0.8125
 40
0.8125
 40
0.8125
 40
0.8125
 40
0.875
 40
0.875
 40
0.875
 40
0.875
 40
1.0
 40
1.0
 40
1.0
 40
1.0
 10
-133.278
 20
0.4618
 30
0.0
 10
-132.0111
 20
1.7406
 30
0.0
 10
-130.176
 20
2.2771
 30
0.0
 10
-128.4198
 20
1.8818
 30
0.0
 10
-128.4198
 20
1.8818
 30
0.0
 10
-128.0564
 20
2.7525
 30
0.0
 10
-127.1946
 20
3.3106
 30
0.0
 10
-126.2514
 20
3.2853
 30
0.0
 10
-126.2514
 20
3.2853
 30
0.0
 10
-125.3082
 20
3.2606
 30
0.0
 10
-124.4771
 20
2.6585
 30
0.0
 10
-124.1595
 20
1.7695
 30
0.0
 10
-124.1595
 20
1.7695
 30
0.0
 10
-122.9879
 20
-1.1371
 30
0.0
 10
-122.7402
 20
-4.3336
 30
0.0
 10
-123.4497
 20
-7.3862
 30
0.0
 10
-123.4497
 20
-7.3862
 30
0.0
 10
-123.9535
 20
-6.0332
 30
0.0
 10
-124.2313
 20
-4.6065
 30
0.0
 10
-124.2716
 20
-3.1632
 30
0.0
 10
-124.2716
 20
-3.1632
 30
0.0
 10
-124.4187
 20
-2.977
 30
0.0
 10
-124.6773
 20
-2.9221
 30
0.0
 10
-124.8869
 20
-3.0318
 30
0.0
 10
-124.8869
 20
-3.0318
 30
0.0
 10
-125.0974
 20
-3.141
 30
0.0
 10
-125.1997
 20
-3.3844
 30
0.0
 10
-125.1311
 20
-3.6116
 30
0.0
 10
-125.1311
 20
-3.6116
 30
0.0
 10
-124.7677
 20
-4.4198
 30
0.0
 10
-124.6134
 20
-5.3063
 30
0.0
 10
-124.6826
 20
-6.1898
 30
0.0
 10
-124.6826
 20
-6.1898
 30
0.0
 10
-125.0696
 20
-6.0332
 30
0.0
 10
-125.5137
 20
-6.1543
 30
0.0
 10
-125.7669
 20
-6.4864
 30
0.0
 10
-125.7669
 20
-6.4864
 30
0.0
 10
-126.0206
 20
-6.8183
 30
0.0
 10
-126.0201
 20
-7.2782
 30
0.0
 10
-125.7669
 20
-7.6103
 30
0.0
 10
-125.7669
 20
-7.6103
 30
0.0
 10
-125.2932
 20
-8.3173
 30
0.0
 10
-125.0455
 20
-9.1513
 30
0.0
 10
-125.0564
 20
-10.0017
 30
0.0
 10
-125.0564
 20
-10.0017
 30
0.0
 10
-127.2651
 20
-9.4624
 30
0.0
 10
-129.2822
 20
-8.3244
 30
0.0
 10
-130.8865
 20
-6.7129
 30
0.0
 10
-130.8865
 20
-6.7129
 30
0.0
 10
-131.7338
 20
-6.0199
 30
0.0
 10
-132.0618
 20
-4.8724
 30
0.0
 10
-131.7085
 20
-3.8357
 30
0.0
 10
-131.7085
 20
-3.8357
 30
0.0
 10
-131.318
 20
-3.062
 30
0.0
 10
-131.2651
 20
-2.161
 30
0.0
 10
-131.5628
 20
-1.3468
 30
0.0
 10
-131.5628
 20
-1.3468
 30
0.0
 10
-131.8599
 20
-0.5332
 30
0.0
 10
-132.4806
 20
0.122
 30
0.0
 10
-133.278
 20
0.4618
 30
0.0
  0
SPLINE
  5
86
330
1F
100
AcDbEntity
  8
layer 1
 62
     7
370
     9
100
AcDbSpline
210
0.0
220
0.0
230
1.0
 70
    11
 71
     3
 72
    64
 73
    60
 74
     0
 42
0.0000000001
 43
0.0000000001
 12
1.0
 22
0.0
 32
0.0
 13
1.0
 23
0.0
 33
0.0
 40
0.0
 40
0.0
 40
0.0
 40
0.0
 40
0.0625
 40
0.0625
 40
0.0625
 40
0.0625
 40
0.125
 40
0.125
 40
0.125
 40
0.125
 40
0.1875
 40
0.1875
 40
0.1875
 40
0.1875
 40
0.25
 40
0.25
 40
0.25
 40
0.25
 40
0.3125
 40
0.3125
 40
0.3125
 40
0.3125
 40
0.375
 40
0.375
 40
0.375
 40
0.375
 40
0.4375
 40
0.4375
 40
0.4375
 40
0.4375
 40
0.5
 40
0.5
 40
0.5
 40
0.5
 40
0.5625
 40
0.5625
 40
0.5625
 40
0.5625
 40
0.625
 40
0.625
 40
0.625
 40
0.625
 40
0.6875
 40
0.6875
 40
0.6875
 40
0.6875
 40
0.75
 40
0.75
 40
0.75
 40
0.75
 40
0.8125
 40
0.8125
 40
0.8125
 40
0.8125
 40
0.875
 40
0.875
 40
0.875
 40
0.875
 40
1.0
 40
1.0
 40
1.0
 40
1.0
 10
-118.4608
 20
-3.4995
 30
0.0
 10
-118.0565
 20
-3.1512
 30
0.0
 10
-117.4549
 20
-3.1638
 30
0.0
 10
-117.0656
 20
-3.5291
 30
0.0
 10
-117.0656
 20
-3.5291
 30
0.0
 10
-116.6763
 20
-3.8943
 30
0.0
 10
-116.6257
 20
-4.494
 30
0.0
 10
-116.9474
 20
-4.9193
 30
0.0
 10
-116.9474
 20
-4.9193
 30
0.0
 10
-118.1275
 20
-5.3492
 30
0.0
 10
-118.8814
 20
-6.5069
 30
0.0
 10
-118.797
 20
-7.7598
 30
0.0
 10
-118.797
 20
-7.7598
 30
0.0
 10
-118.0033
 20
-7.9086
 30
0.0
 10
-117.1843
 20
-7.8442
 30
0.0
 10
-116.4243
 20
-7.5729
 30
0.0
 10
-116.4243
 20
-7.5729
 30
0.0
 10
-116.2936
 20
-8.0075
 30
0.0
 10
-116.4598
 20
-8.4763
 30
0.0
 10
-116.8353
 20
-8.7314
 30
0.0
 10
-116.8353
 20
-8.7314
 30
0.0
 10
-118.107
 20
-9.0344
 30
0.0
 10
-119.1604
 20
-9.9209
 30
0.0
 10
-119.6751
 20
-11.1232
 30
0.0
 10
-119.6751
 20
-11.1232
 30
0.0
 10
-118.0491
 20
-11.6494
 30
0.0
 10
-116.2683
 20
-11.3523
 30
0.0
 10
-114.9008
 20
-10.3266
 30
0.0
 10
-114.9008
 20
-10.3266
 30
0.0
 10
-113.5334
 20
-9.3007
 30
0.0
 10
-112.7495
 20
-7.6747
 30
0.0
 10
-112.7992
 20
-5.9662
 30
0.0
 10
-112.7992
 20
-5.9662
 30
0.0
 10
-111.8389
 20
-4.4945
 30
0.0
 10
-111.9527
 20
-2.5683
 30
0.0
 10
-113.0795
 20
-1.2203
 30
0.0
 10
-113.0795
 20
-1.2203
 30
0.0
 10
-112.791
 20
-0.5911
 30
0.0
 10
-112.9094
 20
0.149
 30
0.0
 10
-113.3797
 20
0.6565
 30
0.0
 10
-113.3797
 20
0.6565
 30
0.0
 10
-113.8503
 20
1.1639
 30
0.0
 10
-114.5796
 20
1.3375
 30
0.0
 10
-115.2281
 20
1.0969
 30
0.0
 10
-115.2281
 20
1.0969
 30
0.0
 10
-115.9615
 20
1.8883
 30
0.0
 10
-117.1126
 20
2.1348
 30
0.0
 10
-118.1058
 20
1.7135
 30
0.0
 10
-118.1058
 20
1.7135
 30
0.0
 10
-119.0399
 20
1.3013
 30
0.0
 10
-119.8227
 20
0.6094
 30
0.0
 10
-120.3477
 20
-0.2668
 30
0.0
 10
-120.3477
 20
-0.2668
 30
0.0
 10
-121.5417
 20
-2.7269
 30
0.0
 10
-121.89
 20
-5.5118
 30
0.0
 10
-121.3385
 20
-8.1895
 30
0.0
 10
-121.3385
 20
-8.1895
 30
0.0
 10
-120.5906
 20
-6.5055
 30
0.0
 10
-119.6227
 20
-4.9284
 30
0.0
 10
-118.4608
 20
-3.4995
 30
0.0
  0
SPLINE
  5
87
330
1F
100
AcDbEntity
  8
layer 1
 62
     7
370
     9
100
AcDbSpline
210
0.0
220
0.0
230
1.0
 70
    11
 71
     3
 72
    76
 73
    72
 74
     0
 42
0.0000000001
 43
0.0000000001
 12
1.0
 22
0.0
 32
0.0
 13
1.0
 23
0.0
 33
0.0
 40
0.0
 40
0.0
 40
0.0
 40
0.0
 40
0.0526315789473684
 40
0.0526315789473684
 40
0.0526315789473684
 40
0.0526315789473684
 40
0.1052631578947368
 40
0.1052631578947368
 40
0.1052631578947368
 40
0.1052631578947368
 40
0.1578947368421053
 40
0.1578947368421053
 40
0.1578947368421053
 40
0.1578947368421053
 40
0.2105263157894737
 40
0.2105263157894737
 40
0.2105263157894737
 40
0.2105263157894737
 40
0.2631578947368421
 40
0.2631578947368421
 40
0.2631578947368421
 40
0.2631578947368421
 40
0.3157894736842105
 40
0.3157894736842105
 40
0.3157894736842105
 40
0.3157894736842105
 40
0.3684210526315789
 40
0.3684210526315789
 40
0.3684210526315789
 40
0.3684210526315789
 40
0.4210526315789473
 40
0.4210526315789473
 40
0.4210526315789473
 40
0.4210526315789473
 40
0.4736842105263158
 40
0.4736842105263158
 40
0.4736842105263158
 40
0.4736842105263158
 40
0.5263157894736842
 40
0.5263157894736842
 40
0.5263157894736842
 40
0.5263157894736842
 40
0.5789473684210527
 40
0.5789473684210527
 40
0.5789473684210527
 40
0.5789473684210527
 40
0.631578947368421
 40
0.631578947368421
 40
0.631578947368421
 40
0.631578947368421
 40
0.6842105263157895
 40
0.6842105263157895
 40
0.6842105263157895
 40
0.6842105263157895
 40
0.7368421052631579
 40
0.7368421052631579
 40
0.7368421052631579
 40
0.7368421052631579
 40
0.7894736842105263
 40
0.7894736842105263
 40
0.7894736842105263
 40
0.7894736842105263
 40
0.8421052631578947
 40
0.8421052631578947
 40
0.8421052631578947
 40
0.8421052631578947
 40
0.8947368421052632
 40
0.8947368421052632
 40
0.8947368421052632
 40
0.8947368421052632
 40
1.0
 40
1.0
 40
1.0
 40
1.0
 10
-78.4933
 20
-56.9761
 30
0.0
 10
-80.619
 20
-53.8755
 30
0.0
 10
-80.8773
 20
-49.8598
 30
0.0
 10
-79.1661
 20
-46.5125
 30
0.0
 10
-79.1661
 20
-46.5125
 30
0.0
 10
-78.6126
 20
-45.8924
 30
0.0
 10
-77.9549
 20
-45.3739
 30
0.0
 10
-77.2227
 20
-44.9803
 30
0.0
 10
-77.2227
 20
-44.9803
 30
0.0
 10
-76.8663
 20
-44.7567
 30
0.0
 10
-76.6529
 20
-44.3627
 30
0.0
 10
-76.6606
 20
-43.942
 30
0.0
 10
-76.6606
 20
-43.942
 30
0.0
 10
-76.6681
 20
-43.5214
 30
0.0
 10
-76.8957
 20
-43.1353
 30
0.0
 10
-77.2602
 20
-42.925
 30
0.0
 10
-77.2602
 20
-42.925
 30
0.0
 10
-77.8464
 20
-42.6655
 30
0.0
 10
-78.42
 20
-42.3788
 30
0.0
 10
-78.9792
 20
-42.0655
 30
0.0
 10
-78.9792
 20
-42.0655
 30
0.0
 10
-78.1435
 20
-41.1134
 30
0.0
 10
-77.5536
 20
-39.9718
 30
0.0
 10
-77.2602
 20
-38.7395
 30
0.0
 10
-77.2602
 20
-38.7395
 30
0.0
 10
-77.1569
 20
-38.4025
 30
0.0
 10
-77.2855
 20
-38.0372
 30
0.0
 10
-77.5775
 20
-37.8397
 30
0.0
 10
-77.5775
 20
-37.8397
 30
0.0
 10
-77.8696
 20
-37.6422
 30
0.0
 10
-78.2564
 20
-37.6585
 30
0.0
 10
-78.5307
 20
-37.88
 30
0.0
 10
-78.5307
 20
-37.88
 30
0.0
 10
-79.4483
 20
-38.3526
 30
0.0
 10
-80.2223
 20
-39.0622
 30
0.0
 10
-80.7731
 20
-39.9352
 30
0.0
 10
-80.7731
 20
-39.9352
 30
0.0
 10
-80.988
 20
-39.635
 30
0.0
 10
-81.3398
 20
-39.4632
 30
0.0
 10
-81.7086
 20
-39.4782
 30
0.0
 10
-81.7086
 20
-39.4782
 30
0.0
 10
-82.0778
 20
-39.4934
 30
0.0
 10
-82.4142
 20
-39.6931
 30
0.0
 10
-82.6041
 20
-40.01
 30
0.0
 10
-82.6041
 20
-40.01
 30
0.0
 10
-84.0818
 20
-43.2268
 30
0.0
 10
-83.9573
 20
-46.9517
 30
0.0
 10
-82.2677
 20
-50.0626
 30
0.0
 10
-82.2677
 20
-50.0626
 30
0.0
 10
-82.9511
 20
-50.1316
 30
0.0
 10
-83.6397
 20
-50.1316
 30
0.0
 10
-84.3231
 20
-50.0626
 30
0.0
 10
-84.3231
 20
-50.0626
 30
0.0
 10
-84.6092
 20
-50.0918
 30
0.0
 10
-84.8438
 20
-50.3025
 30
0.0
 10
-84.9034
 20
-50.5838
 30
0.0
 10
-84.9034
 20
-50.5838
 30
0.0
 10
-84.9632
 20
-50.8652
 30
0.0
 10
-84.8342
 20
-51.1531
 30
0.0
 10
-84.5848
 20
-51.2957
 30
0.0
 10
-84.5848
 20
-51.2957
 30
0.0
 10
-83.9797
 20
-51.6551
 30
0.0
 10
-83.3414
 20
-51.9553
 30
0.0
 10
-82.6788
 20
-52.1926
 30
0.0
 10
-82.6788
 20
-52.1926
 30
0.0
 10
-82.885
 20
-52.6263
 30
0.0
 10
-83.2651
 20
-52.9521
 30
0.0
 10
-83.7251
 20
-53.0896
 30
0.0
 10
-83.7251
 20
-53.0896
 30
0.0
 10
-82.7211
 20
-55.1622
 30
0.0
 10
-80.7676
 20
-56.6133
 30
0.0
 10
-78.4933
 20
-56.9761
 30
0.0
  0
SPLINE
  5
88
330
1F
100
AcDbEntity
  8
layer 1
 62
     7
370
     9
100
AcDbSpline
210
0.0
220
0.0
230
1.0
 70
    11
 71
     3
 72
    68
 73
    64
 74
     0
 42
0.0000000001
 43
0.0000000001
 12
1.0
 22
0.0
 32
0.0
 13
1.0
 23
0.0
 33
0.0
 40
0.0
 40
0.0
 40
0.0
 40
0.0
 40
0.0588235294117647
 40
0.0588235294117647
 40
0.0588235294117647
 40
0.0588235294117647
 40
0.1176470588235294
 40
0.1176470588235294
 40
0.1176470588235294
 40
0.1176470588235294
 40
0.1764705882352941
 40
0.1764705882352941
 40
0.1764705882352941
 40
0.1764705882352941
 40
0.2352941176470588
 40
0.2352941176470588
 40
0.2352941176470588
 40
0.2352941176470588
 40
0.2941176470588235
 40
0.2941176470588235
 40
0.2941176470588235
 40
0.2941176470588235
 40
0.3529411764705883
 40
0.3529411764705883
 40
0.3529411764705883
 40
0.3529411764705883
 40
0.4117647058823529
 40
0.4117647058823529
 40
0.4117647058823529
 40
0.4117647058823529
 40
0.4705882352941176
 40
0.4705882352941176
 40
0.4705882352941176
 40
0.4705882352941176
 40
0.5294117647058824
 40
0.5294117647058824
 40
0.5294117647058824
 40
0.5294117647058824
 40
0.5882352941176471
 40
0.5882352941176471
 40
0.5882352941176471
 40
0.5882352941176471
 40
0.6470588235294118
 40
0.6470588235294118
 40
0.6470588235294118
 40
0.6470588235294118
 40
0.7058823529411765
 40
0.7058823529411765
 40
0.7058823529411765
 40
0.7058823529411765
 40
0.7647058823529411
 40
0.7647058823529411
 40
0.7647058823529411
 40
0.7647058823529411
 40
0.8235294117647058
 40
0.8235294117647058
 40
0.8235294117647058
 40
0.8235294117647058
 40
0.8823529411764706
 40
0.8823529411764706
 40
0.8823529411764706
 40
0.8823529411764706
 40
1.0
 40
1.0
 40
1.0
 40
1.0
 10
-103.3447
 20
19.1468
 30
0.0
 10
-105.3767
 20
15.6406
 30
0.0
 10
-104.6924
 20
11.1923
 30
0.0
 10
-101.7002
 20
8.4592
 30
0.0
 10
-101.7002
 20
8.4592
 30
0.0
 10
-100.9955
 20
8.4176
 30
0.0
 10
-100.3711
 20
7.9915
 30
0.0
 10
-100.0742
 20
7.3515
 30
0.0
 10
-100.0742
 20
7.3515
 30
0.0
 10
-99.7775
 20
6.7109
 30
0.0
 10
-99.8567
 20
5.9594
 30
0.0
 10
-100.2802
 20
5.3946
 30
0.0
 10
-100.2802
 20
5.3946
 30
0.0
 10
-100.5452
 20
4.9805
 30
0.0
 10
-100.9605
 20
4.6858
 30
0.0
 10
-101.4387
 20
4.5726
 30
0.0
 10
-101.4387
 20
4.5726
 30
0.0
 10
-100.5016
 20
4.0676
 30
0.0
 10
-99.7443
 20
3.2841
 30
0.0
 10
-99.2711
 20
2.3307
 30
0.0
 10
-99.2711
 20
2.3307
 30
0.0
 10
-99.165
 20
1.9619
 30
0.0
 10
-99.2499
 20
1.564
 30
0.0
 10
-99.4978
 20
1.2712
 30
0.0
 10
-99.4978
 20
1.2712
 30
0.0
 10
-99.7455
 20
0.9789
 30
0.0
 10
-100.1234
 20
0.8289
 30
0.0
 10
-100.5044
 20
0.8728
 30
0.0
 10
-100.5044
 20
0.8728
 30
0.0
 10
-101.3275
 20
0.9994
 30
0.0
 10
-102.1088
 20
1.3194
 30
0.0
 10
-102.7838
 20
1.8069
 30
0.0
 10
-102.7838
 20
1.8069
 30
0.0
 10
-102.8817
 20
1.4574
 30
0.0
 10
-103.1351
 20
1.1723
 30
0.0
 10
-103.4706
 20
1.0337
 30
0.0
 10
-103.4706
 20
1.0337
 30
0.0
 10
-103.8063
 20
0.8952
 30
0.0
 10
-104.1869
 20
0.9186
 30
0.0
 10
-104.5031
 20
1.0969
 30
0.0
 10
-104.5031
 20
1.0969
 30
0.0
 10
-106.6136
 20
3.9188
 30
0.0
 10
-107.1616
 20
7.6131
 30
0.0
 10
-105.9603
 20
10.9252
 30
0.0
 10
-105.9603
 20
10.9252
 30
0.0
 10
-106.8591
 20
10.2817
 30
0.0
 10
-107.9625
 20
9.9894
 30
0.0
 10
-109.0622
 20
10.1034
 30
0.0
 10
-109.0622
 20
10.1034
 30
0.0
 10
-108.5302
 20
11.1808
 30
0.0
 10
-107.7792
 20
12.1354
 30
0.0
 10
-106.8572
 20
12.9062
 30
0.0
 10
-106.8572
 20
12.9062
 30
0.0
 10
-107.1997
 20
13.0147
 30
0.0
 10
-107.4659
 20
13.2865
 30
0.0
 10
-107.567
 20
13.6313
 30
0.0
 10
-107.567
 20
13.6313
 30
0.0
 10
-107.6683
 20
13.976
 30
0.0
 10
-107.5913
 20
14.3484
 30
0.0
 10
-107.3617
 20
14.625
 30
0.0
 10
-107.3617
 20
14.625
 30
0.0
 10
-106.4735
 20
16.4794
 30
0.0
 10
-105.0815
 20
18.0465
 30
0.0
 10
-103.3447
 20
19.1468
 30
0.0
  0
SPLINE
  5
89
330
1F
100
AcDbEntity
  8
layer 1
 62
     7
370
     9
100
AcDbSpline
210
0.0
220
0.0
230
1.0
 70
    11
 71
     3
 72
    20
 73
    16
 74
     0
 42
0.0000000001
 43
0.0000000001
 12
1.0
 22
0.0
 32
0.0
 13
1.0
 23
0.0
 33
0.0
 40
0.0
 40
0.0
 40
0.0
 40
0.0
 40
0.2
 40
0.2
 40
0.2
 40
0.2
 40
0.4
 40
0.4
 40
0.4
 40
0.4
 40
0.6
 40
0.6
 40
0.6
 40
0.6
 40
1.0
 40
1.0
 40
1.0
 40
1.0
 10
-111.8644
 20
-51.5578
 30
0.0
 10
-112.5248
 20
-51.5578
 30
0.0
 10
-113.0602
 20
-52.5117
 30
0.0
 10
-113.0602
 20
-53.6883
 30
0.0
 10
-113.0602
 20
-53.6883
 30
0.0
 10
-113.0602
 20
-54.8646
 30
0.0
 10
-112.5248
 20
-55.8186
 30
0.0
 10
-111.8644
 20
-55.8186
 30
0.0
 10
-111.8644
 20
-55.8186
 30
0.0
 10
-111.2039
 20
-55.8186
 30
0.0
 10
-110.6687
 20
-54.8646
 30
0.0
 10
-110.6687
 20
-53.6883
 30
0.0
 10
-110.6687
 20
-53.6883
 30
0.0
 10
-110.6687
 20
-52.5117
 30
0.0
 10
-111.2039
 20
-51.5578
 30
0.0
 10
-111.8644
 20
-51.5578
 30
0.0
  0
SPLINE
  5
8A
330
1F
100
AcDbEntity
  8
layer 1
 62
     7
370
     9
100
AcDbSpline
210
0.0
220
0.0
230
1.0
 70
    11
 71
     3
 72
    72
 73
    68
 74
     0
 42
0.0000000001
 43
0.0000000001
 12
1.0
 22
0.0
 32
0.0
 13
1.0
 23
0.0
 33
0.0
 40
0.0
 40
0.0
 40
0.0
 40
0.0
 40
0.0555555555555556
 40
0.0555555555555556
 40
0.0555555555555556
 40
0.0555555555555556
 40
0.1111111111111111
 40
0.1111111111111111
 40
0.1111111111111111
 40
0.1111111111111111
 40
0.1666666666666667
 40
0.1666666666666667
 40
0.1666666666666667
 40
0.1666666666666667
 40
0.2222222222222222
 40
0.2222222222222222
 40
0.2222222222222222
 40
0.2222222222222222
 40
0.2777777777777778
 40
0.2777777777777778
 40
0.2777777777777778
 40
0.2777777777777778
 40
0.3333333333333333
 40
0.3333333333333333
 40
0.3333333333333333
 40
0.3333333333333333
 40
0.3888888888888889
 40
0.3888888888888889
 40
0.3888888888888889
 40
0.3888888888888889
 40
0.4444444444444444
 40
0.4444444444444444
 40
0.4444444444444444
 40
0.4444444444444444
 40
0.5
 40
0.5
 40
0.5
 40
0.5
 40
0.5555555555555556
 40
0.5555555555555556
 40
0.5555555555555556
 40
0.5555555555555556
 40
0.6111111111111112
 40
0.6111111111111112
 40
0.6111111111111112
 40
0.6111111111111112
 40
0.6666666666666666
 40
0.6666666666666666
 40
0.6666666666666666
 40
0.6666666666666666
 40
0.7222222222222222
 40
0.7222222222222222
 40
0.7222222222222222
 40
0.7222222222222222
 40
0.7777777777777778
 40
0.7777777777777778
 40
0.7777777777777778
 40
0.7777777777777778
 40
0.8333333333333334
 40
0.8333333333333334
 40
0.8333333333333334
 40
0.8333333333333334
 40
0.8888888888888888
 40
0.8888888888888888
 40
0.8888888888888888
 40
0.8888888888888888
 40
1.0
 40
1.0
 40
1.0
 40
1.0
 10
-107.6046
 20
-44.7562
 30
0.0
 10
-107.1951
 20
-44.5284
 30
0.0
 10
-106.6826
 20
-44.6144
 30
0.0
 10
-106.3695
 20
-44.9632
 30
0.0
 10
-106.3695
 20
-44.9632
 30
0.0
 10
-106.0567
 20
-45.3119
 30
0.0
 10
-106.0263
 20
-45.8307
 30
0.0
 10
-106.2967
 20
-46.2135
 30
0.0
 10
-106.2967
 20
-46.2135
 30
0.0
 10
-107.4814
 20
-46.7074
 30
0.0
 10
-108.2845
 20
-47.8291
 30
0.0
 10
-108.3708
 20
-49.1097
 30
0.0
 10
-108.3708
 20
-49.1097
 30
0.0
 10
-107.7365
 20
-49.1548
 30
0.0
 10
-107.0998
 20
-49.0656
 30
0.0
 10
-106.5022
 20
-48.848
 30
0.0
 10
-106.5022
 20
-48.848
 30
0.0
 10
-106.2786
 20
-48.8348
 30
0.0
 10
-106.0722
 20
-48.9674
 30
0.0
 10
-105.9909
 20
-49.1765
 30
0.0
 10
-105.9909
 20
-49.1765
 30
0.0
 10
-105.9099
 20
-49.3853
 30
0.0
 10
-105.9733
 20
-49.6226
 30
0.0
 10
-106.1472
 20
-49.7637
 30
0.0
 10
-106.1472
 20
-49.7637
 30
0.0
 10
-107.2805
 20
-50.2622
 30
0.0
 10
-108.2097
 20
-51.132
 30
0.0
 10
-108.7818
 20
-52.23
 30
0.0
 10
-108.7818
 20
-52.23
 30
0.0
 10
-106.6676
 20
-52.5809
 30
0.0
 10
-104.5062
 20
-51.9789
 30
0.0
 10
-102.8773
 20
-50.5857
 30
0.0
 10
-102.8773
 20
-50.5857
 30
0.0
 10
-102.2723
 20
-50.0975
 30
0.0
 10
-101.9971
 20
-49.3079
 30
0.0
 10
-102.1673
 20
-48.549
 30
0.0
 10
-102.1673
 20
-48.549
 30
0.0
 10
-102.2768
 20
-47.8715
 30
0.0
 10
-102.1444
 20
-47.1771
 30
0.0
 10
-101.7937
 20
-46.5872
 30
0.0
 10
-101.7937
 20
-46.5872
 30
0.0
 10
-101.2526
 20
-45.2938
 30
0.0
 10
-101.4836
 20
-43.8065
 30
0.0
 10
-102.3916
 20
-42.7381
 30
0.0
 10
-102.3916
 20
-42.7381
 30
0.0
 10
-102.1331
 20
-42.0812
 30
0.0
 10
-102.2715
 20
-41.3345
 30
0.0
 10
-102.7483
 20
-40.814
 30
0.0
 10
-102.7483
 20
-40.814
 30
0.0
 10
-103.2251
 20
-40.2934
 30
0.0
 10
-103.9569
 20
-40.0903
 30
0.0
 10
-104.6338
 20
-40.2904
 30
0.0
 10
-104.6338
 20
-40.2904
 30
0.0
 10
-105.2674
 20
-39.7123
 30
0.0
 10
-106.1182
 20
-39.4326
 30
0.0
 10
-106.9715
 20
-39.5218
 30
0.0
 10
-106.9715
 20
-39.5218
 30
0.0
 10
-107.8246
 20
-39.6111
 30
0.0
 10
-108.599
 20
-40.0608
 30
0.0
 10
-109.0996
 20
-40.7574
 30
0.0
 10
-109.0996
 20
-40.7574
 30
0.0
 10
-110.7987
 20
-43.3276
 30
0.0
 10
-111.3536
 20
-46.4881
 30
0.0
 10
-110.6316
 20
-49.4832
 30
0.0
 10
-110.6316
 20
-49.4832
 30
0.0
 10
-109.9743
 20
-47.7083
 30
0.0
 10
-108.9416
 20
-46.096
 30
0.0
 10
-107.6046
 20
-44.7562
 30
0.0
  0
SPLINE
  5
8B
330
1F
100
AcDbEntity
  8
layer 1
 62
     7
370
     9
100
AcDbSpline
210
0.0
220
0.0
230
1.0
 70
    11
 71
     3
 72
    20
 73
    16
 74
     0
 42
0.0000000001
 43
0.0000000001
 12
1.0
 22
0.0
 32
0.0
 13
1.0
 23
0.0
 33
0.0
 40
0.0
 40
0.0
 40
0.0
 40
0.0
 40
0.2
 40
0.2
 40
0.2
 40
0.2
 40
0.4
 40
0.4
 40
0.4
 40
0.4
 40
0.6
 40
0.6
 40
0.6
 40
0.6
 40
1.0
 40
1.0
 40
1.0
 40
1.0
 10
-149.3095
 20
61.5246
 30
0.0
 10
-150.0116
 20
61.5246
 30
0.0
 10
-150.5805
 20
60.5874
 30
0.0
 10
-150.5805
 20
59.4323
 30
0.0
 10
-150.5805
 20
59.4323
 30
0.0
 10
-150.5805
 20
58.2762
 30
0.0
 10
-150.0116
 20
57.3392
 30
0.0
 10
-149.3095
 20
57.3392
 30
0.0
 10
-149.3095
 20
57.3392
 30
0.0
 10
-148.608
 20
57.3392
 30
0.0
 10
-148.0385
 20
58.2762
 30
0.0
 10
-148.0385
 20
59.4323
 30
0.0
 10
-148.0385
 20
59.4323
 30
0.0
 10
-148.0385
 20
60.5874
 30
0.0
 10
-148.608
 20
61.5246
 30
0.0
 10
-149.3095
 20
61.5246
 30
0.0
  0
SPLINE
  5
8C
330
1F
100
AcDbEntity
  8
layer 1
 62
     7
370
     9
100
AcDbSpline
210
0.0
220
0.0
230
1.0
 70
    11
 71
     3
 72
    64
 73
    60
 74
     0
 42
0.0000000001
 43
0.0000000001
 12
1.0
 22
0.0
 32
0.0
 13
1.0
 23
0.0
 33
0.0
 40
0.0
 40
0.0
 40
0.0
 40
0.0
 40
0.0625
 40
0.0625
 40
0.0625
 40
0.0625
 40
0.125
 40
0.125
 40
0.125
 40
0.125
 40
0.1875
 40
0.1875
 40
0.1875
 40
0.1875
 40
0.25
 40
0.25
 40
0.25
 40
0.25
 40
0.3125
 40
0.3125
 40
0.3125
 40
0.3125
 40
0.375
 40
0.375
 40
0.375
 40
0.375
 40
0.4375
 40
0.4375
 40
0.4375
 40
0.4375
 40
0.5
 40
0.5
 40
0.5
 40
0.5
 40
0.5625
 40
0.5625
 40
0.5625
 40
0.5625
 40
0.625
 40
0.625
 40
0.625
 40
0.625
 40
0.6875
 40
0.6875
 40
0.6875
 40
0.6875
 40
0.75
 40
0.75
 40
0.75
 40
0.75
 40
0.8125
 40
0.8125
 40
0.8125
 40
0.8125
 40
0.875
 40
0.875
 40
0.875
 40
0.875
 40
1.0
 40
1.0
 40
1.0
 40
1.0
 10
-149.7766
 20
49.7907
 30
0.0
 10
-149.7615
 20
49.5665
 30
0.0
 10
-149.5722
 20
49.3937
 30
0.0
 10
-149.3474
 20
49.3984
 30
0.0
 10
-149.3474
 20
49.3984
 30
0.0
 10
-149.1221
 20
49.4032
 30
0.0
 10
-148.9407
 20
49.5847
 30
0.0
 10
-148.9359
 20
49.8095
 30
0.0
 10
-148.9359
 20
49.8095
 30
0.0
 10
-148.9502
 20
50.7808
 30
0.0
 10
-148.9564
 20
51.7531
 30
0.0
 10
-148.9545
 20
52.7246
 30
0.0
 10
-148.9545
 20
52.7246
 30
0.0
 10
-148.6839
 20
52.5727
 30
0.0
 10
-148.4633
 20
52.3455
 30
0.0
 10
-148.3193
 20
52.0706
 30
0.0
 10
-148.3193
 20
52.0706
 30
0.0
 10
-147.9982
 20
51.9815
 30
0.0
 10
-147.6539
 20
52.0785
 30
0.0
 10
-147.4267
 20
52.3219
 30
0.0
 10
-147.4267
 20
52.3219
 30
0.0
 10
-147.199
 20
52.5649
 30
0.0
 10
-147.1254
 20
52.9144
 30
0.0
 10
-147.235
 20
53.2289
 30
0.0
 10
-147.235
 20
53.2289
 30
0.0
 10
-147.5044
 20
54.1258
 30
0.0
 10
-147.5557
 20
55.0737
 30
0.0
 10
-147.3845
 20
55.9945
 30
0.0
 10
-147.3845
 20
55.9945
 30
0.0
 10
-145.5868
 20
54.5042
 30
0.0
 10
-144.106
 20
52.6679
 30
0.0
 10
-143.031
 20
50.5941
 30
0.0
 10
-143.031
 20
50.5941
 30
0.0
 10
-142.0757
 20
49.2647
 30
0.0
 10
-142.0311
 20
47.4856
 30
0.0
 10
-142.9194
 20
46.1097
 30
0.0
 10
-142.9194
 20
46.1097
 30
0.0
 10
-143.601
 20
44.7434
 30
0.0
 10
-143.313
 20
43.0921
 30
0.0
 10
-142.2089
 20
42.0361
 30
0.0
 10
-142.2089
 20
42.0361
 30
0.0
 10
-143.8318
 20
41.6306
 30
0.0
 10
-145.5518
 20
42.0187
 30
0.0
 10
-146.8428
 20
43.083
 30
0.0
 10
-146.8428
 20
43.083
 30
0.0
 10
-147.3273
 20
42.4557
 30
0.0
 10
-148.1289
 20
42.1627
 30
0.0
 10
-148.9032
 20
42.3303
 30
0.0
 10
-148.9032
 20
42.3303
 30
0.0
 10
-149.6776
 20
42.4984
 30
0.0
 10
-150.2865
 20
43.0963
 30
0.0
 10
-150.4678
 20
43.8677
 30
0.0
 10
-150.4678
 20
43.8677
 30
0.0
 10
-151.3291
 20
47.3264
 30
0.0
 10
-151.0471
 20
50.9713
 30
0.0
 10
-149.6645
 20
54.2565
 30
0.0
 10
-149.6645
 20
54.2565
 30
0.0
 10
-149.4602
 20
52.7716
 30
0.0
 10
-149.4981
 20
51.2636
 30
0.0
 10
-149.7766
 20
49.7907
 30
0.0
  0
SPLINE
  5
8D
330
1F
100
AcDbEntity
  8
layer 1
 62
     7
370
     9
100
AcDbSpline
210
0.0
220
0.0
230
1.0
 70
    11
 71
     3
 72
    64
 73
    60
 74
     0
 42
0.0000000001
 43
0.0000000001
 12
1.0
 22
0.0
 32
0.0
 13
1.0
 23
0.0
 33
0.0
 40
0.0
 40
0.0
 40
0.0
 40
0.0
 40
0.0625
 40
0.0625
 40
0.0625
 40
0.0625
 40
0.125
 40
0.125
 40
0.125
 40
0.125
 40
0.1875
 40
0.1875
 40
0.1875
 40
0.1875
 40
0.25
 40
0.25
 40
0.25
 40
0.25
 40
0.3125
 40
0.3125
 40
0.3125
 40
0.3125
 40
0.375
 40
0.375
 40
0.375
 40
0.375
 40
0.4375
 40
0.4375
 40
0.4375
 40
0.4375
 40
0.5
 40
0.5
 40
0.5
 40
0.5
 40
0.5625
 40
0.5625
 40
0.5625
 40
0.5625
 40
0.625
 40
0.625
 40
0.625
 40
0.625
 40
0.6875
 40
0.6875
 40
0.6875
 40
0.6875
 40
0.75
 40
0.75
 40
0.75
 40
0.75
 40
0.8125
 40
0.8125
 40
0.8125
 40
0.8125
 40
0.875
 40
0.875
 40
0.875
 40
0.875
 40
1.0
 40
1.0
 40
1.0
 40
1.0
 10
-146.4504
 20
59.0585
 30
0.0
 10
-145.7869
 20
58.9447
 30
0.0
 10
-145.1264
 20
58.8138
 30
0.0
 10
-144.4701
 20
58.6662
 30
0.0
 10
-144.4701
 20
58.6662
 30
0.0
 10
-144.8256
 20
59.2701
 30
0.0
 10
-145.4018
 20
59.7119
 30
0.0
 10
-146.0768
 20
59.8993
 30
0.0
 10
-146.0768
 20
59.8993
 30
0.0
 10
-145.8646
 20
60.3206
 30
0.0
 10
-145.4729
 20
60.6225
 30
0.0
 10
-145.0118
 20
60.7214
 30
0.0
 10
-145.0118
 20
60.7214
 30
0.0
 10
-144.1699
 20
61.001
 30
0.0
 10
-143.4552
 20
61.5704
 30
0.0
 10
-142.9936
 20
62.3286
 30
0.0
 10
-142.9936
 20
62.3286
 30
0.0
 10
-144.1759
 20
62.5034
 30
0.0
 10
-145.3765
 20
62.1557
 30
0.0
 10
-146.2823
 20
61.3758
 30
0.0
 10
-146.2823
 20
61.3758
 30
0.0
 10
-145.7387
 20
63.5128
 30
0.0
 10
-144.6358
 20
65.4667
 30
0.0
 10
-143.087
 20
67.0373
 30
0.0
 10
-143.087
 20
67.0373
 30
0.0
 10
-142.8266
 20
67.215
 30
0.0
 10
-142.4976
 20
67.2591
 30
0.0
 10
-142.1992
 20
67.156
 30
0.0
 10
-142.1992
 20
67.156
 30
0.0
 10
-141.9009
 20
67.0529
 30
0.0
 10
-141.6689
 20
66.8149
 30
0.0
 10
-141.5736
 20
66.5142
 30
0.0
 10
-141.5736
 20
66.5142
 30
0.0
 10
-140.4015
 20
66.637
 30
0.0
 10
-139.2788
 20
66.0079
 30
0.0
 10
-138.7707
 20
64.9442
 30
0.0
 10
-138.7707
 20
64.9442
 30
0.0
 10
-137.2815
 20
65.0394
 30
0.0
 10
-135.8706
 20
64.2686
 30
0.0
 10
-135.1463
 20
62.9638
 30
0.0
 10
-135.1463
 20
62.9638
 30
0.0
 10
-135.641
 20
60.7345
 30
0.0
 10
-136.6662
 20
58.6579
 30
0.0
 10
-138.1354
 20
56.9101
 30
0.0
 10
-138.1354
 20
56.9101
 30
0.0
 10
-137.8118
 20
56.0904
 30
0.0
 10
-137.9963
 20
55.1569
 30
0.0
 10
-138.6074
 20
54.5216
 30
0.0
 10
-138.6074
 20
54.5216
 30
0.0
 10
-139.2184
 20
53.8864
 30
0.0
 10
-140.1442
 20
53.6659
 30
0.0
 10
-140.9758
 20
53.9575
 30
0.0
 10
-140.9758
 20
53.9575
 30
0.0
 10
-143.0219
 20
54.6157
 30
0.0
 10
-144.8034
 20
55.912
 30
0.0
 10
-146.0582
 20
57.6573
 30
0.0
 10
-146.0582
 20
57.6573
 30
0.0
 10
-146.3655
 20
58.0557
 30
0.0
 10
-146.5059
 20
58.5583
 30
0.0
 10
-146.4504
 20
59.0585
 30
0.0
  0
SPLINE
  5
8E
330
1F
100
AcDbEntity
  8
layer 1
 62
     7
370
     9
100
AcDbSpline
210
0.0
220
0.0
230
1.0
 70
    11
 71
     3
 72
    60
 73
    56
 74
     0
 42
0.0000000001
 43
0.0000000001
 12
1.0
 22
0.0
 32
0.0
 13
1.0
 23
0.0
 33
0.0
 40
0.0
 40
0.0
 40
0.0
 40
0.0
 40
0.0666666666666667
 40
0.0666666666666667
 40
0.0666666666666667
 40
0.0666666666666667
 40
0.1333333333333333
 40
0.1333333333333333
 40
0.1333333333333333
 40
0.1333333333333333
 40
0.2
 40
0.2
 40
0.2
 40
0.2
 40
0.2666666666666667
 40
0.2666666666666667
 40
0.2666666666666667
 40
0.2666666666666667
 40
0.3333333333333333
 40
0.3333333333333333
 40
0.3333333333333333
 40
0.3333333333333333
 40
0.4
 40
0.4
 40
0.4
 40
0.4
 40
0.4666666666666667
 40
0.4666666666666667
 40
0.4666666666666667
 40
0.4666666666666667
 40
0.5333333333333333
 40
0.5333333333333333
 40
0.5333333333333333
 40
0.5333333333333333
 40
0.6
 40
0.6
 40
0.6
 40
0.6
 40
0.6666666666666666
 40
0.6666666666666666
 40
0.6666666666666666
 40
0.6666666666666666
 40
0.7333333333333333
 40
0.7333333333333333
 40
0.7333333333333333
 40
0.7333333333333333
 40
0.8
 40
0.8
 40
0.8
 40
0.8
 40
0.8666666666666667
 40
0.8666666666666667
 40
0.8666666666666667
 40
0.8666666666666667
 40
1.0
 40
1.0
 40
1.0
 40
1.0
 10
-147.9643
 20
66.9999
 30
0.0
 10
-147.4882
 20
68.7018
 30
0.0
 10
-147.3864
 20
70.487
 30
0.0
 10
-147.6654
 20
72.2317
 30
0.0
 10
-147.6654
 20
72.2317
 30
0.0
 10
-147.8618
 20
73.2007
 30
0.0
 10
-147.56
 20
74.2037
 30
0.0
 10
-146.8614
 20
74.9032
 30
0.0
 10
-146.8614
 20
74.9032
 30
0.0
 10
-146.9127
 20
73.6648
 30
0.0
 10
-146.9313
 20
72.4251
 30
0.0
 10
-146.9175
 20
71.1854
 30
0.0
 10
-146.9175
 20
71.1854
 30
0.0
 10
-146.3896
 20
71.1517
 30
0.0
 10
-145.8622
 20
71.2554
 30
0.0
 10
-145.3856
 20
71.4843
 30
0.0
 10
-145.3856
 20
71.4843
 30
0.0
 10
-146.0811
 20
70.2724
 30
0.0
 10
-146.3939
 20
68.8784
 30
0.0
 10
-146.2823
 20
67.4856
 30
0.0
 10
-146.2823
 20
67.4856
 30
0.0
 10
-144.6544
 20
68.9332
 30
0.0
 10
-142.7277
 20
70.0049
 30
0.0
 10
-140.6395
 20
70.625
 30
0.0
 10
-140.6395
 20
70.625
 30
0.0
 10
-140.0827
 20
71.2023
 30
0.0
 10
-139.9344
 20
72.0611
 30
0.0
 10
-140.2658
 20
72.7921
 30
0.0
 10
-140.2658
 20
72.7921
 30
0.0
 10
-140.766
 20
73.6286
 30
0.0
 10
-141.2898
 20
74.4512
 30
0.0
 10
-141.8353
 20
75.2582
 30
0.0
 10
-141.8353
 20
75.2582
 30
0.0
 10
-141.6284
 20
77.0445
 30
0.0
 10
-141.9533
 20
78.8514
 30
0.0
 10
-142.7694
 20
80.4533
 30
0.0
 10
-142.7694
 20
80.4533
 30
0.0
 10
-144.0867
 20
80.4333
 30
0.0
 10
-145.3181
 20
79.797
 30
0.0
 10
-146.0954
 20
78.7339
 30
0.0
 10
-146.0954
 20
78.7339
 30
0.0
 10
-146.6011
 20
78.9026
 30
0.0
 10
-147.1532
 20
78.8586
 30
0.0
 10
-147.6256
 20
78.6121
 30
0.0
 10
-147.6256
 20
78.6121
 30
0.0
 10
-148.0976
 20
78.3655
 30
0.0
 10
-148.4488
 20
77.9371
 30
0.0
 10
-148.5995
 20
77.4261
 30
0.0
 10
-148.5995
 20
77.4261
 30
0.0
 10
-149.2577
 20
75.3624
 30
0.0
 10
-149.4113
 20
73.1711
 30
0.0
 10
-149.0479
 20
71.036
 30
0.0
 10
-149.0479
 20
71.036
 30
0.0
 10
-148.7087
 20
69.6847
 30
0.0
 10
-148.347
 20
68.3391
 30
0.0
 10
-147.9643
 20
66.9999
 30
0.0
  0
SPLINE
  5
8F
330
1F
100
AcDbEntity
  8
layer 1
 62
     7
370
     9
100
AcDbSpline
210
0.0
220
0.0
230
1.0
 70
    11
 71
     3
 72
    64
 73
    60
 74
     0
 42
0.0000000001
 43
0.0000000001
 12
1.0
 22
0.0
 32
0.0
 13
1.0
 23
0.0
 33
0.0
 40
0.0
 40
0.0
 40
0.0
 40
0.0
 40
0.0625
 40
0.0625
 40
0.0625
 40
0.0625
 40
0.125
 40
0.125
 40
0.125
 40
0.125
 40
0.1875
 40
0.1875
 40
0.1875
 40
0.1875
 40
0.25
 40
0.25
 40
0.25
 40
0.25
 40
0.3125
 40
0.3125
 40
0.3125
 40
0.3125
 40
0.375
 40
0.375
 40
0.375
 40
0.375
 40
0.4375
 40
0.4375
 40
0.4375
 40
0.4375
 40
0.5
 40
0.5
 40
0.5
 40
0.5
 40
0.5625
 40
0.5625
 40
0.5625
 40
0.5625
 40
0.625
 40
0.625
 40
0.625
 40
0.625
 40
0.6875
 40
0.6875
 40
0.6875
 40
0.6875
 40
0.75
 40
0.75
 40
0.75
 40
0.75
 40
0.8125
 40
0.8125
 40
0.8125
 40
0.8125
 40
0.875
 40
0.875
 40
0.875
 40
0.875
 40
1.0
 40
1.0
 40
1.0
 40
1.0
 10
-158.4278
 20
69.8023
 30
0.0
 10
-158.772
 20
69.2544
 30
0.0
 10
-158.8412
 20
68.5777
 30
0.0
 10
-158.6147
 20
67.9714
 30
0.0
 10
-158.6147
 20
67.9714
 30
0.0
 10
-158.0626
 20
65.213
 30
0.0
 10
-155.8598
 20
63.0844
 30
0.0
 10
-153.0839
 20
62.6276
 30
0.0
 10
-153.0839
 20
62.6276
 30
0.0
 10
-153.075
 20
63.4701
 30
0.0
 10
-153.2672
 20
64.3029
 30
0.0
 10
-153.6444
 20
65.0563
 30
0.0
 10
-153.6444
 20
65.0563
 30
0.0
 10
-154.1918
 20
66.2399
 30
0.0
 10
-154.5208
 20
67.5122
 30
0.0
 10
-154.616
 20
68.8121
 30
0.0
 10
-154.616
 20
68.8121
 30
0.0
 10
-153.9205
 20
68.4988
 30
0.0
 10
-153.395
 20
67.899
 30
0.0
 10
-153.1774
 20
67.168
 30
0.0
 10
-153.1774
 20
67.168
 30
0.0
 10
-152.6845
 20
65.7205
 30
0.0
 10
-151.8057
 20
64.4343
 30
0.0
 10
-150.636
 20
63.4496
 30
0.0
 10
-150.636
 20
63.4496
 30
0.0
 10
-150.607
 20
64.5067
 30
0.0
 10
-150.8451
 20
65.5541
 30
0.0
 10
-151.3272
 20
66.4954
 30
0.0
 10
-151.3272
 20
66.4954
 30
0.0
 10
-152.0745
 20
67.8653
 30
0.0
 10
-152.5084
 20
69.3846
 30
0.0
 10
-152.5977
 20
70.9426
 30
0.0
 10
-152.5977
 20
70.9426
 30
0.0
 10
-152.1233
 20
70.7226
 30
0.0
 10
-151.769
 20
70.3061
 30
0.0
 10
-151.6262
 20
69.8023
 30
0.0
 10
-151.6262
 20
69.8023
 30
0.0
 10
-151.2772
 20
67.9424
 30
0.0
 10
-150.6606
 20
66.1423
 30
0.0
 10
-149.7952
 20
64.4591
 30
0.0
 10
-149.7952
 20
64.4591
 30
0.0
 10
-148.605
 20
68.4716
 30
0.0
 10
-149.8946
 20
72.809
 30
0.0
 10
-153.0839
 20
75.5205
 30
0.0
 10
-153.0839
 20
75.5205
 30
0.0
 10
-153.7233
 20
75.9417
 30
0.0
 10
-154.5774
 20
75.8128
 30
0.0
 10
-155.0644
 20
75.2215
 30
0.0
 10
-155.0644
 20
75.2215
 30
0.0
 10
-155.2187
 20
75.6838
 30
0.0
 10
-155.5567
 20
76.0622
 30
0.0
 10
-155.9985
 20
76.2677
 30
0.0
 10
-155.9985
 20
76.2677
 30
0.0
 10
-156.8688
 20
76.5328
 30
0.0
 10
-157.6045
 20
77.1212
 30
0.0
 10
-158.0537
 20
77.9118
 30
0.0
 10
-158.0537
 20
77.9118
 30
0.0
 10
-158.9251
 20
75.295
 30
0.0
 10
-159.0546
 20
72.4883
 30
0.0
 10
-158.4278
 20
69.8023
 30
0.0
  0
SPLINE
  5
90
330
1F
100
AcDbEntity
  8
layer 1
 62
     7
370
     9
100
AcDbSpline
210
0.0
220
0.0
230
1.0
 70
    11
 71
     3
 72
    88
 73
    84
 74
     0
 42
0.0000000001
 43
0.0000000001
 12
1.0
 22
0.0
 32
0.0
 13
1.0
 23
0.0
 33
0.0
 40
0.0
 40
0.0
 40
0.0
 40
0.0
 40
0.0454545454545455
 40
0.0454545454545455
 40
0.0454545454545455
 40
0.0454545454545455
 40
0.0909090909090909
 40
0.0909090909090909
 40
0.0909090909090909
 40
0.0909090909090909
 40
0.1363636363636364
 40
0.1363636363636364
 40
0.1363636363636364
 40
0.1363636363636364
 40
0.1818181818181818
 40
0.1818181818181818
 40
0.1818181818181818
 40
0.1818181818181818
 40
0.2272727272727273
 40
0.2272727272727273
 40
0.2272727272727273
 40
0.2272727272727273
 40
0.2727272727272727
 40
0.2727272727272727
 40
0.2727272727272727
 40
0.2727272727272727
 40
0.3181818181818182
 40
0.3181818181818182
 40
0.3181818181818182
 40
0.3181818181818182
 40
0.3636363636363636
 40
0.3636363636363636
 40
0.3636363636363636
 40
0.3636363636363636
 40
0.4090909090909091
 40
0.4090909090909091
 40
0.4090909090909091
 40
0.4090909090909091
 40
0.4545454545454545
 40
0.4545454545454545
 40
0.4545454545454545
 40
0.4545454545454545
 40
0.5
 40
0.5
 40
0.5
 40
0.5
 40
0.5454545454545454
 40
0.5454545454545454
 40
0.5454545454545454
 40
0.5454545454545454
 40
0.5909090909090909
 40
0.5909090909090909
 40
0.5909090909090909
 40
0.5909090909090909
 40
0.6363636363636364
 40
0.6363636363636364
 40
0.6363636363636364
 40
0.6363636363636364
 40
0.6818181818181818
 40
0.6818181818181818
 40
0.6818181818181818
 40
0.6818181818181818
 40
0.7272727272727273
 40
0.7272727272727273
 40
0.7272727272727273
 40
0.7272727272727273
 40
0.7727272727272727
 40
0.7727272727272727
 40
0.7727272727272727
 40
0.7727272727272727
 40
0.8181818181818182
 40
0.8181818181818182
 40
0.8181818181818182
 40
0.8181818181818182
 40
0.8636363636363636
 40
0.8636363636363636
 40
0.8636363636363636
 40
0.8636363636363636
 40
0.9090909090909091
 40
0.9090909090909091
 40
0.9090909090909091
 40
0.9090909090909091
 40
1.0
 40
1.0
 40
1.0
 40
1.0
 10
-155.7742
 20
55.3401
 30
0.0
 10
-156.272
 20
55.2883
 30
0.0
 10
-156.6675
 20
54.8978
 30
0.0
 10
-156.7253
 20
54.4005
 30
0.0
 10
-156.7253
 20
54.4005
 30
0.0
 10
-156.7839
 20
53.9034
 30
0.0
 10
-156.4897
 20
53.432
 30
0.0
 10
-156.0171
 20
53.2663
 30
0.0
 10
-156.0171
 20
53.2663
 30
0.0
 10
-155.4356
 20
53.0704
 30
0.0
 10
-154.795
 20
53.1674
 30
0.0
 10
-154.2984
 20
53.5279
 30
0.0
 10
-154.2984
 20
53.5279
 30
0.0
 10
-153.4112
 20
54.4548
 30
0.0
 10
-152.4416
 20
55.2991
 30
0.0
 10
-151.4019
 20
56.0506
 30
0.0
 10
-151.4019
 20
56.0506
 30
0.0
 10
-151.3236
 20
53.5171
 30
0.0
 10
-152.2046
 20
51.0485
 30
0.0
 10
-153.8687
 20
49.1369
 30
0.0
 10
-153.8687
 20
49.1369
 30
0.0
 10
-154.7239
 20
48.4782
 30
0.0
 10
-155.8352
 20
48.2486
 30
0.0
 10
-156.8814
 20
48.5149
 30
0.0
 10
-156.8814
 20
48.5149
 30
0.0
 10
-157.9283
 20
48.7812
 30
0.0
 10
-158.7942
 20
49.5136
 30
0.0
 10
-159.2312
 20
50.5007
 30
0.0
 10
-159.2312
 20
50.5007
 30
0.0
 10
-159.9918
 20
50.5898
 30
0.0
 10
-160.6565
 20
51.0576
 30
0.0
 10
-160.9958
 20
51.7445
 30
0.0
 10
-160.9958
 20
51.7445
 30
0.0
 10
-161.3358
 20
52.4311
 30
0.0
 10
-161.3043
 20
53.2427
 30
0.0
 10
-160.9126
 20
53.9015
 30
0.0
 10
-160.9126
 20
53.9015
 30
0.0
 10
-161.516
 20
55.5034
 30
0.0
 10
-161.0783
 20
57.3113
 30
0.0
 10
-159.8104
 20
58.4607
 30
0.0
 10
-159.8104
 20
58.4607
 30
0.0
 10
-159.8905
 20
59.1183
 30
0.0
 10
-159.6916
 20
59.7794
 30
0.0
 10
-159.262
 20
60.2832
 30
0.0
 10
-159.262
 20
60.2832
 30
0.0
 10
-158.8322
 20
60.7877
 30
0.0
 10
-158.2115
 20
61.089
 30
0.0
 10
-157.5492
 20
61.1143
 30
0.0
 10
-157.5492
 20
61.1143
 30
0.0
 10
-155.9473
 20
61.0425
 30
0.0
 10
-154.3706
 20
60.6816
 30
0.0
 10
-152.8965
 20
60.0488
 30
0.0
 10
-152.8965
 20
60.0488
 30
0.0
 10
-152.6754
 20
59.8805
 30
0.0
 10
-152.5627
 20
59.6063
 30
0.0
 10
-152.6013
 20
59.331
 30
0.0
 10
-152.6013
 20
59.331
 30
0.0
 10
-152.6399
 20
59.0556
 30
0.0
 10
-152.8242
 20
58.8229
 30
0.0
 10
-153.0839
 20
58.7223
 30
0.0
 10
-153.0839
 20
58.7223
 30
0.0
 10
-153.9403
 20
58.5685
 30
0.0
 10
-154.8107
 20
58.4998
 30
0.0
 10
-155.6809
 20
58.5168
 30
0.0
 10
-155.6809
 20
58.5168
 30
0.0
 10
-155.8521
 20
58.4583
 30
0.0
 10
-155.9738
 20
58.3058
 30
0.0
 10
-155.9937
 20
58.1262
 30
0.0
 10
-155.9937
 20
58.1262
 30
0.0
 10
-156.0142
 20
57.946
 30
0.0
 10
-155.9287
 20
57.7707
 30
0.0
 10
-155.7742
 20
57.6761
 30
0.0
 10
-155.7742
 20
57.6761
 30
0.0
 10
-155.1397
 20
57.497
 30
0.0
 10
-154.5208
 20
57.2656
 30
0.0
 10
-153.9248
 20
56.9847
 30
0.0
 10
-153.9248
 20
56.9847
 30
0.0
 10
-153.7259
 20
56.7906
 30
0.0
 10
-153.6601
 20
56.4978
 30
0.0
 10
-153.7565
 20
56.2375
 30
0.0
 10
-153.7565
 20
56.2375
 30
0.0
 10
-154.2176
 20
55.5956
 30
0.0
 10
-154.9891
 20
55.2533
 30
0.0
 10
-155.7742
 20
55.3401
 30
0.0
  0
SPLINE
  5
91
330
1F
100
AcDbEntity
  8
layer 1
 62
     7
370
     9
100
AcDbSpline
210
0.0
220
0.0
230
1.0
 70
    11
 71
     3
 72
    20
 73
    16
 74
     0
 42
0.0000000001
 43
0.0000000001
 12
1.0
 22
0.0
 32
0.0
 13
1.0
 23
0.0
 33
0.0
 40
0.0
 40
0.0
 40
0.0
 40
0.0
 40
0.2
 40
0.2
 40
0.2
 40
0.2
 40
0.4
 40
0.4
 40
0.4
 40
0.4
 40
0.6
 40
0.6
 40
0.6
 40
0.6
 40
1.0
 40
1.0
 40
1.0
 40
1.0
 10
-94.3762
 20
-21.0824
 30
0.0
 10
-95.0781
 20
-21.0824
 30
0.0
 10
-95.6472
 20
-22.0196
 30
0.0
 10
-95.6472
 20
-23.1754
 30
0.0
 10
-95.6472
 20
-23.1754
 30
0.0
 10
-95.6472
 20
-24.3311
 30
0.0
 10
-95.0781
 20
-25.268
 30
0.0
 10
-94.3762
 20
-25.268
 30
0.0
 10
-94.3762
 20
-25.268
 30
0.0
 10
-93.674
 20
-25.268
 30
0.0
 10
-93.1052
 20
-24.3311
 30
0.0
 10
-93.1052
 20
-23.1754
 30
0.0
 10
-93.1052
 20
-23.1754
 30
0.0
 10
-93.1052
 20
-22.0196
 30
0.0
 10
-93.674
 20
-21.0824
 30
0.0
 10
-94.3762
 20
-21.0824
 30
0.0
  0
SPLINE
  5
92
330
1F
100
AcDbEntity
  8
layer 1
 62
     7
370
     9
100
AcDbSpline
210
0.0
220
0.0
230
1.0
 70
    11
 71
     3
 72
    64
 73
    60
 74
     0
 42
0.0000000001
 43
0.0000000001
 12
1.0
 22
0.0
 32
0.0
 13
1.0
 23
0.0
 33
0.0
 40
0.0
 40
0.0
 40
0.0
 40
0.0
 40
0.0625
 40
0.0625
 40
0.0625
 40
0.0625
 40
0.125
 40
0.125
 40
0.125
 40
0.125
 40
0.1875
 40
0.1875
 40
0.1875
 40
0.1875
 40
0.25
 40
0.25
 40
0.25
 40
0.25
 40
0.3125
 40
0.3125
 40
0.3125
 40
0.3125
 40
0.375
 40
0.375
 40
0.375
 40
0.375
 40
0.4375
 40
0.4375
 40
0.4375
 40
0.4375
 40
0.5
 40
0.5
 40
0.5
 40
0.5
 40
0.5625
 40
0.5625
 40
0.5625
 40
0.5625
 40
0.625
 40
0.625
 40
0.625
 40
0.625
 40
0.6875
 40
0.6875
 40
0.6875
 40
0.6875
 40
0.75
 40
0.75
 40
0.75
 40
0.75
 40
0.8125
 40
0.8125
 40
0.8125
 40
0.8125
 40
0.875
 40
0.875
 40
0.875
 40
0.875
 40
1.0
 40
1.0
 40
1.0
 40
1.0
 10
-94.8427
 20
-32.8163
 30
0.0
 10
-94.8277
 20
-33.0408
 30
0.0
 10
-94.6384
 20
-33.2135
 30
0.0
 10
-94.4136
 20
-33.2086
 30
0.0
 10
-94.4136
 20
-33.2086
 30
0.0
 10
-94.1884
 20
-33.2036
 30
0.0
 10
-94.0072
 20
-33.0227
 30
0.0
 10
-94.0021
 20
-32.7975
 30
0.0
 10
-94.0021
 20
-32.7975
 30
0.0
 10
-94.0169
 20
-31.826
 30
0.0
 10
-94.0231
 20
-30.8545
 30
0.0
 10
-94.0207
 20
-29.8828
 30
0.0
 10
-94.0207
 20
-29.8828
 30
0.0
 10
-93.7502
 20
-30.0348
 30
0.0
 10
-93.5294
 20
-30.262
 30
0.0
 10
-93.3853
 20
-30.5365
 30
0.0
 10
-93.3853
 20
-30.5365
 30
0.0
 10
-93.0643
 20
-30.6257
 30
0.0
 10
-92.7204
 20
-30.5287
 30
0.0
 10
-92.4927
 20
-30.2854
 30
0.0
 10
-92.4927
 20
-30.2854
 30
0.0
 10
-92.2653
 20
-30.0423
 30
0.0
 10
-92.1914
 20
-29.6926
 30
0.0
 10
-92.3017
 20
-29.3781
 30
0.0
 10
-92.3017
 20
-29.3781
 30
0.0
 10
-92.5706
 20
-28.4814
 30
0.0
 10
-92.622
 20
-27.5334
 30
0.0
 10
-92.4512
 20
-26.613
 30
0.0
 10
-92.4512
 20
-26.613
 30
0.0
 10
-90.653
 20
-28.1033
 30
0.0
 10
-89.1727
 20
-29.9396
 30
0.0
 10
-88.0977
 20
-32.0127
 30
0.0
 10
-88.0977
 20
-32.0127
 30
0.0
 10
-87.142
 20
-33.3425
 30
0.0
 10
-87.0976
 20
-35.1214
 30
0.0
 10
-87.9852
 20
-36.4971
 30
0.0
 10
-87.9852
 20
-36.4971
 30
0.0
 10
-88.6672
 20
-37.864
 30
0.0
 10
-88.3794
 20
-39.5153
 30
0.0
 10
-87.2753
 20
-40.5707
 30
0.0
 10
-87.2753
 20
-40.5707
 30
0.0
 10
-88.8985
 20
-40.9768
 30
0.0
 10
-90.6182
 20
-40.5885
 30
0.0
 10
-91.9092
 20
-39.5242
 30
0.0
 10
-91.9092
 20
-39.5242
 30
0.0
 10
-92.3935
 20
-40.1515
 30
0.0
 10
-93.195
 20
-40.4445
 30
0.0
 10
-93.9696
 20
-40.2765
 30
0.0
 10
-93.9696
 20
-40.2765
 30
0.0
 10
-94.7438
 20
-40.1089
 30
0.0
 10
-95.3528
 20
-39.5108
 30
0.0
 10
-95.5341
 20
-38.7395
 30
0.0
 10
-95.5341
 20
-38.7395
 30
0.0
 10
-96.3953
 20
-35.2805
 30
0.0
 10
-96.1136
 20
-31.6359
 30
0.0
 10
-94.7307
 20
-28.3505
 30
0.0
 10
-94.7307
 20
-28.3505
 30
0.0
 10
-94.5263
 20
-29.8354
 30
0.0
 10
-94.5641
 20
-31.3437
 30
0.0
 10
-94.8427
 20
-32.8163
 30
0.0
  0
SPLINE
  5
93
330
1F
100
AcDbEntity
  8
layer 1
 62
     7
370
     9
100
AcDbSpline
210
0.0
220
0.0
230
1.0
 70
    11
 71
     3
 72
    64
 73
    60
 74
     0
 42
0.0000000001
 43
0.0000000001
 12
1.0
 22
0.0
 32
0.0
 13
1.0
 23
0.0
 33
0.0
 40
0.0
 40
0.0
 40
0.0
 40
0.0
 40
0.0625
 40
0.0625
 40
0.0625
 40
0.0625
 40
0.125
 40
0.125
 40
0.125
 40
0.125
 40
0.1875
 40
0.1875
 40
0.1875
 40
0.1875
 40
0.25
 40
0.25
 40
0.25
 40
0.25
 40
0.3125
 40
0.3125
 40
0.3125
 40
0.3125
 40
0.375
 40
0.375
 40
0.375
 40
0.375
 40
0.4375
 40
0.4375
 40
0.4375
 40
0.4375
 40
0.5
 40
0.5
 40
0.5
 40
0.5
 40
0.5625
 40
0.5625
 40
0.5625
 40
0.5625
 40
0.625
 40
0.625
 40
0.625
 40
0.625
 40
0.6875
 40
0.6875
 40
0.6875
 40
0.6875
 40
0.75
 40
0.75
 40
0.75
 40
0.75
 40
0.8125
 40
0.8125
 40
0.8125
 40
0.8125
 40
0.875
 40
0.875
 40
0.875
 40
0.875
 40
1.0
 40
1.0
 40
1.0
 40
1.0
 10
-91.5167
 20
-23.5484
 30
0.0
 10
-90.8534
 20
-23.6623
 30
0.0
 10
-90.1929
 20
-23.7932
 30
0.0
 10
-89.5363
 20
-23.941
 30
0.0
 10
-89.5363
 20
-23.941
 30
0.0
 10
-89.8919
 20
-23.3369
 30
0.0
 10
-90.468
 20
-22.8951
 30
0.0
 10
-91.1431
 20
-22.7077
 30
0.0
 10
-91.1431
 20
-22.7077
 30
0.0
 10
-90.9308
 20
-22.2864
 30
0.0
 10
-90.5391
 20
-21.9846
 30
0.0
 10
-90.0781
 20
-21.8856
 30
0.0
 10
-90.0781
 20
-21.8856
 30
0.0
 10
-89.2363
 20
-21.606
 30
0.0
 10
-88.5212
 20
-21.0366
 30
0.0
 10
-88.0602
 20
-20.2784
 30
0.0
 10
-88.0602
 20
-20.2784
 30
0.0
 10
-89.2426
 20
-20.1037
 30
0.0
 10
-90.4431
 20
-20.4513
 30
0.0
 10
-91.3486
 20
-21.2319
 30
0.0
 10
-91.3486
 20
-21.2319
 30
0.0
 10
-90.8049
 20
-19.0942
 30
0.0
 10
-89.702
 20
-17.1404
 30
0.0
 10
-88.1535
 20
-15.5697
 30
0.0
 10
-88.1535
 20
-15.5697
 30
0.0
 10
-87.8928
 20
-15.3925
 30
0.0
 10
-87.5636
 20
-15.348
 30
0.0
 10
-87.2654
 20
-15.4517
 30
0.0
 10
-87.2654
 20
-15.4517
 30
0.0
 10
-86.9674
 20
-15.5547
 30
0.0
 10
-86.7353
 20
-15.7928
 30
0.0
 10
-86.6401
 20
-16.0928
 30
0.0
 10
-86.6401
 20
-16.0928
 30
0.0
 10
-85.4677
 20
-15.9705
 30
0.0
 10
-84.3453
 20
-16.5992
 30
0.0
 10
-83.8372
 20
-17.6628
 30
0.0
 10
-83.8372
 20
-17.6628
 30
0.0
 10
-82.348
 20
-17.5676
 30
0.0
 10
-80.9369
 20
-18.3384
 30
0.0
 10
-80.2123
 20
-19.6431
 30
0.0
 10
-80.2123
 20
-19.6431
 30
0.0
 10
-80.7072
 20
-21.8725
 30
0.0
 10
-81.7325
 20
-23.9495
 30
0.0
 10
-83.202
 20
-25.6971
 30
0.0
 10
-83.202
 20
-25.6971
 30
0.0
 10
-82.8783
 20
-26.5171
 30
0.0
 10
-83.0626
 20
-27.4506
 30
0.0
 10
-83.6739
 20
-28.0857
 30
0.0
 10
-83.6739
 20
-28.0857
 30
0.0
 10
-84.285
 20
-28.7209
 30
0.0
 10
-85.2104
 20
-28.9413
 30
0.0
 10
-86.0422
 20
-28.6495
 30
0.0
 10
-86.0422
 20
-28.6495
 30
0.0
 10
-88.0884
 20
-27.9916
 30
0.0
 10
-89.8696
 20
-26.6948
 30
0.0
 10
-91.1245
 20
-24.9499
 30
0.0
 10
-91.1245
 20
-24.9499
 30
0.0
 10
-91.4318
 20
-24.5512
 30
0.0
 10
-91.5726
 20
-24.0487
 30
0.0
 10
-91.5167
 20
-23.5484
 30
0.0
  0
SPLINE
  5
94
330
1F
100
AcDbEntity
  8
layer 1
 62
     7
370
     9
100
AcDbSpline
210
0.0
220
0.0
230
1.0
 70
    11
 71
     3
 72
    60
 73
    56
 74
     0
 42
0.0000000001
 43
0.0000000001
 12
1.0
 22
0.0
 32
0.0
 13
1.0
 23
0.0
 33
0.0
 40
0.0
 40
0.0
 40
0.0
 40
0.0
 40
0.0666666666666667
 40
0.0666666666666667
 40
0.0666666666666667
 40
0.0666666666666667
 40
0.1333333333333333
 40
0.1333333333333333
 40
0.1333333333333333
 40
0.1333333333333333
 40
0.2
 40
0.2
 40
0.2
 40
0.2
 40
0.2666666666666667
 40
0.2666666666666667
 40
0.2666666666666667
 40
0.2666666666666667
 40
0.3333333333333333
 40
0.3333333333333333
 40
0.3333333333333333
 40
0.3333333333333333
 40
0.4
 40
0.4
 40
0.4
 40
0.4
 40
0.4666666666666667
 40
0.4666666666666667
 40
0.4666666666666667
 40
0.4666666666666667
 40
0.5333333333333333
 40
0.5333333333333333
 40
0.5333333333333333
 40
0.5333333333333333
 40
0.6
 40
0.6
 40
0.6
 40
0.6
 40
0.6666666666666666
 40
0.6666666666666666
 40
0.6666666666666666
 40
0.6666666666666666
 40
0.7333333333333333
 40
0.7333333333333333
 40
0.7333333333333333
 40
0.7333333333333333
 40
0.8
 40
0.8
 40
0.8
 40
0.8
 40
0.8666666666666667
 40
0.8666666666666667
 40
0.8666666666666667
 40
0.8666666666666667
 40
1.0
 40
1.0
 40
1.0
 40
1.0
 10
-93.0302
 20
-15.6076
 30
0.0
 10
-92.5547
 20
-13.9053
 30
0.0
 10
-92.4528
 20
-12.1207
 30
0.0
 10
-92.7312
 20
-10.3753
 30
0.0
 10
-92.7312
 20
-10.3753
 30
0.0
 10
-92.9278
 20
-9.4063
 30
0.0
 10
-92.6263
 20
-8.4034
 30
0.0
 10
-91.9279
 20
-7.7038
 30
0.0
 10
-91.9279
 20
-7.7038
 30
0.0
 10
-91.9792
 20
-8.9422
 30
0.0
 10
-91.998
 20
-10.1824
 30
0.0
 10
-91.9842
 20
-11.4222
 30
0.0
 10
-91.9842
 20
-11.4222
 30
0.0
 10
-91.4561
 20
-11.4553
 30
0.0
 10
-90.9284
 20
-11.3523
 30
0.0
 10
-90.4518
 20
-11.1232
 30
0.0
 10
-90.4518
 20
-11.1232
 30
0.0
 10
-91.1474
 20
-12.3346
 30
0.0
 10
-91.46
 20
-13.7286
 30
0.0
 10
-91.3486
 20
-15.1214
 30
0.0
 10
-91.3486
 20
-15.1214
 30
0.0
 10
-89.7208
 20
-13.6738
 30
0.0
 10
-87.7941
 20
-12.6021
 30
0.0
 10
-85.7058
 20
-11.9827
 30
0.0
 10
-85.7058
 20
-11.9827
 30
0.0
 10
-85.149
 20
-11.4047
 30
0.0
 10
-85.0009
 20
-10.546
 30
0.0
 10
-85.3322
 20
-9.8148
 30
0.0
 10
-85.3322
 20
-9.8148
 30
0.0
 10
-85.8324
 20
-8.9784
 30
0.0
 10
-86.3557
 20
-8.1558
 30
0.0
 10
-86.9016
 20
-7.3488
 30
0.0
 10
-86.9016
 20
-7.3488
 30
0.0
 10
-86.6948
 20
-5.5631
 30
0.0
 10
-87.0195
 20
-3.7556
 30
0.0
 10
-87.8358
 20
-2.1544
 30
0.0
 10
-87.8358
 20
-2.1544
 30
0.0
 10
-89.1527
 20
-2.1737
 30
0.0
 10
-90.3841
 20
-2.81
 30
0.0
 10
-91.1618
 20
-3.8732
 30
0.0
 10
-91.1618
 20
-3.8732
 30
0.0
 10
-91.6673
 20
-3.7044
 30
0.0
 10
-92.2194
 20
-3.7484
 30
0.0
 10
-92.6914
 20
-3.9955
 30
0.0
 10
-92.6914
 20
-3.9955
 30
0.0
 10
-93.1638
 20
-4.242
 30
0.0
 10
-93.5155
 20
-4.6699
 30
0.0
 10
-93.6657
 20
-5.1809
 30
0.0
 10
-93.6657
 20
-5.1809
 30
0.0
 10
-94.3239
 20
-7.2446
 30
0.0
 10
-94.4777
 20
-9.4359
 30
0.0
 10
-94.1141
 20
-11.5717
 30
0.0
 10
-94.1141
 20
-11.5717
 30
0.0
 10
-93.7748
 20
-12.9223
 30
0.0
 10
-93.4135
 20
-14.2679
 30
0.0
 10
-93.0302
 20
-15.6076
 30
0.0
  0
SPLINE
  5
95
330
1F
100
AcDbEntity
  8
layer 1
 62
     7
370
     9
100
AcDbSpline
210
0.0
220
0.0
230
1.0
 70
    11
 71
     3
 72
    64
 73
    60
 74
     0
 42
0.0000000001
 43
0.0000000001
 12
1.0
 22
0.0
 32
0.0
 13
1.0
 23
0.0
 33
0.0
 40
0.0
 40
0.0
 40
0.0
 40
0.0
 40
0.0625
 40
0.0625
 40
0.0625
 40
0.0625
 40
0.125
 40
0.125
 40
0.125
 40
0.125
 40
0.1875
 40
0.1875
 40
0.1875
 40
0.1875
 40
0.25
 40
0.25
 40
0.25
 40
0.25
 40
0.3125
 40
0.3125
 40
0.3125
 40
0.3125
 40
0.375
 40
0.375
 40
0.375
 40
0.375
 40
0.4375
 40
0.4375
 40
0.4375
 40
0.4375
 40
0.5
 40
0.5
 40
0.5
 40
0.5
 40
0.5625
 40
0.5625
 40
0.5625
 40
0.5625
 40
0.625
 40
0.625
 40
0.625
 40
0.625
 40
0.6875
 40
0.6875
 40
0.6875
 40
0.6875
 40
0.75
 40
0.75
 40
0.75
 40
0.75
 40
0.8125
 40
0.8125
 40
0.8125
 40
0.8125
 40
0.875
 40
0.875
 40
0.875
 40
0.875
 40
1.0
 40
1.0
 40
1.0
 40
1.0
 10
-103.494
 20
-12.8047
 30
0.0
 10
-103.8382
 20
-13.3526
 30
0.0
 10
-103.9076
 20
-14.03
 30
0.0
 10
-103.6807
 20
-14.6356
 30
0.0
 10
-103.6807
 20
-14.6356
 30
0.0
 10
-103.1289
 20
-17.3946
 30
0.0
 10
-100.9262
 20
-19.5227
 30
0.0
 10
-98.1501
 20
-19.9795
 30
0.0
 10
-98.1501
 20
-19.9795
 30
0.0
 10
-98.1417
 20
-19.1369
 30
0.0
 10
-98.3337
 20
-18.3046
 30
0.0
 10
-98.7106
 20
-17.5507
 30
0.0
 10
-98.7106
 20
-17.5507
 30
0.0
 10
-99.2578
 20
-16.367
 30
0.0
 10
-99.5872
 20
-15.0948
 30
0.0
 10
-99.6821
 20
-13.7949
 30
0.0
 10
-99.6821
 20
-13.7949
 30
0.0
 10
-98.9865
 20
-14.1082
 30
0.0
 10
-98.4615
 20
-14.708
 30
0.0
 10
-98.2435
 20
-15.439
 30
0.0
 10
-98.2435
 20
-15.439
 30
0.0
 10
-97.751
 20
-16.8872
 30
0.0
 10
-96.8722
 20
-18.1727
 30
0.0
 10
-95.7022
 20
-19.1574
 30
0.0
 10
-95.7022
 20
-19.1574
 30
0.0
 10
-95.6735
 20
-18.1003
 30
0.0
 10
-95.9113
 20
-17.0529
 30
0.0
 10
-96.3937
 20
-16.1121
 30
0.0
 10
-96.3937
 20
-16.1121
 30
0.0
 10
-97.1408
 20
-14.7417
 30
0.0
 10
-97.5747
 20
-13.2229
 30
0.0
 10
-97.6642
 20
-11.6651
 30
0.0
 10
-97.6642
 20
-11.6651
 30
0.0
 10
-97.1898
 20
-11.885
 30
0.0
 10
-96.8348
 20
-12.3015
 30
0.0
 10
-96.6927
 20
-12.8047
 30
0.0
 10
-96.6927
 20
-12.8047
 30
0.0
 10
-96.3437
 20
-14.6651
 30
0.0
 10
-95.727
 20
-16.4654
 30
0.0
 10
-94.8615
 20
-18.1486
 30
0.0
 10
-94.8615
 20
-18.1486
 30
0.0
 10
-93.6713
 20
-14.1354
 30
0.0
 10
-94.9609
 20
-9.798
 30
0.0
 10
-98.1501
 20
-7.0872
 30
0.0
 10
-98.1501
 20
-7.0872
 30
0.0
 10
-98.7897
 20
-6.666
 30
0.0
 10
-99.6439
 20
-6.7949
 30
0.0
 10
-100.1308
 20
-7.3862
 30
0.0
 10
-100.1308
 20
-7.3862
 30
0.0
 10
-100.2848
 20
-6.9232
 30
0.0
 10
-100.6228
 20
-6.5448
 30
0.0
 10
-101.0649
 20
-6.3393
 30
0.0
 10
-101.0649
 20
-6.3393
 30
0.0
 10
-101.9351
 20
-6.0747
 30
0.0
 10
-102.6709
 20
-5.4858
 30
0.0
 10
-103.1202
 20
-4.6952
 30
0.0
 10
-103.1202
 20
-4.6952
 30
0.0
 10
-103.9913
 20
-7.3121
 30
0.0
 10
-104.1206
 20
-10.1192
 30
0.0
 10
-103.494
 20
-12.8047
 30
0.0
  0
SPLINE
  5
96
330
1F
100
AcDbEntity
  8
layer 1
 62
     7
370
     9
100
AcDbSpline
210
0.0
220
0.0
230
1.0
 70
    11
 71
     3
 72
    88
 73
    84
 74
     0
 42
0.0000000001
 43
0.0000000001
 12
1.0
 22
0.0
 32
0.0
 13
1.0
 23
0.0
 33
0.0
 40
0.0
 40
0.0
 40
0.0
 40
0.0
 40
0.0454545454545455
 40
0.0454545454545455
 40
0.0454545454545455
 40
0.0454545454545455
 40
0.0909090909090909
 40
0.0909090909090909
 40
0.0909090909090909
 40
0.0909090909090909
 40
0.1363636363636364
 40
0.1363636363636364
 40
0.1363636363636364
 40
0.1363636363636364
 40
0.1818181818181818
 40
0.1818181818181818
 40
0.1818181818181818
 40
0.1818181818181818
 40
0.2272727272727273
 40
0.2272727272727273
 40
0.2272727272727273
 40
0.2272727272727273
 40
0.2727272727272727
 40
0.2727272727272727
 40
0.2727272727272727
 40
0.2727272727272727
 40
0.3181818181818182
 40
0.3181818181818182
 40
0.3181818181818182
 40
0.3181818181818182
 40
0.3636363636363636
 40
0.3636363636363636
 40
0.3636363636363636
 40
0.3636363636363636
 40
0.4090909090909091
 40
0.4090909090909091
 40
0.4090909090909091
 40
0.4090909090909091
 40
0.4545454545454545
 40
0.4545454545454545
 40
0.4545454545454545
 40
0.4545454545454545
 40
0.5
 40
0.5
 40
0.5
 40
0.5
 40
0.5454545454545454
 40
0.5454545454545454
 40
0.5454545454545454
 40
0.5454545454545454
 40
0.5909090909090909
 40
0.5909090909090909
 40
0.5909090909090909
 40
0.5909090909090909
 40
0.6363636363636364
 40
0.6363636363636364
 40
0.6363636363636364
 40
0.6363636363636364
 40
0.6818181818181818
 40
0.6818181818181818
 40
0.6818181818181818
 40
0.6818181818181818
 40
0.7272727272727273
 40
0.7272727272727273
 40
0.7272727272727273
 40
0.7272727272727273
 40
0.7727272727272727
 40
0.7727272727272727
 40
0.7727272727272727
 40
0.7727272727272727
 40
0.8181818181818182
 40
0.8181818181818182
 40
0.8181818181818182
 40
0.8181818181818182
 40
0.8636363636363636
 40
0.8636363636363636
 40
0.8636363636363636
 40
0.8636363636363636
 40
0.9090909090909091
 40
0.9090909090909091
 40
0.9090909090909091
 40
0.9090909090909091
 40
1.0
 40
1.0
 40
1.0
 40
1.0
 10
-100.8407
 20
-27.2669
 30
0.0
 10
-101.3386
 20
-27.3192
 30
0.0
 10
-101.7335
 20
-27.7096
 30
0.0
 10
-101.7918
 20
-28.2067
 30
0.0
 10
-101.7918
 20
-28.2067
 30
0.0
 10
-101.8502
 20
-28.704
 30
0.0
 10
-101.5559
 20
-29.175
 30
0.0
 10
-101.0837
 20
-29.341
 30
0.0
 10
-101.0837
 20
-29.341
 30
0.0
 10
-100.502
 20
-29.5368
 30
0.0
 10
-99.8615
 20
-29.4393
 30
0.0
 10
-99.3646
 20
-29.0795
 30
0.0
 10
-99.3646
 20
-29.0795
 30
0.0
 10
-98.4776
 20
-28.1525
 30
0.0
 10
-97.5081
 20
-27.3084
 30
0.0
 10
-96.4682
 20
-26.5569
 30
0.0
 10
-96.4682
 20
-26.5569
 30
0.0
 10
-96.3898
 20
-29.0897
 30
0.0
 10
-97.2708
 20
-31.5588
 30
0.0
 10
-98.9347
 20
-33.4701
 30
0.0
 10
-98.9347
 20
-33.4701
 30
0.0
 10
-99.7904
 20
-34.1292
 30
0.0
 10
-100.9012
 20
-34.3585
 30
0.0
 10
-101.9479
 20
-34.0923
 30
0.0
 10
-101.9479
 20
-34.0923
 30
0.0
 10
-102.9945
 20
-33.8261
 30
0.0
 10
-103.8606
 20
-33.0939
 30
0.0
 10
-104.2976
 20
-32.1062
 30
0.0
 10
-104.2976
 20
-32.1062
 30
0.0
 10
-105.0585
 20
-32.0177
 30
0.0
 10
-105.7225
 20
-31.5494
 30
0.0
 10
-106.0623
 20
-30.8628
 30
0.0
 10
-106.0623
 20
-30.8628
 30
0.0
 10
-106.4018
 20
-30.1763
 30
0.0
 10
-106.3703
 20
-29.3639
 30
0.0
 10
-105.9791
 20
-28.7055
 30
0.0
 10
-105.9791
 20
-28.7055
 30
0.0
 10
-106.582
 20
-27.1036
 30
0.0
 10
-106.1448
 20
-25.296
 30
0.0
 10
-104.8767
 20
-24.1465
 30
0.0
 10
-104.8767
 20
-24.1465
 30
0.0
 10
-104.9567
 20
-23.4888
 30
0.0
 10
-104.7578
 20
-22.8276
 30
0.0
 10
-104.3282
 20
-22.3238
 30
0.0
 10
-104.3282
 20
-22.3238
 30
0.0
 10
-103.8985
 20
-21.82
 30
0.0
 10
-103.2775
 20
-21.5187
 30
0.0
 10
-102.6157
 20
-21.4934
 30
0.0
 10
-102.6157
 20
-21.4934
 30
0.0
 10
-101.0135
 20
-21.5645
 30
0.0
 10
-99.4372
 20
-21.9254
 30
0.0
 10
-97.9632
 20
-22.5582
 30
0.0
 10
-97.9632
 20
-22.5582
 30
0.0
 10
-97.742
 20
-22.7265
 30
0.0
 10
-97.6287
 20
-23.0012
 30
0.0
 10
-97.6675
 20
-23.2766
 30
0.0
 10
-97.6675
 20
-23.2766
 30
0.0
 10
-97.7063
 20
-23.5514
 30
0.0
 10
-97.8909
 20
-23.7846
 30
0.0
 10
-98.1501
 20
-23.8847
 30
0.0
 10
-98.1501
 20
-23.8847
 30
0.0
 10
-99.007
 20
-24.0385
 30
0.0
 10
-99.8769
 20
-24.1075
 30
0.0
 10
-100.7473
 20
-24.0904
 30
0.0
 10
-100.7473
 20
-24.0904
 30
0.0
 10
-100.9183
 20
-24.149
 30
0.0
 10
-101.0403
 20
-24.3014
 30
0.0
 10
-101.0604
 20
-24.4813
 30
0.0
 10
-101.0604
 20
-24.4813
 30
0.0
 10
-101.0804
 20
-24.661
 30
0.0
 10
-100.9948
 20
-24.8363
 30
0.0
 10
-100.8407
 20
-24.9311
 30
0.0
 10
-100.8407
 20
-24.9311
 30
0.0
 10
-100.2061
 20
-25.11
 30
0.0
 10
-99.5873
 20
-25.3413
 30
0.0
 10
-98.9908
 20
-25.6225
 30
0.0
 10
-98.9908
 20
-25.6225
 30
0.0
 10
-98.7923
 20
-25.8167
 30
0.0
 10
-98.7265
 20
-26.1094
 30
0.0
 10
-98.8227
 20
-26.3701
 30
0.0
 10
-98.8227
 20
-26.3701
 30
0.0
 10
-99.2841
 20
-27.0112
 30
0.0
 10
-100.0556
 20
-27.3541
 30
0.0
 10
-100.8407
 20
-27.2669
 30
0.0
  0
SPLINE
  5
97
330
1F
100
AcDbEntity
  8
layer 1
 62
     7
370
     9
100
AcDbSpline
210
0.0
220
0.0
230
1.0
 70
    11
 71
     3
 72
    52
 73
    48
 74
     0
 42
0.0000000001
 43
0.0000000001
 12
1.0
 22
0.0
 32
0.0
 13
1.0
 23
0.0
 33
0.0
 40
0.0
 40
0.0
 40
0.0
 40
0.0
 40
0.0769230769230769
 40
0.0769230769230769
 40
0.0769230769230769
 40
0.0769230769230769
 40
0.1538461538461539
 40
0.1538461538461539
 40
0.1538461538461539
 40
0.1538461538461539
 40
0.2307692307692308
 40
0.2307692307692308
 40
0.2307692307692308
 40
0.2307692307692308
 40
0.3076923076923077
 40
0.3076923076923077
 40
0.3076923076923077
 40
0.3076923076923077
 40
0.3846153846153846
 40
0.3846153846153846
 40
0.3846153846153846
 40
0.3846153846153846
 40
0.4615384615384616
 40
0.4615384615384616
 40
0.4615384615384616
 40
0.4615384615384616
 40
0.5384615384615384
 40
0.5384615384615384
 40
0.5384615384615384
 40
0.5384615384615384
 40
0.6153846153846154
 40
0.6153846153846154
 40
0.6153846153846154
 40
0.6153846153846154
 40
0.6923076923076923
 40
0.6923076923076923
 40
0.6923076923076923
 40
0.6923076923076923
 40
0.7692307692307693
 40
0.7692307692307693
 40
0.7692307692307693
 40
0.7692307692307693
 40
0.8461538461538461
 40
0.8461538461538461
 40
0.8461538461538461
 40
0.8461538461538461
 40
1.0
 40
1.0
 40
1.0
 40
1.0
 10
-78.1757
 20
19.1096
 30
0.0
 10
-77.8143
 20
19.6484
 30
0.0
 10
-77.6494
 20
20.295
 30
0.0
 10
-77.7087
 20
20.9404
 30
0.0
 10
-77.7087
 20
20.9404
 30
0.0
 10
-76.8299
 20
20.8904
 30
0.0
 10
-75.9967
 20
20.533
 30
0.0
 10
-75.3542
 20
19.9317
 30
0.0
 10
-75.3542
 20
19.9317
 30
0.0
 10
-75.5953
 20
21.1779
 30
0.0
 10
-76.7971
 20
21.9957
 30
0.0
 10
-78.0451
 20
21.763
 30
0.0
 10
-78.0451
 20
21.763
 30
0.0
 10
-78.65
 20
22.2646
 30
0.0
 10
-79.2481
 20
22.7755
 30
0.0
 10
-79.8386
 20
23.2951
 30
0.0
 10
-79.8386
 20
23.2951
 30
0.0
 10
-77.8366
 20
24.0182
 30
0.0
 10
-75.598
 20
23.5561
 30
0.0
 10
-74.0462
 20
22.0987
 30
0.0
 10
-74.0462
 20
22.0987
 30
0.0
 10
-73.2525
 20
21.0701
 30
0.0
 10
-72.9892
 20
19.7273
 30
0.0
 10
-73.3362
 20
18.4743
 30
0.0
 10
-73.3362
 20
18.4743
 30
0.0
 10
-73.5594
 20
18.076
 30
0.0
 10
-73.5451
 20
17.5878
 30
0.0
 10
-73.2991
 20
17.2033
 30
0.0
 10
-73.2991
 20
17.2033
 30
0.0
 10
-72.7569
 20
16.0173
 30
0.0
 10
-72.8122
 20
14.6431
 30
0.0
 10
-73.4484
 20
13.5042
 30
0.0
 10
-73.4484
 20
13.5042
 30
0.0
 10
-74.3885
 20
12.7286
 30
0.0
 10
-75.7417
 20
12.7134
 30
0.0
 10
-76.6997
 20
13.4668
 30
0.0
 10
-76.6997
 20
13.4668
 30
0.0
 10
-77.348
 20
12.561
 30
0.0
 10
-78.5813
 20
12.3011
 30
0.0
 10
-79.5397
 20
12.8683
 30
0.0
 10
-79.5397
 20
12.8683
 30
0.0
 10
-79.2195
 20
15.6333
 30
0.0
 10
-79.3203
 20
18.4304
 30
0.0
 10
-79.8386
 20
21.1646
 30
0.0
 10
-79.8386
 20
21.1646
 30
0.0
 10
-79.0251
 20
20.738
 30
0.0
 10
-78.4233
 20
19.9942
 30
0.0
 10
-78.1757
 20
19.1096
 30
0.0
  0
SPLINE
  5
98
330
1F
100
AcDbEntity
  8
layer 1
 62
     7
370
     9
100
AcDbSpline
210
0.0
220
0.0
230
1.0
 70
    11
 71
     3
 72
    64
 73
    60
 74
     0
 42
0.0000000001
 43
0.0000000001
 12
1.0
 22
0.0
 32
0.0
 13
1.0
 23
0.0
 33
0.0
 40
0.0
 40
0.0
 40
0.0
 40
0.0
 40
0.0625
 40
0.0625
 40
0.0625
 40
0.0625
 40
0.125
 40
0.125
 40
0.125
 40
0.125
 40
0.1875
 40
0.1875
 40
0.1875
 40
0.1875
 40
0.25
 40
0.25
 40
0.25
 40
0.25
 40
0.3125
 40
0.3125
 40
0.3125
 40
0.3125
 40
0.375
 40
0.375
 40
0.375
 40
0.375
 40
0.4375
 40
0.4375
 40
0.4375
 40
0.4375
 40
0.5
 40
0.5
 40
0.5
 40
0.5
 40
0.5625
 40
0.5625
 40
0.5625
 40
0.5625
 40
0.625
 40
0.625
 40
0.625
 40
0.625
 40
0.6875
 40
0.6875
 40
0.6875
 40
0.6875
 40
0.75
 40
0.75
 40
0.75
 40
0.75
 40
0.8125
 40
0.8125
 40
0.8125
 40
0.8125
 40
0.875
 40
0.875
 40
0.875
 40
0.875
 40
1.0
 40
1.0
 40
1.0
 40
1.0
 10
-88.9944
 20
16.6055
 30
0.0
 10
-88.3126
 20
19.3404
 30
0.0
 10
-86.7255
 20
21.7637
 30
0.0
 10
-84.4912
 20
23.4819
 30
0.0
 10
-84.4912
 20
23.4819
 30
0.0
 10
-84.7739
 20
22.6255
 30
0.0
 10
-84.9189
 20
21.7299
 30
0.0
 10
-84.9212
 20
20.8284
 30
0.0
 10
-84.9212
 20
20.8284
 30
0.0
 10
-84.6552
 20
21.4466
 30
0.0
 10
-84.26
 20
22.0011
 30
0.0
 10
-83.7626
 20
22.4544
 30
0.0
 10
-83.7626
 20
22.4544
 30
0.0
 10
-83.9658
 20
21.2623
 30
0.0
 10
-83.991
 20
20.0473
 30
0.0
 10
-83.8372
 20
18.848
 30
0.0
 10
-83.8372
 20
18.848
 30
0.0
 10
-83.7977
 20
18.7124
 30
0.0
 10
-83.6792
 20
18.6154
 30
0.0
 10
-83.5388
 20
18.6027
 30
0.0
 10
-83.5388
 20
18.6027
 30
0.0
 10
-83.3983
 20
18.5906
 30
0.0
 10
-83.2647
 20
18.6654
 30
0.0
 10
-83.202
 20
18.792
 30
0.0
 10
-83.202
 20
18.792
 30
0.0
 10
-82.9292
 20
20.0389
 30
0.0
 10
-82.9038
 20
21.3279
 30
0.0
 10
-83.1272
 20
22.5851
 30
0.0
 10
-83.1272
 20
22.5851
 30
0.0
 10
-82.3376
 20
21.4184
 30
0.0
 10
-81.6855
 20
20.1642
 30
0.0
 10
-81.1841
 20
18.848
 30
0.0
 10
-81.1841
 20
18.848
 30
0.0
 10
-80.7788
 20
17.6035
 30
0.0
 10
-80.8724
 20
16.2498
 30
0.0
 10
-81.4457
 20
15.0735
 30
0.0
 10
-81.4457
 20
15.0735
 30
0.0
 10
-81.4216
 20
13.8019
 30
0.0
 10
-82.0045
 20
12.5946
 30
0.0
 10
-83.0152
 20
11.8226
 30
0.0
 10
-83.0152
 20
11.8226
 30
0.0
 10
-83.077
 20
10.5354
 30
0.0
 10
-83.6896
 20
9.3373
 30
0.0
 10
-84.6967
 20
8.5339
 30
0.0
 10
-84.6967
 20
8.5339
 30
0.0
 10
-84.8508
 20
8.3706
 30
0.0
 10
-85.0923
 20
8.3255
 30
0.0
 10
-85.2948
 20
8.4218
 30
0.0
 10
-85.2948
 20
8.4218
 30
0.0
 10
-86.3416
 20
9.9436
 30
0.0
 10
-87.1719
 20
11.604
 30
0.0
 10
-87.7611
 20
13.3547
 30
0.0
 10
-87.7611
 20
13.3547
 30
0.0
 10
-88.3652
 20
13.6114
 30
0.0
 10
-88.8382
 20
14.1031
 30
0.0
 10
-89.0711
 20
14.7173
 30
0.0
 10
-89.0711
 20
14.7173
 30
0.0
 10
-89.3038
 20
15.3309
 30
0.0
 10
-89.2761
 20
16.013
 30
0.0
 10
-88.9944
 20
16.6055
 30
0.0
  0
SPLINE
  5
99
330
1F
100
AcDbEntity
  8
layer 1
 62
     7
370
     9
100
AcDbSpline
210
0.0
220
0.0
230
1.0
 70
    11
 71
     3
 72
    20
 73
    16
 74
     0
 42
0.0000000001
 43
0.0000000001
 12
1.0
 22
0.0
 32
0.0
 13
1.0
 23
0.0
 33
0.0
 40
0.0
 40
0.0
 40
0.0
 40
0.0
 40
0.2
 40
0.2
 40
0.2
 40
0.2
 40
0.4
 40
0.4
 40
0.4
 40
0.4
 40
0.6
 40
0.6
 40
0.6
 40
0.6
 40
1.0
 40
1.0
 40
1.0
 40
1.0
 10
-83.5008
 20
28.4508
 30
0.0
 10
-82.8609
 20
28.4508
 30
0.0
 10
-82.3426
 20
27.6981
 30
0.0
 10
-82.3426
 20
26.77
 30
0.0
 10
-82.3426
 20
26.77
 30
0.0
 10
-82.3426
 20
25.8413
 30
0.0
 10
-82.8609
 20
25.0886
 30
0.0
 10
-83.5008
 20
25.0886
 30
0.0
 10
-83.5008
 20
25.0886
 30
0.0
 10
-84.1404
 20
25.0886
 30
0.0
 10
-84.6591
 20
25.8413
 30
0.0
 10
-84.6591
 20
26.77
 30
0.0
 10
-84.6591
 20
26.77
 30
0.0
 10
-84.6591
 20
27.6981
 30
0.0
 10
-84.1404
 20
28.4508
 30
0.0
 10
-83.5008
 20
28.4508
 30
0.0
  0
SPLINE
  5
9A
330
1F
100
AcDbEntity
  8
layer 1
 62
     7
370
     9
100
AcDbSpline
210
0.0
220
0.0
230
1.0
 70
    11
 71
     3
 72
    60
 73
    56
 74
     0
 42
0.0000000001
 43
0.0000000001
 12
1.0
 22
0.0
 32
0.0
 13
1.0
 23
0.0
 33
0.0
 40
0.0
 40
0.0
 40
0.0
 40
0.0
 40
0.0666666666666667
 40
0.0666666666666667
 40
0.0666666666666667
 40
0.0666666666666667
 40
0.1333333333333333
 40
0.1333333333333333
 40
0.1333333333333333
 40
0.1333333333333333
 40
0.2
 40
0.2
 40
0.2
 40
0.2
 40
0.2666666666666667
 40
0.2666666666666667
 40
0.2666666666666667
 40
0.2666666666666667
 40
0.3333333333333333
 40
0.3333333333333333
 40
0.3333333333333333
 40
0.3333333333333333
 40
0.4
 40
0.4
 40
0.4
 40
0.4
 40
0.4666666666666667
 40
0.4666666666666667
 40
0.4666666666666667
 40
0.4666666666666667
 40
0.5333333333333333
 40
0.5333333333333333
 40
0.5333333333333333
 40
0.5333333333333333
 40
0.6
 40
0.6
 40
0.6
 40
0.6
 40
0.6666666666666666
 40
0.6666666666666666
 40
0.6666666666666666
 40
0.6666666666666666
 40
0.7333333333333333
 40
0.7333333333333333
 40
0.7333333333333333
 40
0.7333333333333333
 40
0.8
 40
0.8
 40
0.8
 40
0.8
 40
0.8666666666666667
 40
0.8666666666666667
 40
0.8666666666666667
 40
0.8666666666666667
 40
1.0
 40
1.0
 40
1.0
 40
1.0
 10
-80.6981
 20
26.3036
 30
0.0
 10
-80.0004
 20
25.1976
 30
0.0
 10
-78.7694
 20
24.545
 30
0.0
 10
-77.4628
 20
24.5872
 30
0.0
 10
-77.4628
 20
24.5872
 30
0.0
 10
-76.1565
 20
24.6294
 30
0.0
 10
-74.9702
 20
25.361
 30
0.0
 10
-74.3453
 20
26.5091
 30
0.0
 10
-74.3453
 20
26.5091
 30
0.0
 10
-73.3567
 20
27.4872
 30
0.0
 10
-72.9588
 20
28.9155
 30
0.0
 10
-73.2991
 20
30.2643
 30
0.0
 10
-73.2991
 20
30.2643
 30
0.0
 10
-72.9644
 20
31.557
 30
0.0
 10
-72.2001
 20
32.6966
 30
0.0
 10
-71.1315
 20
33.497
 30
0.0
 10
-71.1315
 20
33.497
 30
0.0
 10
-72.3279
 20
34.5739
 30
0.0
 10
-73.6992
 20
35.4394
 30
0.0
 10
-75.1861
 20
36.0571
 30
0.0
 10
-75.1861
 20
36.0571
 30
0.0
 10
-76.2354
 20
36.5115
 30
0.0
 10
-77.4548
 20
36.2988
 30
0.0
 10
-78.2878
 20
35.5147
 30
0.0
 10
-78.2878
 20
35.5147
 30
0.0
 10
-79.669
 20
34.2341
 30
0.0
 10
-80.5717
 20
32.5201
 30
0.0
 10
-80.8476
 20
30.6567
 30
0.0
 10
-80.8476
 20
30.6567
 30
0.0
 10
-79.4367
 20
31.2315
 30
0.0
 10
-77.9243
 20
31.5178
 30
0.0
 10
-76.4006
 20
31.4973
 30
0.0
 10
-76.4006
 20
31.4973
 30
0.0
 10
-77.6984
 20
30.1987
 30
0.0
 10
-79.1548
 20
29.0686
 30
0.0
 10
-80.7355
 20
28.1345
 30
0.0
 10
-80.7355
 20
28.1345
 30
0.0
 10
-80.8773
 20
27.8481
 30
0.0
 10
-80.8064
 20
27.5024
 30
0.0
 10
-80.5638
 20
27.295
 30
0.0
 10
-80.5638
 20
27.295
 30
0.0
 10
-80.3211
 20
27.0876
 30
0.0
 10
-79.9683
 20
27.0714
 30
0.0
 10
-79.7078
 20
27.2559
 30
0.0
 10
-79.7078
 20
27.2559
 30
0.0
 10
-78.7492
 20
27.9995
 30
0.0
 10
-77.5163
 20
28.2923
 30
0.0
 10
-76.3261
 20
28.0598
 30
0.0
 10
-76.3261
 20
28.0598
 30
0.0
 10
-76.5019
 20
27.5956
 30
0.0
 10
-76.9179
 20
27.2661
 30
0.0
 10
-77.4097
 20
27.2003
 30
0.0
 10
-77.4097
 20
27.2003
 30
0.0
 10
-78.5615
 20
27.1672
 30
0.0
 10
-79.689
 20
26.8599
 30
0.0
 10
-80.6981
 20
26.3036
 30
0.0
  0
SPLINE
  5
9B
330
1F
100
AcDbEntity
  8
layer 1
 62
     7
370
     9
100
AcDbSpline
210
0.0
220
0.0
230
1.0
 70
    11
 71
     3
 72
    68
 73
    64
 74
     0
 42
0.0000000001
 43
0.0000000001
 12
1.0
 22
0.0
 32
0.0
 13
1.0
 23
0.0
 33
0.0
 40
0.0
 40
0.0
 40
0.0
 40
0.0
 40
0.0588235294117647
 40
0.0588235294117647
 40
0.0588235294117647
 40
0.0588235294117647
 40
0.1176470588235294
 40
0.1176470588235294
 40
0.1176470588235294
 40
0.1176470588235294
 40
0.1764705882352941
 40
0.1764705882352941
 40
0.1764705882352941
 40
0.1764705882352941
 40
0.2352941176470588
 40
0.2352941176470588
 40
0.2352941176470588
 40
0.2352941176470588
 40
0.2941176470588235
 40
0.2941176470588235
 40
0.2941176470588235
 40
0.2941176470588235
 40
0.3529411764705883
 40
0.3529411764705883
 40
0.3529411764705883
 40
0.3529411764705883
 40
0.4117647058823529
 40
0.4117647058823529
 40
0.4117647058823529
 40
0.4117647058823529
 40
0.4705882352941176
 40
0.4705882352941176
 40
0.4705882352941176
 40
0.4705882352941176
 40
0.5294117647058824
 40
0.5294117647058824
 40
0.5294117647058824
 40
0.5294117647058824
 40
0.5882352941176471
 40
0.5882352941176471
 40
0.5882352941176471
 40
0.5882352941176471
 40
0.6470588235294118
 40
0.6470588235294118
 40
0.6470588235294118
 40
0.6470588235294118
 40
0.7058823529411765
 40
0.7058823529411765
 40
0.7058823529411765
 40
0.7058823529411765
 40
0.7647058823529411
 40
0.7647058823529411
 40
0.7647058823529411
 40
0.7647058823529411
 40
0.8235294117647058
 40
0.8235294117647058
 40
0.8235294117647058
 40
0.8235294117647058
 40
0.8823529411764706
 40
0.8823529411764706
 40
0.8823529411764706
 40
0.8823529411764706
 40
1.0
 40
1.0
 40
1.0
 40
1.0
 10
-95.1231
 20
21.9125
 30
0.0
 10
-95.0657
 20
24.0086
 30
0.0
 10
-94.5016
 20
26.0607
 30
0.0
 10
-93.4788
 20
27.8915
 30
0.0
 10
-93.4788
 20
27.8915
 30
0.0
 10
-93.9223
 20
28.8721
 30
0.0
 10
-93.789
 20
30.0177
 30
0.0
 10
-93.132
 20
30.8706
 30
0.0
 10
-93.132
 20
30.8706
 30
0.0
 10
-92.475
 20
31.7234
 30
0.0
 10
-91.4011
 20
32.144
 30
0.0
 10
-90.3397
 20
31.9651
 30
0.0
 10
-90.3397
 20
31.9651
 30
0.0
 10
-88.6261
 20
31.2725
 30
0.0
 10
-87.2197
 20
29.9853
 30
0.0
 10
-86.3785
 20
28.34
 30
0.0
 10
-86.3785
 20
28.34
 30
0.0
 10
-87.4888
 20
28.3996
 30
0.0
 10
-88.5562
 20
28.7901
 30
0.0
 10
-89.4428
 20
29.461
 30
0.0
 10
-89.4428
 20
29.461
 30
0.0
 10
-89.436
 20
29.059
 30
0.0
 10
-89.2549
 20
28.6799
 30
0.0
 10
-88.9465
 20
28.4213
 30
0.0
 10
-88.9465
 20
28.4213
 30
0.0
 10
-88.638
 20
28.1633
 30
0.0
 10
-88.233
 20
28.0519
 30
0.0
 10
-87.8358
 20
28.1158
 30
0.0
 10
-87.8358
 20
28.1158
 30
0.0
 10
-87.6084
 20
27.9742
 30
0.0
 10
-87.5272
 20
27.6819
 30
0.0
 10
-87.649
 20
27.4433
 30
0.0
 10
-87.649
 20
27.4433
 30
0.0
 10
-87.9186
 20
27.1896
 30
0.0
 10
-88.0281
 20
26.8086
 30
0.0
 10
-87.9347
 20
26.4507
 30
0.0
 10
-87.9347
 20
26.4507
 30
0.0
 10
-87.8412
 20
26.0926
 30
0.0
 10
-87.5597
 20
25.8137
 30
0.0
 10
-87.2006
 20
25.7238
 30
0.0
 10
-87.2006
 20
25.7238
 30
0.0
 10
-86.7202
 20
25.8058
 30
0.0
 10
-86.2333
 20
25.6196
 30
0.0
 10
-85.9301
 20
25.2381
 30
0.0
 10
-85.9301
 20
25.2381
 30
0.0
 10
-87.1301
 20
23.7199
 30
0.0
 10
-88.4964
 20
22.3411
 30
0.0
 10
-90.0033
 20
21.1273
 30
0.0
 10
-90.0033
 20
21.1273
 30
0.0
 10
-90.4362
 20
20.8193
 30
0.0
 10
-90.9904
 20
20.7373
 30
0.0
 10
-91.4935
 20
20.908
 30
0.0
 10
-91.4935
 20
20.908
 30
0.0
 10
-91.9968
 20
21.0778
 30
0.0
 10
-92.3875
 20
21.4792
 30
0.0
 10
-92.5447
 20
21.9873
 30
0.0
 10
-92.5447
 20
21.9873
 30
0.0
 10
-92.8226
 20
22.4417
 30
0.0
 10
-93.323
 20
22.7123
 30
0.0
 10
-93.8555
 20
22.6973
 30
0.0
 10
-93.8555
 20
22.6973
 30
0.0
 10
-94.3881
 20
22.6816
 30
0.0
 10
-94.8718
 20
22.3821
 30
0.0
 10
-95.1231
 20
21.9125
 30
0.0
  0
SPLINE
  5
9C
330
1F
100
AcDbEntity
  8
layer 1
 62
     7
370
     9
100
AcDbSpline
210
0.0
220
0.0
230
1.0
 70
    11
 71
     3
 72
    72
 73
    68
 74
     0
 42
0.0000000001
 43
0.0000000001
 12
1.0
 22
0.0
 32
0.0
 13
1.0
 23
0.0
 33
0.0
 40
0.0
 40
0.0
 40
0.0
 40
0.0
 40
0.0555555555555556
 40
0.0555555555555556
 40
0.0555555555555556
 40
0.0555555555555556
 40
0.1111111111111111
 40
0.1111111111111111
 40
0.1111111111111111
 40
0.1111111111111111
 40
0.1666666666666667
 40
0.1666666666666667
 40
0.1666666666666667
 40
0.1666666666666667
 40
0.2222222222222222
 40
0.2222222222222222
 40
0.2222222222222222
 40
0.2222222222222222
 40
0.2777777777777778
 40
0.2777777777777778
 40
0.2777777777777778
 40
0.2777777777777778
 40
0.3333333333333333
 40
0.3333333333333333
 40
0.3333333333333333
 40
0.3333333333333333
 40
0.3888888888888889
 40
0.3888888888888889
 40
0.3888888888888889
 40
0.3888888888888889
 40
0.4444444444444444
 40
0.4444444444444444
 40
0.4444444444444444
 40
0.4444444444444444
 40
0.5
 40
0.5
 40
0.5
 40
0.5
 40
0.5555555555555556
 40
0.5555555555555556
 40
0.5555555555555556
 40
0.5555555555555556
 40
0.6111111111111112
 40
0.6111111111111112
 40
0.6111111111111112
 40
0.6111111111111112
 40
0.6666666666666666
 40
0.6666666666666666
 40
0.6666666666666666
 40
0.6666666666666666
 40
0.7222222222222222
 40
0.7222222222222222
 40
0.7222222222222222
 40
0.7222222222222222
 40
0.7777777777777778
 40
0.7777777777777778
 40
0.7777777777777778
 40
0.7777777777777778
 40
0.8333333333333334
 40
0.8333333333333334
 40
0.8333333333333334
 40
0.8333333333333334
 40
0.8888888888888888
 40
0.8888888888888888
 40
0.8888888888888888
 40
0.8888888888888888
 40
1.0
 40
1.0
 40
1.0
 40
1.0
 10
-85.0706
 20
30.0962
 30
0.0
 10
-85.8317
 20
32.3163
 30
0.0
 10
-85.9549
 20
34.7048
 30
0.0
 10
-85.4256
 20
36.9912
 30
0.0
 10
-85.4256
 20
36.9912
 30
0.0
 10
-85.2444
 20
37.1889
 30
0.0
 10
-84.9649
 20
37.2642
 30
0.0
 10
-84.709
 20
37.1841
 30
0.0
 10
-84.709
 20
37.1841
 30
0.0
 10
-84.4529
 20
37.104
 30
0.0
 10
-84.266
 20
36.8834
 30
0.0
 10
-84.2296
 20
36.6176
 30
0.0
 10
-84.2296
 20
36.6176
 30
0.0
 10
-84.5197
 20
35.7035
 30
0.0
 10
-84.552
 20
34.7271
 30
0.0
 10
-84.3231
 20
33.7959
 30
0.0
 10
-84.3231
 20
33.7959
 30
0.0
 10
-84.2624
 20
33.6767
 30
0.0
 10
-84.1396
 20
33.6013
 30
0.0
 10
-84.0055
 20
33.6013
 30
0.0
 10
-84.0055
 20
33.6013
 30
0.0
 10
-83.8714
 20
33.6013
 30
0.0
 10
-83.7487
 20
33.6767
 30
0.0
 10
-83.6877
 20
33.7959
 30
0.0
 10
-83.6877
 20
33.7959
 30
0.0
 10
-83.5512
 20
34.5722
 30
0.0
 10
-83.1235
 20
35.267
 30
0.0
 10
-82.4921
 20
35.739
 30
0.0
 10
-82.4921
 20
35.739
 30
0.0
 10
-82.5368
 20
34.0274
 30
0.0
 10
-82.6615
 20
32.3194
 30
0.0
 10
-82.8657
 20
30.6193
 30
0.0
 10
-82.8657
 20
30.6193
 30
0.0
 10
-81.5082
 20
32.9336
 30
0.0
 10
-80.7027
 20
35.5299
 30
0.0
 10
-80.5112
 20
38.2057
 30
0.0
 10
-80.5112
 20
38.2057
 30
0.0
 10
-80.3394
 20
39.0018
 30
0.0
 10
-80.7019
 20
39.8179
 30
0.0
 10
-81.4083
 20
40.2234
 30
0.0
 10
-81.4083
 20
40.2234
 30
0.0
 10
-81.7119
 20
40.4108
 30
0.0
 10
-81.8506
 20
40.7797
 30
0.0
 10
-81.7447
 20
41.1208
 30
0.0
 10
-81.7447
 20
41.1208
 30
0.0
 10
-81.6895
 20
41.7023
 30
0.0
 10
-81.9526
 20
42.2688
 30
0.0
 10
-82.4329
 20
42.6014
 30
0.0
 10
-82.4329
 20
42.6014
 30
0.0
 10
-82.9132
 20
42.9347
 30
0.0
 10
-83.5359
 20
42.9831
 30
0.0
 10
-84.0615
 20
42.7275
 30
0.0
 10
-84.0615
 20
42.7275
 30
0.0
 10
-84.4954
 20
43.0342
 30
0.0
 10
-85.0701
 20
43.0542
 30
0.0
 10
-85.5244
 20
42.7781
 30
0.0
 10
-85.5244
 20
42.7781
 30
0.0
 10
-85.9786
 20
42.5027
 30
0.0
 10
-86.226
 20
41.9832
 30
0.0
 10
-86.1542
 20
41.457
 30
0.0
 10
-86.1542
 20
41.457
 30
0.0
 10
-86.7505
 20
41.2486
 30
0.0
 10
-87.2449
 20
40.8207
 30
0.0
 10
-87.537
 20
40.2608
 30
0.0
 10
-87.537
 20
40.2608
 30
0.0
 10
-89.1647
 20
36.7104
 30
0.0
 10
-88.1446
 20
32.5063
 30
0.0
 10
-85.0706
 20
30.0962
 30
0.0
  0
SPLINE
  5
9D
330
1F
100
AcDbEntity
  8
layer 1
 62
     7
370
     9
100
AcDbSpline
210
0.0
220
0.0
230
1.0
 70
    11
 71
     3
 72
    20
 73
    16
 74
     0
 42
0.0000000001
 43
0.0000000001
 12
1.0
 22
0.0
 32
0.0
 13
1.0
 23
0.0
 33
0.0
 40
0.0
 40
0.0
 40
0.0
 40
0.0
 40
0.2
 40
0.2
 40
0.2
 40
0.2
 40
0.4
 40
0.4
 40
0.4
 40
0.4
 40
0.6
 40
0.6
 40
0.6
 40
0.6
 40
1.0
 40
1.0
 40
1.0
 40
1.0
 10
-119.7879
 20
54.9851
 30
0.0
 10
-119.3955
 20
54.9851
 30
0.0
 10
-119.0774
 20
54.4493
 30
0.0
 10
-119.0774
 20
53.7894
 30
0.0
 10
-119.0774
 20
53.7894
 30
0.0
 10
-119.0774
 20
53.129
 30
0.0
 10
-119.3955
 20
52.5931
 30
0.0
 10
-119.7879
 20
52.5931
 30
0.0
 10
-119.7879
 20
52.5931
 30
0.0
 10
-120.1801
 20
52.5931
 30
0.0
 10
-120.4984
 20
53.129
 30
0.0
 10
-120.4984
 20
53.7894
 30
0.0
 10
-120.4984
 20
53.7894
 30
0.0
 10
-120.4984
 20
54.4493
 30
0.0
 10
-120.1801
 20
54.9851
 30
0.0
 10
-119.7879
 20
54.9851
 30
0.0
  0
SPLINE
  5
9E
330
1F
100
AcDbEntity
  8
layer 1
 62
     7
370
     9
100
AcDbSpline
210
0.0
220
0.0
230
1.0
 70
    11
 71
     3
 72
    60
 73
    56
 74
     0
 42
0.0000000001
 43
0.0000000001
 12
1.0
 22
0.0
 32
0.0
 13
1.0
 23
0.0
 33
0.0
 40
0.0
 40
0.0
 40
0.0
 40
0.0
 40
0.0666666666666667
 40
0.0666666666666667
 40
0.0666666666666667
 40
0.0666666666666667
 40
0.1333333333333333
 40
0.1333333333333333
 40
0.1333333333333333
 40
0.1333333333333333
 40
0.2
 40
0.2
 40
0.2
 40
0.2
 40
0.2666666666666667
 40
0.2666666666666667
 40
0.2666666666666667
 40
0.2666666666666667
 40
0.3333333333333333
 40
0.3333333333333333
 40
0.3333333333333333
 40
0.3333333333333333
 40
0.4
 40
0.4
 40
0.4
 40
0.4
 40
0.4666666666666667
 40
0.4666666666666667
 40
0.4666666666666667
 40
0.4666666666666667
 40
0.5333333333333333
 40
0.5333333333333333
 40
0.5333333333333333
 40
0.5333333333333333
 40
0.6
 40
0.6
 40
0.6
 40
0.6
 40
0.6666666666666666
 40
0.6666666666666666
 40
0.6666666666666666
 40
0.6666666666666666
 40
0.7333333333333333
 40
0.7333333333333333
 40
0.7333333333333333
 40
0.7333333333333333
 40
0.8
 40
0.8
 40
0.8
 40
0.8
 40
0.8666666666666667
 40
0.8666666666666667
 40
0.8666666666666667
 40
0.8666666666666667
 40
1.0
 40
1.0
 40
1.0
 40
1.0
 10
-125.9531
 20
48.1835
 30
0.0
 10
-125.7543
 20
47.8032
 30
0.0
 10
-125.7543
 20
47.3493
 30
0.0
 10
-125.9531
 20
46.969
 30
0.0
 10
-125.9531
 20
46.969
 30
0.0
 10
-126.3358
 20
46.3181
 30
0.0
 10
-126.2652
 20
45.4967
 30
0.0
 10
-125.7777
 20
44.9205
 30
0.0
 10
-125.7777
 20
44.9205
 30
0.0
 10
-125.2896
 20
44.3445
 30
0.0
 10
-124.4911
 20
44.1395
 30
0.0
 10
-123.7859
 20
44.4089
 30
0.0
 10
-123.7859
 20
44.4089
 30
0.0
 10
-123.393
 20
44.1533
 30
0.0
 10
-122.8916
 20
44.1316
 30
0.0
 10
-122.4782
 20
44.3528
 30
0.0
 10
-122.4782
 20
44.3528
 30
0.0
 10
-121.7362
 20
45.0297
 30
0.0
 10
-121.3855
 20
46.0337
 30
0.0
 10
-121.544
 20
47.025
 30
0.0
 10
-121.544
 20
47.025
 30
0.0
 10
-121.6037
 20
48.096
 30
0.0
 10
-121.5217
 20
49.1705
 30
0.0
 10
-121.3006
 20
50.2198
 30
0.0
 10
-121.3006
 20
50.2198
 30
0.0
 10
-121.8104
 20
49.6419
 30
0.0
 10
-122.1184
 20
48.9145
 30
0.0
 10
-122.1792
 20
48.1461
 30
0.0
 10
-122.1792
 20
48.1461
 30
0.0
 10
-122.2124
 20
47.4754
 30
0.0
 10
-122.5077
 20
46.845
 30
0.0
 10
-123.0013
 20
46.3899
 30
0.0
 10
-123.0013
 20
46.3899
 30
0.0
 10
-122.6987
 20
47.0172
 30
0.0
 10
-122.5631
 20
47.7121
 30
0.0
 10
-122.6089
 20
48.4076
 30
0.0
 10
-122.6089
 20
48.4076
 30
0.0
 10
-122.9229
 20
48.3063
 30
0.0
 10
-123.264
 20
48.4491
 30
0.0
 10
-123.4123
 20
48.744
 30
0.0
 10
-123.4123
 20
48.744
 30
0.0
 10
-122.8988
 20
49.229
 30
0.0
 10
-122.5354
 20
49.8517
 30
0.0
 10
-122.3661
 20
50.5381
 30
0.0
 10
-122.3661
 20
50.5381
 30
0.0
 10
-123.4371
 20
50.3343
 30
0.0
 10
-124.5272
 20
50.247
 30
0.0
 10
-125.6174
 20
50.2759
 30
0.0
 10
-125.6174
 20
50.2759
 30
0.0
 10
-125.9827
 20
50.0789
 30
0.0
 10
-126.2359
 20
49.7227
 30
0.0
 10
-126.3015
 20
49.3129
 30
0.0
 10
-126.3015
 20
49.3129
 30
0.0
 10
-126.3677
 20
48.9023
 30
0.0
 10
-126.2388
 20
48.4853
 30
0.0
 10
-125.9531
 20
48.1835
 30
0.0
  0
SPLINE
  5
9F
330
1F
100
AcDbEntity
  8
layer 1
 62
     7
370
     9
100
AcDbSpline
210
0.0
220
0.0
230
1.0
 70
    11
 71
     3
 72
    40
 73
    36
 74
     0
 42
0.0000000001
 43
0.0000000001
 12
1.0
 22
0.0
 32
0.0
 13
1.0
 23
0.0
 33
0.0
 40
0.0
 40
0.0
 40
0.0
 40
0.0
 40
0.1
 40
0.1
 40
0.1
 40
0.1
 40
0.2
 40
0.2
 40
0.2
 40
0.2
 40
0.3
 40
0.3
 40
0.3
 40
0.3
 40
0.4
 40
0.4
 40
0.4
 40
0.4
 40
0.5
 40
0.5
 40
0.5
 40
0.5
 40
0.6
 40
0.6
 40
0.6
 40
0.6
 40
0.7
 40
0.7
 40
0.7
 40
0.7
 40
0.8
 40
0.8
 40
0.8
 40
0.8
 40
1.0
 40
1.0
 40
1.0
 40
1.0
 10
-117.8629
 20
47.3614
 30
0.0
 10
-118.0992
 20
48.6047
 30
0.0
 10
-118.1931
 20
49.871
 30
0.0
 10
-118.1432
 20
51.1358
 30
0.0
 10
-118.1432
 20
51.1358
 30
0.0
 10
-115.4377
 20
48.7059
 30
0.0
 10
-115.1094
 20
44.5831
 30
0.0
 10
-117.3958
 20
41.756
 30
0.0
 10
-117.3958
 20
41.756
 30
0.0
 10
-117.6869
 20
42.5563
 30
0.0
 10
-118.1311
 20
43.2921
 30
0.0
 10
-118.7036
 20
43.9232
 30
0.0
 10
-118.7036
 20
43.9232
 30
0.0
 10
-118.8953
 20
43.8285
 30
0.0
 10
-119.1182
 20
43.8195
 30
0.0
 10
-119.3177
 20
43.8972
 30
0.0
 10
-119.3177
 20
43.8972
 30
0.0
 10
-119.5166
 20
43.9756
 30
0.0
 10
-119.6739
 20
44.1342
 30
0.0
 10
-119.7499
 20
44.3342
 30
0.0
 10
-119.7499
 20
44.3342
 30
0.0
 10
-121.315
 20
46.2096
 30
0.0
 10
-121.4959
 20
48.8794
 30
0.0
 10
-120.1982
 20
50.9491
 30
0.0
 10
-120.1982
 20
50.9491
 30
0.0
 10
-120.1965
 20
49.654
 30
0.0
 10
-119.8825
 20
48.3787
 30
0.0
 10
-119.2829
 20
47.2305
 30
0.0
 10
-119.2829
 20
47.2305
 30
0.0
 10
-119.6305
 20
48.5444
 30
0.0
 10
-119.6558
 20
49.9221
 30
0.0
 10
-119.3575
 20
51.2479
 30
0.0
 10
-119.3575
 20
51.2479
 30
0.0
 10
-119.0786
 20
49.8787
 30
0.0
 10
-118.5734
 20
48.5649
 30
0.0
 10
-117.8629
 20
47.3614
 30
0.0
  0
SPLINE
  5
A0
330
1F
100
AcDbEntity
  8
layer 1
 62
     7
370
     9
100
AcDbSpline
210
0.0
220
0.0
230
1.0
 70
    11
 71
     3
 72
    68
 73
    64
 74
     0
 42
0.0000000001
 43
0.0000000001
 12
1.0
 22
0.0
 32
0.0
 13
1.0
 23
0.0
 33
0.0
 40
0.0
 40
0.0
 40
0.0
 40
0.0
 40
0.0588235294117647
 40
0.0588235294117647
 40
0.0588235294117647
 40
0.0588235294117647
 40
0.1176470588235294
 40
0.1176470588235294
 40
0.1176470588235294
 40
0.1176470588235294
 40
0.1764705882352941
 40
0.1764705882352941
 40
0.1764705882352941
 40
0.1764705882352941
 40
0.2352941176470588
 40
0.2352941176470588
 40
0.2352941176470588
 40
0.2352941176470588
 40
0.2941176470588235
 40
0.2941176470588235
 40
0.2941176470588235
 40
0.2941176470588235
 40
0.3529411764705883
 40
0.3529411764705883
 40
0.3529411764705883
 40
0.3529411764705883
 40
0.4117647058823529
 40
0.4117647058823529
 40
0.4117647058823529
 40
0.4117647058823529
 40
0.4705882352941176
 40
0.4705882352941176
 40
0.4705882352941176
 40
0.4705882352941176
 40
0.5294117647058824
 40
0.5294117647058824
 40
0.5294117647058824
 40
0.5294117647058824
 40
0.5882352941176471
 40
0.5882352941176471
 40
0.5882352941176471
 40
0.5882352941176471
 40
0.6470588235294118
 40
0.6470588235294118
 40
0.6470588235294118
 40
0.6470588235294118
 40
0.7058823529411765
 40
0.7058823529411765
 40
0.7058823529411765
 40
0.7058823529411765
 40
0.7647058823529411
 40
0.7647058823529411
 40
0.7647058823529411
 40
0.7647058823529411
 40
0.8235294117647058
 40
0.8235294117647058
 40
0.8235294117647058
 40
0.8235294117647058
 40
0.8823529411764706
 40
0.8823529411764706
 40
0.8823529411764706
 40
0.8823529411764706
 40
1.0
 40
1.0
 40
1.0
 40
1.0
 10
-115.9379
 20
54.4615
 30
0.0
 10
-116.2755
 20
54.5741
 30
0.0
 10
-116.6431
 20
54.5542
 30
0.0
 10
-116.9655
 20
54.4054
 30
0.0
 10
-116.9655
 20
54.4054
 30
0.0
 10
-117.1421
 20
54.1859
 30
0.0
 10
-117.1174
 20
53.8671
 30
0.0
 10
-116.9095
 20
53.6767
 30
0.0
 10
-116.9095
 20
53.6767
 30
0.0
 10
-116.6129
 20
53.5183
 30
0.0
 10
-116.2996
 20
53.3934
 30
0.0
 10
-115.9753
 20
53.303
 30
0.0
 10
-115.9753
 20
53.303
 30
0.0
 10
-116.522
 20
52.8584
 30
0.0
 10
-117.285
 20
52.7914
 30
0.0
 10
-117.9003
 20
53.1349
 30
0.0
 10
-117.9003
 20
53.1349
 30
0.0
 10
-117.9859
 20
52.7516
 30
0.0
 10
-117.7797
 20
52.3635
 30
0.0
 10
-117.4145
 20
52.2194
 30
0.0
 10
-117.4145
 20
52.2194
 30
0.0
 10
-116.7914
 20
51.2865
 30
0.0
 10
-115.7114
 20
50.7646
 30
0.0
 10
-114.5928
 20
50.8557
 30
0.0
 10
-114.5928
 20
50.8557
 30
0.0
 10
-114.2637
 20
50.9472
 30
0.0
 10
-114.0124
 20
51.2131
 30
0.0
 10
-113.939
 20
51.5469
 30
0.0
 10
-113.939
 20
51.5469
 30
0.0
 10
-112.9101
 20
52.0826
 30
0.0
 10
-112.476
 20
53.3271
 30
0.0
 10
-112.9487
 20
54.3866
 30
0.0
 10
-112.9487
 20
54.3866
 30
0.0
 10
-112.6958
 20
54.6344
 30
0.0
 10
-112.5969
 20
54.9996
 30
0.0
 10
-112.6898
 20
55.3408
 30
0.0
 10
-112.6898
 20
55.3408
 30
0.0
 10
-112.7831
 20
55.6817
 30
0.0
 10
-113.0536
 20
55.9464
 30
0.0
 10
-113.3971
 20
56.0313
 30
0.0
 10
-113.3971
 20
56.0313
 30
0.0
 10
-113.3664
 20
56.6912
 30
0.0
 10
-113.6393
 20
57.3295
 30
0.0
 10
-114.1384
 20
57.7629
 30
0.0
 10
-114.1384
 20
57.7629
 30
0.0
 10
-114.6374
 20
58.1961
 30
0.0
 10
-115.3075
 20
58.3775
 30
0.0
 10
-115.9567
 20
58.2545
 30
0.0
 10
-115.9567
 20
58.2545
 30
0.0
 10
-117.1872
 20
57.7412
 30
0.0
 10
-118.0594
 20
56.6213
 30
0.0
 10
-118.2553
 20
55.3027
 30
0.0
 10
-118.2553
 20
55.3027
 30
0.0
 10
-117.3543
 20
55.8398
 30
0.0
 10
-116.2273
 20
55.8253
 30
0.0
 10
-115.3402
 20
55.2647
 30
0.0
 10
-115.3402
 20
55.2647
 30
0.0
 10
-115.1828
 20
55.0833
 30
0.0
 10
-115.1733
 20
54.8163
 30
0.0
 10
-115.3173
 20
54.6236
 30
0.0
 10
-115.3173
 20
54.6236
 30
0.0
 10
-115.4601
 20
54.4307
 30
0.0
 10
-115.7186
 20
54.3632
 30
0.0
 10
-115.9379
 20
54.4615
 30
0.0
  0
SPLINE
  5
A1
330
1F
100
AcDbEntity
  8
layer 1
 62
     7
370
     9
100
AcDbSpline
210
0.0
220
0.0
230
1.0
 70
    11
 71
     3
 72
    52
 73
    48
 74
     0
 42
0.0000000001
 43
0.0000000001
 12
1.0
 22
0.0
 32
0.0
 13
1.0
 23
0.0
 33
0.0
 40
0.0
 40
0.0
 40
0.0
 40
0.0
 40
0.0769230769230769
 40
0.0769230769230769
 40
0.0769230769230769
 40
0.0769230769230769
 40
0.1538461538461539
 40
0.1538461538461539
 40
0.1538461538461539
 40
0.1538461538461539
 40
0.2307692307692308
 40
0.2307692307692308
 40
0.2307692307692308
 40
0.2307692307692308
 40
0.3076923076923077
 40
0.3076923076923077
 40
0.3076923076923077
 40
0.3076923076923077
 40
0.3846153846153846
 40
0.3846153846153846
 40
0.3846153846153846
 40
0.3846153846153846
 40
0.4615384615384616
 40
0.4615384615384616
 40
0.4615384615384616
 40
0.4615384615384616
 40
0.5384615384615384
 40
0.5384615384615384
 40
0.5384615384615384
 40
0.5384615384615384
 40
0.6153846153846154
 40
0.6153846153846154
 40
0.6153846153846154
 40
0.6153846153846154
 40
0.6923076923076923
 40
0.6923076923076923
 40
0.6923076923076923
 40
0.6923076923076923
 40
0.7692307692307693
 40
0.7692307692307693
 40
0.7692307692307693
 40
0.7692307692307693
 40
0.8461538461538461
 40
0.8461538461538461
 40
0.8461538461538461
 40
0.8461538461538461
 40
1.0
 40
1.0
 40
1.0
 40
1.0
 10
-119.3201
 20
63.4303
 30
0.0
 10
-119.7125
 20
64.3397
 30
0.0
 10
-120.546
 20
64.9829
 30
0.0
 10
-121.5253
 20
65.131
 30
0.0
 10
-121.5253
 20
65.131
 30
0.0
 10
-121.1101
 20
64.3132
 30
0.0
 10
-121.2601
 20
63.3225
 30
0.0
 10
-121.899
 20
62.6643
 30
0.0
 10
-121.899
 20
62.6643
 30
0.0
 10
-122.3058
 20
61.5518
 30
0.0
 10
-122.2588
 20
60.3235
 30
0.0
 10
-121.7682
 20
59.2449
 30
0.0
 10
-121.7682
 20
59.2449
 30
0.0
 10
-121.4168
 20
58.2721
 30
0.0
 10
-120.9528
 20
57.344
 30
0.0
 10
-120.3851
 20
56.4797
 30
0.0
 10
-120.3851
 20
56.4797
 30
0.0
 10
-120.4411
 20
56.9661
 30
0.0
 10
-120.4159
 20
57.4584
 30
0.0
 10
-120.3103
 20
57.9369
 30
0.0
 10
-120.3103
 20
57.9369
 30
0.0
 10
-120.2115
 20
58.1455
 30
0.0
 10
-120.0115
 20
58.2872
 30
0.0
 10
-119.7819
 20
58.3094
 30
0.0
 10
-119.7819
 20
58.3094
 30
0.0
 10
-119.5521
 20
58.3329
 30
0.0
 10
-119.3275
 20
58.234
 30
0.0
 10
-119.1894
 20
58.049
 30
0.0
 10
-119.1894
 20
58.049
 30
0.0
 10
-119.2309
 20
58.6386
 30
0.0
 10
-119.0044
 20
59.2153
 30
0.0
 10
-118.5729
 20
59.6185
 30
0.0
 10
-118.5729
 20
59.6185
 30
0.0
 10
-118.4506
 20
58.677
 30
0.0
 10
-118.6132
 20
57.72
 30
0.0
 10
-119.0399
 20
56.8721
 30
0.0
 10
-119.0399
 20
56.8721
 30
0.0
 10
-117.7146
 20
58.3353
 30
0.0
 10
-117.1362
 20
60.3266
 30
0.0
 10
-117.4707
 20
62.272
 30
0.0
 10
-117.4707
 20
62.272
 30
0.0
 10
-117.429
 20
62.7312
 30
0.0
 10
-117.649
 20
63.1747
 30
0.0
 10
-118.0395
 20
63.4194
 30
0.0
 10
-118.0395
 20
63.4194
 30
0.0
 10
-118.4306
 20
63.6642
 30
0.0
 10
-118.9255
 20
63.6683
 30
0.0
 10
-119.3201
 20
63.4303
 30
0.0
  0
SPLINE
  5
A2
330
1F
100
AcDbEntity
  8
layer 1
 62
     7
370
     9
100
AcDbSpline
210
0.0
220
0.0
230
1.0
 70
    11
 71
     3
 72
    72
 73
    68
 74
     0
 42
0.0000000001
 43
0.0000000001
 12
1.0
 22
0.0
 32
0.0
 13
1.0
 23
0.0
 33
0.0
 40
0.0
 40
0.0
 40
0.0
 40
0.0
 40
0.0555555555555556
 40
0.0555555555555556
 40
0.0555555555555556
 40
0.0555555555555556
 40
0.1111111111111111
 40
0.1111111111111111
 40
0.1111111111111111
 40
0.1111111111111111
 40
0.1666666666666667
 40
0.1666666666666667
 40
0.1666666666666667
 40
0.1666666666666667
 40
0.2222222222222222
 40
0.2222222222222222
 40
0.2222222222222222
 40
0.2222222222222222
 40
0.2777777777777778
 40
0.2777777777777778
 40
0.2777777777777778
 40
0.2777777777777778
 40
0.3333333333333333
 40
0.3333333333333333
 40
0.3333333333333333
 40
0.3333333333333333
 40
0.3888888888888889
 40
0.3888888888888889
 40
0.3888888888888889
 40
0.3888888888888889
 40
0.4444444444444444
 40
0.4444444444444444
 40
0.4444444444444444
 40
0.4444444444444444
 40
0.5
 40
0.5
 40
0.5
 40
0.5
 40
0.5555555555555556
 40
0.5555555555555556
 40
0.5555555555555556
 40
0.5555555555555556
 40
0.6111111111111112
 40
0.6111111111111112
 40
0.6111111111111112
 40
0.6111111111111112
 40
0.6666666666666666
 40
0.6666666666666666
 40
0.6666666666666666
 40
0.6666666666666666
 40
0.7222222222222222
 40
0.7222222222222222
 40
0.7222222222222222
 40
0.7222222222222222
 40
0.7777777777777778
 40
0.7777777777777778
 40
0.7777777777777778
 40
0.7777777777777778
 40
0.8333333333333334
 40
0.8333333333333334
 40
0.8333333333333334
 40
0.8333333333333334
 40
0.8888888888888888
 40
0.8888888888888888
 40
0.8888888888888888
 40
0.8888888888888888
 40
1.0
 40
1.0
 40
1.0
 40
1.0
 10
-123.543
 20
53.8449
 30
0.0
 10
-123.0254
 20
53.5531
 30
0.0
 10
-122.4112
 20
53.4857
 30
0.0
 10
-121.843
 20
53.658
 30
0.0
 10
-121.843
 20
53.658
 30
0.0
 10
-122.2076
 20
52.7799
 30
0.0
 10
-122.8778
 20
52.0628
 30
0.0
 10
-123.7299
 20
51.6403
 30
0.0
 10
-123.7299
 20
51.6403
 30
0.0
 10
-123.9559
 20
51.5452
 30
0.0
 10
-124.2127
 20
51.5633
 30
0.0
 10
-124.423
 20
51.6885
 30
0.0
 10
-124.423
 20
51.6885
 30
0.0
 10
-124.6333
 20
51.8139
 30
0.0
 10
-124.7713
 20
52.032
 30
0.0
 10
-124.7949
 20
52.2755
 30
0.0
 10
-124.7949
 20
52.2755
 30
0.0
 10
-125.5927
 20
52.3973
 30
0.0
 10
-126.2328
 20
53.0
 30
0.0
 10
-126.4016
 20
53.7889
 30
0.0
 10
-126.4016
 20
53.7889
 30
0.0
 10
-126.9337
 20
54.1613
 30
0.0
 10
-127.3531
 20
54.6718
 30
0.0
 10
-127.6165
 20
55.2647
 30
0.0
 10
-127.6165
 20
55.2647
 30
0.0
 10
-127.7942
 20
55.5451
 30
0.0
 10
-127.8226
 20
55.8946
 30
0.0
 10
-127.6912
 20
56.1995
 30
0.0
 10
-127.6912
 20
56.1995
 30
0.0
 10
-127.258
 20
56.916
 30
0.0
 10
-126.6462
 20
57.508
 30
0.0
 10
-125.9164
 20
57.9183
 30
0.0
 10
-125.9164
 20
57.9183
 30
0.0
 10
-125.6525
 20
58.1038
 30
0.0
 10
-125.4873
 20
58.3999
 30
0.0
 10
-125.4674
 20
58.7216
 30
0.0
 10
-125.4674
 20
58.7216
 30
0.0
 10
-125.4608
 20
59.0458
 30
0.0
 10
-125.2715
 20
59.3381
 30
0.0
 10
-124.9787
 20
59.4768
 30
0.0
 10
-124.9787
 20
59.4768
 30
0.0
 10
-124.6857
 20
59.6149
 30
0.0
 10
-124.3398
 20
59.5763
 30
0.0
 10
-124.0849
 20
59.3762
 30
0.0
 10
-124.0849
 20
59.3762
 30
0.0
 10
-122.6246
 20
58.3365
 30
0.0
 10
-121.6416
 20
56.7546
 30
0.0
 10
-121.3566
 20
54.9851
 30
0.0
 10
-121.3566
 20
54.9851
 30
0.0
 10
-121.8363
 20
54.9424
 30
0.0
 10
-122.2991
 20
55.1737
 30
0.0
 10
-122.5528
 20
55.583
 30
0.0
 10
-122.5528
 20
55.583
 30
0.0
 10
-122.4739
 20
55.105
 30
0.0
 10
-122.1864
 20
54.6875
 30
0.0
 10
-121.7682
 20
54.4427
 30
0.0
 10
-121.7682
 20
54.4427
 30
0.0
 10
-122.2955
 20
54.3187
 30
0.0
 10
-122.8446
 20
54.3125
 30
0.0
 10
-123.3749
 20
54.4246
 30
0.0
 10
-123.3749
 20
54.4246
 30
0.0
 10
-123.4822
 20
54.3783
 30
0.0
 10
-123.5635
 20
54.2867
 30
0.0
 10
-123.5961
 20
54.1745
 30
0.0
 10
-123.5961
 20
54.1745
 30
0.0
 10
-123.6286
 20
54.0624
 30
0.0
 10
-123.6093
 20
53.9413
 30
0.0
 10
-123.543
 20
53.8449
 30
0.0
  0
SPLINE
  5
A3
330
1F
100
AcDbEntity
  8
layer 1
 62
     7
370
     9
100
AcDbSpline
210
0.0
220
0.0
230
1.0
 70
    11
 71
     3
 72
    20
 73
    16
 74
     0
 42
0.0000000001
 43
0.0000000001
 12
1.0
 22
0.0
 32
0.0
 13
1.0
 23
0.0
 33
0.0
 40
0.0
 40
0.0
 40
0.0
 40
0.0
 40
0.2
 40
0.2
 40
0.2
 40
0.2
 40
0.4
 40
0.4
 40
0.4
 40
0.4
 40
0.6
 40
0.6
 40
0.6
 40
0.6
 40
1.0
 40
1.0
 40
1.0
 40
1.0
 10
-166.4632
 20
30.3198
 30
0.0
 10
-165.7822
 20
30.3198
 30
0.0
 10
-165.2296
 20
29.3826
 30
0.0
 10
-165.2296
 20
28.2272
 30
0.0
 10
-165.2296
 20
28.2272
 30
0.0
 10
-165.2296
 20
27.0714
 30
0.0
 10
-165.7822
 20
26.1342
 30
0.0
 10
-166.4632
 20
26.1342
 30
0.0
 10
-166.4632
 20
26.1342
 30
0.0
 10
-167.1443
 20
26.1342
 30
0.0
 10
-167.697
 20
27.0714
 30
0.0
 10
-167.697
 20
28.2272
 30
0.0
 10
-167.697
 20
28.2272
 30
0.0
 10
-167.697
 20
29.3826
 30
0.0
 10
-167.1443
 20
30.3198
 30
0.0
 10
-166.4632
 20
30.3198
 30
0.0
  0
SPLINE
  5
A4
330
1F
100
AcDbEntity
  8
layer 1
 62
     7
370
     9
100
AcDbSpline
210
0.0
220
0.0
230
1.0
 70
    11
 71
     3
 72
    52
 73
    48
 74
     0
 42
0.0000000001
 43
0.0000000001
 12
1.0
 22
0.0
 32
0.0
 13
1.0
 23
0.0
 33
0.0
 40
0.0
 40
0.0
 40
0.0
 40
0.0
 40
0.0769230769230769
 40
0.0769230769230769
 40
0.0769230769230769
 40
0.0769230769230769
 40
0.1538461538461539
 40
0.1538461538461539
 40
0.1538461538461539
 40
0.1538461538461539
 40
0.2307692307692308
 40
0.2307692307692308
 40
0.2307692307692308
 40
0.2307692307692308
 40
0.3076923076923077
 40
0.3076923076923077
 40
0.3076923076923077
 40
0.3076923076923077
 40
0.3846153846153846
 40
0.3846153846153846
 40
0.3846153846153846
 40
0.3846153846153846
 40
0.4615384615384616
 40
0.4615384615384616
 40
0.4615384615384616
 40
0.4615384615384616
 40
0.5384615384615384
 40
0.5384615384615384
 40
0.5384615384615384
 40
0.5384615384615384
 40
0.6153846153846154
 40
0.6153846153846154
 40
0.6153846153846154
 40
0.6153846153846154
 40
0.6923076923076923
 40
0.6923076923076923
 40
0.6923076923076923
 40
0.6923076923076923
 40
0.7692307692307693
 40
0.7692307692307693
 40
0.7692307692307693
 40
0.7692307692307693
 40
0.8461538461538461
 40
0.8461538461538461
 40
0.8461538461538461
 40
0.8461538461538461
 40
1.0
 40
1.0
 40
1.0
 40
1.0
 10
-166.1637
 20
20.6415
 30
0.0
 10
-166.2691
 20
19.2126
 30
0.0
 10
-166.1559
 20
17.7759
 30
0.0
 10
-165.8273
 20
16.3812
 30
0.0
 10
-165.8273
 20
16.3812
 30
0.0
 10
-165.0155
 20
15.3459
 30
0.0
 10
-164.8698
 20
13.9362
 30
0.0
 10
-165.4537
 20
12.7568
 30
0.0
 10
-165.4537
 20
12.7568
 30
0.0
 10
-165.5514
 20
13.8826
 30
0.0
 10
-165.9661
 20
14.9583
 30
0.0
 10
-166.6494
 20
15.8581
 30
0.0
 10
-166.6494
 20
15.8581
 30
0.0
 10
-167.0587
 20
15.6695
 30
0.0
 10
-167.4264
 20
15.4032
 30
0.0
 10
-167.733
 20
15.0735
 30
0.0
 10
-167.733
 20
15.0735
 30
0.0
 10
-167.6173
 20
16.3795
 30
0.0
 10
-167.6293
 20
17.6939
 30
0.0
 10
-167.7704
 20
18.9975
 30
0.0
 10
-167.7704
 20
18.9975
 30
0.0
 10
-169.0867
 20
16.8291
 30
0.0
 10
-170.6825
 20
14.8445
 30
0.0
 10
-172.5164
 20
13.0931
 30
0.0
 10
-172.5164
 20
13.0931
 30
0.0
 10
-172.7755
 20
12.6954
 30
0.0
 10
-172.7755
 20
12.1824
 30
0.0
 10
-172.5164
 20
11.7847
 30
0.0
 10
-172.5164
 20
11.7847
 30
0.0
 10
-172.0186
 20
10.78
 30
0.0
 10
-171.2044
 20
9.9665
 30
0.0
 10
-170.1997
 20
9.468
 30
0.0
 10
-170.1997
 20
9.468
 30
0.0
 10
-170.1425
 20
7.7986
 30
0.0
 10
-169.415
 20
6.2222
 30
0.0
 10
-168.1814
 20
5.0957
 30
0.0
 10
-168.1814
 20
5.0957
 30
0.0
 10
-166.8308
 20
5.7677
 30
0.0
 10
-165.7877
 20
6.9308
 30
0.0
 10
-165.267
 20
8.3472
 30
0.0
 10
-165.267
 20
8.3472
 30
0.0
 10
-164.0845
 20
9.2904
 30
0.0
 10
-163.3969
 20
10.7211
 30
0.0
 10
-163.3981
 20
12.2337
 30
0.0
 10
-163.3981
 20
12.2337
 30
0.0
 10
-163.4245
 20
15.2556
 30
0.0
 10
-164.3906
 20
18.1941
 30
0.0
 10
-166.1637
 20
20.6415
 30
0.0
  0
SPLINE
  5
A5
330
1F
100
AcDbEntity
  8
layer 1
 62
     7
370
     9
100
AcDbSpline
210
0.0
220
0.0
230
1.0
 70
    11
 71
     3
 72
    56
 73
    52
 74
     0
 42
0.0000000001
 43
0.0000000001
 12
1.0
 22
0.0
 32
0.0
 13
1.0
 23
0.0
 33
0.0
 40
0.0
 40
0.0
 40
0.0
 40
0.0
 40
0.0714285714285714
 40
0.0714285714285714
 40
0.0714285714285714
 40
0.0714285714285714
 40
0.1428571428571428
 40
0.1428571428571428
 40
0.1428571428571428
 40
0.1428571428571428
 40
0.2142857142857143
 40
0.2142857142857143
 40
0.2142857142857143
 40
0.2142857142857143
 40
0.2857142857142857
 40
0.2857142857142857
 40
0.2857142857142857
 40
0.2857142857142857
 40
0.3571428571428572
 40
0.3571428571428572
 40
0.3571428571428572
 40
0.3571428571428572
 40
0.4285714285714285
 40
0.4285714285714285
 40
0.4285714285714285
 40
0.4285714285714285
 40
0.5
 40
0.5
 40
0.5
 40
0.5
 40
0.5714285714285714
 40
0.5714285714285714
 40
0.5714285714285714
 40
0.5714285714285714
 40
0.6428571428571429
 40
0.6428571428571429
 40
0.6428571428571429
 40
0.6428571428571429
 40
0.7142857142857143
 40
0.7142857142857143
 40
0.7142857142857143
 40
0.7142857142857143
 40
0.7857142857142857
 40
0.7857142857142857
 40
0.7857142857142857
 40
0.7857142857142857
 40
0.8571428571428571
 40
0.8571428571428571
 40
0.8571428571428571
 40
0.8571428571428571
 40
1.0
 40
1.0
 40
1.0
 40
1.0
 10
-164.4449
 20
25.0886
 30
0.0
 10
-164.4883
 20
24.5541
 30
0.0
 10
-164.2809
 20
24.0296
 30
0.0
 10
-163.8844
 20
23.6687
 30
0.0
 10
-163.8844
 20
23.6687
 30
0.0
 10
-162.7105
 20
22.4675
 30
0.0
 10
-161.9173
 20
20.9464
 30
0.0
 10
-161.6045
 20
19.2963
 30
0.0
 10
-161.6045
 20
19.2963
 30
0.0
 10
-162.4501
 20
21.0411
 30
0.0
 10
-163.6458
 20
22.5929
 30
0.0
 10
-165.1175
 20
23.8556
 30
0.0
 10
-165.1175
 20
23.8556
 30
0.0
 10
-164.9578
 20
22.2875
 30
0.0
 10
-164.6576
 20
20.7361
 30
0.0
 10
-164.2201
 20
19.2217
 30
0.0
 10
-164.2201
 20
19.2217
 30
0.0
 10
-163.8668
 20
17.5131
 30
0.0
 10
-162.808
 20
16.0341
 30
0.0
 10
-161.3055
 20
15.1483
 30
0.0
 10
-161.3055
 20
15.1483
 30
0.0
 10
-159.9598
 20
14.7373
 30
0.0
 10
-158.4972
 20
15.0958
 30
0.0
 10
-157.4937
 20
16.0824
 30
0.0
 10
-157.4937
 20
16.0824
 30
0.0
 10
-156.3118
 20
16.1981
 30
0.0
 10
-155.135
 20
15.8197
 30
0.0
 10
-154.2429
 20
15.036
 30
0.0
 10
-154.2429
 20
15.036
 30
0.0
 10
-154.0338
 20
17.7457
 30
0.0
 10
-154.4431
 20
20.4674
 30
0.0
 10
-155.4387
 20
22.9961
 30
0.0
 10
-155.4387
 20
22.9961
 30
0.0
 10
-155.3722
 20
23.6904
 30
0.0
 10
-155.5019
 20
24.3896
 30
0.0
 10
-155.8123
 20
25.0138
 30
0.0
 10
-155.8123
 20
25.0138
 30
0.0
 10
-157.2345
 20
27.1858
 30
0.0
 10
-160.0369
 20
27.9821
 30
0.0
 10
-162.3891
 20
26.8828
 30
0.0
 10
-162.3891
 20
26.8828
 30
0.0
 10
-161.0284
 20
25.473
 30
0.0
 10
-160.028
 20
23.7549
 30
0.0
 10
-159.4742
 20
21.8752
 30
0.0
 10
-159.4742
 20
21.8752
 30
0.0
 10
-160.7771
 20
22.2658
 30
0.0
 10
-161.8841
 20
23.1329
 30
0.0
 10
-162.576
 20
24.304
 30
0.0
 10
-162.576
 20
24.304
 30
0.0
 10
-163.0829
 20
24.7837
 30
0.0
 10
-163.7469
 20
25.0627
 30
0.0
 10
-164.4449
 20
25.0886
 30
0.0
  0
SPLINE
  5
A6
330
1F
100
AcDbEntity
  8
layer 1
 62
     7
370
     9
100
AcDbSpline
210
0.0
220
0.0
230
1.0
 70
    11
 71
     3
 72
    68
 73
    64
 74
     0
 42
0.0000000001
 43
0.0000000001
 12
1.0
 22
0.0
 32
0.0
 13
1.0
 23
0.0
 33
0.0
 40
0.0
 40
0.0
 40
0.0
 40
0.0
 40
0.0588235294117647
 40
0.0588235294117647
 40
0.0588235294117647
 40
0.0588235294117647
 40
0.1176470588235294
 40
0.1176470588235294
 40
0.1176470588235294
 40
0.1176470588235294
 40
0.1764705882352941
 40
0.1764705882352941
 40
0.1764705882352941
 40
0.1764705882352941
 40
0.2352941176470588
 40
0.2352941176470588
 40
0.2352941176470588
 40
0.2352941176470588
 40
0.2941176470588235
 40
0.2941176470588235
 40
0.2941176470588235
 40
0.2941176470588235
 40
0.3529411764705883
 40
0.3529411764705883
 40
0.3529411764705883
 40
0.3529411764705883
 40
0.4117647058823529
 40
0.4117647058823529
 40
0.4117647058823529
 40
0.4117647058823529
 40
0.4705882352941176
 40
0.4705882352941176
 40
0.4705882352941176
 40
0.4705882352941176
 40
0.5294117647058824
 40
0.5294117647058824
 40
0.5294117647058824
 40
0.5294117647058824
 40
0.5882352941176471
 40
0.5882352941176471
 40
0.5882352941176471
 40
0.5882352941176471
 40
0.6470588235294118
 40
0.6470588235294118
 40
0.6470588235294118
 40
0.6470588235294118
 40
0.7058823529411765
 40
0.7058823529411765
 40
0.7058823529411765
 40
0.7058823529411765
 40
0.7647058823529411
 40
0.7647058823529411
 40
0.7647058823529411
 40
0.7647058823529411
 40
0.8235294117647058
 40
0.8235294117647058
 40
0.8235294117647058
 40
0.8235294117647058
 40
0.8823529411764706
 40
0.8823529411764706
 40
0.8823529411764706
 40
0.8823529411764706
 40
1.0
 40
1.0
 40
1.0
 40
1.0
 10
-162.6881
 20
32.8618
 30
0.0
 10
-161.9571
 20
33.0914
 30
0.0
 10
-161.1651
 20
33.0246
 30
0.0
 10
-160.4836
 20
32.6749
 30
0.0
 10
-160.4836
 20
32.6749
 30
0.0
 10
-160.9433
 20
31.885
 30
0.0
 10
-161.7177
 20
31.3274
 30
0.0
 10
-162.6134
 20
31.1423
 30
0.0
 10
-162.6134
 20
31.1423
 30
0.0
 10
-163.2541
 20
30.882
 30
0.0
 10
-163.6379
 20
30.2215
 30
0.0
 10
-163.5475
 20
29.5356
 30
0.0
 10
-163.5475
 20
29.5356
 30
0.0
 10
-161.6672
 20
29.5056
 30
0.0
 10
-159.8116
 20
29.9696
 30
0.0
 10
-158.1669
 20
30.8808
 30
0.0
 10
-158.1669
 20
30.8808
 30
0.0
 10
-156.9381
 20
31.7126
 30
0.0
 10
-156.333
 20
33.203
 30
0.0
 10
-156.6344
 20
34.6554
 30
0.0
 10
-156.6344
 20
34.6554
 30
0.0
 10
-155.8364
 20
35.8728
 30
0.0
 10
-155.737
 20
37.4198
 30
0.0
 10
-156.3728
 20
38.7288
 30
0.0
 10
-156.3728
 20
38.7288
 30
0.0
 10
-157.0176
 20
39.1265
 30
0.0
 10
-157.2853
 20
39.9292
 30
0.0
 10
-157.008
 20
40.6344
 30
0.0
 10
-157.008
 20
40.6344
 30
0.0
 10
-157.1177
 20
41.1165
 30
0.0
 10
-157.4352
 20
41.5252
 30
0.0
 10
-157.8758
 20
41.7488
 30
0.0
 10
-157.8758
 20
41.7488
 30
0.0
 10
-158.3164
 20
41.9729
 30
0.0
 10
-158.834
 20
41.9892
 30
0.0
 10
-159.2878
 20
41.7934
 30
0.0
 10
-159.2878
 20
41.7934
 30
0.0
 10
-160.6734
 20
42.7268
 30
0.0
 10
-162.5338
 20
42.5039
 30
0.0
 10
-163.6596
 20
41.2703
 30
0.0
 10
-163.6596
 20
41.2703
 30
0.0
 10
-165.4037
 20
38.7126
 30
0.0
 10
-166.0498
 20
35.563
 30
0.0
 10
-165.4537
 20
32.5256
 30
0.0
 10
-165.4537
 20
32.5256
 30
0.0
 10
-164.61
 20
33.8977
 30
0.0
 10
-163.7633
 20
35.2682
 30
0.0
 10
-162.9122
 20
36.6364
 30
0.0
 10
-162.9122
 20
36.6364
 30
0.0
 10
-162.5531
 20
37.1323
 30
0.0
 10
-161.9499
 20
37.3903
 30
0.0
 10
-161.3429
 20
37.309
 30
0.0
 10
-161.3429
 20
37.309
 30
0.0
 10
-160.9591
 20
37.1612
 30
0.0
 10
-160.7156
 20
36.7816
 30
0.0
 10
-160.7414
 20
36.3706
 30
0.0
 10
-160.7414
 20
36.3706
 30
0.0
 10
-160.7669
 20
35.9601
 30
0.0
 10
-161.0561
 20
35.6136
 30
0.0
 10
-161.455
 20
35.5147
 30
0.0
 10
-161.455
 20
35.5147
 30
0.0
 10
-162.4332
 20
35.0254
 30
0.0
 10
-162.9448
 20
33.9256
 30
0.0
 10
-162.6881
 20
32.8618
 30
0.0
  0
SPLINE
  5
A7
330
1F
100
AcDbEntity
  8
layer 1
 62
     7
370
     9
100
AcDbSpline
210
0.0
220
0.0
230
1.0
 70
    11
 71
     3
 72
    60
 73
    56
 74
     0
 42
0.0000000001
 43
0.0000000001
 12
1.0
 22
0.0
 32
0.0
 13
1.0
 23
0.0
 33
0.0
 40
0.0
 40
0.0
 40
0.0
 40
0.0
 40
0.0666666666666667
 40
0.0666666666666667
 40
0.0666666666666667
 40
0.0666666666666667
 40
0.1333333333333333
 40
0.1333333333333333
 40
0.1333333333333333
 40
0.1333333333333333
 40
0.2
 40
0.2
 40
0.2
 40
0.2
 40
0.2666666666666667
 40
0.2666666666666667
 40
0.2666666666666667
 40
0.2666666666666667
 40
0.3333333333333333
 40
0.3333333333333333
 40
0.3333333333333333
 40
0.3333333333333333
 40
0.4
 40
0.4
 40
0.4
 40
0.4
 40
0.4666666666666667
 40
0.4666666666666667
 40
0.4666666666666667
 40
0.4666666666666667
 40
0.5333333333333333
 40
0.5333333333333333
 40
0.5333333333333333
 40
0.5333333333333333
 40
0.6
 40
0.6
 40
0.6
 40
0.6
 40
0.6666666666666666
 40
0.6666666666666666
 40
0.6666666666666666
 40
0.6666666666666666
 40
0.7333333333333333
 40
0.7333333333333333
 40
0.7333333333333333
 40
0.7333333333333333
 40
0.8
 40
0.8
 40
0.8
 40
0.8
 40
0.8666666666666667
 40
0.8666666666666667
 40
0.8666666666666667
 40
0.8666666666666667
 40
1.0
 40
1.0
 40
1.0
 40
1.0
 10
-167.434
 20
33.5158
 30
0.0
 10
-166.9207
 20
36.8491
 30
0.0
 10
-167.4419
 20
40.2601
 30
0.0
 10
-168.9294
 20
43.288
 30
0.0
 10
-168.9294
 20
43.288
 30
0.0
 10
-169.3988
 20
43.8629
 30
0.0
 10
-170.1515
 20
44.1256
 30
0.0
 10
-170.8772
 20
43.9678
 30
0.0
 10
-170.8772
 20
43.9678
 30
0.0
 10
-171.6028
 20
43.8104
 30
0.0
 10
-172.1783
 20
43.259
 30
0.0
 10
-172.3669
 20
42.5406
 30
0.0
 10
-172.3669
 20
42.5406
 30
0.0
 10
-174.1147
 20
42.6491
 30
0.0
 10
-175.8492
 20
42.1761
 30
0.0
 10
-177.2998
 20
41.1955
 30
0.0
 10
-177.2998
 20
41.1955
 30
0.0
 10
-175.7539
 20
40.5524
 30
0.0
 10
-174.9819
 20
38.8113
 30
0.0
 10
-175.5436
 20
37.2341
 30
0.0
 10
-175.5436
 20
37.2341
 30
0.0
 10
-175.9515
 20
36.0439
 30
0.0
 10
-175.7112
 20
34.7271
 30
0.0
 10
-174.9084
 20
33.7585
 30
0.0
 10
-174.9084
 20
33.7585
 30
0.0
 10
-173.2559
 20
32.2447
 30
0.0
 10
-171.252
 20
31.1659
 30
0.0
 10
-169.0788
 20
30.6193
 30
0.0
 10
-169.0788
 20
30.6193
 30
0.0
 10
-169.036
 20
31.196
 30
0.0
 10
-169.1385
 20
31.7746
 30
0.0
 10
-169.3776
 20
32.3013
 30
0.0
 10
-169.3776
 20
32.3013
 30
0.0
 10
-169.9021
 20
33.165
 30
0.0
 10
-169.9443
 20
34.2382
 30
0.0
 10
-169.4899
 20
35.1411
 30
0.0
 10
-169.4899
 20
35.1411
 30
0.0
 10
-169.2463
 20
34.7608
 30
0.0
 10
-168.895
 20
34.4613
 30
0.0
 10
-168.4809
 20
34.2816
 30
0.0
 10
-168.4809
 20
34.2816
 30
0.0
 10
-168.3977
 20
34.844
 30
0.0
 10
-168.4363
 20
35.4171
 30
0.0
 10
-168.593
 20
35.9638
 30
0.0
 10
-168.593
 20
35.9638
 30
0.0
 10
-168.9058
 20
36.6417
 30
0.0
 10
-168.9721
 20
37.4089
 30
0.0
 10
-168.7799
 20
38.1309
 30
0.0
 10
-168.7799
 20
38.1309
 30
0.0
 10
-168.537
 20
37.9224
 30
0.0
 10
-168.3555
 20
37.6506
 30
0.0
 10
-168.2561
 20
37.3462
 30
0.0
 10
-168.2561
 20
37.3462
 30
0.0
 10
-168.1538
 20
36.0385
 30
0.0
 10
-167.877
 20
34.7506
 30
0.0
 10
-167.434
 20
33.5158
 30
0.0
  0
SPLINE
  5
A8
330
1F
100
AcDbEntity
  8
layer 1
 62
     7
370
     9
100
AcDbSpline
210
0.0
220
0.0
230
1.0
 70
    11
 71
     3
 72
    52
 73
    48
 74
     0
 42
0.0000000001
 43
0.0000000001
 12
1.0
 22
0.0
 32
0.0
 13
1.0
 23
0.0
 33
0.0
 40
0.0
 40
0.0
 40
0.0
 40
0.0
 40
0.0769230769230769
 40
0.0769230769230769
 40
0.0769230769230769
 40
0.0769230769230769
 40
0.1538461538461539
 40
0.1538461538461539
 40
0.1538461538461539
 40
0.1538461538461539
 40
0.2307692307692308
 40
0.2307692307692308
 40
0.2307692307692308
 40
0.2307692307692308
 40
0.3076923076923077
 40
0.3076923076923077
 40
0.3076923076923077
 40
0.3076923076923077
 40
0.3846153846153846
 40
0.3846153846153846
 40
0.3846153846153846
 40
0.3846153846153846
 40
0.4615384615384616
 40
0.4615384615384616
 40
0.4615384615384616
 40
0.4615384615384616
 40
0.5384615384615384
 40
0.5384615384615384
 40
0.5384615384615384
 40
0.5384615384615384
 40
0.6153846153846154
 40
0.6153846153846154
 40
0.6153846153846154
 40
0.6153846153846154
 40
0.6923076923076923
 40
0.6923076923076923
 40
0.6923076923076923
 40
0.6923076923076923
 40
0.7692307692307693
 40
0.7692307692307693
 40
0.7692307692307693
 40
0.7692307692307693
 40
0.8461538461538461
 40
0.8461538461538461
 40
0.8461538461538461
 40
0.8461538461538461
 40
1.0
 40
1.0
 40
1.0
 40
1.0
 10
-169.3404
 20
28.1158
 30
0.0
 10
-172.3688
 20
30.1107
 30
0.0
 10
-176.3885
 20
29.6653
 30
0.0
 10
-178.9071
 20
27.0556
 30
0.0
 10
-178.9071
 20
27.0556
 30
0.0
 10
-178.9071
 20
27.0556
 30
0.0
 10
-178.9071
 20
17.6209
 30
0.0
 10
-178.9071
 20
17.6209
 30
0.0
 10
-178.9071
 20
17.6209
 30
0.0
 10
-177.8772
 20
16.8725
 30
0.0
 10
-176.4825
 20
16.87
 30
0.0
 10
-175.4501
 20
17.6143
 30
0.0
 10
-175.4501
 20
17.6143
 30
0.0
 10
-175.0729
 20
17.1877
 30
0.0
 10
-174.5408
 20
16.9297
 30
0.0
 10
-173.9719
 20
16.8978
 30
0.0
 10
-173.9719
 20
16.8978
 30
0.0
 10
-173.403
 20
16.8664
 30
0.0
 10
-172.8454
 20
17.064
 30
0.0
 10
-172.4229
 20
17.4469
 30
0.0
 10
-172.4229
 20
17.4469
 30
0.0
 10
-172.1187
 20
17.1069
 30
0.0
 10
-171.6009
 20
17.0659
 30
0.0
 10
-171.2461
 20
17.3527
 30
0.0
 10
-171.2461
 20
17.3527
 30
0.0
 10
-169.7858
 20
19.5652
 30
0.0
 10
-168.9709
 20
22.1404
 30
0.0
 10
-168.8919
 20
24.7897
 30
0.0
 10
-168.8919
 20
24.7897
 30
0.0
 10
-169.4982
 20
23.5247
 30
0.0
 10
-170.6343
 20
22.5941
 30
0.0
 10
-171.9933
 20
22.2489
 30
0.0
 10
-171.9933
 20
22.2489
 30
0.0
 10
-171.5014
 20
23.7616
 30
0.0
 10
-170.5632
 20
25.0898
 30
0.0
 10
-169.303
 20
26.0607
 30
0.0
 10
-169.303
 20
26.0607
 30
0.0
 10
-170.0931
 20
26.004
 30
0.0
 10
-170.8837
 20
26.1723
 30
0.0
 10
-171.5823
 20
26.5459
 30
0.0
 10
-171.5823
 20
26.5459
 30
0.0
 10
-170.8849
 20
26.6074
 30
0.0
 10
-170.2034
 20
26.7845
 30
0.0
 10
-169.5645
 20
27.0696
 30
0.0
 10
-169.5645
 20
27.0696
 30
0.0
 10
-169.2198
 20
27.3004
 30
0.0
 10
-169.1204
 20
27.7639
 30
0.0
 10
-169.3404
 20
28.1158
 30
0.0
  0
SPLINE
  5
A9
330
1F
100
AcDbEntity
  8
layer 1
 62
     7
370
     9
100
AcDbSpline
210
0.0
220
0.0
230
1.0
 70
    11
 71
     3
 72
    48
 73
    44
 74
     0
 42
0.0000000001
 43
0.0000000001
 12
1.0
 22
0.0
 32
0.0
 13
1.0
 23
0.0
 33
0.0
 40
0.0
 40
0.0
 40
0.0
 40
0.0
 40
0.0833333333333333
 40
0.0833333333333333
 40
0.0833333333333333
 40
0.0833333333333333
 40
0.1666666666666667
 40
0.1666666666666667
 40
0.1666666666666667
 40
0.1666666666666667
 40
0.25
 40
0.25
 40
0.25
 40
0.25
 40
0.3333333333333333
 40
0.3333333333333333
 40
0.3333333333333333
 40
0.3333333333333333
 40
0.4166666666666667
 40
0.4166666666666667
 40
0.4166666666666667
 40
0.4166666666666667
 40
0.5
 40
0.5
 40
0.5
 40
0.5
 40
0.5833333333333334
 40
0.5833333333333334
 40
0.5833333333333334
 40
0.5833333333333334
 40
0.6666666666666666
 40
0.6666666666666666
 40
0.6666666666666666
 40
0.6666666666666666
 40
0.75
 40
0.75
 40
0.75
 40
0.75
 40
0.8333333333333334
 40
0.8333333333333334
 40
0.8333333333333334
 40
0.8333333333333334
 40
1.0
 40
1.0
 40
1.0
 40
1.0
 10
-175.6184
 20
65.187
 30
0.0
 10
-174.0833
 20
63.8365
 30
0.0
 10
-172.7942
 20
62.231
 30
0.0
 10
-171.8064
 20
60.441
 30
0.0
 10
-171.8064
 20
60.441
 30
0.0
 10
-171.7649
 20
61.7561
 30
0.0
 10
-172.364
 20
63.0102
 30
0.0
 10
-173.4131
 20
63.8039
 30
0.0
 10
-173.4131
 20
63.8039
 30
0.0
 10
-174.3376
 20
64.4391
 30
0.0
 10
-174.8397
 20
65.5294
 30
0.0
 10
-174.7215
 20
66.6444
 30
0.0
 10
-174.7215
 20
66.6444
 30
0.0
 10
-172.9076
 20
66.1085
 30
0.0
 10
-171.3188
 20
64.9924
 30
0.0
 10
-170.1997
 20
63.4677
 30
0.0
 10
-170.1997
 20
63.4677
 30
0.0
 10
-170.5723
 20
65.3889
 30
0.0
 10
-171.5243
 20
67.1494
 30
0.0
 10
-172.9274
 20
68.5132
 30
0.0
 10
-172.9274
 20
68.5132
 30
0.0
 10
-170.1305
 20
68.4631
 30
0.0
 10
-167.5335
 20
67.0481
 30
0.0
 10
-165.9768
 20
64.7237
 30
0.0
 10
-165.9768
 20
64.7237
 30
0.0
 10
-164.4195
 20
62.3991
 30
0.0
 10
-164.0983
 20
59.4592
 30
0.0
 10
-165.1175
 20
56.8533
 30
0.0
 10
-165.1175
 20
56.8533
 30
0.0
 10
-166.1523
 20
57.3006
 30
0.0
 10
-167.2895
 20
57.456
 30
0.0
 10
-168.4056
 20
57.3018
 30
0.0
 10
-168.4056
 20
57.3018
 30
0.0
 10
-169.1427
 20
56.3629
 30
0.0
 10
-170.4354
 20
56.067
 30
0.0
 10
-171.5076
 20
56.5918
 30
0.0
 10
-171.5076
 20
56.5918
 30
0.0
 10
-173.0588
 20
57.1566
 30
0.0
 10
-174.2237
 20
58.4619
 30
0.0
 10
-174.6094
 20
60.0667
 30
0.0
 10
-174.6094
 20
60.0667
 30
0.0
 10
-175.4146
 20
61.647
 30
0.0
 10
-175.7641
 20
63.4194
 30
0.0
 10
-175.6184
 20
65.187
 30
0.0
  0
SPLINE
  5
AA
330
1F
100
AcDbEntity
  8
layer 1
 62
     7
370
     9
100
AcDbSpline
210
0.0
220
0.0
230
1.0
 70
    11
 71
     3
 72
    68
 73
    64
 74
     0
 42
0.0000000001
 43
0.0000000001
 12
1.0
 22
0.0
 32
0.0
 13
1.0
 23
0.0
 33
0.0
 40
0.0
 40
0.0
 40
0.0
 40
0.0
 40
0.0588235294117647
 40
0.0588235294117647
 40
0.0588235294117647
 40
0.0588235294117647
 40
0.1176470588235294
 40
0.1176470588235294
 40
0.1176470588235294
 40
0.1176470588235294
 40
0.1764705882352941
 40
0.1764705882352941
 40
0.1764705882352941
 40
0.1764705882352941
 40
0.2352941176470588
 40
0.2352941176470588
 40
0.2352941176470588
 40
0.2352941176470588
 40
0.2941176470588235
 40
0.2941176470588235
 40
0.2941176470588235
 40
0.2941176470588235
 40
0.3529411764705883
 40
0.3529411764705883
 40
0.3529411764705883
 40
0.3529411764705883
 40
0.4117647058823529
 40
0.4117647058823529
 40
0.4117647058823529
 40
0.4117647058823529
 40
0.4705882352941176
 40
0.4705882352941176
 40
0.4705882352941176
 40
0.4705882352941176
 40
0.5294117647058824
 40
0.5294117647058824
 40
0.5294117647058824
 40
0.5294117647058824
 40
0.5882352941176471
 40
0.5882352941176471
 40
0.5882352941176471
 40
0.5882352941176471
 40
0.6470588235294118
 40
0.6470588235294118
 40
0.6470588235294118
 40
0.6470588235294118
 40
0.7058823529411765
 40
0.7058823529411765
 40
0.7058823529411765
 40
0.7058823529411765
 40
0.7647058823529411
 40
0.7647058823529411
 40
0.7647058823529411
 40
0.7647058823529411
 40
0.8235294117647058
 40
0.8235294117647058
 40
0.8235294117647058
 40
0.8235294117647058
 40
0.8823529411764706
 40
0.8823529411764706
 40
0.8823529411764706
 40
0.8823529411764706
 40
1.0
 40
1.0
 40
1.0
 40
1.0
 10
-174.2732
 20
70.8298
 30
0.0
 10
-174.2533
 20
71.4795
 30
0.0
 10
-173.8808
 20
72.0665
 30
0.0
 10
-173.301
 20
72.3619
 30
0.0
 10
-173.301
 20
72.3619
 30
0.0
 10
-172.1156
 20
72.4992
 30
0.0
 10
-171.1435
 20
73.3664
 30
0.0
 10
-170.8723
 20
74.5296
 30
0.0
 10
-170.8723
 20
74.5296
 30
0.0
 10
-171.5817
 20
74.3584
 30
0.0
 10
-172.3121
 20
74.2957
 30
0.0
 10
-173.0395
 20
74.3427
 30
0.0
 10
-173.0395
 20
74.3427
 30
0.0
 10
-173.2409
 20
74.373
 30
0.0
 10
-173.4186
 20
74.4898
 30
0.0
 10
-173.5258
 20
74.6622
 30
0.0
 10
-173.5258
 20
74.6622
 30
0.0
 10
-173.6338
 20
74.8346
 30
0.0
 10
-173.6608
 20
75.0455
 30
0.0
 10
-173.6007
 20
75.2396
 30
0.0
 10
-173.6007
 20
75.2396
 30
0.0
 10
-173.2335
 20
76.0984
 30
0.0
 10
-172.5886
 20
76.8096
 30
0.0
 10
-171.7691
 20
77.2573
 30
0.0
 10
-171.7691
 20
77.2573
 30
0.0
 10
-171.5829
 20
77.5857
 30
0.0
 10
-171.619
 20
77.995
 30
0.0
 10
-171.8595
 20
78.2854
 30
0.0
 10
-171.8595
 20
78.2854
 30
0.0
 10
-172.1006
 20
78.576
 30
0.0
 10
-172.4959
 20
78.6874
 30
0.0
 10
-172.8528
 20
78.5658
 30
0.0
 10
-172.8528
 20
78.5658
 30
0.0
 10
-174.2955
 20
77.2693
 30
0.0
 10
-175.3984
 20
75.6397
 30
0.0
 10
-176.0667
 20
73.8196
 30
0.0
 10
-176.0667
 20
73.8196
 30
0.0
 10
-177.0268
 20
77.2168
 30
0.0
 10
-176.0354
 20
80.8667
 30
0.0
 10
-173.4884
 20
83.3117
 30
0.0
 10
-173.4884
 20
83.3117
 30
0.0
 10
-172.4363
 20
84.1035
 30
0.0
 10
-170.9748
 20
84.0572
 30
0.0
 10
-169.9756
 20
83.199
 30
0.0
 10
-169.9756
 20
83.199
 30
0.0
 10
-169.3168
 20
83.3449
 30
0.0
 10
-168.6299
 20
83.1441
 30
0.0
 10
-168.1526
 20
82.6675
 30
0.0
 10
-168.1526
 20
82.6675
 30
0.0
 10
-167.6758
 20
82.1907
 30
0.0
 10
-167.4757
 20
81.5038
 30
0.0
 10
-167.6209
 20
80.845
 30
0.0
 10
-167.6209
 20
80.845
 30
0.0
 10
-166.4487
 20
79.3955
 30
0.0
 10
-166.4029
 20
77.3375
 30
0.0
 10
-167.5089
 20
75.8374
 30
0.0
 10
-167.5089
 20
75.8374
 30
0.0
 10
-167.1973
 20
74.8803
 30
0.0
 10
-167.3787
 20
73.8306
 30
0.0
 10
-167.9946
 20
73.0345
 30
0.0
 10
-167.9946
 20
73.0345
 30
0.0
 10
-169.6482
 20
71.3909
 30
0.0
 10
-171.9547
 20
70.5809
 30
0.0
 10
-174.2732
 20
70.8298
 30
0.0
  0
SPLINE
  5
AB
330
1F
100
AcDbEntity
  8
layer 1
 62
     7
370
     9
100
AcDbSpline
210
0.0
220
0.0
230
1.0
 70
    11
 71
     3
 72
    80
 73
    76
 74
     0
 42
0.0000000001
 43
0.0000000001
 12
1.0
 22
0.0
 32
0.0
 13
1.0
 23
0.0
 33
0.0
 40
0.0
 40
0.0
 40
0.0
 40
0.0
 40
0.05
 40
0.05
 40
0.05
 40
0.05
 40
0.1
 40
0.1
 40
0.1
 40
0.1
 40
0.15
 40
0.15
 40
0.15
 40
0.15
 40
0.2
 40
0.2
 40
0.2
 40
0.2
 40
0.25
 40
0.25
 40
0.25
 40
0.25
 40
0.3
 40
0.3
 40
0.3
 40
0.3
 40
0.35
 40
0.35
 40
0.35
 40
0.35
 40
0.4
 40
0.4
 40
0.4
 40
0.4
 40
0.45
 40
0.45
 40
0.45
 40
0.45
 40
0.5
 40
0.5
 40
0.5
 40
0.5
 40
0.55
 40
0.55
 40
0.55
 40
0.55
 40
0.6
 40
0.6
 40
0.6
 40
0.6
 40
0.65
 40
0.65
 40
0.65
 40
0.65
 40
0.7
 40
0.7
 40
0.7
 40
0.7
 40
0.75
 40
0.75
 40
0.75
 40
0.75
 40
0.8
 40
0.8
 40
0.8
 40
0.8
 40
0.85
 40
0.85
 40
0.85
 40
0.85
 40
0.9
 40
0.9
 40
0.9
 40
0.9
 40
1.0
 40
1.0
 40
1.0
 40
1.0
 10
-141.6489
 20
4.7967
 30
0.0
 10
-140.9391
 20
3.7288
 30
0.0
 10
-139.8832
 20
2.9375
 30
0.0
 10
-138.6591
 20
2.5543
 30
0.0
 10
-138.6591
 20
2.5543
 30
0.0
 10
-138.4579
 20
2.4578
 30
0.0
 10
-138.2174
 20
2.5019
 30
0.0
 10
-138.0638
 20
2.664
 30
0.0
 10
-138.0638
 20
2.664
 30
0.0
 10
-137.91
 20
2.8261
 30
0.0
 10
-137.8793
 20
3.0689
 30
0.0
 10
-137.9866
 20
3.2648
 30
0.0
 10
-137.9866
 20
3.2648
 30
0.0
 10
-138.4784
 20
4.5883
 30
0.0
 10
-139.1581
 20
5.834
 30
0.0
 10
-140.005
 20
6.9639
 30
0.0
 10
-140.005
 20
6.9639
 30
0.0
 10
-139.2654
 20
6.8127
 30
0.0
 10
-138.5067
 20
7.1117
 30
0.0
 10
-138.0698
 20
7.7264
 30
0.0
 10
-138.0698
 20
7.7264
 30
0.0
 10
-137.6334
 20
8.3417
 30
0.0
 10
-137.6003
 20
9.1564
 30
0.0
 10
-137.9866
 20
9.8044
 30
0.0
 10
-137.9866
 20
9.8044
 30
0.0
 10
-140.4568
 20
11.3694
 30
0.0
 10
-141.6935
 20
14.305
 30
0.0
 10
-141.0886
 20
17.166
 30
0.0
 10
-141.0886
 20
17.166
 30
0.0
 10
-140.874
 20
18.8407
 30
0.0
 10
-140.2158
 20
20.4276
 30
0.0
 10
-139.1822
 20
21.763
 30
0.0
 10
-139.1822
 20
21.763
 30
0.0
 10
-141.1554
 20
21.4781
 30
0.0
 10
-142.9321
 20
20.4149
 30
0.0
 10
-144.1151
 20
18.8106
 30
0.0
 10
-144.1151
 20
18.8106
 30
0.0
 10
-144.3266
 20
18.5672
 30
0.0
 10
-144.4122
 20
18.2394
 30
0.0
 10
-144.3466
 20
17.9235
 30
0.0
 10
-144.3466
 20
17.9235
 30
0.0
 10
-144.2803
 20
17.6083
 30
0.0
 10
-144.0705
 20
17.3413
 30
0.0
 10
-143.7789
 20
17.2033
 30
0.0
 10
-143.7789
 20
17.2033
 30
0.0
 10
-144.4503
 20
16.6875
 30
0.0
 10
-145.177
 20
16.2486
 30
0.0
 10
-145.9466
 20
15.8955
 30
0.0
 10
-145.9466
 20
15.8955
 30
0.0
 10
-146.1075
 20
15.7617
 30
0.0
 10
-146.1642
 20
15.5393
 30
0.0
 10
-146.0882
 20
15.3447
 30
0.0
 10
-146.0882
 20
15.3447
 30
0.0
 10
-146.0117
 20
15.15
 30
0.0
 10
-145.8195
 20
15.0253
 30
0.0
 10
-145.6104
 20
15.036
 30
0.0
 10
-145.6104
 20
15.036
 30
0.0
 10
-144.8196
 20
14.7986
 30
0.0
 10
-143.9782
 20
14.7859
 30
0.0
 10
-143.181
 20
14.9988
 30
0.0
 10
-143.181
 20
14.9988
 30
0.0
 10
-144.3995
 20
13.0509
 30
0.0
 10
-144.8768
 20
10.73
 30
0.0
 10
-144.5261
 20
8.4592
 30
0.0
 10
-144.5261
 20
8.4592
 30
0.0
 10
-144.4942
 20
7.0839
 30
0.0
 10
-144.0374
 20
5.7527
 30
0.0
 10
-143.2184
 20
4.6474
 30
0.0
 10
-143.2184
 20
4.6474
 30
0.0
 10
-143.0243
 20
4.3918
 30
0.0
 10
-142.7115
 20
4.255
 30
0.0
 10
-142.392
 20
4.2851
 30
0.0
 10
-142.392
 20
4.2851
 30
0.0
 10
-142.0726
 20
4.3158
 30
0.0
 10
-141.7912
 20
4.5094
 30
0.0
 10
-141.6489
 20
4.7967
 30
0.0
  0
SPLINE
  5
AC
330
1F
100
AcDbEntity
  8
layer 1
 62
     7
370
     9
100
AcDbSpline
210
0.0
220
0.0
230
1.0
 70
    11
 71
     3
 72
    72
 73
    68
 74
     0
 42
0.0000000001
 43
0.0000000001
 12
1.0
 22
0.0
 32
0.0
 13
1.0
 23
0.0
 33
0.0
 40
0.0
 40
0.0
 40
0.0
 40
0.0
 40
0.0555555555555556
 40
0.0555555555555556
 40
0.0555555555555556
 40
0.0555555555555556
 40
0.1111111111111111
 40
0.1111111111111111
 40
0.1111111111111111
 40
0.1111111111111111
 40
0.1666666666666667
 40
0.1666666666666667
 40
0.1666666666666667
 40
0.1666666666666667
 40
0.2222222222222222
 40
0.2222222222222222
 40
0.2222222222222222
 40
0.2222222222222222
 40
0.2777777777777778
 40
0.2777777777777778
 40
0.2777777777777778
 40
0.2777777777777778
 40
0.3333333333333333
 40
0.3333333333333333
 40
0.3333333333333333
 40
0.3333333333333333
 40
0.3888888888888889
 40
0.3888888888888889
 40
0.3888888888888889
 40
0.3888888888888889
 40
0.4444444444444444
 40
0.4444444444444444
 40
0.4444444444444444
 40
0.4444444444444444
 40
0.5
 40
0.5
 40
0.5
 40
0.5
 40
0.5555555555555556
 40
0.5555555555555556
 40
0.5555555555555556
 40
0.5555555555555556
 40
0.6111111111111112
 40
0.6111111111111112
 40
0.6111111111111112
 40
0.6111111111111112
 40
0.6666666666666666
 40
0.6666666666666666
 40
0.6666666666666666
 40
0.6666666666666666
 40
0.7222222222222222
 40
0.7222222222222222
 40
0.7222222222222222
 40
0.7222222222222222
 40
0.7777777777777778
 40
0.7777777777777778
 40
0.7777777777777778
 40
0.7777777777777778
 40
0.8333333333333334
 40
0.8333333333333334
 40
0.8333333333333334
 40
0.8333333333333334
 40
0.8888888888888888
 40
0.8888888888888888
 40
0.8888888888888888
 40
0.8888888888888888
 40
1.0
 40
1.0
 40
1.0
 40
1.0
 10
-139.4812
 20
30.9561
 30
0.0
 10
-139.6433
 20
31.114
 30
0.0
 10
-139.6958
 20
31.3533
 30
0.0
 10
-139.615
 20
31.5648
 30
0.0
 10
-139.615
 20
31.5648
 30
0.0
 10
-139.5336
 20
31.7758
 30
0.0
 10
-139.3341
 20
31.9186
 30
0.0
 10
-139.1076
 20
31.9277
 30
0.0
 10
-139.1076
 20
31.9277
 30
0.0
 10
-138.2855
 20
32.0368
 30
0.0
 10
-137.4501
 20
31.9987
 30
0.0
 10
-136.6414
 20
31.8156
 30
0.0
 10
-136.6414
 20
31.8156
 30
0.0
 10
-138.5144
 20
34.8326
 30
0.0
 10
-138.7803
 20
38.5793
 30
0.0
 10
-137.3514
 20
41.8306
 30
0.0
 10
-137.3514
 20
41.8306
 30
0.0
 10
-136.9108
 20
42.4598
 30
0.0
 10
-136.0501
 20
42.6257
 30
0.0
 10
-135.4083
 20
42.2044
 30
0.0
 10
-135.4083
 20
42.2044
 30
0.0
 10
-134.8587
 20
42.9559
 30
0.0
 10
-134.1421
 20
43.5701
 30
0.0
 10
-133.3152
 20
43.9978
 30
0.0
 10
-133.3152
 20
43.9978
 30
0.0
 10
-132.985
 20
44.2582
 30
0.0
 10
-132.5198
 20
44.2618
 30
0.0
 10
-132.1853
 20
44.0064
 30
0.0
 10
-132.1853
 20
44.0064
 30
0.0
 10
-131.8509
 20
43.7513
 30
0.0
 10
-131.7314
 20
43.3019
 30
0.0
 10
-131.8954
 20
42.9142
 30
0.0
 10
-131.8954
 20
42.9142
 30
0.0
 10
-132.4951
 20
41.8814
 30
0.0
 10
-133.0923
 20
40.8471
 30
0.0
 10
-133.689
 20
39.8124
 30
0.0
 10
-133.689
 20
39.8124
 30
0.0
 10
-132.923
 20
39.9607
 30
0.0
 10
-132.1551
 20
39.5666
 30
0.0
 10
-131.828
 20
38.859
 30
0.0
 10
-131.828
 20
38.859
 30
0.0
 10
-131.5001
 20
38.1508
 30
0.0
 10
-131.6978
 20
37.3107
 30
0.0
 10
-132.3065
 20
36.8231
 30
0.0
 10
-132.3065
 20
36.8231
 30
0.0
 10
-134.8299
 20
34.8392
 30
0.0
 10
-135.7302
 20
31.4215
 30
0.0
 10
-134.5109
 20
28.452
 30
0.0
 10
-134.5109
 20
28.452
 30
0.0
 10
-134.0469
 20
27.2559
 30
0.0
 10
-133.4974
 20
26.0945
 30
0.0
 10
-132.867
 20
24.9766
 30
0.0
 10
-132.867
 20
24.9766
 30
0.0
 10
-134.9143
 20
25.1604
 30
0.0
 10
-136.7752
 20
26.2414
 30
0.0
 10
-137.9491
 20
27.9289
 30
0.0
 10
-137.9491
 20
27.9289
 30
0.0
 10
-138.1861
 20
28.1917
 30
0.0
 10
-138.2903
 20
28.5486
 30
0.0
 10
-138.2324
 20
28.8981
 30
0.0
 10
-138.2324
 20
28.8981
 30
0.0
 10
-138.174
 20
29.2469
 30
0.0
 10
-137.9601
 20
29.5507
 30
0.0
 10
-137.6504
 20
29.7225
 30
0.0
 10
-137.6504
 20
29.7225
 30
0.0
 10
-138.1928
 20
30.227
 30
0.0
 10
-138.8105
 20
30.6428
 30
0.0
 10
-139.4812
 20
30.9561
 30
0.0
  0
SPLINE
  5
AD
330
1F
100
AcDbEntity
  8
layer 1
 62
     7
370
     9
100
AcDbSpline
210
0.0
220
0.0
230
1.0
 70
    11
 71
     3
 72
    60
 73
    56
 74
     0
 42
0.0000000001
 43
0.0000000001
 12
1.0
 22
0.0
 32
0.0
 13
1.0
 23
0.0
 33
0.0
 40
0.0
 40
0.0
 40
0.0
 40
0.0
 40
0.0666666666666667
 40
0.0666666666666667
 40
0.0666666666666667
 40
0.0666666666666667
 40
0.1333333333333333
 40
0.1333333333333333
 40
0.1333333333333333
 40
0.1333333333333333
 40
0.2
 40
0.2
 40
0.2
 40
0.2
 40
0.2666666666666667
 40
0.2666666666666667
 40
0.2666666666666667
 40
0.2666666666666667
 40
0.3333333333333333
 40
0.3333333333333333
 40
0.3333333333333333
 40
0.3333333333333333
 40
0.4
 40
0.4
 40
0.4
 40
0.4
 40
0.4666666666666667
 40
0.4666666666666667
 40
0.4666666666666667
 40
0.4666666666666667
 40
0.5333333333333333
 40
0.5333333333333333
 40
0.5333333333333333
 40
0.5333333333333333
 40
0.6
 40
0.6
 40
0.6
 40
0.6
 40
0.6666666666666666
 40
0.6666666666666666
 40
0.6666666666666666
 40
0.6666666666666666
 40
0.7333333333333333
 40
0.7333333333333333
 40
0.7333333333333333
 40
0.7333333333333333
 40
0.8
 40
0.8
 40
0.8
 40
0.8
 40
0.8666666666666667
 40
0.8666666666666667
 40
0.8666666666666667
 40
0.8666666666666667
 40
1.0
 40
1.0
 40
1.0
 40
1.0
 10
-152.8598
 20
28.8631
 30
0.0
 10
-152.3946
 20
28.689
 30
0.0
 10
-151.8768
 20
28.725
 30
0.0
 10
-151.44
 20
28.9613
 30
0.0
 10
-151.44
 20
28.9613
 30
0.0
 10
-151.003
 20
29.1976
 30
0.0
 10
-150.6897
 20
29.6117
 30
0.0
 10
-150.5805
 20
30.0962
 30
0.0
 10
-150.5805
 20
30.0962
 30
0.0
 10
-151.7683
 20
30.629
 30
0.0
 10
-152.4778
 20
31.8662
 30
0.0
 10
-152.3367
 20
33.1608
 30
0.0
 10
-152.3367
 20
33.1608
 30
0.0
 10
-150.0682
 20
30.8791
 30
0.0
 10
-147.4894
 20
28.9288
 30
0.0
 10
-144.6756
 20
27.3684
 30
0.0
 10
-144.6756
 20
27.3684
 30
0.0
 10
-139.0954
 20
24.5184
 30
0.0
 10
-132.991
 20
22.8394
 30
0.0
 10
-126.7384
 20
22.4356
 30
0.0
 10
-126.7384
 20
22.4356
 30
0.0
 10
-133.1924
 20
21.9222
 30
0.0
 10
-139.6669
 20
23.1348
 30
0.0
 10
-145.4982
 20
25.9479
 30
0.0
 10
-145.4982
 20
25.9479
 30
0.0
 10
-146.1087
 20
26.3578
 30
0.0
 10
-146.8905
 20
26.415
 30
0.0
 10
-147.5533
 20
26.0981
 30
0.0
 10
-147.5533
 20
26.0981
 30
0.0
 10
-148.3952
 20
25.4623
 30
0.0
 10
-148.8815
 20
24.4619
 30
0.0
 10
-148.861
 20
23.4071
 30
0.0
 10
-148.861
 20
23.4071
 30
0.0
 10
-149.0365
 20
22.2265
 30
0.0
 10
-148.5658
 20
21.0429
 30
0.0
 10
-147.6281
 20
20.3053
 30
0.0
 10
-147.6281
 20
20.3053
 30
0.0
 10
-148.496
 20
20.2016
 30
0.0
 10
-149.3565
 20
20.5451
 30
0.0
 10
-149.9146
 20
21.2165
 30
0.0
 10
-149.9146
 20
21.2165
 30
0.0
 10
-150.4732
 20
21.8884
 30
0.0
 10
-150.6534
 20
22.7972
 30
0.0
 10
-150.3931
 20
23.6314
 30
0.0
 10
-150.3931
 20
23.6314
 30
0.0
 10
-151.6636
 20
22.9033
 30
0.0
 10
-152.1257
 20
21.299
 30
0.0
 10
-151.44
 20
20.0063
 30
0.0
 10
-151.44
 20
20.0063
 30
0.0
 10
-152.7489
 20
21.8438
 30
0.0
 10
-152.7339
 20
24.3136
 30
0.0
 10
-151.4026
 20
26.1348
 30
0.0
 10
-151.4026
 20
26.1348
 30
0.0
 10
-152.3035
 20
26.7531
 30
0.0
 10
-152.8471
 20
27.7704
 30
0.0
 10
-152.8598
 20
28.8631
 30
0.0
  0
ENDSEC
  0
SECTION
  2
OBJECTS
  0
DICTIONARY
  5
C
330
0
100
AcDbDictionary
281
     1
  3
ACAD_GROUP
350
D
  3
ACAD_LAYOUT
350
1A
  3
ACAD_MATERIAL
350
3B
  3
ACAD_MLEADERSTYLE
350
CF
  3
ACAD_MLINESTYLE
350
17
  3
ACAD_PLOTSETTINGS
350
19
  3
ACAD_PLOTSTYLENAME
350
E
  3
ACAD_TABLESTYLE
350
CE
  3
ACAD_VISUALSTYLE
350
2A
  0
DICTIONARY
  5
D
102
{ACAD_REACTORS
330
C
102
}
330
C
100
AcDbDictionary
281
     1
  0
DICTIONARY
  5
1A
102
{ACAD_REACTORS
330
C
102
}
330
C
100
AcDbDictionary
281
     1
  3
Layout1
350
1E
  3
Layout2
350
26
  3
Model
350
22
  0
DICTIONARY
  5
3B
102
{ACAD_REACTORS
330
C
102
}
330
C
100
AcDbDictionary
281
     1
  3
ByBlock
350
3D
  3
ByLayer
350
3C
  3
Global
350
3E
  0
DICTIONARY
  5
CF
102
{ACAD_REACTORS
330
C
102
}
330
C
100
AcDbDictionary
281
     1
  0
DICTIONARY
  5
17
102
{ACAD_REACTORS
330
C
102
}
330
C
100
AcDbDictionary
281
     1
  3
Standard
350
18
  0
DICTIONARY
  5
19
102
{ACAD_REACTORS
330
C
102
}
330
C
100
AcDbDictionary
281
     1
  0
ACDBDICTIONARYWDFLT
  5
E
102
{ACAD_REACTORS
330
C
102
}
330
C
100
AcDbDictionary
281
     1
  3
Normal
350
F
100
AcDbDictionaryWithDefault
340
F
  0
DICTIONARY
  5
CE
102
{ACAD_REACTORS
330
C
102
}
330
C
100
AcDbDictionary
281
     1
  0
DICTIONARY
  5
2A
102
{ACAD_REACTORS
330
C
102
}
330
C
100
AcDbDictionary
281
     1
  3
2dWireframe
350
2F
  3
3D Hidden
350
31
  3
3dWireframe
350
30
  3
Basic
350
32
  3
Brighten
350
36
  3
ColorChange
350
3A
  3
Conceptual
350
34
  3
Dim
350
35
  3
Facepattern
350
39
  3
Flat
350
2B
  3
FlatWithEdges
350
2C
  3
Gouraud
350
2D
  3
GouraudWithEdges
350
2E
  3
Linepattern
350
38
  3
Realistic
350
33
  3
Thicken
350
37
  0
LAYOUT
  5
1E
102
{ACAD_REACTORS
330
1A
102
}
330
1A
100
AcDbPlotSettings
  1

  2
none_device
  4

  6

 40
0.0
 41
0.0
 42
0.0
 43
0.0
 44
0.0
 45
0.0
 46
0.0
 47
0.0
 48
0.0
 49
0.0
140
0.0
141
0.0
142
1.0
143
1.0
 70
   688
 72
     0
 73
     0
 74
     5
  7

 75
    16
 76
     0
 77
     2
 78
   300
147
1.0
148
0.0
149
0.0
100
AcDbLayout
  1
Layout1
 70
     1
 71
     1
 10
0.0
 20
0.0
 11
12.0
 21
9.0
 12
0.0
 22
0.0
 32
0.0
 14
1.000000000000000E+20
 24
1.000000000000000E+20
 34
1.000000000000000E+20
 15
-1.000000000000000E+20
 25
-1.000000000000000E+20
 35
-1.000000000000000E+20
146
0.0
 13
0.0
 23
0.0
 33
0.0
 16
1.0
 26
0.0
 36
0.0
 17
0.0
 27
1.0
 37
0.0
 76
     0
330
1B
  0
LAYOUT
  5
26
102
{ACAD_REACTORS
330
1A
102
}
330
1A
100
AcDbPlotSettings
  1

  2
none_device
  4

  6

 40
0.0
 41
0.0
 42
0.0
 43
0.0
 44
0.0
 45
0.0
 46
0.0
 47
0.0
 48
0.0
 49
0.0
140
0.0
141
0.0
142
1.0
143
1.0
 70
   688
 72
     0
 73
     0
 74
     5
  7

 75
    16
 76
     0
 77
     2
 78
   300
147
1.0
148
0.0
149
0.0
100
AcDbLayout
  1
Layout2
 70
     1
 71
     2
 10
0.0
 20
0.0
 11
0.0
 21
0.0
 12
0.0
 22
0.0
 32
0.0
 14
0.0
 24
0.0
 34
0.0
 15
0.0
 25
0.0
 35
0.0
146
0.0
 13
0.0
 23
0.0
 33
0.0
 16
1.0
 26
0.0
 36
0.0
 17
0.0
 27
1.0
 37
0.0
 76
     0
330
23
  0
LAYOUT
  5
22
102
{ACAD_REACTORS
330
1A
102
}
330
1A
100
AcDbPlotSettings
  1

  2
none_device
  4

  6

 40
0.0
 41
0.0
 42
0.0
 43
0.0
 44
0.0
 45
0.0
 46
0.0
 47
0.0
 48
0.0
 49
0.0
140
0.0
141
0.0
142
1.0
143
1.0
 70
  1712
 72
     0
 73
     0
 74
     0
  7

 75
     0
 76
     0
 77
     2
 78
   300
147
1.0
148
0.0
149
0.0
100
AcDbLayout
  1
Model
 70
     1
 71
     0
 10
0.0
 20
0.0
 11
12.0
 21
9.0
 12
0.0
 22
0.0
 32
0.0
 14
-187.633
 24
-75.8635
 34
0.0
 15
-60.0887
 25
102.9463
 35
0.0
146
0.0
 13
0.0
 23
0.0
 33
0.0
 16
1.0
 26
0.0
 36
0.0
 17
0.0
 27
1.0
 37
0.0
 76
     0
330
1F
331
29
  0
MATERIAL
  5
3D
102
{ACAD_REACTORS
330
3B
102
}
330
3B
100
AcDbMaterial
  1
ByBlock
 72
     1
 94
      127
  0
MATERIAL
  5
3C
102
{ACAD_REACTORS
330
3B
102
}
330
3B
100
AcDbMaterial
  1
ByLayer
 72
     1
 94
      127
  0
MATERIAL
  5
3E
102
{ACAD_REACTORS
330
3B
102
}
330
3B
100
AcDbMaterial
  1
Global
 72
     1
 94
      127
  0
MLINESTYLE
  5
18
102
{ACAD_REACTORS
330
17
102
}
330
17
100
AcDbMlineStyle
  2
Standard
 70
     0
  3

 62
   256
 51
90.0
 52
90.0
 71
     2
 49
0.5
 62
   256
  6
BYLAYER
 49
-0.5
 62
   256
  6
BYLAYER
  0
ACDBPLACEHOLDER
  5
F
102
{ACAD_REACTORS
330
E
102
}
330
E
  0
VISUALSTYLE
  5
2F
102
{ACAD_REACTORS
330
2A
102
}
102
{ACAD_XDICTIONARY
360
B6
102
}
330
2A
100
AcDbVisualStyle
  2
2dWireframe
 70
     4
 71
     0
 72
     2
 73
     0
 90
        0
 40
-0.6
 41
-30.0
 62
     5
 63
     7
421
 16777215
 74
     1
 91
        4
 64
     7
 65
   257
 75
     1
175
     1
 42
1.0
 92
        0
 66
   257
 43
1.0
 76
     1
 77
     6
 78
     2
 67
     7
 79
     5
170
     0
171
     0
290
     0
174
     0
 93
        1
 44
0.0
173
     0
291
     0
 45
0.0
  0
VISUALSTYLE
  5
31
102
{ACAD_REACTORS
330
2A
102
}
102
{ACAD_XDICTIONARY
360
BA
102
}
330
2A
100
AcDbVisualStyle
  2
3D Hidden
 70
     6
 71
     1
 72
     2
 73
     2
 90
        0
 40
-0.6
 41
-30.0
 62
     5
 63
     7
421
 16777215
 74
     2
 91
        2
 64
     7
 65
   257
 75
     2
175
     1
 42
40.0
 92
        0
 66
   257
 43
1.0
 76
     1
 77
     6
 78
     2
 67
     7
 79
     3
170
     0
171
     0
290
     0
174
     0
 93
        1
 44
0.0
173
     0
291
     0
 45
0.0
  0
VISUALSTYLE
  5
30
102
{ACAD_REACTORS
330
2A
102
}
102
{ACAD_XDICTIONARY
360
B8
102
}
330
2A
100
AcDbVisualStyle
  2
3dWireframe
 70
     5
 71
     0
 72
     2
 73
     0
 90
        0
 40
-0.6
 41
-30.0
 62
     5
 63
     7
421
 16777215
 74
     1
 91
        4
 64
     7
 65
   257
 75
     1
175
     1
 42
1.0
 92
        0
 66
   257
 43
1.0
 76
     1
 77
     6
 78
     2
 67
     7
 79
     5
170
     0
171
     0
290
     0
174
     0
 93
        1
 44
0.0
173
     0
291
     0
 45
0.0
  0
VISUALSTYLE
  5
32
102
{ACAD_REACTORS
330
2A
102
}
102
{ACAD_XDICTIONARY
360
BC
102
}
330
2A
100
AcDbVisualStyle
  2
Basic
 70
     7
 71
     1
 72
     0
 73
     1
 90
        0
 40
-0.6
 41
-30.0
 62
     5
 63
     7
421
 16777215
 74
     0
 91
        4
 64
     7
 65
   257
 75
     1
175
     1
 42
1.0
 92
        8
 66
     7
 43
1.0
 76
     1
 77
     6
 78
     2
 67
     7
 79
     5
170
     0
171
     0
290
     0
174
     0
 93
        1
 44
0.0
173
     0
291
     1
 45
0.0
  0
VISUALSTYLE
  5
36
102
{ACAD_REACTORS
330
2A
102
}
102
{ACAD_XDICTIONARY
360
C4
102
}
330
2A
100
AcDbVisualStyle
  2
Brighten
 70
    12
 71
     2
 72
     2
 73
     0
 90
        0
 40
-0.6
 41
-30.0
 62
     5
 63
     7
421
 16777215
 74
     1
 91
        4
 64
     7
 65
   257
 75
     1
175
     1
 42
1.0
 92
        8
 66
     7
 43
1.0
 76
     1
 77
     6
 78
     2
 67
     7
 79
     5
170
     0
171
     0
290
     0
174
     0
 93
        1
 44
50.0
173
     0
291
     1
 45
0.0
  0
VISUALSTYLE
  5
3A
102
{ACAD_REACTORS
330
2A
102
}
102
{ACAD_XDICTIONARY
360
CC
102
}
330
2A
100
AcDbVisualStyle
  2
ColorChange
 70
    16
 71
     2
 72
     2
 73
     3
 90
        0
 40
-0.6
 41
-30.0
 62
     5
 63
     8
421
  8421504
 74
     1
 91
        4
 64
     7
 65
   257
 75
     1
175
     1
 42
1.0
 92
        8
 66
     8
424
  8421504
 43
1.0
 76
     1
 77
     6
 78
     2
 67
     7
 79
     5
170
     0
171
     0
290
     0
174
     0
 93
        1
 44
0.0
173
     0
291
     1
 45
0.0
  0
VISUALSTYLE
  5
34
102
{ACAD_REACTORS
330
2A
102
}
102
{ACAD_XDICTIONARY
360
C0
102
}
330
2A
100
AcDbVisualStyle
  2
Conceptual
 70
     9
 71
     3
 72
     2
 73
     0
 90
        0
 40
-0.6
 41
-30.0
 62
     5
 63
     7
421
 16777215
 74
     2
 91
        2
 64
     7
 65
   257
 75
     1
175
     1
 42
40.0
 92
        8
 66
     7
 43
1.0
 76
     1
 77
     6
 78
     2
 67
     7
 79
     3
170
     0
171
     0
290
     0
174
     0
 93
        1
 44
0.0
173
     0
291
     0
 45
0.0
  0
VISUALSTYLE
  5
35
102
{ACAD_REACTORS
330
2A
102
}
102
{ACAD_XDICTIONARY
360
C2
102
}
330
2A
100
AcDbVisualStyle
  2
Dim
 70
    11
 71
     2
 72
     2
 73
     0
 90
        0
 40
-0.6
 41
-30.0
 62
     5
 63
     7
421
 16777215
 74
     1
 91
        4
 64
     7
 65
   257
 75
     1
175
     1
 42
1.0
 92
        8
 66
     7
 43
1.0
 76
     1
 77
     6
 78
     2
 67
     7
 79
     5
170
     0
171
     0
290
     0
174
     0
 93
        1
 44
-50.0
173
     0
291
     1
 45
0.0
  0
VISUALSTYLE
  5
39
102
{ACAD_REACTORS
330
2A
102
}
102
{ACAD_XDICTIONARY
360
CA
102
}
330
2A
100
AcDbVisualStyle
  2
Facepattern
 70
    15
 71
     2
 72
     2
 73
     0
 90
        0
 40
-0.6
 41
-30.0
 62
     5
 63
     7
421
 16777215
 74
     1
 91
        4
 64
     7
 65
   257
 75
     1
175
     1
 42
1.0
 92
        8
 66
     7
 43
1.0
 76
     1
 77
     6
 78
     2
 67
     7
 79
     5
170
     0
171
     0
290
     0
174
     0
 93
        1
 44
0.0
173
     0
291
     1
 45
0.0
  0
VISUALSTYLE
  5
2B
102
{ACAD_REACTORS
330
2A
102
}
102
{ACAD_XDICTIONARY
360
AE
102
}
330
2A
100
AcDbVisualStyle
  2
Flat
 70
     0
 71
     2
 72
     1
 73
     1
 90
        2
 40
-0.6
 41
30.0
 62
     5
 63
     7
421
 16777215
 74
     0
 91
        4
 64
     7
 65
   257
 75
     1
175
     1
 42
1.0
 92
        8
 66
     7
 43
1.0
 76
     1
 77
     6
 78
     2
 67
     7
 79
     5
170
     0
171
     0
290
     0
174
     0
 93
       13
 44
0.0
173
     0
291
     1
 45
0.0
  0
VISUALSTYLE
  5
2C
102
{ACAD_REACTORS
330
2A
102
}
102
{ACAD_XDICTIONARY
360
B0
102
}
330
2A
100
AcDbVisualStyle
  2
FlatWithEdges
 70
     1
 71
     2
 72
     1
 73
     1
 90
        2
 40
-0.6
 41
30.0
 62
     5
 63
     7
421
 16777215
 74
     1
 91
        4
 64
     7
 65
   257
 75
     1
175
     1
 42
1.0
 92
        0
 66
   257
 43
1.0
 76
     1
 77
     6
 78
     2
 67
     7
 79
     5
170
     0
171
     0
290
     0
174
     0
 93
       13
 44
0.0
173
     0
291
     1
 45
0.0
  0
VISUALSTYLE
  5
2D
102
{ACAD_REACTORS
330
2A
102
}
102
{ACAD_XDICTIONARY
360
B2
102
}
330
2A
100
AcDbVisualStyle
  2
Gouraud
 70
     2
 71
     2
 72
     2
 73
     1
 90
        2
 40
-0.6
 41
30.0
 62
     5
 63
     7
421
 16777215
 74
     0
 91
        4
 64
     7
 65
   257
 75
     1
175
     1
 42
1.0
 92
        0
 66
     7
 43
1.0
 76
     1
 77
     6
 78
     2
 67
     7
 79
     5
170
     0
171
     0
290
     0
174
     0
 93
       13
 44
0.0
173
     0
291
     1
 45
0.0
  0
VISUALSTYLE
  5
2E
102
{ACAD_REACTORS
330
2A
102
}
102
{ACAD_XDICTIONARY
360
B4
102
}
330
2A
100
AcDbVisualStyle
  2
GouraudWithEdges
 70
     3
 71
     2
 72
     2
 73
     1
 90
        2
 40
-0.6
 41
30.0
 62
     5
 63
     7
421
 16777215
 74
     1
 91
        4
 64
     7
 65
   257
 75
     1
175
     1
 42
1.0
 92
        0
 66
   257
 43
1.0
 76
     1
 77
     6
 78
     2
 67
     7
 79
     5
170
     0
171
     0
290
     0
174
     0
 93
       13
 44
0.0
173
     0
291
     1
 45
0.0
  0
VISUALSTYLE
  5
38
102
{ACAD_REACTORS
330
2A
102
}
102
{ACAD_XDICTIONARY
360
C8
102
}
330
2A
100
AcDbVisualStyle
  2
Linepattern
 70
    14
 71
     2
 72
     2
 73
     0
 90
        0
 40
-0.6
 41
-30.0
 62
     5
 63
     7
421
 16777215
 74
     1
 91
        4
 64
     7
 65
   257
 75
     7
175
     7
 42
1.0
 92
        8
 66
     7
 43
1.0
 76
     1
 77
     6
 78
     2
 67
     7
 79
     5
170
     0
171
     0
290
     0
174
     0
 93
        1
 44
0.0
173
     0
291
     1
 45
0.0
  0
VISUALSTYLE
  5
33
102
{ACAD_REACTORS
330
2A
102
}
102
{ACAD_XDICTIONARY
360
BE
102
}
330
2A
100
AcDbVisualStyle
  2
Realistic
 70
     8
 71
     2
 72
     2
 73
     0
 90
        0
 40
-0.6
 41
-30.0
 62
     5
 63
     7
421
 16777215
 74
     1
 91
        0
 64
     7
 65
   257
 75
     1
175
     1
 42
1.0
 92
        8
 66
     8
424
  7895160
 43
1.0
 76
     1
 77
     6
 78
     2
 67
     7
 79
     5
170
     0
171
     0
290
     0
174
     0
 93
       13
 44
0.0
173
     0
291
     0
 45
0.0
  0
VISUALSTYLE
  5
37
102
{ACAD_REACTORS
330
2A
102
}
102
{ACAD_XDICTIONARY
360
C6
102
}
330
2A
100
AcDbVisualStyle
  2
Thicken
 70
    13
 71
     2
 72
     2
 73
     0
 90
        0
 40
-0.6
 41
-30.0
 62
     5
 63
     7
421
 16777215
 74
     1
 91
        4
 64
     7
 65
   257
 75
     1
175
     1
 42
1.0
 92
       12
 66
     7
 43
1.0
 76
     1
 77
     6
 78
     2
 67
     7
 79
     5
170
     0
171
     0
290
     0
174
     0
 93
        1
 44
0.0
173
     0
291
     1
 45
0.0
  0
DICTIONARY
  5
B6
330
2F
100
AcDbDictionary
280
     1
281
     1
  3
ACAD_XREC_ROUNDTRIP
360
B7
  0
DICTIONARY
  5
BA
330
31
100
AcDbDictionary
280
     1
281
     1
  3
ACAD_XREC_ROUNDTRIP
360
BB
  0
DICTIONARY
  5
B8
330
30
100
AcDbDictionary
280
     1
281
     1
  3
ACAD_XREC_ROUNDTRIP
360
B9
  0
DICTIONARY
  5
BC
330
32
100
AcDbDictionary
280
     1
281
     1
  3
ACAD_XREC_ROUNDTRIP
360
BD
  0
DICTIONARY
  5
C4
330
36
100
AcDbDictionary
280
     1
281
     1
  3
ACAD_XREC_ROUNDTRIP
360
C5
  0
DICTIONARY
  5
CC
330
3A
100
AcDbDictionary
280
     1
281
     1
  3
ACAD_XREC_ROUNDTRIP
360
CD
  0
DICTIONARY
  5
C0
330
34
100
AcDbDictionary
280
     1
281
     1
  3
ACAD_XREC_ROUNDTRIP
360
C1
  0
DICTIONARY
  5
C2
330
35
100
AcDbDictionary
280
     1
281
     1
  3
ACAD_XREC_ROUNDTRIP
360
C3
  0
DICTIONARY
  5
CA
330
39
100
AcDbDictionary
280
     1
281
     1
  3
ACAD_XREC_ROUNDTRIP
360
CB
  0
DICTIONARY
  5
AE
330
2B
100
AcDbDictionary
280
     1
281
     1
  3
ACAD_XREC_ROUNDTRIP
360
AF
  0
DICTIONARY
  5
B0
330
2C
100
AcDbDictionary
280
     1
281
     1
  3
ACAD_XREC_ROUNDTRIP
360
B1
  0
DICTIONARY
  5
B2
330
2D
100
AcDbDictionary
280
     1
281
     1
  3
ACAD_XREC_ROUNDTRIP
360
B3
  0
DICTIONARY
  5
B4
330
2E
100
AcDbDictionary
280
     1
281
     1
  3
ACAD_XREC_ROUNDTRIP
360
B5
  0
DICTIONARY
  5
C8
330
38
100
AcDbDictionary
280
     1
281
     1
  3
ACAD_XREC_ROUNDTRIP
360
C9
  0
DICTIONARY
  5
BE
330
33
100
AcDbDictionary
280
     1
281
     1
  3
ACAD_XREC_ROUNDTRIP
360
BF
  0
DICTIONARY
  5
C6
330
37
100
AcDbDictionary
280
     1
281
     1
  3
ACAD_XREC_ROUNDTRIP
360
C7
  0
XRECORD
  5
B7
102
{ACAD_REACTORS
330
B6
102
}
330
B6
100
AcDbXrecord
280
     1
102
RTVSPropertyOp0
 70
     1
102
RTVSPropertyOp1
 70
     1
102
RTVSPropertyOp2
 70
     1
102
RTVSPropertyOp3
 70
     1
102
RTVSPropertyOp4
 70
     1
102
RTVSPropertyOp5
 70
     1
102
RTVSPropertyOp6
 70
     1
102
RTVSPropertyOp7
 70
     1
102
RTVSPropertyOp8
 70
     1
102
RTVSPropertyOp9
 70
     1
102
RTVSPropertyOp10
 70
     1
102
RTVSPropertyOp11
 70
     1
102
RTVSPropertyOp12
 70
     1
102
RTVSPropertyOp13
 70
     1
102
RTVSPropertyOp14
 70
     1
102
RTVSPropertyOp15
 70
     1
102
RTVSPropertyOp16
 70
     1
102
RTVSPropertyOp17
 70
     1
102
RTVSPropertyOp18
 70
     1
102
RTVSPropertyOp19
 70
     1
102
RTVSPropertyOp20
 70
     1
102
RTVSPropertyOp21
 70
     1
102
RTVSPropertyOp22
 70
     1
102
RTVSPropertyOp23
 70
     1
102
RTVSPropertyOp24
 70
     1
102
RTVSPropertyOp25
 70
     1
102
RTVSPropertyOp26
 70
     1
102
RTVSPropertyOp27
 70
     1
102
RTVSPropertyOp28
 70
     1
102
RTVSPropertyOp29
 70
     1
102
RTVSPropertyOp30
 70
     1
102
RTVSPropertyOp31
 70
     1
102
RTVSPropertyOp32
 70
     1
  0
XRECORD
  5
BB
102
{ACAD_REACTORS
330
BA
102
}
330
BA
100
AcDbXrecord
280
     1
102
RTVSPropertyOp0
 70
     1
102
RTVSPropertyOp1
 70
     1
102
RTVSPropertyOp2
 70
     1
102
RTVSPropertyOp3
 70
     1
102
RTVSPropertyOp4
 70
     1
102
RTVSPropertyOp5
 70
     1
102
RTVSPropertyOp6
 70
     1
102
RTVSPropertyOp7
 70
     1
102
RTVSPropertyOp8
 70
     1
102
RTVSPropertyOp9
 70
     1
102
RTVSPropertyOp10
 70
     1
102
RTVSPropertyOp11
 70
     1
102
RTVSPropertyOp12
 70
     1
102
RTVSPropertyOp13
 70
     1
102
RTVSPropertyOp14
 70
     1
102
RTVSPropertyOp15
 70
     1
102
RTVSPropertyOp16
 70
     1
102
RTVSPropertyOp17
 70
     1
102
RTVSPropertyOp18
 70
     1
102
RTVSPropertyOp19
 70
     1
102
RTVSPropertyOp20
 70
     1
102
RTVSPropertyOp21
 70
     1
102
RTVSPropertyOp22
 70
     1
102
RTVSPropertyOp23
 70
     1
102
RTVSPropertyOp24
 70
     1
102
RTVSPropertyOp25
 70
     1
102
RTVSPropertyOp26
 70
     1
102
RTVSPropertyOp27
 70
     1
102
RTVSPropertyOp28
 70
     1
102
RTVSPropertyOp29
 70
     1
102
RTVSPropertyOp30
 70
     1
102
RTVSPropertyOp31
 70
     1
102
RTVSPropertyOp32
 70
     1
  0
XRECORD
  5
B9
102
{ACAD_REACTORS
330
B8
102
}
330
B8
100
AcDbXrecord
280
     1
102
RTVSPropertyOp0
 70
     1
102
RTVSPropertyOp1
 70
     1
102
RTVSPropertyOp2
 70
     1
102
RTVSPropertyOp3
 70
     1
102
RTVSPropertyOp4
 70
     1
102
RTVSPropertyOp5
 70
     1
102
RTVSPropertyOp6
 70
     1
102
RTVSPropertyOp7
 70
     1
102
RTVSPropertyOp8
 70
     1
102
RTVSPropertyOp9
 70
     1
102
RTVSPropertyOp10
 70
     1
102
RTVSPropertyOp11
 70
     1
102
RTVSPropertyOp12
 70
     1
102
RTVSPropertyOp13
 70
     1
102
RTVSPropertyOp14
 70
     1
102
RTVSPropertyOp15
 70
     1
102
RTVSPropertyOp16
 70
     1
102
RTVSPropertyOp17
 70
     1
102
RTVSPropertyOp18
 70
     1
102
RTVSPropertyOp19
 70
     1
102
RTVSPropertyOp20
 70
     1
102
RTVSPropertyOp21
 70
     1
102
RTVSPropertyOp22
 70
     1
102
RTVSPropertyOp23
 70
     1
102
RTVSPropertyOp24
 70
     1
102
RTVSPropertyOp25
 70
     1
102
RTVSPropertyOp26
 70
     1
102
RTVSPropertyOp27
 70
     1
102
RTVSPropertyOp28
 70
     1
102
RTVSPropertyOp29
 70
     1
102
RTVSPropertyOp30
 70
     1
102
RTVSPropertyOp31
 70
     1
102
RTVSPropertyOp32
 70
     1
  0
XRECORD
  5
BD
102
{ACAD_REACTORS
330
BC
102
}
330
BC
100
AcDbXrecord
280
     1
102
RTVSPropertyOp0
 70
     1
102
RTVSPropertyOp1
 70
     1
102
RTVSPropertyOp2
 70
     1
102
RTVSPropertyOp3
 70
     1
102
RTVSPropertyOp4
 70
     1
102
RTVSPropertyOp5
 70
     1
102
RTVSPropertyOp6
 70
     1
102
RTVSPropertyOp7
 70
     1
102
RTVSPropertyOp8
 70
     1
102
RTVSPropertyOp9
 70
     1
102
RTVSPropertyOp10
 70
     1
102
RTVSPropertyOp11
 70
     1
102
RTVSPropertyOp12
 70
     1
102
RTVSPropertyOp13
 70
     1
102
RTVSPropertyOp14
 70
     1
102
RTVSPropertyOp15
 70
     1
102
RTVSPropertyOp16
 70
     1
102
RTVSPropertyOp17
 70
     1
102
RTVSPropertyOp18
 70
     1
102
RTVSPropertyOp19
 70
     1
102
RTVSPropertyOp20
 70
     1
102
RTVSPropertyOp21
 70
     1
102
RTVSPropertyOp22
 70
     1
102
RTVSPropertyOp23
 70
     1
102
RTVSPropertyOp24
 70
     1
102
RTVSPropertyOp25
 70
     1
102
RTVSPropertyOp26
 70
     1
102
RTVSPropertyOp27
 70
     1
102
RTVSPropertyOp28
 70
     1
102
RTVSPropertyOp29
 70
     1
102
RTVSPropertyOp30
 70
     1
102
RTVSPropertyOp31
 70
     1
102
RTVSPropertyOp32
 70
     1
  0
XRECORD
  5
C5
102
{ACAD_REACTORS
330
C4
102
}
330
C4
100
AcDbXrecord
280
     1
102
RTVSPropertyOp0
 70
     1
102
RTVSPropertyOp1
 70
     1
102
RTVSPropertyOp2
 70
     1
102
RTVSPropertyOp3
 70
     1
102
RTVSPropertyOp4
 70
     1
102
RTVSPropertyOp5
 70
     1
102
RTVSPropertyOp6
 70
     1
102
RTVSPropertyOp7
 70
     1
102
RTVSPropertyOp8
 70
     1
102
RTVSPropertyOp9
 70
     1
102
RTVSPropertyOp10
 70
     1
102
RTVSPropertyOp11
 70
     1
102
RTVSPropertyOp12
 70
     1
102
RTVSPropertyOp13
 70
     1
102
RTVSPropertyOp14
 70
     1
102
RTVSPropertyOp15
 70
     1
102
RTVSPropertyOp16
 70
     1
102
RTVSPropertyOp17
 70
     1
102
RTVSPropertyOp18
 70
     1
102
RTVSPropertyOp19
 70
     1
102
RTVSPropertyOp20
 70
     1
102
RTVSPropertyOp21
 70
     1
102
RTVSPropertyOp22
 70
     1
102
RTVSPropertyOp23
 70
     1
102
RTVSPropertyOp24
 70
     1
102
RTVSPropertyOp25
 70
     1
102
RTVSPropertyOp26
 70
     1
102
RTVSPropertyOp27
 70
     1
102
RTVSPropertyOp28
 70
     1
102
RTVSPropertyOp29
 70
     1
102
RTVSPropertyOp30
 70
     1
102
RTVSPropertyOp31
 70
     1
102
RTVSPropertyOp32
 70
     1
  0
XRECORD
  5
CD
102
{ACAD_REACTORS
330
CC
102
}
330
CC
100
AcDbXrecord
280
     1
102
RTVSPropertyOp0
 70
     1
102
RTVSPropertyOp1
 70
     1
102
RTVSPropertyOp2
 70
     1
102
RTVSPropertyOp3
 70
     1
102
RTVSPropertyOp4
 70
     1
102
RTVSPropertyOp5
 70
     1
102
RTVSPropertyOp6
 70
     1
102
RTVSPropertyOp7
 70
     1
102
RTVSPropertyOp8
 70
     1
102
RTVSPropertyOp9
 70
     1
102
RTVSPropertyOp10
 70
     1
102
RTVSPropertyOp11
 70
     1
102
RTVSPropertyOp12
 70
     1
102
RTVSPropertyOp13
 70
     1
102
RTVSPropertyOp14
 70
     1
102
RTVSPropertyOp15
 70
     1
102
RTVSPropertyOp16
 70
     1
102
RTVSPropertyOp17
 70
     1
102
RTVSPropertyOp18
 70
     1
102
RTVSPropertyOp19
 70
     1
102
RTVSPropertyOp20
 70
     1
102
RTVSPropertyOp21
 70
     1
102
RTVSPropertyOp22
 70
     1
102
RTVSPropertyOp23
 70
     1
102
RTVSPropertyOp24
 70
     1
102
RTVSPropertyOp25
 70
     1
102
RTVSPropertyOp26
 70
     1
102
RTVSPropertyOp27
 70
     1
102
RTVSPropertyOp28
 70
     1
102
RTVSPropertyOp29
 70
     1
102
RTVSPropertyOp30
 70
     1
102
RTVSPropertyOp31
 70
     1
102
RTVSPropertyOp32
 70
     1
  0
XRECORD
  5
C1
102
{ACAD_REACTORS
330
C0
102
}
330
C0
100
AcDbXrecord
280
     1
102
RTVSPropertyOp0
 70
     1
102
RTVSPropertyOp1
 70
     1
102
RTVSPropertyOp2
 70
     1
102
RTVSPropertyOp3
 70
     1
102
RTVSPropertyOp4
 70
     1
102
RTVSPropertyOp5
 70
     1
102
RTVSPropertyOp6
 70
     1
102
RTVSPropertyOp7
 70
     1
102
RTVSPropertyOp8
 70
     1
102
RTVSPropertyOp9
 70
     1
102
RTVSPropertyOp10
 70
     1
102
RTVSPropertyOp11
 70
     1
102
RTVSPropertyOp12
 70
     1
102
RTVSPropertyOp13
 70
     1
102
RTVSPropertyOp14
 70
     1
102
RTVSPropertyOp15
 70
     1
102
RTVSPropertyOp16
 70
     1
102
RTVSPropertyOp17
 70
     1
102
RTVSPropertyOp18
 70
     1
102
RTVSPropertyOp19
 70
     1
102
RTVSPropertyOp20
 70
     1
102
RTVSPropertyOp21
 70
     1
102
RTVSPropertyOp22
 70
     1
102
RTVSPropertyOp23
 70
     1
102
RTVSPropertyOp24
 70
     1
102
RTVSPropertyOp25
 70
     1
102
RTVSPropertyOp26
 70
     1
102
RTVSPropertyOp27
 70
     1
102
RTVSPropertyOp28
 70
     1
102
RTVSPropertyOp29
 70
     1
102
RTVSPropertyOp30
 70
     1
102
RTVSPropertyOp31
 70
     1
102
RTVSPropertyOp32
 70
     1
  0
XRECORD
  5
C3
102
{ACAD_REACTORS
330
C2
102
}
330
C2
100
AcDbXrecord
280
     1
102
RTVSPropertyOp0
 70
     1
102
RTVSPropertyOp1
 70
     1
102
RTVSPropertyOp2
 70
     1
102
RTVSPropertyOp3
 70
     1
102
RTVSPropertyOp4
 70
     1
102
RTVSPropertyOp5
 70
     1
102
RTVSPropertyOp6
 70
     1
102
RTVSPropertyOp7
 70
     1
102
RTVSPropertyOp8
 70
     1
102
RTVSPropertyOp9
 70
     1
102
RTVSPropertyOp10
 70
     1
102
RTVSPropertyOp11
 70
     1
102
RTVSPropertyOp12
 70
     1
102
RTVSPropertyOp13
 70
     1
102
RTVSPropertyOp14
 70
     1
102
RTVSPropertyOp15
 70
     1
102
RTVSPropertyOp16
 70
     1
102
RTVSPropertyOp17
 70
     1
102
RTVSPropertyOp18
 70
     1
102
RTVSPropertyOp19
 70
     1
102
RTVSPropertyOp20
 70
     1
102
RTVSPropertyOp21
 70
     1
102
RTVSPropertyOp22
 70
     1
102
RTVSPropertyOp23
 70
     1
102
RTVSPropertyOp24
 70
     1
102
RTVSPropertyOp25
 70
     1
102
RTVSPropertyOp26
 70
     1
102
RTVSPropertyOp27
 70
     1
102
RTVSPropertyOp28
 70
     1
102
RTVSPropertyOp29
 70
     1
102
RTVSPropertyOp30
 70
     1
102
RTVSPropertyOp31
 70
     1
102
RTVSPropertyOp32
 70
     1
  0
XRECORD
  5
CB
102
{ACAD_REACTORS
330
CA
102
}
330
CA
100
AcDbXrecord
280
     1
102
RTVSPropertyOp0
 70
     1
102
RTVSPropertyOp1
 70
     1
102
RTVSPropertyOp2
 70
     1
102
RTVSPropertyOp3
 70
     1
102
RTVSPropertyOp4
 70
     1
102
RTVSPropertyOp5
 70
     1
102
RTVSPropertyOp6
 70
     1
102
RTVSPropertyOp7
 70
     1
102
RTVSPropertyOp8
 70
     1
102
RTVSPropertyOp9
 70
     1
102
RTVSPropertyOp10
 70
     1
102
RTVSPropertyOp11
 70
     1
102
RTVSPropertyOp12
 70
     1
102
RTVSPropertyOp13
 70
     1
102
RTVSPropertyOp14
 70
     1
102
RTVSPropertyOp15
 70
     1
102
RTVSPropertyOp16
 70
     1
102
RTVSPropertyOp17
 70
     1
102
RTVSPropertyOp18
 70
     1
102
RTVSPropertyOp19
 70
     1
102
RTVSPropertyOp20
 70
     1
102
RTVSPropertyOp21
 70
     1
102
RTVSPropertyOp22
 70
     1
102
RTVSPropertyOp23
 70
     1
102
RTVSPropertyOp24
 70
     1
102
RTVSPropertyOp25
 70
     1
102
RTVSPropertyOp26
 70
     1
102
RTVSPropertyOp27
 70
     1
102
RTVSPropertyOp28
 70
     1
102
RTVSPropertyOp29
 70
     1
102
RTVSPropertyOp30
 70
     1
102
RTVSPropertyOp31
 70
     1
102
RTVSPropertyOp32
 70
     1
  0
XRECORD
  5
AF
102
{ACAD_REACTORS
330
AE
102
}
330
AE
100
AcDbXrecord
280
     1
102
RTVSPropertyOp0
 70
     1
102
RTVSPropertyOp1
 70
     1
102
RTVSPropertyOp2
 70
     1
102
RTVSPropertyOp3
 70
     1
102
RTVSPropertyOp4
 70
     1
102
RTVSPropertyOp5
 70
     1
102
RTVSPropertyOp6
 70
     1
102
RTVSPropertyOp7
 70
     1
102
RTVSPropertyOp8
 70
     1
102
RTVSPropertyOp9
 70
     1
102
RTVSPropertyOp10
 70
     1
102
RTVSPropertyOp11
 70
     1
102
RTVSPropertyOp12
 70
     1
102
RTVSPropertyOp13
 70
     1
102
RTVSPropertyOp14
 70
     1
102
RTVSPropertyOp15
 70
     1
102
RTVSPropertyOp16
 70
     1
102
RTVSPropertyOp17
 70
     1
102
RTVSPropertyOp18
 70
     1
102
RTVSPropertyOp19
 70
     1
102
RTVSPropertyOp20
 70
     1
102
RTVSPropertyOp21
 70
     1
102
RTVSPropertyOp22
 70
     1
102
RTVSPropertyOp23
 70
     1
102
RTVSPropertyOp24
 70
     1
102
RTVSPropertyOp25
 70
     1
102
RTVSPropertyOp26
 70
     1
102
RTVSPropertyOp27
 70
     1
102
RTVSPropertyOp28
 70
     1
102
RTVSPropertyOp29
 70
     1
102
RTVSPropertyOp30
 70
     1
102
RTVSPropertyOp31
 70
     1
102
RTVSPropertyOp32
 70
     1
  0
XRECORD
  5
B1
102
{ACAD_REACTORS
330
B0
102
}
330
B0
100
AcDbXrecord
280
     1
102
RTVSPropertyOp0
 70
     1
102
RTVSPropertyOp1
 70
     1
102
RTVSPropertyOp2
 70
     1
102
RTVSPropertyOp3
 70
     1
102
RTVSPropertyOp4
 70
     1
102
RTVSPropertyOp5
 70
     1
102
RTVSPropertyOp6
 70
     1
102
RTVSPropertyOp7
 70
     1
102
RTVSPropertyOp8
 70
     1
102
RTVSPropertyOp9
 70
     1
102
RTVSPropertyOp10
 70
     1
102
RTVSPropertyOp11
 70
     1
102
RTVSPropertyOp12
 70
     1
102
RTVSPropertyOp13
 70
     1
102
RTVSPropertyOp14
 70
     1
102
RTVSPropertyOp15
 70
     1
102
RTVSPropertyOp16
 70
     1
102
RTVSPropertyOp17
 70
     1
102
RTVSPropertyOp18
 70
     1
102
RTVSPropertyOp19
 70
     1
102
RTVSPropertyOp20
 70
     1
102
RTVSPropertyOp21
 70
     1
102
RTVSPropertyOp22
 70
     1
102
RTVSPropertyOp23
 70
     1
102
RTVSPropertyOp24
 70
     1
102
RTVSPropertyOp25
 70
     1
102
RTVSPropertyOp26
 70
     1
102
RTVSPropertyOp27
 70
     1
102
RTVSPropertyOp28
 70
     1
102
RTVSPropertyOp29
 70
     1
102
RTVSPropertyOp30
 70
     1
102
RTVSPropertyOp31
 70
     1
102
RTVSPropertyOp32
 70
     1
  0
XRECORD
  5
B3
102
{ACAD_REACTORS
330
B2
102
}
330
B2
100
AcDbXrecord
280
     1
102
RTVSPropertyOp0
 70
     1
102
RTVSPropertyOp1
 70
     1
102
RTVSPropertyOp2
 70
     1
102
RTVSPropertyOp3
 70
     1
102
RTVSPropertyOp4
 70
     1
102
RTVSPropertyOp5
 70
     1
102
RTVSPropertyOp6
 70
     1
102
RTVSPropertyOp7
 70
     1
102
RTVSPropertyOp8
 70
     1
102
RTVSPropertyOp9
 70
     1
102
RTVSPropertyOp10
 70
     1
102
RTVSPropertyOp11
 70
     1
102
RTVSPropertyOp12
 70
     1
102
RTVSPropertyOp13
 70
     1
102
RTVSPropertyOp14
 70
     1
102
RTVSPropertyOp15
 70
     1
102
RTVSPropertyOp16
 70
     1
102
RTVSPropertyOp17
 70
     1
102
RTVSPropertyOp18
 70
     1
102
RTVSPropertyOp19
 70
     1
102
RTVSPropertyOp20
 70
     1
102
RTVSPropertyOp21
 70
     1
102
RTVSPropertyOp22
 70
     1
102
RTVSPropertyOp23
 70
     1
102
RTVSPropertyOp24
 70
     1
102
RTVSPropertyOp25
 70
     1
102
RTVSPropertyOp26
 70
     1
102
RTVSPropertyOp27
 70
     1
102
RTVSPropertyOp28
 70
     1
102
RTVSPropertyOp29
 70
     1
102
RTVSPropertyOp30
 70
     1
102
RTVSPropertyOp31
 70
     1
102
RTVSPropertyOp32
 70
     1
  0
XRECORD
  5
B5
102
{ACAD_REACTORS
330
B4
102
}
330
B4
100
AcDbXrecord
280
     1
102
RTVSPropertyOp0
 70
     1
102
RTVSPropertyOp1
 70
     1
102
RTVSPropertyOp2
 70
     1
102
RTVSPropertyOp3
 70
     1
102
RTVSPropertyOp4
 70
     1
102
RTVSPropertyOp5
 70
     1
102
RTVSPropertyOp6
 70
     1
102
RTVSPropertyOp7
 70
     1
102
RTVSPropertyOp8
 70
     1
102
RTVSPropertyOp9
 70
     1
102
RTVSPropertyOp10
 70
     1
102
RTVSPropertyOp11
 70
     1
102
RTVSPropertyOp12
 70
     1
102
RTVSPropertyOp13
 70
     1
102
RTVSPropertyOp14
 70
     1
102
RTVSPropertyOp15
 70
     1
102
RTVSPropertyOp16
 70
     1
102
RTVSPropertyOp17
 70
     1
102
RTVSPropertyOp18
 70
     1
102
RTVSPropertyOp19
 70
     1
102
RTVSPropertyOp20
 70
     1
102
RTVSPropertyOp21
 70
     1
102
RTVSPropertyOp22
 70
     1
102
RTVSPropertyOp23
 70
     1
102
RTVSPropertyOp24
 70
     1
102
RTVSPropertyOp25
 70
     1
102
RTVSPropertyOp26
 70
     1
102
RTVSPropertyOp27
 70
     1
102
RTVSPropertyOp28
 70
     1
102
RTVSPropertyOp29
 70
     1
102
RTVSPropertyOp30
 70
     1
102
RTVSPropertyOp31
 70
     1
102
RTVSPropertyOp32
 70
     1
  0
XRECORD
  5
C9
102
{ACAD_REACTORS
330
C8
102
}
330
C8
100
AcDbXrecord
280
     1
102
RTVSPropertyOp0
 70
     1
102
RTVSPropertyOp1
 70
     1
102
RTVSPropertyOp2
 70
     1
102
RTVSPropertyOp3
 70
     1
102
RTVSPropertyOp4
 70
     1
102
RTVSPropertyOp5
 70
     1
102
RTVSPropertyOp6
 70
     1
102
RTVSPropertyOp7
 70
     1
102
RTVSPropertyOp8
 70
     1
102
RTVSPropertyOp9
 70
     1
102
RTVSPropertyOp10
 70
     1
102
RTVSPropertyOp11
 70
     1
102
RTVSPropertyOp12
 70
     1
102
RTVSPropertyOp13
 70
     1
102
RTVSPropertyOp14
 70
     1
102
RTVSPropertyOp15
 70
     1
102
RTVSPropertyOp16
 70
     1
102
RTVSPropertyOp17
 70
     1
102
RTVSPropertyOp18
 70
     1
102
RTVSPropertyOp19
 70
     1
102
RTVSPropertyOp20
 70
     1
102
RTVSPropertyOp21
 70
     1
102
RTVSPropertyOp22
 70
     1
102
RTVSPropertyOp23
 70
     1
102
RTVSPropertyOp24
 70
     1
102
RTVSPropertyOp25
 70
     1
102
RTVSPropertyOp26
 70
     1
102
RTVSPropertyOp27
 70
     1
102
RTVSPropertyOp28
 70
     1
102
RTVSPropertyOp29
 70
     1
102
RTVSPropertyOp30
 70
     1
102
RTVSPropertyOp31
 70
     1
102
RTVSPropertyOp32
 70
     1
  0
XRECORD
  5
BF
102
{ACAD_REACTORS
330
BE
102
}
330
BE
100
AcDbXrecord
280
     1
102
RTVSPropertyOp0
 70
     1
102
RTVSPropertyOp1
 70
     1
102
RTVSPropertyOp2
 70
     1
102
RTVSPropertyOp3
 70
     1
102
RTVSPropertyOp4
 70
     1
102
RTVSPropertyOp5
 70
     1
102
RTVSPropertyOp6
 70
     1
102
RTVSPropertyOp7
 70
     1
102
RTVSPropertyOp8
 70
     1
102
RTVSPropertyOp9
 70
     1
102
RTVSPropertyOp10
 70
     1
102
RTVSPropertyOp11
 70
     1
102
RTVSPropertyOp12
 70
     1
102
RTVSPropertyOp13
 70
     1
102
RTVSPropertyOp14
 70
     1
102
RTVSPropertyOp15
 70
     1
102
RTVSPropertyOp16
 70
     1
102
RTVSPropertyOp17
 70
     1
102
RTVSPropertyOp18
 70
     1
102
RTVSPropertyOp19
 70
     1
102
RTVSPropertyOp20
 70
     1
102
RTVSPropertyOp21
 70
     1
102
RTVSPropertyOp22
 70
     1
102
RTVSPropertyOp23
 70
     1
102
RTVSPropertyOp24
 70
     1
102
RTVSPropertyOp25
 70
     1
102
RTVSPropertyOp26
 70
     1
102
RTVSPropertyOp27
 70
     1
102
RTVSPropertyOp28
 70
     1
102
RTVSPropertyOp29
 70
     1
102
RTVSPropertyOp30
 70
     1
102
RTVSPropertyOp31
 70
     1
102
RTVSPropertyOp32
 70
     1
  0
XRECORD
  5
C7
102
{ACAD_REACTORS
330
C6
102
}
330
C6
100
AcDbXrecord
280
     1
102
RTVSPropertyOp0
 70
     1
102
RTVSPropertyOp1
 70
     1
102
RTVSPropertyOp2
 70
     1
102
RTVSPropertyOp3
 70
     1
102
RTVSPropertyOp4
 70
     1
102
RTVSPropertyOp5
 70
     1
102
RTVSPropertyOp6
 70
     1
102
RTVSPropertyOp7
 70
     1
102
RTVSPropertyOp8
 70
     1
102
RTVSPropertyOp9
 70
     1
102
RTVSPropertyOp10
 70
     1
102
RTVSPropertyOp11
 70
     1
102
RTVSPropertyOp12
 70
     1
102
RTVSPropertyOp13
 70
     1
102
RTVSPropertyOp14
 70
     1
102
RTVSPropertyOp15
 70
     1
102
RTVSPropertyOp16
 70
     1
102
RTVSPropertyOp17
 70
     1
102
RTVSPropertyOp18
 70
     1
102
RTVSPropertyOp19
 70
     1
102
RTVSPropertyOp20
 70
     1
102
RTVSPropertyOp21
 70
     1
102
RTVSPropertyOp22
 70
     1
102
RTVSPropertyOp23
 70
     1
102
RTVSPropertyOp24
 70
     1
102
RTVSPropertyOp25
 70
     1
102
RTVSPropertyOp26
 70
     1
102
RTVSPropertyOp27
 70
     1
102
RTVSPropertyOp28
 70
     1
102
RTVSPropertyOp29
 70
     1
102
RTVSPropertyOp30
 70
     1
102
RTVSPropertyOp31
 70
     1
102
RTVSPropertyOp32
 70
     1
  0
ENDSEC
  0
EOF
