  0
SECTION
  2
HEADER
  9
$ACADVER
  1
AC1021
  9
$ACADMAINTVER
 70
    25
  9
$DWGCODEPAGE
  3
ANSI_1252
  9
$INSBASE
 10
0.0
 20
0.0
 30
0.0
  9
$EXTMIN
 10
80.6691
 20
-96.5963
 30
0.0
  9
$EXTMAX
 10
196.2356
 20
101.8154
 30
0.0
  9
$LIMMIN
 10
0.0
 20
0.0
  9
$LIMMAX
 10
12.0
 20
9.0
  9
$ORTHOMODE
 70
     0
  9
$REGENMODE
 70
     1
  9
$FILLMODE
 70
     1
  9
$QTEXTMODE
 70
     0
  9
$MIRRTEXT
 70
     1
  9
$LTSCALE
 40
1.0
  9
$ATTMODE
 70
     1
  9
$TEXTSIZE
 40
0.2
  9
$TRACEWID
 40
0.05
  9
$TEXTSTYLE
  7
Standard
  9
$CLAYER
  8
0
  9
$CELTYPE
  6
ByLayer
  9
$CECOLOR
 62
   256
  9
$CELTSCALE
 40
1.0
  9
$DISPSILH
 70
     0
  9
$DIMSCALE
 40
1.0
  9
$DIMASZ
 40
0.18
  9
$DIMEXO
 40
0.0625
  9
$DIMDLI
 40
0.38
  9
$DIMRND
 40
0.0
  9
$DIMDLE
 40
0.0
  9
$DIMEXE
 40
0.18
  9
$DIMTP
 40
0.0
  9
$DIMTM
 40
0.0
  9
$DIMTXT
 40
0.18
  9
$DIMCEN
 40
0.09
  9
$DIMTSZ
 40
0.0
  9
$DIMTOL
 70
     0
  9
$DIMLIM
 70
     0
  9
$DIMTIH
 70
     1
  9
$DIMTOH
 70
     1
  9
$DIMSE1
 70
     0
  9
$DIMSE2
 70
     0
  9
$DIMTAD
 70
     0
  9
$DIMZIN
 70
     0
  9
$DIMBLK
  1

  9
$DIMASO
 70
     1
  9
$DIMSHO
 70
     1
  9
$DIMPOST
  1

  9
$DIMAPOST
  1

  9
$DIMALT
 70
     0
  9
$DIMALTD
 70
     2
  9
$DIMALTF
 40
25.4
  9
$DIMLFAC
 40
1.0
  9
$DIMTOFL
 70
     0
  9
$DIMTVP
 40
0.0
  9
$DIMTIX
 70
     0
  9
$DIMSOXD
 70
     0
  9
$DIMSAH
 70
     0
  9
$DIMBLK1
  1

  9
$DIMBLK2
  1

  9
$DIMSTYLE
  2
Standard
  9
$DIMCLRD
 70
     0
  9
$DIMCLRE
 70
     0
  9
$DIMCLRT
 70
     0
  9
$DIMTFAC
 40
1.0
  9
$DIMGAP
 40
0.09
  9
$DIMJUST
 70
     0
  9
$DIMSD1
 70
     0
  9
$DIMSD2
 70
     0
  9
$DIMTOLJ
 70
     1
  9
$DIMTZIN
 70
     0
  9
$DIMALTZ
 70
     0
  9
$DIMALTTZ
 70
     0
  9
$DIMUPT
 70
     0
  9
$DIMDEC
 70
     4
  9
$DIMTDEC
 70
     4
  9
$DIMALTU
 70
     2
  9
$DIMALTTD
 70
     2
  9
$DIMTXSTY
  7
Standard
  9
$DIMAUNIT
 70
     0
  9
$DIMADEC
 70
     0
  9
$DIMALTRND
 40
0.0
  9
$DIMAZIN
 70
     0
  9
$DIMDSEP
 70
    46
  9
$DIMATFIT
 70
     3
  9
$DIMFRAC
 70
     0
  9
$DIMLDRBLK
  1

  9
$DIMLUNIT
 70
     2
  9
$DIMLWD
 70
    -2
  9
$DIMLWE
 70
    -2
  9
$DIMTMOVE
 70
     0
  9
$DIMFXL
 40
1.0
  9
$DIMFXLON
 70
     0
  9
$DIMJOGANG
 40
0.7853981633974483
  9
$DIMTFILL
 70
     0
  9
$DIMTFILLCLR
 70
     0
  9
$DIMARCSYM
 70
     0
  9
$DIMLTYPE
  6

  9
$DIMLTEX1
  6

  9
$DIMLTEX2
  6

  9
$LUNITS
 70
     2
  9
$LUPREC
 70
     4
  9
$SKETCHINC
 40
0.1
  9
$FILLETRAD
 40
0.5
  9
$AUNITS
 70
     0
  9
$AUPREC
 70
     0
  9
$MENU
  1
.
  9
$ELEVATION
 40
0.0
  9
$PELEVATION
 40
0.0
  9
$THICKNESS
 40
0.0
  9
$LIMCHECK
 70
     0
  9
$CHAMFERA
 40
0.5
  9
$CHAMFERB
 40
0.5
  9
$CHAMFERC
 40
1.0
  9
$CHAMFERD
 40
0.0
  9
$SKPOLY
 70
     0
  9
$TDCREATE
 40
2458492.800992917
  9
$TDUCREATE
 40
2458492.800992917
  9
$TDUPDATE
 40
2458492.800993253
  9
$TDUUPDATE
 40
2458492.800993253
  9
$TDINDWG
 40
0.0000000116
  9
$TDUSRTIMER
 40
0.0000000116
  9
$USRTIMER
 70
     1
  9
$ANGBASE
 50
0.0
  9
$ANGDIR
 70
     0
  9
$PDMODE
 70
     0
  9
$PDSIZE
 40
0.0
  9
$PLINEWID
 40
0.0
  9
$SPLFRAME
 70
     0
  9
$SPLINETYPE
 70
     6
  9
$SPLINESEGS
 70
     8
  9
$HANDSEED
  5
12F
  9
$SURFTAB1
 70
     6
  9
$SURFTAB2
 70
     6
  9
$SURFTYPE
 70
     6
  9
$SURFU
 70
     6
  9
$SURFV
 70
     6
  9
$UCSBASE
  2

  9
$UCSNAME
  2

  9
$UCSORG
 10
0.0
 20
0.0
 30
0.0
  9
$UCSXDIR
 10
1.0
 20
0.0
 30
0.0
  9
$UCSYDIR
 10
0.0
 20
1.0
 30
0.0
  9
$UCSORTHOREF
  2

  9
$UCSORTHOVIEW
 70
     0
  9
$UCSORGTOP
 10
0.0
 20
0.0
 30
0.0
  9
$UCSORGBOTTOM
 10
0.0
 20
0.0
 30
0.0
  9
$UCSORGLEFT
 10
0.0
 20
0.0
 30
0.0
  9
$UCSORGRIGHT
 10
0.0
 20
0.0
 30
0.0
  9
$UCSORGFRONT
 10
0.0
 20
0.0
 30
0.0
  9
$UCSORGBACK
 10
0.0
 20
0.0
 30
0.0
  9
$PUCSBASE
  2

  9
$PUCSNAME
  2

  9
$PUCSORG
 10
0.0
 20
0.0
 30
0.0
  9
$PUCSXDIR
 10
1.0
 20
0.0
 30
0.0
  9
$PUCSYDIR
 10
0.0
 20
1.0
 30
0.0
  9
$PUCSORTHOREF
  2

  9
$PUCSORTHOVIEW
 70
     0
  9
$PUCSORGTOP
 10
0.0
 20
0.0
 30
0.0
  9
$PUCSORGBOTTOM
 10
0.0
 20
0.0
 30
0.0
  9
$PUCSORGLEFT
 10
0.0
 20
0.0
 30
0.0
  9
$PUCSORGRIGHT
 10
0.0
 20
0.0
 30
0.0
  9
$PUCSORGFRONT
 10
0.0
 20
0.0
 30
0.0
  9
$PUCSORGBACK
 10
0.0
 20
0.0
 30
0.0
  9
$USERI1
 70
     0
  9
$USERI2
 70
     0
  9
$USERI3
 70
     0
  9
$USERI4
 70
     0
  9
$USERI5
 70
     0
  9
$USERR1
 40
0.0
  9
$USERR2
 40
0.0
  9
$USERR3
 40
0.0
  9
$USERR4
 40
0.0
  9
$USERR5
 40
0.0
  9
$WORLDVIEW
 70
     1
  9
$SHADEDGE
 70
     3
  9
$SHADEDIF
 70
    70
  9
$TILEMODE
 70
     1
  9
$MAXACTVP
 70
    64
  9
$PINSBASE
 10
0.0
 20
0.0
 30
0.0
  9
$PLIMCHECK
 70
     0
  9
$PEXTMIN
 10
1.000000000000000E+20
 20
1.000000000000000E+20
 30
1.000000000000000E+20
  9
$PEXTMAX
 10
-1.000000000000000E+20
 20
-1.000000000000000E+20
 30
-1.000000000000000E+20
  9
$PLIMMIN
 10
0.0
 20
0.0
  9
$PLIMMAX
 10
12.0
 20
9.0
  9
$UNITMODE
 70
     0
  9
$VISRETAIN
 70
     1
  9
$PLINEGEN
 70
     0
  9
$PSLTSCALE
 70
     1
  9
$TREEDEPTH
 70
  3020
  9
$CMLSTYLE
  2
Standard
  9
$CMLJUST
 70
     0
  9
$CMLSCALE
 40
1.0
  9
$PROXYGRAPHICS
 70
     1
  9
$MEASUREMENT
 70
     0
  9
$CELWEIGHT
370
    -1
  9
$ENDCAPS
280
     0
  9
$JOINSTYLE
280
     0
  9
$LWDISPLAY
290
     0
  9
$INSUNITS
 70
     4
  9
$HYPERLINKBASE
  1

  9
$STYLESHEET
  1

  9
$XEDIT
290
     1
  9
$CEPSNTYPE
380
     0
  9
$PSTYLEMODE
290
     1
  9
$FINGERPRINTGUID
  2
{031A2700-4974-4401-8303-F396437E6A58}
  9
$VERSIONGUID
  2
{FAEB1C32-E019-11D5-929B-00C0DF256EC4}
  9
$EXTNAMES
290
     1
  9
$PSVPSCALE
 40
0.0
  9
$OLESTARTUP
290
     0
  9
$SORTENTS
280
   127
  9
$INDEXCTL
280
     0
  9
$HIDETEXT
280
     1
  9
$XCLIPFRAME
290
     0
  9
$HALOGAP
280
     0
  9
$OBSCOLOR
 70
   257
  9
$OBSLTYPE
280
     0
  9
$INTERSECTIONDISPLAY
280
     0
  9
$INTERSECTIONCOLOR
 70
   257
  9
$DIMASSOC
280
     2
  9
$PROJECTNAME
  1

  9
$CAMERADISPLAY
290
     0
  9
$LENSLENGTH
 40
50.0
  9
$CAMERAHEIGHT
 40
0.0
  9
$STEPSPERSEC
 40
2.0
  9
$STEPSIZE
 40
6.0
  9
$3DDWFPREC
 40
2.0
  9
$PSOLWIDTH
 40
0.25
  9
$PSOLHEIGHT
 40
4.0
  9
$LOFTANG1
 40
1.570796326794897
  9
$LOFTANG2
 40
1.570796326794897
  9
$LOFTMAG1
 40
0.0
  9
$LOFTMAG2
 40
0.0
  9
$LOFTPARAM
 70
     7
  9
$LOFTNORMALS
280
     1
  9
$LATITUDE
 40
37.795
  9
$LONGITUDE
 40
-122.394
  9
$NORTHDIRECTION
 40
0.0
  9
$TIMEZONE
 70
 -8000
  9
$LIGHTGLYPHDISPLAY
280
     1
  9
$TILEMODELIGHTSYNCH
280
     1
  9
$SOLIDHIST
280
     1
  9
$SHOWHIST
280
     1
  9
$DWFFRAME
280
     2
  9
$DGNFRAME
280
     2
  9
$REALWORLDSCALE
290
     1
  9
$INTERFERECOLOR
 62
   256
  9
$CSHADOW
280
     0
  9
$SHADOWPLANELOCATION
 40
0.0
  0
ENDSEC
  0
SECTION
  2
CLASSES
  0
CLASS
  1
ACDBDICTIONARYWDFLT
  2
AcDbDictionaryWithDefault
  3
ObjectDBX Classes
 90
        0
 91
        4
280
     0
281
     0
  0
CLASS
  1
VISUALSTYLE
  2
AcDbVisualStyle
  3
ObjectDBX Classes
 90
     4095
 91
        4
280
     0
281
     0
  0
CLASS
  1
MATERIAL
  2
AcDbMaterial
  3
ObjectDBX Classes
 90
     1153
 91
        4
280
     0
281
     0
  0
ENDSEC
  0
SECTION
  2
TABLES
  0
TABLE
  2
VPORT
  5
8
330
0
100
AcDbSymbolTable
 70
     1
  0
VPORT
  5
29
330
8
100
AcDbSymbolTableRecord
100
AcDbViewportTableRecord
  2
*Active
 70
     0
 10
0.0
 20
0.0
 11
1.0
 21
1.0
 12
10.42990654205607
 22
4.5
 13
0.0
 23
0.0
 14
0.5
 24
0.5
 15
0.5
 25
0.5
 16
0.0
 26
0.0
 36
1.0
 17
0.0
 27
0.0
 37
0.0
 40
9.0
 41
1.972972972850329
 42
50.0
 43
0.0
 44
0.0
 50
0.0
 51
0.0
 71
     0
 72
   100
 73
     1
 74
     3
 75
     0
 76
     0
 77
     0
 78
     0
281
     0
 65
     1
110
0.0
120
0.0
130
0.0
111
1.0
121
0.0
131
0.0
112
0.0
122
1.0
132
0.0
 79
     0
146
0.0
 60
     3
 61
     5
292
     1
282
     1
141
0.0
142
0.0
 63
   250
  0
ENDTAB
  0
TABLE
  2
LTYPE
  5
5
330
0
100
AcDbSymbolTable
 70
     1
  0
LTYPE
  5
14
330
5
100
AcDbSymbolTableRecord
100
AcDbLinetypeTableRecord
  2
ByBlock
 70
     0
  3

 72
    65
 73
     0
 40
0.0
  0
LTYPE
  5
15
330
5
100
AcDbSymbolTableRecord
100
AcDbLinetypeTableRecord
  2
ByLayer
 70
     0
  3

 72
    65
 73
     0
 40
0.0
  0
LTYPE
  5
16
330
5
100
AcDbSymbolTableRecord
100
AcDbLinetypeTableRecord
  2
Continuous
 70
     0
  3
Solid line
 72
    65
 73
     0
 40
0.0
  0
ENDTAB
  0
TABLE
  2
LAYER
  5
2
330
0
100
AcDbSymbolTable
 70
     2
  0
LAYER
  5
10
330
2
100
AcDbSymbolTableRecord
100
AcDbLayerTableRecord
  2
0
 70
     0
 62
     7
  6
Continuous
370
    -3
390
F
347
3E
  0
LAYER
  5
40
330
2
100
AcDbSymbolTableRecord
100
AcDbLayerTableRecord
  2
layer 1
 70
     0
 62
     7
  6
Continuous
370
    -3
390
F
347
3E
  0
ENDTAB
  0
TABLE
  2
STYLE
  5
3
330
0
100
AcDbSymbolTable
 70
     1
  0
STYLE
  5
11
330
3
100
AcDbSymbolTableRecord
100
AcDbTextStyleTableRecord
  2
Standard
 70
     0
 40
0.0
 41
1.0
 50
0.0
 71
     0
 42
0.2
  3
txt
  4

  0
ENDTAB
  0
TABLE
  2
VIEW
  5
6
330
0
100
AcDbSymbolTable
 70
     0
  0
ENDTAB
  0
TABLE
  2
UCS
  5
7
330
0
100
AcDbSymbolTable
 70
     0
  0
ENDTAB
  0
TABLE
  2
APPID
  5
9
330
0
100
AcDbSymbolTable
 70
     2
  0
APPID
  5
12
330
9
100
AcDbSymbolTableRecord
100
AcDbRegAppTableRecord
  2
ACAD
 70
     0
  0
APPID
  5
3F
330
9
100
AcDbSymbolTableRecord
100
AcDbRegAppTableRecord
  2
ODA
 70
     0
  0
ENDTAB
  0
TABLE
  2
DIMSTYLE
  5
A
330
0
100
AcDbSymbolTable
 70
     1
100
AcDbDimStyleTable
  0
DIMSTYLE
105
27
330
A
100
AcDbSymbolTableRecord
100
AcDbDimStyleTableRecord
  2
Standard
 70
     0
178
     0
340
11
  0
ENDTAB
  0
TABLE
  2
BLOCK_RECORD
  5
1
330
0
100
AcDbSymbolTable
 70
     1
  0
BLOCK_RECORD
  5
1F
330
1
100
AcDbSymbolTableRecord
100
AcDbBlockTableRecord
  2
*Model_Space
340
22
 70
     0
280
     1
281
     0
  0
BLOCK_RECORD
  5
1B
330
1
100
AcDbSymbolTableRecord
100
AcDbBlockTableRecord
  2
*Paper_Space
340
1E
 70
     0
280
     1
281
     0
  0
BLOCK_RECORD
  5
23
330
1
100
AcDbSymbolTableRecord
100
AcDbBlockTableRecord
  2
*Paper_Space0
340
26
 70
     0
280
     1
281
     0
  0
ENDTAB
  0
ENDSEC
  0
SECTION
  2
BLOCKS
  0
BLOCK
  5
20
330
1F
100
AcDbEntity
  8
0
100
AcDbBlockBegin
  2
*Model_Space
 70
     0
 10
0.0
 20
0.0
 30
0.0
  3
*Model_Space
  1

  0
ENDBLK
  5
21
330
1F
100
AcDbEntity
  8
0
100
AcDbBlockEnd
  0
BLOCK
  5
1C
330
1B
100
AcDbEntity
 67
     1
  8
0
100
AcDbBlockBegin
  2
*Paper_Space
 70
     0
 10
0.0
 20
0.0
 30
0.0
  3
*Paper_Space
  1

  0
ENDBLK
  5
1D
330
1B
100
AcDbEntity
 67
     1
  8
0
100
AcDbBlockEnd
  0
BLOCK
  5
24
330
23
100
AcDbEntity
  8
0
100
AcDbBlockBegin
  2
*Paper_Space0
 70
     0
 10
0.0
 20
0.0
 30
0.0
  3
*Paper_Space0
  1

  0
ENDBLK
  5
25
330
23
100
AcDbEntity
  8
0
100
AcDbBlockEnd
  0
ENDSEC
  0
SECTION
  2
ENTITIES
  0
LWPOLYLINE
  5
41
330
1F
100
AcDbEntity
  8
layer 1
 62
   250
100
AcDbPolyline
 90
        5
 70
     1
 43
0.0
 10
80.6691
 20
-96.5962
 10
196.2355
 20
-96.5962
 10
196.2355
 20
101.8154
 10
80.6691
 20
101.8154
 10
80.6691
 20
-96.5962
  0
SPLINE
  5
42
330
1F
100
AcDbEntity
  8
layer 1
 62
     7
100
AcDbSpline
210
0.0
220
0.0
230
1.0
 70
    11
 71
     3
 72
    32
 73
    28
 74
     0
 42
0.0000000001
 43
0.0000000001
 12
1.0
 22
0.0
 32
0.0
 13
1.0
 23
0.0
 33
0.0
 40
0.0
 40
0.0
 40
0.0
 40
0.0
 40
0.125
 40
0.125
 40
0.125
 40
0.125
 40
0.25
 40
0.25
 40
0.25
 40
0.25
 40
0.375
 40
0.375
 40
0.375
 40
0.375
 40
0.5
 40
0.5
 40
0.5
 40
0.5
 40
0.625
 40
0.625
 40
0.625
 40
0.625
 40
0.75
 40
0.75
 40
0.75
 40
0.75
 40
1.0
 40
1.0
 40
1.0
 40
1.0
 10
106.3622
 20
53.1181
 30
0.0
 10
106.3622
 20
53.1181
 30
0.0
 10
106.3663
 20
53.1215
 30
0.0
 10
106.3663
 20
53.1215
 30
0.0
 10
106.3663
 20
53.1215
 30
0.0
 10
106.3663
 20
53.1215
 30
0.0
 10
106.3663
 20
53.1281
 30
0.0
 10
106.3663
 20
53.1281
 30
0.0
 10
106.3663
 20
53.1281
 30
0.0
 10
106.3663
 20
53.1281
 30
0.0
 10
101.5475
 20
57.6747
 30
0.0
 10
101.5475
 20
57.6747
 30
0.0
 10
101.5475
 20
57.6747
 30
0.0
 10
101.5475
 20
57.6747
 30
0.0
 10
96.7289
 20
53.1281
 30
0.0
 10
96.7289
 20
53.1281
 30
0.0
 10
96.7289
 20
53.1281
 30
0.0
 10
96.7289
 20
53.1281
 30
0.0
 10
96.733
 20
53.1182
 30
0.0
 10
96.733
 20
53.1182
 30
0.0
 10
96.733
 20
53.1182
 30
0.0
 10
96.733
 20
53.1182
 30
0.0
 10
101.5475
 20
48.5754
 30
0.0
 10
101.5475
 20
48.5754
 30
0.0
 10
101.5475
 20
48.5754
 30
0.0
 10
101.5475
 20
48.5754
 30
0.0
 10
106.3622
 20
53.1181
 30
0.0
 10
106.3622
 20
53.1181
 30
0.0
  0
SPLINE
  5
43
330
1F
100
AcDbEntity
  8
layer 1
 62
     7
100
AcDbSpline
210
0.0
220
0.0
230
1.0
 70
    11
 71
     3
 72
    24
 73
    20
 74
     0
 42
0.0000000001
 43
0.0000000001
 12
1.0
 22
0.0
 32
0.0
 13
1.0
 23
0.0
 33
0.0
 40
0.0
 40
0.0
 40
0.0
 40
0.0
 40
0.1666666666666667
 40
0.1666666666666667
 40
0.1666666666666667
 40
0.1666666666666667
 40
0.3333333333333333
 40
0.3333333333333333
 40
0.3333333333333333
 40
0.3333333333333333
 40
0.5
 40
0.5
 40
0.5
 40
0.5
 40
0.6666666666666666
 40
0.6666666666666666
 40
0.6666666666666666
 40
0.6666666666666666
 40
1.0
 40
1.0
 40
1.0
 40
1.0
 10
106.3616
 20
38.869
 30
0.0
 10
106.3616
 20
38.869
 30
0.0
 10
101.5475
 20
34.3011
 30
0.0
 10
101.5475
 20
34.3011
 30
0.0
 10
101.5475
 20
34.3011
 30
0.0
 10
101.5475
 20
34.3011
 30
0.0
 10
96.7336
 20
38.844
 30
0.0
 10
96.7336
 20
38.844
 30
0.0
 10
96.7336
 20
38.844
 30
0.0
 10
96.7336
 20
38.844
 30
0.0
 10
96.7267
 20
38.8627
 30
0.0
 10
96.7267
 20
38.8627
 30
0.0
 10
96.7267
 20
38.8627
 30
0.0
 10
96.7267
 20
38.8627
 30
0.0
 10
101.5475
 20
43.4119
 30
0.0
 10
101.5475
 20
43.4119
 30
0.0
 10
101.5475
 20
43.4119
 30
0.0
 10
101.5475
 20
43.4119
 30
0.0
 10
106.3616
 20
38.869
 30
0.0
 10
106.3616
 20
38.869
 30
0.0
  0
SPLINE
  5
44
330
1F
100
AcDbEntity
  8
layer 1
 62
     7
100
AcDbSpline
210
0.0
220
0.0
230
1.0
 70
    11
 71
     3
 72
    20
 73
    16
 74
     0
 42
0.0000000001
 43
0.0000000001
 12
1.0
 22
0.0
 32
0.0
 13
1.0
 23
0.0
 33
0.0
 40
0.0
 40
0.0
 40
0.0
 40
0.0
 40
0.2
 40
0.2
 40
0.2
 40
0.2
 40
0.4
 40
0.4
 40
0.4
 40
0.4
 40
0.6
 40
0.6
 40
0.6
 40
0.6
 40
1.0
 40
1.0
 40
1.0
 40
1.0
 10
108.4977
 20
50.8153
 30
0.0
 10
108.4977
 20
50.8153
 30
0.0
 10
103.6838
 20
46.2725
 30
0.0
 10
103.6838
 20
46.2725
 30
0.0
 10
103.6838
 20
46.2725
 30
0.0
 10
103.6838
 20
46.2725
 30
0.0
 10
108.4977
 20
41.7296
 30
0.0
 10
108.4977
 20
41.7296
 30
0.0
 10
108.4977
 20
41.7296
 30
0.0
 10
108.4977
 20
41.7296
 30
0.0
 10
113.312
 20
46.2725
 30
0.0
 10
113.312
 20
46.2725
 30
0.0
 10
113.312
 20
46.2725
 30
0.0
 10
113.312
 20
46.2725
 30
0.0
 10
108.4977
 20
50.8153
 30
0.0
 10
108.4977
 20
50.8153
 30
0.0
  0
SPLINE
  5
45
330
1F
100
AcDbEntity
  8
layer 1
 62
     7
100
AcDbSpline
210
0.0
220
0.0
230
1.0
 70
    11
 71
     3
 72
    20
 73
    16
 74
     0
 42
0.0000000001
 43
0.0000000001
 12
1.0
 22
0.0
 32
0.0
 13
1.0
 23
0.0
 33
0.0
 40
0.0
 40
0.0
 40
0.0
 40
0.0
 40
0.2
 40
0.2
 40
0.2
 40
0.2
 40
0.4
 40
0.4
 40
0.4
 40
0.4
 40
0.6
 40
0.6
 40
0.6
 40
0.6
 40
1.0
 40
1.0
 40
1.0
 40
1.0
 10
111.1198
 20
53.125
 30
0.0
 10
111.1198
 20
53.125
 30
0.0
 10
115.9137
 20
57.6487
 30
0.0
 10
115.9137
 20
57.6487
 30
0.0
 10
115.9137
 20
57.6487
 30
0.0
 10
115.9137
 20
57.6487
 30
0.0
 10
120.7074
 20
53.125
 30
0.0
 10
120.7074
 20
53.125
 30
0.0
 10
120.7074
 20
53.125
 30
0.0
 10
120.7074
 20
53.125
 30
0.0
 10
115.9137
 20
48.6015
 30
0.0
 10
115.9137
 20
48.6015
 30
0.0
 10
115.9137
 20
48.6015
 30
0.0
 10
115.9137
 20
48.6015
 30
0.0
 10
111.1198
 20
53.125
 30
0.0
 10
111.1198
 20
53.125
 30
0.0
  0
SPLINE
  5
46
330
1F
100
AcDbEntity
  8
layer 1
 62
     7
100
AcDbSpline
210
0.0
220
0.0
230
1.0
 70
    11
 71
     3
 72
    20
 73
    16
 74
     0
 42
0.0000000001
 43
0.0000000001
 12
1.0
 22
0.0
 32
0.0
 13
1.0
 23
0.0
 33
0.0
 40
0.0
 40
0.0
 40
0.0
 40
0.0
 40
0.2
 40
0.2
 40
0.2
 40
0.2
 40
0.4
 40
0.4
 40
0.4
 40
0.4
 40
0.6
 40
0.6
 40
0.6
 40
0.6
 40
1.0
 40
1.0
 40
1.0
 40
1.0
 10
120.7192
 20
38.8445
 30
0.0
 10
120.7192
 20
38.8445
 30
0.0
 10
115.9138
 20
43.4035
 30
0.0
 10
115.9138
 20
43.4035
 30
0.0
 10
115.9138
 20
43.4035
 30
0.0
 10
115.9138
 20
43.4035
 30
0.0
 10
111.1082
 20
38.8445
 30
0.0
 10
111.1082
 20
38.8445
 30
0.0
 10
111.1082
 20
38.8445
 30
0.0
 10
111.1082
 20
38.8445
 30
0.0
 10
115.9138
 20
34.31
 30
0.0
 10
115.9138
 20
34.31
 30
0.0
 10
115.9138
 20
34.31
 30
0.0
 10
115.9138
 20
34.31
 30
0.0
 10
120.7192
 20
38.8445
 30
0.0
 10
120.7192
 20
38.8445
 30
0.0
  0
SPLINE
  5
47
330
1F
100
AcDbEntity
  8
layer 1
 62
     7
100
AcDbSpline
210
0.0
220
0.0
230
1.0
 70
    11
 71
     3
 72
    28
 73
    24
 74
     0
 42
0.0000000001
 43
0.0000000001
 12
1.0
 22
0.0
 32
0.0
 13
1.0
 23
0.0
 33
0.0
 40
0.0
 40
0.0
 40
0.0
 40
0.0
 40
0.1428571428571428
 40
0.1428571428571428
 40
0.1428571428571428
 40
0.1428571428571428
 40
0.2857142857142857
 40
0.2857142857142857
 40
0.2857142857142857
 40
0.2857142857142857
 40
0.4285714285714285
 40
0.4285714285714285
 40
0.4285714285714285
 40
0.4285714285714285
 40
0.5714285714285714
 40
0.5714285714285714
 40
0.5714285714285714
 40
0.5714285714285714
 40
0.7142857142857143
 40
0.7142857142857143
 40
0.7142857142857143
 40
0.7142857142857143
 40
1.0
 40
1.0
 40
1.0
 40
1.0
 10
135.0938
 20
38.844
 30
0.0
 10
135.0938
 20
38.844
 30
0.0
 10
130.2799
 20
43.4119
 30
0.0
 10
130.2799
 20
43.4119
 30
0.0
 10
130.2799
 20
43.4119
 30
0.0
 10
130.2799
 20
43.4119
 30
0.0
 10
125.4521
 20
38.8565
 30
0.0
 10
125.4521
 20
38.8565
 30
0.0
 10
125.4521
 20
38.8565
 30
0.0
 10
125.4521
 20
38.8565
 30
0.0
 10
125.4589
 20
38.8627
 30
0.0
 10
125.4589
 20
38.8627
 30
0.0
 10
125.4589
 20
38.8627
 30
0.0
 10
125.4589
 20
38.8627
 30
0.0
 10
125.4657
 20
38.844
 30
0.0
 10
125.4657
 20
38.844
 30
0.0
 10
125.4657
 20
38.844
 30
0.0
 10
125.4657
 20
38.844
 30
0.0
 10
130.2799
 20
34.3012
 30
0.0
 10
130.2799
 20
34.3012
 30
0.0
 10
130.2799
 20
34.3012
 30
0.0
 10
130.2799
 20
34.3012
 30
0.0
 10
135.0938
 20
38.844
 30
0.0
 10
135.0938
 20
38.844
 30
0.0
  0
SPLINE
  5
48
330
1F
100
AcDbEntity
  8
layer 1
 62
     7
100
AcDbSpline
210
0.0
220
0.0
230
1.0
 70
    11
 71
     3
 72
    20
 73
    16
 74
     0
 42
0.0000000001
 43
0.0000000001
 12
1.0
 22
0.0
 32
0.0
 13
1.0
 23
0.0
 33
0.0
 40
0.0
 40
0.0
 40
0.0
 40
0.0
 40
0.2
 40
0.2
 40
0.2
 40
0.2
 40
0.4
 40
0.4
 40
0.4
 40
0.4
 40
0.6
 40
0.6
 40
0.6
 40
0.6
 40
1.0
 40
1.0
 40
1.0
 40
1.0
 10
123.3295
 20
50.8153
 30
0.0
 10
123.3295
 20
50.8153
 30
0.0
 10
128.1435
 20
46.2725
 30
0.0
 10
128.1435
 20
46.2725
 30
0.0
 10
128.1435
 20
46.2725
 30
0.0
 10
128.1435
 20
46.2725
 30
0.0
 10
123.3295
 20
41.7296
 30
0.0
 10
123.3295
 20
41.7296
 30
0.0
 10
123.3295
 20
41.7296
 30
0.0
 10
123.3295
 20
41.7296
 30
0.0
 10
118.5154
 20
46.2725
 30
0.0
 10
118.5154
 20
46.2725
 30
0.0
 10
118.5154
 20
46.2725
 30
0.0
 10
118.5154
 20
46.2725
 30
0.0
 10
123.3295
 20
50.8153
 30
0.0
 10
123.3295
 20
50.8153
 30
0.0
  0
SPLINE
  5
49
330
1F
100
AcDbEntity
  8
layer 1
 62
     7
100
AcDbSpline
210
0.0
220
0.0
230
1.0
 70
    11
 71
     3
 72
    20
 73
    16
 74
     0
 42
0.0000000001
 43
0.0000000001
 12
1.0
 22
0.0
 32
0.0
 13
1.0
 23
0.0
 33
0.0
 40
0.0
 40
0.0
 40
0.0
 40
0.0
 40
0.2
 40
0.2
 40
0.2
 40
0.2
 40
0.4
 40
0.4
 40
0.4
 40
0.4
 40
0.6
 40
0.6
 40
0.6
 40
0.6
 40
1.0
 40
1.0
 40
1.0
 40
1.0
 10
137.2299
 20
50.8153
 30
0.0
 10
137.2299
 20
50.8153
 30
0.0
 10
132.416
 20
46.2725
 30
0.0
 10
132.416
 20
46.2725
 30
0.0
 10
132.416
 20
46.2725
 30
0.0
 10
132.416
 20
46.2725
 30
0.0
 10
137.2299
 20
41.7296
 30
0.0
 10
137.2299
 20
41.7296
 30
0.0
 10
137.2299
 20
41.7296
 30
0.0
 10
137.2299
 20
41.7296
 30
0.0
 10
142.044
 20
46.2725
 30
0.0
 10
142.044
 20
46.2725
 30
0.0
 10
142.044
 20
46.2725
 30
0.0
 10
142.044
 20
46.2725
 30
0.0
 10
137.2299
 20
50.8153
 30
0.0
 10
137.2299
 20
50.8153
 30
0.0
  0
SPLINE
  5
4A
330
1F
100
AcDbEntity
  8
layer 1
 62
     7
100
AcDbSpline
210
0.0
220
0.0
230
1.0
 70
    11
 71
     3
 72
    20
 73
    16
 74
     0
 42
0.0000000001
 43
0.0000000001
 12
1.0
 22
0.0
 32
0.0
 13
1.0
 23
0.0
 33
0.0
 40
0.0
 40
0.0
 40
0.0
 40
0.0
 40
0.2
 40
0.2
 40
0.2
 40
0.2
 40
0.4
 40
0.4
 40
0.4
 40
0.4
 40
0.6
 40
0.6
 40
0.6
 40
0.6
 40
1.0
 40
1.0
 40
1.0
 40
1.0
 10
139.8518
 20
53.125
 30
0.0
 10
139.8518
 20
53.125
 30
0.0
 10
144.6456
 20
57.6487
 30
0.0
 10
144.6456
 20
57.6487
 30
0.0
 10
144.6456
 20
57.6487
 30
0.0
 10
144.6456
 20
57.6487
 30
0.0
 10
149.4397
 20
53.125
 30
0.0
 10
149.4397
 20
53.125
 30
0.0
 10
149.4397
 20
53.125
 30
0.0
 10
149.4397
 20
53.125
 30
0.0
 10
144.6456
 20
48.6015
 30
0.0
 10
144.6456
 20
48.6015
 30
0.0
 10
144.6456
 20
48.6015
 30
0.0
 10
144.6456
 20
48.6015
 30
0.0
 10
139.8518
 20
53.125
 30
0.0
 10
139.8518
 20
53.125
 30
0.0
  0
SPLINE
  5
4B
330
1F
100
AcDbEntity
  8
layer 1
 62
     7
100
AcDbSpline
210
0.0
220
0.0
230
1.0
 70
    11
 71
     3
 72
    20
 73
    16
 74
     0
 42
0.0000000001
 43
0.0000000001
 12
1.0
 22
0.0
 32
0.0
 13
1.0
 23
0.0
 33
0.0
 40
0.0
 40
0.0
 40
0.0
 40
0.0
 40
0.2
 40
0.2
 40
0.2
 40
0.2
 40
0.4
 40
0.4
 40
0.4
 40
0.4
 40
0.6
 40
0.6
 40
0.6
 40
0.6
 40
1.0
 40
1.0
 40
1.0
 40
1.0
 10
163.8264
 20
53.1318
 30
0.0
 10
163.8264
 20
53.1318
 30
0.0
 10
159.0118
 20
48.5754
 30
0.0
 10
159.0118
 20
48.5754
 30
0.0
 10
159.0118
 20
48.5754
 30
0.0
 10
159.0118
 20
48.5754
 30
0.0
 10
154.1969
 20
53.1182
 30
0.0
 10
154.1969
 20
53.1182
 30
0.0
 10
154.1969
 20
53.1182
 30
0.0
 10
154.1969
 20
53.1182
 30
0.0
 10
159.0118
 20
57.6747
 30
0.0
 10
159.0118
 20
57.6747
 30
0.0
 10
159.0118
 20
57.6747
 30
0.0
 10
159.0118
 20
57.6747
 30
0.0
 10
163.8264
 20
53.1318
 30
0.0
 10
163.8264
 20
53.1318
 30
0.0
  0
SPLINE
  5
4C
330
1F
100
AcDbEntity
  8
layer 1
 62
     7
100
AcDbSpline
210
0.0
220
0.0
230
1.0
 70
    11
 71
     3
 72
    20
 73
    16
 74
     0
 42
0.0000000001
 43
0.0000000001
 12
1.0
 22
0.0
 32
0.0
 13
1.0
 23
0.0
 33
0.0
 40
0.0
 40
0.0
 40
0.0
 40
0.0
 40
0.2
 40
0.2
 40
0.2
 40
0.2
 40
0.4
 40
0.4
 40
0.4
 40
0.4
 40
0.6
 40
0.6
 40
0.6
 40
0.6
 40
1.0
 40
1.0
 40
1.0
 40
1.0
 10
152.0615
 20
50.8153
 30
0.0
 10
152.0615
 20
50.8153
 30
0.0
 10
156.8755
 20
46.2725
 30
0.0
 10
156.8755
 20
46.2725
 30
0.0
 10
156.8755
 20
46.2725
 30
0.0
 10
156.8755
 20
46.2725
 30
0.0
 10
152.0615
 20
41.7296
 30
0.0
 10
152.0615
 20
41.7296
 30
0.0
 10
152.0615
 20
41.7296
 30
0.0
 10
152.0615
 20
41.7296
 30
0.0
 10
147.2476
 20
46.2725
 30
0.0
 10
147.2476
 20
46.2725
 30
0.0
 10
147.2476
 20
46.2725
 30
0.0
 10
147.2476
 20
46.2725
 30
0.0
 10
152.0615
 20
50.8153
 30
0.0
 10
152.0615
 20
50.8153
 30
0.0
  0
SPLINE
  5
4D
330
1F
100
AcDbEntity
  8
layer 1
 62
     7
100
AcDbSpline
210
0.0
220
0.0
230
1.0
 70
    11
 71
     3
 72
    28
 73
    24
 74
     0
 42
0.0000000001
 43
0.0000000001
 12
1.0
 22
0.0
 32
0.0
 13
1.0
 23
0.0
 33
0.0
 40
0.0
 40
0.0
 40
0.0
 40
0.0
 40
0.1428571428571428
 40
0.1428571428571428
 40
0.1428571428571428
 40
0.1428571428571428
 40
0.2857142857142857
 40
0.2857142857142857
 40
0.2857142857142857
 40
0.2857142857142857
 40
0.4285714285714285
 40
0.4285714285714285
 40
0.4285714285714285
 40
0.4285714285714285
 40
0.5714285714285714
 40
0.5714285714285714
 40
0.5714285714285714
 40
0.5714285714285714
 40
0.7142857142857143
 40
0.7142857142857143
 40
0.7142857142857143
 40
0.7142857142857143
 40
1.0
 40
1.0
 40
1.0
 40
1.0
 10
163.8259
 20
38.8691
 30
0.0
 10
163.8259
 20
38.8691
 30
0.0
 10
159.0118
 20
34.3012
 30
0.0
 10
159.0118
 20
34.3012
 30
0.0
 10
159.0118
 20
34.3012
 30
0.0
 10
159.0118
 20
34.3012
 30
0.0
 10
154.1979
 20
38.844
 30
0.0
 10
154.1979
 20
38.844
 30
0.0
 10
154.1979
 20
38.844
 30
0.0
 10
154.1979
 20
38.844
 30
0.0
 10
154.1911
 20
38.8627
 30
0.0
 10
154.1911
 20
38.8627
 30
0.0
 10
154.1911
 20
38.8627
 30
0.0
 10
154.1911
 20
38.8627
 30
0.0
 10
154.1979
 20
38.8691
 30
0.0
 10
154.1979
 20
38.8691
 30
0.0
 10
154.1979
 20
38.8691
 30
0.0
 10
154.1979
 20
38.8691
 30
0.0
 10
159.0118
 20
43.4119
 30
0.0
 10
159.0118
 20
43.4119
 30
0.0
 10
159.0118
 20
43.4119
 30
0.0
 10
159.0118
 20
43.4119
 30
0.0
 10
163.8259
 20
38.8691
 30
0.0
 10
163.8259
 20
38.8691
 30
0.0
  0
SPLINE
  5
4E
330
1F
100
AcDbEntity
  8
layer 1
 62
     7
100
AcDbSpline
210
0.0
220
0.0
230
1.0
 70
    11
 71
     3
 72
    20
 73
    16
 74
     0
 42
0.0000000001
 43
0.0000000001
 12
1.0
 22
0.0
 32
0.0
 13
1.0
 23
0.0
 33
0.0
 40
0.0
 40
0.0
 40
0.0
 40
0.0
 40
0.2
 40
0.2
 40
0.2
 40
0.2
 40
0.4
 40
0.4
 40
0.4
 40
0.4
 40
0.6
 40
0.6
 40
0.6
 40
0.6
 40
1.0
 40
1.0
 40
1.0
 40
1.0
 10
165.9622
 20
50.8153
 30
0.0
 10
165.9622
 20
50.8153
 30
0.0
 10
161.1478
 20
46.2725
 30
0.0
 10
161.1478
 20
46.2725
 30
0.0
 10
161.1478
 20
46.2725
 30
0.0
 10
161.1478
 20
46.2725
 30
0.0
 10
165.9622
 20
41.7296
 30
0.0
 10
165.9622
 20
41.7296
 30
0.0
 10
165.9622
 20
41.7296
 30
0.0
 10
165.9622
 20
41.7296
 30
0.0
 10
170.7762
 20
46.2725
 30
0.0
 10
170.7762
 20
46.2725
 30
0.0
 10
170.7762
 20
46.2725
 30
0.0
 10
170.7762
 20
46.2725
 30
0.0
 10
165.9622
 20
50.8153
 30
0.0
 10
165.9622
 20
50.8153
 30
0.0
  0
SPLINE
  5
4F
330
1F
100
AcDbEntity
  8
layer 1
 62
     7
100
AcDbSpline
210
0.0
220
0.0
230
1.0
 70
    11
 71
     3
 72
    20
 73
    16
 74
     0
 42
0.0000000001
 43
0.0000000001
 12
1.0
 22
0.0
 32
0.0
 13
1.0
 23
0.0
 33
0.0
 40
0.0
 40
0.0
 40
0.0
 40
0.0
 40
0.2
 40
0.2
 40
0.2
 40
0.2
 40
0.4
 40
0.4
 40
0.4
 40
0.4
 40
0.6
 40
0.6
 40
0.6
 40
0.6
 40
1.0
 40
1.0
 40
1.0
 40
1.0
 10
168.5842
 20
53.125
 30
0.0
 10
168.5842
 20
53.125
 30
0.0
 10
173.3777
 20
57.6487
 30
0.0
 10
173.3777
 20
57.6487
 30
0.0
 10
173.3777
 20
57.6487
 30
0.0
 10
173.3777
 20
57.6487
 30
0.0
 10
178.1715
 20
53.125
 30
0.0
 10
178.1715
 20
53.125
 30
0.0
 10
178.1715
 20
53.125
 30
0.0
 10
178.1715
 20
53.125
 30
0.0
 10
173.3777
 20
48.6015
 30
0.0
 10
173.3777
 20
48.6015
 30
0.0
 10
173.3777
 20
48.6015
 30
0.0
 10
173.3777
 20
48.6015
 30
0.0
 10
168.5842
 20
53.125
 30
0.0
 10
168.5842
 20
53.125
 30
0.0
  0
SPLINE
  5
50
330
1F
100
AcDbEntity
  8
layer 1
 62
     7
100
AcDbSpline
210
0.0
220
0.0
230
1.0
 70
    11
 71
     3
 72
    20
 73
    16
 74
     0
 42
0.0000000001
 43
0.0000000001
 12
1.0
 22
0.0
 32
0.0
 13
1.0
 23
0.0
 33
0.0
 40
0.0
 40
0.0
 40
0.0
 40
0.0
 40
0.2
 40
0.2
 40
0.2
 40
0.2
 40
0.4
 40
0.4
 40
0.4
 40
0.4
 40
0.6
 40
0.6
 40
0.6
 40
0.6
 40
1.0
 40
1.0
 40
1.0
 40
1.0
 10
180.7938
 20
50.8153
 30
0.0
 10
180.7938
 20
50.8153
 30
0.0
 10
185.6078
 20
46.2725
 30
0.0
 10
185.6078
 20
46.2725
 30
0.0
 10
185.6078
 20
46.2725
 30
0.0
 10
185.6078
 20
46.2725
 30
0.0
 10
180.7938
 20
41.7296
 30
0.0
 10
180.7938
 20
41.7296
 30
0.0
 10
180.7938
 20
41.7296
 30
0.0
 10
180.7938
 20
41.7296
 30
0.0
 10
175.9799
 20
46.2725
 30
0.0
 10
175.9799
 20
46.2725
 30
0.0
 10
175.9799
 20
46.2725
 30
0.0
 10
175.9799
 20
46.2725
 30
0.0
 10
180.7938
 20
50.8153
 30
0.0
 10
180.7938
 20
50.8153
 30
0.0
  0
SPLINE
  5
51
330
1F
100
AcDbEntity
  8
layer 1
 62
     7
100
AcDbSpline
210
0.0
220
0.0
230
1.0
 70
    11
 71
     3
 72
    20
 73
    16
 74
     0
 42
0.0000000001
 43
0.0000000001
 12
1.0
 22
0.0
 32
0.0
 13
1.0
 23
0.0
 33
0.0
 40
0.0
 40
0.0
 40
0.0
 40
0.0
 40
0.2
 40
0.2
 40
0.2
 40
0.2
 40
0.4
 40
0.4
 40
0.4
 40
0.4
 40
0.6
 40
0.6
 40
0.6
 40
0.6
 40
1.0
 40
1.0
 40
1.0
 40
1.0
 10
108.4977
 20
26.8977
 30
0.0
 10
108.4977
 20
26.8977
 30
0.0
 10
103.6838
 20
31.441
 30
0.0
 10
103.6838
 20
31.441
 30
0.0
 10
103.6838
 20
31.441
 30
0.0
 10
103.6838
 20
31.441
 30
0.0
 10
108.4977
 20
35.9838
 30
0.0
 10
108.4977
 20
35.9838
 30
0.0
 10
108.4977
 20
35.9838
 30
0.0
 10
108.4977
 20
35.9838
 30
0.0
 10
113.312
 20
31.441
 30
0.0
 10
113.312
 20
31.441
 30
0.0
 10
113.312
 20
31.441
 30
0.0
 10
113.312
 20
31.441
 30
0.0
 10
108.4977
 20
26.8977
 30
0.0
 10
108.4977
 20
26.8977
 30
0.0
  0
SPLINE
  5
52
330
1F
100
AcDbEntity
  8
layer 1
 62
     7
100
AcDbSpline
210
0.0
220
0.0
230
1.0
 70
    11
 71
     3
 72
    20
 73
    16
 74
     0
 42
0.0000000001
 43
0.0000000001
 12
1.0
 22
0.0
 32
0.0
 13
1.0
 23
0.0
 33
0.0
 40
0.0
 40
0.0
 40
0.0
 40
0.0
 40
0.2
 40
0.2
 40
0.2
 40
0.2
 40
0.4
 40
0.4
 40
0.4
 40
0.4
 40
0.6
 40
0.6
 40
0.6
 40
0.6
 40
1.0
 40
1.0
 40
1.0
 40
1.0
 10
111.1198
 20
24.588
 30
0.0
 10
111.1198
 20
24.588
 30
0.0
 10
115.9137
 20
20.0643
 30
0.0
 10
115.9137
 20
20.0643
 30
0.0
 10
115.9137
 20
20.0643
 30
0.0
 10
115.9137
 20
20.0643
 30
0.0
 10
120.7074
 20
24.588
 30
0.0
 10
120.7074
 20
24.588
 30
0.0
 10
120.7074
 20
24.588
 30
0.0
 10
120.7074
 20
24.588
 30
0.0
 10
115.9137
 20
29.1121
 30
0.0
 10
115.9137
 20
29.1121
 30
0.0
 10
115.9137
 20
29.1121
 30
0.0
 10
115.9137
 20
29.1121
 30
0.0
 10
111.1198
 20
24.588
 30
0.0
 10
111.1198
 20
24.588
 30
0.0
  0
SPLINE
  5
53
330
1F
100
AcDbEntity
  8
layer 1
 62
     7
100
AcDbSpline
210
0.0
220
0.0
230
1.0
 70
    11
 71
     3
 72
    28
 73
    24
 74
     0
 42
0.0000000001
 43
0.0000000001
 12
1.0
 22
0.0
 32
0.0
 13
1.0
 23
0.0
 33
0.0
 40
0.0
 40
0.0
 40
0.0
 40
0.0
 40
0.1428571428571428
 40
0.1428571428571428
 40
0.1428571428571428
 40
0.1428571428571428
 40
0.2857142857142857
 40
0.2857142857142857
 40
0.2857142857142857
 40
0.2857142857142857
 40
0.4285714285714285
 40
0.4285714285714285
 40
0.4285714285714285
 40
0.4285714285714285
 40
0.5714285714285714
 40
0.5714285714285714
 40
0.5714285714285714
 40
0.5714285714285714
 40
0.7142857142857143
 40
0.7142857142857143
 40
0.7142857142857143
 40
0.7142857142857143
 40
1.0
 40
1.0
 40
1.0
 40
1.0
 10
125.4572
 20
24.588
 30
0.0
 10
125.4572
 20
24.588
 30
0.0
 10
130.2799
 20
29.138
 30
0.0
 10
130.2799
 20
29.138
 30
0.0
 10
130.2799
 20
29.138
 30
0.0
 10
130.2799
 20
29.138
 30
0.0
 10
135.1021
 20
24.588
 30
0.0
 10
135.1021
 20
24.588
 30
0.0
 10
135.1021
 20
24.588
 30
0.0
 10
135.1021
 20
24.588
 30
0.0
 10
135.0943
 20
24.5816
 30
0.0
 10
135.0943
 20
24.5816
 30
0.0
 10
135.0943
 20
24.5816
 30
0.0
 10
135.0943
 20
24.5816
 30
0.0
 10
130.2799
 20
20.0383
 30
0.0
 10
130.2799
 20
20.0383
 30
0.0
 10
130.2799
 20
20.0383
 30
0.0
 10
130.2799
 20
20.0383
 30
0.0
 10
125.4651
 20
24.5816
 30
0.0
 10
125.4651
 20
24.5816
 30
0.0
 10
125.4651
 20
24.5816
 30
0.0
 10
125.4651
 20
24.5816
 30
0.0
 10
125.4572
 20
24.588
 30
0.0
 10
125.4572
 20
24.588
 30
0.0
  0
SPLINE
  5
54
330
1F
100
AcDbEntity
  8
layer 1
 62
     7
100
AcDbSpline
210
0.0
220
0.0
230
1.0
 70
    11
 71
     3
 72
    20
 73
    16
 74
     0
 42
0.0000000001
 43
0.0000000001
 12
1.0
 22
0.0
 32
0.0
 13
1.0
 23
0.0
 33
0.0
 40
0.0
 40
0.0
 40
0.0
 40
0.0
 40
0.2
 40
0.2
 40
0.2
 40
0.2
 40
0.4
 40
0.4
 40
0.4
 40
0.4
 40
0.6
 40
0.6
 40
0.6
 40
0.6
 40
1.0
 40
1.0
 40
1.0
 40
1.0
 10
123.3295
 20
26.8977
 30
0.0
 10
123.3295
 20
26.8977
 30
0.0
 10
128.1435
 20
31.441
 30
0.0
 10
128.1435
 20
31.441
 30
0.0
 10
128.1435
 20
31.441
 30
0.0
 10
128.1435
 20
31.441
 30
0.0
 10
123.3295
 20
35.9838
 30
0.0
 10
123.3295
 20
35.9838
 30
0.0
 10
123.3295
 20
35.9838
 30
0.0
 10
123.3295
 20
35.9838
 30
0.0
 10
118.5154
 20
31.441
 30
0.0
 10
118.5154
 20
31.441
 30
0.0
 10
118.5154
 20
31.441
 30
0.0
 10
118.5154
 20
31.441
 30
0.0
 10
123.3295
 20
26.8977
 30
0.0
 10
123.3295
 20
26.8977
 30
0.0
  0
SPLINE
  5
55
330
1F
100
AcDbEntity
  8
layer 1
 62
     7
100
AcDbSpline
210
0.0
220
0.0
230
1.0
 70
    11
 71
     3
 72
    20
 73
    16
 74
     0
 42
0.0000000001
 43
0.0000000001
 12
1.0
 22
0.0
 32
0.0
 13
1.0
 23
0.0
 33
0.0
 40
0.0
 40
0.0
 40
0.0
 40
0.0
 40
0.2
 40
0.2
 40
0.2
 40
0.2
 40
0.4
 40
0.4
 40
0.4
 40
0.4
 40
0.6
 40
0.6
 40
0.6
 40
0.6
 40
1.0
 40
1.0
 40
1.0
 40
1.0
 10
137.2299
 20
26.8977
 30
0.0
 10
137.2299
 20
26.8977
 30
0.0
 10
132.416
 20
31.441
 30
0.0
 10
132.416
 20
31.441
 30
0.0
 10
132.416
 20
31.441
 30
0.0
 10
132.416
 20
31.441
 30
0.0
 10
137.2299
 20
35.9838
 30
0.0
 10
137.2299
 20
35.9838
 30
0.0
 10
137.2299
 20
35.9838
 30
0.0
 10
137.2299
 20
35.9838
 30
0.0
 10
142.044
 20
31.441
 30
0.0
 10
142.044
 20
31.441
 30
0.0
 10
142.044
 20
31.441
 30
0.0
 10
142.044
 20
31.441
 30
0.0
 10
137.2299
 20
26.8977
 30
0.0
 10
137.2299
 20
26.8977
 30
0.0
  0
SPLINE
  5
56
330
1F
100
AcDbEntity
  8
layer 1
 62
     7
100
AcDbSpline
210
0.0
220
0.0
230
1.0
 70
    11
 71
     3
 72
    20
 73
    16
 74
     0
 42
0.0000000001
 43
0.0000000001
 12
1.0
 22
0.0
 32
0.0
 13
1.0
 23
0.0
 33
0.0
 40
0.0
 40
0.0
 40
0.0
 40
0.0
 40
0.2
 40
0.2
 40
0.2
 40
0.2
 40
0.4
 40
0.4
 40
0.4
 40
0.4
 40
0.6
 40
0.6
 40
0.6
 40
0.6
 40
1.0
 40
1.0
 40
1.0
 40
1.0
 10
139.8518
 20
24.588
 30
0.0
 10
139.8518
 20
24.588
 30
0.0
 10
144.6456
 20
20.0643
 30
0.0
 10
144.6456
 20
20.0643
 30
0.0
 10
144.6456
 20
20.0643
 30
0.0
 10
144.6456
 20
20.0643
 30
0.0
 10
149.4397
 20
24.588
 30
0.0
 10
149.4397
 20
24.588
 30
0.0
 10
149.4397
 20
24.588
 30
0.0
 10
149.4397
 20
24.588
 30
0.0
 10
144.6456
 20
29.1121
 30
0.0
 10
144.6456
 20
29.1121
 30
0.0
 10
144.6456
 20
29.1121
 30
0.0
 10
144.6456
 20
29.1121
 30
0.0
 10
139.8518
 20
24.588
 30
0.0
 10
139.8518
 20
24.588
 30
0.0
  0
SPLINE
  5
57
330
1F
100
AcDbEntity
  8
layer 1
 62
     7
100
AcDbSpline
210
0.0
220
0.0
230
1.0
 70
    11
 71
     3
 72
    20
 73
    16
 74
     0
 42
0.0000000001
 43
0.0000000001
 12
1.0
 22
0.0
 32
0.0
 13
1.0
 23
0.0
 33
0.0
 40
0.0
 40
0.0
 40
0.0
 40
0.0
 40
0.2
 40
0.2
 40
0.2
 40
0.2
 40
0.4
 40
0.4
 40
0.4
 40
0.4
 40
0.6
 40
0.6
 40
0.6
 40
0.6
 40
1.0
 40
1.0
 40
1.0
 40
1.0
 10
149.4511
 20
38.8685
 30
0.0
 10
149.4511
 20
38.8685
 30
0.0
 10
144.6455
 20
34.31
 30
0.0
 10
144.6455
 20
34.31
 30
0.0
 10
144.6455
 20
34.31
 30
0.0
 10
144.6455
 20
34.31
 30
0.0
 10
139.8398
 20
38.8685
 30
0.0
 10
139.8398
 20
38.8685
 30
0.0
 10
139.8398
 20
38.8685
 30
0.0
 10
139.8398
 20
38.8685
 30
0.0
 10
144.6455
 20
43.4035
 30
0.0
 10
144.6455
 20
43.4035
 30
0.0
 10
144.6455
 20
43.4035
 30
0.0
 10
144.6455
 20
43.4035
 30
0.0
 10
149.4511
 20
38.8685
 30
0.0
 10
149.4511
 20
38.8685
 30
0.0
  0
SPLINE
  5
58
330
1F
100
AcDbEntity
  8
layer 1
 62
     7
100
AcDbSpline
210
0.0
220
0.0
230
1.0
 70
    11
 71
     3
 72
    28
 73
    24
 74
     0
 42
0.0000000001
 43
0.0000000001
 12
1.0
 22
0.0
 32
0.0
 13
1.0
 23
0.0
 33
0.0
 40
0.0
 40
0.0
 40
0.0
 40
0.0
 40
0.1428571428571428
 40
0.1428571428571428
 40
0.1428571428571428
 40
0.1428571428571428
 40
0.2857142857142857
 40
0.2857142857142857
 40
0.2857142857142857
 40
0.2857142857142857
 40
0.4285714285714285
 40
0.4285714285714285
 40
0.4285714285714285
 40
0.4285714285714285
 40
0.5714285714285714
 40
0.5714285714285714
 40
0.5714285714285714
 40
0.5714285714285714
 40
0.7142857142857143
 40
0.7142857142857143
 40
0.7142857142857143
 40
0.7142857142857143
 40
1.0
 40
1.0
 40
1.0
 40
1.0
 10
163.8342
 20
24.588
 30
0.0
 10
163.8342
 20
24.588
 30
0.0
 10
159.0118
 20
29.138
 30
0.0
 10
159.0118
 20
29.138
 30
0.0
 10
159.0118
 20
29.138
 30
0.0
 10
159.0118
 20
29.138
 30
0.0
 10
154.1891
 20
24.588
 30
0.0
 10
154.1891
 20
24.588
 30
0.0
 10
154.1891
 20
24.588
 30
0.0
 10
154.1891
 20
24.588
 30
0.0
 10
154.1969
 20
24.5816
 30
0.0
 10
154.1969
 20
24.5816
 30
0.0
 10
154.1969
 20
24.5816
 30
0.0
 10
154.1969
 20
24.5816
 30
0.0
 10
159.0118
 20
20.0383
 30
0.0
 10
159.0118
 20
20.0383
 30
0.0
 10
159.0118
 20
20.0383
 30
0.0
 10
159.0118
 20
20.0383
 30
0.0
 10
163.8264
 20
24.5816
 30
0.0
 10
163.8264
 20
24.5816
 30
0.0
 10
163.8264
 20
24.5816
 30
0.0
 10
163.8264
 20
24.5816
 30
0.0
 10
163.8342
 20
24.588
 30
0.0
 10
163.8342
 20
24.588
 30
0.0
  0
SPLINE
  5
59
330
1F
100
AcDbEntity
  8
layer 1
 62
     7
100
AcDbSpline
210
0.0
220
0.0
230
1.0
 70
    11
 71
     3
 72
    20
 73
    16
 74
     0
 42
0.0000000001
 43
0.0000000001
 12
1.0
 22
0.0
 32
0.0
 13
1.0
 23
0.0
 33
0.0
 40
0.0
 40
0.0
 40
0.0
 40
0.0
 40
0.2
 40
0.2
 40
0.2
 40
0.2
 40
0.4
 40
0.4
 40
0.4
 40
0.4
 40
0.6
 40
0.6
 40
0.6
 40
0.6
 40
1.0
 40
1.0
 40
1.0
 40
1.0
 10
152.0615
 20
26.8977
 30
0.0
 10
152.0615
 20
26.8977
 30
0.0
 10
156.8755
 20
31.441
 30
0.0
 10
156.8755
 20
31.441
 30
0.0
 10
156.8755
 20
31.441
 30
0.0
 10
156.8755
 20
31.441
 30
0.0
 10
152.0615
 20
35.9838
 30
0.0
 10
152.0615
 20
35.9838
 30
0.0
 10
152.0615
 20
35.9838
 30
0.0
 10
152.0615
 20
35.9838
 30
0.0
 10
147.2476
 20
31.441
 30
0.0
 10
147.2476
 20
31.441
 30
0.0
 10
147.2476
 20
31.441
 30
0.0
 10
147.2476
 20
31.441
 30
0.0
 10
152.0615
 20
26.8977
 30
0.0
 10
152.0615
 20
26.8977
 30
0.0
  0
SPLINE
  5
5A
330
1F
100
AcDbEntity
  8
layer 1
 62
     7
100
AcDbSpline
210
0.0
220
0.0
230
1.0
 70
    11
 71
     3
 72
    20
 73
    16
 74
     0
 42
0.0000000001
 43
0.0000000001
 12
1.0
 22
0.0
 32
0.0
 13
1.0
 23
0.0
 33
0.0
 40
0.0
 40
0.0
 40
0.0
 40
0.0
 40
0.2
 40
0.2
 40
0.2
 40
0.2
 40
0.4
 40
0.4
 40
0.4
 40
0.4
 40
0.6
 40
0.6
 40
0.6
 40
0.6
 40
1.0
 40
1.0
 40
1.0
 40
1.0
 10
165.9622
 20
26.8977
 30
0.0
 10
165.9622
 20
26.8977
 30
0.0
 10
161.1478
 20
31.441
 30
0.0
 10
161.1478
 20
31.441
 30
0.0
 10
161.1478
 20
31.441
 30
0.0
 10
161.1478
 20
31.441
 30
0.0
 10
165.9622
 20
35.9838
 30
0.0
 10
165.9622
 20
35.9838
 30
0.0
 10
165.9622
 20
35.9838
 30
0.0
 10
165.9622
 20
35.9838
 30
0.0
 10
170.7762
 20
31.441
 30
0.0
 10
170.7762
 20
31.441
 30
0.0
 10
170.7762
 20
31.441
 30
0.0
 10
170.7762
 20
31.441
 30
0.0
 10
165.9622
 20
26.8977
 30
0.0
 10
165.9622
 20
26.8977
 30
0.0
  0
SPLINE
  5
5B
330
1F
100
AcDbEntity
  8
layer 1
 62
     7
100
AcDbSpline
210
0.0
220
0.0
230
1.0
 70
    11
 71
     3
 72
    20
 73
    16
 74
     0
 42
0.0000000001
 43
0.0000000001
 12
1.0
 22
0.0
 32
0.0
 13
1.0
 23
0.0
 33
0.0
 40
0.0
 40
0.0
 40
0.0
 40
0.0
 40
0.2
 40
0.2
 40
0.2
 40
0.2
 40
0.4
 40
0.4
 40
0.4
 40
0.4
 40
0.6
 40
0.6
 40
0.6
 40
0.6
 40
1.0
 40
1.0
 40
1.0
 40
1.0
 10
168.5842
 20
24.588
 30
0.0
 10
168.5842
 20
24.588
 30
0.0
 10
173.3777
 20
20.0643
 30
0.0
 10
173.3777
 20
20.0643
 30
0.0
 10
173.3777
 20
20.0643
 30
0.0
 10
173.3777
 20
20.0643
 30
0.0
 10
178.1715
 20
24.588
 30
0.0
 10
178.1715
 20
24.588
 30
0.0
 10
178.1715
 20
24.588
 30
0.0
 10
178.1715
 20
24.588
 30
0.0
 10
173.3777
 20
29.1121
 30
0.0
 10
173.3777
 20
29.1121
 30
0.0
 10
173.3777
 20
29.1121
 30
0.0
 10
173.3777
 20
29.1121
 30
0.0
 10
168.5842
 20
24.588
 30
0.0
 10
168.5842
 20
24.588
 30
0.0
  0
SPLINE
  5
5C
330
1F
100
AcDbEntity
  8
layer 1
 62
     7
100
AcDbSpline
210
0.0
220
0.0
230
1.0
 70
    11
 71
     3
 72
    20
 73
    16
 74
     0
 42
0.0000000001
 43
0.0000000001
 12
1.0
 22
0.0
 32
0.0
 13
1.0
 23
0.0
 33
0.0
 40
0.0
 40
0.0
 40
0.0
 40
0.0
 40
0.2
 40
0.2
 40
0.2
 40
0.2
 40
0.4
 40
0.4
 40
0.4
 40
0.4
 40
0.6
 40
0.6
 40
0.6
 40
0.6
 40
1.0
 40
1.0
 40
1.0
 40
1.0
 10
178.1834
 20
38.8685
 30
0.0
 10
178.1834
 20
38.8685
 30
0.0
 10
173.3777
 20
34.31
 30
0.0
 10
173.3777
 20
34.31
 30
0.0
 10
173.3777
 20
34.31
 30
0.0
 10
173.3777
 20
34.31
 30
0.0
 10
168.5726
 20
38.8685
 30
0.0
 10
168.5726
 20
38.8685
 30
0.0
 10
168.5726
 20
38.8685
 30
0.0
 10
168.5726
 20
38.8685
 30
0.0
 10
173.3777
 20
43.4035
 30
0.0
 10
173.3777
 20
43.4035
 30
0.0
 10
173.3777
 20
43.4035
 30
0.0
 10
173.3777
 20
43.4035
 30
0.0
 10
178.1834
 20
38.8685
 30
0.0
 10
178.1834
 20
38.8685
 30
0.0
  0
SPLINE
  5
5D
330
1F
100
AcDbEntity
  8
layer 1
 62
     7
100
AcDbSpline
210
0.0
220
0.0
230
1.0
 70
    11
 71
     3
 72
    20
 73
    16
 74
     0
 42
0.0000000001
 43
0.0000000001
 12
1.0
 22
0.0
 32
0.0
 13
1.0
 23
0.0
 33
0.0
 40
0.0
 40
0.0
 40
0.0
 40
0.0
 40
0.2
 40
0.2
 40
0.2
 40
0.2
 40
0.4
 40
0.4
 40
0.4
 40
0.4
 40
0.6
 40
0.6
 40
0.6
 40
0.6
 40
1.0
 40
1.0
 40
1.0
 40
1.0
 10
180.7938
 20
26.8977
 30
0.0
 10
180.7938
 20
26.8977
 30
0.0
 10
185.6078
 20
31.441
 30
0.0
 10
185.6078
 20
31.441
 30
0.0
 10
185.6078
 20
31.441
 30
0.0
 10
185.6078
 20
31.441
 30
0.0
 10
180.7938
 20
35.9838
 30
0.0
 10
180.7938
 20
35.9838
 30
0.0
 10
180.7938
 20
35.9838
 30
0.0
 10
180.7938
 20
35.9838
 30
0.0
 10
175.9799
 20
31.441
 30
0.0
 10
175.9799
 20
31.441
 30
0.0
 10
175.9799
 20
31.441
 30
0.0
 10
175.9799
 20
31.441
 30
0.0
 10
180.7938
 20
26.8977
 30
0.0
 10
180.7938
 20
26.8977
 30
0.0
  0
SPLINE
  5
5E
330
1F
100
AcDbEntity
  8
layer 1
 62
     7
100
AcDbSpline
210
0.0
220
0.0
230
1.0
 70
    11
 71
     3
 72
    32
 73
    28
 74
     0
 42
0.0000000001
 43
0.0000000001
 12
1.0
 22
0.0
 32
0.0
 13
1.0
 23
0.0
 33
0.0
 40
0.0
 40
0.0
 40
0.0
 40
0.0
 40
0.125
 40
0.125
 40
0.125
 40
0.125
 40
0.25
 40
0.25
 40
0.25
 40
0.25
 40
0.375
 40
0.375
 40
0.375
 40
0.375
 40
0.5
 40
0.5
 40
0.5
 40
0.5
 40
0.625
 40
0.625
 40
0.625
 40
0.625
 40
0.75
 40
0.75
 40
0.75
 40
0.75
 40
1.0
 40
1.0
 40
1.0
 40
1.0
 10
106.3622
 20
24.5948
 30
0.0
 10
106.3622
 20
24.5948
 30
0.0
 10
106.3622
 20
24.5948
 30
0.0
 10
106.3622
 20
24.5948
 30
0.0
 10
106.3622
 20
24.5948
 30
0.0
 10
106.3622
 20
24.5948
 30
0.0
 10
101.5475
 20
20.0383
 30
0.0
 10
101.5475
 20
20.0383
 30
0.0
 10
101.5475
 20
20.0383
 30
0.0
 10
101.5475
 20
20.0383
 30
0.0
 10
96.725
 20
24.588
 30
0.0
 10
96.725
 20
24.588
 30
0.0
 10
96.725
 20
24.588
 30
0.0
 10
96.725
 20
24.588
 30
0.0
 10
96.725
 20
24.588
 30
0.0
 10
96.725
 20
24.588
 30
0.0
 10
96.725
 20
24.588
 30
0.0
 10
96.725
 20
24.588
 30
0.0
 10
96.7331
 20
24.5948
 30
0.0
 10
96.7331
 20
24.5948
 30
0.0
 10
96.7331
 20
24.5948
 30
0.0
 10
96.7331
 20
24.5948
 30
0.0
 10
101.5475
 20
29.138
 30
0.0
 10
101.5475
 20
29.138
 30
0.0
 10
101.5475
 20
29.138
 30
0.0
 10
101.5475
 20
29.138
 30
0.0
 10
106.3622
 20
24.5948
 30
0.0
 10
106.3622
 20
24.5948
 30
0.0
  0
SPLINE
  5
5F
330
1F
100
AcDbEntity
  8
layer 1
 62
     7
100
AcDbSpline
210
0.0
220
0.0
230
1.0
 70
    11
 71
     3
 72
    24
 73
    20
 74
     0
 42
0.0000000001
 43
0.0000000001
 12
1.0
 22
0.0
 32
0.0
 13
1.0
 23
0.0
 33
0.0
 40
0.0
 40
0.0
 40
0.0
 40
0.0
 40
0.1666666666666667
 40
0.1666666666666667
 40
0.1666666666666667
 40
0.1666666666666667
 40
0.3333333333333333
 40
0.3333333333333333
 40
0.3333333333333333
 40
0.3333333333333333
 40
0.5
 40
0.5
 40
0.5
 40
0.5
 40
0.6666666666666666
 40
0.6666666666666666
 40
0.6666666666666666
 40
0.6666666666666666
 40
1.0
 40
1.0
 40
1.0
 40
1.0
 10
106.3616
 20
10.3324
 30
0.0
 10
106.3616
 20
10.3324
 30
0.0
 10
101.5475
 20
5.7645
 30
0.0
 10
101.5475
 20
5.7645
 30
0.0
 10
101.5475
 20
5.7645
 30
0.0
 10
101.5475
 20
5.7645
 30
0.0
 10
96.7336
 20
10.3074
 30
0.0
 10
96.7336
 20
10.3074
 30
0.0
 10
96.7336
 20
10.3074
 30
0.0
 10
96.7336
 20
10.3074
 30
0.0
 10
96.7267
 20
10.3261
 30
0.0
 10
96.7267
 20
10.3261
 30
0.0
 10
96.7267
 20
10.3261
 30
0.0
 10
96.7267
 20
10.3261
 30
0.0
 10
101.5475
 20
14.8753
 30
0.0
 10
101.5475
 20
14.8753
 30
0.0
 10
101.5475
 20
14.8753
 30
0.0
 10
101.5475
 20
14.8753
 30
0.0
 10
106.3616
 20
10.3324
 30
0.0
 10
106.3616
 20
10.3324
 30
0.0
  0
SPLINE
  5
60
330
1F
100
AcDbEntity
  8
layer 1
 62
     7
100
AcDbSpline
210
0.0
220
0.0
230
1.0
 70
    11
 71
     3
 72
    20
 73
    16
 74
     0
 42
0.0000000001
 43
0.0000000001
 12
1.0
 22
0.0
 32
0.0
 13
1.0
 23
0.0
 33
0.0
 40
0.0
 40
0.0
 40
0.0
 40
0.0
 40
0.2
 40
0.2
 40
0.2
 40
0.2
 40
0.4
 40
0.4
 40
0.4
 40
0.4
 40
0.6
 40
0.6
 40
0.6
 40
0.6
 40
1.0
 40
1.0
 40
1.0
 40
1.0
 10
108.4977
 20
22.2783
 30
0.0
 10
108.4977
 20
22.2783
 30
0.0
 10
103.6838
 20
17.7354
 30
0.0
 10
103.6838
 20
17.7354
 30
0.0
 10
103.6838
 20
17.7354
 30
0.0
 10
103.6838
 20
17.7354
 30
0.0
 10
108.4977
 20
13.1926
 30
0.0
 10
108.4977
 20
13.1926
 30
0.0
 10
108.4977
 20
13.1926
 30
0.0
 10
108.4977
 20
13.1926
 30
0.0
 10
113.312
 20
17.7354
 30
0.0
 10
113.312
 20
17.7354
 30
0.0
 10
113.312
 20
17.7354
 30
0.0
 10
113.312
 20
17.7354
 30
0.0
 10
108.4977
 20
22.2783
 30
0.0
 10
108.4977
 20
22.2783
 30
0.0
  0
SPLINE
  5
61
330
1F
100
AcDbEntity
  8
layer 1
 62
     7
100
AcDbSpline
210
0.0
220
0.0
230
1.0
 70
    11
 71
     3
 72
    20
 73
    16
 74
     0
 42
0.0000000001
 43
0.0000000001
 12
1.0
 22
0.0
 32
0.0
 13
1.0
 23
0.0
 33
0.0
 40
0.0
 40
0.0
 40
0.0
 40
0.0
 40
0.2
 40
0.2
 40
0.2
 40
0.2
 40
0.4
 40
0.4
 40
0.4
 40
0.4
 40
0.6
 40
0.6
 40
0.6
 40
0.6
 40
1.0
 40
1.0
 40
1.0
 40
1.0
 10
123.3295
 20
22.2783
 30
0.0
 10
123.3295
 20
22.2783
 30
0.0
 10
128.1435
 20
17.7354
 30
0.0
 10
128.1435
 20
17.7354
 30
0.0
 10
128.1435
 20
17.7354
 30
0.0
 10
128.1435
 20
17.7354
 30
0.0
 10
123.3295
 20
13.1926
 30
0.0
 10
123.3295
 20
13.1926
 30
0.0
 10
123.3295
 20
13.1926
 30
0.0
 10
123.3295
 20
13.1926
 30
0.0
 10
118.5154
 20
17.7354
 30
0.0
 10
118.5154
 20
17.7354
 30
0.0
 10
118.5154
 20
17.7354
 30
0.0
 10
118.5154
 20
17.7354
 30
0.0
 10
123.3295
 20
22.2783
 30
0.0
 10
123.3295
 20
22.2783
 30
0.0
  0
SPLINE
  5
62
330
1F
100
AcDbEntity
  8
layer 1
 62
     7
100
AcDbSpline
210
0.0
220
0.0
230
1.0
 70
    11
 71
     3
 72
    28
 73
    24
 74
     0
 42
0.0000000001
 43
0.0000000001
 12
1.0
 22
0.0
 32
0.0
 13
1.0
 23
0.0
 33
0.0
 40
0.0
 40
0.0
 40
0.0
 40
0.0
 40
0.1428571428571428
 40
0.1428571428571428
 40
0.1428571428571428
 40
0.1428571428571428
 40
0.2857142857142857
 40
0.2857142857142857
 40
0.2857142857142857
 40
0.2857142857142857
 40
0.4285714285714285
 40
0.4285714285714285
 40
0.4285714285714285
 40
0.4285714285714285
 40
0.5714285714285714
 40
0.5714285714285714
 40
0.5714285714285714
 40
0.5714285714285714
 40
0.7142857142857143
 40
0.7142857142857143
 40
0.7142857142857143
 40
0.7142857142857143
 40
1.0
 40
1.0
 40
1.0
 40
1.0
 10
135.0938
 20
10.3324
 30
0.0
 10
135.0938
 20
10.3324
 30
0.0
 10
130.2799
 20
5.7645
 30
0.0
 10
130.2799
 20
5.7645
 30
0.0
 10
130.2799
 20
5.7645
 30
0.0
 10
130.2799
 20
5.7645
 30
0.0
 10
125.4657
 20
10.3073
 30
0.0
 10
125.4657
 20
10.3073
 30
0.0
 10
125.4657
 20
10.3073
 30
0.0
 10
125.4657
 20
10.3073
 30
0.0
 10
125.4589
 20
10.3261
 30
0.0
 10
125.4589
 20
10.3261
 30
0.0
 10
125.4589
 20
10.3261
 30
0.0
 10
125.4589
 20
10.3261
 30
0.0
 10
125.4657
 20
10.3324
 30
0.0
 10
125.4657
 20
10.3324
 30
0.0
 10
125.4657
 20
10.3324
 30
0.0
 10
125.4657
 20
10.3324
 30
0.0
 10
130.2799
 20
14.8753
 30
0.0
 10
130.2799
 20
14.8753
 30
0.0
 10
130.2799
 20
14.8753
 30
0.0
 10
130.2799
 20
14.8753
 30
0.0
 10
135.0938
 20
10.3324
 30
0.0
 10
135.0938
 20
10.3324
 30
0.0
  0
SPLINE
  5
63
330
1F
100
AcDbEntity
  8
layer 1
 62
     7
100
AcDbSpline
210
0.0
220
0.0
230
1.0
 70
    11
 71
     3
 72
    20
 73
    16
 74
     0
 42
0.0000000001
 43
0.0000000001
 12
1.0
 22
0.0
 32
0.0
 13
1.0
 23
0.0
 33
0.0
 40
0.0
 40
0.0
 40
0.0
 40
0.0
 40
0.2
 40
0.2
 40
0.2
 40
0.2
 40
0.4
 40
0.4
 40
0.4
 40
0.4
 40
0.6
 40
0.6
 40
0.6
 40
0.6
 40
1.0
 40
1.0
 40
1.0
 40
1.0
 10
137.2299
 20
22.2783
 30
0.0
 10
137.2299
 20
22.2783
 30
0.0
 10
132.416
 20
17.7354
 30
0.0
 10
132.416
 20
17.7354
 30
0.0
 10
132.416
 20
17.7354
 30
0.0
 10
132.416
 20
17.7354
 30
0.0
 10
137.2299
 20
13.1926
 30
0.0
 10
137.2299
 20
13.1926
 30
0.0
 10
137.2299
 20
13.1926
 30
0.0
 10
137.2299
 20
13.1926
 30
0.0
 10
142.044
 20
17.7354
 30
0.0
 10
142.044
 20
17.7354
 30
0.0
 10
142.044
 20
17.7354
 30
0.0
 10
142.044
 20
17.7354
 30
0.0
 10
137.2299
 20
22.2783
 30
0.0
 10
137.2299
 20
22.2783
 30
0.0
  0
SPLINE
  5
64
330
1F
100
AcDbEntity
  8
layer 1
 62
     7
100
AcDbSpline
210
0.0
220
0.0
230
1.0
 70
    11
 71
     3
 72
    20
 73
    16
 74
     0
 42
0.0000000001
 43
0.0000000001
 12
1.0
 22
0.0
 32
0.0
 13
1.0
 23
0.0
 33
0.0
 40
0.0
 40
0.0
 40
0.0
 40
0.0
 40
0.2
 40
0.2
 40
0.2
 40
0.2
 40
0.4
 40
0.4
 40
0.4
 40
0.4
 40
0.6
 40
0.6
 40
0.6
 40
0.6
 40
1.0
 40
1.0
 40
1.0
 40
1.0
 10
149.4511
 20
10.308
 30
0.0
 10
149.4511
 20
10.308
 30
0.0
 10
144.6455
 20
14.8664
 30
0.0
 10
144.6455
 20
14.8664
 30
0.0
 10
144.6455
 20
14.8664
 30
0.0
 10
144.6455
 20
14.8664
 30
0.0
 10
139.8398
 20
10.308
 30
0.0
 10
139.8398
 20
10.308
 30
0.0
 10
139.8398
 20
10.308
 30
0.0
 10
139.8398
 20
10.308
 30
0.0
 10
144.6455
 20
5.773
 30
0.0
 10
144.6455
 20
5.773
 30
0.0
 10
144.6455
 20
5.773
 30
0.0
 10
144.6455
 20
5.773
 30
0.0
 10
149.4511
 20
10.308
 30
0.0
 10
149.4511
 20
10.308
 30
0.0
  0
SPLINE
  5
65
330
1F
100
AcDbEntity
  8
layer 1
 62
     7
100
AcDbSpline
210
0.0
220
0.0
230
1.0
 70
    11
 71
     3
 72
    28
 73
    24
 74
     0
 42
0.0000000001
 43
0.0000000001
 12
1.0
 22
0.0
 32
0.0
 13
1.0
 23
0.0
 33
0.0
 40
0.0
 40
0.0
 40
0.0
 40
0.0
 40
0.1428571428571428
 40
0.1428571428571428
 40
0.1428571428571428
 40
0.1428571428571428
 40
0.2857142857142857
 40
0.2857142857142857
 40
0.2857142857142857
 40
0.2857142857142857
 40
0.4285714285714285
 40
0.4285714285714285
 40
0.4285714285714285
 40
0.4285714285714285
 40
0.5714285714285714
 40
0.5714285714285714
 40
0.5714285714285714
 40
0.5714285714285714
 40
0.7142857142857143
 40
0.7142857142857143
 40
0.7142857142857143
 40
0.7142857142857143
 40
1.0
 40
1.0
 40
1.0
 40
1.0
 10
154.1839
 20
10.32
 30
0.0
 10
154.1839
 20
10.32
 30
0.0
 10
159.0118
 20
14.8753
 30
0.0
 10
159.0118
 20
14.8753
 30
0.0
 10
159.0118
 20
14.8753
 30
0.0
 10
159.0118
 20
14.8753
 30
0.0
 10
163.8259
 20
10.3073
 30
0.0
 10
163.8259
 20
10.3073
 30
0.0
 10
163.8259
 20
10.3073
 30
0.0
 10
163.8259
 20
10.3073
 30
0.0
 10
159.0118
 20
5.7645
 30
0.0
 10
159.0118
 20
5.7645
 30
0.0
 10
159.0118
 20
5.7645
 30
0.0
 10
159.0118
 20
5.7645
 30
0.0
 10
154.1979
 20
10.3073
 30
0.0
 10
154.1979
 20
10.3073
 30
0.0
 10
154.1979
 20
10.3073
 30
0.0
 10
154.1979
 20
10.3073
 30
0.0
 10
154.1911
 20
10.3261
 30
0.0
 10
154.1911
 20
10.3261
 30
0.0
 10
154.1911
 20
10.3261
 30
0.0
 10
154.1911
 20
10.3261
 30
0.0
 10
154.1839
 20
10.32
 30
0.0
 10
154.1839
 20
10.32
 30
0.0
  0
SPLINE
  5
66
330
1F
100
AcDbEntity
  8
layer 1
 62
     7
100
AcDbSpline
210
0.0
220
0.0
230
1.0
 70
    11
 71
     3
 72
    20
 73
    16
 74
     0
 42
0.0000000001
 43
0.0000000001
 12
1.0
 22
0.0
 32
0.0
 13
1.0
 23
0.0
 33
0.0
 40
0.0
 40
0.0
 40
0.0
 40
0.0
 40
0.2
 40
0.2
 40
0.2
 40
0.2
 40
0.4
 40
0.4
 40
0.4
 40
0.4
 40
0.6
 40
0.6
 40
0.6
 40
0.6
 40
1.0
 40
1.0
 40
1.0
 40
1.0
 10
152.0615
 20
22.2783
 30
0.0
 10
152.0615
 20
22.2783
 30
0.0
 10
156.8755
 20
17.7354
 30
0.0
 10
156.8755
 20
17.7354
 30
0.0
 10
156.8755
 20
17.7354
 30
0.0
 10
156.8755
 20
17.7354
 30
0.0
 10
152.0615
 20
13.1926
 30
0.0
 10
152.0615
 20
13.1926
 30
0.0
 10
152.0615
 20
13.1926
 30
0.0
 10
152.0615
 20
13.1926
 30
0.0
 10
147.2476
 20
17.7354
 30
0.0
 10
147.2476
 20
17.7354
 30
0.0
 10
147.2476
 20
17.7354
 30
0.0
 10
147.2476
 20
17.7354
 30
0.0
 10
152.0615
 20
22.2783
 30
0.0
 10
152.0615
 20
22.2783
 30
0.0
  0
SPLINE
  5
67
330
1F
100
AcDbEntity
  8
layer 1
 62
     7
100
AcDbSpline
210
0.0
220
0.0
230
1.0
 70
    11
 71
     3
 72
    20
 73
    16
 74
     0
 42
0.0000000001
 43
0.0000000001
 12
1.0
 22
0.0
 32
0.0
 13
1.0
 23
0.0
 33
0.0
 40
0.0
 40
0.0
 40
0.0
 40
0.0
 40
0.2
 40
0.2
 40
0.2
 40
0.2
 40
0.4
 40
0.4
 40
0.4
 40
0.4
 40
0.6
 40
0.6
 40
0.6
 40
0.6
 40
1.0
 40
1.0
 40
1.0
 40
1.0
 10
165.9622
 20
22.2783
 30
0.0
 10
165.9622
 20
22.2783
 30
0.0
 10
161.1478
 20
17.7354
 30
0.0
 10
161.1478
 20
17.7354
 30
0.0
 10
161.1478
 20
17.7354
 30
0.0
 10
161.1478
 20
17.7354
 30
0.0
 10
165.9622
 20
13.1926
 30
0.0
 10
165.9622
 20
13.1926
 30
0.0
 10
165.9622
 20
13.1926
 30
0.0
 10
165.9622
 20
13.1926
 30
0.0
 10
170.7762
 20
17.7354
 30
0.0
 10
170.7762
 20
17.7354
 30
0.0
 10
170.7762
 20
17.7354
 30
0.0
 10
170.7762
 20
17.7354
 30
0.0
 10
165.9622
 20
22.2783
 30
0.0
 10
165.9622
 20
22.2783
 30
0.0
  0
SPLINE
  5
68
330
1F
100
AcDbEntity
  8
layer 1
 62
     7
100
AcDbSpline
210
0.0
220
0.0
230
1.0
 70
    11
 71
     3
 72
    20
 73
    16
 74
     0
 42
0.0000000001
 43
0.0000000001
 12
1.0
 22
0.0
 32
0.0
 13
1.0
 23
0.0
 33
0.0
 40
0.0
 40
0.0
 40
0.0
 40
0.0
 40
0.2
 40
0.2
 40
0.2
 40
0.2
 40
0.4
 40
0.4
 40
0.4
 40
0.4
 40
0.6
 40
0.6
 40
0.6
 40
0.6
 40
1.0
 40
1.0
 40
1.0
 40
1.0
 10
180.7938
 20
22.2783
 30
0.0
 10
180.7938
 20
22.2783
 30
0.0
 10
185.6078
 20
17.7354
 30
0.0
 10
185.6078
 20
17.7354
 30
0.0
 10
185.6078
 20
17.7354
 30
0.0
 10
185.6078
 20
17.7354
 30
0.0
 10
180.7938
 20
13.1926
 30
0.0
 10
180.7938
 20
13.1926
 30
0.0
 10
180.7938
 20
13.1926
 30
0.0
 10
180.7938
 20
13.1926
 30
0.0
 10
175.9799
 20
17.7354
 30
0.0
 10
175.9799
 20
17.7354
 30
0.0
 10
175.9799
 20
17.7354
 30
0.0
 10
175.9799
 20
17.7354
 30
0.0
 10
180.7938
 20
22.2783
 30
0.0
 10
180.7938
 20
22.2783
 30
0.0
  0
SPLINE
  5
69
330
1F
100
AcDbEntity
  8
layer 1
 62
     7
100
AcDbSpline
210
0.0
220
0.0
230
1.0
 70
    11
 71
     3
 72
    20
 73
    16
 74
     0
 42
0.0000000001
 43
0.0000000001
 12
1.0
 22
0.0
 32
0.0
 13
1.0
 23
0.0
 33
0.0
 40
0.0
 40
0.0
 40
0.0
 40
0.0
 40
0.2
 40
0.2
 40
0.2
 40
0.2
 40
0.4
 40
0.4
 40
0.4
 40
0.4
 40
0.6
 40
0.6
 40
0.6
 40
0.6
 40
1.0
 40
1.0
 40
1.0
 40
1.0
 10
108.4977
 20
-1.6389
 30
0.0
 10
108.4977
 20
-1.6389
 30
0.0
 10
103.6838
 20
2.9039
 30
0.0
 10
103.6838
 20
2.9039
 30
0.0
 10
103.6838
 20
2.9039
 30
0.0
 10
103.6838
 20
2.9039
 30
0.0
 10
108.4977
 20
7.4468
 30
0.0
 10
108.4977
 20
7.4468
 30
0.0
 10
108.4977
 20
7.4468
 30
0.0
 10
108.4977
 20
7.4468
 30
0.0
 10
113.312
 20
2.9039
 30
0.0
 10
113.312
 20
2.9039
 30
0.0
 10
113.312
 20
2.9039
 30
0.0
 10
113.312
 20
2.9039
 30
0.0
 10
108.4977
 20
-1.6389
 30
0.0
 10
108.4977
 20
-1.6389
 30
0.0
  0
SPLINE
  5
6A
330
1F
100
AcDbEntity
  8
layer 1
 62
     7
100
AcDbSpline
210
0.0
220
0.0
230
1.0
 70
    11
 71
     3
 72
    20
 73
    16
 74
     0
 42
0.0000000001
 43
0.0000000001
 12
1.0
 22
0.0
 32
0.0
 13
1.0
 23
0.0
 33
0.0
 40
0.0
 40
0.0
 40
0.0
 40
0.0
 40
0.2
 40
0.2
 40
0.2
 40
0.2
 40
0.4
 40
0.4
 40
0.4
 40
0.4
 40
0.6
 40
0.6
 40
0.6
 40
0.6
 40
1.0
 40
1.0
 40
1.0
 40
1.0
 10
111.1198
 20
-3.9486
 30
0.0
 10
111.1198
 20
-3.9486
 30
0.0
 10
115.9137
 20
-8.4723
 30
0.0
 10
115.9137
 20
-8.4723
 30
0.0
 10
115.9137
 20
-8.4723
 30
0.0
 10
115.9137
 20
-8.4723
 30
0.0
 10
120.7074
 20
-3.9486
 30
0.0
 10
120.7074
 20
-3.9486
 30
0.0
 10
120.7074
 20
-3.9486
 30
0.0
 10
120.7074
 20
-3.9486
 30
0.0
 10
115.9137
 20
0.5749
 30
0.0
 10
115.9137
 20
0.5749
 30
0.0
 10
115.9137
 20
0.5749
 30
0.0
 10
115.9137
 20
0.5749
 30
0.0
 10
111.1198
 20
-3.9486
 30
0.0
 10
111.1198
 20
-3.9486
 30
0.0
  0
SPLINE
  5
6B
330
1F
100
AcDbEntity
  8
layer 1
 62
     7
100
AcDbSpline
210
0.0
220
0.0
230
1.0
 70
    11
 71
     3
 72
    20
 73
    16
 74
     0
 42
0.0000000001
 43
0.0000000001
 12
1.0
 22
0.0
 32
0.0
 13
1.0
 23
0.0
 33
0.0
 40
0.0
 40
0.0
 40
0.0
 40
0.0
 40
0.2
 40
0.2
 40
0.2
 40
0.2
 40
0.4
 40
0.4
 40
0.4
 40
0.4
 40
0.6
 40
0.6
 40
0.6
 40
0.6
 40
1.0
 40
1.0
 40
1.0
 40
1.0
 10
111.1082
 20
10.3314
 30
0.0
 10
111.1082
 20
10.3314
 30
0.0
 10
115.9655
 20
5.7756
 30
0.0
 10
115.9655
 20
5.7756
 30
0.0
 10
115.9655
 20
5.7756
 30
0.0
 10
115.9655
 20
5.7756
 30
0.0
 10
120.771
 20
10.3341
 30
0.0
 10
120.771
 20
10.3341
 30
0.0
 10
120.771
 20
10.3341
 30
0.0
 10
120.771
 20
10.3341
 30
0.0
 10
115.9655
 20
14.8689
 30
0.0
 10
115.9655
 20
14.8689
 30
0.0
 10
115.9655
 20
14.8689
 30
0.0
 10
115.9655
 20
14.8689
 30
0.0
 10
111.1082
 20
10.3314
 30
0.0
 10
111.1082
 20
10.3314
 30
0.0
  0
SPLINE
  5
6C
330
1F
100
AcDbEntity
  8
layer 1
 62
     7
100
AcDbSpline
210
0.0
220
0.0
230
1.0
 70
    11
 71
     3
 72
    20
 73
    16
 74
     0
 42
0.0000000001
 43
0.0000000001
 12
1.0
 22
0.0
 32
0.0
 13
1.0
 23
0.0
 33
0.0
 40
0.0
 40
0.0
 40
0.0
 40
0.0
 40
0.2
 40
0.2
 40
0.2
 40
0.2
 40
0.4
 40
0.4
 40
0.4
 40
0.4
 40
0.6
 40
0.6
 40
0.6
 40
0.6
 40
1.0
 40
1.0
 40
1.0
 40
1.0
 10
123.3295
 20
-1.6389
 30
0.0
 10
123.3295
 20
-1.6389
 30
0.0
 10
128.1435
 20
2.9039
 30
0.0
 10
128.1435
 20
2.9039
 30
0.0
 10
128.1435
 20
2.9039
 30
0.0
 10
128.1435
 20
2.9039
 30
0.0
 10
123.3295
 20
7.4468
 30
0.0
 10
123.3295
 20
7.4468
 30
0.0
 10
123.3295
 20
7.4468
 30
0.0
 10
123.3295
 20
7.4468
 30
0.0
 10
118.5154
 20
2.9039
 30
0.0
 10
118.5154
 20
2.9039
 30
0.0
 10
118.5154
 20
2.9039
 30
0.0
 10
118.5154
 20
2.9039
 30
0.0
 10
123.3295
 20
-1.6389
 30
0.0
 10
123.3295
 20
-1.6389
 30
0.0
  0
SPLINE
  5
6D
330
1F
100
AcDbEntity
  8
layer 1
 62
     7
100
AcDbSpline
210
0.0
220
0.0
230
1.0
 70
    11
 71
     3
 72
    20
 73
    16
 74
     0
 42
0.0000000001
 43
0.0000000001
 12
1.0
 22
0.0
 32
0.0
 13
1.0
 23
0.0
 33
0.0
 40
0.0
 40
0.0
 40
0.0
 40
0.0
 40
0.2
 40
0.2
 40
0.2
 40
0.2
 40
0.4
 40
0.4
 40
0.4
 40
0.4
 40
0.6
 40
0.6
 40
0.6
 40
0.6
 40
1.0
 40
1.0
 40
1.0
 40
1.0
 10
137.2299
 20
-1.6389
 30
0.0
 10
137.2299
 20
-1.6389
 30
0.0
 10
132.416
 20
2.9039
 30
0.0
 10
132.416
 20
2.9039
 30
0.0
 10
132.416
 20
2.9039
 30
0.0
 10
132.416
 20
2.9039
 30
0.0
 10
137.2299
 20
7.4468
 30
0.0
 10
137.2299
 20
7.4468
 30
0.0
 10
137.2299
 20
7.4468
 30
0.0
 10
137.2299
 20
7.4468
 30
0.0
 10
142.044
 20
2.9039
 30
0.0
 10
142.044
 20
2.9039
 30
0.0
 10
142.044
 20
2.9039
 30
0.0
 10
142.044
 20
2.9039
 30
0.0
 10
137.2299
 20
-1.6389
 30
0.0
 10
137.2299
 20
-1.6389
 30
0.0
  0
SPLINE
  5
6E
330
1F
100
AcDbEntity
  8
layer 1
 62
     7
100
AcDbSpline
210
0.0
220
0.0
230
1.0
 70
    11
 71
     3
 72
    20
 73
    16
 74
     0
 42
0.0000000001
 43
0.0000000001
 12
1.0
 22
0.0
 32
0.0
 13
1.0
 23
0.0
 33
0.0
 40
0.0
 40
0.0
 40
0.0
 40
0.0
 40
0.2
 40
0.2
 40
0.2
 40
0.2
 40
0.4
 40
0.4
 40
0.4
 40
0.4
 40
0.6
 40
0.6
 40
0.6
 40
0.6
 40
1.0
 40
1.0
 40
1.0
 40
1.0
 10
139.8518
 20
-3.9486
 30
0.0
 10
139.8518
 20
-3.9486
 30
0.0
 10
144.6456
 20
-8.4723
 30
0.0
 10
144.6456
 20
-8.4723
 30
0.0
 10
144.6456
 20
-8.4723
 30
0.0
 10
144.6456
 20
-8.4723
 30
0.0
 10
149.4397
 20
-3.9486
 30
0.0
 10
149.4397
 20
-3.9486
 30
0.0
 10
149.4397
 20
-3.9486
 30
0.0
 10
149.4397
 20
-3.9486
 30
0.0
 10
144.6456
 20
0.5749
 30
0.0
 10
144.6456
 20
0.5749
 30
0.0
 10
144.6456
 20
0.5749
 30
0.0
 10
144.6456
 20
0.5749
 30
0.0
 10
139.8518
 20
-3.9486
 30
0.0
 10
139.8518
 20
-3.9486
 30
0.0
  0
SPLINE
  5
6F
330
1F
100
AcDbEntity
  8
layer 1
 62
     7
100
AcDbSpline
210
0.0
220
0.0
230
1.0
 70
    11
 71
     3
 72
    20
 73
    16
 74
     0
 42
0.0000000001
 43
0.0000000001
 12
1.0
 22
0.0
 32
0.0
 13
1.0
 23
0.0
 33
0.0
 40
0.0
 40
0.0
 40
0.0
 40
0.0
 40
0.2
 40
0.2
 40
0.2
 40
0.2
 40
0.4
 40
0.4
 40
0.4
 40
0.4
 40
0.6
 40
0.6
 40
0.6
 40
0.6
 40
1.0
 40
1.0
 40
1.0
 40
1.0
 10
152.0615
 20
-1.6389
 30
0.0
 10
152.0615
 20
-1.6389
 30
0.0
 10
156.8755
 20
2.9039
 30
0.0
 10
156.8755
 20
2.9039
 30
0.0
 10
156.8755
 20
2.9039
 30
0.0
 10
156.8755
 20
2.9039
 30
0.0
 10
152.0615
 20
7.4468
 30
0.0
 10
152.0615
 20
7.4468
 30
0.0
 10
152.0615
 20
7.4468
 30
0.0
 10
152.0615
 20
7.4468
 30
0.0
 10
147.2476
 20
2.9039
 30
0.0
 10
147.2476
 20
2.9039
 30
0.0
 10
147.2476
 20
2.9039
 30
0.0
 10
147.2476
 20
2.9039
 30
0.0
 10
152.0615
 20
-1.6389
 30
0.0
 10
152.0615
 20
-1.6389
 30
0.0
  0
SPLINE
  5
70
330
1F
100
AcDbEntity
  8
layer 1
 62
     7
100
AcDbSpline
210
0.0
220
0.0
230
1.0
 70
    11
 71
     3
 72
    20
 73
    16
 74
     0
 42
0.0000000001
 43
0.0000000001
 12
1.0
 22
0.0
 32
0.0
 13
1.0
 23
0.0
 33
0.0
 40
0.0
 40
0.0
 40
0.0
 40
0.0
 40
0.2
 40
0.2
 40
0.2
 40
0.2
 40
0.4
 40
0.4
 40
0.4
 40
0.4
 40
0.6
 40
0.6
 40
0.6
 40
0.6
 40
1.0
 40
1.0
 40
1.0
 40
1.0
 10
165.9622
 20
-1.6389
 30
0.0
 10
165.9622
 20
-1.6389
 30
0.0
 10
161.1478
 20
2.9039
 30
0.0
 10
161.1478
 20
2.9039
 30
0.0
 10
161.1478
 20
2.9039
 30
0.0
 10
161.1478
 20
2.9039
 30
0.0
 10
165.9622
 20
7.4468
 30
0.0
 10
165.9622
 20
7.4468
 30
0.0
 10
165.9622
 20
7.4468
 30
0.0
 10
165.9622
 20
7.4468
 30
0.0
 10
170.7762
 20
2.9039
 30
0.0
 10
170.7762
 20
2.9039
 30
0.0
 10
170.7762
 20
2.9039
 30
0.0
 10
170.7762
 20
2.9039
 30
0.0
 10
165.9622
 20
-1.6389
 30
0.0
 10
165.9622
 20
-1.6389
 30
0.0
  0
SPLINE
  5
71
330
1F
100
AcDbEntity
  8
layer 1
 62
     7
100
AcDbSpline
210
0.0
220
0.0
230
1.0
 70
    11
 71
     3
 72
    20
 73
    16
 74
     0
 42
0.0000000001
 43
0.0000000001
 12
1.0
 22
0.0
 32
0.0
 13
1.0
 23
0.0
 33
0.0
 40
0.0
 40
0.0
 40
0.0
 40
0.0
 40
0.2
 40
0.2
 40
0.2
 40
0.2
 40
0.4
 40
0.4
 40
0.4
 40
0.4
 40
0.6
 40
0.6
 40
0.6
 40
0.6
 40
1.0
 40
1.0
 40
1.0
 40
1.0
 10
168.5842
 20
-3.9486
 30
0.0
 10
168.5842
 20
-3.9486
 30
0.0
 10
173.3777
 20
-8.4723
 30
0.0
 10
173.3777
 20
-8.4723
 30
0.0
 10
173.3777
 20
-8.4723
 30
0.0
 10
173.3777
 20
-8.4723
 30
0.0
 10
178.1715
 20
-3.9486
 30
0.0
 10
178.1715
 20
-3.9486
 30
0.0
 10
178.1715
 20
-3.9486
 30
0.0
 10
178.1715
 20
-3.9486
 30
0.0
 10
173.3777
 20
0.5749
 30
0.0
 10
173.3777
 20
0.5749
 30
0.0
 10
173.3777
 20
0.5749
 30
0.0
 10
173.3777
 20
0.5749
 30
0.0
 10
168.5842
 20
-3.9486
 30
0.0
 10
168.5842
 20
-3.9486
 30
0.0
  0
SPLINE
  5
72
330
1F
100
AcDbEntity
  8
layer 1
 62
     7
100
AcDbSpline
210
0.0
220
0.0
230
1.0
 70
    11
 71
     3
 72
    20
 73
    16
 74
     0
 42
0.0000000001
 43
0.0000000001
 12
1.0
 22
0.0
 32
0.0
 13
1.0
 23
0.0
 33
0.0
 40
0.0
 40
0.0
 40
0.0
 40
0.0
 40
0.2
 40
0.2
 40
0.2
 40
0.2
 40
0.4
 40
0.4
 40
0.4
 40
0.4
 40
0.6
 40
0.6
 40
0.6
 40
0.6
 40
1.0
 40
1.0
 40
1.0
 40
1.0
 10
178.1834
 20
10.3314
 30
0.0
 10
178.1834
 20
10.3314
 30
0.0
 10
173.3777
 20
5.773
 30
0.0
 10
173.3777
 20
5.773
 30
0.0
 10
173.3777
 20
5.773
 30
0.0
 10
173.3777
 20
5.773
 30
0.0
 10
168.5726
 20
10.3314
 30
0.0
 10
168.5726
 20
10.3314
 30
0.0
 10
168.5726
 20
10.3314
 30
0.0
 10
168.5726
 20
10.3314
 30
0.0
 10
173.3777
 20
14.8664
 30
0.0
 10
173.3777
 20
14.8664
 30
0.0
 10
173.3777
 20
14.8664
 30
0.0
 10
173.3777
 20
14.8664
 30
0.0
 10
178.1834
 20
10.3314
 30
0.0
 10
178.1834
 20
10.3314
 30
0.0
  0
SPLINE
  5
73
330
1F
100
AcDbEntity
  8
layer 1
 62
     7
100
AcDbSpline
210
0.0
220
0.0
230
1.0
 70
    11
 71
     3
 72
    20
 73
    16
 74
     0
 42
0.0000000001
 43
0.0000000001
 12
1.0
 22
0.0
 32
0.0
 13
1.0
 23
0.0
 33
0.0
 40
0.0
 40
0.0
 40
0.0
 40
0.0
 40
0.2
 40
0.2
 40
0.2
 40
0.2
 40
0.4
 40
0.4
 40
0.4
 40
0.4
 40
0.6
 40
0.6
 40
0.6
 40
0.6
 40
1.0
 40
1.0
 40
1.0
 40
1.0
 10
180.7938
 20
-1.6389
 30
0.0
 10
180.7938
 20
-1.6389
 30
0.0
 10
185.6078
 20
2.9039
 30
0.0
 10
185.6078
 20
2.9039
 30
0.0
 10
185.6078
 20
2.9039
 30
0.0
 10
185.6078
 20
2.9039
 30
0.0
 10
180.7938
 20
7.4468
 30
0.0
 10
180.7938
 20
7.4468
 30
0.0
 10
180.7938
 20
7.4468
 30
0.0
 10
180.7938
 20
7.4468
 30
0.0
 10
175.9799
 20
2.9039
 30
0.0
 10
175.9799
 20
2.9039
 30
0.0
 10
175.9799
 20
2.9039
 30
0.0
 10
175.9799
 20
2.9039
 30
0.0
 10
180.7938
 20
-1.6389
 30
0.0
 10
180.7938
 20
-1.6389
 30
0.0
  0
SPLINE
  5
74
330
1F
100
AcDbEntity
  8
layer 1
 62
     7
100
AcDbSpline
210
0.0
220
0.0
230
1.0
 70
    11
 71
     3
 72
    32
 73
    28
 74
     0
 42
0.0000000001
 43
0.0000000001
 12
1.0
 22
0.0
 32
0.0
 13
1.0
 23
0.0
 33
0.0
 40
0.0
 40
0.0
 40
0.0
 40
0.0
 40
0.125
 40
0.125
 40
0.125
 40
0.125
 40
0.25
 40
0.25
 40
0.25
 40
0.25
 40
0.375
 40
0.375
 40
0.375
 40
0.375
 40
0.5
 40
0.5
 40
0.5
 40
0.5
 40
0.625
 40
0.625
 40
0.625
 40
0.625
 40
0.75
 40
0.75
 40
0.75
 40
0.75
 40
1.0
 40
1.0
 40
1.0
 40
1.0
 10
106.3622
 20
-3.9419
 30
0.0
 10
106.3622
 20
-3.9419
 30
0.0
 10
106.3622
 20
-3.9554
 30
0.0
 10
106.3622
 20
-3.9554
 30
0.0
 10
106.3622
 20
-3.9554
 30
0.0
 10
106.3622
 20
-3.9554
 30
0.0
 10
101.5475
 20
-8.4982
 30
0.0
 10
101.5475
 20
-8.4982
 30
0.0
 10
101.5475
 20
-8.4982
 30
0.0
 10
101.5475
 20
-8.4982
 30
0.0
 10
96.725
 20
-3.9486
 30
0.0
 10
96.725
 20
-3.9486
 30
0.0
 10
96.725
 20
-3.9486
 30
0.0
 10
96.725
 20
-3.9486
 30
0.0
 10
96.725
 20
-3.9486
 30
0.0
 10
96.725
 20
-3.9486
 30
0.0
 10
96.725
 20
-3.9486
 30
0.0
 10
96.725
 20
-3.9486
 30
0.0
 10
96.7331
 20
-3.9419
 30
0.0
 10
96.7331
 20
-3.9419
 30
0.0
 10
96.7331
 20
-3.9419
 30
0.0
 10
96.7331
 20
-3.9419
 30
0.0
 10
101.5475
 20
0.6011
 30
0.0
 10
101.5475
 20
0.6011
 30
0.0
 10
101.5475
 20
0.6011
 30
0.0
 10
101.5475
 20
0.6011
 30
0.0
 10
106.3622
 20
-3.9419
 30
0.0
 10
106.3622
 20
-3.9419
 30
0.0
  0
SPLINE
  5
75
330
1F
100
AcDbEntity
  8
layer 1
 62
     7
100
AcDbSpline
210
0.0
220
0.0
230
1.0
 70
    11
 71
     3
 72
    24
 73
    20
 74
     0
 42
0.0000000001
 43
0.0000000001
 12
1.0
 22
0.0
 32
0.0
 13
1.0
 23
0.0
 33
0.0
 40
0.0
 40
0.0
 40
0.0
 40
0.0
 40
0.1666666666666667
 40
0.1666666666666667
 40
0.1666666666666667
 40
0.1666666666666667
 40
0.3333333333333333
 40
0.3333333333333333
 40
0.3333333333333333
 40
0.3333333333333333
 40
0.5
 40
0.5
 40
0.5
 40
0.5
 40
0.6666666666666666
 40
0.6666666666666666
 40
0.6666666666666666
 40
0.6666666666666666
 40
1.0
 40
1.0
 40
1.0
 40
1.0
 10
106.3616
 20
-18.2171
 30
0.0
 10
106.3616
 20
-18.2171
 30
0.0
 10
101.5475
 20
-22.7725
 30
0.0
 10
101.5475
 20
-22.7725
 30
0.0
 10
101.5475
 20
-22.7725
 30
0.0
 10
101.5475
 20
-22.7725
 30
0.0
 10
96.7336
 20
-18.2297
 30
0.0
 10
96.7336
 20
-18.2297
 30
0.0
 10
96.7336
 20
-18.2297
 30
0.0
 10
96.7336
 20
-18.2297
 30
0.0
 10
96.7267
 20
-18.2109
 30
0.0
 10
96.7267
 20
-18.2109
 30
0.0
 10
96.7267
 20
-18.2109
 30
0.0
 10
96.7267
 20
-18.2109
 30
0.0
 10
101.5475
 20
-13.6619
 30
0.0
 10
101.5475
 20
-13.6619
 30
0.0
 10
101.5475
 20
-13.6619
 30
0.0
 10
101.5475
 20
-13.6619
 30
0.0
 10
106.3616
 20
-18.2171
 30
0.0
 10
106.3616
 20
-18.2171
 30
0.0
  0
SPLINE
  5
76
330
1F
100
AcDbEntity
  8
layer 1
 62
     7
100
AcDbSpline
210
0.0
220
0.0
230
1.0
 70
    11
 71
     3
 72
    20
 73
    16
 74
     0
 42
0.0000000001
 43
0.0000000001
 12
1.0
 22
0.0
 32
0.0
 13
1.0
 23
0.0
 33
0.0
 40
0.0
 40
0.0
 40
0.0
 40
0.0
 40
0.2
 40
0.2
 40
0.2
 40
0.2
 40
0.4
 40
0.4
 40
0.4
 40
0.4
 40
0.6
 40
0.6
 40
0.6
 40
0.6
 40
1.0
 40
1.0
 40
1.0
 40
1.0
 10
108.4977
 20
-6.2583
 30
0.0
 10
108.4977
 20
-6.2583
 30
0.0
 10
103.6838
 20
-10.8012
 30
0.0
 10
103.6838
 20
-10.8012
 30
0.0
 10
103.6838
 20
-10.8012
 30
0.0
 10
103.6838
 20
-10.8012
 30
0.0
 10
108.4977
 20
-15.344
 30
0.0
 10
108.4977
 20
-15.344
 30
0.0
 10
108.4977
 20
-15.344
 30
0.0
 10
108.4977
 20
-15.344
 30
0.0
 10
113.312
 20
-10.8012
 30
0.0
 10
113.312
 20
-10.8012
 30
0.0
 10
113.312
 20
-10.8012
 30
0.0
 10
113.312
 20
-10.8012
 30
0.0
 10
108.4977
 20
-6.2583
 30
0.0
 10
108.4977
 20
-6.2583
 30
0.0
  0
SPLINE
  5
77
330
1F
100
AcDbEntity
  8
layer 1
 62
     7
100
AcDbSpline
210
0.0
220
0.0
230
1.0
 70
    11
 71
     3
 72
    28
 73
    24
 74
     0
 42
0.0000000001
 43
0.0000000001
 12
1.0
 22
0.0
 32
0.0
 13
1.0
 23
0.0
 33
0.0
 40
0.0
 40
0.0
 40
0.0
 40
0.0
 40
0.1428571428571428
 40
0.1428571428571428
 40
0.1428571428571428
 40
0.1428571428571428
 40
0.2857142857142857
 40
0.2857142857142857
 40
0.2857142857142857
 40
0.2857142857142857
 40
0.4285714285714285
 40
0.4285714285714285
 40
0.4285714285714285
 40
0.4285714285714285
 40
0.5714285714285714
 40
0.5714285714285714
 40
0.5714285714285714
 40
0.5714285714285714
 40
0.7142857142857143
 40
0.7142857142857143
 40
0.7142857142857143
 40
0.7142857142857143
 40
1.0
 40
1.0
 40
1.0
 40
1.0
 10
125.4651
 20
-3.9419
 30
0.0
 10
125.4651
 20
-3.9419
 30
0.0
 10
125.4651
 20
-3.9554
 30
0.0
 10
125.4651
 20
-3.9554
 30
0.0
 10
125.4651
 20
-3.9554
 30
0.0
 10
125.4651
 20
-3.9554
 30
0.0
 10
130.2799
 20
-8.4982
 30
0.0
 10
130.2799
 20
-8.4982
 30
0.0
 10
130.2799
 20
-8.4982
 30
0.0
 10
130.2799
 20
-8.4982
 30
0.0
 10
135.0943
 20
-3.9554
 30
0.0
 10
135.0943
 20
-3.9554
 30
0.0
 10
135.0943
 20
-3.9554
 30
0.0
 10
135.0943
 20
-3.9554
 30
0.0
 10
135.0943
 20
-3.9419
 30
0.0
 10
135.0943
 20
-3.9419
 30
0.0
 10
135.0943
 20
-3.9419
 30
0.0
 10
135.0943
 20
-3.9419
 30
0.0
 10
130.2799
 20
0.6011
 30
0.0
 10
130.2799
 20
0.6011
 30
0.0
 10
130.2799
 20
0.6011
 30
0.0
 10
130.2799
 20
0.6011
 30
0.0
 10
125.4651
 20
-3.9419
 30
0.0
 10
125.4651
 20
-3.9419
 30
0.0
  0
SPLINE
  5
78
330
1F
100
AcDbEntity
  8
layer 1
 62
     7
100
AcDbSpline
210
0.0
220
0.0
230
1.0
 70
    11
 71
     3
 72
    28
 73
    24
 74
     0
 42
0.0000000001
 43
0.0000000001
 12
1.0
 22
0.0
 32
0.0
 13
1.0
 23
0.0
 33
0.0
 40
0.0
 40
0.0
 40
0.0
 40
0.0
 40
0.1428571428571428
 40
0.1428571428571428
 40
0.1428571428571428
 40
0.1428571428571428
 40
0.2857142857142857
 40
0.2857142857142857
 40
0.2857142857142857
 40
0.2857142857142857
 40
0.4285714285714285
 40
0.4285714285714285
 40
0.4285714285714285
 40
0.4285714285714285
 40
0.5714285714285714
 40
0.5714285714285714
 40
0.5714285714285714
 40
0.5714285714285714
 40
0.7142857142857143
 40
0.7142857142857143
 40
0.7142857142857143
 40
0.7142857142857143
 40
1.0
 40
1.0
 40
1.0
 40
1.0
 10
125.4521
 20
-18.2171
 30
0.0
 10
125.4521
 20
-18.2171
 30
0.0
 10
130.2799
 20
-13.6619
 30
0.0
 10
130.2799
 20
-13.6619
 30
0.0
 10
130.2799
 20
-13.6619
 30
0.0
 10
130.2799
 20
-13.6619
 30
0.0
 10
135.0938
 20
-18.2297
 30
0.0
 10
135.0938
 20
-18.2297
 30
0.0
 10
135.0938
 20
-18.2297
 30
0.0
 10
135.0938
 20
-18.2297
 30
0.0
 10
130.2799
 20
-22.7726
 30
0.0
 10
130.2799
 20
-22.7726
 30
0.0
 10
130.2799
 20
-22.7726
 30
0.0
 10
130.2799
 20
-22.7726
 30
0.0
 10
125.4657
 20
-18.2297
 30
0.0
 10
125.4657
 20
-18.2297
 30
0.0
 10
125.4657
 20
-18.2297
 30
0.0
 10
125.4657
 20
-18.2297
 30
0.0
 10
125.4589
 20
-18.211
 30
0.0
 10
125.4589
 20
-18.211
 30
0.0
 10
125.4589
 20
-18.211
 30
0.0
 10
125.4589
 20
-18.211
 30
0.0
 10
125.4521
 20
-18.2171
 30
0.0
 10
125.4521
 20
-18.2171
 30
0.0
  0
SPLINE
  5
79
330
1F
100
AcDbEntity
  8
layer 1
 62
     7
100
AcDbSpline
210
0.0
220
0.0
230
1.0
 70
    11
 71
     3
 72
    20
 73
    16
 74
     0
 42
0.0000000001
 43
0.0000000001
 12
1.0
 22
0.0
 32
0.0
 13
1.0
 23
0.0
 33
0.0
 40
0.0
 40
0.0
 40
0.0
 40
0.0
 40
0.2
 40
0.2
 40
0.2
 40
0.2
 40
0.4
 40
0.4
 40
0.4
 40
0.4
 40
0.6
 40
0.6
 40
0.6
 40
0.6
 40
1.0
 40
1.0
 40
1.0
 40
1.0
 10
123.3295
 20
-6.2583
 30
0.0
 10
123.3295
 20
-6.2583
 30
0.0
 10
128.1435
 20
-10.8012
 30
0.0
 10
128.1435
 20
-10.8012
 30
0.0
 10
128.1435
 20
-10.8012
 30
0.0
 10
128.1435
 20
-10.8012
 30
0.0
 10
123.3295
 20
-15.344
 30
0.0
 10
123.3295
 20
-15.344
 30
0.0
 10
123.3295
 20
-15.344
 30
0.0
 10
123.3295
 20
-15.344
 30
0.0
 10
118.5154
 20
-10.8012
 30
0.0
 10
118.5154
 20
-10.8012
 30
0.0
 10
118.5154
 20
-10.8012
 30
0.0
 10
118.5154
 20
-10.8012
 30
0.0
 10
123.3295
 20
-6.2583
 30
0.0
 10
123.3295
 20
-6.2583
 30
0.0
  0
SPLINE
  5
7A
330
1F
100
AcDbEntity
  8
layer 1
 62
     7
100
AcDbSpline
210
0.0
220
0.0
230
1.0
 70
    11
 71
     3
 72
    20
 73
    16
 74
     0
 42
0.0000000001
 43
0.0000000001
 12
1.0
 22
0.0
 32
0.0
 13
1.0
 23
0.0
 33
0.0
 40
0.0
 40
0.0
 40
0.0
 40
0.0
 40
0.2
 40
0.2
 40
0.2
 40
0.2
 40
0.4
 40
0.4
 40
0.4
 40
0.4
 40
0.6
 40
0.6
 40
0.6
 40
0.6
 40
1.0
 40
1.0
 40
1.0
 40
1.0
 10
137.2299
 20
-6.2583
 30
0.0
 10
137.2299
 20
-6.2583
 30
0.0
 10
132.416
 20
-10.8012
 30
0.0
 10
132.416
 20
-10.8012
 30
0.0
 10
132.416
 20
-10.8012
 30
0.0
 10
132.416
 20
-10.8012
 30
0.0
 10
137.2299
 20
-15.344
 30
0.0
 10
137.2299
 20
-15.344
 30
0.0
 10
137.2299
 20
-15.344
 30
0.0
 10
137.2299
 20
-15.344
 30
0.0
 10
142.044
 20
-10.8012
 30
0.0
 10
142.044
 20
-10.8012
 30
0.0
 10
142.044
 20
-10.8012
 30
0.0
 10
142.044
 20
-10.8012
 30
0.0
 10
137.2299
 20
-6.2583
 30
0.0
 10
137.2299
 20
-6.2583
 30
0.0
  0
SPLINE
  5
7B
330
1F
100
AcDbEntity
  8
layer 1
 62
     7
100
AcDbSpline
210
0.0
220
0.0
230
1.0
 70
    11
 71
     3
 72
    28
 73
    24
 74
     0
 42
0.0000000001
 43
0.0000000001
 12
1.0
 22
0.0
 32
0.0
 13
1.0
 23
0.0
 33
0.0
 40
0.0
 40
0.0
 40
0.0
 40
0.0
 40
0.1428571428571428
 40
0.1428571428571428
 40
0.1428571428571428
 40
0.1428571428571428
 40
0.2857142857142857
 40
0.2857142857142857
 40
0.2857142857142857
 40
0.2857142857142857
 40
0.4285714285714285
 40
0.4285714285714285
 40
0.4285714285714285
 40
0.4285714285714285
 40
0.5714285714285714
 40
0.5714285714285714
 40
0.5714285714285714
 40
0.5714285714285714
 40
0.7142857142857143
 40
0.7142857142857143
 40
0.7142857142857143
 40
0.7142857142857143
 40
1.0
 40
1.0
 40
1.0
 40
1.0
 10
154.1969
 20
-3.9419
 30
0.0
 10
154.1969
 20
-3.9419
 30
0.0
 10
154.1969
 20
-3.9554
 30
0.0
 10
154.1969
 20
-3.9554
 30
0.0
 10
154.1969
 20
-3.9554
 30
0.0
 10
154.1969
 20
-3.9554
 30
0.0
 10
159.0118
 20
-8.4982
 30
0.0
 10
159.0118
 20
-8.4982
 30
0.0
 10
159.0118
 20
-8.4982
 30
0.0
 10
159.0118
 20
-8.4982
 30
0.0
 10
163.8264
 20
-3.9554
 30
0.0
 10
163.8264
 20
-3.9554
 30
0.0
 10
163.8264
 20
-3.9554
 30
0.0
 10
163.8264
 20
-3.9554
 30
0.0
 10
163.8264
 20
-3.9419
 30
0.0
 10
163.8264
 20
-3.9419
 30
0.0
 10
163.8264
 20
-3.9419
 30
0.0
 10
163.8264
 20
-3.9419
 30
0.0
 10
159.0118
 20
0.6011
 30
0.0
 10
159.0118
 20
0.6011
 30
0.0
 10
159.0118
 20
0.6011
 30
0.0
 10
159.0118
 20
0.6011
 30
0.0
 10
154.1969
 20
-3.9419
 30
0.0
 10
154.1969
 20
-3.9419
 30
0.0
  0
SPLINE
  5
7C
330
1F
100
AcDbEntity
  8
layer 1
 62
     7
100
AcDbSpline
210
0.0
220
0.0
230
1.0
 70
    11
 71
     3
 72
    20
 73
    16
 74
     0
 42
0.0000000001
 43
0.0000000001
 12
1.0
 22
0.0
 32
0.0
 13
1.0
 23
0.0
 33
0.0
 40
0.0
 40
0.0
 40
0.0
 40
0.0
 40
0.2
 40
0.2
 40
0.2
 40
0.2
 40
0.4
 40
0.4
 40
0.4
 40
0.4
 40
0.6
 40
0.6
 40
0.6
 40
0.6
 40
1.0
 40
1.0
 40
1.0
 40
1.0
 10
152.0615
 20
-6.2583
 30
0.0
 10
152.0615
 20
-6.2583
 30
0.0
 10
156.8755
 20
-10.8012
 30
0.0
 10
156.8755
 20
-10.8012
 30
0.0
 10
156.8755
 20
-10.8012
 30
0.0
 10
156.8755
 20
-10.8012
 30
0.0
 10
152.0615
 20
-15.344
 30
0.0
 10
152.0615
 20
-15.344
 30
0.0
 10
152.0615
 20
-15.344
 30
0.0
 10
152.0615
 20
-15.344
 30
0.0
 10
147.2476
 20
-10.8012
 30
0.0
 10
147.2476
 20
-10.8012
 30
0.0
 10
147.2476
 20
-10.8012
 30
0.0
 10
147.2476
 20
-10.8012
 30
0.0
 10
152.0615
 20
-6.2583
 30
0.0
 10
152.0615
 20
-6.2583
 30
0.0
  0
SPLINE
  5
7D
330
1F
100
AcDbEntity
  8
layer 1
 62
     7
100
AcDbSpline
210
0.0
220
0.0
230
1.0
 70
    11
 71
     3
 72
    20
 73
    16
 74
     0
 42
0.0000000001
 43
0.0000000001
 12
1.0
 22
0.0
 32
0.0
 13
1.0
 23
0.0
 33
0.0
 40
0.0
 40
0.0
 40
0.0
 40
0.0
 40
0.2
 40
0.2
 40
0.2
 40
0.2
 40
0.4
 40
0.4
 40
0.4
 40
0.4
 40
0.6
 40
0.6
 40
0.6
 40
0.6
 40
1.0
 40
1.0
 40
1.0
 40
1.0
 10
154.1979
 20
-18.2047
 30
0.0
 10
154.1979
 20
-18.2047
 30
0.0
 10
159.0118
 20
-22.7726
 30
0.0
 10
159.0118
 20
-22.7726
 30
0.0
 10
159.0118
 20
-22.7726
 30
0.0
 10
159.0118
 20
-22.7726
 30
0.0
 10
163.8259
 20
-18.2047
 30
0.0
 10
163.8259
 20
-18.2047
 30
0.0
 10
163.8259
 20
-18.2047
 30
0.0
 10
163.8259
 20
-18.2047
 30
0.0
 10
159.0118
 20
-13.6619
 30
0.0
 10
159.0118
 20
-13.6619
 30
0.0
 10
159.0118
 20
-13.6619
 30
0.0
 10
159.0118
 20
-13.6619
 30
0.0
 10
154.1979
 20
-18.2047
 30
0.0
 10
154.1979
 20
-18.2047
 30
0.0
  0
SPLINE
  5
7E
330
1F
100
AcDbEntity
  8
layer 1
 62
     7
100
AcDbSpline
210
0.0
220
0.0
230
1.0
 70
    11
 71
     3
 72
    20
 73
    16
 74
     0
 42
0.0000000001
 43
0.0000000001
 12
1.0
 22
0.0
 32
0.0
 13
1.0
 23
0.0
 33
0.0
 40
0.0
 40
0.0
 40
0.0
 40
0.0
 40
0.2
 40
0.2
 40
0.2
 40
0.2
 40
0.4
 40
0.4
 40
0.4
 40
0.4
 40
0.6
 40
0.6
 40
0.6
 40
0.6
 40
1.0
 40
1.0
 40
1.0
 40
1.0
 10
165.9622
 20
-6.2583
 30
0.0
 10
165.9622
 20
-6.2583
 30
0.0
 10
161.1478
 20
-10.8012
 30
0.0
 10
161.1478
 20
-10.8012
 30
0.0
 10
161.1478
 20
-10.8012
 30
0.0
 10
161.1478
 20
-10.8012
 30
0.0
 10
165.9622
 20
-15.344
 30
0.0
 10
165.9622
 20
-15.344
 30
0.0
 10
165.9622
 20
-15.344
 30
0.0
 10
165.9622
 20
-15.344
 30
0.0
 10
170.7762
 20
-10.8012
 30
0.0
 10
170.7762
 20
-10.8012
 30
0.0
 10
170.7762
 20
-10.8012
 30
0.0
 10
170.7762
 20
-10.8012
 30
0.0
 10
165.9622
 20
-6.2583
 30
0.0
 10
165.9622
 20
-6.2583
 30
0.0
  0
SPLINE
  5
7F
330
1F
100
AcDbEntity
  8
layer 1
 62
     7
100
AcDbSpline
210
0.0
220
0.0
230
1.0
 70
    11
 71
     3
 72
    20
 73
    16
 74
     0
 42
0.0000000001
 43
0.0000000001
 12
1.0
 22
0.0
 32
0.0
 13
1.0
 23
0.0
 33
0.0
 40
0.0
 40
0.0
 40
0.0
 40
0.0
 40
0.2
 40
0.2
 40
0.2
 40
0.2
 40
0.4
 40
0.4
 40
0.4
 40
0.4
 40
0.6
 40
0.6
 40
0.6
 40
0.6
 40
1.0
 40
1.0
 40
1.0
 40
1.0
 10
180.7938
 20
-6.2583
 30
0.0
 10
180.7938
 20
-6.2583
 30
0.0
 10
185.6078
 20
-10.8012
 30
0.0
 10
185.6078
 20
-10.8012
 30
0.0
 10
185.6078
 20
-10.8012
 30
0.0
 10
185.6078
 20
-10.8012
 30
0.0
 10
180.7938
 20
-15.344
 30
0.0
 10
180.7938
 20
-15.344
 30
0.0
 10
180.7938
 20
-15.344
 30
0.0
 10
180.7938
 20
-15.344
 30
0.0
 10
175.9799
 20
-10.8012
 30
0.0
 10
175.9799
 20
-10.8012
 30
0.0
 10
175.9799
 20
-10.8012
 30
0.0
 10
175.9799
 20
-10.8012
 30
0.0
 10
180.7938
 20
-6.2583
 30
0.0
 10
180.7938
 20
-6.2583
 30
0.0
  0
SPLINE
  5
80
330
1F
100
AcDbEntity
  8
layer 1
 62
     7
100
AcDbSpline
210
0.0
220
0.0
230
1.0
 70
    11
 71
     3
 72
    20
 73
    16
 74
     0
 42
0.0000000001
 43
0.0000000001
 12
1.0
 22
0.0
 32
0.0
 13
1.0
 23
0.0
 33
0.0
 40
0.0
 40
0.0
 40
0.0
 40
0.0
 40
0.2
 40
0.2
 40
0.2
 40
0.2
 40
0.4
 40
0.4
 40
0.4
 40
0.4
 40
0.6
 40
0.6
 40
0.6
 40
0.6
 40
1.0
 40
1.0
 40
1.0
 40
1.0
 10
108.4977
 20
-30.1761
 30
0.0
 10
108.4977
 20
-30.1761
 30
0.0
 10
103.6838
 20
-25.6327
 30
0.0
 10
103.6838
 20
-25.6327
 30
0.0
 10
103.6838
 20
-25.6327
 30
0.0
 10
103.6838
 20
-25.6327
 30
0.0
 10
108.4977
 20
-21.0898
 30
0.0
 10
108.4977
 20
-21.0898
 30
0.0
 10
108.4977
 20
-21.0898
 30
0.0
 10
108.4977
 20
-21.0898
 30
0.0
 10
113.312
 20
-25.6327
 30
0.0
 10
113.312
 20
-25.6327
 30
0.0
 10
113.312
 20
-25.6327
 30
0.0
 10
113.312
 20
-25.6327
 30
0.0
 10
108.4977
 20
-30.1761
 30
0.0
 10
108.4977
 20
-30.1761
 30
0.0
  0
SPLINE
  5
81
330
1F
100
AcDbEntity
  8
layer 1
 62
     7
100
AcDbSpline
210
0.0
220
0.0
230
1.0
 70
    11
 71
     3
 72
    20
 73
    16
 74
     0
 42
0.0000000001
 43
0.0000000001
 12
1.0
 22
0.0
 32
0.0
 13
1.0
 23
0.0
 33
0.0
 40
0.0
 40
0.0
 40
0.0
 40
0.0
 40
0.2
 40
0.2
 40
0.2
 40
0.2
 40
0.4
 40
0.4
 40
0.4
 40
0.4
 40
0.6
 40
0.6
 40
0.6
 40
0.6
 40
1.0
 40
1.0
 40
1.0
 40
1.0
 10
111.1198
 20
-32.4858
 30
0.0
 10
111.1198
 20
-32.4858
 30
0.0
 10
115.9137
 20
-37.0093
 30
0.0
 10
115.9137
 20
-37.0093
 30
0.0
 10
115.9137
 20
-37.0093
 30
0.0
 10
115.9137
 20
-37.0093
 30
0.0
 10
120.7074
 20
-32.4858
 30
0.0
 10
120.7074
 20
-32.4858
 30
0.0
 10
120.7074
 20
-32.4858
 30
0.0
 10
120.7074
 20
-32.4858
 30
0.0
 10
115.9137
 20
-27.9617
 30
0.0
 10
115.9137
 20
-27.9617
 30
0.0
 10
115.9137
 20
-27.9617
 30
0.0
 10
115.9137
 20
-27.9617
 30
0.0
 10
111.1198
 20
-32.4858
 30
0.0
 10
111.1198
 20
-32.4858
 30
0.0
  0
SPLINE
  5
82
330
1F
100
AcDbEntity
  8
layer 1
 62
     7
100
AcDbSpline
210
0.0
220
0.0
230
1.0
 70
    11
 71
     3
 72
    20
 73
    16
 74
     0
 42
0.0000000001
 43
0.0000000001
 12
1.0
 22
0.0
 32
0.0
 13
1.0
 23
0.0
 33
0.0
 40
0.0
 40
0.0
 40
0.0
 40
0.0
 40
0.2
 40
0.2
 40
0.2
 40
0.2
 40
0.4
 40
0.4
 40
0.4
 40
0.4
 40
0.6
 40
0.6
 40
0.6
 40
0.6
 40
1.0
 40
1.0
 40
1.0
 40
1.0
 10
123.3295
 20
-30.1761
 30
0.0
 10
123.3295
 20
-30.1761
 30
0.0
 10
128.1435
 20
-25.6327
 30
0.0
 10
128.1435
 20
-25.6327
 30
0.0
 10
128.1435
 20
-25.6327
 30
0.0
 10
128.1435
 20
-25.6327
 30
0.0
 10
123.3295
 20
-21.0898
 30
0.0
 10
123.3295
 20
-21.0898
 30
0.0
 10
123.3295
 20
-21.0898
 30
0.0
 10
123.3295
 20
-21.0898
 30
0.0
 10
118.5154
 20
-25.6327
 30
0.0
 10
118.5154
 20
-25.6327
 30
0.0
 10
118.5154
 20
-25.6327
 30
0.0
 10
118.5154
 20
-25.6327
 30
0.0
 10
123.3295
 20
-30.1761
 30
0.0
 10
123.3295
 20
-30.1761
 30
0.0
  0
SPLINE
  5
83
330
1F
100
AcDbEntity
  8
layer 1
 62
     7
100
AcDbSpline
210
0.0
220
0.0
230
1.0
 70
    11
 71
     3
 72
    20
 73
    16
 74
     0
 42
0.0000000001
 43
0.0000000001
 12
1.0
 22
0.0
 32
0.0
 13
1.0
 23
0.0
 33
0.0
 40
0.0
 40
0.0
 40
0.0
 40
0.0
 40
0.2
 40
0.2
 40
0.2
 40
0.2
 40
0.4
 40
0.4
 40
0.4
 40
0.4
 40
0.6
 40
0.6
 40
0.6
 40
0.6
 40
1.0
 40
1.0
 40
1.0
 40
1.0
 10
137.2299
 20
-30.1761
 30
0.0
 10
137.2299
 20
-30.1761
 30
0.0
 10
132.416
 20
-25.6327
 30
0.0
 10
132.416
 20
-25.6327
 30
0.0
 10
132.416
 20
-25.6327
 30
0.0
 10
132.416
 20
-25.6327
 30
0.0
 10
137.2299
 20
-21.0898
 30
0.0
 10
137.2299
 20
-21.0898
 30
0.0
 10
137.2299
 20
-21.0898
 30
0.0
 10
137.2299
 20
-21.0898
 30
0.0
 10
142.044
 20
-25.6327
 30
0.0
 10
142.044
 20
-25.6327
 30
0.0
 10
142.044
 20
-25.6327
 30
0.0
 10
142.044
 20
-25.6327
 30
0.0
 10
137.2299
 20
-30.1761
 30
0.0
 10
137.2299
 20
-30.1761
 30
0.0
  0
SPLINE
  5
84
330
1F
100
AcDbEntity
  8
layer 1
 62
     7
100
AcDbSpline
210
0.0
220
0.0
230
1.0
 70
    11
 71
     3
 72
    20
 73
    16
 74
     0
 42
0.0000000001
 43
0.0000000001
 12
1.0
 22
0.0
 32
0.0
 13
1.0
 23
0.0
 33
0.0
 40
0.0
 40
0.0
 40
0.0
 40
0.0
 40
0.2
 40
0.2
 40
0.2
 40
0.2
 40
0.4
 40
0.4
 40
0.4
 40
0.4
 40
0.6
 40
0.6
 40
0.6
 40
0.6
 40
1.0
 40
1.0
 40
1.0
 40
1.0
 10
139.8518
 20
-32.4858
 30
0.0
 10
139.8518
 20
-32.4858
 30
0.0
 10
144.6456
 20
-37.0093
 30
0.0
 10
144.6456
 20
-37.0093
 30
0.0
 10
144.6456
 20
-37.0093
 30
0.0
 10
144.6456
 20
-37.0093
 30
0.0
 10
149.4397
 20
-32.4858
 30
0.0
 10
149.4397
 20
-32.4858
 30
0.0
 10
149.4397
 20
-32.4858
 30
0.0
 10
149.4397
 20
-32.4858
 30
0.0
 10
144.6456
 20
-27.9617
 30
0.0
 10
144.6456
 20
-27.9617
 30
0.0
 10
144.6456
 20
-27.9617
 30
0.0
 10
144.6456
 20
-27.9617
 30
0.0
 10
139.8518
 20
-32.4858
 30
0.0
 10
139.8518
 20
-32.4858
 30
0.0
  0
SPLINE
  5
85
330
1F
100
AcDbEntity
  8
layer 1
 62
     7
100
AcDbSpline
210
0.0
220
0.0
230
1.0
 70
    11
 71
     3
 72
    20
 73
    16
 74
     0
 42
0.0000000001
 43
0.0000000001
 12
1.0
 22
0.0
 32
0.0
 13
1.0
 23
0.0
 33
0.0
 40
0.0
 40
0.0
 40
0.0
 40
0.0
 40
0.2
 40
0.2
 40
0.2
 40
0.2
 40
0.4
 40
0.4
 40
0.4
 40
0.4
 40
0.6
 40
0.6
 40
0.6
 40
0.6
 40
1.0
 40
1.0
 40
1.0
 40
1.0
 10
139.8398
 20
-18.2051
 30
0.0
 10
139.8398
 20
-18.2051
 30
0.0
 10
144.6455
 20
-22.7637
 30
0.0
 10
144.6455
 20
-22.7637
 30
0.0
 10
144.6455
 20
-22.7637
 30
0.0
 10
144.6455
 20
-22.7637
 30
0.0
 10
149.4511
 20
-18.2051
 30
0.0
 10
149.4511
 20
-18.2051
 30
0.0
 10
149.4511
 20
-18.2051
 30
0.0
 10
149.4511
 20
-18.2051
 30
0.0
 10
144.6455
 20
-13.6701
 30
0.0
 10
144.6455
 20
-13.6701
 30
0.0
 10
144.6455
 20
-13.6701
 30
0.0
 10
144.6455
 20
-13.6701
 30
0.0
 10
139.8398
 20
-18.2051
 30
0.0
 10
139.8398
 20
-18.2051
 30
0.0
  0
SPLINE
  5
86
330
1F
100
AcDbEntity
  8
layer 1
 62
     7
100
AcDbSpline
210
0.0
220
0.0
230
1.0
 70
    11
 71
     3
 72
    20
 73
    16
 74
     0
 42
0.0000000001
 43
0.0000000001
 12
1.0
 22
0.0
 32
0.0
 13
1.0
 23
0.0
 33
0.0
 40
0.0
 40
0.0
 40
0.0
 40
0.0
 40
0.2
 40
0.2
 40
0.2
 40
0.2
 40
0.4
 40
0.4
 40
0.4
 40
0.4
 40
0.6
 40
0.6
 40
0.6
 40
0.6
 40
1.0
 40
1.0
 40
1.0
 40
1.0
 10
152.0615
 20
-30.1761
 30
0.0
 10
152.0615
 20
-30.1761
 30
0.0
 10
156.8755
 20
-25.6327
 30
0.0
 10
156.8755
 20
-25.6327
 30
0.0
 10
156.8755
 20
-25.6327
 30
0.0
 10
156.8755
 20
-25.6327
 30
0.0
 10
152.0615
 20
-21.0898
 30
0.0
 10
152.0615
 20
-21.0898
 30
0.0
 10
152.0615
 20
-21.0898
 30
0.0
 10
152.0615
 20
-21.0898
 30
0.0
 10
147.2476
 20
-25.6327
 30
0.0
 10
147.2476
 20
-25.6327
 30
0.0
 10
147.2476
 20
-25.6327
 30
0.0
 10
147.2476
 20
-25.6327
 30
0.0
 10
152.0615
 20
-30.1761
 30
0.0
 10
152.0615
 20
-30.1761
 30
0.0
  0
SPLINE
  5
87
330
1F
100
AcDbEntity
  8
layer 1
 62
     7
100
AcDbSpline
210
0.0
220
0.0
230
1.0
 70
    11
 71
     3
 72
    20
 73
    16
 74
     0
 42
0.0000000001
 43
0.0000000001
 12
1.0
 22
0.0
 32
0.0
 13
1.0
 23
0.0
 33
0.0
 40
0.0
 40
0.0
 40
0.0
 40
0.0
 40
0.2
 40
0.2
 40
0.2
 40
0.2
 40
0.4
 40
0.4
 40
0.4
 40
0.4
 40
0.6
 40
0.6
 40
0.6
 40
0.6
 40
1.0
 40
1.0
 40
1.0
 40
1.0
 10
165.9622
 20
-30.1761
 30
0.0
 10
165.9622
 20
-30.1761
 30
0.0
 10
161.1478
 20
-25.6327
 30
0.0
 10
161.1478
 20
-25.6327
 30
0.0
 10
161.1478
 20
-25.6327
 30
0.0
 10
161.1478
 20
-25.6327
 30
0.0
 10
165.9622
 20
-21.0898
 30
0.0
 10
165.9622
 20
-21.0898
 30
0.0
 10
165.9622
 20
-21.0898
 30
0.0
 10
165.9622
 20
-21.0898
 30
0.0
 10
170.7762
 20
-25.6327
 30
0.0
 10
170.7762
 20
-25.6327
 30
0.0
 10
170.7762
 20
-25.6327
 30
0.0
 10
170.7762
 20
-25.6327
 30
0.0
 10
165.9622
 20
-30.1761
 30
0.0
 10
165.9622
 20
-30.1761
 30
0.0
  0
SPLINE
  5
88
330
1F
100
AcDbEntity
  8
layer 1
 62
     7
100
AcDbSpline
210
0.0
220
0.0
230
1.0
 70
    11
 71
     3
 72
    20
 73
    16
 74
     0
 42
0.0000000001
 43
0.0000000001
 12
1.0
 22
0.0
 32
0.0
 13
1.0
 23
0.0
 33
0.0
 40
0.0
 40
0.0
 40
0.0
 40
0.0
 40
0.2
 40
0.2
 40
0.2
 40
0.2
 40
0.4
 40
0.4
 40
0.4
 40
0.4
 40
0.6
 40
0.6
 40
0.6
 40
0.6
 40
1.0
 40
1.0
 40
1.0
 40
1.0
 10
168.5842
 20
-32.4858
 30
0.0
 10
168.5842
 20
-32.4858
 30
0.0
 10
173.3777
 20
-37.0093
 30
0.0
 10
173.3777
 20
-37.0093
 30
0.0
 10
173.3777
 20
-37.0093
 30
0.0
 10
173.3777
 20
-37.0093
 30
0.0
 10
178.1715
 20
-32.4858
 30
0.0
 10
178.1715
 20
-32.4858
 30
0.0
 10
178.1715
 20
-32.4858
 30
0.0
 10
178.1715
 20
-32.4858
 30
0.0
 10
173.3777
 20
-27.9617
 30
0.0
 10
173.3777
 20
-27.9617
 30
0.0
 10
173.3777
 20
-27.9617
 30
0.0
 10
173.3777
 20
-27.9617
 30
0.0
 10
168.5842
 20
-32.4858
 30
0.0
 10
168.5842
 20
-32.4858
 30
0.0
  0
SPLINE
  5
89
330
1F
100
AcDbEntity
  8
layer 1
 62
     7
100
AcDbSpline
210
0.0
220
0.0
230
1.0
 70
    11
 71
     3
 72
    20
 73
    16
 74
     0
 42
0.0000000001
 43
0.0000000001
 12
1.0
 22
0.0
 32
0.0
 13
1.0
 23
0.0
 33
0.0
 40
0.0
 40
0.0
 40
0.0
 40
0.0
 40
0.2
 40
0.2
 40
0.2
 40
0.2
 40
0.4
 40
0.4
 40
0.4
 40
0.4
 40
0.6
 40
0.6
 40
0.6
 40
0.6
 40
1.0
 40
1.0
 40
1.0
 40
1.0
 10
178.1834
 20
-18.2051
 30
0.0
 10
178.1834
 20
-18.2051
 30
0.0
 10
173.3777
 20
-22.7637
 30
0.0
 10
173.3777
 20
-22.7637
 30
0.0
 10
173.3777
 20
-22.7637
 30
0.0
 10
173.3777
 20
-22.7637
 30
0.0
 10
168.5726
 20
-18.2051
 30
0.0
 10
168.5726
 20
-18.2051
 30
0.0
 10
168.5726
 20
-18.2051
 30
0.0
 10
168.5726
 20
-18.2051
 30
0.0
 10
173.3777
 20
-13.6701
 30
0.0
 10
173.3777
 20
-13.6701
 30
0.0
 10
173.3777
 20
-13.6701
 30
0.0
 10
173.3777
 20
-13.6701
 30
0.0
 10
178.1834
 20
-18.2051
 30
0.0
 10
178.1834
 20
-18.2051
 30
0.0
  0
SPLINE
  5
8A
330
1F
100
AcDbEntity
  8
layer 1
 62
     7
100
AcDbSpline
210
0.0
220
0.0
230
1.0
 70
    11
 71
     3
 72
    20
 73
    16
 74
     0
 42
0.0000000001
 43
0.0000000001
 12
1.0
 22
0.0
 32
0.0
 13
1.0
 23
0.0
 33
0.0
 40
0.0
 40
0.0
 40
0.0
 40
0.0
 40
0.2
 40
0.2
 40
0.2
 40
0.2
 40
0.4
 40
0.4
 40
0.4
 40
0.4
 40
0.6
 40
0.6
 40
0.6
 40
0.6
 40
1.0
 40
1.0
 40
1.0
 40
1.0
 10
180.7938
 20
-30.1761
 30
0.0
 10
180.7938
 20
-30.1761
 30
0.0
 10
185.6078
 20
-25.6327
 30
0.0
 10
185.6078
 20
-25.6327
 30
0.0
 10
185.6078
 20
-25.6327
 30
0.0
 10
185.6078
 20
-25.6327
 30
0.0
 10
180.7938
 20
-21.0898
 30
0.0
 10
180.7938
 20
-21.0898
 30
0.0
 10
180.7938
 20
-21.0898
 30
0.0
 10
180.7938
 20
-21.0898
 30
0.0
 10
175.9799
 20
-25.6327
 30
0.0
 10
175.9799
 20
-25.6327
 30
0.0
 10
175.9799
 20
-25.6327
 30
0.0
 10
175.9799
 20
-25.6327
 30
0.0
 10
180.7938
 20
-30.1761
 30
0.0
 10
180.7938
 20
-30.1761
 30
0.0
  0
SPLINE
  5
8B
330
1F
100
AcDbEntity
  8
layer 1
 62
     7
100
AcDbSpline
210
0.0
220
0.0
230
1.0
 70
    11
 71
     3
 72
    24
 73
    20
 74
     0
 42
0.0000000001
 43
0.0000000001
 12
1.0
 22
0.0
 32
0.0
 13
1.0
 23
0.0
 33
0.0
 40
0.0
 40
0.0
 40
0.0
 40
0.0
 40
0.1666666666666667
 40
0.1666666666666667
 40
0.1666666666666667
 40
0.1666666666666667
 40
0.3333333333333333
 40
0.3333333333333333
 40
0.3333333333333333
 40
0.3333333333333333
 40
0.5
 40
0.5
 40
0.5
 40
0.5
 40
0.6666666666666666
 40
0.6666666666666666
 40
0.6666666666666666
 40
0.6666666666666666
 40
1.0
 40
1.0
 40
1.0
 40
1.0
 10
106.3616
 20
-46.754
 30
0.0
 10
106.3616
 20
-46.754
 30
0.0
 10
101.5475
 20
-51.3094
 30
0.0
 10
101.5475
 20
-51.3094
 30
0.0
 10
101.5475
 20
-51.3094
 30
0.0
 10
101.5475
 20
-51.3094
 30
0.0
 10
96.7336
 20
-46.7666
 30
0.0
 10
96.7336
 20
-46.7666
 30
0.0
 10
96.7336
 20
-46.7666
 30
0.0
 10
96.7336
 20
-46.7666
 30
0.0
 10
96.7267
 20
-46.7477
 30
0.0
 10
96.7267
 20
-46.7477
 30
0.0
 10
96.7267
 20
-46.7477
 30
0.0
 10
96.7267
 20
-46.7477
 30
0.0
 10
101.5475
 20
-42.1985
 30
0.0
 10
101.5475
 20
-42.1985
 30
0.0
 10
101.5475
 20
-42.1985
 30
0.0
 10
101.5475
 20
-42.1985
 30
0.0
 10
106.3616
 20
-46.754
 30
0.0
 10
106.3616
 20
-46.754
 30
0.0
  0
SPLINE
  5
8C
330
1F
100
AcDbEntity
  8
layer 1
 62
     7
100
AcDbSpline
210
0.0
220
0.0
230
1.0
 70
    11
 71
     3
 72
    20
 73
    16
 74
     0
 42
0.0000000001
 43
0.0000000001
 12
1.0
 22
0.0
 32
0.0
 13
1.0
 23
0.0
 33
0.0
 40
0.0
 40
0.0
 40
0.0
 40
0.0
 40
0.2
 40
0.2
 40
0.2
 40
0.2
 40
0.4
 40
0.4
 40
0.4
 40
0.4
 40
0.6
 40
0.6
 40
0.6
 40
0.6
 40
1.0
 40
1.0
 40
1.0
 40
1.0
 10
108.4977
 20
-34.7955
 30
0.0
 10
108.4977
 20
-34.7955
 30
0.0
 10
103.6838
 20
-39.3381
 30
0.0
 10
103.6838
 20
-39.3381
 30
0.0
 10
103.6838
 20
-39.3381
 30
0.0
 10
103.6838
 20
-39.3381
 30
0.0
 10
108.4977
 20
-43.8811
 30
0.0
 10
108.4977
 20
-43.8811
 30
0.0
 10
108.4977
 20
-43.8811
 30
0.0
 10
108.4977
 20
-43.8811
 30
0.0
 10
113.312
 20
-39.3381
 30
0.0
 10
113.312
 20
-39.3381
 30
0.0
 10
113.312
 20
-39.3381
 30
0.0
 10
113.312
 20
-39.3381
 30
0.0
 10
108.4977
 20
-34.7955
 30
0.0
 10
108.4977
 20
-34.7955
 30
0.0
  0
SPLINE
  5
8D
330
1F
100
AcDbEntity
  8
layer 1
 62
     7
100
AcDbSpline
210
0.0
220
0.0
230
1.0
 70
    11
 71
     3
 72
    20
 73
    16
 74
     0
 42
0.0000000001
 43
0.0000000001
 12
1.0
 22
0.0
 32
0.0
 13
1.0
 23
0.0
 33
0.0
 40
0.0
 40
0.0
 40
0.0
 40
0.0
 40
0.2
 40
0.2
 40
0.2
 40
0.2
 40
0.4
 40
0.4
 40
0.4
 40
0.4
 40
0.6
 40
0.6
 40
0.6
 40
0.6
 40
1.0
 40
1.0
 40
1.0
 40
1.0
 10
111.1082
 20
-46.766
 30
0.0
 10
111.1082
 20
-46.766
 30
0.0
 10
115.9138
 20
-42.2073
 30
0.0
 10
115.9138
 20
-42.2073
 30
0.0
 10
115.9138
 20
-42.2073
 30
0.0
 10
115.9138
 20
-42.2073
 30
0.0
 10
120.7192
 20
-46.766
 30
0.0
 10
120.7192
 20
-46.766
 30
0.0
 10
120.7192
 20
-46.766
 30
0.0
 10
120.7192
 20
-46.766
 30
0.0
 10
115.9138
 20
-51.3005
 30
0.0
 10
115.9138
 20
-51.3005
 30
0.0
 10
115.9138
 20
-51.3005
 30
0.0
 10
115.9138
 20
-51.3005
 30
0.0
 10
111.1082
 20
-46.766
 30
0.0
 10
111.1082
 20
-46.766
 30
0.0
  0
SPLINE
  5
8E
330
1F
100
AcDbEntity
  8
layer 1
 62
     7
100
AcDbSpline
210
0.0
220
0.0
230
1.0
 70
    11
 71
     3
 72
    28
 73
    24
 74
     0
 42
0.0000000001
 43
0.0000000001
 12
1.0
 22
0.0
 32
0.0
 13
1.0
 23
0.0
 33
0.0
 40
0.0
 40
0.0
 40
0.0
 40
0.0
 40
0.1428571428571428
 40
0.1428571428571428
 40
0.1428571428571428
 40
0.1428571428571428
 40
0.2857142857142857
 40
0.2857142857142857
 40
0.2857142857142857
 40
0.2857142857142857
 40
0.4285714285714285
 40
0.4285714285714285
 40
0.4285714285714285
 40
0.4285714285714285
 40
0.5714285714285714
 40
0.5714285714285714
 40
0.5714285714285714
 40
0.5714285714285714
 40
0.7142857142857143
 40
0.7142857142857143
 40
0.7142857142857143
 40
0.7142857142857143
 40
1.0
 40
1.0
 40
1.0
 40
1.0
 10
125.4651
 20
-32.4784
 30
0.0
 10
125.4651
 20
-32.4784
 30
0.0
 10
125.4651
 20
-32.4926
 30
0.0
 10
125.4651
 20
-32.4926
 30
0.0
 10
125.4651
 20
-32.4926
 30
0.0
 10
125.4651
 20
-32.4926
 30
0.0
 10
130.2799
 20
-37.0354
 30
0.0
 10
130.2799
 20
-37.0354
 30
0.0
 10
130.2799
 20
-37.0354
 30
0.0
 10
130.2799
 20
-37.0354
 30
0.0
 10
135.0943
 20
-32.4926
 30
0.0
 10
135.0943
 20
-32.4926
 30
0.0
 10
135.0943
 20
-32.4926
 30
0.0
 10
135.0943
 20
-32.4926
 30
0.0
 10
135.0943
 20
-32.4784
 30
0.0
 10
135.0943
 20
-32.4784
 30
0.0
 10
135.0943
 20
-32.4784
 30
0.0
 10
135.0943
 20
-32.4784
 30
0.0
 10
130.2799
 20
-27.9356
 30
0.0
 10
130.2799
 20
-27.9356
 30
0.0
 10
130.2799
 20
-27.9356
 30
0.0
 10
130.2799
 20
-27.9356
 30
0.0
 10
125.4651
 20
-32.4784
 30
0.0
 10
125.4651
 20
-32.4784
 30
0.0
  0
SPLINE
  5
8F
330
1F
100
AcDbEntity
  8
layer 1
 62
     7
100
AcDbSpline
210
0.0
220
0.0
230
1.0
 70
    11
 71
     3
 72
    20
 73
    16
 74
     0
 42
0.0000000001
 43
0.0000000001
 12
1.0
 22
0.0
 32
0.0
 13
1.0
 23
0.0
 33
0.0
 40
0.0
 40
0.0
 40
0.0
 40
0.0
 40
0.2
 40
0.2
 40
0.2
 40
0.2
 40
0.4
 40
0.4
 40
0.4
 40
0.4
 40
0.6
 40
0.6
 40
0.6
 40
0.6
 40
1.0
 40
1.0
 40
1.0
 40
1.0
 10
123.3295
 20
-34.7955
 30
0.0
 10
123.3295
 20
-34.7955
 30
0.0
 10
128.1435
 20
-39.3381
 30
0.0
 10
128.1435
 20
-39.3381
 30
0.0
 10
128.1435
 20
-39.3381
 30
0.0
 10
128.1435
 20
-39.3381
 30
0.0
 10
123.3295
 20
-43.8811
 30
0.0
 10
123.3295
 20
-43.8811
 30
0.0
 10
123.3295
 20
-43.8811
 30
0.0
 10
123.3295
 20
-43.8811
 30
0.0
 10
118.5154
 20
-39.3381
 30
0.0
 10
118.5154
 20
-39.3381
 30
0.0
 10
118.5154
 20
-39.3381
 30
0.0
 10
118.5154
 20
-39.3381
 30
0.0
 10
123.3295
 20
-34.7955
 30
0.0
 10
123.3295
 20
-34.7955
 30
0.0
  0
SPLINE
  5
90
330
1F
100
AcDbEntity
  8
layer 1
 62
     7
100
AcDbSpline
210
0.0
220
0.0
230
1.0
 70
    11
 71
     3
 72
    28
 73
    24
 74
     0
 42
0.0000000001
 43
0.0000000001
 12
1.0
 22
0.0
 32
0.0
 13
1.0
 23
0.0
 33
0.0
 40
0.0
 40
0.0
 40
0.0
 40
0.0
 40
0.1428571428571428
 40
0.1428571428571428
 40
0.1428571428571428
 40
0.1428571428571428
 40
0.2857142857142857
 40
0.2857142857142857
 40
0.2857142857142857
 40
0.2857142857142857
 40
0.4285714285714285
 40
0.4285714285714285
 40
0.4285714285714285
 40
0.4285714285714285
 40
0.5714285714285714
 40
0.5714285714285714
 40
0.5714285714285714
 40
0.5714285714285714
 40
0.7142857142857143
 40
0.7142857142857143
 40
0.7142857142857143
 40
0.7142857142857143
 40
1.0
 40
1.0
 40
1.0
 40
1.0
 10
125.4657
 20
-46.7413
 30
0.0
 10
125.4657
 20
-46.7413
 30
0.0
 10
125.4589
 20
-46.7477
 30
0.0
 10
125.4589
 20
-46.7477
 30
0.0
 10
125.4589
 20
-46.7477
 30
0.0
 10
125.4589
 20
-46.7477
 30
0.0
 10
125.4657
 20
-46.7665
 30
0.0
 10
125.4657
 20
-46.7665
 30
0.0
 10
125.4657
 20
-46.7665
 30
0.0
 10
125.4657
 20
-46.7665
 30
0.0
 10
130.2799
 20
-51.3095
 30
0.0
 10
130.2799
 20
-51.3095
 30
0.0
 10
130.2799
 20
-51.3095
 30
0.0
 10
130.2799
 20
-51.3095
 30
0.0
 10
135.0938
 20
-46.7413
 30
0.0
 10
135.0938
 20
-46.7413
 30
0.0
 10
135.0938
 20
-46.7413
 30
0.0
 10
135.0938
 20
-46.7413
 30
0.0
 10
130.2799
 20
-42.1984
 30
0.0
 10
130.2799
 20
-42.1984
 30
0.0
 10
130.2799
 20
-42.1984
 30
0.0
 10
130.2799
 20
-42.1984
 30
0.0
 10
125.4657
 20
-46.7413
 30
0.0
 10
125.4657
 20
-46.7413
 30
0.0
  0
SPLINE
  5
91
330
1F
100
AcDbEntity
  8
layer 1
 62
     7
100
AcDbSpline
210
0.0
220
0.0
230
1.0
 70
    11
 71
     3
 72
    20
 73
    16
 74
     0
 42
0.0000000001
 43
0.0000000001
 12
1.0
 22
0.0
 32
0.0
 13
1.0
 23
0.0
 33
0.0
 40
0.0
 40
0.0
 40
0.0
 40
0.0
 40
0.2
 40
0.2
 40
0.2
 40
0.2
 40
0.4
 40
0.4
 40
0.4
 40
0.4
 40
0.6
 40
0.6
 40
0.6
 40
0.6
 40
1.0
 40
1.0
 40
1.0
 40
1.0
 10
137.2299
 20
-34.7955
 30
0.0
 10
137.2299
 20
-34.7955
 30
0.0
 10
132.416
 20
-39.3381
 30
0.0
 10
132.416
 20
-39.3381
 30
0.0
 10
132.416
 20
-39.3381
 30
0.0
 10
132.416
 20
-39.3381
 30
0.0
 10
137.2299
 20
-43.8811
 30
0.0
 10
137.2299
 20
-43.8811
 30
0.0
 10
137.2299
 20
-43.8811
 30
0.0
 10
137.2299
 20
-43.8811
 30
0.0
 10
142.044
 20
-39.3381
 30
0.0
 10
142.044
 20
-39.3381
 30
0.0
 10
142.044
 20
-39.3381
 30
0.0
 10
142.044
 20
-39.3381
 30
0.0
 10
137.2299
 20
-34.7955
 30
0.0
 10
137.2299
 20
-34.7955
 30
0.0
  0
SPLINE
  5
92
330
1F
100
AcDbEntity
  8
layer 1
 62
     7
100
AcDbSpline
210
0.0
220
0.0
230
1.0
 70
    11
 71
     3
 72
    28
 73
    24
 74
     0
 42
0.0000000001
 43
0.0000000001
 12
1.0
 22
0.0
 32
0.0
 13
1.0
 23
0.0
 33
0.0
 40
0.0
 40
0.0
 40
0.0
 40
0.0
 40
0.1428571428571428
 40
0.1428571428571428
 40
0.1428571428571428
 40
0.1428571428571428
 40
0.2857142857142857
 40
0.2857142857142857
 40
0.2857142857142857
 40
0.2857142857142857
 40
0.4285714285714285
 40
0.4285714285714285
 40
0.4285714285714285
 40
0.4285714285714285
 40
0.5714285714285714
 40
0.5714285714285714
 40
0.5714285714285714
 40
0.5714285714285714
 40
0.7142857142857143
 40
0.7142857142857143
 40
0.7142857142857143
 40
0.7142857142857143
 40
1.0
 40
1.0
 40
1.0
 40
1.0
 10
154.1969
 20
-32.4784
 30
0.0
 10
154.1969
 20
-32.4784
 30
0.0
 10
154.1969
 20
-32.4926
 30
0.0
 10
154.1969
 20
-32.4926
 30
0.0
 10
154.1969
 20
-32.4926
 30
0.0
 10
154.1969
 20
-32.4926
 30
0.0
 10
159.0118
 20
-37.0354
 30
0.0
 10
159.0118
 20
-37.0354
 30
0.0
 10
159.0118
 20
-37.0354
 30
0.0
 10
159.0118
 20
-37.0354
 30
0.0
 10
163.8264
 20
-32.4926
 30
0.0
 10
163.8264
 20
-32.4926
 30
0.0
 10
163.8264
 20
-32.4926
 30
0.0
 10
163.8264
 20
-32.4926
 30
0.0
 10
163.8264
 20
-32.4784
 30
0.0
 10
163.8264
 20
-32.4784
 30
0.0
 10
163.8264
 20
-32.4784
 30
0.0
 10
163.8264
 20
-32.4784
 30
0.0
 10
159.0118
 20
-27.9356
 30
0.0
 10
159.0118
 20
-27.9356
 30
0.0
 10
159.0118
 20
-27.9356
 30
0.0
 10
159.0118
 20
-27.9356
 30
0.0
 10
154.1969
 20
-32.4784
 30
0.0
 10
154.1969
 20
-32.4784
 30
0.0
  0
SPLINE
  5
93
330
1F
100
AcDbEntity
  8
layer 1
 62
     7
100
AcDbSpline
210
0.0
220
0.0
230
1.0
 70
    11
 71
     3
 72
    28
 73
    24
 74
     0
 42
0.0000000001
 43
0.0000000001
 12
1.0
 22
0.0
 32
0.0
 13
1.0
 23
0.0
 33
0.0
 40
0.0
 40
0.0
 40
0.0
 40
0.0
 40
0.1428571428571428
 40
0.1428571428571428
 40
0.1428571428571428
 40
0.1428571428571428
 40
0.2857142857142857
 40
0.2857142857142857
 40
0.2857142857142857
 40
0.2857142857142857
 40
0.4285714285714285
 40
0.4285714285714285
 40
0.4285714285714285
 40
0.4285714285714285
 40
0.5714285714285714
 40
0.5714285714285714
 40
0.5714285714285714
 40
0.5714285714285714
 40
0.7142857142857143
 40
0.7142857142857143
 40
0.7142857142857143
 40
0.7142857142857143
 40
1.0
 40
1.0
 40
1.0
 40
1.0
 10
163.8259
 20
-46.7665
 30
0.0
 10
163.8259
 20
-46.7665
 30
0.0
 10
159.0118
 20
-42.1984
 30
0.0
 10
159.0118
 20
-42.1984
 30
0.0
 10
159.0118
 20
-42.1984
 30
0.0
 10
159.0118
 20
-42.1984
 30
0.0
 10
154.1839
 20
-46.754
 30
0.0
 10
154.1839
 20
-46.754
 30
0.0
 10
154.1839
 20
-46.754
 30
0.0
 10
154.1839
 20
-46.754
 30
0.0
 10
154.1911
 20
-46.7477
 30
0.0
 10
154.1911
 20
-46.7477
 30
0.0
 10
154.1911
 20
-46.7477
 30
0.0
 10
154.1911
 20
-46.7477
 30
0.0
 10
154.1979
 20
-46.7665
 30
0.0
 10
154.1979
 20
-46.7665
 30
0.0
 10
154.1979
 20
-46.7665
 30
0.0
 10
154.1979
 20
-46.7665
 30
0.0
 10
159.0118
 20
-51.3095
 30
0.0
 10
159.0118
 20
-51.3095
 30
0.0
 10
159.0118
 20
-51.3095
 30
0.0
 10
159.0118
 20
-51.3095
 30
0.0
 10
163.8259
 20
-46.7665
 30
0.0
 10
163.8259
 20
-46.7665
 30
0.0
  0
SPLINE
  5
94
330
1F
100
AcDbEntity
  8
layer 1
 62
     7
100
AcDbSpline
210
0.0
220
0.0
230
1.0
 70
    11
 71
     3
 72
    20
 73
    16
 74
     0
 42
0.0000000001
 43
0.0000000001
 12
1.0
 22
0.0
 32
0.0
 13
1.0
 23
0.0
 33
0.0
 40
0.0
 40
0.0
 40
0.0
 40
0.0
 40
0.2
 40
0.2
 40
0.2
 40
0.2
 40
0.4
 40
0.4
 40
0.4
 40
0.4
 40
0.6
 40
0.6
 40
0.6
 40
0.6
 40
1.0
 40
1.0
 40
1.0
 40
1.0
 10
152.0615
 20
-34.7955
 30
0.0
 10
152.0615
 20
-34.7955
 30
0.0
 10
156.8755
 20
-39.3381
 30
0.0
 10
156.8755
 20
-39.3381
 30
0.0
 10
156.8755
 20
-39.3381
 30
0.0
 10
156.8755
 20
-39.3381
 30
0.0
 10
152.0615
 20
-43.8811
 30
0.0
 10
152.0615
 20
-43.8811
 30
0.0
 10
152.0615
 20
-43.8811
 30
0.0
 10
152.0615
 20
-43.8811
 30
0.0
 10
147.2476
 20
-39.3381
 30
0.0
 10
147.2476
 20
-39.3381
 30
0.0
 10
147.2476
 20
-39.3381
 30
0.0
 10
147.2476
 20
-39.3381
 30
0.0
 10
152.0615
 20
-34.7955
 30
0.0
 10
152.0615
 20
-34.7955
 30
0.0
  0
SPLINE
  5
95
330
1F
100
AcDbEntity
  8
layer 1
 62
     7
100
AcDbSpline
210
0.0
220
0.0
230
1.0
 70
    11
 71
     3
 72
    20
 73
    16
 74
     0
 42
0.0000000001
 43
0.0000000001
 12
1.0
 22
0.0
 32
0.0
 13
1.0
 23
0.0
 33
0.0
 40
0.0
 40
0.0
 40
0.0
 40
0.0
 40
0.2
 40
0.2
 40
0.2
 40
0.2
 40
0.4
 40
0.4
 40
0.4
 40
0.4
 40
0.6
 40
0.6
 40
0.6
 40
0.6
 40
1.0
 40
1.0
 40
1.0
 40
1.0
 10
165.9622
 20
-34.7955
 30
0.0
 10
165.9622
 20
-34.7955
 30
0.0
 10
161.1478
 20
-39.3381
 30
0.0
 10
161.1478
 20
-39.3381
 30
0.0
 10
161.1478
 20
-39.3381
 30
0.0
 10
161.1478
 20
-39.3381
 30
0.0
 10
165.9622
 20
-43.8811
 30
0.0
 10
165.9622
 20
-43.8811
 30
0.0
 10
165.9622
 20
-43.8811
 30
0.0
 10
165.9622
 20
-43.8811
 30
0.0
 10
170.7762
 20
-39.3381
 30
0.0
 10
170.7762
 20
-39.3381
 30
0.0
 10
170.7762
 20
-39.3381
 30
0.0
 10
170.7762
 20
-39.3381
 30
0.0
 10
165.9622
 20
-34.7955
 30
0.0
 10
165.9622
 20
-34.7955
 30
0.0
  0
SPLINE
  5
96
330
1F
100
AcDbEntity
  8
layer 1
 62
     7
100
AcDbSpline
210
0.0
220
0.0
230
1.0
 70
    11
 71
     3
 72
    20
 73
    16
 74
     0
 42
0.0000000001
 43
0.0000000001
 12
1.0
 22
0.0
 32
0.0
 13
1.0
 23
0.0
 33
0.0
 40
0.0
 40
0.0
 40
0.0
 40
0.0
 40
0.2
 40
0.2
 40
0.2
 40
0.2
 40
0.4
 40
0.4
 40
0.4
 40
0.4
 40
0.6
 40
0.6
 40
0.6
 40
0.6
 40
1.0
 40
1.0
 40
1.0
 40
1.0
 10
180.7938
 20
-34.7955
 30
0.0
 10
180.7938
 20
-34.7955
 30
0.0
 10
185.6078
 20
-39.3381
 30
0.0
 10
185.6078
 20
-39.3381
 30
0.0
 10
185.6078
 20
-39.3381
 30
0.0
 10
185.6078
 20
-39.3381
 30
0.0
 10
180.7938
 20
-43.8811
 30
0.0
 10
180.7938
 20
-43.8811
 30
0.0
 10
180.7938
 20
-43.8811
 30
0.0
 10
180.7938
 20
-43.8811
 30
0.0
 10
175.9799
 20
-39.3381
 30
0.0
 10
175.9799
 20
-39.3381
 30
0.0
 10
175.9799
 20
-39.3381
 30
0.0
 10
175.9799
 20
-39.3381
 30
0.0
 10
180.7938
 20
-34.7955
 30
0.0
 10
180.7938
 20
-34.7955
 30
0.0
  0
SPLINE
  5
97
330
1F
100
AcDbEntity
  8
layer 1
 62
     7
100
AcDbSpline
210
0.0
220
0.0
230
1.0
 70
    11
 71
     3
 72
    20
 73
    16
 74
     0
 42
0.0000000001
 43
0.0000000001
 12
1.0
 22
0.0
 32
0.0
 13
1.0
 23
0.0
 33
0.0
 40
0.0
 40
0.0
 40
0.0
 40
0.0
 40
0.2
 40
0.2
 40
0.2
 40
0.2
 40
0.4
 40
0.4
 40
0.4
 40
0.4
 40
0.6
 40
0.6
 40
0.6
 40
0.6
 40
1.0
 40
1.0
 40
1.0
 40
1.0
 10
108.4977
 20
-49.6271
 30
0.0
 10
108.4977
 20
-49.6271
 30
0.0
 10
103.6838
 20
-54.1698
 30
0.0
 10
103.6838
 20
-54.1698
 30
0.0
 10
103.6838
 20
-54.1698
 30
0.0
 10
103.6838
 20
-54.1698
 30
0.0
 10
108.4977
 20
-58.7127
 30
0.0
 10
108.4977
 20
-58.7127
 30
0.0
 10
108.4977
 20
-58.7127
 30
0.0
 10
108.4977
 20
-58.7127
 30
0.0
 10
113.312
 20
-54.1698
 30
0.0
 10
113.312
 20
-54.1698
 30
0.0
 10
113.312
 20
-54.1698
 30
0.0
 10
113.312
 20
-54.1698
 30
0.0
 10
108.4977
 20
-49.6271
 30
0.0
 10
108.4977
 20
-49.6271
 30
0.0
  0
SPLINE
  5
98
330
1F
100
AcDbEntity
  8
layer 1
 62
     7
100
AcDbSpline
210
0.0
220
0.0
230
1.0
 70
    11
 71
     3
 72
    20
 73
    16
 74
     0
 42
0.0000000001
 43
0.0000000001
 12
1.0
 22
0.0
 32
0.0
 13
1.0
 23
0.0
 33
0.0
 40
0.0
 40
0.0
 40
0.0
 40
0.0
 40
0.2
 40
0.2
 40
0.2
 40
0.2
 40
0.4
 40
0.4
 40
0.4
 40
0.4
 40
0.6
 40
0.6
 40
0.6
 40
0.6
 40
1.0
 40
1.0
 40
1.0
 40
1.0
 10
123.3295
 20
-49.6271
 30
0.0
 10
123.3295
 20
-49.6271
 30
0.0
 10
128.1435
 20
-54.1698
 30
0.0
 10
128.1435
 20
-54.1698
 30
0.0
 10
128.1435
 20
-54.1698
 30
0.0
 10
128.1435
 20
-54.1698
 30
0.0
 10
123.3295
 20
-58.7127
 30
0.0
 10
123.3295
 20
-58.7127
 30
0.0
 10
123.3295
 20
-58.7127
 30
0.0
 10
123.3295
 20
-58.7127
 30
0.0
 10
118.5154
 20
-54.1698
 30
0.0
 10
118.5154
 20
-54.1698
 30
0.0
 10
118.5154
 20
-54.1698
 30
0.0
 10
118.5154
 20
-54.1698
 30
0.0
 10
123.3295
 20
-49.6271
 30
0.0
 10
123.3295
 20
-49.6271
 30
0.0
  0
SPLINE
  5
99
330
1F
100
AcDbEntity
  8
layer 1
 62
     7
100
AcDbSpline
210
0.0
220
0.0
230
1.0
 70
    11
 71
     3
 72
    20
 73
    16
 74
     0
 42
0.0000000001
 43
0.0000000001
 12
1.0
 22
0.0
 32
0.0
 13
1.0
 23
0.0
 33
0.0
 40
0.0
 40
0.0
 40
0.0
 40
0.0
 40
0.2
 40
0.2
 40
0.2
 40
0.2
 40
0.4
 40
0.4
 40
0.4
 40
0.4
 40
0.6
 40
0.6
 40
0.6
 40
0.6
 40
1.0
 40
1.0
 40
1.0
 40
1.0
 10
137.2299
 20
-49.6271
 30
0.0
 10
137.2299
 20
-49.6271
 30
0.0
 10
132.416
 20
-54.1698
 30
0.0
 10
132.416
 20
-54.1698
 30
0.0
 10
132.416
 20
-54.1698
 30
0.0
 10
132.416
 20
-54.1698
 30
0.0
 10
137.2299
 20
-58.7127
 30
0.0
 10
137.2299
 20
-58.7127
 30
0.0
 10
137.2299
 20
-58.7127
 30
0.0
 10
137.2299
 20
-58.7127
 30
0.0
 10
142.044
 20
-54.1698
 30
0.0
 10
142.044
 20
-54.1698
 30
0.0
 10
142.044
 20
-54.1698
 30
0.0
 10
142.044
 20
-54.1698
 30
0.0
 10
137.2299
 20
-49.6271
 30
0.0
 10
137.2299
 20
-49.6271
 30
0.0
  0
SPLINE
  5
9A
330
1F
100
AcDbEntity
  8
layer 1
 62
     7
100
AcDbSpline
210
0.0
220
0.0
230
1.0
 70
    11
 71
     3
 72
    20
 73
    16
 74
     0
 42
0.0000000001
 43
0.0000000001
 12
1.0
 22
0.0
 32
0.0
 13
1.0
 23
0.0
 33
0.0
 40
0.0
 40
0.0
 40
0.0
 40
0.0
 40
0.2
 40
0.2
 40
0.2
 40
0.2
 40
0.4
 40
0.4
 40
0.4
 40
0.4
 40
0.6
 40
0.6
 40
0.6
 40
0.6
 40
1.0
 40
1.0
 40
1.0
 40
1.0
 10
139.8398
 20
-46.7419
 30
0.0
 10
139.8398
 20
-46.7419
 30
0.0
 10
144.6455
 20
-51.3005
 30
0.0
 10
144.6455
 20
-51.3005
 30
0.0
 10
144.6455
 20
-51.3005
 30
0.0
 10
144.6455
 20
-51.3005
 30
0.0
 10
149.4511
 20
-46.7419
 30
0.0
 10
149.4511
 20
-46.7419
 30
0.0
 10
149.4511
 20
-46.7419
 30
0.0
 10
149.4511
 20
-46.7419
 30
0.0
 10
144.6455
 20
-42.2073
 30
0.0
 10
144.6455
 20
-42.2073
 30
0.0
 10
144.6455
 20
-42.2073
 30
0.0
 10
144.6455
 20
-42.2073
 30
0.0
 10
139.8398
 20
-46.7419
 30
0.0
 10
139.8398
 20
-46.7419
 30
0.0
  0
SPLINE
  5
9B
330
1F
100
AcDbEntity
  8
layer 1
 62
     7
100
AcDbSpline
210
0.0
220
0.0
230
1.0
 70
    11
 71
     3
 72
    20
 73
    16
 74
     0
 42
0.0000000001
 43
0.0000000001
 12
1.0
 22
0.0
 32
0.0
 13
1.0
 23
0.0
 33
0.0
 40
0.0
 40
0.0
 40
0.0
 40
0.0
 40
0.2
 40
0.2
 40
0.2
 40
0.2
 40
0.4
 40
0.4
 40
0.4
 40
0.4
 40
0.6
 40
0.6
 40
0.6
 40
0.6
 40
1.0
 40
1.0
 40
1.0
 40
1.0
 10
152.0615
 20
-49.6271
 30
0.0
 10
152.0615
 20
-49.6271
 30
0.0
 10
156.8755
 20
-54.1698
 30
0.0
 10
156.8755
 20
-54.1698
 30
0.0
 10
156.8755
 20
-54.1698
 30
0.0
 10
156.8755
 20
-54.1698
 30
0.0
 10
152.0615
 20
-58.7127
 30
0.0
 10
152.0615
 20
-58.7127
 30
0.0
 10
152.0615
 20
-58.7127
 30
0.0
 10
152.0615
 20
-58.7127
 30
0.0
 10
147.2476
 20
-54.1698
 30
0.0
 10
147.2476
 20
-54.1698
 30
0.0
 10
147.2476
 20
-54.1698
 30
0.0
 10
147.2476
 20
-54.1698
 30
0.0
 10
152.0615
 20
-49.6271
 30
0.0
 10
152.0615
 20
-49.6271
 30
0.0
  0
SPLINE
  5
9C
330
1F
100
AcDbEntity
  8
layer 1
 62
     7
100
AcDbSpline
210
0.0
220
0.0
230
1.0
 70
    11
 71
     3
 72
    20
 73
    16
 74
     0
 42
0.0000000001
 43
0.0000000001
 12
1.0
 22
0.0
 32
0.0
 13
1.0
 23
0.0
 33
0.0
 40
0.0
 40
0.0
 40
0.0
 40
0.0
 40
0.2
 40
0.2
 40
0.2
 40
0.2
 40
0.4
 40
0.4
 40
0.4
 40
0.4
 40
0.6
 40
0.6
 40
0.6
 40
0.6
 40
1.0
 40
1.0
 40
1.0
 40
1.0
 10
165.9622
 20
-49.6271
 30
0.0
 10
165.9622
 20
-49.6271
 30
0.0
 10
161.1478
 20
-54.1698
 30
0.0
 10
161.1478
 20
-54.1698
 30
0.0
 10
161.1478
 20
-54.1698
 30
0.0
 10
161.1478
 20
-54.1698
 30
0.0
 10
165.9622
 20
-58.7127
 30
0.0
 10
165.9622
 20
-58.7127
 30
0.0
 10
165.9622
 20
-58.7127
 30
0.0
 10
165.9622
 20
-58.7127
 30
0.0
 10
170.7762
 20
-54.1698
 30
0.0
 10
170.7762
 20
-54.1698
 30
0.0
 10
170.7762
 20
-54.1698
 30
0.0
 10
170.7762
 20
-54.1698
 30
0.0
 10
165.9622
 20
-49.6271
 30
0.0
 10
165.9622
 20
-49.6271
 30
0.0
  0
SPLINE
  5
9D
330
1F
100
AcDbEntity
  8
layer 1
 62
     7
100
AcDbSpline
210
0.0
220
0.0
230
1.0
 70
    11
 71
     3
 72
    20
 73
    16
 74
     0
 42
0.0000000001
 43
0.0000000001
 12
1.0
 22
0.0
 32
0.0
 13
1.0
 23
0.0
 33
0.0
 40
0.0
 40
0.0
 40
0.0
 40
0.0
 40
0.2
 40
0.2
 40
0.2
 40
0.2
 40
0.4
 40
0.4
 40
0.4
 40
0.4
 40
0.6
 40
0.6
 40
0.6
 40
0.6
 40
1.0
 40
1.0
 40
1.0
 40
1.0
 10
168.5726
 20
-46.7419
 30
0.0
 10
168.5726
 20
-46.7419
 30
0.0
 10
173.3777
 20
-51.3005
 30
0.0
 10
173.3777
 20
-51.3005
 30
0.0
 10
173.3777
 20
-51.3005
 30
0.0
 10
173.3777
 20
-51.3005
 30
0.0
 10
178.1834
 20
-46.7419
 30
0.0
 10
178.1834
 20
-46.7419
 30
0.0
 10
178.1834
 20
-46.7419
 30
0.0
 10
178.1834
 20
-46.7419
 30
0.0
 10
173.3777
 20
-42.2073
 30
0.0
 10
173.3777
 20
-42.2073
 30
0.0
 10
173.3777
 20
-42.2073
 30
0.0
 10
173.3777
 20
-42.2073
 30
0.0
 10
168.5726
 20
-46.7419
 30
0.0
 10
168.5726
 20
-46.7419
 30
0.0
  0
SPLINE
  5
9E
330
1F
100
AcDbEntity
  8
layer 1
 62
     7
100
AcDbSpline
210
0.0
220
0.0
230
1.0
 70
    11
 71
     3
 72
    20
 73
    16
 74
     0
 42
0.0000000001
 43
0.0000000001
 12
1.0
 22
0.0
 32
0.0
 13
1.0
 23
0.0
 33
0.0
 40
0.0
 40
0.0
 40
0.0
 40
0.0
 40
0.2
 40
0.2
 40
0.2
 40
0.2
 40
0.4
 40
0.4
 40
0.4
 40
0.4
 40
0.6
 40
0.6
 40
0.6
 40
0.6
 40
1.0
 40
1.0
 40
1.0
 40
1.0
 10
180.7938
 20
-49.6271
 30
0.0
 10
180.7938
 20
-49.6271
 30
0.0
 10
185.6078
 20
-54.1698
 30
0.0
 10
185.6078
 20
-54.1698
 30
0.0
 10
185.6078
 20
-54.1698
 30
0.0
 10
185.6078
 20
-54.1698
 30
0.0
 10
180.7938
 20
-58.7127
 30
0.0
 10
180.7938
 20
-58.7127
 30
0.0
 10
180.7938
 20
-58.7127
 30
0.0
 10
180.7938
 20
-58.7127
 30
0.0
 10
175.9799
 20
-54.1698
 30
0.0
 10
175.9799
 20
-54.1698
 30
0.0
 10
175.9799
 20
-54.1698
 30
0.0
 10
175.9799
 20
-54.1698
 30
0.0
 10
180.7938
 20
-49.6271
 30
0.0
 10
180.7938
 20
-49.6271
 30
0.0
  0
SPLINE
  5
9F
330
1F
100
AcDbEntity
  8
layer 1
 62
     7
100
AcDbSpline
210
0.0
220
0.0
230
1.0
 70
    11
 71
     3
 72
    24
 73
    20
 74
     0
 42
0.0000000001
 43
0.0000000001
 12
1.0
 22
0.0
 32
0.0
 13
1.0
 23
0.0
 33
0.0
 40
0.0
 40
0.0
 40
0.0
 40
0.0
 40
0.1666666666666667
 40
0.1666666666666667
 40
0.1666666666666667
 40
0.1666666666666667
 40
0.3333333333333333
 40
0.3333333333333333
 40
0.3333333333333333
 40
0.3333333333333333
 40
0.5
 40
0.5
 40
0.5
 40
0.5
 40
0.6666666666666666
 40
0.6666666666666666
 40
0.6666666666666666
 40
0.6666666666666666
 40
1.0
 40
1.0
 40
1.0
 40
1.0
 10
184.0194
 20
53.1267
 30
0.0
 10
184.0194
 20
53.1267
 30
0.0
 10
184.0194
 20
53.1215
 30
0.0
 10
184.0194
 20
53.1215
 30
0.0
 10
184.0194
 20
53.1215
 30
0.0
 10
184.0194
 20
53.1215
 30
0.0
 10
184.0231
 20
53.1281
 30
0.0
 10
184.0231
 20
53.1281
 30
0.0
 10
184.0231
 20
53.1281
 30
0.0
 10
184.0231
 20
53.1281
 30
0.0
 10
188.8375
 20
57.6747
 30
0.0
 10
188.8375
 20
57.6747
 30
0.0
 10
188.8375
 20
57.6747
 30
0.0
 10
188.8375
 20
57.6747
 30
0.0
 10
188.8375
 20
48.5754
 30
0.0
 10
188.8375
 20
48.5754
 30
0.0
 10
188.8375
 20
48.5754
 30
0.0
 10
188.8375
 20
48.5754
 30
0.0
 10
184.0194
 20
53.1267
 30
0.0
 10
184.0194
 20
53.1267
 30
0.0
  0
SPLINE
  5
A0
330
1F
100
AcDbEntity
  8
layer 1
 62
     7
100
AcDbSpline
210
0.0
220
0.0
230
1.0
 70
    11
 71
     3
 72
    24
 73
    20
 74
     0
 42
0.0000000001
 43
0.0000000001
 12
1.0
 22
0.0
 32
0.0
 13
1.0
 23
0.0
 33
0.0
 40
0.0
 40
0.0
 40
0.0
 40
0.0
 40
0.1666666666666667
 40
0.1666666666666667
 40
0.1666666666666667
 40
0.1666666666666667
 40
0.3333333333333333
 40
0.3333333333333333
 40
0.3333333333333333
 40
0.3333333333333333
 40
0.5
 40
0.5
 40
0.5
 40
0.5
 40
0.6666666666666666
 40
0.6666666666666666
 40
0.6666666666666666
 40
0.6666666666666666
 40
1.0
 40
1.0
 40
1.0
 40
1.0
 10
184.0169
 20
38.8534
 30
0.0
 10
184.0169
 20
38.8534
 30
0.0
 10
184.0169
 20
38.8627
 30
0.0
 10
184.0169
 20
38.8627
 30
0.0
 10
184.0169
 20
38.8627
 30
0.0
 10
184.0169
 20
38.8627
 30
0.0
 10
184.0235
 20
38.8503
 30
0.0
 10
184.0235
 20
38.8503
 30
0.0
 10
184.0235
 20
38.8503
 30
0.0
 10
184.0235
 20
38.8503
 30
0.0
 10
188.838
 20
43.4119
 30
0.0
 10
188.838
 20
43.4119
 30
0.0
 10
188.838
 20
43.4119
 30
0.0
 10
188.838
 20
43.4119
 30
0.0
 10
188.838
 20
34.3011
 30
0.0
 10
188.838
 20
34.3011
 30
0.0
 10
188.838
 20
34.3011
 30
0.0
 10
188.838
 20
34.3011
 30
0.0
 10
184.0169
 20
38.8534
 30
0.0
 10
184.0169
 20
38.8534
 30
0.0
  0
SPLINE
  5
A1
330
1F
100
AcDbEntity
  8
layer 1
 62
     7
100
AcDbSpline
210
0.0
220
0.0
230
1.0
 70
    11
 71
     3
 72
    24
 73
    20
 74
     0
 42
0.0000000001
 43
0.0000000001
 12
1.0
 22
0.0
 32
0.0
 13
1.0
 23
0.0
 33
0.0
 40
0.0
 40
0.0
 40
0.0
 40
0.0
 40
0.1666666666666667
 40
0.1666666666666667
 40
0.1666666666666667
 40
0.1666666666666667
 40
0.3333333333333333
 40
0.3333333333333333
 40
0.3333333333333333
 40
0.3333333333333333
 40
0.5
 40
0.5
 40
0.5
 40
0.5
 40
0.6666666666666666
 40
0.6666666666666666
 40
0.6666666666666666
 40
0.6666666666666666
 40
1.0
 40
1.0
 40
1.0
 40
1.0
 10
184.021
 20
24.5915
 30
0.0
 10
184.021
 20
24.5915
 30
0.0
 10
184.0194
 20
24.5849
 30
0.0
 10
184.0194
 20
24.5849
 30
0.0
 10
184.0194
 20
24.5849
 30
0.0
 10
184.0194
 20
24.5849
 30
0.0
 10
184.0194
 20
24.588
 30
0.0
 10
184.0194
 20
24.588
 30
0.0
 10
184.0194
 20
24.588
 30
0.0
 10
184.0194
 20
24.588
 30
0.0
 10
188.8375
 20
29.1381
 30
0.0
 10
188.8375
 20
29.1381
 30
0.0
 10
188.8375
 20
29.1381
 30
0.0
 10
188.8375
 20
29.1381
 30
0.0
 10
188.8375
 20
20.0384
 30
0.0
 10
188.8375
 20
20.0384
 30
0.0
 10
188.8375
 20
20.0384
 30
0.0
 10
188.8375
 20
20.0384
 30
0.0
 10
184.021
 20
24.5915
 30
0.0
 10
184.021
 20
24.5915
 30
0.0
  0
SPLINE
  5
A2
330
1F
100
AcDbEntity
  8
layer 1
 62
     7
100
AcDbSpline
210
0.0
220
0.0
230
1.0
 70
    11
 71
     3
 72
    24
 73
    20
 74
     0
 42
0.0000000001
 43
0.0000000001
 12
1.0
 22
0.0
 32
0.0
 13
1.0
 23
0.0
 33
0.0
 40
0.0
 40
0.0
 40
0.0
 40
0.0
 40
0.1666666666666667
 40
0.1666666666666667
 40
0.1666666666666667
 40
0.1666666666666667
 40
0.3333333333333333
 40
0.3333333333333333
 40
0.3333333333333333
 40
0.3333333333333333
 40
0.5
 40
0.5
 40
0.5
 40
0.5
 40
0.6666666666666666
 40
0.6666666666666666
 40
0.6666666666666666
 40
0.6666666666666666
 40
1.0
 40
1.0
 40
1.0
 40
1.0
 10
184.0169
 20
10.3162
 30
0.0
 10
184.0169
 20
10.3162
 30
0.0
 10
184.0169
 20
10.3261
 30
0.0
 10
184.0169
 20
10.3261
 30
0.0
 10
184.0169
 20
10.3261
 30
0.0
 10
184.0169
 20
10.3261
 30
0.0
 10
184.0235
 20
10.3137
 30
0.0
 10
184.0235
 20
10.3137
 30
0.0
 10
184.0235
 20
10.3137
 30
0.0
 10
184.0235
 20
10.3137
 30
0.0
 10
188.838
 20
14.8753
 30
0.0
 10
188.838
 20
14.8753
 30
0.0
 10
188.838
 20
14.8753
 30
0.0
 10
188.838
 20
14.8753
 30
0.0
 10
188.838
 20
5.7645
 30
0.0
 10
188.838
 20
5.7645
 30
0.0
 10
188.838
 20
5.7645
 30
0.0
 10
188.838
 20
5.7645
 30
0.0
 10
184.0169
 20
10.3162
 30
0.0
 10
184.0169
 20
10.3162
 30
0.0
  0
SPLINE
  5
A3
330
1F
100
AcDbEntity
  8
layer 1
 62
     7
100
AcDbSpline
210
0.0
220
0.0
230
1.0
 70
    11
 71
     3
 72
    24
 73
    20
 74
     0
 42
0.0000000001
 43
0.0000000001
 12
1.0
 22
0.0
 32
0.0
 13
1.0
 23
0.0
 33
0.0
 40
0.0
 40
0.0
 40
0.0
 40
0.0
 40
0.1666666666666667
 40
0.1666666666666667
 40
0.1666666666666667
 40
0.1666666666666667
 40
0.3333333333333333
 40
0.3333333333333333
 40
0.3333333333333333
 40
0.3333333333333333
 40
0.5
 40
0.5
 40
0.5
 40
0.5
 40
0.6666666666666666
 40
0.6666666666666666
 40
0.6666666666666666
 40
0.6666666666666666
 40
1.0
 40
1.0
 40
1.0
 40
1.0
 10
184.021
 20
-3.9455
 30
0.0
 10
184.021
 20
-3.9455
 30
0.0
 10
184.0194
 20
-3.9523
 30
0.0
 10
184.0194
 20
-3.9523
 30
0.0
 10
184.0194
 20
-3.9523
 30
0.0
 10
184.0194
 20
-3.9523
 30
0.0
 10
184.0194
 20
-3.9486
 30
0.0
 10
184.0194
 20
-3.9486
 30
0.0
 10
184.0194
 20
-3.9486
 30
0.0
 10
184.0194
 20
-3.9486
 30
0.0
 10
188.8375
 20
0.601
 30
0.0
 10
188.8375
 20
0.601
 30
0.0
 10
188.8375
 20
0.601
 30
0.0
 10
188.8375
 20
0.601
 30
0.0
 10
188.8375
 20
-8.4982
 30
0.0
 10
188.8375
 20
-8.4982
 30
0.0
 10
188.8375
 20
-8.4982
 30
0.0
 10
188.8375
 20
-8.4982
 30
0.0
 10
184.021
 20
-3.9455
 30
0.0
 10
184.021
 20
-3.9455
 30
0.0
  0
SPLINE
  5
A4
330
1F
100
AcDbEntity
  8
layer 1
 62
     7
100
AcDbSpline
210
0.0
220
0.0
230
1.0
 70
    11
 71
     3
 72
    24
 73
    20
 74
     0
 42
0.0000000001
 43
0.0000000001
 12
1.0
 22
0.0
 32
0.0
 13
1.0
 23
0.0
 33
0.0
 40
0.0
 40
0.0
 40
0.0
 40
0.0
 40
0.1666666666666667
 40
0.1666666666666667
 40
0.1666666666666667
 40
0.1666666666666667
 40
0.3333333333333333
 40
0.3333333333333333
 40
0.3333333333333333
 40
0.3333333333333333
 40
0.5
 40
0.5
 40
0.5
 40
0.5
 40
0.6666666666666666
 40
0.6666666666666666
 40
0.6666666666666666
 40
0.6666666666666666
 40
1.0
 40
1.0
 40
1.0
 40
1.0
 10
184.0169
 20
-18.2204
 30
0.0
 10
184.0169
 20
-18.2204
 30
0.0
 10
184.0169
 20
-18.2109
 30
0.0
 10
184.0169
 20
-18.2109
 30
0.0
 10
184.0169
 20
-18.2109
 30
0.0
 10
184.0169
 20
-18.2109
 30
0.0
 10
184.0235
 20
-18.2235
 30
0.0
 10
184.0235
 20
-18.2235
 30
0.0
 10
184.0235
 20
-18.2235
 30
0.0
 10
184.0235
 20
-18.2235
 30
0.0
 10
188.838
 20
-13.6619
 30
0.0
 10
188.838
 20
-13.6619
 30
0.0
 10
188.838
 20
-13.6619
 30
0.0
 10
188.838
 20
-13.6619
 30
0.0
 10
188.838
 20
-22.7725
 30
0.0
 10
188.838
 20
-22.7725
 30
0.0
 10
188.838
 20
-22.7725
 30
0.0
 10
188.838
 20
-22.7725
 30
0.0
 10
184.0169
 20
-18.2204
 30
0.0
 10
184.0169
 20
-18.2204
 30
0.0
  0
SPLINE
  5
A5
330
1F
100
AcDbEntity
  8
layer 1
 62
     7
100
AcDbSpline
210
0.0
220
0.0
230
1.0
 70
    11
 71
     3
 72
    24
 73
    20
 74
     0
 42
0.0000000001
 43
0.0000000001
 12
1.0
 22
0.0
 32
0.0
 13
1.0
 23
0.0
 33
0.0
 40
0.0
 40
0.0
 40
0.0
 40
0.0
 40
0.1666666666666667
 40
0.1666666666666667
 40
0.1666666666666667
 40
0.1666666666666667
 40
0.3333333333333333
 40
0.3333333333333333
 40
0.3333333333333333
 40
0.3333333333333333
 40
0.5
 40
0.5
 40
0.5
 40
0.5
 40
0.6666666666666666
 40
0.6666666666666666
 40
0.6666666666666666
 40
0.6666666666666666
 40
1.0
 40
1.0
 40
1.0
 40
1.0
 10
184.021
 20
-32.4821
 30
0.0
 10
184.021
 20
-32.4821
 30
0.0
 10
184.0194
 20
-32.4889
 30
0.0
 10
184.0194
 20
-32.4889
 30
0.0
 10
184.0194
 20
-32.4889
 30
0.0
 10
184.0194
 20
-32.4889
 30
0.0
 10
184.0194
 20
-32.4858
 30
0.0
 10
184.0194
 20
-32.4858
 30
0.0
 10
184.0194
 20
-32.4858
 30
0.0
 10
184.0194
 20
-32.4858
 30
0.0
 10
188.8375
 20
-27.9356
 30
0.0
 10
188.8375
 20
-27.9356
 30
0.0
 10
188.8375
 20
-27.9356
 30
0.0
 10
188.8375
 20
-27.9356
 30
0.0
 10
188.8375
 20
-37.0354
 30
0.0
 10
188.8375
 20
-37.0354
 30
0.0
 10
188.8375
 20
-37.0354
 30
0.0
 10
188.8375
 20
-37.0354
 30
0.0
 10
184.021
 20
-32.4821
 30
0.0
 10
184.021
 20
-32.4821
 30
0.0
  0
SPLINE
  5
A6
330
1F
100
AcDbEntity
  8
layer 1
 62
     7
100
AcDbSpline
210
0.0
220
0.0
230
1.0
 70
    11
 71
     3
 72
    24
 73
    20
 74
     0
 42
0.0000000001
 43
0.0000000001
 12
1.0
 22
0.0
 32
0.0
 13
1.0
 23
0.0
 33
0.0
 40
0.0
 40
0.0
 40
0.0
 40
0.0
 40
0.1666666666666667
 40
0.1666666666666667
 40
0.1666666666666667
 40
0.1666666666666667
 40
0.3333333333333333
 40
0.3333333333333333
 40
0.3333333333333333
 40
0.3333333333333333
 40
0.5
 40
0.5
 40
0.5
 40
0.5
 40
0.6666666666666666
 40
0.6666666666666666
 40
0.6666666666666666
 40
0.6666666666666666
 40
1.0
 40
1.0
 40
1.0
 40
1.0
 10
184.0169
 20
-46.7571
 30
0.0
 10
184.0169
 20
-46.7571
 30
0.0
 10
184.0169
 20
-46.7477
 30
0.0
 10
184.0169
 20
-46.7477
 30
0.0
 10
184.0169
 20
-46.7477
 30
0.0
 10
184.0169
 20
-46.7477
 30
0.0
 10
184.0235
 20
-46.7602
 30
0.0
 10
184.0235
 20
-46.7602
 30
0.0
 10
184.0235
 20
-46.7602
 30
0.0
 10
184.0235
 20
-46.7602
 30
0.0
 10
188.838
 20
-42.1985
 30
0.0
 10
188.838
 20
-42.1985
 30
0.0
 10
188.838
 20
-42.1985
 30
0.0
 10
188.838
 20
-42.1985
 30
0.0
 10
188.838
 20
-51.3094
 30
0.0
 10
188.838
 20
-51.3094
 30
0.0
 10
188.838
 20
-51.3094
 30
0.0
 10
188.838
 20
-51.3094
 30
0.0
 10
184.0169
 20
-46.7571
 30
0.0
 10
184.0169
 20
-46.7571
 30
0.0
  0
SPLINE
  5
A7
330
1F
100
AcDbEntity
  8
layer 1
 62
     7
100
AcDbSpline
210
0.0
220
0.0
230
1.0
 70
    11
 71
     3
 72
    36
 73
    32
 74
     0
 42
0.0000000001
 43
0.0000000001
 12
1.0
 22
0.0
 32
0.0
 13
1.0
 23
0.0
 33
0.0
 40
0.0
 40
0.0
 40
0.0
 40
0.0
 40
0.1111111111111111
 40
0.1111111111111111
 40
0.1111111111111111
 40
0.1111111111111111
 40
0.2222222222222222
 40
0.2222222222222222
 40
0.2222222222222222
 40
0.2222222222222222
 40
0.3333333333333333
 40
0.3333333333333333
 40
0.3333333333333333
 40
0.3333333333333333
 40
0.4444444444444444
 40
0.4444444444444444
 40
0.4444444444444444
 40
0.4444444444444444
 40
0.5555555555555556
 40
0.5555555555555556
 40
0.5555555555555556
 40
0.5555555555555556
 40
0.6666666666666666
 40
0.6666666666666666
 40
0.6666666666666666
 40
0.6666666666666666
 40
0.7777777777777778
 40
0.7777777777777778
 40
0.7777777777777778
 40
0.7777777777777778
 40
1.0
 40
1.0
 40
1.0
 40
1.0
 10
96.725
 20
-61.0222
 30
0.0
 10
96.725
 20
-61.0222
 30
0.0
 10
101.5475
 20
-56.4729
 30
0.0
 10
101.5475
 20
-56.4729
 30
0.0
 10
101.5475
 20
-56.4729
 30
0.0
 10
101.5475
 20
-56.4729
 30
0.0
 10
106.3702
 20
-61.0222
 30
0.0
 10
106.3702
 20
-61.0222
 30
0.0
 10
106.3702
 20
-61.0222
 30
0.0
 10
106.3702
 20
-61.0222
 30
0.0
 10
106.3663
 20
-61.019
 30
0.0
 10
106.3663
 20
-61.019
 30
0.0
 10
106.3663
 20
-61.019
 30
0.0
 10
106.3663
 20
-61.019
 30
0.0
 10
106.3622
 20
-61.0291
 30
0.0
 10
106.3622
 20
-61.0291
 30
0.0
 10
106.3622
 20
-61.0291
 30
0.0
 10
106.3622
 20
-61.0291
 30
0.0
 10
101.5475
 20
-65.5721
 30
0.0
 10
101.5475
 20
-65.5721
 30
0.0
 10
101.5475
 20
-65.5721
 30
0.0
 10
101.5475
 20
-65.5721
 30
0.0
 10
96.7331
 20
-61.0291
 30
0.0
 10
96.7331
 20
-61.0291
 30
0.0
 10
96.7331
 20
-61.0291
 30
0.0
 10
96.7331
 20
-61.0291
 30
0.0
 10
96.7289
 20
-61.019
 30
0.0
 10
96.7289
 20
-61.019
 30
0.0
 10
96.7289
 20
-61.019
 30
0.0
 10
96.7289
 20
-61.019
 30
0.0
 10
96.725
 20
-61.0222
 30
0.0
 10
96.725
 20
-61.0222
 30
0.0
  0
SPLINE
  5
A8
330
1F
100
AcDbEntity
  8
layer 1
 62
     7
100
AcDbSpline
210
0.0
220
0.0
230
1.0
 70
    11
 71
     3
 72
    20
 73
    16
 74
     0
 42
0.0000000001
 43
0.0000000001
 12
1.0
 22
0.0
 32
0.0
 13
1.0
 23
0.0
 33
0.0
 40
0.0
 40
0.0
 40
0.0
 40
0.0
 40
0.2
 40
0.2
 40
0.2
 40
0.2
 40
0.4
 40
0.4
 40
0.4
 40
0.4
 40
0.6
 40
0.6
 40
0.6
 40
0.6
 40
1.0
 40
1.0
 40
1.0
 40
1.0
 10
111.1198
 20
-61.0222
 30
0.0
 10
111.1198
 20
-61.0222
 30
0.0
 10
115.9137
 20
-56.4986
 30
0.0
 10
115.9137
 20
-56.4986
 30
0.0
 10
115.9137
 20
-56.4986
 30
0.0
 10
115.9137
 20
-56.4986
 30
0.0
 10
120.7074
 20
-61.0222
 30
0.0
 10
120.7074
 20
-61.0222
 30
0.0
 10
120.7074
 20
-61.0222
 30
0.0
 10
120.7074
 20
-61.0222
 30
0.0
 10
115.9137
 20
-65.5461
 30
0.0
 10
115.9137
 20
-65.5461
 30
0.0
 10
115.9137
 20
-65.5461
 30
0.0
 10
115.9137
 20
-65.5461
 30
0.0
 10
111.1198
 20
-61.0222
 30
0.0
 10
111.1198
 20
-61.0222
 30
0.0
  0
SPLINE
  5
A9
330
1F
100
AcDbEntity
  8
layer 1
 62
     7
100
AcDbSpline
210
0.0
220
0.0
230
1.0
 70
    11
 71
     3
 72
    36
 73
    32
 74
     0
 42
0.0000000001
 43
0.0000000001
 12
1.0
 22
0.0
 32
0.0
 13
1.0
 23
0.0
 33
0.0
 40
0.0
 40
0.0
 40
0.0
 40
0.0
 40
0.1111111111111111
 40
0.1111111111111111
 40
0.1111111111111111
 40
0.1111111111111111
 40
0.2222222222222222
 40
0.2222222222222222
 40
0.2222222222222222
 40
0.2222222222222222
 40
0.3333333333333333
 40
0.3333333333333333
 40
0.3333333333333333
 40
0.3333333333333333
 40
0.4444444444444444
 40
0.4444444444444444
 40
0.4444444444444444
 40
0.4444444444444444
 40
0.5555555555555556
 40
0.5555555555555556
 40
0.5555555555555556
 40
0.5555555555555556
 40
0.6666666666666666
 40
0.6666666666666666
 40
0.6666666666666666
 40
0.6666666666666666
 40
0.7777777777777778
 40
0.7777777777777778
 40
0.7777777777777778
 40
0.7777777777777778
 40
1.0
 40
1.0
 40
1.0
 40
1.0
 10
125.4651
 20
-61.0156
 30
0.0
 10
125.4651
 20
-61.0156
 30
0.0
 10
125.4611
 20
-61.019
 30
0.0
 10
125.4611
 20
-61.019
 30
0.0
 10
125.4611
 20
-61.019
 30
0.0
 10
125.4611
 20
-61.019
 30
0.0
 10
125.4651
 20
-61.0291
 30
0.0
 10
125.4651
 20
-61.0291
 30
0.0
 10
125.4651
 20
-61.0291
 30
0.0
 10
125.4651
 20
-61.0291
 30
0.0
 10
130.2799
 20
-65.5721
 30
0.0
 10
130.2799
 20
-65.5721
 30
0.0
 10
130.2799
 20
-65.5721
 30
0.0
 10
130.2799
 20
-65.5721
 30
0.0
 10
135.0943
 20
-61.0291
 30
0.0
 10
135.0943
 20
-61.0291
 30
0.0
 10
135.0943
 20
-61.0291
 30
0.0
 10
135.0943
 20
-61.0291
 30
0.0
 10
135.1021
 20
-61.0222
 30
0.0
 10
135.1021
 20
-61.0222
 30
0.0
 10
135.1021
 20
-61.0222
 30
0.0
 10
135.1021
 20
-61.0222
 30
0.0
 10
135.0943
 20
-61.0156
 30
0.0
 10
135.0943
 20
-61.0156
 30
0.0
 10
135.0943
 20
-61.0156
 30
0.0
 10
135.0943
 20
-61.0156
 30
0.0
 10
130.2799
 20
-56.4729
 30
0.0
 10
130.2799
 20
-56.4729
 30
0.0
 10
130.2799
 20
-56.4729
 30
0.0
 10
130.2799
 20
-56.4729
 30
0.0
 10
125.4651
 20
-61.0156
 30
0.0
 10
125.4651
 20
-61.0156
 30
0.0
  0
SPLINE
  5
AA
330
1F
100
AcDbEntity
  8
layer 1
 62
     7
100
AcDbSpline
210
0.0
220
0.0
230
1.0
 70
    11
 71
     3
 72
    20
 73
    16
 74
     0
 42
0.0000000001
 43
0.0000000001
 12
1.0
 22
0.0
 32
0.0
 13
1.0
 23
0.0
 33
0.0
 40
0.0
 40
0.0
 40
0.0
 40
0.0
 40
0.2
 40
0.2
 40
0.2
 40
0.2
 40
0.4
 40
0.4
 40
0.4
 40
0.4
 40
0.6
 40
0.6
 40
0.6
 40
0.6
 40
1.0
 40
1.0
 40
1.0
 40
1.0
 10
139.8518
 20
-61.0222
 30
0.0
 10
139.8518
 20
-61.0222
 30
0.0
 10
144.6456
 20
-56.4986
 30
0.0
 10
144.6456
 20
-56.4986
 30
0.0
 10
144.6456
 20
-56.4986
 30
0.0
 10
144.6456
 20
-56.4986
 30
0.0
 10
149.4397
 20
-61.0222
 30
0.0
 10
149.4397
 20
-61.0222
 30
0.0
 10
149.4397
 20
-61.0222
 30
0.0
 10
149.4397
 20
-61.0222
 30
0.0
 10
144.6456
 20
-65.5461
 30
0.0
 10
144.6456
 20
-65.5461
 30
0.0
 10
144.6456
 20
-65.5461
 30
0.0
 10
144.6456
 20
-65.5461
 30
0.0
 10
139.8518
 20
-61.0222
 30
0.0
 10
139.8518
 20
-61.0222
 30
0.0
  0
SPLINE
  5
AB
330
1F
100
AcDbEntity
  8
layer 1
 62
     7
100
AcDbSpline
210
0.0
220
0.0
230
1.0
 70
    11
 71
     3
 72
    36
 73
    32
 74
     0
 42
0.0000000001
 43
0.0000000001
 12
1.0
 22
0.0
 32
0.0
 13
1.0
 23
0.0
 33
0.0
 40
0.0
 40
0.0
 40
0.0
 40
0.0
 40
0.1111111111111111
 40
0.1111111111111111
 40
0.1111111111111111
 40
0.1111111111111111
 40
0.2222222222222222
 40
0.2222222222222222
 40
0.2222222222222222
 40
0.2222222222222222
 40
0.3333333333333333
 40
0.3333333333333333
 40
0.3333333333333333
 40
0.3333333333333333
 40
0.4444444444444444
 40
0.4444444444444444
 40
0.4444444444444444
 40
0.4444444444444444
 40
0.5555555555555556
 40
0.5555555555555556
 40
0.5555555555555556
 40
0.5555555555555556
 40
0.6666666666666666
 40
0.6666666666666666
 40
0.6666666666666666
 40
0.6666666666666666
 40
0.7777777777777778
 40
0.7777777777777778
 40
0.7777777777777778
 40
0.7777777777777778
 40
1.0
 40
1.0
 40
1.0
 40
1.0
 10
154.1891
 20
-61.0222
 30
0.0
 10
154.1891
 20
-61.0222
 30
0.0
 10
159.0118
 20
-56.4729
 30
0.0
 10
159.0118
 20
-56.4729
 30
0.0
 10
159.0118
 20
-56.4729
 30
0.0
 10
159.0118
 20
-56.4729
 30
0.0
 10
163.8264
 20
-61.0156
 30
0.0
 10
163.8264
 20
-61.0156
 30
0.0
 10
163.8264
 20
-61.0156
 30
0.0
 10
163.8264
 20
-61.0156
 30
0.0
 10
163.8342
 20
-61.0222
 30
0.0
 10
163.8342
 20
-61.0222
 30
0.0
 10
163.8342
 20
-61.0222
 30
0.0
 10
163.8342
 20
-61.0222
 30
0.0
 10
163.8264
 20
-61.0291
 30
0.0
 10
163.8264
 20
-61.0291
 30
0.0
 10
163.8264
 20
-61.0291
 30
0.0
 10
163.8264
 20
-61.0291
 30
0.0
 10
159.0118
 20
-65.5721
 30
0.0
 10
159.0118
 20
-65.5721
 30
0.0
 10
159.0118
 20
-65.5721
 30
0.0
 10
159.0118
 20
-65.5721
 30
0.0
 10
154.1969
 20
-61.0291
 30
0.0
 10
154.1969
 20
-61.0291
 30
0.0
 10
154.1969
 20
-61.0291
 30
0.0
 10
154.1969
 20
-61.0291
 30
0.0
 10
154.1934
 20
-61.019
 30
0.0
 10
154.1934
 20
-61.019
 30
0.0
 10
154.1934
 20
-61.019
 30
0.0
 10
154.1934
 20
-61.019
 30
0.0
 10
154.1891
 20
-61.0222
 30
0.0
 10
154.1891
 20
-61.0222
 30
0.0
  0
SPLINE
  5
AC
330
1F
100
AcDbEntity
  8
layer 1
 62
     7
100
AcDbSpline
210
0.0
220
0.0
230
1.0
 70
    11
 71
     3
 72
    20
 73
    16
 74
     0
 42
0.0000000001
 43
0.0000000001
 12
1.0
 22
0.0
 32
0.0
 13
1.0
 23
0.0
 33
0.0
 40
0.0
 40
0.0
 40
0.0
 40
0.0
 40
0.2
 40
0.2
 40
0.2
 40
0.2
 40
0.4
 40
0.4
 40
0.4
 40
0.4
 40
0.6
 40
0.6
 40
0.6
 40
0.6
 40
1.0
 40
1.0
 40
1.0
 40
1.0
 10
168.5842
 20
-61.0222
 30
0.0
 10
168.5842
 20
-61.0222
 30
0.0
 10
173.3777
 20
-56.4986
 30
0.0
 10
173.3777
 20
-56.4986
 30
0.0
 10
173.3777
 20
-56.4986
 30
0.0
 10
173.3777
 20
-56.4986
 30
0.0
 10
178.1715
 20
-61.0222
 30
0.0
 10
178.1715
 20
-61.0222
 30
0.0
 10
178.1715
 20
-61.0222
 30
0.0
 10
178.1715
 20
-61.0222
 30
0.0
 10
173.3777
 20
-65.5461
 30
0.0
 10
173.3777
 20
-65.5461
 30
0.0
 10
173.3777
 20
-65.5461
 30
0.0
 10
173.3777
 20
-65.5461
 30
0.0
 10
168.5842
 20
-61.0222
 30
0.0
 10
168.5842
 20
-61.0222
 30
0.0
  0
SPLINE
  5
AD
330
1F
100
AcDbEntity
  8
layer 1
 62
     7
100
AcDbSpline
210
0.0
220
0.0
230
1.0
 70
    11
 71
     3
 72
    32
 73
    28
 74
     0
 42
0.0000000001
 43
0.0000000001
 12
1.0
 22
0.0
 32
0.0
 13
1.0
 23
0.0
 33
0.0
 40
0.0
 40
0.0
 40
0.0
 40
0.0
 40
0.125
 40
0.125
 40
0.125
 40
0.125
 40
0.25
 40
0.25
 40
0.25
 40
0.25
 40
0.375
 40
0.375
 40
0.375
 40
0.375
 40
0.5
 40
0.5
 40
0.5
 40
0.5
 40
0.625
 40
0.625
 40
0.625
 40
0.625
 40
0.75
 40
0.75
 40
0.75
 40
0.75
 40
1.0
 40
1.0
 40
1.0
 40
1.0
 10
106.3753
 20
-75.2909
 30
0.0
 10
106.3753
 20
-75.2909
 30
0.0
 10
106.3686
 20
-75.2846
 30
0.0
 10
106.3686
 20
-75.2846
 30
0.0
 10
106.3686
 20
-75.2846
 30
0.0
 10
106.3686
 20
-75.2846
 30
0.0
 10
106.3616
 20
-75.3033
 30
0.0
 10
106.3616
 20
-75.3033
 30
0.0
 10
106.3616
 20
-75.3033
 30
0.0
 10
106.3616
 20
-75.3033
 30
0.0
 10
101.5475
 20
-79.8463
 30
0.0
 10
101.5475
 20
-79.8463
 30
0.0
 10
101.5475
 20
-79.8463
 30
0.0
 10
101.5475
 20
-79.8463
 30
0.0
 10
96.7336
 20
-75.3033
 30
0.0
 10
96.7336
 20
-75.3033
 30
0.0
 10
96.7336
 20
-75.3033
 30
0.0
 10
96.7336
 20
-75.3033
 30
0.0
 10
96.7267
 20
-75.2846
 30
0.0
 10
96.7267
 20
-75.2846
 30
0.0
 10
96.7267
 20
-75.2846
 30
0.0
 10
96.7267
 20
-75.2846
 30
0.0
 10
101.5475
 20
-70.7355
 30
0.0
 10
101.5475
 20
-70.7355
 30
0.0
 10
101.5475
 20
-70.7355
 30
0.0
 10
101.5475
 20
-70.7355
 30
0.0
 10
106.3753
 20
-75.2909
 30
0.0
 10
106.3753
 20
-75.2909
 30
0.0
  0
SPLINE
  5
AE
330
1F
100
AcDbEntity
  8
layer 1
 62
     7
100
AcDbSpline
210
0.0
220
0.0
230
1.0
 70
    11
 71
     3
 72
    20
 73
    16
 74
     0
 42
0.0000000001
 43
0.0000000001
 12
1.0
 22
0.0
 32
0.0
 13
1.0
 23
0.0
 33
0.0
 40
0.0
 40
0.0
 40
0.0
 40
0.0
 40
0.2
 40
0.2
 40
0.2
 40
0.2
 40
0.4
 40
0.4
 40
0.4
 40
0.4
 40
0.6
 40
0.6
 40
0.6
 40
0.6
 40
1.0
 40
1.0
 40
1.0
 40
1.0
 10
108.4977
 20
-63.3322
 30
0.0
 10
108.4977
 20
-63.3322
 30
0.0
 10
113.312
 20
-67.875
 30
0.0
 10
113.312
 20
-67.875
 30
0.0
 10
113.312
 20
-67.875
 30
0.0
 10
113.312
 20
-67.875
 30
0.0
 10
108.4977
 20
-72.4178
 30
0.0
 10
108.4977
 20
-72.4178
 30
0.0
 10
108.4977
 20
-72.4178
 30
0.0
 10
108.4977
 20
-72.4178
 30
0.0
 10
103.6838
 20
-67.875
 30
0.0
 10
103.6838
 20
-67.875
 30
0.0
 10
103.6838
 20
-67.875
 30
0.0
 10
103.6838
 20
-67.875
 30
0.0
 10
108.4977
 20
-63.3322
 30
0.0
 10
108.4977
 20
-63.3322
 30
0.0
  0
SPLINE
  5
AF
330
1F
100
AcDbEntity
  8
layer 1
 62
     7
100
AcDbSpline
210
0.0
220
0.0
230
1.0
 70
    11
 71
     3
 72
    32
 73
    28
 74
     0
 42
0.0000000001
 43
0.0000000001
 12
1.0
 22
0.0
 32
0.0
 13
1.0
 23
0.0
 33
0.0
 40
0.0
 40
0.0
 40
0.0
 40
0.0
 40
0.125
 40
0.125
 40
0.125
 40
0.125
 40
0.25
 40
0.25
 40
0.25
 40
0.25
 40
0.375
 40
0.375
 40
0.375
 40
0.375
 40
0.5
 40
0.5
 40
0.5
 40
0.5
 40
0.625
 40
0.625
 40
0.625
 40
0.625
 40
0.75
 40
0.75
 40
0.75
 40
0.75
 40
1.0
 40
1.0
 40
1.0
 40
1.0
 10
135.0939
 20
-75.2784
 30
0.0
 10
135.0939
 20
-75.2784
 30
0.0
 10
135.1006
 20
-75.2846
 30
0.0
 10
135.1006
 20
-75.2846
 30
0.0
 10
135.1006
 20
-75.2846
 30
0.0
 10
135.1006
 20
-75.2846
 30
0.0
 10
135.0938
 20
-75.3033
 30
0.0
 10
135.0938
 20
-75.3033
 30
0.0
 10
135.0938
 20
-75.3033
 30
0.0
 10
135.0938
 20
-75.3033
 30
0.0
 10
130.2799
 20
-79.8463
 30
0.0
 10
130.2799
 20
-79.8463
 30
0.0
 10
130.2799
 20
-79.8463
 30
0.0
 10
130.2799
 20
-79.8463
 30
0.0
 10
125.4658
 20
-75.3033
 30
0.0
 10
125.4658
 20
-75.3033
 30
0.0
 10
125.4658
 20
-75.3033
 30
0.0
 10
125.4658
 20
-75.3033
 30
0.0
 10
125.4588
 20
-75.2846
 30
0.0
 10
125.4588
 20
-75.2846
 30
0.0
 10
125.4588
 20
-75.2846
 30
0.0
 10
125.4588
 20
-75.2846
 30
0.0
 10
130.2799
 20
-70.7355
 30
0.0
 10
130.2799
 20
-70.7355
 30
0.0
 10
130.2799
 20
-70.7355
 30
0.0
 10
130.2799
 20
-70.7355
 30
0.0
 10
135.0939
 20
-75.2784
 30
0.0
 10
135.0939
 20
-75.2784
 30
0.0
  0
SPLINE
  5
B0
330
1F
100
AcDbEntity
  8
layer 1
 62
     7
100
AcDbSpline
210
0.0
220
0.0
230
1.0
 70
    11
 71
     3
 72
    20
 73
    16
 74
     0
 42
0.0000000001
 43
0.0000000001
 12
1.0
 22
0.0
 32
0.0
 13
1.0
 23
0.0
 33
0.0
 40
0.0
 40
0.0
 40
0.0
 40
0.0
 40
0.2
 40
0.2
 40
0.2
 40
0.2
 40
0.4
 40
0.4
 40
0.4
 40
0.4
 40
0.6
 40
0.6
 40
0.6
 40
0.6
 40
1.0
 40
1.0
 40
1.0
 40
1.0
 10
123.3295
 20
-63.3322
 30
0.0
 10
123.3295
 20
-63.3322
 30
0.0
 10
118.5154
 20
-67.875
 30
0.0
 10
118.5154
 20
-67.875
 30
0.0
 10
118.5154
 20
-67.875
 30
0.0
 10
118.5154
 20
-67.875
 30
0.0
 10
123.3295
 20
-72.4178
 30
0.0
 10
123.3295
 20
-72.4178
 30
0.0
 10
123.3295
 20
-72.4178
 30
0.0
 10
123.3295
 20
-72.4178
 30
0.0
 10
128.1435
 20
-67.875
 30
0.0
 10
128.1435
 20
-67.875
 30
0.0
 10
128.1435
 20
-67.875
 30
0.0
 10
128.1435
 20
-67.875
 30
0.0
 10
123.3295
 20
-63.3322
 30
0.0
 10
123.3295
 20
-63.3322
 30
0.0
  0
SPLINE
  5
B1
330
1F
100
AcDbEntity
  8
layer 1
 62
     7
100
AcDbSpline
210
0.0
220
0.0
230
1.0
 70
    11
 71
     3
 72
    20
 73
    16
 74
     0
 42
0.0000000001
 43
0.0000000001
 12
1.0
 22
0.0
 32
0.0
 13
1.0
 23
0.0
 33
0.0
 40
0.0
 40
0.0
 40
0.0
 40
0.0
 40
0.2
 40
0.2
 40
0.2
 40
0.2
 40
0.4
 40
0.4
 40
0.4
 40
0.4
 40
0.6
 40
0.6
 40
0.6
 40
0.6
 40
1.0
 40
1.0
 40
1.0
 40
1.0
 10
137.2299
 20
-63.3322
 30
0.0
 10
137.2299
 20
-63.3322
 30
0.0
 10
142.044
 20
-67.875
 30
0.0
 10
142.044
 20
-67.875
 30
0.0
 10
142.044
 20
-67.875
 30
0.0
 10
142.044
 20
-67.875
 30
0.0
 10
137.2299
 20
-72.4178
 30
0.0
 10
137.2299
 20
-72.4178
 30
0.0
 10
137.2299
 20
-72.4178
 30
0.0
 10
137.2299
 20
-72.4178
 30
0.0
 10
132.416
 20
-67.875
 30
0.0
 10
132.416
 20
-67.875
 30
0.0
 10
132.416
 20
-67.875
 30
0.0
 10
132.416
 20
-67.875
 30
0.0
 10
137.2299
 20
-63.3322
 30
0.0
 10
137.2299
 20
-63.3322
 30
0.0
  0
SPLINE
  5
B2
330
1F
100
AcDbEntity
  8
layer 1
 62
     7
100
AcDbSpline
210
0.0
220
0.0
230
1.0
 70
    11
 71
     3
 72
    32
 73
    28
 74
     0
 42
0.0000000001
 43
0.0000000001
 12
1.0
 22
0.0
 32
0.0
 13
1.0
 23
0.0
 33
0.0
 40
0.0
 40
0.0
 40
0.0
 40
0.0
 40
0.125
 40
0.125
 40
0.125
 40
0.125
 40
0.25
 40
0.25
 40
0.25
 40
0.25
 40
0.375
 40
0.375
 40
0.375
 40
0.375
 40
0.5
 40
0.5
 40
0.5
 40
0.5
 40
0.625
 40
0.625
 40
0.625
 40
0.625
 40
0.75
 40
0.75
 40
0.75
 40
0.75
 40
1.0
 40
1.0
 40
1.0
 40
1.0
 10
163.826
 20
-75.2784
 30
0.0
 10
163.826
 20
-75.2784
 30
0.0
 10
163.8326
 20
-75.2846
 30
0.0
 10
163.8326
 20
-75.2846
 30
0.0
 10
163.8326
 20
-75.2846
 30
0.0
 10
163.8326
 20
-75.2846
 30
0.0
 10
163.8258
 20
-75.3033
 30
0.0
 10
163.8258
 20
-75.3033
 30
0.0
 10
163.8258
 20
-75.3033
 30
0.0
 10
163.8258
 20
-75.3033
 30
0.0
 10
159.0119
 20
-79.8463
 30
0.0
 10
159.0119
 20
-79.8463
 30
0.0
 10
159.0119
 20
-79.8463
 30
0.0
 10
159.0119
 20
-79.8463
 30
0.0
 10
154.1979
 20
-75.3033
 30
0.0
 10
154.1979
 20
-75.3033
 30
0.0
 10
154.1979
 20
-75.3033
 30
0.0
 10
154.1979
 20
-75.3033
 30
0.0
 10
154.1912
 20
-75.2846
 30
0.0
 10
154.1912
 20
-75.2846
 30
0.0
 10
154.1912
 20
-75.2846
 30
0.0
 10
154.1912
 20
-75.2846
 30
0.0
 10
159.0119
 20
-70.7355
 30
0.0
 10
159.0119
 20
-70.7355
 30
0.0
 10
159.0119
 20
-70.7355
 30
0.0
 10
159.0119
 20
-70.7355
 30
0.0
 10
163.826
 20
-75.2784
 30
0.0
 10
163.826
 20
-75.2784
 30
0.0
  0
SPLINE
  5
B3
330
1F
100
AcDbEntity
  8
layer 1
 62
     7
100
AcDbSpline
210
0.0
220
0.0
230
1.0
 70
    11
 71
     3
 72
    20
 73
    16
 74
     0
 42
0.0000000001
 43
0.0000000001
 12
1.0
 22
0.0
 32
0.0
 13
1.0
 23
0.0
 33
0.0
 40
0.0
 40
0.0
 40
0.0
 40
0.0
 40
0.2
 40
0.2
 40
0.2
 40
0.2
 40
0.4
 40
0.4
 40
0.4
 40
0.4
 40
0.6
 40
0.6
 40
0.6
 40
0.6
 40
1.0
 40
1.0
 40
1.0
 40
1.0
 10
152.0615
 20
-63.3322
 30
0.0
 10
152.0615
 20
-63.3322
 30
0.0
 10
147.2476
 20
-67.875
 30
0.0
 10
147.2476
 20
-67.875
 30
0.0
 10
147.2476
 20
-67.875
 30
0.0
 10
147.2476
 20
-67.875
 30
0.0
 10
152.0615
 20
-72.4178
 30
0.0
 10
152.0615
 20
-72.4178
 30
0.0
 10
152.0615
 20
-72.4178
 30
0.0
 10
152.0615
 20
-72.4178
 30
0.0
 10
156.8755
 20
-67.875
 30
0.0
 10
156.8755
 20
-67.875
 30
0.0
 10
156.8755
 20
-67.875
 30
0.0
 10
156.8755
 20
-67.875
 30
0.0
 10
152.0615
 20
-63.3322
 30
0.0
 10
152.0615
 20
-63.3322
 30
0.0
  0
SPLINE
  5
B4
330
1F
100
AcDbEntity
  8
layer 1
 62
     7
100
AcDbSpline
210
0.0
220
0.0
230
1.0
 70
    11
 71
     3
 72
    20
 73
    16
 74
     0
 42
0.0000000001
 43
0.0000000001
 12
1.0
 22
0.0
 32
0.0
 13
1.0
 23
0.0
 33
0.0
 40
0.0
 40
0.0
 40
0.0
 40
0.0
 40
0.2
 40
0.2
 40
0.2
 40
0.2
 40
0.4
 40
0.4
 40
0.4
 40
0.4
 40
0.6
 40
0.6
 40
0.6
 40
0.6
 40
1.0
 40
1.0
 40
1.0
 40
1.0
 10
165.9622
 20
-63.3322
 30
0.0
 10
165.9622
 20
-63.3322
 30
0.0
 10
170.7762
 20
-67.875
 30
0.0
 10
170.7762
 20
-67.875
 30
0.0
 10
170.7762
 20
-67.875
 30
0.0
 10
170.7762
 20
-67.875
 30
0.0
 10
165.9622
 20
-72.4178
 30
0.0
 10
165.9622
 20
-72.4178
 30
0.0
 10
165.9622
 20
-72.4178
 30
0.0
 10
165.9622
 20
-72.4178
 30
0.0
 10
161.1478
 20
-67.875
 30
0.0
 10
161.1478
 20
-67.875
 30
0.0
 10
161.1478
 20
-67.875
 30
0.0
 10
161.1478
 20
-67.875
 30
0.0
 10
165.9622
 20
-63.3322
 30
0.0
 10
165.9622
 20
-63.3322
 30
0.0
  0
SPLINE
  5
B5
330
1F
100
AcDbEntity
  8
layer 1
 62
     7
100
AcDbSpline
210
0.0
220
0.0
230
1.0
 70
    11
 71
     3
 72
    20
 73
    16
 74
     0
 42
0.0000000001
 43
0.0000000001
 12
1.0
 22
0.0
 32
0.0
 13
1.0
 23
0.0
 33
0.0
 40
0.0
 40
0.0
 40
0.0
 40
0.0
 40
0.2
 40
0.2
 40
0.2
 40
0.2
 40
0.4
 40
0.4
 40
0.4
 40
0.4
 40
0.6
 40
0.6
 40
0.6
 40
0.6
 40
1.0
 40
1.0
 40
1.0
 40
1.0
 10
180.7938
 20
-63.3322
 30
0.0
 10
180.7938
 20
-63.3322
 30
0.0
 10
175.9799
 20
-67.875
 30
0.0
 10
175.9799
 20
-67.875
 30
0.0
 10
175.9799
 20
-67.875
 30
0.0
 10
175.9799
 20
-67.875
 30
0.0
 10
180.7938
 20
-72.4178
 30
0.0
 10
180.7938
 20
-72.4178
 30
0.0
 10
180.7938
 20
-72.4178
 30
0.0
 10
180.7938
 20
-72.4178
 30
0.0
 10
185.6078
 20
-67.875
 30
0.0
 10
185.6078
 20
-67.875
 30
0.0
 10
185.6078
 20
-67.875
 30
0.0
 10
185.6078
 20
-67.875
 30
0.0
 10
180.7938
 20
-63.3322
 30
0.0
 10
180.7938
 20
-63.3322
 30
0.0
  0
SPLINE
  5
B6
330
1F
100
AcDbEntity
  8
layer 1
 62
     7
100
AcDbSpline
210
0.0
220
0.0
230
1.0
 70
    11
 71
     3
 72
    20
 73
    16
 74
     0
 42
0.0000000001
 43
0.0000000001
 12
1.0
 22
0.0
 32
0.0
 13
1.0
 23
0.0
 33
0.0
 40
0.0
 40
0.0
 40
0.0
 40
0.0
 40
0.2
 40
0.2
 40
0.2
 40
0.2
 40
0.4
 40
0.4
 40
0.4
 40
0.4
 40
0.6
 40
0.6
 40
0.6
 40
0.6
 40
1.0
 40
1.0
 40
1.0
 40
1.0
 10
111.1082
 20
-75.2789
 30
0.0
 10
111.1082
 20
-75.2789
 30
0.0
 10
115.9138
 20
-79.8376
 30
0.0
 10
115.9138
 20
-79.8376
 30
0.0
 10
115.9138
 20
-79.8376
 30
0.0
 10
115.9138
 20
-79.8376
 30
0.0
 10
120.7192
 20
-75.2789
 30
0.0
 10
120.7192
 20
-75.2789
 30
0.0
 10
120.7192
 20
-75.2789
 30
0.0
 10
120.7192
 20
-75.2789
 30
0.0
 10
115.9138
 20
-70.7441
 30
0.0
 10
115.9138
 20
-70.7441
 30
0.0
 10
115.9138
 20
-70.7441
 30
0.0
 10
115.9138
 20
-70.7441
 30
0.0
 10
111.1082
 20
-75.2789
 30
0.0
 10
111.1082
 20
-75.2789
 30
0.0
  0
SPLINE
  5
B7
330
1F
100
AcDbEntity
  8
layer 1
 62
     7
100
AcDbSpline
210
0.0
220
0.0
230
1.0
 70
    11
 71
     3
 72
    20
 73
    16
 74
     0
 42
0.0000000001
 43
0.0000000001
 12
1.0
 22
0.0
 32
0.0
 13
1.0
 23
0.0
 33
0.0
 40
0.0
 40
0.0
 40
0.0
 40
0.0
 40
0.2
 40
0.2
 40
0.2
 40
0.2
 40
0.4
 40
0.4
 40
0.4
 40
0.4
 40
0.6
 40
0.6
 40
0.6
 40
0.6
 40
1.0
 40
1.0
 40
1.0
 40
1.0
 10
139.8398
 20
-75.2789
 30
0.0
 10
139.8398
 20
-75.2789
 30
0.0
 10
144.6455
 20
-79.8376
 30
0.0
 10
144.6455
 20
-79.8376
 30
0.0
 10
144.6455
 20
-79.8376
 30
0.0
 10
144.6455
 20
-79.8376
 30
0.0
 10
149.4511
 20
-75.2789
 30
0.0
 10
149.4511
 20
-75.2789
 30
0.0
 10
149.4511
 20
-75.2789
 30
0.0
 10
149.4511
 20
-75.2789
 30
0.0
 10
144.6455
 20
-70.7441
 30
0.0
 10
144.6455
 20
-70.7441
 30
0.0
 10
144.6455
 20
-70.7441
 30
0.0
 10
144.6455
 20
-70.7441
 30
0.0
 10
139.8398
 20
-75.2789
 30
0.0
 10
139.8398
 20
-75.2789
 30
0.0
  0
SPLINE
  5
B8
330
1F
100
AcDbEntity
  8
layer 1
 62
     7
100
AcDbSpline
210
0.0
220
0.0
230
1.0
 70
    11
 71
     3
 72
    20
 73
    16
 74
     0
 42
0.0000000001
 43
0.0000000001
 12
1.0
 22
0.0
 32
0.0
 13
1.0
 23
0.0
 33
0.0
 40
0.0
 40
0.0
 40
0.0
 40
0.0
 40
0.2
 40
0.2
 40
0.2
 40
0.2
 40
0.4
 40
0.4
 40
0.4
 40
0.4
 40
0.6
 40
0.6
 40
0.6
 40
0.6
 40
1.0
 40
1.0
 40
1.0
 40
1.0
 10
168.5726
 20
-75.2789
 30
0.0
 10
168.5726
 20
-75.2789
 30
0.0
 10
173.3777
 20
-79.8376
 30
0.0
 10
173.3777
 20
-79.8376
 30
0.0
 10
173.3777
 20
-79.8376
 30
0.0
 10
173.3777
 20
-79.8376
 30
0.0
 10
178.1834
 20
-75.2789
 30
0.0
 10
178.1834
 20
-75.2789
 30
0.0
 10
178.1834
 20
-75.2789
 30
0.0
 10
178.1834
 20
-75.2789
 30
0.0
 10
173.3777
 20
-70.7441
 30
0.0
 10
173.3777
 20
-70.7441
 30
0.0
 10
173.3777
 20
-70.7441
 30
0.0
 10
173.3777
 20
-70.7441
 30
0.0
 10
168.5726
 20
-75.2789
 30
0.0
 10
168.5726
 20
-75.2789
 30
0.0
  0
SPLINE
  5
B9
330
1F
100
AcDbEntity
  8
layer 1
 62
     7
100
AcDbSpline
210
0.0
220
0.0
230
1.0
 70
    11
 71
     3
 72
    24
 73
    20
 74
     0
 42
0.0000000001
 43
0.0000000001
 12
1.0
 22
0.0
 32
0.0
 13
1.0
 23
0.0
 33
0.0
 40
0.0
 40
0.0
 40
0.0
 40
0.0
 40
0.1666666666666667
 40
0.1666666666666667
 40
0.1666666666666667
 40
0.1666666666666667
 40
0.3333333333333333
 40
0.3333333333333333
 40
0.3333333333333333
 40
0.3333333333333333
 40
0.5
 40
0.5
 40
0.5
 40
0.5
 40
0.6666666666666666
 40
0.6666666666666666
 40
0.6666666666666666
 40
0.6666666666666666
 40
1.0
 40
1.0
 40
1.0
 40
1.0
 10
184.021
 20
-61.019
 30
0.0
 10
184.021
 20
-61.019
 30
0.0
 10
188.8375
 20
-65.572
 30
0.0
 10
188.8375
 20
-65.572
 30
0.0
 10
188.8375
 20
-65.572
 30
0.0
 10
188.8375
 20
-65.572
 30
0.0
 10
188.8375
 20
-56.4729
 30
0.0
 10
188.8375
 20
-56.4729
 30
0.0
 10
188.8375
 20
-56.4729
 30
0.0
 10
188.8375
 20
-56.4729
 30
0.0
 10
184.0194
 20
-61.0222
 30
0.0
 10
184.0194
 20
-61.0222
 30
0.0
 10
184.0194
 20
-61.0222
 30
0.0
 10
184.0194
 20
-61.0222
 30
0.0
 10
184.0194
 20
-61.0258
 30
0.0
 10
184.0194
 20
-61.0258
 30
0.0
 10
184.0194
 20
-61.0258
 30
0.0
 10
184.0194
 20
-61.0258
 30
0.0
 10
184.021
 20
-61.019
 30
0.0
 10
184.021
 20
-61.019
 30
0.0
  0
SPLINE
  5
BA
330
1F
100
AcDbEntity
  8
layer 1
 62
     7
100
AcDbSpline
210
0.0
220
0.0
230
1.0
 70
    11
 71
     3
 72
    24
 73
    20
 74
     0
 42
0.0000000001
 43
0.0000000001
 12
1.0
 22
0.0
 32
0.0
 13
1.0
 23
0.0
 33
0.0
 40
0.0
 40
0.0
 40
0.0
 40
0.0
 40
0.1666666666666667
 40
0.1666666666666667
 40
0.1666666666666667
 40
0.1666666666666667
 40
0.3333333333333333
 40
0.3333333333333333
 40
0.3333333333333333
 40
0.3333333333333333
 40
0.5
 40
0.5
 40
0.5
 40
0.5
 40
0.6666666666666666
 40
0.6666666666666666
 40
0.6666666666666666
 40
0.6666666666666666
 40
1.0
 40
1.0
 40
1.0
 40
1.0
 10
184.0169
 20
-75.2939
 30
0.0
 10
184.0169
 20
-75.2939
 30
0.0
 10
188.838
 20
-79.8463
 30
0.0
 10
188.838
 20
-79.8463
 30
0.0
 10
188.838
 20
-79.8463
 30
0.0
 10
188.838
 20
-79.8463
 30
0.0
 10
188.838
 20
-70.7355
 30
0.0
 10
188.838
 20
-70.7355
 30
0.0
 10
188.838
 20
-70.7355
 30
0.0
 10
188.838
 20
-70.7355
 30
0.0
 10
184.0235
 20
-75.297
 30
0.0
 10
184.0235
 20
-75.297
 30
0.0
 10
184.0235
 20
-75.297
 30
0.0
 10
184.0235
 20
-75.297
 30
0.0
 10
184.0169
 20
-75.2846
 30
0.0
 10
184.0169
 20
-75.2846
 30
0.0
 10
184.0169
 20
-75.2846
 30
0.0
 10
184.0169
 20
-75.2846
 30
0.0
 10
184.0169
 20
-75.2939
 30
0.0
 10
184.0169
 20
-75.2939
 30
0.0
  0
SPLINE
  5
BB
330
1F
100
AcDbEntity
  8
layer 1
 62
     7
100
AcDbSpline
210
0.0
220
0.0
230
1.0
 70
    11
 71
     3
 72
    20
 73
    16
 74
     0
 42
0.0000000001
 43
0.0000000001
 12
1.0
 22
0.0
 32
0.0
 13
1.0
 23
0.0
 33
0.0
 40
0.0
 40
0.0
 40
0.0
 40
0.0
 40
0.2
 40
0.2
 40
0.2
 40
0.2
 40
0.4
 40
0.4
 40
0.4
 40
0.4
 40
0.6
 40
0.6
 40
0.6
 40
0.6
 40
1.0
 40
1.0
 40
1.0
 40
1.0
 10
108.4977
 20
-87.2494
 30
0.0
 10
108.4977
 20
-87.2494
 30
0.0
 10
103.6838
 20
-82.7066
 30
0.0
 10
103.6838
 20
-82.7066
 30
0.0
 10
103.6838
 20
-82.7066
 30
0.0
 10
103.6838
 20
-82.7066
 30
0.0
 10
108.4977
 20
-78.1639
 30
0.0
 10
108.4977
 20
-78.1639
 30
0.0
 10
108.4977
 20
-78.1639
 30
0.0
 10
108.4977
 20
-78.1639
 30
0.0
 10
113.312
 20
-82.7066
 30
0.0
 10
113.312
 20
-82.7066
 30
0.0
 10
113.312
 20
-82.7066
 30
0.0
 10
113.312
 20
-82.7066
 30
0.0
 10
108.4977
 20
-87.2494
 30
0.0
 10
108.4977
 20
-87.2494
 30
0.0
  0
SPLINE
  5
BC
330
1F
100
AcDbEntity
  8
layer 1
 62
     7
100
AcDbSpline
210
0.0
220
0.0
230
1.0
 70
    11
 71
     3
 72
    16
 73
    12
 74
     0
 42
0.0000000001
 43
0.0000000001
 12
1.0
 22
0.0
 32
0.0
 13
1.0
 23
0.0
 33
0.0
 40
0.0
 40
0.0
 40
0.0
 40
0.0
 40
0.25
 40
0.25
 40
0.25
 40
0.25
 40
0.5
 40
0.5
 40
0.5
 40
0.5
 40
1.0
 40
1.0
 40
1.0
 40
1.0
 10
111.1235
 20
-89.5559
 30
0.0
 10
111.1235
 20
-89.5559
 30
0.0
 10
120.7039
 20
-89.5559
 30
0.0
 10
120.7039
 20
-89.5559
 30
0.0
 10
120.7039
 20
-89.5559
 30
0.0
 10
120.7039
 20
-89.5559
 30
0.0
 10
115.9137
 20
-85.0356
 30
0.0
 10
115.9137
 20
-85.0356
 30
0.0
 10
115.9137
 20
-85.0356
 30
0.0
 10
115.9137
 20
-85.0356
 30
0.0
 10
111.1235
 20
-89.5559
 30
0.0
 10
111.1235
 20
-89.5559
 30
0.0
  0
SPLINE
  5
BD
330
1F
100
AcDbEntity
  8
layer 1
 62
     7
100
AcDbSpline
210
0.0
220
0.0
230
1.0
 70
    11
 71
     3
 72
    24
 73
    20
 74
     0
 42
0.0000000001
 43
0.0000000001
 12
1.0
 22
0.0
 32
0.0
 13
1.0
 23
0.0
 33
0.0
 40
0.0
 40
0.0
 40
0.0
 40
0.0
 40
0.1666666666666667
 40
0.1666666666666667
 40
0.1666666666666667
 40
0.1666666666666667
 40
0.3333333333333333
 40
0.3333333333333333
 40
0.3333333333333333
 40
0.3333333333333333
 40
0.5
 40
0.5
 40
0.5
 40
0.5
 40
0.6666666666666666
 40
0.6666666666666666
 40
0.6666666666666666
 40
0.6666666666666666
 40
1.0
 40
1.0
 40
1.0
 40
1.0
 10
135.0984
 20
-89.5559
 30
0.0
 10
135.0984
 20
-89.5559
 30
0.0
 10
130.2799
 20
-85.0097
 30
0.0
 10
130.2799
 20
-85.0097
 30
0.0
 10
130.2799
 20
-85.0097
 30
0.0
 10
130.2799
 20
-85.0097
 30
0.0
 10
125.465
 20
-89.5524
 30
0.0
 10
125.465
 20
-89.5524
 30
0.0
 10
125.465
 20
-89.5524
 30
0.0
 10
125.465
 20
-89.5524
 30
0.0
 10
125.461
 20
-89.5559
 30
0.0
 10
125.461
 20
-89.5559
 30
0.0
 10
125.461
 20
-89.5559
 30
0.0
 10
125.461
 20
-89.5559
 30
0.0
 10
135.0944
 20
-89.5524
 30
0.0
 10
135.0944
 20
-89.5524
 30
0.0
 10
135.0944
 20
-89.5524
 30
0.0
 10
135.0944
 20
-89.5524
 30
0.0
 10
135.0984
 20
-89.5559
 30
0.0
 10
135.0984
 20
-89.5559
 30
0.0
  0
SPLINE
  5
BE
330
1F
100
AcDbEntity
  8
layer 1
 62
     7
100
AcDbSpline
210
0.0
220
0.0
230
1.0
 70
    11
 71
     3
 72
    20
 73
    16
 74
     0
 42
0.0000000001
 43
0.0000000001
 12
1.0
 22
0.0
 32
0.0
 13
1.0
 23
0.0
 33
0.0
 40
0.0
 40
0.0
 40
0.0
 40
0.0
 40
0.2
 40
0.2
 40
0.2
 40
0.2
 40
0.4
 40
0.4
 40
0.4
 40
0.4
 40
0.6
 40
0.6
 40
0.6
 40
0.6
 40
1.0
 40
1.0
 40
1.0
 40
1.0
 10
123.3295
 20
-87.2494
 30
0.0
 10
123.3295
 20
-87.2494
 30
0.0
 10
128.1435
 20
-82.7066
 30
0.0
 10
128.1435
 20
-82.7066
 30
0.0
 10
128.1435
 20
-82.7066
 30
0.0
 10
128.1435
 20
-82.7066
 30
0.0
 10
123.3295
 20
-78.1639
 30
0.0
 10
123.3295
 20
-78.1639
 30
0.0
 10
123.3295
 20
-78.1639
 30
0.0
 10
123.3295
 20
-78.1639
 30
0.0
 10
118.5154
 20
-82.7066
 30
0.0
 10
118.5154
 20
-82.7066
 30
0.0
 10
118.5154
 20
-82.7066
 30
0.0
 10
118.5154
 20
-82.7066
 30
0.0
 10
123.3295
 20
-87.2494
 30
0.0
 10
123.3295
 20
-87.2494
 30
0.0
  0
SPLINE
  5
BF
330
1F
100
AcDbEntity
  8
layer 1
 62
     7
100
AcDbSpline
210
0.0
220
0.0
230
1.0
 70
    11
 71
     3
 72
    20
 73
    16
 74
     0
 42
0.0000000001
 43
0.0000000001
 12
1.0
 22
0.0
 32
0.0
 13
1.0
 23
0.0
 33
0.0
 40
0.0
 40
0.0
 40
0.0
 40
0.0
 40
0.2
 40
0.2
 40
0.2
 40
0.2
 40
0.4
 40
0.4
 40
0.4
 40
0.4
 40
0.6
 40
0.6
 40
0.6
 40
0.6
 40
1.0
 40
1.0
 40
1.0
 40
1.0
 10
137.2299
 20
-87.2494
 30
0.0
 10
137.2299
 20
-87.2494
 30
0.0
 10
132.416
 20
-82.7066
 30
0.0
 10
132.416
 20
-82.7066
 30
0.0
 10
132.416
 20
-82.7066
 30
0.0
 10
132.416
 20
-82.7066
 30
0.0
 10
137.2299
 20
-78.1639
 30
0.0
 10
137.2299
 20
-78.1639
 30
0.0
 10
137.2299
 20
-78.1639
 30
0.0
 10
137.2299
 20
-78.1639
 30
0.0
 10
142.044
 20
-82.7066
 30
0.0
 10
142.044
 20
-82.7066
 30
0.0
 10
142.044
 20
-82.7066
 30
0.0
 10
142.044
 20
-82.7066
 30
0.0
 10
137.2299
 20
-87.2494
 30
0.0
 10
137.2299
 20
-87.2494
 30
0.0
  0
SPLINE
  5
C0
330
1F
100
AcDbEntity
  8
layer 1
 62
     7
100
AcDbSpline
210
0.0
220
0.0
230
1.0
 70
    11
 71
     3
 72
    16
 73
    12
 74
     0
 42
0.0000000001
 43
0.0000000001
 12
1.0
 22
0.0
 32
0.0
 13
1.0
 23
0.0
 33
0.0
 40
0.0
 40
0.0
 40
0.0
 40
0.0
 40
0.25
 40
0.25
 40
0.25
 40
0.25
 40
0.5
 40
0.5
 40
0.5
 40
0.5
 40
1.0
 40
1.0
 40
1.0
 40
1.0
 10
139.8555
 20
-89.5559
 30
0.0
 10
139.8555
 20
-89.5559
 30
0.0
 10
149.4361
 20
-89.5559
 30
0.0
 10
149.4361
 20
-89.5559
 30
0.0
 10
149.4361
 20
-89.5559
 30
0.0
 10
149.4361
 20
-89.5559
 30
0.0
 10
144.6456
 20
-85.0356
 30
0.0
 10
144.6456
 20
-85.0356
 30
0.0
 10
144.6456
 20
-85.0356
 30
0.0
 10
144.6456
 20
-85.0356
 30
0.0
 10
139.8555
 20
-89.5559
 30
0.0
 10
139.8555
 20
-89.5559
 30
0.0
  0
SPLINE
  5
C1
330
1F
100
AcDbEntity
  8
layer 1
 62
     7
100
AcDbSpline
210
0.0
220
0.0
230
1.0
 70
    11
 71
     3
 72
    24
 73
    20
 74
     0
 42
0.0000000001
 43
0.0000000001
 12
1.0
 22
0.0
 32
0.0
 13
1.0
 23
0.0
 33
0.0
 40
0.0
 40
0.0
 40
0.0
 40
0.0
 40
0.1666666666666667
 40
0.1666666666666667
 40
0.1666666666666667
 40
0.1666666666666667
 40
0.3333333333333333
 40
0.3333333333333333
 40
0.3333333333333333
 40
0.3333333333333333
 40
0.5
 40
0.5
 40
0.5
 40
0.5
 40
0.6666666666666666
 40
0.6666666666666666
 40
0.6666666666666666
 40
0.6666666666666666
 40
1.0
 40
1.0
 40
1.0
 40
1.0
 10
163.8305
 20
-89.5559
 30
0.0
 10
163.8305
 20
-89.5559
 30
0.0
 10
159.0119
 20
-85.0097
 30
0.0
 10
159.0119
 20
-85.0097
 30
0.0
 10
159.0119
 20
-85.0097
 30
0.0
 10
159.0119
 20
-85.0097
 30
0.0
 10
154.1969
 20
-89.5524
 30
0.0
 10
154.1969
 20
-89.5524
 30
0.0
 10
154.1969
 20
-89.5524
 30
0.0
 10
154.1969
 20
-89.5524
 30
0.0
 10
154.1934
 20
-89.5559
 30
0.0
 10
154.1934
 20
-89.5559
 30
0.0
 10
154.1934
 20
-89.5559
 30
0.0
 10
154.1934
 20
-89.5559
 30
0.0
 10
163.8264
 20
-89.5524
 30
0.0
 10
163.8264
 20
-89.5524
 30
0.0
 10
163.8264
 20
-89.5524
 30
0.0
 10
163.8264
 20
-89.5524
 30
0.0
 10
163.8305
 20
-89.5559
 30
0.0
 10
163.8305
 20
-89.5559
 30
0.0
  0
SPLINE
  5
C2
330
1F
100
AcDbEntity
  8
layer 1
 62
     7
100
AcDbSpline
210
0.0
220
0.0
230
1.0
 70
    11
 71
     3
 72
    20
 73
    16
 74
     0
 42
0.0000000001
 43
0.0000000001
 12
1.0
 22
0.0
 32
0.0
 13
1.0
 23
0.0
 33
0.0
 40
0.0
 40
0.0
 40
0.0
 40
0.0
 40
0.2
 40
0.2
 40
0.2
 40
0.2
 40
0.4
 40
0.4
 40
0.4
 40
0.4
 40
0.6
 40
0.6
 40
0.6
 40
0.6
 40
1.0
 40
1.0
 40
1.0
 40
1.0
 10
152.0615
 20
-87.2494
 30
0.0
 10
152.0615
 20
-87.2494
 30
0.0
 10
156.8755
 20
-82.7066
 30
0.0
 10
156.8755
 20
-82.7066
 30
0.0
 10
156.8755
 20
-82.7066
 30
0.0
 10
156.8755
 20
-82.7066
 30
0.0
 10
152.0615
 20
-78.1639
 30
0.0
 10
152.0615
 20
-78.1639
 30
0.0
 10
152.0615
 20
-78.1639
 30
0.0
 10
152.0615
 20
-78.1639
 30
0.0
 10
147.2476
 20
-82.7066
 30
0.0
 10
147.2476
 20
-82.7066
 30
0.0
 10
147.2476
 20
-82.7066
 30
0.0
 10
147.2476
 20
-82.7066
 30
0.0
 10
152.0615
 20
-87.2494
 30
0.0
 10
152.0615
 20
-87.2494
 30
0.0
  0
SPLINE
  5
C3
330
1F
100
AcDbEntity
  8
layer 1
 62
     7
100
AcDbSpline
210
0.0
220
0.0
230
1.0
 70
    11
 71
     3
 72
    20
 73
    16
 74
     0
 42
0.0000000001
 43
0.0000000001
 12
1.0
 22
0.0
 32
0.0
 13
1.0
 23
0.0
 33
0.0
 40
0.0
 40
0.0
 40
0.0
 40
0.0
 40
0.2
 40
0.2
 40
0.2
 40
0.2
 40
0.4
 40
0.4
 40
0.4
 40
0.4
 40
0.6
 40
0.6
 40
0.6
 40
0.6
 40
1.0
 40
1.0
 40
1.0
 40
1.0
 10
165.9622
 20
-87.2494
 30
0.0
 10
165.9622
 20
-87.2494
 30
0.0
 10
161.1478
 20
-82.7066
 30
0.0
 10
161.1478
 20
-82.7066
 30
0.0
 10
161.1478
 20
-82.7066
 30
0.0
 10
161.1478
 20
-82.7066
 30
0.0
 10
165.9622
 20
-78.1639
 30
0.0
 10
165.9622
 20
-78.1639
 30
0.0
 10
165.9622
 20
-78.1639
 30
0.0
 10
165.9622
 20
-78.1639
 30
0.0
 10
170.7762
 20
-82.7066
 30
0.0
 10
170.7762
 20
-82.7066
 30
0.0
 10
170.7762
 20
-82.7066
 30
0.0
 10
170.7762
 20
-82.7066
 30
0.0
 10
165.9622
 20
-87.2494
 30
0.0
 10
165.9622
 20
-87.2494
 30
0.0
  0
SPLINE
  5
C4
330
1F
100
AcDbEntity
  8
layer 1
 62
     7
100
AcDbSpline
210
0.0
220
0.0
230
1.0
 70
    11
 71
     3
 72
    16
 73
    12
 74
     0
 42
0.0000000001
 43
0.0000000001
 12
1.0
 22
0.0
 32
0.0
 13
1.0
 23
0.0
 33
0.0
 40
0.0
 40
0.0
 40
0.0
 40
0.0
 40
0.25
 40
0.25
 40
0.25
 40
0.25
 40
0.5
 40
0.5
 40
0.5
 40
0.5
 40
1.0
 40
1.0
 40
1.0
 40
1.0
 10
168.5878
 20
-89.5559
 30
0.0
 10
168.5878
 20
-89.5559
 30
0.0
 10
178.1678
 20
-89.5559
 30
0.0
 10
178.1678
 20
-89.5559
 30
0.0
 10
178.1678
 20
-89.5559
 30
0.0
 10
178.1678
 20
-89.5559
 30
0.0
 10
173.3777
 20
-85.0356
 30
0.0
 10
173.3777
 20
-85.0356
 30
0.0
 10
173.3777
 20
-85.0356
 30
0.0
 10
173.3777
 20
-85.0356
 30
0.0
 10
168.5878
 20
-89.5559
 30
0.0
 10
168.5878
 20
-89.5559
 30
0.0
  0
SPLINE
  5
C5
330
1F
100
AcDbEntity
  8
layer 1
 62
     7
100
AcDbSpline
210
0.0
220
0.0
230
1.0
 70
    11
 71
     3
 72
    20
 73
    16
 74
     0
 42
0.0000000001
 43
0.0000000001
 12
1.0
 22
0.0
 32
0.0
 13
1.0
 23
0.0
 33
0.0
 40
0.0
 40
0.0
 40
0.0
 40
0.0
 40
0.2
 40
0.2
 40
0.2
 40
0.2
 40
0.4
 40
0.4
 40
0.4
 40
0.4
 40
0.6
 40
0.6
 40
0.6
 40
0.6
 40
1.0
 40
1.0
 40
1.0
 40
1.0
 10
180.7938
 20
-87.2494
 30
0.0
 10
180.7938
 20
-87.2494
 30
0.0
 10
185.6078
 20
-82.7066
 30
0.0
 10
185.6078
 20
-82.7066
 30
0.0
 10
185.6078
 20
-82.7066
 30
0.0
 10
185.6078
 20
-82.7066
 30
0.0
 10
180.7938
 20
-78.1639
 30
0.0
 10
180.7938
 20
-78.1639
 30
0.0
 10
180.7938
 20
-78.1639
 30
0.0
 10
180.7938
 20
-78.1639
 30
0.0
 10
175.9799
 20
-82.7066
 30
0.0
 10
175.9799
 20
-82.7066
 30
0.0
 10
175.9799
 20
-82.7066
 30
0.0
 10
175.9799
 20
-82.7066
 30
0.0
 10
180.7938
 20
-87.2494
 30
0.0
 10
180.7938
 20
-87.2494
 30
0.0
  0
SPLINE
  5
C6
330
1F
100
AcDbEntity
  8
layer 1
 62
     7
100
AcDbSpline
210
0.0
220
0.0
230
1.0
 70
    11
 71
     3
 72
    20
 73
    16
 74
     0
 42
0.0000000001
 43
0.0000000001
 12
1.0
 22
0.0
 32
0.0
 13
1.0
 23
0.0
 33
0.0
 40
0.0
 40
0.0
 40
0.0
 40
0.0
 40
0.2
 40
0.2
 40
0.2
 40
0.2
 40
0.4
 40
0.4
 40
0.4
 40
0.4
 40
0.6
 40
0.6
 40
0.6
 40
0.6
 40
1.0
 40
1.0
 40
1.0
 40
1.0
 10
184.0194
 20
-89.5559
 30
0.0
 10
184.0194
 20
-89.5559
 30
0.0
 10
184.0231
 20
-89.5524
 30
0.0
 10
184.0231
 20
-89.5524
 30
0.0
 10
184.0231
 20
-89.5524
 30
0.0
 10
184.0231
 20
-89.5524
 30
0.0
 10
188.838
 20
-89.5524
 30
0.0
 10
188.838
 20
-89.5524
 30
0.0
 10
188.838
 20
-89.5524
 30
0.0
 10
188.838
 20
-89.5524
 30
0.0
 10
188.8375
 20
-85.0097
 30
0.0
 10
188.8375
 20
-85.0097
 30
0.0
 10
188.8375
 20
-85.0097
 30
0.0
 10
188.8375
 20
-85.0097
 30
0.0
 10
184.0194
 20
-89.5559
 30
0.0
 10
184.0194
 20
-89.5559
 30
0.0
  0
SPLINE
  5
C7
330
1F
100
AcDbEntity
  8
layer 1
 62
     7
100
AcDbSpline
210
0.0
220
0.0
230
1.0
 70
    11
 71
     3
 72
    24
 73
    20
 74
     0
 42
0.0000000001
 43
0.0000000001
 12
1.0
 22
0.0
 32
0.0
 13
1.0
 23
0.0
 33
0.0
 40
0.0
 40
0.0
 40
0.0
 40
0.0
 40
0.1666666666666667
 40
0.1666666666666667
 40
0.1666666666666667
 40
0.1666666666666667
 40
0.3333333333333333
 40
0.3333333333333333
 40
0.3333333333333333
 40
0.3333333333333333
 40
0.5
 40
0.5
 40
0.5
 40
0.5
 40
0.6666666666666666
 40
0.6666666666666666
 40
0.6666666666666666
 40
0.6666666666666666
 40
1.0
 40
1.0
 40
1.0
 40
1.0
 10
106.3663
 20
-89.5559
 30
0.0
 10
106.3663
 20
-89.5559
 30
0.0
 10
106.3622
 20
-89.5524
 30
0.0
 10
106.3622
 20
-89.5524
 30
0.0
 10
106.3622
 20
-89.5524
 30
0.0
 10
106.3622
 20
-89.5524
 30
0.0
 10
96.7289
 20
-89.5559
 30
0.0
 10
96.7289
 20
-89.5559
 30
0.0
 10
96.7289
 20
-89.5559
 30
0.0
 10
96.7289
 20
-89.5559
 30
0.0
 10
96.733
 20
-89.5524
 30
0.0
 10
96.733
 20
-89.5524
 30
0.0
 10
96.733
 20
-89.5524
 30
0.0
 10
96.733
 20
-89.5524
 30
0.0
 10
101.5475
 20
-85.0097
 30
0.0
 10
101.5475
 20
-85.0097
 30
0.0
 10
101.5475
 20
-85.0097
 30
0.0
 10
101.5475
 20
-85.0097
 30
0.0
 10
106.3663
 20
-89.5559
 30
0.0
 10
106.3663
 20
-89.5559
 30
0.0
  0
SPLINE
  5
C8
330
1F
100
AcDbEntity
  8
layer 1
 62
     7
100
AcDbSpline
210
0.0
220
0.0
230
1.0
 70
    11
 71
     3
 72
    16
 73
    12
 74
     0
 42
0.0000000001
 43
0.0000000001
 12
1.0
 22
0.0
 32
0.0
 13
1.0
 23
0.0
 33
0.0
 40
0.0
 40
0.0
 40
0.0
 40
0.0
 40
0.25
 40
0.25
 40
0.25
 40
0.25
 40
0.5
 40
0.5
 40
0.5
 40
0.5
 40
1.0
 40
1.0
 40
1.0
 40
1.0
 10
91.9754
 20
53.125
 30
0.0
 10
91.9754
 20
53.125
 30
0.0
 10
87.1815
 20
57.6487
 30
0.0
 10
87.1815
 20
57.6487
 30
0.0
 10
87.1815
 20
57.6487
 30
0.0
 10
87.1815
 20
57.6487
 30
0.0
 10
87.1815
 20
48.6015
 30
0.0
 10
87.1815
 20
48.6015
 30
0.0
 10
87.1815
 20
48.6015
 30
0.0
 10
87.1815
 20
48.6015
 30
0.0
 10
91.9754
 20
53.125
 30
0.0
 10
91.9754
 20
53.125
 30
0.0
  0
SPLINE
  5
C9
330
1F
100
AcDbEntity
  8
layer 1
 62
     7
100
AcDbSpline
210
0.0
220
0.0
230
1.0
 70
    11
 71
     3
 72
    20
 73
    16
 74
     0
 42
0.0000000001
 43
0.0000000001
 12
1.0
 22
0.0
 32
0.0
 13
1.0
 23
0.0
 33
0.0
 40
0.0
 40
0.0
 40
0.0
 40
0.0
 40
0.2
 40
0.2
 40
0.2
 40
0.2
 40
0.4
 40
0.4
 40
0.4
 40
0.4
 40
0.6
 40
0.6
 40
0.6
 40
0.6
 40
1.0
 40
1.0
 40
1.0
 40
1.0
 10
94.5975
 20
50.8153
 30
0.0
 10
94.5975
 20
50.8153
 30
0.0
 10
89.7834
 20
46.2725
 30
0.0
 10
89.7834
 20
46.2725
 30
0.0
 10
89.7834
 20
46.2725
 30
0.0
 10
89.7834
 20
46.2725
 30
0.0
 10
94.5975
 20
41.7296
 30
0.0
 10
94.5975
 20
41.7296
 30
0.0
 10
94.5975
 20
41.7296
 30
0.0
 10
94.5975
 20
41.7296
 30
0.0
 10
99.4114
 20
46.2725
 30
0.0
 10
99.4114
 20
46.2725
 30
0.0
 10
99.4114
 20
46.2725
 30
0.0
 10
99.4114
 20
46.2725
 30
0.0
 10
94.5975
 20
50.8153
 30
0.0
 10
94.5975
 20
50.8153
 30
0.0
  0
SPLINE
  5
CA
330
1F
100
AcDbEntity
  8
layer 1
 62
     7
100
AcDbSpline
210
0.0
220
0.0
230
1.0
 70
    11
 71
     3
 72
    16
 73
    12
 74
     0
 42
0.0000000001
 43
0.0000000001
 12
1.0
 22
0.0
 32
0.0
 13
1.0
 23
0.0
 33
0.0
 40
0.0
 40
0.0
 40
0.0
 40
0.0
 40
0.25
 40
0.25
 40
0.25
 40
0.25
 40
0.5
 40
0.5
 40
0.5
 40
0.5
 40
1.0
 40
1.0
 40
1.0
 40
1.0
 10
91.9872
 20
38.8565
 30
0.0
 10
91.9872
 20
38.8565
 30
0.0
 10
87.1815
 20
43.4035
 30
0.0
 10
87.1815
 20
43.4035
 30
0.0
 10
87.1815
 20
43.4035
 30
0.0
 10
87.1815
 20
43.4035
 30
0.0
 10
87.1815
 20
34.31
 30
0.0
 10
87.1815
 20
34.31
 30
0.0
 10
87.1815
 20
34.31
 30
0.0
 10
87.1815
 20
34.31
 30
0.0
 10
91.9872
 20
38.8565
 30
0.0
 10
91.9872
 20
38.8565
 30
0.0
  0
SPLINE
  5
CB
330
1F
100
AcDbEntity
  8
layer 1
 62
     7
100
AcDbSpline
210
0.0
220
0.0
230
1.0
 70
    11
 71
     3
 72
    20
 73
    16
 74
     0
 42
0.0000000001
 43
0.0000000001
 12
1.0
 22
0.0
 32
0.0
 13
1.0
 23
0.0
 33
0.0
 40
0.0
 40
0.0
 40
0.0
 40
0.0
 40
0.2
 40
0.2
 40
0.2
 40
0.2
 40
0.4
 40
0.4
 40
0.4
 40
0.4
 40
0.6
 40
0.6
 40
0.6
 40
0.6
 40
1.0
 40
1.0
 40
1.0
 40
1.0
 10
94.5975
 20
26.8977
 30
0.0
 10
94.5975
 20
26.8977
 30
0.0
 10
89.7834
 20
31.441
 30
0.0
 10
89.7834
 20
31.441
 30
0.0
 10
89.7834
 20
31.441
 30
0.0
 10
89.7834
 20
31.441
 30
0.0
 10
94.5975
 20
35.9838
 30
0.0
 10
94.5975
 20
35.9838
 30
0.0
 10
94.5975
 20
35.9838
 30
0.0
 10
94.5975
 20
35.9838
 30
0.0
 10
99.4114
 20
31.441
 30
0.0
 10
99.4114
 20
31.441
 30
0.0
 10
99.4114
 20
31.441
 30
0.0
 10
99.4114
 20
31.441
 30
0.0
 10
94.5975
 20
26.8977
 30
0.0
 10
94.5975
 20
26.8977
 30
0.0
  0
SPLINE
  5
CC
330
1F
100
AcDbEntity
  8
layer 1
 62
     7
100
AcDbSpline
210
0.0
220
0.0
230
1.0
 70
    11
 71
     3
 72
    16
 73
    12
 74
     0
 42
0.0000000001
 43
0.0000000001
 12
1.0
 22
0.0
 32
0.0
 13
1.0
 23
0.0
 33
0.0
 40
0.0
 40
0.0
 40
0.0
 40
0.0
 40
0.25
 40
0.25
 40
0.25
 40
0.25
 40
0.5
 40
0.5
 40
0.5
 40
0.5
 40
1.0
 40
1.0
 40
1.0
 40
1.0
 10
91.9754
 20
24.588
 30
0.0
 10
91.9754
 20
24.588
 30
0.0
 10
87.1815
 20
29.1121
 30
0.0
 10
87.1815
 20
29.1121
 30
0.0
 10
87.1815
 20
29.1121
 30
0.0
 10
87.1815
 20
29.1121
 30
0.0
 10
87.1815
 20
20.0643
 30
0.0
 10
87.1815
 20
20.0643
 30
0.0
 10
87.1815
 20
20.0643
 30
0.0
 10
87.1815
 20
20.0643
 30
0.0
 10
91.9754
 20
24.588
 30
0.0
 10
91.9754
 20
24.588
 30
0.0
  0
SPLINE
  5
CD
330
1F
100
AcDbEntity
  8
layer 1
 62
     7
100
AcDbSpline
210
0.0
220
0.0
230
1.0
 70
    11
 71
     3
 72
    20
 73
    16
 74
     0
 42
0.0000000001
 43
0.0000000001
 12
1.0
 22
0.0
 32
0.0
 13
1.0
 23
0.0
 33
0.0
 40
0.0
 40
0.0
 40
0.0
 40
0.0
 40
0.2
 40
0.2
 40
0.2
 40
0.2
 40
0.4
 40
0.4
 40
0.4
 40
0.4
 40
0.6
 40
0.6
 40
0.6
 40
0.6
 40
1.0
 40
1.0
 40
1.0
 40
1.0
 10
94.5975
 20
22.2783
 30
0.0
 10
94.5975
 20
22.2783
 30
0.0
 10
89.7834
 20
17.7354
 30
0.0
 10
89.7834
 20
17.7354
 30
0.0
 10
89.7834
 20
17.7354
 30
0.0
 10
89.7834
 20
17.7354
 30
0.0
 10
94.5975
 20
13.1926
 30
0.0
 10
94.5975
 20
13.1926
 30
0.0
 10
94.5975
 20
13.1926
 30
0.0
 10
94.5975
 20
13.1926
 30
0.0
 10
99.4114
 20
17.7354
 30
0.0
 10
99.4114
 20
17.7354
 30
0.0
 10
99.4114
 20
17.7354
 30
0.0
 10
99.4114
 20
17.7354
 30
0.0
 10
94.5975
 20
22.2783
 30
0.0
 10
94.5975
 20
22.2783
 30
0.0
  0
SPLINE
  5
CE
330
1F
100
AcDbEntity
  8
layer 1
 62
     7
100
AcDbSpline
210
0.0
220
0.0
230
1.0
 70
    11
 71
     3
 72
    16
 73
    12
 74
     0
 42
0.0000000001
 43
0.0000000001
 12
1.0
 22
0.0
 32
0.0
 13
1.0
 23
0.0
 33
0.0
 40
0.0
 40
0.0
 40
0.0
 40
0.0
 40
0.25
 40
0.25
 40
0.25
 40
0.25
 40
0.5
 40
0.5
 40
0.5
 40
0.5
 40
1.0
 40
1.0
 40
1.0
 40
1.0
 10
91.9872
 20
10.3199
 30
0.0
 10
91.9872
 20
10.3199
 30
0.0
 10
87.1815
 20
14.8665
 30
0.0
 10
87.1815
 20
14.8665
 30
0.0
 10
87.1815
 20
14.8665
 30
0.0
 10
87.1815
 20
14.8665
 30
0.0
 10
87.1815
 20
5.7729
 30
0.0
 10
87.1815
 20
5.7729
 30
0.0
 10
87.1815
 20
5.7729
 30
0.0
 10
87.1815
 20
5.7729
 30
0.0
 10
91.9872
 20
10.3199
 30
0.0
 10
91.9872
 20
10.3199
 30
0.0
  0
SPLINE
  5
CF
330
1F
100
AcDbEntity
  8
layer 1
 62
     7
100
AcDbSpline
210
0.0
220
0.0
230
1.0
 70
    11
 71
     3
 72
    20
 73
    16
 74
     0
 42
0.0000000001
 43
0.0000000001
 12
1.0
 22
0.0
 32
0.0
 13
1.0
 23
0.0
 33
0.0
 40
0.0
 40
0.0
 40
0.0
 40
0.0
 40
0.2
 40
0.2
 40
0.2
 40
0.2
 40
0.4
 40
0.4
 40
0.4
 40
0.4
 40
0.6
 40
0.6
 40
0.6
 40
0.6
 40
1.0
 40
1.0
 40
1.0
 40
1.0
 10
94.5975
 20
-1.6389
 30
0.0
 10
94.5975
 20
-1.6389
 30
0.0
 10
89.7834
 20
2.9039
 30
0.0
 10
89.7834
 20
2.9039
 30
0.0
 10
89.7834
 20
2.9039
 30
0.0
 10
89.7834
 20
2.9039
 30
0.0
 10
94.5975
 20
7.4468
 30
0.0
 10
94.5975
 20
7.4468
 30
0.0
 10
94.5975
 20
7.4468
 30
0.0
 10
94.5975
 20
7.4468
 30
0.0
 10
99.4114
 20
2.9039
 30
0.0
 10
99.4114
 20
2.9039
 30
0.0
 10
99.4114
 20
2.9039
 30
0.0
 10
99.4114
 20
2.9039
 30
0.0
 10
94.5975
 20
-1.6389
 30
0.0
 10
94.5975
 20
-1.6389
 30
0.0
  0
SPLINE
  5
D0
330
1F
100
AcDbEntity
  8
layer 1
 62
     7
100
AcDbSpline
210
0.0
220
0.0
230
1.0
 70
    11
 71
     3
 72
    16
 73
    12
 74
     0
 42
0.0000000001
 43
0.0000000001
 12
1.0
 22
0.0
 32
0.0
 13
1.0
 23
0.0
 33
0.0
 40
0.0
 40
0.0
 40
0.0
 40
0.0
 40
0.25
 40
0.25
 40
0.25
 40
0.25
 40
0.5
 40
0.5
 40
0.5
 40
0.5
 40
1.0
 40
1.0
 40
1.0
 40
1.0
 10
91.9754
 20
-3.9486
 30
0.0
 10
91.9754
 20
-3.9486
 30
0.0
 10
87.1815
 20
0.5749
 30
0.0
 10
87.1815
 20
0.5749
 30
0.0
 10
87.1815
 20
0.5749
 30
0.0
 10
87.1815
 20
0.5749
 30
0.0
 10
87.1815
 20
-8.4723
 30
0.0
 10
87.1815
 20
-8.4723
 30
0.0
 10
87.1815
 20
-8.4723
 30
0.0
 10
87.1815
 20
-8.4723
 30
0.0
 10
91.9754
 20
-3.9486
 30
0.0
 10
91.9754
 20
-3.9486
 30
0.0
  0
SPLINE
  5
D1
330
1F
100
AcDbEntity
  8
layer 1
 62
     7
100
AcDbSpline
210
0.0
220
0.0
230
1.0
 70
    11
 71
     3
 72
    20
 73
    16
 74
     0
 42
0.0000000001
 43
0.0000000001
 12
1.0
 22
0.0
 32
0.0
 13
1.0
 23
0.0
 33
0.0
 40
0.0
 40
0.0
 40
0.0
 40
0.0
 40
0.2
 40
0.2
 40
0.2
 40
0.2
 40
0.4
 40
0.4
 40
0.4
 40
0.4
 40
0.6
 40
0.6
 40
0.6
 40
0.6
 40
1.0
 40
1.0
 40
1.0
 40
1.0
 10
94.5975
 20
-6.2583
 30
0.0
 10
94.5975
 20
-6.2583
 30
0.0
 10
89.7834
 20
-10.8012
 30
0.0
 10
89.7834
 20
-10.8012
 30
0.0
 10
89.7834
 20
-10.8012
 30
0.0
 10
89.7834
 20
-10.8012
 30
0.0
 10
94.5975
 20
-15.344
 30
0.0
 10
94.5975
 20
-15.344
 30
0.0
 10
94.5975
 20
-15.344
 30
0.0
 10
94.5975
 20
-15.344
 30
0.0
 10
99.4114
 20
-10.8012
 30
0.0
 10
99.4114
 20
-10.8012
 30
0.0
 10
99.4114
 20
-10.8012
 30
0.0
 10
99.4114
 20
-10.8012
 30
0.0
 10
94.5975
 20
-6.2583
 30
0.0
 10
94.5975
 20
-6.2583
 30
0.0
  0
SPLINE
  5
D2
330
1F
100
AcDbEntity
  8
layer 1
 62
     7
100
AcDbSpline
210
0.0
220
0.0
230
1.0
 70
    11
 71
     3
 72
    16
 73
    12
 74
     0
 42
0.0000000001
 43
0.0000000001
 12
1.0
 22
0.0
 32
0.0
 13
1.0
 23
0.0
 33
0.0
 40
0.0
 40
0.0
 40
0.0
 40
0.0
 40
0.25
 40
0.25
 40
0.25
 40
0.25
 40
0.5
 40
0.5
 40
0.5
 40
0.5
 40
1.0
 40
1.0
 40
1.0
 40
1.0
 10
91.9872
 20
-18.2171
 30
0.0
 10
91.9872
 20
-18.2171
 30
0.0
 10
87.1815
 20
-13.6701
 30
0.0
 10
87.1815
 20
-13.6701
 30
0.0
 10
87.1815
 20
-13.6701
 30
0.0
 10
87.1815
 20
-13.6701
 30
0.0
 10
87.1815
 20
-22.7637
 30
0.0
 10
87.1815
 20
-22.7637
 30
0.0
 10
87.1815
 20
-22.7637
 30
0.0
 10
87.1815
 20
-22.7637
 30
0.0
 10
91.9872
 20
-18.2171
 30
0.0
 10
91.9872
 20
-18.2171
 30
0.0
  0
SPLINE
  5
D3
330
1F
100
AcDbEntity
  8
layer 1
 62
     7
100
AcDbSpline
210
0.0
220
0.0
230
1.0
 70
    11
 71
     3
 72
    20
 73
    16
 74
     0
 42
0.0000000001
 43
0.0000000001
 12
1.0
 22
0.0
 32
0.0
 13
1.0
 23
0.0
 33
0.0
 40
0.0
 40
0.0
 40
0.0
 40
0.0
 40
0.2
 40
0.2
 40
0.2
 40
0.2
 40
0.4
 40
0.4
 40
0.4
 40
0.4
 40
0.6
 40
0.6
 40
0.6
 40
0.6
 40
1.0
 40
1.0
 40
1.0
 40
1.0
 10
94.5975
 20
-30.1761
 30
0.0
 10
94.5975
 20
-30.1761
 30
0.0
 10
89.7834
 20
-25.6327
 30
0.0
 10
89.7834
 20
-25.6327
 30
0.0
 10
89.7834
 20
-25.6327
 30
0.0
 10
89.7834
 20
-25.6327
 30
0.0
 10
94.5975
 20
-21.0898
 30
0.0
 10
94.5975
 20
-21.0898
 30
0.0
 10
94.5975
 20
-21.0898
 30
0.0
 10
94.5975
 20
-21.0898
 30
0.0
 10
99.4114
 20
-25.6327
 30
0.0
 10
99.4114
 20
-25.6327
 30
0.0
 10
99.4114
 20
-25.6327
 30
0.0
 10
99.4114
 20
-25.6327
 30
0.0
 10
94.5975
 20
-30.1761
 30
0.0
 10
94.5975
 20
-30.1761
 30
0.0
  0
SPLINE
  5
D4
330
1F
100
AcDbEntity
  8
layer 1
 62
     7
100
AcDbSpline
210
0.0
220
0.0
230
1.0
 70
    11
 71
     3
 72
    16
 73
    12
 74
     0
 42
0.0000000001
 43
0.0000000001
 12
1.0
 22
0.0
 32
0.0
 13
1.0
 23
0.0
 33
0.0
 40
0.0
 40
0.0
 40
0.0
 40
0.0
 40
0.25
 40
0.25
 40
0.25
 40
0.25
 40
0.5
 40
0.5
 40
0.5
 40
0.5
 40
1.0
 40
1.0
 40
1.0
 40
1.0
 10
91.9754
 20
-32.4858
 30
0.0
 10
91.9754
 20
-32.4858
 30
0.0
 10
87.1815
 20
-27.9617
 30
0.0
 10
87.1815
 20
-27.9617
 30
0.0
 10
87.1815
 20
-27.9617
 30
0.0
 10
87.1815
 20
-27.9617
 30
0.0
 10
87.1815
 20
-37.0093
 30
0.0
 10
87.1815
 20
-37.0093
 30
0.0
 10
87.1815
 20
-37.0093
 30
0.0
 10
87.1815
 20
-37.0093
 30
0.0
 10
91.9754
 20
-32.4858
 30
0.0
 10
91.9754
 20
-32.4858
 30
0.0
  0
SPLINE
  5
D5
330
1F
100
AcDbEntity
  8
layer 1
 62
     7
100
AcDbSpline
210
0.0
220
0.0
230
1.0
 70
    11
 71
     3
 72
    20
 73
    16
 74
     0
 42
0.0000000001
 43
0.0000000001
 12
1.0
 22
0.0
 32
0.0
 13
1.0
 23
0.0
 33
0.0
 40
0.0
 40
0.0
 40
0.0
 40
0.0
 40
0.2
 40
0.2
 40
0.2
 40
0.2
 40
0.4
 40
0.4
 40
0.4
 40
0.4
 40
0.6
 40
0.6
 40
0.6
 40
0.6
 40
1.0
 40
1.0
 40
1.0
 40
1.0
 10
94.5975
 20
-34.7955
 30
0.0
 10
94.5975
 20
-34.7955
 30
0.0
 10
89.7834
 20
-39.3381
 30
0.0
 10
89.7834
 20
-39.3381
 30
0.0
 10
89.7834
 20
-39.3381
 30
0.0
 10
89.7834
 20
-39.3381
 30
0.0
 10
94.5975
 20
-43.8811
 30
0.0
 10
94.5975
 20
-43.8811
 30
0.0
 10
94.5975
 20
-43.8811
 30
0.0
 10
94.5975
 20
-43.8811
 30
0.0
 10
99.4114
 20
-39.3381
 30
0.0
 10
99.4114
 20
-39.3381
 30
0.0
 10
99.4114
 20
-39.3381
 30
0.0
 10
99.4114
 20
-39.3381
 30
0.0
 10
94.5975
 20
-34.7955
 30
0.0
 10
94.5975
 20
-34.7955
 30
0.0
  0
SPLINE
  5
D6
330
1F
100
AcDbEntity
  8
layer 1
 62
     7
100
AcDbSpline
210
0.0
220
0.0
230
1.0
 70
    11
 71
     3
 72
    16
 73
    12
 74
     0
 42
0.0000000001
 43
0.0000000001
 12
1.0
 22
0.0
 32
0.0
 13
1.0
 23
0.0
 33
0.0
 40
0.0
 40
0.0
 40
0.0
 40
0.0
 40
0.25
 40
0.25
 40
0.25
 40
0.25
 40
0.5
 40
0.5
 40
0.5
 40
0.5
 40
1.0
 40
1.0
 40
1.0
 40
1.0
 10
91.9872
 20
-46.754
 30
0.0
 10
91.9872
 20
-46.754
 30
0.0
 10
87.1815
 20
-42.2073
 30
0.0
 10
87.1815
 20
-42.2073
 30
0.0
 10
87.1815
 20
-42.2073
 30
0.0
 10
87.1815
 20
-42.2073
 30
0.0
 10
87.1815
 20
-51.3006
 30
0.0
 10
87.1815
 20
-51.3006
 30
0.0
 10
87.1815
 20
-51.3006
 30
0.0
 10
87.1815
 20
-51.3006
 30
0.0
 10
91.9872
 20
-46.754
 30
0.0
 10
91.9872
 20
-46.754
 30
0.0
  0
SPLINE
  5
D7
330
1F
100
AcDbEntity
  8
layer 1
 62
     7
100
AcDbSpline
210
0.0
220
0.0
230
1.0
 70
    11
 71
     3
 72
    20
 73
    16
 74
     0
 42
0.0000000001
 43
0.0000000001
 12
1.0
 22
0.0
 32
0.0
 13
1.0
 23
0.0
 33
0.0
 40
0.0
 40
0.0
 40
0.0
 40
0.0
 40
0.2
 40
0.2
 40
0.2
 40
0.2
 40
0.4
 40
0.4
 40
0.4
 40
0.4
 40
0.6
 40
0.6
 40
0.6
 40
0.6
 40
1.0
 40
1.0
 40
1.0
 40
1.0
 10
94.5975
 20
-49.6271
 30
0.0
 10
94.5975
 20
-49.6271
 30
0.0
 10
89.7834
 20
-54.1698
 30
0.0
 10
89.7834
 20
-54.1698
 30
0.0
 10
89.7834
 20
-54.1698
 30
0.0
 10
89.7834
 20
-54.1698
 30
0.0
 10
94.5975
 20
-58.7127
 30
0.0
 10
94.5975
 20
-58.7127
 30
0.0
 10
94.5975
 20
-58.7127
 30
0.0
 10
94.5975
 20
-58.7127
 30
0.0
 10
99.4114
 20
-54.1698
 30
0.0
 10
99.4114
 20
-54.1698
 30
0.0
 10
99.4114
 20
-54.1698
 30
0.0
 10
99.4114
 20
-54.1698
 30
0.0
 10
94.5975
 20
-49.6271
 30
0.0
 10
94.5975
 20
-49.6271
 30
0.0
  0
SPLINE
  5
D8
330
1F
100
AcDbEntity
  8
layer 1
 62
     7
100
AcDbSpline
210
0.0
220
0.0
230
1.0
 70
    11
 71
     3
 72
    16
 73
    12
 74
     0
 42
0.0000000001
 43
0.0000000001
 12
1.0
 22
0.0
 32
0.0
 13
1.0
 23
0.0
 33
0.0
 40
0.0
 40
0.0
 40
0.0
 40
0.0
 40
0.25
 40
0.25
 40
0.25
 40
0.25
 40
0.5
 40
0.5
 40
0.5
 40
0.5
 40
1.0
 40
1.0
 40
1.0
 40
1.0
 10
87.1815
 20
-56.4986
 30
0.0
 10
87.1815
 20
-56.4986
 30
0.0
 10
91.9754
 20
-61.0222
 30
0.0
 10
91.9754
 20
-61.0222
 30
0.0
 10
91.9754
 20
-61.0222
 30
0.0
 10
91.9754
 20
-61.0222
 30
0.0
 10
87.1815
 20
-65.5461
 30
0.0
 10
87.1815
 20
-65.5461
 30
0.0
 10
87.1815
 20
-65.5461
 30
0.0
 10
87.1815
 20
-65.5461
 30
0.0
 10
87.1815
 20
-56.4986
 30
0.0
 10
87.1815
 20
-56.4986
 30
0.0
  0
SPLINE
  5
D9
330
1F
100
AcDbEntity
  8
layer 1
 62
     7
100
AcDbSpline
210
0.0
220
0.0
230
1.0
 70
    11
 71
     3
 72
    20
 73
    16
 74
     0
 42
0.0000000001
 43
0.0000000001
 12
1.0
 22
0.0
 32
0.0
 13
1.0
 23
0.0
 33
0.0
 40
0.0
 40
0.0
 40
0.0
 40
0.0
 40
0.2
 40
0.2
 40
0.2
 40
0.2
 40
0.4
 40
0.4
 40
0.4
 40
0.4
 40
0.6
 40
0.6
 40
0.6
 40
0.6
 40
1.0
 40
1.0
 40
1.0
 40
1.0
 10
94.5975
 20
-63.3322
 30
0.0
 10
94.5975
 20
-63.3322
 30
0.0
 10
99.4114
 20
-67.875
 30
0.0
 10
99.4114
 20
-67.875
 30
0.0
 10
99.4114
 20
-67.875
 30
0.0
 10
99.4114
 20
-67.875
 30
0.0
 10
94.5975
 20
-72.4178
 30
0.0
 10
94.5975
 20
-72.4178
 30
0.0
 10
94.5975
 20
-72.4178
 30
0.0
 10
94.5975
 20
-72.4178
 30
0.0
 10
89.7834
 20
-67.875
 30
0.0
 10
89.7834
 20
-67.875
 30
0.0
 10
89.7834
 20
-67.875
 30
0.0
 10
89.7834
 20
-67.875
 30
0.0
 10
94.5975
 20
-63.3322
 30
0.0
 10
94.5975
 20
-63.3322
 30
0.0
  0
SPLINE
  5
DA
330
1F
100
AcDbEntity
  8
layer 1
 62
     7
100
AcDbSpline
210
0.0
220
0.0
230
1.0
 70
    11
 71
     3
 72
    16
 73
    12
 74
     0
 42
0.0000000001
 43
0.0000000001
 12
1.0
 22
0.0
 32
0.0
 13
1.0
 23
0.0
 33
0.0
 40
0.0
 40
0.0
 40
0.0
 40
0.0
 40
0.25
 40
0.25
 40
0.25
 40
0.25
 40
0.5
 40
0.5
 40
0.5
 40
0.5
 40
1.0
 40
1.0
 40
1.0
 40
1.0
 10
91.9872
 20
-75.2909
 30
0.0
 10
91.9872
 20
-75.2909
 30
0.0
 10
87.1815
 20
-79.8376
 30
0.0
 10
87.1815
 20
-79.8376
 30
0.0
 10
87.1815
 20
-79.8376
 30
0.0
 10
87.1815
 20
-79.8376
 30
0.0
 10
87.1815
 20
-70.7441
 30
0.0
 10
87.1815
 20
-70.7441
 30
0.0
 10
87.1815
 20
-70.7441
 30
0.0
 10
87.1815
 20
-70.7441
 30
0.0
 10
91.9872
 20
-75.2909
 30
0.0
 10
91.9872
 20
-75.2909
 30
0.0
  0
SPLINE
  5
DB
330
1F
100
AcDbEntity
  8
layer 1
 62
     7
100
AcDbSpline
210
0.0
220
0.0
230
1.0
 70
    11
 71
     3
 72
    20
 73
    16
 74
     0
 42
0.0000000001
 43
0.0000000001
 12
1.0
 22
0.0
 32
0.0
 13
1.0
 23
0.0
 33
0.0
 40
0.0
 40
0.0
 40
0.0
 40
0.0
 40
0.2
 40
0.2
 40
0.2
 40
0.2
 40
0.4
 40
0.4
 40
0.4
 40
0.4
 40
0.6
 40
0.6
 40
0.6
 40
0.6
 40
1.0
 40
1.0
 40
1.0
 40
1.0
 10
94.5975
 20
-87.2494
 30
0.0
 10
94.5975
 20
-87.2494
 30
0.0
 10
89.7834
 20
-82.7066
 30
0.0
 10
89.7834
 20
-82.7066
 30
0.0
 10
89.7834
 20
-82.7066
 30
0.0
 10
89.7834
 20
-82.7066
 30
0.0
 10
94.5975
 20
-78.1639
 30
0.0
 10
94.5975
 20
-78.1639
 30
0.0
 10
94.5975
 20
-78.1639
 30
0.0
 10
94.5975
 20
-78.1639
 30
0.0
 10
99.4114
 20
-82.7066
 30
0.0
 10
99.4114
 20
-82.7066
 30
0.0
 10
99.4114
 20
-82.7066
 30
0.0
 10
99.4114
 20
-82.7066
 30
0.0
 10
94.5975
 20
-87.2494
 30
0.0
 10
94.5975
 20
-87.2494
 30
0.0
  0
SPLINE
  5
DC
330
1F
100
AcDbEntity
  8
layer 1
 62
     7
100
AcDbSpline
210
0.0
220
0.0
230
1.0
 70
    11
 71
     3
 72
    16
 73
    12
 74
     0
 42
0.0000000001
 43
0.0000000001
 12
1.0
 22
0.0
 32
0.0
 13
1.0
 23
0.0
 33
0.0
 40
0.0
 40
0.0
 40
0.0
 40
0.0
 40
0.25
 40
0.25
 40
0.25
 40
0.25
 40
0.5
 40
0.5
 40
0.5
 40
0.5
 40
1.0
 40
1.0
 40
1.0
 40
1.0
 10
91.9717
 20
-89.5559
 30
0.0
 10
91.9717
 20
-89.5559
 30
0.0
 10
87.1815
 20
-89.5524
 30
0.0
 10
87.1815
 20
-89.5524
 30
0.0
 10
87.1815
 20
-89.5524
 30
0.0
 10
87.1815
 20
-89.5524
 30
0.0
 10
87.1815
 20
-85.0356
 30
0.0
 10
87.1815
 20
-85.0356
 30
0.0
 10
87.1815
 20
-85.0356
 30
0.0
 10
87.1815
 20
-85.0356
 30
0.0
 10
91.9717
 20
-89.5559
 30
0.0
 10
91.9717
 20
-89.5559
 30
0.0
  0
SPLINE
  5
DD
330
1F
100
AcDbEntity
  8
layer 1
 62
     7
100
AcDbSpline
210
0.0
220
0.0
230
1.0
 70
    11
 71
     3
 72
    36
 73
    32
 74
     0
 42
0.0000000001
 43
0.0000000001
 12
1.0
 22
0.0
 32
0.0
 13
1.0
 23
0.0
 33
0.0
 40
0.0
 40
0.0
 40
0.0
 40
0.0
 40
0.1111111111111111
 40
0.1111111111111111
 40
0.1111111111111111
 40
0.1111111111111111
 40
0.2222222222222222
 40
0.2222222222222222
 40
0.2222222222222222
 40
0.2222222222222222
 40
0.3333333333333333
 40
0.3333333333333333
 40
0.3333333333333333
 40
0.3333333333333333
 40
0.4444444444444444
 40
0.4444444444444444
 40
0.4444444444444444
 40
0.4444444444444444
 40
0.5555555555555556
 40
0.5555555555555556
 40
0.5555555555555556
 40
0.5555555555555556
 40
0.6666666666666666
 40
0.6666666666666666
 40
0.6666666666666666
 40
0.6666666666666666
 40
0.7777777777777778
 40
0.7777777777777778
 40
0.7777777777777778
 40
0.7777777777777778
 40
1.0
 40
1.0
 40
1.0
 40
1.0
 10
106.3622
 20
81.6684
 30
0.0
 10
106.3622
 20
81.6684
 30
0.0
 10
101.5475
 20
86.2119
 30
0.0
 10
101.5475
 20
86.2119
 30
0.0
 10
101.5475
 20
86.2119
 30
0.0
 10
101.5475
 20
86.2119
 30
0.0
 10
96.733
 20
81.6684
 30
0.0
 10
96.733
 20
81.6684
 30
0.0
 10
96.733
 20
81.6684
 30
0.0
 10
96.733
 20
81.6684
 30
0.0
 10
96.725
 20
81.6616
 30
0.0
 10
96.725
 20
81.6616
 30
0.0
 10
96.725
 20
81.6616
 30
0.0
 10
96.725
 20
81.6616
 30
0.0
 10
96.733
 20
81.6554
 30
0.0
 10
96.733
 20
81.6554
 30
0.0
 10
96.733
 20
81.6554
 30
0.0
 10
96.733
 20
81.6554
 30
0.0
 10
101.5475
 20
77.112
 30
0.0
 10
101.5475
 20
77.112
 30
0.0
 10
101.5475
 20
77.112
 30
0.0
 10
101.5475
 20
77.112
 30
0.0
 10
106.3622
 20
81.6554
 30
0.0
 10
106.3622
 20
81.6554
 30
0.0
 10
106.3622
 20
81.6554
 30
0.0
 10
106.3622
 20
81.6554
 30
0.0
 10
106.3702
 20
81.6616
 30
0.0
 10
106.3702
 20
81.6616
 30
0.0
 10
106.3702
 20
81.6616
 30
0.0
 10
106.3702
 20
81.6616
 30
0.0
 10
106.3622
 20
81.6684
 30
0.0
 10
106.3622
 20
81.6684
 30
0.0
  0
SPLINE
  5
DE
330
1F
100
AcDbEntity
  8
layer 1
 62
     7
100
AcDbSpline
210
0.0
220
0.0
230
1.0
 70
    11
 71
     3
 72
    24
 73
    20
 74
     0
 42
0.0000000001
 43
0.0000000001
 12
1.0
 22
0.0
 32
0.0
 13
1.0
 23
0.0
 33
0.0
 40
0.0
 40
0.0
 40
0.0
 40
0.0
 40
0.1666666666666667
 40
0.1666666666666667
 40
0.1666666666666667
 40
0.1666666666666667
 40
0.3333333333333333
 40
0.3333333333333333
 40
0.3333333333333333
 40
0.3333333333333333
 40
0.5
 40
0.5
 40
0.5
 40
0.5
 40
0.6666666666666666
 40
0.6666666666666666
 40
0.6666666666666666
 40
0.6666666666666666
 40
1.0
 40
1.0
 40
1.0
 40
1.0
 10
106.3686
 20
95.924
 30
0.0
 10
106.3686
 20
95.924
 30
0.0
 10
101.5475
 20
91.3749
 30
0.0
 10
101.5475
 20
91.3749
 30
0.0
 10
101.5475
 20
91.3749
 30
0.0
 10
101.5475
 20
91.3749
 30
0.0
 10
96.7336
 20
95.9178
 30
0.0
 10
96.7336
 20
95.9178
 30
0.0
 10
96.7336
 20
95.9178
 30
0.0
 10
96.7336
 20
95.9178
 30
0.0
 10
96.7265
 20
95.9245
 30
0.0
 10
96.7265
 20
95.9245
 30
0.0
 10
96.7265
 20
95.9245
 30
0.0
 10
96.7265
 20
95.9245
 30
0.0
 10
106.3621
 20
95.9182
 30
0.0
 10
106.3621
 20
95.9182
 30
0.0
 10
106.3621
 20
95.9182
 30
0.0
 10
106.3621
 20
95.9182
 30
0.0
 10
106.3686
 20
95.924
 30
0.0
 10
106.3686
 20
95.924
 30
0.0
  0
SPLINE
  5
DF
330
1F
100
AcDbEntity
  8
layer 1
 62
     7
100
AcDbSpline
210
0.0
220
0.0
230
1.0
 70
    11
 71
     3
 72
    20
 73
    16
 74
     0
 42
0.0000000001
 43
0.0000000001
 12
1.0
 22
0.0
 32
0.0
 13
1.0
 23
0.0
 33
0.0
 40
0.0
 40
0.0
 40
0.0
 40
0.0
 40
0.2
 40
0.2
 40
0.2
 40
0.2
 40
0.4
 40
0.4
 40
0.4
 40
0.4
 40
0.6
 40
0.6
 40
0.6
 40
0.6
 40
1.0
 40
1.0
 40
1.0
 40
1.0
 10
108.4977
 20
83.9713
 30
0.0
 10
108.4977
 20
83.9713
 30
0.0
 10
113.312
 20
88.5148
 30
0.0
 10
113.312
 20
88.5148
 30
0.0
 10
113.312
 20
88.5148
 30
0.0
 10
113.312
 20
88.5148
 30
0.0
 10
108.4977
 20
93.0576
 30
0.0
 10
108.4977
 20
93.0576
 30
0.0
 10
108.4977
 20
93.0576
 30
0.0
 10
108.4977
 20
93.0576
 30
0.0
 10
103.6838
 20
88.5148
 30
0.0
 10
103.6838
 20
88.5148
 30
0.0
 10
103.6838
 20
88.5148
 30
0.0
 10
103.6838
 20
88.5148
 30
0.0
 10
108.4977
 20
83.9713
 30
0.0
 10
108.4977
 20
83.9713
 30
0.0
  0
SPLINE
  5
E0
330
1F
100
AcDbEntity
  8
layer 1
 62
     7
100
AcDbSpline
210
0.0
220
0.0
230
1.0
 70
    11
 71
     3
 72
    20
 73
    16
 74
     0
 42
0.0000000001
 43
0.0000000001
 12
1.0
 22
0.0
 32
0.0
 13
1.0
 23
0.0
 33
0.0
 40
0.0
 40
0.0
 40
0.0
 40
0.0
 40
0.2
 40
0.2
 40
0.2
 40
0.2
 40
0.4
 40
0.4
 40
0.4
 40
0.4
 40
0.6
 40
0.6
 40
0.6
 40
0.6
 40
1.0
 40
1.0
 40
1.0
 40
1.0
 10
111.1198
 20
81.6616
 30
0.0
 10
111.1198
 20
81.6616
 30
0.0
 10
115.9137
 20
86.1858
 30
0.0
 10
115.9137
 20
86.1858
 30
0.0
 10
115.9137
 20
86.1858
 30
0.0
 10
115.9137
 20
86.1858
 30
0.0
 10
120.7074
 20
81.6616
 30
0.0
 10
120.7074
 20
81.6616
 30
0.0
 10
120.7074
 20
81.6616
 30
0.0
 10
120.7074
 20
81.6616
 30
0.0
 10
115.9137
 20
77.1381
 30
0.0
 10
115.9137
 20
77.1381
 30
0.0
 10
115.9137
 20
77.1381
 30
0.0
 10
115.9137
 20
77.1381
 30
0.0
 10
111.1198
 20
81.6616
 30
0.0
 10
111.1198
 20
81.6616
 30
0.0
  0
SPLINE
  5
E1
330
1F
100
AcDbEntity
  8
layer 1
 62
     7
100
AcDbSpline
210
0.0
220
0.0
230
1.0
 70
    11
 71
     3
 72
    16
 73
    12
 74
     0
 42
0.0000000001
 43
0.0000000001
 12
1.0
 22
0.0
 32
0.0
 13
1.0
 23
0.0
 33
0.0
 40
0.0
 40
0.0
 40
0.0
 40
0.0
 40
0.25
 40
0.25
 40
0.25
 40
0.25
 40
0.5
 40
0.5
 40
0.5
 40
0.5
 40
1.0
 40
1.0
 40
1.0
 40
1.0
 10
111.1082
 20
95.9182
 30
0.0
 10
111.1082
 20
95.9182
 30
0.0
 10
115.9137
 20
91.3838
 30
0.0
 10
115.9137
 20
91.3838
 30
0.0
 10
115.9137
 20
91.3838
 30
0.0
 10
115.9137
 20
91.3838
 30
0.0
 10
120.7192
 20
95.9182
 30
0.0
 10
120.7192
 20
95.9182
 30
0.0
 10
120.7192
 20
95.9182
 30
0.0
 10
120.7192
 20
95.9182
 30
0.0
 10
111.1082
 20
95.9182
 30
0.0
 10
111.1082
 20
95.9182
 30
0.0
  0
SPLINE
  5
E2
330
1F
100
AcDbEntity
  8
layer 1
 62
     7
100
AcDbSpline
210
0.0
220
0.0
230
1.0
 70
    11
 71
     3
 72
    20
 73
    16
 74
     0
 42
0.0000000001
 43
0.0000000001
 12
1.0
 22
0.0
 32
0.0
 13
1.0
 23
0.0
 33
0.0
 40
0.0
 40
0.0
 40
0.0
 40
0.0
 40
0.2
 40
0.2
 40
0.2
 40
0.2
 40
0.4
 40
0.4
 40
0.4
 40
0.4
 40
0.6
 40
0.6
 40
0.6
 40
0.6
 40
1.0
 40
1.0
 40
1.0
 40
1.0
 10
123.3295
 20
83.9713
 30
0.0
 10
123.3295
 20
83.9713
 30
0.0
 10
118.5154
 20
88.5148
 30
0.0
 10
118.5154
 20
88.5148
 30
0.0
 10
118.5154
 20
88.5148
 30
0.0
 10
118.5154
 20
88.5148
 30
0.0
 10
123.3295
 20
93.0576
 30
0.0
 10
123.3295
 20
93.0576
 30
0.0
 10
123.3295
 20
93.0576
 30
0.0
 10
123.3295
 20
93.0576
 30
0.0
 10
128.1435
 20
88.5148
 30
0.0
 10
128.1435
 20
88.5148
 30
0.0
 10
128.1435
 20
88.5148
 30
0.0
 10
128.1435
 20
88.5148
 30
0.0
 10
123.3295
 20
83.9713
 30
0.0
 10
123.3295
 20
83.9713
 30
0.0
  0
SPLINE
  5
E3
330
1F
100
AcDbEntity
  8
layer 1
 62
     7
100
AcDbSpline
210
0.0
220
0.0
230
1.0
 70
    11
 71
     3
 72
    36
 73
    32
 74
     0
 42
0.0000000001
 43
0.0000000001
 12
1.0
 22
0.0
 32
0.0
 13
1.0
 23
0.0
 33
0.0
 40
0.0
 40
0.0
 40
0.0
 40
0.0
 40
0.1111111111111111
 40
0.1111111111111111
 40
0.1111111111111111
 40
0.1111111111111111
 40
0.2222222222222222
 40
0.2222222222222222
 40
0.2222222222222222
 40
0.2222222222222222
 40
0.3333333333333333
 40
0.3333333333333333
 40
0.3333333333333333
 40
0.3333333333333333
 40
0.4444444444444444
 40
0.4444444444444444
 40
0.4444444444444444
 40
0.4444444444444444
 40
0.5555555555555556
 40
0.5555555555555556
 40
0.5555555555555556
 40
0.5555555555555556
 40
0.6666666666666666
 40
0.6666666666666666
 40
0.6666666666666666
 40
0.6666666666666666
 40
0.7777777777777778
 40
0.7777777777777778
 40
0.7777777777777778
 40
0.7777777777777778
 40
1.0
 40
1.0
 40
1.0
 40
1.0
 10
125.4651
 20
81.6684
 30
0.0
 10
125.4651
 20
81.6684
 30
0.0
 10
125.4611
 20
81.6653
 30
0.0
 10
125.4611
 20
81.6653
 30
0.0
 10
125.4611
 20
81.6653
 30
0.0
 10
125.4611
 20
81.6653
 30
0.0
 10
125.4651
 20
81.6555
 30
0.0
 10
125.4651
 20
81.6555
 30
0.0
 10
125.4651
 20
81.6555
 30
0.0
 10
125.4651
 20
81.6555
 30
0.0
 10
130.2799
 20
77.112
 30
0.0
 10
130.2799
 20
77.112
 30
0.0
 10
130.2799
 20
77.112
 30
0.0
 10
130.2799
 20
77.112
 30
0.0
 10
135.0943
 20
81.6555
 30
0.0
 10
135.0943
 20
81.6555
 30
0.0
 10
135.0943
 20
81.6555
 30
0.0
 10
135.0943
 20
81.6555
 30
0.0
 10
135.1021
 20
81.6616
 30
0.0
 10
135.1021
 20
81.6616
 30
0.0
 10
135.1021
 20
81.6616
 30
0.0
 10
135.1021
 20
81.6616
 30
0.0
 10
135.0943
 20
81.6684
 30
0.0
 10
135.0943
 20
81.6684
 30
0.0
 10
135.0943
 20
81.6684
 30
0.0
 10
135.0943
 20
81.6684
 30
0.0
 10
130.2799
 20
86.2119
 30
0.0
 10
130.2799
 20
86.2119
 30
0.0
 10
130.2799
 20
86.2119
 30
0.0
 10
130.2799
 20
86.2119
 30
0.0
 10
125.4651
 20
81.6684
 30
0.0
 10
125.4651
 20
81.6684
 30
0.0
  0
SPLINE
  5
E4
330
1F
100
AcDbEntity
  8
layer 1
 62
     7
100
AcDbSpline
210
0.0
220
0.0
230
1.0
 70
    11
 71
     3
 72
    20
 73
    16
 74
     0
 42
0.0000000001
 43
0.0000000001
 12
1.0
 22
0.0
 32
0.0
 13
1.0
 23
0.0
 33
0.0
 40
0.0
 40
0.0
 40
0.0
 40
0.0
 40
0.2
 40
0.2
 40
0.2
 40
0.2
 40
0.4
 40
0.4
 40
0.4
 40
0.4
 40
0.6
 40
0.6
 40
0.6
 40
0.6
 40
1.0
 40
1.0
 40
1.0
 40
1.0
 10
137.2299
 20
83.9713
 30
0.0
 10
137.2299
 20
83.9713
 30
0.0
 10
142.044
 20
88.5148
 30
0.0
 10
142.044
 20
88.5148
 30
0.0
 10
142.044
 20
88.5148
 30
0.0
 10
142.044
 20
88.5148
 30
0.0
 10
137.2299
 20
93.0576
 30
0.0
 10
137.2299
 20
93.0576
 30
0.0
 10
137.2299
 20
93.0576
 30
0.0
 10
137.2299
 20
93.0576
 30
0.0
 10
132.416
 20
88.5148
 30
0.0
 10
132.416
 20
88.5148
 30
0.0
 10
132.416
 20
88.5148
 30
0.0
 10
132.416
 20
88.5148
 30
0.0
 10
137.2299
 20
83.9713
 30
0.0
 10
137.2299
 20
83.9713
 30
0.0
  0
SPLINE
  5
E5
330
1F
100
AcDbEntity
  8
layer 1
 62
     7
100
AcDbSpline
210
0.0
220
0.0
230
1.0
 70
    11
 71
     3
 72
    20
 73
    16
 74
     0
 42
0.0000000001
 43
0.0000000001
 12
1.0
 22
0.0
 32
0.0
 13
1.0
 23
0.0
 33
0.0
 40
0.0
 40
0.0
 40
0.0
 40
0.0
 40
0.2
 40
0.2
 40
0.2
 40
0.2
 40
0.4
 40
0.4
 40
0.4
 40
0.4
 40
0.6
 40
0.6
 40
0.6
 40
0.6
 40
1.0
 40
1.0
 40
1.0
 40
1.0
 10
139.8518
 20
81.6616
 30
0.0
 10
139.8518
 20
81.6616
 30
0.0
 10
144.6456
 20
86.1858
 30
0.0
 10
144.6456
 20
86.1858
 30
0.0
 10
144.6456
 20
86.1858
 30
0.0
 10
144.6456
 20
86.1858
 30
0.0
 10
149.4397
 20
81.6616
 30
0.0
 10
149.4397
 20
81.6616
 30
0.0
 10
149.4397
 20
81.6616
 30
0.0
 10
149.4397
 20
81.6616
 30
0.0
 10
144.6456
 20
77.1381
 30
0.0
 10
144.6456
 20
77.1381
 30
0.0
 10
144.6456
 20
77.1381
 30
0.0
 10
144.6456
 20
77.1381
 30
0.0
 10
139.8518
 20
81.6616
 30
0.0
 10
139.8518
 20
81.6616
 30
0.0
  0
SPLINE
  5
E6
330
1F
100
AcDbEntity
  8
layer 1
 62
     7
100
AcDbSpline
210
0.0
220
0.0
230
1.0
 70
    11
 71
     3
 72
    16
 73
    12
 74
     0
 42
0.0000000001
 43
0.0000000001
 12
1.0
 22
0.0
 32
0.0
 13
1.0
 23
0.0
 33
0.0
 40
0.0
 40
0.0
 40
0.0
 40
0.0
 40
0.25
 40
0.25
 40
0.25
 40
0.25
 40
0.5
 40
0.5
 40
0.5
 40
0.5
 40
1.0
 40
1.0
 40
1.0
 40
1.0
 10
139.8399
 20
95.9182
 30
0.0
 10
139.8399
 20
95.9182
 30
0.0
 10
144.6456
 20
91.3838
 30
0.0
 10
144.6456
 20
91.3838
 30
0.0
 10
144.6456
 20
91.3838
 30
0.0
 10
144.6456
 20
91.3838
 30
0.0
 10
149.4511
 20
95.9182
 30
0.0
 10
149.4511
 20
95.9182
 30
0.0
 10
149.4511
 20
95.9182
 30
0.0
 10
149.4511
 20
95.9182
 30
0.0
 10
139.8399
 20
95.9182
 30
0.0
 10
139.8399
 20
95.9182
 30
0.0
  0
SPLINE
  5
E7
330
1F
100
AcDbEntity
  8
layer 1
 62
     7
100
AcDbSpline
210
0.0
220
0.0
230
1.0
 70
    11
 71
     3
 72
    36
 73
    32
 74
     0
 42
0.0000000001
 43
0.0000000001
 12
1.0
 22
0.0
 32
0.0
 13
1.0
 23
0.0
 33
0.0
 40
0.0
 40
0.0
 40
0.0
 40
0.0
 40
0.1111111111111111
 40
0.1111111111111111
 40
0.1111111111111111
 40
0.1111111111111111
 40
0.2222222222222222
 40
0.2222222222222222
 40
0.2222222222222222
 40
0.2222222222222222
 40
0.3333333333333333
 40
0.3333333333333333
 40
0.3333333333333333
 40
0.3333333333333333
 40
0.4444444444444444
 40
0.4444444444444444
 40
0.4444444444444444
 40
0.4444444444444444
 40
0.5555555555555556
 40
0.5555555555555556
 40
0.5555555555555556
 40
0.5555555555555556
 40
0.6666666666666666
 40
0.6666666666666666
 40
0.6666666666666666
 40
0.6666666666666666
 40
0.7777777777777778
 40
0.7777777777777778
 40
0.7777777777777778
 40
0.7777777777777778
 40
1.0
 40
1.0
 40
1.0
 40
1.0
 10
154.1891
 20
81.6616
 30
0.0
 10
154.1891
 20
81.6616
 30
0.0
 10
159.0118
 20
86.2119
 30
0.0
 10
159.0118
 20
86.2119
 30
0.0
 10
159.0118
 20
86.2119
 30
0.0
 10
159.0118
 20
86.2119
 30
0.0
 10
163.8264
 20
81.6684
 30
0.0
 10
163.8264
 20
81.6684
 30
0.0
 10
163.8264
 20
81.6684
 30
0.0
 10
163.8264
 20
81.6684
 30
0.0
 10
163.8342
 20
81.6616
 30
0.0
 10
163.8342
 20
81.6616
 30
0.0
 10
163.8342
 20
81.6616
 30
0.0
 10
163.8342
 20
81.6616
 30
0.0
 10
163.8264
 20
81.6555
 30
0.0
 10
163.8264
 20
81.6555
 30
0.0
 10
163.8264
 20
81.6555
 30
0.0
 10
163.8264
 20
81.6555
 30
0.0
 10
159.0118
 20
77.112
 30
0.0
 10
159.0118
 20
77.112
 30
0.0
 10
159.0118
 20
77.112
 30
0.0
 10
159.0118
 20
77.112
 30
0.0
 10
154.1969
 20
81.6555
 30
0.0
 10
154.1969
 20
81.6555
 30
0.0
 10
154.1969
 20
81.6555
 30
0.0
 10
154.1969
 20
81.6555
 30
0.0
 10
154.1934
 20
81.6653
 30
0.0
 10
154.1934
 20
81.6653
 30
0.0
 10
154.1934
 20
81.6653
 30
0.0
 10
154.1934
 20
81.6653
 30
0.0
 10
154.1891
 20
81.6616
 30
0.0
 10
154.1891
 20
81.6616
 30
0.0
  0
SPLINE
  5
E8
330
1F
100
AcDbEntity
  8
layer 1
 62
     7
100
AcDbSpline
210
0.0
220
0.0
230
1.0
 70
    11
 71
     3
 72
    20
 73
    16
 74
     0
 42
0.0000000001
 43
0.0000000001
 12
1.0
 22
0.0
 32
0.0
 13
1.0
 23
0.0
 33
0.0
 40
0.0
 40
0.0
 40
0.0
 40
0.0
 40
0.2
 40
0.2
 40
0.2
 40
0.2
 40
0.4
 40
0.4
 40
0.4
 40
0.4
 40
0.6
 40
0.6
 40
0.6
 40
0.6
 40
1.0
 40
1.0
 40
1.0
 40
1.0
 10
152.0615
 20
83.9713
 30
0.0
 10
152.0615
 20
83.9713
 30
0.0
 10
147.2476
 20
88.5148
 30
0.0
 10
147.2476
 20
88.5148
 30
0.0
 10
147.2476
 20
88.5148
 30
0.0
 10
147.2476
 20
88.5148
 30
0.0
 10
152.0615
 20
93.0576
 30
0.0
 10
152.0615
 20
93.0576
 30
0.0
 10
152.0615
 20
93.0576
 30
0.0
 10
152.0615
 20
93.0576
 30
0.0
 10
156.8755
 20
88.5148
 30
0.0
 10
156.8755
 20
88.5148
 30
0.0
 10
156.8755
 20
88.5148
 30
0.0
 10
156.8755
 20
88.5148
 30
0.0
 10
152.0615
 20
83.9713
 30
0.0
 10
152.0615
 20
83.9713
 30
0.0
  0
SPLINE
  5
E9
330
1F
100
AcDbEntity
  8
layer 1
 62
     7
100
AcDbSpline
210
0.0
220
0.0
230
1.0
 70
    11
 71
     3
 72
    20
 73
    16
 74
     0
 42
0.0000000001
 43
0.0000000001
 12
1.0
 22
0.0
 32
0.0
 13
1.0
 23
0.0
 33
0.0
 40
0.0
 40
0.0
 40
0.0
 40
0.0
 40
0.2
 40
0.2
 40
0.2
 40
0.2
 40
0.4
 40
0.4
 40
0.4
 40
0.4
 40
0.6
 40
0.6
 40
0.6
 40
0.6
 40
1.0
 40
1.0
 40
1.0
 40
1.0
 10
165.9622
 20
83.9713
 30
0.0
 10
165.9622
 20
83.9713
 30
0.0
 10
170.7762
 20
88.5148
 30
0.0
 10
170.7762
 20
88.5148
 30
0.0
 10
170.7762
 20
88.5148
 30
0.0
 10
170.7762
 20
88.5148
 30
0.0
 10
165.9622
 20
93.0576
 30
0.0
 10
165.9622
 20
93.0576
 30
0.0
 10
165.9622
 20
93.0576
 30
0.0
 10
165.9622
 20
93.0576
 30
0.0
 10
161.1478
 20
88.5148
 30
0.0
 10
161.1478
 20
88.5148
 30
0.0
 10
161.1478
 20
88.5148
 30
0.0
 10
161.1478
 20
88.5148
 30
0.0
 10
165.9622
 20
83.9713
 30
0.0
 10
165.9622
 20
83.9713
 30
0.0
  0
SPLINE
  5
EA
330
1F
100
AcDbEntity
  8
layer 1
 62
     7
100
AcDbSpline
210
0.0
220
0.0
230
1.0
 70
    11
 71
     3
 72
    20
 73
    16
 74
     0
 42
0.0000000001
 43
0.0000000001
 12
1.0
 22
0.0
 32
0.0
 13
1.0
 23
0.0
 33
0.0
 40
0.0
 40
0.0
 40
0.0
 40
0.0
 40
0.2
 40
0.2
 40
0.2
 40
0.2
 40
0.4
 40
0.4
 40
0.4
 40
0.4
 40
0.6
 40
0.6
 40
0.6
 40
0.6
 40
1.0
 40
1.0
 40
1.0
 40
1.0
 10
168.5842
 20
81.6616
 30
0.0
 10
168.5842
 20
81.6616
 30
0.0
 10
173.3777
 20
86.1858
 30
0.0
 10
173.3777
 20
86.1858
 30
0.0
 10
173.3777
 20
86.1858
 30
0.0
 10
173.3777
 20
86.1858
 30
0.0
 10
178.1715
 20
81.6616
 30
0.0
 10
178.1715
 20
81.6616
 30
0.0
 10
178.1715
 20
81.6616
 30
0.0
 10
178.1715
 20
81.6616
 30
0.0
 10
173.3777
 20
77.1381
 30
0.0
 10
173.3777
 20
77.1381
 30
0.0
 10
173.3777
 20
77.1381
 30
0.0
 10
173.3777
 20
77.1381
 30
0.0
 10
168.5842
 20
81.6616
 30
0.0
 10
168.5842
 20
81.6616
 30
0.0
  0
SPLINE
  5
EB
330
1F
100
AcDbEntity
  8
layer 1
 62
     7
100
AcDbSpline
210
0.0
220
0.0
230
1.0
 70
    11
 71
     3
 72
    16
 73
    12
 74
     0
 42
0.0000000001
 43
0.0000000001
 12
1.0
 22
0.0
 32
0.0
 13
1.0
 23
0.0
 33
0.0
 40
0.0
 40
0.0
 40
0.0
 40
0.0
 40
0.25
 40
0.25
 40
0.25
 40
0.25
 40
0.5
 40
0.5
 40
0.5
 40
0.5
 40
1.0
 40
1.0
 40
1.0
 40
1.0
 10
168.5726
 20
95.9182
 30
0.0
 10
168.5726
 20
95.9182
 30
0.0
 10
173.3777
 20
91.3838
 30
0.0
 10
173.3777
 20
91.3838
 30
0.0
 10
173.3777
 20
91.3838
 30
0.0
 10
173.3777
 20
91.3838
 30
0.0
 10
178.1834
 20
95.9182
 30
0.0
 10
178.1834
 20
95.9182
 30
0.0
 10
178.1834
 20
95.9182
 30
0.0
 10
178.1834
 20
95.9182
 30
0.0
 10
168.5726
 20
95.9182
 30
0.0
 10
168.5726
 20
95.9182
 30
0.0
  0
SPLINE
  5
EC
330
1F
100
AcDbEntity
  8
layer 1
 62
     7
100
AcDbSpline
210
0.0
220
0.0
230
1.0
 70
    11
 71
     3
 72
    20
 73
    16
 74
     0
 42
0.0000000001
 43
0.0000000001
 12
1.0
 22
0.0
 32
0.0
 13
1.0
 23
0.0
 33
0.0
 40
0.0
 40
0.0
 40
0.0
 40
0.0
 40
0.2
 40
0.2
 40
0.2
 40
0.2
 40
0.4
 40
0.4
 40
0.4
 40
0.4
 40
0.6
 40
0.6
 40
0.6
 40
0.6
 40
1.0
 40
1.0
 40
1.0
 40
1.0
 10
180.7938
 20
83.9713
 30
0.0
 10
180.7938
 20
83.9713
 30
0.0
 10
175.9799
 20
88.5148
 30
0.0
 10
175.9799
 20
88.5148
 30
0.0
 10
175.9799
 20
88.5148
 30
0.0
 10
175.9799
 20
88.5148
 30
0.0
 10
180.7938
 20
93.0576
 30
0.0
 10
180.7938
 20
93.0576
 30
0.0
 10
180.7938
 20
93.0576
 30
0.0
 10
180.7938
 20
93.0576
 30
0.0
 10
185.6078
 20
88.5148
 30
0.0
 10
185.6078
 20
88.5148
 30
0.0
 10
185.6078
 20
88.5148
 30
0.0
 10
185.6078
 20
88.5148
 30
0.0
 10
180.7938
 20
83.9713
 30
0.0
 10
180.7938
 20
83.9713
 30
0.0
  0
SPLINE
  5
ED
330
1F
100
AcDbEntity
  8
layer 1
 62
     7
100
AcDbSpline
210
0.0
220
0.0
230
1.0
 70
    11
 71
     3
 72
    28
 73
    24
 74
     0
 42
0.0000000001
 43
0.0000000001
 12
1.0
 22
0.0
 32
0.0
 13
1.0
 23
0.0
 33
0.0
 40
0.0
 40
0.0
 40
0.0
 40
0.0
 40
0.1428571428571428
 40
0.1428571428571428
 40
0.1428571428571428
 40
0.1428571428571428
 40
0.2857142857142857
 40
0.2857142857142857
 40
0.2857142857142857
 40
0.2857142857142857
 40
0.4285714285714285
 40
0.4285714285714285
 40
0.4285714285714285
 40
0.4285714285714285
 40
0.5714285714285714
 40
0.5714285714285714
 40
0.5714285714285714
 40
0.5714285714285714
 40
0.7142857142857143
 40
0.7142857142857143
 40
0.7142857142857143
 40
0.7142857142857143
 40
1.0
 40
1.0
 40
1.0
 40
1.0
 10
106.3616
 20
67.3812
 30
0.0
 10
106.3616
 20
67.3812
 30
0.0
 10
106.3686
 20
67.3999
 30
0.0
 10
106.3686
 20
67.3999
 30
0.0
 10
106.3686
 20
67.3999
 30
0.0
 10
106.3686
 20
67.3999
 30
0.0
 10
101.5475
 20
71.9489
 30
0.0
 10
101.5475
 20
71.9489
 30
0.0
 10
101.5475
 20
71.9489
 30
0.0
 10
101.5475
 20
71.9489
 30
0.0
 10
96.7267
 20
67.3999
 30
0.0
 10
96.7267
 20
67.3999
 30
0.0
 10
96.7267
 20
67.3999
 30
0.0
 10
96.7267
 20
67.3999
 30
0.0
 10
96.7336
 20
67.3812
 30
0.0
 10
96.7336
 20
67.3812
 30
0.0
 10
96.7336
 20
67.3812
 30
0.0
 10
96.7336
 20
67.3812
 30
0.0
 10
101.5475
 20
62.8383
 30
0.0
 10
101.5475
 20
62.8383
 30
0.0
 10
101.5475
 20
62.8383
 30
0.0
 10
101.5475
 20
62.8383
 30
0.0
 10
106.3616
 20
67.3812
 30
0.0
 10
106.3616
 20
67.3812
 30
0.0
  0
SPLINE
  5
EE
330
1F
100
AcDbEntity
  8
layer 1
 62
     7
100
AcDbSpline
210
0.0
220
0.0
230
1.0
 70
    11
 71
     3
 72
    20
 73
    16
 74
     0
 42
0.0000000001
 43
0.0000000001
 12
1.0
 22
0.0
 32
0.0
 13
1.0
 23
0.0
 33
0.0
 40
0.0
 40
0.0
 40
0.0
 40
0.0
 40
0.2
 40
0.2
 40
0.2
 40
0.2
 40
0.4
 40
0.4
 40
0.4
 40
0.4
 40
0.6
 40
0.6
 40
0.6
 40
0.6
 40
1.0
 40
1.0
 40
1.0
 40
1.0
 10
108.4977
 20
79.3519
 30
0.0
 10
108.4977
 20
79.3519
 30
0.0
 10
113.312
 20
74.8091
 30
0.0
 10
113.312
 20
74.8091
 30
0.0
 10
113.312
 20
74.8091
 30
0.0
 10
113.312
 20
74.8091
 30
0.0
 10
108.4977
 20
70.2662
 30
0.0
 10
108.4977
 20
70.2662
 30
0.0
 10
108.4977
 20
70.2662
 30
0.0
 10
108.4977
 20
70.2662
 30
0.0
 10
103.6838
 20
74.8091
 30
0.0
 10
103.6838
 20
74.8091
 30
0.0
 10
103.6838
 20
74.8091
 30
0.0
 10
103.6838
 20
74.8091
 30
0.0
 10
108.4977
 20
79.3519
 30
0.0
 10
108.4977
 20
79.3519
 30
0.0
  0
SPLINE
  5
EF
330
1F
100
AcDbEntity
  8
layer 1
 62
     7
100
AcDbSpline
210
0.0
220
0.0
230
1.0
 70
    11
 71
     3
 72
    32
 73
    28
 74
     0
 42
0.0000000001
 43
0.0000000001
 12
1.0
 22
0.0
 32
0.0
 13
1.0
 23
0.0
 33
0.0
 40
0.0
 40
0.0
 40
0.0
 40
0.0
 40
0.125
 40
0.125
 40
0.125
 40
0.125
 40
0.25
 40
0.25
 40
0.25
 40
0.25
 40
0.375
 40
0.375
 40
0.375
 40
0.375
 40
0.5
 40
0.5
 40
0.5
 40
0.5
 40
0.625
 40
0.625
 40
0.625
 40
0.625
 40
0.75
 40
0.75
 40
0.75
 40
0.75
 40
1.0
 40
1.0
 40
1.0
 40
1.0
 10
135.0939
 20
67.4059
 30
0.0
 10
135.0939
 20
67.4059
 30
0.0
 10
135.1006
 20
67.3999
 30
0.0
 10
135.1006
 20
67.3999
 30
0.0
 10
135.1006
 20
67.3999
 30
0.0
 10
135.1006
 20
67.3999
 30
0.0
 10
135.0938
 20
67.3812
 30
0.0
 10
135.0938
 20
67.3812
 30
0.0
 10
135.0938
 20
67.3812
 30
0.0
 10
135.0938
 20
67.3812
 30
0.0
 10
130.2799
 20
62.8383
 30
0.0
 10
130.2799
 20
62.8383
 30
0.0
 10
130.2799
 20
62.8383
 30
0.0
 10
130.2799
 20
62.8383
 30
0.0
 10
125.4658
 20
67.3812
 30
0.0
 10
125.4658
 20
67.3812
 30
0.0
 10
125.4658
 20
67.3812
 30
0.0
 10
125.4658
 20
67.3812
 30
0.0
 10
125.4588
 20
67.3999
 30
0.0
 10
125.4588
 20
67.3999
 30
0.0
 10
125.4588
 20
67.3999
 30
0.0
 10
125.4588
 20
67.3999
 30
0.0
 10
130.2799
 20
71.9489
 30
0.0
 10
130.2799
 20
71.9489
 30
0.0
 10
130.2799
 20
71.9489
 30
0.0
 10
130.2799
 20
71.9489
 30
0.0
 10
135.0939
 20
67.4059
 30
0.0
 10
135.0939
 20
67.4059
 30
0.0
  0
SPLINE
  5
F0
330
1F
100
AcDbEntity
  8
layer 1
 62
     7
100
AcDbSpline
210
0.0
220
0.0
230
1.0
 70
    11
 71
     3
 72
    20
 73
    16
 74
     0
 42
0.0000000001
 43
0.0000000001
 12
1.0
 22
0.0
 32
0.0
 13
1.0
 23
0.0
 33
0.0
 40
0.0
 40
0.0
 40
0.0
 40
0.0
 40
0.2
 40
0.2
 40
0.2
 40
0.2
 40
0.4
 40
0.4
 40
0.4
 40
0.4
 40
0.6
 40
0.6
 40
0.6
 40
0.6
 40
1.0
 40
1.0
 40
1.0
 40
1.0
 10
123.3295
 20
79.3519
 30
0.0
 10
123.3295
 20
79.3519
 30
0.0
 10
118.5154
 20
74.8091
 30
0.0
 10
118.5154
 20
74.8091
 30
0.0
 10
118.5154
 20
74.8091
 30
0.0
 10
118.5154
 20
74.8091
 30
0.0
 10
123.3295
 20
70.2662
 30
0.0
 10
123.3295
 20
70.2662
 30
0.0
 10
123.3295
 20
70.2662
 30
0.0
 10
123.3295
 20
70.2662
 30
0.0
 10
128.1435
 20
74.8091
 30
0.0
 10
128.1435
 20
74.8091
 30
0.0
 10
128.1435
 20
74.8091
 30
0.0
 10
128.1435
 20
74.8091
 30
0.0
 10
123.3295
 20
79.3519
 30
0.0
 10
123.3295
 20
79.3519
 30
0.0
  0
SPLINE
  5
F1
330
1F
100
AcDbEntity
  8
layer 1
 62
     7
100
AcDbSpline
210
0.0
220
0.0
230
1.0
 70
    11
 71
     3
 72
    20
 73
    16
 74
     0
 42
0.0000000001
 43
0.0000000001
 12
1.0
 22
0.0
 32
0.0
 13
1.0
 23
0.0
 33
0.0
 40
0.0
 40
0.0
 40
0.0
 40
0.0
 40
0.2
 40
0.2
 40
0.2
 40
0.2
 40
0.4
 40
0.4
 40
0.4
 40
0.4
 40
0.6
 40
0.6
 40
0.6
 40
0.6
 40
1.0
 40
1.0
 40
1.0
 40
1.0
 10
137.2299
 20
79.3519
 30
0.0
 10
137.2299
 20
79.3519
 30
0.0
 10
142.044
 20
74.8091
 30
0.0
 10
142.044
 20
74.8091
 30
0.0
 10
142.044
 20
74.8091
 30
0.0
 10
142.044
 20
74.8091
 30
0.0
 10
137.2299
 20
70.2662
 30
0.0
 10
137.2299
 20
70.2662
 30
0.0
 10
137.2299
 20
70.2662
 30
0.0
 10
137.2299
 20
70.2662
 30
0.0
 10
132.416
 20
74.8091
 30
0.0
 10
132.416
 20
74.8091
 30
0.0
 10
132.416
 20
74.8091
 30
0.0
 10
132.416
 20
74.8091
 30
0.0
 10
137.2299
 20
79.3519
 30
0.0
 10
137.2299
 20
79.3519
 30
0.0
  0
SPLINE
  5
F2
330
1F
100
AcDbEntity
  8
layer 1
 62
     7
100
AcDbSpline
210
0.0
220
0.0
230
1.0
 70
    11
 71
     3
 72
    32
 73
    28
 74
     0
 42
0.0000000001
 43
0.0000000001
 12
1.0
 22
0.0
 32
0.0
 13
1.0
 23
0.0
 33
0.0
 40
0.0
 40
0.0
 40
0.0
 40
0.0
 40
0.125
 40
0.125
 40
0.125
 40
0.125
 40
0.25
 40
0.25
 40
0.25
 40
0.25
 40
0.375
 40
0.375
 40
0.375
 40
0.375
 40
0.5
 40
0.5
 40
0.5
 40
0.5
 40
0.625
 40
0.625
 40
0.625
 40
0.625
 40
0.75
 40
0.75
 40
0.75
 40
0.75
 40
1.0
 40
1.0
 40
1.0
 40
1.0
 10
163.826
 20
67.4059
 30
0.0
 10
163.826
 20
67.4059
 30
0.0
 10
163.8326
 20
67.3999
 30
0.0
 10
163.8326
 20
67.3999
 30
0.0
 10
163.8326
 20
67.3999
 30
0.0
 10
163.8326
 20
67.3999
 30
0.0
 10
163.8258
 20
67.3812
 30
0.0
 10
163.8258
 20
67.3812
 30
0.0
 10
163.8258
 20
67.3812
 30
0.0
 10
163.8258
 20
67.3812
 30
0.0
 10
159.0119
 20
62.8383
 30
0.0
 10
159.0119
 20
62.8383
 30
0.0
 10
159.0119
 20
62.8383
 30
0.0
 10
159.0119
 20
62.8383
 30
0.0
 10
154.1979
 20
67.3812
 30
0.0
 10
154.1979
 20
67.3812
 30
0.0
 10
154.1979
 20
67.3812
 30
0.0
 10
154.1979
 20
67.3812
 30
0.0
 10
154.1912
 20
67.3999
 30
0.0
 10
154.1912
 20
67.3999
 30
0.0
 10
154.1912
 20
67.3999
 30
0.0
 10
154.1912
 20
67.3999
 30
0.0
 10
159.0119
 20
71.9489
 30
0.0
 10
159.0119
 20
71.9489
 30
0.0
 10
159.0119
 20
71.9489
 30
0.0
 10
159.0119
 20
71.9489
 30
0.0
 10
163.826
 20
67.4059
 30
0.0
 10
163.826
 20
67.4059
 30
0.0
  0
SPLINE
  5
F3
330
1F
100
AcDbEntity
  8
layer 1
 62
     7
100
AcDbSpline
210
0.0
220
0.0
230
1.0
 70
    11
 71
     3
 72
    20
 73
    16
 74
     0
 42
0.0000000001
 43
0.0000000001
 12
1.0
 22
0.0
 32
0.0
 13
1.0
 23
0.0
 33
0.0
 40
0.0
 40
0.0
 40
0.0
 40
0.0
 40
0.2
 40
0.2
 40
0.2
 40
0.2
 40
0.4
 40
0.4
 40
0.4
 40
0.4
 40
0.6
 40
0.6
 40
0.6
 40
0.6
 40
1.0
 40
1.0
 40
1.0
 40
1.0
 10
152.0615
 20
79.3519
 30
0.0
 10
152.0615
 20
79.3519
 30
0.0
 10
147.2476
 20
74.8091
 30
0.0
 10
147.2476
 20
74.8091
 30
0.0
 10
147.2476
 20
74.8091
 30
0.0
 10
147.2476
 20
74.8091
 30
0.0
 10
152.0615
 20
70.2662
 30
0.0
 10
152.0615
 20
70.2662
 30
0.0
 10
152.0615
 20
70.2662
 30
0.0
 10
152.0615
 20
70.2662
 30
0.0
 10
156.8755
 20
74.8091
 30
0.0
 10
156.8755
 20
74.8091
 30
0.0
 10
156.8755
 20
74.8091
 30
0.0
 10
156.8755
 20
74.8091
 30
0.0
 10
152.0615
 20
79.3519
 30
0.0
 10
152.0615
 20
79.3519
 30
0.0
  0
SPLINE
  5
F4
330
1F
100
AcDbEntity
  8
layer 1
 62
     7
100
AcDbSpline
210
0.0
220
0.0
230
1.0
 70
    11
 71
     3
 72
    20
 73
    16
 74
     0
 42
0.0000000001
 43
0.0000000001
 12
1.0
 22
0.0
 32
0.0
 13
1.0
 23
0.0
 33
0.0
 40
0.0
 40
0.0
 40
0.0
 40
0.0
 40
0.2
 40
0.2
 40
0.2
 40
0.2
 40
0.4
 40
0.4
 40
0.4
 40
0.4
 40
0.6
 40
0.6
 40
0.6
 40
0.6
 40
1.0
 40
1.0
 40
1.0
 40
1.0
 10
165.9622
 20
79.3519
 30
0.0
 10
165.9622
 20
79.3519
 30
0.0
 10
170.7762
 20
74.8091
 30
0.0
 10
170.7762
 20
74.8091
 30
0.0
 10
170.7762
 20
74.8091
 30
0.0
 10
170.7762
 20
74.8091
 30
0.0
 10
165.9622
 20
70.2662
 30
0.0
 10
165.9622
 20
70.2662
 30
0.0
 10
165.9622
 20
70.2662
 30
0.0
 10
165.9622
 20
70.2662
 30
0.0
 10
161.1478
 20
74.8091
 30
0.0
 10
161.1478
 20
74.8091
 30
0.0
 10
161.1478
 20
74.8091
 30
0.0
 10
161.1478
 20
74.8091
 30
0.0
 10
165.9622
 20
79.3519
 30
0.0
 10
165.9622
 20
79.3519
 30
0.0
  0
SPLINE
  5
F5
330
1F
100
AcDbEntity
  8
layer 1
 62
     7
100
AcDbSpline
210
0.0
220
0.0
230
1.0
 70
    11
 71
     3
 72
    20
 73
    16
 74
     0
 42
0.0000000001
 43
0.0000000001
 12
1.0
 22
0.0
 32
0.0
 13
1.0
 23
0.0
 33
0.0
 40
0.0
 40
0.0
 40
0.0
 40
0.0
 40
0.2
 40
0.2
 40
0.2
 40
0.2
 40
0.4
 40
0.4
 40
0.4
 40
0.4
 40
0.6
 40
0.6
 40
0.6
 40
0.6
 40
1.0
 40
1.0
 40
1.0
 40
1.0
 10
178.1834
 20
67.3816
 30
0.0
 10
178.1834
 20
67.3816
 30
0.0
 10
173.3777
 20
71.9401
 30
0.0
 10
173.3777
 20
71.9401
 30
0.0
 10
173.3777
 20
71.9401
 30
0.0
 10
173.3777
 20
71.9401
 30
0.0
 10
168.5726
 20
67.3816
 30
0.0
 10
168.5726
 20
67.3816
 30
0.0
 10
168.5726
 20
67.3816
 30
0.0
 10
168.5726
 20
67.3816
 30
0.0
 10
173.3777
 20
62.8465
 30
0.0
 10
173.3777
 20
62.8465
 30
0.0
 10
173.3777
 20
62.8465
 30
0.0
 10
173.3777
 20
62.8465
 30
0.0
 10
178.1834
 20
67.3816
 30
0.0
 10
178.1834
 20
67.3816
 30
0.0
  0
SPLINE
  5
F6
330
1F
100
AcDbEntity
  8
layer 1
 62
     7
100
AcDbSpline
210
0.0
220
0.0
230
1.0
 70
    11
 71
     3
 72
    20
 73
    16
 74
     0
 42
0.0000000001
 43
0.0000000001
 12
1.0
 22
0.0
 32
0.0
 13
1.0
 23
0.0
 33
0.0
 40
0.0
 40
0.0
 40
0.0
 40
0.0
 40
0.2
 40
0.2
 40
0.2
 40
0.2
 40
0.4
 40
0.4
 40
0.4
 40
0.4
 40
0.6
 40
0.6
 40
0.6
 40
0.6
 40
1.0
 40
1.0
 40
1.0
 40
1.0
 10
180.7938
 20
79.3519
 30
0.0
 10
180.7938
 20
79.3519
 30
0.0
 10
175.9799
 20
74.8091
 30
0.0
 10
175.9799
 20
74.8091
 30
0.0
 10
175.9799
 20
74.8091
 30
0.0
 10
175.9799
 20
74.8091
 30
0.0
 10
180.7938
 20
70.2662
 30
0.0
 10
180.7938
 20
70.2662
 30
0.0
 10
180.7938
 20
70.2662
 30
0.0
 10
180.7938
 20
70.2662
 30
0.0
 10
185.6078
 20
74.8091
 30
0.0
 10
185.6078
 20
74.8091
 30
0.0
 10
185.6078
 20
74.8091
 30
0.0
 10
185.6078
 20
74.8091
 30
0.0
 10
180.7938
 20
79.3519
 30
0.0
 10
180.7938
 20
79.3519
 30
0.0
  0
SPLINE
  5
F7
330
1F
100
AcDbEntity
  8
layer 1
 62
     7
100
AcDbSpline
210
0.0
220
0.0
230
1.0
 70
    11
 71
     3
 72
    20
 73
    16
 74
     0
 42
0.0000000001
 43
0.0000000001
 12
1.0
 22
0.0
 32
0.0
 13
1.0
 23
0.0
 33
0.0
 40
0.0
 40
0.0
 40
0.0
 40
0.0
 40
0.2
 40
0.2
 40
0.2
 40
0.2
 40
0.4
 40
0.4
 40
0.4
 40
0.4
 40
0.6
 40
0.6
 40
0.6
 40
0.6
 40
1.0
 40
1.0
 40
1.0
 40
1.0
 10
108.4977
 20
55.4347
 30
0.0
 10
108.4977
 20
55.4347
 30
0.0
 10
113.312
 20
59.9776
 30
0.0
 10
113.312
 20
59.9776
 30
0.0
 10
113.312
 20
59.9776
 30
0.0
 10
113.312
 20
59.9776
 30
0.0
 10
108.4977
 20
64.5204
 30
0.0
 10
108.4977
 20
64.5204
 30
0.0
 10
108.4977
 20
64.5204
 30
0.0
 10
108.4977
 20
64.5204
 30
0.0
 10
103.6838
 20
59.9776
 30
0.0
 10
103.6838
 20
59.9776
 30
0.0
 10
103.6838
 20
59.9776
 30
0.0
 10
103.6838
 20
59.9776
 30
0.0
 10
108.4977
 20
55.4347
 30
0.0
 10
108.4977
 20
55.4347
 30
0.0
  0
SPLINE
  5
F8
330
1F
100
AcDbEntity
  8
layer 1
 62
     7
100
AcDbSpline
210
0.0
220
0.0
230
1.0
 70
    11
 71
     3
 72
    20
 73
    16
 74
     0
 42
0.0000000001
 43
0.0000000001
 12
1.0
 22
0.0
 32
0.0
 13
1.0
 23
0.0
 33
0.0
 40
0.0
 40
0.0
 40
0.0
 40
0.0
 40
0.2
 40
0.2
 40
0.2
 40
0.2
 40
0.4
 40
0.4
 40
0.4
 40
0.4
 40
0.6
 40
0.6
 40
0.6
 40
0.6
 40
1.0
 40
1.0
 40
1.0
 40
1.0
 10
120.7192
 20
67.4051
 30
0.0
 10
120.7192
 20
67.4051
 30
0.0
 10
115.9138
 20
62.8465
 30
0.0
 10
115.9138
 20
62.8465
 30
0.0
 10
115.9138
 20
62.8465
 30
0.0
 10
115.9138
 20
62.8465
 30
0.0
 10
111.1082
 20
67.4051
 30
0.0
 10
111.1082
 20
67.4051
 30
0.0
 10
111.1082
 20
67.4051
 30
0.0
 10
111.1082
 20
67.4051
 30
0.0
 10
115.9138
 20
71.9401
 30
0.0
 10
115.9138
 20
71.9401
 30
0.0
 10
115.9138
 20
71.9401
 30
0.0
 10
115.9138
 20
71.9401
 30
0.0
 10
120.7192
 20
67.4051
 30
0.0
 10
120.7192
 20
67.4051
 30
0.0
  0
SPLINE
  5
F9
330
1F
100
AcDbEntity
  8
layer 1
 62
     7
100
AcDbSpline
210
0.0
220
0.0
230
1.0
 70
    11
 71
     3
 72
    36
 73
    32
 74
     0
 42
0.0000000001
 43
0.0000000001
 12
1.0
 22
0.0
 32
0.0
 13
1.0
 23
0.0
 33
0.0
 40
0.0
 40
0.0
 40
0.0
 40
0.0
 40
0.1111111111111111
 40
0.1111111111111111
 40
0.1111111111111111
 40
0.1111111111111111
 40
0.2222222222222222
 40
0.2222222222222222
 40
0.2222222222222222
 40
0.2222222222222222
 40
0.3333333333333333
 40
0.3333333333333333
 40
0.3333333333333333
 40
0.3333333333333333
 40
0.4444444444444444
 40
0.4444444444444444
 40
0.4444444444444444
 40
0.4444444444444444
 40
0.5555555555555556
 40
0.5555555555555556
 40
0.5555555555555556
 40
0.5555555555555556
 40
0.6666666666666666
 40
0.6666666666666666
 40
0.6666666666666666
 40
0.6666666666666666
 40
0.7777777777777778
 40
0.7777777777777778
 40
0.7777777777777778
 40
0.7777777777777778
 40
1.0
 40
1.0
 40
1.0
 40
1.0
 10
125.4651
 20
53.1182
 30
0.0
 10
125.4651
 20
53.1182
 30
0.0
 10
125.4611
 20
53.1214
 30
0.0
 10
125.4611
 20
53.1214
 30
0.0
 10
125.4611
 20
53.1214
 30
0.0
 10
125.4611
 20
53.1214
 30
0.0
 10
125.4611
 20
53.1281
 30
0.0
 10
125.4611
 20
53.1281
 30
0.0
 10
125.4611
 20
53.1281
 30
0.0
 10
125.4611
 20
53.1281
 30
0.0
 10
130.2799
 20
57.6747
 30
0.0
 10
130.2799
 20
57.6747
 30
0.0
 10
130.2799
 20
57.6747
 30
0.0
 10
130.2799
 20
57.6747
 30
0.0
 10
135.0943
 20
53.1182
 30
0.0
 10
135.0943
 20
53.1182
 30
0.0
 10
135.0943
 20
53.1182
 30
0.0
 10
135.0943
 20
53.1182
 30
0.0
 10
135.0984
 20
53.1214
 30
0.0
 10
135.0984
 20
53.1214
 30
0.0
 10
135.0984
 20
53.1214
 30
0.0
 10
135.0984
 20
53.1214
 30
0.0
 10
135.0943
 20
53.1182
 30
0.0
 10
135.0943
 20
53.1182
 30
0.0
 10
135.0943
 20
53.1182
 30
0.0
 10
135.0943
 20
53.1182
 30
0.0
 10
130.2799
 20
48.5754
 30
0.0
 10
130.2799
 20
48.5754
 30
0.0
 10
130.2799
 20
48.5754
 30
0.0
 10
130.2799
 20
48.5754
 30
0.0
 10
125.4651
 20
53.1182
 30
0.0
 10
125.4651
 20
53.1182
 30
0.0
  0
SPLINE
  5
FA
330
1F
100
AcDbEntity
  8
layer 1
 62
     7
100
AcDbSpline
210
0.0
220
0.0
230
1.0
 70
    11
 71
     3
 72
    20
 73
    16
 74
     0
 42
0.0000000001
 43
0.0000000001
 12
1.0
 22
0.0
 32
0.0
 13
1.0
 23
0.0
 33
0.0
 40
0.0
 40
0.0
 40
0.0
 40
0.0
 40
0.2
 40
0.2
 40
0.2
 40
0.2
 40
0.4
 40
0.4
 40
0.4
 40
0.4
 40
0.6
 40
0.6
 40
0.6
 40
0.6
 40
1.0
 40
1.0
 40
1.0
 40
1.0
 10
123.3295
 20
55.4347
 30
0.0
 10
123.3295
 20
55.4347
 30
0.0
 10
118.5154
 20
59.9776
 30
0.0
 10
118.5154
 20
59.9776
 30
0.0
 10
118.5154
 20
59.9776
 30
0.0
 10
118.5154
 20
59.9776
 30
0.0
 10
123.3295
 20
64.5204
 30
0.0
 10
123.3295
 20
64.5204
 30
0.0
 10
123.3295
 20
64.5204
 30
0.0
 10
123.3295
 20
64.5204
 30
0.0
 10
128.1435
 20
59.9776
 30
0.0
 10
128.1435
 20
59.9776
 30
0.0
 10
128.1435
 20
59.9776
 30
0.0
 10
128.1435
 20
59.9776
 30
0.0
 10
123.3295
 20
55.4347
 30
0.0
 10
123.3295
 20
55.4347
 30
0.0
  0
SPLINE
  5
FB
330
1F
100
AcDbEntity
  8
layer 1
 62
     7
100
AcDbSpline
210
0.0
220
0.0
230
1.0
 70
    11
 71
     3
 72
    20
 73
    16
 74
     0
 42
0.0000000001
 43
0.0000000001
 12
1.0
 22
0.0
 32
0.0
 13
1.0
 23
0.0
 33
0.0
 40
0.0
 40
0.0
 40
0.0
 40
0.0
 40
0.2
 40
0.2
 40
0.2
 40
0.2
 40
0.4
 40
0.4
 40
0.4
 40
0.4
 40
0.6
 40
0.6
 40
0.6
 40
0.6
 40
1.0
 40
1.0
 40
1.0
 40
1.0
 10
137.2299
 20
55.4347
 30
0.0
 10
137.2299
 20
55.4347
 30
0.0
 10
142.044
 20
59.9776
 30
0.0
 10
142.044
 20
59.9776
 30
0.0
 10
142.044
 20
59.9776
 30
0.0
 10
142.044
 20
59.9776
 30
0.0
 10
137.2299
 20
64.5204
 30
0.0
 10
137.2299
 20
64.5204
 30
0.0
 10
137.2299
 20
64.5204
 30
0.0
 10
137.2299
 20
64.5204
 30
0.0
 10
132.416
 20
59.9776
 30
0.0
 10
132.416
 20
59.9776
 30
0.0
 10
132.416
 20
59.9776
 30
0.0
 10
132.416
 20
59.9776
 30
0.0
 10
137.2299
 20
55.4347
 30
0.0
 10
137.2299
 20
55.4347
 30
0.0
  0
SPLINE
  5
FC
330
1F
100
AcDbEntity
  8
layer 1
 62
     7
100
AcDbSpline
210
0.0
220
0.0
230
1.0
 70
    11
 71
     3
 72
    20
 73
    16
 74
     0
 42
0.0000000001
 43
0.0000000001
 12
1.0
 22
0.0
 32
0.0
 13
1.0
 23
0.0
 33
0.0
 40
0.0
 40
0.0
 40
0.0
 40
0.0
 40
0.2
 40
0.2
 40
0.2
 40
0.2
 40
0.4
 40
0.4
 40
0.4
 40
0.4
 40
0.6
 40
0.6
 40
0.6
 40
0.6
 40
1.0
 40
1.0
 40
1.0
 40
1.0
 10
139.8398
 20
67.4051
 30
0.0
 10
139.8398
 20
67.4051
 30
0.0
 10
144.6455
 20
62.8465
 30
0.0
 10
144.6455
 20
62.8465
 30
0.0
 10
144.6455
 20
62.8465
 30
0.0
 10
144.6455
 20
62.8465
 30
0.0
 10
149.4511
 20
67.4051
 30
0.0
 10
149.4511
 20
67.4051
 30
0.0
 10
149.4511
 20
67.4051
 30
0.0
 10
149.4511
 20
67.4051
 30
0.0
 10
144.6455
 20
71.9401
 30
0.0
 10
144.6455
 20
71.9401
 30
0.0
 10
144.6455
 20
71.9401
 30
0.0
 10
144.6455
 20
71.9401
 30
0.0
 10
139.8398
 20
67.4051
 30
0.0
 10
139.8398
 20
67.4051
 30
0.0
  0
SPLINE
  5
FD
330
1F
100
AcDbEntity
  8
layer 1
 62
     7
100
AcDbSpline
210
0.0
220
0.0
230
1.0
 70
    11
 71
     3
 72
    20
 73
    16
 74
     0
 42
0.0000000001
 43
0.0000000001
 12
1.0
 22
0.0
 32
0.0
 13
1.0
 23
0.0
 33
0.0
 40
0.0
 40
0.0
 40
0.0
 40
0.0
 40
0.2
 40
0.2
 40
0.2
 40
0.2
 40
0.4
 40
0.4
 40
0.4
 40
0.4
 40
0.6
 40
0.6
 40
0.6
 40
0.6
 40
1.0
 40
1.0
 40
1.0
 40
1.0
 10
152.0615
 20
55.4347
 30
0.0
 10
152.0615
 20
55.4347
 30
0.0
 10
147.2476
 20
59.9776
 30
0.0
 10
147.2476
 20
59.9776
 30
0.0
 10
147.2476
 20
59.9776
 30
0.0
 10
147.2476
 20
59.9776
 30
0.0
 10
152.0615
 20
64.5204
 30
0.0
 10
152.0615
 20
64.5204
 30
0.0
 10
152.0615
 20
64.5204
 30
0.0
 10
152.0615
 20
64.5204
 30
0.0
 10
156.8755
 20
59.9776
 30
0.0
 10
156.8755
 20
59.9776
 30
0.0
 10
156.8755
 20
59.9776
 30
0.0
 10
156.8755
 20
59.9776
 30
0.0
 10
152.0615
 20
55.4347
 30
0.0
 10
152.0615
 20
55.4347
 30
0.0
  0
SPLINE
  5
FE
330
1F
100
AcDbEntity
  8
layer 1
 62
     7
100
AcDbSpline
210
0.0
220
0.0
230
1.0
 70
    11
 71
     3
 72
    20
 73
    16
 74
     0
 42
0.0000000001
 43
0.0000000001
 12
1.0
 22
0.0
 32
0.0
 13
1.0
 23
0.0
 33
0.0
 40
0.0
 40
0.0
 40
0.0
 40
0.0
 40
0.2
 40
0.2
 40
0.2
 40
0.2
 40
0.4
 40
0.4
 40
0.4
 40
0.4
 40
0.6
 40
0.6
 40
0.6
 40
0.6
 40
1.0
 40
1.0
 40
1.0
 40
1.0
 10
165.9622
 20
55.4347
 30
0.0
 10
165.9622
 20
55.4347
 30
0.0
 10
170.7762
 20
59.9776
 30
0.0
 10
170.7762
 20
59.9776
 30
0.0
 10
170.7762
 20
59.9776
 30
0.0
 10
170.7762
 20
59.9776
 30
0.0
 10
165.9622
 20
64.5204
 30
0.0
 10
165.9622
 20
64.5204
 30
0.0
 10
165.9622
 20
64.5204
 30
0.0
 10
165.9622
 20
64.5204
 30
0.0
 10
161.1478
 20
59.9776
 30
0.0
 10
161.1478
 20
59.9776
 30
0.0
 10
161.1478
 20
59.9776
 30
0.0
 10
161.1478
 20
59.9776
 30
0.0
 10
165.9622
 20
55.4347
 30
0.0
 10
165.9622
 20
55.4347
 30
0.0
  0
SPLINE
  5
FF
330
1F
100
AcDbEntity
  8
layer 1
 62
     7
100
AcDbSpline
210
0.0
220
0.0
230
1.0
 70
    11
 71
     3
 72
    20
 73
    16
 74
     0
 42
0.0000000001
 43
0.0000000001
 12
1.0
 22
0.0
 32
0.0
 13
1.0
 23
0.0
 33
0.0
 40
0.0
 40
0.0
 40
0.0
 40
0.0
 40
0.2
 40
0.2
 40
0.2
 40
0.2
 40
0.4
 40
0.4
 40
0.4
 40
0.4
 40
0.6
 40
0.6
 40
0.6
 40
0.6
 40
1.0
 40
1.0
 40
1.0
 40
1.0
 10
180.7938
 20
55.4347
 30
0.0
 10
180.7938
 20
55.4347
 30
0.0
 10
175.9799
 20
59.9776
 30
0.0
 10
175.9799
 20
59.9776
 30
0.0
 10
175.9799
 20
59.9776
 30
0.0
 10
175.9799
 20
59.9776
 30
0.0
 10
180.7938
 20
64.5204
 30
0.0
 10
180.7938
 20
64.5204
 30
0.0
 10
180.7938
 20
64.5204
 30
0.0
 10
180.7938
 20
64.5204
 30
0.0
 10
185.6078
 20
59.9776
 30
0.0
 10
185.6078
 20
59.9776
 30
0.0
 10
185.6078
 20
59.9776
 30
0.0
 10
185.6078
 20
59.9776
 30
0.0
 10
180.7938
 20
55.4347
 30
0.0
 10
180.7938
 20
55.4347
 30
0.0
  0
SPLINE
  5
100
330
1F
100
AcDbEntity
  8
layer 1
 62
     7
100
AcDbSpline
210
0.0
220
0.0
230
1.0
 70
    11
 71
     3
 72
    24
 73
    20
 74
     0
 42
0.0000000001
 43
0.0000000001
 12
1.0
 22
0.0
 32
0.0
 13
1.0
 23
0.0
 33
0.0
 40
0.0
 40
0.0
 40
0.0
 40
0.0
 40
0.1666666666666667
 40
0.1666666666666667
 40
0.1666666666666667
 40
0.1666666666666667
 40
0.3333333333333333
 40
0.3333333333333333
 40
0.3333333333333333
 40
0.3333333333333333
 40
0.5
 40
0.5
 40
0.5
 40
0.5
 40
0.6666666666666666
 40
0.6666666666666666
 40
0.6666666666666666
 40
0.6666666666666666
 40
1.0
 40
1.0
 40
1.0
 40
1.0
 10
184.021
 20
81.6653
 30
0.0
 10
184.021
 20
81.6653
 30
0.0
 10
188.8375
 20
77.112
 30
0.0
 10
188.8375
 20
77.112
 30
0.0
 10
188.8375
 20
77.112
 30
0.0
 10
188.8375
 20
77.112
 30
0.0
 10
188.8375
 20
86.2119
 30
0.0
 10
188.8375
 20
86.2119
 30
0.0
 10
188.8375
 20
86.2119
 30
0.0
 10
188.8375
 20
86.2119
 30
0.0
 10
184.0194
 20
81.6616
 30
0.0
 10
184.0194
 20
81.6616
 30
0.0
 10
184.0194
 20
81.6616
 30
0.0
 10
184.0194
 20
81.6616
 30
0.0
 10
184.0194
 20
81.6585
 30
0.0
 10
184.0194
 20
81.6585
 30
0.0
 10
184.0194
 20
81.6585
 30
0.0
 10
184.0194
 20
81.6585
 30
0.0
 10
184.021
 20
81.6653
 30
0.0
 10
184.021
 20
81.6653
 30
0.0
  0
SPLINE
  5
101
330
1F
100
AcDbEntity
  8
layer 1
 62
     7
100
AcDbSpline
210
0.0
220
0.0
230
1.0
 70
    11
 71
     3
 72
    20
 73
    16
 74
     0
 42
0.0000000001
 43
0.0000000001
 12
1.0
 22
0.0
 32
0.0
 13
1.0
 23
0.0
 33
0.0
 40
0.0
 40
0.0
 40
0.0
 40
0.0
 40
0.2
 40
0.2
 40
0.2
 40
0.2
 40
0.4
 40
0.4
 40
0.4
 40
0.4
 40
0.6
 40
0.6
 40
0.6
 40
0.6
 40
1.0
 40
1.0
 40
1.0
 40
1.0
 10
184.0169
 20
95.924
 30
0.0
 10
184.0169
 20
95.924
 30
0.0
 10
184.0235
 20
95.9182
 30
0.0
 10
184.0235
 20
95.9182
 30
0.0
 10
184.0235
 20
95.9182
 30
0.0
 10
184.0235
 20
95.9182
 30
0.0
 10
188.838
 20
95.9182
 30
0.0
 10
188.838
 20
95.9182
 30
0.0
 10
188.838
 20
95.9182
 30
0.0
 10
188.838
 20
95.9182
 30
0.0
 10
188.838
 20
91.3749
 30
0.0
 10
188.838
 20
91.3749
 30
0.0
 10
188.838
 20
91.3749
 30
0.0
 10
188.838
 20
91.3749
 30
0.0
 10
184.0169
 20
95.924
 30
0.0
 10
184.0169
 20
95.924
 30
0.0
  0
SPLINE
  5
102
330
1F
100
AcDbEntity
  8
layer 1
 62
     7
100
AcDbSpline
210
0.0
220
0.0
230
1.0
 70
    11
 71
     3
 72
    24
 73
    20
 74
     0
 42
0.0000000001
 43
0.0000000001
 12
1.0
 22
0.0
 32
0.0
 13
1.0
 23
0.0
 33
0.0
 40
0.0
 40
0.0
 40
0.0
 40
0.0
 40
0.1666666666666667
 40
0.1666666666666667
 40
0.1666666666666667
 40
0.1666666666666667
 40
0.3333333333333333
 40
0.3333333333333333
 40
0.3333333333333333
 40
0.3333333333333333
 40
0.5
 40
0.5
 40
0.5
 40
0.5
 40
0.6666666666666666
 40
0.6666666666666666
 40
0.6666666666666666
 40
0.6666666666666666
 40
1.0
 40
1.0
 40
1.0
 40
1.0
 10
184.0169
 20
67.3905
 30
0.0
 10
184.0169
 20
67.3905
 30
0.0
 10
188.838
 20
62.8383
 30
0.0
 10
188.838
 20
62.8383
 30
0.0
 10
188.838
 20
62.8383
 30
0.0
 10
188.838
 20
62.8383
 30
0.0
 10
188.838
 20
71.9489
 30
0.0
 10
188.838
 20
71.9489
 30
0.0
 10
188.838
 20
71.9489
 30
0.0
 10
188.838
 20
71.9489
 30
0.0
 10
184.0235
 20
67.3874
 30
0.0
 10
184.0235
 20
67.3874
 30
0.0
 10
184.0235
 20
67.3874
 30
0.0
 10
184.0235
 20
67.3874
 30
0.0
 10
184.0169
 20
67.3999
 30
0.0
 10
184.0169
 20
67.3999
 30
0.0
 10
184.0169
 20
67.3999
 30
0.0
 10
184.0169
 20
67.3999
 30
0.0
 10
184.0169
 20
67.3905
 30
0.0
 10
184.0169
 20
67.3905
 30
0.0
  0
SPLINE
  5
103
330
1F
100
AcDbEntity
  8
layer 1
 62
     7
100
AcDbSpline
210
0.0
220
0.0
230
1.0
 70
    11
 71
     3
 72
    20
 73
    16
 74
     0
 42
0.0000000001
 43
0.0000000001
 12
1.0
 22
0.0
 32
0.0
 13
1.0
 23
0.0
 33
0.0
 40
0.0
 40
0.0
 40
0.0
 40
0.0
 40
0.2
 40
0.2
 40
0.2
 40
0.2
 40
0.4
 40
0.4
 40
0.4
 40
0.4
 40
0.6
 40
0.6
 40
0.6
 40
0.6
 40
1.0
 40
1.0
 40
1.0
 40
1.0
 10
94.5975
 20
83.9713
 30
0.0
 10
94.5975
 20
83.9713
 30
0.0
 10
99.4114
 20
88.5148
 30
0.0
 10
99.4114
 20
88.5148
 30
0.0
 10
99.4114
 20
88.5148
 30
0.0
 10
99.4114
 20
88.5148
 30
0.0
 10
94.5975
 20
93.0576
 30
0.0
 10
94.5975
 20
93.0576
 30
0.0
 10
94.5975
 20
93.0576
 30
0.0
 10
94.5975
 20
93.0576
 30
0.0
 10
89.7834
 20
88.5148
 30
0.0
 10
89.7834
 20
88.5148
 30
0.0
 10
89.7834
 20
88.5148
 30
0.0
 10
89.7834
 20
88.5148
 30
0.0
 10
94.5975
 20
83.9713
 30
0.0
 10
94.5975
 20
83.9713
 30
0.0
  0
SPLINE
  5
104
330
1F
100
AcDbEntity
  8
layer 1
 62
     7
100
AcDbSpline
210
0.0
220
0.0
230
1.0
 70
    11
 71
     3
 72
    16
 73
    12
 74
     0
 42
0.0000000001
 43
0.0000000001
 12
1.0
 22
0.0
 32
0.0
 13
1.0
 23
0.0
 33
0.0
 40
0.0
 40
0.0
 40
0.0
 40
0.0
 40
0.25
 40
0.25
 40
0.25
 40
0.25
 40
0.5
 40
0.5
 40
0.5
 40
0.5
 40
1.0
 40
1.0
 40
1.0
 40
1.0
 10
91.9754
 20
81.6616
 30
0.0
 10
91.9754
 20
81.6616
 30
0.0
 10
87.1815
 20
77.1381
 30
0.0
 10
87.1815
 20
77.1381
 30
0.0
 10
87.1815
 20
77.1381
 30
0.0
 10
87.1815
 20
77.1381
 30
0.0
 10
87.1815
 20
86.1858
 30
0.0
 10
87.1815
 20
86.1858
 30
0.0
 10
87.1815
 20
86.1858
 30
0.0
 10
87.1815
 20
86.1858
 30
0.0
 10
91.9754
 20
81.6616
 30
0.0
 10
91.9754
 20
81.6616
 30
0.0
  0
SPLINE
  5
105
330
1F
100
AcDbEntity
  8
layer 1
 62
     7
100
AcDbSpline
210
0.0
220
0.0
230
1.0
 70
    11
 71
     3
 72
    16
 73
    12
 74
     0
 42
0.0000000001
 43
0.0000000001
 12
1.0
 22
0.0
 32
0.0
 13
1.0
 23
0.0
 33
0.0
 40
0.0
 40
0.0
 40
0.0
 40
0.0
 40
0.25
 40
0.25
 40
0.25
 40
0.25
 40
0.5
 40
0.5
 40
0.5
 40
0.5
 40
1.0
 40
1.0
 40
1.0
 40
1.0
 10
91.9872
 20
95.9182
 30
0.0
 10
91.9872
 20
95.9182
 30
0.0
 10
87.1815
 20
95.9182
 30
0.0
 10
87.1815
 20
95.9182
 30
0.0
 10
87.1815
 20
95.9182
 30
0.0
 10
87.1815
 20
95.9182
 30
0.0
 10
87.1815
 20
91.3838
 30
0.0
 10
87.1815
 20
91.3838
 30
0.0
 10
87.1815
 20
91.3838
 30
0.0
 10
87.1815
 20
91.3838
 30
0.0
 10
91.9872
 20
95.9182
 30
0.0
 10
91.9872
 20
95.9182
 30
0.0
  0
SPLINE
  5
106
330
1F
100
AcDbEntity
  8
layer 1
 62
     7
100
AcDbSpline
210
0.0
220
0.0
230
1.0
 70
    11
 71
     3
 72
    20
 73
    16
 74
     0
 42
0.0000000001
 43
0.0000000001
 12
1.0
 22
0.0
 32
0.0
 13
1.0
 23
0.0
 33
0.0
 40
0.0
 40
0.0
 40
0.0
 40
0.0
 40
0.2
 40
0.2
 40
0.2
 40
0.2
 40
0.4
 40
0.4
 40
0.4
 40
0.4
 40
0.6
 40
0.6
 40
0.6
 40
0.6
 40
1.0
 40
1.0
 40
1.0
 40
1.0
 10
94.5975
 20
79.3519
 30
0.0
 10
94.5975
 20
79.3519
 30
0.0
 10
99.4114
 20
74.8091
 30
0.0
 10
99.4114
 20
74.8091
 30
0.0
 10
99.4114
 20
74.8091
 30
0.0
 10
99.4114
 20
74.8091
 30
0.0
 10
94.5975
 20
70.2662
 30
0.0
 10
94.5975
 20
70.2662
 30
0.0
 10
94.5975
 20
70.2662
 30
0.0
 10
94.5975
 20
70.2662
 30
0.0
 10
89.7834
 20
74.8091
 30
0.0
 10
89.7834
 20
74.8091
 30
0.0
 10
89.7834
 20
74.8091
 30
0.0
 10
89.7834
 20
74.8091
 30
0.0
 10
94.5975
 20
79.3519
 30
0.0
 10
94.5975
 20
79.3519
 30
0.0
  0
SPLINE
  5
107
330
1F
100
AcDbEntity
  8
layer 1
 62
     7
100
AcDbSpline
210
0.0
220
0.0
230
1.0
 70
    11
 71
     3
 72
    16
 73
    12
 74
     0
 42
0.0000000001
 43
0.0000000001
 12
1.0
 22
0.0
 32
0.0
 13
1.0
 23
0.0
 33
0.0
 40
0.0
 40
0.0
 40
0.0
 40
0.0
 40
0.25
 40
0.25
 40
0.25
 40
0.25
 40
0.5
 40
0.5
 40
0.5
 40
0.5
 40
1.0
 40
1.0
 40
1.0
 40
1.0
 10
91.9872
 20
67.3937
 30
0.0
 10
91.9872
 20
67.3937
 30
0.0
 10
87.1815
 20
62.8466
 30
0.0
 10
87.1815
 20
62.8466
 30
0.0
 10
87.1815
 20
62.8466
 30
0.0
 10
87.1815
 20
62.8466
 30
0.0
 10
87.1815
 20
71.9401
 30
0.0
 10
87.1815
 20
71.9401
 30
0.0
 10
87.1815
 20
71.9401
 30
0.0
 10
87.1815
 20
71.9401
 30
0.0
 10
91.9872
 20
67.3937
 30
0.0
 10
91.9872
 20
67.3937
 30
0.0
  0
SPLINE
  5
108
330
1F
100
AcDbEntity
  8
layer 1
 62
     7
100
AcDbSpline
210
0.0
220
0.0
230
1.0
 70
    11
 71
     3
 72
    20
 73
    16
 74
     0
 42
0.0000000001
 43
0.0000000001
 12
1.0
 22
0.0
 32
0.0
 13
1.0
 23
0.0
 33
0.0
 40
0.0
 40
0.0
 40
0.0
 40
0.0
 40
0.2
 40
0.2
 40
0.2
 40
0.2
 40
0.4
 40
0.4
 40
0.4
 40
0.4
 40
0.6
 40
0.6
 40
0.6
 40
0.6
 40
1.0
 40
1.0
 40
1.0
 40
1.0
 10
94.5975
 20
55.4347
 30
0.0
 10
94.5975
 20
55.4347
 30
0.0
 10
89.7834
 20
59.9776
 30
0.0
 10
89.7834
 20
59.9776
 30
0.0
 10
89.7834
 20
59.9776
 30
0.0
 10
89.7834
 20
59.9776
 30
0.0
 10
94.5975
 20
64.5204
 30
0.0
 10
94.5975
 20
64.5204
 30
0.0
 10
94.5975
 20
64.5204
 30
0.0
 10
94.5975
 20
64.5204
 30
0.0
 10
99.4114
 20
59.9776
 30
0.0
 10
99.4114
 20
59.9776
 30
0.0
 10
99.4114
 20
59.9776
 30
0.0
 10
99.4114
 20
59.9776
 30
0.0
 10
94.5975
 20
55.4347
 30
0.0
 10
94.5975
 20
55.4347
 30
0.0
  0
SPLINE
  5
109
330
1F
100
AcDbEntity
  8
layer 1
 62
     7
100
AcDbSpline
210
0.0
220
0.0
230
1.0
 70
    11
 71
     3
 72
    16
 73
    12
 74
     0
 42
0.0000000001
 43
0.0000000001
 12
1.0
 22
0.0
 32
0.0
 13
1.0
 23
0.0
 33
0.0
 40
0.0
 40
0.0
 40
0.0
 40
0.0
 40
0.25
 40
0.25
 40
0.25
 40
0.25
 40
0.5
 40
0.5
 40
0.5
 40
0.5
 40
1.0
 40
1.0
 40
1.0
 40
1.0
 10
125.4658
 20
95.9178
 30
0.0
 10
125.4658
 20
95.9178
 30
0.0
 10
135.0938
 20
95.9178
 30
0.0
 10
135.0938
 20
95.9178
 30
0.0
 10
135.0938
 20
95.9178
 30
0.0
 10
135.0938
 20
95.9178
 30
0.0
 10
130.2799
 20
91.3749
 30
0.0
 10
130.2799
 20
91.3749
 30
0.0
 10
130.2799
 20
91.3749
 30
0.0
 10
130.2799
 20
91.3749
 30
0.0
 10
125.4658
 20
95.9178
 30
0.0
 10
125.4658
 20
95.9178
 30
0.0
  0
SPLINE
  5
10A
330
1F
100
AcDbEntity
  8
layer 1
 62
     7
100
AcDbSpline
210
0.0
220
0.0
230
1.0
 70
    11
 71
     3
 72
    16
 73
    12
 74
     0
 42
0.0000000001
 43
0.0000000001
 12
1.0
 22
0.0
 32
0.0
 13
1.0
 23
0.0
 33
0.0
 40
0.0
 40
0.0
 40
0.0
 40
0.0
 40
0.25
 40
0.25
 40
0.25
 40
0.25
 40
0.5
 40
0.5
 40
0.5
 40
0.5
 40
1.0
 40
1.0
 40
1.0
 40
1.0
 10
163.8258
 20
95.9178
 30
0.0
 10
163.8258
 20
95.9178
 30
0.0
 10
154.1979
 20
95.9178
 30
0.0
 10
154.1979
 20
95.9178
 30
0.0
 10
154.1979
 20
95.9178
 30
0.0
 10
154.1979
 20
95.9178
 30
0.0
 10
159.0119
 20
91.3749
 30
0.0
 10
159.0119
 20
91.3749
 30
0.0
 10
159.0119
 20
91.3749
 30
0.0
 10
159.0119
 20
91.3749
 30
0.0
 10
163.8258
 20
95.9178
 30
0.0
 10
163.8258
 20
95.9178
 30
0.0
  0
SPLINE
  5
10B
330
1F
100
AcDbEntity
  8
layer 1
 62
     7
100
AcDbSpline
210
0.0
220
0.0
230
1.0
 70
    11
 71
     3
 72
    36
 73
    32
 74
     0
 42
0.0000000001
 43
0.0000000001
 12
1.0
 22
0.0
 32
0.0
 13
1.0
 23
0.0
 33
0.0
 40
0.0
 40
0.0
 40
0.0
 40
0.0
 40
0.1111111111111111
 40
0.1111111111111111
 40
0.1111111111111111
 40
0.1111111111111111
 40
0.2222222222222222
 40
0.2222222222222222
 40
0.2222222222222222
 40
0.2222222222222222
 40
0.3333333333333333
 40
0.3333333333333333
 40
0.3333333333333333
 40
0.3333333333333333
 40
0.4444444444444444
 40
0.4444444444444444
 40
0.4444444444444444
 40
0.4444444444444444
 40
0.5555555555555556
 40
0.5555555555555556
 40
0.5555555555555556
 40
0.5555555555555556
 40
0.6666666666666666
 40
0.6666666666666666
 40
0.6666666666666666
 40
0.6666666666666666
 40
0.7777777777777778
 40
0.7777777777777778
 40
0.7777777777777778
 40
0.7777777777777778
 40
1.0
 40
1.0
 40
1.0
 40
1.0
 10
106.3622
 20
-32.4784
 30
0.0
 10
106.3622
 20
-32.4784
 30
0.0
 10
101.5475
 20
-27.9356
 30
0.0
 10
101.5475
 20
-27.9356
 30
0.0
 10
101.5475
 20
-27.9356
 30
0.0
 10
101.5475
 20
-27.9356
 30
0.0
 10
96.733
 20
-32.4784
 30
0.0
 10
96.733
 20
-32.4784
 30
0.0
 10
96.733
 20
-32.4784
 30
0.0
 10
96.733
 20
-32.4784
 30
0.0
 10
96.725
 20
-32.4858
 30
0.0
 10
96.725
 20
-32.4858
 30
0.0
 10
96.725
 20
-32.4858
 30
0.0
 10
96.725
 20
-32.4858
 30
0.0
 10
96.733
 20
-32.4926
 30
0.0
 10
96.733
 20
-32.4926
 30
0.0
 10
96.733
 20
-32.4926
 30
0.0
 10
96.733
 20
-32.4926
 30
0.0
 10
101.5475
 20
-37.0354
 30
0.0
 10
101.5475
 20
-37.0354
 30
0.0
 10
101.5475
 20
-37.0354
 30
0.0
 10
101.5475
 20
-37.0354
 30
0.0
 10
106.3622
 20
-32.4926
 30
0.0
 10
106.3622
 20
-32.4926
 30
0.0
 10
106.3622
 20
-32.4926
 30
0.0
 10
106.3622
 20
-32.4926
 30
0.0
 10
106.3702
 20
-32.4858
 30
0.0
 10
106.3702
 20
-32.4858
 30
0.0
 10
106.3702
 20
-32.4858
 30
0.0
 10
106.3702
 20
-32.4858
 30
0.0
 10
106.3622
 20
-32.4784
 30
0.0
 10
106.3622
 20
-32.4784
 30
0.0
  0
SPLINE
  5
10C
330
1F
100
AcDbEntity
  8
layer 1
 62
     7
100
AcDbSpline
210
0.0
220
0.0
230
1.0
 70
    11
 71
     3
 72
    24
 73
    20
 74
     0
 42
0.0000000001
 43
0.0000000001
 12
1.0
 22
0.0
 32
0.0
 13
1.0
 23
0.0
 33
0.0
 40
0.0
 40
0.0
 40
0.0
 40
0.0
 40
0.1666666666666667
 40
0.1666666666666667
 40
0.1666666666666667
 40
0.1666666666666667
 40
0.3333333333333333
 40
0.3333333333333333
 40
0.3333333333333333
 40
0.3333333333333333
 40
0.5
 40
0.5
 40
0.5
 40
0.5
 40
0.6666666666666666
 40
0.6666666666666666
 40
0.6666666666666666
 40
0.6666666666666666
 40
1.0
 40
1.0
 40
1.0
 40
1.0
 10
111.1082
 20
-18.2171
 30
0.0
 10
111.1082
 20
-18.2171
 30
0.0
 10
115.9137
 20
-13.6701
 30
0.0
 10
115.9137
 20
-13.6701
 30
0.0
 10
115.9137
 20
-13.6701
 30
0.0
 10
115.9137
 20
-13.6701
 30
0.0
 10
120.7192
 20
-18.2052
 30
0.0
 10
120.7192
 20
-18.2052
 30
0.0
 10
120.7192
 20
-18.2052
 30
0.0
 10
120.7192
 20
-18.2052
 30
0.0
 10
120.7192
 20
-18.2292
 30
0.0
 10
120.7192
 20
-18.2292
 30
0.0
 10
120.7192
 20
-18.2292
 30
0.0
 10
120.7192
 20
-18.2292
 30
0.0
 10
115.9137
 20
-22.7637
 30
0.0
 10
115.9137
 20
-22.7637
 30
0.0
 10
115.9137
 20
-22.7637
 30
0.0
 10
115.9137
 20
-22.7637
 30
0.0
 10
111.1082
 20
-18.2171
 30
0.0
 10
111.1082
 20
-18.2171
 30
0.0
  0
ENDSEC
  0
SECTION
  2
OBJECTS
  0
DICTIONARY
  5
C
330
0
100
AcDbDictionary
281
     1
  3
ACAD_GROUP
350
D
  3
ACAD_LAYOUT
350
1A
  3
ACAD_MATERIAL
350
3B
  3
ACAD_MLEADERSTYLE
350
12E
  3
ACAD_MLINESTYLE
350
17
  3
ACAD_PLOTSETTINGS
350
19
  3
ACAD_PLOTSTYLENAME
350
E
  3
ACAD_TABLESTYLE
350
12D
  3
ACAD_VISUALSTYLE
350
2A
  0
DICTIONARY
  5
D
102
{ACAD_REACTORS
330
C
102
}
330
C
100
AcDbDictionary
281
     1
  0
DICTIONARY
  5
1A
102
{ACAD_REACTORS
330
C
102
}
330
C
100
AcDbDictionary
281
     1
  3
Layout1
350
1E
  3
Layout2
350
26
  3
Model
350
22
  0
DICTIONARY
  5
3B
102
{ACAD_REACTORS
330
C
102
}
330
C
100
AcDbDictionary
281
     1
  3
ByBlock
350
3D
  3
ByLayer
350
3C
  3
Global
350
3E
  0
DICTIONARY
  5
12E
102
{ACAD_REACTORS
330
C
102
}
330
C
100
AcDbDictionary
281
     1
  0
DICTIONARY
  5
17
102
{ACAD_REACTORS
330
C
102
}
330
C
100
AcDbDictionary
281
     1
  3
Standard
350
18
  0
DICTIONARY
  5
19
102
{ACAD_REACTORS
330
C
102
}
330
C
100
AcDbDictionary
281
     1
  0
ACDBDICTIONARYWDFLT
  5
E
102
{ACAD_REACTORS
330
C
102
}
330
C
100
AcDbDictionary
281
     1
  3
Normal
350
F
100
AcDbDictionaryWithDefault
340
F
  0
DICTIONARY
  5
12D
102
{ACAD_REACTORS
330
C
102
}
330
C
100
AcDbDictionary
281
     1
  0
DICTIONARY
  5
2A
102
{ACAD_REACTORS
330
C
102
}
330
C
100
AcDbDictionary
281
     1
  3
2dWireframe
350
2F
  3
3D Hidden
350
31
  3
3dWireframe
350
30
  3
Basic
350
32
  3
Brighten
350
36
  3
ColorChange
350
3A
  3
Conceptual
350
34
  3
Dim
350
35
  3
Facepattern
350
39
  3
Flat
350
2B
  3
FlatWithEdges
350
2C
  3
Gouraud
350
2D
  3
GouraudWithEdges
350
2E
  3
Linepattern
350
38
  3
Realistic
350
33
  3
Thicken
350
37
  0
LAYOUT
  5
1E
102
{ACAD_REACTORS
330
1A
102
}
330
1A
100
AcDbPlotSettings
  1

  2
none_device
  4

  6

 40
0.0
 41
0.0
 42
0.0
 43
0.0
 44
0.0
 45
0.0
 46
0.0
 47
0.0
 48
0.0
 49
0.0
140
0.0
141
0.0
142
1.0
143
1.0
 70
   688
 72
     0
 73
     0
 74
     5
  7

 75
    16
 76
     0
 77
     2
 78
   300
147
1.0
148
0.0
149
0.0
100
AcDbLayout
  1
Layout1
 70
     1
 71
     1
 10
0.0
 20
0.0
 11
12.0
 21
9.0
 12
0.0
 22
0.0
 32
0.0
 14
1.000000000000000E+20
 24
1.000000000000000E+20
 34
1.000000000000000E+20
 15
-1.000000000000000E+20
 25
-1.000000000000000E+20
 35
-1.000000000000000E+20
146
0.0
 13
0.0
 23
0.0
 33
0.0
 16
1.0
 26
0.0
 36
0.0
 17
0.0
 27
1.0
 37
0.0
 76
     0
330
1B
  0
LAYOUT
  5
26
102
{ACAD_REACTORS
330
1A
102
}
330
1A
100
AcDbPlotSettings
  1

  2
none_device
  4

  6

 40
0.0
 41
0.0
 42
0.0
 43
0.0
 44
0.0
 45
0.0
 46
0.0
 47
0.0
 48
0.0
 49
0.0
140
0.0
141
0.0
142
1.0
143
1.0
 70
   688
 72
     0
 73
     0
 74
     5
  7

 75
    16
 76
     0
 77
     2
 78
   300
147
1.0
148
0.0
149
0.0
100
AcDbLayout
  1
Layout2
 70
     1
 71
     2
 10
0.0
 20
0.0
 11
0.0
 21
0.0
 12
0.0
 22
0.0
 32
0.0
 14
0.0
 24
0.0
 34
0.0
 15
0.0
 25
0.0
 35
0.0
146
0.0
 13
0.0
 23
0.0
 33
0.0
 16
1.0
 26
0.0
 36
0.0
 17
0.0
 27
1.0
 37
0.0
 76
     0
330
23
  0
LAYOUT
  5
22
102
{ACAD_REACTORS
330
1A
102
}
330
1A
100
AcDbPlotSettings
  1

  2
none_device
  4

  6

 40
0.0
 41
0.0
 42
0.0
 43
0.0
 44
0.0
 45
0.0
 46
0.0
 47
0.0
 48
0.0
 49
0.0
140
0.0
141
0.0
142
1.0
143
1.0
 70
  1712
 72
     0
 73
     0
 74
     0
  7

 75
     0
 76
     0
 77
     2
 78
   300
147
1.0
148
0.0
149
0.0
100
AcDbLayout
  1
Model
 70
     1
 71
     0
 10
0.0
 20
0.0
 11
12.0
 21
9.0
 12
0.0
 22
0.0
 32
0.0
 14
80.6691
 24
-96.5963
 34
0.0
 15
196.2356
 25
101.8154
 35
0.0
146
0.0
 13
0.0
 23
0.0
 33
0.0
 16
1.0
 26
0.0
 36
0.0
 17
0.0
 27
1.0
 37
0.0
 76
     0
330
1F
331
29
  0
MATERIAL
  5
3D
102
{ACAD_REACTORS
330
3B
102
}
330
3B
100
AcDbMaterial
  1
ByBlock
 72
     1
 94
      127
  0
MATERIAL
  5
3C
102
{ACAD_REACTORS
330
3B
102
}
330
3B
100
AcDbMaterial
  1
ByLayer
 72
     1
 94
      127
  0
MATERIAL
  5
3E
102
{ACAD_REACTORS
330
3B
102
}
330
3B
100
AcDbMaterial
  1
Global
 72
     1
 94
      127
  0
MLINESTYLE
  5
18
102
{ACAD_REACTORS
330
17
102
}
330
17
100
AcDbMlineStyle
  2
Standard
 70
     0
  3

 62
   256
 51
90.0
 52
90.0
 71
     2
 49
0.5
 62
   256
  6
BYLAYER
 49
-0.5
 62
   256
  6
BYLAYER
  0
ACDBPLACEHOLDER
  5
F
102
{ACAD_REACTORS
330
E
102
}
330
E
  0
VISUALSTYLE
  5
2F
102
{ACAD_REACTORS
330
2A
102
}
102
{ACAD_XDICTIONARY
360
115
102
}
330
2A
100
AcDbVisualStyle
  2
2dWireframe
 70
     4
 71
     0
 72
     2
 73
     0
 90
        0
 40
-0.6
 41
-30.0
 62
     5
 63
     7
421
 16777215
 74
     1
 91
        4
 64
     7
 65
   257
 75
     1
175
     1
 42
1.0
 92
        0
 66
   257
 43
1.0
 76
     1
 77
     6
 78
     2
 67
     7
 79
     5
170
     0
171
     0
290
     0
174
     0
 93
        1
 44
0.0
173
     0
291
     0
 45
0.0
  0
VISUALSTYLE
  5
31
102
{ACAD_REACTORS
330
2A
102
}
102
{ACAD_XDICTIONARY
360
119
102
}
330
2A
100
AcDbVisualStyle
  2
3D Hidden
 70
     6
 71
     1
 72
     2
 73
     2
 90
        0
 40
-0.6
 41
-30.0
 62
     5
 63
     7
421
 16777215
 74
     2
 91
        2
 64
     7
 65
   257
 75
     2
175
     1
 42
40.0
 92
        0
 66
   257
 43
1.0
 76
     1
 77
     6
 78
     2
 67
     7
 79
     3
170
     0
171
     0
290
     0
174
     0
 93
        1
 44
0.0
173
     0
291
     0
 45
0.0
  0
VISUALSTYLE
  5
30
102
{ACAD_REACTORS
330
2A
102
}
102
{ACAD_XDICTIONARY
360
117
102
}
330
2A
100
AcDbVisualStyle
  2
3dWireframe
 70
     5
 71
     0
 72
     2
 73
     0
 90
        0
 40
-0.6
 41
-30.0
 62
     5
 63
     7
421
 16777215
 74
     1
 91
        4
 64
     7
 65
   257
 75
     1
175
     1
 42
1.0
 92
        0
 66
   257
 43
1.0
 76
     1
 77
     6
 78
     2
 67
     7
 79
     5
170
     0
171
     0
290
     0
174
     0
 93
        1
 44
0.0
173
     0
291
     0
 45
0.0
  0
VISUALSTYLE
  5
32
102
{ACAD_REACTORS
330
2A
102
}
102
{ACAD_XDICTIONARY
360
11B
102
}
330
2A
100
AcDbVisualStyle
  2
Basic
 70
     7
 71
     1
 72
     0
 73
     1
 90
        0
 40
-0.6
 41
-30.0
 62
     5
 63
     7
421
 16777215
 74
     0
 91
        4
 64
     7
 65
   257
 75
     1
175
     1
 42
1.0
 92
        8
 66
     7
 43
1.0
 76
     1
 77
     6
 78
     2
 67
     7
 79
     5
170
     0
171
     0
290
     0
174
     0
 93
        1
 44
0.0
173
     0
291
     1
 45
0.0
  0
VISUALSTYLE
  5
36
102
{ACAD_REACTORS
330
2A
102
}
102
{ACAD_XDICTIONARY
360
123
102
}
330
2A
100
AcDbVisualStyle
  2
Brighten
 70
    12
 71
     2
 72
     2
 73
     0
 90
        0
 40
-0.6
 41
-30.0
 62
     5
 63
     7
421
 16777215
 74
     1
 91
        4
 64
     7
 65
   257
 75
     1
175
     1
 42
1.0
 92
        8
 66
     7
 43
1.0
 76
     1
 77
     6
 78
     2
 67
     7
 79
     5
170
     0
171
     0
290
     0
174
     0
 93
        1
 44
50.0
173
     0
291
     1
 45
0.0
  0
VISUALSTYLE
  5
3A
102
{ACAD_REACTORS
330
2A
102
}
102
{ACAD_XDICTIONARY
360
12B
102
}
330
2A
100
AcDbVisualStyle
  2
ColorChange
 70
    16
 71
     2
 72
     2
 73
     3
 90
        0
 40
-0.6
 41
-30.0
 62
     5
 63
     8
421
  8421504
 74
     1
 91
        4
 64
     7
 65
   257
 75
     1
175
     1
 42
1.0
 92
        8
 66
     8
424
  8421504
 43
1.0
 76
     1
 77
     6
 78
     2
 67
     7
 79
     5
170
     0
171
     0
290
     0
174
     0
 93
        1
 44
0.0
173
     0
291
     1
 45
0.0
  0
VISUALSTYLE
  5
34
102
{ACAD_REACTORS
330
2A
102
}
102
{ACAD_XDICTIONARY
360
11F
102
}
330
2A
100
AcDbVisualStyle
  2
Conceptual
 70
     9
 71
     3
 72
     2
 73
     0
 90
        0
 40
-0.6
 41
-30.0
 62
     5
 63
     7
421
 16777215
 74
     2
 91
        2
 64
     7
 65
   257
 75
     1
175
     1
 42
40.0
 92
        8
 66
     7
 43
1.0
 76
     1
 77
     6
 78
     2
 67
     7
 79
     3
170
     0
171
     0
290
     0
174
     0
 93
        1
 44
0.0
173
     0
291
     0
 45
0.0
  0
VISUALSTYLE
  5
35
102
{ACAD_REACTORS
330
2A
102
}
102
{ACAD_XDICTIONARY
360
121
102
}
330
2A
100
AcDbVisualStyle
  2
Dim
 70
    11
 71
     2
 72
     2
 73
     0
 90
        0
 40
-0.6
 41
-30.0
 62
     5
 63
     7
421
 16777215
 74
     1
 91
        4
 64
     7
 65
   257
 75
     1
175
     1
 42
1.0
 92
        8
 66
     7
 43
1.0
 76
     1
 77
     6
 78
     2
 67
     7
 79
     5
170
     0
171
     0
290
     0
174
     0
 93
        1
 44
-50.0
173
     0
291
     1
 45
0.0
  0
VISUALSTYLE
  5
39
102
{ACAD_REACTORS
330
2A
102
}
102
{ACAD_XDICTIONARY
360
129
102
}
330
2A
100
AcDbVisualStyle
  2
Facepattern
 70
    15
 71
     2
 72
     2
 73
     0
 90
        0
 40
-0.6
 41
-30.0
 62
     5
 63
     7
421
 16777215
 74
     1
 91
        4
 64
     7
 65
   257
 75
     1
175
     1
 42
1.0
 92
        8
 66
     7
 43
1.0
 76
     1
 77
     6
 78
     2
 67
     7
 79
     5
170
     0
171
     0
290
     0
174
     0
 93
        1
 44
0.0
173
     0
291
     1
 45
0.0
  0
VISUALSTYLE
  5
2B
102
{ACAD_REACTORS
330
2A
102
}
102
{ACAD_XDICTIONARY
360
10D
102
}
330
2A
100
AcDbVisualStyle
  2
Flat
 70
     0
 71
     2
 72
     1
 73
     1
 90
        2
 40
-0.6
 41
30.0
 62
     5
 63
     7
421
 16777215
 74
     0
 91
        4
 64
     7
 65
   257
 75
     1
175
     1
 42
1.0
 92
        8
 66
     7
 43
1.0
 76
     1
 77
     6
 78
     2
 67
     7
 79
     5
170
     0
171
     0
290
     0
174
     0
 93
       13
 44
0.0
173
     0
291
     1
 45
0.0
  0
VISUALSTYLE
  5
2C
102
{ACAD_REACTORS
330
2A
102
}
102
{ACAD_XDICTIONARY
360
10F
102
}
330
2A
100
AcDbVisualStyle
  2
FlatWithEdges
 70
     1
 71
     2
 72
     1
 73
     1
 90
        2
 40
-0.6
 41
30.0
 62
     5
 63
     7
421
 16777215
 74
     1
 91
        4
 64
     7
 65
   257
 75
     1
175
     1
 42
1.0
 92
        0
 66
   257
 43
1.0
 76
     1
 77
     6
 78
     2
 67
     7
 79
     5
170
     0
171
     0
290
     0
174
     0
 93
       13
 44
0.0
173
     0
291
     1
 45
0.0
  0
VISUALSTYLE
  5
2D
102
{ACAD_REACTORS
330
2A
102
}
102
{ACAD_XDICTIONARY
360
111
102
}
330
2A
100
AcDbVisualStyle
  2
Gouraud
 70
     2
 71
     2
 72
     2
 73
     1
 90
        2
 40
-0.6
 41
30.0
 62
     5
 63
     7
421
 16777215
 74
     0
 91
        4
 64
     7
 65
   257
 75
     1
175
     1
 42
1.0
 92
        0
 66
     7
 43
1.0
 76
     1
 77
     6
 78
     2
 67
     7
 79
     5
170
     0
171
     0
290
     0
174
     0
 93
       13
 44
0.0
173
     0
291
     1
 45
0.0
  0
VISUALSTYLE
  5
2E
102
{ACAD_REACTORS
330
2A
102
}
102
{ACAD_XDICTIONARY
360
113
102
}
330
2A
100
AcDbVisualStyle
  2
GouraudWithEdges
 70
     3
 71
     2
 72
     2
 73
     1
 90
        2
 40
-0.6
 41
30.0
 62
     5
 63
     7
421
 16777215
 74
     1
 91
        4
 64
     7
 65
   257
 75
     1
175
     1
 42
1.0
 92
        0
 66
   257
 43
1.0
 76
     1
 77
     6
 78
     2
 67
     7
 79
     5
170
     0
171
     0
290
     0
174
     0
 93
       13
 44
0.0
173
     0
291
     1
 45
0.0
  0
VISUALSTYLE
  5
38
102
{ACAD_REACTORS
330
2A
102
}
102
{ACAD_XDICTIONARY
360
127
102
}
330
2A
100
AcDbVisualStyle
  2
Linepattern
 70
    14
 71
     2
 72
     2
 73
     0
 90
        0
 40
-0.6
 41
-30.0
 62
     5
 63
     7
421
 16777215
 74
     1
 91
        4
 64
     7
 65
   257
 75
     7
175
     7
 42
1.0
 92
        8
 66
     7
 43
1.0
 76
     1
 77
     6
 78
     2
 67
     7
 79
     5
170
     0
171
     0
290
     0
174
     0
 93
        1
 44
0.0
173
     0
291
     1
 45
0.0
  0
VISUALSTYLE
  5
33
102
{ACAD_REACTORS
330
2A
102
}
102
{ACAD_XDICTIONARY
360
11D
102
}
330
2A
100
AcDbVisualStyle
  2
Realistic
 70
     8
 71
     2
 72
     2
 73
     0
 90
        0
 40
-0.6
 41
-30.0
 62
     5
 63
     7
421
 16777215
 74
     1
 91
        0
 64
     7
 65
   257
 75
     1
175
     1
 42
1.0
 92
        8
 66
     8
424
  7895160
 43
1.0
 76
     1
 77
     6
 78
     2
 67
     7
 79
     5
170
     0
171
     0
290
     0
174
     0
 93
       13
 44
0.0
173
     0
291
     0
 45
0.0
  0
VISUALSTYLE
  5
37
102
{ACAD_REACTORS
330
2A
102
}
102
{ACAD_XDICTIONARY
360
125
102
}
330
2A
100
AcDbVisualStyle
  2
Thicken
 70
    13
 71
     2
 72
     2
 73
     0
 90
        0
 40
-0.6
 41
-30.0
 62
     5
 63
     7
421
 16777215
 74
     1
 91
        4
 64
     7
 65
   257
 75
     1
175
     1
 42
1.0
 92
       12
 66
     7
 43
1.0
 76
     1
 77
     6
 78
     2
 67
     7
 79
     5
170
     0
171
     0
290
     0
174
     0
 93
        1
 44
0.0
173
     0
291
     1
 45
0.0
  0
DICTIONARY
  5
115
330
2F
100
AcDbDictionary
280
     1
281
     1
  3
ACAD_XREC_ROUNDTRIP
360
116
  0
DICTIONARY
  5
119
330
31
100
AcDbDictionary
280
     1
281
     1
  3
ACAD_XREC_ROUNDTRIP
360
11A
  0
DICTIONARY
  5
117
330
30
100
AcDbDictionary
280
     1
281
     1
  3
ACAD_XREC_ROUNDTRIP
360
118
  0
DICTIONARY
  5
11B
330
32
100
AcDbDictionary
280
     1
281
     1
  3
ACAD_XREC_ROUNDTRIP
360
11C
  0
DICTIONARY
  5
123
330
36
100
AcDbDictionary
280
     1
281
     1
  3
ACAD_XREC_ROUNDTRIP
360
124
  0
DICTIONARY
  5
12B
330
3A
100
AcDbDictionary
280
     1
281
     1
  3
ACAD_XREC_ROUNDTRIP
360
12C
  0
DICTIONARY
  5
11F
330
34
100
AcDbDictionary
280
     1
281
     1
  3
ACAD_XREC_ROUNDTRIP
360
120
  0
DICTIONARY
  5
121
330
35
100
AcDbDictionary
280
     1
281
     1
  3
ACAD_XREC_ROUNDTRIP
360
122
  0
DICTIONARY
  5
129
330
39
100
AcDbDictionary
280
     1
281
     1
  3
ACAD_XREC_ROUNDTRIP
360
12A
  0
DICTIONARY
  5
10D
330
2B
100
AcDbDictionary
280
     1
281
     1
  3
ACAD_XREC_ROUNDTRIP
360
10E
  0
DICTIONARY
  5
10F
330
2C
100
AcDbDictionary
280
     1
281
     1
  3
ACAD_XREC_ROUNDTRIP
360
110
  0
DICTIONARY
  5
111
330
2D
100
AcDbDictionary
280
     1
281
     1
  3
ACAD_XREC_ROUNDTRIP
360
112
  0
DICTIONARY
  5
113
330
2E
100
AcDbDictionary
280
     1
281
     1
  3
ACAD_XREC_ROUNDTRIP
360
114
  0
DICTIONARY
  5
127
330
38
100
AcDbDictionary
280
     1
281
     1
  3
ACAD_XREC_ROUNDTRIP
360
128
  0
DICTIONARY
  5
11D
330
33
100
AcDbDictionary
280
     1
281
     1
  3
ACAD_XREC_ROUNDTRIP
360
11E
  0
DICTIONARY
  5
125
330
37
100
AcDbDictionary
280
     1
281
     1
  3
ACAD_XREC_ROUNDTRIP
360
126
  0
XRECORD
  5
116
102
{ACAD_REACTORS
330
115
102
}
330
115
100
AcDbXrecord
280
     1
102
RTVSPropertyOp0
 70
     1
102
RTVSPropertyOp1
 70
     1
102
RTVSPropertyOp2
 70
     1
102
RTVSPropertyOp3
 70
     1
102
RTVSPropertyOp4
 70
     1
102
RTVSPropertyOp5
 70
     1
102
RTVSPropertyOp6
 70
     1
102
RTVSPropertyOp7
 70
     1
102
RTVSPropertyOp8
 70
     1
102
RTVSPropertyOp9
 70
     1
102
RTVSPropertyOp10
 70
     1
102
RTVSPropertyOp11
 70
     1
102
RTVSPropertyOp12
 70
     1
102
RTVSPropertyOp13
 70
     1
102
RTVSPropertyOp14
 70
     1
102
RTVSPropertyOp15
 70
     1
102
RTVSPropertyOp16
 70
     1
102
RTVSPropertyOp17
 70
     1
102
RTVSPropertyOp18
 70
     1
102
RTVSPropertyOp19
 70
     1
102
RTVSPropertyOp20
 70
     1
102
RTVSPropertyOp21
 70
     1
102
RTVSPropertyOp22
 70
     1
102
RTVSPropertyOp23
 70
     1
102
RTVSPropertyOp24
 70
     1
102
RTVSPropertyOp25
 70
     1
102
RTVSPropertyOp26
 70
     1
102
RTVSPropertyOp27
 70
     1
102
RTVSPropertyOp28
 70
     1
102
RTVSPropertyOp29
 70
     1
102
RTVSPropertyOp30
 70
     1
102
RTVSPropertyOp31
 70
     1
102
RTVSPropertyOp32
 70
     1
  0
XRECORD
  5
11A
102
{ACAD_REACTORS
330
119
102
}
330
119
100
AcDbXrecord
280
     1
102
RTVSPropertyOp0
 70
     1
102
RTVSPropertyOp1
 70
     1
102
RTVSPropertyOp2
 70
     1
102
RTVSPropertyOp3
 70
     1
102
RTVSPropertyOp4
 70
     1
102
RTVSPropertyOp5
 70
     1
102
RTVSPropertyOp6
 70
     1
102
RTVSPropertyOp7
 70
     1
102
RTVSPropertyOp8
 70
     1
102
RTVSPropertyOp9
 70
     1
102
RTVSPropertyOp10
 70
     1
102
RTVSPropertyOp11
 70
     1
102
RTVSPropertyOp12
 70
     1
102
RTVSPropertyOp13
 70
     1
102
RTVSPropertyOp14
 70
     1
102
RTVSPropertyOp15
 70
     1
102
RTVSPropertyOp16
 70
     1
102
RTVSPropertyOp17
 70
     1
102
RTVSPropertyOp18
 70
     1
102
RTVSPropertyOp19
 70
     1
102
RTVSPropertyOp20
 70
     1
102
RTVSPropertyOp21
 70
     1
102
RTVSPropertyOp22
 70
     1
102
RTVSPropertyOp23
 70
     1
102
RTVSPropertyOp24
 70
     1
102
RTVSPropertyOp25
 70
     1
102
RTVSPropertyOp26
 70
     1
102
RTVSPropertyOp27
 70
     1
102
RTVSPropertyOp28
 70
     1
102
RTVSPropertyOp29
 70
     1
102
RTVSPropertyOp30
 70
     1
102
RTVSPropertyOp31
 70
     1
102
RTVSPropertyOp32
 70
     1
  0
XRECORD
  5
118
102
{ACAD_REACTORS
330
117
102
}
330
117
100
AcDbXrecord
280
     1
102
RTVSPropertyOp0
 70
     1
102
RTVSPropertyOp1
 70
     1
102
RTVSPropertyOp2
 70
     1
102
RTVSPropertyOp3
 70
     1
102
RTVSPropertyOp4
 70
     1
102
RTVSPropertyOp5
 70
     1
102
RTVSPropertyOp6
 70
     1
102
RTVSPropertyOp7
 70
     1
102
RTVSPropertyOp8
 70
     1
102
RTVSPropertyOp9
 70
     1
102
RTVSPropertyOp10
 70
     1
102
RTVSPropertyOp11
 70
     1
102
RTVSPropertyOp12
 70
     1
102
RTVSPropertyOp13
 70
     1
102
RTVSPropertyOp14
 70
     1
102
RTVSPropertyOp15
 70
     1
102
RTVSPropertyOp16
 70
     1
102
RTVSPropertyOp17
 70
     1
102
RTVSPropertyOp18
 70
     1
102
RTVSPropertyOp19
 70
     1
102
RTVSPropertyOp20
 70
     1
102
RTVSPropertyOp21
 70
     1
102
RTVSPropertyOp22
 70
     1
102
RTVSPropertyOp23
 70
     1
102
RTVSPropertyOp24
 70
     1
102
RTVSPropertyOp25
 70
     1
102
RTVSPropertyOp26
 70
     1
102
RTVSPropertyOp27
 70
     1
102
RTVSPropertyOp28
 70
     1
102
RTVSPropertyOp29
 70
     1
102
RTVSPropertyOp30
 70
     1
102
RTVSPropertyOp31
 70
     1
102
RTVSPropertyOp32
 70
     1
  0
XRECORD
  5
11C
102
{ACAD_REACTORS
330
11B
102
}
330
11B
100
AcDbXrecord
280
     1
102
RTVSPropertyOp0
 70
     1
102
RTVSPropertyOp1
 70
     1
102
RTVSPropertyOp2
 70
     1
102
RTVSPropertyOp3
 70
     1
102
RTVSPropertyOp4
 70
     1
102
RTVSPropertyOp5
 70
     1
102
RTVSPropertyOp6
 70
     1
102
RTVSPropertyOp7
 70
     1
102
RTVSPropertyOp8
 70
     1
102
RTVSPropertyOp9
 70
     1
102
RTVSPropertyOp10
 70
     1
102
RTVSPropertyOp11
 70
     1
102
RTVSPropertyOp12
 70
     1
102
RTVSPropertyOp13
 70
     1
102
RTVSPropertyOp14
 70
     1
102
RTVSPropertyOp15
 70
     1
102
RTVSPropertyOp16
 70
     1
102
RTVSPropertyOp17
 70
     1
102
RTVSPropertyOp18
 70
     1
102
RTVSPropertyOp19
 70
     1
102
RTVSPropertyOp20
 70
     1
102
RTVSPropertyOp21
 70
     1
102
RTVSPropertyOp22
 70
     1
102
RTVSPropertyOp23
 70
     1
102
RTVSPropertyOp24
 70
     1
102
RTVSPropertyOp25
 70
     1
102
RTVSPropertyOp26
 70
     1
102
RTVSPropertyOp27
 70
     1
102
RTVSPropertyOp28
 70
     1
102
RTVSPropertyOp29
 70
     1
102
RTVSPropertyOp30
 70
     1
102
RTVSPropertyOp31
 70
     1
102
RTVSPropertyOp32
 70
     1
  0
XRECORD
  5
124
102
{ACAD_REACTORS
330
123
102
}
330
123
100
AcDbXrecord
280
     1
102
RTVSPropertyOp0
 70
     1
102
RTVSPropertyOp1
 70
     1
102
RTVSPropertyOp2
 70
     1
102
RTVSPropertyOp3
 70
     1
102
RTVSPropertyOp4
 70
     1
102
RTVSPropertyOp5
 70
     1
102
RTVSPropertyOp6
 70
     1
102
RTVSPropertyOp7
 70
     1
102
RTVSPropertyOp8
 70
     1
102
RTVSPropertyOp9
 70
     1
102
RTVSPropertyOp10
 70
     1
102
RTVSPropertyOp11
 70
     1
102
RTVSPropertyOp12
 70
     1
102
RTVSPropertyOp13
 70
     1
102
RTVSPropertyOp14
 70
     1
102
RTVSPropertyOp15
 70
     1
102
RTVSPropertyOp16
 70
     1
102
RTVSPropertyOp17
 70
     1
102
RTVSPropertyOp18
 70
     1
102
RTVSPropertyOp19
 70
     1
102
RTVSPropertyOp20
 70
     1
102
RTVSPropertyOp21
 70
     1
102
RTVSPropertyOp22
 70
     1
102
RTVSPropertyOp23
 70
     1
102
RTVSPropertyOp24
 70
     1
102
RTVSPropertyOp25
 70
     1
102
RTVSPropertyOp26
 70
     1
102
RTVSPropertyOp27
 70
     1
102
RTVSPropertyOp28
 70
     1
102
RTVSPropertyOp29
 70
     1
102
RTVSPropertyOp30
 70
     1
102
RTVSPropertyOp31
 70
     1
102
RTVSPropertyOp32
 70
     1
  0
XRECORD
  5
12C
102
{ACAD_REACTORS
330
12B
102
}
330
12B
100
AcDbXrecord
280
     1
102
RTVSPropertyOp0
 70
     1
102
RTVSPropertyOp1
 70
     1
102
RTVSPropertyOp2
 70
     1
102
RTVSPropertyOp3
 70
     1
102
RTVSPropertyOp4
 70
     1
102
RTVSPropertyOp5
 70
     1
102
RTVSPropertyOp6
 70
     1
102
RTVSPropertyOp7
 70
     1
102
RTVSPropertyOp8
 70
     1
102
RTVSPropertyOp9
 70
     1
102
RTVSPropertyOp10
 70
     1
102
RTVSPropertyOp11
 70
     1
102
RTVSPropertyOp12
 70
     1
102
RTVSPropertyOp13
 70
     1
102
RTVSPropertyOp14
 70
     1
102
RTVSPropertyOp15
 70
     1
102
RTVSPropertyOp16
 70
     1
102
RTVSPropertyOp17
 70
     1
102
RTVSPropertyOp18
 70
     1
102
RTVSPropertyOp19
 70
     1
102
RTVSPropertyOp20
 70
     1
102
RTVSPropertyOp21
 70
     1
102
RTVSPropertyOp22
 70
     1
102
RTVSPropertyOp23
 70
     1
102
RTVSPropertyOp24
 70
     1
102
RTVSPropertyOp25
 70
     1
102
RTVSPropertyOp26
 70
     1
102
RTVSPropertyOp27
 70
     1
102
RTVSPropertyOp28
 70
     1
102
RTVSPropertyOp29
 70
     1
102
RTVSPropertyOp30
 70
     1
102
RTVSPropertyOp31
 70
     1
102
RTVSPropertyOp32
 70
     1
  0
XRECORD
  5
120
102
{ACAD_REACTORS
330
11F
102
}
330
11F
100
AcDbXrecord
280
     1
102
RTVSPropertyOp0
 70
     1
102
RTVSPropertyOp1
 70
     1
102
RTVSPropertyOp2
 70
     1
102
RTVSPropertyOp3
 70
     1
102
RTVSPropertyOp4
 70
     1
102
RTVSPropertyOp5
 70
     1
102
RTVSPropertyOp6
 70
     1
102
RTVSPropertyOp7
 70
     1
102
RTVSPropertyOp8
 70
     1
102
RTVSPropertyOp9
 70
     1
102
RTVSPropertyOp10
 70
     1
102
RTVSPropertyOp11
 70
     1
102
RTVSPropertyOp12
 70
     1
102
RTVSPropertyOp13
 70
     1
102
RTVSPropertyOp14
 70
     1
102
RTVSPropertyOp15
 70
     1
102
RTVSPropertyOp16
 70
     1
102
RTVSPropertyOp17
 70
     1
102
RTVSPropertyOp18
 70
     1
102
RTVSPropertyOp19
 70
     1
102
RTVSPropertyOp20
 70
     1
102
RTVSPropertyOp21
 70
     1
102
RTVSPropertyOp22
 70
     1
102
RTVSPropertyOp23
 70
     1
102
RTVSPropertyOp24
 70
     1
102
RTVSPropertyOp25
 70
     1
102
RTVSPropertyOp26
 70
     1
102
RTVSPropertyOp27
 70
     1
102
RTVSPropertyOp28
 70
     1
102
RTVSPropertyOp29
 70
     1
102
RTVSPropertyOp30
 70
     1
102
RTVSPropertyOp31
 70
     1
102
RTVSPropertyOp32
 70
     1
  0
XRECORD
  5
122
102
{ACAD_REACTORS
330
121
102
}
330
121
100
AcDbXrecord
280
     1
102
RTVSPropertyOp0
 70
     1
102
RTVSPropertyOp1
 70
     1
102
RTVSPropertyOp2
 70
     1
102
RTVSPropertyOp3
 70
     1
102
RTVSPropertyOp4
 70
     1
102
RTVSPropertyOp5
 70
     1
102
RTVSPropertyOp6
 70
     1
102
RTVSPropertyOp7
 70
     1
102
RTVSPropertyOp8
 70
     1
102
RTVSPropertyOp9
 70
     1
102
RTVSPropertyOp10
 70
     1
102
RTVSPropertyOp11
 70
     1
102
RTVSPropertyOp12
 70
     1
102
RTVSPropertyOp13
 70
     1
102
RTVSPropertyOp14
 70
     1
102
RTVSPropertyOp15
 70
     1
102
RTVSPropertyOp16
 70
     1
102
RTVSPropertyOp17
 70
     1
102
RTVSPropertyOp18
 70
     1
102
RTVSPropertyOp19
 70
     1
102
RTVSPropertyOp20
 70
     1
102
RTVSPropertyOp21
 70
     1
102
RTVSPropertyOp22
 70
     1
102
RTVSPropertyOp23
 70
     1
102
RTVSPropertyOp24
 70
     1
102
RTVSPropertyOp25
 70
     1
102
RTVSPropertyOp26
 70
     1
102
RTVSPropertyOp27
 70
     1
102
RTVSPropertyOp28
 70
     1
102
RTVSPropertyOp29
 70
     1
102
RTVSPropertyOp30
 70
     1
102
RTVSPropertyOp31
 70
     1
102
RTVSPropertyOp32
 70
     1
  0
XRECORD
  5
12A
102
{ACAD_REACTORS
330
129
102
}
330
129
100
AcDbXrecord
280
     1
102
RTVSPropertyOp0
 70
     1
102
RTVSPropertyOp1
 70
     1
102
RTVSPropertyOp2
 70
     1
102
RTVSPropertyOp3
 70
     1
102
RTVSPropertyOp4
 70
     1
102
RTVSPropertyOp5
 70
     1
102
RTVSPropertyOp6
 70
     1
102
RTVSPropertyOp7
 70
     1
102
RTVSPropertyOp8
 70
     1
102
RTVSPropertyOp9
 70
     1
102
RTVSPropertyOp10
 70
     1
102
RTVSPropertyOp11
 70
     1
102
RTVSPropertyOp12
 70
     1
102
RTVSPropertyOp13
 70
     1
102
RTVSPropertyOp14
 70
     1
102
RTVSPropertyOp15
 70
     1
102
RTVSPropertyOp16
 70
     1
102
RTVSPropertyOp17
 70
     1
102
RTVSPropertyOp18
 70
     1
102
RTVSPropertyOp19
 70
     1
102
RTVSPropertyOp20
 70
     1
102
RTVSPropertyOp21
 70
     1
102
RTVSPropertyOp22
 70
     1
102
RTVSPropertyOp23
 70
     1
102
RTVSPropertyOp24
 70
     1
102
RTVSPropertyOp25
 70
     1
102
RTVSPropertyOp26
 70
     1
102
RTVSPropertyOp27
 70
     1
102
RTVSPropertyOp28
 70
     1
102
RTVSPropertyOp29
 70
     1
102
RTVSPropertyOp30
 70
     1
102
RTVSPropertyOp31
 70
     1
102
RTVSPropertyOp32
 70
     1
  0
XRECORD
  5
10E
102
{ACAD_REACTORS
330
10D
102
}
330
10D
100
AcDbXrecord
280
     1
102
RTVSPropertyOp0
 70
     1
102
RTVSPropertyOp1
 70
     1
102
RTVSPropertyOp2
 70
     1
102
RTVSPropertyOp3
 70
     1
102
RTVSPropertyOp4
 70
     1
102
RTVSPropertyOp5
 70
     1
102
RTVSPropertyOp6
 70
     1
102
RTVSPropertyOp7
 70
     1
102
RTVSPropertyOp8
 70
     1
102
RTVSPropertyOp9
 70
     1
102
RTVSPropertyOp10
 70
     1
102
RTVSPropertyOp11
 70
     1
102
RTVSPropertyOp12
 70
     1
102
RTVSPropertyOp13
 70
     1
102
RTVSPropertyOp14
 70
     1
102
RTVSPropertyOp15
 70
     1
102
RTVSPropertyOp16
 70
     1
102
RTVSPropertyOp17
 70
     1
102
RTVSPropertyOp18
 70
     1
102
RTVSPropertyOp19
 70
     1
102
RTVSPropertyOp20
 70
     1
102
RTVSPropertyOp21
 70
     1
102
RTVSPropertyOp22
 70
     1
102
RTVSPropertyOp23
 70
     1
102
RTVSPropertyOp24
 70
     1
102
RTVSPropertyOp25
 70
     1
102
RTVSPropertyOp26
 70
     1
102
RTVSPropertyOp27
 70
     1
102
RTVSPropertyOp28
 70
     1
102
RTVSPropertyOp29
 70
     1
102
RTVSPropertyOp30
 70
     1
102
RTVSPropertyOp31
 70
     1
102
RTVSPropertyOp32
 70
     1
  0
XRECORD
  5
110
102
{ACAD_REACTORS
330
10F
102
}
330
10F
100
AcDbXrecord
280
     1
102
RTVSPropertyOp0
 70
     1
102
RTVSPropertyOp1
 70
     1
102
RTVSPropertyOp2
 70
     1
102
RTVSPropertyOp3
 70
     1
102
RTVSPropertyOp4
 70
     1
102
RTVSPropertyOp5
 70
     1
102
RTVSPropertyOp6
 70
     1
102
RTVSPropertyOp7
 70
     1
102
RTVSPropertyOp8
 70
     1
102
RTVSPropertyOp9
 70
     1
102
RTVSPropertyOp10
 70
     1
102
RTVSPropertyOp11
 70
     1
102
RTVSPropertyOp12
 70
     1
102
RTVSPropertyOp13
 70
     1
102
RTVSPropertyOp14
 70
     1
102
RTVSPropertyOp15
 70
     1
102
RTVSPropertyOp16
 70
     1
102
RTVSPropertyOp17
 70
     1
102
RTVSPropertyOp18
 70
     1
102
RTVSPropertyOp19
 70
     1
102
RTVSPropertyOp20
 70
     1
102
RTVSPropertyOp21
 70
     1
102
RTVSPropertyOp22
 70
     1
102
RTVSPropertyOp23
 70
     1
102
RTVSPropertyOp24
 70
     1
102
RTVSPropertyOp25
 70
     1
102
RTVSPropertyOp26
 70
     1
102
RTVSPropertyOp27
 70
     1
102
RTVSPropertyOp28
 70
     1
102
RTVSPropertyOp29
 70
     1
102
RTVSPropertyOp30
 70
     1
102
RTVSPropertyOp31
 70
     1
102
RTVSPropertyOp32
 70
     1
  0
XRECORD
  5
112
102
{ACAD_REACTORS
330
111
102
}
330
111
100
AcDbXrecord
280
     1
102
RTVSPropertyOp0
 70
     1
102
RTVSPropertyOp1
 70
     1
102
RTVSPropertyOp2
 70
     1
102
RTVSPropertyOp3
 70
     1
102
RTVSPropertyOp4
 70
     1
102
RTVSPropertyOp5
 70
     1
102
RTVSPropertyOp6
 70
     1
102
RTVSPropertyOp7
 70
     1
102
RTVSPropertyOp8
 70
     1
102
RTVSPropertyOp9
 70
     1
102
RTVSPropertyOp10
 70
     1
102
RTVSPropertyOp11
 70
     1
102
RTVSPropertyOp12
 70
     1
102
RTVSPropertyOp13
 70
     1
102
RTVSPropertyOp14
 70
     1
102
RTVSPropertyOp15
 70
     1
102
RTVSPropertyOp16
 70
     1
102
RTVSPropertyOp17
 70
     1
102
RTVSPropertyOp18
 70
     1
102
RTVSPropertyOp19
 70
     1
102
RTVSPropertyOp20
 70
     1
102
RTVSPropertyOp21
 70
     1
102
RTVSPropertyOp22
 70
     1
102
RTVSPropertyOp23
 70
     1
102
RTVSPropertyOp24
 70
     1
102
RTVSPropertyOp25
 70
     1
102
RTVSPropertyOp26
 70
     1
102
RTVSPropertyOp27
 70
     1
102
RTVSPropertyOp28
 70
     1
102
RTVSPropertyOp29
 70
     1
102
RTVSPropertyOp30
 70
     1
102
RTVSPropertyOp31
 70
     1
102
RTVSPropertyOp32
 70
     1
  0
XRECORD
  5
114
102
{ACAD_REACTORS
330
113
102
}
330
113
100
AcDbXrecord
280
     1
102
RTVSPropertyOp0
 70
     1
102
RTVSPropertyOp1
 70
     1
102
RTVSPropertyOp2
 70
     1
102
RTVSPropertyOp3
 70
     1
102
RTVSPropertyOp4
 70
     1
102
RTVSPropertyOp5
 70
     1
102
RTVSPropertyOp6
 70
     1
102
RTVSPropertyOp7
 70
     1
102
RTVSPropertyOp8
 70
     1
102
RTVSPropertyOp9
 70
     1
102
RTVSPropertyOp10
 70
     1
102
RTVSPropertyOp11
 70
     1
102
RTVSPropertyOp12
 70
     1
102
RTVSPropertyOp13
 70
     1
102
RTVSPropertyOp14
 70
     1
102
RTVSPropertyOp15
 70
     1
102
RTVSPropertyOp16
 70
     1
102
RTVSPropertyOp17
 70
     1
102
RTVSPropertyOp18
 70
     1
102
RTVSPropertyOp19
 70
     1
102
RTVSPropertyOp20
 70
     1
102
RTVSPropertyOp21
 70
     1
102
RTVSPropertyOp22
 70
     1
102
RTVSPropertyOp23
 70
     1
102
RTVSPropertyOp24
 70
     1
102
RTVSPropertyOp25
 70
     1
102
RTVSPropertyOp26
 70
     1
102
RTVSPropertyOp27
 70
     1
102
RTVSPropertyOp28
 70
     1
102
RTVSPropertyOp29
 70
     1
102
RTVSPropertyOp30
 70
     1
102
RTVSPropertyOp31
 70
     1
102
RTVSPropertyOp32
 70
     1
  0
XRECORD
  5
128
102
{ACAD_REACTORS
330
127
102
}
330
127
100
AcDbXrecord
280
     1
102
RTVSPropertyOp0
 70
     1
102
RTVSPropertyOp1
 70
     1
102
RTVSPropertyOp2
 70
     1
102
RTVSPropertyOp3
 70
     1
102
RTVSPropertyOp4
 70
     1
102
RTVSPropertyOp5
 70
     1
102
RTVSPropertyOp6
 70
     1
102
RTVSPropertyOp7
 70
     1
102
RTVSPropertyOp8
 70
     1
102
RTVSPropertyOp9
 70
     1
102
RTVSPropertyOp10
 70
     1
102
RTVSPropertyOp11
 70
     1
102
RTVSPropertyOp12
 70
     1
102
RTVSPropertyOp13
 70
     1
102
RTVSPropertyOp14
 70
     1
102
RTVSPropertyOp15
 70
     1
102
RTVSPropertyOp16
 70
     1
102
RTVSPropertyOp17
 70
     1
102
RTVSPropertyOp18
 70
     1
102
RTVSPropertyOp19
 70
     1
102
RTVSPropertyOp20
 70
     1
102
RTVSPropertyOp21
 70
     1
102
RTVSPropertyOp22
 70
     1
102
RTVSPropertyOp23
 70
     1
102
RTVSPropertyOp24
 70
     1
102
RTVSPropertyOp25
 70
     1
102
RTVSPropertyOp26
 70
     1
102
RTVSPropertyOp27
 70
     1
102
RTVSPropertyOp28
 70
     1
102
RTVSPropertyOp29
 70
     1
102
RTVSPropertyOp30
 70
     1
102
RTVSPropertyOp31
 70
     1
102
RTVSPropertyOp32
 70
     1
  0
XRECORD
  5
11E
102
{ACAD_REACTORS
330
11D
102
}
330
11D
100
AcDbXrecord
280
     1
102
RTVSPropertyOp0
 70
     1
102
RTVSPropertyOp1
 70
     1
102
RTVSPropertyOp2
 70
     1
102
RTVSPropertyOp3
 70
     1
102
RTVSPropertyOp4
 70
     1
102
RTVSPropertyOp5
 70
     1
102
RTVSPropertyOp6
 70
     1
102
RTVSPropertyOp7
 70
     1
102
RTVSPropertyOp8
 70
     1
102
RTVSPropertyOp9
 70
     1
102
RTVSPropertyOp10
 70
     1
102
RTVSPropertyOp11
 70
     1
102
RTVSPropertyOp12
 70
     1
102
RTVSPropertyOp13
 70
     1
102
RTVSPropertyOp14
 70
     1
102
RTVSPropertyOp15
 70
     1
102
RTVSPropertyOp16
 70
     1
102
RTVSPropertyOp17
 70
     1
102
RTVSPropertyOp18
 70
     1
102
RTVSPropertyOp19
 70
     1
102
RTVSPropertyOp20
 70
     1
102
RTVSPropertyOp21
 70
     1
102
RTVSPropertyOp22
 70
     1
102
RTVSPropertyOp23
 70
     1
102
RTVSPropertyOp24
 70
     1
102
RTVSPropertyOp25
 70
     1
102
RTVSPropertyOp26
 70
     1
102
RTVSPropertyOp27
 70
     1
102
RTVSPropertyOp28
 70
     1
102
RTVSPropertyOp29
 70
     1
102
RTVSPropertyOp30
 70
     1
102
RTVSPropertyOp31
 70
     1
102
RTVSPropertyOp32
 70
     1
  0
XRECORD
  5
126
102
{ACAD_REACTORS
330
125
102
}
330
125
100
AcDbXrecord
280
     1
102
RTVSPropertyOp0
 70
     1
102
RTVSPropertyOp1
 70
     1
102
RTVSPropertyOp2
 70
     1
102
RTVSPropertyOp3
 70
     1
102
RTVSPropertyOp4
 70
     1
102
RTVSPropertyOp5
 70
     1
102
RTVSPropertyOp6
 70
     1
102
RTVSPropertyOp7
 70
     1
102
RTVSPropertyOp8
 70
     1
102
RTVSPropertyOp9
 70
     1
102
RTVSPropertyOp10
 70
     1
102
RTVSPropertyOp11
 70
     1
102
RTVSPropertyOp12
 70
     1
102
RTVSPropertyOp13
 70
     1
102
RTVSPropertyOp14
 70
     1
102
RTVSPropertyOp15
 70
     1
102
RTVSPropertyOp16
 70
     1
102
RTVSPropertyOp17
 70
     1
102
RTVSPropertyOp18
 70
     1
102
RTVSPropertyOp19
 70
     1
102
RTVSPropertyOp20
 70
     1
102
RTVSPropertyOp21
 70
     1
102
RTVSPropertyOp22
 70
     1
102
RTVSPropertyOp23
 70
     1
102
RTVSPropertyOp24
 70
     1
102
RTVSPropertyOp25
 70
     1
102
RTVSPropertyOp26
 70
     1
102
RTVSPropertyOp27
 70
     1
102
RTVSPropertyOp28
 70
     1
102
RTVSPropertyOp29
 70
     1
102
RTVSPropertyOp30
 70
     1
102
RTVSPropertyOp31
 70
     1
102
RTVSPropertyOp32
 70
     1
  0
ENDSEC
  0
EOF
