  0
SECTION
  2
HEADER
  9
$ACADVER
  1
AC1021
  9
$ACADMAINTVER
 70
    25
  9
$DWGCODEPAGE
  3
ANSI_1252
  9
$INSBASE
 10
0.0
 20
0.0
 30
0.0
  9
$EXTMIN
 10
-187.2067
 20
-96.6344
 30
0.0
  9
$EXTMAX
 10
-45.0301
 20
102.1675
 30
0.0
  9
$LIMMIN
 10
0.0
 20
0.0
  9
$LIMMAX
 10
12.0
 20
9.0
  9
$ORTHOMODE
 70
     0
  9
$REGENMODE
 70
     1
  9
$FILLMODE
 70
     1
  9
$QTEXTMODE
 70
     0
  9
$MIRRTEXT
 70
     1
  9
$LTSCALE
 40
1.0
  9
$ATTMODE
 70
     1
  9
$TEXTSIZE
 40
0.2
  9
$TRACEWID
 40
0.05
  9
$TEXTSTYLE
  7
Standard
  9
$CLAYER
  8
0
  9
$CELTYPE
  6
ByLayer
  9
$CECOLOR
 62
   256
  9
$CELTSCALE
 40
1.0
  9
$DISPSILH
 70
     0
  9
$DIMSCALE
 40
1.0
  9
$DIMASZ
 40
0.18
  9
$DIMEXO
 40
0.0625
  9
$DIMDLI
 40
0.38
  9
$DIMRND
 40
0.0
  9
$DIMDLE
 40
0.0
  9
$DIMEXE
 40
0.18
  9
$DIMTP
 40
0.0
  9
$DIMTM
 40
0.0
  9
$DIMTXT
 40
0.18
  9
$DIMCEN
 40
0.09
  9
$DIMTSZ
 40
0.0
  9
$DIMTOL
 70
     0
  9
$DIMLIM
 70
     0
  9
$DIMTIH
 70
     1
  9
$DIMTOH
 70
     1
  9
$DIMSE1
 70
     0
  9
$DIMSE2
 70
     0
  9
$DIMTAD
 70
     0
  9
$DIMZIN
 70
     0
  9
$DIMBLK
  1

  9
$DIMASO
 70
     1
  9
$DIMSHO
 70
     1
  9
$DIMPOST
  1

  9
$DIMAPOST
  1

  9
$DIMALT
 70
     0
  9
$DIMALTD
 70
     2
  9
$DIMALTF
 40
25.4
  9
$DIMLFAC
 40
1.0
  9
$DIMTOFL
 70
     0
  9
$DIMTVP
 40
0.0
  9
$DIMTIX
 70
     0
  9
$DIMSOXD
 70
     0
  9
$DIMSAH
 70
     0
  9
$DIMBLK1
  1

  9
$DIMBLK2
  1

  9
$DIMSTYLE
  2
Standard
  9
$DIMCLRD
 70
     0
  9
$DIMCLRE
 70
     0
  9
$DIMCLRT
 70
     0
  9
$DIMTFAC
 40
1.0
  9
$DIMGAP
 40
0.09
  9
$DIMJUST
 70
     0
  9
$DIMSD1
 70
     0
  9
$DIMSD2
 70
     0
  9
$DIMTOLJ
 70
     1
  9
$DIMTZIN
 70
     0
  9
$DIMALTZ
 70
     0
  9
$DIMALTTZ
 70
     0
  9
$DIMUPT
 70
     0
  9
$DIMDEC
 70
     4
  9
$DIMTDEC
 70
     4
  9
$DIMALTU
 70
     2
  9
$DIMALTTD
 70
     2
  9
$DIMTXSTY
  7
Standard
  9
$DIMAUNIT
 70
     0
  9
$DIMADEC
 70
     0
  9
$DIMALTRND
 40
0.0
  9
$DIMAZIN
 70
     0
  9
$DIMDSEP
 70
    46
  9
$DIMATFIT
 70
     3
  9
$DIMFRAC
 70
     0
  9
$DIMLDRBLK
  1

  9
$DIMLUNIT
 70
     2
  9
$DIMLWD
 70
    -2
  9
$DIMLWE
 70
    -2
  9
$DIMTMOVE
 70
     0
  9
$DIMFXL
 40
1.0
  9
$DIMFXLON
 70
     0
  9
$DIMJOGANG
 40
0.7853981633974483
  9
$DIMTFILL
 70
     0
  9
$DIMTFILLCLR
 70
     0
  9
$DIMARCSYM
 70
     0
  9
$DIMLTYPE
  6

  9
$DIMLTEX1
  6

  9
$DIMLTEX2
  6

  9
$LUNITS
 70
     2
  9
$LUPREC
 70
     4
  9
$SKETCHINC
 40
0.1
  9
$FILLETRAD
 40
0.5
  9
$AUNITS
 70
     0
  9
$AUPREC
 70
     0
  9
$MENU
  1
.
  9
$ELEVATION
 40
0.0
  9
$PELEVATION
 40
0.0
  9
$THICKNESS
 40
0.0
  9
$LIMCHECK
 70
     0
  9
$CHAMFERA
 40
0.5
  9
$CHAMFERB
 40
0.5
  9
$CHAMFERC
 40
1.0
  9
$CHAMFERD
 40
0.0
  9
$SKPOLY
 70
     0
  9
$TDCREATE
 40
2458492.799991157
  9
$TDUCREATE
 40
2458492.799991157
  9
$TDUPDATE
 40
2458492.7999914
  9
$TDUUPDATE
 40
2458492.7999914
  9
$TDINDWG
 40
0.0000000116
  9
$TDUSRTIMER
 40
0.0000000116
  9
$USRTIMER
 70
     1
  9
$ANGBASE
 50
0.0
  9
$ANGDIR
 70
     0
  9
$PDMODE
 70
     0
  9
$PDSIZE
 40
0.0
  9
$PLINEWID
 40
0.0
  9
$SPLFRAME
 70
     0
  9
$SPLINETYPE
 70
     6
  9
$SPLINESEGS
 70
     8
  9
$HANDSEED
  5
F4
  9
$SURFTAB1
 70
     6
  9
$SURFTAB2
 70
     6
  9
$SURFTYPE
 70
     6
  9
$SURFU
 70
     6
  9
$SURFV
 70
     6
  9
$UCSBASE
  2

  9
$UCSNAME
  2

  9
$UCSORG
 10
0.0
 20
0.0
 30
0.0
  9
$UCSXDIR
 10
1.0
 20
0.0
 30
0.0
  9
$UCSYDIR
 10
0.0
 20
1.0
 30
0.0
  9
$UCSORTHOREF
  2

  9
$UCSORTHOVIEW
 70
     0
  9
$UCSORGTOP
 10
0.0
 20
0.0
 30
0.0
  9
$UCSORGBOTTOM
 10
0.0
 20
0.0
 30
0.0
  9
$UCSORGLEFT
 10
0.0
 20
0.0
 30
0.0
  9
$UCSORGRIGHT
 10
0.0
 20
0.0
 30
0.0
  9
$UCSORGFRONT
 10
0.0
 20
0.0
 30
0.0
  9
$UCSORGBACK
 10
0.0
 20
0.0
 30
0.0
  9
$PUCSBASE
  2

  9
$PUCSNAME
  2

  9
$PUCSORG
 10
0.0
 20
0.0
 30
0.0
  9
$PUCSXDIR
 10
1.0
 20
0.0
 30
0.0
  9
$PUCSYDIR
 10
0.0
 20
1.0
 30
0.0
  9
$PUCSORTHOREF
  2

  9
$PUCSORTHOVIEW
 70
     0
  9
$PUCSORGTOP
 10
0.0
 20
0.0
 30
0.0
  9
$PUCSORGBOTTOM
 10
0.0
 20
0.0
 30
0.0
  9
$PUCSORGLEFT
 10
0.0
 20
0.0
 30
0.0
  9
$PUCSORGRIGHT
 10
0.0
 20
0.0
 30
0.0
  9
$PUCSORGFRONT
 10
0.0
 20
0.0
 30
0.0
  9
$PUCSORGBACK
 10
0.0
 20
0.0
 30
0.0
  9
$USERI1
 70
     0
  9
$USERI2
 70
     0
  9
$USERI3
 70
     0
  9
$USERI4
 70
     0
  9
$USERI5
 70
     0
  9
$USERR1
 40
0.0
  9
$USERR2
 40
0.0
  9
$USERR3
 40
0.0
  9
$USERR4
 40
0.0
  9
$USERR5
 40
0.0
  9
$WORLDVIEW
 70
     1
  9
$SHADEDGE
 70
     3
  9
$SHADEDIF
 70
    70
  9
$TILEMODE
 70
     1
  9
$MAXACTVP
 70
    64
  9
$PINSBASE
 10
0.0
 20
0.0
 30
0.0
  9
$PLIMCHECK
 70
     0
  9
$PEXTMIN
 10
1.000000000000000E+20
 20
1.000000000000000E+20
 30
1.000000000000000E+20
  9
$PEXTMAX
 10
-1.000000000000000E+20
 20
-1.000000000000000E+20
 30
-1.000000000000000E+20
  9
$PLIMMIN
 10
0.0
 20
0.0
  9
$PLIMMAX
 10
12.0
 20
9.0
  9
$UNITMODE
 70
     0
  9
$VISRETAIN
 70
     1
  9
$PLINEGEN
 70
     0
  9
$PSLTSCALE
 70
     1
  9
$TREEDEPTH
 70
  3020
  9
$CMLSTYLE
  2
Standard
  9
$CMLJUST
 70
     0
  9
$CMLSCALE
 40
1.0
  9
$PROXYGRAPHICS
 70
     1
  9
$MEASUREMENT
 70
     0
  9
$CELWEIGHT
370
    -1
  9
$ENDCAPS
280
     0
  9
$JOINSTYLE
280
     0
  9
$LWDISPLAY
290
     0
  9
$INSUNITS
 70
     4
  9
$HYPERLINKBASE
  1

  9
$STYLESHEET
  1

  9
$XEDIT
290
     1
  9
$CEPSNTYPE
380
     0
  9
$PSTYLEMODE
290
     1
  9
$FINGERPRINTGUID
  2
{F3D7A2CE-F799-4751-ABE6-C75921261CD9}
  9
$VERSIONGUID
  2
{FAEB1C32-E019-11D5-929B-00C0DF256EC4}
  9
$EXTNAMES
290
     1
  9
$PSVPSCALE
 40
0.0
  9
$OLESTARTUP
290
     0
  9
$SORTENTS
280
   127
  9
$INDEXCTL
280
     0
  9
$HIDETEXT
280
     1
  9
$XCLIPFRAME
290
     0
  9
$HALOGAP
280
     0
  9
$OBSCOLOR
 70
   257
  9
$OBSLTYPE
280
     0
  9
$INTERSECTIONDISPLAY
280
     0
  9
$INTERSECTIONCOLOR
 70
   257
  9
$DIMASSOC
280
     2
  9
$PROJECTNAME
  1

  9
$CAMERADISPLAY
290
     0
  9
$LENSLENGTH
 40
50.0
  9
$CAMERAHEIGHT
 40
0.0
  9
$STEPSPERSEC
 40
2.0
  9
$STEPSIZE
 40
6.0
  9
$3DDWFPREC
 40
2.0
  9
$PSOLWIDTH
 40
0.25
  9
$PSOLHEIGHT
 40
4.0
  9
$LOFTANG1
 40
1.570796326794897
  9
$LOFTANG2
 40
1.570796326794897
  9
$LOFTMAG1
 40
0.0
  9
$LOFTMAG2
 40
0.0
  9
$LOFTPARAM
 70
     7
  9
$LOFTNORMALS
280
     1
  9
$LATITUDE
 40
37.795
  9
$LONGITUDE
 40
-122.394
  9
$NORTHDIRECTION
 40
0.0
  9
$TIMEZONE
 70
 -8000
  9
$LIGHTGLYPHDISPLAY
280
     1
  9
$TILEMODELIGHTSYNCH
280
     1
  9
$SOLIDHIST
280
     1
  9
$SHOWHIST
280
     1
  9
$DWFFRAME
280
     2
  9
$DGNFRAME
280
     2
  9
$REALWORLDSCALE
290
     1
  9
$INTERFERECOLOR
 62
   256
  9
$CSHADOW
280
     0
  9
$SHADOWPLANELOCATION
 40
0.0
  0
ENDSEC
  0
SECTION
  2
CLASSES
  0
CLASS
  1
ACDBDICTIONARYWDFLT
  2
AcDbDictionaryWithDefault
  3
ObjectDBX Classes
 90
        0
 91
        4
280
     0
281
     0
  0
CLASS
  1
VISUALSTYLE
  2
AcDbVisualStyle
  3
ObjectDBX Classes
 90
     4095
 91
        4
280
     0
281
     0
  0
CLASS
  1
MATERIAL
  2
AcDbMaterial
  3
ObjectDBX Classes
 90
     1153
 91
        4
280
     0
281
     0
  0
ENDSEC
  0
SECTION
  2
TABLES
  0
TABLE
  2
VPORT
  5
8
330
0
100
AcDbSymbolTable
 70
     1
  0
VPORT
  5
29
330
8
100
AcDbSymbolTableRecord
100
AcDbViewportTableRecord
  2
*Active
 70
     0
 10
0.0
 20
0.0
 11
1.0
 21
1.0
 12
10.42990654205607
 22
4.5
 13
0.0
 23
0.0
 14
0.5
 24
0.5
 15
0.5
 25
0.5
 16
0.0
 26
0.0
 36
1.0
 17
0.0
 27
0.0
 37
0.0
 40
9.0
 41
1.972972972850329
 42
50.0
 43
0.0
 44
0.0
 50
0.0
 51
0.0
 71
     0
 72
   100
 73
     1
 74
     3
 75
     0
 76
     0
 77
     0
 78
     0
281
     0
 65
     1
110
0.0
120
0.0
130
0.0
111
1.0
121
0.0
131
0.0
112
0.0
122
1.0
132
0.0
 79
     0
146
0.0
 60
     3
 61
     5
292
     1
282
     1
141
0.0
142
0.0
 63
   250
  0
ENDTAB
  0
TABLE
  2
LTYPE
  5
5
330
0
100
AcDbSymbolTable
 70
     1
  0
LTYPE
  5
14
330
5
100
AcDbSymbolTableRecord
100
AcDbLinetypeTableRecord
  2
ByBlock
 70
     0
  3

 72
    65
 73
     0
 40
0.0
  0
LTYPE
  5
15
330
5
100
AcDbSymbolTableRecord
100
AcDbLinetypeTableRecord
  2
ByLayer
 70
     0
  3

 72
    65
 73
     0
 40
0.0
  0
LTYPE
  5
16
330
5
100
AcDbSymbolTableRecord
100
AcDbLinetypeTableRecord
  2
Continuous
 70
     0
  3
Solid line
 72
    65
 73
     0
 40
0.0
  0
ENDTAB
  0
TABLE
  2
LAYER
  5
2
330
0
100
AcDbSymbolTable
 70
     2
  0
LAYER
  5
10
330
2
100
AcDbSymbolTableRecord
100
AcDbLayerTableRecord
  2
0
 70
     0
 62
     7
  6
Continuous
370
    -3
390
F
347
3E
  0
LAYER
  5
40
330
2
100
AcDbSymbolTableRecord
100
AcDbLayerTableRecord
  2
layer 1
 70
     0
 62
     7
  6
Continuous
370
    -3
390
F
347
3E
  0
ENDTAB
  0
TABLE
  2
STYLE
  5
3
330
0
100
AcDbSymbolTable
 70
     1
  0
STYLE
  5
11
330
3
100
AcDbSymbolTableRecord
100
AcDbTextStyleTableRecord
  2
Standard
 70
     0
 40
0.0
 41
1.0
 50
0.0
 71
     0
 42
0.2
  3
txt
  4

  0
ENDTAB
  0
TABLE
  2
VIEW
  5
6
330
0
100
AcDbSymbolTable
 70
     0
  0
ENDTAB
  0
TABLE
  2
UCS
  5
7
330
0
100
AcDbSymbolTable
 70
     0
  0
ENDTAB
  0
TABLE
  2
APPID
  5
9
330
0
100
AcDbSymbolTable
 70
     2
  0
APPID
  5
12
330
9
100
AcDbSymbolTableRecord
100
AcDbRegAppTableRecord
  2
ACAD
 70
     0
  0
APPID
  5
3F
330
9
100
AcDbSymbolTableRecord
100
AcDbRegAppTableRecord
  2
ODA
 70
     0
  0
ENDTAB
  0
TABLE
  2
DIMSTYLE
  5
A
330
0
100
AcDbSymbolTable
 70
     1
100
AcDbDimStyleTable
  0
DIMSTYLE
105
27
330
A
100
AcDbSymbolTableRecord
100
AcDbDimStyleTableRecord
  2
Standard
 70
     0
178
     0
340
11
  0
ENDTAB
  0
TABLE
  2
BLOCK_RECORD
  5
1
330
0
100
AcDbSymbolTable
 70
     1
  0
BLOCK_RECORD
  5
1F
330
1
100
AcDbSymbolTableRecord
100
AcDbBlockTableRecord
  2
*Model_Space
340
22
 70
     0
280
     1
281
     0
  0
BLOCK_RECORD
  5
1B
330
1
100
AcDbSymbolTableRecord
100
AcDbBlockTableRecord
  2
*Paper_Space
340
1E
 70
     0
280
     1
281
     0
  0
BLOCK_RECORD
  5
23
330
1
100
AcDbSymbolTableRecord
100
AcDbBlockTableRecord
  2
*Paper_Space0
340
26
 70
     0
280
     1
281
     0
  0
ENDTAB
  0
ENDSEC
  0
SECTION
  2
BLOCKS
  0
BLOCK
  5
20
330
1F
100
AcDbEntity
  8
0
100
AcDbBlockBegin
  2
*Model_Space
 70
     0
 10
0.0
 20
0.0
 30
0.0
  3
*Model_Space
  1

  0
ENDBLK
  5
21
330
1F
100
AcDbEntity
  8
0
100
AcDbBlockEnd
  0
BLOCK
  5
1C
330
1B
100
AcDbEntity
 67
     1
  8
0
100
AcDbBlockBegin
  2
*Paper_Space
 70
     0
 10
0.0
 20
0.0
 30
0.0
  3
*Paper_Space
  1

  0
ENDBLK
  5
1D
330
1B
100
AcDbEntity
 67
     1
  8
0
100
AcDbBlockEnd
  0
BLOCK
  5
24
330
23
100
AcDbEntity
  8
0
100
AcDbBlockBegin
  2
*Paper_Space0
 70
     0
 10
0.0
 20
0.0
 30
0.0
  3
*Paper_Space0
  1

  0
ENDBLK
  5
25
330
23
100
AcDbEntity
  8
0
100
AcDbBlockEnd
  0
ENDSEC
  0
SECTION
  2
ENTITIES
  0
SPLINE
  5
41
330
1F
100
AcDbEntity
  8
layer 1
 62
   250
370
     9
100
AcDbSpline
210
0.0
220
0.0
230
1.0
 70
    11
 71
     3
 72
    24
 73
    20
 74
     0
 42
0.0000000001
 43
0.0000000001
 12
1.0
 22
0.0
 32
0.0
 13
1.0
 23
0.0
 33
0.0
 40
0.0
 40
0.0
 40
0.0
 40
0.0
 40
0.1666666666666667
 40
0.1666666666666667
 40
0.1666666666666667
 40
0.1666666666666667
 40
0.3333333333333333
 40
0.3333333333333333
 40
0.3333333333333333
 40
0.3333333333333333
 40
0.5
 40
0.5
 40
0.5
 40
0.5
 40
0.6666666666666666
 40
0.6666666666666666
 40
0.6666666666666666
 40
0.6666666666666666
 40
1.0
 40
1.0
 40
1.0
 40
1.0
 10
-187.1686
 20
2.7665
 30
0.0
 10
-187.1686
 20
2.7665
 30
0.0
 10
-187.1686
 20
102.1294
 30
0.0
 10
-187.1686
 20
102.1294
 30
0.0
 10
-187.1686
 20
102.1294
 30
0.0
 10
-187.1686
 20
102.1294
 30
0.0
 10
-45.0682
 20
102.1294
 30
0.0
 10
-45.0682
 20
102.1294
 30
0.0
 10
-45.0682
 20
102.1294
 30
0.0
 10
-45.0682
 20
102.1294
 30
0.0
 10
-45.0682
 20
-96.5963
 30
0.0
 10
-45.0682
 20
-96.5963
 30
0.0
 10
-45.0682
 20
-96.5963
 30
0.0
 10
-45.0682
 20
-96.5963
 30
0.0
 10
-187.1686
 20
-96.5963
 30
0.0
 10
-187.1686
 20
-96.5963
 30
0.0
 10
-187.1686
 20
-96.5963
 30
0.0
 10
-187.1686
 20
-96.5963
 30
0.0
 10
-187.1686
 20
2.7665
 30
0.0
 10
-187.1686
 20
2.7665
 30
0.0
  0
SPLINE
  5
42
330
1F
100
AcDbEntity
  8
layer 1
 62
     7
370
     9
100
AcDbSpline
210
0.0
220
0.0
230
1.0
 70
    11
 71
     3
 72
    36
 73
    32
 74
     0
 42
0.0000000001
 43
0.0000000001
 12
1.0
 22
0.0
 32
0.0
 13
1.0
 23
0.0
 33
0.0
 40
0.0
 40
0.0
 40
0.0
 40
0.0
 40
0.1111111111111111
 40
0.1111111111111111
 40
0.1111111111111111
 40
0.1111111111111111
 40
0.2222222222222222
 40
0.2222222222222222
 40
0.2222222222222222
 40
0.2222222222222222
 40
0.3333333333333333
 40
0.3333333333333333
 40
0.3333333333333333
 40
0.3333333333333333
 40
0.4444444444444444
 40
0.4444444444444444
 40
0.4444444444444444
 40
0.4444444444444444
 40
0.5555555555555556
 40
0.5555555555555556
 40
0.5555555555555556
 40
0.5555555555555556
 40
0.6666666666666666
 40
0.6666666666666666
 40
0.6666666666666666
 40
0.6666666666666666
 40
0.7777777777777778
 40
0.7777777777777778
 40
0.7777777777777778
 40
0.7777777777777778
 40
1.0
 40
1.0
 40
1.0
 40
1.0
 10
-138.9331
 20
2.7665
 30
0.0
 10
-142.3531
 20
4.1185
 30
0.0
 10
-145.4009
 20
6.3222
 30
0.0
 10
-147.8087
 20
9.1837
 30
0.0
 10
-147.8087
 20
9.1837
 30
0.0
 10
-148.6422
 20
8.1007
 30
0.0
 10
-148.8502
 20
6.6361
 30
0.0
 10
-148.3526
 20
5.3496
 30
0.0
 10
-148.3526
 20
5.3496
 30
0.0
 10
-149.6031
 20
5.1219
 30
0.0
 10
-150.7262
 20
4.4164
 30
0.0
 10
-151.5008
 20
3.372
 30
0.0
 10
-151.5008
 20
3.372
 30
0.0
 10
-151.6741
 20
3.2223
 30
0.0
 10
-151.774
 20
3.0005
 30
0.0
 10
-151.774
 20
2.7665
 30
0.0
 10
-151.774
 20
2.7665
 30
0.0
 10
-151.774
 20
2.5327
 30
0.0
 10
-151.6741
 20
2.3107
 30
0.0
 10
-151.5008
 20
2.1613
 30
0.0
 10
-151.5008
 20
2.1613
 30
0.0
 10
-150.7262
 20
1.1166
 30
0.0
 10
-149.6031
 20
0.4111
 30
0.0
 10
-148.3526
 20
0.1836
 30
0.0
 10
-148.3526
 20
0.1836
 30
0.0
 10
-148.8502
 20
-1.1028
 30
0.0
 10
-148.6422
 20
-2.5677
 30
0.0
 10
-147.8087
 20
-3.6507
 30
0.0
 10
-147.8087
 20
-3.6507
 30
0.0
 10
-145.4009
 20
-0.789
 30
0.0
 10
-142.3531
 20
1.4145
 30
0.0
 10
-138.9331
 20
2.7665
 30
0.0
  0
SPLINE
  5
43
330
1F
100
AcDbEntity
  8
layer 1
 62
     7
370
     9
100
AcDbSpline
210
0.0
220
0.0
230
1.0
 70
    11
 71
     3
 72
    36
 73
    32
 74
     0
 42
0.0000000001
 43
0.0000000001
 12
1.0
 22
0.0
 32
0.0
 13
1.0
 23
0.0
 33
0.0
 40
0.0
 40
0.0
 40
0.0
 40
0.0
 40
0.1111111111111111
 40
0.1111111111111111
 40
0.1111111111111111
 40
0.1111111111111111
 40
0.2222222222222222
 40
0.2222222222222222
 40
0.2222222222222222
 40
0.2222222222222222
 40
0.3333333333333333
 40
0.3333333333333333
 40
0.3333333333333333
 40
0.3333333333333333
 40
0.4444444444444444
 40
0.4444444444444444
 40
0.4444444444444444
 40
0.4444444444444444
 40
0.5555555555555556
 40
0.5555555555555556
 40
0.5555555555555556
 40
0.5555555555555556
 40
0.6666666666666666
 40
0.6666666666666666
 40
0.6666666666666666
 40
0.6666666666666666
 40
0.7777777777777778
 40
0.7777777777777778
 40
0.7777777777777778
 40
0.7777777777777778
 40
1.0
 40
1.0
 40
1.0
 40
1.0
 10
-134.4522
 20
2.7665
 30
0.0
 10
-131.0322
 20
4.1185
 30
0.0
 10
-127.9844
 20
6.3222
 30
0.0
 10
-125.5769
 20
9.1837
 30
0.0
 10
-125.5769
 20
9.1837
 30
0.0
 10
-124.7433
 20
8.1007
 30
0.0
 10
-124.5354
 20
6.6361
 30
0.0
 10
-125.0326
 20
5.3496
 30
0.0
 10
-125.0326
 20
5.3496
 30
0.0
 10
-123.7822
 20
5.1219
 30
0.0
 10
-122.659
 20
4.4164
 30
0.0
 10
-121.8844
 20
3.372
 30
0.0
 10
-121.8844
 20
3.372
 30
0.0
 10
-121.7114
 20
3.2223
 30
0.0
 10
-121.6113
 20
3.0005
 30
0.0
 10
-121.6113
 20
2.7665
 30
0.0
 10
-121.6113
 20
2.7665
 30
0.0
 10
-121.6113
 20
2.5327
 30
0.0
 10
-121.7114
 20
2.3107
 30
0.0
 10
-121.8844
 20
2.1613
 30
0.0
 10
-121.8844
 20
2.1613
 30
0.0
 10
-122.659
 20
1.1166
 30
0.0
 10
-123.7822
 20
0.4111
 30
0.0
 10
-125.0326
 20
0.1836
 30
0.0
 10
-125.0326
 20
0.1836
 30
0.0
 10
-124.5354
 20
-1.1028
 30
0.0
 10
-124.7433
 20
-2.5677
 30
0.0
 10
-125.5769
 20
-3.6507
 30
0.0
 10
-125.5769
 20
-3.6507
 30
0.0
 10
-127.9844
 20
-0.789
 30
0.0
 10
-131.0322
 20
1.4145
 30
0.0
 10
-134.4522
 20
2.7665
 30
0.0
  0
SPLINE
  5
44
330
1F
100
AcDbEntity
  8
layer 1
 62
     7
370
     9
100
AcDbSpline
210
0.0
220
0.0
230
1.0
 70
    11
 71
     3
 72
    12
 73
     8
 74
     0
 42
0.0000000001
 43
0.0000000001
 12
1.0
 22
0.0
 32
0.0
 13
1.0
 23
0.0
 33
0.0
 40
0.0
 40
0.0
 40
0.0
 40
0.0
 40
0.3333333333333333
 40
0.3333333333333333
 40
0.3333333333333333
 40
0.3333333333333333
 40
1.0
 40
1.0
 40
1.0
 40
1.0
 10
-127.5977
 20
-5.7895
 30
0.0
 10
-128.4251
 20
-2.842
 30
0.0
 10
-130.8179
 20
-0.6562
 30
0.0
 10
-133.7389
 20
-0.1798
 30
0.0
 10
-133.7389
 20
-0.1798
 30
0.0
 10
-132.7113
 20
-2.9891
 30
0.0
 10
-130.4123
 20
-5.0893
 30
0.0
 10
-127.5977
 20
-5.7895
 30
0.0
  0
SPLINE
  5
45
330
1F
100
AcDbEntity
  8
layer 1
 62
     7
370
     9
100
AcDbSpline
210
0.0
220
0.0
230
1.0
 70
    11
 71
     3
 72
    36
 73
    32
 74
     0
 42
0.0000000001
 43
0.0000000001
 12
1.0
 22
0.0
 32
0.0
 13
1.0
 23
0.0
 33
0.0
 40
0.0
 40
0.0
 40
0.0
 40
0.0
 40
0.1111111111111111
 40
0.1111111111111111
 40
0.1111111111111111
 40
0.1111111111111111
 40
0.2222222222222222
 40
0.2222222222222222
 40
0.2222222222222222
 40
0.2222222222222222
 40
0.3333333333333333
 40
0.3333333333333333
 40
0.3333333333333333
 40
0.3333333333333333
 40
0.4444444444444444
 40
0.4444444444444444
 40
0.4444444444444444
 40
0.4444444444444444
 40
0.5555555555555556
 40
0.5555555555555556
 40
0.5555555555555556
 40
0.5555555555555556
 40
0.6666666666666666
 40
0.6666666666666666
 40
0.6666666666666666
 40
0.6666666666666666
 40
0.7777777777777778
 40
0.7777777777777778
 40
0.7777777777777778
 40
0.7777777777777778
 40
1.0
 40
1.0
 40
1.0
 40
1.0
 10
-137.4311
 20
-11.0364
 30
0.0
 10
-138.5044
 20
-10.4363
 30
0.0
 10
-139.2401
 20
-9.3431
 30
0.0
 10
-139.4134
 20
-8.09
 30
0.0
 10
-139.4134
 20
-8.09
 30
0.0
 10
-140.8436
 20
-8.6875
 30
0.0
 10
-142.457
 20
-8.5839
 30
0.0
 10
-143.8052
 20
-7.8075
 30
0.0
 10
-143.8052
 20
-7.8075
 30
0.0
 10
-140.8637
 20
-5.6726
 30
0.0
 10
-138.4308
 20
-2.8678
 30
0.0
 10
-136.6928
 20
0.3929
 30
0.0
 10
-136.6928
 20
0.3929
 30
0.0
 10
-134.9547
 20
-2.8678
 30
0.0
 10
-132.5218
 20
-5.6726
 30
0.0
 10
-129.58
 20
-7.8075
 30
0.0
 10
-129.58
 20
-7.8075
 30
0.0
 10
-130.9283
 20
-8.5839
 30
0.0
 10
-132.5416
 20
-8.6875
 30
0.0
 10
-133.9719
 20
-8.09
 30
0.0
 10
-133.9719
 20
-8.09
 30
0.0
 10
-134.1454
 20
-9.3431
 30
0.0
 10
-134.8809
 20
-10.4363
 30
0.0
 10
-135.9542
 20
-11.0364
 30
0.0
 10
-135.9542
 20
-11.0364
 30
0.0
 10
-136.1681
 20
-11.2005
 30
0.0
 10
-136.4267
 20
-11.2905
 30
0.0
 10
-136.6928
 20
-11.2936
 30
0.0
 10
-136.6928
 20
-11.2936
 30
0.0
 10
-136.9586
 20
-11.2905
 30
0.0
 10
-137.2172
 20
-11.2005
 30
0.0
 10
-137.4311
 20
-11.0364
 30
0.0
  0
SPLINE
  5
46
330
1F
100
AcDbEntity
  8
layer 1
 62
     7
370
     9
100
AcDbSpline
210
0.0
220
0.0
230
1.0
 70
    11
 71
     3
 72
    12
 73
     8
 74
     0
 42
0.0000000001
 43
0.0000000001
 12
1.0
 22
0.0
 32
0.0
 13
1.0
 23
0.0
 33
0.0
 40
0.0
 40
0.0
 40
0.0
 40
0.0
 40
0.3333333333333333
 40
0.3333333333333333
 40
0.3333333333333333
 40
0.3333333333333333
 40
1.0
 40
1.0
 40
1.0
 40
1.0
 10
-145.7875
 20
-5.7895
 30
0.0
 10
-144.9602
 20
-2.842
 30
0.0
 10
-142.5673
 20
-0.6562
 30
0.0
 10
-139.6466
 20
-0.1798
 30
0.0
 10
-139.6466
 20
-0.1798
 30
0.0
 10
-140.674
 20
-2.9891
 30
0.0
 10
-142.973
 20
-5.0893
 30
0.0
 10
-145.7875
 20
-5.7895
 30
0.0
  0
SPLINE
  5
47
330
1F
100
AcDbEntity
  8
layer 1
 62
     7
370
     9
100
AcDbSpline
210
0.0
220
0.0
230
1.0
 70
    11
 71
     3
 72
    12
 73
     8
 74
     0
 42
0.0000000001
 43
0.0000000001
 12
1.0
 22
0.0
 32
0.0
 13
1.0
 23
0.0
 33
0.0
 40
0.0
 40
0.0
 40
0.0
 40
0.0
 40
0.3333333333333333
 40
0.3333333333333333
 40
0.3333333333333333
 40
0.3333333333333333
 40
1.0
 40
1.0
 40
1.0
 40
1.0
 10
-148.7664
 20
-12.1665
 30
0.0
 10
-149.5937
 20
-15.1141
 30
0.0
 10
-151.9866
 20
-17.2998
 30
0.0
 10
-154.9073
 20
-17.7762
 30
0.0
 10
-154.9073
 20
-17.7762
 30
0.0
 10
-153.8799
 20
-14.967
 30
0.0
 10
-151.5809
 20
-12.8667
 30
0.0
 10
-148.7664
 20
-12.1665
 30
0.0
  0
SPLINE
  5
48
330
1F
100
AcDbEntity
  8
layer 1
 62
     7
370
     9
100
AcDbSpline
210
0.0
220
0.0
230
1.0
 70
    11
 71
     3
 72
    12
 73
     8
 74
     0
 42
0.0000000001
 43
0.0000000001
 12
1.0
 22
0.0
 32
0.0
 13
1.0
 23
0.0
 33
0.0
 40
0.0
 40
0.0
 40
0.0
 40
0.0
 40
0.3333333333333333
 40
0.3333333333333333
 40
0.3333333333333333
 40
0.3333333333333333
 40
1.0
 40
1.0
 40
1.0
 40
1.0
 10
-148.7664
 20
-59.1446
 30
0.0
 10
-151.5809
 20
-59.8448
 30
0.0
 10
-153.8799
 20
-61.945
 30
0.0
 10
-154.9073
 20
-64.7546
 30
0.0
 10
-154.9073
 20
-64.7546
 30
0.0
 10
-151.9866
 20
-64.2782
 30
0.0
 10
-149.5937
 20
-62.0922
 30
0.0
 10
-148.7664
 20
-59.1446
 30
0.0
  0
SPLINE
  5
49
330
1F
100
AcDbEntity
  8
layer 1
 62
     7
370
     9
100
AcDbSpline
210
0.0
220
0.0
230
1.0
 70
    11
 71
     3
 72
    12
 73
     8
 74
     0
 42
0.0000000001
 43
0.0000000001
 12
1.0
 22
0.0
 32
0.0
 13
1.0
 23
0.0
 33
0.0
 40
0.0
 40
0.0
 40
0.0
 40
0.0
 40
0.3333333333333333
 40
0.3333333333333333
 40
0.3333333333333333
 40
0.3333333333333333
 40
1.0
 40
1.0
 40
1.0
 40
1.0
 10
-148.7664
 20
-76.257
 30
0.0
 10
-149.5937
 20
-73.3095
 30
0.0
 10
-151.9866
 20
-71.1235
 30
0.0
 10
-154.9073
 20
-70.6471
 30
0.0
 10
-154.9073
 20
-70.6471
 30
0.0
 10
-153.8799
 20
-73.4566
 30
0.0
 10
-151.5809
 20
-75.5567
 30
0.0
 10
-148.7664
 20
-76.257
 30
0.0
  0
SPLINE
  5
4A
330
1F
100
AcDbEntity
  8
layer 1
 62
     7
370
     9
100
AcDbSpline
210
0.0
220
0.0
230
1.0
 70
    11
 71
     3
 72
    36
 73
    32
 74
     0
 42
0.0000000001
 43
0.0000000001
 12
1.0
 22
0.0
 32
0.0
 13
1.0
 23
0.0
 33
0.0
 40
0.0
 40
0.0
 40
0.0
 40
0.0
 40
0.1111111111111111
 40
0.1111111111111111
 40
0.1111111111111111
 40
0.1111111111111111
 40
0.2222222222222222
 40
0.2222222222222222
 40
0.2222222222222222
 40
0.2222222222222222
 40
0.3333333333333333
 40
0.3333333333333333
 40
0.3333333333333333
 40
0.3333333333333333
 40
0.4444444444444444
 40
0.4444444444444444
 40
0.4444444444444444
 40
0.4444444444444444
 40
0.5555555555555556
 40
0.5555555555555556
 40
0.5555555555555556
 40
0.5555555555555556
 40
0.6666666666666666
 40
0.6666666666666666
 40
0.6666666666666666
 40
0.6666666666666666
 40
0.7777777777777778
 40
0.7777777777777778
 40
0.7777777777777778
 40
0.7777777777777778
 40
1.0
 40
1.0
 40
1.0
 40
1.0
 10
-143.0531
 20
-68.3061
 30
0.0
 10
-143.8277
 20
-69.3507
 30
0.0
 10
-144.9508
 20
-70.0562
 30
0.0
 10
-146.2013
 20
-70.2837
 30
0.0
 10
-146.2013
 20
-70.2837
 30
0.0
 10
-145.7038
 20
-71.5702
 30
0.0
 10
-145.9117
 20
-73.0351
 30
0.0
 10
-146.7455
 20
-74.1179
 30
0.0
 10
-146.7455
 20
-74.1179
 30
0.0
 10
-149.1531
 20
-71.2563
 30
0.0
 10
-152.2008
 20
-69.0528
 30
0.0
 10
-155.6209
 20
-67.7009
 30
0.0
 10
-155.6209
 20
-67.7009
 30
0.0
 10
-152.2008
 20
-66.3489
 30
0.0
 10
-149.1531
 20
-64.1454
 30
0.0
 10
-146.7455
 20
-61.2837
 30
0.0
 10
-146.7455
 20
-61.2837
 30
0.0
 10
-145.9117
 20
-62.3666
 30
0.0
 10
-145.7038
 20
-63.8313
 30
0.0
 10
-146.2013
 20
-65.1177
 30
0.0
 10
-146.2013
 20
-65.1177
 30
0.0
 10
-144.9508
 20
-65.3455
 30
0.0
 10
-143.8277
 20
-66.051
 30
0.0
 10
-143.0531
 20
-67.0953
 30
0.0
 10
-143.0531
 20
-67.0953
 30
0.0
 10
-142.8801
 20
-67.2451
 30
0.0
 10
-142.7799
 20
-67.4671
 30
0.0
 10
-142.7799
 20
-67.7009
 30
0.0
 10
-142.7799
 20
-67.7009
 30
0.0
 10
-142.7799
 20
-67.9346
 30
0.0
 10
-142.8801
 20
-68.1567
 30
0.0
 10
-143.0531
 20
-68.3061
 30
0.0
  0
SPLINE
  5
4B
330
1F
100
AcDbEntity
  8
layer 1
 62
     7
370
     9
100
AcDbSpline
210
0.0
220
0.0
230
1.0
 70
    11
 71
     3
 72
    36
 73
    32
 74
     0
 42
0.0000000001
 43
0.0000000001
 12
1.0
 22
0.0
 32
0.0
 13
1.0
 23
0.0
 33
0.0
 40
0.0
 40
0.0
 40
0.0
 40
0.0
 40
0.1111111111111111
 40
0.1111111111111111
 40
0.1111111111111111
 40
0.1111111111111111
 40
0.2222222222222222
 40
0.2222222222222222
 40
0.2222222222222222
 40
0.2222222222222222
 40
0.3333333333333333
 40
0.3333333333333333
 40
0.3333333333333333
 40
0.3333333333333333
 40
0.4444444444444444
 40
0.4444444444444444
 40
0.4444444444444444
 40
0.4444444444444444
 40
0.5555555555555556
 40
0.5555555555555556
 40
0.5555555555555556
 40
0.5555555555555556
 40
0.6666666666666666
 40
0.6666666666666666
 40
0.6666666666666666
 40
0.6666666666666666
 40
0.7777777777777778
 40
0.7777777777777778
 40
0.7777777777777778
 40
0.7777777777777778
 40
1.0
 40
1.0
 40
1.0
 40
1.0
 10
-158.5997
 20
-53.898
 30
0.0
 10
-159.673
 20
-54.4978
 30
0.0
 10
-160.4088
 20
-55.5912
 30
0.0
 10
-160.582
 20
-56.844
 30
0.0
 10
-160.582
 20
-56.844
 30
0.0
 10
-162.0122
 20
-56.2469
 30
0.0
 10
-163.6256
 20
-56.3504
 30
0.0
 10
-164.9739
 20
-57.1265
 30
0.0
 10
-164.9739
 20
-57.1265
 30
0.0
 10
-162.032
 20
-59.2615
 30
0.0
 10
-159.5992
 20
-62.0666
 30
0.0
 10
-157.8614
 20
-65.3272
 30
0.0
 10
-157.8614
 20
-65.3272
 30
0.0
 10
-156.1233
 20
-62.0666
 30
0.0
 10
-153.6902
 20
-59.2615
 30
0.0
 10
-150.7487
 20
-57.1265
 30
0.0
 10
-150.7487
 20
-57.1265
 30
0.0
 10
-152.097
 20
-56.3504
 30
0.0
 10
-153.7103
 20
-56.2469
 30
0.0
 10
-155.1405
 20
-56.844
 30
0.0
 10
-155.1405
 20
-56.844
 30
0.0
 10
-155.314
 20
-55.5912
 30
0.0
 10
-156.0495
 20
-54.4978
 30
0.0
 10
-157.1228
 20
-53.898
 30
0.0
 10
-157.1228
 20
-53.898
 30
0.0
 10
-157.3368
 20
-53.7339
 30
0.0
 10
-157.5953
 20
-53.6439
 30
0.0
 10
-157.8614
 20
-53.6408
 30
0.0
 10
-157.8614
 20
-53.6408
 30
0.0
 10
-158.1272
 20
-53.6439
 30
0.0
 10
-158.3858
 20
-53.7339
 30
0.0
 10
-158.5997
 20
-53.898
 30
0.0
  0
SPLINE
  5
4C
330
1F
100
AcDbEntity
  8
layer 1
 62
     7
370
     9
100
AcDbSpline
210
0.0
220
0.0
230
1.0
 70
    11
 71
     3
 72
    12
 73
     8
 74
     0
 42
0.0000000001
 43
0.0000000001
 12
1.0
 22
0.0
 32
0.0
 13
1.0
 23
0.0
 33
0.0
 40
0.0
 40
0.0
 40
0.0
 40
0.0
 40
0.3333333333333333
 40
0.3333333333333333
 40
0.3333333333333333
 40
0.3333333333333333
 40
1.0
 40
1.0
 40
1.0
 40
1.0
 10
-166.9562
 20
-59.1446
 30
0.0
 10
-166.1289
 20
-62.0922
 30
0.0
 10
-163.7359
 20
-64.2782
 30
0.0
 10
-160.815
 20
-64.7546
 30
0.0
 10
-160.815
 20
-64.7546
 30
0.0
 10
-161.8426
 20
-61.945
 30
0.0
 10
-164.1416
 20
-59.8448
 30
0.0
 10
-166.9562
 20
-59.1446
 30
0.0
  0
SPLINE
  5
4D
330
1F
100
AcDbEntity
  8
layer 1
 62
     7
370
     9
100
AcDbSpline
210
0.0
220
0.0
230
1.0
 70
    11
 71
     3
 72
    36
 73
    32
 74
     0
 42
0.0000000001
 43
0.0000000001
 12
1.0
 22
0.0
 32
0.0
 13
1.0
 23
0.0
 33
0.0
 40
0.0
 40
0.0
 40
0.0
 40
0.0
 40
0.1111111111111111
 40
0.1111111111111111
 40
0.1111111111111111
 40
0.1111111111111111
 40
0.2222222222222222
 40
0.2222222222222222
 40
0.2222222222222222
 40
0.2222222222222222
 40
0.3333333333333333
 40
0.3333333333333333
 40
0.3333333333333333
 40
0.3333333333333333
 40
0.4444444444444444
 40
0.4444444444444444
 40
0.4444444444444444
 40
0.4444444444444444
 40
0.5555555555555556
 40
0.5555555555555556
 40
0.5555555555555556
 40
0.5555555555555556
 40
0.6666666666666666
 40
0.6666666666666666
 40
0.6666666666666666
 40
0.6666666666666666
 40
0.7777777777777778
 40
0.7777777777777778
 40
0.7777777777777778
 40
0.7777777777777778
 40
1.0
 40
1.0
 40
1.0
 40
1.0
 10
-158.5997
 20
-81.5037
 30
0.0
 10
-159.673
 20
-80.9037
 30
0.0
 10
-160.4088
 20
-79.8104
 30
0.0
 10
-160.582
 20
-78.5576
 30
0.0
 10
-160.582
 20
-78.5576
 30
0.0
 10
-162.0122
 20
-79.1549
 30
0.0
 10
-163.6256
 20
-79.0512
 30
0.0
 10
-164.9739
 20
-78.2749
 30
0.0
 10
-164.9739
 20
-78.2749
 30
0.0
 10
-162.032
 20
-76.1401
 30
0.0
 10
-159.5992
 20
-73.3351
 30
0.0
 10
-157.8614
 20
-70.0744
 30
0.0
 10
-157.8614
 20
-70.0744
 30
0.0
 10
-156.1233
 20
-73.3351
 30
0.0
 10
-153.6902
 20
-76.1401
 30
0.0
 10
-150.7487
 20
-78.2749
 30
0.0
 10
-150.7487
 20
-78.2749
 30
0.0
 10
-152.097
 20
-79.0512
 30
0.0
 10
-153.7103
 20
-79.1549
 30
0.0
 10
-155.1405
 20
-78.5576
 30
0.0
 10
-155.1405
 20
-78.5576
 30
0.0
 10
-155.314
 20
-79.8104
 30
0.0
 10
-156.0495
 20
-80.9037
 30
0.0
 10
-157.1228
 20
-81.5037
 30
0.0
 10
-157.1228
 20
-81.5037
 30
0.0
 10
-157.3368
 20
-81.6678
 30
0.0
 10
-157.5953
 20
-81.7578
 30
0.0
 10
-157.8614
 20
-81.7608
 30
0.0
 10
-157.8614
 20
-81.7608
 30
0.0
 10
-158.1272
 20
-81.7578
 30
0.0
 10
-158.3858
 20
-81.6678
 30
0.0
 10
-158.5997
 20
-81.5037
 30
0.0
  0
SPLINE
  5
4E
330
1F
100
AcDbEntity
  8
layer 1
 62
     7
370
     9
100
AcDbSpline
210
0.0
220
0.0
230
1.0
 70
    11
 71
     3
 72
    12
 73
     8
 74
     0
 42
0.0000000001
 43
0.0000000001
 12
1.0
 22
0.0
 32
0.0
 13
1.0
 23
0.0
 33
0.0
 40
0.0
 40
0.0
 40
0.0
 40
0.0
 40
0.3333333333333333
 40
0.3333333333333333
 40
0.3333333333333333
 40
0.3333333333333333
 40
1.0
 40
1.0
 40
1.0
 40
1.0
 10
-166.9562
 20
-76.257
 30
0.0
 10
-166.1289
 20
-73.3095
 30
0.0
 10
-163.7359
 20
-71.1235
 30
0.0
 10
-160.815
 20
-70.6471
 30
0.0
 10
-160.815
 20
-70.6471
 30
0.0
 10
-161.8426
 20
-73.4566
 30
0.0
 10
-164.1416
 20
-75.5567
 30
0.0
 10
-166.9562
 20
-76.257
 30
0.0
  0
SPLINE
  5
4F
330
1F
100
AcDbEntity
  8
layer 1
 62
     7
370
     9
100
AcDbSpline
210
0.0
220
0.0
230
1.0
 70
    11
 71
     3
 72
    36
 73
    32
 74
     0
 42
0.0000000001
 43
0.0000000001
 12
1.0
 22
0.0
 32
0.0
 13
1.0
 23
0.0
 33
0.0
 40
0.0
 40
0.0
 40
0.0
 40
0.0
 40
0.1111111111111111
 40
0.1111111111111111
 40
0.1111111111111111
 40
0.1111111111111111
 40
0.2222222222222222
 40
0.2222222222222222
 40
0.2222222222222222
 40
0.2222222222222222
 40
0.3333333333333333
 40
0.3333333333333333
 40
0.3333333333333333
 40
0.3333333333333333
 40
0.4444444444444444
 40
0.4444444444444444
 40
0.4444444444444444
 40
0.4444444444444444
 40
0.5555555555555556
 40
0.5555555555555556
 40
0.5555555555555556
 40
0.5555555555555556
 40
0.6666666666666666
 40
0.6666666666666666
 40
0.6666666666666666
 40
0.6666666666666666
 40
0.7777777777777778
 40
0.7777777777777778
 40
0.7777777777777778
 40
0.7777777777777778
 40
1.0
 40
1.0
 40
1.0
 40
1.0
 10
-172.6694
 20
-68.3061
 30
0.0
 10
-171.8948
 20
-69.3507
 30
0.0
 10
-170.7717
 20
-70.0562
 30
0.0
 10
-169.5213
 20
-70.2837
 30
0.0
 10
-169.5213
 20
-70.2837
 30
0.0
 10
-170.0185
 20
-71.5702
 30
0.0
 10
-169.8109
 20
-73.0351
 30
0.0
 10
-168.9773
 20
-74.1179
 30
0.0
 10
-168.9773
 20
-74.1179
 30
0.0
 10
-166.5695
 20
-71.2563
 30
0.0
 10
-163.5218
 20
-69.0528
 30
0.0
 10
-160.1017
 20
-67.7009
 30
0.0
 10
-160.1017
 20
-67.7009
 30
0.0
 10
-163.5218
 20
-66.3489
 30
0.0
 10
-166.5695
 20
-64.1454
 30
0.0
 10
-168.9773
 20
-61.2837
 30
0.0
 10
-168.9773
 20
-61.2837
 30
0.0
 10
-169.8109
 20
-62.3666
 30
0.0
 10
-170.0185
 20
-63.8313
 30
0.0
 10
-169.5213
 20
-65.1177
 30
0.0
 10
-169.5213
 20
-65.1177
 30
0.0
 10
-170.7717
 20
-65.3455
 30
0.0
 10
-171.8948
 20
-66.051
 30
0.0
 10
-172.6694
 20
-67.0953
 30
0.0
 10
-172.6694
 20
-67.0953
 30
0.0
 10
-172.8424
 20
-67.2451
 30
0.0
 10
-172.9426
 20
-67.4671
 30
0.0
 10
-172.9426
 20
-67.7009
 30
0.0
 10
-172.9426
 20
-67.7009
 30
0.0
 10
-172.9426
 20
-67.9346
 30
0.0
 10
-172.8424
 20
-68.1567
 30
0.0
 10
-172.6694
 20
-68.3061
 30
0.0
  0
SPLINE
  5
50
330
1F
100
AcDbEntity
  8
layer 1
 62
     7
370
     9
100
AcDbSpline
210
0.0
220
0.0
230
1.0
 70
    11
 71
     3
 72
    12
 73
     8
 74
     0
 42
0.0000000001
 43
0.0000000001
 12
1.0
 22
0.0
 32
0.0
 13
1.0
 23
0.0
 33
0.0
 40
0.0
 40
0.0
 40
0.0
 40
0.0
 40
0.3333333333333333
 40
0.3333333333333333
 40
0.3333333333333333
 40
0.3333333333333333
 40
1.0
 40
1.0
 40
1.0
 40
1.0
 10
-127.5977
 20
-52.7678
 30
0.0
 10
-128.4251
 20
-49.8203
 30
0.0
 10
-130.8179
 20
-47.6345
 30
0.0
 10
-133.7389
 20
-47.1578
 30
0.0
 10
-133.7389
 20
-47.1578
 30
0.0
 10
-132.7113
 20
-49.9674
 30
0.0
 10
-130.4123
 20
-52.0676
 30
0.0
 10
-127.5977
 20
-52.7678
 30
0.0
  0
SPLINE
  5
51
330
1F
100
AcDbEntity
  8
layer 1
 62
     7
370
     9
100
AcDbSpline
210
0.0
220
0.0
230
1.0
 70
    11
 71
     3
 72
    12
 73
     8
 74
     0
 42
0.0000000001
 43
0.0000000001
 12
1.0
 22
0.0
 32
0.0
 13
1.0
 23
0.0
 33
0.0
 40
0.0
 40
0.0
 40
0.0
 40
0.0
 40
0.3333333333333333
 40
0.3333333333333333
 40
0.3333333333333333
 40
0.3333333333333333
 40
1.0
 40
1.0
 40
1.0
 40
1.0
 10
-127.5977
 20
-35.6555
 30
0.0
 10
-128.4251
 20
-38.6031
 30
0.0
 10
-130.8179
 20
-40.7889
 30
0.0
 10
-133.7389
 20
-41.2655
 30
0.0
 10
-133.7389
 20
-41.2655
 30
0.0
 10
-132.7113
 20
-38.456
 30
0.0
 10
-130.4123
 20
-36.3558
 30
0.0
 10
-127.5977
 20
-35.6555
 30
0.0
  0
SPLINE
  5
52
330
1F
100
AcDbEntity
  8
layer 1
 62
     7
370
     9
100
AcDbSpline
210
0.0
220
0.0
230
1.0
 70
    11
 71
     3
 72
    36
 73
    32
 74
     0
 42
0.0000000001
 43
0.0000000001
 12
1.0
 22
0.0
 32
0.0
 13
1.0
 23
0.0
 33
0.0
 40
0.0
 40
0.0
 40
0.0
 40
0.0
 40
0.1111111111111111
 40
0.1111111111111111
 40
0.1111111111111111
 40
0.1111111111111111
 40
0.2222222222222222
 40
0.2222222222222222
 40
0.2222222222222222
 40
0.2222222222222222
 40
0.3333333333333333
 40
0.3333333333333333
 40
0.3333333333333333
 40
0.3333333333333333
 40
0.4444444444444444
 40
0.4444444444444444
 40
0.4444444444444444
 40
0.4444444444444444
 40
0.5555555555555556
 40
0.5555555555555556
 40
0.5555555555555556
 40
0.5555555555555556
 40
0.6666666666666666
 40
0.6666666666666666
 40
0.6666666666666666
 40
0.6666666666666666
 40
0.7777777777777778
 40
0.7777777777777778
 40
0.7777777777777778
 40
0.7777777777777778
 40
1.0
 40
1.0
 40
1.0
 40
1.0
 10
-121.8844
 20
-43.6063
 30
0.0
 10
-122.659
 20
-42.562
 30
0.0
 10
-123.7822
 20
-41.8565
 30
0.0
 10
-125.0326
 20
-41.6287
 30
0.0
 10
-125.0326
 20
-41.6287
 30
0.0
 10
-124.5354
 20
-40.3422
 30
0.0
 10
-124.7433
 20
-38.8773
 30
0.0
 10
-125.5769
 20
-37.7947
 30
0.0
 10
-125.5769
 20
-37.7947
 30
0.0
 10
-127.9844
 20
-40.6561
 30
0.0
 10
-131.0322
 20
-42.8596
 30
0.0
 10
-134.4522
 20
-44.2118
 30
0.0
 10
-134.4522
 20
-44.2118
 30
0.0
 10
-131.0322
 20
-45.5638
 30
0.0
 10
-127.9844
 20
-47.7673
 30
0.0
 10
-125.5769
 20
-50.6288
 30
0.0
 10
-125.5769
 20
-50.6288
 30
0.0
 10
-124.7433
 20
-49.546
 30
0.0
 10
-124.5354
 20
-48.0812
 30
0.0
 10
-125.0326
 20
-46.7946
 30
0.0
 10
-125.0326
 20
-46.7946
 30
0.0
 10
-123.7822
 20
-46.5672
 30
0.0
 10
-122.659
 20
-45.8614
 30
0.0
 10
-121.8844
 20
-44.8171
 30
0.0
 10
-121.8844
 20
-44.8171
 30
0.0
 10
-121.7114
 20
-44.6674
 30
0.0
 10
-121.6113
 20
-44.4456
 30
0.0
 10
-121.6113
 20
-44.2118
 30
0.0
 10
-121.6113
 20
-44.2118
 30
0.0
 10
-121.6113
 20
-43.9778
 30
0.0
 10
-121.7114
 20
-43.756
 30
0.0
 10
-121.8844
 20
-43.6063
 30
0.0
  0
SPLINE
  5
53
330
1F
100
AcDbEntity
  8
layer 1
 62
     7
370
     9
100
AcDbSpline
210
0.0
220
0.0
230
1.0
 70
    11
 71
     3
 72
    36
 73
    32
 74
     0
 42
0.0000000001
 43
0.0000000001
 12
1.0
 22
0.0
 32
0.0
 13
1.0
 23
0.0
 33
0.0
 40
0.0
 40
0.0
 40
0.0
 40
0.0
 40
0.1111111111111111
 40
0.1111111111111111
 40
0.1111111111111111
 40
0.1111111111111111
 40
0.2222222222222222
 40
0.2222222222222222
 40
0.2222222222222222
 40
0.2222222222222222
 40
0.3333333333333333
 40
0.3333333333333333
 40
0.3333333333333333
 40
0.3333333333333333
 40
0.4444444444444444
 40
0.4444444444444444
 40
0.4444444444444444
 40
0.4444444444444444
 40
0.5555555555555556
 40
0.5555555555555556
 40
0.5555555555555556
 40
0.5555555555555556
 40
0.6666666666666666
 40
0.6666666666666666
 40
0.6666666666666666
 40
0.6666666666666666
 40
0.7777777777777778
 40
0.7777777777777778
 40
0.7777777777777778
 40
0.7777777777777778
 40
1.0
 40
1.0
 40
1.0
 40
1.0
 10
-137.4311
 20
-58.0147
 30
0.0
 10
-138.5044
 20
-57.4146
 30
0.0
 10
-139.2401
 20
-56.3215
 30
0.0
 10
-139.4134
 20
-55.0684
 30
0.0
 10
-139.4134
 20
-55.0684
 30
0.0
 10
-140.8436
 20
-55.6658
 30
0.0
 10
-142.457
 20
-55.562
 30
0.0
 10
-143.8052
 20
-54.7858
 30
0.0
 10
-143.8052
 20
-54.7858
 30
0.0
 10
-140.8637
 20
-52.6509
 30
0.0
 10
-138.4308
 20
-49.8461
 30
0.0
 10
-136.6928
 20
-46.5854
 30
0.0
 10
-136.6928
 20
-46.5854
 30
0.0
 10
-134.9547
 20
-49.8461
 30
0.0
 10
-132.5218
 20
-52.6509
 30
0.0
 10
-129.58
 20
-54.7858
 30
0.0
 10
-129.58
 20
-54.7858
 30
0.0
 10
-130.9283
 20
-55.562
 30
0.0
 10
-132.5416
 20
-55.6658
 30
0.0
 10
-133.9719
 20
-55.0684
 30
0.0
 10
-133.9719
 20
-55.0684
 30
0.0
 10
-134.1454
 20
-56.3215
 30
0.0
 10
-134.8809
 20
-57.4146
 30
0.0
 10
-135.9542
 20
-58.0147
 30
0.0
 10
-135.9542
 20
-58.0147
 30
0.0
 10
-136.1681
 20
-58.1788
 30
0.0
 10
-136.4267
 20
-58.2688
 30
0.0
 10
-136.6928
 20
-58.2717
 30
0.0
 10
-136.6928
 20
-58.2717
 30
0.0
 10
-136.9586
 20
-58.2688
 30
0.0
 10
-137.2172
 20
-58.1788
 30
0.0
 10
-137.4311
 20
-58.0147
 30
0.0
  0
SPLINE
  5
54
330
1F
100
AcDbEntity
  8
layer 1
 62
     7
370
     9
100
AcDbSpline
210
0.0
220
0.0
230
1.0
 70
    11
 71
     3
 72
    12
 73
     8
 74
     0
 42
0.0000000001
 43
0.0000000001
 12
1.0
 22
0.0
 32
0.0
 13
1.0
 23
0.0
 33
0.0
 40
0.0
 40
0.0
 40
0.0
 40
0.0
 40
0.3333333333333333
 40
0.3333333333333333
 40
0.3333333333333333
 40
0.3333333333333333
 40
1.0
 40
1.0
 40
1.0
 40
1.0
 10
-145.7875
 20
-52.7678
 30
0.0
 10
-144.9602
 20
-49.8203
 30
0.0
 10
-142.5673
 20
-47.6345
 30
0.0
 10
-139.6466
 20
-47.1578
 30
0.0
 10
-139.6466
 20
-47.1578
 30
0.0
 10
-140.674
 20
-49.9674
 30
0.0
 10
-142.973
 20
-52.0676
 30
0.0
 10
-145.7875
 20
-52.7678
 30
0.0
  0
SPLINE
  5
55
330
1F
100
AcDbEntity
  8
layer 1
 62
     7
370
     9
100
AcDbSpline
210
0.0
220
0.0
230
1.0
 70
    11
 71
     3
 72
    36
 73
    32
 74
     0
 42
0.0000000001
 43
0.0000000001
 12
1.0
 22
0.0
 32
0.0
 13
1.0
 23
0.0
 33
0.0
 40
0.0
 40
0.0
 40
0.0
 40
0.0
 40
0.1111111111111111
 40
0.1111111111111111
 40
0.1111111111111111
 40
0.1111111111111111
 40
0.2222222222222222
 40
0.2222222222222222
 40
0.2222222222222222
 40
0.2222222222222222
 40
0.3333333333333333
 40
0.3333333333333333
 40
0.3333333333333333
 40
0.3333333333333333
 40
0.4444444444444444
 40
0.4444444444444444
 40
0.4444444444444444
 40
0.4444444444444444
 40
0.5555555555555556
 40
0.5555555555555556
 40
0.5555555555555556
 40
0.5555555555555556
 40
0.6666666666666666
 40
0.6666666666666666
 40
0.6666666666666666
 40
0.6666666666666666
 40
0.7777777777777778
 40
0.7777777777777778
 40
0.7777777777777778
 40
0.7777777777777778
 40
1.0
 40
1.0
 40
1.0
 40
1.0
 10
-137.4311
 20
-30.4087
 30
0.0
 10
-138.5044
 20
-31.0088
 30
0.0
 10
-139.2401
 20
-32.1019
 30
0.0
 10
-139.4134
 20
-33.355
 30
0.0
 10
-139.4134
 20
-33.355
 30
0.0
 10
-140.8436
 20
-32.7576
 30
0.0
 10
-142.457
 20
-32.8614
 30
0.0
 10
-143.8052
 20
-33.6375
 30
0.0
 10
-143.8052
 20
-33.6375
 30
0.0
 10
-140.8637
 20
-35.7725
 30
0.0
 10
-138.4308
 20
-38.5773
 30
0.0
 10
-136.6928
 20
-41.8379
 30
0.0
 10
-136.6928
 20
-41.8379
 30
0.0
 10
-134.9547
 20
-38.5773
 30
0.0
 10
-132.5218
 20
-35.7725
 30
0.0
 10
-129.58
 20
-33.6375
 30
0.0
 10
-129.58
 20
-33.6375
 30
0.0
 10
-130.9283
 20
-32.8614
 30
0.0
 10
-132.5416
 20
-32.7576
 30
0.0
 10
-133.9719
 20
-33.355
 30
0.0
 10
-133.9719
 20
-33.355
 30
0.0
 10
-134.1454
 20
-32.1019
 30
0.0
 10
-134.8809
 20
-31.0088
 30
0.0
 10
-135.9542
 20
-30.4087
 30
0.0
 10
-135.9542
 20
-30.4087
 30
0.0
 10
-136.1681
 20
-30.2446
 30
0.0
 10
-136.4267
 20
-30.1546
 30
0.0
 10
-136.6928
 20
-30.1517
 30
0.0
 10
-136.6928
 20
-30.1517
 30
0.0
 10
-136.9586
 20
-30.1546
 30
0.0
 10
-137.2172
 20
-30.2446
 30
0.0
 10
-137.4311
 20
-30.4087
 30
0.0
  0
SPLINE
  5
56
330
1F
100
AcDbEntity
  8
layer 1
 62
     7
370
     9
100
AcDbSpline
210
0.0
220
0.0
230
1.0
 70
    11
 71
     3
 72
    12
 73
     8
 74
     0
 42
0.0000000001
 43
0.0000000001
 12
1.0
 22
0.0
 32
0.0
 13
1.0
 23
0.0
 33
0.0
 40
0.0
 40
0.0
 40
0.0
 40
0.0
 40
0.3333333333333333
 40
0.3333333333333333
 40
0.3333333333333333
 40
0.3333333333333333
 40
1.0
 40
1.0
 40
1.0
 40
1.0
 10
-145.7875
 20
-35.6555
 30
0.0
 10
-144.9602
 20
-38.6031
 30
0.0
 10
-142.5673
 20
-40.7889
 30
0.0
 10
-139.6466
 20
-41.2655
 30
0.0
 10
-139.6466
 20
-41.2655
 30
0.0
 10
-140.674
 20
-38.456
 30
0.0
 10
-142.973
 20
-36.3558
 30
0.0
 10
-145.7875
 20
-35.6555
 30
0.0
  0
SPLINE
  5
57
330
1F
100
AcDbEntity
  8
layer 1
 62
     7
370
     9
100
AcDbSpline
210
0.0
220
0.0
230
1.0
 70
    11
 71
     3
 72
    36
 73
    32
 74
     0
 42
0.0000000001
 43
0.0000000001
 12
1.0
 22
0.0
 32
0.0
 13
1.0
 23
0.0
 33
0.0
 40
0.0
 40
0.0
 40
0.0
 40
0.0
 40
0.1111111111111111
 40
0.1111111111111111
 40
0.1111111111111111
 40
0.1111111111111111
 40
0.2222222222222222
 40
0.2222222222222222
 40
0.2222222222222222
 40
0.2222222222222222
 40
0.3333333333333333
 40
0.3333333333333333
 40
0.3333333333333333
 40
0.3333333333333333
 40
0.4444444444444444
 40
0.4444444444444444
 40
0.4444444444444444
 40
0.4444444444444444
 40
0.5555555555555556
 40
0.5555555555555556
 40
0.5555555555555556
 40
0.5555555555555556
 40
0.6666666666666666
 40
0.6666666666666666
 40
0.6666666666666666
 40
0.6666666666666666
 40
0.7777777777777778
 40
0.7777777777777778
 40
0.7777777777777778
 40
0.7777777777777778
 40
1.0
 40
1.0
 40
1.0
 40
1.0
 10
-151.5008
 20
-43.6063
 30
0.0
 10
-150.7262
 20
-42.562
 30
0.0
 10
-149.6031
 20
-41.8565
 30
0.0
 10
-148.3526
 20
-41.6287
 30
0.0
 10
-148.3526
 20
-41.6287
 30
0.0
 10
-148.8502
 20
-40.3422
 30
0.0
 10
-148.6422
 20
-38.8773
 30
0.0
 10
-147.8087
 20
-37.7947
 30
0.0
 10
-147.8087
 20
-37.7947
 30
0.0
 10
-145.4009
 20
-40.6561
 30
0.0
 10
-142.3531
 20
-42.8596
 30
0.0
 10
-138.9331
 20
-44.2118
 30
0.0
 10
-138.9331
 20
-44.2118
 30
0.0
 10
-142.3531
 20
-45.5638
 30
0.0
 10
-145.4009
 20
-47.7673
 30
0.0
 10
-147.8087
 20
-50.6288
 30
0.0
 10
-147.8087
 20
-50.6288
 30
0.0
 10
-148.6422
 20
-49.546
 30
0.0
 10
-148.8502
 20
-48.0812
 30
0.0
 10
-148.3526
 20
-46.7946
 30
0.0
 10
-148.3526
 20
-46.7946
 30
0.0
 10
-149.6031
 20
-46.5672
 30
0.0
 10
-150.7262
 20
-45.8614
 30
0.0
 10
-151.5008
 20
-44.8171
 30
0.0
 10
-151.5008
 20
-44.8171
 30
0.0
 10
-151.6741
 20
-44.6674
 30
0.0
 10
-151.774
 20
-44.4456
 30
0.0
 10
-151.774
 20
-44.2118
 30
0.0
 10
-151.774
 20
-44.2118
 30
0.0
 10
-151.774
 20
-43.9778
 30
0.0
 10
-151.6741
 20
-43.756
 30
0.0
 10
-151.5008
 20
-43.6063
 30
0.0
  0
SPLINE
  5
58
330
1F
100
AcDbEntity
  8
layer 1
 62
     7
370
     9
100
AcDbSpline
210
0.0
220
0.0
230
1.0
 70
    11
 71
     3
 72
    12
 73
     8
 74
     0
 42
0.0000000001
 43
0.0000000001
 12
1.0
 22
0.0
 32
0.0
 13
1.0
 23
0.0
 33
0.0
 40
0.0
 40
0.0
 40
0.0
 40
0.0
 40
0.3333333333333333
 40
0.3333333333333333
 40
0.3333333333333333
 40
0.3333333333333333
 40
1.0
 40
1.0
 40
1.0
 40
1.0
 10
-148.7664
 20
-29.2788
 30
0.0
 10
-149.5937
 20
-26.3313
 30
0.0
 10
-151.9866
 20
-24.1452
 30
0.0
 10
-154.9073
 20
-23.6688
 30
0.0
 10
-154.9073
 20
-23.6688
 30
0.0
 10
-153.8799
 20
-26.4784
 30
0.0
 10
-151.5809
 20
-28.5786
 30
0.0
 10
-148.7664
 20
-29.2788
 30
0.0
  0
SPLINE
  5
59
330
1F
100
AcDbEntity
  8
layer 1
 62
     7
370
     9
100
AcDbSpline
210
0.0
220
0.0
230
1.0
 70
    11
 71
     3
 72
    36
 73
    32
 74
     0
 42
0.0000000001
 43
0.0000000001
 12
1.0
 22
0.0
 32
0.0
 13
1.0
 23
0.0
 33
0.0
 40
0.0
 40
0.0
 40
0.0
 40
0.0
 40
0.1111111111111111
 40
0.1111111111111111
 40
0.1111111111111111
 40
0.1111111111111111
 40
0.2222222222222222
 40
0.2222222222222222
 40
0.2222222222222222
 40
0.2222222222222222
 40
0.3333333333333333
 40
0.3333333333333333
 40
0.3333333333333333
 40
0.3333333333333333
 40
0.4444444444444444
 40
0.4444444444444444
 40
0.4444444444444444
 40
0.4444444444444444
 40
0.5555555555555556
 40
0.5555555555555556
 40
0.5555555555555556
 40
0.5555555555555556
 40
0.6666666666666666
 40
0.6666666666666666
 40
0.6666666666666666
 40
0.6666666666666666
 40
0.7777777777777778
 40
0.7777777777777778
 40
0.7777777777777778
 40
0.7777777777777778
 40
1.0
 40
1.0
 40
1.0
 40
1.0
 10
-143.0531
 20
-20.1173
 30
0.0
 10
-143.8277
 20
-19.0727
 30
0.0
 10
-144.9508
 20
-18.3672
 30
0.0
 10
-146.2013
 20
-18.1397
 30
0.0
 10
-146.2013
 20
-18.1397
 30
0.0
 10
-145.7038
 20
-16.8532
 30
0.0
 10
-145.9117
 20
-15.3883
 30
0.0
 10
-146.7455
 20
-14.3054
 30
0.0
 10
-146.7455
 20
-14.3054
 30
0.0
 10
-149.1531
 20
-17.1671
 30
0.0
 10
-152.2008
 20
-19.3705
 30
0.0
 10
-155.6209
 20
-20.7225
 30
0.0
 10
-155.6209
 20
-20.7225
 30
0.0
 10
-152.2008
 20
-22.0745
 30
0.0
 10
-149.1531
 20
-24.2782
 30
0.0
 10
-146.7455
 20
-27.1397
 30
0.0
 10
-146.7455
 20
-27.1397
 30
0.0
 10
-145.9117
 20
-26.057
 30
0.0
 10
-145.7038
 20
-24.5921
 30
0.0
 10
-146.2013
 20
-23.3056
 30
0.0
 10
-146.2013
 20
-23.3056
 30
0.0
 10
-144.9508
 20
-23.0779
 30
0.0
 10
-143.8277
 20
-22.3724
 30
0.0
 10
-143.0531
 20
-21.328
 30
0.0
 10
-143.0531
 20
-21.328
 30
0.0
 10
-142.8801
 20
-21.1783
 30
0.0
 10
-142.7799
 20
-20.9566
 30
0.0
 10
-142.7799
 20
-20.7225
 30
0.0
 10
-142.7799
 20
-20.7225
 30
0.0
 10
-142.7799
 20
-20.4887
 30
0.0
 10
-142.8801
 20
-20.2667
 30
0.0
 10
-143.0531
 20
-20.1173
 30
0.0
  0
SPLINE
  5
5A
330
1F
100
AcDbEntity
  8
layer 1
 62
     7
370
     9
100
AcDbSpline
210
0.0
220
0.0
230
1.0
 70
    11
 71
     3
 72
    36
 73
    32
 74
     0
 42
0.0000000001
 43
0.0000000001
 12
1.0
 22
0.0
 32
0.0
 13
1.0
 23
0.0
 33
0.0
 40
0.0
 40
0.0
 40
0.0
 40
0.0
 40
0.1111111111111111
 40
0.1111111111111111
 40
0.1111111111111111
 40
0.1111111111111111
 40
0.2222222222222222
 40
0.2222222222222222
 40
0.2222222222222222
 40
0.2222222222222222
 40
0.3333333333333333
 40
0.3333333333333333
 40
0.3333333333333333
 40
0.3333333333333333
 40
0.4444444444444444
 40
0.4444444444444444
 40
0.4444444444444444
 40
0.4444444444444444
 40
0.5555555555555556
 40
0.5555555555555556
 40
0.5555555555555556
 40
0.5555555555555556
 40
0.6666666666666666
 40
0.6666666666666666
 40
0.6666666666666666
 40
0.6666666666666666
 40
0.7777777777777778
 40
0.7777777777777778
 40
0.7777777777777778
 40
0.7777777777777778
 40
1.0
 40
1.0
 40
1.0
 40
1.0
 10
-158.5997
 20
-34.5257
 30
0.0
 10
-159.673
 20
-33.9256
 30
0.0
 10
-160.4088
 20
-32.8322
 30
0.0
 10
-160.582
 20
-31.5793
 30
0.0
 10
-160.582
 20
-31.5793
 30
0.0
 10
-162.0122
 20
-32.1768
 30
0.0
 10
-163.6256
 20
-32.073
 30
0.0
 10
-164.9739
 20
-31.2968
 30
0.0
 10
-164.9739
 20
-31.2968
 30
0.0
 10
-162.032
 20
-29.1619
 30
0.0
 10
-159.5992
 20
-26.3568
 30
0.0
 10
-157.8614
 20
-23.0961
 30
0.0
 10
-157.8614
 20
-23.0961
 30
0.0
 10
-156.1233
 20
-26.3568
 30
0.0
 10
-153.6902
 20
-29.1619
 30
0.0
 10
-150.7487
 20
-31.2968
 30
0.0
 10
-150.7487
 20
-31.2968
 30
0.0
 10
-152.097
 20
-32.073
 30
0.0
 10
-153.7103
 20
-32.1768
 30
0.0
 10
-155.1405
 20
-31.5793
 30
0.0
 10
-155.1405
 20
-31.5793
 30
0.0
 10
-155.314
 20
-32.8322
 30
0.0
 10
-156.0495
 20
-33.9256
 30
0.0
 10
-157.1228
 20
-34.5257
 30
0.0
 10
-157.1228
 20
-34.5257
 30
0.0
 10
-157.3368
 20
-34.6895
 30
0.0
 10
-157.5953
 20
-34.7795
 30
0.0
 10
-157.8614
 20
-34.7826
 30
0.0
 10
-157.8614
 20
-34.7826
 30
0.0
 10
-158.1272
 20
-34.7795
 30
0.0
 10
-158.3858
 20
-34.6895
 30
0.0
 10
-158.5997
 20
-34.5257
 30
0.0
  0
SPLINE
  5
5B
330
1F
100
AcDbEntity
  8
layer 1
 62
     7
370
     9
100
AcDbSpline
210
0.0
220
0.0
230
1.0
 70
    11
 71
     3
 72
    12
 73
     8
 74
     0
 42
0.0000000001
 43
0.0000000001
 12
1.0
 22
0.0
 32
0.0
 13
1.0
 23
0.0
 33
0.0
 40
0.0
 40
0.0
 40
0.0
 40
0.0
 40
0.3333333333333333
 40
0.3333333333333333
 40
0.3333333333333333
 40
0.3333333333333333
 40
1.0
 40
1.0
 40
1.0
 40
1.0
 10
-166.9562
 20
-29.2788
 30
0.0
 10
-166.1289
 20
-26.3313
 30
0.0
 10
-163.7359
 20
-24.1452
 30
0.0
 10
-160.815
 20
-23.6688
 30
0.0
 10
-160.815
 20
-23.6688
 30
0.0
 10
-161.8426
 20
-26.4784
 30
0.0
 10
-164.1416
 20
-28.5786
 30
0.0
 10
-166.9562
 20
-29.2788
 30
0.0
  0
SPLINE
  5
5C
330
1F
100
AcDbEntity
  8
layer 1
 62
     7
370
     9
100
AcDbSpline
210
0.0
220
0.0
230
1.0
 70
    11
 71
     3
 72
    36
 73
    32
 74
     0
 42
0.0000000001
 43
0.0000000001
 12
1.0
 22
0.0
 32
0.0
 13
1.0
 23
0.0
 33
0.0
 40
0.0
 40
0.0
 40
0.0
 40
0.0
 40
0.1111111111111111
 40
0.1111111111111111
 40
0.1111111111111111
 40
0.1111111111111111
 40
0.2222222222222222
 40
0.2222222222222222
 40
0.2222222222222222
 40
0.2222222222222222
 40
0.3333333333333333
 40
0.3333333333333333
 40
0.3333333333333333
 40
0.3333333333333333
 40
0.4444444444444444
 40
0.4444444444444444
 40
0.4444444444444444
 40
0.4444444444444444
 40
0.5555555555555556
 40
0.5555555555555556
 40
0.5555555555555556
 40
0.5555555555555556
 40
0.6666666666666666
 40
0.6666666666666666
 40
0.6666666666666666
 40
0.6666666666666666
 40
0.7777777777777778
 40
0.7777777777777778
 40
0.7777777777777778
 40
0.7777777777777778
 40
1.0
 40
1.0
 40
1.0
 40
1.0
 10
-158.5997
 20
-6.9197
 30
0.0
 10
-159.673
 20
-7.5198
 30
0.0
 10
-160.4088
 20
-8.6129
 30
0.0
 10
-160.582
 20
-9.866
 30
0.0
 10
-160.582
 20
-9.866
 30
0.0
 10
-162.0122
 20
-9.2685
 30
0.0
 10
-163.6256
 20
-9.3721
 30
0.0
 10
-164.9739
 20
-10.1485
 30
0.0
 10
-164.9739
 20
-10.1485
 30
0.0
 10
-162.032
 20
-12.2834
 30
0.0
 10
-159.5992
 20
-15.0882
 30
0.0
 10
-157.8614
 20
-18.3489
 30
0.0
 10
-157.8614
 20
-18.3489
 30
0.0
 10
-156.1233
 20
-15.0882
 30
0.0
 10
-153.6902
 20
-12.2834
 30
0.0
 10
-150.7487
 20
-10.1485
 30
0.0
 10
-150.7487
 20
-10.1485
 30
0.0
 10
-152.097
 20
-9.3721
 30
0.0
 10
-153.7103
 20
-9.2685
 30
0.0
 10
-155.1405
 20
-9.866
 30
0.0
 10
-155.1405
 20
-9.866
 30
0.0
 10
-155.314
 20
-8.6129
 30
0.0
 10
-156.0495
 20
-7.5198
 30
0.0
 10
-157.1228
 20
-6.9197
 30
0.0
 10
-157.1228
 20
-6.9197
 30
0.0
 10
-157.3368
 20
-6.7556
 30
0.0
 10
-157.5953
 20
-6.6656
 30
0.0
 10
-157.8614
 20
-6.6627
 30
0.0
 10
-157.8614
 20
-6.6627
 30
0.0
 10
-158.1272
 20
-6.6656
 30
0.0
 10
-158.3858
 20
-6.7556
 30
0.0
 10
-158.5997
 20
-6.9197
 30
0.0
  0
SPLINE
  5
5D
330
1F
100
AcDbEntity
  8
layer 1
 62
     7
370
     9
100
AcDbSpline
210
0.0
220
0.0
230
1.0
 70
    11
 71
     3
 72
    12
 73
     8
 74
     0
 42
0.0000000001
 43
0.0000000001
 12
1.0
 22
0.0
 32
0.0
 13
1.0
 23
0.0
 33
0.0
 40
0.0
 40
0.0
 40
0.0
 40
0.0
 40
0.3333333333333333
 40
0.3333333333333333
 40
0.3333333333333333
 40
0.3333333333333333
 40
1.0
 40
1.0
 40
1.0
 40
1.0
 10
-166.9562
 20
-12.1665
 30
0.0
 10
-166.1289
 20
-15.1141
 30
0.0
 10
-163.7359
 20
-17.2998
 30
0.0
 10
-160.815
 20
-17.7762
 30
0.0
 10
-160.815
 20
-17.7762
 30
0.0
 10
-161.8426
 20
-14.967
 30
0.0
 10
-164.1416
 20
-12.8667
 30
0.0
 10
-166.9562
 20
-12.1665
 30
0.0
  0
SPLINE
  5
5E
330
1F
100
AcDbEntity
  8
layer 1
 62
     7
370
     9
100
AcDbSpline
210
0.0
220
0.0
230
1.0
 70
    11
 71
     3
 72
    36
 73
    32
 74
     0
 42
0.0000000001
 43
0.0000000001
 12
1.0
 22
0.0
 32
0.0
 13
1.0
 23
0.0
 33
0.0
 40
0.0
 40
0.0
 40
0.0
 40
0.0
 40
0.1111111111111111
 40
0.1111111111111111
 40
0.1111111111111111
 40
0.1111111111111111
 40
0.2222222222222222
 40
0.2222222222222222
 40
0.2222222222222222
 40
0.2222222222222222
 40
0.3333333333333333
 40
0.3333333333333333
 40
0.3333333333333333
 40
0.3333333333333333
 40
0.4444444444444444
 40
0.4444444444444444
 40
0.4444444444444444
 40
0.4444444444444444
 40
0.5555555555555556
 40
0.5555555555555556
 40
0.5555555555555556
 40
0.5555555555555556
 40
0.6666666666666666
 40
0.6666666666666666
 40
0.6666666666666666
 40
0.6666666666666666
 40
0.7777777777777778
 40
0.7777777777777778
 40
0.7777777777777778
 40
0.7777777777777778
 40
1.0
 40
1.0
 40
1.0
 40
1.0
 10
-172.6694
 20
-20.1173
 30
0.0
 10
-171.8948
 20
-19.0727
 30
0.0
 10
-170.7717
 20
-18.3672
 30
0.0
 10
-169.5213
 20
-18.1397
 30
0.0
 10
-169.5213
 20
-18.1397
 30
0.0
 10
-170.0185
 20
-16.8532
 30
0.0
 10
-169.8109
 20
-15.3883
 30
0.0
 10
-168.9773
 20
-14.3054
 30
0.0
 10
-168.9773
 20
-14.3054
 30
0.0
 10
-166.5695
 20
-17.1671
 30
0.0
 10
-163.5218
 20
-19.3705
 30
0.0
 10
-160.1017
 20
-20.7225
 30
0.0
 10
-160.1017
 20
-20.7225
 30
0.0
 10
-163.5218
 20
-22.0745
 30
0.0
 10
-166.5695
 20
-24.2782
 30
0.0
 10
-168.9773
 20
-27.1397
 30
0.0
 10
-168.9773
 20
-27.1397
 30
0.0
 10
-169.8109
 20
-26.057
 30
0.0
 10
-170.0185
 20
-24.5921
 30
0.0
 10
-169.5213
 20
-23.3056
 30
0.0
 10
-169.5213
 20
-23.3056
 30
0.0
 10
-170.7717
 20
-23.0779
 30
0.0
 10
-171.8948
 20
-22.3724
 30
0.0
 10
-172.6694
 20
-21.328
 30
0.0
 10
-172.6694
 20
-21.328
 30
0.0
 10
-172.8424
 20
-21.1783
 30
0.0
 10
-172.9426
 20
-20.9566
 30
0.0
 10
-172.9426
 20
-20.7225
 30
0.0
 10
-172.9426
 20
-20.7225
 30
0.0
 10
-172.9426
 20
-20.4887
 30
0.0
 10
-172.8424
 20
-20.2667
 30
0.0
 10
-172.6694
 20
-20.1173
 30
0.0
  0
SPLINE
  5
5F
330
1F
100
AcDbEntity
  8
layer 1
 62
     7
370
     9
100
AcDbSpline
210
0.0
220
0.0
230
1.0
 70
    11
 71
     3
 72
    36
 73
    32
 74
     0
 42
0.0000000001
 43
0.0000000001
 12
1.0
 22
0.0
 32
0.0
 13
1.0
 23
0.0
 33
0.0
 40
0.0
 40
0.0
 40
0.0
 40
0.0
 40
0.1111111111111111
 40
0.1111111111111111
 40
0.1111111111111111
 40
0.1111111111111111
 40
0.2222222222222222
 40
0.2222222222222222
 40
0.2222222222222222
 40
0.2222222222222222
 40
0.3333333333333333
 40
0.3333333333333333
 40
0.3333333333333333
 40
0.3333333333333333
 40
0.4444444444444444
 40
0.4444444444444444
 40
0.4444444444444444
 40
0.4444444444444444
 40
0.5555555555555556
 40
0.5555555555555556
 40
0.5555555555555556
 40
0.5555555555555556
 40
0.6666666666666666
 40
0.6666666666666666
 40
0.6666666666666666
 40
0.6666666666666666
 40
0.7777777777777778
 40
0.7777777777777778
 40
0.7777777777777778
 40
0.7777777777777778
 40
1.0
 40
1.0
 40
1.0
 40
1.0
 10
-116.1184
 20
-23.1037
 30
0.0
 10
-114.3804
 20
-26.3644
 30
0.0
 10
-111.9475
 20
-29.1692
 30
0.0
 10
-109.0057
 20
-31.3044
 30
0.0
 10
-109.0057
 20
-31.3044
 30
0.0
 10
-110.354
 20
-32.0805
 30
0.0
 10
-111.9673
 20
-32.1844
 30
0.0
 10
-113.3976
 20
-31.5867
 30
0.0
 10
-113.3976
 20
-31.5867
 30
0.0
 10
-113.5711
 20
-32.8397
 30
0.0
 10
-114.3065
 20
-33.9328
 30
0.0
 10
-115.3801
 20
-34.5329
 30
0.0
 10
-115.3801
 20
-34.5329
 30
0.0
 10
-115.594
 20
-34.697
 30
0.0
 10
-115.8524
 20
-34.787
 30
0.0
 10
-116.1184
 20
-34.7902
 30
0.0
 10
-116.1184
 20
-34.7902
 30
0.0
 10
-116.3845
 20
-34.787
 30
0.0
 10
-116.6429
 20
-34.697
 30
0.0
 10
-116.8567
 20
-34.5329
 30
0.0
 10
-116.8567
 20
-34.5329
 30
0.0
 10
-117.9303
 20
-33.9328
 30
0.0
 10
-118.6658
 20
-32.8397
 30
0.0
 10
-118.8391
 20
-31.5867
 30
0.0
 10
-118.8391
 20
-31.5867
 30
0.0
 10
-120.2693
 20
-32.1844
 30
0.0
 10
-121.8829
 20
-32.0805
 30
0.0
 10
-123.2309
 20
-31.3044
 30
0.0
 10
-123.2309
 20
-31.3044
 30
0.0
 10
-120.2893
 20
-29.1692
 30
0.0
 10
-117.8565
 20
-26.3644
 30
0.0
 10
-116.1184
 20
-23.1037
 30
0.0
  0
SPLINE
  5
60
330
1F
100
AcDbEntity
  8
layer 1
 62
     7
370
     9
100
AcDbSpline
210
0.0
220
0.0
230
1.0
 70
    11
 71
     3
 72
    12
 73
     8
 74
     0
 42
0.0000000001
 43
0.0000000001
 12
1.0
 22
0.0
 32
0.0
 13
1.0
 23
0.0
 33
0.0
 40
0.0
 40
0.0
 40
0.0
 40
0.0
 40
0.3333333333333333
 40
0.3333333333333333
 40
0.3333333333333333
 40
0.3333333333333333
 40
1.0
 40
1.0
 40
1.0
 40
1.0
 10
-125.2132
 20
-29.2864
 30
0.0
 10
-124.3859
 20
-26.3388
 30
0.0
 10
-121.9932
 20
-24.1528
 30
0.0
 10
-119.0722
 20
-23.6764
 30
0.0
 10
-119.0722
 20
-23.6764
 30
0.0
 10
-120.0999
 20
-26.486
 30
0.0
 10
-122.3987
 20
-28.5861
 30
0.0
 10
-125.2132
 20
-29.2864
 30
0.0
  0
SPLINE
  5
61
330
1F
100
AcDbEntity
  8
layer 1
 62
     7
370
     9
100
AcDbSpline
210
0.0
220
0.0
230
1.0
 70
    11
 71
     3
 72
    36
 73
    32
 74
     0
 42
0.0000000001
 43
0.0000000001
 12
1.0
 22
0.0
 32
0.0
 13
1.0
 23
0.0
 33
0.0
 40
0.0
 40
0.0
 40
0.0
 40
0.0
 40
0.1111111111111111
 40
0.1111111111111111
 40
0.1111111111111111
 40
0.1111111111111111
 40
0.2222222222222222
 40
0.2222222222222222
 40
0.2222222222222222
 40
0.2222222222222222
 40
0.3333333333333333
 40
0.3333333333333333
 40
0.3333333333333333
 40
0.3333333333333333
 40
0.4444444444444444
 40
0.4444444444444444
 40
0.4444444444444444
 40
0.4444444444444444
 40
0.5555555555555556
 40
0.5555555555555556
 40
0.5555555555555556
 40
0.5555555555555556
 40
0.6666666666666666
 40
0.6666666666666666
 40
0.6666666666666666
 40
0.6666666666666666
 40
0.7777777777777778
 40
0.7777777777777778
 40
0.7777777777777778
 40
0.7777777777777778
 40
1.0
 40
1.0
 40
1.0
 40
1.0
 10
-116.1184
 20
-18.3565
 30
0.0
 10
-114.3804
 20
-15.0959
 30
0.0
 10
-111.9475
 20
-12.291
 30
0.0
 10
-109.0057
 20
-10.1561
 30
0.0
 10
-109.0057
 20
-10.1561
 30
0.0
 10
-110.354
 20
-9.3799
 30
0.0
 10
-111.9673
 20
-9.2761
 30
0.0
 10
-113.3976
 20
-9.8735
 30
0.0
 10
-113.3976
 20
-9.8735
 30
0.0
 10
-113.5711
 20
-8.6204
 30
0.0
 10
-114.3065
 20
-7.5273
 30
0.0
 10
-115.3801
 20
-6.9273
 30
0.0
 10
-115.3801
 20
-6.9273
 30
0.0
 10
-115.594
 20
-6.7632
 30
0.0
 10
-115.8524
 20
-6.6732
 30
0.0
 10
-116.1184
 20
-6.67
 30
0.0
 10
-116.1184
 20
-6.67
 30
0.0
 10
-116.3845
 20
-6.6732
 30
0.0
 10
-116.6429
 20
-6.7632
 30
0.0
 10
-116.8567
 20
-6.9273
 30
0.0
 10
-116.8567
 20
-6.9273
 30
0.0
 10
-117.9303
 20
-7.5273
 30
0.0
 10
-118.6658
 20
-8.6204
 30
0.0
 10
-118.8391
 20
-9.8735
 30
0.0
 10
-118.8391
 20
-9.8735
 30
0.0
 10
-120.2693
 20
-9.2761
 30
0.0
 10
-121.8829
 20
-9.3799
 30
0.0
 10
-123.2309
 20
-10.1561
 30
0.0
 10
-123.2309
 20
-10.1561
 30
0.0
 10
-120.2893
 20
-12.291
 30
0.0
 10
-117.8565
 20
-15.0959
 30
0.0
 10
-116.1184
 20
-18.3565
 30
0.0
  0
SPLINE
  5
62
330
1F
100
AcDbEntity
  8
layer 1
 62
     7
370
     9
100
AcDbSpline
210
0.0
220
0.0
230
1.0
 70
    11
 71
     3
 72
    12
 73
     8
 74
     0
 42
0.0000000001
 43
0.0000000001
 12
1.0
 22
0.0
 32
0.0
 13
1.0
 23
0.0
 33
0.0
 40
0.0
 40
0.0
 40
0.0
 40
0.0
 40
0.3333333333333333
 40
0.3333333333333333
 40
0.3333333333333333
 40
0.3333333333333333
 40
1.0
 40
1.0
 40
1.0
 40
1.0
 10
-125.2132
 20
-12.1741
 30
0.0
 10
-124.3859
 20
-15.1217
 30
0.0
 10
-121.9932
 20
-17.3075
 30
0.0
 10
-119.0722
 20
-17.7838
 30
0.0
 10
-119.0722
 20
-17.7838
 30
0.0
 10
-120.0999
 20
-14.9743
 30
0.0
 10
-122.3987
 20
-12.8741
 30
0.0
 10
-125.2132
 20
-12.1741
 30
0.0
  0
SPLINE
  5
63
330
1F
100
AcDbEntity
  8
layer 1
 62
     7
370
     9
100
AcDbSpline
210
0.0
220
0.0
230
1.0
 70
    11
 71
     3
 72
    36
 73
    32
 74
     0
 42
0.0000000001
 43
0.0000000001
 12
1.0
 22
0.0
 32
0.0
 13
1.0
 23
0.0
 33
0.0
 40
0.0
 40
0.0
 40
0.0
 40
0.0
 40
0.1111111111111111
 40
0.1111111111111111
 40
0.1111111111111111
 40
0.1111111111111111
 40
0.2222222222222222
 40
0.2222222222222222
 40
0.2222222222222222
 40
0.2222222222222222
 40
0.3333333333333333
 40
0.3333333333333333
 40
0.3333333333333333
 40
0.3333333333333333
 40
0.4444444444444444
 40
0.4444444444444444
 40
0.4444444444444444
 40
0.4444444444444444
 40
0.5555555555555556
 40
0.5555555555555556
 40
0.5555555555555556
 40
0.5555555555555556
 40
0.6666666666666666
 40
0.6666666666666666
 40
0.6666666666666666
 40
0.6666666666666666
 40
0.7777777777777778
 40
0.7777777777777778
 40
0.7777777777777778
 40
0.7777777777777778
 40
1.0
 40
1.0
 40
1.0
 40
1.0
 10
-130.9265
 20
-20.1248
 30
0.0
 10
-130.1522
 20
-19.0802
 30
0.0
 10
-129.029
 20
-18.3748
 30
0.0
 10
-127.7786
 20
-18.1473
 30
0.0
 10
-127.7786
 20
-18.1473
 30
0.0
 10
-128.2758
 20
-16.8608
 30
0.0
 10
-128.0679
 20
-15.3959
 30
0.0
 10
-127.2343
 20
-14.3129
 30
0.0
 10
-127.2343
 20
-14.3129
 30
0.0
 10
-124.8265
 20
-17.1746
 30
0.0
 10
-121.7788
 20
-19.3782
 30
0.0
 10
-118.359
 20
-20.7301
 30
0.0
 10
-118.359
 20
-20.7301
 30
0.0
 10
-121.7788
 20
-22.0821
 30
0.0
 10
-124.8265
 20
-24.2858
 30
0.0
 10
-127.2343
 20
-27.1473
 30
0.0
 10
-127.2343
 20
-27.1473
 30
0.0
 10
-128.0679
 20
-26.0646
 30
0.0
 10
-128.2758
 20
-24.5997
 30
0.0
 10
-127.7786
 20
-23.3132
 30
0.0
 10
-127.7786
 20
-23.3132
 30
0.0
 10
-129.029
 20
-23.0854
 30
0.0
 10
-130.1522
 20
-22.38
 30
0.0
 10
-130.9265
 20
-21.3357
 30
0.0
 10
-130.9265
 20
-21.3357
 30
0.0
 10
-131.0997
 20
-21.1859
 30
0.0
 10
-131.1997
 20
-20.9641
 30
0.0
 10
-131.1997
 20
-20.7301
 30
0.0
 10
-131.1997
 20
-20.7301
 30
0.0
 10
-131.1997
 20
-20.4964
 30
0.0
 10
-131.0997
 20
-20.2746
 30
0.0
 10
-130.9265
 20
-20.1248
 30
0.0
  0
SPLINE
  5
64
330
1F
100
AcDbEntity
  8
layer 1
 62
     7
370
     9
100
AcDbSpline
210
0.0
220
0.0
230
1.0
 70
    11
 71
     3
 72
    36
 73
    32
 74
     0
 42
0.0000000001
 43
0.0000000001
 12
1.0
 22
0.0
 32
0.0
 13
1.0
 23
0.0
 33
0.0
 40
0.0
 40
0.0
 40
0.0
 40
0.0
 40
0.1111111111111111
 40
0.1111111111111111
 40
0.1111111111111111
 40
0.1111111111111111
 40
0.2222222222222222
 40
0.2222222222222222
 40
0.2222222222222222
 40
0.2222222222222222
 40
0.3333333333333333
 40
0.3333333333333333
 40
0.3333333333333333
 40
0.3333333333333333
 40
0.4444444444444444
 40
0.4444444444444444
 40
0.4444444444444444
 40
0.4444444444444444
 40
0.5555555555555556
 40
0.5555555555555556
 40
0.5555555555555556
 40
0.5555555555555556
 40
0.6666666666666666
 40
0.6666666666666666
 40
0.6666666666666666
 40
0.6666666666666666
 40
0.7777777777777778
 40
0.7777777777777778
 40
0.7777777777777778
 40
0.7777777777777778
 40
1.0
 40
1.0
 40
1.0
 40
1.0
 10
-116.1184
 20
-65.3752
 30
0.0
 10
-114.3804
 20
-62.1146
 30
0.0
 10
-111.9475
 20
-59.3095
 30
0.0
 10
-109.0057
 20
-57.1746
 30
0.0
 10
-109.0057
 20
-57.1746
 30
0.0
 10
-110.354
 20
-56.3984
 30
0.0
 10
-111.9673
 20
-56.2946
 30
0.0
 10
-113.3976
 20
-56.892
 30
0.0
 10
-113.3976
 20
-56.892
 30
0.0
 10
-113.5711
 20
-55.6393
 30
0.0
 10
-114.3065
 20
-54.5458
 30
0.0
 10
-115.3801
 20
-53.9458
 30
0.0
 10
-115.3801
 20
-53.9458
 30
0.0
 10
-115.594
 20
-53.7819
 30
0.0
 10
-115.8524
 20
-53.6919
 30
0.0
 10
-116.1184
 20
-53.6888
 30
0.0
 10
-116.1184
 20
-53.6888
 30
0.0
 10
-116.3845
 20
-53.6919
 30
0.0
 10
-116.6429
 20
-53.7819
 30
0.0
 10
-116.8567
 20
-53.9458
 30
0.0
 10
-116.8567
 20
-53.9458
 30
0.0
 10
-117.9303
 20
-54.5458
 30
0.0
 10
-118.6658
 20
-55.6393
 30
0.0
 10
-118.8391
 20
-56.892
 30
0.0
 10
-118.8391
 20
-56.892
 30
0.0
 10
-120.2693
 20
-56.2946
 30
0.0
 10
-121.8829
 20
-56.3984
 30
0.0
 10
-123.2309
 20
-57.1746
 30
0.0
 10
-123.2309
 20
-57.1746
 30
0.0
 10
-120.2893
 20
-59.3095
 30
0.0
 10
-117.8565
 20
-62.1146
 30
0.0
 10
-116.1184
 20
-65.3752
 30
0.0
  0
SPLINE
  5
65
330
1F
100
AcDbEntity
  8
layer 1
 62
     7
370
     9
100
AcDbSpline
210
0.0
220
0.0
230
1.0
 70
    11
 71
     3
 72
    12
 73
     8
 74
     0
 42
0.0000000001
 43
0.0000000001
 12
1.0
 22
0.0
 32
0.0
 13
1.0
 23
0.0
 33
0.0
 40
0.0
 40
0.0
 40
0.0
 40
0.0
 40
0.3333333333333333
 40
0.3333333333333333
 40
0.3333333333333333
 40
0.3333333333333333
 40
1.0
 40
1.0
 40
1.0
 40
1.0
 10
-125.2132
 20
-59.1926
 30
0.0
 10
-124.3859
 20
-62.1402
 30
0.0
 10
-121.9932
 20
-64.3262
 30
0.0
 10
-119.0722
 20
-64.8026
 30
0.0
 10
-119.0722
 20
-64.8026
 30
0.0
 10
-120.0999
 20
-61.993
 30
0.0
 10
-122.3987
 20
-59.8928
 30
0.0
 10
-125.2132
 20
-59.1926
 30
0.0
  0
SPLINE
  5
66
330
1F
100
AcDbEntity
  8
layer 1
 62
     7
370
     9
100
AcDbSpline
210
0.0
220
0.0
230
1.0
 70
    11
 71
     3
 72
    36
 73
    32
 74
     0
 42
0.0000000001
 43
0.0000000001
 12
1.0
 22
0.0
 32
0.0
 13
1.0
 23
0.0
 33
0.0
 40
0.0
 40
0.0
 40
0.0
 40
0.0
 40
0.1111111111111111
 40
0.1111111111111111
 40
0.1111111111111111
 40
0.1111111111111111
 40
0.2222222222222222
 40
0.2222222222222222
 40
0.2222222222222222
 40
0.2222222222222222
 40
0.3333333333333333
 40
0.3333333333333333
 40
0.3333333333333333
 40
0.3333333333333333
 40
0.4444444444444444
 40
0.4444444444444444
 40
0.4444444444444444
 40
0.4444444444444444
 40
0.5555555555555556
 40
0.5555555555555556
 40
0.5555555555555556
 40
0.5555555555555556
 40
0.6666666666666666
 40
0.6666666666666666
 40
0.6666666666666666
 40
0.6666666666666666
 40
0.7777777777777778
 40
0.7777777777777778
 40
0.7777777777777778
 40
0.7777777777777778
 40
1.0
 40
1.0
 40
1.0
 40
1.0
 10
-116.1184
 20
-70.1225
 30
0.0
 10
-114.3804
 20
-73.3831
 30
0.0
 10
-111.9475
 20
-76.188
 30
0.0
 10
-109.0057
 20
-78.3229
 30
0.0
 10
-109.0057
 20
-78.3229
 30
0.0
 10
-110.354
 20
-79.0991
 30
0.0
 10
-111.9673
 20
-79.203
 30
0.0
 10
-113.3976
 20
-78.6054
 30
0.0
 10
-113.3976
 20
-78.6054
 30
0.0
 10
-113.5711
 20
-79.8584
 30
0.0
 10
-114.3065
 20
-80.9517
 30
0.0
 10
-115.3801
 20
-81.5517
 30
0.0
 10
-115.3801
 20
-81.5517
 30
0.0
 10
-115.594
 20
-81.7158
 30
0.0
 10
-115.8524
 20
-81.8058
 30
0.0
 10
-116.1184
 20
-81.8087
 30
0.0
 10
-116.1184
 20
-81.8087
 30
0.0
 10
-116.3845
 20
-81.8058
 30
0.0
 10
-116.6429
 20
-81.7158
 30
0.0
 10
-116.8567
 20
-81.5517
 30
0.0
 10
-116.8567
 20
-81.5517
 30
0.0
 10
-117.9303
 20
-80.9517
 30
0.0
 10
-118.6658
 20
-79.8584
 30
0.0
 10
-118.8391
 20
-78.6054
 30
0.0
 10
-118.8391
 20
-78.6054
 30
0.0
 10
-120.2693
 20
-79.203
 30
0.0
 10
-121.8829
 20
-79.0991
 30
0.0
 10
-123.2309
 20
-78.3229
 30
0.0
 10
-123.2309
 20
-78.3229
 30
0.0
 10
-120.2893
 20
-76.188
 30
0.0
 10
-117.8565
 20
-73.3831
 30
0.0
 10
-116.1184
 20
-70.1225
 30
0.0
  0
SPLINE
  5
67
330
1F
100
AcDbEntity
  8
layer 1
 62
     7
370
     9
100
AcDbSpline
210
0.0
220
0.0
230
1.0
 70
    11
 71
     3
 72
    12
 73
     8
 74
     0
 42
0.0000000001
 43
0.0000000001
 12
1.0
 22
0.0
 32
0.0
 13
1.0
 23
0.0
 33
0.0
 40
0.0
 40
0.0
 40
0.0
 40
0.0
 40
0.3333333333333333
 40
0.3333333333333333
 40
0.3333333333333333
 40
0.3333333333333333
 40
1.0
 40
1.0
 40
1.0
 40
1.0
 10
-125.2132
 20
-76.305
 30
0.0
 10
-124.3859
 20
-73.3574
 30
0.0
 10
-121.9932
 20
-71.1715
 30
0.0
 10
-119.0722
 20
-70.6949
 30
0.0
 10
-119.0722
 20
-70.6949
 30
0.0
 10
-120.0999
 20
-73.5046
 30
0.0
 10
-122.3987
 20
-75.6047
 30
0.0
 10
-125.2132
 20
-76.305
 30
0.0
  0
SPLINE
  5
68
330
1F
100
AcDbEntity
  8
layer 1
 62
     7
370
     9
100
AcDbSpline
210
0.0
220
0.0
230
1.0
 70
    11
 71
     3
 72
    36
 73
    32
 74
     0
 42
0.0000000001
 43
0.0000000001
 12
1.0
 22
0.0
 32
0.0
 13
1.0
 23
0.0
 33
0.0
 40
0.0
 40
0.0
 40
0.0
 40
0.0
 40
0.1111111111111111
 40
0.1111111111111111
 40
0.1111111111111111
 40
0.1111111111111111
 40
0.2222222222222222
 40
0.2222222222222222
 40
0.2222222222222222
 40
0.2222222222222222
 40
0.3333333333333333
 40
0.3333333333333333
 40
0.3333333333333333
 40
0.3333333333333333
 40
0.4444444444444444
 40
0.4444444444444444
 40
0.4444444444444444
 40
0.4444444444444444
 40
0.5555555555555556
 40
0.5555555555555556
 40
0.5555555555555556
 40
0.5555555555555556
 40
0.6666666666666666
 40
0.6666666666666666
 40
0.6666666666666666
 40
0.6666666666666666
 40
0.7777777777777778
 40
0.7777777777777778
 40
0.7777777777777778
 40
0.7777777777777778
 40
1.0
 40
1.0
 40
1.0
 40
1.0
 10
-130.9265
 20
-68.3541
 30
0.0
 10
-130.1522
 20
-69.3988
 30
0.0
 10
-129.029
 20
-70.1039
 30
0.0
 10
-127.7786
 20
-70.3317
 30
0.0
 10
-127.7786
 20
-70.3317
 30
0.0
 10
-128.2758
 20
-71.6181
 30
0.0
 10
-128.0679
 20
-73.083
 30
0.0
 10
-127.2343
 20
-74.1659
 30
0.0
 10
-127.2343
 20
-74.1659
 30
0.0
 10
-124.8265
 20
-71.3043
 30
0.0
 10
-121.7788
 20
-69.1008
 30
0.0
 10
-118.359
 20
-67.7489
 30
0.0
 10
-118.359
 20
-67.7489
 30
0.0
 10
-121.7788
 20
-66.3969
 30
0.0
 10
-124.8265
 20
-64.1932
 30
0.0
 10
-127.2343
 20
-61.3317
 30
0.0
 10
-127.2343
 20
-61.3317
 30
0.0
 10
-128.0679
 20
-62.4143
 30
0.0
 10
-128.2758
 20
-63.8793
 30
0.0
 10
-127.7786
 20
-65.1657
 30
0.0
 10
-127.7786
 20
-65.1657
 30
0.0
 10
-129.029
 20
-65.3935
 30
0.0
 10
-130.1522
 20
-66.099
 30
0.0
 10
-130.9265
 20
-67.1433
 30
0.0
 10
-130.9265
 20
-67.1433
 30
0.0
 10
-131.0997
 20
-67.2931
 30
0.0
 10
-131.1997
 20
-67.5148
 30
0.0
 10
-131.1997
 20
-67.7489
 30
0.0
 10
-131.1997
 20
-67.7489
 30
0.0
 10
-131.1997
 20
-67.9826
 30
0.0
 10
-131.0997
 20
-68.2044
 30
0.0
 10
-130.9265
 20
-68.3541
 30
0.0
  0
SPLINE
  5
69
330
1F
100
AcDbEntity
  8
layer 1
 62
     7
370
     9
100
AcDbSpline
210
0.0
220
0.0
230
1.0
 70
    11
 71
     3
 72
    12
 73
     8
 74
     0
 42
0.0000000001
 43
0.0000000001
 12
1.0
 22
0.0
 32
0.0
 13
1.0
 23
0.0
 33
0.0
 40
0.0
 40
0.0
 40
0.0
 40
0.0
 40
0.3333333333333333
 40
0.3333333333333333
 40
0.3333333333333333
 40
0.3333333333333333
 40
1.0
 40
1.0
 40
1.0
 40
1.0
 10
-127.5977
 20
11.3228
 30
0.0
 10
-128.4251
 20
8.3752
 30
0.0
 10
-130.8179
 20
6.1892
 30
0.0
 10
-133.7389
 20
5.7128
 30
0.0
 10
-133.7389
 20
5.7128
 30
0.0
 10
-132.7113
 20
8.5223
 30
0.0
 10
-130.4123
 20
10.6225
 30
0.0
 10
-127.5977
 20
11.3228
 30
0.0
  0
SPLINE
  5
6A
330
1F
100
AcDbEntity
  8
layer 1
 62
     7
370
     9
100
AcDbSpline
210
0.0
220
0.0
230
1.0
 70
    11
 71
     3
 72
    36
 73
    32
 74
     0
 42
0.0000000001
 43
0.0000000001
 12
1.0
 22
0.0
 32
0.0
 13
1.0
 23
0.0
 33
0.0
 40
0.0
 40
0.0
 40
0.0
 40
0.0
 40
0.1111111111111111
 40
0.1111111111111111
 40
0.1111111111111111
 40
0.1111111111111111
 40
0.2222222222222222
 40
0.2222222222222222
 40
0.2222222222222222
 40
0.2222222222222222
 40
0.3333333333333333
 40
0.3333333333333333
 40
0.3333333333333333
 40
0.3333333333333333
 40
0.4444444444444444
 40
0.4444444444444444
 40
0.4444444444444444
 40
0.4444444444444444
 40
0.5555555555555556
 40
0.5555555555555556
 40
0.5555555555555556
 40
0.5555555555555556
 40
0.6666666666666666
 40
0.6666666666666666
 40
0.6666666666666666
 40
0.6666666666666666
 40
0.7777777777777778
 40
0.7777777777777778
 40
0.7777777777777778
 40
0.7777777777777778
 40
1.0
 40
1.0
 40
1.0
 40
1.0
 10
-137.4311
 20
16.5694
 30
0.0
 10
-138.5044
 20
15.9695
 30
0.0
 10
-139.2401
 20
14.8761
 30
0.0
 10
-139.4134
 20
13.6233
 30
0.0
 10
-139.4134
 20
13.6233
 30
0.0
 10
-140.8436
 20
14.2208
 30
0.0
 10
-142.457
 20
14.117
 30
0.0
 10
-143.8052
 20
13.3407
 30
0.0
 10
-143.8052
 20
13.3407
 30
0.0
 10
-140.8637
 20
11.2059
 30
0.0
 10
-138.4308
 20
8.4008
 30
0.0
 10
-136.6928
 20
5.1401
 30
0.0
 10
-136.6928
 20
5.1401
 30
0.0
 10
-134.9547
 20
8.4008
 30
0.0
 10
-132.5218
 20
11.2059
 30
0.0
 10
-129.58
 20
13.3407
 30
0.0
 10
-129.58
 20
13.3407
 30
0.0
 10
-130.9283
 20
14.117
 30
0.0
 10
-132.5416
 20
14.2208
 30
0.0
 10
-133.9719
 20
13.6233
 30
0.0
 10
-133.9719
 20
13.6233
 30
0.0
 10
-134.1454
 20
14.8761
 30
0.0
 10
-134.8809
 20
15.9695
 30
0.0
 10
-135.9542
 20
16.5694
 30
0.0
 10
-135.9542
 20
16.5694
 30
0.0
 10
-136.1681
 20
16.7335
 30
0.0
 10
-136.4267
 20
16.8235
 30
0.0
 10
-136.6928
 20
16.8266
 30
0.0
 10
-136.6928
 20
16.8266
 30
0.0
 10
-136.9586
 20
16.8235
 30
0.0
 10
-137.2172
 20
16.7335
 30
0.0
 10
-137.4311
 20
16.5694
 30
0.0
  0
SPLINE
  5
6B
330
1F
100
AcDbEntity
  8
layer 1
 62
     7
370
     9
100
AcDbSpline
210
0.0
220
0.0
230
1.0
 70
    11
 71
     3
 72
    12
 73
     8
 74
     0
 42
0.0000000001
 43
0.0000000001
 12
1.0
 22
0.0
 32
0.0
 13
1.0
 23
0.0
 33
0.0
 40
0.0
 40
0.0
 40
0.0
 40
0.0
 40
0.3333333333333333
 40
0.3333333333333333
 40
0.3333333333333333
 40
0.3333333333333333
 40
1.0
 40
1.0
 40
1.0
 40
1.0
 10
-145.7875
 20
11.3228
 30
0.0
 10
-144.9602
 20
8.3752
 30
0.0
 10
-142.5673
 20
6.1892
 30
0.0
 10
-139.6466
 20
5.7128
 30
0.0
 10
-139.6466
 20
5.7128
 30
0.0
 10
-140.674
 20
8.5223
 30
0.0
 10
-142.973
 20
10.6225
 30
0.0
 10
-145.7875
 20
11.3228
 30
0.0
  0
SPLINE
  5
6C
330
1F
100
AcDbEntity
  8
layer 1
 62
     7
370
     9
100
AcDbSpline
210
0.0
220
0.0
230
1.0
 70
    11
 71
     3
 72
    12
 73
     8
 74
     0
 42
0.0000000001
 43
0.0000000001
 12
1.0
 22
0.0
 32
0.0
 13
1.0
 23
0.0
 33
0.0
 40
0.0
 40
0.0
 40
0.0
 40
0.0
 40
0.3333333333333333
 40
0.3333333333333333
 40
0.3333333333333333
 40
0.3333333333333333
 40
1.0
 40
1.0
 40
1.0
 40
1.0
 10
-148.7664
 20
17.6995
 30
0.0
 10
-149.5937
 20
20.6471
 30
0.0
 10
-151.9866
 20
22.8329
 30
0.0
 10
-154.9073
 20
23.3095
 30
0.0
 10
-154.9073
 20
23.3095
 30
0.0
 10
-153.8799
 20
20.4999
 30
0.0
 10
-151.5809
 20
18.3998
 30
0.0
 10
-148.7664
 20
17.6995
 30
0.0
  0
SPLINE
  5
6D
330
1F
100
AcDbEntity
  8
layer 1
 62
     7
370
     9
100
AcDbSpline
210
0.0
220
0.0
230
1.0
 70
    11
 71
     3
 72
    12
 73
     8
 74
     0
 42
0.0000000001
 43
0.0000000001
 12
1.0
 22
0.0
 32
0.0
 13
1.0
 23
0.0
 33
0.0
 40
0.0
 40
0.0
 40
0.0
 40
0.0
 40
0.3333333333333333
 40
0.3333333333333333
 40
0.3333333333333333
 40
0.3333333333333333
 40
1.0
 40
1.0
 40
1.0
 40
1.0
 10
-148.7664
 20
64.6778
 30
0.0
 10
-151.5809
 20
65.3781
 30
0.0
 10
-153.8799
 20
67.4783
 30
0.0
 10
-154.9073
 20
70.2876
 30
0.0
 10
-154.9073
 20
70.2876
 30
0.0
 10
-151.9866
 20
69.8112
 30
0.0
 10
-149.5937
 20
67.6254
 30
0.0
 10
-148.7664
 20
64.6778
 30
0.0
  0
SPLINE
  5
6E
330
1F
100
AcDbEntity
  8
layer 1
 62
     7
370
     9
100
AcDbSpline
210
0.0
220
0.0
230
1.0
 70
    11
 71
     3
 72
    12
 73
     8
 74
     0
 42
0.0000000001
 43
0.0000000001
 12
1.0
 22
0.0
 32
0.0
 13
1.0
 23
0.0
 33
0.0
 40
0.0
 40
0.0
 40
0.0
 40
0.0
 40
0.3333333333333333
 40
0.3333333333333333
 40
0.3333333333333333
 40
0.3333333333333333
 40
1.0
 40
1.0
 40
1.0
 40
1.0
 10
-148.7664
 20
81.7901
 30
0.0
 10
-149.5937
 20
78.8425
 30
0.0
 10
-151.9866
 20
76.6565
 30
0.0
 10
-154.9073
 20
76.1801
 30
0.0
 10
-154.9073
 20
76.1801
 30
0.0
 10
-153.8799
 20
78.9897
 30
0.0
 10
-151.5809
 20
81.0899
 30
0.0
 10
-148.7664
 20
81.7901
 30
0.0
  0
SPLINE
  5
6F
330
1F
100
AcDbEntity
  8
layer 1
 62
     7
370
     9
100
AcDbSpline
210
0.0
220
0.0
230
1.0
 70
    11
 71
     3
 72
    36
 73
    32
 74
     0
 42
0.0000000001
 43
0.0000000001
 12
1.0
 22
0.0
 32
0.0
 13
1.0
 23
0.0
 33
0.0
 40
0.0
 40
0.0
 40
0.0
 40
0.0
 40
0.1111111111111111
 40
0.1111111111111111
 40
0.1111111111111111
 40
0.1111111111111111
 40
0.2222222222222222
 40
0.2222222222222222
 40
0.2222222222222222
 40
0.2222222222222222
 40
0.3333333333333333
 40
0.3333333333333333
 40
0.3333333333333333
 40
0.3333333333333333
 40
0.4444444444444444
 40
0.4444444444444444
 40
0.4444444444444444
 40
0.4444444444444444
 40
0.5555555555555556
 40
0.5555555555555556
 40
0.5555555555555556
 40
0.5555555555555556
 40
0.6666666666666666
 40
0.6666666666666666
 40
0.6666666666666666
 40
0.6666666666666666
 40
0.7777777777777778
 40
0.7777777777777778
 40
0.7777777777777778
 40
0.7777777777777778
 40
1.0
 40
1.0
 40
1.0
 40
1.0
 10
-143.0531
 20
73.8394
 30
0.0
 10
-143.8277
 20
74.8837
 30
0.0
 10
-144.9508
 20
75.5892
 30
0.0
 10
-146.2013
 20
75.8169
 30
0.0
 10
-146.2013
 20
75.8169
 30
0.0
 10
-145.7038
 20
77.1034
 30
0.0
 10
-145.9117
 20
78.5683
 30
0.0
 10
-146.7455
 20
79.6511
 30
0.0
 10
-146.7455
 20
79.6511
 30
0.0
 10
-149.1531
 20
76.7896
 30
0.0
 10
-152.2008
 20
74.5858
 30
0.0
 10
-155.6209
 20
73.2339
 30
0.0
 10
-155.6209
 20
73.2339
 30
0.0
 10
-152.2008
 20
71.8819
 30
0.0
 10
-149.1531
 20
69.6784
 30
0.0
 10
-146.7455
 20
66.8166
 30
0.0
 10
-146.7455
 20
66.8166
 30
0.0
 10
-145.9117
 20
67.8996
 30
0.0
 10
-145.7038
 20
69.3645
 30
0.0
 10
-146.2013
 20
70.651
 30
0.0
 10
-146.2013
 20
70.651
 30
0.0
 10
-144.9508
 20
70.8785
 30
0.0
 10
-143.8277
 20
71.5839
 30
0.0
 10
-143.0531
 20
72.6286
 30
0.0
 10
-143.0531
 20
72.6286
 30
0.0
 10
-142.8801
 20
72.7783
 30
0.0
 10
-142.7799
 20
73.0001
 30
0.0
 10
-142.7799
 20
73.2339
 30
0.0
 10
-142.7799
 20
73.2339
 30
0.0
 10
-142.7799
 20
73.4679
 30
0.0
 10
-142.8801
 20
73.6896
 30
0.0
 10
-143.0531
 20
73.8394
 30
0.0
  0
SPLINE
  5
70
330
1F
100
AcDbEntity
  8
layer 1
 62
     7
370
     9
100
AcDbSpline
210
0.0
220
0.0
230
1.0
 70
    11
 71
     3
 72
    36
 73
    32
 74
     0
 42
0.0000000001
 43
0.0000000001
 12
1.0
 22
0.0
 32
0.0
 13
1.0
 23
0.0
 33
0.0
 40
0.0
 40
0.0
 40
0.0
 40
0.0
 40
0.1111111111111111
 40
0.1111111111111111
 40
0.1111111111111111
 40
0.1111111111111111
 40
0.2222222222222222
 40
0.2222222222222222
 40
0.2222222222222222
 40
0.2222222222222222
 40
0.3333333333333333
 40
0.3333333333333333
 40
0.3333333333333333
 40
0.3333333333333333
 40
0.4444444444444444
 40
0.4444444444444444
 40
0.4444444444444444
 40
0.4444444444444444
 40
0.5555555555555556
 40
0.5555555555555556
 40
0.5555555555555556
 40
0.5555555555555556
 40
0.6666666666666666
 40
0.6666666666666666
 40
0.6666666666666666
 40
0.6666666666666666
 40
0.7777777777777778
 40
0.7777777777777778
 40
0.7777777777777778
 40
0.7777777777777778
 40
1.0
 40
1.0
 40
1.0
 40
1.0
 10
-158.5997
 20
59.431
 30
0.0
 10
-159.673
 20
60.0311
 30
0.0
 10
-160.4088
 20
61.1242
 30
0.0
 10
-160.582
 20
62.3773
 30
0.0
 10
-160.582
 20
62.3773
 30
0.0
 10
-162.0122
 20
61.7799
 30
0.0
 10
-163.6256
 20
61.8834
 30
0.0
 10
-164.9739
 20
62.6598
 30
0.0
 10
-164.9739
 20
62.6598
 30
0.0
 10
-162.032
 20
64.7947
 30
0.0
 10
-159.5992
 20
67.5996
 30
0.0
 10
-157.8614
 20
70.8602
 30
0.0
 10
-157.8614
 20
70.8602
 30
0.0
 10
-156.1233
 20
67.5996
 30
0.0
 10
-153.6902
 20
64.7947
 30
0.0
 10
-150.7487
 20
62.6598
 30
0.0
 10
-150.7487
 20
62.6598
 30
0.0
 10
-152.097
 20
61.8834
 30
0.0
 10
-153.7103
 20
61.7799
 30
0.0
 10
-155.1405
 20
62.3773
 30
0.0
 10
-155.1405
 20
62.3773
 30
0.0
 10
-155.314
 20
61.1242
 30
0.0
 10
-156.0495
 20
60.0311
 30
0.0
 10
-157.1228
 20
59.431
 30
0.0
 10
-157.1228
 20
59.431
 30
0.0
 10
-157.3368
 20
59.2669
 30
0.0
 10
-157.5953
 20
59.1769
 30
0.0
 10
-157.8614
 20
59.1738
 30
0.0
 10
-157.8614
 20
59.1738
 30
0.0
 10
-158.1272
 20
59.1769
 30
0.0
 10
-158.3858
 20
59.2669
 30
0.0
 10
-158.5997
 20
59.431
 30
0.0
  0
SPLINE
  5
71
330
1F
100
AcDbEntity
  8
layer 1
 62
     7
370
     9
100
AcDbSpline
210
0.0
220
0.0
230
1.0
 70
    11
 71
     3
 72
    12
 73
     8
 74
     0
 42
0.0000000001
 43
0.0000000001
 12
1.0
 22
0.0
 32
0.0
 13
1.0
 23
0.0
 33
0.0
 40
0.0
 40
0.0
 40
0.0
 40
0.0
 40
0.3333333333333333
 40
0.3333333333333333
 40
0.3333333333333333
 40
0.3333333333333333
 40
1.0
 40
1.0
 40
1.0
 40
1.0
 10
-166.9562
 20
64.6778
 30
0.0
 10
-166.1289
 20
67.6254
 30
0.0
 10
-163.7359
 20
69.8112
 30
0.0
 10
-160.815
 20
70.2876
 30
0.0
 10
-160.815
 20
70.2876
 30
0.0
 10
-161.8426
 20
67.4783
 30
0.0
 10
-164.1416
 20
65.3781
 30
0.0
 10
-166.9562
 20
64.6778
 30
0.0
  0
SPLINE
  5
72
330
1F
100
AcDbEntity
  8
layer 1
 62
     7
370
     9
100
AcDbSpline
210
0.0
220
0.0
230
1.0
 70
    11
 71
     3
 72
    36
 73
    32
 74
     0
 42
0.0000000001
 43
0.0000000001
 12
1.0
 22
0.0
 32
0.0
 13
1.0
 23
0.0
 33
0.0
 40
0.0
 40
0.0
 40
0.0
 40
0.0
 40
0.1111111111111111
 40
0.1111111111111111
 40
0.1111111111111111
 40
0.1111111111111111
 40
0.2222222222222222
 40
0.2222222222222222
 40
0.2222222222222222
 40
0.2222222222222222
 40
0.3333333333333333
 40
0.3333333333333333
 40
0.3333333333333333
 40
0.3333333333333333
 40
0.4444444444444444
 40
0.4444444444444444
 40
0.4444444444444444
 40
0.4444444444444444
 40
0.5555555555555556
 40
0.5555555555555556
 40
0.5555555555555556
 40
0.5555555555555556
 40
0.6666666666666666
 40
0.6666666666666666
 40
0.6666666666666666
 40
0.6666666666666666
 40
0.7777777777777778
 40
0.7777777777777778
 40
0.7777777777777778
 40
0.7777777777777778
 40
1.0
 40
1.0
 40
1.0
 40
1.0
 10
-158.5997
 20
87.037
 30
0.0
 10
-159.673
 20
86.4369
 30
0.0
 10
-160.4088
 20
85.3435
 30
0.0
 10
-160.582
 20
84.0907
 30
0.0
 10
-160.582
 20
84.0907
 30
0.0
 10
-162.0122
 20
84.6881
 30
0.0
 10
-163.6256
 20
84.5843
 30
0.0
 10
-164.9739
 20
83.8081
 30
0.0
 10
-164.9739
 20
83.8081
 30
0.0
 10
-162.032
 20
81.6732
 30
0.0
 10
-159.5992
 20
78.8681
 30
0.0
 10
-157.8614
 20
75.6075
 30
0.0
 10
-157.8614
 20
75.6075
 30
0.0
 10
-156.1233
 20
78.8681
 30
0.0
 10
-153.6902
 20
81.6732
 30
0.0
 10
-150.7487
 20
83.8081
 30
0.0
 10
-150.7487
 20
83.8081
 30
0.0
 10
-152.097
 20
84.5843
 30
0.0
 10
-153.7103
 20
84.6881
 30
0.0
 10
-155.1405
 20
84.0907
 30
0.0
 10
-155.1405
 20
84.0907
 30
0.0
 10
-155.314
 20
85.3435
 30
0.0
 10
-156.0495
 20
86.4369
 30
0.0
 10
-157.1228
 20
87.037
 30
0.0
 10
-157.1228
 20
87.037
 30
0.0
 10
-157.3368
 20
87.2008
 30
0.0
 10
-157.5953
 20
87.2908
 30
0.0
 10
-157.8614
 20
87.2939
 30
0.0
 10
-157.8614
 20
87.2939
 30
0.0
 10
-158.1272
 20
87.2908
 30
0.0
 10
-158.3858
 20
87.2008
 30
0.0
 10
-158.5997
 20
87.037
 30
0.0
  0
SPLINE
  5
73
330
1F
100
AcDbEntity
  8
layer 1
 62
     7
370
     9
100
AcDbSpline
210
0.0
220
0.0
230
1.0
 70
    11
 71
     3
 72
    12
 73
     8
 74
     0
 42
0.0000000001
 43
0.0000000001
 12
1.0
 22
0.0
 32
0.0
 13
1.0
 23
0.0
 33
0.0
 40
0.0
 40
0.0
 40
0.0
 40
0.0
 40
0.3333333333333333
 40
0.3333333333333333
 40
0.3333333333333333
 40
0.3333333333333333
 40
1.0
 40
1.0
 40
1.0
 40
1.0
 10
-166.9562
 20
81.7901
 30
0.0
 10
-166.1289
 20
78.8425
 30
0.0
 10
-163.7359
 20
76.6565
 30
0.0
 10
-160.815
 20
76.1801
 30
0.0
 10
-160.815
 20
76.1801
 30
0.0
 10
-161.8426
 20
78.9897
 30
0.0
 10
-164.1416
 20
81.0899
 30
0.0
 10
-166.9562
 20
81.7901
 30
0.0
  0
SPLINE
  5
74
330
1F
100
AcDbEntity
  8
layer 1
 62
     7
370
     9
100
AcDbSpline
210
0.0
220
0.0
230
1.0
 70
    11
 71
     3
 72
    36
 73
    32
 74
     0
 42
0.0000000001
 43
0.0000000001
 12
1.0
 22
0.0
 32
0.0
 13
1.0
 23
0.0
 33
0.0
 40
0.0
 40
0.0
 40
0.0
 40
0.0
 40
0.1111111111111111
 40
0.1111111111111111
 40
0.1111111111111111
 40
0.1111111111111111
 40
0.2222222222222222
 40
0.2222222222222222
 40
0.2222222222222222
 40
0.2222222222222222
 40
0.3333333333333333
 40
0.3333333333333333
 40
0.3333333333333333
 40
0.3333333333333333
 40
0.4444444444444444
 40
0.4444444444444444
 40
0.4444444444444444
 40
0.4444444444444444
 40
0.5555555555555556
 40
0.5555555555555556
 40
0.5555555555555556
 40
0.5555555555555556
 40
0.6666666666666666
 40
0.6666666666666666
 40
0.6666666666666666
 40
0.6666666666666666
 40
0.7777777777777778
 40
0.7777777777777778
 40
0.7777777777777778
 40
0.7777777777777778
 40
1.0
 40
1.0
 40
1.0
 40
1.0
 10
-172.6694
 20
73.8394
 30
0.0
 10
-171.8948
 20
74.8837
 30
0.0
 10
-170.7717
 20
75.5892
 30
0.0
 10
-169.5213
 20
75.8169
 30
0.0
 10
-169.5213
 20
75.8169
 30
0.0
 10
-170.0185
 20
77.1034
 30
0.0
 10
-169.8109
 20
78.5683
 30
0.0
 10
-168.9773
 20
79.6511
 30
0.0
 10
-168.9773
 20
79.6511
 30
0.0
 10
-166.5695
 20
76.7896
 30
0.0
 10
-163.5218
 20
74.5858
 30
0.0
 10
-160.1017
 20
73.2339
 30
0.0
 10
-160.1017
 20
73.2339
 30
0.0
 10
-163.5218
 20
71.8819
 30
0.0
 10
-166.5695
 20
69.6784
 30
0.0
 10
-168.9773
 20
66.8166
 30
0.0
 10
-168.9773
 20
66.8166
 30
0.0
 10
-169.8109
 20
67.8996
 30
0.0
 10
-170.0185
 20
69.3645
 30
0.0
 10
-169.5213
 20
70.651
 30
0.0
 10
-169.5213
 20
70.651
 30
0.0
 10
-170.7717
 20
70.8785
 30
0.0
 10
-171.8948
 20
71.5839
 30
0.0
 10
-172.6694
 20
72.6286
 30
0.0
 10
-172.6694
 20
72.6286
 30
0.0
 10
-172.8424
 20
72.7783
 30
0.0
 10
-172.9426
 20
73.0001
 30
0.0
 10
-172.9426
 20
73.2339
 30
0.0
 10
-172.9426
 20
73.2339
 30
0.0
 10
-172.9426
 20
73.4679
 30
0.0
 10
-172.8424
 20
73.6896
 30
0.0
 10
-172.6694
 20
73.8394
 30
0.0
  0
SPLINE
  5
75
330
1F
100
AcDbEntity
  8
layer 1
 62
     7
370
     9
100
AcDbSpline
210
0.0
220
0.0
230
1.0
 70
    11
 71
     3
 72
    12
 73
     8
 74
     0
 42
0.0000000001
 43
0.0000000001
 12
1.0
 22
0.0
 32
0.0
 13
1.0
 23
0.0
 33
0.0
 40
0.0
 40
0.0
 40
0.0
 40
0.0
 40
0.3333333333333333
 40
0.3333333333333333
 40
0.3333333333333333
 40
0.3333333333333333
 40
1.0
 40
1.0
 40
1.0
 40
1.0
 10
-127.5977
 20
58.3008
 30
0.0
 10
-128.4251
 20
55.3532
 30
0.0
 10
-130.8179
 20
53.1675
 30
0.0
 10
-133.7389
 20
52.6911
 30
0.0
 10
-133.7389
 20
52.6911
 30
0.0
 10
-132.7113
 20
55.5006
 30
0.0
 10
-130.4123
 20
57.6006
 30
0.0
 10
-127.5977
 20
58.3008
 30
0.0
  0
SPLINE
  5
76
330
1F
100
AcDbEntity
  8
layer 1
 62
     7
370
     9
100
AcDbSpline
210
0.0
220
0.0
230
1.0
 70
    11
 71
     3
 72
    12
 73
     8
 74
     0
 42
0.0000000001
 43
0.0000000001
 12
1.0
 22
0.0
 32
0.0
 13
1.0
 23
0.0
 33
0.0
 40
0.0
 40
0.0
 40
0.0
 40
0.0
 40
0.3333333333333333
 40
0.3333333333333333
 40
0.3333333333333333
 40
0.3333333333333333
 40
1.0
 40
1.0
 40
1.0
 40
1.0
 10
-127.5977
 20
41.1885
 30
0.0
 10
-128.4251
 20
44.1361
 30
0.0
 10
-130.8179
 20
46.3221
 30
0.0
 10
-133.7389
 20
46.7985
 30
0.0
 10
-133.7389
 20
46.7985
 30
0.0
 10
-132.7113
 20
43.989
 30
0.0
 10
-130.4123
 20
41.8888
 30
0.0
 10
-127.5977
 20
41.1885
 30
0.0
  0
SPLINE
  5
77
330
1F
100
AcDbEntity
  8
layer 1
 62
     7
370
     9
100
AcDbSpline
210
0.0
220
0.0
230
1.0
 70
    11
 71
     3
 72
    36
 73
    32
 74
     0
 42
0.0000000001
 43
0.0000000001
 12
1.0
 22
0.0
 32
0.0
 13
1.0
 23
0.0
 33
0.0
 40
0.0
 40
0.0
 40
0.0
 40
0.0
 40
0.1111111111111111
 40
0.1111111111111111
 40
0.1111111111111111
 40
0.1111111111111111
 40
0.2222222222222222
 40
0.2222222222222222
 40
0.2222222222222222
 40
0.2222222222222222
 40
0.3333333333333333
 40
0.3333333333333333
 40
0.3333333333333333
 40
0.3333333333333333
 40
0.4444444444444444
 40
0.4444444444444444
 40
0.4444444444444444
 40
0.4444444444444444
 40
0.5555555555555556
 40
0.5555555555555556
 40
0.5555555555555556
 40
0.5555555555555556
 40
0.6666666666666666
 40
0.6666666666666666
 40
0.6666666666666666
 40
0.6666666666666666
 40
0.7777777777777778
 40
0.7777777777777778
 40
0.7777777777777778
 40
0.7777777777777778
 40
1.0
 40
1.0
 40
1.0
 40
1.0
 10
-121.8844
 20
49.1393
 30
0.0
 10
-122.659
 20
48.0949
 30
0.0
 10
-123.7822
 20
47.3895
 30
0.0
 10
-125.0326
 20
47.1617
 30
0.0
 10
-125.0326
 20
47.1617
 30
0.0
 10
-124.5354
 20
45.8752
 30
0.0
 10
-124.7433
 20
44.4106
 30
0.0
 10
-125.5769
 20
43.3276
 30
0.0
 10
-125.5769
 20
43.3276
 30
0.0
 10
-127.9844
 20
46.1891
 30
0.0
 10
-131.0322
 20
48.3928
 30
0.0
 10
-134.4522
 20
49.7448
 30
0.0
 10
-134.4522
 20
49.7448
 30
0.0
 10
-131.0322
 20
51.0967
 30
0.0
 10
-127.9844
 20
53.3003
 30
0.0
 10
-125.5769
 20
56.162
 30
0.0
 10
-125.5769
 20
56.162
 30
0.0
 10
-124.7433
 20
55.079
 30
0.0
 10
-124.5354
 20
53.6141
 30
0.0
 10
-125.0326
 20
52.3276
 30
0.0
 10
-125.0326
 20
52.3276
 30
0.0
 10
-123.7822
 20
52.1002
 30
0.0
 10
-122.659
 20
51.3947
 30
0.0
 10
-121.8844
 20
50.3501
 30
0.0
 10
-121.8844
 20
50.3501
 30
0.0
 10
-121.7114
 20
50.2006
 30
0.0
 10
-121.6113
 20
49.9786
 30
0.0
 10
-121.6113
 20
49.7448
 30
0.0
 10
-121.6113
 20
49.7448
 30
0.0
 10
-121.6113
 20
49.5108
 30
0.0
 10
-121.7114
 20
49.289
 30
0.0
 10
-121.8844
 20
49.1393
 30
0.0
  0
SPLINE
  5
78
330
1F
100
AcDbEntity
  8
layer 1
 62
     7
370
     9
100
AcDbSpline
210
0.0
220
0.0
230
1.0
 70
    11
 71
     3
 72
    36
 73
    32
 74
     0
 42
0.0000000001
 43
0.0000000001
 12
1.0
 22
0.0
 32
0.0
 13
1.0
 23
0.0
 33
0.0
 40
0.0
 40
0.0
 40
0.0
 40
0.0
 40
0.1111111111111111
 40
0.1111111111111111
 40
0.1111111111111111
 40
0.1111111111111111
 40
0.2222222222222222
 40
0.2222222222222222
 40
0.2222222222222222
 40
0.2222222222222222
 40
0.3333333333333333
 40
0.3333333333333333
 40
0.3333333333333333
 40
0.3333333333333333
 40
0.4444444444444444
 40
0.4444444444444444
 40
0.4444444444444444
 40
0.4444444444444444
 40
0.5555555555555556
 40
0.5555555555555556
 40
0.5555555555555556
 40
0.5555555555555556
 40
0.6666666666666666
 40
0.6666666666666666
 40
0.6666666666666666
 40
0.6666666666666666
 40
0.7777777777777778
 40
0.7777777777777778
 40
0.7777777777777778
 40
0.7777777777777778
 40
1.0
 40
1.0
 40
1.0
 40
1.0
 10
-137.4311
 20
63.5477
 30
0.0
 10
-138.5044
 20
62.9476
 30
0.0
 10
-139.2401
 20
61.8545
 30
0.0
 10
-139.4134
 20
60.6014
 30
0.0
 10
-139.4134
 20
60.6014
 30
0.0
 10
-140.8436
 20
61.1988
 30
0.0
 10
-142.457
 20
61.0953
 30
0.0
 10
-143.8052
 20
60.3188
 30
0.0
 10
-143.8052
 20
60.3188
 30
0.0
 10
-140.8637
 20
58.1839
 30
0.0
 10
-138.4308
 20
55.3791
 30
0.0
 10
-136.6928
 20
52.1184
 30
0.0
 10
-136.6928
 20
52.1184
 30
0.0
 10
-134.9547
 20
55.3791
 30
0.0
 10
-132.5218
 20
58.1839
 30
0.0
 10
-129.58
 20
60.3188
 30
0.0
 10
-129.58
 20
60.3188
 30
0.0
 10
-130.9283
 20
61.0953
 30
0.0
 10
-132.5416
 20
61.1988
 30
0.0
 10
-133.9719
 20
60.6014
 30
0.0
 10
-133.9719
 20
60.6014
 30
0.0
 10
-134.1454
 20
61.8545
 30
0.0
 10
-134.8809
 20
62.9476
 30
0.0
 10
-135.9542
 20
63.5477
 30
0.0
 10
-135.9542
 20
63.5477
 30
0.0
 10
-136.1681
 20
63.7118
 30
0.0
 10
-136.4267
 20
63.8018
 30
0.0
 10
-136.6928
 20
63.8046
 30
0.0
 10
-136.6928
 20
63.8046
 30
0.0
 10
-136.9586
 20
63.8018
 30
0.0
 10
-137.2172
 20
63.7118
 30
0.0
 10
-137.4311
 20
63.5477
 30
0.0
  0
SPLINE
  5
79
330
1F
100
AcDbEntity
  8
layer 1
 62
     7
370
     9
100
AcDbSpline
210
0.0
220
0.0
230
1.0
 70
    11
 71
     3
 72
    12
 73
     8
 74
     0
 42
0.0000000001
 43
0.0000000001
 12
1.0
 22
0.0
 32
0.0
 13
1.0
 23
0.0
 33
0.0
 40
0.0
 40
0.0
 40
0.0
 40
0.0
 40
0.3333333333333333
 40
0.3333333333333333
 40
0.3333333333333333
 40
0.3333333333333333
 40
1.0
 40
1.0
 40
1.0
 40
1.0
 10
-145.7875
 20
58.3008
 30
0.0
 10
-144.9602
 20
55.3532
 30
0.0
 10
-142.5673
 20
53.1675
 30
0.0
 10
-139.6466
 20
52.6911
 30
0.0
 10
-139.6466
 20
52.6911
 30
0.0
 10
-140.674
 20
55.5006
 30
0.0
 10
-142.973
 20
57.6006
 30
0.0
 10
-145.7875
 20
58.3008
 30
0.0
  0
SPLINE
  5
7A
330
1F
100
AcDbEntity
  8
layer 1
 62
     7
370
     9
100
AcDbSpline
210
0.0
220
0.0
230
1.0
 70
    11
 71
     3
 72
    36
 73
    32
 74
     0
 42
0.0000000001
 43
0.0000000001
 12
1.0
 22
0.0
 32
0.0
 13
1.0
 23
0.0
 33
0.0
 40
0.0
 40
0.0
 40
0.0
 40
0.0
 40
0.1111111111111111
 40
0.1111111111111111
 40
0.1111111111111111
 40
0.1111111111111111
 40
0.2222222222222222
 40
0.2222222222222222
 40
0.2222222222222222
 40
0.2222222222222222
 40
0.3333333333333333
 40
0.3333333333333333
 40
0.3333333333333333
 40
0.3333333333333333
 40
0.4444444444444444
 40
0.4444444444444444
 40
0.4444444444444444
 40
0.4444444444444444
 40
0.5555555555555556
 40
0.5555555555555556
 40
0.5555555555555556
 40
0.5555555555555556
 40
0.6666666666666666
 40
0.6666666666666666
 40
0.6666666666666666
 40
0.6666666666666666
 40
0.7777777777777778
 40
0.7777777777777778
 40
0.7777777777777778
 40
0.7777777777777778
 40
1.0
 40
1.0
 40
1.0
 40
1.0
 10
-137.4311
 20
35.942
 30
0.0
 10
-138.5044
 20
36.5418
 30
0.0
 10
-139.2401
 20
37.6352
 30
0.0
 10
-139.4134
 20
38.888
 30
0.0
 10
-139.4134
 20
38.888
 30
0.0
 10
-140.8436
 20
38.2906
 30
0.0
 10
-142.457
 20
38.3944
 30
0.0
 10
-143.8052
 20
39.1705
 30
0.0
 10
-143.8052
 20
39.1705
 30
0.0
 10
-140.8637
 20
41.3054
 30
0.0
 10
-138.4308
 20
44.1106
 30
0.0
 10
-136.6928
 20
47.3712
 30
0.0
 10
-136.6928
 20
47.3712
 30
0.0
 10
-134.9547
 20
44.1106
 30
0.0
 10
-132.5218
 20
41.3054
 30
0.0
 10
-129.58
 20
39.1705
 30
0.0
 10
-129.58
 20
39.1705
 30
0.0
 10
-130.9283
 20
38.3944
 30
0.0
 10
-132.5416
 20
38.2906
 30
0.0
 10
-133.9719
 20
38.888
 30
0.0
 10
-133.9719
 20
38.888
 30
0.0
 10
-134.1454
 20
37.6352
 30
0.0
 10
-134.8809
 20
36.5418
 30
0.0
 10
-135.9542
 20
35.942
 30
0.0
 10
-135.9542
 20
35.942
 30
0.0
 10
-136.1681
 20
35.7779
 30
0.0
 10
-136.4267
 20
35.6879
 30
0.0
 10
-136.6928
 20
35.6847
 30
0.0
 10
-136.6928
 20
35.6847
 30
0.0
 10
-136.9586
 20
35.6879
 30
0.0
 10
-137.2172
 20
35.7779
 30
0.0
 10
-137.4311
 20
35.942
 30
0.0
  0
SPLINE
  5
7B
330
1F
100
AcDbEntity
  8
layer 1
 62
     7
370
     9
100
AcDbSpline
210
0.0
220
0.0
230
1.0
 70
    11
 71
     3
 72
    12
 73
     8
 74
     0
 42
0.0000000001
 43
0.0000000001
 12
1.0
 22
0.0
 32
0.0
 13
1.0
 23
0.0
 33
0.0
 40
0.0
 40
0.0
 40
0.0
 40
0.0
 40
0.3333333333333333
 40
0.3333333333333333
 40
0.3333333333333333
 40
0.3333333333333333
 40
1.0
 40
1.0
 40
1.0
 40
1.0
 10
-145.7875
 20
41.1885
 30
0.0
 10
-144.9602
 20
44.1361
 30
0.0
 10
-142.5673
 20
46.3221
 30
0.0
 10
-139.6466
 20
46.7985
 30
0.0
 10
-139.6466
 20
46.7985
 30
0.0
 10
-140.674
 20
43.989
 30
0.0
 10
-142.973
 20
41.8888
 30
0.0
 10
-145.7875
 20
41.1885
 30
0.0
  0
SPLINE
  5
7C
330
1F
100
AcDbEntity
  8
layer 1
 62
     7
370
     9
100
AcDbSpline
210
0.0
220
0.0
230
1.0
 70
    11
 71
     3
 72
    36
 73
    32
 74
     0
 42
0.0000000001
 43
0.0000000001
 12
1.0
 22
0.0
 32
0.0
 13
1.0
 23
0.0
 33
0.0
 40
0.0
 40
0.0
 40
0.0
 40
0.0
 40
0.1111111111111111
 40
0.1111111111111111
 40
0.1111111111111111
 40
0.1111111111111111
 40
0.2222222222222222
 40
0.2222222222222222
 40
0.2222222222222222
 40
0.2222222222222222
 40
0.3333333333333333
 40
0.3333333333333333
 40
0.3333333333333333
 40
0.3333333333333333
 40
0.4444444444444444
 40
0.4444444444444444
 40
0.4444444444444444
 40
0.4444444444444444
 40
0.5555555555555556
 40
0.5555555555555556
 40
0.5555555555555556
 40
0.5555555555555556
 40
0.6666666666666666
 40
0.6666666666666666
 40
0.6666666666666666
 40
0.6666666666666666
 40
0.7777777777777778
 40
0.7777777777777778
 40
0.7777777777777778
 40
0.7777777777777778
 40
1.0
 40
1.0
 40
1.0
 40
1.0
 10
-151.5008
 20
49.1393
 30
0.0
 10
-150.7262
 20
48.0949
 30
0.0
 10
-149.6031
 20
47.3895
 30
0.0
 10
-148.3526
 20
47.1617
 30
0.0
 10
-148.3526
 20
47.1617
 30
0.0
 10
-148.8502
 20
45.8752
 30
0.0
 10
-148.6422
 20
44.4106
 30
0.0
 10
-147.8087
 20
43.3276
 30
0.0
 10
-147.8087
 20
43.3276
 30
0.0
 10
-145.4009
 20
46.1891
 30
0.0
 10
-142.3531
 20
48.3928
 30
0.0
 10
-138.9331
 20
49.7448
 30
0.0
 10
-138.9331
 20
49.7448
 30
0.0
 10
-142.3531
 20
51.0967
 30
0.0
 10
-145.4009
 20
53.3003
 30
0.0
 10
-147.8087
 20
56.162
 30
0.0
 10
-147.8087
 20
56.162
 30
0.0
 10
-148.6422
 20
55.079
 30
0.0
 10
-148.8502
 20
53.6141
 30
0.0
 10
-148.3526
 20
52.3276
 30
0.0
 10
-148.3526
 20
52.3276
 30
0.0
 10
-149.6031
 20
52.1002
 30
0.0
 10
-150.7262
 20
51.3947
 30
0.0
 10
-151.5008
 20
50.3501
 30
0.0
 10
-151.5008
 20
50.3501
 30
0.0
 10
-151.6741
 20
50.2006
 30
0.0
 10
-151.774
 20
49.9786
 30
0.0
 10
-151.774
 20
49.7448
 30
0.0
 10
-151.774
 20
49.7448
 30
0.0
 10
-151.774
 20
49.5108
 30
0.0
 10
-151.6741
 20
49.289
 30
0.0
 10
-151.5008
 20
49.1393
 30
0.0
  0
SPLINE
  5
7D
330
1F
100
AcDbEntity
  8
layer 1
 62
     7
370
     9
100
AcDbSpline
210
0.0
220
0.0
230
1.0
 70
    11
 71
     3
 72
    12
 73
     8
 74
     0
 42
0.0000000001
 43
0.0000000001
 12
1.0
 22
0.0
 32
0.0
 13
1.0
 23
0.0
 33
0.0
 40
0.0
 40
0.0
 40
0.0
 40
0.0
 40
0.3333333333333333
 40
0.3333333333333333
 40
0.3333333333333333
 40
0.3333333333333333
 40
1.0
 40
1.0
 40
1.0
 40
1.0
 10
-148.7664
 20
34.8118
 30
0.0
 10
-149.5937
 20
31.8642
 30
0.0
 10
-151.9866
 20
29.6785
 30
0.0
 10
-154.9073
 20
29.2018
 30
0.0
 10
-154.9073
 20
29.2018
 30
0.0
 10
-153.8799
 20
32.0113
 30
0.0
 10
-151.5809
 20
34.1116
 30
0.0
 10
-148.7664
 20
34.8118
 30
0.0
  0
SPLINE
  5
7E
330
1F
100
AcDbEntity
  8
layer 1
 62
     7
370
     9
100
AcDbSpline
210
0.0
220
0.0
230
1.0
 70
    11
 71
     3
 72
    36
 73
    32
 74
     0
 42
0.0000000001
 43
0.0000000001
 12
1.0
 22
0.0
 32
0.0
 13
1.0
 23
0.0
 33
0.0
 40
0.0
 40
0.0
 40
0.0
 40
0.0
 40
0.1111111111111111
 40
0.1111111111111111
 40
0.1111111111111111
 40
0.1111111111111111
 40
0.2222222222222222
 40
0.2222222222222222
 40
0.2222222222222222
 40
0.2222222222222222
 40
0.3333333333333333
 40
0.3333333333333333
 40
0.3333333333333333
 40
0.3333333333333333
 40
0.4444444444444444
 40
0.4444444444444444
 40
0.4444444444444444
 40
0.4444444444444444
 40
0.5555555555555556
 40
0.5555555555555556
 40
0.5555555555555556
 40
0.5555555555555556
 40
0.6666666666666666
 40
0.6666666666666666
 40
0.6666666666666666
 40
0.6666666666666666
 40
0.7777777777777778
 40
0.7777777777777778
 40
0.7777777777777778
 40
0.7777777777777778
 40
1.0
 40
1.0
 40
1.0
 40
1.0
 10
-143.0531
 20
25.6503
 30
0.0
 10
-143.8277
 20
24.6059
 30
0.0
 10
-144.9508
 20
23.9002
 30
0.0
 10
-146.2013
 20
23.6726
 30
0.0
 10
-146.2013
 20
23.6726
 30
0.0
 10
-145.7038
 20
22.3862
 30
0.0
 10
-145.9117
 20
20.9213
 30
0.0
 10
-146.7455
 20
19.8386
 30
0.0
 10
-146.7455
 20
19.8386
 30
0.0
 10
-149.1531
 20
22.7001
 30
0.0
 10
-152.2008
 20
24.9036
 30
0.0
 10
-155.6209
 20
26.2555
 30
0.0
 10
-155.6209
 20
26.2555
 30
0.0
 10
-152.2008
 20
27.6077
 30
0.0
 10
-149.1531
 20
29.8113
 30
0.0
 10
-146.7455
 20
32.6727
 30
0.0
 10
-146.7455
 20
32.6727
 30
0.0
 10
-145.9117
 20
31.59
 30
0.0
 10
-145.7038
 20
30.1251
 30
0.0
 10
-146.2013
 20
28.8386
 30
0.0
 10
-146.2013
 20
28.8386
 30
0.0
 10
-144.9508
 20
28.6112
 30
0.0
 10
-143.8277
 20
27.9054
 30
0.0
 10
-143.0531
 20
26.861
 30
0.0
 10
-143.0531
 20
26.861
 30
0.0
 10
-142.8801
 20
26.7113
 30
0.0
 10
-142.7799
 20
26.4896
 30
0.0
 10
-142.7799
 20
26.2555
 30
0.0
 10
-142.7799
 20
26.2555
 30
0.0
 10
-142.7799
 20
26.0218
 30
0.0
 10
-142.8801
 20
25.8
 30
0.0
 10
-143.0531
 20
25.6503
 30
0.0
  0
SPLINE
  5
7F
330
1F
100
AcDbEntity
  8
layer 1
 62
     7
370
     9
100
AcDbSpline
210
0.0
220
0.0
230
1.0
 70
    11
 71
     3
 72
    36
 73
    32
 74
     0
 42
0.0000000001
 43
0.0000000001
 12
1.0
 22
0.0
 32
0.0
 13
1.0
 23
0.0
 33
0.0
 40
0.0
 40
0.0
 40
0.0
 40
0.0
 40
0.1111111111111111
 40
0.1111111111111111
 40
0.1111111111111111
 40
0.1111111111111111
 40
0.2222222222222222
 40
0.2222222222222222
 40
0.2222222222222222
 40
0.2222222222222222
 40
0.3333333333333333
 40
0.3333333333333333
 40
0.3333333333333333
 40
0.3333333333333333
 40
0.4444444444444444
 40
0.4444444444444444
 40
0.4444444444444444
 40
0.4444444444444444
 40
0.5555555555555556
 40
0.5555555555555556
 40
0.5555555555555556
 40
0.5555555555555556
 40
0.6666666666666666
 40
0.6666666666666666
 40
0.6666666666666666
 40
0.6666666666666666
 40
0.7777777777777778
 40
0.7777777777777778
 40
0.7777777777777778
 40
0.7777777777777778
 40
1.0
 40
1.0
 40
1.0
 40
1.0
 10
-158.5997
 20
40.0587
 30
0.0
 10
-159.673
 20
39.4586
 30
0.0
 10
-160.4088
 20
38.3654
 30
0.0
 10
-160.582
 20
37.1123
 30
0.0
 10
-160.582
 20
37.1123
 30
0.0
 10
-162.0122
 20
37.7098
 30
0.0
 10
-163.6256
 20
37.606
 30
0.0
 10
-164.9739
 20
36.8298
 30
0.0
 10
-164.9739
 20
36.8298
 30
0.0
 10
-162.032
 20
34.6949
 30
0.0
 10
-159.5992
 20
31.8901
 30
0.0
 10
-157.8614
 20
28.6294
 30
0.0
 10
-157.8614
 20
28.6294
 30
0.0
 10
-156.1233
 20
31.8901
 30
0.0
 10
-153.6902
 20
34.6949
 30
0.0
 10
-150.7487
 20
36.8298
 30
0.0
 10
-150.7487
 20
36.8298
 30
0.0
 10
-152.097
 20
37.606
 30
0.0
 10
-153.7103
 20
37.7098
 30
0.0
 10
-155.1405
 20
37.1123
 30
0.0
 10
-155.1405
 20
37.1123
 30
0.0
 10
-155.314
 20
38.3654
 30
0.0
 10
-156.0495
 20
39.4586
 30
0.0
 10
-157.1228
 20
40.0587
 30
0.0
 10
-157.1228
 20
40.0587
 30
0.0
 10
-157.3368
 20
40.2228
 30
0.0
 10
-157.5953
 20
40.3128
 30
0.0
 10
-157.8614
 20
40.3156
 30
0.0
 10
-157.8614
 20
40.3156
 30
0.0
 10
-158.1272
 20
40.3128
 30
0.0
 10
-158.3858
 20
40.2228
 30
0.0
 10
-158.5997
 20
40.0587
 30
0.0
  0
SPLINE
  5
80
330
1F
100
AcDbEntity
  8
layer 1
 62
     7
370
     9
100
AcDbSpline
210
0.0
220
0.0
230
1.0
 70
    11
 71
     3
 72
    12
 73
     8
 74
     0
 42
0.0000000001
 43
0.0000000001
 12
1.0
 22
0.0
 32
0.0
 13
1.0
 23
0.0
 33
0.0
 40
0.0
 40
0.0
 40
0.0
 40
0.0
 40
0.3333333333333333
 40
0.3333333333333333
 40
0.3333333333333333
 40
0.3333333333333333
 40
1.0
 40
1.0
 40
1.0
 40
1.0
 10
-166.9562
 20
34.8118
 30
0.0
 10
-166.1289
 20
31.8642
 30
0.0
 10
-163.7359
 20
29.6785
 30
0.0
 10
-160.815
 20
29.2018
 30
0.0
 10
-160.815
 20
29.2018
 30
0.0
 10
-161.8426
 20
32.0113
 30
0.0
 10
-164.1416
 20
34.1116
 30
0.0
 10
-166.9562
 20
34.8118
 30
0.0
  0
SPLINE
  5
81
330
1F
100
AcDbEntity
  8
layer 1
 62
     7
370
     9
100
AcDbSpline
210
0.0
220
0.0
230
1.0
 70
    11
 71
     3
 72
    36
 73
    32
 74
     0
 42
0.0000000001
 43
0.0000000001
 12
1.0
 22
0.0
 32
0.0
 13
1.0
 23
0.0
 33
0.0
 40
0.0
 40
0.0
 40
0.0
 40
0.0
 40
0.1111111111111111
 40
0.1111111111111111
 40
0.1111111111111111
 40
0.1111111111111111
 40
0.2222222222222222
 40
0.2222222222222222
 40
0.2222222222222222
 40
0.2222222222222222
 40
0.3333333333333333
 40
0.3333333333333333
 40
0.3333333333333333
 40
0.3333333333333333
 40
0.4444444444444444
 40
0.4444444444444444
 40
0.4444444444444444
 40
0.4444444444444444
 40
0.5555555555555556
 40
0.5555555555555556
 40
0.5555555555555556
 40
0.5555555555555556
 40
0.6666666666666666
 40
0.6666666666666666
 40
0.6666666666666666
 40
0.6666666666666666
 40
0.7777777777777778
 40
0.7777777777777778
 40
0.7777777777777778
 40
0.7777777777777778
 40
1.0
 40
1.0
 40
1.0
 40
1.0
 10
-158.5997
 20
12.4527
 30
0.0
 10
-159.673
 20
13.0528
 30
0.0
 10
-160.4088
 20
14.1459
 30
0.0
 10
-160.582
 20
15.399
 30
0.0
 10
-160.582
 20
15.399
 30
0.0
 10
-162.0122
 20
14.8015
 30
0.0
 10
-163.6256
 20
14.9053
 30
0.0
 10
-164.9739
 20
15.6815
 30
0.0
 10
-164.9739
 20
15.6815
 30
0.0
 10
-162.032
 20
17.8164
 30
0.0
 10
-159.5992
 20
20.6213
 30
0.0
 10
-157.8614
 20
23.8819
 30
0.0
 10
-157.8614
 20
23.8819
 30
0.0
 10
-156.1233
 20
20.6213
 30
0.0
 10
-153.6902
 20
17.8164
 30
0.0
 10
-150.7487
 20
15.6815
 30
0.0
 10
-150.7487
 20
15.6815
 30
0.0
 10
-152.097
 20
14.9053
 30
0.0
 10
-153.7103
 20
14.8015
 30
0.0
 10
-155.1405
 20
15.399
 30
0.0
 10
-155.1405
 20
15.399
 30
0.0
 10
-155.314
 20
14.1459
 30
0.0
 10
-156.0495
 20
13.0528
 30
0.0
 10
-157.1228
 20
12.4527
 30
0.0
 10
-157.1228
 20
12.4527
 30
0.0
 10
-157.3368
 20
12.2886
 30
0.0
 10
-157.5953
 20
12.1986
 30
0.0
 10
-157.8614
 20
12.1957
 30
0.0
 10
-157.8614
 20
12.1957
 30
0.0
 10
-158.1272
 20
12.1986
 30
0.0
 10
-158.3858
 20
12.2886
 30
0.0
 10
-158.5997
 20
12.4527
 30
0.0
  0
SPLINE
  5
82
330
1F
100
AcDbEntity
  8
layer 1
 62
     7
370
     9
100
AcDbSpline
210
0.0
220
0.0
230
1.0
 70
    11
 71
     3
 72
    12
 73
     8
 74
     0
 42
0.0000000001
 43
0.0000000001
 12
1.0
 22
0.0
 32
0.0
 13
1.0
 23
0.0
 33
0.0
 40
0.0
 40
0.0
 40
0.0
 40
0.0
 40
0.3333333333333333
 40
0.3333333333333333
 40
0.3333333333333333
 40
0.3333333333333333
 40
1.0
 40
1.0
 40
1.0
 40
1.0
 10
-166.9562
 20
17.6995
 30
0.0
 10
-166.1289
 20
20.6471
 30
0.0
 10
-163.7359
 20
22.8329
 30
0.0
 10
-160.815
 20
23.3095
 30
0.0
 10
-160.815
 20
23.3095
 30
0.0
 10
-161.8426
 20
20.4999
 30
0.0
 10
-164.1416
 20
18.3998
 30
0.0
 10
-166.9562
 20
17.6995
 30
0.0
  0
SPLINE
  5
83
330
1F
100
AcDbEntity
  8
layer 1
 62
     7
370
     9
100
AcDbSpline
210
0.0
220
0.0
230
1.0
 70
    11
 71
     3
 72
    36
 73
    32
 74
     0
 42
0.0000000001
 43
0.0000000001
 12
1.0
 22
0.0
 32
0.0
 13
1.0
 23
0.0
 33
0.0
 40
0.0
 40
0.0
 40
0.0
 40
0.0
 40
0.1111111111111111
 40
0.1111111111111111
 40
0.1111111111111111
 40
0.1111111111111111
 40
0.2222222222222222
 40
0.2222222222222222
 40
0.2222222222222222
 40
0.2222222222222222
 40
0.3333333333333333
 40
0.3333333333333333
 40
0.3333333333333333
 40
0.3333333333333333
 40
0.4444444444444444
 40
0.4444444444444444
 40
0.4444444444444444
 40
0.4444444444444444
 40
0.5555555555555556
 40
0.5555555555555556
 40
0.5555555555555556
 40
0.5555555555555556
 40
0.6666666666666666
 40
0.6666666666666666
 40
0.6666666666666666
 40
0.6666666666666666
 40
0.7777777777777778
 40
0.7777777777777778
 40
0.7777777777777778
 40
0.7777777777777778
 40
1.0
 40
1.0
 40
1.0
 40
1.0
 10
-172.6694
 20
25.6503
 30
0.0
 10
-171.8948
 20
24.6059
 30
0.0
 10
-170.7717
 20
23.9002
 30
0.0
 10
-169.5213
 20
23.6726
 30
0.0
 10
-169.5213
 20
23.6726
 30
0.0
 10
-170.0185
 20
22.3862
 30
0.0
 10
-169.8109
 20
20.9213
 30
0.0
 10
-168.9773
 20
19.8386
 30
0.0
 10
-168.9773
 20
19.8386
 30
0.0
 10
-166.5695
 20
22.7001
 30
0.0
 10
-163.5218
 20
24.9036
 30
0.0
 10
-160.1017
 20
26.2555
 30
0.0
 10
-160.1017
 20
26.2555
 30
0.0
 10
-163.5218
 20
27.6077
 30
0.0
 10
-166.5695
 20
29.8113
 30
0.0
 10
-168.9773
 20
32.6727
 30
0.0
 10
-168.9773
 20
32.6727
 30
0.0
 10
-169.8109
 20
31.59
 30
0.0
 10
-170.0185
 20
30.1251
 30
0.0
 10
-169.5213
 20
28.8386
 30
0.0
 10
-169.5213
 20
28.8386
 30
0.0
 10
-170.7717
 20
28.6112
 30
0.0
 10
-171.8948
 20
27.9054
 30
0.0
 10
-172.6694
 20
26.861
 30
0.0
 10
-172.6694
 20
26.861
 30
0.0
 10
-172.8424
 20
26.7113
 30
0.0
 10
-172.9426
 20
26.4896
 30
0.0
 10
-172.9426
 20
26.2555
 30
0.0
 10
-172.9426
 20
26.2555
 30
0.0
 10
-172.9426
 20
26.0218
 30
0.0
 10
-172.8424
 20
25.8
 30
0.0
 10
-172.6694
 20
25.6503
 30
0.0
  0
SPLINE
  5
84
330
1F
100
AcDbEntity
  8
layer 1
 62
     7
370
     9
100
AcDbSpline
210
0.0
220
0.0
230
1.0
 70
    11
 71
     3
 72
    36
 73
    32
 74
     0
 42
0.0000000001
 43
0.0000000001
 12
1.0
 22
0.0
 32
0.0
 13
1.0
 23
0.0
 33
0.0
 40
0.0
 40
0.0
 40
0.0
 40
0.0
 40
0.1111111111111111
 40
0.1111111111111111
 40
0.1111111111111111
 40
0.1111111111111111
 40
0.2222222222222222
 40
0.2222222222222222
 40
0.2222222222222222
 40
0.2222222222222222
 40
0.3333333333333333
 40
0.3333333333333333
 40
0.3333333333333333
 40
0.3333333333333333
 40
0.4444444444444444
 40
0.4444444444444444
 40
0.4444444444444444
 40
0.4444444444444444
 40
0.5555555555555556
 40
0.5555555555555556
 40
0.5555555555555556
 40
0.5555555555555556
 40
0.6666666666666666
 40
0.6666666666666666
 40
0.6666666666666666
 40
0.6666666666666666
 40
0.7777777777777778
 40
0.7777777777777778
 40
0.7777777777777778
 40
0.7777777777777778
 40
1.0
 40
1.0
 40
1.0
 40
1.0
 10
-116.1184
 20
28.6367
 30
0.0
 10
-114.3804
 20
31.8974
 30
0.0
 10
-111.9475
 20
34.7025
 30
0.0
 10
-109.0057
 20
36.8374
 30
0.0
 10
-109.0057
 20
36.8374
 30
0.0
 10
-110.354
 20
37.6135
 30
0.0
 10
-111.9673
 20
37.7173
 30
0.0
 10
-113.3976
 20
37.1199
 30
0.0
 10
-113.3976
 20
37.1199
 30
0.0
 10
-113.5711
 20
38.3727
 30
0.0
 10
-114.3065
 20
39.4661
 30
0.0
 10
-115.3801
 20
40.0662
 30
0.0
 10
-115.3801
 20
40.0662
 30
0.0
 10
-115.594
 20
40.2303
 30
0.0
 10
-115.8524
 20
40.32
 30
0.0
 10
-116.1184
 20
40.3232
 30
0.0
 10
-116.1184
 20
40.3232
 30
0.0
 10
-116.3845
 20
40.32
 30
0.0
 10
-116.6429
 20
40.2303
 30
0.0
 10
-116.8567
 20
40.0662
 30
0.0
 10
-116.8567
 20
40.0662
 30
0.0
 10
-117.9303
 20
39.4661
 30
0.0
 10
-118.6658
 20
38.3727
 30
0.0
 10
-118.8391
 20
37.1199
 30
0.0
 10
-118.8391
 20
37.1199
 30
0.0
 10
-120.2693
 20
37.7173
 30
0.0
 10
-121.8829
 20
37.6135
 30
0.0
 10
-123.2309
 20
36.8374
 30
0.0
 10
-123.2309
 20
36.8374
 30
0.0
 10
-120.2893
 20
34.7025
 30
0.0
 10
-117.8565
 20
31.8974
 30
0.0
 10
-116.1184
 20
28.6367
 30
0.0
  0
SPLINE
  5
85
330
1F
100
AcDbEntity
  8
layer 1
 62
     7
370
     9
100
AcDbSpline
210
0.0
220
0.0
230
1.0
 70
    11
 71
     3
 72
    12
 73
     8
 74
     0
 42
0.0000000001
 43
0.0000000001
 12
1.0
 22
0.0
 32
0.0
 13
1.0
 23
0.0
 33
0.0
 40
0.0
 40
0.0
 40
0.0
 40
0.0
 40
0.3333333333333333
 40
0.3333333333333333
 40
0.3333333333333333
 40
0.3333333333333333
 40
1.0
 40
1.0
 40
1.0
 40
1.0
 10
-125.2132
 20
34.8194
 30
0.0
 10
-124.3859
 20
31.8718
 30
0.0
 10
-121.9932
 20
29.686
 30
0.0
 10
-119.0722
 20
29.2094
 30
0.0
 10
-119.0722
 20
29.2094
 30
0.0
 10
-120.0999
 20
32.019
 30
0.0
 10
-122.3987
 20
34.1191
 30
0.0
 10
-125.2132
 20
34.8194
 30
0.0
  0
SPLINE
  5
86
330
1F
100
AcDbEntity
  8
layer 1
 62
     7
370
     9
100
AcDbSpline
210
0.0
220
0.0
230
1.0
 70
    11
 71
     3
 72
    36
 73
    32
 74
     0
 42
0.0000000001
 43
0.0000000001
 12
1.0
 22
0.0
 32
0.0
 13
1.0
 23
0.0
 33
0.0
 40
0.0
 40
0.0
 40
0.0
 40
0.0
 40
0.1111111111111111
 40
0.1111111111111111
 40
0.1111111111111111
 40
0.1111111111111111
 40
0.2222222222222222
 40
0.2222222222222222
 40
0.2222222222222222
 40
0.2222222222222222
 40
0.3333333333333333
 40
0.3333333333333333
 40
0.3333333333333333
 40
0.3333333333333333
 40
0.4444444444444444
 40
0.4444444444444444
 40
0.4444444444444444
 40
0.4444444444444444
 40
0.5555555555555556
 40
0.5555555555555556
 40
0.5555555555555556
 40
0.5555555555555556
 40
0.6666666666666666
 40
0.6666666666666666
 40
0.6666666666666666
 40
0.6666666666666666
 40
0.7777777777777778
 40
0.7777777777777778
 40
0.7777777777777778
 40
0.7777777777777778
 40
1.0
 40
1.0
 40
1.0
 40
1.0
 10
-116.1184
 20
23.8895
 30
0.0
 10
-114.3804
 20
20.6288
 30
0.0
 10
-111.9475
 20
17.824
 30
0.0
 10
-109.0057
 20
15.6891
 30
0.0
 10
-109.0057
 20
15.6891
 30
0.0
 10
-110.354
 20
14.9129
 30
0.0
 10
-111.9673
 20
14.8091
 30
0.0
 10
-113.3976
 20
15.4065
 30
0.0
 10
-113.3976
 20
15.4065
 30
0.0
 10
-113.5711
 20
14.1534
 30
0.0
 10
-114.3065
 20
13.0603
 30
0.0
 10
-115.3801
 20
12.4602
 30
0.0
 10
-115.3801
 20
12.4602
 30
0.0
 10
-115.594
 20
12.2961
 30
0.0
 10
-115.8524
 20
12.2061
 30
0.0
 10
-116.1184
 20
12.2033
 30
0.0
 10
-116.1184
 20
12.2033
 30
0.0
 10
-116.3845
 20
12.2061
 30
0.0
 10
-116.6429
 20
12.2961
 30
0.0
 10
-116.8567
 20
12.4602
 30
0.0
 10
-116.8567
 20
12.4602
 30
0.0
 10
-117.9303
 20
13.0603
 30
0.0
 10
-118.6658
 20
14.1534
 30
0.0
 10
-118.8391
 20
15.4065
 30
0.0
 10
-118.8391
 20
15.4065
 30
0.0
 10
-120.2693
 20
14.8091
 30
0.0
 10
-121.8829
 20
14.9129
 30
0.0
 10
-123.2309
 20
15.6891
 30
0.0
 10
-123.2309
 20
15.6891
 30
0.0
 10
-120.2893
 20
17.824
 30
0.0
 10
-117.8565
 20
20.6288
 30
0.0
 10
-116.1184
 20
23.8895
 30
0.0
  0
SPLINE
  5
87
330
1F
100
AcDbEntity
  8
layer 1
 62
     7
370
     9
100
AcDbSpline
210
0.0
220
0.0
230
1.0
 70
    11
 71
     3
 72
    12
 73
     8
 74
     0
 42
0.0000000001
 43
0.0000000001
 12
1.0
 22
0.0
 32
0.0
 13
1.0
 23
0.0
 33
0.0
 40
0.0
 40
0.0
 40
0.0
 40
0.0
 40
0.3333333333333333
 40
0.3333333333333333
 40
0.3333333333333333
 40
0.3333333333333333
 40
1.0
 40
1.0
 40
1.0
 40
1.0
 10
-125.2132
 20
17.7071
 30
0.0
 10
-124.3859
 20
20.6547
 30
0.0
 10
-121.9932
 20
22.8404
 30
0.0
 10
-119.0722
 20
23.3171
 30
0.0
 10
-119.0722
 20
23.3171
 30
0.0
 10
-120.0999
 20
20.5075
 30
0.0
 10
-122.3987
 20
18.4073
 30
0.0
 10
-125.2132
 20
17.7071
 30
0.0
  0
SPLINE
  5
88
330
1F
100
AcDbEntity
  8
layer 1
 62
     7
370
     9
100
AcDbSpline
210
0.0
220
0.0
230
1.0
 70
    11
 71
     3
 72
    36
 73
    32
 74
     0
 42
0.0000000001
 43
0.0000000001
 12
1.0
 22
0.0
 32
0.0
 13
1.0
 23
0.0
 33
0.0
 40
0.0
 40
0.0
 40
0.0
 40
0.0
 40
0.1111111111111111
 40
0.1111111111111111
 40
0.1111111111111111
 40
0.1111111111111111
 40
0.2222222222222222
 40
0.2222222222222222
 40
0.2222222222222222
 40
0.2222222222222222
 40
0.3333333333333333
 40
0.3333333333333333
 40
0.3333333333333333
 40
0.3333333333333333
 40
0.4444444444444444
 40
0.4444444444444444
 40
0.4444444444444444
 40
0.4444444444444444
 40
0.5555555555555556
 40
0.5555555555555556
 40
0.5555555555555556
 40
0.5555555555555556
 40
0.6666666666666666
 40
0.6666666666666666
 40
0.6666666666666666
 40
0.6666666666666666
 40
0.7777777777777778
 40
0.7777777777777778
 40
0.7777777777777778
 40
0.7777777777777778
 40
1.0
 40
1.0
 40
1.0
 40
1.0
 10
-130.9265
 20
25.6578
 30
0.0
 10
-130.1522
 20
24.6135
 30
0.0
 10
-129.029
 20
23.908
 30
0.0
 10
-127.7786
 20
23.6803
 30
0.0
 10
-127.7786
 20
23.6803
 30
0.0
 10
-128.2758
 20
22.3938
 30
0.0
 10
-128.0679
 20
20.9289
 30
0.0
 10
-127.2343
 20
19.8462
 30
0.0
 10
-127.2343
 20
19.8462
 30
0.0
 10
-124.8265
 20
22.7076
 30
0.0
 10
-121.7788
 20
24.9112
 30
0.0
 10
-118.359
 20
26.2631
 30
0.0
 10
-118.359
 20
26.2631
 30
0.0
 10
-121.7788
 20
27.6151
 30
0.0
 10
-124.8265
 20
29.8188
 30
0.0
 10
-127.2343
 20
32.6803
 30
0.0
 10
-127.2343
 20
32.6803
 30
0.0
 10
-128.0679
 20
31.5976
 30
0.0
 10
-128.2758
 20
30.1327
 30
0.0
 10
-127.7786
 20
28.8462
 30
0.0
 10
-127.7786
 20
28.8462
 30
0.0
 10
-129.029
 20
28.6187
 30
0.0
 10
-130.1522
 20
27.913
 30
0.0
 10
-130.9265
 20
26.8686
 30
0.0
 10
-130.9265
 20
26.8686
 30
0.0
 10
-131.0997
 20
26.7189
 30
0.0
 10
-131.1997
 20
26.4971
 30
0.0
 10
-131.1997
 20
26.2631
 30
0.0
 10
-131.1997
 20
26.2631
 30
0.0
 10
-131.1997
 20
26.0293
 30
0.0
 10
-131.0997
 20
25.8076
 30
0.0
 10
-130.9265
 20
25.6578
 30
0.0
  0
SPLINE
  5
89
330
1F
100
AcDbEntity
  8
layer 1
 62
     7
370
     9
100
AcDbSpline
210
0.0
220
0.0
230
1.0
 70
    11
 71
     3
 72
    36
 73
    32
 74
     0
 42
0.0000000001
 43
0.0000000001
 12
1.0
 22
0.0
 32
0.0
 13
1.0
 23
0.0
 33
0.0
 40
0.0
 40
0.0
 40
0.0
 40
0.0
 40
0.1111111111111111
 40
0.1111111111111111
 40
0.1111111111111111
 40
0.1111111111111111
 40
0.2222222222222222
 40
0.2222222222222222
 40
0.2222222222222222
 40
0.2222222222222222
 40
0.3333333333333333
 40
0.3333333333333333
 40
0.3333333333333333
 40
0.3333333333333333
 40
0.4444444444444444
 40
0.4444444444444444
 40
0.4444444444444444
 40
0.4444444444444444
 40
0.5555555555555556
 40
0.5555555555555556
 40
0.5555555555555556
 40
0.5555555555555556
 40
0.6666666666666666
 40
0.6666666666666666
 40
0.6666666666666666
 40
0.6666666666666666
 40
0.7777777777777778
 40
0.7777777777777778
 40
0.7777777777777778
 40
0.7777777777777778
 40
1.0
 40
1.0
 40
1.0
 40
1.0
 10
-116.1184
 20
70.9082
 30
0.0
 10
-114.3804
 20
67.6476
 30
0.0
 10
-111.9475
 20
64.8427
 30
0.0
 10
-109.0057
 20
62.7076
 30
0.0
 10
-109.0057
 20
62.7076
 30
0.0
 10
-110.354
 20
61.9314
 30
0.0
 10
-111.9673
 20
61.8276
 30
0.0
 10
-113.3976
 20
62.4253
 30
0.0
 10
-113.3976
 20
62.4253
 30
0.0
 10
-113.5711
 20
61.1722
 30
0.0
 10
-114.3065
 20
60.0791
 30
0.0
 10
-115.3801
 20
59.479
 30
0.0
 10
-115.3801
 20
59.479
 30
0.0
 10
-115.594
 20
59.3149
 30
0.0
 10
-115.8524
 20
59.2249
 30
0.0
 10
-116.1184
 20
59.2218
 30
0.0
 10
-116.1184
 20
59.2218
 30
0.0
 10
-116.3845
 20
59.2249
 30
0.0
 10
-116.6429
 20
59.3149
 30
0.0
 10
-116.8567
 20
59.479
 30
0.0
 10
-116.8567
 20
59.479
 30
0.0
 10
-117.9303
 20
60.0791
 30
0.0
 10
-118.6658
 20
61.1722
 30
0.0
 10
-118.8391
 20
62.4253
 30
0.0
 10
-118.8391
 20
62.4253
 30
0.0
 10
-120.2693
 20
61.8276
 30
0.0
 10
-121.8829
 20
61.9314
 30
0.0
 10
-123.2309
 20
62.7076
 30
0.0
 10
-123.2309
 20
62.7076
 30
0.0
 10
-120.2893
 20
64.8427
 30
0.0
 10
-117.8565
 20
67.6476
 30
0.0
 10
-116.1184
 20
70.9082
 30
0.0
  0
SPLINE
  5
8A
330
1F
100
AcDbEntity
  8
layer 1
 62
     7
370
     9
100
AcDbSpline
210
0.0
220
0.0
230
1.0
 70
    11
 71
     3
 72
    12
 73
     8
 74
     0
 42
0.0000000001
 43
0.0000000001
 12
1.0
 22
0.0
 32
0.0
 13
1.0
 23
0.0
 33
0.0
 40
0.0
 40
0.0
 40
0.0
 40
0.0
 40
0.3333333333333333
 40
0.3333333333333333
 40
0.3333333333333333
 40
0.3333333333333333
 40
1.0
 40
1.0
 40
1.0
 40
1.0
 10
-125.2132
 20
64.7256
 30
0.0
 10
-124.3859
 20
67.6732
 30
0.0
 10
-121.9932
 20
69.8592
 30
0.0
 10
-119.0722
 20
70.3356
 30
0.0
 10
-119.0722
 20
70.3356
 30
0.0
 10
-120.0999
 20
67.526
 30
0.0
 10
-122.3987
 20
65.4258
 30
0.0
 10
-125.2132
 20
64.7256
 30
0.0
  0
SPLINE
  5
8B
330
1F
100
AcDbEntity
  8
layer 1
 62
     7
370
     9
100
AcDbSpline
210
0.0
220
0.0
230
1.0
 70
    11
 71
     3
 72
    36
 73
    32
 74
     0
 42
0.0000000001
 43
0.0000000001
 12
1.0
 22
0.0
 32
0.0
 13
1.0
 23
0.0
 33
0.0
 40
0.0
 40
0.0
 40
0.0
 40
0.0
 40
0.1111111111111111
 40
0.1111111111111111
 40
0.1111111111111111
 40
0.1111111111111111
 40
0.2222222222222222
 40
0.2222222222222222
 40
0.2222222222222222
 40
0.2222222222222222
 40
0.3333333333333333
 40
0.3333333333333333
 40
0.3333333333333333
 40
0.3333333333333333
 40
0.4444444444444444
 40
0.4444444444444444
 40
0.4444444444444444
 40
0.4444444444444444
 40
0.5555555555555556
 40
0.5555555555555556
 40
0.5555555555555556
 40
0.5555555555555556
 40
0.6666666666666666
 40
0.6666666666666666
 40
0.6666666666666666
 40
0.6666666666666666
 40
0.7777777777777778
 40
0.7777777777777778
 40
0.7777777777777778
 40
0.7777777777777778
 40
1.0
 40
1.0
 40
1.0
 40
1.0
 10
-116.1184
 20
75.6555
 30
0.0
 10
-114.3804
 20
78.9161
 30
0.0
 10
-111.9475
 20
81.7212
 30
0.0
 10
-109.0057
 20
83.8559
 30
0.0
 10
-109.0057
 20
83.8559
 30
0.0
 10
-110.354
 20
84.6323
 30
0.0
 10
-111.9673
 20
84.7359
 30
0.0
 10
-113.3976
 20
84.1384
 30
0.0
 10
-113.3976
 20
84.1384
 30
0.0
 10
-113.5711
 20
85.3915
 30
0.0
 10
-114.3065
 20
86.4847
 30
0.0
 10
-115.3801
 20
87.0847
 30
0.0
 10
-115.3801
 20
87.0847
 30
0.0
 10
-115.594
 20
87.2488
 30
0.0
 10
-115.8524
 20
87.3388
 30
0.0
 10
-116.1184
 20
87.3419
 30
0.0
 10
-116.1184
 20
87.3419
 30
0.0
 10
-116.3845
 20
87.3388
 30
0.0
 10
-116.6429
 20
87.2488
 30
0.0
 10
-116.8567
 20
87.0847
 30
0.0
 10
-116.8567
 20
87.0847
 30
0.0
 10
-117.9303
 20
86.4847
 30
0.0
 10
-118.6658
 20
85.3915
 30
0.0
 10
-118.8391
 20
84.1384
 30
0.0
 10
-118.8391
 20
84.1384
 30
0.0
 10
-120.2693
 20
84.7359
 30
0.0
 10
-121.8829
 20
84.6323
 30
0.0
 10
-123.2309
 20
83.8559
 30
0.0
 10
-123.2309
 20
83.8559
 30
0.0
 10
-120.2893
 20
81.7212
 30
0.0
 10
-117.8565
 20
78.9161
 30
0.0
 10
-116.1184
 20
75.6555
 30
0.0
  0
SPLINE
  5
8C
330
1F
100
AcDbEntity
  8
layer 1
 62
     7
370
     9
100
AcDbSpline
210
0.0
220
0.0
230
1.0
 70
    11
 71
     3
 72
    12
 73
     8
 74
     0
 42
0.0000000001
 43
0.0000000001
 12
1.0
 22
0.0
 32
0.0
 13
1.0
 23
0.0
 33
0.0
 40
0.0
 40
0.0
 40
0.0
 40
0.0
 40
0.3333333333333333
 40
0.3333333333333333
 40
0.3333333333333333
 40
0.3333333333333333
 40
1.0
 40
1.0
 40
1.0
 40
1.0
 10
-125.2132
 20
81.8381
 30
0.0
 10
-124.3859
 20
78.8905
 30
0.0
 10
-121.9932
 20
76.7045
 30
0.0
 10
-119.0722
 20
76.2281
 30
0.0
 10
-119.0722
 20
76.2281
 30
0.0
 10
-120.0999
 20
79.0377
 30
0.0
 10
-122.3987
 20
81.1379
 30
0.0
 10
-125.2132
 20
81.8381
 30
0.0
  0
SPLINE
  5
8D
330
1F
100
AcDbEntity
  8
layer 1
 62
     7
370
     9
100
AcDbSpline
210
0.0
220
0.0
230
1.0
 70
    11
 71
     3
 72
    36
 73
    32
 74
     0
 42
0.0000000001
 43
0.0000000001
 12
1.0
 22
0.0
 32
0.0
 13
1.0
 23
0.0
 33
0.0
 40
0.0
 40
0.0
 40
0.0
 40
0.0
 40
0.1111111111111111
 40
0.1111111111111111
 40
0.1111111111111111
 40
0.1111111111111111
 40
0.2222222222222222
 40
0.2222222222222222
 40
0.2222222222222222
 40
0.2222222222222222
 40
0.3333333333333333
 40
0.3333333333333333
 40
0.3333333333333333
 40
0.3333333333333333
 40
0.4444444444444444
 40
0.4444444444444444
 40
0.4444444444444444
 40
0.4444444444444444
 40
0.5555555555555556
 40
0.5555555555555556
 40
0.5555555555555556
 40
0.5555555555555556
 40
0.6666666666666666
 40
0.6666666666666666
 40
0.6666666666666666
 40
0.6666666666666666
 40
0.7777777777777778
 40
0.7777777777777778
 40
0.7777777777777778
 40
0.7777777777777778
 40
1.0
 40
1.0
 40
1.0
 40
1.0
 10
-130.9265
 20
73.8871
 30
0.0
 10
-130.1522
 20
74.9318
 30
0.0
 10
-129.029
 20
75.6372
 30
0.0
 10
-127.7786
 20
75.8649
 30
0.0
 10
-127.7786
 20
75.8649
 30
0.0
 10
-128.2758
 20
77.1514
 30
0.0
 10
-128.0679
 20
78.6161
 30
0.0
 10
-127.2343
 20
79.6991
 30
0.0
 10
-127.2343
 20
79.6991
 30
0.0
 10
-124.8265
 20
76.8373
 30
0.0
 10
-121.7788
 20
74.6338
 30
0.0
 10
-118.359
 20
73.2819
 30
0.0
 10
-118.359
 20
73.2819
 30
0.0
 10
-121.7788
 20
71.9299
 30
0.0
 10
-124.8265
 20
69.7261
 30
0.0
 10
-127.2343
 20
66.8646
 30
0.0
 10
-127.2343
 20
66.8646
 30
0.0
 10
-128.0679
 20
67.9473
 30
0.0
 10
-128.2758
 20
69.4123
 30
0.0
 10
-127.7786
 20
70.6987
 30
0.0
 10
-127.7786
 20
70.6987
 30
0.0
 10
-129.029
 20
70.9265
 30
0.0
 10
-130.1522
 20
71.6319
 30
0.0
 10
-130.9265
 20
72.6765
 30
0.0
 10
-130.9265
 20
72.6765
 30
0.0
 10
-131.0997
 20
72.8261
 30
0.0
 10
-131.1997
 20
73.0479
 30
0.0
 10
-131.1997
 20
73.2819
 30
0.0
 10
-131.1997
 20
73.2819
 30
0.0
 10
-131.1997
 20
73.5156
 30
0.0
 10
-131.0997
 20
73.7373
 30
0.0
 10
-130.9265
 20
73.8871
 30
0.0
  0
SPLINE
  5
8E
330
1F
100
AcDbEntity
  8
layer 1
 62
     7
370
     9
100
AcDbSpline
210
0.0
220
0.0
230
1.0
 70
    11
 71
     3
 72
    36
 73
    32
 74
     0
 42
0.0000000001
 43
0.0000000001
 12
1.0
 22
0.0
 32
0.0
 13
1.0
 23
0.0
 33
0.0
 40
0.0
 40
0.0
 40
0.0
 40
0.0
 40
0.1111111111111111
 40
0.1111111111111111
 40
0.1111111111111111
 40
0.1111111111111111
 40
0.2222222222222222
 40
0.2222222222222222
 40
0.2222222222222222
 40
0.2222222222222222
 40
0.3333333333333333
 40
0.3333333333333333
 40
0.3333333333333333
 40
0.3333333333333333
 40
0.4444444444444444
 40
0.4444444444444444
 40
0.4444444444444444
 40
0.4444444444444444
 40
0.5555555555555556
 40
0.5555555555555556
 40
0.5555555555555556
 40
0.5555555555555556
 40
0.6666666666666666
 40
0.6666666666666666
 40
0.6666666666666666
 40
0.6666666666666666
 40
0.7777777777777778
 40
0.7777777777777778
 40
0.7777777777777778
 40
0.7777777777777778
 40
1.0
 40
1.0
 40
1.0
 40
1.0
 10
-93.3038
 20
2.7665
 30
0.0
 10
-89.8838
 20
4.1185
 30
0.0
 10
-86.836
 20
6.3222
 30
0.0
 10
-84.4282
 20
9.1837
 30
0.0
 10
-84.4282
 20
9.1837
 30
0.0
 10
-83.5947
 20
8.1007
 30
0.0
 10
-83.3867
 20
6.6361
 30
0.0
 10
-83.8842
 20
5.3496
 30
0.0
 10
-83.8842
 20
5.3496
 30
0.0
 10
-82.6335
 20
5.1219
 30
0.0
 10
-81.5107
 20
4.4164
 30
0.0
 10
-80.7361
 20
3.372
 30
0.0
 10
-80.7361
 20
3.372
 30
0.0
 10
-80.5628
 20
3.2223
 30
0.0
 10
-80.4629
 20
3.0005
 30
0.0
 10
-80.4629
 20
2.7665
 30
0.0
 10
-80.4629
 20
2.7665
 30
0.0
 10
-80.4629
 20
2.5327
 30
0.0
 10
-80.5628
 20
2.3107
 30
0.0
 10
-80.7361
 20
2.1613
 30
0.0
 10
-80.7361
 20
2.1613
 30
0.0
 10
-81.5107
 20
1.1166
 30
0.0
 10
-82.6335
 20
0.4111
 30
0.0
 10
-83.8842
 20
0.1836
 30
0.0
 10
-83.8842
 20
0.1836
 30
0.0
 10
-83.3867
 20
-1.1028
 30
0.0
 10
-83.5947
 20
-2.5677
 30
0.0
 10
-84.4282
 20
-3.6507
 30
0.0
 10
-84.4282
 20
-3.6507
 30
0.0
 10
-86.836
 20
-0.789
 30
0.0
 10
-89.8838
 20
1.4145
 30
0.0
 10
-93.3038
 20
2.7665
 30
0.0
  0
SPLINE
  5
8F
330
1F
100
AcDbEntity
  8
layer 1
 62
     7
370
     9
100
AcDbSpline
210
0.0
220
0.0
230
1.0
 70
    11
 71
     3
 72
    36
 73
    32
 74
     0
 42
0.0000000001
 43
0.0000000001
 12
1.0
 22
0.0
 32
0.0
 13
1.0
 23
0.0
 33
0.0
 40
0.0
 40
0.0
 40
0.0
 40
0.0
 40
0.1111111111111111
 40
0.1111111111111111
 40
0.1111111111111111
 40
0.1111111111111111
 40
0.2222222222222222
 40
0.2222222222222222
 40
0.2222222222222222
 40
0.2222222222222222
 40
0.3333333333333333
 40
0.3333333333333333
 40
0.3333333333333333
 40
0.3333333333333333
 40
0.4444444444444444
 40
0.4444444444444444
 40
0.4444444444444444
 40
0.4444444444444444
 40
0.5555555555555556
 40
0.5555555555555556
 40
0.5555555555555556
 40
0.5555555555555556
 40
0.6666666666666666
 40
0.6666666666666666
 40
0.6666666666666666
 40
0.6666666666666666
 40
0.7777777777777778
 40
0.7777777777777778
 40
0.7777777777777778
 40
0.7777777777777778
 40
1.0
 40
1.0
 40
1.0
 40
1.0
 10
-97.7846
 20
2.7665
 30
0.0
 10
-101.2047
 20
4.1185
 30
0.0
 10
-104.2524
 20
6.3222
 30
0.0
 10
-106.66
 20
9.1837
 30
0.0
 10
-106.66
 20
9.1837
 30
0.0
 10
-107.4935
 20
8.1007
 30
0.0
 10
-107.7015
 20
6.6361
 30
0.0
 10
-107.2042
 20
5.3496
 30
0.0
 10
-107.2042
 20
5.3496
 30
0.0
 10
-108.4547
 20
5.1219
 30
0.0
 10
-109.5778
 20
4.4164
 30
0.0
 10
-110.3524
 20
3.372
 30
0.0
 10
-110.3524
 20
3.372
 30
0.0
 10
-110.5254
 20
3.2223
 30
0.0
 10
-110.6256
 20
3.0005
 30
0.0
 10
-110.6256
 20
2.7665
 30
0.0
 10
-110.6256
 20
2.7665
 30
0.0
 10
-110.6256
 20
2.5327
 30
0.0
 10
-110.5254
 20
2.3107
 30
0.0
 10
-110.3524
 20
2.1613
 30
0.0
 10
-110.3524
 20
2.1613
 30
0.0
 10
-109.5778
 20
1.1166
 30
0.0
 10
-108.4547
 20
0.4111
 30
0.0
 10
-107.2042
 20
0.1836
 30
0.0
 10
-107.2042
 20
0.1836
 30
0.0
 10
-107.7015
 20
-1.1028
 30
0.0
 10
-107.4935
 20
-2.5677
 30
0.0
 10
-106.66
 20
-3.6507
 30
0.0
 10
-106.66
 20
-3.6507
 30
0.0
 10
-104.2524
 20
-0.789
 30
0.0
 10
-101.2047
 20
1.4145
 30
0.0
 10
-97.7846
 20
2.7665
 30
0.0
  0
SPLINE
  5
90
330
1F
100
AcDbEntity
  8
layer 1
 62
     7
370
     9
100
AcDbSpline
210
0.0
220
0.0
230
1.0
 70
    11
 71
     3
 72
    12
 73
     8
 74
     0
 42
0.0000000001
 43
0.0000000001
 12
1.0
 22
0.0
 32
0.0
 13
1.0
 23
0.0
 33
0.0
 40
0.0
 40
0.0
 40
0.0
 40
0.0
 40
0.3333333333333333
 40
0.3333333333333333
 40
0.3333333333333333
 40
0.3333333333333333
 40
1.0
 40
1.0
 40
1.0
 40
1.0
 10
-104.6391
 20
-5.7895
 30
0.0
 10
-103.8116
 20
-2.842
 30
0.0
 10
-101.4189
 20
-0.6562
 30
0.0
 10
-98.4979
 20
-0.1798
 30
0.0
 10
-98.4979
 20
-0.1798
 30
0.0
 10
-99.5256
 20
-2.9891
 30
0.0
 10
-101.8246
 20
-5.0893
 30
0.0
 10
-104.6391
 20
-5.7895
 30
0.0
  0
SPLINE
  5
91
330
1F
100
AcDbEntity
  8
layer 1
 62
     7
370
     9
100
AcDbSpline
210
0.0
220
0.0
230
1.0
 70
    11
 71
     3
 72
    36
 73
    32
 74
     0
 42
0.0000000001
 43
0.0000000001
 12
1.0
 22
0.0
 32
0.0
 13
1.0
 23
0.0
 33
0.0
 40
0.0
 40
0.0
 40
0.0
 40
0.0
 40
0.1111111111111111
 40
0.1111111111111111
 40
0.1111111111111111
 40
0.1111111111111111
 40
0.2222222222222222
 40
0.2222222222222222
 40
0.2222222222222222
 40
0.2222222222222222
 40
0.3333333333333333
 40
0.3333333333333333
 40
0.3333333333333333
 40
0.3333333333333333
 40
0.4444444444444444
 40
0.4444444444444444
 40
0.4444444444444444
 40
0.4444444444444444
 40
0.5555555555555556
 40
0.5555555555555556
 40
0.5555555555555556
 40
0.5555555555555556
 40
0.6666666666666666
 40
0.6666666666666666
 40
0.6666666666666666
 40
0.6666666666666666
 40
0.7777777777777778
 40
0.7777777777777778
 40
0.7777777777777778
 40
0.7777777777777778
 40
1.0
 40
1.0
 40
1.0
 40
1.0
 10
-94.8058
 20
-11.0364
 30
0.0
 10
-93.7325
 20
-10.4363
 30
0.0
 10
-92.9968
 20
-9.3431
 30
0.0
 10
-92.8235
 20
-8.09
 30
0.0
 10
-92.8235
 20
-8.09
 30
0.0
 10
-91.3933
 20
-8.6875
 30
0.0
 10
-89.7799
 20
-8.5839
 30
0.0
 10
-88.4317
 20
-7.8075
 30
0.0
 10
-88.4317
 20
-7.8075
 30
0.0
 10
-91.3732
 20
-5.6726
 30
0.0
 10
-93.8061
 20
-2.8678
 30
0.0
 10
-95.5441
 20
0.3929
 30
0.0
 10
-95.5441
 20
0.3929
 30
0.0
 10
-97.2822
 20
-2.8678
 30
0.0
 10
-99.715
 20
-5.6726
 30
0.0
 10
-102.6569
 20
-7.8075
 30
0.0
 10
-102.6569
 20
-7.8075
 30
0.0
 10
-101.3085
 20
-8.5839
 30
0.0
 10
-99.6952
 20
-8.6875
 30
0.0
 10
-98.265
 20
-8.09
 30
0.0
 10
-98.265
 20
-8.09
 30
0.0
 10
-98.0915
 20
-9.3431
 30
0.0
 10
-97.356
 20
-10.4363
 30
0.0
 10
-96.2827
 20
-11.0364
 30
0.0
 10
-96.2827
 20
-11.0364
 30
0.0
 10
-96.0688
 20
-11.2005
 30
0.0
 10
-95.8102
 20
-11.2905
 30
0.0
 10
-95.5441
 20
-11.2936
 30
0.0
 10
-95.5441
 20
-11.2936
 30
0.0
 10
-95.2783
 20
-11.2905
 30
0.0
 10
-95.0197
 20
-11.2005
 30
0.0
 10
-94.8058
 20
-11.0364
 30
0.0
  0
SPLINE
  5
92
330
1F
100
AcDbEntity
  8
layer 1
 62
     7
370
     9
100
AcDbSpline
210
0.0
220
0.0
230
1.0
 70
    11
 71
     3
 72
    12
 73
     8
 74
     0
 42
0.0000000001
 43
0.0000000001
 12
1.0
 22
0.0
 32
0.0
 13
1.0
 23
0.0
 33
0.0
 40
0.0
 40
0.0
 40
0.0
 40
0.0
 40
0.3333333333333333
 40
0.3333333333333333
 40
0.3333333333333333
 40
0.3333333333333333
 40
1.0
 40
1.0
 40
1.0
 40
1.0
 10
-86.4493
 20
-5.7895
 30
0.0
 10
-87.2766
 20
-2.842
 30
0.0
 10
-89.6693
 20
-0.6562
 30
0.0
 10
-92.5902
 20
-0.1798
 30
0.0
 10
-92.5902
 20
-0.1798
 30
0.0
 10
-91.5629
 20
-2.9891
 30
0.0
 10
-89.2639
 20
-5.0893
 30
0.0
 10
-86.4493
 20
-5.7895
 30
0.0
  0
SPLINE
  5
93
330
1F
100
AcDbEntity
  8
layer 1
 62
     7
370
     9
100
AcDbSpline
210
0.0
220
0.0
230
1.0
 70
    11
 71
     3
 72
    12
 73
     8
 74
     0
 42
0.0000000001
 43
0.0000000001
 12
1.0
 22
0.0
 32
0.0
 13
1.0
 23
0.0
 33
0.0
 40
0.0
 40
0.0
 40
0.0
 40
0.0
 40
0.3333333333333333
 40
0.3333333333333333
 40
0.3333333333333333
 40
0.3333333333333333
 40
1.0
 40
1.0
 40
1.0
 40
1.0
 10
-83.4705
 20
-12.1665
 30
0.0
 10
-82.6429
 20
-15.1141
 30
0.0
 10
-80.2503
 20
-17.2998
 30
0.0
 10
-77.3295
 20
-17.7762
 30
0.0
 10
-77.3295
 20
-17.7762
 30
0.0
 10
-78.357
 20
-14.967
 30
0.0
 10
-80.656
 20
-12.8667
 30
0.0
 10
-83.4705
 20
-12.1665
 30
0.0
  0
SPLINE
  5
94
330
1F
100
AcDbEntity
  8
layer 1
 62
     7
370
     9
100
AcDbSpline
210
0.0
220
0.0
230
1.0
 70
    11
 71
     3
 72
    12
 73
     8
 74
     0
 42
0.0000000001
 43
0.0000000001
 12
1.0
 22
0.0
 32
0.0
 13
1.0
 23
0.0
 33
0.0
 40
0.0
 40
0.0
 40
0.0
 40
0.0
 40
0.3333333333333333
 40
0.3333333333333333
 40
0.3333333333333333
 40
0.3333333333333333
 40
1.0
 40
1.0
 40
1.0
 40
1.0
 10
-83.4705
 20
-59.1446
 30
0.0
 10
-80.656
 20
-59.8448
 30
0.0
 10
-78.357
 20
-61.945
 30
0.0
 10
-77.3295
 20
-64.7546
 30
0.0
 10
-77.3295
 20
-64.7546
 30
0.0
 10
-80.2503
 20
-64.2782
 30
0.0
 10
-82.6429
 20
-62.0922
 30
0.0
 10
-83.4705
 20
-59.1446
 30
0.0
  0
SPLINE
  5
95
330
1F
100
AcDbEntity
  8
layer 1
 62
     7
370
     9
100
AcDbSpline
210
0.0
220
0.0
230
1.0
 70
    11
 71
     3
 72
    12
 73
     8
 74
     0
 42
0.0000000001
 43
0.0000000001
 12
1.0
 22
0.0
 32
0.0
 13
1.0
 23
0.0
 33
0.0
 40
0.0
 40
0.0
 40
0.0
 40
0.0
 40
0.3333333333333333
 40
0.3333333333333333
 40
0.3333333333333333
 40
0.3333333333333333
 40
1.0
 40
1.0
 40
1.0
 40
1.0
 10
-83.4705
 20
-76.257
 30
0.0
 10
-82.6429
 20
-73.3095
 30
0.0
 10
-80.2503
 20
-71.1235
 30
0.0
 10
-77.3295
 20
-70.6471
 30
0.0
 10
-77.3295
 20
-70.6471
 30
0.0
 10
-78.357
 20
-73.4566
 30
0.0
 10
-80.656
 20
-75.5567
 30
0.0
 10
-83.4705
 20
-76.257
 30
0.0
  0
SPLINE
  5
96
330
1F
100
AcDbEntity
  8
layer 1
 62
     7
370
     9
100
AcDbSpline
210
0.0
220
0.0
230
1.0
 70
    11
 71
     3
 72
    36
 73
    32
 74
     0
 42
0.0000000001
 43
0.0000000001
 12
1.0
 22
0.0
 32
0.0
 13
1.0
 23
0.0
 33
0.0
 40
0.0
 40
0.0
 40
0.0
 40
0.0
 40
0.1111111111111111
 40
0.1111111111111111
 40
0.1111111111111111
 40
0.1111111111111111
 40
0.2222222222222222
 40
0.2222222222222222
 40
0.2222222222222222
 40
0.2222222222222222
 40
0.3333333333333333
 40
0.3333333333333333
 40
0.3333333333333333
 40
0.3333333333333333
 40
0.4444444444444444
 40
0.4444444444444444
 40
0.4444444444444444
 40
0.4444444444444444
 40
0.5555555555555556
 40
0.5555555555555556
 40
0.5555555555555556
 40
0.5555555555555556
 40
0.6666666666666666
 40
0.6666666666666666
 40
0.6666666666666666
 40
0.6666666666666666
 40
0.7777777777777778
 40
0.7777777777777778
 40
0.7777777777777778
 40
0.7777777777777778
 40
1.0
 40
1.0
 40
1.0
 40
1.0
 10
-89.1838
 20
-68.3061
 30
0.0
 10
-88.4092
 20
-69.3507
 30
0.0
 10
-87.286
 20
-70.0562
 30
0.0
 10
-86.0356
 20
-70.2837
 30
0.0
 10
-86.0356
 20
-70.2837
 30
0.0
 10
-86.5328
 20
-71.5702
 30
0.0
 10
-86.3252
 20
-73.0351
 30
0.0
 10
-85.4913
 20
-74.1179
 30
0.0
 10
-85.4913
 20
-74.1179
 30
0.0
 10
-83.0838
 20
-71.2563
 30
0.0
 10
-80.0361
 20
-69.0528
 30
0.0
 10
-76.616
 20
-67.7009
 30
0.0
 10
-76.616
 20
-67.7009
 30
0.0
 10
-80.0361
 20
-66.3489
 30
0.0
 10
-83.0838
 20
-64.1454
 30
0.0
 10
-85.4913
 20
-61.2837
 30
0.0
 10
-85.4913
 20
-61.2837
 30
0.0
 10
-86.3252
 20
-62.3666
 30
0.0
 10
-86.5328
 20
-63.8313
 30
0.0
 10
-86.0356
 20
-65.1177
 30
0.0
 10
-86.0356
 20
-65.1177
 30
0.0
 10
-87.286
 20
-65.3455
 30
0.0
 10
-88.4092
 20
-66.051
 30
0.0
 10
-89.1838
 20
-67.0953
 30
0.0
 10
-89.1838
 20
-67.0953
 30
0.0
 10
-89.3568
 20
-67.2451
 30
0.0
 10
-89.457
 20
-67.4671
 30
0.0
 10
-89.457
 20
-67.7009
 30
0.0
 10
-89.457
 20
-67.7009
 30
0.0
 10
-89.457
 20
-67.9346
 30
0.0
 10
-89.3568
 20
-68.1567
 30
0.0
 10
-89.1838
 20
-68.3061
 30
0.0
  0
SPLINE
  5
97
330
1F
100
AcDbEntity
  8
layer 1
 62
     7
370
     9
100
AcDbSpline
210
0.0
220
0.0
230
1.0
 70
    11
 71
     3
 72
    36
 73
    32
 74
     0
 42
0.0000000001
 43
0.0000000001
 12
1.0
 22
0.0
 32
0.0
 13
1.0
 23
0.0
 33
0.0
 40
0.0
 40
0.0
 40
0.0
 40
0.0
 40
0.1111111111111111
 40
0.1111111111111111
 40
0.1111111111111111
 40
0.1111111111111111
 40
0.2222222222222222
 40
0.2222222222222222
 40
0.2222222222222222
 40
0.2222222222222222
 40
0.3333333333333333
 40
0.3333333333333333
 40
0.3333333333333333
 40
0.3333333333333333
 40
0.4444444444444444
 40
0.4444444444444444
 40
0.4444444444444444
 40
0.4444444444444444
 40
0.5555555555555556
 40
0.5555555555555556
 40
0.5555555555555556
 40
0.5555555555555556
 40
0.6666666666666666
 40
0.6666666666666666
 40
0.6666666666666666
 40
0.6666666666666666
 40
0.7777777777777778
 40
0.7777777777777778
 40
0.7777777777777778
 40
0.7777777777777778
 40
1.0
 40
1.0
 40
1.0
 40
1.0
 10
-73.6371
 20
-53.898
 30
0.0
 10
-72.5639
 20
-54.4978
 30
0.0
 10
-71.8281
 20
-55.5912
 30
0.0
 10
-71.6549
 20
-56.844
 30
0.0
 10
-71.6549
 20
-56.844
 30
0.0
 10
-70.2246
 20
-56.2469
 30
0.0
 10
-68.6112
 20
-56.3504
 30
0.0
 10
-67.263
 20
-57.1265
 30
0.0
 10
-67.263
 20
-57.1265
 30
0.0
 10
-70.2048
 20
-59.2615
 30
0.0
 10
-72.6377
 20
-62.0666
 30
0.0
 10
-74.3754
 20
-65.3272
 30
0.0
 10
-74.3754
 20
-65.3272
 30
0.0
 10
-76.1135
 20
-62.0666
 30
0.0
 10
-78.5464
 20
-59.2615
 30
0.0
 10
-81.4882
 20
-57.1265
 30
0.0
 10
-81.4882
 20
-57.1265
 30
0.0
 10
-80.1399
 20
-56.3504
 30
0.0
 10
-78.5265
 20
-56.2469
 30
0.0
 10
-77.0961
 20
-56.844
 30
0.0
 10
-77.0961
 20
-56.844
 30
0.0
 10
-76.9229
 20
-55.5912
 30
0.0
 10
-76.1874
 20
-54.4978
 30
0.0
 10
-75.1141
 20
-53.898
 30
0.0
 10
-75.1141
 20
-53.898
 30
0.0
 10
-74.9001
 20
-53.7339
 30
0.0
 10
-74.6416
 20
-53.6439
 30
0.0
 10
-74.3754
 20
-53.6408
 30
0.0
 10
-74.3754
 20
-53.6408
 30
0.0
 10
-74.1096
 20
-53.6439
 30
0.0
 10
-73.8511
 20
-53.7339
 30
0.0
 10
-73.6371
 20
-53.898
 30
0.0
  0
SPLINE
  5
98
330
1F
100
AcDbEntity
  8
layer 1
 62
     7
370
     9
100
AcDbSpline
210
0.0
220
0.0
230
1.0
 70
    11
 71
     3
 72
    12
 73
     8
 74
     0
 42
0.0000000001
 43
0.0000000001
 12
1.0
 22
0.0
 32
0.0
 13
1.0
 23
0.0
 33
0.0
 40
0.0
 40
0.0
 40
0.0
 40
0.0
 40
0.3333333333333333
 40
0.3333333333333333
 40
0.3333333333333333
 40
0.3333333333333333
 40
1.0
 40
1.0
 40
1.0
 40
1.0
 10
-65.2808
 20
-59.1446
 30
0.0
 10
-66.1081
 20
-62.0922
 30
0.0
 10
-68.5009
 20
-64.2782
 30
0.0
 10
-71.4216
 20
-64.7546
 30
0.0
 10
-71.4216
 20
-64.7546
 30
0.0
 10
-70.3943
 20
-61.945
 30
0.0
 10
-68.0953
 20
-59.8448
 30
0.0
 10
-65.2808
 20
-59.1446
 30
0.0
  0
SPLINE
  5
99
330
1F
100
AcDbEntity
  8
layer 1
 62
     7
370
     9
100
AcDbSpline
210
0.0
220
0.0
230
1.0
 70
    11
 71
     3
 72
    36
 73
    32
 74
     0
 42
0.0000000001
 43
0.0000000001
 12
1.0
 22
0.0
 32
0.0
 13
1.0
 23
0.0
 33
0.0
 40
0.0
 40
0.0
 40
0.0
 40
0.0
 40
0.1111111111111111
 40
0.1111111111111111
 40
0.1111111111111111
 40
0.1111111111111111
 40
0.2222222222222222
 40
0.2222222222222222
 40
0.2222222222222222
 40
0.2222222222222222
 40
0.3333333333333333
 40
0.3333333333333333
 40
0.3333333333333333
 40
0.3333333333333333
 40
0.4444444444444444
 40
0.4444444444444444
 40
0.4444444444444444
 40
0.4444444444444444
 40
0.5555555555555556
 40
0.5555555555555556
 40
0.5555555555555556
 40
0.5555555555555556
 40
0.6666666666666666
 40
0.6666666666666666
 40
0.6666666666666666
 40
0.6666666666666666
 40
0.7777777777777778
 40
0.7777777777777778
 40
0.7777777777777778
 40
0.7777777777777778
 40
1.0
 40
1.0
 40
1.0
 40
1.0
 10
-73.6371
 20
-81.5037
 30
0.0
 10
-72.5639
 20
-80.9037
 30
0.0
 10
-71.8281
 20
-79.8104
 30
0.0
 10
-71.6549
 20
-78.5576
 30
0.0
 10
-71.6549
 20
-78.5576
 30
0.0
 10
-70.2246
 20
-79.1549
 30
0.0
 10
-68.6112
 20
-79.0512
 30
0.0
 10
-67.263
 20
-78.2749
 30
0.0
 10
-67.263
 20
-78.2749
 30
0.0
 10
-70.2048
 20
-76.1401
 30
0.0
 10
-72.6377
 20
-73.3351
 30
0.0
 10
-74.3754
 20
-70.0744
 30
0.0
 10
-74.3754
 20
-70.0744
 30
0.0
 10
-76.1135
 20
-73.3351
 30
0.0
 10
-78.5464
 20
-76.1401
 30
0.0
 10
-81.4882
 20
-78.2749
 30
0.0
 10
-81.4882
 20
-78.2749
 30
0.0
 10
-80.1399
 20
-79.0512
 30
0.0
 10
-78.5265
 20
-79.1549
 30
0.0
 10
-77.0961
 20
-78.5576
 30
0.0
 10
-77.0961
 20
-78.5576
 30
0.0
 10
-76.9229
 20
-79.8104
 30
0.0
 10
-76.1874
 20
-80.9037
 30
0.0
 10
-75.1141
 20
-81.5037
 30
0.0
 10
-75.1141
 20
-81.5037
 30
0.0
 10
-74.9001
 20
-81.6678
 30
0.0
 10
-74.6416
 20
-81.7578
 30
0.0
 10
-74.3754
 20
-81.7608
 30
0.0
 10
-74.3754
 20
-81.7608
 30
0.0
 10
-74.1096
 20
-81.7578
 30
0.0
 10
-73.8511
 20
-81.6678
 30
0.0
 10
-73.6371
 20
-81.5037
 30
0.0
  0
SPLINE
  5
9A
330
1F
100
AcDbEntity
  8
layer 1
 62
     7
370
     9
100
AcDbSpline
210
0.0
220
0.0
230
1.0
 70
    11
 71
     3
 72
    12
 73
     8
 74
     0
 42
0.0000000001
 43
0.0000000001
 12
1.0
 22
0.0
 32
0.0
 13
1.0
 23
0.0
 33
0.0
 40
0.0
 40
0.0
 40
0.0
 40
0.0
 40
0.3333333333333333
 40
0.3333333333333333
 40
0.3333333333333333
 40
0.3333333333333333
 40
1.0
 40
1.0
 40
1.0
 40
1.0
 10
-65.2808
 20
-76.257
 30
0.0
 10
-66.1081
 20
-73.3095
 30
0.0
 10
-68.5009
 20
-71.1235
 30
0.0
 10
-71.4216
 20
-70.6471
 30
0.0
 10
-71.4216
 20
-70.6471
 30
0.0
 10
-70.3943
 20
-73.4566
 30
0.0
 10
-68.0953
 20
-75.5567
 30
0.0
 10
-65.2808
 20
-76.257
 30
0.0
  0
SPLINE
  5
9B
330
1F
100
AcDbEntity
  8
layer 1
 62
     7
370
     9
100
AcDbSpline
210
0.0
220
0.0
230
1.0
 70
    11
 71
     3
 72
    36
 73
    32
 74
     0
 42
0.0000000001
 43
0.0000000001
 12
1.0
 22
0.0
 32
0.0
 13
1.0
 23
0.0
 33
0.0
 40
0.0
 40
0.0
 40
0.0
 40
0.0
 40
0.1111111111111111
 40
0.1111111111111111
 40
0.1111111111111111
 40
0.1111111111111111
 40
0.2222222222222222
 40
0.2222222222222222
 40
0.2222222222222222
 40
0.2222222222222222
 40
0.3333333333333333
 40
0.3333333333333333
 40
0.3333333333333333
 40
0.3333333333333333
 40
0.4444444444444444
 40
0.4444444444444444
 40
0.4444444444444444
 40
0.4444444444444444
 40
0.5555555555555556
 40
0.5555555555555556
 40
0.5555555555555556
 40
0.5555555555555556
 40
0.6666666666666666
 40
0.6666666666666666
 40
0.6666666666666666
 40
0.6666666666666666
 40
0.7777777777777778
 40
0.7777777777777778
 40
0.7777777777777778
 40
0.7777777777777778
 40
1.0
 40
1.0
 40
1.0
 40
1.0
 10
-59.5673
 20
-68.3061
 30
0.0
 10
-60.3419
 20
-69.3507
 30
0.0
 10
-61.4651
 20
-70.0562
 30
0.0
 10
-62.7155
 20
-70.2837
 30
0.0
 10
-62.7155
 20
-70.2837
 30
0.0
 10
-62.2182
 20
-71.5702
 30
0.0
 10
-62.4262
 20
-73.0351
 30
0.0
 10
-63.2596
 20
-74.1179
 30
0.0
 10
-63.2596
 20
-74.1179
 30
0.0
 10
-65.6674
 20
-71.2563
 30
0.0
 10
-68.7151
 20
-69.0528
 30
0.0
 10
-72.1349
 20
-67.7009
 30
0.0
 10
-72.1349
 20
-67.7009
 30
0.0
 10
-68.7151
 20
-66.3489
 30
0.0
 10
-65.6674
 20
-64.1454
 30
0.0
 10
-63.2596
 20
-61.2837
 30
0.0
 10
-63.2596
 20
-61.2837
 30
0.0
 10
-62.4262
 20
-62.3666
 30
0.0
 10
-62.2182
 20
-63.8313
 30
0.0
 10
-62.7155
 20
-65.1177
 30
0.0
 10
-62.7155
 20
-65.1177
 30
0.0
 10
-61.4651
 20
-65.3455
 30
0.0
 10
-60.3419
 20
-66.051
 30
0.0
 10
-59.5673
 20
-67.0953
 30
0.0
 10
-59.5673
 20
-67.0953
 30
0.0
 10
-59.3943
 20
-67.2451
 30
0.0
 10
-59.2943
 20
-67.4671
 30
0.0
 10
-59.2943
 20
-67.7009
 30
0.0
 10
-59.2943
 20
-67.7009
 30
0.0
 10
-59.2943
 20
-67.9346
 30
0.0
 10
-59.3943
 20
-68.1567
 30
0.0
 10
-59.5673
 20
-68.3061
 30
0.0
  0
SPLINE
  5
9C
330
1F
100
AcDbEntity
  8
layer 1
 62
     7
370
     9
100
AcDbSpline
210
0.0
220
0.0
230
1.0
 70
    11
 71
     3
 72
    12
 73
     8
 74
     0
 42
0.0000000001
 43
0.0000000001
 12
1.0
 22
0.0
 32
0.0
 13
1.0
 23
0.0
 33
0.0
 40
0.0
 40
0.0
 40
0.0
 40
0.0
 40
0.3333333333333333
 40
0.3333333333333333
 40
0.3333333333333333
 40
0.3333333333333333
 40
1.0
 40
1.0
 40
1.0
 40
1.0
 10
-104.6391
 20
-52.7678
 30
0.0
 10
-103.8116
 20
-49.8203
 30
0.0
 10
-101.4189
 20
-47.6345
 30
0.0
 10
-98.4979
 20
-47.1578
 30
0.0
 10
-98.4979
 20
-47.1578
 30
0.0
 10
-99.5256
 20
-49.9674
 30
0.0
 10
-101.8246
 20
-52.0676
 30
0.0
 10
-104.6391
 20
-52.7678
 30
0.0
  0
SPLINE
  5
9D
330
1F
100
AcDbEntity
  8
layer 1
 62
     7
370
     9
100
AcDbSpline
210
0.0
220
0.0
230
1.0
 70
    11
 71
     3
 72
    12
 73
     8
 74
     0
 42
0.0000000001
 43
0.0000000001
 12
1.0
 22
0.0
 32
0.0
 13
1.0
 23
0.0
 33
0.0
 40
0.0
 40
0.0
 40
0.0
 40
0.0
 40
0.3333333333333333
 40
0.3333333333333333
 40
0.3333333333333333
 40
0.3333333333333333
 40
1.0
 40
1.0
 40
1.0
 40
1.0
 10
-104.6391
 20
-35.6555
 30
0.0
 10
-103.8116
 20
-38.6031
 30
0.0
 10
-101.4189
 20
-40.7889
 30
0.0
 10
-98.4979
 20
-41.2655
 30
0.0
 10
-98.4979
 20
-41.2655
 30
0.0
 10
-99.5256
 20
-38.456
 30
0.0
 10
-101.8246
 20
-36.3558
 30
0.0
 10
-104.6391
 20
-35.6555
 30
0.0
  0
SPLINE
  5
9E
330
1F
100
AcDbEntity
  8
layer 1
 62
     7
370
     9
100
AcDbSpline
210
0.0
220
0.0
230
1.0
 70
    11
 71
     3
 72
    36
 73
    32
 74
     0
 42
0.0000000001
 43
0.0000000001
 12
1.0
 22
0.0
 32
0.0
 13
1.0
 23
0.0
 33
0.0
 40
0.0
 40
0.0
 40
0.0
 40
0.0
 40
0.1111111111111111
 40
0.1111111111111111
 40
0.1111111111111111
 40
0.1111111111111111
 40
0.2222222222222222
 40
0.2222222222222222
 40
0.2222222222222222
 40
0.2222222222222222
 40
0.3333333333333333
 40
0.3333333333333333
 40
0.3333333333333333
 40
0.3333333333333333
 40
0.4444444444444444
 40
0.4444444444444444
 40
0.4444444444444444
 40
0.4444444444444444
 40
0.5555555555555556
 40
0.5555555555555556
 40
0.5555555555555556
 40
0.5555555555555556
 40
0.6666666666666666
 40
0.6666666666666666
 40
0.6666666666666666
 40
0.6666666666666666
 40
0.7777777777777778
 40
0.7777777777777778
 40
0.7777777777777778
 40
0.7777777777777778
 40
1.0
 40
1.0
 40
1.0
 40
1.0
 10
-110.3524
 20
-43.6063
 30
0.0
 10
-109.5778
 20
-42.562
 30
0.0
 10
-108.4547
 20
-41.8565
 30
0.0
 10
-107.2042
 20
-41.6287
 30
0.0
 10
-107.2042
 20
-41.6287
 30
0.0
 10
-107.7015
 20
-40.3422
 30
0.0
 10
-107.4935
 20
-38.8773
 30
0.0
 10
-106.66
 20
-37.7947
 30
0.0
 10
-106.66
 20
-37.7947
 30
0.0
 10
-104.2524
 20
-40.6561
 30
0.0
 10
-101.2047
 20
-42.8596
 30
0.0
 10
-97.7846
 20
-44.2118
 30
0.0
 10
-97.7846
 20
-44.2118
 30
0.0
 10
-101.2047
 20
-45.5638
 30
0.0
 10
-104.2524
 20
-47.7673
 30
0.0
 10
-106.66
 20
-50.6288
 30
0.0
 10
-106.66
 20
-50.6288
 30
0.0
 10
-107.4935
 20
-49.546
 30
0.0
 10
-107.7015
 20
-48.0812
 30
0.0
 10
-107.2042
 20
-46.7946
 30
0.0
 10
-107.2042
 20
-46.7946
 30
0.0
 10
-108.4547
 20
-46.5672
 30
0.0
 10
-109.5778
 20
-45.8614
 30
0.0
 10
-110.3524
 20
-44.8171
 30
0.0
 10
-110.3524
 20
-44.8171
 30
0.0
 10
-110.5254
 20
-44.6674
 30
0.0
 10
-110.6256
 20
-44.4456
 30
0.0
 10
-110.6256
 20
-44.2118
 30
0.0
 10
-110.6256
 20
-44.2118
 30
0.0
 10
-110.6256
 20
-43.9778
 30
0.0
 10
-110.5254
 20
-43.756
 30
0.0
 10
-110.3524
 20
-43.6063
 30
0.0
  0
SPLINE
  5
9F
330
1F
100
AcDbEntity
  8
layer 1
 62
     7
370
     9
100
AcDbSpline
210
0.0
220
0.0
230
1.0
 70
    11
 71
     3
 72
    36
 73
    32
 74
     0
 42
0.0000000001
 43
0.0000000001
 12
1.0
 22
0.0
 32
0.0
 13
1.0
 23
0.0
 33
0.0
 40
0.0
 40
0.0
 40
0.0
 40
0.0
 40
0.1111111111111111
 40
0.1111111111111111
 40
0.1111111111111111
 40
0.1111111111111111
 40
0.2222222222222222
 40
0.2222222222222222
 40
0.2222222222222222
 40
0.2222222222222222
 40
0.3333333333333333
 40
0.3333333333333333
 40
0.3333333333333333
 40
0.3333333333333333
 40
0.4444444444444444
 40
0.4444444444444444
 40
0.4444444444444444
 40
0.4444444444444444
 40
0.5555555555555556
 40
0.5555555555555556
 40
0.5555555555555556
 40
0.5555555555555556
 40
0.6666666666666666
 40
0.6666666666666666
 40
0.6666666666666666
 40
0.6666666666666666
 40
0.7777777777777778
 40
0.7777777777777778
 40
0.7777777777777778
 40
0.7777777777777778
 40
1.0
 40
1.0
 40
1.0
 40
1.0
 10
-94.8058
 20
-58.0147
 30
0.0
 10
-93.7325
 20
-57.4146
 30
0.0
 10
-92.9968
 20
-56.3215
 30
0.0
 10
-92.8235
 20
-55.0684
 30
0.0
 10
-92.8235
 20
-55.0684
 30
0.0
 10
-91.3933
 20
-55.6658
 30
0.0
 10
-89.7799
 20
-55.562
 30
0.0
 10
-88.4317
 20
-54.7858
 30
0.0
 10
-88.4317
 20
-54.7858
 30
0.0
 10
-91.3732
 20
-52.6509
 30
0.0
 10
-93.8061
 20
-49.8461
 30
0.0
 10
-95.5441
 20
-46.5854
 30
0.0
 10
-95.5441
 20
-46.5854
 30
0.0
 10
-97.2822
 20
-49.8461
 30
0.0
 10
-99.715
 20
-52.6509
 30
0.0
 10
-102.6569
 20
-54.7858
 30
0.0
 10
-102.6569
 20
-54.7858
 30
0.0
 10
-101.3085
 20
-55.562
 30
0.0
 10
-99.6952
 20
-55.6658
 30
0.0
 10
-98.265
 20
-55.0684
 30
0.0
 10
-98.265
 20
-55.0684
 30
0.0
 10
-98.0915
 20
-56.3215
 30
0.0
 10
-97.356
 20
-57.4146
 30
0.0
 10
-96.2827
 20
-58.0147
 30
0.0
 10
-96.2827
 20
-58.0147
 30
0.0
 10
-96.0688
 20
-58.1788
 30
0.0
 10
-95.8102
 20
-58.2688
 30
0.0
 10
-95.5441
 20
-58.2717
 30
0.0
 10
-95.5441
 20
-58.2717
 30
0.0
 10
-95.2783
 20
-58.2688
 30
0.0
 10
-95.0197
 20
-58.1788
 30
0.0
 10
-94.8058
 20
-58.0147
 30
0.0
  0
SPLINE
  5
A0
330
1F
100
AcDbEntity
  8
layer 1
 62
     7
370
     9
100
AcDbSpline
210
0.0
220
0.0
230
1.0
 70
    11
 71
     3
 72
    12
 73
     8
 74
     0
 42
0.0000000001
 43
0.0000000001
 12
1.0
 22
0.0
 32
0.0
 13
1.0
 23
0.0
 33
0.0
 40
0.0
 40
0.0
 40
0.0
 40
0.0
 40
0.3333333333333333
 40
0.3333333333333333
 40
0.3333333333333333
 40
0.3333333333333333
 40
1.0
 40
1.0
 40
1.0
 40
1.0
 10
-86.4493
 20
-52.7678
 30
0.0
 10
-87.2766
 20
-49.8203
 30
0.0
 10
-89.6693
 20
-47.6345
 30
0.0
 10
-92.5902
 20
-47.1578
 30
0.0
 10
-92.5902
 20
-47.1578
 30
0.0
 10
-91.5629
 20
-49.9674
 30
0.0
 10
-89.2639
 20
-52.0676
 30
0.0
 10
-86.4493
 20
-52.7678
 30
0.0
  0
SPLINE
  5
A1
330
1F
100
AcDbEntity
  8
layer 1
 62
     7
370
     9
100
AcDbSpline
210
0.0
220
0.0
230
1.0
 70
    11
 71
     3
 72
    36
 73
    32
 74
     0
 42
0.0000000001
 43
0.0000000001
 12
1.0
 22
0.0
 32
0.0
 13
1.0
 23
0.0
 33
0.0
 40
0.0
 40
0.0
 40
0.0
 40
0.0
 40
0.1111111111111111
 40
0.1111111111111111
 40
0.1111111111111111
 40
0.1111111111111111
 40
0.2222222222222222
 40
0.2222222222222222
 40
0.2222222222222222
 40
0.2222222222222222
 40
0.3333333333333333
 40
0.3333333333333333
 40
0.3333333333333333
 40
0.3333333333333333
 40
0.4444444444444444
 40
0.4444444444444444
 40
0.4444444444444444
 40
0.4444444444444444
 40
0.5555555555555556
 40
0.5555555555555556
 40
0.5555555555555556
 40
0.5555555555555556
 40
0.6666666666666666
 40
0.6666666666666666
 40
0.6666666666666666
 40
0.6666666666666666
 40
0.7777777777777778
 40
0.7777777777777778
 40
0.7777777777777778
 40
0.7777777777777778
 40
1.0
 40
1.0
 40
1.0
 40
1.0
 10
-94.8058
 20
-30.4087
 30
0.0
 10
-93.7325
 20
-31.0088
 30
0.0
 10
-92.9968
 20
-32.1019
 30
0.0
 10
-92.8235
 20
-33.355
 30
0.0
 10
-92.8235
 20
-33.355
 30
0.0
 10
-91.3933
 20
-32.7576
 30
0.0
 10
-89.7799
 20
-32.8614
 30
0.0
 10
-88.4317
 20
-33.6375
 30
0.0
 10
-88.4317
 20
-33.6375
 30
0.0
 10
-91.3732
 20
-35.7725
 30
0.0
 10
-93.8061
 20
-38.5773
 30
0.0
 10
-95.5441
 20
-41.8379
 30
0.0
 10
-95.5441
 20
-41.8379
 30
0.0
 10
-97.2822
 20
-38.5773
 30
0.0
 10
-99.715
 20
-35.7725
 30
0.0
 10
-102.6569
 20
-33.6375
 30
0.0
 10
-102.6569
 20
-33.6375
 30
0.0
 10
-101.3085
 20
-32.8614
 30
0.0
 10
-99.6952
 20
-32.7576
 30
0.0
 10
-98.265
 20
-33.355
 30
0.0
 10
-98.265
 20
-33.355
 30
0.0
 10
-98.0915
 20
-32.1019
 30
0.0
 10
-97.356
 20
-31.0088
 30
0.0
 10
-96.2827
 20
-30.4087
 30
0.0
 10
-96.2827
 20
-30.4087
 30
0.0
 10
-96.0688
 20
-30.2446
 30
0.0
 10
-95.8102
 20
-30.1546
 30
0.0
 10
-95.5441
 20
-30.1517
 30
0.0
 10
-95.5441
 20
-30.1517
 30
0.0
 10
-95.2783
 20
-30.1546
 30
0.0
 10
-95.0197
 20
-30.2446
 30
0.0
 10
-94.8058
 20
-30.4087
 30
0.0
  0
SPLINE
  5
A2
330
1F
100
AcDbEntity
  8
layer 1
 62
     7
370
     9
100
AcDbSpline
210
0.0
220
0.0
230
1.0
 70
    11
 71
     3
 72
    12
 73
     8
 74
     0
 42
0.0000000001
 43
0.0000000001
 12
1.0
 22
0.0
 32
0.0
 13
1.0
 23
0.0
 33
0.0
 40
0.0
 40
0.0
 40
0.0
 40
0.0
 40
0.3333333333333333
 40
0.3333333333333333
 40
0.3333333333333333
 40
0.3333333333333333
 40
1.0
 40
1.0
 40
1.0
 40
1.0
 10
-86.4493
 20
-35.6555
 30
0.0
 10
-87.2766
 20
-38.6031
 30
0.0
 10
-89.6693
 20
-40.7889
 30
0.0
 10
-92.5902
 20
-41.2655
 30
0.0
 10
-92.5902
 20
-41.2655
 30
0.0
 10
-91.5629
 20
-38.456
 30
0.0
 10
-89.2639
 20
-36.3558
 30
0.0
 10
-86.4493
 20
-35.6555
 30
0.0
  0
SPLINE
  5
A3
330
1F
100
AcDbEntity
  8
layer 1
 62
     7
370
     9
100
AcDbSpline
210
0.0
220
0.0
230
1.0
 70
    11
 71
     3
 72
    36
 73
    32
 74
     0
 42
0.0000000001
 43
0.0000000001
 12
1.0
 22
0.0
 32
0.0
 13
1.0
 23
0.0
 33
0.0
 40
0.0
 40
0.0
 40
0.0
 40
0.0
 40
0.1111111111111111
 40
0.1111111111111111
 40
0.1111111111111111
 40
0.1111111111111111
 40
0.2222222222222222
 40
0.2222222222222222
 40
0.2222222222222222
 40
0.2222222222222222
 40
0.3333333333333333
 40
0.3333333333333333
 40
0.3333333333333333
 40
0.3333333333333333
 40
0.4444444444444444
 40
0.4444444444444444
 40
0.4444444444444444
 40
0.4444444444444444
 40
0.5555555555555556
 40
0.5555555555555556
 40
0.5555555555555556
 40
0.5555555555555556
 40
0.6666666666666666
 40
0.6666666666666666
 40
0.6666666666666666
 40
0.6666666666666666
 40
0.7777777777777778
 40
0.7777777777777778
 40
0.7777777777777778
 40
0.7777777777777778
 40
1.0
 40
1.0
 40
1.0
 40
1.0
 10
-80.7361
 20
-43.6063
 30
0.0
 10
-81.5107
 20
-42.562
 30
0.0
 10
-82.6335
 20
-41.8565
 30
0.0
 10
-83.8842
 20
-41.6287
 30
0.0
 10
-83.8842
 20
-41.6287
 30
0.0
 10
-83.3867
 20
-40.3422
 30
0.0
 10
-83.5947
 20
-38.8773
 30
0.0
 10
-84.4282
 20
-37.7947
 30
0.0
 10
-84.4282
 20
-37.7947
 30
0.0
 10
-86.836
 20
-40.6561
 30
0.0
 10
-89.8838
 20
-42.8596
 30
0.0
 10
-93.3038
 20
-44.2118
 30
0.0
 10
-93.3038
 20
-44.2118
 30
0.0
 10
-89.8838
 20
-45.5638
 30
0.0
 10
-86.836
 20
-47.7673
 30
0.0
 10
-84.4282
 20
-50.6288
 30
0.0
 10
-84.4282
 20
-50.6288
 30
0.0
 10
-83.5947
 20
-49.546
 30
0.0
 10
-83.3867
 20
-48.0812
 30
0.0
 10
-83.8842
 20
-46.7946
 30
0.0
 10
-83.8842
 20
-46.7946
 30
0.0
 10
-82.6335
 20
-46.5672
 30
0.0
 10
-81.5107
 20
-45.8614
 30
0.0
 10
-80.7361
 20
-44.8171
 30
0.0
 10
-80.7361
 20
-44.8171
 30
0.0
 10
-80.5628
 20
-44.6674
 30
0.0
 10
-80.4629
 20
-44.4456
 30
0.0
 10
-80.4629
 20
-44.2118
 30
0.0
 10
-80.4629
 20
-44.2118
 30
0.0
 10
-80.4629
 20
-43.9778
 30
0.0
 10
-80.5628
 20
-43.756
 30
0.0
 10
-80.7361
 20
-43.6063
 30
0.0
  0
SPLINE
  5
A4
330
1F
100
AcDbEntity
  8
layer 1
 62
     7
370
     9
100
AcDbSpline
210
0.0
220
0.0
230
1.0
 70
    11
 71
     3
 72
    12
 73
     8
 74
     0
 42
0.0000000001
 43
0.0000000001
 12
1.0
 22
0.0
 32
0.0
 13
1.0
 23
0.0
 33
0.0
 40
0.0
 40
0.0
 40
0.0
 40
0.0
 40
0.3333333333333333
 40
0.3333333333333333
 40
0.3333333333333333
 40
0.3333333333333333
 40
1.0
 40
1.0
 40
1.0
 40
1.0
 10
-83.4705
 20
-29.2788
 30
0.0
 10
-82.6429
 20
-26.3313
 30
0.0
 10
-80.2503
 20
-24.1452
 30
0.0
 10
-77.3295
 20
-23.6688
 30
0.0
 10
-77.3295
 20
-23.6688
 30
0.0
 10
-78.357
 20
-26.4784
 30
0.0
 10
-80.656
 20
-28.5786
 30
0.0
 10
-83.4705
 20
-29.2788
 30
0.0
  0
SPLINE
  5
A5
330
1F
100
AcDbEntity
  8
layer 1
 62
     7
370
     9
100
AcDbSpline
210
0.0
220
0.0
230
1.0
 70
    11
 71
     3
 72
    36
 73
    32
 74
     0
 42
0.0000000001
 43
0.0000000001
 12
1.0
 22
0.0
 32
0.0
 13
1.0
 23
0.0
 33
0.0
 40
0.0
 40
0.0
 40
0.0
 40
0.0
 40
0.1111111111111111
 40
0.1111111111111111
 40
0.1111111111111111
 40
0.1111111111111111
 40
0.2222222222222222
 40
0.2222222222222222
 40
0.2222222222222222
 40
0.2222222222222222
 40
0.3333333333333333
 40
0.3333333333333333
 40
0.3333333333333333
 40
0.3333333333333333
 40
0.4444444444444444
 40
0.4444444444444444
 40
0.4444444444444444
 40
0.4444444444444444
 40
0.5555555555555556
 40
0.5555555555555556
 40
0.5555555555555556
 40
0.5555555555555556
 40
0.6666666666666666
 40
0.6666666666666666
 40
0.6666666666666666
 40
0.6666666666666666
 40
0.7777777777777778
 40
0.7777777777777778
 40
0.7777777777777778
 40
0.7777777777777778
 40
1.0
 40
1.0
 40
1.0
 40
1.0
 10
-89.1838
 20
-20.1173
 30
0.0
 10
-88.4092
 20
-19.0727
 30
0.0
 10
-87.286
 20
-18.3672
 30
0.0
 10
-86.0356
 20
-18.1397
 30
0.0
 10
-86.0356
 20
-18.1397
 30
0.0
 10
-86.5328
 20
-16.8532
 30
0.0
 10
-86.3252
 20
-15.3883
 30
0.0
 10
-85.4913
 20
-14.3054
 30
0.0
 10
-85.4913
 20
-14.3054
 30
0.0
 10
-83.0838
 20
-17.1671
 30
0.0
 10
-80.0361
 20
-19.3705
 30
0.0
 10
-76.616
 20
-20.7225
 30
0.0
 10
-76.616
 20
-20.7225
 30
0.0
 10
-80.0361
 20
-22.0745
 30
0.0
 10
-83.0838
 20
-24.2782
 30
0.0
 10
-85.4913
 20
-27.1397
 30
0.0
 10
-85.4913
 20
-27.1397
 30
0.0
 10
-86.3252
 20
-26.057
 30
0.0
 10
-86.5328
 20
-24.5921
 30
0.0
 10
-86.0356
 20
-23.3056
 30
0.0
 10
-86.0356
 20
-23.3056
 30
0.0
 10
-87.286
 20
-23.0779
 30
0.0
 10
-88.4092
 20
-22.3724
 30
0.0
 10
-89.1838
 20
-21.328
 30
0.0
 10
-89.1838
 20
-21.328
 30
0.0
 10
-89.3568
 20
-21.1783
 30
0.0
 10
-89.457
 20
-20.9566
 30
0.0
 10
-89.457
 20
-20.7225
 30
0.0
 10
-89.457
 20
-20.7225
 30
0.0
 10
-89.457
 20
-20.4887
 30
0.0
 10
-89.3568
 20
-20.2667
 30
0.0
 10
-89.1838
 20
-20.1173
 30
0.0
  0
SPLINE
  5
A6
330
1F
100
AcDbEntity
  8
layer 1
 62
     7
370
     9
100
AcDbSpline
210
0.0
220
0.0
230
1.0
 70
    11
 71
     3
 72
    36
 73
    32
 74
     0
 42
0.0000000001
 43
0.0000000001
 12
1.0
 22
0.0
 32
0.0
 13
1.0
 23
0.0
 33
0.0
 40
0.0
 40
0.0
 40
0.0
 40
0.0
 40
0.1111111111111111
 40
0.1111111111111111
 40
0.1111111111111111
 40
0.1111111111111111
 40
0.2222222222222222
 40
0.2222222222222222
 40
0.2222222222222222
 40
0.2222222222222222
 40
0.3333333333333333
 40
0.3333333333333333
 40
0.3333333333333333
 40
0.3333333333333333
 40
0.4444444444444444
 40
0.4444444444444444
 40
0.4444444444444444
 40
0.4444444444444444
 40
0.5555555555555556
 40
0.5555555555555556
 40
0.5555555555555556
 40
0.5555555555555556
 40
0.6666666666666666
 40
0.6666666666666666
 40
0.6666666666666666
 40
0.6666666666666666
 40
0.7777777777777778
 40
0.7777777777777778
 40
0.7777777777777778
 40
0.7777777777777778
 40
1.0
 40
1.0
 40
1.0
 40
1.0
 10
-73.6371
 20
-34.5257
 30
0.0
 10
-72.5639
 20
-33.9256
 30
0.0
 10
-71.8281
 20
-32.8322
 30
0.0
 10
-71.6549
 20
-31.5793
 30
0.0
 10
-71.6549
 20
-31.5793
 30
0.0
 10
-70.2246
 20
-32.1768
 30
0.0
 10
-68.6112
 20
-32.073
 30
0.0
 10
-67.263
 20
-31.2968
 30
0.0
 10
-67.263
 20
-31.2968
 30
0.0
 10
-70.2048
 20
-29.1619
 30
0.0
 10
-72.6377
 20
-26.3568
 30
0.0
 10
-74.3754
 20
-23.0961
 30
0.0
 10
-74.3754
 20
-23.0961
 30
0.0
 10
-76.1135
 20
-26.3568
 30
0.0
 10
-78.5464
 20
-29.1619
 30
0.0
 10
-81.4882
 20
-31.2968
 30
0.0
 10
-81.4882
 20
-31.2968
 30
0.0
 10
-80.1399
 20
-32.073
 30
0.0
 10
-78.5265
 20
-32.1768
 30
0.0
 10
-77.0961
 20
-31.5793
 30
0.0
 10
-77.0961
 20
-31.5793
 30
0.0
 10
-76.9229
 20
-32.8322
 30
0.0
 10
-76.1874
 20
-33.9256
 30
0.0
 10
-75.1141
 20
-34.5257
 30
0.0
 10
-75.1141
 20
-34.5257
 30
0.0
 10
-74.9001
 20
-34.6895
 30
0.0
 10
-74.6416
 20
-34.7795
 30
0.0
 10
-74.3754
 20
-34.7826
 30
0.0
 10
-74.3754
 20
-34.7826
 30
0.0
 10
-74.1096
 20
-34.7795
 30
0.0
 10
-73.8511
 20
-34.6895
 30
0.0
 10
-73.6371
 20
-34.5257
 30
0.0
  0
SPLINE
  5
A7
330
1F
100
AcDbEntity
  8
layer 1
 62
     7
370
     9
100
AcDbSpline
210
0.0
220
0.0
230
1.0
 70
    11
 71
     3
 72
    12
 73
     8
 74
     0
 42
0.0000000001
 43
0.0000000001
 12
1.0
 22
0.0
 32
0.0
 13
1.0
 23
0.0
 33
0.0
 40
0.0
 40
0.0
 40
0.0
 40
0.0
 40
0.3333333333333333
 40
0.3333333333333333
 40
0.3333333333333333
 40
0.3333333333333333
 40
1.0
 40
1.0
 40
1.0
 40
1.0
 10
-65.2808
 20
-29.2788
 30
0.0
 10
-66.1081
 20
-26.3313
 30
0.0
 10
-68.5009
 20
-24.1452
 30
0.0
 10
-71.4216
 20
-23.6688
 30
0.0
 10
-71.4216
 20
-23.6688
 30
0.0
 10
-70.3943
 20
-26.4784
 30
0.0
 10
-68.0953
 20
-28.5786
 30
0.0
 10
-65.2808
 20
-29.2788
 30
0.0
  0
SPLINE
  5
A8
330
1F
100
AcDbEntity
  8
layer 1
 62
     7
370
     9
100
AcDbSpline
210
0.0
220
0.0
230
1.0
 70
    11
 71
     3
 72
    36
 73
    32
 74
     0
 42
0.0000000001
 43
0.0000000001
 12
1.0
 22
0.0
 32
0.0
 13
1.0
 23
0.0
 33
0.0
 40
0.0
 40
0.0
 40
0.0
 40
0.0
 40
0.1111111111111111
 40
0.1111111111111111
 40
0.1111111111111111
 40
0.1111111111111111
 40
0.2222222222222222
 40
0.2222222222222222
 40
0.2222222222222222
 40
0.2222222222222222
 40
0.3333333333333333
 40
0.3333333333333333
 40
0.3333333333333333
 40
0.3333333333333333
 40
0.4444444444444444
 40
0.4444444444444444
 40
0.4444444444444444
 40
0.4444444444444444
 40
0.5555555555555556
 40
0.5555555555555556
 40
0.5555555555555556
 40
0.5555555555555556
 40
0.6666666666666666
 40
0.6666666666666666
 40
0.6666666666666666
 40
0.6666666666666666
 40
0.7777777777777778
 40
0.7777777777777778
 40
0.7777777777777778
 40
0.7777777777777778
 40
1.0
 40
1.0
 40
1.0
 40
1.0
 10
-73.6371
 20
-6.9197
 30
0.0
 10
-72.5639
 20
-7.5198
 30
0.0
 10
-71.8281
 20
-8.6129
 30
0.0
 10
-71.6549
 20
-9.866
 30
0.0
 10
-71.6549
 20
-9.866
 30
0.0
 10
-70.2246
 20
-9.2685
 30
0.0
 10
-68.6112
 20
-9.3721
 30
0.0
 10
-67.263
 20
-10.1485
 30
0.0
 10
-67.263
 20
-10.1485
 30
0.0
 10
-70.2048
 20
-12.2834
 30
0.0
 10
-72.6377
 20
-15.0882
 30
0.0
 10
-74.3754
 20
-18.3489
 30
0.0
 10
-74.3754
 20
-18.3489
 30
0.0
 10
-76.1135
 20
-15.0882
 30
0.0
 10
-78.5464
 20
-12.2834
 30
0.0
 10
-81.4882
 20
-10.1485
 30
0.0
 10
-81.4882
 20
-10.1485
 30
0.0
 10
-80.1399
 20
-9.3721
 30
0.0
 10
-78.5265
 20
-9.2685
 30
0.0
 10
-77.0961
 20
-9.866
 30
0.0
 10
-77.0961
 20
-9.866
 30
0.0
 10
-76.9229
 20
-8.6129
 30
0.0
 10
-76.1874
 20
-7.5198
 30
0.0
 10
-75.1141
 20
-6.9197
 30
0.0
 10
-75.1141
 20
-6.9197
 30
0.0
 10
-74.9001
 20
-6.7556
 30
0.0
 10
-74.6416
 20
-6.6656
 30
0.0
 10
-74.3754
 20
-6.6627
 30
0.0
 10
-74.3754
 20
-6.6627
 30
0.0
 10
-74.1096
 20
-6.6656
 30
0.0
 10
-73.8511
 20
-6.7556
 30
0.0
 10
-73.6371
 20
-6.9197
 30
0.0
  0
SPLINE
  5
A9
330
1F
100
AcDbEntity
  8
layer 1
 62
     7
370
     9
100
AcDbSpline
210
0.0
220
0.0
230
1.0
 70
    11
 71
     3
 72
    12
 73
     8
 74
     0
 42
0.0000000001
 43
0.0000000001
 12
1.0
 22
0.0
 32
0.0
 13
1.0
 23
0.0
 33
0.0
 40
0.0
 40
0.0
 40
0.0
 40
0.0
 40
0.3333333333333333
 40
0.3333333333333333
 40
0.3333333333333333
 40
0.3333333333333333
 40
1.0
 40
1.0
 40
1.0
 40
1.0
 10
-65.2808
 20
-12.1665
 30
0.0
 10
-66.1081
 20
-15.1141
 30
0.0
 10
-68.5009
 20
-17.2998
 30
0.0
 10
-71.4216
 20
-17.7762
 30
0.0
 10
-71.4216
 20
-17.7762
 30
0.0
 10
-70.3943
 20
-14.967
 30
0.0
 10
-68.0953
 20
-12.8667
 30
0.0
 10
-65.2808
 20
-12.1665
 30
0.0
  0
SPLINE
  5
AA
330
1F
100
AcDbEntity
  8
layer 1
 62
     7
370
     9
100
AcDbSpline
210
0.0
220
0.0
230
1.0
 70
    11
 71
     3
 72
    36
 73
    32
 74
     0
 42
0.0000000001
 43
0.0000000001
 12
1.0
 22
0.0
 32
0.0
 13
1.0
 23
0.0
 33
0.0
 40
0.0
 40
0.0
 40
0.0
 40
0.0
 40
0.1111111111111111
 40
0.1111111111111111
 40
0.1111111111111111
 40
0.1111111111111111
 40
0.2222222222222222
 40
0.2222222222222222
 40
0.2222222222222222
 40
0.2222222222222222
 40
0.3333333333333333
 40
0.3333333333333333
 40
0.3333333333333333
 40
0.3333333333333333
 40
0.4444444444444444
 40
0.4444444444444444
 40
0.4444444444444444
 40
0.4444444444444444
 40
0.5555555555555556
 40
0.5555555555555556
 40
0.5555555555555556
 40
0.5555555555555556
 40
0.6666666666666666
 40
0.6666666666666666
 40
0.6666666666666666
 40
0.6666666666666666
 40
0.7777777777777778
 40
0.7777777777777778
 40
0.7777777777777778
 40
0.7777777777777778
 40
1.0
 40
1.0
 40
1.0
 40
1.0
 10
-59.5673
 20
-20.1173
 30
0.0
 10
-60.3419
 20
-19.0727
 30
0.0
 10
-61.4651
 20
-18.3672
 30
0.0
 10
-62.7155
 20
-18.1397
 30
0.0
 10
-62.7155
 20
-18.1397
 30
0.0
 10
-62.2182
 20
-16.8532
 30
0.0
 10
-62.4262
 20
-15.3883
 30
0.0
 10
-63.2596
 20
-14.3054
 30
0.0
 10
-63.2596
 20
-14.3054
 30
0.0
 10
-65.6674
 20
-17.1671
 30
0.0
 10
-68.7151
 20
-19.3705
 30
0.0
 10
-72.1349
 20
-20.7225
 30
0.0
 10
-72.1349
 20
-20.7225
 30
0.0
 10
-68.7151
 20
-22.0745
 30
0.0
 10
-65.6674
 20
-24.2782
 30
0.0
 10
-63.2596
 20
-27.1397
 30
0.0
 10
-63.2596
 20
-27.1397
 30
0.0
 10
-62.4262
 20
-26.057
 30
0.0
 10
-62.2182
 20
-24.5921
 30
0.0
 10
-62.7155
 20
-23.3056
 30
0.0
 10
-62.7155
 20
-23.3056
 30
0.0
 10
-61.4651
 20
-23.0779
 30
0.0
 10
-60.3419
 20
-22.3724
 30
0.0
 10
-59.5673
 20
-21.328
 30
0.0
 10
-59.5673
 20
-21.328
 30
0.0
 10
-59.3943
 20
-21.1783
 30
0.0
 10
-59.2943
 20
-20.9566
 30
0.0
 10
-59.2943
 20
-20.7225
 30
0.0
 10
-59.2943
 20
-20.7225
 30
0.0
 10
-59.2943
 20
-20.4887
 30
0.0
 10
-59.3943
 20
-20.2667
 30
0.0
 10
-59.5673
 20
-20.1173
 30
0.0
  0
SPLINE
  5
AB
330
1F
100
AcDbEntity
  8
layer 1
 62
     7
370
     9
100
AcDbSpline
210
0.0
220
0.0
230
1.0
 70
    11
 71
     3
 72
    12
 73
     8
 74
     0
 42
0.0000000001
 43
0.0000000001
 12
1.0
 22
0.0
 32
0.0
 13
1.0
 23
0.0
 33
0.0
 40
0.0
 40
0.0
 40
0.0
 40
0.0
 40
0.3333333333333333
 40
0.3333333333333333
 40
0.3333333333333333
 40
0.3333333333333333
 40
1.0
 40
1.0
 40
1.0
 40
1.0
 10
-107.0237
 20
-29.2864
 30
0.0
 10
-107.851
 20
-26.3388
 30
0.0
 10
-110.2436
 20
-24.1528
 30
0.0
 10
-113.1646
 20
-23.6764
 30
0.0
 10
-113.1646
 20
-23.6764
 30
0.0
 10
-112.1369
 20
-26.486
 30
0.0
 10
-109.8382
 20
-28.5861
 30
0.0
 10
-107.0237
 20
-29.2864
 30
0.0
  0
SPLINE
  5
AC
330
1F
100
AcDbEntity
  8
layer 1
 62
     7
370
     9
100
AcDbSpline
210
0.0
220
0.0
230
1.0
 70
    11
 71
     3
 72
    12
 73
     8
 74
     0
 42
0.0000000001
 43
0.0000000001
 12
1.0
 22
0.0
 32
0.0
 13
1.0
 23
0.0
 33
0.0
 40
0.0
 40
0.0
 40
0.0
 40
0.0
 40
0.3333333333333333
 40
0.3333333333333333
 40
0.3333333333333333
 40
0.3333333333333333
 40
1.0
 40
1.0
 40
1.0
 40
1.0
 10
-107.0237
 20
-12.1741
 30
0.0
 10
-107.851
 20
-15.1217
 30
0.0
 10
-110.2436
 20
-17.3075
 30
0.0
 10
-113.1646
 20
-17.7838
 30
0.0
 10
-113.1646
 20
-17.7838
 30
0.0
 10
-112.1369
 20
-14.9743
 30
0.0
 10
-109.8382
 20
-12.8741
 30
0.0
 10
-107.0237
 20
-12.1741
 30
0.0
  0
SPLINE
  5
AD
330
1F
100
AcDbEntity
  8
layer 1
 62
     7
370
     9
100
AcDbSpline
210
0.0
220
0.0
230
1.0
 70
    11
 71
     3
 72
    36
 73
    32
 74
     0
 42
0.0000000001
 43
0.0000000001
 12
1.0
 22
0.0
 32
0.0
 13
1.0
 23
0.0
 33
0.0
 40
0.0
 40
0.0
 40
0.0
 40
0.0
 40
0.1111111111111111
 40
0.1111111111111111
 40
0.1111111111111111
 40
0.1111111111111111
 40
0.2222222222222222
 40
0.2222222222222222
 40
0.2222222222222222
 40
0.2222222222222222
 40
0.3333333333333333
 40
0.3333333333333333
 40
0.3333333333333333
 40
0.3333333333333333
 40
0.4444444444444444
 40
0.4444444444444444
 40
0.4444444444444444
 40
0.4444444444444444
 40
0.5555555555555556
 40
0.5555555555555556
 40
0.5555555555555556
 40
0.5555555555555556
 40
0.6666666666666666
 40
0.6666666666666666
 40
0.6666666666666666
 40
0.6666666666666666
 40
0.7777777777777778
 40
0.7777777777777778
 40
0.7777777777777778
 40
0.7777777777777778
 40
1.0
 40
1.0
 40
1.0
 40
1.0
 10
-101.3101
 20
-20.1248
 30
0.0
 10
-102.0847
 20
-19.0802
 30
0.0
 10
-103.2078
 20
-18.3748
 30
0.0
 10
-104.4583
 20
-18.1473
 30
0.0
 10
-104.4583
 20
-18.1473
 30
0.0
 10
-103.9611
 20
-16.8608
 30
0.0
 10
-104.169
 20
-15.3959
 30
0.0
 10
-105.0026
 20
-14.3129
 30
0.0
 10
-105.0026
 20
-14.3129
 30
0.0
 10
-107.4101
 20
-17.1746
 30
0.0
 10
-110.4579
 20
-19.3782
 30
0.0
 10
-113.8779
 20
-20.7301
 30
0.0
 10
-113.8779
 20
-20.7301
 30
0.0
 10
-110.4579
 20
-22.0821
 30
0.0
 10
-107.4101
 20
-24.2858
 30
0.0
 10
-105.0026
 20
-27.1473
 30
0.0
 10
-105.0026
 20
-27.1473
 30
0.0
 10
-104.169
 20
-26.0646
 30
0.0
 10
-103.9611
 20
-24.5997
 30
0.0
 10
-104.4583
 20
-23.3132
 30
0.0
 10
-104.4583
 20
-23.3132
 30
0.0
 10
-103.2078
 20
-23.0854
 30
0.0
 10
-102.0847
 20
-22.38
 30
0.0
 10
-101.3101
 20
-21.3357
 30
0.0
 10
-101.3101
 20
-21.3357
 30
0.0
 10
-101.1371
 20
-21.1859
 30
0.0
 10
-101.0372
 20
-20.9641
 30
0.0
 10
-101.0372
 20
-20.7301
 30
0.0
 10
-101.0372
 20
-20.7301
 30
0.0
 10
-101.0372
 20
-20.4964
 30
0.0
 10
-101.1371
 20
-20.2746
 30
0.0
 10
-101.3101
 20
-20.1248
 30
0.0
  0
SPLINE
  5
AE
330
1F
100
AcDbEntity
  8
layer 1
 62
     7
370
     9
100
AcDbSpline
210
0.0
220
0.0
230
1.0
 70
    11
 71
     3
 72
    12
 73
     8
 74
     0
 42
0.0000000001
 43
0.0000000001
 12
1.0
 22
0.0
 32
0.0
 13
1.0
 23
0.0
 33
0.0
 40
0.0
 40
0.0
 40
0.0
 40
0.0
 40
0.3333333333333333
 40
0.3333333333333333
 40
0.3333333333333333
 40
0.3333333333333333
 40
1.0
 40
1.0
 40
1.0
 40
1.0
 10
-107.0237
 20
-59.1926
 30
0.0
 10
-107.851
 20
-62.1402
 30
0.0
 10
-110.2436
 20
-64.3262
 30
0.0
 10
-113.1646
 20
-64.8026
 30
0.0
 10
-113.1646
 20
-64.8026
 30
0.0
 10
-112.1369
 20
-61.993
 30
0.0
 10
-109.8382
 20
-59.8928
 30
0.0
 10
-107.0237
 20
-59.1926
 30
0.0
  0
SPLINE
  5
AF
330
1F
100
AcDbEntity
  8
layer 1
 62
     7
370
     9
100
AcDbSpline
210
0.0
220
0.0
230
1.0
 70
    11
 71
     3
 72
    12
 73
     8
 74
     0
 42
0.0000000001
 43
0.0000000001
 12
1.0
 22
0.0
 32
0.0
 13
1.0
 23
0.0
 33
0.0
 40
0.0
 40
0.0
 40
0.0
 40
0.0
 40
0.3333333333333333
 40
0.3333333333333333
 40
0.3333333333333333
 40
0.3333333333333333
 40
1.0
 40
1.0
 40
1.0
 40
1.0
 10
-107.0237
 20
-76.305
 30
0.0
 10
-107.851
 20
-73.3574
 30
0.0
 10
-110.2436
 20
-71.1715
 30
0.0
 10
-113.1646
 20
-70.6949
 30
0.0
 10
-113.1646
 20
-70.6949
 30
0.0
 10
-112.1369
 20
-73.5046
 30
0.0
 10
-109.8382
 20
-75.6047
 30
0.0
 10
-107.0237
 20
-76.305
 30
0.0
  0
SPLINE
  5
B0
330
1F
100
AcDbEntity
  8
layer 1
 62
     7
370
     9
100
AcDbSpline
210
0.0
220
0.0
230
1.0
 70
    11
 71
     3
 72
    36
 73
    32
 74
     0
 42
0.0000000001
 43
0.0000000001
 12
1.0
 22
0.0
 32
0.0
 13
1.0
 23
0.0
 33
0.0
 40
0.0
 40
0.0
 40
0.0
 40
0.0
 40
0.1111111111111111
 40
0.1111111111111111
 40
0.1111111111111111
 40
0.1111111111111111
 40
0.2222222222222222
 40
0.2222222222222222
 40
0.2222222222222222
 40
0.2222222222222222
 40
0.3333333333333333
 40
0.3333333333333333
 40
0.3333333333333333
 40
0.3333333333333333
 40
0.4444444444444444
 40
0.4444444444444444
 40
0.4444444444444444
 40
0.4444444444444444
 40
0.5555555555555556
 40
0.5555555555555556
 40
0.5555555555555556
 40
0.5555555555555556
 40
0.6666666666666666
 40
0.6666666666666666
 40
0.6666666666666666
 40
0.6666666666666666
 40
0.7777777777777778
 40
0.7777777777777778
 40
0.7777777777777778
 40
0.7777777777777778
 40
1.0
 40
1.0
 40
1.0
 40
1.0
 10
-101.3101
 20
-68.3541
 30
0.0
 10
-102.0847
 20
-69.3988
 30
0.0
 10
-103.2078
 20
-70.1039
 30
0.0
 10
-104.4583
 20
-70.3317
 30
0.0
 10
-104.4583
 20
-70.3317
 30
0.0
 10
-103.9611
 20
-71.6181
 30
0.0
 10
-104.169
 20
-73.083
 30
0.0
 10
-105.0026
 20
-74.1659
 30
0.0
 10
-105.0026
 20
-74.1659
 30
0.0
 10
-107.4101
 20
-71.3043
 30
0.0
 10
-110.4579
 20
-69.1008
 30
0.0
 10
-113.8779
 20
-67.7489
 30
0.0
 10
-113.8779
 20
-67.7489
 30
0.0
 10
-110.4579
 20
-66.3969
 30
0.0
 10
-107.4101
 20
-64.1932
 30
0.0
 10
-105.0026
 20
-61.3317
 30
0.0
 10
-105.0026
 20
-61.3317
 30
0.0
 10
-104.169
 20
-62.4143
 30
0.0
 10
-103.9611
 20
-63.8793
 30
0.0
 10
-104.4583
 20
-65.1657
 30
0.0
 10
-104.4583
 20
-65.1657
 30
0.0
 10
-103.2078
 20
-65.3935
 30
0.0
 10
-102.0847
 20
-66.099
 30
0.0
 10
-101.3101
 20
-67.1433
 30
0.0
 10
-101.3101
 20
-67.1433
 30
0.0
 10
-101.1371
 20
-67.2931
 30
0.0
 10
-101.0372
 20
-67.5148
 30
0.0
 10
-101.0372
 20
-67.7489
 30
0.0
 10
-101.0372
 20
-67.7489
 30
0.0
 10
-101.0372
 20
-67.9826
 30
0.0
 10
-101.1371
 20
-68.2044
 30
0.0
 10
-101.3101
 20
-68.3541
 30
0.0
  0
SPLINE
  5
B1
330
1F
100
AcDbEntity
  8
layer 1
 62
     7
370
     9
100
AcDbSpline
210
0.0
220
0.0
230
1.0
 70
    11
 71
     3
 72
    12
 73
     8
 74
     0
 42
0.0000000001
 43
0.0000000001
 12
1.0
 22
0.0
 32
0.0
 13
1.0
 23
0.0
 33
0.0
 40
0.0
 40
0.0
 40
0.0
 40
0.0
 40
0.3333333333333333
 40
0.3333333333333333
 40
0.3333333333333333
 40
0.3333333333333333
 40
1.0
 40
1.0
 40
1.0
 40
1.0
 10
-104.6391
 20
11.3228
 30
0.0
 10
-103.8116
 20
8.3752
 30
0.0
 10
-101.4189
 20
6.1892
 30
0.0
 10
-98.4979
 20
5.7128
 30
0.0
 10
-98.4979
 20
5.7128
 30
0.0
 10
-99.5256
 20
8.5223
 30
0.0
 10
-101.8246
 20
10.6225
 30
0.0
 10
-104.6391
 20
11.3228
 30
0.0
  0
SPLINE
  5
B2
330
1F
100
AcDbEntity
  8
layer 1
 62
     7
370
     9
100
AcDbSpline
210
0.0
220
0.0
230
1.0
 70
    11
 71
     3
 72
    36
 73
    32
 74
     0
 42
0.0000000001
 43
0.0000000001
 12
1.0
 22
0.0
 32
0.0
 13
1.0
 23
0.0
 33
0.0
 40
0.0
 40
0.0
 40
0.0
 40
0.0
 40
0.1111111111111111
 40
0.1111111111111111
 40
0.1111111111111111
 40
0.1111111111111111
 40
0.2222222222222222
 40
0.2222222222222222
 40
0.2222222222222222
 40
0.2222222222222222
 40
0.3333333333333333
 40
0.3333333333333333
 40
0.3333333333333333
 40
0.3333333333333333
 40
0.4444444444444444
 40
0.4444444444444444
 40
0.4444444444444444
 40
0.4444444444444444
 40
0.5555555555555556
 40
0.5555555555555556
 40
0.5555555555555556
 40
0.5555555555555556
 40
0.6666666666666666
 40
0.6666666666666666
 40
0.6666666666666666
 40
0.6666666666666666
 40
0.7777777777777778
 40
0.7777777777777778
 40
0.7777777777777778
 40
0.7777777777777778
 40
1.0
 40
1.0
 40
1.0
 40
1.0
 10
-94.8058
 20
16.5694
 30
0.0
 10
-93.7325
 20
15.9695
 30
0.0
 10
-92.9968
 20
14.8761
 30
0.0
 10
-92.8235
 20
13.6233
 30
0.0
 10
-92.8235
 20
13.6233
 30
0.0
 10
-91.3933
 20
14.2208
 30
0.0
 10
-89.7799
 20
14.117
 30
0.0
 10
-88.4317
 20
13.3407
 30
0.0
 10
-88.4317
 20
13.3407
 30
0.0
 10
-91.3732
 20
11.2059
 30
0.0
 10
-93.8061
 20
8.4008
 30
0.0
 10
-95.5441
 20
5.1401
 30
0.0
 10
-95.5441
 20
5.1401
 30
0.0
 10
-97.2822
 20
8.4008
 30
0.0
 10
-99.715
 20
11.2059
 30
0.0
 10
-102.6569
 20
13.3407
 30
0.0
 10
-102.6569
 20
13.3407
 30
0.0
 10
-101.3085
 20
14.117
 30
0.0
 10
-99.6952
 20
14.2208
 30
0.0
 10
-98.265
 20
13.6233
 30
0.0
 10
-98.265
 20
13.6233
 30
0.0
 10
-98.0915
 20
14.8761
 30
0.0
 10
-97.356
 20
15.9695
 30
0.0
 10
-96.2827
 20
16.5694
 30
0.0
 10
-96.2827
 20
16.5694
 30
0.0
 10
-96.0688
 20
16.7335
 30
0.0
 10
-95.8102
 20
16.8235
 30
0.0
 10
-95.5441
 20
16.8266
 30
0.0
 10
-95.5441
 20
16.8266
 30
0.0
 10
-95.2783
 20
16.8235
 30
0.0
 10
-95.0197
 20
16.7335
 30
0.0
 10
-94.8058
 20
16.5694
 30
0.0
  0
SPLINE
  5
B3
330
1F
100
AcDbEntity
  8
layer 1
 62
     7
370
     9
100
AcDbSpline
210
0.0
220
0.0
230
1.0
 70
    11
 71
     3
 72
    12
 73
     8
 74
     0
 42
0.0000000001
 43
0.0000000001
 12
1.0
 22
0.0
 32
0.0
 13
1.0
 23
0.0
 33
0.0
 40
0.0
 40
0.0
 40
0.0
 40
0.0
 40
0.3333333333333333
 40
0.3333333333333333
 40
0.3333333333333333
 40
0.3333333333333333
 40
1.0
 40
1.0
 40
1.0
 40
1.0
 10
-86.4493
 20
11.3228
 30
0.0
 10
-87.2766
 20
8.3752
 30
0.0
 10
-89.6693
 20
6.1892
 30
0.0
 10
-92.5902
 20
5.7128
 30
0.0
 10
-92.5902
 20
5.7128
 30
0.0
 10
-91.5629
 20
8.5223
 30
0.0
 10
-89.2639
 20
10.6225
 30
0.0
 10
-86.4493
 20
11.3228
 30
0.0
  0
SPLINE
  5
B4
330
1F
100
AcDbEntity
  8
layer 1
 62
     7
370
     9
100
AcDbSpline
210
0.0
220
0.0
230
1.0
 70
    11
 71
     3
 72
    12
 73
     8
 74
     0
 42
0.0000000001
 43
0.0000000001
 12
1.0
 22
0.0
 32
0.0
 13
1.0
 23
0.0
 33
0.0
 40
0.0
 40
0.0
 40
0.0
 40
0.0
 40
0.3333333333333333
 40
0.3333333333333333
 40
0.3333333333333333
 40
0.3333333333333333
 40
1.0
 40
1.0
 40
1.0
 40
1.0
 10
-83.4705
 20
17.6995
 30
0.0
 10
-82.6429
 20
20.6471
 30
0.0
 10
-80.2503
 20
22.8329
 30
0.0
 10
-77.3295
 20
23.3095
 30
0.0
 10
-77.3295
 20
23.3095
 30
0.0
 10
-78.357
 20
20.4999
 30
0.0
 10
-80.656
 20
18.3998
 30
0.0
 10
-83.4705
 20
17.6995
 30
0.0
  0
SPLINE
  5
B5
330
1F
100
AcDbEntity
  8
layer 1
 62
     7
370
     9
100
AcDbSpline
210
0.0
220
0.0
230
1.0
 70
    11
 71
     3
 72
    12
 73
     8
 74
     0
 42
0.0000000001
 43
0.0000000001
 12
1.0
 22
0.0
 32
0.0
 13
1.0
 23
0.0
 33
0.0
 40
0.0
 40
0.0
 40
0.0
 40
0.0
 40
0.3333333333333333
 40
0.3333333333333333
 40
0.3333333333333333
 40
0.3333333333333333
 40
1.0
 40
1.0
 40
1.0
 40
1.0
 10
-83.4705
 20
64.6778
 30
0.0
 10
-80.656
 20
65.3781
 30
0.0
 10
-78.357
 20
67.4783
 30
0.0
 10
-77.3295
 20
70.2876
 30
0.0
 10
-77.3295
 20
70.2876
 30
0.0
 10
-80.2503
 20
69.8112
 30
0.0
 10
-82.6429
 20
67.6254
 30
0.0
 10
-83.4705
 20
64.6778
 30
0.0
  0
SPLINE
  5
B6
330
1F
100
AcDbEntity
  8
layer 1
 62
     7
370
     9
100
AcDbSpline
210
0.0
220
0.0
230
1.0
 70
    11
 71
     3
 72
    12
 73
     8
 74
     0
 42
0.0000000001
 43
0.0000000001
 12
1.0
 22
0.0
 32
0.0
 13
1.0
 23
0.0
 33
0.0
 40
0.0
 40
0.0
 40
0.0
 40
0.0
 40
0.3333333333333333
 40
0.3333333333333333
 40
0.3333333333333333
 40
0.3333333333333333
 40
1.0
 40
1.0
 40
1.0
 40
1.0
 10
-83.4705
 20
81.7901
 30
0.0
 10
-82.6429
 20
78.8425
 30
0.0
 10
-80.2503
 20
76.6565
 30
0.0
 10
-77.3295
 20
76.1801
 30
0.0
 10
-77.3295
 20
76.1801
 30
0.0
 10
-78.357
 20
78.9897
 30
0.0
 10
-80.656
 20
81.0899
 30
0.0
 10
-83.4705
 20
81.7901
 30
0.0
  0
SPLINE
  5
B7
330
1F
100
AcDbEntity
  8
layer 1
 62
     7
370
     9
100
AcDbSpline
210
0.0
220
0.0
230
1.0
 70
    11
 71
     3
 72
    36
 73
    32
 74
     0
 42
0.0000000001
 43
0.0000000001
 12
1.0
 22
0.0
 32
0.0
 13
1.0
 23
0.0
 33
0.0
 40
0.0
 40
0.0
 40
0.0
 40
0.0
 40
0.1111111111111111
 40
0.1111111111111111
 40
0.1111111111111111
 40
0.1111111111111111
 40
0.2222222222222222
 40
0.2222222222222222
 40
0.2222222222222222
 40
0.2222222222222222
 40
0.3333333333333333
 40
0.3333333333333333
 40
0.3333333333333333
 40
0.3333333333333333
 40
0.4444444444444444
 40
0.4444444444444444
 40
0.4444444444444444
 40
0.4444444444444444
 40
0.5555555555555556
 40
0.5555555555555556
 40
0.5555555555555556
 40
0.5555555555555556
 40
0.6666666666666666
 40
0.6666666666666666
 40
0.6666666666666666
 40
0.6666666666666666
 40
0.7777777777777778
 40
0.7777777777777778
 40
0.7777777777777778
 40
0.7777777777777778
 40
1.0
 40
1.0
 40
1.0
 40
1.0
 10
-89.1838
 20
73.8394
 30
0.0
 10
-88.4092
 20
74.8837
 30
0.0
 10
-87.286
 20
75.5892
 30
0.0
 10
-86.0356
 20
75.8169
 30
0.0
 10
-86.0356
 20
75.8169
 30
0.0
 10
-86.5328
 20
77.1034
 30
0.0
 10
-86.3252
 20
78.5683
 30
0.0
 10
-85.4913
 20
79.6511
 30
0.0
 10
-85.4913
 20
79.6511
 30
0.0
 10
-83.0838
 20
76.7896
 30
0.0
 10
-80.0361
 20
74.5858
 30
0.0
 10
-76.616
 20
73.2339
 30
0.0
 10
-76.616
 20
73.2339
 30
0.0
 10
-80.0361
 20
71.8819
 30
0.0
 10
-83.0838
 20
69.6784
 30
0.0
 10
-85.4913
 20
66.8166
 30
0.0
 10
-85.4913
 20
66.8166
 30
0.0
 10
-86.3252
 20
67.8996
 30
0.0
 10
-86.5328
 20
69.3645
 30
0.0
 10
-86.0356
 20
70.651
 30
0.0
 10
-86.0356
 20
70.651
 30
0.0
 10
-87.286
 20
70.8785
 30
0.0
 10
-88.4092
 20
71.5839
 30
0.0
 10
-89.1838
 20
72.6286
 30
0.0
 10
-89.1838
 20
72.6286
 30
0.0
 10
-89.3568
 20
72.7783
 30
0.0
 10
-89.457
 20
73.0001
 30
0.0
 10
-89.457
 20
73.2339
 30
0.0
 10
-89.457
 20
73.2339
 30
0.0
 10
-89.457
 20
73.4679
 30
0.0
 10
-89.3568
 20
73.6896
 30
0.0
 10
-89.1838
 20
73.8394
 30
0.0
  0
SPLINE
  5
B8
330
1F
100
AcDbEntity
  8
layer 1
 62
     7
370
     9
100
AcDbSpline
210
0.0
220
0.0
230
1.0
 70
    11
 71
     3
 72
    36
 73
    32
 74
     0
 42
0.0000000001
 43
0.0000000001
 12
1.0
 22
0.0
 32
0.0
 13
1.0
 23
0.0
 33
0.0
 40
0.0
 40
0.0
 40
0.0
 40
0.0
 40
0.1111111111111111
 40
0.1111111111111111
 40
0.1111111111111111
 40
0.1111111111111111
 40
0.2222222222222222
 40
0.2222222222222222
 40
0.2222222222222222
 40
0.2222222222222222
 40
0.3333333333333333
 40
0.3333333333333333
 40
0.3333333333333333
 40
0.3333333333333333
 40
0.4444444444444444
 40
0.4444444444444444
 40
0.4444444444444444
 40
0.4444444444444444
 40
0.5555555555555556
 40
0.5555555555555556
 40
0.5555555555555556
 40
0.5555555555555556
 40
0.6666666666666666
 40
0.6666666666666666
 40
0.6666666666666666
 40
0.6666666666666666
 40
0.7777777777777778
 40
0.7777777777777778
 40
0.7777777777777778
 40
0.7777777777777778
 40
1.0
 40
1.0
 40
1.0
 40
1.0
 10
-73.6371
 20
59.431
 30
0.0
 10
-72.5639
 20
60.0311
 30
0.0
 10
-71.8281
 20
61.1242
 30
0.0
 10
-71.6549
 20
62.3773
 30
0.0
 10
-71.6549
 20
62.3773
 30
0.0
 10
-70.2246
 20
61.7799
 30
0.0
 10
-68.6112
 20
61.8834
 30
0.0
 10
-67.263
 20
62.6598
 30
0.0
 10
-67.263
 20
62.6598
 30
0.0
 10
-70.2048
 20
64.7947
 30
0.0
 10
-72.6377
 20
67.5996
 30
0.0
 10
-74.3754
 20
70.8602
 30
0.0
 10
-74.3754
 20
70.8602
 30
0.0
 10
-76.1135
 20
67.5996
 30
0.0
 10
-78.5464
 20
64.7947
 30
0.0
 10
-81.4882
 20
62.6598
 30
0.0
 10
-81.4882
 20
62.6598
 30
0.0
 10
-80.1399
 20
61.8834
 30
0.0
 10
-78.5265
 20
61.7799
 30
0.0
 10
-77.0961
 20
62.3773
 30
0.0
 10
-77.0961
 20
62.3773
 30
0.0
 10
-76.9229
 20
61.1242
 30
0.0
 10
-76.1874
 20
60.0311
 30
0.0
 10
-75.1141
 20
59.431
 30
0.0
 10
-75.1141
 20
59.431
 30
0.0
 10
-74.9001
 20
59.2669
 30
0.0
 10
-74.6416
 20
59.1769
 30
0.0
 10
-74.3754
 20
59.1738
 30
0.0
 10
-74.3754
 20
59.1738
 30
0.0
 10
-74.1096
 20
59.1769
 30
0.0
 10
-73.8511
 20
59.2669
 30
0.0
 10
-73.6371
 20
59.431
 30
0.0
  0
SPLINE
  5
B9
330
1F
100
AcDbEntity
  8
layer 1
 62
     7
370
     9
100
AcDbSpline
210
0.0
220
0.0
230
1.0
 70
    11
 71
     3
 72
    12
 73
     8
 74
     0
 42
0.0000000001
 43
0.0000000001
 12
1.0
 22
0.0
 32
0.0
 13
1.0
 23
0.0
 33
0.0
 40
0.0
 40
0.0
 40
0.0
 40
0.0
 40
0.3333333333333333
 40
0.3333333333333333
 40
0.3333333333333333
 40
0.3333333333333333
 40
1.0
 40
1.0
 40
1.0
 40
1.0
 10
-65.2808
 20
64.6778
 30
0.0
 10
-66.1081
 20
67.6254
 30
0.0
 10
-68.5009
 20
69.8112
 30
0.0
 10
-71.4216
 20
70.2876
 30
0.0
 10
-71.4216
 20
70.2876
 30
0.0
 10
-70.3943
 20
67.4783
 30
0.0
 10
-68.0953
 20
65.3781
 30
0.0
 10
-65.2808
 20
64.6778
 30
0.0
  0
SPLINE
  5
BA
330
1F
100
AcDbEntity
  8
layer 1
 62
     7
370
     9
100
AcDbSpline
210
0.0
220
0.0
230
1.0
 70
    11
 71
     3
 72
    36
 73
    32
 74
     0
 42
0.0000000001
 43
0.0000000001
 12
1.0
 22
0.0
 32
0.0
 13
1.0
 23
0.0
 33
0.0
 40
0.0
 40
0.0
 40
0.0
 40
0.0
 40
0.1111111111111111
 40
0.1111111111111111
 40
0.1111111111111111
 40
0.1111111111111111
 40
0.2222222222222222
 40
0.2222222222222222
 40
0.2222222222222222
 40
0.2222222222222222
 40
0.3333333333333333
 40
0.3333333333333333
 40
0.3333333333333333
 40
0.3333333333333333
 40
0.4444444444444444
 40
0.4444444444444444
 40
0.4444444444444444
 40
0.4444444444444444
 40
0.5555555555555556
 40
0.5555555555555556
 40
0.5555555555555556
 40
0.5555555555555556
 40
0.6666666666666666
 40
0.6666666666666666
 40
0.6666666666666666
 40
0.6666666666666666
 40
0.7777777777777778
 40
0.7777777777777778
 40
0.7777777777777778
 40
0.7777777777777778
 40
1.0
 40
1.0
 40
1.0
 40
1.0
 10
-73.6371
 20
87.037
 30
0.0
 10
-72.5639
 20
86.4369
 30
0.0
 10
-71.8281
 20
85.3435
 30
0.0
 10
-71.6549
 20
84.0907
 30
0.0
 10
-71.6549
 20
84.0907
 30
0.0
 10
-70.2246
 20
84.6881
 30
0.0
 10
-68.6112
 20
84.5843
 30
0.0
 10
-67.263
 20
83.8081
 30
0.0
 10
-67.263
 20
83.8081
 30
0.0
 10
-70.2048
 20
81.6732
 30
0.0
 10
-72.6377
 20
78.8681
 30
0.0
 10
-74.3754
 20
75.6075
 30
0.0
 10
-74.3754
 20
75.6075
 30
0.0
 10
-76.1135
 20
78.8681
 30
0.0
 10
-78.5464
 20
81.6732
 30
0.0
 10
-81.4882
 20
83.8081
 30
0.0
 10
-81.4882
 20
83.8081
 30
0.0
 10
-80.1399
 20
84.5843
 30
0.0
 10
-78.5265
 20
84.6881
 30
0.0
 10
-77.0961
 20
84.0907
 30
0.0
 10
-77.0961
 20
84.0907
 30
0.0
 10
-76.9229
 20
85.3435
 30
0.0
 10
-76.1874
 20
86.4369
 30
0.0
 10
-75.1141
 20
87.037
 30
0.0
 10
-75.1141
 20
87.037
 30
0.0
 10
-74.9001
 20
87.2008
 30
0.0
 10
-74.6416
 20
87.2908
 30
0.0
 10
-74.3754
 20
87.2939
 30
0.0
 10
-74.3754
 20
87.2939
 30
0.0
 10
-74.1096
 20
87.2908
 30
0.0
 10
-73.8511
 20
87.2008
 30
0.0
 10
-73.6371
 20
87.037
 30
0.0
  0
SPLINE
  5
BB
330
1F
100
AcDbEntity
  8
layer 1
 62
     7
370
     9
100
AcDbSpline
210
0.0
220
0.0
230
1.0
 70
    11
 71
     3
 72
    12
 73
     8
 74
     0
 42
0.0000000001
 43
0.0000000001
 12
1.0
 22
0.0
 32
0.0
 13
1.0
 23
0.0
 33
0.0
 40
0.0
 40
0.0
 40
0.0
 40
0.0
 40
0.3333333333333333
 40
0.3333333333333333
 40
0.3333333333333333
 40
0.3333333333333333
 40
1.0
 40
1.0
 40
1.0
 40
1.0
 10
-65.2808
 20
81.7901
 30
0.0
 10
-66.1081
 20
78.8425
 30
0.0
 10
-68.5009
 20
76.6565
 30
0.0
 10
-71.4216
 20
76.1801
 30
0.0
 10
-71.4216
 20
76.1801
 30
0.0
 10
-70.3943
 20
78.9897
 30
0.0
 10
-68.0953
 20
81.0899
 30
0.0
 10
-65.2808
 20
81.7901
 30
0.0
  0
SPLINE
  5
BC
330
1F
100
AcDbEntity
  8
layer 1
 62
     7
370
     9
100
AcDbSpline
210
0.0
220
0.0
230
1.0
 70
    11
 71
     3
 72
    36
 73
    32
 74
     0
 42
0.0000000001
 43
0.0000000001
 12
1.0
 22
0.0
 32
0.0
 13
1.0
 23
0.0
 33
0.0
 40
0.0
 40
0.0
 40
0.0
 40
0.0
 40
0.1111111111111111
 40
0.1111111111111111
 40
0.1111111111111111
 40
0.1111111111111111
 40
0.2222222222222222
 40
0.2222222222222222
 40
0.2222222222222222
 40
0.2222222222222222
 40
0.3333333333333333
 40
0.3333333333333333
 40
0.3333333333333333
 40
0.3333333333333333
 40
0.4444444444444444
 40
0.4444444444444444
 40
0.4444444444444444
 40
0.4444444444444444
 40
0.5555555555555556
 40
0.5555555555555556
 40
0.5555555555555556
 40
0.5555555555555556
 40
0.6666666666666666
 40
0.6666666666666666
 40
0.6666666666666666
 40
0.6666666666666666
 40
0.7777777777777778
 40
0.7777777777777778
 40
0.7777777777777778
 40
0.7777777777777778
 40
1.0
 40
1.0
 40
1.0
 40
1.0
 10
-59.5673
 20
73.8394
 30
0.0
 10
-60.3419
 20
74.8837
 30
0.0
 10
-61.4651
 20
75.5892
 30
0.0
 10
-62.7155
 20
75.8169
 30
0.0
 10
-62.7155
 20
75.8169
 30
0.0
 10
-62.2182
 20
77.1034
 30
0.0
 10
-62.4262
 20
78.5683
 30
0.0
 10
-63.2596
 20
79.6511
 30
0.0
 10
-63.2596
 20
79.6511
 30
0.0
 10
-65.6674
 20
76.7896
 30
0.0
 10
-68.7151
 20
74.5858
 30
0.0
 10
-72.1349
 20
73.2339
 30
0.0
 10
-72.1349
 20
73.2339
 30
0.0
 10
-68.7151
 20
71.8819
 30
0.0
 10
-65.6674
 20
69.6784
 30
0.0
 10
-63.2596
 20
66.8166
 30
0.0
 10
-63.2596
 20
66.8166
 30
0.0
 10
-62.4262
 20
67.8996
 30
0.0
 10
-62.2182
 20
69.3645
 30
0.0
 10
-62.7155
 20
70.651
 30
0.0
 10
-62.7155
 20
70.651
 30
0.0
 10
-61.4651
 20
70.8785
 30
0.0
 10
-60.3419
 20
71.5839
 30
0.0
 10
-59.5673
 20
72.6286
 30
0.0
 10
-59.5673
 20
72.6286
 30
0.0
 10
-59.3943
 20
72.7783
 30
0.0
 10
-59.2943
 20
73.0001
 30
0.0
 10
-59.2943
 20
73.2339
 30
0.0
 10
-59.2943
 20
73.2339
 30
0.0
 10
-59.2943
 20
73.4679
 30
0.0
 10
-59.3943
 20
73.6896
 30
0.0
 10
-59.5673
 20
73.8394
 30
0.0
  0
SPLINE
  5
BD
330
1F
100
AcDbEntity
  8
layer 1
 62
     7
370
     9
100
AcDbSpline
210
0.0
220
0.0
230
1.0
 70
    11
 71
     3
 72
    12
 73
     8
 74
     0
 42
0.0000000001
 43
0.0000000001
 12
1.0
 22
0.0
 32
0.0
 13
1.0
 23
0.0
 33
0.0
 40
0.0
 40
0.0
 40
0.0
 40
0.0
 40
0.3333333333333333
 40
0.3333333333333333
 40
0.3333333333333333
 40
0.3333333333333333
 40
1.0
 40
1.0
 40
1.0
 40
1.0
 10
-104.6391
 20
58.3008
 30
0.0
 10
-103.8116
 20
55.3532
 30
0.0
 10
-101.4189
 20
53.1675
 30
0.0
 10
-98.4979
 20
52.6911
 30
0.0
 10
-98.4979
 20
52.6911
 30
0.0
 10
-99.5256
 20
55.5006
 30
0.0
 10
-101.8246
 20
57.6006
 30
0.0
 10
-104.6391
 20
58.3008
 30
0.0
  0
SPLINE
  5
BE
330
1F
100
AcDbEntity
  8
layer 1
 62
     7
370
     9
100
AcDbSpline
210
0.0
220
0.0
230
1.0
 70
    11
 71
     3
 72
    12
 73
     8
 74
     0
 42
0.0000000001
 43
0.0000000001
 12
1.0
 22
0.0
 32
0.0
 13
1.0
 23
0.0
 33
0.0
 40
0.0
 40
0.0
 40
0.0
 40
0.0
 40
0.3333333333333333
 40
0.3333333333333333
 40
0.3333333333333333
 40
0.3333333333333333
 40
1.0
 40
1.0
 40
1.0
 40
1.0
 10
-104.6391
 20
41.1885
 30
0.0
 10
-103.8116
 20
44.1361
 30
0.0
 10
-101.4189
 20
46.3221
 30
0.0
 10
-98.4979
 20
46.7985
 30
0.0
 10
-98.4979
 20
46.7985
 30
0.0
 10
-99.5256
 20
43.989
 30
0.0
 10
-101.8246
 20
41.8888
 30
0.0
 10
-104.6391
 20
41.1885
 30
0.0
  0
SPLINE
  5
BF
330
1F
100
AcDbEntity
  8
layer 1
 62
     7
370
     9
100
AcDbSpline
210
0.0
220
0.0
230
1.0
 70
    11
 71
     3
 72
    36
 73
    32
 74
     0
 42
0.0000000001
 43
0.0000000001
 12
1.0
 22
0.0
 32
0.0
 13
1.0
 23
0.0
 33
0.0
 40
0.0
 40
0.0
 40
0.0
 40
0.0
 40
0.1111111111111111
 40
0.1111111111111111
 40
0.1111111111111111
 40
0.1111111111111111
 40
0.2222222222222222
 40
0.2222222222222222
 40
0.2222222222222222
 40
0.2222222222222222
 40
0.3333333333333333
 40
0.3333333333333333
 40
0.3333333333333333
 40
0.3333333333333333
 40
0.4444444444444444
 40
0.4444444444444444
 40
0.4444444444444444
 40
0.4444444444444444
 40
0.5555555555555556
 40
0.5555555555555556
 40
0.5555555555555556
 40
0.5555555555555556
 40
0.6666666666666666
 40
0.6666666666666666
 40
0.6666666666666666
 40
0.6666666666666666
 40
0.7777777777777778
 40
0.7777777777777778
 40
0.7777777777777778
 40
0.7777777777777778
 40
1.0
 40
1.0
 40
1.0
 40
1.0
 10
-110.3524
 20
49.1393
 30
0.0
 10
-109.5778
 20
48.0949
 30
0.0
 10
-108.4547
 20
47.3895
 30
0.0
 10
-107.2042
 20
47.1617
 30
0.0
 10
-107.2042
 20
47.1617
 30
0.0
 10
-107.7015
 20
45.8752
 30
0.0
 10
-107.4935
 20
44.4106
 30
0.0
 10
-106.66
 20
43.3276
 30
0.0
 10
-106.66
 20
43.3276
 30
0.0
 10
-104.2524
 20
46.1891
 30
0.0
 10
-101.2047
 20
48.3928
 30
0.0
 10
-97.7846
 20
49.7448
 30
0.0
 10
-97.7846
 20
49.7448
 30
0.0
 10
-101.2047
 20
51.0967
 30
0.0
 10
-104.2524
 20
53.3003
 30
0.0
 10
-106.66
 20
56.162
 30
0.0
 10
-106.66
 20
56.162
 30
0.0
 10
-107.4935
 20
55.079
 30
0.0
 10
-107.7015
 20
53.6141
 30
0.0
 10
-107.2042
 20
52.3276
 30
0.0
 10
-107.2042
 20
52.3276
 30
0.0
 10
-108.4547
 20
52.1002
 30
0.0
 10
-109.5778
 20
51.3947
 30
0.0
 10
-110.3524
 20
50.3501
 30
0.0
 10
-110.3524
 20
50.3501
 30
0.0
 10
-110.5254
 20
50.2006
 30
0.0
 10
-110.6256
 20
49.9786
 30
0.0
 10
-110.6256
 20
49.7448
 30
0.0
 10
-110.6256
 20
49.7448
 30
0.0
 10
-110.6256
 20
49.5108
 30
0.0
 10
-110.5254
 20
49.289
 30
0.0
 10
-110.3524
 20
49.1393
 30
0.0
  0
SPLINE
  5
C0
330
1F
100
AcDbEntity
  8
layer 1
 62
     7
370
     9
100
AcDbSpline
210
0.0
220
0.0
230
1.0
 70
    11
 71
     3
 72
    36
 73
    32
 74
     0
 42
0.0000000001
 43
0.0000000001
 12
1.0
 22
0.0
 32
0.0
 13
1.0
 23
0.0
 33
0.0
 40
0.0
 40
0.0
 40
0.0
 40
0.0
 40
0.1111111111111111
 40
0.1111111111111111
 40
0.1111111111111111
 40
0.1111111111111111
 40
0.2222222222222222
 40
0.2222222222222222
 40
0.2222222222222222
 40
0.2222222222222222
 40
0.3333333333333333
 40
0.3333333333333333
 40
0.3333333333333333
 40
0.3333333333333333
 40
0.4444444444444444
 40
0.4444444444444444
 40
0.4444444444444444
 40
0.4444444444444444
 40
0.5555555555555556
 40
0.5555555555555556
 40
0.5555555555555556
 40
0.5555555555555556
 40
0.6666666666666666
 40
0.6666666666666666
 40
0.6666666666666666
 40
0.6666666666666666
 40
0.7777777777777778
 40
0.7777777777777778
 40
0.7777777777777778
 40
0.7777777777777778
 40
1.0
 40
1.0
 40
1.0
 40
1.0
 10
-94.8058
 20
63.5477
 30
0.0
 10
-93.7325
 20
62.9476
 30
0.0
 10
-92.9968
 20
61.8545
 30
0.0
 10
-92.8235
 20
60.6014
 30
0.0
 10
-92.8235
 20
60.6014
 30
0.0
 10
-91.3933
 20
61.1988
 30
0.0
 10
-89.7799
 20
61.0953
 30
0.0
 10
-88.4317
 20
60.3188
 30
0.0
 10
-88.4317
 20
60.3188
 30
0.0
 10
-91.3732
 20
58.1839
 30
0.0
 10
-93.8061
 20
55.3791
 30
0.0
 10
-95.5441
 20
52.1184
 30
0.0
 10
-95.5441
 20
52.1184
 30
0.0
 10
-97.2822
 20
55.3791
 30
0.0
 10
-99.715
 20
58.1839
 30
0.0
 10
-102.6569
 20
60.3188
 30
0.0
 10
-102.6569
 20
60.3188
 30
0.0
 10
-101.3085
 20
61.0953
 30
0.0
 10
-99.6952
 20
61.1988
 30
0.0
 10
-98.265
 20
60.6014
 30
0.0
 10
-98.265
 20
60.6014
 30
0.0
 10
-98.0915
 20
61.8545
 30
0.0
 10
-97.356
 20
62.9476
 30
0.0
 10
-96.2827
 20
63.5477
 30
0.0
 10
-96.2827
 20
63.5477
 30
0.0
 10
-96.0688
 20
63.7118
 30
0.0
 10
-95.8102
 20
63.8018
 30
0.0
 10
-95.5441
 20
63.8046
 30
0.0
 10
-95.5441
 20
63.8046
 30
0.0
 10
-95.2783
 20
63.8018
 30
0.0
 10
-95.0197
 20
63.7118
 30
0.0
 10
-94.8058
 20
63.5477
 30
0.0
  0
SPLINE
  5
C1
330
1F
100
AcDbEntity
  8
layer 1
 62
     7
370
     9
100
AcDbSpline
210
0.0
220
0.0
230
1.0
 70
    11
 71
     3
 72
    12
 73
     8
 74
     0
 42
0.0000000001
 43
0.0000000001
 12
1.0
 22
0.0
 32
0.0
 13
1.0
 23
0.0
 33
0.0
 40
0.0
 40
0.0
 40
0.0
 40
0.0
 40
0.3333333333333333
 40
0.3333333333333333
 40
0.3333333333333333
 40
0.3333333333333333
 40
1.0
 40
1.0
 40
1.0
 40
1.0
 10
-86.4493
 20
58.3008
 30
0.0
 10
-87.2766
 20
55.3532
 30
0.0
 10
-89.6693
 20
53.1675
 30
0.0
 10
-92.5902
 20
52.6911
 30
0.0
 10
-92.5902
 20
52.6911
 30
0.0
 10
-91.5629
 20
55.5006
 30
0.0
 10
-89.2639
 20
57.6006
 30
0.0
 10
-86.4493
 20
58.3008
 30
0.0
  0
SPLINE
  5
C2
330
1F
100
AcDbEntity
  8
layer 1
 62
     7
370
     9
100
AcDbSpline
210
0.0
220
0.0
230
1.0
 70
    11
 71
     3
 72
    36
 73
    32
 74
     0
 42
0.0000000001
 43
0.0000000001
 12
1.0
 22
0.0
 32
0.0
 13
1.0
 23
0.0
 33
0.0
 40
0.0
 40
0.0
 40
0.0
 40
0.0
 40
0.1111111111111111
 40
0.1111111111111111
 40
0.1111111111111111
 40
0.1111111111111111
 40
0.2222222222222222
 40
0.2222222222222222
 40
0.2222222222222222
 40
0.2222222222222222
 40
0.3333333333333333
 40
0.3333333333333333
 40
0.3333333333333333
 40
0.3333333333333333
 40
0.4444444444444444
 40
0.4444444444444444
 40
0.4444444444444444
 40
0.4444444444444444
 40
0.5555555555555556
 40
0.5555555555555556
 40
0.5555555555555556
 40
0.5555555555555556
 40
0.6666666666666666
 40
0.6666666666666666
 40
0.6666666666666666
 40
0.6666666666666666
 40
0.7777777777777778
 40
0.7777777777777778
 40
0.7777777777777778
 40
0.7777777777777778
 40
1.0
 40
1.0
 40
1.0
 40
1.0
 10
-94.8058
 20
35.942
 30
0.0
 10
-93.7325
 20
36.5418
 30
0.0
 10
-92.9968
 20
37.6352
 30
0.0
 10
-92.8235
 20
38.888
 30
0.0
 10
-92.8235
 20
38.888
 30
0.0
 10
-91.3933
 20
38.2906
 30
0.0
 10
-89.7799
 20
38.3944
 30
0.0
 10
-88.4317
 20
39.1705
 30
0.0
 10
-88.4317
 20
39.1705
 30
0.0
 10
-91.3732
 20
41.3054
 30
0.0
 10
-93.8061
 20
44.1106
 30
0.0
 10
-95.5441
 20
47.3712
 30
0.0
 10
-95.5441
 20
47.3712
 30
0.0
 10
-97.2822
 20
44.1106
 30
0.0
 10
-99.715
 20
41.3054
 30
0.0
 10
-102.6569
 20
39.1705
 30
0.0
 10
-102.6569
 20
39.1705
 30
0.0
 10
-101.3085
 20
38.3944
 30
0.0
 10
-99.6952
 20
38.2906
 30
0.0
 10
-98.265
 20
38.888
 30
0.0
 10
-98.265
 20
38.888
 30
0.0
 10
-98.0915
 20
37.6352
 30
0.0
 10
-97.356
 20
36.5418
 30
0.0
 10
-96.2827
 20
35.942
 30
0.0
 10
-96.2827
 20
35.942
 30
0.0
 10
-96.0688
 20
35.7779
 30
0.0
 10
-95.8102
 20
35.6879
 30
0.0
 10
-95.5441
 20
35.6847
 30
0.0
 10
-95.5441
 20
35.6847
 30
0.0
 10
-95.2783
 20
35.6879
 30
0.0
 10
-95.0197
 20
35.7779
 30
0.0
 10
-94.8058
 20
35.942
 30
0.0
  0
SPLINE
  5
C3
330
1F
100
AcDbEntity
  8
layer 1
 62
     7
370
     9
100
AcDbSpline
210
0.0
220
0.0
230
1.0
 70
    11
 71
     3
 72
    12
 73
     8
 74
     0
 42
0.0000000001
 43
0.0000000001
 12
1.0
 22
0.0
 32
0.0
 13
1.0
 23
0.0
 33
0.0
 40
0.0
 40
0.0
 40
0.0
 40
0.0
 40
0.3333333333333333
 40
0.3333333333333333
 40
0.3333333333333333
 40
0.3333333333333333
 40
1.0
 40
1.0
 40
1.0
 40
1.0
 10
-86.4493
 20
41.1885
 30
0.0
 10
-87.2766
 20
44.1361
 30
0.0
 10
-89.6693
 20
46.3221
 30
0.0
 10
-92.5902
 20
46.7985
 30
0.0
 10
-92.5902
 20
46.7985
 30
0.0
 10
-91.5629
 20
43.989
 30
0.0
 10
-89.2639
 20
41.8888
 30
0.0
 10
-86.4493
 20
41.1885
 30
0.0
  0
SPLINE
  5
C4
330
1F
100
AcDbEntity
  8
layer 1
 62
     7
370
     9
100
AcDbSpline
210
0.0
220
0.0
230
1.0
 70
    11
 71
     3
 72
    36
 73
    32
 74
     0
 42
0.0000000001
 43
0.0000000001
 12
1.0
 22
0.0
 32
0.0
 13
1.0
 23
0.0
 33
0.0
 40
0.0
 40
0.0
 40
0.0
 40
0.0
 40
0.1111111111111111
 40
0.1111111111111111
 40
0.1111111111111111
 40
0.1111111111111111
 40
0.2222222222222222
 40
0.2222222222222222
 40
0.2222222222222222
 40
0.2222222222222222
 40
0.3333333333333333
 40
0.3333333333333333
 40
0.3333333333333333
 40
0.3333333333333333
 40
0.4444444444444444
 40
0.4444444444444444
 40
0.4444444444444444
 40
0.4444444444444444
 40
0.5555555555555556
 40
0.5555555555555556
 40
0.5555555555555556
 40
0.5555555555555556
 40
0.6666666666666666
 40
0.6666666666666666
 40
0.6666666666666666
 40
0.6666666666666666
 40
0.7777777777777778
 40
0.7777777777777778
 40
0.7777777777777778
 40
0.7777777777777778
 40
1.0
 40
1.0
 40
1.0
 40
1.0
 10
-80.7361
 20
49.1393
 30
0.0
 10
-81.5107
 20
48.0949
 30
0.0
 10
-82.6335
 20
47.3895
 30
0.0
 10
-83.8842
 20
47.1617
 30
0.0
 10
-83.8842
 20
47.1617
 30
0.0
 10
-83.3867
 20
45.8752
 30
0.0
 10
-83.5947
 20
44.4106
 30
0.0
 10
-84.4282
 20
43.3276
 30
0.0
 10
-84.4282
 20
43.3276
 30
0.0
 10
-86.836
 20
46.1891
 30
0.0
 10
-89.8838
 20
48.3928
 30
0.0
 10
-93.3038
 20
49.7448
 30
0.0
 10
-93.3038
 20
49.7448
 30
0.0
 10
-89.8838
 20
51.0967
 30
0.0
 10
-86.836
 20
53.3003
 30
0.0
 10
-84.4282
 20
56.162
 30
0.0
 10
-84.4282
 20
56.162
 30
0.0
 10
-83.5947
 20
55.079
 30
0.0
 10
-83.3867
 20
53.6141
 30
0.0
 10
-83.8842
 20
52.3276
 30
0.0
 10
-83.8842
 20
52.3276
 30
0.0
 10
-82.6335
 20
52.1002
 30
0.0
 10
-81.5107
 20
51.3947
 30
0.0
 10
-80.7361
 20
50.3501
 30
0.0
 10
-80.7361
 20
50.3501
 30
0.0
 10
-80.5628
 20
50.2006
 30
0.0
 10
-80.4629
 20
49.9786
 30
0.0
 10
-80.4629
 20
49.7448
 30
0.0
 10
-80.4629
 20
49.7448
 30
0.0
 10
-80.4629
 20
49.5108
 30
0.0
 10
-80.5628
 20
49.289
 30
0.0
 10
-80.7361
 20
49.1393
 30
0.0
  0
SPLINE
  5
C5
330
1F
100
AcDbEntity
  8
layer 1
 62
     7
370
     9
100
AcDbSpline
210
0.0
220
0.0
230
1.0
 70
    11
 71
     3
 72
    12
 73
     8
 74
     0
 42
0.0000000001
 43
0.0000000001
 12
1.0
 22
0.0
 32
0.0
 13
1.0
 23
0.0
 33
0.0
 40
0.0
 40
0.0
 40
0.0
 40
0.0
 40
0.3333333333333333
 40
0.3333333333333333
 40
0.3333333333333333
 40
0.3333333333333333
 40
1.0
 40
1.0
 40
1.0
 40
1.0
 10
-83.4705
 20
34.8118
 30
0.0
 10
-82.6429
 20
31.8642
 30
0.0
 10
-80.2503
 20
29.6785
 30
0.0
 10
-77.3295
 20
29.2018
 30
0.0
 10
-77.3295
 20
29.2018
 30
0.0
 10
-78.357
 20
32.0113
 30
0.0
 10
-80.656
 20
34.1116
 30
0.0
 10
-83.4705
 20
34.8118
 30
0.0
  0
SPLINE
  5
C6
330
1F
100
AcDbEntity
  8
layer 1
 62
     7
370
     9
100
AcDbSpline
210
0.0
220
0.0
230
1.0
 70
    11
 71
     3
 72
    36
 73
    32
 74
     0
 42
0.0000000001
 43
0.0000000001
 12
1.0
 22
0.0
 32
0.0
 13
1.0
 23
0.0
 33
0.0
 40
0.0
 40
0.0
 40
0.0
 40
0.0
 40
0.1111111111111111
 40
0.1111111111111111
 40
0.1111111111111111
 40
0.1111111111111111
 40
0.2222222222222222
 40
0.2222222222222222
 40
0.2222222222222222
 40
0.2222222222222222
 40
0.3333333333333333
 40
0.3333333333333333
 40
0.3333333333333333
 40
0.3333333333333333
 40
0.4444444444444444
 40
0.4444444444444444
 40
0.4444444444444444
 40
0.4444444444444444
 40
0.5555555555555556
 40
0.5555555555555556
 40
0.5555555555555556
 40
0.5555555555555556
 40
0.6666666666666666
 40
0.6666666666666666
 40
0.6666666666666666
 40
0.6666666666666666
 40
0.7777777777777778
 40
0.7777777777777778
 40
0.7777777777777778
 40
0.7777777777777778
 40
1.0
 40
1.0
 40
1.0
 40
1.0
 10
-89.1838
 20
25.6503
 30
0.0
 10
-88.4092
 20
24.6059
 30
0.0
 10
-87.286
 20
23.9002
 30
0.0
 10
-86.0356
 20
23.6726
 30
0.0
 10
-86.0356
 20
23.6726
 30
0.0
 10
-86.5328
 20
22.3862
 30
0.0
 10
-86.3252
 20
20.9213
 30
0.0
 10
-85.4913
 20
19.8386
 30
0.0
 10
-85.4913
 20
19.8386
 30
0.0
 10
-83.0838
 20
22.7001
 30
0.0
 10
-80.0361
 20
24.9036
 30
0.0
 10
-76.616
 20
26.2555
 30
0.0
 10
-76.616
 20
26.2555
 30
0.0
 10
-80.0361
 20
27.6077
 30
0.0
 10
-83.0838
 20
29.8113
 30
0.0
 10
-85.4913
 20
32.6727
 30
0.0
 10
-85.4913
 20
32.6727
 30
0.0
 10
-86.3252
 20
31.59
 30
0.0
 10
-86.5328
 20
30.1251
 30
0.0
 10
-86.0356
 20
28.8386
 30
0.0
 10
-86.0356
 20
28.8386
 30
0.0
 10
-87.286
 20
28.6112
 30
0.0
 10
-88.4092
 20
27.9054
 30
0.0
 10
-89.1838
 20
26.861
 30
0.0
 10
-89.1838
 20
26.861
 30
0.0
 10
-89.3568
 20
26.7113
 30
0.0
 10
-89.457
 20
26.4896
 30
0.0
 10
-89.457
 20
26.2555
 30
0.0
 10
-89.457
 20
26.2555
 30
0.0
 10
-89.457
 20
26.0218
 30
0.0
 10
-89.3568
 20
25.8
 30
0.0
 10
-89.1838
 20
25.6503
 30
0.0
  0
SPLINE
  5
C7
330
1F
100
AcDbEntity
  8
layer 1
 62
     7
370
     9
100
AcDbSpline
210
0.0
220
0.0
230
1.0
 70
    11
 71
     3
 72
    36
 73
    32
 74
     0
 42
0.0000000001
 43
0.0000000001
 12
1.0
 22
0.0
 32
0.0
 13
1.0
 23
0.0
 33
0.0
 40
0.0
 40
0.0
 40
0.0
 40
0.0
 40
0.1111111111111111
 40
0.1111111111111111
 40
0.1111111111111111
 40
0.1111111111111111
 40
0.2222222222222222
 40
0.2222222222222222
 40
0.2222222222222222
 40
0.2222222222222222
 40
0.3333333333333333
 40
0.3333333333333333
 40
0.3333333333333333
 40
0.3333333333333333
 40
0.4444444444444444
 40
0.4444444444444444
 40
0.4444444444444444
 40
0.4444444444444444
 40
0.5555555555555556
 40
0.5555555555555556
 40
0.5555555555555556
 40
0.5555555555555556
 40
0.6666666666666666
 40
0.6666666666666666
 40
0.6666666666666666
 40
0.6666666666666666
 40
0.7777777777777778
 40
0.7777777777777778
 40
0.7777777777777778
 40
0.7777777777777778
 40
1.0
 40
1.0
 40
1.0
 40
1.0
 10
-73.6371
 20
40.0587
 30
0.0
 10
-72.5639
 20
39.4586
 30
0.0
 10
-71.8281
 20
38.3654
 30
0.0
 10
-71.6549
 20
37.1123
 30
0.0
 10
-71.6549
 20
37.1123
 30
0.0
 10
-70.2246
 20
37.7098
 30
0.0
 10
-68.6112
 20
37.606
 30
0.0
 10
-67.263
 20
36.8298
 30
0.0
 10
-67.263
 20
36.8298
 30
0.0
 10
-70.2048
 20
34.6949
 30
0.0
 10
-72.6377
 20
31.8901
 30
0.0
 10
-74.3754
 20
28.6294
 30
0.0
 10
-74.3754
 20
28.6294
 30
0.0
 10
-76.1135
 20
31.8901
 30
0.0
 10
-78.5464
 20
34.6949
 30
0.0
 10
-81.4882
 20
36.8298
 30
0.0
 10
-81.4882
 20
36.8298
 30
0.0
 10
-80.1399
 20
37.606
 30
0.0
 10
-78.5265
 20
37.7098
 30
0.0
 10
-77.0961
 20
37.1123
 30
0.0
 10
-77.0961
 20
37.1123
 30
0.0
 10
-76.9229
 20
38.3654
 30
0.0
 10
-76.1874
 20
39.4586
 30
0.0
 10
-75.1141
 20
40.0587
 30
0.0
 10
-75.1141
 20
40.0587
 30
0.0
 10
-74.9001
 20
40.2228
 30
0.0
 10
-74.6416
 20
40.3128
 30
0.0
 10
-74.3754
 20
40.3156
 30
0.0
 10
-74.3754
 20
40.3156
 30
0.0
 10
-74.1096
 20
40.3128
 30
0.0
 10
-73.8511
 20
40.2228
 30
0.0
 10
-73.6371
 20
40.0587
 30
0.0
  0
SPLINE
  5
C8
330
1F
100
AcDbEntity
  8
layer 1
 62
     7
370
     9
100
AcDbSpline
210
0.0
220
0.0
230
1.0
 70
    11
 71
     3
 72
    12
 73
     8
 74
     0
 42
0.0000000001
 43
0.0000000001
 12
1.0
 22
0.0
 32
0.0
 13
1.0
 23
0.0
 33
0.0
 40
0.0
 40
0.0
 40
0.0
 40
0.0
 40
0.3333333333333333
 40
0.3333333333333333
 40
0.3333333333333333
 40
0.3333333333333333
 40
1.0
 40
1.0
 40
1.0
 40
1.0
 10
-65.2808
 20
34.8118
 30
0.0
 10
-66.1081
 20
31.8642
 30
0.0
 10
-68.5009
 20
29.6785
 30
0.0
 10
-71.4216
 20
29.2018
 30
0.0
 10
-71.4216
 20
29.2018
 30
0.0
 10
-70.3943
 20
32.0113
 30
0.0
 10
-68.0953
 20
34.1116
 30
0.0
 10
-65.2808
 20
34.8118
 30
0.0
  0
SPLINE
  5
C9
330
1F
100
AcDbEntity
  8
layer 1
 62
     7
370
     9
100
AcDbSpline
210
0.0
220
0.0
230
1.0
 70
    11
 71
     3
 72
    36
 73
    32
 74
     0
 42
0.0000000001
 43
0.0000000001
 12
1.0
 22
0.0
 32
0.0
 13
1.0
 23
0.0
 33
0.0
 40
0.0
 40
0.0
 40
0.0
 40
0.0
 40
0.1111111111111111
 40
0.1111111111111111
 40
0.1111111111111111
 40
0.1111111111111111
 40
0.2222222222222222
 40
0.2222222222222222
 40
0.2222222222222222
 40
0.2222222222222222
 40
0.3333333333333333
 40
0.3333333333333333
 40
0.3333333333333333
 40
0.3333333333333333
 40
0.4444444444444444
 40
0.4444444444444444
 40
0.4444444444444444
 40
0.4444444444444444
 40
0.5555555555555556
 40
0.5555555555555556
 40
0.5555555555555556
 40
0.5555555555555556
 40
0.6666666666666666
 40
0.6666666666666666
 40
0.6666666666666666
 40
0.6666666666666666
 40
0.7777777777777778
 40
0.7777777777777778
 40
0.7777777777777778
 40
0.7777777777777778
 40
1.0
 40
1.0
 40
1.0
 40
1.0
 10
-73.6371
 20
12.4527
 30
0.0
 10
-72.5639
 20
13.0528
 30
0.0
 10
-71.8281
 20
14.1459
 30
0.0
 10
-71.6549
 20
15.399
 30
0.0
 10
-71.6549
 20
15.399
 30
0.0
 10
-70.2246
 20
14.8015
 30
0.0
 10
-68.6112
 20
14.9053
 30
0.0
 10
-67.263
 20
15.6815
 30
0.0
 10
-67.263
 20
15.6815
 30
0.0
 10
-70.2048
 20
17.8164
 30
0.0
 10
-72.6377
 20
20.6213
 30
0.0
 10
-74.3754
 20
23.8819
 30
0.0
 10
-74.3754
 20
23.8819
 30
0.0
 10
-76.1135
 20
20.6213
 30
0.0
 10
-78.5464
 20
17.8164
 30
0.0
 10
-81.4882
 20
15.6815
 30
0.0
 10
-81.4882
 20
15.6815
 30
0.0
 10
-80.1399
 20
14.9053
 30
0.0
 10
-78.5265
 20
14.8015
 30
0.0
 10
-77.0961
 20
15.399
 30
0.0
 10
-77.0961
 20
15.399
 30
0.0
 10
-76.9229
 20
14.1459
 30
0.0
 10
-76.1874
 20
13.0528
 30
0.0
 10
-75.1141
 20
12.4527
 30
0.0
 10
-75.1141
 20
12.4527
 30
0.0
 10
-74.9001
 20
12.2886
 30
0.0
 10
-74.6416
 20
12.1986
 30
0.0
 10
-74.3754
 20
12.1957
 30
0.0
 10
-74.3754
 20
12.1957
 30
0.0
 10
-74.1096
 20
12.1986
 30
0.0
 10
-73.8511
 20
12.2886
 30
0.0
 10
-73.6371
 20
12.4527
 30
0.0
  0
SPLINE
  5
CA
330
1F
100
AcDbEntity
  8
layer 1
 62
     7
370
     9
100
AcDbSpline
210
0.0
220
0.0
230
1.0
 70
    11
 71
     3
 72
    12
 73
     8
 74
     0
 42
0.0000000001
 43
0.0000000001
 12
1.0
 22
0.0
 32
0.0
 13
1.0
 23
0.0
 33
0.0
 40
0.0
 40
0.0
 40
0.0
 40
0.0
 40
0.3333333333333333
 40
0.3333333333333333
 40
0.3333333333333333
 40
0.3333333333333333
 40
1.0
 40
1.0
 40
1.0
 40
1.0
 10
-65.2808
 20
17.6995
 30
0.0
 10
-66.1081
 20
20.6471
 30
0.0
 10
-68.5009
 20
22.8329
 30
0.0
 10
-71.4216
 20
23.3095
 30
0.0
 10
-71.4216
 20
23.3095
 30
0.0
 10
-70.3943
 20
20.4999
 30
0.0
 10
-68.0953
 20
18.3998
 30
0.0
 10
-65.2808
 20
17.6995
 30
0.0
  0
SPLINE
  5
CB
330
1F
100
AcDbEntity
  8
layer 1
 62
     7
370
     9
100
AcDbSpline
210
0.0
220
0.0
230
1.0
 70
    11
 71
     3
 72
    36
 73
    32
 74
     0
 42
0.0000000001
 43
0.0000000001
 12
1.0
 22
0.0
 32
0.0
 13
1.0
 23
0.0
 33
0.0
 40
0.0
 40
0.0
 40
0.0
 40
0.0
 40
0.1111111111111111
 40
0.1111111111111111
 40
0.1111111111111111
 40
0.1111111111111111
 40
0.2222222222222222
 40
0.2222222222222222
 40
0.2222222222222222
 40
0.2222222222222222
 40
0.3333333333333333
 40
0.3333333333333333
 40
0.3333333333333333
 40
0.3333333333333333
 40
0.4444444444444444
 40
0.4444444444444444
 40
0.4444444444444444
 40
0.4444444444444444
 40
0.5555555555555556
 40
0.5555555555555556
 40
0.5555555555555556
 40
0.5555555555555556
 40
0.6666666666666666
 40
0.6666666666666666
 40
0.6666666666666666
 40
0.6666666666666666
 40
0.7777777777777778
 40
0.7777777777777778
 40
0.7777777777777778
 40
0.7777777777777778
 40
1.0
 40
1.0
 40
1.0
 40
1.0
 10
-59.5673
 20
25.6503
 30
0.0
 10
-60.3419
 20
24.6059
 30
0.0
 10
-61.4651
 20
23.9002
 30
0.0
 10
-62.7155
 20
23.6726
 30
0.0
 10
-62.7155
 20
23.6726
 30
0.0
 10
-62.2182
 20
22.3862
 30
0.0
 10
-62.4262
 20
20.9213
 30
0.0
 10
-63.2596
 20
19.8386
 30
0.0
 10
-63.2596
 20
19.8386
 30
0.0
 10
-65.6674
 20
22.7001
 30
0.0
 10
-68.7151
 20
24.9036
 30
0.0
 10
-72.1349
 20
26.2555
 30
0.0
 10
-72.1349
 20
26.2555
 30
0.0
 10
-68.7151
 20
27.6077
 30
0.0
 10
-65.6674
 20
29.8113
 30
0.0
 10
-63.2596
 20
32.6727
 30
0.0
 10
-63.2596
 20
32.6727
 30
0.0
 10
-62.4262
 20
31.59
 30
0.0
 10
-62.2182
 20
30.1251
 30
0.0
 10
-62.7155
 20
28.8386
 30
0.0
 10
-62.7155
 20
28.8386
 30
0.0
 10
-61.4651
 20
28.6112
 30
0.0
 10
-60.3419
 20
27.9054
 30
0.0
 10
-59.5673
 20
26.861
 30
0.0
 10
-59.5673
 20
26.861
 30
0.0
 10
-59.3943
 20
26.7113
 30
0.0
 10
-59.2943
 20
26.4896
 30
0.0
 10
-59.2943
 20
26.2555
 30
0.0
 10
-59.2943
 20
26.2555
 30
0.0
 10
-59.2943
 20
26.0218
 30
0.0
 10
-59.3943
 20
25.8
 30
0.0
 10
-59.5673
 20
25.6503
 30
0.0
  0
SPLINE
  5
CC
330
1F
100
AcDbEntity
  8
layer 1
 62
     7
370
     9
100
AcDbSpline
210
0.0
220
0.0
230
1.0
 70
    11
 71
     3
 72
    12
 73
     8
 74
     0
 42
0.0000000001
 43
0.0000000001
 12
1.0
 22
0.0
 32
0.0
 13
1.0
 23
0.0
 33
0.0
 40
0.0
 40
0.0
 40
0.0
 40
0.0
 40
0.3333333333333333
 40
0.3333333333333333
 40
0.3333333333333333
 40
0.3333333333333333
 40
1.0
 40
1.0
 40
1.0
 40
1.0
 10
-107.0237
 20
34.8194
 30
0.0
 10
-107.851
 20
31.8718
 30
0.0
 10
-110.2436
 20
29.686
 30
0.0
 10
-113.1646
 20
29.2094
 30
0.0
 10
-113.1646
 20
29.2094
 30
0.0
 10
-112.1369
 20
32.019
 30
0.0
 10
-109.8382
 20
34.1191
 30
0.0
 10
-107.0237
 20
34.8194
 30
0.0
  0
SPLINE
  5
CD
330
1F
100
AcDbEntity
  8
layer 1
 62
     7
370
     9
100
AcDbSpline
210
0.0
220
0.0
230
1.0
 70
    11
 71
     3
 72
    12
 73
     8
 74
     0
 42
0.0000000001
 43
0.0000000001
 12
1.0
 22
0.0
 32
0.0
 13
1.0
 23
0.0
 33
0.0
 40
0.0
 40
0.0
 40
0.0
 40
0.0
 40
0.3333333333333333
 40
0.3333333333333333
 40
0.3333333333333333
 40
0.3333333333333333
 40
1.0
 40
1.0
 40
1.0
 40
1.0
 10
-107.0237
 20
17.7071
 30
0.0
 10
-107.851
 20
20.6547
 30
0.0
 10
-110.2436
 20
22.8404
 30
0.0
 10
-113.1646
 20
23.3171
 30
0.0
 10
-113.1646
 20
23.3171
 30
0.0
 10
-112.1369
 20
20.5075
 30
0.0
 10
-109.8382
 20
18.4073
 30
0.0
 10
-107.0237
 20
17.7071
 30
0.0
  0
SPLINE
  5
CE
330
1F
100
AcDbEntity
  8
layer 1
 62
     7
370
     9
100
AcDbSpline
210
0.0
220
0.0
230
1.0
 70
    11
 71
     3
 72
    36
 73
    32
 74
     0
 42
0.0000000001
 43
0.0000000001
 12
1.0
 22
0.0
 32
0.0
 13
1.0
 23
0.0
 33
0.0
 40
0.0
 40
0.0
 40
0.0
 40
0.0
 40
0.1111111111111111
 40
0.1111111111111111
 40
0.1111111111111111
 40
0.1111111111111111
 40
0.2222222222222222
 40
0.2222222222222222
 40
0.2222222222222222
 40
0.2222222222222222
 40
0.3333333333333333
 40
0.3333333333333333
 40
0.3333333333333333
 40
0.3333333333333333
 40
0.4444444444444444
 40
0.4444444444444444
 40
0.4444444444444444
 40
0.4444444444444444
 40
0.5555555555555556
 40
0.5555555555555556
 40
0.5555555555555556
 40
0.5555555555555556
 40
0.6666666666666666
 40
0.6666666666666666
 40
0.6666666666666666
 40
0.6666666666666666
 40
0.7777777777777778
 40
0.7777777777777778
 40
0.7777777777777778
 40
0.7777777777777778
 40
1.0
 40
1.0
 40
1.0
 40
1.0
 10
-101.3101
 20
25.6578
 30
0.0
 10
-102.0847
 20
24.6135
 30
0.0
 10
-103.2078
 20
23.908
 30
0.0
 10
-104.4583
 20
23.6803
 30
0.0
 10
-104.4583
 20
23.6803
 30
0.0
 10
-103.9611
 20
22.3938
 30
0.0
 10
-104.169
 20
20.9289
 30
0.0
 10
-105.0026
 20
19.8462
 30
0.0
 10
-105.0026
 20
19.8462
 30
0.0
 10
-107.4101
 20
22.7076
 30
0.0
 10
-110.4579
 20
24.9112
 30
0.0
 10
-113.8779
 20
26.2631
 30
0.0
 10
-113.8779
 20
26.2631
 30
0.0
 10
-110.4579
 20
27.6151
 30
0.0
 10
-107.4101
 20
29.8188
 30
0.0
 10
-105.0026
 20
32.6803
 30
0.0
 10
-105.0026
 20
32.6803
 30
0.0
 10
-104.169
 20
31.5976
 30
0.0
 10
-103.9611
 20
30.1327
 30
0.0
 10
-104.4583
 20
28.8462
 30
0.0
 10
-104.4583
 20
28.8462
 30
0.0
 10
-103.2078
 20
28.6187
 30
0.0
 10
-102.0847
 20
27.913
 30
0.0
 10
-101.3101
 20
26.8686
 30
0.0
 10
-101.3101
 20
26.8686
 30
0.0
 10
-101.1371
 20
26.7189
 30
0.0
 10
-101.0372
 20
26.4971
 30
0.0
 10
-101.0372
 20
26.2631
 30
0.0
 10
-101.0372
 20
26.2631
 30
0.0
 10
-101.0372
 20
26.0293
 30
0.0
 10
-101.1371
 20
25.8076
 30
0.0
 10
-101.3101
 20
25.6578
 30
0.0
  0
SPLINE
  5
CF
330
1F
100
AcDbEntity
  8
layer 1
 62
     7
370
     9
100
AcDbSpline
210
0.0
220
0.0
230
1.0
 70
    11
 71
     3
 72
    12
 73
     8
 74
     0
 42
0.0000000001
 43
0.0000000001
 12
1.0
 22
0.0
 32
0.0
 13
1.0
 23
0.0
 33
0.0
 40
0.0
 40
0.0
 40
0.0
 40
0.0
 40
0.3333333333333333
 40
0.3333333333333333
 40
0.3333333333333333
 40
0.3333333333333333
 40
1.0
 40
1.0
 40
1.0
 40
1.0
 10
-107.0237
 20
64.7256
 30
0.0
 10
-107.851
 20
67.6732
 30
0.0
 10
-110.2436
 20
69.8592
 30
0.0
 10
-113.1646
 20
70.3356
 30
0.0
 10
-113.1646
 20
70.3356
 30
0.0
 10
-112.1369
 20
67.526
 30
0.0
 10
-109.8382
 20
65.4258
 30
0.0
 10
-107.0237
 20
64.7256
 30
0.0
  0
SPLINE
  5
D0
330
1F
100
AcDbEntity
  8
layer 1
 62
     7
370
     9
100
AcDbSpline
210
0.0
220
0.0
230
1.0
 70
    11
 71
     3
 72
    12
 73
     8
 74
     0
 42
0.0000000001
 43
0.0000000001
 12
1.0
 22
0.0
 32
0.0
 13
1.0
 23
0.0
 33
0.0
 40
0.0
 40
0.0
 40
0.0
 40
0.0
 40
0.3333333333333333
 40
0.3333333333333333
 40
0.3333333333333333
 40
0.3333333333333333
 40
1.0
 40
1.0
 40
1.0
 40
1.0
 10
-107.0237
 20
81.8381
 30
0.0
 10
-107.851
 20
78.8905
 30
0.0
 10
-110.2436
 20
76.7045
 30
0.0
 10
-113.1646
 20
76.2281
 30
0.0
 10
-113.1646
 20
76.2281
 30
0.0
 10
-112.1369
 20
79.0377
 30
0.0
 10
-109.8382
 20
81.1379
 30
0.0
 10
-107.0237
 20
81.8381
 30
0.0
  0
SPLINE
  5
D1
330
1F
100
AcDbEntity
  8
layer 1
 62
     7
370
     9
100
AcDbSpline
210
0.0
220
0.0
230
1.0
 70
    11
 71
     3
 72
    36
 73
    32
 74
     0
 42
0.0000000001
 43
0.0000000001
 12
1.0
 22
0.0
 32
0.0
 13
1.0
 23
0.0
 33
0.0
 40
0.0
 40
0.0
 40
0.0
 40
0.0
 40
0.1111111111111111
 40
0.1111111111111111
 40
0.1111111111111111
 40
0.1111111111111111
 40
0.2222222222222222
 40
0.2222222222222222
 40
0.2222222222222222
 40
0.2222222222222222
 40
0.3333333333333333
 40
0.3333333333333333
 40
0.3333333333333333
 40
0.3333333333333333
 40
0.4444444444444444
 40
0.4444444444444444
 40
0.4444444444444444
 40
0.4444444444444444
 40
0.5555555555555556
 40
0.5555555555555556
 40
0.5555555555555556
 40
0.5555555555555556
 40
0.6666666666666666
 40
0.6666666666666666
 40
0.6666666666666666
 40
0.6666666666666666
 40
0.7777777777777778
 40
0.7777777777777778
 40
0.7777777777777778
 40
0.7777777777777778
 40
1.0
 40
1.0
 40
1.0
 40
1.0
 10
-101.3101
 20
73.8871
 30
0.0
 10
-101.1371
 20
73.7373
 30
0.0
 10
-101.0372
 20
73.5156
 30
0.0
 10
-101.0372
 20
73.2819
 30
0.0
 10
-101.0372
 20
73.2819
 30
0.0
 10
-101.0372
 20
73.0479
 30
0.0
 10
-101.1371
 20
72.8261
 30
0.0
 10
-101.3101
 20
72.6765
 30
0.0
 10
-101.3101
 20
72.6765
 30
0.0
 10
-102.0847
 20
71.6319
 30
0.0
 10
-103.2078
 20
70.9265
 30
0.0
 10
-104.4583
 20
70.6987
 30
0.0
 10
-104.4583
 20
70.6987
 30
0.0
 10
-103.9611
 20
69.4123
 30
0.0
 10
-104.169
 20
67.9473
 30
0.0
 10
-105.0026
 20
66.8646
 30
0.0
 10
-105.0026
 20
66.8646
 30
0.0
 10
-107.4101
 20
69.7261
 30
0.0
 10
-110.4579
 20
71.9299
 30
0.0
 10
-113.8779
 20
73.2819
 30
0.0
 10
-113.8779
 20
73.2819
 30
0.0
 10
-110.4579
 20
74.6338
 30
0.0
 10
-107.4101
 20
76.8373
 30
0.0
 10
-105.0026
 20
79.6991
 30
0.0
 10
-105.0026
 20
79.6991
 30
0.0
 10
-104.169
 20
78.6161
 30
0.0
 10
-103.9611
 20
77.1514
 30
0.0
 10
-104.4583
 20
75.8649
 30
0.0
 10
-104.4583
 20
75.8649
 30
0.0
 10
-103.2078
 20
75.6372
 30
0.0
 10
-102.0847
 20
74.9318
 30
0.0
 10
-101.3101
 20
73.8871
 30
0.0
  0
ENDSEC
  0
SECTION
  2
OBJECTS
  0
DICTIONARY
  5
C
330
0
100
AcDbDictionary
281
     1
  3
ACAD_GROUP
350
D
  3
ACAD_LAYOUT
350
1A
  3
ACAD_MATERIAL
350
3B
  3
ACAD_MLEADERSTYLE
350
F3
  3
ACAD_MLINESTYLE
350
17
  3
ACAD_PLOTSETTINGS
350
19
  3
ACAD_PLOTSTYLENAME
350
E
  3
ACAD_TABLESTYLE
350
F2
  3
ACAD_VISUALSTYLE
350
2A
  0
DICTIONARY
  5
D
102
{ACAD_REACTORS
330
C
102
}
330
C
100
AcDbDictionary
281
     1
  0
DICTIONARY
  5
1A
102
{ACAD_REACTORS
330
C
102
}
330
C
100
AcDbDictionary
281
     1
  3
Layout1
350
1E
  3
Layout2
350
26
  3
Model
350
22
  0
DICTIONARY
  5
3B
102
{ACAD_REACTORS
330
C
102
}
330
C
100
AcDbDictionary
281
     1
  3
ByBlock
350
3D
  3
ByLayer
350
3C
  3
Global
350
3E
  0
DICTIONARY
  5
F3
102
{ACAD_REACTORS
330
C
102
}
330
C
100
AcDbDictionary
281
     1
  0
DICTIONARY
  5
17
102
{ACAD_REACTORS
330
C
102
}
330
C
100
AcDbDictionary
281
     1
  3
Standard
350
18
  0
DICTIONARY
  5
19
102
{ACAD_REACTORS
330
C
102
}
330
C
100
AcDbDictionary
281
     1
  0
ACDBDICTIONARYWDFLT
  5
E
102
{ACAD_REACTORS
330
C
102
}
330
C
100
AcDbDictionary
281
     1
  3
Normal
350
F
100
AcDbDictionaryWithDefault
340
F
  0
DICTIONARY
  5
F2
102
{ACAD_REACTORS
330
C
102
}
330
C
100
AcDbDictionary
281
     1
  0
DICTIONARY
  5
2A
102
{ACAD_REACTORS
330
C
102
}
330
C
100
AcDbDictionary
281
     1
  3
2dWireframe
350
2F
  3
3D Hidden
350
31
  3
3dWireframe
350
30
  3
Basic
350
32
  3
Brighten
350
36
  3
ColorChange
350
3A
  3
Conceptual
350
34
  3
Dim
350
35
  3
Facepattern
350
39
  3
Flat
350
2B
  3
FlatWithEdges
350
2C
  3
Gouraud
350
2D
  3
GouraudWithEdges
350
2E
  3
Linepattern
350
38
  3
Realistic
350
33
  3
Thicken
350
37
  0
LAYOUT
  5
1E
102
{ACAD_REACTORS
330
1A
102
}
330
1A
100
AcDbPlotSettings
  1

  2
none_device
  4

  6

 40
0.0
 41
0.0
 42
0.0
 43
0.0
 44
0.0
 45
0.0
 46
0.0
 47
0.0
 48
0.0
 49
0.0
140
0.0
141
0.0
142
1.0
143
1.0
 70
   688
 72
     0
 73
     0
 74
     5
  7

 75
    16
 76
     0
 77
     2
 78
   300
147
1.0
148
0.0
149
0.0
100
AcDbLayout
  1
Layout1
 70
     1
 71
     1
 10
0.0
 20
0.0
 11
12.0
 21
9.0
 12
0.0
 22
0.0
 32
0.0
 14
1.000000000000000E+20
 24
1.000000000000000E+20
 34
1.000000000000000E+20
 15
-1.000000000000000E+20
 25
-1.000000000000000E+20
 35
-1.000000000000000E+20
146
0.0
 13
0.0
 23
0.0
 33
0.0
 16
1.0
 26
0.0
 36
0.0
 17
0.0
 27
1.0
 37
0.0
 76
     0
330
1B
  0
LAYOUT
  5
26
102
{ACAD_REACTORS
330
1A
102
}
330
1A
100
AcDbPlotSettings
  1

  2
none_device
  4

  6

 40
0.0
 41
0.0
 42
0.0
 43
0.0
 44
0.0
 45
0.0
 46
0.0
 47
0.0
 48
0.0
 49
0.0
140
0.0
141
0.0
142
1.0
143
1.0
 70
   688
 72
     0
 73
     0
 74
     5
  7

 75
    16
 76
     0
 77
     2
 78
   300
147
1.0
148
0.0
149
0.0
100
AcDbLayout
  1
Layout2
 70
     1
 71
     2
 10
0.0
 20
0.0
 11
0.0
 21
0.0
 12
0.0
 22
0.0
 32
0.0
 14
0.0
 24
0.0
 34
0.0
 15
0.0
 25
0.0
 35
0.0
146
0.0
 13
0.0
 23
0.0
 33
0.0
 16
1.0
 26
0.0
 36
0.0
 17
0.0
 27
1.0
 37
0.0
 76
     0
330
23
  0
LAYOUT
  5
22
102
{ACAD_REACTORS
330
1A
102
}
330
1A
100
AcDbPlotSettings
  1

  2
none_device
  4

  6

 40
0.0
 41
0.0
 42
0.0
 43
0.0
 44
0.0
 45
0.0
 46
0.0
 47
0.0
 48
0.0
 49
0.0
140
0.0
141
0.0
142
1.0
143
1.0
 70
  1712
 72
     0
 73
     0
 74
     0
  7

 75
     0
 76
     0
 77
     2
 78
   300
147
1.0
148
0.0
149
0.0
100
AcDbLayout
  1
Model
 70
     1
 71
     0
 10
0.0
 20
0.0
 11
12.0
 21
9.0
 12
0.0
 22
0.0
 32
0.0
 14
-187.2067
 24
-96.6344
 34
0.0
 15
-45.0301
 25
102.1675
 35
0.0
146
0.0
 13
0.0
 23
0.0
 33
0.0
 16
1.0
 26
0.0
 36
0.0
 17
0.0
 27
1.0
 37
0.0
 76
     0
330
1F
331
29
  0
MATERIAL
  5
3D
102
{ACAD_REACTORS
330
3B
102
}
330
3B
100
AcDbMaterial
  1
ByBlock
 72
     1
 94
      127
  0
MATERIAL
  5
3C
102
{ACAD_REACTORS
330
3B
102
}
330
3B
100
AcDbMaterial
  1
ByLayer
 72
     1
 94
      127
  0
MATERIAL
  5
3E
102
{ACAD_REACTORS
330
3B
102
}
330
3B
100
AcDbMaterial
  1
Global
 72
     1
 94
      127
  0
MLINESTYLE
  5
18
102
{ACAD_REACTORS
330
17
102
}
330
17
100
AcDbMlineStyle
  2
Standard
 70
     0
  3

 62
   256
 51
90.0
 52
90.0
 71
     2
 49
0.5
 62
   256
  6
BYLAYER
 49
-0.5
 62
   256
  6
BYLAYER
  0
ACDBPLACEHOLDER
  5
F
102
{ACAD_REACTORS
330
E
102
}
330
E
  0
VISUALSTYLE
  5
2F
102
{ACAD_REACTORS
330
2A
102
}
102
{ACAD_XDICTIONARY
360
DA
102
}
330
2A
100
AcDbVisualStyle
  2
2dWireframe
 70
     4
 71
     0
 72
     2
 73
     0
 90
        0
 40
-0.6
 41
-30.0
 62
     5
 63
     7
421
 16777215
 74
     1
 91
        4
 64
     7
 65
   257
 75
     1
175
     1
 42
1.0
 92
        0
 66
   257
 43
1.0
 76
     1
 77
     6
 78
     2
 67
     7
 79
     5
170
     0
171
     0
290
     0
174
     0
 93
        1
 44
0.0
173
     0
291
     0
 45
0.0
  0
VISUALSTYLE
  5
31
102
{ACAD_REACTORS
330
2A
102
}
102
{ACAD_XDICTIONARY
360
DE
102
}
330
2A
100
AcDbVisualStyle
  2
3D Hidden
 70
     6
 71
     1
 72
     2
 73
     2
 90
        0
 40
-0.6
 41
-30.0
 62
     5
 63
     7
421
 16777215
 74
     2
 91
        2
 64
     7
 65
   257
 75
     2
175
     1
 42
40.0
 92
        0
 66
   257
 43
1.0
 76
     1
 77
     6
 78
     2
 67
     7
 79
     3
170
     0
171
     0
290
     0
174
     0
 93
        1
 44
0.0
173
     0
291
     0
 45
0.0
  0
VISUALSTYLE
  5
30
102
{ACAD_REACTORS
330
2A
102
}
102
{ACAD_XDICTIONARY
360
DC
102
}
330
2A
100
AcDbVisualStyle
  2
3dWireframe
 70
     5
 71
     0
 72
     2
 73
     0
 90
        0
 40
-0.6
 41
-30.0
 62
     5
 63
     7
421
 16777215
 74
     1
 91
        4
 64
     7
 65
   257
 75
     1
175
     1
 42
1.0
 92
        0
 66
   257
 43
1.0
 76
     1
 77
     6
 78
     2
 67
     7
 79
     5
170
     0
171
     0
290
     0
174
     0
 93
        1
 44
0.0
173
     0
291
     0
 45
0.0
  0
VISUALSTYLE
  5
32
102
{ACAD_REACTORS
330
2A
102
}
102
{ACAD_XDICTIONARY
360
E0
102
}
330
2A
100
AcDbVisualStyle
  2
Basic
 70
     7
 71
     1
 72
     0
 73
     1
 90
        0
 40
-0.6
 41
-30.0
 62
     5
 63
     7
421
 16777215
 74
     0
 91
        4
 64
     7
 65
   257
 75
     1
175
     1
 42
1.0
 92
        8
 66
     7
 43
1.0
 76
     1
 77
     6
 78
     2
 67
     7
 79
     5
170
     0
171
     0
290
     0
174
     0
 93
        1
 44
0.0
173
     0
291
     1
 45
0.0
  0
VISUALSTYLE
  5
36
102
{ACAD_REACTORS
330
2A
102
}
102
{ACAD_XDICTIONARY
360
E8
102
}
330
2A
100
AcDbVisualStyle
  2
Brighten
 70
    12
 71
     2
 72
     2
 73
     0
 90
        0
 40
-0.6
 41
-30.0
 62
     5
 63
     7
421
 16777215
 74
     1
 91
        4
 64
     7
 65
   257
 75
     1
175
     1
 42
1.0
 92
        8
 66
     7
 43
1.0
 76
     1
 77
     6
 78
     2
 67
     7
 79
     5
170
     0
171
     0
290
     0
174
     0
 93
        1
 44
50.0
173
     0
291
     1
 45
0.0
  0
VISUALSTYLE
  5
3A
102
{ACAD_REACTORS
330
2A
102
}
102
{ACAD_XDICTIONARY
360
F0
102
}
330
2A
100
AcDbVisualStyle
  2
ColorChange
 70
    16
 71
     2
 72
     2
 73
     3
 90
        0
 40
-0.6
 41
-30.0
 62
     5
 63
     8
421
  8421504
 74
     1
 91
        4
 64
     7
 65
   257
 75
     1
175
     1
 42
1.0
 92
        8
 66
     8
424
  8421504
 43
1.0
 76
     1
 77
     6
 78
     2
 67
     7
 79
     5
170
     0
171
     0
290
     0
174
     0
 93
        1
 44
0.0
173
     0
291
     1
 45
0.0
  0
VISUALSTYLE
  5
34
102
{ACAD_REACTORS
330
2A
102
}
102
{ACAD_XDICTIONARY
360
E4
102
}
330
2A
100
AcDbVisualStyle
  2
Conceptual
 70
     9
 71
     3
 72
     2
 73
     0
 90
        0
 40
-0.6
 41
-30.0
 62
     5
 63
     7
421
 16777215
 74
     2
 91
        2
 64
     7
 65
   257
 75
     1
175
     1
 42
40.0
 92
        8
 66
     7
 43
1.0
 76
     1
 77
     6
 78
     2
 67
     7
 79
     3
170
     0
171
     0
290
     0
174
     0
 93
        1
 44
0.0
173
     0
291
     0
 45
0.0
  0
VISUALSTYLE
  5
35
102
{ACAD_REACTORS
330
2A
102
}
102
{ACAD_XDICTIONARY
360
E6
102
}
330
2A
100
AcDbVisualStyle
  2
Dim
 70
    11
 71
     2
 72
     2
 73
     0
 90
        0
 40
-0.6
 41
-30.0
 62
     5
 63
     7
421
 16777215
 74
     1
 91
        4
 64
     7
 65
   257
 75
     1
175
     1
 42
1.0
 92
        8
 66
     7
 43
1.0
 76
     1
 77
     6
 78
     2
 67
     7
 79
     5
170
     0
171
     0
290
     0
174
     0
 93
        1
 44
-50.0
173
     0
291
     1
 45
0.0
  0
VISUALSTYLE
  5
39
102
{ACAD_REACTORS
330
2A
102
}
102
{ACAD_XDICTIONARY
360
EE
102
}
330
2A
100
AcDbVisualStyle
  2
Facepattern
 70
    15
 71
     2
 72
     2
 73
     0
 90
        0
 40
-0.6
 41
-30.0
 62
     5
 63
     7
421
 16777215
 74
     1
 91
        4
 64
     7
 65
   257
 75
     1
175
     1
 42
1.0
 92
        8
 66
     7
 43
1.0
 76
     1
 77
     6
 78
     2
 67
     7
 79
     5
170
     0
171
     0
290
     0
174
     0
 93
        1
 44
0.0
173
     0
291
     1
 45
0.0
  0
VISUALSTYLE
  5
2B
102
{ACAD_REACTORS
330
2A
102
}
102
{ACAD_XDICTIONARY
360
D2
102
}
330
2A
100
AcDbVisualStyle
  2
Flat
 70
     0
 71
     2
 72
     1
 73
     1
 90
        2
 40
-0.6
 41
30.0
 62
     5
 63
     7
421
 16777215
 74
     0
 91
        4
 64
     7
 65
   257
 75
     1
175
     1
 42
1.0
 92
        8
 66
     7
 43
1.0
 76
     1
 77
     6
 78
     2
 67
     7
 79
     5
170
     0
171
     0
290
     0
174
     0
 93
       13
 44
0.0
173
     0
291
     1
 45
0.0
  0
VISUALSTYLE
  5
2C
102
{ACAD_REACTORS
330
2A
102
}
102
{ACAD_XDICTIONARY
360
D4
102
}
330
2A
100
AcDbVisualStyle
  2
FlatWithEdges
 70
     1
 71
     2
 72
     1
 73
     1
 90
        2
 40
-0.6
 41
30.0
 62
     5
 63
     7
421
 16777215
 74
     1
 91
        4
 64
     7
 65
   257
 75
     1
175
     1
 42
1.0
 92
        0
 66
   257
 43
1.0
 76
     1
 77
     6
 78
     2
 67
     7
 79
     5
170
     0
171
     0
290
     0
174
     0
 93
       13
 44
0.0
173
     0
291
     1
 45
0.0
  0
VISUALSTYLE
  5
2D
102
{ACAD_REACTORS
330
2A
102
}
102
{ACAD_XDICTIONARY
360
D6
102
}
330
2A
100
AcDbVisualStyle
  2
Gouraud
 70
     2
 71
     2
 72
     2
 73
     1
 90
        2
 40
-0.6
 41
30.0
 62
     5
 63
     7
421
 16777215
 74
     0
 91
        4
 64
     7
 65
   257
 75
     1
175
     1
 42
1.0
 92
        0
 66
     7
 43
1.0
 76
     1
 77
     6
 78
     2
 67
     7
 79
     5
170
     0
171
     0
290
     0
174
     0
 93
       13
 44
0.0
173
     0
291
     1
 45
0.0
  0
VISUALSTYLE
  5
2E
102
{ACAD_REACTORS
330
2A
102
}
102
{ACAD_XDICTIONARY
360
D8
102
}
330
2A
100
AcDbVisualStyle
  2
GouraudWithEdges
 70
     3
 71
     2
 72
     2
 73
     1
 90
        2
 40
-0.6
 41
30.0
 62
     5
 63
     7
421
 16777215
 74
     1
 91
        4
 64
     7
 65
   257
 75
     1
175
     1
 42
1.0
 92
        0
 66
   257
 43
1.0
 76
     1
 77
     6
 78
     2
 67
     7
 79
     5
170
     0
171
     0
290
     0
174
     0
 93
       13
 44
0.0
173
     0
291
     1
 45
0.0
  0
VISUALSTYLE
  5
38
102
{ACAD_REACTORS
330
2A
102
}
102
{ACAD_XDICTIONARY
360
EC
102
}
330
2A
100
AcDbVisualStyle
  2
Linepattern
 70
    14
 71
     2
 72
     2
 73
     0
 90
        0
 40
-0.6
 41
-30.0
 62
     5
 63
     7
421
 16777215
 74
     1
 91
        4
 64
     7
 65
   257
 75
     7
175
     7
 42
1.0
 92
        8
 66
     7
 43
1.0
 76
     1
 77
     6
 78
     2
 67
     7
 79
     5
170
     0
171
     0
290
     0
174
     0
 93
        1
 44
0.0
173
     0
291
     1
 45
0.0
  0
VISUALSTYLE
  5
33
102
{ACAD_REACTORS
330
2A
102
}
102
{ACAD_XDICTIONARY
360
E2
102
}
330
2A
100
AcDbVisualStyle
  2
Realistic
 70
     8
 71
     2
 72
     2
 73
     0
 90
        0
 40
-0.6
 41
-30.0
 62
     5
 63
     7
421
 16777215
 74
     1
 91
        0
 64
     7
 65
   257
 75
     1
175
     1
 42
1.0
 92
        8
 66
     8
424
  7895160
 43
1.0
 76
     1
 77
     6
 78
     2
 67
     7
 79
     5
170
     0
171
     0
290
     0
174
     0
 93
       13
 44
0.0
173
     0
291
     0
 45
0.0
  0
VISUALSTYLE
  5
37
102
{ACAD_REACTORS
330
2A
102
}
102
{ACAD_XDICTIONARY
360
EA
102
}
330
2A
100
AcDbVisualStyle
  2
Thicken
 70
    13
 71
     2
 72
     2
 73
     0
 90
        0
 40
-0.6
 41
-30.0
 62
     5
 63
     7
421
 16777215
 74
     1
 91
        4
 64
     7
 65
   257
 75
     1
175
     1
 42
1.0
 92
       12
 66
     7
 43
1.0
 76
     1
 77
     6
 78
     2
 67
     7
 79
     5
170
     0
171
     0
290
     0
174
     0
 93
        1
 44
0.0
173
     0
291
     1
 45
0.0
  0
DICTIONARY
  5
DA
330
2F
100
AcDbDictionary
280
     1
281
     1
  3
ACAD_XREC_ROUNDTRIP
360
DB
  0
DICTIONARY
  5
DE
330
31
100
AcDbDictionary
280
     1
281
     1
  3
ACAD_XREC_ROUNDTRIP
360
DF
  0
DICTIONARY
  5
DC
330
30
100
AcDbDictionary
280
     1
281
     1
  3
ACAD_XREC_ROUNDTRIP
360
DD
  0
DICTIONARY
  5
E0
330
32
100
AcDbDictionary
280
     1
281
     1
  3
ACAD_XREC_ROUNDTRIP
360
E1
  0
DICTIONARY
  5
E8
330
36
100
AcDbDictionary
280
     1
281
     1
  3
ACAD_XREC_ROUNDTRIP
360
E9
  0
DICTIONARY
  5
F0
330
3A
100
AcDbDictionary
280
     1
281
     1
  3
ACAD_XREC_ROUNDTRIP
360
F1
  0
DICTIONARY
  5
E4
330
34
100
AcDbDictionary
280
     1
281
     1
  3
ACAD_XREC_ROUNDTRIP
360
E5
  0
DICTIONARY
  5
E6
330
35
100
AcDbDictionary
280
     1
281
     1
  3
ACAD_XREC_ROUNDTRIP
360
E7
  0
DICTIONARY
  5
EE
330
39
100
AcDbDictionary
280
     1
281
     1
  3
ACAD_XREC_ROUNDTRIP
360
EF
  0
DICTIONARY
  5
D2
330
2B
100
AcDbDictionary
280
     1
281
     1
  3
ACAD_XREC_ROUNDTRIP
360
D3
  0
DICTIONARY
  5
D4
330
2C
100
AcDbDictionary
280
     1
281
     1
  3
ACAD_XREC_ROUNDTRIP
360
D5
  0
DICTIONARY
  5
D6
330
2D
100
AcDbDictionary
280
     1
281
     1
  3
ACAD_XREC_ROUNDTRIP
360
D7
  0
DICTIONARY
  5
D8
330
2E
100
AcDbDictionary
280
     1
281
     1
  3
ACAD_XREC_ROUNDTRIP
360
D9
  0
DICTIONARY
  5
EC
330
38
100
AcDbDictionary
280
     1
281
     1
  3
ACAD_XREC_ROUNDTRIP
360
ED
  0
DICTIONARY
  5
E2
330
33
100
AcDbDictionary
280
     1
281
     1
  3
ACAD_XREC_ROUNDTRIP
360
E3
  0
DICTIONARY
  5
EA
330
37
100
AcDbDictionary
280
     1
281
     1
  3
ACAD_XREC_ROUNDTRIP
360
EB
  0
XRECORD
  5
DB
102
{ACAD_REACTORS
330
DA
102
}
330
DA
100
AcDbXrecord
280
     1
102
RTVSPropertyOp0
 70
     1
102
RTVSPropertyOp1
 70
     1
102
RTVSPropertyOp2
 70
     1
102
RTVSPropertyOp3
 70
     1
102
RTVSPropertyOp4
 70
     1
102
RTVSPropertyOp5
 70
     1
102
RTVSPropertyOp6
 70
     1
102
RTVSPropertyOp7
 70
     1
102
RTVSPropertyOp8
 70
     1
102
RTVSPropertyOp9
 70
     1
102
RTVSPropertyOp10
 70
     1
102
RTVSPropertyOp11
 70
     1
102
RTVSPropertyOp12
 70
     1
102
RTVSPropertyOp13
 70
     1
102
RTVSPropertyOp14
 70
     1
102
RTVSPropertyOp15
 70
     1
102
RTVSPropertyOp16
 70
     1
102
RTVSPropertyOp17
 70
     1
102
RTVSPropertyOp18
 70
     1
102
RTVSPropertyOp19
 70
     1
102
RTVSPropertyOp20
 70
     1
102
RTVSPropertyOp21
 70
     1
102
RTVSPropertyOp22
 70
     1
102
RTVSPropertyOp23
 70
     1
102
RTVSPropertyOp24
 70
     1
102
RTVSPropertyOp25
 70
     1
102
RTVSPropertyOp26
 70
     1
102
RTVSPropertyOp27
 70
     1
102
RTVSPropertyOp28
 70
     1
102
RTVSPropertyOp29
 70
     1
102
RTVSPropertyOp30
 70
     1
102
RTVSPropertyOp31
 70
     1
102
RTVSPropertyOp32
 70
     1
  0
XRECORD
  5
DF
102
{ACAD_REACTORS
330
DE
102
}
330
DE
100
AcDbXrecord
280
     1
102
RTVSPropertyOp0
 70
     1
102
RTVSPropertyOp1
 70
     1
102
RTVSPropertyOp2
 70
     1
102
RTVSPropertyOp3
 70
     1
102
RTVSPropertyOp4
 70
     1
102
RTVSPropertyOp5
 70
     1
102
RTVSPropertyOp6
 70
     1
102
RTVSPropertyOp7
 70
     1
102
RTVSPropertyOp8
 70
     1
102
RTVSPropertyOp9
 70
     1
102
RTVSPropertyOp10
 70
     1
102
RTVSPropertyOp11
 70
     1
102
RTVSPropertyOp12
 70
     1
102
RTVSPropertyOp13
 70
     1
102
RTVSPropertyOp14
 70
     1
102
RTVSPropertyOp15
 70
     1
102
RTVSPropertyOp16
 70
     1
102
RTVSPropertyOp17
 70
     1
102
RTVSPropertyOp18
 70
     1
102
RTVSPropertyOp19
 70
     1
102
RTVSPropertyOp20
 70
     1
102
RTVSPropertyOp21
 70
     1
102
RTVSPropertyOp22
 70
     1
102
RTVSPropertyOp23
 70
     1
102
RTVSPropertyOp24
 70
     1
102
RTVSPropertyOp25
 70
     1
102
RTVSPropertyOp26
 70
     1
102
RTVSPropertyOp27
 70
     1
102
RTVSPropertyOp28
 70
     1
102
RTVSPropertyOp29
 70
     1
102
RTVSPropertyOp30
 70
     1
102
RTVSPropertyOp31
 70
     1
102
RTVSPropertyOp32
 70
     1
  0
XRECORD
  5
DD
102
{ACAD_REACTORS
330
DC
102
}
330
DC
100
AcDbXrecord
280
     1
102
RTVSPropertyOp0
 70
     1
102
RTVSPropertyOp1
 70
     1
102
RTVSPropertyOp2
 70
     1
102
RTVSPropertyOp3
 70
     1
102
RTVSPropertyOp4
 70
     1
102
RTVSPropertyOp5
 70
     1
102
RTVSPropertyOp6
 70
     1
102
RTVSPropertyOp7
 70
     1
102
RTVSPropertyOp8
 70
     1
102
RTVSPropertyOp9
 70
     1
102
RTVSPropertyOp10
 70
     1
102
RTVSPropertyOp11
 70
     1
102
RTVSPropertyOp12
 70
     1
102
RTVSPropertyOp13
 70
     1
102
RTVSPropertyOp14
 70
     1
102
RTVSPropertyOp15
 70
     1
102
RTVSPropertyOp16
 70
     1
102
RTVSPropertyOp17
 70
     1
102
RTVSPropertyOp18
 70
     1
102
RTVSPropertyOp19
 70
     1
102
RTVSPropertyOp20
 70
     1
102
RTVSPropertyOp21
 70
     1
102
RTVSPropertyOp22
 70
     1
102
RTVSPropertyOp23
 70
     1
102
RTVSPropertyOp24
 70
     1
102
RTVSPropertyOp25
 70
     1
102
RTVSPropertyOp26
 70
     1
102
RTVSPropertyOp27
 70
     1
102
RTVSPropertyOp28
 70
     1
102
RTVSPropertyOp29
 70
     1
102
RTVSPropertyOp30
 70
     1
102
RTVSPropertyOp31
 70
     1
102
RTVSPropertyOp32
 70
     1
  0
XRECORD
  5
E1
102
{ACAD_REACTORS
330
E0
102
}
330
E0
100
AcDbXrecord
280
     1
102
RTVSPropertyOp0
 70
     1
102
RTVSPropertyOp1
 70
     1
102
RTVSPropertyOp2
 70
     1
102
RTVSPropertyOp3
 70
     1
102
RTVSPropertyOp4
 70
     1
102
RTVSPropertyOp5
 70
     1
102
RTVSPropertyOp6
 70
     1
102
RTVSPropertyOp7
 70
     1
102
RTVSPropertyOp8
 70
     1
102
RTVSPropertyOp9
 70
     1
102
RTVSPropertyOp10
 70
     1
102
RTVSPropertyOp11
 70
     1
102
RTVSPropertyOp12
 70
     1
102
RTVSPropertyOp13
 70
     1
102
RTVSPropertyOp14
 70
     1
102
RTVSPropertyOp15
 70
     1
102
RTVSPropertyOp16
 70
     1
102
RTVSPropertyOp17
 70
     1
102
RTVSPropertyOp18
 70
     1
102
RTVSPropertyOp19
 70
     1
102
RTVSPropertyOp20
 70
     1
102
RTVSPropertyOp21
 70
     1
102
RTVSPropertyOp22
 70
     1
102
RTVSPropertyOp23
 70
     1
102
RTVSPropertyOp24
 70
     1
102
RTVSPropertyOp25
 70
     1
102
RTVSPropertyOp26
 70
     1
102
RTVSPropertyOp27
 70
     1
102
RTVSPropertyOp28
 70
     1
102
RTVSPropertyOp29
 70
     1
102
RTVSPropertyOp30
 70
     1
102
RTVSPropertyOp31
 70
     1
102
RTVSPropertyOp32
 70
     1
  0
XRECORD
  5
E9
102
{ACAD_REACTORS
330
E8
102
}
330
E8
100
AcDbXrecord
280
     1
102
RTVSPropertyOp0
 70
     1
102
RTVSPropertyOp1
 70
     1
102
RTVSPropertyOp2
 70
     1
102
RTVSPropertyOp3
 70
     1
102
RTVSPropertyOp4
 70
     1
102
RTVSPropertyOp5
 70
     1
102
RTVSPropertyOp6
 70
     1
102
RTVSPropertyOp7
 70
     1
102
RTVSPropertyOp8
 70
     1
102
RTVSPropertyOp9
 70
     1
102
RTVSPropertyOp10
 70
     1
102
RTVSPropertyOp11
 70
     1
102
RTVSPropertyOp12
 70
     1
102
RTVSPropertyOp13
 70
     1
102
RTVSPropertyOp14
 70
     1
102
RTVSPropertyOp15
 70
     1
102
RTVSPropertyOp16
 70
     1
102
RTVSPropertyOp17
 70
     1
102
RTVSPropertyOp18
 70
     1
102
RTVSPropertyOp19
 70
     1
102
RTVSPropertyOp20
 70
     1
102
RTVSPropertyOp21
 70
     1
102
RTVSPropertyOp22
 70
     1
102
RTVSPropertyOp23
 70
     1
102
RTVSPropertyOp24
 70
     1
102
RTVSPropertyOp25
 70
     1
102
RTVSPropertyOp26
 70
     1
102
RTVSPropertyOp27
 70
     1
102
RTVSPropertyOp28
 70
     1
102
RTVSPropertyOp29
 70
     1
102
RTVSPropertyOp30
 70
     1
102
RTVSPropertyOp31
 70
     1
102
RTVSPropertyOp32
 70
     1
  0
XRECORD
  5
F1
102
{ACAD_REACTORS
330
F0
102
}
330
F0
100
AcDbXrecord
280
     1
102
RTVSPropertyOp0
 70
     1
102
RTVSPropertyOp1
 70
     1
102
RTVSPropertyOp2
 70
     1
102
RTVSPropertyOp3
 70
     1
102
RTVSPropertyOp4
 70
     1
102
RTVSPropertyOp5
 70
     1
102
RTVSPropertyOp6
 70
     1
102
RTVSPropertyOp7
 70
     1
102
RTVSPropertyOp8
 70
     1
102
RTVSPropertyOp9
 70
     1
102
RTVSPropertyOp10
 70
     1
102
RTVSPropertyOp11
 70
     1
102
RTVSPropertyOp12
 70
     1
102
RTVSPropertyOp13
 70
     1
102
RTVSPropertyOp14
 70
     1
102
RTVSPropertyOp15
 70
     1
102
RTVSPropertyOp16
 70
     1
102
RTVSPropertyOp17
 70
     1
102
RTVSPropertyOp18
 70
     1
102
RTVSPropertyOp19
 70
     1
102
RTVSPropertyOp20
 70
     1
102
RTVSPropertyOp21
 70
     1
102
RTVSPropertyOp22
 70
     1
102
RTVSPropertyOp23
 70
     1
102
RTVSPropertyOp24
 70
     1
102
RTVSPropertyOp25
 70
     1
102
RTVSPropertyOp26
 70
     1
102
RTVSPropertyOp27
 70
     1
102
RTVSPropertyOp28
 70
     1
102
RTVSPropertyOp29
 70
     1
102
RTVSPropertyOp30
 70
     1
102
RTVSPropertyOp31
 70
     1
102
RTVSPropertyOp32
 70
     1
  0
XRECORD
  5
E5
102
{ACAD_REACTORS
330
E4
102
}
330
E4
100
AcDbXrecord
280
     1
102
RTVSPropertyOp0
 70
     1
102
RTVSPropertyOp1
 70
     1
102
RTVSPropertyOp2
 70
     1
102
RTVSPropertyOp3
 70
     1
102
RTVSPropertyOp4
 70
     1
102
RTVSPropertyOp5
 70
     1
102
RTVSPropertyOp6
 70
     1
102
RTVSPropertyOp7
 70
     1
102
RTVSPropertyOp8
 70
     1
102
RTVSPropertyOp9
 70
     1
102
RTVSPropertyOp10
 70
     1
102
RTVSPropertyOp11
 70
     1
102
RTVSPropertyOp12
 70
     1
102
RTVSPropertyOp13
 70
     1
102
RTVSPropertyOp14
 70
     1
102
RTVSPropertyOp15
 70
     1
102
RTVSPropertyOp16
 70
     1
102
RTVSPropertyOp17
 70
     1
102
RTVSPropertyOp18
 70
     1
102
RTVSPropertyOp19
 70
     1
102
RTVSPropertyOp20
 70
     1
102
RTVSPropertyOp21
 70
     1
102
RTVSPropertyOp22
 70
     1
102
RTVSPropertyOp23
 70
     1
102
RTVSPropertyOp24
 70
     1
102
RTVSPropertyOp25
 70
     1
102
RTVSPropertyOp26
 70
     1
102
RTVSPropertyOp27
 70
     1
102
RTVSPropertyOp28
 70
     1
102
RTVSPropertyOp29
 70
     1
102
RTVSPropertyOp30
 70
     1
102
RTVSPropertyOp31
 70
     1
102
RTVSPropertyOp32
 70
     1
  0
XRECORD
  5
E7
102
{ACAD_REACTORS
330
E6
102
}
330
E6
100
AcDbXrecord
280
     1
102
RTVSPropertyOp0
 70
     1
102
RTVSPropertyOp1
 70
     1
102
RTVSPropertyOp2
 70
     1
102
RTVSPropertyOp3
 70
     1
102
RTVSPropertyOp4
 70
     1
102
RTVSPropertyOp5
 70
     1
102
RTVSPropertyOp6
 70
     1
102
RTVSPropertyOp7
 70
     1
102
RTVSPropertyOp8
 70
     1
102
RTVSPropertyOp9
 70
     1
102
RTVSPropertyOp10
 70
     1
102
RTVSPropertyOp11
 70
     1
102
RTVSPropertyOp12
 70
     1
102
RTVSPropertyOp13
 70
     1
102
RTVSPropertyOp14
 70
     1
102
RTVSPropertyOp15
 70
     1
102
RTVSPropertyOp16
 70
     1
102
RTVSPropertyOp17
 70
     1
102
RTVSPropertyOp18
 70
     1
102
RTVSPropertyOp19
 70
     1
102
RTVSPropertyOp20
 70
     1
102
RTVSPropertyOp21
 70
     1
102
RTVSPropertyOp22
 70
     1
102
RTVSPropertyOp23
 70
     1
102
RTVSPropertyOp24
 70
     1
102
RTVSPropertyOp25
 70
     1
102
RTVSPropertyOp26
 70
     1
102
RTVSPropertyOp27
 70
     1
102
RTVSPropertyOp28
 70
     1
102
RTVSPropertyOp29
 70
     1
102
RTVSPropertyOp30
 70
     1
102
RTVSPropertyOp31
 70
     1
102
RTVSPropertyOp32
 70
     1
  0
XRECORD
  5
EF
102
{ACAD_REACTORS
330
EE
102
}
330
EE
100
AcDbXrecord
280
     1
102
RTVSPropertyOp0
 70
     1
102
RTVSPropertyOp1
 70
     1
102
RTVSPropertyOp2
 70
     1
102
RTVSPropertyOp3
 70
     1
102
RTVSPropertyOp4
 70
     1
102
RTVSPropertyOp5
 70
     1
102
RTVSPropertyOp6
 70
     1
102
RTVSPropertyOp7
 70
     1
102
RTVSPropertyOp8
 70
     1
102
RTVSPropertyOp9
 70
     1
102
RTVSPropertyOp10
 70
     1
102
RTVSPropertyOp11
 70
     1
102
RTVSPropertyOp12
 70
     1
102
RTVSPropertyOp13
 70
     1
102
RTVSPropertyOp14
 70
     1
102
RTVSPropertyOp15
 70
     1
102
RTVSPropertyOp16
 70
     1
102
RTVSPropertyOp17
 70
     1
102
RTVSPropertyOp18
 70
     1
102
RTVSPropertyOp19
 70
     1
102
RTVSPropertyOp20
 70
     1
102
RTVSPropertyOp21
 70
     1
102
RTVSPropertyOp22
 70
     1
102
RTVSPropertyOp23
 70
     1
102
RTVSPropertyOp24
 70
     1
102
RTVSPropertyOp25
 70
     1
102
RTVSPropertyOp26
 70
     1
102
RTVSPropertyOp27
 70
     1
102
RTVSPropertyOp28
 70
     1
102
RTVSPropertyOp29
 70
     1
102
RTVSPropertyOp30
 70
     1
102
RTVSPropertyOp31
 70
     1
102
RTVSPropertyOp32
 70
     1
  0
XRECORD
  5
D3
102
{ACAD_REACTORS
330
D2
102
}
330
D2
100
AcDbXrecord
280
     1
102
RTVSPropertyOp0
 70
     1
102
RTVSPropertyOp1
 70
     1
102
RTVSPropertyOp2
 70
     1
102
RTVSPropertyOp3
 70
     1
102
RTVSPropertyOp4
 70
     1
102
RTVSPropertyOp5
 70
     1
102
RTVSPropertyOp6
 70
     1
102
RTVSPropertyOp7
 70
     1
102
RTVSPropertyOp8
 70
     1
102
RTVSPropertyOp9
 70
     1
102
RTVSPropertyOp10
 70
     1
102
RTVSPropertyOp11
 70
     1
102
RTVSPropertyOp12
 70
     1
102
RTVSPropertyOp13
 70
     1
102
RTVSPropertyOp14
 70
     1
102
RTVSPropertyOp15
 70
     1
102
RTVSPropertyOp16
 70
     1
102
RTVSPropertyOp17
 70
     1
102
RTVSPropertyOp18
 70
     1
102
RTVSPropertyOp19
 70
     1
102
RTVSPropertyOp20
 70
     1
102
RTVSPropertyOp21
 70
     1
102
RTVSPropertyOp22
 70
     1
102
RTVSPropertyOp23
 70
     1
102
RTVSPropertyOp24
 70
     1
102
RTVSPropertyOp25
 70
     1
102
RTVSPropertyOp26
 70
     1
102
RTVSPropertyOp27
 70
     1
102
RTVSPropertyOp28
 70
     1
102
RTVSPropertyOp29
 70
     1
102
RTVSPropertyOp30
 70
     1
102
RTVSPropertyOp31
 70
     1
102
RTVSPropertyOp32
 70
     1
  0
XRECORD
  5
D5
102
{ACAD_REACTORS
330
D4
102
}
330
D4
100
AcDbXrecord
280
     1
102
RTVSPropertyOp0
 70
     1
102
RTVSPropertyOp1
 70
     1
102
RTVSPropertyOp2
 70
     1
102
RTVSPropertyOp3
 70
     1
102
RTVSPropertyOp4
 70
     1
102
RTVSPropertyOp5
 70
     1
102
RTVSPropertyOp6
 70
     1
102
RTVSPropertyOp7
 70
     1
102
RTVSPropertyOp8
 70
     1
102
RTVSPropertyOp9
 70
     1
102
RTVSPropertyOp10
 70
     1
102
RTVSPropertyOp11
 70
     1
102
RTVSPropertyOp12
 70
     1
102
RTVSPropertyOp13
 70
     1
102
RTVSPropertyOp14
 70
     1
102
RTVSPropertyOp15
 70
     1
102
RTVSPropertyOp16
 70
     1
102
RTVSPropertyOp17
 70
     1
102
RTVSPropertyOp18
 70
     1
102
RTVSPropertyOp19
 70
     1
102
RTVSPropertyOp20
 70
     1
102
RTVSPropertyOp21
 70
     1
102
RTVSPropertyOp22
 70
     1
102
RTVSPropertyOp23
 70
     1
102
RTVSPropertyOp24
 70
     1
102
RTVSPropertyOp25
 70
     1
102
RTVSPropertyOp26
 70
     1
102
RTVSPropertyOp27
 70
     1
102
RTVSPropertyOp28
 70
     1
102
RTVSPropertyOp29
 70
     1
102
RTVSPropertyOp30
 70
     1
102
RTVSPropertyOp31
 70
     1
102
RTVSPropertyOp32
 70
     1
  0
XRECORD
  5
D7
102
{ACAD_REACTORS
330
D6
102
}
330
D6
100
AcDbXrecord
280
     1
102
RTVSPropertyOp0
 70
     1
102
RTVSPropertyOp1
 70
     1
102
RTVSPropertyOp2
 70
     1
102
RTVSPropertyOp3
 70
     1
102
RTVSPropertyOp4
 70
     1
102
RTVSPropertyOp5
 70
     1
102
RTVSPropertyOp6
 70
     1
102
RTVSPropertyOp7
 70
     1
102
RTVSPropertyOp8
 70
     1
102
RTVSPropertyOp9
 70
     1
102
RTVSPropertyOp10
 70
     1
102
RTVSPropertyOp11
 70
     1
102
RTVSPropertyOp12
 70
     1
102
RTVSPropertyOp13
 70
     1
102
RTVSPropertyOp14
 70
     1
102
RTVSPropertyOp15
 70
     1
102
RTVSPropertyOp16
 70
     1
102
RTVSPropertyOp17
 70
     1
102
RTVSPropertyOp18
 70
     1
102
RTVSPropertyOp19
 70
     1
102
RTVSPropertyOp20
 70
     1
102
RTVSPropertyOp21
 70
     1
102
RTVSPropertyOp22
 70
     1
102
RTVSPropertyOp23
 70
     1
102
RTVSPropertyOp24
 70
     1
102
RTVSPropertyOp25
 70
     1
102
RTVSPropertyOp26
 70
     1
102
RTVSPropertyOp27
 70
     1
102
RTVSPropertyOp28
 70
     1
102
RTVSPropertyOp29
 70
     1
102
RTVSPropertyOp30
 70
     1
102
RTVSPropertyOp31
 70
     1
102
RTVSPropertyOp32
 70
     1
  0
XRECORD
  5
D9
102
{ACAD_REACTORS
330
D8
102
}
330
D8
100
AcDbXrecord
280
     1
102
RTVSPropertyOp0
 70
     1
102
RTVSPropertyOp1
 70
     1
102
RTVSPropertyOp2
 70
     1
102
RTVSPropertyOp3
 70
     1
102
RTVSPropertyOp4
 70
     1
102
RTVSPropertyOp5
 70
     1
102
RTVSPropertyOp6
 70
     1
102
RTVSPropertyOp7
 70
     1
102
RTVSPropertyOp8
 70
     1
102
RTVSPropertyOp9
 70
     1
102
RTVSPropertyOp10
 70
     1
102
RTVSPropertyOp11
 70
     1
102
RTVSPropertyOp12
 70
     1
102
RTVSPropertyOp13
 70
     1
102
RTVSPropertyOp14
 70
     1
102
RTVSPropertyOp15
 70
     1
102
RTVSPropertyOp16
 70
     1
102
RTVSPropertyOp17
 70
     1
102
RTVSPropertyOp18
 70
     1
102
RTVSPropertyOp19
 70
     1
102
RTVSPropertyOp20
 70
     1
102
RTVSPropertyOp21
 70
     1
102
RTVSPropertyOp22
 70
     1
102
RTVSPropertyOp23
 70
     1
102
RTVSPropertyOp24
 70
     1
102
RTVSPropertyOp25
 70
     1
102
RTVSPropertyOp26
 70
     1
102
RTVSPropertyOp27
 70
     1
102
RTVSPropertyOp28
 70
     1
102
RTVSPropertyOp29
 70
     1
102
RTVSPropertyOp30
 70
     1
102
RTVSPropertyOp31
 70
     1
102
RTVSPropertyOp32
 70
     1
  0
XRECORD
  5
ED
102
{ACAD_REACTORS
330
EC
102
}
330
EC
100
AcDbXrecord
280
     1
102
RTVSPropertyOp0
 70
     1
102
RTVSPropertyOp1
 70
     1
102
RTVSPropertyOp2
 70
     1
102
RTVSPropertyOp3
 70
     1
102
RTVSPropertyOp4
 70
     1
102
RTVSPropertyOp5
 70
     1
102
RTVSPropertyOp6
 70
     1
102
RTVSPropertyOp7
 70
     1
102
RTVSPropertyOp8
 70
     1
102
RTVSPropertyOp9
 70
     1
102
RTVSPropertyOp10
 70
     1
102
RTVSPropertyOp11
 70
     1
102
RTVSPropertyOp12
 70
     1
102
RTVSPropertyOp13
 70
     1
102
RTVSPropertyOp14
 70
     1
102
RTVSPropertyOp15
 70
     1
102
RTVSPropertyOp16
 70
     1
102
RTVSPropertyOp17
 70
     1
102
RTVSPropertyOp18
 70
     1
102
RTVSPropertyOp19
 70
     1
102
RTVSPropertyOp20
 70
     1
102
RTVSPropertyOp21
 70
     1
102
RTVSPropertyOp22
 70
     1
102
RTVSPropertyOp23
 70
     1
102
RTVSPropertyOp24
 70
     1
102
RTVSPropertyOp25
 70
     1
102
RTVSPropertyOp26
 70
     1
102
RTVSPropertyOp27
 70
     1
102
RTVSPropertyOp28
 70
     1
102
RTVSPropertyOp29
 70
     1
102
RTVSPropertyOp30
 70
     1
102
RTVSPropertyOp31
 70
     1
102
RTVSPropertyOp32
 70
     1
  0
XRECORD
  5
E3
102
{ACAD_REACTORS
330
E2
102
}
330
E2
100
AcDbXrecord
280
     1
102
RTVSPropertyOp0
 70
     1
102
RTVSPropertyOp1
 70
     1
102
RTVSPropertyOp2
 70
     1
102
RTVSPropertyOp3
 70
     1
102
RTVSPropertyOp4
 70
     1
102
RTVSPropertyOp5
 70
     1
102
RTVSPropertyOp6
 70
     1
102
RTVSPropertyOp7
 70
     1
102
RTVSPropertyOp8
 70
     1
102
RTVSPropertyOp9
 70
     1
102
RTVSPropertyOp10
 70
     1
102
RTVSPropertyOp11
 70
     1
102
RTVSPropertyOp12
 70
     1
102
RTVSPropertyOp13
 70
     1
102
RTVSPropertyOp14
 70
     1
102
RTVSPropertyOp15
 70
     1
102
RTVSPropertyOp16
 70
     1
102
RTVSPropertyOp17
 70
     1
102
RTVSPropertyOp18
 70
     1
102
RTVSPropertyOp19
 70
     1
102
RTVSPropertyOp20
 70
     1
102
RTVSPropertyOp21
 70
     1
102
RTVSPropertyOp22
 70
     1
102
RTVSPropertyOp23
 70
     1
102
RTVSPropertyOp24
 70
     1
102
RTVSPropertyOp25
 70
     1
102
RTVSPropertyOp26
 70
     1
102
RTVSPropertyOp27
 70
     1
102
RTVSPropertyOp28
 70
     1
102
RTVSPropertyOp29
 70
     1
102
RTVSPropertyOp30
 70
     1
102
RTVSPropertyOp31
 70
     1
102
RTVSPropertyOp32
 70
     1
  0
XRECORD
  5
EB
102
{ACAD_REACTORS
330
EA
102
}
330
EA
100
AcDbXrecord
280
     1
102
RTVSPropertyOp0
 70
     1
102
RTVSPropertyOp1
 70
     1
102
RTVSPropertyOp2
 70
     1
102
RTVSPropertyOp3
 70
     1
102
RTVSPropertyOp4
 70
     1
102
RTVSPropertyOp5
 70
     1
102
RTVSPropertyOp6
 70
     1
102
RTVSPropertyOp7
 70
     1
102
RTVSPropertyOp8
 70
     1
102
RTVSPropertyOp9
 70
     1
102
RTVSPropertyOp10
 70
     1
102
RTVSPropertyOp11
 70
     1
102
RTVSPropertyOp12
 70
     1
102
RTVSPropertyOp13
 70
     1
102
RTVSPropertyOp14
 70
     1
102
RTVSPropertyOp15
 70
     1
102
RTVSPropertyOp16
 70
     1
102
RTVSPropertyOp17
 70
     1
102
RTVSPropertyOp18
 70
     1
102
RTVSPropertyOp19
 70
     1
102
RTVSPropertyOp20
 70
     1
102
RTVSPropertyOp21
 70
     1
102
RTVSPropertyOp22
 70
     1
102
RTVSPropertyOp23
 70
     1
102
RTVSPropertyOp24
 70
     1
102
RTVSPropertyOp25
 70
     1
102
RTVSPropertyOp26
 70
     1
102
RTVSPropertyOp27
 70
     1
102
RTVSPropertyOp28
 70
     1
102
RTVSPropertyOp29
 70
     1
102
RTVSPropertyOp30
 70
     1
102
RTVSPropertyOp31
 70
     1
102
RTVSPropertyOp32
 70
     1
  0
ENDSEC
  0
EOF
