  0
SECTION
  2
HEADER
  9
$ACADVER
  1
AC1024
  9
$ACADMAINTVER
 70
     6
  9
$DWGCODEPAGE
  3
ANSI_1252
  9
$INSBASE
 10
0.0
 20
0.0
 30
0.0
  9
$EXTMIN
 10
1.000000000000000E+20
 20
1.000000000000000E+20
 30
1.000000000000000E+20
  9
$EXTMAX
 10
-1.000000000000000E+20
 20
-1.000000000000000E+20
 30
-1.000000000000000E+20
  9
$LIMMIN
 10
0.0
 20
0.0
  9
$LIMMAX
 10
12.0
 20
9.0
  9
$ORTHOMODE
 70
     0
  9
$REGENMODE
 70
     1
  9
$FILLMODE
 70
     1
  9
$QTEXTMODE
 70
     0
  9
$MIRRTEXT
 70
     1
  9
$LTSCALE
 40
1.0
  9
$ATTMODE
 70
     1
  9
$TEXTSIZE
 40
0.2
  9
$TRACEWID
 40
0.05
  9
$TEXTSTYLE
  7
Standard
  9
$CLAYER
  8
0
  9
$CELTYPE
  6
ByLayer
  9
$CECOLOR
 62
   256
  9
$CELTSCALE
 40
1.0
  9
$DISPSILH
 70
     0
  9
$DIMSCALE
 40
1.0
  9
$DIMASZ
 40
0.18
  9
$DIMEXO
 40
0.0625
  9
$DIMDLI
 40
0.38
  9
$DIMRND
 40
0.0
  9
$DIMDLE
 40
0.0
  9
$DIMEXE
 40
0.18
  9
$DIMTP
 40
0.0
  9
$DIMTM
 40
0.0
  9
$DIMTXT
 40
0.18
  9
$DIMCEN
 40
0.09
  9
$DIMTSZ
 40
0.0
  9
$DIMTOL
 70
     0
  9
$DIMLIM
 70
     0
  9
$DIMTIH
 70
     1
  9
$DIMTOH
 70
     1
  9
$DIMSE1
 70
     0
  9
$DIMSE2
 70
     0
  9
$DIMTAD
 70
     0
  9
$DIMZIN
 70
     0
  9
$DIMBLK
  1

  9
$DIMASO
 70
     1
  9
$DIMSHO
 70
     1
  9
$DIMPOST
  1

  9
$DIMAPOST
  1

  9
$DIMALT
 70
     0
  9
$DIMALTD
 70
     2
  9
$DIMALTF
 40
25.4
  9
$DIMLFAC
 40
1.0
  9
$DIMTOFL
 70
     0
  9
$DIMTVP
 40
0.0
  9
$DIMTIX
 70
     0
  9
$DIMSOXD
 70
     0
  9
$DIMSAH
 70
     0
  9
$DIMBLK1
  1

  9
$DIMBLK2
  1

  9
$DIMSTYLE
  2
Standard
  9
$DIMCLRD
 70
     0
  9
$DIMCLRE
 70
     0
  9
$DIMCLRT
 70
     0
  9
$DIMTFAC
 40
1.0
  9
$DIMGAP
 40
0.09
  9
$DIMJUST
 70
     0
  9
$DIMSD1
 70
     0
  9
$DIMSD2
 70
     0
  9
$DIMTOLJ
 70
     1
  9
$DIMTZIN
 70
     0
  9
$DIMALTZ
 70
     0
  9
$DIMALTTZ
 70
     0
  9
$DIMUPT
 70
     0
  9
$DIMDEC
 70
     4
  9
$DIMTDEC
 70
     4
  9
$DIMALTU
 70
     2
  9
$DIMALTTD
 70
     2
  9
$DIMTXSTY
  7
Standard
  9
$DIMAUNIT
 70
     0
  9
$DIMADEC
 70
     0
  9
$DIMALTRND
 40
0.0
  9
$DIMAZIN
 70
     0
  9
$DIMDSEP
 70
    46
  9
$DIMATFIT
 70
     3
  9
$DIMFRAC
 70
     0
  9
$DIMLDRBLK
  1

  9
$DIMLUNIT
 70
     2
  9
$DIMLWD
 70
    -2
  9
$DIMLWE
 70
    -2
  9
$DIMTMOVE
 70
     0
  9
$DIMFXL
 40
1.0
  9
$DIMFXLON
 70
     0
  9
$DIMJOGANG
 40
0.7853981633974483
  9
$DIMTFILL
 70
     0
  9
$DIMTFILLCLR
 70
     0
  9
$DIMARCSYM
 70
     0
  9
$DIMLTYPE
  6

  9
$DIMLTEX1
  6

  9
$DIMLTEX2
  6

  9
$DIMTXTDIRECTION
 70
     0
  9
$LUNITS
 70
     2
  9
$LUPREC
 70
     4
  9
$SKETCHINC
 40
0.1
  9
$FILLETRAD
 40
0.5
  9
$AUNITS
 70
     0
  9
$AUPREC
 70
     0
  9
$MENU
  1
.
  9
$ELEVATION
 40
0.0
  9
$PELEVATION
 40
0.0
  9
$THICKNESS
 40
0.0
  9
$LIMCHECK
 70
     0
  9
$CHAMFERA
 40
0.5
  9
$CHAMFERB
 40
0.5
  9
$CHAMFERC
 40
1.0
  9
$CHAMFERD
 40
0.0
  9
$SKPOLY
 70
     0
  9
$TDCREATE
 40
2458284.453240011
  9
$TDUCREATE
 40
2458284.619906678
  9
$TDUPDATE
 40
2458284.453240185
  9
$TDUUPDATE
 40
2458284.619906852
  9
$TDINDWG
 40
0.0000000116
  9
$TDUSRTIMER
 40
0.0000000116
  9
$USRTIMER
 70
     1
  9
$ANGBASE
 50
0.0
  9
$ANGDIR
 70
     0
  9
$PDMODE
 70
     0
  9
$PDSIZE
 40
0.0
  9
$PLINEWID
 40
0.0
  9
$SPLFRAME
 70
     0
  9
$SPLINETYPE
 70
     6
  9
$SPLINESEGS
 70
     8
  9
$HANDSEED
  5
B1
  9
$SURFTAB1
 70
     6
  9
$SURFTAB2
 70
     6
  9
$SURFTYPE
 70
     6
  9
$SURFU
 70
     6
  9
$SURFV
 70
     6
  9
$UCSBASE
  2

  9
$UCSNAME
  2

  9
$UCSORG
 10
0.0
 20
0.0
 30
0.0
  9
$UCSXDIR
 10
1.0
 20
0.0
 30
0.0
  9
$UCSYDIR
 10
0.0
 20
1.0
 30
0.0
  9
$UCSORTHOREF
  2

  9
$UCSORTHOVIEW
 70
     0
  9
$UCSORGTOP
 10
0.0
 20
0.0
 30
0.0
  9
$UCSORGBOTTOM
 10
0.0
 20
0.0
 30
0.0
  9
$UCSORGLEFT
 10
0.0
 20
0.0
 30
0.0
  9
$UCSORGRIGHT
 10
0.0
 20
0.0
 30
0.0
  9
$UCSORGFRONT
 10
0.0
 20
0.0
 30
0.0
  9
$UCSORGBACK
 10
0.0
 20
0.0
 30
0.0
  9
$PUCSBASE
  2

  9
$PUCSNAME
  2

  9
$PUCSORG
 10
0.0
 20
0.0
 30
0.0
  9
$PUCSXDIR
 10
1.0
 20
0.0
 30
0.0
  9
$PUCSYDIR
 10
0.0
 20
1.0
 30
0.0
  9
$PUCSORTHOREF
  2

  9
$PUCSORTHOVIEW
 70
     0
  9
$PUCSORGTOP
 10
0.0
 20
0.0
 30
0.0
  9
$PUCSORGBOTTOM
 10
0.0
 20
0.0
 30
0.0
  9
$PUCSORGLEFT
 10
0.0
 20
0.0
 30
0.0
  9
$PUCSORGRIGHT
 10
0.0
 20
0.0
 30
0.0
  9
$PUCSORGFRONT
 10
0.0
 20
0.0
 30
0.0
  9
$PUCSORGBACK
 10
0.0
 20
0.0
 30
0.0
  9
$USERI1
 70
     0
  9
$USERI2
 70
     0
  9
$USERI3
 70
     0
  9
$USERI4
 70
     0
  9
$USERI5
 70
     0
  9
$USERR1
 40
0.0
  9
$USERR2
 40
0.0
  9
$USERR3
 40
0.0
  9
$USERR4
 40
0.0
  9
$USERR5
 40
0.0
  9
$WORLDVIEW
 70
     1
  9
$SHADEDGE
 70
     3
  9
$SHADEDIF
 70
    70
  9
$TILEMODE
 70
     1
  9
$MAXACTVP
 70
    64
  9
$PINSBASE
 10
0.0
 20
0.0
 30
0.0
  9
$PLIMCHECK
 70
     0
  9
$PEXTMIN
 10
1.000000000000000E+20
 20
1.000000000000000E+20
 30
1.000000000000000E+20
  9
$PEXTMAX
 10
-1.000000000000000E+20
 20
-1.000000000000000E+20
 30
-1.000000000000000E+20
  9
$PLIMMIN
 10
0.0
 20
0.0
  9
$PLIMMAX
 10
12.0
 20
9.0
  9
$UNITMODE
 70
     0
  9
$VISRETAIN
 70
     1
  9
$PLINEGEN
 70
     0
  9
$PSLTSCALE
 70
     1
  9
$TREEDEPTH
 70
  3020
  9
$CMLSTYLE
  2
Standard
  9
$CMLJUST
 70
     0
  9
$CMLSCALE
 40
1.0
  9
$PROXYGRAPHICS
 70
     1
  9
$MEASUREMENT
 70
     0
  9
$CELWEIGHT
370
    -1
  9
$ENDCAPS
280
     0
  9
$JOINSTYLE
280
     0
  9
$LWDISPLAY
290
     1
  9
$INSUNITS
 70
     1
  9
$HYPERLINKBASE
  1

  9
$STYLESHEET
  1

  9
$XEDIT
290
     1
  9
$CEPSNTYPE
380
     0
  9
$PSTYLEMODE
290
     1
  9
$FINGERPRINTGUID
  2
{CE59AA0E-BC8A-4EEB-8514-F3BD55A79CE1}
  9
$VERSIONGUID
  2
{FAEB1C32-E019-11D5-929B-00C0DF256EC4}
  9
$EXTNAMES
290
     1
  9
$PSVPSCALE
 40
0.0
  9
$OLESTARTUP
290
     0
  9
$SORTENTS
280
   127
  9
$INDEXCTL
280
     0
  9
$HIDETEXT
280
     1
  9
$XCLIPFRAME
280
     2
  9
$HALOGAP
280
     0
  9
$OBSCOLOR
 70
   257
  9
$OBSLTYPE
280
     0
  9
$INTERSECTIONDISPLAY
280
     0
  9
$INTERSECTIONCOLOR
 70
   257
  9
$DIMASSOC
280
     2
  9
$PROJECTNAME
  1

  9
$CAMERADISPLAY
290
     0
  9
$LENSLENGTH
 40
50.0
  9
$CAMERAHEIGHT
 40
0.0
  9
$STEPSPERSEC
 40
2.0
  9
$STEPSIZE
 40
6.0
  9
$3DDWFPREC
 40
2.0
  9
$PSOLWIDTH
 40
0.25
  9
$PSOLHEIGHT
 40
4.0
  9
$LOFTANG1
 40
1.570796326794897
  9
$LOFTANG2
 40
1.570796326794897
  9
$LOFTMAG1
 40
0.0
  9
$LOFTMAG2
 40
0.0
  9
$LOFTPARAM
 70
     7
  9
$LOFTNORMALS
280
     1
  9
$LATITUDE
 40
37.795
  9
$LONGITUDE
 40
-122.394
  9
$NORTHDIRECTION
 40
0.0
  9
$TIMEZONE
 70
 -8000
  9
$LIGHTGLYPHDISPLAY
280
     1
  9
$TILEMODELIGHTSYNCH
280
     1
  9
$CMATERIAL
347
3C
  9
$SOLIDHIST
280
     1
  9
$SHOWHIST
280
     1
  9
$DWFFRAME
280
     2
  9
$DGNFRAME
280
     2
  9
$REALWORLDSCALE
290
     1
  9
$INTERFERECOLOR
 62
   256
  9
$CSHADOW
280
     0
  9
$SHADOWPLANELOCATION
 40
0.0
  0
ENDSEC
  0
SECTION
  2
CLASSES
  0
CLASS
  1
ACDBDICTIONARYWDFLT
  2
AcDbDictionaryWithDefault
  3
ObjectDBX Classes
 90
        0
 91
        4
280
     0
281
     0
  0
CLASS
  1
VISUALSTYLE
  2
AcDbVisualStyle
  3
ObjectDBX Classes
 90
     4095
 91
        4
280
     0
281
     0
  0
CLASS
  1
MATERIAL
  2
AcDbMaterial
  3
ObjectDBX Classes
 90
     1153
 91
        4
280
     0
281
     0
  0
CLASS
  1
SUN
  2
AcDbSun
  3
SCENEOE
 90
     1024
 91
        4
280
     0
281
     0
  0
ENDSEC
  0
SECTION
  2
TABLES
  0
TABLE
  2
VPORT
  5
8
330
0
100
AcDbSymbolTable
 70
     1
  0
VPORT
  5
29
330
8
100
AcDbSymbolTableRecord
100
AcDbViewportTableRecord
  2
*Active
 70
     0
 10
0.0
 20
0.0
 11
1.0
 21
1.0
 12
0.0
 22
0.0
 13
0.0
 23
0.0
 14
0.5
 24
0.5
 15
0.5
 25
0.5
 16
0.0
 26
0.0
 36
1.0
 17
3.0
 27
3.0
 37
0.0
 40
6.0
 41
1.0
 42
50.0
 43
0.0
 44
0.0
 50
0.0
 51
0.0
 71
     0
 72
   100
 73
     1
 74
     3
 75
     0
 76
     0
 77
     0
 78
     0
281
     0
 65
     1
110
0.0
120
0.0
130
0.0
111
1.0
121
0.0
131
0.0
112
0.0
122
1.0
132
0.0
 79
     0
146
0.0
 60
     3
 61
     5
292
     1
282
     1
141
0.0
142
0.0
 63
   250
361
3F
  0
ENDTAB
  0
TABLE
  2
LTYPE
  5
5
330
0
100
AcDbSymbolTable
 70
     1
  0
LTYPE
  5
14
330
5
100
AcDbSymbolTableRecord
100
AcDbLinetypeTableRecord
  2
ByBlock
 70
     0
  3

 72
    65
 73
     0
 40
0.0
  0
LTYPE
  5
15
330
5
100
AcDbSymbolTableRecord
100
AcDbLinetypeTableRecord
  2
ByLayer
 70
     0
  3

 72
    65
 73
     0
 40
0.0
  0
LTYPE
  5
16
330
5
100
AcDbSymbolTableRecord
100
AcDbLinetypeTableRecord
  2
Continuous
 70
     0
  3
Solid line
 72
    65
 73
     0
 40
0.0
  0
ENDTAB
  0
TABLE
  2
LAYER
  5
2
330
0
100
AcDbSymbolTable
 70
     2
  0
LAYER
  5
10
330
2
100
AcDbSymbolTableRecord
100
AcDbLayerTableRecord
  2
0
 70
     0
 62
     7
  6
Continuous
370
    -3
390
F
347
3E
  0
LAYER
  5
40
330
2
100
AcDbSymbolTableRecord
100
AcDbLayerTableRecord
  2
Calque 1
 70
     0
 62
     7
  6
Continuous
370
    -3
390
F
347
3E
  0
ENDTAB
  0
TABLE
  2
STYLE
  5
3
330
0
100
AcDbSymbolTable
 70
     1
  0
STYLE
  5
11
330
3
100
AcDbSymbolTableRecord
100
AcDbTextStyleTableRecord
  2
Standard
 70
     0
 40
0.0
 41
1.0
 50
0.0
 71
     0
 42
0.2
  3
txt
  4

  0
ENDTAB
  0
TABLE
  2
VIEW
  5
6
330
0
100
AcDbSymbolTable
 70
     0
  0
ENDTAB
  0
TABLE
  2
UCS
  5
7
330
0
100
AcDbSymbolTable
 70
     0
  0
ENDTAB
  0
TABLE
  2
APPID
  5
9
330
0
100
AcDbSymbolTable
 70
     1
  0
APPID
  5
12
330
9
100
AcDbSymbolTableRecord
100
AcDbRegAppTableRecord
  2
ACAD
 70
     0
  0
ENDTAB
  0
TABLE
  2
DIMSTYLE
  5
A
330
0
100
AcDbSymbolTable
 70
     1
100
AcDbDimStyleTable
  0
DIMSTYLE
105
27
330
A
100
AcDbSymbolTableRecord
100
AcDbDimStyleTableRecord
  2
Standard
 70
     0
178
     0
340
11
  0
ENDTAB
  0
TABLE
  2
BLOCK_RECORD
  5
1
330
0
100
AcDbSymbolTable
 70
     2
  0
BLOCK_RECORD
  5
1F
330
1
100
AcDbSymbolTableRecord
100
AcDbBlockTableRecord
  2
*Model_Space
340
22
 70
     0
280
     1
281
     0
  0
BLOCK_RECORD
  5
1B
330
1
100
AcDbSymbolTableRecord
100
AcDbBlockTableRecord
  2
*Paper_Space
340
1E
 70
     0
280
     1
281
     0
  0
BLOCK_RECORD
  5
23
330
1
100
AcDbSymbolTableRecord
100
AcDbBlockTableRecord
  2
*Paper_Space0
340
26
 70
     0
280
     1
281
     0
  0
BLOCK_RECORD
  5
41
330
1
100
AcDbSymbolTableRecord
100
AcDbBlockTableRecord
  2
block 2
340
0
102
{BLKREFS
331
42
102
}
 70
     0
280
     1
281
     0
  0
ENDTAB
  0
ENDSEC
  0
SECTION
  2
BLOCKS
  0
BLOCK
  5
20
330
1F
100
AcDbEntity
  8
0
100
AcDbBlockBegin
  2
*Model_Space
 70
     0
 10
0.0
 20
0.0
 30
0.0
  3
*Model_Space
  1

  0
ENDBLK
  5
21
330
1F
100
AcDbEntity
  8
0
100
AcDbBlockEnd
  0
BLOCK
  5
1C
330
1B
100
AcDbEntity
 67
     1
  8
0
100
AcDbBlockBegin
  2
*Paper_Space
 70
     0
 10
0.0
 20
0.0
 30
0.0
  3
*Paper_Space
  1

  0
ENDBLK
  5
1D
330
1B
100
AcDbEntity
 67
     1
  8
0
100
AcDbBlockEnd
  0
BLOCK
  5
24
330
23
100
AcDbEntity
  8
0
100
AcDbBlockBegin
  2
*Paper_Space0
 70
     0
 10
0.0
 20
0.0
 30
0.0
  3
*Paper_Space0
  1

  0
ENDBLK
  5
25
330
23
100
AcDbEntity
  8
0
100
AcDbBlockEnd
  0
BLOCK
  5
43
330
41
100
AcDbEntity
  8
0
100
AcDbBlockBegin
  2
block 2
 70
     0
 10
0.0
 20
0.0
 30
0.0
  3
block 2
  1

  0
SPLINE
  5
45
330
41
100
AcDbEntity
  8
Calque 1
370
     0
100
AcDbSpline
210
0.0
220
0.0
230
1.0
 70
    11
 71
     3
 72
    65
 73
    61
 74
     0
 42
0.0000000001
 43
0.0000000001
 12
1.0
 22
0.0
 32
0.0
 13
1.0
 23
0.0
 33
0.0
 40
0.0
 40
0.0
 40
0.0
 40
0.0
 40
1.0
 40
1.0
 40
1.0
 40
2.0
 40
2.0
 40
2.0
 40
3.0
 40
3.0
 40
3.0
 40
4.0
 40
4.0
 40
4.0
 40
5.0
 40
5.0
 40
5.0
 40
6.0
 40
6.0
 40
6.0
 40
7.0
 40
7.0
 40
7.0
 40
8.0
 40
8.0
 40
8.0
 40
9.0
 40
9.0
 40
9.0
 40
10.0
 40
10.0
 40
10.0
 40
11.0
 40
11.0
 40
11.0
 40
12.0
 40
12.0
 40
12.0
 40
13.0
 40
13.0
 40
13.0
 40
14.0
 40
14.0
 40
14.0
 40
15.0
 40
15.0
 40
15.0
 40
16.0
 40
16.0
 40
16.0
 40
17.0
 40
17.0
 40
17.0
 40
18.0
 40
18.0
 40
18.0
 40
19.0
 40
19.0
 40
19.0
 40
20.0
 40
20.0
 40
20.0
 40
20.0
 10
3.677777608235677
 20
3.224999957614475
 30
0.0
 10
3.663888719346788
 20
3.308333290947808
 30
0.0
 10
3.559722052680121
 20
3.348610983954535
 30
0.0
 10
3.487499872843424
 20
3.375
 30
0.0
 10
3.486110899183485
 20
3.452777862548828
 30
0.0
 10
3.47916645473904
 20
3.563888973659939
 30
0.0
 10
3.404166539510091
 20
3.602777693006727
 30
0.0
 10
3.32499991522895
 20
3.643055386013454
 30
0.0
 10
3.220833248562283
 20
3.57361094156901
 30
0.0
 10
3.147222095065647
 20
3.533333248562283
 30
0.0
 10
3.111110899183485
 20
3.606944402058919
 30
0.0
 10
3.068055470784505
 20
3.726388719346788
 30
0.0
 10
2.98055542839898
 20
3.740277608235677
 30
0.0
 10
2.895833121405707
 20
3.754166497124566
 30
0.0
 10
2.82499991522895
 20
3.66805542839898
 30
0.0
 10
2.777777565850152
 20
3.60555542839898
 30
0.0
 10
2.699999703301323
 20
3.629166497124566
 30
0.0
 10
2.579166412353516
 20
3.659722010294596
 30
0.0
 10
2.52361085679796
 20
3.583333121405707
 30
0.0
 10
2.474999745686849
 20
3.518055386013454
 30
0.0
 10
2.505555258856879
 20
3.408333036634657
 30
0.0
 10
2.520833121405707
 20
3.329166412353516
 30
0.0
 10
2.440277523464627
 20
3.318055258856879
 30
0.0
 10
2.320833206176758
 20
3.313888549804688
 30
0.0
 10
2.276388592190213
 20
3.24166636996799
 30
0.0
 10
2.230555216471354
 20
3.165277481079102
 30
0.0
 10
2.293055216471354
 20
3.065277523464627
 30
0.0
 10
2.338888592190213
 20
2.999999788072374
 30
0.0
 10
2.293055216471354
 20
2.934722052680121
 30
0.0
 10
2.230555216471354
 20
2.834722095065647
 30
0.0
 10
2.276388592190213
 20
2.758333206176758
 30
0.0
 10
2.320832994249132
 20
2.684722052680121
 30
0.0
 10
2.440277523464627
 20
2.681944317287869
 30
0.0
 10
2.520833121405707
 20
2.670833163791233
 30
0.0
 10
2.506944232516819
 20
2.593055301242404
 30
0.0
 10
2.476388719346788
 20
2.481944190131293
 30
0.0
 10
2.52361085679796
 20
2.416666666666667
 30
0.0
 10
2.579166412353516
 20
2.341666751437717
 30
0.0
 10
2.699999703301323
 20
2.370833502875434
 30
0.0
 10
2.777777565850152
 20
2.394444359673394
 30
0.0
 10
2.824999703301323
 20
2.331944359673394
 30
0.0
 10
2.895833121405707
 20
2.245833079020182
 30
0.0
 10
2.98055542839898
 20
2.259721967909071
 30
0.0
 10
3.068055470784505
 20
2.27361085679796
 30
0.0
 10
3.111110899183485
 20
2.393055386013455
 30
0.0
 10
3.147222095065647
 20
2.466666327582465
 30
0.0
 10
3.220833248562283
 20
2.426388634575738
 30
0.0
 10
3.326388676961263
 20
2.356944190131293
 30
0.0
 10
3.404166539510091
 20
2.397221883138021
 30
0.0
 10
3.47916645473904
 20
2.436110602484809
 30
0.0
 10
3.486110899183485
 20
2.547221925523546
 30
0.0
 10
3.487499872843424
 20
2.624999576144748
 30
0.0
 10
3.561111026340061
 20
2.649999618530273
 30
0.0
 10
3.663888719346788
 20
2.690277311537001
 30
0.0
 10
3.677777608235677
 20
2.774999618530273
 30
0.0
 10
3.693055470784505
 20
2.862499660915799
 30
0.0
 10
3.593055301242404
 20
2.94166628519694
 30
0.0
 10
3.533333248562283
 20
2.999999576144748
 30
0.0
 10
3.593055725097656
 20
3.058333290947808
 30
0.0
 10
3.691666497124566
 20
3.136111153496636
 30
0.0
 10
3.677777608235677
 20
3.224999957614475
 30
0.0
  0
SPLINE
  5
46
330
41
100
AcDbEntity
  8
Calque 1
370
     0
100
AcDbSpline
210
0.0
220
0.0
230
1.0
 70
    11
 71
     3
 72
    17
 73
    13
 74
     0
 42
0.0000000001
 43
0.0000000001
 12
1.0
 22
0.0
 32
0.0
 13
1.0
 23
0.0
 33
0.0
 40
0.0
 40
0.0
 40
0.0
 40
0.0
 40
1.0
 40
1.0
 40
1.0
 40
2.0
 40
2.0
 40
2.0
 40
3.0
 40
3.0
 40
3.0
 40
4.0
 40
4.0
 40
4.0
 40
4.0
 10
3.626388973659939
 20
3.170833375718858
 30
0.0
 10
3.620833502875434
 20
3.152777777777778
 30
0.0
 10
3.608333587646484
 20
3.136111153496636
 30
0.0
 10
3.595833248562283
 20
3.119444529215495
 30
0.0
 10
3.536110983954535
 20
3.141666836208767
 30
0.0
 10
3.476388719346788
 20
3.147222306993272
 30
0.0
 10
3.415277693006727
 20
3.141666836208767
 30
0.0
 10
3.472222222222222
 20
3.183333502875434
 30
0.0
 10
3.520833333333333
 20
3.236111323038737
 30
0.0
 10
3.555555555555555
 20
3.298611323038737
 30
0.0
 10
3.606944613986545
 20
3.272222306993272
 30
0.0
 10
3.647222306993272
 20
3.231944402058919
 30
0.0
 10
3.626388973659939
 20
3.170833375718858
 30
0.0
  0
SPLINE
  5
47
330
41
100
AcDbEntity
  8
Calque 1
370
     0
100
AcDbSpline
210
0.0
220
0.0
230
1.0
 70
    11
 71
     3
 72
    26
 73
    22
 74
     0
 42
0.0000000001
 43
0.0000000001
 12
1.0
 22
0.0
 32
0.0
 13
1.0
 23
0.0
 33
0.0
 40
0.0
 40
0.0
 40
0.0
 40
0.0
 40
1.0
 40
1.0
 40
1.0
 40
2.0
 40
2.0
 40
2.0
 40
3.0
 40
3.0
 40
3.0
 40
4.0
 40
4.0
 40
4.0
 40
5.0
 40
5.0
 40
5.0
 40
6.0
 40
6.0
 40
6.0
 40
7.0
 40
7.0
 40
7.0
 40
7.0
 10
3.459722306993272
 20
2.661111195882161
 30
0.0
 10
3.451388888888889
 20
2.658333460489909
 30
0.0
 10
3.444444444444444
 20
2.650000042385525
 30
0.0
 10
3.444444444444444
 20
2.640277862548828
 30
0.0
 10
3.444444444444444
 20
2.622222264607747
 30
0.0
 10
3.444444444444444
 20
2.601388931274414
 30
0.0
 10
3.441666709052192
 20
2.579166836208767
 30
0.0
 10
3.354166666666667
 20
2.598611195882161
 30
0.0
 10
3.277777777777778
 20
2.638889100816515
 30
0.0
 10
3.213889016045464
 20
2.701389100816515
 30
0.0
 10
3.230555640326606
 20
2.730555852254231
 30
0.0
 10
3.226388931274414
 20
2.781944698757596
 30
0.0
 10
3.223611195882161
 20
2.816666920979817
 30
0.0
 10
3.258333418104383
 20
2.825000339084201
 30
0.0
 10
3.306944529215495
 20
2.837500254313151
 30
0.0
 10
3.329166836208767
 20
2.861111323038737
 30
0.0
 10
3.408333460489909
 20
2.81944465637207
 30
0.0
 10
3.472222434149848
 20
2.759722391764323
 30
0.0
 10
3.516666836208767
 20
2.68194474114312
 30
0.0
 10
3.497222264607747
 20
2.673611111111111
 30
0.0
 10
3.476388931274414
 20
2.666666666666667
 30
0.0
 10
3.459722306993272
 20
2.661111195882161
 30
0.0
  0
SPLINE
  5
48
330
41
100
AcDbEntity
  8
Calque 1
370
     0
100
AcDbSpline
210
0.0
220
0.0
230
1.0
 70
    11
 71
     3
 72
    98
 73
    94
 74
     0
 42
0.0000000001
 43
0.0000000001
 12
1.0
 22
0.0
 32
0.0
 13
1.0
 23
0.0
 33
0.0
 40
0.0
 40
0.0
 40
0.0
 40
0.0
 40
1.0
 40
1.0
 40
1.0
 40
2.0
 40
2.0
 40
2.0
 40
3.0
 40
3.0
 40
3.0
 40
4.0
 40
4.0
 40
4.0
 40
5.0
 40
5.0
 40
5.0
 40
6.0
 40
6.0
 40
6.0
 40
7.0
 40
7.0
 40
7.0
 40
8.0
 40
8.0
 40
8.0
 40
9.0
 40
9.0
 40
9.0
 40
10.0
 40
10.0
 40
10.0
 40
11.0
 40
11.0
 40
11.0
 40
12.0
 40
12.0
 40
12.0
 40
13.0
 40
13.0
 40
13.0
 40
14.0
 40
14.0
 40
14.0
 40
15.0
 40
15.0
 40
15.0
 40
16.0
 40
16.0
 40
16.0
 40
17.0
 40
17.0
 40
17.0
 40
18.0
 40
18.0
 40
18.0
 40
19.0
 40
19.0
 40
19.0
 40
20.0
 40
20.0
 40
20.0
 40
21.0
 40
21.0
 40
21.0
 40
22.0
 40
22.0
 40
22.0
 40
23.0
 40
23.0
 40
23.0
 40
24.0
 40
24.0
 40
24.0
 40
25.0
 40
25.0
 40
25.0
 40
26.0
 40
26.0
 40
26.0
 40
27.0
 40
27.0
 40
27.0
 40
28.0
 40
28.0
 40
28.0
 40
29.0
 40
29.0
 40
29.0
 40
30.0
 40
30.0
 40
30.0
 40
31.0
 40
31.0
 40
31.0
 40
31.0
 10
3.072222179836697
 20
2.729166666666667
 30
0.0
 10
3.0625
 20
2.731944402058919
 30
0.0
 10
3.054166581895616
 20
2.726388931274414
 30
0.0
 10
3.048611111111111
 20
2.719444486829969
 30
0.0
 10
3.027777777777778
 20
2.690277735392252
 30
0.0
 10
3.0
 20
2.645833333333333
 30
0.0
 10
2.951388888888889
 20
2.673611111111111
 30
0.0
 10
2.931944529215495
 20
2.684722264607747
 30
0.0
 10
2.913888931274414
 20
2.722222222222222
 30
0.0
 10
2.901388804117838
 20
2.740277820163303
 30
0.0
 10
2.897222095065647
 20
2.747222264607747
 30
0.0
 10
2.88611094156901
 20
2.752777735392252
 30
0.0
 10
2.877777735392252
 20
2.75
 30
0.0
 10
2.854166666666667
 20
2.741666581895616
 30
0.0
 10
2.819444444444444
 20
2.722222222222222
 30
0.0
 10
2.79305542839898
 20
2.723611195882161
 30
0.0
 10
2.738888846503364
 20
2.7250001695421
 30
0.0
 10
2.74305534362793
 20
2.780555725097656
 30
0.0
 10
2.744444317287869
 20
2.820833418104383
 30
0.0
 10
2.744444317287869
 20
2.830555597941081
 30
0.0
 10
2.737499872843424
 20
2.838889016045464
 30
0.0
 10
2.729166454739041
 20
2.841666751437717
 30
0.0
 10
2.694444232516819
 20
2.851388931274414
 30
0.0
 10
2.654166539510091
 20
2.861111111111111
 30
0.0
 10
2.652777565850152
 20
2.900000042385525
 30
0.0
 10
2.651388592190213
 20
2.931944529215495
 30
0.0
 10
2.683333079020182
 20
2.962500042385525
 30
0.0
 10
2.701388676961263
 20
2.986111111111111
 30
0.0
 10
2.705555386013455
 20
2.990277820163303
 30
0.0
 10
2.706944147745768
 20
2.995833290947808
 30
0.0
 10
2.705555386013455
 20
3.001388973659939
 30
0.0
 10
2.705555386013455
 20
3.006944444444444
 30
0.0
 10
2.704166412353516
 20
3.011111153496636
 30
0.0
 10
2.701388676961263
 20
3.016666836208767
 30
0.0
 10
2.683333079020182
 20
3.040277904934353
 30
0.0
 10
2.651388592190213
 20
3.070833418104383
 30
0.0
 10
2.652777565850152
 20
3.102777904934353
 30
0.0
 10
2.654166539510091
 20
3.141666836208767
 30
0.0
 10
2.695833206176758
 20
3.151389016045464
 30
0.0
 10
2.729166454739041
 20
3.161111195882161
 30
0.0
 10
2.737499872843424
 20
3.163888931274414
 30
0.0
 10
2.744444317287869
 20
3.172222349378798
 30
0.0
 10
2.744444317287869
 20
3.181944529215495
 30
0.0
 10
2.74305534362793
 20
3.222222222222222
 30
0.0
 10
2.738888846503364
 20
3.277777777777778
 30
0.0
 10
2.79305542839898
 20
3.279166751437717
 30
0.0
 10
2.818055470784505
 20
3.280555725097656
 30
0.0
 10
2.854166454739041
 20
3.261111153496636
 30
0.0
 10
2.877777735392252
 20
3.252777947319878
 30
0.0
 10
2.886111153496636
 20
3.250000211927626
 30
0.0
 10
2.897222095065647
 20
3.255555682712131
 30
0.0
 10
2.901388804117838
 20
3.262500127156575
 30
0.0
 10
2.911110983954535
 20
3.276389016045464
 30
0.0
 10
2.938888761732313
 20
3.325000127156575
 30
0.0
 10
2.951388888888889
 20
3.329166836208767
 30
0.0
 10
2.995833290947808
 20
3.345833460489909
 30
0.0
 10
3.026388804117838
 20
3.315277947319878
 30
0.0
 10
3.048611111111111
 20
3.283333460489909
 30
0.0
 10
3.054166581895616
 20
3.276389016045464
 30
0.0
 10
3.0625
 20
3.270833545260959
 30
0.0
 10
3.072222179836697
 20
3.273611280653212
 30
0.0
 10
3.112499872843424
 20
3.2875001695421
 30
0.0
 10
3.165277693006727
 20
3.304166793823242
 30
0.0
 10
3.181944317287869
 20
3.247222476535373
 30
0.0
 10
3.188888761732313
 20
3.2250001695421
 30
0.0
 10
3.183333290947808
 20
3.193055894639757
 30
0.0
 10
3.181944317287869
 20
3.169444613986545
 30
0.0
 10
3.181944317287869
 20
3.159722434149848
 30
0.0
 10
3.188888761732313
 20
3.151389016045464
 30
0.0
 10
3.197222179836697
 20
3.148611280653212
 30
0.0
 10
3.21805551317003
 20
3.143055809868706
 30
0.0
 10
3.284722222222222
 20
3.130555682712131
 30
0.0
 10
3.295833375718858
 20
3.113889058430989
 30
0.0
 10
3.318055682712131
 20
3.083333545260959
 30
0.0
 10
3.277777777777778
 20
3.034722434149848
 30
0.0
 10
3.259722179836697
 20
3.012500127156575
 30
0.0
 10
3.255555470784505
 20
3.00694465637207
 30
0.0
 10
3.255555470784505
 20
2.997222264607747
 30
0.0
 10
3.259722179836697
 20
2.991666793823242
 30
0.0
 10
3.277777777777778
 20
2.968055725097656
 30
0.0
 10
3.316666709052192
 20
2.920833375718858
 30
0.0
 10
3.295833375718858
 20
2.890277862548828
 30
0.0
 10
3.284722222222222
 20
2.873611238267686
 30
0.0
 10
3.21805551317003
 20
2.861111111111111
 30
0.0
 10
3.197222179836697
 20
2.855555640326606
 30
0.0
 10
3.188888761732313
 20
2.852777904934353
 30
0.0
 10
3.181944317287869
 20
2.844444486829969
 30
0.0
 10
3.181944317287869
 20
2.834722306993272
 30
0.0
 10
3.183333290947808
 20
2.811111238267686
 30
0.0
 10
3.187499788072374
 20
2.780555725097656
 30
0.0
 10
3.181944317287869
 20
2.756944444444444
 30
0.0
 10
3.165277693006727
 20
2.697222179836697
 30
0.0
 10
3.11250008477105
 20
2.713888804117838
 30
0.0
 10
3.072222179836697
 20
2.729166666666667
 30
0.0
  0
SPLINE
  5
49
330
41
100
AcDbEntity
  8
Calque 1
370
     0
100
AcDbSpline
210
0.0
220
0.0
230
1.0
 70
    11
 71
     3
 72
    26
 73
    22
 74
     0
 42
0.0000000001
 43
0.0000000001
 12
1.0
 22
0.0
 32
0.0
 13
1.0
 23
0.0
 33
0.0
 40
0.0
 40
0.0
 40
0.0
 40
0.0
 40
1.0
 40
1.0
 40
1.0
 40
2.0
 40
2.0
 40
2.0
 40
3.0
 40
3.0
 40
3.0
 40
4.0
 40
4.0
 40
4.0
 40
5.0
 40
5.0
 40
5.0
 40
6.0
 40
6.0
 40
6.0
 40
7.0
 40
7.0
 40
7.0
 40
7.0
 10
2.547222137451172
 20
2.708333333333333
 30
0.0
 10
2.516666624281141
 20
2.713888804117838
 30
0.0
 10
2.477777693006727
 20
2.716666751437717
 30
0.0
 10
2.441666497124566
 20
2.722222222222222
 30
0.0
 10
2.486110899183485
 20
2.783333248562283
 30
0.0
 10
2.548610899183485
 20
2.823611153496636
 30
0.0
 10
2.61805534362793
 20
2.854166666666667
 30
0.0
 10
2.638888676961263
 20
2.830555597941081
 30
0.0
 10
2.673610899183485
 20
2.815277735392252
 30
0.0
 10
2.702777650621202
 20
2.804166581895616
 30
0.0
 10
2.702777650621202
 20
2.773611068725586
 30
0.0
 10
2.706944359673394
 20
2.734722137451172
 30
0.0
 10
2.723610983954535
 20
2.706944359673394
 30
0.0
 10
2.673610899183485
 20
2.649999830457899
 30
0.0
 10
2.616666581895616
 20
2.604166666666667
 30
0.0
 10
2.544444402058919
 20
2.580555386013455
 30
0.0
 10
2.549999872843424
 20
2.615277608235677
 30
0.0
 10
2.559722264607747
 20
2.651388804117838
 30
0.0
 10
2.563888761732313
 20
2.68055534362793
 30
0.0
 10
2.563888973659939
 20
2.693055470784505
 30
0.0
 10
2.559722264607747
 20
2.705555597941081
 30
0.0
 10
2.547222137451172
 20
2.708333333333333
 30
0.0
  0
SPLINE
  5
4A
330
41
100
AcDbEntity
  8
Calque 1
370
     0
100
AcDbSpline
210
0.0
220
0.0
230
1.0
 70
    11
 71
     3
 72
    29
 73
    25
 74
     0
 42
0.0000000001
 43
0.0000000001
 12
1.0
 22
0.0
 32
0.0
 13
1.0
 23
0.0
 33
0.0
 40
0.0
 40
0.0
 40
0.0
 40
0.0
 40
1.0
 40
1.0
 40
1.0
 40
2.0
 40
2.0
 40
2.0
 40
3.0
 40
3.0
 40
3.0
 40
4.0
 40
4.0
 40
4.0
 40
5.0
 40
5.0
 40
5.0
 40
6.0
 40
6.0
 40
6.0
 40
7.0
 40
7.0
 40
7.0
 40
8.0
 40
8.0
 40
8.0
 40
8.0
 10
2.377777735392252
 20
2.98750008477105
 30
0.0
 10
2.380555470784505
 20
2.990277820163303
 30
0.0
 10
2.383333206176758
 20
2.994444529215495
 30
0.0
 10
2.381944444444444
 20
3.0
 30
0.0
 10
2.381944444444444
 20
3.004166709052192
 30
0.0
 10
2.380555470784505
 20
3.008333418104383
 30
0.0
 10
2.377777735392252
 20
3.01249991522895
 30
0.0
 10
2.368055555555555
 20
3.026388804117838
 30
0.0
 10
2.35555542839898
 20
3.044444402058919
 30
0.0
 10
2.34305551317003
 20
3.063888761732313
 30
0.0
 10
2.424999872843424
 20
3.099999957614475
 30
0.0
 10
2.51249991522895
 20
3.112499872843424
 30
0.0
 10
2.599999957614475
 20
3.099999957614475
 30
0.0
 10
2.604166666666667
 20
3.065277735392252
 30
0.0
 10
2.634722179836697
 20
3.029166539510091
 30
0.0
 10
2.659722222222222
 20
3.001388761732313
 30
0.0
 10
2.636111153496636
 20
2.973610983954535
 30
0.0
 10
2.604166666666667
 20
2.936111026340061
 30
0.0
 10
2.599999957614475
 20
2.902777565850152
 30
0.0
 10
2.51249991522895
 20
2.890277650621202
 30
0.0
 10
2.424999872843424
 20
2.902777565850152
 30
0.0
 10
2.34305551317003
 20
2.938888761732313
 30
0.0
 10
2.355555640326606
 20
2.955555597941081
 30
0.0
 10
2.368055555555555
 20
2.972222222222222
 30
0.0
 10
2.377777735392252
 20
2.98750008477105
 30
0.0
  0
SPLINE
  5
4B
330
41
100
AcDbEntity
  8
Calque 1
370
     0
100
AcDbSpline
210
0.0
220
0.0
230
1.0
 70
    11
 71
     3
 72
    26
 73
    22
 74
     0
 42
0.0000000001
 43
0.0000000001
 12
1.0
 22
0.0
 32
0.0
 13
1.0
 23
0.0
 33
0.0
 40
0.0
 40
0.0
 40
0.0
 40
0.0
 40
1.0
 40
1.0
 40
1.0
 40
2.0
 40
2.0
 40
2.0
 40
3.0
 40
3.0
 40
3.0
 40
4.0
 40
4.0
 40
4.0
 40
5.0
 40
5.0
 40
5.0
 40
6.0
 40
6.0
 40
6.0
 40
7.0
 40
7.0
 40
7.0
 40
7.0
 10
2.5625
 20
3.318055470784505
 30
0.0
 10
2.558333290947808
 20
3.348610983954535
 30
0.0
 10
2.55000008477105
 20
3.383333206176758
 30
0.0
 10
2.543055640326606
 20
3.41805542839898
 30
0.0
 10
2.615277820163303
 20
3.394444359673394
 30
0.0
 10
2.672222349378798
 20
3.348610983954535
 30
0.0
 10
2.722222222222222
 20
3.29166645473904
 30
0.0
 10
2.705555597941081
 20
3.263888676961263
 30
0.0
 10
2.702777862548828
 20
3.224999745686849
 30
0.0
 10
2.702777862548828
 20
3.194444232516819
 30
0.0
 10
2.673611111111111
 20
3.184722052680121
 30
0.0
 10
2.637500127156575
 20
3.169444190131293
 30
0.0
 10
2.616666793823242
 20
3.145833121405707
 30
0.0
 10
2.547222349378798
 20
3.176388634575738
 30
0.0
 10
2.486111323038737
 20
3.215277565850152
 30
0.0
 10
2.441666709052192
 20
3.276388592190212
 30
0.0
 10
2.477777904934353
 20
3.281944062974718
 30
0.0
 10
2.515277862548828
 20
3.284722010294596
 30
0.0
 10
2.547222349378798
 20
3.290277481079102
 30
0.0
 10
2.559722264607747
 20
3.294444402058919
 30
0.0
 10
2.563888973659939
 20
3.306944529215495
 30
0.0
 10
2.5625
 20
3.318055470784505
 30
0.0
  0
SPLINE
  5
4C
330
41
100
AcDbEntity
  8
Calque 1
370
     0
100
AcDbSpline
210
0.0
220
0.0
230
1.0
 70
    11
 71
     3
 72
    26
 73
    22
 74
     0
 42
0.0000000001
 43
0.0000000001
 12
1.0
 22
0.0
 32
0.0
 13
1.0
 23
0.0
 33
0.0
 40
0.0
 40
0.0
 40
0.0
 40
0.0
 40
1.0
 40
1.0
 40
1.0
 40
2.0
 40
2.0
 40
2.0
 40
3.0
 40
3.0
 40
3.0
 40
4.0
 40
4.0
 40
4.0
 40
5.0
 40
5.0
 40
5.0
 40
6.0
 40
6.0
 40
6.0
 40
7.0
 40
7.0
 40
7.0
 40
7.0
 10
3.444444444444444
 20
3.358333375718858
 30
0.0
 10
3.444444444444444
 20
3.348611195882161
 30
0.0
 10
3.451388888888889
 20
3.341666751437717
 30
0.0
 10
3.459722306993272
 20
3.337500042385525
 30
0.0
 10
3.476388931274414
 20
3.33194457160102
 30
0.0
 10
3.495833502875434
 20
3.325000127156575
 30
0.0
 10
3.516666836208767
 20
3.316666709052192
 30
0.0
 10
3.472222434149848
 20
3.238888846503364
 30
0.0
 10
3.408333460489909
 20
3.179166793823242
 30
0.0
 10
3.329166836208767
 20
3.138888888888889
 30
0.0
 10
3.305555767483181
 20
3.162499957614475
 30
0.0
 10
3.25694465637207
 20
3.173611111111111
 30
0.0
 10
3.223611195882161
 20
3.181944529215495
 30
0.0
 10
3.226388931274414
 20
3.216666751437717
 30
0.0
 10
3.230555640326606
 20
3.268055597941081
 30
0.0
 10
3.213889016045464
 20
3.297222349378798
 30
0.0
 10
3.277777989705403
 20
3.359722349378798
 30
0.0
 10
3.354166878594292
 20
3.400000042385525
 30
0.0
 10
3.441666709052192
 20
3.419444613986545
 30
0.0
 10
3.444444444444444
 20
3.398611068725586
 30
0.0
 10
3.444444444444444
 20
3.376388973659939
 30
0.0
 10
3.444444444444444
 20
3.358333375718858
 30
0.0
  0
SPLINE
  5
4D
330
41
100
AcDbEntity
  8
Calque 1
370
     0
100
AcDbSpline
210
0.0
220
0.0
230
1.0
 70
    11
 71
     3
 72
    17
 73
    13
 74
     0
 42
0.0000000001
 43
0.0000000001
 12
1.0
 22
0.0
 32
0.0
 13
1.0
 23
0.0
 33
0.0
 40
0.0
 40
0.0
 40
0.0
 40
0.0
 40
1.0
 40
1.0
 40
1.0
 40
2.0
 40
2.0
 40
2.0
 40
3.0
 40
3.0
 40
3.0
 40
4.0
 40
4.0
 40
4.0
 40
4.0
 10
3.4375
 20
3.462500042385525
 30
0.0
 10
3.366666581895616
 20
3.448611153496636
 30
0.0
 10
3.302777820163303
 20
3.419444402058919
 30
0.0
 10
3.245833290947808
 20
3.379166709052192
 30
0.0
 10
3.269444359673394
 20
3.434722264607747
 30
0.0
 10
3.281944486829969
 20
3.493055555555555
 30
0.0
 10
3.279166539510091
 20
3.555555555555555
 30
0.0
 10
3.301388846503364
 20
3.563888973659939
 30
0.0
 10
3.32361094156901
 20
3.569444444444444
 30
0.0
 10
3.345833248562283
 20
3.569444444444444
 30
0.0
 10
3.404166751437717
 20
3.568055470784505
 30
0.0
 10
3.427777820163303
 20
3.518055597941081
 30
0.0
 10
3.4375
 20
3.462500042385525
 30
0.0
  0
SPLINE
  5
4E
330
41
100
AcDbEntity
  8
Calque 1
370
     0
100
AcDbSpline
210
0.0
220
0.0
230
1.0
 70
    11
 71
     3
 72
    26
 73
    22
 74
     0
 42
0.0000000001
 43
0.0000000001
 12
1.0
 22
0.0
 32
0.0
 13
1.0
 23
0.0
 33
0.0
 40
0.0
 40
0.0
 40
0.0
 40
0.0
 40
1.0
 40
1.0
 40
1.0
 40
2.0
 40
2.0
 40
2.0
 40
3.0
 40
3.0
 40
3.0
 40
4.0
 40
4.0
 40
4.0
 40
5.0
 40
5.0
 40
5.0
 40
6.0
 40
6.0
 40
6.0
 40
7.0
 40
7.0
 40
7.0
 40
7.0
 10
3.145833333333333
 20
3.486111111111111
 30
0.0
 10
3.173611111111111
 20
3.5
 30
0.0
 10
3.204166624281141
 20
3.519444359673394
 30
0.0
 10
3.236111111111111
 20
3.534722222222222
 30
0.0
 10
3.236111111111111
 20
3.458333333333333
 30
0.0
 10
3.209722306993272
 20
3.393055597941081
 30
0.0
 10
3.172222137451172
 20
3.326388888888889
 30
0.0
 10
3.141666624281141
 20
3.333333333333333
 30
0.0
 10
3.101388719346788
 20
3.323611153496636
 30
0.0
 10
3.07361094156901
 20
3.315277735392252
 30
0.0
 10
3.05555534362793
 20
3.340277777777778
 30
0.0
 10
3.029166539510091
 20
3.369444317287869
 30
0.0
 10
2.999999788072374
 20
3.381944444444444
 30
0.0
 10
3.006944232516819
 20
3.456944359673394
 30
0.0
 10
3.026388592190213
 20
3.527777777777778
 30
0.0
 10
3.069444232516819
 20
3.588888804117838
 30
0.0
 10
3.08611085679796
 20
3.556944317287869
 30
0.0
 10
3.099999745686849
 20
3.523611068725586
 30
0.0
 10
3.115277608235677
 20
3.494444317287869
 30
0.0
 10
3.123611026340061
 20
3.483333375718858
 30
0.0
 10
3.136111153496636
 20
3.481944402058919
 30
0.0
 10
3.145833333333333
 20
3.486111111111111
 30
0.0
  0
SPLINE
  5
4F
330
41
100
AcDbEntity
  8
Calque 1
370
     0
100
AcDbSpline
210
0.0
220
0.0
230
1.0
 70
    11
 71
     3
 72
    17
 73
    13
 74
     0
 42
0.0000000001
 43
0.0000000001
 12
1.0
 22
0.0
 32
0.0
 13
1.0
 23
0.0
 33
0.0
 40
0.0
 40
0.0
 40
0.0
 40
0.0
 40
1.0
 40
1.0
 40
1.0
 40
2.0
 40
2.0
 40
2.0
 40
3.0
 40
3.0
 40
3.0
 40
4.0
 40
4.0
 40
4.0
 40
4.0
 10
3.018055597941081
 20
3.670833375718858
 30
0.0
 10
3.029166751437717
 20
3.658333460489909
 30
0.0
 10
3.040277904934353
 20
3.64444457160102
 30
0.0
 10
3.05000008477105
 20
3.629166709052192
 30
0.0
 10
3.011111153496636
 20
3.579166624281141
 30
0.0
 10
2.98750008477105
 20
3.525000042385525
 30
0.0
 10
2.973611195882161
 20
3.466666751437717
 30
0.0
 10
2.951388888888889
 20
3.533333460489909
 30
0.0
 10
2.915277904934353
 20
3.594444486829969
 30
0.0
 10
2.866666793823242
 20
3.647222306993272
 30
0.0
 10
2.912499957614475
 20
3.691666709052192
 30
0.0
 10
2.969444486829969
 20
3.722222222222222
 30
0.0
 10
3.018055597941081
 20
3.670833375718858
 30
0.0
  0
SPLINE
  5
50
330
41
100
AcDbEntity
  8
Calque 1
370
     0
100
AcDbSpline
210
0.0
220
0.0
230
1.0
 70
    11
 71
     3
 72
    26
 73
    22
 74
     0
 42
0.0000000001
 43
0.0000000001
 12
1.0
 22
0.0
 32
0.0
 13
1.0
 23
0.0
 33
0.0
 40
0.0
 40
0.0
 40
0.0
 40
0.0
 40
1.0
 40
1.0
 40
1.0
 40
2.0
 40
2.0
 40
2.0
 40
3.0
 40
3.0
 40
3.0
 40
4.0
 40
4.0
 40
4.0
 40
5.0
 40
5.0
 40
5.0
 40
6.0
 40
6.0
 40
6.0
 40
7.0
 40
7.0
 40
7.0
 40
7.0
 10
2.801388846503364
 20
3.569444444444444
 30
0.0
 10
2.811111026340061
 20
3.583333333333333
 30
0.0
 10
2.823611153496636
 20
3.599999957614475
 30
0.0
 10
2.838888804117838
 20
3.616666581895616
 30
0.0
 10
2.898611068725586
 20
3.549999872843424
 30
0.0
 10
2.9375
 20
3.470833248562283
 30
0.0
 10
2.952777650621202
 20
3.383333206176758
 30
0.0
 10
2.922222137451172
 20
3.369444317287869
 30
0.0
 10
2.895833121405707
 20
3.326388676961263
 30
0.0
 10
2.876388761732313
 20
3.297222137451172
 30
0.0
 10
2.84305551317003
 20
3.311111026340061
 30
0.0
 10
2.798610899183485
 20
3.330555386013454
 30
0.0
 10
2.763888676961263
 20
3.32361094156901
 30
0.0
 10
2.724999745686849
 20
3.404166539510091
 30
0.0
 10
2.709722095065647
 20
3.490277608235677
 30
0.0
 10
2.718055301242404
 20
3.579166412353516
 30
0.0
 10
2.740277608235677
 20
3.57361094156901
 30
0.0
 10
2.762499703301323
 20
3.566666497124566
 30
0.0
 10
2.777777565850152
 20
3.561110814412435
 30
0.0
 10
2.787499957614475
 20
3.556944529215495
 30
0.0
 10
2.795833375718858
 20
3.5625
 30
0.0
 10
2.801388846503364
 20
3.569444444444444
 30
0.0
  0
SPLINE
  5
51
330
41
100
AcDbEntity
  8
Calque 1
370
     0
100
AcDbSpline
210
0.0
220
0.0
230
1.0
 70
    11
 71
     3
 72
    17
 73
    13
 74
     0
 42
0.0000000001
 43
0.0000000001
 12
1.0
 22
0.0
 32
0.0
 13
1.0
 23
0.0
 33
0.0
 40
0.0
 40
0.0
 40
0.0
 40
0.0
 40
1.0
 40
1.0
 40
1.0
 40
2.0
 40
2.0
 40
2.0
 40
3.0
 40
3.0
 40
3.0
 40
4.0
 40
4.0
 40
4.0
 40
4.0
 10
2.543055640326606
 20
3.53055551317003
 30
0.0
 10
2.559722264607747
 20
3.588888804117838
 30
0.0
 10
2.618055555555555
 20
3.594444486829969
 30
0.0
 10
2.676389058430989
 20
3.586111068725586
 30
0.0
 10
2.668055640326606
 20
3.513888888888889
 30
0.0
 10
2.67500008477105
 20
3.444444444444444
 30
0.0
 10
2.695833418104383
 20
3.376388761732313
 30
0.0
 10
2.650000042385525
 20
3.415277693006727
 30
0.0
 10
2.598611195882161
 20
3.445833206176758
 30
0.0
 10
2.5375001695421
 20
3.462499830457899
 30
0.0
 10
2.536111195882161
 20
3.48750008477105
 30
0.0
 10
2.537499957614475
 20
3.509722179836697
 30
0.0
 10
2.543055640326606
 20
3.53055551317003
 30
0.0
  0
SPLINE
  5
52
330
41
100
AcDbEntity
  8
Calque 1
370
     0
100
AcDbSpline
210
0.0
220
0.0
230
1.0
 70
    11
 71
     3
 72
    17
 73
    13
 74
     0
 42
0.0000000001
 43
0.0000000001
 12
1.0
 22
0.0
 32
0.0
 13
1.0
 23
0.0
 33
0.0
 40
0.0
 40
0.0
 40
0.0
 40
0.0
 40
1.0
 40
1.0
 40
1.0
 40
2.0
 40
2.0
 40
2.0
 40
3.0
 40
3.0
 40
3.0
 40
4.0
 40
4.0
 40
4.0
 40
4.0
 10
2.347222222222222
 20
3.25
 30
0.0
 10
2.36250008477105
 20
3.258333418104383
 30
0.0
 10
2.379166709052192
 20
3.263888888888889
 30
0.0
 10
2.397222306993272
 20
3.269444359673394
 30
0.0
 10
2.431944529215495
 20
3.216666539510091
 30
0.0
 10
2.476388931274414
 20
3.177777608235677
 30
0.0
 10
2.527777777777778
 20
3.147222095065647
 30
0.0
 10
2.456944359673394
 20
3.145833121405707
 30
0.0
 10
2.388888888888889
 20
3.131944232516819
 30
0.0
 10
2.322222179836697
 20
3.101388719346788
 30
0.0
 10
2.295833375718858
 20
3.15555551317003
 30
0.0
 10
2.286111195882161
 20
3.215277777777778
 30
0.0
 10
2.347222222222222
 20
3.25
 30
0.0
  0
SPLINE
  5
53
330
41
100
AcDbEntity
  8
Calque 1
370
     0
100
AcDbSpline
210
0.0
220
0.0
230
1.0
 70
    11
 71
     3
 72
    17
 73
    13
 74
     0
 42
0.0000000001
 43
0.0000000001
 12
1.0
 22
0.0
 32
0.0
 13
1.0
 23
0.0
 33
0.0
 40
0.0
 40
0.0
 40
0.0
 40
0.0
 40
1.0
 40
1.0
 40
1.0
 40
2.0
 40
2.0
 40
2.0
 40
3.0
 40
3.0
 40
3.0
 40
4.0
 40
4.0
 40
4.0
 40
4.0
 10
2.323611153496636
 20
2.900000042385525
 30
0.0
 10
2.390277862548828
 20
2.870833290947808
 30
0.0
 10
2.458333333333333
 20
2.855555640326606
 30
0.0
 10
2.527777777777778
 20
2.854166666666667
 30
0.0
 10
2.476388931274414
 20
2.822222179836697
 30
0.0
 10
2.430555555555555
 20
2.783333248562283
 30
0.0
 10
2.397222306993272
 20
2.730555640326606
 30
0.0
 10
2.379166709052192
 20
2.734722349378798
 30
0.0
 10
2.36250008477105
 20
2.741666793823242
 30
0.0
 10
2.348611195882161
 20
2.75
 30
0.0
 10
2.287499957614475
 20
2.786111195882161
 30
0.0
 10
2.297222137451172
 20
2.844444486829969
 30
0.0
 10
2.323611153496636
 20
2.900000042385525
 30
0.0
  0
SPLINE
  5
54
330
41
100
AcDbEntity
  8
Calque 1
370
     0
100
AcDbSpline
210
0.0
220
0.0
230
1.0
 70
    11
 71
     3
 72
    17
 73
    13
 74
     0
 42
0.0000000001
 43
0.0000000001
 12
1.0
 22
0.0
 32
0.0
 13
1.0
 23
0.0
 33
0.0
 40
0.0
 40
0.0
 40
0.0
 40
0.0
 40
1.0
 40
1.0
 40
1.0
 40
2.0
 40
2.0
 40
2.0
 40
3.0
 40
3.0
 40
3.0
 40
4.0
 40
4.0
 40
4.0
 40
4.0
 10
2.543055640326606
 20
2.469444486829969
 30
0.0
 10
2.5375001695421
 20
2.490277820163303
 30
0.0
 10
2.536111195882161
 20
2.512500127156575
 30
0.0
 10
2.5375001695421
 20
2.536111195882161
 30
0.0
 10
2.598611195882161
 20
2.552777820163303
 30
0.0
 10
2.650000254313151
 20
2.583333333333333
 30
0.0
 10
2.695833418104383
 20
2.622222264607747
 30
0.0
 10
2.67500008477105
 20
2.555555555555555
 30
0.0
 10
2.668055640326606
 20
2.484722349378798
 30
0.0
 10
2.676389058430989
 20
2.4125001695421
 30
0.0
 10
2.618055555555555
 20
2.405555725097656
 30
0.0
 10
2.559722264607747
 20
2.411111195882161
 30
0.0
 10
2.543055640326606
 20
2.469444486829969
 30
0.0
  0
SPLINE
  5
55
330
41
100
AcDbEntity
  8
Calque 1
370
     0
100
AcDbSpline
210
0.0
220
0.0
230
1.0
 70
    11
 71
     3
 72
    26
 73
    22
 74
     0
 42
0.0000000001
 43
0.0000000001
 12
1.0
 22
0.0
 32
0.0
 13
1.0
 23
0.0
 33
0.0
 40
0.0
 40
0.0
 40
0.0
 40
0.0
 40
1.0
 40
1.0
 40
1.0
 40
2.0
 40
2.0
 40
2.0
 40
3.0
 40
3.0
 40
3.0
 40
4.0
 40
4.0
 40
4.0
 40
5.0
 40
5.0
 40
5.0
 40
6.0
 40
6.0
 40
6.0
 40
7.0
 40
7.0
 40
7.0
 40
7.0
 10
2.777777777777778
 20
2.438888973659939
 30
0.0
 10
2.761111153496636
 20
2.433333502875434
 30
0.0
 10
2.740277820163303
 20
2.427778032090929
 30
0.0
 10
2.71805551317003
 20
2.420833587646484
 30
0.0
 10
2.709722095065647
 20
2.509722391764323
 30
0.0
 10
2.724999957614475
 20
2.595833672417534
 30
0.0
 10
2.763888888888889
 20
2.676389058430989
 30
0.0
 10
2.797222137451172
 20
2.669444613986545
 30
0.0
 10
2.844444486829969
 20
2.690277947319878
 30
0.0
 10
2.876388973659939
 20
2.702777862548828
 30
0.0
 10
2.895833333333333
 20
2.672222349378798
 30
0.0
 10
2.920833375718858
 20
2.630555682712131
 30
0.0
 10
2.952777862548828
 20
2.616666793823242
 30
0.0
 10
2.9375
 20
2.529166751437717
 30
0.0
 10
2.898611280653212
 20
2.450000127156575
 30
0.0
 10
2.838889016045464
 20
2.383333418104383
 30
0.0
 10
2.825000127156575
 20
2.400000254313151
 30
0.0
 10
2.811111238267686
 20
2.416666666666667
 30
0.0
 10
2.801389058430989
 20
2.430555555555555
 30
0.0
 10
2.795833375718858
 20
2.4375
 30
0.0
 10
2.787499957614475
 20
2.443055470784505
 30
0.0
 10
2.777777777777778
 20
2.438888973659939
 30
0.0
  0
SPLINE
  5
56
330
41
100
AcDbEntity
  8
Calque 1
370
     0
100
AcDbSpline
210
0.0
220
0.0
230
1.0
 70
    11
 71
     3
 72
    17
 73
    13
 74
     0
 42
0.0000000001
 43
0.0000000001
 12
1.0
 22
0.0
 32
0.0
 13
1.0
 23
0.0
 33
0.0
 40
0.0
 40
0.0
 40
0.0
 40
0.0
 40
1.0
 40
1.0
 40
1.0
 40
2.0
 40
2.0
 40
2.0
 40
3.0
 40
3.0
 40
3.0
 40
4.0
 40
4.0
 40
4.0
 40
4.0
 10
2.866666581895616
 20
2.352777693006727
 30
0.0
 10
2.915277693006727
 20
2.406944274902344
 30
0.0
 10
2.951388888888889
 20
2.466666539510091
 30
0.0
 10
2.973610983954535
 20
2.533333248562283
 30
0.0
 10
2.987499872843424
 20
2.474999957614475
 30
0.0
 10
3.01111094156901
 20
2.420833163791233
 30
0.0
 10
3.049999872843424
 20
2.370833079020182
 30
0.0
 10
3.040277693006727
 20
2.355555216471354
 30
0.0
 10
3.03055551317003
 20
2.341666327582465
 30
0.0
 10
3.018055386013455
 20
2.329166412353516
 30
0.0
 10
2.969444486829969
 20
2.277777777777778
 30
0.0
 10
2.912499957614475
 20
2.308333502875434
 30
0.0
 10
2.866666581895616
 20
2.352777693006727
 30
0.0
  0
SPLINE
  5
57
330
41
100
AcDbEntity
  8
Calque 1
370
     0
100
AcDbSpline
210
0.0
220
0.0
230
1.0
 70
    11
 71
     3
 72
    26
 73
    22
 74
     0
 42
0.0000000001
 43
0.0000000001
 12
1.0
 22
0.0
 32
0.0
 13
1.0
 23
0.0
 33
0.0
 40
0.0
 40
0.0
 40
0.0
 40
0.0
 40
1.0
 40
1.0
 40
1.0
 40
2.0
 40
2.0
 40
2.0
 40
3.0
 40
3.0
 40
3.0
 40
4.0
 40
4.0
 40
4.0
 40
5.0
 40
5.0
 40
5.0
 40
6.0
 40
6.0
 40
6.0
 40
7.0
 40
7.0
 40
7.0
 40
7.0
 10
3.118055555555555
 20
2.505555470784505
 30
0.0
 10
3.102777693006727
 20
2.476388719346788
 30
0.0
 10
3.087500042385525
 20
2.443055470784505
 30
0.0
 10
3.072222179836697
 20
2.411111195882161
 30
0.0
 10
3.027777777777778
 20
2.472222222222222
 30
0.0
 10
3.009722179836697
 20
2.543055640326606
 30
0.0
 10
3.002777735392252
 20
2.618055555555555
 30
0.0
 10
3.031944486829969
 20
2.630555470784505
 30
0.0
 10
3.056944317287869
 20
2.658333248562283
 30
0.0
 10
3.076388888888889
 20
2.684722264607747
 30
0.0
 10
3.104166666666667
 20
2.676388846503364
 30
0.0
 10
3.143055597941081
 20
2.666666666666667
 30
0.0
 10
3.17500008477105
 20
2.673611111111111
 30
0.0
 10
3.213889016045464
 20
2.606944402058919
 30
0.0
 10
3.238889058430989
 20
2.540277693006727
 30
0.0
 10
3.238889058430989
 20
2.465277777777778
 30
0.0
 10
3.20694457160102
 20
2.481944402058919
 30
0.0
 10
3.17500008477105
 20
2.501388973659939
 30
0.0
 10
3.148611280653212
 20
2.513888888888889
 30
0.0
 10
3.136111153496636
 20
2.518055597941081
 30
0.0
 10
3.123611026340061
 20
2.516666624281141
 30
0.0
 10
3.118055555555555
 20
2.505555470784505
 30
0.0
  0
SPLINE
  5
58
330
41
100
AcDbEntity
  8
Calque 1
370
     0
100
AcDbSpline
210
0.0
220
0.0
230
1.0
 70
    11
 71
     3
 72
    17
 73
    13
 74
     0
 42
0.0000000001
 43
0.0000000001
 12
1.0
 22
0.0
 32
0.0
 13
1.0
 23
0.0
 33
0.0
 40
0.0
 40
0.0
 40
0.0
 40
0.0
 40
1.0
 40
1.0
 40
1.0
 40
2.0
 40
2.0
 40
2.0
 40
3.0
 40
3.0
 40
3.0
 40
4.0
 40
4.0
 40
4.0
 40
4.0
 10
3.345833248562283
 20
2.431944529215495
 30
0.0
 10
3.32361094156901
 20
2.431944529215495
 30
0.0
 10
3.301388846503364
 20
2.4375
 30
0.0
 10
3.279166539510091
 20
2.445833418104383
 30
0.0
 10
3.281944274902344
 20
2.508333418104383
 30
0.0
 10
3.269444359673394
 20
2.566666709052192
 30
0.0
 10
3.245833290947808
 20
2.622222264607747
 30
0.0
 10
3.302777820163303
 20
2.58194457160102
 30
0.0
 10
3.368055555555555
 20
2.552777820163303
 30
0.0
 10
3.4375
 20
2.538888931274414
 30
0.0
 10
3.427777820163303
 20
2.481944402058919
 30
0.0
 10
3.404166751437717
 20
2.431944529215495
 30
0.0
 10
3.345833248562283
 20
2.431944529215495
 30
0.0
  0
SPLINE
  5
59
330
41
100
AcDbEntity
  8
Calque 1
370
     0
100
AcDbSpline
210
0.0
220
0.0
230
1.0
 70
    11
 71
     3
 72
    17
 73
    13
 74
     0
 42
0.0000000001
 43
0.0000000001
 12
1.0
 22
0.0
 32
0.0
 13
1.0
 23
0.0
 33
0.0
 40
0.0
 40
0.0
 40
0.0
 40
0.0
 40
1.0
 40
1.0
 40
1.0
 40
2.0
 40
2.0
 40
2.0
 40
3.0
 40
3.0
 40
3.0
 40
4.0
 40
4.0
 40
4.0
 40
4.0
 10
3.555555555555555
 20
2.69999991522895
 30
0.0
 10
3.519444359673394
 20
2.76249991522895
 30
0.0
 10
3.472222222222222
 20
2.816666497124566
 30
0.0
 10
3.415277693006727
 20
2.858333163791233
 30
0.0
 10
3.476388719346788
 20
2.852777693006727
 30
0.0
 10
3.536110983954535
 20
2.856944190131293
 30
0.0
 10
3.597222222222222
 20
2.879166497124566
 30
0.0
 10
3.609722137451172
 20
2.862499872843424
 30
0.0
 10
3.620833502875434
 20
2.845833248562283
 30
0.0
 10
3.626388973659939
 20
2.829166412353516
 30
0.0
 10
3.647222306993272
 20
2.768055597941081
 30
0.0
 10
3.606944613986545
 20
2.727777693006727
 30
0.0
 10
3.555555555555555
 20
2.69999991522895
 30
0.0
  0
SPLINE
  5
5A
330
41
100
AcDbEntity
  8
Calque 1
370
     0
100
AcDbSpline
210
0.0
220
0.0
230
1.0
 70
    11
 71
     3
 72
    32
 73
    28
 74
     0
 42
0.0000000001
 43
0.0000000001
 12
1.0
 22
0.0
 32
0.0
 13
1.0
 23
0.0
 33
0.0
 40
0.0
 40
0.0
 40
0.0
 40
0.0
 40
1.0
 40
1.0
 40
1.0
 40
2.0
 40
2.0
 40
2.0
 40
3.0
 40
3.0
 40
3.0
 40
4.0
 40
4.0
 40
4.0
 40
5.0
 40
5.0
 40
5.0
 40
6.0
 40
6.0
 40
6.0
 40
7.0
 40
7.0
 40
7.0
 40
8.0
 40
8.0
 40
8.0
 40
9.0
 40
9.0
 40
9.0
 40
9.0
 10
3.565277947319878
 20
2.912499957614475
 30
0.0
 10
3.493055767483181
 20
2.890277650621202
 30
0.0
 10
3.422222349378798
 20
2.894444359673394
 30
0.0
 10
3.347222434149848
 20
2.911110983954535
 30
0.0
 10
3.345833460489909
 20
2.911110983954535
 30
0.0
 10
3.345833460489909
 20
2.911110983954535
 30
0.0
 10
3.344444698757595
 20
2.911110983954535
 30
0.0
 10
3.337500254313151
 20
2.943055470784505
 30
0.0
 10
3.309722476535373
 20
2.970833248562283
 30
0.0
 10
3.308333502875434
 20
2.999999788072374
 30
0.0
 10
3.306944529215495
 20
3.018055386013455
 30
0.0
 10
3.33194457160102
 20
3.04305542839898
 30
0.0
 10
3.337500254313151
 20
3.063888761732313
 30
0.0
 10
3.340277989705403
 20
3.072222179836697
 30
0.0
 10
3.341666963365343
 20
3.080555386013455
 30
0.0
 10
3.343055725097656
 20
3.090277565850152
 30
0.0
 10
3.419444613986545
 20
3.106944190131293
 30
0.0
 10
3.490278032090929
 20
3.109721925523546
 30
0.0
 10
3.563888973659939
 20
3.087499830457899
 30
0.0
 10
3.5375001695421
 20
3.061111026340061
 30
0.0
 10
3.508333418104383
 20
3.037499745686849
 30
0.0
 10
3.48750008477105
 20
3.015277650621202
 30
0.0
 10
3.479166666666667
 20
3.006944232516819
 30
0.0
 10
3.479166666666667
 20
2.994444317287869
 30
0.0
 10
3.48750008477105
 20
2.986110899183485
 30
0.0
 10
3.508333418104383
 20
2.963888804117838
 30
0.0
 10
3.538888931274414
 20
2.938888973659939
 30
0.0
 10
3.565277947319878
 20
2.912499957614475
 30
0.0
  0
HATCH
  5
5B
330
41
100
AcDbEntity
  8
Calque 1
 62
   178
420
   131587
100
AcDbHatch
 10
0.0
 20
0.0
 30
0.0
210
0.0
220
0.0
230
1.0
  2
SOLID
 70
     1
 71
     0
 91
       22
 92
        1
 93
        1
 72
     4
 94
        3
 73
     0
 74
     1
 95
       65
 96
       61
 40
0.0
 40
0.0
 40
0.0
 40
0.0
 40
1.0
 40
1.0
 40
1.0
 40
2.0
 40
2.0
 40
2.0
 40
3.0
 40
3.0
 40
3.0
 40
4.0
 40
4.0
 40
4.0
 40
5.0
 40
5.0
 40
5.0
 40
6.0
 40
6.0
 40
6.0
 40
7.0
 40
7.0
 40
7.0
 40
8.0
 40
8.0
 40
8.0
 40
9.0
 40
9.0
 40
9.0
 40
10.0
 40
10.0
 40
10.0
 40
11.0
 40
11.0
 40
11.0
 40
12.0
 40
12.0
 40
12.0
 40
13.0
 40
13.0
 40
13.0
 40
14.0
 40
14.0
 40
14.0
 40
15.0
 40
15.0
 40
15.0
 40
16.0
 40
16.0
 40
16.0
 40
17.0
 40
17.0
 40
17.0
 40
18.0
 40
18.0
 40
18.0
 40
19.0
 40
19.0
 40
19.0
 40
20.0
 40
20.0
 40
20.0
 40
20.0
 10
3.677777608235677
 20
3.224999957614475
 10
3.663888719346788
 20
3.308333290947808
 10
3.559722052680121
 20
3.348610983954535
 10
3.487499872843424
 20
3.375
 10
3.486110899183485
 20
3.452777862548828
 10
3.47916645473904
 20
3.563888973659939
 10
3.404166539510091
 20
3.602777693006727
 10
3.32499991522895
 20
3.643055386013454
 10
3.220833248562283
 20
3.57361094156901
 10
3.147222095065647
 20
3.533333248562283
 10
3.111110899183485
 20
3.606944402058919
 10
3.068055470784505
 20
3.726388719346788
 10
2.98055542839898
 20
3.740277608235677
 10
2.895833121405707
 20
3.754166497124566
 10
2.82499991522895
 20
3.66805542839898
 10
2.777777565850152
 20
3.60555542839898
 10
2.699999703301323
 20
3.629166497124566
 10
2.579166412353516
 20
3.659722010294596
 10
2.52361085679796
 20
3.583333121405707
 10
2.474999745686849
 20
3.518055386013454
 10
2.505555258856879
 20
3.408333036634657
 10
2.520833121405707
 20
3.329166412353516
 10
2.440277523464627
 20
3.318055258856879
 10
2.320833206176758
 20
3.313888549804688
 10
2.276388592190213
 20
3.24166636996799
 10
2.230555216471354
 20
3.165277481079102
 10
2.293055216471354
 20
3.065277523464627
 10
2.338888592190213
 20
2.999999788072374
 10
2.293055216471354
 20
2.934722052680121
 10
2.230555216471354
 20
2.834722095065647
 10
2.276388592190213
 20
2.758333206176758
 10
2.320832994249132
 20
2.684722052680121
 10
2.440277523464627
 20
2.681944317287869
 10
2.520833121405707
 20
2.670833163791233
 10
2.506944232516819
 20
2.593055301242404
 10
2.476388719346788
 20
2.481944190131293
 10
2.52361085679796
 20
2.416666666666667
 10
2.579166412353516
 20
2.341666751437717
 10
2.699999703301323
 20
2.370833502875434
 10
2.777777565850152
 20
2.394444359673394
 10
2.824999703301323
 20
2.331944359673394
 10
2.895833121405707
 20
2.245833079020182
 10
2.98055542839898
 20
2.259721967909071
 10
3.068055470784505
 20
2.27361085679796
 10
3.111110899183485
 20
2.393055386013455
 10
3.147222095065647
 20
2.466666327582465
 10
3.220833248562283
 20
2.426388634575738
 10
3.326388676961263
 20
2.356944190131293
 10
3.404166539510091
 20
2.397221883138021
 10
3.47916645473904
 20
2.436110602484809
 10
3.486110899183485
 20
2.547221925523546
 10
3.487499872843424
 20
2.624999576144748
 10
3.561111026340061
 20
2.649999618530273
 10
3.663888719346788
 20
2.690277311537001
 10
3.677777608235677
 20
2.774999618530273
 10
3.693055470784505
 20
2.862499660915799
 10
3.593055301242404
 20
2.94166628519694
 10
3.533333248562283
 20
2.999999576144748
 10
3.593055725097656
 20
3.058333290947808
 10
3.691666497124566
 20
3.136111153496636
 10
3.677777608235677
 20
3.224999957614475
 97
        0
 97
        0
 92
        1
 93
        1
 72
     4
 94
        3
 73
     0
 74
     1
 95
       17
 96
       13
 40
0.0
 40
0.0
 40
0.0
 40
0.0
 40
1.0
 40
1.0
 40
1.0
 40
2.0
 40
2.0
 40
2.0
 40
3.0
 40
3.0
 40
3.0
 40
4.0
 40
4.0
 40
4.0
 40
4.0
 10
3.626388973659939
 20
3.170833375718858
 10
3.620833502875434
 20
3.152777777777778
 10
3.608333587646484
 20
3.136111153496636
 10
3.595833248562283
 20
3.119444529215495
 10
3.536110983954535
 20
3.141666836208767
 10
3.476388719346788
 20
3.147222306993272
 10
3.415277693006727
 20
3.141666836208767
 10
3.472222222222222
 20
3.183333502875434
 10
3.520833333333333
 20
3.236111323038737
 10
3.555555555555555
 20
3.298611323038737
 10
3.606944613986545
 20
3.272222306993272
 10
3.647222306993272
 20
3.231944402058919
 10
3.626388973659939
 20
3.170833375718858
 97
        0
 97
        0
 92
        1
 93
        1
 72
     4
 94
        3
 73
     0
 74
     1
 95
       26
 96
       22
 40
0.0
 40
0.0
 40
0.0
 40
0.0
 40
1.0
 40
1.0
 40
1.0
 40
2.0
 40
2.0
 40
2.0
 40
3.0
 40
3.0
 40
3.0
 40
4.0
 40
4.0
 40
4.0
 40
5.0
 40
5.0
 40
5.0
 40
6.0
 40
6.0
 40
6.0
 40
7.0
 40
7.0
 40
7.0
 40
7.0
 10
3.459722306993272
 20
2.661111195882161
 10
3.451388888888889
 20
2.658333460489909
 10
3.444444444444444
 20
2.650000042385525
 10
3.444444444444444
 20
2.640277862548828
 10
3.444444444444444
 20
2.622222264607747
 10
3.444444444444444
 20
2.601388931274414
 10
3.441666709052192
 20
2.579166836208767
 10
3.354166666666667
 20
2.598611195882161
 10
3.277777777777778
 20
2.638889100816515
 10
3.213889016045464
 20
2.701389100816515
 10
3.230555640326606
 20
2.730555852254231
 10
3.226388931274414
 20
2.781944698757596
 10
3.223611195882161
 20
2.816666920979817
 10
3.258333418104383
 20
2.825000339084201
 10
3.306944529215495
 20
2.837500254313151
 10
3.329166836208767
 20
2.861111323038737
 10
3.408333460489909
 20
2.81944465637207
 10
3.472222434149848
 20
2.759722391764323
 10
3.516666836208767
 20
2.68194474114312
 10
3.497222264607747
 20
2.673611111111111
 10
3.476388931274414
 20
2.666666666666667
 10
3.459722306993272
 20
2.661111195882161
 97
        0
 97
        0
 92
        1
 93
        1
 72
     4
 94
        3
 73
     0
 74
     1
 95
       98
 96
       94
 40
0.0
 40
0.0
 40
0.0
 40
0.0
 40
1.0
 40
1.0
 40
1.0
 40
2.0
 40
2.0
 40
2.0
 40
3.0
 40
3.0
 40
3.0
 40
4.0
 40
4.0
 40
4.0
 40
5.0
 40
5.0
 40
5.0
 40
6.0
 40
6.0
 40
6.0
 40
7.0
 40
7.0
 40
7.0
 40
8.0
 40
8.0
 40
8.0
 40
9.0
 40
9.0
 40
9.0
 40
10.0
 40
10.0
 40
10.0
 40
11.0
 40
11.0
 40
11.0
 40
12.0
 40
12.0
 40
12.0
 40
13.0
 40
13.0
 40
13.0
 40
14.0
 40
14.0
 40
14.0
 40
15.0
 40
15.0
 40
15.0
 40
16.0
 40
16.0
 40
16.0
 40
17.0
 40
17.0
 40
17.0
 40
18.0
 40
18.0
 40
18.0
 40
19.0
 40
19.0
 40
19.0
 40
20.0
 40
20.0
 40
20.0
 40
21.0
 40
21.0
 40
21.0
 40
22.0
 40
22.0
 40
22.0
 40
23.0
 40
23.0
 40
23.0
 40
24.0
 40
24.0
 40
24.0
 40
25.0
 40
25.0
 40
25.0
 40
26.0
 40
26.0
 40
26.0
 40
27.0
 40
27.0
 40
27.0
 40
28.0
 40
28.0
 40
28.0
 40
29.0
 40
29.0
 40
29.0
 40
30.0
 40
30.0
 40
30.0
 40
31.0
 40
31.0
 40
31.0
 40
31.0
 10
3.072222179836697
 20
2.729166666666667
 10
3.0625
 20
2.731944402058919
 10
3.054166581895616
 20
2.726388931274414
 10
3.048611111111111
 20
2.719444486829969
 10
3.027777777777778
 20
2.690277735392252
 10
3.0
 20
2.645833333333333
 10
2.951388888888889
 20
2.673611111111111
 10
2.931944529215495
 20
2.684722264607747
 10
2.913888931274414
 20
2.722222222222222
 10
2.901388804117838
 20
2.740277820163303
 10
2.897222095065647
 20
2.747222264607747
 10
2.88611094156901
 20
2.752777735392252
 10
2.877777735392252
 20
2.75
 10
2.854166666666667
 20
2.741666581895616
 10
2.819444444444444
 20
2.722222222222222
 10
2.79305542839898
 20
2.723611195882161
 10
2.738888846503364
 20
2.7250001695421
 10
2.74305534362793
 20
2.780555725097656
 10
2.744444317287869
 20
2.820833418104383
 10
2.744444317287869
 20
2.830555597941081
 10
2.737499872843424
 20
2.838889016045464
 10
2.729166454739041
 20
2.841666751437717
 10
2.694444232516819
 20
2.851388931274414
 10
2.654166539510091
 20
2.861111111111111
 10
2.652777565850152
 20
2.900000042385525
 10
2.651388592190213
 20
2.931944529215495
 10
2.683333079020182
 20
2.962500042385525
 10
2.701388676961263
 20
2.986111111111111
 10
2.705555386013455
 20
2.990277820163303
 10
2.706944147745768
 20
2.995833290947808
 10
2.705555386013455
 20
3.001388973659939
 10
2.705555386013455
 20
3.006944444444444
 10
2.704166412353516
 20
3.011111153496636
 10
2.701388676961263
 20
3.016666836208767
 10
2.683333079020182
 20
3.040277904934353
 10
2.651388592190213
 20
3.070833418104383
 10
2.652777565850152
 20
3.102777904934353
 10
2.654166539510091
 20
3.141666836208767
 10
2.695833206176758
 20
3.151389016045464
 10
2.729166454739041
 20
3.161111195882161
 10
2.737499872843424
 20
3.163888931274414
 10
2.744444317287869
 20
3.172222349378798
 10
2.744444317287869
 20
3.181944529215495
 10
2.74305534362793
 20
3.222222222222222
 10
2.738888846503364
 20
3.277777777777778
 10
2.79305542839898
 20
3.279166751437717
 10
2.818055470784505
 20
3.280555725097656
 10
2.854166454739041
 20
3.261111153496636
 10
2.877777735392252
 20
3.252777947319878
 10
2.886111153496636
 20
3.250000211927626
 10
2.897222095065647
 20
3.255555682712131
 10
2.901388804117838
 20
3.262500127156575
 10
2.911110983954535
 20
3.276389016045464
 10
2.938888761732313
 20
3.325000127156575
 10
2.951388888888889
 20
3.329166836208767
 10
2.995833290947808
 20
3.345833460489909
 10
3.026388804117838
 20
3.315277947319878
 10
3.048611111111111
 20
3.283333460489909
 10
3.054166581895616
 20
3.276389016045464
 10
3.0625
 20
3.270833545260959
 10
3.072222179836697
 20
3.273611280653212
 10
3.112499872843424
 20
3.2875001695421
 10
3.165277693006727
 20
3.304166793823242
 10
3.181944317287869
 20
3.247222476535373
 10
3.188888761732313
 20
3.2250001695421
 10
3.183333290947808
 20
3.193055894639757
 10
3.181944317287869
 20
3.169444613986545
 10
3.181944317287869
 20
3.159722434149848
 10
3.188888761732313
 20
3.151389016045464
 10
3.197222179836697
 20
3.148611280653212
 10
3.21805551317003
 20
3.143055809868706
 10
3.284722222222222
 20
3.130555682712131
 10
3.295833375718858
 20
3.113889058430989
 10
3.318055682712131
 20
3.083333545260959
 10
3.277777777777778
 20
3.034722434149848
 10
3.259722179836697
 20
3.012500127156575
 10
3.255555470784505
 20
3.00694465637207
 10
3.255555470784505
 20
2.997222264607747
 10
3.259722179836697
 20
2.991666793823242
 10
3.277777777777778
 20
2.968055725097656
 10
3.316666709052192
 20
2.920833375718858
 10
3.295833375718858
 20
2.890277862548828
 10
3.284722222222222
 20
2.873611238267686
 10
3.21805551317003
 20
2.861111111111111
 10
3.197222179836697
 20
2.855555640326606
 10
3.188888761732313
 20
2.852777904934353
 10
3.181944317287869
 20
2.844444486829969
 10
3.181944317287869
 20
2.834722306993272
 10
3.183333290947808
 20
2.811111238267686
 10
3.187499788072374
 20
2.780555725097656
 10
3.181944317287869
 20
2.756944444444444
 10
3.165277693006727
 20
2.697222179836697
 10
3.11250008477105
 20
2.713888804117838
 10
3.072222179836697
 20
2.729166666666667
 97
        0
 97
        0
 92
        1
 93
        1
 72
     4
 94
        3
 73
     0
 74
     1
 95
       26
 96
       22
 40
0.0
 40
0.0
 40
0.0
 40
0.0
 40
1.0
 40
1.0
 40
1.0
 40
2.0
 40
2.0
 40
2.0
 40
3.0
 40
3.0
 40
3.0
 40
4.0
 40
4.0
 40
4.0
 40
5.0
 40
5.0
 40
5.0
 40
6.0
 40
6.0
 40
6.0
 40
7.0
 40
7.0
 40
7.0
 40
7.0
 10
2.547222137451172
 20
2.708333333333333
 10
2.516666624281141
 20
2.713888804117838
 10
2.477777693006727
 20
2.716666751437717
 10
2.441666497124566
 20
2.722222222222222
 10
2.486110899183485
 20
2.783333248562283
 10
2.548610899183485
 20
2.823611153496636
 10
2.61805534362793
 20
2.854166666666667
 10
2.638888676961263
 20
2.830555597941081
 10
2.673610899183485
 20
2.815277735392252
 10
2.702777650621202
 20
2.804166581895616
 10
2.702777650621202
 20
2.773611068725586
 10
2.706944359673394
 20
2.734722137451172
 10
2.723610983954535
 20
2.706944359673394
 10
2.673610899183485
 20
2.649999830457899
 10
2.616666581895616
 20
2.604166666666667
 10
2.544444402058919
 20
2.580555386013455
 10
2.549999872843424
 20
2.615277608235677
 10
2.559722264607747
 20
2.651388804117838
 10
2.563888761732313
 20
2.68055534362793
 10
2.563888973659939
 20
2.693055470784505
 10
2.559722264607747
 20
2.705555597941081
 10
2.547222137451172
 20
2.708333333333333
 97
        0
 97
        0
 92
        1
 93
        1
 72
     4
 94
        3
 73
     0
 74
     1
 95
       29
 96
       25
 40
0.0
 40
0.0
 40
0.0
 40
0.0
 40
1.0
 40
1.0
 40
1.0
 40
2.0
 40
2.0
 40
2.0
 40
3.0
 40
3.0
 40
3.0
 40
4.0
 40
4.0
 40
4.0
 40
5.0
 40
5.0
 40
5.0
 40
6.0
 40
6.0
 40
6.0
 40
7.0
 40
7.0
 40
7.0
 40
8.0
 40
8.0
 40
8.0
 40
8.0
 10
2.377777735392252
 20
2.98750008477105
 10
2.380555470784505
 20
2.990277820163303
 10
2.383333206176758
 20
2.994444529215495
 10
2.381944444444444
 20
3.0
 10
2.381944444444444
 20
3.004166709052192
 10
2.380555470784505
 20
3.008333418104383
 10
2.377777735392252
 20
3.01249991522895
 10
2.368055555555555
 20
3.026388804117838
 10
2.35555542839898
 20
3.044444402058919
 10
2.34305551317003
 20
3.063888761732313
 10
2.424999872843424
 20
3.099999957614475
 10
2.51249991522895
 20
3.112499872843424
 10
2.599999957614475
 20
3.099999957614475
 10
2.604166666666667
 20
3.065277735392252
 10
2.634722179836697
 20
3.029166539510091
 10
2.659722222222222
 20
3.001388761732313
 10
2.636111153496636
 20
2.973610983954535
 10
2.604166666666667
 20
2.936111026340061
 10
2.599999957614475
 20
2.902777565850152
 10
2.51249991522895
 20
2.890277650621202
 10
2.424999872843424
 20
2.902777565850152
 10
2.34305551317003
 20
2.938888761732313
 10
2.355555640326606
 20
2.955555597941081
 10
2.368055555555555
 20
2.972222222222222
 10
2.377777735392252
 20
2.98750008477105
 97
        0
 97
        0
 92
        1
 93
        1
 72
     4
 94
        3
 73
     0
 74
     1
 95
       26
 96
       22
 40
0.0
 40
0.0
 40
0.0
 40
0.0
 40
1.0
 40
1.0
 40
1.0
 40
2.0
 40
2.0
 40
2.0
 40
3.0
 40
3.0
 40
3.0
 40
4.0
 40
4.0
 40
4.0
 40
5.0
 40
5.0
 40
5.0
 40
6.0
 40
6.0
 40
6.0
 40
7.0
 40
7.0
 40
7.0
 40
7.0
 10
2.5625
 20
3.318055470784505
 10
2.558333290947808
 20
3.348610983954535
 10
2.55000008477105
 20
3.383333206176758
 10
2.543055640326606
 20
3.41805542839898
 10
2.615277820163303
 20
3.394444359673394
 10
2.672222349378798
 20
3.348610983954535
 10
2.722222222222222
 20
3.29166645473904
 10
2.705555597941081
 20
3.263888676961263
 10
2.702777862548828
 20
3.224999745686849
 10
2.702777862548828
 20
3.194444232516819
 10
2.673611111111111
 20
3.184722052680121
 10
2.637500127156575
 20
3.169444190131293
 10
2.616666793823242
 20
3.145833121405707
 10
2.547222349378798
 20
3.176388634575738
 10
2.486111323038737
 20
3.215277565850152
 10
2.441666709052192
 20
3.276388592190212
 10
2.477777904934353
 20
3.281944062974718
 10
2.515277862548828
 20
3.284722010294596
 10
2.547222349378798
 20
3.290277481079102
 10
2.559722264607747
 20
3.294444402058919
 10
2.563888973659939
 20
3.306944529215495
 10
2.5625
 20
3.318055470784505
 97
        0
 97
        0
 92
        1
 93
        1
 72
     4
 94
        3
 73
     0
 74
     1
 95
       26
 96
       22
 40
0.0
 40
0.0
 40
0.0
 40
0.0
 40
1.0
 40
1.0
 40
1.0
 40
2.0
 40
2.0
 40
2.0
 40
3.0
 40
3.0
 40
3.0
 40
4.0
 40
4.0
 40
4.0
 40
5.0
 40
5.0
 40
5.0
 40
6.0
 40
6.0
 40
6.0
 40
7.0
 40
7.0
 40
7.0
 40
7.0
 10
3.444444444444444
 20
3.358333375718858
 10
3.444444444444444
 20
3.348611195882161
 10
3.451388888888889
 20
3.341666751437717
 10
3.459722306993272
 20
3.337500042385525
 10
3.476388931274414
 20
3.33194457160102
 10
3.495833502875434
 20
3.325000127156575
 10
3.516666836208767
 20
3.316666709052192
 10
3.472222434149848
 20
3.238888846503364
 10
3.408333460489909
 20
3.179166793823242
 10
3.329166836208767
 20
3.138888888888889
 10
3.305555767483181
 20
3.162499957614475
 10
3.25694465637207
 20
3.173611111111111
 10
3.223611195882161
 20
3.181944529215495
 10
3.226388931274414
 20
3.216666751437717
 10
3.230555640326606
 20
3.268055597941081
 10
3.213889016045464
 20
3.297222349378798
 10
3.277777989705403
 20
3.359722349378798
 10
3.354166878594292
 20
3.400000042385525
 10
3.441666709052192
 20
3.419444613986545
 10
3.444444444444444
 20
3.398611068725586
 10
3.444444444444444
 20
3.376388973659939
 10
3.444444444444444
 20
3.358333375718858
 97
        0
 97
        0
 92
        1
 93
        1
 72
     4
 94
        3
 73
     0
 74
     1
 95
       17
 96
       13
 40
0.0
 40
0.0
 40
0.0
 40
0.0
 40
1.0
 40
1.0
 40
1.0
 40
2.0
 40
2.0
 40
2.0
 40
3.0
 40
3.0
 40
3.0
 40
4.0
 40
4.0
 40
4.0
 40
4.0
 10
3.4375
 20
3.462500042385525
 10
3.366666581895616
 20
3.448611153496636
 10
3.302777820163303
 20
3.419444402058919
 10
3.245833290947808
 20
3.379166709052192
 10
3.269444359673394
 20
3.434722264607747
 10
3.281944486829969
 20
3.493055555555555
 10
3.279166539510091
 20
3.555555555555555
 10
3.301388846503364
 20
3.563888973659939
 10
3.32361094156901
 20
3.569444444444444
 10
3.345833248562283
 20
3.569444444444444
 10
3.404166751437717
 20
3.568055470784505
 10
3.427777820163303
 20
3.518055597941081
 10
3.4375
 20
3.462500042385525
 97
        0
 97
        0
 92
        1
 93
        1
 72
     4
 94
        3
 73
     0
 74
     1
 95
       26
 96
       22
 40
0.0
 40
0.0
 40
0.0
 40
0.0
 40
1.0
 40
1.0
 40
1.0
 40
2.0
 40
2.0
 40
2.0
 40
3.0
 40
3.0
 40
3.0
 40
4.0
 40
4.0
 40
4.0
 40
5.0
 40
5.0
 40
5.0
 40
6.0
 40
6.0
 40
6.0
 40
7.0
 40
7.0
 40
7.0
 40
7.0
 10
3.145833333333333
 20
3.486111111111111
 10
3.173611111111111
 20
3.5
 10
3.204166624281141
 20
3.519444359673394
 10
3.236111111111111
 20
3.534722222222222
 10
3.236111111111111
 20
3.458333333333333
 10
3.209722306993272
 20
3.393055597941081
 10
3.172222137451172
 20
3.326388888888889
 10
3.141666624281141
 20
3.333333333333333
 10
3.101388719346788
 20
3.323611153496636
 10
3.07361094156901
 20
3.315277735392252
 10
3.05555534362793
 20
3.340277777777778
 10
3.029166539510091
 20
3.369444317287869
 10
2.999999788072374
 20
3.381944444444444
 10
3.006944232516819
 20
3.456944359673394
 10
3.026388592190213
 20
3.527777777777778
 10
3.069444232516819
 20
3.588888804117838
 10
3.08611085679796
 20
3.556944317287869
 10
3.099999745686849
 20
3.523611068725586
 10
3.115277608235677
 20
3.494444317287869
 10
3.123611026340061
 20
3.483333375718858
 10
3.136111153496636
 20
3.481944402058919
 10
3.145833333333333
 20
3.486111111111111
 97
        0
 97
        0
 92
        1
 93
        1
 72
     4
 94
        3
 73
     0
 74
     1
 95
       17
 96
       13
 40
0.0
 40
0.0
 40
0.0
 40
0.0
 40
1.0
 40
1.0
 40
1.0
 40
2.0
 40
2.0
 40
2.0
 40
3.0
 40
3.0
 40
3.0
 40
4.0
 40
4.0
 40
4.0
 40
4.0
 10
3.018055597941081
 20
3.670833375718858
 10
3.029166751437717
 20
3.658333460489909
 10
3.040277904934353
 20
3.64444457160102
 10
3.05000008477105
 20
3.629166709052192
 10
3.011111153496636
 20
3.579166624281141
 10
2.98750008477105
 20
3.525000042385525
 10
2.973611195882161
 20
3.466666751437717
 10
2.951388888888889
 20
3.533333460489909
 10
2.915277904934353
 20
3.594444486829969
 10
2.866666793823242
 20
3.647222306993272
 10
2.912499957614475
 20
3.691666709052192
 10
2.969444486829969
 20
3.722222222222222
 10
3.018055597941081
 20
3.670833375718858
 97
        0
 97
        0
 92
        1
 93
        1
 72
     4
 94
        3
 73
     0
 74
     1
 95
       26
 96
       22
 40
0.0
 40
0.0
 40
0.0
 40
0.0
 40
1.0
 40
1.0
 40
1.0
 40
2.0
 40
2.0
 40
2.0
 40
3.0
 40
3.0
 40
3.0
 40
4.0
 40
4.0
 40
4.0
 40
5.0
 40
5.0
 40
5.0
 40
6.0
 40
6.0
 40
6.0
 40
7.0
 40
7.0
 40
7.0
 40
7.0
 10
2.801388846503364
 20
3.569444444444444
 10
2.811111026340061
 20
3.583333333333333
 10
2.823611153496636
 20
3.599999957614475
 10
2.838888804117838
 20
3.616666581895616
 10
2.898611068725586
 20
3.549999872843424
 10
2.9375
 20
3.470833248562283
 10
2.952777650621202
 20
3.383333206176758
 10
2.922222137451172
 20
3.369444317287869
 10
2.895833121405707
 20
3.326388676961263
 10
2.876388761732313
 20
3.297222137451172
 10
2.84305551317003
 20
3.311111026340061
 10
2.798610899183485
 20
3.330555386013454
 10
2.763888676961263
 20
3.32361094156901
 10
2.724999745686849
 20
3.404166539510091
 10
2.709722095065647
 20
3.490277608235677
 10
2.718055301242404
 20
3.579166412353516
 10
2.740277608235677
 20
3.57361094156901
 10
2.762499703301323
 20
3.566666497124566
 10
2.777777565850152
 20
3.561110814412435
 10
2.787499957614475
 20
3.556944529215495
 10
2.795833375718858
 20
3.5625
 10
2.801388846503364
 20
3.569444444444444
 97
        0
 97
        0
 92
        1
 93
        1
 72
     4
 94
        3
 73
     0
 74
     1
 95
       17
 96
       13
 40
0.0
 40
0.0
 40
0.0
 40
0.0
 40
1.0
 40
1.0
 40
1.0
 40
2.0
 40
2.0
 40
2.0
 40
3.0
 40
3.0
 40
3.0
 40
4.0
 40
4.0
 40
4.0
 40
4.0
 10
2.543055640326606
 20
3.53055551317003
 10
2.559722264607747
 20
3.588888804117838
 10
2.618055555555555
 20
3.594444486829969
 10
2.676389058430989
 20
3.586111068725586
 10
2.668055640326606
 20
3.513888888888889
 10
2.67500008477105
 20
3.444444444444444
 10
2.695833418104383
 20
3.376388761732313
 10
2.650000042385525
 20
3.415277693006727
 10
2.598611195882161
 20
3.445833206176758
 10
2.5375001695421
 20
3.462499830457899
 10
2.536111195882161
 20
3.48750008477105
 10
2.537499957614475
 20
3.509722179836697
 10
2.543055640326606
 20
3.53055551317003
 97
        0
 97
        0
 92
        1
 93
        1
 72
     4
 94
        3
 73
     0
 74
     1
 95
       17
 96
       13
 40
0.0
 40
0.0
 40
0.0
 40
0.0
 40
1.0
 40
1.0
 40
1.0
 40
2.0
 40
2.0
 40
2.0
 40
3.0
 40
3.0
 40
3.0
 40
4.0
 40
4.0
 40
4.0
 40
4.0
 10
2.347222222222222
 20
3.25
 10
2.36250008477105
 20
3.258333418104383
 10
2.379166709052192
 20
3.263888888888889
 10
2.397222306993272
 20
3.269444359673394
 10
2.431944529215495
 20
3.216666539510091
 10
2.476388931274414
 20
3.177777608235677
 10
2.527777777777778
 20
3.147222095065647
 10
2.456944359673394
 20
3.145833121405707
 10
2.388888888888889
 20
3.131944232516819
 10
2.322222179836697
 20
3.101388719346788
 10
2.295833375718858
 20
3.15555551317003
 10
2.286111195882161
 20
3.215277777777778
 10
2.347222222222222
 20
3.25
 97
        0
 97
        0
 92
        1
 93
        1
 72
     4
 94
        3
 73
     0
 74
     1
 95
       17
 96
       13
 40
0.0
 40
0.0
 40
0.0
 40
0.0
 40
1.0
 40
1.0
 40
1.0
 40
2.0
 40
2.0
 40
2.0
 40
3.0
 40
3.0
 40
3.0
 40
4.0
 40
4.0
 40
4.0
 40
4.0
 10
2.323611153496636
 20
2.900000042385525
 10
2.390277862548828
 20
2.870833290947808
 10
2.458333333333333
 20
2.855555640326606
 10
2.527777777777778
 20
2.854166666666667
 10
2.476388931274414
 20
2.822222179836697
 10
2.430555555555555
 20
2.783333248562283
 10
2.397222306993272
 20
2.730555640326606
 10
2.379166709052192
 20
2.734722349378798
 10
2.36250008477105
 20
2.741666793823242
 10
2.348611195882161
 20
2.75
 10
2.287499957614475
 20
2.786111195882161
 10
2.297222137451172
 20
2.844444486829969
 10
2.323611153496636
 20
2.900000042385525
 97
        0
 97
        0
 92
        1
 93
        1
 72
     4
 94
        3
 73
     0
 74
     1
 95
       17
 96
       13
 40
0.0
 40
0.0
 40
0.0
 40
0.0
 40
1.0
 40
1.0
 40
1.0
 40
2.0
 40
2.0
 40
2.0
 40
3.0
 40
3.0
 40
3.0
 40
4.0
 40
4.0
 40
4.0
 40
4.0
 10
2.543055640326606
 20
2.469444486829969
 10
2.5375001695421
 20
2.490277820163303
 10
2.536111195882161
 20
2.512500127156575
 10
2.5375001695421
 20
2.536111195882161
 10
2.598611195882161
 20
2.552777820163303
 10
2.650000254313151
 20
2.583333333333333
 10
2.695833418104383
 20
2.622222264607747
 10
2.67500008477105
 20
2.555555555555555
 10
2.668055640326606
 20
2.484722349378798
 10
2.676389058430989
 20
2.4125001695421
 10
2.618055555555555
 20
2.405555725097656
 10
2.559722264607747
 20
2.411111195882161
 10
2.543055640326606
 20
2.469444486829969
 97
        0
 97
        0
 92
        1
 93
        1
 72
     4
 94
        3
 73
     0
 74
     1
 95
       26
 96
       22
 40
0.0
 40
0.0
 40
0.0
 40
0.0
 40
1.0
 40
1.0
 40
1.0
 40
2.0
 40
2.0
 40
2.0
 40
3.0
 40
3.0
 40
3.0
 40
4.0
 40
4.0
 40
4.0
 40
5.0
 40
5.0
 40
5.0
 40
6.0
 40
6.0
 40
6.0
 40
7.0
 40
7.0
 40
7.0
 40
7.0
 10
2.777777777777778
 20
2.438888973659939
 10
2.761111153496636
 20
2.433333502875434
 10
2.740277820163303
 20
2.427778032090929
 10
2.71805551317003
 20
2.420833587646484
 10
2.709722095065647
 20
2.509722391764323
 10
2.724999957614475
 20
2.595833672417534
 10
2.763888888888889
 20
2.676389058430989
 10
2.797222137451172
 20
2.669444613986545
 10
2.844444486829969
 20
2.690277947319878
 10
2.876388973659939
 20
2.702777862548828
 10
2.895833333333333
 20
2.672222349378798
 10
2.920833375718858
 20
2.630555682712131
 10
2.952777862548828
 20
2.616666793823242
 10
2.9375
 20
2.529166751437717
 10
2.898611280653212
 20
2.450000127156575
 10
2.838889016045464
 20
2.383333418104383
 10
2.825000127156575
 20
2.400000254313151
 10
2.811111238267686
 20
2.416666666666667
 10
2.801389058430989
 20
2.430555555555555
 10
2.795833375718858
 20
2.4375
 10
2.787499957614475
 20
2.443055470784505
 10
2.777777777777778
 20
2.438888973659939
 97
        0
 97
        0
 92
        1
 93
        1
 72
     4
 94
        3
 73
     0
 74
     1
 95
       17
 96
       13
 40
0.0
 40
0.0
 40
0.0
 40
0.0
 40
1.0
 40
1.0
 40
1.0
 40
2.0
 40
2.0
 40
2.0
 40
3.0
 40
3.0
 40
3.0
 40
4.0
 40
4.0
 40
4.0
 40
4.0
 10
2.866666581895616
 20
2.352777693006727
 10
2.915277693006727
 20
2.406944274902344
 10
2.951388888888889
 20
2.466666539510091
 10
2.973610983954535
 20
2.533333248562283
 10
2.987499872843424
 20
2.474999957614475
 10
3.01111094156901
 20
2.420833163791233
 10
3.049999872843424
 20
2.370833079020182
 10
3.040277693006727
 20
2.355555216471354
 10
3.03055551317003
 20
2.341666327582465
 10
3.018055386013455
 20
2.329166412353516
 10
2.969444486829969
 20
2.277777777777778
 10
2.912499957614475
 20
2.308333502875434
 10
2.866666581895616
 20
2.352777693006727
 97
        0
 97
        0
 92
        1
 93
        1
 72
     4
 94
        3
 73
     0
 74
     1
 95
       26
 96
       22
 40
0.0
 40
0.0
 40
0.0
 40
0.0
 40
1.0
 40
1.0
 40
1.0
 40
2.0
 40
2.0
 40
2.0
 40
3.0
 40
3.0
 40
3.0
 40
4.0
 40
4.0
 40
4.0
 40
5.0
 40
5.0
 40
5.0
 40
6.0
 40
6.0
 40
6.0
 40
7.0
 40
7.0
 40
7.0
 40
7.0
 10
3.118055555555555
 20
2.505555470784505
 10
3.102777693006727
 20
2.476388719346788
 10
3.087500042385525
 20
2.443055470784505
 10
3.072222179836697
 20
2.411111195882161
 10
3.027777777777778
 20
2.472222222222222
 10
3.009722179836697
 20
2.543055640326606
 10
3.002777735392252
 20
2.618055555555555
 10
3.031944486829969
 20
2.630555470784505
 10
3.056944317287869
 20
2.658333248562283
 10
3.076388888888889
 20
2.684722264607747
 10
3.104166666666667
 20
2.676388846503364
 10
3.143055597941081
 20
2.666666666666667
 10
3.17500008477105
 20
2.673611111111111
 10
3.213889016045464
 20
2.606944402058919
 10
3.238889058430989
 20
2.540277693006727
 10
3.238889058430989
 20
2.465277777777778
 10
3.20694457160102
 20
2.481944402058919
 10
3.17500008477105
 20
2.501388973659939
 10
3.148611280653212
 20
2.513888888888889
 10
3.136111153496636
 20
2.518055597941081
 10
3.123611026340061
 20
2.516666624281141
 10
3.118055555555555
 20
2.505555470784505
 97
        0
 97
        0
 92
        1
 93
        1
 72
     4
 94
        3
 73
     0
 74
     1
 95
       17
 96
       13
 40
0.0
 40
0.0
 40
0.0
 40
0.0
 40
1.0
 40
1.0
 40
1.0
 40
2.0
 40
2.0
 40
2.0
 40
3.0
 40
3.0
 40
3.0
 40
4.0
 40
4.0
 40
4.0
 40
4.0
 10
3.345833248562283
 20
2.431944529215495
 10
3.32361094156901
 20
2.431944529215495
 10
3.301388846503364
 20
2.4375
 10
3.279166539510091
 20
2.445833418104383
 10
3.281944274902344
 20
2.508333418104383
 10
3.269444359673394
 20
2.566666709052192
 10
3.245833290947808
 20
2.622222264607747
 10
3.302777820163303
 20
2.58194457160102
 10
3.368055555555555
 20
2.552777820163303
 10
3.4375
 20
2.538888931274414
 10
3.427777820163303
 20
2.481944402058919
 10
3.404166751437717
 20
2.431944529215495
 10
3.345833248562283
 20
2.431944529215495
 97
        0
 97
        0
 92
        1
 93
        1
 72
     4
 94
        3
 73
     0
 74
     1
 95
       17
 96
       13
 40
0.0
 40
0.0
 40
0.0
 40
0.0
 40
1.0
 40
1.0
 40
1.0
 40
2.0
 40
2.0
 40
2.0
 40
3.0
 40
3.0
 40
3.0
 40
4.0
 40
4.0
 40
4.0
 40
4.0
 10
3.555555555555555
 20
2.69999991522895
 10
3.519444359673394
 20
2.76249991522895
 10
3.472222222222222
 20
2.816666497124566
 10
3.415277693006727
 20
2.858333163791233
 10
3.476388719346788
 20
2.852777693006727
 10
3.536110983954535
 20
2.856944190131293
 10
3.597222222222222
 20
2.879166497124566
 10
3.609722137451172
 20
2.862499872843424
 10
3.620833502875434
 20
2.845833248562283
 10
3.626388973659939
 20
2.829166412353516
 10
3.647222306993272
 20
2.768055597941081
 10
3.606944613986545
 20
2.727777693006727
 10
3.555555555555555
 20
2.69999991522895
 97
        0
 97
        0
 92
        1
 93
        1
 72
     4
 94
        3
 73
     0
 74
     1
 95
       32
 96
       28
 40
0.0
 40
0.0
 40
0.0
 40
0.0
 40
1.0
 40
1.0
 40
1.0
 40
2.0
 40
2.0
 40
2.0
 40
3.0
 40
3.0
 40
3.0
 40
4.0
 40
4.0
 40
4.0
 40
5.0
 40
5.0
 40
5.0
 40
6.0
 40
6.0
 40
6.0
 40
7.0
 40
7.0
 40
7.0
 40
8.0
 40
8.0
 40
8.0
 40
9.0
 40
9.0
 40
9.0
 40
9.0
 10
3.565277947319878
 20
2.912499957614475
 10
3.493055767483181
 20
2.890277650621202
 10
3.422222349378798
 20
2.894444359673394
 10
3.347222434149848
 20
2.911110983954535
 10
3.345833460489909
 20
2.911110983954535
 10
3.345833460489909
 20
2.911110983954535
 10
3.344444698757595
 20
2.911110983954535
 10
3.337500254313151
 20
2.943055470784505
 10
3.309722476535373
 20
2.970833248562283
 10
3.308333502875434
 20
2.999999788072374
 10
3.306944529215495
 20
3.018055386013455
 10
3.33194457160102
 20
3.04305542839898
 10
3.337500254313151
 20
3.063888761732313
 10
3.340277989705403
 20
3.072222179836697
 10
3.341666963365343
 20
3.080555386013455
 10
3.343055725097656
 20
3.090277565850152
 10
3.419444613986545
 20
3.106944190131293
 10
3.490278032090929
 20
3.109721925523546
 10
3.563888973659939
 20
3.087499830457899
 10
3.5375001695421
 20
3.061111026340061
 10
3.508333418104383
 20
3.037499745686849
 10
3.48750008477105
 20
3.015277650621202
 10
3.479166666666667
 20
3.006944232516819
 10
3.479166666666667
 20
2.994444317287869
 10
3.48750008477105
 20
2.986110899183485
 10
3.508333418104383
 20
2.963888804117838
 10
3.538888931274414
 20
2.938888973659939
 10
3.565277947319878
 20
2.912499957614475
 97
        0
 97
        0
 75
     2
 76
     1
 98
        0
  0
SPLINE
  5
5C
330
41
100
AcDbEntity
  8
Calque 1
370
     0
100
AcDbSpline
210
0.0
220
0.0
230
1.0
 70
    11
 71
     3
 72
   122
 73
   118
 74
     0
 42
0.0000000001
 43
0.0000000001
 12
1.0
 22
0.0
 32
0.0
 13
1.0
 23
0.0
 33
0.0
 40
0.0
 40
0.0
 40
0.0
 40
0.0
 40
1.0
 40
1.0
 40
1.0
 40
2.0
 40
2.0
 40
2.0
 40
3.0
 40
3.0
 40
3.0
 40
4.0
 40
4.0
 40
4.0
 40
5.0
 40
5.0
 40
5.0
 40
6.0
 40
6.0
 40
6.0
 40
7.0
 40
7.0
 40
7.0
 40
8.0
 40
8.0
 40
8.0
 40
9.0
 40
9.0
 40
9.0
 40
10.0
 40
10.0
 40
10.0
 40
11.0
 40
11.0
 40
11.0
 40
12.0
 40
12.0
 40
12.0
 40
13.0
 40
13.0
 40
13.0
 40
14.0
 40
14.0
 40
14.0
 40
15.0
 40
15.0
 40
15.0
 40
16.0
 40
16.0
 40
16.0
 40
17.0
 40
17.0
 40
17.0
 40
18.0
 40
18.0
 40
18.0
 40
19.0
 40
19.0
 40
19.0
 40
20.0
 40
20.0
 40
20.0
 40
21.0
 40
21.0
 40
21.0
 40
22.0
 40
22.0
 40
22.0
 40
23.0
 40
23.0
 40
23.0
 40
24.0
 40
24.0
 40
24.0
 40
25.0
 40
25.0
 40
25.0
 40
26.0
 40
26.0
 40
26.0
 40
27.0
 40
27.0
 40
27.0
 40
28.0
 40
28.0
 40
28.0
 40
29.0
 40
29.0
 40
29.0
 40
30.0
 40
30.0
 40
30.0
 40
31.0
 40
31.0
 40
31.0
 40
32.0
 40
32.0
 40
32.0
 40
33.0
 40
33.0
 40
33.0
 40
34.0
 40
34.0
 40
34.0
 40
35.0
 40
35.0
 40
35.0
 40
36.0
 40
36.0
 40
36.0
 40
37.0
 40
37.0
 40
37.0
 40
38.0
 40
38.0
 40
38.0
 40
39.0
 40
39.0
 40
39.0
 40
39.0
 10
4.988889058430989
 20
3.536111195882161
 30
0.0
 10
5.005555894639756
 20
3.548611111111111
 30
0.0
 10
5.0
 20
3.573611153496636
 30
0.0
 10
4.977778116861979
 20
3.575000127156575
 30
0.0
 10
4.827778286404079
 20
3.580555597941081
 30
0.0
 10
4.751389397515191
 20
3.770833545260959
 30
0.0
 10
4.6625001695421
 20
3.869444529215495
 30
0.0
 10
4.593055725097656
 20
3.945833418104383
 30
0.0
 10
4.515277862548828
 20
4.029166751437717
 30
0.0
 10
4.411111195882161
 20
4.045833375718859
 30
0.0
 10
4.426389058430989
 20
4.151389016045465
 30
0.0
 10
4.370833502875434
 20
4.251388973659939
 30
0.0
 10
4.319444444444445
 20
4.340277777777778
 30
0.0
 10
4.252777947319879
 20
4.45555559794108
 30
0.0
 10
4.098611195882161
 20
4.584722201029459
 30
0.0
 10
4.13749991522895
 20
4.730555534362793
 30
0.0
 10
4.141666412353516
 20
4.747222158643934
 30
0.0
 10
4.122222052680121
 20
4.765277756585015
 30
0.0
 10
4.106944190131293
 20
4.754166603088379
 30
0.0
 10
4.024999830457899
 20
4.697222179836697
 30
0.0
 10
3.931944105360243
 20
4.668055534362793
 30
0.0
 10
3.833332909478081
 20
4.662499957614474
 30
0.0
 10
3.730555216471354
 20
4.656944380866157
 30
0.0
 10
3.602777269151475
 20
4.662499957614474
 30
0.0
 10
3.505555046929253
 20
4.69999991522895
 30
0.0
 10
3.32916620042589
 20
4.768055491977267
 30
0.0
 10
3.145832909478081
 20
4.899999936421712
 30
0.0
 10
3.083332909478081
 20
5.08333322736952
 30
0.0
 10
3.076388465033637
 20
5.104166560702853
 30
0.0
 10
3.049999660915799
 20
5.102777693006727
 30
0.0
 10
3.043055216471354
 20
5.08333322736952
 30
0.0
 10
2.99166636996799
 20
4.944444338480631
 30
0.0
 10
2.784721798366971
 20
4.92777771419949
 30
0.0
 10
2.665277481079102
 20
4.874999894036187
 30
0.0
 10
2.570832994249132
 20
4.83333322736952
 30
0.0
 10
2.469444062974718
 20
4.784722116258409
 30
0.0
 10
2.420832951863606
 20
4.691666603088379
 30
0.0
 10
2.322221755981445
 20
4.741666581895616
 30
0.0
 10
2.202777438693576
 20
4.716666645473904
 30
0.0
 10
2.09861077202691
 20
4.693055470784505
 30
0.0
 10
1.970833036634657
 20
4.663888825310601
 30
0.0
 10
1.806944105360243
 20
4.56111102634006
 30
0.0
 10
1.683332973056369
 20
4.644444359673394
 30
0.0
 10
1.668055216471354
 20
4.654166539510091
 30
0.0
 10
1.647221883138021
 20
4.63749991522895
 30
0.0
 10
1.652777459886339
 20
4.620833290947808
 30
0.0
 10
1.766666306389703
 20
4.247222158643934
 30
0.0
 10
1.412499745686849
 20
3.756944444444444
 30
0.0
 10
1.022221883138021
 20
3.751388973659939
 30
0.0
 10
1.005555258856879
 20
3.751388973659939
 30
0.0
 10
0.9930552376641167
 20
3.727777904934353
 30
0.0
 10
1.006944126553006
 20
3.715277777777778
 30
0.0
 10
1.126388549804688
 20
3.620833290947808
 30
0.0
 10
1.07638857099745
 20
3.426388846503364
 30
0.0
 10
1.090277459886339
 20
3.293055640326606
 30
0.0
 10
1.101388613382975
 20
3.190277947319878
 30
0.0
 10
1.113888528611925
 20
3.075000127156575
 30
0.0
 10
1.188888549804688
 20
2.998611238267686
 30
0.0
 10
1.113888528611925
 20
2.922222349378798
 30
0.0
 10
1.099999639723036
 20
2.806944529215495
 30
0.0
 10
1.090277459886339
 20
2.704166836208767
 30
0.0
 10
1.07638857099745
 20
2.56944465637207
 30
0.0
 10
1.126388549804688
 20
2.376388973659939
 30
0.0
 10
1.006944126553006
 20
2.281944698757596
 30
0.0
 10
0.9916663699679904
 20
2.269444783528646
 30
0.0
 10
1.005555258856879
 20
2.247222476535373
 30
0.0
 10
1.022221883138021
 20
2.245833502875434
 30
0.0
 10
1.412499639723036
 20
2.238889058430989
 30
0.0
 10
1.768055174085829
 20
1.748611450195312
 30
0.0
 10
1.652777459886339
 20
1.376388973659939
 30
0.0
 10
1.647221883138021
 20
1.359722137451172
 30
0.0
 10
1.668055216471354
 20
1.343055725097656
 30
0.0
 10
1.683332973056369
 20
1.352777693006727
 30
0.0
 10
1.806944105360243
 20
1.434722052680121
 30
0.0
 10
1.970833036634657
 20
1.331944359673394
 30
0.0
 10
2.09861077202691
 20
1.304166581895616
 30
0.0
 10
2.202777438693576
 20
1.280555301242404
 30
0.0
 10
2.322221967909071
 20
1.255555470784505
 30
0.0
 10
2.420832951863606
 20
1.305555555555556
 30
0.0
 10
2.470833036634657
 20
1.212499830457899
 30
0.0
 10
2.570832994249132
 20
1.163888719346788
 30
0.0
 10
2.665277481079102
 20
1.122222052680121
 30
0.0
 10
2.784722010294596
 20
1.069444444444444
 30
0.0
 10
2.99166636996799
 20
1.052777608235677
 30
0.0
 10
3.043055216471354
 20
0.9138887193467882
 30
0.0
 10
3.049999660915799
 20
0.8944443596733941
 30
0.0
 10
3.076388465033637
 20
0.8930553860134548
 30
0.0
 10
3.083332909478081
 20
0.9138887193467882
 30
0.0
 10
3.145832909478081
 20
1.09861077202691
 30
0.0
 10
3.32916620042589
 20
1.227777693006727
 30
0.0
 10
3.505555046929253
 20
1.297222137451172
 30
0.0
 10
3.598610772026909
 20
1.334722306993273
 30
0.0
 10
3.720832824707031
 20
1.340277777777778
 30
0.0
 10
3.819444020589192
 20
1.33611085679796
 30
0.0
 10
3.923610687255859
 20
1.331944359673394
 30
0.0
 10
4.020832909478082
 20
1.304166581895616
 30
0.0
 10
4.106944190131293
 20
1.244444105360243
 30
0.0
 10
4.122222052680121
 20
1.233333163791233
 30
0.0
 10
4.141666412353516
 20
1.251388549804688
 30
0.0
 10
4.13749991522895
 20
1.268055386013455
 30
0.0
 10
4.098611195882161
 20
1.413888719346788
 30
0.0
 10
4.252777523464626
 20
1.543055216471354
 30
0.0
 10
4.319444444444445
 20
1.658333248562283
 30
0.0
 10
4.370833502875434
 20
1.747222052680121
 30
0.0
 10
4.426389058430989
 20
1.848611195882161
 30
0.0
 10
4.411111195882161
 20
1.952777862548828
 30
0.0
 10
4.515277862548828
 20
1.970833248562283
 30
0.0
 10
4.593055725097656
 20
2.052778032090929
 30
0.0
 10
4.6625001695421
 20
2.129166920979817
 30
0.0
 10
4.751388973659939
 20
2.227778116861979
 30
0.0
 10
4.827777862548828
 20
2.418055640326606
 30
0.0
 10
4.977778116861979
 20
2.423611534966363
 30
0.0
 10
5.000000423855251
 20
2.425000508626302
 30
0.0
 10
5.004166920979817
 20
2.450000339084201
 30
0.0
 10
4.988889058430989
 20
2.462500466240777
 30
0.0
 10
4.679166581895616
 20
2.695833418104383
 30
0.0
 10
4.679166581895616
 20
3.304166581895616
 30
0.0
 10
4.988889058430989
 20
3.536111195882161
 30
0.0
  0
SPLINE
  5
5D
330
41
100
AcDbEntity
  8
Calque 1
370
     0
100
AcDbSpline
210
0.0
220
0.0
230
1.0
 70
    11
 71
     3
 72
    14
 73
    10
 74
     0
 42
0.0000000001
 43
0.0000000001
 12
1.0
 22
0.0
 32
0.0
 13
1.0
 23
0.0
 33
0.0
 40
0.0
 40
0.0
 40
0.0
 40
0.0
 40
1.0
 40
1.0
 40
1.0
 40
2.0
 40
2.0
 40
2.0
 40
3.0
 40
3.0
 40
3.0
 40
3.0
 10
4.911111195882161
 20
2.477777693006727
 30
0.0
 10
4.81111102634006
 20
2.509722179836697
 30
0.0
 10
4.709722306993272
 20
2.540277693006727
 30
0.0
 10
4.608333587646484
 20
2.570833206176758
 30
0.0
 10
4.608333587646484
 20
2.669444402058919
 30
0.0
 10
4.655555725097656
 20
2.759722179836697
 30
0.0
 10
4.734722561306423
 20
2.816666497124566
 30
0.0
 10
4.763888888888888
 20
2.686111026340061
 30
0.0
 10
4.822222391764322
 20
2.566666709052192
 30
0.0
 10
4.911111195882161
 20
2.477777693006727
 30
0.0
  0
SPLINE
  5
5E
330
41
100
AcDbEntity
  8
Calque 1
370
     0
100
AcDbSpline
210
0.0
220
0.0
230
1.0
 70
    11
 71
     3
 72
    41
 73
    37
 74
     0
 42
0.0000000001
 43
0.0000000001
 12
1.0
 22
0.0
 32
0.0
 13
1.0
 23
0.0
 33
0.0
 40
0.0
 40
0.0
 40
0.0
 40
0.0
 40
1.0
 40
1.0
 40
1.0
 40
2.0
 40
2.0
 40
2.0
 40
3.0
 40
3.0
 40
3.0
 40
4.0
 40
4.0
 40
4.0
 40
5.0
 40
5.0
 40
5.0
 40
6.0
 40
6.0
 40
6.0
 40
7.0
 40
7.0
 40
7.0
 40
8.0
 40
8.0
 40
8.0
 40
9.0
 40
9.0
 40
9.0
 40
10.0
 40
10.0
 40
10.0
 40
11.0
 40
11.0
 40
11.0
 40
12.0
 40
12.0
 40
12.0
 40
12.0
 10
4.476388719346788
 20
2.608333375718858
 30
0.0
 10
4.466666327582465
 20
2.637500127156575
 30
0.0
 10
4.4375
 20
2.666666666666667
 30
0.0
 10
4.420833163791232
 20
2.684722264607747
 30
0.0
 10
4.383332994249132
 20
2.726388931274414
 30
0.0
 10
4.340277777777778
 20
2.765277862548828
 30
0.0
 10
4.295833163791232
 20
2.801388846503364
 30
0.0
 10
4.39861085679796
 20
2.848610983954535
 30
0.0
 10
4.491666581895616
 20
2.909722222222222
 30
0.0
 10
4.577777438693576
 20
2.984722137451172
 30
0.0
 10
4.586110856797959
 20
2.991666581895616
 30
0.0
 10
4.586110856797959
 20
3.006944444444444
 30
0.0
 10
4.577777438693576
 20
3.013888888888889
 30
0.0
 10
4.493055131700303
 20
3.088888804117838
 30
0.0
 10
4.39861085679796
 20
3.150000042385525
 30
0.0
 10
4.29722171359592
 20
3.197222179836697
 30
0.0
 10
4.341666327582465
 20
3.233333375718858
 30
0.0
 10
4.38472154405382
 20
3.272222095065647
 30
0.0
 10
4.420832739935981
 20
3.313888761732313
 30
0.0
 10
4.436110602484809
 20
3.331944359673394
 30
0.0
 10
4.468054877387153
 20
3.362499872843424
 30
0.0
 10
4.476388295491536
 20
3.390277650621202
 30
0.0
 10
4.506944020589192
 20
3.398611068725586
 30
0.0
 10
4.537499321831597
 20
3.406944274902344
 30
0.0
 10
4.566666073269314
 20
3.41666645473904
 30
0.0
 10
4.57083257039388
 20
3.302777608235677
 30
0.0
 10
4.630555046929254
 20
3.199999703301323
 30
0.0
 10
4.726388295491536
 20
3.138888676961263
 30
0.0
 10
4.711110432942708
 20
3.047221925523546
 30
0.0
 10
4.711110432942708
 20
2.951388676961263
 30
0.0
 10
4.726388295491536
 20
2.859721925523546
 30
0.0
 10
4.630555046929254
 20
2.798610899183485
 30
0.0
 10
4.57083257039388
 20
2.695832994249132
 30
0.0
 10
4.566666073269314
 20
2.581944147745768
 30
0.0
 10
4.536111195882161
 20
2.591666751437717
 30
0.0
 10
4.505555470784505
 20
2.599999957614475
 30
0.0
 10
4.476388719346788
 20
2.608333375718858
 30
0.0
  0
SPLINE
  5
5F
330
41
100
AcDbEntity
  8
Calque 1
370
     0
100
AcDbSpline
210
0.0
220
0.0
230
1.0
 70
    11
 71
     3
 72
    29
 73
    25
 74
     0
 42
0.0000000001
 43
0.0000000001
 12
1.0
 22
0.0
 32
0.0
 13
1.0
 23
0.0
 33
0.0
 40
0.0
 40
0.0
 40
0.0
 40
0.0
 40
1.0
 40
1.0
 40
1.0
 40
2.0
 40
2.0
 40
2.0
 40
3.0
 40
3.0
 40
3.0
 40
4.0
 40
4.0
 40
4.0
 40
5.0
 40
5.0
 40
5.0
 40
6.0
 40
6.0
 40
6.0
 40
7.0
 40
7.0
 40
7.0
 40
8.0
 40
8.0
 40
8.0
 40
8.0
 10
4.029166751437717
 20
2.020833333333333
 30
0.0
 10
3.972222222222222
 20
2.013888888888889
 30
0.0
 10
3.91388914320204
 20
2.016666836208767
 30
0.0
 10
3.855555640326606
 20
2.018055386013455
 30
0.0
 10
3.852777693006727
 20
2.044444190131293
 30
0.0
 10
3.85138914320204
 20
2.070832994249132
 30
0.0
 10
3.847222222222222
 20
2.097222222222222
 30
0.0
 10
3.830555386013454
 20
2.223611195882161
 30
0.0
 10
3.794444613986545
 20
2.345833248562283
 30
0.0
 10
3.7250001695421
 20
2.451388888888889
 30
0.0
 10
3.8500001695421
 20
2.418055640326606
 30
0.0
 10
3.980555640326606
 20
2.422222137451172
 30
0.0
 10
4.108333587646484
 20
2.445833418104383
 30
0.0
 10
4.131944868299696
 20
2.450000127156575
 30
0.0
 10
4.155555725097656
 20
2.455555597941081
 30
0.0
 10
4.177778032090929
 20
2.461111280653212
 30
0.0
 10
4.197222391764322
 20
2.406944698757596
 30
0.0
 10
4.216666751437717
 20
2.352778116861979
 30
0.0
 10
4.229167090521918
 20
2.295833587646484
 30
0.0
 10
4.240278032090929
 20
2.240278032090929
 30
0.0
 10
4.259722815619575
 20
2.126388973659939
 30
0.0
 10
4.21388922797309
 20
2.079166836208767
 30
0.0
 10
4.173611111111111
 20
2.040277693006727
 30
0.0
 10
4.083333333333333
 20
2.026388804117838
 30
0.0
 10
4.029166751437717
 20
2.020833333333333
 30
0.0
  0
SPLINE
  5
60
330
41
100
AcDbEntity
  8
Calque 1
370
     0
100
AcDbSpline
210
0.0
220
0.0
230
1.0
 70
    11
 71
     3
 72
    20
 73
    16
 74
     0
 42
0.0000000001
 43
0.0000000001
 12
1.0
 22
0.0
 32
0.0
 13
1.0
 23
0.0
 33
0.0
 40
0.0
 40
0.0
 40
0.0
 40
0.0
 40
1.0
 40
1.0
 40
1.0
 40
2.0
 40
2.0
 40
2.0
 40
3.0
 40
3.0
 40
3.0
 40
4.0
 40
4.0
 40
4.0
 40
5.0
 40
5.0
 40
5.0
 40
5.0
 10
3.452777862548828
 20
1.518055386013455
 30
0.0
 10
3.361111111111111
 20
1.57499991522895
 30
0.0
 10
3.280555725097656
 20
1.643055386013455
 30
0.0
 10
3.208333333333333
 20
1.72361077202691
 30
0.0
 10
3.252777735392252
 20
1.855555216471354
 30
0.0
 10
3.259722179836697
 20
1.987499660915798
 30
0.0
 10
3.254166709052192
 20
2.127777523464627
 30
0.0
 10
3.329166624281141
 20
2.015277438693576
 30
0.0
 10
3.408333460489909
 20
1.908333248562283
 30
0.0
 10
3.522222306993272
 20
1.830555386013455
 30
0.0
 10
3.525000042385525
 20
1.829166412353516
 30
0.0
 10
3.526389016045464
 20
1.827777438693576
 30
0.0
 10
3.529166751437717
 20
1.826388888888889
 30
0.0
 10
3.519444359673394
 20
1.720833248562283
 30
0.0
 10
3.493055555555555
 20
1.618055555555555
 30
0.0
 10
3.452777862548828
 20
1.518055386013455
 30
0.0
  0
SPLINE
  5
61
330
41
100
AcDbEntity
  8
Calque 1
370
     0
100
AcDbSpline
210
0.0
220
0.0
230
1.0
 70
    11
 71
     3
 72
    23
 73
    19
 74
     0
 42
0.0000000001
 43
0.0000000001
 12
1.0
 22
0.0
 32
0.0
 13
1.0
 23
0.0
 33
0.0
 40
0.0
 40
0.0
 40
0.0
 40
0.0
 40
1.0
 40
1.0
 40
1.0
 40
2.0
 40
2.0
 40
2.0
 40
3.0
 40
3.0
 40
3.0
 40
4.0
 40
4.0
 40
4.0
 40
5.0
 40
5.0
 40
5.0
 40
6.0
 40
6.0
 40
6.0
 40
6.0
 10
3.004166709052192
 20
1.520833333333333
 30
0.0
 10
2.92500008477105
 20
1.606944613986545
 30
0.0
 10
2.852777904934353
 20
1.711111280653212
 30
0.0
 10
2.801388846503364
 20
1.82499991522895
 30
0.0
 10
2.866666581895616
 20
1.781944274902344
 30
0.0
 10
2.947222179836697
 20
1.736111111111111
 30
0.0
 10
3.018055597941081
 20
1.730555640326606
 30
0.0
 10
3.077777862548828
 20
1.725000169542101
 30
0.0
 10
3.145833333333333
 20
1.783333248562283
 30
0.0
 10
3.197222179836697
 20
1.827777862548828
 30
0.0
 10
3.191666709052192
 20
1.805555555555555
 30
0.0
 10
3.186111026340061
 20
1.781944698757595
 30
0.0
 10
3.179166581895616
 20
1.759722391764323
 30
0.0
 10
3.159722222222222
 20
1.700000339084201
 30
0.0
 10
3.133333206176758
 20
1.640277862548828
 30
0.0
 10
3.10555542839898
 20
1.583333333333333
 30
0.0
 10
3.080555597941081
 20
1.536111195882161
 30
0.0
 10
3.056944529215495
 20
1.465277777777778
 30
0.0
 10
3.004166709052192
 20
1.520833333333333
 30
0.0
  0
SPLINE
  5
62
330
41
100
AcDbEntity
  8
Calque 1
370
     0
100
AcDbSpline
210
0.0
220
0.0
230
1.0
 70
    11
 71
     3
 72
    23
 73
    19
 74
     0
 42
0.0000000001
 43
0.0000000001
 12
1.0
 22
0.0
 32
0.0
 13
1.0
 23
0.0
 33
0.0
 40
0.0
 40
0.0
 40
0.0
 40
0.0
 40
1.0
 40
1.0
 40
1.0
 40
2.0
 40
2.0
 40
2.0
 40
3.0
 40
3.0
 40
3.0
 40
4.0
 40
4.0
 40
4.0
 40
5.0
 40
5.0
 40
5.0
 40
6.0
 40
6.0
 40
6.0
 40
6.0
 10
2.48750008477105
 20
1.537500169542101
 30
0.0
 10
2.381944444444444
 20
1.584722306993273
 30
0.0
 10
2.341666751437717
 20
1.751388973659939
 30
0.0
 10
2.311111238267686
 20
1.855555640326606
 30
0.0
 10
2.341666751437717
 20
1.868055555555555
 30
0.0
 10
2.372222264607747
 20
1.881944444444444
 30
0.0
 10
2.402777989705403
 20
1.897222306993273
 30
0.0
 10
2.511111365424262
 20
1.951388888888889
 30
0.0
 10
2.608333587646484
 20
2.022222306993272
 30
0.0
 10
2.684722476535373
 20
2.115278032090929
 30
0.0
 10
2.691666920979817
 20
1.991667005750868
 30
0.0
 10
2.731944613986545
 20
1.875000423855252
 30
0.0
 10
2.790278116861979
 20
1.763889312744141
 30
0.0
 10
2.804167005750868
 20
1.737500508626302
 30
0.0
 10
2.819444868299696
 20
1.711111704508463
 30
0.0
 10
2.834722518920898
 20
1.686111450195312
 30
0.0
 10
2.75
 20
1.620833502875434
 30
0.0
 10
2.594444486829969
 20
1.490277608235677
 30
0.0
 10
2.48750008477105
 20
1.537500169542101
 30
0.0
  0
SPLINE
  5
63
330
41
100
AcDbEntity
  8
Calque 1
370
     0
100
AcDbSpline
210
0.0
220
0.0
230
1.0
 70
    11
 71
     3
 72
    26
 73
    22
 74
     0
 42
0.0000000001
 43
0.0000000001
 12
1.0
 22
0.0
 32
0.0
 13
1.0
 23
0.0
 33
0.0
 40
0.0
 40
0.0
 40
0.0
 40
0.0
 40
1.0
 40
1.0
 40
1.0
 40
2.0
 40
2.0
 40
2.0
 40
3.0
 40
3.0
 40
3.0
 40
4.0
 40
4.0
 40
4.0
 40
5.0
 40
5.0
 40
5.0
 40
6.0
 40
6.0
 40
6.0
 40
7.0
 40
7.0
 40
7.0
 40
7.0
 10
2.025000042385525
 20
1.829166836208767
 30
0.0
 10
2.009722179836697
 20
1.847222222222222
 30
0.0
 10
2.031944486829969
 20
1.92638905843099
 30
0.0
 10
2.034722222222222
 20
1.945833418104383
 30
0.0
 10
2.045833375718858
 20
2.004166920979817
 30
0.0
 10
2.058333290947808
 20
2.063888973659939
 30
0.0
 10
2.076388888888889
 20
2.120833502875434
 30
0.0
 10
2.083333333333333
 20
2.143055809868707
 30
0.0
 10
2.091666751437717
 20
2.16388914320204
 30
0.0
 10
2.099999957614475
 20
2.184722476535373
 30
0.0
 10
2.115277820163303
 20
2.118055979410807
 30
0.0
 10
2.138888888888889
 20
2.025000254313151
 30
0.0
 10
2.193055470784505
 20
1.998611450195312
 30
0.0
 10
2.258333206176758
 20
1.966667175292969
 30
0.0
 10
2.340277777777778
 20
1.955555809868706
 30
0.0
 10
2.416666666666667
 20
1.951389312744141
 30
0.0
 10
2.319444444444444
 20
1.897222730848524
 30
0.0
 10
2.212500042385525
 20
1.856945037841797
 30
0.0
 10
2.108333375718858
 20
1.830555809868706
 30
0.0
 10
2.091666751437717
 20
1.82499991522895
 30
0.0
 10
2.041666666666667
 20
1.809722052680121
 30
0.0
 10
2.025000042385525
 20
1.829166836208767
 30
0.0
  0
SPLINE
  5
64
330
41
100
AcDbEntity
  8
Calque 1
370
     0
100
AcDbSpline
210
0.0
220
0.0
230
1.0
 70
    11
 71
     3
 72
    32
 73
    28
 74
     0
 42
0.0000000001
 43
0.0000000001
 12
1.0
 22
0.0
 32
0.0
 13
1.0
 23
0.0
 33
0.0
 40
0.0
 40
0.0
 40
0.0
 40
0.0
 40
1.0
 40
1.0
 40
1.0
 40
2.0
 40
2.0
 40
2.0
 40
3.0
 40
3.0
 40
3.0
 40
4.0
 40
4.0
 40
4.0
 40
5.0
 40
5.0
 40
5.0
 40
6.0
 40
6.0
 40
6.0
 40
7.0
 40
7.0
 40
7.0
 40
8.0
 40
8.0
 40
8.0
 40
9.0
 40
9.0
 40
9.0
 40
9.0
 10
1.509722179836697
 20
2.473611195882161
 30
0.0
 10
1.509722179836697
 20
2.472222222222222
 30
0.0
 10
1.509722179836697
 20
2.472222222222222
 30
0.0
 10
1.509722179836697
 20
2.472222222222222
 30
0.0
 10
1.372222158643934
 20
2.422222137451172
 30
0.0
 10
1.234722137451172
 20
2.373611026340061
 30
0.0
 10
1.095833248562283
 20
2.327777862548828
 30
0.0
 10
1.129166603088379
 20
2.395833333333333
 30
0.0
 10
1.127777735392252
 20
2.477777904934353
 30
0.0
 10
1.126388761732313
 20
2.555555555555555
 30
0.0
 10
1.126388761732313
 20
2.572222179836697
 30
0.0
 10
1.126388761732313
 20
2.588888804117838
 30
0.0
 10
1.126388761732313
 20
2.606944402058919
 30
0.0
 10
1.206944359673394
 20
2.602777693006727
 30
0.0
 10
1.280555407206217
 20
2.609722137451172
 30
0.0
 10
1.348610983954535
 20
2.659722222222222
 30
0.0
 10
1.408333248562283
 20
2.702777862548828
 30
0.0
 10
1.44861094156901
 20
2.765277862548828
 30
0.0
 10
1.483333163791233
 20
2.827777862548828
 30
0.0
 10
1.53333314259847
 20
2.776389016045464
 30
0.0
 10
1.593055407206217
 20
2.734722349378798
 30
0.0
 10
1.652777565850152
 20
2.694444444444444
 30
0.0
 10
1.644444253709581
 20
2.683333290947808
 30
0.0
 10
1.634721967909071
 20
2.672222137451172
 30
0.0
 10
1.6263886557685
 20
2.661111195882161
 30
0.0
 10
1.587500042385525
 20
2.609722137451172
 30
0.0
 10
1.520833333333333
 20
2.538888931274414
 30
0.0
 10
1.509722179836697
 20
2.473611195882161
 30
0.0
  0
SPLINE
  5
65
330
41
100
AcDbEntity
  8
Calque 1
370
     0
100
AcDbSpline
210
0.0
220
0.0
230
1.0
 70
    11
 71
     3
 72
    35
 73
    31
 74
     0
 42
0.0000000001
 43
0.0000000001
 12
1.0
 22
0.0
 32
0.0
 13
1.0
 23
0.0
 33
0.0
 40
0.0
 40
0.0
 40
0.0
 40
0.0
 40
1.0
 40
1.0
 40
1.0
 40
2.0
 40
2.0
 40
2.0
 40
3.0
 40
3.0
 40
3.0
 40
4.0
 40
4.0
 40
4.0
 40
5.0
 40
5.0
 40
5.0
 40
6.0
 40
6.0
 40
6.0
 40
7.0
 40
7.0
 40
7.0
 40
8.0
 40
8.0
 40
8.0
 40
9.0
 40
9.0
 40
9.0
 40
10.0
 40
10.0
 40
10.0
 40
10.0
 10
1.236111111111111
 20
2.984722137451172
 30
0.0
 10
1.241666687859429
 20
2.988888846503364
 30
0.0
 10
1.243055555555556
 20
2.994444317287869
 30
0.0
 10
1.243055555555556
 20
3.0
 30
0.0
 10
1.243055555555556
 20
3.005555470784505
 30
0.0
 10
1.241666687859429
 20
3.009722179836697
 30
0.0
 10
1.236111111111111
 20
3.015277862548828
 30
0.0
 10
1.147222201029459
 20
3.088889016045464
 30
0.0
 10
1.129166709052192
 20
3.230555640326606
 30
0.0
 10
1.126388867696126
 20
3.352777904934353
 30
0.0
 10
1.205555491977268
 20
3.356944613986545
 30
0.0
 10
1.274999936421712
 20
3.3500001695421
 30
0.0
 10
1.337499936421712
 20
3.295833375718858
 30
0.0
 10
1.38749991522895
 20
3.254166709052192
 30
0.0
 10
1.420833269755045
 20
3.197222179836697
 30
0.0
 10
1.452777756585015
 20
3.140277862548828
 30
0.0
 10
1.418055534362793
 20
3.1000001695421
 30
0.0
 10
1.377777735392252
 20
3.045833375718858
 30
0.0
 10
1.377777735392252
 20
3.0
 30
0.0
 10
1.377777735392252
 20
2.954166624281141
 30
0.0
 10
1.418055534362793
 20
2.898611068725586
 30
0.0
 10
1.452777756585015
 20
2.859722137451172
 30
0.0
 10
1.420833269755045
 20
2.804166581895616
 30
0.0
 10
1.387500021192763
 20
2.747222052680121
 30
0.0
 10
1.337499936421712
 20
2.704166624281141
 30
0.0
 10
1.274999936421712
 20
2.651388804117838
 30
0.0
 10
1.204166624281142
 20
2.644444359673394
 30
0.0
 10
1.126388867696126
 20
2.647222095065647
 30
0.0
 10
1.130555576748318
 20
2.770833333333333
 30
0.0
 10
1.148611068725586
 20
2.911111195882161
 30
0.0
 10
1.236111111111111
 20
2.984722137451172
 30
0.0
  0
SPLINE
  5
66
330
41
100
AcDbEntity
  8
Calque 1
370
     0
100
AcDbSpline
210
0.0
220
0.0
230
1.0
 70
    11
 71
     3
 72
    32
 73
    28
 74
     0
 42
0.0000000001
 43
0.0000000001
 12
1.0
 22
0.0
 32
0.0
 13
1.0
 23
0.0
 33
0.0
 40
0.0
 40
0.0
 40
0.0
 40
0.0
 40
1.0
 40
1.0
 40
1.0
 40
2.0
 40
2.0
 40
2.0
 40
3.0
 40
3.0
 40
3.0
 40
4.0
 40
4.0
 40
4.0
 40
5.0
 40
5.0
 40
5.0
 40
6.0
 40
6.0
 40
6.0
 40
7.0
 40
7.0
 40
7.0
 40
8.0
 40
8.0
 40
8.0
 40
9.0
 40
9.0
 40
9.0
 40
9.0
 10
1.509722179836697
 20
3.529166751437717
 30
0.0
 10
1.509722179836697
 20
3.527777777777778
 30
0.0
 10
1.509722179836697
 20
3.527777777777778
 30
0.0
 10
1.509722179836697
 20
3.527777777777778
 30
0.0
 10
1.519444359673394
 20
3.466666751437717
 30
0.0
 10
1.583333333333333
 20
3.397222306993272
 30
0.0
 10
1.619444423251682
 20
3.348611195882161
 30
0.0
 10
1.630555576748318
 20
3.334722306993272
 30
0.0
 10
1.641666624281141
 20
3.320833418104383
 30
0.0
 10
1.652777777777778
 20
3.306944529215495
 30
0.0
 10
1.59305551317003
 20
3.266666836208767
 30
0.0
 10
1.533333354526096
 20
3.2250001695421
 30
0.0
 10
1.483333375718858
 20
3.173611111111111
 30
0.0
 10
1.44722228580051
 20
3.236111111111111
 30
0.0
 10
1.40694448682997
 20
3.298611111111111
 30
0.0
 10
1.348611195882161
 20
3.341666751437717
 30
0.0
 10
1.280555619133843
 20
3.391666836208767
 30
0.0
 10
1.208333439297146
 20
3.398611280653212
 30
0.0
 10
1.126388973659939
 20
3.39444457160102
 30
0.0
 10
1.126388973659939
 20
3.4125001695421
 30
0.0
 10
1.126388973659939
 20
3.429166793823242
 30
0.0
 10
1.126388973659939
 20
3.445833418104383
 30
0.0
 10
1.127777841356066
 20
3.523611280653212
 30
0.0
 10
1.129166709052192
 20
3.605555640326606
 30
0.0
 10
1.095833460489909
 20
3.673611111111111
 30
0.0
 10
1.234722243414985
 20
3.626388973659939
 30
0.0
 10
1.372222264607747
 20
3.579166624281141
 30
0.0
 10
1.509722179836697
 20
3.529166751437717
 30
0.0
  0
SPLINE
  5
67
330
41
100
AcDbEntity
  8
Calque 1
370
     0
100
AcDbSpline
210
0.0
220
0.0
230
1.0
 70
    11
 71
     3
 72
    26
 73
    22
 74
     0
 42
0.0000000001
 43
0.0000000001
 12
1.0
 22
0.0
 32
0.0
 13
1.0
 23
0.0
 33
0.0
 40
0.0
 40
0.0
 40
0.0
 40
0.0
 40
1.0
 40
1.0
 40
1.0
 40
2.0
 40
2.0
 40
2.0
 40
3.0
 40
3.0
 40
3.0
 40
4.0
 40
4.0
 40
4.0
 40
5.0
 40
5.0
 40
5.0
 40
6.0
 40
6.0
 40
6.0
 40
7.0
 40
7.0
 40
7.0
 40
7.0
 10
2.025000042385525
 20
4.158333248562283
 30
0.0
 10
2.037499957614475
 20
4.193055470784505
 30
0.0
 10
2.080555597941081
 20
4.177777608235677
 30
0.0
 10
2.109722349378798
 20
4.169444402058919
 30
0.0
 10
2.213889016045465
 20
4.14305559794108
 30
0.0
 10
2.320833418104383
 20
4.104166666666666
 30
0.0
 10
2.418055640326606
 20
4.048611111111111
 30
0.0
 10
2.341666751437717
 20
4.044444402058919
 30
0.0
 10
2.259722391764323
 20
4.033333248562283
 30
0.0
 10
2.194444444444444
 20
4.001388973659939
 30
0.0
 10
2.140277862548828
 20
3.973611195882161
 30
0.0
 10
2.116666581895616
 20
3.880555682712131
 30
0.0
 10
2.101388931274414
 20
3.813888973659939
 30
0.0
 10
2.091666751437717
 20
3.834722306993272
 30
0.0
 10
2.084722306993272
 20
3.855555640326606
 30
0.0
 10
2.077777862548828
 20
3.877777947319878
 30
0.0
 10
2.059722264607747
 20
3.934722476535373
 30
0.0
 10
2.047222349378798
 20
3.994444529215495
 30
0.0
 10
2.036111195882161
 20
4.052778032090929
 30
0.0
 10
2.029166751437717
 20
4.083333333333333
 30
0.0
 10
2.013888888888889
 20
4.130555470784505
 30
0.0
 10
2.025000042385525
 20
4.158333248562283
 30
0.0
  0
SPLINE
  5
68
330
41
100
AcDbEntity
  8
Calque 1
370
     0
100
AcDbSpline
210
0.0
220
0.0
230
1.0
 70
    11
 71
     3
 72
    23
 73
    19
 74
     0
 42
0.0000000001
 43
0.0000000001
 12
1.0
 22
0.0
 32
0.0
 13
1.0
 23
0.0
 33
0.0
 40
0.0
 40
0.0
 40
0.0
 40
0.0
 40
1.0
 40
1.0
 40
1.0
 40
2.0
 40
2.0
 40
2.0
 40
3.0
 40
3.0
 40
3.0
 40
4.0
 40
4.0
 40
4.0
 40
5.0
 40
5.0
 40
5.0
 40
6.0
 40
6.0
 40
6.0
 40
6.0
 10
2.48750008477105
 20
4.462500042385525
 30
0.0
 10
2.594444486829969
 20
4.509722285800509
 30
0.0
 10
2.75
 20
4.379166709052192
 30
0.0
 10
2.833333333333333
 20
4.313888973659939
 30
0.0
 10
2.819444444444444
 20
4.29166677263048
 30
0.0
 10
2.806944529215495
 20
4.26944457160102
 30
0.0
 10
2.794444402058919
 20
4.247222264607747
 30
0.0
 10
2.733333375718858
 20
4.134722179836697
 30
0.0
 10
2.691666709052192
 20
4.013888888888888
 30
0.0
 10
2.683333290947808
 20
3.886111153496636
 30
0.0
 10
2.606944402058919
 20
3.979166666666667
 30
0.0
 10
2.509722179836697
 20
4.05000008477105
 30
0.0
 10
2.401388804117838
 20
4.104166666666666
 30
0.0
 10
2.372222052680121
 20
4.119444529215494
 30
0.0
 10
2.341666539510091
 20
4.133333418104383
 30
0.0
 10
2.309722052680121
 20
4.145833333333333
 30
0.0
 10
2.340277777777778
 20
4.248611132303873
 30
0.0
 10
2.381944444444444
 20
4.41527779897054
 30
0.0
 10
2.48750008477105
 20
4.462500042385525
 30
0.0
  0
SPLINE
  5
69
330
41
100
AcDbEntity
  8
Calque 1
370
     0
100
AcDbSpline
210
0.0
220
0.0
230
1.0
 70
    11
 71
     3
 72
    23
 73
    19
 74
     0
 42
0.0000000001
 43
0.0000000001
 12
1.0
 22
0.0
 32
0.0
 13
1.0
 23
0.0
 33
0.0
 40
0.0
 40
0.0
 40
0.0
 40
0.0
 40
1.0
 40
1.0
 40
1.0
 40
2.0
 40
2.0
 40
2.0
 40
3.0
 40
3.0
 40
3.0
 40
4.0
 40
4.0
 40
4.0
 40
5.0
 40
5.0
 40
5.0
 40
6.0
 40
6.0
 40
6.0
 40
6.0
 10
3.104166666666667
 20
4.41527779897054
 30
0.0
 10
3.131944444444444
 20
4.358333375718859
 30
0.0
 10
3.158333248562283
 20
4.298611111111111
 30
0.0
 10
3.177777820163303
 20
4.238888952467176
 30
0.0
 10
3.184722264607747
 20
4.216666751437717
 30
0.0
 10
3.191666709052192
 20
4.194444444444445
 30
0.0
 10
3.195833418104383
 20
4.170833375718859
 30
0.0
 10
3.14444457160102
 20
4.215277777777778
 30
0.0
 10
3.076388888888889
 20
4.272222306993273
 30
0.0
 10
3.016666836208767
 20
4.26805559794108
 30
0.0
 10
2.94444465637207
 20
4.262500021192762
 30
0.0
 10
2.865278032090929
 20
4.216666751437717
 30
0.0
 10
2.80000008477105
 20
4.173611111111111
 30
0.0
 10
2.851388931274414
 20
4.287499957614474
 30
0.0
 10
2.922222349378798
 20
4.39305559794108
 30
0.0
 10
3.002777947319878
 20
4.47777779897054
 30
0.0
 10
3.056944529215495
 20
4.534722222222222
 30
0.0
 10
3.080555597941081
 20
4.462500042385525
 30
0.0
 10
3.104166666666667
 20
4.41527779897054
 30
0.0
  0
SPLINE
  5
6A
330
41
100
AcDbEntity
  8
Calque 1
370
     0
100
AcDbSpline
210
0.0
220
0.0
230
1.0
 70
    11
 71
     3
 72
    20
 73
    16
 74
     0
 42
0.0000000001
 43
0.0000000001
 12
1.0
 22
0.0
 32
0.0
 13
1.0
 23
0.0
 33
0.0
 40
0.0
 40
0.0
 40
0.0
 40
0.0
 40
1.0
 40
1.0
 40
1.0
 40
2.0
 40
2.0
 40
2.0
 40
3.0
 40
3.0
 40
3.0
 40
4.0
 40
4.0
 40
4.0
 40
5.0
 40
5.0
 40
5.0
 40
5.0
 10
3.452777862548828
 20
4.481944402058919
 30
0.0
 10
3.493055555555555
 20
4.381944444444445
 30
0.0
 10
3.518055597941081
 20
4.279166645473904
 30
0.0
 10
3.529166751437717
 20
4.172222137451172
 30
0.0
 10
3.526389016045464
 20
4.170833163791232
 30
0.0
 10
3.525000042385525
 20
4.169444402058919
 30
0.0
 10
3.522222306993272
 20
4.16805542839898
 30
0.0
 10
3.408333460489909
 20
4.090277565850152
 30
0.0
 10
3.329166836208767
 20
3.983333163791233
 30
0.0
 10
3.254166709052192
 20
3.870833290947808
 30
0.0
 10
3.258333418104383
 20
4.01249991522895
 30
0.0
 10
3.252777735392252
 20
4.14305559794108
 30
0.0
 10
3.208333333333333
 20
4.274999936421712
 30
0.0
 10
3.28055551317003
 20
4.355555534362793
 30
0.0
 10
3.36250008477105
 20
4.424999978807238
 30
0.0
 10
3.452777862548828
 20
4.481944402058919
 30
0.0
  0
SPLINE
  5
6B
330
41
100
AcDbEntity
  8
Calque 1
370
     0
100
AcDbSpline
210
0.0
220
0.0
230
1.0
 70
    11
 71
     3
 72
    29
 73
    25
 74
     0
 42
0.0000000001
 43
0.0000000001
 12
1.0
 22
0.0
 32
0.0
 13
1.0
 23
0.0
 33
0.0
 40
0.0
 40
0.0
 40
0.0
 40
0.0
 40
1.0
 40
1.0
 40
1.0
 40
2.0
 40
2.0
 40
2.0
 40
3.0
 40
3.0
 40
3.0
 40
4.0
 40
4.0
 40
4.0
 40
5.0
 40
5.0
 40
5.0
 40
6.0
 40
6.0
 40
6.0
 40
7.0
 40
7.0
 40
7.0
 40
8.0
 40
8.0
 40
8.0
 40
8.0
 10
4.213888804117838
 20
3.918055640326606
 30
0.0
 10
4.26111094156901
 20
3.870833502875434
 30
0.0
 10
4.240277608235677
 20
3.756944444444444
 30
0.0
 10
4.229166666666666
 20
3.701388888888889
 30
0.0
 10
4.218055725097656
 20
3.644444359673394
 30
0.0
 10
4.19861094156901
 20
3.590277777777778
 30
0.0
 10
4.177777608235677
 20
3.536111195882161
 30
0.0
 10
4.158333248562283
 20
3.540277904934353
 30
0.0
 10
4.138888888888888
 20
3.544444613986545
 30
0.0
 10
4.119444105360243
 20
3.548611111111111
 30
0.0
 10
3.987499660915798
 20
3.57499991522895
 30
0.0
 10
3.852777269151475
 20
3.579166624281141
 30
0.0
 10
3.723610772026909
 20
3.545833375718858
 30
0.0
 10
3.793055216471354
 20
3.652777777777778
 30
0.0
 10
3.829166412353516
 20
3.775000042385525
 30
0.0
 10
3.845832824707031
 20
3.900000042385525
 30
0.0
 10
3.849999321831597
 20
3.926388846503364
 30
0.0
 10
3.851388295491536
 20
3.952777862548828
 30
0.0
 10
3.854166242811415
 20
3.979166666666667
 30
0.0
 10
3.912499745686849
 20
3.980555640326606
 30
0.0
 10
3.970832824707031
 20
3.983333375718858
 30
0.0
 10
4.027777353922525
 20
3.976388931274414
 30
0.0
 10
4.083333333333333
 20
3.973611195882161
 30
0.0
 10
4.173611111111111
 20
3.959722306993272
 30
0.0
 10
4.213888804117838
 20
3.918055640326606
 30
0.0
  0
SPLINE
  5
6C
330
41
100
AcDbEntity
  8
Calque 1
370
     0
100
AcDbSpline
210
0.0
220
0.0
230
1.0
 70
    11
 71
     3
 72
    20
 73
    16
 74
     0
 42
0.0000000001
 43
0.0000000001
 12
1.0
 22
0.0
 32
0.0
 13
1.0
 23
0.0
 33
0.0
 40
0.0
 40
0.0
 40
0.0
 40
0.0
 40
1.0
 40
1.0
 40
1.0
 40
2.0
 40
2.0
 40
2.0
 40
3.0
 40
3.0
 40
3.0
 40
4.0
 40
4.0
 40
4.0
 40
5.0
 40
5.0
 40
5.0
 40
5.0
 10
4.259722391764322
 20
2.831944359673394
 30
0.0
 10
4.15000025431315
 20
2.91805542839898
 30
0.0
 10
4.022222306993273
 20
2.962499830457899
 30
0.0
 10
3.888888888888889
 20
3.0
 30
0.0
 10
4.019444359673394
 20
3.037499957614475
 30
0.0
 10
4.145833333333333
 20
3.079166624281141
 30
0.0
 10
4.254166497124566
 20
3.163888931274414
 30
0.0
 10
4.255555470784505
 20
3.165277904934353
 30
0.0
 10
4.258332994249132
 20
3.166666666666667
 30
0.0
 10
4.259721967909071
 20
3.168055640326606
 30
0.0
 10
4.358333163791232
 20
3.125
 30
0.0
 10
4.447221967909071
 20
3.068055682712131
 30
0.0
 10
4.530555301242404
 20
3.0
 30
0.0
 10
4.447222391764322
 20
2.930555555555555
 30
0.0
 10
4.356944613986545
 20
2.875
 30
0.0
 10
4.259722391764322
 20
2.831944359673394
 30
0.0
  0
SPLINE
  5
6D
330
41
100
AcDbEntity
  8
Calque 1
370
     0
100
AcDbSpline
210
0.0
220
0.0
230
1.0
 70
    11
 71
     3
 72
    38
 73
    34
 74
     0
 42
0.0000000001
 43
0.0000000001
 12
1.0
 22
0.0
 32
0.0
 13
1.0
 23
0.0
 33
0.0
 40
0.0
 40
0.0
 40
0.0
 40
0.0
 40
1.0
 40
1.0
 40
1.0
 40
2.0
 40
2.0
 40
2.0
 40
3.0
 40
3.0
 40
3.0
 40
4.0
 40
4.0
 40
4.0
 40
5.0
 40
5.0
 40
5.0
 40
6.0
 40
6.0
 40
6.0
 40
7.0
 40
7.0
 40
7.0
 40
8.0
 40
8.0
 40
8.0
 40
9.0
 40
9.0
 40
9.0
 40
10.0
 40
10.0
 40
10.0
 40
11.0
 40
11.0
 40
11.0
 40
11.0
 10
4.102777693006727
 20
2.872222264607747
 30
0.0
 10
4.129166497124566
 20
2.806944529215495
 30
0.0
 10
4.176388634575738
 20
2.711111068725586
 30
0.0
 10
4.140277862548828
 20
2.645833333333333
 30
0.0
 10
4.104166666666666
 20
2.580555597941081
 30
0.0
 10
4.030555725097656
 20
2.520833333333333
 30
0.0
 10
3.970833248562283
 20
2.477777693006727
 30
0.0
 10
3.968055301242404
 20
2.476388719346788
 30
0.0
 10
3.966666751437717
 20
2.473610983954535
 30
0.0
 10
3.965277777777778
 20
2.472222222222222
 30
0.0
 10
3.890277862548828
 20
2.46805551317003
 30
0.0
 10
3.815277947319878
 20
2.473611195882161
 30
0.0
 10
3.741666581895616
 20
2.491666581895616
 30
0.0
 10
3.781944274902344
 20
2.508333206176758
 30
0.0
 10
3.822221967909071
 20
2.527777777777778
 30
0.0
 10
3.859722137451172
 20
2.551388846503364
 30
0.0
 10
3.897222306993272
 20
2.57499991522895
 30
0.0
 10
3.966666751437717
 20
2.612499872843424
 30
0.0
 10
3.984722137451172
 20
2.65555551317003
 30
0.0
 10
4.002777523464626
 20
2.69999991522895
 30
0.0
 10
3.972222222222222
 20
2.772222095065647
 30
0.0
 10
3.956944359673394
 20
2.813888761732313
 30
0.0
 10
3.947221967909071
 20
2.841666539510091
 30
0.0
 10
3.9375
 20
2.869444317287869
 30
0.0
 10
3.92500008477105
 20
2.895833121405707
 30
0.0
 10
3.918055640326606
 20
2.911110983954535
 30
0.0
 10
3.902777777777778
 20
2.933333079020182
 30
0.0
 10
3.891666836208767
 20
2.955555386013455
 30
0.0
 10
3.962500254313151
 20
2.934722052680121
 30
0.0
 10
4.033333672417535
 20
2.912499745686849
 30
0.0
 10
4.10138914320204
 20
2.881944232516819
 30
0.0
 10
4.101388719346788
 20
2.879166709052192
 30
0.0
 10
4.101388719346788
 20
2.876388973659939
 30
0.0
 10
4.102777693006727
 20
2.872222264607747
 30
0.0
  0
SPLINE
  5
6E
330
41
100
AcDbEntity
  8
Calque 1
370
     0
100
AcDbSpline
210
0.0
220
0.0
230
1.0
 70
    11
 71
     3
 72
    35
 73
    31
 74
     0
 42
0.0000000001
 43
0.0000000001
 12
1.0
 22
0.0
 32
0.0
 13
1.0
 23
0.0
 33
0.0
 40
0.0
 40
0.0
 40
0.0
 40
0.0
 40
1.0
 40
1.0
 40
1.0
 40
2.0
 40
2.0
 40
2.0
 40
3.0
 40
3.0
 40
3.0
 40
4.0
 40
4.0
 40
4.0
 40
5.0
 40
5.0
 40
5.0
 40
6.0
 40
6.0
 40
6.0
 40
7.0
 40
7.0
 40
7.0
 40
8.0
 40
8.0
 40
8.0
 40
9.0
 40
9.0
 40
9.0
 40
10.0
 40
10.0
 40
10.0
 40
10.0
 10
3.443055470784505
 20
1.963888804117838
 30
0.0
 10
3.438888761732313
 20
1.963888804117838
 30
0.0
 10
3.436111026340061
 20
1.963888804117838
 30
0.0
 10
3.433333290947808
 20
1.962499830457899
 30
0.0
 10
3.381944444444444
 20
2.016666412353516
 30
0.0
 10
3.338888804117838
 20
2.077777438693576
 30
0.0
 10
3.297222137451172
 20
2.138888888888889
 30
0.0
 10
3.34305551317003
 20
2.13611094156901
 30
0.0
 10
3.397222095065647
 20
2.120833502875434
 30
0.0
 10
3.429166581895616
 20
2.120833502875434
 30
0.0
 10
3.476388719346788
 20
2.119444529215495
 30
0.0
 10
3.563888973659939
 20
2.109722561306424
 30
0.0
 10
3.606944190131293
 20
2.138888888888889
 30
0.0
 10
3.641666412353516
 20
2.163888719346788
 30
0.0
 10
3.654166327582465
 20
2.227777693006727
 30
0.0
 10
3.665277693006727
 20
2.266666836208767
 30
0.0
 10
3.680555555555555
 20
2.318055894639757
 30
0.0
 10
3.688888973659939
 20
2.370833502875434
 30
0.0
 10
3.693055470784505
 20
2.42500008477105
 30
0.0
 10
3.731944190131293
 20
2.36250008477105
 30
0.0
 10
3.76111094156901
 20
2.293055640326606
 30
0.0
 10
3.781944274902344
 20
2.220833248562283
 30
0.0
 10
3.780555301242404
 20
2.218055301242404
 30
0.0
 10
3.777777777777778
 20
2.216666751437717
 30
0.0
 10
3.777777777777778
 20
2.212499830457899
 30
0.0
 10
3.755555470784505
 20
2.145833333333333
 30
0.0
 10
3.7250001695421
 20
2.070832994249132
 30
0.0
 10
3.680555555555555
 20
2.013888888888889
 30
0.0
 10
3.625
 20
1.944444444444444
 30
0.0
 10
3.523611068725586
 20
1.958333333333333
 30
0.0
 10
3.443055470784505
 20
1.963888804117838
 30
0.0
  0
SPLINE
  5
6F
330
41
100
AcDbEntity
  8
Calque 1
370
     0
100
AcDbSpline
210
0.0
220
0.0
230
1.0
 70
    11
 71
     3
 72
    38
 73
    34
 74
     0
 42
0.0000000001
 43
0.0000000001
 12
1.0
 22
0.0
 32
0.0
 13
1.0
 23
0.0
 33
0.0
 40
0.0
 40
0.0
 40
0.0
 40
0.0
 40
1.0
 40
1.0
 40
1.0
 40
2.0
 40
2.0
 40
2.0
 40
3.0
 40
3.0
 40
3.0
 40
4.0
 40
4.0
 40
4.0
 40
5.0
 40
5.0
 40
5.0
 40
6.0
 40
6.0
 40
6.0
 40
7.0
 40
7.0
 40
7.0
 40
8.0
 40
8.0
 40
8.0
 40
9.0
 40
9.0
 40
9.0
 40
10.0
 40
10.0
 40
10.0
 40
11.0
 40
11.0
 40
11.0
 40
11.0
 10
3.206944359673394
 20
1.88749991522895
 30
0.0
 10
3.202777650621202
 20
1.88749991522895
 30
0.0
 10
3.19999991522895
 20
1.88611094156901
 30
0.0
 10
3.197222179836697
 20
1.883333418104383
 30
0.0
 10
3.163888931274414
 20
1.855555640326606
 30
0.0
 10
3.130555470784505
 20
1.830555809868706
 30
0.0
 10
3.094444486829969
 20
1.806944529215495
 30
0.0
 10
3.052777820163303
 20
1.779166751437717
 30
0.0
 10
3.023611068725586
 20
1.769444359673394
 30
0.0
 10
2.976388931274414
 20
1.787500169542101
 30
0.0
 10
2.906944486829969
 20
1.8125
 30
0.0
 10
2.841666751437717
 20
1.848611195882161
 30
0.0
 10
2.78055551317003
 20
1.891666836208767
 30
0.0
 10
2.777777777777778
 20
1.893055809868706
 30
0.0
 10
2.776388804117838
 20
1.894444783528646
 30
0.0
 10
2.773611068725586
 20
1.894444783528646
 30
0.0
 10
2.747222264607747
 20
1.965278201633029
 30
0.0
 10
2.73055542839898
 20
2.03888914320204
 30
0.0
 10
2.726388931274414
 20
2.111111534966363
 30
0.0
 10
2.754166709052192
 20
2.07777828640408
 30
0.0
 10
2.784722222222222
 20
2.045833587646484
 30
0.0
 10
2.819444444444444
 20
2.018055809868707
 30
0.0
 10
2.854166666666667
 20
1.98888905843099
 30
0.0
 10
2.904166751437717
 20
1.940277947319878
 30
0.0
 10
2.94999991522895
 20
1.933333502875434
 30
0.0
 10
2.995833290947808
 20
1.92500008477105
 30
0.0
 10
3.045833163791233
 20
1.968055725097656
 30
0.0
 10
3.080555386013455
 20
1.991667005750868
 30
0.0
 10
3.130555470784505
 20
2.02638922797309
 30
0.0
 10
3.169444190131293
 20
2.072222391764323
 30
0.0
 10
3.215277565850152
 20
2.112500508626302
 30
0.0
 10
3.216666751437717
 20
2.036111195882161
 30
0.0
 10
3.216666751437717
 20
1.961111280653212
 30
0.0
 10
3.206944359673394
 20
1.88749991522895
 30
0.0
  0
SPLINE
  5
70
330
41
100
AcDbEntity
  8
Calque 1
370
     0
100
AcDbSpline
210
0.0
220
0.0
230
1.0
 70
    11
 71
     3
 72
    38
 73
    34
 74
     0
 42
0.0000000001
 43
0.0000000001
 12
1.0
 22
0.0
 32
0.0
 13
1.0
 23
0.0
 33
0.0
 40
0.0
 40
0.0
 40
0.0
 40
0.0
 40
1.0
 40
1.0
 40
1.0
 40
2.0
 40
2.0
 40
2.0
 40
3.0
 40
3.0
 40
3.0
 40
4.0
 40
4.0
 40
4.0
 40
5.0
 40
5.0
 40
5.0
 40
6.0
 40
6.0
 40
6.0
 40
7.0
 40
7.0
 40
7.0
 40
8.0
 40
8.0
 40
8.0
 40
9.0
 40
9.0
 40
9.0
 40
10.0
 40
10.0
 40
10.0
 40
11.0
 40
11.0
 40
11.0
 40
11.0
 10
2.480555640326606
 20
1.98888905843099
 30
0.0
 10
2.477777904934353
 20
1.990278032090929
 30
0.0
 10
2.4750001695421
 20
1.990278032090929
 30
0.0
 10
2.472222222222222
 20
1.990278032090929
 30
0.0
 10
2.398611068725586
 20
1.991667005750868
 30
0.0
 10
2.315277735392252
 20
1.995833502875434
 30
0.0
 10
2.245833290947808
 20
2.023611280653212
 30
0.0
 10
2.194444444444444
 20
2.044444613986545
 30
0.0
 10
2.181944317287869
 20
2.076388888888889
 30
0.0
 10
2.163888931274414
 20
2.126388973659939
 30
0.0
 10
2.151389016045465
 20
2.161111195882161
 30
0.0
 10
2.141666624281141
 20
2.195833418104383
 30
0.0
 10
2.133333418104383
 20
2.230555640326606
 30
0.0
 10
2.131944444444444
 20
2.234722137451172
 30
0.0
 10
2.130555682712131
 20
2.23750008477105
 30
0.0
 10
2.129166709052192
 20
2.238889058430989
 30
0.0
 10
2.163888931274414
 20
2.302778032090929
 30
0.0
 10
2.20694457160102
 20
2.361111111111111
 30
0.0
 10
2.251388973659939
 20
2.419444613986545
 30
0.0
 10
2.256944444444444
 20
2.372222476535373
 30
0.0
 10
2.266666836208767
 20
2.326388888888889
 30
0.0
 10
2.280555725097656
 20
2.280555725097656
 30
0.0
 10
2.294444613986545
 20
2.23750008477105
 30
0.0
 10
2.311111238267686
 20
2.156944698757596
 30
0.0
 10
2.35138914320204
 20
2.127777947319879
 30
0.0
 10
2.387500339084201
 20
2.10138914320204
 30
0.0
 10
2.459722518920898
 20
2.111111111111111
 30
0.0
 10
2.500000211927626
 20
2.113889058430989
 30
0.0
 10
2.550000296698676
 20
2.116667005750868
 30
0.0
 10
2.6000001695421
 20
2.123611450195312
 30
0.0
 10
2.648611280653212
 20
2.136111365424262
 30
0.0
 10
2.601388931274414
 20
2.079166836208767
 30
0.0
 10
2.543055640326606
 20
2.030555725097656
 30
0.0
 10
2.480555640326606
 20
1.98888905843099
 30
0.0
  0
SPLINE
  5
71
330
41
100
AcDbEntity
  8
Calque 1
370
     0
100
AcDbSpline
210
0.0
220
0.0
230
1.0
 70
    11
 71
     3
 72
    38
 73
    34
 74
     0
 42
0.0000000001
 43
0.0000000001
 12
1.0
 22
0.0
 32
0.0
 13
1.0
 23
0.0
 33
0.0
 40
0.0
 40
0.0
 40
0.0
 40
0.0
 40
1.0
 40
1.0
 40
1.0
 40
2.0
 40
2.0
 40
2.0
 40
3.0
 40
3.0
 40
3.0
 40
4.0
 40
4.0
 40
4.0
 40
5.0
 40
5.0
 40
5.0
 40
6.0
 40
6.0
 40
6.0
 40
7.0
 40
7.0
 40
7.0
 40
8.0
 40
8.0
 40
8.0
 40
9.0
 40
9.0
 40
9.0
 40
10.0
 40
10.0
 40
10.0
 40
11.0
 40
11.0
 40
11.0
 40
11.0
 10
1.98750008477105
 20
2.431944529215495
 30
0.0
 10
1.986111111111111
 20
2.434722476535373
 30
0.0
 10
1.983333375718858
 20
2.4375
 30
0.0
 10
1.979166666666667
 20
2.440277947319878
 30
0.0
 10
1.947222179836697
 20
2.461111280653212
 30
0.0
 10
1.915277693006727
 20
2.481944613986545
 30
0.0
 10
1.884722179836697
 20
2.505555682712131
 30
0.0
 10
1.844444486829969
 20
2.5375001695421
 30
0.0
 10
1.820833206176758
 20
2.554166793823242
 30
0.0
 10
1.819444444444444
 20
2.611111323038737
 30
0.0
 10
1.816666709052192
 20
2.686111238267686
 30
0.0
 10
1.834722306993273
 20
2.765278074476454
 30
0.0
 10
1.858333375718858
 20
2.837500254313151
 30
0.0
 10
1.859722349378798
 20
2.840277989705403
 30
0.0
 10
1.859722349378798
 20
2.843055725097656
 30
0.0
 10
1.859722349378798
 20
2.845833672417534
 30
0.0
 10
1.919444613986545
 20
2.893055809868706
 30
0.0
 10
1.983333375718858
 20
2.93194474114312
 30
0.0
 10
2.051389058430989
 20
2.958333757188585
 30
0.0
 10
2.025000254313151
 20
2.916667090521918
 30
0.0
 10
2.002777947319879
 20
2.872222688462999
 30
0.0
 10
1.986111323038737
 20
2.826389312744141
 30
0.0
 10
1.970833460489909
 20
2.787500381469727
 30
0.0
 10
1.937500211927626
 20
2.719444910685221
 30
0.0
 10
1.952778074476454
 20
2.676389270358615
 30
0.0
 10
1.969444698757595
 20
2.630555894639757
 30
0.0
 10
2.031944698757596
 20
2.594444910685221
 30
0.0
 10
2.06944465637207
 20
2.568055894639757
 30
0.0
 10
2.111111323038737
 20
2.53888914320204
 30
0.0
 10
2.154166963365343
 20
2.513889312744141
 30
0.0
 10
2.198611365424262
 20
2.491667005750868
 30
0.0
 10
2.127777735392252
 20
2.46805551317003
 30
0.0
 10
2.058333290947808
 20
2.445833418104383
 30
0.0
 10
1.98750008477105
 20
2.431944529215495
 30
0.0
  0
SPLINE
  5
72
330
41
100
AcDbEntity
  8
Calque 1
370
     0
100
AcDbSpline
210
0.0
220
0.0
230
1.0
 70
    11
 71
     3
 72
    23
 73
    19
 74
     0
 42
0.0000000001
 43
0.0000000001
 12
1.0
 22
0.0
 32
0.0
 13
1.0
 23
0.0
 33
0.0
 40
0.0
 40
0.0
 40
0.0
 40
0.0
 40
1.0
 40
1.0
 40
1.0
 40
2.0
 40
2.0
 40
2.0
 40
3.0
 40
3.0
 40
3.0
 40
4.0
 40
4.0
 40
4.0
 40
5.0
 40
5.0
 40
5.0
 40
6.0
 40
6.0
 40
6.0
 40
6.0
 10
1.679166687859429
 20
2.724999957614475
 30
0.0
 10
1.593055619133843
 20
2.783333248562283
 30
0.0
 10
1.427777820163303
 20
2.886111153496636
 30
0.0
 10
1.427777820163303
 20
3.0
 30
0.0
 10
1.427777820163303
 20
3.113888846503364
 30
0.0
 10
1.594444486829969
 20
3.216666751437717
 30
0.0
 10
1.679166687859429
 20
3.275000042385525
 30
0.0
 10
1.700000021192762
 20
3.25
 30
0.0
 10
1.722222222222222
 20
3.224999957614475
 30
0.0
 10
1.745833396911621
 20
3.201388888888889
 30
0.0
 10
1.830555597941081
 20
3.115277820163303
 30
0.0
 10
1.927777820163303
 20
3.043055640326606
 30
0.0
 10
2.040277904934353
 20
3.0
 30
0.0
 10
1.931944529215495
 20
2.956944359673394
 30
0.0
 10
1.836111280653212
 20
2.888888888888889
 30
0.0
 10
1.754166815016005
 20
2.806944529215495
 30
0.0
 10
1.72777779897054
 20
2.78055551317003
 30
0.0
 10
1.702777756585015
 20
2.752777735392252
 30
0.0
 10
1.679166687859429
 20
2.724999957614475
 30
0.0
  0
SPLINE
  5
73
330
41
100
AcDbEntity
  8
Calque 1
370
     0
100
AcDbSpline
210
0.0
220
0.0
230
1.0
 70
    11
 71
     3
 72
    38
 73
    34
 74
     0
 42
0.0000000001
 43
0.0000000001
 12
1.0
 22
0.0
 32
0.0
 13
1.0
 23
0.0
 33
0.0
 40
0.0
 40
0.0
 40
0.0
 40
0.0
 40
1.0
 40
1.0
 40
1.0
 40
2.0
 40
2.0
 40
2.0
 40
3.0
 40
3.0
 40
3.0
 40
4.0
 40
4.0
 40
4.0
 40
5.0
 40
5.0
 40
5.0
 40
6.0
 40
6.0
 40
6.0
 40
7.0
 40
7.0
 40
7.0
 40
8.0
 40
8.0
 40
8.0
 40
9.0
 40
9.0
 40
9.0
 40
10.0
 40
10.0
 40
10.0
 40
11.0
 40
11.0
 40
11.0
 40
11.0
 10
1.856944402058919
 20
3.162499957614475
 30
0.0
 10
1.834722095065647
 20
3.233333375718858
 30
0.0
 10
1.813888761732313
 20
3.313888761732313
 30
0.0
 10
1.818055470784505
 20
3.388888888888889
 30
0.0
 10
1.820833206176758
 20
3.438888973659939
 30
0.0
 10
1.837499830457899
 20
3.456944359673394
 30
0.0
 10
1.875
 20
3.48750008477105
 30
0.0
 10
1.908333248562283
 20
3.513888888888889
 30
0.0
 10
1.943055470784505
 20
3.538888931274414
 30
0.0
 10
1.979166666666667
 20
3.561111238267686
 30
0.0
 10
1.983333375718858
 20
3.563888973659939
 30
0.0
 10
1.984722137451172
 20
3.566666709052192
 30
0.0
 10
1.986111111111111
 20
3.56944465637207
 30
0.0
 10
2.058333290947808
 20
3.555555767483181
 30
0.0
 10
2.127777735392252
 20
3.533333460489909
 30
0.0
 10
2.195833418104383
 20
3.508333630032009
 30
0.0
 10
2.150000042385525
 20
3.486111323038737
 30
0.0
 10
2.106944613986545
 20
3.462500254313151
 30
0.0
 10
2.066666709052192
 20
3.43333371480306
 30
0.0
 10
2.029166751437717
 20
3.406944910685221
 30
0.0
 10
1.966666751437717
 20
3.37083371480306
 30
0.0
 10
1.950000127156575
 20
3.325000339084201
 30
0.0
 10
1.934722264607747
 20
3.281944698757595
 30
0.0
 10
1.968055725097656
 20
3.215278201633029
 30
0.0
 10
1.983333375718858
 20
3.175000296698676
 30
0.0
 10
2.001388973659939
 20
3.129166920979817
 30
0.0
 10
2.023611068725586
 20
3.084722518920898
 30
0.0
 10
2.048611111111111
 20
3.043055852254231
 30
0.0
 10
1.980555640326606
 20
3.07083363003201
 30
0.0
 10
1.916666666666667
 20
3.109722561306424
 30
0.0
 10
1.856944402058919
 20
3.155555937025282
 30
0.0
 10
1.858333375718858
 20
3.156944486829969
 30
0.0
 10
1.858333375718858
 20
3.159722222222222
 30
0.0
 10
1.856944402058919
 20
3.162499957614475
 30
0.0
  0
SPLINE
  5
74
330
41
100
AcDbEntity
  8
Calque 1
370
     0
100
AcDbSpline
210
0.0
220
0.0
230
1.0
 70
    11
 71
     3
 72
    38
 73
    34
 74
     0
 42
0.0000000001
 43
0.0000000001
 12
1.0
 22
0.0
 32
0.0
 13
1.0
 23
0.0
 33
0.0
 40
0.0
 40
0.0
 40
0.0
 40
0.0
 40
1.0
 40
1.0
 40
1.0
 40
2.0
 40
2.0
 40
2.0
 40
3.0
 40
3.0
 40
3.0
 40
4.0
 40
4.0
 40
4.0
 40
5.0
 40
5.0
 40
5.0
 40
6.0
 40
6.0
 40
6.0
 40
7.0
 40
7.0
 40
7.0
 40
8.0
 40
8.0
 40
8.0
 40
9.0
 40
9.0
 40
9.0
 40
10.0
 40
10.0
 40
10.0
 40
11.0
 40
11.0
 40
11.0
 40
11.0
 10
2.480555640326606
 20
4.011111153496636
 30
0.0
 10
2.543055640326606
 20
3.969444486829969
 30
0.0
 10
2.6000001695421
 20
3.920833375718858
 30
0.0
 10
2.647222306993272
 20
3.863888846503364
 30
0.0
 10
2.602777904934353
 20
3.875
 30
0.0
 10
2.556944529215495
 20
3.881944444444444
 30
0.0
 10
2.511111153496636
 20
3.884722179836697
 30
0.0
 10
2.466666751437717
 20
3.88749991522895
 30
0.0
 10
2.388888888888889
 20
3.898611068725586
 30
0.0
 10
2.349999957614475
 20
3.870833290947808
 30
0.0
 10
2.313888761732313
 20
3.844444486829969
 30
0.0
 10
2.295833375718858
 20
3.770833333333333
 30
0.0
 10
2.283333248562283
 20
3.73055542839898
 30
0.0
 10
2.268055386013455
 20
3.68055534362793
 30
0.0
 10
2.256944444444444
 20
3.630555470784505
 30
0.0
 10
2.25
 20
3.579166624281141
 30
0.0
 10
2.205555597941081
 20
3.63749991522895
 30
0.0
 10
2.162499957614475
 20
3.695833206176758
 30
0.0
 10
2.126388973659939
 20
3.759722179836697
 30
0.0
 10
2.127777947319879
 20
3.76249991522895
 30
0.0
 10
2.130555682712131
 20
3.765277650621202
 30
0.0
 10
2.130555682712131
 20
3.768055597941081
 30
0.0
 10
2.138889100816515
 20
3.798611111111111
 30
0.0
 10
2.147222306993272
 20
3.830555597941081
 30
0.0
 10
2.158333460489909
 20
3.861111111111111
 30
0.0
 10
2.176389058430989
 20
3.913888931274414
 30
0.0
 10
2.187500211927626
 20
3.952777862548828
 30
0.0
 10
2.244444529215495
 20
3.974999957614475
 30
0.0
 10
2.315277947319878
 20
4.001388761732313
 30
0.0
 10
2.395833333333333
 20
4.008333206176758
 30
0.0
 10
2.470833460489909
 20
4.008333206176758
 30
0.0
 10
2.474999957614475
 20
4.009722179836697
 30
0.0
 10
2.477777693006727
 20
4.011111153496636
 30
0.0
 10
2.480555640326606
 20
4.011111153496636
 30
0.0
  0
SPLINE
  5
75
330
41
100
AcDbEntity
  8
Calque 1
370
     0
100
AcDbSpline
210
0.0
220
0.0
230
1.0
 70
    11
 71
     3
 72
    38
 73
    34
 74
     0
 42
0.0000000001
 43
0.0000000001
 12
1.0
 22
0.0
 32
0.0
 13
1.0
 23
0.0
 33
0.0
 40
0.0
 40
0.0
 40
0.0
 40
0.0
 40
1.0
 40
1.0
 40
1.0
 40
2.0
 40
2.0
 40
2.0
 40
3.0
 40
3.0
 40
3.0
 40
4.0
 40
4.0
 40
4.0
 40
5.0
 40
5.0
 40
5.0
 40
6.0
 40
6.0
 40
6.0
 40
7.0
 40
7.0
 40
7.0
 40
8.0
 40
8.0
 40
8.0
 40
9.0
 40
9.0
 40
9.0
 40
10.0
 40
10.0
 40
10.0
 40
11.0
 40
11.0
 40
11.0
 40
11.0
 10
2.773611068725586
 20
4.105555640326606
 30
0.0
 10
2.776388804117838
 20
4.105555640326606
 30
0.0
 10
2.777777777777778
 20
4.106944613986545
 30
0.0
 10
2.78055551317003
 20
4.108333375718859
 30
0.0
 10
2.841666539510091
 20
4.151389016045465
 30
0.0
 10
2.90555551317003
 20
4.1875
 30
0.0
 10
2.976388931274414
 20
4.212500042385525
 30
0.0
 10
3.01944457160102
 20
4.22777779897054
 30
0.0
 10
3.044444402058919
 20
4.222222222222222
 30
0.0
 10
3.084722306993272
 20
4.198611153496636
 30
0.0
 10
3.125
 20
4.176388846503364
 30
0.0
 10
3.1625001695421
 20
4.145833333333333
 30
0.0
 10
3.197222391764323
 20
4.116666793823242
 30
0.0
 10
3.200000127156575
 20
4.113889058430989
 30
0.0
 10
3.204166836208767
 20
4.11250008477105
 30
0.0
 10
3.20694457160102
 20
4.11250008477105
 30
0.0
 10
3.216666751437717
 20
4.038888931274414
 30
0.0
 10
3.216666751437717
 20
3.963889016045464
 30
0.0
 10
3.213889016045464
 20
3.888888888888889
 30
0.0
 10
3.172222349378798
 20
3.926388846503364
 30
0.0
 10
3.134722391764323
 20
3.969444486829969
 30
0.0
 10
3.088889016045464
 20
4.001388973659939
 30
0.0
 10
3.055555767483181
 20
4.025000042385525
 30
0.0
 10
3.001388973659939
 20
4.072222391764322
 30
0.0
 10
2.955555597941081
 20
4.068055682712131
 30
0.0
 10
2.909722222222222
 20
4.063888973659939
 30
0.0
 10
2.861111111111111
 20
4.016666836208767
 30
0.0
 10
2.827777862548828
 20
3.988889058430989
 30
0.0
 10
2.790277904934353
 20
3.958333545260959
 30
0.0
 10
2.756944444444444
 20
3.92500008477105
 30
0.0
 10
2.726388931274414
 20
3.887500127156575
 30
0.0
 10
2.730555640326606
 20
3.961111068725586
 30
0.0
 10
2.747222264607747
 20
4.034722222222222
 30
0.0
 10
2.773611068725586
 20
4.105555640326606
 30
0.0
  0
SPLINE
  5
76
330
41
100
AcDbEntity
  8
Calque 1
370
     0
100
AcDbSpline
210
0.0
220
0.0
230
1.0
 70
    11
 71
     3
 72
    35
 73
    31
 74
     0
 42
0.0000000001
 43
0.0000000001
 12
1.0
 22
0.0
 32
0.0
 13
1.0
 23
0.0
 33
0.0
 40
0.0
 40
0.0
 40
0.0
 40
0.0
 40
1.0
 40
1.0
 40
1.0
 40
2.0
 40
2.0
 40
2.0
 40
3.0
 40
3.0
 40
3.0
 40
4.0
 40
4.0
 40
4.0
 40
5.0
 40
5.0
 40
5.0
 40
6.0
 40
6.0
 40
6.0
 40
7.0
 40
7.0
 40
7.0
 40
8.0
 40
8.0
 40
8.0
 40
9.0
 40
9.0
 40
9.0
 40
10.0
 40
10.0
 40
10.0
 40
10.0
 10
3.434722264607747
 20
4.037499957614474
 30
0.0
 10
3.4375
 20
4.036110983954535
 30
0.0
 10
3.440277735392252
 20
4.036110983954535
 30
0.0
 10
3.444444444444444
 20
4.036110983954535
 30
0.0
 10
3.525000042385525
 20
4.04166645473904
 30
0.0
 10
3.625
 20
4.05555534362793
 30
0.0
 10
3.680555555555555
 20
3.986110899183485
 30
0.0
 10
3.726388719346788
 20
3.93055534362793
 30
0.0
 10
3.755555470784505
 20
3.85416645473904
 30
0.0
 10
3.777777777777778
 20
3.787499745686849
 30
0.0
 10
3.779166751437717
 20
3.784722010294596
 30
0.0
 10
3.780555725097656
 20
3.781944274902344
 30
0.0
 10
3.781944274902344
 20
3.779166327582465
 30
0.0
 10
3.76111094156901
 20
3.706944147745768
 30
0.0
 10
3.731944190131293
 20
3.637499703301323
 30
0.0
 10
3.693055470784505
 20
3.574999703301323
 30
0.0
 10
3.688888973659939
 20
3.624999788072374
 30
0.0
 10
3.681944529215495
 20
3.673610899183485
 30
0.0
 10
3.668055640326606
 20
3.720833036634657
 30
0.0
 10
3.656944698757595
 20
3.759721967909071
 30
0.0
 10
3.644444359673394
 20
3.831944147745768
 30
0.0
 10
3.608333587646484
 20
3.858332951863606
 30
0.0
 10
3.569444868299696
 20
3.887499703301323
 30
0.0
 10
3.487500296698676
 20
3.87916628519694
 30
0.0
 10
3.441666920979817
 20
3.87916628519694
 30
0.0
 10
3.406944698757595
 20
3.87916628519694
 30
0.0
 10
3.345833672417534
 20
3.862499660915798
 30
0.0
 10
3.297222561306423
 20
3.859721925523546
 30
0.0
 10
3.340277777777778
 20
3.922222137451172
 30
0.0
 10
3.383333418104383
 20
3.983333375718858
 30
0.0
 10
3.434722264607747
 20
4.037499957614474
 30
0.0
  0
SPLINE
  5
77
330
41
100
AcDbEntity
  8
Calque 1
370
     0
100
AcDbSpline
210
0.0
220
0.0
230
1.0
 70
    11
 71
     3
 72
    38
 73
    34
 74
     0
 42
0.0000000001
 43
0.0000000001
 12
1.0
 22
0.0
 32
0.0
 13
1.0
 23
0.0
 33
0.0
 40
0.0
 40
0.0
 40
0.0
 40
0.0
 40
1.0
 40
1.0
 40
1.0
 40
2.0
 40
2.0
 40
2.0
 40
3.0
 40
3.0
 40
3.0
 40
4.0
 40
4.0
 40
4.0
 40
5.0
 40
5.0
 40
5.0
 40
6.0
 40
6.0
 40
6.0
 40
7.0
 40
7.0
 40
7.0
 40
8.0
 40
8.0
 40
8.0
 40
9.0
 40
9.0
 40
9.0
 40
10.0
 40
10.0
 40
10.0
 40
11.0
 40
11.0
 40
11.0
 40
11.0
 10
3.965277777777778
 20
3.529166751437717
 30
0.0
 10
3.966666751437717
 20
3.526389016045464
 30
0.0
 10
3.968055725097656
 20
3.525000042385525
 30
0.0
 10
3.970833248562283
 20
3.522222306993272
 30
0.0
 10
4.029166751437717
 20
3.479166666666667
 30
0.0
 10
4.102777693006727
 20
3.419444613986545
 30
0.0
 10
4.140277862548828
 20
3.354166666666667
 30
0.0
 10
4.176389058430989
 20
3.288888931274414
 30
0.0
 10
4.129166920979817
 20
3.193055470784505
 30
0.0
 10
4.102777693006727
 20
3.127777735392252
 30
0.0
 10
4.101388719346788
 20
3.125
 30
0.0
 10
4.101388719346788
 20
3.122222264607747
 30
0.0
 10
4.101388719346788
 20
3.119444317287869
 30
0.0
 10
4.034722222222222
 20
3.087499830457899
 30
0.0
 10
3.963888804117838
 20
3.065277735392252
 30
0.0
 10
3.893055386013454
 20
3.045833163791233
 30
0.0
 10
3.902777777777778
 20
3.063888761732313
 30
0.0
 10
3.915277693006727
 20
3.080555386013455
 30
0.0
 10
3.920833163791233
 20
3.094444274902344
 30
0.0
 10
3.934722052680121
 20
3.124999788072374
 30
0.0
 10
3.947221967909071
 20
3.155555301242404
 30
0.0
 10
3.958333333333333
 20
3.187499788072374
 30
0.0
 10
3.972222222222222
 20
3.22916645473904
 30
0.0
 10
4.002777947319879
 20
3.299999872843424
 30
0.0
 10
3.986111111111111
 20
3.344444274902344
 30
0.0
 10
3.970833248562283
 20
3.38611094156901
 30
0.0
 10
3.905555725097656
 20
3.422222137451172
 30
0.0
 10
3.870833502875434
 20
3.444444232516819
 30
0.0
 10
3.830555809868706
 20
3.470833036634657
 30
0.0
 10
3.7875001695421
 20
3.49166636996799
 30
0.0
 10
3.743055555555555
 20
3.51111094156901
 30
0.0
 10
3.815277947319878
 20
3.526388804117838
 30
0.0
 10
3.890277862548828
 20
3.531944486829969
 30
0.0
 10
3.965277777777778
 20
3.529166751437717
 30
0.0
  0
SPLINE
  5
78
330
41
100
AcDbEntity
  8
Calque 1
370
     0
100
AcDbSpline
210
0.0
220
0.0
230
1.0
 70
    11
 71
     3
 72
   134
 73
   130
 74
     0
 42
0.0000000001
 43
0.0000000001
 12
1.0
 22
0.0
 32
0.0
 13
1.0
 23
0.0
 33
0.0
 40
0.0
 40
0.0
 40
0.0
 40
0.0
 40
1.0
 40
1.0
 40
1.0
 40
2.0
 40
2.0
 40
2.0
 40
3.0
 40
3.0
 40
3.0
 40
4.0
 40
4.0
 40
4.0
 40
5.0
 40
5.0
 40
5.0
 40
6.0
 40
6.0
 40
6.0
 40
7.0
 40
7.0
 40
7.0
 40
8.0
 40
8.0
 40
8.0
 40
9.0
 40
9.0
 40
9.0
 40
10.0
 40
10.0
 40
10.0
 40
11.0
 40
11.0
 40
11.0
 40
12.0
 40
12.0
 40
12.0
 40
13.0
 40
13.0
 40
13.0
 40
14.0
 40
14.0
 40
14.0
 40
15.0
 40
15.0
 40
15.0
 40
16.0
 40
16.0
 40
16.0
 40
17.0
 40
17.0
 40
17.0
 40
18.0
 40
18.0
 40
18.0
 40
19.0
 40
19.0
 40
19.0
 40
20.0
 40
20.0
 40
20.0
 40
21.0
 40
21.0
 40
21.0
 40
22.0
 40
22.0
 40
22.0
 40
23.0
 40
23.0
 40
23.0
 40
24.0
 40
24.0
 40
24.0
 40
25.0
 40
25.0
 40
25.0
 40
26.0
 40
26.0
 40
26.0
 40
27.0
 40
27.0
 40
27.0
 40
28.0
 40
28.0
 40
28.0
 40
29.0
 40
29.0
 40
29.0
 40
30.0
 40
30.0
 40
30.0
 40
31.0
 40
31.0
 40
31.0
 40
32.0
 40
32.0
 40
32.0
 40
33.0
 40
33.0
 40
33.0
 40
34.0
 40
34.0
 40
34.0
 40
35.0
 40
35.0
 40
35.0
 40
36.0
 40
36.0
 40
36.0
 40
37.0
 40
37.0
 40
37.0
 40
38.0
 40
38.0
 40
38.0
 40
39.0
 40
39.0
 40
39.0
 40
40.0
 40
40.0
 40
40.0
 40
41.0
 40
41.0
 40
41.0
 40
42.0
 40
42.0
 40
42.0
 40
43.0
 40
43.0
 40
43.0
 40
43.0
 10
3.669444613986545
 20
2.509722179836697
 30
0.0
 10
3.661111195882161
 20
2.506944444444444
 30
0.0
 10
3.654166751437717
 20
2.498611026340061
 30
0.0
 10
3.654166751437717
 20
2.488888846503364
 30
0.0
 10
3.654166751437717
 20
2.401388804117838
 30
0.0
 10
3.648611280653212
 20
2.243055555555555
 30
0.0
 10
3.573611365424262
 20
2.1875
 30
0.0
 10
3.49444474114312
 20
2.129166497124566
 30
0.0
 10
3.336111280653212
 20
2.168055640326606
 30
0.0
 10
3.247222476535373
 20
2.188888973659939
 30
0.0
 10
3.240278032090929
 20
2.190277947319879
 30
0.0
 10
3.231944613986545
 20
2.188888973659939
 30
0.0
 10
3.22638914320204
 20
2.183333502875434
 30
0.0
 10
3.193055894639757
 20
2.144444783528646
 30
0.0
 10
3.158333672417534
 20
2.106944613986545
 30
0.0
 10
3.11944474114312
 20
2.073611365424262
 30
0.0
 10
3.087500254313151
 20
2.045833587646484
 30
0.0
 10
3.023611492580838
 20
1.986111534966363
 30
0.0
 10
2.977778116861979
 20
1.97638914320204
 30
0.0
 10
2.929167005750868
 20
1.966666751437717
 30
0.0
 10
2.872222476535373
 20
2.025000254313151
 30
0.0
 10
2.840278201633029
 20
2.052778032090929
 30
0.0
 10
2.79583379957411
 20
2.091666751437717
 30
0.0
 10
2.756944868299696
 20
2.134722391764323
 30
0.0
 10
2.722222646077474
 20
2.181944529215495
 30
0.0
 10
2.716667175292969
 20
2.188888973659939
 30
0.0
 10
2.708333757188585
 20
2.194444444444444
 30
0.0
 10
2.698611577351888
 20
2.191666920979817
 30
0.0
 10
2.616667217678494
 20
2.165278116861979
 30
0.0
 10
2.472222646077474
 20
2.122222476535373
 30
0.0
 10
2.39027828640408
 20
2.165278116861979
 30
0.0
 10
2.308333926730686
 20
2.208333757188585
 30
0.0
 10
2.291667090521918
 20
2.400000254313151
 30
0.0
 10
2.286111619737413
 20
2.484722561306424
 30
0.0
 10
2.284722646077474
 20
2.49444474114312
 30
0.0
 10
2.280556148952908
 20
2.501389185587565
 30
0.0
 10
2.270833757188585
 20
2.505555894639757
 30
0.0
 10
2.218055937025282
 20
2.527778201633029
 30
0.0
 10
2.166667090521918
 20
2.552778032090929
 30
0.0
 10
2.118055979410807
 20
2.584722518920898
 30
0.0
 10
2.083333757188585
 20
2.606944825914171
 30
0.0
 10
1.994444953070746
 20
2.656944698757596
 30
0.0
 10
1.991667005750868
 20
2.706944783528646
 30
0.0
 10
1.988889270358615
 20
2.751389185587565
 30
0.0
 10
2.022222518920898
 20
2.812500423855252
 30
0.0
 10
2.040278116861979
 20
2.852778116861979
 30
0.0
 10
2.062500423855252
 20
2.900000254313151
 30
0.0
 10
2.08888922797309
 20
2.944444868299696
 30
0.0
 10
2.119444741143121
 20
2.987500296698676
 30
0.0
 10
2.122222476535373
 20
2.990278032090929
 30
0.0
 10
2.125000211927626
 20
2.99444474114312
 30
0.0
 10
2.123611450195312
 20
3.000000211927626
 30
0.0
 10
2.123611450195312
 20
3.004166920979817
 30
0.0
 10
2.122222476535373
 20
3.00833363003201
 30
0.0
 10
2.119444741143121
 20
3.012500127156575
 30
0.0
 10
2.091666963365343
 20
3.052777820163303
 30
0.0
 10
2.065278159247504
 20
3.093055725097656
 30
0.0
 10
2.044444825914171
 20
3.137500127156575
 30
0.0
 10
2.027778201633029
 20
3.173611323038737
 30
0.0
 10
1.988889270358615
 20
3.248611238267686
 30
0.0
 10
1.991667005750868
 20
3.293055640326606
 30
0.0
 10
1.99583371480306
 20
3.343055725097656
 30
0.0
 10
2.072222603691949
 20
3.384722391764323
 30
0.0
 10
2.108333587646484
 20
3.408333460489909
 30
0.0
 10
2.159722434149848
 20
3.443055682712131
 30
0.0
 10
2.21388922797309
 20
3.470833460489909
 30
0.0
 10
2.270833545260959
 20
3.493055767483181
 30
0.0
 10
2.280555725097656
 20
3.497222476535373
 30
0.0
 10
2.286111407809787
 20
3.502777947319878
 30
0.0
 10
2.286111407809787
 20
3.513889100816515
 30
0.0
 10
2.291666878594292
 20
3.597222434149848
 30
0.0
 10
2.309722476535373
 20
3.790277904934353
 30
0.0
 10
2.390278074476454
 20
3.833333545260959
 30
0.0
 10
2.472222434149848
 20
3.876389185587565
 30
0.0
 10
2.616667005750868
 20
3.833333545260959
 30
0.0
 10
2.698611365424262
 20
3.80694474114312
 30
0.0
 10
2.708333545260959
 20
3.804167005750868
 30
0.0
 10
2.716666963365343
 20
3.809722476535373
 30
0.0
 10
2.722222434149848
 20
3.816666920979817
 30
0.0
 10
2.755555682712131
 20
3.861111323038737
 30
0.0
 10
2.791666878594292
 20
3.90138922797309
 30
0.0
 10
2.83194457160102
 20
3.938889185587565
 30
0.0
 10
2.86250008477105
 20
3.966666963365343
 30
0.0
 10
2.930555767483181
 20
4.034722434149848
 30
0.0
 10
2.977777904934353
 20
4.023611492580837
 30
0.0
 10
3.023611280653212
 20
4.012500339084201
 30
0.0
 10
3.076389100816515
 20
3.96388922797309
 30
0.0
 10
3.111111323038737
 20
3.934722688462999
 30
0.0
 10
3.154166963365343
 20
3.900000466240777
 30
0.0
 10
3.191666920979817
 20
3.859722773234049
 30
0.0
 10
3.227777904934353
 20
3.816667132907444
 30
0.0
 10
3.231944613986545
 20
3.811111662122938
 30
0.0
 10
3.241666793823242
 20
3.809722688462999
 30
0.0
 10
3.248611238267686
 20
3.811111662122938
 30
0.0
 10
3.336111280653212
 20
3.833333969116211
 30
0.0
 10
3.495833502875434
 20
3.870833926730686
 30
0.0
 10
3.575000339084201
 20
3.812500635782877
 30
0.0
 10
3.65138922797309
 20
3.755556106567383
 30
0.0
 10
3.655555725097656
 20
3.598611831665039
 30
0.0
 10
3.655555725097656
 20
3.511111789279514
 30
0.0
 10
3.655555725097656
 20
3.501389609442817
 30
0.0
 10
3.6625001695421
 20
3.494445164998372
 30
0.0
 10
3.670833587646484
 20
3.49027845594618
 30
0.0
 10
3.723611195882161
 20
3.4722228580051
 30
0.0
 10
3.773611280653212
 20
3.451389524671766
 30
0.0
 10
3.820833418104383
 20
3.423611746893989
 30
0.0
 10
3.852777693006727
 20
3.404167387220594
 30
0.0
 10
3.940277947319878
 20
3.361111746893989
 30
0.0
 10
3.948611365424262
 20
3.319445080227322
 30
0.0
 10
3.955555809868706
 20
3.279167387220594
 30
0.0
 10
3.923611534966363
 20
3.20972294277615
 30
0.0
 10
3.911111195882161
 20
3.173611746893989
 30
0.0
 10
3.890277862548828
 20
3.11527845594618
 30
0.0
 10
3.86250008477105
 20
3.061111662122938
 30
0.0
 10
3.829166836208767
 20
3.009722815619575
 30
0.0
 10
3.825000339084201
 20
3.004167344835069
 30
0.0
 10
3.825000339084201
 20
2.994444953070746
 30
0.0
 10
3.829166836208767
 20
2.988889482286241
 30
0.0
 10
3.859722561306423
 20
2.94027837117513
 30
0.0
 10
3.886111365424262
 20
2.89027828640408
 30
0.0
 10
3.906944698757595
 20
2.836111704508463
 30
0.0
 10
3.920833587646484
 20
2.800000508626302
 30
0.0
 10
3.958333757188585
 20
2.719445122612847
 30
0.0
 10
3.948611365424262
 20
2.679167217678494
 30
0.0
 10
3.938888973659939
 20
2.636111577351888
 30
0.0
 10
3.863889058430989
 20
2.601389355129666
 30
0.0
 10
3.830555809868706
 20
2.580556021796332
 30
0.0
 10
3.779166751437717
 20
2.551388846503364
 30
0.0
 10
3.7250001695421
 20
2.527777777777778
 30
0.0
 10
3.669444613986545
 20
2.509722179836697
 30
0.0
  0
SPLINE
  5
79
330
41
100
AcDbEntity
  8
Calque 1
370
     0
100
AcDbSpline
210
0.0
220
0.0
230
1.0
 70
    11
 71
     3
 72
    26
 73
    22
 74
     0
 42
0.0000000001
 43
0.0000000001
 12
1.0
 22
0.0
 32
0.0
 13
1.0
 23
0.0
 33
0.0
 40
0.0
 40
0.0
 40
0.0
 40
0.0
 40
1.0
 40
1.0
 40
1.0
 40
2.0
 40
2.0
 40
2.0
 40
3.0
 40
3.0
 40
3.0
 40
4.0
 40
4.0
 40
4.0
 40
5.0
 40
5.0
 40
5.0
 40
6.0
 40
6.0
 40
6.0
 40
7.0
 40
7.0
 40
7.0
 40
7.0
 10
4.191666497124566
 20
3.169444402058919
 30
0.0
 10
4.179166581895617
 20
3.161110983954535
 30
0.0
 10
4.168055216471354
 20
3.154166539510091
 30
0.0
 10
4.155555301242404
 20
3.147222095065647
 30
0.0
 10
4.184722052680121
 20
3.215277565850152
 30
0.0
 10
4.220833248562283
 20
3.30555534362793
 30
0.0
 10
4.181944105360243
 20
3.365277608235677
 30
0.0
 10
4.144443935818142
 20
3.424999872843424
 30
0.0
 10
4.093055301242404
 20
3.476388719346788
 30
0.0
 10
4.038888719346788
 20
3.520833121405707
 30
0.0
 10
4.049999660915798
 20
3.519444147745768
 30
0.0
 10
4.06111102634006
 20
3.518055386013454
 30
0.0
 10
4.07361094156901
 20
3.515277650621202
 30
0.0
 10
4.130555470784505
 20
3.505555470784505
 30
0.0
 10
4.1875
 20
3.491666581895616
 30
0.0
 10
4.243055555555555
 20
3.476388719346788
 30
0.0
 10
4.274999830457899
 20
3.466666539510091
 30
0.0
 10
4.406944274902344
 20
3.438888761732313
 30
0.0
 10
4.419444613986545
 20
3.409722010294596
 30
0.0
 10
4.445833418104383
 20
3.348611195882161
 30
0.0
 10
4.238889058430989
 20
3.201388888888889
 30
0.0
 10
4.191666497124566
 20
3.169444402058919
 30
0.0
  0
SPLINE
  5
7A
330
41
100
AcDbEntity
  8
Calque 1
370
     0
100
AcDbSpline
210
0.0
220
0.0
230
1.0
 70
    11
 71
     3
 72
    26
 73
    22
 74
     0
 42
0.0000000001
 43
0.0000000001
 12
1.0
 22
0.0
 32
0.0
 13
1.0
 23
0.0
 33
0.0
 40
0.0
 40
0.0
 40
0.0
 40
0.0
 40
1.0
 40
1.0
 40
1.0
 40
2.0
 40
2.0
 40
2.0
 40
3.0
 40
3.0
 40
3.0
 40
4.0
 40
4.0
 40
4.0
 40
5.0
 40
5.0
 40
5.0
 40
6.0
 40
6.0
 40
6.0
 40
7.0
 40
7.0
 40
7.0
 40
7.0
 10
3.816666497124566
 20
4.206944359673394
 30
0.0
 10
3.829166412353516
 20
4.093055513170031
 30
0.0
 10
3.82499991522895
 20
3.96805551317003
 30
0.0
 10
3.799999660915798
 20
3.849999957614475
 30
0.0
 10
3.77361085679796
 20
3.920833375718858
 30
0.0
 10
3.737499660915798
 20
3.993055555555555
 30
0.0
 10
3.687499576144748
 20
4.047222137451172
 30
0.0
 10
3.644443935818142
 20
4.095833248562283
 30
0.0
 10
3.548610687255859
 20
4.087499830457899
 30
0.0
 10
3.477777269151475
 20
4.081944359673394
 30
0.0
 10
3.493055131700304
 20
4.095833248562283
 30
0.0
 10
3.508332782321506
 20
4.108333163791232
 30
0.0
 10
3.524999406602647
 20
4.120833290947808
 30
0.0
 10
3.568055046929253
 20
4.152777777777778
 30
0.0
 10
3.615277184380425
 20
4.179166581895617
 30
0.0
 10
3.662499321831597
 20
4.20555559794108
 30
0.0
 10
3.68333265516493
 20
4.218055513170031
 30
0.0
 10
3.705554962158203
 20
4.230555640326606
 30
0.0
 10
3.727777269151475
 20
4.240277820163302
 30
0.0
 10
3.783333248562283
 20
4.263888888888888
 30
0.0
 10
3.808333502875434
 20
4.276388910081652
 30
0.0
 10
3.816666497124566
 20
4.206944359673394
 30
0.0
  0
SPLINE
  5
7B
330
41
100
AcDbEntity
  8
Calque 1
370
     0
100
AcDbSpline
210
0.0
220
0.0
230
1.0
 70
    11
 71
     3
 72
    17
 73
    13
 74
     0
 42
0.0000000001
 43
0.0000000001
 12
1.0
 22
0.0
 32
0.0
 13
1.0
 23
0.0
 33
0.0
 40
0.0
 40
0.0
 40
0.0
 40
0.0
 40
1.0
 40
1.0
 40
1.0
 40
2.0
 40
2.0
 40
2.0
 40
3.0
 40
3.0
 40
3.0
 40
4.0
 40
4.0
 40
4.0
 40
4.0
 10
2.029166751437717
 20
3.893055597941081
 30
0.0
 10
2.069444444444444
 20
3.758333418104383
 30
0.0
 10
2.14444457160102
 20
3.648611068725586
 30
0.0
 10
2.230555640326606
 20
3.538888931274414
 30
0.0
 10
2.098611195882161
 20
3.586111068725586
 30
0.0
 10
1.970833460489909
 20
3.623611238267686
 30
0.0
 10
1.83194457160102
 20
3.620833290947808
 30
0.0
 10
1.777777989705404
 20
3.713888804117838
 30
0.0
 10
1.73750008477105
 20
3.8125
 30
0.0
 10
1.712500148349338
 20
3.916666666666667
 30
0.0
 10
1.818055470784505
 20
3.923611111111111
 30
0.0
 10
1.923611111111111
 20
3.915277693006727
 30
0.0
 10
2.029166751437717
 20
3.893055597941081
 30
0.0
  0
SPLINE
  5
7C
330
41
100
AcDbEntity
  8
Calque 1
370
     0
100
AcDbSpline
210
0.0
220
0.0
230
1.0
 70
    11
 71
     3
 72
    26
 73
    22
 74
     0
 42
0.0000000001
 43
0.0000000001
 12
1.0
 22
0.0
 32
0.0
 13
1.0
 23
0.0
 33
0.0
 40
0.0
 40
0.0
 40
0.0
 40
0.0
 40
1.0
 40
1.0
 40
1.0
 40
2.0
 40
2.0
 40
2.0
 40
3.0
 40
3.0
 40
3.0
 40
4.0
 40
4.0
 40
4.0
 40
5.0
 40
5.0
 40
5.0
 40
6.0
 40
6.0
 40
6.0
 40
7.0
 40
7.0
 40
7.0
 40
7.0
 10
1.870833290947808
 20
3.579166624281141
 30
0.0
 10
1.890277650621202
 20
3.579166624281141
 30
0.0
 10
1.908333248562283
 20
3.577777650621202
 30
0.0
 10
1.927777820163303
 20
3.576388888888889
 30
0.0
 10
1.869444529215495
 20
3.540277693006727
 30
0.0
 10
1.787499957614475
 20
3.490277820163303
 30
0.0
 10
1.779166751437717
 20
3.430555555555555
 30
0.0
 10
1.768055597941081
 20
3.358333375718858
 30
0.0
 10
1.783333460489909
 20
3.275000042385525
 30
0.0
 10
1.802777820163303
 20
3.201388888888889
 30
0.0
 10
1.718055619133843
 20
3.279166751437717
 30
0.0
 10
1.644444465637207
 20
3.373611026340061
 30
0.0
 10
1.587500042385525
 20
3.466666751437717
 30
0.0
 10
1.566666709052192
 20
3.5
 30
0.0
 10
1.54027779897054
 20
3.51944457160102
 30
0.0
 10
1.587500042385525
 20
3.545833375718858
 30
0.0
 10
1.61250008477105
 20
3.559722264607747
 30
0.0
 10
1.652777777777778
 20
3.561111238267686
 30
0.0
 10
1.680555555555555
 20
3.565277735392252
 30
0.0
 10
1.743055555555555
 20
3.573611153496636
 30
0.0
 10
1.806944529215495
 20
3.580555597941081
 30
0.0
 10
1.870833290947808
 20
3.579166624281141
 30
0.0
  0
SPLINE
  5
7D
330
41
100
AcDbEntity
  8
Calque 1
370
     0
100
AcDbSpline
210
0.0
220
0.0
230
1.0
 70
    11
 71
     3
 72
    26
 73
    22
 74
     0
 42
0.0000000001
 43
0.0000000001
 12
1.0
 22
0.0
 32
0.0
 13
1.0
 23
0.0
 33
0.0
 40
0.0
 40
0.0
 40
0.0
 40
0.0
 40
1.0
 40
1.0
 40
1.0
 40
2.0
 40
2.0
 40
2.0
 40
3.0
 40
3.0
 40
3.0
 40
4.0
 40
4.0
 40
4.0
 40
5.0
 40
5.0
 40
5.0
 40
6.0
 40
6.0
 40
6.0
 40
7.0
 40
7.0
 40
7.0
 40
7.0
 10
1.587500042385525
 20
2.531944486829969
 30
0.0
 10
1.644444465637207
 20
2.626388973659939
 30
0.0
 10
1.718055619133843
 20
2.719444486829969
 30
0.0
 10
1.802777820163303
 20
2.797222349378798
 30
0.0
 10
1.783333460489909
 20
2.723611195882161
 30
0.0
 10
1.766666730244954
 20
2.640277862548828
 30
0.0
 10
1.779166751437717
 20
2.568055682712131
 30
0.0
 10
1.788888931274414
 20
2.508333418104383
 30
0.0
 10
1.869444529215495
 20
2.45694457160102
 30
0.0
 10
1.927777820163303
 20
2.422222561306424
 30
0.0
 10
1.913888931274414
 20
2.420833587646484
 30
0.0
 10
1.898611068725586
 20
2.419444613986545
 30
0.0
 10
1.883333418104383
 20
2.419444613986545
 30
0.0
 10
1.823611153496636
 20
2.418055640326606
 30
0.0
 10
1.762500127156575
 20
2.423611111111111
 30
0.0
 10
1.702777862548828
 20
2.430555555555555
 30
0.0
 10
1.670833375718858
 20
2.434722052680121
 30
0.0
 10
1.618055661519368
 20
2.436111026340061
 30
0.0
 10
1.587500042385525
 20
2.452777862548828
 30
0.0
 10
1.54027779897054
 20
2.479166666666667
 30
0.0
 10
1.566666709052192
 20
2.5
 30
0.0
 10
1.587500042385525
 20
2.531944486829969
 30
0.0
  0
SPLINE
  5
7E
330
41
100
AcDbEntity
  8
Calque 1
370
     0
100
AcDbSpline
210
0.0
220
0.0
230
1.0
 70
    11
 71
     3
 72
    17
 73
    13
 74
     0
 42
0.0000000001
 43
0.0000000001
 12
1.0
 22
0.0
 32
0.0
 13
1.0
 23
0.0
 33
0.0
 40
0.0
 40
0.0
 40
0.0
 40
0.0
 40
1.0
 40
1.0
 40
1.0
 40
2.0
 40
2.0
 40
2.0
 40
3.0
 40
3.0
 40
3.0
 40
4.0
 40
4.0
 40
4.0
 40
4.0
 10
2.230555640326606
 20
2.461111068725586
 30
0.0
 10
2.14444457160102
 20
2.351388719346788
 30
0.0
 10
2.069444444444444
 20
2.240277608235677
 30
0.0
 10
2.029166751437717
 20
2.106944613986545
 30
0.0
 10
1.923611111111111
 20
2.084722306993272
 30
0.0
 10
1.818055682712131
 20
2.076388888888889
 30
0.0
 10
1.711111174689399
 20
2.084722306993272
 30
0.0
 10
1.73750008477105
 20
2.188888973659939
 30
0.0
 10
1.776388910081651
 20
2.2875001695421
 30
0.0
 10
1.83194457160102
 20
2.380555470784505
 30
0.0
 10
1.970833248562283
 20
2.377777947319878
 30
0.0
 10
2.098611195882161
 20
2.413888719346788
 30
0.0
 10
2.230555640326606
 20
2.461111068725586
 30
0.0
  0
SPLINE
  5
7F
330
41
100
AcDbEntity
  8
Calque 1
370
     0
100
AcDbSpline
210
0.0
220
0.0
230
1.0
 70
    11
 71
     3
 72
    26
 73
    22
 74
     0
 42
0.0000000001
 43
0.0000000001
 12
1.0
 22
0.0
 32
0.0
 13
1.0
 23
0.0
 33
0.0
 40
0.0
 40
0.0
 40
0.0
 40
0.0
 40
1.0
 40
1.0
 40
1.0
 40
2.0
 40
2.0
 40
2.0
 40
3.0
 40
3.0
 40
3.0
 40
4.0
 40
4.0
 40
4.0
 40
5.0
 40
5.0
 40
5.0
 40
6.0
 40
6.0
 40
6.0
 40
7.0
 40
7.0
 40
7.0
 40
7.0
 10
3.525000042385525
 20
1.880555470784505
 30
0.0
 10
3.508333418104383
 20
1.893055386013455
 30
0.0
 10
3.493055555555555
 20
1.905555301242404
 30
0.0
 10
3.477777904934353
 20
1.919444190131293
 30
0.0
 10
3.547222349378798
 20
1.913888719346788
 30
0.0
 10
3.643055809868706
 20
1.905555301242404
 30
0.0
 10
3.6875
 20
1.954166412353516
 30
0.0
 10
3.73750008477105
 20
2.008332994249132
 30
0.0
 10
3.772222306993272
 20
2.080555386013455
 30
0.0
 10
3.80000008477105
 20
2.151388804117838
 30
0.0
 10
3.82499991522895
 20
2.033333248562283
 30
0.0
 10
3.829166836208767
 20
1.908333248562283
 30
0.0
 10
3.816666920979817
 20
1.794444190131293
 30
0.0
 10
3.809722476535373
 20
1.734722137451172
 30
0.0
 10
3.797222561306423
 20
1.734722137451172
 30
0.0
 10
3.748611450195312
 20
1.754166497124566
 30
0.0
 10
3.718055725097656
 20
1.766666412353516
 30
0.0
 10
3.690277947319878
 20
1.780555301242404
 30
0.0
 10
3.6625001695421
 20
1.797222137451172
 30
0.0
 10
3.616666581895616
 20
1.822222391764323
 30
0.0
 10
3.569444444444444
 20
1.850000169542101
 30
0.0
 10
3.525000042385525
 20
1.880555470784505
 30
0.0
  0
SPLINE
  5
80
330
41
100
AcDbEntity
  8
Calque 1
370
     0
100
AcDbSpline
210
0.0
220
0.0
230
1.0
 70
    11
 71
     3
 72
    26
 73
    22
 74
     0
 42
0.0000000001
 43
0.0000000001
 12
1.0
 22
0.0
 32
0.0
 13
1.0
 23
0.0
 33
0.0
 40
0.0
 40
0.0
 40
0.0
 40
0.0
 40
1.0
 40
1.0
 40
1.0
 40
2.0
 40
2.0
 40
2.0
 40
3.0
 40
3.0
 40
3.0
 40
4.0
 40
4.0
 40
4.0
 40
5.0
 40
5.0
 40
5.0
 40
6.0
 40
6.0
 40
6.0
 40
7.0
 40
7.0
 40
7.0
 40
7.0
 10
4.07361094156901
 20
2.483333375718858
 30
0.0
 10
4.0625
 20
2.481944402058919
 30
0.0
 10
4.051388634575738
 20
2.479166666666667
 30
0.0
 10
4.038888719346788
 20
2.477777904934353
 30
0.0
 10
4.093055301242404
 20
2.523611280653212
 30
0.0
 10
4.144444359673394
 20
2.575000127156575
 30
0.0
 10
4.181944105360243
 20
2.633333418104383
 30
0.0
 10
4.220832824707031
 20
2.694444444444444
 30
0.0
 10
4.183333079020182
 20
2.783333460489909
 30
0.0
 10
4.155555301242404
 20
2.851388931274414
 30
0.0
 10
4.168055216471354
 20
2.844444486829969
 30
0.0
 10
4.180555131700304
 20
2.836111068725586
 30
0.0
 10
4.191666497124566
 20
2.829166624281141
 30
0.0
 10
4.238888634575738
 20
2.797222137451172
 30
0.0
 10
4.445832994249131
 20
2.650000042385525
 30
0.0
 10
4.419444190131293
 20
2.588888804117838
 30
0.0
 10
4.406944274902344
 20
2.558333290947808
 30
0.0
 10
4.272221883138021
 20
2.53055551317003
 30
0.0
 10
4.243055131700304
 20
2.522222095065647
 30
0.0
 10
4.1875
 20
2.506944444444444
 30
0.0
 10
4.130555470784505
 20
2.493055555555555
 30
0.0
 10
4.07361094156901
 20
2.483333375718858
 30
0.0
  0
SPLINE
  5
81
330
41
100
AcDbEntity
  8
Calque 1
370
     0
100
AcDbSpline
210
0.0
220
0.0
230
1.0
 70
    11
 71
     3
 72
    14
 73
    10
 74
     0
 42
0.0000000001
 43
0.0000000001
 12
1.0
 22
0.0
 32
0.0
 13
1.0
 23
0.0
 33
0.0
 40
0.0
 40
0.0
 40
0.0
 40
0.0
 40
1.0
 40
1.0
 40
1.0
 40
2.0
 40
2.0
 40
2.0
 40
3.0
 40
3.0
 40
3.0
 40
3.0
 10
4.734722137451172
 20
3.184722264607747
 30
0.0
 10
4.655555301242404
 20
3.241666793823242
 30
0.0
 10
4.608333163791232
 20
3.33194457160102
 30
0.0
 10
4.608333163791232
 20
3.430555555555555
 30
0.0
 10
4.709721883138021
 20
3.459722306993272
 30
0.0
 10
4.809722052680121
 20
3.491666581895616
 30
0.0
 10
4.91111077202691
 20
3.523611068725586
 30
0.0
 10
4.822222391764322
 20
3.433333290947808
 30
0.0
 10
4.763888888888888
 20
3.313888973659939
 30
0.0
 10
4.734722137451172
 20
3.184722264607747
 30
0.0
  0
SPLINE
  5
82
330
41
100
AcDbEntity
  8
Calque 1
370
     0
100
AcDbSpline
210
0.0
220
0.0
230
1.0
 70
    11
 71
     3
 72
    29
 73
    25
 74
     0
 42
0.0000000001
 43
0.0000000001
 12
1.0
 22
0.0
 32
0.0
 13
1.0
 23
0.0
 33
0.0
 40
0.0
 40
0.0
 40
0.0
 40
0.0
 40
1.0
 40
1.0
 40
1.0
 40
2.0
 40
2.0
 40
2.0
 40
3.0
 40
3.0
 40
3.0
 40
4.0
 40
4.0
 40
4.0
 40
5.0
 40
5.0
 40
5.0
 40
6.0
 40
6.0
 40
6.0
 40
7.0
 40
7.0
 40
7.0
 40
8.0
 40
8.0
 40
8.0
 40
8.0
 10
4.884722391764322
 20
3.558333290947808
 30
0.0
 10
4.745833502875434
 20
3.513888888888889
 30
0.0
 10
4.606944613986545
 20
3.472222222222222
 30
0.0
 10
4.466666751437717
 20
3.431944317287869
 30
0.0
 10
4.440277947319879
 20
3.459722095065647
 30
0.0
 10
4.37361102634006
 20
3.477777693006727
 30
0.0
 10
4.345833248562283
 20
3.487499872843424
 30
0.0
 10
4.304166581895617
 20
3.502777735392252
 30
0.0
 10
4.26111094156901
 20
3.515277650621202
 30
0.0
 10
4.218055301242404
 20
3.526388804117838
 30
0.0
 10
4.243055131700304
 20
3.594444274902344
 30
0.0
 10
4.265277438693576
 20
3.662499957614475
 30
0.0
 10
4.276388804117838
 20
3.733333163791233
 30
0.0
 10
4.348611195882161
 20
3.701388676961263
 30
0.0
 10
4.423611111111111
 20
3.672222137451172
 30
0.0
 10
4.502777523464626
 20
3.676388634575738
 30
0.0
 10
4.579166412353516
 20
3.68055534362793
 30
0.0
 10
4.63749991522895
 20
3.718055301242404
 30
0.0
 10
4.694444020589192
 20
3.763888676961263
 30
0.0
 10
4.709721883138021
 20
3.74305534362793
 30
0.0
 10
4.72222179836697
 20
3.723610983954535
 30
0.0
 10
4.73472171359592
 20
3.706944147745768
 30
0.0
 10
4.779166751437717
 20
3.648611068725586
 30
0.0
 10
4.82361094156901
 20
3.590277777777778
 30
0.0
 10
4.884722391764322
 20
3.558333290947808
 30
0.0
  0
SPLINE
  5
83
330
41
100
AcDbEntity
  8
Calque 1
370
     0
100
AcDbSpline
210
0.0
220
0.0
230
1.0
 70
    11
 71
     3
 72
    32
 73
    28
 74
     0
 42
0.0000000001
 43
0.0000000001
 12
1.0
 22
0.0
 32
0.0
 13
1.0
 23
0.0
 33
0.0
 40
0.0
 40
0.0
 40
0.0
 40
0.0
 40
1.0
 40
1.0
 40
1.0
 40
2.0
 40
2.0
 40
2.0
 40
3.0
 40
3.0
 40
3.0
 40
4.0
 40
4.0
 40
4.0
 40
5.0
 40
5.0
 40
5.0
 40
6.0
 40
6.0
 40
6.0
 40
7.0
 40
7.0
 40
7.0
 40
8.0
 40
8.0
 40
8.0
 40
9.0
 40
9.0
 40
9.0
 40
9.0
 10
4.366666581895617
 20
4.034722222222222
 30
0.0
 10
4.36250008477105
 20
4.020833333333333
 30
0.0
 10
4.37361102634006
 20
4.009722179836697
 30
0.0
 10
4.38749991522895
 20
4.008333418104383
 30
0.0
 10
4.5
 20
4.0
 30
0.0
 10
4.597222222222222
 20
3.897222306993272
 30
0.0
 10
4.670833163791232
 20
3.80000008477105
 30
0.0
 10
4.612499660915798
 20
3.752777947319878
 30
0.0
 10
4.558333079020182
 20
3.719444486829969
 30
0.0
 10
4.480555216471354
 20
3.720833460489909
 30
0.0
 10
4.40972179836697
 20
3.722222434149848
 30
0.0
 10
4.344444274902344
 20
3.750000211927626
 30
0.0
 10
4.281944274902344
 20
3.779166751437717
 30
0.0
 10
4.28611077202691
 20
3.83194457160102
 30
0.0
 10
4.28611077202691
 20
3.901389016045464
 30
0.0
 10
4.258332994249132
 20
3.938888973659939
 30
0.0
 10
4.233333163791232
 20
3.973611195882161
 30
0.0
 10
4.165277269151476
 20
3.994444529215495
 30
0.0
 10
4.116666158040364
 20
4.005555682712131
 30
0.0
 10
4.108332739935981
 20
4.075000127156575
 30
0.0
 10
4.102777269151476
 20
4.145833545260959
 30
0.0
 10
4.122221628824869
 20
4.213889016045465
 30
0.0
 10
4.144443935818142
 20
4.287500169542101
 30
0.0
 10
4.194444020589192
 20
4.329166836208767
 30
0.0
 10
4.255555046929254
 20
4.369444529215494
 30
0.0
 10
4.326388888888888
 20
4.269444465637207
 30
0.0
 10
4.394444359673394
 20
4.144444359673394
 30
0.0
 10
4.366666581895617
 20
4.034722222222222
 30
0.0
  0
SPLINE
  5
84
330
41
100
AcDbEntity
  8
Calque 1
370
     0
100
AcDbSpline
210
0.0
220
0.0
230
1.0
 70
    11
 71
     3
 72
    29
 73
    25
 74
     0
 42
0.0000000001
 43
0.0000000001
 12
1.0
 22
0.0
 32
0.0
 13
1.0
 23
0.0
 33
0.0
 40
0.0
 40
0.0
 40
0.0
 40
0.0
 40
1.0
 40
1.0
 40
1.0
 40
2.0
 40
2.0
 40
2.0
 40
3.0
 40
3.0
 40
3.0
 40
4.0
 40
4.0
 40
4.0
 40
5.0
 40
5.0
 40
5.0
 40
6.0
 40
6.0
 40
6.0
 40
7.0
 40
7.0
 40
7.0
 40
8.0
 40
8.0
 40
8.0
 40
8.0
 10
4.202777862548828
 20
4.444444444444445
 30
0.0
 10
4.21250025431315
 20
4.431944423251681
 30
0.0
 10
4.222222222222222
 20
4.418055534362793
 30
0.0
 10
4.233333587646484
 20
4.402777777777778
 30
0.0
 10
4.17500008477105
 20
4.365277820163302
 30
0.0
 10
4.123611450195312
 20
4.325000021192762
 30
0.0
 10
4.095833672417535
 20
4.259722179836697
 30
0.0
 10
4.062500423855251
 20
4.181944317287869
 30
0.0
 10
4.065277947319879
 20
4.097222222222222
 30
0.0
 10
4.075000339084201
 20
4.013888888888888
 30
0.0
 10
4.004166920979817
 20
4.026388804117838
 30
0.0
 10
3.931944953070746
 20
4.025000042385525
 30
0.0
 10
3.859722561306423
 20
4.022222306993273
 30
0.0
 10
3.861111534966363
 20
4.055555555555555
 30
0.0
 10
3.862500508626302
 20
4.087500042385525
 30
0.0
 10
3.862500508626302
 20
4.120833502875434
 30
0.0
 10
3.862500508626302
 20
4.154166751437717
 30
0.0
 10
3.869444953070746
 20
4.250000211927626
 30
0.0
 10
3.845833672417534
 20
4.288889037238227
 30
0.0
 10
3.926389058430989
 20
4.409722328186035
 30
0.0
 10
4.009722391764322
 20
4.529166751437717
 30
0.0
 10
4.094444698757595
 20
4.647222306993272
 30
0.0
 10
4.106944613986545
 20
4.573611153496636
 30
0.0
 10
4.155555725097656
 20
4.508333312140571
 30
0.0
 10
4.202777862548828
 20
4.444444444444445
 30
0.0
  0
SPLINE
  5
85
330
41
100
AcDbEntity
  8
Calque 1
370
     0
100
AcDbSpline
210
0.0
220
0.0
230
1.0
 70
    11
 71
     3
 72
    17
 73
    13
 74
     0
 42
0.0000000001
 43
0.0000000001
 12
1.0
 22
0.0
 32
0.0
 13
1.0
 23
0.0
 33
0.0
 40
0.0
 40
0.0
 40
0.0
 40
0.0
 40
1.0
 40
1.0
 40
1.0
 40
2.0
 40
2.0
 40
2.0
 40
3.0
 40
3.0
 40
3.0
 40
4.0
 40
4.0
 40
4.0
 40
4.0
 10
3.847222222222222
 20
4.622222264607747
 30
0.0
 10
3.92500008477105
 20
4.627777841356065
 30
0.0
 10
3.998611026340061
 20
4.647222306993272
 30
0.0
 10
4.068055470784505
 20
4.681944529215494
 30
0.0
 10
4.006944444444445
 20
4.595833460489908
 30
0.0
 10
3.945833418104383
 20
4.509722285800509
 30
0.0
 10
3.88611094156901
 20
4.423611217074924
 30
0.0
 10
3.791666666666667
 20
4.454166730244954
 30
0.0
 10
3.719444274902344
 20
4.527777883741591
 30
0.0
 10
3.691666497124566
 20
4.62222237057156
 30
0.0
 10
3.745833502875434
 20
4.618055555555555
 30
0.0
 10
3.80000008477105
 20
4.619444423251681
 30
0.0
 10
3.847222222222222
 20
4.622222264607747
 30
0.0
  0
SPLINE
  5
86
330
41
100
AcDbEntity
  8
Calque 1
370
     0
100
AcDbSpline
210
0.0
220
0.0
230
1.0
 70
    11
 71
     3
 72
    44
 73
    40
 74
     0
 42
0.0000000001
 43
0.0000000001
 12
1.0
 22
0.0
 32
0.0
 13
1.0
 23
0.0
 33
0.0
 40
0.0
 40
0.0
 40
0.0
 40
0.0
 40
1.0
 40
1.0
 40
1.0
 40
2.0
 40
2.0
 40
2.0
 40
3.0
 40
3.0
 40
3.0
 40
4.0
 40
4.0
 40
4.0
 40
5.0
 40
5.0
 40
5.0
 40
6.0
 40
6.0
 40
6.0
 40
7.0
 40
7.0
 40
7.0
 40
8.0
 40
8.0
 40
8.0
 40
9.0
 40
9.0
 40
9.0
 40
10.0
 40
10.0
 40
10.0
 40
11.0
 40
11.0
 40
11.0
 40
12.0
 40
12.0
 40
12.0
 40
13.0
 40
13.0
 40
13.0
 40
13.0
 10
3.647222306993272
 20
4.626388867696126
 30
0.0
 10
3.67500008477105
 20
4.515277756585015
 30
0.0
 10
3.755555470784505
 20
4.426388846503364
 30
0.0
 10
3.86250008477105
 20
4.38749991522895
 30
0.0
 10
3.844444698757595
 20
4.361111005147298
 30
0.0
 10
3.826388888888889
 20
4.334722095065646
 30
0.0
 10
3.808333502875434
 20
4.308333290947808
 30
0.0
 10
3.781944698757595
 20
4.308333290947808
 30
0.0
 10
3.75
 20
4.293055534362793
 30
0.0
 10
3.730555640326606
 20
4.284722222222222
 30
0.0
 10
3.67500008477105
 20
4.261111153496636
 30
0.0
 10
3.620833502875434
 20
4.230555534362793
 30
0.0
 10
3.569444444444444
 20
4.198611153496636
 30
0.0
 10
3.555555555555555
 20
4.311111132303873
 30
0.0
 10
3.526388804117838
 20
4.418055640326606
 30
0.0
 10
3.481944402058919
 20
4.523611174689399
 30
0.0
 10
3.477777693006727
 20
4.533333354526095
 30
0.0
 10
3.462500042385525
 20
4.536111195882161
 30
0.0
 10
3.452777650621202
 20
4.530555619133843
 30
0.0
 10
3.35555542839898
 20
4.472222328186035
 30
0.0
 10
3.269444359673394
 20
4.402777883741591
 30
0.0
 10
3.193055470784505
 20
4.319444550408257
 30
0.0
 10
3.193055470784505
 20
4.320833418104383
 30
0.0
 10
3.191666497124566
 20
4.322222285800509
 30
0.0
 10
3.191666497124566
 20
4.323611259460449
 30
0.0
 10
3.173610899183485
 20
4.366666793823242
 30
0.0
 10
3.124999788072374
 20
4.515277968512641
 30
0.0
 10
3.065277523464627
 20
4.551389058430989
 30
0.0
 10
3.066666497124566
 20
4.583333545260959
 30
0.0
 10
3.068055258856879
 20
4.615277926127115
 30
0.0
 10
3.068055258856879
 20
4.645833545260959
 30
0.0
 10
3.177777396308051
 20
4.615278032090928
 30
0.0
 10
3.29166645473904
 20
4.638889100816514
 30
0.0
 10
3.380555258856879
 20
4.711111280653212
 30
0.0
 10
3.422221925523546
 20
4.688889079623752
 30
0.0
 10
3.463888592190212
 20
4.670833481682672
 30
0.0
 10
3.505555258856879
 20
4.655555725097656
 30
0.0
 10
3.547222137451172
 20
4.641666624281141
 30
0.0
 10
3.597222222222222
 20
4.631944444444444
 30
0.0
 10
3.647222306993272
 20
4.626388867696126
 30
0.0
  0
SPLINE
  5
87
330
41
100
AcDbEntity
  8
Calque 1
370
     0
100
AcDbSpline
210
0.0
220
0.0
230
1.0
 70
    11
 71
     3
 72
    14
 73
    10
 74
     0
 42
0.0000000001
 43
0.0000000001
 12
1.0
 22
0.0
 32
0.0
 13
1.0
 23
0.0
 33
0.0
 40
0.0
 40
0.0
 40
0.0
 40
0.0
 40
1.0
 40
1.0
 40
1.0
 40
2.0
 40
2.0
 40
2.0
 40
3.0
 40
3.0
 40
3.0
 40
3.0
 10
3.341666751437717
 20
4.733333375718858
 30
0.0
 10
3.262500127156575
 20
4.67500008477105
 30
0.0
 10
3.163888931274414
 20
4.659722222222222
 30
0.0
 10
3.069444444444444
 20
4.688888973659939
 30
0.0
 10
3.072222179836697
 20
4.794444508022732
 30
0.0
 10
3.073611153496636
 20
4.900000042385525
 30
0.0
 10
3.07499991522895
 20
5.005555682712131
 30
0.0
 10
3.131944444444444
 20
4.894444465637207
 30
0.0
 10
3.230555640326606
 20
4.801388846503364
 30
0.0
 10
3.341666751437717
 20
4.733333375718858
 30
0.0
  0
SPLINE
  5
88
330
41
100
AcDbEntity
  8
Calque 1
370
     0
100
AcDbSpline
210
0.0
220
0.0
230
1.0
 70
    11
 71
     3
 72
    29
 73
    25
 74
     0
 42
0.0000000001
 43
0.0000000001
 12
1.0
 22
0.0
 32
0.0
 13
1.0
 23
0.0
 33
0.0
 40
0.0
 40
0.0
 40
0.0
 40
0.0
 40
1.0
 40
1.0
 40
1.0
 40
2.0
 40
2.0
 40
2.0
 40
3.0
 40
3.0
 40
3.0
 40
4.0
 40
4.0
 40
4.0
 40
5.0
 40
5.0
 40
5.0
 40
6.0
 40
6.0
 40
6.0
 40
7.0
 40
7.0
 40
7.0
 40
8.0
 40
8.0
 40
8.0
 40
8.0
 10
3.031944486829969
 20
4.991666687859429
 30
0.0
 10
3.03055551317003
 20
4.845833354526095
 30
0.0
 10
3.027777777777778
 20
4.700000021192762
 30
0.0
 10
3.022222306993272
 20
4.554166687859429
 30
0.0
 10
2.981944613986545
 20
4.538888931274414
 30
0.0
 10
2.938888973659939
 20
4.468055619133843
 30
0.0
 10
2.916666666666667
 20
4.4375
 30
0.0
 10
2.895833333333333
 20
4.408333354526095
 30
0.0
 10
2.875
 20
4.379166709052192
 30
0.0
 10
2.855555640326606
 20
4.348611089918348
 30
0.0
 10
2.798611111111111
 20
4.393055491977267
 30
0.0
 10
2.741666793823242
 20
4.436111132303873
 30
0.0
 10
2.676389058430989
 20
4.46805551317003
 30
0.0
 10
2.723611195882161
 20
4.520833333333333
 30
0.0
 10
2.76944457160102
 20
4.576388888888888
 30
0.0
 10
2.793055640326606
 20
4.644444359673394
 30
0.0
 10
2.820833418104383
 20
4.724999957614474
 30
0.0
 10
2.805555555555555
 20
4.797222137451172
 30
0.0
 10
2.776389016045464
 20
4.874999894036187
 30
0.0
 10
2.80000008477105
 20
4.883333206176758
 30
0.0
 10
2.823611153496636
 20
4.890277650621202
 30
0.0
 10
2.844444486829969
 20
4.89583322736952
 30
0.0
 10
2.913888931274414
 20
4.919444402058919
 30
0.0
 10
2.983333375718858
 20
4.944444444444444
 30
0.0
 10
3.031944486829969
 20
4.991666687859429
 30
0.0
  0
SPLINE
  5
89
330
41
100
AcDbEntity
  8
Calque 1
370
     0
100
AcDbSpline
210
0.0
220
0.0
230
1.0
 70
    11
 71
     3
 72
    32
 73
    28
 74
     0
 42
0.0000000001
 43
0.0000000001
 12
1.0
 22
0.0
 32
0.0
 13
1.0
 23
0.0
 33
0.0
 40
0.0
 40
0.0
 40
0.0
 40
0.0
 40
1.0
 40
1.0
 40
1.0
 40
2.0
 40
2.0
 40
2.0
 40
3.0
 40
3.0
 40
3.0
 40
4.0
 40
4.0
 40
4.0
 40
5.0
 40
5.0
 40
5.0
 40
6.0
 40
6.0
 40
6.0
 40
7.0
 40
7.0
 40
7.0
 40
8.0
 40
8.0
 40
8.0
 40
9.0
 40
9.0
 40
9.0
 40
9.0
 10
2.420833375718858
 20
4.645833333333333
 30
0.0
 10
2.433333290947808
 20
4.637500021192762
 30
0.0
 10
2.447222179836697
 20
4.645833333333333
 30
0.0
 10
2.451388888888889
 20
4.658333354526095
 30
0.0
 10
2.493055555555555
 20
4.762500021192762
 30
0.0
 10
2.620833290947808
 20
4.822222285800509
 30
0.0
 10
2.73750008477105
 20
4.862499978807237
 30
0.0
 10
2.765277862548828
 20
4.79027779897054
 30
0.0
 10
2.780555725097656
 20
4.723611089918348
 30
0.0
 10
2.75
 20
4.647222201029459
 30
0.0
 10
2.724999957614475
 20
4.584722201029459
 30
0.0
 10
2.681944529215495
 20
4.534722222222222
 30
0.0
 10
2.63749991522895
 20
4.486111111111111
 30
0.0
 10
2.588888804117838
 20
4.506944444444444
 30
0.0
 10
2.524999830457899
 20
4.527777777777778
 30
0.0
 10
2.481944402058919
 20
4.513888888888888
 30
0.0
 10
2.4375
 20
4.5
 30
0.0
 10
2.397222095065647
 20
4.444444444444445
 30
0.0
 10
2.369444317287869
 20
4.398611068725586
 30
0.0
 10
2.304166581895616
 20
4.411111089918348
 30
0.0
 10
2.234722137451172
 20
4.426388846503364
 30
0.0
 10
2.179166581895616
 20
4.465277777777778
 30
0.0
 10
2.113888846503364
 20
4.509722179836697
 30
0.0
 10
2.087499830457899
 20
4.570833312140571
 30
0.0
 10
2.068055470784505
 20
4.644444465637207
 30
0.0
 10
2.184722264607747
 20
4.680555555555555
 30
0.0
 10
2.323611153496636
 20
4.706944465637207
 30
0.0
 10
2.420833375718858
 20
4.645833333333333
 30
0.0
  0
SPLINE
  5
8A
330
41
100
AcDbEntity
  8
Calque 1
370
     0
100
AcDbSpline
210
0.0
220
0.0
230
1.0
 70
    11
 71
     3
 72
    32
 73
    28
 74
     0
 42
0.0000000001
 43
0.0000000001
 12
1.0
 22
0.0
 32
0.0
 13
1.0
 23
0.0
 33
0.0
 40
0.0
 40
0.0
 40
0.0
 40
0.0
 40
1.0
 40
1.0
 40
1.0
 40
2.0
 40
2.0
 40
2.0
 40
3.0
 40
3.0
 40
3.0
 40
4.0
 40
4.0
 40
4.0
 40
5.0
 40
5.0
 40
5.0
 40
6.0
 40
6.0
 40
6.0
 40
7.0
 40
7.0
 40
7.0
 40
8.0
 40
8.0
 40
8.0
 40
9.0
 40
9.0
 40
9.0
 40
9.0
 10
1.96805551317003
 20
4.613888846503364
 30
0.0
 10
1.986111111111111
 20
4.619444423251681
 30
0.0
 10
2.005555470784505
 20
4.626388867696126
 30
0.0
 10
2.026388804117838
 20
4.633333312140571
 30
0.0
 10
2.045833163791233
 20
4.5625
 30
0.0
 10
2.070833206176758
 20
4.498611132303873
 30
0.0
 10
2.129166497124566
 20
4.450000021192762
 30
0.0
 10
2.191666497124566
 20
4.400000042385525
 30
0.0
 10
2.269444359673394
 20
4.377777841356066
 30
0.0
 10
2.345833248562283
 20
4.362499978807238
 30
0.0
 10
2.3125
 20
4.298611111111111
 30
0.0
 10
2.291666666666667
 20
4.229166666666666
 30
0.0
 10
2.270833333333333
 20
4.161111195882161
 30
0.0
 10
2.254166709052192
 20
4.166666666666666
 30
0.0
 10
2.238888846503364
 20
4.173611111111111
 30
0.0
 10
2.222222222222222
 20
4.179166793823242
 30
0.0
 10
2.165277693006727
 20
4.200000127156575
 30
0.0
 10
2.077777862548828
 20
4.240277926127115
 30
0.0
 10
2.015277862548828
 20
4.227777904934353
 30
0.0
 10
2.015277862548828
 20
4.227777904934353
 30
0.0
 10
2.015277862548828
 20
4.227777904934353
 30
0.0
 10
2.015277862548828
 20
4.227777904934353
 30
0.0
 10
1.92500008477105
 20
4.343055725097656
 30
0.0
 10
1.837500042385525
 20
4.459722306993272
 30
0.0
 10
1.750000105963813
 20
4.576388994852701
 30
0.0
 10
1.823611153496636
 20
4.565277735392252
 30
0.0
 10
1.897222306993273
 20
4.588888910081651
 30
0.0
 10
1.96805551317003
 20
4.613888846503364
 30
0.0
  0
SPLINE
  5
8B
330
41
100
AcDbEntity
  8
Calque 1
370
     0
100
AcDbSpline
210
0.0
220
0.0
230
1.0
 70
    11
 71
     3
 72
    17
 73
    13
 74
     0
 42
0.0000000001
 43
0.0000000001
 12
1.0
 22
0.0
 32
0.0
 13
1.0
 23
0.0
 33
0.0
 40
0.0
 40
0.0
 40
0.0
 40
0.0
 40
1.0
 40
1.0
 40
1.0
 40
2.0
 40
2.0
 40
2.0
 40
3.0
 40
3.0
 40
3.0
 40
4.0
 40
4.0
 40
4.0
 40
4.0
 10
1.693055576748318
 20
4.311111132303873
 30
0.0
 10
1.716666645473904
 20
4.39305559794108
 30
0.0
 10
1.723611089918348
 20
4.47777779897054
 30
0.0
 10
1.711111174689399
 20
4.561111132303873
 30
0.0
 10
1.773611174689399
 20
4.476388931274414
 30
0.0
 10
1.836111280653212
 20
4.391666730244954
 30
0.0
 10
1.901389016045464
 20
4.308333290947808
 30
0.0
 10
1.843055725097656
 20
4.227777693006727
 30
0.0
 10
1.751388973659939
 20
4.183333290947808
 30
0.0
 10
1.651389016045464
 20
4.184722264607747
 30
0.0
 10
1.668055534362793
 20
4.22777779897054
 30
0.0
 10
1.681944423251682
 20
4.272222201029459
 30
0.0
 10
1.693055576748318
 20
4.311111132303873
 30
0.0
  0
SPLINE
  5
8C
330
41
100
AcDbEntity
  8
Calque 1
370
     0
100
AcDbSpline
210
0.0
220
0.0
230
1.0
 70
    11
 71
     3
 72
    38
 73
    34
 74
     0
 42
0.0000000001
 43
0.0000000001
 12
1.0
 22
0.0
 32
0.0
 13
1.0
 23
0.0
 33
0.0
 40
0.0
 40
0.0
 40
0.0
 40
0.0
 40
1.0
 40
1.0
 40
1.0
 40
2.0
 40
2.0
 40
2.0
 40
3.0
 40
3.0
 40
3.0
 40
4.0
 40
4.0
 40
4.0
 40
5.0
 40
5.0
 40
5.0
 40
6.0
 40
6.0
 40
6.0
 40
7.0
 40
7.0
 40
7.0
 40
8.0
 40
8.0
 40
8.0
 40
9.0
 40
9.0
 40
9.0
 40
10.0
 40
10.0
 40
10.0
 40
11.0
 40
11.0
 40
11.0
 40
11.0
 10
1.563888867696126
 20
4.022222306993273
 30
0.0
 10
1.590277777777778
 20
4.058333502875434
 30
0.0
 10
1.612499978807237
 20
4.100000169542101
 30
0.0
 10
1.633333312140571
 20
4.14444457160102
 30
0.0
 10
1.748611132303874
 20
4.136111153496636
 30
0.0
 10
1.855555640326606
 20
4.186111238267687
 30
0.0
 10
1.926388846503364
 20
4.275000148349338
 30
0.0
 10
1.945833206176758
 20
4.250000105963813
 30
0.0
 10
1.965277777777778
 20
4.225000169542101
 30
0.0
 10
1.986111111111111
 20
4.198611365424262
 30
0.0
 10
1.961111068725586
 20
4.138889100816515
 30
0.0
 10
2.0
 20
3.997222476535373
 30
0.0
 10
2.016666624281141
 20
3.937500211927626
 30
0.0
 10
1.906944486829969
 20
3.959722518920898
 30
0.0
 10
1.797222137451172
 20
3.965277989705403
 30
0.0
 10
1.684722158643934
 20
3.955555809868706
 30
0.0
 10
1.670833269755045
 20
3.954166836208767
 30
0.0
 10
1.661111089918348
 20
3.943055894639757
 30
0.0
 10
1.663888825310601
 20
3.929167005750868
 30
0.0
 10
1.688888867696126
 20
3.819444868299696
 30
0.0
 10
1.729166560702854
 20
3.715278201633029
 30
0.0
 10
1.783333248562283
 20
3.618055979410807
 30
0.0
 10
1.73055542839898
 20
3.615278244018555
 30
0.0
 10
1.576388782925076
 20
3.612500508626302
 30
0.0
 10
1.524999936421712
 20
3.568055894639757
 30
0.0
 10
1.494444423251682
 20
3.579167048136393
 30
0.0
 10
1.465277671813965
 20
3.590278201633029
 30
0.0
 10
1.434722158643934
 20
3.60138914320204
 30
0.0
 10
1.498611026340061
 20
3.695833630032009
 30
0.0
 10
1.511111047532823
 20
3.813889185587565
 30
0.0
 10
1.46805551317003
 20
3.920833587646484
 30
0.0
 10
1.505555576748318
 20
3.951388888888889
 30
0.0
 10
1.537499957614475
 20
3.986111111111111
 30
0.0
 10
1.563888867696126
 20
4.022222306993273
 30
0.0
  0
SPLINE
  5
8D
330
41
100
AcDbEntity
  8
Calque 1
370
     0
100
AcDbSpline
210
0.0
220
0.0
230
1.0
 70
    11
 71
     3
 72
    17
 73
    13
 74
     0
 42
0.0000000001
 43
0.0000000001
 12
1.0
 22
0.0
 32
0.0
 13
1.0
 23
0.0
 33
0.0
 40
0.0
 40
0.0
 40
0.0
 40
0.0
 40
1.0
 40
1.0
 40
1.0
 40
2.0
 40
2.0
 40
2.0
 40
3.0
 40
3.0
 40
3.0
 40
4.0
 40
4.0
 40
4.0
 40
4.0
 10
1.436111132303874
 20
3.890277862548828
 30
0.0
 10
1.468055619133843
 20
3.795833375718858
 30
0.0
 10
1.454166730244954
 20
3.697222391764323
 30
0.0
 10
1.395833333333333
 20
3.613889058430989
 30
0.0
 10
1.297222243414985
 20
3.648611280653212
 30
0.0
 10
1.197222179836697
 20
3.683333502875434
 30
0.0
 10
1.097222222222222
 20
3.716666751437717
 30
0.0
 10
1.180555555555556
 20
3.730555640326606
 30
0.0
 10
1.258333312140571
 20
3.762500127156575
 30
0.0
 10
1.329166624281142
 20
3.809722264607747
 30
0.0
 10
1.363888846503364
 20
3.833333333333333
 30
0.0
 10
1.400000042385525
 20
3.861111111111111
 30
0.0
 10
1.436111132303874
 20
3.890277862548828
 30
0.0
  0
SPLINE
  5
8E
330
41
100
AcDbEntity
  8
Calque 1
370
     0
100
AcDbSpline
210
0.0
220
0.0
230
1.0
 70
    11
 71
     3
 72
    17
 73
    13
 74
     0
 42
0.0000000001
 43
0.0000000001
 12
1.0
 22
0.0
 32
0.0
 13
1.0
 23
0.0
 33
0.0
 40
0.0
 40
0.0
 40
0.0
 40
0.0
 40
1.0
 40
1.0
 40
1.0
 40
2.0
 40
2.0
 40
2.0
 40
3.0
 40
3.0
 40
3.0
 40
4.0
 40
4.0
 40
4.0
 40
4.0
 10
1.095833354526096
 20
2.283333248562283
 30
0.0
 10
1.195833312140571
 20
2.316666497124566
 30
0.0
 10
1.295833375718858
 20
2.349999745686849
 30
0.0
 10
1.394444465637207
 20
2.38611094156901
 30
0.0
 10
1.452777756585015
 20
2.304166581895616
 30
0.0
 10
1.466666645473904
 20
2.205555386013455
 30
0.0
 10
1.434722264607747
 20
2.111111111111111
 30
0.0
 10
1.398611174689399
 20
2.140277862548828
 30
0.0
 10
1.36250008477105
 20
2.168055640326606
 30
0.0
 10
1.326388888888889
 20
2.191666497124566
 30
0.0
 10
1.256944444444444
 20
2.23750008477105
 30
0.0
 10
1.179166687859429
 20
2.269444359673394
 30
0.0
 10
1.095833354526096
 20
2.283333248562283
 30
0.0
  0
SPLINE
  5
8F
330
41
100
AcDbEntity
  8
Calque 1
370
     0
100
AcDbSpline
210
0.0
220
0.0
230
1.0
 70
    11
 71
     3
 72
    41
 73
    37
 74
     0
 42
0.0000000001
 43
0.0000000001
 12
1.0
 22
0.0
 32
0.0
 13
1.0
 23
0.0
 33
0.0
 40
0.0
 40
0.0
 40
0.0
 40
0.0
 40
1.0
 40
1.0
 40
1.0
 40
2.0
 40
2.0
 40
2.0
 40
3.0
 40
3.0
 40
3.0
 40
4.0
 40
4.0
 40
4.0
 40
5.0
 40
5.0
 40
5.0
 40
6.0
 40
6.0
 40
6.0
 40
7.0
 40
7.0
 40
7.0
 40
8.0
 40
8.0
 40
8.0
 40
9.0
 40
9.0
 40
9.0
 40
10.0
 40
10.0
 40
10.0
 40
11.0
 40
11.0
 40
11.0
 40
12.0
 40
12.0
 40
12.0
 40
12.0
 10
1.46944448682997
 20
2.080555386013455
 30
0.0
 10
1.512500021192763
 20
2.1875
 30
0.0
 10
1.5
 20
2.305555555555555
 30
0.0
 10
1.436111132303874
 20
2.399999830457899
 30
0.0
 10
1.466666645473904
 20
2.411110772026909
 30
0.0
 10
1.495833396911621
 20
2.422222137451172
 30
0.0
 10
1.526388910081651
 20
2.433333079020182
 30
0.0
 10
1.577777756585015
 20
2.38749991522895
 30
0.0
 10
1.737499978807237
 20
2.38611094156901
 30
0.0
 10
1.779166751437717
 20
2.383332994249132
 30
0.0
 10
1.780555725097656
 20
2.383332994249132
 30
0.0
 10
1.783333460489909
 20
2.383332994249132
 30
0.0
 10
1.784722222222222
 20
2.383332994249132
 30
0.0
 10
1.730555534362793
 20
2.284721798366971
 30
0.0
 10
1.690277735392252
 20
2.181944105360243
 30
0.0
 10
1.66527779897054
 20
2.072221967909071
 30
0.0
 10
1.662500063578288
 20
2.058333079020182
 30
0.0
 10
1.672222243414985
 20
2.047222137451172
 30
0.0
 10
1.686111132303874
 20
2.045833163791233
 30
0.0
 10
1.798611111111111
 20
2.03611077202691
 30
0.0
 10
1.908333248562283
 20
2.041666666666667
 30
0.0
 10
2.018055597941081
 20
2.063888549804688
 30
0.0
 10
2.001388973659939
 20
2.002777523464627
 30
0.0
 10
1.961111068725586
 20
1.862499660915798
 30
0.0
 10
1.98750008477105
 20
1.802777608235677
 30
0.0
 10
1.968055725097656
 20
1.777777777777778
 30
0.0
 10
1.948611153496636
 20
1.752777523464627
 30
0.0
 10
1.927777820163303
 20
1.726388719346788
 30
0.0
 10
1.856944402058919
 20
1.815277523464627
 30
0.0
 10
1.748611132303874
 20
1.865277608235677
 30
0.0
 10
1.63472228580051
 20
1.856944190131293
 30
0.0
 10
1.615277820163303
 20
1.901388804117838
 30
0.0
 10
1.591666751437717
 20
1.944444020589193
 30
0.0
 10
1.565277841356066
 20
1.979166242811415
 30
0.0
 10
1.537499957614475
 20
2.013888888888889
 30
0.0
 10
1.505555576748318
 20
2.048611111111111
 30
0.0
 10
1.46944448682997
 20
2.080555386013455
 30
0.0
  0
SPLINE
  5
90
330
41
100
AcDbEntity
  8
Calque 1
370
     0
100
AcDbSpline
210
0.0
220
0.0
230
1.0
 70
    11
 71
     3
 72
    17
 73
    13
 74
     0
 42
0.0000000001
 43
0.0000000001
 12
1.0
 22
0.0
 32
0.0
 13
1.0
 23
0.0
 33
0.0
 40
0.0
 40
0.0
 40
0.0
 40
0.0
 40
1.0
 40
1.0
 40
1.0
 40
2.0
 40
2.0
 40
2.0
 40
3.0
 40
3.0
 40
3.0
 40
4.0
 40
4.0
 40
4.0
 40
4.0
 10
1.650000042385525
 20
1.813888973659939
 30
0.0
 10
1.748611132303874
 20
1.815277947319878
 30
0.0
 10
1.840277777777778
 20
1.770833333333333
 30
0.0
 10
1.900000042385525
 20
1.690277947319878
 30
0.0
 10
1.836111068725586
 20
1.606944613986545
 30
0.0
 10
1.772222306993273
 20
1.522222306993273
 30
0.0
 10
1.709722306993273
 20
1.4375
 30
0.0
 10
1.722222328186035
 20
1.520833333333333
 30
0.0
 10
1.715277883741591
 20
1.605555640326606
 30
0.0
 10
1.691666709052192
 20
1.6875
 30
0.0
 10
1.681944423251682
 20
1.727777693006727
 30
0.0
 10
1.668055534362793
 20
1.772222306993273
 30
0.0
 10
1.650000042385525
 20
1.813888973659939
 30
0.0
  0
SPLINE
  5
91
330
41
100
AcDbEntity
  8
Calque 1
370
     0
100
AcDbSpline
210
0.0
220
0.0
230
1.0
 70
    11
 71
     3
 72
    32
 73
    28
 74
     0
 42
0.0000000001
 43
0.0000000001
 12
1.0
 22
0.0
 32
0.0
 13
1.0
 23
0.0
 33
0.0
 40
0.0
 40
0.0
 40
0.0
 40
0.0
 40
1.0
 40
1.0
 40
1.0
 40
2.0
 40
2.0
 40
2.0
 40
3.0
 40
3.0
 40
3.0
 40
4.0
 40
4.0
 40
4.0
 40
5.0
 40
5.0
 40
5.0
 40
6.0
 40
6.0
 40
6.0
 40
7.0
 40
7.0
 40
7.0
 40
8.0
 40
8.0
 40
8.0
 40
9.0
 40
9.0
 40
9.0
 40
9.0
 10
1.751388867696126
 20
1.423611111111111
 30
0.0
 10
1.837500042385525
 20
1.541666666666667
 30
0.0
 10
1.926388846503364
 20
1.656944274902344
 30
0.0
 10
2.016666624281141
 20
1.772222306993273
 30
0.0
 10
2.016666624281141
 20
1.772222306993273
 30
0.0
 10
2.016666624281141
 20
1.772222306993273
 30
0.0
 10
2.016666624281141
 20
1.772222306993273
 30
0.0
 10
2.07499991522895
 20
1.761111365424262
 30
0.0
 10
2.159722222222222
 20
1.798611111111111
 30
0.0
 10
2.212500042385525
 20
1.818055470784505
 30
0.0
 10
2.231944402058919
 20
1.82499991522895
 30
0.0
 10
2.251388973659939
 20
1.831944359673394
 30
0.0
 10
2.270833333333333
 20
1.840277777777778
 30
0.0
 10
2.290277693006727
 20
1.770833333333333
 30
0.0
 10
2.3125
 20
1.701388888888889
 30
0.0
 10
2.345833248562283
 20
1.638888888888889
 30
0.0
 10
2.268055386013455
 20
1.622222052680121
 30
0.0
 10
2.191666497124566
 20
1.601388719346788
 30
0.0
 10
2.129166497124566
 20
1.55138905843099
 30
0.0
 10
2.069444232516819
 20
1.502777947319878
 30
0.0
 10
2.045833163791233
 20
1.440277947319878
 30
0.0
 10
2.026388804117838
 20
1.368055555555556
 30
0.0
 10
2.005555470784505
 20
1.375
 30
0.0
 10
1.986111111111111
 20
1.381944444444444
 30
0.0
 10
1.96805551317003
 20
1.38749991522895
 30
0.0
 10
1.897222306993273
 20
1.411111195882161
 30
0.0
 10
1.823611153496636
 20
1.434722052680121
 30
0.0
 10
1.751388867696126
 20
1.423611111111111
 30
0.0
  0
SPLINE
  5
92
330
41
100
AcDbEntity
  8
Calque 1
370
     0
100
AcDbSpline
210
0.0
220
0.0
230
1.0
 70
    11
 71
     3
 72
    32
 73
    28
 74
     0
 42
0.0000000001
 43
0.0000000001
 12
1.0
 22
0.0
 32
0.0
 13
1.0
 23
0.0
 33
0.0
 40
0.0
 40
0.0
 40
0.0
 40
0.0
 40
1.0
 40
1.0
 40
1.0
 40
2.0
 40
2.0
 40
2.0
 40
3.0
 40
3.0
 40
3.0
 40
4.0
 40
4.0
 40
4.0
 40
5.0
 40
5.0
 40
5.0
 40
6.0
 40
6.0
 40
6.0
 40
7.0
 40
7.0
 40
7.0
 40
8.0
 40
8.0
 40
8.0
 40
9.0
 40
9.0
 40
9.0
 40
9.0
 10
2.451388888888889
 20
1.341666751437717
 30
0.0
 10
2.447222179836697
 20
1.354166666666667
 30
0.0
 10
2.433333290947808
 20
1.36250008477105
 30
0.0
 10
2.420833375718858
 20
1.354166666666667
 30
0.0
 10
2.323611153496636
 20
1.293055640326606
 30
0.0
 10
2.184722264607747
 20
1.319444444444444
 30
0.0
 10
2.066666709052192
 20
1.355555640326606
 30
0.0
 10
2.086111068725586
 20
1.429166581895616
 30
0.0
 10
2.11250008477105
 20
1.490278032090929
 30
0.0
 10
2.177777820163303
 20
1.534722222222222
 30
0.0
 10
2.234722349378798
 20
1.572222391764323
 30
0.0
 10
2.302777820163303
 20
1.587499830457899
 30
0.0
 10
2.368055555555555
 20
1.601388719346788
 30
0.0
 10
2.395833333333333
 20
1.555555555555555
 30
0.0
 10
2.436111026340061
 20
1.5
 30
0.0
 10
2.480555640326606
 20
1.486111111111111
 30
0.0
 10
2.525000042385525
 20
1.472222222222222
 30
0.0
 10
2.587500042385525
 20
1.493055555555556
 30
0.0
 10
2.636111153496636
 20
1.513888888888889
 30
0.0
 10
2.680555555555555
 20
1.465277777777778
 30
0.0
 10
2.724999957614475
 20
1.415277693006727
 30
0.0
 10
2.748611238267686
 20
1.352777693006727
 30
0.0
 10
2.777777989705403
 20
1.276388804117838
 30
0.0
 10
2.763889100816515
 20
1.21111085679796
 30
0.0
 10
2.736111323038737
 20
1.13749991522895
 30
0.0
 10
2.620833290947808
 20
1.177777608235677
 30
0.0
 10
2.493055555555555
 20
1.23750008477105
 30
0.0
 10
2.451388888888889
 20
1.341666751437717
 30
0.0
  0
SPLINE
  5
93
330
41
100
AcDbEntity
  8
Calque 1
370
     0
100
AcDbSpline
210
0.0
220
0.0
230
1.0
 70
    11
 71
     3
 72
    29
 73
    25
 74
     0
 42
0.0000000001
 43
0.0000000001
 12
1.0
 22
0.0
 32
0.0
 13
1.0
 23
0.0
 33
0.0
 40
0.0
 40
0.0
 40
0.0
 40
0.0
 40
1.0
 40
1.0
 40
1.0
 40
2.0
 40
2.0
 40
2.0
 40
3.0
 40
3.0
 40
3.0
 40
4.0
 40
4.0
 40
4.0
 40
5.0
 40
5.0
 40
5.0
 40
6.0
 40
6.0
 40
6.0
 40
7.0
 40
7.0
 40
7.0
 40
8.0
 40
8.0
 40
8.0
 40
8.0
 10
2.844444486829969
 20
1.102777693006727
 30
0.0
 10
2.823611153496636
 20
1.109722137451172
 30
0.0
 10
2.80000008477105
 20
1.116666581895616
 30
0.0
 10
2.776389016045464
 20
1.123611026340061
 30
0.0
 10
2.805555767483181
 20
1.201388888888889
 30
0.0
 10
2.822222391764323
 20
1.27361085679796
 30
0.0
 10
2.793055640326606
 20
1.354166666666667
 30
0.0
 10
2.76944457160102
 20
1.422222137451172
 30
0.0
 10
2.723611195882161
 20
1.477777693006727
 30
0.0
 10
2.676389058430989
 20
1.530555725097656
 30
0.0
 10
2.741666793823242
 20
1.5625
 30
0.0
 10
2.798611323038737
 20
1.605555640326606
 30
0.0
 10
2.855555640326606
 20
1.650000254313151
 30
0.0
 10
2.873611238267686
 20
1.623611450195312
 30
0.0
 10
2.891666836208767
 20
1.597222646077474
 30
0.0
 10
2.909722222222222
 20
1.570833418104383
 30
0.0
 10
2.934722264607747
 20
1.537500169542101
 30
0.0
 10
2.979166666666667
 20
1.461111280653212
 30
0.0
 10
3.022222306993272
 20
1.444444444444444
 30
0.0
 10
3.027777777777778
 20
1.298611111111111
 30
0.0
 10
3.030555725097656
 20
1.152777777777778
 30
0.0
 10
3.031944486829969
 20
1.006944444444444
 30
0.0
 10
2.983333375718858
 20
1.055555555555556
 30
0.0
 10
2.913888931274414
 20
1.080555386013455
 30
0.0
 10
2.844444486829969
 20
1.102777693006727
 30
0.0
  0
SPLINE
  5
94
330
41
100
AcDbEntity
  8
Calque 1
370
     0
100
AcDbSpline
210
0.0
220
0.0
230
1.0
 70
    11
 71
     3
 72
    14
 73
    10
 74
     0
 42
0.0000000001
 43
0.0000000001
 12
1.0
 22
0.0
 32
0.0
 13
1.0
 23
0.0
 33
0.0
 40
0.0
 40
0.0
 40
0.0
 40
0.0
 40
1.0
 40
1.0
 40
1.0
 40
2.0
 40
2.0
 40
2.0
 40
3.0
 40
3.0
 40
3.0
 40
3.0
 10
3.073611153496636
 20
0.9944445292154948
 30
0.0
 10
3.073611153496636
 20
1.100000169542101
 30
0.0
 10
3.070833418104383
 20
1.205555809868706
 30
0.0
 10
3.068055682712131
 20
1.311111026340061
 30
0.0
 10
3.1625001695421
 20
1.340277777777778
 30
0.0
 10
3.261111153496636
 20
1.32499991522895
 30
0.0
 10
3.340277989705403
 20
1.266666412353516
 30
0.0
 10
3.230555640326606
 20
1.19861094156901
 30
0.0
 10
3.131944444444444
 20
1.105555640326606
 30
0.0
 10
3.073611153496636
 20
0.9944445292154948
 30
0.0
  0
SPLINE
  5
95
330
41
100
AcDbEntity
  8
Calque 1
370
     0
100
AcDbSpline
210
0.0
220
0.0
230
1.0
 70
    11
 71
     3
 72
    44
 73
    40
 74
     0
 42
0.0000000001
 43
0.0000000001
 12
1.0
 22
0.0
 32
0.0
 13
1.0
 23
0.0
 33
0.0
 40
0.0
 40
0.0
 40
0.0
 40
0.0
 40
1.0
 40
1.0
 40
1.0
 40
2.0
 40
2.0
 40
2.0
 40
3.0
 40
3.0
 40
3.0
 40
4.0
 40
4.0
 40
4.0
 40
5.0
 40
5.0
 40
5.0
 40
6.0
 40
6.0
 40
6.0
 40
7.0
 40
7.0
 40
7.0
 40
8.0
 40
8.0
 40
8.0
 40
9.0
 40
9.0
 40
9.0
 40
10.0
 40
10.0
 40
10.0
 40
11.0
 40
11.0
 40
11.0
 40
12.0
 40
12.0
 40
12.0
 40
13.0
 40
13.0
 40
13.0
 40
13.0
 10
3.505555470784505
 20
1.344444274902344
 30
0.0
 10
3.463888804117838
 20
1.330555386013455
 30
0.0
 10
3.422222137451172
 20
1.311111026340061
 30
0.0
 10
3.380555470784505
 20
1.288888719346788
 30
0.0
 10
3.291666666666667
 20
1.361111111111111
 30
0.0
 10
3.177777608235677
 20
1.38611094156901
 30
0.0
 10
3.068055470784505
 20
1.354166666666667
 30
0.0
 10
3.066666497124566
 20
1.38611094156901
 30
0.0
 10
3.066666497124566
 20
1.418055640326606
 30
0.0
 10
3.065277735392252
 20
1.44861094156901
 30
0.0
 10
3.125
 20
1.483333163791233
 30
0.0
 10
3.172222137451172
 20
1.630555470784505
 30
0.0
 10
3.190277735392252
 20
1.673611111111111
 30
0.0
 10
3.191666709052192
 20
1.67638905843099
 30
0.0
 10
3.191666709052192
 20
1.677777608235677
 30
0.0
 10
3.193055470784505
 20
1.680555555555555
 30
0.0
 10
3.269444359673394
 20
1.597222222222222
 30
0.0
 10
3.356944402058919
 20
1.527777777777778
 30
0.0
 10
3.452777650621202
 20
1.469444274902344
 30
0.0
 10
3.461111068725586
 20
1.463888804117838
 30
0.0
 10
3.476388719346788
 20
1.466666327582465
 30
0.0
 10
3.481944402058919
 20
1.476388719346788
 30
0.0
 10
3.526388804117838
 20
1.580555386013455
 30
0.0
 10
3.555555555555555
 20
1.688888549804688
 30
0.0
 10
3.569444444444444
 20
1.801388634575738
 30
0.0
 10
3.618055555555555
 20
1.770832909478081
 30
0.0
 10
3.668055640326606
 20
1.741666581895616
 30
0.0
 10
3.719444274902344
 20
1.719444274902344
 30
0.0
 10
3.741666581895616
 20
1.709721883138021
 30
0.0
 10
3.779166327582465
 20
1.688888549804688
 30
0.0
 10
3.809722052680121
 20
1.690277523464627
 30
0.0
 10
3.827777438693576
 20
1.663888719346788
 30
0.0
 10
3.844444274902344
 20
1.63749991522895
 30
0.0
 10
3.862499660915798
 20
1.612499660915798
 30
0.0
 10
3.755555046929253
 20
1.57361094156901
 30
0.0
 10
3.674999660915798
 20
1.48472171359592
 30
0.0
 10
3.647221883138021
 20
1.373610602484809
 30
0.0
 10
3.597222222222222
 20
1.368055555555556
 30
0.0
 10
3.547222137451172
 20
1.358333163791233
 30
0.0
 10
3.505555470784505
 20
1.344444274902344
 30
0.0
  0
SPLINE
  5
96
330
41
100
AcDbEntity
  8
Calque 1
370
     0
100
AcDbSpline
210
0.0
220
0.0
230
1.0
 70
    11
 71
     3
 72
    17
 73
    13
 74
     0
 42
0.0000000001
 43
0.0000000001
 12
1.0
 22
0.0
 32
0.0
 13
1.0
 23
0.0
 33
0.0
 40
0.0
 40
0.0
 40
0.0
 40
0.0
 40
1.0
 40
1.0
 40
1.0
 40
2.0
 40
2.0
 40
2.0
 40
3.0
 40
3.0
 40
3.0
 40
4.0
 40
4.0
 40
4.0
 40
4.0
 10
3.691666497124566
 20
1.377777947319878
 30
0.0
 10
3.720833248562283
 20
1.472222222222222
 30
0.0
 10
3.791666666666667
 20
1.545833587646484
 30
0.0
 10
3.88611094156901
 20
1.576388888888889
 30
0.0
 10
3.945832994249132
 20
1.490277608235677
 30
0.0
 10
4.005555470784505
 20
1.404166751437717
 30
0.0
 10
4.068055470784505
 20
1.318055470784505
 30
0.0
 10
4.0
 20
1.352777693006727
 30
0.0
 10
3.92500008477105
 20
1.370833079020182
 30
0.0
 10
3.847222222222222
 20
1.377777523464627
 30
0.0
 10
3.80000008477105
 20
1.380555470784505
 30
0.0
 10
3.745833502875434
 20
1.381944444444444
 30
0.0
 10
3.691666497124566
 20
1.377777947319878
 30
0.0
  0
SPLINE
  5
97
330
41
100
AcDbEntity
  8
Calque 1
370
     0
100
AcDbSpline
210
0.0
220
0.0
230
1.0
 70
    11
 71
     3
 72
    29
 73
    25
 74
     0
 42
0.0000000001
 43
0.0000000001
 12
1.0
 22
0.0
 32
0.0
 13
1.0
 23
0.0
 33
0.0
 40
0.0
 40
0.0
 40
0.0
 40
0.0
 40
1.0
 40
1.0
 40
1.0
 40
2.0
 40
2.0
 40
2.0
 40
3.0
 40
3.0
 40
3.0
 40
4.0
 40
4.0
 40
4.0
 40
5.0
 40
5.0
 40
5.0
 40
6.0
 40
6.0
 40
6.0
 40
7.0
 40
7.0
 40
7.0
 40
8.0
 40
8.0
 40
8.0
 40
8.0
 10
4.094444274902344
 20
1.352777693006727
 30
0.0
 10
4.009721967909071
 20
1.470833248562283
 30
0.0
 10
3.926388634575738
 20
1.590277777777778
 30
0.0
 10
3.845833248562283
 20
1.71111085679796
 30
0.0
 10
3.866666581895616
 20
1.748611026340061
 30
0.0
 10
3.86250008477105
 20
1.833332909478081
 30
0.0
 10
3.86250008477105
 20
1.866666581895616
 30
0.0
 10
3.86250008477105
 20
1.902777777777778
 30
0.0
 10
3.86250008477105
 20
1.940277523464627
 30
0.0
 10
3.859722137451172
 20
1.976388719346788
 30
0.0
 10
3.931944529215495
 20
1.97361077202691
 30
0.0
 10
4.004166497124566
 20
1.97361077202691
 30
0.0
 10
4.07499991522895
 20
1.984722137451172
 30
0.0
 10
4.065277523464626
 20
1.902777777777778
 30
0.0
 10
4.0625
 20
1.816666497124566
 30
0.0
 10
4.095833248562283
 20
1.738888634575738
 30
0.0
 10
4.125
 20
1.673610687255859
 30
0.0
 10
4.17500008477105
 20
1.633332994249132
 30
0.0
 10
4.233333163791232
 20
1.595833248562283
 30
0.0
 10
4.222222222222222
 20
1.581944359673394
 30
0.0
 10
4.212499830457899
 20
1.568055470784505
 30
0.0
 10
4.202777438693576
 20
1.554166581895616
 30
0.0
 10
4.155555725097656
 20
1.491666581895616
 30
0.0
 10
4.106944613986545
 20
1.42638905843099
 30
0.0
 10
4.094444274902344
 20
1.352777693006727
 30
0.0
  0
SPLINE
  5
98
330
41
100
AcDbEntity
  8
Calque 1
370
     0
100
AcDbSpline
210
0.0
220
0.0
230
1.0
 70
    11
 71
     3
 72
    32
 73
    28
 74
     0
 42
0.0000000001
 43
0.0000000001
 12
1.0
 22
0.0
 32
0.0
 13
1.0
 23
0.0
 33
0.0
 40
0.0
 40
0.0
 40
0.0
 40
0.0
 40
1.0
 40
1.0
 40
1.0
 40
2.0
 40
2.0
 40
2.0
 40
3.0
 40
3.0
 40
3.0
 40
4.0
 40
4.0
 40
4.0
 40
5.0
 40
5.0
 40
5.0
 40
6.0
 40
6.0
 40
6.0
 40
7.0
 40
7.0
 40
7.0
 40
8.0
 40
8.0
 40
8.0
 40
9.0
 40
9.0
 40
9.0
 40
9.0
 10
4.38749991522895
 20
1.991666581895616
 30
0.0
 10
4.37361102634006
 20
1.990277608235677
 30
0.0
 10
4.363888634575738
 20
1.979166666666667
 30
0.0
 10
4.366666581895617
 20
1.965277777777778
 30
0.0
 10
4.394444359673394
 20
1.855555640326606
 30
0.0
 10
4.32499991522895
 20
1.730555640326606
 30
0.0
 10
4.256944444444445
 20
1.630555470784505
 30
0.0
 10
4.194444444444445
 20
1.670833163791233
 30
0.0
 10
4.145833333333333
 20
1.712499830457899
 30
0.0
 10
4.12361102634006
 20
1.786111195882161
 30
0.0
 10
4.102777693006727
 20
1.854166666666667
 30
0.0
 10
4.109722137451172
 20
1.92500008477105
 30
0.0
 10
4.116666581895617
 20
1.993055555555555
 30
0.0
 10
4.166666666666666
 20
2.005555470784505
 30
0.0
 10
4.230555640326606
 20
2.026388804117838
 30
0.0
 10
4.258333418104383
 20
2.061111026340061
 30
0.0
 10
4.286111195882161
 20
2.097222222222222
 30
0.0
 10
4.286111195882161
 20
2.172222137451172
 30
0.0
 10
4.281944698757595
 20
2.220833248562283
 30
0.0
 10
4.344444698757595
 20
2.25
 30
0.0
 10
4.411111195882161
 20
2.277777777777778
 30
0.0
 10
4.480555640326606
 20
2.279166751437717
 30
0.0
 10
4.558333502875434
 20
2.280555725097656
 30
0.0
 10
4.61250008477105
 20
2.247222476535373
 30
0.0
 10
4.670833587646484
 20
2.19999991522895
 30
0.0
 10
4.597222222222222
 20
2.102777693006727
 30
0.0
 10
4.5
 20
2.0
 30
0.0
 10
4.38749991522895
 20
1.991666581895616
 30
0.0
  0
SPLINE
  5
99
330
41
100
AcDbEntity
  8
Calque 1
370
     0
100
AcDbSpline
210
0.0
220
0.0
230
1.0
 70
    11
 71
     3
 72
    29
 73
    25
 74
     0
 42
0.0000000001
 43
0.0000000001
 12
1.0
 22
0.0
 32
0.0
 13
1.0
 23
0.0
 33
0.0
 40
0.0
 40
0.0
 40
0.0
 40
0.0
 40
1.0
 40
1.0
 40
1.0
 40
2.0
 40
2.0
 40
2.0
 40
3.0
 40
3.0
 40
3.0
 40
4.0
 40
4.0
 40
4.0
 40
5.0
 40
5.0
 40
5.0
 40
6.0
 40
6.0
 40
6.0
 40
7.0
 40
7.0
 40
7.0
 40
8.0
 40
8.0
 40
8.0
 40
8.0
 10
4.73750008477105
 20
2.291666666666667
 30
0.0
 10
4.7250001695421
 20
2.273611280653212
 30
0.0
 10
4.711111280653212
 20
2.254166497124566
 30
0.0
 10
4.697222391764322
 20
2.234722137451172
 30
0.0
 10
4.638888888888888
 20
2.280555301242404
 30
0.0
 10
4.581944783528646
 20
2.318055470784505
 30
0.0
 10
4.505555894639756
 20
2.322221967909071
 30
0.0
 10
4.425000508626302
 20
2.326388465033637
 30
0.0
 10
4.350000169542101
 20
2.298610687255859
 30
0.0
 10
4.279167175292969
 20
2.265277438693576
 30
0.0
 10
4.269444783528646
 20
2.33611085679796
 30
0.0
 10
4.245833926730685
 20
2.404166327582465
 30
0.0
 10
4.220833672417535
 20
2.472221798366971
 30
0.0
 10
4.263889312744141
 20
2.483332951863606
 30
0.0
 10
4.306944953070746
 20
2.495832867092556
 30
0.0
 10
4.348611619737413
 20
2.511110729641385
 30
0.0
 10
4.375000423855251
 20
2.520832909478081
 30
0.0
 10
4.444444868299696
 20
2.538888507419162
 30
0.0
 10
4.469445122612847
 20
2.56666628519694
 30
0.0
 10
4.609722985161675
 20
2.526388592190213
 30
0.0
 10
4.748611874050564
 20
2.484721925523546
 30
0.0
 10
4.886111789279513
 20
2.440277523464627
 30
0.0
 10
4.82361094156901
 20
2.409722222222222
 30
0.0
 10
4.779166751437717
 20
2.351388719346788
 30
0.0
 10
4.73750008477105
 20
2.291666666666667
 30
0.0
  0
HATCH
  5
9A
330
41
100
AcDbEntity
  8
Calque 1
 62
   178
420
   131587
100
AcDbHatch
 10
0.0
 20
0.0
 30
0.0
210
0.0
220
0.0
230
1.0
  2
SOLID
 70
     1
 71
     0
 91
       62
 92
        1
 93
        1
 72
     4
 94
        3
 73
     0
 74
     1
 95
      122
 96
      118
 40
0.0
 40
0.0
 40
0.0
 40
0.0
 40
1.0
 40
1.0
 40
1.0
 40
2.0
 40
2.0
 40
2.0
 40
3.0
 40
3.0
 40
3.0
 40
4.0
 40
4.0
 40
4.0
 40
5.0
 40
5.0
 40
5.0
 40
6.0
 40
6.0
 40
6.0
 40
7.0
 40
7.0
 40
7.0
 40
8.0
 40
8.0
 40
8.0
 40
9.0
 40
9.0
 40
9.0
 40
10.0
 40
10.0
 40
10.0
 40
11.0
 40
11.0
 40
11.0
 40
12.0
 40
12.0
 40
12.0
 40
13.0
 40
13.0
 40
13.0
 40
14.0
 40
14.0
 40
14.0
 40
15.0
 40
15.0
 40
15.0
 40
16.0
 40
16.0
 40
16.0
 40
17.0
 40
17.0
 40
17.0
 40
18.0
 40
18.0
 40
18.0
 40
19.0
 40
19.0
 40
19.0
 40
20.0
 40
20.0
 40
20.0
 40
21.0
 40
21.0
 40
21.0
 40
22.0
 40
22.0
 40
22.0
 40
23.0
 40
23.0
 40
23.0
 40
24.0
 40
24.0
 40
24.0
 40
25.0
 40
25.0
 40
25.0
 40
26.0
 40
26.0
 40
26.0
 40
27.0
 40
27.0
 40
27.0
 40
28.0
 40
28.0
 40
28.0
 40
29.0
 40
29.0
 40
29.0
 40
30.0
 40
30.0
 40
30.0
 40
31.0
 40
31.0
 40
31.0
 40
32.0
 40
32.0
 40
32.0
 40
33.0
 40
33.0
 40
33.0
 40
34.0
 40
34.0
 40
34.0
 40
35.0
 40
35.0
 40
35.0
 40
36.0
 40
36.0
 40
36.0
 40
37.0
 40
37.0
 40
37.0
 40
38.0
 40
38.0
 40
38.0
 40
39.0
 40
39.0
 40
39.0
 40
39.0
 10
4.988889058430989
 20
3.536111195882161
 10
5.005555894639756
 20
3.548611111111111
 10
5.0
 20
3.573611153496636
 10
4.977778116861979
 20
3.575000127156575
 10
4.827778286404079
 20
3.580555597941081
 10
4.751389397515191
 20
3.770833545260959
 10
4.6625001695421
 20
3.869444529215495
 10
4.593055725097656
 20
3.945833418104383
 10
4.515277862548828
 20
4.029166751437717
 10
4.411111195882161
 20
4.045833375718859
 10
4.426389058430989
 20
4.151389016045465
 10
4.370833502875434
 20
4.251388973659939
 10
4.319444444444445
 20
4.340277777777778
 10
4.252777947319879
 20
4.45555559794108
 10
4.098611195882161
 20
4.584722201029459
 10
4.13749991522895
 20
4.730555534362793
 10
4.141666412353516
 20
4.747222158643934
 10
4.122222052680121
 20
4.765277756585015
 10
4.106944190131293
 20
4.754166603088379
 10
4.024999830457899
 20
4.697222179836697
 10
3.931944105360243
 20
4.668055534362793
 10
3.833332909478081
 20
4.662499957614474
 10
3.730555216471354
 20
4.656944380866157
 10
3.602777269151475
 20
4.662499957614474
 10
3.505555046929253
 20
4.69999991522895
 10
3.32916620042589
 20
4.768055491977267
 10
3.145832909478081
 20
4.899999936421712
 10
3.083332909478081
 20
5.08333322736952
 10
3.076388465033637
 20
5.104166560702853
 10
3.049999660915799
 20
5.102777693006727
 10
3.043055216471354
 20
5.08333322736952
 10
2.99166636996799
 20
4.944444338480631
 10
2.784721798366971
 20
4.92777771419949
 10
2.665277481079102
 20
4.874999894036187
 10
2.570832994249132
 20
4.83333322736952
 10
2.469444062974718
 20
4.784722116258409
 10
2.420832951863606
 20
4.691666603088379
 10
2.322221755981445
 20
4.741666581895616
 10
2.202777438693576
 20
4.716666645473904
 10
2.09861077202691
 20
4.693055470784505
 10
1.970833036634657
 20
4.663888825310601
 10
1.806944105360243
 20
4.56111102634006
 10
1.683332973056369
 20
4.644444359673394
 10
1.668055216471354
 20
4.654166539510091
 10
1.647221883138021
 20
4.63749991522895
 10
1.652777459886339
 20
4.620833290947808
 10
1.766666306389703
 20
4.247222158643934
 10
1.412499745686849
 20
3.756944444444444
 10
1.022221883138021
 20
3.751388973659939
 10
1.005555258856879
 20
3.751388973659939
 10
0.9930552376641167
 20
3.727777904934353
 10
1.006944126553006
 20
3.715277777777778
 10
1.126388549804688
 20
3.620833290947808
 10
1.07638857099745
 20
3.426388846503364
 10
1.090277459886339
 20
3.293055640326606
 10
1.101388613382975
 20
3.190277947319878
 10
1.113888528611925
 20
3.075000127156575
 10
1.188888549804688
 20
2.998611238267686
 10
1.113888528611925
 20
2.922222349378798
 10
1.099999639723036
 20
2.806944529215495
 10
1.090277459886339
 20
2.704166836208767
 10
1.07638857099745
 20
2.56944465637207
 10
1.126388549804688
 20
2.376388973659939
 10
1.006944126553006
 20
2.281944698757596
 10
0.9916663699679904
 20
2.269444783528646
 10
1.005555258856879
 20
2.247222476535373
 10
1.022221883138021
 20
2.245833502875434
 10
1.412499639723036
 20
2.238889058430989
 10
1.768055174085829
 20
1.748611450195312
 10
1.652777459886339
 20
1.376388973659939
 10
1.647221883138021
 20
1.359722137451172
 10
1.668055216471354
 20
1.343055725097656
 10
1.683332973056369
 20
1.352777693006727
 10
1.806944105360243
 20
1.434722052680121
 10
1.970833036634657
 20
1.331944359673394
 10
2.09861077202691
 20
1.304166581895616
 10
2.202777438693576
 20
1.280555301242404
 10
2.322221967909071
 20
1.255555470784505
 10
2.420832951863606
 20
1.305555555555556
 10
2.470833036634657
 20
1.212499830457899
 10
2.570832994249132
 20
1.163888719346788
 10
2.665277481079102
 20
1.122222052680121
 10
2.784722010294596
 20
1.069444444444444
 10
2.99166636996799
 20
1.052777608235677
 10
3.043055216471354
 20
0.9138887193467882
 10
3.049999660915799
 20
0.8944443596733941
 10
3.076388465033637
 20
0.8930553860134548
 10
3.083332909478081
 20
0.9138887193467882
 10
3.145832909478081
 20
1.09861077202691
 10
3.32916620042589
 20
1.227777693006727
 10
3.505555046929253
 20
1.297222137451172
 10
3.598610772026909
 20
1.334722306993273
 10
3.720832824707031
 20
1.340277777777778
 10
3.819444020589192
 20
1.33611085679796
 10
3.923610687255859
 20
1.331944359673394
 10
4.020832909478082
 20
1.304166581895616
 10
4.106944190131293
 20
1.244444105360243
 10
4.122222052680121
 20
1.233333163791233
 10
4.141666412353516
 20
1.251388549804688
 10
4.13749991522895
 20
1.268055386013455
 10
4.098611195882161
 20
1.413888719346788
 10
4.252777523464626
 20
1.543055216471354
 10
4.319444444444445
 20
1.658333248562283
 10
4.370833502875434
 20
1.747222052680121
 10
4.426389058430989
 20
1.848611195882161
 10
4.411111195882161
 20
1.952777862548828
 10
4.515277862548828
 20
1.970833248562283
 10
4.593055725097656
 20
2.052778032090929
 10
4.6625001695421
 20
2.129166920979817
 10
4.751388973659939
 20
2.227778116861979
 10
4.827777862548828
 20
2.418055640326606
 10
4.977778116861979
 20
2.423611534966363
 10
5.000000423855251
 20
2.425000508626302
 10
5.004166920979817
 20
2.450000339084201
 10
4.988889058430989
 20
2.462500466240777
 10
4.679166581895616
 20
2.695833418104383
 10
4.679166581895616
 20
3.304166581895616
 10
4.988889058430989
 20
3.536111195882161
 97
        0
 97
        0
 92
        1
 93
        1
 72
     4
 94
        3
 73
     0
 74
     1
 95
       14
 96
       10
 40
0.0
 40
0.0
 40
0.0
 40
0.0
 40
1.0
 40
1.0
 40
1.0
 40
2.0
 40
2.0
 40
2.0
 40
3.0
 40
3.0
 40
3.0
 40
3.0
 10
4.911111195882161
 20
2.477777693006727
 10
4.81111102634006
 20
2.509722179836697
 10
4.709722306993272
 20
2.540277693006727
 10
4.608333587646484
 20
2.570833206176758
 10
4.608333587646484
 20
2.669444402058919
 10
4.655555725097656
 20
2.759722179836697
 10
4.734722561306423
 20
2.816666497124566
 10
4.763888888888888
 20
2.686111026340061
 10
4.822222391764322
 20
2.566666709052192
 10
4.911111195882161
 20
2.477777693006727
 97
        0
 97
        0
 92
        1
 93
        1
 72
     4
 94
        3
 73
     0
 74
     1
 95
       41
 96
       37
 40
0.0
 40
0.0
 40
0.0
 40
0.0
 40
1.0
 40
1.0
 40
1.0
 40
2.0
 40
2.0
 40
2.0
 40
3.0
 40
3.0
 40
3.0
 40
4.0
 40
4.0
 40
4.0
 40
5.0
 40
5.0
 40
5.0
 40
6.0
 40
6.0
 40
6.0
 40
7.0
 40
7.0
 40
7.0
 40
8.0
 40
8.0
 40
8.0
 40
9.0
 40
9.0
 40
9.0
 40
10.0
 40
10.0
 40
10.0
 40
11.0
 40
11.0
 40
11.0
 40
12.0
 40
12.0
 40
12.0
 40
12.0
 10
4.476388719346788
 20
2.608333375718858
 10
4.466666327582465
 20
2.637500127156575
 10
4.4375
 20
2.666666666666667
 10
4.420833163791232
 20
2.684722264607747
 10
4.383332994249132
 20
2.726388931274414
 10
4.340277777777778
 20
2.765277862548828
 10
4.295833163791232
 20
2.801388846503364
 10
4.39861085679796
 20
2.848610983954535
 10
4.491666581895616
 20
2.909722222222222
 10
4.577777438693576
 20
2.984722137451172
 10
4.586110856797959
 20
2.991666581895616
 10
4.586110856797959
 20
3.006944444444444
 10
4.577777438693576
 20
3.013888888888889
 10
4.493055131700303
 20
3.088888804117838
 10
4.39861085679796
 20
3.150000042385525
 10
4.29722171359592
 20
3.197222179836697
 10
4.341666327582465
 20
3.233333375718858
 10
4.38472154405382
 20
3.272222095065647
 10
4.420832739935981
 20
3.313888761732313
 10
4.436110602484809
 20
3.331944359673394
 10
4.468054877387153
 20
3.362499872843424
 10
4.476388295491536
 20
3.390277650621202
 10
4.506944020589192
 20
3.398611068725586
 10
4.537499321831597
 20
3.406944274902344
 10
4.566666073269314
 20
3.41666645473904
 10
4.57083257039388
 20
3.302777608235677
 10
4.630555046929254
 20
3.199999703301323
 10
4.726388295491536
 20
3.138888676961263
 10
4.711110432942708
 20
3.047221925523546
 10
4.711110432942708
 20
2.951388676961263
 10
4.726388295491536
 20
2.859721925523546
 10
4.630555046929254
 20
2.798610899183485
 10
4.57083257039388
 20
2.695832994249132
 10
4.566666073269314
 20
2.581944147745768
 10
4.536111195882161
 20
2.591666751437717
 10
4.505555470784505
 20
2.599999957614475
 10
4.476388719346788
 20
2.608333375718858
 97
        0
 97
        0
 92
        1
 93
        1
 72
     4
 94
        3
 73
     0
 74
     1
 95
       29
 96
       25
 40
0.0
 40
0.0
 40
0.0
 40
0.0
 40
1.0
 40
1.0
 40
1.0
 40
2.0
 40
2.0
 40
2.0
 40
3.0
 40
3.0
 40
3.0
 40
4.0
 40
4.0
 40
4.0
 40
5.0
 40
5.0
 40
5.0
 40
6.0
 40
6.0
 40
6.0
 40
7.0
 40
7.0
 40
7.0
 40
8.0
 40
8.0
 40
8.0
 40
8.0
 10
4.029166751437717
 20
2.020833333333333
 10
3.972222222222222
 20
2.013888888888889
 10
3.91388914320204
 20
2.016666836208767
 10
3.855555640326606
 20
2.018055386013455
 10
3.852777693006727
 20
2.044444190131293
 10
3.85138914320204
 20
2.070832994249132
 10
3.847222222222222
 20
2.097222222222222
 10
3.830555386013454
 20
2.223611195882161
 10
3.794444613986545
 20
2.345833248562283
 10
3.7250001695421
 20
2.451388888888889
 10
3.8500001695421
 20
2.418055640326606
 10
3.980555640326606
 20
2.422222137451172
 10
4.108333587646484
 20
2.445833418104383
 10
4.131944868299696
 20
2.450000127156575
 10
4.155555725097656
 20
2.455555597941081
 10
4.177778032090929
 20
2.461111280653212
 10
4.197222391764322
 20
2.406944698757596
 10
4.216666751437717
 20
2.352778116861979
 10
4.229167090521918
 20
2.295833587646484
 10
4.240278032090929
 20
2.240278032090929
 10
4.259722815619575
 20
2.126388973659939
 10
4.21388922797309
 20
2.079166836208767
 10
4.173611111111111
 20
2.040277693006727
 10
4.083333333333333
 20
2.026388804117838
 10
4.029166751437717
 20
2.020833333333333
 97
        0
 97
        0
 92
        1
 93
        1
 72
     4
 94
        3
 73
     0
 74
     1
 95
       20
 96
       16
 40
0.0
 40
0.0
 40
0.0
 40
0.0
 40
1.0
 40
1.0
 40
1.0
 40
2.0
 40
2.0
 40
2.0
 40
3.0
 40
3.0
 40
3.0
 40
4.0
 40
4.0
 40
4.0
 40
5.0
 40
5.0
 40
5.0
 40
5.0
 10
3.452777862548828
 20
1.518055386013455
 10
3.361111111111111
 20
1.57499991522895
 10
3.280555725097656
 20
1.643055386013455
 10
3.208333333333333
 20
1.72361077202691
 10
3.252777735392252
 20
1.855555216471354
 10
3.259722179836697
 20
1.987499660915798
 10
3.254166709052192
 20
2.127777523464627
 10
3.329166624281141
 20
2.015277438693576
 10
3.408333460489909
 20
1.908333248562283
 10
3.522222306993272
 20
1.830555386013455
 10
3.525000042385525
 20
1.829166412353516
 10
3.526389016045464
 20
1.827777438693576
 10
3.529166751437717
 20
1.826388888888889
 10
3.519444359673394
 20
1.720833248562283
 10
3.493055555555555
 20
1.618055555555555
 10
3.452777862548828
 20
1.518055386013455
 97
        0
 97
        0
 92
        1
 93
        1
 72
     4
 94
        3
 73
     0
 74
     1
 95
       23
 96
       19
 40
0.0
 40
0.0
 40
0.0
 40
0.0
 40
1.0
 40
1.0
 40
1.0
 40
2.0
 40
2.0
 40
2.0
 40
3.0
 40
3.0
 40
3.0
 40
4.0
 40
4.0
 40
4.0
 40
5.0
 40
5.0
 40
5.0
 40
6.0
 40
6.0
 40
6.0
 40
6.0
 10
3.004166709052192
 20
1.520833333333333
 10
2.92500008477105
 20
1.606944613986545
 10
2.852777904934353
 20
1.711111280653212
 10
2.801388846503364
 20
1.82499991522895
 10
2.866666581895616
 20
1.781944274902344
 10
2.947222179836697
 20
1.736111111111111
 10
3.018055597941081
 20
1.730555640326606
 10
3.077777862548828
 20
1.725000169542101
 10
3.145833333333333
 20
1.783333248562283
 10
3.197222179836697
 20
1.827777862548828
 10
3.191666709052192
 20
1.805555555555555
 10
3.186111026340061
 20
1.781944698757595
 10
3.179166581895616
 20
1.759722391764323
 10
3.159722222222222
 20
1.700000339084201
 10
3.133333206176758
 20
1.640277862548828
 10
3.10555542839898
 20
1.583333333333333
 10
3.080555597941081
 20
1.536111195882161
 10
3.056944529215495
 20
1.465277777777778
 10
3.004166709052192
 20
1.520833333333333
 97
        0
 97
        0
 92
        1
 93
        1
 72
     4
 94
        3
 73
     0
 74
     1
 95
       23
 96
       19
 40
0.0
 40
0.0
 40
0.0
 40
0.0
 40
1.0
 40
1.0
 40
1.0
 40
2.0
 40
2.0
 40
2.0
 40
3.0
 40
3.0
 40
3.0
 40
4.0
 40
4.0
 40
4.0
 40
5.0
 40
5.0
 40
5.0
 40
6.0
 40
6.0
 40
6.0
 40
6.0
 10
2.48750008477105
 20
1.537500169542101
 10
2.381944444444444
 20
1.584722306993273
 10
2.341666751437717
 20
1.751388973659939
 10
2.311111238267686
 20
1.855555640326606
 10
2.341666751437717
 20
1.868055555555555
 10
2.372222264607747
 20
1.881944444444444
 10
2.402777989705403
 20
1.897222306993273
 10
2.511111365424262
 20
1.951388888888889
 10
2.608333587646484
 20
2.022222306993272
 10
2.684722476535373
 20
2.115278032090929
 10
2.691666920979817
 20
1.991667005750868
 10
2.731944613986545
 20
1.875000423855252
 10
2.790278116861979
 20
1.763889312744141
 10
2.804167005750868
 20
1.737500508626302
 10
2.819444868299696
 20
1.711111704508463
 10
2.834722518920898
 20
1.686111450195312
 10
2.75
 20
1.620833502875434
 10
2.594444486829969
 20
1.490277608235677
 10
2.48750008477105
 20
1.537500169542101
 97
        0
 97
        0
 92
        1
 93
        1
 72
     4
 94
        3
 73
     0
 74
     1
 95
       26
 96
       22
 40
0.0
 40
0.0
 40
0.0
 40
0.0
 40
1.0
 40
1.0
 40
1.0
 40
2.0
 40
2.0
 40
2.0
 40
3.0
 40
3.0
 40
3.0
 40
4.0
 40
4.0
 40
4.0
 40
5.0
 40
5.0
 40
5.0
 40
6.0
 40
6.0
 40
6.0
 40
7.0
 40
7.0
 40
7.0
 40
7.0
 10
2.025000042385525
 20
1.829166836208767
 10
2.009722179836697
 20
1.847222222222222
 10
2.031944486829969
 20
1.92638905843099
 10
2.034722222222222
 20
1.945833418104383
 10
2.045833375718858
 20
2.004166920979817
 10
2.058333290947808
 20
2.063888973659939
 10
2.076388888888889
 20
2.120833502875434
 10
2.083333333333333
 20
2.143055809868707
 10
2.091666751437717
 20
2.16388914320204
 10
2.099999957614475
 20
2.184722476535373
 10
2.115277820163303
 20
2.118055979410807
 10
2.138888888888889
 20
2.025000254313151
 10
2.193055470784505
 20
1.998611450195312
 10
2.258333206176758
 20
1.966667175292969
 10
2.340277777777778
 20
1.955555809868706
 10
2.416666666666667
 20
1.951389312744141
 10
2.319444444444444
 20
1.897222730848524
 10
2.212500042385525
 20
1.856945037841797
 10
2.108333375718858
 20
1.830555809868706
 10
2.091666751437717
 20
1.82499991522895
 10
2.041666666666667
 20
1.809722052680121
 10
2.025000042385525
 20
1.829166836208767
 97
        0
 97
        0
 92
        1
 93
        1
 72
     4
 94
        3
 73
     0
 74
     1
 95
       32
 96
       28
 40
0.0
 40
0.0
 40
0.0
 40
0.0
 40
1.0
 40
1.0
 40
1.0
 40
2.0
 40
2.0
 40
2.0
 40
3.0
 40
3.0
 40
3.0
 40
4.0
 40
4.0
 40
4.0
 40
5.0
 40
5.0
 40
5.0
 40
6.0
 40
6.0
 40
6.0
 40
7.0
 40
7.0
 40
7.0
 40
8.0
 40
8.0
 40
8.0
 40
9.0
 40
9.0
 40
9.0
 40
9.0
 10
1.509722179836697
 20
2.473611195882161
 10
1.509722179836697
 20
2.472222222222222
 10
1.509722179836697
 20
2.472222222222222
 10
1.509722179836697
 20
2.472222222222222
 10
1.372222158643934
 20
2.422222137451172
 10
1.234722137451172
 20
2.373611026340061
 10
1.095833248562283
 20
2.327777862548828
 10
1.129166603088379
 20
2.395833333333333
 10
1.127777735392252
 20
2.477777904934353
 10
1.126388761732313
 20
2.555555555555555
 10
1.126388761732313
 20
2.572222179836697
 10
1.126388761732313
 20
2.588888804117838
 10
1.126388761732313
 20
2.606944402058919
 10
1.206944359673394
 20
2.602777693006727
 10
1.280555407206217
 20
2.609722137451172
 10
1.348610983954535
 20
2.659722222222222
 10
1.408333248562283
 20
2.702777862548828
 10
1.44861094156901
 20
2.765277862548828
 10
1.483333163791233
 20
2.827777862548828
 10
1.53333314259847
 20
2.776389016045464
 10
1.593055407206217
 20
2.734722349378798
 10
1.652777565850152
 20
2.694444444444444
 10
1.644444253709581
 20
2.683333290947808
 10
1.634721967909071
 20
2.672222137451172
 10
1.6263886557685
 20
2.661111195882161
 10
1.587500042385525
 20
2.609722137451172
 10
1.520833333333333
 20
2.538888931274414
 10
1.509722179836697
 20
2.473611195882161
 97
        0
 97
        0
 92
        1
 93
        1
 72
     4
 94
        3
 73
     0
 74
     1
 95
       35
 96
       31
 40
0.0
 40
0.0
 40
0.0
 40
0.0
 40
1.0
 40
1.0
 40
1.0
 40
2.0
 40
2.0
 40
2.0
 40
3.0
 40
3.0
 40
3.0
 40
4.0
 40
4.0
 40
4.0
 40
5.0
 40
5.0
 40
5.0
 40
6.0
 40
6.0
 40
6.0
 40
7.0
 40
7.0
 40
7.0
 40
8.0
 40
8.0
 40
8.0
 40
9.0
 40
9.0
 40
9.0
 40
10.0
 40
10.0
 40
10.0
 40
10.0
 10
1.236111111111111
 20
2.984722137451172
 10
1.241666687859429
 20
2.988888846503364
 10
1.243055555555556
 20
2.994444317287869
 10
1.243055555555556
 20
3.0
 10
1.243055555555556
 20
3.005555470784505
 10
1.241666687859429
 20
3.009722179836697
 10
1.236111111111111
 20
3.015277862548828
 10
1.147222201029459
 20
3.088889016045464
 10
1.129166709052192
 20
3.230555640326606
 10
1.126388867696126
 20
3.352777904934353
 10
1.205555491977268
 20
3.356944613986545
 10
1.274999936421712
 20
3.3500001695421
 10
1.337499936421712
 20
3.295833375718858
 10
1.38749991522895
 20
3.254166709052192
 10
1.420833269755045
 20
3.197222179836697
 10
1.452777756585015
 20
3.140277862548828
 10
1.418055534362793
 20
3.1000001695421
 10
1.377777735392252
 20
3.045833375718858
 10
1.377777735392252
 20
3.0
 10
1.377777735392252
 20
2.954166624281141
 10
1.418055534362793
 20
2.898611068725586
 10
1.452777756585015
 20
2.859722137451172
 10
1.420833269755045
 20
2.804166581895616
 10
1.387500021192763
 20
2.747222052680121
 10
1.337499936421712
 20
2.704166624281141
 10
1.274999936421712
 20
2.651388804117838
 10
1.204166624281142
 20
2.644444359673394
 10
1.126388867696126
 20
2.647222095065647
 10
1.130555576748318
 20
2.770833333333333
 10
1.148611068725586
 20
2.911111195882161
 10
1.236111111111111
 20
2.984722137451172
 97
        0
 97
        0
 92
        1
 93
        1
 72
     4
 94
        3
 73
     0
 74
     1
 95
       32
 96
       28
 40
0.0
 40
0.0
 40
0.0
 40
0.0
 40
1.0
 40
1.0
 40
1.0
 40
2.0
 40
2.0
 40
2.0
 40
3.0
 40
3.0
 40
3.0
 40
4.0
 40
4.0
 40
4.0
 40
5.0
 40
5.0
 40
5.0
 40
6.0
 40
6.0
 40
6.0
 40
7.0
 40
7.0
 40
7.0
 40
8.0
 40
8.0
 40
8.0
 40
9.0
 40
9.0
 40
9.0
 40
9.0
 10
1.509722179836697
 20
3.529166751437717
 10
1.509722179836697
 20
3.527777777777778
 10
1.509722179836697
 20
3.527777777777778
 10
1.509722179836697
 20
3.527777777777778
 10
1.519444359673394
 20
3.466666751437717
 10
1.583333333333333
 20
3.397222306993272
 10
1.619444423251682
 20
3.348611195882161
 10
1.630555576748318
 20
3.334722306993272
 10
1.641666624281141
 20
3.320833418104383
 10
1.652777777777778
 20
3.306944529215495
 10
1.59305551317003
 20
3.266666836208767
 10
1.533333354526096
 20
3.2250001695421
 10
1.483333375718858
 20
3.173611111111111
 10
1.44722228580051
 20
3.236111111111111
 10
1.40694448682997
 20
3.298611111111111
 10
1.348611195882161
 20
3.341666751437717
 10
1.280555619133843
 20
3.391666836208767
 10
1.208333439297146
 20
3.398611280653212
 10
1.126388973659939
 20
3.39444457160102
 10
1.126388973659939
 20
3.4125001695421
 10
1.126388973659939
 20
3.429166793823242
 10
1.126388973659939
 20
3.445833418104383
 10
1.127777841356066
 20
3.523611280653212
 10
1.129166709052192
 20
3.605555640326606
 10
1.095833460489909
 20
3.673611111111111
 10
1.234722243414985
 20
3.626388973659939
 10
1.372222264607747
 20
3.579166624281141
 10
1.509722179836697
 20
3.529166751437717
 97
        0
 97
        0
 92
        1
 93
        1
 72
     4
 94
        3
 73
     0
 74
     1
 95
       26
 96
       22
 40
0.0
 40
0.0
 40
0.0
 40
0.0
 40
1.0
 40
1.0
 40
1.0
 40
2.0
 40
2.0
 40
2.0
 40
3.0
 40
3.0
 40
3.0
 40
4.0
 40
4.0
 40
4.0
 40
5.0
 40
5.0
 40
5.0
 40
6.0
 40
6.0
 40
6.0
 40
7.0
 40
7.0
 40
7.0
 40
7.0
 10
2.025000042385525
 20
4.158333248562283
 10
2.037499957614475
 20
4.193055470784505
 10
2.080555597941081
 20
4.177777608235677
 10
2.109722349378798
 20
4.169444402058919
 10
2.213889016045465
 20
4.14305559794108
 10
2.320833418104383
 20
4.104166666666666
 10
2.418055640326606
 20
4.048611111111111
 10
2.341666751437717
 20
4.044444402058919
 10
2.259722391764323
 20
4.033333248562283
 10
2.194444444444444
 20
4.001388973659939
 10
2.140277862548828
 20
3.973611195882161
 10
2.116666581895616
 20
3.880555682712131
 10
2.101388931274414
 20
3.813888973659939
 10
2.091666751437717
 20
3.834722306993272
 10
2.084722306993272
 20
3.855555640326606
 10
2.077777862548828
 20
3.877777947319878
 10
2.059722264607747
 20
3.934722476535373
 10
2.047222349378798
 20
3.994444529215495
 10
2.036111195882161
 20
4.052778032090929
 10
2.029166751437717
 20
4.083333333333333
 10
2.013888888888889
 20
4.130555470784505
 10
2.025000042385525
 20
4.158333248562283
 97
        0
 97
        0
 92
        1
 93
        1
 72
     4
 94
        3
 73
     0
 74
     1
 95
       23
 96
       19
 40
0.0
 40
0.0
 40
0.0
 40
0.0
 40
1.0
 40
1.0
 40
1.0
 40
2.0
 40
2.0
 40
2.0
 40
3.0
 40
3.0
 40
3.0
 40
4.0
 40
4.0
 40
4.0
 40
5.0
 40
5.0
 40
5.0
 40
6.0
 40
6.0
 40
6.0
 40
6.0
 10
2.48750008477105
 20
4.462500042385525
 10
2.594444486829969
 20
4.509722285800509
 10
2.75
 20
4.379166709052192
 10
2.833333333333333
 20
4.313888973659939
 10
2.819444444444444
 20
4.29166677263048
 10
2.806944529215495
 20
4.26944457160102
 10
2.794444402058919
 20
4.247222264607747
 10
2.733333375718858
 20
4.134722179836697
 10
2.691666709052192
 20
4.013888888888888
 10
2.683333290947808
 20
3.886111153496636
 10
2.606944402058919
 20
3.979166666666667
 10
2.509722179836697
 20
4.05000008477105
 10
2.401388804117838
 20
4.104166666666666
 10
2.372222052680121
 20
4.119444529215494
 10
2.341666539510091
 20
4.133333418104383
 10
2.309722052680121
 20
4.145833333333333
 10
2.340277777777778
 20
4.248611132303873
 10
2.381944444444444
 20
4.41527779897054
 10
2.48750008477105
 20
4.462500042385525
 97
        0
 97
        0
 92
        1
 93
        1
 72
     4
 94
        3
 73
     0
 74
     1
 95
       23
 96
       19
 40
0.0
 40
0.0
 40
0.0
 40
0.0
 40
1.0
 40
1.0
 40
1.0
 40
2.0
 40
2.0
 40
2.0
 40
3.0
 40
3.0
 40
3.0
 40
4.0
 40
4.0
 40
4.0
 40
5.0
 40
5.0
 40
5.0
 40
6.0
 40
6.0
 40
6.0
 40
6.0
 10
3.104166666666667
 20
4.41527779897054
 10
3.131944444444444
 20
4.358333375718859
 10
3.158333248562283
 20
4.298611111111111
 10
3.177777820163303
 20
4.238888952467176
 10
3.184722264607747
 20
4.216666751437717
 10
3.191666709052192
 20
4.194444444444445
 10
3.195833418104383
 20
4.170833375718859
 10
3.14444457160102
 20
4.215277777777778
 10
3.076388888888889
 20
4.272222306993273
 10
3.016666836208767
 20
4.26805559794108
 10
2.94444465637207
 20
4.262500021192762
 10
2.865278032090929
 20
4.216666751437717
 10
2.80000008477105
 20
4.173611111111111
 10
2.851388931274414
 20
4.287499957614474
 10
2.922222349378798
 20
4.39305559794108
 10
3.002777947319878
 20
4.47777779897054
 10
3.056944529215495
 20
4.534722222222222
 10
3.080555597941081
 20
4.462500042385525
 10
3.104166666666667
 20
4.41527779897054
 97
        0
 97
        0
 92
        1
 93
        1
 72
     4
 94
        3
 73
     0
 74
     1
 95
       20
 96
       16
 40
0.0
 40
0.0
 40
0.0
 40
0.0
 40
1.0
 40
1.0
 40
1.0
 40
2.0
 40
2.0
 40
2.0
 40
3.0
 40
3.0
 40
3.0
 40
4.0
 40
4.0
 40
4.0
 40
5.0
 40
5.0
 40
5.0
 40
5.0
 10
3.452777862548828
 20
4.481944402058919
 10
3.493055555555555
 20
4.381944444444445
 10
3.518055597941081
 20
4.279166645473904
 10
3.529166751437717
 20
4.172222137451172
 10
3.526389016045464
 20
4.170833163791232
 10
3.525000042385525
 20
4.169444402058919
 10
3.522222306993272
 20
4.16805542839898
 10
3.408333460489909
 20
4.090277565850152
 10
3.329166836208767
 20
3.983333163791233
 10
3.254166709052192
 20
3.870833290947808
 10
3.258333418104383
 20
4.01249991522895
 10
3.252777735392252
 20
4.14305559794108
 10
3.208333333333333
 20
4.274999936421712
 10
3.28055551317003
 20
4.355555534362793
 10
3.36250008477105
 20
4.424999978807238
 10
3.452777862548828
 20
4.481944402058919
 97
        0
 97
        0
 92
        1
 93
        1
 72
     4
 94
        3
 73
     0
 74
     1
 95
       29
 96
       25
 40
0.0
 40
0.0
 40
0.0
 40
0.0
 40
1.0
 40
1.0
 40
1.0
 40
2.0
 40
2.0
 40
2.0
 40
3.0
 40
3.0
 40
3.0
 40
4.0
 40
4.0
 40
4.0
 40
5.0
 40
5.0
 40
5.0
 40
6.0
 40
6.0
 40
6.0
 40
7.0
 40
7.0
 40
7.0
 40
8.0
 40
8.0
 40
8.0
 40
8.0
 10
4.213888804117838
 20
3.918055640326606
 10
4.26111094156901
 20
3.870833502875434
 10
4.240277608235677
 20
3.756944444444444
 10
4.229166666666666
 20
3.701388888888889
 10
4.218055725097656
 20
3.644444359673394
 10
4.19861094156901
 20
3.590277777777778
 10
4.177777608235677
 20
3.536111195882161
 10
4.158333248562283
 20
3.540277904934353
 10
4.138888888888888
 20
3.544444613986545
 10
4.119444105360243
 20
3.548611111111111
 10
3.987499660915798
 20
3.57499991522895
 10
3.852777269151475
 20
3.579166624281141
 10
3.723610772026909
 20
3.545833375718858
 10
3.793055216471354
 20
3.652777777777778
 10
3.829166412353516
 20
3.775000042385525
 10
3.845832824707031
 20
3.900000042385525
 10
3.849999321831597
 20
3.926388846503364
 10
3.851388295491536
 20
3.952777862548828
 10
3.854166242811415
 20
3.979166666666667
 10
3.912499745686849
 20
3.980555640326606
 10
3.970832824707031
 20
3.983333375718858
 10
4.027777353922525
 20
3.976388931274414
 10
4.083333333333333
 20
3.973611195882161
 10
4.173611111111111
 20
3.959722306993272
 10
4.213888804117838
 20
3.918055640326606
 97
        0
 97
        0
 92
        1
 93
        1
 72
     4
 94
        3
 73
     0
 74
     1
 95
       20
 96
       16
 40
0.0
 40
0.0
 40
0.0
 40
0.0
 40
1.0
 40
1.0
 40
1.0
 40
2.0
 40
2.0
 40
2.0
 40
3.0
 40
3.0
 40
3.0
 40
4.0
 40
4.0
 40
4.0
 40
5.0
 40
5.0
 40
5.0
 40
5.0
 10
4.259722391764322
 20
2.831944359673394
 10
4.15000025431315
 20
2.91805542839898
 10
4.022222306993273
 20
2.962499830457899
 10
3.888888888888889
 20
3.0
 10
4.019444359673394
 20
3.037499957614475
 10
4.145833333333333
 20
3.079166624281141
 10
4.254166497124566
 20
3.163888931274414
 10
4.255555470784505
 20
3.165277904934353
 10
4.258332994249132
 20
3.166666666666667
 10
4.259721967909071
 20
3.168055640326606
 10
4.358333163791232
 20
3.125
 10
4.447221967909071
 20
3.068055682712131
 10
4.530555301242404
 20
3.0
 10
4.447222391764322
 20
2.930555555555555
 10
4.356944613986545
 20
2.875
 10
4.259722391764322
 20
2.831944359673394
 97
        0
 97
        0
 92
        1
 93
        1
 72
     4
 94
        3
 73
     0
 74
     1
 95
       38
 96
       34
 40
0.0
 40
0.0
 40
0.0
 40
0.0
 40
1.0
 40
1.0
 40
1.0
 40
2.0
 40
2.0
 40
2.0
 40
3.0
 40
3.0
 40
3.0
 40
4.0
 40
4.0
 40
4.0
 40
5.0
 40
5.0
 40
5.0
 40
6.0
 40
6.0
 40
6.0
 40
7.0
 40
7.0
 40
7.0
 40
8.0
 40
8.0
 40
8.0
 40
9.0
 40
9.0
 40
9.0
 40
10.0
 40
10.0
 40
10.0
 40
11.0
 40
11.0
 40
11.0
 40
11.0
 10
4.102777693006727
 20
2.872222264607747
 10
4.129166497124566
 20
2.806944529215495
 10
4.176388634575738
 20
2.711111068725586
 10
4.140277862548828
 20
2.645833333333333
 10
4.104166666666666
 20
2.580555597941081
 10
4.030555725097656
 20
2.520833333333333
 10
3.970833248562283
 20
2.477777693006727
 10
3.968055301242404
 20
2.476388719346788
 10
3.966666751437717
 20
2.473610983954535
 10
3.965277777777778
 20
2.472222222222222
 10
3.890277862548828
 20
2.46805551317003
 10
3.815277947319878
 20
2.473611195882161
 10
3.741666581895616
 20
2.491666581895616
 10
3.781944274902344
 20
2.508333206176758
 10
3.822221967909071
 20
2.527777777777778
 10
3.859722137451172
 20
2.551388846503364
 10
3.897222306993272
 20
2.57499991522895
 10
3.966666751437717
 20
2.612499872843424
 10
3.984722137451172
 20
2.65555551317003
 10
4.002777523464626
 20
2.69999991522895
 10
3.972222222222222
 20
2.772222095065647
 10
3.956944359673394
 20
2.813888761732313
 10
3.947221967909071
 20
2.841666539510091
 10
3.9375
 20
2.869444317287869
 10
3.92500008477105
 20
2.895833121405707
 10
3.918055640326606
 20
2.911110983954535
 10
3.902777777777778
 20
2.933333079020182
 10
3.891666836208767
 20
2.955555386013455
 10
3.962500254313151
 20
2.934722052680121
 10
4.033333672417535
 20
2.912499745686849
 10
4.10138914320204
 20
2.881944232516819
 10
4.101388719346788
 20
2.879166709052192
 10
4.101388719346788
 20
2.876388973659939
 10
4.102777693006727
 20
2.872222264607747
 97
        0
 97
        0
 92
        1
 93
        1
 72
     4
 94
        3
 73
     0
 74
     1
 95
       35
 96
       31
 40
0.0
 40
0.0
 40
0.0
 40
0.0
 40
1.0
 40
1.0
 40
1.0
 40
2.0
 40
2.0
 40
2.0
 40
3.0
 40
3.0
 40
3.0
 40
4.0
 40
4.0
 40
4.0
 40
5.0
 40
5.0
 40
5.0
 40
6.0
 40
6.0
 40
6.0
 40
7.0
 40
7.0
 40
7.0
 40
8.0
 40
8.0
 40
8.0
 40
9.0
 40
9.0
 40
9.0
 40
10.0
 40
10.0
 40
10.0
 40
10.0
 10
3.443055470784505
 20
1.963888804117838
 10
3.438888761732313
 20
1.963888804117838
 10
3.436111026340061
 20
1.963888804117838
 10
3.433333290947808
 20
1.962499830457899
 10
3.381944444444444
 20
2.016666412353516
 10
3.338888804117838
 20
2.077777438693576
 10
3.297222137451172
 20
2.138888888888889
 10
3.34305551317003
 20
2.13611094156901
 10
3.397222095065647
 20
2.120833502875434
 10
3.429166581895616
 20
2.120833502875434
 10
3.476388719346788
 20
2.119444529215495
 10
3.563888973659939
 20
2.109722561306424
 10
3.606944190131293
 20
2.138888888888889
 10
3.641666412353516
 20
2.163888719346788
 10
3.654166327582465
 20
2.227777693006727
 10
3.665277693006727
 20
2.266666836208767
 10
3.680555555555555
 20
2.318055894639757
 10
3.688888973659939
 20
2.370833502875434
 10
3.693055470784505
 20
2.42500008477105
 10
3.731944190131293
 20
2.36250008477105
 10
3.76111094156901
 20
2.293055640326606
 10
3.781944274902344
 20
2.220833248562283
 10
3.780555301242404
 20
2.218055301242404
 10
3.777777777777778
 20
2.216666751437717
 10
3.777777777777778
 20
2.212499830457899
 10
3.755555470784505
 20
2.145833333333333
 10
3.7250001695421
 20
2.070832994249132
 10
3.680555555555555
 20
2.013888888888889
 10
3.625
 20
1.944444444444444
 10
3.523611068725586
 20
1.958333333333333
 10
3.443055470784505
 20
1.963888804117838
 97
        0
 97
        0
 92
        1
 93
        1
 72
     4
 94
        3
 73
     0
 74
     1
 95
       38
 96
       34
 40
0.0
 40
0.0
 40
0.0
 40
0.0
 40
1.0
 40
1.0
 40
1.0
 40
2.0
 40
2.0
 40
2.0
 40
3.0
 40
3.0
 40
3.0
 40
4.0
 40
4.0
 40
4.0
 40
5.0
 40
5.0
 40
5.0
 40
6.0
 40
6.0
 40
6.0
 40
7.0
 40
7.0
 40
7.0
 40
8.0
 40
8.0
 40
8.0
 40
9.0
 40
9.0
 40
9.0
 40
10.0
 40
10.0
 40
10.0
 40
11.0
 40
11.0
 40
11.0
 40
11.0
 10
3.206944359673394
 20
1.88749991522895
 10
3.202777650621202
 20
1.88749991522895
 10
3.19999991522895
 20
1.88611094156901
 10
3.197222179836697
 20
1.883333418104383
 10
3.163888931274414
 20
1.855555640326606
 10
3.130555470784505
 20
1.830555809868706
 10
3.094444486829969
 20
1.806944529215495
 10
3.052777820163303
 20
1.779166751437717
 10
3.023611068725586
 20
1.769444359673394
 10
2.976388931274414
 20
1.787500169542101
 10
2.906944486829969
 20
1.8125
 10
2.841666751437717
 20
1.848611195882161
 10
2.78055551317003
 20
1.891666836208767
 10
2.777777777777778
 20
1.893055809868706
 10
2.776388804117838
 20
1.894444783528646
 10
2.773611068725586
 20
1.894444783528646
 10
2.747222264607747
 20
1.965278201633029
 10
2.73055542839898
 20
2.03888914320204
 10
2.726388931274414
 20
2.111111534966363
 10
2.754166709052192
 20
2.07777828640408
 10
2.784722222222222
 20
2.045833587646484
 10
2.819444444444444
 20
2.018055809868707
 10
2.854166666666667
 20
1.98888905843099
 10
2.904166751437717
 20
1.940277947319878
 10
2.94999991522895
 20
1.933333502875434
 10
2.995833290947808
 20
1.92500008477105
 10
3.045833163791233
 20
1.968055725097656
 10
3.080555386013455
 20
1.991667005750868
 10
3.130555470784505
 20
2.02638922797309
 10
3.169444190131293
 20
2.072222391764323
 10
3.215277565850152
 20
2.112500508626302
 10
3.216666751437717
 20
2.036111195882161
 10
3.216666751437717
 20
1.961111280653212
 10
3.206944359673394
 20
1.88749991522895
 97
        0
 97
        0
 92
        1
 93
        1
 72
     4
 94
        3
 73
     0
 74
     1
 95
       38
 96
       34
 40
0.0
 40
0.0
 40
0.0
 40
0.0
 40
1.0
 40
1.0
 40
1.0
 40
2.0
 40
2.0
 40
2.0
 40
3.0
 40
3.0
 40
3.0
 40
4.0
 40
4.0
 40
4.0
 40
5.0
 40
5.0
 40
5.0
 40
6.0
 40
6.0
 40
6.0
 40
7.0
 40
7.0
 40
7.0
 40
8.0
 40
8.0
 40
8.0
 40
9.0
 40
9.0
 40
9.0
 40
10.0
 40
10.0
 40
10.0
 40
11.0
 40
11.0
 40
11.0
 40
11.0
 10
2.480555640326606
 20
1.98888905843099
 10
2.477777904934353
 20
1.990278032090929
 10
2.4750001695421
 20
1.990278032090929
 10
2.472222222222222
 20
1.990278032090929
 10
2.398611068725586
 20
1.991667005750868
 10
2.315277735392252
 20
1.995833502875434
 10
2.245833290947808
 20
2.023611280653212
 10
2.194444444444444
 20
2.044444613986545
 10
2.181944317287869
 20
2.076388888888889
 10
2.163888931274414
 20
2.126388973659939
 10
2.151389016045465
 20
2.161111195882161
 10
2.141666624281141
 20
2.195833418104383
 10
2.133333418104383
 20
2.230555640326606
 10
2.131944444444444
 20
2.234722137451172
 10
2.130555682712131
 20
2.23750008477105
 10
2.129166709052192
 20
2.238889058430989
 10
2.163888931274414
 20
2.302778032090929
 10
2.20694457160102
 20
2.361111111111111
 10
2.251388973659939
 20
2.419444613986545
 10
2.256944444444444
 20
2.372222476535373
 10
2.266666836208767
 20
2.326388888888889
 10
2.280555725097656
 20
2.280555725097656
 10
2.294444613986545
 20
2.23750008477105
 10
2.311111238267686
 20
2.156944698757596
 10
2.35138914320204
 20
2.127777947319879
 10
2.387500339084201
 20
2.10138914320204
 10
2.459722518920898
 20
2.111111111111111
 10
2.500000211927626
 20
2.113889058430989
 10
2.550000296698676
 20
2.116667005750868
 10
2.6000001695421
 20
2.123611450195312
 10
2.648611280653212
 20
2.136111365424262
 10
2.601388931274414
 20
2.079166836208767
 10
2.543055640326606
 20
2.030555725097656
 10
2.480555640326606
 20
1.98888905843099
 97
        0
 97
        0
 92
        1
 93
        1
 72
     4
 94
        3
 73
     0
 74
     1
 95
       38
 96
       34
 40
0.0
 40
0.0
 40
0.0
 40
0.0
 40
1.0
 40
1.0
 40
1.0
 40
2.0
 40
2.0
 40
2.0
 40
3.0
 40
3.0
 40
3.0
 40
4.0
 40
4.0
 40
4.0
 40
5.0
 40
5.0
 40
5.0
 40
6.0
 40
6.0
 40
6.0
 40
7.0
 40
7.0
 40
7.0
 40
8.0
 40
8.0
 40
8.0
 40
9.0
 40
9.0
 40
9.0
 40
10.0
 40
10.0
 40
10.0
 40
11.0
 40
11.0
 40
11.0
 40
11.0
 10
1.98750008477105
 20
2.431944529215495
 10
1.986111111111111
 20
2.434722476535373
 10
1.983333375718858
 20
2.4375
 10
1.979166666666667
 20
2.440277947319878
 10
1.947222179836697
 20
2.461111280653212
 10
1.915277693006727
 20
2.481944613986545
 10
1.884722179836697
 20
2.505555682712131
 10
1.844444486829969
 20
2.5375001695421
 10
1.820833206176758
 20
2.554166793823242
 10
1.819444444444444
 20
2.611111323038737
 10
1.816666709052192
 20
2.686111238267686
 10
1.834722306993273
 20
2.765278074476454
 10
1.858333375718858
 20
2.837500254313151
 10
1.859722349378798
 20
2.840277989705403
 10
1.859722349378798
 20
2.843055725097656
 10
1.859722349378798
 20
2.845833672417534
 10
1.919444613986545
 20
2.893055809868706
 10
1.983333375718858
 20
2.93194474114312
 10
2.051389058430989
 20
2.958333757188585
 10
2.025000254313151
 20
2.916667090521918
 10
2.002777947319879
 20
2.872222688462999
 10
1.986111323038737
 20
2.826389312744141
 10
1.970833460489909
 20
2.787500381469727
 10
1.937500211927626
 20
2.719444910685221
 10
1.952778074476454
 20
2.676389270358615
 10
1.969444698757595
 20
2.630555894639757
 10
2.031944698757596
 20
2.594444910685221
 10
2.06944465637207
 20
2.568055894639757
 10
2.111111323038737
 20
2.53888914320204
 10
2.154166963365343
 20
2.513889312744141
 10
2.198611365424262
 20
2.491667005750868
 10
2.127777735392252
 20
2.46805551317003
 10
2.058333290947808
 20
2.445833418104383
 10
1.98750008477105
 20
2.431944529215495
 97
        0
 97
        0
 92
        1
 93
        1
 72
     4
 94
        3
 73
     0
 74
     1
 95
       23
 96
       19
 40
0.0
 40
0.0
 40
0.0
 40
0.0
 40
1.0
 40
1.0
 40
1.0
 40
2.0
 40
2.0
 40
2.0
 40
3.0
 40
3.0
 40
3.0
 40
4.0
 40
4.0
 40
4.0
 40
5.0
 40
5.0
 40
5.0
 40
6.0
 40
6.0
 40
6.0
 40
6.0
 10
1.679166687859429
 20
2.724999957614475
 10
1.593055619133843
 20
2.783333248562283
 10
1.427777820163303
 20
2.886111153496636
 10
1.427777820163303
 20
3.0
 10
1.427777820163303
 20
3.113888846503364
 10
1.594444486829969
 20
3.216666751437717
 10
1.679166687859429
 20
3.275000042385525
 10
1.700000021192762
 20
3.25
 10
1.722222222222222
 20
3.224999957614475
 10
1.745833396911621
 20
3.201388888888889
 10
1.830555597941081
 20
3.115277820163303
 10
1.927777820163303
 20
3.043055640326606
 10
2.040277904934353
 20
3.0
 10
1.931944529215495
 20
2.956944359673394
 10
1.836111280653212
 20
2.888888888888889
 10
1.754166815016005
 20
2.806944529215495
 10
1.72777779897054
 20
2.78055551317003
 10
1.702777756585015
 20
2.752777735392252
 10
1.679166687859429
 20
2.724999957614475
 97
        0
 97
        0
 92
        1
 93
        1
 72
     4
 94
        3
 73
     0
 74
     1
 95
       38
 96
       34
 40
0.0
 40
0.0
 40
0.0
 40
0.0
 40
1.0
 40
1.0
 40
1.0
 40
2.0
 40
2.0
 40
2.0
 40
3.0
 40
3.0
 40
3.0
 40
4.0
 40
4.0
 40
4.0
 40
5.0
 40
5.0
 40
5.0
 40
6.0
 40
6.0
 40
6.0
 40
7.0
 40
7.0
 40
7.0
 40
8.0
 40
8.0
 40
8.0
 40
9.0
 40
9.0
 40
9.0
 40
10.0
 40
10.0
 40
10.0
 40
11.0
 40
11.0
 40
11.0
 40
11.0
 10
1.856944402058919
 20
3.162499957614475
 10
1.834722095065647
 20
3.233333375718858
 10
1.813888761732313
 20
3.313888761732313
 10
1.818055470784505
 20
3.388888888888889
 10
1.820833206176758
 20
3.438888973659939
 10
1.837499830457899
 20
3.456944359673394
 10
1.875
 20
3.48750008477105
 10
1.908333248562283
 20
3.513888888888889
 10
1.943055470784505
 20
3.538888931274414
 10
1.979166666666667
 20
3.561111238267686
 10
1.983333375718858
 20
3.563888973659939
 10
1.984722137451172
 20
3.566666709052192
 10
1.986111111111111
 20
3.56944465637207
 10
2.058333290947808
 20
3.555555767483181
 10
2.127777735392252
 20
3.533333460489909
 10
2.195833418104383
 20
3.508333630032009
 10
2.150000042385525
 20
3.486111323038737
 10
2.106944613986545
 20
3.462500254313151
 10
2.066666709052192
 20
3.43333371480306
 10
2.029166751437717
 20
3.406944910685221
 10
1.966666751437717
 20
3.37083371480306
 10
1.950000127156575
 20
3.325000339084201
 10
1.934722264607747
 20
3.281944698757595
 10
1.968055725097656
 20
3.215278201633029
 10
1.983333375718858
 20
3.175000296698676
 10
2.001388973659939
 20
3.129166920979817
 10
2.023611068725586
 20
3.084722518920898
 10
2.048611111111111
 20
3.043055852254231
 10
1.980555640326606
 20
3.07083363003201
 10
1.916666666666667
 20
3.109722561306424
 10
1.856944402058919
 20
3.155555937025282
 10
1.858333375718858
 20
3.156944486829969
 10
1.858333375718858
 20
3.159722222222222
 10
1.856944402058919
 20
3.162499957614475
 97
        0
 97
        0
 92
        1
 93
        1
 72
     4
 94
        3
 73
     0
 74
     1
 95
       38
 96
       34
 40
0.0
 40
0.0
 40
0.0
 40
0.0
 40
1.0
 40
1.0
 40
1.0
 40
2.0
 40
2.0
 40
2.0
 40
3.0
 40
3.0
 40
3.0
 40
4.0
 40
4.0
 40
4.0
 40
5.0
 40
5.0
 40
5.0
 40
6.0
 40
6.0
 40
6.0
 40
7.0
 40
7.0
 40
7.0
 40
8.0
 40
8.0
 40
8.0
 40
9.0
 40
9.0
 40
9.0
 40
10.0
 40
10.0
 40
10.0
 40
11.0
 40
11.0
 40
11.0
 40
11.0
 10
2.480555640326606
 20
4.011111153496636
 10
2.543055640326606
 20
3.969444486829969
 10
2.6000001695421
 20
3.920833375718858
 10
2.647222306993272
 20
3.863888846503364
 10
2.602777904934353
 20
3.875
 10
2.556944529215495
 20
3.881944444444444
 10
2.511111153496636
 20
3.884722179836697
 10
2.466666751437717
 20
3.88749991522895
 10
2.388888888888889
 20
3.898611068725586
 10
2.349999957614475
 20
3.870833290947808
 10
2.313888761732313
 20
3.844444486829969
 10
2.295833375718858
 20
3.770833333333333
 10
2.283333248562283
 20
3.73055542839898
 10
2.268055386013455
 20
3.68055534362793
 10
2.256944444444444
 20
3.630555470784505
 10
2.25
 20
3.579166624281141
 10
2.205555597941081
 20
3.63749991522895
 10
2.162499957614475
 20
3.695833206176758
 10
2.126388973659939
 20
3.759722179836697
 10
2.127777947319879
 20
3.76249991522895
 10
2.130555682712131
 20
3.765277650621202
 10
2.130555682712131
 20
3.768055597941081
 10
2.138889100816515
 20
3.798611111111111
 10
2.147222306993272
 20
3.830555597941081
 10
2.158333460489909
 20
3.861111111111111
 10
2.176389058430989
 20
3.913888931274414
 10
2.187500211927626
 20
3.952777862548828
 10
2.244444529215495
 20
3.974999957614475
 10
2.315277947319878
 20
4.001388761732313
 10
2.395833333333333
 20
4.008333206176758
 10
2.470833460489909
 20
4.008333206176758
 10
2.474999957614475
 20
4.009722179836697
 10
2.477777693006727
 20
4.011111153496636
 10
2.480555640326606
 20
4.011111153496636
 97
        0
 97
        0
 92
        1
 93
        1
 72
     4
 94
        3
 73
     0
 74
     1
 95
       38
 96
       34
 40
0.0
 40
0.0
 40
0.0
 40
0.0
 40
1.0
 40
1.0
 40
1.0
 40
2.0
 40
2.0
 40
2.0
 40
3.0
 40
3.0
 40
3.0
 40
4.0
 40
4.0
 40
4.0
 40
5.0
 40
5.0
 40
5.0
 40
6.0
 40
6.0
 40
6.0
 40
7.0
 40
7.0
 40
7.0
 40
8.0
 40
8.0
 40
8.0
 40
9.0
 40
9.0
 40
9.0
 40
10.0
 40
10.0
 40
10.0
 40
11.0
 40
11.0
 40
11.0
 40
11.0
 10
2.773611068725586
 20
4.105555640326606
 10
2.776388804117838
 20
4.105555640326606
 10
2.777777777777778
 20
4.106944613986545
 10
2.78055551317003
 20
4.108333375718859
 10
2.841666539510091
 20
4.151389016045465
 10
2.90555551317003
 20
4.1875
 10
2.976388931274414
 20
4.212500042385525
 10
3.01944457160102
 20
4.22777779897054
 10
3.044444402058919
 20
4.222222222222222
 10
3.084722306993272
 20
4.198611153496636
 10
3.125
 20
4.176388846503364
 10
3.1625001695421
 20
4.145833333333333
 10
3.197222391764323
 20
4.116666793823242
 10
3.200000127156575
 20
4.113889058430989
 10
3.204166836208767
 20
4.11250008477105
 10
3.20694457160102
 20
4.11250008477105
 10
3.216666751437717
 20
4.038888931274414
 10
3.216666751437717
 20
3.963889016045464
 10
3.213889016045464
 20
3.888888888888889
 10
3.172222349378798
 20
3.926388846503364
 10
3.134722391764323
 20
3.969444486829969
 10
3.088889016045464
 20
4.001388973659939
 10
3.055555767483181
 20
4.025000042385525
 10
3.001388973659939
 20
4.072222391764322
 10
2.955555597941081
 20
4.068055682712131
 10
2.909722222222222
 20
4.063888973659939
 10
2.861111111111111
 20
4.016666836208767
 10
2.827777862548828
 20
3.988889058430989
 10
2.790277904934353
 20
3.958333545260959
 10
2.756944444444444
 20
3.92500008477105
 10
2.726388931274414
 20
3.887500127156575
 10
2.730555640326606
 20
3.961111068725586
 10
2.747222264607747
 20
4.034722222222222
 10
2.773611068725586
 20
4.105555640326606
 97
        0
 97
        0
 92
        1
 93
        1
 72
     4
 94
        3
 73
     0
 74
     1
 95
       35
 96
       31
 40
0.0
 40
0.0
 40
0.0
 40
0.0
 40
1.0
 40
1.0
 40
1.0
 40
2.0
 40
2.0
 40
2.0
 40
3.0
 40
3.0
 40
3.0
 40
4.0
 40
4.0
 40
4.0
 40
5.0
 40
5.0
 40
5.0
 40
6.0
 40
6.0
 40
6.0
 40
7.0
 40
7.0
 40
7.0
 40
8.0
 40
8.0
 40
8.0
 40
9.0
 40
9.0
 40
9.0
 40
10.0
 40
10.0
 40
10.0
 40
10.0
 10
3.434722264607747
 20
4.037499957614474
 10
3.4375
 20
4.036110983954535
 10
3.440277735392252
 20
4.036110983954535
 10
3.444444444444444
 20
4.036110983954535
 10
3.525000042385525
 20
4.04166645473904
 10
3.625
 20
4.05555534362793
 10
3.680555555555555
 20
3.986110899183485
 10
3.726388719346788
 20
3.93055534362793
 10
3.755555470784505
 20
3.85416645473904
 10
3.777777777777778
 20
3.787499745686849
 10
3.779166751437717
 20
3.784722010294596
 10
3.780555725097656
 20
3.781944274902344
 10
3.781944274902344
 20
3.779166327582465
 10
3.76111094156901
 20
3.706944147745768
 10
3.731944190131293
 20
3.637499703301323
 10
3.693055470784505
 20
3.574999703301323
 10
3.688888973659939
 20
3.624999788072374
 10
3.681944529215495
 20
3.673610899183485
 10
3.668055640326606
 20
3.720833036634657
 10
3.656944698757595
 20
3.759721967909071
 10
3.644444359673394
 20
3.831944147745768
 10
3.608333587646484
 20
3.858332951863606
 10
3.569444868299696
 20
3.887499703301323
 10
3.487500296698676
 20
3.87916628519694
 10
3.441666920979817
 20
3.87916628519694
 10
3.406944698757595
 20
3.87916628519694
 10
3.345833672417534
 20
3.862499660915798
 10
3.297222561306423
 20
3.859721925523546
 10
3.340277777777778
 20
3.922222137451172
 10
3.383333418104383
 20
3.983333375718858
 10
3.434722264607747
 20
4.037499957614474
 97
        0
 97
        0
 92
        1
 93
        1
 72
     4
 94
        3
 73
     0
 74
     1
 95
       38
 96
       34
 40
0.0
 40
0.0
 40
0.0
 40
0.0
 40
1.0
 40
1.0
 40
1.0
 40
2.0
 40
2.0
 40
2.0
 40
3.0
 40
3.0
 40
3.0
 40
4.0
 40
4.0
 40
4.0
 40
5.0
 40
5.0
 40
5.0
 40
6.0
 40
6.0
 40
6.0
 40
7.0
 40
7.0
 40
7.0
 40
8.0
 40
8.0
 40
8.0
 40
9.0
 40
9.0
 40
9.0
 40
10.0
 40
10.0
 40
10.0
 40
11.0
 40
11.0
 40
11.0
 40
11.0
 10
3.965277777777778
 20
3.529166751437717
 10
3.966666751437717
 20
3.526389016045464
 10
3.968055725097656
 20
3.525000042385525
 10
3.970833248562283
 20
3.522222306993272
 10
4.029166751437717
 20
3.479166666666667
 10
4.102777693006727
 20
3.419444613986545
 10
4.140277862548828
 20
3.354166666666667
 10
4.176389058430989
 20
3.288888931274414
 10
4.129166920979817
 20
3.193055470784505
 10
4.102777693006727
 20
3.127777735392252
 10
4.101388719346788
 20
3.125
 10
4.101388719346788
 20
3.122222264607747
 10
4.101388719346788
 20
3.119444317287869
 10
4.034722222222222
 20
3.087499830457899
 10
3.963888804117838
 20
3.065277735392252
 10
3.893055386013454
 20
3.045833163791233
 10
3.902777777777778
 20
3.063888761732313
 10
3.915277693006727
 20
3.080555386013455
 10
3.920833163791233
 20
3.094444274902344
 10
3.934722052680121
 20
3.124999788072374
 10
3.947221967909071
 20
3.155555301242404
 10
3.958333333333333
 20
3.187499788072374
 10
3.972222222222222
 20
3.22916645473904
 10
4.002777947319879
 20
3.299999872843424
 10
3.986111111111111
 20
3.344444274902344
 10
3.970833248562283
 20
3.38611094156901
 10
3.905555725097656
 20
3.422222137451172
 10
3.870833502875434
 20
3.444444232516819
 10
3.830555809868706
 20
3.470833036634657
 10
3.7875001695421
 20
3.49166636996799
 10
3.743055555555555
 20
3.51111094156901
 10
3.815277947319878
 20
3.526388804117838
 10
3.890277862548828
 20
3.531944486829969
 10
3.965277777777778
 20
3.529166751437717
 97
        0
 97
        0
 92
        1
 93
        1
 72
     4
 94
        3
 73
     0
 74
     1
 95
      134
 96
      130
 40
0.0
 40
0.0
 40
0.0
 40
0.0
 40
1.0
 40
1.0
 40
1.0
 40
2.0
 40
2.0
 40
2.0
 40
3.0
 40
3.0
 40
3.0
 40
4.0
 40
4.0
 40
4.0
 40
5.0
 40
5.0
 40
5.0
 40
6.0
 40
6.0
 40
6.0
 40
7.0
 40
7.0
 40
7.0
 40
8.0
 40
8.0
 40
8.0
 40
9.0
 40
9.0
 40
9.0
 40
10.0
 40
10.0
 40
10.0
 40
11.0
 40
11.0
 40
11.0
 40
12.0
 40
12.0
 40
12.0
 40
13.0
 40
13.0
 40
13.0
 40
14.0
 40
14.0
 40
14.0
 40
15.0
 40
15.0
 40
15.0
 40
16.0
 40
16.0
 40
16.0
 40
17.0
 40
17.0
 40
17.0
 40
18.0
 40
18.0
 40
18.0
 40
19.0
 40
19.0
 40
19.0
 40
20.0
 40
20.0
 40
20.0
 40
21.0
 40
21.0
 40
21.0
 40
22.0
 40
22.0
 40
22.0
 40
23.0
 40
23.0
 40
23.0
 40
24.0
 40
24.0
 40
24.0
 40
25.0
 40
25.0
 40
25.0
 40
26.0
 40
26.0
 40
26.0
 40
27.0
 40
27.0
 40
27.0
 40
28.0
 40
28.0
 40
28.0
 40
29.0
 40
29.0
 40
29.0
 40
30.0
 40
30.0
 40
30.0
 40
31.0
 40
31.0
 40
31.0
 40
32.0
 40
32.0
 40
32.0
 40
33.0
 40
33.0
 40
33.0
 40
34.0
 40
34.0
 40
34.0
 40
35.0
 40
35.0
 40
35.0
 40
36.0
 40
36.0
 40
36.0
 40
37.0
 40
37.0
 40
37.0
 40
38.0
 40
38.0
 40
38.0
 40
39.0
 40
39.0
 40
39.0
 40
40.0
 40
40.0
 40
40.0
 40
41.0
 40
41.0
 40
41.0
 40
42.0
 40
42.0
 40
42.0
 40
43.0
 40
43.0
 40
43.0
 40
43.0
 10
3.669444613986545
 20
2.509722179836697
 10
3.661111195882161
 20
2.506944444444444
 10
3.654166751437717
 20
2.498611026340061
 10
3.654166751437717
 20
2.488888846503364
 10
3.654166751437717
 20
2.401388804117838
 10
3.648611280653212
 20
2.243055555555555
 10
3.573611365424262
 20
2.1875
 10
3.49444474114312
 20
2.129166497124566
 10
3.336111280653212
 20
2.168055640326606
 10
3.247222476535373
 20
2.188888973659939
 10
3.240278032090929
 20
2.190277947319879
 10
3.231944613986545
 20
2.188888973659939
 10
3.22638914320204
 20
2.183333502875434
 10
3.193055894639757
 20
2.144444783528646
 10
3.158333672417534
 20
2.106944613986545
 10
3.11944474114312
 20
2.073611365424262
 10
3.087500254313151
 20
2.045833587646484
 10
3.023611492580838
 20
1.986111534966363
 10
2.977778116861979
 20
1.97638914320204
 10
2.929167005750868
 20
1.966666751437717
 10
2.872222476535373
 20
2.025000254313151
 10
2.840278201633029
 20
2.052778032090929
 10
2.79583379957411
 20
2.091666751437717
 10
2.756944868299696
 20
2.134722391764323
 10
2.722222646077474
 20
2.181944529215495
 10
2.716667175292969
 20
2.188888973659939
 10
2.708333757188585
 20
2.194444444444444
 10
2.698611577351888
 20
2.191666920979817
 10
2.616667217678494
 20
2.165278116861979
 10
2.472222646077474
 20
2.122222476535373
 10
2.39027828640408
 20
2.165278116861979
 10
2.308333926730686
 20
2.208333757188585
 10
2.291667090521918
 20
2.400000254313151
 10
2.286111619737413
 20
2.484722561306424
 10
2.284722646077474
 20
2.49444474114312
 10
2.280556148952908
 20
2.501389185587565
 10
2.270833757188585
 20
2.505555894639757
 10
2.218055937025282
 20
2.527778201633029
 10
2.166667090521918
 20
2.552778032090929
 10
2.118055979410807
 20
2.584722518920898
 10
2.083333757188585
 20
2.606944825914171
 10
1.994444953070746
 20
2.656944698757596
 10
1.991667005750868
 20
2.706944783528646
 10
1.988889270358615
 20
2.751389185587565
 10
2.022222518920898
 20
2.812500423855252
 10
2.040278116861979
 20
2.852778116861979
 10
2.062500423855252
 20
2.900000254313151
 10
2.08888922797309
 20
2.944444868299696
 10
2.119444741143121
 20
2.987500296698676
 10
2.122222476535373
 20
2.990278032090929
 10
2.125000211927626
 20
2.99444474114312
 10
2.123611450195312
 20
3.000000211927626
 10
2.123611450195312
 20
3.004166920979817
 10
2.122222476535373
 20
3.00833363003201
 10
2.119444741143121
 20
3.012500127156575
 10
2.091666963365343
 20
3.052777820163303
 10
2.065278159247504
 20
3.093055725097656
 10
2.044444825914171
 20
3.137500127156575
 10
2.027778201633029
 20
3.173611323038737
 10
1.988889270358615
 20
3.248611238267686
 10
1.991667005750868
 20
3.293055640326606
 10
1.99583371480306
 20
3.343055725097656
 10
2.072222603691949
 20
3.384722391764323
 10
2.108333587646484
 20
3.408333460489909
 10
2.159722434149848
 20
3.443055682712131
 10
2.21388922797309
 20
3.470833460489909
 10
2.270833545260959
 20
3.493055767483181
 10
2.280555725097656
 20
3.497222476535373
 10
2.286111407809787
 20
3.502777947319878
 10
2.286111407809787
 20
3.513889100816515
 10
2.291666878594292
 20
3.597222434149848
 10
2.309722476535373
 20
3.790277904934353
 10
2.390278074476454
 20
3.833333545260959
 10
2.472222434149848
 20
3.876389185587565
 10
2.616667005750868
 20
3.833333545260959
 10
2.698611365424262
 20
3.80694474114312
 10
2.708333545260959
 20
3.804167005750868
 10
2.716666963365343
 20
3.809722476535373
 10
2.722222434149848
 20
3.816666920979817
 10
2.755555682712131
 20
3.861111323038737
 10
2.791666878594292
 20
3.90138922797309
 10
2.83194457160102
 20
3.938889185587565
 10
2.86250008477105
 20
3.966666963365343
 10
2.930555767483181
 20
4.034722434149848
 10
2.977777904934353
 20
4.023611492580837
 10
3.023611280653212
 20
4.012500339084201
 10
3.076389100816515
 20
3.96388922797309
 10
3.111111323038737
 20
3.934722688462999
 10
3.154166963365343
 20
3.900000466240777
 10
3.191666920979817
 20
3.859722773234049
 10
3.227777904934353
 20
3.816667132907444
 10
3.231944613986545
 20
3.811111662122938
 10
3.241666793823242
 20
3.809722688462999
 10
3.248611238267686
 20
3.811111662122938
 10
3.336111280653212
 20
3.833333969116211
 10
3.495833502875434
 20
3.870833926730686
 10
3.575000339084201
 20
3.812500635782877
 10
3.65138922797309
 20
3.755556106567383
 10
3.655555725097656
 20
3.598611831665039
 10
3.655555725097656
 20
3.511111789279514
 10
3.655555725097656
 20
3.501389609442817
 10
3.6625001695421
 20
3.494445164998372
 10
3.670833587646484
 20
3.49027845594618
 10
3.723611195882161
 20
3.4722228580051
 10
3.773611280653212
 20
3.451389524671766
 10
3.820833418104383
 20
3.423611746893989
 10
3.852777693006727
 20
3.404167387220594
 10
3.940277947319878
 20
3.361111746893989
 10
3.948611365424262
 20
3.319445080227322
 10
3.955555809868706
 20
3.279167387220594
 10
3.923611534966363
 20
3.20972294277615
 10
3.911111195882161
 20
3.173611746893989
 10
3.890277862548828
 20
3.11527845594618
 10
3.86250008477105
 20
3.061111662122938
 10
3.829166836208767
 20
3.009722815619575
 10
3.825000339084201
 20
3.004167344835069
 10
3.825000339084201
 20
2.994444953070746
 10
3.829166836208767
 20
2.988889482286241
 10
3.859722561306423
 20
2.94027837117513
 10
3.886111365424262
 20
2.89027828640408
 10
3.906944698757595
 20
2.836111704508463
 10
3.920833587646484
 20
2.800000508626302
 10
3.958333757188585
 20
2.719445122612847
 10
3.948611365424262
 20
2.679167217678494
 10
3.938888973659939
 20
2.636111577351888
 10
3.863889058430989
 20
2.601389355129666
 10
3.830555809868706
 20
2.580556021796332
 10
3.779166751437717
 20
2.551388846503364
 10
3.7250001695421
 20
2.527777777777778
 10
3.669444613986545
 20
2.509722179836697
 97
        0
 97
        0
 92
        1
 93
        1
 72
     4
 94
        3
 73
     0
 74
     1
 95
       26
 96
       22
 40
0.0
 40
0.0
 40
0.0
 40
0.0
 40
1.0
 40
1.0
 40
1.0
 40
2.0
 40
2.0
 40
2.0
 40
3.0
 40
3.0
 40
3.0
 40
4.0
 40
4.0
 40
4.0
 40
5.0
 40
5.0
 40
5.0
 40
6.0
 40
6.0
 40
6.0
 40
7.0
 40
7.0
 40
7.0
 40
7.0
 10
4.191666497124566
 20
3.169444402058919
 10
4.179166581895617
 20
3.161110983954535
 10
4.168055216471354
 20
3.154166539510091
 10
4.155555301242404
 20
3.147222095065647
 10
4.184722052680121
 20
3.215277565850152
 10
4.220833248562283
 20
3.30555534362793
 10
4.181944105360243
 20
3.365277608235677
 10
4.144443935818142
 20
3.424999872843424
 10
4.093055301242404
 20
3.476388719346788
 10
4.038888719346788
 20
3.520833121405707
 10
4.049999660915798
 20
3.519444147745768
 10
4.06111102634006
 20
3.518055386013454
 10
4.07361094156901
 20
3.515277650621202
 10
4.130555470784505
 20
3.505555470784505
 10
4.1875
 20
3.491666581895616
 10
4.243055555555555
 20
3.476388719346788
 10
4.274999830457899
 20
3.466666539510091
 10
4.406944274902344
 20
3.438888761732313
 10
4.419444613986545
 20
3.409722010294596
 10
4.445833418104383
 20
3.348611195882161
 10
4.238889058430989
 20
3.201388888888889
 10
4.191666497124566
 20
3.169444402058919
 97
        0
 97
        0
 92
        1
 93
        1
 72
     4
 94
        3
 73
     0
 74
     1
 95
       26
 96
       22
 40
0.0
 40
0.0
 40
0.0
 40
0.0
 40
1.0
 40
1.0
 40
1.0
 40
2.0
 40
2.0
 40
2.0
 40
3.0
 40
3.0
 40
3.0
 40
4.0
 40
4.0
 40
4.0
 40
5.0
 40
5.0
 40
5.0
 40
6.0
 40
6.0
 40
6.0
 40
7.0
 40
7.0
 40
7.0
 40
7.0
 10
3.816666497124566
 20
4.206944359673394
 10
3.829166412353516
 20
4.093055513170031
 10
3.82499991522895
 20
3.96805551317003
 10
3.799999660915798
 20
3.849999957614475
 10
3.77361085679796
 20
3.920833375718858
 10
3.737499660915798
 20
3.993055555555555
 10
3.687499576144748
 20
4.047222137451172
 10
3.644443935818142
 20
4.095833248562283
 10
3.548610687255859
 20
4.087499830457899
 10
3.477777269151475
 20
4.081944359673394
 10
3.493055131700304
 20
4.095833248562283
 10
3.508332782321506
 20
4.108333163791232
 10
3.524999406602647
 20
4.120833290947808
 10
3.568055046929253
 20
4.152777777777778
 10
3.615277184380425
 20
4.179166581895617
 10
3.662499321831597
 20
4.20555559794108
 10
3.68333265516493
 20
4.218055513170031
 10
3.705554962158203
 20
4.230555640326606
 10
3.727777269151475
 20
4.240277820163302
 10
3.783333248562283
 20
4.263888888888888
 10
3.808333502875434
 20
4.276388910081652
 10
3.816666497124566
 20
4.206944359673394
 97
        0
 97
        0
 92
        1
 93
        1
 72
     4
 94
        3
 73
     0
 74
     1
 95
       17
 96
       13
 40
0.0
 40
0.0
 40
0.0
 40
0.0
 40
1.0
 40
1.0
 40
1.0
 40
2.0
 40
2.0
 40
2.0
 40
3.0
 40
3.0
 40
3.0
 40
4.0
 40
4.0
 40
4.0
 40
4.0
 10
2.029166751437717
 20
3.893055597941081
 10
2.069444444444444
 20
3.758333418104383
 10
2.14444457160102
 20
3.648611068725586
 10
2.230555640326606
 20
3.538888931274414
 10
2.098611195882161
 20
3.586111068725586
 10
1.970833460489909
 20
3.623611238267686
 10
1.83194457160102
 20
3.620833290947808
 10
1.777777989705404
 20
3.713888804117838
 10
1.73750008477105
 20
3.8125
 10
1.712500148349338
 20
3.916666666666667
 10
1.818055470784505
 20
3.923611111111111
 10
1.923611111111111
 20
3.915277693006727
 10
2.029166751437717
 20
3.893055597941081
 97
        0
 97
        0
 92
        1
 93
        1
 72
     4
 94
        3
 73
     0
 74
     1
 95
       26
 96
       22
 40
0.0
 40
0.0
 40
0.0
 40
0.0
 40
1.0
 40
1.0
 40
1.0
 40
2.0
 40
2.0
 40
2.0
 40
3.0
 40
3.0
 40
3.0
 40
4.0
 40
4.0
 40
4.0
 40
5.0
 40
5.0
 40
5.0
 40
6.0
 40
6.0
 40
6.0
 40
7.0
 40
7.0
 40
7.0
 40
7.0
 10
1.870833290947808
 20
3.579166624281141
 10
1.890277650621202
 20
3.579166624281141
 10
1.908333248562283
 20
3.577777650621202
 10
1.927777820163303
 20
3.576388888888889
 10
1.869444529215495
 20
3.540277693006727
 10
1.787499957614475
 20
3.490277820163303
 10
1.779166751437717
 20
3.430555555555555
 10
1.768055597941081
 20
3.358333375718858
 10
1.783333460489909
 20
3.275000042385525
 10
1.802777820163303
 20
3.201388888888889
 10
1.718055619133843
 20
3.279166751437717
 10
1.644444465637207
 20
3.373611026340061
 10
1.587500042385525
 20
3.466666751437717
 10
1.566666709052192
 20
3.5
 10
1.54027779897054
 20
3.51944457160102
 10
1.587500042385525
 20
3.545833375718858
 10
1.61250008477105
 20
3.559722264607747
 10
1.652777777777778
 20
3.561111238267686
 10
1.680555555555555
 20
3.565277735392252
 10
1.743055555555555
 20
3.573611153496636
 10
1.806944529215495
 20
3.580555597941081
 10
1.870833290947808
 20
3.579166624281141
 97
        0
 97
        0
 92
        1
 93
        1
 72
     4
 94
        3
 73
     0
 74
     1
 95
       26
 96
       22
 40
0.0
 40
0.0
 40
0.0
 40
0.0
 40
1.0
 40
1.0
 40
1.0
 40
2.0
 40
2.0
 40
2.0
 40
3.0
 40
3.0
 40
3.0
 40
4.0
 40
4.0
 40
4.0
 40
5.0
 40
5.0
 40
5.0
 40
6.0
 40
6.0
 40
6.0
 40
7.0
 40
7.0
 40
7.0
 40
7.0
 10
1.587500042385525
 20
2.531944486829969
 10
1.644444465637207
 20
2.626388973659939
 10
1.718055619133843
 20
2.719444486829969
 10
1.802777820163303
 20
2.797222349378798
 10
1.783333460489909
 20
2.723611195882161
 10
1.766666730244954
 20
2.640277862548828
 10
1.779166751437717
 20
2.568055682712131
 10
1.788888931274414
 20
2.508333418104383
 10
1.869444529215495
 20
2.45694457160102
 10
1.927777820163303
 20
2.422222561306424
 10
1.913888931274414
 20
2.420833587646484
 10
1.898611068725586
 20
2.419444613986545
 10
1.883333418104383
 20
2.419444613986545
 10
1.823611153496636
 20
2.418055640326606
 10
1.762500127156575
 20
2.423611111111111
 10
1.702777862548828
 20
2.430555555555555
 10
1.670833375718858
 20
2.434722052680121
 10
1.618055661519368
 20
2.436111026340061
 10
1.587500042385525
 20
2.452777862548828
 10
1.54027779897054
 20
2.479166666666667
 10
1.566666709052192
 20
2.5
 10
1.587500042385525
 20
2.531944486829969
 97
        0
 97
        0
 92
        1
 93
        1
 72
     4
 94
        3
 73
     0
 74
     1
 95
       17
 96
       13
 40
0.0
 40
0.0
 40
0.0
 40
0.0
 40
1.0
 40
1.0
 40
1.0
 40
2.0
 40
2.0
 40
2.0
 40
3.0
 40
3.0
 40
3.0
 40
4.0
 40
4.0
 40
4.0
 40
4.0
 10
2.230555640326606
 20
2.461111068725586
 10
2.14444457160102
 20
2.351388719346788
 10
2.069444444444444
 20
2.240277608235677
 10
2.029166751437717
 20
2.106944613986545
 10
1.923611111111111
 20
2.084722306993272
 10
1.818055682712131
 20
2.076388888888889
 10
1.711111174689399
 20
2.084722306993272
 10
1.73750008477105
 20
2.188888973659939
 10
1.776388910081651
 20
2.2875001695421
 10
1.83194457160102
 20
2.380555470784505
 10
1.970833248562283
 20
2.377777947319878
 10
2.098611195882161
 20
2.413888719346788
 10
2.230555640326606
 20
2.461111068725586
 97
        0
 97
        0
 92
        1
 93
        1
 72
     4
 94
        3
 73
     0
 74
     1
 95
       26
 96
       22
 40
0.0
 40
0.0
 40
0.0
 40
0.0
 40
1.0
 40
1.0
 40
1.0
 40
2.0
 40
2.0
 40
2.0
 40
3.0
 40
3.0
 40
3.0
 40
4.0
 40
4.0
 40
4.0
 40
5.0
 40
5.0
 40
5.0
 40
6.0
 40
6.0
 40
6.0
 40
7.0
 40
7.0
 40
7.0
 40
7.0
 10
3.525000042385525
 20
1.880555470784505
 10
3.508333418104383
 20
1.893055386013455
 10
3.493055555555555
 20
1.905555301242404
 10
3.477777904934353
 20
1.919444190131293
 10
3.547222349378798
 20
1.913888719346788
 10
3.643055809868706
 20
1.905555301242404
 10
3.6875
 20
1.954166412353516
 10
3.73750008477105
 20
2.008332994249132
 10
3.772222306993272
 20
2.080555386013455
 10
3.80000008477105
 20
2.151388804117838
 10
3.82499991522895
 20
2.033333248562283
 10
3.829166836208767
 20
1.908333248562283
 10
3.816666920979817
 20
1.794444190131293
 10
3.809722476535373
 20
1.734722137451172
 10
3.797222561306423
 20
1.734722137451172
 10
3.748611450195312
 20
1.754166497124566
 10
3.718055725097656
 20
1.766666412353516
 10
3.690277947319878
 20
1.780555301242404
 10
3.6625001695421
 20
1.797222137451172
 10
3.616666581895616
 20
1.822222391764323
 10
3.569444444444444
 20
1.850000169542101
 10
3.525000042385525
 20
1.880555470784505
 97
        0
 97
        0
 92
        1
 93
        1
 72
     4
 94
        3
 73
     0
 74
     1
 95
       26
 96
       22
 40
0.0
 40
0.0
 40
0.0
 40
0.0
 40
1.0
 40
1.0
 40
1.0
 40
2.0
 40
2.0
 40
2.0
 40
3.0
 40
3.0
 40
3.0
 40
4.0
 40
4.0
 40
4.0
 40
5.0
 40
5.0
 40
5.0
 40
6.0
 40
6.0
 40
6.0
 40
7.0
 40
7.0
 40
7.0
 40
7.0
 10
4.07361094156901
 20
2.483333375718858
 10
4.0625
 20
2.481944402058919
 10
4.051388634575738
 20
2.479166666666667
 10
4.038888719346788
 20
2.477777904934353
 10
4.093055301242404
 20
2.523611280653212
 10
4.144444359673394
 20
2.575000127156575
 10
4.181944105360243
 20
2.633333418104383
 10
4.220832824707031
 20
2.694444444444444
 10
4.183333079020182
 20
2.783333460489909
 10
4.155555301242404
 20
2.851388931274414
 10
4.168055216471354
 20
2.844444486829969
 10
4.180555131700304
 20
2.836111068725586
 10
4.191666497124566
 20
2.829166624281141
 10
4.238888634575738
 20
2.797222137451172
 10
4.445832994249131
 20
2.650000042385525
 10
4.419444190131293
 20
2.588888804117838
 10
4.406944274902344
 20
2.558333290947808
 10
4.272221883138021
 20
2.53055551317003
 10
4.243055131700304
 20
2.522222095065647
 10
4.1875
 20
2.506944444444444
 10
4.130555470784505
 20
2.493055555555555
 10
4.07361094156901
 20
2.483333375718858
 97
        0
 97
        0
 92
        1
 93
        1
 72
     4
 94
        3
 73
     0
 74
     1
 95
       14
 96
       10
 40
0.0
 40
0.0
 40
0.0
 40
0.0
 40
1.0
 40
1.0
 40
1.0
 40
2.0
 40
2.0
 40
2.0
 40
3.0
 40
3.0
 40
3.0
 40
3.0
 10
4.734722137451172
 20
3.184722264607747
 10
4.655555301242404
 20
3.241666793823242
 10
4.608333163791232
 20
3.33194457160102
 10
4.608333163791232
 20
3.430555555555555
 10
4.709721883138021
 20
3.459722306993272
 10
4.809722052680121
 20
3.491666581895616
 10
4.91111077202691
 20
3.523611068725586
 10
4.822222391764322
 20
3.433333290947808
 10
4.763888888888888
 20
3.313888973659939
 10
4.734722137451172
 20
3.184722264607747
 97
        0
 97
        0
 92
        1
 93
        1
 72
     4
 94
        3
 73
     0
 74
     1
 95
       29
 96
       25
 40
0.0
 40
0.0
 40
0.0
 40
0.0
 40
1.0
 40
1.0
 40
1.0
 40
2.0
 40
2.0
 40
2.0
 40
3.0
 40
3.0
 40
3.0
 40
4.0
 40
4.0
 40
4.0
 40
5.0
 40
5.0
 40
5.0
 40
6.0
 40
6.0
 40
6.0
 40
7.0
 40
7.0
 40
7.0
 40
8.0
 40
8.0
 40
8.0
 40
8.0
 10
4.884722391764322
 20
3.558333290947808
 10
4.745833502875434
 20
3.513888888888889
 10
4.606944613986545
 20
3.472222222222222
 10
4.466666751437717
 20
3.431944317287869
 10
4.440277947319879
 20
3.459722095065647
 10
4.37361102634006
 20
3.477777693006727
 10
4.345833248562283
 20
3.487499872843424
 10
4.304166581895617
 20
3.502777735392252
 10
4.26111094156901
 20
3.515277650621202
 10
4.218055301242404
 20
3.526388804117838
 10
4.243055131700304
 20
3.594444274902344
 10
4.265277438693576
 20
3.662499957614475
 10
4.276388804117838
 20
3.733333163791233
 10
4.348611195882161
 20
3.701388676961263
 10
4.423611111111111
 20
3.672222137451172
 10
4.502777523464626
 20
3.676388634575738
 10
4.579166412353516
 20
3.68055534362793
 10
4.63749991522895
 20
3.718055301242404
 10
4.694444020589192
 20
3.763888676961263
 10
4.709721883138021
 20
3.74305534362793
 10
4.72222179836697
 20
3.723610983954535
 10
4.73472171359592
 20
3.706944147745768
 10
4.779166751437717
 20
3.648611068725586
 10
4.82361094156901
 20
3.590277777777778
 10
4.884722391764322
 20
3.558333290947808
 97
        0
 97
        0
 92
        1
 93
        1
 72
     4
 94
        3
 73
     0
 74
     1
 95
       32
 96
       28
 40
0.0
 40
0.0
 40
0.0
 40
0.0
 40
1.0
 40
1.0
 40
1.0
 40
2.0
 40
2.0
 40
2.0
 40
3.0
 40
3.0
 40
3.0
 40
4.0
 40
4.0
 40
4.0
 40
5.0
 40
5.0
 40
5.0
 40
6.0
 40
6.0
 40
6.0
 40
7.0
 40
7.0
 40
7.0
 40
8.0
 40
8.0
 40
8.0
 40
9.0
 40
9.0
 40
9.0
 40
9.0
 10
4.366666581895617
 20
4.034722222222222
 10
4.36250008477105
 20
4.020833333333333
 10
4.37361102634006
 20
4.009722179836697
 10
4.38749991522895
 20
4.008333418104383
 10
4.5
 20
4.0
 10
4.597222222222222
 20
3.897222306993272
 10
4.670833163791232
 20
3.80000008477105
 10
4.612499660915798
 20
3.752777947319878
 10
4.558333079020182
 20
3.719444486829969
 10
4.480555216471354
 20
3.720833460489909
 10
4.40972179836697
 20
3.722222434149848
 10
4.344444274902344
 20
3.750000211927626
 10
4.281944274902344
 20
3.779166751437717
 10
4.28611077202691
 20
3.83194457160102
 10
4.28611077202691
 20
3.901389016045464
 10
4.258332994249132
 20
3.938888973659939
 10
4.233333163791232
 20
3.973611195882161
 10
4.165277269151476
 20
3.994444529215495
 10
4.116666158040364
 20
4.005555682712131
 10
4.108332739935981
 20
4.075000127156575
 10
4.102777269151476
 20
4.145833545260959
 10
4.122221628824869
 20
4.213889016045465
 10
4.144443935818142
 20
4.287500169542101
 10
4.194444020589192
 20
4.329166836208767
 10
4.255555046929254
 20
4.369444529215494
 10
4.326388888888888
 20
4.269444465637207
 10
4.394444359673394
 20
4.144444359673394
 10
4.366666581895617
 20
4.034722222222222
 97
        0
 97
        0
 92
        1
 93
        1
 72
     4
 94
        3
 73
     0
 74
     1
 95
       29
 96
       25
 40
0.0
 40
0.0
 40
0.0
 40
0.0
 40
1.0
 40
1.0
 40
1.0
 40
2.0
 40
2.0
 40
2.0
 40
3.0
 40
3.0
 40
3.0
 40
4.0
 40
4.0
 40
4.0
 40
5.0
 40
5.0
 40
5.0
 40
6.0
 40
6.0
 40
6.0
 40
7.0
 40
7.0
 40
7.0
 40
8.0
 40
8.0
 40
8.0
 40
8.0
 10
4.202777862548828
 20
4.444444444444445
 10
4.21250025431315
 20
4.431944423251681
 10
4.222222222222222
 20
4.418055534362793
 10
4.233333587646484
 20
4.402777777777778
 10
4.17500008477105
 20
4.365277820163302
 10
4.123611450195312
 20
4.325000021192762
 10
4.095833672417535
 20
4.259722179836697
 10
4.062500423855251
 20
4.181944317287869
 10
4.065277947319879
 20
4.097222222222222
 10
4.075000339084201
 20
4.013888888888888
 10
4.004166920979817
 20
4.026388804117838
 10
3.931944953070746
 20
4.025000042385525
 10
3.859722561306423
 20
4.022222306993273
 10
3.861111534966363
 20
4.055555555555555
 10
3.862500508626302
 20
4.087500042385525
 10
3.862500508626302
 20
4.120833502875434
 10
3.862500508626302
 20
4.154166751437717
 10
3.869444953070746
 20
4.250000211927626
 10
3.845833672417534
 20
4.288889037238227
 10
3.926389058430989
 20
4.409722328186035
 10
4.009722391764322
 20
4.529166751437717
 10
4.094444698757595
 20
4.647222306993272
 10
4.106944613986545
 20
4.573611153496636
 10
4.155555725097656
 20
4.508333312140571
 10
4.202777862548828
 20
4.444444444444445
 97
        0
 97
        0
 92
        1
 93
        1
 72
     4
 94
        3
 73
     0
 74
     1
 95
       17
 96
       13
 40
0.0
 40
0.0
 40
0.0
 40
0.0
 40
1.0
 40
1.0
 40
1.0
 40
2.0
 40
2.0
 40
2.0
 40
3.0
 40
3.0
 40
3.0
 40
4.0
 40
4.0
 40
4.0
 40
4.0
 10
3.847222222222222
 20
4.622222264607747
 10
3.92500008477105
 20
4.627777841356065
 10
3.998611026340061
 20
4.647222306993272
 10
4.068055470784505
 20
4.681944529215494
 10
4.006944444444445
 20
4.595833460489908
 10
3.945833418104383
 20
4.509722285800509
 10
3.88611094156901
 20
4.423611217074924
 10
3.791666666666667
 20
4.454166730244954
 10
3.719444274902344
 20
4.527777883741591
 10
3.691666497124566
 20
4.62222237057156
 10
3.745833502875434
 20
4.618055555555555
 10
3.80000008477105
 20
4.619444423251681
 10
3.847222222222222
 20
4.622222264607747
 97
        0
 97
        0
 92
        1
 93
        1
 72
     4
 94
        3
 73
     0
 74
     1
 95
       44
 96
       40
 40
0.0
 40
0.0
 40
0.0
 40
0.0
 40
1.0
 40
1.0
 40
1.0
 40
2.0
 40
2.0
 40
2.0
 40
3.0
 40
3.0
 40
3.0
 40
4.0
 40
4.0
 40
4.0
 40
5.0
 40
5.0
 40
5.0
 40
6.0
 40
6.0
 40
6.0
 40
7.0
 40
7.0
 40
7.0
 40
8.0
 40
8.0
 40
8.0
 40
9.0
 40
9.0
 40
9.0
 40
10.0
 40
10.0
 40
10.0
 40
11.0
 40
11.0
 40
11.0
 40
12.0
 40
12.0
 40
12.0
 40
13.0
 40
13.0
 40
13.0
 40
13.0
 10
3.647222306993272
 20
4.626388867696126
 10
3.67500008477105
 20
4.515277756585015
 10
3.755555470784505
 20
4.426388846503364
 10
3.86250008477105
 20
4.38749991522895
 10
3.844444698757595
 20
4.361111005147298
 10
3.826388888888889
 20
4.334722095065646
 10
3.808333502875434
 20
4.308333290947808
 10
3.781944698757595
 20
4.308333290947808
 10
3.75
 20
4.293055534362793
 10
3.730555640326606
 20
4.284722222222222
 10
3.67500008477105
 20
4.261111153496636
 10
3.620833502875434
 20
4.230555534362793
 10
3.569444444444444
 20
4.198611153496636
 10
3.555555555555555
 20
4.311111132303873
 10
3.526388804117838
 20
4.418055640326606
 10
3.481944402058919
 20
4.523611174689399
 10
3.477777693006727
 20
4.533333354526095
 10
3.462500042385525
 20
4.536111195882161
 10
3.452777650621202
 20
4.530555619133843
 10
3.35555542839898
 20
4.472222328186035
 10
3.269444359673394
 20
4.402777883741591
 10
3.193055470784505
 20
4.319444550408257
 10
3.193055470784505
 20
4.320833418104383
 10
3.191666497124566
 20
4.322222285800509
 10
3.191666497124566
 20
4.323611259460449
 10
3.173610899183485
 20
4.366666793823242
 10
3.124999788072374
 20
4.515277968512641
 10
3.065277523464627
 20
4.551389058430989
 10
3.066666497124566
 20
4.583333545260959
 10
3.068055258856879
 20
4.615277926127115
 10
3.068055258856879
 20
4.645833545260959
 10
3.177777396308051
 20
4.615278032090928
 10
3.29166645473904
 20
4.638889100816514
 10
3.380555258856879
 20
4.711111280653212
 10
3.422221925523546
 20
4.688889079623752
 10
3.463888592190212
 20
4.670833481682672
 10
3.505555258856879
 20
4.655555725097656
 10
3.547222137451172
 20
4.641666624281141
 10
3.597222222222222
 20
4.631944444444444
 10
3.647222306993272
 20
4.626388867696126
 97
        0
 97
        0
 92
        1
 93
        1
 72
     4
 94
        3
 73
     0
 74
     1
 95
       14
 96
       10
 40
0.0
 40
0.0
 40
0.0
 40
0.0
 40
1.0
 40
1.0
 40
1.0
 40
2.0
 40
2.0
 40
2.0
 40
3.0
 40
3.0
 40
3.0
 40
3.0
 10
3.341666751437717
 20
4.733333375718858
 10
3.262500127156575
 20
4.67500008477105
 10
3.163888931274414
 20
4.659722222222222
 10
3.069444444444444
 20
4.688888973659939
 10
3.072222179836697
 20
4.794444508022732
 10
3.073611153496636
 20
4.900000042385525
 10
3.07499991522895
 20
5.005555682712131
 10
3.131944444444444
 20
4.894444465637207
 10
3.230555640326606
 20
4.801388846503364
 10
3.341666751437717
 20
4.733333375718858
 97
        0
 97
        0
 92
        1
 93
        1
 72
     4
 94
        3
 73
     0
 74
     1
 95
       29
 96
       25
 40
0.0
 40
0.0
 40
0.0
 40
0.0
 40
1.0
 40
1.0
 40
1.0
 40
2.0
 40
2.0
 40
2.0
 40
3.0
 40
3.0
 40
3.0
 40
4.0
 40
4.0
 40
4.0
 40
5.0
 40
5.0
 40
5.0
 40
6.0
 40
6.0
 40
6.0
 40
7.0
 40
7.0
 40
7.0
 40
8.0
 40
8.0
 40
8.0
 40
8.0
 10
3.031944486829969
 20
4.991666687859429
 10
3.03055551317003
 20
4.845833354526095
 10
3.027777777777778
 20
4.700000021192762
 10
3.022222306993272
 20
4.554166687859429
 10
2.981944613986545
 20
4.538888931274414
 10
2.938888973659939
 20
4.468055619133843
 10
2.916666666666667
 20
4.4375
 10
2.895833333333333
 20
4.408333354526095
 10
2.875
 20
4.379166709052192
 10
2.855555640326606
 20
4.348611089918348
 10
2.798611111111111
 20
4.393055491977267
 10
2.741666793823242
 20
4.436111132303873
 10
2.676389058430989
 20
4.46805551317003
 10
2.723611195882161
 20
4.520833333333333
 10
2.76944457160102
 20
4.576388888888888
 10
2.793055640326606
 20
4.644444359673394
 10
2.820833418104383
 20
4.724999957614474
 10
2.805555555555555
 20
4.797222137451172
 10
2.776389016045464
 20
4.874999894036187
 10
2.80000008477105
 20
4.883333206176758
 10
2.823611153496636
 20
4.890277650621202
 10
2.844444486829969
 20
4.89583322736952
 10
2.913888931274414
 20
4.919444402058919
 10
2.983333375718858
 20
4.944444444444444
 10
3.031944486829969
 20
4.991666687859429
 97
        0
 97
        0
 92
        1
 93
        1
 72
     4
 94
        3
 73
     0
 74
     1
 95
       32
 96
       28
 40
0.0
 40
0.0
 40
0.0
 40
0.0
 40
1.0
 40
1.0
 40
1.0
 40
2.0
 40
2.0
 40
2.0
 40
3.0
 40
3.0
 40
3.0
 40
4.0
 40
4.0
 40
4.0
 40
5.0
 40
5.0
 40
5.0
 40
6.0
 40
6.0
 40
6.0
 40
7.0
 40
7.0
 40
7.0
 40
8.0
 40
8.0
 40
8.0
 40
9.0
 40
9.0
 40
9.0
 40
9.0
 10
2.420833375718858
 20
4.645833333333333
 10
2.433333290947808
 20
4.637500021192762
 10
2.447222179836697
 20
4.645833333333333
 10
2.451388888888889
 20
4.658333354526095
 10
2.493055555555555
 20
4.762500021192762
 10
2.620833290947808
 20
4.822222285800509
 10
2.73750008477105
 20
4.862499978807237
 10
2.765277862548828
 20
4.79027779897054
 10
2.780555725097656
 20
4.723611089918348
 10
2.75
 20
4.647222201029459
 10
2.724999957614475
 20
4.584722201029459
 10
2.681944529215495
 20
4.534722222222222
 10
2.63749991522895
 20
4.486111111111111
 10
2.588888804117838
 20
4.506944444444444
 10
2.524999830457899
 20
4.527777777777778
 10
2.481944402058919
 20
4.513888888888888
 10
2.4375
 20
4.5
 10
2.397222095065647
 20
4.444444444444445
 10
2.369444317287869
 20
4.398611068725586
 10
2.304166581895616
 20
4.411111089918348
 10
2.234722137451172
 20
4.426388846503364
 10
2.179166581895616
 20
4.465277777777778
 10
2.113888846503364
 20
4.509722179836697
 10
2.087499830457899
 20
4.570833312140571
 10
2.068055470784505
 20
4.644444465637207
 10
2.184722264607747
 20
4.680555555555555
 10
2.323611153496636
 20
4.706944465637207
 10
2.420833375718858
 20
4.645833333333333
 97
        0
 97
        0
 92
        1
 93
        1
 72
     4
 94
        3
 73
     0
 74
     1
 95
       32
 96
       28
 40
0.0
 40
0.0
 40
0.0
 40
0.0
 40
1.0
 40
1.0
 40
1.0
 40
2.0
 40
2.0
 40
2.0
 40
3.0
 40
3.0
 40
3.0
 40
4.0
 40
4.0
 40
4.0
 40
5.0
 40
5.0
 40
5.0
 40
6.0
 40
6.0
 40
6.0
 40
7.0
 40
7.0
 40
7.0
 40
8.0
 40
8.0
 40
8.0
 40
9.0
 40
9.0
 40
9.0
 40
9.0
 10
1.96805551317003
 20
4.613888846503364
 10
1.986111111111111
 20
4.619444423251681
 10
2.005555470784505
 20
4.626388867696126
 10
2.026388804117838
 20
4.633333312140571
 10
2.045833163791233
 20
4.5625
 10
2.070833206176758
 20
4.498611132303873
 10
2.129166497124566
 20
4.450000021192762
 10
2.191666497124566
 20
4.400000042385525
 10
2.269444359673394
 20
4.377777841356066
 10
2.345833248562283
 20
4.362499978807238
 10
2.3125
 20
4.298611111111111
 10
2.291666666666667
 20
4.229166666666666
 10
2.270833333333333
 20
4.161111195882161
 10
2.254166709052192
 20
4.166666666666666
 10
2.238888846503364
 20
4.173611111111111
 10
2.222222222222222
 20
4.179166793823242
 10
2.165277693006727
 20
4.200000127156575
 10
2.077777862548828
 20
4.240277926127115
 10
2.015277862548828
 20
4.227777904934353
 10
2.015277862548828
 20
4.227777904934353
 10
2.015277862548828
 20
4.227777904934353
 10
2.015277862548828
 20
4.227777904934353
 10
1.92500008477105
 20
4.343055725097656
 10
1.837500042385525
 20
4.459722306993272
 10
1.750000105963813
 20
4.576388994852701
 10
1.823611153496636
 20
4.565277735392252
 10
1.897222306993273
 20
4.588888910081651
 10
1.96805551317003
 20
4.613888846503364
 97
        0
 97
        0
 92
        1
 93
        1
 72
     4
 94
        3
 73
     0
 74
     1
 95
       17
 96
       13
 40
0.0
 40
0.0
 40
0.0
 40
0.0
 40
1.0
 40
1.0
 40
1.0
 40
2.0
 40
2.0
 40
2.0
 40
3.0
 40
3.0
 40
3.0
 40
4.0
 40
4.0
 40
4.0
 40
4.0
 10
1.693055576748318
 20
4.311111132303873
 10
1.716666645473904
 20
4.39305559794108
 10
1.723611089918348
 20
4.47777779897054
 10
1.711111174689399
 20
4.561111132303873
 10
1.773611174689399
 20
4.476388931274414
 10
1.836111280653212
 20
4.391666730244954
 10
1.901389016045464
 20
4.308333290947808
 10
1.843055725097656
 20
4.227777693006727
 10
1.751388973659939
 20
4.183333290947808
 10
1.651389016045464
 20
4.184722264607747
 10
1.668055534362793
 20
4.22777779897054
 10
1.681944423251682
 20
4.272222201029459
 10
1.693055576748318
 20
4.311111132303873
 97
        0
 97
        0
 92
        1
 93
        1
 72
     4
 94
        3
 73
     0
 74
     1
 95
       38
 96
       34
 40
0.0
 40
0.0
 40
0.0
 40
0.0
 40
1.0
 40
1.0
 40
1.0
 40
2.0
 40
2.0
 40
2.0
 40
3.0
 40
3.0
 40
3.0
 40
4.0
 40
4.0
 40
4.0
 40
5.0
 40
5.0
 40
5.0
 40
6.0
 40
6.0
 40
6.0
 40
7.0
 40
7.0
 40
7.0
 40
8.0
 40
8.0
 40
8.0
 40
9.0
 40
9.0
 40
9.0
 40
10.0
 40
10.0
 40
10.0
 40
11.0
 40
11.0
 40
11.0
 40
11.0
 10
1.563888867696126
 20
4.022222306993273
 10
1.590277777777778
 20
4.058333502875434
 10
1.612499978807237
 20
4.100000169542101
 10
1.633333312140571
 20
4.14444457160102
 10
1.748611132303874
 20
4.136111153496636
 10
1.855555640326606
 20
4.186111238267687
 10
1.926388846503364
 20
4.275000148349338
 10
1.945833206176758
 20
4.250000105963813
 10
1.965277777777778
 20
4.225000169542101
 10
1.986111111111111
 20
4.198611365424262
 10
1.961111068725586
 20
4.138889100816515
 10
2.0
 20
3.997222476535373
 10
2.016666624281141
 20
3.937500211927626
 10
1.906944486829969
 20
3.959722518920898
 10
1.797222137451172
 20
3.965277989705403
 10
1.684722158643934
 20
3.955555809868706
 10
1.670833269755045
 20
3.954166836208767
 10
1.661111089918348
 20
3.943055894639757
 10
1.663888825310601
 20
3.929167005750868
 10
1.688888867696126
 20
3.819444868299696
 10
1.729166560702854
 20
3.715278201633029
 10
1.783333248562283
 20
3.618055979410807
 10
1.73055542839898
 20
3.615278244018555
 10
1.576388782925076
 20
3.612500508626302
 10
1.524999936421712
 20
3.568055894639757
 10
1.494444423251682
 20
3.579167048136393
 10
1.465277671813965
 20
3.590278201633029
 10
1.434722158643934
 20
3.60138914320204
 10
1.498611026340061
 20
3.695833630032009
 10
1.511111047532823
 20
3.813889185587565
 10
1.46805551317003
 20
3.920833587646484
 10
1.505555576748318
 20
3.951388888888889
 10
1.537499957614475
 20
3.986111111111111
 10
1.563888867696126
 20
4.022222306993273
 97
        0
 97
        0
 92
        1
 93
        1
 72
     4
 94
        3
 73
     0
 74
     1
 95
       17
 96
       13
 40
0.0
 40
0.0
 40
0.0
 40
0.0
 40
1.0
 40
1.0
 40
1.0
 40
2.0
 40
2.0
 40
2.0
 40
3.0
 40
3.0
 40
3.0
 40
4.0
 40
4.0
 40
4.0
 40
4.0
 10
1.436111132303874
 20
3.890277862548828
 10
1.468055619133843
 20
3.795833375718858
 10
1.454166730244954
 20
3.697222391764323
 10
1.395833333333333
 20
3.613889058430989
 10
1.297222243414985
 20
3.648611280653212
 10
1.197222179836697
 20
3.683333502875434
 10
1.097222222222222
 20
3.716666751437717
 10
1.180555555555556
 20
3.730555640326606
 10
1.258333312140571
 20
3.762500127156575
 10
1.329166624281142
 20
3.809722264607747
 10
1.363888846503364
 20
3.833333333333333
 10
1.400000042385525
 20
3.861111111111111
 10
1.436111132303874
 20
3.890277862548828
 97
        0
 97
        0
 92
        1
 93
        1
 72
     4
 94
        3
 73
     0
 74
     1
 95
       17
 96
       13
 40
0.0
 40
0.0
 40
0.0
 40
0.0
 40
1.0
 40
1.0
 40
1.0
 40
2.0
 40
2.0
 40
2.0
 40
3.0
 40
3.0
 40
3.0
 40
4.0
 40
4.0
 40
4.0
 40
4.0
 10
1.095833354526096
 20
2.283333248562283
 10
1.195833312140571
 20
2.316666497124566
 10
1.295833375718858
 20
2.349999745686849
 10
1.394444465637207
 20
2.38611094156901
 10
1.452777756585015
 20
2.304166581895616
 10
1.466666645473904
 20
2.205555386013455
 10
1.434722264607747
 20
2.111111111111111
 10
1.398611174689399
 20
2.140277862548828
 10
1.36250008477105
 20
2.168055640326606
 10
1.326388888888889
 20
2.191666497124566
 10
1.256944444444444
 20
2.23750008477105
 10
1.179166687859429
 20
2.269444359673394
 10
1.095833354526096
 20
2.283333248562283
 97
        0
 97
        0
 92
        1
 93
        1
 72
     4
 94
        3
 73
     0
 74
     1
 95
       41
 96
       37
 40
0.0
 40
0.0
 40
0.0
 40
0.0
 40
1.0
 40
1.0
 40
1.0
 40
2.0
 40
2.0
 40
2.0
 40
3.0
 40
3.0
 40
3.0
 40
4.0
 40
4.0
 40
4.0
 40
5.0
 40
5.0
 40
5.0
 40
6.0
 40
6.0
 40
6.0
 40
7.0
 40
7.0
 40
7.0
 40
8.0
 40
8.0
 40
8.0
 40
9.0
 40
9.0
 40
9.0
 40
10.0
 40
10.0
 40
10.0
 40
11.0
 40
11.0
 40
11.0
 40
12.0
 40
12.0
 40
12.0
 40
12.0
 10
1.46944448682997
 20
2.080555386013455
 10
1.512500021192763
 20
2.1875
 10
1.5
 20
2.305555555555555
 10
1.436111132303874
 20
2.399999830457899
 10
1.466666645473904
 20
2.411110772026909
 10
1.495833396911621
 20
2.422222137451172
 10
1.526388910081651
 20
2.433333079020182
 10
1.577777756585015
 20
2.38749991522895
 10
1.737499978807237
 20
2.38611094156901
 10
1.779166751437717
 20
2.383332994249132
 10
1.780555725097656
 20
2.383332994249132
 10
1.783333460489909
 20
2.383332994249132
 10
1.784722222222222
 20
2.383332994249132
 10
1.730555534362793
 20
2.284721798366971
 10
1.690277735392252
 20
2.181944105360243
 10
1.66527779897054
 20
2.072221967909071
 10
1.662500063578288
 20
2.058333079020182
 10
1.672222243414985
 20
2.047222137451172
 10
1.686111132303874
 20
2.045833163791233
 10
1.798611111111111
 20
2.03611077202691
 10
1.908333248562283
 20
2.041666666666667
 10
2.018055597941081
 20
2.063888549804688
 10
2.001388973659939
 20
2.002777523464627
 10
1.961111068725586
 20
1.862499660915798
 10
1.98750008477105
 20
1.802777608235677
 10
1.968055725097656
 20
1.777777777777778
 10
1.948611153496636
 20
1.752777523464627
 10
1.927777820163303
 20
1.726388719346788
 10
1.856944402058919
 20
1.815277523464627
 10
1.748611132303874
 20
1.865277608235677
 10
1.63472228580051
 20
1.856944190131293
 10
1.615277820163303
 20
1.901388804117838
 10
1.591666751437717
 20
1.944444020589193
 10
1.565277841356066
 20
1.979166242811415
 10
1.537499957614475
 20
2.013888888888889
 10
1.505555576748318
 20
2.048611111111111
 10
1.46944448682997
 20
2.080555386013455
 97
        0
 97
        0
 92
        1
 93
        1
 72
     4
 94
        3
 73
     0
 74
     1
 95
       17
 96
       13
 40
0.0
 40
0.0
 40
0.0
 40
0.0
 40
1.0
 40
1.0
 40
1.0
 40
2.0
 40
2.0
 40
2.0
 40
3.0
 40
3.0
 40
3.0
 40
4.0
 40
4.0
 40
4.0
 40
4.0
 10
1.650000042385525
 20
1.813888973659939
 10
1.748611132303874
 20
1.815277947319878
 10
1.840277777777778
 20
1.770833333333333
 10
1.900000042385525
 20
1.690277947319878
 10
1.836111068725586
 20
1.606944613986545
 10
1.772222306993273
 20
1.522222306993273
 10
1.709722306993273
 20
1.4375
 10
1.722222328186035
 20
1.520833333333333
 10
1.715277883741591
 20
1.605555640326606
 10
1.691666709052192
 20
1.6875
 10
1.681944423251682
 20
1.727777693006727
 10
1.668055534362793
 20
1.772222306993273
 10
1.650000042385525
 20
1.813888973659939
 97
        0
 97
        0
 92
        1
 93
        1
 72
     4
 94
        3
 73
     0
 74
     1
 95
       32
 96
       28
 40
0.0
 40
0.0
 40
0.0
 40
0.0
 40
1.0
 40
1.0
 40
1.0
 40
2.0
 40
2.0
 40
2.0
 40
3.0
 40
3.0
 40
3.0
 40
4.0
 40
4.0
 40
4.0
 40
5.0
 40
5.0
 40
5.0
 40
6.0
 40
6.0
 40
6.0
 40
7.0
 40
7.0
 40
7.0
 40
8.0
 40
8.0
 40
8.0
 40
9.0
 40
9.0
 40
9.0
 40
9.0
 10
1.751388867696126
 20
1.423611111111111
 10
1.837500042385525
 20
1.541666666666667
 10
1.926388846503364
 20
1.656944274902344
 10
2.016666624281141
 20
1.772222306993273
 10
2.016666624281141
 20
1.772222306993273
 10
2.016666624281141
 20
1.772222306993273
 10
2.016666624281141
 20
1.772222306993273
 10
2.07499991522895
 20
1.761111365424262
 10
2.159722222222222
 20
1.798611111111111
 10
2.212500042385525
 20
1.818055470784505
 10
2.231944402058919
 20
1.82499991522895
 10
2.251388973659939
 20
1.831944359673394
 10
2.270833333333333
 20
1.840277777777778
 10
2.290277693006727
 20
1.770833333333333
 10
2.3125
 20
1.701388888888889
 10
2.345833248562283
 20
1.638888888888889
 10
2.268055386013455
 20
1.622222052680121
 10
2.191666497124566
 20
1.601388719346788
 10
2.129166497124566
 20
1.55138905843099
 10
2.069444232516819
 20
1.502777947319878
 10
2.045833163791233
 20
1.440277947319878
 10
2.026388804117838
 20
1.368055555555556
 10
2.005555470784505
 20
1.375
 10
1.986111111111111
 20
1.381944444444444
 10
1.96805551317003
 20
1.38749991522895
 10
1.897222306993273
 20
1.411111195882161
 10
1.823611153496636
 20
1.434722052680121
 10
1.751388867696126
 20
1.423611111111111
 97
        0
 97
        0
 92
        1
 93
        1
 72
     4
 94
        3
 73
     0
 74
     1
 95
       32
 96
       28
 40
0.0
 40
0.0
 40
0.0
 40
0.0
 40
1.0
 40
1.0
 40
1.0
 40
2.0
 40
2.0
 40
2.0
 40
3.0
 40
3.0
 40
3.0
 40
4.0
 40
4.0
 40
4.0
 40
5.0
 40
5.0
 40
5.0
 40
6.0
 40
6.0
 40
6.0
 40
7.0
 40
7.0
 40
7.0
 40
8.0
 40
8.0
 40
8.0
 40
9.0
 40
9.0
 40
9.0
 40
9.0
 10
2.451388888888889
 20
1.341666751437717
 10
2.447222179836697
 20
1.354166666666667
 10
2.433333290947808
 20
1.36250008477105
 10
2.420833375718858
 20
1.354166666666667
 10
2.323611153496636
 20
1.293055640326606
 10
2.184722264607747
 20
1.319444444444444
 10
2.066666709052192
 20
1.355555640326606
 10
2.086111068725586
 20
1.429166581895616
 10
2.11250008477105
 20
1.490278032090929
 10
2.177777820163303
 20
1.534722222222222
 10
2.234722349378798
 20
1.572222391764323
 10
2.302777820163303
 20
1.587499830457899
 10
2.368055555555555
 20
1.601388719346788
 10
2.395833333333333
 20
1.555555555555555
 10
2.436111026340061
 20
1.5
 10
2.480555640326606
 20
1.486111111111111
 10
2.525000042385525
 20
1.472222222222222
 10
2.587500042385525
 20
1.493055555555556
 10
2.636111153496636
 20
1.513888888888889
 10
2.680555555555555
 20
1.465277777777778
 10
2.724999957614475
 20
1.415277693006727
 10
2.748611238267686
 20
1.352777693006727
 10
2.777777989705403
 20
1.276388804117838
 10
2.763889100816515
 20
1.21111085679796
 10
2.736111323038737
 20
1.13749991522895
 10
2.620833290947808
 20
1.177777608235677
 10
2.493055555555555
 20
1.23750008477105
 10
2.451388888888889
 20
1.341666751437717
 97
        0
 97
        0
 92
        1
 93
        1
 72
     4
 94
        3
 73
     0
 74
     1
 95
       29
 96
       25
 40
0.0
 40
0.0
 40
0.0
 40
0.0
 40
1.0
 40
1.0
 40
1.0
 40
2.0
 40
2.0
 40
2.0
 40
3.0
 40
3.0
 40
3.0
 40
4.0
 40
4.0
 40
4.0
 40
5.0
 40
5.0
 40
5.0
 40
6.0
 40
6.0
 40
6.0
 40
7.0
 40
7.0
 40
7.0
 40
8.0
 40
8.0
 40
8.0
 40
8.0
 10
2.844444486829969
 20
1.102777693006727
 10
2.823611153496636
 20
1.109722137451172
 10
2.80000008477105
 20
1.116666581895616
 10
2.776389016045464
 20
1.123611026340061
 10
2.805555767483181
 20
1.201388888888889
 10
2.822222391764323
 20
1.27361085679796
 10
2.793055640326606
 20
1.354166666666667
 10
2.76944457160102
 20
1.422222137451172
 10
2.723611195882161
 20
1.477777693006727
 10
2.676389058430989
 20
1.530555725097656
 10
2.741666793823242
 20
1.5625
 10
2.798611323038737
 20
1.605555640326606
 10
2.855555640326606
 20
1.650000254313151
 10
2.873611238267686
 20
1.623611450195312
 10
2.891666836208767
 20
1.597222646077474
 10
2.909722222222222
 20
1.570833418104383
 10
2.934722264607747
 20
1.537500169542101
 10
2.979166666666667
 20
1.461111280653212
 10
3.022222306993272
 20
1.444444444444444
 10
3.027777777777778
 20
1.298611111111111
 10
3.030555725097656
 20
1.152777777777778
 10
3.031944486829969
 20
1.006944444444444
 10
2.983333375718858
 20
1.055555555555556
 10
2.913888931274414
 20
1.080555386013455
 10
2.844444486829969
 20
1.102777693006727
 97
        0
 97
        0
 92
        1
 93
        1
 72
     4
 94
        3
 73
     0
 74
     1
 95
       14
 96
       10
 40
0.0
 40
0.0
 40
0.0
 40
0.0
 40
1.0
 40
1.0
 40
1.0
 40
2.0
 40
2.0
 40
2.0
 40
3.0
 40
3.0
 40
3.0
 40
3.0
 10
3.073611153496636
 20
0.9944445292154948
 10
3.073611153496636
 20
1.100000169542101
 10
3.070833418104383
 20
1.205555809868706
 10
3.068055682712131
 20
1.311111026340061
 10
3.1625001695421
 20
1.340277777777778
 10
3.261111153496636
 20
1.32499991522895
 10
3.340277989705403
 20
1.266666412353516
 10
3.230555640326606
 20
1.19861094156901
 10
3.131944444444444
 20
1.105555640326606
 10
3.073611153496636
 20
0.9944445292154948
 97
        0
 97
        0
 92
        1
 93
        1
 72
     4
 94
        3
 73
     0
 74
     1
 95
       44
 96
       40
 40
0.0
 40
0.0
 40
0.0
 40
0.0
 40
1.0
 40
1.0
 40
1.0
 40
2.0
 40
2.0
 40
2.0
 40
3.0
 40
3.0
 40
3.0
 40
4.0
 40
4.0
 40
4.0
 40
5.0
 40
5.0
 40
5.0
 40
6.0
 40
6.0
 40
6.0
 40
7.0
 40
7.0
 40
7.0
 40
8.0
 40
8.0
 40
8.0
 40
9.0
 40
9.0
 40
9.0
 40
10.0
 40
10.0
 40
10.0
 40
11.0
 40
11.0
 40
11.0
 40
12.0
 40
12.0
 40
12.0
 40
13.0
 40
13.0
 40
13.0
 40
13.0
 10
3.505555470784505
 20
1.344444274902344
 10
3.463888804117838
 20
1.330555386013455
 10
3.422222137451172
 20
1.311111026340061
 10
3.380555470784505
 20
1.288888719346788
 10
3.291666666666667
 20
1.361111111111111
 10
3.177777608235677
 20
1.38611094156901
 10
3.068055470784505
 20
1.354166666666667
 10
3.066666497124566
 20
1.38611094156901
 10
3.066666497124566
 20
1.418055640326606
 10
3.065277735392252
 20
1.44861094156901
 10
3.125
 20
1.483333163791233
 10
3.172222137451172
 20
1.630555470784505
 10
3.190277735392252
 20
1.673611111111111
 10
3.191666709052192
 20
1.67638905843099
 10
3.191666709052192
 20
1.677777608235677
 10
3.193055470784505
 20
1.680555555555555
 10
3.269444359673394
 20
1.597222222222222
 10
3.356944402058919
 20
1.527777777777778
 10
3.452777650621202
 20
1.469444274902344
 10
3.461111068725586
 20
1.463888804117838
 10
3.476388719346788
 20
1.466666327582465
 10
3.481944402058919
 20
1.476388719346788
 10
3.526388804117838
 20
1.580555386013455
 10
3.555555555555555
 20
1.688888549804688
 10
3.569444444444444
 20
1.801388634575738
 10
3.618055555555555
 20
1.770832909478081
 10
3.668055640326606
 20
1.741666581895616
 10
3.719444274902344
 20
1.719444274902344
 10
3.741666581895616
 20
1.709721883138021
 10
3.779166327582465
 20
1.688888549804688
 10
3.809722052680121
 20
1.690277523464627
 10
3.827777438693576
 20
1.663888719346788
 10
3.844444274902344
 20
1.63749991522895
 10
3.862499660915798
 20
1.612499660915798
 10
3.755555046929253
 20
1.57361094156901
 10
3.674999660915798
 20
1.48472171359592
 10
3.647221883138021
 20
1.373610602484809
 10
3.597222222222222
 20
1.368055555555556
 10
3.547222137451172
 20
1.358333163791233
 10
3.505555470784505
 20
1.344444274902344
 97
        0
 97
        0
 92
        1
 93
        1
 72
     4
 94
        3
 73
     0
 74
     1
 95
       17
 96
       13
 40
0.0
 40
0.0
 40
0.0
 40
0.0
 40
1.0
 40
1.0
 40
1.0
 40
2.0
 40
2.0
 40
2.0
 40
3.0
 40
3.0
 40
3.0
 40
4.0
 40
4.0
 40
4.0
 40
4.0
 10
3.691666497124566
 20
1.377777947319878
 10
3.720833248562283
 20
1.472222222222222
 10
3.791666666666667
 20
1.545833587646484
 10
3.88611094156901
 20
1.576388888888889
 10
3.945832994249132
 20
1.490277608235677
 10
4.005555470784505
 20
1.404166751437717
 10
4.068055470784505
 20
1.318055470784505
 10
4.0
 20
1.352777693006727
 10
3.92500008477105
 20
1.370833079020182
 10
3.847222222222222
 20
1.377777523464627
 10
3.80000008477105
 20
1.380555470784505
 10
3.745833502875434
 20
1.381944444444444
 10
3.691666497124566
 20
1.377777947319878
 97
        0
 97
        0
 92
        1
 93
        1
 72
     4
 94
        3
 73
     0
 74
     1
 95
       29
 96
       25
 40
0.0
 40
0.0
 40
0.0
 40
0.0
 40
1.0
 40
1.0
 40
1.0
 40
2.0
 40
2.0
 40
2.0
 40
3.0
 40
3.0
 40
3.0
 40
4.0
 40
4.0
 40
4.0
 40
5.0
 40
5.0
 40
5.0
 40
6.0
 40
6.0
 40
6.0
 40
7.0
 40
7.0
 40
7.0
 40
8.0
 40
8.0
 40
8.0
 40
8.0
 10
4.094444274902344
 20
1.352777693006727
 10
4.009721967909071
 20
1.470833248562283
 10
3.926388634575738
 20
1.590277777777778
 10
3.845833248562283
 20
1.71111085679796
 10
3.866666581895616
 20
1.748611026340061
 10
3.86250008477105
 20
1.833332909478081
 10
3.86250008477105
 20
1.866666581895616
 10
3.86250008477105
 20
1.902777777777778
 10
3.86250008477105
 20
1.940277523464627
 10
3.859722137451172
 20
1.976388719346788
 10
3.931944529215495
 20
1.97361077202691
 10
4.004166497124566
 20
1.97361077202691
 10
4.07499991522895
 20
1.984722137451172
 10
4.065277523464626
 20
1.902777777777778
 10
4.0625
 20
1.816666497124566
 10
4.095833248562283
 20
1.738888634575738
 10
4.125
 20
1.673610687255859
 10
4.17500008477105
 20
1.633332994249132
 10
4.233333163791232
 20
1.595833248562283
 10
4.222222222222222
 20
1.581944359673394
 10
4.212499830457899
 20
1.568055470784505
 10
4.202777438693576
 20
1.554166581895616
 10
4.155555725097656
 20
1.491666581895616
 10
4.106944613986545
 20
1.42638905843099
 10
4.094444274902344
 20
1.352777693006727
 97
        0
 97
        0
 92
        1
 93
        1
 72
     4
 94
        3
 73
     0
 74
     1
 95
       32
 96
       28
 40
0.0
 40
0.0
 40
0.0
 40
0.0
 40
1.0
 40
1.0
 40
1.0
 40
2.0
 40
2.0
 40
2.0
 40
3.0
 40
3.0
 40
3.0
 40
4.0
 40
4.0
 40
4.0
 40
5.0
 40
5.0
 40
5.0
 40
6.0
 40
6.0
 40
6.0
 40
7.0
 40
7.0
 40
7.0
 40
8.0
 40
8.0
 40
8.0
 40
9.0
 40
9.0
 40
9.0
 40
9.0
 10
4.38749991522895
 20
1.991666581895616
 10
4.37361102634006
 20
1.990277608235677
 10
4.363888634575738
 20
1.979166666666667
 10
4.366666581895617
 20
1.965277777777778
 10
4.394444359673394
 20
1.855555640326606
 10
4.32499991522895
 20
1.730555640326606
 10
4.256944444444445
 20
1.630555470784505
 10
4.194444444444445
 20
1.670833163791233
 10
4.145833333333333
 20
1.712499830457899
 10
4.12361102634006
 20
1.786111195882161
 10
4.102777693006727
 20
1.854166666666667
 10
4.109722137451172
 20
1.92500008477105
 10
4.116666581895617
 20
1.993055555555555
 10
4.166666666666666
 20
2.005555470784505
 10
4.230555640326606
 20
2.026388804117838
 10
4.258333418104383
 20
2.061111026340061
 10
4.286111195882161
 20
2.097222222222222
 10
4.286111195882161
 20
2.172222137451172
 10
4.281944698757595
 20
2.220833248562283
 10
4.344444698757595
 20
2.25
 10
4.411111195882161
 20
2.277777777777778
 10
4.480555640326606
 20
2.279166751437717
 10
4.558333502875434
 20
2.280555725097656
 10
4.61250008477105
 20
2.247222476535373
 10
4.670833587646484
 20
2.19999991522895
 10
4.597222222222222
 20
2.102777693006727
 10
4.5
 20
2.0
 10
4.38749991522895
 20
1.991666581895616
 97
        0
 97
        0
 92
        1
 93
        1
 72
     4
 94
        3
 73
     0
 74
     1
 95
       29
 96
       25
 40
0.0
 40
0.0
 40
0.0
 40
0.0
 40
1.0
 40
1.0
 40
1.0
 40
2.0
 40
2.0
 40
2.0
 40
3.0
 40
3.0
 40
3.0
 40
4.0
 40
4.0
 40
4.0
 40
5.0
 40
5.0
 40
5.0
 40
6.0
 40
6.0
 40
6.0
 40
7.0
 40
7.0
 40
7.0
 40
8.0
 40
8.0
 40
8.0
 40
8.0
 10
4.73750008477105
 20
2.291666666666667
 10
4.7250001695421
 20
2.273611280653212
 10
4.711111280653212
 20
2.254166497124566
 10
4.697222391764322
 20
2.234722137451172
 10
4.638888888888888
 20
2.280555301242404
 10
4.581944783528646
 20
2.318055470784505
 10
4.505555894639756
 20
2.322221967909071
 10
4.425000508626302
 20
2.326388465033637
 10
4.350000169542101
 20
2.298610687255859
 10
4.279167175292969
 20
2.265277438693576
 10
4.269444783528646
 20
2.33611085679796
 10
4.245833926730685
 20
2.404166327582465
 10
4.220833672417535
 20
2.472221798366971
 10
4.263889312744141
 20
2.483332951863606
 10
4.306944953070746
 20
2.495832867092556
 10
4.348611619737413
 20
2.511110729641385
 10
4.375000423855251
 20
2.520832909478081
 10
4.444444868299696
 20
2.538888507419162
 10
4.469445122612847
 20
2.56666628519694
 10
4.609722985161675
 20
2.526388592190213
 10
4.748611874050564
 20
2.484721925523546
 10
4.886111789279513
 20
2.440277523464627
 10
4.82361094156901
 20
2.409722222222222
 10
4.779166751437717
 20
2.351388719346788
 10
4.73750008477105
 20
2.291666666666667
 97
        0
 97
        0
 75
     2
 76
     1
 98
        0
  0
SPLINE
  5
9B
330
41
100
AcDbEntity
  8
Calque 1
370
     0
100
AcDbSpline
210
0.0
220
0.0
230
1.0
 70
    11
 71
     3
 72
    17
 73
    13
 74
     0
 42
0.0000000001
 43
0.0000000001
 12
1.0
 22
0.0
 32
0.0
 13
1.0
 23
0.0
 33
0.0
 40
0.0
 40
0.0
 40
0.0
 40
0.0
 40
1.0
 40
1.0
 40
1.0
 40
2.0
 40
2.0
 40
2.0
 40
3.0
 40
3.0
 40
3.0
 40
4.0
 40
4.0
 40
4.0
 40
4.0
 10
2.141666624281141
 20
2.804166793823242
 30
0.0
 10
2.176951514350043
 20
2.804166793823242
 30
0.0
 10
2.205555597941081
 20
2.775562710232205
 30
0.0
 10
2.205555597941081
 20
2.740277820163303
 30
0.0
 10
2.205555597941081
 20
2.704992930094401
 30
0.0
 10
2.176951514350043
 20
2.676388846503364
 30
0.0
 10
2.141666624281141
 20
2.676388846503364
 30
0.0
 10
2.106381734212239
 20
2.676388846503364
 30
0.0
 10
2.077777650621202
 20
2.704992930094401
 30
0.0
 10
2.077777650621202
 20
2.740277820163303
 30
0.0
 10
2.077777650621202
 20
2.775562710232205
 30
0.0
 10
2.106381734212239
 20
2.804166793823242
 30
0.0
 10
2.141666624281141
 20
2.804166793823242
 30
0.0
  0
HATCH
  5
9C
330
41
100
AcDbEntity
  8
Calque 1
 62
   178
420
   131587
100
AcDbHatch
 10
0.0
 20
0.0
 30
0.0
210
0.0
220
0.0
230
1.0
  2
SOLID
 70
     1
 71
     0
 91
        1
 92
        1
 93
        1
 72
     4
 94
        3
 73
     0
 74
     1
 95
       17
 96
       13
 40
0.0
 40
0.0
 40
0.0
 40
0.0
 40
1.0
 40
1.0
 40
1.0
 40
2.0
 40
2.0
 40
2.0
 40
3.0
 40
3.0
 40
3.0
 40
4.0
 40
4.0
 40
4.0
 40
4.0
 10
2.141666624281141
 20
2.804166793823242
 10
2.176951514350043
 20
2.804166793823242
 10
2.205555597941081
 20
2.775562710232205
 10
2.205555597941081
 20
2.740277820163303
 10
2.205555597941081
 20
2.704992930094401
 10
2.176951514350043
 20
2.676388846503364
 10
2.141666624281141
 20
2.676388846503364
 10
2.106381734212239
 20
2.676388846503364
 10
2.077777650621202
 20
2.704992930094401
 10
2.077777650621202
 20
2.740277820163303
 10
2.077777650621202
 20
2.775562710232205
 10
2.106381734212239
 20
2.804166793823242
 10
2.141666624281141
 20
2.804166793823242
 97
        0
 97
        0
 75
     2
 76
     1
 98
        0
  0
SPLINE
  5
9D
330
41
100
AcDbEntity
  8
Calque 1
370
     0
100
AcDbSpline
210
0.0
220
0.0
230
1.0
 70
    11
 71
     3
 72
    17
 73
    13
 74
     0
 42
0.0000000001
 43
0.0000000001
 12
1.0
 22
0.0
 32
0.0
 13
1.0
 23
0.0
 33
0.0
 40
0.0
 40
0.0
 40
0.0
 40
0.0
 40
1.0
 40
1.0
 40
1.0
 40
2.0
 40
2.0
 40
2.0
 40
3.0
 40
3.0
 40
3.0
 40
4.0
 40
4.0
 40
4.0
 40
4.0
 10
2.901506881888382
 20
2.149881030698882
 30
0.0
 10
2.912409912406499
 20
2.183440489354022
 30
0.0
 10
2.948454119053319
 20
2.201807106123599
 30
0.0
 10
2.982013376144096
 20
2.190904141091121
 30
0.0
 10
3.015572633234872
 20
2.180001176058618
 30
0.0
 10
3.033939517054452
 20
2.143957105490522
 30
0.0
 10
3.023036486536335
 20
2.110397646835382
 30
0.0
 10
3.012133456018192
 20
2.076838188180242
 30
0.0
 10
2.976089249371373
 20
2.058471571410665
 30
0.0
 10
2.942529992280596
 20
2.069374536443168
 30
0.0
 10
2.908970735189819
 20
2.080277501475646
 30
0.0
 10
2.890603851370252
 20
2.116321572043742
 30
0.0
 10
2.901506881888382
 20
2.149881030698882
 30
0.0
  0
HATCH
  5
9E
330
41
100
AcDbEntity
  8
Calque 1
 62
   178
420
   131587
100
AcDbHatch
 10
0.0
 20
0.0
 30
0.0
210
0.0
220
0.0
230
1.0
  2
SOLID
 70
     1
 71
     0
 91
        1
 92
        1
 93
        1
 72
     4
 94
        3
 73
     0
 74
     1
 95
       17
 96
       13
 40
0.0
 40
0.0
 40
0.0
 40
0.0
 40
1.0
 40
1.0
 40
1.0
 40
2.0
 40
2.0
 40
2.0
 40
3.0
 40
3.0
 40
3.0
 40
4.0
 40
4.0
 40
4.0
 40
4.0
 10
2.901506881888382
 20
2.149881030698882
 10
2.912409912406499
 20
2.183440489354022
 10
2.948454119053319
 20
2.201807106123599
 10
2.982013376144096
 20
2.190904141091121
 10
3.015572633234872
 20
2.180001176058618
 10
3.033939517054452
 20
2.143957105490522
 10
3.023036486536335
 20
2.110397646835382
 10
3.012133456018192
 20
2.076838188180242
 10
2.976089249371373
 20
2.058471571410665
 10
2.942529992280596
 20
2.069374536443168
 10
2.908970735189819
 20
2.080277501475646
 10
2.890603851370252
 20
2.116321572043742
 10
2.901506881888382
 20
2.149881030698882
 97
        0
 97
        0
 75
     2
 76
     1
 98
        0
  0
SPLINE
  5
9F
330
41
100
AcDbEntity
  8
Calque 1
370
     0
100
AcDbSpline
210
0.0
220
0.0
230
1.0
 70
    11
 71
     3
 72
    17
 73
    13
 74
     0
 42
0.0000000001
 43
0.0000000001
 12
1.0
 22
0.0
 32
0.0
 13
1.0
 23
0.0
 33
0.0
 40
0.0
 40
0.0
 40
0.0
 40
0.0
 40
1.0
 40
1.0
 40
1.0
 40
2.0
 40
2.0
 40
2.0
 40
3.0
 40
3.0
 40
3.0
 40
4.0
 40
4.0
 40
4.0
 40
4.0
 10
3.744668581731578
 20
2.759334254353841
 30
0.0
 10
3.765408916458303
 20
2.787879559508534
 30
0.0
 10
3.80536322616778
 20
2.7942069539428
 30
0.0
 10
3.833908702771926
 20
2.773466494645011
 30
0.0
 10
3.862454179376073
 20
2.752726035347223
 30
0.0
 10
3.868781277789822
 20
2.712771678759357
 30
0.0
 10
3.848040943063097
 20
2.684226373604663
 30
0.0
 10
3.827300608336373
 20
2.65568106844997
 30
0.0
 10
3.787346298626896
 20
2.649353674015704
 30
0.0
 10
3.758800822022749
 20
2.670094133313493
 30
0.0
 10
3.730255345418603
 20
2.690834592611282
 30
0.0
 10
3.723928247004854
 20
2.730788949199147
 30
0.0
 10
3.744668581731578
 20
2.759334254353841
 30
0.0
  0
HATCH
  5
A0
330
41
100
AcDbEntity
  8
Calque 1
 62
   178
420
   131587
100
AcDbHatch
 10
0.0
 20
0.0
 30
0.0
210
0.0
220
0.0
230
1.0
  2
SOLID
 70
     1
 71
     0
 91
        1
 92
        1
 93
        1
 72
     4
 94
        3
 73
     0
 74
     1
 95
       17
 96
       13
 40
0.0
 40
0.0
 40
0.0
 40
0.0
 40
1.0
 40
1.0
 40
1.0
 40
2.0
 40
2.0
 40
2.0
 40
3.0
 40
3.0
 40
3.0
 40
4.0
 40
4.0
 40
4.0
 40
4.0
 10
3.744668581731578
 20
2.759334254353841
 10
3.765408916458303
 20
2.787879559508534
 10
3.80536322616778
 20
2.7942069539428
 10
3.833908702771926
 20
2.773466494645011
 10
3.862454179376073
 20
2.752726035347223
 10
3.868781277789822
 20
2.712771678759357
 10
3.848040943063097
 20
2.684226373604663
 10
3.827300608336373
 20
2.65568106844997
 10
3.787346298626896
 20
2.649353674015704
 10
3.758800822022749
 20
2.670094133313493
 10
3.730255345418603
 20
2.690834592611282
 10
3.723928247004854
 20
2.730788949199147
 10
3.744668581731578
 20
2.759334254353841
 97
        0
 97
        0
 75
     2
 76
     1
 98
        0
  0
SPLINE
  5
A1
330
41
100
AcDbEntity
  8
Calque 1
370
     0
100
AcDbSpline
210
0.0
220
0.0
230
1.0
 70
    11
 71
     3
 72
    17
 73
    13
 74
     0
 42
0.0000000001
 43
0.0000000001
 12
1.0
 22
0.0
 32
0.0
 13
1.0
 23
0.0
 33
0.0
 40
0.0
 40
0.0
 40
0.0
 40
0.0
 40
1.0
 40
1.0
 40
1.0
 40
2.0
 40
2.0
 40
2.0
 40
3.0
 40
3.0
 40
3.0
 40
4.0
 40
4.0
 40
4.0
 40
4.0
 10
3.452687272044285
 20
3.750267330108222
 30
0.0
 10
3.481232748648431
 20
3.77100778940601
 30
0.0
 10
3.521186933786844
 20
3.764680566421197
 30
0.0
 10
3.541927393084633
 20
3.736135089817051
 30
0.0
 10
3.562667852382421
 20
3.707589613212904
 30
0.0
 10
3.556340629397608
 20
3.667635428074492
 30
0.0
 10
3.527795152793462
 20
3.646894968776703
 30
0.0
 10
3.499249676189315
 20
3.626154509478915
 30
0.0
 10
3.459295491050903
 20
3.632481732463727
 30
0.0
 10
3.438555031753114
 20
3.661027209067874
 30
0.0
 10
3.417814572455326
 20
3.68957268567202
 30
0.0
 10
3.424141795440139
 20
3.729526870810433
 30
0.0
 10
3.452687272044285
 20
3.750267330108222
 30
0.0
  0
HATCH
  5
A2
330
41
100
AcDbEntity
  8
Calque 1
 62
   178
420
   131587
100
AcDbHatch
 10
0.0
 20
0.0
 30
0.0
210
0.0
220
0.0
230
1.0
  2
SOLID
 70
     1
 71
     0
 91
        1
 92
        1
 93
        1
 72
     4
 94
        3
 73
     0
 74
     1
 95
       17
 96
       13
 40
0.0
 40
0.0
 40
0.0
 40
0.0
 40
1.0
 40
1.0
 40
1.0
 40
2.0
 40
2.0
 40
2.0
 40
3.0
 40
3.0
 40
3.0
 40
4.0
 40
4.0
 40
4.0
 40
4.0
 10
3.452687272044285
 20
3.750267330108222
 10
3.481232748648431
 20
3.77100778940601
 10
3.521186933786844
 20
3.764680566421197
 10
3.541927393084633
 20
3.736135089817051
 10
3.562667852382421
 20
3.707589613212904
 10
3.556340629397608
 20
3.667635428074492
 10
3.527795152793462
 20
3.646894968776703
 10
3.499249676189315
 20
3.626154509478915
 10
3.459295491050903
 20
3.632481732463727
 10
3.438555031753114
 20
3.661027209067874
 10
3.417814572455326
 20
3.68957268567202
 10
3.424141795440139
 20
3.729526870810433
 10
3.452687272044285
 20
3.750267330108222
 97
        0
 97
        0
 75
     2
 76
     1
 98
        0
  0
SPLINE
  5
A3
330
41
100
AcDbEntity
  8
Calque 1
370
     0
100
AcDbSpline
210
0.0
220
0.0
230
1.0
 70
    11
 71
     3
 72
    17
 73
    13
 74
     0
 42
0.0000000001
 43
0.0000000001
 12
1.0
 22
0.0
 32
0.0
 13
1.0
 23
0.0
 33
0.0
 40
0.0
 40
0.0
 40
0.0
 40
0.0
 40
1.0
 40
1.0
 40
1.0
 40
2.0
 40
2.0
 40
2.0
 40
3.0
 40
3.0
 40
3.0
 40
4.0
 40
4.0
 40
4.0
 40
4.0
 10
2.448193868721925
 20
3.770428875349024
 30
0.0
 10
2.481753327377065
 20
3.781331905867154
 30
0.0
 10
2.517797332459521
 20
3.76296522361195
 30
0.0
 10
2.528700362977651
 20
3.72940576495681
 30
0.0
 10
2.539603393495781
 20
3.69584630630167
 30
0.0
 10
2.521236711240565
 20
3.659802301219202
 30
0.0
 10
2.487677252585425
 20
3.648899270701071
 30
0.0
 10
2.454117793930284
 20
3.637996240182954
 30
0.0
 10
2.418073788847828
 20
3.65636292243817
 30
0.0
 10
2.407170758329698
 20
3.689922381093311
 30
0.0
 10
2.396267727811568
 20
3.723481839748451
 30
0.0
 10
2.414634410066785
 20
3.759525844830907
 30
0.0
 10
2.448193868721925
 20
3.770428875349024
 30
0.0
  0
HATCH
  5
A4
330
41
100
AcDbEntity
  8
Calque 1
 62
   178
420
   131587
100
AcDbHatch
 10
0.0
 20
0.0
 30
0.0
210
0.0
220
0.0
230
1.0
  2
SOLID
 70
     1
 71
     0
 91
        1
 92
        1
 93
        1
 72
     4
 94
        3
 73
     0
 74
     1
 95
       17
 96
       13
 40
0.0
 40
0.0
 40
0.0
 40
0.0
 40
1.0
 40
1.0
 40
1.0
 40
2.0
 40
2.0
 40
2.0
 40
3.0
 40
3.0
 40
3.0
 40
4.0
 40
4.0
 40
4.0
 40
4.0
 10
2.448193868721925
 20
3.770428875349024
 10
2.481753327377065
 20
3.781331905867154
 10
2.517797332459521
 20
3.76296522361195
 10
2.528700362977651
 20
3.72940576495681
 10
2.539603393495781
 20
3.69584630630167
 10
2.521236711240565
 20
3.659802301219202
 10
2.487677252585425
 20
3.648899270701071
 10
2.454117793930284
 20
3.637996240182954
 10
2.418073788847828
 20
3.65636292243817
 10
2.407170758329698
 20
3.689922381093311
 10
2.396267727811568
 20
3.723481839748451
 10
2.414634410066785
 20
3.759525844830907
 10
2.448193868721925
 20
3.770428875349024
 97
        0
 97
        0
 75
     2
 76
     1
 98
        0
  0
SPLINE
  5
A5
330
41
100
AcDbEntity
  8
Calque 1
370
     0
100
AcDbSpline
210
0.0
220
0.0
230
1.0
 70
    11
 71
     3
 72
    17
 73
    13
 74
     0
 42
0.0000000001
 43
0.0000000001
 12
1.0
 22
0.0
 32
0.0
 13
1.0
 23
0.0
 33
0.0
 40
0.0
 40
0.0
 40
0.0
 40
0.0
 40
1.0
 40
1.0
 40
1.0
 40
2.0
 40
2.0
 40
2.0
 40
3.0
 40
3.0
 40
3.0
 40
4.0
 40
4.0
 40
4.0
 40
4.0
 10
2.141666624281141
 20
3.323611153496636
 30
0.0
 10
2.176951514350043
 20
3.323611153496636
 30
0.0
 10
2.205555597941081
 20
3.295007069905599
 30
0.0
 10
2.205555597941081
 20
3.259722179836697
 30
0.0
 10
2.205555597941081
 20
3.224437289767795
 30
0.0
 10
2.176951514350043
 20
3.195833206176758
 30
0.0
 10
2.141666624281141
 20
3.195833206176758
 30
0.0
 10
2.106381734212239
 20
3.195833206176758
 30
0.0
 10
2.077777650621202
 20
3.224437289767795
 30
0.0
 10
2.077777650621202
 20
3.259722179836697
 30
0.0
 10
2.077777650621202
 20
3.295007069905599
 30
0.0
 10
2.106381734212239
 20
3.323611153496636
 30
0.0
 10
2.141666624281141
 20
3.323611153496636
 30
0.0
  0
HATCH
  5
A6
330
41
100
AcDbEntity
  8
Calque 1
 62
   178
420
   131587
100
AcDbHatch
 10
0.0
 20
0.0
 30
0.0
210
0.0
220
0.0
230
1.0
  2
SOLID
 70
     1
 71
     0
 91
        1
 92
        1
 93
        1
 72
     4
 94
        3
 73
     0
 74
     1
 95
       17
 96
       13
 40
0.0
 40
0.0
 40
0.0
 40
0.0
 40
1.0
 40
1.0
 40
1.0
 40
2.0
 40
2.0
 40
2.0
 40
3.0
 40
3.0
 40
3.0
 40
4.0
 40
4.0
 40
4.0
 40
4.0
 10
2.141666624281141
 20
3.323611153496636
 10
2.176951514350043
 20
3.323611153496636
 10
2.205555597941081
 20
3.295007069905599
 10
2.205555597941081
 20
3.259722179836697
 10
2.205555597941081
 20
3.224437289767795
 10
2.176951514350043
 20
3.195833206176758
 10
2.141666624281141
 20
3.195833206176758
 10
2.106381734212239
 20
3.195833206176758
 10
2.077777650621202
 20
3.224437289767795
 10
2.077777650621202
 20
3.259722179836697
 10
2.077777650621202
 20
3.295007069905599
 10
2.106381734212239
 20
3.323611153496636
 10
2.141666624281141
 20
3.323611153496636
 97
        0
 97
        0
 75
     2
 76
     1
 98
        0
  0
SPLINE
  5
A7
330
41
100
AcDbEntity
  8
Calque 1
370
     0
100
AcDbSpline
210
0.0
220
0.0
230
1.0
 70
    11
 71
     3
 72
    17
 73
    13
 74
     0
 42
0.0000000001
 43
0.0000000001
 12
1.0
 22
0.0
 32
0.0
 13
1.0
 23
0.0
 33
0.0
 40
0.0
 40
0.0
 40
0.0
 40
0.0
 40
1.0
 40
1.0
 40
1.0
 40
2.0
 40
2.0
 40
2.0
 40
3.0
 40
3.0
 40
3.0
 40
4.0
 40
4.0
 40
4.0
 40
4.0
 10
2.407735407624967
 20
2.310885816443033
 30
0.0
 10
2.418638438143097
 20
2.344445275098173
 30
0.0
 10
2.454682644789929
 20
2.36281189186775
 30
0.0
 10
2.488241901880706
 20
2.351908926835272
 30
0.0
 10
2.521801158971483
 20
2.341005961802769
 30
0.0
 10
2.54016804279105
 20
2.304961891234673
 30
0.0
 10
2.52926501227292
 20
2.271402432579533
 30
0.0
 10
2.518361981754803
 20
2.237842973924393
 30
0.0
 10
2.482317775107984
 20
2.219476357154816
 30
0.0
 10
2.448758518017207
 20
2.230379322187319
 30
0.0
 10
2.41519926092643
 20
2.241282287219797
 30
0.0
 10
2.39683237710685
 20
2.277326357787893
 30
0.0
 10
2.407735407624967
 20
2.310885816443033
 30
0.0
  0
HATCH
  5
A8
330
41
100
AcDbEntity
  8
Calque 1
 62
   178
420
   131587
100
AcDbHatch
 10
0.0
 20
0.0
 30
0.0
210
0.0
220
0.0
230
1.0
  2
SOLID
 70
     1
 71
     0
 91
        1
 92
        1
 93
        1
 72
     4
 94
        3
 73
     0
 74
     1
 95
       17
 96
       13
 40
0.0
 40
0.0
 40
0.0
 40
0.0
 40
1.0
 40
1.0
 40
1.0
 40
2.0
 40
2.0
 40
2.0
 40
3.0
 40
3.0
 40
3.0
 40
4.0
 40
4.0
 40
4.0
 40
4.0
 10
2.407735407624967
 20
2.310885816443033
 10
2.418638438143097
 20
2.344445275098173
 10
2.454682644789929
 20
2.36281189186775
 10
2.488241901880706
 20
2.351908926835272
 10
2.521801158971483
 20
2.341005961802769
 10
2.54016804279105
 20
2.304961891234673
 10
2.52926501227292
 20
2.271402432579533
 10
2.518361981754803
 20
2.237842973924393
 10
2.482317775107984
 20
2.219476357154816
 10
2.448758518017207
 20
2.230379322187319
 10
2.41519926092643
 20
2.241282287219797
 10
2.39683237710685
 20
2.277326357787893
 10
2.407735407624967
 20
2.310885816443033
 97
        0
 97
        0
 75
     2
 76
     1
 98
        0
  0
SPLINE
  5
A9
330
41
100
AcDbEntity
  8
Calque 1
370
     0
100
AcDbSpline
210
0.0
220
0.0
230
1.0
 70
    11
 71
     3
 72
    17
 73
    13
 74
     0
 42
0.0000000001
 43
0.0000000001
 12
1.0
 22
0.0
 32
0.0
 13
1.0
 23
0.0
 33
0.0
 40
0.0
 40
0.0
 40
0.0
 40
0.0
 40
1.0
 40
1.0
 40
1.0
 40
2.0
 40
2.0
 40
2.0
 40
3.0
 40
3.0
 40
3.0
 40
4.0
 40
4.0
 40
4.0
 40
4.0
 10
3.438724118446771
 20
2.338706455953393
 30
0.0
 10
3.459464577744559
 20
2.36725193255754
 30
0.0
 10
3.499418934332425
 20
2.373579030971289
 30
0.0
 10
3.527964239487119
 20
2.352838696244564
 30
0.0
 10
3.556509544641813
 20
2.332098361517839
 30
0.0
 10
3.562836939076078
 20
2.292144051808362
 30
0.0
 10
3.542096479778289
 20
2.263598575204216
 30
0.0
 10
3.521356020480501
 20
2.23505309860007
 30
0.0
 10
3.481401663892636
 20
2.228726000186321
 30
0.0
 10
3.452856358737942
 20
2.249466334913045
 30
0.0
 10
3.424311053583248
 20
2.27020666963977
 30
0.0
 10
3.417983659148983
 20
2.310160979349247
 30
0.0
 10
3.438724118446771
 20
2.338706455953393
 30
0.0
  0
HATCH
  5
AA
330
41
100
AcDbEntity
  8
Calque 1
 62
   178
420
   131587
100
AcDbHatch
 10
0.0
 20
0.0
 30
0.0
210
0.0
220
0.0
230
1.0
  2
SOLID
 70
     1
 71
     0
 91
        1
 92
        1
 93
        1
 72
     4
 94
        3
 73
     0
 74
     1
 95
       17
 96
       13
 40
0.0
 40
0.0
 40
0.0
 40
0.0
 40
1.0
 40
1.0
 40
1.0
 40
2.0
 40
2.0
 40
2.0
 40
3.0
 40
3.0
 40
3.0
 40
4.0
 40
4.0
 40
4.0
 40
4.0
 10
3.438724118446771
 20
2.338706455953393
 10
3.459464577744559
 20
2.36725193255754
 10
3.499418934332425
 20
2.373579030971289
 10
3.527964239487119
 20
2.352838696244564
 10
3.556509544641813
 20
2.332098361517839
 10
3.562836939076078
 20
2.292144051808362
 10
3.542096479778289
 20
2.263598575204216
 10
3.521356020480501
 20
2.23505309860007
 10
3.481401663892636
 20
2.228726000186321
 10
3.452856358737942
 20
2.249466334913045
 10
3.424311053583248
 20
2.27020666963977
 10
3.417983659148983
 20
2.310160979349247
 10
3.438724118446771
 20
2.338706455953393
 97
        0
 97
        0
 75
     2
 76
     1
 98
        0
  0
SPLINE
  5
AB
330
41
100
AcDbEntity
  8
Calque 1
370
     0
100
AcDbSpline
210
0.0
220
0.0
230
1.0
 70
    11
 71
     3
 72
    17
 73
    13
 74
     0
 42
0.0000000001
 43
0.0000000001
 12
1.0
 22
0.0
 32
0.0
 13
1.0
 23
0.0
 33
0.0
 40
0.0
 40
0.0
 40
0.0
 40
0.0
 40
1.0
 40
1.0
 40
1.0
 40
2.0
 40
2.0
 40
2.0
 40
3.0
 40
3.0
 40
3.0
 40
4.0
 40
4.0
 40
4.0
 40
4.0
 10
3.758162730043194
 20
3.329147701180773
 30
0.0
 10
3.786708035197888
 20
3.349888035907497
 30
0.0
 10
3.826662391785753
 20
3.343560937493748
 30
0.0
 10
3.847402851083542
 20
3.315015460889602
 30
0.0
 10
3.868143310381331
 20
3.286469984285456
 30
0.0
 10
3.861815915947065
 20
3.246515674575979
 30
0.0
 10
3.833270610792372
 20
3.225775339849254
 30
0.0
 10
3.804725305637678
 20
3.20503500512253
 30
0.0
 10
3.764770949049812
 20
3.211362103536278
 30
0.0
 10
3.744030489752024
 20
3.239907580140425
 30
0.0
 10
3.723290030454235
 20
3.268453056744571
 30
0.0
 10
3.729617424888501
 20
3.308407366454048
 30
0.0
 10
3.758162730043194
 20
3.329147701180773
 30
0.0
  0
HATCH
  5
AC
330
41
100
AcDbEntity
  8
Calque 1
 62
   178
420
   131587
100
AcDbHatch
 10
0.0
 20
0.0
 30
0.0
210
0.0
220
0.0
230
1.0
  2
SOLID
 70
     1
 71
     0
 91
        1
 92
        1
 93
        1
 72
     4
 94
        3
 73
     0
 74
     1
 95
       17
 96
       13
 40
0.0
 40
0.0
 40
0.0
 40
0.0
 40
1.0
 40
1.0
 40
1.0
 40
2.0
 40
2.0
 40
2.0
 40
3.0
 40
3.0
 40
3.0
 40
4.0
 40
4.0
 40
4.0
 40
4.0
 10
3.758162730043194
 20
3.329147701180773
 10
3.786708035197888
 20
3.349888035907497
 10
3.826662391785753
 20
3.343560937493748
 10
3.847402851083542
 20
3.315015460889602
 10
3.868143310381331
 20
3.286469984285456
 10
3.861815915947065
 20
3.246515674575979
 10
3.833270610792372
 20
3.225775339849254
 10
3.804725305637678
 20
3.20503500512253
 10
3.764770949049812
 20
3.211362103536278
 10
3.744030489752024
 20
3.239907580140425
 10
3.723290030454235
 20
3.268453056744571
 10
3.729617424888501
 20
3.308407366454048
 10
3.758162730043194
 20
3.329147701180773
 97
        0
 97
        0
 75
     2
 76
     1
 98
        0
  0
SPLINE
  5
AD
330
41
100
AcDbEntity
  8
Calque 1
370
     0
100
AcDbSpline
210
0.0
220
0.0
230
1.0
 70
    11
 71
     3
 72
    17
 73
    13
 74
     0
 42
0.0000000001
 43
0.0000000001
 12
1.0
 22
0.0
 32
0.0
 13
1.0
 23
0.0
 33
0.0
 40
0.0
 40
0.0
 40
0.0
 40
0.0
 40
1.0
 40
1.0
 40
1.0
 40
2.0
 40
2.0
 40
2.0
 40
3.0
 40
3.0
 40
3.0
 40
4.0
 40
4.0
 40
4.0
 40
4.0
 10
2.943029532840784
 20
3.930003252257974
 30
0.0
 10
2.976588991495924
 20
3.940906282776091
 30
0.0
 10
3.01263299657838
 20
3.922539600520874
 30
0.0
 10
3.023536027096523
 20
3.888980141865734
 30
0.0
 10
3.03443905761464
 20
3.855420683210594
 30
0.0
 10
3.016072375359423
 20
3.819376678128138
 30
0.0
 10
2.982512916704283
 20
3.808473647610021
 30
0.0
 10
2.948953458049143
 20
3.797570617091891
 30
0.0
 10
2.912909452966687
 20
3.815937299347095
 30
0.0
 10
2.902006422448557
 20
3.849496758002235
 30
0.0
 10
2.891103391930427
 20
3.883056216657375
 30
0.0
 10
2.909470074185644
 20
3.919100221739844
 30
0.0
 10
2.943029532840784
 20
3.930003252257974
 30
0.0
  0
HATCH
  5
AE
330
41
100
AcDbEntity
  8
Calque 1
 62
   178
420
   131587
100
AcDbHatch
 10
0.0
 20
0.0
 30
0.0
210
0.0
220
0.0
230
1.0
  2
SOLID
 70
     1
 71
     0
 91
        1
 92
        1
 93
        1
 72
     4
 94
        3
 73
     0
 74
     1
 95
       17
 96
       13
 40
0.0
 40
0.0
 40
0.0
 40
0.0
 40
1.0
 40
1.0
 40
1.0
 40
2.0
 40
2.0
 40
2.0
 40
3.0
 40
3.0
 40
3.0
 40
4.0
 40
4.0
 40
4.0
 40
4.0
 10
2.943029532840784
 20
3.930003252257974
 10
2.976588991495924
 20
3.940906282776091
 10
3.01263299657838
 20
3.922539600520874
 10
3.023536027096523
 20
3.888980141865734
 10
3.03443905761464
 20
3.855420683210594
 10
3.016072375359423
 20
3.819376678128138
 10
2.982512916704283
 20
3.808473647610021
 10
2.948953458049143
 20
3.797570617091891
 10
2.912909452966687
 20
3.815937299347095
 10
2.902006422448557
 20
3.849496758002235
 10
2.891103391930427
 20
3.883056216657375
 10
2.909470074185644
 20
3.919100221739844
 10
2.943029532840784
 20
3.930003252257974
 97
        0
 97
        0
 75
     2
 76
     1
 98
        0
  0
ENDBLK
  5
44
330
41
100
AcDbEntity
  8
0
100
AcDbBlockEnd
  0
ENDSEC
  0
SECTION
  2
ENTITIES
  0
INSERT
  5
42
330
1F
100
AcDbEntity
  8
Calque 1
100
AcDbBlockReference
  2
block 2
 10
0.0
 20
0.0
 30
0.0
  0
ENDSEC
  0
SECTION
  2
OBJECTS
  0
DICTIONARY
  5
C
330
0
100
AcDbDictionary
281
     1
  3
ACAD_GROUP
350
D
  3
ACAD_LAYOUT
350
1A
  3
ACAD_MATERIAL
350
3B
  3
ACAD_MLEADERSTYLE
350
B0
  3
ACAD_MLINESTYLE
350
17
  3
ACAD_PLOTSETTINGS
350
19
  3
ACAD_PLOTSTYLENAME
350
E
  3
ACAD_TABLESTYLE
350
AF
  3
ACAD_VISUALSTYLE
350
2A
  0
SUN
  5
3F
330
29
100
AcDbSun
 90
        1
290
     0
 63
     7
421
 16777215
 40
1.0
291
     1
 91
  2455826
 92
 54000000
292
     0
 70
     2
 71
   256
280
     1
  0
DICTIONARY
  5
D
102
{ACAD_REACTORS
330
C
102
}
330
C
100
AcDbDictionary
281
     1
  0
DICTIONARY
  5
1A
102
{ACAD_REACTORS
330
C
102
}
330
C
100
AcDbDictionary
281
     1
  3
Layout1
350
1E
  3
Layout2
350
26
  3
Model
350
22
  0
DICTIONARY
  5
3B
102
{ACAD_REACTORS
330
C
102
}
330
C
100
AcDbDictionary
281
     1
  3
ByBlock
350
3D
  3
ByLayer
350
3C
  3
Global
350
3E
  0
DICTIONARY
  5
B0
102
{ACAD_REACTORS
330
C
102
}
330
C
100
AcDbDictionary
281
     1
  0
DICTIONARY
  5
17
102
{ACAD_REACTORS
330
C
102
}
330
C
100
AcDbDictionary
281
     1
  3
Standard
350
18
  0
DICTIONARY
  5
19
102
{ACAD_REACTORS
330
C
102
}
330
C
100
AcDbDictionary
281
     1
  0
ACDBDICTIONARYWDFLT
  5
E
102
{ACAD_REACTORS
330
C
102
}
330
C
100
AcDbDictionary
281
     1
  3
Normal
350
F
100
AcDbDictionaryWithDefault
340
F
  0
DICTIONARY
  5
AF
102
{ACAD_REACTORS
330
C
102
}
330
C
100
AcDbDictionary
281
     1
  0
DICTIONARY
  5
2A
102
{ACAD_REACTORS
330
C
102
}
330
C
100
AcDbDictionary
281
     1
  3
2dWireframe
350
2F
  3
3D Hidden
350
31
  3
3dWireframe
350
30
  3
Basic
350
32
  3
Brighten
350
36
  3
ColorChange
350
3A
  3
Conceptual
350
34
  3
Dim
350
35
  3
Facepattern
350
39
  3
Flat
350
2B
  3
FlatWithEdges
350
2C
  3
Gouraud
350
2D
  3
GouraudWithEdges
350
2E
  3
Linepattern
350
38
  3
Realistic
350
33
  3
Thicken
350
37
  0
LAYOUT
  5
1E
102
{ACAD_REACTORS
330
1A
102
}
330
1A
100
AcDbPlotSettings
  1

  2
none_device
  4

  6

 40
0.0
 41
0.0
 42
0.0
 43
0.0
 44
0.0
 45
0.0
 46
0.0
 47
0.0
 48
0.0
 49
0.0
140
0.0
141
0.0
142
1.0
143
1.0
 70
   688
 72
     0
 73
     0
 74
     5
  7

 75
    16
 76
     0
 77
     2
 78
   300
147
1.0
148
0.0
149
0.0
100
AcDbLayout
  1
Layout1
 70
     1
 71
     1
 10
0.0
 20
0.0
 11
12.0
 21
9.0
 12
0.0
 22
0.0
 32
0.0
 14
1.000000000000000E+20
 24
1.000000000000000E+20
 34
1.000000000000000E+20
 15
-1.000000000000000E+20
 25
-1.000000000000000E+20
 35
-1.000000000000000E+20
146
0.0
 13
0.0
 23
0.0
 33
0.0
 16
1.0
 26
0.0
 36
0.0
 17
0.0
 27
1.0
 37
0.0
 76
     0
330
1B
  0
LAYOUT
  5
26
102
{ACAD_REACTORS
330
1A
102
}
330
1A
100
AcDbPlotSettings
  1

  2
none_device
  4

  6

 40
0.0
 41
0.0
 42
0.0
 43
0.0
 44
0.0
 45
0.0
 46
0.0
 47
0.0
 48
0.0
 49
0.0
140
0.0
141
0.0
142
1.0
143
1.0
 70
   688
 72
     0
 73
     0
 74
     5
  7

 75
    16
 76
     0
 77
     2
 78
   300
147
1.0
148
0.0
149
0.0
100
AcDbLayout
  1
Layout2
 70
     1
 71
     2
 10
0.0
 20
0.0
 11
0.0
 21
0.0
 12
0.0
 22
0.0
 32
0.0
 14
0.0
 24
0.0
 34
0.0
 15
0.0
 25
0.0
 35
0.0
146
0.0
 13
0.0
 23
0.0
 33
0.0
 16
1.0
 26
0.0
 36
0.0
 17
0.0
 27
1.0
 37
0.0
 76
     0
330
23
  0
LAYOUT
  5
22
102
{ACAD_REACTORS
330
1A
102
}
330
1A
100
AcDbPlotSettings
  1

  2
none_device
  4

  6

 40
0.0
 41
0.0
 42
0.0
 43
0.0
 44
0.0
 45
0.0
 46
0.0
 47
0.0
 48
0.0
 49
0.0
140
0.0
141
0.0
142
1.0
143
1.0
 70
  1712
 72
     0
 73
     0
 74
     0
  7

 75
     0
 76
     0
 77
     2
 78
   300
147
1.0
148
0.0
149
0.0
100
AcDbLayout
  1
Model
 70
     1
 71
     0
 10
0.0
 20
0.0
 11
12.0
 21
9.0
 12
0.0
 22
0.0
 32
0.0
 14
1.000000000000000E+20
 24
1.000000000000000E+20
 34
1.000000000000000E+20
 15
-1.000000000000000E+20
 25
-1.000000000000000E+20
 35
-1.000000000000000E+20
146
0.0
 13
0.0
 23
0.0
 33
0.0
 16
1.0
 26
0.0
 36
0.0
 17
0.0
 27
1.0
 37
0.0
 76
     0
330
1F
331
29
  0
MATERIAL
  5
3D
102
{ACAD_REACTORS
330
3B
102
}
330
3B
100
AcDbMaterial
  1
ByBlock
 72
     1
 94
      127
  0
MATERIAL
  5
3C
102
{ACAD_REACTORS
330
3B
102
}
330
3B
100
AcDbMaterial
  1
ByLayer
 72
     1
 94
      127
  0
MATERIAL
  5
3E
102
{ACAD_REACTORS
330
3B
102
}
330
3B
100
AcDbMaterial
  1
Global
 72
     1
 94
      127
  0
MLINESTYLE
  5
18
102
{ACAD_REACTORS
330
17
102
}
330
17
100
AcDbMlineStyle
  2
Standard
 70
     0
  3

 62
   256
 51
90.0
 52
90.0
 71
     2
 49
0.5
 62
   256
  6
BYLAYER
 49
-0.5
 62
   256
  6
BYLAYER
  0
ACDBPLACEHOLDER
  5
F
102
{ACAD_REACTORS
330
E
102
}
330
E
  0
VISUALSTYLE
  5
2F
102
{ACAD_REACTORS
330
2A
102
}
330
2A
100
AcDbVisualStyle
  2
2dWireframe
 70
     4
177
     2
291
     0
 71
     0
176
     1
 72
     2
176
     1
 73
     0
176
     1
 90
        0
176
     1
 40
-0.6
176
     1
 41
-30.0
176
     1
 62
     5
 63
     7
421
 16777215
176
     1
 74
     1
176
     1
 91
        4
176
     1
 64
     7
176
     1
 65
   257
176
     1
 75
     1
176
     1
175
     1
176
     1
 42
1.0
176
     1
 92
        0
176
     1
 66
   257
176
     1
 43
1.0
176
     1
 76
     1
176
     1
 77
     6
176
     1
 78
     2
176
     1
 67
     7
176
     1
 79
     5
176
     1
170
     0
176
     1
171
     0
176
     1
290
     0
176
     1
 93
        1
176
     1
 44
0.0
176
     1
173
     0
176
     1
  0
VISUALSTYLE
  5
31
102
{ACAD_REACTORS
330
2A
102
}
330
2A
100
AcDbVisualStyle
  2
3D Hidden
 70
     6
177
     2
291
     0
 71
     1
176
     1
 72
     2
176
     1
 73
     2
176
     1
 90
        0
176
     1
 40
-0.6
176
     1
 41
-30.0
176
     1
 62
     5
 63
     7
421
 16777215
176
     1
 74
     2
176
     1
 91
        2
176
     1
 64
     7
176
     1
 65
   257
176
     1
 75
     2
176
     1
175
     1
176
     1
 42
40.0
176
     1
 92
        0
176
     1
 66
   257
176
     1
 43
1.0
176
     1
 76
     1
176
     1
 77
     6
176
     1
 78
     2
176
     1
 67
     7
176
     1
 79
     3
176
     1
170
     0
176
     1
171
     0
176
     1
290
     0
176
     1
 93
        1
176
     1
 44
0.0
176
     1
173
     0
176
     1
  0
VISUALSTYLE
  5
30
102
{ACAD_REACTORS
330
2A
102
}
330
2A
100
AcDbVisualStyle
  2
3dWireframe
 70
     5
177
     2
291
     0
 71
     0
176
     1
 72
     2
176
     1
 73
     0
176
     1
 90
        0
176
     1
 40
-0.6
176
     1
 41
-30.0
176
     1
 62
     5
 63
     7
421
 16777215
176
     1
 74
     1
176
     1
 91
        4
176
     1
 64
     7
176
     1
 65
   257
176
     1
 75
     1
176
     1
175
     1
176
     1
 42
1.0
176
     1
 92
        0
176
     1
 66
   257
176
     1
 43
1.0
176
     1
 76
     1
176
     1
 77
     6
176
     1
 78
     2
176
     1
 67
     7
176
     1
 79
     5
176
     1
170
     0
176
     1
171
     0
176
     1
290
     0
176
     1
 93
        1
176
     1
 44
0.0
176
     1
173
     0
176
     1
  0
VISUALSTYLE
  5
32
102
{ACAD_REACTORS
330
2A
102
}
330
2A
100
AcDbVisualStyle
  2
Basic
 70
     7
177
     2
291
     1
 71
     1
176
     1
 72
     0
176
     1
 73
     1
176
     1
 90
        0
176
     1
 40
-0.6
176
     1
 41
-30.0
176
     1
 62
     5
 63
     7
421
 16777215
176
     1
 74
     0
176
     1
 91
        4
176
     1
 64
     7
176
     1
 65
   257
176
     1
 75
     1
176
     1
175
     1
176
     1
 42
1.0
176
     1
 92
        8
176
     1
 66
     7
176
     1
 43
1.0
176
     1
 76
     1
176
     1
 77
     6
176
     1
 78
     2
176
     1
 67
     7
176
     1
 79
     5
176
     1
170
     0
176
     1
171
     0
176
     1
290
     0
176
     1
 93
        1
176
     1
 44
0.0
176
     1
173
     0
176
     1
  0
VISUALSTYLE
  5
36
102
{ACAD_REACTORS
330
2A
102
}
330
2A
100
AcDbVisualStyle
  2
Brighten
 70
    12
177
     2
291
     1
 71
     2
176
     1
 72
     2
176
     1
 73
     0
176
     1
 90
        0
176
     1
 40
-0.6
176
     1
 41
-30.0
176
     1
 62
     5
 63
     7
421
 16777215
176
     1
 74
     1
176
     1
 91
        4
176
     1
 64
     7
176
     1
 65
   257
176
     1
 75
     1
176
     1
175
     1
176
     1
 42
1.0
176
     1
 92
        8
176
     1
 66
     7
176
     1
 43
1.0
176
     1
 76
     1
176
     1
 77
     6
176
     1
 78
     2
176
     1
 67
     7
176
     1
 79
     5
176
     1
170
     0
176
     1
171
     0
176
     1
290
     0
176
     1
 93
        1
176
     1
 44
50.0
176
     1
173
     0
176
     1
  0
VISUALSTYLE
  5
3A
102
{ACAD_REACTORS
330
2A
102
}
330
2A
100
AcDbVisualStyle
  2
ColorChange
 70
    16
177
     2
291
     1
 71
     2
176
     1
 72
     2
176
     1
 73
     3
176
     1
 90
        0
176
     1
 40
-0.6
176
     1
 41
-30.0
176
     1
 62
     5
 63
     8
421
  8421504
176
     1
 74
     1
176
     1
 91
        4
176
     1
 64
     7
176
     1
 65
   257
176
     1
 75
     1
176
     1
175
     1
176
     1
 42
1.0
176
     1
 92
        8
176
     1
 66
     8
424
  8421504
176
     1
 43
1.0
176
     1
 76
     1
176
     1
 77
     6
176
     1
 78
     2
176
     1
 67
     7
176
     1
 79
     5
176
     1
170
     0
176
     1
171
     0
176
     1
290
     0
176
     1
 93
        1
176
     1
 44
0.0
176
     1
173
     0
176
     1
  0
VISUALSTYLE
  5
34
102
{ACAD_REACTORS
330
2A
102
}
330
2A
100
AcDbVisualStyle
  2
Conceptual
 70
     9
177
     2
291
     0
 71
     3
176
     1
 72
     2
176
     1
 73
     0
176
     1
 90
        0
176
     1
 40
-0.6
176
     1
 41
-30.0
176
     1
 62
     5
 63
     7
421
 16777215
176
     1
 74
     2
176
     1
 91
        2
176
     1
 64
     7
176
     1
 65
   257
176
     1
 75
     1
176
     1
175
     1
176
     1
 42
40.0
176
     1
 92
        8
176
     1
 66
     7
176
     1
 43
1.0
176
     1
 76
     1
176
     1
 77
     6
176
     1
 78
     2
176
     1
 67
     7
176
     1
 79
     3
176
     1
170
     0
176
     1
171
     0
176
     1
290
     0
176
     1
 93
        1
176
     1
 44
0.0
176
     1
173
     0
176
     1
  0
VISUALSTYLE
  5
35
102
{ACAD_REACTORS
330
2A
102
}
330
2A
100
AcDbVisualStyle
  2
Dim
 70
    11
177
     2
291
     1
 71
     2
176
     1
 72
     2
176
     1
 73
     0
176
     1
 90
        0
176
     1
 40
-0.6
176
     1
 41
-30.0
176
     1
 62
     5
 63
     7
421
 16777215
176
     1
 74
     1
176
     1
 91
        4
176
     1
 64
     7
176
     1
 65
   257
176
     1
 75
     1
176
     1
175
     1
176
     1
 42
1.0
176
     1
 92
        8
176
     1
 66
     7
176
     1
 43
1.0
176
     1
 76
     1
176
     1
 77
     6
176
     1
 78
     2
176
     1
 67
     7
176
     1
 79
     5
176
     1
170
     0
176
     1
171
     0
176
     1
290
     0
176
     1
 93
        1
176
     1
 44
-50.0
176
     1
173
     0
176
     1
  0
VISUALSTYLE
  5
39
102
{ACAD_REACTORS
330
2A
102
}
330
2A
100
AcDbVisualStyle
  2
Facepattern
 70
    15
177
     2
291
     1
 71
     2
176
     1
 72
     2
176
     1
 73
     0
176
     1
 90
        0
176
     1
 40
-0.6
176
     1
 41
-30.0
176
     1
 62
     5
 63
     7
421
 16777215
176
     1
 74
     1
176
     1
 91
        4
176
     1
 64
     7
176
     1
 65
   257
176
     1
 75
     1
176
     1
175
     1
176
     1
 42
1.0
176
     1
 92
        8
176
     1
 66
     7
176
     1
 43
1.0
176
     1
 76
     1
176
     1
 77
     6
176
     1
 78
     2
176
     1
 67
     7
176
     1
 79
     5
176
     1
170
     0
176
     1
171
     0
176
     1
290
     0
176
     1
 93
        1
176
     1
 44
0.0
176
     1
173
     0
176
     1
  0
VISUALSTYLE
  5
2B
102
{ACAD_REACTORS
330
2A
102
}
330
2A
100
AcDbVisualStyle
  2
Flat
 70
     0
177
     2
291
     1
 71
     2
176
     1
 72
     1
176
     1
 73
     1
176
     1
 90
        2
176
     1
 40
-0.6
176
     1
 41
30.0
176
     1
 62
     5
 63
     7
421
 16777215
176
     1
 74
     0
176
     1
 91
        4
176
     1
 64
     7
176
     1
 65
   257
176
     1
 75
     1
176
     1
175
     1
176
     1
 42
1.0
176
     1
 92
        8
176
     1
 66
     7
176
     1
 43
1.0
176
     1
 76
     1
176
     1
 77
     6
176
     1
 78
     2
176
     1
 67
     7
176
     1
 79
     5
176
     1
170
     0
176
     1
171
     0
176
     1
290
     0
176
     1
 93
       13
176
     1
 44
0.0
176
     1
173
     0
176
     1
  0
VISUALSTYLE
  5
2C
102
{ACAD_REACTORS
330
2A
102
}
330
2A
100
AcDbVisualStyle
  2
FlatWithEdges
 70
     1
177
     2
291
     1
 71
     2
176
     1
 72
     1
176
     1
 73
     1
176
     1
 90
        2
176
     1
 40
-0.6
176
     1
 41
30.0
176
     1
 62
     5
 63
     7
421
 16777215
176
     1
 74
     1
176
     1
 91
        4
176
     1
 64
     7
176
     1
 65
   257
176
     1
 75
     1
176
     1
175
     1
176
     1
 42
1.0
176
     1
 92
        0
176
     1
 66
   257
176
     1
 43
1.0
176
     1
 76
     1
176
     1
 77
     6
176
     1
 78
     2
176
     1
 67
     7
176
     1
 79
     5
176
     1
170
     0
176
     1
171
     0
176
     1
290
     0
176
     1
 93
       13
176
     1
 44
0.0
176
     1
173
     0
176
     1
  0
VISUALSTYLE
  5
2D
102
{ACAD_REACTORS
330
2A
102
}
330
2A
100
AcDbVisualStyle
  2
Gouraud
 70
     2
177
     2
291
     1
 71
     2
176
     1
 72
     2
176
     1
 73
     1
176
     1
 90
        2
176
     1
 40
-0.6
176
     1
 41
30.0
176
     1
 62
     5
 63
     7
421
 16777215
176
     1
 74
     0
176
     1
 91
        4
176
     1
 64
     7
176
     1
 65
   257
176
     1
 75
     1
176
     1
175
     1
176
     1
 42
1.0
176
     1
 92
        0
176
     1
 66
     7
176
     1
 43
1.0
176
     1
 76
     1
176
     1
 77
     6
176
     1
 78
     2
176
     1
 67
     7
176
     1
 79
     5
176
     1
170
     0
176
     1
171
     0
176
     1
290
     0
176
     1
 93
       13
176
     1
 44
0.0
176
     1
173
     0
176
     1
  0
VISUALSTYLE
  5
2E
102
{ACAD_REACTORS
330
2A
102
}
330
2A
100
AcDbVisualStyle
  2
GouraudWithEdges
 70
     3
177
     2
291
     1
 71
     2
176
     1
 72
     2
176
     1
 73
     1
176
     1
 90
        2
176
     1
 40
-0.6
176
     1
 41
30.0
176
     1
 62
     5
 63
     7
421
 16777215
176
     1
 74
     1
176
     1
 91
        4
176
     1
 64
     7
176
     1
 65
   257
176
     1
 75
     1
176
     1
175
     1
176
     1
 42
1.0
176
     1
 92
        0
176
     1
 66
   257
176
     1
 43
1.0
176
     1
 76
     1
176
     1
 77
     6
176
     1
 78
     2
176
     1
 67
     7
176
     1
 79
     5
176
     1
170
     0
176
     1
171
     0
176
     1
290
     0
176
     1
 93
       13
176
     1
 44
0.0
176
     1
173
     0
176
     1
  0
VISUALSTYLE
  5
38
102
{ACAD_REACTORS
330
2A
102
}
330
2A
100
AcDbVisualStyle
  2
Linepattern
 70
    14
177
     2
291
     1
 71
     2
176
     1
 72
     2
176
     1
 73
     0
176
     1
 90
        0
176
     1
 40
-0.6
176
     1
 41
-30.0
176
     1
 62
     5
 63
     7
421
 16777215
176
     1
 74
     1
176
     1
 91
        4
176
     1
 64
     7
176
     1
 65
   257
176
     1
 75
     7
176
     1
175
     7
176
     1
 42
1.0
176
     1
 92
        8
176
     1
 66
     7
176
     1
 43
1.0
176
     1
 76
     1
176
     1
 77
     6
176
     1
 78
     2
176
     1
 67
     7
176
     1
 79
     5
176
     1
170
     0
176
     1
171
     0
176
     1
290
     0
176
     1
 93
        1
176
     1
 44
0.0
176
     1
173
     0
176
     1
  0
VISUALSTYLE
  5
33
102
{ACAD_REACTORS
330
2A
102
}
330
2A
100
AcDbVisualStyle
  2
Realistic
 70
     8
177
     2
291
     0
 71
     2
176
     1
 72
     2
176
     1
 73
     0
176
     1
 90
        0
176
     1
 40
-0.6
176
     1
 41
-30.0
176
     1
 62
     5
 63
     7
421
 16777215
176
     1
 74
     1
176
     1
 91
        0
176
     1
 64
     7
176
     1
 65
   257
176
     1
 75
     1
176
     1
175
     1
176
     1
 42
1.0
176
     1
 92
        8
176
     1
 66
     8
424
  7895160
176
     1
 43
1.0
176
     1
 76
     1
176
     1
 77
     6
176
     1
 78
     2
176
     1
 67
     7
176
     1
 79
     5
176
     1
170
     0
176
     1
171
     0
176
     1
290
     0
176
     1
 93
       13
176
     1
 44
0.0
176
     1
173
     0
176
     1
  0
VISUALSTYLE
  5
37
102
{ACAD_REACTORS
330
2A
102
}
330
2A
100
AcDbVisualStyle
  2
Thicken
 70
    13
177
     2
291
     1
 71
     2
176
     1
 72
     2
176
     1
 73
     0
176
     1
 90
        0
176
     1
 40
-0.6
176
     1
 41
-30.0
176
     1
 62
     5
 63
     7
421
 16777215
176
     1
 74
     1
176
     1
 91
        4
176
     1
 64
     7
176
     1
 65
   257
176
     1
 75
     1
176
     1
175
     1
176
     1
 42
1.0
176
     1
 92
       12
176
     1
 66
     7
176
     1
 43
1.0
176
     1
 76
     1
176
     1
 77
     6
176
     1
 78
     2
176
     1
 67
     7
176
     1
 79
     5
176
     1
170
     0
176
     1
171
     0
176
     1
290
     0
176
     1
 93
        1
176
     1
 44
0.0
176
     1
173
     0
176
     1
  0
ENDSEC
  0
EOF
