  0
SECTION
  2
HEADER
  9
$ACADVER
  1
AC1021
  9
$ACADMAINTVER
 70
    25
  9
$DWGCODEPAGE
  3
ANSI_1251
  9
$INSBASE
 10
0.0
 20
0.0
 30
0.0
  9
$EXTMIN
 10
-97.6
 20
-147.6
 30
0.0
  9
$EXTMAX
 10
97.6
 20
147.6
 30
0.0
  9
$LIMMIN
 10
0.0
 20
0.0
  9
$LIMMAX
 10
12.0
 20
9.0
  9
$ORTHOMODE
 70
     0
  9
$REGENMODE
 70
     1
  9
$FILLMODE
 70
     1
  9
$QTEXTMODE
 70
     0
  9
$MIRRTEXT
 70
     1
  9
$LTSCALE
 40
1.0
  9
$ATTMODE
 70
     1
  9
$TEXTSIZE
 40
0.2
  9
$TRACEWID
 40
0.05
  9
$TEXTSTYLE
  7
Standard
  9
$CLAYER
  8
0
  9
$CELTYPE
  6
ByLayer
  9
$CECOLOR
 62
   256
  9
$CELTSCALE
 40
1.0
  9
$DISPSILH
 70
     0
  9
$DIMSCALE
 40
1.0
  9
$DIMASZ
 40
0.18
  9
$DIMEXO
 40
0.0625
  9
$DIMDLI
 40
0.38
  9
$DIMRND
 40
0.0
  9
$DIMDLE
 40
0.0
  9
$DIMEXE
 40
0.18
  9
$DIMTP
 40
0.0
  9
$DIMTM
 40
0.0
  9
$DIMTXT
 40
0.18
  9
$DIMCEN
 40
0.09
  9
$DIMTSZ
 40
0.0
  9
$DIMTOL
 70
     0
  9
$DIMLIM
 70
     0
  9
$DIMTIH
 70
     1
  9
$DIMTOH
 70
     1
  9
$DIMSE1
 70
     0
  9
$DIMSE2
 70
     0
  9
$DIMTAD
 70
     0
  9
$DIMZIN
 70
     0
  9
$DIMBLK
  1

  9
$DIMASO
 70
     1
  9
$DIMSHO
 70
     1
  9
$DIMPOST
  1

  9
$DIMAPOST
  1

  9
$DIMALT
 70
     0
  9
$DIMALTD
 70
     2
  9
$DIMALTF
 40
25.4
  9
$DIMLFAC
 40
1.0
  9
$DIMTOFL
 70
     0
  9
$DIMTVP
 40
0.0
  9
$DIMTIX
 70
     0
  9
$DIMSOXD
 70
     0
  9
$DIMSAH
 70
     0
  9
$DIMBLK1
  1

  9
$DIMBLK2
  1

  9
$DIMSTYLE
  2
Standard
  9
$DIMCLRD
 70
     0
  9
$DIMCLRE
 70
     0
  9
$DIMCLRT
 70
     0
  9
$DIMTFAC
 40
1.0
  9
$DIMGAP
 40
0.09
  9
$DIMJUST
 70
     0
  9
$DIMSD1
 70
     0
  9
$DIMSD2
 70
     0
  9
$DIMTOLJ
 70
     1
  9
$DIMTZIN
 70
     0
  9
$DIMALTZ
 70
     0
  9
$DIMALTTZ
 70
     0
  9
$DIMUPT
 70
     0
  9
$DIMDEC
 70
     4
  9
$DIMTDEC
 70
     4
  9
$DIMALTU
 70
     2
  9
$DIMALTTD
 70
     2
  9
$DIMTXSTY
  7
Standard
  9
$DIMAUNIT
 70
     0
  9
$DIMADEC
 70
     0
  9
$DIMALTRND
 40
0.0
  9
$DIMAZIN
 70
     0
  9
$DIMDSEP
 70
    46
  9
$DIMATFIT
 70
     3
  9
$DIMFRAC
 70
     0
  9
$DIMLDRBLK
  1

  9
$DIMLUNIT
 70
     2
  9
$DIMLWD
 70
    -2
  9
$DIMLWE
 70
    -2
  9
$DIMTMOVE
 70
     0
  9
$DIMFXL
 40
1.0
  9
$DIMFXLON
 70
     0
  9
$DIMJOGANG
 40
0.7853981633974483
  9
$DIMTFILL
 70
     0
  9
$DIMTFILLCLR
 70
     0
  9
$DIMARCSYM
 70
     0
  9
$DIMLTYPE
  6

  9
$DIMLTEX1
  6

  9
$DIMLTEX2
  6

  9
$LUNITS
 70
     2
  9
$LUPREC
 70
     4
  9
$SKETCHINC
 40
0.1
  9
$FILLETRAD
 40
0.5
  9
$AUNITS
 70
     0
  9
$AUPREC
 70
     0
  9
$MENU
  1
.
  9
$ELEVATION
 40
0.0
  9
$PELEVATION
 40
0.0
  9
$THICKNESS
 40
0.0
  9
$LIMCHECK
 70
     0
  9
$CHAMFERA
 40
0.0
  9
$CHAMFERB
 40
0.0
  9
$CHAMFERC
 40
0.0
  9
$CHAMFERD
 40
0.0
  9
$SKPOLY
 70
     0
  9
$TDCREATE
 40
2458500.939054722
  9
$TDUCREATE
 40
2458500.814054722
  9
$TDUPDATE
 40
2458500.939054722
  9
$TDUUPDATE
 40
2458500.814054722
  9
$TDINDWG
 40
0.0000000116
  9
$TDUSRTIMER
 40
0.0000000116
  9
$USRTIMER
 70
     1
  9
$ANGBASE
 50
0.0
  9
$ANGDIR
 70
     0
  9
$PDMODE
 70
     0
  9
$PDSIZE
 40
0.0
  9
$PLINEWID
 40
0.0
  9
$SPLFRAME
 70
     0
  9
$SPLINETYPE
 70
     6
  9
$SPLINESEGS
 70
     8
  9
$HANDSEED
  5
CB
  9
$SURFTAB1
 70
     6
  9
$SURFTAB2
 70
     6
  9
$SURFTYPE
 70
     6
  9
$SURFU
 70
     6
  9
$SURFV
 70
     6
  9
$UCSBASE
  2

  9
$UCSNAME
  2

  9
$UCSORG
 10
0.0
 20
0.0
 30
0.0
  9
$UCSXDIR
 10
1.0
 20
0.0
 30
0.0
  9
$UCSYDIR
 10
0.0
 20
1.0
 30
0.0
  9
$UCSORTHOREF
  2

  9
$UCSORTHOVIEW
 70
     0
  9
$UCSORGTOP
 10
0.0
 20
0.0
 30
0.0
  9
$UCSORGBOTTOM
 10
0.0
 20
0.0
 30
0.0
  9
$UCSORGLEFT
 10
0.0
 20
0.0
 30
0.0
  9
$UCSORGRIGHT
 10
0.0
 20
0.0
 30
0.0
  9
$UCSORGFRONT
 10
0.0
 20
0.0
 30
0.0
  9
$UCSORGBACK
 10
0.0
 20
0.0
 30
0.0
  9
$PUCSBASE
  2

  9
$PUCSNAME
  2

  9
$PUCSORG
 10
0.0
 20
0.0
 30
0.0
  9
$PUCSXDIR
 10
1.0
 20
0.0
 30
0.0
  9
$PUCSYDIR
 10
0.0
 20
1.0
 30
0.0
  9
$PUCSORTHOREF
  2

  9
$PUCSORTHOVIEW
 70
     0
  9
$PUCSORGTOP
 10
0.0
 20
0.0
 30
0.0
  9
$PUCSORGBOTTOM
 10
0.0
 20
0.0
 30
0.0
  9
$PUCSORGLEFT
 10
0.0
 20
0.0
 30
0.0
  9
$PUCSORGRIGHT
 10
0.0
 20
0.0
 30
0.0
  9
$PUCSORGFRONT
 10
0.0
 20
0.0
 30
0.0
  9
$PUCSORGBACK
 10
0.0
 20
0.0
 30
0.0
  9
$USERI1
 70
     0
  9
$USERI2
 70
     0
  9
$USERI3
 70
     0
  9
$USERI4
 70
     0
  9
$USERI5
 70
     0
  9
$USERR1
 40
0.0
  9
$USERR2
 40
0.0
  9
$USERR3
 40
0.0
  9
$USERR4
 40
0.0
  9
$USERR5
 40
0.0
  9
$WORLDVIEW
 70
     1
  9
$SHADEDGE
 70
     3
  9
$SHADEDIF
 70
    70
  9
$TILEMODE
 70
     1
  9
$MAXACTVP
 70
    64
  9
$PINSBASE
 10
0.0
 20
0.0
 30
0.0
  9
$PLIMCHECK
 70
     0
  9
$PEXTMIN
 10
1.000000000000000E+20
 20
1.000000000000000E+20
 30
1.000000000000000E+20
  9
$PEXTMAX
 10
-1.000000000000000E+20
 20
-1.000000000000000E+20
 30
-1.000000000000000E+20
  9
$PLIMMIN
 10
0.0
 20
0.0
  9
$PLIMMAX
 10
12.0
 20
9.0
  9
$UNITMODE
 70
     0
  9
$VISRETAIN
 70
     1
  9
$PLINEGEN
 70
     0
  9
$PSLTSCALE
 70
     1
  9
$TREEDEPTH
 70
  3020
  9
$CMLSTYLE
  2
Standard
  9
$CMLJUST
 70
     0
  9
$CMLSCALE
 40
1.0
  9
$PROXYGRAPHICS
 70
     1
  9
$MEASUREMENT
 70
     0
  9
$CELWEIGHT
370
    -1
  9
$ENDCAPS
280
     0
  9
$JOINSTYLE
280
     0
  9
$LWDISPLAY
290
     0
  9
$INSUNITS
 70
     4
  9
$HYPERLINKBASE
  1

  9
$STYLESHEET
  1

  9
$XEDIT
290
     1
  9
$CEPSNTYPE
380
     0
  9
$PSTYLEMODE
290
     1
  9
$FINGERPRINTGUID
  2
{A146AECB-27E4-4E5D-904A-4FDA2119CE7F}
  9
$VERSIONGUID
  2
{FAEB1C32-E019-11D5-929B-00C0DF256EC4}
  9
$EXTNAMES
290
     1
  9
$PSVPSCALE
 40
0.0
  9
$OLESTARTUP
290
     0
  9
$SORTENTS
280
   127
  9
$INDEXCTL
280
     0
  9
$HIDETEXT
280
     1
  9
$XCLIPFRAME
290
     0
  9
$HALOGAP
280
     0
  9
$OBSCOLOR
 70
   257
  9
$OBSLTYPE
280
     0
  9
$INTERSECTIONDISPLAY
280
     0
  9
$INTERSECTIONCOLOR
 70
   257
  9
$DIMASSOC
280
     2
  9
$PROJECTNAME
  1

  9
$CAMERADISPLAY
290
     0
  9
$LENSLENGTH
 40
50.0
  9
$CAMERAHEIGHT
 40
0.0
  9
$STEPSPERSEC
 40
2.0
  9
$STEPSIZE
 40
6.0
  9
$3DDWFPREC
 40
2.0
  9
$PSOLWIDTH
 40
0.25
  9
$PSOLHEIGHT
 40
4.0
  9
$LOFTANG1
 40
1.570796326794897
  9
$LOFTANG2
 40
1.570796326794897
  9
$LOFTMAG1
 40
0.0
  9
$LOFTMAG2
 40
0.0
  9
$LOFTPARAM
 70
     7
  9
$LOFTNORMALS
280
     1
  9
$LATITUDE
 40
37.795
  9
$LONGITUDE
 40
-122.394
  9
$NORTHDIRECTION
 40
0.0
  9
$TIMEZONE
 70
 -8000
  9
$LIGHTGLYPHDISPLAY
280
     1
  9
$TILEMODELIGHTSYNCH
280
     1
  9
$CMATERIAL
347
44
  9
$SOLIDHIST
280
     1
  9
$SHOWHIST
280
     1
  9
$DWFFRAME
280
     2
  9
$DGNFRAME
280
     2
  9
$REALWORLDSCALE
290
     1
  9
$INTERFERECOLOR
 62
   256
  9
$CSHADOW
280
     0
  9
$SHADOWPLANELOCATION
 40
0.0
  0
ENDSEC
  0
SECTION
  2
CLASSES
  0
CLASS
  1
ACDBDICTIONARYWDFLT
  2
AcDbDictionaryWithDefault
  3
ObjectDBX Classes
 90
        0
 91
        4
280
     0
281
     0
  0
CLASS
  1
VISUALSTYLE
  2
AcDbVisualStyle
  3
ObjectDBX Classes
 90
     4095
 91
        4
280
     0
281
     0
  0
CLASS
  1
MATERIAL
  2
AcDbMaterial
  3
ObjectDBX Classes
 90
     1153
 91
        4
280
     0
281
     0
  0
CLASS
  1
SCALE
  2
AcDbScale
  3
ObjectDBX Classes
 90
     1153
 91
        4
280
     0
281
     0
  0
CLASS
  1
SUN
  2
AcDbSun
  3
SCENEOE
 90
     1153
 91
        4
280
     0
281
     0
  0
CLASS
  1
DICTIONARYVAR
  2
AcDbDictionaryVar
  3
ObjectDBX Classes
 90
        0
 91
        4
280
     0
281
     0
  0
ENDSEC
  0
SECTION
  2
TABLES
  0
TABLE
  2
VPORT
  5
8
330
0
100
AcDbSymbolTable
 70
     1
  0
VPORT
  5
29
330
8
100
AcDbSymbolTableRecord
100
AcDbViewportTableRecord
  2
*Active
 70
     0
 10
0.0
 20
0.0
 11
1.0
 21
1.0
 12
10.42990654205607
 22
4.5
 13
0.0
 23
0.0
 14
0.5
 24
0.5
 15
0.5
 25
0.5
 16
0.0
 26
0.0
 36
1.0
 17
0.0
 27
0.0
 37
0.0
 40
9.0
 41
1.972972972850329
 42
50.0
 43
0.0
 44
0.0
 50
0.0
 51
0.0
 71
     0
 72
   100
 73
     1
 74
     3
 75
     0
 76
     0
 77
     0
 78
     0
281
     0
 65
     1
110
0.0
120
0.0
130
0.0
111
1.0
121
0.0
131
0.0
112
0.0
122
1.0
132
0.0
 79
     0
146
0.0
 60
     3
 61
     5
292
     1
282
     1
141
0.0
142
0.0
 63
   250
361
69
  0
ENDTAB
  0
TABLE
  2
LTYPE
  5
5
330
0
100
AcDbSymbolTable
 70
     1
  0
LTYPE
  5
14
330
5
100
AcDbSymbolTableRecord
100
AcDbLinetypeTableRecord
  2
ByBlock
 70
     0
  3

 72
    65
 73
     0
 40
0.0
  0
LTYPE
  5
15
330
5
100
AcDbSymbolTableRecord
100
AcDbLinetypeTableRecord
  2
ByLayer
 70
     0
  3

 72
    65
 73
     0
 40
0.0
  0
LTYPE
  5
16
330
5
100
AcDbSymbolTableRecord
100
AcDbLinetypeTableRecord
  2
Continuous
 70
     0
  3
Solid line
 72
    65
 73
     0
 40
0.0
  0
ENDTAB
  0
TABLE
  2
LAYER
  5
2
330
0
100
AcDbSymbolTable
 70
     3
  0
LAYER
  5
10
330
2
100
AcDbSymbolTableRecord
100
AcDbLayerTableRecord
  2
0
 70
     0
 62
     7
  6
Continuous
370
    -3
390
F
347
46
  0
LAYER
  5
6B
330
2
100
AcDbSymbolTableRecord
100
AcDbLayerTableRecord
  2
layer 1
 70
     0
 62
     7
  6
Continuous
370
    -3
390
F
347
46
  0
LAYER
  5
6D
330
2
100
AcDbSymbolTableRecord
100
AcDbLayerTableRecord
  2
layer 2
 70
     0
 62
     7
  6
Continuous
370
    -3
390
F
347
46
  0
ENDTAB
  0
TABLE
  2
STYLE
  5
3
330
0
100
AcDbSymbolTable
 70
     1
  0
STYLE
  5
11
330
3
100
AcDbSymbolTableRecord
100
AcDbTextStyleTableRecord
  2
Standard
 70
     0
 40
0.0
 41
1.0
 50
0.0
 71
     0
 42
0.2
  3
txt
  4

  0
ENDTAB
  0
TABLE
  2
VIEW
  5
6
330
0
100
AcDbSymbolTable
 70
     0
  0
ENDTAB
  0
TABLE
  2
UCS
  5
7
330
0
100
AcDbSymbolTable
 70
     0
  0
ENDTAB
  0
TABLE
  2
APPID
  5
9
330
0
100
AcDbSymbolTable
 70
     2
  0
APPID
  5
12
330
9
100
AcDbSymbolTableRecord
100
AcDbRegAppTableRecord
  2
ACAD
 70
     0
  0
APPID
  5
6A
330
9
100
AcDbSymbolTableRecord
100
AcDbRegAppTableRecord
  2
ODA
 70
     0
  0
ENDTAB
  0
TABLE
  2
DIMSTYLE
  5
A
330
0
100
AcDbSymbolTable
 70
     1
100
AcDbDimStyleTable
  0
DIMSTYLE
105
27
330
A
100
AcDbSymbolTableRecord
100
AcDbDimStyleTableRecord
  2
Standard
 70
     0
178
     0
340
11
  0
ENDTAB
  0
TABLE
  2
BLOCK_RECORD
  5
1
330
0
100
AcDbSymbolTable
 70
     1
  0
BLOCK_RECORD
  5
1F
330
1
100
AcDbSymbolTableRecord
100
AcDbBlockTableRecord
  2
*Model_Space
340
22
 70
     0
280
     1
281
     0
  0
BLOCK_RECORD
  5
1B
330
1
100
AcDbSymbolTableRecord
100
AcDbBlockTableRecord
  2
*Paper_Space
340
1E
 70
     0
280
     1
281
     0
  0
BLOCK_RECORD
  5
23
330
1
100
AcDbSymbolTableRecord
100
AcDbBlockTableRecord
  2
*Paper_Space0
340
26
 70
     0
280
     1
281
     0
  0
ENDTAB
  0
ENDSEC
  0
SECTION
  2
BLOCKS
  0
BLOCK
  5
20
330
1F
100
AcDbEntity
  8
0
100
AcDbBlockBegin
  2
*Model_Space
 70
     0
 10
0.0
 20
0.0
 30
0.0
  3
*Model_Space
  1
*Model_Space
  0
ENDBLK
  5
21
330
1F
100
AcDbEntity
  8
0
100
AcDbBlockEnd
  0
BLOCK
  5
1C
330
1B
100
AcDbEntity
 67
     1
  8
0
100
AcDbBlockBegin
  2
*Paper_Space
 70
     0
 10
0.0
 20
0.0
 30
0.0
  3
*Paper_Space
  1
*Paper_Space
  0
ENDBLK
  5
1D
330
1B
100
AcDbEntity
 67
     1
  8
0
100
AcDbBlockEnd
  0
BLOCK
  5
24
330
23
100
AcDbEntity
  8
0
100
AcDbBlockBegin
  2
*Paper_Space0
 70
     0
 10
0.0
 20
0.0
 30
0.0
  3
*Paper_Space0
  1
*Paper_Space0
  0
ENDBLK
  5
25
330
23
100
AcDbEntity
  8
0
100
AcDbBlockEnd
  0
ENDSEC
  0
SECTION
  2
ENTITIES
  0
LWPOLYLINE
  5
6C
330
1F
100
AcDbEntity
  8
layer 1
370
    20
100
AcDbPolyline
 90
        5
 70
     1
 43
0.0
 10
-97.5
 20
-147.5
 10
97.5
 20
-147.5
 10
97.5
 20
147.5
 10
-97.5
 20
147.5
 10
-97.5
 20
-147.5
  0
SPLINE
  5
6E
330
1F
100
AcDbEntity
  8
layer 2
100
AcDbSpline
210
0.0
220
0.0
230
1.0
 70
    11
 71
     3
 72
    92
 73
    88
 74
     0
 42
0.000000001
 43
0.0000000001
 40
0.0
 40
0.0
 40
0.0
 40
0.0
 40
0.0434782608695652
 40
0.0434782608695652
 40
0.0434782608695652
 40
0.0434782608695652
 40
0.0869565217391304
 40
0.0869565217391304
 40
0.0869565217391304
 40
0.0869565217391304
 40
0.1304347826086956
 40
0.1304347826086956
 40
0.1304347826086956
 40
0.1304347826086956
 40
0.1739130434782609
 40
0.1739130434782609
 40
0.1739130434782609
 40
0.1739130434782609
 40
0.2173913043478261
 40
0.2173913043478261
 40
0.2173913043478261
 40
0.2173913043478261
 40
0.2608695652173913
 40
0.2608695652173913
 40
0.2608695652173913
 40
0.2608695652173913
 40
0.3043478260869565
 40
0.3043478260869565
 40
0.3043478260869565
 40
0.3043478260869565
 40
0.3478260869565217
 40
0.3478260869565217
 40
0.3478260869565217
 40
0.3478260869565217
 40
0.391304347826087
 40
0.391304347826087
 40
0.391304347826087
 40
0.391304347826087
 40
0.4347826086956522
 40
0.4347826086956522
 40
0.4347826086956522
 40
0.4347826086956522
 40
0.4782608695652174
 40
0.4782608695652174
 40
0.4782608695652174
 40
0.4782608695652174
 40
0.5217391304347826
 40
0.5217391304347826
 40
0.5217391304347826
 40
0.5217391304347826
 40
0.5652173913043478
 40
0.5652173913043478
 40
0.5652173913043478
 40
0.5652173913043478
 40
0.6086956521739131
 40
0.6086956521739131
 40
0.6086956521739131
 40
0.6086956521739131
 40
0.6521739130434783
 40
0.6521739130434783
 40
0.6521739130434783
 40
0.6521739130434783
 40
0.6956521739130435
 40
0.6956521739130435
 40
0.6956521739130435
 40
0.6956521739130435
 40
0.7391304347826086
 40
0.7391304347826086
 40
0.7391304347826086
 40
0.7391304347826086
 40
0.782608695652174
 40
0.782608695652174
 40
0.782608695652174
 40
0.782608695652174
 40
0.8260869565217391
 40
0.8260869565217391
 40
0.8260869565217391
 40
0.8260869565217391
 40
0.8695652173913043
 40
0.8695652173913043
 40
0.8695652173913043
 40
0.8695652173913043
 40
0.9130434782608695
 40
0.9130434782608695
 40
0.9130434782608695
 40
0.9130434782608695
 40
1.0
 40
1.0
 40
1.0
 40
1.0
 10
26.7693
 20
56.2914
 30
0.0
 10
38.0263
 20
44.8198
 30
0.0
 10
32.1999
 20
26.3103
 30
0.0
 10
19.7602
 20
18.1106
 30
0.0
 10
19.7602
 20
18.1106
 30
0.0
 10
18.9853
 20
17.5997
 30
0.0
 10
16.4034
 20
16.2564
 30
0.0
 10
15.6308
 20
16.036
 30
0.0
 10
15.6308
 20
16.036
 30
0.0
 10
14.1601
 20
15.6165
 30
0.0
 10
12.1209
 20
14.9738
 30
0.0
 10
10.6844
 20
15.2989
 30
0.0
 10
10.6844
 20
15.2989
 30
0.0
 10
10.204
 20
17.1066
 30
0.0
 10
13.4797
 20
16.4748
 30
0.0
 10
14.7953
 20
17.186
 30
0.0
 10
14.7953
 20
17.186
 30
0.0
 10
15.5674
 20
17.6033
 30
0.0
 10
15.4298
 20
17.378
 30
0.0
 10
15.8307
 20
18.114
 30
0.0
 10
15.8307
 20
18.114
 30
0.0
 10
16.488
 20
19.3206
 30
0.0
 10
16.9179
 20
19.5238
 30
0.0
 10
17.7173
 20
20.3048
 30
0.0
 10
17.7173
 20
20.3048
 30
0.0
 10
39.6493
 20
41.7358
 30
0.0
 10
21.2169
 20
52.5128
 30
0.0
 10
21.9737
 20
55.0025
 30
0.0
 10
21.9737
 20
55.0025
 30
0.0
 10
23.1323
 20
54.9898
 30
0.0
 10
26.1843
 20
51.8638
 30
0.0
 10
27.2047
 20
50.9855
 30
0.0
 10
27.2047
 20
50.9855
 30
0.0
 10
28.271
 20
50.0433
 30
0.0
 10
28.2843
 20
49.689
 30
0.0
 10
28.9779
 20
49.8119
 30
0.0
 10
28.9779
 20
49.8119
 30
0.0
 10
28.8321
 20
51.0984
 30
0.0
 10
24.9923
 20
53.0645
 30
0.0
 10
23.7981
 20
56.3382
 30
0.0
 10
23.7981
 20
56.3382
 30
0.0
 10
20.667
 20
57.0455
 30
0.0
 10
22.6741
 20
56.8421
 30
0.0
 10
20.6532
 20
58.0277
 30
0.0
 10
20.6532
 20
58.0277
 30
0.0
 10
19.5481
 20
58.6758
 30
0.0
 10
13.2481
 20
61.1661
 30
0.0
 10
12.6921
 20
62.1545
 30
0.0
 10
12.6921
 20
62.1545
 30
0.0
 10
12.3352
 20
62.7652
 30
0.0
 10
12.78
 20
63.3561
 30
0.0
 10
12.6059
 20
64.1703
 30
0.0
 10
12.6059
 20
64.1703
 30
0.0
 10
11.9682
 20
64.2812
 30
0.0
 10
12.0178
 20
64.0552
 30
0.0
 10
11.5029
 20
63.824
 30
0.0
 10
11.5029
 20
63.824
 30
0.0
 10
10.0465
 20
64.373
 30
0.0
 10
8.7341
 20
67.1584
 30
0.0
 10
8.0545
 20
68.5366
 30
0.0
 10
8.0545
 20
68.5366
 30
0.0
 10
8.0545
 20
68.5366
 30
0.0
 10
6.8994
 20
71.4619
 30
0.0
 10
6.8994
 20
71.4619
 30
0.0
 10
6.8994
 20
71.4619
 30
0.0
 10
6.8994
 20
71.4619
 30
0.0
 10
5.8004
 20
76.5404
 30
0.0
 10
5.8004
 20
76.5404
 30
0.0
 10
5.8004
 20
76.5404
 30
0.0
 10
5.8173
 20
77.1442
 30
0.0
 10
6.4823
 20
77.2893
 30
0.0
 10
6.8775
 20
76.8885
 30
0.0
 10
6.8775
 20
76.8885
 30
0.0
 10
7.0374
 20
76.7263
 30
0.0
 10
7.4401
 20
75.628
 30
0.0
 10
7.5124
 20
75.3986
 30
0.0
 10
7.5124
 20
75.3986
 30
0.0
 10
8.0189
 20
73.7923
 30
0.0
 10
9.9337
 20
70.1059
 30
0.0
 10
10.9094
 20
68.8272
 30
0.0
 10
10.9094
 20
68.8272
 30
0.0
 10
12.9445
 20
66.1603
 30
0.0
 10
16.4298
 20
62.5682
 30
0.0
 10
19.3183
 20
61.0745
 30
0.0
 10
19.3183
 20
61.0745
 30
0.0
 10
21.9319
 20
59.7232
 30
0.0
 10
24.7004
 20
58.3993
 30
0.0
 10
26.7693
 20
56.2914
 30
0.0
  0
SPLINE
  5
6F
330
1F
100
AcDbEntity
  8
layer 2
100
AcDbSpline
210
0.0
220
0.0
230
1.0
 70
    11
 71
     3
 72
   220
 73
   216
 74
     0
 42
0.000000001
 43
0.0000000001
 40
0.0
 40
0.0
 40
0.0
 40
0.0
 40
0.0181818181818182
 40
0.0181818181818182
 40
0.0181818181818182
 40
0.0181818181818182
 40
0.0363636363636364
 40
0.0363636363636364
 40
0.0363636363636364
 40
0.0363636363636364
 40
0.0545454545454545
 40
0.0545454545454545
 40
0.0545454545454545
 40
0.0545454545454545
 40
0.0727272727272727
 40
0.0727272727272727
 40
0.0727272727272727
 40
0.0727272727272727
 40
0.0909090909090909
 40
0.0909090909090909
 40
0.0909090909090909
 40
0.0909090909090909
 40
0.1090909090909091
 40
0.1090909090909091
 40
0.1090909090909091
 40
0.1090909090909091
 40
0.1272727272727273
 40
0.1272727272727273
 40
0.1272727272727273
 40
0.1272727272727273
 40
0.1454545454545454
 40
0.1454545454545454
 40
0.1454545454545454
 40
0.1454545454545454
 40
0.1636363636363636
 40
0.1636363636363636
 40
0.1636363636363636
 40
0.1636363636363636
 40
0.1818181818181818
 40
0.1818181818181818
 40
0.1818181818181818
 40
0.1818181818181818
 40
0.2
 40
0.2
 40
0.2
 40
0.2
 40
0.2181818181818182
 40
0.2181818181818182
 40
0.2181818181818182
 40
0.2181818181818182
 40
0.2363636363636364
 40
0.2363636363636364
 40
0.2363636363636364
 40
0.2363636363636364
 40
0.2545454545454545
 40
0.2545454545454545
 40
0.2545454545454545
 40
0.2545454545454545
 40
0.2727272727272727
 40
0.2727272727272727
 40
0.2727272727272727
 40
0.2727272727272727
 40
0.2909090909090909
 40
0.2909090909090909
 40
0.2909090909090909
 40
0.2909090909090909
 40
0.3090909090909091
 40
0.3090909090909091
 40
0.3090909090909091
 40
0.3090909090909091
 40
0.3272727272727273
 40
0.3272727272727273
 40
0.3272727272727273
 40
0.3272727272727273
 40
0.3454545454545455
 40
0.3454545454545455
 40
0.3454545454545455
 40
0.3454545454545455
 40
0.3636363636363636
 40
0.3636363636363636
 40
0.3636363636363636
 40
0.3636363636363636
 40
0.3818181818181818
 40
0.3818181818181818
 40
0.3818181818181818
 40
0.3818181818181818
 40
0.4
 40
0.4
 40
0.4
 40
0.4
 40
0.4181818181818182
 40
0.4181818181818182
 40
0.4181818181818182
 40
0.4181818181818182
 40
0.4363636363636363
 40
0.4363636363636363
 40
0.4363636363636363
 40
0.4363636363636363
 40
0.4545454545454545
 40
0.4545454545454545
 40
0.4545454545454545
 40
0.4545454545454545
 40
0.4727272727272727
 40
0.4727272727272727
 40
0.4727272727272727
 40
0.4727272727272727
 40
0.4909090909090909
 40
0.4909090909090909
 40
0.4909090909090909
 40
0.4909090909090909
 40
0.509090909090909
 40
0.509090909090909
 40
0.509090909090909
 40
0.509090909090909
 40
0.5272727272727272
 40
0.5272727272727272
 40
0.5272727272727272
 40
0.5272727272727272
 40
0.5454545454545454
 40
0.5454545454545454
 40
0.5454545454545454
 40
0.5454545454545454
 40
0.5636363636363636
 40
0.5636363636363636
 40
0.5636363636363636
 40
0.5636363636363636
 40
0.5818181818181818
 40
0.5818181818181818
 40
0.5818181818181818
 40
0.5818181818181818
 40
0.6
 40
0.6
 40
0.6
 40
0.6
 40
0.6181818181818182
 40
0.6181818181818182
 40
0.6181818181818182
 40
0.6181818181818182
 40
0.6363636363636364
 40
0.6363636363636364
 40
0.6363636363636364
 40
0.6363636363636364
 40
0.6545454545454545
 40
0.6545454545454545
 40
0.6545454545454545
 40
0.6545454545454545
 40
0.6727272727272727
 40
0.6727272727272727
 40
0.6727272727272727
 40
0.6727272727272727
 40
0.6909090909090909
 40
0.6909090909090909
 40
0.6909090909090909
 40
0.6909090909090909
 40
0.7090909090909091
 40
0.7090909090909091
 40
0.7090909090909091
 40
0.7090909090909091
 40
0.7272727272727273
 40
0.7272727272727273
 40
0.7272727272727273
 40
0.7272727272727273
 40
0.7454545454545455
 40
0.7454545454545455
 40
0.7454545454545455
 40
0.7454545454545455
 40
0.7636363636363637
 40
0.7636363636363637
 40
0.7636363636363637
 40
0.7636363636363637
 40
0.7818181818181819
 40
0.7818181818181819
 40
0.7818181818181819
 40
0.7818181818181819
 40
0.8
 40
0.8
 40
0.8
 40
0.8
 40
0.8181818181818182
 40
0.8181818181818182
 40
0.8181818181818182
 40
0.8181818181818182
 40
0.8363636363636363
 40
0.8363636363636363
 40
0.8363636363636363
 40
0.8363636363636363
 40
0.8545454545454545
 40
0.8545454545454545
 40
0.8545454545454545
 40
0.8545454545454545
 40
0.8727272727272727
 40
0.8727272727272727
 40
0.8727272727272727
 40
0.8727272727272727
 40
0.8909090909090909
 40
0.8909090909090909
 40
0.8909090909090909
 40
0.8909090909090909
 40
0.9090909090909091
 40
0.9090909090909091
 40
0.9090909090909091
 40
0.9090909090909091
 40
0.9272727272727272
 40
0.9272727272727272
 40
0.9272727272727272
 40
0.9272727272727272
 40
0.9454545454545454
 40
0.9454545454545454
 40
0.9454545454545454
 40
0.9454545454545454
 40
0.9636363636363636
 40
0.9636363636363636
 40
0.9636363636363636
 40
0.9636363636363636
 40
1.0
 40
1.0
 40
1.0
 40
1.0
 10
8.763
 20
24.3797
 30
0.0
 10
12.381
 20
23.0684
 30
0.0
 10
18.8397
 20
25.3524
 30
0.0
 10
19.2352
 20
24.7082
 30
0.0
 10
19.2352
 20
24.7082
 30
0.0
 10
17.1077
 20
21.5426
 30
0.0
 10
4.9458
 20
19.3833
 30
0.0
 10
3.1725
 20
27.8423
 30
0.0
 10
3.1725
 20
27.8423
 30
0.0
 10
2.8879
 20
29.201
 30
0.0
 10
3.1671
 20
34.733
 30
0.0
 10
2.1405
 20
35.0543
 30
0.0
 10
2.1405
 20
35.0543
 30
0.0
 10
1.7416
 20
34.7419
 30
0.0
 10
1.8323
 20
34.8799
 30
0.0
 10
1.7139
 20
34.2041
 30
0.0
 10
1.7139
 20
34.2041
 30
0.0
 10
1.3607
 20
32.0939
 30
0.0
 10
0.9709
 20
27.6876
 30
0.0
 10
0.2745
 20
26.1216
 30
0.0
 10
0.2745
 20
26.1216
 30
0.0
 10
-1.6834
 20
21.7186
 30
0.0
 10
2.3083
 20
21.2723
 30
0.0
 10
-3.4309
 20
17.5936
 30
0.0
 10
-3.4309
 20
17.5936
 30
0.0
 10
-6.706
 20
15.4939
 30
0.0
 10
-9.8423
 20
14.0944
 30
0.0
 10
-13.3871
 20
12.5983
 30
0.0
 10
-13.3871
 20
12.5983
 30
0.0
 10
-16.2101
 20
11.3887
 30
0.0
 10
-20.3029
 20
10.2023
 30
0.0
 10
-23.2639
 20
9.7874
 30
0.0
 10
-23.2639
 20
9.7874
 30
0.0
 10
-25.8846
 20
9.4197
 30
0.0
 10
-28.5872
 20
9.2019
 30
0.0
 10
-31.3085
 20
9.3861
 30
0.0
 10
-31.3085
 20
9.3861
 30
0.0
 10
-34.5324
 20
9.6041
 30
0.0
 10
-35.5502
 20
9.8781
 30
0.0
 10
-37.7832
 20
11.3586
 30
0.0
 10
-37.7832
 20
11.3586
 30
0.0
 10
-39.0578
 20
12.2036
 30
0.0
 10
-39.2284
 20
12.2094
 30
0.0
 10
-40.2236
 20
13.2983
 30
0.0
 10
-40.2236
 20
13.2983
 30
0.0
 10
-42.3338
 20
15.6072
 30
0.0
 10
-43.8181
 20
17.9884
 30
0.0
 10
-45.2157
 20
20.9901
 30
0.0
 10
-45.2157
 20
20.9901
 30
0.0
 10
-45.4434
 20
21.4793
 30
0.0
 10
-45.7211
 20
21.9483
 30
0.0
 10
-45.9978
 20
22.4727
 30
0.0
 10
-45.9978
 20
22.4727
 30
0.0
 10
-46.7388
 20
23.8776
 30
0.0
 10
-47.1489
 20
25.4611
 30
0.0
 10
-47.9254
 20
26.887
 30
0.0
 10
-47.9254
 20
26.887
 30
0.0
 10
-47.9254
 20
26.887
 30
0.0
 10
-50.7473
 20
32.5292
 30
0.0
 10
-50.7473
 20
32.5292
 30
0.0
 10
-50.7473
 20
32.5292
 30
0.0
 10
-53.8951
 20
38.8292
 30
0.0
 10
-52.5419
 20
36.8669
 30
0.0
 10
-54.3688
 20
41.7441
 30
0.0
 10
-54.3688
 20
41.7441
 30
0.0
 10
-54.3688
 20
41.7441
 30
0.0
 10
-55.7229
 20
46.8898
 30
0.0
 10
-55.7229
 20
46.8898
 30
0.0
 10
-55.7229
 20
46.8898
 30
0.0
 10
-56.2568
 20
49.2051
 30
0.0
 10
-56.2799
 20
54.3836
 30
0.0
 10
-56.2801
 20
56.8816
 30
0.0
 10
-56.2801
 20
56.8816
 30
0.0
 10
-56.2803
 20
58.2902
 30
0.0
 10
-56.5535
 20
59.4774
 30
0.0
 10
-55.7356
 20
60.4862
 30
0.0
 10
-55.7356
 20
60.4862
 30
0.0
 10
-54.6311
 20
60.2814
 30
0.0
 10
-52.401
 20
57.7138
 30
0.0
 10
-50.4651
 20
57.284
 30
0.0
 10
-50.4651
 20
57.284
 30
0.0
 10
-48.398
 20
56.8249
 30
0.0
 10
-42.8045
 20
55.7496
 30
0.0
 10
-41.6413
 20
58.2293
 30
0.0
 10
-41.6413
 20
58.2293
 30
0.0
 10
-41.3497
 20
58.8506
 30
0.0
 10
-41.2425
 20
59.8481
 30
0.0
 10
-40.9973
 20
60.2969
 30
0.0
 10
-40.9973
 20
60.2969
 30
0.0
 10
-39.066
 20
60.5768
 30
0.0
 10
-40.1199
 20
56.3581
 30
0.0
 10
-40.469
 20
55.3944
 30
0.0
 10
-40.469
 20
55.3944
 30
0.0
 10
-40.469
 20
55.3944
 30
0.0
 10
-42.0436
 20
50.1723
 30
0.0
 10
-42.0436
 20
50.1723
 30
0.0
 10
-42.0436
 20
50.1723
 30
0.0
 10
-42.3122
 20
49.2694
 30
0.0
 10
-42.9409
 20
48.5776
 30
0.0
 10
-42.9104
 20
47.5214
 30
0.0
 10
-42.9104
 20
47.5214
 30
0.0
 10
-42.9104
 20
47.5214
 30
0.0
 10
-41.2766
 20
42.3024
 30
0.0
 10
-41.2766
 20
42.3024
 30
0.0
 10
-41.2766
 20
42.3024
 30
0.0
 10
-41.088
 20
41.9689
 30
0.0
 10
-40.0619
 20
40.632
 30
0.0
 10
-39.8528
 20
40.4432
 30
0.0
 10
-39.8528
 20
40.4432
 30
0.0
 10
-39.0297
 20
40.412
 30
0.0
 10
-38.8508
 20
40.4858
 30
0.0
 10
-38.4491
 20
40.9898
 30
0.0
 10
-38.4491
 20
40.9898
 30
0.0
 10
-37.4815
 20
42.2038
 30
0.0
 10
-38.0917
 20
42.4014
 30
0.0
 10
-38.8267
 20
43.3939
 30
0.0
 10
-38.8267
 20
43.3939
 30
0.0
 10
-39.474
 20
44.2677
 30
0.0
 10
-40.7591
 20
45.394
 30
0.0
 10
-40.8573
 20
46.4915
 30
0.0
 10
-40.8573
 20
46.4915
 30
0.0
 10
-40.9628
 20
47.6694
 30
0.0
 10
-39.5654
 20
52.0717
 30
0.0
 10
-39.2216
 20
53.5464
 30
0.0
 10
-39.2216
 20
53.5464
 30
0.0
 10
-38.2882
 20
57.5459
 30
0.0
 10
-36.9538
 20
59.1221
 30
0.0
 10
-39.0053
 20
63.457
 30
0.0
 10
-39.0053
 20
63.457
 30
0.0
 10
-39.9918
 20
65.5417
 30
0.0
 10
-45.9765
 20
69.9108
 30
0.0
 10
-48.0954
 20
71.7387
 30
0.0
 10
-48.0954
 20
71.7387
 30
0.0
 10
-49.2203
 20
72.6163
 30
0.0
 10
-51.6252
 20
73.6201
 30
0.0
 10
-52.9303
 20
73.843
 30
0.0
 10
-52.9303
 20
73.843
 30
0.0
 10
-54.4631
 20
74.1049
 30
0.0
 10
-55.3444
 20
73.354
 30
0.0
 10
-55.2616
 20
74.9072
 30
0.0
 10
-55.2616
 20
74.9072
 30
0.0
 10
-46.2428
 20
79.0641
 30
0.0
 10
-13.0183
 20
85.44
 30
0.0
 10
-4.8485
 20
76.777
 30
0.0
 10
-4.8485
 20
76.777
 30
0.0
 10
-1.9593
 20
68.5006
 30
0.0
 10
-0.0091
 20
61.3478
 30
0.0
 10
8.1587
 20
56.7042
 30
0.0
 10
8.1587
 20
56.7042
 30
0.0
 10
9.3662
 20
56.0176
 30
0.0
 10
10.7402
 20
55.7137
 30
0.0
 10
11.8134
 20
55.0761
 30
0.0
 10
11.8134
 20
55.0761
 30
0.0
 10
14.1249
 20
53.7026
 30
0.0
 10
13.0006
 20
53.6125
 30
0.0
 10
12.7166
 20
51.6956
 30
0.0
 10
12.7166
 20
51.6956
 30
0.0
 10
12.4112
 20
49.6334
 30
0.0
 10
16.292
 20
51.9923
 30
0.0
 10
15.692
 20
54.1797
 30
0.0
 10
15.692
 20
54.1797
 30
0.0
 10
15.692
 20
54.1797
 30
0.0
 10
14.5614
 20
54.3385
 30
0.0
 10
14.5614
 20
54.3385
 30
0.0
 10
14.5614
 20
54.3385
 30
0.0
 10
14.6812
 20
55.6102
 30
0.0
 10
16.0197
 20
55.4974
 30
0.0
 10
17.2824
 20
55.257
 30
0.0
 10
17.2824
 20
55.257
 30
0.0
 10
21.742
 20
54.4086
 30
0.0
 10
19.292
 20
49.1276
 30
0.0
 10
17.9059
 20
47.9031
 30
0.0
 10
17.9059
 20
47.9031
 30
0.0
 10
16.4113
 20
46.9791
 30
0.0
 10
12.9165
 20
49.5777
 30
0.0
 10
10.2311
 20
46.978
 30
0.0
 10
10.2311
 20
46.978
 30
0.0
 10
7.2776
 20
44.1184
 30
0.0
 10
6.9699
 20
41.6705
 30
0.0
 10
9.0421
 20
38.1056
 30
0.0
 10
9.0421
 20
38.1056
 30
0.0
 10
10.2613
 20
36.0086
 30
0.0
 10
12.2939
 20
39.0169
 30
0.0
 10
7.8145
 20
30.8137
 30
0.0
 10
7.8145
 20
30.8137
 30
0.0
 10
7.3609
 20
29.983
 30
0.0
 10
7.5492
 20
29.3254
 30
0.0
 10
6.3693
 20
29.3942
 30
0.0
 10
6.3693
 20
29.3942
 30
0.0
 10
5.8778
 20
30.6114
 30
0.0
 10
6.3233
 20
32.1489
 30
0.0
 10
6.0149
 20
32.961
 30
0.0
 10
6.0149
 20
32.961
 30
0.0
 10
4.8374
 20
33.0077
 30
0.0
 10
5.3718
 20
32.4444
 30
0.0
 10
4.599
 20
32.1627
 30
0.0
 10
4.599
 20
32.1627
 30
0.0
 10
4.2631
 20
32.8378
 30
0.0
 10
4.8599
 20
35.0295
 30
0.0
 10
5.005
 20
35.8805
 30
0.0
 10
5.005
 20
35.8805
 30
0.0
 10
5.4313
 20
38.3796
 30
0.0
 10
6.0719
 20
38.1389
 30
0.0
 10
5.5109
 20
39.2084
 30
0.0
 10
5.5109
 20
39.2084
 30
0.0
 10
3.493
 20
38.9968
 30
0.0
 10
3.5435
 20
33.8671
 30
0.0
 10
3.6328
 20
32.256
 30
0.0
 10
3.6328
 20
32.256
 30
0.0
 10
3.6942
 20
31.1464
 30
0.0
 10
4.0265
 20
29.6155
 30
0.0
 10
4.4706
 20
28.7017
 30
0.0
 10
4.4706
 20
28.7017
 30
0.0
 10
5.344
 20
26.9039
 30
0.0
 10
6.8619
 20
25.0686
 30
0.0
 10
8.763
 20
24.3797
 30
0.0
  0
SPLINE
  5
70
330
1F
100
AcDbEntity
  8
layer 2
100
AcDbSpline
210
0.0
220
0.0
230
1.0
 70
    11
 71
     3
 72
    16
 73
    12
 74
     0
 42
0.000000001
 43
0.0000000001
 40
0.0
 40
0.0
 40
0.0
 40
0.0
 40
0.25
 40
0.25
 40
0.25
 40
0.25
 40
0.5
 40
0.5
 40
0.5
 40
0.5
 40
1.0
 40
1.0
 40
1.0
 40
1.0
 10
10.0837
 20
2.2847
 30
0.0
 10
9.484
 20
2.7058
 30
0.0
 10
7.5702
 20
3.6945
 30
0.0
 10
6.5344
 20
4.4835
 30
0.0
 10
6.5344
 20
4.4835
 30
0.0
 10
5.5947
 20
5.1993
 30
0.0
 10
2.897
 20
8.1807
 30
0.0
 10
3.7831
 20
9.0304
 30
0.0
 10
3.7831
 20
9.0304
 30
0.0
 10
4.7802
 20
9.9864
 30
0.0
 10
15.3041
 20
-1.3822
 30
0.0
 10
10.0837
 20
2.2847
 30
0.0
  0
SPLINE
  5
71
330
1F
100
AcDbEntity
  8
layer 2
100
AcDbSpline
210
0.0
220
0.0
230
1.0
 70
    11
 71
     3
 72
   672
 73
   668
 74
     0
 42
0.000000001
 43
0.0000000001
 40
0.0
 40
0.0
 40
0.0
 40
0.0
 40
0.005952380952381
 40
0.005952380952381
 40
0.005952380952381
 40
0.005952380952381
 40
0.0119047619047619
 40
0.0119047619047619
 40
0.0119047619047619
 40
0.0119047619047619
 40
0.0178571428571429
 40
0.0178571428571429
 40
0.0178571428571429
 40
0.0178571428571429
 40
0.0238095238095238
 40
0.0238095238095238
 40
0.0238095238095238
 40
0.0238095238095238
 40
0.0297619047619048
 40
0.0297619047619048
 40
0.0297619047619048
 40
0.0297619047619048
 40
0.0357142857142857
 40
0.0357142857142857
 40
0.0357142857142857
 40
0.0357142857142857
 40
0.0416666666666667
 40
0.0416666666666667
 40
0.0416666666666667
 40
0.0416666666666667
 40
0.0476190476190476
 40
0.0476190476190476
 40
0.0476190476190476
 40
0.0476190476190476
 40
0.0535714285714286
 40
0.0535714285714286
 40
0.0535714285714286
 40
0.0535714285714286
 40
0.0595238095238095
 40
0.0595238095238095
 40
0.0595238095238095
 40
0.0595238095238095
 40
0.0654761904761905
 40
0.0654761904761905
 40
0.0654761904761905
 40
0.0654761904761905
 40
0.0714285714285714
 40
0.0714285714285714
 40
0.0714285714285714
 40
0.0714285714285714
 40
0.0773809523809524
 40
0.0773809523809524
 40
0.0773809523809524
 40
0.0773809523809524
 40
0.0833333333333333
 40
0.0833333333333333
 40
0.0833333333333333
 40
0.0833333333333333
 40
0.0892857142857143
 40
0.0892857142857143
 40
0.0892857142857143
 40
0.0892857142857143
 40
0.0952380952380952
 40
0.0952380952380952
 40
0.0952380952380952
 40
0.0952380952380952
 40
0.1011904761904762
 40
0.1011904761904762
 40
0.1011904761904762
 40
0.1011904761904762
 40
0.1071428571428571
 40
0.1071428571428571
 40
0.1071428571428571
 40
0.1071428571428571
 40
0.1130952380952381
 40
0.1130952380952381
 40
0.1130952380952381
 40
0.1130952380952381
 40
0.119047619047619
 40
0.119047619047619
 40
0.119047619047619
 40
0.119047619047619
 40
0.125
 40
0.125
 40
0.125
 40
0.125
 40
0.130952380952381
 40
0.130952380952381
 40
0.130952380952381
 40
0.130952380952381
 40
0.1369047619047619
 40
0.1369047619047619
 40
0.1369047619047619
 40
0.1369047619047619
 40
0.1428571428571428
 40
0.1428571428571428
 40
0.1428571428571428
 40
0.1428571428571428
 40
0.1488095238095238
 40
0.1488095238095238
 40
0.1488095238095238
 40
0.1488095238095238
 40
0.1547619047619048
 40
0.1547619047619048
 40
0.1547619047619048
 40
0.1547619047619048
 40
0.1607142857142857
 40
0.1607142857142857
 40
0.1607142857142857
 40
0.1607142857142857
 40
0.1666666666666667
 40
0.1666666666666667
 40
0.1666666666666667
 40
0.1666666666666667
 40
0.1726190476190476
 40
0.1726190476190476
 40
0.1726190476190476
 40
0.1726190476190476
 40
0.1785714285714286
 40
0.1785714285714286
 40
0.1785714285714286
 40
0.1785714285714286
 40
0.1845238095238095
 40
0.1845238095238095
 40
0.1845238095238095
 40
0.1845238095238095
 40
0.1904761904761905
 40
0.1904761904761905
 40
0.1904761904761905
 40
0.1904761904761905
 40
0.1964285714285714
 40
0.1964285714285714
 40
0.1964285714285714
 40
0.1964285714285714
 40
0.2023809523809524
 40
0.2023809523809524
 40
0.2023809523809524
 40
0.2023809523809524
 40
0.2083333333333333
 40
0.2083333333333333
 40
0.2083333333333333
 40
0.2083333333333333
 40
0.2142857142857143
 40
0.2142857142857143
 40
0.2142857142857143
 40
0.2142857142857143
 40
0.2202380952380952
 40
0.2202380952380952
 40
0.2202380952380952
 40
0.2202380952380952
 40
0.2261904761904762
 40
0.2261904761904762
 40
0.2261904761904762
 40
0.2261904761904762
 40
0.2321428571428572
 40
0.2321428571428572
 40
0.2321428571428572
 40
0.2321428571428572
 40
0.2380952380952381
 40
0.2380952380952381
 40
0.2380952380952381
 40
0.2380952380952381
 40
0.244047619047619
 40
0.244047619047619
 40
0.244047619047619
 40
0.244047619047619
 40
0.25
 40
0.25
 40
0.25
 40
0.25
 40
0.2559523809523809
 40
0.2559523809523809
 40
0.2559523809523809
 40
0.2559523809523809
 40
0.2619047619047619
 40
0.2619047619047619
 40
0.2619047619047619
 40
0.2619047619047619
 40
0.2678571428571428
 40
0.2678571428571428
 40
0.2678571428571428
 40
0.2678571428571428
 40
0.2738095238095238
 40
0.2738095238095238
 40
0.2738095238095238
 40
0.2738095238095238
 40
0.2797619047619048
 40
0.2797619047619048
 40
0.2797619047619048
 40
0.2797619047619048
 40
0.2857142857142857
 40
0.2857142857142857
 40
0.2857142857142857
 40
0.2857142857142857
 40
0.2916666666666667
 40
0.2916666666666667
 40
0.2916666666666667
 40
0.2916666666666667
 40
0.2976190476190476
 40
0.2976190476190476
 40
0.2976190476190476
 40
0.2976190476190476
 40
0.3035714285714285
 40
0.3035714285714285
 40
0.3035714285714285
 40
0.3035714285714285
 40
0.3095238095238095
 40
0.3095238095238095
 40
0.3095238095238095
 40
0.3095238095238095
 40
0.3154761904761905
 40
0.3154761904761905
 40
0.3154761904761905
 40
0.3154761904761905
 40
0.3214285714285715
 40
0.3214285714285715
 40
0.3214285714285715
 40
0.3214285714285715
 40
0.3273809523809524
 40
0.3273809523809524
 40
0.3273809523809524
 40
0.3273809523809524
 40
0.3333333333333333
 40
0.3333333333333333
 40
0.3333333333333333
 40
0.3333333333333333
 40
0.3392857142857143
 40
0.3392857142857143
 40
0.3392857142857143
 40
0.3392857142857143
 40
0.3452380952380952
 40
0.3452380952380952
 40
0.3452380952380952
 40
0.3452380952380952
 40
0.3511904761904762
 40
0.3511904761904762
 40
0.3511904761904762
 40
0.3511904761904762
 40
0.3571428571428572
 40
0.3571428571428572
 40
0.3571428571428572
 40
0.3571428571428572
 40
0.3630952380952381
 40
0.3630952380952381
 40
0.3630952380952381
 40
0.3630952380952381
 40
0.3690476190476191
 40
0.3690476190476191
 40
0.3690476190476191
 40
0.3690476190476191
 40
0.375
 40
0.375
 40
0.375
 40
0.375
 40
0.3809523809523809
 40
0.3809523809523809
 40
0.3809523809523809
 40
0.3809523809523809
 40
0.3869047619047619
 40
0.3869047619047619
 40
0.3869047619047619
 40
0.3869047619047619
 40
0.3928571428571428
 40
0.3928571428571428
 40
0.3928571428571428
 40
0.3928571428571428
 40
0.3988095238095238
 40
0.3988095238095238
 40
0.3988095238095238
 40
0.3988095238095238
 40
0.4047619047619048
 40
0.4047619047619048
 40
0.4047619047619048
 40
0.4047619047619048
 40
0.4107142857142857
 40
0.4107142857142857
 40
0.4107142857142857
 40
0.4107142857142857
 40
0.4166666666666667
 40
0.4166666666666667
 40
0.4166666666666667
 40
0.4166666666666667
 40
0.4226190476190476
 40
0.4226190476190476
 40
0.4226190476190476
 40
0.4226190476190476
 40
0.4285714285714285
 40
0.4285714285714285
 40
0.4285714285714285
 40
0.4285714285714285
 40
0.4345238095238095
 40
0.4345238095238095
 40
0.4345238095238095
 40
0.4345238095238095
 40
0.4404761904761905
 40
0.4404761904761905
 40
0.4404761904761905
 40
0.4404761904761905
 40
0.4464285714285715
 40
0.4464285714285715
 40
0.4464285714285715
 40
0.4464285714285715
 40
0.4523809523809524
 40
0.4523809523809524
 40
0.4523809523809524
 40
0.4523809523809524
 40
0.4583333333333333
 40
0.4583333333333333
 40
0.4583333333333333
 40
0.4583333333333333
 40
0.4642857142857143
 40
0.4642857142857143
 40
0.4642857142857143
 40
0.4642857142857143
 40
0.4702380952380952
 40
0.4702380952380952
 40
0.4702380952380952
 40
0.4702380952380952
 40
0.4761904761904762
 40
0.4761904761904762
 40
0.4761904761904762
 40
0.4761904761904762
 40
0.4821428571428572
 40
0.4821428571428572
 40
0.4821428571428572
 40
0.4821428571428572
 40
0.4880952380952381
 40
0.4880952380952381
 40
0.4880952380952381
 40
0.4880952380952381
 40
0.4940476190476191
 40
0.4940476190476191
 40
0.4940476190476191
 40
0.4940476190476191
 40
0.5
 40
0.5
 40
0.5
 40
0.5
 40
0.5059523809523809
 40
0.5059523809523809
 40
0.5059523809523809
 40
0.5059523809523809
 40
0.5119047619047619
 40
0.5119047619047619
 40
0.5119047619047619
 40
0.5119047619047619
 40
0.5178571428571429
 40
0.5178571428571429
 40
0.5178571428571429
 40
0.5178571428571429
 40
0.5238095238095238
 40
0.5238095238095238
 40
0.5238095238095238
 40
0.5238095238095238
 40
0.5297619047619048
 40
0.5297619047619048
 40
0.5297619047619048
 40
0.5297619047619048
 40
0.5357142857142857
 40
0.5357142857142857
 40
0.5357142857142857
 40
0.5357142857142857
 40
0.5416666666666666
 40
0.5416666666666666
 40
0.5416666666666666
 40
0.5416666666666666
 40
0.5476190476190477
 40
0.5476190476190477
 40
0.5476190476190477
 40
0.5476190476190477
 40
0.5535714285714286
 40
0.5535714285714286
 40
0.5535714285714286
 40
0.5535714285714286
 40
0.5595238095238095
 40
0.5595238095238095
 40
0.5595238095238095
 40
0.5595238095238095
 40
0.5654761904761905
 40
0.5654761904761905
 40
0.5654761904761905
 40
0.5654761904761905
 40
0.5714285714285714
 40
0.5714285714285714
 40
0.5714285714285714
 40
0.5714285714285714
 40
0.5773809523809523
 40
0.5773809523809523
 40
0.5773809523809523
 40
0.5773809523809523
 40
0.5833333333333334
 40
0.5833333333333334
 40
0.5833333333333334
 40
0.5833333333333334
 40
0.5892857142857143
 40
0.5892857142857143
 40
0.5892857142857143
 40
0.5892857142857143
 40
0.5952380952380952
 40
0.5952380952380952
 40
0.5952380952380952
 40
0.5952380952380952
 40
0.6011904761904762
 40
0.6011904761904762
 40
0.6011904761904762
 40
0.6011904761904762
 40
0.6071428571428571
 40
0.6071428571428571
 40
0.6071428571428571
 40
0.6071428571428571
 40
0.6130952380952381
 40
0.6130952380952381
 40
0.6130952380952381
 40
0.6130952380952381
 40
0.6190476190476191
 40
0.6190476190476191
 40
0.6190476190476191
 40
0.6190476190476191
 40
0.625
 40
0.625
 40
0.625
 40
0.625
 40
0.6309523809523809
 40
0.6309523809523809
 40
0.6309523809523809
 40
0.6309523809523809
 40
0.6369047619047619
 40
0.6369047619047619
 40
0.6369047619047619
 40
0.6369047619047619
 40
0.6428571428571429
 40
0.6428571428571429
 40
0.6428571428571429
 40
0.6428571428571429
 40
0.6488095238095238
 40
0.6488095238095238
 40
0.6488095238095238
 40
0.6488095238095238
 40
0.6547619047619048
 40
0.6547619047619048
 40
0.6547619047619048
 40
0.6547619047619048
 40
0.6607142857142857
 40
0.6607142857142857
 40
0.6607142857142857
 40
0.6607142857142857
 40
0.6666666666666666
 40
0.6666666666666666
 40
0.6666666666666666
 40
0.6666666666666666
 40
0.6726190476190477
 40
0.6726190476190477
 40
0.6726190476190477
 40
0.6726190476190477
 40
0.6785714285714286
 40
0.6785714285714286
 40
0.6785714285714286
 40
0.6785714285714286
 40
0.6845238095238095
 40
0.6845238095238095
 40
0.6845238095238095
 40
0.6845238095238095
 40
0.6904761904761905
 40
0.6904761904761905
 40
0.6904761904761905
 40
0.6904761904761905
 40
0.6964285714285714
 40
0.6964285714285714
 40
0.6964285714285714
 40
0.6964285714285714
 40
0.7023809523809523
 40
0.7023809523809523
 40
0.7023809523809523
 40
0.7023809523809523
 40
0.7083333333333334
 40
0.7083333333333334
 40
0.7083333333333334
 40
0.7083333333333334
 40
0.7142857142857143
 40
0.7142857142857143
 40
0.7142857142857143
 40
0.7142857142857143
 40
0.7202380952380952
 40
0.7202380952380952
 40
0.7202380952380952
 40
0.7202380952380952
 40
0.7261904761904762
 40
0.7261904761904762
 40
0.7261904761904762
 40
0.7261904761904762
 40
0.7321428571428571
 40
0.7321428571428571
 40
0.7321428571428571
 40
0.7321428571428571
 40
0.7380952380952381
 40
0.7380952380952381
 40
0.7380952380952381
 40
0.7380952380952381
 40
0.7440476190476191
 40
0.7440476190476191
 40
0.7440476190476191
 40
0.7440476190476191
 40
0.75
 40
0.75
 40
0.75
 40
0.75
 40
0.7559523809523809
 40
0.7559523809523809
 40
0.7559523809523809
 40
0.7559523809523809
 40
0.7619047619047619
 40
0.7619047619047619
 40
0.7619047619047619
 40
0.7619047619047619
 40
0.7678571428571429
 40
0.7678571428571429
 40
0.7678571428571429
 40
0.7678571428571429
 40
0.7738095238095238
 40
0.7738095238095238
 40
0.7738095238095238
 40
0.7738095238095238
 40
0.7797619047619048
 40
0.7797619047619048
 40
0.7797619047619048
 40
0.7797619047619048
 40
0.7857142857142857
 40
0.7857142857142857
 40
0.7857142857142857
 40
0.7857142857142857
 40
0.7916666666666666
 40
0.7916666666666666
 40
0.7916666666666666
 40
0.7916666666666666
 40
0.7976190476190477
 40
0.7976190476190477
 40
0.7976190476190477
 40
0.7976190476190477
 40
0.8035714285714286
 40
0.8035714285714286
 40
0.8035714285714286
 40
0.8035714285714286
 40
0.8095238095238095
 40
0.8095238095238095
 40
0.8095238095238095
 40
0.8095238095238095
 40
0.8154761904761905
 40
0.8154761904761905
 40
0.8154761904761905
 40
0.8154761904761905
 40
0.8214285714285714
 40
0.8214285714285714
 40
0.8214285714285714
 40
0.8214285714285714
 40
0.8273809523809523
 40
0.8273809523809523
 40
0.8273809523809523
 40
0.8273809523809523
 40
0.8333333333333334
 40
0.8333333333333334
 40
0.8333333333333334
 40
0.8333333333333334
 40
0.8392857142857143
 40
0.8392857142857143
 40
0.8392857142857143
 40
0.8392857142857143
 40
0.8452380952380952
 40
0.8452380952380952
 40
0.8452380952380952
 40
0.8452380952380952
 40
0.8511904761904762
 40
0.8511904761904762
 40
0.8511904761904762
 40
0.8511904761904762
 40
0.8571428571428571
 40
0.8571428571428571
 40
0.8571428571428571
 40
0.8571428571428571
 40
0.8630952380952381
 40
0.8630952380952381
 40
0.8630952380952381
 40
0.8630952380952381
 40
0.8690476190476191
 40
0.8690476190476191
 40
0.8690476190476191
 40
0.8690476190476191
 40
0.875
 40
0.875
 40
0.875
 40
0.875
 40
0.8809523809523809
 40
0.8809523809523809
 40
0.8809523809523809
 40
0.8809523809523809
 40
0.8869047619047619
 40
0.8869047619047619
 40
0.8869047619047619
 40
0.8869047619047619
 40
0.8928571428571429
 40
0.8928571428571429
 40
0.8928571428571429
 40
0.8928571428571429
 40
0.8988095238095238
 40
0.8988095238095238
 40
0.8988095238095238
 40
0.8988095238095238
 40
0.9047619047619048
 40
0.9047619047619048
 40
0.9047619047619048
 40
0.9047619047619048
 40
0.9107142857142857
 40
0.9107142857142857
 40
0.9107142857142857
 40
0.9107142857142857
 40
0.9166666666666666
 40
0.9166666666666666
 40
0.9166666666666666
 40
0.9166666666666666
 40
0.9226190476190477
 40
0.9226190476190477
 40
0.9226190476190477
 40
0.9226190476190477
 40
0.9285714285714286
 40
0.9285714285714286
 40
0.9285714285714286
 40
0.9285714285714286
 40
0.9345238095238095
 40
0.9345238095238095
 40
0.9345238095238095
 40
0.9345238095238095
 40
0.9404761904761905
 40
0.9404761904761905
 40
0.9404761904761905
 40
0.9404761904761905
 40
0.9464285714285714
 40
0.9464285714285714
 40
0.9464285714285714
 40
0.9464285714285714
 40
0.9523809523809523
 40
0.9523809523809523
 40
0.9523809523809523
 40
0.9523809523809523
 40
0.9583333333333334
 40
0.9583333333333334
 40
0.9583333333333334
 40
0.9583333333333334
 40
0.9642857142857143
 40
0.9642857142857143
 40
0.9642857142857143
 40
0.9642857142857143
 40
0.9702380952380952
 40
0.9702380952380952
 40
0.9702380952380952
 40
0.9702380952380952
 40
0.9761904761904762
 40
0.9761904761904762
 40
0.9761904761904762
 40
0.9761904761904762
 40
0.9821428571428571
 40
0.9821428571428571
 40
0.9821428571428571
 40
0.9821428571428571
 40
0.9880952380952381
 40
0.9880952380952381
 40
0.9880952380952381
 40
0.9880952380952381
 40
1.0
 40
1.0
 40
1.0
 40
1.0
 10
-0.3866
 20
4.8118
 30
0.0
 10
0.9972
 20
2.2799
 30
0.0
 10
-3.9302
 20
2.6796
 30
0.0
 10
2.3624
 20
-3.4667
 30
0.0
 10
2.3624
 20
-3.4667
 30
0.0
 10
4.1124
 20
-5.1759
 30
0.0
 10
5.7165
 20
-6.7272
 30
0.0
 10
7.916
 20
-8.0337
 30
0.0
 10
7.916
 20
-8.0337
 30
0.0
 10
9.4019
 20
-8.9162
 30
0.0
 10
14.3511
 20
-10.4001
 30
0.0
 10
14.5413
 20
-11.5995
 30
0.0
 10
14.5413
 20
-11.5995
 30
0.0
 10
12.926
 20
-12.2645
 30
0.0
 10
-2.5309
 20
-21.9395
 30
0.0
 10
-0.593
 20
-24.3838
 30
0.0
 10
-0.593
 20
-24.3838
 30
0.0
 10
0.1466
 20
-25.0883
 30
0.0
 10
0.4697
 20
-24.4867
 30
0.0
 10
0.965
 20
-24.1141
 30
0.0
 10
0.965
 20
-24.1141
 30
0.0
 10
59.7888
 20
17.594
 30
0.0
 10
60.3492
 20
-45.2392
 30
0.0
 10
67.4387
 20
-73.2697
 30
0.0
 10
67.4387
 20
-73.2697
 30
0.0
 10
67.4387
 20
-73.2697
 30
0.0
 10
67.7841
 20
-73.9935
 30
0.0
 10
67.7841
 20
-73.9935
 30
0.0
 10
67.7841
 20
-73.9935
 30
0.0
 10
71.9133
 20
-75.0276
 30
0.0
 10
67.6945
 20
-46.2528
 30
0.0
 10
69.9534
 20
-44.031
 30
0.0
 10
69.9534
 20
-44.031
 30
0.0
 10
72.3613
 20
-41.6624
 30
0.0
 10
83.8059
 20
-36.1448
 30
0.0
 10
84.8842
 20
-34.6366
 30
0.0
 10
84.8842
 20
-34.6366
 30
0.0
 10
86.4368
 20
-32.4648
 30
0.0
 10
81.6082
 20
-33.3574
 30
0.0
 10
80.6135
 20
-33.1685
 30
0.0
 10
80.6135
 20
-33.1685
 30
0.0
 10
80.6135
 20
-33.1685
 30
0.0
 10
80.523
 20
-32.347
 30
0.0
 10
80.523
 20
-32.347
 30
0.0
 10
80.523
 20
-32.347
 30
0.0
 10
81.1269
 20
-31.7569
 30
0.0
 10
81.5377
 20
-31.9367
 30
0.0
 10
81.9477
 20
-30.8066
 30
0.0
 10
81.9477
 20
-30.8066
 30
0.0
 10
82.2489
 20
-29.9765
 30
0.0
 10
82.246
 20
-29.4513
 30
0.0
 10
82.6547
 20
-28.6375
 30
0.0
 10
82.6547
 20
-28.6375
 30
0.0
 10
83.908
 20
-26.1413
 30
0.0
 10
83.4728
 20
-24.7165
 30
0.0
 10
83.8933
 20
-23.9861
 30
0.0
 10
83.8933
 20
-23.9861
 30
0.0
 10
84.9348
 20
-22.1769
 30
0.0
 10
86.5848
 20
-20.7627
 30
0.0
 10
87.7028
 20
-18.886
 30
0.0
 10
87.7028
 20
-18.886
 30
0.0
 10
88.105
 20
-18.211
 30
0.0
 10
88.6267
 20
-17.7931
 30
0.0
 10
88.0163
 20
-17.0446
 30
0.0
 10
88.0163
 20
-17.0446
 30
0.0
 10
87.184
 20
-16.986
 30
0.0
 10
86.0965
 20
-18.1975
 30
0.0
 10
85.3724
 20
-18.6667
 30
0.0
 10
85.3724
 20
-18.6667
 30
0.0
 10
83.5767
 20
-19.8304
 30
0.0
 10
82.0161
 20
-21.0745
 30
0.0
 10
80.3189
 20
-22.3772
 30
0.0
 10
80.3189
 20
-22.3772
 30
0.0
 10
79.1786
 20
-23.2005
 30
0.0
 10
79.1134
 20
-23.8569
 30
0.0
 10
77.5328
 20
-23.1348
 30
0.0
 10
77.5328
 20
-23.1348
 30
0.0
 10
76.8981
 20
-22.8448
 30
0.0
 10
76.6195
 20
-22.64
 30
0.0
 10
75.8384
 20
-22.5896
 30
0.0
 10
75.8384
 20
-22.5896
 30
0.0
 10
75.1449
 20
-22.5448
 30
0.0
 10
73.0976
 20
-22.6788
 30
0.0
 10
73.7935
 20
-21.4606
 30
0.0
 10
73.7935
 20
-21.4606
 30
0.0
 10
73.9855
 20
-21.1245
 30
0.0
 10
74.0565
 20
-21.2574
 30
0.0
 10
74.4781
 20
-21.0668
 30
0.0
 10
74.4781
 20
-21.0668
 30
0.0
 10
75.6374
 20
-20.5432
 30
0.0
 10
79.0144
 20
-15.6605
 30
0.0
 10
78.7
 20
-14.5645
 30
0.0
 10
78.7
 20
-14.5645
 30
0.0
 10
77.8064
 20
-13.3764
 30
0.0
 10
77.2665
 20
-14.1559
 30
0.0
 10
76.6421
 20
-13.4909
 30
0.0
 10
76.6421
 20
-13.4909
 30
0.0
 10
76.8097
 20
-12.7393
 30
0.0
 10
77.6316
 20
-12.8558
 30
0.0
 10
78.3519
 20
-12.4035
 30
0.0
 10
78.3519
 20
-12.4035
 30
0.0
 10
83.4182
 20
-9.2215
 30
0.0
 10
81.2055
 20
-8.9012
 30
0.0
 10
83.9059
 20
-5.4215
 30
0.0
 10
83.9059
 20
-5.4215
 30
0.0
 10
84.8145
 20
-4.251
 30
0.0
 10
85.5754
 20
-1.4749
 30
0.0
 10
84.7388
 20
-0.0832
 30
0.0
 10
84.7388
 20
-0.0832
 30
0.0
 10
83.3257
 20
-0.0679
 30
0.0
 10
78.3505
 20
-8.4038
 30
0.0
 10
75.2708
 20
-4.7611
 30
0.0
 10
75.2708
 20
-4.7611
 30
0.0
 10
75.3204
 20
-3.8272
 30
0.0
 10
75.6761
 20
-4.3217
 30
0.0
 10
76.2114
 20
-3.4642
 30
0.0
 10
76.2114
 20
-3.4642
 30
0.0
 10
77.0729
 20
-2.0845
 30
0.0
 10
77.3211
 20
-0.771
 30
0.0
 10
78.5346
 20
0.5606
 30
0.0
 10
78.5346
 20
0.5606
 30
0.0
 10
87.2766
 20
8.8675
 30
0.0
 10
93.6851
 20
18.498
 30
0.0
 10
86.2153
 20
30.3301
 30
0.0
 10
86.2153
 20
30.3301
 30
0.0
 10
85.5938
 20
28.2081
 30
0.0
 10
88.9895
 20
17.0657
 30
0.0
 10
85.4962
 20
15.1655
 30
0.0
 10
85.4962
 20
15.1655
 30
0.0
 10
84.1072
 20
15.3879
 30
0.0
 10
85.9654
 20
23.8636
 30
0.0
 10
83.6095
 20
26.8982
 30
0.0
 10
83.6095
 20
26.8982
 30
0.0
 10
80.9628
 20
29.833
 30
0.0
 10
77.4395
 20
35.8839
 30
0.0
 10
73.4757
 20
34.1646
 30
0.0
 10
73.4757
 20
34.1646
 30
0.0
 10
71.8753
 20
33.4707
 30
0.0
 10
71.0048
 20
33.3106
 30
0.0
 10
71.1859
 20
32.1209
 30
0.0
 10
71.1859
 20
32.1209
 30
0.0
 10
82.9861
 20
25.9447
 30
0.0
 10
75.9092
 20
14.0395
 30
0.0
 10
69.8652
 20
15.568
 30
0.0
 10
69.8652
 20
15.568
 30
0.0
 10
69.0825
 20
15.7658
 30
0.0
 10
69.0719
 20
16.0884
 30
0.0
 10
68.7928
 20
16.7694
 30
0.0
 10
68.7928
 20
16.7694
 30
0.0
 10
68.4705
 20
17.5555
 30
0.0
 10
68.0906
 20
17.2588
 30
0.0
 10
67.2939
 20
17.3782
 30
0.0
 10
67.2939
 20
17.3782
 30
0.0
 10
66.9102
 20
17.9022
 30
0.0
 10
66.8924
 20
19.0503
 30
0.0
 10
66.0181
 20
18.5135
 30
0.0
 10
66.0181
 20
18.5135
 30
0.0
 10
65.4837
 20
17.678
 30
0.0
 10
67.0505
 20
16.7957
 30
0.0
 10
66.3814
 20
14.9993
 30
0.0
 10
66.3814
 20
14.9993
 30
0.0
 10
63.3359
 20
15.012
 30
0.0
 10
62.4989
 20
21.2816
 30
0.0
 10
64.0975
 20
23.9132
 30
0.0
 10
64.0975
 20
23.9132
 30
0.0
 10
64.5771
 20
24.703
 30
0.0
 10
64.7726
 20
24.4381
 30
0.0
 10
64.3553
 20
25.0526
 30
0.0
 10
64.3553
 20
25.0526
 30
0.0
 10
63.7352
 20
24.8925
 30
0.0
 10
63.6325
 20
23.984
 30
0.0
 10
62.7874
 20
24.3761
 30
0.0
 10
62.7874
 20
24.3761
 30
0.0
 10
62.2963
 20
25.8781
 30
0.0
 10
66.8396
 20
30.8456
 30
0.0
 10
67.6807
 20
33.4629
 30
0.0
 10
67.6807
 20
33.4629
 30
0.0
 10
75.3771
 20
57.4204
 30
0.0
 10
57.3538
 20
75.7565
 30
0.0
 10
57.6301
 20
79.7751
 30
0.0
 10
57.6301
 20
79.7751
 30
0.0
 10
58.6236
 20
79.981
 30
0.0
 10
58.8757
 20
78.3725
 30
0.0
 10
59.9537
 20
78.0851
 30
0.0
 10
59.9537
 20
78.0851
 30
0.0
 10
59.9238
 20
82.9304
 30
0.0
 10
47.7192
 20
88.3086
 30
0.0
 10
43.8384
 20
91.1873
 30
0.0
 10
43.8384
 20
91.1873
 30
0.0
 10
40.6678
 20
93.9234
 30
0.0
 10
37.1519
 20
96.6161
 30
0.0
 10
34.0817
 20
99.4047
 30
0.0
 10
34.0817
 20
99.4047
 30
0.0
 10
31.5437
 20
101.676
 30
0.0
 10
29.3762
 20
103.7947
 30
0.0
 10
26.9823
 20
106.2012
 30
0.0
 10
26.9823
 20
106.2012
 30
0.0
 10
25.3757
 20
107.8163
 30
0.0
 10
22.1429
 20
112.0958
 30
0.0
 10
20.9793
 20
114.2423
 30
0.0
 10
20.9793
 20
114.2423
 30
0.0
 10
17.4437
 20
120.7641
 30
0.0
 10
15.5943
 20
124.4017
 30
0.0
 10
9.6743
 20
128.7633
 30
0.0
 10
9.6743
 20
128.7633
 30
0.0
 10
-3.9722
 20
137.409
 30
0.0
 10
-21.0417
 20
139.0392
 30
0.0
 10
-34.0184
 20
128.5454
 30
0.0
 10
-34.0184
 20
128.5454
 30
0.0
 10
-35.353
 20
127.4663
 30
0.0
 10
-34.7361
 20
127.2646
 30
0.0
 10
-36.4469
 20
128.0941
 30
0.0
 10
-36.4469
 20
128.0941
 30
0.0
 10
-43.8166
 20
131.668
 30
0.0
 10
-51.0443
 20
126.0209
 30
0.0
 10
-57.1195
 20
122.6499
 30
0.0
 10
-57.1195
 20
122.6499
 30
0.0
 10
-60.1414
 20
120.9732
 30
0.0
 10
-61.9257
 20
120.7746
 30
0.0
 10
-62.8221
 20
120.4733
 30
0.0
 10
-62.8221
 20
120.4733
 30
0.0
 10
-62.5745
 20
119.811
 30
0.0
 10
-62.5169
 20
120.2063
 30
0.0
 10
-62.0191
 20
119.7181
 30
0.0
 10
-62.0191
 20
119.7181
 30
0.0
 10
-62.4264
 20
118.922
 30
0.0
 10
-76.1708
 20
114.5834
 30
0.0
 10
-81.1512
 20
102.5821
 30
0.0
 10
-81.1512
 20
102.5821
 30
0.0
 10
-83.0048
 20
98.1169
 30
0.0
 10
-83.2421
 20
91.8471
 30
0.0
 10
-81.7179
 20
87.0388
 30
0.0
 10
-81.7179
 20
87.0388
 30
0.0
 10
-81.0798
 20
85.0258
 30
0.0
 10
-80.8487
 20
83.6674
 30
0.0
 10
-80.195
 20
81.7714
 30
0.0
 10
-80.195
 20
81.7714
 30
0.0
 10
-78.9359
 20
76.9872
 30
0.0
 10
-75.9772
 20
68.1777
 30
0.0
 10
-73.8089
 20
63.3861
 30
0.0
 10
-73.8089
 20
63.3861
 30
0.0
 10
-73.2759
 20
62.208
 30
0.0
 10
-73.5741
 20
60.5656
 30
0.0
 10
-73.6063
 20
59.2866
 30
0.0
 10
-73.6063
 20
59.2866
 30
0.0
 10
-73.7929
 20
51.8414
 30
0.0
 10
-79.9365
 20
43.9709
 30
0.0
 10
-83.2389
 20
37.1527
 30
0.0
 10
-83.2389
 20
37.1527
 30
0.0
 10
-85.3072
 20
32.8824
 30
0.0
 10
-85.1445
 20
29.4747
 30
0.0
 10
-87.4846
 20
32.3327
 30
0.0
 10
-87.4846
 20
32.3327
 30
0.0
 10
-87.8738
 20
32.808
 30
0.0
 10
-87.987
 20
33.1628
 30
0.0
 10
-88.3156
 20
33.7658
 30
0.0
 10
-88.3156
 20
33.7658
 30
0.0
 10
-90.2319
 20
37.2847
 30
0.0
 10
-88.5489
 20
40.5345
 30
0.0
 10
-89.6716
 20
41.3531
 30
0.0
 10
-89.6716
 20
41.3531
 30
0.0
 10
-91.5394
 20
38.0227
 30
0.0
 10
-90.0576
 20
32.1763
 30
0.0
 10
-88.7205
 20
29.7416
 30
0.0
 10
-88.7205
 20
29.7416
 30
0.0
 10
-88.3495
 20
29.0664
 30
0.0
 10
-87.708
 20
28.3442
 30
0.0
 10
-87.6831
 20
27.5398
 30
0.0
 10
-87.6831
 20
27.5398
 30
0.0
 10
-89.335
 20
27.4701
 30
0.0
 10
-88.8685
 20
28.0476
 30
0.0
 10
-89.9736
 20
28.611
 30
0.0
 10
-89.9736
 20
28.611
 30
0.0
 10
-90.5915
 20
26.8231
 30
0.0
 10
-82.7551
 20
22.2533
 30
0.0
 10
-81.5904
 20
21.4646
 30
0.0
 10
-81.5904
 20
21.4646
 30
0.0
 10
-80.1026
 20
20.4572
 30
0.0
 10
-79.9004
 20
19.1338
 30
0.0
 10
-79.134
 20
17.5755
 30
0.0
 10
-79.134
 20
17.5755
 30
0.0
 10
-77.2474
 20
13.7384
 30
0.0
 10
-72.1155
 20
7.8191
 30
0.0
 10
-67.9577
 20
6.5448
 30
0.0
 10
-67.9577
 20
6.5448
 30
0.0
 10
-64.9549
 20
5.6243
 30
0.0
 10
-60.5708
 20
5.2422
 30
0.0
 10
-60.5376
 20
1.4469
 30
0.0
 10
-60.5376
 20
1.4469
 30
0.0
 10
-60.5076
 20
-2.0486
 30
0.0
 10
-62.1427
 20
-5.403
 30
0.0
 10
-64.8721
 20
-6.8959
 30
0.0
 10
-64.8721
 20
-6.8959
 30
0.0
 10
-80.2958
 20
-15.3322
 30
0.0
 10
-80.9334
 20
7.6074
 30
0.0
 10
-81.0877
 20
7.7904
 30
0.0
 10
-81.0877
 20
7.7904
 30
0.0
 10
-83.4354
 20
1.3373
 30
0.0
 10
-87.4183
 20
-3.4896
 30
0.0
 10
-81.587
 20
-9.8006
 30
0.0
 10
-81.587
 20
-9.8006
 30
0.0
 10
-75.8252
 20
-16.0365
 30
0.0
 10
-66.0996
 20
-11.1716
 30
0.0
 10
-62.8095
 20
-11.6568
 30
0.0
 10
-62.8095
 20
-11.6568
 30
0.0
 10
-62.0489
 20
-11.769
 30
0.0
 10
-67.0592
 20
-20.4942
 30
0.0
 10
-77.591
 20
-14.5523
 30
0.0
 10
-77.591
 20
-14.5523
 30
0.0
 10
-79.0516
 20
-14.5283
 30
0.0
 10
-79.2542
 20
-15.8387
 30
0.0
 10
-78.7502
 20
-17.0843
 30
0.0
 10
-78.7502
 20
-17.0843
 30
0.0
 10
-78.4468
 20
-17.8335
 30
0.0
 10
-77.6463
 20
-19.0146
 30
0.0
 10
-77.1997
 20
-19.4585
 30
0.0
 10
-77.1997
 20
-19.4585
 30
0.0
 10
-77.1997
 20
-19.4585
 30
0.0
 10
-75.1711
 20
-21.3569
 30
0.0
 10
-75.1711
 20
-21.3569
 30
0.0
 10
-75.1711
 20
-21.3569
 30
0.0
 10
-73.3532
 20
-23.214
 30
0.0
 10
-72.5283
 20
-24.0604
 30
0.0
 10
-72.3501
 20
-26.5054
 30
0.0
 10
-72.3501
 20
-26.5054
 30
0.0
 10
-72.0828
 20
-30.1725
 30
0.0
 10
-67.3595
 20
-32.8979
 30
0.0
 10
-65.4826
 20
-35.531
 30
0.0
 10
-65.4826
 20
-35.531
 30
0.0
 10
-63.784
 20
-37.9141
 30
0.0
 10
-61.7213
 20
-39.5349
 30
0.0
 10
-58.6971
 20
-40.522
 30
0.0
 10
-58.6971
 20
-40.522
 30
0.0
 10
-55.0078
 20
-41.7262
 30
0.0
 10
-44.5147
 20
-41.7117
 30
0.0
 10
-44.4899
 20
-41.7261
 30
0.0
 10
-44.4899
 20
-41.7261
 30
0.0
 10
-44.1919
 20
-42.3385
 30
0.0
 10
-45.5754
 20
-45.9232
 30
0.0
 10
-45.9523
 20
-46.6648
 30
0.0
 10
-45.9523
 20
-46.6648
 30
0.0
 10
-47.0767
 20
-48.8778
 30
0.0
 10
-49.2691
 20
-49.9471
 30
0.0
 10
-51.3947
 20
-51.0384
 30
0.0
 10
-51.3947
 20
-51.0384
 30
0.0
 10
-69.0581
 20
-60.0981
 30
0.0
 10
-93.2903
 20
-73.5836
 30
0.0
 10
-77.2202
 20
-96.9685
 30
0.0
 10
-77.2202
 20
-96.9685
 30
0.0
 10
-75.7898
 20
-99.0501
 30
0.0
 10
-73.6426
 20
-101.1312
 30
0.0
 10
-71.5484
 20
-102.4712
 30
0.0
 10
-71.5484
 20
-102.4712
 30
0.0
 10
-66.7087
 20
-105.5689
 30
0.0
 10
-68.3512
 20
-102.4747
 30
0.0
 10
-68.0642
 20
-111.9953
 30
0.0
 10
-68.0642
 20
-111.9953
 30
0.0
 10
-67.9426
 20
-116.0244
 30
0.0
 10
-66.4108
 20
-116.2877
 30
0.0
 10
-66.213
 20
-117.5798
 30
0.0
 10
-66.213
 20
-117.5798
 30
0.0
 10
-66.213
 20
-117.5798
 30
0.0
 10
-62.4685
 20
-117.5798
 30
0.0
 10
-62.4685
 20
-117.5798
 30
0.0
 10
-62.4685
 20
-117.5798
 30
0.0
 10
-62.3953
 20
-116.9202
 30
0.0
 10
-62.1276
 20
-116.9457
 30
0.0
 10
-62.2377
 20
-116.2703
 30
0.0
 10
-62.2377
 20
-116.2703
 30
0.0
 10
-62.2377
 20
-116.2703
 30
0.0
 10
-63.7977
 20
-112.3925
 30
0.0
 10
-63.7977
 20
-112.3925
 30
0.0
 10
-63.7977
 20
-112.3925
 30
0.0
 10
-67.7249
 20
-104.3046
 30
0.0
 10
-63.5611
 20
-104.8681
 30
0.0
 10
-66.7254
 20
-100.8188
 30
0.0
 10
-66.7254
 20
-100.8188
 30
0.0
 10
-66.7254
 20
-100.8188
 30
0.0
 10
-68.5445
 20
-99.0167
 30
0.0
 10
-68.5445
 20
-99.0167
 30
0.0
 10
-68.5445
 20
-99.0167
 30
0.0
 10
-71.9831
 20
-95.9988
 30
0.0
 10
-73.6296
 20
-93.3476
 30
0.0
 10
-75.9078
 20
-88.4047
 30
0.0
 10
-75.9078
 20
-88.4047
 30
0.0
 10
-76.6901
 20
-86.7073
 30
0.0
 10
-77.3833
 20
-85.1463
 30
0.0
 10
-78.1281
 20
-83.3753
 30
0.0
 10
-78.1281
 20
-83.3753
 30
0.0
 10
-78.66
 20
-82.1099
 30
0.0
 10
-80.4429
 20
-79.4045
 30
0.0
 10
-79.1534
 20
-77.9354
 30
0.0
 10
-79.1534
 20
-77.9354
 30
0.0
 10
-72.2307
 20
-77.2831
 30
0.0
 10
-62.3275
 20
-101.3623
 30
0.0
 10
-60.8745
 20
-106.5971
 30
0.0
 10
-60.8745
 20
-106.5971
 30
0.0
 10
-60.5179
 20
-108.0572
 30
0.0
 10
-59.5013
 20
-110.4268
 30
0.0
 10
-57.969
 20
-110.4453
 30
0.0
 10
-57.969
 20
-110.4453
 30
0.0
 10
-56.8465
 20
-109.1203
 30
0.0
 10
-57.2809
 20
-108.5129
 30
0.0
 10
-56.569
 20
-105.9813
 30
0.0
 10
-56.569
 20
-105.9813
 30
0.0
 10
-56.2792
 20
-104.9504
 30
0.0
 10
-55.4874
 20
-102.2618
 30
0.0
 10
-54.94
 20
-101.7563
 30
0.0
 10
-54.94
 20
-101.7563
 30
0.0
 10
-54.2084
 20
-102.0371
 30
0.0
 10
-54.03
 20
-104.4027
 30
0.0
 10
-53.6398
 20
-106.0093
 30
0.0
 10
-53.6398
 20
-106.0093
 30
0.0
 10
-52.7864
 20
-109.5232
 30
0.0
 10
-51.2763
 20
-113.8088
 30
0.0
 10
-48.9988
 20
-116.6193
 30
0.0
 10
-48.9988
 20
-116.6193
 30
0.0
 10
-48.1121
 20
-117.7134
 30
0.0
 10
-48.3948
 20
-117.5798
 30
0.0
 10
-47.0019
 20
-117.5798
 30
0.0
 10
-47.0019
 20
-117.5798
 30
0.0
 10
-46.8983
 20
-112.8029
 30
0.0
 10
-43.6488
 20
-103.4054
 30
0.0
 10
-40.1666
 20
-100.4834
 30
0.0
 10
-40.1666
 20
-100.4834
 30
0.0
 10
-38.2311
 20
-98.8597
 30
0.0
 10
-32.245
 20
-96.0267
 30
0.0
 10
-29.848
 20
-95.544
 30
0.0
 10
-29.848
 20
-95.544
 30
0.0
 10
-23.7375
 20
-94.3129
 30
0.0
 10
-16.3012
 20
-103.8414
 30
0.0
 10
-13.0762
 20
-108.6335
 30
0.0
 10
-13.0762
 20
-108.6335
 30
0.0
 10
-11.864
 20
-110.4356
 30
0.0
 10
-12.0672
 20
-110.104
 30
0.0
 10
-9.9205
 20
-109.5828
 30
0.0
 10
-9.9205
 20
-109.5828
 30
0.0
 10
-6.5745
 20
-108.7708
 30
0.0
 10
5.3928
 20
-103.046
 30
0.0
 10
8.6902
 20
-101.1732
 30
0.0
 10
8.6902
 20
-101.1732
 30
0.0
 10
11.384
 20
-99.6431
 30
0.0
 10
15.8794
 20
-97.9748
 30
0.0
 10
14.1969
 20
-93.8947
 30
0.0
 10
14.1969
 20
-93.8947
 30
0.0
 10
13.646
 20
-92.559
 30
0.0
 10
13.1179
 20
-91.7761
 30
0.0
 10
12.4345
 20
-90.5206
 30
0.0
 10
12.4345
 20
-90.5206
 30
0.0
 10
7.0959
 20
-82.4598
 30
0.0
 10
1.2162
 20
-73.0617
 30
0.0
 10
-7.1816
 20
-67.9958
 30
0.0
 10
-7.1816
 20
-67.9958
 30
0.0
 10
-12.322
 20
-64.895
 30
0.0
 10
-20.8168
 20
-63.4734
 30
0.0
 10
-26.3265
 20
-66.297
 30
0.0
 10
-26.3265
 20
-66.297
 30
0.0
 10
-27.866
 20
-67.2094
 30
0.0
 10
-28.997
 20
-67.9471
 30
0.0
 10
-30.4588
 20
-68.9596
 30
0.0
 10
-30.4588
 20
-68.9596
 30
0.0
 10
-30.4588
 20
-68.9596
 30
0.0
 10
-34.3262
 20
-71.8869
 30
0.0
 10
-34.3262
 20
-71.8869
 30
0.0
 10
-34.3262
 20
-71.8869
 30
0.0
 10
-35.9445
 20
-73.0403
 30
0.0
 10
-37.0272
 20
-74.1789
 30
0.0
 10
-38.0349
 20
-74.975
 30
0.0
 10
-38.0349
 20
-74.975
 30
0.0
 10
-38.8839
 20
-75.635
 30
0.0
 10
-42.9857
 20
-79.1092
 30
0.0
 10
-43.761
 20
-79.1745
 30
0.0
 10
-43.761
 20
-79.1745
 30
0.0
 10
-45.0387
 20
-77.3263
 30
0.0
 10
-41.9235
 20
-74.4997
 30
0.0
 10
-40.6781
 20
-73.2406
 30
0.0
 10
-40.6781
 20
-73.2406
 30
0.0
 10
-38.4574
 20
-70.9966
 30
0.0
 10
-35.3194
 20
-68.6337
 30
0.0
 10
-32.6988
 20
-66.8684
 30
0.0
 10
-32.6988
 20
-66.8684
 30
0.0
 10
-29.3971
 20
-64.644
 30
0.0
 10
-26.3333
 20
-62.6224
 30
0.0
 10
-22.737
 20
-60.8221
 30
0.0
 10
-22.737
 20
-60.8221
 30
0.0
 10
-12.5622
 20
-55.7292
 30
0.0
 10
-7.9203
 20
-60.394
 30
0.0
 10
-0.312
 20
-67.1664
 30
0.0
 10
-0.312
 20
-67.1664
 30
0.0
 10
9.1921
 20
-77.5755
 30
0.0
 10
10.3389
 20
-79.7355
 30
0.0
 10
15.6308
 20
-92.9139
 30
0.0
 10
15.6308
 20
-92.9139
 30
0.0
 10
17.0544
 20
-96.4064
 30
0.0
 10
18.38
 20
-100.0722
 30
0.0
 10
19.8334
 20
-103.5038
 30
0.0
 10
19.8334
 20
-103.5038
 30
0.0
 10
20.7046
 20
-105.5604
 30
0.0
 10
21.5882
 20
-109.2424
 30
0.0
 10
23.6549
 20
-108.588
 30
0.0
 10
23.6549
 20
-108.588
 30
0.0
 10
24.2417
 20
-105.5406
 30
0.0
 10
8.9813
 20
-75.5978
 30
0.0
 10
20.6512
 20
-77.6214
 30
0.0
 10
20.6512
 20
-77.6214
 30
0.0
 10
21.7542
 20
-79.3345
 30
0.0
 10
23.2724
 20
-94.1844
 30
0.0
 10
23.6371
 20
-96.9827
 30
0.0
 10
23.6371
 20
-96.9827
 30
0.0
 10
24.7
 20
-102.4002
 30
0.0
 10
24.2188
 20
-108.9758
 30
0.0
 10
25.6271
 20
-114.4763
 30
0.0
 10
25.6271
 20
-114.4763
 30
0.0
 10
25.9424
 20
-115.7071
 30
0.0
 10
26.2848
 20
-115.5101
 30
0.0
 10
27.043
 20
-114.8722
 30
0.0
 10
27.043
 20
-114.8722
 30
0.0
 10
27.6653
 20
-105.0433
 30
0.0
 10
25.4591
 20
-79.1588
 30
0.0
 10
21.664
 20
-69.525
 30
0.0
 10
21.664
 20
-69.525
 30
0.0
 10
17.4343
 20
-68.4312
 30
0.0
 10
15.9015
 20
-71.6033
 30
0.0
 10
13.7435
 20
-74.508
 30
0.0
 10
13.7435
 20
-74.508
 30
0.0
 10
11.4546
 20
-77.5891
 30
0.0
 10
12.4732
 20
-77.7913
 30
0.0
 10
9.2259
 20
-73.6373
 30
0.0
 10
9.2259
 20
-73.6373
 30
0.0
 10
3.2752
 20
-66.0264
 30
0.0
 10
-5.9979
 20
-54.8639
 30
0.0
 10
-16.5547
 20
-55.9999
 30
0.0
 10
-16.5547
 20
-55.9999
 30
0.0
 10
-21.9077
 20
-57.2755
 30
0.0
 10
-28.5554
 20
-60.634
 30
0.0
 10
-33.0522
 20
-63.9522
 30
0.0
 10
-33.0522
 20
-63.9522
 30
0.0
 10
-33.0522
 20
-63.9522
 30
0.0
 10
-39.2363
 20
-68.6364
 30
0.0
 10
-39.2363
 20
-68.6364
 30
0.0
 10
-39.2363
 20
-68.6364
 30
0.0
 10
-39.8823
 20
-69.1137
 30
0.0
 10
-40.172
 20
-69.5612
 30
0.0
 10
-40.9861
 20
-69.4943
 30
0.0
 10
-40.9861
 20
-69.4943
 30
0.0
 10
-40.9693
 20
-68.8031
 30
0.0
 10
-39.3549
 20
-66.6967
 30
0.0
 10
-38.8869
 20
-65.9686
 30
0.0
 10
-38.8869
 20
-65.9686
 30
0.0
 10
-38.3453
 20
-65.1261
 30
0.0
 10
-31.7477
 20
-56.8617
 30
0.0
 10
-31.6875
 20
-56.405
 30
0.0
 10
-31.6875
 20
-56.405
 30
0.0
 10
-31.8511
 20
-55.0078
 30
0.0
 10
-32.8161
 20
-55.417
 30
0.0
 10
-33.5367
 20
-55.7558
 30
0.0
 10
-33.5367
 20
-55.7558
 30
0.0
 10
-35.1214
 20
-56.5009
 30
0.0
 10
-35.9905
 20
-57.6436
 30
0.0
 10
-37.1983
 20
-58.7426
 30
0.0
 10
-37.1983
 20
-58.7426
 30
0.0
 10
-37.8247
 20
-59.3128
 30
0.0
 10
-38.1276
 20
-59.9961
 30
0.0
 10
-39.1019
 20
-60.1441
 30
0.0
 10
-39.1019
 20
-60.1441
 30
0.0
 10
-39.4722
 20
-59.7691
 30
0.0
 10
-39.5047
 20
-59.1154
 30
0.0
 10
-40.439
 20
-59.5628
 30
0.0
 10
-40.439
 20
-59.5628
 30
0.0
 10
-42.0533
 20
-60.3356
 30
0.0
 10
-47.9725
 20
-67.5293
 30
0.0
 10
-48.8172
 20
-66.8993
 30
0.0
 10
-48.8172
 20
-66.8993
 30
0.0
 10
-49.3617
 20
-66.1146
 30
0.0
 10
-51.7533
 20
-58.158
 30
0.0
 10
-52.2773
 20
-56.6129
 30
0.0
 10
-52.2773
 20
-56.6129
 30
0.0
 10
-52.6817
 20
-55.7968
 30
0.0
 10
-52.9603
 20
-55.3612
 30
0.0
 10
-52.2087
 20
-54.7588
 30
0.0
 10
-52.2087
 20
-54.7588
 30
0.0
 10
-50.407
 20
-53.3146
 30
0.0
 10
-48.3669
 20
-52.2273
 30
0.0
 10
-46.3748
 20
-51.0752
 30
0.0
 10
-46.3748
 20
-51.0752
 30
0.0
 10
-44.7427
 20
-50.2613
 30
0.0
 10
-43.7595
 20
-49.447
 30
0.0
 10
-43.1464
 20
-47.5
 30
0.0
 10
-43.1464
 20
-47.5
 30
0.0
 10
-41.3634
 20
-41.8386
 30
0.0
 10
-38.2341
 20
-33.39
 30
0.0
 10
-35.1992
 20
-28.2689
 30
0.0
 10
-35.1992
 20
-28.2689
 30
0.0
 10
-32.5517
 20
-23.8025
 30
0.0
 10
-29.7859
 20
-20.2735
 30
0.0
 10
-24.9345
 20
-18.1506
 30
0.0
 10
-24.9345
 20
-18.1506
 30
0.0
 10
-24.0812
 20
-17.7771
 30
0.0
 10
-20.4854
 20
-16.0895
 30
0.0
 10
-19.9065
 20
-16.3587
 30
0.0
 10
-19.9065
 20
-16.3587
 30
0.0
 10
-18.99
 20
-17.3137
 30
0.0
 10
-19.2522
 20
-19.8645
 30
0.0
 10
-19.2379
 20
-21.3618
 30
0.0
 10
-19.2379
 20
-21.3618
 30
0.0
 10
-19.2283
 20
-22.3533
 30
0.0
 10
-19.5362
 20
-26.0587
 30
0.0
 10
-19.3737
 20
-26.5433
 30
0.0
 10
-19.3737
 20
-26.5433
 30
0.0
 10
-19.0079
 20
-27.1758
 30
0.0
 10
-17.4498
 20
-26.8715
 30
0.0
 10
-17.1433
 20
-26.2419
 30
0.0
 10
-17.1433
 20
-26.2419
 30
0.0
 10
-16.4531
 20
-22.9985
 30
0.0
 10
-17.6093
 20
-16.8084
 30
0.0
 10
-18.2977
 20
-13.2681
 30
0.0
 10
-18.2977
 20
-13.2681
 30
0.0
 10
-18.776
 20
-10.8076
 30
0.0
 10
-19.5343
 20
-8.3386
 30
0.0
 10
-20.5436
 20
-5.9873
 30
0.0
 10
-20.5436
 20
-5.9873
 30
0.0
 10
-21.3315
 20
-4.1522
 30
0.0
 10
-23.9352
 20
3.5763
 30
0.0
 10
-23.7708
 20
4.9169
 30
0.0
 10
-23.7708
 20
4.9169
 30
0.0
 10
-23.682
 20
5.6405
 30
0.0
 10
-21.4316
 20
6.4118
 30
0.0
 10
-20.6428
 20
6.5651
 30
0.0
 10
-20.6428
 20
6.5651
 30
0.0
 10
-20.6428
 20
6.5651
 30
0.0
 10
-17.1994
 20
7.8042
 30
0.0
 10
-17.1994
 20
7.8042
 30
0.0
 10
-17.1994
 20
7.8042
 30
0.0
 10
-11.5899
 20
10.2045
 30
0.0
 10
-13.4346
 20
9.7902
 30
0.0
 10
-9.6579
 20
12.1907
 30
0.0
 10
-9.6579
 20
12.1907
 30
0.0
 10
-8.3036
 20
13.0514
 30
0.0
 10
0.0684
 20
18.0478
 30
0.0
 10
1.223
 20
17.8916
 30
0.0
 10
1.223
 20
17.8916
 30
0.0
 10
1.5018
 20
16.3935
 30
0.0
 10
-1.0717
 20
17.2176
 30
0.0
 10
1.8441
 20
12.178
 30
0.0
 10
1.8441
 20
12.178
 30
0.0
 10
2.1168
 20
11.7068
 30
0.0
 10
2.5445
 20
11.4874
 30
0.0
 10
2.5733
 20
10.9525
 30
0.0
 10
2.5733
 20
10.9525
 30
0.0
 10
2.5733
 20
10.9525
 30
0.0
 10
2.5747
 20
10.9261
 30
0.0
 10
2.5747
 20
10.9261
 30
0.0
 10
2.5747
 20
10.9261
 30
0.0
 10
2.5747
 20
10.9261
 30
0.0
 10
2.5444
 20
10.7114
 30
0.0
 10
2.5444
 20
10.7114
 30
0.0
 10
2.5444
 20
10.7114
 30
0.0
 10
2.5444
 20
10.7114
 30
0.0
 10
2.4632
 20
10.473
 30
0.0
 10
2.4632
 20
10.473
 30
0.0
 10
2.4632
 20
10.473
 30
0.0
 10
1.655
 20
10.0753
 30
0.0
 10
-0.6442
 20
11.1244
 30
0.0
 10
-1.847
 20
10.8819
 30
0.0
 10
-1.847
 20
10.8819
 30
0.0
 10
-2.2399
 20
8.5982
 30
0.0
 10
-1.4531
 20
6.7632
 30
0.0
 10
-0.3866
 20
4.8118
 30
0.0
  0
SPLINE
  5
72
330
1F
100
AcDbEntity
  8
layer 2
100
AcDbSpline
210
0.0
220
0.0
230
1.0
 70
    11
 71
     3
 72
   108
 73
   104
 74
     0
 42
0.000000001
 43
0.0000000001
 40
0.0
 40
0.0
 40
0.0
 40
0.0
 40
0.037037037037037
 40
0.037037037037037
 40
0.037037037037037
 40
0.037037037037037
 40
0.0740740740740741
 40
0.0740740740740741
 40
0.0740740740740741
 40
0.0740740740740741
 40
0.1111111111111111
 40
0.1111111111111111
 40
0.1111111111111111
 40
0.1111111111111111
 40
0.1481481481481481
 40
0.1481481481481481
 40
0.1481481481481481
 40
0.1481481481481481
 40
0.1851851851851852
 40
0.1851851851851852
 40
0.1851851851851852
 40
0.1851851851851852
 40
0.2222222222222222
 40
0.2222222222222222
 40
0.2222222222222222
 40
0.2222222222222222
 40
0.2592592592592592
 40
0.2592592592592592
 40
0.2592592592592592
 40
0.2592592592592592
 40
0.2962962962962963
 40
0.2962962962962963
 40
0.2962962962962963
 40
0.2962962962962963
 40
0.3333333333333333
 40
0.3333333333333333
 40
0.3333333333333333
 40
0.3333333333333333
 40
0.3703703703703703
 40
0.3703703703703703
 40
0.3703703703703703
 40
0.3703703703703703
 40
0.4074074074074074
 40
0.4074074074074074
 40
0.4074074074074074
 40
0.4074074074074074
 40
0.4444444444444444
 40
0.4444444444444444
 40
0.4444444444444444
 40
0.4444444444444444
 40
0.4814814814814815
 40
0.4814814814814815
 40
0.4814814814814815
 40
0.4814814814814815
 40
0.5185185185185185
 40
0.5185185185185185
 40
0.5185185185185185
 40
0.5185185185185185
 40
0.5555555555555556
 40
0.5555555555555556
 40
0.5555555555555556
 40
0.5555555555555556
 40
0.5925925925925926
 40
0.5925925925925926
 40
0.5925925925925926
 40
0.5925925925925926
 40
0.6296296296296297
 40
0.6296296296296297
 40
0.6296296296296297
 40
0.6296296296296297
 40
0.6666666666666666
 40
0.6666666666666666
 40
0.6666666666666666
 40
0.6666666666666666
 40
0.7037037037037037
 40
0.7037037037037037
 40
0.7037037037037037
 40
0.7037037037037037
 40
0.7407407407407407
 40
0.7407407407407407
 40
0.7407407407407407
 40
0.7407407407407407
 40
0.7777777777777778
 40
0.7777777777777778
 40
0.7777777777777778
 40
0.7777777777777778
 40
0.8148148148148148
 40
0.8148148148148148
 40
0.8148148148148148
 40
0.8148148148148148
 40
0.8518518518518519
 40
0.8518518518518519
 40
0.8518518518518519
 40
0.8518518518518519
 40
0.8888888888888888
 40
0.8888888888888888
 40
0.8888888888888888
 40
0.8888888888888888
 40
0.9259259259259259
 40
0.9259259259259259
 40
0.9259259259259259
 40
0.9259259259259259
 40
1.0
 40
1.0
 40
1.0
 40
1.0
 10
-29.2886
 20
-71.3408
 30
0.0
 10
-21.5977
 20
-66.5643
 30
0.0
 10
-18.4286
 20
-66.4413
 30
0.0
 10
-10.0086
 20
-69.6098
 30
0.0
 10
-10.0086
 20
-69.6098
 30
0.0
 10
-7.0462
 20
-70.7251
 30
0.0
 10
-2.5948
 20
-75.3969
 30
0.0
 10
-0.5482
 20
-77.676
 30
0.0
 10
-0.5482
 20
-77.676
 30
0.0
 10
2.8925
 20
-81.5097
 30
0.0
 10
6.6837
 20
-87.1557
 30
0.0
 10
9.904
 20
-91.3874
 30
0.0
 10
9.904
 20
-91.3874
 30
0.0
 10
10.4761
 20
-92.3964
 30
0.0
 10
11.1198
 20
-93.4031
 30
0.0
 10
11.7108
 20
-94.4106
 30
0.0
 10
11.7108
 20
-94.4106
 30
0.0
 10
12.739
 20
-95.842
 30
0.0
 10
12.4687
 20
-95.7915
 30
0.0
 10
10.4323
 20
-97.0269
 30
0.0
 10
10.4323
 20
-97.0269
 30
0.0
 10
8.0599
 20
-98.4659
 30
0.0
 10
8.1551
 20
-98.5245
 30
0.0
 10
5.1221
 20
-94.055
 30
0.0
 10
5.1221
 20
-94.055
 30
0.0
 10
3.2483
 20
-91.4046
 30
0.0
 10
1.4615
 20
-88.8309
 30
0.0
 10
-0.5443
 20
-86.2795
 30
0.0
 10
-0.5443
 20
-86.2795
 30
0.0
 10
-3.5486
 20
-82.6853
 30
0.0
 10
-5.9727
 20
-80.0129
 30
0.0
 10
-9.4644
 20
-76.7739
 30
0.0
 10
-9.4644
 20
-76.7739
 30
0.0
 10
-10.7379
 20
-75.5926
 30
0.0
 10
-13.0437
 20
-73.9143
 30
0.0
 10
-14.6611
 20
-73.3603
 30
0.0
 10
-14.6611
 20
-73.3603
 30
0.0
 10
-28.7544
 20
-68.533
 30
0.0
 10
-45.9196
 20
-92.0349
 30
0.0
 10
-48.7457
 20
-91.9026
 30
0.0
 10
-48.7457
 20
-91.9026
 30
0.0
 10
-49.1948
 20
-90.117
 30
0.0
 10
-48.6276
 20
-81.7681
 30
0.0
 10
-49.2115
 20
-81.0544
 30
0.0
 10
-49.2115
 20
-81.0544
 30
0.0
 10
-49.7035
 20
-80.481
 30
0.0
 10
-50.7576
 20
-80.7997
 30
0.0
 10
-51.2724
 20
-81.2173
 30
0.0
 10
-51.2724
 20
-81.2173
 30
0.0
 10
-52.3898
 20
-82.1238
 30
0.0
 10
-53.6783
 20
-84.9414
 30
0.0
 10
-54.9542
 20
-86.1074
 30
0.0
 10
-54.9542
 20
-86.1074
 30
0.0
 10
-55.8941
 20
-85.9457
 30
0.0
 10
-55.8546
 20
-84.9694
 30
0.0
 10
-56.218
 20
-83.1991
 30
0.0
 10
-56.218
 20
-83.1991
 30
0.0
 10
-57.6455
 20
-76.2427
 30
0.0
 10
-59.7039
 20
-68.9575
 30
0.0
 10
-64.426
 20
-63.4782
 30
0.0
 10
-64.426
 20
-63.4782
 30
0.0
 10
-64.968
 20
-62.8493
 30
0.0
 10
-65.0415
 20
-62.9481
 30
0.0
 10
-65.3506
 20
-62.1449
 30
0.0
 10
-65.3506
 20
-62.1449
 30
0.0
 10
-64.9969
 20
-61.4181
 30
0.0
 10
-62.1788
 20
-59.4136
 30
0.0
 10
-61.8863
 20
-59.4261
 30
0.0
 10
-61.8863
 20
-59.4261
 30
0.0
 10
-59.8686
 20
-59.5123
 30
0.0
 10
-54.9049
 20
-77.9426
 30
0.0
 10
-52.977
 20
-77.7416
 30
0.0
 10
-52.977
 20
-77.7416
 30
0.0
 10
-52.7751
 20
-77.6339
 30
0.0
 10
-45.8694
 20
-68.9092
 30
0.0
 10
-45.0908
 20
-67.7666
 30
0.0
 10
-45.0908
 20
-67.7666
 30
0.0
 10
-44.8959
 20
-67.4806
 30
0.0
 10
-44.2616
 20
-66.4565
 30
0.0
 10
-43.7673
 20
-66.7921
 30
0.0
 10
-43.7673
 20
-66.7921
 30
0.0
 10
-43.7403
 20
-66.8267
 30
0.0
 10
-43.7114
 20
-66.8429
 30
0.0
 10
-43.7055
 20
-66.9087
 30
0.0
 10
-43.7055
 20
-66.9087
 30
0.0
 10
-43.6803
 20
-67.1848
 30
0.0
 10
-43.4992
 20
-66.9334
 30
0.0
 10
-43.7056
 20
-67.786
 30
0.0
 10
-43.7056
 20
-67.786
 30
0.0
 10
-44.4587
 20
-70.2376
 30
0.0
 10
-45.6189
 20
-73.325
 30
0.0
 10
-46.0757
 20
-75.8015
 30
0.0
 10
-46.0757
 20
-75.8015
 30
0.0
 10
-46.3423
 20
-77.2433
 30
0.0
 10
-46.8899
 20
-83.1707
 30
0.0
 10
-45.2412
 20
-83.7809
 30
0.0
 10
-45.2412
 20
-83.7809
 30
0.0
 10
-44.5039
 20
-83.9382
 30
0.0
 10
-39.9993
 20
-79.7338
 30
0.0
 10
-39.2196
 20
-79.0786
 30
0.0
 10
-39.2196
 20
-79.0786
 30
0.0
 10
-36.7423
 20
-77.2483
 30
0.0
 10
-31.4227
 20
-72.6662
 30
0.0
 10
-29.2886
 20
-71.3408
 30
0.0
  0
SPLINE
  5
73
330
1F
100
AcDbEntity
  8
layer 2
100
AcDbSpline
210
0.0
220
0.0
230
1.0
 70
    11
 71
     3
 72
    44
 73
    40
 74
     0
 42
0.000000001
 43
0.0000000001
 40
0.0
 40
0.0
 40
0.0
 40
0.0
 40
0.0909090909090909
 40
0.0909090909090909
 40
0.0909090909090909
 40
0.0909090909090909
 40
0.1818181818181818
 40
0.1818181818181818
 40
0.1818181818181818
 40
0.1818181818181818
 40
0.2727272727272727
 40
0.2727272727272727
 40
0.2727272727272727
 40
0.2727272727272727
 40
0.3636363636363636
 40
0.3636363636363636
 40
0.3636363636363636
 40
0.3636363636363636
 40
0.4545454545454545
 40
0.4545454545454545
 40
0.4545454545454545
 40
0.4545454545454545
 40
0.5454545454545454
 40
0.5454545454545454
 40
0.5454545454545454
 40
0.5454545454545454
 40
0.6363636363636364
 40
0.6363636363636364
 40
0.6363636363636364
 40
0.6363636363636364
 40
0.7272727272727273
 40
0.7272727272727273
 40
0.7272727272727273
 40
0.7272727272727273
 40
0.8181818181818182
 40
0.8181818181818182
 40
0.8181818181818182
 40
0.8181818181818182
 40
1.0
 40
1.0
 40
1.0
 40
1.0
 10
-39.0337
 20
-87.3452
 30
0.0
 10
-38.6103
 20
-84.7241
 30
0.0
 10
-28.2438
 20
-78.5376
 30
0.0
 10
-25.6862
 20
-77.3597
 30
0.0
 10
-25.6862
 20
-77.3597
 30
0.0
 10
-23.4052
 20
-76.3093
 30
0.0
 10
-18.6027
 20
-74.7744
 30
0.0
 10
-16.1688
 20
-75.9262
 30
0.0
 10
-16.1688
 20
-75.9262
 30
0.0
 10
-12.6045
 20
-77.6122
 30
0.0
 10
-9.5091
 20
-80.1737
 30
0.0
 10
-6.9393
 20
-83.1631
 30
0.0
 10
-6.9393
 20
-83.1631
 30
0.0
 10
-4.411
 20
-86.1048
 30
0.0
 10
-3.1394
 20
-87.9535
 30
0.0
 10
-0.9817
 20
-91.2485
 30
0.0
 10
-0.9817
 20
-91.2485
 30
0.0
 10
0.1797
 20
-93.0598
 30
0.0
 10
1.6546
 20
-94.9481
 30
0.0
 10
2.9175
 20
-96.7147
 30
0.0
 10
2.9175
 20
-96.7147
 30
0.0
 10
5.5288
 20
-100.1868
 30
0.0
 10
5.7573
 20
-99.3754
 30
0.0
 10
2.0207
 20
-101.2982
 30
0.0
 10
2.0207
 20
-101.2982
 30
0.0
 10
-1.4989
 20
-103.1095
 30
0.0
 10
-0.296
 20
-102.3818
 30
0.0
 10
-3.2882
 20
-99.2962
 30
0.0
 10
-3.2882
 20
-99.2962
 30
0.0
 10
-5.4136
 20
-96.6914
 30
0.0
 10
-7.5325
 20
-94.2074
 30
0.0
 10
-9.6996
 20
-91.662
 30
0.0
 10
-9.6996
 20
-91.662
 30
0.0
 10
-12.6296
 20
-88.8665
 30
0.0
 10
-16.3848
 20
-84.6505
 30
0.0
 10
-20.2765
 20
-83.5217
 30
0.0
 10
-20.2765
 20
-83.5217
 30
0.0
 10
-29.4274
 20
-80.8675
 30
0.0
 10
-35.9722
 20
-87.6397
 30
0.0
 10
-39.0337
 20
-87.3452
 30
0.0
  0
SPLINE
  5
74
330
1F
100
AcDbEntity
  8
layer 2
100
AcDbSpline
210
0.0
220
0.0
230
1.0
 70
    11
 71
     3
 72
    12
 73
     8
 74
     0
 42
0.000000001
 43
0.0000000001
 40
0.0
 40
0.0
 40
0.0
 40
0.0
 40
0.3333333333333333
 40
0.3333333333333333
 40
0.3333333333333333
 40
0.3333333333333333
 40
1.0
 40
1.0
 40
1.0
 40
1.0
 10
17.5683
 20
45.579
 30
0.0
 10
21.9983
 20
42.2929
 30
0.0
 10
17.6559
 20
36.2558
 30
0.0
 10
15.2828
 20
36.2631
 30
0.0
 10
15.2828
 20
36.2631
 30
0.0
 10
4.5982
 20
36.2954
 30
0.0
 10
10.1179
 20
51.1046
 30
0.0
 10
17.5683
 20
45.579
 30
0.0
  0
SPLINE
  5
75
330
1F
100
AcDbEntity
  8
layer 2
100
AcDbSpline
210
0.0
220
0.0
230
1.0
 70
    11
 71
     3
 72
    24
 73
    20
 74
     0
 42
0.000000001
 43
0.0000000001
 40
0.0
 40
0.0
 40
0.0
 40
0.0
 40
0.1666666666666667
 40
0.1666666666666667
 40
0.1666666666666667
 40
0.1666666666666667
 40
0.3333333333333333
 40
0.3333333333333333
 40
0.3333333333333333
 40
0.3333333333333333
 40
0.5
 40
0.5
 40
0.5
 40
0.5
 40
0.6666666666666666
 40
0.6666666666666666
 40
0.6666666666666666
 40
0.6666666666666666
 40
1.0
 40
1.0
 40
1.0
 40
1.0
 10
-50.406
 20
-69.2757
 30
0.0
 10
-50.2763
 20
-69.9975
 30
0.0
 10
-52.4391
 20
-74.7416
 30
0.0
 10
-52.9757
 20
-73.4424
 30
0.0
 10
-52.9757
 20
-73.4424
 30
0.0
 10
-52.9757
 20
-73.4424
 30
0.0
 10
-57.823
 20
-61.7095
 30
0.0
 10
-57.823
 20
-61.7095
 30
0.0
 10
-57.823
 20
-61.7095
 30
0.0
 10
-58.8951
 20
-58.7935
 30
0.0
 10
-59.9795
 20
-58.2745
 30
0.0
 10
-58.3596
 20
-57.2152
 30
0.0
 10
-58.3596
 20
-57.2152
 30
0.0
 10
-57.9744
 20
-56.9633
 30
0.0
 10
-56.7552
 20
-56.2225
 30
0.0
 10
-56.2992
 20
-56.1692
 30
0.0
 10
-56.2992
 20
-56.1692
 30
0.0
 10
-55.3272
 20
-56.9381
 30
0.0
 10
-50.6751
 20
-67.778
 30
0.0
 10
-50.406
 20
-69.2757
 30
0.0
  0
SPLINE
  5
76
330
1F
100
AcDbEntity
  8
layer 2
100
AcDbSpline
210
0.0
220
0.0
230
1.0
 70
    11
 71
     3
 72
    44
 73
    40
 74
     0
 42
0.000000001
 43
0.0000000001
 40
0.0
 40
0.0
 40
0.0
 40
0.0
 40
0.0909090909090909
 40
0.0909090909090909
 40
0.0909090909090909
 40
0.0909090909090909
 40
0.1818181818181818
 40
0.1818181818181818
 40
0.1818181818181818
 40
0.1818181818181818
 40
0.2727272727272727
 40
0.2727272727272727
 40
0.2727272727272727
 40
0.2727272727272727
 40
0.3636363636363636
 40
0.3636363636363636
 40
0.3636363636363636
 40
0.3636363636363636
 40
0.4545454545454545
 40
0.4545454545454545
 40
0.4545454545454545
 40
0.4545454545454545
 40
0.5454545454545454
 40
0.5454545454545454
 40
0.5454545454545454
 40
0.5454545454545454
 40
0.6363636363636364
 40
0.6363636363636364
 40
0.6363636363636364
 40
0.6363636363636364
 40
0.7272727272727273
 40
0.7272727272727273
 40
0.7272727272727273
 40
0.7272727272727273
 40
0.8181818181818182
 40
0.8181818181818182
 40
0.8181818181818182
 40
0.8181818181818182
 40
1.0
 40
1.0
 40
1.0
 40
1.0
 10
-63.7326
 20
-69.1268
 30
0.0
 10
-62.0843
 20
-71.7547
 30
0.0
 10
-60.0708
 20
-76.0868
 30
0.0
 10
-59.1828
 20
-79.0768
 30
0.0
 10
-59.1828
 20
-79.0768
 30
0.0
 10
-58.6093
 20
-81.0081
 30
0.0
 10
-57.6247
 20
-85.2325
 30
0.0
 10
-57.6523
 20
-87.224
 30
0.0
 10
-57.6523
 20
-87.224
 30
0.0
 10
-57.6685
 20
-88.3934
 30
0.0
 10
-57.851
 20
-90.6234
 30
0.0
 10
-58.8661
 20
-90.9334
 30
0.0
 10
-58.8661
 20
-90.9334
 30
0.0
 10
-59.6325
 20
-90.3281
 30
0.0
 10
-59.6497
 20
-87.9499
 30
0.0
 10
-60.046
 20
-86.8852
 30
0.0
 10
-60.046
 20
-86.8852
 30
0.0
 10
-60.8398
 20
-84.7526
 30
0.0
 10
-60.3264
 20
-85.5458
 30
0.0
 10
-61.6388
 20
-83.0419
 30
0.0
 10
-61.6388
 20
-83.0419
 30
0.0
 10
-63.0743
 20
-80.303
 30
0.0
 10
-66.0383
 20
-75.4616
 30
0.0
 10
-68.0689
 20
-73.1645
 30
0.0
 10
-68.0689
 20
-73.1645
 30
0.0
 10
-68.9546
 20
-72.1625
 30
0.0
 10
-70.0384
 20
-71.5804
 30
0.0
 10
-70.8387
 20
-70.4909
 30
0.0
 10
-70.8387
 20
-70.4909
 30
0.0
 10
-71.5403
 20
-69.5356
 30
0.0
 10
-71.722
 20
-67.3328
 30
0.0
 10
-70.9233
 20
-66.3967
 30
0.0
 10
-70.9233
 20
-66.3967
 30
0.0
 10
-70.3897
 20
-65.7716
 30
0.0
 10
-68.731
 20
-64.0828
 30
0.0
 10
-68.0777
 20
-63.8362
 30
0.0
 10
-68.0777
 20
-63.8362
 30
0.0
 10
-66.2702
 20
-64.7228
 30
0.0
 10
-64.8092
 20
-67.4112
 30
0.0
 10
-63.7326
 20
-69.1268
 30
0.0
  0
SPLINE
  5
77
330
1F
100
AcDbEntity
  8
layer 2
100
AcDbSpline
210
0.0
220
0.0
230
1.0
 70
    11
 71
     3
 72
   100
 73
    96
 74
     0
 42
0.000000001
 43
0.0000000001
 40
0.0
 40
0.0
 40
0.0
 40
0.0
 40
0.04
 40
0.04
 40
0.04
 40
0.04
 40
0.08
 40
0.08
 40
0.08
 40
0.08
 40
0.12
 40
0.12
 40
0.12
 40
0.12
 40
0.16
 40
0.16
 40
0.16
 40
0.16
 40
0.2
 40
0.2
 40
0.2
 40
0.2
 40
0.24
 40
0.24
 40
0.24
 40
0.24
 40
0.28
 40
0.28
 40
0.28
 40
0.28
 40
0.32
 40
0.32
 40
0.32
 40
0.32
 40
0.36
 40
0.36
 40
0.36
 40
0.36
 40
0.4
 40
0.4
 40
0.4
 40
0.4
 40
0.44
 40
0.44
 40
0.44
 40
0.44
 40
0.48
 40
0.48
 40
0.48
 40
0.48
 40
0.52
 40
0.52
 40
0.52
 40
0.52
 40
0.56
 40
0.56
 40
0.56
 40
0.56
 40
0.6
 40
0.6
 40
0.6
 40
0.6
 40
0.64
 40
0.64
 40
0.64
 40
0.64
 40
0.68
 40
0.68
 40
0.68
 40
0.68
 40
0.72
 40
0.72
 40
0.72
 40
0.72
 40
0.76
 40
0.76
 40
0.76
 40
0.76
 40
0.8
 40
0.8
 40
0.8
 40
0.8
 40
0.84
 40
0.84
 40
0.84
 40
0.84
 40
0.88
 40
0.88
 40
0.88
 40
0.88
 40
0.92
 40
0.92
 40
0.92
 40
0.92
 40
1.0
 40
1.0
 40
1.0
 40
1.0
 10
-64.9082
 20
-83.4457
 30
0.0
 10
-64.3764
 20
-84.5181
 30
0.0
 10
-63.7693
 20
-85.6179
 30
0.0
 10
-63.3673
 20
-86.7282
 30
0.0
 10
-63.3673
 20
-86.7282
 30
0.0
 10
-63.3673
 20
-86.7282
 30
0.0
 10
-60.4281
 20
-93.4593
 30
0.0
 10
-60.4281
 20
-93.4593
 30
0.0
 10
-60.4281
 20
-93.4593
 30
0.0
 10
-57.896
 20
-98.8274
 30
0.0
 10
-53.1237
 20
-86.7145
 30
0.0
 10
-51.6446
 20
-86.3599
 30
0.0
 10
-51.6446
 20
-86.3599
 30
0.0
 10
-51.0389
 20
-87.146
 30
0.0
 10
-51.3876
 20
-92.8424
 30
0.0
 10
-50.7617
 20
-96.0502
 30
0.0
 10
-50.7617
 20
-96.0502
 30
0.0
 10
-50.0002
 20
-99.9597
 30
0.0
 10
-43.1373
 20
-91.7781
 30
0.0
 10
-38.8023
 20
-90.3604
 30
0.0
 10
-38.8023
 20
-90.3604
 30
0.0
 10
-34.8637
 20
-88.6162
 30
0.0
 10
-26.9384
 20
-84.5584
 30
0.0
 10
-22.9482
 20
-85.4127
 30
0.0
 10
-22.9482
 20
-85.4127
 30
0.0
 10
-20.6823
 20
-85.8977
 30
0.0
 10
-17.9082
 20
-87.1297
 30
0.0
 10
-16.6657
 20
-88.3602
 30
0.0
 10
-16.6657
 20
-88.3602
 30
0.0
 10
-14.3256
 20
-90.6774
 30
0.0
 10
-4.0262
 20
-102.2502
 30
0.0
 10
-3.825
 20
-103.3813
 30
0.0
 10
-3.825
 20
-103.3813
 30
0.0
 10
-4.0875
 20
-103.7518
 30
0.0
 10
-9.772
 20
-106.726
 30
0.0
 10
-10.617
 20
-106.3348
 30
0.0
 10
-10.617
 20
-106.3348
 30
0.0
 10
-15.3752
 20
-102.8733
 30
0.0
 10
-20.0005
 20
-90.8673
 30
0.0
 10
-28.779
 20
-92.9903
 30
0.0
 10
-28.779
 20
-92.9903
 30
0.0
 10
-33.124
 20
-94.0409
 30
0.0
 10
-35.9265
 20
-95.2672
 30
0.0
 10
-39.8282
 20
-97.204
 30
0.0
 10
-39.8282
 20
-97.204
 30
0.0
 10
-42.0869
 20
-98.4718
 30
0.0
 10
-45.2
 20
-101.0286
 30
0.0
 10
-46.4431
 20
-103.2674
 30
0.0
 10
-46.4431
 20
-103.2674
 30
0.0
 10
-47.4286
 20
-105.042
 30
0.0
 10
-47.3853
 20
-104.9276
 30
0.0
 10
-48.0596
 20
-106.7845
 30
0.0
 10
-48.0596
 20
-106.7845
 30
0.0
 10
-48.4169
 20
-107.7682
 30
0.0
 10
-48.2238
 20
-110.3987
 30
0.0
 10
-49.2018
 20
-110.7449
 30
0.0
 10
-49.2018
 20
-110.7449
 30
0.0
 10
-51.4683
 20
-108.9559
 30
0.0
 10
-52.8252
 20
-96.207
 30
0.0
 10
-53.4882
 20
-95.4452
 30
0.0
 10
-53.4882
 20
-95.4452
 30
0.0
 10
-54.5515
 20
-95.3006
 30
0.0
 10
-54.5781
 20
-96.006
 30
0.0
 10
-54.9979
 20
-96.6775
 30
0.0
 10
-54.9979
 20
-96.6775
 30
0.0
 10
-55.5591
 20
-97.5746
 30
0.0
 10
-57.4127
 20
-102.0173
 30
0.0
 10
-58.1111
 20
-102.4402
 30
0.0
 10
-58.1111
 20
-102.4402
 30
0.0
 10
-58.8074
 20
-102.2305
 30
0.0
 10
-58.8018
 20
-101.373
 30
0.0
 10
-59.0398
 20
-100.5384
 30
0.0
 10
-59.0398
 20
-100.5384
 30
0.0
 10
-61.5654
 20
-91.6844
 30
0.0
 10
-67.561
 20
-80.5687
 30
0.0
 10
-75.8363
 20
-76.2504
 30
0.0
 10
-75.8363
 20
-76.2504
 30
0.0
 10
-76.5712
 20
-75.8669
 30
0.0
 10
-77.0844
 20
-75.5109
 30
0.0
 10
-77.591
 20
-74.984
 30
0.0
 10
-77.591
 20
-74.984
 30
0.0
 10
-77.5779
 20
-73.7659
 30
0.0
 10
-75.9329
 20
-71.5964
 30
0.0
 10
-75.1749
 20
-71.2682
 30
0.0
 10
-75.1749
 20
-71.2682
 30
0.0
 10
-73.8436
 20
-71.8061
 30
0.0
 10
-71.0853
 20
-74.6888
 30
0.0
 10
-70.1316
 20
-75.6795
 30
0.0
 10
-70.1316
 20
-75.6795
 30
0.0
 10
-68.4955
 20
-77.3791
 30
0.0
 10
-68.1026
 20
-78.3976
 30
0.0
 10
-67.0809
 20
-79.7283
 30
0.0
 10
-67.0809
 20
-79.7283
 30
0.0
 10
-67.0809
 20
-79.7283
 30
0.0
 10
-64.9082
 20
-83.4457
 30
0.0
 10
-64.9082
 20
-83.4457
 30
0.0
  0
SPLINE
  5
78
330
1F
100
AcDbEntity
  8
layer 2
100
AcDbSpline
210
0.0
220
0.0
230
1.0
 70
    11
 71
     3
 72
    36
 73
    32
 74
     0
 42
0.000000001
 43
0.0000000001
 40
0.0
 40
0.0
 40
0.0
 40
0.0
 40
0.1111111111111111
 40
0.1111111111111111
 40
0.1111111111111111
 40
0.1111111111111111
 40
0.2222222222222222
 40
0.2222222222222222
 40
0.2222222222222222
 40
0.2222222222222222
 40
0.3333333333333333
 40
0.3333333333333333
 40
0.3333333333333333
 40
0.3333333333333333
 40
0.4444444444444444
 40
0.4444444444444444
 40
0.4444444444444444
 40
0.4444444444444444
 40
0.5555555555555556
 40
0.5555555555555556
 40
0.5555555555555556
 40
0.5555555555555556
 40
0.6666666666666666
 40
0.6666666666666666
 40
0.6666666666666666
 40
0.6666666666666666
 40
0.7777777777777778
 40
0.7777777777777778
 40
0.7777777777777778
 40
0.7777777777777778
 40
1.0
 40
1.0
 40
1.0
 40
1.0
 10
16.8135
 20
82.6669
 30
0.0
 10
15.9493
 20
82.4001
 30
0.0
 10
15.6696
 20
83.1062
 30
0.0
 10
15.3292
 20
83.6692
 30
0.0
 10
15.3292
 20
83.6692
 30
0.0
 10
12.9003
 20
87.687
 30
0.0
 10
8.5916
 20
103.3655
 30
0.0
 10
10.3421
 20
106.9787
 30
0.0
 10
10.3421
 20
106.9787
 30
0.0
 10
11.33
 20
109.0174
 30
0.0
 10
8.5911
 20
114.7111
 30
0.0
 10
8.5923
 20
115.206
 30
0.0
 10
8.5923
 20
115.206
 30
0.0
 10
8.5952
 20
116.3158
 30
0.0
 10
9.7041
 20
115.8263
 30
0.0
 10
10.204
 20
115.2489
 30
0.0
 10
10.204
 20
115.2489
 30
0.0
 10
12.7838
 20
112.2676
 30
0.0
 10
15.389
 20
107.0815
 30
0.0
 10
16.407
 20
103.1764
 30
0.0
 10
16.407
 20
103.1764
 30
0.0
 10
16.9245
 20
101.1906
 30
0.0
 10
20.294
 20
87.5498
 30
0.0
 10
19.842
 20
85.8608
 30
0.0
 10
19.842
 20
85.8608
 30
0.0
 10
16.9353
 20
85.219
 30
0.0
 10
15.368
 20
95.0014
 30
0.0
 10
13.6171
 20
95.8684
 30
0.0
 10
13.6171
 20
95.8684
 30
0.0
 10
12.3865
 20
94.0034
 30
0.0
 10
17.5176
 20
83.8613
 30
0.0
 10
16.8135
 20
82.6669
 30
0.0
  0
SPLINE
  5
79
330
1F
100
AcDbEntity
  8
layer 2
100
AcDbSpline
210
0.0
220
0.0
230
1.0
 70
    11
 71
     3
 72
   192
 73
   188
 74
     0
 42
0.000000001
 43
0.0000000001
 40
0.0
 40
0.0
 40
0.0
 40
0.0
 40
0.0208333333333333
 40
0.0208333333333333
 40
0.0208333333333333
 40
0.0208333333333333
 40
0.0416666666666667
 40
0.0416666666666667
 40
0.0416666666666667
 40
0.0416666666666667
 40
0.0625
 40
0.0625
 40
0.0625
 40
0.0625
 40
0.0833333333333333
 40
0.0833333333333333
 40
0.0833333333333333
 40
0.0833333333333333
 40
0.1041666666666667
 40
0.1041666666666667
 40
0.1041666666666667
 40
0.1041666666666667
 40
0.125
 40
0.125
 40
0.125
 40
0.125
 40
0.1458333333333333
 40
0.1458333333333333
 40
0.1458333333333333
 40
0.1458333333333333
 40
0.1666666666666667
 40
0.1666666666666667
 40
0.1666666666666667
 40
0.1666666666666667
 40
0.1875
 40
0.1875
 40
0.1875
 40
0.1875
 40
0.2083333333333333
 40
0.2083333333333333
 40
0.2083333333333333
 40
0.2083333333333333
 40
0.2291666666666667
 40
0.2291666666666667
 40
0.2291666666666667
 40
0.2291666666666667
 40
0.25
 40
0.25
 40
0.25
 40
0.25
 40
0.2708333333333333
 40
0.2708333333333333
 40
0.2708333333333333
 40
0.2708333333333333
 40
0.2916666666666667
 40
0.2916666666666667
 40
0.2916666666666667
 40
0.2916666666666667
 40
0.3125
 40
0.3125
 40
0.3125
 40
0.3125
 40
0.3333333333333333
 40
0.3333333333333333
 40
0.3333333333333333
 40
0.3333333333333333
 40
0.3541666666666667
 40
0.3541666666666667
 40
0.3541666666666667
 40
0.3541666666666667
 40
0.375
 40
0.375
 40
0.375
 40
0.375
 40
0.3958333333333333
 40
0.3958333333333333
 40
0.3958333333333333
 40
0.3958333333333333
 40
0.4166666666666667
 40
0.4166666666666667
 40
0.4166666666666667
 40
0.4166666666666667
 40
0.4375
 40
0.4375
 40
0.4375
 40
0.4375
 40
0.4583333333333333
 40
0.4583333333333333
 40
0.4583333333333333
 40
0.4583333333333333
 40
0.4791666666666667
 40
0.4791666666666667
 40
0.4791666666666667
 40
0.4791666666666667
 40
0.5
 40
0.5
 40
0.5
 40
0.5
 40
0.5208333333333334
 40
0.5208333333333334
 40
0.5208333333333334
 40
0.5208333333333334
 40
0.5416666666666666
 40
0.5416666666666666
 40
0.5416666666666666
 40
0.5416666666666666
 40
0.5625
 40
0.5625
 40
0.5625
 40
0.5625
 40
0.5833333333333334
 40
0.5833333333333334
 40
0.5833333333333334
 40
0.5833333333333334
 40
0.6041666666666666
 40
0.6041666666666666
 40
0.6041666666666666
 40
0.6041666666666666
 40
0.625
 40
0.625
 40
0.625
 40
0.625
 40
0.6458333333333334
 40
0.6458333333333334
 40
0.6458333333333334
 40
0.6458333333333334
 40
0.6666666666666666
 40
0.6666666666666666
 40
0.6666666666666666
 40
0.6666666666666666
 40
0.6875
 40
0.6875
 40
0.6875
 40
0.6875
 40
0.7083333333333334
 40
0.7083333333333334
 40
0.7083333333333334
 40
0.7083333333333334
 40
0.7291666666666666
 40
0.7291666666666666
 40
0.7291666666666666
 40
0.7291666666666666
 40
0.75
 40
0.75
 40
0.75
 40
0.75
 40
0.7708333333333334
 40
0.7708333333333334
 40
0.7708333333333334
 40
0.7708333333333334
 40
0.7916666666666666
 40
0.7916666666666666
 40
0.7916666666666666
 40
0.7916666666666666
 40
0.8125
 40
0.8125
 40
0.8125
 40
0.8125
 40
0.8333333333333334
 40
0.8333333333333334
 40
0.8333333333333334
 40
0.8333333333333334
 40
0.8541666666666666
 40
0.8541666666666666
 40
0.8541666666666666
 40
0.8541666666666666
 40
0.875
 40
0.875
 40
0.875
 40
0.875
 40
0.8958333333333334
 40
0.8958333333333334
 40
0.8958333333333334
 40
0.8958333333333334
 40
0.9166666666666666
 40
0.9166666666666666
 40
0.9166666666666666
 40
0.9166666666666666
 40
0.9375
 40
0.9375
 40
0.9375
 40
0.9375
 40
0.9583333333333334
 40
0.9583333333333334
 40
0.9583333333333334
 40
0.9583333333333334
 40
1.0
 40
1.0
 40
1.0
 40
1.0
 10
4.1533
 20
90.0369
 30
0.0
 10
4.3457
 20
88.048
 30
0.0
 10
4.388
 20
86.0357
 30
0.0
 10
4.5825
 20
84.0783
 30
0.0
 10
4.5825
 20
84.0783
 30
0.0
 10
5.4651
 20
75.2013
 30
0.0
 10
4.7751
 20
67.3146
 30
0.0
 10
12.6449
 20
61.0443
 30
0.0
 10
12.6449
 20
61.0443
 30
0.0
 10
14.6168
 20
59.4726
 30
0.0
 10
20.2389
 20
57.7726
 30
0.0
 10
20.5815
 20
56.5795
 30
0.0
 10
20.5815
 20
56.5795
 30
0.0
 10
4.7443
 20
59.8903
 30
0.0
 10
2.7712
 20
72.5467
 30
0.0
 10
2.3972
 20
81.9575
 30
0.0
 10
2.3972
 20
81.9575
 30
0.0
 10
2.1921
 20
87.1286
 30
0.0
 10
1.1481
 20
92.8778
 30
0.0
 10
-0.7385
 20
97.5004
 30
0.0
 10
-0.7385
 20
97.5004
 30
0.0
 10
-3.0412
 20
103.1423
 30
0.0
 10
-17.7777
 20
113.3812
 30
0.0
 10
-24.2845
 20
111.1112
 30
0.0
 10
-24.2845
 20
111.1112
 30
0.0
 10
-24.3151
 20
109.2567
 30
0.0
 10
-18.9722
 20
110.5373
 30
0.0
 10
-18.7167
 20
108.9414
 30
0.0
 10
-18.7167
 20
108.9414
 30
0.0
 10
-19.3277
 20
108.5329
 30
0.0
 10
-23.4007
 20
108.6707
 30
0.0
 10
-24.7591
 20
108.4075
 30
0.0
 10
-24.7591
 20
108.4075
 30
0.0
 10
-24.7591
 20
108.4075
 30
0.0
 10
-28.649
 20
107.3119
 30
0.0
 10
-28.649
 20
107.3119
 30
0.0
 10
-28.649
 20
107.3119
 30
0.0
 10
-28.8286
 20
107.2478
 30
0.0
 10
-29.5401
 20
106.8585
 30
0.0
 10
-29.656
 20
107.1222
 30
0.0
 10
-29.656
 20
107.1222
 30
0.0
 10
-29.6761
 20
107.1679
 30
0.0
 10
-29.7379
 20
107.1472
 30
0.0
 10
-29.7737
 20
107.1697
 30
0.0
 10
-29.7737
 20
107.1697
 30
0.0
 10
-30.16
 20
108.6627
 30
0.0
 10
-26.2882
 20
109.5199
 30
0.0
 10
-26.6712
 20
110.5046
 30
0.0
 10
-26.6712
 20
110.5046
 30
0.0
 10
-27.5634
 20
111.9731
 30
0.0
 10
-30.2872
 20
108.5929
 30
0.0
 10
-30.8035
 20
108.2633
 30
0.0
 10
-30.8035
 20
108.2633
 30
0.0
 10
-32.9117
 20
106.9175
 30
0.0
 10
-34.4648
 20
108.3562
 30
0.0
 10
-33.6132
 20
110.7701
 30
0.0
 10
-33.6132
 20
110.7701
 30
0.0
 10
-31.6785
 20
116.2529
 30
0.0
 10
-26.9436
 20
116.1695
 30
0.0
 10
-26.4385
 20
117.2871
 30
0.0
 10
-26.4385
 20
117.2871
 30
0.0
 10
-27.2945
 20
117.7031
 30
0.0
 10
-28.7981
 20
117.2944
 30
0.0
 10
-29.5895
 20
116.8664
 30
0.0
 10
-29.5895
 20
116.8664
 30
0.0
 10
-31.6805
 20
115.7352
 30
0.0
 10
-32.9694
 20
113.9536
 30
0.0
 10
-34.1449
 20
111.9029
 30
0.0
 10
-34.1449
 20
111.9029
 30
0.0
 10
-34.4938
 20
111.2943
 30
0.0
 10
-34.2047
 20
111.1017
 30
0.0
 10
-34.9506
 20
111.0284
 30
0.0
 10
-34.9506
 20
111.0284
 30
0.0
 10
-36.002
 20
112.8465
 30
0.0
 10
-29.6569
 20
118.0174
 30
0.0
 10
-29.9614
 20
119.1722
 30
0.0
 10
-29.9614
 20
119.1722
 30
0.0
 10
-31.2296
 20
119.5599
 30
0.0
 10
-35.0782
 20
114.0603
 30
0.0
 10
-35.5953
 20
112.7473
 30
0.0
 10
-35.5953
 20
112.7473
 30
0.0
 10
-35.8175
 20
112.1827
 30
0.0
 10
-35.7365
 20
112.0539
 30
0.0
 10
-36.4205
 20
112.1118
 30
0.0
 10
-36.4205
 20
112.1118
 30
0.0
 10
-37.0879
 20
113.6974
 30
0.0
 10
-33.8534
 20
117.2962
 30
0.0
 10
-32.6749
 20
118.2907
 30
0.0
 10
-32.6749
 20
118.2907
 30
0.0
 10
-32.252
 20
118.6478
 30
0.0
 10
-31.0495
 20
119.5342
 30
0.0
 10
-30.9429
 20
119.869
 30
0.0
 10
-30.9429
 20
119.869
 30
0.0
 10
-30.9542
 20
120.0763
 30
0.0
 10
-32.0295
 20
120.747
 30
0.0
 10
-32.138
 20
120.7612
 30
0.0
 10
-32.138
 20
120.7612
 30
0.0
 10
-33.1221
 20
120.8888
 30
0.0
 10
-35.6531
 20
116.5454
 30
0.0
 10
-36.7791
 20
116.4426
 30
0.0
 10
-36.7791
 20
116.4426
 30
0.0
 10
-37.1301
 20
118.0801
 30
0.0
 10
-33.4386
 20
119.8022
 30
0.0
 10
-33.8575
 20
121.1607
 30
0.0
 10
-33.8575
 20
121.1607
 30
0.0
 10
-34.5882
 20
121.0682
 30
0.0
 10
-36.1168
 20
119.228
 30
0.0
 10
-36.7115
 20
118.5553
 30
0.0
 10
-36.7115
 20
118.5553
 30
0.0
 10
-38.747
 20
116.2533
 30
0.0
 10
-39.3184
 20
113.7396
 30
0.0
 10
-41.8033
 20
117.9038
 30
0.0
 10
-41.8033
 20
117.9038
 30
0.0
 10
-42.2351
 20
118.6273
 30
0.0
 10
-42.326
 20
118.8754
 30
0.0
 10
-41.889
 20
119.6491
 30
0.0
 10
-41.889
 20
119.6491
 30
0.0
 10
-41.5922
 20
120.1745
 30
0.0
 10
-41.4571
 20
120.7889
 30
0.0
 10
-41.2207
 20
121.2232
 30
0.0
 10
-41.2207
 20
121.2232
 30
0.0
 10
-39.0087
 20
121.1417
 30
0.0
 10
-41.0472
 20
118.2751
 30
0.0
 10
-40.2795
 20
117.6058
 30
0.0
 10
-40.2795
 20
117.6058
 30
0.0
 10
-39.6597
 20
117.0654
 30
0.0
 10
-38.3329
 20
119.7028
 30
0.0
 10
-37.7507
 20
120.4959
 30
0.0
 10
-37.7507
 20
120.4959
 30
0.0
 10
-37.1137
 20
121.3632
 30
0.0
 10
-36.3661
 20
123.4479
 30
0.0
 10
-35.1157
 20
123.496
 30
0.0
 10
-35.1157
 20
123.496
 30
0.0
 10
-34.9838
 20
123.2228
 30
0.0
 10
-34.8166
 20
122.8784
 30
0.0
 10
-34.6308
 20
122.6675
 30
0.0
 10
-34.6308
 20
122.6675
 30
0.0
 10
-33.5784
 20
122.5985
 30
0.0
 10
-19.427
 20
129.2
 30
0.0
 10
-19.9
 20
124.0583
 30
0.0
 10
-19.9
 20
124.0583
 30
0.0
 10
-20.8391
 20
123.6456
 30
0.0
 10
-23.5692
 20
123.7568
 30
0.0
 10
-24.1644
 20
122.8901
 30
0.0
 10
-24.1644
 20
122.8901
 30
0.0
 10
-23.7451
 20
122.231
 30
0.0
 10
-22.6831
 20
122.5662
 30
0.0
 10
-21.7224
 20
122.5693
 30
0.0
 10
-21.7224
 20
122.5693
 30
0.0
 10
-20.7252
 20
122.5725
 30
0.0
 10
-19.7868
 20
122.6359
 30
0.0
 10
-18.7949
 20
122.6781
 30
0.0
 10
-18.7949
 20
122.6781
 30
0.0
 10
-17.6634
 20
122.7263
 30
0.0
 10
-16.9752
 20
122.7951
 30
0.0
 10
-15.8241
 20
122.7334
 30
0.0
 10
-15.8241
 20
122.7334
 30
0.0
 10
-14.7623
 20
122.6767
 30
0.0
 10
-13.9923
 20
122.9107
 30
0.0
 10
-14.1969
 20
121.5446
 30
0.0
 10
-14.1969
 20
121.5446
 30
0.0
 10
-15.4102
 20
120.8187
 30
0.0
 10
-18.1556
 20
121.795
 30
0.0
 10
-19.0
 20
121.0774
 30
0.0
 10
-19.0
 20
121.0774
 30
0.0
 10
-18.7987
 20
119.9265
 30
0.0
 10
-16.7334
 20
120.169
 30
0.0
 10
-15.959
 20
119.885
 30
0.0
 10
-15.959
 20
119.885
 30
0.0
 10
-15.7484
 20
119.1314
 30
0.0
 10
-16.1609
 20
119.1521
 30
0.0
 10
-15.3692
 20
118.8113
 30
0.0
 10
-15.3692
 20
118.8113
 30
0.0
 10
-13.6794
 20
118.0841
 30
0.0
 10
-11.6749
 20
117.2427
 30
0.0
 10
-10.0739
 20
116.2624
 30
0.0
 10
-10.0739
 20
116.2624
 30
0.0
 10
-8.2783
 20
115.1627
 30
0.0
 10
-6.3153
 20
113.565
 30
0.0
 10
-4.9405
 20
112.0297
 30
0.0
 10
-4.9405
 20
112.0297
 30
0.0
 10
-3.2724
 20
110.1669
 30
0.0
 10
-3.5796
 20
110.4669
 30
0.0
 10
-2.2776
 20
108.5002
 30
0.0
 10
-2.2776
 20
108.5002
 30
0.0
 10
0.8152
 20
103.829
 30
0.0
 10
3.6134
 20
95.6275
 30
0.0
 10
4.1533
 20
90.0369
 30
0.0
  0
SPLINE
  5
7A
330
1F
100
AcDbEntity
  8
layer 2
100
AcDbSpline
210
0.0
220
0.0
230
1.0
 70
    11
 71
     3
 72
    36
 73
    32
 74
     0
 42
0.000000001
 43
0.0000000001
 40
0.0
 40
0.0
 40
0.0
 40
0.0
 40
0.1111111111111111
 40
0.1111111111111111
 40
0.1111111111111111
 40
0.1111111111111111
 40
0.2222222222222222
 40
0.2222222222222222
 40
0.2222222222222222
 40
0.2222222222222222
 40
0.3333333333333333
 40
0.3333333333333333
 40
0.3333333333333333
 40
0.3333333333333333
 40
0.4444444444444444
 40
0.4444444444444444
 40
0.4444444444444444
 40
0.4444444444444444
 40
0.5555555555555556
 40
0.5555555555555556
 40
0.5555555555555556
 40
0.5555555555555556
 40
0.6666666666666666
 40
0.6666666666666666
 40
0.6666666666666666
 40
0.6666666666666666
 40
0.7777777777777778
 40
0.7777777777777778
 40
0.7777777777777778
 40
0.7777777777777778
 40
1.0
 40
1.0
 40
1.0
 40
1.0
 10
-36.2254
 20
-1.2719
 30
0.0
 10
-35.1637
 20
-6.0524
 30
0.0
 10
-35.6258
 20
-14.3397
 30
0.0
 10
-37.2472
 20
-18.9622
 30
0.0
 10
-37.2472
 20
-18.9622
 30
0.0
 10
-37.4843
 20
-19.6382
 30
0.0
 10
-37.2352
 20
-19.7361
 30
0.0
 10
-37.8763
 20
-20.0655
 30
0.0
 10
-37.8763
 20
-20.0655
 30
0.0
 10
-38.7491
 20
-19.7716
 30
0.0
 10
-38.4021
 20
-19.2568
 30
0.0
 10
-38.5244
 20
-18.2305
 30
0.0
 10
-38.5244
 20
-18.2305
 30
0.0
 10
-39.0133
 20
-14.1303
 30
0.0
 10
-40.8723
 20
7.211
 30
0.0
 10
-47.9937
 20
6.5773
 30
0.0
 10
-47.9937
 20
6.5773
 30
0.0
 10
-48.3575
 20
6.0736
 30
0.0
 10
-48.4963
 20
5.2579
 30
0.0
 10
-49.1777
 20
6.1366
 30
0.0
 10
-49.1777
 20
6.1366
 30
0.0
 10
-50.0635
 20
8.8276
 30
0.0
 10
-50.8986
 20
11.924
 30
0.0
 10
-52.2529
 20
14.4042
 30
0.0
 10
-52.2529
 20
14.4042
 30
0.0
 10
-52.9856
 20
15.7459
 30
0.0
 10
-53.7636
 20
16.5311
 30
0.0
 10
-53.5414
 20
17.412
 30
0.0
 10
-53.5414
 20
17.412
 30
0.0
 10
-51.4228
 20
17.9397
 30
0.0
 10
-36.8753
 20
1.6545
 30
0.0
 10
-36.2254
 20
-1.2719
 30
0.0
  0
SPLINE
  5
7B
330
1F
100
AcDbEntity
  8
layer 2
100
AcDbSpline
210
0.0
220
0.0
230
1.0
 70
    11
 71
     3
 72
    52
 73
    48
 74
     0
 42
0.000000001
 43
0.0000000001
 40
0.0
 40
0.0
 40
0.0
 40
0.0
 40
0.0769230769230769
 40
0.0769230769230769
 40
0.0769230769230769
 40
0.0769230769230769
 40
0.1538461538461539
 40
0.1538461538461539
 40
0.1538461538461539
 40
0.1538461538461539
 40
0.2307692307692308
 40
0.2307692307692308
 40
0.2307692307692308
 40
0.2307692307692308
 40
0.3076923076923077
 40
0.3076923076923077
 40
0.3076923076923077
 40
0.3076923076923077
 40
0.3846153846153846
 40
0.3846153846153846
 40
0.3846153846153846
 40
0.3846153846153846
 40
0.4615384615384616
 40
0.4615384615384616
 40
0.4615384615384616
 40
0.4615384615384616
 40
0.5384615384615384
 40
0.5384615384615384
 40
0.5384615384615384
 40
0.5384615384615384
 40
0.6153846153846154
 40
0.6153846153846154
 40
0.6153846153846154
 40
0.6153846153846154
 40
0.6923076923076923
 40
0.6923076923076923
 40
0.6923076923076923
 40
0.6923076923076923
 40
0.7692307692307693
 40
0.7692307692307693
 40
0.7692307692307693
 40
0.7692307692307693
 40
0.8461538461538461
 40
0.8461538461538461
 40
0.8461538461538461
 40
0.8461538461538461
 40
1.0
 40
1.0
 40
1.0
 40
1.0
 10
-8.0795
 20
96.0369
 30
0.0
 10
-7.4832
 20
93.9201
 30
0.0
 10
-4.0937
 20
82.671
 30
0.0
 10
-5.3589
 20
80.9903
 30
0.0
 10
-5.3589
 20
80.9903
 30
0.0
 10
-6.0456
 20
80.7967
 30
0.0
 10
-10.5532
 20
81.8461
 30
0.0
 10
-11.6752
 20
82.0116
 30
0.0
 10
-11.6752
 20
82.0116
 30
0.0
 10
-26.3876
 20
84.1792
 30
0.0
 10
-43.6712
 20
83.4058
 30
0.0
 10
-57.0344
 20
76.4969
 30
0.0
 10
-57.0344
 20
76.4969
 30
0.0
 10
-57.6809
 20
76.0581
 30
0.0
 10
-59.0621
 20
74.8662
 30
0.0
 10
-59.1726
 20
76.6557
 30
0.0
 10
-59.1726
 20
76.6557
 30
0.0
 10
-59.3382
 20
79.3379
 30
0.0
 10
-59.1739
 20
85.1449
 30
0.0
 10
-59.09
 20
87.8479
 30
0.0
 10
-59.09
 20
87.8479
 30
0.0
 10
-58.9894
 20
91.09
 30
0.0
 10
-58.3517
 20
94.053
 30
0.0
 10
-56.0737
 20
96.2311
 30
0.0
 10
-56.0737
 20
96.2311
 30
0.0
 10
-52.8422
 20
99.3207
 30
0.0
 10
-52.1864
 20
98.6066
 30
0.0
 10
-49.2143
 20
102.5096
 30
0.0
 10
-49.2143
 20
102.5096
 30
0.0
 10
-47.2713
 20
105.0604
 30
0.0
 10
-44.2058
 20
116.34
 30
0.0
 10
-42.6884
 20
116.5247
 30
0.0
 10
-42.6884
 20
116.5247
 30
0.0
 10
-41.626
 20
115.5416
 30
0.0
 10
-39.9063
 20
112.4407
 30
0.0
 10
-38.8959
 20
111.1491
 30
0.0
 10
-38.8959
 20
111.1491
 30
0.0
 10
-36.0069
 20
107.4564
 30
0.0
 10
-32.8574
 20
104.6619
 30
0.0
 10
-28.4729
 20
103.1444
 30
0.0
 10
-28.4729
 20
103.1444
 30
0.0
 10
-24.7122
 20
101.843
 30
0.0
 10
-17.561
 20
101.2634
 30
0.0
 10
-12.9695
 20
100.3764
 30
0.0
 10
-12.9695
 20
100.3764
 30
0.0
 10
-10.1451
 20
99.8309
 30
0.0
 10
-8.8588
 20
98.8042
 30
0.0
 10
-8.0795
 20
96.0369
 30
0.0
  0
SPLINE
  5
7C
330
1F
100
AcDbEntity
  8
layer 2
100
AcDbSpline
210
0.0
220
0.0
230
1.0
 70
    11
 71
     3
 72
   116
 73
   112
 74
     0
 42
0.000000001
 43
0.0000000001
 40
0.0
 40
0.0
 40
0.0
 40
0.0
 40
0.0344827586206897
 40
0.0344827586206897
 40
0.0344827586206897
 40
0.0344827586206897
 40
0.0689655172413793
 40
0.0689655172413793
 40
0.0689655172413793
 40
0.0689655172413793
 40
0.103448275862069
 40
0.103448275862069
 40
0.103448275862069
 40
0.103448275862069
 40
0.1379310344827586
 40
0.1379310344827586
 40
0.1379310344827586
 40
0.1379310344827586
 40
0.1724137931034483
 40
0.1724137931034483
 40
0.1724137931034483
 40
0.1724137931034483
 40
0.2068965517241379
 40
0.2068965517241379
 40
0.2068965517241379
 40
0.2068965517241379
 40
0.2413793103448276
 40
0.2413793103448276
 40
0.2413793103448276
 40
0.2413793103448276
 40
0.2758620689655172
 40
0.2758620689655172
 40
0.2758620689655172
 40
0.2758620689655172
 40
0.3103448275862069
 40
0.3103448275862069
 40
0.3103448275862069
 40
0.3103448275862069
 40
0.3448275862068966
 40
0.3448275862068966
 40
0.3448275862068966
 40
0.3448275862068966
 40
0.3793103448275862
 40
0.3793103448275862
 40
0.3793103448275862
 40
0.3793103448275862
 40
0.4137931034482759
 40
0.4137931034482759
 40
0.4137931034482759
 40
0.4137931034482759
 40
0.4482758620689655
 40
0.4482758620689655
 40
0.4482758620689655
 40
0.4482758620689655
 40
0.4827586206896552
 40
0.4827586206896552
 40
0.4827586206896552
 40
0.4827586206896552
 40
0.5172413793103449
 40
0.5172413793103449
 40
0.5172413793103449
 40
0.5172413793103449
 40
0.5517241379310345
 40
0.5517241379310345
 40
0.5517241379310345
 40
0.5517241379310345
 40
0.5862068965517241
 40
0.5862068965517241
 40
0.5862068965517241
 40
0.5862068965517241
 40
0.6206896551724138
 40
0.6206896551724138
 40
0.6206896551724138
 40
0.6206896551724138
 40
0.6551724137931034
 40
0.6551724137931034
 40
0.6551724137931034
 40
0.6551724137931034
 40
0.6896551724137931
 40
0.6896551724137931
 40
0.6896551724137931
 40
0.6896551724137931
 40
0.7241379310344828
 40
0.7241379310344828
 40
0.7241379310344828
 40
0.7241379310344828
 40
0.7586206896551724
 40
0.7586206896551724
 40
0.7586206896551724
 40
0.7586206896551724
 40
0.7931034482758621
 40
0.7931034482758621
 40
0.7931034482758621
 40
0.7931034482758621
 40
0.8275862068965517
 40
0.8275862068965517
 40
0.8275862068965517
 40
0.8275862068965517
 40
0.8620689655172413
 40
0.8620689655172413
 40
0.8620689655172413
 40
0.8620689655172413
 40
0.896551724137931
 40
0.896551724137931
 40
0.896551724137931
 40
0.896551724137931
 40
0.9310344827586207
 40
0.9310344827586207
 40
0.9310344827586207
 40
0.9310344827586207
 40
1.0
 40
1.0
 40
1.0
 40
1.0
 10
-55.2684
 20
99.6907
 30
0.0
 10
-59.3882
 20
99.4592
 30
0.0
 10
-62.5436
 20
100.1425
 30
0.0
 10
-65.8665
 20
98.0196
 30
0.0
 10
-65.8665
 20
98.0196
 30
0.0
 10
-66.5793
 20
97.5642
 30
0.0
 10
-67.0142
 20
97.2543
 30
0.0
 10
-67.6413
 20
96.7774
 30
0.0
 10
-67.6413
 20
96.7774
 30
0.0
 10
-71.2152
 20
94.0593
 30
0.0
 10
-74.4599
 20
89.934
 30
0.0
 10
-74.2602
 20
85.127
 30
0.0
 10
-74.2602
 20
85.127
 30
0.0
 10
-74.0575
 20
80.2497
 30
0.0
 10
-73.2713
 20
80.0924
 30
0.0
 10
-70.8949
 20
76.4204
 30
0.0
 10
-70.8949
 20
76.4204
 30
0.0
 10
-69.3383
 20
74.0154
 30
0.0
 10
-67.4249
 20
71.6936
 30
0.0
 10
-65.6395
 20
69.4387
 30
0.0
 10
-65.6395
 20
69.4387
 30
0.0
 10
-59.7869
 20
62.0433
 30
0.0
 10
-60.1914
 20
40.9308
 30
0.0
 10
-64.7725
 20
41.3083
 30
0.0
 10
-64.7725
 20
41.3083
 30
0.0
 10
-66.9137
 20
47.8795
 30
0.0
 10
-61.5219
 20
53.9679
 30
0.0
 10
-71.1386
 20
67.2628
 30
0.0
 10
-71.1386
 20
67.2628
 30
0.0
 10
-72.4122
 20
69.1959
 30
0.0
 10
-74.4963
 20
71.9691
 30
0.0
 10
-75.4014
 20
74.0291
 30
0.0
 10
-75.4014
 20
74.0291
 30
0.0
 10
-76.1833
 20
75.8101
 30
0.0
 10
-76.8578
 20
77.4308
 30
0.0
 10
-77.6028
 20
79.222
 30
0.0
 10
-77.6028
 20
79.222
 30
0.0
 10
-81.6257
 20
88.8935
 30
0.0
 10
-80.2365
 20
100.027
 30
0.0
 10
-74.442
 20
108.5627
 30
0.0
 10
-74.442
 20
108.5627
 30
0.0
 10
-67.3084
 20
119.0689
 30
0.0
 10
-56.4297
 20
114.768
 30
0.0
 10
-59.7904
 20
114.4966
 30
0.0
 10
-59.7904
 20
114.4966
 30
0.0
 10
-60.796
 20
114.4156
 30
0.0
 10
-64.4773
 20
115.0858
 30
0.0
 10
-64.5864
 20
113.8271
 30
0.0
 10
-64.5864
 20
113.8271
 30
0.0
 10
-63.4158
 20
113.0315
 30
0.0
 10
-58.3495
 20
114.4063
 30
0.0
 10
-57.4883
 20
113.525
 30
0.0
 10
-57.4883
 20
113.525
 30
0.0
 10
-57.8348
 20
112.4741
 30
0.0
 10
-67.9511
 20
112.8113
 30
0.0
 10
-68.0516
 20
110.0384
 30
0.0
 10
-68.0516
 20
110.0384
 30
0.0
 10
-67.0888
 20
109.4853
 30
0.0
 10
-66.9503
 20
110.142
 30
0.0
 10
-66.0014
 20
110.3991
 30
0.0
 10
-66.0014
 20
110.3991
 30
0.0
 10
-54.8414
 20
113.4233
 30
0.0
 10
-55.0635
 20
108.7017
 30
0.0
 10
-49.646
 20
108.1158
 30
0.0
 10
-49.646
 20
108.1158
 30
0.0
 10
-49.646
 20
108.1158
 30
0.0
 10
-49.3956
 20
109.1446
 30
0.0
 10
-49.3956
 20
109.1446
 30
0.0
 10
-49.3956
 20
109.1446
 30
0.0
 10
-48.4408
 20
109.0565
 30
0.0
 10
-48.1717
 20
108.3019
 30
0.0
 10
-48.6555
 20
107.3942
 30
0.0
 10
-48.6555
 20
107.3942
 30
0.0
 10
-51.3984
 20
102.2467
 30
0.0
 10
-54.4404
 20
110.9081
 30
0.0
 10
-62.9187
 20
107.4569
 30
0.0
 10
-62.9187
 20
107.4569
 30
0.0
 10
-66.9617
 20
105.8112
 30
0.0
 10
-73.7229
 20
101.0106
 30
0.0
 10
-74.9034
 20
97.0993
 30
0.0
 10
-74.9034
 20
97.0993
 30
0.0
 10
-75.2476
 20
95.9586
 30
0.0
 10
-76.6236
 20
93.3888
 30
0.0
 10
-76.1174
 20
92.9452
 30
0.0
 10
-76.1174
 20
92.9452
 30
0.0
 10
-76.0956
 20
92.9261
 30
0.0
 10
-72.1622
 20
99.1628
 30
0.0
 10
-68.417
 20
101.6319
 30
0.0
 10
-68.417
 20
101.6319
 30
0.0
 10
-66.4421
 20
102.9335
 30
0.0
 10
-66.0551
 20
103.1417
 30
0.0
 10
-63.5841
 20
103.7354
 30
0.0
 10
-63.5841
 20
103.7354
 30
0.0
 10
-61.3708
 20
104.2669
 30
0.0
 10
-59.6555
 20
104.2001
 30
0.0
 10
-57.4675
 20
103.5813
 30
0.0
 10
-57.4675
 20
103.5813
 30
0.0
 10
-56.8907
 20
103.4182
 30
0.0
 10
-56.7116
 20
103.1722
 30
0.0
 10
-55.8923
 20
102.8951
 30
0.0
 10
-55.8923
 20
102.8951
 30
0.0
 10
-55.3115
 20
102.6987
 30
0.0
 10
-54.9124
 20
102.2933
 30
0.0
 10
-54.4354
 20
101.9441
 30
0.0
 10
-54.4354
 20
101.9441
 30
0.0
 10
-53.9147
 20
101.5629
 30
0.0
 10
-53.5922
 20
101.4264
 30
0.0
 10
-53.321
 20
100.837
 30
0.0
 10
-53.321
 20
100.837
 30
0.0
 10
-53.511
 20
99.9408
 30
0.0
 10
-54.1538
 20
99.7534
 30
0.0
 10
-55.2684
 20
99.6907
 30
0.0
  0
SPLINE
  5
7D
330
1F
100
AcDbEntity
  8
layer 2
100
AcDbSpline
210
0.0
220
0.0
230
1.0
 70
    11
 71
     3
 72
    28
 73
    24
 74
     0
 42
0.000000001
 43
0.0000000001
 40
0.0
 40
0.0
 40
0.0
 40
0.0
 40
0.1428571428571428
 40
0.1428571428571428
 40
0.1428571428571428
 40
0.1428571428571428
 40
0.2857142857142857
 40
0.2857142857142857
 40
0.2857142857142857
 40
0.2857142857142857
 40
0.4285714285714285
 40
0.4285714285714285
 40
0.4285714285714285
 40
0.4285714285714285
 40
0.5714285714285714
 40
0.5714285714285714
 40
0.5714285714285714
 40
0.5714285714285714
 40
0.7142857142857143
 40
0.7142857142857143
 40
0.7142857142857143
 40
0.7142857142857143
 40
1.0
 40
1.0
 40
1.0
 40
1.0
 10
-49.5921
 20
62.5549
 30
0.0
 10
-49.1376
 20
62.9118
 30
0.0
 10
-48.7218
 20
63.3539
 30
0.0
 10
-47.8434
 20
63.2256
 30
0.0
 10
-47.8434
 20
63.2256
 30
0.0
 10
-47.3501
 20
61.6307
 30
0.0
 10
-48.4696
 20
61.1999
 30
0.0
 10
-47.1652
 20
59.3694
 30
0.0
 10
-47.1652
 20
59.3694
 30
0.0
 10
-46.915
 20
59.0182
 30
0.0
 10
-46.0254
 20
58.2111
 30
0.0
 10
-46.6718
 20
57.8655
 30
0.0
 10
-46.6718
 20
57.8655
 30
0.0
 10
-47.1446
 20
57.6128
 30
0.0
 10
-48.1421
 20
58.1355
 30
0.0
 10
-48.478
 20
58.3591
 30
0.0
 10
-48.478
 20
58.3591
 30
0.0
 10
-49.3509
 20
58.9401
 30
0.0
 10
-50.939
 20
59.474
 30
0.0
 10
-50.4829
 20
61.0145
 30
0.0
 10
-50.4829
 20
61.0145
 30
0.0
 10
-50.2442
 20
61.8214
 30
0.0
 10
-50.0672
 20
62.1816
 30
0.0
 10
-49.5921
 20
62.5549
 30
0.0
  0
SPLINE
  5
7E
330
1F
100
AcDbEntity
  8
layer 2
100
AcDbSpline
210
0.0
220
0.0
230
1.0
 70
    11
 71
     3
 72
    48
 73
    44
 74
     0
 42
0.000000001
 43
0.0000000001
 40
0.0
 40
0.0
 40
0.0
 40
0.0
 40
0.0833333333333333
 40
0.0833333333333333
 40
0.0833333333333333
 40
0.0833333333333333
 40
0.1666666666666667
 40
0.1666666666666667
 40
0.1666666666666667
 40
0.1666666666666667
 40
0.25
 40
0.25
 40
0.25
 40
0.25
 40
0.3333333333333333
 40
0.3333333333333333
 40
0.3333333333333333
 40
0.3333333333333333
 40
0.4166666666666667
 40
0.4166666666666667
 40
0.4166666666666667
 40
0.4166666666666667
 40
0.5
 40
0.5
 40
0.5
 40
0.5
 40
0.5833333333333334
 40
0.5833333333333334
 40
0.5833333333333334
 40
0.5833333333333334
 40
0.6666666666666666
 40
0.6666666666666666
 40
0.6666666666666666
 40
0.6666666666666666
 40
0.75
 40
0.75
 40
0.75
 40
0.75
 40
0.8333333333333334
 40
0.8333333333333334
 40
0.8333333333333334
 40
0.8333333333333334
 40
1.0
 40
1.0
 40
1.0
 40
1.0
 10
-50.8205
 20
69.9014
 30
0.0
 10
-50.2751
 20
69.7488
 30
0.0
 10
-48.5078
 20
69.0252
 30
0.0
 10
-48.0311
 20
68.6206
 30
0.0
 10
-48.0311
 20
68.6206
 30
0.0
 10
-46.7718
 20
67.5536
 30
0.0
 10
-49.2424
 20
67.1324
 30
0.0
 10
-50.1607
 20
66.5978
 30
0.0
 10
-50.1607
 20
66.5978
 30
0.0
 10
-50.7829
 20
66.2354
 30
0.0
 10
-51.7308
 20
65.424
 30
0.0
 10
-52.5239
 20
65.415
 30
0.0
 10
-52.5239
 20
65.415
 30
0.0
 10
-53.5347
 20
66.2803
 30
0.0
 10
-53.0645
 20
67.3916
 30
0.0
 10
-54.3805
 20
67.5935
 30
0.0
 10
-54.3805
 20
67.5935
 30
0.0
 10
-54.3805
 20
67.5935
 30
0.0
 10
-54.7212
 20
66.8403
 30
0.0
 10
-54.7212
 20
66.8403
 30
0.0
 10
-54.7212
 20
66.8403
 30
0.0
 10
-56.1655
 20
66.8823
 30
0.0
 10
-55.3309
 20
67.2912
 30
0.0
 10
-56.2992
 20
67.4658
 30
0.0
 10
-56.2992
 20
67.4658
 30
0.0
 10
-57.625
 20
66.682
 30
0.0
 10
-56.5341
 20
65.3532
 30
0.0
 10
-57.3561
 20
64.4696
 30
0.0
 10
-57.3561
 20
64.4696
 30
0.0
 10
-57.939
 20
64.5418
 30
0.0
 10
-58.1799
 20
65.0971
 30
0.0
 10
-58.4316
 20
66.0898
 30
0.0
 10
-58.4316
 20
66.0898
 30
0.0
 10
-59.2527
 20
69.3268
 30
0.0
 10
-58.1471
 20
66.9899
 30
0.0
 10
-57.1742
 20
69.6744
 30
0.0
 10
-57.1742
 20
69.6744
 30
0.0
 10
-56.9227
 20
70.3681
 30
0.0
 10
-56.5329
 20
70.646
 30
0.0
 10
-55.5528
 20
70.6352
 30
0.0
 10
-55.5528
 20
70.6352
 30
0.0
 10
-54.1994
 20
70.6202
 30
0.0
 10
-52.0041
 20
70.2316
 30
0.0
 10
-50.8205
 20
69.9014
 30
0.0
  0
SPLINE
  5
7F
330
1F
100
AcDbEntity
  8
layer 2
100
AcDbSpline
210
0.0
220
0.0
230
1.0
 70
    11
 71
     3
 72
    52
 73
    48
 74
     0
 42
0.000000001
 43
0.0000000001
 40
0.0
 40
0.0
 40
0.0
 40
0.0
 40
0.0769230769230769
 40
0.0769230769230769
 40
0.0769230769230769
 40
0.0769230769230769
 40
0.1538461538461539
 40
0.1538461538461539
 40
0.1538461538461539
 40
0.1538461538461539
 40
0.2307692307692308
 40
0.2307692307692308
 40
0.2307692307692308
 40
0.2307692307692308
 40
0.3076923076923077
 40
0.3076923076923077
 40
0.3076923076923077
 40
0.3076923076923077
 40
0.3846153846153846
 40
0.3846153846153846
 40
0.3846153846153846
 40
0.3846153846153846
 40
0.4615384615384616
 40
0.4615384615384616
 40
0.4615384615384616
 40
0.4615384615384616
 40
0.5384615384615384
 40
0.5384615384615384
 40
0.5384615384615384
 40
0.5384615384615384
 40
0.6153846153846154
 40
0.6153846153846154
 40
0.6153846153846154
 40
0.6153846153846154
 40
0.6923076923076923
 40
0.6923076923076923
 40
0.6923076923076923
 40
0.6923076923076923
 40
0.7692307692307693
 40
0.7692307692307693
 40
0.7692307692307693
 40
0.7692307692307693
 40
0.8461538461538461
 40
0.8461538461538461
 40
0.8461538461538461
 40
0.8461538461538461
 40
1.0
 40
1.0
 40
1.0
 40
1.0
 10
52.2256
 20
59.5462
 30
0.0
 10
49.7802
 20
67.5583
 30
0.0
 10
57.3014
 20
51.7785
 30
0.0
 10
57.5819
 20
43.5937
 30
0.0
 10
57.5819
 20
43.5937
 30
0.0
 10
57.6132
 20
42.6775
 30
0.0
 10
57.3962
 20
41.7341
 30
0.0
 10
57.862
 20
41.207
 30
0.0
 10
57.862
 20
41.207
 30
0.0
 10
58.2927
 20
41.5909
 30
0.0
 10
58.1783
 20
41.9539
 30
0.0
 10
58.4239
 20
42.5893
 30
0.0
 10
58.4239
 20
42.5893
 30
0.0
 10
62.7557
 20
41.7253
 30
0.0
 10
50.9187
 20
17.9259
 30
0.0
 10
50.189
 20
14.7223
 30
0.0
 10
50.189
 20
14.7223
 30
0.0
 10
49.8073
 20
13.0472
 30
0.0
 10
49.4956
 20
12.229
 30
0.0
 10
49.3586
 20
10.3631
 30
0.0
 10
49.3586
 20
10.3631
 30
0.0
 10
48.8134
 20
2.9404
 30
0.0
 10
49.9226
 20
-1.0617
 30
0.0
 10
53.0677
 20
-6.3703
 30
0.0
 10
53.0677
 20
-6.3703
 30
0.0
 10
54.1718
 20
-8.2342
 30
0.0
 10
61.4799
 20
-18.3072
 30
0.0
 10
61.2804
 20
-18.7314
 30
0.0
 10
61.2804
 20
-18.7314
 30
0.0
 10
60.3046
 20
-18.8004
 30
0.0
 10
57.4238
 20
-15.699
 30
0.0
 10
55.8989
 20
-15.053
 30
0.0
 10
55.8989
 20
-15.053
 30
0.0
 10
54.7022
 20
-15.4006
 30
0.0
 10
55.4443
 20
-15.988
 30
0.0
 10
54.0868
 20
-16.146
 30
0.0
 10
54.0868
 20
-16.146
 30
0.0
 10
47.6997
 20
-11.6909
 30
0.0
 10
43.8991
 20
3.4136
 30
0.0
 10
45.5821
 20
11.1826
 30
0.0
 10
45.5821
 20
11.1826
 30
0.0
 10
46.1532
 20
13.8196
 30
0.0
 10
47.0336
 20
16.4468
 30
0.0
 10
48.081
 20
18.9304
 30
0.0
 10
48.081
 20
18.9304
 30
0.0
 10
55.484
 20
36.4899
 30
0.0
 10
56.7202
 20
40.4401
 30
0.0
 10
52.2256
 20
59.5462
 30
0.0
  0
SPLINE
  5
80
330
1F
100
AcDbEntity
  8
layer 2
100
AcDbSpline
210
0.0
220
0.0
230
1.0
 70
    11
 71
     3
 72
    12
 73
     8
 74
     0
 42
0.000000001
 43
0.0000000001
 40
0.0
 40
0.0
 40
0.0
 40
0.0
 40
0.3333333333333333
 40
0.3333333333333333
 40
0.3333333333333333
 40
0.3333333333333333
 40
1.0
 40
1.0
 40
1.0
 40
1.0
 10
50.629
 20
85.702
 30
0.0
 10
52.2379
 20
85.7675
 30
0.0
 10
57.8946
 20
79.7911
 30
0.0
 10
54.917
 20
81.5607
 30
0.0
 10
54.917
 20
81.5607
 30
0.0
 10
53.7289
 20
82.2246
 30
0.0
 10
50.284
 20
84.2407
 30
0.0
 10
50.629
 20
85.702
 30
0.0
  0
SPLINE
  5
81
330
1F
100
AcDbEntity
  8
layer 2
100
AcDbSpline
210
0.0
220
0.0
230
1.0
 70
    11
 71
     3
 72
    44
 73
    40
 74
     0
 42
0.000000001
 43
0.0000000001
 40
0.0
 40
0.0
 40
0.0
 40
0.0
 40
0.0909090909090909
 40
0.0909090909090909
 40
0.0909090909090909
 40
0.0909090909090909
 40
0.1818181818181818
 40
0.1818181818181818
 40
0.1818181818181818
 40
0.1818181818181818
 40
0.2727272727272727
 40
0.2727272727272727
 40
0.2727272727272727
 40
0.2727272727272727
 40
0.3636363636363636
 40
0.3636363636363636
 40
0.3636363636363636
 40
0.3636363636363636
 40
0.4545454545454545
 40
0.4545454545454545
 40
0.4545454545454545
 40
0.4545454545454545
 40
0.5454545454545454
 40
0.5454545454545454
 40
0.5454545454545454
 40
0.5454545454545454
 40
0.6363636363636364
 40
0.6363636363636364
 40
0.6363636363636364
 40
0.6363636363636364
 40
0.7272727272727273
 40
0.7272727272727273
 40
0.7272727272727273
 40
0.7272727272727273
 40
0.8181818181818182
 40
0.8181818181818182
 40
0.8181818181818182
 40
0.8181818181818182
 40
1.0
 40
1.0
 40
1.0
 40
1.0
 10
-61.3575
 20
-29.8204
 30
0.0
 10
-61.1437
 20
-30.0739
 30
0.0
 10
-61.4543
 20
-29.9613
 30
0.0
 10
-60.871
 20
-30.1522
 30
0.0
 10
-60.871
 20
-30.1522
 30
0.0
 10
-57.2018
 20
-31.3538
 30
0.0
 10
-52.5997
 20
-28.5967
 30
0.0
 10
-49.7981
 20
-26.3529
 30
0.0
 10
-49.7981
 20
-26.3529
 30
0.0
 10
-48.2183
 20
-25.0879
 30
0.0
 10
-46.9982
 20
-23.0812
 30
0.0
 10
-46.8793
 20
-24.8388
 30
0.0
 10
-46.8793
 20
-24.8388
 30
0.0
 10
-51.0076
 20
-32.2532
 30
0.0
 10
-60.0147
 20
-36.1671
 30
0.0
 10
-68.7396
 20
-29.2733
 30
0.0
 10
-68.7396
 20
-29.2733
 30
0.0
 10
-70.1595
 20
-28.1513
 30
0.0
 10
-71.82
 20
-24.7802
 30
0.0
 10
-71.5019
 20
-24.1091
 30
0.0
 10
-71.5019
 20
-24.1091
 30
0.0
 10
-70.9558
 20
-23.6027
 30
0.0
 10
-69.8923
 20
-23.4125
 30
0.0
 10
-69.7174
 20
-22.7211
 30
0.0
 10
-69.7174
 20
-22.7211
 30
0.0
 10
-70.1162
 20
-22.0305
 30
0.0
 10
-71.5049
 20
-21.8962
 30
0.0
 10
-72.3059
 20
-21.5123
 30
0.0
 10
-72.3059
 20
-21.5123
 30
0.0
 10
-72.3063
 20
-21.5121
 30
0.0
 10
-75.1431
 20
-20.3917
 30
0.0
 10
-73.9413
 20
-20.0319
 30
0.0
 10
-73.9413
 20
-20.0319
 30
0.0
 10
-45.5544
 20
-26.9004
 30
0.0
 10
-48.887
 20
-3.3126
 30
0.0
 10
-46.4841
 20
-8.3729
 30
0.0
 10
-46.4841
 20
-8.3729
 30
0.0
 10
-41.3723
 20
-19.1369
 30
0.0
 10
-50.9639
 20
-28.5329
 30
0.0
 10
-61.3575
 20
-29.8204
 30
0.0
  0
SPLINE
  5
82
330
1F
100
AcDbEntity
  8
layer 2
100
AcDbSpline
210
0.0
220
0.0
230
1.0
 70
    11
 71
     3
 72
    12
 73
     8
 74
     0
 42
0.000000001
 43
0.0000000001
 40
0.0
 40
0.0
 40
0.0
 40
0.0
 40
0.3333333333333333
 40
0.3333333333333333
 40
0.3333333333333333
 40
0.3333333333333333
 40
1.0
 40
1.0
 40
1.0
 40
1.0
 10
-55.9844
 20
-17.2495
 30
0.0
 10
-56.0254
 20
-16.4741
 30
0.0
 10
-55.4447
 20
-15.8005
 30
0.0
 10
-54.7132
 20
-15.5161
 30
0.0
 10
-54.7132
 20
-15.5161
 30
0.0
 10
-53.0323
 20
-14.8618
 30
0.0
 10
-54.3253
 20
-17.235
 30
0.0
 10
-55.9844
 20
-17.2495
 30
0.0
  0
SPLINE
  5
83
330
1F
100
AcDbEntity
  8
layer 2
100
AcDbSpline
210
0.0
220
0.0
230
1.0
 70
    11
 71
     3
 72
    12
 73
     8
 74
     0
 42
0.000000001
 43
0.0000000001
 40
0.0
 40
0.0
 40
0.0
 40
0.0
 40
0.3333333333333333
 40
0.3333333333333333
 40
0.3333333333333333
 40
0.3333333333333333
 40
1.0
 40
1.0
 40
1.0
 40
1.0
 10
-43.6146
 20
61.876
 30
0.0
 10
-42.8139
 20
61.4361
 30
0.0
 10
-43.2677
 20
60.9288
 30
0.0
 10
-44.0462
 20
61.2685
 30
0.0
 10
-44.0462
 20
61.2685
 30
0.0
 10
-44.0329
 20
61.7081
 30
0.0
 10
-43.9532
 20
61.6973
 30
0.0
 10
-43.6146
 20
61.876
 30
0.0
  0
SPLINE
  5
84
330
1F
100
AcDbEntity
  8
layer 2
100
AcDbSpline
210
0.0
220
0.0
230
1.0
 70
    11
 71
     3
 72
    16
 73
    12
 74
     0
 42
0.000000001
 43
0.0000000001
 40
0.0
 40
0.0
 40
0.0
 40
0.0
 40
0.25
 40
0.25
 40
0.25
 40
0.25
 40
0.5
 40
0.5
 40
0.5
 40
0.5
 40
1.0
 40
1.0
 40
1.0
 40
1.0
 10
-44.7824
 20
60.0964
 30
0.0
 10
-44.4454
 20
59.8882
 30
0.0
 10
-42.2707
 20
59.6795
 30
0.0
 10
-43.4507
 20
58.8425
 30
0.0
 10
-43.4507
 20
58.8425
 30
0.0
 10
-44.2341
 20
58.2868
 30
0.0
 10
-47.7487
 20
60.4494
 30
0.0
 10
-46.4894
 20
61.2904
 30
0.0
 10
-46.4894
 20
61.2904
 30
0.0
 10
-45.8746
 20
61.7011
 30
0.0
 10
-45.3908
 20
60.4726
 30
0.0
 10
-44.7824
 20
60.0964
 30
0.0
  0
SPLINE
  5
85
330
1F
100
AcDbEntity
  8
layer 2
100
AcDbSpline
210
0.0
220
0.0
230
1.0
 70
    11
 71
     3
 72
    36
 73
    32
 74
     0
 42
0.000000001
 43
0.0000000001
 40
0.0
 40
0.0
 40
0.0
 40
0.0
 40
0.1111111111111111
 40
0.1111111111111111
 40
0.1111111111111111
 40
0.1111111111111111
 40
0.2222222222222222
 40
0.2222222222222222
 40
0.2222222222222222
 40
0.2222222222222222
 40
0.3333333333333333
 40
0.3333333333333333
 40
0.3333333333333333
 40
0.3333333333333333
 40
0.4444444444444444
 40
0.4444444444444444
 40
0.4444444444444444
 40
0.4444444444444444
 40
0.5555555555555556
 40
0.5555555555555556
 40
0.5555555555555556
 40
0.5555555555555556
 40
0.6666666666666666
 40
0.6666666666666666
 40
0.6666666666666666
 40
0.6666666666666666
 40
0.7777777777777778
 40
0.7777777777777778
 40
0.7777777777777778
 40
0.7777777777777778
 40
1.0
 40
1.0
 40
1.0
 40
1.0
 10
-45.5419
 20
113.9374
 30
0.0
 10
-45.9658
 20
112.8912
 30
0.0
 10
-46.4835
 20
110.9082
 30
0.0
 10
-47.2387
 20
110.0241
 30
0.0
 10
-47.2387
 20
110.0241
 30
0.0
 10
-47.7746
 20
110.1099
 30
0.0
 10
-47.9301
 20
110.3598
 30
0.0
 10
-48.1338
 20
110.8062
 30
0.0
 10
-48.1338
 20
110.8062
 30
0.0
 10
-46.4567
 20
115.14
 30
0.0
 10
-48.4784
 20
114.0079
 30
0.0
 10
-48.7925
 20
115.4886
 30
0.0
 10
-48.7925
 20
115.4886
 30
0.0
 10
-48.381
 20
115.7855
 30
0.0
 10
-48.2581
 20
115.8423
 30
0.0
 10
-47.8108
 20
115.541
 30
0.0
 10
-47.8108
 20
115.541
 30
0.0
 10
-47.2883
 20
115.1889
 30
0.0
 10
-48.044
 20
115.1038
 30
0.0
 10
-47.1275
 20
115.0907
 30
0.0
 10
-47.1275
 20
115.0907
 30
0.0
 10
-46.4458
 20
116.1069
 30
0.0
 10
-47.5525
 20
116.6655
 30
0.0
 10
-48.2594
 20
117.0383
 30
0.0
 10
-48.2594
 20
117.0383
 30
0.0
 10
-49.7665
 20
117.8325
 30
0.0
 10
-55.5148
 20
119.0318
 30
0.0
 10
-55.5449
 20
119.869
 30
0.0
 10
-55.5449
 20
119.869
 30
0.0
 10
-55.0946
 20
120.1369
 30
0.0
 10
-43.4184
 20
119.1764
 30
0.0
 10
-45.5419
 20
113.9374
 30
0.0
  0
SPLINE
  5
86
330
1F
100
AcDbEntity
  8
layer 2
100
AcDbSpline
210
0.0
220
0.0
230
1.0
 70
    11
 71
     3
 72
    12
 73
     8
 74
     0
 42
0.000000001
 43
0.0000000001
 40
0.0
 40
0.0
 40
0.0
 40
0.0
 40
0.3333333333333333
 40
0.3333333333333333
 40
0.3333333333333333
 40
0.3333333333333333
 40
1.0
 40
1.0
 40
1.0
 40
1.0
 10
-58.7729
 20
-19.1472
 30
0.0
 10
-58.802
 20
-19.8839
 30
0.0
 10
-59.285
 20
-20.1092
 30
0.0
 10
-59.753
 20
-19.7001
 30
0.0
 10
-59.753
 20
-19.7001
 30
0.0
 10
-59.598
 20
-19.1454
 30
0.0
 10
-59.4498
 20
-19.0757
 30
0.0
 10
-58.7729
 20
-19.1472
 30
0.0
  0
SPLINE
  5
87
330
1F
100
AcDbEntity
  8
layer 2
100
AcDbSpline
210
0.0
220
0.0
230
1.0
 70
    11
 71
     3
 72
    16
 73
    12
 74
     0
 42
0.000000001
 43
0.0000000001
 40
0.0
 40
0.0
 40
0.0
 40
0.0
 40
0.25
 40
0.25
 40
0.25
 40
0.25
 40
0.5
 40
0.5
 40
0.5
 40
0.5
 40
1.0
 40
1.0
 40
1.0
 40
1.0
 10
-17.206
 20
127.1236
 30
0.0
 10
-17.9777
 20
126.7404
 30
0.0
 10
-22.1334
 20
126.8079
 30
0.0
 10
-22.7596
 20
127.2283
 30
0.0
 10
-22.7596
 20
127.2283
 30
0.0
 10
-22.4145
 20
128.0914
 30
0.0
 10
-20.9182
 20
128.0011
 30
0.0
 10
-19.9045
 20
127.9741
 30
0.0
 10
-19.9045
 20
127.9741
 30
0.0
 10
-18.1782
 20
127.928
 30
0.0
 10
-17.2428
 20
128.0753
 30
0.0
 10
-17.206
 20
127.1236
 30
0.0
  0
SPLINE
  5
88
330
1F
100
AcDbEntity
  8
layer 2
100
AcDbSpline
210
0.0
220
0.0
230
1.0
 70
    11
 71
     3
 72
    68
 73
    64
 74
     0
 42
0.000000001
 43
0.0000000001
 40
0.0
 40
0.0
 40
0.0
 40
0.0
 40
0.0588235294117647
 40
0.0588235294117647
 40
0.0588235294117647
 40
0.0588235294117647
 40
0.1176470588235294
 40
0.1176470588235294
 40
0.1176470588235294
 40
0.1176470588235294
 40
0.1764705882352941
 40
0.1764705882352941
 40
0.1764705882352941
 40
0.1764705882352941
 40
0.2352941176470588
 40
0.2352941176470588
 40
0.2352941176470588
 40
0.2352941176470588
 40
0.2941176470588235
 40
0.2941176470588235
 40
0.2941176470588235
 40
0.2941176470588235
 40
0.3529411764705883
 40
0.3529411764705883
 40
0.3529411764705883
 40
0.3529411764705883
 40
0.4117647058823529
 40
0.4117647058823529
 40
0.4117647058823529
 40
0.4117647058823529
 40
0.4705882352941176
 40
0.4705882352941176
 40
0.4705882352941176
 40
0.4705882352941176
 40
0.5294117647058824
 40
0.5294117647058824
 40
0.5294117647058824
 40
0.5294117647058824
 40
0.5882352941176471
 40
0.5882352941176471
 40
0.5882352941176471
 40
0.5882352941176471
 40
0.6470588235294118
 40
0.6470588235294118
 40
0.6470588235294118
 40
0.6470588235294118
 40
0.7058823529411765
 40
0.7058823529411765
 40
0.7058823529411765
 40
0.7058823529411765
 40
0.7647058823529411
 40
0.7647058823529411
 40
0.7647058823529411
 40
0.7647058823529411
 40
0.8235294117647058
 40
0.8235294117647058
 40
0.8235294117647058
 40
0.8235294117647058
 40
0.8823529411764706
 40
0.8823529411764706
 40
0.8823529411764706
 40
0.8823529411764706
 40
1.0
 40
1.0
 40
1.0
 40
1.0
 10
-39.8016
 20
101.0286
 30
0.0
 10
-39.9807
 20
101.3626
 30
0.0
 10
-40.3235
 20
102.169
 30
0.0
 10
-40.4571
 20
102.4844
 30
0.0
 10
-40.4571
 20
102.4844
 30
0.0
 10
-40.9921
 20
103.7456
 30
0.0
 10
-41.8119
 20
105.905
 30
0.0
 10
-42.8596
 20
106.4694
 30
0.0
 10
-42.8596
 20
106.4694
 30
0.0
 10
-44.5907
 20
105.4144
 30
0.0
 10
-43.6577
 20
100.8019
 30
0.0
 10
-46.1065
 20
98.9501
 30
0.0
 10
-46.1065
 20
98.9501
 30
0.0
 10
-46.1065
 20
98.9501
 30
0.0
 10
-49.0363
 20
97.4988
 30
0.0
 10
-49.0363
 20
97.4988
 30
0.0
 10
-49.0363
 20
97.4988
 30
0.0
 10
-50.8086
 20
96.5527
 30
0.0
 10
-54.5924
 20
95.5638
 30
0.0
 10
-51.3267
 20
94.4901
 30
0.0
 10
-51.3267
 20
94.4901
 30
0.0
 10
-51.3267
 20
94.4901
 30
0.0
 10
-48.9199
 20
93.5607
 30
0.0
 10
-48.9199
 20
93.5607
 30
0.0
 10
-48.9199
 20
93.5607
 30
0.0
 10
-47.3986
 20
93.0121
 30
0.0
 10
-47.6109
 20
93.0358
 30
0.0
 10
-47.6896
 20
90.4145
 30
0.0
 10
-47.6896
 20
90.4145
 30
0.0
 10
-47.7298
 20
89.0762
 30
0.0
 10
-47.91
 20
87.3121
 30
0.0
 10
-47.5755
 20
86.1462
 30
0.0
 10
-47.5755
 20
86.1462
 30
0.0
 10
-46.1359
 20
85.8087
 30
0.0
 10
-45.131
 20
87.0164
 30
0.0
 10
-44.5641
 20
87.8905
 30
0.0
 10
-44.5641
 20
87.8905
 30
0.0
 10
-44.0328
 20
88.71
 30
0.0
 10
-42.93
 20
90.0921
 30
0.0
 10
-42.2554
 20
90.6969
 30
0.0
 10
-42.2554
 20
90.6969
 30
0.0
 10
-41.7561
 20
90.8978
 30
0.0
 10
-39.4129
 20
89.5895
 30
0.0
 10
-39.0215
 20
89.4215
 30
0.0
 10
-39.0215
 20
89.4215
 30
0.0
 10
-38.412
 20
89.16
 30
0.0
 10
-34.329
 20
86.6582
 30
0.0
 10
-35.5976
 20
90.4363
 30
0.0
 10
-35.5976
 20
90.4363
 30
0.0
 10
-35.728
 20
90.8245
 30
0.0
 10
-36.1125
 20
91.958
 30
0.0
 10
-36.2955
 20
92.2935
 30
0.0
 10
-36.2955
 20
92.2935
 30
0.0
 10
-38.1393
 20
95.6703
 30
0.0
 10
-38.0671
 20
94.5079
 30
0.0
 10
-34.2441
 20
97.9603
 30
0.0
 10
-34.2441
 20
97.9603
 30
0.0
 10
-33.4476
 20
98.6796
 30
0.0
 10
-32.0658
 20
99.7831
 30
0.0
 10
-32.4353
 20
100.9886
 30
0.0
 10
-32.4353
 20
100.9886
 30
0.0
 10
-33.892
 20
101.3929
 30
0.0
 10
-38.9789
 20
100.89
 30
0.0
 10
-39.8016
 20
101.0286
 30
0.0
  0
SPLINE
  5
89
330
1F
100
AcDbEntity
  8
layer 2
100
AcDbSpline
210
0.0
220
0.0
230
1.0
 70
    11
 71
     3
 72
    64
 73
    60
 74
     0
 42
0.000000001
 43
0.0000000001
 40
0.0
 40
0.0
 40
0.0
 40
0.0
 40
0.0625
 40
0.0625
 40
0.0625
 40
0.0625
 40
0.125
 40
0.125
 40
0.125
 40
0.125
 40
0.1875
 40
0.1875
 40
0.1875
 40
0.1875
 40
0.25
 40
0.25
 40
0.25
 40
0.25
 40
0.3125
 40
0.3125
 40
0.3125
 40
0.3125
 40
0.375
 40
0.375
 40
0.375
 40
0.375
 40
0.4375
 40
0.4375
 40
0.4375
 40
0.4375
 40
0.5
 40
0.5
 40
0.5
 40
0.5
 40
0.5625
 40
0.5625
 40
0.5625
 40
0.5625
 40
0.625
 40
0.625
 40
0.625
 40
0.625
 40
0.6875
 40
0.6875
 40
0.6875
 40
0.6875
 40
0.75
 40
0.75
 40
0.75
 40
0.75
 40
0.8125
 40
0.8125
 40
0.8125
 40
0.8125
 40
0.875
 40
0.875
 40
0.875
 40
0.875
 40
1.0
 40
1.0
 40
1.0
 40
1.0
 10
-42.2242
 20
103.079
 30
0.0
 10
-41.2899
 20
101.9676
 30
0.0
 10
-41.709
 20
100.3317
 30
0.0
 10
-40.5944
 20
99.6088
 30
0.0
 10
-40.5944
 20
99.6088
 30
0.0
 10
-39.193
 20
99.4286
 30
0.0
 10
-35.4259
 20
100.3072
 30
0.0
 10
-34.9057
 20
100.1761
 30
0.0
 10
-34.9057
 20
100.1761
 30
0.0
 10
-34.6705
 20
99.1218
 30
0.0
 10
-36.0769
 20
98.2822
 30
0.0
 10
-36.727
 20
97.7244
 30
0.0
 10
-36.727
 20
97.7244
 30
0.0
 10
-37.2172
 20
97.3037
 30
0.0
 10
-38.4847
 20
96.1374
 30
0.0
 10
-38.8111
 20
95.5501
 30
0.0
 10
-38.8111
 20
95.5501
 30
0.0
 10
-38.8964
 20
93.7283
 30
0.0
 10
-37.4621
 20
92.1721
 30
0.0
 10
-37.4831
 20
90.4727
 30
0.0
 10
-37.4831
 20
90.4727
 30
0.0
 10
-38.2401
 20
90.2166
 30
0.0
 10
-38.3645
 20
90.5063
 30
0.0
 10
-38.8551
 20
90.7954
 30
0.0
 10
-38.8551
 20
90.7954
 30
0.0
 10
-39.3015
 20
91.0583
 30
0.0
 10
-39.6471
 20
91.102
 30
0.0
 10
-40.1052
 20
91.3574
 30
0.0
 10
-40.1052
 20
91.3574
 30
0.0
 10
-42.9165
 20
92.9262
 30
0.0
 10
-42.3345
 20
92.4915
 30
0.0
 10
-44.3268
 20
90.3712
 30
0.0
 10
-44.3268
 20
90.3712
 30
0.0
 10
-44.7039
 20
89.9699
 30
0.0
 10
-45.5013
 20
88.858
 30
0.0
 10
-46.1316
 20
88.8025
 30
0.0
 10
-46.1316
 20
88.8025
 30
0.0
 10
-46.6554
 20
90.1435
 30
0.0
 10
-45.6856
 20
92.55
 30
0.0
 10
-46.5547
 20
93.6672
 30
0.0
 10
-46.5547
 20
93.6672
 30
0.0
 10
-47.8568
 20
95.341
 30
0.0
 10
-49.7195
 20
94.2038
 30
0.0
 10
-49.9674
 20
95.7707
 30
0.0
 10
-49.9674
 20
95.7707
 30
0.0
 10
-48.9095
 20
96.209
 30
0.0
 10
-47.9955
 20
96.8412
 30
0.0
 10
-47.5371
 20
97.0562
 30
0.0
 10
-47.5371
 20
97.0562
 30
0.0
 10
-47.5371
 20
97.0562
 30
0.0
 10
-45.0732
 20
98.3679
 30
0.0
 10
-45.0732
 20
98.3679
 30
0.0
 10
-45.0732
 20
98.3679
 30
0.0
 10
-43.9948
 20
98.9425
 30
0.0
 10
-43.4333
 20
100.7964
 30
0.0
 10
-43.1242
 20
102.1627
 30
0.0
 10
-43.1242
 20
102.1627
 30
0.0
 10
-42.9857
 20
102.7752
 30
0.0
 10
-42.8461
 20
102.9933
 30
0.0
 10
-42.2242
 20
103.079
 30
0.0
  0
SPLINE
  5
8A
330
1F
100
AcDbEntity
  8
layer 2
100
AcDbSpline
210
0.0
220
0.0
230
1.0
 70
    11
 71
     3
 72
    24
 73
    20
 74
     0
 42
0.000000001
 43
0.0000000001
 40
0.0
 40
0.0
 40
0.0
 40
0.0
 40
0.1666666666666667
 40
0.1666666666666667
 40
0.1666666666666667
 40
0.1666666666666667
 40
0.3333333333333333
 40
0.3333333333333333
 40
0.3333333333333333
 40
0.3333333333333333
 40
0.5
 40
0.5
 40
0.5
 40
0.5
 40
0.6666666666666666
 40
0.6666666666666666
 40
0.6666666666666666
 40
0.6666666666666666
 40
1.0
 40
1.0
 40
1.0
 40
1.0
 10
-27.2473
 20
67.16
 30
0.0
 10
-27.4285
 20
69.4042
 30
0.0
 10
-28.9509
 20
67.6371
 30
0.0
 10
-29.3088
 20
67.0406
 30
0.0
 10
-29.3088
 20
67.0406
 30
0.0
 10
-29.6017
 20
66.5521
 30
0.0
 10
-30.6433
 20
65.4255
 30
0.0
 10
-29.7855
 20
64.9774
 30
0.0
 10
-29.7855
 20
64.9774
 30
0.0
 10
-29.3675
 20
64.7592
 30
0.0
 10
-29.3048
 20
65.1409
 30
0.0
 10
-28.9669
 20
65.4729
 30
0.0
 10
-28.9669
 20
65.4729
 30
0.0
 10
-28.4593
 20
65.3951
 30
0.0
 10
-28.67
 20
65.3626
 30
0.0
 10
-28.2119
 20
65.2324
 30
0.0
 10
-28.2119
 20
65.2324
 30
0.0
 10
-27.5862
 20
65.7305
 30
0.0
 10
-27.1524
 20
65.9874
 30
0.0
 10
-27.2473
 20
67.16
 30
0.0
  0
SPLINE
  5
8B
330
1F
100
AcDbEntity
  8
layer 2
100
AcDbSpline
210
0.0
220
0.0
230
1.0
 70
    11
 71
     3
 72
   112
 73
   108
 74
     0
 42
0.000000001
 43
0.0000000001
 40
0.0
 40
0.0
 40
0.0
 40
0.0
 40
0.0357142857142857
 40
0.0357142857142857
 40
0.0357142857142857
 40
0.0357142857142857
 40
0.0714285714285714
 40
0.0714285714285714
 40
0.0714285714285714
 40
0.0714285714285714
 40
0.1071428571428571
 40
0.1071428571428571
 40
0.1071428571428571
 40
0.1071428571428571
 40
0.1428571428571428
 40
0.1428571428571428
 40
0.1428571428571428
 40
0.1428571428571428
 40
0.1785714285714286
 40
0.1785714285714286
 40
0.1785714285714286
 40
0.1785714285714286
 40
0.2142857142857143
 40
0.2142857142857143
 40
0.2142857142857143
 40
0.2142857142857143
 40
0.25
 40
0.25
 40
0.25
 40
0.25
 40
0.2857142857142857
 40
0.2857142857142857
 40
0.2857142857142857
 40
0.2857142857142857
 40
0.3214285714285715
 40
0.3214285714285715
 40
0.3214285714285715
 40
0.3214285714285715
 40
0.3571428571428572
 40
0.3571428571428572
 40
0.3571428571428572
 40
0.3571428571428572
 40
0.3928571428571428
 40
0.3928571428571428
 40
0.3928571428571428
 40
0.3928571428571428
 40
0.4285714285714285
 40
0.4285714285714285
 40
0.4285714285714285
 40
0.4285714285714285
 40
0.4642857142857143
 40
0.4642857142857143
 40
0.4642857142857143
 40
0.4642857142857143
 40
0.5
 40
0.5
 40
0.5
 40
0.5
 40
0.5357142857142857
 40
0.5357142857142857
 40
0.5357142857142857
 40
0.5357142857142857
 40
0.5714285714285714
 40
0.5714285714285714
 40
0.5714285714285714
 40
0.5714285714285714
 40
0.6071428571428571
 40
0.6071428571428571
 40
0.6071428571428571
 40
0.6071428571428571
 40
0.6428571428571429
 40
0.6428571428571429
 40
0.6428571428571429
 40
0.6428571428571429
 40
0.6785714285714286
 40
0.6785714285714286
 40
0.6785714285714286
 40
0.6785714285714286
 40
0.7142857142857143
 40
0.7142857142857143
 40
0.7142857142857143
 40
0.7142857142857143
 40
0.75
 40
0.75
 40
0.75
 40
0.75
 40
0.7857142857142857
 40
0.7857142857142857
 40
0.7857142857142857
 40
0.7857142857142857
 40
0.8214285714285714
 40
0.8214285714285714
 40
0.8214285714285714
 40
0.8214285714285714
 40
0.8571428571428571
 40
0.8571428571428571
 40
0.8571428571428571
 40
0.8571428571428571
 40
0.8928571428571429
 40
0.8928571428571429
 40
0.8928571428571429
 40
0.8928571428571429
 40
0.9285714285714286
 40
0.9285714285714286
 40
0.9285714285714286
 40
0.9285714285714286
 40
1.0
 40
1.0
 40
1.0
 40
1.0
 10
-19.4031
 20
68.5626
 30
0.0
 10
-18.7692
 20
67.1685
 30
0.0
 10
-22.391
 20
66.9414
 30
0.0
 10
-23.5586
 20
63.0889
 30
0.0
 10
-23.5586
 20
63.0889
 30
0.0
 10
-24.1031
 20
61.2924
 30
0.0
 10
-24.139
 20
62.1556
 30
0.0
 10
-25.0839
 20
61.2621
 30
0.0
 10
-25.0839
 20
61.2621
 30
0.0
 10
-25.1292
 20
60.306
 30
0.0
 10
-24.6869
 20
59.971
 30
0.0
 10
-23.8326
 20
59.8711
 30
0.0
 10
-23.8326
 20
59.8711
 30
0.0
 10
-23.3944
 20
60.114
 30
0.0
 10
-23.0964
 20
60.5482
 30
0.0
 10
-22.4693
 20
60.5392
 30
0.0
 10
-22.4693
 20
60.5392
 30
0.0
 10
-21.4174
 20
60.5241
 30
0.0
 10
-22.0219
 20
59.8569
 30
0.0
 10
-21.0224
 20
59.9698
 30
0.0
 10
-21.0224
 20
59.9698
 30
0.0
 10
-20.5569
 20
61.6727
 30
0.0
 10
-23.2604
 20
60.8573
 30
0.0
 10
-21.7231
 20
63.3796
 30
0.0
 10
-21.7231
 20
63.3796
 30
0.0
 10
-21.2131
 20
64.216
 30
0.0
 10
-21.1359
 20
64.3229
 30
0.0
 10
-20.5156
 20
64.895
 30
0.0
 10
-20.5156
 20
64.895
 30
0.0
 10
-17.8717
 20
67.3335
 30
0.0
 10
-18.378
 20
63.7584
 30
0.0
 10
-17.5897
 20
62.6758
 30
0.0
 10
-17.5897
 20
62.6758
 30
0.0
 10
-17.1342
 20
62.0503
 30
0.0
 10
-16.1084
 20
61.3578
 30
0.0
 10
-15.0109
 20
61.195
 30
0.0
 10
-15.0109
 20
61.195
 30
0.0
 10
-13.7956
 20
61.0147
 30
0.0
 10
-12.1191
 20
62.6745
 30
0.0
 10
-11.6256
 20
63.5567
 30
0.0
 10
-11.6256
 20
63.5567
 30
0.0
 10
-10.772
 20
65.0824
 30
0.0
 10
-10.2223
 20
64.1869
 30
0.0
 10
-10.4824
 20
63.4965
 30
0.0
 10
-10.4824
 20
63.4965
 30
0.0
 10
-10.9378
 20
62.2876
 30
0.0
 10
-12.0584
 20
61.0618
 30
0.0
 10
-13.1849
 20
60.4312
 30
0.0
 10
-13.1849
 20
60.4312
 30
0.0
 10
-13.7617
 20
60.1084
 30
0.0
 10
-14.41
 20
59.9604
 30
0.0
 10
-14.4707
 20
59.2985
 30
0.0
 10
-14.4707
 20
59.2985
 30
0.0
 10
-13.7177
 20
58.7608
 30
0.0
 10
-12.9655
 20
59.1856
 30
0.0
 10
-12.2299
 20
59.4729
 30
0.0
 10
-12.2299
 20
59.4729
 30
0.0
 10
-11.2811
 20
59.8433
 30
0.0
 10
-10.9073
 20
59.7177
 30
0.0
 10
-9.9432
 20
60.2085
 30
0.0
 10
-9.9432
 20
60.2085
 30
0.0
 10
-9.0258
 20
60.6755
 30
0.0
 10
-9.0883
 20
60.5739
 30
0.0
 10
-8.0698
 20
61.3553
 30
0.0
 10
-8.0698
 20
61.3553
 30
0.0
 10
-8.0698
 20
61.3553
 30
0.0
 10
-6.4823
 20
62.7848
 30
0.0
 10
-6.4823
 20
62.7848
 30
0.0
 10
-6.4823
 20
62.7848
 30
0.0
 10
-6.0596
 20
63.2179
 30
0.0
 10
-5.5337
 20
63.8423
 30
0.0
 10
-5.1857
 20
64.5086
 30
0.0
 10
-5.1857
 20
64.5086
 30
0.0
 10
-4.6369
 20
65.5595
 30
0.0
 10
-3.4858
 20
67.9736
 30
0.0
 10
-4.1327
 20
69.0252
 30
0.0
 10
-4.1327
 20
69.0252
 30
0.0
 10
-4.359
 20
69.3931
 30
0.0
 10
-4.5935
 20
69.4464
 30
0.0
 10
-4.8361
 20
69.8411
 30
0.0
 10
-4.8361
 20
69.8411
 30
0.0
 10
-5.1577
 20
70.364
 30
0.0
 10
-4.9648
 20
70.375
 30
0.0
 10
-5.4099
 20
70.7897
 30
0.0
 10
-5.4099
 20
70.7897
 30
0.0
 10
-7.3491
 20
70.4684
 30
0.0
 10
-6.4171
 20
67.7212
 30
0.0
 10
-10.1893
 20
69.1692
 30
0.0
 10
-10.1893
 20
69.1692
 30
0.0
 10
-11.949
 20
69.8447
 30
0.0
 10
-14.228
 20
70.5576
 30
0.0
 10
-16.1313
 20
70.5576
 30
0.0
 10
-16.1313
 20
70.5576
 30
0.0
 10
-19.6534
 20
70.5576
 30
0.0
 10
-22.4142
 20
68.8454
 30
0.0
 10
-24.6417
 20
66.4506
 30
0.0
 10
-24.6417
 20
66.4506
 30
0.0
 10
-25.0122
 20
66.0522
 30
0.0
 10
-25.1127
 20
65.9875
 30
0.0
 10
-25.1189
 20
65.2512
 30
0.0
 10
-25.1189
 20
65.2512
 30
0.0
 10
-24.1793
 20
64.9277
 30
0.0
 10
-23.8752
 20
65.8981
 30
0.0
 10
-22.4426
 20
67.1214
 30
0.0
 10
-22.4426
 20
67.1214
 30
0.0
 10
-21.8526
 20
67.6251
 30
0.0
 10
-20.4989
 20
68.6785
 30
0.0
 10
-19.4031
 20
68.5626
 30
0.0
  0
SPLINE
  5
8C
330
1F
100
AcDbEntity
  8
layer 2
100
AcDbSpline
210
0.0
220
0.0
230
1.0
 70
    11
 71
     3
 72
    20
 73
    16
 74
     0
 42
0.000000001
 43
0.0000000001
 40
0.0
 40
0.0
 40
0.0
 40
0.0
 40
0.2
 40
0.2
 40
0.2
 40
0.2
 40
0.4
 40
0.4
 40
0.4
 40
0.4
 40
0.6
 40
0.6
 40
0.6
 40
0.6
 40
1.0
 40
1.0
 40
1.0
 40
1.0
 10
-16.6628
 20
64.3651
 30
0.0
 10
-16.2114
 20
64.2869
 30
0.0
 10
-16.0339
 20
63.826
 30
0.0
 10
-15.5579
 20
63.6415
 30
0.0
 10
-15.5579
 20
63.6415
 30
0.0
 10
-14.1856
 20
63.1094
 30
0.0
 10
-14.177
 20
64.6696
 30
0.0
 10
-12.8651
 20
64.2282
 30
0.0
 10
-12.8651
 20
64.2282
 30
0.0
 10
-12.7665
 20
63.4166
 30
0.0
 10
-14.7202
 20
62.1381
 30
0.0
 10
-15.9999
 20
62.746
 30
0.0
 10
-15.9999
 20
62.746
 30
0.0
 10
-18.049
 20
63.7191
 30
0.0
 10
-17.1358
 20
64.447
 30
0.0
 10
-16.6628
 20
64.3651
 30
0.0
  0
SPLINE
  5
8D
330
1F
100
AcDbEntity
  8
layer 2
100
AcDbSpline
210
0.0
220
0.0
230
1.0
 70
    11
 71
     3
 72
    12
 73
     8
 74
     0
 42
0.000000001
 43
0.0000000001
 40
0.0
 40
0.0
 40
0.0
 40
0.0
 40
0.3333333333333333
 40
0.3333333333333333
 40
0.3333333333333333
 40
0.3333333333333333
 40
1.0
 40
1.0
 40
1.0
 40
1.0
 10
-14.8205
 20
65.003
 30
0.0
 10
-15.2099
 20
66.4857
 30
0.0
 10
-13.2438
 20
65.8269
 30
0.0
 10
-14.1179
 20
64.98
 30
0.0
 10
-14.1179
 20
64.98
 30
0.0
 10
-14.5612
 20
64.5503
 30
0.0
 10
-14.8161
 20
64.9997
 30
0.0
 10
-14.8205
 20
65.003
 30
0.0
  0
SPLINE
  5
8E
330
1F
100
AcDbEntity
  8
layer 2
100
AcDbSpline
210
0.0
220
0.0
230
1.0
 70
    11
 71
     3
 72
    40
 73
    36
 74
     0
 42
0.000000001
 43
0.0000000001
 40
0.0
 40
0.0
 40
0.0
 40
0.0
 40
0.1
 40
0.1
 40
0.1
 40
0.1
 40
0.2
 40
0.2
 40
0.2
 40
0.2
 40
0.3
 40
0.3
 40
0.3
 40
0.3
 40
0.4
 40
0.4
 40
0.4
 40
0.4
 40
0.5
 40
0.5
 40
0.5
 40
0.5
 40
0.6
 40
0.6
 40
0.6
 40
0.6
 40
0.7
 40
0.7
 40
0.7
 40
0.7
 40
0.8
 40
0.8
 40
0.8
 40
0.8
 40
1.0
 40
1.0
 40
1.0
 40
1.0
 10
-21.5817
 20
72.4537
 30
0.0
 10
-19.1577
 20
74.1252
 30
0.0
 10
-16.7395
 20
75.2918
 30
0.0
 10
-13.5643
 20
75.164
 30
0.0
 10
-13.5643
 20
75.164
 30
0.0
 10
-12.5436
 20
75.1231
 30
0.0
 10
-11.0943
 20
75.2352
 30
0.0
 10
-10.1302
 20
74.9682
 30
0.0
 10
-10.1302
 20
74.9682
 30
0.0
 10
-9.8228
 20
74.8831
 30
0.0
 10
-9.4197
 20
74.5714
 30
0.0
 10
-8.937
 20
74.3436
 30
0.0
 10
-8.937
 20
74.3436
 30
0.0
 10
-8.3263
 20
74.0551
 30
0.0
 10
-8.4265
 20
73.8191
 30
0.0
 10
-7.6873
 20
73.8392
 30
0.0
 10
-7.6873
 20
73.8392
 30
0.0
 10
-6.6526
 20
75.2763
 30
0.0
 10
-9.5534
 20
76.6728
 30
0.0
 10
-10.7316
 20
77.2347
 30
0.0
 10
-10.7316
 20
77.2347
 30
0.0
 10
-11.8922
 20
77.7881
 30
0.0
 10
-15.6879
 20
78.0563
 30
0.0
 10
-17.1945
 20
77.9416
 30
0.0
 10
-17.1945
 20
77.9416
 30
0.0
 10
-21.0585
 20
77.647
 30
0.0
 10
-24.418
 20
75.7223
 30
0.0
 10
-26.2124
 20
72.5568
 30
0.0
 10
-26.2124
 20
72.5568
 30
0.0
 10
-26.659
 20
71.7691
 30
0.0
 10
-27.0842
 20
70.4822
 30
0.0
 10
-26.152
 20
70.0893
 30
0.0
 10
-26.152
 20
70.0893
 30
0.0
 10
-25.4488
 20
69.7929
 30
0.0
 10
-22.2832
 20
71.9699
 30
0.0
 10
-21.5817
 20
72.4537
 30
0.0
  0
SPLINE
  5
8F
330
1F
100
AcDbEntity
  8
layer 2
100
AcDbSpline
210
0.0
220
0.0
230
1.0
 70
    11
 71
     3
 72
    48
 73
    44
 74
     0
 42
0.000000001
 43
0.0000000001
 40
0.0
 40
0.0
 40
0.0
 40
0.0
 40
0.0833333333333333
 40
0.0833333333333333
 40
0.0833333333333333
 40
0.0833333333333333
 40
0.1666666666666667
 40
0.1666666666666667
 40
0.1666666666666667
 40
0.1666666666666667
 40
0.25
 40
0.25
 40
0.25
 40
0.25
 40
0.3333333333333333
 40
0.3333333333333333
 40
0.3333333333333333
 40
0.3333333333333333
 40
0.4166666666666667
 40
0.4166666666666667
 40
0.4166666666666667
 40
0.4166666666666667
 40
0.5
 40
0.5
 40
0.5
 40
0.5
 40
0.5833333333333334
 40
0.5833333333333334
 40
0.5833333333333334
 40
0.5833333333333334
 40
0.6666666666666666
 40
0.6666666666666666
 40
0.6666666666666666
 40
0.6666666666666666
 40
0.75
 40
0.75
 40
0.75
 40
0.75
 40
0.8333333333333334
 40
0.8333333333333334
 40
0.8333333333333334
 40
0.8333333333333334
 40
1.0
 40
1.0
 40
1.0
 40
1.0
 10
-19.304
 20
32.6212
 30
0.0
 10
-23.6614
 20
32.7996
 30
0.0
 10
-25.4069
 20
35.6577
 30
0.0
 10
-30.8538
 20
34.9257
 30
0.0
 10
-30.8538
 20
34.9257
 30
0.0
 10
-32.3891
 20
34.7195
 30
0.0
 10
-33.3802
 20
34.5706
 30
0.0
 10
-35.0072
 20
34.5208
 30
0.0
 10
-35.0072
 20
34.5208
 30
0.0
 10
-36.1378
 20
34.4863
 30
0.0
 10
-38.6381
 20
34.8102
 30
0.0
 10
-39.38
 20
34.2183
 30
0.0
 10
-39.38
 20
34.2183
 30
0.0
 10
-39.8632
 20
33.8326
 30
0.0
 10
-42.0404
 20
31.0248
 30
0.0
 10
-40.428
 20
29.558
 30
0.0
 10
-40.428
 20
29.558
 30
0.0
 10
-39.7874
 20
28.9753
 30
0.0
 10
-39.6791
 20
29.3272
 30
0.0
 10
-39.2191
 20
28.3484
 30
0.0
 10
-39.2191
 20
28.3484
 30
0.0
 10
-38.6911
 20
27.2256
 30
0.0
 10
-38.5451
 20
26.1117
 30
0.0
 10
-37.9343
 20
25.1004
 30
0.0
 10
-37.9343
 20
25.1004
 30
0.0
 10
-36.0693
 20
22.0117
 30
0.0
 10
-33.0671
 20
21.4976
 30
0.0
 10
-29.6107
 20
21.9063
 30
0.0
 10
-29.6107
 20
21.9063
 30
0.0
 10
-26.7254
 20
22.2479
 30
0.0
 10
-24.0126
 20
23.8281
 30
0.0
 10
-22.1765
 20
26.0702
 30
0.0
 10
-22.1765
 20
26.0702
 30
0.0
 10
-22.1765
 20
26.0702
 30
0.0
 10
-19.0564
 20
29.9017
 30
0.0
 10
-19.0564
 20
29.9017
 30
0.0
 10
-19.0564
 20
29.9017
 30
0.0
 10
-18.4651
 20
30.5934
 30
0.0
 10
-18.4009
 20
30.3831
 30
0.0
 10
-17.5924
 20
30.8498
 30
0.0
 10
-17.5924
 20
30.8498
 30
0.0
 10
-15.7741
 20
31.8992
 30
0.0
 10
-18.0442
 20
32.5696
 30
0.0
 10
-19.304
 20
32.6212
 30
0.0
  0
SPLINE
  5
90
330
1F
100
AcDbEntity
  8
layer 2
100
AcDbSpline
210
0.0
220
0.0
230
1.0
 70
    11
 71
     3
 72
    20
 73
    16
 74
     0
 42
0.000000001
 43
0.0000000001
 40
0.0
 40
0.0
 40
0.0
 40
0.0
 40
0.2
 40
0.2
 40
0.2
 40
0.2
 40
0.4
 40
0.4
 40
0.4
 40
0.4
 40
0.6
 40
0.6
 40
0.6
 40
0.6
 40
1.0
 40
1.0
 40
1.0
 40
1.0
 10
-26.4522
 20
29.8122
 30
0.0
 10
-26.6525
 20
28.5025
 30
0.0
 10
-29.0866
 20
28.7333
 30
0.0
 10
-30.4769
 20
28.7306
 30
0.0
 10
-30.4769
 20
28.7306
 30
0.0
 10
-31.3327
 20
28.729
 30
0.0
 10
-32.1889
 20
28.7276
 30
0.0
 10
-33.0445
 20
28.7443
 30
0.0
 10
-33.0445
 20
28.7443
 30
0.0
 10
-33.8298
 20
28.7599
 30
0.0
 10
-34.8618
 20
28.5382
 30
0.0
 10
-34.9887
 20
29.2688
 30
0.0
 10
-34.9887
 20
29.2688
 30
0.0
 10
-35.2728
 20
30.9058
 30
0.0
 10
-27.1094
 20
30.3636
 30
0.0
 10
-26.4522
 20
29.8122
 30
0.0
  0
SPLINE
  5
91
330
1F
100
AcDbEntity
  8
layer 2
100
AcDbSpline
210
0.0
220
0.0
230
1.0
 70
    11
 71
     3
 72
    12
 73
     8
 74
     0
 42
0.000000001
 43
0.0000000001
 40
0.0
 40
0.0
 40
0.0
 40
0.0
 40
0.3333333333333333
 40
0.3333333333333333
 40
0.3333333333333333
 40
0.3333333333333333
 40
1.0
 40
1.0
 40
1.0
 40
1.0
 10
-33.8747
 20
44.2669
 30
0.0
 10
-36.2213
 20
42.5566
 30
0.0
 10
-31.3191
 20
42.957
 30
0.0
 10
-30.3562
 20
43.5935
 30
0.0
 10
-30.3562
 20
43.5935
 30
0.0
 10
-29.8419
 20
46.5503
 30
0.0
 10
-32.865
 20
45.0029
 30
0.0
 10
-33.8747
 20
44.2669
 30
0.0
  0
SPLINE
  5
92
330
1F
100
AcDbEntity
  8
layer 2
100
AcDbSpline
210
0.0
220
0.0
230
1.0
 70
    11
 71
     3
 72
    52
 73
    48
 74
     0
 42
0.000000001
 43
0.0000000001
 40
0.0
 40
0.0
 40
0.0
 40
0.0
 40
0.0769230769230769
 40
0.0769230769230769
 40
0.0769230769230769
 40
0.0769230769230769
 40
0.1538461538461539
 40
0.1538461538461539
 40
0.1538461538461539
 40
0.1538461538461539
 40
0.2307692307692308
 40
0.2307692307692308
 40
0.2307692307692308
 40
0.2307692307692308
 40
0.3076923076923077
 40
0.3076923076923077
 40
0.3076923076923077
 40
0.3076923076923077
 40
0.3846153846153846
 40
0.3846153846153846
 40
0.3846153846153846
 40
0.3846153846153846
 40
0.4615384615384616
 40
0.4615384615384616
 40
0.4615384615384616
 40
0.4615384615384616
 40
0.5384615384615384
 40
0.5384615384615384
 40
0.5384615384615384
 40
0.5384615384615384
 40
0.6153846153846154
 40
0.6153846153846154
 40
0.6153846153846154
 40
0.6153846153846154
 40
0.6923076923076923
 40
0.6923076923076923
 40
0.6923076923076923
 40
0.6923076923076923
 40
0.7692307692307693
 40
0.7692307692307693
 40
0.7692307692307693
 40
0.7692307692307693
 40
0.8461538461538461
 40
0.8461538461538461
 40
0.8461538461538461
 40
0.8461538461538461
 40
1.0
 40
1.0
 40
1.0
 40
1.0
 10
15.2119
 20
41.5559
 30
0.0
 10
14.9821
 20
40.6979
 30
0.0
 10
15.4107
 20
40.0353
 30
0.0
 10
14.9649
 20
39.2431
 30
0.0
 10
14.9649
 20
39.2431
 30
0.0
 10
14.4932
 20
39.2551
 30
0.0
 10
14.429
 20
39.2513
 30
0.0
 10
14.2636
 20
39.7081
 30
0.0
 10
14.2636
 20
39.7081
 30
0.0
 10
14.1957
 20
39.8955
 30
0.0
 10
14.1971
 20
40.066
 30
0.0
 10
14.1447
 20
40.2106
 30
0.0
 10
14.1447
 20
40.2106
 30
0.0
 10
13.7331
 20
41.3407
 30
0.0
 10
13.1389
 20
39.9907
 30
0.0
 10
13.0692
 20
39.9088
 30
0.0
 10
13.0692
 20
39.9088
 30
0.0
 10
12.6684
 20
39.4385
 30
0.0
 10
12.5165
 20
39.706
 30
0.0
 10
12.0013
 20
39.3449
 30
0.0
 10
12.0013
 20
39.3449
 30
0.0
 10
12.1466
 20
38.5526
 30
0.0
 10
13.3582
 20
37.5209
 30
0.0
 10
14.5201
 20
37.8518
 30
0.0
 10
14.5201
 20
37.8518
 30
0.0
 10
16.5719
 20
38.4363
 30
0.0
 10
18.6602
 20
40.0191
 30
0.0
 10
18.7096
 20
42.398
 30
0.0
 10
18.7096
 20
42.398
 30
0.0
 10
18.7291
 20
43.3364
 30
0.0
 10
17.783
 20
44.8297
 30
0.0
 10
16.8559
 20
44.589
 30
0.0
 10
16.8559
 20
44.589
 30
0.0
 10
16.9141
 20
43.3138
 30
0.0
 10
17.8768
 20
43.9414
 30
0.0
 10
17.4889
 20
42.742
 30
0.0
 10
17.4889
 20
42.742
 30
0.0
 10
16.6427
 20
42.7036
 30
0.0
 10
16.7526
 20
43.393
 30
0.0
 10
15.9484
 20
43.3716
 30
0.0
 10
15.9484
 20
43.3716
 30
0.0
 10
15.7355
 20
42.8992
 30
0.0
 10
15.8828
 20
42.7479
 30
0.0
 10
15.6791
 20
42.3102
 30
0.0
 10
15.6791
 20
42.3102
 30
0.0
 10
15.4573
 20
41.8329
 30
0.0
 10
15.3867
 20
42.2089
 30
0.0
 10
15.2119
 20
41.5559
 30
0.0
  0
SPLINE
  5
93
330
1F
100
AcDbEntity
  8
layer 2
100
AcDbSpline
210
0.0
220
0.0
230
1.0
 70
    11
 71
     3
 72
    32
 73
    28
 74
     0
 42
0.000000001
 43
0.0000000001
 40
0.0
 40
0.0
 40
0.0
 40
0.0
 40
0.125
 40
0.125
 40
0.125
 40
0.125
 40
0.25
 40
0.25
 40
0.25
 40
0.25
 40
0.375
 40
0.375
 40
0.375
 40
0.375
 40
0.5
 40
0.5
 40
0.5
 40
0.5
 40
0.625
 40
0.625
 40
0.625
 40
0.625
 40
0.75
 40
0.75
 40
0.75
 40
0.75
 40
1.0
 40
1.0
 40
1.0
 40
1.0
 10
-23.418
 20
-36.574
 30
0.0
 10
-22.3276
 20
-36.237
 30
0.0
 10
-23.5405
 20
-34.6232
 30
0.0
 10
-23.8663
 20
-33.9335
 30
0.0
 10
-23.8663
 20
-33.9335
 30
0.0
 10
-24.7338
 20
-32.0978
 30
0.0
 10
-25.1804
 20
-29.2461
 30
0.0
 10
-25.3106
 20
-27.0963
 30
0.0
 10
-25.3106
 20
-27.0963
 30
0.0
 10
-25.3584
 20
-26.3089
 30
0.0
 10
-25.7229
 20
-24.0121
 30
0.0
 10
-26.5154
 20
-24.3667
 30
0.0
 10
-26.5154
 20
-24.3667
 30
0.0
 10
-27.1483
 20
-24.65
 30
0.0
 10
-27.1402
 20
-27.0657
 30
0.0
 10
-27.1806
 20
-27.8565
 30
0.0
 10
-27.1806
 20
-27.8565
 30
0.0
 10
-27.255
 20
-29.3076
 30
0.0
 10
-27.2749
 20
-30.535
 30
0.0
 10
-26.9491
 20
-31.8819
 30
0.0
 10
-26.9491
 20
-31.8819
 30
0.0
 10
-26.7513
 20
-32.6996
 30
0.0
 10
-27.183
 20
-34.1886
 30
0.0
 10
-25.0372
 20
-36.1623
 30
0.0
 10
-25.0372
 20
-36.1623
 30
0.0
 10
-24.6066
 20
-36.5584
 30
0.0
 10
-24.2862
 20
-36.8424
 30
0.0
 10
-23.418
 20
-36.574
 30
0.0
  0
SPLINE
  5
94
330
1F
100
AcDbEntity
  8
layer 2
100
AcDbSpline
210
0.0
220
0.0
230
1.0
 70
    11
 71
     3
 72
    24
 73
    20
 74
     0
 42
0.000000001
 43
0.0000000001
 40
0.0
 40
0.0
 40
0.0
 40
0.0
 40
0.1666666666666667
 40
0.1666666666666667
 40
0.1666666666666667
 40
0.1666666666666667
 40
0.3333333333333333
 40
0.3333333333333333
 40
0.3333333333333333
 40
0.3333333333333333
 40
0.5
 40
0.5
 40
0.5
 40
0.5
 40
0.6666666666666666
 40
0.6666666666666666
 40
0.6666666666666666
 40
0.6666666666666666
 40
1.0
 40
1.0
 40
1.0
 40
1.0
 10
-36.0519
 20
-107.6007
 30
0.0
 10
-37.7514
 20
-106.3293
 30
0.0
 10
-40.3359
 20
-105.9213
 30
0.0
 10
-39.9588
 20
-107.6106
 30
0.0
 10
-39.9588
 20
-107.6106
 30
0.0
 10
-39.0136
 20
-111.8446
 30
0.0
 10
-33.1693
 20
-115.5013
 30
0.0
 10
-29.4011
 20
-116.3596
 30
0.0
 10
-29.4011
 20
-116.3596
 30
0.0
 10
-28.5092
 20
-116.5626
 30
0.0
 10
-15.6322
 20
-118.0776
 30
0.0
 10
-16.4463
 20
-115.8101
 30
0.0
 10
-16.4463
 20
-115.8101
 30
0.0
 10
-16.607
 20
-115.3628
 30
0.0
 10
-21.9662
 20
-113.5783
 30
0.0
 10
-22.7754
 20
-113.5016
 30
0.0
 10
-22.7754
 20
-113.5016
 30
0.0
 10
-29.0722
 20
-112.9043
 30
0.0
 10
-31.1007
 20
-111.3046
 30
0.0
 10
-36.0519
 20
-107.6007
 30
0.0
  0
ENDSEC
  0
SECTION
  2
OBJECTS
  0
DICTIONARY
  5
C
330
0
100
AcDbDictionary
281
     1
  3
ACAD_DETAILVIEWSTYLE
350
C9
  3
ACAD_GROUP
350
D
  3
ACAD_LAYOUT
350
1A
  3
ACAD_MATERIAL
350
43
  3
ACAD_MLEADERSTYLE
350
C8
  3
ACAD_MLINESTYLE
350
17
  3
ACAD_PLOTSETTINGS
350
19
  3
ACAD_PLOTSTYLENAME
350
E
  3
ACAD_SCALELIST
350
47
  3
ACAD_SECTIONVIEWSTYLE
350
CA
  3
ACAD_TABLESTYLE
350
C7
  3
ACAD_VISUALSTYLE
350
2A
  3
AcDbVariableDictionary
350
95
  0
SUN
  5
69
330
29
100
AcDbSun
 90
        1
290
     0
 63
     7
421
 16777215
 40
1.0
291
     1
 91
  2455826
 92
 54000000
292
     0
 70
     2
 71
   256
280
     1
  0
DICTIONARY
  5
C9
102
{ACAD_REACTORS
330
C
102
}
330
C
100
AcDbDictionary
281
     1
  0
DICTIONARY
  5
D
102
{ACAD_REACTORS
330
C
102
}
330
C
100
AcDbDictionary
281
     1
  0
DICTIONARY
  5
1A
102
{ACAD_REACTORS
330
C
102
}
330
C
100
AcDbDictionary
281
     1
  3
Layout1
350
1E
  3
Layout2
350
26
  3
Model
350
22
  0
DICTIONARY
  5
43
102
{ACAD_REACTORS
330
C
102
}
330
C
100
AcDbDictionary
281
     1
  3
ByBlock
350
45
  3
ByLayer
350
44
  3
Global
350
46
  0
DICTIONARY
  5
C8
102
{ACAD_REACTORS
330
C
102
}
330
C
100
AcDbDictionary
281
     1
  0
DICTIONARY
  5
17
102
{ACAD_REACTORS
330
C
102
}
330
C
100
AcDbDictionary
281
     1
  3
Standard
350
18
  0
DICTIONARY
  5
19
102
{ACAD_REACTORS
330
C
102
}
330
C
100
AcDbDictionary
281
     1
  0
ACDBDICTIONARYWDFLT
  5
E
102
{ACAD_REACTORS
330
C
102
}
330
C
100
AcDbDictionary
281
     1
  3
Normal
350
F
100
AcDbDictionaryWithDefault
340
F
  0
DICTIONARY
  5
47
102
{ACAD_REACTORS
330
C
102
}
330
C
100
AcDbDictionary
281
     1
  3
A0
350
48
  3
A1
350
49
  3
A2
350
4A
  3
A3
350
4B
  3
A4
350
4C
  3
A5
350
4D
  3
A6
350
4E
  3
A7
350
4F
  3
A8
350
50
  3
A9
350
51
  3
B0
350
52
  3
B1
350
53
  3
B2
350
54
  3
B3
350
55
  3
B4
350
56
  3
B5
350
57
  3
B6
350
58
  3
B7
350
59
  3
B8
350
5A
  3
B9
350
5B
  3
C0
350
5C
  3
C1
350
5D
  3
C2
350
5E
  3
C3
350
5F
  3
C4
350
60
  3
C5
350
61
  3
C6
350
62
  3
C7
350
63
  3
C8
350
64
  3
C9
350
65
  3
D0
350
66
  3
D1
350
67
  3
D2
350
68
  0
DICTIONARY
  5
CA
102
{ACAD_REACTORS
330
C
102
}
330
C
100
AcDbDictionary
281
     1
  0
DICTIONARY
  5
C7
102
{ACAD_REACTORS
330
C
102
}
330
C
100
AcDbDictionary
281
     1
  0
DICTIONARY
  5
2A
102
{ACAD_REACTORS
330
C
102
}
330
C
100
AcDbDictionary
281
     1
  3
2dWireframe
350
2F
  3
Basic
350
32
  3
Brighten
350
36
  3
ColorChange
350
3A
  3
Conceptual
350
34
  3
Dim
350
35
  3
EdgeColorOff
350
3D
  3
Facepattern
350
39
  3
Flat
350
2B
  3
FlatWithEdges
350
2C
  3
Gouraud
350
2D
  3
GouraudWithEdges
350
2E
  3
Hidden
350
31
  3
JitterOff
350
3B
  3
Linepattern
350
38
  3
OverhangOff
350
3C
  3
Realistic
350
33
  3
Shaded
350
42
  3
Shaded with edges
350
41
  3
Shades of Gray
350
3E
  3
Sketchy
350
3F
  3
Thicken
350
37
  3
Wireframe
350
30
  3
X-Ray
350
40
  0
DICTIONARY
  5
95
102
{ACAD_REACTORS
330
C
102
}
330
C
100
AcDbDictionary
281
     1
  3
CANNOSCALE
350
96
  0
LAYOUT
  5
1E
102
{ACAD_REACTORS
330
1A
102
}
330
1A
100
AcDbPlotSettings
  1

  2
none_device
  4

  6

 40
0.0
 41
0.0
 42
0.0
 43
0.0
 44
0.0
 45
0.0
 46
0.0
 47
0.0
 48
0.0
 49
0.0
140
0.0
141
0.0
142
1.0
143
1.0
 70
   688
 72
     0
 73
     0
 74
     5
  7

 75
    16
 76
     0
 77
     2
 78
   300
147
1.0
148
0.0
149
0.0
100
AcDbLayout
  1
Layout1
 70
     1
 71
     1
 10
0.0
 20
0.0
 11
12.0
 21
9.0
 12
0.0
 22
0.0
 32
0.0
 14
1.000000000000000E+20
 24
1.000000000000000E+20
 34
1.000000000000000E+20
 15
-1.000000000000000E+20
 25
-1.000000000000000E+20
 35
-1.000000000000000E+20
146
0.0
 13
0.0
 23
0.0
 33
0.0
 16
1.0
 26
0.0
 36
0.0
 17
0.0
 27
1.0
 37
0.0
 76
     0
330
1B
  0
LAYOUT
  5
26
102
{ACAD_REACTORS
330
1A
102
}
330
1A
100
AcDbPlotSettings
  1

  2
none_device
  4

  6

 40
0.0
 41
0.0
 42
0.0
 43
0.0
 44
0.0
 45
0.0
 46
0.0
 47
0.0
 48
0.0
 49
0.0
140
0.0
141
0.0
142
1.0
143
1.0
 70
   688
 72
     0
 73
     0
 74
     5
  7

 75
    16
 76
     0
 77
     2
 78
   300
147
1.0
148
0.0
149
0.0
100
AcDbLayout
  1
Layout2
 70
     1
 71
     2
 10
0.0
 20
0.0
 11
0.0
 21
0.0
 12
0.0
 22
0.0
 32
0.0
 14
0.0
 24
0.0
 34
0.0
 15
0.0
 25
0.0
 35
0.0
146
0.0
 13
0.0
 23
0.0
 33
0.0
 16
1.0
 26
0.0
 36
0.0
 17
0.0
 27
1.0
 37
0.0
 76
     0
330
23
  0
LAYOUT
  5
22
102
{ACAD_REACTORS
330
1A
102
}
330
1A
100
AcDbPlotSettings
  1

  2
none_device
  4
Letter_(8.50_x_11.00_Inches)
  6

 40
6.35
 41
6.35
 42
6.35000508
 43
6.35000508
 44
215.9
 45
279.4
 46
0.0
 47
0.0
 48
0.0
 49
0.0
140
0.0
141
0.0
142
1.0
143
1.0
 70
  1712
 72
     0
 73
     0
 74
     0
  7

 75
     0
 76
     0
 77
     2
 78
   300
147
1.0
148
0.0
149
0.0
100
AcDbLayout
  1
Model
 70
     1
 71
     0
 10
0.0
 20
0.0
 11
12.0
 21
9.0
 12
0.0
 22
0.0
 32
0.0
 14
-97.6
 24
-147.6
 34
0.0
 15
97.6
 25
147.6
 35
0.0
146
0.0
 13
0.0
 23
0.0
 33
0.0
 16
1.0
 26
0.0
 36
0.0
 17
0.0
 27
1.0
 37
0.0
 76
     0
330
1F
331
29
  0
MATERIAL
  5
45
102
{ACAD_REACTORS
330
43
102
}
330
43
100
AcDbMaterial
  1
ByBlock
 72
     1
 94
      127
  0
MATERIAL
  5
44
102
{ACAD_REACTORS
330
43
102
}
330
43
100
AcDbMaterial
  1
ByLayer
 72
     1
 94
      127
  0
MATERIAL
  5
46
102
{ACAD_REACTORS
330
43
102
}
330
43
100
AcDbMaterial
  1
Global
 72
     1
 94
      127
  0
MLINESTYLE
  5
18
102
{ACAD_REACTORS
330
17
102
}
330
17
100
AcDbMlineStyle
  2
Standard
 70
     0
  3

 62
   256
 51
90.0
 52
90.0
 71
     2
 49
0.5
 62
   256
  6
BYLAYER
 49
-0.5
 62
   256
  6
BYLAYER
  0
ACDBPLACEHOLDER
  5
F
102
{ACAD_REACTORS
330
E
102
}
330
E
  0
SCALE
  5
48
102
{ACAD_REACTORS
330
47
102
}
330
47
100
AcDbScale
 70
     0
300
1:1
140
1.0
141
1.0
290
     1
  0
SCALE
  5
49
102
{ACAD_REACTORS
330
47
102
}
330
47
100
AcDbScale
 70
     0
300
1:2
140
1.0
141
2.0
290
     0
  0
SCALE
  5
4A
102
{ACAD_REACTORS
330
47
102
}
330
47
100
AcDbScale
 70
     0
300
1:4
140
1.0
141
4.0
290
     0
  0
SCALE
  5
4B
102
{ACAD_REACTORS
330
47
102
}
330
47
100
AcDbScale
 70
     0
300
1:5
140
1.0
141
5.0
290
     0
  0
SCALE
  5
4C
102
{ACAD_REACTORS
330
47
102
}
330
47
100
AcDbScale
 70
     0
300
1:8
140
1.0
141
8.0
290
     0
  0
SCALE
  5
4D
102
{ACAD_REACTORS
330
47
102
}
330
47
100
AcDbScale
 70
     0
300
1:10
140
1.0
141
10.0
290
     0
  0
SCALE
  5
4E
102
{ACAD_REACTORS
330
47
102
}
330
47
100
AcDbScale
 70
     0
300
1:16
140
1.0
141
16.0
290
     0
  0
SCALE
  5
4F
102
{ACAD_REACTORS
330
47
102
}
330
47
100
AcDbScale
 70
     0
300
1:20
140
1.0
141
20.0
290
     0
  0
SCALE
  5
50
102
{ACAD_REACTORS
330
47
102
}
330
47
100
AcDbScale
 70
     0
300
1:30
140
1.0
141
30.0
290
     0
  0
SCALE
  5
51
102
{ACAD_REACTORS
330
47
102
}
330
47
100
AcDbScale
 70
     0
300
1:40
140
1.0
141
40.0
290
     0
  0
SCALE
  5
52
102
{ACAD_REACTORS
330
47
102
}
330
47
100
AcDbScale
 70
     0
300
1:50
140
1.0
141
50.0
290
     0
  0
SCALE
  5
53
102
{ACAD_REACTORS
330
47
102
}
330
47
100
AcDbScale
 70
     0
300
1:100
140
1.0
141
100.0
290
     0
  0
SCALE
  5
54
102
{ACAD_REACTORS
330
47
102
}
330
47
100
AcDbScale
 70
     0
300
2:1
140
2.0
141
1.0
290
     0
  0
SCALE
  5
55
102
{ACAD_REACTORS
330
47
102
}
330
47
100
AcDbScale
 70
     0
300
4:1
140
4.0
141
1.0
290
     0
  0
SCALE
  5
56
102
{ACAD_REACTORS
330
47
102
}
330
47
100
AcDbScale
 70
     0
300
8:1
140
8.0
141
1.0
290
     0
  0
SCALE
  5
57
102
{ACAD_REACTORS
330
47
102
}
330
47
100
AcDbScale
 70
     0
300
10:1
140
10.0
141
1.0
290
     0
  0
SCALE
  5
58
102
{ACAD_REACTORS
330
47
102
}
330
47
100
AcDbScale
 70
     0
300
100:1
140
100.0
141
1.0
290
     0
  0
SCALE
  5
59
102
{ACAD_REACTORS
330
47
102
}
330
47
100
AcDbScale
 70
     0
300
1/128" = 1'-0"
140
0.0078125
141
12.0
290
     0
  0
SCALE
  5
5A
102
{ACAD_REACTORS
330
47
102
}
330
47
100
AcDbScale
 70
     0
300
1/64" = 1'-0"
140
0.015625
141
12.0
290
     0
  0
SCALE
  5
5B
102
{ACAD_REACTORS
330
47
102
}
330
47
100
AcDbScale
 70
     0
300
1/32" = 1'-0"
140
0.03125
141
12.0
290
     0
  0
SCALE
  5
5C
102
{ACAD_REACTORS
330
47
102
}
330
47
100
AcDbScale
 70
     0
300
1/16" = 1'-0"
140
0.0625
141
12.0
290
     0
  0
SCALE
  5
5D
102
{ACAD_REACTORS
330
47
102
}
330
47
100
AcDbScale
 70
     0
300
3/32" = 1'-0"
140
0.09375
141
12.0
290
     0
  0
SCALE
  5
5E
102
{ACAD_REACTORS
330
47
102
}
330
47
100
AcDbScale
 70
     0
300
1/8" = 1'-0"
140
0.125
141
12.0
290
     0
  0
SCALE
  5
5F
102
{ACAD_REACTORS
330
47
102
}
330
47
100
AcDbScale
 70
     0
300
3/16" = 1'-0"
140
0.1875
141
12.0
290
     0
  0
SCALE
  5
60
102
{ACAD_REACTORS
330
47
102
}
330
47
100
AcDbScale
 70
     0
300
1/4" = 1'-0"
140
0.25
141
12.0
290
     0
  0
SCALE
  5
61
102
{ACAD_REACTORS
330
47
102
}
330
47
100
AcDbScale
 70
     0
300
3/8" = 1'-0"
140
0.375
141
12.0
290
     0
  0
SCALE
  5
62
102
{ACAD_REACTORS
330
47
102
}
330
47
100
AcDbScale
 70
     0
300
1/2" = 1'-0"
140
0.5
141
12.0
290
     0
  0
SCALE
  5
63
102
{ACAD_REACTORS
330
47
102
}
330
47
100
AcDbScale
 70
     0
300
3/4" = 1'-0"
140
0.75
141
12.0
290
     0
  0
SCALE
  5
64
102
{ACAD_REACTORS
330
47
102
}
330
47
100
AcDbScale
 70
     0
300
1" = 1'-0"
140
1.0
141
12.0
290
     0
  0
SCALE
  5
65
102
{ACAD_REACTORS
330
47
102
}
330
47
100
AcDbScale
 70
     0
300
1-1/2" = 1'-0"
140
1.5
141
12.0
290
     0
  0
SCALE
  5
66
102
{ACAD_REACTORS
330
47
102
}
330
47
100
AcDbScale
 70
     0
300
3" = 1'-0"
140
3.0
141
12.0
290
     0
  0
SCALE
  5
67
102
{ACAD_REACTORS
330
47
102
}
330
47
100
AcDbScale
 70
     0
300
6" = 1'-0"
140
6.0
141
12.0
290
     0
  0
SCALE
  5
68
102
{ACAD_REACTORS
330
47
102
}
330
47
100
AcDbScale
 70
     0
300
1'-0" = 1'-0"
140
12.0
141
12.0
290
     0
  0
VISUALSTYLE
  5
2F
102
{ACAD_REACTORS
330
2A
102
}
102
{ACAD_XDICTIONARY
360
9F
102
}
330
2A
100
AcDbVisualStyle
  2
2dWireframe
 70
     4
 71
     0
 72
     2
 73
     0
 90
        0
 40
0.6
 41
30.0
 62
     5
 63
     7
421
 16777215
 74
     1
 91
        4
 64
     7
 65
   257
 75
     1
175
     1
 42
1.0
 92
        0
 66
   257
 43
1.0
 76
     1
 77
     6
 78
     2
 67
     7
 79
     5
170
     0
171
     0
290
     0
174
     0
 93
        1
 44
0.0
173
     0
291
     0
 45
0.0
  0
VISUALSTYLE
  5
32
102
{ACAD_REACTORS
330
2A
102
}
102
{ACAD_XDICTIONARY
360
A5
102
}
330
2A
100
AcDbVisualStyle
  2
Basic
 70
     7
 71
     1
 72
     0
 73
     1
 90
        0
 40
0.6
 41
30.0
 62
     5
 63
     7
421
 16777215
 74
     0
 91
        4
 64
     7
 65
   257
 75
     1
175
     1
 42
1.0
 92
        8
 66
     7
 43
1.0
 76
     1
 77
     6
 78
     2
 67
     7
 79
     5
170
     0
171
     0
290
     0
174
     0
 93
        1
 44
0.0
173
     0
291
     1
 45
0.0
  0
VISUALSTYLE
  5
36
102
{ACAD_REACTORS
330
2A
102
}
102
{ACAD_XDICTIONARY
360
AD
102
}
330
2A
100
AcDbVisualStyle
  2
Brighten
 70
    12
 71
     2
 72
     2
 73
     0
 90
        0
 40
0.6
 41
30.0
 62
     5
 63
     7
421
 16777215
 74
     1
 91
        4
 64
     7
 65
   257
 75
     1
175
     1
 42
1.0
 92
        8
 66
     7
 43
1.0
 76
     1
 77
     6
 78
     2
 67
     7
 79
     5
170
     0
171
     0
290
     0
174
     0
 93
        1
 44
50.0
173
     0
291
     1
 45
0.0
  0
VISUALSTYLE
  5
3A
102
{ACAD_REACTORS
330
2A
102
}
102
{ACAD_XDICTIONARY
360
B5
102
}
330
2A
100
AcDbVisualStyle
  2
ColorChange
 70
    16
 71
     2
 72
     2
 73
     3
 90
        0
 40
0.6
 41
30.0
 62
     5
 63
     8
421
  8421504
 74
     1
 91
        4
 64
     7
 65
   257
 75
     1
175
     1
 42
1.0
 92
        8
 66
     8
424
  8421504
 43
1.0
 76
     1
 77
     6
 78
     2
 67
     7
 79
     5
170
     0
171
     0
290
     0
174
     0
 93
        1
 44
0.0
173
     0
291
     1
 45
0.0
  0
VISUALSTYLE
  5
34
102
{ACAD_REACTORS
330
2A
102
}
102
{ACAD_XDICTIONARY
360
A9
102
}
330
2A
100
AcDbVisualStyle
  2
Conceptual
 70
     9
 71
     3
 72
     2
 73
     0
 90
        0
 40
0.6
 41
30.0
 62
     5
 63
     7
421
 16777215
 74
     2
 91
        2
 64
     7
 65
   257
 75
     1
175
     1
 42
179.0
 92
        8
 66
     7
 43
1.0
 76
     1
 77
     6
 78
     2
 67
     7
 79
     3
170
     0
171
     0
290
     0
174
     0
 93
        1
 44
0.0
173
     0
291
     0
 45
0.0
  0
VISUALSTYLE
  5
35
102
{ACAD_REACTORS
330
2A
102
}
102
{ACAD_XDICTIONARY
360
AB
102
}
330
2A
100
AcDbVisualStyle
  2
Dim
 70
    11
 71
     2
 72
     2
 73
     0
 90
        0
 40
0.6
 41
30.0
 62
     5
 63
     7
421
 16777215
 74
     1
 91
        4
 64
     7
 65
   257
 75
     1
175
     1
 42
1.0
 92
        8
 66
     7
 43
1.0
 76
     1
 77
     6
 78
     2
 67
     7
 79
     5
170
     0
171
     0
290
     0
174
     0
 93
        1
 44
-50.0
173
     0
291
     1
 45
0.0
  0
VISUALSTYLE
  5
3D
102
{ACAD_REACTORS
330
2A
102
}
102
{ACAD_XDICTIONARY
360
BB
102
}
330
2A
100
AcDbVisualStyle
  2
EdgeColorOff
 70
    22
 71
     2
 72
     2
 73
     0
 90
        0
 40
0.6
 41
30.0
 62
     5
 63
     7
421
 16777215
 74
     1
 91
        4
 64
     7
 65
   257
 75
     1
175
     1
 42
1.0
 92
        8
 66
     7
 43
1.0
 76
     1
 77
     6
 78
     2
 67
     7
 79
     5
170
     0
171
     0
290
     0
174
     0
 93
        1
 44
0.0
173
     0
291
     1
 45
0.0
  0
VISUALSTYLE
  5
39
102
{ACAD_REACTORS
330
2A
102
}
102
{ACAD_XDICTIONARY
360
B3
102
}
330
2A
100
AcDbVisualStyle
  2
Facepattern
 70
    15
 71
     2
 72
     2
 73
     0
 90
        0
 40
0.6
 41
30.0
 62
     5
 63
     7
421
 16777215
 74
     1
 91
        4
 64
     7
 65
   257
 75
     1
175
     1
 42
1.0
 92
        8
 66
     7
 43
1.0
 76
     1
 77
     6
 78
     2
 67
     7
 79
     5
170
     0
171
     0
290
     0
174
     0
 93
        1
 44
0.0
173
     0
291
     1
 45
0.0
  0
VISUALSTYLE
  5
2B
102
{ACAD_REACTORS
330
2A
102
}
102
{ACAD_XDICTIONARY
360
97
102
}
330
2A
100
AcDbVisualStyle
  2
Flat
 70
     0
 71
     2
 72
     1
 73
     1
 90
        2
 40
0.6
 41
30.0
 62
     5
 63
     7
421
 16777215
 74
     0
 91
        0
 64
     7
 65
   257
 75
     1
175
     1
 42
1.0
 92
        8
 66
     7
 43
1.0
 76
     1
 77
     6
 78
     2
 67
     7
 79
     5
170
     0
171
     0
290
     0
174
     0
 93
       13
 44
0.0
173
     0
291
     1
 45
0.0
  0
VISUALSTYLE
  5
2C
102
{ACAD_REACTORS
330
2A
102
}
102
{ACAD_XDICTIONARY
360
99
102
}
330
2A
100
AcDbVisualStyle
  2
FlatWithEdges
 70
     1
 71
     2
 72
     1
 73
     1
 90
        2
 40
0.6
 41
30.0
 62
     5
 63
     7
421
 16777215
 74
     1
 91
        0
 64
     7
 65
   257
 75
     1
175
     1
 42
1.0
 92
        0
 66
   257
 43
1.0
 76
     1
 77
     6
 78
     2
 67
     7
 79
     5
170
     0
171
     0
290
     0
174
     0
 93
       13
 44
0.0
173
     0
291
     1
 45
0.0
  0
VISUALSTYLE
  5
2D
102
{ACAD_REACTORS
330
2A
102
}
102
{ACAD_XDICTIONARY
360
9B
102
}
330
2A
100
AcDbVisualStyle
  2
Gouraud
 70
     2
 71
     2
 72
     2
 73
     1
 90
        2
 40
0.6
 41
30.0
 62
     5
 63
     7
421
 16777215
 74
     0
 91
        0
 64
     7
 65
   257
 75
     1
175
     1
 42
1.0
 92
        0
 66
     7
 43
1.0
 76
     1
 77
     6
 78
     2
 67
     7
 79
     5
170
     0
171
     0
290
     0
174
     0
 93
       13
 44
0.0
173
     0
291
     1
 45
0.0
  0
VISUALSTYLE
  5
2E
102
{ACAD_REACTORS
330
2A
102
}
102
{ACAD_XDICTIONARY
360
9D
102
}
330
2A
100
AcDbVisualStyle
  2
GouraudWithEdges
 70
     3
 71
     2
 72
     2
 73
     1
 90
        2
 40
0.6
 41
30.0
 62
     5
 63
     7
421
 16777215
 74
     1
 91
        0
 64
     7
 65
   257
 75
     1
175
     1
 42
1.0
 92
        0
 66
   257
 43
1.0
 76
     1
 77
     6
 78
     2
 67
     7
 79
     5
170
     0
171
     0
290
     0
174
     0
 93
       13
 44
0.0
173
     0
291
     1
 45
0.0
  0
VISUALSTYLE
  5
31
102
{ACAD_REACTORS
330
2A
102
}
102
{ACAD_XDICTIONARY
360
A3
102
}
330
2A
100
AcDbVisualStyle
  2
Hidden
 70
     6
 71
     1
 72
     2
 73
     2
 90
        0
 40
0.6
 41
30.0
 62
     5
 63
     7
421
 16777215
 74
     2
 91
        2
 64
     7
 65
   257
 75
     2
175
     1
 42
40.0
 92
        0
 66
   257
 43
1.0
 76
     1
 77
     6
 78
     2
 67
     7
 79
     3
170
     0
171
     0
290
     0
174
     0
 93
        1
 44
0.0
173
     0
291
     0
 45
0.0
  0
VISUALSTYLE
  5
3B
102
{ACAD_REACTORS
330
2A
102
}
102
{ACAD_XDICTIONARY
360
B7
102
}
330
2A
100
AcDbVisualStyle
  2
JitterOff
 70
    20
 71
     2
 72
     2
 73
     0
 90
        0
 40
0.6
 41
30.0
 62
     5
 63
     7
421
 16777215
 74
     1
 91
        4
 64
     7
 65
   257
 75
     1
175
     1
 42
1.0
 92
       10
 66
     7
 43
1.0
 76
     1
 77
     6
 78
     2
 67
     7
 79
     5
170
     0
171
     0
290
     0
174
     0
 93
        1
 44
0.0
173
     0
291
     1
 45
0.0
  0
VISUALSTYLE
  5
38
102
{ACAD_REACTORS
330
2A
102
}
102
{ACAD_XDICTIONARY
360
B1
102
}
330
2A
100
AcDbVisualStyle
  2
Linepattern
 70
    14
 71
     2
 72
     2
 73
     0
 90
        0
 40
0.6
 41
30.0
 62
     5
 63
     7
421
 16777215
 74
     1
 91
        4
 64
     7
 65
   257
 75
     7
175
     7
 42
1.0
 92
        8
 66
     7
 43
1.0
 76
     1
 77
     6
 78
     2
 67
     7
 79
     5
170
     0
171
     0
290
     0
174
     0
 93
        1
 44
0.0
173
     0
291
     1
 45
0.0
  0
VISUALSTYLE
  5
3C
102
{ACAD_REACTORS
330
2A
102
}
102
{ACAD_XDICTIONARY
360
B9
102
}
330
2A
100
AcDbVisualStyle
  2
OverhangOff
 70
    21
 71
     2
 72
     2
 73
     0
 90
        0
 40
0.6
 41
30.0
 62
     5
 63
     7
421
 16777215
 74
     1
 91
        4
 64
     7
 65
   257
 75
     1
175
     1
 42
1.0
 92
        9
 66
     7
 43
1.0
 76
     1
 77
     6
 78
     2
 67
     7
 79
     5
170
     0
171
     0
290
     0
174
     0
 93
        1
 44
0.0
173
     0
291
     1
 45
0.0
  0
VISUALSTYLE
  5
33
102
{ACAD_REACTORS
330
2A
102
}
102
{ACAD_XDICTIONARY
360
A7
102
}
330
2A
100
AcDbVisualStyle
  2
Realistic
 70
     8
 71
     2
 72
     3
 73
     0
 90
        2
 40
0.6
 41
30.0
 62
     5
 63
     7
421
 16777215
 74
     0
 91
        0
 64
     7
 65
   257
 75
     1
175
     1
 42
1.0
 92
        8
 66
   257
 43
1.0
 76
     1
 77
     6
 78
     2
 67
     7
 79
     3
170
     0
171
     0
290
     0
174
     0
 93
       13
 44
0.0
173
     0
291
     0
 45
0.0
  0
VISUALSTYLE
  5
42
102
{ACAD_REACTORS
330
2A
102
}
102
{ACAD_XDICTIONARY
360
C5
102
}
330
2A
100
AcDbVisualStyle
  2
Shaded
 70
    27
 71
     2
 72
     2
 73
     1
 90
        2
 40
0.6
 41
30.0
 62
     5
 63
     7
421
 16777215
 74
     0
 91
        4
 64
     7
 65
   257
 75
     1
175
     1
 42
1.0
 92
        8
 66
   257
 43
1.0
 76
     1
 77
     6
 78
     2
 67
     8
425
  7895160
 79
     3
170
     0
171
     0
290
     0
174
     0
 93
        5
 44
0.0
173
     0
291
     0
 45
0.0
  0
VISUALSTYLE
  5
41
102
{ACAD_REACTORS
330
2A
102
}
102
{ACAD_XDICTIONARY
360
C3
102
}
330
2A
100
AcDbVisualStyle
  2
Shaded with edges
 70
    26
 71
     2
 72
     2
 73
     1
 90
        2
 40
0.6
 41
30.0
 62
     5
 63
     7
421
 16777215
 74
     1
 91
       10
 64
     7
 65
   257
 75
     2
175
     1
 42
1.0
 92
        8
 66
   257
 43
1.0
 76
     1
 77
     6
 78
     2
 67
     7
 79
     3
170
     0
171
     0
290
     0
174
     0
 93
        5
 44
0.0
173
     0
291
     0
 45
0.0
  0
VISUALSTYLE
  5
3E
102
{ACAD_REACTORS
330
2A
102
}
102
{ACAD_XDICTIONARY
360
BD
102
}
330
2A
100
AcDbVisualStyle
  2
Shades of Gray
 70
    23
 71
     2
 72
     2
 73
     3
 90
        0
 40
0.6
 41
30.0
 62
     5
 63
     7
421
 16777215
 74
     2
 91
        2
 64
     7
 65
     7
 75
     1
175
     1
 42
40.0
 92
        8
 66
     7
 43
1.0
 76
     1
 77
     6
 78
     2
 67
     7
 79
     3
170
     0
171
     0
290
     0
174
     0
 93
        1
 44
0.0
173
     0
291
     0
 45
0.0
  0
VISUALSTYLE
  5
3F
102
{ACAD_REACTORS
330
2A
102
}
102
{ACAD_XDICTIONARY
360
BF
102
}
330
2A
100
AcDbVisualStyle
  2
Sketchy
 70
    24
 71
     1
 72
     2
 73
     2
 90
        0
 40
0.6
 41
30.0
 62
     5
 63
     7
421
 16777215
 74
     2
 91
        2
 64
     7
 65
     7
 75
     1
175
     1
 42
40.0
 92
       11
 66
     7
 43
1.0
 76
     1
 77
     6
 78
     2
 67
     7
 79
     6
170
     0
171
     0
290
     0
174
     0
 93
        1
 44
0.0
173
     0
291
     0
 45
0.0
  0
VISUALSTYLE
  5
37
102
{ACAD_REACTORS
330
2A
102
}
102
{ACAD_XDICTIONARY
360
AF
102
}
330
2A
100
AcDbVisualStyle
  2
Thicken
 70
    13
 71
     2
 72
     2
 73
     0
 90
        0
 40
0.6
 41
30.0
 62
     5
 63
     7
421
 16777215
 74
     1
 91
        4
 64
     7
 65
   257
 75
     1
175
     1
 42
1.0
 92
       12
 66
     7
 43
1.0
 76
     1
 77
     6
 78
     2
 67
     7
 79
     5
170
     0
171
     0
290
     0
174
     0
 93
        1
 44
0.0
173
     0
291
     1
 45
0.0
  0
VISUALSTYLE
  5
30
102
{ACAD_REACTORS
330
2A
102
}
102
{ACAD_XDICTIONARY
360
A1
102
}
330
2A
100
AcDbVisualStyle
  2
Wireframe
 70
     5
 71
     0
 72
     2
 73
     0
 90
        0
 40
0.6
 41
30.0
 62
     5
 63
     7
421
 16777215
 74
     1
 91
        4
 64
     7
 65
   257
 75
     1
175
     1
 42
1.0
 92
        0
 66
   257
 43
1.0
 76
     1
 77
     6
 78
     2
 67
     7
 79
     3
170
     0
171
     0
290
     0
174
     0
 93
        1
 44
0.0
173
     0
291
     0
 45
0.0
  0
VISUALSTYLE
  5
40
102
{ACAD_REACTORS
330
2A
102
}
102
{ACAD_XDICTIONARY
360
C1
102
}
330
2A
100
AcDbVisualStyle
  2
X-Ray
 70
    25
 71
     2
 72
     2
 73
     1
 90
        1
 40
0.5
 41
30.0
 62
     5
 63
     7
421
 16777215
 74
     1
 91
        0
 64
     7
 65
   257
 75
     1
175
     1
 42
1.0
 92
        8
 66
     7
 43
1.0
 76
     1
 77
     6
 78
     2
 67
     7
 79
     3
170
     0
171
     0
290
     0
174
     0
 93
       13
 44
0.0
173
     0
291
     0
 45
0.0
  0
DICTIONARYVAR
  5
96
102
{ACAD_REACTORS
330
95
102
}
330
95
100
DictionaryVariables
280
     0
  1
1:1
  0
DICTIONARY
  5
9F
330
2F
100
AcDbDictionary
280
     1
281
     1
  3
ACAD_XREC_ROUNDTRIP
360
A0
  0
DICTIONARY
  5
A5
330
32
100
AcDbDictionary
280
     1
281
     1
  3
ACAD_XREC_ROUNDTRIP
360
A6
  0
DICTIONARY
  5
AD
330
36
100
AcDbDictionary
280
     1
281
     1
  3
ACAD_XREC_ROUNDTRIP
360
AE
  0
DICTIONARY
  5
B5
330
3A
100
AcDbDictionary
280
     1
281
     1
  3
ACAD_XREC_ROUNDTRIP
360
B6
  0
DICTIONARY
  5
A9
330
34
100
AcDbDictionary
280
     1
281
     1
  3
ACAD_XREC_ROUNDTRIP
360
AA
  0
DICTIONARY
  5
AB
330
35
100
AcDbDictionary
280
     1
281
     1
  3
ACAD_XREC_ROUNDTRIP
360
AC
  0
DICTIONARY
  5
BB
330
3D
100
AcDbDictionary
280
     1
281
     1
  3
ACAD_XREC_ROUNDTRIP
360
BC
  0
DICTIONARY
  5
B3
330
39
100
AcDbDictionary
280
     1
281
     1
  3
ACAD_XREC_ROUNDTRIP
360
B4
  0
DICTIONARY
  5
97
330
2B
100
AcDbDictionary
280
     1
281
     1
  3
ACAD_XREC_ROUNDTRIP
360
98
  0
DICTIONARY
  5
99
330
2C
100
AcDbDictionary
280
     1
281
     1
  3
ACAD_XREC_ROUNDTRIP
360
9A
  0
DICTIONARY
  5
9B
330
2D
100
AcDbDictionary
280
     1
281
     1
  3
ACAD_XREC_ROUNDTRIP
360
9C
  0
DICTIONARY
  5
9D
330
2E
100
AcDbDictionary
280
     1
281
     1
  3
ACAD_XREC_ROUNDTRIP
360
9E
  0
DICTIONARY
  5
A3
330
31
100
AcDbDictionary
280
     1
281
     1
  3
ACAD_XREC_ROUNDTRIP
360
A4
  0
DICTIONARY
  5
B7
330
3B
100
AcDbDictionary
280
     1
281
     1
  3
ACAD_XREC_ROUNDTRIP
360
B8
  0
DICTIONARY
  5
B1
330
38
100
AcDbDictionary
280
     1
281
     1
  3
ACAD_XREC_ROUNDTRIP
360
B2
  0
DICTIONARY
  5
B9
330
3C
100
AcDbDictionary
280
     1
281
     1
  3
ACAD_XREC_ROUNDTRIP
360
BA
  0
DICTIONARY
  5
A7
330
33
100
AcDbDictionary
280
     1
281
     1
  3
ACAD_XREC_ROUNDTRIP
360
A8
  0
DICTIONARY
  5
C5
330
42
100
AcDbDictionary
280
     1
281
     1
  3
ACAD_XREC_ROUNDTRIP
360
C6
  0
DICTIONARY
  5
C3
330
41
100
AcDbDictionary
280
     1
281
     1
  3
ACAD_XREC_ROUNDTRIP
360
C4
  0
DICTIONARY
  5
BD
330
3E
100
AcDbDictionary
280
     1
281
     1
  3
ACAD_XREC_ROUNDTRIP
360
BE
  0
DICTIONARY
  5
BF
330
3F
100
AcDbDictionary
280
     1
281
     1
  3
ACAD_XREC_ROUNDTRIP
360
C0
  0
DICTIONARY
  5
AF
330
37
100
AcDbDictionary
280
     1
281
     1
  3
ACAD_XREC_ROUNDTRIP
360
B0
  0
DICTIONARY
  5
A1
330
30
100
AcDbDictionary
280
     1
281
     1
  3
ACAD_XREC_ROUNDTRIP
360
A2
  0
DICTIONARY
  5
C1
330
40
100
AcDbDictionary
280
     1
281
     1
  3
ACAD_XREC_ROUNDTRIP
360
C2
  0
XRECORD
  5
A0
102
{ACAD_REACTORS
330
9F
102
}
330
9F
100
AcDbXrecord
280
     1
102
RTVSPropertyOp0
 70
     1
102
RTVSPropertyOp1
 70
     1
102
RTVSPropertyOp2
 70
     1
102
RTVSPropertyOp3
 70
     1
102
RTVSPropertyOp4
 70
     1
102
RTVSPropertyOp5
 70
     1
102
RTVSPropertyOp6
 70
     1
102
RTVSPropertyOp7
 70
     1
102
RTVSPropertyOp8
 70
     1
102
RTVSPropertyOp9
 70
     1
102
RTVSPropertyOp10
 70
     1
102
RTVSPropertyOp11
 70
     1
102
RTVSPropertyOp12
 70
     1
102
RTVSPropertyOp13
 70
     1
102
RTVSPropertyOp14
 70
     1
102
RTVSPropertyOp15
 70
     1
102
RTVSPropertyOp16
 70
     1
102
RTVSPropertyOp17
 70
     1
102
RTVSPropertyOp18
 70
     1
102
RTVSPropertyOp19
 70
     1
102
RTVSPropertyOp20
 70
     1
102
RTVSPropertyOp21
 70
     1
102
RTVSPropertyOp22
 70
     1
102
RTVSPropertyOp23
 70
     1
102
RTVSPropertyOp24
 70
     1
102
RTVSPropertyOp25
 70
     1
102
RTVSPropertyOp26
 70
     1
102
RTVSPropertyOp27
 70
     1
102
RTVSPropertyOp28
 70
     1
102
RTVSPropertyOp29
 70
     1
102
RTVSPropertyOp30
 70
     1
102
RTVSPropertyOp31
 70
     1
102
RTVSPropertyOp32
 70
     1
102
RTVSPropertyOp33
 70
     1
102
RTVSPropertyOp34
 70
     1
102
RTVSPropertyOp35
 70
     1
102
RTVSPropertyOp36
 70
     1
102
RTVSPropertyOp37
 70
     1
102
RTVSPropertyOp38
 70
     1
102
RTVSPropertyOp39
 70
     1
102
RTVSPropertyOp40
 70
     1
102
RTVSPropertyOp41
 70
     1
102
RTVSPropertyOp42
 70
     1
102
RTVSPropertyOp43
 70
     1
102
RTVSPropertyOp44
 70
     1
102
RTVSPropertyOp45
 70
     1
102
RTVSPropertyOp46
 70
     1
102
RTVSPropertyOp47
 70
     1
102
RTVSPropertyOp48
 70
     1
102
RTVSPropertyOp49
 70
     1
102
RTVSPropertyOp50
 70
     1
102
RTVSPropertyOp51
 70
     0
102
RTVSPropertyOp52
 70
     0
102
RTVSPropertyOp53
 70
     1
102
RTVSPropertyOp54
 70
     1
102
RTVSPropertyOp55
 70
     1
102
RTVSPropertyOp56
 70
     1
102
RTVSPropertyOp57
 70
     1
102
RTVSPost2010Prop28
280
     1
102
RTVSPost2010PropOp28
 70
     1
102
RTVSPost2010Prop29
280
     1
102
RTVSPost2010PropOp29
 70
     1
102
RTVSPost2010Prop30
280
     0
102
RTVSPost2010PropOp30
 70
     1
102
RTVSPost2010Prop31
280
     0
102
RTVSPost2010PropOp31
 70
     1
102
RTVSPost2010Prop32
280
     0
102
RTVSPost2010PropOp32
 70
     1
102
RTVSPost2010Prop33
280
     0
102
RTVSPost2010PropOp33
 70
     1
102
RTVSPost2010Prop34
280
     0
102
RTVSPost2010PropOp34
 70
     1
102
RTVSPost2010Prop35
280
     0
102
RTVSPost2010PropOp35
 70
     1
102
RTVSPost2010Prop36
280
     0
102
RTVSPost2010PropOp36
 70
     1
102
RTVSPost2010Prop37
 90
       50
102
RTVSPost2010PropOp37
 70
     1
102
RTVSPost2010Prop38
140
0.0
102
RTVSPost2010PropOp38
 70
     1
102
RTVSPost2010Prop39
140
1.0
102
RTVSPost2010PropOp39
 70
     1
102
RTVSPost2010Prop40
 90
        0
102
RTVSPost2010PropOp40
 70
     1
102
RTVSPost2010Prop41ColorIndex
 90
       18
102
RTVSPost2010Prop41ColorRGB
 90
        0
102
RTVSPost2010PropOp41
 70
     1
102
RTVSPost2010Prop42
 90
       50
102
RTVSPost2010PropOp42
 70
     1
102
RTVSPost2010Prop43
 90
        3
102
RTVSPost2010PropOp43
 70
     1
102
RTVSPost2010Prop44ColorIndex
 90
        5
102
RTVSPost2010Prop44ColorRGB
 90
      255
102
RTVSPost2010PropOp44
 70
     1
102
RTVSPost2010Prop45
280
     0
102
RTVSPost2010PropOp45
 70
     1
102
RTVSPost2010Prop46
 90
       50
102
RTVSPost2010PropOp46
 70
     1
102
RTVSPost2010Prop47
 90
       50
102
RTVSPost2010PropOp47
 70
     1
102
RTVSPost2010Prop48
 90
       50
102
RTVSPost2010PropOp48
 70
     1
102
RTVSPost2010Prop49
280
     0
102
RTVSPost2010PropOp49
 70
     1
102
RTVSPost2010Prop50
 90
       50
102
RTVSPost2010PropOp50
 70
     1
102
RTVSPost2010Prop51ColorIndex
 90
      256
102
RTVSPost2010Prop51ColorRGB
 90
-16777216
102
RTVSPost2010PropOp51
 70
     0
102
RTVSPost2010Prop52
140
1.0
102
RTVSPost2010PropOp52
 70
     0
102
RTVSPost2010Prop53
 90
        2
102
RTVSPost2010PropOp53
 70
     1
102
RTVSPost2010Prop54
  1
strokes_ogs.tif
102
RTVSPost2010PropOp54
 70
     1
102
RTVSPost2010Prop55
280
     0
102
RTVSPost2010PropOp55
 70
     1
102
RTVSPost2010Prop56
140
1.0
102
RTVSPost2010PropOp56
 70
     1
102
RTVSPost2010Prop57
140
1.0
102
RTVSPost2010PropOp57
 70
     1
  0
XRECORD
  5
A6
102
{ACAD_REACTORS
330
A5
102
}
330
A5
100
AcDbXrecord
280
     1
102
RTVSPropertyOp0
 70
     1
102
RTVSPropertyOp1
 70
     1
102
RTVSPropertyOp2
 70
     1
102
RTVSPropertyOp3
 70
     1
102
RTVSPropertyOp4
 70
     1
102
RTVSPropertyOp5
 70
     1
102
RTVSPropertyOp6
 70
     1
102
RTVSPropertyOp7
 70
     1
102
RTVSPropertyOp8
 70
     1
102
RTVSPropertyOp9
 70
     1
102
RTVSPropertyOp10
 70
     1
102
RTVSPropertyOp11
 70
     1
102
RTVSPropertyOp12
 70
     1
102
RTVSPropertyOp13
 70
     1
102
RTVSPropertyOp14
 70
     1
102
RTVSPropertyOp15
 70
     1
102
RTVSPropertyOp16
 70
     1
102
RTVSPropertyOp17
 70
     1
102
RTVSPropertyOp18
 70
     1
102
RTVSPropertyOp19
 70
     1
102
RTVSPropertyOp20
 70
     1
102
RTVSPropertyOp21
 70
     1
102
RTVSPropertyOp22
 70
     1
102
RTVSPropertyOp23
 70
     1
102
RTVSPropertyOp24
 70
     1
102
RTVSPropertyOp25
 70
     1
102
RTVSPropertyOp26
 70
     1
102
RTVSPropertyOp27
 70
     1
102
RTVSPropertyOp28
 70
     1
102
RTVSPropertyOp29
 70
     1
102
RTVSPropertyOp30
 70
     1
102
RTVSPropertyOp31
 70
     1
102
RTVSPropertyOp32
 70
     1
102
RTVSPropertyOp33
 70
     1
102
RTVSPropertyOp34
 70
     1
102
RTVSPropertyOp35
 70
     1
102
RTVSPropertyOp36
 70
     1
102
RTVSPropertyOp37
 70
     1
102
RTVSPropertyOp38
 70
     1
102
RTVSPropertyOp39
 70
     1
102
RTVSPropertyOp40
 70
     1
102
RTVSPropertyOp41
 70
     1
102
RTVSPropertyOp42
 70
     1
102
RTVSPropertyOp43
 70
     1
102
RTVSPropertyOp44
 70
     1
102
RTVSPropertyOp45
 70
     1
102
RTVSPropertyOp46
 70
     1
102
RTVSPropertyOp47
 70
     1
102
RTVSPropertyOp48
 70
     1
102
RTVSPropertyOp49
 70
     1
102
RTVSPropertyOp50
 70
     1
102
RTVSPropertyOp51
 70
     0
102
RTVSPropertyOp52
 70
     0
102
RTVSPropertyOp53
 70
     1
102
RTVSPropertyOp54
 70
     1
102
RTVSPropertyOp55
 70
     1
102
RTVSPropertyOp56
 70
     1
102
RTVSPropertyOp57
 70
     1
102
RTVSPost2010Prop28
280
     0
102
RTVSPost2010PropOp28
 70
     1
102
RTVSPost2010Prop29
280
     1
102
RTVSPost2010PropOp29
 70
     1
102
RTVSPost2010Prop30
280
     1
102
RTVSPost2010PropOp30
 70
     1
102
RTVSPost2010Prop31
280
     0
102
RTVSPost2010PropOp31
 70
     1
102
RTVSPost2010Prop32
280
     0
102
RTVSPost2010PropOp32
 70
     1
102
RTVSPost2010Prop33
280
     0
102
RTVSPost2010PropOp33
 70
     1
102
RTVSPost2010Prop34
280
     0
102
RTVSPost2010PropOp34
 70
     1
102
RTVSPost2010Prop35
280
     0
102
RTVSPost2010PropOp35
 70
     1
102
RTVSPost2010Prop36
280
     0
102
RTVSPost2010PropOp36
 70
     1
102
RTVSPost2010Prop37
 90
       50
102
RTVSPost2010PropOp37
 70
     1
102
RTVSPost2010Prop38
140
0.0
102
RTVSPost2010PropOp38
 70
     1
102
RTVSPost2010Prop39
140
1.0
102
RTVSPost2010PropOp39
 70
     1
102
RTVSPost2010Prop40
 90
        0
102
RTVSPost2010PropOp40
 70
     1
102
RTVSPost2010Prop41ColorIndex
 90
       18
102
RTVSPost2010Prop41ColorRGB
 90
        0
102
RTVSPost2010PropOp41
 70
     1
102
RTVSPost2010Prop42
 90
       50
102
RTVSPost2010PropOp42
 70
     1
102
RTVSPost2010Prop43
 90
        3
102
RTVSPost2010PropOp43
 70
     1
102
RTVSPost2010Prop44ColorIndex
 90
        5
102
RTVSPost2010Prop44ColorRGB
 90
      255
102
RTVSPost2010PropOp44
 70
     1
102
RTVSPost2010Prop45
280
     0
102
RTVSPost2010PropOp45
 70
     1
102
RTVSPost2010Prop46
 90
       50
102
RTVSPost2010PropOp46
 70
     1
102
RTVSPost2010Prop47
 90
       50
102
RTVSPost2010PropOp47
 70
     1
102
RTVSPost2010Prop48
 90
       50
102
RTVSPost2010PropOp48
 70
     1
102
RTVSPost2010Prop49
280
     0
102
RTVSPost2010PropOp49
 70
     1
102
RTVSPost2010Prop50
 90
       50
102
RTVSPost2010PropOp50
 70
     1
102
RTVSPost2010Prop51ColorIndex
 90
      256
102
RTVSPost2010Prop51ColorRGB
 90
-16777216
102
RTVSPost2010PropOp51
 70
     0
102
RTVSPost2010Prop52
140
1.0
102
RTVSPost2010PropOp52
 70
     0
102
RTVSPost2010Prop53
 90
        2
102
RTVSPost2010PropOp53
 70
     1
102
RTVSPost2010Prop54
  1
strokes_ogs.tif
102
RTVSPost2010PropOp54
 70
     1
102
RTVSPost2010Prop55
280
     0
102
RTVSPost2010PropOp55
 70
     1
102
RTVSPost2010Prop56
140
1.0
102
RTVSPost2010PropOp56
 70
     1
102
RTVSPost2010Prop57
140
1.0
102
RTVSPost2010PropOp57
 70
     1
  0
XRECORD
  5
AE
102
{ACAD_REACTORS
330
AD
102
}
330
AD
100
AcDbXrecord
280
     1
102
RTVSPropertyOp0
 70
     1
102
RTVSPropertyOp1
 70
     1
102
RTVSPropertyOp2
 70
     1
102
RTVSPropertyOp3
 70
     1
102
RTVSPropertyOp4
 70
     1
102
RTVSPropertyOp5
 70
     1
102
RTVSPropertyOp6
 70
     1
102
RTVSPropertyOp7
 70
     1
102
RTVSPropertyOp8
 70
     1
102
RTVSPropertyOp9
 70
     1
102
RTVSPropertyOp10
 70
     1
102
RTVSPropertyOp11
 70
     1
102
RTVSPropertyOp12
 70
     1
102
RTVSPropertyOp13
 70
     1
102
RTVSPropertyOp14
 70
     1
102
RTVSPropertyOp15
 70
     1
102
RTVSPropertyOp16
 70
     1
102
RTVSPropertyOp17
 70
     1
102
RTVSPropertyOp18
 70
     1
102
RTVSPropertyOp19
 70
     1
102
RTVSPropertyOp20
 70
     1
102
RTVSPropertyOp21
 70
     1
102
RTVSPropertyOp22
 70
     1
102
RTVSPropertyOp23
 70
     1
102
RTVSPropertyOp24
 70
     1
102
RTVSPropertyOp25
 70
     1
102
RTVSPropertyOp26
 70
     1
102
RTVSPropertyOp27
 70
     1
102
RTVSPropertyOp28
 70
     1
102
RTVSPropertyOp29
 70
     1
102
RTVSPropertyOp30
 70
     1
102
RTVSPropertyOp31
 70
     1
102
RTVSPropertyOp32
 70
     1
102
RTVSPropertyOp33
 70
     1
102
RTVSPropertyOp34
 70
     1
102
RTVSPropertyOp35
 70
     1
102
RTVSPropertyOp36
 70
     1
102
RTVSPropertyOp37
 70
     1
102
RTVSPropertyOp38
 70
     1
102
RTVSPropertyOp39
 70
     1
102
RTVSPropertyOp40
 70
     1
102
RTVSPropertyOp41
 70
     1
102
RTVSPropertyOp42
 70
     1
102
RTVSPropertyOp43
 70
     1
102
RTVSPropertyOp44
 70
     1
102
RTVSPropertyOp45
 70
     1
102
RTVSPropertyOp46
 70
     1
102
RTVSPropertyOp47
 70
     1
102
RTVSPropertyOp48
 70
     1
102
RTVSPropertyOp49
 70
     1
102
RTVSPropertyOp50
 70
     1
102
RTVSPropertyOp51
 70
     0
102
RTVSPropertyOp52
 70
     0
102
RTVSPropertyOp53
 70
     1
102
RTVSPropertyOp54
 70
     1
102
RTVSPropertyOp55
 70
     1
102
RTVSPropertyOp56
 70
     1
102
RTVSPropertyOp57
 70
     1
102
RTVSPost2010Prop28
280
     0
102
RTVSPost2010PropOp28
 70
     1
102
RTVSPost2010Prop29
280
     1
102
RTVSPost2010PropOp29
 70
     1
102
RTVSPost2010Prop30
280
     1
102
RTVSPost2010PropOp30
 70
     1
102
RTVSPost2010Prop31
280
     0
102
RTVSPost2010PropOp31
 70
     1
102
RTVSPost2010Prop32
280
     0
102
RTVSPost2010PropOp32
 70
     1
102
RTVSPost2010Prop33
280
     0
102
RTVSPost2010PropOp33
 70
     1
102
RTVSPost2010Prop34
280
     0
102
RTVSPost2010PropOp34
 70
     1
102
RTVSPost2010Prop35
280
     0
102
RTVSPost2010PropOp35
 70
     1
102
RTVSPost2010Prop36
280
     0
102
RTVSPost2010PropOp36
 70
     1
102
RTVSPost2010Prop37
 90
       50
102
RTVSPost2010PropOp37
 70
     1
102
RTVSPost2010Prop38
140
0.0
102
RTVSPost2010PropOp38
 70
     1
102
RTVSPost2010Prop39
140
1.0
102
RTVSPost2010PropOp39
 70
     1
102
RTVSPost2010Prop40
 90
        0
102
RTVSPost2010PropOp40
 70
     1
102
RTVSPost2010Prop41ColorIndex
 90
       18
102
RTVSPost2010Prop41ColorRGB
 90
        0
102
RTVSPost2010PropOp41
 70
     1
102
RTVSPost2010Prop42
 90
       50
102
RTVSPost2010PropOp42
 70
     1
102
RTVSPost2010Prop43
 90
        3
102
RTVSPost2010PropOp43
 70
     1
102
RTVSPost2010Prop44ColorIndex
 90
        5
102
RTVSPost2010Prop44ColorRGB
 90
      255
102
RTVSPost2010PropOp44
 70
     1
102
RTVSPost2010Prop45
280
     0
102
RTVSPost2010PropOp45
 70
     1
102
RTVSPost2010Prop46
 90
       50
102
RTVSPost2010PropOp46
 70
     1
102
RTVSPost2010Prop47
 90
       50
102
RTVSPost2010PropOp47
 70
     1
102
RTVSPost2010Prop48
 90
       50
102
RTVSPost2010PropOp48
 70
     1
102
RTVSPost2010Prop49
280
     0
102
RTVSPost2010PropOp49
 70
     1
102
RTVSPost2010Prop50
 90
       50
102
RTVSPost2010PropOp50
 70
     1
102
RTVSPost2010Prop51ColorIndex
 90
      256
102
RTVSPost2010Prop51ColorRGB
 90
-16777216
102
RTVSPost2010PropOp51
 70
     0
102
RTVSPost2010Prop52
140
1.0
102
RTVSPost2010PropOp52
 70
     0
102
RTVSPost2010Prop53
 90
        2
102
RTVSPost2010PropOp53
 70
     1
102
RTVSPost2010Prop54
  1
strokes_ogs.tif
102
RTVSPost2010PropOp54
 70
     1
102
RTVSPost2010Prop55
280
     0
102
RTVSPost2010PropOp55
 70
     1
102
RTVSPost2010Prop56
140
1.0
102
RTVSPost2010PropOp56
 70
     1
102
RTVSPost2010Prop57
140
1.0
102
RTVSPost2010PropOp57
 70
     1
  0
XRECORD
  5
B6
102
{ACAD_REACTORS
330
B5
102
}
330
B5
100
AcDbXrecord
280
     1
102
RTVSPropertyOp0
 70
     1
102
RTVSPropertyOp1
 70
     1
102
RTVSPropertyOp2
 70
     1
102
RTVSPropertyOp3
 70
     1
102
RTVSPropertyOp4
 70
     1
102
RTVSPropertyOp5
 70
     1
102
RTVSPropertyOp6
 70
     1
102
RTVSPropertyOp7
 70
     1
102
RTVSPropertyOp8
 70
     1
102
RTVSPropertyOp9
 70
     1
102
RTVSPropertyOp10
 70
     1
102
RTVSPropertyOp11
 70
     1
102
RTVSPropertyOp12
 70
     1
102
RTVSPropertyOp13
 70
     1
102
RTVSPropertyOp14
 70
     1
102
RTVSPropertyOp15
 70
     1
102
RTVSPropertyOp16
 70
     1
102
RTVSPropertyOp17
 70
     1
102
RTVSPropertyOp18
 70
     1
102
RTVSPropertyOp19
 70
     1
102
RTVSPropertyOp20
 70
     1
102
RTVSPropertyOp21
 70
     1
102
RTVSPropertyOp22
 70
     1
102
RTVSPropertyOp23
 70
     1
102
RTVSPropertyOp24
 70
     1
102
RTVSPropertyOp25
 70
     1
102
RTVSPropertyOp26
 70
     1
102
RTVSPropertyOp27
 70
     1
102
RTVSPropertyOp28
 70
     1
102
RTVSPropertyOp29
 70
     1
102
RTVSPropertyOp30
 70
     1
102
RTVSPropertyOp31
 70
     1
102
RTVSPropertyOp32
 70
     1
102
RTVSPropertyOp33
 70
     1
102
RTVSPropertyOp34
 70
     1
102
RTVSPropertyOp35
 70
     1
102
RTVSPropertyOp36
 70
     1
102
RTVSPropertyOp37
 70
     1
102
RTVSPropertyOp38
 70
     1
102
RTVSPropertyOp39
 70
     1
102
RTVSPropertyOp40
 70
     1
102
RTVSPropertyOp41
 70
     1
102
RTVSPropertyOp42
 70
     1
102
RTVSPropertyOp43
 70
     1
102
RTVSPropertyOp44
 70
     1
102
RTVSPropertyOp45
 70
     1
102
RTVSPropertyOp46
 70
     1
102
RTVSPropertyOp47
 70
     1
102
RTVSPropertyOp48
 70
     1
102
RTVSPropertyOp49
 70
     1
102
RTVSPropertyOp50
 70
     1
102
RTVSPropertyOp51
 70
     0
102
RTVSPropertyOp52
 70
     0
102
RTVSPropertyOp53
 70
     1
102
RTVSPropertyOp54
 70
     1
102
RTVSPropertyOp55
 70
     1
102
RTVSPropertyOp56
 70
     1
102
RTVSPropertyOp57
 70
     1
102
RTVSPost2010Prop28
280
     0
102
RTVSPost2010PropOp28
 70
     1
102
RTVSPost2010Prop29
280
     1
102
RTVSPost2010PropOp29
 70
     1
102
RTVSPost2010Prop30
280
     1
102
RTVSPost2010PropOp30
 70
     1
102
RTVSPost2010Prop31
280
     0
102
RTVSPost2010PropOp31
 70
     1
102
RTVSPost2010Prop32
280
     0
102
RTVSPost2010PropOp32
 70
     1
102
RTVSPost2010Prop33
280
     0
102
RTVSPost2010PropOp33
 70
     1
102
RTVSPost2010Prop34
280
     0
102
RTVSPost2010PropOp34
 70
     1
102
RTVSPost2010Prop35
280
     0
102
RTVSPost2010PropOp35
 70
     1
102
RTVSPost2010Prop36
280
     0
102
RTVSPost2010PropOp36
 70
     1
102
RTVSPost2010Prop37
 90
       50
102
RTVSPost2010PropOp37
 70
     1
102
RTVSPost2010Prop38
140
0.0
102
RTVSPost2010PropOp38
 70
     1
102
RTVSPost2010Prop39
140
1.0
102
RTVSPost2010PropOp39
 70
     1
102
RTVSPost2010Prop40
 90
        0
102
RTVSPost2010PropOp40
 70
     1
102
RTVSPost2010Prop41ColorIndex
 90
       18
102
RTVSPost2010Prop41ColorRGB
 90
        0
102
RTVSPost2010PropOp41
 70
     1
102
RTVSPost2010Prop42
 90
       50
102
RTVSPost2010PropOp42
 70
     1
102
RTVSPost2010Prop43
 90
        3
102
RTVSPost2010PropOp43
 70
     1
102
RTVSPost2010Prop44ColorIndex
 90
        5
102
RTVSPost2010Prop44ColorRGB
 90
      255
102
RTVSPost2010PropOp44
 70
     1
102
RTVSPost2010Prop45
280
     0
102
RTVSPost2010PropOp45
 70
     1
102
RTVSPost2010Prop46
 90
       50
102
RTVSPost2010PropOp46
 70
     1
102
RTVSPost2010Prop47
 90
       50
102
RTVSPost2010PropOp47
 70
     1
102
RTVSPost2010Prop48
 90
       50
102
RTVSPost2010PropOp48
 70
     1
102
RTVSPost2010Prop49
280
     0
102
RTVSPost2010PropOp49
 70
     1
102
RTVSPost2010Prop50
 90
       50
102
RTVSPost2010PropOp50
 70
     1
102
RTVSPost2010Prop51ColorIndex
 90
      256
102
RTVSPost2010Prop51ColorRGB
 90
-16777216
102
RTVSPost2010PropOp51
 70
     0
102
RTVSPost2010Prop52
140
1.0
102
RTVSPost2010PropOp52
 70
     0
102
RTVSPost2010Prop53
 90
        2
102
RTVSPost2010PropOp53
 70
     1
102
RTVSPost2010Prop54
  1
strokes_ogs.tif
102
RTVSPost2010PropOp54
 70
     1
102
RTVSPost2010Prop55
280
     0
102
RTVSPost2010PropOp55
 70
     1
102
RTVSPost2010Prop56
140
1.0
102
RTVSPost2010PropOp56
 70
     1
102
RTVSPost2010Prop57
140
1.0
102
RTVSPost2010PropOp57
 70
     1
  0
XRECORD
  5
AA
102
{ACAD_REACTORS
330
A9
102
}
330
A9
100
AcDbXrecord
280
     1
102
RTVSPropertyOp0
 70
     1
102
RTVSPropertyOp1
 70
     1
102
RTVSPropertyOp2
 70
     1
102
RTVSPropertyOp3
 70
     1
102
RTVSPropertyOp4
 70
     1
102
RTVSPropertyOp5
 70
     1
102
RTVSPropertyOp6
 70
     1
102
RTVSPropertyOp7
 70
     1
102
RTVSPropertyOp8
 70
     1
102
RTVSPropertyOp9
 70
     1
102
RTVSPropertyOp10
 70
     1
102
RTVSPropertyOp11
 70
     1
102
RTVSPropertyOp12
 70
     1
102
RTVSPropertyOp13
 70
     1
102
RTVSPropertyOp14
 70
     1
102
RTVSPropertyOp15
 70
     1
102
RTVSPropertyOp16
 70
     1
102
RTVSPropertyOp17
 70
     1
102
RTVSPropertyOp18
 70
     1
102
RTVSPropertyOp19
 70
     1
102
RTVSPropertyOp20
 70
     1
102
RTVSPropertyOp21
 70
     1
102
RTVSPropertyOp22
 70
     1
102
RTVSPropertyOp23
 70
     1
102
RTVSPropertyOp24
 70
     1
102
RTVSPropertyOp25
 70
     1
102
RTVSPropertyOp26
 70
     1
102
RTVSPropertyOp27
 70
     1
102
RTVSPropertyOp28
 70
     1
102
RTVSPropertyOp29
 70
     1
102
RTVSPropertyOp30
 70
     1
102
RTVSPropertyOp31
 70
     1
102
RTVSPropertyOp32
 70
     1
102
RTVSPropertyOp33
 70
     1
102
RTVSPropertyOp34
 70
     1
102
RTVSPropertyOp35
 70
     1
102
RTVSPropertyOp36
 70
     1
102
RTVSPropertyOp37
 70
     1
102
RTVSPropertyOp38
 70
     1
102
RTVSPropertyOp39
 70
     1
102
RTVSPropertyOp40
 70
     1
102
RTVSPropertyOp41
 70
     1
102
RTVSPropertyOp42
 70
     1
102
RTVSPropertyOp43
 70
     1
102
RTVSPropertyOp44
 70
     1
102
RTVSPropertyOp45
 70
     1
102
RTVSPropertyOp46
 70
     1
102
RTVSPropertyOp47
 70
     1
102
RTVSPropertyOp48
 70
     1
102
RTVSPropertyOp49
 70
     1
102
RTVSPropertyOp50
 70
     1
102
RTVSPropertyOp51
 70
     0
102
RTVSPropertyOp52
 70
     0
102
RTVSPropertyOp53
 70
     1
102
RTVSPropertyOp54
 70
     1
102
RTVSPropertyOp55
 70
     1
102
RTVSPropertyOp56
 70
     1
102
RTVSPropertyOp57
 70
     1
102
RTVSPost2010Prop28
280
     0
102
RTVSPost2010PropOp28
 70
     1
102
RTVSPost2010Prop29
280
     1
102
RTVSPost2010PropOp29
 70
     1
102
RTVSPost2010Prop30
280
     1
102
RTVSPost2010PropOp30
 70
     1
102
RTVSPost2010Prop31
280
     0
102
RTVSPost2010PropOp31
 70
     1
102
RTVSPost2010Prop32
280
     0
102
RTVSPost2010PropOp32
 70
     1
102
RTVSPost2010Prop33
280
     0
102
RTVSPost2010PropOp33
 70
     1
102
RTVSPost2010Prop34
280
     0
102
RTVSPost2010PropOp34
 70
     1
102
RTVSPost2010Prop35
280
     0
102
RTVSPost2010PropOp35
 70
     1
102
RTVSPost2010Prop36
280
     0
102
RTVSPost2010PropOp36
 70
     1
102
RTVSPost2010Prop37
 90
       50
102
RTVSPost2010PropOp37
 70
     1
102
RTVSPost2010Prop38
140
0.0
102
RTVSPost2010PropOp38
 70
     1
102
RTVSPost2010Prop39
140
1.0
102
RTVSPost2010PropOp39
 70
     1
102
RTVSPost2010Prop40
 90
        0
102
RTVSPost2010PropOp40
 70
     1
102
RTVSPost2010Prop41ColorIndex
 90
       18
102
RTVSPost2010Prop41ColorRGB
 90
        0
102
RTVSPost2010PropOp41
 70
     1
102
RTVSPost2010Prop42
 90
       50
102
RTVSPost2010PropOp42
 70
     1
102
RTVSPost2010Prop43
 90
        3
102
RTVSPost2010PropOp43
 70
     1
102
RTVSPost2010Prop44ColorIndex
 90
        5
102
RTVSPost2010Prop44ColorRGB
 90
      255
102
RTVSPost2010PropOp44
 70
     1
102
RTVSPost2010Prop45
280
     0
102
RTVSPost2010PropOp45
 70
     1
102
RTVSPost2010Prop46
 90
       50
102
RTVSPost2010PropOp46
 70
     1
102
RTVSPost2010Prop47
 90
       50
102
RTVSPost2010PropOp47
 70
     1
102
RTVSPost2010Prop48
 90
       50
102
RTVSPost2010PropOp48
 70
     1
102
RTVSPost2010Prop49
280
     0
102
RTVSPost2010PropOp49
 70
     1
102
RTVSPost2010Prop50
 90
       50
102
RTVSPost2010PropOp50
 70
     1
102
RTVSPost2010Prop51ColorIndex
 90
      256
102
RTVSPost2010Prop51ColorRGB
 90
-16777216
102
RTVSPost2010PropOp51
 70
     0
102
RTVSPost2010Prop52
140
1.0
102
RTVSPost2010PropOp52
 70
     0
102
RTVSPost2010Prop53
 90
        2
102
RTVSPost2010PropOp53
 70
     1
102
RTVSPost2010Prop54
  1
strokes_ogs.tif
102
RTVSPost2010PropOp54
 70
     1
102
RTVSPost2010Prop55
280
     0
102
RTVSPost2010PropOp55
 70
     1
102
RTVSPost2010Prop56
140
1.0
102
RTVSPost2010PropOp56
 70
     1
102
RTVSPost2010Prop57
140
1.0
102
RTVSPost2010PropOp57
 70
     1
  0
XRECORD
  5
AC
102
{ACAD_REACTORS
330
AB
102
}
330
AB
100
AcDbXrecord
280
     1
102
RTVSPropertyOp0
 70
     1
102
RTVSPropertyOp1
 70
     1
102
RTVSPropertyOp2
 70
     1
102
RTVSPropertyOp3
 70
     1
102
RTVSPropertyOp4
 70
     1
102
RTVSPropertyOp5
 70
     1
102
RTVSPropertyOp6
 70
     1
102
RTVSPropertyOp7
 70
     1
102
RTVSPropertyOp8
 70
     1
102
RTVSPropertyOp9
 70
     1
102
RTVSPropertyOp10
 70
     1
102
RTVSPropertyOp11
 70
     1
102
RTVSPropertyOp12
 70
     1
102
RTVSPropertyOp13
 70
     1
102
RTVSPropertyOp14
 70
     1
102
RTVSPropertyOp15
 70
     1
102
RTVSPropertyOp16
 70
     1
102
RTVSPropertyOp17
 70
     1
102
RTVSPropertyOp18
 70
     1
102
RTVSPropertyOp19
 70
     1
102
RTVSPropertyOp20
 70
     1
102
RTVSPropertyOp21
 70
     1
102
RTVSPropertyOp22
 70
     1
102
RTVSPropertyOp23
 70
     1
102
RTVSPropertyOp24
 70
     1
102
RTVSPropertyOp25
 70
     1
102
RTVSPropertyOp26
 70
     1
102
RTVSPropertyOp27
 70
     1
102
RTVSPropertyOp28
 70
     1
102
RTVSPropertyOp29
 70
     1
102
RTVSPropertyOp30
 70
     1
102
RTVSPropertyOp31
 70
     1
102
RTVSPropertyOp32
 70
     1
102
RTVSPropertyOp33
 70
     1
102
RTVSPropertyOp34
 70
     1
102
RTVSPropertyOp35
 70
     1
102
RTVSPropertyOp36
 70
     1
102
RTVSPropertyOp37
 70
     1
102
RTVSPropertyOp38
 70
     1
102
RTVSPropertyOp39
 70
     1
102
RTVSPropertyOp40
 70
     1
102
RTVSPropertyOp41
 70
     1
102
RTVSPropertyOp42
 70
     1
102
RTVSPropertyOp43
 70
     1
102
RTVSPropertyOp44
 70
     1
102
RTVSPropertyOp45
 70
     1
102
RTVSPropertyOp46
 70
     1
102
RTVSPropertyOp47
 70
     1
102
RTVSPropertyOp48
 70
     1
102
RTVSPropertyOp49
 70
     1
102
RTVSPropertyOp50
 70
     1
102
RTVSPropertyOp51
 70
     0
102
RTVSPropertyOp52
 70
     0
102
RTVSPropertyOp53
 70
     1
102
RTVSPropertyOp54
 70
     1
102
RTVSPropertyOp55
 70
     1
102
RTVSPropertyOp56
 70
     1
102
RTVSPropertyOp57
 70
     1
102
RTVSPost2010Prop28
280
     0
102
RTVSPost2010PropOp28
 70
     1
102
RTVSPost2010Prop29
280
     1
102
RTVSPost2010PropOp29
 70
     1
102
RTVSPost2010Prop30
280
     1
102
RTVSPost2010PropOp30
 70
     1
102
RTVSPost2010Prop31
280
     0
102
RTVSPost2010PropOp31
 70
     1
102
RTVSPost2010Prop32
280
     0
102
RTVSPost2010PropOp32
 70
     1
102
RTVSPost2010Prop33
280
     0
102
RTVSPost2010PropOp33
 70
     1
102
RTVSPost2010Prop34
280
     0
102
RTVSPost2010PropOp34
 70
     1
102
RTVSPost2010Prop35
280
     0
102
RTVSPost2010PropOp35
 70
     1
102
RTVSPost2010Prop36
280
     0
102
RTVSPost2010PropOp36
 70
     1
102
RTVSPost2010Prop37
 90
       50
102
RTVSPost2010PropOp37
 70
     1
102
RTVSPost2010Prop38
140
0.0
102
RTVSPost2010PropOp38
 70
     1
102
RTVSPost2010Prop39
140
1.0
102
RTVSPost2010PropOp39
 70
     1
102
RTVSPost2010Prop40
 90
        0
102
RTVSPost2010PropOp40
 70
     1
102
RTVSPost2010Prop41ColorIndex
 90
       18
102
RTVSPost2010Prop41ColorRGB
 90
        0
102
RTVSPost2010PropOp41
 70
     1
102
RTVSPost2010Prop42
 90
       50
102
RTVSPost2010PropOp42
 70
     1
102
RTVSPost2010Prop43
 90
        3
102
RTVSPost2010PropOp43
 70
     1
102
RTVSPost2010Prop44ColorIndex
 90
        5
102
RTVSPost2010Prop44ColorRGB
 90
      255
102
RTVSPost2010PropOp44
 70
     1
102
RTVSPost2010Prop45
280
     0
102
RTVSPost2010PropOp45
 70
     1
102
RTVSPost2010Prop46
 90
       50
102
RTVSPost2010PropOp46
 70
     1
102
RTVSPost2010Prop47
 90
       50
102
RTVSPost2010PropOp47
 70
     1
102
RTVSPost2010Prop48
 90
       50
102
RTVSPost2010PropOp48
 70
     1
102
RTVSPost2010Prop49
280
     0
102
RTVSPost2010PropOp49
 70
     1
102
RTVSPost2010Prop50
 90
       50
102
RTVSPost2010PropOp50
 70
     1
102
RTVSPost2010Prop51ColorIndex
 90
      256
102
RTVSPost2010Prop51ColorRGB
 90
-16777216
102
RTVSPost2010PropOp51
 70
     0
102
RTVSPost2010Prop52
140
1.0
102
RTVSPost2010PropOp52
 70
     0
102
RTVSPost2010Prop53
 90
        2
102
RTVSPost2010PropOp53
 70
     1
102
RTVSPost2010Prop54
  1
strokes_ogs.tif
102
RTVSPost2010PropOp54
 70
     1
102
RTVSPost2010Prop55
280
     0
102
RTVSPost2010PropOp55
 70
     1
102
RTVSPost2010Prop56
140
1.0
102
RTVSPost2010PropOp56
 70
     1
102
RTVSPost2010Prop57
140
1.0
102
RTVSPost2010PropOp57
 70
     1
  0
XRECORD
  5
BC
102
{ACAD_REACTORS
330
BB
102
}
330
BB
100
AcDbXrecord
280
     1
102
RTVSPropertyOp0
 70
     0
102
RTVSPropertyOp1
 70
     0
102
RTVSPropertyOp2
 70
     0
102
RTVSPropertyOp3
 70
     0
102
RTVSPropertyOp4
 70
     0
102
RTVSPropertyOp5
 70
     0
102
RTVSPropertyOp6
 70
     0
102
RTVSPropertyOp7
 70
     0
102
RTVSPropertyOp8
 70
     0
102
RTVSPropertyOp9
 70
     0
102
RTVSPropertyOp10
 70
     0
102
RTVSPropertyOp11
 70
     0
102
RTVSPropertyOp12
 70
     0
102
RTVSPropertyOp13
 70
     0
102
RTVSPropertyOp14
 70
     2
102
RTVSPropertyOp15
 70
     0
102
RTVSPropertyOp16
 70
     0
102
RTVSPropertyOp17
 70
     0
102
RTVSPropertyOp18
 70
     0
102
RTVSPropertyOp19
 70
     0
102
RTVSPropertyOp20
 70
     0
102
RTVSPropertyOp21
 70
     0
102
RTVSPropertyOp22
 70
     0
102
RTVSPropertyOp23
 70
     0
102
RTVSPropertyOp24
 70
     0
102
RTVSPropertyOp25
 70
     0
102
RTVSPropertyOp26
 70
     0
102
RTVSPropertyOp27
 70
     0
102
RTVSPropertyOp28
 70
     0
102
RTVSPropertyOp29
 70
     0
102
RTVSPropertyOp30
 70
     0
102
RTVSPropertyOp31
 70
     0
102
RTVSPropertyOp32
 70
     0
102
RTVSPropertyOp33
 70
     0
102
RTVSPropertyOp34
 70
     0
102
RTVSPropertyOp35
 70
     0
102
RTVSPropertyOp36
 70
     0
102
RTVSPropertyOp37
 70
     0
102
RTVSPropertyOp38
 70
     0
102
RTVSPropertyOp39
 70
     0
102
RTVSPropertyOp40
 70
     0
102
RTVSPropertyOp41
 70
     0
102
RTVSPropertyOp42
 70
     0
102
RTVSPropertyOp43
 70
     0
102
RTVSPropertyOp44
 70
     0
102
RTVSPropertyOp45
 70
     0
102
RTVSPropertyOp46
 70
     0
102
RTVSPropertyOp47
 70
     0
102
RTVSPropertyOp48
 70
     0
102
RTVSPropertyOp49
 70
     0
102
RTVSPropertyOp50
 70
     0
102
RTVSPropertyOp51
 70
     0
102
RTVSPropertyOp52
 70
     0
102
RTVSPropertyOp53
 70
     0
102
RTVSPropertyOp54
 70
     0
102
RTVSPropertyOp55
 70
     0
102
RTVSPropertyOp56
 70
     0
102
RTVSPropertyOp57
 70
     0
102
RTVSPost2010Prop28
280
     0
102
RTVSPost2010PropOp28
 70
     0
102
RTVSPost2010Prop29
280
     1
102
RTVSPost2010PropOp29
 70
     0
102
RTVSPost2010Prop30
280
     1
102
RTVSPost2010PropOp30
 70
     0
102
RTVSPost2010Prop31
280
     0
102
RTVSPost2010PropOp31
 70
     0
102
RTVSPost2010Prop32
280
     0
102
RTVSPost2010PropOp32
 70
     0
102
RTVSPost2010Prop33
280
     0
102
RTVSPost2010PropOp33
 70
     0
102
RTVSPost2010Prop34
280
     0
102
RTVSPost2010PropOp34
 70
     0
102
RTVSPost2010Prop35
280
     0
102
RTVSPost2010PropOp35
 70
     0
102
RTVSPost2010Prop36
280
     0
102
RTVSPost2010PropOp36
 70
     0
102
RTVSPost2010Prop37
 90
       50
102
RTVSPost2010PropOp37
 70
     0
102
RTVSPost2010Prop38
140
0.0
102
RTVSPost2010PropOp38
 70
     0
102
RTVSPost2010Prop39
140
1.0
102
RTVSPost2010PropOp39
 70
     0
102
RTVSPost2010Prop40
 90
        0
102
RTVSPost2010PropOp40
 70
     0
102
RTVSPost2010Prop41ColorIndex
 90
       18
102
RTVSPost2010Prop41ColorRGB
 90
        0
102
RTVSPost2010PropOp41
 70
     0
102
RTVSPost2010Prop42
 90
       50
102
RTVSPost2010PropOp42
 70
     0
102
RTVSPost2010Prop43
 90
        3
102
RTVSPost2010PropOp43
 70
     0
102
RTVSPost2010Prop44ColorIndex
 90
        5
102
RTVSPost2010Prop44ColorRGB
 90
      255
102
RTVSPost2010PropOp44
 70
     0
102
RTVSPost2010Prop45
280
     0
102
RTVSPost2010PropOp45
 70
     0
102
RTVSPost2010Prop46
 90
       50
102
RTVSPost2010PropOp46
 70
     0
102
RTVSPost2010Prop47
 90
       50
102
RTVSPost2010PropOp47
 70
     0
102
RTVSPost2010Prop48
 90
       50
102
RTVSPost2010PropOp48
 70
     0
102
RTVSPost2010Prop49
280
     0
102
RTVSPost2010PropOp49
 70
     0
102
RTVSPost2010Prop50
 90
       50
102
RTVSPost2010PropOp50
 70
     0
102
RTVSPost2010Prop51ColorIndex
 90
      256
102
RTVSPost2010Prop51ColorRGB
 90
-16777216
102
RTVSPost2010PropOp51
 70
     0
102
RTVSPost2010Prop52
140
1.0
102
RTVSPost2010PropOp52
 70
     0
102
RTVSPost2010Prop53
 90
        2
102
RTVSPost2010PropOp53
 70
     0
102
RTVSPost2010Prop54
  1
strokes_ogs.tif
102
RTVSPost2010PropOp54
 70
     0
102
RTVSPost2010Prop55
280
     0
102
RTVSPost2010PropOp55
 70
     0
102
RTVSPost2010Prop56
140
1.0
102
RTVSPost2010PropOp56
 70
     0
102
RTVSPost2010Prop57
140
1.0
102
RTVSPost2010PropOp57
 70
     0
  0
XRECORD
  5
B4
102
{ACAD_REACTORS
330
B3
102
}
330
B3
100
AcDbXrecord
280
     1
102
RTVSPropertyOp0
 70
     1
102
RTVSPropertyOp1
 70
     1
102
RTVSPropertyOp2
 70
     1
102
RTVSPropertyOp3
 70
     1
102
RTVSPropertyOp4
 70
     1
102
RTVSPropertyOp5
 70
     1
102
RTVSPropertyOp6
 70
     1
102
RTVSPropertyOp7
 70
     1
102
RTVSPropertyOp8
 70
     1
102
RTVSPropertyOp9
 70
     1
102
RTVSPropertyOp10
 70
     1
102
RTVSPropertyOp11
 70
     1
102
RTVSPropertyOp12
 70
     1
102
RTVSPropertyOp13
 70
     1
102
RTVSPropertyOp14
 70
     1
102
RTVSPropertyOp15
 70
     1
102
RTVSPropertyOp16
 70
     1
102
RTVSPropertyOp17
 70
     1
102
RTVSPropertyOp18
 70
     1
102
RTVSPropertyOp19
 70
     1
102
RTVSPropertyOp20
 70
     1
102
RTVSPropertyOp21
 70
     1
102
RTVSPropertyOp22
 70
     1
102
RTVSPropertyOp23
 70
     1
102
RTVSPropertyOp24
 70
     1
102
RTVSPropertyOp25
 70
     1
102
RTVSPropertyOp26
 70
     1
102
RTVSPropertyOp27
 70
     1
102
RTVSPropertyOp28
 70
     1
102
RTVSPropertyOp29
 70
     1
102
RTVSPropertyOp30
 70
     1
102
RTVSPropertyOp31
 70
     1
102
RTVSPropertyOp32
 70
     1
102
RTVSPropertyOp33
 70
     1
102
RTVSPropertyOp34
 70
     1
102
RTVSPropertyOp35
 70
     1
102
RTVSPropertyOp36
 70
     1
102
RTVSPropertyOp37
 70
     1
102
RTVSPropertyOp38
 70
     1
102
RTVSPropertyOp39
 70
     1
102
RTVSPropertyOp40
 70
     1
102
RTVSPropertyOp41
 70
     1
102
RTVSPropertyOp42
 70
     1
102
RTVSPropertyOp43
 70
     1
102
RTVSPropertyOp44
 70
     1
102
RTVSPropertyOp45
 70
     1
102
RTVSPropertyOp46
 70
     1
102
RTVSPropertyOp47
 70
     1
102
RTVSPropertyOp48
 70
     1
102
RTVSPropertyOp49
 70
     1
102
RTVSPropertyOp50
 70
     1
102
RTVSPropertyOp51
 70
     0
102
RTVSPropertyOp52
 70
     0
102
RTVSPropertyOp53
 70
     1
102
RTVSPropertyOp54
 70
     1
102
RTVSPropertyOp55
 70
     1
102
RTVSPropertyOp56
 70
     1
102
RTVSPropertyOp57
 70
     1
102
RTVSPost2010Prop28
280
     0
102
RTVSPost2010PropOp28
 70
     1
102
RTVSPost2010Prop29
280
     1
102
RTVSPost2010PropOp29
 70
     1
102
RTVSPost2010Prop30
280
     1
102
RTVSPost2010PropOp30
 70
     1
102
RTVSPost2010Prop31
280
     0
102
RTVSPost2010PropOp31
 70
     1
102
RTVSPost2010Prop32
280
     0
102
RTVSPost2010PropOp32
 70
     1
102
RTVSPost2010Prop33
280
     0
102
RTVSPost2010PropOp33
 70
     1
102
RTVSPost2010Prop34
280
     0
102
RTVSPost2010PropOp34
 70
     1
102
RTVSPost2010Prop35
280
     0
102
RTVSPost2010PropOp35
 70
     1
102
RTVSPost2010Prop36
280
     0
102
RTVSPost2010PropOp36
 70
     1
102
RTVSPost2010Prop37
 90
       50
102
RTVSPost2010PropOp37
 70
     1
102
RTVSPost2010Prop38
140
0.0
102
RTVSPost2010PropOp38
 70
     1
102
RTVSPost2010Prop39
140
1.0
102
RTVSPost2010PropOp39
 70
     1
102
RTVSPost2010Prop40
 90
        0
102
RTVSPost2010PropOp40
 70
     1
102
RTVSPost2010Prop41ColorIndex
 90
       18
102
RTVSPost2010Prop41ColorRGB
 90
        0
102
RTVSPost2010PropOp41
 70
     1
102
RTVSPost2010Prop42
 90
       50
102
RTVSPost2010PropOp42
 70
     1
102
RTVSPost2010Prop43
 90
        3
102
RTVSPost2010PropOp43
 70
     1
102
RTVSPost2010Prop44ColorIndex
 90
        5
102
RTVSPost2010Prop44ColorRGB
 90
      255
102
RTVSPost2010PropOp44
 70
     1
102
RTVSPost2010Prop45
280
     0
102
RTVSPost2010PropOp45
 70
     1
102
RTVSPost2010Prop46
 90
       50
102
RTVSPost2010PropOp46
 70
     1
102
RTVSPost2010Prop47
 90
       50
102
RTVSPost2010PropOp47
 70
     1
102
RTVSPost2010Prop48
 90
       50
102
RTVSPost2010PropOp48
 70
     1
102
RTVSPost2010Prop49
280
     0
102
RTVSPost2010PropOp49
 70
     1
102
RTVSPost2010Prop50
 90
       50
102
RTVSPost2010PropOp50
 70
     1
102
RTVSPost2010Prop51ColorIndex
 90
      256
102
RTVSPost2010Prop51ColorRGB
 90
-16777216
102
RTVSPost2010PropOp51
 70
     0
102
RTVSPost2010Prop52
140
1.0
102
RTVSPost2010PropOp52
 70
     0
102
RTVSPost2010Prop53
 90
        2
102
RTVSPost2010PropOp53
 70
     1
102
RTVSPost2010Prop54
  1
strokes_ogs.tif
102
RTVSPost2010PropOp54
 70
     1
102
RTVSPost2010Prop55
280
     0
102
RTVSPost2010PropOp55
 70
     1
102
RTVSPost2010Prop56
140
1.0
102
RTVSPost2010PropOp56
 70
     1
102
RTVSPost2010Prop57
140
1.0
102
RTVSPost2010PropOp57
 70
     1
  0
XRECORD
  5
98
102
{ACAD_REACTORS
330
97
102
}
330
97
100
AcDbXrecord
280
     1
102
RTVSPropertyOp0
 70
     1
102
RTVSPropertyOp1
 70
     1
102
RTVSPropertyOp2
 70
     1
102
RTVSPropertyOp3
 70
     1
102
RTVSPropertyOp4
 70
     1
102
RTVSPropertyOp5
 70
     1
102
RTVSPropertyOp6
 70
     1
102
RTVSPropertyOp7
 70
     1
102
RTVSPropertyOp8
 70
     1
102
RTVSPropertyOp9
 70
     1
102
RTVSPropertyOp10
 70
     1
102
RTVSPropertyOp11
 70
     1
102
RTVSPropertyOp12
 70
     1
102
RTVSPropertyOp13
 70
     1
102
RTVSPropertyOp14
 70
     1
102
RTVSPropertyOp15
 70
     1
102
RTVSPropertyOp16
 70
     1
102
RTVSPropertyOp17
 70
     1
102
RTVSPropertyOp18
 70
     1
102
RTVSPropertyOp19
 70
     1
102
RTVSPropertyOp20
 70
     1
102
RTVSPropertyOp21
 70
     1
102
RTVSPropertyOp22
 70
     1
102
RTVSPropertyOp23
 70
     1
102
RTVSPropertyOp24
 70
     1
102
RTVSPropertyOp25
 70
     1
102
RTVSPropertyOp26
 70
     1
102
RTVSPropertyOp27
 70
     1
102
RTVSPropertyOp28
 70
     1
102
RTVSPropertyOp29
 70
     1
102
RTVSPropertyOp30
 70
     1
102
RTVSPropertyOp31
 70
     1
102
RTVSPropertyOp32
 70
     1
102
RTVSPropertyOp33
 70
     1
102
RTVSPropertyOp34
 70
     1
102
RTVSPropertyOp35
 70
     1
102
RTVSPropertyOp36
 70
     1
102
RTVSPropertyOp37
 70
     1
102
RTVSPropertyOp38
 70
     1
102
RTVSPropertyOp39
 70
     1
102
RTVSPropertyOp40
 70
     1
102
RTVSPropertyOp41
 70
     1
102
RTVSPropertyOp42
 70
     1
102
RTVSPropertyOp43
 70
     1
102
RTVSPropertyOp44
 70
     1
102
RTVSPropertyOp45
 70
     1
102
RTVSPropertyOp46
 70
     1
102
RTVSPropertyOp47
 70
     1
102
RTVSPropertyOp48
 70
     1
102
RTVSPropertyOp49
 70
     1
102
RTVSPropertyOp50
 70
     1
102
RTVSPropertyOp51
 70
     0
102
RTVSPropertyOp52
 70
     0
102
RTVSPropertyOp53
 70
     1
102
RTVSPropertyOp54
 70
     1
102
RTVSPropertyOp55
 70
     1
102
RTVSPropertyOp56
 70
     1
102
RTVSPropertyOp57
 70
     1
102
RTVSPost2010Prop28
280
     0
102
RTVSPost2010PropOp28
 70
     1
102
RTVSPost2010Prop29
280
     1
102
RTVSPost2010PropOp29
 70
     1
102
RTVSPost2010Prop30
280
     1
102
RTVSPost2010PropOp30
 70
     1
102
RTVSPost2010Prop31
280
     0
102
RTVSPost2010PropOp31
 70
     1
102
RTVSPost2010Prop32
280
     0
102
RTVSPost2010PropOp32
 70
     1
102
RTVSPost2010Prop33
280
     0
102
RTVSPost2010PropOp33
 70
     1
102
RTVSPost2010Prop34
280
     0
102
RTVSPost2010PropOp34
 70
     1
102
RTVSPost2010Prop35
280
     0
102
RTVSPost2010PropOp35
 70
     1
102
RTVSPost2010Prop36
280
     0
102
RTVSPost2010PropOp36
 70
     1
102
RTVSPost2010Prop37
 90
       50
102
RTVSPost2010PropOp37
 70
     1
102
RTVSPost2010Prop38
140
0.0
102
RTVSPost2010PropOp38
 70
     1
102
RTVSPost2010Prop39
140
1.0
102
RTVSPost2010PropOp39
 70
     1
102
RTVSPost2010Prop40
 90
        0
102
RTVSPost2010PropOp40
 70
     1
102
RTVSPost2010Prop41ColorIndex
 90
       18
102
RTVSPost2010Prop41ColorRGB
 90
        0
102
RTVSPost2010PropOp41
 70
     1
102
RTVSPost2010Prop42
 90
       50
102
RTVSPost2010PropOp42
 70
     1
102
RTVSPost2010Prop43
 90
        3
102
RTVSPost2010PropOp43
 70
     1
102
RTVSPost2010Prop44ColorIndex
 90
        5
102
RTVSPost2010Prop44ColorRGB
 90
      255
102
RTVSPost2010PropOp44
 70
     1
102
RTVSPost2010Prop45
280
     0
102
RTVSPost2010PropOp45
 70
     1
102
RTVSPost2010Prop46
 90
       50
102
RTVSPost2010PropOp46
 70
     1
102
RTVSPost2010Prop47
 90
       50
102
RTVSPost2010PropOp47
 70
     1
102
RTVSPost2010Prop48
 90
       50
102
RTVSPost2010PropOp48
 70
     1
102
RTVSPost2010Prop49
280
     0
102
RTVSPost2010PropOp49
 70
     1
102
RTVSPost2010Prop50
 90
       50
102
RTVSPost2010PropOp50
 70
     1
102
RTVSPost2010Prop51ColorIndex
 90
      256
102
RTVSPost2010Prop51ColorRGB
 90
-16777216
102
RTVSPost2010PropOp51
 70
     0
102
RTVSPost2010Prop52
140
1.0
102
RTVSPost2010PropOp52
 70
     0
102
RTVSPost2010Prop53
 90
        2
102
RTVSPost2010PropOp53
 70
     1
102
RTVSPost2010Prop54
  1
strokes_ogs.tif
102
RTVSPost2010PropOp54
 70
     1
102
RTVSPost2010Prop55
280
     0
102
RTVSPost2010PropOp55
 70
     1
102
RTVSPost2010Prop56
140
1.0
102
RTVSPost2010PropOp56
 70
     1
102
RTVSPost2010Prop57
140
1.0
102
RTVSPost2010PropOp57
 70
     1
  0
XRECORD
  5
9A
102
{ACAD_REACTORS
330
99
102
}
330
99
100
AcDbXrecord
280
     1
102
RTVSPropertyOp0
 70
     1
102
RTVSPropertyOp1
 70
     1
102
RTVSPropertyOp2
 70
     1
102
RTVSPropertyOp3
 70
     1
102
RTVSPropertyOp4
 70
     1
102
RTVSPropertyOp5
 70
     1
102
RTVSPropertyOp6
 70
     1
102
RTVSPropertyOp7
 70
     1
102
RTVSPropertyOp8
 70
     1
102
RTVSPropertyOp9
 70
     1
102
RTVSPropertyOp10
 70
     1
102
RTVSPropertyOp11
 70
     1
102
RTVSPropertyOp12
 70
     1
102
RTVSPropertyOp13
 70
     1
102
RTVSPropertyOp14
 70
     1
102
RTVSPropertyOp15
 70
     1
102
RTVSPropertyOp16
 70
     1
102
RTVSPropertyOp17
 70
     1
102
RTVSPropertyOp18
 70
     1
102
RTVSPropertyOp19
 70
     1
102
RTVSPropertyOp20
 70
     1
102
RTVSPropertyOp21
 70
     1
102
RTVSPropertyOp22
 70
     1
102
RTVSPropertyOp23
 70
     1
102
RTVSPropertyOp24
 70
     1
102
RTVSPropertyOp25
 70
     1
102
RTVSPropertyOp26
 70
     1
102
RTVSPropertyOp27
 70
     1
102
RTVSPropertyOp28
 70
     1
102
RTVSPropertyOp29
 70
     1
102
RTVSPropertyOp30
 70
     1
102
RTVSPropertyOp31
 70
     1
102
RTVSPropertyOp32
 70
     1
102
RTVSPropertyOp33
 70
     1
102
RTVSPropertyOp34
 70
     1
102
RTVSPropertyOp35
 70
     1
102
RTVSPropertyOp36
 70
     1
102
RTVSPropertyOp37
 70
     1
102
RTVSPropertyOp38
 70
     1
102
RTVSPropertyOp39
 70
     1
102
RTVSPropertyOp40
 70
     1
102
RTVSPropertyOp41
 70
     1
102
RTVSPropertyOp42
 70
     1
102
RTVSPropertyOp43
 70
     1
102
RTVSPropertyOp44
 70
     1
102
RTVSPropertyOp45
 70
     1
102
RTVSPropertyOp46
 70
     1
102
RTVSPropertyOp47
 70
     1
102
RTVSPropertyOp48
 70
     1
102
RTVSPropertyOp49
 70
     1
102
RTVSPropertyOp50
 70
     1
102
RTVSPropertyOp51
 70
     0
102
RTVSPropertyOp52
 70
     0
102
RTVSPropertyOp53
 70
     1
102
RTVSPropertyOp54
 70
     1
102
RTVSPropertyOp55
 70
     1
102
RTVSPropertyOp56
 70
     1
102
RTVSPropertyOp57
 70
     1
102
RTVSPost2010Prop28
280
     0
102
RTVSPost2010PropOp28
 70
     1
102
RTVSPost2010Prop29
280
     1
102
RTVSPost2010PropOp29
 70
     1
102
RTVSPost2010Prop30
280
     1
102
RTVSPost2010PropOp30
 70
     1
102
RTVSPost2010Prop31
280
     0
102
RTVSPost2010PropOp31
 70
     1
102
RTVSPost2010Prop32
280
     0
102
RTVSPost2010PropOp32
 70
     1
102
RTVSPost2010Prop33
280
     0
102
RTVSPost2010PropOp33
 70
     1
102
RTVSPost2010Prop34
280
     0
102
RTVSPost2010PropOp34
 70
     1
102
RTVSPost2010Prop35
280
     0
102
RTVSPost2010PropOp35
 70
     1
102
RTVSPost2010Prop36
280
     0
102
RTVSPost2010PropOp36
 70
     1
102
RTVSPost2010Prop37
 90
       50
102
RTVSPost2010PropOp37
 70
     1
102
RTVSPost2010Prop38
140
0.0
102
RTVSPost2010PropOp38
 70
     1
102
RTVSPost2010Prop39
140
1.0
102
RTVSPost2010PropOp39
 70
     1
102
RTVSPost2010Prop40
 90
        0
102
RTVSPost2010PropOp40
 70
     1
102
RTVSPost2010Prop41ColorIndex
 90
       18
102
RTVSPost2010Prop41ColorRGB
 90
        0
102
RTVSPost2010PropOp41
 70
     1
102
RTVSPost2010Prop42
 90
       50
102
RTVSPost2010PropOp42
 70
     1
102
RTVSPost2010Prop43
 90
        3
102
RTVSPost2010PropOp43
 70
     1
102
RTVSPost2010Prop44ColorIndex
 90
        5
102
RTVSPost2010Prop44ColorRGB
 90
      255
102
RTVSPost2010PropOp44
 70
     1
102
RTVSPost2010Prop45
280
     0
102
RTVSPost2010PropOp45
 70
     1
102
RTVSPost2010Prop46
 90
       50
102
RTVSPost2010PropOp46
 70
     1
102
RTVSPost2010Prop47
 90
       50
102
RTVSPost2010PropOp47
 70
     1
102
RTVSPost2010Prop48
 90
       50
102
RTVSPost2010PropOp48
 70
     1
102
RTVSPost2010Prop49
280
     0
102
RTVSPost2010PropOp49
 70
     1
102
RTVSPost2010Prop50
 90
       50
102
RTVSPost2010PropOp50
 70
     1
102
RTVSPost2010Prop51ColorIndex
 90
      256
102
RTVSPost2010Prop51ColorRGB
 90
-16777216
102
RTVSPost2010PropOp51
 70
     0
102
RTVSPost2010Prop52
140
1.0
102
RTVSPost2010PropOp52
 70
     0
102
RTVSPost2010Prop53
 90
        2
102
RTVSPost2010PropOp53
 70
     1
102
RTVSPost2010Prop54
  1
strokes_ogs.tif
102
RTVSPost2010PropOp54
 70
     1
102
RTVSPost2010Prop55
280
     0
102
RTVSPost2010PropOp55
 70
     1
102
RTVSPost2010Prop56
140
1.0
102
RTVSPost2010PropOp56
 70
     1
102
RTVSPost2010Prop57
140
1.0
102
RTVSPost2010PropOp57
 70
     1
  0
XRECORD
  5
9C
102
{ACAD_REACTORS
330
9B
102
}
330
9B
100
AcDbXrecord
280
     1
102
RTVSPropertyOp0
 70
     1
102
RTVSPropertyOp1
 70
     1
102
RTVSPropertyOp2
 70
     1
102
RTVSPropertyOp3
 70
     1
102
RTVSPropertyOp4
 70
     1
102
RTVSPropertyOp5
 70
     1
102
RTVSPropertyOp6
 70
     1
102
RTVSPropertyOp7
 70
     1
102
RTVSPropertyOp8
 70
     1
102
RTVSPropertyOp9
 70
     1
102
RTVSPropertyOp10
 70
     1
102
RTVSPropertyOp11
 70
     1
102
RTVSPropertyOp12
 70
     1
102
RTVSPropertyOp13
 70
     1
102
RTVSPropertyOp14
 70
     1
102
RTVSPropertyOp15
 70
     1
102
RTVSPropertyOp16
 70
     1
102
RTVSPropertyOp17
 70
     1
102
RTVSPropertyOp18
 70
     1
102
RTVSPropertyOp19
 70
     1
102
RTVSPropertyOp20
 70
     1
102
RTVSPropertyOp21
 70
     1
102
RTVSPropertyOp22
 70
     1
102
RTVSPropertyOp23
 70
     1
102
RTVSPropertyOp24
 70
     1
102
RTVSPropertyOp25
 70
     1
102
RTVSPropertyOp26
 70
     1
102
RTVSPropertyOp27
 70
     1
102
RTVSPropertyOp28
 70
     1
102
RTVSPropertyOp29
 70
     1
102
RTVSPropertyOp30
 70
     1
102
RTVSPropertyOp31
 70
     1
102
RTVSPropertyOp32
 70
     1
102
RTVSPropertyOp33
 70
     1
102
RTVSPropertyOp34
 70
     1
102
RTVSPropertyOp35
 70
     1
102
RTVSPropertyOp36
 70
     1
102
RTVSPropertyOp37
 70
     1
102
RTVSPropertyOp38
 70
     1
102
RTVSPropertyOp39
 70
     1
102
RTVSPropertyOp40
 70
     1
102
RTVSPropertyOp41
 70
     1
102
RTVSPropertyOp42
 70
     1
102
RTVSPropertyOp43
 70
     1
102
RTVSPropertyOp44
 70
     1
102
RTVSPropertyOp45
 70
     1
102
RTVSPropertyOp46
 70
     1
102
RTVSPropertyOp47
 70
     1
102
RTVSPropertyOp48
 70
     1
102
RTVSPropertyOp49
 70
     1
102
RTVSPropertyOp50
 70
     1
102
RTVSPropertyOp51
 70
     0
102
RTVSPropertyOp52
 70
     0
102
RTVSPropertyOp53
 70
     1
102
RTVSPropertyOp54
 70
     1
102
RTVSPropertyOp55
 70
     1
102
RTVSPropertyOp56
 70
     1
102
RTVSPropertyOp57
 70
     1
102
RTVSPost2010Prop28
280
     0
102
RTVSPost2010PropOp28
 70
     1
102
RTVSPost2010Prop29
280
     1
102
RTVSPost2010PropOp29
 70
     1
102
RTVSPost2010Prop30
280
     1
102
RTVSPost2010PropOp30
 70
     1
102
RTVSPost2010Prop31
280
     0
102
RTVSPost2010PropOp31
 70
     1
102
RTVSPost2010Prop32
280
     0
102
RTVSPost2010PropOp32
 70
     1
102
RTVSPost2010Prop33
280
     0
102
RTVSPost2010PropOp33
 70
     1
102
RTVSPost2010Prop34
280
     0
102
RTVSPost2010PropOp34
 70
     1
102
RTVSPost2010Prop35
280
     0
102
RTVSPost2010PropOp35
 70
     1
102
RTVSPost2010Prop36
280
     0
102
RTVSPost2010PropOp36
 70
     1
102
RTVSPost2010Prop37
 90
       50
102
RTVSPost2010PropOp37
 70
     1
102
RTVSPost2010Prop38
140
0.0
102
RTVSPost2010PropOp38
 70
     1
102
RTVSPost2010Prop39
140
1.0
102
RTVSPost2010PropOp39
 70
     1
102
RTVSPost2010Prop40
 90
        0
102
RTVSPost2010PropOp40
 70
     1
102
RTVSPost2010Prop41ColorIndex
 90
       18
102
RTVSPost2010Prop41ColorRGB
 90
        0
102
RTVSPost2010PropOp41
 70
     1
102
RTVSPost2010Prop42
 90
       50
102
RTVSPost2010PropOp42
 70
     1
102
RTVSPost2010Prop43
 90
        3
102
RTVSPost2010PropOp43
 70
     1
102
RTVSPost2010Prop44ColorIndex
 90
        5
102
RTVSPost2010Prop44ColorRGB
 90
      255
102
RTVSPost2010PropOp44
 70
     1
102
RTVSPost2010Prop45
280
     0
102
RTVSPost2010PropOp45
 70
     1
102
RTVSPost2010Prop46
 90
       50
102
RTVSPost2010PropOp46
 70
     1
102
RTVSPost2010Prop47
 90
       50
102
RTVSPost2010PropOp47
 70
     1
102
RTVSPost2010Prop48
 90
       50
102
RTVSPost2010PropOp48
 70
     1
102
RTVSPost2010Prop49
280
     0
102
RTVSPost2010PropOp49
 70
     1
102
RTVSPost2010Prop50
 90
       50
102
RTVSPost2010PropOp50
 70
     1
102
RTVSPost2010Prop51ColorIndex
 90
      256
102
RTVSPost2010Prop51ColorRGB
 90
-16777216
102
RTVSPost2010PropOp51
 70
     0
102
RTVSPost2010Prop52
140
1.0
102
RTVSPost2010PropOp52
 70
     0
102
RTVSPost2010Prop53
 90
        2
102
RTVSPost2010PropOp53
 70
     1
102
RTVSPost2010Prop54
  1
strokes_ogs.tif
102
RTVSPost2010PropOp54
 70
     1
102
RTVSPost2010Prop55
280
     0
102
RTVSPost2010PropOp55
 70
     1
102
RTVSPost2010Prop56
140
1.0
102
RTVSPost2010PropOp56
 70
     1
102
RTVSPost2010Prop57
140
1.0
102
RTVSPost2010PropOp57
 70
     1
  0
XRECORD
  5
9E
102
{ACAD_REACTORS
330
9D
102
}
330
9D
100
AcDbXrecord
280
     1
102
RTVSPropertyOp0
 70
     1
102
RTVSPropertyOp1
 70
     1
102
RTVSPropertyOp2
 70
     1
102
RTVSPropertyOp3
 70
     1
102
RTVSPropertyOp4
 70
     1
102
RTVSPropertyOp5
 70
     1
102
RTVSPropertyOp6
 70
     1
102
RTVSPropertyOp7
 70
     1
102
RTVSPropertyOp8
 70
     1
102
RTVSPropertyOp9
 70
     1
102
RTVSPropertyOp10
 70
     1
102
RTVSPropertyOp11
 70
     1
102
RTVSPropertyOp12
 70
     1
102
RTVSPropertyOp13
 70
     1
102
RTVSPropertyOp14
 70
     1
102
RTVSPropertyOp15
 70
     1
102
RTVSPropertyOp16
 70
     1
102
RTVSPropertyOp17
 70
     1
102
RTVSPropertyOp18
 70
     1
102
RTVSPropertyOp19
 70
     1
102
RTVSPropertyOp20
 70
     1
102
RTVSPropertyOp21
 70
     1
102
RTVSPropertyOp22
 70
     1
102
RTVSPropertyOp23
 70
     1
102
RTVSPropertyOp24
 70
     1
102
RTVSPropertyOp25
 70
     1
102
RTVSPropertyOp26
 70
     1
102
RTVSPropertyOp27
 70
     1
102
RTVSPropertyOp28
 70
     1
102
RTVSPropertyOp29
 70
     1
102
RTVSPropertyOp30
 70
     1
102
RTVSPropertyOp31
 70
     1
102
RTVSPropertyOp32
 70
     1
102
RTVSPropertyOp33
 70
     1
102
RTVSPropertyOp34
 70
     1
102
RTVSPropertyOp35
 70
     1
102
RTVSPropertyOp36
 70
     1
102
RTVSPropertyOp37
 70
     1
102
RTVSPropertyOp38
 70
     1
102
RTVSPropertyOp39
 70
     1
102
RTVSPropertyOp40
 70
     1
102
RTVSPropertyOp41
 70
     1
102
RTVSPropertyOp42
 70
     1
102
RTVSPropertyOp43
 70
     1
102
RTVSPropertyOp44
 70
     1
102
RTVSPropertyOp45
 70
     1
102
RTVSPropertyOp46
 70
     1
102
RTVSPropertyOp47
 70
     1
102
RTVSPropertyOp48
 70
     1
102
RTVSPropertyOp49
 70
     1
102
RTVSPropertyOp50
 70
     1
102
RTVSPropertyOp51
 70
     0
102
RTVSPropertyOp52
 70
     0
102
RTVSPropertyOp53
 70
     1
102
RTVSPropertyOp54
 70
     1
102
RTVSPropertyOp55
 70
     1
102
RTVSPropertyOp56
 70
     1
102
RTVSPropertyOp57
 70
     1
102
RTVSPost2010Prop28
280
     0
102
RTVSPost2010PropOp28
 70
     1
102
RTVSPost2010Prop29
280
     1
102
RTVSPost2010PropOp29
 70
     1
102
RTVSPost2010Prop30
280
     1
102
RTVSPost2010PropOp30
 70
     1
102
RTVSPost2010Prop31
280
     0
102
RTVSPost2010PropOp31
 70
     1
102
RTVSPost2010Prop32
280
     0
102
RTVSPost2010PropOp32
 70
     1
102
RTVSPost2010Prop33
280
     0
102
RTVSPost2010PropOp33
 70
     1
102
RTVSPost2010Prop34
280
     0
102
RTVSPost2010PropOp34
 70
     1
102
RTVSPost2010Prop35
280
     0
102
RTVSPost2010PropOp35
 70
     1
102
RTVSPost2010Prop36
280
     0
102
RTVSPost2010PropOp36
 70
     1
102
RTVSPost2010Prop37
 90
       50
102
RTVSPost2010PropOp37
 70
     1
102
RTVSPost2010Prop38
140
0.0
102
RTVSPost2010PropOp38
 70
     1
102
RTVSPost2010Prop39
140
1.0
102
RTVSPost2010PropOp39
 70
     1
102
RTVSPost2010Prop40
 90
        0
102
RTVSPost2010PropOp40
 70
     1
102
RTVSPost2010Prop41ColorIndex
 90
       18
102
RTVSPost2010Prop41ColorRGB
 90
        0
102
RTVSPost2010PropOp41
 70
     1
102
RTVSPost2010Prop42
 90
       50
102
RTVSPost2010PropOp42
 70
     1
102
RTVSPost2010Prop43
 90
        3
102
RTVSPost2010PropOp43
 70
     1
102
RTVSPost2010Prop44ColorIndex
 90
        5
102
RTVSPost2010Prop44ColorRGB
 90
      255
102
RTVSPost2010PropOp44
 70
     1
102
RTVSPost2010Prop45
280
     0
102
RTVSPost2010PropOp45
 70
     1
102
RTVSPost2010Prop46
 90
       50
102
RTVSPost2010PropOp46
 70
     1
102
RTVSPost2010Prop47
 90
       50
102
RTVSPost2010PropOp47
 70
     1
102
RTVSPost2010Prop48
 90
       50
102
RTVSPost2010PropOp48
 70
     1
102
RTVSPost2010Prop49
280
     0
102
RTVSPost2010PropOp49
 70
     1
102
RTVSPost2010Prop50
 90
       50
102
RTVSPost2010PropOp50
 70
     1
102
RTVSPost2010Prop51ColorIndex
 90
      256
102
RTVSPost2010Prop51ColorRGB
 90
-16777216
102
RTVSPost2010PropOp51
 70
     0
102
RTVSPost2010Prop52
140
1.0
102
RTVSPost2010PropOp52
 70
     0
102
RTVSPost2010Prop53
 90
        2
102
RTVSPost2010PropOp53
 70
     1
102
RTVSPost2010Prop54
  1
strokes_ogs.tif
102
RTVSPost2010PropOp54
 70
     1
102
RTVSPost2010Prop55
280
     0
102
RTVSPost2010PropOp55
 70
     1
102
RTVSPost2010Prop56
140
1.0
102
RTVSPost2010PropOp56
 70
     1
102
RTVSPost2010Prop57
140
1.0
102
RTVSPost2010PropOp57
 70
     1
  0
XRECORD
  5
A4
102
{ACAD_REACTORS
330
A3
102
}
330
A3
100
AcDbXrecord
280
     1
102
RTVSPropertyOp0
 70
     1
102
RTVSPropertyOp1
 70
     1
102
RTVSPropertyOp2
 70
     1
102
RTVSPropertyOp3
 70
     1
102
RTVSPropertyOp4
 70
     1
102
RTVSPropertyOp5
 70
     1
102
RTVSPropertyOp6
 70
     1
102
RTVSPropertyOp7
 70
     1
102
RTVSPropertyOp8
 70
     1
102
RTVSPropertyOp9
 70
     1
102
RTVSPropertyOp10
 70
     1
102
RTVSPropertyOp11
 70
     1
102
RTVSPropertyOp12
 70
     1
102
RTVSPropertyOp13
 70
     1
102
RTVSPropertyOp14
 70
     1
102
RTVSPropertyOp15
 70
     1
102
RTVSPropertyOp16
 70
     1
102
RTVSPropertyOp17
 70
     1
102
RTVSPropertyOp18
 70
     1
102
RTVSPropertyOp19
 70
     1
102
RTVSPropertyOp20
 70
     1
102
RTVSPropertyOp21
 70
     1
102
RTVSPropertyOp22
 70
     1
102
RTVSPropertyOp23
 70
     1
102
RTVSPropertyOp24
 70
     1
102
RTVSPropertyOp25
 70
     1
102
RTVSPropertyOp26
 70
     1
102
RTVSPropertyOp27
 70
     1
102
RTVSPropertyOp28
 70
     1
102
RTVSPropertyOp29
 70
     1
102
RTVSPropertyOp30
 70
     1
102
RTVSPropertyOp31
 70
     1
102
RTVSPropertyOp32
 70
     1
102
RTVSPropertyOp33
 70
     1
102
RTVSPropertyOp34
 70
     1
102
RTVSPropertyOp35
 70
     1
102
RTVSPropertyOp36
 70
     1
102
RTVSPropertyOp37
 70
     1
102
RTVSPropertyOp38
 70
     1
102
RTVSPropertyOp39
 70
     1
102
RTVSPropertyOp40
 70
     1
102
RTVSPropertyOp41
 70
     1
102
RTVSPropertyOp42
 70
     1
102
RTVSPropertyOp43
 70
     1
102
RTVSPropertyOp44
 70
     1
102
RTVSPropertyOp45
 70
     1
102
RTVSPropertyOp46
 70
     1
102
RTVSPropertyOp47
 70
     1
102
RTVSPropertyOp48
 70
     1
102
RTVSPropertyOp49
 70
     1
102
RTVSPropertyOp50
 70
     1
102
RTVSPropertyOp51
 70
     0
102
RTVSPropertyOp52
 70
     0
102
RTVSPropertyOp53
 70
     1
102
RTVSPropertyOp54
 70
     1
102
RTVSPropertyOp55
 70
     1
102
RTVSPropertyOp56
 70
     1
102
RTVSPropertyOp57
 70
     1
102
RTVSPost2010Prop28
280
     0
102
RTVSPost2010PropOp28
 70
     1
102
RTVSPost2010Prop29
280
     1
102
RTVSPost2010PropOp29
 70
     1
102
RTVSPost2010Prop30
280
     1
102
RTVSPost2010PropOp30
 70
     1
102
RTVSPost2010Prop31
280
     0
102
RTVSPost2010PropOp31
 70
     1
102
RTVSPost2010Prop32
280
     0
102
RTVSPost2010PropOp32
 70
     1
102
RTVSPost2010Prop33
280
     0
102
RTVSPost2010PropOp33
 70
     1
102
RTVSPost2010Prop34
280
     0
102
RTVSPost2010PropOp34
 70
     1
102
RTVSPost2010Prop35
280
     0
102
RTVSPost2010PropOp35
 70
     1
102
RTVSPost2010Prop36
280
     0
102
RTVSPost2010PropOp36
 70
     1
102
RTVSPost2010Prop37
 90
       50
102
RTVSPost2010PropOp37
 70
     1
102
RTVSPost2010Prop38
140
0.0
102
RTVSPost2010PropOp38
 70
     1
102
RTVSPost2010Prop39
140
1.0
102
RTVSPost2010PropOp39
 70
     1
102
RTVSPost2010Prop40
 90
        0
102
RTVSPost2010PropOp40
 70
     1
102
RTVSPost2010Prop41ColorIndex
 90
       18
102
RTVSPost2010Prop41ColorRGB
 90
        0
102
RTVSPost2010PropOp41
 70
     1
102
RTVSPost2010Prop42
 90
       50
102
RTVSPost2010PropOp42
 70
     1
102
RTVSPost2010Prop43
 90
        3
102
RTVSPost2010PropOp43
 70
     1
102
RTVSPost2010Prop44ColorIndex
 90
        5
102
RTVSPost2010Prop44ColorRGB
 90
      255
102
RTVSPost2010PropOp44
 70
     1
102
RTVSPost2010Prop45
280
     0
102
RTVSPost2010PropOp45
 70
     1
102
RTVSPost2010Prop46
 90
       50
102
RTVSPost2010PropOp46
 70
     1
102
RTVSPost2010Prop47
 90
       50
102
RTVSPost2010PropOp47
 70
     1
102
RTVSPost2010Prop48
 90
       50
102
RTVSPost2010PropOp48
 70
     1
102
RTVSPost2010Prop49
280
     0
102
RTVSPost2010PropOp49
 70
     1
102
RTVSPost2010Prop50
 90
       50
102
RTVSPost2010PropOp50
 70
     1
102
RTVSPost2010Prop51ColorIndex
 90
      256
102
RTVSPost2010Prop51ColorRGB
 90
-16777216
102
RTVSPost2010PropOp51
 70
     0
102
RTVSPost2010Prop52
140
1.0
102
RTVSPost2010PropOp52
 70
     0
102
RTVSPost2010Prop53
 90
        2
102
RTVSPost2010PropOp53
 70
     1
102
RTVSPost2010Prop54
  1
strokes_ogs.tif
102
RTVSPost2010PropOp54
 70
     1
102
RTVSPost2010Prop55
280
     0
102
RTVSPost2010PropOp55
 70
     1
102
RTVSPost2010Prop56
140
1.0
102
RTVSPost2010PropOp56
 70
     1
102
RTVSPost2010Prop57
140
1.0
102
RTVSPost2010PropOp57
 70
     1
  0
XRECORD
  5
B8
102
{ACAD_REACTORS
330
B7
102
}
330
B7
100
AcDbXrecord
280
     1
102
RTVSPropertyOp0
 70
     0
102
RTVSPropertyOp1
 70
     0
102
RTVSPropertyOp2
 70
     0
102
RTVSPropertyOp3
 70
     0
102
RTVSPropertyOp4
 70
     0
102
RTVSPropertyOp5
 70
     0
102
RTVSPropertyOp6
 70
     0
102
RTVSPropertyOp7
 70
     0
102
RTVSPropertyOp8
 70
     0
102
RTVSPropertyOp9
 70
     0
102
RTVSPropertyOp10
 70
     0
102
RTVSPropertyOp11
 70
     0
102
RTVSPropertyOp12
 70
     0
102
RTVSPropertyOp13
 70
     0
102
RTVSPropertyOp14
 70
     2
102
RTVSPropertyOp15
 70
     0
102
RTVSPropertyOp16
 70
     0
102
RTVSPropertyOp17
 70
     0
102
RTVSPropertyOp18
 70
     0
102
RTVSPropertyOp19
 70
     0
102
RTVSPropertyOp20
 70
     0
102
RTVSPropertyOp21
 70
     0
102
RTVSPropertyOp22
 70
     0
102
RTVSPropertyOp23
 70
     0
102
RTVSPropertyOp24
 70
     0
102
RTVSPropertyOp25
 70
     0
102
RTVSPropertyOp26
 70
     0
102
RTVSPropertyOp27
 70
     0
102
RTVSPropertyOp28
 70
     0
102
RTVSPropertyOp29
 70
     0
102
RTVSPropertyOp30
 70
     0
102
RTVSPropertyOp31
 70
     0
102
RTVSPropertyOp32
 70
     0
102
RTVSPropertyOp33
 70
     0
102
RTVSPropertyOp34
 70
     0
102
RTVSPropertyOp35
 70
     0
102
RTVSPropertyOp36
 70
     0
102
RTVSPropertyOp37
 70
     0
102
RTVSPropertyOp38
 70
     0
102
RTVSPropertyOp39
 70
     0
102
RTVSPropertyOp40
 70
     0
102
RTVSPropertyOp41
 70
     0
102
RTVSPropertyOp42
 70
     0
102
RTVSPropertyOp43
 70
     0
102
RTVSPropertyOp44
 70
     0
102
RTVSPropertyOp45
 70
     0
102
RTVSPropertyOp46
 70
     0
102
RTVSPropertyOp47
 70
     0
102
RTVSPropertyOp48
 70
     0
102
RTVSPropertyOp49
 70
     0
102
RTVSPropertyOp50
 70
     0
102
RTVSPropertyOp51
 70
     0
102
RTVSPropertyOp52
 70
     0
102
RTVSPropertyOp53
 70
     0
102
RTVSPropertyOp54
 70
     0
102
RTVSPropertyOp55
 70
     0
102
RTVSPropertyOp56
 70
     0
102
RTVSPropertyOp57
 70
     0
102
RTVSPost2010Prop28
280
     0
102
RTVSPost2010PropOp28
 70
     0
102
RTVSPost2010Prop29
280
     1
102
RTVSPost2010PropOp29
 70
     0
102
RTVSPost2010Prop30
280
     1
102
RTVSPost2010PropOp30
 70
     0
102
RTVSPost2010Prop31
280
     0
102
RTVSPost2010PropOp31
 70
     0
102
RTVSPost2010Prop32
280
     0
102
RTVSPost2010PropOp32
 70
     0
102
RTVSPost2010Prop33
280
     0
102
RTVSPost2010PropOp33
 70
     0
102
RTVSPost2010Prop34
280
     0
102
RTVSPost2010PropOp34
 70
     0
102
RTVSPost2010Prop35
280
     0
102
RTVSPost2010PropOp35
 70
     0
102
RTVSPost2010Prop36
280
     0
102
RTVSPost2010PropOp36
 70
     0
102
RTVSPost2010Prop37
 90
       50
102
RTVSPost2010PropOp37
 70
     0
102
RTVSPost2010Prop38
140
0.0
102
RTVSPost2010PropOp38
 70
     0
102
RTVSPost2010Prop39
140
1.0
102
RTVSPost2010PropOp39
 70
     0
102
RTVSPost2010Prop40
 90
        0
102
RTVSPost2010PropOp40
 70
     0
102
RTVSPost2010Prop41ColorIndex
 90
       18
102
RTVSPost2010Prop41ColorRGB
 90
        0
102
RTVSPost2010PropOp41
 70
     0
102
RTVSPost2010Prop42
 90
       50
102
RTVSPost2010PropOp42
 70
     0
102
RTVSPost2010Prop43
 90
        3
102
RTVSPost2010PropOp43
 70
     0
102
RTVSPost2010Prop44ColorIndex
 90
        5
102
RTVSPost2010Prop44ColorRGB
 90
      255
102
RTVSPost2010PropOp44
 70
     0
102
RTVSPost2010Prop45
280
     0
102
RTVSPost2010PropOp45
 70
     0
102
RTVSPost2010Prop46
 90
       50
102
RTVSPost2010PropOp46
 70
     0
102
RTVSPost2010Prop47
 90
       50
102
RTVSPost2010PropOp47
 70
     0
102
RTVSPost2010Prop48
 90
       50
102
RTVSPost2010PropOp48
 70
     0
102
RTVSPost2010Prop49
280
     0
102
RTVSPost2010PropOp49
 70
     0
102
RTVSPost2010Prop50
 90
       50
102
RTVSPost2010PropOp50
 70
     0
102
RTVSPost2010Prop51ColorIndex
 90
      256
102
RTVSPost2010Prop51ColorRGB
 90
-16777216
102
RTVSPost2010PropOp51
 70
     0
102
RTVSPost2010Prop52
140
1.0
102
RTVSPost2010PropOp52
 70
     0
102
RTVSPost2010Prop53
 90
        2
102
RTVSPost2010PropOp53
 70
     0
102
RTVSPost2010Prop54
  1
strokes_ogs.tif
102
RTVSPost2010PropOp54
 70
     0
102
RTVSPost2010Prop55
280
     0
102
RTVSPost2010PropOp55
 70
     0
102
RTVSPost2010Prop56
140
1.0
102
RTVSPost2010PropOp56
 70
     0
102
RTVSPost2010Prop57
140
1.0
102
RTVSPost2010PropOp57
 70
     0
  0
XRECORD
  5
B2
102
{ACAD_REACTORS
330
B1
102
}
330
B1
100
AcDbXrecord
280
     1
102
RTVSPropertyOp0
 70
     1
102
RTVSPropertyOp1
 70
     1
102
RTVSPropertyOp2
 70
     1
102
RTVSPropertyOp3
 70
     1
102
RTVSPropertyOp4
 70
     1
102
RTVSPropertyOp5
 70
     1
102
RTVSPropertyOp6
 70
     1
102
RTVSPropertyOp7
 70
     1
102
RTVSPropertyOp8
 70
     1
102
RTVSPropertyOp9
 70
     1
102
RTVSPropertyOp10
 70
     1
102
RTVSPropertyOp11
 70
     1
102
RTVSPropertyOp12
 70
     1
102
RTVSPropertyOp13
 70
     1
102
RTVSPropertyOp14
 70
     1
102
RTVSPropertyOp15
 70
     1
102
RTVSPropertyOp16
 70
     1
102
RTVSPropertyOp17
 70
     1
102
RTVSPropertyOp18
 70
     1
102
RTVSPropertyOp19
 70
     1
102
RTVSPropertyOp20
 70
     1
102
RTVSPropertyOp21
 70
     1
102
RTVSPropertyOp22
 70
     1
102
RTVSPropertyOp23
 70
     1
102
RTVSPropertyOp24
 70
     1
102
RTVSPropertyOp25
 70
     1
102
RTVSPropertyOp26
 70
     1
102
RTVSPropertyOp27
 70
     1
102
RTVSPropertyOp28
 70
     1
102
RTVSPropertyOp29
 70
     1
102
RTVSPropertyOp30
 70
     1
102
RTVSPropertyOp31
 70
     1
102
RTVSPropertyOp32
 70
     1
102
RTVSPropertyOp33
 70
     1
102
RTVSPropertyOp34
 70
     1
102
RTVSPropertyOp35
 70
     1
102
RTVSPropertyOp36
 70
     1
102
RTVSPropertyOp37
 70
     1
102
RTVSPropertyOp38
 70
     1
102
RTVSPropertyOp39
 70
     1
102
RTVSPropertyOp40
 70
     1
102
RTVSPropertyOp41
 70
     1
102
RTVSPropertyOp42
 70
     1
102
RTVSPropertyOp43
 70
     1
102
RTVSPropertyOp44
 70
     1
102
RTVSPropertyOp45
 70
     1
102
RTVSPropertyOp46
 70
     1
102
RTVSPropertyOp47
 70
     1
102
RTVSPropertyOp48
 70
     1
102
RTVSPropertyOp49
 70
     1
102
RTVSPropertyOp50
 70
     1
102
RTVSPropertyOp51
 70
     0
102
RTVSPropertyOp52
 70
     0
102
RTVSPropertyOp53
 70
     1
102
RTVSPropertyOp54
 70
     1
102
RTVSPropertyOp55
 70
     1
102
RTVSPropertyOp56
 70
     1
102
RTVSPropertyOp57
 70
     1
102
RTVSPost2010Prop28
280
     0
102
RTVSPost2010PropOp28
 70
     1
102
RTVSPost2010Prop29
280
     1
102
RTVSPost2010PropOp29
 70
     1
102
RTVSPost2010Prop30
280
     1
102
RTVSPost2010PropOp30
 70
     1
102
RTVSPost2010Prop31
280
     0
102
RTVSPost2010PropOp31
 70
     1
102
RTVSPost2010Prop32
280
     0
102
RTVSPost2010PropOp32
 70
     1
102
RTVSPost2010Prop33
280
     0
102
RTVSPost2010PropOp33
 70
     1
102
RTVSPost2010Prop34
280
     0
102
RTVSPost2010PropOp34
 70
     1
102
RTVSPost2010Prop35
280
     0
102
RTVSPost2010PropOp35
 70
     1
102
RTVSPost2010Prop36
280
     0
102
RTVSPost2010PropOp36
 70
     1
102
RTVSPost2010Prop37
 90
       50
102
RTVSPost2010PropOp37
 70
     1
102
RTVSPost2010Prop38
140
0.0
102
RTVSPost2010PropOp38
 70
     1
102
RTVSPost2010Prop39
140
1.0
102
RTVSPost2010PropOp39
 70
     1
102
RTVSPost2010Prop40
 90
        0
102
RTVSPost2010PropOp40
 70
     1
102
RTVSPost2010Prop41ColorIndex
 90
       18
102
RTVSPost2010Prop41ColorRGB
 90
        0
102
RTVSPost2010PropOp41
 70
     1
102
RTVSPost2010Prop42
 90
       50
102
RTVSPost2010PropOp42
 70
     1
102
RTVSPost2010Prop43
 90
        3
102
RTVSPost2010PropOp43
 70
     1
102
RTVSPost2010Prop44ColorIndex
 90
        5
102
RTVSPost2010Prop44ColorRGB
 90
      255
102
RTVSPost2010PropOp44
 70
     1
102
RTVSPost2010Prop45
280
     0
102
RTVSPost2010PropOp45
 70
     1
102
RTVSPost2010Prop46
 90
       50
102
RTVSPost2010PropOp46
 70
     1
102
RTVSPost2010Prop47
 90
       50
102
RTVSPost2010PropOp47
 70
     1
102
RTVSPost2010Prop48
 90
       50
102
RTVSPost2010PropOp48
 70
     1
102
RTVSPost2010Prop49
280
     0
102
RTVSPost2010PropOp49
 70
     1
102
RTVSPost2010Prop50
 90
       50
102
RTVSPost2010PropOp50
 70
     1
102
RTVSPost2010Prop51ColorIndex
 90
      256
102
RTVSPost2010Prop51ColorRGB
 90
-16777216
102
RTVSPost2010PropOp51
 70
     0
102
RTVSPost2010Prop52
140
1.0
102
RTVSPost2010PropOp52
 70
     0
102
RTVSPost2010Prop53
 90
        2
102
RTVSPost2010PropOp53
 70
     1
102
RTVSPost2010Prop54
  1
strokes_ogs.tif
102
RTVSPost2010PropOp54
 70
     1
102
RTVSPost2010Prop55
280
     0
102
RTVSPost2010PropOp55
 70
     1
102
RTVSPost2010Prop56
140
1.0
102
RTVSPost2010PropOp56
 70
     1
102
RTVSPost2010Prop57
140
1.0
102
RTVSPost2010PropOp57
 70
     1
  0
XRECORD
  5
BA
102
{ACAD_REACTORS
330
B9
102
}
330
B9
100
AcDbXrecord
280
     1
102
RTVSPropertyOp0
 70
     0
102
RTVSPropertyOp1
 70
     0
102
RTVSPropertyOp2
 70
     0
102
RTVSPropertyOp3
 70
     0
102
RTVSPropertyOp4
 70
     0
102
RTVSPropertyOp5
 70
     0
102
RTVSPropertyOp6
 70
     0
102
RTVSPropertyOp7
 70
     0
102
RTVSPropertyOp8
 70
     0
102
RTVSPropertyOp9
 70
     0
102
RTVSPropertyOp10
 70
     0
102
RTVSPropertyOp11
 70
     0
102
RTVSPropertyOp12
 70
     0
102
RTVSPropertyOp13
 70
     0
102
RTVSPropertyOp14
 70
     2
102
RTVSPropertyOp15
 70
     0
102
RTVSPropertyOp16
 70
     0
102
RTVSPropertyOp17
 70
     0
102
RTVSPropertyOp18
 70
     0
102
RTVSPropertyOp19
 70
     0
102
RTVSPropertyOp20
 70
     0
102
RTVSPropertyOp21
 70
     0
102
RTVSPropertyOp22
 70
     0
102
RTVSPropertyOp23
 70
     0
102
RTVSPropertyOp24
 70
     0
102
RTVSPropertyOp25
 70
     0
102
RTVSPropertyOp26
 70
     0
102
RTVSPropertyOp27
 70
     0
102
RTVSPropertyOp28
 70
     0
102
RTVSPropertyOp29
 70
     0
102
RTVSPropertyOp30
 70
     0
102
RTVSPropertyOp31
 70
     0
102
RTVSPropertyOp32
 70
     0
102
RTVSPropertyOp33
 70
     0
102
RTVSPropertyOp34
 70
     0
102
RTVSPropertyOp35
 70
     0
102
RTVSPropertyOp36
 70
     0
102
RTVSPropertyOp37
 70
     0
102
RTVSPropertyOp38
 70
     0
102
RTVSPropertyOp39
 70
     0
102
RTVSPropertyOp40
 70
     0
102
RTVSPropertyOp41
 70
     0
102
RTVSPropertyOp42
 70
     0
102
RTVSPropertyOp43
 70
     0
102
RTVSPropertyOp44
 70
     0
102
RTVSPropertyOp45
 70
     0
102
RTVSPropertyOp46
 70
     0
102
RTVSPropertyOp47
 70
     0
102
RTVSPropertyOp48
 70
     0
102
RTVSPropertyOp49
 70
     0
102
RTVSPropertyOp50
 70
     0
102
RTVSPropertyOp51
 70
     0
102
RTVSPropertyOp52
 70
     0
102
RTVSPropertyOp53
 70
     0
102
RTVSPropertyOp54
 70
     0
102
RTVSPropertyOp55
 70
     0
102
RTVSPropertyOp56
 70
     0
102
RTVSPropertyOp57
 70
     0
102
RTVSPost2010Prop28
280
     0
102
RTVSPost2010PropOp28
 70
     0
102
RTVSPost2010Prop29
280
     1
102
RTVSPost2010PropOp29
 70
     0
102
RTVSPost2010Prop30
280
     1
102
RTVSPost2010PropOp30
 70
     0
102
RTVSPost2010Prop31
280
     0
102
RTVSPost2010PropOp31
 70
     0
102
RTVSPost2010Prop32
280
     0
102
RTVSPost2010PropOp32
 70
     0
102
RTVSPost2010Prop33
280
     0
102
RTVSPost2010PropOp33
 70
     0
102
RTVSPost2010Prop34
280
     0
102
RTVSPost2010PropOp34
 70
     0
102
RTVSPost2010Prop35
280
     0
102
RTVSPost2010PropOp35
 70
     0
102
RTVSPost2010Prop36
280
     0
102
RTVSPost2010PropOp36
 70
     0
102
RTVSPost2010Prop37
 90
       50
102
RTVSPost2010PropOp37
 70
     0
102
RTVSPost2010Prop38
140
0.0
102
RTVSPost2010PropOp38
 70
     0
102
RTVSPost2010Prop39
140
1.0
102
RTVSPost2010PropOp39
 70
     0
102
RTVSPost2010Prop40
 90
        0
102
RTVSPost2010PropOp40
 70
     0
102
RTVSPost2010Prop41ColorIndex
 90
       18
102
RTVSPost2010Prop41ColorRGB
 90
        0
102
RTVSPost2010PropOp41
 70
     0
102
RTVSPost2010Prop42
 90
       50
102
RTVSPost2010PropOp42
 70
     0
102
RTVSPost2010Prop43
 90
        3
102
RTVSPost2010PropOp43
 70
     0
102
RTVSPost2010Prop44ColorIndex
 90
        5
102
RTVSPost2010Prop44ColorRGB
 90
      255
102
RTVSPost2010PropOp44
 70
     0
102
RTVSPost2010Prop45
280
     0
102
RTVSPost2010PropOp45
 70
     0
102
RTVSPost2010Prop46
 90
       50
102
RTVSPost2010PropOp46
 70
     0
102
RTVSPost2010Prop47
 90
       50
102
RTVSPost2010PropOp47
 70
     0
102
RTVSPost2010Prop48
 90
       50
102
RTVSPost2010PropOp48
 70
     0
102
RTVSPost2010Prop49
280
     0
102
RTVSPost2010PropOp49
 70
     0
102
RTVSPost2010Prop50
 90
       50
102
RTVSPost2010PropOp50
 70
     0
102
RTVSPost2010Prop51ColorIndex
 90
      256
102
RTVSPost2010Prop51ColorRGB
 90
-16777216
102
RTVSPost2010PropOp51
 70
     0
102
RTVSPost2010Prop52
140
1.0
102
RTVSPost2010PropOp52
 70
     0
102
RTVSPost2010Prop53
 90
        2
102
RTVSPost2010PropOp53
 70
     0
102
RTVSPost2010Prop54
  1
strokes_ogs.tif
102
RTVSPost2010PropOp54
 70
     0
102
RTVSPost2010Prop55
280
     0
102
RTVSPost2010PropOp55
 70
     0
102
RTVSPost2010Prop56
140
1.0
102
RTVSPost2010PropOp56
 70
     0
102
RTVSPost2010Prop57
140
1.0
102
RTVSPost2010PropOp57
 70
     0
  0
XRECORD
  5
A8
102
{ACAD_REACTORS
330
A7
102
}
330
A7
100
AcDbXrecord
280
     1
102
RTVSPropertyOp0
 70
     1
102
RTVSPropertyOp1
 70
     1
102
RTVSPropertyOp2
 70
     1
102
RTVSPropertyOp3
 70
     1
102
RTVSPropertyOp4
 70
     1
102
RTVSPropertyOp5
 70
     1
102
RTVSPropertyOp6
 70
     1
102
RTVSPropertyOp7
 70
     1
102
RTVSPropertyOp8
 70
     1
102
RTVSPropertyOp9
 70
     1
102
RTVSPropertyOp10
 70
     1
102
RTVSPropertyOp11
 70
     1
102
RTVSPropertyOp12
 70
     1
102
RTVSPropertyOp13
 70
     1
102
RTVSPropertyOp14
 70
     1
102
RTVSPropertyOp15
 70
     1
102
RTVSPropertyOp16
 70
     1
102
RTVSPropertyOp17
 70
     1
102
RTVSPropertyOp18
 70
     1
102
RTVSPropertyOp19
 70
     1
102
RTVSPropertyOp20
 70
     1
102
RTVSPropertyOp21
 70
     1
102
RTVSPropertyOp22
 70
     1
102
RTVSPropertyOp23
 70
     1
102
RTVSPropertyOp24
 70
     1
102
RTVSPropertyOp25
 70
     1
102
RTVSPropertyOp26
 70
     1
102
RTVSPropertyOp27
 70
     1
102
RTVSPropertyOp28
 70
     1
102
RTVSPropertyOp29
 70
     1
102
RTVSPropertyOp30
 70
     1
102
RTVSPropertyOp31
 70
     1
102
RTVSPropertyOp32
 70
     1
102
RTVSPropertyOp33
 70
     1
102
RTVSPropertyOp34
 70
     1
102
RTVSPropertyOp35
 70
     1
102
RTVSPropertyOp36
 70
     1
102
RTVSPropertyOp37
 70
     1
102
RTVSPropertyOp38
 70
     1
102
RTVSPropertyOp39
 70
     1
102
RTVSPropertyOp40
 70
     1
102
RTVSPropertyOp41
 70
     1
102
RTVSPropertyOp42
 70
     1
102
RTVSPropertyOp43
 70
     1
102
RTVSPropertyOp44
 70
     1
102
RTVSPropertyOp45
 70
     1
102
RTVSPropertyOp46
 70
     1
102
RTVSPropertyOp47
 70
     1
102
RTVSPropertyOp48
 70
     1
102
RTVSPropertyOp49
 70
     1
102
RTVSPropertyOp50
 70
     1
102
RTVSPropertyOp51
 70
     0
102
RTVSPropertyOp52
 70
     0
102
RTVSPropertyOp53
 70
     1
102
RTVSPropertyOp54
 70
     1
102
RTVSPropertyOp55
 70
     1
102
RTVSPropertyOp56
 70
     1
102
RTVSPropertyOp57
 70
     1
102
RTVSPost2010Prop28
280
     0
102
RTVSPost2010PropOp28
 70
     1
102
RTVSPost2010Prop29
280
     1
102
RTVSPost2010PropOp29
 70
     1
102
RTVSPost2010Prop30
280
     1
102
RTVSPost2010PropOp30
 70
     1
102
RTVSPost2010Prop31
280
     0
102
RTVSPost2010PropOp31
 70
     1
102
RTVSPost2010Prop32
280
     0
102
RTVSPost2010PropOp32
 70
     1
102
RTVSPost2010Prop33
280
     0
102
RTVSPost2010PropOp33
 70
     1
102
RTVSPost2010Prop34
280
     0
102
RTVSPost2010PropOp34
 70
     1
102
RTVSPost2010Prop35
280
     0
102
RTVSPost2010PropOp35
 70
     1
102
RTVSPost2010Prop36
280
     0
102
RTVSPost2010PropOp36
 70
     1
102
RTVSPost2010Prop37
 90
       50
102
RTVSPost2010PropOp37
 70
     1
102
RTVSPost2010Prop38
140
0.0
102
RTVSPost2010PropOp38
 70
     1
102
RTVSPost2010Prop39
140
1.0
102
RTVSPost2010PropOp39
 70
     1
102
RTVSPost2010Prop40
 90
        0
102
RTVSPost2010PropOp40
 70
     1
102
RTVSPost2010Prop41ColorIndex
 90
       18
102
RTVSPost2010Prop41ColorRGB
 90
        0
102
RTVSPost2010PropOp41
 70
     1
102
RTVSPost2010Prop42
 90
       50
102
RTVSPost2010PropOp42
 70
     1
102
RTVSPost2010Prop43
 90
        3
102
RTVSPost2010PropOp43
 70
     1
102
RTVSPost2010Prop44ColorIndex
 90
        5
102
RTVSPost2010Prop44ColorRGB
 90
      255
102
RTVSPost2010PropOp44
 70
     1
102
RTVSPost2010Prop45
280
     0
102
RTVSPost2010PropOp45
 70
     1
102
RTVSPost2010Prop46
 90
       50
102
RTVSPost2010PropOp46
 70
     1
102
RTVSPost2010Prop47
 90
       50
102
RTVSPost2010PropOp47
 70
     1
102
RTVSPost2010Prop48
 90
       50
102
RTVSPost2010PropOp48
 70
     1
102
RTVSPost2010Prop49
280
     0
102
RTVSPost2010PropOp49
 70
     1
102
RTVSPost2010Prop50
 90
       50
102
RTVSPost2010PropOp50
 70
     1
102
RTVSPost2010Prop51ColorIndex
 90
      256
102
RTVSPost2010Prop51ColorRGB
 90
-16777216
102
RTVSPost2010PropOp51
 70
     0
102
RTVSPost2010Prop52
140
1.0
102
RTVSPost2010PropOp52
 70
     0
102
RTVSPost2010Prop53
 90
        2
102
RTVSPost2010PropOp53
 70
     1
102
RTVSPost2010Prop54
  1
strokes_ogs.tif
102
RTVSPost2010PropOp54
 70
     1
102
RTVSPost2010Prop55
280
     0
102
RTVSPost2010PropOp55
 70
     1
102
RTVSPost2010Prop56
140
1.0
102
RTVSPost2010PropOp56
 70
     1
102
RTVSPost2010Prop57
140
1.0
102
RTVSPost2010PropOp57
 70
     1
  0
XRECORD
  5
C6
102
{ACAD_REACTORS
330
C5
102
}
330
C5
100
AcDbXrecord
280
     1
102
RTVSPropertyOp0
 70
     1
102
RTVSPropertyOp1
 70
     1
102
RTVSPropertyOp2
 70
     1
102
RTVSPropertyOp3
 70
     1
102
RTVSPropertyOp4
 70
     1
102
RTVSPropertyOp5
 70
     1
102
RTVSPropertyOp6
 70
     1
102
RTVSPropertyOp7
 70
     1
102
RTVSPropertyOp8
 70
     1
102
RTVSPropertyOp9
 70
     1
102
RTVSPropertyOp10
 70
     1
102
RTVSPropertyOp11
 70
     1
102
RTVSPropertyOp12
 70
     1
102
RTVSPropertyOp13
 70
     1
102
RTVSPropertyOp14
 70
     1
102
RTVSPropertyOp15
 70
     1
102
RTVSPropertyOp16
 70
     1
102
RTVSPropertyOp17
 70
     1
102
RTVSPropertyOp18
 70
     1
102
RTVSPropertyOp19
 70
     1
102
RTVSPropertyOp20
 70
     1
102
RTVSPropertyOp21
 70
     1
102
RTVSPropertyOp22
 70
     1
102
RTVSPropertyOp23
 70
     1
102
RTVSPropertyOp24
 70
     1
102
RTVSPropertyOp25
 70
     1
102
RTVSPropertyOp26
 70
     1
102
RTVSPropertyOp27
 70
     1
102
RTVSPropertyOp28
 70
     1
102
RTVSPropertyOp29
 70
     1
102
RTVSPropertyOp30
 70
     1
102
RTVSPropertyOp31
 70
     1
102
RTVSPropertyOp32
 70
     1
102
RTVSPropertyOp33
 70
     1
102
RTVSPropertyOp34
 70
     1
102
RTVSPropertyOp35
 70
     1
102
RTVSPropertyOp36
 70
     1
102
RTVSPropertyOp37
 70
     1
102
RTVSPropertyOp38
 70
     1
102
RTVSPropertyOp39
 70
     1
102
RTVSPropertyOp40
 70
     1
102
RTVSPropertyOp41
 70
     1
102
RTVSPropertyOp42
 70
     1
102
RTVSPropertyOp43
 70
     1
102
RTVSPropertyOp44
 70
     1
102
RTVSPropertyOp45
 70
     1
102
RTVSPropertyOp46
 70
     1
102
RTVSPropertyOp47
 70
     1
102
RTVSPropertyOp48
 70
     1
102
RTVSPropertyOp49
 70
     1
102
RTVSPropertyOp50
 70
     1
102
RTVSPropertyOp51
 70
     0
102
RTVSPropertyOp52
 70
     0
102
RTVSPropertyOp53
 70
     1
102
RTVSPropertyOp54
 70
     1
102
RTVSPropertyOp55
 70
     1
102
RTVSPropertyOp56
 70
     1
102
RTVSPropertyOp57
 70
     1
102
RTVSPost2010Prop28
280
     0
102
RTVSPost2010PropOp28
 70
     1
102
RTVSPost2010Prop29
280
     1
102
RTVSPost2010PropOp29
 70
     1
102
RTVSPost2010Prop30
280
     1
102
RTVSPost2010PropOp30
 70
     1
102
RTVSPost2010Prop31
280
     0
102
RTVSPost2010PropOp31
 70
     1
102
RTVSPost2010Prop32
280
     0
102
RTVSPost2010PropOp32
 70
     1
102
RTVSPost2010Prop33
280
     0
102
RTVSPost2010PropOp33
 70
     1
102
RTVSPost2010Prop34
280
     0
102
RTVSPost2010PropOp34
 70
     1
102
RTVSPost2010Prop35
280
     0
102
RTVSPost2010PropOp35
 70
     1
102
RTVSPost2010Prop36
280
     0
102
RTVSPost2010PropOp36
 70
     1
102
RTVSPost2010Prop37
 90
       50
102
RTVSPost2010PropOp37
 70
     1
102
RTVSPost2010Prop38
140
0.0
102
RTVSPost2010PropOp38
 70
     1
102
RTVSPost2010Prop39
140
1.0
102
RTVSPost2010PropOp39
 70
     1
102
RTVSPost2010Prop40
 90
        0
102
RTVSPost2010PropOp40
 70
     1
102
RTVSPost2010Prop41ColorIndex
 90
       18
102
RTVSPost2010Prop41ColorRGB
 90
        0
102
RTVSPost2010PropOp41
 70
     1
102
RTVSPost2010Prop42
 90
       50
102
RTVSPost2010PropOp42
 70
     1
102
RTVSPost2010Prop43
 90
        3
102
RTVSPost2010PropOp43
 70
     1
102
RTVSPost2010Prop44ColorIndex
 90
        5
102
RTVSPost2010Prop44ColorRGB
 90
      255
102
RTVSPost2010PropOp44
 70
     1
102
RTVSPost2010Prop45
280
     0
102
RTVSPost2010PropOp45
 70
     1
102
RTVSPost2010Prop46
 90
       50
102
RTVSPost2010PropOp46
 70
     1
102
RTVSPost2010Prop47
 90
       50
102
RTVSPost2010PropOp47
 70
     1
102
RTVSPost2010Prop48
 90
       50
102
RTVSPost2010PropOp48
 70
     1
102
RTVSPost2010Prop49
280
     0
102
RTVSPost2010PropOp49
 70
     1
102
RTVSPost2010Prop50
 90
       50
102
RTVSPost2010PropOp50
 70
     1
102
RTVSPost2010Prop51ColorIndex
 90
      256
102
RTVSPost2010Prop51ColorRGB
 90
-16777216
102
RTVSPost2010PropOp51
 70
     0
102
RTVSPost2010Prop52
140
1.0
102
RTVSPost2010PropOp52
 70
     0
102
RTVSPost2010Prop53
 90
        2
102
RTVSPost2010PropOp53
 70
     1
102
RTVSPost2010Prop54
  1
strokes_ogs.tif
102
RTVSPost2010PropOp54
 70
     1
102
RTVSPost2010Prop55
280
     0
102
RTVSPost2010PropOp55
 70
     1
102
RTVSPost2010Prop56
140
1.0
102
RTVSPost2010PropOp56
 70
     1
102
RTVSPost2010Prop57
140
1.0
102
RTVSPost2010PropOp57
 70
     1
  0
XRECORD
  5
C4
102
{ACAD_REACTORS
330
C3
102
}
330
C3
100
AcDbXrecord
280
     1
102
RTVSPropertyOp0
 70
     1
102
RTVSPropertyOp1
 70
     1
102
RTVSPropertyOp2
 70
     1
102
RTVSPropertyOp3
 70
     1
102
RTVSPropertyOp4
 70
     1
102
RTVSPropertyOp5
 70
     1
102
RTVSPropertyOp6
 70
     1
102
RTVSPropertyOp7
 70
     1
102
RTVSPropertyOp8
 70
     1
102
RTVSPropertyOp9
 70
     1
102
RTVSPropertyOp10
 70
     1
102
RTVSPropertyOp11
 70
     1
102
RTVSPropertyOp12
 70
     1
102
RTVSPropertyOp13
 70
     1
102
RTVSPropertyOp14
 70
     1
102
RTVSPropertyOp15
 70
     1
102
RTVSPropertyOp16
 70
     1
102
RTVSPropertyOp17
 70
     1
102
RTVSPropertyOp18
 70
     1
102
RTVSPropertyOp19
 70
     1
102
RTVSPropertyOp20
 70
     1
102
RTVSPropertyOp21
 70
     1
102
RTVSPropertyOp22
 70
     1
102
RTVSPropertyOp23
 70
     1
102
RTVSPropertyOp24
 70
     1
102
RTVSPropertyOp25
 70
     1
102
RTVSPropertyOp26
 70
     1
102
RTVSPropertyOp27
 70
     1
102
RTVSPropertyOp28
 70
     1
102
RTVSPropertyOp29
 70
     1
102
RTVSPropertyOp30
 70
     1
102
RTVSPropertyOp31
 70
     1
102
RTVSPropertyOp32
 70
     1
102
RTVSPropertyOp33
 70
     1
102
RTVSPropertyOp34
 70
     1
102
RTVSPropertyOp35
 70
     1
102
RTVSPropertyOp36
 70
     1
102
RTVSPropertyOp37
 70
     1
102
RTVSPropertyOp38
 70
     1
102
RTVSPropertyOp39
 70
     1
102
RTVSPropertyOp40
 70
     1
102
RTVSPropertyOp41
 70
     1
102
RTVSPropertyOp42
 70
     1
102
RTVSPropertyOp43
 70
     1
102
RTVSPropertyOp44
 70
     1
102
RTVSPropertyOp45
 70
     1
102
RTVSPropertyOp46
 70
     1
102
RTVSPropertyOp47
 70
     1
102
RTVSPropertyOp48
 70
     1
102
RTVSPropertyOp49
 70
     1
102
RTVSPropertyOp50
 70
     1
102
RTVSPropertyOp51
 70
     0
102
RTVSPropertyOp52
 70
     0
102
RTVSPropertyOp53
 70
     1
102
RTVSPropertyOp54
 70
     1
102
RTVSPropertyOp55
 70
     1
102
RTVSPropertyOp56
 70
     1
102
RTVSPropertyOp57
 70
     1
102
RTVSPost2010Prop28
280
     0
102
RTVSPost2010PropOp28
 70
     1
102
RTVSPost2010Prop29
280
     1
102
RTVSPost2010PropOp29
 70
     1
102
RTVSPost2010Prop30
280
     1
102
RTVSPost2010PropOp30
 70
     1
102
RTVSPost2010Prop31
280
     0
102
RTVSPost2010PropOp31
 70
     1
102
RTVSPost2010Prop32
280
     0
102
RTVSPost2010PropOp32
 70
     1
102
RTVSPost2010Prop33
280
     0
102
RTVSPost2010PropOp33
 70
     1
102
RTVSPost2010Prop34
280
     0
102
RTVSPost2010PropOp34
 70
     1
102
RTVSPost2010Prop35
280
     0
102
RTVSPost2010PropOp35
 70
     1
102
RTVSPost2010Prop36
280
     0
102
RTVSPost2010PropOp36
 70
     1
102
RTVSPost2010Prop37
 90
       50
102
RTVSPost2010PropOp37
 70
     1
102
RTVSPost2010Prop38
140
0.0
102
RTVSPost2010PropOp38
 70
     1
102
RTVSPost2010Prop39
140
1.0
102
RTVSPost2010PropOp39
 70
     1
102
RTVSPost2010Prop40
 90
        0
102
RTVSPost2010PropOp40
 70
     1
102
RTVSPost2010Prop41ColorIndex
 90
       18
102
RTVSPost2010Prop41ColorRGB
 90
        0
102
RTVSPost2010PropOp41
 70
     1
102
RTVSPost2010Prop42
 90
       50
102
RTVSPost2010PropOp42
 70
     1
102
RTVSPost2010Prop43
 90
        3
102
RTVSPost2010PropOp43
 70
     1
102
RTVSPost2010Prop44ColorIndex
 90
        5
102
RTVSPost2010Prop44ColorRGB
 90
      255
102
RTVSPost2010PropOp44
 70
     1
102
RTVSPost2010Prop45
280
     0
102
RTVSPost2010PropOp45
 70
     1
102
RTVSPost2010Prop46
 90
       50
102
RTVSPost2010PropOp46
 70
     1
102
RTVSPost2010Prop47
 90
       50
102
RTVSPost2010PropOp47
 70
     1
102
RTVSPost2010Prop48
 90
       50
102
RTVSPost2010PropOp48
 70
     1
102
RTVSPost2010Prop49
280
     0
102
RTVSPost2010PropOp49
 70
     1
102
RTVSPost2010Prop50
 90
       50
102
RTVSPost2010PropOp50
 70
     1
102
RTVSPost2010Prop51ColorIndex
 90
      256
102
RTVSPost2010Prop51ColorRGB
 90
-16777216
102
RTVSPost2010PropOp51
 70
     0
102
RTVSPost2010Prop52
140
1.0
102
RTVSPost2010PropOp52
 70
     0
102
RTVSPost2010Prop53
 90
        2
102
RTVSPost2010PropOp53
 70
     1
102
RTVSPost2010Prop54
  1
strokes_ogs.tif
102
RTVSPost2010PropOp54
 70
     1
102
RTVSPost2010Prop55
280
     0
102
RTVSPost2010PropOp55
 70
     1
102
RTVSPost2010Prop56
140
1.0
102
RTVSPost2010PropOp56
 70
     1
102
RTVSPost2010Prop57
140
1.0
102
RTVSPost2010PropOp57
 70
     1
  0
XRECORD
  5
BE
102
{ACAD_REACTORS
330
BD
102
}
330
BD
100
AcDbXrecord
280
     1
102
RTVSPropertyOp0
 70
     1
102
RTVSPropertyOp1
 70
     1
102
RTVSPropertyOp2
 70
     1
102
RTVSPropertyOp3
 70
     1
102
RTVSPropertyOp4
 70
     1
102
RTVSPropertyOp5
 70
     1
102
RTVSPropertyOp6
 70
     1
102
RTVSPropertyOp7
 70
     1
102
RTVSPropertyOp8
 70
     1
102
RTVSPropertyOp9
 70
     1
102
RTVSPropertyOp10
 70
     1
102
RTVSPropertyOp11
 70
     1
102
RTVSPropertyOp12
 70
     1
102
RTVSPropertyOp13
 70
     1
102
RTVSPropertyOp14
 70
     1
102
RTVSPropertyOp15
 70
     1
102
RTVSPropertyOp16
 70
     1
102
RTVSPropertyOp17
 70
     1
102
RTVSPropertyOp18
 70
     1
102
RTVSPropertyOp19
 70
     1
102
RTVSPropertyOp20
 70
     1
102
RTVSPropertyOp21
 70
     1
102
RTVSPropertyOp22
 70
     1
102
RTVSPropertyOp23
 70
     1
102
RTVSPropertyOp24
 70
     1
102
RTVSPropertyOp25
 70
     1
102
RTVSPropertyOp26
 70
     1
102
RTVSPropertyOp27
 70
     1
102
RTVSPropertyOp28
 70
     1
102
RTVSPropertyOp29
 70
     1
102
RTVSPropertyOp30
 70
     1
102
RTVSPropertyOp31
 70
     1
102
RTVSPropertyOp32
 70
     1
102
RTVSPropertyOp33
 70
     1
102
RTVSPropertyOp34
 70
     1
102
RTVSPropertyOp35
 70
     1
102
RTVSPropertyOp36
 70
     1
102
RTVSPropertyOp37
 70
     1
102
RTVSPropertyOp38
 70
     1
102
RTVSPropertyOp39
 70
     1
102
RTVSPropertyOp40
 70
     1
102
RTVSPropertyOp41
 70
     1
102
RTVSPropertyOp42
 70
     1
102
RTVSPropertyOp43
 70
     1
102
RTVSPropertyOp44
 70
     1
102
RTVSPropertyOp45
 70
     1
102
RTVSPropertyOp46
 70
     1
102
RTVSPropertyOp47
 70
     1
102
RTVSPropertyOp48
 70
     1
102
RTVSPropertyOp49
 70
     1
102
RTVSPropertyOp50
 70
     1
102
RTVSPropertyOp51
 70
     0
102
RTVSPropertyOp52
 70
     0
102
RTVSPropertyOp53
 70
     1
102
RTVSPropertyOp54
 70
     1
102
RTVSPropertyOp55
 70
     1
102
RTVSPropertyOp56
 70
     1
102
RTVSPropertyOp57
 70
     1
102
RTVSPost2010Prop28
280
     0
102
RTVSPost2010PropOp28
 70
     1
102
RTVSPost2010Prop29
280
     1
102
RTVSPost2010PropOp29
 70
     1
102
RTVSPost2010Prop30
280
     1
102
RTVSPost2010PropOp30
 70
     1
102
RTVSPost2010Prop31
280
     0
102
RTVSPost2010PropOp31
 70
     1
102
RTVSPost2010Prop32
280
     0
102
RTVSPost2010PropOp32
 70
     1
102
RTVSPost2010Prop33
280
     0
102
RTVSPost2010PropOp33
 70
     1
102
RTVSPost2010Prop34
280
     0
102
RTVSPost2010PropOp34
 70
     1
102
RTVSPost2010Prop35
280
     0
102
RTVSPost2010PropOp35
 70
     1
102
RTVSPost2010Prop36
280
     0
102
RTVSPost2010PropOp36
 70
     1
102
RTVSPost2010Prop37
 90
       50
102
RTVSPost2010PropOp37
 70
     1
102
RTVSPost2010Prop38
140
0.0
102
RTVSPost2010PropOp38
 70
     1
102
RTVSPost2010Prop39
140
1.0
102
RTVSPost2010PropOp39
 70
     1
102
RTVSPost2010Prop40
 90
        0
102
RTVSPost2010PropOp40
 70
     1
102
RTVSPost2010Prop41ColorIndex
 90
       18
102
RTVSPost2010Prop41ColorRGB
 90
        0
102
RTVSPost2010PropOp41
 70
     1
102
RTVSPost2010Prop42
 90
       50
102
RTVSPost2010PropOp42
 70
     1
102
RTVSPost2010Prop43
 90
        3
102
RTVSPost2010PropOp43
 70
     1
102
RTVSPost2010Prop44ColorIndex
 90
        5
102
RTVSPost2010Prop44ColorRGB
 90
      255
102
RTVSPost2010PropOp44
 70
     1
102
RTVSPost2010Prop45
280
     0
102
RTVSPost2010PropOp45
 70
     1
102
RTVSPost2010Prop46
 90
       50
102
RTVSPost2010PropOp46
 70
     1
102
RTVSPost2010Prop47
 90
       50
102
RTVSPost2010PropOp47
 70
     1
102
RTVSPost2010Prop48
 90
       50
102
RTVSPost2010PropOp48
 70
     1
102
RTVSPost2010Prop49
280
     0
102
RTVSPost2010PropOp49
 70
     1
102
RTVSPost2010Prop50
 90
       50
102
RTVSPost2010PropOp50
 70
     1
102
RTVSPost2010Prop51ColorIndex
 90
      256
102
RTVSPost2010Prop51ColorRGB
 90
-16777216
102
RTVSPost2010PropOp51
 70
     0
102
RTVSPost2010Prop52
140
1.0
102
RTVSPost2010PropOp52
 70
     0
102
RTVSPost2010Prop53
 90
        2
102
RTVSPost2010PropOp53
 70
     1
102
RTVSPost2010Prop54
  1
strokes_ogs.tif
102
RTVSPost2010PropOp54
 70
     1
102
RTVSPost2010Prop55
280
     0
102
RTVSPost2010PropOp55
 70
     1
102
RTVSPost2010Prop56
140
1.0
102
RTVSPost2010PropOp56
 70
     1
102
RTVSPost2010Prop57
140
1.0
102
RTVSPost2010PropOp57
 70
     1
  0
XRECORD
  5
C0
102
{ACAD_REACTORS
330
BF
102
}
330
BF
100
AcDbXrecord
280
     1
102
RTVSPropertyOp0
 70
     1
102
RTVSPropertyOp1
 70
     1
102
RTVSPropertyOp2
 70
     1
102
RTVSPropertyOp3
 70
     1
102
RTVSPropertyOp4
 70
     1
102
RTVSPropertyOp5
 70
     1
102
RTVSPropertyOp6
 70
     1
102
RTVSPropertyOp7
 70
     1
102
RTVSPropertyOp8
 70
     1
102
RTVSPropertyOp9
 70
     1
102
RTVSPropertyOp10
 70
     1
102
RTVSPropertyOp11
 70
     1
102
RTVSPropertyOp12
 70
     1
102
RTVSPropertyOp13
 70
     1
102
RTVSPropertyOp14
 70
     1
102
RTVSPropertyOp15
 70
     1
102
RTVSPropertyOp16
 70
     1
102
RTVSPropertyOp17
 70
     1
102
RTVSPropertyOp18
 70
     1
102
RTVSPropertyOp19
 70
     1
102
RTVSPropertyOp20
 70
     1
102
RTVSPropertyOp21
 70
     1
102
RTVSPropertyOp22
 70
     1
102
RTVSPropertyOp23
 70
     1
102
RTVSPropertyOp24
 70
     1
102
RTVSPropertyOp25
 70
     1
102
RTVSPropertyOp26
 70
     1
102
RTVSPropertyOp27
 70
     1
102
RTVSPropertyOp28
 70
     1
102
RTVSPropertyOp29
 70
     1
102
RTVSPropertyOp30
 70
     1
102
RTVSPropertyOp31
 70
     1
102
RTVSPropertyOp32
 70
     1
102
RTVSPropertyOp33
 70
     1
102
RTVSPropertyOp34
 70
     1
102
RTVSPropertyOp35
 70
     1
102
RTVSPropertyOp36
 70
     1
102
RTVSPropertyOp37
 70
     1
102
RTVSPropertyOp38
 70
     1
102
RTVSPropertyOp39
 70
     1
102
RTVSPropertyOp40
 70
     1
102
RTVSPropertyOp41
 70
     1
102
RTVSPropertyOp42
 70
     1
102
RTVSPropertyOp43
 70
     1
102
RTVSPropertyOp44
 70
     1
102
RTVSPropertyOp45
 70
     1
102
RTVSPropertyOp46
 70
     1
102
RTVSPropertyOp47
 70
     1
102
RTVSPropertyOp48
 70
     1
102
RTVSPropertyOp49
 70
     1
102
RTVSPropertyOp50
 70
     1
102
RTVSPropertyOp51
 70
     0
102
RTVSPropertyOp52
 70
     0
102
RTVSPropertyOp53
 70
     1
102
RTVSPropertyOp54
 70
     1
102
RTVSPropertyOp55
 70
     1
102
RTVSPropertyOp56
 70
     1
102
RTVSPropertyOp57
 70
     1
102
RTVSPost2010Prop28
280
     0
102
RTVSPost2010PropOp28
 70
     1
102
RTVSPost2010Prop29
280
     1
102
RTVSPost2010PropOp29
 70
     1
102
RTVSPost2010Prop30
280
     1
102
RTVSPost2010PropOp30
 70
     1
102
RTVSPost2010Prop31
280
     0
102
RTVSPost2010PropOp31
 70
     1
102
RTVSPost2010Prop32
280
     0
102
RTVSPost2010PropOp32
 70
     1
102
RTVSPost2010Prop33
280
     0
102
RTVSPost2010PropOp33
 70
     1
102
RTVSPost2010Prop34
280
     0
102
RTVSPost2010PropOp34
 70
     1
102
RTVSPost2010Prop35
280
     0
102
RTVSPost2010PropOp35
 70
     1
102
RTVSPost2010Prop36
280
     0
102
RTVSPost2010PropOp36
 70
     1
102
RTVSPost2010Prop37
 90
       50
102
RTVSPost2010PropOp37
 70
     1
102
RTVSPost2010Prop38
140
0.0
102
RTVSPost2010PropOp38
 70
     1
102
RTVSPost2010Prop39
140
1.0
102
RTVSPost2010PropOp39
 70
     1
102
RTVSPost2010Prop40
 90
        0
102
RTVSPost2010PropOp40
 70
     1
102
RTVSPost2010Prop41ColorIndex
 90
       18
102
RTVSPost2010Prop41ColorRGB
 90
        0
102
RTVSPost2010PropOp41
 70
     1
102
RTVSPost2010Prop42
 90
       50
102
RTVSPost2010PropOp42
 70
     1
102
RTVSPost2010Prop43
 90
        3
102
RTVSPost2010PropOp43
 70
     1
102
RTVSPost2010Prop44ColorIndex
 90
        5
102
RTVSPost2010Prop44ColorRGB
 90
      255
102
RTVSPost2010PropOp44
 70
     1
102
RTVSPost2010Prop45
280
     0
102
RTVSPost2010PropOp45
 70
     1
102
RTVSPost2010Prop46
 90
       50
102
RTVSPost2010PropOp46
 70
     1
102
RTVSPost2010Prop47
 90
       50
102
RTVSPost2010PropOp47
 70
     1
102
RTVSPost2010Prop48
 90
       50
102
RTVSPost2010PropOp48
 70
     1
102
RTVSPost2010Prop49
280
     0
102
RTVSPost2010PropOp49
 70
     1
102
RTVSPost2010Prop50
 90
       50
102
RTVSPost2010PropOp50
 70
     1
102
RTVSPost2010Prop51ColorIndex
 90
      256
102
RTVSPost2010Prop51ColorRGB
 90
-16777216
102
RTVSPost2010PropOp51
 70
     0
102
RTVSPost2010Prop52
140
1.0
102
RTVSPost2010PropOp52
 70
     0
102
RTVSPost2010Prop53
 90
        2
102
RTVSPost2010PropOp53
 70
     1
102
RTVSPost2010Prop54
  1
strokes_ogs.tif
102
RTVSPost2010PropOp54
 70
     1
102
RTVSPost2010Prop55
280
     0
102
RTVSPost2010PropOp55
 70
     1
102
RTVSPost2010Prop56
140
1.0
102
RTVSPost2010PropOp56
 70
     1
102
RTVSPost2010Prop57
140
1.0
102
RTVSPost2010PropOp57
 70
     1
  0
XRECORD
  5
B0
102
{ACAD_REACTORS
330
AF
102
}
330
AF
100
AcDbXrecord
280
     1
102
RTVSPropertyOp0
 70
     1
102
RTVSPropertyOp1
 70
     1
102
RTVSPropertyOp2
 70
     1
102
RTVSPropertyOp3
 70
     1
102
RTVSPropertyOp4
 70
     1
102
RTVSPropertyOp5
 70
     1
102
RTVSPropertyOp6
 70
     1
102
RTVSPropertyOp7
 70
     1
102
RTVSPropertyOp8
 70
     1
102
RTVSPropertyOp9
 70
     1
102
RTVSPropertyOp10
 70
     1
102
RTVSPropertyOp11
 70
     1
102
RTVSPropertyOp12
 70
     1
102
RTVSPropertyOp13
 70
     1
102
RTVSPropertyOp14
 70
     1
102
RTVSPropertyOp15
 70
     1
102
RTVSPropertyOp16
 70
     1
102
RTVSPropertyOp17
 70
     1
102
RTVSPropertyOp18
 70
     1
102
RTVSPropertyOp19
 70
     1
102
RTVSPropertyOp20
 70
     1
102
RTVSPropertyOp21
 70
     1
102
RTVSPropertyOp22
 70
     1
102
RTVSPropertyOp23
 70
     1
102
RTVSPropertyOp24
 70
     1
102
RTVSPropertyOp25
 70
     1
102
RTVSPropertyOp26
 70
     1
102
RTVSPropertyOp27
 70
     1
102
RTVSPropertyOp28
 70
     1
102
RTVSPropertyOp29
 70
     1
102
RTVSPropertyOp30
 70
     1
102
RTVSPropertyOp31
 70
     1
102
RTVSPropertyOp32
 70
     1
102
RTVSPropertyOp33
 70
     1
102
RTVSPropertyOp34
 70
     1
102
RTVSPropertyOp35
 70
     1
102
RTVSPropertyOp36
 70
     1
102
RTVSPropertyOp37
 70
     1
102
RTVSPropertyOp38
 70
     1
102
RTVSPropertyOp39
 70
     1
102
RTVSPropertyOp40
 70
     1
102
RTVSPropertyOp41
 70
     1
102
RTVSPropertyOp42
 70
     1
102
RTVSPropertyOp43
 70
     1
102
RTVSPropertyOp44
 70
     1
102
RTVSPropertyOp45
 70
     1
102
RTVSPropertyOp46
 70
     1
102
RTVSPropertyOp47
 70
     1
102
RTVSPropertyOp48
 70
     1
102
RTVSPropertyOp49
 70
     1
102
RTVSPropertyOp50
 70
     1
102
RTVSPropertyOp51
 70
     0
102
RTVSPropertyOp52
 70
     0
102
RTVSPropertyOp53
 70
     1
102
RTVSPropertyOp54
 70
     1
102
RTVSPropertyOp55
 70
     1
102
RTVSPropertyOp56
 70
     1
102
RTVSPropertyOp57
 70
     1
102
RTVSPost2010Prop28
280
     0
102
RTVSPost2010PropOp28
 70
     1
102
RTVSPost2010Prop29
280
     1
102
RTVSPost2010PropOp29
 70
     1
102
RTVSPost2010Prop30
280
     1
102
RTVSPost2010PropOp30
 70
     1
102
RTVSPost2010Prop31
280
     0
102
RTVSPost2010PropOp31
 70
     1
102
RTVSPost2010Prop32
280
     0
102
RTVSPost2010PropOp32
 70
     1
102
RTVSPost2010Prop33
280
     0
102
RTVSPost2010PropOp33
 70
     1
102
RTVSPost2010Prop34
280
     0
102
RTVSPost2010PropOp34
 70
     1
102
RTVSPost2010Prop35
280
     0
102
RTVSPost2010PropOp35
 70
     1
102
RTVSPost2010Prop36
280
     0
102
RTVSPost2010PropOp36
 70
     1
102
RTVSPost2010Prop37
 90
       50
102
RTVSPost2010PropOp37
 70
     1
102
RTVSPost2010Prop38
140
0.0
102
RTVSPost2010PropOp38
 70
     1
102
RTVSPost2010Prop39
140
1.0
102
RTVSPost2010PropOp39
 70
     1
102
RTVSPost2010Prop40
 90
        0
102
RTVSPost2010PropOp40
 70
     1
102
RTVSPost2010Prop41ColorIndex
 90
       18
102
RTVSPost2010Prop41ColorRGB
 90
        0
102
RTVSPost2010PropOp41
 70
     1
102
RTVSPost2010Prop42
 90
       50
102
RTVSPost2010PropOp42
 70
     1
102
RTVSPost2010Prop43
 90
        3
102
RTVSPost2010PropOp43
 70
     1
102
RTVSPost2010Prop44ColorIndex
 90
        5
102
RTVSPost2010Prop44ColorRGB
 90
      255
102
RTVSPost2010PropOp44
 70
     1
102
RTVSPost2010Prop45
280
     0
102
RTVSPost2010PropOp45
 70
     1
102
RTVSPost2010Prop46
 90
       50
102
RTVSPost2010PropOp46
 70
     1
102
RTVSPost2010Prop47
 90
       50
102
RTVSPost2010PropOp47
 70
     1
102
RTVSPost2010Prop48
 90
       50
102
RTVSPost2010PropOp48
 70
     1
102
RTVSPost2010Prop49
280
     0
102
RTVSPost2010PropOp49
 70
     1
102
RTVSPost2010Prop50
 90
       50
102
RTVSPost2010PropOp50
 70
     1
102
RTVSPost2010Prop51ColorIndex
 90
      256
102
RTVSPost2010Prop51ColorRGB
 90
-16777216
102
RTVSPost2010PropOp51
 70
     0
102
RTVSPost2010Prop52
140
1.0
102
RTVSPost2010PropOp52
 70
     0
102
RTVSPost2010Prop53
 90
        2
102
RTVSPost2010PropOp53
 70
     1
102
RTVSPost2010Prop54
  1
strokes_ogs.tif
102
RTVSPost2010PropOp54
 70
     1
102
RTVSPost2010Prop55
280
     0
102
RTVSPost2010PropOp55
 70
     1
102
RTVSPost2010Prop56
140
1.0
102
RTVSPost2010PropOp56
 70
     1
102
RTVSPost2010Prop57
140
1.0
102
RTVSPost2010PropOp57
 70
     1
  0
XRECORD
  5
A2
102
{ACAD_REACTORS
330
A1
102
}
330
A1
100
AcDbXrecord
280
     1
102
RTVSPropertyOp0
 70
     1
102
RTVSPropertyOp1
 70
     1
102
RTVSPropertyOp2
 70
     1
102
RTVSPropertyOp3
 70
     1
102
RTVSPropertyOp4
 70
     1
102
RTVSPropertyOp5
 70
     1
102
RTVSPropertyOp6
 70
     1
102
RTVSPropertyOp7
 70
     1
102
RTVSPropertyOp8
 70
     1
102
RTVSPropertyOp9
 70
     1
102
RTVSPropertyOp10
 70
     1
102
RTVSPropertyOp11
 70
     1
102
RTVSPropertyOp12
 70
     1
102
RTVSPropertyOp13
 70
     1
102
RTVSPropertyOp14
 70
     1
102
RTVSPropertyOp15
 70
     1
102
RTVSPropertyOp16
 70
     1
102
RTVSPropertyOp17
 70
     1
102
RTVSPropertyOp18
 70
     1
102
RTVSPropertyOp19
 70
     1
102
RTVSPropertyOp20
 70
     1
102
RTVSPropertyOp21
 70
     1
102
RTVSPropertyOp22
 70
     1
102
RTVSPropertyOp23
 70
     1
102
RTVSPropertyOp24
 70
     1
102
RTVSPropertyOp25
 70
     1
102
RTVSPropertyOp26
 70
     1
102
RTVSPropertyOp27
 70
     1
102
RTVSPropertyOp28
 70
     1
102
RTVSPropertyOp29
 70
     1
102
RTVSPropertyOp30
 70
     1
102
RTVSPropertyOp31
 70
     1
102
RTVSPropertyOp32
 70
     1
102
RTVSPropertyOp33
 70
     1
102
RTVSPropertyOp34
 70
     1
102
RTVSPropertyOp35
 70
     1
102
RTVSPropertyOp36
 70
     1
102
RTVSPropertyOp37
 70
     1
102
RTVSPropertyOp38
 70
     1
102
RTVSPropertyOp39
 70
     1
102
RTVSPropertyOp40
 70
     1
102
RTVSPropertyOp41
 70
     1
102
RTVSPropertyOp42
 70
     1
102
RTVSPropertyOp43
 70
     1
102
RTVSPropertyOp44
 70
     1
102
RTVSPropertyOp45
 70
     1
102
RTVSPropertyOp46
 70
     1
102
RTVSPropertyOp47
 70
     1
102
RTVSPropertyOp48
 70
     1
102
RTVSPropertyOp49
 70
     1
102
RTVSPropertyOp50
 70
     1
102
RTVSPropertyOp51
 70
     0
102
RTVSPropertyOp52
 70
     0
102
RTVSPropertyOp53
 70
     1
102
RTVSPropertyOp54
 70
     1
102
RTVSPropertyOp55
 70
     1
102
RTVSPropertyOp56
 70
     1
102
RTVSPropertyOp57
 70
     1
102
RTVSPost2010Prop28
280
     0
102
RTVSPost2010PropOp28
 70
     1
102
RTVSPost2010Prop29
280
     1
102
RTVSPost2010PropOp29
 70
     1
102
RTVSPost2010Prop30
280
     1
102
RTVSPost2010PropOp30
 70
     1
102
RTVSPost2010Prop31
280
     0
102
RTVSPost2010PropOp31
 70
     1
102
RTVSPost2010Prop32
280
     0
102
RTVSPost2010PropOp32
 70
     1
102
RTVSPost2010Prop33
280
     0
102
RTVSPost2010PropOp33
 70
     1
102
RTVSPost2010Prop34
280
     0
102
RTVSPost2010PropOp34
 70
     1
102
RTVSPost2010Prop35
280
     0
102
RTVSPost2010PropOp35
 70
     1
102
RTVSPost2010Prop36
280
     0
102
RTVSPost2010PropOp36
 70
     1
102
RTVSPost2010Prop37
 90
       50
102
RTVSPost2010PropOp37
 70
     1
102
RTVSPost2010Prop38
140
0.0
102
RTVSPost2010PropOp38
 70
     1
102
RTVSPost2010Prop39
140
1.0
102
RTVSPost2010PropOp39
 70
     1
102
RTVSPost2010Prop40
 90
        0
102
RTVSPost2010PropOp40
 70
     1
102
RTVSPost2010Prop41ColorIndex
 90
       18
102
RTVSPost2010Prop41ColorRGB
 90
        0
102
RTVSPost2010PropOp41
 70
     1
102
RTVSPost2010Prop42
 90
       50
102
RTVSPost2010PropOp42
 70
     1
102
RTVSPost2010Prop43
 90
        3
102
RTVSPost2010PropOp43
 70
     1
102
RTVSPost2010Prop44ColorIndex
 90
        5
102
RTVSPost2010Prop44ColorRGB
 90
      255
102
RTVSPost2010PropOp44
 70
     1
102
RTVSPost2010Prop45
280
     0
102
RTVSPost2010PropOp45
 70
     1
102
RTVSPost2010Prop46
 90
       50
102
RTVSPost2010PropOp46
 70
     1
102
RTVSPost2010Prop47
 90
       50
102
RTVSPost2010PropOp47
 70
     1
102
RTVSPost2010Prop48
 90
       50
102
RTVSPost2010PropOp48
 70
     1
102
RTVSPost2010Prop49
280
     0
102
RTVSPost2010PropOp49
 70
     1
102
RTVSPost2010Prop50
 90
       50
102
RTVSPost2010PropOp50
 70
     1
102
RTVSPost2010Prop51ColorIndex
 90
      256
102
RTVSPost2010Prop51ColorRGB
 90
-16777216
102
RTVSPost2010PropOp51
 70
     0
102
RTVSPost2010Prop52
140
1.0
102
RTVSPost2010PropOp52
 70
     0
102
RTVSPost2010Prop53
 90
        2
102
RTVSPost2010PropOp53
 70
     1
102
RTVSPost2010Prop54
  1
strokes_ogs.tif
102
RTVSPost2010PropOp54
 70
     1
102
RTVSPost2010Prop55
280
     0
102
RTVSPost2010PropOp55
 70
     1
102
RTVSPost2010Prop56
140
1.0
102
RTVSPost2010PropOp56
 70
     1
102
RTVSPost2010Prop57
140
1.0
102
RTVSPost2010PropOp57
 70
     1
  0
XRECORD
  5
C2
102
{ACAD_REACTORS
330
C1
102
}
330
C1
100
AcDbXrecord
280
     1
102
RTVSPropertyOp0
 70
     1
102
RTVSPropertyOp1
 70
     1
102
RTVSPropertyOp2
 70
     1
102
RTVSPropertyOp3
 70
     1
102
RTVSPropertyOp4
 70
     1
102
RTVSPropertyOp5
 70
     1
102
RTVSPropertyOp6
 70
     1
102
RTVSPropertyOp7
 70
     1
102
RTVSPropertyOp8
 70
     1
102
RTVSPropertyOp9
 70
     1
102
RTVSPropertyOp10
 70
     1
102
RTVSPropertyOp11
 70
     1
102
RTVSPropertyOp12
 70
     1
102
RTVSPropertyOp13
 70
     1
102
RTVSPropertyOp14
 70
     1
102
RTVSPropertyOp15
 70
     1
102
RTVSPropertyOp16
 70
     1
102
RTVSPropertyOp17
 70
     1
102
RTVSPropertyOp18
 70
     1
102
RTVSPropertyOp19
 70
     1
102
RTVSPropertyOp20
 70
     1
102
RTVSPropertyOp21
 70
     1
102
RTVSPropertyOp22
 70
     1
102
RTVSPropertyOp23
 70
     1
102
RTVSPropertyOp24
 70
     1
102
RTVSPropertyOp25
 70
     1
102
RTVSPropertyOp26
 70
     1
102
RTVSPropertyOp27
 70
     1
102
RTVSPropertyOp28
 70
     1
102
RTVSPropertyOp29
 70
     1
102
RTVSPropertyOp30
 70
     1
102
RTVSPropertyOp31
 70
     1
102
RTVSPropertyOp32
 70
     1
102
RTVSPropertyOp33
 70
     1
102
RTVSPropertyOp34
 70
     1
102
RTVSPropertyOp35
 70
     1
102
RTVSPropertyOp36
 70
     1
102
RTVSPropertyOp37
 70
     1
102
RTVSPropertyOp38
 70
     1
102
RTVSPropertyOp39
 70
     1
102
RTVSPropertyOp40
 70
     1
102
RTVSPropertyOp41
 70
     1
102
RTVSPropertyOp42
 70
     1
102
RTVSPropertyOp43
 70
     1
102
RTVSPropertyOp44
 70
     1
102
RTVSPropertyOp45
 70
     1
102
RTVSPropertyOp46
 70
     1
102
RTVSPropertyOp47
 70
     1
102
RTVSPropertyOp48
 70
     1
102
RTVSPropertyOp49
 70
     1
102
RTVSPropertyOp50
 70
     1
102
RTVSPropertyOp51
 70
     0
102
RTVSPropertyOp52
 70
     0
102
RTVSPropertyOp53
 70
     1
102
RTVSPropertyOp54
 70
     1
102
RTVSPropertyOp55
 70
     1
102
RTVSPropertyOp56
 70
     1
102
RTVSPropertyOp57
 70
     1
102
RTVSPost2010Prop28
280
     0
102
RTVSPost2010PropOp28
 70
     1
102
RTVSPost2010Prop29
280
     1
102
RTVSPost2010PropOp29
 70
     1
102
RTVSPost2010Prop30
280
     1
102
RTVSPost2010PropOp30
 70
     1
102
RTVSPost2010Prop31
280
     0
102
RTVSPost2010PropOp31
 70
     1
102
RTVSPost2010Prop32
280
     0
102
RTVSPost2010PropOp32
 70
     1
102
RTVSPost2010Prop33
280
     0
102
RTVSPost2010PropOp33
 70
     1
102
RTVSPost2010Prop34
280
     0
102
RTVSPost2010PropOp34
 70
     1
102
RTVSPost2010Prop35
280
     0
102
RTVSPost2010PropOp35
 70
     1
102
RTVSPost2010Prop36
280
     0
102
RTVSPost2010PropOp36
 70
     1
102
RTVSPost2010Prop37
 90
       50
102
RTVSPost2010PropOp37
 70
     1
102
RTVSPost2010Prop38
140
0.0
102
RTVSPost2010PropOp38
 70
     1
102
RTVSPost2010Prop39
140
1.0
102
RTVSPost2010PropOp39
 70
     1
102
RTVSPost2010Prop40
 90
        0
102
RTVSPost2010PropOp40
 70
     1
102
RTVSPost2010Prop41ColorIndex
 90
       18
102
RTVSPost2010Prop41ColorRGB
 90
        0
102
RTVSPost2010PropOp41
 70
     1
102
RTVSPost2010Prop42
 90
       50
102
RTVSPost2010PropOp42
 70
     1
102
RTVSPost2010Prop43
 90
        3
102
RTVSPost2010PropOp43
 70
     1
102
RTVSPost2010Prop44ColorIndex
 90
        5
102
RTVSPost2010Prop44ColorRGB
 90
      255
102
RTVSPost2010PropOp44
 70
     1
102
RTVSPost2010Prop45
280
     0
102
RTVSPost2010PropOp45
 70
     1
102
RTVSPost2010Prop46
 90
       50
102
RTVSPost2010PropOp46
 70
     1
102
RTVSPost2010Prop47
 90
       50
102
RTVSPost2010PropOp47
 70
     1
102
RTVSPost2010Prop48
 90
       50
102
RTVSPost2010PropOp48
 70
     1
102
RTVSPost2010Prop49
280
     0
102
RTVSPost2010PropOp49
 70
     1
102
RTVSPost2010Prop50
 90
       50
102
RTVSPost2010PropOp50
 70
     1
102
RTVSPost2010Prop51ColorIndex
 90
      256
102
RTVSPost2010Prop51ColorRGB
 90
-16777216
102
RTVSPost2010PropOp51
 70
     0
102
RTVSPost2010Prop52
140
1.0
102
RTVSPost2010PropOp52
 70
     0
102
RTVSPost2010Prop53
 90
        2
102
RTVSPost2010PropOp53
 70
     1
102
RTVSPost2010Prop54
  1
strokes_ogs.tif
102
RTVSPost2010PropOp54
 70
     1
102
RTVSPost2010Prop55
280
     0
102
RTVSPost2010PropOp55
 70
     1
102
RTVSPost2010Prop56
140
1.0
102
RTVSPost2010PropOp56
 70
     1
102
RTVSPost2010Prop57
140
1.0
102
RTVSPost2010PropOp57
 70
     1
  0
ENDSEC
  0
EOF
