  0
SECTION
  2
HEADER
  9
$ACADVER
  1
AC1018
  9
$ACADMAINTVER
 70
     0
  9
$DWGCODEPAGE
  3
ANSI_1252
  9
$INSBASE
 10
0.0
 20
0.0
 30
0.0
  9
$EXTMIN
 10
-22.4766
 20
-43.3143
 30
0.0
  9
$EXTMAX
 10
22.4766
 20
43.3143
 30
0.0
  9
$LIMMIN
 10
0.0
 20
0.0
  9
$LIMMAX
 10
12.0
 20
9.0
  9
$ORTHOMODE
 70
     0
  9
$REGENMODE
 70
     1
  9
$FILLMODE
 70
     1
  9
$QTEXTMODE
 70
     0
  9
$MIRRTEXT
 70
     1
  9
$LTSCALE
 40
1.0
  9
$ATTMODE
 70
     1
  9
$TEXTSIZE
 40
0.2
  9
$TRACEWID
 40
0.05
  9
$TEXTSTYLE
  7
Standard
  9
$CLAYER
  8
0
  9
$CELTYPE
  6
ByLayer
  9
$CECOLOR
 62
   256
  9
$CELTSCALE
 40
1.0
  9
$DISPSILH
 70
     0
  9
$DIMSCALE
 40
1.0
  9
$DIMASZ
 40
0.18
  9
$DIMEXO
 40
0.0625
  9
$DIMDLI
 40
0.38
  9
$DIMRND
 40
0.0
  9
$DIMDLE
 40
0.0
  9
$DIMEXE
 40
0.18
  9
$DIMTP
 40
0.0
  9
$DIMTM
 40
0.0
  9
$DIMTXT
 40
0.18
  9
$DIMCEN
 40
0.09
  9
$DIMTSZ
 40
0.0
  9
$DIMTOL
 70
     0
  9
$DIMLIM
 70
     0
  9
$DIMTIH
 70
     1
  9
$DIMTOH
 70
     1
  9
$DIMSE1
 70
     0
  9
$DIMSE2
 70
     0
  9
$DIMTAD
 70
     0
  9
$DIMZIN
 70
     0
  9
$DIMBLK
  1

  9
$DIMASO
 70
     1
  9
$DIMSHO
 70
     1
  9
$DIMPOST
  1

  9
$DIMAPOST
  1

  9
$DIMALT
 70
     0
  9
$DIMALTD
 70
     2
  9
$DIMALTF
 40
25.4
  9
$DIMLFAC
 40
1.0
  9
$DIMTOFL
 70
     0
  9
$DIMTVP
 40
0.0
  9
$DIMTIX
 70
     0
  9
$DIMSOXD
 70
     0
  9
$DIMSAH
 70
     0
  9
$DIMBLK1
  1

  9
$DIMBLK2
  1

  9
$DIMSTYLE
  2
Standard
  9
$DIMCLRD
 70
     0
  9
$DIMCLRE
 70
     0
  9
$DIMCLRT
 70
     0
  9
$DIMTFAC
 40
1.0
  9
$DIMGAP
 40
0.09
  9
$DIMJUST
 70
     0
  9
$DIMSD1
 70
     0
  9
$DIMSD2
 70
     0
  9
$DIMTOLJ
 70
     1
  9
$DIMTZIN
 70
     0
  9
$DIMALTZ
 70
     0
  9
$DIMALTTZ
 70
     0
  9
$DIMUPT
 70
     0
  9
$DIMDEC
 70
     4
  9
$DIMTDEC
 70
     4
  9
$DIMALTU
 70
     2
  9
$DIMALTTD
 70
     2
  9
$DIMTXSTY
  7
Standard
  9
$DIMAUNIT
 70
     0
  9
$DIMADEC
 70
     0
  9
$DIMALTRND
 40
0.0
  9
$DIMAZIN
 70
     0
  9
$DIMDSEP
 70
    46
  9
$DIMATFIT
 70
     3
  9
$DIMFRAC
 70
     0
  9
$DIMLDRBLK
  1

  9
$DIMLUNIT
 70
     2
  9
$DIMLWD
 70
    -2
  9
$DIMLWE
 70
    -2
  9
$DIMTMOVE
 70
     0
  9
$LUNITS
 70
     2
  9
$LUPREC
 70
     4
  9
$SKETCHINC
 40
0.1
  9
$FILLETRAD
 40
0.5
  9
$AUNITS
 70
     0
  9
$AUPREC
 70
     0
  9
$MENU
  1
.
  9
$ELEVATION
 40
0.0
  9
$PELEVATION
 40
0.0
  9
$THICKNESS
 40
0.0
  9
$LIMCHECK
 70
     0
  9
$CHAMFERA
 40
0.0
  9
$CHAMFERB
 40
0.0
  9
$CHAMFERC
 40
0.0
  9
$CHAMFERD
 40
0.0
  9
$SKPOLY
 70
     0
  9
$TDCREATE
 40
2458283.789524109
  9
$TDUCREATE
 40
2458283.497857442
  9
$TDUPDATE
 40
2458283.789524132
  9
$TDUUPDATE
 40
2458283.497857465
  9
$TDINDWG
 40
0.0000000116
  9
$TDUSRTIMER
 40
0.0000000116
  9
$USRTIMER
 70
     1
  9
$ANGBASE
 50
0.0
  9
$ANGDIR
 70
     0
  9
$PDMODE
 70
     0
  9
$PDSIZE
 40
0.0
  9
$PLINEWID
 40
0.0
  9
$SPLFRAME
 70
     0
  9
$SPLINETYPE
 70
     6
  9
$SPLINESEGS
 70
     8
  9
$HANDSEED
  5
104
  9
$SURFTAB1
 70
     6
  9
$SURFTAB2
 70
     6
  9
$SURFTYPE
 70
     6
  9
$SURFU
 70
     6
  9
$SURFV
 70
     6
  9
$UCSBASE
  2

  9
$UCSNAME
  2

  9
$UCSORG
 10
0.0
 20
0.0
 30
0.0
  9
$UCSXDIR
 10
1.0
 20
0.0
 30
0.0
  9
$UCSYDIR
 10
0.0
 20
1.0
 30
0.0
  9
$UCSORTHOREF
  2

  9
$UCSORTHOVIEW
 70
     0
  9
$UCSORGTOP
 10
0.0
 20
0.0
 30
0.0
  9
$UCSORGBOTTOM
 10
0.0
 20
0.0
 30
0.0
  9
$UCSORGLEFT
 10
0.0
 20
0.0
 30
0.0
  9
$UCSORGRIGHT
 10
0.0
 20
0.0
 30
0.0
  9
$UCSORGFRONT
 10
0.0
 20
0.0
 30
0.0
  9
$UCSORGBACK
 10
0.0
 20
0.0
 30
0.0
  9
$PUCSBASE
  2

  9
$PUCSNAME
  2

  9
$PUCSORG
 10
0.0
 20
0.0
 30
0.0
  9
$PUCSXDIR
 10
1.0
 20
0.0
 30
0.0
  9
$PUCSYDIR
 10
0.0
 20
1.0
 30
0.0
  9
$PUCSORTHOREF
  2

  9
$PUCSORTHOVIEW
 70
     0
  9
$PUCSORGTOP
 10
0.0
 20
0.0
 30
0.0
  9
$PUCSORGBOTTOM
 10
0.0
 20
0.0
 30
0.0
  9
$PUCSORGLEFT
 10
0.0
 20
0.0
 30
0.0
  9
$PUCSORGRIGHT
 10
0.0
 20
0.0
 30
0.0
  9
$PUCSORGFRONT
 10
0.0
 20
0.0
 30
0.0
  9
$PUCSORGBACK
 10
0.0
 20
0.0
 30
0.0
  9
$USERI1
 70
     0
  9
$USERI2
 70
     0
  9
$USERI3
 70
     0
  9
$USERI4
 70
     0
  9
$USERI5
 70
     0
  9
$USERR1
 40
0.0
  9
$USERR2
 40
0.0
  9
$USERR3
 40
0.0
  9
$USERR4
 40
0.0
  9
$USERR5
 40
0.0
  9
$WORLDVIEW
 70
     1
  9
$SHADEDGE
 70
     3
  9
$SHADEDIF
 70
    70
  9
$TILEMODE
 70
     1
  9
$MAXACTVP
 70
    64
  9
$PINSBASE
 10
0.0
 20
0.0
 30
0.0
  9
$PLIMCHECK
 70
     0
  9
$PEXTMIN
 10
1.000000000000000E+20
 20
1.000000000000000E+20
 30
1.000000000000000E+20
  9
$PEXTMAX
 10
-1.000000000000000E+20
 20
-1.000000000000000E+20
 30
-1.000000000000000E+20
  9
$PLIMMIN
 10
0.0
 20
0.0
  9
$PLIMMAX
 10
12.0
 20
9.0
  9
$UNITMODE
 70
     0
  9
$VISRETAIN
 70
     1
  9
$PLINEGEN
 70
     0
  9
$PSLTSCALE
 70
     1
  9
$TREEDEPTH
 70
  3020
  9
$CMLSTYLE
  2
Standard
  9
$CMLJUST
 70
     0
  9
$CMLSCALE
 40
1.0
  9
$PROXYGRAPHICS
 70
     1
  9
$MEASUREMENT
 70
     0
  9
$CELWEIGHT
370
    -1
  9
$ENDCAPS
280
     0
  9
$JOINSTYLE
280
     0
  9
$LWDISPLAY
290
     0
  9
$INSUNITS
 70
     4
  9
$HYPERLINKBASE
  1

  9
$STYLESHEET
  1

  9
$XEDIT
290
     1
  9
$CEPSNTYPE
380
     0
  9
$PSTYLEMODE
290
     1
  9
$FINGERPRINTGUID
  2
{D433ACE6-A8A7-4EA4-94CF-FBA1221478D5}
  9
$VERSIONGUID
  2
{FAEB1C32-E019-11D5-929B-00C0DF256EC4}
  9
$EXTNAMES
290
     1
  9
$PSVPSCALE
 40
0.0
  9
$OLESTARTUP
290
     0
  9
$SORTENTS
280
   127
  9
$INDEXCTL
280
     0
  9
$HIDETEXT
280
     1
  9
$XCLIPFRAME
290
     0
  9
$HALOGAP
280
     0
  9
$OBSCOLOR
 70
   257
  9
$OBSLTYPE
280
     0
  9
$INTERSECTIONDISPLAY
280
     0
  9
$INTERSECTIONCOLOR
 70
   257
  9
$DIMASSOC
280
     2
  9
$PROJECTNAME
  1

  0
ENDSEC
  0
SECTION
  2
CLASSES
  0
CLASS
  1
ACDBDICTIONARYWDFLT
  2
AcDbDictionaryWithDefault
  3
ObjectDBX Classes
 90
        0
 91
        4
280
     0
281
     0
  0
CLASS
  1
VISUALSTYLE
  2
AcDbVisualStyle
  3
ObjectDBX Classes
 90
     4095
 91
        4
280
     0
281
     0
  0
CLASS
  1
MATERIAL
  2
AcDbMaterial
  3
ObjectDBX Classes
 90
     1153
 91
        4
280
     0
281
     0
  0
CLASS
  1
SCALE
  2
AcDbScale
  3
ObjectDBX Classes
 90
     1153
 91
        4
280
     0
281
     0
  0
CLASS
  1
TABLESTYLE
  2
AcDbTableStyle
  3
ObjectDBX Classes
 90
     4095
 91
        4
280
     0
281
     0
  0
CLASS
  1
MLEADERSTYLE
  2
AcDbMLeaderStyle
  3
ACDB_MLEADERSTYLE_CLASS
 90
     4095
 91
        4
280
     0
281
     0
  0
CLASS
  1
SUN
  2
AcDbSun
  3
SCENEOE
 90
     1153
 91
        4
280
     0
281
     0
  0
CLASS
  1
DICTIONARYVAR
  2
AcDbDictionaryVar
  3
ObjectDBX Classes
 90
        0
 91
        4
280
     0
281
     0
  0
CLASS
  1
CELLSTYLEMAP
  2
AcDbCellStyleMap
  3
ObjectDBX Classes
 90
     1152
 91
        4
280
     0
281
     0
  0
ENDSEC
  0
SECTION
  2
TABLES
  0
TABLE
  2
VPORT
  5
8
102
{ACAD_XDICTIONARY
360
BD
102
}
330
0
100
AcDbSymbolTable
 70
     1
  0
VPORT
  5
29
330
8
100
AcDbSymbolTableRecord
100
AcDbViewportTableRecord
  2
*Active
 70
     0
 10
0.0
 20
0.0
 11
1.0
 21
1.0
 12
10.42990654205607
 22
4.5
 13
0.0
 23
0.0
 14
0.5
 24
0.5
 15
0.5
 25
0.5
 16
0.0
 26
0.0
 36
1.0
 17
0.0
 27
0.0
 37
0.0
 40
9.0
 41
1.972972972850329
 42
50.0
 43
0.0
 44
0.0
 50
0.0
 51
0.0
 71
     0
 72
   100
 73
     1
 74
     3
 75
     0
 76
     0
 77
     0
 78
     0
281
     0
 65
     1
110
0.0
120
0.0
130
0.0
111
1.0
121
0.0
131
0.0
112
0.0
122
1.0
132
0.0
 79
     0
146
0.0
  0
ENDTAB
  0
TABLE
  2
LTYPE
  5
5
330
0
100
AcDbSymbolTable
 70
     1
  0
LTYPE
  5
14
330
5
100
AcDbSymbolTableRecord
100
AcDbLinetypeTableRecord
  2
ByBlock
 70
     0
  3

 72
    65
 73
     0
 40
0.0
  0
LTYPE
  5
15
330
5
100
AcDbSymbolTableRecord
100
AcDbLinetypeTableRecord
  2
ByLayer
 70
     0
  3

 72
    65
 73
     0
 40
0.0
  0
LTYPE
  5
16
330
5
100
AcDbSymbolTableRecord
100
AcDbLinetypeTableRecord
  2
Continuous
 70
     0
  3
Solid line
 72
    65
 73
     0
 40
0.0
  0
ENDTAB
  0
TABLE
  2
LAYER
  5
2
330
0
100
AcDbSymbolTable
 70
     2
  0
LAYER
  5
10
330
2
100
AcDbSymbolTableRecord
100
AcDbLayerTableRecord
  2
0
 70
     0
 62
     7
  6
Continuous
370
    -3
390
F
  0
LAYER
  5
6F
330
2
100
AcDbSymbolTableRecord
100
AcDbLayerTableRecord
  2
Layer 1
 70
     0
 62
     7
  6
Continuous
370
    -3
390
F
  0
ENDTAB
  0
TABLE
  2
STYLE
  5
3
330
0
100
AcDbSymbolTable
 70
     1
  0
STYLE
  5
11
330
3
100
AcDbSymbolTableRecord
100
AcDbTextStyleTableRecord
  2
Standard
 70
     0
 40
0.0
 41
1.0
 50
0.0
 71
     0
 42
0.2
  3
txt
  4

  0
ENDTAB
  0
TABLE
  2
VIEW
  5
6
330
0
100
AcDbSymbolTable
 70
     0
  0
ENDTAB
  0
TABLE
  2
UCS
  5
7
330
0
100
AcDbSymbolTable
 70
     0
  0
ENDTAB
  0
TABLE
  2
APPID
  5
9
330
0
100
AcDbSymbolTable
 70
     3
  0
APPID
  5
12
330
9
100
AcDbSymbolTableRecord
100
AcDbRegAppTableRecord
  2
ACAD
 70
     0
  0
APPID
  5
6E
330
9
100
AcDbSymbolTableRecord
100
AcDbRegAppTableRecord
  2
ODA
 70
     0
  0
APPID
  5
FC
330
9
100
AcDbSymbolTableRecord
100
AcDbRegAppTableRecord
  2
ACAD_MLEADERVER
 70
     0
  0
ENDTAB
  0
TABLE
  2
DIMSTYLE
  5
A
330
0
100
AcDbSymbolTable
 70
     1
100
AcDbDimStyleTable
  0
DIMSTYLE
105
27
330
A
100
AcDbSymbolTableRecord
100
AcDbDimStyleTableRecord
  2
Standard
 70
     0
178
     0
340
11
  0
ENDTAB
  0
TABLE
  2
BLOCK_RECORD
  5
1
330
0
100
AcDbSymbolTable
 70
     1
  0
BLOCK_RECORD
  5
1F
330
1
100
AcDbSymbolTableRecord
100
AcDbBlockTableRecord
  2
*Model_Space
340
22
  0
BLOCK_RECORD
  5
1B
330
1
100
AcDbSymbolTableRecord
100
AcDbBlockTableRecord
  2
*Paper_Space
340
1E
  0
BLOCK_RECORD
  5
23
330
1
100
AcDbSymbolTableRecord
100
AcDbBlockTableRecord
  2
*Paper_Space0
340
26
  0
ENDTAB
  0
ENDSEC
  0
SECTION
  2
BLOCKS
  0
BLOCK
  5
20
330
1F
100
AcDbEntity
  8
0
100
AcDbBlockBegin
  2
*Model_Space
 70
     0
 10
0.0
 20
0.0
 30
0.0
  3
*Model_Space
  1
*Model_Space
  0
ENDBLK
  5
21
330
1F
100
AcDbEntity
  8
0
100
AcDbBlockEnd
  0
BLOCK
  5
1C
330
1B
100
AcDbEntity
 67
     1
  8
0
100
AcDbBlockBegin
  2
*Paper_Space
 70
     0
 10
0.0
 20
0.0
 30
0.0
  3
*Paper_Space
  1
*Paper_Space
  0
ENDBLK
  5
1D
330
1B
100
AcDbEntity
 67
     1
  8
0
100
AcDbBlockEnd
  0
BLOCK
  5
24
330
23
100
AcDbEntity
  8
0
100
AcDbBlockBegin
  2
*Paper_Space0
 70
     0
 10
0.0
 20
0.0
 30
0.0
  3
*Paper_Space0
  1
*Paper_Space0
  0
ENDBLK
  5
25
330
23
100
AcDbEntity
  8
0
100
AcDbBlockEnd
  0
ENDSEC
  0
SECTION
  2
ENTITIES
  0
SPLINE
  5
70
330
1F
100
AcDbEntity
  8
Layer 1
 62
   140
100
AcDbSpline
210
0.0
220
0.0
230
1.0
 70
    11
 71
     3
 72
    36
 73
    32
 74
     0
 42
0.000000001
 43
0.0000000001
 40
0.0
 40
0.0
 40
0.0
 40
0.0
 40
0.1111111111111111
 40
0.1111111111111111
 40
0.1111111111111111
 40
0.1111111111111111
 40
0.2222222222222222
 40
0.2222222222222222
 40
0.2222222222222222
 40
0.2222222222222222
 40
0.3333333333333333
 40
0.3333333333333333
 40
0.3333333333333333
 40
0.3333333333333333
 40
0.4444444444444444
 40
0.4444444444444444
 40
0.4444444444444444
 40
0.4444444444444444
 40
0.5555555555555556
 40
0.5555555555555556
 40
0.5555555555555556
 40
0.5555555555555556
 40
0.6666666666666666
 40
0.6666666666666666
 40
0.6666666666666666
 40
0.6666666666666666
 40
0.7777777777777778
 40
0.7777777777777778
 40
0.7777777777777778
 40
0.7777777777777778
 40
1.0
 40
1.0
 40
1.0
 40
1.0
 10
-17.42
 20
41.995
 30
0.0
 10
-17.3397
 20
42.2614
 30
0.0
 10
-17.2826
 20
42.5497
 30
0.0
 10
-16.8351
 20
42.4657
 30
0.0
 10
-16.8351
 20
42.4657
 30
0.0
 10
-15.1853
 20
42.4657
 30
0.0
 10
-13.5355
 20
42.4657
 30
0.0
 10
-11.8857
 20
42.4657
 30
0.0
 10
-11.8857
 20
42.4657
 30
0.0
 10
-11.5407
 20
42.3618
 30
0.0
 10
-11.4507
 20
42.1821
 30
0.0
 10
-11.6157
 20
41.9266
 30
0.0
 10
-11.6157
 20
41.9266
 30
0.0
 10
-12.2906
 20
41.1517
 30
0.0
 10
-12.9656
 20
40.3768
 30
0.0
 10
-13.6405
 20
39.6019
 30
0.0
 10
-13.6405
 20
39.6019
 30
0.0
 10
-14.1804
 20
39.1233
 30
0.0
 10
-14.8704
 20
38.9182
 30
0.0
 10
-15.7102
 20
38.9866
 30
0.0
 10
-15.7102
 20
38.9866
 30
0.0
 10
-16.2427
 20
39.0171
 30
0.0
 10
-16.8202
 20
39.1083
 30
0.0
 10
-17.4426
 20
39.2601
 30
0.0
 10
-17.4426
 20
39.2601
 30
0.0
 10
-17.8485
 20
39.3203
 30
0.0
 10
-17.8331
 20
39.6472
 30
0.0
 10
-17.7575
 20
40.0122
 30
0.0
 10
-17.7575
 20
40.0122
 30
0.0
 10
-17.645
 20
40.6731
 30
0.0
 10
-17.5325
 20
41.3341
 30
0.0
 10
-17.42
 20
41.995
 30
0.0
  0
SPLINE
  5
71
330
1F
100
AcDbEntity
  8
Layer 1
 62
   140
100
AcDbSpline
210
0.0
220
0.0
230
1.0
 70
    11
 71
     3
 72
    32
 73
    28
 74
     0
 42
0.000000001
 43
0.0000000001
 40
0.0
 40
0.0
 40
0.0
 40
0.0
 40
0.125
 40
0.125
 40
0.125
 40
0.125
 40
0.25
 40
0.25
 40
0.25
 40
0.25
 40
0.375
 40
0.375
 40
0.375
 40
0.375
 40
0.5
 40
0.5
 40
0.5
 40
0.5
 40
0.625
 40
0.625
 40
0.625
 40
0.625
 40
0.75
 40
0.75
 40
0.75
 40
0.75
 40
1.0
 40
1.0
 40
1.0
 40
1.0
 10
-21.2642
 20
41.6873
 30
0.0
 10
-21.3898
 20
41.6873
 30
0.0
 10
-21.3898
 20
41.2658
 30
0.0
 10
-21.3898
 20
41.2658
 30
0.0
 10
-21.3898
 20
41.2658
 30
0.0
 10
-21.3898
 20
39.8527
 30
0.0
 10
-21.3898
 20
38.4397
 30
0.0
 10
-21.3898
 20
37.0266
 30
0.0
 10
-21.3898
 20
37.0266
 30
0.0
 10
-21.3148
 20
36.8279
 30
0.0
 10
-21.2385
 20
36.632
 30
0.0
 10
-21.118
 20
36.5251
 30
0.0
 10
-21.118
 20
36.5251
 30
0.0
 10
-20.9493
 20
36.4682
 30
0.0
 10
-20.8257
 20
36.4796
 30
0.0
 10
-20.7467
 20
36.5593
 30
0.0
 10
-20.7467
 20
36.5593
 30
0.0
 10
-20.6587
 20
36.648
 30
0.0
 10
-19.8312
 20
39.9489
 30
0.0
 10
-20.1281
 20
40.8782
 30
0.0
 10
-20.1281
 20
40.8782
 30
0.0
 10
-20.1547
 20
40.9615
 30
0.0
 10
-20.5181
 20
41.5392
 30
0.0
 10
-20.713
 20
41.8696
 30
0.0
 10
-20.713
 20
41.8696
 30
0.0
 10
-20.9718
 20
41.9455
 30
0.0
 10
-21.1555
 20
41.8848
 30
0.0
 10
-21.2642
 20
41.6873
 30
0.0
  0
SPLINE
  5
72
330
1F
100
AcDbEntity
  8
Layer 1
 62
   140
100
AcDbSpline
210
0.0
220
0.0
230
1.0
 70
    11
 71
     3
 72
    56
 73
    52
 74
     0
 42
0.000000001
 43
0.0000000001
 40
0.0
 40
0.0
 40
0.0
 40
0.0
 40
0.0714285714285714
 40
0.0714285714285714
 40
0.0714285714285714
 40
0.0714285714285714
 40
0.1428571428571428
 40
0.1428571428571428
 40
0.1428571428571428
 40
0.1428571428571428
 40
0.2142857142857143
 40
0.2142857142857143
 40
0.2142857142857143
 40
0.2142857142857143
 40
0.2857142857142857
 40
0.2857142857142857
 40
0.2857142857142857
 40
0.2857142857142857
 40
0.3571428571428572
 40
0.3571428571428572
 40
0.3571428571428572
 40
0.3571428571428572
 40
0.4285714285714285
 40
0.4285714285714285
 40
0.4285714285714285
 40
0.4285714285714285
 40
0.5
 40
0.5
 40
0.5
 40
0.5
 40
0.5714285714285714
 40
0.5714285714285714
 40
0.5714285714285714
 40
0.5714285714285714
 40
0.6428571428571429
 40
0.6428571428571429
 40
0.6428571428571429
 40
0.6428571428571429
 40
0.7142857142857143
 40
0.7142857142857143
 40
0.7142857142857143
 40
0.7142857142857143
 40
0.7857142857142857
 40
0.7857142857142857
 40
0.7857142857142857
 40
0.7857142857142857
 40
0.8571428571428571
 40
0.8571428571428571
 40
0.8571428571428571
 40
0.8571428571428571
 40
1.0
 40
1.0
 40
1.0
 40
1.0
 10
-18.7923
 20
36.8442
 30
0.0
 10
-18.5721
 20
37.148
 30
0.0
 10
-18.3237
 20
37.3379
 30
0.0
 10
-18.0133
 20
37.2772
 30
0.0
 10
-18.0133
 20
37.2772
 30
0.0
 10
-17.2111
 20
37.0148
 30
0.0
 10
-16.4152
 20
36.8854
 30
0.0
 10
-15.6427
 20
37.2317
 30
0.0
 10
-15.6427
 20
37.2317
 30
0.0
 10
-15.3376
 20
37.1884
 30
0.0
 10
-15.0075
 20
37.168
 30
0.0
 10
-15.1
 20
36.753
 30
0.0
 10
-15.1
 20
36.753
 30
0.0
 10
-15.4702
 20
35.9592
 30
0.0
 10
-15.8572
 20
35.1653
 30
0.0
 10
-16.4385
 20
34.3714
 30
0.0
 10
-16.4385
 20
34.3714
 30
0.0
 10
-17.0736
 20
33.6128
 30
0.0
 10
-17.2913
 20
32.798
 30
0.0
 10
-17.4734
 20
31.9783
 30
0.0
 10
-17.4734
 20
31.9783
 30
0.0
 10
-17.5297
 20
31.777
 30
0.0
 10
-17.5859
 20
31.5756
 30
0.0
 10
-17.6422
 20
31.3743
 30
0.0
 10
-17.6422
 20
31.3743
 30
0.0
 10
-17.7004
 20
31.078
 30
0.0
 10
-17.8615
 20
30.8958
 30
0.0
 10
-18.2496
 20
30.9641
 30
0.0
 10
-18.2496
 20
30.9641
 30
0.0
 10
-18.6646
 20
30.9222
 30
0.0
 10
-19.0979
 20
31.124
 30
0.0
 10
-19.5432
 20
31.4769
 30
0.0
 10
-19.5432
 20
31.4769
 30
0.0
 10
-19.7957
 20
31.8562
 30
0.0
 10
-20.2592
 20
31.8391
 30
0.0
 10
-20.7243
 20
31.8188
 30
0.0
 10
-20.7243
 20
31.8188
 30
0.0
 10
-21.1409
 20
31.9687
 30
0.0
 10
-21.3996
 20
32.1852
 30
0.0
 10
-21.0955
 20
32.6393
 30
0.0
 10
-21.0955
 20
32.6393
 30
0.0
 10
-20.7673
 20
33.2802
 30
0.0
 10
-20.3961
 20
33.8558
 30
0.0
 10
-19.9481
 20
34.3144
 30
0.0
 10
-19.9481
 20
34.3144
 30
0.0
 10
-19.5479
 20
34.6478
 30
0.0
 10
-19.2572
 20
35.0182
 30
0.0
 10
-19.127
 20
35.4426
 30
0.0
 10
-19.127
 20
35.4426
 30
0.0
 10
-19.0154
 20
35.9098
 30
0.0
 10
-18.9038
 20
36.377
 30
0.0
 10
-18.7923
 20
36.8442
 30
0.0
  0
SPLINE
  5
73
330
1F
100
AcDbEntity
  8
Layer 1
 62
   140
100
AcDbSpline
210
0.0
220
0.0
230
1.0
 70
    11
 71
     3
 72
    44
 73
    40
 74
     0
 42
0.000000001
 43
0.0000000001
 40
0.0
 40
0.0
 40
0.0
 40
0.0
 40
0.0909090909090909
 40
0.0909090909090909
 40
0.0909090909090909
 40
0.0909090909090909
 40
0.1818181818181818
 40
0.1818181818181818
 40
0.1818181818181818
 40
0.1818181818181818
 40
0.2727272727272727
 40
0.2727272727272727
 40
0.2727272727272727
 40
0.2727272727272727
 40
0.3636363636363636
 40
0.3636363636363636
 40
0.3636363636363636
 40
0.3636363636363636
 40
0.4545454545454545
 40
0.4545454545454545
 40
0.4545454545454545
 40
0.4545454545454545
 40
0.5454545454545454
 40
0.5454545454545454
 40
0.5454545454545454
 40
0.5454545454545454
 40
0.6363636363636364
 40
0.6363636363636364
 40
0.6363636363636364
 40
0.6363636363636364
 40
0.7272727272727273
 40
0.7272727272727273
 40
0.7272727272727273
 40
0.7272727272727273
 40
0.8181818181818182
 40
0.8181818181818182
 40
0.8181818181818182
 40
0.8181818181818182
 40
1.0
 40
1.0
 40
1.0
 40
1.0
 10
-12.898
 20
38.3484
 30
0.0
 10
-12.3375
 20
38.4205
 30
0.0
 10
-11.8839
 20
38.7092
 30
0.0
 10
-11.5032
 20
39.1461
 30
0.0
 10
-11.5032
 20
39.1461
 30
0.0
 10
-11.072
 20
39.3633
 30
0.0
 10
-10.667
 20
39.287
 30
0.0
 10
-10.2658
 20
39.1689
 30
0.0
 10
-10.2658
 20
39.1689
 30
0.0
 10
-9.1112
 20
38.445
 30
0.0
 10
-8.0388
 20
38.0766
 30
0.0
 10
-7.0037
 20
37.8697
 30
0.0
 10
-7.0037
 20
37.8697
 30
0.0
 10
-6.6061
 20
37.6668
 30
0.0
 10
-6.366
 20
37.3972
 30
0.0
 10
-6.6888
 20
36.8898
 30
0.0
 10
-6.6888
 20
36.8898
 30
0.0
 10
-8.5099
 20
35.3815
 30
0.0
 10
-10.1397
 20
33.5668
 30
0.0
 10
-11.3907
 20
31.1464
 30
0.0
 10
-11.3907
 20
31.1464
 30
0.0
 10
-11.8032
 20
30.8349
 30
0.0
 10
-12.2532
 20
30.6374
 30
0.0
 10
-12.7855
 20
30.6906
 30
0.0
 10
-12.7855
 20
30.6906
 30
0.0
 10
-13.5887
 20
30.8161
 30
0.0
 10
-14.5243
 20
30.7629
 30
0.0
 10
-15.5078
 20
30.645
 30
0.0
 10
-15.5078
 20
30.645
 30
0.0
 10
-15.7963
 20
30.6489
 30
0.0
 10
-15.9913
 20
30.8236
 30
0.0
 10
-15.9802
 20
31.3743
 30
0.0
 10
-15.9802
 20
31.3743
 30
0.0
 10
-14.9556
 20
33.2899
 30
0.0
 10
-13.98
 20
35.2243
 30
0.0
 10
-13.438
 20
37.3228
 30
0.0
 10
-13.438
 20
37.3228
 30
0.0
 10
-13.258
 20
37.6647
 30
0.0
 10
-13.078
 20
38.0066
 30
0.0
 10
-12.898
 20
38.3484
 30
0.0
  0
SPLINE
  5
74
330
1F
100
AcDbEntity
  8
Layer 1
 62
   140
100
AcDbSpline
210
0.0
220
0.0
230
1.0
 70
    11
 71
     3
 72
    40
 73
    36
 74
     0
 42
0.000000001
 43
0.0000000001
 40
0.0
 40
0.0
 40
0.0
 40
0.0
 40
0.1
 40
0.1
 40
0.1
 40
0.1
 40
0.2
 40
0.2
 40
0.2
 40
0.2
 40
0.3
 40
0.3
 40
0.3
 40
0.3
 40
0.4
 40
0.4
 40
0.4
 40
0.4
 40
0.5
 40
0.5
 40
0.5
 40
0.5
 40
0.6
 40
0.6
 40
0.6
 40
0.6
 40
0.7
 40
0.7
 40
0.7
 40
0.7
 40
0.8
 40
0.8
 40
0.8
 40
0.8
 40
1.0
 40
1.0
 40
1.0
 40
1.0
 10
-9.096
 20
42.4657
 30
0.0
 10
-9.1922
 20
42.4719
 30
0.0
 10
-9.2995
 20
42.3961
 30
0.0
 10
-9.4334
 20
42.2457
 30
0.0
 10
-9.4334
 20
42.2457
 30
0.0
 10
-9.5534
 20
41.8203
 30
0.0
 10
-9.7633
 20
41.524
 30
0.0
 10
-10.0634
 20
41.3568
 30
0.0
 10
-10.0634
 20
41.3568
 30
0.0
 10
-10.279
 20
41.0795
 30
0.0
 10
-10.2977
 20
40.8592
 30
0.0
 10
-9.8834
 20
40.7642
 30
0.0
 10
-9.8834
 20
40.7642
 30
0.0
 10
-8.2993
 20
40.6722
 30
0.0
 10
-6.7323
 20
40.5063
 30
0.0
 10
-5.5414
 20
38.713
 30
0.0
 10
-5.5414
 20
38.713
 30
0.0
 10
-5.1983
 20
38.6319
 30
0.0
 10
-4.8361
 20
38.518
 30
0.0
 10
-4.7989
 20
38.9637
 30
0.0
 10
-4.7989
 20
38.9637
 30
0.0
 10
-4.5441
 20
40.0425
 30
0.0
 10
-3.9892
 20
40.8934
 30
0.0
 10
-3.1341
 20
41.5163
 30
0.0
 10
-3.1341
 20
41.5163
 30
0.0
 10
-2.9917
 20
41.7139
 30
0.0
 10
-2.8492
 20
41.9114
 30
0.0
 10
-2.7067
 20
42.109
 30
0.0
 10
-2.7067
 20
42.109
 30
0.0
 10
-2.6425
 20
42.2623
 30
0.0
 10
-2.6273
 20
42.4043
 30
0.0
 10
-2.9542
 20
42.4657
 30
0.0
 10
-2.9542
 20
42.4657
 30
0.0
 10
-5.0015
 20
42.4657
 30
0.0
 10
-7.0487
 20
42.4657
 30
0.0
 10
-9.096
 20
42.4657
 30
0.0
  0
SPLINE
  5
75
330
1F
100
AcDbEntity
  8
Layer 1
 62
   140
100
AcDbSpline
210
0.0
220
0.0
230
1.0
 70
    11
 71
     3
 72
    28
 73
    24
 74
     0
 42
0.000000001
 43
0.0000000001
 40
0.0
 40
0.0
 40
0.0
 40
0.0
 40
0.1428571428571428
 40
0.1428571428571428
 40
0.1428571428571428
 40
0.1428571428571428
 40
0.2857142857142857
 40
0.2857142857142857
 40
0.2857142857142857
 40
0.2857142857142857
 40
0.4285714285714285
 40
0.4285714285714285
 40
0.4285714285714285
 40
0.4285714285714285
 40
0.5714285714285714
 40
0.5714285714285714
 40
0.5714285714285714
 40
0.5714285714285714
 40
0.7142857142857143
 40
0.7142857142857143
 40
0.7142857142857143
 40
0.7142857142857143
 40
1.0
 40
1.0
 40
1.0
 40
1.0
 10
-1.5903
 20
41.9266
 30
0.0
 10
-1.2903
 20
42.2228
 30
0.0
 10
-1.0654
 20
42.2456
 30
0.0
 10
-0.9153
 20
41.995
 30
0.0
 10
-0.9153
 20
41.995
 30
0.0
 10
-0.2827
 20
40.6549
 30
0.0
 10
0.5554
 20
39.5748
 30
0.0
 10
1.5481
 20
38.6902
 30
0.0
 10
1.5481
 20
38.6902
 30
0.0
 10
1.8649
 20
38.2022
 30
0.0
 10
1.7073
 20
38.0276
 30
0.0
 10
1.3344
 20
37.9951
 30
0.0
 10
1.3344
 20
37.9951
 30
0.0
 10
0.0216
 20
38.4278
 30
0.0
 10
-1.2749
 20
38.6111
 30
0.0
 10
-2.5577
 20
38.5877
 30
0.0
 10
-2.5577
 20
38.5877
 30
0.0
 10
-2.847
 20
38.7167
 30
0.0
 10
-3.0798
 20
38.8611
 30
0.0
 10
-2.9176
 20
39.1119
 30
0.0
 10
-2.9176
 20
39.1119
 30
0.0
 10
-2.3015
 20
39.9799
 30
0.0
 10
-1.906
 20
40.9372
 30
0.0
 10
-1.5903
 20
41.9266
 30
0.0
  0
SPLINE
  5
76
330
1F
100
AcDbEntity
  8
Layer 1
 62
   140
100
AcDbSpline
210
0.0
220
0.0
230
1.0
 70
    11
 71
     3
 72
    48
 73
    44
 74
     0
 42
0.000000001
 43
0.0000000001
 40
0.0
 40
0.0
 40
0.0
 40
0.0
 40
0.0833333333333333
 40
0.0833333333333333
 40
0.0833333333333333
 40
0.0833333333333333
 40
0.1666666666666667
 40
0.1666666666666667
 40
0.1666666666666667
 40
0.1666666666666667
 40
0.25
 40
0.25
 40
0.25
 40
0.25
 40
0.3333333333333333
 40
0.3333333333333333
 40
0.3333333333333333
 40
0.3333333333333333
 40
0.4166666666666667
 40
0.4166666666666667
 40
0.4166666666666667
 40
0.4166666666666667
 40
0.5
 40
0.5
 40
0.5
 40
0.5
 40
0.5833333333333334
 40
0.5833333333333334
 40
0.5833333333333334
 40
0.5833333333333334
 40
0.6666666666666666
 40
0.6666666666666666
 40
0.6666666666666666
 40
0.6666666666666666
 40
0.75
 40
0.75
 40
0.75
 40
0.75
 40
0.8333333333333334
 40
0.8333333333333334
 40
0.8333333333333334
 40
0.8333333333333334
 40
1.0
 40
1.0
 40
1.0
 40
1.0
 10
1.3428
 20
42.4657
 30
0.0
 10
3.3528
 20
42.2393
 30
0.0
 10
5.4275
 20
42.4185
 30
0.0
 10
7.3023
 20
42.4657
 30
0.0
 10
7.3023
 20
42.4657
 30
0.0
 10
8.7605
 20
42.5024
 30
0.0
 10
10.0358
 20
42.3735
 30
0.0
 10
11.4667
 20
42.4657
 30
0.0
 10
11.4667
 20
42.4657
 30
0.0
 10
11.9775
 20
42.3474
 30
0.0
 10
12.413
 20
42.1757
 30
0.0
 10
12.3216
 20
41.6303
 30
0.0
 10
12.3216
 20
41.6303
 30
0.0
 10
12.6141
 20
40.5287
 30
0.0
 10
12.9066
 20
39.4272
 30
0.0
 10
13.199
 20
38.3256
 30
0.0
 10
13.199
 20
38.3256
 30
0.0
 10
13.349
 20
37.771
 30
0.0
 10
13.0865
 20
37.5507
 30
0.0
 10
12.6366
 20
37.4823
 30
0.0
 10
12.6366
 20
37.4823
 30
0.0
 10
11.7709
 20
37.2563
 30
0.0
 10
10.5562
 20
37.1485
 30
0.0
 10
9.1505
 20
37.591
 30
0.0
 10
9.1505
 20
37.591
 30
0.0
 10
8.1605
 20
37.9028
 30
0.0
 10
7.2599
 20
37.8073
 30
0.0
 10
6.2248
 20
37.8697
 30
0.0
 10
6.2248
 20
37.8697
 30
0.0
 10
5.3285
 20
37.9341
 30
0.0
 10
4.5108
 20
38.1316
 30
0.0
 10
3.9751
 20
38.8042
 30
0.0
 10
3.9751
 20
38.8042
 30
0.0
 10
3.0363
 20
39.2965
 30
0.0
 10
2.3168
 20
39.9372
 30
0.0
 10
1.9179
 20
40.7943
 30
0.0
 10
1.9179
 20
40.7943
 30
0.0
 10
1.7344
 20
41.1888
 30
0.0
 10
1.2946
 20
41.3973
 30
0.0
 10
0.9829
 20
41.6987
 30
0.0
 10
0.9829
 20
41.6987
 30
0.0
 10
0.8141
 20
42.1141
 30
0.0
 10
0.8517
 20
42.4154
 30
0.0
 10
1.3428
 20
42.4657
 30
0.0
  0
SPLINE
  5
77
330
1F
100
AcDbEntity
  8
Layer 1
 62
   140
100
AcDbSpline
210
0.0
220
0.0
230
1.0
 70
    11
 71
     3
 72
    40
 73
    36
 74
     0
 42
0.000000001
 43
0.0000000001
 40
0.0
 40
0.0
 40
0.0
 40
0.0
 40
0.1
 40
0.1
 40
0.1
 40
0.1
 40
0.2
 40
0.2
 40
0.2
 40
0.2
 40
0.3
 40
0.3
 40
0.3
 40
0.3
 40
0.4
 40
0.4
 40
0.4
 40
0.4
 40
0.5
 40
0.5
 40
0.5
 40
0.5
 40
0.6
 40
0.6
 40
0.6
 40
0.6
 40
0.7
 40
0.7
 40
0.7
 40
0.7
 40
0.8
 40
0.8
 40
0.8
 40
0.8
 40
1.0
 40
1.0
 40
1.0
 40
1.0
 10
14.1889
 20
42.0406
 30
0.0
 10
14.1961
 20
42.227
 30
0.0
 10
14.2333
 20
42.3792
 30
0.0
 10
14.4814
 20
42.2913
 30
0.0
 10
14.4814
 20
42.2913
 30
0.0
 10
16.336
 20
42.0376
 30
0.0
 10
18.1385
 20
41.9598
 30
0.0
 10
19.8132
 20
42.314
 30
0.0
 10
19.8132
 20
42.314
 30
0.0
 10
20.0801
 20
42.2881
 30
0.0
 10
20.2831
 20
42.2124
 30
0.0
 10
20.0382
 20
41.7898
 30
0.0
 10
20.0382
 20
41.7898
 30
0.0
 10
19.4907
 20
41.2353
 30
0.0
 10
18.9433
 20
40.6807
 30
0.0
 10
18.3959
 20
40.1261
 30
0.0
 10
18.3959
 20
40.1261
 30
0.0
 10
18.0025
 20
39.7153
 30
0.0
 10
17.5752
 20
39.3654
 30
0.0
 10
16.9111
 20
39.4424
 30
0.0
 10
16.9111
 20
39.4424
 30
0.0
 10
16.506
 20
39.4956
 30
0.0
 10
16.086
 20
39.3512
 30
0.0
 10
15.6512
 20
39.0094
 30
0.0
 10
15.6512
 20
39.0094
 30
0.0
 10
15.3661
 20
38.6751
 30
0.0
 10
15.0662
 20
38.6296
 30
0.0
 10
14.7513
 20
38.8726
 30
0.0
 10
14.7513
 20
38.8726
 30
0.0
 10
14.6488
 20
39.45
 30
0.0
 10
14.6751
 20
40.067
 30
0.0
 10
14.4437
 20
40.6051
 30
0.0
 10
14.4437
 20
40.6051
 30
0.0
 10
14.2576
 20
41.0379
 30
0.0
 10
14.2738
 20
41.5621
 30
0.0
 10
14.1889
 20
42.0406
 30
0.0
  0
SPLINE
  5
78
330
1F
100
AcDbEntity
  8
Layer 1
 62
   140
100
AcDbSpline
210
0.0
220
0.0
230
1.0
 70
    11
 71
     3
 72
    40
 73
    36
 74
     0
 42
0.000000001
 43
0.0000000001
 40
0.0
 40
0.0
 40
0.0
 40
0.0
 40
0.1
 40
0.1
 40
0.1
 40
0.1
 40
0.2
 40
0.2
 40
0.2
 40
0.2
 40
0.3
 40
0.3
 40
0.3
 40
0.3
 40
0.4
 40
0.4
 40
0.4
 40
0.4
 40
0.5
 40
0.5
 40
0.5
 40
0.5
 40
0.6
 40
0.6
 40
0.6
 40
0.6
 40
0.7
 40
0.7
 40
0.7
 40
0.7
 40
0.8
 40
0.8
 40
0.8
 40
0.8
 40
1.0
 40
1.0
 40
1.0
 40
1.0
 10
20.5557
 20
40.5591
 30
0.0
 10
20.8978
 20
40.677
 30
0.0
 10
21.2025
 20
40.5858
 30
0.0
 10
21.4248
 20
40.035
 30
0.0
 10
21.4248
 20
40.035
 30
0.0
 10
21.4248
 20
39.374
 30
0.0
 10
21.4248
 20
38.713
 30
0.0
 10
21.4248
 20
38.0521
 30
0.0
 10
21.4248
 20
38.0521
 30
0.0
 10
21.4282
 20
37.7577
 30
0.0
 10
21.3175
 20
37.5641
 30
0.0
 10
21.1181
 20
37.3912
 30
0.0
 10
21.1181
 20
37.3912
 30
0.0
 10
19.8658
 20
36.4127
 30
0.0
 10
18.6659
 20
34.9534
 30
0.0
 10
17.4735
 20
33.4255
 30
0.0
 10
17.4735
 20
33.4255
 30
0.0
 10
16.9861
 20
33.0912
 30
0.0
 10
16.4986
 20
32.757
 30
0.0
 10
16.0112
 20
32.4227
 30
0.0
 10
16.0112
 20
32.4227
 30
0.0
 10
15.428
 20
32.2345
 30
0.0
 10
15.3126
 20
32.5201
 30
0.0
 10
15.1338
 20
32.7418
 30
0.0
 10
15.1338
 20
32.7418
 30
0.0
 10
15.1413
 20
33.6915
 30
0.0
 10
15.1488
 20
34.6411
 30
0.0
 10
15.1563
 20
35.5907
 30
0.0
 10
15.1563
 20
35.5907
 30
0.0
 10
15.3883
 20
36.5417
 30
0.0
 10
15.831
 20
37.0122
 30
0.0
 10
16.3037
 20
37.414
 30
0.0
 10
16.3037
 20
37.414
 30
0.0
 10
17.9122
 20
38.2688
 30
0.0
 10
19.3072
 20
39.34
 30
0.0
 10
20.5557
 20
40.5591
 30
0.0
  0
SPLINE
  5
79
330
1F
100
AcDbEntity
  8
Layer 1
 62
   140
100
AcDbSpline
210
0.0
220
0.0
230
1.0
 70
    11
 71
     3
 72
    36
 73
    32
 74
     0
 42
0.000000001
 43
0.0000000001
 40
0.0
 40
0.0
 40
0.0
 40
0.0
 40
0.1111111111111111
 40
0.1111111111111111
 40
0.1111111111111111
 40
0.1111111111111111
 40
0.2222222222222222
 40
0.2222222222222222
 40
0.2222222222222222
 40
0.2222222222222222
 40
0.3333333333333333
 40
0.3333333333333333
 40
0.3333333333333333
 40
0.3333333333333333
 40
0.4444444444444444
 40
0.4444444444444444
 40
0.4444444444444444
 40
0.4444444444444444
 40
0.5555555555555556
 40
0.5555555555555556
 40
0.5555555555555556
 40
0.5555555555555556
 40
0.6666666666666666
 40
0.6666666666666666
 40
0.6666666666666666
 40
0.6666666666666666
 40
0.7777777777777778
 40
0.7777777777777778
 40
0.7777777777777778
 40
0.7777777777777778
 40
1.0
 40
1.0
 40
1.0
 40
1.0
 10
-6.2697
 20
35.6021
 30
0.0
 10
-6.0331
 20
35.6864
 30
0.0
 10
-5.8306
 20
35.7171
 30
0.0
 10
-5.8648
 20
35.3742
 30
0.0
 10
-5.8648
 20
35.3742
 30
0.0
 10
-6.0158
 20
34.5452
 30
0.0
 10
-6.0815
 20
33.8027
 30
0.0
 10
-6.0223
 20
33.1862
 30
0.0
 10
-6.0223
 20
33.1862
 30
0.0
 10
-6.0635
 20
32.9395
 30
0.0
 10
-6.1948
 20
32.8141
 30
0.0
 10
-6.4159
 20
32.8101
 30
0.0
 10
-6.4159
 20
32.8101
 30
0.0
 10
-6.7572
 20
32.8064
 30
0.0
 10
-7.0984
 20
32.8026
 30
0.0
 10
-7.4396
 20
32.7988
 30
0.0
 10
-7.4396
 20
32.7988
 30
0.0
 10
-7.6196
 20
32.795
 30
0.0
 10
-7.7996
 20
32.7912
 30
0.0
 10
-7.9795
 20
32.7873
 30
0.0
 10
-7.9795
 20
32.7873
 30
0.0
 10
-8.2007
 20
32.8578
 30
0.0
 10
-8.2158
 20
33.0326
 30
0.0
 10
-8.137
 20
33.2546
 30
0.0
 10
-8.137
 20
33.2546
 30
0.0
 10
-8.0136
 20
33.6653
 30
0.0
 10
-7.7323
 20
33.969
 30
0.0
 10
-7.4284
 20
34.2574
 30
0.0
 10
-7.4284
 20
34.2574
 30
0.0
 10
-6.9015
 20
34.6203
 30
0.0
 10
-6.4963
 20
35.0572
 30
0.0
 10
-6.2697
 20
35.6021
 30
0.0
  0
SPLINE
  5
7A
330
1F
100
AcDbEntity
  8
Layer 1
 62
   140
100
AcDbSpline
210
0.0
220
0.0
230
1.0
 70
    11
 71
     3
 72
    76
 73
    72
 74
     0
 42
0.000000001
 43
0.0000000001
 40
0.0
 40
0.0
 40
0.0
 40
0.0
 40
0.0526315789473684
 40
0.0526315789473684
 40
0.0526315789473684
 40
0.0526315789473684
 40
0.1052631578947368
 40
0.1052631578947368
 40
0.1052631578947368
 40
0.1052631578947368
 40
0.1578947368421053
 40
0.1578947368421053
 40
0.1578947368421053
 40
0.1578947368421053
 40
0.2105263157894737
 40
0.2105263157894737
 40
0.2105263157894737
 40
0.2105263157894737
 40
0.2631578947368421
 40
0.2631578947368421
 40
0.2631578947368421
 40
0.2631578947368421
 40
0.3157894736842105
 40
0.3157894736842105
 40
0.3157894736842105
 40
0.3157894736842105
 40
0.3684210526315789
 40
0.3684210526315789
 40
0.3684210526315789
 40
0.3684210526315789
 40
0.4210526315789473
 40
0.4210526315789473
 40
0.4210526315789473
 40
0.4210526315789473
 40
0.4736842105263158
 40
0.4736842105263158
 40
0.4736842105263158
 40
0.4736842105263158
 40
0.5263157894736842
 40
0.5263157894736842
 40
0.5263157894736842
 40
0.5263157894736842
 40
0.5789473684210527
 40
0.5789473684210527
 40
0.5789473684210527
 40
0.5789473684210527
 40
0.631578947368421
 40
0.631578947368421
 40
0.631578947368421
 40
0.631578947368421
 40
0.6842105263157895
 40
0.6842105263157895
 40
0.6842105263157895
 40
0.6842105263157895
 40
0.7368421052631579
 40
0.7368421052631579
 40
0.7368421052631579
 40
0.7368421052631579
 40
0.7894736842105263
 40
0.7894736842105263
 40
0.7894736842105263
 40
0.7894736842105263
 40
0.8421052631578947
 40
0.8421052631578947
 40
0.8421052631578947
 40
0.8421052631578947
 40
0.8947368421052632
 40
0.8947368421052632
 40
0.8947368421052632
 40
0.8947368421052632
 40
1.0
 40
1.0
 40
1.0
 40
1.0
 10
-4.1915
 20
36.2516
 30
0.0
 10
-4.0501
 20
36.6969
 30
0.0
 10
-3.7258
 20
36.9077
 30
0.0
 10
-3.1341
 20
36.7758
 30
0.0
 10
-3.1341
 20
36.7758
 30
0.0
 10
-2.5774
 20
36.5399
 30
0.0
 10
-2.1912
 20
36.3122
 30
0.0
 10
-1.9643
 20
35.9553
 30
0.0
 10
-1.9643
 20
35.9553
 30
0.0
 10
-1.507
 20
35.0875
 30
0.0
 10
-1.0495
 20
34.5518
 30
0.0
 10
-0.592
 20
34.2916
 30
0.0
 10
-0.592
 20
34.2916
 30
0.0
 10
-0.1254
 20
33.8112
 30
0.0
 10
0.2162
 20
33.2833
 30
0.0
 10
0.4879
 20
32.7418
 30
0.0
 10
0.4879
 20
32.7418
 30
0.0
 10
1.0067
 20
31.7059
 30
0.0
 10
1.5511
 20
31.0355
 30
0.0
 10
2.1302
 20
30.8501
 30
0.0
 10
2.1302
 20
30.8501
 30
0.0
 10
2.4678
 20
30.6603
 30
0.0
 10
2.4752
 20
30.3792
 30
0.0
 10
2.1528
 20
30.0069
 30
0.0
 10
2.1528
 20
30.0069
 30
0.0
 10
1.7622
 20
29.378
 30
0.0
 10
1.0379
 20
29.031
 30
0.0
 10
0.2855
 20
28.7077
 30
0.0
 10
0.2855
 20
28.7077
 30
0.0
 10
-0.8796
 20
28.4895
 30
0.0
 10
-1.8394
 20
27.7167
 30
0.0
 10
-2.8192
 20
26.9985
 30
0.0
 10
-2.8192
 20
26.9985
 30
0.0
 10
-3.3011
 20
26.6043
 30
0.0
 10
-3.5973
 20
26.7849
 30
0.0
 10
-3.8091
 20
27.2264
 30
0.0
 10
-3.8091
 20
27.2264
 30
0.0
 10
-3.9516
 20
28.3355
 30
0.0
 10
-4.0941
 20
29.4447
 30
0.0
 10
-4.2365
 20
30.5538
 30
0.0
 10
-4.2365
 20
30.5538
 30
0.0
 10
-4.1995
 20
30.9683
 30
0.0
 10
-3.9512
 20
31.1198
 30
0.0
 10
-3.5841
 20
31.1237
 30
0.0
 10
-3.5841
 20
31.1237
 30
0.0
 10
-2.8792
 20
31.2224
 30
0.0
 10
-2.1743
 20
31.3212
 30
0.0
 10
-1.4693
 20
31.4199
 30
0.0
 10
-1.4693
 20
31.4199
 30
0.0
 10
-1.0354
 20
31.5139
 30
0.0
 10
-0.6287
 20
31.6834
 30
0.0
 10
-0.2545
 20
31.9441
 30
0.0
 10
-0.2545
 20
31.9441
 30
0.0
 10
-0.1654
 20
32.0754
 30
0.0
 10
-0.231
 20
32.1855
 30
0.0
 10
-0.367
 20
32.286
 30
0.0
 10
-0.367
 20
32.286
 30
0.0
 10
-0.8839
 20
32.474
 30
0.0
 10
-1.4093
 20
32.6394
 30
0.0
 10
-2.0317
 20
32.5367
 30
0.0
 10
-2.0317
 20
32.5367
 30
0.0
 10
-2.6692
 20
32.4835
 30
0.0
 10
-3.3066
 20
32.4304
 30
0.0
 10
-3.9441
 20
32.3771
 30
0.0
 10
-3.9441
 20
32.3771
 30
0.0
 10
-4.1524
 20
32.4722
 30
0.0
 10
-4.3134
 20
32.6621
 30
0.0
 10
-4.3715
 20
33.0609
 30
0.0
 10
-4.3715
 20
33.0609
 30
0.0
 10
-4.0565
 20
34.0941
 30
0.0
 10
-3.9966
 20
35.1578
 30
0.0
 10
-4.1915
 20
36.2516
 30
0.0
  0
SPLINE
  5
7B
330
1F
100
AcDbEntity
  8
Layer 1
 62
   140
100
AcDbSpline
210
0.0
220
0.0
230
1.0
 70
    11
 71
     3
 72
    44
 73
    40
 74
     0
 42
0.000000001
 43
0.0000000001
 40
0.0
 40
0.0
 40
0.0
 40
0.0
 40
0.0909090909090909
 40
0.0909090909090909
 40
0.0909090909090909
 40
0.0909090909090909
 40
0.1818181818181818
 40
0.1818181818181818
 40
0.1818181818181818
 40
0.1818181818181818
 40
0.2727272727272727
 40
0.2727272727272727
 40
0.2727272727272727
 40
0.2727272727272727
 40
0.3636363636363636
 40
0.3636363636363636
 40
0.3636363636363636
 40
0.3636363636363636
 40
0.4545454545454545
 40
0.4545454545454545
 40
0.4545454545454545
 40
0.4545454545454545
 40
0.5454545454545454
 40
0.5454545454545454
 40
0.5454545454545454
 40
0.5454545454545454
 40
0.6363636363636364
 40
0.6363636363636364
 40
0.6363636363636364
 40
0.6363636363636364
 40
0.7272727272727273
 40
0.7272727272727273
 40
0.7272727272727273
 40
0.7272727272727273
 40
0.8181818181818182
 40
0.8181818181818182
 40
0.8181818181818182
 40
0.8181818181818182
 40
1.0
 40
1.0
 40
1.0
 40
1.0
 10
-0.1195
 20
36.3542
 30
0.0
 10
-0.0349
 20
36.5384
 30
0.0
 10
0.0091
 20
36.5607
 30
0.0
 10
0.4457
 20
36.3884
 30
0.0
 10
0.4457
 20
36.3884
 30
0.0
 10
0.8942
 20
36.2782
 30
0.0
 10
1.3768
 20
36.1898
 30
0.0
 10
1.9756
 20
36.263
 30
0.0
 10
1.9756
 20
36.263
 30
0.0
 10
2.2607
 20
36.3299
 30
0.0
 10
3.9005
 20
36.4411
 30
0.0
 10
4.0903
 20
36.2744
 30
0.0
 10
4.0903
 20
36.2744
 30
0.0
 10
4.3511
 20
35.8504
 30
0.0
 10
4.4823
 20
35.3885
 30
0.0
 10
4.5331
 20
34.9034
 30
0.0
 10
4.5331
 20
34.9034
 30
0.0
 10
4.5974
 20
34.2887
 30
0.0
 10
4.9129
 20
33.7282
 30
0.0
 10
5.1027
 20
33.1406
 30
0.0
 10
5.1027
 20
33.1406
 30
0.0
 10
5.2227
 20
32.8235
 30
0.0
 10
5.2676
 20
32.5539
 30
0.0
 10
5.1477
 20
32.3885
 30
0.0
 10
5.1477
 20
32.3885
 30
0.0
 10
4.9076
 20
31.9632
 30
0.0
 10
4.6677
 20
31.5377
 30
0.0
 10
4.4277
 20
31.1122
 30
0.0
 10
4.4277
 20
31.1122
 30
0.0
 10
4.257
 20
30.9564
 30
0.0
 10
4.0245
 20
31.0097
 30
0.0
 10
3.7641
 20
31.1578
 30
0.0
 10
3.7641
 20
31.1578
 30
0.0
 10
2.9432
 20
32.8133
 30
0.0
 10
1.9227
 20
34.2928
 30
0.0
 10
0.412
 20
35.34
 30
0.0
 10
0.412
 20
35.34
 30
0.0
 10
0.1698
 20
35.5041
 30
0.0
 10
-0.1178
 20
35.9469
 30
0.0
 10
-0.1195
 20
36.3542
 30
0.0
  0
SPLINE
  5
7C
330
1F
100
AcDbEntity
  8
Layer 1
 62
   140
100
AcDbSpline
210
0.0
220
0.0
230
1.0
 70
    11
 71
     3
 72
    28
 73
    24
 74
     0
 42
0.000000001
 43
0.0000000001
 40
0.0
 40
0.0
 40
0.0
 40
0.0
 40
0.1428571428571428
 40
0.1428571428571428
 40
0.1428571428571428
 40
0.1428571428571428
 40
0.2857142857142857
 40
0.2857142857142857
 40
0.2857142857142857
 40
0.2857142857142857
 40
0.4285714285714285
 40
0.4285714285714285
 40
0.4285714285714285
 40
0.4285714285714285
 40
0.5714285714285714
 40
0.5714285714285714
 40
0.5714285714285714
 40
0.5714285714285714
 40
0.7142857142857143
 40
0.7142857142857143
 40
0.7142857142857143
 40
0.7142857142857143
 40
1.0
 40
1.0
 40
1.0
 40
1.0
 10
5.4739
 20
35.3628
 30
0.0
 10
5.4432
 20
35.7455
 30
0.0
 10
5.5076
 20
36.0552
 30
0.0
 10
5.9126
 20
36.1035
 30
0.0
 10
5.9126
 20
36.1035
 30
0.0
 10
6.5725
 20
35.9724
 30
0.0
 10
7.2324
 20
35.8413
 30
0.0
 10
7.8923
 20
35.7103
 30
0.0
 10
7.8923
 20
35.7103
 30
0.0
 10
8.2514
 20
35.4927
 30
0.0
 10
8.2495
 20
35.2441
 30
0.0
 10
8.0835
 20
34.981
 30
0.0
 10
8.0835
 20
34.981
 30
0.0
 10
7.6332
 20
34.6876
 30
0.0
 10
7.195
 20
34.3458
 30
0.0
 10
6.7899
 20
33.87
 30
0.0
 10
6.7899
 20
33.87
 30
0.0
 10
6.4553
 20
33.7224
 30
0.0
 10
6.1816
 20
33.7538
 30
0.0
 10
5.997
 20
34.0465
 30
0.0
 10
5.997
 20
34.0465
 30
0.0
 10
5.8226
 20
34.4854
 30
0.0
 10
5.6482
 20
34.9241
 30
0.0
 10
5.4739
 20
35.3628
 30
0.0
  0
SPLINE
  5
7D
330
1F
100
AcDbEntity
  8
Layer 1
 62
   140
100
AcDbSpline
210
0.0
220
0.0
230
1.0
 70
    11
 71
     3
 72
    44
 73
    40
 74
     0
 42
0.000000001
 43
0.0000000001
 40
0.0
 40
0.0
 40
0.0
 40
0.0
 40
0.0909090909090909
 40
0.0909090909090909
 40
0.0909090909090909
 40
0.0909090909090909
 40
0.1818181818181818
 40
0.1818181818181818
 40
0.1818181818181818
 40
0.1818181818181818
 40
0.2727272727272727
 40
0.2727272727272727
 40
0.2727272727272727
 40
0.2727272727272727
 40
0.3636363636363636
 40
0.3636363636363636
 40
0.3636363636363636
 40
0.3636363636363636
 40
0.4545454545454545
 40
0.4545454545454545
 40
0.4545454545454545
 40
0.4545454545454545
 40
0.5454545454545454
 40
0.5454545454545454
 40
0.5454545454545454
 40
0.5454545454545454
 40
0.6363636363636364
 40
0.6363636363636364
 40
0.6363636363636364
 40
0.6363636363636364
 40
0.7272727272727273
 40
0.7272727272727273
 40
0.7272727272727273
 40
0.7272727272727273
 40
0.8181818181818182
 40
0.8181818181818182
 40
0.8181818181818182
 40
0.8181818181818182
 40
1.0
 40
1.0
 40
1.0
 40
1.0
 10
5.9126
 20
30.8387
 30
0.0
 10
5.5334
 20
30.1094
 30
0.0
 10
5.9464
 20
29.9745
 30
0.0
 10
6.3851
 20
29.8587
 30
0.0
 10
6.3851
 20
29.8587
 30
0.0
 10
6.8237
 20
29.7429
 30
0.0
 10
10.6713
 20
29.7845
 30
0.0
 10
11.1544
 20
29.6992
 30
0.0
 10
11.1544
 20
29.6992
 30
0.0
 10
11.6375
 20
29.6139
 30
0.0
 10
12.0427
 20
29.577
 30
0.0
 10
12.5831
 20
29.3915
 30
0.0
 10
12.5831
 20
29.3915
 30
0.0
 10
13.1234
 20
29.206
 30
0.0
 10
13.5338
 20
29.3498
 30
0.0
 10
13.4421
 20
29.9492
 30
0.0
 10
13.4421
 20
29.9492
 30
0.0
 10
13.3504
 20
30.5486
 30
0.0
 10
13.4154
 20
33.1216
 30
0.0
 10
13.3929
 20
34.793
 30
0.0
 10
13.3929
 20
34.793
 30
0.0
 10
13.4154
 20
35.3362
 30
0.0
 10
13.153
 20
35.6058
 30
0.0
 10
12.6055
 20
35.6021
 30
0.0
 10
12.6055
 20
35.6021
 30
0.0
 10
12.1593
 20
35.5337
 30
0.0
 10
11.7131
 20
35.4653
 30
0.0
 10
11.2669
 20
35.3969
 30
0.0
 10
11.2669
 20
35.3969
 30
0.0
 10
10.8966
 20
35.4123
 30
0.0
 10
10.546
 20
35.3477
 30
0.0
 10
10.2658
 20
34.9982
 30
0.0
 10
10.2658
 20
34.9982
 30
0.0
 10
9.6021
 20
34.1738
 30
0.0
 10
8.7884
 20
33.4863
 30
0.0
 10
7.8249
 20
32.9355
 30
0.0
 10
7.8249
 20
32.9355
 30
0.0
 10
7.1874
 20
32.2365
 30
0.0
 10
6.55
 20
31.5376
 30
0.0
 10
5.9126
 20
30.8387
 30
0.0
  0
SPLINE
  5
7E
330
1F
100
AcDbEntity
  8
Layer 1
 62
   140
100
AcDbSpline
210
0.0
220
0.0
230
1.0
 70
    11
 71
     3
 72
    48
 73
    44
 74
     0
 42
0.000000001
 43
0.0000000001
 40
0.0
 40
0.0
 40
0.0
 40
0.0
 40
0.0833333333333333
 40
0.0833333333333333
 40
0.0833333333333333
 40
0.0833333333333333
 40
0.1666666666666667
 40
0.1666666666666667
 40
0.1666666666666667
 40
0.1666666666666667
 40
0.25
 40
0.25
 40
0.25
 40
0.25
 40
0.3333333333333333
 40
0.3333333333333333
 40
0.3333333333333333
 40
0.3333333333333333
 40
0.4166666666666667
 40
0.4166666666666667
 40
0.4166666666666667
 40
0.4166666666666667
 40
0.5
 40
0.5
 40
0.5
 40
0.5
 40
0.5833333333333334
 40
0.5833333333333334
 40
0.5833333333333334
 40
0.5833333333333334
 40
0.6666666666666666
 40
0.6666666666666666
 40
0.6666666666666666
 40
0.6666666666666666
 40
0.75
 40
0.75
 40
0.75
 40
0.75
 40
0.8333333333333334
 40
0.8333333333333334
 40
0.8333333333333334
 40
0.8333333333333334
 40
1.0
 40
1.0
 40
1.0
 40
1.0
 10
15.3362
 20
29.8245
 30
0.0
 10
15.5883
 20
30.2946
 30
0.0
 10
15.8639
 20
30.456
 30
0.0
 10
16.1462
 20
30.531
 30
0.0
 10
16.1462
 20
30.531
 30
0.0
 10
17.1065
 20
31.0481
 30
0.0
 10
17.984
 20
31.6386
 30
0.0
 10
18.4634
 20
32.5822
 30
0.0
 10
18.4634
 20
32.5822
 30
0.0
 10
19.043
 20
33.338
 30
0.0
 10
19.6335
 20
34.0674
 30
0.0
 10
20.2632
 20
34.7018
 30
0.0
 10
20.2632
 20
34.7018
 30
0.0
 10
20.4957
 20
35.0437
 30
0.0
 10
20.7282
 20
35.3855
 30
0.0
 10
20.9606
 20
35.7274
 30
0.0
 10
20.9606
 20
35.7274
 30
0.0
 10
21.1452
 20
35.9629
 30
0.0
 10
21.2999
 20
35.9629
 30
0.0
 10
21.4248
 20
35.7274
 30
0.0
 10
21.4248
 20
35.7274
 30
0.0
 10
21.4248
 20
33.5699
 30
0.0
 10
21.4248
 20
31.4123
 30
0.0
 10
21.4248
 20
29.2548
 30
0.0
 10
21.4248
 20
29.2548
 30
0.0
 10
21.3741
 20
28.8238
 30
0.0
 10
21.2137
 20
28.5161
 30
0.0
 10
20.8932
 20
28.3887
 30
0.0
 10
20.8932
 20
28.3887
 30
0.0
 10
20.2201
 20
27.9044
 30
0.0
 10
19.5263
 20
27.9842
 30
0.0
 10
18.8233
 20
28.3203
 30
0.0
 10
18.8233
 20
28.3203
 30
0.0
 10
18.1
 20
28.7382
 30
0.0
 10
17.2365
 20
28.9814
 30
0.0
 10
16.1236
 20
28.9129
 30
0.0
 10
16.1236
 20
28.9129
 30
0.0
 10
15.7982
 20
28.8276
 30
0.0
 10
15.4737
 20
28.7579
 30
0.0
 10
15.1787
 20
29.1636
 30
0.0
 10
15.1787
 20
29.1636
 30
0.0
 10
15.0663
 20
29.4144
 30
0.0
 10
15.1188
 20
29.6348
 30
0.0
 10
15.3362
 20
29.8245
 30
0.0
  0
SPLINE
  5
7F
330
1F
100
AcDbEntity
  8
Layer 1
 62
   140
100
AcDbSpline
210
0.0
220
0.0
230
1.0
 70
    11
 71
     3
 72
    36
 73
    32
 74
     0
 42
0.000000001
 43
0.0000000001
 40
0.0
 40
0.0
 40
0.0
 40
0.0
 40
0.1111111111111111
 40
0.1111111111111111
 40
0.1111111111111111
 40
0.1111111111111111
 40
0.2222222222222222
 40
0.2222222222222222
 40
0.2222222222222222
 40
0.2222222222222222
 40
0.3333333333333333
 40
0.3333333333333333
 40
0.3333333333333333
 40
0.3333333333333333
 40
0.4444444444444444
 40
0.4444444444444444
 40
0.4444444444444444
 40
0.4444444444444444
 40
0.5555555555555556
 40
0.5555555555555556
 40
0.5555555555555556
 40
0.5555555555555556
 40
0.6666666666666666
 40
0.6666666666666666
 40
0.6666666666666666
 40
0.6666666666666666
 40
0.7777777777777778
 40
0.7777777777777778
 40
0.7777777777777778
 40
0.7777777777777778
 40
1.0
 40
1.0
 40
1.0
 40
1.0
 10
16.5061
 20
18.2923
 30
0.0
 10
16.6391
 20
17.3635
 30
0.0
 10
17.0403
 20
17.4584
 30
0.0
 10
17.5635
 20
18.0188
 30
0.0
 10
17.5635
 20
18.0188
 30
0.0
 10
18.7052
 20
19.542
 30
0.0
 10
19.9088
 20
20.8562
 30
0.0
 10
21.1406
 20
22.0756
 30
0.0
 10
21.1406
 20
22.0756
 30
0.0
 10
21.514
 20
22.5313
 30
0.0
 10
21.4952
 20
22.9872
 30
0.0
 10
21.298
 20
23.443
 30
0.0
 10
21.298
 20
23.443
 30
0.0
 10
20.7397
 20
23.8142
 30
0.0
 10
20.3039
 20
24.3783
 30
0.0
 10
20.0157
 20
25.1752
 30
0.0
 10
20.0157
 20
25.1752
 30
0.0
 10
19.5882
 20
25.4837
 30
0.0
 10
19.1607
 20
25.4134
 30
0.0
 10
18.7334
 20
25.084
 30
0.0
 10
18.7334
 20
25.084
 30
0.0
 10
17.8372
 20
24.1181
 30
0.0
 10
16.8322
 20
23.3452
 30
0.0
 10
15.6962
 20
22.8049
 30
0.0
 10
15.6962
 20
22.8049
 30
0.0
 10
14.9846
 20
22.3262
 30
0.0
 10
15.0257
 20
21.5633
 30
0.0
 10
15.5612
 20
20.9588
 30
0.0
 10
15.5612
 20
20.9588
 30
0.0
 10
16.2645
 20
20.3434
 30
0.0
 10
16.4932
 20
19.3938
 30
0.0
 10
16.5061
 20
18.2923
 30
0.0
  0
SPLINE
  5
80
330
1F
100
AcDbEntity
  8
Layer 1
 62
   140
100
AcDbSpline
210
0.0
220
0.0
230
1.0
 70
    11
 71
     3
 72
    28
 73
    24
 74
     0
 42
0.000000001
 43
0.0000000001
 40
0.0
 40
0.0
 40
0.0
 40
0.0
 40
0.1428571428571428
 40
0.1428571428571428
 40
0.1428571428571428
 40
0.1428571428571428
 40
0.2857142857142857
 40
0.2857142857142857
 40
0.2857142857142857
 40
0.2857142857142857
 40
0.4285714285714285
 40
0.4285714285714285
 40
0.4285714285714285
 40
0.4285714285714285
 40
0.5714285714285714
 40
0.5714285714285714
 40
0.5714285714285714
 40
0.5714285714285714
 40
0.7142857142857143
 40
0.7142857142857143
 40
0.7142857142857143
 40
0.7142857142857143
 40
1.0
 40
1.0
 40
1.0
 40
1.0
 10
15.3615
 20
27.0326
 30
0.0
 10
15.4558
 20
27.2279
 30
0.0
 10
15.5573
 20
27.4164
 30
0.0
 10
15.8789
 20
27.3973
 30
0.0
 10
15.8789
 20
27.3973
 30
0.0
 10
16.6213
 20
27.2879
 30
0.0
 10
17.3636
 20
27.305
 30
0.0
 10
18.1061
 20
27.4087
 30
0.0
 10
18.1061
 20
27.4087
 30
0.0
 10
18.4514
 20
27.2267
 30
0.0
 10
18.4212
 20
27.0095
 30
0.0
 10
18.2861
 20
26.7819
 30
0.0
 10
18.2861
 20
26.7819
 30
0.0
 10
17.519
 20
26.306
 30
0.0
 10
16.7843
 20
25.8106
 30
0.0
 10
16.0926
 20
25.2891
 30
0.0
 10
16.0926
 20
25.2891
 30
0.0
 10
15.7777
 20
25.0651
 30
0.0
 10
15.5376
 20
25.1298
 30
0.0
 10
15.3727
 20
25.4829
 30
0.0
 10
15.3727
 20
25.4829
 30
0.0
 10
15.369
 20
25.9994
 30
0.0
 10
15.3652
 20
26.516
 30
0.0
 10
15.3615
 20
27.0326
 30
0.0
  0
SPLINE
  5
81
330
1F
100
AcDbEntity
  8
Layer 1
 62
   140
100
AcDbSpline
210
0.0
220
0.0
230
1.0
 70
    11
 71
     3
 72
    32
 73
    28
 74
     0
 42
0.000000001
 43
0.0000000001
 40
0.0
 40
0.0
 40
0.0
 40
0.0
 40
0.125
 40
0.125
 40
0.125
 40
0.125
 40
0.25
 40
0.25
 40
0.25
 40
0.25
 40
0.375
 40
0.375
 40
0.375
 40
0.375
 40
0.5
 40
0.5
 40
0.5
 40
0.5
 40
0.625
 40
0.625
 40
0.625
 40
0.625
 40
0.75
 40
0.75
 40
0.75
 40
0.75
 40
1.0
 40
1.0
 40
1.0
 40
1.0
 10
9.6247
 20
27.3289
 30
0.0
 10
9.7071
 20
27.7049
 30
0.0
 10
9.9246
 20
27.8835
 30
0.0
 10
10.2771
 20
27.8645
 30
0.0
 10
10.2771
 20
27.8645
 30
0.0
 10
11.1132
 20
27.7629
 30
0.0
 10
11.9494
 20
27.6707
 30
0.0
 10
12.7855
 20
27.8759
 30
0.0
 10
12.7855
 20
27.8759
 30
0.0
 10
13.1774
 20
27.844
 30
0.0
 10
13.5037
 20
27.7186
 30
0.0
 10
13.5954
 20
27.2605
 30
0.0
 10
13.5954
 20
27.2605
 30
0.0
 10
13.5071
 20
25.449
 30
0.0
 10
13.5672
 20
23.6937
 30
0.0
 10
13.7192
 20
21.973
 30
0.0
 10
13.7192
 20
21.973
 30
0.0
 10
13.5381
 20
21.3929
 30
0.0
 10
13.1988
 20
21.3188
 30
0.0
 10
12.628
 20
21.9844
 30
0.0
 10
12.628
 20
21.9844
 30
0.0
 10
11.942
 20
23.5263
 30
0.0
 10
11.1395
 20
25.0239
 30
0.0
 10
9.9733
 20
26.3831
 30
0.0
 10
9.9733
 20
26.3831
 30
0.0
 10
9.7885
 20
26.6034
 30
0.0
 10
9.6563
 20
26.7231
 30
0.0
 10
9.6247
 20
27.3289
 30
0.0
  0
SPLINE
  5
82
330
1F
100
AcDbEntity
  8
Layer 1
 62
   140
100
AcDbSpline
210
0.0
220
0.0
230
1.0
 70
    11
 71
     3
 72
    32
 73
    28
 74
     0
 42
0.000000001
 43
0.0000000001
 40
0.0
 40
0.0
 40
0.0
 40
0.0
 40
0.125
 40
0.125
 40
0.125
 40
0.125
 40
0.25
 40
0.25
 40
0.25
 40
0.25
 40
0.375
 40
0.375
 40
0.375
 40
0.375
 40
0.5
 40
0.5
 40
0.5
 40
0.5
 40
0.625
 40
0.625
 40
0.625
 40
0.625
 40
0.75
 40
0.75
 40
0.75
 40
0.75
 40
1.0
 40
1.0
 40
1.0
 40
1.0
 10
20.997
 20
20.2751
 30
0.0
 10
21.222
 20
20.4823
 30
0.0
 10
21.3646
 20
20.4233
 30
0.0
 10
21.4248
 20
20.0984
 30
0.0
 10
21.4248
 20
20.0984
 30
0.0
 10
21.4248
 20
19.2096
 30
0.0
 10
21.4248
 20
18.3208
 30
0.0
 10
21.4248
 20
17.4319
 30
0.0
 10
21.4248
 20
17.4319
 30
0.0
 10
21.2924
 20
17.2135
 30
0.0
 10
21.3166
 20
17.1546
 30
0.0
 10
20.9296
 20
17.1356
 30
0.0
 10
20.9296
 20
17.1356
 30
0.0
 10
20.3615
 20
17.0692
 30
0.0
 10
19.7934
 20
17.0027
 30
0.0
 10
19.2254
 20
16.9362
 30
0.0
 10
19.2254
 20
16.9362
 30
0.0
 10
18.8748
 20
16.8851
 30
0.0
 10
18.6368
 20
16.9667
 30
0.0
 10
18.646
 20
17.3408
 30
0.0
 10
18.646
 20
17.3408
 30
0.0
 10
18.9348
 20
17.9468
 30
0.0
 10
19.2893
 20
18.4767
 30
0.0
 10
19.7878
 20
18.8392
 30
0.0
 10
19.7878
 20
18.8392
 30
0.0
 10
20.3224
 20
19.1926
 30
0.0
 10
20.7175
 20
19.6789
 30
0.0
 10
20.997
 20
20.2751
 30
0.0
  0
SPLINE
  5
83
330
1F
100
AcDbEntity
  8
Layer 1
 62
   140
100
AcDbSpline
210
0.0
220
0.0
230
1.0
 70
    11
 71
     3
 72
    32
 73
    28
 74
     0
 42
0.000000001
 43
0.0000000001
 40
0.0
 40
0.0
 40
0.0
 40
0.0
 40
0.125
 40
0.125
 40
0.125
 40
0.125
 40
0.25
 40
0.25
 40
0.25
 40
0.25
 40
0.375
 40
0.375
 40
0.375
 40
0.375
 40
0.5
 40
0.5
 40
0.5
 40
0.5
 40
0.625
 40
0.625
 40
0.625
 40
0.625
 40
0.75
 40
0.75
 40
0.75
 40
0.75
 40
1.0
 40
1.0
 40
1.0
 40
1.0
 10
11.5819
 20
17.4376
 30
0.0
 10
11.6831
 20
17.6427
 30
0.0
 10
12.5043
 20
19.2951
 30
0.0
 10
12.5381
 20
19.3976
 30
0.0
 10
12.5381
 20
19.3976
 30
0.0
 10
12.5718
 20
19.5002
 30
0.0
 10
12.9899
 20
19.939
 30
0.0
 10
13.3817
 20
20.0358
 30
0.0
 10
13.3817
 20
20.0358
 30
0.0
 10
13.7735
 20
20.1326
 30
0.0
 10
14.0996
 20
20.1249
 30
0.0
 10
14.2816
 20
19.8877
 30
0.0
 10
14.2816
 20
19.8877
 30
0.0
 10
14.6903
 20
19.09
 30
0.0
 10
15.099
 20
18.2923
 30
0.0
 10
15.5077
 20
17.4946
 30
0.0
 10
15.5077
 20
17.4946
 30
0.0
 10
15.6312
 20
17.0852
 30
0.0
 10
15.6408
 20
16.7073
 30
0.0
 10
15.1027
 20
16.4804
 30
0.0
 10
15.1027
 20
16.4804
 30
0.0
 10
14.2105
 20
16.5228
 30
0.0
 10
13.2655
 20
16.3251
 30
0.0
 10
12.3131
 20
16.0929
 30
0.0
 10
12.3131
 20
16.0929
 30
0.0
 10
11.741
 20
16.1955
 30
0.0
 10
11.4037
 20
16.5449
 30
0.0
 10
11.5819
 20
17.4376
 30
0.0
  0
SPLINE
  5
84
330
1F
100
AcDbEntity
  8
Layer 1
 62
   140
100
AcDbSpline
210
0.0
220
0.0
230
1.0
 70
    11
 71
     3
 72
    80
 73
    76
 74
     0
 42
0.000000001
 43
0.0000000001
 40
0.0
 40
0.0
 40
0.0
 40
0.0
 40
0.05
 40
0.05
 40
0.05
 40
0.05
 40
0.1
 40
0.1
 40
0.1
 40
0.1
 40
0.15
 40
0.15
 40
0.15
 40
0.15
 40
0.2
 40
0.2
 40
0.2
 40
0.2
 40
0.25
 40
0.25
 40
0.25
 40
0.25
 40
0.3
 40
0.3
 40
0.3
 40
0.3
 40
0.35
 40
0.35
 40
0.35
 40
0.35
 40
0.4
 40
0.4
 40
0.4
 40
0.4
 40
0.45
 40
0.45
 40
0.45
 40
0.45
 40
0.5
 40
0.5
 40
0.5
 40
0.5
 40
0.55
 40
0.55
 40
0.55
 40
0.55
 40
0.6
 40
0.6
 40
0.6
 40
0.6
 40
0.65
 40
0.65
 40
0.65
 40
0.65
 40
0.7
 40
0.7
 40
0.7
 40
0.7
 40
0.75
 40
0.75
 40
0.75
 40
0.75
 40
0.8
 40
0.8
 40
0.8
 40
0.8
 40
0.85
 40
0.85
 40
0.85
 40
0.85
 40
0.9
 40
0.9
 40
0.9
 40
0.9
 40
1.0
 40
1.0
 40
1.0
 40
1.0
 10
1.5903
 20
25.0385
 30
0.0
 10
1.4814
 20
24.3548
 30
0.0
 10
1.8264
 20
24.0889
 30
0.0
 10
2.3777
 20
24.0128
 30
0.0
 10
2.3777
 20
24.0128
 30
0.0
 10
3.2476
 20
23.6406
 30
0.0
 10
4.1174
 20
23.3215
 30
0.0
 10
4.9874
 20
23.1924
 30
0.0
 10
4.9874
 20
23.1924
 30
0.0
 10
5.5048
 20
23.086
 30
0.0
 10
6.0223
 20
22.9797
 30
0.0
 10
6.5397
 20
22.8732
 30
0.0
 10
6.5397
 20
22.8732
 30
0.0
 10
7.4499
 20
22.6535
 30
0.0
 10
7.3299
 20
21.5814
 30
0.0
 10
6.3099
 20
21.7636
 30
0.0
 10
6.3099
 20
21.7636
 30
0.0
 10
5.4377
 20
21.9195
 30
0.0
 10
4.3918
 20
22.0728
 30
0.0
 10
4.11
 20
22.0756
 30
0.0
 10
4.11
 20
22.0756
 30
0.0
 10
3.1614
 20
21.9688
 30
0.0
 10
2.134
 20
22.0754
 30
0.0
 10
1.0954
 20
22.2123
 30
0.0
 10
1.0954
 20
22.2123
 30
0.0
 10
0.8479
 20
22.2921
 30
0.0
 10
0.6005
 20
22.1631
 30
0.0
 10
0.3529
 20
21.9388
 30
0.0
 10
0.3529
 20
21.9388
 30
0.0
 10
-0.172
 20
21.3387
 30
0.0
 10
-0.697
 20
20.7386
 30
0.0
 10
-1.2219
 20
20.1384
 30
0.0
 10
-1.2219
 20
20.1384
 30
0.0
 10
-1.6795
 20
18.919
 30
0.0
 10
-1.3119
 20
18.1594
 30
0.0
 10
-0.5695
 20
17.6085
 30
0.0
 10
-0.5695
 20
17.6085
 30
0.0
 10
0.9755
 20
16.6186
 30
0.0
 10
2.5201
 20
16.4828
 30
0.0
 10
4.065
 20
16.469
 30
0.0
 10
4.065
 20
16.469
 30
0.0
 10
5.3099
 20
16.393
 30
0.0
 10
6.5547
 20
16.3171
 30
0.0
 10
7.7996
 20
16.2411
 30
0.0
 10
7.7996
 20
16.2411
 30
0.0
 10
8.8795
 20
16.2525
 30
0.0
 10
9.5469
 20
16.64
 30
0.0
 10
10.0269
 20
17.1983
 30
0.0
 10
10.0269
 20
17.1983
 30
0.0
 10
10.5068
 20
18.1024
 30
0.0
 10
10.9867
 20
19.0064
 30
0.0
 10
11.4667
 20
19.9104
 30
0.0
 10
11.4667
 20
19.9104
 30
0.0
 10
11.6804
 20
20.3967
 30
0.0
 10
11.6878
 20
20.883
 30
0.0
 10
11.2417
 20
21.3691
 30
0.0
 10
11.2417
 20
21.3691
 30
0.0
 10
10.0868
 20
23.3595
 30
0.0
 10
8.9319
 20
25.3498
 30
0.0
 10
7.7771
 20
27.3403
 30
0.0
 10
7.7771
 20
27.3403
 30
0.0
 10
7.5971
 20
27.9101
 30
0.0
 10
7.1471
 20
28.1758
 30
0.0
 10
6.4273
 20
28.138
 30
0.0
 10
6.4273
 20
28.138
 30
0.0
 10
5.8271
 20
27.9467
 30
0.0
 10
5.2797
 20
28.1827
 30
0.0
 10
4.74
 20
28.4799
 30
0.0
 10
4.74
 20
28.4799
 30
0.0
 10
4.125
 20
28.7001
 30
0.0
 10
3.6001
 20
28.5253
 30
0.0
 10
3.1651
 20
27.9556
 30
0.0
 10
3.1651
 20
27.9556
 30
0.0
 10
2.7761
 20
26.9005
 30
0.0
 10
2.2792
 20
25.9109
 30
0.0
 10
1.5903
 20
25.0385
 30
0.0
  0
SPLINE
  5
85
330
1F
100
AcDbEntity
  8
Layer 1
 62
   140
100
AcDbSpline
210
0.0
220
0.0
230
1.0
 70
    11
 71
     3
 72
    48
 73
    44
 74
     0
 42
0.000000001
 43
0.0000000001
 40
0.0
 40
0.0
 40
0.0
 40
0.0
 40
0.0833333333333333
 40
0.0833333333333333
 40
0.0833333333333333
 40
0.0833333333333333
 40
0.1666666666666667
 40
0.1666666666666667
 40
0.1666666666666667
 40
0.1666666666666667
 40
0.25
 40
0.25
 40
0.25
 40
0.25
 40
0.3333333333333333
 40
0.3333333333333333
 40
0.3333333333333333
 40
0.3333333333333333
 40
0.4166666666666667
 40
0.4166666666666667
 40
0.4166666666666667
 40
0.4166666666666667
 40
0.5
 40
0.5
 40
0.5
 40
0.5
 40
0.5833333333333334
 40
0.5833333333333334
 40
0.5833333333333334
 40
0.5833333333333334
 40
0.6666666666666666
 40
0.6666666666666666
 40
0.6666666666666666
 40
0.6666666666666666
 40
0.75
 40
0.75
 40
0.75
 40
0.75
 40
0.8333333333333334
 40
0.8333333333333334
 40
0.8333333333333334
 40
0.8333333333333334
 40
1.0
 40
1.0
 40
1.0
 40
1.0
 10
-3.2016
 20
24.9244
 30
0.0
 10
-2.0243
 20
25.6917
 30
0.0
 10
-0.8469
 20
26.4591
 30
0.0
 10
0.3305
 20
27.2264
 30
0.0
 10
0.3305
 20
27.2264
 30
0.0
 10
1.0503
 20
27.4846
 30
0.0
 10
1.4102
 20
27.1959
 30
0.0
 10
0.8704
 20
26.3603
 30
0.0
 10
0.8704
 20
26.3603
 30
0.0
 10
0.2705
 20
25.4258
 30
0.0
 10
-0.5994
 20
24.4915
 30
0.0
 10
-1.1994
 20
23.557
 30
0.0
 10
-1.1994
 20
23.557
 30
0.0
 10
-2.0956
 20
22.3302
 30
0.0
 10
-2.7481
 20
21.0844
 30
0.0
 10
-2.8642
 20
19.7964
 30
0.0
 10
-2.8642
 20
19.7964
 30
0.0
 10
-2.9242
 20
19.4926
 30
0.0
 10
-2.9842
 20
19.1887
 30
0.0
 10
-3.0442
 20
18.8849
 30
0.0
 10
-3.0442
 20
18.8849
 30
0.0
 10
-3.2316
 20
18.4214
 30
0.0
 10
-3.5389
 20
18.2924
 30
0.0
 10
-3.9665
 20
18.4974
 30
0.0
 10
-3.9665
 20
18.4974
 30
0.0
 10
-5.3275
 20
18.8433
 30
0.0
 10
-6.8949
 20
18.98
 30
0.0
 10
-8.556
 20
19.0216
 30
0.0
 10
-8.556
 20
19.0216
 30
0.0
 10
-9.4061
 20
19.2492
 30
0.0
 10
-9.255
 20
19.6367
 30
0.0
 10
-8.961
 20
20.0472
 30
0.0
 10
-8.961
 20
20.0472
 30
0.0
 10
-8.5334
 20
20.3359
 30
0.0
 10
-8.106
 20
20.6246
 30
0.0
 10
-7.6786
 20
20.9133
 30
0.0
 10
-7.6786
 20
20.9133
 30
0.0
 10
-6.8762
 20
21.7186
 30
0.0
 10
-6.0737
 20
22.5238
 30
0.0
 10
-5.2714
 20
23.3291
 30
0.0
 10
-5.2714
 20
23.3291
 30
0.0
 10
-4.6295
 20
23.9581
 30
0.0
 10
-4.0353
 20
24.6844
 30
0.0
 10
-3.2016
 20
24.9244
 30
0.0
  0
SPLINE
  5
86
330
1F
100
AcDbEntity
  8
Layer 1
 62
   140
100
AcDbSpline
210
0.0
220
0.0
230
1.0
 70
    11
 71
     3
 72
    48
 73
    44
 74
     0
 42
0.000000001
 43
0.0000000001
 40
0.0
 40
0.0
 40
0.0
 40
0.0
 40
0.0833333333333333
 40
0.0833333333333333
 40
0.0833333333333333
 40
0.0833333333333333
 40
0.1666666666666667
 40
0.1666666666666667
 40
0.1666666666666667
 40
0.1666666666666667
 40
0.25
 40
0.25
 40
0.25
 40
0.25
 40
0.3333333333333333
 40
0.3333333333333333
 40
0.3333333333333333
 40
0.3333333333333333
 40
0.4166666666666667
 40
0.4166666666666667
 40
0.4166666666666667
 40
0.4166666666666667
 40
0.5
 40
0.5
 40
0.5
 40
0.5
 40
0.5833333333333334
 40
0.5833333333333334
 40
0.5833333333333334
 40
0.5833333333333334
 40
0.6666666666666666
 40
0.6666666666666666
 40
0.6666666666666666
 40
0.6666666666666666
 40
0.75
 40
0.75
 40
0.75
 40
0.75
 40
0.8333333333333334
 40
0.8333333333333334
 40
0.8333333333333334
 40
0.8333333333333334
 40
1.0
 40
1.0
 40
1.0
 40
1.0
 10
-17.1275
 20
22.0756
 30
0.0
 10
-17.4202
 20
22.3795
 30
0.0
 10
-17.4877
 20
22.6833
 30
0.0
 10
-17.0601
 20
22.9872
 30
0.0
 10
-17.0601
 20
22.9872
 30
0.0
 10
-16.4676
 20
23.3519
 30
0.0
 10
-15.8752
 20
23.7165
 30
0.0
 10
-15.2828
 20
24.0812
 30
0.0
 10
-15.2828
 20
24.0812
 30
0.0
 10
-14.5854
 20
24.7003
 30
0.0
 10
-13.9705
 20
24.8599
 30
0.0
 10
-13.393
 20
24.8105
 30
0.0
 10
-13.393
 20
24.8105
 30
0.0
 10
-11.1283
 20
24.8635
 30
0.0
 10
-8.9536
 20
25.4029
 30
0.0
 10
-6.8687
 20
26.4287
 30
0.0
 10
-6.8687
 20
26.4287
 30
0.0
 10
-6.5238
 20
26.5654
 30
0.0
 10
-6.1788
 20
26.7021
 30
0.0
 10
-5.8338
 20
26.8389
 30
0.0
 10
-5.8338
 20
26.8389
 30
0.0
 10
-5.1064
 20
26.7097
 30
0.0
 10
-4.979
 20
26.2158
 30
0.0
 10
-5.4514
 20
25.3575
 30
0.0
 10
-5.4514
 20
25.3575
 30
0.0
 10
-6.0589
 20
24.9092
 30
0.0
 10
-6.6663
 20
24.461
 30
0.0
 10
-7.2737
 20
24.0128
 30
0.0
 10
-7.2737
 20
24.0128
 30
0.0
 10
-8.0087
 20
23.3291
 30
0.0
 10
-8.7435
 20
22.6453
 30
0.0
 10
-9.4784
 20
21.9616
 30
0.0
 10
-9.4784
 20
21.9616
 30
0.0
 10
-10.0708
 20
21.2248
 30
0.0
 10
-10.6633
 20
20.4879
 30
0.0
 10
-11.2557
 20
19.7509
 30
0.0
 10
-11.2557
 20
19.7509
 30
0.0
 10
-11.8669
 20
19.2305
 30
0.0
 10
-12.5194
 20
19.3369
 30
0.0
 10
-13.1905
 20
19.7281
 30
0.0
 10
-13.1905
 20
19.7281
 30
0.0
 10
-14.1316
 20
20.9895
 30
0.0
 10
-15.5265
 20
21.6655
 30
0.0
 10
-17.1275
 20
22.0756
 30
0.0
  0
SPLINE
  5
87
330
1F
100
AcDbEntity
  8
Layer 1
 62
   140
100
AcDbSpline
210
0.0
220
0.0
230
1.0
 70
    11
 71
     3
 72
    44
 73
    40
 74
     0
 42
0.000000001
 43
0.0000000001
 40
0.0
 40
0.0
 40
0.0
 40
0.0
 40
0.0909090909090909
 40
0.0909090909090909
 40
0.0909090909090909
 40
0.0909090909090909
 40
0.1818181818181818
 40
0.1818181818181818
 40
0.1818181818181818
 40
0.1818181818181818
 40
0.2727272727272727
 40
0.2727272727272727
 40
0.2727272727272727
 40
0.2727272727272727
 40
0.3636363636363636
 40
0.3636363636363636
 40
0.3636363636363636
 40
0.3636363636363636
 40
0.4545454545454545
 40
0.4545454545454545
 40
0.4545454545454545
 40
0.4545454545454545
 40
0.5454545454545454
 40
0.5454545454545454
 40
0.5454545454545454
 40
0.5454545454545454
 40
0.6363636363636364
 40
0.6363636363636364
 40
0.6363636363636364
 40
0.6363636363636364
 40
0.7272727272727273
 40
0.7272727272727273
 40
0.7272727272727273
 40
0.7272727272727273
 40
0.8181818181818182
 40
0.8181818181818182
 40
0.8181818181818182
 40
0.8181818181818182
 40
1.0
 40
1.0
 40
1.0
 40
1.0
 10
-21.3898
 20
29.1636
 30
0.0
 10
-21.2777
 20
29.4283
 30
0.0
 10
-21.2094
 20
29.7472
 30
0.0
 10
-20.8172
 20
29.665
 30
0.0
 10
-20.8172
 20
29.665
 30
0.0
 10
-18.348
 20
29.1656
 30
0.0
 10
-15.8996
 20
28.8027
 30
0.0
 10
-13.5504
 20
29.0953
 30
0.0
 10
-13.5504
 20
29.0953
 30
0.0
 10
-12.9857
 20
29.0982
 30
0.0
 10
-12.6905
 20
28.9482
 30
0.0
 10
-12.8756
 20
28.5254
 30
0.0
 10
-12.8756
 20
28.5254
 30
0.0
 10
-13.2893
 20
26.9318
 30
0.0
 10
-14.6252
 20
26.1122
 30
0.0
 10
-16.0927
 20
25.4031
 30
0.0
 10
-16.0927
 20
25.4031
 30
0.0
 10
-16.4977
 20
25.1904
 30
0.0
 10
-16.9026
 20
24.9777
 30
0.0
 10
-17.3075
 20
24.7649
 30
0.0
 10
-17.3075
 20
24.7649
 30
0.0
 10
-17.8943
 20
24.5123
 30
0.0
 10
-18.0181
 20
24.1515
 30
0.0
 10
-17.825
 20
23.7165
 30
0.0
 10
-17.825
 20
23.7165
 30
0.0
 10
-17.8935
 20
23.1259
 30
0.0
 10
-18.2291
 20
22.9323
 30
0.0
 10
-18.7474
 20
23.01
 30
0.0
 10
-18.7474
 20
23.01
 30
0.0
 10
-19.0399
 20
23.0176
 30
0.0
 10
-19.3323
 20
23.0252
 30
0.0
 10
-19.6248
 20
23.0328
 30
0.0
 10
-19.6248
 20
23.0328
 30
0.0
 10
-20.8272
 20
23.2513
 30
0.0
 10
-21.126
 20
24.3557
 30
0.0
 10
-21.3898
 20
25.4942
 30
0.0
 10
-21.3898
 20
25.4942
 30
0.0
 10
-21.3898
 20
26.7174
 30
0.0
 10
-21.3898
 20
27.9405
 30
0.0
 10
-21.3898
 20
29.1636
 30
0.0
  0
SPLINE
  5
88
330
1F
100
AcDbEntity
  8
Layer 1
 62
   140
100
AcDbSpline
210
0.0
220
0.0
230
1.0
 70
    11
 71
     3
 72
    36
 73
    32
 74
     0
 42
0.000000001
 43
0.0000000001
 40
0.0
 40
0.0
 40
0.0
 40
0.0
 40
0.1111111111111111
 40
0.1111111111111111
 40
0.1111111111111111
 40
0.1111111111111111
 40
0.2222222222222222
 40
0.2222222222222222
 40
0.2222222222222222
 40
0.2222222222222222
 40
0.3333333333333333
 40
0.3333333333333333
 40
0.3333333333333333
 40
0.3333333333333333
 40
0.4444444444444444
 40
0.4444444444444444
 40
0.4444444444444444
 40
0.4444444444444444
 40
0.5555555555555556
 40
0.5555555555555556
 40
0.5555555555555556
 40
0.5555555555555556
 40
0.6666666666666666
 40
0.6666666666666666
 40
0.6666666666666666
 40
0.6666666666666666
 40
0.7777777777777778
 40
0.7777777777777778
 40
0.7777777777777778
 40
0.7777777777777778
 40
1.0
 40
1.0
 40
1.0
 40
1.0
 10
-11.0166
 20
28.3089
 30
0.0
 10
-10.503
 20
29.1142
 30
0.0
 10
-9.9893
 20
29.9194
 30
0.0
 10
-9.4756
 20
30.7248
 30
0.0
 10
-9.4756
 20
30.7248
 30
0.0
 10
-9.375
 20
31.0671
 30
0.0
 10
-9.2254
 20
31.3598
 30
0.0
 10
-8.7332
 20
31.306
 30
0.0
 10
-8.7332
 20
31.306
 30
0.0
 10
-7.9655
 20
31.053
 30
0.0
 10
-7.1913
 20
30.9199
 30
0.0
 10
-6.3935
 20
31.2148
 30
0.0
 10
-6.3935
 20
31.2148
 30
0.0
 10
-6.1047
 20
31.2831
 30
0.0
 10
-5.9661
 20
31.2146
 30
0.0
 10
-5.9773
 20
31.0097
 30
0.0
 10
-5.9773
 20
31.0097
 30
0.0
 10
-6.0912
 20
30.3344
 30
0.0
 10
-6.0285
 20
29.6867
 30
0.0
 10
-5.7523
 20
29.0724
 30
0.0
 10
-5.7523
 20
29.0724
 30
0.0
 10
-5.5636
 20
28.7986
 30
0.0
 10
-5.8491
 20
28.6315
 30
0.0
 10
-6.2023
 20
28.4799
 30
0.0
 10
-6.2023
 20
28.4799
 30
0.0
 10
-7.6781
 20
28.2442
 30
0.0
 10
-9.1737
 20
27.8269
 30
0.0
 10
-10.6792
 20
27.3175
 30
0.0
 10
-10.6792
 20
27.3175
 30
0.0
 10
-11.1645
 20
27.3506
 30
0.0
 10
-11.5254
 20
27.4828
 30
0.0
 10
-11.0166
 20
28.3089
 30
0.0
  0
SPLINE
  5
89
330
1F
100
AcDbEntity
  8
Layer 1
 62
   140
100
AcDbSpline
210
0.0
220
0.0
230
1.0
 70
    11
 71
     3
 72
    56
 73
    52
 74
     0
 42
0.000000001
 43
0.0000000001
 40
0.0
 40
0.0
 40
0.0
 40
0.0
 40
0.0714285714285714
 40
0.0714285714285714
 40
0.0714285714285714
 40
0.0714285714285714
 40
0.1428571428571428
 40
0.1428571428571428
 40
0.1428571428571428
 40
0.1428571428571428
 40
0.2142857142857143
 40
0.2142857142857143
 40
0.2142857142857143
 40
0.2142857142857143
 40
0.2857142857142857
 40
0.2857142857142857
 40
0.2857142857142857
 40
0.2857142857142857
 40
0.3571428571428572
 40
0.3571428571428572
 40
0.3571428571428572
 40
0.3571428571428572
 40
0.4285714285714285
 40
0.4285714285714285
 40
0.4285714285714285
 40
0.4285714285714285
 40
0.5
 40
0.5
 40
0.5
 40
0.5
 40
0.5714285714285714
 40
0.5714285714285714
 40
0.5714285714285714
 40
0.5714285714285714
 40
0.6428571428571429
 40
0.6428571428571429
 40
0.6428571428571429
 40
0.6428571428571429
 40
0.7142857142857143
 40
0.7142857142857143
 40
0.7142857142857143
 40
0.7142857142857143
 40
0.7857142857142857
 40
0.7857142857142857
 40
0.7857142857142857
 40
0.7857142857142857
 40
0.8571428571428571
 40
0.8571428571428571
 40
0.8571428571428571
 40
0.8571428571428571
 40
1.0
 40
1.0
 40
1.0
 40
1.0
 10
-11.9307
 20
11.5461
 30
0.0
 10
-12.2006
 20
11.903
 30
0.0
 10
-11.5557
 20
13.5592
 30
0.0
 10
-10.8057
 20
13.7796
 30
0.0
 10
-10.8057
 20
13.7796
 30
0.0
 10
-10.0557
 20
14.0001
 30
0.0
 10
-9.111
 20
14.9268
 30
0.0
 10
-8.151
 20
15.6713
 30
0.0
 10
-8.151
 20
15.6713
 30
0.0
 10
-7.3828
 20
16.363
 30
0.0
 10
-6.4307
 20
16.8417
 30
0.0
 10
-4.8215
 20
16.5601
 30
0.0
 10
-4.8215
 20
16.5601
 30
0.0
 10
-3.6141
 20
16.4385
 30
0.0
 10
-2.4067
 20
16.317
 30
0.0
 10
-1.1994
 20
16.1955
 30
0.0
 10
-1.1994
 20
16.1955
 30
0.0
 10
0.0247
 20
15.5297
 30
0.0
 10
0.396
 20
14.7642
 30
0.0
 10
0.0605
 20
13.9164
 30
0.0
 10
0.0605
 20
13.9164
 30
0.0
 10
-0.8442
 20
11.8045
 30
0.0
 10
-1.7208
 20
9.71
 30
0.0
 10
-1.7168
 20
8.1503
 30
0.0
 10
-1.7168
 20
8.1503
 30
0.0
 10
-1.8641
 20
6.9673
 30
0.0
 10
-2.2739
 20
6.6721
 30
0.0
 10
-2.9992
 20
6.3042
 30
0.0
 10
-2.9992
 20
6.3042
 30
0.0
 10
-3.5241
 20
5.8483
 30
0.0
 10
-4.0491
 20
5.3925
 30
0.0
 10
-4.574
 20
4.9366
 30
0.0
 10
-4.574
 20
4.9366
 30
0.0
 10
-5.3273
 20
4.2485
 30
0.0
 10
-6.1449
 20
4.1424
 30
0.0
 10
-7.9036
 20
4.8227
 30
0.0
 10
-7.9036
 20
4.8227
 30
0.0
 10
-8.6835
 20
5.3849
 30
0.0
 10
-9.4635
 20
5.9471
 30
0.0
 10
-10.2433
 20
6.5093
 30
0.0
 10
-10.2433
 20
6.5093
 30
0.0
 10
-11.0572
 20
7.026
 30
0.0
 10
-11.4171
 20
7.8768
 30
0.0
 10
-11.5707
 20
8.8795
 30
0.0
 10
-11.5707
 20
8.8795
 30
0.0
 10
-11.682
 20
9.8036
 30
0.0
 10
-11.7933
 20
10.7278
 30
0.0
 10
-11.9045
 20
11.6519
 30
0.0
 10
-11.9045
 20
11.6519
 30
0.0
 10
-11.9045
 20
11.6519
 30
0.0
 10
-11.9307
 20
11.5461
 30
0.0
 10
-11.9307
 20
11.5461
 30
0.0
  0
SPLINE
  5
8A
330
1F
100
AcDbEntity
  8
Layer 1
 62
   140
100
AcDbSpline
210
0.0
220
0.0
230
1.0
 70
    11
 71
     3
 72
    40
 73
    36
 74
     0
 42
0.000000001
 43
0.0000000001
 40
0.0
 40
0.0
 40
0.0
 40
0.0
 40
0.1
 40
0.1
 40
0.1
 40
0.1
 40
0.2
 40
0.2
 40
0.2
 40
0.2
 40
0.3
 40
0.3
 40
0.3
 40
0.3
 40
0.4
 40
0.4
 40
0.4
 40
0.4
 40
0.5
 40
0.5
 40
0.5
 40
0.5
 40
0.6
 40
0.6
 40
0.6
 40
0.6
 40
0.7
 40
0.7
 40
0.7
 40
0.7
 40
0.8
 40
0.8
 40
0.8
 40
0.8
 40
1.0
 40
1.0
 40
1.0
 40
1.0
 10
-21.3898
 20
15.3978
 30
0.0
 10
-21.3039
 20
15.7093
 30
0.0
 10
-21.218
 20
16.0207
 30
0.0
 10
-21.1321
 20
16.3322
 30
0.0
 10
-21.1321
 20
16.3322
 30
0.0
 10
-20.3448
 20
17.6008
 30
0.0
 10
-19.5574
 20
18.5047
 30
0.0
 10
-18.7699
 20
19.0444
 30
0.0
 10
-18.7699
 20
19.0444
 30
0.0
 10
-18.4624
 20
19.3102
 30
0.0
 10
-18.155
 20
19.5761
 30
0.0
 10
-17.8475
 20
19.842
 30
0.0
 10
-17.8475
 20
19.842
 30
0.0
 10
-17.495
 20
19.8401
 30
0.0
 10
-17.0302
 20
19.7905
 30
0.0
 10
-16.3176
 20
19.6369
 30
0.0
 10
-16.3176
 20
19.6369
 30
0.0
 10
-14.6791
 20
18.5695
 30
0.0
 10
-14.1167
 20
17.035
 30
0.0
 10
-14.1579
 20
15.2383
 30
0.0
 10
-14.1579
 20
15.2383
 30
0.0
 10
-14.5286
 20
13.7275
 30
0.0
 10
-15.5562
 20
13.2151
 30
0.0
 10
-16.7676
 20
12.982
 30
0.0
 10
-16.7676
 20
12.982
 30
0.0
 10
-17.9075
 20
12.8377
 30
0.0
 10
-18.6312
 20
12.6022
 30
0.0
 10
-19.771
 20
12.4578
 30
0.0
 10
-19.771
 20
12.4578
 30
0.0
 10
-20.2822
 20
12.3329
 30
0.0
 10
-20.9366
 20
12.4047
 30
0.0
 10
-21.3898
 20
12.7312
 30
0.0
 10
-21.3898
 20
12.7312
 30
0.0
 10
-21.3898
 20
13.6201
 30
0.0
 10
-21.3898
 20
14.509
 30
0.0
 10
-21.3898
 20
15.3978
 30
0.0
  0
SPLINE
  5
8B
330
1F
100
AcDbEntity
  8
Layer 1
 62
   140
100
AcDbSpline
210
0.0
220
0.0
230
1.0
 70
    11
 71
     3
 72
    40
 73
    36
 74
     0
 42
0.000000001
 43
0.0000000001
 40
0.0
 40
0.0
 40
0.0
 40
0.0
 40
0.1
 40
0.1
 40
0.1
 40
0.1
 40
0.2
 40
0.2
 40
0.2
 40
0.2
 40
0.3
 40
0.3
 40
0.3
 40
0.3
 40
0.4
 40
0.4
 40
0.4
 40
0.4
 40
0.5
 40
0.5
 40
0.5
 40
0.5
 40
0.6
 40
0.6
 40
0.6
 40
0.6
 40
0.7
 40
0.7
 40
0.7
 40
0.7
 40
0.8
 40
0.8
 40
0.8
 40
0.8
 40
1.0
 40
1.0
 40
1.0
 40
1.0
 10
-21.3898
 20
9.5177
 30
0.0
 10
-21.4798
 20
10.2014
 30
0.0
 10
-21.5502
 20
10.6002
 30
0.0
 10
-20.7047
 20
10.4977
 30
0.0
 10
-20.7047
 20
10.4977
 30
0.0
 10
-19.8591
 20
10.3952
 30
0.0
 10
-17.0189
 20
8.7797
 30
0.0
 10
-16.5426
 20
8.1047
 30
0.0
 10
-16.5426
 20
8.1047
 30
0.0
 10
-16.0663
 20
7.4296
 30
0.0
 10
-14.3284
 20
6.3655
 30
0.0
 10
-13.573
 20
6.1902
 30
0.0
 10
-13.573
 20
6.1902
 30
0.0
 10
-12.8176
 20
6.0149
 30
0.0
 10
-11.8518
 20
4.9766
 30
0.0
 10
-11.8406
 20
4.5948
 30
0.0
 10
-11.8406
 20
4.5948
 30
0.0
 10
-11.8295
 20
4.213
 30
0.0
 10
-11.7057
 20
3.5769
 30
0.0
 10
-11.6382
 20
3.0678
 30
0.0
 10
-11.6382
 20
3.0678
 30
0.0
 10
-11.6897
 20
2.7482
 30
0.0
 10
-11.824
 20
2.4969
 30
0.0
 10
-12.5381
 20
2.7259
 30
0.0
 10
-12.5381
 20
2.7259
 30
0.0
 10
-15.1479
 20
2.6398
 30
0.0
 10
-17.7576
 20
3.3992
 30
0.0
 10
-20.3672
 20
4.2302
 30
0.0
 10
-20.3672
 20
4.2302
 30
0.0
 10
-20.8436
 20
4.3131
 30
0.0
 10
-21.2749
 20
4.4569
 30
0.0
 10
-21.3898
 20
5.0278
 30
0.0
 10
-21.3898
 20
5.0278
 30
0.0
 10
-21.0747
 20
6.498
 30
0.0
 10
-20.9847
 20
7.987
 30
0.0
 10
-21.3898
 20
9.5177
 30
0.0
  0
SPLINE
  5
8C
330
1F
100
AcDbEntity
  8
Layer 1
 62
   140
100
AcDbSpline
210
0.0
220
0.0
230
1.0
 70
    11
 71
     3
 72
    32
 73
    28
 74
     0
 42
0.000000001
 43
0.0000000001
 40
0.0
 40
0.0
 40
0.0
 40
0.0
 40
0.125
 40
0.125
 40
0.125
 40
0.125
 40
0.25
 40
0.25
 40
0.25
 40
0.25
 40
0.375
 40
0.375
 40
0.375
 40
0.375
 40
0.5
 40
0.5
 40
0.5
 40
0.5
 40
0.625
 40
0.625
 40
0.625
 40
0.625
 40
0.75
 40
0.75
 40
0.75
 40
0.75
 40
1.0
 40
1.0
 40
1.0
 40
1.0
 10
-20.0298
 20
0.4696
 30
0.0
 10
-20.2097
 20
0.538
 30
0.0
 10
-20.9424
 20
0.6147
 30
0.0
 10
-21.1321
 20
1.1762
 30
0.0
 10
-21.1321
 20
1.1762
 30
0.0
 10
-21.3217
 20
1.7376
 30
0.0
 10
-21.3407
 20
2.1725
 30
0.0
 10
-20.7497
 20
2.1562
 30
0.0
 10
-20.7497
 20
2.1562
 30
0.0
 10
-18.6719
 20
1.5066
 30
0.0
 10
-16.6185
 20
1.1679
 30
0.0
 10
-14.2703
 20
1.0963
 30
0.0
 10
-14.2703
 20
1.0963
 30
0.0
 10
-13.9554
 20
1.1495
 30
0.0
 10
-13.5505
 20
1.0318
 30
0.0
 10
-13.2355
 20
1.085
 30
0.0
 10
-13.2355
 20
1.085
 30
0.0
 10
-12.8306
 20
0.971
 30
0.0
 10
-12.7406
 20
0.7961
 30
0.0
 10
-12.9655
 20
0.5608
 30
0.0
 10
-12.9655
 20
0.5608
 30
0.0
 10
-13.1905
 20
0.5228
 30
0.0
 10
-13.438
 20
0.3595
 30
0.0
 10
-13.6629
 20
0.3215
 30
0.0
 10
-13.6629
 20
0.3215
 30
0.0
 10
-15.7928
 20
0.3291
 30
0.0
 10
-17.9
 20
0.462
 30
0.0
 10
-20.0298
 20
0.4696
 30
0.0
  0
SPLINE
  5
8D
330
1F
100
AcDbEntity
  8
Layer 1
 62
   140
100
AcDbSpline
210
0.0
220
0.0
230
1.0
 70
    11
 71
     3
 72
    28
 73
    24
 74
     0
 42
0.000000001
 43
0.0000000001
 40
0.0
 40
0.0
 40
0.0
 40
0.0
 40
0.1428571428571428
 40
0.1428571428571428
 40
0.1428571428571428
 40
0.1428571428571428
 40
0.2857142857142857
 40
0.2857142857142857
 40
0.2857142857142857
 40
0.2857142857142857
 40
0.4285714285714285
 40
0.4285714285714285
 40
0.4285714285714285
 40
0.4285714285714285
 40
0.5714285714285714
 40
0.5714285714285714
 40
0.5714285714285714
 40
0.5714285714285714
 40
0.7142857142857143
 40
0.7142857142857143
 40
0.7142857142857143
 40
0.7142857142857143
 40
1.0
 40
1.0
 40
1.0
 40
1.0
 10
-10.0493
 20
3.6148
 30
0.0
 10
-10.0118
 20
4.0516
 30
0.0
 10
-9.8245
 20
4.1085
 30
0.0
 10
-9.4869
 20
3.7858
 30
0.0
 10
-9.4869
 20
3.7858
 30
0.0
 10
-7.9606
 20
2.7253
 30
0.0
 10
-6.4202
 20
1.8531
 30
0.0
 10
-4.8636
 20
1.1875
 30
0.0
 10
-4.8636
 20
1.1875
 30
0.0
 10
-4.1865
 20
0.8491
 30
0.0
 10
-4.4049
 20
0.6708
 30
0.0
 10
-4.7511
 20
0.5152
 30
0.0
 10
-4.7511
 20
0.5152
 30
0.0
 10
-5.7786
 20
0.5076
 30
0.0
 10
-6.8059
 20
0.5
 30
0.0
 10
-7.8332
 20
0.4924
 30
0.0
 10
-7.8332
 20
0.4924
 30
0.0
 10
-8.3919
 20
0.5304
 30
0.0
 10
-8.8457
 20
0.8268
 30
0.0
 10
-9.1944
 20
1.3813
 30
0.0
 10
-9.1944
 20
1.3813
 30
0.0
 10
-9.4794
 20
2.1258
 30
0.0
 10
-9.7644
 20
2.8703
 30
0.0
 10
-10.0493
 20
3.6148
 30
0.0
  0
SPLINE
  5
8E
330
1F
100
AcDbEntity
  8
Layer 1
 62
   140
100
AcDbSpline
210
0.0
220
0.0
230
1.0
 70
    11
 71
     3
 72
    48
 73
    44
 74
     0
 42
0.000000001
 43
0.0000000001
 40
0.0
 40
0.0
 40
0.0
 40
0.0
 40
0.0833333333333333
 40
0.0833333333333333
 40
0.0833333333333333
 40
0.0833333333333333
 40
0.1666666666666667
 40
0.1666666666666667
 40
0.1666666666666667
 40
0.1666666666666667
 40
0.25
 40
0.25
 40
0.25
 40
0.25
 40
0.3333333333333333
 40
0.3333333333333333
 40
0.3333333333333333
 40
0.3333333333333333
 40
0.4166666666666667
 40
0.4166666666666667
 40
0.4166666666666667
 40
0.4166666666666667
 40
0.5
 40
0.5
 40
0.5
 40
0.5
 40
0.5833333333333334
 40
0.5833333333333334
 40
0.5833333333333334
 40
0.5833333333333334
 40
0.6666666666666666
 40
0.6666666666666666
 40
0.6666666666666666
 40
0.6666666666666666
 40
0.75
 40
0.75
 40
0.75
 40
0.75
 40
0.8333333333333334
 40
0.8333333333333334
 40
0.8333333333333334
 40
0.8333333333333334
 40
1.0
 40
1.0
 40
1.0
 40
1.0
 10
-3.2691
 20
2.9311
 30
0.0
 10
-3.7549
 20
3.4323
 30
0.0
 10
-3.6012
 20
3.7666
 30
0.0
 10
-3.1567
 20
4.0251
 30
0.0
 10
-3.1567
 20
4.0251
 30
0.0
 10
-1.5519
 20
4.9139
 30
0.0
 10
0.0529
 20
5.8027
 30
0.0
 10
1.6578
 20
6.6916
 30
0.0
 10
1.6578
 20
6.6916
 30
0.0
 10
5.3085
 20
8.7899
 30
0.0
 10
6.3016
 20
7.3245
 30
0.0
 10
8.0471
 20
8.4237
 30
0.0
 10
8.0471
 20
8.4237
 30
0.0
 10
8.6434
 20
8.7158
 30
0.0
 10
8.9583
 20
8.4136
 30
0.0
 10
9.1945
 20
7.9451
 30
0.0
 10
9.1945
 20
7.9451
 30
0.0
 10
9.5919
 20
7.3905
 30
0.0
 10
9.9893
 20
6.8359
 30
0.0
 10
10.3868
 20
6.2814
 30
0.0
 10
10.3868
 20
6.2814
 30
0.0
 10
10.653
 20
5.9252
 30
0.0
 10
10.5629
 20
5.5509
 30
0.0
 10
10.2293
 20
5.1646
 30
0.0
 10
10.2293
 20
5.1646
 30
0.0
 10
9.2919
 20
3.7287
 30
0.0
 10
8.3545
 20
2.293
 30
0.0
 10
7.4171
 20
0.8571
 30
0.0
 10
7.4171
 20
0.8571
 30
0.0
 10
7.2597
 20
0.6216
 30
0.0
 10
6.9972
 20
0.5382
 30
0.0
 10
6.6297
 20
0.6064
 30
0.0
 10
6.6297
 20
0.6064
 30
0.0
 10
4.8899
 20
0.5304
 30
0.0
 10
3.1501
 20
0.4545
 30
0.0
 10
1.4103
 20
0.3785
 30
0.0
 10
1.4103
 20
0.3785
 30
0.0
 10
0.5731
 20
0.3713
 30
0.0
 10
-0.2683
 20
0.354
 30
0.0
 10
-0.8619
 20
0.9938
 30
0.0
 10
-0.8619
 20
0.9938
 30
0.0
 10
-1.6643
 20
1.6396
 30
0.0
 10
-2.4667
 20
2.2853
 30
0.0
 10
-3.2691
 20
2.9311
 30
0.0
  0
SPLINE
  5
8F
330
1F
100
AcDbEntity
  8
Layer 1
 62
   140
100
AcDbSpline
210
0.0
220
0.0
230
1.0
 70
    11
 71
     3
 72
    56
 73
    52
 74
     0
 42
0.000000001
 43
0.0000000001
 40
0.0
 40
0.0
 40
0.0
 40
0.0
 40
0.0714285714285714
 40
0.0714285714285714
 40
0.0714285714285714
 40
0.0714285714285714
 40
0.1428571428571428
 40
0.1428571428571428
 40
0.1428571428571428
 40
0.1428571428571428
 40
0.2142857142857143
 40
0.2142857142857143
 40
0.2142857142857143
 40
0.2142857142857143
 40
0.2857142857142857
 40
0.2857142857142857
 40
0.2857142857142857
 40
0.2857142857142857
 40
0.3571428571428572
 40
0.3571428571428572
 40
0.3571428571428572
 40
0.3571428571428572
 40
0.4285714285714285
 40
0.4285714285714285
 40
0.4285714285714285
 40
0.4285714285714285
 40
0.5
 40
0.5
 40
0.5
 40
0.5
 40
0.5714285714285714
 40
0.5714285714285714
 40
0.5714285714285714
 40
0.5714285714285714
 40
0.6428571428571429
 40
0.6428571428571429
 40
0.6428571428571429
 40
0.6428571428571429
 40
0.7142857142857143
 40
0.7142857142857143
 40
0.7142857142857143
 40
0.7142857142857143
 40
0.7857142857142857
 40
0.7857142857142857
 40
0.7857142857142857
 40
0.7857142857142857
 40
0.8571428571428571
 40
0.8571428571428571
 40
0.8571428571428571
 40
0.8571428571428571
 40
1.0
 40
1.0
 40
1.0
 40
1.0
 10
11.9167
 20
2.6576
 30
0.0
 10
11.131
 20
2.6424
 30
0.0
 10
10.7674
 20
2.8929
 30
0.0
 10
11.3317
 20
3.7287
 30
0.0
 10
11.3317
 20
3.7287
 30
0.0
 10
12.5479
 20
4.8141
 30
0.0
 10
13.6024
 20
6.0087
 30
0.0
 10
14.3689
 20
7.3981
 30
0.0
 10
14.3689
 20
7.3981
 30
0.0
 10
14.5459
 20
7.7325
 30
0.0
 10
14.7687
 20
7.9604
 30
0.0
 10
15.1563
 20
7.8083
 30
0.0
 10
15.1563
 20
7.8083
 30
0.0
 10
16.1461
 20
7.5868
 30
0.0
 10
17.1359
 20
7.4036
 30
0.0
 10
18.126
 20
7.6716
 30
0.0
 10
18.126
 20
7.6716
 30
0.0
 10
18.516
 20
7.679
 30
0.0
 10
18.8482
 20
7.5533
 30
0.0
 10
19.0034
 20
7.4209
 30
0.0
 10
19.0034
 20
7.4209
 30
0.0
 10
19.7083
 20
7.0942
 30
0.0
 10
20.2557
 20
6.7675
 30
0.0
 10
20.9606
 20
6.4409
 30
0.0
 10
20.9606
 20
6.4409
 30
0.0
 10
21.3356
 20
6.1947
 30
0.0
 10
21.4957
 20
5.7156
 30
0.0
 10
21.4248
 20
5.1646
 30
0.0
 10
21.4248
 20
5.1646
 30
0.0
 10
21.4248
 20
4.1618
 30
0.0
 10
21.4248
 20
3.159
 30
0.0
 10
21.4248
 20
2.1562
 30
0.0
 10
21.4248
 20
2.1562
 30
0.0
 10
21.3882
 20
1.9374
 30
0.0
 10
21.2444
 20
1.8054
 30
0.0
 10
20.9831
 20
1.7687
 30
0.0
 10
20.9831
 20
1.7687
 30
0.0
 10
19.9407
 20
1.7612
 30
0.0
 10
18.8983
 20
1.7536
 30
0.0
 10
17.856
 20
1.7459
 30
0.0
 10
17.856
 20
1.7459
 30
0.0
 10
16.9746
 20
1.5579
 30
0.0
 10
16.3072
 20
1.7669
 30
0.0
 10
15.7862
 20
2.2474
 30
0.0
 10
15.7862
 20
2.2474
 30
0.0
 10
15.4419
 20
2.6845
 30
0.0
 10
14.7081
 20
2.7549
 30
0.0
 10
13.9414
 20
2.7943
 30
0.0
 10
13.9414
 20
2.7943
 30
0.0
 10
13.2664
 20
2.7487
 30
0.0
 10
12.5915
 20
2.7031
 30
0.0
 10
11.9167
 20
2.6576
 30
0.0
  0
SPLINE
  5
90
330
1F
100
AcDbEntity
  8
Layer 1
 62
   140
100
AcDbSpline
210
0.0
220
0.0
230
1.0
 70
    11
 71
     3
 72
    28
 73
    24
 74
     0
 42
0.000000001
 43
0.0000000001
 40
0.0
 40
0.0
 40
0.0
 40
0.0
 40
0.1428571428571428
 40
0.1428571428571428
 40
0.1428571428571428
 40
0.1428571428571428
 40
0.2857142857142857
 40
0.2857142857142857
 40
0.2857142857142857
 40
0.2857142857142857
 40
0.4285714285714285
 40
0.4285714285714285
 40
0.4285714285714285
 40
0.4285714285714285
 40
0.5714285714285714
 40
0.5714285714285714
 40
0.5714285714285714
 40
0.5714285714285714
 40
0.7142857142857143
 40
0.7142857142857143
 40
0.7142857142857143
 40
0.7142857142857143
 40
1.0
 40
1.0
 40
1.0
 40
1.0
 10
9.6443
 20
0.6833
 30
0.0
 10
9.6307
 20
0.8427
 30
0.0
 10
10.0828
 20
1.072
 30
0.0
 10
10.1927
 20
1.0736
 30
0.0
 10
10.1927
 20
1.0736
 30
0.0
 10
11.6119
 20
1.0944
 30
0.0
 10
13.0311
 20
1.1153
 30
0.0
 10
14.4503
 20
1.1362
 30
0.0
 10
14.4503
 20
1.1362
 30
0.0
 10
14.5764
 20
1.072
 30
0.0
 10
14.6672
 20
1.0007
 30
0.0
 10
14.6809
 20
0.9141
 30
0.0
 10
14.6809
 20
0.9141
 30
0.0
 10
14.733
 20
0.7697
 30
0.0
 10
14.715
 20
0.5515
 30
0.0
 10
14.6247
 20
0.407
 30
0.0
 10
14.6247
 20
0.407
 30
0.0
 10
13.0414
 20
0.4522
 30
0.0
 10
11.4169
 20
0.5502
 30
0.0
 10
9.8187
 20
0.3814
 30
0.0
 10
9.8187
 20
0.3814
 30
0.0
 10
9.7234
 20
0.4605
 30
0.0
 10
9.6554
 20
0.5536
 30
0.0
 10
9.6443
 20
0.6833
 30
0.0
  0
SPLINE
  5
91
330
1F
100
AcDbEntity
  8
Layer 1
 62
   140
100
AcDbSpline
210
0.0
220
0.0
230
1.0
 70
    11
 71
     3
 72
    56
 73
    52
 74
     0
 42
0.000000001
 43
0.0000000001
 40
0.0
 40
0.0
 40
0.0
 40
0.0
 40
0.0714285714285714
 40
0.0714285714285714
 40
0.0714285714285714
 40
0.0714285714285714
 40
0.1428571428571428
 40
0.1428571428571428
 40
0.1428571428571428
 40
0.1428571428571428
 40
0.2142857142857143
 40
0.2142857142857143
 40
0.2142857142857143
 40
0.2142857142857143
 40
0.2857142857142857
 40
0.2857142857142857
 40
0.2857142857142857
 40
0.2857142857142857
 40
0.3571428571428572
 40
0.3571428571428572
 40
0.3571428571428572
 40
0.3571428571428572
 40
0.4285714285714285
 40
0.4285714285714285
 40
0.4285714285714285
 40
0.4285714285714285
 40
0.5
 40
0.5
 40
0.5
 40
0.5
 40
0.5714285714285714
 40
0.5714285714285714
 40
0.5714285714285714
 40
0.5714285714285714
 40
0.6428571428571429
 40
0.6428571428571429
 40
0.6428571428571429
 40
0.6428571428571429
 40
0.7142857142857143
 40
0.7142857142857143
 40
0.7142857142857143
 40
0.7142857142857143
 40
0.7857142857142857
 40
0.7857142857142857
 40
0.7857142857142857
 40
0.7857142857142857
 40
0.8571428571428571
 40
0.8571428571428571
 40
0.8571428571428571
 40
0.8571428571428571
 40
1.0
 40
1.0
 40
1.0
 40
1.0
 10
5.9351
 20
14.4634
 30
0.0
 10
5.5901
 20
14.8432
 30
0.0
 10
5.6501
 20
15.0255
 30
0.0
 10
6.1151
 20
15.0104
 30
0.0
 10
6.1151
 20
15.0104
 30
0.0
 10
6.5832
 20
14.8733
 30
0.0
 10
7.0965
 20
14.759
 30
0.0
 10
7.9261
 20
14.8052
 30
0.0
 10
7.9261
 20
14.8052
 30
0.0
 10
8.718
 20
14.5712
 30
0.0
 10
9.5107
 20
14.3482
 30
0.0
 10
10.3333
 20
14.4519
 30
0.0
 10
10.3333
 20
14.4519
 30
0.0
 10
11.5385
 20
14.292
 30
0.0
 10
12.7129
 20
14.4141
 30
0.0
 10
13.8879
 20
14.5317
 30
0.0
 10
13.8879
 20
14.5317
 30
0.0
 10
14.3827
 20
14.5185
 30
0.0
 10
14.6827
 20
14.3325
 30
0.0
 10
14.6978
 20
13.8935
 30
0.0
 10
14.6978
 20
13.8935
 30
0.0
 10
14.619
 20
13.2478
 30
0.0
 10
14.8702
 20
12.8111
 30
0.0
 10
15.2715
 20
12.4691
 30
0.0
 10
15.2715
 20
12.4691
 30
0.0
 10
15.4027
 20
12.3552
 30
0.0
 10
15.5339
 20
12.2413
 30
0.0
 10
15.6652
 20
12.1273
 30
0.0
 10
15.6652
 20
12.1273
 30
0.0
 10
15.9625
 20
11.7018
 30
0.0
 10
15.8383
 20
11.3296
 30
0.0
 10
15.654
 20
10.9649
 30
0.0
 10
15.654
 20
10.9649
 30
0.0
 10
15.4665
 20
10.589
 30
0.0
 10
15.174
 20
10.3041
 30
0.0
 10
14.7766
 20
10.1103
 30
0.0
 10
14.7766
 20
10.1103
 30
0.0
 10
14.252
 20
9.8688
 30
0.0
 10
13.9078
 20
10.0647
 30
0.0
 10
13.5392
 20
10.2015
 30
0.0
 10
13.5392
 20
10.2015
 30
0.0
 10
12.8379
 20
10.8047
 30
0.0
 10
12.0917
 20
11.3819
 30
0.0
 10
10.817
 20
11.6487
 30
0.0
 10
10.817
 20
11.6487
 30
0.0
 10
9.155
 20
12.2633
 30
0.0
 10
7.6983
 20
13.0856
 30
0.0
 10
6.3963
 20
14.0645
 30
0.0
 10
6.3963
 20
14.0645
 30
0.0
 10
6.2425
 20
14.1975
 30
0.0
 10
6.0888
 20
14.3305
 30
0.0
 10
5.9351
 20
14.4634
 30
0.0
  0
SPLINE
  5
92
330
1F
100
AcDbEntity
  8
Layer 1
 62
   140
100
AcDbSpline
210
0.0
220
0.0
230
1.0
 70
    11
 71
     3
 72
    28
 73
    24
 74
     0
 42
0.000000001
 43
0.0000000001
 40
0.0
 40
0.0
 40
0.0
 40
0.0
 40
0.1428571428571428
 40
0.1428571428571428
 40
0.1428571428571428
 40
0.1428571428571428
 40
0.2857142857142857
 40
0.2857142857142857
 40
0.2857142857142857
 40
0.2857142857142857
 40
0.4285714285714285
 40
0.4285714285714285
 40
0.4285714285714285
 40
0.4285714285714285
 40
0.5714285714285714
 40
0.5714285714285714
 40
0.5714285714285714
 40
0.5714285714285714
 40
0.7142857142857143
 40
0.7142857142857143
 40
0.7142857142857143
 40
0.7142857142857143
 40
1.0
 40
1.0
 40
1.0
 40
1.0
 10
16.0982
 20
9.4664
 30
0.0
 10
16.1467
 20
9.7363
 30
0.0
 10
16.3004
 20
9.8862
 30
0.0
 10
16.4695
 20
10.0191
 30
0.0
 10
16.4695
 20
10.0191
 30
0.0
 10
16.8443
 20
10.2174
 30
0.0
 10
17.1574
 20
10.2592
 30
0.0
 10
17.4425
 20
10.2299
 30
0.0
 10
17.4425
 20
10.2299
 30
0.0
 10
17.6264
 20
10.2169
 30
0.0
 10
17.7879
 20
10.1695
 30
0.0
 10
17.9045
 20
10.0767
 30
0.0
 10
17.9045
 20
10.0767
 30
0.0
 10
18.2577
 20
9.7953
 30
0.0
 10
18.1906
 20
9.1879
 30
0.0
 10
17.853
 20
8.9251
 30
0.0
 10
17.853
 20
8.9251
 30
0.0
 10
17.4087
 20
8.8203
 30
0.0
 10
16.9642
 20
8.8118
 30
0.0
 10
16.5201
 20
8.9195
 30
0.0
 10
16.5201
 20
8.9195
 30
0.0
 10
16.2518
 20
8.9499
 30
0.0
 10
16.1112
 20
9.1323
 30
0.0
 10
16.0982
 20
9.4664
 30
0.0
  0
SPLINE
  5
93
330
1F
100
AcDbEntity
  8
Layer 1
 62
   140
100
AcDbSpline
210
0.0
220
0.0
230
1.0
 70
    11
 71
     3
 72
    28
 73
    24
 74
     0
 42
0.000000001
 43
0.0000000001
 40
0.0
 40
0.0
 40
0.0
 40
0.0
 40
0.1428571428571428
 40
0.1428571428571428
 40
0.1428571428571428
 40
0.1428571428571428
 40
0.2857142857142857
 40
0.2857142857142857
 40
0.2857142857142857
 40
0.2857142857142857
 40
0.4285714285714285
 40
0.4285714285714285
 40
0.4285714285714285
 40
0.4285714285714285
 40
0.5714285714285714
 40
0.5714285714285714
 40
0.5714285714285714
 40
0.5714285714285714
 40
0.7142857142857143
 40
0.7142857142857143
 40
0.7142857142857143
 40
0.7142857142857143
 40
1.0
 40
1.0
 40
1.0
 40
1.0
 10
16.3064
 20
13.7227
 30
0.0
 10
16.2838
 20
13.905
 30
0.0
 10
15.8199
 20
15.33
 30
0.0
 10
17.06
 20
15.3066
 30
0.0
 10
17.06
 20
15.3066
 30
0.0
 10
18.3002
 20
15.2832
 30
0.0
 10
19.4943
 20
15.3298
 30
0.0
 10
20.6146
 20
15.489
 30
0.0
 10
20.6146
 20
15.489
 30
0.0
 10
21.1236
 20
15.4652
 30
0.0
 10
21.3656
 20
15.243
 30
0.0
 10
21.4248
 20
14.8851
 30
0.0
 10
21.4248
 20
14.8851
 30
0.0
 10
21.4248
 20
13.4607
 30
0.0
 10
21.4248
 20
12.0362
 30
0.0
 10
21.4248
 20
10.6117
 30
0.0
 10
21.4248
 20
10.6117
 30
0.0
 10
21.5296
 20
9.4912
 30
0.0
 10
21.0645
 20
9.176
 30
0.0
 10
20.0297
 20
9.6659
 30
0.0
 10
20.0297
 20
9.6659
 30
0.0
 10
18.8825
 20
11.0539
 30
0.0
 10
17.6938
 20
12.4263
 30
0.0
 10
16.3064
 20
13.7227
 30
0.0
  0
SPLINE
  5
94
330
1F
100
AcDbEntity
  8
Layer 1
 62
   140
100
AcDbSpline
210
0.0
220
0.0
230
1.0
 70
    11
 71
     3
 72
    32
 73
    28
 74
     0
 42
0.000000001
 43
0.0000000001
 40
0.0
 40
0.0
 40
0.0
 40
0.0
 40
0.125
 40
0.125
 40
0.125
 40
0.125
 40
0.25
 40
0.25
 40
0.25
 40
0.25
 40
0.375
 40
0.375
 40
0.375
 40
0.375
 40
0.5
 40
0.5
 40
0.5
 40
0.5
 40
0.625
 40
0.625
 40
0.625
 40
0.625
 40
0.75
 40
0.75
 40
0.75
 40
0.75
 40
1.0
 40
1.0
 40
1.0
 40
1.0
 10
1.5903
 20
14.6457
 30
0.0
 10
1.9051
 20
15.1167
 30
0.0
 10
2.2201
 20
15.1623
 30
0.0
 10
2.5352
 20
14.7824
 30
0.0
 10
2.5352
 20
14.7824
 30
0.0
 10
4.035
 20
13.6277
 30
0.0
 10
5.5348
 20
12.4729
 30
0.0
 10
7.0347
 20
11.3182
 30
0.0
 10
7.0347
 20
11.3182
 30
0.0
 10
7.3278
 20
11.1058
 30
0.0
 10
7.5533
 20
10.8631
 30
0.0
 10
7.3046
 20
10.4066
 30
0.0
 10
7.3046
 20
10.4066
 30
0.0
 10
6.8359
 20
9.9508
 30
0.0
 10
6.1609
 20
9.7457
 30
0.0
 10
5.3924
 20
9.6544
 30
0.0
 10
5.3924
 20
9.6544
 30
0.0
 10
3.9226
 20
9.2442
 30
0.0
 10
2.4527
 20
8.8339
 30
0.0
 10
0.9829
 20
8.4237
 30
0.0
 10
0.9829
 20
8.4237
 30
0.0
 10
0.337
 20
8.3388
 30
0.0
 10
-0.2186
 20
8.376
 30
0.0
 10
-0.142
 20
9.267
 30
0.0
 10
-0.142
 20
9.267
 30
0.0
 10
0.5484
 20
10.9684
 30
0.0
 10
1.2014
 20
12.7005
 30
0.0
 10
1.5903
 20
14.6457
 30
0.0
  0
SPLINE
  5
95
330
1F
100
AcDbEntity
  8
Layer 1
 62
   140
100
AcDbSpline
210
0.0
220
0.0
230
1.0
 70
    11
 71
     3
 72
    32
 73
    28
 74
     0
 42
0.000000001
 43
0.0000000001
 40
0.0
 40
0.0
 40
0.0
 40
0.0
 40
0.125
 40
0.125
 40
0.125
 40
0.125
 40
0.25
 40
0.25
 40
0.25
 40
0.25
 40
0.375
 40
0.375
 40
0.375
 40
0.375
 40
0.5
 40
0.5
 40
0.5
 40
0.5
 40
0.625
 40
0.625
 40
0.625
 40
0.625
 40
0.75
 40
0.75
 40
0.75
 40
0.75
 40
1.0
 40
1.0
 40
1.0
 40
1.0
 10
-12.5156
 20
16.469
 30
0.0
 10
-12.5456
 20
16.8944
 30
0.0
 10
-12.4107
 20
17.183
 30
0.0
 10
-12.1107
 20
17.335
 30
0.0
 10
-12.1107
 20
17.335
 30
0.0
 10
-11.1569
 20
17.6911
 30
0.0
 10
-10.3798
 20
17.7993
 30
0.0
 10
-9.8159
 20
17.6085
 30
0.0
 10
-9.8159
 20
17.6085
 30
0.0
 10
-9.2985
 20
17.4035
 30
0.0
 10
-9.096
 20
17.0463
 30
0.0
 10
-9.2084
 20
16.5373
 30
0.0
 10
-9.2084
 20
16.5373
 30
0.0
 10
-9.4391
 20
16.279
 30
0.0
 10
-9.7729
 20
16.1044
 30
0.0
 10
-10.1534
 20
15.9676
 30
0.0
 10
-10.1534
 20
15.9676
 30
0.0
 10
-10.6035
 20
15.8917
 30
0.0
 10
-11.0534
 20
15.6714
 30
0.0
 10
-11.5032
 20
15.3522
 30
0.0
 10
-11.5032
 20
15.3522
 30
0.0
 10
-11.7319
 20
15.1679
 30
0.0
 10
-11.9421
 20
15.0883
 30
0.0
 10
-12.1107
 20
15.2383
 30
0.0
 10
-12.1107
 20
15.2383
 30
0.0
 10
-12.122
 20
15.6486
 30
0.0
 10
-12.2645
 20
16.0588
 30
0.0
 10
-12.5156
 20
16.469
 30
0.0
  0
SPLINE
  5
96
330
1F
100
AcDbEntity
  8
Layer 1
 62
   140
100
AcDbSpline
210
0.0
220
0.0
230
1.0
 70
    11
 71
     3
 72
    36
 73
    32
 74
     0
 42
0.000000001
 43
0.0000000001
 40
0.0
 40
0.0
 40
0.0
 40
0.0
 40
0.1111111111111111
 40
0.1111111111111111
 40
0.1111111111111111
 40
0.1111111111111111
 40
0.2222222222222222
 40
0.2222222222222222
 40
0.2222222222222222
 40
0.2222222222222222
 40
0.3333333333333333
 40
0.3333333333333333
 40
0.3333333333333333
 40
0.3333333333333333
 40
0.4444444444444444
 40
0.4444444444444444
 40
0.4444444444444444
 40
0.4444444444444444
 40
0.5555555555555556
 40
0.5555555555555556
 40
0.5555555555555556
 40
0.5555555555555556
 40
0.6666666666666666
 40
0.6666666666666666
 40
0.6666666666666666
 40
0.6666666666666666
 40
0.7777777777777778
 40
0.7777777777777778
 40
0.7777777777777778
 40
0.7777777777777778
 40
1.0
 40
1.0
 40
1.0
 40
1.0
 10
-17.42
 20
-41.9949
 30
0.0
 10
-17.3397
 20
-42.2614
 30
0.0
 10
-17.2826
 20
-42.5497
 30
0.0
 10
-16.8351
 20
-42.4657
 30
0.0
 10
-16.8351
 20
-42.4657
 30
0.0
 10
-15.1853
 20
-42.4657
 30
0.0
 10
-13.5355
 20
-42.4657
 30
0.0
 10
-11.8857
 20
-42.4657
 30
0.0
 10
-11.8857
 20
-42.4657
 30
0.0
 10
-11.5407
 20
-42.3618
 30
0.0
 10
-11.4507
 20
-42.182
 30
0.0
 10
-11.6157
 20
-41.9265
 30
0.0
 10
-11.6157
 20
-41.9265
 30
0.0
 10
-12.2906
 20
-41.1516
 30
0.0
 10
-12.9656
 20
-40.3768
 30
0.0
 10
-13.6405
 20
-39.6019
 30
0.0
 10
-13.6405
 20
-39.6019
 30
0.0
 10
-14.1804
 20
-39.1232
 30
0.0
 10
-14.8704
 20
-38.9182
 30
0.0
 10
-15.7102
 20
-38.9865
 30
0.0
 10
-15.7102
 20
-38.9865
 30
0.0
 10
-16.2427
 20
-39.0171
 30
0.0
 10
-16.8202
 20
-39.1083
 30
0.0
 10
-17.4426
 20
-39.26
 30
0.0
 10
-17.4426
 20
-39.26
 30
0.0
 10
-17.8485
 20
-39.3202
 30
0.0
 10
-17.8331
 20
-39.6472
 30
0.0
 10
-17.7575
 20
-40.0121
 30
0.0
 10
-17.7575
 20
-40.0121
 30
0.0
 10
-17.645
 20
-40.6731
 30
0.0
 10
-17.5325
 20
-41.3341
 30
0.0
 10
-17.42
 20
-41.9949
 30
0.0
  0
SPLINE
  5
97
330
1F
100
AcDbEntity
  8
Layer 1
 62
   140
100
AcDbSpline
210
0.0
220
0.0
230
1.0
 70
    11
 71
     3
 72
    32
 73
    28
 74
     0
 42
0.000000001
 43
0.0000000001
 40
0.0
 40
0.0
 40
0.0
 40
0.0
 40
0.125
 40
0.125
 40
0.125
 40
0.125
 40
0.25
 40
0.25
 40
0.25
 40
0.25
 40
0.375
 40
0.375
 40
0.375
 40
0.375
 40
0.5
 40
0.5
 40
0.5
 40
0.5
 40
0.625
 40
0.625
 40
0.625
 40
0.625
 40
0.75
 40
0.75
 40
0.75
 40
0.75
 40
1.0
 40
1.0
 40
1.0
 40
1.0
 10
-21.2642
 20
-41.6873
 30
0.0
 10
-21.3898
 20
-41.6873
 30
0.0
 10
-21.3898
 20
-41.2657
 30
0.0
 10
-21.3898
 20
-41.2657
 30
0.0
 10
-21.3898
 20
-41.2657
 30
0.0
 10
-21.3898
 20
-39.8527
 30
0.0
 10
-21.3898
 20
-38.4396
 30
0.0
 10
-21.3898
 20
-37.0265
 30
0.0
 10
-21.3898
 20
-37.0265
 30
0.0
 10
-21.3148
 20
-36.8279
 30
0.0
 10
-21.2385
 20
-36.632
 30
0.0
 10
-21.118
 20
-36.5251
 30
0.0
 10
-21.118
 20
-36.5251
 30
0.0
 10
-20.9493
 20
-36.4681
 30
0.0
 10
-20.8257
 20
-36.4796
 30
0.0
 10
-20.7467
 20
-36.5592
 30
0.0
 10
-20.7467
 20
-36.5592
 30
0.0
 10
-20.6587
 20
-36.648
 30
0.0
 10
-19.8312
 20
-39.9489
 30
0.0
 10
-20.1281
 20
-40.8782
 30
0.0
 10
-20.1281
 20
-40.8782
 30
0.0
 10
-20.1547
 20
-40.9615
 30
0.0
 10
-20.5181
 20
-41.5392
 30
0.0
 10
-20.713
 20
-41.8696
 30
0.0
 10
-20.713
 20
-41.8696
 30
0.0
 10
-20.9718
 20
-41.9455
 30
0.0
 10
-21.1555
 20
-41.8847
 30
0.0
 10
-21.2642
 20
-41.6873
 30
0.0
  0
SPLINE
  5
98
330
1F
100
AcDbEntity
  8
Layer 1
 62
   140
100
AcDbSpline
210
0.0
220
0.0
230
1.0
 70
    11
 71
     3
 72
    56
 73
    52
 74
     0
 42
0.000000001
 43
0.0000000001
 40
0.0
 40
0.0
 40
0.0
 40
0.0
 40
0.0714285714285714
 40
0.0714285714285714
 40
0.0714285714285714
 40
0.0714285714285714
 40
0.1428571428571428
 40
0.1428571428571428
 40
0.1428571428571428
 40
0.1428571428571428
 40
0.2142857142857143
 40
0.2142857142857143
 40
0.2142857142857143
 40
0.2142857142857143
 40
0.2857142857142857
 40
0.2857142857142857
 40
0.2857142857142857
 40
0.2857142857142857
 40
0.3571428571428572
 40
0.3571428571428572
 40
0.3571428571428572
 40
0.3571428571428572
 40
0.4285714285714285
 40
0.4285714285714285
 40
0.4285714285714285
 40
0.4285714285714285
 40
0.5
 40
0.5
 40
0.5
 40
0.5
 40
0.5714285714285714
 40
0.5714285714285714
 40
0.5714285714285714
 40
0.5714285714285714
 40
0.6428571428571429
 40
0.6428571428571429
 40
0.6428571428571429
 40
0.6428571428571429
 40
0.7142857142857143
 40
0.7142857142857143
 40
0.7142857142857143
 40
0.7142857142857143
 40
0.7857142857142857
 40
0.7857142857142857
 40
0.7857142857142857
 40
0.7857142857142857
 40
0.8571428571428571
 40
0.8571428571428571
 40
0.8571428571428571
 40
0.8571428571428571
 40
1.0
 40
1.0
 40
1.0
 40
1.0
 10
-18.7923
 20
-36.8441
 30
0.0
 10
-18.5721
 20
-37.1479
 30
0.0
 10
-18.3237
 20
-37.3379
 30
0.0
 10
-18.0133
 20
-37.2772
 30
0.0
 10
-18.0133
 20
-37.2772
 30
0.0
 10
-17.2111
 20
-37.0147
 30
0.0
 10
-16.4152
 20
-36.8854
 30
0.0
 10
-15.6427
 20
-37.2316
 30
0.0
 10
-15.6427
 20
-37.2316
 30
0.0
 10
-15.3376
 20
-37.1883
 30
0.0
 10
-15.0075
 20
-37.168
 30
0.0
 10
-15.1
 20
-36.753
 30
0.0
 10
-15.1
 20
-36.753
 30
0.0
 10
-15.4702
 20
-35.9592
 30
0.0
 10
-15.8572
 20
-35.1653
 30
0.0
 10
-16.4385
 20
-34.3713
 30
0.0
 10
-16.4385
 20
-34.3713
 30
0.0
 10
-17.0736
 20
-33.6128
 30
0.0
 10
-17.2913
 20
-32.798
 30
0.0
 10
-17.4734
 20
-31.9783
 30
0.0
 10
-17.4734
 20
-31.9783
 30
0.0
 10
-17.5297
 20
-31.7769
 30
0.0
 10
-17.5859
 20
-31.5756
 30
0.0
 10
-17.6422
 20
-31.3743
 30
0.0
 10
-17.6422
 20
-31.3743
 30
0.0
 10
-17.7004
 20
-31.078
 30
0.0
 10
-17.8615
 20
-30.8958
 30
0.0
 10
-18.2496
 20
-30.964
 30
0.0
 10
-18.2496
 20
-30.964
 30
0.0
 10
-18.6646
 20
-30.9221
 30
0.0
 10
-19.0979
 20
-31.124
 30
0.0
 10
-19.5432
 20
-31.4768
 30
0.0
 10
-19.5432
 20
-31.4768
 30
0.0
 10
-19.7957
 20
-31.8562
 30
0.0
 10
-20.2592
 20
-31.8391
 30
0.0
 10
-20.7243
 20
-31.8188
 30
0.0
 10
-20.7243
 20
-31.8188
 30
0.0
 10
-21.1409
 20
-31.9686
 30
0.0
 10
-21.3996
 20
-32.1851
 30
0.0
 10
-21.0955
 20
-32.6392
 30
0.0
 10
-21.0955
 20
-32.6392
 30
0.0
 10
-20.7673
 20
-33.2802
 30
0.0
 10
-20.3961
 20
-33.8557
 30
0.0
 10
-19.9481
 20
-34.3144
 30
0.0
 10
-19.9481
 20
-34.3144
 30
0.0
 10
-19.5479
 20
-34.6478
 30
0.0
 10
-19.2572
 20
-35.0182
 30
0.0
 10
-19.127
 20
-35.4425
 30
0.0
 10
-19.127
 20
-35.4425
 30
0.0
 10
-19.0154
 20
-35.9097
 30
0.0
 10
-18.9038
 20
-36.3769
 30
0.0
 10
-18.7923
 20
-36.8441
 30
0.0
  0
SPLINE
  5
99
330
1F
100
AcDbEntity
  8
Layer 1
 62
   140
100
AcDbSpline
210
0.0
220
0.0
230
1.0
 70
    11
 71
     3
 72
    44
 73
    40
 74
     0
 42
0.000000001
 43
0.0000000001
 40
0.0
 40
0.0
 40
0.0
 40
0.0
 40
0.0909090909090909
 40
0.0909090909090909
 40
0.0909090909090909
 40
0.0909090909090909
 40
0.1818181818181818
 40
0.1818181818181818
 40
0.1818181818181818
 40
0.1818181818181818
 40
0.2727272727272727
 40
0.2727272727272727
 40
0.2727272727272727
 40
0.2727272727272727
 40
0.3636363636363636
 40
0.3636363636363636
 40
0.3636363636363636
 40
0.3636363636363636
 40
0.4545454545454545
 40
0.4545454545454545
 40
0.4545454545454545
 40
0.4545454545454545
 40
0.5454545454545454
 40
0.5454545454545454
 40
0.5454545454545454
 40
0.5454545454545454
 40
0.6363636363636364
 40
0.6363636363636364
 40
0.6363636363636364
 40
0.6363636363636364
 40
0.7272727272727273
 40
0.7272727272727273
 40
0.7272727272727273
 40
0.7272727272727273
 40
0.8181818181818182
 40
0.8181818181818182
 40
0.8181818181818182
 40
0.8181818181818182
 40
1.0
 40
1.0
 40
1.0
 40
1.0
 10
-12.898
 20
-38.3484
 30
0.0
 10
-12.3375
 20
-38.4205
 30
0.0
 10
-11.8839
 20
-38.7091
 30
0.0
 10
-11.5032
 20
-39.146
 30
0.0
 10
-11.5032
 20
-39.146
 30
0.0
 10
-11.072
 20
-39.3632
 30
0.0
 10
-10.667
 20
-39.287
 30
0.0
 10
-10.2658
 20
-39.1689
 30
0.0
 10
-10.2658
 20
-39.1689
 30
0.0
 10
-9.1112
 20
-38.4449
 30
0.0
 10
-8.0388
 20
-38.0766
 30
0.0
 10
-7.0037
 20
-37.8697
 30
0.0
 10
-7.0037
 20
-37.8697
 30
0.0
 10
-6.6061
 20
-37.6667
 30
0.0
 10
-6.366
 20
-37.3972
 30
0.0
 10
-6.6888
 20
-36.8897
 30
0.0
 10
-6.6888
 20
-36.8897
 30
0.0
 10
-8.5099
 20
-35.3814
 30
0.0
 10
-10.1397
 20
-33.5668
 30
0.0
 10
-11.3907
 20
-31.1463
 30
0.0
 10
-11.3907
 20
-31.1463
 30
0.0
 10
-11.8032
 20
-30.8349
 30
0.0
 10
-12.2532
 20
-30.6373
 30
0.0
 10
-12.7855
 20
-30.6906
 30
0.0
 10
-12.7855
 20
-30.6906
 30
0.0
 10
-13.5887
 20
-30.816
 30
0.0
 10
-14.5243
 20
-30.7628
 30
0.0
 10
-15.5078
 20
-30.645
 30
0.0
 10
-15.5078
 20
-30.645
 30
0.0
 10
-15.7963
 20
-30.6488
 30
0.0
 10
-15.9913
 20
-30.8236
 30
0.0
 10
-15.9802
 20
-31.3743
 30
0.0
 10
-15.9802
 20
-31.3743
 30
0.0
 10
-14.9556
 20
-33.2899
 30
0.0
 10
-13.98
 20
-35.2242
 30
0.0
 10
-13.438
 20
-37.3228
 30
0.0
 10
-13.438
 20
-37.3228
 30
0.0
 10
-13.258
 20
-37.6647
 30
0.0
 10
-13.078
 20
-38.0065
 30
0.0
 10
-12.898
 20
-38.3484
 30
0.0
  0
SPLINE
  5
9A
330
1F
100
AcDbEntity
  8
Layer 1
 62
   140
100
AcDbSpline
210
0.0
220
0.0
230
1.0
 70
    11
 71
     3
 72
    40
 73
    36
 74
     0
 42
0.000000001
 43
0.0000000001
 40
0.0
 40
0.0
 40
0.0
 40
0.0
 40
0.1
 40
0.1
 40
0.1
 40
0.1
 40
0.2
 40
0.2
 40
0.2
 40
0.2
 40
0.3
 40
0.3
 40
0.3
 40
0.3
 40
0.4
 40
0.4
 40
0.4
 40
0.4
 40
0.5
 40
0.5
 40
0.5
 40
0.5
 40
0.6
 40
0.6
 40
0.6
 40
0.6
 40
0.7
 40
0.7
 40
0.7
 40
0.7
 40
0.8
 40
0.8
 40
0.8
 40
0.8
 40
1.0
 40
1.0
 40
1.0
 40
1.0
 10
-9.096
 20
-42.4657
 30
0.0
 10
-9.1922
 20
-42.4718
 30
0.0
 10
-9.2995
 20
-42.396
 30
0.0
 10
-9.4334
 20
-42.2457
 30
0.0
 10
-9.4334
 20
-42.2457
 30
0.0
 10
-9.5534
 20
-41.8203
 30
0.0
 10
-9.7633
 20
-41.5239
 30
0.0
 10
-10.0634
 20
-41.3568
 30
0.0
 10
-10.0634
 20
-41.3568
 30
0.0
 10
-10.279
 20
-41.0795
 30
0.0
 10
-10.2977
 20
-40.8592
 30
0.0
 10
-9.8834
 20
-40.7642
 30
0.0
 10
-9.8834
 20
-40.7642
 30
0.0
 10
-8.2993
 20
-40.6722
 30
0.0
 10
-6.7323
 20
-40.5062
 30
0.0
 10
-5.5414
 20
-38.713
 30
0.0
 10
-5.5414
 20
-38.713
 30
0.0
 10
-5.1983
 20
-38.6319
 30
0.0
 10
-4.8361
 20
-38.5179
 30
0.0
 10
-4.7989
 20
-38.9637
 30
0.0
 10
-4.7989
 20
-38.9637
 30
0.0
 10
-4.5441
 20
-40.0425
 30
0.0
 10
-3.9892
 20
-40.8934
 30
0.0
 10
-3.1341
 20
-41.5163
 30
0.0
 10
-3.1341
 20
-41.5163
 30
0.0
 10
-2.9917
 20
-41.7138
 30
0.0
 10
-2.8492
 20
-41.9114
 30
0.0
 10
-2.7067
 20
-42.1089
 30
0.0
 10
-2.7067
 20
-42.1089
 30
0.0
 10
-2.6425
 20
-42.2623
 30
0.0
 10
-2.6273
 20
-42.4043
 30
0.0
 10
-2.9542
 20
-42.4657
 30
0.0
 10
-2.9542
 20
-42.4657
 30
0.0
 10
-5.0015
 20
-42.4657
 30
0.0
 10
-7.0487
 20
-42.4657
 30
0.0
 10
-9.096
 20
-42.4657
 30
0.0
  0
SPLINE
  5
9B
330
1F
100
AcDbEntity
  8
Layer 1
 62
   140
100
AcDbSpline
210
0.0
220
0.0
230
1.0
 70
    11
 71
     3
 72
    28
 73
    24
 74
     0
 42
0.000000001
 43
0.0000000001
 40
0.0
 40
0.0
 40
0.0
 40
0.0
 40
0.1428571428571428
 40
0.1428571428571428
 40
0.1428571428571428
 40
0.1428571428571428
 40
0.2857142857142857
 40
0.2857142857142857
 40
0.2857142857142857
 40
0.2857142857142857
 40
0.4285714285714285
 40
0.4285714285714285
 40
0.4285714285714285
 40
0.4285714285714285
 40
0.5714285714285714
 40
0.5714285714285714
 40
0.5714285714285714
 40
0.5714285714285714
 40
0.7142857142857143
 40
0.7142857142857143
 40
0.7142857142857143
 40
0.7142857142857143
 40
1.0
 40
1.0
 40
1.0
 40
1.0
 10
-1.5903
 20
-41.9265
 30
0.0
 10
-1.2903
 20
-42.2228
 30
0.0
 10
-1.0654
 20
-42.2456
 30
0.0
 10
-0.9153
 20
-41.9949
 30
0.0
 10
-0.9153
 20
-41.9949
 30
0.0
 10
-0.2827
 20
-40.6549
 30
0.0
 10
0.5554
 20
-39.5747
 30
0.0
 10
1.5481
 20
-38.6902
 30
0.0
 10
1.5481
 20
-38.6902
 30
0.0
 10
1.8649
 20
-38.2022
 30
0.0
 10
1.7073
 20
-38.0275
 30
0.0
 10
1.3344
 20
-37.9951
 30
0.0
 10
1.3344
 20
-37.9951
 30
0.0
 10
0.0216
 20
-38.4278
 30
0.0
 10
-1.2749
 20
-38.6111
 30
0.0
 10
-2.5577
 20
-38.5876
 30
0.0
 10
-2.5577
 20
-38.5876
 30
0.0
 10
-2.847
 20
-38.7167
 30
0.0
 10
-3.0798
 20
-38.8611
 30
0.0
 10
-2.9176
 20
-39.1119
 30
0.0
 10
-2.9176
 20
-39.1119
 30
0.0
 10
-2.3015
 20
-39.9799
 30
0.0
 10
-1.906
 20
-40.9371
 30
0.0
 10
-1.5903
 20
-41.9265
 30
0.0
  0
SPLINE
  5
9C
330
1F
100
AcDbEntity
  8
Layer 1
 62
   140
100
AcDbSpline
210
0.0
220
0.0
230
1.0
 70
    11
 71
     3
 72
    48
 73
    44
 74
     0
 42
0.000000001
 43
0.0000000001
 40
0.0
 40
0.0
 40
0.0
 40
0.0
 40
0.0833333333333333
 40
0.0833333333333333
 40
0.0833333333333333
 40
0.0833333333333333
 40
0.1666666666666667
 40
0.1666666666666667
 40
0.1666666666666667
 40
0.1666666666666667
 40
0.25
 40
0.25
 40
0.25
 40
0.25
 40
0.3333333333333333
 40
0.3333333333333333
 40
0.3333333333333333
 40
0.3333333333333333
 40
0.4166666666666667
 40
0.4166666666666667
 40
0.4166666666666667
 40
0.4166666666666667
 40
0.5
 40
0.5
 40
0.5
 40
0.5
 40
0.5833333333333334
 40
0.5833333333333334
 40
0.5833333333333334
 40
0.5833333333333334
 40
0.6666666666666666
 40
0.6666666666666666
 40
0.6666666666666666
 40
0.6666666666666666
 40
0.75
 40
0.75
 40
0.75
 40
0.75
 40
0.8333333333333334
 40
0.8333333333333334
 40
0.8333333333333334
 40
0.8333333333333334
 40
1.0
 40
1.0
 40
1.0
 40
1.0
 10
1.3428
 20
-42.4657
 30
0.0
 10
3.3528
 20
-42.2392
 30
0.0
 10
5.4275
 20
-42.4185
 30
0.0
 10
7.3023
 20
-42.4657
 30
0.0
 10
7.3023
 20
-42.4657
 30
0.0
 10
8.7605
 20
-42.5024
 30
0.0
 10
10.0358
 20
-42.3735
 30
0.0
 10
11.4667
 20
-42.4657
 30
0.0
 10
11.4667
 20
-42.4657
 30
0.0
 10
11.9775
 20
-42.3474
 30
0.0
 10
12.413
 20
-42.1757
 30
0.0
 10
12.3216
 20
-41.6303
 30
0.0
 10
12.3216
 20
-41.6303
 30
0.0
 10
12.6141
 20
-40.5287
 30
0.0
 10
12.9066
 20
-39.4272
 30
0.0
 10
13.199
 20
-38.3256
 30
0.0
 10
13.199
 20
-38.3256
 30
0.0
 10
13.349
 20
-37.7709
 30
0.0
 10
13.0865
 20
-37.5507
 30
0.0
 10
12.6366
 20
-37.4823
 30
0.0
 10
12.6366
 20
-37.4823
 30
0.0
 10
11.7709
 20
-37.2563
 30
0.0
 10
10.5562
 20
-37.1484
 30
0.0
 10
9.1505
 20
-37.591
 30
0.0
 10
9.1505
 20
-37.591
 30
0.0
 10
8.1605
 20
-37.9027
 30
0.0
 10
7.2599
 20
-37.8072
 30
0.0
 10
6.2248
 20
-37.8697
 30
0.0
 10
6.2248
 20
-37.8697
 30
0.0
 10
5.3285
 20
-37.9341
 30
0.0
 10
4.5108
 20
-38.1316
 30
0.0
 10
3.9751
 20
-38.8042
 30
0.0
 10
3.9751
 20
-38.8042
 30
0.0
 10
3.0363
 20
-39.2965
 30
0.0
 10
2.3168
 20
-39.9371
 30
0.0
 10
1.9179
 20
-40.7942
 30
0.0
 10
1.9179
 20
-40.7942
 30
0.0
 10
1.7344
 20
-41.1888
 30
0.0
 10
1.2946
 20
-41.3973
 30
0.0
 10
0.9829
 20
-41.6987
 30
0.0
 10
0.9829
 20
-41.6987
 30
0.0
 10
0.8141
 20
-42.114
 30
0.0
 10
0.8517
 20
-42.4154
 30
0.0
 10
1.3428
 20
-42.4657
 30
0.0
  0
SPLINE
  5
9D
330
1F
100
AcDbEntity
  8
Layer 1
 62
   140
100
AcDbSpline
210
0.0
220
0.0
230
1.0
 70
    11
 71
     3
 72
    40
 73
    36
 74
     0
 42
0.000000001
 43
0.0000000001
 40
0.0
 40
0.0
 40
0.0
 40
0.0
 40
0.1
 40
0.1
 40
0.1
 40
0.1
 40
0.2
 40
0.2
 40
0.2
 40
0.2
 40
0.3
 40
0.3
 40
0.3
 40
0.3
 40
0.4
 40
0.4
 40
0.4
 40
0.4
 40
0.5
 40
0.5
 40
0.5
 40
0.5
 40
0.6
 40
0.6
 40
0.6
 40
0.6
 40
0.7
 40
0.7
 40
0.7
 40
0.7
 40
0.8
 40
0.8
 40
0.8
 40
0.8
 40
1.0
 40
1.0
 40
1.0
 40
1.0
 10
14.1889
 20
-42.0405
 30
0.0
 10
14.1961
 20
-42.227
 30
0.0
 10
14.2333
 20
-42.3791
 30
0.0
 10
14.4814
 20
-42.2913
 30
0.0
 10
14.4814
 20
-42.2913
 30
0.0
 10
16.336
 20
-42.0376
 30
0.0
 10
18.1385
 20
-41.9598
 30
0.0
 10
19.8132
 20
-42.314
 30
0.0
 10
19.8132
 20
-42.314
 30
0.0
 10
20.0801
 20
-42.288
 30
0.0
 10
20.2831
 20
-42.2124
 30
0.0
 10
20.0382
 20
-41.7898
 30
0.0
 10
20.0382
 20
-41.7898
 30
0.0
 10
19.4907
 20
-41.2353
 30
0.0
 10
18.9433
 20
-40.6807
 30
0.0
 10
18.3959
 20
-40.126
 30
0.0
 10
18.3959
 20
-40.126
 30
0.0
 10
18.0025
 20
-39.7152
 30
0.0
 10
17.5752
 20
-39.3654
 30
0.0
 10
16.9111
 20
-39.4424
 30
0.0
 10
16.9111
 20
-39.4424
 30
0.0
 10
16.506
 20
-39.4955
 30
0.0
 10
16.086
 20
-39.3512
 30
0.0
 10
15.6512
 20
-39.0093
 30
0.0
 10
15.6512
 20
-39.0093
 30
0.0
 10
15.3661
 20
-38.6751
 30
0.0
 10
15.0662
 20
-38.6295
 30
0.0
 10
14.7513
 20
-38.8725
 30
0.0
 10
14.7513
 20
-38.8725
 30
0.0
 10
14.6488
 20
-39.45
 30
0.0
 10
14.6751
 20
-40.0669
 30
0.0
 10
14.4437
 20
-40.6051
 30
0.0
 10
14.4437
 20
-40.6051
 30
0.0
 10
14.2576
 20
-41.0379
 30
0.0
 10
14.2738
 20
-41.5621
 30
0.0
 10
14.1889
 20
-42.0405
 30
0.0
  0
SPLINE
  5
9E
330
1F
100
AcDbEntity
  8
Layer 1
 62
   140
100
AcDbSpline
210
0.0
220
0.0
230
1.0
 70
    11
 71
     3
 72
    40
 73
    36
 74
     0
 42
0.000000001
 43
0.0000000001
 40
0.0
 40
0.0
 40
0.0
 40
0.0
 40
0.1
 40
0.1
 40
0.1
 40
0.1
 40
0.2
 40
0.2
 40
0.2
 40
0.2
 40
0.3
 40
0.3
 40
0.3
 40
0.3
 40
0.4
 40
0.4
 40
0.4
 40
0.4
 40
0.5
 40
0.5
 40
0.5
 40
0.5
 40
0.6
 40
0.6
 40
0.6
 40
0.6
 40
0.7
 40
0.7
 40
0.7
 40
0.7
 40
0.8
 40
0.8
 40
0.8
 40
0.8
 40
1.0
 40
1.0
 40
1.0
 40
1.0
 10
20.5557
 20
-40.5591
 30
0.0
 10
20.8978
 20
-40.677
 30
0.0
 10
21.2025
 20
-40.5858
 30
0.0
 10
21.4248
 20
-40.0349
 30
0.0
 10
21.4248
 20
-40.0349
 30
0.0
 10
21.4248
 20
-39.374
 30
0.0
 10
21.4248
 20
-38.713
 30
0.0
 10
21.4248
 20
-38.052
 30
0.0
 10
21.4248
 20
-38.052
 30
0.0
 10
21.4282
 20
-37.7577
 30
0.0
 10
21.3175
 20
-37.5641
 30
0.0
 10
21.1181
 20
-37.3912
 30
0.0
 10
21.1181
 20
-37.3912
 30
0.0
 10
19.8658
 20
-36.4126
 30
0.0
 10
18.6659
 20
-34.9534
 30
0.0
 10
17.4735
 20
-33.4255
 30
0.0
 10
17.4735
 20
-33.4255
 30
0.0
 10
16.9861
 20
-33.0912
 30
0.0
 10
16.4986
 20
-32.7569
 30
0.0
 10
16.0112
 20
-32.4227
 30
0.0
 10
16.0112
 20
-32.4227
 30
0.0
 10
15.428
 20
-32.2344
 30
0.0
 10
15.3126
 20
-32.5201
 30
0.0
 10
15.1338
 20
-32.7418
 30
0.0
 10
15.1338
 20
-32.7418
 30
0.0
 10
15.1413
 20
-33.6914
 30
0.0
 10
15.1488
 20
-34.641
 30
0.0
 10
15.1563
 20
-35.5907
 30
0.0
 10
15.1563
 20
-35.5907
 30
0.0
 10
15.3883
 20
-36.5417
 30
0.0
 10
15.831
 20
-37.0122
 30
0.0
 10
16.3037
 20
-37.414
 30
0.0
 10
16.3037
 20
-37.414
 30
0.0
 10
17.9122
 20
-38.2688
 30
0.0
 10
19.3072
 20
-39.34
 30
0.0
 10
20.5557
 20
-40.5591
 30
0.0
  0
SPLINE
  5
9F
330
1F
100
AcDbEntity
  8
Layer 1
 62
   140
100
AcDbSpline
210
0.0
220
0.0
230
1.0
 70
    11
 71
     3
 72
    36
 73
    32
 74
     0
 42
0.000000001
 43
0.0000000001
 40
0.0
 40
0.0
 40
0.0
 40
0.0
 40
0.1111111111111111
 40
0.1111111111111111
 40
0.1111111111111111
 40
0.1111111111111111
 40
0.2222222222222222
 40
0.2222222222222222
 40
0.2222222222222222
 40
0.2222222222222222
 40
0.3333333333333333
 40
0.3333333333333333
 40
0.3333333333333333
 40
0.3333333333333333
 40
0.4444444444444444
 40
0.4444444444444444
 40
0.4444444444444444
 40
0.4444444444444444
 40
0.5555555555555556
 40
0.5555555555555556
 40
0.5555555555555556
 40
0.5555555555555556
 40
0.6666666666666666
 40
0.6666666666666666
 40
0.6666666666666666
 40
0.6666666666666666
 40
0.7777777777777778
 40
0.7777777777777778
 40
0.7777777777777778
 40
0.7777777777777778
 40
1.0
 40
1.0
 40
1.0
 40
1.0
 10
-6.2697
 20
-35.602
 30
0.0
 10
-6.0331
 20
-35.6863
 30
0.0
 10
-5.8306
 20
-35.717
 30
0.0
 10
-5.8648
 20
-35.3741
 30
0.0
 10
-5.8648
 20
-35.3741
 30
0.0
 10
-6.0158
 20
-34.5451
 30
0.0
 10
-6.0815
 20
-33.8027
 30
0.0
 10
-6.0223
 20
-33.1862
 30
0.0
 10
-6.0223
 20
-33.1862
 30
0.0
 10
-6.0635
 20
-32.9394
 30
0.0
 10
-6.1948
 20
-32.8141
 30
0.0
 10
-6.4159
 20
-32.8101
 30
0.0
 10
-6.4159
 20
-32.8101
 30
0.0
 10
-6.7572
 20
-32.8063
 30
0.0
 10
-7.0984
 20
-32.8025
 30
0.0
 10
-7.4396
 20
-32.7988
 30
0.0
 10
-7.4396
 20
-32.7988
 30
0.0
 10
-7.6196
 20
-32.795
 30
0.0
 10
-7.7996
 20
-32.7912
 30
0.0
 10
-7.9795
 20
-32.7873
 30
0.0
 10
-7.9795
 20
-32.7873
 30
0.0
 10
-8.2007
 20
-32.8578
 30
0.0
 10
-8.2158
 20
-33.0325
 30
0.0
 10
-8.137
 20
-33.2546
 30
0.0
 10
-8.137
 20
-33.2546
 30
0.0
 10
-8.0136
 20
-33.6652
 30
0.0
 10
-7.7323
 20
-33.969
 30
0.0
 10
-7.4284
 20
-34.2574
 30
0.0
 10
-7.4284
 20
-34.2574
 30
0.0
 10
-6.9015
 20
-34.6202
 30
0.0
 10
-6.4963
 20
-35.0571
 30
0.0
 10
-6.2697
 20
-35.602
 30
0.0
  0
SPLINE
  5
A0
330
1F
100
AcDbEntity
  8
Layer 1
 62
   140
100
AcDbSpline
210
0.0
220
0.0
230
1.0
 70
    11
 71
     3
 72
    76
 73
    72
 74
     0
 42
0.000000001
 43
0.0000000001
 40
0.0
 40
0.0
 40
0.0
 40
0.0
 40
0.0526315789473684
 40
0.0526315789473684
 40
0.0526315789473684
 40
0.0526315789473684
 40
0.1052631578947368
 40
0.1052631578947368
 40
0.1052631578947368
 40
0.1052631578947368
 40
0.1578947368421053
 40
0.1578947368421053
 40
0.1578947368421053
 40
0.1578947368421053
 40
0.2105263157894737
 40
0.2105263157894737
 40
0.2105263157894737
 40
0.2105263157894737
 40
0.2631578947368421
 40
0.2631578947368421
 40
0.2631578947368421
 40
0.2631578947368421
 40
0.3157894736842105
 40
0.3157894736842105
 40
0.3157894736842105
 40
0.3157894736842105
 40
0.3684210526315789
 40
0.3684210526315789
 40
0.3684210526315789
 40
0.3684210526315789
 40
0.4210526315789473
 40
0.4210526315789473
 40
0.4210526315789473
 40
0.4210526315789473
 40
0.4736842105263158
 40
0.4736842105263158
 40
0.4736842105263158
 40
0.4736842105263158
 40
0.5263157894736842
 40
0.5263157894736842
 40
0.5263157894736842
 40
0.5263157894736842
 40
0.5789473684210527
 40
0.5789473684210527
 40
0.5789473684210527
 40
0.5789473684210527
 40
0.631578947368421
 40
0.631578947368421
 40
0.631578947368421
 40
0.631578947368421
 40
0.6842105263157895
 40
0.6842105263157895
 40
0.6842105263157895
 40
0.6842105263157895
 40
0.7368421052631579
 40
0.7368421052631579
 40
0.7368421052631579
 40
0.7368421052631579
 40
0.7894736842105263
 40
0.7894736842105263
 40
0.7894736842105263
 40
0.7894736842105263
 40
0.8421052631578947
 40
0.8421052631578947
 40
0.8421052631578947
 40
0.8421052631578947
 40
0.8947368421052632
 40
0.8947368421052632
 40
0.8947368421052632
 40
0.8947368421052632
 40
1.0
 40
1.0
 40
1.0
 40
1.0
 10
-4.1915
 20
-36.2516
 30
0.0
 10
-4.0501
 20
-36.6969
 30
0.0
 10
-3.7258
 20
-36.9077
 30
0.0
 10
-3.1341
 20
-36.7758
 30
0.0
 10
-3.1341
 20
-36.7758
 30
0.0
 10
-2.5774
 20
-36.5399
 30
0.0
 10
-2.1912
 20
-36.3121
 30
0.0
 10
-1.9643
 20
-35.9553
 30
0.0
 10
-1.9643
 20
-35.9553
 30
0.0
 10
-1.507
 20
-35.0874
 30
0.0
 10
-1.0495
 20
-34.5518
 30
0.0
 10
-0.592
 20
-34.2915
 30
0.0
 10
-0.592
 20
-34.2915
 30
0.0
 10
-0.1254
 20
-33.8112
 30
0.0
 10
0.2162
 20
-33.2832
 30
0.0
 10
0.4879
 20
-32.7418
 30
0.0
 10
0.4879
 20
-32.7418
 30
0.0
 10
1.0067
 20
-31.7058
 30
0.0
 10
1.5511
 20
-31.0355
 30
0.0
 10
2.1302
 20
-30.8501
 30
0.0
 10
2.1302
 20
-30.8501
 30
0.0
 10
2.4678
 20
-30.6603
 30
0.0
 10
2.4752
 20
-30.3792
 30
0.0
 10
2.1528
 20
-30.0068
 30
0.0
 10
2.1528
 20
-30.0068
 30
0.0
 10
1.7622
 20
-29.378
 30
0.0
 10
1.0379
 20
-29.0309
 30
0.0
 10
0.2855
 20
-28.7077
 30
0.0
 10
0.2855
 20
-28.7077
 30
0.0
 10
-0.8796
 20
-28.4895
 30
0.0
 10
-1.8394
 20
-27.7167
 30
0.0
 10
-2.8192
 20
-26.9984
 30
0.0
 10
-2.8192
 20
-26.9984
 30
0.0
 10
-3.3011
 20
-26.6043
 30
0.0
 10
-3.5973
 20
-26.7848
 30
0.0
 10
-3.8091
 20
-27.2263
 30
0.0
 10
-3.8091
 20
-27.2263
 30
0.0
 10
-3.9516
 20
-28.3355
 30
0.0
 10
-4.0941
 20
-29.4446
 30
0.0
 10
-4.2365
 20
-30.5538
 30
0.0
 10
-4.2365
 20
-30.5538
 30
0.0
 10
-4.1995
 20
-30.9682
 30
0.0
 10
-3.9512
 20
-31.1198
 30
0.0
 10
-3.5841
 20
-31.1236
 30
0.0
 10
-3.5841
 20
-31.1236
 30
0.0
 10
-2.8792
 20
-31.2224
 30
0.0
 10
-2.1743
 20
-31.3212
 30
0.0
 10
-1.4693
 20
-31.4199
 30
0.0
 10
-1.4693
 20
-31.4199
 30
0.0
 10
-1.0354
 20
-31.5139
 30
0.0
 10
-0.6287
 20
-31.6833
 30
0.0
 10
-0.2545
 20
-31.9441
 30
0.0
 10
-0.2545
 20
-31.9441
 30
0.0
 10
-0.1654
 20
-32.0754
 30
0.0
 10
-0.231
 20
-32.1854
 30
0.0
 10
-0.367
 20
-32.286
 30
0.0
 10
-0.367
 20
-32.286
 30
0.0
 10
-0.8839
 20
-32.4739
 30
0.0
 10
-1.4093
 20
-32.6393
 30
0.0
 10
-2.0317
 20
-32.5367
 30
0.0
 10
-2.0317
 20
-32.5367
 30
0.0
 10
-2.6692
 20
-32.4835
 30
0.0
 10
-3.3066
 20
-32.4303
 30
0.0
 10
-3.9441
 20
-32.3771
 30
0.0
 10
-3.9441
 20
-32.3771
 30
0.0
 10
-4.1524
 20
-32.4721
 30
0.0
 10
-4.3134
 20
-32.662
 30
0.0
 10
-4.3715
 20
-33.0608
 30
0.0
 10
-4.3715
 20
-33.0608
 30
0.0
 10
-4.0565
 20
-34.0941
 30
0.0
 10
-3.9966
 20
-35.1577
 30
0.0
 10
-4.1915
 20
-36.2516
 30
0.0
  0
SPLINE
  5
A1
330
1F
100
AcDbEntity
  8
Layer 1
 62
   140
100
AcDbSpline
210
0.0
220
0.0
230
1.0
 70
    11
 71
     3
 72
    44
 73
    40
 74
     0
 42
0.000000001
 43
0.0000000001
 40
0.0
 40
0.0
 40
0.0
 40
0.0
 40
0.0909090909090909
 40
0.0909090909090909
 40
0.0909090909090909
 40
0.0909090909090909
 40
0.1818181818181818
 40
0.1818181818181818
 40
0.1818181818181818
 40
0.1818181818181818
 40
0.2727272727272727
 40
0.2727272727272727
 40
0.2727272727272727
 40
0.2727272727272727
 40
0.3636363636363636
 40
0.3636363636363636
 40
0.3636363636363636
 40
0.3636363636363636
 40
0.4545454545454545
 40
0.4545454545454545
 40
0.4545454545454545
 40
0.4545454545454545
 40
0.5454545454545454
 40
0.5454545454545454
 40
0.5454545454545454
 40
0.5454545454545454
 40
0.6363636363636364
 40
0.6363636363636364
 40
0.6363636363636364
 40
0.6363636363636364
 40
0.7272727272727273
 40
0.7272727272727273
 40
0.7272727272727273
 40
0.7272727272727273
 40
0.8181818181818182
 40
0.8181818181818182
 40
0.8181818181818182
 40
0.8181818181818182
 40
1.0
 40
1.0
 40
1.0
 40
1.0
 10
-0.1195
 20
-36.3541
 30
0.0
 10
-0.0349
 20
-36.5383
 30
0.0
 10
0.0091
 20
-36.5606
 30
0.0
 10
0.4457
 20
-36.3884
 30
0.0
 10
0.4457
 20
-36.3884
 30
0.0
 10
0.8942
 20
-36.2781
 30
0.0
 10
1.3768
 20
-36.1897
 30
0.0
 10
1.9756
 20
-36.263
 30
0.0
 10
1.9756
 20
-36.263
 30
0.0
 10
2.2607
 20
-36.3298
 30
0.0
 10
3.9005
 20
-36.441
 30
0.0
 10
4.0903
 20
-36.2743
 30
0.0
 10
4.0903
 20
-36.2743
 30
0.0
 10
4.3511
 20
-35.8504
 30
0.0
 10
4.4823
 20
-35.3885
 30
0.0
 10
4.5331
 20
-34.9034
 30
0.0
 10
4.5331
 20
-34.9034
 30
0.0
 10
4.5974
 20
-34.2887
 30
0.0
 10
4.9129
 20
-33.7281
 30
0.0
 10
5.1027
 20
-33.1406
 30
0.0
 10
5.1027
 20
-33.1406
 30
0.0
 10
5.2227
 20
-32.8234
 30
0.0
 10
5.2676
 20
-32.5539
 30
0.0
 10
5.1477
 20
-32.3885
 30
0.0
 10
5.1477
 20
-32.3885
 30
0.0
 10
4.9076
 20
-31.9631
 30
0.0
 10
4.6677
 20
-31.5377
 30
0.0
 10
4.4277
 20
-31.1122
 30
0.0
 10
4.4277
 20
-31.1122
 30
0.0
 10
4.257
 20
-30.9564
 30
0.0
 10
4.0245
 20
-31.0097
 30
0.0
 10
3.7641
 20
-31.1578
 30
0.0
 10
3.7641
 20
-31.1578
 30
0.0
 10
2.9432
 20
-32.8132
 30
0.0
 10
1.9227
 20
-34.2928
 30
0.0
 10
0.412
 20
-35.34
 30
0.0
 10
0.412
 20
-35.34
 30
0.0
 10
0.1698
 20
-35.5041
 30
0.0
 10
-0.1178
 20
-35.9468
 30
0.0
 10
-0.1195
 20
-36.3541
 30
0.0
  0
SPLINE
  5
A2
330
1F
100
AcDbEntity
  8
Layer 1
 62
   140
100
AcDbSpline
210
0.0
220
0.0
230
1.0
 70
    11
 71
     3
 72
    28
 73
    24
 74
     0
 42
0.000000001
 43
0.0000000001
 40
0.0
 40
0.0
 40
0.0
 40
0.0
 40
0.1428571428571428
 40
0.1428571428571428
 40
0.1428571428571428
 40
0.1428571428571428
 40
0.2857142857142857
 40
0.2857142857142857
 40
0.2857142857142857
 40
0.2857142857142857
 40
0.4285714285714285
 40
0.4285714285714285
 40
0.4285714285714285
 40
0.4285714285714285
 40
0.5714285714285714
 40
0.5714285714285714
 40
0.5714285714285714
 40
0.5714285714285714
 40
0.7142857142857143
 40
0.7142857142857143
 40
0.7142857142857143
 40
0.7142857142857143
 40
1.0
 40
1.0
 40
1.0
 40
1.0
 10
5.4739
 20
-35.3628
 30
0.0
 10
5.4432
 20
-35.7455
 30
0.0
 10
5.5076
 20
-36.0552
 30
0.0
 10
5.9126
 20
-36.1035
 30
0.0
 10
5.9126
 20
-36.1035
 30
0.0
 10
6.5725
 20
-35.9724
 30
0.0
 10
7.2324
 20
-35.8413
 30
0.0
 10
7.8923
 20
-35.7103
 30
0.0
 10
7.8923
 20
-35.7103
 30
0.0
 10
8.2514
 20
-35.4927
 30
0.0
 10
8.2495
 20
-35.2441
 30
0.0
 10
8.0835
 20
-34.981
 30
0.0
 10
8.0835
 20
-34.981
 30
0.0
 10
7.6332
 20
-34.6875
 30
0.0
 10
7.195
 20
-34.3458
 30
0.0
 10
6.7899
 20
-33.8699
 30
0.0
 10
6.7899
 20
-33.8699
 30
0.0
 10
6.4553
 20
-33.7224
 30
0.0
 10
6.1816
 20
-33.7537
 30
0.0
 10
5.997
 20
-34.0465
 30
0.0
 10
5.997
 20
-34.0465
 30
0.0
 10
5.8226
 20
-34.4853
 30
0.0
 10
5.6482
 20
-34.924
 30
0.0
 10
5.4739
 20
-35.3628
 30
0.0
  0
SPLINE
  5
A3
330
1F
100
AcDbEntity
  8
Layer 1
 62
   140
100
AcDbSpline
210
0.0
220
0.0
230
1.0
 70
    11
 71
     3
 72
    44
 73
    40
 74
     0
 42
0.000000001
 43
0.0000000001
 40
0.0
 40
0.0
 40
0.0
 40
0.0
 40
0.0909090909090909
 40
0.0909090909090909
 40
0.0909090909090909
 40
0.0909090909090909
 40
0.1818181818181818
 40
0.1818181818181818
 40
0.1818181818181818
 40
0.1818181818181818
 40
0.2727272727272727
 40
0.2727272727272727
 40
0.2727272727272727
 40
0.2727272727272727
 40
0.3636363636363636
 40
0.3636363636363636
 40
0.3636363636363636
 40
0.3636363636363636
 40
0.4545454545454545
 40
0.4545454545454545
 40
0.4545454545454545
 40
0.4545454545454545
 40
0.5454545454545454
 40
0.5454545454545454
 40
0.5454545454545454
 40
0.5454545454545454
 40
0.6363636363636364
 40
0.6363636363636364
 40
0.6363636363636364
 40
0.6363636363636364
 40
0.7272727272727273
 40
0.7272727272727273
 40
0.7272727272727273
 40
0.7272727272727273
 40
0.8181818181818182
 40
0.8181818181818182
 40
0.8181818181818182
 40
0.8181818181818182
 40
1.0
 40
1.0
 40
1.0
 40
1.0
 10
5.9126
 20
-30.8387
 30
0.0
 10
5.5334
 20
-30.1094
 30
0.0
 10
5.9464
 20
-29.9745
 30
0.0
 10
6.3851
 20
-29.8587
 30
0.0
 10
6.3851
 20
-29.8587
 30
0.0
 10
6.8237
 20
-29.7429
 30
0.0
 10
10.6713
 20
-29.7844
 30
0.0
 10
11.1544
 20
-29.6992
 30
0.0
 10
11.1544
 20
-29.6992
 30
0.0
 10
11.6375
 20
-29.6139
 30
0.0
 10
12.0427
 20
-29.577
 30
0.0
 10
12.5831
 20
-29.3915
 30
0.0
 10
12.5831
 20
-29.3915
 30
0.0
 10
13.1234
 20
-29.2059
 30
0.0
 10
13.5338
 20
-29.3498
 30
0.0
 10
13.4421
 20
-29.9492
 30
0.0
 10
13.4421
 20
-29.9492
 30
0.0
 10
13.3504
 20
-30.5486
 30
0.0
 10
13.4154
 20
-33.1216
 30
0.0
 10
13.3929
 20
-34.793
 30
0.0
 10
13.3929
 20
-34.793
 30
0.0
 10
13.4154
 20
-35.3362
 30
0.0
 10
13.153
 20
-35.6057
 30
0.0
 10
12.6055
 20
-35.602
 30
0.0
 10
12.6055
 20
-35.602
 30
0.0
 10
12.1593
 20
-35.5336
 30
0.0
 10
11.7131
 20
-35.4652
 30
0.0
 10
11.2669
 20
-35.3969
 30
0.0
 10
11.2669
 20
-35.3969
 30
0.0
 10
10.8966
 20
-35.4123
 30
0.0
 10
10.546
 20
-35.3477
 30
0.0
 10
10.2658
 20
-34.9981
 30
0.0
 10
10.2658
 20
-34.9981
 30
0.0
 10
9.6021
 20
-34.1738
 30
0.0
 10
8.7884
 20
-33.4862
 30
0.0
 10
7.8249
 20
-32.9355
 30
0.0
 10
7.8249
 20
-32.9355
 30
0.0
 10
7.1874
 20
-32.2365
 30
0.0
 10
6.55
 20
-31.5376
 30
0.0
 10
5.9126
 20
-30.8387
 30
0.0
  0
SPLINE
  5
A4
330
1F
100
AcDbEntity
  8
Layer 1
 62
   140
100
AcDbSpline
210
0.0
220
0.0
230
1.0
 70
    11
 71
     3
 72
    48
 73
    44
 74
     0
 42
0.000000001
 43
0.0000000001
 40
0.0
 40
0.0
 40
0.0
 40
0.0
 40
0.0833333333333333
 40
0.0833333333333333
 40
0.0833333333333333
 40
0.0833333333333333
 40
0.1666666666666667
 40
0.1666666666666667
 40
0.1666666666666667
 40
0.1666666666666667
 40
0.25
 40
0.25
 40
0.25
 40
0.25
 40
0.3333333333333333
 40
0.3333333333333333
 40
0.3333333333333333
 40
0.3333333333333333
 40
0.4166666666666667
 40
0.4166666666666667
 40
0.4166666666666667
 40
0.4166666666666667
 40
0.5
 40
0.5
 40
0.5
 40
0.5
 40
0.5833333333333334
 40
0.5833333333333334
 40
0.5833333333333334
 40
0.5833333333333334
 40
0.6666666666666666
 40
0.6666666666666666
 40
0.6666666666666666
 40
0.6666666666666666
 40
0.75
 40
0.75
 40
0.75
 40
0.75
 40
0.8333333333333334
 40
0.8333333333333334
 40
0.8333333333333334
 40
0.8333333333333334
 40
1.0
 40
1.0
 40
1.0
 40
1.0
 10
15.3362
 20
-29.8245
 30
0.0
 10
15.5883
 20
-30.2946
 30
0.0
 10
15.8639
 20
-30.456
 30
0.0
 10
16.1462
 20
-30.531
 30
0.0
 10
16.1462
 20
-30.531
 30
0.0
 10
17.1065
 20
-31.0481
 30
0.0
 10
17.984
 20
-31.6386
 30
0.0
 10
18.4634
 20
-32.5822
 30
0.0
 10
18.4634
 20
-32.5822
 30
0.0
 10
19.043
 20
-33.338
 30
0.0
 10
19.6335
 20
-34.0673
 30
0.0
 10
20.2632
 20
-34.7018
 30
0.0
 10
20.2632
 20
-34.7018
 30
0.0
 10
20.4957
 20
-35.0436
 30
0.0
 10
20.7282
 20
-35.3855
 30
0.0
 10
20.9606
 20
-35.7274
 30
0.0
 10
20.9606
 20
-35.7274
 30
0.0
 10
21.1452
 20
-35.9629
 30
0.0
 10
21.2999
 20
-35.9629
 30
0.0
 10
21.4248
 20
-35.7274
 30
0.0
 10
21.4248
 20
-35.7274
 30
0.0
 10
21.4248
 20
-33.5699
 30
0.0
 10
21.4248
 20
-31.4123
 30
0.0
 10
21.4248
 20
-29.2547
 30
0.0
 10
21.4248
 20
-29.2547
 30
0.0
 10
21.3741
 20
-28.8238
 30
0.0
 10
21.2137
 20
-28.5161
 30
0.0
 10
20.8932
 20
-28.3887
 30
0.0
 10
20.8932
 20
-28.3887
 30
0.0
 10
20.2201
 20
-27.9043
 30
0.0
 10
19.5263
 20
-27.9841
 30
0.0
 10
18.8233
 20
-28.3203
 30
0.0
 10
18.8233
 20
-28.3203
 30
0.0
 10
18.1
 20
-28.7382
 30
0.0
 10
17.2365
 20
-28.9814
 30
0.0
 10
16.1236
 20
-28.9128
 30
0.0
 10
16.1236
 20
-28.9128
 30
0.0
 10
15.7982
 20
-28.8275
 30
0.0
 10
15.4737
 20
-28.7579
 30
0.0
 10
15.1787
 20
-29.1636
 30
0.0
 10
15.1787
 20
-29.1636
 30
0.0
 10
15.0663
 20
-29.4144
 30
0.0
 10
15.1188
 20
-29.6348
 30
0.0
 10
15.3362
 20
-29.8245
 30
0.0
  0
SPLINE
  5
A5
330
1F
100
AcDbEntity
  8
Layer 1
 62
   140
100
AcDbSpline
210
0.0
220
0.0
230
1.0
 70
    11
 71
     3
 72
    36
 73
    32
 74
     0
 42
0.000000001
 43
0.0000000001
 40
0.0
 40
0.0
 40
0.0
 40
0.0
 40
0.1111111111111111
 40
0.1111111111111111
 40
0.1111111111111111
 40
0.1111111111111111
 40
0.2222222222222222
 40
0.2222222222222222
 40
0.2222222222222222
 40
0.2222222222222222
 40
0.3333333333333333
 40
0.3333333333333333
 40
0.3333333333333333
 40
0.3333333333333333
 40
0.4444444444444444
 40
0.4444444444444444
 40
0.4444444444444444
 40
0.4444444444444444
 40
0.5555555555555556
 40
0.5555555555555556
 40
0.5555555555555556
 40
0.5555555555555556
 40
0.6666666666666666
 40
0.6666666666666666
 40
0.6666666666666666
 40
0.6666666666666666
 40
0.7777777777777778
 40
0.7777777777777778
 40
0.7777777777777778
 40
0.7777777777777778
 40
1.0
 40
1.0
 40
1.0
 40
1.0
 10
16.5061
 20
-18.2922
 30
0.0
 10
16.6391
 20
-17.3634
 30
0.0
 10
17.0403
 20
-17.4584
 30
0.0
 10
17.5635
 20
-18.0187
 30
0.0
 10
17.5635
 20
-18.0187
 30
0.0
 10
18.7052
 20
-19.542
 30
0.0
 10
19.9088
 20
-20.8562
 30
0.0
 10
21.1406
 20
-22.0755
 30
0.0
 10
21.1406
 20
-22.0755
 30
0.0
 10
21.514
 20
-22.5313
 30
0.0
 10
21.4952
 20
-22.9871
 30
0.0
 10
21.298
 20
-23.443
 30
0.0
 10
21.298
 20
-23.443
 30
0.0
 10
20.7397
 20
-23.8142
 30
0.0
 10
20.3039
 20
-24.3783
 30
0.0
 10
20.0157
 20
-25.1751
 30
0.0
 10
20.0157
 20
-25.1751
 30
0.0
 10
19.5882
 20
-25.4836
 30
0.0
 10
19.1607
 20
-25.4133
 30
0.0
 10
18.7334
 20
-25.0839
 30
0.0
 10
18.7334
 20
-25.0839
 30
0.0
 10
17.8372
 20
-24.1181
 30
0.0
 10
16.8322
 20
-23.3452
 30
0.0
 10
15.6962
 20
-22.8049
 30
0.0
 10
15.6962
 20
-22.8049
 30
0.0
 10
14.9846
 20
-22.3262
 30
0.0
 10
15.0257
 20
-21.5633
 30
0.0
 10
15.5612
 20
-20.9588
 30
0.0
 10
15.5612
 20
-20.9588
 30
0.0
 10
16.2645
 20
-20.3434
 30
0.0
 10
16.4932
 20
-19.3937
 30
0.0
 10
16.5061
 20
-18.2922
 30
0.0
  0
SPLINE
  5
A6
330
1F
100
AcDbEntity
  8
Layer 1
 62
   140
100
AcDbSpline
210
0.0
220
0.0
230
1.0
 70
    11
 71
     3
 72
    28
 73
    24
 74
     0
 42
0.000000001
 43
0.0000000001
 40
0.0
 40
0.0
 40
0.0
 40
0.0
 40
0.1428571428571428
 40
0.1428571428571428
 40
0.1428571428571428
 40
0.1428571428571428
 40
0.2857142857142857
 40
0.2857142857142857
 40
0.2857142857142857
 40
0.2857142857142857
 40
0.4285714285714285
 40
0.4285714285714285
 40
0.4285714285714285
 40
0.4285714285714285
 40
0.5714285714285714
 40
0.5714285714285714
 40
0.5714285714285714
 40
0.5714285714285714
 40
0.7142857142857143
 40
0.7142857142857143
 40
0.7142857142857143
 40
0.7142857142857143
 40
1.0
 40
1.0
 40
1.0
 40
1.0
 10
15.3615
 20
-27.0326
 30
0.0
 10
15.4558
 20
-27.2278
 30
0.0
 10
15.5573
 20
-27.4164
 30
0.0
 10
15.8789
 20
-27.3972
 30
0.0
 10
15.8789
 20
-27.3972
 30
0.0
 10
16.6213
 20
-27.2879
 30
0.0
 10
17.3636
 20
-27.3049
 30
0.0
 10
18.1061
 20
-27.4087
 30
0.0
 10
18.1061
 20
-27.4087
 30
0.0
 10
18.4514
 20
-27.2267
 30
0.0
 10
18.4212
 20
-27.0094
 30
0.0
 10
18.2861
 20
-26.7819
 30
0.0
 10
18.2861
 20
-26.7819
 30
0.0
 10
17.519
 20
-26.306
 30
0.0
 10
16.7843
 20
-25.8106
 30
0.0
 10
16.0926
 20
-25.2891
 30
0.0
 10
16.0926
 20
-25.2891
 30
0.0
 10
15.7777
 20
-25.0651
 30
0.0
 10
15.5376
 20
-25.1298
 30
0.0
 10
15.3727
 20
-25.4828
 30
0.0
 10
15.3727
 20
-25.4828
 30
0.0
 10
15.369
 20
-25.9994
 30
0.0
 10
15.3652
 20
-26.516
 30
0.0
 10
15.3615
 20
-27.0326
 30
0.0
  0
SPLINE
  5
A7
330
1F
100
AcDbEntity
  8
Layer 1
 62
   140
100
AcDbSpline
210
0.0
220
0.0
230
1.0
 70
    11
 71
     3
 72
    32
 73
    28
 74
     0
 42
0.000000001
 43
0.0000000001
 40
0.0
 40
0.0
 40
0.0
 40
0.0
 40
0.125
 40
0.125
 40
0.125
 40
0.125
 40
0.25
 40
0.25
 40
0.25
 40
0.25
 40
0.375
 40
0.375
 40
0.375
 40
0.375
 40
0.5
 40
0.5
 40
0.5
 40
0.5
 40
0.625
 40
0.625
 40
0.625
 40
0.625
 40
0.75
 40
0.75
 40
0.75
 40
0.75
 40
1.0
 40
1.0
 40
1.0
 40
1.0
 10
9.6247
 20
-27.3289
 30
0.0
 10
9.7071
 20
-27.7049
 30
0.0
 10
9.9246
 20
-27.8834
 30
0.0
 10
10.2771
 20
-27.8645
 30
0.0
 10
10.2771
 20
-27.8645
 30
0.0
 10
11.1132
 20
-27.7628
 30
0.0
 10
11.9494
 20
-27.6707
 30
0.0
 10
12.7855
 20
-27.8759
 30
0.0
 10
12.7855
 20
-27.8759
 30
0.0
 10
13.1774
 20
-27.8439
 30
0.0
 10
13.5037
 20
-27.7186
 30
0.0
 10
13.5954
 20
-27.2605
 30
0.0
 10
13.5954
 20
-27.2605
 30
0.0
 10
13.5071
 20
-25.449
 30
0.0
 10
13.5672
 20
-23.6936
 30
0.0
 10
13.7192
 20
-21.973
 30
0.0
 10
13.7192
 20
-21.973
 30
0.0
 10
13.5381
 20
-21.3928
 30
0.0
 10
13.1988
 20
-21.3188
 30
0.0
 10
12.628
 20
-21.9844
 30
0.0
 10
12.628
 20
-21.9844
 30
0.0
 10
11.942
 20
-23.5263
 30
0.0
 10
11.1395
 20
-25.0238
 30
0.0
 10
9.9733
 20
-26.3831
 30
0.0
 10
9.9733
 20
-26.3831
 30
0.0
 10
9.7885
 20
-26.6034
 30
0.0
 10
9.6563
 20
-26.7231
 30
0.0
 10
9.6247
 20
-27.3289
 30
0.0
  0
SPLINE
  5
A8
330
1F
100
AcDbEntity
  8
Layer 1
 62
   140
100
AcDbSpline
210
0.0
220
0.0
230
1.0
 70
    11
 71
     3
 72
    32
 73
    28
 74
     0
 42
0.000000001
 43
0.0000000001
 40
0.0
 40
0.0
 40
0.0
 40
0.0
 40
0.125
 40
0.125
 40
0.125
 40
0.125
 40
0.25
 40
0.25
 40
0.25
 40
0.25
 40
0.375
 40
0.375
 40
0.375
 40
0.375
 40
0.5
 40
0.5
 40
0.5
 40
0.5
 40
0.625
 40
0.625
 40
0.625
 40
0.625
 40
0.75
 40
0.75
 40
0.75
 40
0.75
 40
1.0
 40
1.0
 40
1.0
 40
1.0
 10
20.997
 20
-20.275
 30
0.0
 10
21.222
 20
-20.4822
 30
0.0
 10
21.3646
 20
-20.4233
 30
0.0
 10
21.4248
 20
-20.0984
 30
0.0
 10
21.4248
 20
-20.0984
 30
0.0
 10
21.4248
 20
-19.2096
 30
0.0
 10
21.4248
 20
-18.3207
 30
0.0
 10
21.4248
 20
-17.4318
 30
0.0
 10
21.4248
 20
-17.4318
 30
0.0
 10
21.2924
 20
-17.2135
 30
0.0
 10
21.3166
 20
-17.1546
 30
0.0
 10
20.9296
 20
-17.1356
 30
0.0
 10
20.9296
 20
-17.1356
 30
0.0
 10
20.3615
 20
-17.0692
 30
0.0
 10
19.7934
 20
-17.0027
 30
0.0
 10
19.2254
 20
-16.9362
 30
0.0
 10
19.2254
 20
-16.9362
 30
0.0
 10
18.8748
 20
-16.885
 30
0.0
 10
18.6368
 20
-16.9667
 30
0.0
 10
18.646
 20
-17.3407
 30
0.0
 10
18.646
 20
-17.3407
 30
0.0
 10
18.9348
 20
-17.9468
 30
0.0
 10
19.2893
 20
-18.4766
 30
0.0
 10
19.7878
 20
-18.8392
 30
0.0
 10
19.7878
 20
-18.8392
 30
0.0
 10
20.3224
 20
-19.1926
 30
0.0
 10
20.7175
 20
-19.6789
 30
0.0
 10
20.997
 20
-20.275
 30
0.0
  0
SPLINE
  5
A9
330
1F
100
AcDbEntity
  8
Layer 1
 62
   140
100
AcDbSpline
210
0.0
220
0.0
230
1.0
 70
    11
 71
     3
 72
    32
 73
    28
 74
     0
 42
0.000000001
 43
0.0000000001
 40
0.0
 40
0.0
 40
0.0
 40
0.0
 40
0.125
 40
0.125
 40
0.125
 40
0.125
 40
0.25
 40
0.25
 40
0.25
 40
0.25
 40
0.375
 40
0.375
 40
0.375
 40
0.375
 40
0.5
 40
0.5
 40
0.5
 40
0.5
 40
0.625
 40
0.625
 40
0.625
 40
0.625
 40
0.75
 40
0.75
 40
0.75
 40
0.75
 40
1.0
 40
1.0
 40
1.0
 40
1.0
 10
11.5819
 20
-17.4375
 30
0.0
 10
11.6831
 20
-17.6426
 30
0.0
 10
12.5043
 20
-19.295
 30
0.0
 10
12.5381
 20
-19.3976
 30
0.0
 10
12.5381
 20
-19.3976
 30
0.0
 10
12.5718
 20
-19.5002
 30
0.0
 10
12.9899
 20
-19.939
 30
0.0
 10
13.3817
 20
-20.0358
 30
0.0
 10
13.3817
 20
-20.0358
 30
0.0
 10
13.7735
 20
-20.1326
 30
0.0
 10
14.0996
 20
-20.1248
 30
0.0
 10
14.2816
 20
-19.8876
 30
0.0
 10
14.2816
 20
-19.8876
 30
0.0
 10
14.6903
 20
-19.0899
 30
0.0
 10
15.099
 20
-18.2922
 30
0.0
 10
15.5077
 20
-17.4946
 30
0.0
 10
15.5077
 20
-17.4946
 30
0.0
 10
15.6312
 20
-17.0852
 30
0.0
 10
15.6408
 20
-16.7073
 30
0.0
 10
15.1027
 20
-16.4803
 30
0.0
 10
15.1027
 20
-16.4803
 30
0.0
 10
14.2105
 20
-16.5228
 30
0.0
 10
13.2655
 20
-16.3251
 30
0.0
 10
12.3131
 20
-16.0929
 30
0.0
 10
12.3131
 20
-16.0929
 30
0.0
 10
11.741
 20
-16.1954
 30
0.0
 10
11.4037
 20
-16.5448
 30
0.0
 10
11.5819
 20
-17.4375
 30
0.0
  0
SPLINE
  5
AA
330
1F
100
AcDbEntity
  8
Layer 1
 62
   140
100
AcDbSpline
210
0.0
220
0.0
230
1.0
 70
    11
 71
     3
 72
    80
 73
    76
 74
     0
 42
0.000000001
 43
0.0000000001
 40
0.0
 40
0.0
 40
0.0
 40
0.0
 40
0.05
 40
0.05
 40
0.05
 40
0.05
 40
0.1
 40
0.1
 40
0.1
 40
0.1
 40
0.15
 40
0.15
 40
0.15
 40
0.15
 40
0.2
 40
0.2
 40
0.2
 40
0.2
 40
0.25
 40
0.25
 40
0.25
 40
0.25
 40
0.3
 40
0.3
 40
0.3
 40
0.3
 40
0.35
 40
0.35
 40
0.35
 40
0.35
 40
0.4
 40
0.4
 40
0.4
 40
0.4
 40
0.45
 40
0.45
 40
0.45
 40
0.45
 40
0.5
 40
0.5
 40
0.5
 40
0.5
 40
0.55
 40
0.55
 40
0.55
 40
0.55
 40
0.6
 40
0.6
 40
0.6
 40
0.6
 40
0.65
 40
0.65
 40
0.65
 40
0.65
 40
0.7
 40
0.7
 40
0.7
 40
0.7
 40
0.75
 40
0.75
 40
0.75
 40
0.75
 40
0.8
 40
0.8
 40
0.8
 40
0.8
 40
0.85
 40
0.85
 40
0.85
 40
0.85
 40
0.9
 40
0.9
 40
0.9
 40
0.9
 40
1.0
 40
1.0
 40
1.0
 40
1.0
 10
1.5903
 20
-25.0384
 30
0.0
 10
1.4814
 20
-24.3547
 30
0.0
 10
1.8264
 20
-24.0889
 30
0.0
 10
2.3777
 20
-24.0128
 30
0.0
 10
2.3777
 20
-24.0128
 30
0.0
 10
3.2476
 20
-23.6405
 30
0.0
 10
4.1174
 20
-23.3215
 30
0.0
 10
4.9874
 20
-23.1923
 30
0.0
 10
4.9874
 20
-23.1923
 30
0.0
 10
5.5048
 20
-23.086
 30
0.0
 10
6.0223
 20
-22.9796
 30
0.0
 10
6.5397
 20
-22.8732
 30
0.0
 10
6.5397
 20
-22.8732
 30
0.0
 10
7.4499
 20
-22.6534
 30
0.0
 10
7.3299
 20
-21.5813
 30
0.0
 10
6.3099
 20
-21.7636
 30
0.0
 10
6.3099
 20
-21.7636
 30
0.0
 10
5.4377
 20
-21.9195
 30
0.0
 10
4.3918
 20
-22.0728
 30
0.0
 10
4.11
 20
-22.0755
 30
0.0
 10
4.11
 20
-22.0755
 30
0.0
 10
3.1614
 20
-21.9688
 30
0.0
 10
2.134
 20
-22.0754
 30
0.0
 10
1.0954
 20
-22.2123
 30
0.0
 10
1.0954
 20
-22.2123
 30
0.0
 10
0.8479
 20
-22.292
 30
0.0
 10
0.6005
 20
-22.163
 30
0.0
 10
0.3529
 20
-21.9388
 30
0.0
 10
0.3529
 20
-21.9388
 30
0.0
 10
-0.172
 20
-21.3387
 30
0.0
 10
-0.697
 20
-20.7385
 30
0.0
 10
-1.2219
 20
-20.1383
 30
0.0
 10
-1.2219
 20
-20.1383
 30
0.0
 10
-1.6795
 20
-18.919
 30
0.0
 10
-1.3119
 20
-18.1593
 30
0.0
 10
-0.5695
 20
-17.6085
 30
0.0
 10
-0.5695
 20
-17.6085
 30
0.0
 10
0.9755
 20
-16.6186
 30
0.0
 10
2.5201
 20
-16.4828
 30
0.0
 10
4.065
 20
-16.469
 30
0.0
 10
4.065
 20
-16.469
 30
0.0
 10
5.3099
 20
-16.393
 30
0.0
 10
6.5547
 20
-16.317
 30
0.0
 10
7.7996
 20
-16.2411
 30
0.0
 10
7.7996
 20
-16.2411
 30
0.0
 10
8.8795
 20
-16.2525
 30
0.0
 10
9.5469
 20
-16.64
 30
0.0
 10
10.0269
 20
-17.1982
 30
0.0
 10
10.0269
 20
-17.1982
 30
0.0
 10
10.5068
 20
-18.1023
 30
0.0
 10
10.9867
 20
-19.0064
 30
0.0
 10
11.4667
 20
-19.9104
 30
0.0
 10
11.4667
 20
-19.9104
 30
0.0
 10
11.6804
 20
-20.3967
 30
0.0
 10
11.6878
 20
-20.883
 30
0.0
 10
11.2417
 20
-21.369
 30
0.0
 10
11.2417
 20
-21.369
 30
0.0
 10
10.0868
 20
-23.3595
 30
0.0
 10
8.9319
 20
-25.3498
 30
0.0
 10
7.7771
 20
-27.3402
 30
0.0
 10
7.7771
 20
-27.3402
 30
0.0
 10
7.5971
 20
-27.91
 30
0.0
 10
7.1471
 20
-28.1758
 30
0.0
 10
6.4273
 20
-28.1379
 30
0.0
 10
6.4273
 20
-28.1379
 30
0.0
 10
5.8271
 20
-27.9466
 30
0.0
 10
5.2797
 20
-28.1826
 30
0.0
 10
4.74
 20
-28.4799
 30
0.0
 10
4.74
 20
-28.4799
 30
0.0
 10
4.125
 20
-28.7
 30
0.0
 10
3.6001
 20
-28.5253
 30
0.0
 10
3.1651
 20
-27.9556
 30
0.0
 10
3.1651
 20
-27.9556
 30
0.0
 10
2.7761
 20
-26.9005
 30
0.0
 10
2.2792
 20
-25.9108
 30
0.0
 10
1.5903
 20
-25.0384
 30
0.0
  0
SPLINE
  5
AB
330
1F
100
AcDbEntity
  8
Layer 1
 62
   140
100
AcDbSpline
210
0.0
220
0.0
230
1.0
 70
    11
 71
     3
 72
    48
 73
    44
 74
     0
 42
0.000000001
 43
0.0000000001
 40
0.0
 40
0.0
 40
0.0
 40
0.0
 40
0.0833333333333333
 40
0.0833333333333333
 40
0.0833333333333333
 40
0.0833333333333333
 40
0.1666666666666667
 40
0.1666666666666667
 40
0.1666666666666667
 40
0.1666666666666667
 40
0.25
 40
0.25
 40
0.25
 40
0.25
 40
0.3333333333333333
 40
0.3333333333333333
 40
0.3333333333333333
 40
0.3333333333333333
 40
0.4166666666666667
 40
0.4166666666666667
 40
0.4166666666666667
 40
0.4166666666666667
 40
0.5
 40
0.5
 40
0.5
 40
0.5
 40
0.5833333333333334
 40
0.5833333333333334
 40
0.5833333333333334
 40
0.5833333333333334
 40
0.6666666666666666
 40
0.6666666666666666
 40
0.6666666666666666
 40
0.6666666666666666
 40
0.75
 40
0.75
 40
0.75
 40
0.75
 40
0.8333333333333334
 40
0.8333333333333334
 40
0.8333333333333334
 40
0.8333333333333334
 40
1.0
 40
1.0
 40
1.0
 40
1.0
 10
-3.2016
 20
-24.9244
 30
0.0
 10
-2.0243
 20
-25.6917
 30
0.0
 10
-0.8469
 20
-26.459
 30
0.0
 10
0.3305
 20
-27.2263
 30
0.0
 10
0.3305
 20
-27.2263
 30
0.0
 10
1.0503
 20
-27.4845
 30
0.0
 10
1.4102
 20
-27.1958
 30
0.0
 10
0.8704
 20
-26.3603
 30
0.0
 10
0.8704
 20
-26.3603
 30
0.0
 10
0.2705
 20
-25.4258
 30
0.0
 10
-0.5994
 20
-24.4915
 30
0.0
 10
-1.1994
 20
-23.557
 30
0.0
 10
-1.1994
 20
-23.557
 30
0.0
 10
-2.0956
 20
-22.3301
 30
0.0
 10
-2.7481
 20
-21.0843
 30
0.0
 10
-2.8642
 20
-19.7964
 30
0.0
 10
-2.8642
 20
-19.7964
 30
0.0
 10
-2.9242
 20
-19.4926
 30
0.0
 10
-2.9842
 20
-19.1887
 30
0.0
 10
-3.0442
 20
-18.8848
 30
0.0
 10
-3.0442
 20
-18.8848
 30
0.0
 10
-3.2316
 20
-18.4214
 30
0.0
 10
-3.5389
 20
-18.2923
 30
0.0
 10
-3.9665
 20
-18.4974
 30
0.0
 10
-3.9665
 20
-18.4974
 30
0.0
 10
-5.3275
 20
-18.8432
 30
0.0
 10
-6.8949
 20
-18.98
 30
0.0
 10
-8.556
 20
-19.0215
 30
0.0
 10
-8.556
 20
-19.0215
 30
0.0
 10
-9.4061
 20
-19.2492
 30
0.0
 10
-9.255
 20
-19.6367
 30
0.0
 10
-8.961
 20
-20.0471
 30
0.0
 10
-8.961
 20
-20.0471
 30
0.0
 10
-8.5334
 20
-20.3359
 30
0.0
 10
-8.106
 20
-20.6245
 30
0.0
 10
-7.6786
 20
-20.9132
 30
0.0
 10
-7.6786
 20
-20.9132
 30
0.0
 10
-6.8762
 20
-21.7185
 30
0.0
 10
-6.0737
 20
-22.5238
 30
0.0
 10
-5.2714
 20
-23.3291
 30
0.0
 10
-5.2714
 20
-23.3291
 30
0.0
 10
-4.6295
 20
-23.9581
 30
0.0
 10
-4.0353
 20
-24.6844
 30
0.0
 10
-3.2016
 20
-24.9244
 30
0.0
  0
SPLINE
  5
AC
330
1F
100
AcDbEntity
  8
Layer 1
 62
   140
100
AcDbSpline
210
0.0
220
0.0
230
1.0
 70
    11
 71
     3
 72
    48
 73
    44
 74
     0
 42
0.000000001
 43
0.0000000001
 40
0.0
 40
0.0
 40
0.0
 40
0.0
 40
0.0833333333333333
 40
0.0833333333333333
 40
0.0833333333333333
 40
0.0833333333333333
 40
0.1666666666666667
 40
0.1666666666666667
 40
0.1666666666666667
 40
0.1666666666666667
 40
0.25
 40
0.25
 40
0.25
 40
0.25
 40
0.3333333333333333
 40
0.3333333333333333
 40
0.3333333333333333
 40
0.3333333333333333
 40
0.4166666666666667
 40
0.4166666666666667
 40
0.4166666666666667
 40
0.4166666666666667
 40
0.5
 40
0.5
 40
0.5
 40
0.5
 40
0.5833333333333334
 40
0.5833333333333334
 40
0.5833333333333334
 40
0.5833333333333334
 40
0.6666666666666666
 40
0.6666666666666666
 40
0.6666666666666666
 40
0.6666666666666666
 40
0.75
 40
0.75
 40
0.75
 40
0.75
 40
0.8333333333333334
 40
0.8333333333333334
 40
0.8333333333333334
 40
0.8333333333333334
 40
1.0
 40
1.0
 40
1.0
 40
1.0
 10
-17.1275
 20
-22.0755
 30
0.0
 10
-17.4202
 20
-22.3794
 30
0.0
 10
-17.4877
 20
-22.6832
 30
0.0
 10
-17.0601
 20
-22.9872
 30
0.0
 10
-17.0601
 20
-22.9872
 30
0.0
 10
-16.4676
 20
-23.3519
 30
0.0
 10
-15.8752
 20
-23.7165
 30
0.0
 10
-15.2828
 20
-24.0811
 30
0.0
 10
-15.2828
 20
-24.0811
 30
0.0
 10
-14.5854
 20
-24.7003
 30
0.0
 10
-13.9705
 20
-24.8599
 30
0.0
 10
-13.393
 20
-24.8105
 30
0.0
 10
-13.393
 20
-24.8105
 30
0.0
 10
-11.1283
 20
-24.8635
 30
0.0
 10
-8.9536
 20
-25.4029
 30
0.0
 10
-6.8687
 20
-26.4286
 30
0.0
 10
-6.8687
 20
-26.4286
 30
0.0
 10
-6.5238
 20
-26.5654
 30
0.0
 10
-6.1788
 20
-26.7021
 30
0.0
 10
-5.8338
 20
-26.8389
 30
0.0
 10
-5.8338
 20
-26.8389
 30
0.0
 10
-5.1064
 20
-26.7097
 30
0.0
 10
-4.979
 20
-26.2158
 30
0.0
 10
-5.4514
 20
-25.3575
 30
0.0
 10
-5.4514
 20
-25.3575
 30
0.0
 10
-6.0589
 20
-24.9092
 30
0.0
 10
-6.6663
 20
-24.461
 30
0.0
 10
-7.2737
 20
-24.0128
 30
0.0
 10
-7.2737
 20
-24.0128
 30
0.0
 10
-8.0087
 20
-23.3291
 30
0.0
 10
-8.7435
 20
-22.6453
 30
0.0
 10
-9.4784
 20
-21.9616
 30
0.0
 10
-9.4784
 20
-21.9616
 30
0.0
 10
-10.0708
 20
-21.2248
 30
0.0
 10
-10.6633
 20
-20.4878
 30
0.0
 10
-11.2557
 20
-19.7509
 30
0.0
 10
-11.2557
 20
-19.7509
 30
0.0
 10
-11.8669
 20
-19.2304
 30
0.0
 10
-12.5194
 20
-19.3369
 30
0.0
 10
-13.1905
 20
-19.7281
 30
0.0
 10
-13.1905
 20
-19.7281
 30
0.0
 10
-14.1316
 20
-20.9894
 30
0.0
 10
-15.5265
 20
-21.6655
 30
0.0
 10
-17.1275
 20
-22.0755
 30
0.0
  0
SPLINE
  5
AD
330
1F
100
AcDbEntity
  8
Layer 1
 62
   140
100
AcDbSpline
210
0.0
220
0.0
230
1.0
 70
    11
 71
     3
 72
    44
 73
    40
 74
     0
 42
0.000000001
 43
0.0000000001
 40
0.0
 40
0.0
 40
0.0
 40
0.0
 40
0.0909090909090909
 40
0.0909090909090909
 40
0.0909090909090909
 40
0.0909090909090909
 40
0.1818181818181818
 40
0.1818181818181818
 40
0.1818181818181818
 40
0.1818181818181818
 40
0.2727272727272727
 40
0.2727272727272727
 40
0.2727272727272727
 40
0.2727272727272727
 40
0.3636363636363636
 40
0.3636363636363636
 40
0.3636363636363636
 40
0.3636363636363636
 40
0.4545454545454545
 40
0.4545454545454545
 40
0.4545454545454545
 40
0.4545454545454545
 40
0.5454545454545454
 40
0.5454545454545454
 40
0.5454545454545454
 40
0.5454545454545454
 40
0.6363636363636364
 40
0.6363636363636364
 40
0.6363636363636364
 40
0.6363636363636364
 40
0.7272727272727273
 40
0.7272727272727273
 40
0.7272727272727273
 40
0.7272727272727273
 40
0.8181818181818182
 40
0.8181818181818182
 40
0.8181818181818182
 40
0.8181818181818182
 40
1.0
 40
1.0
 40
1.0
 40
1.0
 10
-21.3898
 20
-29.1636
 30
0.0
 10
-21.2777
 20
-29.4282
 30
0.0
 10
-21.2094
 20
-29.7471
 30
0.0
 10
-20.8172
 20
-29.665
 30
0.0
 10
-20.8172
 20
-29.665
 30
0.0
 10
-18.348
 20
-29.1655
 30
0.0
 10
-15.8996
 20
-28.8026
 30
0.0
 10
-13.5504
 20
-29.0952
 30
0.0
 10
-13.5504
 20
-29.0952
 30
0.0
 10
-12.9857
 20
-29.0982
 30
0.0
 10
-12.6905
 20
-28.9481
 30
0.0
 10
-12.8756
 20
-28.5254
 30
0.0
 10
-12.8756
 20
-28.5254
 30
0.0
 10
-13.2893
 20
-26.9318
 30
0.0
 10
-14.6252
 20
-26.1122
 30
0.0
 10
-16.0927
 20
-25.4031
 30
0.0
 10
-16.0927
 20
-25.4031
 30
0.0
 10
-16.4977
 20
-25.1904
 30
0.0
 10
-16.9026
 20
-24.9777
 30
0.0
 10
-17.3075
 20
-24.7649
 30
0.0
 10
-17.3075
 20
-24.7649
 30
0.0
 10
-17.8943
 20
-24.5123
 30
0.0
 10
-18.0181
 20
-24.1514
 30
0.0
 10
-17.825
 20
-23.7165
 30
0.0
 10
-17.825
 20
-23.7165
 30
0.0
 10
-17.8935
 20
-23.1259
 30
0.0
 10
-18.2291
 20
-22.9323
 30
0.0
 10
-18.7474
 20
-23.01
 30
0.0
 10
-18.7474
 20
-23.01
 30
0.0
 10
-19.0399
 20
-23.0176
 30
0.0
 10
-19.3323
 20
-23.0252
 30
0.0
 10
-19.6248
 20
-23.0327
 30
0.0
 10
-19.6248
 20
-23.0327
 30
0.0
 10
-20.8272
 20
-23.2513
 30
0.0
 10
-21.126
 20
-24.3556
 30
0.0
 10
-21.3898
 20
-25.4942
 30
0.0
 10
-21.3898
 20
-25.4942
 30
0.0
 10
-21.3898
 20
-26.7173
 30
0.0
 10
-21.3898
 20
-27.9405
 30
0.0
 10
-21.3898
 20
-29.1636
 30
0.0
  0
SPLINE
  5
AE
330
1F
100
AcDbEntity
  8
Layer 1
 62
   140
100
AcDbSpline
210
0.0
220
0.0
230
1.0
 70
    11
 71
     3
 72
    36
 73
    32
 74
     0
 42
0.000000001
 43
0.0000000001
 40
0.0
 40
0.0
 40
0.0
 40
0.0
 40
0.1111111111111111
 40
0.1111111111111111
 40
0.1111111111111111
 40
0.1111111111111111
 40
0.2222222222222222
 40
0.2222222222222222
 40
0.2222222222222222
 40
0.2222222222222222
 40
0.3333333333333333
 40
0.3333333333333333
 40
0.3333333333333333
 40
0.3333333333333333
 40
0.4444444444444444
 40
0.4444444444444444
 40
0.4444444444444444
 40
0.4444444444444444
 40
0.5555555555555556
 40
0.5555555555555556
 40
0.5555555555555556
 40
0.5555555555555556
 40
0.6666666666666666
 40
0.6666666666666666
 40
0.6666666666666666
 40
0.6666666666666666
 40
0.7777777777777778
 40
0.7777777777777778
 40
0.7777777777777778
 40
0.7777777777777778
 40
1.0
 40
1.0
 40
1.0
 40
1.0
 10
-11.0166
 20
-28.3089
 30
0.0
 10
-10.503
 20
-29.1142
 30
0.0
 10
-9.9893
 20
-29.9194
 30
0.0
 10
-9.4756
 20
-30.7247
 30
0.0
 10
-9.4756
 20
-30.7247
 30
0.0
 10
-9.375
 20
-31.0671
 30
0.0
 10
-9.2254
 20
-31.3598
 30
0.0
 10
-8.7332
 20
-31.306
 30
0.0
 10
-8.7332
 20
-31.306
 30
0.0
 10
-7.9655
 20
-31.0529
 30
0.0
 10
-7.1913
 20
-30.9198
 30
0.0
 10
-6.3935
 20
-31.2147
 30
0.0
 10
-6.3935
 20
-31.2147
 30
0.0
 10
-6.1047
 20
-31.2831
 30
0.0
 10
-5.9661
 20
-31.2146
 30
0.0
 10
-5.9773
 20
-31.0096
 30
0.0
 10
-5.9773
 20
-31.0096
 30
0.0
 10
-6.0912
 20
-30.3343
 30
0.0
 10
-6.0285
 20
-29.6867
 30
0.0
 10
-5.7523
 20
-29.0724
 30
0.0
 10
-5.7523
 20
-29.0724
 30
0.0
 10
-5.5636
 20
-28.7986
 30
0.0
 10
-5.8491
 20
-28.6315
 30
0.0
 10
-6.2023
 20
-28.4799
 30
0.0
 10
-6.2023
 20
-28.4799
 30
0.0
 10
-7.6781
 20
-28.2442
 30
0.0
 10
-9.1737
 20
-27.8269
 30
0.0
 10
-10.6792
 20
-27.3175
 30
0.0
 10
-10.6792
 20
-27.3175
 30
0.0
 10
-11.1645
 20
-27.3506
 30
0.0
 10
-11.5254
 20
-27.4827
 30
0.0
 10
-11.0166
 20
-28.3089
 30
0.0
  0
SPLINE
  5
AF
330
1F
100
AcDbEntity
  8
Layer 1
 62
   140
100
AcDbSpline
210
0.0
220
0.0
230
1.0
 70
    11
 71
     3
 72
    56
 73
    52
 74
     0
 42
0.000000001
 43
0.0000000001
 40
0.0
 40
0.0
 40
0.0
 40
0.0
 40
0.0714285714285714
 40
0.0714285714285714
 40
0.0714285714285714
 40
0.0714285714285714
 40
0.1428571428571428
 40
0.1428571428571428
 40
0.1428571428571428
 40
0.1428571428571428
 40
0.2142857142857143
 40
0.2142857142857143
 40
0.2142857142857143
 40
0.2142857142857143
 40
0.2857142857142857
 40
0.2857142857142857
 40
0.2857142857142857
 40
0.2857142857142857
 40
0.3571428571428572
 40
0.3571428571428572
 40
0.3571428571428572
 40
0.3571428571428572
 40
0.4285714285714285
 40
0.4285714285714285
 40
0.4285714285714285
 40
0.4285714285714285
 40
0.5
 40
0.5
 40
0.5
 40
0.5
 40
0.5714285714285714
 40
0.5714285714285714
 40
0.5714285714285714
 40
0.5714285714285714
 40
0.6428571428571429
 40
0.6428571428571429
 40
0.6428571428571429
 40
0.6428571428571429
 40
0.7142857142857143
 40
0.7142857142857143
 40
0.7142857142857143
 40
0.7142857142857143
 40
0.7857142857142857
 40
0.7857142857142857
 40
0.7857142857142857
 40
0.7857142857142857
 40
0.8571428571428571
 40
0.8571428571428571
 40
0.8571428571428571
 40
0.8571428571428571
 40
1.0
 40
1.0
 40
1.0
 40
1.0
 10
-11.9307
 20
-11.5461
 30
0.0
 10
-12.2006
 20
-11.903
 30
0.0
 10
-11.5557
 20
-13.5592
 30
0.0
 10
-10.8057
 20
-13.7796
 30
0.0
 10
-10.8057
 20
-13.7796
 30
0.0
 10
-10.0557
 20
-14.0
 30
0.0
 10
-9.111
 20
-14.9268
 30
0.0
 10
-8.151
 20
-15.6713
 30
0.0
 10
-8.151
 20
-15.6713
 30
0.0
 10
-7.3828
 20
-16.3629
 30
0.0
 10
-6.4307
 20
-16.8417
 30
0.0
 10
-4.8215
 20
-16.5601
 30
0.0
 10
-4.8215
 20
-16.5601
 30
0.0
 10
-3.6141
 20
-16.4385
 30
0.0
 10
-2.4067
 20
-16.3169
 30
0.0
 10
-1.1994
 20
-16.1954
 30
0.0
 10
-1.1994
 20
-16.1954
 30
0.0
 10
0.0247
 20
-15.5296
 30
0.0
 10
0.396
 20
-14.7642
 30
0.0
 10
0.0605
 20
-13.9163
 30
0.0
 10
0.0605
 20
-13.9163
 30
0.0
 10
-0.8442
 20
-11.8045
 30
0.0
 10
-1.7208
 20
-9.71
 30
0.0
 10
-1.7168
 20
-8.1502
 30
0.0
 10
-1.7168
 20
-8.1502
 30
0.0
 10
-1.8641
 20
-6.9673
 30
0.0
 10
-2.2739
 20
-6.6721
 30
0.0
 10
-2.9992
 20
-6.3041
 30
0.0
 10
-2.9992
 20
-6.3041
 30
0.0
 10
-3.5241
 20
-5.8483
 30
0.0
 10
-4.0491
 20
-5.3925
 30
0.0
 10
-4.574
 20
-4.9366
 30
0.0
 10
-4.574
 20
-4.9366
 30
0.0
 10
-5.3273
 20
-4.2485
 30
0.0
 10
-6.1449
 20
-4.1423
 30
0.0
 10
-7.9036
 20
-4.8227
 30
0.0
 10
-7.9036
 20
-4.8227
 30
0.0
 10
-8.6835
 20
-5.3849
 30
0.0
 10
-9.4635
 20
-5.9471
 30
0.0
 10
-10.2433
 20
-6.5093
 30
0.0
 10
-10.2433
 20
-6.5093
 30
0.0
 10
-11.0572
 20
-7.0259
 30
0.0
 10
-11.4171
 20
-7.8768
 30
0.0
 10
-11.5707
 20
-8.8795
 30
0.0
 10
-11.5707
 20
-8.8795
 30
0.0
 10
-11.682
 20
-9.8036
 30
0.0
 10
-11.7933
 20
-10.7277
 30
0.0
 10
-11.9045
 20
-11.6518
 30
0.0
 10
-11.9045
 20
-11.6518
 30
0.0
 10
-11.9045
 20
-11.6518
 30
0.0
 10
-11.9307
 20
-11.5461
 30
0.0
 10
-11.9307
 20
-11.5461
 30
0.0
  0
SPLINE
  5
B0
330
1F
100
AcDbEntity
  8
Layer 1
 62
   140
100
AcDbSpline
210
0.0
220
0.0
230
1.0
 70
    11
 71
     3
 72
    40
 73
    36
 74
     0
 42
0.000000001
 43
0.0000000001
 40
0.0
 40
0.0
 40
0.0
 40
0.0
 40
0.1
 40
0.1
 40
0.1
 40
0.1
 40
0.2
 40
0.2
 40
0.2
 40
0.2
 40
0.3
 40
0.3
 40
0.3
 40
0.3
 40
0.4
 40
0.4
 40
0.4
 40
0.4
 40
0.5
 40
0.5
 40
0.5
 40
0.5
 40
0.6
 40
0.6
 40
0.6
 40
0.6
 40
0.7
 40
0.7
 40
0.7
 40
0.7
 40
0.8
 40
0.8
 40
0.8
 40
0.8
 40
1.0
 40
1.0
 40
1.0
 40
1.0
 10
-21.3898
 20
-15.3978
 30
0.0
 10
-21.3039
 20
-15.7092
 30
0.0
 10
-21.218
 20
-16.0207
 30
0.0
 10
-21.1321
 20
-16.3322
 30
0.0
 10
-21.1321
 20
-16.3322
 30
0.0
 10
-20.3448
 20
-17.6007
 30
0.0
 10
-19.5574
 20
-18.5047
 30
0.0
 10
-18.7699
 20
-19.0443
 30
0.0
 10
-18.7699
 20
-19.0443
 30
0.0
 10
-18.4624
 20
-19.3102
 30
0.0
 10
-18.155
 20
-19.5761
 30
0.0
 10
-17.8475
 20
-19.842
 30
0.0
 10
-17.8475
 20
-19.842
 30
0.0
 10
-17.495
 20
-19.84
 30
0.0
 10
-17.0302
 20
-19.7905
 30
0.0
 10
-16.3176
 20
-19.6369
 30
0.0
 10
-16.3176
 20
-19.6369
 30
0.0
 10
-14.6791
 20
-18.5695
 30
0.0
 10
-14.1167
 20
-17.0349
 30
0.0
 10
-14.1579
 20
-15.2382
 30
0.0
 10
-14.1579
 20
-15.2382
 30
0.0
 10
-14.5286
 20
-13.7275
 30
0.0
 10
-15.5562
 20
-13.215
 30
0.0
 10
-16.7676
 20
-12.9819
 30
0.0
 10
-16.7676
 20
-12.9819
 30
0.0
 10
-17.9075
 20
-12.8376
 30
0.0
 10
-18.6312
 20
-12.6021
 30
0.0
 10
-19.771
 20
-12.4578
 30
0.0
 10
-19.771
 20
-12.4578
 30
0.0
 10
-20.2822
 20
-12.3329
 30
0.0
 10
-20.9366
 20
-12.4047
 30
0.0
 10
-21.3898
 20
-12.7312
 30
0.0
 10
-21.3898
 20
-12.7312
 30
0.0
 10
-21.3898
 20
-13.6201
 30
0.0
 10
-21.3898
 20
-14.5089
 30
0.0
 10
-21.3898
 20
-15.3978
 30
0.0
  0
SPLINE
  5
B1
330
1F
100
AcDbEntity
  8
Layer 1
 62
   140
100
AcDbSpline
210
0.0
220
0.0
230
1.0
 70
    11
 71
     3
 72
    40
 73
    36
 74
     0
 42
0.000000001
 43
0.0000000001
 40
0.0
 40
0.0
 40
0.0
 40
0.0
 40
0.1
 40
0.1
 40
0.1
 40
0.1
 40
0.2
 40
0.2
 40
0.2
 40
0.2
 40
0.3
 40
0.3
 40
0.3
 40
0.3
 40
0.4
 40
0.4
 40
0.4
 40
0.4
 40
0.5
 40
0.5
 40
0.5
 40
0.5
 40
0.6
 40
0.6
 40
0.6
 40
0.6
 40
0.7
 40
0.7
 40
0.7
 40
0.7
 40
0.8
 40
0.8
 40
0.8
 40
0.8
 40
1.0
 40
1.0
 40
1.0
 40
1.0
 10
-21.3898
 20
-9.5177
 30
0.0
 10
-21.4798
 20
-10.2013
 30
0.0
 10
-21.5502
 20
-10.6001
 30
0.0
 10
-20.7047
 20
-10.4977
 30
0.0
 10
-20.7047
 20
-10.4977
 30
0.0
 10
-19.8591
 20
-10.3952
 30
0.0
 10
-17.0189
 20
-8.7797
 30
0.0
 10
-16.5426
 20
-8.1046
 30
0.0
 10
-16.5426
 20
-8.1046
 30
0.0
 10
-16.0663
 20
-7.4296
 30
0.0
 10
-14.3284
 20
-6.3655
 30
0.0
 10
-13.573
 20
-6.1901
 30
0.0
 10
-13.573
 20
-6.1901
 30
0.0
 10
-12.8176
 20
-6.0148
 30
0.0
 10
-11.8518
 20
-4.9765
 30
0.0
 10
-11.8406
 20
-4.5948
 30
0.0
 10
-11.8406
 20
-4.5948
 30
0.0
 10
-11.8295
 20
-4.213
 30
0.0
 10
-11.7057
 20
-3.5768
 30
0.0
 10
-11.6382
 20
-3.0678
 30
0.0
 10
-11.6382
 20
-3.0678
 30
0.0
 10
-11.6897
 20
-2.7481
 30
0.0
 10
-11.824
 20
-2.4968
 30
0.0
 10
-12.5381
 20
-2.7259
 30
0.0
 10
-12.5381
 20
-2.7259
 30
0.0
 10
-15.1479
 20
-2.6397
 30
0.0
 10
-17.7576
 20
-3.3992
 30
0.0
 10
-20.3672
 20
-4.2301
 30
0.0
 10
-20.3672
 20
-4.2301
 30
0.0
 10
-20.8436
 20
-4.313
 30
0.0
 10
-21.2749
 20
-4.4569
 30
0.0
 10
-21.3898
 20
-5.0278
 30
0.0
 10
-21.3898
 20
-5.0278
 30
0.0
 10
-21.0747
 20
-6.498
 30
0.0
 10
-20.9847
 20
-7.987
 30
0.0
 10
-21.3898
 20
-9.5177
 30
0.0
  0
SPLINE
  5
B2
330
1F
100
AcDbEntity
  8
Layer 1
 62
   140
100
AcDbSpline
210
0.0
220
0.0
230
1.0
 70
    11
 71
     3
 72
    32
 73
    28
 74
     0
 42
0.000000001
 43
0.0000000001
 40
0.0
 40
0.0
 40
0.0
 40
0.0
 40
0.125
 40
0.125
 40
0.125
 40
0.125
 40
0.25
 40
0.25
 40
0.25
 40
0.25
 40
0.375
 40
0.375
 40
0.375
 40
0.375
 40
0.5
 40
0.5
 40
0.5
 40
0.5
 40
0.625
 40
0.625
 40
0.625
 40
0.625
 40
0.75
 40
0.75
 40
0.75
 40
0.75
 40
1.0
 40
1.0
 40
1.0
 40
1.0
 10
-20.0298
 20
-0.4696
 30
0.0
 10
-20.2097
 20
-0.538
 30
0.0
 10
-20.9424
 20
-0.6147
 30
0.0
 10
-21.1321
 20
-1.1761
 30
0.0
 10
-21.1321
 20
-1.1761
 30
0.0
 10
-21.3217
 20
-1.7376
 30
0.0
 10
-21.3407
 20
-2.1724
 30
0.0
 10
-20.7497
 20
-2.1561
 30
0.0
 10
-20.7497
 20
-2.1561
 30
0.0
 10
-18.6719
 20
-1.5065
 30
0.0
 10
-16.6185
 20
-1.1678
 30
0.0
 10
-14.2703
 20
-1.0963
 30
0.0
 10
-14.2703
 20
-1.0963
 30
0.0
 10
-13.9554
 20
-1.1495
 30
0.0
 10
-13.5505
 20
-1.0318
 30
0.0
 10
-13.2355
 20
-1.0849
 30
0.0
 10
-13.2355
 20
-1.0849
 30
0.0
 10
-12.8306
 20
-0.9709
 30
0.0
 10
-12.7406
 20
-0.7961
 30
0.0
 10
-12.9655
 20
-0.5608
 30
0.0
 10
-12.9655
 20
-0.5608
 30
0.0
 10
-13.1905
 20
-0.5227
 30
0.0
 10
-13.438
 20
-0.3594
 30
0.0
 10
-13.6629
 20
-0.3215
 30
0.0
 10
-13.6629
 20
-0.3215
 30
0.0
 10
-15.7928
 20
-0.3291
 30
0.0
 10
-17.9
 20
-0.462
 30
0.0
 10
-20.0298
 20
-0.4696
 30
0.0
  0
SPLINE
  5
B3
330
1F
100
AcDbEntity
  8
Layer 1
 62
   140
100
AcDbSpline
210
0.0
220
0.0
230
1.0
 70
    11
 71
     3
 72
    28
 73
    24
 74
     0
 42
0.000000001
 43
0.0000000001
 40
0.0
 40
0.0
 40
0.0
 40
0.0
 40
0.1428571428571428
 40
0.1428571428571428
 40
0.1428571428571428
 40
0.1428571428571428
 40
0.2857142857142857
 40
0.2857142857142857
 40
0.2857142857142857
 40
0.2857142857142857
 40
0.4285714285714285
 40
0.4285714285714285
 40
0.4285714285714285
 40
0.4285714285714285
 40
0.5714285714285714
 40
0.5714285714285714
 40
0.5714285714285714
 40
0.5714285714285714
 40
0.7142857142857143
 40
0.7142857142857143
 40
0.7142857142857143
 40
0.7142857142857143
 40
1.0
 40
1.0
 40
1.0
 40
1.0
 10
-10.0493
 20
-3.6148
 30
0.0
 10
-10.0118
 20
-4.0516
 30
0.0
 10
-9.8245
 20
-4.1085
 30
0.0
 10
-9.4869
 20
-3.7857
 30
0.0
 10
-9.4869
 20
-3.7857
 30
0.0
 10
-7.9606
 20
-2.7252
 30
0.0
 10
-6.4202
 20
-1.8531
 30
0.0
 10
-4.8636
 20
-1.1875
 30
0.0
 10
-4.8636
 20
-1.1875
 30
0.0
 10
-4.1865
 20
-0.8491
 30
0.0
 10
-4.4049
 20
-0.6707
 30
0.0
 10
-4.7511
 20
-0.5152
 30
0.0
 10
-4.7511
 20
-0.5152
 30
0.0
 10
-5.7786
 20
-0.5076
 30
0.0
 10
-6.8059
 20
-0.5
 30
0.0
 10
-7.8332
 20
-0.4924
 30
0.0
 10
-7.8332
 20
-0.4924
 30
0.0
 10
-8.3919
 20
-0.5303
 30
0.0
 10
-8.8457
 20
-0.8267
 30
0.0
 10
-9.1944
 20
-1.3813
 30
0.0
 10
-9.1944
 20
-1.3813
 30
0.0
 10
-9.4794
 20
-2.1258
 30
0.0
 10
-9.7644
 20
-2.8703
 30
0.0
 10
-10.0493
 20
-3.6148
 30
0.0
  0
SPLINE
  5
B4
330
1F
100
AcDbEntity
  8
Layer 1
 62
   140
100
AcDbSpline
210
0.0
220
0.0
230
1.0
 70
    11
 71
     3
 72
    48
 73
    44
 74
     0
 42
0.000000001
 43
0.0000000001
 40
0.0
 40
0.0
 40
0.0
 40
0.0
 40
0.0833333333333333
 40
0.0833333333333333
 40
0.0833333333333333
 40
0.0833333333333333
 40
0.1666666666666667
 40
0.1666666666666667
 40
0.1666666666666667
 40
0.1666666666666667
 40
0.25
 40
0.25
 40
0.25
 40
0.25
 40
0.3333333333333333
 40
0.3333333333333333
 40
0.3333333333333333
 40
0.3333333333333333
 40
0.4166666666666667
 40
0.4166666666666667
 40
0.4166666666666667
 40
0.4166666666666667
 40
0.5
 40
0.5
 40
0.5
 40
0.5
 40
0.5833333333333334
 40
0.5833333333333334
 40
0.5833333333333334
 40
0.5833333333333334
 40
0.6666666666666666
 40
0.6666666666666666
 40
0.6666666666666666
 40
0.6666666666666666
 40
0.75
 40
0.75
 40
0.75
 40
0.75
 40
0.8333333333333334
 40
0.8333333333333334
 40
0.8333333333333334
 40
0.8333333333333334
 40
1.0
 40
1.0
 40
1.0
 40
1.0
 10
-3.2691
 20
-2.931
 30
0.0
 10
-3.7549
 20
-3.4323
 30
0.0
 10
-3.6012
 20
-3.7666
 30
0.0
 10
-3.1567
 20
-4.025
 30
0.0
 10
-3.1567
 20
-4.025
 30
0.0
 10
-1.5519
 20
-4.9138
 30
0.0
 10
0.0529
 20
-5.8027
 30
0.0
 10
1.6578
 20
-6.6916
 30
0.0
 10
1.6578
 20
-6.6916
 30
0.0
 10
5.3085
 20
-8.7899
 30
0.0
 10
6.3016
 20
-7.3245
 30
0.0
 10
8.0471
 20
-8.4237
 30
0.0
 10
8.0471
 20
-8.4237
 30
0.0
 10
8.6434
 20
-8.7158
 30
0.0
 10
8.9583
 20
-8.4135
 30
0.0
 10
9.1945
 20
-7.9451
 30
0.0
 10
9.1945
 20
-7.9451
 30
0.0
 10
9.5919
 20
-7.3905
 30
0.0
 10
9.9893
 20
-6.8359
 30
0.0
 10
10.3868
 20
-6.2813
 30
0.0
 10
10.3868
 20
-6.2813
 30
0.0
 10
10.653
 20
-5.9252
 30
0.0
 10
10.5629
 20
-5.5509
 30
0.0
 10
10.2293
 20
-5.1645
 30
0.0
 10
10.2293
 20
-5.1645
 30
0.0
 10
9.2919
 20
-3.7287
 30
0.0
 10
8.3545
 20
-2.2929
 30
0.0
 10
7.4171
 20
-0.8571
 30
0.0
 10
7.4171
 20
-0.8571
 30
0.0
 10
7.2597
 20
-0.6216
 30
0.0
 10
6.9972
 20
-0.5381
 30
0.0
 10
6.6297
 20
-0.6064
 30
0.0
 10
6.6297
 20
-0.6064
 30
0.0
 10
4.8899
 20
-0.5304
 30
0.0
 10
3.1501
 20
-0.4544
 30
0.0
 10
1.4103
 20
-0.3784
 30
0.0
 10
1.4103
 20
-0.3784
 30
0.0
 10
0.5731
 20
-0.3713
 30
0.0
 10
-0.2683
 20
-0.3539
 30
0.0
 10
-0.8619
 20
-0.9938
 30
0.0
 10
-0.8619
 20
-0.9938
 30
0.0
 10
-1.6643
 20
-1.6395
 30
0.0
 10
-2.4667
 20
-2.2853
 30
0.0
 10
-3.2691
 20
-2.931
 30
0.0
  0
SPLINE
  5
B5
330
1F
100
AcDbEntity
  8
Layer 1
 62
   140
100
AcDbSpline
210
0.0
220
0.0
230
1.0
 70
    11
 71
     3
 72
    56
 73
    52
 74
     0
 42
0.000000001
 43
0.0000000001
 40
0.0
 40
0.0
 40
0.0
 40
0.0
 40
0.0714285714285714
 40
0.0714285714285714
 40
0.0714285714285714
 40
0.0714285714285714
 40
0.1428571428571428
 40
0.1428571428571428
 40
0.1428571428571428
 40
0.1428571428571428
 40
0.2142857142857143
 40
0.2142857142857143
 40
0.2142857142857143
 40
0.2142857142857143
 40
0.2857142857142857
 40
0.2857142857142857
 40
0.2857142857142857
 40
0.2857142857142857
 40
0.3571428571428572
 40
0.3571428571428572
 40
0.3571428571428572
 40
0.3571428571428572
 40
0.4285714285714285
 40
0.4285714285714285
 40
0.4285714285714285
 40
0.4285714285714285
 40
0.5
 40
0.5
 40
0.5
 40
0.5
 40
0.5714285714285714
 40
0.5714285714285714
 40
0.5714285714285714
 40
0.5714285714285714
 40
0.6428571428571429
 40
0.6428571428571429
 40
0.6428571428571429
 40
0.6428571428571429
 40
0.7142857142857143
 40
0.7142857142857143
 40
0.7142857142857143
 40
0.7142857142857143
 40
0.7857142857142857
 40
0.7857142857142857
 40
0.7857142857142857
 40
0.7857142857142857
 40
0.8571428571428571
 40
0.8571428571428571
 40
0.8571428571428571
 40
0.8571428571428571
 40
1.0
 40
1.0
 40
1.0
 40
1.0
 10
11.9167
 20
-2.6576
 30
0.0
 10
11.131
 20
-2.6423
 30
0.0
 10
10.7674
 20
-2.8928
 30
0.0
 10
11.3317
 20
-3.7287
 30
0.0
 10
11.3317
 20
-3.7287
 30
0.0
 10
12.5479
 20
-4.8141
 30
0.0
 10
13.6024
 20
-6.0086
 30
0.0
 10
14.3689
 20
-7.3981
 30
0.0
 10
14.3689
 20
-7.3981
 30
0.0
 10
14.5459
 20
-7.7324
 30
0.0
 10
14.7687
 20
-7.9604
 30
0.0
 10
15.1563
 20
-7.8083
 30
0.0
 10
15.1563
 20
-7.8083
 30
0.0
 10
16.1461
 20
-7.5868
 30
0.0
 10
17.1359
 20
-7.4036
 30
0.0
 10
18.126
 20
-7.6716
 30
0.0
 10
18.126
 20
-7.6716
 30
0.0
 10
18.516
 20
-7.679
 30
0.0
 10
18.8482
 20
-7.5532
 30
0.0
 10
19.0034
 20
-7.4209
 30
0.0
 10
19.0034
 20
-7.4209
 30
0.0
 10
19.7083
 20
-7.0942
 30
0.0
 10
20.2557
 20
-6.7675
 30
0.0
 10
20.9606
 20
-6.4409
 30
0.0
 10
20.9606
 20
-6.4409
 30
0.0
 10
21.3356
 20
-6.1947
 30
0.0
 10
21.4957
 20
-5.7156
 30
0.0
 10
21.4248
 20
-5.1645
 30
0.0
 10
21.4248
 20
-5.1645
 30
0.0
 10
21.4248
 20
-4.1617
 30
0.0
 10
21.4248
 20
-3.1589
 30
0.0
 10
21.4248
 20
-2.1562
 30
0.0
 10
21.4248
 20
-2.1562
 30
0.0
 10
21.3882
 20
-1.9373
 30
0.0
 10
21.2444
 20
-1.8054
 30
0.0
 10
20.9831
 20
-1.7687
 30
0.0
 10
20.9831
 20
-1.7687
 30
0.0
 10
19.9407
 20
-1.7611
 30
0.0
 10
18.8983
 20
-1.7536
 30
0.0
 10
17.856
 20
-1.7459
 30
0.0
 10
17.856
 20
-1.7459
 30
0.0
 10
16.9746
 20
-1.5579
 30
0.0
 10
16.3072
 20
-1.7669
 30
0.0
 10
15.7862
 20
-2.2473
 30
0.0
 10
15.7862
 20
-2.2473
 30
0.0
 10
15.4419
 20
-2.6845
 30
0.0
 10
14.7081
 20
-2.7549
 30
0.0
 10
13.9414
 20
-2.7943
 30
0.0
 10
13.9414
 20
-2.7943
 30
0.0
 10
13.2664
 20
-2.7487
 30
0.0
 10
12.5915
 20
-2.7031
 30
0.0
 10
11.9167
 20
-2.6576
 30
0.0
  0
SPLINE
  5
B6
330
1F
100
AcDbEntity
  8
Layer 1
 62
   140
100
AcDbSpline
210
0.0
220
0.0
230
1.0
 70
    11
 71
     3
 72
    28
 73
    24
 74
     0
 42
0.000000001
 43
0.0000000001
 40
0.0
 40
0.0
 40
0.0
 40
0.0
 40
0.1428571428571428
 40
0.1428571428571428
 40
0.1428571428571428
 40
0.1428571428571428
 40
0.2857142857142857
 40
0.2857142857142857
 40
0.2857142857142857
 40
0.2857142857142857
 40
0.4285714285714285
 40
0.4285714285714285
 40
0.4285714285714285
 40
0.4285714285714285
 40
0.5714285714285714
 40
0.5714285714285714
 40
0.5714285714285714
 40
0.5714285714285714
 40
0.7142857142857143
 40
0.7142857142857143
 40
0.7142857142857143
 40
0.7142857142857143
 40
1.0
 40
1.0
 40
1.0
 40
1.0
 10
9.6443
 20
-0.6833
 30
0.0
 10
9.6307
 20
-0.8427
 30
0.0
 10
10.0828
 20
-1.0719
 30
0.0
 10
10.1927
 20
-1.0736
 30
0.0
 10
10.1927
 20
-1.0736
 30
0.0
 10
11.6119
 20
-1.0944
 30
0.0
 10
13.0311
 20
-1.1153
 30
0.0
 10
14.4503
 20
-1.1362
 30
0.0
 10
14.4503
 20
-1.1362
 30
0.0
 10
14.5764
 20
-1.072
 30
0.0
 10
14.6672
 20
-1.0007
 30
0.0
 10
14.6809
 20
-0.9141
 30
0.0
 10
14.6809
 20
-0.9141
 30
0.0
 10
14.733
 20
-0.7697
 30
0.0
 10
14.715
 20
-0.5515
 30
0.0
 10
14.6247
 20
-0.407
 30
0.0
 10
14.6247
 20
-0.407
 30
0.0
 10
13.0414
 20
-0.4522
 30
0.0
 10
11.4169
 20
-0.5502
 30
0.0
 10
9.8187
 20
-0.3813
 30
0.0
 10
9.8187
 20
-0.3813
 30
0.0
 10
9.7234
 20
-0.4605
 30
0.0
 10
9.6554
 20
-0.5535
 30
0.0
 10
9.6443
 20
-0.6833
 30
0.0
  0
SPLINE
  5
B7
330
1F
100
AcDbEntity
  8
Layer 1
 62
   140
100
AcDbSpline
210
0.0
220
0.0
230
1.0
 70
    11
 71
     3
 72
    56
 73
    52
 74
     0
 42
0.000000001
 43
0.0000000001
 40
0.0
 40
0.0
 40
0.0
 40
0.0
 40
0.0714285714285714
 40
0.0714285714285714
 40
0.0714285714285714
 40
0.0714285714285714
 40
0.1428571428571428
 40
0.1428571428571428
 40
0.1428571428571428
 40
0.1428571428571428
 40
0.2142857142857143
 40
0.2142857142857143
 40
0.2142857142857143
 40
0.2142857142857143
 40
0.2857142857142857
 40
0.2857142857142857
 40
0.2857142857142857
 40
0.2857142857142857
 40
0.3571428571428572
 40
0.3571428571428572
 40
0.3571428571428572
 40
0.3571428571428572
 40
0.4285714285714285
 40
0.4285714285714285
 40
0.4285714285714285
 40
0.4285714285714285
 40
0.5
 40
0.5
 40
0.5
 40
0.5
 40
0.5714285714285714
 40
0.5714285714285714
 40
0.5714285714285714
 40
0.5714285714285714
 40
0.6428571428571429
 40
0.6428571428571429
 40
0.6428571428571429
 40
0.6428571428571429
 40
0.7142857142857143
 40
0.7142857142857143
 40
0.7142857142857143
 40
0.7142857142857143
 40
0.7857142857142857
 40
0.7857142857142857
 40
0.7857142857142857
 40
0.7857142857142857
 40
0.8571428571428571
 40
0.8571428571428571
 40
0.8571428571428571
 40
0.8571428571428571
 40
1.0
 40
1.0
 40
1.0
 40
1.0
 10
5.9351
 20
-14.4634
 30
0.0
 10
5.5901
 20
-14.8431
 30
0.0
 10
5.6501
 20
-15.0255
 30
0.0
 10
6.1151
 20
-15.0103
 30
0.0
 10
6.1151
 20
-15.0103
 30
0.0
 10
6.5832
 20
-14.8733
 30
0.0
 10
7.0965
 20
-14.759
 30
0.0
 10
7.9261
 20
-14.8052
 30
0.0
 10
7.9261
 20
-14.8052
 30
0.0
 10
8.718
 20
-14.5712
 30
0.0
 10
9.5107
 20
-14.3482
 30
0.0
 10
10.3333
 20
-14.4519
 30
0.0
 10
10.3333
 20
-14.4519
 30
0.0
 10
11.5385
 20
-14.292
 30
0.0
 10
12.7129
 20
-14.4141
 30
0.0
 10
13.8879
 20
-14.5317
 30
0.0
 10
13.8879
 20
-14.5317
 30
0.0
 10
14.3827
 20
-14.5184
 30
0.0
 10
14.6827
 20
-14.3325
 30
0.0
 10
14.6978
 20
-13.8935
 30
0.0
 10
14.6978
 20
-13.8935
 30
0.0
 10
14.619
 20
-13.2478
 30
0.0
 10
14.8702
 20
-12.811
 30
0.0
 10
15.2715
 20
-12.4691
 30
0.0
 10
15.2715
 20
-12.4691
 30
0.0
 10
15.4027
 20
-12.3552
 30
0.0
 10
15.5339
 20
-12.2413
 30
0.0
 10
15.6652
 20
-12.1273
 30
0.0
 10
15.6652
 20
-12.1273
 30
0.0
 10
15.9625
 20
-11.7017
 30
0.0
 10
15.8383
 20
-11.3296
 30
0.0
 10
15.654
 20
-10.9649
 30
0.0
 10
15.654
 20
-10.9649
 30
0.0
 10
15.4665
 20
-10.589
 30
0.0
 10
15.174
 20
-10.3041
 30
0.0
 10
14.7766
 20
-10.1102
 30
0.0
 10
14.7766
 20
-10.1102
 30
0.0
 10
14.252
 20
-9.8687
 30
0.0
 10
13.9078
 20
-10.0646
 30
0.0
 10
13.5392
 20
-10.2014
 30
0.0
 10
13.5392
 20
-10.2014
 30
0.0
 10
12.8379
 20
-10.8047
 30
0.0
 10
12.0917
 20
-11.3818
 30
0.0
 10
10.817
 20
-11.6486
 30
0.0
 10
10.817
 20
-11.6486
 30
0.0
 10
9.155
 20
-12.2632
 30
0.0
 10
7.6983
 20
-13.0855
 30
0.0
 10
6.3963
 20
-14.0645
 30
0.0
 10
6.3963
 20
-14.0645
 30
0.0
 10
6.2425
 20
-14.1975
 30
0.0
 10
6.0888
 20
-14.3304
 30
0.0
 10
5.9351
 20
-14.4634
 30
0.0
  0
SPLINE
  5
B8
330
1F
100
AcDbEntity
  8
Layer 1
 62
   140
100
AcDbSpline
210
0.0
220
0.0
230
1.0
 70
    11
 71
     3
 72
    28
 73
    24
 74
     0
 42
0.000000001
 43
0.0000000001
 40
0.0
 40
0.0
 40
0.0
 40
0.0
 40
0.1428571428571428
 40
0.1428571428571428
 40
0.1428571428571428
 40
0.1428571428571428
 40
0.2857142857142857
 40
0.2857142857142857
 40
0.2857142857142857
 40
0.2857142857142857
 40
0.4285714285714285
 40
0.4285714285714285
 40
0.4285714285714285
 40
0.4285714285714285
 40
0.5714285714285714
 40
0.5714285714285714
 40
0.5714285714285714
 40
0.5714285714285714
 40
0.7142857142857143
 40
0.7142857142857143
 40
0.7142857142857143
 40
0.7142857142857143
 40
1.0
 40
1.0
 40
1.0
 40
1.0
 10
16.0982
 20
-9.4664
 30
0.0
 10
16.1467
 20
-9.7363
 30
0.0
 10
16.3004
 20
-9.8862
 30
0.0
 10
16.4695
 20
-10.019
 30
0.0
 10
16.4695
 20
-10.019
 30
0.0
 10
16.8443
 20
-10.2174
 30
0.0
 10
17.1574
 20
-10.2592
 30
0.0
 10
17.4425
 20
-10.2299
 30
0.0
 10
17.4425
 20
-10.2299
 30
0.0
 10
17.6264
 20
-10.2168
 30
0.0
 10
17.7879
 20
-10.1695
 30
0.0
 10
17.9045
 20
-10.0767
 30
0.0
 10
17.9045
 20
-10.0767
 30
0.0
 10
18.2577
 20
-9.7953
 30
0.0
 10
18.1906
 20
-9.1878
 30
0.0
 10
17.853
 20
-8.9251
 30
0.0
 10
17.853
 20
-8.9251
 30
0.0
 10
17.4087
 20
-8.8202
 30
0.0
 10
16.9642
 20
-8.8118
 30
0.0
 10
16.5201
 20
-8.9194
 30
0.0
 10
16.5201
 20
-8.9194
 30
0.0
 10
16.2518
 20
-8.9499
 30
0.0
 10
16.1112
 20
-9.1323
 30
0.0
 10
16.0982
 20
-9.4664
 30
0.0
  0
SPLINE
  5
B9
330
1F
100
AcDbEntity
  8
Layer 1
 62
   140
100
AcDbSpline
210
0.0
220
0.0
230
1.0
 70
    11
 71
     3
 72
    28
 73
    24
 74
     0
 42
0.000000001
 43
0.0000000001
 40
0.0
 40
0.0
 40
0.0
 40
0.0
 40
0.1428571428571428
 40
0.1428571428571428
 40
0.1428571428571428
 40
0.1428571428571428
 40
0.2857142857142857
 40
0.2857142857142857
 40
0.2857142857142857
 40
0.2857142857142857
 40
0.4285714285714285
 40
0.4285714285714285
 40
0.4285714285714285
 40
0.4285714285714285
 40
0.5714285714285714
 40
0.5714285714285714
 40
0.5714285714285714
 40
0.5714285714285714
 40
0.7142857142857143
 40
0.7142857142857143
 40
0.7142857142857143
 40
0.7142857142857143
 40
1.0
 40
1.0
 40
1.0
 40
1.0
 10
16.3064
 20
-13.7226
 30
0.0
 10
16.2838
 20
-13.905
 30
0.0
 10
15.8199
 20
-15.3299
 30
0.0
 10
17.06
 20
-15.3066
 30
0.0
 10
17.06
 20
-15.3066
 30
0.0
 10
18.3002
 20
-15.2832
 30
0.0
 10
19.4943
 20
-15.3298
 30
0.0
 10
20.6146
 20
-15.489
 30
0.0
 10
20.6146
 20
-15.489
 30
0.0
 10
21.1236
 20
-15.4652
 30
0.0
 10
21.3656
 20
-15.2429
 30
0.0
 10
21.4248
 20
-14.885
 30
0.0
 10
21.4248
 20
-14.885
 30
0.0
 10
21.4248
 20
-13.4606
 30
0.0
 10
21.4248
 20
-12.0362
 30
0.0
 10
21.4248
 20
-10.6117
 30
0.0
 10
21.4248
 20
-10.6117
 30
0.0
 10
21.5296
 20
-9.4912
 30
0.0
 10
21.0645
 20
-9.176
 30
0.0
 10
20.0297
 20
-9.6658
 30
0.0
 10
20.0297
 20
-9.6658
 30
0.0
 10
18.8825
 20
-11.0539
 30
0.0
 10
17.6938
 20
-12.4262
 30
0.0
 10
16.3064
 20
-13.7226
 30
0.0
  0
SPLINE
  5
BA
330
1F
100
AcDbEntity
  8
Layer 1
 62
   140
100
AcDbSpline
210
0.0
220
0.0
230
1.0
 70
    11
 71
     3
 72
    32
 73
    28
 74
     0
 42
0.000000001
 43
0.0000000001
 40
0.0
 40
0.0
 40
0.0
 40
0.0
 40
0.125
 40
0.125
 40
0.125
 40
0.125
 40
0.25
 40
0.25
 40
0.25
 40
0.25
 40
0.375
 40
0.375
 40
0.375
 40
0.375
 40
0.5
 40
0.5
 40
0.5
 40
0.5
 40
0.625
 40
0.625
 40
0.625
 40
0.625
 40
0.75
 40
0.75
 40
0.75
 40
0.75
 40
1.0
 40
1.0
 40
1.0
 40
1.0
 10
1.5903
 20
-14.6457
 30
0.0
 10
1.9051
 20
-15.1167
 30
0.0
 10
2.2201
 20
-15.1623
 30
0.0
 10
2.5352
 20
-14.7824
 30
0.0
 10
2.5352
 20
-14.7824
 30
0.0
 10
4.035
 20
-13.6277
 30
0.0
 10
5.5348
 20
-12.4729
 30
0.0
 10
7.0347
 20
-11.3181
 30
0.0
 10
7.0347
 20
-11.3181
 30
0.0
 10
7.3278
 20
-11.1058
 30
0.0
 10
7.5533
 20
-10.8631
 30
0.0
 10
7.3046
 20
-10.4066
 30
0.0
 10
7.3046
 20
-10.4066
 30
0.0
 10
6.8359
 20
-9.9508
 30
0.0
 10
6.1609
 20
-9.7457
 30
0.0
 10
5.3924
 20
-9.6544
 30
0.0
 10
5.3924
 20
-9.6544
 30
0.0
 10
3.9226
 20
-9.2441
 30
0.0
 10
2.4527
 20
-8.8339
 30
0.0
 10
0.9829
 20
-8.4237
 30
0.0
 10
0.9829
 20
-8.4237
 30
0.0
 10
0.337
 20
-8.3387
 30
0.0
 10
-0.2186
 20
-8.3759
 30
0.0
 10
-0.142
 20
-9.267
 30
0.0
 10
-0.142
 20
-9.267
 30
0.0
 10
0.5484
 20
-10.9683
 30
0.0
 10
1.2014
 20
-12.7005
 30
0.0
 10
1.5903
 20
-14.6457
 30
0.0
  0
SPLINE
  5
BB
330
1F
100
AcDbEntity
  8
Layer 1
 62
   140
100
AcDbSpline
210
0.0
220
0.0
230
1.0
 70
    11
 71
     3
 72
    32
 73
    28
 74
     0
 42
0.000000001
 43
0.0000000001
 40
0.0
 40
0.0
 40
0.0
 40
0.0
 40
0.125
 40
0.125
 40
0.125
 40
0.125
 40
0.25
 40
0.25
 40
0.25
 40
0.25
 40
0.375
 40
0.375
 40
0.375
 40
0.375
 40
0.5
 40
0.5
 40
0.5
 40
0.5
 40
0.625
 40
0.625
 40
0.625
 40
0.625
 40
0.75
 40
0.75
 40
0.75
 40
0.75
 40
1.0
 40
1.0
 40
1.0
 40
1.0
 10
-12.5156
 20
-16.469
 30
0.0
 10
-12.5456
 20
-16.8943
 30
0.0
 10
-12.4107
 20
-17.1829
 30
0.0
 10
-12.1107
 20
-17.335
 30
0.0
 10
-12.1107
 20
-17.335
 30
0.0
 10
-11.1569
 20
-17.691
 30
0.0
 10
-10.3798
 20
-17.7993
 30
0.0
 10
-9.8159
 20
-17.6085
 30
0.0
 10
-9.8159
 20
-17.6085
 30
0.0
 10
-9.2985
 20
-17.4034
 30
0.0
 10
-9.096
 20
-17.0463
 30
0.0
 10
-9.2084
 20
-16.5373
 30
0.0
 10
-9.2084
 20
-16.5373
 30
0.0
 10
-9.4391
 20
-16.279
 30
0.0
 10
-9.7729
 20
-16.1043
 30
0.0
 10
-10.1534
 20
-15.9675
 30
0.0
 10
-10.1534
 20
-15.9675
 30
0.0
 10
-10.6035
 20
-15.8916
 30
0.0
 10
-11.0534
 20
-15.6714
 30
0.0
 10
-11.5032
 20
-15.3522
 30
0.0
 10
-11.5032
 20
-15.3522
 30
0.0
 10
-11.7319
 20
-15.1679
 30
0.0
 10
-11.9421
 20
-15.0883
 30
0.0
 10
-12.1107
 20
-15.2382
 30
0.0
 10
-12.1107
 20
-15.2382
 30
0.0
 10
-12.122
 20
-15.6486
 30
0.0
 10
-12.2645
 20
-16.0588
 30
0.0
 10
-12.5156
 20
-16.469
 30
0.0
  0
SPLINE
  5
BC
330
1F
100
AcDbEntity
  8
Layer 1
 62
   140
100
AcDbSpline
210
0.0
220
0.0
230
1.0
 70
    11
 71
     3
 72
    20
 73
    16
 74
     0
 42
0.000000001
 43
0.0000000001
 40
0.0
 40
0.0
 40
0.0
 40
0.0
 40
0.2
 40
0.2
 40
0.2
 40
0.2
 40
0.4
 40
0.4
 40
0.4
 40
0.4
 40
0.6
 40
0.6
 40
0.6
 40
0.6
 40
1.0
 40
1.0
 40
1.0
 40
1.0
 10
-22.4766
 20
43.3143
 30
0.0
 10
-22.4766
 20
43.3143
 30
0.0
 10
22.4766
 20
43.3143
 30
0.0
 10
22.4766
 20
43.3143
 30
0.0
 10
22.4766
 20
43.3143
 30
0.0
 10
22.4766
 20
43.3143
 30
0.0
 10
22.4766
 20
-43.3143
 30
0.0
 10
22.4766
 20
-43.3143
 30
0.0
 10
22.4766
 20
-43.3143
 30
0.0
 10
22.4766
 20
-43.3143
 30
0.0
 10
-22.4766
 20
-43.3143
 30
0.0
 10
-22.4766
 20
-43.3143
 30
0.0
 10
-22.4766
 20
-43.3143
 30
0.0
 10
-22.4766
 20
-43.3143
 30
0.0
 10
-22.4766
 20
43.3143
 30
0.0
 10
-22.4766
 20
43.3143
 30
0.0
  0
ENDSEC
  0
SECTION
  2
OBJECTS
  0
DICTIONARY
  5
C
330
0
100
AcDbDictionary
281
     1
  3
ACAD_DETAILVIEWSTYLE
350
102
  3
ACAD_GROUP
350
D
  3
ACAD_LAYOUT
350
1A
  3
ACAD_MATERIAL
350
43
  3
ACAD_MLEADERSTYLE
350
6B
  3
ACAD_MLINESTYLE
350
17
  3
ACAD_PLOTSETTINGS
350
19
  3
ACAD_PLOTSTYLENAME
350
E
  3
ACAD_SCALELIST
350
47
  3
ACAD_SECTIONVIEWSTYLE
350
103
  3
ACAD_TABLESTYLE
350
69
  3
ACAD_VISUALSTYLE
350
2A
  3
ACDB_RECOMPOSE_DATA
350
FF
  3
AcDbVariableDictionary
350
BF
  0
DICTIONARY
  5
BD
330
8
100
AcDbDictionary
280
     1
281
     1
  3
ACAD_XREC_ROUNDTRIP
360
BE
  0
DICTIONARY
  5
102
102
{ACAD_REACTORS
330
C
102
}
330
C
100
AcDbDictionary
281
     1
  0
DICTIONARY
  5
D
102
{ACAD_REACTORS
330
C
102
}
330
C
100
AcDbDictionary
281
     1
  0
DICTIONARY
  5
1A
102
{ACAD_REACTORS
330
C
102
}
330
C
100
AcDbDictionary
281
     1
  3
Layout1
350
1E
  3
Layout2
350
26
  3
Model
350
22
  0
DICTIONARY
  5
43
102
{ACAD_REACTORS
330
C
102
}
330
C
100
AcDbDictionary
281
     1
  3
ByBlock
350
45
  3
ByLayer
350
44
  3
Global
350
46
  0
DICTIONARY
  5
6B
102
{ACAD_REACTORS
330
C
102
}
330
C
100
AcDbDictionary
281
     1
  3
Standard
350
6C
  0
DICTIONARY
  5
17
102
{ACAD_REACTORS
330
C
102
}
330
C
100
AcDbDictionary
281
     1
  3
Standard
350
18
  0
DICTIONARY
  5
19
102
{ACAD_REACTORS
330
C
102
}
330
C
100
AcDbDictionary
281
     1
  0
ACDBDICTIONARYWDFLT
  5
E
102
{ACAD_REACTORS
330
C
102
}
330
C
100
AcDbDictionary
281
     1
  3
Normal
350
F
100
AcDbDictionaryWithDefault
340
F
  0
DICTIONARY
  5
47
102
{ACAD_REACTORS
330
C
102
}
330
C
100
AcDbDictionary
281
     1
  3
A0
350
48
  3
A1
350
49
  3
A2
350
4A
  3
A3
350
4B
  3
A4
350
4C
  3
A5
350
4D
  3
A6
350
4E
  3
A7
350
4F
  3
A8
350
50
  3
A9
350
51
  3
B0
350
52
  3
B1
350
53
  3
B2
350
54
  3
B3
350
55
  3
B4
350
56
  3
B5
350
57
  3
B6
350
58
  3
B7
350
59
  3
B8
350
5A
  3
B9
350
5B
  3
C0
350
5C
  3
C1
350
5D
  3
C2
350
5E
  3
C3
350
5F
  3
C4
350
60
  3
C5
350
61
  3
C6
350
62
  3
C7
350
63
  3
C8
350
64
  3
C9
350
65
  3
D0
350
66
  3
D1
350
67
  3
D2
350
68
  0
DICTIONARY
  5
103
102
{ACAD_REACTORS
330
C
102
}
330
C
100
AcDbDictionary
281
     1
  0
DICTIONARY
  5
69
102
{ACAD_REACTORS
330
C
102
}
330
C
100
AcDbDictionary
281
     1
  3
Standard
350
6A
  0
DICTIONARY
  5
2A
102
{ACAD_REACTORS
330
C
102
}
330
C
100
AcDbDictionary
281
     1
  3
2dWireframe
350
2F
  3
Basic
350
32
  3
Brighten
350
36
  3
ColorChange
350
3A
  3
Conceptual
350
34
  3
Dim
350
35
  3
EdgeColorOff
350
3D
  3
Facepattern
350
39
  3
Flat
350
2B
  3
FlatWithEdges
350
2C
  3
Gouraud
350
2D
  3
GouraudWithEdges
350
2E
  3
Hidden
350
31
  3
JitterOff
350
3B
  3
Linepattern
350
38
  3
OverhangOff
350
3C
  3
Realistic
350
33
  3
Shaded
350
42
  3
Shaded with edges
350
41
  3
Shades of Gray
350
3E
  3
Sketchy
350
3F
  3
Thicken
350
37
  3
Wireframe
350
30
  3
X-Ray
350
40
  0
XRECORD
  5
FF
102
{ACAD_REACTORS
330
C
102
}
330
C
100
AcDbXrecord
280
     1
 90
        1
330
6A
  0
DICTIONARY
  5
BF
102
{ACAD_REACTORS
330
C
102
}
330
C
100
AcDbDictionary
281
     1
  3
CANNOSCALE
350
C0
  3
CMLEADERSTYLE
350
101
  3
CTABLESTYLE
350
100
  3
MSLTSCALE
350
C1
  3
XCLIPFRAME
350
C2
  0
XRECORD
  5
BE
102
{ACAD_REACTORS
330
BD
102
}
330
BD
100
AcDbXrecord
280
     1
102
VTR_0.000_0.000_1.000_1.000_GRIDDISPLAY
 70
     3
102
VTR_0.000_0.000_1.000_1.000_GRIDMAJOR
 70
     5
102
VTR_0.000_0.000_1.000_1.000_DEFAULTLIGHTING
280
     1
102
VTR_0.000_0.000_1.000_1.000_DEFAULTLIGHTINGTYPE
 70
     1
102
VTR_0.000_0.000_1.000_1.000_BRIGHTNESS
141
0.0
102
VTR_0.000_0.000_1.000_1.000_CONTRAST
142
0.0
  0
LAYOUT
  5
1E
102
{ACAD_REACTORS
330
1A
102
}
330
1A
100
AcDbPlotSettings
  1

  2
none_device
  4

  6

 40
0.0
 41
0.0
 42
0.0
 43
0.0
 44
0.0
 45
0.0
 46
0.0
 47
0.0
 48
0.0
 49
0.0
140
0.0
141
0.0
142
1.0
143
1.0
 70
   688
 72
     0
 73
     0
 74
     5
  7

 75
    16
 76
     0
 77
     2
 78
   300
147
1.0
148
0.0
149
0.0
100
AcDbLayout
  1
Layout1
 70
     1
 71
     1
 10
0.0
 20
0.0
 11
12.0
 21
9.0
 12
0.0
 22
0.0
 32
0.0
 14
1.000000000000000E+20
 24
1.000000000000000E+20
 34
1.000000000000000E+20
 15
-1.000000000000000E+20
 25
-1.000000000000000E+20
 35
-1.000000000000000E+20
146
0.0
 13
0.0
 23
0.0
 33
0.0
 16
1.0
 26
0.0
 36
0.0
 17
0.0
 27
1.0
 37
0.0
 76
     0
330
1B
  0
LAYOUT
  5
26
102
{ACAD_REACTORS
330
1A
102
}
330
1A
100
AcDbPlotSettings
  1

  2
none_device
  4

  6

 40
0.0
 41
0.0
 42
0.0
 43
0.0
 44
0.0
 45
0.0
 46
0.0
 47
0.0
 48
0.0
 49
0.0
140
0.0
141
0.0
142
1.0
143
1.0
 70
   688
 72
     0
 73
     0
 74
     5
  7

 75
    16
 76
     0
 77
     2
 78
   300
147
1.0
148
0.0
149
0.0
100
AcDbLayout
  1
Layout2
 70
     1
 71
     2
 10
0.0
 20
0.0
 11
0.0
 21
0.0
 12
0.0
 22
0.0
 32
0.0
 14
0.0
 24
0.0
 34
0.0
 15
0.0
 25
0.0
 35
0.0
146
0.0
 13
0.0
 23
0.0
 33
0.0
 16
1.0
 26
0.0
 36
0.0
 17
0.0
 27
1.0
 37
0.0
 76
     0
330
23
  0
LAYOUT
  5
22
102
{ACAD_REACTORS
330
1A
102
}
330
1A
100
AcDbPlotSettings
  1

  2
none_device
  4
Letter_(8.50_x_11.00_Inches)
  6

 40
6.35
 41
6.35
 42
6.35000508
 43
6.35000508
 44
215.9
 45
279.4
 46
0.0
 47
0.0
 48
0.0
 49
0.0
140
0.0
141
0.0
142
1.0
143
1.0
 70
  1712
 72
     0
 73
     0
 74
     0
  7

 75
     0
 76
     0
 77
     2
 78
   300
147
1.0
148
0.0
149
0.0
100
AcDbLayout
  1
Model
 70
     1
 71
     0
 10
0.0
 20
0.0
 11
12.0
 21
9.0
 12
0.0
 22
0.0
 32
0.0
 14
-22.4766
 24
-43.3143
 34
0.0
 15
22.4766
 25
43.3143
 35
0.0
146
0.0
 13
0.0
 23
0.0
 33
0.0
 16
1.0
 26
0.0
 36
0.0
 17
0.0
 27
1.0
 37
0.0
 76
     0
330
1F
331
29
  0
MATERIAL
  5
45
102
{ACAD_REACTORS
330
43
102
}
102
{ACAD_XDICTIONARY
360
F5
102
}
330
43
100
AcDbMaterial
  1
ByBlock
  0
MATERIAL
  5
44
102
{ACAD_REACTORS
330
43
102
}
102
{ACAD_XDICTIONARY
360
F3
102
}
330
43
100
AcDbMaterial
  1
ByLayer
  0
MATERIAL
  5
46
102
{ACAD_REACTORS
330
43
102
}
102
{ACAD_XDICTIONARY
360
F7
102
}
330
43
100
AcDbMaterial
  1
Global
  0
MLEADERSTYLE
  5
6C
102
{ACAD_REACTORS
330
6B
102
}
102
{ACAD_XDICTIONARY
360
FD
102
}
330
6B
100
AcDbMLeaderStyle
170
     2
171
     1
172
     0
 90
        2
 40
0.0
 41
0.0
173
     1
 91
-1056964608
340
14
 92
       -2
290
     1
 42
0.09
291
     1
 43
0.36
  3
Standard
341
0
 44
0.18
300

342
11
174
     1
178
     6
175
     1
176
     0
 93
-1056964608
 45
0.18
292
     0
297
     0
 46
0.18
343
0
 94
-1056964608
 47
1.0
 49
1.0
140
1.0
293
     1
141
0.0
294
     1
177
     0
142
1.0
295
     0
296
     0
143
0.125
1001
ACAD_MLEADERVER
1070
     2
  0
MLINESTYLE
  5
18
102
{ACAD_REACTORS
330
17
102
}
330
17
100
AcDbMlineStyle
  2
Standard
 70
     0
  3

 62
   256
 51
90.0
 52
90.0
 71
     2
 49
0.5
 62
   256
  6
BYLAYER
 49
-0.5
 62
   256
  6
BYLAYER
  0
ACDBPLACEHOLDER
  5
F
102
{ACAD_REACTORS
330
E
102
}
330
E
  0
SCALE
  5
48
102
{ACAD_REACTORS
330
47
102
}
330
47
100
AcDbScale
 70
     0
300
1:1
140
1.0
141
1.0
290
     1
  0
SCALE
  5
49
102
{ACAD_REACTORS
330
47
102
}
330
47
100
AcDbScale
 70
     0
300
1:2
140
1.0
141
2.0
290
     0
  0
SCALE
  5
4A
102
{ACAD_REACTORS
330
47
102
}
330
47
100
AcDbScale
 70
     0
300
1:4
140
1.0
141
4.0
290
     0
  0
SCALE
  5
4B
102
{ACAD_REACTORS
330
47
102
}
330
47
100
AcDbScale
 70
     0
300
1:5
140
1.0
141
5.0
290
     0
  0
SCALE
  5
4C
102
{ACAD_REACTORS
330
47
102
}
330
47
100
AcDbScale
 70
     0
300
1:8
140
1.0
141
8.0
290
     0
  0
SCALE
  5
4D
102
{ACAD_REACTORS
330
47
102
}
330
47
100
AcDbScale
 70
     0
300
1:10
140
1.0
141
10.0
290
     0
  0
SCALE
  5
4E
102
{ACAD_REACTORS
330
47
102
}
330
47
100
AcDbScale
 70
     0
300
1:16
140
1.0
141
16.0
290
     0
  0
SCALE
  5
4F
102
{ACAD_REACTORS
330
47
102
}
330
47
100
AcDbScale
 70
     0
300
1:20
140
1.0
141
20.0
290
     0
  0
SCALE
  5
50
102
{ACAD_REACTORS
330
47
102
}
330
47
100
AcDbScale
 70
     0
300
1:30
140
1.0
141
30.0
290
     0
  0
SCALE
  5
51
102
{ACAD_REACTORS
330
47
102
}
330
47
100
AcDbScale
 70
     0
300
1:40
140
1.0
141
40.0
290
     0
  0
SCALE
  5
52
102
{ACAD_REACTORS
330
47
102
}
330
47
100
AcDbScale
 70
     0
300
1:50
140
1.0
141
50.0
290
     0
  0
SCALE
  5
53
102
{ACAD_REACTORS
330
47
102
}
330
47
100
AcDbScale
 70
     0
300
1:100
140
1.0
141
100.0
290
     0
  0
SCALE
  5
54
102
{ACAD_REACTORS
330
47
102
}
330
47
100
AcDbScale
 70
     0
300
2:1
140
2.0
141
1.0
290
     0
  0
SCALE
  5
55
102
{ACAD_REACTORS
330
47
102
}
330
47
100
AcDbScale
 70
     0
300
4:1
140
4.0
141
1.0
290
     0
  0
SCALE
  5
56
102
{ACAD_REACTORS
330
47
102
}
330
47
100
AcDbScale
 70
     0
300
8:1
140
8.0
141
1.0
290
     0
  0
SCALE
  5
57
102
{ACAD_REACTORS
330
47
102
}
330
47
100
AcDbScale
 70
     0
300
10:1
140
10.0
141
1.0
290
     0
  0
SCALE
  5
58
102
{ACAD_REACTORS
330
47
102
}
330
47
100
AcDbScale
 70
     0
300
100:1
140
100.0
141
1.0
290
     0
  0
SCALE
  5
59
102
{ACAD_REACTORS
330
47
102
}
330
47
100
AcDbScale
 70
     0
300
1/128" = 1'-0"
140
0.0078125
141
12.0
290
     0
  0
SCALE
  5
5A
102
{ACAD_REACTORS
330
47
102
}
330
47
100
AcDbScale
 70
     0
300
1/64" = 1'-0"
140
0.015625
141
12.0
290
     0
  0
SCALE
  5
5B
102
{ACAD_REACTORS
330
47
102
}
330
47
100
AcDbScale
 70
     0
300
1/32" = 1'-0"
140
0.03125
141
12.0
290
     0
  0
SCALE
  5
5C
102
{ACAD_REACTORS
330
47
102
}
330
47
100
AcDbScale
 70
     0
300
1/16" = 1'-0"
140
0.0625
141
12.0
290
     0
  0
SCALE
  5
5D
102
{ACAD_REACTORS
330
47
102
}
330
47
100
AcDbScale
 70
     0
300
3/32" = 1'-0"
140
0.09375
141
12.0
290
     0
  0
SCALE
  5
5E
102
{ACAD_REACTORS
330
47
102
}
330
47
100
AcDbScale
 70
     0
300
1/8" = 1'-0"
140
0.125
141
12.0
290
     0
  0
SCALE
  5
5F
102
{ACAD_REACTORS
330
47
102
}
330
47
100
AcDbScale
 70
     0
300
3/16" = 1'-0"
140
0.1875
141
12.0
290
     0
  0
SCALE
  5
60
102
{ACAD_REACTORS
330
47
102
}
330
47
100
AcDbScale
 70
     0
300
1/4" = 1'-0"
140
0.25
141
12.0
290
     0
  0
SCALE
  5
61
102
{ACAD_REACTORS
330
47
102
}
330
47
100
AcDbScale
 70
     0
300
3/8" = 1'-0"
140
0.375
141
12.0
290
     0
  0
SCALE
  5
62
102
{ACAD_REACTORS
330
47
102
}
330
47
100
AcDbScale
 70
     0
300
1/2" = 1'-0"
140
0.5
141
12.0
290
     0
  0
SCALE
  5
63
102
{ACAD_REACTORS
330
47
102
}
330
47
100
AcDbScale
 70
     0
300
3/4" = 1'-0"
140
0.75
141
12.0
290
     0
  0
SCALE
  5
64
102
{ACAD_REACTORS
330
47
102
}
330
47
100
AcDbScale
 70
     0
300
1" = 1'-0"
140
1.0
141
12.0
290
     0
  0
SCALE
  5
65
102
{ACAD_REACTORS
330
47
102
}
330
47
100
AcDbScale
 70
     0
300
1-1/2" = 1'-0"
140
1.5
141
12.0
290
     0
  0
SCALE
  5
66
102
{ACAD_REACTORS
330
47
102
}
330
47
100
AcDbScale
 70
     0
300
3" = 1'-0"
140
3.0
141
12.0
290
     0
  0
SCALE
  5
67
102
{ACAD_REACTORS
330
47
102
}
330
47
100
AcDbScale
 70
     0
300
6" = 1'-0"
140
6.0
141
12.0
290
     0
  0
SCALE
  5
68
102
{ACAD_REACTORS
330
47
102
}
330
47
100
AcDbScale
 70
     0
300
1'-0" = 1'-0"
140
12.0
141
12.0
290
     0
  0
TABLESTYLE
  5
6A
102
{ACAD_REACTORS
330
69
102
}
102
{ACAD_XDICTIONARY
360
F9
102
}
330
69
100
AcDbTableStyle
  3
Standard
 70
     0
 71
     0
 40
0.06
 41
0.06
280
     0
281
     0
  7
Standard
140
0.18
170
     2
 62
     0
 63
   257
283
     0
274
    -2
284
     1
 64
     0
275
    -2
285
     1
 65
     0
276
    -2
286
     1
 66
     0
277
    -2
287
     1
 67
     0
278
    -2
288
     1
 68
     0
279
    -2
289
     1
 69
     0
  7
Standard
140
0.25
170
     5
 62
     0
 63
   257
283
     0
274
    -2
284
     1
 64
     0
275
    -2
285
     1
 65
     0
276
    -2
286
     1
 66
     0
277
    -2
287
     1
 67
     0
278
    -2
288
     1
 68
     0
279
    -2
289
     1
 69
     0
  7
Standard
140
0.18
170
     5
 62
     0
 63
   257
283
     0
274
    -2
284
     1
 64
     0
275
    -2
285
     1
 65
     0
276
    -2
286
     1
 66
     0
277
    -2
287
     1
 67
     0
278
    -2
288
     1
 68
     0
279
    -2
289
     1
 69
     0
  0
VISUALSTYLE
  5
2F
102
{ACAD_REACTORS
330
2A
102
}
102
{ACAD_XDICTIONARY
360
CB
102
}
330
2A
100
AcDbVisualStyle
  2
2dWireframe
 70
     4
 71
     0
 72
     2
 73
     0
 90
        0
 40
0.6
 41
30.0
 62
     5
 63
     7
421
 16777215
 74
     1
 91
        4
 64
     7
 65
   257
 75
     1
175
     1
 42
1.0
 92
        0
 66
   257
 43
1.0
 76
     1
 77
     6
 78
     2
 67
     7
 79
     5
170
     0
171
     0
290
     0
174
     0
 93
        1
 44
0.0
173
     0
291
     0
 45
0.0
1001
ACAD
1000
AcDbSavedByObjectVersion
1070
     0
  0
VISUALSTYLE
  5
32
102
{ACAD_REACTORS
330
2A
102
}
102
{ACAD_XDICTIONARY
360
D1
102
}
330
2A
100
AcDbVisualStyle
  2
Basic
 70
     7
 71
     1
 72
     0
 73
     1
 90
        0
 40
0.6
 41
30.0
 62
     5
 63
     7
421
 16777215
 74
     0
 91
        4
 64
     7
 65
   257
 75
     1
175
     1
 42
1.0
 92
        8
 66
     7
 43
1.0
 76
     1
 77
     6
 78
     2
 67
     7
 79
     5
170
     0
171
     0
290
     0
174
     0
 93
        1
 44
0.0
173
     0
291
     1
 45
0.0
1001
ACAD
1000
AcDbSavedByObjectVersion
1070
     0
  0
VISUALSTYLE
  5
36
102
{ACAD_REACTORS
330
2A
102
}
102
{ACAD_XDICTIONARY
360
D9
102
}
330
2A
100
AcDbVisualStyle
  2
Brighten
 70
    12
 71
     2
 72
     2
 73
     0
 90
        0
 40
0.6
 41
30.0
 62
     5
 63
     7
421
 16777215
 74
     1
 91
        4
 64
     7
 65
   257
 75
     1
175
     1
 42
1.0
 92
        8
 66
     7
 43
1.0
 76
     1
 77
     6
 78
     2
 67
     7
 79
     5
170
     0
171
     0
290
     0
174
     0
 93
        1
 44
50.0
173
     0
291
     1
 45
0.0
1001
ACAD
1000
AcDbSavedByObjectVersion
1070
     0
  0
VISUALSTYLE
  5
3A
102
{ACAD_REACTORS
330
2A
102
}
102
{ACAD_XDICTIONARY
360
E1
102
}
330
2A
100
AcDbVisualStyle
  2
ColorChange
 70
    16
 71
     2
 72
     2
 73
     3
 90
        0
 40
0.6
 41
30.0
 62
     5
 63
     8
421
  8421504
 74
     1
 91
        4
 64
     7
 65
   257
 75
     1
175
     1
 42
1.0
 92
        8
 66
     8
424
  8421504
 43
1.0
 76
     1
 77
     6
 78
     2
 67
     7
 79
     5
170
     0
171
     0
290
     0
174
     0
 93
        1
 44
0.0
173
     0
291
     1
 45
0.0
1001
ACAD
1000
AcDbSavedByObjectVersion
1070
     0
  0
VISUALSTYLE
  5
34
102
{ACAD_REACTORS
330
2A
102
}
102
{ACAD_XDICTIONARY
360
D5
102
}
330
2A
100
AcDbVisualStyle
  2
Conceptual
 70
     9
 71
     3
 72
     2
 73
     0
 90
        0
 40
0.6
 41
30.0
 62
     5
 63
     7
421
 16777215
 74
     2
 91
        2
 64
     7
 65
   257
 75
     1
175
     1
 42
179.0
 92
        8
 66
     7
 43
1.0
 76
     1
 77
     6
 78
     2
 67
     7
 79
     3
170
     0
171
     0
290
     0
174
     0
 93
        1
 44
0.0
173
     0
291
     0
 45
0.0
1001
ACAD
1000
AcDbSavedByObjectVersion
1070
     0
  0
VISUALSTYLE
  5
35
102
{ACAD_REACTORS
330
2A
102
}
102
{ACAD_XDICTIONARY
360
D7
102
}
330
2A
100
AcDbVisualStyle
  2
Dim
 70
    11
 71
     2
 72
     2
 73
     0
 90
        0
 40
0.6
 41
30.0
 62
     5
 63
     7
421
 16777215
 74
     1
 91
        4
 64
     7
 65
   257
 75
     1
175
     1
 42
1.0
 92
        8
 66
     7
 43
1.0
 76
     1
 77
     6
 78
     2
 67
     7
 79
     5
170
     0
171
     0
290
     0
174
     0
 93
        1
 44
-50.0
173
     0
291
     1
 45
0.0
1001
ACAD
1000
AcDbSavedByObjectVersion
1070
     0
  0
VISUALSTYLE
  5
3D
102
{ACAD_REACTORS
330
2A
102
}
102
{ACAD_XDICTIONARY
360
E7
102
}
330
2A
100
AcDbVisualStyle
  2
EdgeColorOff
 70
    22
 71
     2
 72
     2
 73
     0
 90
        0
 40
0.6
 41
30.0
 62
     5
 63
     7
421
 16777215
 74
     1
 91
        4
 64
     7
 65
   257
 75
     1
175
     1
 42
1.0
 92
        8
 66
     7
 43
1.0
 76
     1
 77
     6
 78
     2
 67
     7
 79
     5
170
     0
171
     0
290
     0
174
     0
 93
        1
 44
0.0
173
     0
291
     1
 45
0.0
1001
ACAD
1000
AcDbSavedByObjectVersion
1070
     0
  0
VISUALSTYLE
  5
39
102
{ACAD_REACTORS
330
2A
102
}
102
{ACAD_XDICTIONARY
360
DF
102
}
330
2A
100
AcDbVisualStyle
  2
Facepattern
 70
    15
 71
     2
 72
     2
 73
     0
 90
        0
 40
0.6
 41
30.0
 62
     5
 63
     7
421
 16777215
 74
     1
 91
        4
 64
     7
 65
   257
 75
     1
175
     1
 42
1.0
 92
        8
 66
     7
 43
1.0
 76
     1
 77
     6
 78
     2
 67
     7
 79
     5
170
     0
171
     0
290
     0
174
     0
 93
        1
 44
0.0
173
     0
291
     1
 45
0.0
1001
ACAD
1000
AcDbSavedByObjectVersion
1070
     0
  0
VISUALSTYLE
  5
2B
102
{ACAD_REACTORS
330
2A
102
}
102
{ACAD_XDICTIONARY
360
C3
102
}
330
2A
100
AcDbVisualStyle
  2
Flat
 70
     0
 71
     2
 72
     1
 73
     1
 90
        2
 40
0.6
 41
30.0
 62
     5
 63
     7
421
 16777215
 74
     0
 91
        0
 64
     7
 65
   257
 75
     1
175
     1
 42
1.0
 92
        8
 66
     7
 43
1.0
 76
     1
 77
     6
 78
     2
 67
     7
 79
     5
170
     0
171
     0
290
     0
174
     0
 93
       13
 44
0.0
173
     0
291
     1
 45
0.0
1001
ACAD
1000
AcDbSavedByObjectVersion
1070
     0
  0
VISUALSTYLE
  5
2C
102
{ACAD_REACTORS
330
2A
102
}
102
{ACAD_XDICTIONARY
360
C5
102
}
330
2A
100
AcDbVisualStyle
  2
FlatWithEdges
 70
     1
 71
     2
 72
     1
 73
     1
 90
        2
 40
0.6
 41
30.0
 62
     5
 63
     7
421
 16777215
 74
     1
 91
        0
 64
     7
 65
   257
 75
     1
175
     1
 42
1.0
 92
        0
 66
   257
 43
1.0
 76
     1
 77
     6
 78
     2
 67
     7
 79
     5
170
     0
171
     0
290
     0
174
     0
 93
       13
 44
0.0
173
     0
291
     1
 45
0.0
1001
ACAD
1000
AcDbSavedByObjectVersion
1070
     0
  0
VISUALSTYLE
  5
2D
102
{ACAD_REACTORS
330
2A
102
}
102
{ACAD_XDICTIONARY
360
C7
102
}
330
2A
100
AcDbVisualStyle
  2
Gouraud
 70
     2
 71
     2
 72
     2
 73
     1
 90
        2
 40
0.6
 41
30.0
 62
     5
 63
     7
421
 16777215
 74
     0
 91
        0
 64
     7
 65
   257
 75
     1
175
     1
 42
1.0
 92
        0
 66
     7
 43
1.0
 76
     1
 77
     6
 78
     2
 67
     7
 79
     5
170
     0
171
     0
290
     0
174
     0
 93
       13
 44
0.0
173
     0
291
     1
 45
0.0
1001
ACAD
1000
AcDbSavedByObjectVersion
1070
     0
  0
VISUALSTYLE
  5
2E
102
{ACAD_REACTORS
330
2A
102
}
102
{ACAD_XDICTIONARY
360
C9
102
}
330
2A
100
AcDbVisualStyle
  2
GouraudWithEdges
 70
     3
 71
     2
 72
     2
 73
     1
 90
        2
 40
0.6
 41
30.0
 62
     5
 63
     7
421
 16777215
 74
     1
 91
        0
 64
     7
 65
   257
 75
     1
175
     1
 42
1.0
 92
        0
 66
   257
 43
1.0
 76
     1
 77
     6
 78
     2
 67
     7
 79
     5
170
     0
171
     0
290
     0
174
     0
 93
       13
 44
0.0
173
     0
291
     1
 45
0.0
1001
ACAD
1000
AcDbSavedByObjectVersion
1070
     0
  0
VISUALSTYLE
  5
31
102
{ACAD_REACTORS
330
2A
102
}
102
{ACAD_XDICTIONARY
360
CF
102
}
330
2A
100
AcDbVisualStyle
  2
Hidden
 70
     6
 71
     1
 72
     2
 73
     2
 90
        0
 40
0.6
 41
30.0
 62
     5
 63
     7
421
 16777215
 74
     2
 91
        2
 64
     7
 65
   257
 75
     2
175
     1
 42
40.0
 92
        0
 66
   257
 43
1.0
 76
     1
 77
     6
 78
     2
 67
     7
 79
     3
170
     0
171
     0
290
     0
174
     0
 93
        1
 44
0.0
173
     0
291
     0
 45
0.0
1001
ACAD
1000
AcDbSavedByObjectVersion
1070
     0
  0
VISUALSTYLE
  5
3B
102
{ACAD_REACTORS
330
2A
102
}
102
{ACAD_XDICTIONARY
360
E3
102
}
330
2A
100
AcDbVisualStyle
  2
JitterOff
 70
    20
 71
     2
 72
     2
 73
     0
 90
        0
 40
0.6
 41
30.0
 62
     5
 63
     7
421
 16777215
 74
     1
 91
        4
 64
     7
 65
   257
 75
     1
175
     1
 42
1.0
 92
       10
 66
     7
 43
1.0
 76
     1
 77
     6
 78
     2
 67
     7
 79
     5
170
     0
171
     0
290
     0
174
     0
 93
        1
 44
0.0
173
     0
291
     1
 45
0.0
1001
ACAD
1000
AcDbSavedByObjectVersion
1070
     0
  0
VISUALSTYLE
  5
38
102
{ACAD_REACTORS
330
2A
102
}
102
{ACAD_XDICTIONARY
360
DD
102
}
330
2A
100
AcDbVisualStyle
  2
Linepattern
 70
    14
 71
     2
 72
     2
 73
     0
 90
        0
 40
0.6
 41
30.0
 62
     5
 63
     7
421
 16777215
 74
     1
 91
        4
 64
     7
 65
   257
 75
     7
175
     7
 42
1.0
 92
        8
 66
     7
 43
1.0
 76
     1
 77
     6
 78
     2
 67
     7
 79
     5
170
     0
171
     0
290
     0
174
     0
 93
        1
 44
0.0
173
     0
291
     1
 45
0.0
1001
ACAD
1000
AcDbSavedByObjectVersion
1070
     0
  0
VISUALSTYLE
  5
3C
102
{ACAD_REACTORS
330
2A
102
}
102
{ACAD_XDICTIONARY
360
E5
102
}
330
2A
100
AcDbVisualStyle
  2
OverhangOff
 70
    21
 71
     2
 72
     2
 73
     0
 90
        0
 40
0.6
 41
30.0
 62
     5
 63
     7
421
 16777215
 74
     1
 91
        4
 64
     7
 65
   257
 75
     1
175
     1
 42
1.0
 92
        9
 66
     7
 43
1.0
 76
     1
 77
     6
 78
     2
 67
     7
 79
     5
170
     0
171
     0
290
     0
174
     0
 93
        1
 44
0.0
173
     0
291
     1
 45
0.0
1001
ACAD
1000
AcDbSavedByObjectVersion
1070
     0
  0
VISUALSTYLE
  5
33
102
{ACAD_REACTORS
330
2A
102
}
102
{ACAD_XDICTIONARY
360
D3
102
}
330
2A
100
AcDbVisualStyle
  2
Realistic
 70
     8
 71
     2
 72
     3
 73
     0
 90
        2
 40
0.6
 41
30.0
 62
     5
 63
     7
421
 16777215
 74
     0
 91
        0
 64
     7
 65
   257
 75
     1
175
     1
 42
1.0
 92
        8
 66
   257
 43
1.0
 76
     1
 77
     6
 78
     2
 67
     7
 79
     3
170
     0
171
     0
290
     0
174
     0
 93
       13
 44
0.0
173
     0
291
     0
 45
0.0
1001
ACAD
1000
AcDbSavedByObjectVersion
1070
     0
  0
VISUALSTYLE
  5
42
102
{ACAD_REACTORS
330
2A
102
}
102
{ACAD_XDICTIONARY
360
F1
102
}
330
2A
100
AcDbVisualStyle
  2
Shaded
 70
    27
 71
     2
 72
     2
 73
     1
 90
        2
 40
0.6
 41
30.0
 62
     5
 63
     7
421
 16777215
 74
     0
 91
        4
 64
     7
 65
   257
 75
     1
175
     1
 42
1.0
 92
        8
 66
   257
 43
1.0
 76
     1
 77
     6
 78
     2
 67
     8
425
  7895160
 79
     3
170
     0
171
     0
290
     0
174
     0
 93
        5
 44
0.0
173
     0
291
     0
 45
0.0
1001
ACAD
1000
AcDbSavedByObjectVersion
1070
     0
  0
VISUALSTYLE
  5
41
102
{ACAD_REACTORS
330
2A
102
}
102
{ACAD_XDICTIONARY
360
EF
102
}
330
2A
100
AcDbVisualStyle
  2
Shaded with edges
 70
    26
 71
     2
 72
     2
 73
     1
 90
        2
 40
0.6
 41
30.0
 62
     5
 63
     7
421
 16777215
 74
     1
 91
       10
 64
     7
 65
   257
 75
     2
175
     1
 42
1.0
 92
        8
 66
   257
 43
1.0
 76
     1
 77
     6
 78
     2
 67
     7
 79
     3
170
     0
171
     0
290
     0
174
     0
 93
        5
 44
0.0
173
     0
291
     0
 45
0.0
1001
ACAD
1000
AcDbSavedByObjectVersion
1070
     0
  0
VISUALSTYLE
  5
3E
102
{ACAD_REACTORS
330
2A
102
}
102
{ACAD_XDICTIONARY
360
E9
102
}
330
2A
100
AcDbVisualStyle
  2
Shades of Gray
 70
    23
 71
     2
 72
     2
 73
     3
 90
        0
 40
0.6
 41
30.0
 62
     5
 63
     7
421
 16777215
 74
     2
 91
        2
 64
     7
 65
     7
 75
     1
175
     1
 42
40.0
 92
        8
 66
     7
 43
1.0
 76
     1
 77
     6
 78
     2
 67
     7
 79
     3
170
     0
171
     0
290
     0
174
     0
 93
        1
 44
0.0
173
     0
291
     0
 45
0.0
1001
ACAD
1000
AcDbSavedByObjectVersion
1070
     0
  0
VISUALSTYLE
  5
3F
102
{ACAD_REACTORS
330
2A
102
}
102
{ACAD_XDICTIONARY
360
EB
102
}
330
2A
100
AcDbVisualStyle
  2
Sketchy
 70
    24
 71
     1
 72
     2
 73
     2
 90
        0
 40
0.6
 41
30.0
 62
     5
 63
     7
421
 16777215
 74
     2
 91
        2
 64
     7
 65
     7
 75
     1
175
     1
 42
40.0
 92
       11
 66
     7
 43
1.0
 76
     1
 77
     6
 78
     2
 67
     7
 79
     6
170
     0
171
     0
290
     0
174
     0
 93
        1
 44
0.0
173
     0
291
     0
 45
0.0
1001
ACAD
1000
AcDbSavedByObjectVersion
1070
     0
  0
VISUALSTYLE
  5
37
102
{ACAD_REACTORS
330
2A
102
}
102
{ACAD_XDICTIONARY
360
DB
102
}
330
2A
100
AcDbVisualStyle
  2
Thicken
 70
    13
 71
     2
 72
     2
 73
     0
 90
        0
 40
0.6
 41
30.0
 62
     5
 63
     7
421
 16777215
 74
     1
 91
        4
 64
     7
 65
   257
 75
     1
175
     1
 42
1.0
 92
       12
 66
     7
 43
1.0
 76
     1
 77
     6
 78
     2
 67
     7
 79
     5
170
     0
171
     0
290
     0
174
     0
 93
        1
 44
0.0
173
     0
291
     1
 45
0.0
1001
ACAD
1000
AcDbSavedByObjectVersion
1070
     0
  0
VISUALSTYLE
  5
30
102
{ACAD_REACTORS
330
2A
102
}
102
{ACAD_XDICTIONARY
360
CD
102
}
330
2A
100
AcDbVisualStyle
  2
Wireframe
 70
     5
 71
     0
 72
     2
 73
     0
 90
        0
 40
0.6
 41
30.0
 62
     5
 63
     7
421
 16777215
 74
     1
 91
        4
 64
     7
 65
   257
 75
     1
175
     1
 42
1.0
 92
        0
 66
   257
 43
1.0
 76
     1
 77
     6
 78
     2
 67
     7
 79
     3
170
     0
171
     0
290
     0
174
     0
 93
        1
 44
0.0
173
     0
291
     0
 45
0.0
1001
ACAD
1000
AcDbSavedByObjectVersion
1070
     0
  0
VISUALSTYLE
  5
40
102
{ACAD_REACTORS
330
2A
102
}
102
{ACAD_XDICTIONARY
360
ED
102
}
330
2A
100
AcDbVisualStyle
  2
X-Ray
 70
    25
 71
     2
 72
     2
 73
     1
 90
        1
 40
0.5
 41
30.0
 62
     5
 63
     7
421
 16777215
 74
     1
 91
        0
 64
     7
 65
   257
 75
     1
175
     1
 42
1.0
 92
        8
 66
     7
 43
1.0
 76
     1
 77
     6
 78
     2
 67
     7
 79
     3
170
     0
171
     0
290
     0
174
     0
 93
       13
 44
0.0
173
     0
291
     0
 45
0.0
1001
ACAD
1000
AcDbSavedByObjectVersion
1070
     0
  0
DICTIONARYVAR
  5
C0
102
{ACAD_REACTORS
330
BF
102
}
330
BF
100
DictionaryVariables
280
     0
  1
1:1
  0
DICTIONARYVAR
  5
101
102
{ACAD_REACTORS
330
BF
102
}
330
BF
100
DictionaryVariables
280
     0
  1
Standard
  0
DICTIONARYVAR
  5
100
102
{ACAD_REACTORS
330
BF
102
}
330
BF
100
DictionaryVariables
280
     0
  1
Standard
  0
DICTIONARYVAR
  5
C1
102
{ACAD_REACTORS
330
BF
102
}
330
BF
100
DictionaryVariables
280
     0
  1
1
  0
DICTIONARYVAR
  5
C2
102
{ACAD_REACTORS
330
BF
102
}
330
BF
100
DictionaryVariables
280
     0
  1
2
  0
DICTIONARY
  5
F5
330
45
100
AcDbDictionary
280
     1
281
     1
  3
ACAD_XREC_ROUNDTRIP
360
F6
  0
DICTIONARY
  5
F3
330
44
100
AcDbDictionary
280
     1
281
     1
  3
ACAD_XREC_ROUNDTRIP
360
F4
  0
DICTIONARY
  5
F7
330
46
100
AcDbDictionary
280
     1
281
     1
  3
ACAD_XREC_ROUNDTRIP
360
F8
  0
DICTIONARY
  5
FD
330
6C
100
AcDbDictionary
280
     1
281
     1
  3
ACAD_XREC_ROUNDTRIP
360
FE
  0
DICTIONARY
  5
F9
330
6A
100
AcDbDictionary
280
     1
281
     1
  3
ACAD_ROUNDTRIP_2008_TABLESTYLE_CELLSTYLEMAP
360
FB
  3
ACAD_XREC_ROUNDTRIP
360
FA
  0
DICTIONARY
  5
CB
330
2F
100
AcDbDictionary
280
     1
281
     1
  3
ACAD_XREC_ROUNDTRIP
360
CC
  0
DICTIONARY
  5
D1
330
32
100
AcDbDictionary
280
     1
281
     1
  3
ACAD_XREC_ROUNDTRIP
360
D2
  0
DICTIONARY
  5
D9
330
36
100
AcDbDictionary
280
     1
281
     1
  3
ACAD_XREC_ROUNDTRIP
360
DA
  0
DICTIONARY
  5
E1
330
3A
100
AcDbDictionary
280
     1
281
     1
  3
ACAD_XREC_ROUNDTRIP
360
E2
  0
DICTIONARY
  5
D5
330
34
100
AcDbDictionary
280
     1
281
     1
  3
ACAD_XREC_ROUNDTRIP
360
D6
  0
DICTIONARY
  5
D7
330
35
100
AcDbDictionary
280
     1
281
     1
  3
ACAD_XREC_ROUNDTRIP
360
D8
  0
DICTIONARY
  5
E7
330
3D
100
AcDbDictionary
280
     1
281
     1
  3
ACAD_XREC_ROUNDTRIP
360
E8
  0
DICTIONARY
  5
DF
330
39
100
AcDbDictionary
280
     1
281
     1
  3
ACAD_XREC_ROUNDTRIP
360
E0
  0
DICTIONARY
  5
C3
330
2B
100
AcDbDictionary
280
     1
281
     1
  3
ACAD_XREC_ROUNDTRIP
360
C4
  0
DICTIONARY
  5
C5
330
2C
100
AcDbDictionary
280
     1
281
     1
  3
ACAD_XREC_ROUNDTRIP
360
C6
  0
DICTIONARY
  5
C7
330
2D
100
AcDbDictionary
280
     1
281
     1
  3
ACAD_XREC_ROUNDTRIP
360
C8
  0
DICTIONARY
  5
C9
330
2E
100
AcDbDictionary
280
     1
281
     1
  3
ACAD_XREC_ROUNDTRIP
360
CA
  0
DICTIONARY
  5
CF
330
31
100
AcDbDictionary
280
     1
281
     1
  3
ACAD_XREC_ROUNDTRIP
360
D0
  0
DICTIONARY
  5
E3
330
3B
100
AcDbDictionary
280
     1
281
     1
  3
ACAD_XREC_ROUNDTRIP
360
E4
  0
DICTIONARY
  5
DD
330
38
100
AcDbDictionary
280
     1
281
     1
  3
ACAD_XREC_ROUNDTRIP
360
DE
  0
DICTIONARY
  5
E5
330
3C
100
AcDbDictionary
280
     1
281
     1
  3
ACAD_XREC_ROUNDTRIP
360
E6
  0
DICTIONARY
  5
D3
330
33
100
AcDbDictionary
280
     1
281
     1
  3
ACAD_XREC_ROUNDTRIP
360
D4
  0
DICTIONARY
  5
F1
330
42
100
AcDbDictionary
280
     1
281
     1
  3
ACAD_XREC_ROUNDTRIP
360
F2
  0
DICTIONARY
  5
EF
330
41
100
AcDbDictionary
280
     1
281
     1
  3
ACAD_XREC_ROUNDTRIP
360
F0
  0
DICTIONARY
  5
E9
330
3E
100
AcDbDictionary
280
     1
281
     1
  3
ACAD_XREC_ROUNDTRIP
360
EA
  0
DICTIONARY
  5
EB
330
3F
100
AcDbDictionary
280
     1
281
     1
  3
ACAD_XREC_ROUNDTRIP
360
EC
  0
DICTIONARY
  5
DB
330
37
100
AcDbDictionary
280
     1
281
     1
  3
ACAD_XREC_ROUNDTRIP
360
DC
  0
DICTIONARY
  5
CD
330
30
100
AcDbDictionary
280
     1
281
     1
  3
ACAD_XREC_ROUNDTRIP
360
CE
  0
DICTIONARY
  5
ED
330
40
100
AcDbDictionary
280
     1
281
     1
  3
ACAD_XREC_ROUNDTRIP
360
EE
  0
XRECORD
  5
F6
102
{ACAD_REACTORS
330
F5
102
}
330
F5
100
AcDbXrecord
280
     1
102
MATERIAL
148
0.0
149
0.0
149
0.0
 93
        0
 94
      127
282
     0
 72
     1
 77
     1
171
     1
175
     1
179
     1
273
     0
  0
XRECORD
  5
F4
102
{ACAD_REACTORS
330
F3
102
}
330
F3
100
AcDbXrecord
280
     1
102
MATERIAL
148
0.0
149
0.0
149
0.0
 93
        0
 94
      127
282
     0
 72
     1
 77
     1
171
     1
175
     1
179
     1
273
     0
  0
XRECORD
  5
F8
102
{ACAD_REACTORS
330
F7
102
}
330
F7
100
AcDbXrecord
280
     1
102
MATERIAL
148
0.0
149
0.0
149
0.0
 93
        0
 94
      127
282
     0
 72
     1
 77
     1
171
     1
175
     1
179
     1
273
     0
  0
XRECORD
  5
FE
102
{ACAD_REACTORS
330
FD
102
}
330
FD
100
AcDbXrecord
280
     1
102
ACAD_ROUNDTRIP_2010_MLEADER_STYLE
  0
CELLSTYLEMAP
  5
FB
102
{ACAD_REACTORS
330
F9
102
}
330
F9
100
AcDbCellStyleMap
 90
        3
300
CELLSTYLE
  1
TABLEFORMAT_BEGIN
 90
        5
170
     1
 91
        0
 92
    32768
 62
   257
 93
        1
300
CONTENTFORMAT
  1
CONTENTFORMAT_BEGIN
 90
        0
 91
        0
 92
        4
 93
        0
300

 40
0.0
140
1.0
 94
        5
 62
     0
340
11
144
0.25
309
CONTENTFORMAT_END
171
     1
301
MARGIN
  1
CELLMARGIN_BEGIN
 40
0.06
 40
0.06
 40
0.06
 40
0.06
 40
0.06
 40
0.06
309
CELLMARGIN_END
 94
        6
 95
        1
302
GRIDFORMAT
  1
GRIDFORMAT_BEGIN
 90
        0
 91
        1
 62
     0
 92
       -2
340
14
 93
        0
 40
0.045
309
GRIDFORMAT_END
 95
        2
302
GRIDFORMAT
  1
GRIDFORMAT_BEGIN
 90
        0
 91
        1
 62
     0
 92
       -2
340
14
 93
        0
 40
0.045
309
GRIDFORMAT_END
 95
        4
302
GRIDFORMAT
  1
GRIDFORMAT_BEGIN
 90
        0
 91
        1
 62
     0
 92
       -2
340
14
 93
        0
 40
0.045
309
GRIDFORMAT_END
 95
        8
302
GRIDFORMAT
  1
GRIDFORMAT_BEGIN
 90
        0
 91
        1
 62
     0
 92
       -2
340
14
 93
        0
 40
0.045
309
GRIDFORMAT_END
 95
       16
302
GRIDFORMAT
  1
GRIDFORMAT_BEGIN
 90
        0
 91
        1
 62
     0
 92
       -2
340
14
 93
        0
 40
0.045
309
GRIDFORMAT_END
 95
       32
302
GRIDFORMAT
  1
GRIDFORMAT_BEGIN
 90
        0
 91
        1
 62
     0
 92
       -2
340
14
 93
        0
 40
0.045
309
GRIDFORMAT_END
309
TABLEFORMAT_END
  1
CELLSTYLE_BEGIN
 90
        1
 91
        1
300
_TITLE
309
CELLSTYLE_END
300
CELLSTYLE
  1
TABLEFORMAT_BEGIN
 90
        5
170
     1
 91
        0
 92
        0
 62
   257
 93
        1
300
CONTENTFORMAT
  1
CONTENTFORMAT_BEGIN
 90
        0
 91
        0
 92
        4
 93
        0
300

 40
0.0
140
1.0
 94
        5
 62
     0
340
11
144
0.18
309
CONTENTFORMAT_END
171
     1
301
MARGIN
  1
CELLMARGIN_BEGIN
 40
0.06
 40
0.06
 40
0.06
 40
0.06
 40
0.06
 40
0.06
309
CELLMARGIN_END
 94
        6
 95
        1
302
GRIDFORMAT
  1
GRIDFORMAT_BEGIN
 90
        0
 91
        1
 62
     0
 92
       -2
340
14
 93
        0
 40
0.045
309
GRIDFORMAT_END
 95
        2
302
GRIDFORMAT
  1
GRIDFORMAT_BEGIN
 90
        0
 91
        1
 62
     0
 92
       -2
340
14
 93
        0
 40
0.045
309
GRIDFORMAT_END
 95
        4
302
GRIDFORMAT
  1
GRIDFORMAT_BEGIN
 90
        0
 91
        1
 62
     0
 92
       -2
340
14
 93
        0
 40
0.045
309
GRIDFORMAT_END
 95
        8
302
GRIDFORMAT
  1
GRIDFORMAT_BEGIN
 90
        0
 91
        1
 62
     0
 92
       -2
340
14
 93
        0
 40
0.045
309
GRIDFORMAT_END
 95
       16
302
GRIDFORMAT
  1
GRIDFORMAT_BEGIN
 90
        0
 91
        1
 62
     0
 92
       -2
340
14
 93
        0
 40
0.045
309
GRIDFORMAT_END
 95
       32
302
GRIDFORMAT
  1
GRIDFORMAT_BEGIN
 90
        0
 91
        1
 62
     0
 92
       -2
340
14
 93
        0
 40
0.045
309
GRIDFORMAT_END
309
TABLEFORMAT_END
  1
CELLSTYLE_BEGIN
 90
        2
 91
        1
300
_HEADER
309
CELLSTYLE_END
300
CELLSTYLE
  1
TABLEFORMAT_BEGIN
 90
        5
170
     1
 91
        0
 92
        0
 62
   257
 93
        1
300
CONTENTFORMAT
  1
CONTENTFORMAT_BEGIN
 90
        0
 91
        0
 92
        4
 93
        0
300

 40
0.0
140
1.0
 94
        2
 62
     0
340
11
144
0.18
309
CONTENTFORMAT_END
171
     1
301
MARGIN
  1
CELLMARGIN_BEGIN
 40
0.06
 40
0.06
 40
0.06
 40
0.06
 40
0.06
 40
0.06
309
CELLMARGIN_END
 94
        6
 95
        1
302
GRIDFORMAT
  1
GRIDFORMAT_BEGIN
 90
        0
 91
        1
 62
     0
 92
       -2
340
14
 93
        0
 40
0.045
309
GRIDFORMAT_END
 95
        2
302
GRIDFORMAT
  1
GRIDFORMAT_BEGIN
 90
        0
 91
        1
 62
     0
 92
       -2
340
14
 93
        0
 40
0.045
309
GRIDFORMAT_END
 95
        4
302
GRIDFORMAT
  1
GRIDFORMAT_BEGIN
 90
        0
 91
        1
 62
     0
 92
       -2
340
14
 93
        0
 40
0.045
309
GRIDFORMAT_END
 95
        8
302
GRIDFORMAT
  1
GRIDFORMAT_BEGIN
 90
        0
 91
        1
 62
     0
 92
       -2
340
14
 93
        0
 40
0.045
309
GRIDFORMAT_END
 95
       16
302
GRIDFORMAT
  1
GRIDFORMAT_BEGIN
 90
        0
 91
        1
 62
     0
 92
       -2
340
14
 93
        0
 40
0.045
309
GRIDFORMAT_END
 95
       32
302
GRIDFORMAT
  1
GRIDFORMAT_BEGIN
 90
        0
 91
        1
 62
     0
 92
       -2
340
14
 93
        0
 40
0.045
309
GRIDFORMAT_END
309
TABLEFORMAT_END
  1
CELLSTYLE_BEGIN
 90
        3
 91
        2
300
_DATA
309
CELLSTYLE_END
  0
XRECORD
  5
FA
102
{ACAD_REACTORS
330
F9
102
}
330
F9
100
AcDbXrecord
280
     1
102
ACAD_ROUNDTRIP_PRE2007_TABLESTYLE
 90
        4
 91
        0
  1

 92
        4
 93
        0
  2

 94
        4
 95
        0
  3

  0
XRECORD
  5
CC
102
{ACAD_REACTORS
330
CB
102
}
330
CB
100
AcDbXrecord
280
     1
102
RTVSPropertyOp0
 70
     1
102
RTVSPropertyOp1
 70
     1
102
RTVSPropertyOp2
 70
     1
102
RTVSPropertyOp3
 70
     1
102
RTVSPropertyOp4
 70
     1
102
RTVSPropertyOp5
 70
     1
102
RTVSPropertyOp6
 70
     1
102
RTVSPropertyOp7
 70
     1
102
RTVSPropertyOp8
 70
     1
102
RTVSPropertyOp9
 70
     1
102
RTVSPropertyOp10
 70
     1
102
RTVSPropertyOp11
 70
     1
102
RTVSPropertyOp12
 70
     1
102
RTVSPropertyOp13
 70
     1
102
RTVSPropertyOp14
 70
     1
102
RTVSPropertyOp15
 70
     1
102
RTVSPropertyOp16
 70
     1
102
RTVSPropertyOp17
 70
     1
102
RTVSPropertyOp18
 70
     1
102
RTVSPropertyOp19
 70
     1
102
RTVSPropertyOp20
 70
     1
102
RTVSPropertyOp21
 70
     1
102
RTVSPropertyOp22
 70
     1
102
RTVSPropertyOp23
 70
     1
102
RTVSPropertyOp24
 70
     1
102
RTVSPropertyOp25
 70
     1
102
RTVSPropertyOp26
 70
     1
102
RTVSPropertyOp27
 70
     1
102
RTVSPropertyOp28
 70
     1
102
RTVSPropertyOp29
 70
     1
102
RTVSPropertyOp30
 70
     1
102
RTVSPropertyOp31
 70
     1
102
RTVSPropertyOp32
 70
     1
102
RTVSPropertyOp33
 70
     1
102
RTVSPropertyOp34
 70
     1
102
RTVSPropertyOp35
 70
     1
102
RTVSPropertyOp36
 70
     1
102
RTVSPropertyOp37
 70
     1
102
RTVSPropertyOp38
 70
     1
102
RTVSPropertyOp39
 70
     1
102
RTVSPropertyOp40
 70
     1
102
RTVSPropertyOp41
 70
     1
102
RTVSPropertyOp42
 70
     1
102
RTVSPropertyOp43
 70
     1
102
RTVSPropertyOp44
 70
     1
102
RTVSPropertyOp45
 70
     1
102
RTVSPropertyOp46
 70
     1
102
RTVSPropertyOp47
 70
     1
102
RTVSPropertyOp48
 70
     1
102
RTVSPropertyOp49
 70
     1
102
RTVSPropertyOp50
 70
     1
102
RTVSPropertyOp51
 70
     0
102
RTVSPropertyOp52
 70
     0
102
RTVSPropertyOp53
 70
     1
102
RTVSPropertyOp54
 70
     1
102
RTVSPropertyOp55
 70
     1
102
RTVSPropertyOp56
 70
     1
102
RTVSPropertyOp57
 70
     1
102
RTVSPost2010Prop28
280
     1
102
RTVSPost2010PropOp28
 70
     1
102
RTVSPost2010Prop29
280
     1
102
RTVSPost2010PropOp29
 70
     1
102
RTVSPost2010Prop30
280
     0
102
RTVSPost2010PropOp30
 70
     1
102
RTVSPost2010Prop31
280
     0
102
RTVSPost2010PropOp31
 70
     1
102
RTVSPost2010Prop32
280
     0
102
RTVSPost2010PropOp32
 70
     1
102
RTVSPost2010Prop33
280
     0
102
RTVSPost2010PropOp33
 70
     1
102
RTVSPost2010Prop34
280
     0
102
RTVSPost2010PropOp34
 70
     1
102
RTVSPost2010Prop35
280
     0
102
RTVSPost2010PropOp35
 70
     1
102
RTVSPost2010Prop36
280
     0
102
RTVSPost2010PropOp36
 70
     1
102
RTVSPost2010Prop37
 90
       50
102
RTVSPost2010PropOp37
 70
     1
102
RTVSPost2010Prop38
140
0.0
102
RTVSPost2010PropOp38
 70
     1
102
RTVSPost2010Prop39
140
1.0
102
RTVSPost2010PropOp39
 70
     1
102
RTVSPost2010Prop40
 90
        0
102
RTVSPost2010PropOp40
 70
     1
102
RTVSPost2010Prop41ColorIndex
 90
       18
102
RTVSPost2010Prop41ColorRGB
 90
        0
102
RTVSPost2010PropOp41
 70
     1
102
RTVSPost2010Prop42
 90
       50
102
RTVSPost2010PropOp42
 70
     1
102
RTVSPost2010Prop43
 90
        3
102
RTVSPost2010PropOp43
 70
     1
102
RTVSPost2010Prop44ColorIndex
 90
        5
102
RTVSPost2010Prop44ColorRGB
 90
      255
102
RTVSPost2010PropOp44
 70
     1
102
RTVSPost2010Prop45
280
     0
102
RTVSPost2010PropOp45
 70
     1
102
RTVSPost2010Prop46
 90
       50
102
RTVSPost2010PropOp46
 70
     1
102
RTVSPost2010Prop47
 90
       50
102
RTVSPost2010PropOp47
 70
     1
102
RTVSPost2010Prop48
 90
       50
102
RTVSPost2010PropOp48
 70
     1
102
RTVSPost2010Prop49
280
     0
102
RTVSPost2010PropOp49
 70
     1
102
RTVSPost2010Prop50
 90
       50
102
RTVSPost2010PropOp50
 70
     1
102
RTVSPost2010Prop51ColorIndex
 90
      256
102
RTVSPost2010Prop51ColorRGB
 90
-16777216
102
RTVSPost2010PropOp51
 70
     0
102
RTVSPost2010Prop52
140
1.0
102
RTVSPost2010PropOp52
 70
     0
102
RTVSPost2010Prop53
 90
        2
102
RTVSPost2010PropOp53
 70
     1
102
RTVSPost2010Prop54
  1
strokes_ogs.tif
102
RTVSPost2010PropOp54
 70
     1
102
RTVSPost2010Prop55
280
     0
102
RTVSPost2010PropOp55
 70
     1
102
RTVSPost2010Prop56
140
1.0
102
RTVSPost2010PropOp56
 70
     1
102
RTVSPost2010Prop57
140
1.0
102
RTVSPost2010PropOp57
 70
     1
  0
XRECORD
  5
D2
102
{ACAD_REACTORS
330
D1
102
}
330
D1
100
AcDbXrecord
280
     1
102
RTVSPropertyOp0
 70
     1
102
RTVSPropertyOp1
 70
     1
102
RTVSPropertyOp2
 70
     1
102
RTVSPropertyOp3
 70
     1
102
RTVSPropertyOp4
 70
     1
102
RTVSPropertyOp5
 70
     1
102
RTVSPropertyOp6
 70
     1
102
RTVSPropertyOp7
 70
     1
102
RTVSPropertyOp8
 70
     1
102
RTVSPropertyOp9
 70
     1
102
RTVSPropertyOp10
 70
     1
102
RTVSPropertyOp11
 70
     1
102
RTVSPropertyOp12
 70
     1
102
RTVSPropertyOp13
 70
     1
102
RTVSPropertyOp14
 70
     1
102
RTVSPropertyOp15
 70
     1
102
RTVSPropertyOp16
 70
     1
102
RTVSPropertyOp17
 70
     1
102
RTVSPropertyOp18
 70
     1
102
RTVSPropertyOp19
 70
     1
102
RTVSPropertyOp20
 70
     1
102
RTVSPropertyOp21
 70
     1
102
RTVSPropertyOp22
 70
     1
102
RTVSPropertyOp23
 70
     1
102
RTVSPropertyOp24
 70
     1
102
RTVSPropertyOp25
 70
     1
102
RTVSPropertyOp26
 70
     1
102
RTVSPropertyOp27
 70
     1
102
RTVSPropertyOp28
 70
     1
102
RTVSPropertyOp29
 70
     1
102
RTVSPropertyOp30
 70
     1
102
RTVSPropertyOp31
 70
     1
102
RTVSPropertyOp32
 70
     1
102
RTVSPropertyOp33
 70
     1
102
RTVSPropertyOp34
 70
     1
102
RTVSPropertyOp35
 70
     1
102
RTVSPropertyOp36
 70
     1
102
RTVSPropertyOp37
 70
     1
102
RTVSPropertyOp38
 70
     1
102
RTVSPropertyOp39
 70
     1
102
RTVSPropertyOp40
 70
     1
102
RTVSPropertyOp41
 70
     1
102
RTVSPropertyOp42
 70
     1
102
RTVSPropertyOp43
 70
     1
102
RTVSPropertyOp44
 70
     1
102
RTVSPropertyOp45
 70
     1
102
RTVSPropertyOp46
 70
     1
102
RTVSPropertyOp47
 70
     1
102
RTVSPropertyOp48
 70
     1
102
RTVSPropertyOp49
 70
     1
102
RTVSPropertyOp50
 70
     1
102
RTVSPropertyOp51
 70
     0
102
RTVSPropertyOp52
 70
     0
102
RTVSPropertyOp53
 70
     1
102
RTVSPropertyOp54
 70
     1
102
RTVSPropertyOp55
 70
     1
102
RTVSPropertyOp56
 70
     1
102
RTVSPropertyOp57
 70
     1
102
RTVSPost2010Prop28
280
     0
102
RTVSPost2010PropOp28
 70
     1
102
RTVSPost2010Prop29
280
     1
102
RTVSPost2010PropOp29
 70
     1
102
RTVSPost2010Prop30
280
     1
102
RTVSPost2010PropOp30
 70
     1
102
RTVSPost2010Prop31
280
     0
102
RTVSPost2010PropOp31
 70
     1
102
RTVSPost2010Prop32
280
     0
102
RTVSPost2010PropOp32
 70
     1
102
RTVSPost2010Prop33
280
     0
102
RTVSPost2010PropOp33
 70
     1
102
RTVSPost2010Prop34
280
     0
102
RTVSPost2010PropOp34
 70
     1
102
RTVSPost2010Prop35
280
     0
102
RTVSPost2010PropOp35
 70
     1
102
RTVSPost2010Prop36
280
     0
102
RTVSPost2010PropOp36
 70
     1
102
RTVSPost2010Prop37
 90
       50
102
RTVSPost2010PropOp37
 70
     1
102
RTVSPost2010Prop38
140
0.0
102
RTVSPost2010PropOp38
 70
     1
102
RTVSPost2010Prop39
140
1.0
102
RTVSPost2010PropOp39
 70
     1
102
RTVSPost2010Prop40
 90
        0
102
RTVSPost2010PropOp40
 70
     1
102
RTVSPost2010Prop41ColorIndex
 90
       18
102
RTVSPost2010Prop41ColorRGB
 90
        0
102
RTVSPost2010PropOp41
 70
     1
102
RTVSPost2010Prop42
 90
       50
102
RTVSPost2010PropOp42
 70
     1
102
RTVSPost2010Prop43
 90
        3
102
RTVSPost2010PropOp43
 70
     1
102
RTVSPost2010Prop44ColorIndex
 90
        5
102
RTVSPost2010Prop44ColorRGB
 90
      255
102
RTVSPost2010PropOp44
 70
     1
102
RTVSPost2010Prop45
280
     0
102
RTVSPost2010PropOp45
 70
     1
102
RTVSPost2010Prop46
 90
       50
102
RTVSPost2010PropOp46
 70
     1
102
RTVSPost2010Prop47
 90
       50
102
RTVSPost2010PropOp47
 70
     1
102
RTVSPost2010Prop48
 90
       50
102
RTVSPost2010PropOp48
 70
     1
102
RTVSPost2010Prop49
280
     0
102
RTVSPost2010PropOp49
 70
     1
102
RTVSPost2010Prop50
 90
       50
102
RTVSPost2010PropOp50
 70
     1
102
RTVSPost2010Prop51ColorIndex
 90
      256
102
RTVSPost2010Prop51ColorRGB
 90
-16777216
102
RTVSPost2010PropOp51
 70
     0
102
RTVSPost2010Prop52
140
1.0
102
RTVSPost2010PropOp52
 70
     0
102
RTVSPost2010Prop53
 90
        2
102
RTVSPost2010PropOp53
 70
     1
102
RTVSPost2010Prop54
  1
strokes_ogs.tif
102
RTVSPost2010PropOp54
 70
     1
102
RTVSPost2010Prop55
280
     0
102
RTVSPost2010PropOp55
 70
     1
102
RTVSPost2010Prop56
140
1.0
102
RTVSPost2010PropOp56
 70
     1
102
RTVSPost2010Prop57
140
1.0
102
RTVSPost2010PropOp57
 70
     1
  0
XRECORD
  5
DA
102
{ACAD_REACTORS
330
D9
102
}
330
D9
100
AcDbXrecord
280
     1
102
RTVSPropertyOp0
 70
     1
102
RTVSPropertyOp1
 70
     1
102
RTVSPropertyOp2
 70
     1
102
RTVSPropertyOp3
 70
     1
102
RTVSPropertyOp4
 70
     1
102
RTVSPropertyOp5
 70
     1
102
RTVSPropertyOp6
 70
     1
102
RTVSPropertyOp7
 70
     1
102
RTVSPropertyOp8
 70
     1
102
RTVSPropertyOp9
 70
     1
102
RTVSPropertyOp10
 70
     1
102
RTVSPropertyOp11
 70
     1
102
RTVSPropertyOp12
 70
     1
102
RTVSPropertyOp13
 70
     1
102
RTVSPropertyOp14
 70
     1
102
RTVSPropertyOp15
 70
     1
102
RTVSPropertyOp16
 70
     1
102
RTVSPropertyOp17
 70
     1
102
RTVSPropertyOp18
 70
     1
102
RTVSPropertyOp19
 70
     1
102
RTVSPropertyOp20
 70
     1
102
RTVSPropertyOp21
 70
     1
102
RTVSPropertyOp22
 70
     1
102
RTVSPropertyOp23
 70
     1
102
RTVSPropertyOp24
 70
     1
102
RTVSPropertyOp25
 70
     1
102
RTVSPropertyOp26
 70
     1
102
RTVSPropertyOp27
 70
     1
102
RTVSPropertyOp28
 70
     1
102
RTVSPropertyOp29
 70
     1
102
RTVSPropertyOp30
 70
     1
102
RTVSPropertyOp31
 70
     1
102
RTVSPropertyOp32
 70
     1
102
RTVSPropertyOp33
 70
     1
102
RTVSPropertyOp34
 70
     1
102
RTVSPropertyOp35
 70
     1
102
RTVSPropertyOp36
 70
     1
102
RTVSPropertyOp37
 70
     1
102
RTVSPropertyOp38
 70
     1
102
RTVSPropertyOp39
 70
     1
102
RTVSPropertyOp40
 70
     1
102
RTVSPropertyOp41
 70
     1
102
RTVSPropertyOp42
 70
     1
102
RTVSPropertyOp43
 70
     1
102
RTVSPropertyOp44
 70
     1
102
RTVSPropertyOp45
 70
     1
102
RTVSPropertyOp46
 70
     1
102
RTVSPropertyOp47
 70
     1
102
RTVSPropertyOp48
 70
     1
102
RTVSPropertyOp49
 70
     1
102
RTVSPropertyOp50
 70
     1
102
RTVSPropertyOp51
 70
     0
102
RTVSPropertyOp52
 70
     0
102
RTVSPropertyOp53
 70
     1
102
RTVSPropertyOp54
 70
     1
102
RTVSPropertyOp55
 70
     1
102
RTVSPropertyOp56
 70
     1
102
RTVSPropertyOp57
 70
     1
102
RTVSPost2010Prop28
280
     0
102
RTVSPost2010PropOp28
 70
     1
102
RTVSPost2010Prop29
280
     1
102
RTVSPost2010PropOp29
 70
     1
102
RTVSPost2010Prop30
280
     1
102
RTVSPost2010PropOp30
 70
     1
102
RTVSPost2010Prop31
280
     0
102
RTVSPost2010PropOp31
 70
     1
102
RTVSPost2010Prop32
280
     0
102
RTVSPost2010PropOp32
 70
     1
102
RTVSPost2010Prop33
280
     0
102
RTVSPost2010PropOp33
 70
     1
102
RTVSPost2010Prop34
280
     0
102
RTVSPost2010PropOp34
 70
     1
102
RTVSPost2010Prop35
280
     0
102
RTVSPost2010PropOp35
 70
     1
102
RTVSPost2010Prop36
280
     0
102
RTVSPost2010PropOp36
 70
     1
102
RTVSPost2010Prop37
 90
       50
102
RTVSPost2010PropOp37
 70
     1
102
RTVSPost2010Prop38
140
0.0
102
RTVSPost2010PropOp38
 70
     1
102
RTVSPost2010Prop39
140
1.0
102
RTVSPost2010PropOp39
 70
     1
102
RTVSPost2010Prop40
 90
        0
102
RTVSPost2010PropOp40
 70
     1
102
RTVSPost2010Prop41ColorIndex
 90
       18
102
RTVSPost2010Prop41ColorRGB
 90
        0
102
RTVSPost2010PropOp41
 70
     1
102
RTVSPost2010Prop42
 90
       50
102
RTVSPost2010PropOp42
 70
     1
102
RTVSPost2010Prop43
 90
        3
102
RTVSPost2010PropOp43
 70
     1
102
RTVSPost2010Prop44ColorIndex
 90
        5
102
RTVSPost2010Prop44ColorRGB
 90
      255
102
RTVSPost2010PropOp44
 70
     1
102
RTVSPost2010Prop45
280
     0
102
RTVSPost2010PropOp45
 70
     1
102
RTVSPost2010Prop46
 90
       50
102
RTVSPost2010PropOp46
 70
     1
102
RTVSPost2010Prop47
 90
       50
102
RTVSPost2010PropOp47
 70
     1
102
RTVSPost2010Prop48
 90
       50
102
RTVSPost2010PropOp48
 70
     1
102
RTVSPost2010Prop49
280
     0
102
RTVSPost2010PropOp49
 70
     1
102
RTVSPost2010Prop50
 90
       50
102
RTVSPost2010PropOp50
 70
     1
102
RTVSPost2010Prop51ColorIndex
 90
      256
102
RTVSPost2010Prop51ColorRGB
 90
-16777216
102
RTVSPost2010PropOp51
 70
     0
102
RTVSPost2010Prop52
140
1.0
102
RTVSPost2010PropOp52
 70
     0
102
RTVSPost2010Prop53
 90
        2
102
RTVSPost2010PropOp53
 70
     1
102
RTVSPost2010Prop54
  1
strokes_ogs.tif
102
RTVSPost2010PropOp54
 70
     1
102
RTVSPost2010Prop55
280
     0
102
RTVSPost2010PropOp55
 70
     1
102
RTVSPost2010Prop56
140
1.0
102
RTVSPost2010PropOp56
 70
     1
102
RTVSPost2010Prop57
140
1.0
102
RTVSPost2010PropOp57
 70
     1
  0
XRECORD
  5
E2
102
{ACAD_REACTORS
330
E1
102
}
330
E1
100
AcDbXrecord
280
     1
102
RTVSPropertyOp0
 70
     1
102
RTVSPropertyOp1
 70
     1
102
RTVSPropertyOp2
 70
     1
102
RTVSPropertyOp3
 70
     1
102
RTVSPropertyOp4
 70
     1
102
RTVSPropertyOp5
 70
     1
102
RTVSPropertyOp6
 70
     1
102
RTVSPropertyOp7
 70
     1
102
RTVSPropertyOp8
 70
     1
102
RTVSPropertyOp9
 70
     1
102
RTVSPropertyOp10
 70
     1
102
RTVSPropertyOp11
 70
     1
102
RTVSPropertyOp12
 70
     1
102
RTVSPropertyOp13
 70
     1
102
RTVSPropertyOp14
 70
     1
102
RTVSPropertyOp15
 70
     1
102
RTVSPropertyOp16
 70
     1
102
RTVSPropertyOp17
 70
     1
102
RTVSPropertyOp18
 70
     1
102
RTVSPropertyOp19
 70
     1
102
RTVSPropertyOp20
 70
     1
102
RTVSPropertyOp21
 70
     1
102
RTVSPropertyOp22
 70
     1
102
RTVSPropertyOp23
 70
     1
102
RTVSPropertyOp24
 70
     1
102
RTVSPropertyOp25
 70
     1
102
RTVSPropertyOp26
 70
     1
102
RTVSPropertyOp27
 70
     1
102
RTVSPropertyOp28
 70
     1
102
RTVSPropertyOp29
 70
     1
102
RTVSPropertyOp30
 70
     1
102
RTVSPropertyOp31
 70
     1
102
RTVSPropertyOp32
 70
     1
102
RTVSPropertyOp33
 70
     1
102
RTVSPropertyOp34
 70
     1
102
RTVSPropertyOp35
 70
     1
102
RTVSPropertyOp36
 70
     1
102
RTVSPropertyOp37
 70
     1
102
RTVSPropertyOp38
 70
     1
102
RTVSPropertyOp39
 70
     1
102
RTVSPropertyOp40
 70
     1
102
RTVSPropertyOp41
 70
     1
102
RTVSPropertyOp42
 70
     1
102
RTVSPropertyOp43
 70
     1
102
RTVSPropertyOp44
 70
     1
102
RTVSPropertyOp45
 70
     1
102
RTVSPropertyOp46
 70
     1
102
RTVSPropertyOp47
 70
     1
102
RTVSPropertyOp48
 70
     1
102
RTVSPropertyOp49
 70
     1
102
RTVSPropertyOp50
 70
     1
102
RTVSPropertyOp51
 70
     0
102
RTVSPropertyOp52
 70
     0
102
RTVSPropertyOp53
 70
     1
102
RTVSPropertyOp54
 70
     1
102
RTVSPropertyOp55
 70
     1
102
RTVSPropertyOp56
 70
     1
102
RTVSPropertyOp57
 70
     1
102
RTVSPost2010Prop28
280
     0
102
RTVSPost2010PropOp28
 70
     1
102
RTVSPost2010Prop29
280
     1
102
RTVSPost2010PropOp29
 70
     1
102
RTVSPost2010Prop30
280
     1
102
RTVSPost2010PropOp30
 70
     1
102
RTVSPost2010Prop31
280
     0
102
RTVSPost2010PropOp31
 70
     1
102
RTVSPost2010Prop32
280
     0
102
RTVSPost2010PropOp32
 70
     1
102
RTVSPost2010Prop33
280
     0
102
RTVSPost2010PropOp33
 70
     1
102
RTVSPost2010Prop34
280
     0
102
RTVSPost2010PropOp34
 70
     1
102
RTVSPost2010Prop35
280
     0
102
RTVSPost2010PropOp35
 70
     1
102
RTVSPost2010Prop36
280
     0
102
RTVSPost2010PropOp36
 70
     1
102
RTVSPost2010Prop37
 90
       50
102
RTVSPost2010PropOp37
 70
     1
102
RTVSPost2010Prop38
140
0.0
102
RTVSPost2010PropOp38
 70
     1
102
RTVSPost2010Prop39
140
1.0
102
RTVSPost2010PropOp39
 70
     1
102
RTVSPost2010Prop40
 90
        0
102
RTVSPost2010PropOp40
 70
     1
102
RTVSPost2010Prop41ColorIndex
 90
       18
102
RTVSPost2010Prop41ColorRGB
 90
        0
102
RTVSPost2010PropOp41
 70
     1
102
RTVSPost2010Prop42
 90
       50
102
RTVSPost2010PropOp42
 70
     1
102
RTVSPost2010Prop43
 90
        3
102
RTVSPost2010PropOp43
 70
     1
102
RTVSPost2010Prop44ColorIndex
 90
        5
102
RTVSPost2010Prop44ColorRGB
 90
      255
102
RTVSPost2010PropOp44
 70
     1
102
RTVSPost2010Prop45
280
     0
102
RTVSPost2010PropOp45
 70
     1
102
RTVSPost2010Prop46
 90
       50
102
RTVSPost2010PropOp46
 70
     1
102
RTVSPost2010Prop47
 90
       50
102
RTVSPost2010PropOp47
 70
     1
102
RTVSPost2010Prop48
 90
       50
102
RTVSPost2010PropOp48
 70
     1
102
RTVSPost2010Prop49
280
     0
102
RTVSPost2010PropOp49
 70
     1
102
RTVSPost2010Prop50
 90
       50
102
RTVSPost2010PropOp50
 70
     1
102
RTVSPost2010Prop51ColorIndex
 90
      256
102
RTVSPost2010Prop51ColorRGB
 90
-16777216
102
RTVSPost2010PropOp51
 70
     0
102
RTVSPost2010Prop52
140
1.0
102
RTVSPost2010PropOp52
 70
     0
102
RTVSPost2010Prop53
 90
        2
102
RTVSPost2010PropOp53
 70
     1
102
RTVSPost2010Prop54
  1
strokes_ogs.tif
102
RTVSPost2010PropOp54
 70
     1
102
RTVSPost2010Prop55
280
     0
102
RTVSPost2010PropOp55
 70
     1
102
RTVSPost2010Prop56
140
1.0
102
RTVSPost2010PropOp56
 70
     1
102
RTVSPost2010Prop57
140
1.0
102
RTVSPost2010PropOp57
 70
     1
  0
XRECORD
  5
D6
102
{ACAD_REACTORS
330
D5
102
}
330
D5
100
AcDbXrecord
280
     1
102
RTVSPropertyOp0
 70
     1
102
RTVSPropertyOp1
 70
     1
102
RTVSPropertyOp2
 70
     1
102
RTVSPropertyOp3
 70
     1
102
RTVSPropertyOp4
 70
     1
102
RTVSPropertyOp5
 70
     1
102
RTVSPropertyOp6
 70
     1
102
RTVSPropertyOp7
 70
     1
102
RTVSPropertyOp8
 70
     1
102
RTVSPropertyOp9
 70
     1
102
RTVSPropertyOp10
 70
     1
102
RTVSPropertyOp11
 70
     1
102
RTVSPropertyOp12
 70
     1
102
RTVSPropertyOp13
 70
     1
102
RTVSPropertyOp14
 70
     1
102
RTVSPropertyOp15
 70
     1
102
RTVSPropertyOp16
 70
     1
102
RTVSPropertyOp17
 70
     1
102
RTVSPropertyOp18
 70
     1
102
RTVSPropertyOp19
 70
     1
102
RTVSPropertyOp20
 70
     1
102
RTVSPropertyOp21
 70
     1
102
RTVSPropertyOp22
 70
     1
102
RTVSPropertyOp23
 70
     1
102
RTVSPropertyOp24
 70
     1
102
RTVSPropertyOp25
 70
     1
102
RTVSPropertyOp26
 70
     1
102
RTVSPropertyOp27
 70
     1
102
RTVSPropertyOp28
 70
     1
102
RTVSPropertyOp29
 70
     1
102
RTVSPropertyOp30
 70
     1
102
RTVSPropertyOp31
 70
     1
102
RTVSPropertyOp32
 70
     1
102
RTVSPropertyOp33
 70
     1
102
RTVSPropertyOp34
 70
     1
102
RTVSPropertyOp35
 70
     1
102
RTVSPropertyOp36
 70
     1
102
RTVSPropertyOp37
 70
     1
102
RTVSPropertyOp38
 70
     1
102
RTVSPropertyOp39
 70
     1
102
RTVSPropertyOp40
 70
     1
102
RTVSPropertyOp41
 70
     1
102
RTVSPropertyOp42
 70
     1
102
RTVSPropertyOp43
 70
     1
102
RTVSPropertyOp44
 70
     1
102
RTVSPropertyOp45
 70
     1
102
RTVSPropertyOp46
 70
     1
102
RTVSPropertyOp47
 70
     1
102
RTVSPropertyOp48
 70
     1
102
RTVSPropertyOp49
 70
     1
102
RTVSPropertyOp50
 70
     1
102
RTVSPropertyOp51
 70
     0
102
RTVSPropertyOp52
 70
     0
102
RTVSPropertyOp53
 70
     1
102
RTVSPropertyOp54
 70
     1
102
RTVSPropertyOp55
 70
     1
102
RTVSPropertyOp56
 70
     1
102
RTVSPropertyOp57
 70
     1
102
RTVSPost2010Prop28
280
     0
102
RTVSPost2010PropOp28
 70
     1
102
RTVSPost2010Prop29
280
     1
102
RTVSPost2010PropOp29
 70
     1
102
RTVSPost2010Prop30
280
     1
102
RTVSPost2010PropOp30
 70
     1
102
RTVSPost2010Prop31
280
     0
102
RTVSPost2010PropOp31
 70
     1
102
RTVSPost2010Prop32
280
     0
102
RTVSPost2010PropOp32
 70
     1
102
RTVSPost2010Prop33
280
     0
102
RTVSPost2010PropOp33
 70
     1
102
RTVSPost2010Prop34
280
     0
102
RTVSPost2010PropOp34
 70
     1
102
RTVSPost2010Prop35
280
     0
102
RTVSPost2010PropOp35
 70
     1
102
RTVSPost2010Prop36
280
     0
102
RTVSPost2010PropOp36
 70
     1
102
RTVSPost2010Prop37
 90
       50
102
RTVSPost2010PropOp37
 70
     1
102
RTVSPost2010Prop38
140
0.0
102
RTVSPost2010PropOp38
 70
     1
102
RTVSPost2010Prop39
140
1.0
102
RTVSPost2010PropOp39
 70
     1
102
RTVSPost2010Prop40
 90
        0
102
RTVSPost2010PropOp40
 70
     1
102
RTVSPost2010Prop41ColorIndex
 90
       18
102
RTVSPost2010Prop41ColorRGB
 90
        0
102
RTVSPost2010PropOp41
 70
     1
102
RTVSPost2010Prop42
 90
       50
102
RTVSPost2010PropOp42
 70
     1
102
RTVSPost2010Prop43
 90
        3
102
RTVSPost2010PropOp43
 70
     1
102
RTVSPost2010Prop44ColorIndex
 90
        5
102
RTVSPost2010Prop44ColorRGB
 90
      255
102
RTVSPost2010PropOp44
 70
     1
102
RTVSPost2010Prop45
280
     0
102
RTVSPost2010PropOp45
 70
     1
102
RTVSPost2010Prop46
 90
       50
102
RTVSPost2010PropOp46
 70
     1
102
RTVSPost2010Prop47
 90
       50
102
RTVSPost2010PropOp47
 70
     1
102
RTVSPost2010Prop48
 90
       50
102
RTVSPost2010PropOp48
 70
     1
102
RTVSPost2010Prop49
280
     0
102
RTVSPost2010PropOp49
 70
     1
102
RTVSPost2010Prop50
 90
       50
102
RTVSPost2010PropOp50
 70
     1
102
RTVSPost2010Prop51ColorIndex
 90
      256
102
RTVSPost2010Prop51ColorRGB
 90
-16777216
102
RTVSPost2010PropOp51
 70
     0
102
RTVSPost2010Prop52
140
1.0
102
RTVSPost2010PropOp52
 70
     0
102
RTVSPost2010Prop53
 90
        2
102
RTVSPost2010PropOp53
 70
     1
102
RTVSPost2010Prop54
  1
strokes_ogs.tif
102
RTVSPost2010PropOp54
 70
     1
102
RTVSPost2010Prop55
280
     0
102
RTVSPost2010PropOp55
 70
     1
102
RTVSPost2010Prop56
140
1.0
102
RTVSPost2010PropOp56
 70
     1
102
RTVSPost2010Prop57
140
1.0
102
RTVSPost2010PropOp57
 70
     1
  0
XRECORD
  5
D8
102
{ACAD_REACTORS
330
D7
102
}
330
D7
100
AcDbXrecord
280
     1
102
RTVSPropertyOp0
 70
     1
102
RTVSPropertyOp1
 70
     1
102
RTVSPropertyOp2
 70
     1
102
RTVSPropertyOp3
 70
     1
102
RTVSPropertyOp4
 70
     1
102
RTVSPropertyOp5
 70
     1
102
RTVSPropertyOp6
 70
     1
102
RTVSPropertyOp7
 70
     1
102
RTVSPropertyOp8
 70
     1
102
RTVSPropertyOp9
 70
     1
102
RTVSPropertyOp10
 70
     1
102
RTVSPropertyOp11
 70
     1
102
RTVSPropertyOp12
 70
     1
102
RTVSPropertyOp13
 70
     1
102
RTVSPropertyOp14
 70
     1
102
RTVSPropertyOp15
 70
     1
102
RTVSPropertyOp16
 70
     1
102
RTVSPropertyOp17
 70
     1
102
RTVSPropertyOp18
 70
     1
102
RTVSPropertyOp19
 70
     1
102
RTVSPropertyOp20
 70
     1
102
RTVSPropertyOp21
 70
     1
102
RTVSPropertyOp22
 70
     1
102
RTVSPropertyOp23
 70
     1
102
RTVSPropertyOp24
 70
     1
102
RTVSPropertyOp25
 70
     1
102
RTVSPropertyOp26
 70
     1
102
RTVSPropertyOp27
 70
     1
102
RTVSPropertyOp28
 70
     1
102
RTVSPropertyOp29
 70
     1
102
RTVSPropertyOp30
 70
     1
102
RTVSPropertyOp31
 70
     1
102
RTVSPropertyOp32
 70
     1
102
RTVSPropertyOp33
 70
     1
102
RTVSPropertyOp34
 70
     1
102
RTVSPropertyOp35
 70
     1
102
RTVSPropertyOp36
 70
     1
102
RTVSPropertyOp37
 70
     1
102
RTVSPropertyOp38
 70
     1
102
RTVSPropertyOp39
 70
     1
102
RTVSPropertyOp40
 70
     1
102
RTVSPropertyOp41
 70
     1
102
RTVSPropertyOp42
 70
     1
102
RTVSPropertyOp43
 70
     1
102
RTVSPropertyOp44
 70
     1
102
RTVSPropertyOp45
 70
     1
102
RTVSPropertyOp46
 70
     1
102
RTVSPropertyOp47
 70
     1
102
RTVSPropertyOp48
 70
     1
102
RTVSPropertyOp49
 70
     1
102
RTVSPropertyOp50
 70
     1
102
RTVSPropertyOp51
 70
     0
102
RTVSPropertyOp52
 70
     0
102
RTVSPropertyOp53
 70
     1
102
RTVSPropertyOp54
 70
     1
102
RTVSPropertyOp55
 70
     1
102
RTVSPropertyOp56
 70
     1
102
RTVSPropertyOp57
 70
     1
102
RTVSPost2010Prop28
280
     0
102
RTVSPost2010PropOp28
 70
     1
102
RTVSPost2010Prop29
280
     1
102
RTVSPost2010PropOp29
 70
     1
102
RTVSPost2010Prop30
280
     1
102
RTVSPost2010PropOp30
 70
     1
102
RTVSPost2010Prop31
280
     0
102
RTVSPost2010PropOp31
 70
     1
102
RTVSPost2010Prop32
280
     0
102
RTVSPost2010PropOp32
 70
     1
102
RTVSPost2010Prop33
280
     0
102
RTVSPost2010PropOp33
 70
     1
102
RTVSPost2010Prop34
280
     0
102
RTVSPost2010PropOp34
 70
     1
102
RTVSPost2010Prop35
280
     0
102
RTVSPost2010PropOp35
 70
     1
102
RTVSPost2010Prop36
280
     0
102
RTVSPost2010PropOp36
 70
     1
102
RTVSPost2010Prop37
 90
       50
102
RTVSPost2010PropOp37
 70
     1
102
RTVSPost2010Prop38
140
0.0
102
RTVSPost2010PropOp38
 70
     1
102
RTVSPost2010Prop39
140
1.0
102
RTVSPost2010PropOp39
 70
     1
102
RTVSPost2010Prop40
 90
        0
102
RTVSPost2010PropOp40
 70
     1
102
RTVSPost2010Prop41ColorIndex
 90
       18
102
RTVSPost2010Prop41ColorRGB
 90
        0
102
RTVSPost2010PropOp41
 70
     1
102
RTVSPost2010Prop42
 90
       50
102
RTVSPost2010PropOp42
 70
     1
102
RTVSPost2010Prop43
 90
        3
102
RTVSPost2010PropOp43
 70
     1
102
RTVSPost2010Prop44ColorIndex
 90
        5
102
RTVSPost2010Prop44ColorRGB
 90
      255
102
RTVSPost2010PropOp44
 70
     1
102
RTVSPost2010Prop45
280
     0
102
RTVSPost2010PropOp45
 70
     1
102
RTVSPost2010Prop46
 90
       50
102
RTVSPost2010PropOp46
 70
     1
102
RTVSPost2010Prop47
 90
       50
102
RTVSPost2010PropOp47
 70
     1
102
RTVSPost2010Prop48
 90
       50
102
RTVSPost2010PropOp48
 70
     1
102
RTVSPost2010Prop49
280
     0
102
RTVSPost2010PropOp49
 70
     1
102
RTVSPost2010Prop50
 90
       50
102
RTVSPost2010PropOp50
 70
     1
102
RTVSPost2010Prop51ColorIndex
 90
      256
102
RTVSPost2010Prop51ColorRGB
 90
-16777216
102
RTVSPost2010PropOp51
 70
     0
102
RTVSPost2010Prop52
140
1.0
102
RTVSPost2010PropOp52
 70
     0
102
RTVSPost2010Prop53
 90
        2
102
RTVSPost2010PropOp53
 70
     1
102
RTVSPost2010Prop54
  1
strokes_ogs.tif
102
RTVSPost2010PropOp54
 70
     1
102
RTVSPost2010Prop55
280
     0
102
RTVSPost2010PropOp55
 70
     1
102
RTVSPost2010Prop56
140
1.0
102
RTVSPost2010PropOp56
 70
     1
102
RTVSPost2010Prop57
140
1.0
102
RTVSPost2010PropOp57
 70
     1
  0
XRECORD
  5
E8
102
{ACAD_REACTORS
330
E7
102
}
330
E7
100
AcDbXrecord
280
     1
102
RTVSPropertyOp0
 70
     0
102
RTVSPropertyOp1
 70
     0
102
RTVSPropertyOp2
 70
     0
102
RTVSPropertyOp3
 70
     0
102
RTVSPropertyOp4
 70
     0
102
RTVSPropertyOp5
 70
     0
102
RTVSPropertyOp6
 70
     0
102
RTVSPropertyOp7
 70
     0
102
RTVSPropertyOp8
 70
     0
102
RTVSPropertyOp9
 70
     0
102
RTVSPropertyOp10
 70
     0
102
RTVSPropertyOp11
 70
     0
102
RTVSPropertyOp12
 70
     0
102
RTVSPropertyOp13
 70
     0
102
RTVSPropertyOp14
 70
     2
102
RTVSPropertyOp15
 70
     0
102
RTVSPropertyOp16
 70
     0
102
RTVSPropertyOp17
 70
     0
102
RTVSPropertyOp18
 70
     0
102
RTVSPropertyOp19
 70
     0
102
RTVSPropertyOp20
 70
     0
102
RTVSPropertyOp21
 70
     0
102
RTVSPropertyOp22
 70
     0
102
RTVSPropertyOp23
 70
     0
102
RTVSPropertyOp24
 70
     0
102
RTVSPropertyOp25
 70
     0
102
RTVSPropertyOp26
 70
     0
102
RTVSPropertyOp27
 70
     0
102
RTVSPropertyOp28
 70
     0
102
RTVSPropertyOp29
 70
     0
102
RTVSPropertyOp30
 70
     0
102
RTVSPropertyOp31
 70
     0
102
RTVSPropertyOp32
 70
     0
102
RTVSPropertyOp33
 70
     0
102
RTVSPropertyOp34
 70
     0
102
RTVSPropertyOp35
 70
     0
102
RTVSPropertyOp36
 70
     0
102
RTVSPropertyOp37
 70
     0
102
RTVSPropertyOp38
 70
     0
102
RTVSPropertyOp39
 70
     0
102
RTVSPropertyOp40
 70
     0
102
RTVSPropertyOp41
 70
     0
102
RTVSPropertyOp42
 70
     0
102
RTVSPropertyOp43
 70
     0
102
RTVSPropertyOp44
 70
     0
102
RTVSPropertyOp45
 70
     0
102
RTVSPropertyOp46
 70
     0
102
RTVSPropertyOp47
 70
     0
102
RTVSPropertyOp48
 70
     0
102
RTVSPropertyOp49
 70
     0
102
RTVSPropertyOp50
 70
     0
102
RTVSPropertyOp51
 70
     0
102
RTVSPropertyOp52
 70
     0
102
RTVSPropertyOp53
 70
     0
102
RTVSPropertyOp54
 70
     0
102
RTVSPropertyOp55
 70
     0
102
RTVSPropertyOp56
 70
     0
102
RTVSPropertyOp57
 70
     0
102
RTVSPost2010Prop28
280
     0
102
RTVSPost2010PropOp28
 70
     0
102
RTVSPost2010Prop29
280
     1
102
RTVSPost2010PropOp29
 70
     0
102
RTVSPost2010Prop30
280
     1
102
RTVSPost2010PropOp30
 70
     0
102
RTVSPost2010Prop31
280
     0
102
RTVSPost2010PropOp31
 70
     0
102
RTVSPost2010Prop32
280
     0
102
RTVSPost2010PropOp32
 70
     0
102
RTVSPost2010Prop33
280
     0
102
RTVSPost2010PropOp33
 70
     0
102
RTVSPost2010Prop34
280
     0
102
RTVSPost2010PropOp34
 70
     0
102
RTVSPost2010Prop35
280
     0
102
RTVSPost2010PropOp35
 70
     0
102
RTVSPost2010Prop36
280
     0
102
RTVSPost2010PropOp36
 70
     0
102
RTVSPost2010Prop37
 90
       50
102
RTVSPost2010PropOp37
 70
     0
102
RTVSPost2010Prop38
140
0.0
102
RTVSPost2010PropOp38
 70
     0
102
RTVSPost2010Prop39
140
1.0
102
RTVSPost2010PropOp39
 70
     0
102
RTVSPost2010Prop40
 90
        0
102
RTVSPost2010PropOp40
 70
     0
102
RTVSPost2010Prop41ColorIndex
 90
       18
102
RTVSPost2010Prop41ColorRGB
 90
        0
102
RTVSPost2010PropOp41
 70
     0
102
RTVSPost2010Prop42
 90
       50
102
RTVSPost2010PropOp42
 70
     0
102
RTVSPost2010Prop43
 90
        3
102
RTVSPost2010PropOp43
 70
     0
102
RTVSPost2010Prop44ColorIndex
 90
        5
102
RTVSPost2010Prop44ColorRGB
 90
      255
102
RTVSPost2010PropOp44
 70
     0
102
RTVSPost2010Prop45
280
     0
102
RTVSPost2010PropOp45
 70
     0
102
RTVSPost2010Prop46
 90
       50
102
RTVSPost2010PropOp46
 70
     0
102
RTVSPost2010Prop47
 90
       50
102
RTVSPost2010PropOp47
 70
     0
102
RTVSPost2010Prop48
 90
       50
102
RTVSPost2010PropOp48
 70
     0
102
RTVSPost2010Prop49
280
     0
102
RTVSPost2010PropOp49
 70
     0
102
RTVSPost2010Prop50
 90
       50
102
RTVSPost2010PropOp50
 70
     0
102
RTVSPost2010Prop51ColorIndex
 90
      256
102
RTVSPost2010Prop51ColorRGB
 90
-16777216
102
RTVSPost2010PropOp51
 70
     0
102
RTVSPost2010Prop52
140
1.0
102
RTVSPost2010PropOp52
 70
     0
102
RTVSPost2010Prop53
 90
        2
102
RTVSPost2010PropOp53
 70
     0
102
RTVSPost2010Prop54
  1
strokes_ogs.tif
102
RTVSPost2010PropOp54
 70
     0
102
RTVSPost2010Prop55
280
     0
102
RTVSPost2010PropOp55
 70
     0
102
RTVSPost2010Prop56
140
1.0
102
RTVSPost2010PropOp56
 70
     0
102
RTVSPost2010Prop57
140
1.0
102
RTVSPost2010PropOp57
 70
     0
  0
XRECORD
  5
E0
102
{ACAD_REACTORS
330
DF
102
}
330
DF
100
AcDbXrecord
280
     1
102
RTVSPropertyOp0
 70
     1
102
RTVSPropertyOp1
 70
     1
102
RTVSPropertyOp2
 70
     1
102
RTVSPropertyOp3
 70
     1
102
RTVSPropertyOp4
 70
     1
102
RTVSPropertyOp5
 70
     1
102
RTVSPropertyOp6
 70
     1
102
RTVSPropertyOp7
 70
     1
102
RTVSPropertyOp8
 70
     1
102
RTVSPropertyOp9
 70
     1
102
RTVSPropertyOp10
 70
     1
102
RTVSPropertyOp11
 70
     1
102
RTVSPropertyOp12
 70
     1
102
RTVSPropertyOp13
 70
     1
102
RTVSPropertyOp14
 70
     1
102
RTVSPropertyOp15
 70
     1
102
RTVSPropertyOp16
 70
     1
102
RTVSPropertyOp17
 70
     1
102
RTVSPropertyOp18
 70
     1
102
RTVSPropertyOp19
 70
     1
102
RTVSPropertyOp20
 70
     1
102
RTVSPropertyOp21
 70
     1
102
RTVSPropertyOp22
 70
     1
102
RTVSPropertyOp23
 70
     1
102
RTVSPropertyOp24
 70
     1
102
RTVSPropertyOp25
 70
     1
102
RTVSPropertyOp26
 70
     1
102
RTVSPropertyOp27
 70
     1
102
RTVSPropertyOp28
 70
     1
102
RTVSPropertyOp29
 70
     1
102
RTVSPropertyOp30
 70
     1
102
RTVSPropertyOp31
 70
     1
102
RTVSPropertyOp32
 70
     1
102
RTVSPropertyOp33
 70
     1
102
RTVSPropertyOp34
 70
     1
102
RTVSPropertyOp35
 70
     1
102
RTVSPropertyOp36
 70
     1
102
RTVSPropertyOp37
 70
     1
102
RTVSPropertyOp38
 70
     1
102
RTVSPropertyOp39
 70
     1
102
RTVSPropertyOp40
 70
     1
102
RTVSPropertyOp41
 70
     1
102
RTVSPropertyOp42
 70
     1
102
RTVSPropertyOp43
 70
     1
102
RTVSPropertyOp44
 70
     1
102
RTVSPropertyOp45
 70
     1
102
RTVSPropertyOp46
 70
     1
102
RTVSPropertyOp47
 70
     1
102
RTVSPropertyOp48
 70
     1
102
RTVSPropertyOp49
 70
     1
102
RTVSPropertyOp50
 70
     1
102
RTVSPropertyOp51
 70
     0
102
RTVSPropertyOp52
 70
     0
102
RTVSPropertyOp53
 70
     1
102
RTVSPropertyOp54
 70
     1
102
RTVSPropertyOp55
 70
     1
102
RTVSPropertyOp56
 70
     1
102
RTVSPropertyOp57
 70
     1
102
RTVSPost2010Prop28
280
     0
102
RTVSPost2010PropOp28
 70
     1
102
RTVSPost2010Prop29
280
     1
102
RTVSPost2010PropOp29
 70
     1
102
RTVSPost2010Prop30
280
     1
102
RTVSPost2010PropOp30
 70
     1
102
RTVSPost2010Prop31
280
     0
102
RTVSPost2010PropOp31
 70
     1
102
RTVSPost2010Prop32
280
     0
102
RTVSPost2010PropOp32
 70
     1
102
RTVSPost2010Prop33
280
     0
102
RTVSPost2010PropOp33
 70
     1
102
RTVSPost2010Prop34
280
     0
102
RTVSPost2010PropOp34
 70
     1
102
RTVSPost2010Prop35
280
     0
102
RTVSPost2010PropOp35
 70
     1
102
RTVSPost2010Prop36
280
     0
102
RTVSPost2010PropOp36
 70
     1
102
RTVSPost2010Prop37
 90
       50
102
RTVSPost2010PropOp37
 70
     1
102
RTVSPost2010Prop38
140
0.0
102
RTVSPost2010PropOp38
 70
     1
102
RTVSPost2010Prop39
140
1.0
102
RTVSPost2010PropOp39
 70
     1
102
RTVSPost2010Prop40
 90
        0
102
RTVSPost2010PropOp40
 70
     1
102
RTVSPost2010Prop41ColorIndex
 90
       18
102
RTVSPost2010Prop41ColorRGB
 90
        0
102
RTVSPost2010PropOp41
 70
     1
102
RTVSPost2010Prop42
 90
       50
102
RTVSPost2010PropOp42
 70
     1
102
RTVSPost2010Prop43
 90
        3
102
RTVSPost2010PropOp43
 70
     1
102
RTVSPost2010Prop44ColorIndex
 90
        5
102
RTVSPost2010Prop44ColorRGB
 90
      255
102
RTVSPost2010PropOp44
 70
     1
102
RTVSPost2010Prop45
280
     0
102
RTVSPost2010PropOp45
 70
     1
102
RTVSPost2010Prop46
 90
       50
102
RTVSPost2010PropOp46
 70
     1
102
RTVSPost2010Prop47
 90
       50
102
RTVSPost2010PropOp47
 70
     1
102
RTVSPost2010Prop48
 90
       50
102
RTVSPost2010PropOp48
 70
     1
102
RTVSPost2010Prop49
280
     0
102
RTVSPost2010PropOp49
 70
     1
102
RTVSPost2010Prop50
 90
       50
102
RTVSPost2010PropOp50
 70
     1
102
RTVSPost2010Prop51ColorIndex
 90
      256
102
RTVSPost2010Prop51ColorRGB
 90
-16777216
102
RTVSPost2010PropOp51
 70
     0
102
RTVSPost2010Prop52
140
1.0
102
RTVSPost2010PropOp52
 70
     0
102
RTVSPost2010Prop53
 90
        2
102
RTVSPost2010PropOp53
 70
     1
102
RTVSPost2010Prop54
  1
strokes_ogs.tif
102
RTVSPost2010PropOp54
 70
     1
102
RTVSPost2010Prop55
280
     0
102
RTVSPost2010PropOp55
 70
     1
102
RTVSPost2010Prop56
140
1.0
102
RTVSPost2010PropOp56
 70
     1
102
RTVSPost2010Prop57
140
1.0
102
RTVSPost2010PropOp57
 70
     1
  0
XRECORD
  5
C4
102
{ACAD_REACTORS
330
C3
102
}
330
C3
100
AcDbXrecord
280
     1
102
RTVSPropertyOp0
 70
     1
102
RTVSPropertyOp1
 70
     1
102
RTVSPropertyOp2
 70
     1
102
RTVSPropertyOp3
 70
     1
102
RTVSPropertyOp4
 70
     1
102
RTVSPropertyOp5
 70
     1
102
RTVSPropertyOp6
 70
     1
102
RTVSPropertyOp7
 70
     1
102
RTVSPropertyOp8
 70
     1
102
RTVSPropertyOp9
 70
     1
102
RTVSPropertyOp10
 70
     1
102
RTVSPropertyOp11
 70
     1
102
RTVSPropertyOp12
 70
     1
102
RTVSPropertyOp13
 70
     1
102
RTVSPropertyOp14
 70
     1
102
RTVSPropertyOp15
 70
     1
102
RTVSPropertyOp16
 70
     1
102
RTVSPropertyOp17
 70
     1
102
RTVSPropertyOp18
 70
     1
102
RTVSPropertyOp19
 70
     1
102
RTVSPropertyOp20
 70
     1
102
RTVSPropertyOp21
 70
     1
102
RTVSPropertyOp22
 70
     1
102
RTVSPropertyOp23
 70
     1
102
RTVSPropertyOp24
 70
     1
102
RTVSPropertyOp25
 70
     1
102
RTVSPropertyOp26
 70
     1
102
RTVSPropertyOp27
 70
     1
102
RTVSPropertyOp28
 70
     1
102
RTVSPropertyOp29
 70
     1
102
RTVSPropertyOp30
 70
     1
102
RTVSPropertyOp31
 70
     1
102
RTVSPropertyOp32
 70
     1
102
RTVSPropertyOp33
 70
     1
102
RTVSPropertyOp34
 70
     1
102
RTVSPropertyOp35
 70
     1
102
RTVSPropertyOp36
 70
     1
102
RTVSPropertyOp37
 70
     1
102
RTVSPropertyOp38
 70
     1
102
RTVSPropertyOp39
 70
     1
102
RTVSPropertyOp40
 70
     1
102
RTVSPropertyOp41
 70
     1
102
RTVSPropertyOp42
 70
     1
102
RTVSPropertyOp43
 70
     1
102
RTVSPropertyOp44
 70
     1
102
RTVSPropertyOp45
 70
     1
102
RTVSPropertyOp46
 70
     1
102
RTVSPropertyOp47
 70
     1
102
RTVSPropertyOp48
 70
     1
102
RTVSPropertyOp49
 70
     1
102
RTVSPropertyOp50
 70
     1
102
RTVSPropertyOp51
 70
     0
102
RTVSPropertyOp52
 70
     0
102
RTVSPropertyOp53
 70
     1
102
RTVSPropertyOp54
 70
     1
102
RTVSPropertyOp55
 70
     1
102
RTVSPropertyOp56
 70
     1
102
RTVSPropertyOp57
 70
     1
102
RTVSPost2010Prop28
280
     0
102
RTVSPost2010PropOp28
 70
     1
102
RTVSPost2010Prop29
280
     1
102
RTVSPost2010PropOp29
 70
     1
102
RTVSPost2010Prop30
280
     1
102
RTVSPost2010PropOp30
 70
     1
102
RTVSPost2010Prop31
280
     0
102
RTVSPost2010PropOp31
 70
     1
102
RTVSPost2010Prop32
280
     0
102
RTVSPost2010PropOp32
 70
     1
102
RTVSPost2010Prop33
280
     0
102
RTVSPost2010PropOp33
 70
     1
102
RTVSPost2010Prop34
280
     0
102
RTVSPost2010PropOp34
 70
     1
102
RTVSPost2010Prop35
280
     0
102
RTVSPost2010PropOp35
 70
     1
102
RTVSPost2010Prop36
280
     0
102
RTVSPost2010PropOp36
 70
     1
102
RTVSPost2010Prop37
 90
       50
102
RTVSPost2010PropOp37
 70
     1
102
RTVSPost2010Prop38
140
0.0
102
RTVSPost2010PropOp38
 70
     1
102
RTVSPost2010Prop39
140
1.0
102
RTVSPost2010PropOp39
 70
     1
102
RTVSPost2010Prop40
 90
        0
102
RTVSPost2010PropOp40
 70
     1
102
RTVSPost2010Prop41ColorIndex
 90
       18
102
RTVSPost2010Prop41ColorRGB
 90
        0
102
RTVSPost2010PropOp41
 70
     1
102
RTVSPost2010Prop42
 90
       50
102
RTVSPost2010PropOp42
 70
     1
102
RTVSPost2010Prop43
 90
        3
102
RTVSPost2010PropOp43
 70
     1
102
RTVSPost2010Prop44ColorIndex
 90
        5
102
RTVSPost2010Prop44ColorRGB
 90
      255
102
RTVSPost2010PropOp44
 70
     1
102
RTVSPost2010Prop45
280
     0
102
RTVSPost2010PropOp45
 70
     1
102
RTVSPost2010Prop46
 90
       50
102
RTVSPost2010PropOp46
 70
     1
102
RTVSPost2010Prop47
 90
       50
102
RTVSPost2010PropOp47
 70
     1
102
RTVSPost2010Prop48
 90
       50
102
RTVSPost2010PropOp48
 70
     1
102
RTVSPost2010Prop49
280
     0
102
RTVSPost2010PropOp49
 70
     1
102
RTVSPost2010Prop50
 90
       50
102
RTVSPost2010PropOp50
 70
     1
102
RTVSPost2010Prop51ColorIndex
 90
      256
102
RTVSPost2010Prop51ColorRGB
 90
-16777216
102
RTVSPost2010PropOp51
 70
     0
102
RTVSPost2010Prop52
140
1.0
102
RTVSPost2010PropOp52
 70
     0
102
RTVSPost2010Prop53
 90
        2
102
RTVSPost2010PropOp53
 70
     1
102
RTVSPost2010Prop54
  1
strokes_ogs.tif
102
RTVSPost2010PropOp54
 70
     1
102
RTVSPost2010Prop55
280
     0
102
RTVSPost2010PropOp55
 70
     1
102
RTVSPost2010Prop56
140
1.0
102
RTVSPost2010PropOp56
 70
     1
102
RTVSPost2010Prop57
140
1.0
102
RTVSPost2010PropOp57
 70
     1
  0
XRECORD
  5
C6
102
{ACAD_REACTORS
330
C5
102
}
330
C5
100
AcDbXrecord
280
     1
102
RTVSPropertyOp0
 70
     1
102
RTVSPropertyOp1
 70
     1
102
RTVSPropertyOp2
 70
     1
102
RTVSPropertyOp3
 70
     1
102
RTVSPropertyOp4
 70
     1
102
RTVSPropertyOp5
 70
     1
102
RTVSPropertyOp6
 70
     1
102
RTVSPropertyOp7
 70
     1
102
RTVSPropertyOp8
 70
     1
102
RTVSPropertyOp9
 70
     1
102
RTVSPropertyOp10
 70
     1
102
RTVSPropertyOp11
 70
     1
102
RTVSPropertyOp12
 70
     1
102
RTVSPropertyOp13
 70
     1
102
RTVSPropertyOp14
 70
     1
102
RTVSPropertyOp15
 70
     1
102
RTVSPropertyOp16
 70
     1
102
RTVSPropertyOp17
 70
     1
102
RTVSPropertyOp18
 70
     1
102
RTVSPropertyOp19
 70
     1
102
RTVSPropertyOp20
 70
     1
102
RTVSPropertyOp21
 70
     1
102
RTVSPropertyOp22
 70
     1
102
RTVSPropertyOp23
 70
     1
102
RTVSPropertyOp24
 70
     1
102
RTVSPropertyOp25
 70
     1
102
RTVSPropertyOp26
 70
     1
102
RTVSPropertyOp27
 70
     1
102
RTVSPropertyOp28
 70
     1
102
RTVSPropertyOp29
 70
     1
102
RTVSPropertyOp30
 70
     1
102
RTVSPropertyOp31
 70
     1
102
RTVSPropertyOp32
 70
     1
102
RTVSPropertyOp33
 70
     1
102
RTVSPropertyOp34
 70
     1
102
RTVSPropertyOp35
 70
     1
102
RTVSPropertyOp36
 70
     1
102
RTVSPropertyOp37
 70
     1
102
RTVSPropertyOp38
 70
     1
102
RTVSPropertyOp39
 70
     1
102
RTVSPropertyOp40
 70
     1
102
RTVSPropertyOp41
 70
     1
102
RTVSPropertyOp42
 70
     1
102
RTVSPropertyOp43
 70
     1
102
RTVSPropertyOp44
 70
     1
102
RTVSPropertyOp45
 70
     1
102
RTVSPropertyOp46
 70
     1
102
RTVSPropertyOp47
 70
     1
102
RTVSPropertyOp48
 70
     1
102
RTVSPropertyOp49
 70
     1
102
RTVSPropertyOp50
 70
     1
102
RTVSPropertyOp51
 70
     0
102
RTVSPropertyOp52
 70
     0
102
RTVSPropertyOp53
 70
     1
102
RTVSPropertyOp54
 70
     1
102
RTVSPropertyOp55
 70
     1
102
RTVSPropertyOp56
 70
     1
102
RTVSPropertyOp57
 70
     1
102
RTVSPost2010Prop28
280
     0
102
RTVSPost2010PropOp28
 70
     1
102
RTVSPost2010Prop29
280
     1
102
RTVSPost2010PropOp29
 70
     1
102
RTVSPost2010Prop30
280
     1
102
RTVSPost2010PropOp30
 70
     1
102
RTVSPost2010Prop31
280
     0
102
RTVSPost2010PropOp31
 70
     1
102
RTVSPost2010Prop32
280
     0
102
RTVSPost2010PropOp32
 70
     1
102
RTVSPost2010Prop33
280
     0
102
RTVSPost2010PropOp33
 70
     1
102
RTVSPost2010Prop34
280
     0
102
RTVSPost2010PropOp34
 70
     1
102
RTVSPost2010Prop35
280
     0
102
RTVSPost2010PropOp35
 70
     1
102
RTVSPost2010Prop36
280
     0
102
RTVSPost2010PropOp36
 70
     1
102
RTVSPost2010Prop37
 90
       50
102
RTVSPost2010PropOp37
 70
     1
102
RTVSPost2010Prop38
140
0.0
102
RTVSPost2010PropOp38
 70
     1
102
RTVSPost2010Prop39
140
1.0
102
RTVSPost2010PropOp39
 70
     1
102
RTVSPost2010Prop40
 90
        0
102
RTVSPost2010PropOp40
 70
     1
102
RTVSPost2010Prop41ColorIndex
 90
       18
102
RTVSPost2010Prop41ColorRGB
 90
        0
102
RTVSPost2010PropOp41
 70
     1
102
RTVSPost2010Prop42
 90
       50
102
RTVSPost2010PropOp42
 70
     1
102
RTVSPost2010Prop43
 90
        3
102
RTVSPost2010PropOp43
 70
     1
102
RTVSPost2010Prop44ColorIndex
 90
        5
102
RTVSPost2010Prop44ColorRGB
 90
      255
102
RTVSPost2010PropOp44
 70
     1
102
RTVSPost2010Prop45
280
     0
102
RTVSPost2010PropOp45
 70
     1
102
RTVSPost2010Prop46
 90
       50
102
RTVSPost2010PropOp46
 70
     1
102
RTVSPost2010Prop47
 90
       50
102
RTVSPost2010PropOp47
 70
     1
102
RTVSPost2010Prop48
 90
       50
102
RTVSPost2010PropOp48
 70
     1
102
RTVSPost2010Prop49
280
     0
102
RTVSPost2010PropOp49
 70
     1
102
RTVSPost2010Prop50
 90
       50
102
RTVSPost2010PropOp50
 70
     1
102
RTVSPost2010Prop51ColorIndex
 90
      256
102
RTVSPost2010Prop51ColorRGB
 90
-16777216
102
RTVSPost2010PropOp51
 70
     0
102
RTVSPost2010Prop52
140
1.0
102
RTVSPost2010PropOp52
 70
     0
102
RTVSPost2010Prop53
 90
        2
102
RTVSPost2010PropOp53
 70
     1
102
RTVSPost2010Prop54
  1
strokes_ogs.tif
102
RTVSPost2010PropOp54
 70
     1
102
RTVSPost2010Prop55
280
     0
102
RTVSPost2010PropOp55
 70
     1
102
RTVSPost2010Prop56
140
1.0
102
RTVSPost2010PropOp56
 70
     1
102
RTVSPost2010Prop57
140
1.0
102
RTVSPost2010PropOp57
 70
     1
  0
XRECORD
  5
C8
102
{ACAD_REACTORS
330
C7
102
}
330
C7
100
AcDbXrecord
280
     1
102
RTVSPropertyOp0
 70
     1
102
RTVSPropertyOp1
 70
     1
102
RTVSPropertyOp2
 70
     1
102
RTVSPropertyOp3
 70
     1
102
RTVSPropertyOp4
 70
     1
102
RTVSPropertyOp5
 70
     1
102
RTVSPropertyOp6
 70
     1
102
RTVSPropertyOp7
 70
     1
102
RTVSPropertyOp8
 70
     1
102
RTVSPropertyOp9
 70
     1
102
RTVSPropertyOp10
 70
     1
102
RTVSPropertyOp11
 70
     1
102
RTVSPropertyOp12
 70
     1
102
RTVSPropertyOp13
 70
     1
102
RTVSPropertyOp14
 70
     1
102
RTVSPropertyOp15
 70
     1
102
RTVSPropertyOp16
 70
     1
102
RTVSPropertyOp17
 70
     1
102
RTVSPropertyOp18
 70
     1
102
RTVSPropertyOp19
 70
     1
102
RTVSPropertyOp20
 70
     1
102
RTVSPropertyOp21
 70
     1
102
RTVSPropertyOp22
 70
     1
102
RTVSPropertyOp23
 70
     1
102
RTVSPropertyOp24
 70
     1
102
RTVSPropertyOp25
 70
     1
102
RTVSPropertyOp26
 70
     1
102
RTVSPropertyOp27
 70
     1
102
RTVSPropertyOp28
 70
     1
102
RTVSPropertyOp29
 70
     1
102
RTVSPropertyOp30
 70
     1
102
RTVSPropertyOp31
 70
     1
102
RTVSPropertyOp32
 70
     1
102
RTVSPropertyOp33
 70
     1
102
RTVSPropertyOp34
 70
     1
102
RTVSPropertyOp35
 70
     1
102
RTVSPropertyOp36
 70
     1
102
RTVSPropertyOp37
 70
     1
102
RTVSPropertyOp38
 70
     1
102
RTVSPropertyOp39
 70
     1
102
RTVSPropertyOp40
 70
     1
102
RTVSPropertyOp41
 70
     1
102
RTVSPropertyOp42
 70
     1
102
RTVSPropertyOp43
 70
     1
102
RTVSPropertyOp44
 70
     1
102
RTVSPropertyOp45
 70
     1
102
RTVSPropertyOp46
 70
     1
102
RTVSPropertyOp47
 70
     1
102
RTVSPropertyOp48
 70
     1
102
RTVSPropertyOp49
 70
     1
102
RTVSPropertyOp50
 70
     1
102
RTVSPropertyOp51
 70
     0
102
RTVSPropertyOp52
 70
     0
102
RTVSPropertyOp53
 70
     1
102
RTVSPropertyOp54
 70
     1
102
RTVSPropertyOp55
 70
     1
102
RTVSPropertyOp56
 70
     1
102
RTVSPropertyOp57
 70
     1
102
RTVSPost2010Prop28
280
     0
102
RTVSPost2010PropOp28
 70
     1
102
RTVSPost2010Prop29
280
     1
102
RTVSPost2010PropOp29
 70
     1
102
RTVSPost2010Prop30
280
     1
102
RTVSPost2010PropOp30
 70
     1
102
RTVSPost2010Prop31
280
     0
102
RTVSPost2010PropOp31
 70
     1
102
RTVSPost2010Prop32
280
     0
102
RTVSPost2010PropOp32
 70
     1
102
RTVSPost2010Prop33
280
     0
102
RTVSPost2010PropOp33
 70
     1
102
RTVSPost2010Prop34
280
     0
102
RTVSPost2010PropOp34
 70
     1
102
RTVSPost2010Prop35
280
     0
102
RTVSPost2010PropOp35
 70
     1
102
RTVSPost2010Prop36
280
     0
102
RTVSPost2010PropOp36
 70
     1
102
RTVSPost2010Prop37
 90
       50
102
RTVSPost2010PropOp37
 70
     1
102
RTVSPost2010Prop38
140
0.0
102
RTVSPost2010PropOp38
 70
     1
102
RTVSPost2010Prop39
140
1.0
102
RTVSPost2010PropOp39
 70
     1
102
RTVSPost2010Prop40
 90
        0
102
RTVSPost2010PropOp40
 70
     1
102
RTVSPost2010Prop41ColorIndex
 90
       18
102
RTVSPost2010Prop41ColorRGB
 90
        0
102
RTVSPost2010PropOp41
 70
     1
102
RTVSPost2010Prop42
 90
       50
102
RTVSPost2010PropOp42
 70
     1
102
RTVSPost2010Prop43
 90
        3
102
RTVSPost2010PropOp43
 70
     1
102
RTVSPost2010Prop44ColorIndex
 90
        5
102
RTVSPost2010Prop44ColorRGB
 90
      255
102
RTVSPost2010PropOp44
 70
     1
102
RTVSPost2010Prop45
280
     0
102
RTVSPost2010PropOp45
 70
     1
102
RTVSPost2010Prop46
 90
       50
102
RTVSPost2010PropOp46
 70
     1
102
RTVSPost2010Prop47
 90
       50
102
RTVSPost2010PropOp47
 70
     1
102
RTVSPost2010Prop48
 90
       50
102
RTVSPost2010PropOp48
 70
     1
102
RTVSPost2010Prop49
280
     0
102
RTVSPost2010PropOp49
 70
     1
102
RTVSPost2010Prop50
 90
       50
102
RTVSPost2010PropOp50
 70
     1
102
RTVSPost2010Prop51ColorIndex
 90
      256
102
RTVSPost2010Prop51ColorRGB
 90
-16777216
102
RTVSPost2010PropOp51
 70
     0
102
RTVSPost2010Prop52
140
1.0
102
RTVSPost2010PropOp52
 70
     0
102
RTVSPost2010Prop53
 90
        2
102
RTVSPost2010PropOp53
 70
     1
102
RTVSPost2010Prop54
  1
strokes_ogs.tif
102
RTVSPost2010PropOp54
 70
     1
102
RTVSPost2010Prop55
280
     0
102
RTVSPost2010PropOp55
 70
     1
102
RTVSPost2010Prop56
140
1.0
102
RTVSPost2010PropOp56
 70
     1
102
RTVSPost2010Prop57
140
1.0
102
RTVSPost2010PropOp57
 70
     1
  0
XRECORD
  5
CA
102
{ACAD_REACTORS
330
C9
102
}
330
C9
100
AcDbXrecord
280
     1
102
RTVSPropertyOp0
 70
     1
102
RTVSPropertyOp1
 70
     1
102
RTVSPropertyOp2
 70
     1
102
RTVSPropertyOp3
 70
     1
102
RTVSPropertyOp4
 70
     1
102
RTVSPropertyOp5
 70
     1
102
RTVSPropertyOp6
 70
     1
102
RTVSPropertyOp7
 70
     1
102
RTVSPropertyOp8
 70
     1
102
RTVSPropertyOp9
 70
     1
102
RTVSPropertyOp10
 70
     1
102
RTVSPropertyOp11
 70
     1
102
RTVSPropertyOp12
 70
     1
102
RTVSPropertyOp13
 70
     1
102
RTVSPropertyOp14
 70
     1
102
RTVSPropertyOp15
 70
     1
102
RTVSPropertyOp16
 70
     1
102
RTVSPropertyOp17
 70
     1
102
RTVSPropertyOp18
 70
     1
102
RTVSPropertyOp19
 70
     1
102
RTVSPropertyOp20
 70
     1
102
RTVSPropertyOp21
 70
     1
102
RTVSPropertyOp22
 70
     1
102
RTVSPropertyOp23
 70
     1
102
RTVSPropertyOp24
 70
     1
102
RTVSPropertyOp25
 70
     1
102
RTVSPropertyOp26
 70
     1
102
RTVSPropertyOp27
 70
     1
102
RTVSPropertyOp28
 70
     1
102
RTVSPropertyOp29
 70
     1
102
RTVSPropertyOp30
 70
     1
102
RTVSPropertyOp31
 70
     1
102
RTVSPropertyOp32
 70
     1
102
RTVSPropertyOp33
 70
     1
102
RTVSPropertyOp34
 70
     1
102
RTVSPropertyOp35
 70
     1
102
RTVSPropertyOp36
 70
     1
102
RTVSPropertyOp37
 70
     1
102
RTVSPropertyOp38
 70
     1
102
RTVSPropertyOp39
 70
     1
102
RTVSPropertyOp40
 70
     1
102
RTVSPropertyOp41
 70
     1
102
RTVSPropertyOp42
 70
     1
102
RTVSPropertyOp43
 70
     1
102
RTVSPropertyOp44
 70
     1
102
RTVSPropertyOp45
 70
     1
102
RTVSPropertyOp46
 70
     1
102
RTVSPropertyOp47
 70
     1
102
RTVSPropertyOp48
 70
     1
102
RTVSPropertyOp49
 70
     1
102
RTVSPropertyOp50
 70
     1
102
RTVSPropertyOp51
 70
     0
102
RTVSPropertyOp52
 70
     0
102
RTVSPropertyOp53
 70
     1
102
RTVSPropertyOp54
 70
     1
102
RTVSPropertyOp55
 70
     1
102
RTVSPropertyOp56
 70
     1
102
RTVSPropertyOp57
 70
     1
102
RTVSPost2010Prop28
280
     0
102
RTVSPost2010PropOp28
 70
     1
102
RTVSPost2010Prop29
280
     1
102
RTVSPost2010PropOp29
 70
     1
102
RTVSPost2010Prop30
280
     1
102
RTVSPost2010PropOp30
 70
     1
102
RTVSPost2010Prop31
280
     0
102
RTVSPost2010PropOp31
 70
     1
102
RTVSPost2010Prop32
280
     0
102
RTVSPost2010PropOp32
 70
     1
102
RTVSPost2010Prop33
280
     0
102
RTVSPost2010PropOp33
 70
     1
102
RTVSPost2010Prop34
280
     0
102
RTVSPost2010PropOp34
 70
     1
102
RTVSPost2010Prop35
280
     0
102
RTVSPost2010PropOp35
 70
     1
102
RTVSPost2010Prop36
280
     0
102
RTVSPost2010PropOp36
 70
     1
102
RTVSPost2010Prop37
 90
       50
102
RTVSPost2010PropOp37
 70
     1
102
RTVSPost2010Prop38
140
0.0
102
RTVSPost2010PropOp38
 70
     1
102
RTVSPost2010Prop39
140
1.0
102
RTVSPost2010PropOp39
 70
     1
102
RTVSPost2010Prop40
 90
        0
102
RTVSPost2010PropOp40
 70
     1
102
RTVSPost2010Prop41ColorIndex
 90
       18
102
RTVSPost2010Prop41ColorRGB
 90
        0
102
RTVSPost2010PropOp41
 70
     1
102
RTVSPost2010Prop42
 90
       50
102
RTVSPost2010PropOp42
 70
     1
102
RTVSPost2010Prop43
 90
        3
102
RTVSPost2010PropOp43
 70
     1
102
RTVSPost2010Prop44ColorIndex
 90
        5
102
RTVSPost2010Prop44ColorRGB
 90
      255
102
RTVSPost2010PropOp44
 70
     1
102
RTVSPost2010Prop45
280
     0
102
RTVSPost2010PropOp45
 70
     1
102
RTVSPost2010Prop46
 90
       50
102
RTVSPost2010PropOp46
 70
     1
102
RTVSPost2010Prop47
 90
       50
102
RTVSPost2010PropOp47
 70
     1
102
RTVSPost2010Prop48
 90
       50
102
RTVSPost2010PropOp48
 70
     1
102
RTVSPost2010Prop49
280
     0
102
RTVSPost2010PropOp49
 70
     1
102
RTVSPost2010Prop50
 90
       50
102
RTVSPost2010PropOp50
 70
     1
102
RTVSPost2010Prop51ColorIndex
 90
      256
102
RTVSPost2010Prop51ColorRGB
 90
-16777216
102
RTVSPost2010PropOp51
 70
     0
102
RTVSPost2010Prop52
140
1.0
102
RTVSPost2010PropOp52
 70
     0
102
RTVSPost2010Prop53
 90
        2
102
RTVSPost2010PropOp53
 70
     1
102
RTVSPost2010Prop54
  1
strokes_ogs.tif
102
RTVSPost2010PropOp54
 70
     1
102
RTVSPost2010Prop55
280
     0
102
RTVSPost2010PropOp55
 70
     1
102
RTVSPost2010Prop56
140
1.0
102
RTVSPost2010PropOp56
 70
     1
102
RTVSPost2010Prop57
140
1.0
102
RTVSPost2010PropOp57
 70
     1
  0
XRECORD
  5
D0
102
{ACAD_REACTORS
330
CF
102
}
330
CF
100
AcDbXrecord
280
     1
102
RTVSPropertyOp0
 70
     1
102
RTVSPropertyOp1
 70
     1
102
RTVSPropertyOp2
 70
     1
102
RTVSPropertyOp3
 70
     1
102
RTVSPropertyOp4
 70
     1
102
RTVSPropertyOp5
 70
     1
102
RTVSPropertyOp6
 70
     1
102
RTVSPropertyOp7
 70
     1
102
RTVSPropertyOp8
 70
     1
102
RTVSPropertyOp9
 70
     1
102
RTVSPropertyOp10
 70
     1
102
RTVSPropertyOp11
 70
     1
102
RTVSPropertyOp12
 70
     1
102
RTVSPropertyOp13
 70
     1
102
RTVSPropertyOp14
 70
     1
102
RTVSPropertyOp15
 70
     1
102
RTVSPropertyOp16
 70
     1
102
RTVSPropertyOp17
 70
     1
102
RTVSPropertyOp18
 70
     1
102
RTVSPropertyOp19
 70
     1
102
RTVSPropertyOp20
 70
     1
102
RTVSPropertyOp21
 70
     1
102
RTVSPropertyOp22
 70
     1
102
RTVSPropertyOp23
 70
     1
102
RTVSPropertyOp24
 70
     1
102
RTVSPropertyOp25
 70
     1
102
RTVSPropertyOp26
 70
     1
102
RTVSPropertyOp27
 70
     1
102
RTVSPropertyOp28
 70
     1
102
RTVSPropertyOp29
 70
     1
102
RTVSPropertyOp30
 70
     1
102
RTVSPropertyOp31
 70
     1
102
RTVSPropertyOp32
 70
     1
102
RTVSPropertyOp33
 70
     1
102
RTVSPropertyOp34
 70
     1
102
RTVSPropertyOp35
 70
     1
102
RTVSPropertyOp36
 70
     1
102
RTVSPropertyOp37
 70
     1
102
RTVSPropertyOp38
 70
     1
102
RTVSPropertyOp39
 70
     1
102
RTVSPropertyOp40
 70
     1
102
RTVSPropertyOp41
 70
     1
102
RTVSPropertyOp42
 70
     1
102
RTVSPropertyOp43
 70
     1
102
RTVSPropertyOp44
 70
     1
102
RTVSPropertyOp45
 70
     1
102
RTVSPropertyOp46
 70
     1
102
RTVSPropertyOp47
 70
     1
102
RTVSPropertyOp48
 70
     1
102
RTVSPropertyOp49
 70
     1
102
RTVSPropertyOp50
 70
     1
102
RTVSPropertyOp51
 70
     0
102
RTVSPropertyOp52
 70
     0
102
RTVSPropertyOp53
 70
     1
102
RTVSPropertyOp54
 70
     1
102
RTVSPropertyOp55
 70
     1
102
RTVSPropertyOp56
 70
     1
102
RTVSPropertyOp57
 70
     1
102
RTVSPost2010Prop28
280
     0
102
RTVSPost2010PropOp28
 70
     1
102
RTVSPost2010Prop29
280
     1
102
RTVSPost2010PropOp29
 70
     1
102
RTVSPost2010Prop30
280
     1
102
RTVSPost2010PropOp30
 70
     1
102
RTVSPost2010Prop31
280
     0
102
RTVSPost2010PropOp31
 70
     1
102
RTVSPost2010Prop32
280
     0
102
RTVSPost2010PropOp32
 70
     1
102
RTVSPost2010Prop33
280
     0
102
RTVSPost2010PropOp33
 70
     1
102
RTVSPost2010Prop34
280
     0
102
RTVSPost2010PropOp34
 70
     1
102
RTVSPost2010Prop35
280
     0
102
RTVSPost2010PropOp35
 70
     1
102
RTVSPost2010Prop36
280
     0
102
RTVSPost2010PropOp36
 70
     1
102
RTVSPost2010Prop37
 90
       50
102
RTVSPost2010PropOp37
 70
     1
102
RTVSPost2010Prop38
140
0.0
102
RTVSPost2010PropOp38
 70
     1
102
RTVSPost2010Prop39
140
1.0
102
RTVSPost2010PropOp39
 70
     1
102
RTVSPost2010Prop40
 90
        0
102
RTVSPost2010PropOp40
 70
     1
102
RTVSPost2010Prop41ColorIndex
 90
       18
102
RTVSPost2010Prop41ColorRGB
 90
        0
102
RTVSPost2010PropOp41
 70
     1
102
RTVSPost2010Prop42
 90
       50
102
RTVSPost2010PropOp42
 70
     1
102
RTVSPost2010Prop43
 90
        3
102
RTVSPost2010PropOp43
 70
     1
102
RTVSPost2010Prop44ColorIndex
 90
        5
102
RTVSPost2010Prop44ColorRGB
 90
      255
102
RTVSPost2010PropOp44
 70
     1
102
RTVSPost2010Prop45
280
     0
102
RTVSPost2010PropOp45
 70
     1
102
RTVSPost2010Prop46
 90
       50
102
RTVSPost2010PropOp46
 70
     1
102
RTVSPost2010Prop47
 90
       50
102
RTVSPost2010PropOp47
 70
     1
102
RTVSPost2010Prop48
 90
       50
102
RTVSPost2010PropOp48
 70
     1
102
RTVSPost2010Prop49
280
     0
102
RTVSPost2010PropOp49
 70
     1
102
RTVSPost2010Prop50
 90
       50
102
RTVSPost2010PropOp50
 70
     1
102
RTVSPost2010Prop51ColorIndex
 90
      256
102
RTVSPost2010Prop51ColorRGB
 90
-16777216
102
RTVSPost2010PropOp51
 70
     0
102
RTVSPost2010Prop52
140
1.0
102
RTVSPost2010PropOp52
 70
     0
102
RTVSPost2010Prop53
 90
        2
102
RTVSPost2010PropOp53
 70
     1
102
RTVSPost2010Prop54
  1
strokes_ogs.tif
102
RTVSPost2010PropOp54
 70
     1
102
RTVSPost2010Prop55
280
     0
102
RTVSPost2010PropOp55
 70
     1
102
RTVSPost2010Prop56
140
1.0
102
RTVSPost2010PropOp56
 70
     1
102
RTVSPost2010Prop57
140
1.0
102
RTVSPost2010PropOp57
 70
     1
  0
XRECORD
  5
E4
102
{ACAD_REACTORS
330
E3
102
}
330
E3
100
AcDbXrecord
280
     1
102
RTVSPropertyOp0
 70
     0
102
RTVSPropertyOp1
 70
     0
102
RTVSPropertyOp2
 70
     0
102
RTVSPropertyOp3
 70
     0
102
RTVSPropertyOp4
 70
     0
102
RTVSPropertyOp5
 70
     0
102
RTVSPropertyOp6
 70
     0
102
RTVSPropertyOp7
 70
     0
102
RTVSPropertyOp8
 70
     0
102
RTVSPropertyOp9
 70
     0
102
RTVSPropertyOp10
 70
     0
102
RTVSPropertyOp11
 70
     0
102
RTVSPropertyOp12
 70
     0
102
RTVSPropertyOp13
 70
     0
102
RTVSPropertyOp14
 70
     2
102
RTVSPropertyOp15
 70
     0
102
RTVSPropertyOp16
 70
     0
102
RTVSPropertyOp17
 70
     0
102
RTVSPropertyOp18
 70
     0
102
RTVSPropertyOp19
 70
     0
102
RTVSPropertyOp20
 70
     0
102
RTVSPropertyOp21
 70
     0
102
RTVSPropertyOp22
 70
     0
102
RTVSPropertyOp23
 70
     0
102
RTVSPropertyOp24
 70
     0
102
RTVSPropertyOp25
 70
     0
102
RTVSPropertyOp26
 70
     0
102
RTVSPropertyOp27
 70
     0
102
RTVSPropertyOp28
 70
     0
102
RTVSPropertyOp29
 70
     0
102
RTVSPropertyOp30
 70
     0
102
RTVSPropertyOp31
 70
     0
102
RTVSPropertyOp32
 70
     0
102
RTVSPropertyOp33
 70
     0
102
RTVSPropertyOp34
 70
     0
102
RTVSPropertyOp35
 70
     0
102
RTVSPropertyOp36
 70
     0
102
RTVSPropertyOp37
 70
     0
102
RTVSPropertyOp38
 70
     0
102
RTVSPropertyOp39
 70
     0
102
RTVSPropertyOp40
 70
     0
102
RTVSPropertyOp41
 70
     0
102
RTVSPropertyOp42
 70
     0
102
RTVSPropertyOp43
 70
     0
102
RTVSPropertyOp44
 70
     0
102
RTVSPropertyOp45
 70
     0
102
RTVSPropertyOp46
 70
     0
102
RTVSPropertyOp47
 70
     0
102
RTVSPropertyOp48
 70
     0
102
RTVSPropertyOp49
 70
     0
102
RTVSPropertyOp50
 70
     0
102
RTVSPropertyOp51
 70
     0
102
RTVSPropertyOp52
 70
     0
102
RTVSPropertyOp53
 70
     0
102
RTVSPropertyOp54
 70
     0
102
RTVSPropertyOp55
 70
     0
102
RTVSPropertyOp56
 70
     0
102
RTVSPropertyOp57
 70
     0
102
RTVSPost2010Prop28
280
     0
102
RTVSPost2010PropOp28
 70
     0
102
RTVSPost2010Prop29
280
     1
102
RTVSPost2010PropOp29
 70
     0
102
RTVSPost2010Prop30
280
     1
102
RTVSPost2010PropOp30
 70
     0
102
RTVSPost2010Prop31
280
     0
102
RTVSPost2010PropOp31
 70
     0
102
RTVSPost2010Prop32
280
     0
102
RTVSPost2010PropOp32
 70
     0
102
RTVSPost2010Prop33
280
     0
102
RTVSPost2010PropOp33
 70
     0
102
RTVSPost2010Prop34
280
     0
102
RTVSPost2010PropOp34
 70
     0
102
RTVSPost2010Prop35
280
     0
102
RTVSPost2010PropOp35
 70
     0
102
RTVSPost2010Prop36
280
     0
102
RTVSPost2010PropOp36
 70
     0
102
RTVSPost2010Prop37
 90
       50
102
RTVSPost2010PropOp37
 70
     0
102
RTVSPost2010Prop38
140
0.0
102
RTVSPost2010PropOp38
 70
     0
102
RTVSPost2010Prop39
140
1.0
102
RTVSPost2010PropOp39
 70
     0
102
RTVSPost2010Prop40
 90
        0
102
RTVSPost2010PropOp40
 70
     0
102
RTVSPost2010Prop41ColorIndex
 90
       18
102
RTVSPost2010Prop41ColorRGB
 90
        0
102
RTVSPost2010PropOp41
 70
     0
102
RTVSPost2010Prop42
 90
       50
102
RTVSPost2010PropOp42
 70
     0
102
RTVSPost2010Prop43
 90
        3
102
RTVSPost2010PropOp43
 70
     0
102
RTVSPost2010Prop44ColorIndex
 90
        5
102
RTVSPost2010Prop44ColorRGB
 90
      255
102
RTVSPost2010PropOp44
 70
     0
102
RTVSPost2010Prop45
280
     0
102
RTVSPost2010PropOp45
 70
     0
102
RTVSPost2010Prop46
 90
       50
102
RTVSPost2010PropOp46
 70
     0
102
RTVSPost2010Prop47
 90
       50
102
RTVSPost2010PropOp47
 70
     0
102
RTVSPost2010Prop48
 90
       50
102
RTVSPost2010PropOp48
 70
     0
102
RTVSPost2010Prop49
280
     0
102
RTVSPost2010PropOp49
 70
     0
102
RTVSPost2010Prop50
 90
       50
102
RTVSPost2010PropOp50
 70
     0
102
RTVSPost2010Prop51ColorIndex
 90
      256
102
RTVSPost2010Prop51ColorRGB
 90
-16777216
102
RTVSPost2010PropOp51
 70
     0
102
RTVSPost2010Prop52
140
1.0
102
RTVSPost2010PropOp52
 70
     0
102
RTVSPost2010Prop53
 90
        2
102
RTVSPost2010PropOp53
 70
     0
102
RTVSPost2010Prop54
  1
strokes_ogs.tif
102
RTVSPost2010PropOp54
 70
     0
102
RTVSPost2010Prop55
280
     0
102
RTVSPost2010PropOp55
 70
     0
102
RTVSPost2010Prop56
140
1.0
102
RTVSPost2010PropOp56
 70
     0
102
RTVSPost2010Prop57
140
1.0
102
RTVSPost2010PropOp57
 70
     0
  0
XRECORD
  5
DE
102
{ACAD_REACTORS
330
DD
102
}
330
DD
100
AcDbXrecord
280
     1
102
RTVSPropertyOp0
 70
     1
102
RTVSPropertyOp1
 70
     1
102
RTVSPropertyOp2
 70
     1
102
RTVSPropertyOp3
 70
     1
102
RTVSPropertyOp4
 70
     1
102
RTVSPropertyOp5
 70
     1
102
RTVSPropertyOp6
 70
     1
102
RTVSPropertyOp7
 70
     1
102
RTVSPropertyOp8
 70
     1
102
RTVSPropertyOp9
 70
     1
102
RTVSPropertyOp10
 70
     1
102
RTVSPropertyOp11
 70
     1
102
RTVSPropertyOp12
 70
     1
102
RTVSPropertyOp13
 70
     1
102
RTVSPropertyOp14
 70
     1
102
RTVSPropertyOp15
 70
     1
102
RTVSPropertyOp16
 70
     1
102
RTVSPropertyOp17
 70
     1
102
RTVSPropertyOp18
 70
     1
102
RTVSPropertyOp19
 70
     1
102
RTVSPropertyOp20
 70
     1
102
RTVSPropertyOp21
 70
     1
102
RTVSPropertyOp22
 70
     1
102
RTVSPropertyOp23
 70
     1
102
RTVSPropertyOp24
 70
     1
102
RTVSPropertyOp25
 70
     1
102
RTVSPropertyOp26
 70
     1
102
RTVSPropertyOp27
 70
     1
102
RTVSPropertyOp28
 70
     1
102
RTVSPropertyOp29
 70
     1
102
RTVSPropertyOp30
 70
     1
102
RTVSPropertyOp31
 70
     1
102
RTVSPropertyOp32
 70
     1
102
RTVSPropertyOp33
 70
     1
102
RTVSPropertyOp34
 70
     1
102
RTVSPropertyOp35
 70
     1
102
RTVSPropertyOp36
 70
     1
102
RTVSPropertyOp37
 70
     1
102
RTVSPropertyOp38
 70
     1
102
RTVSPropertyOp39
 70
     1
102
RTVSPropertyOp40
 70
     1
102
RTVSPropertyOp41
 70
     1
102
RTVSPropertyOp42
 70
     1
102
RTVSPropertyOp43
 70
     1
102
RTVSPropertyOp44
 70
     1
102
RTVSPropertyOp45
 70
     1
102
RTVSPropertyOp46
 70
     1
102
RTVSPropertyOp47
 70
     1
102
RTVSPropertyOp48
 70
     1
102
RTVSPropertyOp49
 70
     1
102
RTVSPropertyOp50
 70
     1
102
RTVSPropertyOp51
 70
     0
102
RTVSPropertyOp52
 70
     0
102
RTVSPropertyOp53
 70
     1
102
RTVSPropertyOp54
 70
     1
102
RTVSPropertyOp55
 70
     1
102
RTVSPropertyOp56
 70
     1
102
RTVSPropertyOp57
 70
     1
102
RTVSPost2010Prop28
280
     0
102
RTVSPost2010PropOp28
 70
     1
102
RTVSPost2010Prop29
280
     1
102
RTVSPost2010PropOp29
 70
     1
102
RTVSPost2010Prop30
280
     1
102
RTVSPost2010PropOp30
 70
     1
102
RTVSPost2010Prop31
280
     0
102
RTVSPost2010PropOp31
 70
     1
102
RTVSPost2010Prop32
280
     0
102
RTVSPost2010PropOp32
 70
     1
102
RTVSPost2010Prop33
280
     0
102
RTVSPost2010PropOp33
 70
     1
102
RTVSPost2010Prop34
280
     0
102
RTVSPost2010PropOp34
 70
     1
102
RTVSPost2010Prop35
280
     0
102
RTVSPost2010PropOp35
 70
     1
102
RTVSPost2010Prop36
280
     0
102
RTVSPost2010PropOp36
 70
     1
102
RTVSPost2010Prop37
 90
       50
102
RTVSPost2010PropOp37
 70
     1
102
RTVSPost2010Prop38
140
0.0
102
RTVSPost2010PropOp38
 70
     1
102
RTVSPost2010Prop39
140
1.0
102
RTVSPost2010PropOp39
 70
     1
102
RTVSPost2010Prop40
 90
        0
102
RTVSPost2010PropOp40
 70
     1
102
RTVSPost2010Prop41ColorIndex
 90
       18
102
RTVSPost2010Prop41ColorRGB
 90
        0
102
RTVSPost2010PropOp41
 70
     1
102
RTVSPost2010Prop42
 90
       50
102
RTVSPost2010PropOp42
 70
     1
102
RTVSPost2010Prop43
 90
        3
102
RTVSPost2010PropOp43
 70
     1
102
RTVSPost2010Prop44ColorIndex
 90
        5
102
RTVSPost2010Prop44ColorRGB
 90
      255
102
RTVSPost2010PropOp44
 70
     1
102
RTVSPost2010Prop45
280
     0
102
RTVSPost2010PropOp45
 70
     1
102
RTVSPost2010Prop46
 90
       50
102
RTVSPost2010PropOp46
 70
     1
102
RTVSPost2010Prop47
 90
       50
102
RTVSPost2010PropOp47
 70
     1
102
RTVSPost2010Prop48
 90
       50
102
RTVSPost2010PropOp48
 70
     1
102
RTVSPost2010Prop49
280
     0
102
RTVSPost2010PropOp49
 70
     1
102
RTVSPost2010Prop50
 90
       50
102
RTVSPost2010PropOp50
 70
     1
102
RTVSPost2010Prop51ColorIndex
 90
      256
102
RTVSPost2010Prop51ColorRGB
 90
-16777216
102
RTVSPost2010PropOp51
 70
     0
102
RTVSPost2010Prop52
140
1.0
102
RTVSPost2010PropOp52
 70
     0
102
RTVSPost2010Prop53
 90
        2
102
RTVSPost2010PropOp53
 70
     1
102
RTVSPost2010Prop54
  1
strokes_ogs.tif
102
RTVSPost2010PropOp54
 70
     1
102
RTVSPost2010Prop55
280
     0
102
RTVSPost2010PropOp55
 70
     1
102
RTVSPost2010Prop56
140
1.0
102
RTVSPost2010PropOp56
 70
     1
102
RTVSPost2010Prop57
140
1.0
102
RTVSPost2010PropOp57
 70
     1
  0
XRECORD
  5
E6
102
{ACAD_REACTORS
330
E5
102
}
330
E5
100
AcDbXrecord
280
     1
102
RTVSPropertyOp0
 70
     0
102
RTVSPropertyOp1
 70
     0
102
RTVSPropertyOp2
 70
     0
102
RTVSPropertyOp3
 70
     0
102
RTVSPropertyOp4
 70
     0
102
RTVSPropertyOp5
 70
     0
102
RTVSPropertyOp6
 70
     0
102
RTVSPropertyOp7
 70
     0
102
RTVSPropertyOp8
 70
     0
102
RTVSPropertyOp9
 70
     0
102
RTVSPropertyOp10
 70
     0
102
RTVSPropertyOp11
 70
     0
102
RTVSPropertyOp12
 70
     0
102
RTVSPropertyOp13
 70
     0
102
RTVSPropertyOp14
 70
     2
102
RTVSPropertyOp15
 70
     0
102
RTVSPropertyOp16
 70
     0
102
RTVSPropertyOp17
 70
     0
102
RTVSPropertyOp18
 70
     0
102
RTVSPropertyOp19
 70
     0
102
RTVSPropertyOp20
 70
     0
102
RTVSPropertyOp21
 70
     0
102
RTVSPropertyOp22
 70
     0
102
RTVSPropertyOp23
 70
     0
102
RTVSPropertyOp24
 70
     0
102
RTVSPropertyOp25
 70
     0
102
RTVSPropertyOp26
 70
     0
102
RTVSPropertyOp27
 70
     0
102
RTVSPropertyOp28
 70
     0
102
RTVSPropertyOp29
 70
     0
102
RTVSPropertyOp30
 70
     0
102
RTVSPropertyOp31
 70
     0
102
RTVSPropertyOp32
 70
     0
102
RTVSPropertyOp33
 70
     0
102
RTVSPropertyOp34
 70
     0
102
RTVSPropertyOp35
 70
     0
102
RTVSPropertyOp36
 70
     0
102
RTVSPropertyOp37
 70
     0
102
RTVSPropertyOp38
 70
     0
102
RTVSPropertyOp39
 70
     0
102
RTVSPropertyOp40
 70
     0
102
RTVSPropertyOp41
 70
     0
102
RTVSPropertyOp42
 70
     0
102
RTVSPropertyOp43
 70
     0
102
RTVSPropertyOp44
 70
     0
102
RTVSPropertyOp45
 70
     0
102
RTVSPropertyOp46
 70
     0
102
RTVSPropertyOp47
 70
     0
102
RTVSPropertyOp48
 70
     0
102
RTVSPropertyOp49
 70
     0
102
RTVSPropertyOp50
 70
     0
102
RTVSPropertyOp51
 70
     0
102
RTVSPropertyOp52
 70
     0
102
RTVSPropertyOp53
 70
     0
102
RTVSPropertyOp54
 70
     0
102
RTVSPropertyOp55
 70
     0
102
RTVSPropertyOp56
 70
     0
102
RTVSPropertyOp57
 70
     0
102
RTVSPost2010Prop28
280
     0
102
RTVSPost2010PropOp28
 70
     0
102
RTVSPost2010Prop29
280
     1
102
RTVSPost2010PropOp29
 70
     0
102
RTVSPost2010Prop30
280
     1
102
RTVSPost2010PropOp30
 70
     0
102
RTVSPost2010Prop31
280
     0
102
RTVSPost2010PropOp31
 70
     0
102
RTVSPost2010Prop32
280
     0
102
RTVSPost2010PropOp32
 70
     0
102
RTVSPost2010Prop33
280
     0
102
RTVSPost2010PropOp33
 70
     0
102
RTVSPost2010Prop34
280
     0
102
RTVSPost2010PropOp34
 70
     0
102
RTVSPost2010Prop35
280
     0
102
RTVSPost2010PropOp35
 70
     0
102
RTVSPost2010Prop36
280
     0
102
RTVSPost2010PropOp36
 70
     0
102
RTVSPost2010Prop37
 90
       50
102
RTVSPost2010PropOp37
 70
     0
102
RTVSPost2010Prop38
140
0.0
102
RTVSPost2010PropOp38
 70
     0
102
RTVSPost2010Prop39
140
1.0
102
RTVSPost2010PropOp39
 70
     0
102
RTVSPost2010Prop40
 90
        0
102
RTVSPost2010PropOp40
 70
     0
102
RTVSPost2010Prop41ColorIndex
 90
       18
102
RTVSPost2010Prop41ColorRGB
 90
        0
102
RTVSPost2010PropOp41
 70
     0
102
RTVSPost2010Prop42
 90
       50
102
RTVSPost2010PropOp42
 70
     0
102
RTVSPost2010Prop43
 90
        3
102
RTVSPost2010PropOp43
 70
     0
102
RTVSPost2010Prop44ColorIndex
 90
        5
102
RTVSPost2010Prop44ColorRGB
 90
      255
102
RTVSPost2010PropOp44
 70
     0
102
RTVSPost2010Prop45
280
     0
102
RTVSPost2010PropOp45
 70
     0
102
RTVSPost2010Prop46
 90
       50
102
RTVSPost2010PropOp46
 70
     0
102
RTVSPost2010Prop47
 90
       50
102
RTVSPost2010PropOp47
 70
     0
102
RTVSPost2010Prop48
 90
       50
102
RTVSPost2010PropOp48
 70
     0
102
RTVSPost2010Prop49
280
     0
102
RTVSPost2010PropOp49
 70
     0
102
RTVSPost2010Prop50
 90
       50
102
RTVSPost2010PropOp50
 70
     0
102
RTVSPost2010Prop51ColorIndex
 90
      256
102
RTVSPost2010Prop51ColorRGB
 90
-16777216
102
RTVSPost2010PropOp51
 70
     0
102
RTVSPost2010Prop52
140
1.0
102
RTVSPost2010PropOp52
 70
     0
102
RTVSPost2010Prop53
 90
        2
102
RTVSPost2010PropOp53
 70
     0
102
RTVSPost2010Prop54
  1
strokes_ogs.tif
102
RTVSPost2010PropOp54
 70
     0
102
RTVSPost2010Prop55
280
     0
102
RTVSPost2010PropOp55
 70
     0
102
RTVSPost2010Prop56
140
1.0
102
RTVSPost2010PropOp56
 70
     0
102
RTVSPost2010Prop57
140
1.0
102
RTVSPost2010PropOp57
 70
     0
  0
XRECORD
  5
D4
102
{ACAD_REACTORS
330
D3
102
}
330
D3
100
AcDbXrecord
280
     1
102
RTVSPropertyOp0
 70
     1
102
RTVSPropertyOp1
 70
     1
102
RTVSPropertyOp2
 70
     1
102
RTVSPropertyOp3
 70
     1
102
RTVSPropertyOp4
 70
     1
102
RTVSPropertyOp5
 70
     1
102
RTVSPropertyOp6
 70
     1
102
RTVSPropertyOp7
 70
     1
102
RTVSPropertyOp8
 70
     1
102
RTVSPropertyOp9
 70
     1
102
RTVSPropertyOp10
 70
     1
102
RTVSPropertyOp11
 70
     1
102
RTVSPropertyOp12
 70
     1
102
RTVSPropertyOp13
 70
     1
102
RTVSPropertyOp14
 70
     1
102
RTVSPropertyOp15
 70
     1
102
RTVSPropertyOp16
 70
     1
102
RTVSPropertyOp17
 70
     1
102
RTVSPropertyOp18
 70
     1
102
RTVSPropertyOp19
 70
     1
102
RTVSPropertyOp20
 70
     1
102
RTVSPropertyOp21
 70
     1
102
RTVSPropertyOp22
 70
     1
102
RTVSPropertyOp23
 70
     1
102
RTVSPropertyOp24
 70
     1
102
RTVSPropertyOp25
 70
     1
102
RTVSPropertyOp26
 70
     1
102
RTVSPropertyOp27
 70
     1
102
RTVSPropertyOp28
 70
     1
102
RTVSPropertyOp29
 70
     1
102
RTVSPropertyOp30
 70
     1
102
RTVSPropertyOp31
 70
     1
102
RTVSPropertyOp32
 70
     1
102
RTVSPropertyOp33
 70
     1
102
RTVSPropertyOp34
 70
     1
102
RTVSPropertyOp35
 70
     1
102
RTVSPropertyOp36
 70
     1
102
RTVSPropertyOp37
 70
     1
102
RTVSPropertyOp38
 70
     1
102
RTVSPropertyOp39
 70
     1
102
RTVSPropertyOp40
 70
     1
102
RTVSPropertyOp41
 70
     1
102
RTVSPropertyOp42
 70
     1
102
RTVSPropertyOp43
 70
     1
102
RTVSPropertyOp44
 70
     1
102
RTVSPropertyOp45
 70
     1
102
RTVSPropertyOp46
 70
     1
102
RTVSPropertyOp47
 70
     1
102
RTVSPropertyOp48
 70
     1
102
RTVSPropertyOp49
 70
     1
102
RTVSPropertyOp50
 70
     1
102
RTVSPropertyOp51
 70
     0
102
RTVSPropertyOp52
 70
     0
102
RTVSPropertyOp53
 70
     1
102
RTVSPropertyOp54
 70
     1
102
RTVSPropertyOp55
 70
     1
102
RTVSPropertyOp56
 70
     1
102
RTVSPropertyOp57
 70
     1
102
RTVSPost2010Prop28
280
     0
102
RTVSPost2010PropOp28
 70
     1
102
RTVSPost2010Prop29
280
     1
102
RTVSPost2010PropOp29
 70
     1
102
RTVSPost2010Prop30
280
     1
102
RTVSPost2010PropOp30
 70
     1
102
RTVSPost2010Prop31
280
     0
102
RTVSPost2010PropOp31
 70
     1
102
RTVSPost2010Prop32
280
     0
102
RTVSPost2010PropOp32
 70
     1
102
RTVSPost2010Prop33
280
     0
102
RTVSPost2010PropOp33
 70
     1
102
RTVSPost2010Prop34
280
     0
102
RTVSPost2010PropOp34
 70
     1
102
RTVSPost2010Prop35
280
     0
102
RTVSPost2010PropOp35
 70
     1
102
RTVSPost2010Prop36
280
     0
102
RTVSPost2010PropOp36
 70
     1
102
RTVSPost2010Prop37
 90
       50
102
RTVSPost2010PropOp37
 70
     1
102
RTVSPost2010Prop38
140
0.0
102
RTVSPost2010PropOp38
 70
     1
102
RTVSPost2010Prop39
140
1.0
102
RTVSPost2010PropOp39
 70
     1
102
RTVSPost2010Prop40
 90
        0
102
RTVSPost2010PropOp40
 70
     1
102
RTVSPost2010Prop41ColorIndex
 90
       18
102
RTVSPost2010Prop41ColorRGB
 90
        0
102
RTVSPost2010PropOp41
 70
     1
102
RTVSPost2010Prop42
 90
       50
102
RTVSPost2010PropOp42
 70
     1
102
RTVSPost2010Prop43
 90
        3
102
RTVSPost2010PropOp43
 70
     1
102
RTVSPost2010Prop44ColorIndex
 90
        5
102
RTVSPost2010Prop44ColorRGB
 90
      255
102
RTVSPost2010PropOp44
 70
     1
102
RTVSPost2010Prop45
280
     0
102
RTVSPost2010PropOp45
 70
     1
102
RTVSPost2010Prop46
 90
       50
102
RTVSPost2010PropOp46
 70
     1
102
RTVSPost2010Prop47
 90
       50
102
RTVSPost2010PropOp47
 70
     1
102
RTVSPost2010Prop48
 90
       50
102
RTVSPost2010PropOp48
 70
     1
102
RTVSPost2010Prop49
280
     0
102
RTVSPost2010PropOp49
 70
     1
102
RTVSPost2010Prop50
 90
       50
102
RTVSPost2010PropOp50
 70
     1
102
RTVSPost2010Prop51ColorIndex
 90
      256
102
RTVSPost2010Prop51ColorRGB
 90
-16777216
102
RTVSPost2010PropOp51
 70
     0
102
RTVSPost2010Prop52
140
1.0
102
RTVSPost2010PropOp52
 70
     0
102
RTVSPost2010Prop53
 90
        2
102
RTVSPost2010PropOp53
 70
     1
102
RTVSPost2010Prop54
  1
strokes_ogs.tif
102
RTVSPost2010PropOp54
 70
     1
102
RTVSPost2010Prop55
280
     0
102
RTVSPost2010PropOp55
 70
     1
102
RTVSPost2010Prop56
140
1.0
102
RTVSPost2010PropOp56
 70
     1
102
RTVSPost2010Prop57
140
1.0
102
RTVSPost2010PropOp57
 70
     1
  0
XRECORD
  5
F2
102
{ACAD_REACTORS
330
F1
102
}
330
F1
100
AcDbXrecord
280
     1
102
RTVSPropertyOp0
 70
     1
102
RTVSPropertyOp1
 70
     1
102
RTVSPropertyOp2
 70
     1
102
RTVSPropertyOp3
 70
     1
102
RTVSPropertyOp4
 70
     1
102
RTVSPropertyOp5
 70
     1
102
RTVSPropertyOp6
 70
     1
102
RTVSPropertyOp7
 70
     1
102
RTVSPropertyOp8
 70
     1
102
RTVSPropertyOp9
 70
     1
102
RTVSPropertyOp10
 70
     1
102
RTVSPropertyOp11
 70
     1
102
RTVSPropertyOp12
 70
     1
102
RTVSPropertyOp13
 70
     1
102
RTVSPropertyOp14
 70
     1
102
RTVSPropertyOp15
 70
     1
102
RTVSPropertyOp16
 70
     1
102
RTVSPropertyOp17
 70
     1
102
RTVSPropertyOp18
 70
     1
102
RTVSPropertyOp19
 70
     1
102
RTVSPropertyOp20
 70
     1
102
RTVSPropertyOp21
 70
     1
102
RTVSPropertyOp22
 70
     1
102
RTVSPropertyOp23
 70
     1
102
RTVSPropertyOp24
 70
     1
102
RTVSPropertyOp25
 70
     1
102
RTVSPropertyOp26
 70
     1
102
RTVSPropertyOp27
 70
     1
102
RTVSPropertyOp28
 70
     1
102
RTVSPropertyOp29
 70
     1
102
RTVSPropertyOp30
 70
     1
102
RTVSPropertyOp31
 70
     1
102
RTVSPropertyOp32
 70
     1
102
RTVSPropertyOp33
 70
     1
102
RTVSPropertyOp34
 70
     1
102
RTVSPropertyOp35
 70
     1
102
RTVSPropertyOp36
 70
     1
102
RTVSPropertyOp37
 70
     1
102
RTVSPropertyOp38
 70
     1
102
RTVSPropertyOp39
 70
     1
102
RTVSPropertyOp40
 70
     1
102
RTVSPropertyOp41
 70
     1
102
RTVSPropertyOp42
 70
     1
102
RTVSPropertyOp43
 70
     1
102
RTVSPropertyOp44
 70
     1
102
RTVSPropertyOp45
 70
     1
102
RTVSPropertyOp46
 70
     1
102
RTVSPropertyOp47
 70
     1
102
RTVSPropertyOp48
 70
     1
102
RTVSPropertyOp49
 70
     1
102
RTVSPropertyOp50
 70
     1
102
RTVSPropertyOp51
 70
     0
102
RTVSPropertyOp52
 70
     0
102
RTVSPropertyOp53
 70
     1
102
RTVSPropertyOp54
 70
     1
102
RTVSPropertyOp55
 70
     1
102
RTVSPropertyOp56
 70
     1
102
RTVSPropertyOp57
 70
     1
102
RTVSPost2010Prop28
280
     0
102
RTVSPost2010PropOp28
 70
     1
102
RTVSPost2010Prop29
280
     1
102
RTVSPost2010PropOp29
 70
     1
102
RTVSPost2010Prop30
280
     1
102
RTVSPost2010PropOp30
 70
     1
102
RTVSPost2010Prop31
280
     0
102
RTVSPost2010PropOp31
 70
     1
102
RTVSPost2010Prop32
280
     0
102
RTVSPost2010PropOp32
 70
     1
102
RTVSPost2010Prop33
280
     0
102
RTVSPost2010PropOp33
 70
     1
102
RTVSPost2010Prop34
280
     0
102
RTVSPost2010PropOp34
 70
     1
102
RTVSPost2010Prop35
280
     0
102
RTVSPost2010PropOp35
 70
     1
102
RTVSPost2010Prop36
280
     0
102
RTVSPost2010PropOp36
 70
     1
102
RTVSPost2010Prop37
 90
       50
102
RTVSPost2010PropOp37
 70
     1
102
RTVSPost2010Prop38
140
0.0
102
RTVSPost2010PropOp38
 70
     1
102
RTVSPost2010Prop39
140
1.0
102
RTVSPost2010PropOp39
 70
     1
102
RTVSPost2010Prop40
 90
        0
102
RTVSPost2010PropOp40
 70
     1
102
RTVSPost2010Prop41ColorIndex
 90
       18
102
RTVSPost2010Prop41ColorRGB
 90
        0
102
RTVSPost2010PropOp41
 70
     1
102
RTVSPost2010Prop42
 90
       50
102
RTVSPost2010PropOp42
 70
     1
102
RTVSPost2010Prop43
 90
        3
102
RTVSPost2010PropOp43
 70
     1
102
RTVSPost2010Prop44ColorIndex
 90
        5
102
RTVSPost2010Prop44ColorRGB
 90
      255
102
RTVSPost2010PropOp44
 70
     1
102
RTVSPost2010Prop45
280
     0
102
RTVSPost2010PropOp45
 70
     1
102
RTVSPost2010Prop46
 90
       50
102
RTVSPost2010PropOp46
 70
     1
102
RTVSPost2010Prop47
 90
       50
102
RTVSPost2010PropOp47
 70
     1
102
RTVSPost2010Prop48
 90
       50
102
RTVSPost2010PropOp48
 70
     1
102
RTVSPost2010Prop49
280
     0
102
RTVSPost2010PropOp49
 70
     1
102
RTVSPost2010Prop50
 90
       50
102
RTVSPost2010PropOp50
 70
     1
102
RTVSPost2010Prop51ColorIndex
 90
      256
102
RTVSPost2010Prop51ColorRGB
 90
-16777216
102
RTVSPost2010PropOp51
 70
     0
102
RTVSPost2010Prop52
140
1.0
102
RTVSPost2010PropOp52
 70
     0
102
RTVSPost2010Prop53
 90
        2
102
RTVSPost2010PropOp53
 70
     1
102
RTVSPost2010Prop54
  1
strokes_ogs.tif
102
RTVSPost2010PropOp54
 70
     1
102
RTVSPost2010Prop55
280
     0
102
RTVSPost2010PropOp55
 70
     1
102
RTVSPost2010Prop56
140
1.0
102
RTVSPost2010PropOp56
 70
     1
102
RTVSPost2010Prop57
140
1.0
102
RTVSPost2010PropOp57
 70
     1
  0
XRECORD
  5
F0
102
{ACAD_REACTORS
330
EF
102
}
330
EF
100
AcDbXrecord
280
     1
102
RTVSPropertyOp0
 70
     1
102
RTVSPropertyOp1
 70
     1
102
RTVSPropertyOp2
 70
     1
102
RTVSPropertyOp3
 70
     1
102
RTVSPropertyOp4
 70
     1
102
RTVSPropertyOp5
 70
     1
102
RTVSPropertyOp6
 70
     1
102
RTVSPropertyOp7
 70
     1
102
RTVSPropertyOp8
 70
     1
102
RTVSPropertyOp9
 70
     1
102
RTVSPropertyOp10
 70
     1
102
RTVSPropertyOp11
 70
     1
102
RTVSPropertyOp12
 70
     1
102
RTVSPropertyOp13
 70
     1
102
RTVSPropertyOp14
 70
     1
102
RTVSPropertyOp15
 70
     1
102
RTVSPropertyOp16
 70
     1
102
RTVSPropertyOp17
 70
     1
102
RTVSPropertyOp18
 70
     1
102
RTVSPropertyOp19
 70
     1
102
RTVSPropertyOp20
 70
     1
102
RTVSPropertyOp21
 70
     1
102
RTVSPropertyOp22
 70
     1
102
RTVSPropertyOp23
 70
     1
102
RTVSPropertyOp24
 70
     1
102
RTVSPropertyOp25
 70
     1
102
RTVSPropertyOp26
 70
     1
102
RTVSPropertyOp27
 70
     1
102
RTVSPropertyOp28
 70
     1
102
RTVSPropertyOp29
 70
     1
102
RTVSPropertyOp30
 70
     1
102
RTVSPropertyOp31
 70
     1
102
RTVSPropertyOp32
 70
     1
102
RTVSPropertyOp33
 70
     1
102
RTVSPropertyOp34
 70
     1
102
RTVSPropertyOp35
 70
     1
102
RTVSPropertyOp36
 70
     1
102
RTVSPropertyOp37
 70
     1
102
RTVSPropertyOp38
 70
     1
102
RTVSPropertyOp39
 70
     1
102
RTVSPropertyOp40
 70
     1
102
RTVSPropertyOp41
 70
     1
102
RTVSPropertyOp42
 70
     1
102
RTVSPropertyOp43
 70
     1
102
RTVSPropertyOp44
 70
     1
102
RTVSPropertyOp45
 70
     1
102
RTVSPropertyOp46
 70
     1
102
RTVSPropertyOp47
 70
     1
102
RTVSPropertyOp48
 70
     1
102
RTVSPropertyOp49
 70
     1
102
RTVSPropertyOp50
 70
     1
102
RTVSPropertyOp51
 70
     0
102
RTVSPropertyOp52
 70
     0
102
RTVSPropertyOp53
 70
     1
102
RTVSPropertyOp54
 70
     1
102
RTVSPropertyOp55
 70
     1
102
RTVSPropertyOp56
 70
     1
102
RTVSPropertyOp57
 70
     1
102
RTVSPost2010Prop28
280
     0
102
RTVSPost2010PropOp28
 70
     1
102
RTVSPost2010Prop29
280
     1
102
RTVSPost2010PropOp29
 70
     1
102
RTVSPost2010Prop30
280
     1
102
RTVSPost2010PropOp30
 70
     1
102
RTVSPost2010Prop31
280
     0
102
RTVSPost2010PropOp31
 70
     1
102
RTVSPost2010Prop32
280
     0
102
RTVSPost2010PropOp32
 70
     1
102
RTVSPost2010Prop33
280
     0
102
RTVSPost2010PropOp33
 70
     1
102
RTVSPost2010Prop34
280
     0
102
RTVSPost2010PropOp34
 70
     1
102
RTVSPost2010Prop35
280
     0
102
RTVSPost2010PropOp35
 70
     1
102
RTVSPost2010Prop36
280
     0
102
RTVSPost2010PropOp36
 70
     1
102
RTVSPost2010Prop37
 90
       50
102
RTVSPost2010PropOp37
 70
     1
102
RTVSPost2010Prop38
140
0.0
102
RTVSPost2010PropOp38
 70
     1
102
RTVSPost2010Prop39
140
1.0
102
RTVSPost2010PropOp39
 70
     1
102
RTVSPost2010Prop40
 90
        0
102
RTVSPost2010PropOp40
 70
     1
102
RTVSPost2010Prop41ColorIndex
 90
       18
102
RTVSPost2010Prop41ColorRGB
 90
        0
102
RTVSPost2010PropOp41
 70
     1
102
RTVSPost2010Prop42
 90
       50
102
RTVSPost2010PropOp42
 70
     1
102
RTVSPost2010Prop43
 90
        3
102
RTVSPost2010PropOp43
 70
     1
102
RTVSPost2010Prop44ColorIndex
 90
        5
102
RTVSPost2010Prop44ColorRGB
 90
      255
102
RTVSPost2010PropOp44
 70
     1
102
RTVSPost2010Prop45
280
     0
102
RTVSPost2010PropOp45
 70
     1
102
RTVSPost2010Prop46
 90
       50
102
RTVSPost2010PropOp46
 70
     1
102
RTVSPost2010Prop47
 90
       50
102
RTVSPost2010PropOp47
 70
     1
102
RTVSPost2010Prop48
 90
       50
102
RTVSPost2010PropOp48
 70
     1
102
RTVSPost2010Prop49
280
     0
102
RTVSPost2010PropOp49
 70
     1
102
RTVSPost2010Prop50
 90
       50
102
RTVSPost2010PropOp50
 70
     1
102
RTVSPost2010Prop51ColorIndex
 90
      256
102
RTVSPost2010Prop51ColorRGB
 90
-16777216
102
RTVSPost2010PropOp51
 70
     0
102
RTVSPost2010Prop52
140
1.0
102
RTVSPost2010PropOp52
 70
     0
102
RTVSPost2010Prop53
 90
        2
102
RTVSPost2010PropOp53
 70
     1
102
RTVSPost2010Prop54
  1
strokes_ogs.tif
102
RTVSPost2010PropOp54
 70
     1
102
RTVSPost2010Prop55
280
     0
102
RTVSPost2010PropOp55
 70
     1
102
RTVSPost2010Prop56
140
1.0
102
RTVSPost2010PropOp56
 70
     1
102
RTVSPost2010Prop57
140
1.0
102
RTVSPost2010PropOp57
 70
     1
  0
XRECORD
  5
EA
102
{ACAD_REACTORS
330
E9
102
}
330
E9
100
AcDbXrecord
280
     1
102
RTVSPropertyOp0
 70
     1
102
RTVSPropertyOp1
 70
     1
102
RTVSPropertyOp2
 70
     1
102
RTVSPropertyOp3
 70
     1
102
RTVSPropertyOp4
 70
     1
102
RTVSPropertyOp5
 70
     1
102
RTVSPropertyOp6
 70
     1
102
RTVSPropertyOp7
 70
     1
102
RTVSPropertyOp8
 70
     1
102
RTVSPropertyOp9
 70
     1
102
RTVSPropertyOp10
 70
     1
102
RTVSPropertyOp11
 70
     1
102
RTVSPropertyOp12
 70
     1
102
RTVSPropertyOp13
 70
     1
102
RTVSPropertyOp14
 70
     1
102
RTVSPropertyOp15
 70
     1
102
RTVSPropertyOp16
 70
     1
102
RTVSPropertyOp17
 70
     1
102
RTVSPropertyOp18
 70
     1
102
RTVSPropertyOp19
 70
     1
102
RTVSPropertyOp20
 70
     1
102
RTVSPropertyOp21
 70
     1
102
RTVSPropertyOp22
 70
     1
102
RTVSPropertyOp23
 70
     1
102
RTVSPropertyOp24
 70
     1
102
RTVSPropertyOp25
 70
     1
102
RTVSPropertyOp26
 70
     1
102
RTVSPropertyOp27
 70
     1
102
RTVSPropertyOp28
 70
     1
102
RTVSPropertyOp29
 70
     1
102
RTVSPropertyOp30
 70
     1
102
RTVSPropertyOp31
 70
     1
102
RTVSPropertyOp32
 70
     1
102
RTVSPropertyOp33
 70
     1
102
RTVSPropertyOp34
 70
     1
102
RTVSPropertyOp35
 70
     1
102
RTVSPropertyOp36
 70
     1
102
RTVSPropertyOp37
 70
     1
102
RTVSPropertyOp38
 70
     1
102
RTVSPropertyOp39
 70
     1
102
RTVSPropertyOp40
 70
     1
102
RTVSPropertyOp41
 70
     1
102
RTVSPropertyOp42
 70
     1
102
RTVSPropertyOp43
 70
     1
102
RTVSPropertyOp44
 70
     1
102
RTVSPropertyOp45
 70
     1
102
RTVSPropertyOp46
 70
     1
102
RTVSPropertyOp47
 70
     1
102
RTVSPropertyOp48
 70
     1
102
RTVSPropertyOp49
 70
     1
102
RTVSPropertyOp50
 70
     1
102
RTVSPropertyOp51
 70
     0
102
RTVSPropertyOp52
 70
     0
102
RTVSPropertyOp53
 70
     1
102
RTVSPropertyOp54
 70
     1
102
RTVSPropertyOp55
 70
     1
102
RTVSPropertyOp56
 70
     1
102
RTVSPropertyOp57
 70
     1
102
RTVSPost2010Prop28
280
     0
102
RTVSPost2010PropOp28
 70
     1
102
RTVSPost2010Prop29
280
     1
102
RTVSPost2010PropOp29
 70
     1
102
RTVSPost2010Prop30
280
     1
102
RTVSPost2010PropOp30
 70
     1
102
RTVSPost2010Prop31
280
     0
102
RTVSPost2010PropOp31
 70
     1
102
RTVSPost2010Prop32
280
     0
102
RTVSPost2010PropOp32
 70
     1
102
RTVSPost2010Prop33
280
     0
102
RTVSPost2010PropOp33
 70
     1
102
RTVSPost2010Prop34
280
     0
102
RTVSPost2010PropOp34
 70
     1
102
RTVSPost2010Prop35
280
     0
102
RTVSPost2010PropOp35
 70
     1
102
RTVSPost2010Prop36
280
     0
102
RTVSPost2010PropOp36
 70
     1
102
RTVSPost2010Prop37
 90
       50
102
RTVSPost2010PropOp37
 70
     1
102
RTVSPost2010Prop38
140
0.0
102
RTVSPost2010PropOp38
 70
     1
102
RTVSPost2010Prop39
140
1.0
102
RTVSPost2010PropOp39
 70
     1
102
RTVSPost2010Prop40
 90
        0
102
RTVSPost2010PropOp40
 70
     1
102
RTVSPost2010Prop41ColorIndex
 90
       18
102
RTVSPost2010Prop41ColorRGB
 90
        0
102
RTVSPost2010PropOp41
 70
     1
102
RTVSPost2010Prop42
 90
       50
102
RTVSPost2010PropOp42
 70
     1
102
RTVSPost2010Prop43
 90
        3
102
RTVSPost2010PropOp43
 70
     1
102
RTVSPost2010Prop44ColorIndex
 90
        5
102
RTVSPost2010Prop44ColorRGB
 90
      255
102
RTVSPost2010PropOp44
 70
     1
102
RTVSPost2010Prop45
280
     0
102
RTVSPost2010PropOp45
 70
     1
102
RTVSPost2010Prop46
 90
       50
102
RTVSPost2010PropOp46
 70
     1
102
RTVSPost2010Prop47
 90
       50
102
RTVSPost2010PropOp47
 70
     1
102
RTVSPost2010Prop48
 90
       50
102
RTVSPost2010PropOp48
 70
     1
102
RTVSPost2010Prop49
280
     0
102
RTVSPost2010PropOp49
 70
     1
102
RTVSPost2010Prop50
 90
       50
102
RTVSPost2010PropOp50
 70
     1
102
RTVSPost2010Prop51ColorIndex
 90
      256
102
RTVSPost2010Prop51ColorRGB
 90
-16777216
102
RTVSPost2010PropOp51
 70
     0
102
RTVSPost2010Prop52
140
1.0
102
RTVSPost2010PropOp52
 70
     0
102
RTVSPost2010Prop53
 90
        2
102
RTVSPost2010PropOp53
 70
     1
102
RTVSPost2010Prop54
  1
strokes_ogs.tif
102
RTVSPost2010PropOp54
 70
     1
102
RTVSPost2010Prop55
280
     0
102
RTVSPost2010PropOp55
 70
     1
102
RTVSPost2010Prop56
140
1.0
102
RTVSPost2010PropOp56
 70
     1
102
RTVSPost2010Prop57
140
1.0
102
RTVSPost2010PropOp57
 70
     1
  0
XRECORD
  5
EC
102
{ACAD_REACTORS
330
EB
102
}
330
EB
100
AcDbXrecord
280
     1
102
RTVSPropertyOp0
 70
     1
102
RTVSPropertyOp1
 70
     1
102
RTVSPropertyOp2
 70
     1
102
RTVSPropertyOp3
 70
     1
102
RTVSPropertyOp4
 70
     1
102
RTVSPropertyOp5
 70
     1
102
RTVSPropertyOp6
 70
     1
102
RTVSPropertyOp7
 70
     1
102
RTVSPropertyOp8
 70
     1
102
RTVSPropertyOp9
 70
     1
102
RTVSPropertyOp10
 70
     1
102
RTVSPropertyOp11
 70
     1
102
RTVSPropertyOp12
 70
     1
102
RTVSPropertyOp13
 70
     1
102
RTVSPropertyOp14
 70
     1
102
RTVSPropertyOp15
 70
     1
102
RTVSPropertyOp16
 70
     1
102
RTVSPropertyOp17
 70
     1
102
RTVSPropertyOp18
 70
     1
102
RTVSPropertyOp19
 70
     1
102
RTVSPropertyOp20
 70
     1
102
RTVSPropertyOp21
 70
     1
102
RTVSPropertyOp22
 70
     1
102
RTVSPropertyOp23
 70
     1
102
RTVSPropertyOp24
 70
     1
102
RTVSPropertyOp25
 70
     1
102
RTVSPropertyOp26
 70
     1
102
RTVSPropertyOp27
 70
     1
102
RTVSPropertyOp28
 70
     1
102
RTVSPropertyOp29
 70
     1
102
RTVSPropertyOp30
 70
     1
102
RTVSPropertyOp31
 70
     1
102
RTVSPropertyOp32
 70
     1
102
RTVSPropertyOp33
 70
     1
102
RTVSPropertyOp34
 70
     1
102
RTVSPropertyOp35
 70
     1
102
RTVSPropertyOp36
 70
     1
102
RTVSPropertyOp37
 70
     1
102
RTVSPropertyOp38
 70
     1
102
RTVSPropertyOp39
 70
     1
102
RTVSPropertyOp40
 70
     1
102
RTVSPropertyOp41
 70
     1
102
RTVSPropertyOp42
 70
     1
102
RTVSPropertyOp43
 70
     1
102
RTVSPropertyOp44
 70
     1
102
RTVSPropertyOp45
 70
     1
102
RTVSPropertyOp46
 70
     1
102
RTVSPropertyOp47
 70
     1
102
RTVSPropertyOp48
 70
     1
102
RTVSPropertyOp49
 70
     1
102
RTVSPropertyOp50
 70
     1
102
RTVSPropertyOp51
 70
     0
102
RTVSPropertyOp52
 70
     0
102
RTVSPropertyOp53
 70
     1
102
RTVSPropertyOp54
 70
     1
102
RTVSPropertyOp55
 70
     1
102
RTVSPropertyOp56
 70
     1
102
RTVSPropertyOp57
 70
     1
102
RTVSPost2010Prop28
280
     0
102
RTVSPost2010PropOp28
 70
     1
102
RTVSPost2010Prop29
280
     1
102
RTVSPost2010PropOp29
 70
     1
102
RTVSPost2010Prop30
280
     1
102
RTVSPost2010PropOp30
 70
     1
102
RTVSPost2010Prop31
280
     0
102
RTVSPost2010PropOp31
 70
     1
102
RTVSPost2010Prop32
280
     0
102
RTVSPost2010PropOp32
 70
     1
102
RTVSPost2010Prop33
280
     0
102
RTVSPost2010PropOp33
 70
     1
102
RTVSPost2010Prop34
280
     0
102
RTVSPost2010PropOp34
 70
     1
102
RTVSPost2010Prop35
280
     0
102
RTVSPost2010PropOp35
 70
     1
102
RTVSPost2010Prop36
280
     0
102
RTVSPost2010PropOp36
 70
     1
102
RTVSPost2010Prop37
 90
       50
102
RTVSPost2010PropOp37
 70
     1
102
RTVSPost2010Prop38
140
0.0
102
RTVSPost2010PropOp38
 70
     1
102
RTVSPost2010Prop39
140
1.0
102
RTVSPost2010PropOp39
 70
     1
102
RTVSPost2010Prop40
 90
        0
102
RTVSPost2010PropOp40
 70
     1
102
RTVSPost2010Prop41ColorIndex
 90
       18
102
RTVSPost2010Prop41ColorRGB
 90
        0
102
RTVSPost2010PropOp41
 70
     1
102
RTVSPost2010Prop42
 90
       50
102
RTVSPost2010PropOp42
 70
     1
102
RTVSPost2010Prop43
 90
        3
102
RTVSPost2010PropOp43
 70
     1
102
RTVSPost2010Prop44ColorIndex
 90
        5
102
RTVSPost2010Prop44ColorRGB
 90
      255
102
RTVSPost2010PropOp44
 70
     1
102
RTVSPost2010Prop45
280
     0
102
RTVSPost2010PropOp45
 70
     1
102
RTVSPost2010Prop46
 90
       50
102
RTVSPost2010PropOp46
 70
     1
102
RTVSPost2010Prop47
 90
       50
102
RTVSPost2010PropOp47
 70
     1
102
RTVSPost2010Prop48
 90
       50
102
RTVSPost2010PropOp48
 70
     1
102
RTVSPost2010Prop49
280
     0
102
RTVSPost2010PropOp49
 70
     1
102
RTVSPost2010Prop50
 90
       50
102
RTVSPost2010PropOp50
 70
     1
102
RTVSPost2010Prop51ColorIndex
 90
      256
102
RTVSPost2010Prop51ColorRGB
 90
-16777216
102
RTVSPost2010PropOp51
 70
     0
102
RTVSPost2010Prop52
140
1.0
102
RTVSPost2010PropOp52
 70
     0
102
RTVSPost2010Prop53
 90
        2
102
RTVSPost2010PropOp53
 70
     1
102
RTVSPost2010Prop54
  1
strokes_ogs.tif
102
RTVSPost2010PropOp54
 70
     1
102
RTVSPost2010Prop55
280
     0
102
RTVSPost2010PropOp55
 70
     1
102
RTVSPost2010Prop56
140
1.0
102
RTVSPost2010PropOp56
 70
     1
102
RTVSPost2010Prop57
140
1.0
102
RTVSPost2010PropOp57
 70
     1
  0
XRECORD
  5
DC
102
{ACAD_REACTORS
330
DB
102
}
330
DB
100
AcDbXrecord
280
     1
102
RTVSPropertyOp0
 70
     1
102
RTVSPropertyOp1
 70
     1
102
RTVSPropertyOp2
 70
     1
102
RTVSPropertyOp3
 70
     1
102
RTVSPropertyOp4
 70
     1
102
RTVSPropertyOp5
 70
     1
102
RTVSPropertyOp6
 70
     1
102
RTVSPropertyOp7
 70
     1
102
RTVSPropertyOp8
 70
     1
102
RTVSPropertyOp9
 70
     1
102
RTVSPropertyOp10
 70
     1
102
RTVSPropertyOp11
 70
     1
102
RTVSPropertyOp12
 70
     1
102
RTVSPropertyOp13
 70
     1
102
RTVSPropertyOp14
 70
     1
102
RTVSPropertyOp15
 70
     1
102
RTVSPropertyOp16
 70
     1
102
RTVSPropertyOp17
 70
     1
102
RTVSPropertyOp18
 70
     1
102
RTVSPropertyOp19
 70
     1
102
RTVSPropertyOp20
 70
     1
102
RTVSPropertyOp21
 70
     1
102
RTVSPropertyOp22
 70
     1
102
RTVSPropertyOp23
 70
     1
102
RTVSPropertyOp24
 70
     1
102
RTVSPropertyOp25
 70
     1
102
RTVSPropertyOp26
 70
     1
102
RTVSPropertyOp27
 70
     1
102
RTVSPropertyOp28
 70
     1
102
RTVSPropertyOp29
 70
     1
102
RTVSPropertyOp30
 70
     1
102
RTVSPropertyOp31
 70
     1
102
RTVSPropertyOp32
 70
     1
102
RTVSPropertyOp33
 70
     1
102
RTVSPropertyOp34
 70
     1
102
RTVSPropertyOp35
 70
     1
102
RTVSPropertyOp36
 70
     1
102
RTVSPropertyOp37
 70
     1
102
RTVSPropertyOp38
 70
     1
102
RTVSPropertyOp39
 70
     1
102
RTVSPropertyOp40
 70
     1
102
RTVSPropertyOp41
 70
     1
102
RTVSPropertyOp42
 70
     1
102
RTVSPropertyOp43
 70
     1
102
RTVSPropertyOp44
 70
     1
102
RTVSPropertyOp45
 70
     1
102
RTVSPropertyOp46
 70
     1
102
RTVSPropertyOp47
 70
     1
102
RTVSPropertyOp48
 70
     1
102
RTVSPropertyOp49
 70
     1
102
RTVSPropertyOp50
 70
     1
102
RTVSPropertyOp51
 70
     0
102
RTVSPropertyOp52
 70
     0
102
RTVSPropertyOp53
 70
     1
102
RTVSPropertyOp54
 70
     1
102
RTVSPropertyOp55
 70
     1
102
RTVSPropertyOp56
 70
     1
102
RTVSPropertyOp57
 70
     1
102
RTVSPost2010Prop28
280
     0
102
RTVSPost2010PropOp28
 70
     1
102
RTVSPost2010Prop29
280
     1
102
RTVSPost2010PropOp29
 70
     1
102
RTVSPost2010Prop30
280
     1
102
RTVSPost2010PropOp30
 70
     1
102
RTVSPost2010Prop31
280
     0
102
RTVSPost2010PropOp31
 70
     1
102
RTVSPost2010Prop32
280
     0
102
RTVSPost2010PropOp32
 70
     1
102
RTVSPost2010Prop33
280
     0
102
RTVSPost2010PropOp33
 70
     1
102
RTVSPost2010Prop34
280
     0
102
RTVSPost2010PropOp34
 70
     1
102
RTVSPost2010Prop35
280
     0
102
RTVSPost2010PropOp35
 70
     1
102
RTVSPost2010Prop36
280
     0
102
RTVSPost2010PropOp36
 70
     1
102
RTVSPost2010Prop37
 90
       50
102
RTVSPost2010PropOp37
 70
     1
102
RTVSPost2010Prop38
140
0.0
102
RTVSPost2010PropOp38
 70
     1
102
RTVSPost2010Prop39
140
1.0
102
RTVSPost2010PropOp39
 70
     1
102
RTVSPost2010Prop40
 90
        0
102
RTVSPost2010PropOp40
 70
     1
102
RTVSPost2010Prop41ColorIndex
 90
       18
102
RTVSPost2010Prop41ColorRGB
 90
        0
102
RTVSPost2010PropOp41
 70
     1
102
RTVSPost2010Prop42
 90
       50
102
RTVSPost2010PropOp42
 70
     1
102
RTVSPost2010Prop43
 90
        3
102
RTVSPost2010PropOp43
 70
     1
102
RTVSPost2010Prop44ColorIndex
 90
        5
102
RTVSPost2010Prop44ColorRGB
 90
      255
102
RTVSPost2010PropOp44
 70
     1
102
RTVSPost2010Prop45
280
     0
102
RTVSPost2010PropOp45
 70
     1
102
RTVSPost2010Prop46
 90
       50
102
RTVSPost2010PropOp46
 70
     1
102
RTVSPost2010Prop47
 90
       50
102
RTVSPost2010PropOp47
 70
     1
102
RTVSPost2010Prop48
 90
       50
102
RTVSPost2010PropOp48
 70
     1
102
RTVSPost2010Prop49
280
     0
102
RTVSPost2010PropOp49
 70
     1
102
RTVSPost2010Prop50
 90
       50
102
RTVSPost2010PropOp50
 70
     1
102
RTVSPost2010Prop51ColorIndex
 90
      256
102
RTVSPost2010Prop51ColorRGB
 90
-16777216
102
RTVSPost2010PropOp51
 70
     0
102
RTVSPost2010Prop52
140
1.0
102
RTVSPost2010PropOp52
 70
     0
102
RTVSPost2010Prop53
 90
        2
102
RTVSPost2010PropOp53
 70
     1
102
RTVSPost2010Prop54
  1
strokes_ogs.tif
102
RTVSPost2010PropOp54
 70
     1
102
RTVSPost2010Prop55
280
     0
102
RTVSPost2010PropOp55
 70
     1
102
RTVSPost2010Prop56
140
1.0
102
RTVSPost2010PropOp56
 70
     1
102
RTVSPost2010Prop57
140
1.0
102
RTVSPost2010PropOp57
 70
     1
  0
XRECORD
  5
CE
102
{ACAD_REACTORS
330
CD
102
}
330
CD
100
AcDbXrecord
280
     1
102
RTVSPropertyOp0
 70
     1
102
RTVSPropertyOp1
 70
     1
102
RTVSPropertyOp2
 70
     1
102
RTVSPropertyOp3
 70
     1
102
RTVSPropertyOp4
 70
     1
102
RTVSPropertyOp5
 70
     1
102
RTVSPropertyOp6
 70
     1
102
RTVSPropertyOp7
 70
     1
102
RTVSPropertyOp8
 70
     1
102
RTVSPropertyOp9
 70
     1
102
RTVSPropertyOp10
 70
     1
102
RTVSPropertyOp11
 70
     1
102
RTVSPropertyOp12
 70
     1
102
RTVSPropertyOp13
 70
     1
102
RTVSPropertyOp14
 70
     1
102
RTVSPropertyOp15
 70
     1
102
RTVSPropertyOp16
 70
     1
102
RTVSPropertyOp17
 70
     1
102
RTVSPropertyOp18
 70
     1
102
RTVSPropertyOp19
 70
     1
102
RTVSPropertyOp20
 70
     1
102
RTVSPropertyOp21
 70
     1
102
RTVSPropertyOp22
 70
     1
102
RTVSPropertyOp23
 70
     1
102
RTVSPropertyOp24
 70
     1
102
RTVSPropertyOp25
 70
     1
102
RTVSPropertyOp26
 70
     1
102
RTVSPropertyOp27
 70
     1
102
RTVSPropertyOp28
 70
     1
102
RTVSPropertyOp29
 70
     1
102
RTVSPropertyOp30
 70
     1
102
RTVSPropertyOp31
 70
     1
102
RTVSPropertyOp32
 70
     1
102
RTVSPropertyOp33
 70
     1
102
RTVSPropertyOp34
 70
     1
102
RTVSPropertyOp35
 70
     1
102
RTVSPropertyOp36
 70
     1
102
RTVSPropertyOp37
 70
     1
102
RTVSPropertyOp38
 70
     1
102
RTVSPropertyOp39
 70
     1
102
RTVSPropertyOp40
 70
     1
102
RTVSPropertyOp41
 70
     1
102
RTVSPropertyOp42
 70
     1
102
RTVSPropertyOp43
 70
     1
102
RTVSPropertyOp44
 70
     1
102
RTVSPropertyOp45
 70
     1
102
RTVSPropertyOp46
 70
     1
102
RTVSPropertyOp47
 70
     1
102
RTVSPropertyOp48
 70
     1
102
RTVSPropertyOp49
 70
     1
102
RTVSPropertyOp50
 70
     1
102
RTVSPropertyOp51
 70
     0
102
RTVSPropertyOp52
 70
     0
102
RTVSPropertyOp53
 70
     1
102
RTVSPropertyOp54
 70
     1
102
RTVSPropertyOp55
 70
     1
102
RTVSPropertyOp56
 70
     1
102
RTVSPropertyOp57
 70
     1
102
RTVSPost2010Prop28
280
     0
102
RTVSPost2010PropOp28
 70
     1
102
RTVSPost2010Prop29
280
     1
102
RTVSPost2010PropOp29
 70
     1
102
RTVSPost2010Prop30
280
     1
102
RTVSPost2010PropOp30
 70
     1
102
RTVSPost2010Prop31
280
     0
102
RTVSPost2010PropOp31
 70
     1
102
RTVSPost2010Prop32
280
     0
102
RTVSPost2010PropOp32
 70
     1
102
RTVSPost2010Prop33
280
     0
102
RTVSPost2010PropOp33
 70
     1
102
RTVSPost2010Prop34
280
     0
102
RTVSPost2010PropOp34
 70
     1
102
RTVSPost2010Prop35
280
     0
102
RTVSPost2010PropOp35
 70
     1
102
RTVSPost2010Prop36
280
     0
102
RTVSPost2010PropOp36
 70
     1
102
RTVSPost2010Prop37
 90
       50
102
RTVSPost2010PropOp37
 70
     1
102
RTVSPost2010Prop38
140
0.0
102
RTVSPost2010PropOp38
 70
     1
102
RTVSPost2010Prop39
140
1.0
102
RTVSPost2010PropOp39
 70
     1
102
RTVSPost2010Prop40
 90
        0
102
RTVSPost2010PropOp40
 70
     1
102
RTVSPost2010Prop41ColorIndex
 90
       18
102
RTVSPost2010Prop41ColorRGB
 90
        0
102
RTVSPost2010PropOp41
 70
     1
102
RTVSPost2010Prop42
 90
       50
102
RTVSPost2010PropOp42
 70
     1
102
RTVSPost2010Prop43
 90
        3
102
RTVSPost2010PropOp43
 70
     1
102
RTVSPost2010Prop44ColorIndex
 90
        5
102
RTVSPost2010Prop44ColorRGB
 90
      255
102
RTVSPost2010PropOp44
 70
     1
102
RTVSPost2010Prop45
280
     0
102
RTVSPost2010PropOp45
 70
     1
102
RTVSPost2010Prop46
 90
       50
102
RTVSPost2010PropOp46
 70
     1
102
RTVSPost2010Prop47
 90
       50
102
RTVSPost2010PropOp47
 70
     1
102
RTVSPost2010Prop48
 90
       50
102
RTVSPost2010PropOp48
 70
     1
102
RTVSPost2010Prop49
280
     0
102
RTVSPost2010PropOp49
 70
     1
102
RTVSPost2010Prop50
 90
       50
102
RTVSPost2010PropOp50
 70
     1
102
RTVSPost2010Prop51ColorIndex
 90
      256
102
RTVSPost2010Prop51ColorRGB
 90
-16777216
102
RTVSPost2010PropOp51
 70
     0
102
RTVSPost2010Prop52
140
1.0
102
RTVSPost2010PropOp52
 70
     0
102
RTVSPost2010Prop53
 90
        2
102
RTVSPost2010PropOp53
 70
     1
102
RTVSPost2010Prop54
  1
strokes_ogs.tif
102
RTVSPost2010PropOp54
 70
     1
102
RTVSPost2010Prop55
280
     0
102
RTVSPost2010PropOp55
 70
     1
102
RTVSPost2010Prop56
140
1.0
102
RTVSPost2010PropOp56
 70
     1
102
RTVSPost2010Prop57
140
1.0
102
RTVSPost2010PropOp57
 70
     1
  0
XRECORD
  5
EE
102
{ACAD_REACTORS
330
ED
102
}
330
ED
100
AcDbXrecord
280
     1
102
RTVSPropertyOp0
 70
     1
102
RTVSPropertyOp1
 70
     1
102
RTVSPropertyOp2
 70
     1
102
RTVSPropertyOp3
 70
     1
102
RTVSPropertyOp4
 70
     1
102
RTVSPropertyOp5
 70
     1
102
RTVSPropertyOp6
 70
     1
102
RTVSPropertyOp7
 70
     1
102
RTVSPropertyOp8
 70
     1
102
RTVSPropertyOp9
 70
     1
102
RTVSPropertyOp10
 70
     1
102
RTVSPropertyOp11
 70
     1
102
RTVSPropertyOp12
 70
     1
102
RTVSPropertyOp13
 70
     1
102
RTVSPropertyOp14
 70
     1
102
RTVSPropertyOp15
 70
     1
102
RTVSPropertyOp16
 70
     1
102
RTVSPropertyOp17
 70
     1
102
RTVSPropertyOp18
 70
     1
102
RTVSPropertyOp19
 70
     1
102
RTVSPropertyOp20
 70
     1
102
RTVSPropertyOp21
 70
     1
102
RTVSPropertyOp22
 70
     1
102
RTVSPropertyOp23
 70
     1
102
RTVSPropertyOp24
 70
     1
102
RTVSPropertyOp25
 70
     1
102
RTVSPropertyOp26
 70
     1
102
RTVSPropertyOp27
 70
     1
102
RTVSPropertyOp28
 70
     1
102
RTVSPropertyOp29
 70
     1
102
RTVSPropertyOp30
 70
     1
102
RTVSPropertyOp31
 70
     1
102
RTVSPropertyOp32
 70
     1
102
RTVSPropertyOp33
 70
     1
102
RTVSPropertyOp34
 70
     1
102
RTVSPropertyOp35
 70
     1
102
RTVSPropertyOp36
 70
     1
102
RTVSPropertyOp37
 70
     1
102
RTVSPropertyOp38
 70
     1
102
RTVSPropertyOp39
 70
     1
102
RTVSPropertyOp40
 70
     1
102
RTVSPropertyOp41
 70
     1
102
RTVSPropertyOp42
 70
     1
102
RTVSPropertyOp43
 70
     1
102
RTVSPropertyOp44
 70
     1
102
RTVSPropertyOp45
 70
     1
102
RTVSPropertyOp46
 70
     1
102
RTVSPropertyOp47
 70
     1
102
RTVSPropertyOp48
 70
     1
102
RTVSPropertyOp49
 70
     1
102
RTVSPropertyOp50
 70
     1
102
RTVSPropertyOp51
 70
     0
102
RTVSPropertyOp52
 70
     0
102
RTVSPropertyOp53
 70
     1
102
RTVSPropertyOp54
 70
     1
102
RTVSPropertyOp55
 70
     1
102
RTVSPropertyOp56
 70
     1
102
RTVSPropertyOp57
 70
     1
102
RTVSPost2010Prop28
280
     0
102
RTVSPost2010PropOp28
 70
     1
102
RTVSPost2010Prop29
280
     1
102
RTVSPost2010PropOp29
 70
     1
102
RTVSPost2010Prop30
280
     1
102
RTVSPost2010PropOp30
 70
     1
102
RTVSPost2010Prop31
280
     0
102
RTVSPost2010PropOp31
 70
     1
102
RTVSPost2010Prop32
280
     0
102
RTVSPost2010PropOp32
 70
     1
102
RTVSPost2010Prop33
280
     0
102
RTVSPost2010PropOp33
 70
     1
102
RTVSPost2010Prop34
280
     0
102
RTVSPost2010PropOp34
 70
     1
102
RTVSPost2010Prop35
280
     0
102
RTVSPost2010PropOp35
 70
     1
102
RTVSPost2010Prop36
280
     0
102
RTVSPost2010PropOp36
 70
     1
102
RTVSPost2010Prop37
 90
       50
102
RTVSPost2010PropOp37
 70
     1
102
RTVSPost2010Prop38
140
0.0
102
RTVSPost2010PropOp38
 70
     1
102
RTVSPost2010Prop39
140
1.0
102
RTVSPost2010PropOp39
 70
     1
102
RTVSPost2010Prop40
 90
        0
102
RTVSPost2010PropOp40
 70
     1
102
RTVSPost2010Prop41ColorIndex
 90
       18
102
RTVSPost2010Prop41ColorRGB
 90
        0
102
RTVSPost2010PropOp41
 70
     1
102
RTVSPost2010Prop42
 90
       50
102
RTVSPost2010PropOp42
 70
     1
102
RTVSPost2010Prop43
 90
        3
102
RTVSPost2010PropOp43
 70
     1
102
RTVSPost2010Prop44ColorIndex
 90
        5
102
RTVSPost2010Prop44ColorRGB
 90
      255
102
RTVSPost2010PropOp44
 70
     1
102
RTVSPost2010Prop45
280
     0
102
RTVSPost2010PropOp45
 70
     1
102
RTVSPost2010Prop46
 90
       50
102
RTVSPost2010PropOp46
 70
     1
102
RTVSPost2010Prop47
 90
       50
102
RTVSPost2010PropOp47
 70
     1
102
RTVSPost2010Prop48
 90
       50
102
RTVSPost2010PropOp48
 70
     1
102
RTVSPost2010Prop49
280
     0
102
RTVSPost2010PropOp49
 70
     1
102
RTVSPost2010Prop50
 90
       50
102
RTVSPost2010PropOp50
 70
     1
102
RTVSPost2010Prop51ColorIndex
 90
      256
102
RTVSPost2010Prop51ColorRGB
 90
-16777216
102
RTVSPost2010PropOp51
 70
     0
102
RTVSPost2010Prop52
140
1.0
102
RTVSPost2010PropOp52
 70
     0
102
RTVSPost2010Prop53
 90
        2
102
RTVSPost2010PropOp53
 70
     1
102
RTVSPost2010Prop54
  1
strokes_ogs.tif
102
RTVSPost2010PropOp54
 70
     1
102
RTVSPost2010Prop55
280
     0
102
RTVSPost2010PropOp55
 70
     1
102
RTVSPost2010Prop56
140
1.0
102
RTVSPost2010PropOp56
 70
     1
102
RTVSPost2010Prop57
140
1.0
102
RTVSPost2010PropOp57
 70
     1
  0
ENDSEC
  0
EOF
