  0
SECTION
  2
HEADER
  9
$ACADVER
  1
AC1018
  9
$ACADMAINTVER
 70
     0
  9
$DWGCODEPAGE
  3
ANSI_1252
  9
$INSBASE
 10
0.0
 20
0.0
 30
0.0
  9
$EXTMIN
 10
-21.164
 20
-43.3142
 30
0.0
  9
$EXTMAX
 10
21.164
 20
43.3143
 30
0.0
  9
$LIMMIN
 10
0.0
 20
0.0
  9
$LIMMAX
 10
12.0
 20
9.0
  9
$ORTHOMODE
 70
     0
  9
$REGENMODE
 70
     1
  9
$FILLMODE
 70
     1
  9
$QTEXTMODE
 70
     0
  9
$MIRRTEXT
 70
     1
  9
$LTSCALE
 40
1.0
  9
$ATTMODE
 70
     1
  9
$TEXTSIZE
 40
0.2
  9
$TRACEWID
 40
0.05
  9
$TEXTSTYLE
  7
Standard
  9
$CLAYER
  8
0
  9
$CELTYPE
  6
ByLayer
  9
$CECOLOR
 62
   256
  9
$CELTSCALE
 40
1.0
  9
$DISPSILH
 70
     0
  9
$DIMSCALE
 40
1.0
  9
$DIMASZ
 40
0.18
  9
$DIMEXO
 40
0.0625
  9
$DIMDLI
 40
0.38
  9
$DIMRND
 40
0.0
  9
$DIMDLE
 40
0.0
  9
$DIMEXE
 40
0.18
  9
$DIMTP
 40
0.0
  9
$DIMTM
 40
0.0
  9
$DIMTXT
 40
0.18
  9
$DIMCEN
 40
0.09
  9
$DIMTSZ
 40
0.0
  9
$DIMTOL
 70
     0
  9
$DIMLIM
 70
     0
  9
$DIMTIH
 70
     1
  9
$DIMTOH
 70
     1
  9
$DIMSE1
 70
     0
  9
$DIMSE2
 70
     0
  9
$DIMTAD
 70
     0
  9
$DIMZIN
 70
     0
  9
$DIMBLK
  1

  9
$DIMASO
 70
     1
  9
$DIMSHO
 70
     1
  9
$DIMPOST
  1

  9
$DIMAPOST
  1

  9
$DIMALT
 70
     0
  9
$DIMALTD
 70
     2
  9
$DIMALTF
 40
25.4
  9
$DIMLFAC
 40
1.0
  9
$DIMTOFL
 70
     0
  9
$DIMTVP
 40
0.0
  9
$DIMTIX
 70
     0
  9
$DIMSOXD
 70
     0
  9
$DIMSAH
 70
     0
  9
$DIMBLK1
  1

  9
$DIMBLK2
  1

  9
$DIMSTYLE
  2
Standard
  9
$DIMCLRD
 70
     0
  9
$DIMCLRE
 70
     0
  9
$DIMCLRT
 70
     0
  9
$DIMTFAC
 40
1.0
  9
$DIMGAP
 40
0.09
  9
$DIMJUST
 70
     0
  9
$DIMSD1
 70
     0
  9
$DIMSD2
 70
     0
  9
$DIMTOLJ
 70
     1
  9
$DIMTZIN
 70
     0
  9
$DIMALTZ
 70
     0
  9
$DIMALTTZ
 70
     0
  9
$DIMUPT
 70
     0
  9
$DIMDEC
 70
     4
  9
$DIMTDEC
 70
     4
  9
$DIMALTU
 70
     2
  9
$DIMALTTD
 70
     2
  9
$DIMTXSTY
  7
Standard
  9
$DIMAUNIT
 70
     0
  9
$DIMADEC
 70
     0
  9
$DIMALTRND
 40
0.0
  9
$DIMAZIN
 70
     0
  9
$DIMDSEP
 70
    46
  9
$DIMATFIT
 70
     3
  9
$DIMFRAC
 70
     0
  9
$DIMLDRBLK
  1

  9
$DIMLUNIT
 70
     2
  9
$DIMLWD
 70
    -2
  9
$DIMLWE
 70
    -2
  9
$DIMTMOVE
 70
     0
  9
$LUNITS
 70
     2
  9
$LUPREC
 70
     4
  9
$SKETCHINC
 40
0.1
  9
$FILLETRAD
 40
0.5
  9
$AUNITS
 70
     0
  9
$AUPREC
 70
     0
  9
$MENU
  1
.
  9
$ELEVATION
 40
0.0
  9
$PELEVATION
 40
0.0
  9
$THICKNESS
 40
0.0
  9
$LIMCHECK
 70
     0
  9
$CHAMFERA
 40
0.0
  9
$CHAMFERB
 40
0.0
  9
$CHAMFERC
 40
0.0
  9
$CHAMFERD
 40
0.0
  9
$SKPOLY
 70
     0
  9
$TDCREATE
 40
2458283.789509456
  9
$TDUCREATE
 40
2458283.497842789
  9
$TDUPDATE
 40
2458283.789509479
  9
$TDUUPDATE
 40
2458283.497842812
  9
$TDINDWG
 40
0.0000000116
  9
$TDUSRTIMER
 40
0.0000000116
  9
$USRTIMER
 70
     1
  9
$ANGBASE
 50
0.0
  9
$ANGDIR
 70
     0
  9
$PDMODE
 70
     0
  9
$PDSIZE
 40
0.0
  9
$PLINEWID
 40
0.0
  9
$SPLFRAME
 70
     0
  9
$SPLINETYPE
 70
     6
  9
$SPLINESEGS
 70
     8
  9
$HANDSEED
  5
125
  9
$SURFTAB1
 70
     6
  9
$SURFTAB2
 70
     6
  9
$SURFTYPE
 70
     6
  9
$SURFU
 70
     6
  9
$SURFV
 70
     6
  9
$UCSBASE
  2

  9
$UCSNAME
  2

  9
$UCSORG
 10
0.0
 20
0.0
 30
0.0
  9
$UCSXDIR
 10
1.0
 20
0.0
 30
0.0
  9
$UCSYDIR
 10
0.0
 20
1.0
 30
0.0
  9
$UCSORTHOREF
  2

  9
$UCSORTHOVIEW
 70
     0
  9
$UCSORGTOP
 10
0.0
 20
0.0
 30
0.0
  9
$UCSORGBOTTOM
 10
0.0
 20
0.0
 30
0.0
  9
$UCSORGLEFT
 10
0.0
 20
0.0
 30
0.0
  9
$UCSORGRIGHT
 10
0.0
 20
0.0
 30
0.0
  9
$UCSORGFRONT
 10
0.0
 20
0.0
 30
0.0
  9
$UCSORGBACK
 10
0.0
 20
0.0
 30
0.0
  9
$PUCSBASE
  2

  9
$PUCSNAME
  2

  9
$PUCSORG
 10
0.0
 20
0.0
 30
0.0
  9
$PUCSXDIR
 10
1.0
 20
0.0
 30
0.0
  9
$PUCSYDIR
 10
0.0
 20
1.0
 30
0.0
  9
$PUCSORTHOREF
  2

  9
$PUCSORTHOVIEW
 70
     0
  9
$PUCSORGTOP
 10
0.0
 20
0.0
 30
0.0
  9
$PUCSORGBOTTOM
 10
0.0
 20
0.0
 30
0.0
  9
$PUCSORGLEFT
 10
0.0
 20
0.0
 30
0.0
  9
$PUCSORGRIGHT
 10
0.0
 20
0.0
 30
0.0
  9
$PUCSORGFRONT
 10
0.0
 20
0.0
 30
0.0
  9
$PUCSORGBACK
 10
0.0
 20
0.0
 30
0.0
  9
$USERI1
 70
     0
  9
$USERI2
 70
     0
  9
$USERI3
 70
     0
  9
$USERI4
 70
     0
  9
$USERI5
 70
     0
  9
$USERR1
 40
0.0
  9
$USERR2
 40
0.0
  9
$USERR3
 40
0.0
  9
$USERR4
 40
0.0
  9
$USERR5
 40
0.0
  9
$WORLDVIEW
 70
     1
  9
$SHADEDGE
 70
     3
  9
$SHADEDIF
 70
    70
  9
$TILEMODE
 70
     1
  9
$MAXACTVP
 70
    64
  9
$PINSBASE
 10
0.0
 20
0.0
 30
0.0
  9
$PLIMCHECK
 70
     0
  9
$PEXTMIN
 10
1.000000000000000E+20
 20
1.000000000000000E+20
 30
1.000000000000000E+20
  9
$PEXTMAX
 10
-1.000000000000000E+20
 20
-1.000000000000000E+20
 30
-1.000000000000000E+20
  9
$PLIMMIN
 10
0.0
 20
0.0
  9
$PLIMMAX
 10
12.0
 20
9.0
  9
$UNITMODE
 70
     0
  9
$VISRETAIN
 70
     1
  9
$PLINEGEN
 70
     0
  9
$PSLTSCALE
 70
     1
  9
$TREEDEPTH
 70
  3020
  9
$CMLSTYLE
  2
Standard
  9
$CMLJUST
 70
     0
  9
$CMLSCALE
 40
1.0
  9
$PROXYGRAPHICS
 70
     1
  9
$MEASUREMENT
 70
     0
  9
$CELWEIGHT
370
    -1
  9
$ENDCAPS
280
     0
  9
$JOINSTYLE
280
     0
  9
$LWDISPLAY
290
     0
  9
$INSUNITS
 70
     4
  9
$HYPERLINKBASE
  1

  9
$STYLESHEET
  1

  9
$XEDIT
290
     1
  9
$CEPSNTYPE
380
     0
  9
$PSTYLEMODE
290
     1
  9
$FINGERPRINTGUID
  2
{2030B78C-8B3F-4C39-A1D3-F3290161DFB6}
  9
$VERSIONGUID
  2
{FAEB1C32-E019-11D5-929B-00C0DF256EC4}
  9
$EXTNAMES
290
     1
  9
$PSVPSCALE
 40
0.0
  9
$OLESTARTUP
290
     0
  9
$SORTENTS
280
   127
  9
$INDEXCTL
280
     0
  9
$HIDETEXT
280
     1
  9
$XCLIPFRAME
290
     0
  9
$HALOGAP
280
     0
  9
$OBSCOLOR
 70
   257
  9
$OBSLTYPE
280
     0
  9
$INTERSECTIONDISPLAY
280
     0
  9
$INTERSECTIONCOLOR
 70
   257
  9
$DIMASSOC
280
     2
  9
$PROJECTNAME
  1

  0
ENDSEC
  0
SECTION
  2
CLASSES
  0
CLASS
  1
ACDBDICTIONARYWDFLT
  2
AcDbDictionaryWithDefault
  3
ObjectDBX Classes
 90
        0
 91
        4
280
     0
281
     0
  0
CLASS
  1
VISUALSTYLE
  2
AcDbVisualStyle
  3
ObjectDBX Classes
 90
     4095
 91
        4
280
     0
281
     0
  0
CLASS
  1
MATERIAL
  2
AcDbMaterial
  3
ObjectDBX Classes
 90
     1153
 91
        4
280
     0
281
     0
  0
CLASS
  1
SCALE
  2
AcDbScale
  3
ObjectDBX Classes
 90
     1153
 91
        4
280
     0
281
     0
  0
CLASS
  1
TABLESTYLE
  2
AcDbTableStyle
  3
ObjectDBX Classes
 90
     4095
 91
        4
280
     0
281
     0
  0
CLASS
  1
MLEADERSTYLE
  2
AcDbMLeaderStyle
  3
ACDB_MLEADERSTYLE_CLASS
 90
     4095
 91
        4
280
     0
281
     0
  0
CLASS
  1
SUN
  2
AcDbSun
  3
SCENEOE
 90
     1153
 91
        4
280
     0
281
     0
  0
CLASS
  1
DICTIONARYVAR
  2
AcDbDictionaryVar
  3
ObjectDBX Classes
 90
        0
 91
        4
280
     0
281
     0
  0
CLASS
  1
CELLSTYLEMAP
  2
AcDbCellStyleMap
  3
ObjectDBX Classes
 90
     1152
 91
        4
280
     0
281
     0
  0
ENDSEC
  0
SECTION
  2
TABLES
  0
TABLE
  2
VPORT
  5
8
102
{ACAD_XDICTIONARY
360
DE
102
}
330
0
100
AcDbSymbolTable
 70
     1
  0
VPORT
  5
29
330
8
100
AcDbSymbolTableRecord
100
AcDbViewportTableRecord
  2
*Active
 70
     0
 10
0.0
 20
0.0
 11
1.0
 21
1.0
 12
10.42990654205607
 22
4.5
 13
0.0
 23
0.0
 14
0.5
 24
0.5
 15
0.5
 25
0.5
 16
0.0
 26
0.0
 36
1.0
 17
0.0
 27
0.0
 37
0.0
 40
9.0
 41
1.972972972850329
 42
50.0
 43
0.0
 44
0.0
 50
0.0
 51
0.0
 71
     0
 72
   100
 73
     1
 74
     3
 75
     0
 76
     0
 77
     0
 78
     0
281
     0
 65
     1
110
0.0
120
0.0
130
0.0
111
1.0
121
0.0
131
0.0
112
0.0
122
1.0
132
0.0
 79
     0
146
0.0
  0
ENDTAB
  0
TABLE
  2
LTYPE
  5
5
330
0
100
AcDbSymbolTable
 70
     1
  0
LTYPE
  5
14
330
5
100
AcDbSymbolTableRecord
100
AcDbLinetypeTableRecord
  2
ByBlock
 70
     0
  3

 72
    65
 73
     0
 40
0.0
  0
LTYPE
  5
15
330
5
100
AcDbSymbolTableRecord
100
AcDbLinetypeTableRecord
  2
ByLayer
 70
     0
  3

 72
    65
 73
     0
 40
0.0
  0
LTYPE
  5
16
330
5
100
AcDbSymbolTableRecord
100
AcDbLinetypeTableRecord
  2
Continuous
 70
     0
  3
Solid line
 72
    65
 73
     0
 40
0.0
  0
ENDTAB
  0
TABLE
  2
LAYER
  5
2
330
0
100
AcDbSymbolTable
 70
     2
  0
LAYER
  5
10
330
2
100
AcDbSymbolTableRecord
100
AcDbLayerTableRecord
  2
0
 70
     0
 62
     7
  6
Continuous
370
    -3
390
F
  0
LAYER
  5
6F
330
2
100
AcDbSymbolTableRecord
100
AcDbLayerTableRecord
  2
Layer 1
 70
     0
 62
     7
  6
Continuous
370
    -3
390
F
  0
ENDTAB
  0
TABLE
  2
STYLE
  5
3
330
0
100
AcDbSymbolTable
 70
     1
  0
STYLE
  5
11
330
3
100
AcDbSymbolTableRecord
100
AcDbTextStyleTableRecord
  2
Standard
 70
     0
 40
0.0
 41
1.0
 50
0.0
 71
     0
 42
0.2
  3
txt
  4

  0
ENDTAB
  0
TABLE
  2
VIEW
  5
6
330
0
100
AcDbSymbolTable
 70
     0
  0
ENDTAB
  0
TABLE
  2
UCS
  5
7
330
0
100
AcDbSymbolTable
 70
     0
  0
ENDTAB
  0
TABLE
  2
APPID
  5
9
330
0
100
AcDbSymbolTable
 70
     3
  0
APPID
  5
12
330
9
100
AcDbSymbolTableRecord
100
AcDbRegAppTableRecord
  2
ACAD
 70
     0
  0
APPID
  5
6E
330
9
100
AcDbSymbolTableRecord
100
AcDbRegAppTableRecord
  2
ODA
 70
     0
  0
APPID
  5
11D
330
9
100
AcDbSymbolTableRecord
100
AcDbRegAppTableRecord
  2
ACAD_MLEADERVER
 70
     0
  0
ENDTAB
  0
TABLE
  2
DIMSTYLE
  5
A
330
0
100
AcDbSymbolTable
 70
     1
100
AcDbDimStyleTable
  0
DIMSTYLE
105
27
330
A
100
AcDbSymbolTableRecord
100
AcDbDimStyleTableRecord
  2
Standard
 70
     0
178
     0
340
11
  0
ENDTAB
  0
TABLE
  2
BLOCK_RECORD
  5
1
330
0
100
AcDbSymbolTable
 70
     1
  0
BLOCK_RECORD
  5
1F
330
1
100
AcDbSymbolTableRecord
100
AcDbBlockTableRecord
  2
*Model_Space
340
22
  0
BLOCK_RECORD
  5
1B
330
1
100
AcDbSymbolTableRecord
100
AcDbBlockTableRecord
  2
*Paper_Space
340
1E
  0
BLOCK_RECORD
  5
23
330
1
100
AcDbSymbolTableRecord
100
AcDbBlockTableRecord
  2
*Paper_Space0
340
26
  0
ENDTAB
  0
ENDSEC
  0
SECTION
  2
BLOCKS
  0
BLOCK
  5
20
330
1F
100
AcDbEntity
  8
0
100
AcDbBlockBegin
  2
*Model_Space
 70
     0
 10
0.0
 20
0.0
 30
0.0
  3
*Model_Space
  1
*Model_Space
  0
ENDBLK
  5
21
330
1F
100
AcDbEntity
  8
0
100
AcDbBlockEnd
  0
BLOCK
  5
1C
330
1B
100
AcDbEntity
 67
     1
  8
0
100
AcDbBlockBegin
  2
*Paper_Space
 70
     0
 10
0.0
 20
0.0
 30
0.0
  3
*Paper_Space
  1
*Paper_Space
  0
ENDBLK
  5
1D
330
1B
100
AcDbEntity
 67
     1
  8
0
100
AcDbBlockEnd
  0
BLOCK
  5
24
330
23
100
AcDbEntity
  8
0
100
AcDbBlockBegin
  2
*Paper_Space0
 70
     0
 10
0.0
 20
0.0
 30
0.0
  3
*Paper_Space0
  1
*Paper_Space0
  0
ENDBLK
  5
25
330
23
100
AcDbEntity
  8
0
100
AcDbBlockEnd
  0
ENDSEC
  0
SECTION
  2
ENTITIES
  0
SPLINE
  5
70
330
1F
100
AcDbEntity
  8
Layer 1
 62
   175
100
AcDbSpline
210
0.0
220
0.0
230
1.0
 70
    11
 71
     3
 72
    20
 73
    16
 74
     0
 42
0.000000001
 43
0.0000000001
 40
0.0
 40
0.0
 40
0.0
 40
0.0
 40
0.2
 40
0.2
 40
0.2
 40
0.2
 40
0.4
 40
0.4
 40
0.4
 40
0.4
 40
0.6
 40
0.6
 40
0.6
 40
0.6
 40
1.0
 40
1.0
 40
1.0
 40
1.0
 10
-21.164
 20
43.3143
 30
0.0
 10
-21.164
 20
43.3143
 30
0.0
 10
21.164
 20
43.3143
 30
0.0
 10
21.164
 20
43.3143
 30
0.0
 10
21.164
 20
43.3143
 30
0.0
 10
21.164
 20
43.3143
 30
0.0
 10
21.164
 20
-43.3142
 30
0.0
 10
21.164
 20
-43.3142
 30
0.0
 10
21.164
 20
-43.3142
 30
0.0
 10
21.164
 20
-43.3142
 30
0.0
 10
-21.164
 20
-43.3142
 30
0.0
 10
-21.164
 20
-43.3142
 30
0.0
 10
-21.164
 20
-43.3142
 30
0.0
 10
-21.164
 20
-43.3142
 30
0.0
 10
-21.164
 20
43.3143
 30
0.0
 10
-21.164
 20
43.3143
 30
0.0
  0
SPLINE
  5
71
330
1F
100
AcDbEntity
  8
Layer 1
 62
   175
100
AcDbSpline
210
0.0
220
0.0
230
1.0
 70
    11
 71
     3
 72
    20
 73
    16
 74
     0
 42
0.000000001
 43
0.0000000001
 40
0.0
 40
0.0
 40
0.0
 40
0.0
 40
0.2
 40
0.2
 40
0.2
 40
0.2
 40
0.4
 40
0.4
 40
0.4
 40
0.4
 40
0.6
 40
0.6
 40
0.6
 40
0.6
 40
1.0
 40
1.0
 40
1.0
 40
1.0
 10
-5.7798
 20
-40.9442
 30
0.0
 10
-5.7798
 20
-40.9442
 30
0.0
 10
-19.1121
 20
-27.4625
 30
0.0
 10
-19.1121
 20
-27.4625
 30
0.0
 10
-19.1121
 20
-27.4625
 30
0.0
 10
-19.1121
 20
-27.4625
 30
0.0
 10
-19.1121
 20
-28.981
 30
0.0
 10
-19.1121
 20
-28.981
 30
0.0
 10
-19.1121
 20
-28.981
 30
0.0
 10
-19.1121
 20
-28.981
 30
0.0
 10
-7.2813
 20
-40.9442
 30
0.0
 10
-7.2813
 20
-40.9442
 30
0.0
 10
-7.2813
 20
-40.9442
 30
0.0
 10
-6.5387
 20
-40.9442
 30
0.0
 10
-31.3106
 20
-40.9442
 30
0.0
 10
-5.7798
 20
-40.9442
 30
0.0
  0
SPLINE
  5
72
330
1F
100
AcDbEntity
  8
Layer 1
 62
   175
100
AcDbSpline
210
0.0
220
0.0
230
1.0
 70
    11
 71
     3
 72
    20
 73
    16
 74
     0
 42
0.000000001
 43
0.0000000001
 40
0.0
 40
0.0
 40
0.0
 40
0.0
 40
0.2
 40
0.2
 40
0.2
 40
0.2
 40
0.4
 40
0.4
 40
0.4
 40
0.4
 40
0.6
 40
0.6
 40
0.6
 40
0.6
 40
1.0
 40
1.0
 40
1.0
 40
1.0
 10
-8.4002
 20
-40.9442
 30
0.0
 10
-8.4002
 20
-40.9442
 30
0.0
 10
-19.1121
 20
-30.1123
 30
0.0
 10
-19.1121
 20
-30.1123
 30
0.0
 10
-19.1121
 20
-30.1123
 30
0.0
 10
-19.1121
 20
-30.1123
 30
0.0
 10
-19.1121
 20
-31.6308
 30
0.0
 10
-19.1121
 20
-31.6308
 30
0.0
 10
-19.1121
 20
-31.6308
 30
0.0
 10
-19.1121
 20
-31.6308
 30
0.0
 10
-9.9017
 20
-40.9442
 30
0.0
 10
-9.9017
 20
-40.9442
 30
0.0
 10
-9.9017
 20
-40.9442
 30
0.0
 10
-9.3537
 20
-40.9442
 30
0.0
 10
-29.7797
 20
-40.9442
 30
0.0
 10
-8.4002
 20
-40.9442
 30
0.0
  0
SPLINE
  5
73
330
1F
100
AcDbEntity
  8
Layer 1
 62
   175
100
AcDbSpline
210
0.0
220
0.0
230
1.0
 70
    11
 71
     3
 72
    20
 73
    16
 74
     0
 42
0.000000001
 43
0.0000000001
 40
0.0
 40
0.0
 40
0.0
 40
0.0
 40
0.2
 40
0.2
 40
0.2
 40
0.2
 40
0.4
 40
0.4
 40
0.4
 40
0.4
 40
0.6
 40
0.6
 40
0.6
 40
0.6
 40
1.0
 40
1.0
 40
1.0
 40
1.0
 10
-11.0205
 20
-40.9442
 30
0.0
 10
-11.0205
 20
-40.9442
 30
0.0
 10
-19.1121
 20
-32.762
 30
0.0
 10
-19.1121
 20
-32.762
 30
0.0
 10
-19.1121
 20
-32.762
 30
0.0
 10
-19.1121
 20
-32.762
 30
0.0
 10
-19.1121
 20
-34.2806
 30
0.0
 10
-19.1121
 20
-34.2806
 30
0.0
 10
-19.1121
 20
-34.2806
 30
0.0
 10
-19.1121
 20
-34.2806
 30
0.0
 10
-12.5222
 20
-40.9442
 30
0.0
 10
-12.5222
 20
-40.9442
 30
0.0
 10
-12.5222
 20
-40.9442
 30
0.0
 10
-9.9645
 20
-40.9442
 30
0.0
 10
-28.2213
 20
-40.9442
 30
0.0
 10
-11.0205
 20
-40.9442
 30
0.0
  0
SPLINE
  5
74
330
1F
100
AcDbEntity
  8
Layer 1
 62
   175
100
AcDbSpline
210
0.0
220
0.0
230
1.0
 70
    11
 71
     3
 72
    20
 73
    16
 74
     0
 42
0.000000001
 43
0.0000000001
 40
0.0
 40
0.0
 40
0.0
 40
0.0
 40
0.2
 40
0.2
 40
0.2
 40
0.2
 40
0.4
 40
0.4
 40
0.4
 40
0.4
 40
0.6
 40
0.6
 40
0.6
 40
0.6
 40
1.0
 40
1.0
 40
1.0
 40
1.0
 10
-3.1593
 20
-40.9442
 30
0.0
 10
-3.1593
 20
-40.9442
 30
0.0
 10
-19.1121
 20
-24.8127
 30
0.0
 10
-19.1121
 20
-24.8127
 30
0.0
 10
-19.1121
 20
-24.8127
 30
0.0
 10
-19.1121
 20
-24.8127
 30
0.0
 10
-19.1121
 20
-26.3312
 30
0.0
 10
-19.1121
 20
-26.3312
 30
0.0
 10
-19.1121
 20
-26.3312
 30
0.0
 10
-19.1121
 20
-26.3312
 30
0.0
 10
-4.6611
 20
-40.9442
 30
0.0
 10
-4.6611
 20
-40.9442
 30
0.0
 10
-4.6611
 20
-40.9442
 30
0.0
 10
-4.6611
 20
-40.9442
 30
0.0
 10
-3.1593
 20
-40.9442
 30
0.0
 10
-3.1593
 20
-40.9442
 30
0.0
  0
SPLINE
  5
75
330
1F
100
AcDbEntity
  8
Layer 1
 62
   175
100
AcDbSpline
210
0.0
220
0.0
230
1.0
 70
    11
 71
     3
 72
    20
 73
    16
 74
     0
 42
0.000000001
 43
0.0000000001
 40
0.0
 40
0.0
 40
0.0
 40
0.0
 40
0.2
 40
0.2
 40
0.2
 40
0.2
 40
0.4
 40
0.4
 40
0.4
 40
0.4
 40
0.6
 40
0.6
 40
0.6
 40
0.6
 40
1.0
 40
1.0
 40
1.0
 40
1.0
 10
-13.641
 20
-40.9442
 30
0.0
 10
-13.641
 20
-40.9442
 30
0.0
 10
-19.1121
 20
-35.4119
 30
0.0
 10
-19.1121
 20
-35.4119
 30
0.0
 10
-19.1121
 20
-35.4119
 30
0.0
 10
-19.1121
 20
-35.4119
 30
0.0
 10
-19.1121
 20
-36.9303
 30
0.0
 10
-19.1121
 20
-36.9303
 30
0.0
 10
-19.1121
 20
-36.9303
 30
0.0
 10
-19.1121
 20
-36.9303
 30
0.0
 10
-15.1427
 20
-40.9442
 30
0.0
 10
-15.1427
 20
-40.9442
 30
0.0
 10
-15.1427
 20
-40.9442
 30
0.0
 10
-15.1427
 20
-40.9442
 30
0.0
 10
-13.641
 20
-40.9442
 30
0.0
 10
-13.641
 20
-40.9442
 30
0.0
  0
SPLINE
  5
76
330
1F
100
AcDbEntity
  8
Layer 1
 62
   175
100
AcDbSpline
210
0.0
220
0.0
230
1.0
 70
    11
 71
     3
 72
    20
 73
    16
 74
     0
 42
0.000000001
 43
0.0000000001
 40
0.0
 40
0.0
 40
0.0
 40
0.0
 40
0.2
 40
0.2
 40
0.2
 40
0.2
 40
0.4
 40
0.4
 40
0.4
 40
0.4
 40
0.6
 40
0.6
 40
0.6
 40
0.6
 40
1.0
 40
1.0
 40
1.0
 40
1.0
 10
-16.2614
 20
-40.9442
 30
0.0
 10
-16.2614
 20
-40.9442
 30
0.0
 10
-19.1121
 20
-38.0616
 30
0.0
 10
-19.1121
 20
-38.0616
 30
0.0
 10
-19.1121
 20
-38.0616
 30
0.0
 10
-19.1121
 20
-38.0616
 30
0.0
 10
-19.1121
 20
-39.5802
 30
0.0
 10
-19.1121
 20
-39.5802
 30
0.0
 10
-19.1121
 20
-39.5802
 30
0.0
 10
-19.1121
 20
-39.5802
 30
0.0
 10
-17.7631
 20
-40.9442
 30
0.0
 10
-17.7631
 20
-40.9442
 30
0.0
 10
-17.7631
 20
-40.9442
 30
0.0
 10
-15.7912
 20
-40.9442
 30
0.0
 10
-18.0926
 20
-40.9442
 30
0.0
 10
-16.2614
 20
-40.9442
 30
0.0
  0
SPLINE
  5
77
330
1F
100
AcDbEntity
  8
Layer 1
 62
   175
100
AcDbSpline
210
0.0
220
0.0
230
1.0
 70
    11
 71
     3
 72
    20
 73
    16
 74
     0
 42
0.000000001
 43
0.0000000001
 40
0.0
 40
0.0
 40
0.0
 40
0.0
 40
0.2
 40
0.2
 40
0.2
 40
0.2
 40
0.4
 40
0.4
 40
0.4
 40
0.4
 40
0.6
 40
0.6
 40
0.6
 40
0.6
 40
1.0
 40
1.0
 40
1.0
 40
1.0
 10
-0.5749
 20
-40.9442
 30
0.0
 10
-0.5749
 20
-40.9442
 30
0.0
 10
-19.1121
 20
-22.1993
 30
0.0
 10
-19.1121
 20
-22.1993
 30
0.0
 10
-19.1121
 20
-22.1993
 30
0.0
 10
-19.1121
 20
-22.1993
 30
0.0
 10
-19.1121
 20
-23.6815
 30
0.0
 10
-19.1121
 20
-23.6815
 30
0.0
 10
-19.1121
 20
-23.6815
 30
0.0
 10
-19.1121
 20
-23.6815
 30
0.0
 10
-2.0405
 20
-40.9442
 30
0.0
 10
-2.0405
 20
-40.9442
 30
0.0
 10
-2.0405
 20
-40.9442
 30
0.0
 10
-1.3152
 20
-40.9442
 30
0.0
 10
-32.2825
 20
-40.9442
 30
0.0
 10
-0.5749
 20
-40.9442
 30
0.0
  0
SPLINE
  5
78
330
1F
100
AcDbEntity
  8
Layer 1
 62
   175
100
AcDbSpline
210
0.0
220
0.0
230
1.0
 70
    11
 71
     3
 72
    28
 73
    24
 74
     0
 42
0.000000001
 43
0.0000000001
 40
0.0
 40
0.0
 40
0.0
 40
0.0
 40
0.1428571428571428
 40
0.1428571428571428
 40
0.1428571428571428
 40
0.1428571428571428
 40
0.2857142857142857
 40
0.2857142857142857
 40
0.2857142857142857
 40
0.2857142857142857
 40
0.4285714285714285
 40
0.4285714285714285
 40
0.4285714285714285
 40
0.4285714285714285
 40
0.5714285714285714
 40
0.5714285714285714
 40
0.5714285714285714
 40
0.5714285714285714
 40
0.7142857142857143
 40
0.7142857142857143
 40
0.7142857142857143
 40
0.7142857142857143
 40
1.0
 40
1.0
 40
1.0
 40
1.0
 10
13.725
 20
-21.2279
 30
0.0
 10
13.725
 20
-21.2279
 30
0.0
 10
-2.6015
 20
-37.7372
 30
0.0
 10
-2.6015
 20
-37.7372
 30
0.0
 10
-2.6015
 20
-37.7372
 30
0.0
 10
-2.6015
 20
-37.7372
 30
0.0
 10
-3.3523
 20
-36.978
 30
0.0
 10
-3.3523
 20
-36.978
 30
0.0
 10
-3.3523
 20
-36.978
 30
0.0
 10
-3.3523
 20
-36.978
 30
0.0
 10
12.2233
 20
-21.2279
 30
0.0
 10
12.2233
 20
-21.2279
 30
0.0
 10
12.2233
 20
-21.2279
 30
0.0
 10
12.2233
 20
-21.2279
 30
0.0
 10
-3.3523
 20
-5.4777
 30
0.0
 10
-3.3523
 20
-5.4777
 30
0.0
 10
-3.3523
 20
-5.4777
 30
0.0
 10
-3.3523
 20
-5.4777
 30
0.0
 10
-2.6015
 20
-4.7185
 30
0.0
 10
-2.6015
 20
-4.7185
 30
0.0
 10
-2.6015
 20
-4.7185
 30
0.0
 10
-2.6015
 20
-4.7185
 30
0.0
 10
13.725
 20
-21.2279
 30
0.0
 10
13.725
 20
-21.2279
 30
0.0
  0
SPLINE
  5
79
330
1F
100
AcDbEntity
  8
Layer 1
 62
   175
100
AcDbSpline
210
0.0
220
0.0
230
1.0
 70
    11
 71
     3
 72
    28
 73
    24
 74
     0
 42
0.000000001
 43
0.0000000001
 40
0.0
 40
0.0
 40
0.0
 40
0.0
 40
0.1428571428571428
 40
0.1428571428571428
 40
0.1428571428571428
 40
0.1428571428571428
 40
0.2857142857142857
 40
0.2857142857142857
 40
0.2857142857142857
 40
0.2857142857142857
 40
0.4285714285714285
 40
0.4285714285714285
 40
0.4285714285714285
 40
0.4285714285714285
 40
0.5714285714285714
 40
0.5714285714285714
 40
0.5714285714285714
 40
0.5714285714285714
 40
0.7142857142857143
 40
0.7142857142857143
 40
0.7142857142857143
 40
0.7142857142857143
 40
1.0
 40
1.0
 40
1.0
 40
1.0
 10
11.1046
 20
-21.2279
 30
0.0
 10
11.1046
 20
-21.2279
 30
0.0
 10
-3.9117
 20
-36.4123
 30
0.0
 10
-3.9117
 20
-36.4123
 30
0.0
 10
-3.9117
 20
-36.4123
 30
0.0
 10
-3.9117
 20
-36.4123
 30
0.0
 10
-4.6626
 20
-35.6531
 30
0.0
 10
-4.6626
 20
-35.6531
 30
0.0
 10
-4.6626
 20
-35.6531
 30
0.0
 10
-4.6626
 20
-35.6531
 30
0.0
 10
9.6029
 20
-21.2279
 30
0.0
 10
9.6029
 20
-21.2279
 30
0.0
 10
9.6029
 20
-21.2279
 30
0.0
 10
9.6029
 20
-21.2279
 30
0.0
 10
-4.6626
 20
-6.8027
 30
0.0
 10
-4.6626
 20
-6.8027
 30
0.0
 10
-4.6626
 20
-6.8027
 30
0.0
 10
-4.6626
 20
-6.8027
 30
0.0
 10
-3.9117
 20
-6.0433
 30
0.0
 10
-3.9117
 20
-6.0433
 30
0.0
 10
-3.9117
 20
-6.0433
 30
0.0
 10
-3.9117
 20
-6.0433
 30
0.0
 10
11.1046
 20
-21.2279
 30
0.0
 10
11.1046
 20
-21.2279
 30
0.0
  0
SPLINE
  5
7A
330
1F
100
AcDbEntity
  8
Layer 1
 62
   175
100
AcDbSpline
210
0.0
220
0.0
230
1.0
 70
    11
 71
     3
 72
    32
 73
    28
 74
     0
 42
0.000000001
 43
0.0000000001
 40
0.0
 40
0.0
 40
0.0
 40
0.0
 40
0.125
 40
0.125
 40
0.125
 40
0.125
 40
0.25
 40
0.25
 40
0.25
 40
0.25
 40
0.375
 40
0.375
 40
0.375
 40
0.375
 40
0.5
 40
0.5
 40
0.5
 40
0.5
 40
0.625
 40
0.625
 40
0.625
 40
0.625
 40
0.75
 40
0.75
 40
0.75
 40
0.75
 40
1.0
 40
1.0
 40
1.0
 40
1.0
 10
8.4841
 20
-21.2279
 30
0.0
 10
8.4841
 20
-21.2279
 30
0.0
 10
-5.2219
 20
-7.3682
 30
0.0
 10
-5.2219
 20
-7.3682
 30
0.0
 10
-5.2219
 20
-7.3682
 30
0.0
 10
-5.2219
 20
-7.3682
 30
0.0
 10
-5.9727
 20
-8.1276
 30
0.0
 10
-5.9727
 20
-8.1276
 30
0.0
 10
-5.9727
 20
-8.1276
 30
0.0
 10
-5.9727
 20
-8.1276
 30
0.0
 10
6.9824
 20
-21.2279
 30
0.0
 10
6.9824
 20
-21.2279
 30
0.0
 10
6.9824
 20
-21.2279
 30
0.0
 10
6.9824
 20
-21.2279
 30
0.0
 10
6.9824
 20
-21.2279
 30
0.0
 10
6.9824
 20
-21.2279
 30
0.0
 10
6.9824
 20
-21.2279
 30
0.0
 10
6.9824
 20
-21.2279
 30
0.0
 10
-5.9727
 20
-34.3282
 30
0.0
 10
-5.9727
 20
-34.3282
 30
0.0
 10
-5.9727
 20
-34.3282
 30
0.0
 10
-5.9727
 20
-34.3282
 30
0.0
 10
-5.2219
 20
-35.0875
 30
0.0
 10
-5.2219
 20
-35.0875
 30
0.0
 10
-5.2219
 20
-35.0875
 30
0.0
 10
-5.2219
 20
-35.0875
 30
0.0
 10
8.4841
 20
-21.2279
 30
0.0
 10
8.4841
 20
-21.2279
 30
0.0
  0
SPLINE
  5
7B
330
1F
100
AcDbEntity
  8
Layer 1
 62
   175
100
AcDbSpline
210
0.0
220
0.0
230
1.0
 70
    11
 71
     3
 72
    28
 73
    24
 74
     0
 42
0.000000001
 43
0.0000000001
 40
0.0
 40
0.0
 40
0.0
 40
0.0
 40
0.1428571428571428
 40
0.1428571428571428
 40
0.1428571428571428
 40
0.1428571428571428
 40
0.2857142857142857
 40
0.2857142857142857
 40
0.2857142857142857
 40
0.2857142857142857
 40
0.4285714285714285
 40
0.4285714285714285
 40
0.4285714285714285
 40
0.4285714285714285
 40
0.5714285714285714
 40
0.5714285714285714
 40
0.5714285714285714
 40
0.5714285714285714
 40
0.7142857142857143
 40
0.7142857142857143
 40
0.7142857142857143
 40
0.7142857142857143
 40
1.0
 40
1.0
 40
1.0
 40
1.0
 10
0.6228
 20
-21.2279
 30
0.0
 10
0.6228
 20
-21.2279
 30
0.0
 10
-9.1525
 20
-11.343
 30
0.0
 10
-9.1525
 20
-11.343
 30
0.0
 10
-9.1525
 20
-11.343
 30
0.0
 10
-9.1525
 20
-11.343
 30
0.0
 10
-9.9033
 20
-12.1022
 30
0.0
 10
-9.9033
 20
-12.1022
 30
0.0
 10
-9.9033
 20
-12.1022
 30
0.0
 10
-9.9033
 20
-12.1022
 30
0.0
 10
-0.8788
 20
-21.2279
 30
0.0
 10
-0.8788
 20
-21.2279
 30
0.0
 10
-0.8788
 20
-21.2279
 30
0.0
 10
-0.8788
 20
-21.2279
 30
0.0
 10
-9.9033
 20
-30.3535
 30
0.0
 10
-9.9033
 20
-30.3535
 30
0.0
 10
-9.9033
 20
-30.3535
 30
0.0
 10
-9.9033
 20
-30.3535
 30
0.0
 10
-9.1525
 20
-31.1127
 30
0.0
 10
-9.1525
 20
-31.1127
 30
0.0
 10
-9.1525
 20
-31.1127
 30
0.0
 10
-9.1525
 20
-31.1127
 30
0.0
 10
0.6228
 20
-21.2279
 30
0.0
 10
0.6228
 20
-21.2279
 30
0.0
  0
SPLINE
  5
7C
330
1F
100
AcDbEntity
  8
Layer 1
 62
   175
100
AcDbSpline
210
0.0
220
0.0
230
1.0
 70
    11
 71
     3
 72
    44
 73
    40
 74
     0
 42
0.000000001
 43
0.0000000001
 40
0.0
 40
0.0
 40
0.0
 40
0.0
 40
0.0909090909090909
 40
0.0909090909090909
 40
0.0909090909090909
 40
0.0909090909090909
 40
0.1818181818181818
 40
0.1818181818181818
 40
0.1818181818181818
 40
0.1818181818181818
 40
0.2727272727272727
 40
0.2727272727272727
 40
0.2727272727272727
 40
0.2727272727272727
 40
0.3636363636363636
 40
0.3636363636363636
 40
0.3636363636363636
 40
0.3636363636363636
 40
0.4545454545454545
 40
0.4545454545454545
 40
0.4545454545454545
 40
0.4545454545454545
 40
0.5454545454545454
 40
0.5454545454545454
 40
0.5454545454545454
 40
0.5454545454545454
 40
0.6363636363636364
 40
0.6363636363636364
 40
0.6363636363636364
 40
0.6363636363636364
 40
0.7272727272727273
 40
0.7272727272727273
 40
0.7272727272727273
 40
0.7272727272727273
 40
0.8181818181818182
 40
0.8181818181818182
 40
0.8181818181818182
 40
0.8181818181818182
 40
1.0
 40
1.0
 40
1.0
 40
1.0
 10
-9.8588
 20
-21.2296
 30
0.0
 10
-9.8588
 20
-21.2296
 30
0.0
 10
-9.8606
 20
-21.2296
 30
0.0
 10
-9.8606
 20
-21.2296
 30
0.0
 10
-9.8606
 20
-21.2296
 30
0.0
 10
-9.8606
 20
-21.2296
 30
0.0
 10
-14.3934
 20
-25.8131
 30
0.0
 10
-14.3934
 20
-25.8131
 30
0.0
 10
-14.3934
 20
-25.8131
 30
0.0
 10
-14.3934
 20
-25.8131
 30
0.0
 10
-15.1442
 20
-25.0539
 30
0.0
 10
-15.1442
 20
-25.0539
 30
0.0
 10
-15.1442
 20
-25.0539
 30
0.0
 10
-15.1442
 20
-25.0539
 30
0.0
 10
-11.3615
 20
-21.2287
 30
0.0
 10
-11.3615
 20
-21.2287
 30
0.0
 10
-11.3615
 20
-21.2287
 30
0.0
 10
-11.3615
 20
-21.2287
 30
0.0
 10
-15.1442
 20
-17.4018
 30
0.0
 10
-15.1442
 20
-17.4018
 30
0.0
 10
-15.1442
 20
-17.4018
 30
0.0
 10
-15.1442
 20
-17.4018
 30
0.0
 10
-14.3934
 20
-16.6426
 30
0.0
 10
-14.3934
 20
-16.6426
 30
0.0
 10
-14.3934
 20
-16.6426
 30
0.0
 10
-14.3934
 20
-16.6426
 30
0.0
 10
-9.8606
 20
-21.2279
 30
0.0
 10
-9.8606
 20
-21.2279
 30
0.0
 10
-9.8606
 20
-21.2279
 30
0.0
 10
-9.8606
 20
-21.2279
 30
0.0
 10
-9.8588
 20
-21.2279
 30
0.0
 10
-9.8588
 20
-21.2279
 30
0.0
 10
-9.8588
 20
-21.2279
 30
0.0
 10
-9.8588
 20
-21.2279
 30
0.0
 10
-9.8597
 20
-21.2287
 30
0.0
 10
-9.8597
 20
-21.2287
 30
0.0
 10
-9.8597
 20
-21.2287
 30
0.0
 10
-9.8597
 20
-21.2287
 30
0.0
 10
-9.8588
 20
-21.2296
 30
0.0
 10
-9.8588
 20
-21.2296
 30
0.0
  0
SPLINE
  5
7D
330
1F
100
AcDbEntity
  8
Layer 1
 62
   175
100
AcDbSpline
210
0.0
220
0.0
230
1.0
 70
    11
 71
     3
 72
    28
 73
    24
 74
     0
 42
0.000000001
 43
0.0000000001
 40
0.0
 40
0.0
 40
0.0
 40
0.0
 40
0.1428571428571428
 40
0.1428571428571428
 40
0.1428571428571428
 40
0.1428571428571428
 40
0.2857142857142857
 40
0.2857142857142857
 40
0.2857142857142857
 40
0.2857142857142857
 40
0.4285714285714285
 40
0.4285714285714285
 40
0.4285714285714285
 40
0.4285714285714285
 40
0.5714285714285714
 40
0.5714285714285714
 40
0.5714285714285714
 40
0.5714285714285714
 40
0.7142857142857143
 40
0.7142857142857143
 40
0.7142857142857143
 40
0.7142857142857143
 40
1.0
 40
1.0
 40
1.0
 40
1.0
 10
14.8436
 20
-21.2279
 30
0.0
 10
14.8436
 20
-21.2279
 30
0.0
 10
-2.0421
 20
-38.3028
 30
0.0
 10
-2.0421
 20
-38.3028
 30
0.0
 10
-2.0421
 20
-38.3028
 30
0.0
 10
-2.0421
 20
-38.3028
 30
0.0
 10
-1.2913
 20
-39.0622
 30
0.0
 10
-1.2913
 20
-39.0622
 30
0.0
 10
-1.2913
 20
-39.0622
 30
0.0
 10
-1.2913
 20
-39.0622
 30
0.0
 10
16.3453
 20
-21.2279
 30
0.0
 10
16.3453
 20
-21.2279
 30
0.0
 10
16.3453
 20
-21.2279
 30
0.0
 10
16.3453
 20
-21.2279
 30
0.0
 10
-1.2913
 20
-3.3936
 30
0.0
 10
-1.2913
 20
-3.3936
 30
0.0
 10
-1.2913
 20
-3.3936
 30
0.0
 10
-1.2913
 20
-3.3936
 30
0.0
 10
-2.0421
 20
-4.1529
 30
0.0
 10
-2.0421
 20
-4.1529
 30
0.0
 10
-2.0421
 20
-4.1529
 30
0.0
 10
-2.0421
 20
-4.1529
 30
0.0
 10
14.8436
 20
-21.2279
 30
0.0
 10
14.8436
 20
-21.2279
 30
0.0
  0
SPLINE
  5
7E
330
1F
100
AcDbEntity
  8
Layer 1
 62
   175
100
AcDbSpline
210
0.0
220
0.0
230
1.0
 70
    11
 71
     3
 72
    36
 73
    32
 74
     0
 42
0.000000001
 43
0.0000000001
 40
0.0
 40
0.0
 40
0.0
 40
0.0
 40
0.1111111111111111
 40
0.1111111111111111
 40
0.1111111111111111
 40
0.1111111111111111
 40
0.2222222222222222
 40
0.2222222222222222
 40
0.2222222222222222
 40
0.2222222222222222
 40
0.3333333333333333
 40
0.3333333333333333
 40
0.3333333333333333
 40
0.3333333333333333
 40
0.4444444444444444
 40
0.4444444444444444
 40
0.4444444444444444
 40
0.4444444444444444
 40
0.5555555555555556
 40
0.5555555555555556
 40
0.5555555555555556
 40
0.5555555555555556
 40
0.6666666666666666
 40
0.6666666666666666
 40
0.6666666666666666
 40
0.6666666666666666
 40
0.7777777777777778
 40
0.7777777777777778
 40
0.7777777777777778
 40
0.7777777777777778
 40
1.0
 40
1.0
 40
1.0
 40
1.0
 10
4.362
 20
-21.2279
 30
0.0
 10
4.362
 20
-21.2279
 30
0.0
 10
-7.283
 20
-33.0033
 30
0.0
 10
-7.283
 20
-33.0033
 30
0.0
 10
-7.283
 20
-33.0033
 30
0.0
 10
-7.283
 20
-33.0033
 30
0.0
 10
-6.5321
 20
-33.7625
 30
0.0
 10
-6.5321
 20
-33.7625
 30
0.0
 10
-6.5321
 20
-33.7625
 30
0.0
 10
-6.5321
 20
-33.7625
 30
0.0
 10
5.8636
 20
-21.2279
 30
0.0
 10
5.8636
 20
-21.2279
 30
0.0
 10
5.8636
 20
-21.2279
 30
0.0
 10
5.8636
 20
-21.2279
 30
0.0
 10
5.8636
 20
-21.2279
 30
0.0
 10
5.8636
 20
-21.2279
 30
0.0
 10
5.8636
 20
-21.2279
 30
0.0
 10
5.8636
 20
-21.2279
 30
0.0
 10
5.8636
 20
-21.2279
 30
0.0
 10
5.8636
 20
-21.2279
 30
0.0
 10
5.8636
 20
-21.2279
 30
0.0
 10
5.8636
 20
-21.2279
 30
0.0
 10
-6.5321
 20
-8.6932
 30
0.0
 10
-6.5321
 20
-8.6932
 30
0.0
 10
-6.5321
 20
-8.6932
 30
0.0
 10
-6.5321
 20
-8.6932
 30
0.0
 10
-7.283
 20
-9.4524
 30
0.0
 10
-7.283
 20
-9.4524
 30
0.0
 10
-7.283
 20
-9.4524
 30
0.0
 10
-7.283
 20
-9.4524
 30
0.0
 10
4.362
 20
-21.2279
 30
0.0
 10
4.362
 20
-21.2279
 30
0.0
  0
SPLINE
  5
7F
330
1F
100
AcDbEntity
  8
Layer 1
 62
   175
100
AcDbSpline
210
0.0
220
0.0
230
1.0
 70
    11
 71
     3
 72
    28
 73
    24
 74
     0
 42
0.000000001
 43
0.0000000001
 40
0.0
 40
0.0
 40
0.0
 40
0.0
 40
0.1428571428571428
 40
0.1428571428571428
 40
0.1428571428571428
 40
0.1428571428571428
 40
0.2857142857142857
 40
0.2857142857142857
 40
0.2857142857142857
 40
0.2857142857142857
 40
0.4285714285714285
 40
0.4285714285714285
 40
0.4285714285714285
 40
0.4285714285714285
 40
0.5714285714285714
 40
0.5714285714285714
 40
0.5714285714285714
 40
0.5714285714285714
 40
0.7142857142857143
 40
0.7142857142857143
 40
0.7142857142857143
 40
0.7142857142857143
 40
1.0
 40
1.0
 40
1.0
 40
1.0
 10
1.7415
 20
-21.2279
 30
0.0
 10
1.7415
 20
-21.2279
 30
0.0
 10
-8.5932
 20
-31.6784
 30
0.0
 10
-8.5932
 20
-31.6784
 30
0.0
 10
-8.5932
 20
-31.6784
 30
0.0
 10
-8.5932
 20
-31.6784
 30
0.0
 10
-7.8424
 20
-32.4376
 30
0.0
 10
-7.8424
 20
-32.4376
 30
0.0
 10
-7.8424
 20
-32.4376
 30
0.0
 10
-7.8424
 20
-32.4376
 30
0.0
 10
3.2433
 20
-21.2279
 30
0.0
 10
3.2433
 20
-21.2279
 30
0.0
 10
3.2433
 20
-21.2279
 30
0.0
 10
3.2433
 20
-21.2279
 30
0.0
 10
-7.8424
 20
-10.018
 30
0.0
 10
-7.8424
 20
-10.018
 30
0.0
 10
-7.8424
 20
-10.018
 30
0.0
 10
-7.8424
 20
-10.018
 30
0.0
 10
-8.5932
 20
-10.7773
 30
0.0
 10
-8.5932
 20
-10.7773
 30
0.0
 10
-8.5932
 20
-10.7773
 30
0.0
 10
-8.5932
 20
-10.7773
 30
0.0
 10
1.7415
 20
-21.2279
 30
0.0
 10
1.7415
 20
-21.2279
 30
0.0
  0
SPLINE
  5
80
330
1F
100
AcDbEntity
  8
Layer 1
 62
   175
100
AcDbSpline
210
0.0
220
0.0
230
1.0
 70
    11
 71
     3
 72
    28
 73
    24
 74
     0
 42
0.000000001
 43
0.0000000001
 40
0.0
 40
0.0
 40
0.0
 40
0.0
 40
0.1428571428571428
 40
0.1428571428571428
 40
0.1428571428571428
 40
0.1428571428571428
 40
0.2857142857142857
 40
0.2857142857142857
 40
0.2857142857142857
 40
0.2857142857142857
 40
0.4285714285714285
 40
0.4285714285714285
 40
0.4285714285714285
 40
0.4285714285714285
 40
0.5714285714285714
 40
0.5714285714285714
 40
0.5714285714285714
 40
0.5714285714285714
 40
0.7142857142857143
 40
0.7142857142857143
 40
0.7142857142857143
 40
0.7142857142857143
 40
1.0
 40
1.0
 40
1.0
 40
1.0
 10
-3.4994
 20
-21.2279
 30
0.0
 10
-3.4994
 20
-21.2279
 30
0.0
 10
-11.2136
 20
-29.0286
 30
0.0
 10
-11.2136
 20
-29.0286
 30
0.0
 10
-11.2136
 20
-29.0286
 30
0.0
 10
-11.2136
 20
-29.0286
 30
0.0
 10
-10.4628
 20
-29.7879
 30
0.0
 10
-10.4628
 20
-29.7879
 30
0.0
 10
-10.4628
 20
-29.7879
 30
0.0
 10
-10.4628
 20
-29.7879
 30
0.0
 10
-1.9976
 20
-21.2279
 30
0.0
 10
-1.9976
 20
-21.2279
 30
0.0
 10
-1.9976
 20
-21.2279
 30
0.0
 10
-1.9976
 20
-21.2279
 30
0.0
 10
-10.4628
 20
-12.6678
 30
0.0
 10
-10.4628
 20
-12.6678
 30
0.0
 10
-10.4628
 20
-12.6678
 30
0.0
 10
-10.4628
 20
-12.6678
 30
0.0
 10
-11.2136
 20
-13.4272
 30
0.0
 10
-11.2136
 20
-13.4272
 30
0.0
 10
-11.2136
 20
-13.4272
 30
0.0
 10
-11.2136
 20
-13.4272
 30
0.0
 10
-3.4994
 20
-21.2279
 30
0.0
 10
-3.4994
 20
-21.2279
 30
0.0
  0
SPLINE
  5
81
330
1F
100
AcDbEntity
  8
Layer 1
 62
   175
100
AcDbSpline
210
0.0
220
0.0
230
1.0
 70
    11
 71
     3
 72
    28
 73
    24
 74
     0
 42
0.000000001
 43
0.0000000001
 40
0.0
 40
0.0
 40
0.0
 40
0.0
 40
0.1428571428571428
 40
0.1428571428571428
 40
0.1428571428571428
 40
0.1428571428571428
 40
0.2857142857142857
 40
0.2857142857142857
 40
0.2857142857142857
 40
0.2857142857142857
 40
0.4285714285714285
 40
0.4285714285714285
 40
0.4285714285714285
 40
0.4285714285714285
 40
0.5714285714285714
 40
0.5714285714285714
 40
0.5714285714285714
 40
0.5714285714285714
 40
0.7142857142857143
 40
0.7142857142857143
 40
0.7142857142857143
 40
0.7142857142857143
 40
1.0
 40
1.0
 40
1.0
 40
1.0
 10
-6.1198
 20
-21.2279
 30
0.0
 10
-6.1198
 20
-21.2279
 30
0.0
 10
-12.5239
 20
-27.7037
 30
0.0
 10
-12.5239
 20
-27.7037
 30
0.0
 10
-12.5239
 20
-27.7037
 30
0.0
 10
-12.5239
 20
-27.7037
 30
0.0
 10
-11.7729
 20
-28.4629
 30
0.0
 10
-11.7729
 20
-28.4629
 30
0.0
 10
-11.7729
 20
-28.4629
 30
0.0
 10
-11.7729
 20
-28.4629
 30
0.0
 10
-4.6179
 20
-21.2279
 30
0.0
 10
-4.6179
 20
-21.2279
 30
0.0
 10
-4.6179
 20
-21.2279
 30
0.0
 10
-4.6179
 20
-21.2279
 30
0.0
 10
-11.7729
 20
-13.9927
 30
0.0
 10
-11.7729
 20
-13.9927
 30
0.0
 10
-11.7729
 20
-13.9927
 30
0.0
 10
-11.7729
 20
-13.9927
 30
0.0
 10
-12.5239
 20
-14.752
 30
0.0
 10
-12.5239
 20
-14.752
 30
0.0
 10
-12.5239
 20
-14.752
 30
0.0
 10
-12.5239
 20
-14.752
 30
0.0
 10
-6.1198
 20
-21.2279
 30
0.0
 10
-6.1198
 20
-21.2279
 30
0.0
  0
SPLINE
  5
82
330
1F
100
AcDbEntity
  8
Layer 1
 62
   175
100
AcDbSpline
210
0.0
220
0.0
230
1.0
 70
    11
 71
     3
 72
    28
 73
    24
 74
     0
 42
0.000000001
 43
0.0000000001
 40
0.0
 40
0.0
 40
0.0
 40
0.0
 40
0.1428571428571428
 40
0.1428571428571428
 40
0.1428571428571428
 40
0.1428571428571428
 40
0.2857142857142857
 40
0.2857142857142857
 40
0.2857142857142857
 40
0.2857142857142857
 40
0.4285714285714285
 40
0.4285714285714285
 40
0.4285714285714285
 40
0.4285714285714285
 40
0.5714285714285714
 40
0.5714285714285714
 40
0.5714285714285714
 40
0.5714285714285714
 40
0.7142857142857143
 40
0.7142857142857143
 40
0.7142857142857143
 40
0.7142857142857143
 40
1.0
 40
1.0
 40
1.0
 40
1.0
 10
-8.7402
 20
-21.2279
 30
0.0
 10
-8.7402
 20
-21.2279
 30
0.0
 10
-13.834
 20
-26.3788
 30
0.0
 10
-13.834
 20
-26.3788
 30
0.0
 10
-13.834
 20
-26.3788
 30
0.0
 10
-13.834
 20
-26.3788
 30
0.0
 10
-13.0833
 20
-27.138
 30
0.0
 10
-13.0833
 20
-27.138
 30
0.0
 10
-13.0833
 20
-27.138
 30
0.0
 10
-13.0833
 20
-27.138
 30
0.0
 10
-7.2384
 20
-21.2279
 30
0.0
 10
-7.2384
 20
-21.2279
 30
0.0
 10
-7.2384
 20
-21.2279
 30
0.0
 10
-7.2384
 20
-21.2279
 30
0.0
 10
-13.0833
 20
-15.3176
 30
0.0
 10
-13.0833
 20
-15.3176
 30
0.0
 10
-13.0833
 20
-15.3176
 30
0.0
 10
-13.0833
 20
-15.3176
 30
0.0
 10
-13.834
 20
-16.0769
 30
0.0
 10
-13.834
 20
-16.0769
 30
0.0
 10
-13.834
 20
-16.0769
 30
0.0
 10
-13.834
 20
-16.0769
 30
0.0
 10
-8.7402
 20
-21.2279
 30
0.0
 10
-8.7402
 20
-21.2279
 30
0.0
  0
SPLINE
  5
83
330
1F
100
AcDbEntity
  8
Layer 1
 62
   175
100
AcDbSpline
210
0.0
220
0.0
230
1.0
 70
    11
 71
     3
 72
    32
 73
    28
 74
     0
 42
0.000000001
 43
0.0000000001
 40
0.0
 40
0.0
 40
0.0
 40
0.0
 40
0.125
 40
0.125
 40
0.125
 40
0.125
 40
0.25
 40
0.25
 40
0.25
 40
0.25
 40
0.375
 40
0.375
 40
0.375
 40
0.375
 40
0.5
 40
0.5
 40
0.5
 40
0.5
 40
0.625
 40
0.625
 40
0.625
 40
0.625
 40
0.75
 40
0.75
 40
0.75
 40
0.75
 40
1.0
 40
1.0
 40
1.0
 40
1.0
 10
-13.9809
 20
-21.2279
 30
0.0
 10
-13.9809
 20
-21.2279
 30
0.0
 10
-16.4545
 20
-23.729
 30
0.0
 10
-16.4545
 20
-23.729
 30
0.0
 10
-16.4545
 20
-23.729
 30
0.0
 10
-16.4545
 20
-23.729
 30
0.0
 10
-15.7035
 20
-24.4883
 30
0.0
 10
-15.7035
 20
-24.4883
 30
0.0
 10
-15.7035
 20
-24.4883
 30
0.0
 10
-15.7035
 20
-24.4883
 30
0.0
 10
-12.4793
 20
-21.2279
 30
0.0
 10
-12.4793
 20
-21.2279
 30
0.0
 10
-12.4793
 20
-21.2279
 30
0.0
 10
-12.4793
 20
-21.2279
 30
0.0
 10
-12.4793
 20
-21.2279
 30
0.0
 10
-12.4793
 20
-21.2279
 30
0.0
 10
-12.4793
 20
-21.2279
 30
0.0
 10
-12.4793
 20
-21.2279
 30
0.0
 10
-15.7035
 20
-17.9674
 30
0.0
 10
-15.7035
 20
-17.9674
 30
0.0
 10
-15.7035
 20
-17.9674
 30
0.0
 10
-15.7035
 20
-17.9674
 30
0.0
 10
-16.4545
 20
-18.7266
 30
0.0
 10
-16.4545
 20
-18.7266
 30
0.0
 10
-16.4545
 20
-18.7266
 30
0.0
 10
-16.4545
 20
-18.7266
 30
0.0
 10
-13.9809
 20
-21.2279
 30
0.0
 10
-13.9809
 20
-21.2279
 30
0.0
  0
SPLINE
  5
84
330
1F
100
AcDbEntity
  8
Layer 1
 62
   175
100
AcDbSpline
210
0.0
220
0.0
230
1.0
 70
    11
 71
     3
 72
    28
 73
    24
 74
     0
 42
0.000000001
 43
0.0000000001
 40
0.0
 40
0.0
 40
0.0
 40
0.0
 40
0.1428571428571428
 40
0.1428571428571428
 40
0.1428571428571428
 40
0.1428571428571428
 40
0.2857142857142857
 40
0.2857142857142857
 40
0.2857142857142857
 40
0.2857142857142857
 40
0.4285714285714285
 40
0.4285714285714285
 40
0.4285714285714285
 40
0.4285714285714285
 40
0.5714285714285714
 40
0.5714285714285714
 40
0.5714285714285714
 40
0.5714285714285714
 40
0.7142857142857143
 40
0.7142857142857143
 40
0.7142857142857143
 40
0.7142857142857143
 40
1.0
 40
1.0
 40
1.0
 40
1.0
 10
-17.7647
 20
-20.0515
 30
0.0
 10
-17.7647
 20
-20.0515
 30
0.0
 10
-17.0138
 20
-19.2923
 30
0.0
 10
-17.0138
 20
-19.2923
 30
0.0
 10
-17.0138
 20
-19.2923
 30
0.0
 10
-17.0138
 20
-19.2923
 30
0.0
 10
-15.0997
 20
-21.2279
 30
0.0
 10
-15.0997
 20
-21.2279
 30
0.0
 10
-15.0997
 20
-21.2279
 30
0.0
 10
-15.0997
 20
-21.2279
 30
0.0
 10
-17.0138
 20
-23.1633
 30
0.0
 10
-17.0138
 20
-23.1633
 30
0.0
 10
-17.0138
 20
-23.1633
 30
0.0
 10
-17.0138
 20
-23.1633
 30
0.0
 10
-17.7647
 20
-22.4041
 30
0.0
 10
-17.7647
 20
-22.4041
 30
0.0
 10
-17.7647
 20
-22.4041
 30
0.0
 10
-17.7647
 20
-22.4041
 30
0.0
 10
-16.6014
 20
-21.2279
 30
0.0
 10
-16.6014
 20
-21.2279
 30
0.0
 10
-16.6014
 20
-21.2279
 30
0.0
 10
-16.6014
 20
-21.2279
 30
0.0
 10
-17.7647
 20
-20.0515
 30
0.0
 10
-17.7647
 20
-20.0515
 30
0.0
  0
SPLINE
  5
85
330
1F
100
AcDbEntity
  8
Layer 1
 62
   175
100
AcDbSpline
210
0.0
220
0.0
230
1.0
 70
    11
 71
     3
 72
    32
 73
    28
 74
     0
 42
0.000000001
 43
0.0000000001
 40
0.0
 40
0.0
 40
0.0
 40
0.0
 40
0.125
 40
0.125
 40
0.125
 40
0.125
 40
0.25
 40
0.25
 40
0.25
 40
0.25
 40
0.375
 40
0.375
 40
0.375
 40
0.375
 40
0.5
 40
0.5
 40
0.5
 40
0.5
 40
0.625
 40
0.625
 40
0.625
 40
0.625
 40
0.75
 40
0.75
 40
0.75
 40
0.75
 40
1.0
 40
1.0
 40
1.0
 40
1.0
 10
18.928
 20
-21.2261
 30
0.0
 10
18.928
 20
-21.2261
 30
0.0
 10
18.928
 20
-21.2296
 30
0.0
 10
18.928
 20
-21.2296
 30
0.0
 10
18.928
 20
-21.2296
 30
0.0
 10
18.928
 20
-21.2296
 30
0.0
 10
0.001
 20
-40.3688
 30
0.0
 10
0.001
 20
-40.3688
 30
0.0
 10
0.001
 20
-40.3688
 30
0.0
 10
0.001
 20
-40.3688
 30
0.0
 10
-0.7318
 20
-39.6277
 30
0.0
 10
-0.7318
 20
-39.6277
 30
0.0
 10
-0.7318
 20
-39.6277
 30
0.0
 10
-0.7318
 20
-39.6277
 30
0.0
 10
17.4642
 20
-21.2279
 30
0.0
 10
17.4642
 20
-21.2279
 30
0.0
 10
17.4642
 20
-21.2279
 30
0.0
 10
17.4642
 20
-21.2279
 30
0.0
 10
-0.7318
 20
-2.828
 30
0.0
 10
-0.7318
 20
-2.828
 30
0.0
 10
-0.7318
 20
-2.828
 30
0.0
 10
-0.7318
 20
-2.828
 30
0.0
 10
0.001
 20
-2.0869
 30
0.0
 10
0.001
 20
-2.0869
 30
0.0
 10
0.001
 20
-2.0869
 30
0.0
 10
0.001
 20
-2.0869
 30
0.0
 10
18.928
 20
-21.2261
 30
0.0
 10
18.928
 20
-21.2261
 30
0.0
  0
SPLINE
  5
86
330
1F
100
AcDbEntity
  8
Layer 1
 62
   175
100
AcDbSpline
210
0.0
220
0.0
230
1.0
 70
    11
 71
     3
 72
    32
 73
    28
 74
     0
 42
0.000000001
 43
0.0000000001
 40
0.0
 40
0.0
 40
0.0
 40
0.0
 40
0.125
 40
0.125
 40
0.125
 40
0.125
 40
0.25
 40
0.25
 40
0.25
 40
0.25
 40
0.375
 40
0.375
 40
0.375
 40
0.375
 40
0.5
 40
0.5
 40
0.5
 40
0.5
 40
0.625
 40
0.625
 40
0.625
 40
0.625
 40
0.75
 40
0.75
 40
0.75
 40
0.75
 40
1.0
 40
1.0
 40
1.0
 40
1.0
 10
-18.928
 20
-21.2279
 30
0.0
 10
-18.928
 20
-21.2279
 30
0.0
 10
-18.928
 20
-21.2279
 30
0.0
 10
-18.928
 20
-21.2279
 30
0.0
 10
-18.928
 20
-21.2279
 30
0.0
 10
-18.928
 20
-21.2279
 30
0.0
 10
-18.3184
 20
-21.8443
 30
0.0
 10
-18.3184
 20
-21.8443
 30
0.0
 10
-18.3184
 20
-21.8443
 30
0.0
 10
-18.3184
 20
-21.8443
 30
0.0
 10
-17.7088
 20
-21.2279
 30
0.0
 10
-17.7088
 20
-21.2279
 30
0.0
 10
-17.7088
 20
-21.2279
 30
0.0
 10
-17.7088
 20
-21.2279
 30
0.0
 10
-17.7088
 20
-21.2279
 30
0.0
 10
-17.7088
 20
-21.2279
 30
0.0
 10
-17.7088
 20
-21.2279
 30
0.0
 10
-17.7088
 20
-21.2279
 30
0.0
 10
-17.7088
 20
-21.2279
 30
0.0
 10
-17.7088
 20
-21.2279
 30
0.0
 10
-17.7088
 20
-21.2279
 30
0.0
 10
-17.7088
 20
-21.2279
 30
0.0
 10
-18.3184
 20
-20.6115
 30
0.0
 10
-18.3184
 20
-20.6115
 30
0.0
 10
-18.3184
 20
-20.6115
 30
0.0
 10
-18.3184
 20
-20.6115
 30
0.0
 10
-18.928
 20
-21.2279
 30
0.0
 10
-18.928
 20
-21.2279
 30
0.0
  0
SPLINE
  5
87
330
1F
100
AcDbEntity
  8
Layer 1
 62
   175
100
AcDbSpline
210
0.0
220
0.0
230
1.0
 70
    11
 71
     3
 72
    28
 73
    24
 74
     0
 42
0.000000001
 43
0.0000000001
 40
0.0
 40
0.0
 40
0.0
 40
0.0
 40
0.1428571428571428
 40
0.1428571428571428
 40
0.1428571428571428
 40
0.1428571428571428
 40
0.2857142857142857
 40
0.2857142857142857
 40
0.2857142857142857
 40
0.2857142857142857
 40
0.4285714285714285
 40
0.4285714285714285
 40
0.4285714285714285
 40
0.4285714285714285
 40
0.5714285714285714
 40
0.5714285714285714
 40
0.5714285714285714
 40
0.5714285714285714
 40
0.7142857142857143
 40
0.7142857142857143
 40
0.7142857142857143
 40
0.7142857142857143
 40
1.0
 40
1.0
 40
1.0
 40
1.0
 10
13.725
 20
18.1853
 30
0.0
 10
13.725
 20
18.1853
 30
0.0
 10
-2.6015
 20
1.6759
 30
0.0
 10
-2.6015
 20
1.6759
 30
0.0
 10
-2.6015
 20
1.6759
 30
0.0
 10
-2.6015
 20
1.6759
 30
0.0
 10
-3.3523
 20
2.4352
 30
0.0
 10
-3.3523
 20
2.4352
 30
0.0
 10
-3.3523
 20
2.4352
 30
0.0
 10
-3.3523
 20
2.4352
 30
0.0
 10
12.2233
 20
18.1853
 30
0.0
 10
12.2233
 20
18.1853
 30
0.0
 10
12.2233
 20
18.1853
 30
0.0
 10
12.2233
 20
18.1853
 30
0.0
 10
-3.3523
 20
33.9354
 30
0.0
 10
-3.3523
 20
33.9354
 30
0.0
 10
-3.3523
 20
33.9354
 30
0.0
 10
-3.3523
 20
33.9354
 30
0.0
 10
-2.6015
 20
34.6946
 30
0.0
 10
-2.6015
 20
34.6946
 30
0.0
 10
-2.6015
 20
34.6946
 30
0.0
 10
-2.6015
 20
34.6946
 30
0.0
 10
13.725
 20
18.1853
 30
0.0
 10
13.725
 20
18.1853
 30
0.0
  0
SPLINE
  5
88
330
1F
100
AcDbEntity
  8
Layer 1
 62
   175
100
AcDbSpline
210
0.0
220
0.0
230
1.0
 70
    11
 71
     3
 72
    28
 73
    24
 74
     0
 42
0.000000001
 43
0.0000000001
 40
0.0
 40
0.0
 40
0.0
 40
0.0
 40
0.1428571428571428
 40
0.1428571428571428
 40
0.1428571428571428
 40
0.1428571428571428
 40
0.2857142857142857
 40
0.2857142857142857
 40
0.2857142857142857
 40
0.2857142857142857
 40
0.4285714285714285
 40
0.4285714285714285
 40
0.4285714285714285
 40
0.4285714285714285
 40
0.5714285714285714
 40
0.5714285714285714
 40
0.5714285714285714
 40
0.5714285714285714
 40
0.7142857142857143
 40
0.7142857142857143
 40
0.7142857142857143
 40
0.7142857142857143
 40
1.0
 40
1.0
 40
1.0
 40
1.0
 10
11.1046
 20
18.1853
 30
0.0
 10
11.1046
 20
18.1853
 30
0.0
 10
-3.9117
 20
3.0007
 30
0.0
 10
-3.9117
 20
3.0007
 30
0.0
 10
-3.9117
 20
3.0007
 30
0.0
 10
-3.9117
 20
3.0007
 30
0.0
 10
-4.6626
 20
3.76
 30
0.0
 10
-4.6626
 20
3.76
 30
0.0
 10
-4.6626
 20
3.76
 30
0.0
 10
-4.6626
 20
3.76
 30
0.0
 10
9.6029
 20
18.1853
 30
0.0
 10
9.6029
 20
18.1853
 30
0.0
 10
9.6029
 20
18.1853
 30
0.0
 10
9.6029
 20
18.1853
 30
0.0
 10
-4.6626
 20
32.6104
 30
0.0
 10
-4.6626
 20
32.6104
 30
0.0
 10
-4.6626
 20
32.6104
 30
0.0
 10
-4.6626
 20
32.6104
 30
0.0
 10
-3.9117
 20
33.3697
 30
0.0
 10
-3.9117
 20
33.3697
 30
0.0
 10
-3.9117
 20
33.3697
 30
0.0
 10
-3.9117
 20
33.3697
 30
0.0
 10
11.1046
 20
18.1853
 30
0.0
 10
11.1046
 20
18.1853
 30
0.0
  0
SPLINE
  5
89
330
1F
100
AcDbEntity
  8
Layer 1
 62
   175
100
AcDbSpline
210
0.0
220
0.0
230
1.0
 70
    11
 71
     3
 72
    32
 73
    28
 74
     0
 42
0.000000001
 43
0.0000000001
 40
0.0
 40
0.0
 40
0.0
 40
0.0
 40
0.125
 40
0.125
 40
0.125
 40
0.125
 40
0.25
 40
0.25
 40
0.25
 40
0.25
 40
0.375
 40
0.375
 40
0.375
 40
0.375
 40
0.5
 40
0.5
 40
0.5
 40
0.5
 40
0.625
 40
0.625
 40
0.625
 40
0.625
 40
0.75
 40
0.75
 40
0.75
 40
0.75
 40
1.0
 40
1.0
 40
1.0
 40
1.0
 10
8.4841
 20
18.1853
 30
0.0
 10
8.4841
 20
18.1853
 30
0.0
 10
-5.2219
 20
32.0448
 30
0.0
 10
-5.2219
 20
32.0448
 30
0.0
 10
-5.2219
 20
32.0448
 30
0.0
 10
-5.2219
 20
32.0448
 30
0.0
 10
-5.9727
 20
31.2855
 30
0.0
 10
-5.9727
 20
31.2855
 30
0.0
 10
-5.9727
 20
31.2855
 30
0.0
 10
-5.9727
 20
31.2855
 30
0.0
 10
6.9824
 20
18.1853
 30
0.0
 10
6.9824
 20
18.1853
 30
0.0
 10
6.9824
 20
18.1853
 30
0.0
 10
6.9824
 20
18.1853
 30
0.0
 10
6.9824
 20
18.1853
 30
0.0
 10
6.9824
 20
18.1853
 30
0.0
 10
6.9824
 20
18.1853
 30
0.0
 10
6.9824
 20
18.1853
 30
0.0
 10
-5.9727
 20
5.0849
 30
0.0
 10
-5.9727
 20
5.0849
 30
0.0
 10
-5.9727
 20
5.0849
 30
0.0
 10
-5.9727
 20
5.0849
 30
0.0
 10
-5.2219
 20
4.3257
 30
0.0
 10
-5.2219
 20
4.3257
 30
0.0
 10
-5.2219
 20
4.3257
 30
0.0
 10
-5.2219
 20
4.3257
 30
0.0
 10
8.4841
 20
18.1853
 30
0.0
 10
8.4841
 20
18.1853
 30
0.0
  0
SPLINE
  5
8A
330
1F
100
AcDbEntity
  8
Layer 1
 62
   175
100
AcDbSpline
210
0.0
220
0.0
230
1.0
 70
    11
 71
     3
 72
    28
 73
    24
 74
     0
 42
0.000000001
 43
0.0000000001
 40
0.0
 40
0.0
 40
0.0
 40
0.0
 40
0.1428571428571428
 40
0.1428571428571428
 40
0.1428571428571428
 40
0.1428571428571428
 40
0.2857142857142857
 40
0.2857142857142857
 40
0.2857142857142857
 40
0.2857142857142857
 40
0.4285714285714285
 40
0.4285714285714285
 40
0.4285714285714285
 40
0.4285714285714285
 40
0.5714285714285714
 40
0.5714285714285714
 40
0.5714285714285714
 40
0.5714285714285714
 40
0.7142857142857143
 40
0.7142857142857143
 40
0.7142857142857143
 40
0.7142857142857143
 40
1.0
 40
1.0
 40
1.0
 40
1.0
 10
0.6228
 20
18.1853
 30
0.0
 10
0.6228
 20
18.1853
 30
0.0
 10
-9.1525
 20
28.0701
 30
0.0
 10
-9.1525
 20
28.0701
 30
0.0
 10
-9.1525
 20
28.0701
 30
0.0
 10
-9.1525
 20
28.0701
 30
0.0
 10
-9.9033
 20
27.3109
 30
0.0
 10
-9.9033
 20
27.3109
 30
0.0
 10
-9.9033
 20
27.3109
 30
0.0
 10
-9.9033
 20
27.3109
 30
0.0
 10
-0.8788
 20
18.1853
 30
0.0
 10
-0.8788
 20
18.1853
 30
0.0
 10
-0.8788
 20
18.1853
 30
0.0
 10
-0.8788
 20
18.1853
 30
0.0
 10
-9.9033
 20
9.0596
 30
0.0
 10
-9.9033
 20
9.0596
 30
0.0
 10
-9.9033
 20
9.0596
 30
0.0
 10
-9.9033
 20
9.0596
 30
0.0
 10
-9.1525
 20
8.3004
 30
0.0
 10
-9.1525
 20
8.3004
 30
0.0
 10
-9.1525
 20
8.3004
 30
0.0
 10
-9.1525
 20
8.3004
 30
0.0
 10
0.6228
 20
18.1853
 30
0.0
 10
0.6228
 20
18.1853
 30
0.0
  0
SPLINE
  5
8B
330
1F
100
AcDbEntity
  8
Layer 1
 62
   175
100
AcDbSpline
210
0.0
220
0.0
230
1.0
 70
    11
 71
     3
 72
    44
 73
    40
 74
     0
 42
0.000000001
 43
0.0000000001
 40
0.0
 40
0.0
 40
0.0
 40
0.0
 40
0.0909090909090909
 40
0.0909090909090909
 40
0.0909090909090909
 40
0.0909090909090909
 40
0.1818181818181818
 40
0.1818181818181818
 40
0.1818181818181818
 40
0.1818181818181818
 40
0.2727272727272727
 40
0.2727272727272727
 40
0.2727272727272727
 40
0.2727272727272727
 40
0.3636363636363636
 40
0.3636363636363636
 40
0.3636363636363636
 40
0.3636363636363636
 40
0.4545454545454545
 40
0.4545454545454545
 40
0.4545454545454545
 40
0.4545454545454545
 40
0.5454545454545454
 40
0.5454545454545454
 40
0.5454545454545454
 40
0.5454545454545454
 40
0.6363636363636364
 40
0.6363636363636364
 40
0.6363636363636364
 40
0.6363636363636364
 40
0.7272727272727273
 40
0.7272727272727273
 40
0.7272727272727273
 40
0.7272727272727273
 40
0.8181818181818182
 40
0.8181818181818182
 40
0.8181818181818182
 40
0.8181818181818182
 40
1.0
 40
1.0
 40
1.0
 40
1.0
 10
-9.8588
 20
18.1834
 30
0.0
 10
-9.8588
 20
18.1834
 30
0.0
 10
-9.8606
 20
18.1834
 30
0.0
 10
-9.8606
 20
18.1834
 30
0.0
 10
-9.8606
 20
18.1834
 30
0.0
 10
-9.8606
 20
18.1834
 30
0.0
 10
-14.3934
 20
13.5999
 30
0.0
 10
-14.3934
 20
13.5999
 30
0.0
 10
-14.3934
 20
13.5999
 30
0.0
 10
-14.3934
 20
13.5999
 30
0.0
 10
-15.1442
 20
14.3591
 30
0.0
 10
-15.1442
 20
14.3591
 30
0.0
 10
-15.1442
 20
14.3591
 30
0.0
 10
-15.1442
 20
14.3591
 30
0.0
 10
-11.3615
 20
18.1843
 30
0.0
 10
-11.3615
 20
18.1843
 30
0.0
 10
-11.3615
 20
18.1843
 30
0.0
 10
-11.3615
 20
18.1843
 30
0.0
 10
-15.1442
 20
22.0113
 30
0.0
 10
-15.1442
 20
22.0113
 30
0.0
 10
-15.1442
 20
22.0113
 30
0.0
 10
-15.1442
 20
22.0113
 30
0.0
 10
-14.3934
 20
22.7705
 30
0.0
 10
-14.3934
 20
22.7705
 30
0.0
 10
-14.3934
 20
22.7705
 30
0.0
 10
-14.3934
 20
22.7705
 30
0.0
 10
-9.8606
 20
18.1853
 30
0.0
 10
-9.8606
 20
18.1853
 30
0.0
 10
-9.8606
 20
18.1853
 30
0.0
 10
-9.8606
 20
18.1853
 30
0.0
 10
-9.8588
 20
18.1853
 30
0.0
 10
-9.8588
 20
18.1853
 30
0.0
 10
-9.8588
 20
18.1853
 30
0.0
 10
-9.8588
 20
18.1853
 30
0.0
 10
-9.8597
 20
18.1843
 30
0.0
 10
-9.8597
 20
18.1843
 30
0.0
 10
-9.8597
 20
18.1843
 30
0.0
 10
-9.8597
 20
18.1843
 30
0.0
 10
-9.8588
 20
18.1834
 30
0.0
 10
-9.8588
 20
18.1834
 30
0.0
  0
SPLINE
  5
8C
330
1F
100
AcDbEntity
  8
Layer 1
 62
   175
100
AcDbSpline
210
0.0
220
0.0
230
1.0
 70
    11
 71
     3
 72
    28
 73
    24
 74
     0
 42
0.000000001
 43
0.0000000001
 40
0.0
 40
0.0
 40
0.0
 40
0.0
 40
0.1428571428571428
 40
0.1428571428571428
 40
0.1428571428571428
 40
0.1428571428571428
 40
0.2857142857142857
 40
0.2857142857142857
 40
0.2857142857142857
 40
0.2857142857142857
 40
0.4285714285714285
 40
0.4285714285714285
 40
0.4285714285714285
 40
0.4285714285714285
 40
0.5714285714285714
 40
0.5714285714285714
 40
0.5714285714285714
 40
0.5714285714285714
 40
0.7142857142857143
 40
0.7142857142857143
 40
0.7142857142857143
 40
0.7142857142857143
 40
1.0
 40
1.0
 40
1.0
 40
1.0
 10
14.8436
 20
18.1853
 30
0.0
 10
14.8436
 20
18.1853
 30
0.0
 10
-2.0421
 20
1.1102
 30
0.0
 10
-2.0421
 20
1.1102
 30
0.0
 10
-2.0421
 20
1.1102
 30
0.0
 10
-2.0421
 20
1.1102
 30
0.0
 10
-1.2913
 20
0.351
 30
0.0
 10
-1.2913
 20
0.351
 30
0.0
 10
-1.2913
 20
0.351
 30
0.0
 10
-1.2913
 20
0.351
 30
0.0
 10
16.3453
 20
18.1853
 30
0.0
 10
16.3453
 20
18.1853
 30
0.0
 10
16.3453
 20
18.1853
 30
0.0
 10
16.3453
 20
18.1853
 30
0.0
 10
-1.2913
 20
36.0194
 30
0.0
 10
-1.2913
 20
36.0194
 30
0.0
 10
-1.2913
 20
36.0194
 30
0.0
 10
-1.2913
 20
36.0194
 30
0.0
 10
-2.0421
 20
35.2602
 30
0.0
 10
-2.0421
 20
35.2602
 30
0.0
 10
-2.0421
 20
35.2602
 30
0.0
 10
-2.0421
 20
35.2602
 30
0.0
 10
14.8436
 20
18.1853
 30
0.0
 10
14.8436
 20
18.1853
 30
0.0
  0
SPLINE
  5
8D
330
1F
100
AcDbEntity
  8
Layer 1
 62
   175
100
AcDbSpline
210
0.0
220
0.0
230
1.0
 70
    11
 71
     3
 72
    36
 73
    32
 74
     0
 42
0.000000001
 43
0.0000000001
 40
0.0
 40
0.0
 40
0.0
 40
0.0
 40
0.1111111111111111
 40
0.1111111111111111
 40
0.1111111111111111
 40
0.1111111111111111
 40
0.2222222222222222
 40
0.2222222222222222
 40
0.2222222222222222
 40
0.2222222222222222
 40
0.3333333333333333
 40
0.3333333333333333
 40
0.3333333333333333
 40
0.3333333333333333
 40
0.4444444444444444
 40
0.4444444444444444
 40
0.4444444444444444
 40
0.4444444444444444
 40
0.5555555555555556
 40
0.5555555555555556
 40
0.5555555555555556
 40
0.5555555555555556
 40
0.6666666666666666
 40
0.6666666666666666
 40
0.6666666666666666
 40
0.6666666666666666
 40
0.7777777777777778
 40
0.7777777777777778
 40
0.7777777777777778
 40
0.7777777777777778
 40
1.0
 40
1.0
 40
1.0
 40
1.0
 10
4.362
 20
18.1853
 30
0.0
 10
4.362
 20
18.1853
 30
0.0
 10
-7.283
 20
6.4098
 30
0.0
 10
-7.283
 20
6.4098
 30
0.0
 10
-7.283
 20
6.4098
 30
0.0
 10
-7.283
 20
6.4098
 30
0.0
 10
-6.5321
 20
5.6505
 30
0.0
 10
-6.5321
 20
5.6505
 30
0.0
 10
-6.5321
 20
5.6505
 30
0.0
 10
-6.5321
 20
5.6505
 30
0.0
 10
5.8636
 20
18.1853
 30
0.0
 10
5.8636
 20
18.1853
 30
0.0
 10
5.8636
 20
18.1853
 30
0.0
 10
5.8636
 20
18.1853
 30
0.0
 10
5.8636
 20
18.1853
 30
0.0
 10
5.8636
 20
18.1853
 30
0.0
 10
5.8636
 20
18.1853
 30
0.0
 10
5.8636
 20
18.1853
 30
0.0
 10
5.8636
 20
18.1853
 30
0.0
 10
5.8636
 20
18.1853
 30
0.0
 10
5.8636
 20
18.1853
 30
0.0
 10
5.8636
 20
18.1853
 30
0.0
 10
-6.5321
 20
30.7199
 30
0.0
 10
-6.5321
 20
30.7199
 30
0.0
 10
-6.5321
 20
30.7199
 30
0.0
 10
-6.5321
 20
30.7199
 30
0.0
 10
-7.283
 20
29.9606
 30
0.0
 10
-7.283
 20
29.9606
 30
0.0
 10
-7.283
 20
29.9606
 30
0.0
 10
-7.283
 20
29.9606
 30
0.0
 10
4.362
 20
18.1853
 30
0.0
 10
4.362
 20
18.1853
 30
0.0
  0
SPLINE
  5
8E
330
1F
100
AcDbEntity
  8
Layer 1
 62
   175
100
AcDbSpline
210
0.0
220
0.0
230
1.0
 70
    11
 71
     3
 72
    28
 73
    24
 74
     0
 42
0.000000001
 43
0.0000000001
 40
0.0
 40
0.0
 40
0.0
 40
0.0
 40
0.1428571428571428
 40
0.1428571428571428
 40
0.1428571428571428
 40
0.1428571428571428
 40
0.2857142857142857
 40
0.2857142857142857
 40
0.2857142857142857
 40
0.2857142857142857
 40
0.4285714285714285
 40
0.4285714285714285
 40
0.4285714285714285
 40
0.4285714285714285
 40
0.5714285714285714
 40
0.5714285714285714
 40
0.5714285714285714
 40
0.5714285714285714
 40
0.7142857142857143
 40
0.7142857142857143
 40
0.7142857142857143
 40
0.7142857142857143
 40
1.0
 40
1.0
 40
1.0
 40
1.0
 10
1.7415
 20
18.1853
 30
0.0
 10
1.7415
 20
18.1853
 30
0.0
 10
-8.5932
 20
7.7347
 30
0.0
 10
-8.5932
 20
7.7347
 30
0.0
 10
-8.5932
 20
7.7347
 30
0.0
 10
-8.5932
 20
7.7347
 30
0.0
 10
-7.8424
 20
6.9755
 30
0.0
 10
-7.8424
 20
6.9755
 30
0.0
 10
-7.8424
 20
6.9755
 30
0.0
 10
-7.8424
 20
6.9755
 30
0.0
 10
3.2433
 20
18.1853
 30
0.0
 10
3.2433
 20
18.1853
 30
0.0
 10
3.2433
 20
18.1853
 30
0.0
 10
3.2433
 20
18.1853
 30
0.0
 10
-7.8424
 20
29.395
 30
0.0
 10
-7.8424
 20
29.395
 30
0.0
 10
-7.8424
 20
29.395
 30
0.0
 10
-7.8424
 20
29.395
 30
0.0
 10
-8.5932
 20
28.6358
 30
0.0
 10
-8.5932
 20
28.6358
 30
0.0
 10
-8.5932
 20
28.6358
 30
0.0
 10
-8.5932
 20
28.6358
 30
0.0
 10
1.7415
 20
18.1853
 30
0.0
 10
1.7415
 20
18.1853
 30
0.0
  0
SPLINE
  5
8F
330
1F
100
AcDbEntity
  8
Layer 1
 62
   175
100
AcDbSpline
210
0.0
220
0.0
230
1.0
 70
    11
 71
     3
 72
    28
 73
    24
 74
     0
 42
0.000000001
 43
0.0000000001
 40
0.0
 40
0.0
 40
0.0
 40
0.0
 40
0.1428571428571428
 40
0.1428571428571428
 40
0.1428571428571428
 40
0.1428571428571428
 40
0.2857142857142857
 40
0.2857142857142857
 40
0.2857142857142857
 40
0.2857142857142857
 40
0.4285714285714285
 40
0.4285714285714285
 40
0.4285714285714285
 40
0.4285714285714285
 40
0.5714285714285714
 40
0.5714285714285714
 40
0.5714285714285714
 40
0.5714285714285714
 40
0.7142857142857143
 40
0.7142857142857143
 40
0.7142857142857143
 40
0.7142857142857143
 40
1.0
 40
1.0
 40
1.0
 40
1.0
 10
-3.4994
 20
18.1853
 30
0.0
 10
-3.4994
 20
18.1853
 30
0.0
 10
-11.2136
 20
10.3845
 30
0.0
 10
-11.2136
 20
10.3845
 30
0.0
 10
-11.2136
 20
10.3845
 30
0.0
 10
-11.2136
 20
10.3845
 30
0.0
 10
-10.4628
 20
9.6252
 30
0.0
 10
-10.4628
 20
9.6252
 30
0.0
 10
-10.4628
 20
9.6252
 30
0.0
 10
-10.4628
 20
9.6252
 30
0.0
 10
-1.9976
 20
18.1853
 30
0.0
 10
-1.9976
 20
18.1853
 30
0.0
 10
-1.9976
 20
18.1853
 30
0.0
 10
-1.9976
 20
18.1853
 30
0.0
 10
-10.4628
 20
26.7452
 30
0.0
 10
-10.4628
 20
26.7452
 30
0.0
 10
-10.4628
 20
26.7452
 30
0.0
 10
-10.4628
 20
26.7452
 30
0.0
 10
-11.2136
 20
25.986
 30
0.0
 10
-11.2136
 20
25.986
 30
0.0
 10
-11.2136
 20
25.986
 30
0.0
 10
-11.2136
 20
25.986
 30
0.0
 10
-3.4994
 20
18.1853
 30
0.0
 10
-3.4994
 20
18.1853
 30
0.0
  0
SPLINE
  5
90
330
1F
100
AcDbEntity
  8
Layer 1
 62
   175
100
AcDbSpline
210
0.0
220
0.0
230
1.0
 70
    11
 71
     3
 72
    28
 73
    24
 74
     0
 42
0.000000001
 43
0.0000000001
 40
0.0
 40
0.0
 40
0.0
 40
0.0
 40
0.1428571428571428
 40
0.1428571428571428
 40
0.1428571428571428
 40
0.1428571428571428
 40
0.2857142857142857
 40
0.2857142857142857
 40
0.2857142857142857
 40
0.2857142857142857
 40
0.4285714285714285
 40
0.4285714285714285
 40
0.4285714285714285
 40
0.4285714285714285
 40
0.5714285714285714
 40
0.5714285714285714
 40
0.5714285714285714
 40
0.5714285714285714
 40
0.7142857142857143
 40
0.7142857142857143
 40
0.7142857142857143
 40
0.7142857142857143
 40
1.0
 40
1.0
 40
1.0
 40
1.0
 10
-6.1198
 20
18.1853
 30
0.0
 10
-6.1198
 20
18.1853
 30
0.0
 10
-12.5239
 20
11.7094
 30
0.0
 10
-12.5239
 20
11.7094
 30
0.0
 10
-12.5239
 20
11.7094
 30
0.0
 10
-12.5239
 20
11.7094
 30
0.0
 10
-11.7729
 20
10.9501
 30
0.0
 10
-11.7729
 20
10.9501
 30
0.0
 10
-11.7729
 20
10.9501
 30
0.0
 10
-11.7729
 20
10.9501
 30
0.0
 10
-4.6179
 20
18.1853
 30
0.0
 10
-4.6179
 20
18.1853
 30
0.0
 10
-4.6179
 20
18.1853
 30
0.0
 10
-4.6179
 20
18.1853
 30
0.0
 10
-11.7729
 20
25.4203
 30
0.0
 10
-11.7729
 20
25.4203
 30
0.0
 10
-11.7729
 20
25.4203
 30
0.0
 10
-11.7729
 20
25.4203
 30
0.0
 10
-12.5239
 20
24.6611
 30
0.0
 10
-12.5239
 20
24.6611
 30
0.0
 10
-12.5239
 20
24.6611
 30
0.0
 10
-12.5239
 20
24.6611
 30
0.0
 10
-6.1198
 20
18.1853
 30
0.0
 10
-6.1198
 20
18.1853
 30
0.0
  0
SPLINE
  5
91
330
1F
100
AcDbEntity
  8
Layer 1
 62
   175
100
AcDbSpline
210
0.0
220
0.0
230
1.0
 70
    11
 71
     3
 72
    28
 73
    24
 74
     0
 42
0.000000001
 43
0.0000000001
 40
0.0
 40
0.0
 40
0.0
 40
0.0
 40
0.1428571428571428
 40
0.1428571428571428
 40
0.1428571428571428
 40
0.1428571428571428
 40
0.2857142857142857
 40
0.2857142857142857
 40
0.2857142857142857
 40
0.2857142857142857
 40
0.4285714285714285
 40
0.4285714285714285
 40
0.4285714285714285
 40
0.4285714285714285
 40
0.5714285714285714
 40
0.5714285714285714
 40
0.5714285714285714
 40
0.5714285714285714
 40
0.7142857142857143
 40
0.7142857142857143
 40
0.7142857142857143
 40
0.7142857142857143
 40
1.0
 40
1.0
 40
1.0
 40
1.0
 10
-8.7402
 20
18.1853
 30
0.0
 10
-8.7402
 20
18.1853
 30
0.0
 10
-13.834
 20
13.0343
 30
0.0
 10
-13.834
 20
13.0343
 30
0.0
 10
-13.834
 20
13.0343
 30
0.0
 10
-13.834
 20
13.0343
 30
0.0
 10
-13.0833
 20
12.2751
 30
0.0
 10
-13.0833
 20
12.2751
 30
0.0
 10
-13.0833
 20
12.2751
 30
0.0
 10
-13.0833
 20
12.2751
 30
0.0
 10
-7.2384
 20
18.1853
 30
0.0
 10
-7.2384
 20
18.1853
 30
0.0
 10
-7.2384
 20
18.1853
 30
0.0
 10
-7.2384
 20
18.1853
 30
0.0
 10
-13.0833
 20
24.0955
 30
0.0
 10
-13.0833
 20
24.0955
 30
0.0
 10
-13.0833
 20
24.0955
 30
0.0
 10
-13.0833
 20
24.0955
 30
0.0
 10
-13.834
 20
23.3362
 30
0.0
 10
-13.834
 20
23.3362
 30
0.0
 10
-13.834
 20
23.3362
 30
0.0
 10
-13.834
 20
23.3362
 30
0.0
 10
-8.7402
 20
18.1853
 30
0.0
 10
-8.7402
 20
18.1853
 30
0.0
  0
SPLINE
  5
92
330
1F
100
AcDbEntity
  8
Layer 1
 62
   175
100
AcDbSpline
210
0.0
220
0.0
230
1.0
 70
    11
 71
     3
 72
    32
 73
    28
 74
     0
 42
0.000000001
 43
0.0000000001
 40
0.0
 40
0.0
 40
0.0
 40
0.0
 40
0.125
 40
0.125
 40
0.125
 40
0.125
 40
0.25
 40
0.25
 40
0.25
 40
0.25
 40
0.375
 40
0.375
 40
0.375
 40
0.375
 40
0.5
 40
0.5
 40
0.5
 40
0.5
 40
0.625
 40
0.625
 40
0.625
 40
0.625
 40
0.75
 40
0.75
 40
0.75
 40
0.75
 40
1.0
 40
1.0
 40
1.0
 40
1.0
 10
-13.9809
 20
18.1853
 30
0.0
 10
-13.9809
 20
18.1853
 30
0.0
 10
-16.4545
 20
15.684
 30
0.0
 10
-16.4545
 20
15.684
 30
0.0
 10
-16.4545
 20
15.684
 30
0.0
 10
-16.4545
 20
15.684
 30
0.0
 10
-15.7035
 20
14.9248
 30
0.0
 10
-15.7035
 20
14.9248
 30
0.0
 10
-15.7035
 20
14.9248
 30
0.0
 10
-15.7035
 20
14.9248
 30
0.0
 10
-12.4793
 20
18.1853
 30
0.0
 10
-12.4793
 20
18.1853
 30
0.0
 10
-12.4793
 20
18.1853
 30
0.0
 10
-12.4793
 20
18.1853
 30
0.0
 10
-12.4793
 20
18.1853
 30
0.0
 10
-12.4793
 20
18.1853
 30
0.0
 10
-12.4793
 20
18.1853
 30
0.0
 10
-12.4793
 20
18.1853
 30
0.0
 10
-15.7035
 20
21.4456
 30
0.0
 10
-15.7035
 20
21.4456
 30
0.0
 10
-15.7035
 20
21.4456
 30
0.0
 10
-15.7035
 20
21.4456
 30
0.0
 10
-16.4545
 20
20.6863
 30
0.0
 10
-16.4545
 20
20.6863
 30
0.0
 10
-16.4545
 20
20.6863
 30
0.0
 10
-16.4545
 20
20.6863
 30
0.0
 10
-13.9809
 20
18.1853
 30
0.0
 10
-13.9809
 20
18.1853
 30
0.0
  0
SPLINE
  5
93
330
1F
100
AcDbEntity
  8
Layer 1
 62
   175
100
AcDbSpline
210
0.0
220
0.0
230
1.0
 70
    11
 71
     3
 72
    28
 73
    24
 74
     0
 42
0.000000001
 43
0.0000000001
 40
0.0
 40
0.0
 40
0.0
 40
0.0
 40
0.1428571428571428
 40
0.1428571428571428
 40
0.1428571428571428
 40
0.1428571428571428
 40
0.2857142857142857
 40
0.2857142857142857
 40
0.2857142857142857
 40
0.2857142857142857
 40
0.4285714285714285
 40
0.4285714285714285
 40
0.4285714285714285
 40
0.4285714285714285
 40
0.5714285714285714
 40
0.5714285714285714
 40
0.5714285714285714
 40
0.5714285714285714
 40
0.7142857142857143
 40
0.7142857142857143
 40
0.7142857142857143
 40
0.7142857142857143
 40
1.0
 40
1.0
 40
1.0
 40
1.0
 10
-17.7647
 20
19.3616
 30
0.0
 10
-17.7647
 20
19.3616
 30
0.0
 10
-17.0138
 20
20.1208
 30
0.0
 10
-17.0138
 20
20.1208
 30
0.0
 10
-17.0138
 20
20.1208
 30
0.0
 10
-17.0138
 20
20.1208
 30
0.0
 10
-15.0997
 20
18.1853
 30
0.0
 10
-15.0997
 20
18.1853
 30
0.0
 10
-15.0997
 20
18.1853
 30
0.0
 10
-15.0997
 20
18.1853
 30
0.0
 10
-17.0138
 20
16.2496
 30
0.0
 10
-17.0138
 20
16.2496
 30
0.0
 10
-17.0138
 20
16.2496
 30
0.0
 10
-17.0138
 20
16.2496
 30
0.0
 10
-17.7647
 20
17.009
 30
0.0
 10
-17.7647
 20
17.009
 30
0.0
 10
-17.7647
 20
17.009
 30
0.0
 10
-17.7647
 20
17.009
 30
0.0
 10
-16.6014
 20
18.1853
 30
0.0
 10
-16.6014
 20
18.1853
 30
0.0
 10
-16.6014
 20
18.1853
 30
0.0
 10
-16.6014
 20
18.1853
 30
0.0
 10
-17.7647
 20
19.3616
 30
0.0
 10
-17.7647
 20
19.3616
 30
0.0
  0
SPLINE
  5
94
330
1F
100
AcDbEntity
  8
Layer 1
 62
   175
100
AcDbSpline
210
0.0
220
0.0
230
1.0
 70
    11
 71
     3
 72
    32
 73
    28
 74
     0
 42
0.000000001
 43
0.0000000001
 40
0.0
 40
0.0
 40
0.0
 40
0.0
 40
0.125
 40
0.125
 40
0.125
 40
0.125
 40
0.25
 40
0.25
 40
0.25
 40
0.25
 40
0.375
 40
0.375
 40
0.375
 40
0.375
 40
0.5
 40
0.5
 40
0.5
 40
0.5
 40
0.625
 40
0.625
 40
0.625
 40
0.625
 40
0.75
 40
0.75
 40
0.75
 40
0.75
 40
1.0
 40
1.0
 40
1.0
 40
1.0
 10
18.928
 20
18.187
 30
0.0
 10
18.928
 20
18.187
 30
0.0
 10
18.928
 20
18.1834
 30
0.0
 10
18.928
 20
18.1834
 30
0.0
 10
18.928
 20
18.1834
 30
0.0
 10
18.928
 20
18.1834
 30
0.0
 10
0.001
 20
-0.9558
 30
0.0
 10
0.001
 20
-0.9558
 30
0.0
 10
0.001
 20
-0.9558
 30
0.0
 10
0.001
 20
-0.9558
 30
0.0
 10
-0.7318
 20
-0.2147
 30
0.0
 10
-0.7318
 20
-0.2147
 30
0.0
 10
-0.7318
 20
-0.2147
 30
0.0
 10
-0.7318
 20
-0.2147
 30
0.0
 10
17.4642
 20
18.1853
 30
0.0
 10
17.4642
 20
18.1853
 30
0.0
 10
17.4642
 20
18.1853
 30
0.0
 10
17.4642
 20
18.1853
 30
0.0
 10
-0.7318
 20
36.5851
 30
0.0
 10
-0.7318
 20
36.5851
 30
0.0
 10
-0.7318
 20
36.5851
 30
0.0
 10
-0.7318
 20
36.5851
 30
0.0
 10
0.001
 20
37.3262
 30
0.0
 10
0.001
 20
37.3262
 30
0.0
 10
0.001
 20
37.3262
 30
0.0
 10
0.001
 20
37.3262
 30
0.0
 10
18.928
 20
18.187
 30
0.0
 10
18.928
 20
18.187
 30
0.0
  0
SPLINE
  5
95
330
1F
100
AcDbEntity
  8
Layer 1
 62
   175
100
AcDbSpline
210
0.0
220
0.0
230
1.0
 70
    11
 71
     3
 72
    32
 73
    28
 74
     0
 42
0.000000001
 43
0.0000000001
 40
0.0
 40
0.0
 40
0.0
 40
0.0
 40
0.125
 40
0.125
 40
0.125
 40
0.125
 40
0.25
 40
0.25
 40
0.25
 40
0.25
 40
0.375
 40
0.375
 40
0.375
 40
0.375
 40
0.5
 40
0.5
 40
0.5
 40
0.5
 40
0.625
 40
0.625
 40
0.625
 40
0.625
 40
0.75
 40
0.75
 40
0.75
 40
0.75
 40
1.0
 40
1.0
 40
1.0
 40
1.0
 10
-18.928
 20
18.1853
 30
0.0
 10
-18.928
 20
18.1853
 30
0.0
 10
-18.928
 20
18.1853
 30
0.0
 10
-18.928
 20
18.1853
 30
0.0
 10
-18.928
 20
18.1853
 30
0.0
 10
-18.928
 20
18.1853
 30
0.0
 10
-18.3184
 20
17.5689
 30
0.0
 10
-18.3184
 20
17.5689
 30
0.0
 10
-18.3184
 20
17.5689
 30
0.0
 10
-18.3184
 20
17.5689
 30
0.0
 10
-17.7088
 20
18.1853
 30
0.0
 10
-17.7088
 20
18.1853
 30
0.0
 10
-17.7088
 20
18.1853
 30
0.0
 10
-17.7088
 20
18.1853
 30
0.0
 10
-17.7088
 20
18.1853
 30
0.0
 10
-17.7088
 20
18.1853
 30
0.0
 10
-17.7088
 20
18.1853
 30
0.0
 10
-17.7088
 20
18.1853
 30
0.0
 10
-17.7088
 20
18.1853
 30
0.0
 10
-17.7088
 20
18.1853
 30
0.0
 10
-17.7088
 20
18.1853
 30
0.0
 10
-17.7088
 20
18.1853
 30
0.0
 10
-18.3184
 20
18.8016
 30
0.0
 10
-18.3184
 20
18.8016
 30
0.0
 10
-18.3184
 20
18.8016
 30
0.0
 10
-18.3184
 20
18.8016
 30
0.0
 10
-18.928
 20
18.1853
 30
0.0
 10
-18.928
 20
18.1853
 30
0.0
  0
SPLINE
  5
96
330
1F
100
AcDbEntity
  8
Layer 1
 62
   175
100
AcDbSpline
210
0.0
220
0.0
230
1.0
 70
    11
 71
     3
 72
    20
 73
    16
 74
     0
 42
0.000000001
 43
0.0000000001
 40
0.0
 40
0.0
 40
0.0
 40
0.0
 40
0.2
 40
0.2
 40
0.2
 40
0.2
 40
0.4
 40
0.4
 40
0.4
 40
0.4
 40
0.6
 40
0.6
 40
0.6
 40
0.6
 40
1.0
 40
1.0
 40
1.0
 40
1.0
 10
-1.6257
 20
40.9443
 30
0.0
 10
-1.6257
 20
40.9443
 30
0.0
 10
-0.124
 20
40.9443
 30
0.0
 10
-0.124
 20
40.9443
 30
0.0
 10
-0.124
 20
40.9443
 30
0.0
 10
-0.124
 20
40.9443
 30
0.0
 10
-1.2913
 20
39.764
 30
0.0
 10
-1.2913
 20
39.764
 30
0.0
 10
-1.2913
 20
39.764
 30
0.0
 10
-1.2913
 20
39.764
 30
0.0
 10
-2.0421
 20
40.5233
 30
0.0
 10
-2.0421
 20
40.5233
 30
0.0
 10
-2.0421
 20
40.5233
 30
0.0
 10
-2.0421
 20
40.5233
 30
0.0
 10
-1.6257
 20
40.9443
 30
0.0
 10
-1.6257
 20
40.9443
 30
0.0
  0
SPLINE
  5
97
330
1F
100
AcDbEntity
  8
Layer 1
 62
   175
100
AcDbSpline
210
0.0
220
0.0
230
1.0
 70
    11
 71
     3
 72
    20
 73
    16
 74
     0
 42
0.000000001
 43
0.0000000001
 40
0.0
 40
0.0
 40
0.0
 40
0.0
 40
0.2
 40
0.2
 40
0.2
 40
0.2
 40
0.4
 40
0.4
 40
0.4
 40
0.4
 40
0.6
 40
0.6
 40
0.6
 40
0.6
 40
1.0
 40
1.0
 40
1.0
 40
1.0
 10
0.9947
 20
40.9443
 30
0.0
 10
0.9947
 20
40.9443
 30
0.0
 10
2.4603
 20
40.9443
 30
0.0
 10
2.4603
 20
40.9443
 30
0.0
 10
2.4603
 20
40.9443
 30
0.0
 10
2.4603
 20
40.9443
 30
0.0
 10
0.001
 20
38.4573
 30
0.0
 10
0.001
 20
38.4573
 30
0.0
 10
0.001
 20
38.4573
 30
0.0
 10
0.001
 20
38.4573
 30
0.0
 10
-0.7318
 20
39.1983
 30
0.0
 10
-0.7318
 20
39.1983
 30
0.0
 10
-0.7318
 20
39.1983
 30
0.0
 10
-0.7318
 20
39.1983
 30
0.0
 10
0.9947
 20
40.9443
 30
0.0
 10
0.9947
 20
40.9443
 30
0.0
  0
SPLINE
  5
98
330
1F
100
AcDbEntity
  8
Layer 1
 62
   175
100
AcDbSpline
210
0.0
220
0.0
230
1.0
 70
    11
 71
     3
 72
    16
 73
    12
 74
     0
 42
0.000000001
 43
0.0000000001
 40
0.0
 40
0.0
 40
0.0
 40
0.0
 40
0.25
 40
0.25
 40
0.25
 40
0.25
 40
0.5
 40
0.5
 40
0.5
 40
0.5
 40
1.0
 40
1.0
 40
1.0
 40
1.0
 10
-19.112
 20
-40.9442
 30
0.0
 10
-19.112
 20
-40.9442
 30
0.0
 10
-19.112
 20
-40.7115
 30
0.0
 10
-19.112
 20
-40.7115
 30
0.0
 10
-19.112
 20
-40.7115
 30
0.0
 10
-19.112
 20
-40.7115
 30
0.0
 10
-18.8818
 20
-40.9442
 30
0.0
 10
-18.8818
 20
-40.9442
 30
0.0
 10
-18.8818
 20
-40.9442
 30
0.0
 10
-18.8818
 20
-40.9442
 30
0.0
 10
-19.112
 20
-40.9442
 30
0.0
 10
-19.112
 20
-40.9442
 30
0.0
  0
SPLINE
  5
99
330
1F
100
AcDbEntity
  8
Layer 1
 62
   175
100
AcDbSpline
210
0.0
220
0.0
230
1.0
 70
    11
 71
     3
 72
    28
 73
    24
 74
     0
 42
0.000000001
 43
0.0000000001
 40
0.0
 40
0.0
 40
0.0
 40
0.0
 40
0.1428571428571428
 40
0.1428571428571428
 40
0.1428571428571428
 40
0.1428571428571428
 40
0.2857142857142857
 40
0.2857142857142857
 40
0.2857142857142857
 40
0.2857142857142857
 40
0.4285714285714285
 40
0.4285714285714285
 40
0.4285714285714285
 40
0.4285714285714285
 40
0.5714285714285714
 40
0.5714285714285714
 40
0.5714285714285714
 40
0.5714285714285714
 40
0.7142857142857143
 40
0.7142857142857143
 40
0.7142857142857143
 40
0.7142857142857143
 40
1.0
 40
1.0
 40
1.0
 40
1.0
 10
-19.112
 20
-15.0592
 30
0.0
 10
-19.112
 20
-15.0592
 30
0.0
 10
-19.112
 20
-13.5408
 30
0.0
 10
-19.112
 20
-13.5408
 30
0.0
 10
-19.112
 20
-13.5408
 30
0.0
 10
-19.112
 20
-13.5408
 30
0.0
 10
-7.2584
 20
-1.5544
 30
0.0
 10
-7.2584
 20
-1.5544
 30
0.0
 10
-7.2584
 20
-1.5544
 30
0.0
 10
-7.2584
 20
-1.5544
 30
0.0
 10
-19.112
 20
10.432
 30
0.0
 10
-19.112
 20
10.432
 30
0.0
 10
-19.112
 20
10.432
 30
0.0
 10
-19.112
 20
10.432
 30
0.0
 10
-19.112
 20
11.9505
 30
0.0
 10
-19.112
 20
11.9505
 30
0.0
 10
-19.112
 20
11.9505
 30
0.0
 10
-19.112
 20
11.9505
 30
0.0
 10
-5.7568
 20
-1.5544
 30
0.0
 10
-5.7568
 20
-1.5544
 30
0.0
 10
-5.7568
 20
-1.5544
 30
0.0
 10
-5.7568
 20
-1.5544
 30
0.0
 10
-19.112
 20
-15.0592
 30
0.0
 10
-19.112
 20
-15.0592
 30
0.0
  0
SPLINE
  5
9A
330
1F
100
AcDbEntity
  8
Layer 1
 62
   175
100
AcDbSpline
210
0.0
220
0.0
230
1.0
 70
    11
 71
     3
 72
    28
 73
    24
 74
     0
 42
0.000000001
 43
0.0000000001
 40
0.0
 40
0.0
 40
0.0
 40
0.0
 40
0.1428571428571428
 40
0.1428571428571428
 40
0.1428571428571428
 40
0.1428571428571428
 40
0.2857142857142857
 40
0.2857142857142857
 40
0.2857142857142857
 40
0.2857142857142857
 40
0.4285714285714285
 40
0.4285714285714285
 40
0.4285714285714285
 40
0.4285714285714285
 40
0.5714285714285714
 40
0.5714285714285714
 40
0.5714285714285714
 40
0.5714285714285714
 40
0.7142857142857143
 40
0.7142857142857143
 40
0.7142857142857143
 40
0.7142857142857143
 40
1.0
 40
1.0
 40
1.0
 40
1.0
 10
-19.112
 20
-12.4095
 30
0.0
 10
-19.112
 20
-12.4095
 30
0.0
 10
-19.112
 20
-10.8909
 30
0.0
 10
-19.112
 20
-10.8909
 30
0.0
 10
-19.112
 20
-10.8909
 30
0.0
 10
-19.112
 20
-10.8909
 30
0.0
 10
-9.8788
 20
-1.5544
 30
0.0
 10
-9.8788
 20
-1.5544
 30
0.0
 10
-9.8788
 20
-1.5544
 30
0.0
 10
-9.8788
 20
-1.5544
 30
0.0
 10
-19.112
 20
7.7823
 30
0.0
 10
-19.112
 20
7.7823
 30
0.0
 10
-19.112
 20
7.7823
 30
0.0
 10
-19.112
 20
7.7823
 30
0.0
 10
-19.112
 20
9.3008
 30
0.0
 10
-19.112
 20
9.3008
 30
0.0
 10
-19.112
 20
9.3008
 30
0.0
 10
-19.112
 20
9.3008
 30
0.0
 10
-8.3771
 20
-1.5544
 30
0.0
 10
-8.3771
 20
-1.5544
 30
0.0
 10
-8.3771
 20
-1.5544
 30
0.0
 10
-8.3771
 20
-1.5544
 30
0.0
 10
-19.112
 20
-12.4095
 30
0.0
 10
-19.112
 20
-12.4095
 30
0.0
  0
SPLINE
  5
9B
330
1F
100
AcDbEntity
  8
Layer 1
 62
   175
100
AcDbSpline
210
0.0
220
0.0
230
1.0
 70
    11
 71
     3
 72
    32
 73
    28
 74
     0
 42
0.000000001
 43
0.0000000001
 40
0.0
 40
0.0
 40
0.0
 40
0.0
 40
0.125
 40
0.125
 40
0.125
 40
0.125
 40
0.25
 40
0.25
 40
0.25
 40
0.25
 40
0.375
 40
0.375
 40
0.375
 40
0.375
 40
0.5
 40
0.5
 40
0.5
 40
0.5
 40
0.625
 40
0.625
 40
0.625
 40
0.625
 40
0.75
 40
0.75
 40
0.75
 40
0.75
 40
1.0
 40
1.0
 40
1.0
 40
1.0
 10
-19.112
 20
-9.7597
 30
0.0
 10
-19.112
 20
-9.7597
 30
0.0
 10
-19.112
 20
-8.2412
 30
0.0
 10
-19.112
 20
-8.2412
 30
0.0
 10
-19.112
 20
-8.2412
 30
0.0
 10
-19.112
 20
-8.2412
 30
0.0
 10
-12.4992
 20
-1.5544
 30
0.0
 10
-12.4992
 20
-1.5544
 30
0.0
 10
-12.4992
 20
-1.5544
 30
0.0
 10
-12.4992
 20
-1.5544
 30
0.0
 10
-12.4992
 20
-1.5544
 30
0.0
 10
-12.4992
 20
-1.5544
 30
0.0
 10
-12.4992
 20
-1.5544
 30
0.0
 10
-12.4992
 20
-1.5544
 30
0.0
 10
-19.112
 20
5.1325
 30
0.0
 10
-19.112
 20
5.1325
 30
0.0
 10
-19.112
 20
5.1325
 30
0.0
 10
-19.112
 20
5.1325
 30
0.0
 10
-19.112
 20
6.651
 30
0.0
 10
-19.112
 20
6.651
 30
0.0
 10
-19.112
 20
6.651
 30
0.0
 10
-19.112
 20
6.651
 30
0.0
 10
-10.9976
 20
-1.5544
 30
0.0
 10
-10.9976
 20
-1.5544
 30
0.0
 10
-10.9976
 20
-1.5544
 30
0.0
 10
-10.9976
 20
-1.5544
 30
0.0
 10
-19.112
 20
-9.7597
 30
0.0
 10
-19.112
 20
-9.7597
 30
0.0
  0
SPLINE
  5
9C
330
1F
100
AcDbEntity
  8
Layer 1
 62
   175
100
AcDbSpline
210
0.0
220
0.0
230
1.0
 70
    11
 71
     3
 72
    16
 73
    12
 74
     0
 42
0.000000001
 43
0.0000000001
 40
0.0
 40
0.0
 40
0.0
 40
0.0
 40
0.25
 40
0.25
 40
0.25
 40
0.25
 40
0.5
 40
0.5
 40
0.5
 40
0.5
 40
1.0
 40
1.0
 40
1.0
 40
1.0
 10
-19.112
 20
-1.8102
 30
0.0
 10
-19.112
 20
-1.8102
 30
0.0
 10
-19.112
 20
-1.2983
 30
0.0
 10
-19.112
 20
-1.2983
 30
0.0
 10
-19.112
 20
-1.2983
 30
0.0
 10
-19.112
 20
-1.2983
 30
0.0
 10
-18.8589
 20
-1.5544
 30
0.0
 10
-18.8589
 20
-1.5544
 30
0.0
 10
-18.8589
 20
-1.5544
 30
0.0
 10
-18.8589
 20
-1.5544
 30
0.0
 10
-19.112
 20
-1.8102
 30
0.0
 10
-19.112
 20
-1.8102
 30
0.0
  0
SPLINE
  5
9D
330
1F
100
AcDbEntity
  8
Layer 1
 62
   175
100
AcDbSpline
210
0.0
220
0.0
230
1.0
 70
    11
 71
     3
 72
    28
 73
    24
 74
     0
 42
0.000000001
 43
0.0000000001
 40
0.0
 40
0.0
 40
0.0
 40
0.0
 40
0.1428571428571428
 40
0.1428571428571428
 40
0.1428571428571428
 40
0.1428571428571428
 40
0.2857142857142857
 40
0.2857142857142857
 40
0.2857142857142857
 40
0.2857142857142857
 40
0.4285714285714285
 40
0.4285714285714285
 40
0.4285714285714285
 40
0.4285714285714285
 40
0.5714285714285714
 40
0.5714285714285714
 40
0.5714285714285714
 40
0.5714285714285714
 40
0.7142857142857143
 40
0.7142857142857143
 40
0.7142857142857143
 40
0.7142857142857143
 40
1.0
 40
1.0
 40
1.0
 40
1.0
 10
-19.112
 20
-17.709
 30
0.0
 10
-19.112
 20
-17.709
 30
0.0
 10
-19.112
 20
-16.1905
 30
0.0
 10
-19.112
 20
-16.1905
 30
0.0
 10
-19.112
 20
-16.1905
 30
0.0
 10
-19.112
 20
-16.1905
 30
0.0
 10
-4.638
 20
-1.5544
 30
0.0
 10
-4.638
 20
-1.5544
 30
0.0
 10
-4.638
 20
-1.5544
 30
0.0
 10
-4.638
 20
-1.5544
 30
0.0
 10
-19.112
 20
13.0818
 30
0.0
 10
-19.112
 20
13.0818
 30
0.0
 10
-19.112
 20
13.0818
 30
0.0
 10
-19.112
 20
13.0818
 30
0.0
 10
-19.112
 20
14.6004
 30
0.0
 10
-19.112
 20
14.6004
 30
0.0
 10
-19.112
 20
14.6004
 30
0.0
 10
-19.112
 20
14.6004
 30
0.0
 10
-3.1362
 20
-1.5544
 30
0.0
 10
-3.1362
 20
-1.5544
 30
0.0
 10
-3.1362
 20
-1.5544
 30
0.0
 10
-3.1362
 20
-1.5544
 30
0.0
 10
-19.112
 20
-17.709
 30
0.0
 10
-19.112
 20
-17.709
 30
0.0
  0
SPLINE
  5
9E
330
1F
100
AcDbEntity
  8
Layer 1
 62
   175
100
AcDbSpline
210
0.0
220
0.0
230
1.0
 70
    11
 71
     3
 72
    36
 73
    32
 74
     0
 42
0.000000001
 43
0.0000000001
 40
0.0
 40
0.0
 40
0.0
 40
0.0
 40
0.1111111111111111
 40
0.1111111111111111
 40
0.1111111111111111
 40
0.1111111111111111
 40
0.2222222222222222
 40
0.2222222222222222
 40
0.2222222222222222
 40
0.2222222222222222
 40
0.3333333333333333
 40
0.3333333333333333
 40
0.3333333333333333
 40
0.3333333333333333
 40
0.4444444444444444
 40
0.4444444444444444
 40
0.4444444444444444
 40
0.4444444444444444
 40
0.5555555555555556
 40
0.5555555555555556
 40
0.5555555555555556
 40
0.5555555555555556
 40
0.6666666666666666
 40
0.6666666666666666
 40
0.6666666666666666
 40
0.6666666666666666
 40
0.7777777777777778
 40
0.7777777777777778
 40
0.7777777777777778
 40
0.7777777777777778
 40
1.0
 40
1.0
 40
1.0
 40
1.0
 10
-19.112
 20
-7.1099
 30
0.0
 10
-19.112
 20
-7.1099
 30
0.0
 10
-19.112
 20
-5.5913
 30
0.0
 10
-19.112
 20
-5.5913
 30
0.0
 10
-19.112
 20
-5.5913
 30
0.0
 10
-19.112
 20
-5.5913
 30
0.0
 10
-15.1197
 20
-1.5544
 30
0.0
 10
-15.1197
 20
-1.5544
 30
0.0
 10
-15.1197
 20
-1.5544
 30
0.0
 10
-15.1197
 20
-1.5544
 30
0.0
 10
-19.112
 20
2.4828
 30
0.0
 10
-19.112
 20
2.4828
 30
0.0
 10
-19.112
 20
2.4828
 30
0.0
 10
-19.112
 20
2.4828
 30
0.0
 10
-19.112
 20
4.0012
 30
0.0
 10
-19.112
 20
4.0012
 30
0.0
 10
-19.112
 20
4.0012
 30
0.0
 10
-19.112
 20
4.0012
 30
0.0
 10
-13.618
 20
-1.5544
 30
0.0
 10
-13.618
 20
-1.5544
 30
0.0
 10
-13.618
 20
-1.5544
 30
0.0
 10
-13.618
 20
-1.5544
 30
0.0
 10
-13.618
 20
-1.5544
 30
0.0
 10
-13.618
 20
-1.5544
 30
0.0
 10
-13.618
 20
-1.5544
 30
0.0
 10
-13.618
 20
-1.5544
 30
0.0
 10
-13.618
 20
-1.5544
 30
0.0
 10
-13.618
 20
-1.5544
 30
0.0
 10
-13.618
 20
-1.5544
 30
0.0
 10
-13.618
 20
-1.5544
 30
0.0
 10
-19.112
 20
-7.1099
 30
0.0
 10
-19.112
 20
-7.1099
 30
0.0
  0
SPLINE
  5
9F
330
1F
100
AcDbEntity
  8
Layer 1
 62
   175
100
AcDbSpline
210
0.0
220
0.0
230
1.0
 70
    11
 71
     3
 72
    28
 73
    24
 74
     0
 42
0.000000001
 43
0.0000000001
 40
0.0
 40
0.0
 40
0.0
 40
0.0
 40
0.1428571428571428
 40
0.1428571428571428
 40
0.1428571428571428
 40
0.1428571428571428
 40
0.2857142857142857
 40
0.2857142857142857
 40
0.2857142857142857
 40
0.2857142857142857
 40
0.4285714285714285
 40
0.4285714285714285
 40
0.4285714285714285
 40
0.4285714285714285
 40
0.5714285714285714
 40
0.5714285714285714
 40
0.5714285714285714
 40
0.5714285714285714
 40
0.7142857142857143
 40
0.7142857142857143
 40
0.7142857142857143
 40
0.7142857142857143
 40
1.0
 40
1.0
 40
1.0
 40
1.0
 10
-19.112
 20
-4.4601
 30
0.0
 10
-19.112
 20
-4.4601
 30
0.0
 10
-19.112
 20
-2.9416
 30
0.0
 10
-19.112
 20
-2.9416
 30
0.0
 10
-19.112
 20
-2.9416
 30
0.0
 10
-19.112
 20
-2.9416
 30
0.0
 10
-17.7402
 20
-1.5544
 30
0.0
 10
-17.7402
 20
-1.5544
 30
0.0
 10
-17.7402
 20
-1.5544
 30
0.0
 10
-17.7402
 20
-1.5544
 30
0.0
 10
-19.112
 20
-0.1671
 30
0.0
 10
-19.112
 20
-0.1671
 30
0.0
 10
-19.112
 20
-0.1671
 30
0.0
 10
-19.112
 20
-0.1671
 30
0.0
 10
-19.112
 20
1.3514
 30
0.0
 10
-19.112
 20
1.3514
 30
0.0
 10
-19.112
 20
1.3514
 30
0.0
 10
-19.112
 20
1.3514
 30
0.0
 10
-16.2384
 20
-1.5544
 30
0.0
 10
-16.2384
 20
-1.5544
 30
0.0
 10
-16.2384
 20
-1.5544
 30
0.0
 10
-16.2384
 20
-1.5544
 30
0.0
 10
-19.112
 20
-4.4601
 30
0.0
 10
-19.112
 20
-4.4601
 30
0.0
  0
SPLINE
  5
A0
330
1F
100
AcDbEntity
  8
Layer 1
 62
   175
100
AcDbSpline
210
0.0
220
0.0
230
1.0
 70
    11
 71
     3
 72
    32
 73
    28
 74
     0
 42
0.000000001
 43
0.0000000001
 40
0.0
 40
0.0
 40
0.0
 40
0.0
 40
0.125
 40
0.125
 40
0.125
 40
0.125
 40
0.25
 40
0.25
 40
0.25
 40
0.25
 40
0.375
 40
0.375
 40
0.375
 40
0.375
 40
0.5
 40
0.5
 40
0.5
 40
0.5
 40
0.625
 40
0.625
 40
0.625
 40
0.625
 40
0.75
 40
0.75
 40
0.75
 40
0.75
 40
1.0
 40
1.0
 40
1.0
 40
1.0
 10
-19.112
 20
-20.3225
 30
0.0
 10
-19.112
 20
-20.3225
 30
0.0
 10
-19.112
 20
-18.8402
 30
0.0
 10
-19.112
 20
-18.8402
 30
0.0
 10
-19.112
 20
-18.8402
 30
0.0
 10
-19.112
 20
-18.8402
 30
0.0
 10
-2.0177
 20
-1.5544
 30
0.0
 10
-2.0177
 20
-1.5544
 30
0.0
 10
-2.0177
 20
-1.5544
 30
0.0
 10
-2.0177
 20
-1.5544
 30
0.0
 10
-19.112
 20
15.7316
 30
0.0
 10
-19.112
 20
15.7316
 30
0.0
 10
-19.112
 20
15.7316
 30
0.0
 10
-19.112
 20
15.7316
 30
0.0
 10
-19.112
 20
17.2137
 30
0.0
 10
-19.112
 20
17.2137
 30
0.0
 10
-19.112
 20
17.2137
 30
0.0
 10
-19.112
 20
17.2137
 30
0.0
 10
-0.5537
 20
-1.5525
 30
0.0
 10
-0.5537
 20
-1.5525
 30
0.0
 10
-0.5537
 20
-1.5525
 30
0.0
 10
-0.5537
 20
-1.5525
 30
0.0
 10
-0.5537
 20
-1.5561
 30
0.0
 10
-0.5537
 20
-1.5561
 30
0.0
 10
-0.5537
 20
-1.5561
 30
0.0
 10
-0.5537
 20
-1.5561
 30
0.0
 10
-19.112
 20
-20.3225
 30
0.0
 10
-19.112
 20
-20.3225
 30
0.0
  0
SPLINE
  5
A1
330
1F
100
AcDbEntity
  8
Layer 1
 62
   175
100
AcDbSpline
210
0.0
220
0.0
230
1.0
 70
    11
 71
     3
 72
    28
 73
    24
 74
     0
 42
0.000000001
 43
0.0000000001
 40
0.0
 40
0.0
 40
0.0
 40
0.0
 40
0.1428571428571428
 40
0.1428571428571428
 40
0.1428571428571428
 40
0.1428571428571428
 40
0.2857142857142857
 40
0.2857142857142857
 40
0.2857142857142857
 40
0.2857142857142857
 40
0.4285714285714285
 40
0.4285714285714285
 40
0.4285714285714285
 40
0.4285714285714285
 40
0.5714285714285714
 40
0.5714285714285714
 40
0.5714285714285714
 40
0.5714285714285714
 40
0.7142857142857143
 40
0.7142857142857143
 40
0.7142857142857143
 40
0.7142857142857143
 40
1.0
 40
1.0
 40
1.0
 40
1.0
 10
-19.112
 20
24.3538
 30
0.0
 10
-19.112
 20
24.3538
 30
0.0
 10
-19.112
 20
25.8723
 30
0.0
 10
-19.112
 20
25.8723
 30
0.0
 10
-19.112
 20
25.8723
 30
0.0
 10
-19.112
 20
25.8723
 30
0.0
 10
-7.2584
 20
37.8587
 30
0.0
 10
-7.2584
 20
37.8587
 30
0.0
 10
-7.2584
 20
37.8587
 30
0.0
 10
-7.2584
 20
37.8587
 30
0.0
 10
-10.3098
 20
40.9443
 30
0.0
 10
-10.3098
 20
40.9443
 30
0.0
 10
-10.3098
 20
40.9443
 30
0.0
 10
-10.3098
 20
40.9443
 30
0.0
 10
-8.8082
 20
40.9443
 30
0.0
 10
-8.8082
 20
40.9443
 30
0.0
 10
-8.8082
 20
40.9443
 30
0.0
 10
-8.8082
 20
40.9443
 30
0.0
 10
-5.7568
 20
37.8587
 30
0.0
 10
-5.7568
 20
37.8587
 30
0.0
 10
-5.7568
 20
37.8587
 30
0.0
 10
-5.7568
 20
37.8587
 30
0.0
 10
-19.112
 20
24.3538
 30
0.0
 10
-19.112
 20
24.3538
 30
0.0
  0
SPLINE
  5
A2
330
1F
100
AcDbEntity
  8
Layer 1
 62
   175
100
AcDbSpline
210
0.0
220
0.0
230
1.0
 70
    11
 71
     3
 72
    28
 73
    24
 74
     0
 42
0.000000001
 43
0.0000000001
 40
0.0
 40
0.0
 40
0.0
 40
0.0
 40
0.1428571428571428
 40
0.1428571428571428
 40
0.1428571428571428
 40
0.1428571428571428
 40
0.2857142857142857
 40
0.2857142857142857
 40
0.2857142857142857
 40
0.2857142857142857
 40
0.4285714285714285
 40
0.4285714285714285
 40
0.4285714285714285
 40
0.4285714285714285
 40
0.5714285714285714
 40
0.5714285714285714
 40
0.5714285714285714
 40
0.5714285714285714
 40
0.7142857142857143
 40
0.7142857142857143
 40
0.7142857142857143
 40
0.7142857142857143
 40
1.0
 40
1.0
 40
1.0
 40
1.0
 10
-19.112
 20
27.0036
 30
0.0
 10
-19.112
 20
27.0036
 30
0.0
 10
-19.112
 20
28.522
 30
0.0
 10
-19.112
 20
28.522
 30
0.0
 10
-19.112
 20
28.522
 30
0.0
 10
-19.112
 20
28.522
 30
0.0
 10
-9.8788
 20
37.8587
 30
0.0
 10
-9.8788
 20
37.8587
 30
0.0
 10
-9.8788
 20
37.8587
 30
0.0
 10
-9.8788
 20
37.8587
 30
0.0
 10
-12.9303
 20
40.9443
 30
0.0
 10
-12.9303
 20
40.9443
 30
0.0
 10
-12.9303
 20
40.9443
 30
0.0
 10
-12.9303
 20
40.9443
 30
0.0
 10
-11.4285
 20
40.9443
 30
0.0
 10
-11.4285
 20
40.9443
 30
0.0
 10
-11.4285
 20
40.9443
 30
0.0
 10
-11.4285
 20
40.9443
 30
0.0
 10
-8.3771
 20
37.8587
 30
0.0
 10
-8.3771
 20
37.8587
 30
0.0
 10
-8.3771
 20
37.8587
 30
0.0
 10
-8.3771
 20
37.8587
 30
0.0
 10
-19.112
 20
27.0036
 30
0.0
 10
-19.112
 20
27.0036
 30
0.0
  0
SPLINE
  5
A3
330
1F
100
AcDbEntity
  8
Layer 1
 62
   175
100
AcDbSpline
210
0.0
220
0.0
230
1.0
 70
    11
 71
     3
 72
    32
 73
    28
 74
     0
 42
0.000000001
 43
0.0000000001
 40
0.0
 40
0.0
 40
0.0
 40
0.0
 40
0.125
 40
0.125
 40
0.125
 40
0.125
 40
0.25
 40
0.25
 40
0.25
 40
0.25
 40
0.375
 40
0.375
 40
0.375
 40
0.375
 40
0.5
 40
0.5
 40
0.5
 40
0.5
 40
0.625
 40
0.625
 40
0.625
 40
0.625
 40
0.75
 40
0.75
 40
0.75
 40
0.75
 40
1.0
 40
1.0
 40
1.0
 40
1.0
 10
-19.112
 20
29.6535
 30
0.0
 10
-19.112
 20
29.6535
 30
0.0
 10
-19.112
 20
31.1719
 30
0.0
 10
-19.112
 20
31.1719
 30
0.0
 10
-19.112
 20
31.1719
 30
0.0
 10
-19.112
 20
31.1719
 30
0.0
 10
-12.4992
 20
37.8587
 30
0.0
 10
-12.4992
 20
37.8587
 30
0.0
 10
-12.4992
 20
37.8587
 30
0.0
 10
-12.4992
 20
37.8587
 30
0.0
 10
-12.4992
 20
37.8587
 30
0.0
 10
-12.4992
 20
37.8587
 30
0.0
 10
-12.4992
 20
37.8587
 30
0.0
 10
-12.4992
 20
37.8587
 30
0.0
 10
-15.5507
 20
40.9443
 30
0.0
 10
-15.5507
 20
40.9443
 30
0.0
 10
-15.5507
 20
40.9443
 30
0.0
 10
-15.5507
 20
40.9443
 30
0.0
 10
-14.0491
 20
40.9443
 30
0.0
 10
-14.0491
 20
40.9443
 30
0.0
 10
-14.0491
 20
40.9443
 30
0.0
 10
-14.0491
 20
40.9443
 30
0.0
 10
-10.9976
 20
37.8587
 30
0.0
 10
-10.9976
 20
37.8587
 30
0.0
 10
-10.9976
 20
37.8587
 30
0.0
 10
-10.9976
 20
37.8587
 30
0.0
 10
-19.112
 20
29.6535
 30
0.0
 10
-19.112
 20
29.6535
 30
0.0
  0
SPLINE
  5
A4
330
1F
100
AcDbEntity
  8
Layer 1
 62
   175
100
AcDbSpline
210
0.0
220
0.0
230
1.0
 70
    11
 71
     3
 72
    16
 73
    12
 74
     0
 42
0.000000001
 43
0.0000000001
 40
0.0
 40
0.0
 40
0.0
 40
0.0
 40
0.25
 40
0.25
 40
0.25
 40
0.25
 40
0.5
 40
0.5
 40
0.5
 40
0.5
 40
1.0
 40
1.0
 40
1.0
 40
1.0
 10
-19.112
 20
37.6028
 30
0.0
 10
-19.112
 20
37.6028
 30
0.0
 10
-19.112
 20
38.1147
 30
0.0
 10
-19.112
 20
38.1147
 30
0.0
 10
-19.112
 20
38.1147
 30
0.0
 10
-19.112
 20
38.1147
 30
0.0
 10
-18.8589
 20
37.8587
 30
0.0
 10
-18.8589
 20
37.8587
 30
0.0
 10
-18.8589
 20
37.8587
 30
0.0
 10
-18.8589
 20
37.8587
 30
0.0
 10
-19.112
 20
37.6028
 30
0.0
 10
-19.112
 20
37.6028
 30
0.0
  0
SPLINE
  5
A5
330
1F
100
AcDbEntity
  8
Layer 1
 62
   175
100
AcDbSpline
210
0.0
220
0.0
230
1.0
 70
    11
 71
     3
 72
    28
 73
    24
 74
     0
 42
0.000000001
 43
0.0000000001
 40
0.0
 40
0.0
 40
0.0
 40
0.0
 40
0.1428571428571428
 40
0.1428571428571428
 40
0.1428571428571428
 40
0.1428571428571428
 40
0.2857142857142857
 40
0.2857142857142857
 40
0.2857142857142857
 40
0.2857142857142857
 40
0.4285714285714285
 40
0.4285714285714285
 40
0.4285714285714285
 40
0.4285714285714285
 40
0.5714285714285714
 40
0.5714285714285714
 40
0.5714285714285714
 40
0.5714285714285714
 40
0.7142857142857143
 40
0.7142857142857143
 40
0.7142857142857143
 40
0.7142857142857143
 40
1.0
 40
1.0
 40
1.0
 40
1.0
 10
-19.112
 20
21.704
 30
0.0
 10
-19.112
 20
21.704
 30
0.0
 10
-19.112
 20
23.2225
 30
0.0
 10
-19.112
 20
23.2225
 30
0.0
 10
-19.112
 20
23.2225
 30
0.0
 10
-19.112
 20
23.2225
 30
0.0
 10
-4.638
 20
37.8587
 30
0.0
 10
-4.638
 20
37.8587
 30
0.0
 10
-4.638
 20
37.8587
 30
0.0
 10
-4.638
 20
37.8587
 30
0.0
 10
-7.6895
 20
40.9443
 30
0.0
 10
-7.6895
 20
40.9443
 30
0.0
 10
-7.6895
 20
40.9443
 30
0.0
 10
-7.6895
 20
40.9443
 30
0.0
 10
-6.1878
 20
40.9443
 30
0.0
 10
-6.1878
 20
40.9443
 30
0.0
 10
-6.1878
 20
40.9443
 30
0.0
 10
-6.1878
 20
40.9443
 30
0.0
 10
-3.1362
 20
37.8587
 30
0.0
 10
-3.1362
 20
37.8587
 30
0.0
 10
-3.1362
 20
37.8587
 30
0.0
 10
-3.1362
 20
37.8587
 30
0.0
 10
-19.112
 20
21.704
 30
0.0
 10
-19.112
 20
21.704
 30
0.0
  0
SPLINE
  5
A6
330
1F
100
AcDbEntity
  8
Layer 1
 62
   175
100
AcDbSpline
210
0.0
220
0.0
230
1.0
 70
    11
 71
     3
 72
    36
 73
    32
 74
     0
 42
0.000000001
 43
0.0000000001
 40
0.0
 40
0.0
 40
0.0
 40
0.0
 40
0.1111111111111111
 40
0.1111111111111111
 40
0.1111111111111111
 40
0.1111111111111111
 40
0.2222222222222222
 40
0.2222222222222222
 40
0.2222222222222222
 40
0.2222222222222222
 40
0.3333333333333333
 40
0.3333333333333333
 40
0.3333333333333333
 40
0.3333333333333333
 40
0.4444444444444444
 40
0.4444444444444444
 40
0.4444444444444444
 40
0.4444444444444444
 40
0.5555555555555556
 40
0.5555555555555556
 40
0.5555555555555556
 40
0.5555555555555556
 40
0.6666666666666666
 40
0.6666666666666666
 40
0.6666666666666666
 40
0.6666666666666666
 40
0.7777777777777778
 40
0.7777777777777778
 40
0.7777777777777778
 40
0.7777777777777778
 40
1.0
 40
1.0
 40
1.0
 40
1.0
 10
-19.112
 20
32.3031
 30
0.0
 10
-19.112
 20
32.3031
 30
0.0
 10
-19.112
 20
33.8216
 30
0.0
 10
-19.112
 20
33.8216
 30
0.0
 10
-19.112
 20
33.8216
 30
0.0
 10
-19.112
 20
33.8216
 30
0.0
 10
-15.1197
 20
37.8587
 30
0.0
 10
-15.1197
 20
37.8587
 30
0.0
 10
-15.1197
 20
37.8587
 30
0.0
 10
-15.1197
 20
37.8587
 30
0.0
 10
-18.1712
 20
40.9443
 30
0.0
 10
-18.1712
 20
40.9443
 30
0.0
 10
-18.1712
 20
40.9443
 30
0.0
 10
-18.1712
 20
40.9443
 30
0.0
 10
-16.6694
 20
40.9443
 30
0.0
 10
-16.6694
 20
40.9443
 30
0.0
 10
-16.6694
 20
40.9443
 30
0.0
 10
-16.6694
 20
40.9443
 30
0.0
 10
-13.618
 20
37.8587
 30
0.0
 10
-13.618
 20
37.8587
 30
0.0
 10
-13.618
 20
37.8587
 30
0.0
 10
-13.618
 20
37.8587
 30
0.0
 10
-13.618
 20
37.8587
 30
0.0
 10
-13.618
 20
37.8587
 30
0.0
 10
-13.618
 20
37.8587
 30
0.0
 10
-13.618
 20
37.8587
 30
0.0
 10
-13.618
 20
37.8587
 30
0.0
 10
-13.618
 20
37.8587
 30
0.0
 10
-13.618
 20
37.8587
 30
0.0
 10
-13.618
 20
37.8587
 30
0.0
 10
-19.112
 20
32.3031
 30
0.0
 10
-19.112
 20
32.3031
 30
0.0
  0
SPLINE
  5
A7
330
1F
100
AcDbEntity
  8
Layer 1
 62
   175
100
AcDbSpline
210
0.0
220
0.0
230
1.0
 70
    11
 71
     3
 72
    28
 73
    24
 74
     0
 42
0.000000001
 43
0.0000000001
 40
0.0
 40
0.0
 40
0.0
 40
0.0
 40
0.1428571428571428
 40
0.1428571428571428
 40
0.1428571428571428
 40
0.1428571428571428
 40
0.2857142857142857
 40
0.2857142857142857
 40
0.2857142857142857
 40
0.2857142857142857
 40
0.4285714285714285
 40
0.4285714285714285
 40
0.4285714285714285
 40
0.4285714285714285
 40
0.5714285714285714
 40
0.5714285714285714
 40
0.5714285714285714
 40
0.5714285714285714
 40
0.7142857142857143
 40
0.7142857142857143
 40
0.7142857142857143
 40
0.7142857142857143
 40
1.0
 40
1.0
 40
1.0
 40
1.0
 10
-19.112
 20
34.9529
 30
0.0
 10
-19.112
 20
34.9529
 30
0.0
 10
-19.112
 20
36.4715
 30
0.0
 10
-19.112
 20
36.4715
 30
0.0
 10
-19.112
 20
36.4715
 30
0.0
 10
-19.112
 20
36.4715
 30
0.0
 10
-17.7402
 20
37.8587
 30
0.0
 10
-17.7402
 20
37.8587
 30
0.0
 10
-17.7402
 20
37.8587
 30
0.0
 10
-17.7402
 20
37.8587
 30
0.0
 10
-19.112
 20
39.246
 30
0.0
 10
-19.112
 20
39.246
 30
0.0
 10
-19.112
 20
39.246
 30
0.0
 10
-19.112
 20
39.246
 30
0.0
 10
-19.112
 20
40.7645
 30
0.0
 10
-19.112
 20
40.7645
 30
0.0
 10
-19.112
 20
40.7645
 30
0.0
 10
-19.112
 20
40.7645
 30
0.0
 10
-16.2384
 20
37.8587
 30
0.0
 10
-16.2384
 20
37.8587
 30
0.0
 10
-16.2384
 20
37.8587
 30
0.0
 10
-16.2384
 20
37.8587
 30
0.0
 10
-19.112
 20
34.9529
 30
0.0
 10
-19.112
 20
34.9529
 30
0.0
  0
SPLINE
  5
A8
330
1F
100
AcDbEntity
  8
Layer 1
 62
   175
100
AcDbSpline
210
0.0
220
0.0
230
1.0
 70
    11
 71
     3
 72
    32
 73
    28
 74
     0
 42
0.000000001
 43
0.0000000001
 40
0.0
 40
0.0
 40
0.0
 40
0.0
 40
0.125
 40
0.125
 40
0.125
 40
0.125
 40
0.25
 40
0.25
 40
0.25
 40
0.25
 40
0.375
 40
0.375
 40
0.375
 40
0.375
 40
0.5
 40
0.5
 40
0.5
 40
0.5
 40
0.625
 40
0.625
 40
0.625
 40
0.625
 40
0.75
 40
0.75
 40
0.75
 40
0.75
 40
1.0
 40
1.0
 40
1.0
 40
1.0
 10
-19.112
 20
19.0907
 30
0.0
 10
-19.112
 20
19.0907
 30
0.0
 10
-19.112
 20
20.5727
 30
0.0
 10
-19.112
 20
20.5727
 30
0.0
 10
-19.112
 20
20.5727
 30
0.0
 10
-19.112
 20
20.5727
 30
0.0
 10
-2.0177
 20
37.8587
 30
0.0
 10
-2.0177
 20
37.8587
 30
0.0
 10
-2.0177
 20
37.8587
 30
0.0
 10
-2.0177
 20
37.8587
 30
0.0
 10
-5.0689
 20
40.9443
 30
0.0
 10
-5.0689
 20
40.9443
 30
0.0
 10
-5.0689
 20
40.9443
 30
0.0
 10
-5.0689
 20
40.9443
 30
0.0
 10
-3.6033
 20
40.9443
 30
0.0
 10
-3.6033
 20
40.9443
 30
0.0
 10
-3.6033
 20
40.9443
 30
0.0
 10
-3.6033
 20
40.9443
 30
0.0
 10
-0.5537
 20
37.8604
 30
0.0
 10
-0.5537
 20
37.8604
 30
0.0
 10
-0.5537
 20
37.8604
 30
0.0
 10
-0.5537
 20
37.8604
 30
0.0
 10
-0.5537
 20
37.8569
 30
0.0
 10
-0.5537
 20
37.8569
 30
0.0
 10
-0.5537
 20
37.8569
 30
0.0
 10
-0.5537
 20
37.8569
 30
0.0
 10
-19.112
 20
19.0907
 30
0.0
 10
-19.112
 20
19.0907
 30
0.0
  0
SPLINE
  5
A9
330
1F
100
AcDbEntity
  8
Layer 1
 62
   175
100
AcDbSpline
210
0.0
220
0.0
230
1.0
 70
    11
 71
     3
 72
    20
 73
    16
 74
     0
 42
0.000000001
 43
0.0000000001
 40
0.0
 40
0.0
 40
0.0
 40
0.0
 40
0.2
 40
0.2
 40
0.2
 40
0.2
 40
0.4
 40
0.4
 40
0.4
 40
0.4
 40
0.6
 40
0.6
 40
0.6
 40
0.6
 40
1.0
 40
1.0
 40
1.0
 40
1.0
 10
19.1119
 20
-26.6752
 30
0.0
 10
19.1119
 20
-26.6752
 30
0.0
 10
19.1119
 20
-28.1938
 30
0.0
 10
19.1119
 20
-28.1938
 30
0.0
 10
19.1119
 20
-28.1938
 30
0.0
 10
19.1119
 20
-28.1938
 30
0.0
 10
16.1304
 20
-25.1788
 30
0.0
 10
16.1304
 20
-25.1788
 30
0.0
 10
16.1304
 20
-25.1788
 30
0.0
 10
16.1304
 20
-25.1788
 30
0.0
 10
16.8814
 20
-24.4195
 30
0.0
 10
16.8814
 20
-24.4195
 30
0.0
 10
16.8814
 20
-24.4195
 30
0.0
 10
16.8814
 20
-24.4195
 30
0.0
 10
19.1119
 20
-26.6752
 30
0.0
 10
19.1119
 20
-26.6752
 30
0.0
  0
SPLINE
  5
AA
330
1F
100
AcDbEntity
  8
Layer 1
 62
   175
100
AcDbSpline
210
0.0
220
0.0
230
1.0
 70
    11
 71
     3
 72
    20
 73
    16
 74
     0
 42
0.000000001
 43
0.0000000001
 40
0.0
 40
0.0
 40
0.0
 40
0.0
 40
0.2
 40
0.2
 40
0.2
 40
0.2
 40
0.4
 40
0.4
 40
0.4
 40
0.4
 40
0.6
 40
0.6
 40
0.6
 40
0.6
 40
1.0
 40
1.0
 40
1.0
 40
1.0
 10
19.1119
 20
-29.325
 30
0.0
 10
19.1119
 20
-29.325
 30
0.0
 10
19.1119
 20
-30.8435
 30
0.0
 10
19.1119
 20
-30.8435
 30
0.0
 10
19.1119
 20
-30.8435
 30
0.0
 10
19.1119
 20
-30.8435
 30
0.0
 10
14.8203
 20
-26.5037
 30
0.0
 10
14.8203
 20
-26.5037
 30
0.0
 10
14.8203
 20
-26.5037
 30
0.0
 10
14.8203
 20
-26.5037
 30
0.0
 10
15.571
 20
-25.7444
 30
0.0
 10
15.571
 20
-25.7444
 30
0.0
 10
15.571
 20
-25.7444
 30
0.0
 10
15.571
 20
-25.7444
 30
0.0
 10
19.1119
 20
-29.325
 30
0.0
 10
19.1119
 20
-29.325
 30
0.0
  0
SPLINE
  5
AB
330
1F
100
AcDbEntity
  8
Layer 1
 62
   175
100
AcDbSpline
210
0.0
220
0.0
230
1.0
 70
    11
 71
     3
 72
    20
 73
    16
 74
     0
 42
0.000000001
 43
0.0000000001
 40
0.0
 40
0.0
 40
0.0
 40
0.0
 40
0.2
 40
0.2
 40
0.2
 40
0.2
 40
0.4
 40
0.4
 40
0.4
 40
0.4
 40
0.6
 40
0.6
 40
0.6
 40
0.6
 40
1.0
 40
1.0
 40
1.0
 40
1.0
 10
19.1119
 20
-31.9749
 30
0.0
 10
19.1119
 20
-31.9749
 30
0.0
 10
19.1119
 20
-33.4934
 30
0.0
 10
19.1119
 20
-33.4934
 30
0.0
 10
19.1119
 20
-33.4934
 30
0.0
 10
19.1119
 20
-33.4934
 30
0.0
 10
13.5101
 20
-27.8286
 30
0.0
 10
13.5101
 20
-27.8286
 30
0.0
 10
13.5101
 20
-27.8286
 30
0.0
 10
13.5101
 20
-27.8286
 30
0.0
 10
14.2609
 20
-27.0693
 30
0.0
 10
14.2609
 20
-27.0693
 30
0.0
 10
14.2609
 20
-27.0693
 30
0.0
 10
14.2609
 20
-27.0693
 30
0.0
 10
19.1119
 20
-31.9749
 30
0.0
 10
19.1119
 20
-31.9749
 30
0.0
  0
SPLINE
  5
AC
330
1F
100
AcDbEntity
  8
Layer 1
 62
   175
100
AcDbSpline
210
0.0
220
0.0
230
1.0
 70
    11
 71
     3
 72
    24
 73
    20
 74
     0
 42
0.000000001
 43
0.0000000001
 40
0.0
 40
0.0
 40
0.0
 40
0.0
 40
0.1666666666666667
 40
0.1666666666666667
 40
0.1666666666666667
 40
0.1666666666666667
 40
0.3333333333333333
 40
0.3333333333333333
 40
0.3333333333333333
 40
0.3333333333333333
 40
0.5
 40
0.5
 40
0.5
 40
0.5
 40
0.6666666666666666
 40
0.6666666666666666
 40
0.6666666666666666
 40
0.6666666666666666
 40
1.0
 40
1.0
 40
1.0
 40
1.0
 10
19.112
 20
-39.9242
 30
0.0
 10
19.112
 20
-39.9242
 30
0.0
 10
19.112
 20
-40.9442
 30
0.0
 10
19.112
 20
-40.9442
 30
0.0
 10
19.112
 20
-40.9442
 30
0.0
 10
19.112
 20
-40.9442
 30
0.0
 10
18.5887
 20
-40.9442
 30
0.0
 10
18.5887
 20
-40.9442
 30
0.0
 10
18.5887
 20
-40.9442
 30
0.0
 10
18.5887
 20
-40.9442
 30
0.0
 10
9.5794
 20
-31.8032
 30
0.0
 10
9.5794
 20
-31.8032
 30
0.0
 10
9.5794
 20
-31.8032
 30
0.0
 10
9.5794
 20
-31.8032
 30
0.0
 10
10.3303
 20
-31.044
 30
0.0
 10
10.3303
 20
-31.044
 30
0.0
 10
10.3303
 20
-31.044
 30
0.0
 10
10.3303
 20
-31.044
 30
0.0
 10
19.112
 20
-39.9242
 30
0.0
 10
19.112
 20
-39.9242
 30
0.0
  0
SPLINE
  5
AD
330
1F
100
AcDbEntity
  8
Layer 1
 62
   175
100
AcDbSpline
210
0.0
220
0.0
230
1.0
 70
    11
 71
     3
 72
    44
 73
    40
 74
     0
 42
0.000000001
 43
0.0000000001
 40
0.0
 40
0.0
 40
0.0
 40
0.0
 40
0.0909090909090909
 40
0.0909090909090909
 40
0.0909090909090909
 40
0.0909090909090909
 40
0.1818181818181818
 40
0.1818181818181818
 40
0.1818181818181818
 40
0.1818181818181818
 40
0.2727272727272727
 40
0.2727272727272727
 40
0.2727272727272727
 40
0.2727272727272727
 40
0.3636363636363636
 40
0.3636363636363636
 40
0.3636363636363636
 40
0.3636363636363636
 40
0.4545454545454545
 40
0.4545454545454545
 40
0.4545454545454545
 40
0.4545454545454545
 40
0.5454545454545454
 40
0.5454545454545454
 40
0.5454545454545454
 40
0.5454545454545454
 40
0.6363636363636364
 40
0.6363636363636364
 40
0.6363636363636364
 40
0.6363636363636364
 40
0.7272727272727273
 40
0.7272727272727273
 40
0.7272727272727273
 40
0.7272727272727273
 40
0.8181818181818182
 40
0.8181818181818182
 40
0.8181818181818182
 40
0.8181818181818182
 40
1.0
 40
1.0
 40
1.0
 40
1.0
 10
9.6239
 20
-40.9306
 30
0.0
 10
9.6239
 20
-40.9306
 30
0.0
 10
9.6221
 20
-40.9306
 30
0.0
 10
9.6221
 20
-40.9306
 30
0.0
 10
9.6221
 20
-40.9306
 30
0.0
 10
9.6221
 20
-40.9306
 30
0.0
 10
9.6087
 20
-40.9442
 30
0.0
 10
9.6087
 20
-40.9442
 30
0.0
 10
9.6087
 20
-40.9442
 30
0.0
 10
9.6087
 20
-40.9442
 30
0.0
 10
8.1071
 20
-40.9442
 30
0.0
 10
8.1071
 20
-40.9442
 30
0.0
 10
8.1071
 20
-40.9442
 30
0.0
 10
8.1071
 20
-40.9442
 30
0.0
 10
8.1213
 20
-40.9298
 30
0.0
 10
8.1213
 20
-40.9298
 30
0.0
 10
8.1213
 20
-40.9298
 30
0.0
 10
8.1213
 20
-40.9298
 30
0.0
 10
4.3386
 20
-37.1028
 30
0.0
 10
4.3386
 20
-37.1028
 30
0.0
 10
4.3386
 20
-37.1028
 30
0.0
 10
4.3386
 20
-37.1028
 30
0.0
 10
5.0894
 20
-36.3436
 30
0.0
 10
5.0894
 20
-36.3436
 30
0.0
 10
5.0894
 20
-36.3436
 30
0.0
 10
5.0894
 20
-36.3436
 30
0.0
 10
9.6221
 20
-40.9289
 30
0.0
 10
9.6221
 20
-40.9289
 30
0.0
 10
9.6221
 20
-40.9289
 30
0.0
 10
9.6221
 20
-40.9289
 30
0.0
 10
9.6239
 20
-40.9289
 30
0.0
 10
9.6239
 20
-40.9289
 30
0.0
 10
9.6239
 20
-40.9289
 30
0.0
 10
9.6239
 20
-40.9289
 30
0.0
 10
9.6231
 20
-40.9298
 30
0.0
 10
9.6231
 20
-40.9298
 30
0.0
 10
9.6231
 20
-40.9298
 30
0.0
 10
9.6231
 20
-40.9298
 30
0.0
 10
9.6239
 20
-40.9306
 30
0.0
 10
9.6239
 20
-40.9306
 30
0.0
  0
SPLINE
  5
AE
330
1F
100
AcDbEntity
  8
Layer 1
 62
   175
100
AcDbSpline
210
0.0
220
0.0
230
1.0
 70
    11
 71
     3
 72
    20
 73
    16
 74
     0
 42
0.000000001
 43
0.0000000001
 40
0.0
 40
0.0
 40
0.0
 40
0.0
 40
0.2
 40
0.2
 40
0.2
 40
0.2
 40
0.4
 40
0.4
 40
0.4
 40
0.4
 40
0.6
 40
0.6
 40
0.6
 40
0.6
 40
1.0
 40
1.0
 40
1.0
 40
1.0
 10
19.1119
 20
-24.0254
 30
0.0
 10
19.1119
 20
-24.0254
 30
0.0
 10
19.1119
 20
-25.544
 30
0.0
 10
19.1119
 20
-25.544
 30
0.0
 10
19.1119
 20
-25.544
 30
0.0
 10
19.1119
 20
-25.544
 30
0.0
 10
17.4406
 20
-23.8539
 30
0.0
 10
17.4406
 20
-23.8539
 30
0.0
 10
17.4406
 20
-23.8539
 30
0.0
 10
17.4406
 20
-23.8539
 30
0.0
 10
18.1915
 20
-23.0947
 30
0.0
 10
18.1915
 20
-23.0947
 30
0.0
 10
18.1915
 20
-23.0947
 30
0.0
 10
18.1915
 20
-23.0947
 30
0.0
 10
19.1119
 20
-24.0254
 30
0.0
 10
19.1119
 20
-24.0254
 30
0.0
  0
SPLINE
  5
AF
330
1F
100
AcDbEntity
  8
Layer 1
 62
   175
100
AcDbSpline
210
0.0
220
0.0
230
1.0
 70
    11
 71
     3
 72
    20
 73
    16
 74
     0
 42
0.000000001
 43
0.0000000001
 40
0.0
 40
0.0
 40
0.0
 40
0.0
 40
0.2
 40
0.2
 40
0.2
 40
0.2
 40
0.4
 40
0.4
 40
0.4
 40
0.4
 40
0.6
 40
0.6
 40
0.6
 40
0.6
 40
1.0
 40
1.0
 40
1.0
 40
1.0
 10
19.1119
 20
-34.6246
 30
0.0
 10
19.1119
 20
-34.6246
 30
0.0
 10
19.1119
 20
-36.1431
 30
0.0
 10
19.1119
 20
-36.1431
 30
0.0
 10
19.1119
 20
-36.1431
 30
0.0
 10
19.1119
 20
-36.1431
 30
0.0
 10
12.1998
 20
-29.1535
 30
0.0
 10
12.1998
 20
-29.1535
 30
0.0
 10
12.1998
 20
-29.1535
 30
0.0
 10
12.1998
 20
-29.1535
 30
0.0
 10
12.9507
 20
-28.3942
 30
0.0
 10
12.9507
 20
-28.3942
 30
0.0
 10
12.9507
 20
-28.3942
 30
0.0
 10
12.9507
 20
-28.3942
 30
0.0
 10
19.1119
 20
-34.6246
 30
0.0
 10
19.1119
 20
-34.6246
 30
0.0
  0
SPLINE
  5
B0
330
1F
100
AcDbEntity
  8
Layer 1
 62
   175
100
AcDbSpline
210
0.0
220
0.0
230
1.0
 70
    11
 71
     3
 72
    20
 73
    16
 74
     0
 42
0.000000001
 43
0.0000000001
 40
0.0
 40
0.0
 40
0.0
 40
0.0
 40
0.2
 40
0.2
 40
0.2
 40
0.2
 40
0.4
 40
0.4
 40
0.4
 40
0.4
 40
0.6
 40
0.6
 40
0.6
 40
0.6
 40
1.0
 40
1.0
 40
1.0
 40
1.0
 10
19.1119
 20
-37.2744
 30
0.0
 10
19.1119
 20
-37.2744
 30
0.0
 10
19.1119
 20
-38.7929
 30
0.0
 10
19.1119
 20
-38.7929
 30
0.0
 10
19.1119
 20
-38.7929
 30
0.0
 10
19.1119
 20
-38.7929
 30
0.0
 10
10.8896
 20
-30.4784
 30
0.0
 10
10.8896
 20
-30.4784
 30
0.0
 10
10.8896
 20
-30.4784
 30
0.0
 10
10.8896
 20
-30.4784
 30
0.0
 10
11.6404
 20
-29.7192
 30
0.0
 10
11.6404
 20
-29.7192
 30
0.0
 10
11.6404
 20
-29.7192
 30
0.0
 10
11.6404
 20
-29.7192
 30
0.0
 10
19.1119
 20
-37.2744
 30
0.0
 10
19.1119
 20
-37.2744
 30
0.0
  0
SPLINE
  5
B1
330
1F
100
AcDbEntity
  8
Layer 1
 62
   175
100
AcDbSpline
210
0.0
220
0.0
230
1.0
 70
    11
 71
     3
 72
    20
 73
    16
 74
     0
 42
0.000000001
 43
0.0000000001
 40
0.0
 40
0.0
 40
0.0
 40
0.0
 40
0.2
 40
0.2
 40
0.2
 40
0.2
 40
0.4
 40
0.4
 40
0.4
 40
0.4
 40
0.6
 40
0.6
 40
0.6
 40
0.6
 40
1.0
 40
1.0
 40
1.0
 40
1.0
 10
15.9684
 20
-40.9442
 30
0.0
 10
19.5251
 20
-40.9442
 30
0.0
 10
-1.6424
 20
-40.9442
 30
0.0
 10
17.47
 20
-40.9442
 30
0.0
 10
17.47
 20
-40.9442
 30
0.0
 10
17.47
 20
-40.9442
 30
0.0
 10
9.02
 20
-32.3688
 30
0.0
 10
9.02
 20
-32.3688
 30
0.0
 10
9.02
 20
-32.3688
 30
0.0
 10
9.02
 20
-32.3688
 30
0.0
 10
8.2692
 20
-33.1281
 30
0.0
 10
8.2692
 20
-33.1281
 30
0.0
 10
8.2692
 20
-33.1281
 30
0.0
 10
8.2692
 20
-33.1281
 30
0.0
 10
15.9684
 20
-40.9442
 30
0.0
 10
15.9684
 20
-40.9442
 30
0.0
  0
SPLINE
  5
B2
330
1F
100
AcDbEntity
  8
Layer 1
 62
   175
100
AcDbSpline
210
0.0
220
0.0
230
1.0
 70
    11
 71
     3
 72
    28
 73
    24
 74
     0
 42
0.000000001
 43
0.0000000001
 40
0.0
 40
0.0
 40
0.0
 40
0.0
 40
0.1428571428571428
 40
0.1428571428571428
 40
0.1428571428571428
 40
0.1428571428571428
 40
0.2857142857142857
 40
0.2857142857142857
 40
0.2857142857142857
 40
0.2857142857142857
 40
0.4285714285714285
 40
0.4285714285714285
 40
0.4285714285714285
 40
0.4285714285714285
 40
0.5714285714285714
 40
0.5714285714285714
 40
0.5714285714285714
 40
0.5714285714285714
 40
0.7142857142857143
 40
0.7142857142857143
 40
0.7142857142857143
 40
0.7142857142857143
 40
1.0
 40
1.0
 40
1.0
 40
1.0
 10
13.3631
 20
-40.9289
 30
0.0
 10
13.3631
 20
-40.9289
 30
0.0
 10
13.348
 20
-40.9442
 30
0.0
 10
13.348
 20
-40.9442
 30
0.0
 10
13.348
 20
-40.9442
 30
0.0
 10
13.348
 20
-40.9442
 30
0.0
 10
14.8496
 20
-40.9442
 30
0.0
 10
14.8496
 20
-40.9442
 30
0.0
 10
14.8496
 20
-40.9442
 30
0.0
 10
14.8496
 20
-40.9442
 30
0.0
 10
14.8648
 20
-40.9289
 30
0.0
 10
14.8648
 20
-40.9289
 30
0.0
 10
14.8648
 20
-40.9289
 30
0.0
 10
14.8648
 20
-40.9289
 30
0.0
 10
7.7098
 20
-33.6937
 30
0.0
 10
7.7098
 20
-33.6937
 30
0.0
 10
7.7098
 20
-33.6937
 30
0.0
 10
7.7098
 20
-33.6937
 30
0.0
 10
6.959
 20
-34.453
 30
0.0
 10
6.959
 20
-34.453
 30
0.0
 10
6.959
 20
-34.453
 30
0.0
 10
6.959
 20
-34.453
 30
0.0
 10
13.3631
 20
-40.9289
 30
0.0
 10
13.3631
 20
-40.9289
 30
0.0
  0
SPLINE
  5
B3
330
1F
100
AcDbEntity
  8
Layer 1
 62
   175
100
AcDbSpline
210
0.0
220
0.0
230
1.0
 70
    11
 71
     3
 72
    28
 73
    24
 74
     0
 42
0.000000001
 43
0.0000000001
 40
0.0
 40
0.0
 40
0.0
 40
0.0
 40
0.1428571428571428
 40
0.1428571428571428
 40
0.1428571428571428
 40
0.1428571428571428
 40
0.2857142857142857
 40
0.2857142857142857
 40
0.2857142857142857
 40
0.2857142857142857
 40
0.4285714285714285
 40
0.4285714285714285
 40
0.4285714285714285
 40
0.4285714285714285
 40
0.5714285714285714
 40
0.5714285714285714
 40
0.5714285714285714
 40
0.5714285714285714
 40
0.7142857142857143
 40
0.7142857142857143
 40
0.7142857142857143
 40
0.7142857142857143
 40
1.0
 40
1.0
 40
1.0
 40
1.0
 10
10.7426
 20
-40.9289
 30
0.0
 10
10.7426
 20
-40.9289
 30
0.0
 10
10.7275
 20
-40.9442
 30
0.0
 10
10.7275
 20
-40.9442
 30
0.0
 10
10.7275
 20
-40.9442
 30
0.0
 10
11.2843
 20
-40.9442
 30
0.0
 10
11.6924
 20
-40.9442
 30
0.0
 10
12.2291
 20
-40.9442
 30
0.0
 10
12.2291
 20
-40.9442
 30
0.0
 10
12.2291
 20
-40.9442
 30
0.0
 10
12.2442
 20
-40.9289
 30
0.0
 10
12.2442
 20
-40.9289
 30
0.0
 10
12.2442
 20
-40.9289
 30
0.0
 10
12.2442
 20
-40.9289
 30
0.0
 10
6.3996
 20
-35.0188
 30
0.0
 10
6.3996
 20
-35.0188
 30
0.0
 10
6.3996
 20
-35.0188
 30
0.0
 10
6.3996
 20
-35.0188
 30
0.0
 10
5.6487
 20
-35.778
 30
0.0
 10
5.6487
 20
-35.778
 30
0.0
 10
5.6487
 20
-35.778
 30
0.0
 10
5.6487
 20
-35.778
 30
0.0
 10
10.7426
 20
-40.9289
 30
0.0
 10
10.7426
 20
-40.9289
 30
0.0
  0
SPLINE
  5
B4
330
1F
100
AcDbEntity
  8
Layer 1
 62
   175
100
AcDbSpline
210
0.0
220
0.0
230
1.0
 70
    11
 71
     3
 72
    28
 73
    24
 74
     0
 42
0.000000001
 43
0.0000000001
 40
0.0
 40
0.0
 40
0.0
 40
0.0
 40
0.1428571428571428
 40
0.1428571428571428
 40
0.1428571428571428
 40
0.1428571428571428
 40
0.2857142857142857
 40
0.2857142857142857
 40
0.2857142857142857
 40
0.2857142857142857
 40
0.4285714285714285
 40
0.4285714285714285
 40
0.4285714285714285
 40
0.4285714285714285
 40
0.5714285714285714
 40
0.5714285714285714
 40
0.5714285714285714
 40
0.5714285714285714
 40
0.7142857142857143
 40
0.7142857142857143
 40
0.7142857142857143
 40
0.7142857142857143
 40
1.0
 40
1.0
 40
1.0
 40
1.0
 10
5.5018
 20
-40.9289
 30
0.0
 10
5.5018
 20
-40.9289
 30
0.0
 10
6.9884
 20
-40.9442
 30
0.0
 10
6.9884
 20
-40.9442
 30
0.0
 10
6.9884
 20
-40.9442
 30
0.0
 10
6.9884
 20
-40.9442
 30
0.0
 10
7.0035
 20
-40.9289
 30
0.0
 10
7.0035
 20
-40.9289
 30
0.0
 10
7.0035
 20
-40.9289
 30
0.0
 10
7.0035
 20
-40.9289
 30
0.0
 10
7.0035
 20
-40.9289
 30
0.0
 10
7.0035
 20
-40.9289
 30
0.0
 10
7.0035
 20
-40.9289
 30
0.0
 10
7.0035
 20
-40.9289
 30
0.0
 10
3.7792
 20
-37.6684
 30
0.0
 10
3.7792
 20
-37.6684
 30
0.0
 10
3.7792
 20
-37.6684
 30
0.0
 10
3.7792
 20
-37.6684
 30
0.0
 10
3.0283
 20
-38.4278
 30
0.0
 10
3.0283
 20
-38.4278
 30
0.0
 10
3.0283
 20
-38.4278
 30
0.0
 10
3.0283
 20
-38.4278
 30
0.0
 10
5.5018
 20
-40.9289
 30
0.0
 10
5.5018
 20
-40.9289
 30
0.0
  0
SPLINE
  5
B5
330
1F
100
AcDbEntity
  8
Layer 1
 62
   175
100
AcDbSpline
210
0.0
220
0.0
230
1.0
 70
    11
 71
     3
 72
    20
 73
    16
 74
     0
 42
0.000000001
 43
0.0000000001
 40
0.0
 40
0.0
 40
0.0
 40
0.0
 40
0.2
 40
0.2
 40
0.2
 40
0.2
 40
0.4
 40
0.4
 40
0.4
 40
0.4
 40
0.6
 40
0.6
 40
0.6
 40
0.6
 40
1.0
 40
1.0
 40
1.0
 40
1.0
 10
1.7181
 20
-39.7527
 30
0.0
 10
1.7181
 20
-39.7527
 30
0.0
 10
2.4689
 20
-38.9933
 30
0.0
 10
2.4689
 20
-38.9933
 30
0.0
 10
2.4689
 20
-38.9933
 30
0.0
 10
2.4689
 20
-38.9933
 30
0.0
 10
4.3679
 20
-40.9442
 30
0.0
 10
4.3679
 20
-40.9442
 30
0.0
 10
4.3679
 20
-40.9442
 30
0.0
 10
4.3679
 20
-40.9442
 30
0.0
 10
2.8662
 20
-40.9442
 30
0.0
 10
2.8662
 20
-40.9442
 30
0.0
 10
2.8662
 20
-40.9442
 30
0.0
 10
2.8662
 20
-40.9442
 30
0.0
 10
1.7181
 20
-39.7527
 30
0.0
 10
1.7181
 20
-39.7527
 30
0.0
  0
SPLINE
  5
B6
330
1F
100
AcDbEntity
  8
Layer 1
 62
   175
100
AcDbSpline
210
0.0
220
0.0
230
1.0
 70
    11
 71
     3
 72
    16
 73
    12
 74
     0
 42
0.000000001
 43
0.0000000001
 40
0.0
 40
0.0
 40
0.0
 40
0.0
 40
0.25
 40
0.25
 40
0.25
 40
0.25
 40
0.5
 40
0.5
 40
0.5
 40
0.5
 40
1.0
 40
1.0
 40
1.0
 40
1.0
 10
19.1119
 20
-22.1638
 30
0.0
 10
19.1119
 20
-22.1638
 30
0.0
 10
19.1119
 20
-22.8942
 30
0.0
 10
19.1119
 20
-22.8942
 30
0.0
 10
19.1119
 20
-22.8942
 30
0.0
 10
19.1119
 20
-22.8942
 30
0.0
 10
18.751
 20
-22.5289
 30
0.0
 10
18.751
 20
-22.5289
 30
0.0
 10
18.751
 20
-22.5289
 30
0.0
 10
18.751
 20
-22.5289
 30
0.0
 10
19.1119
 20
-22.1638
 30
0.0
 10
19.1119
 20
-22.1638
 30
0.0
  0
SPLINE
  5
B7
330
1F
100
AcDbEntity
  8
Layer 1
 62
   175
100
AcDbSpline
210
0.0
220
0.0
230
1.0
 70
    11
 71
     3
 72
    36
 73
    32
 74
     0
 42
0.000000001
 43
0.0000000001
 40
0.0
 40
0.0
 40
0.0
 40
0.0
 40
0.1111111111111111
 40
0.1111111111111111
 40
0.1111111111111111
 40
0.1111111111111111
 40
0.2222222222222222
 40
0.2222222222222222
 40
0.2222222222222222
 40
0.2222222222222222
 40
0.3333333333333333
 40
0.3333333333333333
 40
0.3333333333333333
 40
0.3333333333333333
 40
0.4444444444444444
 40
0.4444444444444444
 40
0.4444444444444444
 40
0.4444444444444444
 40
0.5555555555555556
 40
0.5555555555555556
 40
0.5555555555555556
 40
0.5555555555555556
 40
0.6666666666666666
 40
0.6666666666666666
 40
0.6666666666666666
 40
0.6666666666666666
 40
0.7777777777777778
 40
0.7777777777777778
 40
0.7777777777777778
 40
0.7777777777777778
 40
1.0
 40
1.0
 40
1.0
 40
1.0
 10
0.5549
 20
-40.9289
 30
0.0
 10
0.5549
 20
-40.9289
 30
0.0
 10
0.5549
 20
-40.9289
 30
0.0
 10
0.5549
 20
-40.9289
 30
0.0
 10
0.5549
 20
-40.9289
 30
0.0
 10
0.5549
 20
-40.9289
 30
0.0
 10
0.5701
 20
-40.9442
 30
0.0
 10
0.5701
 20
-40.9442
 30
0.0
 10
0.5701
 20
-40.9442
 30
0.0
 10
0.5701
 20
-40.9442
 30
0.0
 10
1.7588
 20
-40.9442
 30
0.0
 10
1.7588
 20
-40.9442
 30
0.0
 10
1.7588
 20
-40.9442
 30
0.0
 10
1.7588
 20
-40.9442
 30
0.0
 10
1.774
 20
-40.9289
 30
0.0
 10
1.774
 20
-40.9289
 30
0.0
 10
1.774
 20
-40.9289
 30
0.0
 10
1.774
 20
-40.9289
 30
0.0
 10
1.774
 20
-40.9289
 30
0.0
 10
1.774
 20
-40.9289
 30
0.0
 10
1.774
 20
-40.9289
 30
0.0
 10
1.774
 20
-40.9289
 30
0.0
 10
1.774
 20
-40.9289
 30
0.0
 10
1.774
 20
-40.9289
 30
0.0
 10
1.774
 20
-40.9289
 30
0.0
 10
1.774
 20
-40.9289
 30
0.0
 10
1.1644
 20
-40.3125
 30
0.0
 10
1.1644
 20
-40.3125
 30
0.0
 10
1.1644
 20
-40.3125
 30
0.0
 10
1.1644
 20
-40.3125
 30
0.0
 10
0.5549
 20
-40.9289
 30
0.0
 10
0.5549
 20
-40.9289
 30
0.0
  0
SPLINE
  5
B8
330
1F
100
AcDbEntity
  8
Layer 1
 62
   175
100
AcDbSpline
210
0.0
220
0.0
230
1.0
 70
    11
 71
     3
 72
    20
 73
    16
 74
     0
 42
0.000000001
 43
0.0000000001
 40
0.0
 40
0.0
 40
0.0
 40
0.0
 40
0.2
 40
0.2
 40
0.2
 40
0.2
 40
0.4
 40
0.4
 40
0.4
 40
0.4
 40
0.6
 40
0.6
 40
0.6
 40
0.6
 40
1.0
 40
1.0
 40
1.0
 40
1.0
 10
19.1119
 20
12.7377
 30
0.0
 10
19.1119
 20
12.7377
 30
0.0
 10
19.1119
 20
11.2192
 30
0.0
 10
19.1119
 20
11.2192
 30
0.0
 10
19.1119
 20
11.2192
 30
0.0
 10
19.1119
 20
11.2192
 30
0.0
 10
16.1304
 20
14.2343
 30
0.0
 10
16.1304
 20
14.2343
 30
0.0
 10
16.1304
 20
14.2343
 30
0.0
 10
16.1304
 20
14.2343
 30
0.0
 10
16.8814
 20
14.9935
 30
0.0
 10
16.8814
 20
14.9935
 30
0.0
 10
16.8814
 20
14.9935
 30
0.0
 10
16.8814
 20
14.9935
 30
0.0
 10
19.1119
 20
12.7377
 30
0.0
 10
19.1119
 20
12.7377
 30
0.0
  0
SPLINE
  5
B9
330
1F
100
AcDbEntity
  8
Layer 1
 62
   175
100
AcDbSpline
210
0.0
220
0.0
230
1.0
 70
    11
 71
     3
 72
    20
 73
    16
 74
     0
 42
0.000000001
 43
0.0000000001
 40
0.0
 40
0.0
 40
0.0
 40
0.0
 40
0.2
 40
0.2
 40
0.2
 40
0.2
 40
0.4
 40
0.4
 40
0.4
 40
0.4
 40
0.6
 40
0.6
 40
0.6
 40
0.6
 40
1.0
 40
1.0
 40
1.0
 40
1.0
 10
19.1119
 20
-14.251
 30
0.0
 10
19.1119
 20
-14.251
 30
0.0
 10
19.1119
 20
-15.7694
 30
0.0
 10
19.1119
 20
-15.7694
 30
0.0
 10
19.1119
 20
-15.7694
 30
0.0
 10
19.1119
 20
-15.7694
 30
0.0
 10
16.8814
 20
-18.0252
 30
0.0
 10
16.8814
 20
-18.0252
 30
0.0
 10
16.8814
 20
-18.0252
 30
0.0
 10
16.8814
 20
-18.0252
 30
0.0
 10
16.1304
 20
-17.266
 30
0.0
 10
16.1304
 20
-17.266
 30
0.0
 10
16.1304
 20
-17.266
 30
0.0
 10
16.1304
 20
-17.266
 30
0.0
 10
19.1119
 20
-14.251
 30
0.0
 10
19.1119
 20
-14.251
 30
0.0
  0
SPLINE
  5
BA
330
1F
100
AcDbEntity
  8
Layer 1
 62
   175
100
AcDbSpline
210
0.0
220
0.0
230
1.0
 70
    11
 71
     3
 72
    20
 73
    16
 74
     0
 42
0.000000001
 43
0.0000000001
 40
0.0
 40
0.0
 40
0.0
 40
0.0
 40
0.2
 40
0.2
 40
0.2
 40
0.2
 40
0.4
 40
0.4
 40
0.4
 40
0.4
 40
0.6
 40
0.6
 40
0.6
 40
0.6
 40
1.0
 40
1.0
 40
1.0
 40
1.0
 10
19.1119
 20
10.0881
 30
0.0
 10
19.1119
 20
10.0881
 30
0.0
 10
19.1119
 20
8.5696
 30
0.0
 10
19.1119
 20
8.5696
 30
0.0
 10
19.1119
 20
8.5696
 30
0.0
 10
19.1119
 20
8.5696
 30
0.0
 10
14.8203
 20
12.9094
 30
0.0
 10
14.8203
 20
12.9094
 30
0.0
 10
14.8203
 20
12.9094
 30
0.0
 10
14.8203
 20
12.9094
 30
0.0
 10
15.571
 20
13.6686
 30
0.0
 10
15.571
 20
13.6686
 30
0.0
 10
15.571
 20
13.6686
 30
0.0
 10
15.571
 20
13.6686
 30
0.0
 10
19.1119
 20
10.0881
 30
0.0
 10
19.1119
 20
10.0881
 30
0.0
  0
SPLINE
  5
BB
330
1F
100
AcDbEntity
  8
Layer 1
 62
   175
100
AcDbSpline
210
0.0
220
0.0
230
1.0
 70
    11
 71
     3
 72
    20
 73
    16
 74
     0
 42
0.000000001
 43
0.0000000001
 40
0.0
 40
0.0
 40
0.0
 40
0.0
 40
0.2
 40
0.2
 40
0.2
 40
0.2
 40
0.4
 40
0.4
 40
0.4
 40
0.4
 40
0.6
 40
0.6
 40
0.6
 40
0.6
 40
1.0
 40
1.0
 40
1.0
 40
1.0
 10
19.1119
 20
-11.6011
 30
0.0
 10
19.1119
 20
-11.6011
 30
0.0
 10
19.1119
 20
-13.1197
 30
0.0
 10
19.1119
 20
-13.1197
 30
0.0
 10
19.1119
 20
-13.1197
 30
0.0
 10
19.1119
 20
-13.1197
 30
0.0
 10
15.571
 20
-16.7002
 30
0.0
 10
15.571
 20
-16.7002
 30
0.0
 10
15.571
 20
-16.7002
 30
0.0
 10
15.571
 20
-16.7002
 30
0.0
 10
14.8203
 20
-15.941
 30
0.0
 10
14.8203
 20
-15.941
 30
0.0
 10
14.8203
 20
-15.941
 30
0.0
 10
14.8203
 20
-15.941
 30
0.0
 10
19.1119
 20
-11.6011
 30
0.0
 10
19.1119
 20
-11.6011
 30
0.0
  0
SPLINE
  5
BC
330
1F
100
AcDbEntity
  8
Layer 1
 62
   175
100
AcDbSpline
210
0.0
220
0.0
230
1.0
 70
    11
 71
     3
 72
    20
 73
    16
 74
     0
 42
0.000000001
 43
0.0000000001
 40
0.0
 40
0.0
 40
0.0
 40
0.0
 40
0.2
 40
0.2
 40
0.2
 40
0.2
 40
0.4
 40
0.4
 40
0.4
 40
0.4
 40
0.6
 40
0.6
 40
0.6
 40
0.6
 40
1.0
 40
1.0
 40
1.0
 40
1.0
 10
19.1119
 20
7.4383
 30
0.0
 10
19.1119
 20
7.4383
 30
0.0
 10
19.1119
 20
5.9197
 30
0.0
 10
19.1119
 20
5.9197
 30
0.0
 10
19.1119
 20
5.9197
 30
0.0
 10
19.1119
 20
5.9197
 30
0.0
 10
13.5101
 20
11.5845
 30
0.0
 10
13.5101
 20
11.5845
 30
0.0
 10
13.5101
 20
11.5845
 30
0.0
 10
13.5101
 20
11.5845
 30
0.0
 10
14.2609
 20
12.3438
 30
0.0
 10
14.2609
 20
12.3438
 30
0.0
 10
14.2609
 20
12.3438
 30
0.0
 10
14.2609
 20
12.3438
 30
0.0
 10
19.1119
 20
7.4383
 30
0.0
 10
19.1119
 20
7.4383
 30
0.0
  0
SPLINE
  5
BD
330
1F
100
AcDbEntity
  8
Layer 1
 62
   175
100
AcDbSpline
210
0.0
220
0.0
230
1.0
 70
    11
 71
     3
 72
    20
 73
    16
 74
     0
 42
0.000000001
 43
0.0000000001
 40
0.0
 40
0.0
 40
0.0
 40
0.0
 40
0.2
 40
0.2
 40
0.2
 40
0.2
 40
0.4
 40
0.4
 40
0.4
 40
0.4
 40
0.6
 40
0.6
 40
0.6
 40
0.6
 40
1.0
 40
1.0
 40
1.0
 40
1.0
 10
19.1119
 20
-8.9513
 30
0.0
 10
19.1119
 20
-8.9513
 30
0.0
 10
19.1119
 20
-10.4698
 30
0.0
 10
19.1119
 20
-10.4698
 30
0.0
 10
19.1119
 20
-10.4698
 30
0.0
 10
19.1119
 20
-10.4698
 30
0.0
 10
14.2609
 20
-15.3754
 30
0.0
 10
14.2609
 20
-15.3754
 30
0.0
 10
14.2609
 20
-15.3754
 30
0.0
 10
14.2609
 20
-15.3754
 30
0.0
 10
13.5101
 20
-14.6161
 30
0.0
 10
13.5101
 20
-14.6161
 30
0.0
 10
13.5101
 20
-14.6161
 30
0.0
 10
13.5101
 20
-14.6161
 30
0.0
 10
19.1119
 20
-8.9513
 30
0.0
 10
19.1119
 20
-8.9513
 30
0.0
  0
SPLINE
  5
BE
330
1F
100
AcDbEntity
  8
Layer 1
 62
   175
100
AcDbSpline
210
0.0
220
0.0
230
1.0
 70
    11
 71
     3
 72
    32
 73
    28
 74
     0
 42
0.000000001
 43
0.0000000001
 40
0.0
 40
0.0
 40
0.0
 40
0.0
 40
0.125
 40
0.125
 40
0.125
 40
0.125
 40
0.25
 40
0.25
 40
0.25
 40
0.25
 40
0.375
 40
0.375
 40
0.375
 40
0.375
 40
0.5
 40
0.5
 40
0.5
 40
0.5
 40
0.625
 40
0.625
 40
0.625
 40
0.625
 40
0.75
 40
0.75
 40
0.75
 40
0.75
 40
1.0
 40
1.0
 40
1.0
 40
1.0
 10
19.1119
 20
-0.5112
 30
0.0
 10
19.1119
 20
-0.5112
 30
0.0
 10
19.1119
 20
-2.5204
 30
0.0
 10
19.1119
 20
-2.5204
 30
0.0
 10
19.1119
 20
-2.5204
 30
0.0
 10
19.1119
 20
-2.5204
 30
0.0
 10
10.3303
 20
-11.4008
 30
0.0
 10
10.3303
 20
-11.4008
 30
0.0
 10
10.3303
 20
-11.4008
 30
0.0
 10
10.3303
 20
-11.4008
 30
0.0
 10
9.5794
 20
-10.6415
 30
0.0
 10
9.5794
 20
-10.6415
 30
0.0
 10
9.5794
 20
-10.6415
 30
0.0
 10
9.5794
 20
-10.6415
 30
0.0
 10
18.604
 20
-1.5158
 30
0.0
 10
18.604
 20
-1.5158
 30
0.0
 10
18.604
 20
-1.5158
 30
0.0
 10
18.604
 20
-1.5158
 30
0.0
 10
9.5794
 20
7.6098
 30
0.0
 10
9.5794
 20
7.6098
 30
0.0
 10
9.5794
 20
7.6098
 30
0.0
 10
9.5794
 20
7.6098
 30
0.0
 10
10.3303
 20
8.369
 30
0.0
 10
10.3303
 20
8.369
 30
0.0
 10
10.3303
 20
8.369
 30
0.0
 10
10.3303
 20
8.369
 30
0.0
 10
19.1119
 20
-0.5112
 30
0.0
 10
19.1119
 20
-0.5112
 30
0.0
  0
SPLINE
  5
BF
330
1F
100
AcDbEntity
  8
Layer 1
 62
   175
100
AcDbSpline
210
0.0
220
0.0
230
1.0
 70
    11
 71
     3
 72
    44
 73
    40
 74
     0
 42
0.000000001
 43
0.0000000001
 40
0.0
 40
0.0
 40
0.0
 40
0.0
 40
0.0909090909090909
 40
0.0909090909090909
 40
0.0909090909090909
 40
0.0909090909090909
 40
0.1818181818181818
 40
0.1818181818181818
 40
0.1818181818181818
 40
0.1818181818181818
 40
0.2727272727272727
 40
0.2727272727272727
 40
0.2727272727272727
 40
0.2727272727272727
 40
0.3636363636363636
 40
0.3636363636363636
 40
0.3636363636363636
 40
0.3636363636363636
 40
0.4545454545454545
 40
0.4545454545454545
 40
0.4545454545454545
 40
0.4545454545454545
 40
0.5454545454545454
 40
0.5454545454545454
 40
0.5454545454545454
 40
0.5454545454545454
 40
0.6363636363636364
 40
0.6363636363636364
 40
0.6363636363636364
 40
0.6363636363636364
 40
0.7272727272727273
 40
0.7272727272727273
 40
0.7272727272727273
 40
0.7272727272727273
 40
0.8181818181818182
 40
0.8181818181818182
 40
0.8181818181818182
 40
0.8181818181818182
 40
1.0
 40
1.0
 40
1.0
 40
1.0
 10
9.6239
 20
-1.5175
 30
0.0
 10
9.6239
 20
-1.5175
 30
0.0
 10
9.6221
 20
-1.5175
 30
0.0
 10
9.6221
 20
-1.5175
 30
0.0
 10
9.6221
 20
-1.5175
 30
0.0
 10
9.6221
 20
-1.5175
 30
0.0
 10
5.0894
 20
-6.1011
 30
0.0
 10
5.0894
 20
-6.1011
 30
0.0
 10
5.0894
 20
-6.1011
 30
0.0
 10
5.0894
 20
-6.1011
 30
0.0
 10
4.3386
 20
-5.3419
 30
0.0
 10
4.3386
 20
-5.3419
 30
0.0
 10
4.3386
 20
-5.3419
 30
0.0
 10
4.3386
 20
-5.3419
 30
0.0
 10
8.1213
 20
-1.5167
 30
0.0
 10
8.1213
 20
-1.5167
 30
0.0
 10
8.1213
 20
-1.5167
 30
0.0
 10
8.1213
 20
-1.5167
 30
0.0
 10
4.3386
 20
2.3103
 30
0.0
 10
4.3386
 20
2.3103
 30
0.0
 10
4.3386
 20
2.3103
 30
0.0
 10
4.3386
 20
2.3103
 30
0.0
 10
5.0894
 20
3.0695
 30
0.0
 10
5.0894
 20
3.0695
 30
0.0
 10
5.0894
 20
3.0695
 30
0.0
 10
5.0894
 20
3.0695
 30
0.0
 10
9.6221
 20
-1.5158
 30
0.0
 10
9.6221
 20
-1.5158
 30
0.0
 10
9.6221
 20
-1.5158
 30
0.0
 10
9.6221
 20
-1.5158
 30
0.0
 10
9.6239
 20
-1.5158
 30
0.0
 10
9.6239
 20
-1.5158
 30
0.0
 10
9.6239
 20
-1.5158
 30
0.0
 10
9.6239
 20
-1.5158
 30
0.0
 10
9.6231
 20
-1.5167
 30
0.0
 10
9.6231
 20
-1.5167
 30
0.0
 10
9.6231
 20
-1.5167
 30
0.0
 10
9.6231
 20
-1.5167
 30
0.0
 10
9.6239
 20
-1.5175
 30
0.0
 10
9.6239
 20
-1.5175
 30
0.0
  0
SPLINE
  5
C0
330
1F
100
AcDbEntity
  8
Layer 1
 62
   175
100
AcDbSpline
210
0.0
220
0.0
230
1.0
 70
    11
 71
     3
 72
    20
 73
    16
 74
     0
 42
0.000000001
 43
0.0000000001
 40
0.0
 40
0.0
 40
0.0
 40
0.0
 40
0.2
 40
0.2
 40
0.2
 40
0.2
 40
0.4
 40
0.4
 40
0.4
 40
0.4
 40
0.6
 40
0.6
 40
0.6
 40
0.6
 40
1.0
 40
1.0
 40
1.0
 40
1.0
 10
19.1119
 20
15.3876
 30
0.0
 10
19.1119
 20
15.3876
 30
0.0
 10
19.1119
 20
13.8691
 30
0.0
 10
19.1119
 20
13.8691
 30
0.0
 10
19.1119
 20
13.8691
 30
0.0
 10
19.1119
 20
13.8691
 30
0.0
 10
17.4406
 20
15.5592
 30
0.0
 10
17.4406
 20
15.5592
 30
0.0
 10
17.4406
 20
15.5592
 30
0.0
 10
17.4406
 20
15.5592
 30
0.0
 10
18.1915
 20
16.3185
 30
0.0
 10
18.1915
 20
16.3185
 30
0.0
 10
18.1915
 20
16.3185
 30
0.0
 10
18.1915
 20
16.3185
 30
0.0
 10
19.1119
 20
15.3876
 30
0.0
 10
19.1119
 20
15.3876
 30
0.0
  0
SPLINE
  5
C1
330
1F
100
AcDbEntity
  8
Layer 1
 62
   175
100
AcDbSpline
210
0.0
220
0.0
230
1.0
 70
    11
 71
     3
 72
    20
 73
    16
 74
     0
 42
0.000000001
 43
0.0000000001
 40
0.0
 40
0.0
 40
0.0
 40
0.0
 40
0.2
 40
0.2
 40
0.2
 40
0.2
 40
0.4
 40
0.4
 40
0.4
 40
0.4
 40
0.6
 40
0.6
 40
0.6
 40
0.6
 40
1.0
 40
1.0
 40
1.0
 40
1.0
 10
19.1119
 20
-16.9007
 30
0.0
 10
19.1119
 20
-16.9007
 30
0.0
 10
19.1119
 20
-18.4193
 30
0.0
 10
19.1119
 20
-18.4193
 30
0.0
 10
19.1119
 20
-18.4193
 30
0.0
 10
19.1119
 20
-18.4193
 30
0.0
 10
18.1915
 20
-19.35
 30
0.0
 10
18.1915
 20
-19.35
 30
0.0
 10
18.1915
 20
-19.35
 30
0.0
 10
18.1915
 20
-19.35
 30
0.0
 10
17.4406
 20
-18.5908
 30
0.0
 10
17.4406
 20
-18.5908
 30
0.0
 10
17.4406
 20
-18.5908
 30
0.0
 10
17.4406
 20
-18.5908
 30
0.0
 10
19.1119
 20
-16.9007
 30
0.0
 10
19.1119
 20
-16.9007
 30
0.0
  0
SPLINE
  5
C2
330
1F
100
AcDbEntity
  8
Layer 1
 62
   175
100
AcDbSpline
210
0.0
220
0.0
230
1.0
 70
    11
 71
     3
 72
    20
 73
    16
 74
     0
 42
0.000000001
 43
0.0000000001
 40
0.0
 40
0.0
 40
0.0
 40
0.0
 40
0.2
 40
0.2
 40
0.2
 40
0.2
 40
0.4
 40
0.4
 40
0.4
 40
0.4
 40
0.6
 40
0.6
 40
0.6
 40
0.6
 40
1.0
 40
1.0
 40
1.0
 40
1.0
 10
19.1119
 20
4.7884
 30
0.0
 10
19.1119
 20
4.7884
 30
0.0
 10
19.1119
 20
3.2699
 30
0.0
 10
19.1119
 20
3.2699
 30
0.0
 10
19.1119
 20
3.2699
 30
0.0
 10
19.1119
 20
3.2699
 30
0.0
 10
12.1998
 20
10.2595
 30
0.0
 10
12.1998
 20
10.2595
 30
0.0
 10
12.1998
 20
10.2595
 30
0.0
 10
12.1998
 20
10.2595
 30
0.0
 10
12.9507
 20
11.0188
 30
0.0
 10
12.9507
 20
11.0188
 30
0.0
 10
12.9507
 20
11.0188
 30
0.0
 10
12.9507
 20
11.0188
 30
0.0
 10
19.1119
 20
4.7884
 30
0.0
 10
19.1119
 20
4.7884
 30
0.0
  0
SPLINE
  5
C3
330
1F
100
AcDbEntity
  8
Layer 1
 62
   175
100
AcDbSpline
210
0.0
220
0.0
230
1.0
 70
    11
 71
     3
 72
    20
 73
    16
 74
     0
 42
0.000000001
 43
0.0000000001
 40
0.0
 40
0.0
 40
0.0
 40
0.0
 40
0.2
 40
0.2
 40
0.2
 40
0.2
 40
0.4
 40
0.4
 40
0.4
 40
0.4
 40
0.6
 40
0.6
 40
0.6
 40
0.6
 40
1.0
 40
1.0
 40
1.0
 40
1.0
 10
19.1119
 20
-6.3017
 30
0.0
 10
19.1119
 20
-6.3017
 30
0.0
 10
19.1119
 20
-7.8201
 30
0.0
 10
19.1119
 20
-7.8201
 30
0.0
 10
19.1119
 20
-7.8201
 30
0.0
 10
19.1119
 20
-7.8201
 30
0.0
 10
12.9507
 20
-14.0505
 30
0.0
 10
12.9507
 20
-14.0505
 30
0.0
 10
12.9507
 20
-14.0505
 30
0.0
 10
12.9507
 20
-14.0505
 30
0.0
 10
12.1998
 20
-13.2912
 30
0.0
 10
12.1998
 20
-13.2912
 30
0.0
 10
12.1998
 20
-13.2912
 30
0.0
 10
12.1998
 20
-13.2912
 30
0.0
 10
19.1119
 20
-6.3017
 30
0.0
 10
19.1119
 20
-6.3017
 30
0.0
  0
SPLINE
  5
C4
330
1F
100
AcDbEntity
  8
Layer 1
 62
   175
100
AcDbSpline
210
0.0
220
0.0
230
1.0
 70
    11
 71
     3
 72
    20
 73
    16
 74
     0
 42
0.000000001
 43
0.0000000001
 40
0.0
 40
0.0
 40
0.0
 40
0.0
 40
0.2
 40
0.2
 40
0.2
 40
0.2
 40
0.4
 40
0.4
 40
0.4
 40
0.4
 40
0.6
 40
0.6
 40
0.6
 40
0.6
 40
1.0
 40
1.0
 40
1.0
 40
1.0
 10
19.1119
 20
2.1387
 30
0.0
 10
19.1119
 20
2.1387
 30
0.0
 10
19.1119
 20
0.6201
 30
0.0
 10
19.1119
 20
0.6201
 30
0.0
 10
19.1119
 20
0.6201
 30
0.0
 10
19.1119
 20
0.6201
 30
0.0
 10
10.8896
 20
8.9347
 30
0.0
 10
10.8896
 20
8.9347
 30
0.0
 10
10.8896
 20
8.9347
 30
0.0
 10
10.8896
 20
8.9347
 30
0.0
 10
11.6404
 20
9.694
 30
0.0
 10
11.6404
 20
9.694
 30
0.0
 10
11.6404
 20
9.694
 30
0.0
 10
11.6404
 20
9.694
 30
0.0
 10
19.1119
 20
2.1387
 30
0.0
 10
19.1119
 20
2.1387
 30
0.0
  0
SPLINE
  5
C5
330
1F
100
AcDbEntity
  8
Layer 1
 62
   175
100
AcDbSpline
210
0.0
220
0.0
230
1.0
 70
    11
 71
     3
 72
    20
 73
    16
 74
     0
 42
0.000000001
 43
0.0000000001
 40
0.0
 40
0.0
 40
0.0
 40
0.0
 40
0.2
 40
0.2
 40
0.2
 40
0.2
 40
0.4
 40
0.4
 40
0.4
 40
0.4
 40
0.6
 40
0.6
 40
0.6
 40
0.6
 40
1.0
 40
1.0
 40
1.0
 40
1.0
 10
19.1119
 20
-3.6518
 30
0.0
 10
19.1119
 20
-3.6518
 30
0.0
 10
19.1119
 20
-5.1703
 30
0.0
 10
19.1119
 20
-5.1703
 30
0.0
 10
19.1119
 20
-5.1703
 30
0.0
 10
19.1119
 20
-5.1703
 30
0.0
 10
11.6404
 20
-12.7256
 30
0.0
 10
11.6404
 20
-12.7256
 30
0.0
 10
11.6404
 20
-12.7256
 30
0.0
 10
11.6404
 20
-12.7256
 30
0.0
 10
10.8896
 20
-11.9664
 30
0.0
 10
10.8896
 20
-11.9664
 30
0.0
 10
10.8896
 20
-11.9664
 30
0.0
 10
10.8896
 20
-11.9664
 30
0.0
 10
19.1119
 20
-3.6518
 30
0.0
 10
19.1119
 20
-3.6518
 30
0.0
  0
SPLINE
  5
C6
330
1F
100
AcDbEntity
  8
Layer 1
 62
   175
100
AcDbSpline
210
0.0
220
0.0
230
1.0
 70
    11
 71
     3
 72
    28
 73
    24
 74
     0
 42
0.000000001
 43
0.0000000001
 40
0.0
 40
0.0
 40
0.0
 40
0.0
 40
0.1428571428571428
 40
0.1428571428571428
 40
0.1428571428571428
 40
0.1428571428571428
 40
0.2857142857142857
 40
0.2857142857142857
 40
0.2857142857142857
 40
0.2857142857142857
 40
0.4285714285714285
 40
0.4285714285714285
 40
0.4285714285714285
 40
0.4285714285714285
 40
0.5714285714285714
 40
0.5714285714285714
 40
0.5714285714285714
 40
0.5714285714285714
 40
0.7142857142857143
 40
0.7142857142857143
 40
0.7142857142857143
 40
0.7142857142857143
 40
1.0
 40
1.0
 40
1.0
 40
1.0
 10
15.9835
 20
-1.5158
 30
0.0
 10
15.9835
 20
-1.5158
 30
0.0
 10
8.2692
 20
-9.3165
 30
0.0
 10
8.2692
 20
-9.3165
 30
0.0
 10
8.2692
 20
-9.3165
 30
0.0
 10
8.2692
 20
-9.3165
 30
0.0
 10
9.02
 20
-10.0758
 30
0.0
 10
9.02
 20
-10.0758
 30
0.0
 10
9.02
 20
-10.0758
 30
0.0
 10
9.02
 20
-10.0758
 30
0.0
 10
17.4852
 20
-1.5158
 30
0.0
 10
17.4852
 20
-1.5158
 30
0.0
 10
17.4852
 20
-1.5158
 30
0.0
 10
17.4852
 20
-1.5158
 30
0.0
 10
9.02
 20
7.0442
 30
0.0
 10
9.02
 20
7.0442
 30
0.0
 10
9.02
 20
7.0442
 30
0.0
 10
9.02
 20
7.0442
 30
0.0
 10
8.2692
 20
6.2849
 30
0.0
 10
8.2692
 20
6.2849
 30
0.0
 10
8.2692
 20
6.2849
 30
0.0
 10
8.2692
 20
6.2849
 30
0.0
 10
15.9835
 20
-1.5158
 30
0.0
 10
15.9835
 20
-1.5158
 30
0.0
  0
SPLINE
  5
C7
330
1F
100
AcDbEntity
  8
Layer 1
 62
   175
100
AcDbSpline
210
0.0
220
0.0
230
1.0
 70
    11
 71
     3
 72
    28
 73
    24
 74
     0
 42
0.000000001
 43
0.0000000001
 40
0.0
 40
0.0
 40
0.0
 40
0.0
 40
0.1428571428571428
 40
0.1428571428571428
 40
0.1428571428571428
 40
0.1428571428571428
 40
0.2857142857142857
 40
0.2857142857142857
 40
0.2857142857142857
 40
0.2857142857142857
 40
0.4285714285714285
 40
0.4285714285714285
 40
0.4285714285714285
 40
0.4285714285714285
 40
0.5714285714285714
 40
0.5714285714285714
 40
0.5714285714285714
 40
0.5714285714285714
 40
0.7142857142857143
 40
0.7142857142857143
 40
0.7142857142857143
 40
0.7142857142857143
 40
1.0
 40
1.0
 40
1.0
 40
1.0
 10
13.3631
 20
-1.5158
 30
0.0
 10
13.3631
 20
-1.5158
 30
0.0
 10
6.959
 20
-7.9916
 30
0.0
 10
6.959
 20
-7.9916
 30
0.0
 10
6.959
 20
-7.9916
 30
0.0
 10
6.959
 20
-7.9916
 30
0.0
 10
7.7098
 20
-8.7509
 30
0.0
 10
7.7098
 20
-8.7509
 30
0.0
 10
7.7098
 20
-8.7509
 30
0.0
 10
7.7098
 20
-8.7509
 30
0.0
 10
14.8647
 20
-1.5158
 30
0.0
 10
14.8647
 20
-1.5158
 30
0.0
 10
14.8647
 20
-1.5158
 30
0.0
 10
14.8647
 20
-1.5158
 30
0.0
 10
7.7098
 20
5.7192
 30
0.0
 10
7.7098
 20
5.7192
 30
0.0
 10
7.7098
 20
5.7192
 30
0.0
 10
7.7098
 20
5.7192
 30
0.0
 10
6.959
 20
4.9601
 30
0.0
 10
6.959
 20
4.9601
 30
0.0
 10
6.959
 20
4.9601
 30
0.0
 10
6.959
 20
4.9601
 30
0.0
 10
13.3631
 20
-1.5158
 30
0.0
 10
13.3631
 20
-1.5158
 30
0.0
  0
SPLINE
  5
C8
330
1F
100
AcDbEntity
  8
Layer 1
 62
   175
100
AcDbSpline
210
0.0
220
0.0
230
1.0
 70
    11
 71
     3
 72
    28
 73
    24
 74
     0
 42
0.000000001
 43
0.0000000001
 40
0.0
 40
0.0
 40
0.0
 40
0.0
 40
0.1428571428571428
 40
0.1428571428571428
 40
0.1428571428571428
 40
0.1428571428571428
 40
0.2857142857142857
 40
0.2857142857142857
 40
0.2857142857142857
 40
0.2857142857142857
 40
0.4285714285714285
 40
0.4285714285714285
 40
0.4285714285714285
 40
0.4285714285714285
 40
0.5714285714285714
 40
0.5714285714285714
 40
0.5714285714285714
 40
0.5714285714285714
 40
0.7142857142857143
 40
0.7142857142857143
 40
0.7142857142857143
 40
0.7142857142857143
 40
1.0
 40
1.0
 40
1.0
 40
1.0
 10
10.7426
 20
-1.5158
 30
0.0
 10
10.7426
 20
-1.5158
 30
0.0
 10
5.6487
 20
-6.6668
 30
0.0
 10
5.6487
 20
-6.6668
 30
0.0
 10
5.6487
 20
-6.6668
 30
0.0
 10
5.6487
 20
-6.6668
 30
0.0
 10
6.3995
 20
-7.4261
 30
0.0
 10
6.3995
 20
-7.4261
 30
0.0
 10
6.3995
 20
-7.4261
 30
0.0
 10
6.3995
 20
-7.4261
 30
0.0
 10
12.2442
 20
-1.5158
 30
0.0
 10
12.2442
 20
-1.5158
 30
0.0
 10
12.2442
 20
-1.5158
 30
0.0
 10
12.2442
 20
-1.5158
 30
0.0
 10
6.3995
 20
4.3944
 30
0.0
 10
6.3995
 20
4.3944
 30
0.0
 10
6.3995
 20
4.3944
 30
0.0
 10
6.3995
 20
4.3944
 30
0.0
 10
5.6487
 20
3.6351
 30
0.0
 10
5.6487
 20
3.6351
 30
0.0
 10
5.6487
 20
3.6351
 30
0.0
 10
5.6487
 20
3.6351
 30
0.0
 10
10.7426
 20
-1.5158
 30
0.0
 10
10.7426
 20
-1.5158
 30
0.0
  0
SPLINE
  5
C9
330
1F
100
AcDbEntity
  8
Layer 1
 62
   175
100
AcDbSpline
210
0.0
220
0.0
230
1.0
 70
    11
 71
     3
 72
    32
 73
    28
 74
     0
 42
0.000000001
 43
0.0000000001
 40
0.0
 40
0.0
 40
0.0
 40
0.0
 40
0.125
 40
0.125
 40
0.125
 40
0.125
 40
0.25
 40
0.25
 40
0.25
 40
0.25
 40
0.375
 40
0.375
 40
0.375
 40
0.375
 40
0.5
 40
0.5
 40
0.5
 40
0.5
 40
0.625
 40
0.625
 40
0.625
 40
0.625
 40
0.75
 40
0.75
 40
0.75
 40
0.75
 40
1.0
 40
1.0
 40
1.0
 40
1.0
 10
5.5018
 20
-1.5158
 30
0.0
 10
5.5018
 20
-1.5158
 30
0.0
 10
3.0283
 20
-4.0169
 30
0.0
 10
3.0283
 20
-4.0169
 30
0.0
 10
3.0283
 20
-4.0169
 30
0.0
 10
3.0283
 20
-4.0169
 30
0.0
 10
3.7791
 20
-4.7763
 30
0.0
 10
3.7791
 20
-4.7763
 30
0.0
 10
3.7791
 20
-4.7763
 30
0.0
 10
3.7791
 20
-4.7763
 30
0.0
 10
7.0035
 20
-1.5158
 30
0.0
 10
7.0035
 20
-1.5158
 30
0.0
 10
7.0035
 20
-1.5158
 30
0.0
 10
7.0035
 20
-1.5158
 30
0.0
 10
7.0035
 20
-1.5158
 30
0.0
 10
7.0035
 20
-1.5158
 30
0.0
 10
7.0035
 20
-1.5158
 30
0.0
 10
7.0035
 20
-1.5158
 30
0.0
 10
3.7791
 20
1.7446
 30
0.0
 10
3.7791
 20
1.7446
 30
0.0
 10
3.7791
 20
1.7446
 30
0.0
 10
3.7791
 20
1.7446
 30
0.0
 10
3.0283
 20
0.9854
 30
0.0
 10
3.0283
 20
0.9854
 30
0.0
 10
3.0283
 20
0.9854
 30
0.0
 10
3.0283
 20
0.9854
 30
0.0
 10
5.5018
 20
-1.5158
 30
0.0
 10
5.5018
 20
-1.5158
 30
0.0
  0
SPLINE
  5
CA
330
1F
100
AcDbEntity
  8
Layer 1
 62
   175
100
AcDbSpline
210
0.0
220
0.0
230
1.0
 70
    11
 71
     3
 72
    28
 73
    24
 74
     0
 42
0.000000001
 43
0.0000000001
 40
0.0
 40
0.0
 40
0.0
 40
0.0
 40
0.1428571428571428
 40
0.1428571428571428
 40
0.1428571428571428
 40
0.1428571428571428
 40
0.2857142857142857
 40
0.2857142857142857
 40
0.2857142857142857
 40
0.2857142857142857
 40
0.4285714285714285
 40
0.4285714285714285
 40
0.4285714285714285
 40
0.4285714285714285
 40
0.5714285714285714
 40
0.5714285714285714
 40
0.5714285714285714
 40
0.5714285714285714
 40
0.7142857142857143
 40
0.7142857142857143
 40
0.7142857142857143
 40
0.7142857142857143
 40
1.0
 40
1.0
 40
1.0
 40
1.0
 10
1.7181
 20
-0.3396
 30
0.0
 10
1.7181
 20
-0.3396
 30
0.0
 10
2.4689
 20
0.4197
 30
0.0
 10
2.4689
 20
0.4197
 30
0.0
 10
2.4689
 20
0.4197
 30
0.0
 10
2.4689
 20
0.4197
 30
0.0
 10
4.383
 20
-1.5158
 30
0.0
 10
4.383
 20
-1.5158
 30
0.0
 10
4.383
 20
-1.5158
 30
0.0
 10
4.383
 20
-1.5158
 30
0.0
 10
2.4689
 20
-3.4513
 30
0.0
 10
2.4689
 20
-3.4513
 30
0.0
 10
2.4689
 20
-3.4513
 30
0.0
 10
2.4689
 20
-3.4513
 30
0.0
 10
1.7181
 20
-2.6921
 30
0.0
 10
1.7181
 20
-2.6921
 30
0.0
 10
1.7181
 20
-2.6921
 30
0.0
 10
1.7181
 20
-2.6921
 30
0.0
 10
2.8813
 20
-1.5158
 30
0.0
 10
2.8813
 20
-1.5158
 30
0.0
 10
2.8813
 20
-1.5158
 30
0.0
 10
2.8813
 20
-1.5158
 30
0.0
 10
1.7181
 20
-0.3396
 30
0.0
 10
1.7181
 20
-0.3396
 30
0.0
  0
SPLINE
  5
CB
330
1F
100
AcDbEntity
  8
Layer 1
 62
   175
100
AcDbSpline
210
0.0
220
0.0
230
1.0
 70
    11
 71
     3
 72
    16
 73
    12
 74
     0
 42
0.000000001
 43
0.0000000001
 40
0.0
 40
0.0
 40
0.0
 40
0.0
 40
0.25
 40
0.25
 40
0.25
 40
0.25
 40
0.5
 40
0.5
 40
0.5
 40
0.5
 40
1.0
 40
1.0
 40
1.0
 40
1.0
 10
19.1119
 20
17.2492
 30
0.0
 10
19.1119
 20
17.2492
 30
0.0
 10
19.1119
 20
16.5189
 30
0.0
 10
19.1119
 20
16.5189
 30
0.0
 10
19.1119
 20
16.5189
 30
0.0
 10
19.1119
 20
16.5189
 30
0.0
 10
18.751
 20
16.884
 30
0.0
 10
18.751
 20
16.884
 30
0.0
 10
18.751
 20
16.884
 30
0.0
 10
18.751
 20
16.884
 30
0.0
 10
19.1119
 20
17.2492
 30
0.0
 10
19.1119
 20
17.2492
 30
0.0
  0
SPLINE
  5
CC
330
1F
100
AcDbEntity
  8
Layer 1
 62
   175
100
AcDbSpline
210
0.0
220
0.0
230
1.0
 70
    11
 71
     3
 72
    16
 73
    12
 74
     0
 42
0.000000001
 43
0.0000000001
 40
0.0
 40
0.0
 40
0.0
 40
0.0
 40
0.25
 40
0.25
 40
0.25
 40
0.25
 40
0.5
 40
0.5
 40
0.5
 40
0.5
 40
1.0
 40
1.0
 40
1.0
 40
1.0
 10
19.1119
 20
-19.5505
 30
0.0
 10
19.1119
 20
-19.5505
 30
0.0
 10
19.1119
 20
-20.2808
 30
0.0
 10
19.1119
 20
-20.2808
 30
0.0
 10
19.1119
 20
-20.2808
 30
0.0
 10
19.1119
 20
-20.2808
 30
0.0
 10
18.7508
 20
-19.9157
 30
0.0
 10
18.7508
 20
-19.9157
 30
0.0
 10
18.7508
 20
-19.9157
 30
0.0
 10
18.7508
 20
-19.9157
 30
0.0
 10
19.1119
 20
-19.5505
 30
0.0
 10
19.1119
 20
-19.5505
 30
0.0
  0
SPLINE
  5
CD
330
1F
100
AcDbEntity
  8
Layer 1
 62
   175
100
AcDbSpline
210
0.0
220
0.0
230
1.0
 70
    11
 71
     3
 72
    32
 73
    28
 74
     0
 42
0.000000001
 43
0.0000000001
 40
0.0
 40
0.0
 40
0.0
 40
0.0
 40
0.125
 40
0.125
 40
0.125
 40
0.125
 40
0.25
 40
0.25
 40
0.25
 40
0.25
 40
0.375
 40
0.375
 40
0.375
 40
0.375
 40
0.5
 40
0.5
 40
0.5
 40
0.5
 40
0.625
 40
0.625
 40
0.625
 40
0.625
 40
0.75
 40
0.75
 40
0.75
 40
0.75
 40
1.0
 40
1.0
 40
1.0
 40
1.0
 10
0.5549
 20
-1.5158
 30
0.0
 10
0.5549
 20
-1.5158
 30
0.0
 10
0.5549
 20
-1.5158
 30
0.0
 10
0.5549
 20
-1.5158
 30
0.0
 10
0.5549
 20
-1.5158
 30
0.0
 10
0.5549
 20
-1.5158
 30
0.0
 10
1.1644
 20
-2.1322
 30
0.0
 10
1.1644
 20
-2.1322
 30
0.0
 10
1.1644
 20
-2.1322
 30
0.0
 10
1.1644
 20
-2.1322
 30
0.0
 10
1.774
 20
-1.5158
 30
0.0
 10
1.774
 20
-1.5158
 30
0.0
 10
1.774
 20
-1.5158
 30
0.0
 10
1.774
 20
-1.5158
 30
0.0
 10
1.774
 20
-1.5158
 30
0.0
 10
1.774
 20
-1.5158
 30
0.0
 10
1.774
 20
-1.5158
 30
0.0
 10
1.774
 20
-1.5158
 30
0.0
 10
1.774
 20
-1.5158
 30
0.0
 10
1.774
 20
-1.5158
 30
0.0
 10
1.774
 20
-1.5158
 30
0.0
 10
1.774
 20
-1.5158
 30
0.0
 10
1.1644
 20
-0.8994
 30
0.0
 10
1.1644
 20
-0.8994
 30
0.0
 10
1.1644
 20
-0.8994
 30
0.0
 10
1.1644
 20
-0.8994
 30
0.0
 10
0.5549
 20
-1.5158
 30
0.0
 10
0.5549
 20
-1.5158
 30
0.0
  0
SPLINE
  5
CE
330
1F
100
AcDbEntity
  8
Layer 1
 62
   175
100
AcDbSpline
210
0.0
220
0.0
230
1.0
 70
    11
 71
     3
 72
    20
 73
    16
 74
     0
 42
0.000000001
 43
0.0000000001
 40
0.0
 40
0.0
 40
0.0
 40
0.0
 40
0.2
 40
0.2
 40
0.2
 40
0.2
 40
0.4
 40
0.4
 40
0.4
 40
0.4
 40
0.6
 40
0.6
 40
0.6
 40
0.6
 40
1.0
 40
1.0
 40
1.0
 40
1.0
 10
19.1119
 20
25.1622
 30
0.0
 10
19.1119
 20
25.1622
 30
0.0
 10
19.1119
 20
23.6437
 30
0.0
 10
19.1119
 20
23.6437
 30
0.0
 10
19.1119
 20
23.6437
 30
0.0
 10
19.1119
 20
23.6437
 30
0.0
 10
16.8814
 20
21.3879
 30
0.0
 10
16.8814
 20
21.3879
 30
0.0
 10
16.8814
 20
21.3879
 30
0.0
 10
16.8814
 20
21.3879
 30
0.0
 10
16.1304
 20
22.1471
 30
0.0
 10
16.1304
 20
22.1471
 30
0.0
 10
16.1304
 20
22.1471
 30
0.0
 10
16.1304
 20
22.1471
 30
0.0
 10
19.1119
 20
25.1622
 30
0.0
 10
19.1119
 20
25.1622
 30
0.0
  0
SPLINE
  5
CF
330
1F
100
AcDbEntity
  8
Layer 1
 62
   175
100
AcDbSpline
210
0.0
220
0.0
230
1.0
 70
    11
 71
     3
 72
    20
 73
    16
 74
     0
 42
0.000000001
 43
0.0000000001
 40
0.0
 40
0.0
 40
0.0
 40
0.0
 40
0.2
 40
0.2
 40
0.2
 40
0.2
 40
0.4
 40
0.4
 40
0.4
 40
0.4
 40
0.6
 40
0.6
 40
0.6
 40
0.6
 40
1.0
 40
1.0
 40
1.0
 40
1.0
 10
19.1119
 20
27.8119
 30
0.0
 10
19.1119
 20
27.8119
 30
0.0
 10
19.1119
 20
26.2933
 30
0.0
 10
19.1119
 20
26.2933
 30
0.0
 10
19.1119
 20
26.2933
 30
0.0
 10
19.1119
 20
26.2933
 30
0.0
 10
15.571
 20
22.7127
 30
0.0
 10
15.571
 20
22.7127
 30
0.0
 10
15.571
 20
22.7127
 30
0.0
 10
15.571
 20
22.7127
 30
0.0
 10
14.8203
 20
23.472
 30
0.0
 10
14.8203
 20
23.472
 30
0.0
 10
14.8203
 20
23.472
 30
0.0
 10
14.8203
 20
23.472
 30
0.0
 10
19.1119
 20
27.8119
 30
0.0
 10
19.1119
 20
27.8119
 30
0.0
  0
SPLINE
  5
D0
330
1F
100
AcDbEntity
  8
Layer 1
 62
   175
100
AcDbSpline
210
0.0
220
0.0
230
1.0
 70
    11
 71
     3
 72
    20
 73
    16
 74
     0
 42
0.000000001
 43
0.0000000001
 40
0.0
 40
0.0
 40
0.0
 40
0.0
 40
0.2
 40
0.2
 40
0.2
 40
0.2
 40
0.4
 40
0.4
 40
0.4
 40
0.4
 40
0.6
 40
0.6
 40
0.6
 40
0.6
 40
1.0
 40
1.0
 40
1.0
 40
1.0
 10
19.1119
 20
30.4617
 30
0.0
 10
19.1119
 20
30.4617
 30
0.0
 10
19.1119
 20
28.9432
 30
0.0
 10
19.1119
 20
28.9432
 30
0.0
 10
19.1119
 20
28.9432
 30
0.0
 10
19.1119
 20
28.9432
 30
0.0
 10
14.2609
 20
24.0376
 30
0.0
 10
14.2609
 20
24.0376
 30
0.0
 10
14.2609
 20
24.0376
 30
0.0
 10
14.2609
 20
24.0376
 30
0.0
 10
13.5101
 20
24.7968
 30
0.0
 10
13.5101
 20
24.7968
 30
0.0
 10
13.5101
 20
24.7968
 30
0.0
 10
13.5101
 20
24.7968
 30
0.0
 10
19.1119
 20
30.4617
 30
0.0
 10
19.1119
 20
30.4617
 30
0.0
  0
SPLINE
  5
D1
330
1F
100
AcDbEntity
  8
Layer 1
 62
   175
100
AcDbSpline
210
0.0
220
0.0
230
1.0
 70
    11
 71
     3
 72
    32
 73
    28
 74
     0
 42
0.000000001
 43
0.0000000001
 40
0.0
 40
0.0
 40
0.0
 40
0.0
 40
0.125
 40
0.125
 40
0.125
 40
0.125
 40
0.25
 40
0.25
 40
0.25
 40
0.25
 40
0.375
 40
0.375
 40
0.375
 40
0.375
 40
0.5
 40
0.5
 40
0.5
 40
0.5
 40
0.625
 40
0.625
 40
0.625
 40
0.625
 40
0.75
 40
0.75
 40
0.75
 40
0.75
 40
1.0
 40
1.0
 40
1.0
 40
1.0
 10
15.5906
 20
40.9443
 30
0.0
 10
15.5906
 20
40.9443
 30
0.0
 10
17.0922
 20
40.9443
 30
0.0
 10
17.0922
 20
40.9443
 30
0.0
 10
17.0922
 20
40.9443
 30
0.0
 10
17.0922
 20
40.9443
 30
0.0
 10
19.1119
 20
38.9019
 30
0.0
 10
19.1119
 20
38.9019
 30
0.0
 10
19.1119
 20
38.9019
 30
0.0
 10
19.1119
 20
38.9019
 30
0.0
 10
19.1119
 20
36.8926
 30
0.0
 10
19.1119
 20
36.8926
 30
0.0
 10
19.1119
 20
36.8926
 30
0.0
 10
19.1119
 20
36.8926
 30
0.0
 10
10.3303
 20
28.0123
 30
0.0
 10
10.3303
 20
28.0123
 30
0.0
 10
10.3303
 20
28.0123
 30
0.0
 10
10.3303
 20
28.0123
 30
0.0
 10
9.5794
 20
28.7715
 30
0.0
 10
9.5794
 20
28.7715
 30
0.0
 10
9.5794
 20
28.7715
 30
0.0
 10
9.5794
 20
28.7715
 30
0.0
 10
18.604
 20
37.8973
 30
0.0
 10
18.604
 20
37.8973
 30
0.0
 10
18.604
 20
37.8973
 30
0.0
 10
18.604
 20
37.8973
 30
0.0
 10
15.5906
 20
40.9443
 30
0.0
 10
15.5906
 20
40.9443
 30
0.0
  0
SPLINE
  5
D2
330
1F
100
AcDbEntity
  8
Layer 1
 62
   175
100
AcDbSpline
210
0.0
220
0.0
230
1.0
 70
    11
 71
     3
 72
    44
 73
    40
 74
     0
 42
0.000000001
 43
0.0000000001
 40
0.0
 40
0.0
 40
0.0
 40
0.0
 40
0.0909090909090909
 40
0.0909090909090909
 40
0.0909090909090909
 40
0.0909090909090909
 40
0.1818181818181818
 40
0.1818181818181818
 40
0.1818181818181818
 40
0.1818181818181818
 40
0.2727272727272727
 40
0.2727272727272727
 40
0.2727272727272727
 40
0.2727272727272727
 40
0.3636363636363636
 40
0.3636363636363636
 40
0.3636363636363636
 40
0.3636363636363636
 40
0.4545454545454545
 40
0.4545454545454545
 40
0.4545454545454545
 40
0.4545454545454545
 40
0.5454545454545454
 40
0.5454545454545454
 40
0.5454545454545454
 40
0.5454545454545454
 40
0.6363636363636364
 40
0.6363636363636364
 40
0.6363636363636364
 40
0.6363636363636364
 40
0.7272727272727273
 40
0.7272727272727273
 40
0.7272727272727273
 40
0.7272727272727273
 40
0.8181818181818182
 40
0.8181818181818182
 40
0.8181818181818182
 40
0.8181818181818182
 40
1.0
 40
1.0
 40
1.0
 40
1.0
 10
5.1086
 20
40.9443
 30
0.0
 10
5.1086
 20
40.9443
 30
0.0
 10
6.6099
 20
40.9443
 30
0.0
 10
6.6099
 20
40.9443
 30
0.0
 10
6.6099
 20
40.9443
 30
0.0
 10
6.6099
 20
40.9443
 30
0.0
 10
9.6221
 20
37.8973
 30
0.0
 10
9.6221
 20
37.8973
 30
0.0
 10
9.6221
 20
37.8973
 30
0.0
 10
9.6221
 20
37.8973
 30
0.0
 10
9.6239
 20
37.8973
 30
0.0
 10
9.6239
 20
37.8973
 30
0.0
 10
9.6239
 20
37.8973
 30
0.0
 10
9.6239
 20
37.8973
 30
0.0
 10
9.6231
 20
37.8963
 30
0.0
 10
9.6231
 20
37.8963
 30
0.0
 10
9.6231
 20
37.8963
 30
0.0
 10
9.6231
 20
37.8963
 30
0.0
 10
9.6239
 20
37.8955
 30
0.0
 10
9.6239
 20
37.8955
 30
0.0
 10
9.6239
 20
37.8955
 30
0.0
 10
9.6239
 20
37.8955
 30
0.0
 10
9.6221
 20
37.8955
 30
0.0
 10
9.6221
 20
37.8955
 30
0.0
 10
9.6221
 20
37.8955
 30
0.0
 10
9.6221
 20
37.8955
 30
0.0
 10
5.0894
 20
33.3119
 30
0.0
 10
5.0894
 20
33.3119
 30
0.0
 10
5.0894
 20
33.3119
 30
0.0
 10
5.0894
 20
33.3119
 30
0.0
 10
4.3386
 20
34.0711
 30
0.0
 10
4.3386
 20
34.0711
 30
0.0
 10
4.3386
 20
34.0711
 30
0.0
 10
4.3386
 20
34.0711
 30
0.0
 10
8.1213
 20
37.8963
 30
0.0
 10
8.1213
 20
37.8963
 30
0.0
 10
8.1213
 20
37.8963
 30
0.0
 10
8.1213
 20
37.8963
 30
0.0
 10
5.1086
 20
40.9443
 30
0.0
 10
5.1086
 20
40.9443
 30
0.0
  0
SPLINE
  5
D3
330
1F
100
AcDbEntity
  8
Layer 1
 62
   175
100
AcDbSpline
210
0.0
220
0.0
230
1.0
 70
    11
 71
     3
 72
    20
 73
    16
 74
     0
 42
0.000000001
 43
0.0000000001
 40
0.0
 40
0.0
 40
0.0
 40
0.0
 40
0.2
 40
0.2
 40
0.2
 40
0.2
 40
0.4
 40
0.4
 40
0.4
 40
0.4
 40
0.6
 40
0.6
 40
0.6
 40
0.6
 40
1.0
 40
1.0
 40
1.0
 40
1.0
 10
19.1119
 20
22.5123
 30
0.0
 10
19.1119
 20
22.5123
 30
0.0
 10
19.1119
 20
20.9938
 30
0.0
 10
19.1119
 20
20.9938
 30
0.0
 10
19.1119
 20
20.9938
 30
0.0
 10
19.1119
 20
20.9938
 30
0.0
 10
18.1915
 20
20.063
 30
0.0
 10
18.1915
 20
20.063
 30
0.0
 10
18.1915
 20
20.063
 30
0.0
 10
18.1915
 20
20.063
 30
0.0
 10
17.4406
 20
20.8222
 30
0.0
 10
17.4406
 20
20.8222
 30
0.0
 10
17.4406
 20
20.8222
 30
0.0
 10
17.4406
 20
20.8222
 30
0.0
 10
19.1119
 20
22.5123
 30
0.0
 10
19.1119
 20
22.5123
 30
0.0
  0
SPLINE
  5
D4
330
1F
100
AcDbEntity
  8
Layer 1
 62
   175
100
AcDbSpline
210
0.0
220
0.0
230
1.0
 70
    11
 71
     3
 72
    20
 73
    16
 74
     0
 42
0.000000001
 43
0.0000000001
 40
0.0
 40
0.0
 40
0.0
 40
0.0
 40
0.2
 40
0.2
 40
0.2
 40
0.2
 40
0.4
 40
0.4
 40
0.4
 40
0.4
 40
0.6
 40
0.6
 40
0.6
 40
0.6
 40
1.0
 40
1.0
 40
1.0
 40
1.0
 10
19.1119
 20
33.1115
 30
0.0
 10
19.1119
 20
33.1115
 30
0.0
 10
19.1119
 20
31.5929
 30
0.0
 10
19.1119
 20
31.5929
 30
0.0
 10
19.1119
 20
31.5929
 30
0.0
 10
19.1119
 20
31.5929
 30
0.0
 10
12.9507
 20
25.3626
 30
0.0
 10
12.9507
 20
25.3626
 30
0.0
 10
12.9507
 20
25.3626
 30
0.0
 10
12.9507
 20
25.3626
 30
0.0
 10
12.1998
 20
26.1218
 30
0.0
 10
12.1998
 20
26.1218
 30
0.0
 10
12.1998
 20
26.1218
 30
0.0
 10
12.1998
 20
26.1218
 30
0.0
 10
19.1119
 20
33.1115
 30
0.0
 10
19.1119
 20
33.1115
 30
0.0
  0
SPLINE
  5
D5
330
1F
100
AcDbEntity
  8
Layer 1
 62
   175
100
AcDbSpline
210
0.0
220
0.0
230
1.0
 70
    11
 71
     3
 72
    16
 73
    12
 74
     0
 42
0.000000001
 43
0.0000000001
 40
0.0
 40
0.0
 40
0.0
 40
0.0
 40
0.25
 40
0.25
 40
0.25
 40
0.25
 40
0.5
 40
0.5
 40
0.5
 40
0.5
 40
1.0
 40
1.0
 40
1.0
 40
1.0
 10
18.211
 20
40.9443
 30
0.0
 10
18.211
 20
40.9443
 30
0.0
 10
19.1119
 20
40.9443
 30
0.0
 10
19.1119
 20
40.9443
 30
0.0
 10
19.1119
 20
40.9443
 30
0.0
 10
19.1119
 20
40.9443
 30
0.0
 10
19.1119
 20
40.0332
 30
0.0
 10
19.1119
 20
40.0332
 30
0.0
 10
19.1119
 20
40.0332
 30
0.0
 10
19.1119
 20
40.0332
 30
0.0
 10
18.211
 20
40.9443
 30
0.0
 10
18.211
 20
40.9443
 30
0.0
  0
SPLINE
  5
D6
330
1F
100
AcDbEntity
  8
Layer 1
 62
   175
100
AcDbSpline
210
0.0
220
0.0
230
1.0
 70
    11
 71
     3
 72
    20
 73
    16
 74
     0
 42
0.000000001
 43
0.0000000001
 40
0.0
 40
0.0
 40
0.0
 40
0.0
 40
0.2
 40
0.2
 40
0.2
 40
0.2
 40
0.4
 40
0.4
 40
0.4
 40
0.4
 40
0.6
 40
0.6
 40
0.6
 40
0.6
 40
1.0
 40
1.0
 40
1.0
 40
1.0
 10
19.1119
 20
35.7613
 30
0.0
 10
19.1119
 20
35.7613
 30
0.0
 10
19.1119
 20
34.2428
 30
0.0
 10
19.1119
 20
34.2428
 30
0.0
 10
19.1119
 20
34.2428
 30
0.0
 10
19.1119
 20
34.2428
 30
0.0
 10
11.6404
 20
26.6875
 30
0.0
 10
11.6404
 20
26.6875
 30
0.0
 10
11.6404
 20
26.6875
 30
0.0
 10
11.6404
 20
26.6875
 30
0.0
 10
10.8896
 20
27.4467
 30
0.0
 10
10.8896
 20
27.4467
 30
0.0
 10
10.8896
 20
27.4467
 30
0.0
 10
10.8896
 20
27.4467
 30
0.0
 10
19.1119
 20
35.7613
 30
0.0
 10
19.1119
 20
35.7613
 30
0.0
  0
SPLINE
  5
D7
330
1F
100
AcDbEntity
  8
Layer 1
 62
   175
100
AcDbSpline
210
0.0
220
0.0
230
1.0
 70
    11
 71
     3
 72
    28
 73
    24
 74
     0
 42
0.000000001
 43
0.0000000001
 40
0.0
 40
0.0
 40
0.0
 40
0.0
 40
0.1428571428571428
 40
0.1428571428571428
 40
0.1428571428571428
 40
0.1428571428571428
 40
0.2857142857142857
 40
0.2857142857142857
 40
0.2857142857142857
 40
0.2857142857142857
 40
0.4285714285714285
 40
0.4285714285714285
 40
0.4285714285714285
 40
0.4285714285714285
 40
0.5714285714285714
 40
0.5714285714285714
 40
0.5714285714285714
 40
0.5714285714285714
 40
0.7142857142857143
 40
0.7142857142857143
 40
0.7142857142857143
 40
0.7142857142857143
 40
1.0
 40
1.0
 40
1.0
 40
1.0
 10
12.9701
 20
40.9443
 30
0.0
 10
12.9701
 20
40.9443
 30
0.0
 10
14.4718
 20
40.9443
 30
0.0
 10
14.4718
 20
40.9443
 30
0.0
 10
14.4718
 20
40.9443
 30
0.0
 10
14.4718
 20
40.9443
 30
0.0
 10
17.4852
 20
37.8973
 30
0.0
 10
17.4852
 20
37.8973
 30
0.0
 10
17.4852
 20
37.8973
 30
0.0
 10
17.4852
 20
37.8973
 30
0.0
 10
9.02
 20
29.3372
 30
0.0
 10
9.02
 20
29.3372
 30
0.0
 10
9.02
 20
29.3372
 30
0.0
 10
9.02
 20
29.3372
 30
0.0
 10
8.2692
 20
30.0965
 30
0.0
 10
8.2692
 20
30.0965
 30
0.0
 10
8.2692
 20
30.0965
 30
0.0
 10
8.2692
 20
30.0965
 30
0.0
 10
15.9835
 20
37.8973
 30
0.0
 10
15.9835
 20
37.8973
 30
0.0
 10
15.9835
 20
37.8973
 30
0.0
 10
15.9835
 20
37.8973
 30
0.0
 10
12.9701
 20
40.9443
 30
0.0
 10
12.9701
 20
40.9443
 30
0.0
  0
SPLINE
  5
D8
330
1F
100
AcDbEntity
  8
Layer 1
 62
   175
100
AcDbSpline
210
0.0
220
0.0
230
1.0
 70
    11
 71
     3
 72
    28
 73
    24
 74
     0
 42
0.000000001
 43
0.0000000001
 40
0.0
 40
0.0
 40
0.0
 40
0.0
 40
0.1428571428571428
 40
0.1428571428571428
 40
0.1428571428571428
 40
0.1428571428571428
 40
0.2857142857142857
 40
0.2857142857142857
 40
0.2857142857142857
 40
0.2857142857142857
 40
0.4285714285714285
 40
0.4285714285714285
 40
0.4285714285714285
 40
0.4285714285714285
 40
0.5714285714285714
 40
0.5714285714285714
 40
0.5714285714285714
 40
0.5714285714285714
 40
0.7142857142857143
 40
0.7142857142857143
 40
0.7142857142857143
 40
0.7142857142857143
 40
1.0
 40
1.0
 40
1.0
 40
1.0
 10
10.3497
 20
40.9443
 30
0.0
 10
10.3497
 20
40.9443
 30
0.0
 10
11.8514
 20
40.9443
 30
0.0
 10
11.8514
 20
40.9443
 30
0.0
 10
11.8514
 20
40.9443
 30
0.0
 10
11.8514
 20
40.9443
 30
0.0
 10
14.8647
 20
37.8973
 30
0.0
 10
14.8647
 20
37.8973
 30
0.0
 10
14.8647
 20
37.8973
 30
0.0
 10
14.8647
 20
37.8973
 30
0.0
 10
7.7098
 20
30.6621
 30
0.0
 10
7.7098
 20
30.6621
 30
0.0
 10
7.7098
 20
30.6621
 30
0.0
 10
7.7098
 20
30.6621
 30
0.0
 10
6.959
 20
31.4214
 30
0.0
 10
6.959
 20
31.4214
 30
0.0
 10
6.959
 20
31.4214
 30
0.0
 10
6.959
 20
31.4214
 30
0.0
 10
13.3631
 20
37.8973
 30
0.0
 10
13.3631
 20
37.8973
 30
0.0
 10
13.3631
 20
37.8973
 30
0.0
 10
13.3631
 20
37.8973
 30
0.0
 10
10.3497
 20
40.9443
 30
0.0
 10
10.3497
 20
40.9443
 30
0.0
  0
SPLINE
  5
D9
330
1F
100
AcDbEntity
  8
Layer 1
 62
   175
100
AcDbSpline
210
0.0
220
0.0
230
1.0
 70
    11
 71
     3
 72
    28
 73
    24
 74
     0
 42
0.000000001
 43
0.0000000001
 40
0.0
 40
0.0
 40
0.0
 40
0.0
 40
0.1428571428571428
 40
0.1428571428571428
 40
0.1428571428571428
 40
0.1428571428571428
 40
0.2857142857142857
 40
0.2857142857142857
 40
0.2857142857142857
 40
0.2857142857142857
 40
0.4285714285714285
 40
0.4285714285714285
 40
0.4285714285714285
 40
0.4285714285714285
 40
0.5714285714285714
 40
0.5714285714285714
 40
0.5714285714285714
 40
0.5714285714285714
 40
0.7142857142857143
 40
0.7142857142857143
 40
0.7142857142857143
 40
0.7142857142857143
 40
1.0
 40
1.0
 40
1.0
 40
1.0
 10
7.7293
 20
40.9443
 30
0.0
 10
7.7293
 20
40.9443
 30
0.0
 10
9.2309
 20
40.9443
 30
0.0
 10
9.2309
 20
40.9443
 30
0.0
 10
9.2309
 20
40.9443
 30
0.0
 10
9.2309
 20
40.9443
 30
0.0
 10
12.2442
 20
37.8973
 30
0.0
 10
12.2442
 20
37.8973
 30
0.0
 10
12.2442
 20
37.8973
 30
0.0
 10
12.2442
 20
37.8973
 30
0.0
 10
6.3995
 20
31.9871
 30
0.0
 10
6.3995
 20
31.9871
 30
0.0
 10
6.3995
 20
31.9871
 30
0.0
 10
6.3995
 20
31.9871
 30
0.0
 10
5.6487
 20
32.7463
 30
0.0
 10
5.6487
 20
32.7463
 30
0.0
 10
5.6487
 20
32.7463
 30
0.0
 10
5.6487
 20
32.7463
 30
0.0
 10
10.7426
 20
37.8973
 30
0.0
 10
10.7426
 20
37.8973
 30
0.0
 10
10.7426
 20
37.8973
 30
0.0
 10
10.7426
 20
37.8973
 30
0.0
 10
7.7293
 20
40.9443
 30
0.0
 10
7.7293
 20
40.9443
 30
0.0
  0
SPLINE
  5
DA
330
1F
100
AcDbEntity
  8
Layer 1
 62
   175
100
AcDbSpline
210
0.0
220
0.0
230
1.0
 70
    11
 71
     3
 72
    36
 73
    32
 74
     0
 42
0.000000001
 43
0.0000000001
 40
0.0
 40
0.0
 40
0.0
 40
0.0
 40
0.1111111111111111
 40
0.1111111111111111
 40
0.1111111111111111
 40
0.1111111111111111
 40
0.2222222222222222
 40
0.2222222222222222
 40
0.2222222222222222
 40
0.2222222222222222
 40
0.3333333333333333
 40
0.3333333333333333
 40
0.3333333333333333
 40
0.3333333333333333
 40
0.4444444444444444
 40
0.4444444444444444
 40
0.4444444444444444
 40
0.4444444444444444
 40
0.5555555555555556
 40
0.5555555555555556
 40
0.5555555555555556
 40
0.5555555555555556
 40
0.6666666666666666
 40
0.6666666666666666
 40
0.6666666666666666
 40
0.6666666666666666
 40
0.7777777777777778
 40
0.7777777777777778
 40
0.7777777777777778
 40
0.7777777777777778
 40
1.0
 40
1.0
 40
1.0
 40
1.0
 10
3.5683
 20
40.9443
 30
0.0
 10
3.5683
 20
40.9443
 30
0.0
 10
3.9901
 20
40.9443
 30
0.0
 10
3.9901
 20
40.9443
 30
0.0
 10
3.9901
 20
40.9443
 30
0.0
 10
3.9901
 20
40.9443
 30
0.0
 10
7.0035
 20
37.8973
 30
0.0
 10
7.0035
 20
37.8973
 30
0.0
 10
7.0035
 20
37.8973
 30
0.0
 10
7.0035
 20
37.8973
 30
0.0
 10
7.0035
 20
37.8973
 30
0.0
 10
7.0035
 20
37.8973
 30
0.0
 10
7.0035
 20
37.8973
 30
0.0
 10
7.0035
 20
37.8973
 30
0.0
 10
3.7791
 20
34.6368
 30
0.0
 10
3.7791
 20
34.6368
 30
0.0
 10
3.7791
 20
34.6368
 30
0.0
 10
3.7791
 20
34.6368
 30
0.0
 10
3.0283
 20
35.3961
 30
0.0
 10
3.0283
 20
35.3961
 30
0.0
 10
3.0283
 20
35.3961
 30
0.0
 10
3.0283
 20
35.3961
 30
0.0
 10
5.5018
 20
37.8973
 30
0.0
 10
5.5018
 20
37.8973
 30
0.0
 10
5.5018
 20
37.8973
 30
0.0
 10
5.5018
 20
37.8973
 30
0.0
 10
3.0283
 20
40.3984
 30
0.0
 10
3.0283
 20
40.3984
 30
0.0
 10
3.0283
 20
40.3984
 30
0.0
 10
3.0283
 20
40.3984
 30
0.0
 10
3.5683
 20
40.9443
 30
0.0
 10
3.5683
 20
40.9443
 30
0.0
  0
SPLINE
  5
DB
330
1F
100
AcDbEntity
  8
Layer 1
 62
   175
100
AcDbSpline
210
0.0
220
0.0
230
1.0
 70
    11
 71
     3
 72
    28
 73
    24
 74
     0
 42
0.000000001
 43
0.0000000001
 40
0.0
 40
0.0
 40
0.0
 40
0.0
 40
0.1428571428571428
 40
0.1428571428571428
 40
0.1428571428571428
 40
0.1428571428571428
 40
0.2857142857142857
 40
0.2857142857142857
 40
0.2857142857142857
 40
0.2857142857142857
 40
0.4285714285714285
 40
0.4285714285714285
 40
0.4285714285714285
 40
0.4285714285714285
 40
0.5714285714285714
 40
0.5714285714285714
 40
0.5714285714285714
 40
0.5714285714285714
 40
0.7142857142857143
 40
0.7142857142857143
 40
0.7142857142857143
 40
0.7142857142857143
 40
1.0
 40
1.0
 40
1.0
 40
1.0
 10
1.7181
 20
39.0734
 30
0.0
 10
1.7181
 20
39.0734
 30
0.0
 10
2.4689
 20
39.8328
 30
0.0
 10
2.4689
 20
39.8328
 30
0.0
 10
2.4689
 20
39.8328
 30
0.0
 10
2.4689
 20
39.8328
 30
0.0
 10
4.383
 20
37.8973
 30
0.0
 10
4.383
 20
37.8973
 30
0.0
 10
4.383
 20
37.8973
 30
0.0
 10
4.383
 20
37.8973
 30
0.0
 10
2.4689
 20
35.9618
 30
0.0
 10
2.4689
 20
35.9618
 30
0.0
 10
2.4689
 20
35.9618
 30
0.0
 10
2.4689
 20
35.9618
 30
0.0
 10
1.7181
 20
36.721
 30
0.0
 10
1.7181
 20
36.721
 30
0.0
 10
1.7181
 20
36.721
 30
0.0
 10
1.7181
 20
36.721
 30
0.0
 10
2.8813
 20
37.8973
 30
0.0
 10
2.8813
 20
37.8973
 30
0.0
 10
2.8813
 20
37.8973
 30
0.0
 10
2.8813
 20
37.8973
 30
0.0
 10
1.7181
 20
39.0734
 30
0.0
 10
1.7181
 20
39.0734
 30
0.0
  0
SPLINE
  5
DC
330
1F
100
AcDbEntity
  8
Layer 1
 62
   175
100
AcDbSpline
210
0.0
220
0.0
230
1.0
 70
    11
 71
     3
 72
    16
 73
    12
 74
     0
 42
0.000000001
 43
0.0000000001
 40
0.0
 40
0.0
 40
0.0
 40
0.0
 40
0.25
 40
0.25
 40
0.25
 40
0.25
 40
0.5
 40
0.5
 40
0.5
 40
0.5
 40
1.0
 40
1.0
 40
1.0
 40
1.0
 10
19.1119
 20
19.8626
 30
0.0
 10
19.1119
 20
19.8626
 30
0.0
 10
19.1119
 20
19.1321
 30
0.0
 10
19.1119
 20
19.1321
 30
0.0
 10
19.1119
 20
19.1321
 30
0.0
 10
19.1119
 20
19.1321
 30
0.0
 10
18.7508
 20
19.4973
 30
0.0
 10
18.7508
 20
19.4973
 30
0.0
 10
18.7508
 20
19.4973
 30
0.0
 10
18.7508
 20
19.4973
 30
0.0
 10
19.1119
 20
19.8626
 30
0.0
 10
19.1119
 20
19.8626
 30
0.0
  0
SPLINE
  5
DD
330
1F
100
AcDbEntity
  8
Layer 1
 62
   175
100
AcDbSpline
210
0.0
220
0.0
230
1.0
 70
    11
 71
     3
 72
    32
 73
    28
 74
     0
 42
0.000000001
 43
0.0000000001
 40
0.0
 40
0.0
 40
0.0
 40
0.0
 40
0.125
 40
0.125
 40
0.125
 40
0.125
 40
0.25
 40
0.25
 40
0.25
 40
0.25
 40
0.375
 40
0.375
 40
0.375
 40
0.375
 40
0.5
 40
0.5
 40
0.5
 40
0.5
 40
0.625
 40
0.625
 40
0.625
 40
0.625
 40
0.75
 40
0.75
 40
0.75
 40
0.75
 40
1.0
 40
1.0
 40
1.0
 40
1.0
 10
0.5549
 20
37.8973
 30
0.0
 10
0.5549
 20
37.8973
 30
0.0
 10
0.5549
 20
37.8973
 30
0.0
 10
0.5549
 20
37.8973
 30
0.0
 10
0.5549
 20
37.8973
 30
0.0
 10
0.5549
 20
37.8973
 30
0.0
 10
1.1644
 20
37.2809
 30
0.0
 10
1.1644
 20
37.2809
 30
0.0
 10
1.1644
 20
37.2809
 30
0.0
 10
1.1644
 20
37.2809
 30
0.0
 10
1.774
 20
37.8973
 30
0.0
 10
1.774
 20
37.8973
 30
0.0
 10
1.774
 20
37.8973
 30
0.0
 10
1.774
 20
37.8973
 30
0.0
 10
1.774
 20
37.8973
 30
0.0
 10
1.774
 20
37.8973
 30
0.0
 10
1.774
 20
37.8973
 30
0.0
 10
1.774
 20
37.8973
 30
0.0
 10
1.774
 20
37.8973
 30
0.0
 10
1.774
 20
37.8973
 30
0.0
 10
1.774
 20
37.8973
 30
0.0
 10
1.774
 20
37.8973
 30
0.0
 10
1.1644
 20
38.5135
 30
0.0
 10
1.1644
 20
38.5135
 30
0.0
 10
1.1644
 20
38.5135
 30
0.0
 10
1.1644
 20
38.5135
 30
0.0
 10
0.5549
 20
37.8973
 30
0.0
 10
0.5549
 20
37.8973
 30
0.0
  0
ENDSEC
  0
SECTION
  2
OBJECTS
  0
DICTIONARY
  5
C
330
0
100
AcDbDictionary
281
     1
  3
ACAD_DETAILVIEWSTYLE
350
123
  3
ACAD_GROUP
350
D
  3
ACAD_LAYOUT
350
1A
  3
ACAD_MATERIAL
350
43
  3
ACAD_MLEADERSTYLE
350
6B
  3
ACAD_MLINESTYLE
350
17
  3
ACAD_PLOTSETTINGS
350
19
  3
ACAD_PLOTSTYLENAME
350
E
  3
ACAD_SCALELIST
350
47
  3
ACAD_SECTIONVIEWSTYLE
350
124
  3
ACAD_TABLESTYLE
350
69
  3
ACAD_VISUALSTYLE
350
2A
  3
ACDB_RECOMPOSE_DATA
350
120
  3
AcDbVariableDictionary
350
E0
  0
DICTIONARY
  5
DE
330
8
100
AcDbDictionary
280
     1
281
     1
  3
ACAD_XREC_ROUNDTRIP
360
DF
  0
DICTIONARY
  5
123
102
{ACAD_REACTORS
330
C
102
}
330
C
100
AcDbDictionary
281
     1
  0
DICTIONARY
  5
D
102
{ACAD_REACTORS
330
C
102
}
330
C
100
AcDbDictionary
281
     1
  0
DICTIONARY
  5
1A
102
{ACAD_REACTORS
330
C
102
}
330
C
100
AcDbDictionary
281
     1
  3
Layout1
350
1E
  3
Layout2
350
26
  3
Model
350
22
  0
DICTIONARY
  5
43
102
{ACAD_REACTORS
330
C
102
}
330
C
100
AcDbDictionary
281
     1
  3
ByBlock
350
45
  3
ByLayer
350
44
  3
Global
350
46
  0
DICTIONARY
  5
6B
102
{ACAD_REACTORS
330
C
102
}
330
C
100
AcDbDictionary
281
     1
  3
Standard
350
6C
  0
DICTIONARY
  5
17
102
{ACAD_REACTORS
330
C
102
}
330
C
100
AcDbDictionary
281
     1
  3
Standard
350
18
  0
DICTIONARY
  5
19
102
{ACAD_REACTORS
330
C
102
}
330
C
100
AcDbDictionary
281
     1
  0
ACDBDICTIONARYWDFLT
  5
E
102
{ACAD_REACTORS
330
C
102
}
330
C
100
AcDbDictionary
281
     1
  3
Normal
350
F
100
AcDbDictionaryWithDefault
340
F
  0
DICTIONARY
  5
47
102
{ACAD_REACTORS
330
C
102
}
330
C
100
AcDbDictionary
281
     1
  3
A0
350
48
  3
A1
350
49
  3
A2
350
4A
  3
A3
350
4B
  3
A4
350
4C
  3
A5
350
4D
  3
A6
350
4E
  3
A7
350
4F
  3
A8
350
50
  3
A9
350
51
  3
B0
350
52
  3
B1
350
53
  3
B2
350
54
  3
B3
350
55
  3
B4
350
56
  3
B5
350
57
  3
B6
350
58
  3
B7
350
59
  3
B8
350
5A
  3
B9
350
5B
  3
C0
350
5C
  3
C1
350
5D
  3
C2
350
5E
  3
C3
350
5F
  3
C4
350
60
  3
C5
350
61
  3
C6
350
62
  3
C7
350
63
  3
C8
350
64
  3
C9
350
65
  3
D0
350
66
  3
D1
350
67
  3
D2
350
68
  0
DICTIONARY
  5
124
102
{ACAD_REACTORS
330
C
102
}
330
C
100
AcDbDictionary
281
     1
  0
DICTIONARY
  5
69
102
{ACAD_REACTORS
330
C
102
}
330
C
100
AcDbDictionary
281
     1
  3
Standard
350
6A
  0
DICTIONARY
  5
2A
102
{ACAD_REACTORS
330
C
102
}
330
C
100
AcDbDictionary
281
     1
  3
2dWireframe
350
2F
  3
Basic
350
32
  3
Brighten
350
36
  3
ColorChange
350
3A
  3
Conceptual
350
34
  3
Dim
350
35
  3
EdgeColorOff
350
3D
  3
Facepattern
350
39
  3
Flat
350
2B
  3
FlatWithEdges
350
2C
  3
Gouraud
350
2D
  3
GouraudWithEdges
350
2E
  3
Hidden
350
31
  3
JitterOff
350
3B
  3
Linepattern
350
38
  3
OverhangOff
350
3C
  3
Realistic
350
33
  3
Shaded
350
42
  3
Shaded with edges
350
41
  3
Shades of Gray
350
3E
  3
Sketchy
350
3F
  3
Thicken
350
37
  3
Wireframe
350
30
  3
X-Ray
350
40
  0
XRECORD
  5
120
102
{ACAD_REACTORS
330
C
102
}
330
C
100
AcDbXrecord
280
     1
 90
        1
330
6A
  0
DICTIONARY
  5
E0
102
{ACAD_REACTORS
330
C
102
}
330
C
100
AcDbDictionary
281
     1
  3
CANNOSCALE
350
E1
  3
CMLEADERSTYLE
350
122
  3
CTABLESTYLE
350
121
  3
MSLTSCALE
350
E2
  3
XCLIPFRAME
350
E3
  0
XRECORD
  5
DF
102
{ACAD_REACTORS
330
DE
102
}
330
DE
100
AcDbXrecord
280
     1
102
VTR_0.000_0.000_1.000_1.000_GRIDDISPLAY
 70
     3
102
VTR_0.000_0.000_1.000_1.000_GRIDMAJOR
 70
     5
102
VTR_0.000_0.000_1.000_1.000_DEFAULTLIGHTING
280
     1
102
VTR_0.000_0.000_1.000_1.000_DEFAULTLIGHTINGTYPE
 70
     1
102
VTR_0.000_0.000_1.000_1.000_BRIGHTNESS
141
0.0
102
VTR_0.000_0.000_1.000_1.000_CONTRAST
142
0.0
  0
LAYOUT
  5
1E
102
{ACAD_REACTORS
330
1A
102
}
330
1A
100
AcDbPlotSettings
  1

  2
none_device
  4

  6

 40
0.0
 41
0.0
 42
0.0
 43
0.0
 44
0.0
 45
0.0
 46
0.0
 47
0.0
 48
0.0
 49
0.0
140
0.0
141
0.0
142
1.0
143
1.0
 70
   688
 72
     0
 73
     0
 74
     5
  7

 75
    16
 76
     0
 77
     2
 78
   300
147
1.0
148
0.0
149
0.0
100
AcDbLayout
  1
Layout1
 70
     1
 71
     1
 10
0.0
 20
0.0
 11
12.0
 21
9.0
 12
0.0
 22
0.0
 32
0.0
 14
1.000000000000000E+20
 24
1.000000000000000E+20
 34
1.000000000000000E+20
 15
-1.000000000000000E+20
 25
-1.000000000000000E+20
 35
-1.000000000000000E+20
146
0.0
 13
0.0
 23
0.0
 33
0.0
 16
1.0
 26
0.0
 36
0.0
 17
0.0
 27
1.0
 37
0.0
 76
     0
330
1B
  0
LAYOUT
  5
26
102
{ACAD_REACTORS
330
1A
102
}
330
1A
100
AcDbPlotSettings
  1

  2
none_device
  4

  6

 40
0.0
 41
0.0
 42
0.0
 43
0.0
 44
0.0
 45
0.0
 46
0.0
 47
0.0
 48
0.0
 49
0.0
140
0.0
141
0.0
142
1.0
143
1.0
 70
   688
 72
     0
 73
     0
 74
     5
  7

 75
    16
 76
     0
 77
     2
 78
   300
147
1.0
148
0.0
149
0.0
100
AcDbLayout
  1
Layout2
 70
     1
 71
     2
 10
0.0
 20
0.0
 11
0.0
 21
0.0
 12
0.0
 22
0.0
 32
0.0
 14
0.0
 24
0.0
 34
0.0
 15
0.0
 25
0.0
 35
0.0
146
0.0
 13
0.0
 23
0.0
 33
0.0
 16
1.0
 26
0.0
 36
0.0
 17
0.0
 27
1.0
 37
0.0
 76
     0
330
23
  0
LAYOUT
  5
22
102
{ACAD_REACTORS
330
1A
102
}
330
1A
100
AcDbPlotSettings
  1

  2
none_device
  4
Letter_(8.50_x_11.00_Inches)
  6

 40
6.35
 41
6.35
 42
6.35000508
 43
6.35000508
 44
215.9
 45
279.4
 46
0.0
 47
0.0
 48
0.0
 49
0.0
140
0.0
141
0.0
142
1.0
143
1.0
 70
  1712
 72
     0
 73
     0
 74
     0
  7

 75
     0
 76
     0
 77
     2
 78
   300
147
1.0
148
0.0
149
0.0
100
AcDbLayout
  1
Model
 70
     1
 71
     0
 10
0.0
 20
0.0
 11
12.0
 21
9.0
 12
0.0
 22
0.0
 32
0.0
 14
-21.164
 24
-43.3142
 34
0.0
 15
21.164
 25
43.3143
 35
0.0
146
0.0
 13
0.0
 23
0.0
 33
0.0
 16
1.0
 26
0.0
 36
0.0
 17
0.0
 27
1.0
 37
0.0
 76
     0
330
1F
331
29
  0
MATERIAL
  5
45
102
{ACAD_REACTORS
330
43
102
}
102
{ACAD_XDICTIONARY
360
116
102
}
330
43
100
AcDbMaterial
  1
ByBlock
  0
MATERIAL
  5
44
102
{ACAD_REACTORS
330
43
102
}
102
{ACAD_XDICTIONARY
360
114
102
}
330
43
100
AcDbMaterial
  1
ByLayer
  0
MATERIAL
  5
46
102
{ACAD_REACTORS
330
43
102
}
102
{ACAD_XDICTIONARY
360
118
102
}
330
43
100
AcDbMaterial
  1
Global
  0
MLEADERSTYLE
  5
6C
102
{ACAD_REACTORS
330
6B
102
}
102
{ACAD_XDICTIONARY
360
11E
102
}
330
6B
100
AcDbMLeaderStyle
170
     2
171
     1
172
     0
 90
        2
 40
0.0
 41
0.0
173
     1
 91
-1056964608
340
14
 92
       -2
290
     1
 42
0.09
291
     1
 43
0.36
  3
Standard
341
0
 44
0.18
300

342
11
174
     1
178
     6
175
     1
176
     0
 93
-1056964608
 45
0.18
292
     0
297
     0
 46
0.18
343
0
 94
-1056964608
 47
1.0
 49
1.0
140
1.0
293
     1
141
0.0
294
     1
177
     0
142
1.0
295
     0
296
     0
143
0.125
1001
ACAD_MLEADERVER
1070
     2
  0
MLINESTYLE
  5
18
102
{ACAD_REACTORS
330
17
102
}
330
17
100
AcDbMlineStyle
  2
Standard
 70
     0
  3

 62
   256
 51
90.0
 52
90.0
 71
     2
 49
0.5
 62
   256
  6
BYLAYER
 49
-0.5
 62
   256
  6
BYLAYER
  0
ACDBPLACEHOLDER
  5
F
102
{ACAD_REACTORS
330
E
102
}
330
E
  0
SCALE
  5
48
102
{ACAD_REACTORS
330
47
102
}
330
47
100
AcDbScale
 70
     0
300
1:1
140
1.0
141
1.0
290
     1
  0
SCALE
  5
49
102
{ACAD_REACTORS
330
47
102
}
330
47
100
AcDbScale
 70
     0
300
1:2
140
1.0
141
2.0
290
     0
  0
SCALE
  5
4A
102
{ACAD_REACTORS
330
47
102
}
330
47
100
AcDbScale
 70
     0
300
1:4
140
1.0
141
4.0
290
     0
  0
SCALE
  5
4B
102
{ACAD_REACTORS
330
47
102
}
330
47
100
AcDbScale
 70
     0
300
1:5
140
1.0
141
5.0
290
     0
  0
SCALE
  5
4C
102
{ACAD_REACTORS
330
47
102
}
330
47
100
AcDbScale
 70
     0
300
1:8
140
1.0
141
8.0
290
     0
  0
SCALE
  5
4D
102
{ACAD_REACTORS
330
47
102
}
330
47
100
AcDbScale
 70
     0
300
1:10
140
1.0
141
10.0
290
     0
  0
SCALE
  5
4E
102
{ACAD_REACTORS
330
47
102
}
330
47
100
AcDbScale
 70
     0
300
1:16
140
1.0
141
16.0
290
     0
  0
SCALE
  5
4F
102
{ACAD_REACTORS
330
47
102
}
330
47
100
AcDbScale
 70
     0
300
1:20
140
1.0
141
20.0
290
     0
  0
SCALE
  5
50
102
{ACAD_REACTORS
330
47
102
}
330
47
100
AcDbScale
 70
     0
300
1:30
140
1.0
141
30.0
290
     0
  0
SCALE
  5
51
102
{ACAD_REACTORS
330
47
102
}
330
47
100
AcDbScale
 70
     0
300
1:40
140
1.0
141
40.0
290
     0
  0
SCALE
  5
52
102
{ACAD_REACTORS
330
47
102
}
330
47
100
AcDbScale
 70
     0
300
1:50
140
1.0
141
50.0
290
     0
  0
SCALE
  5
53
102
{ACAD_REACTORS
330
47
102
}
330
47
100
AcDbScale
 70
     0
300
1:100
140
1.0
141
100.0
290
     0
  0
SCALE
  5
54
102
{ACAD_REACTORS
330
47
102
}
330
47
100
AcDbScale
 70
     0
300
2:1
140
2.0
141
1.0
290
     0
  0
SCALE
  5
55
102
{ACAD_REACTORS
330
47
102
}
330
47
100
AcDbScale
 70
     0
300
4:1
140
4.0
141
1.0
290
     0
  0
SCALE
  5
56
102
{ACAD_REACTORS
330
47
102
}
330
47
100
AcDbScale
 70
     0
300
8:1
140
8.0
141
1.0
290
     0
  0
SCALE
  5
57
102
{ACAD_REACTORS
330
47
102
}
330
47
100
AcDbScale
 70
     0
300
10:1
140
10.0
141
1.0
290
     0
  0
SCALE
  5
58
102
{ACAD_REACTORS
330
47
102
}
330
47
100
AcDbScale
 70
     0
300
100:1
140
100.0
141
1.0
290
     0
  0
SCALE
  5
59
102
{ACAD_REACTORS
330
47
102
}
330
47
100
AcDbScale
 70
     0
300
1/128" = 1'-0"
140
0.0078125
141
12.0
290
     0
  0
SCALE
  5
5A
102
{ACAD_REACTORS
330
47
102
}
330
47
100
AcDbScale
 70
     0
300
1/64" = 1'-0"
140
0.015625
141
12.0
290
     0
  0
SCALE
  5
5B
102
{ACAD_REACTORS
330
47
102
}
330
47
100
AcDbScale
 70
     0
300
1/32" = 1'-0"
140
0.03125
141
12.0
290
     0
  0
SCALE
  5
5C
102
{ACAD_REACTORS
330
47
102
}
330
47
100
AcDbScale
 70
     0
300
1/16" = 1'-0"
140
0.0625
141
12.0
290
     0
  0
SCALE
  5
5D
102
{ACAD_REACTORS
330
47
102
}
330
47
100
AcDbScale
 70
     0
300
3/32" = 1'-0"
140
0.09375
141
12.0
290
     0
  0
SCALE
  5
5E
102
{ACAD_REACTORS
330
47
102
}
330
47
100
AcDbScale
 70
     0
300
1/8" = 1'-0"
140
0.125
141
12.0
290
     0
  0
SCALE
  5
5F
102
{ACAD_REACTORS
330
47
102
}
330
47
100
AcDbScale
 70
     0
300
3/16" = 1'-0"
140
0.1875
141
12.0
290
     0
  0
SCALE
  5
60
102
{ACAD_REACTORS
330
47
102
}
330
47
100
AcDbScale
 70
     0
300
1/4" = 1'-0"
140
0.25
141
12.0
290
     0
  0
SCALE
  5
61
102
{ACAD_REACTORS
330
47
102
}
330
47
100
AcDbScale
 70
     0
300
3/8" = 1'-0"
140
0.375
141
12.0
290
     0
  0
SCALE
  5
62
102
{ACAD_REACTORS
330
47
102
}
330
47
100
AcDbScale
 70
     0
300
1/2" = 1'-0"
140
0.5
141
12.0
290
     0
  0
SCALE
  5
63
102
{ACAD_REACTORS
330
47
102
}
330
47
100
AcDbScale
 70
     0
300
3/4" = 1'-0"
140
0.75
141
12.0
290
     0
  0
SCALE
  5
64
102
{ACAD_REACTORS
330
47
102
}
330
47
100
AcDbScale
 70
     0
300
1" = 1'-0"
140
1.0
141
12.0
290
     0
  0
SCALE
  5
65
102
{ACAD_REACTORS
330
47
102
}
330
47
100
AcDbScale
 70
     0
300
1-1/2" = 1'-0"
140
1.5
141
12.0
290
     0
  0
SCALE
  5
66
102
{ACAD_REACTORS
330
47
102
}
330
47
100
AcDbScale
 70
     0
300
3" = 1'-0"
140
3.0
141
12.0
290
     0
  0
SCALE
  5
67
102
{ACAD_REACTORS
330
47
102
}
330
47
100
AcDbScale
 70
     0
300
6" = 1'-0"
140
6.0
141
12.0
290
     0
  0
SCALE
  5
68
102
{ACAD_REACTORS
330
47
102
}
330
47
100
AcDbScale
 70
     0
300
1'-0" = 1'-0"
140
12.0
141
12.0
290
     0
  0
TABLESTYLE
  5
6A
102
{ACAD_REACTORS
330
69
102
}
102
{ACAD_XDICTIONARY
360
11A
102
}
330
69
100
AcDbTableStyle
  3
Standard
 70
     0
 71
     0
 40
0.06
 41
0.06
280
     0
281
     0
  7
Standard
140
0.18
170
     2
 62
     0
 63
   257
283
     0
274
    -2
284
     1
 64
     0
275
    -2
285
     1
 65
     0
276
    -2
286
     1
 66
     0
277
    -2
287
     1
 67
     0
278
    -2
288
     1
 68
     0
279
    -2
289
     1
 69
     0
  7
Standard
140
0.25
170
     5
 62
     0
 63
   257
283
     0
274
    -2
284
     1
 64
     0
275
    -2
285
     1
 65
     0
276
    -2
286
     1
 66
     0
277
    -2
287
     1
 67
     0
278
    -2
288
     1
 68
     0
279
    -2
289
     1
 69
     0
  7
Standard
140
0.18
170
     5
 62
     0
 63
   257
283
     0
274
    -2
284
     1
 64
     0
275
    -2
285
     1
 65
     0
276
    -2
286
     1
 66
     0
277
    -2
287
     1
 67
     0
278
    -2
288
     1
 68
     0
279
    -2
289
     1
 69
     0
  0
VISUALSTYLE
  5
2F
102
{ACAD_REACTORS
330
2A
102
}
102
{ACAD_XDICTIONARY
360
EC
102
}
330
2A
100
AcDbVisualStyle
  2
2dWireframe
 70
     4
 71
     0
 72
     2
 73
     0
 90
        0
 40
0.6
 41
30.0
 62
     5
 63
     7
421
 16777215
 74
     1
 91
        4
 64
     7
 65
   257
 75
     1
175
     1
 42
1.0
 92
        0
 66
   257
 43
1.0
 76
     1
 77
     6
 78
     2
 67
     7
 79
     5
170
     0
171
     0
290
     0
174
     0
 93
        1
 44
0.0
173
     0
291
     0
 45
0.0
1001
ACAD
1000
AcDbSavedByObjectVersion
1070
     0
  0
VISUALSTYLE
  5
32
102
{ACAD_REACTORS
330
2A
102
}
102
{ACAD_XDICTIONARY
360
F2
102
}
330
2A
100
AcDbVisualStyle
  2
Basic
 70
     7
 71
     1
 72
     0
 73
     1
 90
        0
 40
0.6
 41
30.0
 62
     5
 63
     7
421
 16777215
 74
     0
 91
        4
 64
     7
 65
   257
 75
     1
175
     1
 42
1.0
 92
        8
 66
     7
 43
1.0
 76
     1
 77
     6
 78
     2
 67
     7
 79
     5
170
     0
171
     0
290
     0
174
     0
 93
        1
 44
0.0
173
     0
291
     1
 45
0.0
1001
ACAD
1000
AcDbSavedByObjectVersion
1070
     0
  0
VISUALSTYLE
  5
36
102
{ACAD_REACTORS
330
2A
102
}
102
{ACAD_XDICTIONARY
360
FA
102
}
330
2A
100
AcDbVisualStyle
  2
Brighten
 70
    12
 71
     2
 72
     2
 73
     0
 90
        0
 40
0.6
 41
30.0
 62
     5
 63
     7
421
 16777215
 74
     1
 91
        4
 64
     7
 65
   257
 75
     1
175
     1
 42
1.0
 92
        8
 66
     7
 43
1.0
 76
     1
 77
     6
 78
     2
 67
     7
 79
     5
170
     0
171
     0
290
     0
174
     0
 93
        1
 44
50.0
173
     0
291
     1
 45
0.0
1001
ACAD
1000
AcDbSavedByObjectVersion
1070
     0
  0
VISUALSTYLE
  5
3A
102
{ACAD_REACTORS
330
2A
102
}
102
{ACAD_XDICTIONARY
360
102
102
}
330
2A
100
AcDbVisualStyle
  2
ColorChange
 70
    16
 71
     2
 72
     2
 73
     3
 90
        0
 40
0.6
 41
30.0
 62
     5
 63
     8
421
  8421504
 74
     1
 91
        4
 64
     7
 65
   257
 75
     1
175
     1
 42
1.0
 92
        8
 66
     8
424
  8421504
 43
1.0
 76
     1
 77
     6
 78
     2
 67
     7
 79
     5
170
     0
171
     0
290
     0
174
     0
 93
        1
 44
0.0
173
     0
291
     1
 45
0.0
1001
ACAD
1000
AcDbSavedByObjectVersion
1070
     0
  0
VISUALSTYLE
  5
34
102
{ACAD_REACTORS
330
2A
102
}
102
{ACAD_XDICTIONARY
360
F6
102
}
330
2A
100
AcDbVisualStyle
  2
Conceptual
 70
     9
 71
     3
 72
     2
 73
     0
 90
        0
 40
0.6
 41
30.0
 62
     5
 63
     7
421
 16777215
 74
     2
 91
        2
 64
     7
 65
   257
 75
     1
175
     1
 42
179.0
 92
        8
 66
     7
 43
1.0
 76
     1
 77
     6
 78
     2
 67
     7
 79
     3
170
     0
171
     0
290
     0
174
     0
 93
        1
 44
0.0
173
     0
291
     0
 45
0.0
1001
ACAD
1000
AcDbSavedByObjectVersion
1070
     0
  0
VISUALSTYLE
  5
35
102
{ACAD_REACTORS
330
2A
102
}
102
{ACAD_XDICTIONARY
360
F8
102
}
330
2A
100
AcDbVisualStyle
  2
Dim
 70
    11
 71
     2
 72
     2
 73
     0
 90
        0
 40
0.6
 41
30.0
 62
     5
 63
     7
421
 16777215
 74
     1
 91
        4
 64
     7
 65
   257
 75
     1
175
     1
 42
1.0
 92
        8
 66
     7
 43
1.0
 76
     1
 77
     6
 78
     2
 67
     7
 79
     5
170
     0
171
     0
290
     0
174
     0
 93
        1
 44
-50.0
173
     0
291
     1
 45
0.0
1001
ACAD
1000
AcDbSavedByObjectVersion
1070
     0
  0
VISUALSTYLE
  5
3D
102
{ACAD_REACTORS
330
2A
102
}
102
{ACAD_XDICTIONARY
360
108
102
}
330
2A
100
AcDbVisualStyle
  2
EdgeColorOff
 70
    22
 71
     2
 72
     2
 73
     0
 90
        0
 40
0.6
 41
30.0
 62
     5
 63
     7
421
 16777215
 74
     1
 91
        4
 64
     7
 65
   257
 75
     1
175
     1
 42
1.0
 92
        8
 66
     7
 43
1.0
 76
     1
 77
     6
 78
     2
 67
     7
 79
     5
170
     0
171
     0
290
     0
174
     0
 93
        1
 44
0.0
173
     0
291
     1
 45
0.0
1001
ACAD
1000
AcDbSavedByObjectVersion
1070
     0
  0
VISUALSTYLE
  5
39
102
{ACAD_REACTORS
330
2A
102
}
102
{ACAD_XDICTIONARY
360
100
102
}
330
2A
100
AcDbVisualStyle
  2
Facepattern
 70
    15
 71
     2
 72
     2
 73
     0
 90
        0
 40
0.6
 41
30.0
 62
     5
 63
     7
421
 16777215
 74
     1
 91
        4
 64
     7
 65
   257
 75
     1
175
     1
 42
1.0
 92
        8
 66
     7
 43
1.0
 76
     1
 77
     6
 78
     2
 67
     7
 79
     5
170
     0
171
     0
290
     0
174
     0
 93
        1
 44
0.0
173
     0
291
     1
 45
0.0
1001
ACAD
1000
AcDbSavedByObjectVersion
1070
     0
  0
VISUALSTYLE
  5
2B
102
{ACAD_REACTORS
330
2A
102
}
102
{ACAD_XDICTIONARY
360
E4
102
}
330
2A
100
AcDbVisualStyle
  2
Flat
 70
     0
 71
     2
 72
     1
 73
     1
 90
        2
 40
0.6
 41
30.0
 62
     5
 63
     7
421
 16777215
 74
     0
 91
        0
 64
     7
 65
   257
 75
     1
175
     1
 42
1.0
 92
        8
 66
     7
 43
1.0
 76
     1
 77
     6
 78
     2
 67
     7
 79
     5
170
     0
171
     0
290
     0
174
     0
 93
       13
 44
0.0
173
     0
291
     1
 45
0.0
1001
ACAD
1000
AcDbSavedByObjectVersion
1070
     0
  0
VISUALSTYLE
  5
2C
102
{ACAD_REACTORS
330
2A
102
}
102
{ACAD_XDICTIONARY
360
E6
102
}
330
2A
100
AcDbVisualStyle
  2
FlatWithEdges
 70
     1
 71
     2
 72
     1
 73
     1
 90
        2
 40
0.6
 41
30.0
 62
     5
 63
     7
421
 16777215
 74
     1
 91
        0
 64
     7
 65
   257
 75
     1
175
     1
 42
1.0
 92
        0
 66
   257
 43
1.0
 76
     1
 77
     6
 78
     2
 67
     7
 79
     5
170
     0
171
     0
290
     0
174
     0
 93
       13
 44
0.0
173
     0
291
     1
 45
0.0
1001
ACAD
1000
AcDbSavedByObjectVersion
1070
     0
  0
VISUALSTYLE
  5
2D
102
{ACAD_REACTORS
330
2A
102
}
102
{ACAD_XDICTIONARY
360
E8
102
}
330
2A
100
AcDbVisualStyle
  2
Gouraud
 70
     2
 71
     2
 72
     2
 73
     1
 90
        2
 40
0.6
 41
30.0
 62
     5
 63
     7
421
 16777215
 74
     0
 91
        0
 64
     7
 65
   257
 75
     1
175
     1
 42
1.0
 92
        0
 66
     7
 43
1.0
 76
     1
 77
     6
 78
     2
 67
     7
 79
     5
170
     0
171
     0
290
     0
174
     0
 93
       13
 44
0.0
173
     0
291
     1
 45
0.0
1001
ACAD
1000
AcDbSavedByObjectVersion
1070
     0
  0
VISUALSTYLE
  5
2E
102
{ACAD_REACTORS
330
2A
102
}
102
{ACAD_XDICTIONARY
360
EA
102
}
330
2A
100
AcDbVisualStyle
  2
GouraudWithEdges
 70
     3
 71
     2
 72
     2
 73
     1
 90
        2
 40
0.6
 41
30.0
 62
     5
 63
     7
421
 16777215
 74
     1
 91
        0
 64
     7
 65
   257
 75
     1
175
     1
 42
1.0
 92
        0
 66
   257
 43
1.0
 76
     1
 77
     6
 78
     2
 67
     7
 79
     5
170
     0
171
     0
290
     0
174
     0
 93
       13
 44
0.0
173
     0
291
     1
 45
0.0
1001
ACAD
1000
AcDbSavedByObjectVersion
1070
     0
  0
VISUALSTYLE
  5
31
102
{ACAD_REACTORS
330
2A
102
}
102
{ACAD_XDICTIONARY
360
F0
102
}
330
2A
100
AcDbVisualStyle
  2
Hidden
 70
     6
 71
     1
 72
     2
 73
     2
 90
        0
 40
0.6
 41
30.0
 62
     5
 63
     7
421
 16777215
 74
     2
 91
        2
 64
     7
 65
   257
 75
     2
175
     1
 42
40.0
 92
        0
 66
   257
 43
1.0
 76
     1
 77
     6
 78
     2
 67
     7
 79
     3
170
     0
171
     0
290
     0
174
     0
 93
        1
 44
0.0
173
     0
291
     0
 45
0.0
1001
ACAD
1000
AcDbSavedByObjectVersion
1070
     0
  0
VISUALSTYLE
  5
3B
102
{ACAD_REACTORS
330
2A
102
}
102
{ACAD_XDICTIONARY
360
104
102
}
330
2A
100
AcDbVisualStyle
  2
JitterOff
 70
    20
 71
     2
 72
     2
 73
     0
 90
        0
 40
0.6
 41
30.0
 62
     5
 63
     7
421
 16777215
 74
     1
 91
        4
 64
     7
 65
   257
 75
     1
175
     1
 42
1.0
 92
       10
 66
     7
 43
1.0
 76
     1
 77
     6
 78
     2
 67
     7
 79
     5
170
     0
171
     0
290
     0
174
     0
 93
        1
 44
0.0
173
     0
291
     1
 45
0.0
1001
ACAD
1000
AcDbSavedByObjectVersion
1070
     0
  0
VISUALSTYLE
  5
38
102
{ACAD_REACTORS
330
2A
102
}
102
{ACAD_XDICTIONARY
360
FE
102
}
330
2A
100
AcDbVisualStyle
  2
Linepattern
 70
    14
 71
     2
 72
     2
 73
     0
 90
        0
 40
0.6
 41
30.0
 62
     5
 63
     7
421
 16777215
 74
     1
 91
        4
 64
     7
 65
   257
 75
     7
175
     7
 42
1.0
 92
        8
 66
     7
 43
1.0
 76
     1
 77
     6
 78
     2
 67
     7
 79
     5
170
     0
171
     0
290
     0
174
     0
 93
        1
 44
0.0
173
     0
291
     1
 45
0.0
1001
ACAD
1000
AcDbSavedByObjectVersion
1070
     0
  0
VISUALSTYLE
  5
3C
102
{ACAD_REACTORS
330
2A
102
}
102
{ACAD_XDICTIONARY
360
106
102
}
330
2A
100
AcDbVisualStyle
  2
OverhangOff
 70
    21
 71
     2
 72
     2
 73
     0
 90
        0
 40
0.6
 41
30.0
 62
     5
 63
     7
421
 16777215
 74
     1
 91
        4
 64
     7
 65
   257
 75
     1
175
     1
 42
1.0
 92
        9
 66
     7
 43
1.0
 76
     1
 77
     6
 78
     2
 67
     7
 79
     5
170
     0
171
     0
290
     0
174
     0
 93
        1
 44
0.0
173
     0
291
     1
 45
0.0
1001
ACAD
1000
AcDbSavedByObjectVersion
1070
     0
  0
VISUALSTYLE
  5
33
102
{ACAD_REACTORS
330
2A
102
}
102
{ACAD_XDICTIONARY
360
F4
102
}
330
2A
100
AcDbVisualStyle
  2
Realistic
 70
     8
 71
     2
 72
     3
 73
     0
 90
        2
 40
0.6
 41
30.0
 62
     5
 63
     7
421
 16777215
 74
     0
 91
        0
 64
     7
 65
   257
 75
     1
175
     1
 42
1.0
 92
        8
 66
   257
 43
1.0
 76
     1
 77
     6
 78
     2
 67
     7
 79
     3
170
     0
171
     0
290
     0
174
     0
 93
       13
 44
0.0
173
     0
291
     0
 45
0.0
1001
ACAD
1000
AcDbSavedByObjectVersion
1070
     0
  0
VISUALSTYLE
  5
42
102
{ACAD_REACTORS
330
2A
102
}
102
{ACAD_XDICTIONARY
360
112
102
}
330
2A
100
AcDbVisualStyle
  2
Shaded
 70
    27
 71
     2
 72
     2
 73
     1
 90
        2
 40
0.6
 41
30.0
 62
     5
 63
     7
421
 16777215
 74
     0
 91
        4
 64
     7
 65
   257
 75
     1
175
     1
 42
1.0
 92
        8
 66
   257
 43
1.0
 76
     1
 77
     6
 78
     2
 67
     8
425
  7895160
 79
     3
170
     0
171
     0
290
     0
174
     0
 93
        5
 44
0.0
173
     0
291
     0
 45
0.0
1001
ACAD
1000
AcDbSavedByObjectVersion
1070
     0
  0
VISUALSTYLE
  5
41
102
{ACAD_REACTORS
330
2A
102
}
102
{ACAD_XDICTIONARY
360
110
102
}
330
2A
100
AcDbVisualStyle
  2
Shaded with edges
 70
    26
 71
     2
 72
     2
 73
     1
 90
        2
 40
0.6
 41
30.0
 62
     5
 63
     7
421
 16777215
 74
     1
 91
       10
 64
     7
 65
   257
 75
     2
175
     1
 42
1.0
 92
        8
 66
   257
 43
1.0
 76
     1
 77
     6
 78
     2
 67
     7
 79
     3
170
     0
171
     0
290
     0
174
     0
 93
        5
 44
0.0
173
     0
291
     0
 45
0.0
1001
ACAD
1000
AcDbSavedByObjectVersion
1070
     0
  0
VISUALSTYLE
  5
3E
102
{ACAD_REACTORS
330
2A
102
}
102
{ACAD_XDICTIONARY
360
10A
102
}
330
2A
100
AcDbVisualStyle
  2
Shades of Gray
 70
    23
 71
     2
 72
     2
 73
     3
 90
        0
 40
0.6
 41
30.0
 62
     5
 63
     7
421
 16777215
 74
     2
 91
        2
 64
     7
 65
     7
 75
     1
175
     1
 42
40.0
 92
        8
 66
     7
 43
1.0
 76
     1
 77
     6
 78
     2
 67
     7
 79
     3
170
     0
171
     0
290
     0
174
     0
 93
        1
 44
0.0
173
     0
291
     0
 45
0.0
1001
ACAD
1000
AcDbSavedByObjectVersion
1070
     0
  0
VISUALSTYLE
  5
3F
102
{ACAD_REACTORS
330
2A
102
}
102
{ACAD_XDICTIONARY
360
10C
102
}
330
2A
100
AcDbVisualStyle
  2
Sketchy
 70
    24
 71
     1
 72
     2
 73
     2
 90
        0
 40
0.6
 41
30.0
 62
     5
 63
     7
421
 16777215
 74
     2
 91
        2
 64
     7
 65
     7
 75
     1
175
     1
 42
40.0
 92
       11
 66
     7
 43
1.0
 76
     1
 77
     6
 78
     2
 67
     7
 79
     6
170
     0
171
     0
290
     0
174
     0
 93
        1
 44
0.0
173
     0
291
     0
 45
0.0
1001
ACAD
1000
AcDbSavedByObjectVersion
1070
     0
  0
VISUALSTYLE
  5
37
102
{ACAD_REACTORS
330
2A
102
}
102
{ACAD_XDICTIONARY
360
FC
102
}
330
2A
100
AcDbVisualStyle
  2
Thicken
 70
    13
 71
     2
 72
     2
 73
     0
 90
        0
 40
0.6
 41
30.0
 62
     5
 63
     7
421
 16777215
 74
     1
 91
        4
 64
     7
 65
   257
 75
     1
175
     1
 42
1.0
 92
       12
 66
     7
 43
1.0
 76
     1
 77
     6
 78
     2
 67
     7
 79
     5
170
     0
171
     0
290
     0
174
     0
 93
        1
 44
0.0
173
     0
291
     1
 45
0.0
1001
ACAD
1000
AcDbSavedByObjectVersion
1070
     0
  0
VISUALSTYLE
  5
30
102
{ACAD_REACTORS
330
2A
102
}
102
{ACAD_XDICTIONARY
360
EE
102
}
330
2A
100
AcDbVisualStyle
  2
Wireframe
 70
     5
 71
     0
 72
     2
 73
     0
 90
        0
 40
0.6
 41
30.0
 62
     5
 63
     7
421
 16777215
 74
     1
 91
        4
 64
     7
 65
   257
 75
     1
175
     1
 42
1.0
 92
        0
 66
   257
 43
1.0
 76
     1
 77
     6
 78
     2
 67
     7
 79
     3
170
     0
171
     0
290
     0
174
     0
 93
        1
 44
0.0
173
     0
291
     0
 45
0.0
1001
ACAD
1000
AcDbSavedByObjectVersion
1070
     0
  0
VISUALSTYLE
  5
40
102
{ACAD_REACTORS
330
2A
102
}
102
{ACAD_XDICTIONARY
360
10E
102
}
330
2A
100
AcDbVisualStyle
  2
X-Ray
 70
    25
 71
     2
 72
     2
 73
     1
 90
        1
 40
0.5
 41
30.0
 62
     5
 63
     7
421
 16777215
 74
     1
 91
        0
 64
     7
 65
   257
 75
     1
175
     1
 42
1.0
 92
        8
 66
     7
 43
1.0
 76
     1
 77
     6
 78
     2
 67
     7
 79
     3
170
     0
171
     0
290
     0
174
     0
 93
       13
 44
0.0
173
     0
291
     0
 45
0.0
1001
ACAD
1000
AcDbSavedByObjectVersion
1070
     0
  0
DICTIONARYVAR
  5
E1
102
{ACAD_REACTORS
330
E0
102
}
330
E0
100
DictionaryVariables
280
     0
  1
1:1
  0
DICTIONARYVAR
  5
122
102
{ACAD_REACTORS
330
E0
102
}
330
E0
100
DictionaryVariables
280
     0
  1
Standard
  0
DICTIONARYVAR
  5
121
102
{ACAD_REACTORS
330
E0
102
}
330
E0
100
DictionaryVariables
280
     0
  1
Standard
  0
DICTIONARYVAR
  5
E2
102
{ACAD_REACTORS
330
E0
102
}
330
E0
100
DictionaryVariables
280
     0
  1
1
  0
DICTIONARYVAR
  5
E3
102
{ACAD_REACTORS
330
E0
102
}
330
E0
100
DictionaryVariables
280
     0
  1
2
  0
DICTIONARY
  5
116
330
45
100
AcDbDictionary
280
     1
281
     1
  3
ACAD_XREC_ROUNDTRIP
360
117
  0
DICTIONARY
  5
114
330
44
100
AcDbDictionary
280
     1
281
     1
  3
ACAD_XREC_ROUNDTRIP
360
115
  0
DICTIONARY
  5
118
330
46
100
AcDbDictionary
280
     1
281
     1
  3
ACAD_XREC_ROUNDTRIP
360
119
  0
DICTIONARY
  5
11E
330
6C
100
AcDbDictionary
280
     1
281
     1
  3
ACAD_XREC_ROUNDTRIP
360
11F
  0
DICTIONARY
  5
11A
330
6A
100
AcDbDictionary
280
     1
281
     1
  3
ACAD_ROUNDTRIP_2008_TABLESTYLE_CELLSTYLEMAP
360
11C
  3
ACAD_XREC_ROUNDTRIP
360
11B
  0
DICTIONARY
  5
EC
330
2F
100
AcDbDictionary
280
     1
281
     1
  3
ACAD_XREC_ROUNDTRIP
360
ED
  0
DICTIONARY
  5
F2
330
32
100
AcDbDictionary
280
     1
281
     1
  3
ACAD_XREC_ROUNDTRIP
360
F3
  0
DICTIONARY
  5
FA
330
36
100
AcDbDictionary
280
     1
281
     1
  3
ACAD_XREC_ROUNDTRIP
360
FB
  0
DICTIONARY
  5
102
330
3A
100
AcDbDictionary
280
     1
281
     1
  3
ACAD_XREC_ROUNDTRIP
360
103
  0
DICTIONARY
  5
F6
330
34
100
AcDbDictionary
280
     1
281
     1
  3
ACAD_XREC_ROUNDTRIP
360
F7
  0
DICTIONARY
  5
F8
330
35
100
AcDbDictionary
280
     1
281
     1
  3
ACAD_XREC_ROUNDTRIP
360
F9
  0
DICTIONARY
  5
108
330
3D
100
AcDbDictionary
280
     1
281
     1
  3
ACAD_XREC_ROUNDTRIP
360
109
  0
DICTIONARY
  5
100
330
39
100
AcDbDictionary
280
     1
281
     1
  3
ACAD_XREC_ROUNDTRIP
360
101
  0
DICTIONARY
  5
E4
330
2B
100
AcDbDictionary
280
     1
281
     1
  3
ACAD_XREC_ROUNDTRIP
360
E5
  0
DICTIONARY
  5
E6
330
2C
100
AcDbDictionary
280
     1
281
     1
  3
ACAD_XREC_ROUNDTRIP
360
E7
  0
DICTIONARY
  5
E8
330
2D
100
AcDbDictionary
280
     1
281
     1
  3
ACAD_XREC_ROUNDTRIP
360
E9
  0
DICTIONARY
  5
EA
330
2E
100
AcDbDictionary
280
     1
281
     1
  3
ACAD_XREC_ROUNDTRIP
360
EB
  0
DICTIONARY
  5
F0
330
31
100
AcDbDictionary
280
     1
281
     1
  3
ACAD_XREC_ROUNDTRIP
360
F1
  0
DICTIONARY
  5
104
330
3B
100
AcDbDictionary
280
     1
281
     1
  3
ACAD_XREC_ROUNDTRIP
360
105
  0
DICTIONARY
  5
FE
330
38
100
AcDbDictionary
280
     1
281
     1
  3
ACAD_XREC_ROUNDTRIP
360
FF
  0
DICTIONARY
  5
106
330
3C
100
AcDbDictionary
280
     1
281
     1
  3
ACAD_XREC_ROUNDTRIP
360
107
  0
DICTIONARY
  5
F4
330
33
100
AcDbDictionary
280
     1
281
     1
  3
ACAD_XREC_ROUNDTRIP
360
F5
  0
DICTIONARY
  5
112
330
42
100
AcDbDictionary
280
     1
281
     1
  3
ACAD_XREC_ROUNDTRIP
360
113
  0
DICTIONARY
  5
110
330
41
100
AcDbDictionary
280
     1
281
     1
  3
ACAD_XREC_ROUNDTRIP
360
111
  0
DICTIONARY
  5
10A
330
3E
100
AcDbDictionary
280
     1
281
     1
  3
ACAD_XREC_ROUNDTRIP
360
10B
  0
DICTIONARY
  5
10C
330
3F
100
AcDbDictionary
280
     1
281
     1
  3
ACAD_XREC_ROUNDTRIP
360
10D
  0
DICTIONARY
  5
FC
330
37
100
AcDbDictionary
280
     1
281
     1
  3
ACAD_XREC_ROUNDTRIP
360
FD
  0
DICTIONARY
  5
EE
330
30
100
AcDbDictionary
280
     1
281
     1
  3
ACAD_XREC_ROUNDTRIP
360
EF
  0
DICTIONARY
  5
10E
330
40
100
AcDbDictionary
280
     1
281
     1
  3
ACAD_XREC_ROUNDTRIP
360
10F
  0
XRECORD
  5
117
102
{ACAD_REACTORS
330
116
102
}
330
116
100
AcDbXrecord
280
     1
102
MATERIAL
148
0.0
149
0.0
149
0.0
 93
        0
 94
      127
282
     0
 72
     1
 77
     1
171
     1
175
     1
179
     1
273
     0
  0
XRECORD
  5
115
102
{ACAD_REACTORS
330
114
102
}
330
114
100
AcDbXrecord
280
     1
102
MATERIAL
148
0.0
149
0.0
149
0.0
 93
        0
 94
      127
282
     0
 72
     1
 77
     1
171
     1
175
     1
179
     1
273
     0
  0
XRECORD
  5
119
102
{ACAD_REACTORS
330
118
102
}
330
118
100
AcDbXrecord
280
     1
102
MATERIAL
148
0.0
149
0.0
149
0.0
 93
        0
 94
      127
282
     0
 72
     1
 77
     1
171
     1
175
     1
179
     1
273
     0
  0
XRECORD
  5
11F
102
{ACAD_REACTORS
330
11E
102
}
330
11E
100
AcDbXrecord
280
     1
102
ACAD_ROUNDTRIP_2010_MLEADER_STYLE
  0
CELLSTYLEMAP
  5
11C
102
{ACAD_REACTORS
330
11A
102
}
330
11A
100
AcDbCellStyleMap
 90
        3
300
CELLSTYLE
  1
TABLEFORMAT_BEGIN
 90
        5
170
     1
 91
        0
 92
    32768
 62
   257
 93
        1
300
CONTENTFORMAT
  1
CONTENTFORMAT_BEGIN
 90
        0
 91
        0
 92
        4
 93
        0
300

 40
0.0
140
1.0
 94
        5
 62
     0
340
11
144
0.25
309
CONTENTFORMAT_END
171
     1
301
MARGIN
  1
CELLMARGIN_BEGIN
 40
0.06
 40
0.06
 40
0.06
 40
0.06
 40
0.06
 40
0.06
309
CELLMARGIN_END
 94
        6
 95
        1
302
GRIDFORMAT
  1
GRIDFORMAT_BEGIN
 90
        0
 91
        1
 62
     0
 92
       -2
340
14
 93
        0
 40
0.045
309
GRIDFORMAT_END
 95
        2
302
GRIDFORMAT
  1
GRIDFORMAT_BEGIN
 90
        0
 91
        1
 62
     0
 92
       -2
340
14
 93
        0
 40
0.045
309
GRIDFORMAT_END
 95
        4
302
GRIDFORMAT
  1
GRIDFORMAT_BEGIN
 90
        0
 91
        1
 62
     0
 92
       -2
340
14
 93
        0
 40
0.045
309
GRIDFORMAT_END
 95
        8
302
GRIDFORMAT
  1
GRIDFORMAT_BEGIN
 90
        0
 91
        1
 62
     0
 92
       -2
340
14
 93
        0
 40
0.045
309
GRIDFORMAT_END
 95
       16
302
GRIDFORMAT
  1
GRIDFORMAT_BEGIN
 90
        0
 91
        1
 62
     0
 92
       -2
340
14
 93
        0
 40
0.045
309
GRIDFORMAT_END
 95
       32
302
GRIDFORMAT
  1
GRIDFORMAT_BEGIN
 90
        0
 91
        1
 62
     0
 92
       -2
340
14
 93
        0
 40
0.045
309
GRIDFORMAT_END
309
TABLEFORMAT_END
  1
CELLSTYLE_BEGIN
 90
        1
 91
        1
300
_TITLE
309
CELLSTYLE_END
300
CELLSTYLE
  1
TABLEFORMAT_BEGIN
 90
        5
170
     1
 91
        0
 92
        0
 62
   257
 93
        1
300
CONTENTFORMAT
  1
CONTENTFORMAT_BEGIN
 90
        0
 91
        0
 92
        4
 93
        0
300

 40
0.0
140
1.0
 94
        5
 62
     0
340
11
144
0.18
309
CONTENTFORMAT_END
171
     1
301
MARGIN
  1
CELLMARGIN_BEGIN
 40
0.06
 40
0.06
 40
0.06
 40
0.06
 40
0.06
 40
0.06
309
CELLMARGIN_END
 94
        6
 95
        1
302
GRIDFORMAT
  1
GRIDFORMAT_BEGIN
 90
        0
 91
        1
 62
     0
 92
       -2
340
14
 93
        0
 40
0.045
309
GRIDFORMAT_END
 95
        2
302
GRIDFORMAT
  1
GRIDFORMAT_BEGIN
 90
        0
 91
        1
 62
     0
 92
       -2
340
14
 93
        0
 40
0.045
309
GRIDFORMAT_END
 95
        4
302
GRIDFORMAT
  1
GRIDFORMAT_BEGIN
 90
        0
 91
        1
 62
     0
 92
       -2
340
14
 93
        0
 40
0.045
309
GRIDFORMAT_END
 95
        8
302
GRIDFORMAT
  1
GRIDFORMAT_BEGIN
 90
        0
 91
        1
 62
     0
 92
       -2
340
14
 93
        0
 40
0.045
309
GRIDFORMAT_END
 95
       16
302
GRIDFORMAT
  1
GRIDFORMAT_BEGIN
 90
        0
 91
        1
 62
     0
 92
       -2
340
14
 93
        0
 40
0.045
309
GRIDFORMAT_END
 95
       32
302
GRIDFORMAT
  1
GRIDFORMAT_BEGIN
 90
        0
 91
        1
 62
     0
 92
       -2
340
14
 93
        0
 40
0.045
309
GRIDFORMAT_END
309
TABLEFORMAT_END
  1
CELLSTYLE_BEGIN
 90
        2
 91
        1
300
_HEADER
309
CELLSTYLE_END
300
CELLSTYLE
  1
TABLEFORMAT_BEGIN
 90
        5
170
     1
 91
        0
 92
        0
 62
   257
 93
        1
300
CONTENTFORMAT
  1
CONTENTFORMAT_BEGIN
 90
        0
 91
        0
 92
        4
 93
        0
300

 40
0.0
140
1.0
 94
        2
 62
     0
340
11
144
0.18
309
CONTENTFORMAT_END
171
     1
301
MARGIN
  1
CELLMARGIN_BEGIN
 40
0.06
 40
0.06
 40
0.06
 40
0.06
 40
0.06
 40
0.06
309
CELLMARGIN_END
 94
        6
 95
        1
302
GRIDFORMAT
  1
GRIDFORMAT_BEGIN
 90
        0
 91
        1
 62
     0
 92
       -2
340
14
 93
        0
 40
0.045
309
GRIDFORMAT_END
 95
        2
302
GRIDFORMAT
  1
GRIDFORMAT_BEGIN
 90
        0
 91
        1
 62
     0
 92
       -2
340
14
 93
        0
 40
0.045
309
GRIDFORMAT_END
 95
        4
302
GRIDFORMAT
  1
GRIDFORMAT_BEGIN
 90
        0
 91
        1
 62
     0
 92
       -2
340
14
 93
        0
 40
0.045
309
GRIDFORMAT_END
 95
        8
302
GRIDFORMAT
  1
GRIDFORMAT_BEGIN
 90
        0
 91
        1
 62
     0
 92
       -2
340
14
 93
        0
 40
0.045
309
GRIDFORMAT_END
 95
       16
302
GRIDFORMAT
  1
GRIDFORMAT_BEGIN
 90
        0
 91
        1
 62
     0
 92
       -2
340
14
 93
        0
 40
0.045
309
GRIDFORMAT_END
 95
       32
302
GRIDFORMAT
  1
GRIDFORMAT_BEGIN
 90
        0
 91
        1
 62
     0
 92
       -2
340
14
 93
        0
 40
0.045
309
GRIDFORMAT_END
309
TABLEFORMAT_END
  1
CELLSTYLE_BEGIN
 90
        3
 91
        2
300
_DATA
309
CELLSTYLE_END
  0
XRECORD
  5
11B
102
{ACAD_REACTORS
330
11A
102
}
330
11A
100
AcDbXrecord
280
     1
102
ACAD_ROUNDTRIP_PRE2007_TABLESTYLE
 90
        4
 91
        0
  1

 92
        4
 93
        0
  2

 94
        4
 95
        0
  3

  0
XRECORD
  5
ED
102
{ACAD_REACTORS
330
EC
102
}
330
EC
100
AcDbXrecord
280
     1
102
RTVSPropertyOp0
 70
     1
102
RTVSPropertyOp1
 70
     1
102
RTVSPropertyOp2
 70
     1
102
RTVSPropertyOp3
 70
     1
102
RTVSPropertyOp4
 70
     1
102
RTVSPropertyOp5
 70
     1
102
RTVSPropertyOp6
 70
     1
102
RTVSPropertyOp7
 70
     1
102
RTVSPropertyOp8
 70
     1
102
RTVSPropertyOp9
 70
     1
102
RTVSPropertyOp10
 70
     1
102
RTVSPropertyOp11
 70
     1
102
RTVSPropertyOp12
 70
     1
102
RTVSPropertyOp13
 70
     1
102
RTVSPropertyOp14
 70
     1
102
RTVSPropertyOp15
 70
     1
102
RTVSPropertyOp16
 70
     1
102
RTVSPropertyOp17
 70
     1
102
RTVSPropertyOp18
 70
     1
102
RTVSPropertyOp19
 70
     1
102
RTVSPropertyOp20
 70
     1
102
RTVSPropertyOp21
 70
     1
102
RTVSPropertyOp22
 70
     1
102
RTVSPropertyOp23
 70
     1
102
RTVSPropertyOp24
 70
     1
102
RTVSPropertyOp25
 70
     1
102
RTVSPropertyOp26
 70
     1
102
RTVSPropertyOp27
 70
     1
102
RTVSPropertyOp28
 70
     1
102
RTVSPropertyOp29
 70
     1
102
RTVSPropertyOp30
 70
     1
102
RTVSPropertyOp31
 70
     1
102
RTVSPropertyOp32
 70
     1
102
RTVSPropertyOp33
 70
     1
102
RTVSPropertyOp34
 70
     1
102
RTVSPropertyOp35
 70
     1
102
RTVSPropertyOp36
 70
     1
102
RTVSPropertyOp37
 70
     1
102
RTVSPropertyOp38
 70
     1
102
RTVSPropertyOp39
 70
     1
102
RTVSPropertyOp40
 70
     1
102
RTVSPropertyOp41
 70
     1
102
RTVSPropertyOp42
 70
     1
102
RTVSPropertyOp43
 70
     1
102
RTVSPropertyOp44
 70
     1
102
RTVSPropertyOp45
 70
     1
102
RTVSPropertyOp46
 70
     1
102
RTVSPropertyOp47
 70
     1
102
RTVSPropertyOp48
 70
     1
102
RTVSPropertyOp49
 70
     1
102
RTVSPropertyOp50
 70
     1
102
RTVSPropertyOp51
 70
     0
102
RTVSPropertyOp52
 70
     0
102
RTVSPropertyOp53
 70
     1
102
RTVSPropertyOp54
 70
     1
102
RTVSPropertyOp55
 70
     1
102
RTVSPropertyOp56
 70
     1
102
RTVSPropertyOp57
 70
     1
102
RTVSPost2010Prop28
280
     1
102
RTVSPost2010PropOp28
 70
     1
102
RTVSPost2010Prop29
280
     1
102
RTVSPost2010PropOp29
 70
     1
102
RTVSPost2010Prop30
280
     0
102
RTVSPost2010PropOp30
 70
     1
102
RTVSPost2010Prop31
280
     0
102
RTVSPost2010PropOp31
 70
     1
102
RTVSPost2010Prop32
280
     0
102
RTVSPost2010PropOp32
 70
     1
102
RTVSPost2010Prop33
280
     0
102
RTVSPost2010PropOp33
 70
     1
102
RTVSPost2010Prop34
280
     0
102
RTVSPost2010PropOp34
 70
     1
102
RTVSPost2010Prop35
280
     0
102
RTVSPost2010PropOp35
 70
     1
102
RTVSPost2010Prop36
280
     0
102
RTVSPost2010PropOp36
 70
     1
102
RTVSPost2010Prop37
 90
       50
102
RTVSPost2010PropOp37
 70
     1
102
RTVSPost2010Prop38
140
0.0
102
RTVSPost2010PropOp38
 70
     1
102
RTVSPost2010Prop39
140
1.0
102
RTVSPost2010PropOp39
 70
     1
102
RTVSPost2010Prop40
 90
        0
102
RTVSPost2010PropOp40
 70
     1
102
RTVSPost2010Prop41ColorIndex
 90
       18
102
RTVSPost2010Prop41ColorRGB
 90
        0
102
RTVSPost2010PropOp41
 70
     1
102
RTVSPost2010Prop42
 90
       50
102
RTVSPost2010PropOp42
 70
     1
102
RTVSPost2010Prop43
 90
        3
102
RTVSPost2010PropOp43
 70
     1
102
RTVSPost2010Prop44ColorIndex
 90
        5
102
RTVSPost2010Prop44ColorRGB
 90
      255
102
RTVSPost2010PropOp44
 70
     1
102
RTVSPost2010Prop45
280
     0
102
RTVSPost2010PropOp45
 70
     1
102
RTVSPost2010Prop46
 90
       50
102
RTVSPost2010PropOp46
 70
     1
102
RTVSPost2010Prop47
 90
       50
102
RTVSPost2010PropOp47
 70
     1
102
RTVSPost2010Prop48
 90
       50
102
RTVSPost2010PropOp48
 70
     1
102
RTVSPost2010Prop49
280
     0
102
RTVSPost2010PropOp49
 70
     1
102
RTVSPost2010Prop50
 90
       50
102
RTVSPost2010PropOp50
 70
     1
102
RTVSPost2010Prop51ColorIndex
 90
      256
102
RTVSPost2010Prop51ColorRGB
 90
-16777216
102
RTVSPost2010PropOp51
 70
     0
102
RTVSPost2010Prop52
140
1.0
102
RTVSPost2010PropOp52
 70
     0
102
RTVSPost2010Prop53
 90
        2
102
RTVSPost2010PropOp53
 70
     1
102
RTVSPost2010Prop54
  1
strokes_ogs.tif
102
RTVSPost2010PropOp54
 70
     1
102
RTVSPost2010Prop55
280
     0
102
RTVSPost2010PropOp55
 70
     1
102
RTVSPost2010Prop56
140
1.0
102
RTVSPost2010PropOp56
 70
     1
102
RTVSPost2010Prop57
140
1.0
102
RTVSPost2010PropOp57
 70
     1
  0
XRECORD
  5
F3
102
{ACAD_REACTORS
330
F2
102
}
330
F2
100
AcDbXrecord
280
     1
102
RTVSPropertyOp0
 70
     1
102
RTVSPropertyOp1
 70
     1
102
RTVSPropertyOp2
 70
     1
102
RTVSPropertyOp3
 70
     1
102
RTVSPropertyOp4
 70
     1
102
RTVSPropertyOp5
 70
     1
102
RTVSPropertyOp6
 70
     1
102
RTVSPropertyOp7
 70
     1
102
RTVSPropertyOp8
 70
     1
102
RTVSPropertyOp9
 70
     1
102
RTVSPropertyOp10
 70
     1
102
RTVSPropertyOp11
 70
     1
102
RTVSPropertyOp12
 70
     1
102
RTVSPropertyOp13
 70
     1
102
RTVSPropertyOp14
 70
     1
102
RTVSPropertyOp15
 70
     1
102
RTVSPropertyOp16
 70
     1
102
RTVSPropertyOp17
 70
     1
102
RTVSPropertyOp18
 70
     1
102
RTVSPropertyOp19
 70
     1
102
RTVSPropertyOp20
 70
     1
102
RTVSPropertyOp21
 70
     1
102
RTVSPropertyOp22
 70
     1
102
RTVSPropertyOp23
 70
     1
102
RTVSPropertyOp24
 70
     1
102
RTVSPropertyOp25
 70
     1
102
RTVSPropertyOp26
 70
     1
102
RTVSPropertyOp27
 70
     1
102
RTVSPropertyOp28
 70
     1
102
RTVSPropertyOp29
 70
     1
102
RTVSPropertyOp30
 70
     1
102
RTVSPropertyOp31
 70
     1
102
RTVSPropertyOp32
 70
     1
102
RTVSPropertyOp33
 70
     1
102
RTVSPropertyOp34
 70
     1
102
RTVSPropertyOp35
 70
     1
102
RTVSPropertyOp36
 70
     1
102
RTVSPropertyOp37
 70
     1
102
RTVSPropertyOp38
 70
     1
102
RTVSPropertyOp39
 70
     1
102
RTVSPropertyOp40
 70
     1
102
RTVSPropertyOp41
 70
     1
102
RTVSPropertyOp42
 70
     1
102
RTVSPropertyOp43
 70
     1
102
RTVSPropertyOp44
 70
     1
102
RTVSPropertyOp45
 70
     1
102
RTVSPropertyOp46
 70
     1
102
RTVSPropertyOp47
 70
     1
102
RTVSPropertyOp48
 70
     1
102
RTVSPropertyOp49
 70
     1
102
RTVSPropertyOp50
 70
     1
102
RTVSPropertyOp51
 70
     0
102
RTVSPropertyOp52
 70
     0
102
RTVSPropertyOp53
 70
     1
102
RTVSPropertyOp54
 70
     1
102
RTVSPropertyOp55
 70
     1
102
RTVSPropertyOp56
 70
     1
102
RTVSPropertyOp57
 70
     1
102
RTVSPost2010Prop28
280
     0
102
RTVSPost2010PropOp28
 70
     1
102
RTVSPost2010Prop29
280
     1
102
RTVSPost2010PropOp29
 70
     1
102
RTVSPost2010Prop30
280
     1
102
RTVSPost2010PropOp30
 70
     1
102
RTVSPost2010Prop31
280
     0
102
RTVSPost2010PropOp31
 70
     1
102
RTVSPost2010Prop32
280
     0
102
RTVSPost2010PropOp32
 70
     1
102
RTVSPost2010Prop33
280
     0
102
RTVSPost2010PropOp33
 70
     1
102
RTVSPost2010Prop34
280
     0
102
RTVSPost2010PropOp34
 70
     1
102
RTVSPost2010Prop35
280
     0
102
RTVSPost2010PropOp35
 70
     1
102
RTVSPost2010Prop36
280
     0
102
RTVSPost2010PropOp36
 70
     1
102
RTVSPost2010Prop37
 90
       50
102
RTVSPost2010PropOp37
 70
     1
102
RTVSPost2010Prop38
140
0.0
102
RTVSPost2010PropOp38
 70
     1
102
RTVSPost2010Prop39
140
1.0
102
RTVSPost2010PropOp39
 70
     1
102
RTVSPost2010Prop40
 90
        0
102
RTVSPost2010PropOp40
 70
     1
102
RTVSPost2010Prop41ColorIndex
 90
       18
102
RTVSPost2010Prop41ColorRGB
 90
        0
102
RTVSPost2010PropOp41
 70
     1
102
RTVSPost2010Prop42
 90
       50
102
RTVSPost2010PropOp42
 70
     1
102
RTVSPost2010Prop43
 90
        3
102
RTVSPost2010PropOp43
 70
     1
102
RTVSPost2010Prop44ColorIndex
 90
        5
102
RTVSPost2010Prop44ColorRGB
 90
      255
102
RTVSPost2010PropOp44
 70
     1
102
RTVSPost2010Prop45
280
     0
102
RTVSPost2010PropOp45
 70
     1
102
RTVSPost2010Prop46
 90
       50
102
RTVSPost2010PropOp46
 70
     1
102
RTVSPost2010Prop47
 90
       50
102
RTVSPost2010PropOp47
 70
     1
102
RTVSPost2010Prop48
 90
       50
102
RTVSPost2010PropOp48
 70
     1
102
RTVSPost2010Prop49
280
     0
102
RTVSPost2010PropOp49
 70
     1
102
RTVSPost2010Prop50
 90
       50
102
RTVSPost2010PropOp50
 70
     1
102
RTVSPost2010Prop51ColorIndex
 90
      256
102
RTVSPost2010Prop51ColorRGB
 90
-16777216
102
RTVSPost2010PropOp51
 70
     0
102
RTVSPost2010Prop52
140
1.0
102
RTVSPost2010PropOp52
 70
     0
102
RTVSPost2010Prop53
 90
        2
102
RTVSPost2010PropOp53
 70
     1
102
RTVSPost2010Prop54
  1
strokes_ogs.tif
102
RTVSPost2010PropOp54
 70
     1
102
RTVSPost2010Prop55
280
     0
102
RTVSPost2010PropOp55
 70
     1
102
RTVSPost2010Prop56
140
1.0
102
RTVSPost2010PropOp56
 70
     1
102
RTVSPost2010Prop57
140
1.0
102
RTVSPost2010PropOp57
 70
     1
  0
XRECORD
  5
FB
102
{ACAD_REACTORS
330
FA
102
}
330
FA
100
AcDbXrecord
280
     1
102
RTVSPropertyOp0
 70
     1
102
RTVSPropertyOp1
 70
     1
102
RTVSPropertyOp2
 70
     1
102
RTVSPropertyOp3
 70
     1
102
RTVSPropertyOp4
 70
     1
102
RTVSPropertyOp5
 70
     1
102
RTVSPropertyOp6
 70
     1
102
RTVSPropertyOp7
 70
     1
102
RTVSPropertyOp8
 70
     1
102
RTVSPropertyOp9
 70
     1
102
RTVSPropertyOp10
 70
     1
102
RTVSPropertyOp11
 70
     1
102
RTVSPropertyOp12
 70
     1
102
RTVSPropertyOp13
 70
     1
102
RTVSPropertyOp14
 70
     1
102
RTVSPropertyOp15
 70
     1
102
RTVSPropertyOp16
 70
     1
102
RTVSPropertyOp17
 70
     1
102
RTVSPropertyOp18
 70
     1
102
RTVSPropertyOp19
 70
     1
102
RTVSPropertyOp20
 70
     1
102
RTVSPropertyOp21
 70
     1
102
RTVSPropertyOp22
 70
     1
102
RTVSPropertyOp23
 70
     1
102
RTVSPropertyOp24
 70
     1
102
RTVSPropertyOp25
 70
     1
102
RTVSPropertyOp26
 70
     1
102
RTVSPropertyOp27
 70
     1
102
RTVSPropertyOp28
 70
     1
102
RTVSPropertyOp29
 70
     1
102
RTVSPropertyOp30
 70
     1
102
RTVSPropertyOp31
 70
     1
102
RTVSPropertyOp32
 70
     1
102
RTVSPropertyOp33
 70
     1
102
RTVSPropertyOp34
 70
     1
102
RTVSPropertyOp35
 70
     1
102
RTVSPropertyOp36
 70
     1
102
RTVSPropertyOp37
 70
     1
102
RTVSPropertyOp38
 70
     1
102
RTVSPropertyOp39
 70
     1
102
RTVSPropertyOp40
 70
     1
102
RTVSPropertyOp41
 70
     1
102
RTVSPropertyOp42
 70
     1
102
RTVSPropertyOp43
 70
     1
102
RTVSPropertyOp44
 70
     1
102
RTVSPropertyOp45
 70
     1
102
RTVSPropertyOp46
 70
     1
102
RTVSPropertyOp47
 70
     1
102
RTVSPropertyOp48
 70
     1
102
RTVSPropertyOp49
 70
     1
102
RTVSPropertyOp50
 70
     1
102
RTVSPropertyOp51
 70
     0
102
RTVSPropertyOp52
 70
     0
102
RTVSPropertyOp53
 70
     1
102
RTVSPropertyOp54
 70
     1
102
RTVSPropertyOp55
 70
     1
102
RTVSPropertyOp56
 70
     1
102
RTVSPropertyOp57
 70
     1
102
RTVSPost2010Prop28
280
     0
102
RTVSPost2010PropOp28
 70
     1
102
RTVSPost2010Prop29
280
     1
102
RTVSPost2010PropOp29
 70
     1
102
RTVSPost2010Prop30
280
     1
102
RTVSPost2010PropOp30
 70
     1
102
RTVSPost2010Prop31
280
     0
102
RTVSPost2010PropOp31
 70
     1
102
RTVSPost2010Prop32
280
     0
102
RTVSPost2010PropOp32
 70
     1
102
RTVSPost2010Prop33
280
     0
102
RTVSPost2010PropOp33
 70
     1
102
RTVSPost2010Prop34
280
     0
102
RTVSPost2010PropOp34
 70
     1
102
RTVSPost2010Prop35
280
     0
102
RTVSPost2010PropOp35
 70
     1
102
RTVSPost2010Prop36
280
     0
102
RTVSPost2010PropOp36
 70
     1
102
RTVSPost2010Prop37
 90
       50
102
RTVSPost2010PropOp37
 70
     1
102
RTVSPost2010Prop38
140
0.0
102
RTVSPost2010PropOp38
 70
     1
102
RTVSPost2010Prop39
140
1.0
102
RTVSPost2010PropOp39
 70
     1
102
RTVSPost2010Prop40
 90
        0
102
RTVSPost2010PropOp40
 70
     1
102
RTVSPost2010Prop41ColorIndex
 90
       18
102
RTVSPost2010Prop41ColorRGB
 90
        0
102
RTVSPost2010PropOp41
 70
     1
102
RTVSPost2010Prop42
 90
       50
102
RTVSPost2010PropOp42
 70
     1
102
RTVSPost2010Prop43
 90
        3
102
RTVSPost2010PropOp43
 70
     1
102
RTVSPost2010Prop44ColorIndex
 90
        5
102
RTVSPost2010Prop44ColorRGB
 90
      255
102
RTVSPost2010PropOp44
 70
     1
102
RTVSPost2010Prop45
280
     0
102
RTVSPost2010PropOp45
 70
     1
102
RTVSPost2010Prop46
 90
       50
102
RTVSPost2010PropOp46
 70
     1
102
RTVSPost2010Prop47
 90
       50
102
RTVSPost2010PropOp47
 70
     1
102
RTVSPost2010Prop48
 90
       50
102
RTVSPost2010PropOp48
 70
     1
102
RTVSPost2010Prop49
280
     0
102
RTVSPost2010PropOp49
 70
     1
102
RTVSPost2010Prop50
 90
       50
102
RTVSPost2010PropOp50
 70
     1
102
RTVSPost2010Prop51ColorIndex
 90
      256
102
RTVSPost2010Prop51ColorRGB
 90
-16777216
102
RTVSPost2010PropOp51
 70
     0
102
RTVSPost2010Prop52
140
1.0
102
RTVSPost2010PropOp52
 70
     0
102
RTVSPost2010Prop53
 90
        2
102
RTVSPost2010PropOp53
 70
     1
102
RTVSPost2010Prop54
  1
strokes_ogs.tif
102
RTVSPost2010PropOp54
 70
     1
102
RTVSPost2010Prop55
280
     0
102
RTVSPost2010PropOp55
 70
     1
102
RTVSPost2010Prop56
140
1.0
102
RTVSPost2010PropOp56
 70
     1
102
RTVSPost2010Prop57
140
1.0
102
RTVSPost2010PropOp57
 70
     1
  0
XRECORD
  5
103
102
{ACAD_REACTORS
330
102
102
}
330
102
100
AcDbXrecord
280
     1
102
RTVSPropertyOp0
 70
     1
102
RTVSPropertyOp1
 70
     1
102
RTVSPropertyOp2
 70
     1
102
RTVSPropertyOp3
 70
     1
102
RTVSPropertyOp4
 70
     1
102
RTVSPropertyOp5
 70
     1
102
RTVSPropertyOp6
 70
     1
102
RTVSPropertyOp7
 70
     1
102
RTVSPropertyOp8
 70
     1
102
RTVSPropertyOp9
 70
     1
102
RTVSPropertyOp10
 70
     1
102
RTVSPropertyOp11
 70
     1
102
RTVSPropertyOp12
 70
     1
102
RTVSPropertyOp13
 70
     1
102
RTVSPropertyOp14
 70
     1
102
RTVSPropertyOp15
 70
     1
102
RTVSPropertyOp16
 70
     1
102
RTVSPropertyOp17
 70
     1
102
RTVSPropertyOp18
 70
     1
102
RTVSPropertyOp19
 70
     1
102
RTVSPropertyOp20
 70
     1
102
RTVSPropertyOp21
 70
     1
102
RTVSPropertyOp22
 70
     1
102
RTVSPropertyOp23
 70
     1
102
RTVSPropertyOp24
 70
     1
102
RTVSPropertyOp25
 70
     1
102
RTVSPropertyOp26
 70
     1
102
RTVSPropertyOp27
 70
     1
102
RTVSPropertyOp28
 70
     1
102
RTVSPropertyOp29
 70
     1
102
RTVSPropertyOp30
 70
     1
102
RTVSPropertyOp31
 70
     1
102
RTVSPropertyOp32
 70
     1
102
RTVSPropertyOp33
 70
     1
102
RTVSPropertyOp34
 70
     1
102
RTVSPropertyOp35
 70
     1
102
RTVSPropertyOp36
 70
     1
102
RTVSPropertyOp37
 70
     1
102
RTVSPropertyOp38
 70
     1
102
RTVSPropertyOp39
 70
     1
102
RTVSPropertyOp40
 70
     1
102
RTVSPropertyOp41
 70
     1
102
RTVSPropertyOp42
 70
     1
102
RTVSPropertyOp43
 70
     1
102
RTVSPropertyOp44
 70
     1
102
RTVSPropertyOp45
 70
     1
102
RTVSPropertyOp46
 70
     1
102
RTVSPropertyOp47
 70
     1
102
RTVSPropertyOp48
 70
     1
102
RTVSPropertyOp49
 70
     1
102
RTVSPropertyOp50
 70
     1
102
RTVSPropertyOp51
 70
     0
102
RTVSPropertyOp52
 70
     0
102
RTVSPropertyOp53
 70
     1
102
RTVSPropertyOp54
 70
     1
102
RTVSPropertyOp55
 70
     1
102
RTVSPropertyOp56
 70
     1
102
RTVSPropertyOp57
 70
     1
102
RTVSPost2010Prop28
280
     0
102
RTVSPost2010PropOp28
 70
     1
102
RTVSPost2010Prop29
280
     1
102
RTVSPost2010PropOp29
 70
     1
102
RTVSPost2010Prop30
280
     1
102
RTVSPost2010PropOp30
 70
     1
102
RTVSPost2010Prop31
280
     0
102
RTVSPost2010PropOp31
 70
     1
102
RTVSPost2010Prop32
280
     0
102
RTVSPost2010PropOp32
 70
     1
102
RTVSPost2010Prop33
280
     0
102
RTVSPost2010PropOp33
 70
     1
102
RTVSPost2010Prop34
280
     0
102
RTVSPost2010PropOp34
 70
     1
102
RTVSPost2010Prop35
280
     0
102
RTVSPost2010PropOp35
 70
     1
102
RTVSPost2010Prop36
280
     0
102
RTVSPost2010PropOp36
 70
     1
102
RTVSPost2010Prop37
 90
       50
102
RTVSPost2010PropOp37
 70
     1
102
RTVSPost2010Prop38
140
0.0
102
RTVSPost2010PropOp38
 70
     1
102
RTVSPost2010Prop39
140
1.0
102
RTVSPost2010PropOp39
 70
     1
102
RTVSPost2010Prop40
 90
        0
102
RTVSPost2010PropOp40
 70
     1
102
RTVSPost2010Prop41ColorIndex
 90
       18
102
RTVSPost2010Prop41ColorRGB
 90
        0
102
RTVSPost2010PropOp41
 70
     1
102
RTVSPost2010Prop42
 90
       50
102
RTVSPost2010PropOp42
 70
     1
102
RTVSPost2010Prop43
 90
        3
102
RTVSPost2010PropOp43
 70
     1
102
RTVSPost2010Prop44ColorIndex
 90
        5
102
RTVSPost2010Prop44ColorRGB
 90
      255
102
RTVSPost2010PropOp44
 70
     1
102
RTVSPost2010Prop45
280
     0
102
RTVSPost2010PropOp45
 70
     1
102
RTVSPost2010Prop46
 90
       50
102
RTVSPost2010PropOp46
 70
     1
102
RTVSPost2010Prop47
 90
       50
102
RTVSPost2010PropOp47
 70
     1
102
RTVSPost2010Prop48
 90
       50
102
RTVSPost2010PropOp48
 70
     1
102
RTVSPost2010Prop49
280
     0
102
RTVSPost2010PropOp49
 70
     1
102
RTVSPost2010Prop50
 90
       50
102
RTVSPost2010PropOp50
 70
     1
102
RTVSPost2010Prop51ColorIndex
 90
      256
102
RTVSPost2010Prop51ColorRGB
 90
-16777216
102
RTVSPost2010PropOp51
 70
     0
102
RTVSPost2010Prop52
140
1.0
102
RTVSPost2010PropOp52
 70
     0
102
RTVSPost2010Prop53
 90
        2
102
RTVSPost2010PropOp53
 70
     1
102
RTVSPost2010Prop54
  1
strokes_ogs.tif
102
RTVSPost2010PropOp54
 70
     1
102
RTVSPost2010Prop55
280
     0
102
RTVSPost2010PropOp55
 70
     1
102
RTVSPost2010Prop56
140
1.0
102
RTVSPost2010PropOp56
 70
     1
102
RTVSPost2010Prop57
140
1.0
102
RTVSPost2010PropOp57
 70
     1
  0
XRECORD
  5
F7
102
{ACAD_REACTORS
330
F6
102
}
330
F6
100
AcDbXrecord
280
     1
102
RTVSPropertyOp0
 70
     1
102
RTVSPropertyOp1
 70
     1
102
RTVSPropertyOp2
 70
     1
102
RTVSPropertyOp3
 70
     1
102
RTVSPropertyOp4
 70
     1
102
RTVSPropertyOp5
 70
     1
102
RTVSPropertyOp6
 70
     1
102
RTVSPropertyOp7
 70
     1
102
RTVSPropertyOp8
 70
     1
102
RTVSPropertyOp9
 70
     1
102
RTVSPropertyOp10
 70
     1
102
RTVSPropertyOp11
 70
     1
102
RTVSPropertyOp12
 70
     1
102
RTVSPropertyOp13
 70
     1
102
RTVSPropertyOp14
 70
     1
102
RTVSPropertyOp15
 70
     1
102
RTVSPropertyOp16
 70
     1
102
RTVSPropertyOp17
 70
     1
102
RTVSPropertyOp18
 70
     1
102
RTVSPropertyOp19
 70
     1
102
RTVSPropertyOp20
 70
     1
102
RTVSPropertyOp21
 70
     1
102
RTVSPropertyOp22
 70
     1
102
RTVSPropertyOp23
 70
     1
102
RTVSPropertyOp24
 70
     1
102
RTVSPropertyOp25
 70
     1
102
RTVSPropertyOp26
 70
     1
102
RTVSPropertyOp27
 70
     1
102
RTVSPropertyOp28
 70
     1
102
RTVSPropertyOp29
 70
     1
102
RTVSPropertyOp30
 70
     1
102
RTVSPropertyOp31
 70
     1
102
RTVSPropertyOp32
 70
     1
102
RTVSPropertyOp33
 70
     1
102
RTVSPropertyOp34
 70
     1
102
RTVSPropertyOp35
 70
     1
102
RTVSPropertyOp36
 70
     1
102
RTVSPropertyOp37
 70
     1
102
RTVSPropertyOp38
 70
     1
102
RTVSPropertyOp39
 70
     1
102
RTVSPropertyOp40
 70
     1
102
RTVSPropertyOp41
 70
     1
102
RTVSPropertyOp42
 70
     1
102
RTVSPropertyOp43
 70
     1
102
RTVSPropertyOp44
 70
     1
102
RTVSPropertyOp45
 70
     1
102
RTVSPropertyOp46
 70
     1
102
RTVSPropertyOp47
 70
     1
102
RTVSPropertyOp48
 70
     1
102
RTVSPropertyOp49
 70
     1
102
RTVSPropertyOp50
 70
     1
102
RTVSPropertyOp51
 70
     0
102
RTVSPropertyOp52
 70
     0
102
RTVSPropertyOp53
 70
     1
102
RTVSPropertyOp54
 70
     1
102
RTVSPropertyOp55
 70
     1
102
RTVSPropertyOp56
 70
     1
102
RTVSPropertyOp57
 70
     1
102
RTVSPost2010Prop28
280
     0
102
RTVSPost2010PropOp28
 70
     1
102
RTVSPost2010Prop29
280
     1
102
RTVSPost2010PropOp29
 70
     1
102
RTVSPost2010Prop30
280
     1
102
RTVSPost2010PropOp30
 70
     1
102
RTVSPost2010Prop31
280
     0
102
RTVSPost2010PropOp31
 70
     1
102
RTVSPost2010Prop32
280
     0
102
RTVSPost2010PropOp32
 70
     1
102
RTVSPost2010Prop33
280
     0
102
RTVSPost2010PropOp33
 70
     1
102
RTVSPost2010Prop34
280
     0
102
RTVSPost2010PropOp34
 70
     1
102
RTVSPost2010Prop35
280
     0
102
RTVSPost2010PropOp35
 70
     1
102
RTVSPost2010Prop36
280
     0
102
RTVSPost2010PropOp36
 70
     1
102
RTVSPost2010Prop37
 90
       50
102
RTVSPost2010PropOp37
 70
     1
102
RTVSPost2010Prop38
140
0.0
102
RTVSPost2010PropOp38
 70
     1
102
RTVSPost2010Prop39
140
1.0
102
RTVSPost2010PropOp39
 70
     1
102
RTVSPost2010Prop40
 90
        0
102
RTVSPost2010PropOp40
 70
     1
102
RTVSPost2010Prop41ColorIndex
 90
       18
102
RTVSPost2010Prop41ColorRGB
 90
        0
102
RTVSPost2010PropOp41
 70
     1
102
RTVSPost2010Prop42
 90
       50
102
RTVSPost2010PropOp42
 70
     1
102
RTVSPost2010Prop43
 90
        3
102
RTVSPost2010PropOp43
 70
     1
102
RTVSPost2010Prop44ColorIndex
 90
        5
102
RTVSPost2010Prop44ColorRGB
 90
      255
102
RTVSPost2010PropOp44
 70
     1
102
RTVSPost2010Prop45
280
     0
102
RTVSPost2010PropOp45
 70
     1
102
RTVSPost2010Prop46
 90
       50
102
RTVSPost2010PropOp46
 70
     1
102
RTVSPost2010Prop47
 90
       50
102
RTVSPost2010PropOp47
 70
     1
102
RTVSPost2010Prop48
 90
       50
102
RTVSPost2010PropOp48
 70
     1
102
RTVSPost2010Prop49
280
     0
102
RTVSPost2010PropOp49
 70
     1
102
RTVSPost2010Prop50
 90
       50
102
RTVSPost2010PropOp50
 70
     1
102
RTVSPost2010Prop51ColorIndex
 90
      256
102
RTVSPost2010Prop51ColorRGB
 90
-16777216
102
RTVSPost2010PropOp51
 70
     0
102
RTVSPost2010Prop52
140
1.0
102
RTVSPost2010PropOp52
 70
     0
102
RTVSPost2010Prop53
 90
        2
102
RTVSPost2010PropOp53
 70
     1
102
RTVSPost2010Prop54
  1
strokes_ogs.tif
102
RTVSPost2010PropOp54
 70
     1
102
RTVSPost2010Prop55
280
     0
102
RTVSPost2010PropOp55
 70
     1
102
RTVSPost2010Prop56
140
1.0
102
RTVSPost2010PropOp56
 70
     1
102
RTVSPost2010Prop57
140
1.0
102
RTVSPost2010PropOp57
 70
     1
  0
XRECORD
  5
F9
102
{ACAD_REACTORS
330
F8
102
}
330
F8
100
AcDbXrecord
280
     1
102
RTVSPropertyOp0
 70
     1
102
RTVSPropertyOp1
 70
     1
102
RTVSPropertyOp2
 70
     1
102
RTVSPropertyOp3
 70
     1
102
RTVSPropertyOp4
 70
     1
102
RTVSPropertyOp5
 70
     1
102
RTVSPropertyOp6
 70
     1
102
RTVSPropertyOp7
 70
     1
102
RTVSPropertyOp8
 70
     1
102
RTVSPropertyOp9
 70
     1
102
RTVSPropertyOp10
 70
     1
102
RTVSPropertyOp11
 70
     1
102
RTVSPropertyOp12
 70
     1
102
RTVSPropertyOp13
 70
     1
102
RTVSPropertyOp14
 70
     1
102
RTVSPropertyOp15
 70
     1
102
RTVSPropertyOp16
 70
     1
102
RTVSPropertyOp17
 70
     1
102
RTVSPropertyOp18
 70
     1
102
RTVSPropertyOp19
 70
     1
102
RTVSPropertyOp20
 70
     1
102
RTVSPropertyOp21
 70
     1
102
RTVSPropertyOp22
 70
     1
102
RTVSPropertyOp23
 70
     1
102
RTVSPropertyOp24
 70
     1
102
RTVSPropertyOp25
 70
     1
102
RTVSPropertyOp26
 70
     1
102
RTVSPropertyOp27
 70
     1
102
RTVSPropertyOp28
 70
     1
102
RTVSPropertyOp29
 70
     1
102
RTVSPropertyOp30
 70
     1
102
RTVSPropertyOp31
 70
     1
102
RTVSPropertyOp32
 70
     1
102
RTVSPropertyOp33
 70
     1
102
RTVSPropertyOp34
 70
     1
102
RTVSPropertyOp35
 70
     1
102
RTVSPropertyOp36
 70
     1
102
RTVSPropertyOp37
 70
     1
102
RTVSPropertyOp38
 70
     1
102
RTVSPropertyOp39
 70
     1
102
RTVSPropertyOp40
 70
     1
102
RTVSPropertyOp41
 70
     1
102
RTVSPropertyOp42
 70
     1
102
RTVSPropertyOp43
 70
     1
102
RTVSPropertyOp44
 70
     1
102
RTVSPropertyOp45
 70
     1
102
RTVSPropertyOp46
 70
     1
102
RTVSPropertyOp47
 70
     1
102
RTVSPropertyOp48
 70
     1
102
RTVSPropertyOp49
 70
     1
102
RTVSPropertyOp50
 70
     1
102
RTVSPropertyOp51
 70
     0
102
RTVSPropertyOp52
 70
     0
102
RTVSPropertyOp53
 70
     1
102
RTVSPropertyOp54
 70
     1
102
RTVSPropertyOp55
 70
     1
102
RTVSPropertyOp56
 70
     1
102
RTVSPropertyOp57
 70
     1
102
RTVSPost2010Prop28
280
     0
102
RTVSPost2010PropOp28
 70
     1
102
RTVSPost2010Prop29
280
     1
102
RTVSPost2010PropOp29
 70
     1
102
RTVSPost2010Prop30
280
     1
102
RTVSPost2010PropOp30
 70
     1
102
RTVSPost2010Prop31
280
     0
102
RTVSPost2010PropOp31
 70
     1
102
RTVSPost2010Prop32
280
     0
102
RTVSPost2010PropOp32
 70
     1
102
RTVSPost2010Prop33
280
     0
102
RTVSPost2010PropOp33
 70
     1
102
RTVSPost2010Prop34
280
     0
102
RTVSPost2010PropOp34
 70
     1
102
RTVSPost2010Prop35
280
     0
102
RTVSPost2010PropOp35
 70
     1
102
RTVSPost2010Prop36
280
     0
102
RTVSPost2010PropOp36
 70
     1
102
RTVSPost2010Prop37
 90
       50
102
RTVSPost2010PropOp37
 70
     1
102
RTVSPost2010Prop38
140
0.0
102
RTVSPost2010PropOp38
 70
     1
102
RTVSPost2010Prop39
140
1.0
102
RTVSPost2010PropOp39
 70
     1
102
RTVSPost2010Prop40
 90
        0
102
RTVSPost2010PropOp40
 70
     1
102
RTVSPost2010Prop41ColorIndex
 90
       18
102
RTVSPost2010Prop41ColorRGB
 90
        0
102
RTVSPost2010PropOp41
 70
     1
102
RTVSPost2010Prop42
 90
       50
102
RTVSPost2010PropOp42
 70
     1
102
RTVSPost2010Prop43
 90
        3
102
RTVSPost2010PropOp43
 70
     1
102
RTVSPost2010Prop44ColorIndex
 90
        5
102
RTVSPost2010Prop44ColorRGB
 90
      255
102
RTVSPost2010PropOp44
 70
     1
102
RTVSPost2010Prop45
280
     0
102
RTVSPost2010PropOp45
 70
     1
102
RTVSPost2010Prop46
 90
       50
102
RTVSPost2010PropOp46
 70
     1
102
RTVSPost2010Prop47
 90
       50
102
RTVSPost2010PropOp47
 70
     1
102
RTVSPost2010Prop48
 90
       50
102
RTVSPost2010PropOp48
 70
     1
102
RTVSPost2010Prop49
280
     0
102
RTVSPost2010PropOp49
 70
     1
102
RTVSPost2010Prop50
 90
       50
102
RTVSPost2010PropOp50
 70
     1
102
RTVSPost2010Prop51ColorIndex
 90
      256
102
RTVSPost2010Prop51ColorRGB
 90
-16777216
102
RTVSPost2010PropOp51
 70
     0
102
RTVSPost2010Prop52
140
1.0
102
RTVSPost2010PropOp52
 70
     0
102
RTVSPost2010Prop53
 90
        2
102
RTVSPost2010PropOp53
 70
     1
102
RTVSPost2010Prop54
  1
strokes_ogs.tif
102
RTVSPost2010PropOp54
 70
     1
102
RTVSPost2010Prop55
280
     0
102
RTVSPost2010PropOp55
 70
     1
102
RTVSPost2010Prop56
140
1.0
102
RTVSPost2010PropOp56
 70
     1
102
RTVSPost2010Prop57
140
1.0
102
RTVSPost2010PropOp57
 70
     1
  0
XRECORD
  5
109
102
{ACAD_REACTORS
330
108
102
}
330
108
100
AcDbXrecord
280
     1
102
RTVSPropertyOp0
 70
     0
102
RTVSPropertyOp1
 70
     0
102
RTVSPropertyOp2
 70
     0
102
RTVSPropertyOp3
 70
     0
102
RTVSPropertyOp4
 70
     0
102
RTVSPropertyOp5
 70
     0
102
RTVSPropertyOp6
 70
     0
102
RTVSPropertyOp7
 70
     0
102
RTVSPropertyOp8
 70
     0
102
RTVSPropertyOp9
 70
     0
102
RTVSPropertyOp10
 70
     0
102
RTVSPropertyOp11
 70
     0
102
RTVSPropertyOp12
 70
     0
102
RTVSPropertyOp13
 70
     0
102
RTVSPropertyOp14
 70
     2
102
RTVSPropertyOp15
 70
     0
102
RTVSPropertyOp16
 70
     0
102
RTVSPropertyOp17
 70
     0
102
RTVSPropertyOp18
 70
     0
102
RTVSPropertyOp19
 70
     0
102
RTVSPropertyOp20
 70
     0
102
RTVSPropertyOp21
 70
     0
102
RTVSPropertyOp22
 70
     0
102
RTVSPropertyOp23
 70
     0
102
RTVSPropertyOp24
 70
     0
102
RTVSPropertyOp25
 70
     0
102
RTVSPropertyOp26
 70
     0
102
RTVSPropertyOp27
 70
     0
102
RTVSPropertyOp28
 70
     0
102
RTVSPropertyOp29
 70
     0
102
RTVSPropertyOp30
 70
     0
102
RTVSPropertyOp31
 70
     0
102
RTVSPropertyOp32
 70
     0
102
RTVSPropertyOp33
 70
     0
102
RTVSPropertyOp34
 70
     0
102
RTVSPropertyOp35
 70
     0
102
RTVSPropertyOp36
 70
     0
102
RTVSPropertyOp37
 70
     0
102
RTVSPropertyOp38
 70
     0
102
RTVSPropertyOp39
 70
     0
102
RTVSPropertyOp40
 70
     0
102
RTVSPropertyOp41
 70
     0
102
RTVSPropertyOp42
 70
     0
102
RTVSPropertyOp43
 70
     0
102
RTVSPropertyOp44
 70
     0
102
RTVSPropertyOp45
 70
     0
102
RTVSPropertyOp46
 70
     0
102
RTVSPropertyOp47
 70
     0
102
RTVSPropertyOp48
 70
     0
102
RTVSPropertyOp49
 70
     0
102
RTVSPropertyOp50
 70
     0
102
RTVSPropertyOp51
 70
     0
102
RTVSPropertyOp52
 70
     0
102
RTVSPropertyOp53
 70
     0
102
RTVSPropertyOp54
 70
     0
102
RTVSPropertyOp55
 70
     0
102
RTVSPropertyOp56
 70
     0
102
RTVSPropertyOp57
 70
     0
102
RTVSPost2010Prop28
280
     0
102
RTVSPost2010PropOp28
 70
     0
102
RTVSPost2010Prop29
280
     1
102
RTVSPost2010PropOp29
 70
     0
102
RTVSPost2010Prop30
280
     1
102
RTVSPost2010PropOp30
 70
     0
102
RTVSPost2010Prop31
280
     0
102
RTVSPost2010PropOp31
 70
     0
102
RTVSPost2010Prop32
280
     0
102
RTVSPost2010PropOp32
 70
     0
102
RTVSPost2010Prop33
280
     0
102
RTVSPost2010PropOp33
 70
     0
102
RTVSPost2010Prop34
280
     0
102
RTVSPost2010PropOp34
 70
     0
102
RTVSPost2010Prop35
280
     0
102
RTVSPost2010PropOp35
 70
     0
102
RTVSPost2010Prop36
280
     0
102
RTVSPost2010PropOp36
 70
     0
102
RTVSPost2010Prop37
 90
       50
102
RTVSPost2010PropOp37
 70
     0
102
RTVSPost2010Prop38
140
0.0
102
RTVSPost2010PropOp38
 70
     0
102
RTVSPost2010Prop39
140
1.0
102
RTVSPost2010PropOp39
 70
     0
102
RTVSPost2010Prop40
 90
        0
102
RTVSPost2010PropOp40
 70
     0
102
RTVSPost2010Prop41ColorIndex
 90
       18
102
RTVSPost2010Prop41ColorRGB
 90
        0
102
RTVSPost2010PropOp41
 70
     0
102
RTVSPost2010Prop42
 90
       50
102
RTVSPost2010PropOp42
 70
     0
102
RTVSPost2010Prop43
 90
        3
102
RTVSPost2010PropOp43
 70
     0
102
RTVSPost2010Prop44ColorIndex
 90
        5
102
RTVSPost2010Prop44ColorRGB
 90
      255
102
RTVSPost2010PropOp44
 70
     0
102
RTVSPost2010Prop45
280
     0
102
RTVSPost2010PropOp45
 70
     0
102
RTVSPost2010Prop46
 90
       50
102
RTVSPost2010PropOp46
 70
     0
102
RTVSPost2010Prop47
 90
       50
102
RTVSPost2010PropOp47
 70
     0
102
RTVSPost2010Prop48
 90
       50
102
RTVSPost2010PropOp48
 70
     0
102
RTVSPost2010Prop49
280
     0
102
RTVSPost2010PropOp49
 70
     0
102
RTVSPost2010Prop50
 90
       50
102
RTVSPost2010PropOp50
 70
     0
102
RTVSPost2010Prop51ColorIndex
 90
      256
102
RTVSPost2010Prop51ColorRGB
 90
-16777216
102
RTVSPost2010PropOp51
 70
     0
102
RTVSPost2010Prop52
140
1.0
102
RTVSPost2010PropOp52
 70
     0
102
RTVSPost2010Prop53
 90
        2
102
RTVSPost2010PropOp53
 70
     0
102
RTVSPost2010Prop54
  1
strokes_ogs.tif
102
RTVSPost2010PropOp54
 70
     0
102
RTVSPost2010Prop55
280
     0
102
RTVSPost2010PropOp55
 70
     0
102
RTVSPost2010Prop56
140
1.0
102
RTVSPost2010PropOp56
 70
     0
102
RTVSPost2010Prop57
140
1.0
102
RTVSPost2010PropOp57
 70
     0
  0
XRECORD
  5
101
102
{ACAD_REACTORS
330
100
102
}
330
100
100
AcDbXrecord
280
     1
102
RTVSPropertyOp0
 70
     1
102
RTVSPropertyOp1
 70
     1
102
RTVSPropertyOp2
 70
     1
102
RTVSPropertyOp3
 70
     1
102
RTVSPropertyOp4
 70
     1
102
RTVSPropertyOp5
 70
     1
102
RTVSPropertyOp6
 70
     1
102
RTVSPropertyOp7
 70
     1
102
RTVSPropertyOp8
 70
     1
102
RTVSPropertyOp9
 70
     1
102
RTVSPropertyOp10
 70
     1
102
RTVSPropertyOp11
 70
     1
102
RTVSPropertyOp12
 70
     1
102
RTVSPropertyOp13
 70
     1
102
RTVSPropertyOp14
 70
     1
102
RTVSPropertyOp15
 70
     1
102
RTVSPropertyOp16
 70
     1
102
RTVSPropertyOp17
 70
     1
102
RTVSPropertyOp18
 70
     1
102
RTVSPropertyOp19
 70
     1
102
RTVSPropertyOp20
 70
     1
102
RTVSPropertyOp21
 70
     1
102
RTVSPropertyOp22
 70
     1
102
RTVSPropertyOp23
 70
     1
102
RTVSPropertyOp24
 70
     1
102
RTVSPropertyOp25
 70
     1
102
RTVSPropertyOp26
 70
     1
102
RTVSPropertyOp27
 70
     1
102
RTVSPropertyOp28
 70
     1
102
RTVSPropertyOp29
 70
     1
102
RTVSPropertyOp30
 70
     1
102
RTVSPropertyOp31
 70
     1
102
RTVSPropertyOp32
 70
     1
102
RTVSPropertyOp33
 70
     1
102
RTVSPropertyOp34
 70
     1
102
RTVSPropertyOp35
 70
     1
102
RTVSPropertyOp36
 70
     1
102
RTVSPropertyOp37
 70
     1
102
RTVSPropertyOp38
 70
     1
102
RTVSPropertyOp39
 70
     1
102
RTVSPropertyOp40
 70
     1
102
RTVSPropertyOp41
 70
     1
102
RTVSPropertyOp42
 70
     1
102
RTVSPropertyOp43
 70
     1
102
RTVSPropertyOp44
 70
     1
102
RTVSPropertyOp45
 70
     1
102
RTVSPropertyOp46
 70
     1
102
RTVSPropertyOp47
 70
     1
102
RTVSPropertyOp48
 70
     1
102
RTVSPropertyOp49
 70
     1
102
RTVSPropertyOp50
 70
     1
102
RTVSPropertyOp51
 70
     0
102
RTVSPropertyOp52
 70
     0
102
RTVSPropertyOp53
 70
     1
102
RTVSPropertyOp54
 70
     1
102
RTVSPropertyOp55
 70
     1
102
RTVSPropertyOp56
 70
     1
102
RTVSPropertyOp57
 70
     1
102
RTVSPost2010Prop28
280
     0
102
RTVSPost2010PropOp28
 70
     1
102
RTVSPost2010Prop29
280
     1
102
RTVSPost2010PropOp29
 70
     1
102
RTVSPost2010Prop30
280
     1
102
RTVSPost2010PropOp30
 70
     1
102
RTVSPost2010Prop31
280
     0
102
RTVSPost2010PropOp31
 70
     1
102
RTVSPost2010Prop32
280
     0
102
RTVSPost2010PropOp32
 70
     1
102
RTVSPost2010Prop33
280
     0
102
RTVSPost2010PropOp33
 70
     1
102
RTVSPost2010Prop34
280
     0
102
RTVSPost2010PropOp34
 70
     1
102
RTVSPost2010Prop35
280
     0
102
RTVSPost2010PropOp35
 70
     1
102
RTVSPost2010Prop36
280
     0
102
RTVSPost2010PropOp36
 70
     1
102
RTVSPost2010Prop37
 90
       50
102
RTVSPost2010PropOp37
 70
     1
102
RTVSPost2010Prop38
140
0.0
102
RTVSPost2010PropOp38
 70
     1
102
RTVSPost2010Prop39
140
1.0
102
RTVSPost2010PropOp39
 70
     1
102
RTVSPost2010Prop40
 90
        0
102
RTVSPost2010PropOp40
 70
     1
102
RTVSPost2010Prop41ColorIndex
 90
       18
102
RTVSPost2010Prop41ColorRGB
 90
        0
102
RTVSPost2010PropOp41
 70
     1
102
RTVSPost2010Prop42
 90
       50
102
RTVSPost2010PropOp42
 70
     1
102
RTVSPost2010Prop43
 90
        3
102
RTVSPost2010PropOp43
 70
     1
102
RTVSPost2010Prop44ColorIndex
 90
        5
102
RTVSPost2010Prop44ColorRGB
 90
      255
102
RTVSPost2010PropOp44
 70
     1
102
RTVSPost2010Prop45
280
     0
102
RTVSPost2010PropOp45
 70
     1
102
RTVSPost2010Prop46
 90
       50
102
RTVSPost2010PropOp46
 70
     1
102
RTVSPost2010Prop47
 90
       50
102
RTVSPost2010PropOp47
 70
     1
102
RTVSPost2010Prop48
 90
       50
102
RTVSPost2010PropOp48
 70
     1
102
RTVSPost2010Prop49
280
     0
102
RTVSPost2010PropOp49
 70
     1
102
RTVSPost2010Prop50
 90
       50
102
RTVSPost2010PropOp50
 70
     1
102
RTVSPost2010Prop51ColorIndex
 90
      256
102
RTVSPost2010Prop51ColorRGB
 90
-16777216
102
RTVSPost2010PropOp51
 70
     0
102
RTVSPost2010Prop52
140
1.0
102
RTVSPost2010PropOp52
 70
     0
102
RTVSPost2010Prop53
 90
        2
102
RTVSPost2010PropOp53
 70
     1
102
RTVSPost2010Prop54
  1
strokes_ogs.tif
102
RTVSPost2010PropOp54
 70
     1
102
RTVSPost2010Prop55
280
     0
102
RTVSPost2010PropOp55
 70
     1
102
RTVSPost2010Prop56
140
1.0
102
RTVSPost2010PropOp56
 70
     1
102
RTVSPost2010Prop57
140
1.0
102
RTVSPost2010PropOp57
 70
     1
  0
XRECORD
  5
E5
102
{ACAD_REACTORS
330
E4
102
}
330
E4
100
AcDbXrecord
280
     1
102
RTVSPropertyOp0
 70
     1
102
RTVSPropertyOp1
 70
     1
102
RTVSPropertyOp2
 70
     1
102
RTVSPropertyOp3
 70
     1
102
RTVSPropertyOp4
 70
     1
102
RTVSPropertyOp5
 70
     1
102
RTVSPropertyOp6
 70
     1
102
RTVSPropertyOp7
 70
     1
102
RTVSPropertyOp8
 70
     1
102
RTVSPropertyOp9
 70
     1
102
RTVSPropertyOp10
 70
     1
102
RTVSPropertyOp11
 70
     1
102
RTVSPropertyOp12
 70
     1
102
RTVSPropertyOp13
 70
     1
102
RTVSPropertyOp14
 70
     1
102
RTVSPropertyOp15
 70
     1
102
RTVSPropertyOp16
 70
     1
102
RTVSPropertyOp17
 70
     1
102
RTVSPropertyOp18
 70
     1
102
RTVSPropertyOp19
 70
     1
102
RTVSPropertyOp20
 70
     1
102
RTVSPropertyOp21
 70
     1
102
RTVSPropertyOp22
 70
     1
102
RTVSPropertyOp23
 70
     1
102
RTVSPropertyOp24
 70
     1
102
RTVSPropertyOp25
 70
     1
102
RTVSPropertyOp26
 70
     1
102
RTVSPropertyOp27
 70
     1
102
RTVSPropertyOp28
 70
     1
102
RTVSPropertyOp29
 70
     1
102
RTVSPropertyOp30
 70
     1
102
RTVSPropertyOp31
 70
     1
102
RTVSPropertyOp32
 70
     1
102
RTVSPropertyOp33
 70
     1
102
RTVSPropertyOp34
 70
     1
102
RTVSPropertyOp35
 70
     1
102
RTVSPropertyOp36
 70
     1
102
RTVSPropertyOp37
 70
     1
102
RTVSPropertyOp38
 70
     1
102
RTVSPropertyOp39
 70
     1
102
RTVSPropertyOp40
 70
     1
102
RTVSPropertyOp41
 70
     1
102
RTVSPropertyOp42
 70
     1
102
RTVSPropertyOp43
 70
     1
102
RTVSPropertyOp44
 70
     1
102
RTVSPropertyOp45
 70
     1
102
RTVSPropertyOp46
 70
     1
102
RTVSPropertyOp47
 70
     1
102
RTVSPropertyOp48
 70
     1
102
RTVSPropertyOp49
 70
     1
102
RTVSPropertyOp50
 70
     1
102
RTVSPropertyOp51
 70
     0
102
RTVSPropertyOp52
 70
     0
102
RTVSPropertyOp53
 70
     1
102
RTVSPropertyOp54
 70
     1
102
RTVSPropertyOp55
 70
     1
102
RTVSPropertyOp56
 70
     1
102
RTVSPropertyOp57
 70
     1
102
RTVSPost2010Prop28
280
     0
102
RTVSPost2010PropOp28
 70
     1
102
RTVSPost2010Prop29
280
     1
102
RTVSPost2010PropOp29
 70
     1
102
RTVSPost2010Prop30
280
     1
102
RTVSPost2010PropOp30
 70
     1
102
RTVSPost2010Prop31
280
     0
102
RTVSPost2010PropOp31
 70
     1
102
RTVSPost2010Prop32
280
     0
102
RTVSPost2010PropOp32
 70
     1
102
RTVSPost2010Prop33
280
     0
102
RTVSPost2010PropOp33
 70
     1
102
RTVSPost2010Prop34
280
     0
102
RTVSPost2010PropOp34
 70
     1
102
RTVSPost2010Prop35
280
     0
102
RTVSPost2010PropOp35
 70
     1
102
RTVSPost2010Prop36
280
     0
102
RTVSPost2010PropOp36
 70
     1
102
RTVSPost2010Prop37
 90
       50
102
RTVSPost2010PropOp37
 70
     1
102
RTVSPost2010Prop38
140
0.0
102
RTVSPost2010PropOp38
 70
     1
102
RTVSPost2010Prop39
140
1.0
102
RTVSPost2010PropOp39
 70
     1
102
RTVSPost2010Prop40
 90
        0
102
RTVSPost2010PropOp40
 70
     1
102
RTVSPost2010Prop41ColorIndex
 90
       18
102
RTVSPost2010Prop41ColorRGB
 90
        0
102
RTVSPost2010PropOp41
 70
     1
102
RTVSPost2010Prop42
 90
       50
102
RTVSPost2010PropOp42
 70
     1
102
RTVSPost2010Prop43
 90
        3
102
RTVSPost2010PropOp43
 70
     1
102
RTVSPost2010Prop44ColorIndex
 90
        5
102
RTVSPost2010Prop44ColorRGB
 90
      255
102
RTVSPost2010PropOp44
 70
     1
102
RTVSPost2010Prop45
280
     0
102
RTVSPost2010PropOp45
 70
     1
102
RTVSPost2010Prop46
 90
       50
102
RTVSPost2010PropOp46
 70
     1
102
RTVSPost2010Prop47
 90
       50
102
RTVSPost2010PropOp47
 70
     1
102
RTVSPost2010Prop48
 90
       50
102
RTVSPost2010PropOp48
 70
     1
102
RTVSPost2010Prop49
280
     0
102
RTVSPost2010PropOp49
 70
     1
102
RTVSPost2010Prop50
 90
       50
102
RTVSPost2010PropOp50
 70
     1
102
RTVSPost2010Prop51ColorIndex
 90
      256
102
RTVSPost2010Prop51ColorRGB
 90
-16777216
102
RTVSPost2010PropOp51
 70
     0
102
RTVSPost2010Prop52
140
1.0
102
RTVSPost2010PropOp52
 70
     0
102
RTVSPost2010Prop53
 90
        2
102
RTVSPost2010PropOp53
 70
     1
102
RTVSPost2010Prop54
  1
strokes_ogs.tif
102
RTVSPost2010PropOp54
 70
     1
102
RTVSPost2010Prop55
280
     0
102
RTVSPost2010PropOp55
 70
     1
102
RTVSPost2010Prop56
140
1.0
102
RTVSPost2010PropOp56
 70
     1
102
RTVSPost2010Prop57
140
1.0
102
RTVSPost2010PropOp57
 70
     1
  0
XRECORD
  5
E7
102
{ACAD_REACTORS
330
E6
102
}
330
E6
100
AcDbXrecord
280
     1
102
RTVSPropertyOp0
 70
     1
102
RTVSPropertyOp1
 70
     1
102
RTVSPropertyOp2
 70
     1
102
RTVSPropertyOp3
 70
     1
102
RTVSPropertyOp4
 70
     1
102
RTVSPropertyOp5
 70
     1
102
RTVSPropertyOp6
 70
     1
102
RTVSPropertyOp7
 70
     1
102
RTVSPropertyOp8
 70
     1
102
RTVSPropertyOp9
 70
     1
102
RTVSPropertyOp10
 70
     1
102
RTVSPropertyOp11
 70
     1
102
RTVSPropertyOp12
 70
     1
102
RTVSPropertyOp13
 70
     1
102
RTVSPropertyOp14
 70
     1
102
RTVSPropertyOp15
 70
     1
102
RTVSPropertyOp16
 70
     1
102
RTVSPropertyOp17
 70
     1
102
RTVSPropertyOp18
 70
     1
102
RTVSPropertyOp19
 70
     1
102
RTVSPropertyOp20
 70
     1
102
RTVSPropertyOp21
 70
     1
102
RTVSPropertyOp22
 70
     1
102
RTVSPropertyOp23
 70
     1
102
RTVSPropertyOp24
 70
     1
102
RTVSPropertyOp25
 70
     1
102
RTVSPropertyOp26
 70
     1
102
RTVSPropertyOp27
 70
     1
102
RTVSPropertyOp28
 70
     1
102
RTVSPropertyOp29
 70
     1
102
RTVSPropertyOp30
 70
     1
102
RTVSPropertyOp31
 70
     1
102
RTVSPropertyOp32
 70
     1
102
RTVSPropertyOp33
 70
     1
102
RTVSPropertyOp34
 70
     1
102
RTVSPropertyOp35
 70
     1
102
RTVSPropertyOp36
 70
     1
102
RTVSPropertyOp37
 70
     1
102
RTVSPropertyOp38
 70
     1
102
RTVSPropertyOp39
 70
     1
102
RTVSPropertyOp40
 70
     1
102
RTVSPropertyOp41
 70
     1
102
RTVSPropertyOp42
 70
     1
102
RTVSPropertyOp43
 70
     1
102
RTVSPropertyOp44
 70
     1
102
RTVSPropertyOp45
 70
     1
102
RTVSPropertyOp46
 70
     1
102
RTVSPropertyOp47
 70
     1
102
RTVSPropertyOp48
 70
     1
102
RTVSPropertyOp49
 70
     1
102
RTVSPropertyOp50
 70
     1
102
RTVSPropertyOp51
 70
     0
102
RTVSPropertyOp52
 70
     0
102
RTVSPropertyOp53
 70
     1
102
RTVSPropertyOp54
 70
     1
102
RTVSPropertyOp55
 70
     1
102
RTVSPropertyOp56
 70
     1
102
RTVSPropertyOp57
 70
     1
102
RTVSPost2010Prop28
280
     0
102
RTVSPost2010PropOp28
 70
     1
102
RTVSPost2010Prop29
280
     1
102
RTVSPost2010PropOp29
 70
     1
102
RTVSPost2010Prop30
280
     1
102
RTVSPost2010PropOp30
 70
     1
102
RTVSPost2010Prop31
280
     0
102
RTVSPost2010PropOp31
 70
     1
102
RTVSPost2010Prop32
280
     0
102
RTVSPost2010PropOp32
 70
     1
102
RTVSPost2010Prop33
280
     0
102
RTVSPost2010PropOp33
 70
     1
102
RTVSPost2010Prop34
280
     0
102
RTVSPost2010PropOp34
 70
     1
102
RTVSPost2010Prop35
280
     0
102
RTVSPost2010PropOp35
 70
     1
102
RTVSPost2010Prop36
280
     0
102
RTVSPost2010PropOp36
 70
     1
102
RTVSPost2010Prop37
 90
       50
102
RTVSPost2010PropOp37
 70
     1
102
RTVSPost2010Prop38
140
0.0
102
RTVSPost2010PropOp38
 70
     1
102
RTVSPost2010Prop39
140
1.0
102
RTVSPost2010PropOp39
 70
     1
102
RTVSPost2010Prop40
 90
        0
102
RTVSPost2010PropOp40
 70
     1
102
RTVSPost2010Prop41ColorIndex
 90
       18
102
RTVSPost2010Prop41ColorRGB
 90
        0
102
RTVSPost2010PropOp41
 70
     1
102
RTVSPost2010Prop42
 90
       50
102
RTVSPost2010PropOp42
 70
     1
102
RTVSPost2010Prop43
 90
        3
102
RTVSPost2010PropOp43
 70
     1
102
RTVSPost2010Prop44ColorIndex
 90
        5
102
RTVSPost2010Prop44ColorRGB
 90
      255
102
RTVSPost2010PropOp44
 70
     1
102
RTVSPost2010Prop45
280
     0
102
RTVSPost2010PropOp45
 70
     1
102
RTVSPost2010Prop46
 90
       50
102
RTVSPost2010PropOp46
 70
     1
102
RTVSPost2010Prop47
 90
       50
102
RTVSPost2010PropOp47
 70
     1
102
RTVSPost2010Prop48
 90
       50
102
RTVSPost2010PropOp48
 70
     1
102
RTVSPost2010Prop49
280
     0
102
RTVSPost2010PropOp49
 70
     1
102
RTVSPost2010Prop50
 90
       50
102
RTVSPost2010PropOp50
 70
     1
102
RTVSPost2010Prop51ColorIndex
 90
      256
102
RTVSPost2010Prop51ColorRGB
 90
-16777216
102
RTVSPost2010PropOp51
 70
     0
102
RTVSPost2010Prop52
140
1.0
102
RTVSPost2010PropOp52
 70
     0
102
RTVSPost2010Prop53
 90
        2
102
RTVSPost2010PropOp53
 70
     1
102
RTVSPost2010Prop54
  1
strokes_ogs.tif
102
RTVSPost2010PropOp54
 70
     1
102
RTVSPost2010Prop55
280
     0
102
RTVSPost2010PropOp55
 70
     1
102
RTVSPost2010Prop56
140
1.0
102
RTVSPost2010PropOp56
 70
     1
102
RTVSPost2010Prop57
140
1.0
102
RTVSPost2010PropOp57
 70
     1
  0
XRECORD
  5
E9
102
{ACAD_REACTORS
330
E8
102
}
330
E8
100
AcDbXrecord
280
     1
102
RTVSPropertyOp0
 70
     1
102
RTVSPropertyOp1
 70
     1
102
RTVSPropertyOp2
 70
     1
102
RTVSPropertyOp3
 70
     1
102
RTVSPropertyOp4
 70
     1
102
RTVSPropertyOp5
 70
     1
102
RTVSPropertyOp6
 70
     1
102
RTVSPropertyOp7
 70
     1
102
RTVSPropertyOp8
 70
     1
102
RTVSPropertyOp9
 70
     1
102
RTVSPropertyOp10
 70
     1
102
RTVSPropertyOp11
 70
     1
102
RTVSPropertyOp12
 70
     1
102
RTVSPropertyOp13
 70
     1
102
RTVSPropertyOp14
 70
     1
102
RTVSPropertyOp15
 70
     1
102
RTVSPropertyOp16
 70
     1
102
RTVSPropertyOp17
 70
     1
102
RTVSPropertyOp18
 70
     1
102
RTVSPropertyOp19
 70
     1
102
RTVSPropertyOp20
 70
     1
102
RTVSPropertyOp21
 70
     1
102
RTVSPropertyOp22
 70
     1
102
RTVSPropertyOp23
 70
     1
102
RTVSPropertyOp24
 70
     1
102
RTVSPropertyOp25
 70
     1
102
RTVSPropertyOp26
 70
     1
102
RTVSPropertyOp27
 70
     1
102
RTVSPropertyOp28
 70
     1
102
RTVSPropertyOp29
 70
     1
102
RTVSPropertyOp30
 70
     1
102
RTVSPropertyOp31
 70
     1
102
RTVSPropertyOp32
 70
     1
102
RTVSPropertyOp33
 70
     1
102
RTVSPropertyOp34
 70
     1
102
RTVSPropertyOp35
 70
     1
102
RTVSPropertyOp36
 70
     1
102
RTVSPropertyOp37
 70
     1
102
RTVSPropertyOp38
 70
     1
102
RTVSPropertyOp39
 70
     1
102
RTVSPropertyOp40
 70
     1
102
RTVSPropertyOp41
 70
     1
102
RTVSPropertyOp42
 70
     1
102
RTVSPropertyOp43
 70
     1
102
RTVSPropertyOp44
 70
     1
102
RTVSPropertyOp45
 70
     1
102
RTVSPropertyOp46
 70
     1
102
RTVSPropertyOp47
 70
     1
102
RTVSPropertyOp48
 70
     1
102
RTVSPropertyOp49
 70
     1
102
RTVSPropertyOp50
 70
     1
102
RTVSPropertyOp51
 70
     0
102
RTVSPropertyOp52
 70
     0
102
RTVSPropertyOp53
 70
     1
102
RTVSPropertyOp54
 70
     1
102
RTVSPropertyOp55
 70
     1
102
RTVSPropertyOp56
 70
     1
102
RTVSPropertyOp57
 70
     1
102
RTVSPost2010Prop28
280
     0
102
RTVSPost2010PropOp28
 70
     1
102
RTVSPost2010Prop29
280
     1
102
RTVSPost2010PropOp29
 70
     1
102
RTVSPost2010Prop30
280
     1
102
RTVSPost2010PropOp30
 70
     1
102
RTVSPost2010Prop31
280
     0
102
RTVSPost2010PropOp31
 70
     1
102
RTVSPost2010Prop32
280
     0
102
RTVSPost2010PropOp32
 70
     1
102
RTVSPost2010Prop33
280
     0
102
RTVSPost2010PropOp33
 70
     1
102
RTVSPost2010Prop34
280
     0
102
RTVSPost2010PropOp34
 70
     1
102
RTVSPost2010Prop35
280
     0
102
RTVSPost2010PropOp35
 70
     1
102
RTVSPost2010Prop36
280
     0
102
RTVSPost2010PropOp36
 70
     1
102
RTVSPost2010Prop37
 90
       50
102
RTVSPost2010PropOp37
 70
     1
102
RTVSPost2010Prop38
140
0.0
102
RTVSPost2010PropOp38
 70
     1
102
RTVSPost2010Prop39
140
1.0
102
RTVSPost2010PropOp39
 70
     1
102
RTVSPost2010Prop40
 90
        0
102
RTVSPost2010PropOp40
 70
     1
102
RTVSPost2010Prop41ColorIndex
 90
       18
102
RTVSPost2010Prop41ColorRGB
 90
        0
102
RTVSPost2010PropOp41
 70
     1
102
RTVSPost2010Prop42
 90
       50
102
RTVSPost2010PropOp42
 70
     1
102
RTVSPost2010Prop43
 90
        3
102
RTVSPost2010PropOp43
 70
     1
102
RTVSPost2010Prop44ColorIndex
 90
        5
102
RTVSPost2010Prop44ColorRGB
 90
      255
102
RTVSPost2010PropOp44
 70
     1
102
RTVSPost2010Prop45
280
     0
102
RTVSPost2010PropOp45
 70
     1
102
RTVSPost2010Prop46
 90
       50
102
RTVSPost2010PropOp46
 70
     1
102
RTVSPost2010Prop47
 90
       50
102
RTVSPost2010PropOp47
 70
     1
102
RTVSPost2010Prop48
 90
       50
102
RTVSPost2010PropOp48
 70
     1
102
RTVSPost2010Prop49
280
     0
102
RTVSPost2010PropOp49
 70
     1
102
RTVSPost2010Prop50
 90
       50
102
RTVSPost2010PropOp50
 70
     1
102
RTVSPost2010Prop51ColorIndex
 90
      256
102
RTVSPost2010Prop51ColorRGB
 90
-16777216
102
RTVSPost2010PropOp51
 70
     0
102
RTVSPost2010Prop52
140
1.0
102
RTVSPost2010PropOp52
 70
     0
102
RTVSPost2010Prop53
 90
        2
102
RTVSPost2010PropOp53
 70
     1
102
RTVSPost2010Prop54
  1
strokes_ogs.tif
102
RTVSPost2010PropOp54
 70
     1
102
RTVSPost2010Prop55
280
     0
102
RTVSPost2010PropOp55
 70
     1
102
RTVSPost2010Prop56
140
1.0
102
RTVSPost2010PropOp56
 70
     1
102
RTVSPost2010Prop57
140
1.0
102
RTVSPost2010PropOp57
 70
     1
  0
XRECORD
  5
EB
102
{ACAD_REACTORS
330
EA
102
}
330
EA
100
AcDbXrecord
280
     1
102
RTVSPropertyOp0
 70
     1
102
RTVSPropertyOp1
 70
     1
102
RTVSPropertyOp2
 70
     1
102
RTVSPropertyOp3
 70
     1
102
RTVSPropertyOp4
 70
     1
102
RTVSPropertyOp5
 70
     1
102
RTVSPropertyOp6
 70
     1
102
RTVSPropertyOp7
 70
     1
102
RTVSPropertyOp8
 70
     1
102
RTVSPropertyOp9
 70
     1
102
RTVSPropertyOp10
 70
     1
102
RTVSPropertyOp11
 70
     1
102
RTVSPropertyOp12
 70
     1
102
RTVSPropertyOp13
 70
     1
102
RTVSPropertyOp14
 70
     1
102
RTVSPropertyOp15
 70
     1
102
RTVSPropertyOp16
 70
     1
102
RTVSPropertyOp17
 70
     1
102
RTVSPropertyOp18
 70
     1
102
RTVSPropertyOp19
 70
     1
102
RTVSPropertyOp20
 70
     1
102
RTVSPropertyOp21
 70
     1
102
RTVSPropertyOp22
 70
     1
102
RTVSPropertyOp23
 70
     1
102
RTVSPropertyOp24
 70
     1
102
RTVSPropertyOp25
 70
     1
102
RTVSPropertyOp26
 70
     1
102
RTVSPropertyOp27
 70
     1
102
RTVSPropertyOp28
 70
     1
102
RTVSPropertyOp29
 70
     1
102
RTVSPropertyOp30
 70
     1
102
RTVSPropertyOp31
 70
     1
102
RTVSPropertyOp32
 70
     1
102
RTVSPropertyOp33
 70
     1
102
RTVSPropertyOp34
 70
     1
102
RTVSPropertyOp35
 70
     1
102
RTVSPropertyOp36
 70
     1
102
RTVSPropertyOp37
 70
     1
102
RTVSPropertyOp38
 70
     1
102
RTVSPropertyOp39
 70
     1
102
RTVSPropertyOp40
 70
     1
102
RTVSPropertyOp41
 70
     1
102
RTVSPropertyOp42
 70
     1
102
RTVSPropertyOp43
 70
     1
102
RTVSPropertyOp44
 70
     1
102
RTVSPropertyOp45
 70
     1
102
RTVSPropertyOp46
 70
     1
102
RTVSPropertyOp47
 70
     1
102
RTVSPropertyOp48
 70
     1
102
RTVSPropertyOp49
 70
     1
102
RTVSPropertyOp50
 70
     1
102
RTVSPropertyOp51
 70
     0
102
RTVSPropertyOp52
 70
     0
102
RTVSPropertyOp53
 70
     1
102
RTVSPropertyOp54
 70
     1
102
RTVSPropertyOp55
 70
     1
102
RTVSPropertyOp56
 70
     1
102
RTVSPropertyOp57
 70
     1
102
RTVSPost2010Prop28
280
     0
102
RTVSPost2010PropOp28
 70
     1
102
RTVSPost2010Prop29
280
     1
102
RTVSPost2010PropOp29
 70
     1
102
RTVSPost2010Prop30
280
     1
102
RTVSPost2010PropOp30
 70
     1
102
RTVSPost2010Prop31
280
     0
102
RTVSPost2010PropOp31
 70
     1
102
RTVSPost2010Prop32
280
     0
102
RTVSPost2010PropOp32
 70
     1
102
RTVSPost2010Prop33
280
     0
102
RTVSPost2010PropOp33
 70
     1
102
RTVSPost2010Prop34
280
     0
102
RTVSPost2010PropOp34
 70
     1
102
RTVSPost2010Prop35
280
     0
102
RTVSPost2010PropOp35
 70
     1
102
RTVSPost2010Prop36
280
     0
102
RTVSPost2010PropOp36
 70
     1
102
RTVSPost2010Prop37
 90
       50
102
RTVSPost2010PropOp37
 70
     1
102
RTVSPost2010Prop38
140
0.0
102
RTVSPost2010PropOp38
 70
     1
102
RTVSPost2010Prop39
140
1.0
102
RTVSPost2010PropOp39
 70
     1
102
RTVSPost2010Prop40
 90
        0
102
RTVSPost2010PropOp40
 70
     1
102
RTVSPost2010Prop41ColorIndex
 90
       18
102
RTVSPost2010Prop41ColorRGB
 90
        0
102
RTVSPost2010PropOp41
 70
     1
102
RTVSPost2010Prop42
 90
       50
102
RTVSPost2010PropOp42
 70
     1
102
RTVSPost2010Prop43
 90
        3
102
RTVSPost2010PropOp43
 70
     1
102
RTVSPost2010Prop44ColorIndex
 90
        5
102
RTVSPost2010Prop44ColorRGB
 90
      255
102
RTVSPost2010PropOp44
 70
     1
102
RTVSPost2010Prop45
280
     0
102
RTVSPost2010PropOp45
 70
     1
102
RTVSPost2010Prop46
 90
       50
102
RTVSPost2010PropOp46
 70
     1
102
RTVSPost2010Prop47
 90
       50
102
RTVSPost2010PropOp47
 70
     1
102
RTVSPost2010Prop48
 90
       50
102
RTVSPost2010PropOp48
 70
     1
102
RTVSPost2010Prop49
280
     0
102
RTVSPost2010PropOp49
 70
     1
102
RTVSPost2010Prop50
 90
       50
102
RTVSPost2010PropOp50
 70
     1
102
RTVSPost2010Prop51ColorIndex
 90
      256
102
RTVSPost2010Prop51ColorRGB
 90
-16777216
102
RTVSPost2010PropOp51
 70
     0
102
RTVSPost2010Prop52
140
1.0
102
RTVSPost2010PropOp52
 70
     0
102
RTVSPost2010Prop53
 90
        2
102
RTVSPost2010PropOp53
 70
     1
102
RTVSPost2010Prop54
  1
strokes_ogs.tif
102
RTVSPost2010PropOp54
 70
     1
102
RTVSPost2010Prop55
280
     0
102
RTVSPost2010PropOp55
 70
     1
102
RTVSPost2010Prop56
140
1.0
102
RTVSPost2010PropOp56
 70
     1
102
RTVSPost2010Prop57
140
1.0
102
RTVSPost2010PropOp57
 70
     1
  0
XRECORD
  5
F1
102
{ACAD_REACTORS
330
F0
102
}
330
F0
100
AcDbXrecord
280
     1
102
RTVSPropertyOp0
 70
     1
102
RTVSPropertyOp1
 70
     1
102
RTVSPropertyOp2
 70
     1
102
RTVSPropertyOp3
 70
     1
102
RTVSPropertyOp4
 70
     1
102
RTVSPropertyOp5
 70
     1
102
RTVSPropertyOp6
 70
     1
102
RTVSPropertyOp7
 70
     1
102
RTVSPropertyOp8
 70
     1
102
RTVSPropertyOp9
 70
     1
102
RTVSPropertyOp10
 70
     1
102
RTVSPropertyOp11
 70
     1
102
RTVSPropertyOp12
 70
     1
102
RTVSPropertyOp13
 70
     1
102
RTVSPropertyOp14
 70
     1
102
RTVSPropertyOp15
 70
     1
102
RTVSPropertyOp16
 70
     1
102
RTVSPropertyOp17
 70
     1
102
RTVSPropertyOp18
 70
     1
102
RTVSPropertyOp19
 70
     1
102
RTVSPropertyOp20
 70
     1
102
RTVSPropertyOp21
 70
     1
102
RTVSPropertyOp22
 70
     1
102
RTVSPropertyOp23
 70
     1
102
RTVSPropertyOp24
 70
     1
102
RTVSPropertyOp25
 70
     1
102
RTVSPropertyOp26
 70
     1
102
RTVSPropertyOp27
 70
     1
102
RTVSPropertyOp28
 70
     1
102
RTVSPropertyOp29
 70
     1
102
RTVSPropertyOp30
 70
     1
102
RTVSPropertyOp31
 70
     1
102
RTVSPropertyOp32
 70
     1
102
RTVSPropertyOp33
 70
     1
102
RTVSPropertyOp34
 70
     1
102
RTVSPropertyOp35
 70
     1
102
RTVSPropertyOp36
 70
     1
102
RTVSPropertyOp37
 70
     1
102
RTVSPropertyOp38
 70
     1
102
RTVSPropertyOp39
 70
     1
102
RTVSPropertyOp40
 70
     1
102
RTVSPropertyOp41
 70
     1
102
RTVSPropertyOp42
 70
     1
102
RTVSPropertyOp43
 70
     1
102
RTVSPropertyOp44
 70
     1
102
RTVSPropertyOp45
 70
     1
102
RTVSPropertyOp46
 70
     1
102
RTVSPropertyOp47
 70
     1
102
RTVSPropertyOp48
 70
     1
102
RTVSPropertyOp49
 70
     1
102
RTVSPropertyOp50
 70
     1
102
RTVSPropertyOp51
 70
     0
102
RTVSPropertyOp52
 70
     0
102
RTVSPropertyOp53
 70
     1
102
RTVSPropertyOp54
 70
     1
102
RTVSPropertyOp55
 70
     1
102
RTVSPropertyOp56
 70
     1
102
RTVSPropertyOp57
 70
     1
102
RTVSPost2010Prop28
280
     0
102
RTVSPost2010PropOp28
 70
     1
102
RTVSPost2010Prop29
280
     1
102
RTVSPost2010PropOp29
 70
     1
102
RTVSPost2010Prop30
280
     1
102
RTVSPost2010PropOp30
 70
     1
102
RTVSPost2010Prop31
280
     0
102
RTVSPost2010PropOp31
 70
     1
102
RTVSPost2010Prop32
280
     0
102
RTVSPost2010PropOp32
 70
     1
102
RTVSPost2010Prop33
280
     0
102
RTVSPost2010PropOp33
 70
     1
102
RTVSPost2010Prop34
280
     0
102
RTVSPost2010PropOp34
 70
     1
102
RTVSPost2010Prop35
280
     0
102
RTVSPost2010PropOp35
 70
     1
102
RTVSPost2010Prop36
280
     0
102
RTVSPost2010PropOp36
 70
     1
102
RTVSPost2010Prop37
 90
       50
102
RTVSPost2010PropOp37
 70
     1
102
RTVSPost2010Prop38
140
0.0
102
RTVSPost2010PropOp38
 70
     1
102
RTVSPost2010Prop39
140
1.0
102
RTVSPost2010PropOp39
 70
     1
102
RTVSPost2010Prop40
 90
        0
102
RTVSPost2010PropOp40
 70
     1
102
RTVSPost2010Prop41ColorIndex
 90
       18
102
RTVSPost2010Prop41ColorRGB
 90
        0
102
RTVSPost2010PropOp41
 70
     1
102
RTVSPost2010Prop42
 90
       50
102
RTVSPost2010PropOp42
 70
     1
102
RTVSPost2010Prop43
 90
        3
102
RTVSPost2010PropOp43
 70
     1
102
RTVSPost2010Prop44ColorIndex
 90
        5
102
RTVSPost2010Prop44ColorRGB
 90
      255
102
RTVSPost2010PropOp44
 70
     1
102
RTVSPost2010Prop45
280
     0
102
RTVSPost2010PropOp45
 70
     1
102
RTVSPost2010Prop46
 90
       50
102
RTVSPost2010PropOp46
 70
     1
102
RTVSPost2010Prop47
 90
       50
102
RTVSPost2010PropOp47
 70
     1
102
RTVSPost2010Prop48
 90
       50
102
RTVSPost2010PropOp48
 70
     1
102
RTVSPost2010Prop49
280
     0
102
RTVSPost2010PropOp49
 70
     1
102
RTVSPost2010Prop50
 90
       50
102
RTVSPost2010PropOp50
 70
     1
102
RTVSPost2010Prop51ColorIndex
 90
      256
102
RTVSPost2010Prop51ColorRGB
 90
-16777216
102
RTVSPost2010PropOp51
 70
     0
102
RTVSPost2010Prop52
140
1.0
102
RTVSPost2010PropOp52
 70
     0
102
RTVSPost2010Prop53
 90
        2
102
RTVSPost2010PropOp53
 70
     1
102
RTVSPost2010Prop54
  1
strokes_ogs.tif
102
RTVSPost2010PropOp54
 70
     1
102
RTVSPost2010Prop55
280
     0
102
RTVSPost2010PropOp55
 70
     1
102
RTVSPost2010Prop56
140
1.0
102
RTVSPost2010PropOp56
 70
     1
102
RTVSPost2010Prop57
140
1.0
102
RTVSPost2010PropOp57
 70
     1
  0
XRECORD
  5
105
102
{ACAD_REACTORS
330
104
102
}
330
104
100
AcDbXrecord
280
     1
102
RTVSPropertyOp0
 70
     0
102
RTVSPropertyOp1
 70
     0
102
RTVSPropertyOp2
 70
     0
102
RTVSPropertyOp3
 70
     0
102
RTVSPropertyOp4
 70
     0
102
RTVSPropertyOp5
 70
     0
102
RTVSPropertyOp6
 70
     0
102
RTVSPropertyOp7
 70
     0
102
RTVSPropertyOp8
 70
     0
102
RTVSPropertyOp9
 70
     0
102
RTVSPropertyOp10
 70
     0
102
RTVSPropertyOp11
 70
     0
102
RTVSPropertyOp12
 70
     0
102
RTVSPropertyOp13
 70
     0
102
RTVSPropertyOp14
 70
     2
102
RTVSPropertyOp15
 70
     0
102
RTVSPropertyOp16
 70
     0
102
RTVSPropertyOp17
 70
     0
102
RTVSPropertyOp18
 70
     0
102
RTVSPropertyOp19
 70
     0
102
RTVSPropertyOp20
 70
     0
102
RTVSPropertyOp21
 70
     0
102
RTVSPropertyOp22
 70
     0
102
RTVSPropertyOp23
 70
     0
102
RTVSPropertyOp24
 70
     0
102
RTVSPropertyOp25
 70
     0
102
RTVSPropertyOp26
 70
     0
102
RTVSPropertyOp27
 70
     0
102
RTVSPropertyOp28
 70
     0
102
RTVSPropertyOp29
 70
     0
102
RTVSPropertyOp30
 70
     0
102
RTVSPropertyOp31
 70
     0
102
RTVSPropertyOp32
 70
     0
102
RTVSPropertyOp33
 70
     0
102
RTVSPropertyOp34
 70
     0
102
RTVSPropertyOp35
 70
     0
102
RTVSPropertyOp36
 70
     0
102
RTVSPropertyOp37
 70
     0
102
RTVSPropertyOp38
 70
     0
102
RTVSPropertyOp39
 70
     0
102
RTVSPropertyOp40
 70
     0
102
RTVSPropertyOp41
 70
     0
102
RTVSPropertyOp42
 70
     0
102
RTVSPropertyOp43
 70
     0
102
RTVSPropertyOp44
 70
     0
102
RTVSPropertyOp45
 70
     0
102
RTVSPropertyOp46
 70
     0
102
RTVSPropertyOp47
 70
     0
102
RTVSPropertyOp48
 70
     0
102
RTVSPropertyOp49
 70
     0
102
RTVSPropertyOp50
 70
     0
102
RTVSPropertyOp51
 70
     0
102
RTVSPropertyOp52
 70
     0
102
RTVSPropertyOp53
 70
     0
102
RTVSPropertyOp54
 70
     0
102
RTVSPropertyOp55
 70
     0
102
RTVSPropertyOp56
 70
     0
102
RTVSPropertyOp57
 70
     0
102
RTVSPost2010Prop28
280
     0
102
RTVSPost2010PropOp28
 70
     0
102
RTVSPost2010Prop29
280
     1
102
RTVSPost2010PropOp29
 70
     0
102
RTVSPost2010Prop30
280
     1
102
RTVSPost2010PropOp30
 70
     0
102
RTVSPost2010Prop31
280
     0
102
RTVSPost2010PropOp31
 70
     0
102
RTVSPost2010Prop32
280
     0
102
RTVSPost2010PropOp32
 70
     0
102
RTVSPost2010Prop33
280
     0
102
RTVSPost2010PropOp33
 70
     0
102
RTVSPost2010Prop34
280
     0
102
RTVSPost2010PropOp34
 70
     0
102
RTVSPost2010Prop35
280
     0
102
RTVSPost2010PropOp35
 70
     0
102
RTVSPost2010Prop36
280
     0
102
RTVSPost2010PropOp36
 70
     0
102
RTVSPost2010Prop37
 90
       50
102
RTVSPost2010PropOp37
 70
     0
102
RTVSPost2010Prop38
140
0.0
102
RTVSPost2010PropOp38
 70
     0
102
RTVSPost2010Prop39
140
1.0
102
RTVSPost2010PropOp39
 70
     0
102
RTVSPost2010Prop40
 90
        0
102
RTVSPost2010PropOp40
 70
     0
102
RTVSPost2010Prop41ColorIndex
 90
       18
102
RTVSPost2010Prop41ColorRGB
 90
        0
102
RTVSPost2010PropOp41
 70
     0
102
RTVSPost2010Prop42
 90
       50
102
RTVSPost2010PropOp42
 70
     0
102
RTVSPost2010Prop43
 90
        3
102
RTVSPost2010PropOp43
 70
     0
102
RTVSPost2010Prop44ColorIndex
 90
        5
102
RTVSPost2010Prop44ColorRGB
 90
      255
102
RTVSPost2010PropOp44
 70
     0
102
RTVSPost2010Prop45
280
     0
102
RTVSPost2010PropOp45
 70
     0
102
RTVSPost2010Prop46
 90
       50
102
RTVSPost2010PropOp46
 70
     0
102
RTVSPost2010Prop47
 90
       50
102
RTVSPost2010PropOp47
 70
     0
102
RTVSPost2010Prop48
 90
       50
102
RTVSPost2010PropOp48
 70
     0
102
RTVSPost2010Prop49
280
     0
102
RTVSPost2010PropOp49
 70
     0
102
RTVSPost2010Prop50
 90
       50
102
RTVSPost2010PropOp50
 70
     0
102
RTVSPost2010Prop51ColorIndex
 90
      256
102
RTVSPost2010Prop51ColorRGB
 90
-16777216
102
RTVSPost2010PropOp51
 70
     0
102
RTVSPost2010Prop52
140
1.0
102
RTVSPost2010PropOp52
 70
     0
102
RTVSPost2010Prop53
 90
        2
102
RTVSPost2010PropOp53
 70
     0
102
RTVSPost2010Prop54
  1
strokes_ogs.tif
102
RTVSPost2010PropOp54
 70
     0
102
RTVSPost2010Prop55
280
     0
102
RTVSPost2010PropOp55
 70
     0
102
RTVSPost2010Prop56
140
1.0
102
RTVSPost2010PropOp56
 70
     0
102
RTVSPost2010Prop57
140
1.0
102
RTVSPost2010PropOp57
 70
     0
  0
XRECORD
  5
FF
102
{ACAD_REACTORS
330
FE
102
}
330
FE
100
AcDbXrecord
280
     1
102
RTVSPropertyOp0
 70
     1
102
RTVSPropertyOp1
 70
     1
102
RTVSPropertyOp2
 70
     1
102
RTVSPropertyOp3
 70
     1
102
RTVSPropertyOp4
 70
     1
102
RTVSPropertyOp5
 70
     1
102
RTVSPropertyOp6
 70
     1
102
RTVSPropertyOp7
 70
     1
102
RTVSPropertyOp8
 70
     1
102
RTVSPropertyOp9
 70
     1
102
RTVSPropertyOp10
 70
     1
102
RTVSPropertyOp11
 70
     1
102
RTVSPropertyOp12
 70
     1
102
RTVSPropertyOp13
 70
     1
102
RTVSPropertyOp14
 70
     1
102
RTVSPropertyOp15
 70
     1
102
RTVSPropertyOp16
 70
     1
102
RTVSPropertyOp17
 70
     1
102
RTVSPropertyOp18
 70
     1
102
RTVSPropertyOp19
 70
     1
102
RTVSPropertyOp20
 70
     1
102
RTVSPropertyOp21
 70
     1
102
RTVSPropertyOp22
 70
     1
102
RTVSPropertyOp23
 70
     1
102
RTVSPropertyOp24
 70
     1
102
RTVSPropertyOp25
 70
     1
102
RTVSPropertyOp26
 70
     1
102
RTVSPropertyOp27
 70
     1
102
RTVSPropertyOp28
 70
     1
102
RTVSPropertyOp29
 70
     1
102
RTVSPropertyOp30
 70
     1
102
RTVSPropertyOp31
 70
     1
102
RTVSPropertyOp32
 70
     1
102
RTVSPropertyOp33
 70
     1
102
RTVSPropertyOp34
 70
     1
102
RTVSPropertyOp35
 70
     1
102
RTVSPropertyOp36
 70
     1
102
RTVSPropertyOp37
 70
     1
102
RTVSPropertyOp38
 70
     1
102
RTVSPropertyOp39
 70
     1
102
RTVSPropertyOp40
 70
     1
102
RTVSPropertyOp41
 70
     1
102
RTVSPropertyOp42
 70
     1
102
RTVSPropertyOp43
 70
     1
102
RTVSPropertyOp44
 70
     1
102
RTVSPropertyOp45
 70
     1
102
RTVSPropertyOp46
 70
     1
102
RTVSPropertyOp47
 70
     1
102
RTVSPropertyOp48
 70
     1
102
RTVSPropertyOp49
 70
     1
102
RTVSPropertyOp50
 70
     1
102
RTVSPropertyOp51
 70
     0
102
RTVSPropertyOp52
 70
     0
102
RTVSPropertyOp53
 70
     1
102
RTVSPropertyOp54
 70
     1
102
RTVSPropertyOp55
 70
     1
102
RTVSPropertyOp56
 70
     1
102
RTVSPropertyOp57
 70
     1
102
RTVSPost2010Prop28
280
     0
102
RTVSPost2010PropOp28
 70
     1
102
RTVSPost2010Prop29
280
     1
102
RTVSPost2010PropOp29
 70
     1
102
RTVSPost2010Prop30
280
     1
102
RTVSPost2010PropOp30
 70
     1
102
RTVSPost2010Prop31
280
     0
102
RTVSPost2010PropOp31
 70
     1
102
RTVSPost2010Prop32
280
     0
102
RTVSPost2010PropOp32
 70
     1
102
RTVSPost2010Prop33
280
     0
102
RTVSPost2010PropOp33
 70
     1
102
RTVSPost2010Prop34
280
     0
102
RTVSPost2010PropOp34
 70
     1
102
RTVSPost2010Prop35
280
     0
102
RTVSPost2010PropOp35
 70
     1
102
RTVSPost2010Prop36
280
     0
102
RTVSPost2010PropOp36
 70
     1
102
RTVSPost2010Prop37
 90
       50
102
RTVSPost2010PropOp37
 70
     1
102
RTVSPost2010Prop38
140
0.0
102
RTVSPost2010PropOp38
 70
     1
102
RTVSPost2010Prop39
140
1.0
102
RTVSPost2010PropOp39
 70
     1
102
RTVSPost2010Prop40
 90
        0
102
RTVSPost2010PropOp40
 70
     1
102
RTVSPost2010Prop41ColorIndex
 90
       18
102
RTVSPost2010Prop41ColorRGB
 90
        0
102
RTVSPost2010PropOp41
 70
     1
102
RTVSPost2010Prop42
 90
       50
102
RTVSPost2010PropOp42
 70
     1
102
RTVSPost2010Prop43
 90
        3
102
RTVSPost2010PropOp43
 70
     1
102
RTVSPost2010Prop44ColorIndex
 90
        5
102
RTVSPost2010Prop44ColorRGB
 90
      255
102
RTVSPost2010PropOp44
 70
     1
102
RTVSPost2010Prop45
280
     0
102
RTVSPost2010PropOp45
 70
     1
102
RTVSPost2010Prop46
 90
       50
102
RTVSPost2010PropOp46
 70
     1
102
RTVSPost2010Prop47
 90
       50
102
RTVSPost2010PropOp47
 70
     1
102
RTVSPost2010Prop48
 90
       50
102
RTVSPost2010PropOp48
 70
     1
102
RTVSPost2010Prop49
280
     0
102
RTVSPost2010PropOp49
 70
     1
102
RTVSPost2010Prop50
 90
       50
102
RTVSPost2010PropOp50
 70
     1
102
RTVSPost2010Prop51ColorIndex
 90
      256
102
RTVSPost2010Prop51ColorRGB
 90
-16777216
102
RTVSPost2010PropOp51
 70
     0
102
RTVSPost2010Prop52
140
1.0
102
RTVSPost2010PropOp52
 70
     0
102
RTVSPost2010Prop53
 90
        2
102
RTVSPost2010PropOp53
 70
     1
102
RTVSPost2010Prop54
  1
strokes_ogs.tif
102
RTVSPost2010PropOp54
 70
     1
102
RTVSPost2010Prop55
280
     0
102
RTVSPost2010PropOp55
 70
     1
102
RTVSPost2010Prop56
140
1.0
102
RTVSPost2010PropOp56
 70
     1
102
RTVSPost2010Prop57
140
1.0
102
RTVSPost2010PropOp57
 70
     1
  0
XRECORD
  5
107
102
{ACAD_REACTORS
330
106
102
}
330
106
100
AcDbXrecord
280
     1
102
RTVSPropertyOp0
 70
     0
102
RTVSPropertyOp1
 70
     0
102
RTVSPropertyOp2
 70
     0
102
RTVSPropertyOp3
 70
     0
102
RTVSPropertyOp4
 70
     0
102
RTVSPropertyOp5
 70
     0
102
RTVSPropertyOp6
 70
     0
102
RTVSPropertyOp7
 70
     0
102
RTVSPropertyOp8
 70
     0
102
RTVSPropertyOp9
 70
     0
102
RTVSPropertyOp10
 70
     0
102
RTVSPropertyOp11
 70
     0
102
RTVSPropertyOp12
 70
     0
102
RTVSPropertyOp13
 70
     0
102
RTVSPropertyOp14
 70
     2
102
RTVSPropertyOp15
 70
     0
102
RTVSPropertyOp16
 70
     0
102
RTVSPropertyOp17
 70
     0
102
RTVSPropertyOp18
 70
     0
102
RTVSPropertyOp19
 70
     0
102
RTVSPropertyOp20
 70
     0
102
RTVSPropertyOp21
 70
     0
102
RTVSPropertyOp22
 70
     0
102
RTVSPropertyOp23
 70
     0
102
RTVSPropertyOp24
 70
     0
102
RTVSPropertyOp25
 70
     0
102
RTVSPropertyOp26
 70
     0
102
RTVSPropertyOp27
 70
     0
102
RTVSPropertyOp28
 70
     0
102
RTVSPropertyOp29
 70
     0
102
RTVSPropertyOp30
 70
     0
102
RTVSPropertyOp31
 70
     0
102
RTVSPropertyOp32
 70
     0
102
RTVSPropertyOp33
 70
     0
102
RTVSPropertyOp34
 70
     0
102
RTVSPropertyOp35
 70
     0
102
RTVSPropertyOp36
 70
     0
102
RTVSPropertyOp37
 70
     0
102
RTVSPropertyOp38
 70
     0
102
RTVSPropertyOp39
 70
     0
102
RTVSPropertyOp40
 70
     0
102
RTVSPropertyOp41
 70
     0
102
RTVSPropertyOp42
 70
     0
102
RTVSPropertyOp43
 70
     0
102
RTVSPropertyOp44
 70
     0
102
RTVSPropertyOp45
 70
     0
102
RTVSPropertyOp46
 70
     0
102
RTVSPropertyOp47
 70
     0
102
RTVSPropertyOp48
 70
     0
102
RTVSPropertyOp49
 70
     0
102
RTVSPropertyOp50
 70
     0
102
RTVSPropertyOp51
 70
     0
102
RTVSPropertyOp52
 70
     0
102
RTVSPropertyOp53
 70
     0
102
RTVSPropertyOp54
 70
     0
102
RTVSPropertyOp55
 70
     0
102
RTVSPropertyOp56
 70
     0
102
RTVSPropertyOp57
 70
     0
102
RTVSPost2010Prop28
280
     0
102
RTVSPost2010PropOp28
 70
     0
102
RTVSPost2010Prop29
280
     1
102
RTVSPost2010PropOp29
 70
     0
102
RTVSPost2010Prop30
280
     1
102
RTVSPost2010PropOp30
 70
     0
102
RTVSPost2010Prop31
280
     0
102
RTVSPost2010PropOp31
 70
     0
102
RTVSPost2010Prop32
280
     0
102
RTVSPost2010PropOp32
 70
     0
102
RTVSPost2010Prop33
280
     0
102
RTVSPost2010PropOp33
 70
     0
102
RTVSPost2010Prop34
280
     0
102
RTVSPost2010PropOp34
 70
     0
102
RTVSPost2010Prop35
280
     0
102
RTVSPost2010PropOp35
 70
     0
102
RTVSPost2010Prop36
280
     0
102
RTVSPost2010PropOp36
 70
     0
102
RTVSPost2010Prop37
 90
       50
102
RTVSPost2010PropOp37
 70
     0
102
RTVSPost2010Prop38
140
0.0
102
RTVSPost2010PropOp38
 70
     0
102
RTVSPost2010Prop39
140
1.0
102
RTVSPost2010PropOp39
 70
     0
102
RTVSPost2010Prop40
 90
        0
102
RTVSPost2010PropOp40
 70
     0
102
RTVSPost2010Prop41ColorIndex
 90
       18
102
RTVSPost2010Prop41ColorRGB
 90
        0
102
RTVSPost2010PropOp41
 70
     0
102
RTVSPost2010Prop42
 90
       50
102
RTVSPost2010PropOp42
 70
     0
102
RTVSPost2010Prop43
 90
        3
102
RTVSPost2010PropOp43
 70
     0
102
RTVSPost2010Prop44ColorIndex
 90
        5
102
RTVSPost2010Prop44ColorRGB
 90
      255
102
RTVSPost2010PropOp44
 70
     0
102
RTVSPost2010Prop45
280
     0
102
RTVSPost2010PropOp45
 70
     0
102
RTVSPost2010Prop46
 90
       50
102
RTVSPost2010PropOp46
 70
     0
102
RTVSPost2010Prop47
 90
       50
102
RTVSPost2010PropOp47
 70
     0
102
RTVSPost2010Prop48
 90
       50
102
RTVSPost2010PropOp48
 70
     0
102
RTVSPost2010Prop49
280
     0
102
RTVSPost2010PropOp49
 70
     0
102
RTVSPost2010Prop50
 90
       50
102
RTVSPost2010PropOp50
 70
     0
102
RTVSPost2010Prop51ColorIndex
 90
      256
102
RTVSPost2010Prop51ColorRGB
 90
-16777216
102
RTVSPost2010PropOp51
 70
     0
102
RTVSPost2010Prop52
140
1.0
102
RTVSPost2010PropOp52
 70
     0
102
RTVSPost2010Prop53
 90
        2
102
RTVSPost2010PropOp53
 70
     0
102
RTVSPost2010Prop54
  1
strokes_ogs.tif
102
RTVSPost2010PropOp54
 70
     0
102
RTVSPost2010Prop55
280
     0
102
RTVSPost2010PropOp55
 70
     0
102
RTVSPost2010Prop56
140
1.0
102
RTVSPost2010PropOp56
 70
     0
102
RTVSPost2010Prop57
140
1.0
102
RTVSPost2010PropOp57
 70
     0
  0
XRECORD
  5
F5
102
{ACAD_REACTORS
330
F4
102
}
330
F4
100
AcDbXrecord
280
     1
102
RTVSPropertyOp0
 70
     1
102
RTVSPropertyOp1
 70
     1
102
RTVSPropertyOp2
 70
     1
102
RTVSPropertyOp3
 70
     1
102
RTVSPropertyOp4
 70
     1
102
RTVSPropertyOp5
 70
     1
102
RTVSPropertyOp6
 70
     1
102
RTVSPropertyOp7
 70
     1
102
RTVSPropertyOp8
 70
     1
102
RTVSPropertyOp9
 70
     1
102
RTVSPropertyOp10
 70
     1
102
RTVSPropertyOp11
 70
     1
102
RTVSPropertyOp12
 70
     1
102
RTVSPropertyOp13
 70
     1
102
RTVSPropertyOp14
 70
     1
102
RTVSPropertyOp15
 70
     1
102
RTVSPropertyOp16
 70
     1
102
RTVSPropertyOp17
 70
     1
102
RTVSPropertyOp18
 70
     1
102
RTVSPropertyOp19
 70
     1
102
RTVSPropertyOp20
 70
     1
102
RTVSPropertyOp21
 70
     1
102
RTVSPropertyOp22
 70
     1
102
RTVSPropertyOp23
 70
     1
102
RTVSPropertyOp24
 70
     1
102
RTVSPropertyOp25
 70
     1
102
RTVSPropertyOp26
 70
     1
102
RTVSPropertyOp27
 70
     1
102
RTVSPropertyOp28
 70
     1
102
RTVSPropertyOp29
 70
     1
102
RTVSPropertyOp30
 70
     1
102
RTVSPropertyOp31
 70
     1
102
RTVSPropertyOp32
 70
     1
102
RTVSPropertyOp33
 70
     1
102
RTVSPropertyOp34
 70
     1
102
RTVSPropertyOp35
 70
     1
102
RTVSPropertyOp36
 70
     1
102
RTVSPropertyOp37
 70
     1
102
RTVSPropertyOp38
 70
     1
102
RTVSPropertyOp39
 70
     1
102
RTVSPropertyOp40
 70
     1
102
RTVSPropertyOp41
 70
     1
102
RTVSPropertyOp42
 70
     1
102
RTVSPropertyOp43
 70
     1
102
RTVSPropertyOp44
 70
     1
102
RTVSPropertyOp45
 70
     1
102
RTVSPropertyOp46
 70
     1
102
RTVSPropertyOp47
 70
     1
102
RTVSPropertyOp48
 70
     1
102
RTVSPropertyOp49
 70
     1
102
RTVSPropertyOp50
 70
     1
102
RTVSPropertyOp51
 70
     0
102
RTVSPropertyOp52
 70
     0
102
RTVSPropertyOp53
 70
     1
102
RTVSPropertyOp54
 70
     1
102
RTVSPropertyOp55
 70
     1
102
RTVSPropertyOp56
 70
     1
102
RTVSPropertyOp57
 70
     1
102
RTVSPost2010Prop28
280
     0
102
RTVSPost2010PropOp28
 70
     1
102
RTVSPost2010Prop29
280
     1
102
RTVSPost2010PropOp29
 70
     1
102
RTVSPost2010Prop30
280
     1
102
RTVSPost2010PropOp30
 70
     1
102
RTVSPost2010Prop31
280
     0
102
RTVSPost2010PropOp31
 70
     1
102
RTVSPost2010Prop32
280
     0
102
RTVSPost2010PropOp32
 70
     1
102
RTVSPost2010Prop33
280
     0
102
RTVSPost2010PropOp33
 70
     1
102
RTVSPost2010Prop34
280
     0
102
RTVSPost2010PropOp34
 70
     1
102
RTVSPost2010Prop35
280
     0
102
RTVSPost2010PropOp35
 70
     1
102
RTVSPost2010Prop36
280
     0
102
RTVSPost2010PropOp36
 70
     1
102
RTVSPost2010Prop37
 90
       50
102
RTVSPost2010PropOp37
 70
     1
102
RTVSPost2010Prop38
140
0.0
102
RTVSPost2010PropOp38
 70
     1
102
RTVSPost2010Prop39
140
1.0
102
RTVSPost2010PropOp39
 70
     1
102
RTVSPost2010Prop40
 90
        0
102
RTVSPost2010PropOp40
 70
     1
102
RTVSPost2010Prop41ColorIndex
 90
       18
102
RTVSPost2010Prop41ColorRGB
 90
        0
102
RTVSPost2010PropOp41
 70
     1
102
RTVSPost2010Prop42
 90
       50
102
RTVSPost2010PropOp42
 70
     1
102
RTVSPost2010Prop43
 90
        3
102
RTVSPost2010PropOp43
 70
     1
102
RTVSPost2010Prop44ColorIndex
 90
        5
102
RTVSPost2010Prop44ColorRGB
 90
      255
102
RTVSPost2010PropOp44
 70
     1
102
RTVSPost2010Prop45
280
     0
102
RTVSPost2010PropOp45
 70
     1
102
RTVSPost2010Prop46
 90
       50
102
RTVSPost2010PropOp46
 70
     1
102
RTVSPost2010Prop47
 90
       50
102
RTVSPost2010PropOp47
 70
     1
102
RTVSPost2010Prop48
 90
       50
102
RTVSPost2010PropOp48
 70
     1
102
RTVSPost2010Prop49
280
     0
102
RTVSPost2010PropOp49
 70
     1
102
RTVSPost2010Prop50
 90
       50
102
RTVSPost2010PropOp50
 70
     1
102
RTVSPost2010Prop51ColorIndex
 90
      256
102
RTVSPost2010Prop51ColorRGB
 90
-16777216
102
RTVSPost2010PropOp51
 70
     0
102
RTVSPost2010Prop52
140
1.0
102
RTVSPost2010PropOp52
 70
     0
102
RTVSPost2010Prop53
 90
        2
102
RTVSPost2010PropOp53
 70
     1
102
RTVSPost2010Prop54
  1
strokes_ogs.tif
102
RTVSPost2010PropOp54
 70
     1
102
RTVSPost2010Prop55
280
     0
102
RTVSPost2010PropOp55
 70
     1
102
RTVSPost2010Prop56
140
1.0
102
RTVSPost2010PropOp56
 70
     1
102
RTVSPost2010Prop57
140
1.0
102
RTVSPost2010PropOp57
 70
     1
  0
XRECORD
  5
113
102
{ACAD_REACTORS
330
112
102
}
330
112
100
AcDbXrecord
280
     1
102
RTVSPropertyOp0
 70
     1
102
RTVSPropertyOp1
 70
     1
102
RTVSPropertyOp2
 70
     1
102
RTVSPropertyOp3
 70
     1
102
RTVSPropertyOp4
 70
     1
102
RTVSPropertyOp5
 70
     1
102
RTVSPropertyOp6
 70
     1
102
RTVSPropertyOp7
 70
     1
102
RTVSPropertyOp8
 70
     1
102
RTVSPropertyOp9
 70
     1
102
RTVSPropertyOp10
 70
     1
102
RTVSPropertyOp11
 70
     1
102
RTVSPropertyOp12
 70
     1
102
RTVSPropertyOp13
 70
     1
102
RTVSPropertyOp14
 70
     1
102
RTVSPropertyOp15
 70
     1
102
RTVSPropertyOp16
 70
     1
102
RTVSPropertyOp17
 70
     1
102
RTVSPropertyOp18
 70
     1
102
RTVSPropertyOp19
 70
     1
102
RTVSPropertyOp20
 70
     1
102
RTVSPropertyOp21
 70
     1
102
RTVSPropertyOp22
 70
     1
102
RTVSPropertyOp23
 70
     1
102
RTVSPropertyOp24
 70
     1
102
RTVSPropertyOp25
 70
     1
102
RTVSPropertyOp26
 70
     1
102
RTVSPropertyOp27
 70
     1
102
RTVSPropertyOp28
 70
     1
102
RTVSPropertyOp29
 70
     1
102
RTVSPropertyOp30
 70
     1
102
RTVSPropertyOp31
 70
     1
102
RTVSPropertyOp32
 70
     1
102
RTVSPropertyOp33
 70
     1
102
RTVSPropertyOp34
 70
     1
102
RTVSPropertyOp35
 70
     1
102
RTVSPropertyOp36
 70
     1
102
RTVSPropertyOp37
 70
     1
102
RTVSPropertyOp38
 70
     1
102
RTVSPropertyOp39
 70
     1
102
RTVSPropertyOp40
 70
     1
102
RTVSPropertyOp41
 70
     1
102
RTVSPropertyOp42
 70
     1
102
RTVSPropertyOp43
 70
     1
102
RTVSPropertyOp44
 70
     1
102
RTVSPropertyOp45
 70
     1
102
RTVSPropertyOp46
 70
     1
102
RTVSPropertyOp47
 70
     1
102
RTVSPropertyOp48
 70
     1
102
RTVSPropertyOp49
 70
     1
102
RTVSPropertyOp50
 70
     1
102
RTVSPropertyOp51
 70
     0
102
RTVSPropertyOp52
 70
     0
102
RTVSPropertyOp53
 70
     1
102
RTVSPropertyOp54
 70
     1
102
RTVSPropertyOp55
 70
     1
102
RTVSPropertyOp56
 70
     1
102
RTVSPropertyOp57
 70
     1
102
RTVSPost2010Prop28
280
     0
102
RTVSPost2010PropOp28
 70
     1
102
RTVSPost2010Prop29
280
     1
102
RTVSPost2010PropOp29
 70
     1
102
RTVSPost2010Prop30
280
     1
102
RTVSPost2010PropOp30
 70
     1
102
RTVSPost2010Prop31
280
     0
102
RTVSPost2010PropOp31
 70
     1
102
RTVSPost2010Prop32
280
     0
102
RTVSPost2010PropOp32
 70
     1
102
RTVSPost2010Prop33
280
     0
102
RTVSPost2010PropOp33
 70
     1
102
RTVSPost2010Prop34
280
     0
102
RTVSPost2010PropOp34
 70
     1
102
RTVSPost2010Prop35
280
     0
102
RTVSPost2010PropOp35
 70
     1
102
RTVSPost2010Prop36
280
     0
102
RTVSPost2010PropOp36
 70
     1
102
RTVSPost2010Prop37
 90
       50
102
RTVSPost2010PropOp37
 70
     1
102
RTVSPost2010Prop38
140
0.0
102
RTVSPost2010PropOp38
 70
     1
102
RTVSPost2010Prop39
140
1.0
102
RTVSPost2010PropOp39
 70
     1
102
RTVSPost2010Prop40
 90
        0
102
RTVSPost2010PropOp40
 70
     1
102
RTVSPost2010Prop41ColorIndex
 90
       18
102
RTVSPost2010Prop41ColorRGB
 90
        0
102
RTVSPost2010PropOp41
 70
     1
102
RTVSPost2010Prop42
 90
       50
102
RTVSPost2010PropOp42
 70
     1
102
RTVSPost2010Prop43
 90
        3
102
RTVSPost2010PropOp43
 70
     1
102
RTVSPost2010Prop44ColorIndex
 90
        5
102
RTVSPost2010Prop44ColorRGB
 90
      255
102
RTVSPost2010PropOp44
 70
     1
102
RTVSPost2010Prop45
280
     0
102
RTVSPost2010PropOp45
 70
     1
102
RTVSPost2010Prop46
 90
       50
102
RTVSPost2010PropOp46
 70
     1
102
RTVSPost2010Prop47
 90
       50
102
RTVSPost2010PropOp47
 70
     1
102
RTVSPost2010Prop48
 90
       50
102
RTVSPost2010PropOp48
 70
     1
102
RTVSPost2010Prop49
280
     0
102
RTVSPost2010PropOp49
 70
     1
102
RTVSPost2010Prop50
 90
       50
102
RTVSPost2010PropOp50
 70
     1
102
RTVSPost2010Prop51ColorIndex
 90
      256
102
RTVSPost2010Prop51ColorRGB
 90
-16777216
102
RTVSPost2010PropOp51
 70
     0
102
RTVSPost2010Prop52
140
1.0
102
RTVSPost2010PropOp52
 70
     0
102
RTVSPost2010Prop53
 90
        2
102
RTVSPost2010PropOp53
 70
     1
102
RTVSPost2010Prop54
  1
strokes_ogs.tif
102
RTVSPost2010PropOp54
 70
     1
102
RTVSPost2010Prop55
280
     0
102
RTVSPost2010PropOp55
 70
     1
102
RTVSPost2010Prop56
140
1.0
102
RTVSPost2010PropOp56
 70
     1
102
RTVSPost2010Prop57
140
1.0
102
RTVSPost2010PropOp57
 70
     1
  0
XRECORD
  5
111
102
{ACAD_REACTORS
330
110
102
}
330
110
100
AcDbXrecord
280
     1
102
RTVSPropertyOp0
 70
     1
102
RTVSPropertyOp1
 70
     1
102
RTVSPropertyOp2
 70
     1
102
RTVSPropertyOp3
 70
     1
102
RTVSPropertyOp4
 70
     1
102
RTVSPropertyOp5
 70
     1
102
RTVSPropertyOp6
 70
     1
102
RTVSPropertyOp7
 70
     1
102
RTVSPropertyOp8
 70
     1
102
RTVSPropertyOp9
 70
     1
102
RTVSPropertyOp10
 70
     1
102
RTVSPropertyOp11
 70
     1
102
RTVSPropertyOp12
 70
     1
102
RTVSPropertyOp13
 70
     1
102
RTVSPropertyOp14
 70
     1
102
RTVSPropertyOp15
 70
     1
102
RTVSPropertyOp16
 70
     1
102
RTVSPropertyOp17
 70
     1
102
RTVSPropertyOp18
 70
     1
102
RTVSPropertyOp19
 70
     1
102
RTVSPropertyOp20
 70
     1
102
RTVSPropertyOp21
 70
     1
102
RTVSPropertyOp22
 70
     1
102
RTVSPropertyOp23
 70
     1
102
RTVSPropertyOp24
 70
     1
102
RTVSPropertyOp25
 70
     1
102
RTVSPropertyOp26
 70
     1
102
RTVSPropertyOp27
 70
     1
102
RTVSPropertyOp28
 70
     1
102
RTVSPropertyOp29
 70
     1
102
RTVSPropertyOp30
 70
     1
102
RTVSPropertyOp31
 70
     1
102
RTVSPropertyOp32
 70
     1
102
RTVSPropertyOp33
 70
     1
102
RTVSPropertyOp34
 70
     1
102
RTVSPropertyOp35
 70
     1
102
RTVSPropertyOp36
 70
     1
102
RTVSPropertyOp37
 70
     1
102
RTVSPropertyOp38
 70
     1
102
RTVSPropertyOp39
 70
     1
102
RTVSPropertyOp40
 70
     1
102
RTVSPropertyOp41
 70
     1
102
RTVSPropertyOp42
 70
     1
102
RTVSPropertyOp43
 70
     1
102
RTVSPropertyOp44
 70
     1
102
RTVSPropertyOp45
 70
     1
102
RTVSPropertyOp46
 70
     1
102
RTVSPropertyOp47
 70
     1
102
RTVSPropertyOp48
 70
     1
102
RTVSPropertyOp49
 70
     1
102
RTVSPropertyOp50
 70
     1
102
RTVSPropertyOp51
 70
     0
102
RTVSPropertyOp52
 70
     0
102
RTVSPropertyOp53
 70
     1
102
RTVSPropertyOp54
 70
     1
102
RTVSPropertyOp55
 70
     1
102
RTVSPropertyOp56
 70
     1
102
RTVSPropertyOp57
 70
     1
102
RTVSPost2010Prop28
280
     0
102
RTVSPost2010PropOp28
 70
     1
102
RTVSPost2010Prop29
280
     1
102
RTVSPost2010PropOp29
 70
     1
102
RTVSPost2010Prop30
280
     1
102
RTVSPost2010PropOp30
 70
     1
102
RTVSPost2010Prop31
280
     0
102
RTVSPost2010PropOp31
 70
     1
102
RTVSPost2010Prop32
280
     0
102
RTVSPost2010PropOp32
 70
     1
102
RTVSPost2010Prop33
280
     0
102
RTVSPost2010PropOp33
 70
     1
102
RTVSPost2010Prop34
280
     0
102
RTVSPost2010PropOp34
 70
     1
102
RTVSPost2010Prop35
280
     0
102
RTVSPost2010PropOp35
 70
     1
102
RTVSPost2010Prop36
280
     0
102
RTVSPost2010PropOp36
 70
     1
102
RTVSPost2010Prop37
 90
       50
102
RTVSPost2010PropOp37
 70
     1
102
RTVSPost2010Prop38
140
0.0
102
RTVSPost2010PropOp38
 70
     1
102
RTVSPost2010Prop39
140
1.0
102
RTVSPost2010PropOp39
 70
     1
102
RTVSPost2010Prop40
 90
        0
102
RTVSPost2010PropOp40
 70
     1
102
RTVSPost2010Prop41ColorIndex
 90
       18
102
RTVSPost2010Prop41ColorRGB
 90
        0
102
RTVSPost2010PropOp41
 70
     1
102
RTVSPost2010Prop42
 90
       50
102
RTVSPost2010PropOp42
 70
     1
102
RTVSPost2010Prop43
 90
        3
102
RTVSPost2010PropOp43
 70
     1
102
RTVSPost2010Prop44ColorIndex
 90
        5
102
RTVSPost2010Prop44ColorRGB
 90
      255
102
RTVSPost2010PropOp44
 70
     1
102
RTVSPost2010Prop45
280
     0
102
RTVSPost2010PropOp45
 70
     1
102
RTVSPost2010Prop46
 90
       50
102
RTVSPost2010PropOp46
 70
     1
102
RTVSPost2010Prop47
 90
       50
102
RTVSPost2010PropOp47
 70
     1
102
RTVSPost2010Prop48
 90
       50
102
RTVSPost2010PropOp48
 70
     1
102
RTVSPost2010Prop49
280
     0
102
RTVSPost2010PropOp49
 70
     1
102
RTVSPost2010Prop50
 90
       50
102
RTVSPost2010PropOp50
 70
     1
102
RTVSPost2010Prop51ColorIndex
 90
      256
102
RTVSPost2010Prop51ColorRGB
 90
-16777216
102
RTVSPost2010PropOp51
 70
     0
102
RTVSPost2010Prop52
140
1.0
102
RTVSPost2010PropOp52
 70
     0
102
RTVSPost2010Prop53
 90
        2
102
RTVSPost2010PropOp53
 70
     1
102
RTVSPost2010Prop54
  1
strokes_ogs.tif
102
RTVSPost2010PropOp54
 70
     1
102
RTVSPost2010Prop55
280
     0
102
RTVSPost2010PropOp55
 70
     1
102
RTVSPost2010Prop56
140
1.0
102
RTVSPost2010PropOp56
 70
     1
102
RTVSPost2010Prop57
140
1.0
102
RTVSPost2010PropOp57
 70
     1
  0
XRECORD
  5
10B
102
{ACAD_REACTORS
330
10A
102
}
330
10A
100
AcDbXrecord
280
     1
102
RTVSPropertyOp0
 70
     1
102
RTVSPropertyOp1
 70
     1
102
RTVSPropertyOp2
 70
     1
102
RTVSPropertyOp3
 70
     1
102
RTVSPropertyOp4
 70
     1
102
RTVSPropertyOp5
 70
     1
102
RTVSPropertyOp6
 70
     1
102
RTVSPropertyOp7
 70
     1
102
RTVSPropertyOp8
 70
     1
102
RTVSPropertyOp9
 70
     1
102
RTVSPropertyOp10
 70
     1
102
RTVSPropertyOp11
 70
     1
102
RTVSPropertyOp12
 70
     1
102
RTVSPropertyOp13
 70
     1
102
RTVSPropertyOp14
 70
     1
102
RTVSPropertyOp15
 70
     1
102
RTVSPropertyOp16
 70
     1
102
RTVSPropertyOp17
 70
     1
102
RTVSPropertyOp18
 70
     1
102
RTVSPropertyOp19
 70
     1
102
RTVSPropertyOp20
 70
     1
102
RTVSPropertyOp21
 70
     1
102
RTVSPropertyOp22
 70
     1
102
RTVSPropertyOp23
 70
     1
102
RTVSPropertyOp24
 70
     1
102
RTVSPropertyOp25
 70
     1
102
RTVSPropertyOp26
 70
     1
102
RTVSPropertyOp27
 70
     1
102
RTVSPropertyOp28
 70
     1
102
RTVSPropertyOp29
 70
     1
102
RTVSPropertyOp30
 70
     1
102
RTVSPropertyOp31
 70
     1
102
RTVSPropertyOp32
 70
     1
102
RTVSPropertyOp33
 70
     1
102
RTVSPropertyOp34
 70
     1
102
RTVSPropertyOp35
 70
     1
102
RTVSPropertyOp36
 70
     1
102
RTVSPropertyOp37
 70
     1
102
RTVSPropertyOp38
 70
     1
102
RTVSPropertyOp39
 70
     1
102
RTVSPropertyOp40
 70
     1
102
RTVSPropertyOp41
 70
     1
102
RTVSPropertyOp42
 70
     1
102
RTVSPropertyOp43
 70
     1
102
RTVSPropertyOp44
 70
     1
102
RTVSPropertyOp45
 70
     1
102
RTVSPropertyOp46
 70
     1
102
RTVSPropertyOp47
 70
     1
102
RTVSPropertyOp48
 70
     1
102
RTVSPropertyOp49
 70
     1
102
RTVSPropertyOp50
 70
     1
102
RTVSPropertyOp51
 70
     0
102
RTVSPropertyOp52
 70
     0
102
RTVSPropertyOp53
 70
     1
102
RTVSPropertyOp54
 70
     1
102
RTVSPropertyOp55
 70
     1
102
RTVSPropertyOp56
 70
     1
102
RTVSPropertyOp57
 70
     1
102
RTVSPost2010Prop28
280
     0
102
RTVSPost2010PropOp28
 70
     1
102
RTVSPost2010Prop29
280
     1
102
RTVSPost2010PropOp29
 70
     1
102
RTVSPost2010Prop30
280
     1
102
RTVSPost2010PropOp30
 70
     1
102
RTVSPost2010Prop31
280
     0
102
RTVSPost2010PropOp31
 70
     1
102
RTVSPost2010Prop32
280
     0
102
RTVSPost2010PropOp32
 70
     1
102
RTVSPost2010Prop33
280
     0
102
RTVSPost2010PropOp33
 70
     1
102
RTVSPost2010Prop34
280
     0
102
RTVSPost2010PropOp34
 70
     1
102
RTVSPost2010Prop35
280
     0
102
RTVSPost2010PropOp35
 70
     1
102
RTVSPost2010Prop36
280
     0
102
RTVSPost2010PropOp36
 70
     1
102
RTVSPost2010Prop37
 90
       50
102
RTVSPost2010PropOp37
 70
     1
102
RTVSPost2010Prop38
140
0.0
102
RTVSPost2010PropOp38
 70
     1
102
RTVSPost2010Prop39
140
1.0
102
RTVSPost2010PropOp39
 70
     1
102
RTVSPost2010Prop40
 90
        0
102
RTVSPost2010PropOp40
 70
     1
102
RTVSPost2010Prop41ColorIndex
 90
       18
102
RTVSPost2010Prop41ColorRGB
 90
        0
102
RTVSPost2010PropOp41
 70
     1
102
RTVSPost2010Prop42
 90
       50
102
RTVSPost2010PropOp42
 70
     1
102
RTVSPost2010Prop43
 90
        3
102
RTVSPost2010PropOp43
 70
     1
102
RTVSPost2010Prop44ColorIndex
 90
        5
102
RTVSPost2010Prop44ColorRGB
 90
      255
102
RTVSPost2010PropOp44
 70
     1
102
RTVSPost2010Prop45
280
     0
102
RTVSPost2010PropOp45
 70
     1
102
RTVSPost2010Prop46
 90
       50
102
RTVSPost2010PropOp46
 70
     1
102
RTVSPost2010Prop47
 90
       50
102
RTVSPost2010PropOp47
 70
     1
102
RTVSPost2010Prop48
 90
       50
102
RTVSPost2010PropOp48
 70
     1
102
RTVSPost2010Prop49
280
     0
102
RTVSPost2010PropOp49
 70
     1
102
RTVSPost2010Prop50
 90
       50
102
RTVSPost2010PropOp50
 70
     1
102
RTVSPost2010Prop51ColorIndex
 90
      256
102
RTVSPost2010Prop51ColorRGB
 90
-16777216
102
RTVSPost2010PropOp51
 70
     0
102
RTVSPost2010Prop52
140
1.0
102
RTVSPost2010PropOp52
 70
     0
102
RTVSPost2010Prop53
 90
        2
102
RTVSPost2010PropOp53
 70
     1
102
RTVSPost2010Prop54
  1
strokes_ogs.tif
102
RTVSPost2010PropOp54
 70
     1
102
RTVSPost2010Prop55
280
     0
102
RTVSPost2010PropOp55
 70
     1
102
RTVSPost2010Prop56
140
1.0
102
RTVSPost2010PropOp56
 70
     1
102
RTVSPost2010Prop57
140
1.0
102
RTVSPost2010PropOp57
 70
     1
  0
XRECORD
  5
10D
102
{ACAD_REACTORS
330
10C
102
}
330
10C
100
AcDbXrecord
280
     1
102
RTVSPropertyOp0
 70
     1
102
RTVSPropertyOp1
 70
     1
102
RTVSPropertyOp2
 70
     1
102
RTVSPropertyOp3
 70
     1
102
RTVSPropertyOp4
 70
     1
102
RTVSPropertyOp5
 70
     1
102
RTVSPropertyOp6
 70
     1
102
RTVSPropertyOp7
 70
     1
102
RTVSPropertyOp8
 70
     1
102
RTVSPropertyOp9
 70
     1
102
RTVSPropertyOp10
 70
     1
102
RTVSPropertyOp11
 70
     1
102
RTVSPropertyOp12
 70
     1
102
RTVSPropertyOp13
 70
     1
102
RTVSPropertyOp14
 70
     1
102
RTVSPropertyOp15
 70
     1
102
RTVSPropertyOp16
 70
     1
102
RTVSPropertyOp17
 70
     1
102
RTVSPropertyOp18
 70
     1
102
RTVSPropertyOp19
 70
     1
102
RTVSPropertyOp20
 70
     1
102
RTVSPropertyOp21
 70
     1
102
RTVSPropertyOp22
 70
     1
102
RTVSPropertyOp23
 70
     1
102
RTVSPropertyOp24
 70
     1
102
RTVSPropertyOp25
 70
     1
102
RTVSPropertyOp26
 70
     1
102
RTVSPropertyOp27
 70
     1
102
RTVSPropertyOp28
 70
     1
102
RTVSPropertyOp29
 70
     1
102
RTVSPropertyOp30
 70
     1
102
RTVSPropertyOp31
 70
     1
102
RTVSPropertyOp32
 70
     1
102
RTVSPropertyOp33
 70
     1
102
RTVSPropertyOp34
 70
     1
102
RTVSPropertyOp35
 70
     1
102
RTVSPropertyOp36
 70
     1
102
RTVSPropertyOp37
 70
     1
102
RTVSPropertyOp38
 70
     1
102
RTVSPropertyOp39
 70
     1
102
RTVSPropertyOp40
 70
     1
102
RTVSPropertyOp41
 70
     1
102
RTVSPropertyOp42
 70
     1
102
RTVSPropertyOp43
 70
     1
102
RTVSPropertyOp44
 70
     1
102
RTVSPropertyOp45
 70
     1
102
RTVSPropertyOp46
 70
     1
102
RTVSPropertyOp47
 70
     1
102
RTVSPropertyOp48
 70
     1
102
RTVSPropertyOp49
 70
     1
102
RTVSPropertyOp50
 70
     1
102
RTVSPropertyOp51
 70
     0
102
RTVSPropertyOp52
 70
     0
102
RTVSPropertyOp53
 70
     1
102
RTVSPropertyOp54
 70
     1
102
RTVSPropertyOp55
 70
     1
102
RTVSPropertyOp56
 70
     1
102
RTVSPropertyOp57
 70
     1
102
RTVSPost2010Prop28
280
     0
102
RTVSPost2010PropOp28
 70
     1
102
RTVSPost2010Prop29
280
     1
102
RTVSPost2010PropOp29
 70
     1
102
RTVSPost2010Prop30
280
     1
102
RTVSPost2010PropOp30
 70
     1
102
RTVSPost2010Prop31
280
     0
102
RTVSPost2010PropOp31
 70
     1
102
RTVSPost2010Prop32
280
     0
102
RTVSPost2010PropOp32
 70
     1
102
RTVSPost2010Prop33
280
     0
102
RTVSPost2010PropOp33
 70
     1
102
RTVSPost2010Prop34
280
     0
102
RTVSPost2010PropOp34
 70
     1
102
RTVSPost2010Prop35
280
     0
102
RTVSPost2010PropOp35
 70
     1
102
RTVSPost2010Prop36
280
     0
102
RTVSPost2010PropOp36
 70
     1
102
RTVSPost2010Prop37
 90
       50
102
RTVSPost2010PropOp37
 70
     1
102
RTVSPost2010Prop38
140
0.0
102
RTVSPost2010PropOp38
 70
     1
102
RTVSPost2010Prop39
140
1.0
102
RTVSPost2010PropOp39
 70
     1
102
RTVSPost2010Prop40
 90
        0
102
RTVSPost2010PropOp40
 70
     1
102
RTVSPost2010Prop41ColorIndex
 90
       18
102
RTVSPost2010Prop41ColorRGB
 90
        0
102
RTVSPost2010PropOp41
 70
     1
102
RTVSPost2010Prop42
 90
       50
102
RTVSPost2010PropOp42
 70
     1
102
RTVSPost2010Prop43
 90
        3
102
RTVSPost2010PropOp43
 70
     1
102
RTVSPost2010Prop44ColorIndex
 90
        5
102
RTVSPost2010Prop44ColorRGB
 90
      255
102
RTVSPost2010PropOp44
 70
     1
102
RTVSPost2010Prop45
280
     0
102
RTVSPost2010PropOp45
 70
     1
102
RTVSPost2010Prop46
 90
       50
102
RTVSPost2010PropOp46
 70
     1
102
RTVSPost2010Prop47
 90
       50
102
RTVSPost2010PropOp47
 70
     1
102
RTVSPost2010Prop48
 90
       50
102
RTVSPost2010PropOp48
 70
     1
102
RTVSPost2010Prop49
280
     0
102
RTVSPost2010PropOp49
 70
     1
102
RTVSPost2010Prop50
 90
       50
102
RTVSPost2010PropOp50
 70
     1
102
RTVSPost2010Prop51ColorIndex
 90
      256
102
RTVSPost2010Prop51ColorRGB
 90
-16777216
102
RTVSPost2010PropOp51
 70
     0
102
RTVSPost2010Prop52
140
1.0
102
RTVSPost2010PropOp52
 70
     0
102
RTVSPost2010Prop53
 90
        2
102
RTVSPost2010PropOp53
 70
     1
102
RTVSPost2010Prop54
  1
strokes_ogs.tif
102
RTVSPost2010PropOp54
 70
     1
102
RTVSPost2010Prop55
280
     0
102
RTVSPost2010PropOp55
 70
     1
102
RTVSPost2010Prop56
140
1.0
102
RTVSPost2010PropOp56
 70
     1
102
RTVSPost2010Prop57
140
1.0
102
RTVSPost2010PropOp57
 70
     1
  0
XRECORD
  5
FD
102
{ACAD_REACTORS
330
FC
102
}
330
FC
100
AcDbXrecord
280
     1
102
RTVSPropertyOp0
 70
     1
102
RTVSPropertyOp1
 70
     1
102
RTVSPropertyOp2
 70
     1
102
RTVSPropertyOp3
 70
     1
102
RTVSPropertyOp4
 70
     1
102
RTVSPropertyOp5
 70
     1
102
RTVSPropertyOp6
 70
     1
102
RTVSPropertyOp7
 70
     1
102
RTVSPropertyOp8
 70
     1
102
RTVSPropertyOp9
 70
     1
102
RTVSPropertyOp10
 70
     1
102
RTVSPropertyOp11
 70
     1
102
RTVSPropertyOp12
 70
     1
102
RTVSPropertyOp13
 70
     1
102
RTVSPropertyOp14
 70
     1
102
RTVSPropertyOp15
 70
     1
102
RTVSPropertyOp16
 70
     1
102
RTVSPropertyOp17
 70
     1
102
RTVSPropertyOp18
 70
     1
102
RTVSPropertyOp19
 70
     1
102
RTVSPropertyOp20
 70
     1
102
RTVSPropertyOp21
 70
     1
102
RTVSPropertyOp22
 70
     1
102
RTVSPropertyOp23
 70
     1
102
RTVSPropertyOp24
 70
     1
102
RTVSPropertyOp25
 70
     1
102
RTVSPropertyOp26
 70
     1
102
RTVSPropertyOp27
 70
     1
102
RTVSPropertyOp28
 70
     1
102
RTVSPropertyOp29
 70
     1
102
RTVSPropertyOp30
 70
     1
102
RTVSPropertyOp31
 70
     1
102
RTVSPropertyOp32
 70
     1
102
RTVSPropertyOp33
 70
     1
102
RTVSPropertyOp34
 70
     1
102
RTVSPropertyOp35
 70
     1
102
RTVSPropertyOp36
 70
     1
102
RTVSPropertyOp37
 70
     1
102
RTVSPropertyOp38
 70
     1
102
RTVSPropertyOp39
 70
     1
102
RTVSPropertyOp40
 70
     1
102
RTVSPropertyOp41
 70
     1
102
RTVSPropertyOp42
 70
     1
102
RTVSPropertyOp43
 70
     1
102
RTVSPropertyOp44
 70
     1
102
RTVSPropertyOp45
 70
     1
102
RTVSPropertyOp46
 70
     1
102
RTVSPropertyOp47
 70
     1
102
RTVSPropertyOp48
 70
     1
102
RTVSPropertyOp49
 70
     1
102
RTVSPropertyOp50
 70
     1
102
RTVSPropertyOp51
 70
     0
102
RTVSPropertyOp52
 70
     0
102
RTVSPropertyOp53
 70
     1
102
RTVSPropertyOp54
 70
     1
102
RTVSPropertyOp55
 70
     1
102
RTVSPropertyOp56
 70
     1
102
RTVSPropertyOp57
 70
     1
102
RTVSPost2010Prop28
280
     0
102
RTVSPost2010PropOp28
 70
     1
102
RTVSPost2010Prop29
280
     1
102
RTVSPost2010PropOp29
 70
     1
102
RTVSPost2010Prop30
280
     1
102
RTVSPost2010PropOp30
 70
     1
102
RTVSPost2010Prop31
280
     0
102
RTVSPost2010PropOp31
 70
     1
102
RTVSPost2010Prop32
280
     0
102
RTVSPost2010PropOp32
 70
     1
102
RTVSPost2010Prop33
280
     0
102
RTVSPost2010PropOp33
 70
     1
102
RTVSPost2010Prop34
280
     0
102
RTVSPost2010PropOp34
 70
     1
102
RTVSPost2010Prop35
280
     0
102
RTVSPost2010PropOp35
 70
     1
102
RTVSPost2010Prop36
280
     0
102
RTVSPost2010PropOp36
 70
     1
102
RTVSPost2010Prop37
 90
       50
102
RTVSPost2010PropOp37
 70
     1
102
RTVSPost2010Prop38
140
0.0
102
RTVSPost2010PropOp38
 70
     1
102
RTVSPost2010Prop39
140
1.0
102
RTVSPost2010PropOp39
 70
     1
102
RTVSPost2010Prop40
 90
        0
102
RTVSPost2010PropOp40
 70
     1
102
RTVSPost2010Prop41ColorIndex
 90
       18
102
RTVSPost2010Prop41ColorRGB
 90
        0
102
RTVSPost2010PropOp41
 70
     1
102
RTVSPost2010Prop42
 90
       50
102
RTVSPost2010PropOp42
 70
     1
102
RTVSPost2010Prop43
 90
        3
102
RTVSPost2010PropOp43
 70
     1
102
RTVSPost2010Prop44ColorIndex
 90
        5
102
RTVSPost2010Prop44ColorRGB
 90
      255
102
RTVSPost2010PropOp44
 70
     1
102
RTVSPost2010Prop45
280
     0
102
RTVSPost2010PropOp45
 70
     1
102
RTVSPost2010Prop46
 90
       50
102
RTVSPost2010PropOp46
 70
     1
102
RTVSPost2010Prop47
 90
       50
102
RTVSPost2010PropOp47
 70
     1
102
RTVSPost2010Prop48
 90
       50
102
RTVSPost2010PropOp48
 70
     1
102
RTVSPost2010Prop49
280
     0
102
RTVSPost2010PropOp49
 70
     1
102
RTVSPost2010Prop50
 90
       50
102
RTVSPost2010PropOp50
 70
     1
102
RTVSPost2010Prop51ColorIndex
 90
      256
102
RTVSPost2010Prop51ColorRGB
 90
-16777216
102
RTVSPost2010PropOp51
 70
     0
102
RTVSPost2010Prop52
140
1.0
102
RTVSPost2010PropOp52
 70
     0
102
RTVSPost2010Prop53
 90
        2
102
RTVSPost2010PropOp53
 70
     1
102
RTVSPost2010Prop54
  1
strokes_ogs.tif
102
RTVSPost2010PropOp54
 70
     1
102
RTVSPost2010Prop55
280
     0
102
RTVSPost2010PropOp55
 70
     1
102
RTVSPost2010Prop56
140
1.0
102
RTVSPost2010PropOp56
 70
     1
102
RTVSPost2010Prop57
140
1.0
102
RTVSPost2010PropOp57
 70
     1
  0
XRECORD
  5
EF
102
{ACAD_REACTORS
330
EE
102
}
330
EE
100
AcDbXrecord
280
     1
102
RTVSPropertyOp0
 70
     1
102
RTVSPropertyOp1
 70
     1
102
RTVSPropertyOp2
 70
     1
102
RTVSPropertyOp3
 70
     1
102
RTVSPropertyOp4
 70
     1
102
RTVSPropertyOp5
 70
     1
102
RTVSPropertyOp6
 70
     1
102
RTVSPropertyOp7
 70
     1
102
RTVSPropertyOp8
 70
     1
102
RTVSPropertyOp9
 70
     1
102
RTVSPropertyOp10
 70
     1
102
RTVSPropertyOp11
 70
     1
102
RTVSPropertyOp12
 70
     1
102
RTVSPropertyOp13
 70
     1
102
RTVSPropertyOp14
 70
     1
102
RTVSPropertyOp15
 70
     1
102
RTVSPropertyOp16
 70
     1
102
RTVSPropertyOp17
 70
     1
102
RTVSPropertyOp18
 70
     1
102
RTVSPropertyOp19
 70
     1
102
RTVSPropertyOp20
 70
     1
102
RTVSPropertyOp21
 70
     1
102
RTVSPropertyOp22
 70
     1
102
RTVSPropertyOp23
 70
     1
102
RTVSPropertyOp24
 70
     1
102
RTVSPropertyOp25
 70
     1
102
RTVSPropertyOp26
 70
     1
102
RTVSPropertyOp27
 70
     1
102
RTVSPropertyOp28
 70
     1
102
RTVSPropertyOp29
 70
     1
102
RTVSPropertyOp30
 70
     1
102
RTVSPropertyOp31
 70
     1
102
RTVSPropertyOp32
 70
     1
102
RTVSPropertyOp33
 70
     1
102
RTVSPropertyOp34
 70
     1
102
RTVSPropertyOp35
 70
     1
102
RTVSPropertyOp36
 70
     1
102
RTVSPropertyOp37
 70
     1
102
RTVSPropertyOp38
 70
     1
102
RTVSPropertyOp39
 70
     1
102
RTVSPropertyOp40
 70
     1
102
RTVSPropertyOp41
 70
     1
102
RTVSPropertyOp42
 70
     1
102
RTVSPropertyOp43
 70
     1
102
RTVSPropertyOp44
 70
     1
102
RTVSPropertyOp45
 70
     1
102
RTVSPropertyOp46
 70
     1
102
RTVSPropertyOp47
 70
     1
102
RTVSPropertyOp48
 70
     1
102
RTVSPropertyOp49
 70
     1
102
RTVSPropertyOp50
 70
     1
102
RTVSPropertyOp51
 70
     0
102
RTVSPropertyOp52
 70
     0
102
RTVSPropertyOp53
 70
     1
102
RTVSPropertyOp54
 70
     1
102
RTVSPropertyOp55
 70
     1
102
RTVSPropertyOp56
 70
     1
102
RTVSPropertyOp57
 70
     1
102
RTVSPost2010Prop28
280
     0
102
RTVSPost2010PropOp28
 70
     1
102
RTVSPost2010Prop29
280
     1
102
RTVSPost2010PropOp29
 70
     1
102
RTVSPost2010Prop30
280
     1
102
RTVSPost2010PropOp30
 70
     1
102
RTVSPost2010Prop31
280
     0
102
RTVSPost2010PropOp31
 70
     1
102
RTVSPost2010Prop32
280
     0
102
RTVSPost2010PropOp32
 70
     1
102
RTVSPost2010Prop33
280
     0
102
RTVSPost2010PropOp33
 70
     1
102
RTVSPost2010Prop34
280
     0
102
RTVSPost2010PropOp34
 70
     1
102
RTVSPost2010Prop35
280
     0
102
RTVSPost2010PropOp35
 70
     1
102
RTVSPost2010Prop36
280
     0
102
RTVSPost2010PropOp36
 70
     1
102
RTVSPost2010Prop37
 90
       50
102
RTVSPost2010PropOp37
 70
     1
102
RTVSPost2010Prop38
140
0.0
102
RTVSPost2010PropOp38
 70
     1
102
RTVSPost2010Prop39
140
1.0
102
RTVSPost2010PropOp39
 70
     1
102
RTVSPost2010Prop40
 90
        0
102
RTVSPost2010PropOp40
 70
     1
102
RTVSPost2010Prop41ColorIndex
 90
       18
102
RTVSPost2010Prop41ColorRGB
 90
        0
102
RTVSPost2010PropOp41
 70
     1
102
RTVSPost2010Prop42
 90
       50
102
RTVSPost2010PropOp42
 70
     1
102
RTVSPost2010Prop43
 90
        3
102
RTVSPost2010PropOp43
 70
     1
102
RTVSPost2010Prop44ColorIndex
 90
        5
102
RTVSPost2010Prop44ColorRGB
 90
      255
102
RTVSPost2010PropOp44
 70
     1
102
RTVSPost2010Prop45
280
     0
102
RTVSPost2010PropOp45
 70
     1
102
RTVSPost2010Prop46
 90
       50
102
RTVSPost2010PropOp46
 70
     1
102
RTVSPost2010Prop47
 90
       50
102
RTVSPost2010PropOp47
 70
     1
102
RTVSPost2010Prop48
 90
       50
102
RTVSPost2010PropOp48
 70
     1
102
RTVSPost2010Prop49
280
     0
102
RTVSPost2010PropOp49
 70
     1
102
RTVSPost2010Prop50
 90
       50
102
RTVSPost2010PropOp50
 70
     1
102
RTVSPost2010Prop51ColorIndex
 90
      256
102
RTVSPost2010Prop51ColorRGB
 90
-16777216
102
RTVSPost2010PropOp51
 70
     0
102
RTVSPost2010Prop52
140
1.0
102
RTVSPost2010PropOp52
 70
     0
102
RTVSPost2010Prop53
 90
        2
102
RTVSPost2010PropOp53
 70
     1
102
RTVSPost2010Prop54
  1
strokes_ogs.tif
102
RTVSPost2010PropOp54
 70
     1
102
RTVSPost2010Prop55
280
     0
102
RTVSPost2010PropOp55
 70
     1
102
RTVSPost2010Prop56
140
1.0
102
RTVSPost2010PropOp56
 70
     1
102
RTVSPost2010Prop57
140
1.0
102
RTVSPost2010PropOp57
 70
     1
  0
XRECORD
  5
10F
102
{ACAD_REACTORS
330
10E
102
}
330
10E
100
AcDbXrecord
280
     1
102
RTVSPropertyOp0
 70
     1
102
RTVSPropertyOp1
 70
     1
102
RTVSPropertyOp2
 70
     1
102
RTVSPropertyOp3
 70
     1
102
RTVSPropertyOp4
 70
     1
102
RTVSPropertyOp5
 70
     1
102
RTVSPropertyOp6
 70
     1
102
RTVSPropertyOp7
 70
     1
102
RTVSPropertyOp8
 70
     1
102
RTVSPropertyOp9
 70
     1
102
RTVSPropertyOp10
 70
     1
102
RTVSPropertyOp11
 70
     1
102
RTVSPropertyOp12
 70
     1
102
RTVSPropertyOp13
 70
     1
102
RTVSPropertyOp14
 70
     1
102
RTVSPropertyOp15
 70
     1
102
RTVSPropertyOp16
 70
     1
102
RTVSPropertyOp17
 70
     1
102
RTVSPropertyOp18
 70
     1
102
RTVSPropertyOp19
 70
     1
102
RTVSPropertyOp20
 70
     1
102
RTVSPropertyOp21
 70
     1
102
RTVSPropertyOp22
 70
     1
102
RTVSPropertyOp23
 70
     1
102
RTVSPropertyOp24
 70
     1
102
RTVSPropertyOp25
 70
     1
102
RTVSPropertyOp26
 70
     1
102
RTVSPropertyOp27
 70
     1
102
RTVSPropertyOp28
 70
     1
102
RTVSPropertyOp29
 70
     1
102
RTVSPropertyOp30
 70
     1
102
RTVSPropertyOp31
 70
     1
102
RTVSPropertyOp32
 70
     1
102
RTVSPropertyOp33
 70
     1
102
RTVSPropertyOp34
 70
     1
102
RTVSPropertyOp35
 70
     1
102
RTVSPropertyOp36
 70
     1
102
RTVSPropertyOp37
 70
     1
102
RTVSPropertyOp38
 70
     1
102
RTVSPropertyOp39
 70
     1
102
RTVSPropertyOp40
 70
     1
102
RTVSPropertyOp41
 70
     1
102
RTVSPropertyOp42
 70
     1
102
RTVSPropertyOp43
 70
     1
102
RTVSPropertyOp44
 70
     1
102
RTVSPropertyOp45
 70
     1
102
RTVSPropertyOp46
 70
     1
102
RTVSPropertyOp47
 70
     1
102
RTVSPropertyOp48
 70
     1
102
RTVSPropertyOp49
 70
     1
102
RTVSPropertyOp50
 70
     1
102
RTVSPropertyOp51
 70
     0
102
RTVSPropertyOp52
 70
     0
102
RTVSPropertyOp53
 70
     1
102
RTVSPropertyOp54
 70
     1
102
RTVSPropertyOp55
 70
     1
102
RTVSPropertyOp56
 70
     1
102
RTVSPropertyOp57
 70
     1
102
RTVSPost2010Prop28
280
     0
102
RTVSPost2010PropOp28
 70
     1
102
RTVSPost2010Prop29
280
     1
102
RTVSPost2010PropOp29
 70
     1
102
RTVSPost2010Prop30
280
     1
102
RTVSPost2010PropOp30
 70
     1
102
RTVSPost2010Prop31
280
     0
102
RTVSPost2010PropOp31
 70
     1
102
RTVSPost2010Prop32
280
     0
102
RTVSPost2010PropOp32
 70
     1
102
RTVSPost2010Prop33
280
     0
102
RTVSPost2010PropOp33
 70
     1
102
RTVSPost2010Prop34
280
     0
102
RTVSPost2010PropOp34
 70
     1
102
RTVSPost2010Prop35
280
     0
102
RTVSPost2010PropOp35
 70
     1
102
RTVSPost2010Prop36
280
     0
102
RTVSPost2010PropOp36
 70
     1
102
RTVSPost2010Prop37
 90
       50
102
RTVSPost2010PropOp37
 70
     1
102
RTVSPost2010Prop38
140
0.0
102
RTVSPost2010PropOp38
 70
     1
102
RTVSPost2010Prop39
140
1.0
102
RTVSPost2010PropOp39
 70
     1
102
RTVSPost2010Prop40
 90
        0
102
RTVSPost2010PropOp40
 70
     1
102
RTVSPost2010Prop41ColorIndex
 90
       18
102
RTVSPost2010Prop41ColorRGB
 90
        0
102
RTVSPost2010PropOp41
 70
     1
102
RTVSPost2010Prop42
 90
       50
102
RTVSPost2010PropOp42
 70
     1
102
RTVSPost2010Prop43
 90
        3
102
RTVSPost2010PropOp43
 70
     1
102
RTVSPost2010Prop44ColorIndex
 90
        5
102
RTVSPost2010Prop44ColorRGB
 90
      255
102
RTVSPost2010PropOp44
 70
     1
102
RTVSPost2010Prop45
280
     0
102
RTVSPost2010PropOp45
 70
     1
102
RTVSPost2010Prop46
 90
       50
102
RTVSPost2010PropOp46
 70
     1
102
RTVSPost2010Prop47
 90
       50
102
RTVSPost2010PropOp47
 70
     1
102
RTVSPost2010Prop48
 90
       50
102
RTVSPost2010PropOp48
 70
     1
102
RTVSPost2010Prop49
280
     0
102
RTVSPost2010PropOp49
 70
     1
102
RTVSPost2010Prop50
 90
       50
102
RTVSPost2010PropOp50
 70
     1
102
RTVSPost2010Prop51ColorIndex
 90
      256
102
RTVSPost2010Prop51ColorRGB
 90
-16777216
102
RTVSPost2010PropOp51
 70
     0
102
RTVSPost2010Prop52
140
1.0
102
RTVSPost2010PropOp52
 70
     0
102
RTVSPost2010Prop53
 90
        2
102
RTVSPost2010PropOp53
 70
     1
102
RTVSPost2010Prop54
  1
strokes_ogs.tif
102
RTVSPost2010PropOp54
 70
     1
102
RTVSPost2010Prop55
280
     0
102
RTVSPost2010PropOp55
 70
     1
102
RTVSPost2010Prop56
140
1.0
102
RTVSPost2010PropOp56
 70
     1
102
RTVSPost2010Prop57
140
1.0
102
RTVSPost2010PropOp57
 70
     1
  0
ENDSEC
  0
EOF
