  0
SECTION
  2
HEADER
  9
$ACADVER
  1
AC1021
  9
$ACADMAINTVER
 70
    25
  9
$DWGCODEPAGE
  3
ANSI_1256
  9
$INSBASE
 10
0.0
 20
0.0
 30
0.0
  9
$EXTMIN
 10
-187.4316
 20
-114.823
 30
0.0
  9
$EXTMAX
 10
3.3079
 20
131.7537
 30
0.0
  9
$LIMMIN
 10
0.0
 20
0.0
  9
$LIMMAX
 10
12.0
 20
9.0
  9
$ORTHOMODE
 70
     0
  9
$REGENMODE
 70
     1
  9
$FILLMODE
 70
     1
  9
$QTEXTMODE
 70
     0
  9
$MIRRTEXT
 70
     1
  9
$LTSCALE
 40
1.0
  9
$ATTMODE
 70
     1
  9
$TEXTSIZE
 40
0.2
  9
$TRACEWID
 40
0.05
  9
$TEXTSTYLE
  7
Standard
  9
$CLAYER
  8
0
  9
$CELTYPE
  6
ByLayer
  9
$CECOLOR
 62
   256
  9
$CELTSCALE
 40
1.0
  9
$DISPSILH
 70
     0
  9
$DIMSCALE
 40
1.0
  9
$DIMASZ
 40
0.18
  9
$DIMEXO
 40
0.0625
  9
$DIMDLI
 40
0.38
  9
$DIMRND
 40
0.0
  9
$DIMDLE
 40
0.0
  9
$DIMEXE
 40
0.18
  9
$DIMTP
 40
0.0
  9
$DIMTM
 40
0.0
  9
$DIMTXT
 40
0.18
  9
$DIMCEN
 40
0.09
  9
$DIMTSZ
 40
0.0
  9
$DIMTOL
 70
     0
  9
$DIMLIM
 70
     0
  9
$DIMTIH
 70
     1
  9
$DIMTOH
 70
     1
  9
$DIMSE1
 70
     0
  9
$DIMSE2
 70
     0
  9
$DIMTAD
 70
     0
  9
$DIMZIN
 70
     0
  9
$DIMBLK
  1

  9
$DIMASO
 70
     1
  9
$DIMSHO
 70
     1
  9
$DIMPOST
  1

  9
$DIMAPOST
  1

  9
$DIMALT
 70
     0
  9
$DIMALTD
 70
     2
  9
$DIMALTF
 40
25.4
  9
$DIMLFAC
 40
1.0
  9
$DIMTOFL
 70
     0
  9
$DIMTVP
 40
0.0
  9
$DIMTIX
 70
     0
  9
$DIMSOXD
 70
     0
  9
$DIMSAH
 70
     0
  9
$DIMBLK1
  1

  9
$DIMBLK2
  1

  9
$DIMSTYLE
  2
Standard
  9
$DIMCLRD
 70
     0
  9
$DIMCLRE
 70
     0
  9
$DIMCLRT
 70
     0
  9
$DIMTFAC
 40
1.0
  9
$DIMGAP
 40
0.09
  9
$DIMJUST
 70
     0
  9
$DIMSD1
 70
     0
  9
$DIMSD2
 70
     0
  9
$DIMTOLJ
 70
     1
  9
$DIMTZIN
 70
     0
  9
$DIMALTZ
 70
     0
  9
$DIMALTTZ
 70
     0
  9
$DIMUPT
 70
     0
  9
$DIMDEC
 70
     4
  9
$DIMTDEC
 70
     4
  9
$DIMALTU
 70
     2
  9
$DIMALTTD
 70
     2
  9
$DIMTXSTY
  7
Standard
  9
$DIMAUNIT
 70
     0
  9
$DIMADEC
 70
     0
  9
$DIMALTRND
 40
0.0
  9
$DIMAZIN
 70
     0
  9
$DIMDSEP
 70
    46
  9
$DIMATFIT
 70
     3
  9
$DIMFRAC
 70
     0
  9
$DIMLDRBLK
  1

  9
$DIMLUNIT
 70
     2
  9
$DIMLWD
 70
    -2
  9
$DIMLWE
 70
    -2
  9
$DIMTMOVE
 70
     0
  9
$DIMFXL
 40
1.0
  9
$DIMFXLON
 70
     0
  9
$DIMJOGANG
 40
0.7853981633974483
  9
$DIMTFILL
 70
     0
  9
$DIMTFILLCLR
 70
     0
  9
$DIMARCSYM
 70
     0
  9
$DIMLTYPE
  6

  9
$DIMLTEX1
  6

  9
$DIMLTEX2
  6

  9
$LUNITS
 70
     2
  9
$LUPREC
 70
     4
  9
$SKETCHINC
 40
0.1
  9
$FILLETRAD
 40
0.5
  9
$AUNITS
 70
     0
  9
$AUPREC
 70
     0
  9
$MENU
  1
.
  9
$ELEVATION
 40
0.0
  9
$PELEVATION
 40
0.0
  9
$THICKNESS
 40
0.0
  9
$LIMCHECK
 70
     0
  9
$CHAMFERA
 40
0.5
  9
$CHAMFERB
 40
0.5
  9
$CHAMFERC
 40
1.0
  9
$CHAMFERD
 40
0.0
  9
$SKPOLY
 70
     0
  9
$TDCREATE
 40
2458492.977138241
  9
$TDUCREATE
 40
2458492.810471574
  9
$TDUPDATE
 40
2458492.977138634
  9
$TDUUPDATE
 40
2458492.810471968
  9
$TDINDWG
 40
0.0000000116
  9
$TDUSRTIMER
 40
0.0000000116
  9
$USRTIMER
 70
     1
  9
$ANGBASE
 50
0.0
  9
$ANGDIR
 70
     0
  9
$PDMODE
 70
     0
  9
$PDSIZE
 40
0.0
  9
$PLINEWID
 40
0.0
  9
$SPLFRAME
 70
     0
  9
$SPLINETYPE
 70
     6
  9
$SPLINESEGS
 70
     8
  9
$HANDSEED
  5
165
  9
$SURFTAB1
 70
     6
  9
$SURFTAB2
 70
     6
  9
$SURFTYPE
 70
     6
  9
$SURFU
 70
     6
  9
$SURFV
 70
     6
  9
$UCSBASE
  2

  9
$UCSNAME
  2

  9
$UCSORG
 10
0.0
 20
0.0
 30
0.0
  9
$UCSXDIR
 10
1.0
 20
0.0
 30
0.0
  9
$UCSYDIR
 10
0.0
 20
1.0
 30
0.0
  9
$UCSORTHOREF
  2

  9
$UCSORTHOVIEW
 70
     0
  9
$UCSORGTOP
 10
0.0
 20
0.0
 30
0.0
  9
$UCSORGBOTTOM
 10
0.0
 20
0.0
 30
0.0
  9
$UCSORGLEFT
 10
0.0
 20
0.0
 30
0.0
  9
$UCSORGRIGHT
 10
0.0
 20
0.0
 30
0.0
  9
$UCSORGFRONT
 10
0.0
 20
0.0
 30
0.0
  9
$UCSORGBACK
 10
0.0
 20
0.0
 30
0.0
  9
$PUCSBASE
  2

  9
$PUCSNAME
  2

  9
$PUCSORG
 10
0.0
 20
0.0
 30
0.0
  9
$PUCSXDIR
 10
1.0
 20
0.0
 30
0.0
  9
$PUCSYDIR
 10
0.0
 20
1.0
 30
0.0
  9
$PUCSORTHOREF
  2

  9
$PUCSORTHOVIEW
 70
     0
  9
$PUCSORGTOP
 10
0.0
 20
0.0
 30
0.0
  9
$PUCSORGBOTTOM
 10
0.0
 20
0.0
 30
0.0
  9
$PUCSORGLEFT
 10
0.0
 20
0.0
 30
0.0
  9
$PUCSORGRIGHT
 10
0.0
 20
0.0
 30
0.0
  9
$PUCSORGFRONT
 10
0.0
 20
0.0
 30
0.0
  9
$PUCSORGBACK
 10
0.0
 20
0.0
 30
0.0
  9
$USERI1
 70
     0
  9
$USERI2
 70
     0
  9
$USERI3
 70
     0
  9
$USERI4
 70
     0
  9
$USERI5
 70
     0
  9
$USERR1
 40
0.0
  9
$USERR2
 40
0.0
  9
$USERR3
 40
0.0
  9
$USERR4
 40
0.0
  9
$USERR5
 40
0.0
  9
$WORLDVIEW
 70
     1
  9
$SHADEDGE
 70
     3
  9
$SHADEDIF
 70
    70
  9
$TILEMODE
 70
     1
  9
$MAXACTVP
 70
    64
  9
$PINSBASE
 10
0.0
 20
0.0
 30
0.0
  9
$PLIMCHECK
 70
     0
  9
$PEXTMIN
 10
1.000000000000000E+20
 20
1.000000000000000E+20
 30
1.000000000000000E+20
  9
$PEXTMAX
 10
-1.000000000000000E+20
 20
-1.000000000000000E+20
 30
-1.000000000000000E+20
  9
$PLIMMIN
 10
0.0
 20
0.0
  9
$PLIMMAX
 10
12.0
 20
9.0
  9
$UNITMODE
 70
     0
  9
$VISRETAIN
 70
     1
  9
$PLINEGEN
 70
     0
  9
$PSLTSCALE
 70
     1
  9
$TREEDEPTH
 70
  3020
  9
$CMLSTYLE
  2
Standard
  9
$CMLJUST
 70
     0
  9
$CMLSCALE
 40
1.0
  9
$PROXYGRAPHICS
 70
     1
  9
$MEASUREMENT
 70
     0
  9
$CELWEIGHT
370
    -1
  9
$ENDCAPS
280
     0
  9
$JOINSTYLE
280
     0
  9
$LWDISPLAY
290
     0
  9
$INSUNITS
 70
     4
  9
$HYPERLINKBASE
  1

  9
$STYLESHEET
  1

  9
$XEDIT
290
     1
  9
$CEPSNTYPE
380
     0
  9
$PSTYLEMODE
290
     1
  9
$FINGERPRINTGUID
  2
{5CE7E3D0-9D0D-4EC4-A0B6-48F6FFE74575}
  9
$VERSIONGUID
  2
{FAEB1C32-E019-11D5-929B-00C0DF256EC4}
  9
$EXTNAMES
290
     1
  9
$PSVPSCALE
 40
0.0
  9
$OLESTARTUP
290
     0
  9
$SORTENTS
280
   127
  9
$INDEXCTL
280
     0
  9
$HIDETEXT
280
     1
  9
$XCLIPFRAME
290
     0
  9
$HALOGAP
280
     0
  9
$OBSCOLOR
 70
   257
  9
$OBSLTYPE
280
     0
  9
$INTERSECTIONDISPLAY
280
     0
  9
$INTERSECTIONCOLOR
 70
   257
  9
$DIMASSOC
280
     2
  9
$PROJECTNAME
  1

  9
$CAMERADISPLAY
290
     0
  9
$LENSLENGTH
 40
50.0
  9
$CAMERAHEIGHT
 40
0.0
  9
$STEPSPERSEC
 40
2.0
  9
$STEPSIZE
 40
6.0
  9
$3DDWFPREC
 40
2.0
  9
$PSOLWIDTH
 40
0.25
  9
$PSOLHEIGHT
 40
4.0
  9
$LOFTANG1
 40
1.570796326794897
  9
$LOFTANG2
 40
1.570796326794897
  9
$LOFTMAG1
 40
0.0
  9
$LOFTMAG2
 40
0.0
  9
$LOFTPARAM
 70
     7
  9
$LOFTNORMALS
280
     1
  9
$LATITUDE
 40
37.795
  9
$LONGITUDE
 40
-122.394
  9
$NORTHDIRECTION
 40
0.0
  9
$TIMEZONE
 70
 -8000
  9
$LIGHTGLYPHDISPLAY
280
     1
  9
$TILEMODELIGHTSYNCH
280
     1
  9
$SOLIDHIST
280
     1
  9
$SHOWHIST
280
     1
  9
$DWFFRAME
280
     2
  9
$DGNFRAME
280
     2
  9
$REALWORLDSCALE
290
     1
  9
$INTERFERECOLOR
 62
   256
  9
$CSHADOW
280
     0
  9
$SHADOWPLANELOCATION
 40
0.0
  0
ENDSEC
  0
SECTION
  2
CLASSES
  0
CLASS
  1
ACDBDICTIONARYWDFLT
  2
AcDbDictionaryWithDefault
  3
ObjectDBX Classes
 90
        0
 91
        4
280
     0
281
     0
  0
CLASS
  1
VISUALSTYLE
  2
AcDbVisualStyle
  3
ObjectDBX Classes
 90
     4095
 91
        4
280
     0
281
     0
  0
CLASS
  1
MATERIAL
  2
AcDbMaterial
  3
ObjectDBX Classes
 90
     1153
 91
        4
280
     0
281
     0
  0
ENDSEC
  0
SECTION
  2
TABLES
  0
TABLE
  2
VPORT
  5
8
330
0
100
AcDbSymbolTable
 70
     1
  0
VPORT
  5
29
330
8
100
AcDbSymbolTableRecord
100
AcDbViewportTableRecord
  2
*Active
 70
     0
 10
0.0
 20
0.0
 11
1.0
 21
1.0
 12
10.42990654205607
 22
4.5
 13
0.0
 23
0.0
 14
0.5
 24
0.5
 15
0.5
 25
0.5
 16
0.0
 26
0.0
 36
1.0
 17
0.0
 27
0.0
 37
0.0
 40
9.0
 41
1.972972972850329
 42
50.0
 43
0.0
 44
0.0
 50
0.0
 51
0.0
 71
     0
 72
   100
 73
     1
 74
     3
 75
     0
 76
     0
 77
     0
 78
     0
281
     0
 65
     1
110
0.0
120
0.0
130
0.0
111
1.0
121
0.0
131
0.0
112
0.0
122
1.0
132
0.0
 79
     0
146
0.0
 60
     3
 61
     5
292
     1
282
     1
141
0.0
142
0.0
 63
   250
  0
ENDTAB
  0
TABLE
  2
LTYPE
  5
5
330
0
100
AcDbSymbolTable
 70
     1
  0
LTYPE
  5
14
330
5
100
AcDbSymbolTableRecord
100
AcDbLinetypeTableRecord
  2
ByBlock
 70
     0
  3

 72
    65
 73
     0
 40
0.0
  0
LTYPE
  5
15
330
5
100
AcDbSymbolTableRecord
100
AcDbLinetypeTableRecord
  2
ByLayer
 70
     0
  3

 72
    65
 73
     0
 40
0.0
  0
LTYPE
  5
16
330
5
100
AcDbSymbolTableRecord
100
AcDbLinetypeTableRecord
  2
Continuous
 70
     0
  3
Solid line
 72
    65
 73
     0
 40
0.0
  0
ENDTAB
  0
TABLE
  2
LAYER
  5
2
330
0
100
AcDbSymbolTable
 70
     2
  0
LAYER
  5
10
330
2
100
AcDbSymbolTableRecord
100
AcDbLayerTableRecord
  2
0
 70
     0
 62
     7
  6
Continuous
370
    -3
390
F
347
3E
  0
LAYER
  5
40
330
2
100
AcDbSymbolTableRecord
100
AcDbLayerTableRecord
  2
layer 1
 70
     0
 62
     7
  6
Continuous
370
    -3
390
F
347
3E
  0
ENDTAB
  0
TABLE
  2
STYLE
  5
3
330
0
100
AcDbSymbolTable
 70
     1
  0
STYLE
  5
11
330
3
100
AcDbSymbolTableRecord
100
AcDbTextStyleTableRecord
  2
Standard
 70
     0
 40
0.0
 41
1.0
 50
0.0
 71
     0
 42
0.2
  3
txt
  4

  0
ENDTAB
  0
TABLE
  2
VIEW
  5
6
330
0
100
AcDbSymbolTable
 70
     0
  0
ENDTAB
  0
TABLE
  2
UCS
  5
7
330
0
100
AcDbSymbolTable
 70
     0
  0
ENDTAB
  0
TABLE
  2
APPID
  5
9
330
0
100
AcDbSymbolTable
 70
     2
  0
APPID
  5
12
330
9
100
AcDbSymbolTableRecord
100
AcDbRegAppTableRecord
  2
ACAD
 70
     0
  0
APPID
  5
3F
330
9
100
AcDbSymbolTableRecord
100
AcDbRegAppTableRecord
  2
ODA
 70
     0
  0
ENDTAB
  0
TABLE
  2
DIMSTYLE
  5
A
330
0
100
AcDbSymbolTable
 70
     1
100
AcDbDimStyleTable
  0
DIMSTYLE
105
27
330
A
100
AcDbSymbolTableRecord
100
AcDbDimStyleTableRecord
  2
Standard
 70
     0
178
     0
340
11
  0
ENDTAB
  0
TABLE
  2
BLOCK_RECORD
  5
1
330
0
100
AcDbSymbolTable
 70
     1
  0
BLOCK_RECORD
  5
1F
330
1
100
AcDbSymbolTableRecord
100
AcDbBlockTableRecord
  2
*Model_Space
340
22
 70
     0
280
     1
281
     0
  0
BLOCK_RECORD
  5
1B
330
1
100
AcDbSymbolTableRecord
100
AcDbBlockTableRecord
  2
*Paper_Space
340
1E
 70
     0
280
     1
281
     0
  0
BLOCK_RECORD
  5
23
330
1
100
AcDbSymbolTableRecord
100
AcDbBlockTableRecord
  2
*Paper_Space0
340
26
 70
     0
280
     1
281
     0
  0
ENDTAB
  0
ENDSEC
  0
SECTION
  2
BLOCKS
  0
BLOCK
  5
20
330
1F
100
AcDbEntity
  8
0
100
AcDbBlockBegin
  2
*Model_Space
 70
     0
 10
0.0
 20
0.0
 30
0.0
  3
*Model_Space
  1

  0
ENDBLK
  5
21
330
1F
100
AcDbEntity
  8
0
100
AcDbBlockEnd
  0
BLOCK
  5
1C
330
1B
100
AcDbEntity
 67
     1
  8
0
100
AcDbBlockBegin
  2
*Paper_Space
 70
     0
 10
0.0
 20
0.0
 30
0.0
  3
*Paper_Space
  1

  0
ENDBLK
  5
1D
330
1B
100
AcDbEntity
 67
     1
  8
0
100
AcDbBlockEnd
  0
BLOCK
  5
24
330
23
100
AcDbEntity
  8
0
100
AcDbBlockBegin
  2
*Paper_Space0
 70
     0
 10
0.0
 20
0.0
 30
0.0
  3
*Paper_Space0
  1

  0
ENDBLK
  5
25
330
23
100
AcDbEntity
  8
0
100
AcDbBlockEnd
  0
ENDSEC
  0
SECTION
  2
ENTITIES
  0
LWPOLYLINE
  5
41
330
1F
100
AcDbEntity
  8
layer 1
 62
   250
370
     9
100
AcDbPolyline
 90
        5
 70
     1
 43
0.0
 10
-123.0263
 20
71.7982
 10
-63.1741
 20
71.7982
 10
-63.1741
 20
131.6504
 10
-123.0263
 20
131.6504
 10
-123.0263
 20
71.7982
  0
SPLINE
  5
42
330
1F
100
AcDbEntity
  8
layer 1
 62
     7
100
AcDbSpline
210
0.0
220
0.0
230
1.0
 70
    11
 71
     3
 72
    20
 73
    16
 74
     0
 42
0.0000000001
 43
0.0000000001
 12
1.0
 22
0.0
 32
0.0
 13
1.0
 23
0.0
 33
0.0
 40
0.0
 40
0.0
 40
0.0
 40
0.0
 40
0.2
 40
0.2
 40
0.2
 40
0.2
 40
0.4
 40
0.4
 40
0.4
 40
0.4
 40
0.6
 40
0.6
 40
0.6
 40
0.6
 40
1.0
 40
1.0
 40
1.0
 40
1.0
 10
-102.0593
 20
101.3785
 30
0.0
 10
-102.0593
 20
101.3785
 30
0.0
 10
-93.446
 20
109.9918
 30
0.0
 10
-93.446
 20
109.9918
 30
0.0
 10
-93.446
 20
109.9918
 30
0.0
 10
-93.446
 20
109.9918
 30
0.0
 10
-84.8327
 20
101.3785
 30
0.0
 10
-84.8327
 20
101.3785
 30
0.0
 10
-84.8327
 20
101.3785
 30
0.0
 10
-84.8327
 20
101.3785
 30
0.0
 10
-93.446
 20
92.7652
 30
0.0
 10
-93.446
 20
92.7652
 30
0.0
 10
-93.446
 20
92.7652
 30
0.0
 10
-93.446
 20
92.7652
 30
0.0
 10
-102.0593
 20
101.3785
 30
0.0
 10
-102.0593
 20
101.3785
 30
0.0
  0
LWPOLYLINE
  5
43
330
1F
100
AcDbEntity
  8
layer 1
 62
     7
100
AcDbPolyline
 90
        5
 70
     1
 43
0.0
 10
-119.6287
 20
123.4766
 10
-108.6015
 20
123.4766
 10
-108.6015
 20
127.5924
 10
-119.6287
 20
127.5924
 10
-119.6287
 20
123.4766
  0
LWPOLYLINE
  5
44
330
1F
100
AcDbEntity
  8
layer 1
 62
     7
100
AcDbPolyline
 90
        5
 70
     1
 43
0.0
 10
-105.8407
 20
123.4766
 10
-94.8135
 20
123.4766
 10
-94.8135
 20
127.5924
 10
-105.8407
 20
127.5924
 10
-105.8407
 20
123.4766
  0
SPLINE
  5
45
330
1F
100
AcDbEntity
  8
layer 1
 62
     7
100
AcDbSpline
210
0.0
220
0.0
230
1.0
 70
    11
 71
     3
 72
    20
 73
    16
 74
     0
 42
0.0000000001
 43
0.0000000001
 12
1.0
 22
0.0
 32
0.0
 13
1.0
 23
0.0
 33
0.0
 40
0.0
 40
0.0
 40
0.0
 40
0.0
 40
0.2
 40
0.2
 40
0.2
 40
0.2
 40
0.4
 40
0.4
 40
0.4
 40
0.4
 40
0.6
 40
0.6
 40
0.6
 40
0.6
 40
1.0
 40
1.0
 40
1.0
 40
1.0
 10
-119.6388
 20
102.7611
 30
0.0
 10
-119.6388
 20
102.7611
 30
0.0
 10
-119.6388
 20
120.6973
 30
0.0
 10
-119.6388
 20
120.6973
 30
0.0
 10
-119.6388
 20
120.6973
 30
0.0
 10
-119.6388
 20
120.6973
 30
0.0
 10
-116.2022
 20
120.6973
 30
0.0
 10
-116.2022
 20
120.6973
 30
0.0
 10
-116.2022
 20
120.6973
 30
0.0
 10
-116.2022
 20
120.6973
 30
0.0
 10
-116.2022
 20
102.7611
 30
0.0
 10
-116.2022
 20
102.7611
 30
0.0
 10
-116.2022
 20
102.7611
 30
0.0
 10
-116.2022
 20
102.7611
 30
0.0
 10
-119.6388
 20
102.7611
 30
0.0
 10
-119.6388
 20
102.7611
 30
0.0
  0
SPLINE
  5
46
330
1F
100
AcDbEntity
  8
layer 1
 62
     7
100
AcDbSpline
210
0.0
220
0.0
230
1.0
 70
    11
 71
     3
 72
    24
 73
    20
 74
     0
 42
0.0000000001
 43
0.0000000001
 12
1.0
 22
0.0
 32
0.0
 13
1.0
 23
0.0
 33
0.0
 40
0.0
 40
0.0
 40
0.0
 40
0.0
 40
0.1666666666666667
 40
0.1666666666666667
 40
0.1666666666666667
 40
0.1666666666666667
 40
0.3333333333333333
 40
0.3333333333333333
 40
0.3333333333333333
 40
0.3333333333333333
 40
0.5
 40
0.5
 40
0.5
 40
0.5
 40
0.6666666666666666
 40
0.6666666666666666
 40
0.6666666666666666
 40
0.6666666666666666
 40
1.0
 40
1.0
 40
1.0
 40
1.0
 10
-112.6814
 20
120.7406
 30
0.0
 10
-112.6814
 20
120.7406
 30
0.0
 10
-103.2956
 20
120.7406
 30
0.0
 10
-103.2956
 20
120.7406
 30
0.0
 10
-103.2956
 20
120.7406
 30
0.0
 10
-103.2956
 20
120.7406
 30
0.0
 10
-103.2956
 20
115.9644
 30
0.0
 10
-103.2956
 20
115.9644
 30
0.0
 10
-103.2956
 20
115.9644
 30
0.0
 10
-103.2956
 20
115.9644
 30
0.0
 10
-107.9885
 20
110.9152
 30
0.0
 10
-107.9885
 20
110.9152
 30
0.0
 10
-107.9885
 20
110.9152
 30
0.0
 10
-107.9885
 20
110.9152
 30
0.0
 10
-112.6814
 20
110.9152
 30
0.0
 10
-112.6814
 20
110.9152
 30
0.0
 10
-112.6814
 20
110.9152
 30
0.0
 10
-112.6814
 20
110.9152
 30
0.0
 10
-112.6814
 20
120.7406
 30
0.0
 10
-112.6814
 20
120.7406
 30
0.0
  0
SPLINE
  5
47
330
1F
100
AcDbEntity
  8
layer 1
 62
     7
100
AcDbSpline
210
0.0
220
0.0
230
1.0
 70
    11
 71
     3
 72
    44
 73
    40
 74
     0
 42
0.0000000001
 43
0.0000000001
 12
1.0
 22
0.0
 32
0.0
 13
1.0
 23
0.0
 33
0.0
 40
0.0
 40
0.0
 40
0.0
 40
0.0
 40
0.0909090909090909
 40
0.0909090909090909
 40
0.0909090909090909
 40
0.0909090909090909
 40
0.1818181818181818
 40
0.1818181818181818
 40
0.1818181818181818
 40
0.1818181818181818
 40
0.2727272727272727
 40
0.2727272727272727
 40
0.2727272727272727
 40
0.2727272727272727
 40
0.3636363636363636
 40
0.3636363636363636
 40
0.3636363636363636
 40
0.3636363636363636
 40
0.4545454545454545
 40
0.4545454545454545
 40
0.4545454545454545
 40
0.4545454545454545
 40
0.5454545454545454
 40
0.5454545454545454
 40
0.5454545454545454
 40
0.5454545454545454
 40
0.6363636363636364
 40
0.6363636363636364
 40
0.6363636363636364
 40
0.6363636363636364
 40
0.7272727272727273
 40
0.7272727272727273
 40
0.7272727272727273
 40
0.7272727272727273
 40
0.8181818181818182
 40
0.8181818181818182
 40
0.8181818181818182
 40
0.8181818181818182
 40
1.0
 40
1.0
 40
1.0
 40
1.0
 10
-103.5542
 20
111.2411
 30
0.0
 10
-103.5542
 20
111.2411
 30
0.0
 10
-99.2319
 20
115.8084
 30
0.0
 10
-99.2319
 20
115.8084
 30
0.0
 10
-99.2319
 20
115.8084
 30
0.0
 10
-100.6968
 20
116.7054
 30
0.0
 10
-100.7013
 20
119.4934
 30
0.0
 10
-99.2821
 20
120.3568
 30
0.0
 10
-99.2821
 20
120.3568
 30
0.0
 10
-97.9578
 20
121.1624
 30
0.0
 10
-95.7516
 20
120.9184
 30
0.0
 10
-95.4946
 20
118.7727
 30
0.0
 10
-95.4946
 20
118.7727
 30
0.0
 10
-95.4946
 20
118.7727
 30
0.0
 10
-95.4946
 20
112.5924
 30
0.0
 10
-95.4946
 20
112.5924
 30
0.0
 10
-95.4946
 20
112.5924
 30
0.0
 10
-95.4946
 20
112.5924
 30
0.0
 10
-100.6839
 20
107.2226
 30
0.0
 10
-100.6839
 20
107.2226
 30
0.0
 10
-100.6839
 20
107.2226
 30
0.0
 10
-100.6839
 20
107.2226
 30
0.0
 10
-104.7611
 20
102.9634
 30
0.0
 10
-104.7611
 20
102.9634
 30
0.0
 10
-104.7611
 20
102.9634
 30
0.0
 10
-104.7611
 20
102.9634
 30
0.0
 10
-110.9415
 20
102.9634
 30
0.0
 10
-110.9415
 20
102.9634
 30
0.0
 10
-110.9415
 20
102.9634
 30
0.0
 10
-113.0871
 20
103.2205
 30
0.0
 10
-113.3311
 20
105.4267
 30
0.0
 10
-112.5255
 20
106.751
 30
0.0
 10
-112.5255
 20
106.751
 30
0.0
 10
-111.6622
 20
108.1701
 30
0.0
 10
-108.8741
 20
108.1657
 30
0.0
 10
-107.9771
 20
106.7007
 30
0.0
 10
-107.9771
 20
106.7007
 30
0.0
 10
-107.9771
 20
106.7007
 30
0.0
 10
-103.5542
 20
111.2411
 30
0.0
 10
-103.5542
 20
111.2411
 30
0.0
  0
LWPOLYLINE
  5
48
330
1F
100
AcDbEntity
  8
layer 1
 62
     7
100
AcDbPolyline
 90
        5
 70
     1
 43
0.0
 10
-78.2635
 20
123.4766
 10
-67.2363
 20
123.4766
 10
-67.2363
 20
127.5924
 10
-78.2635
 20
127.5924
 10
-78.2635
 20
123.4766
  0
LWPOLYLINE
  5
49
330
1F
100
AcDbEntity
  8
layer 1
 62
     7
100
AcDbPolyline
 90
        5
 70
     1
 43
0.0
 10
-92.0514
 20
123.4766
 10
-81.0242
 20
123.4766
 10
-81.0242
 20
127.5924
 10
-92.0514
 20
127.5924
 10
-92.0514
 20
123.4766
  0
SPLINE
  5
4A
330
1F
100
AcDbEntity
  8
layer 1
 62
     7
100
AcDbSpline
210
0.0
220
0.0
230
1.0
 70
    11
 71
     3
 72
    20
 73
    16
 74
     0
 42
0.0000000001
 43
0.0000000001
 12
1.0
 22
0.0
 32
0.0
 13
1.0
 23
0.0
 33
0.0
 40
0.0
 40
0.0
 40
0.0
 40
0.0
 40
0.2
 40
0.2
 40
0.2
 40
0.2
 40
0.4
 40
0.4
 40
0.4
 40
0.4
 40
0.6
 40
0.6
 40
0.6
 40
0.6
 40
1.0
 40
1.0
 40
1.0
 40
1.0
 10
-67.2262
 20
102.7611
 30
0.0
 10
-67.2262
 20
102.7611
 30
0.0
 10
-67.2262
 20
120.6973
 30
0.0
 10
-67.2262
 20
120.6973
 30
0.0
 10
-67.2262
 20
120.6973
 30
0.0
 10
-67.2262
 20
120.6973
 30
0.0
 10
-70.6628
 20
120.6973
 30
0.0
 10
-70.6628
 20
120.6973
 30
0.0
 10
-70.6628
 20
120.6973
 30
0.0
 10
-70.6628
 20
120.6973
 30
0.0
 10
-70.6628
 20
102.7611
 30
0.0
 10
-70.6628
 20
102.7611
 30
0.0
 10
-70.6628
 20
102.7611
 30
0.0
 10
-70.6628
 20
102.7611
 30
0.0
 10
-67.2262
 20
102.7611
 30
0.0
 10
-67.2262
 20
102.7611
 30
0.0
  0
SPLINE
  5
4B
330
1F
100
AcDbEntity
  8
layer 1
 62
     7
100
AcDbSpline
210
0.0
220
0.0
230
1.0
 70
    11
 71
     3
 72
    24
 73
    20
 74
     0
 42
0.0000000001
 43
0.0000000001
 12
1.0
 22
0.0
 32
0.0
 13
1.0
 23
0.0
 33
0.0
 40
0.0
 40
0.0
 40
0.0
 40
0.0
 40
0.1666666666666667
 40
0.1666666666666667
 40
0.1666666666666667
 40
0.1666666666666667
 40
0.3333333333333333
 40
0.3333333333333333
 40
0.3333333333333333
 40
0.3333333333333333
 40
0.5
 40
0.5
 40
0.5
 40
0.5
 40
0.6666666666666666
 40
0.6666666666666666
 40
0.6666666666666666
 40
0.6666666666666666
 40
1.0
 40
1.0
 40
1.0
 40
1.0
 10
-74.1836
 20
120.7406
 30
0.0
 10
-74.1836
 20
120.7406
 30
0.0
 10
-83.5694
 20
120.7406
 30
0.0
 10
-83.5694
 20
120.7406
 30
0.0
 10
-83.5694
 20
120.7406
 30
0.0
 10
-83.5694
 20
120.7406
 30
0.0
 10
-83.5694
 20
115.9644
 30
0.0
 10
-83.5694
 20
115.9644
 30
0.0
 10
-83.5694
 20
115.9644
 30
0.0
 10
-83.5694
 20
115.9644
 30
0.0
 10
-78.8765
 20
110.9152
 30
0.0
 10
-78.8765
 20
110.9152
 30
0.0
 10
-78.8765
 20
110.9152
 30
0.0
 10
-78.8765
 20
110.9152
 30
0.0
 10
-74.1836
 20
110.9152
 30
0.0
 10
-74.1836
 20
110.9152
 30
0.0
 10
-74.1836
 20
110.9152
 30
0.0
 10
-74.1836
 20
110.9152
 30
0.0
 10
-74.1836
 20
120.7406
 30
0.0
 10
-74.1836
 20
120.7406
 30
0.0
  0
SPLINE
  5
4C
330
1F
100
AcDbEntity
  8
layer 1
 62
     7
100
AcDbSpline
210
0.0
220
0.0
230
1.0
 70
    11
 71
     3
 72
    44
 73
    40
 74
     0
 42
0.0000000001
 43
0.0000000001
 12
1.0
 22
0.0
 32
0.0
 13
1.0
 23
0.0
 33
0.0
 40
0.0
 40
0.0
 40
0.0
 40
0.0
 40
0.0909090909090909
 40
0.0909090909090909
 40
0.0909090909090909
 40
0.0909090909090909
 40
0.1818181818181818
 40
0.1818181818181818
 40
0.1818181818181818
 40
0.1818181818181818
 40
0.2727272727272727
 40
0.2727272727272727
 40
0.2727272727272727
 40
0.2727272727272727
 40
0.3636363636363636
 40
0.3636363636363636
 40
0.3636363636363636
 40
0.3636363636363636
 40
0.4545454545454545
 40
0.4545454545454545
 40
0.4545454545454545
 40
0.4545454545454545
 40
0.5454545454545454
 40
0.5454545454545454
 40
0.5454545454545454
 40
0.5454545454545454
 40
0.6363636363636364
 40
0.6363636363636364
 40
0.6363636363636364
 40
0.6363636363636364
 40
0.7272727272727273
 40
0.7272727272727273
 40
0.7272727272727273
 40
0.7272727272727273
 40
0.8181818181818182
 40
0.8181818181818182
 40
0.8181818181818182
 40
0.8181818181818182
 40
1.0
 40
1.0
 40
1.0
 40
1.0
 10
-83.3108
 20
111.2411
 30
0.0
 10
-83.3108
 20
111.2411
 30
0.0
 10
-87.6331
 20
115.8084
 30
0.0
 10
-87.6331
 20
115.8084
 30
0.0
 10
-87.6331
 20
115.8084
 30
0.0
 10
-86.1682
 20
116.7054
 30
0.0
 10
-86.1637
 20
119.4934
 30
0.0
 10
-87.5829
 20
120.3568
 30
0.0
 10
-87.5829
 20
120.3568
 30
0.0
 10
-88.9071
 20
121.1624
 30
0.0
 10
-91.1134
 20
120.9184
 30
0.0
 10
-91.3704
 20
118.7727
 30
0.0
 10
-91.3704
 20
118.7727
 30
0.0
 10
-91.3704
 20
118.7727
 30
0.0
 10
-91.3704
 20
112.5924
 30
0.0
 10
-91.3704
 20
112.5924
 30
0.0
 10
-91.3704
 20
112.5924
 30
0.0
 10
-91.3704
 20
112.5924
 30
0.0
 10
-86.1811
 20
107.2226
 30
0.0
 10
-86.1811
 20
107.2226
 30
0.0
 10
-86.1811
 20
107.2226
 30
0.0
 10
-86.1811
 20
107.2226
 30
0.0
 10
-82.1039
 20
102.9634
 30
0.0
 10
-82.1039
 20
102.9634
 30
0.0
 10
-82.1039
 20
102.9634
 30
0.0
 10
-82.1039
 20
102.9634
 30
0.0
 10
-75.9235
 20
102.9634
 30
0.0
 10
-75.9235
 20
102.9634
 30
0.0
 10
-75.9235
 20
102.9634
 30
0.0
 10
-73.7779
 20
103.2205
 30
0.0
 10
-73.5339
 20
105.4267
 30
0.0
 10
-74.3395
 20
106.751
 30
0.0
 10
-74.3395
 20
106.751
 30
0.0
 10
-75.2028
 20
108.1701
 30
0.0
 10
-77.9909
 20
108.1657
 30
0.0
 10
-78.8879
 20
106.7007
 30
0.0
 10
-78.8879
 20
106.7007
 30
0.0
 10
-78.8879
 20
106.7007
 30
0.0
 10
-83.3108
 20
111.2411
 30
0.0
 10
-83.3108
 20
111.2411
 30
0.0
  0
LWPOLYLINE
  5
4D
330
1F
100
AcDbEntity
  8
layer 1
 62
     7
100
AcDbPolyline
 90
        5
 70
     1
 43
0.0
 10
-119.6287
 20
75.1646
 10
-108.6015
 20
75.1646
 10
-108.6015
 20
79.2804
 10
-119.6287
 20
79.2804
 10
-119.6287
 20
75.1646
  0
LWPOLYLINE
  5
4E
330
1F
100
AcDbEntity
  8
layer 1
 62
     7
100
AcDbPolyline
 90
        5
 70
     1
 43
0.0
 10
-105.8407
 20
75.1646
 10
-94.8135
 20
75.1646
 10
-94.8135
 20
79.2804
 10
-105.8407
 20
79.2804
 10
-105.8407
 20
75.1646
  0
SPLINE
  5
4F
330
1F
100
AcDbEntity
  8
layer 1
 62
     7
100
AcDbSpline
210
0.0
220
0.0
230
1.0
 70
    11
 71
     3
 72
    20
 73
    16
 74
     0
 42
0.0000000001
 43
0.0000000001
 12
1.0
 22
0.0
 32
0.0
 13
1.0
 23
0.0
 33
0.0
 40
0.0
 40
0.0
 40
0.0
 40
0.0
 40
0.2
 40
0.2
 40
0.2
 40
0.2
 40
0.4
 40
0.4
 40
0.4
 40
0.4
 40
0.6
 40
0.6
 40
0.6
 40
0.6
 40
1.0
 40
1.0
 40
1.0
 40
1.0
 10
-119.6388
 20
99.9959
 30
0.0
 10
-119.6388
 20
99.9959
 30
0.0
 10
-119.6388
 20
82.0597
 30
0.0
 10
-119.6388
 20
82.0597
 30
0.0
 10
-119.6388
 20
82.0597
 30
0.0
 10
-119.6388
 20
82.0597
 30
0.0
 10
-116.2022
 20
82.0597
 30
0.0
 10
-116.2022
 20
82.0597
 30
0.0
 10
-116.2022
 20
82.0597
 30
0.0
 10
-116.2022
 20
82.0597
 30
0.0
 10
-116.2022
 20
99.9959
 30
0.0
 10
-116.2022
 20
99.9959
 30
0.0
 10
-116.2022
 20
99.9959
 30
0.0
 10
-116.2022
 20
99.9959
 30
0.0
 10
-119.6388
 20
99.9959
 30
0.0
 10
-119.6388
 20
99.9959
 30
0.0
  0
SPLINE
  5
50
330
1F
100
AcDbEntity
  8
layer 1
 62
     7
100
AcDbSpline
210
0.0
220
0.0
230
1.0
 70
    11
 71
     3
 72
    24
 73
    20
 74
     0
 42
0.0000000001
 43
0.0000000001
 12
1.0
 22
0.0
 32
0.0
 13
1.0
 23
0.0
 33
0.0
 40
0.0
 40
0.0
 40
0.0
 40
0.0
 40
0.1666666666666667
 40
0.1666666666666667
 40
0.1666666666666667
 40
0.1666666666666667
 40
0.3333333333333333
 40
0.3333333333333333
 40
0.3333333333333333
 40
0.3333333333333333
 40
0.5
 40
0.5
 40
0.5
 40
0.5
 40
0.6666666666666666
 40
0.6666666666666666
 40
0.6666666666666666
 40
0.6666666666666666
 40
1.0
 40
1.0
 40
1.0
 40
1.0
 10
-112.6814
 20
82.0164
 30
0.0
 10
-112.6814
 20
82.0164
 30
0.0
 10
-103.2956
 20
82.0164
 30
0.0
 10
-103.2956
 20
82.0164
 30
0.0
 10
-103.2956
 20
82.0164
 30
0.0
 10
-103.2956
 20
82.0164
 30
0.0
 10
-103.2956
 20
86.7926
 30
0.0
 10
-103.2956
 20
86.7926
 30
0.0
 10
-103.2956
 20
86.7926
 30
0.0
 10
-103.2956
 20
86.7926
 30
0.0
 10
-107.9885
 20
91.8418
 30
0.0
 10
-107.9885
 20
91.8418
 30
0.0
 10
-107.9885
 20
91.8418
 30
0.0
 10
-107.9885
 20
91.8418
 30
0.0
 10
-112.6814
 20
91.8418
 30
0.0
 10
-112.6814
 20
91.8418
 30
0.0
 10
-112.6814
 20
91.8418
 30
0.0
 10
-112.6814
 20
91.8418
 30
0.0
 10
-112.6814
 20
82.0164
 30
0.0
 10
-112.6814
 20
82.0164
 30
0.0
  0
SPLINE
  5
51
330
1F
100
AcDbEntity
  8
layer 1
 62
     7
100
AcDbSpline
210
0.0
220
0.0
230
1.0
 70
    11
 71
     3
 72
    44
 73
    40
 74
     0
 42
0.0000000001
 43
0.0000000001
 12
1.0
 22
0.0
 32
0.0
 13
1.0
 23
0.0
 33
0.0
 40
0.0
 40
0.0
 40
0.0
 40
0.0
 40
0.0909090909090909
 40
0.0909090909090909
 40
0.0909090909090909
 40
0.0909090909090909
 40
0.1818181818181818
 40
0.1818181818181818
 40
0.1818181818181818
 40
0.1818181818181818
 40
0.2727272727272727
 40
0.2727272727272727
 40
0.2727272727272727
 40
0.2727272727272727
 40
0.3636363636363636
 40
0.3636363636363636
 40
0.3636363636363636
 40
0.3636363636363636
 40
0.4545454545454545
 40
0.4545454545454545
 40
0.4545454545454545
 40
0.4545454545454545
 40
0.5454545454545454
 40
0.5454545454545454
 40
0.5454545454545454
 40
0.5454545454545454
 40
0.6363636363636364
 40
0.6363636363636364
 40
0.6363636363636364
 40
0.6363636363636364
 40
0.7272727272727273
 40
0.7272727272727273
 40
0.7272727272727273
 40
0.7272727272727273
 40
0.8181818181818182
 40
0.8181818181818182
 40
0.8181818181818182
 40
0.8181818181818182
 40
1.0
 40
1.0
 40
1.0
 40
1.0
 10
-103.5542
 20
91.5159
 30
0.0
 10
-103.5542
 20
91.5159
 30
0.0
 10
-99.2319
 20
86.9486
 30
0.0
 10
-99.2319
 20
86.9486
 30
0.0
 10
-99.2319
 20
86.9486
 30
0.0
 10
-100.6968
 20
86.0516
 30
0.0
 10
-100.7013
 20
83.2636
 30
0.0
 10
-99.2821
 20
82.4003
 30
0.0
 10
-99.2821
 20
82.4003
 30
0.0
 10
-97.9578
 20
81.5946
 30
0.0
 10
-95.7516
 20
81.8386
 30
0.0
 10
-95.4946
 20
83.9843
 30
0.0
 10
-95.4946
 20
83.9843
 30
0.0
 10
-95.4946
 20
83.9843
 30
0.0
 10
-95.4946
 20
90.1646
 30
0.0
 10
-95.4946
 20
90.1646
 30
0.0
 10
-95.4946
 20
90.1646
 30
0.0
 10
-95.4946
 20
90.1646
 30
0.0
 10
-100.6839
 20
95.5344
 30
0.0
 10
-100.6839
 20
95.5344
 30
0.0
 10
-100.6839
 20
95.5344
 30
0.0
 10
-100.6839
 20
95.5344
 30
0.0
 10
-104.7611
 20
99.7936
 30
0.0
 10
-104.7611
 20
99.7936
 30
0.0
 10
-104.7611
 20
99.7936
 30
0.0
 10
-104.7611
 20
99.7936
 30
0.0
 10
-110.9415
 20
99.7936
 30
0.0
 10
-110.9415
 20
99.7936
 30
0.0
 10
-110.9415
 20
99.7936
 30
0.0
 10
-113.0871
 20
99.5365
 30
0.0
 10
-113.3311
 20
97.3303
 30
0.0
 10
-112.5255
 20
96.006
 30
0.0
 10
-112.5255
 20
96.006
 30
0.0
 10
-111.6622
 20
94.5869
 30
0.0
 10
-108.8741
 20
94.5913
 30
0.0
 10
-107.9771
 20
96.0563
 30
0.0
 10
-107.9771
 20
96.0563
 30
0.0
 10
-107.9771
 20
96.0563
 30
0.0
 10
-103.5542
 20
91.5159
 30
0.0
 10
-103.5542
 20
91.5159
 30
0.0
  0
SPLINE
  5
52
330
1F
100
AcDbEntity
  8
layer 1
 62
     7
100
AcDbSpline
210
0.0
220
0.0
230
1.0
 70
    11
 71
     3
 72
    20
 73
    16
 74
     0
 42
0.0000000001
 43
0.0000000001
 12
1.0
 22
0.0
 32
0.0
 13
1.0
 23
0.0
 33
0.0
 40
0.0
 40
0.0
 40
0.0
 40
0.0
 40
0.2
 40
0.2
 40
0.2
 40
0.2
 40
0.4
 40
0.4
 40
0.4
 40
0.4
 40
0.6
 40
0.6
 40
0.6
 40
0.6
 40
1.0
 40
1.0
 40
1.0
 40
1.0
 10
-67.2363
 20
75.1646
 30
0.0
 10
-67.2363
 20
75.1646
 30
0.0
 10
-78.2635
 20
75.1646
 30
0.0
 10
-78.2635
 20
75.1646
 30
0.0
 10
-78.2635
 20
75.1646
 30
0.0
 10
-78.2635
 20
75.1646
 30
0.0
 10
-78.2635
 20
79.2804
 30
0.0
 10
-78.2635
 20
79.2804
 30
0.0
 10
-78.2635
 20
79.2804
 30
0.0
 10
-78.2635
 20
79.2804
 30
0.0
 10
-67.2363
 20
79.2804
 30
0.0
 10
-67.2363
 20
79.2804
 30
0.0
 10
-67.2363
 20
79.2804
 30
0.0
 10
-67.2363
 20
79.2804
 30
0.0
 10
-67.2363
 20
75.1646
 30
0.0
 10
-67.2363
 20
75.1646
 30
0.0
  0
SPLINE
  5
53
330
1F
100
AcDbEntity
  8
layer 1
 62
     7
100
AcDbSpline
210
0.0
220
0.0
230
1.0
 70
    11
 71
     3
 72
    20
 73
    16
 74
     0
 42
0.0000000001
 43
0.0000000001
 12
1.0
 22
0.0
 32
0.0
 13
1.0
 23
0.0
 33
0.0
 40
0.0
 40
0.0
 40
0.0
 40
0.0
 40
0.2
 40
0.2
 40
0.2
 40
0.2
 40
0.4
 40
0.4
 40
0.4
 40
0.4
 40
0.6
 40
0.6
 40
0.6
 40
0.6
 40
1.0
 40
1.0
 40
1.0
 40
1.0
 10
-81.0242
 20
75.1646
 30
0.0
 10
-81.0242
 20
75.1646
 30
0.0
 10
-92.0514
 20
75.1646
 30
0.0
 10
-92.0514
 20
75.1646
 30
0.0
 10
-92.0514
 20
75.1646
 30
0.0
 10
-92.0514
 20
75.1646
 30
0.0
 10
-92.0514
 20
79.2804
 30
0.0
 10
-92.0514
 20
79.2804
 30
0.0
 10
-92.0514
 20
79.2804
 30
0.0
 10
-92.0514
 20
79.2804
 30
0.0
 10
-81.0242
 20
79.2804
 30
0.0
 10
-81.0242
 20
79.2804
 30
0.0
 10
-81.0242
 20
79.2804
 30
0.0
 10
-81.0242
 20
79.2804
 30
0.0
 10
-81.0242
 20
75.1646
 30
0.0
 10
-81.0242
 20
75.1646
 30
0.0
  0
SPLINE
  5
54
330
1F
100
AcDbEntity
  8
layer 1
 62
     7
100
AcDbSpline
210
0.0
220
0.0
230
1.0
 70
    11
 71
     3
 72
    20
 73
    16
 74
     0
 42
0.0000000001
 43
0.0000000001
 12
1.0
 22
0.0
 32
0.0
 13
1.0
 23
0.0
 33
0.0
 40
0.0
 40
0.0
 40
0.0
 40
0.0
 40
0.2
 40
0.2
 40
0.2
 40
0.2
 40
0.4
 40
0.4
 40
0.4
 40
0.4
 40
0.6
 40
0.6
 40
0.6
 40
0.6
 40
1.0
 40
1.0
 40
1.0
 40
1.0
 10
-67.2262
 20
99.9959
 30
0.0
 10
-67.2262
 20
99.9959
 30
0.0
 10
-67.2262
 20
82.0597
 30
0.0
 10
-67.2262
 20
82.0597
 30
0.0
 10
-67.2262
 20
82.0597
 30
0.0
 10
-67.2262
 20
82.0597
 30
0.0
 10
-70.6628
 20
82.0597
 30
0.0
 10
-70.6628
 20
82.0597
 30
0.0
 10
-70.6628
 20
82.0597
 30
0.0
 10
-70.6628
 20
82.0597
 30
0.0
 10
-70.6628
 20
99.9959
 30
0.0
 10
-70.6628
 20
99.9959
 30
0.0
 10
-70.6628
 20
99.9959
 30
0.0
 10
-70.6628
 20
99.9959
 30
0.0
 10
-67.2262
 20
99.9959
 30
0.0
 10
-67.2262
 20
99.9959
 30
0.0
  0
SPLINE
  5
55
330
1F
100
AcDbEntity
  8
layer 1
 62
     7
100
AcDbSpline
210
0.0
220
0.0
230
1.0
 70
    11
 71
     3
 72
    24
 73
    20
 74
     0
 42
0.0000000001
 43
0.0000000001
 12
1.0
 22
0.0
 32
0.0
 13
1.0
 23
0.0
 33
0.0
 40
0.0
 40
0.0
 40
0.0
 40
0.0
 40
0.1666666666666667
 40
0.1666666666666667
 40
0.1666666666666667
 40
0.1666666666666667
 40
0.3333333333333333
 40
0.3333333333333333
 40
0.3333333333333333
 40
0.3333333333333333
 40
0.5
 40
0.5
 40
0.5
 40
0.5
 40
0.6666666666666666
 40
0.6666666666666666
 40
0.6666666666666666
 40
0.6666666666666666
 40
1.0
 40
1.0
 40
1.0
 40
1.0
 10
-74.1836
 20
82.0164
 30
0.0
 10
-74.1836
 20
82.0164
 30
0.0
 10
-83.5694
 20
82.0164
 30
0.0
 10
-83.5694
 20
82.0164
 30
0.0
 10
-83.5694
 20
82.0164
 30
0.0
 10
-83.5694
 20
82.0164
 30
0.0
 10
-83.5694
 20
86.7926
 30
0.0
 10
-83.5694
 20
86.7926
 30
0.0
 10
-83.5694
 20
86.7926
 30
0.0
 10
-83.5694
 20
86.7926
 30
0.0
 10
-78.8765
 20
91.8418
 30
0.0
 10
-78.8765
 20
91.8418
 30
0.0
 10
-78.8765
 20
91.8418
 30
0.0
 10
-78.8765
 20
91.8418
 30
0.0
 10
-74.1836
 20
91.8418
 30
0.0
 10
-74.1836
 20
91.8418
 30
0.0
 10
-74.1836
 20
91.8418
 30
0.0
 10
-74.1836
 20
91.8418
 30
0.0
 10
-74.1836
 20
82.0164
 30
0.0
 10
-74.1836
 20
82.0164
 30
0.0
  0
SPLINE
  5
56
330
1F
100
AcDbEntity
  8
layer 1
 62
     7
100
AcDbSpline
210
0.0
220
0.0
230
1.0
 70
    11
 71
     3
 72
    44
 73
    40
 74
     0
 42
0.0000000001
 43
0.0000000001
 12
1.0
 22
0.0
 32
0.0
 13
1.0
 23
0.0
 33
0.0
 40
0.0
 40
0.0
 40
0.0
 40
0.0
 40
0.0909090909090909
 40
0.0909090909090909
 40
0.0909090909090909
 40
0.0909090909090909
 40
0.1818181818181818
 40
0.1818181818181818
 40
0.1818181818181818
 40
0.1818181818181818
 40
0.2727272727272727
 40
0.2727272727272727
 40
0.2727272727272727
 40
0.2727272727272727
 40
0.3636363636363636
 40
0.3636363636363636
 40
0.3636363636363636
 40
0.3636363636363636
 40
0.4545454545454545
 40
0.4545454545454545
 40
0.4545454545454545
 40
0.4545454545454545
 40
0.5454545454545454
 40
0.5454545454545454
 40
0.5454545454545454
 40
0.5454545454545454
 40
0.6363636363636364
 40
0.6363636363636364
 40
0.6363636363636364
 40
0.6363636363636364
 40
0.7272727272727273
 40
0.7272727272727273
 40
0.7272727272727273
 40
0.7272727272727273
 40
0.8181818181818182
 40
0.8181818181818182
 40
0.8181818181818182
 40
0.8181818181818182
 40
1.0
 40
1.0
 40
1.0
 40
1.0
 10
-83.3108
 20
91.5159
 30
0.0
 10
-83.3108
 20
91.5159
 30
0.0
 10
-87.6331
 20
86.9486
 30
0.0
 10
-87.6331
 20
86.9486
 30
0.0
 10
-87.6331
 20
86.9486
 30
0.0
 10
-86.1682
 20
86.0516
 30
0.0
 10
-86.1637
 20
83.2636
 30
0.0
 10
-87.5829
 20
82.4003
 30
0.0
 10
-87.5829
 20
82.4003
 30
0.0
 10
-88.9071
 20
81.5946
 30
0.0
 10
-91.1134
 20
81.8386
 30
0.0
 10
-91.3704
 20
83.9843
 30
0.0
 10
-91.3704
 20
83.9843
 30
0.0
 10
-91.3704
 20
83.9843
 30
0.0
 10
-91.3704
 20
90.1646
 30
0.0
 10
-91.3704
 20
90.1646
 30
0.0
 10
-91.3704
 20
90.1646
 30
0.0
 10
-91.3704
 20
90.1646
 30
0.0
 10
-86.1811
 20
95.5344
 30
0.0
 10
-86.1811
 20
95.5344
 30
0.0
 10
-86.1811
 20
95.5344
 30
0.0
 10
-86.1811
 20
95.5344
 30
0.0
 10
-82.1039
 20
99.7936
 30
0.0
 10
-82.1039
 20
99.7936
 30
0.0
 10
-82.1039
 20
99.7936
 30
0.0
 10
-82.1039
 20
99.7936
 30
0.0
 10
-75.9235
 20
99.7936
 30
0.0
 10
-75.9235
 20
99.7936
 30
0.0
 10
-75.9235
 20
99.7936
 30
0.0
 10
-73.7779
 20
99.5365
 30
0.0
 10
-73.5339
 20
97.3303
 30
0.0
 10
-74.3395
 20
96.006
 30
0.0
 10
-74.3395
 20
96.006
 30
0.0
 10
-75.2028
 20
94.5869
 30
0.0
 10
-77.9909
 20
94.5913
 30
0.0
 10
-78.8879
 20
96.0563
 30
0.0
 10
-78.8879
 20
96.0563
 30
0.0
 10
-78.8879
 20
96.0563
 30
0.0
 10
-83.3108
 20
91.5159
 30
0.0
 10
-83.3108
 20
91.5159
 30
0.0
  0
LWPOLYLINE
  5
57
330
1F
100
AcDbEntity
  8
layer 1
 62
   250
370
     9
100
AcDbPolyline
 90
        5
 70
     1
 43
0.0
 10
-122.5536
 20
-114.7849
 10
-62.7014
 20
-114.7849
 10
-62.7014
 20
65.7403
 10
-122.5536
 20
65.7403
 10
-122.5536
 20
-114.7849
  0
SPLINE
  5
58
330
1F
100
AcDbEntity
  8
layer 1
 62
     7
100
AcDbSpline
210
0.0
220
0.0
230
1.0
 70
    11
 71
     3
 72
    20
 73
    16
 74
     0
 42
0.0000000001
 43
0.0000000001
 12
1.0
 22
0.0
 32
0.0
 13
1.0
 23
0.0
 33
0.0
 40
0.0
 40
0.0
 40
0.0
 40
0.0
 40
0.2
 40
0.2
 40
0.2
 40
0.2
 40
0.4
 40
0.4
 40
0.4
 40
0.4
 40
0.6
 40
0.6
 40
0.6
 40
0.6
 40
1.0
 40
1.0
 40
1.0
 40
1.0
 10
-101.5866
 20
35.4128
 30
0.0
 10
-101.5866
 20
35.4128
 30
0.0
 10
-92.9733
 20
44.0261
 30
0.0
 10
-92.9733
 20
44.0261
 30
0.0
 10
-92.9733
 20
44.0261
 30
0.0
 10
-92.9733
 20
44.0261
 30
0.0
 10
-84.36
 20
35.4128
 30
0.0
 10
-84.36
 20
35.4128
 30
0.0
 10
-84.36
 20
35.4128
 30
0.0
 10
-84.36
 20
35.4128
 30
0.0
 10
-92.9733
 20
26.7995
 30
0.0
 10
-92.9733
 20
26.7995
 30
0.0
 10
-92.9733
 20
26.7995
 30
0.0
 10
-92.9733
 20
26.7995
 30
0.0
 10
-101.5866
 20
35.4128
 30
0.0
 10
-101.5866
 20
35.4128
 30
0.0
  0
LWPOLYLINE
  5
59
330
1F
100
AcDbEntity
  8
layer 1
 62
     7
100
AcDbPolyline
 90
        5
 70
     1
 43
0.0
 10
-119.156
 20
57.5109
 10
-108.1288
 20
57.5109
 10
-108.1288
 20
61.6267
 10
-119.156
 20
61.6267
 10
-119.156
 20
57.5109
  0
LWPOLYLINE
  5
5A
330
1F
100
AcDbEntity
  8
layer 1
 62
     7
100
AcDbPolyline
 90
        5
 70
     1
 43
0.0
 10
-105.3681
 20
57.5109
 10
-94.3409
 20
57.5109
 10
-94.3409
 20
61.6267
 10
-105.3681
 20
61.6267
 10
-105.3681
 20
57.5109
  0
SPLINE
  5
5B
330
1F
100
AcDbEntity
  8
layer 1
 62
     7
100
AcDbSpline
210
0.0
220
0.0
230
1.0
 70
    11
 71
     3
 72
    20
 73
    16
 74
     0
 42
0.0000000001
 43
0.0000000001
 12
1.0
 22
0.0
 32
0.0
 13
1.0
 23
0.0
 33
0.0
 40
0.0
 40
0.0
 40
0.0
 40
0.0
 40
0.2
 40
0.2
 40
0.2
 40
0.2
 40
0.4
 40
0.4
 40
0.4
 40
0.4
 40
0.6
 40
0.6
 40
0.6
 40
0.6
 40
1.0
 40
1.0
 40
1.0
 40
1.0
 10
-119.1661
 20
36.7955
 30
0.0
 10
-119.1661
 20
36.7955
 30
0.0
 10
-119.1661
 20
54.7317
 30
0.0
 10
-119.1661
 20
54.7317
 30
0.0
 10
-119.1661
 20
54.7317
 30
0.0
 10
-119.1661
 20
54.7317
 30
0.0
 10
-115.7295
 20
54.7317
 30
0.0
 10
-115.7295
 20
54.7317
 30
0.0
 10
-115.7295
 20
54.7317
 30
0.0
 10
-115.7295
 20
54.7317
 30
0.0
 10
-115.7295
 20
36.7955
 30
0.0
 10
-115.7295
 20
36.7955
 30
0.0
 10
-115.7295
 20
36.7955
 30
0.0
 10
-115.7295
 20
36.7955
 30
0.0
 10
-119.1661
 20
36.7955
 30
0.0
 10
-119.1661
 20
36.7955
 30
0.0
  0
SPLINE
  5
5C
330
1F
100
AcDbEntity
  8
layer 1
 62
     7
100
AcDbSpline
210
0.0
220
0.0
230
1.0
 70
    11
 71
     3
 72
    24
 73
    20
 74
     0
 42
0.0000000001
 43
0.0000000001
 12
1.0
 22
0.0
 32
0.0
 13
1.0
 23
0.0
 33
0.0
 40
0.0
 40
0.0
 40
0.0
 40
0.0
 40
0.1666666666666667
 40
0.1666666666666667
 40
0.1666666666666667
 40
0.1666666666666667
 40
0.3333333333333333
 40
0.3333333333333333
 40
0.3333333333333333
 40
0.3333333333333333
 40
0.5
 40
0.5
 40
0.5
 40
0.5
 40
0.6666666666666666
 40
0.6666666666666666
 40
0.6666666666666666
 40
0.6666666666666666
 40
1.0
 40
1.0
 40
1.0
 40
1.0
 10
-112.2087
 20
54.7749
 30
0.0
 10
-112.2087
 20
54.7749
 30
0.0
 10
-102.8229
 20
54.7749
 30
0.0
 10
-102.8229
 20
54.7749
 30
0.0
 10
-102.8229
 20
54.7749
 30
0.0
 10
-102.8229
 20
54.7749
 30
0.0
 10
-102.8229
 20
49.9987
 30
0.0
 10
-102.8229
 20
49.9987
 30
0.0
 10
-102.8229
 20
49.9987
 30
0.0
 10
-102.8229
 20
49.9987
 30
0.0
 10
-107.5158
 20
44.9496
 30
0.0
 10
-107.5158
 20
44.9496
 30
0.0
 10
-107.5158
 20
44.9496
 30
0.0
 10
-107.5158
 20
44.9496
 30
0.0
 10
-112.2087
 20
44.9496
 30
0.0
 10
-112.2087
 20
44.9496
 30
0.0
 10
-112.2087
 20
44.9496
 30
0.0
 10
-112.2087
 20
44.9496
 30
0.0
 10
-112.2087
 20
54.7749
 30
0.0
 10
-112.2087
 20
54.7749
 30
0.0
  0
SPLINE
  5
5D
330
1F
100
AcDbEntity
  8
layer 1
 62
     7
100
AcDbSpline
210
0.0
220
0.0
230
1.0
 70
    11
 71
     3
 72
    44
 73
    40
 74
     0
 42
0.0000000001
 43
0.0000000001
 12
1.0
 22
0.0
 32
0.0
 13
1.0
 23
0.0
 33
0.0
 40
0.0
 40
0.0
 40
0.0
 40
0.0
 40
0.0909090909090909
 40
0.0909090909090909
 40
0.0909090909090909
 40
0.0909090909090909
 40
0.1818181818181818
 40
0.1818181818181818
 40
0.1818181818181818
 40
0.1818181818181818
 40
0.2727272727272727
 40
0.2727272727272727
 40
0.2727272727272727
 40
0.2727272727272727
 40
0.3636363636363636
 40
0.3636363636363636
 40
0.3636363636363636
 40
0.3636363636363636
 40
0.4545454545454545
 40
0.4545454545454545
 40
0.4545454545454545
 40
0.4545454545454545
 40
0.5454545454545454
 40
0.5454545454545454
 40
0.5454545454545454
 40
0.5454545454545454
 40
0.6363636363636364
 40
0.6363636363636364
 40
0.6363636363636364
 40
0.6363636363636364
 40
0.7272727272727273
 40
0.7272727272727273
 40
0.7272727272727273
 40
0.7272727272727273
 40
0.8181818181818182
 40
0.8181818181818182
 40
0.8181818181818182
 40
0.8181818181818182
 40
1.0
 40
1.0
 40
1.0
 40
1.0
 10
-103.0815
 20
45.2754
 30
0.0
 10
-103.0815
 20
45.2754
 30
0.0
 10
-98.7592
 20
49.8427
 30
0.0
 10
-98.7592
 20
49.8427
 30
0.0
 10
-98.7592
 20
49.8427
 30
0.0
 10
-100.2241
 20
50.7397
 30
0.0
 10
-100.2286
 20
53.5278
 30
0.0
 10
-98.8094
 20
54.3911
 30
0.0
 10
-98.8094
 20
54.3911
 30
0.0
 10
-97.4852
 20
55.1967
 30
0.0
 10
-95.2789
 20
54.9527
 30
0.0
 10
-95.0219
 20
52.8071
 30
0.0
 10
-95.0219
 20
52.8071
 30
0.0
 10
-95.0219
 20
52.8071
 30
0.0
 10
-95.0219
 20
46.6267
 30
0.0
 10
-95.0219
 20
46.6267
 30
0.0
 10
-95.0219
 20
46.6267
 30
0.0
 10
-95.0219
 20
46.6267
 30
0.0
 10
-100.2112
 20
41.2569
 30
0.0
 10
-100.2112
 20
41.2569
 30
0.0
 10
-100.2112
 20
41.2569
 30
0.0
 10
-100.2112
 20
41.2569
 30
0.0
 10
-104.2884
 20
36.9977
 30
0.0
 10
-104.2884
 20
36.9977
 30
0.0
 10
-104.2884
 20
36.9977
 30
0.0
 10
-104.2884
 20
36.9977
 30
0.0
 10
-110.4688
 20
36.9977
 30
0.0
 10
-110.4688
 20
36.9977
 30
0.0
 10
-110.4688
 20
36.9977
 30
0.0
 10
-112.6144
 20
37.2548
 30
0.0
 10
-112.8584
 20
39.461
 30
0.0
 10
-112.0528
 20
40.7853
 30
0.0
 10
-112.0528
 20
40.7853
 30
0.0
 10
-111.1895
 20
42.2044
 30
0.0
 10
-108.4014
 20
42.2
 30
0.0
 10
-107.5044
 20
40.735
 30
0.0
 10
-107.5044
 20
40.735
 30
0.0
 10
-107.5044
 20
40.735
 30
0.0
 10
-103.0815
 20
45.2754
 30
0.0
 10
-103.0815
 20
45.2754
 30
0.0
  0
LWPOLYLINE
  5
5E
330
1F
100
AcDbEntity
  8
layer 1
 62
     7
100
AcDbPolyline
 90
        5
 70
     1
 43
0.0
 10
-77.7908
 20
57.5109
 10
-66.7636
 20
57.5109
 10
-66.7636
 20
61.6267
 10
-77.7908
 20
61.6267
 10
-77.7908
 20
57.5109
  0
LWPOLYLINE
  5
5F
330
1F
100
AcDbEntity
  8
layer 1
 62
     7
100
AcDbPolyline
 90
        5
 70
     1
 43
0.0
 10
-91.5788
 20
57.5109
 10
-80.5516
 20
57.5109
 10
-80.5516
 20
61.6267
 10
-91.5788
 20
61.6267
 10
-91.5788
 20
57.5109
  0
SPLINE
  5
60
330
1F
100
AcDbEntity
  8
layer 1
 62
     7
100
AcDbSpline
210
0.0
220
0.0
230
1.0
 70
    11
 71
     3
 72
    20
 73
    16
 74
     0
 42
0.0000000001
 43
0.0000000001
 12
1.0
 22
0.0
 32
0.0
 13
1.0
 23
0.0
 33
0.0
 40
0.0
 40
0.0
 40
0.0
 40
0.0
 40
0.2
 40
0.2
 40
0.2
 40
0.2
 40
0.4
 40
0.4
 40
0.4
 40
0.4
 40
0.6
 40
0.6
 40
0.6
 40
0.6
 40
1.0
 40
1.0
 40
1.0
 40
1.0
 10
-66.7535
 20
36.7955
 30
0.0
 10
-66.7535
 20
36.7955
 30
0.0
 10
-66.7535
 20
54.7317
 30
0.0
 10
-66.7535
 20
54.7317
 30
0.0
 10
-66.7535
 20
54.7317
 30
0.0
 10
-66.7535
 20
54.7317
 30
0.0
 10
-70.1901
 20
54.7317
 30
0.0
 10
-70.1901
 20
54.7317
 30
0.0
 10
-70.1901
 20
54.7317
 30
0.0
 10
-70.1901
 20
54.7317
 30
0.0
 10
-70.1901
 20
36.7955
 30
0.0
 10
-70.1901
 20
36.7955
 30
0.0
 10
-70.1901
 20
36.7955
 30
0.0
 10
-70.1901
 20
36.7955
 30
0.0
 10
-66.7535
 20
36.7955
 30
0.0
 10
-66.7535
 20
36.7955
 30
0.0
  0
SPLINE
  5
61
330
1F
100
AcDbEntity
  8
layer 1
 62
     7
100
AcDbSpline
210
0.0
220
0.0
230
1.0
 70
    11
 71
     3
 72
    24
 73
    20
 74
     0
 42
0.0000000001
 43
0.0000000001
 12
1.0
 22
0.0
 32
0.0
 13
1.0
 23
0.0
 33
0.0
 40
0.0
 40
0.0
 40
0.0
 40
0.0
 40
0.1666666666666667
 40
0.1666666666666667
 40
0.1666666666666667
 40
0.1666666666666667
 40
0.3333333333333333
 40
0.3333333333333333
 40
0.3333333333333333
 40
0.3333333333333333
 40
0.5
 40
0.5
 40
0.5
 40
0.5
 40
0.6666666666666666
 40
0.6666666666666666
 40
0.6666666666666666
 40
0.6666666666666666
 40
1.0
 40
1.0
 40
1.0
 40
1.0
 10
-73.7109
 20
54.7749
 30
0.0
 10
-73.7109
 20
54.7749
 30
0.0
 10
-83.0967
 20
54.7749
 30
0.0
 10
-83.0967
 20
54.7749
 30
0.0
 10
-83.0967
 20
54.7749
 30
0.0
 10
-83.0967
 20
54.7749
 30
0.0
 10
-83.0967
 20
49.9987
 30
0.0
 10
-83.0967
 20
49.9987
 30
0.0
 10
-83.0967
 20
49.9987
 30
0.0
 10
-83.0967
 20
49.9987
 30
0.0
 10
-78.4038
 20
44.9496
 30
0.0
 10
-78.4038
 20
44.9496
 30
0.0
 10
-78.4038
 20
44.9496
 30
0.0
 10
-78.4038
 20
44.9496
 30
0.0
 10
-73.7109
 20
44.9496
 30
0.0
 10
-73.7109
 20
44.9496
 30
0.0
 10
-73.7109
 20
44.9496
 30
0.0
 10
-73.7109
 20
44.9496
 30
0.0
 10
-73.7109
 20
54.7749
 30
0.0
 10
-73.7109
 20
54.7749
 30
0.0
  0
SPLINE
  5
62
330
1F
100
AcDbEntity
  8
layer 1
 62
     7
100
AcDbSpline
210
0.0
220
0.0
230
1.0
 70
    11
 71
     3
 72
    44
 73
    40
 74
     0
 42
0.0000000001
 43
0.0000000001
 12
1.0
 22
0.0
 32
0.0
 13
1.0
 23
0.0
 33
0.0
 40
0.0
 40
0.0
 40
0.0
 40
0.0
 40
0.0909090909090909
 40
0.0909090909090909
 40
0.0909090909090909
 40
0.0909090909090909
 40
0.1818181818181818
 40
0.1818181818181818
 40
0.1818181818181818
 40
0.1818181818181818
 40
0.2727272727272727
 40
0.2727272727272727
 40
0.2727272727272727
 40
0.2727272727272727
 40
0.3636363636363636
 40
0.3636363636363636
 40
0.3636363636363636
 40
0.3636363636363636
 40
0.4545454545454545
 40
0.4545454545454545
 40
0.4545454545454545
 40
0.4545454545454545
 40
0.5454545454545454
 40
0.5454545454545454
 40
0.5454545454545454
 40
0.5454545454545454
 40
0.6363636363636364
 40
0.6363636363636364
 40
0.6363636363636364
 40
0.6363636363636364
 40
0.7272727272727273
 40
0.7272727272727273
 40
0.7272727272727273
 40
0.7272727272727273
 40
0.8181818181818182
 40
0.8181818181818182
 40
0.8181818181818182
 40
0.8181818181818182
 40
1.0
 40
1.0
 40
1.0
 40
1.0
 10
-82.8381
 20
45.2754
 30
0.0
 10
-82.8381
 20
45.2754
 30
0.0
 10
-87.1604
 20
49.8427
 30
0.0
 10
-87.1604
 20
49.8427
 30
0.0
 10
-87.1604
 20
49.8427
 30
0.0
 10
-85.6955
 20
50.7397
 30
0.0
 10
-85.691
 20
53.5278
 30
0.0
 10
-87.1102
 20
54.3911
 30
0.0
 10
-87.1102
 20
54.3911
 30
0.0
 10
-88.4345
 20
55.1967
 30
0.0
 10
-90.6407
 20
54.9527
 30
0.0
 10
-90.8977
 20
52.8071
 30
0.0
 10
-90.8977
 20
52.8071
 30
0.0
 10
-90.8977
 20
52.8071
 30
0.0
 10
-90.8977
 20
46.6267
 30
0.0
 10
-90.8977
 20
46.6267
 30
0.0
 10
-90.8977
 20
46.6267
 30
0.0
 10
-90.8977
 20
46.6267
 30
0.0
 10
-85.7084
 20
41.2569
 30
0.0
 10
-85.7084
 20
41.2569
 30
0.0
 10
-85.7084
 20
41.2569
 30
0.0
 10
-85.7084
 20
41.2569
 30
0.0
 10
-81.6312
 20
36.9977
 30
0.0
 10
-81.6312
 20
36.9977
 30
0.0
 10
-81.6312
 20
36.9977
 30
0.0
 10
-81.6312
 20
36.9977
 30
0.0
 10
-75.4508
 20
36.9977
 30
0.0
 10
-75.4508
 20
36.9977
 30
0.0
 10
-75.4508
 20
36.9977
 30
0.0
 10
-73.3052
 20
37.2548
 30
0.0
 10
-73.0612
 20
39.461
 30
0.0
 10
-73.8668
 20
40.7853
 30
0.0
 10
-73.8668
 20
40.7853
 30
0.0
 10
-74.7301
 20
42.2044
 30
0.0
 10
-77.5182
 20
42.2
 30
0.0
 10
-78.4152
 20
40.735
 30
0.0
 10
-78.4152
 20
40.735
 30
0.0
 10
-78.4152
 20
40.735
 30
0.0
 10
-82.8381
 20
45.2754
 30
0.0
 10
-82.8381
 20
45.2754
 30
0.0
  0
LWPOLYLINE
  5
63
330
1F
100
AcDbEntity
  8
layer 1
 62
     7
100
AcDbPolyline
 90
        5
 70
     1
 43
0.0
 10
-119.156
 20
9.1989
 10
-108.1288
 20
9.1989
 10
-108.1288
 20
13.3147
 10
-119.156
 20
13.3147
 10
-119.156
 20
9.1989
  0
LWPOLYLINE
  5
64
330
1F
100
AcDbEntity
  8
layer 1
 62
     7
100
AcDbPolyline
 90
        5
 70
     1
 43
0.0
 10
-105.3681
 20
9.1989
 10
-94.3409
 20
9.1989
 10
-94.3409
 20
13.3147
 10
-105.3681
 20
13.3147
 10
-105.3681
 20
9.1989
  0
SPLINE
  5
65
330
1F
100
AcDbEntity
  8
layer 1
 62
     7
100
AcDbSpline
210
0.0
220
0.0
230
1.0
 70
    11
 71
     3
 72
    20
 73
    16
 74
     0
 42
0.0000000001
 43
0.0000000001
 12
1.0
 22
0.0
 32
0.0
 13
1.0
 23
0.0
 33
0.0
 40
0.0
 40
0.0
 40
0.0
 40
0.0
 40
0.2
 40
0.2
 40
0.2
 40
0.2
 40
0.4
 40
0.4
 40
0.4
 40
0.4
 40
0.6
 40
0.6
 40
0.6
 40
0.6
 40
1.0
 40
1.0
 40
1.0
 40
1.0
 10
-119.1661
 20
34.0302
 30
0.0
 10
-119.1661
 20
34.0302
 30
0.0
 10
-119.1661
 20
16.094
 30
0.0
 10
-119.1661
 20
16.094
 30
0.0
 10
-119.1661
 20
16.094
 30
0.0
 10
-119.1661
 20
16.094
 30
0.0
 10
-115.7295
 20
16.094
 30
0.0
 10
-115.7295
 20
16.094
 30
0.0
 10
-115.7295
 20
16.094
 30
0.0
 10
-115.7295
 20
16.094
 30
0.0
 10
-115.7295
 20
34.0302
 30
0.0
 10
-115.7295
 20
34.0302
 30
0.0
 10
-115.7295
 20
34.0302
 30
0.0
 10
-115.7295
 20
34.0302
 30
0.0
 10
-119.1661
 20
34.0302
 30
0.0
 10
-119.1661
 20
34.0302
 30
0.0
  0
SPLINE
  5
66
330
1F
100
AcDbEntity
  8
layer 1
 62
     7
100
AcDbSpline
210
0.0
220
0.0
230
1.0
 70
    11
 71
     3
 72
    24
 73
    20
 74
     0
 42
0.0000000001
 43
0.0000000001
 12
1.0
 22
0.0
 32
0.0
 13
1.0
 23
0.0
 33
0.0
 40
0.0
 40
0.0
 40
0.0
 40
0.0
 40
0.1666666666666667
 40
0.1666666666666667
 40
0.1666666666666667
 40
0.1666666666666667
 40
0.3333333333333333
 40
0.3333333333333333
 40
0.3333333333333333
 40
0.3333333333333333
 40
0.5
 40
0.5
 40
0.5
 40
0.5
 40
0.6666666666666666
 40
0.6666666666666666
 40
0.6666666666666666
 40
0.6666666666666666
 40
1.0
 40
1.0
 40
1.0
 40
1.0
 10
-112.2087
 20
16.0507
 30
0.0
 10
-112.2087
 20
16.0507
 30
0.0
 10
-102.8229
 20
16.0507
 30
0.0
 10
-102.8229
 20
16.0507
 30
0.0
 10
-102.8229
 20
16.0507
 30
0.0
 10
-102.8229
 20
16.0507
 30
0.0
 10
-102.8229
 20
20.8269
 30
0.0
 10
-102.8229
 20
20.8269
 30
0.0
 10
-102.8229
 20
20.8269
 30
0.0
 10
-102.8229
 20
20.8269
 30
0.0
 10
-107.5158
 20
25.8761
 30
0.0
 10
-107.5158
 20
25.8761
 30
0.0
 10
-107.5158
 20
25.8761
 30
0.0
 10
-107.5158
 20
25.8761
 30
0.0
 10
-112.2087
 20
25.8761
 30
0.0
 10
-112.2087
 20
25.8761
 30
0.0
 10
-112.2087
 20
25.8761
 30
0.0
 10
-112.2087
 20
25.8761
 30
0.0
 10
-112.2087
 20
16.0507
 30
0.0
 10
-112.2087
 20
16.0507
 30
0.0
  0
SPLINE
  5
67
330
1F
100
AcDbEntity
  8
layer 1
 62
     7
100
AcDbSpline
210
0.0
220
0.0
230
1.0
 70
    11
 71
     3
 72
    44
 73
    40
 74
     0
 42
0.0000000001
 43
0.0000000001
 12
1.0
 22
0.0
 32
0.0
 13
1.0
 23
0.0
 33
0.0
 40
0.0
 40
0.0
 40
0.0
 40
0.0
 40
0.0909090909090909
 40
0.0909090909090909
 40
0.0909090909090909
 40
0.0909090909090909
 40
0.1818181818181818
 40
0.1818181818181818
 40
0.1818181818181818
 40
0.1818181818181818
 40
0.2727272727272727
 40
0.2727272727272727
 40
0.2727272727272727
 40
0.2727272727272727
 40
0.3636363636363636
 40
0.3636363636363636
 40
0.3636363636363636
 40
0.3636363636363636
 40
0.4545454545454545
 40
0.4545454545454545
 40
0.4545454545454545
 40
0.4545454545454545
 40
0.5454545454545454
 40
0.5454545454545454
 40
0.5454545454545454
 40
0.5454545454545454
 40
0.6363636363636364
 40
0.6363636363636364
 40
0.6363636363636364
 40
0.6363636363636364
 40
0.7272727272727273
 40
0.7272727272727273
 40
0.7272727272727273
 40
0.7272727272727273
 40
0.8181818181818182
 40
0.8181818181818182
 40
0.8181818181818182
 40
0.8181818181818182
 40
1.0
 40
1.0
 40
1.0
 40
1.0
 10
-103.0815
 20
25.5502
 30
0.0
 10
-103.0815
 20
25.5502
 30
0.0
 10
-98.7592
 20
20.983
 30
0.0
 10
-98.7592
 20
20.983
 30
0.0
 10
-98.7592
 20
20.983
 30
0.0
 10
-100.2241
 20
20.0859
 30
0.0
 10
-100.2286
 20
17.2979
 30
0.0
 10
-98.8094
 20
16.4346
 30
0.0
 10
-98.8094
 20
16.4346
 30
0.0
 10
-97.4852
 20
15.6289
 30
0.0
 10
-95.2789
 20
15.873
 30
0.0
 10
-95.0219
 20
18.0186
 30
0.0
 10
-95.0219
 20
18.0186
 30
0.0
 10
-95.0219
 20
18.0186
 30
0.0
 10
-95.0219
 20
24.199
 30
0.0
 10
-95.0219
 20
24.199
 30
0.0
 10
-95.0219
 20
24.199
 30
0.0
 10
-95.0219
 20
24.199
 30
0.0
 10
-100.2112
 20
29.5688
 30
0.0
 10
-100.2112
 20
29.5688
 30
0.0
 10
-100.2112
 20
29.5688
 30
0.0
 10
-100.2112
 20
29.5688
 30
0.0
 10
-104.2884
 20
33.8279
 30
0.0
 10
-104.2884
 20
33.8279
 30
0.0
 10
-104.2884
 20
33.8279
 30
0.0
 10
-104.2884
 20
33.8279
 30
0.0
 10
-110.4688
 20
33.8279
 30
0.0
 10
-110.4688
 20
33.8279
 30
0.0
 10
-110.4688
 20
33.8279
 30
0.0
 10
-112.6144
 20
33.5708
 30
0.0
 10
-112.8584
 20
31.3646
 30
0.0
 10
-112.0528
 20
30.0403
 30
0.0
 10
-112.0528
 20
30.0403
 30
0.0
 10
-111.1895
 20
28.6212
 30
0.0
 10
-108.4014
 20
28.6256
 30
0.0
 10
-107.5044
 20
30.0906
 30
0.0
 10
-107.5044
 20
30.0906
 30
0.0
 10
-107.5044
 20
30.0906
 30
0.0
 10
-103.0815
 20
25.5502
 30
0.0
 10
-103.0815
 20
25.5502
 30
0.0
  0
SPLINE
  5
68
330
1F
100
AcDbEntity
  8
layer 1
 62
     7
100
AcDbSpline
210
0.0
220
0.0
230
1.0
 70
    11
 71
     3
 72
    20
 73
    16
 74
     0
 42
0.0000000001
 43
0.0000000001
 12
1.0
 22
0.0
 32
0.0
 13
1.0
 23
0.0
 33
0.0
 40
0.0
 40
0.0
 40
0.0
 40
0.0
 40
0.2
 40
0.2
 40
0.2
 40
0.2
 40
0.4
 40
0.4
 40
0.4
 40
0.4
 40
0.6
 40
0.6
 40
0.6
 40
0.6
 40
1.0
 40
1.0
 40
1.0
 40
1.0
 10
-66.7636
 20
9.1989
 30
0.0
 10
-66.7636
 20
9.1989
 30
0.0
 10
-77.7908
 20
9.1989
 30
0.0
 10
-77.7908
 20
9.1989
 30
0.0
 10
-77.7908
 20
9.1989
 30
0.0
 10
-77.7908
 20
9.1989
 30
0.0
 10
-77.7908
 20
13.3147
 30
0.0
 10
-77.7908
 20
13.3147
 30
0.0
 10
-77.7908
 20
13.3147
 30
0.0
 10
-77.7908
 20
13.3147
 30
0.0
 10
-66.7636
 20
13.3147
 30
0.0
 10
-66.7636
 20
13.3147
 30
0.0
 10
-66.7636
 20
13.3147
 30
0.0
 10
-66.7636
 20
13.3147
 30
0.0
 10
-66.7636
 20
9.1989
 30
0.0
 10
-66.7636
 20
9.1989
 30
0.0
  0
SPLINE
  5
69
330
1F
100
AcDbEntity
  8
layer 1
 62
     7
100
AcDbSpline
210
0.0
220
0.0
230
1.0
 70
    11
 71
     3
 72
    20
 73
    16
 74
     0
 42
0.0000000001
 43
0.0000000001
 12
1.0
 22
0.0
 32
0.0
 13
1.0
 23
0.0
 33
0.0
 40
0.0
 40
0.0
 40
0.0
 40
0.0
 40
0.2
 40
0.2
 40
0.2
 40
0.2
 40
0.4
 40
0.4
 40
0.4
 40
0.4
 40
0.6
 40
0.6
 40
0.6
 40
0.6
 40
1.0
 40
1.0
 40
1.0
 40
1.0
 10
-80.5516
 20
9.1989
 30
0.0
 10
-80.5516
 20
9.1989
 30
0.0
 10
-91.5788
 20
9.1989
 30
0.0
 10
-91.5788
 20
9.1989
 30
0.0
 10
-91.5788
 20
9.1989
 30
0.0
 10
-91.5788
 20
9.1989
 30
0.0
 10
-91.5788
 20
13.3147
 30
0.0
 10
-91.5788
 20
13.3147
 30
0.0
 10
-91.5788
 20
13.3147
 30
0.0
 10
-91.5788
 20
13.3147
 30
0.0
 10
-80.5516
 20
13.3147
 30
0.0
 10
-80.5516
 20
13.3147
 30
0.0
 10
-80.5516
 20
13.3147
 30
0.0
 10
-80.5516
 20
13.3147
 30
0.0
 10
-80.5516
 20
9.1989
 30
0.0
 10
-80.5516
 20
9.1989
 30
0.0
  0
SPLINE
  5
6A
330
1F
100
AcDbEntity
  8
layer 1
 62
     7
100
AcDbSpline
210
0.0
220
0.0
230
1.0
 70
    11
 71
     3
 72
    20
 73
    16
 74
     0
 42
0.0000000001
 43
0.0000000001
 12
1.0
 22
0.0
 32
0.0
 13
1.0
 23
0.0
 33
0.0
 40
0.0
 40
0.0
 40
0.0
 40
0.0
 40
0.2
 40
0.2
 40
0.2
 40
0.2
 40
0.4
 40
0.4
 40
0.4
 40
0.4
 40
0.6
 40
0.6
 40
0.6
 40
0.6
 40
1.0
 40
1.0
 40
1.0
 40
1.0
 10
-66.7535
 20
34.0302
 30
0.0
 10
-66.7535
 20
34.0302
 30
0.0
 10
-66.7535
 20
16.094
 30
0.0
 10
-66.7535
 20
16.094
 30
0.0
 10
-66.7535
 20
16.094
 30
0.0
 10
-66.7535
 20
16.094
 30
0.0
 10
-70.1901
 20
16.094
 30
0.0
 10
-70.1901
 20
16.094
 30
0.0
 10
-70.1901
 20
16.094
 30
0.0
 10
-70.1901
 20
16.094
 30
0.0
 10
-70.1901
 20
34.0302
 30
0.0
 10
-70.1901
 20
34.0302
 30
0.0
 10
-70.1901
 20
34.0302
 30
0.0
 10
-70.1901
 20
34.0302
 30
0.0
 10
-66.7535
 20
34.0302
 30
0.0
 10
-66.7535
 20
34.0302
 30
0.0
  0
SPLINE
  5
6B
330
1F
100
AcDbEntity
  8
layer 1
 62
     7
100
AcDbSpline
210
0.0
220
0.0
230
1.0
 70
    11
 71
     3
 72
    24
 73
    20
 74
     0
 42
0.0000000001
 43
0.0000000001
 12
1.0
 22
0.0
 32
0.0
 13
1.0
 23
0.0
 33
0.0
 40
0.0
 40
0.0
 40
0.0
 40
0.0
 40
0.1666666666666667
 40
0.1666666666666667
 40
0.1666666666666667
 40
0.1666666666666667
 40
0.3333333333333333
 40
0.3333333333333333
 40
0.3333333333333333
 40
0.3333333333333333
 40
0.5
 40
0.5
 40
0.5
 40
0.5
 40
0.6666666666666666
 40
0.6666666666666666
 40
0.6666666666666666
 40
0.6666666666666666
 40
1.0
 40
1.0
 40
1.0
 40
1.0
 10
-73.7109
 20
16.0507
 30
0.0
 10
-73.7109
 20
16.0507
 30
0.0
 10
-83.0967
 20
16.0507
 30
0.0
 10
-83.0967
 20
16.0507
 30
0.0
 10
-83.0967
 20
16.0507
 30
0.0
 10
-83.0967
 20
16.0507
 30
0.0
 10
-83.0967
 20
20.8269
 30
0.0
 10
-83.0967
 20
20.8269
 30
0.0
 10
-83.0967
 20
20.8269
 30
0.0
 10
-83.0967
 20
20.8269
 30
0.0
 10
-78.4038
 20
25.8761
 30
0.0
 10
-78.4038
 20
25.8761
 30
0.0
 10
-78.4038
 20
25.8761
 30
0.0
 10
-78.4038
 20
25.8761
 30
0.0
 10
-73.7109
 20
25.8761
 30
0.0
 10
-73.7109
 20
25.8761
 30
0.0
 10
-73.7109
 20
25.8761
 30
0.0
 10
-73.7109
 20
25.8761
 30
0.0
 10
-73.7109
 20
16.0507
 30
0.0
 10
-73.7109
 20
16.0507
 30
0.0
  0
SPLINE
  5
6C
330
1F
100
AcDbEntity
  8
layer 1
 62
     7
100
AcDbSpline
210
0.0
220
0.0
230
1.0
 70
    11
 71
     3
 72
    44
 73
    40
 74
     0
 42
0.0000000001
 43
0.0000000001
 12
1.0
 22
0.0
 32
0.0
 13
1.0
 23
0.0
 33
0.0
 40
0.0
 40
0.0
 40
0.0
 40
0.0
 40
0.0909090909090909
 40
0.0909090909090909
 40
0.0909090909090909
 40
0.0909090909090909
 40
0.1818181818181818
 40
0.1818181818181818
 40
0.1818181818181818
 40
0.1818181818181818
 40
0.2727272727272727
 40
0.2727272727272727
 40
0.2727272727272727
 40
0.2727272727272727
 40
0.3636363636363636
 40
0.3636363636363636
 40
0.3636363636363636
 40
0.3636363636363636
 40
0.4545454545454545
 40
0.4545454545454545
 40
0.4545454545454545
 40
0.4545454545454545
 40
0.5454545454545454
 40
0.5454545454545454
 40
0.5454545454545454
 40
0.5454545454545454
 40
0.6363636363636364
 40
0.6363636363636364
 40
0.6363636363636364
 40
0.6363636363636364
 40
0.7272727272727273
 40
0.7272727272727273
 40
0.7272727272727273
 40
0.7272727272727273
 40
0.8181818181818182
 40
0.8181818181818182
 40
0.8181818181818182
 40
0.8181818181818182
 40
1.0
 40
1.0
 40
1.0
 40
1.0
 10
-82.8381
 20
25.5502
 30
0.0
 10
-82.8381
 20
25.5502
 30
0.0
 10
-87.1604
 20
20.983
 30
0.0
 10
-87.1604
 20
20.983
 30
0.0
 10
-87.1604
 20
20.983
 30
0.0
 10
-85.6955
 20
20.0859
 30
0.0
 10
-85.691
 20
17.2979
 30
0.0
 10
-87.1102
 20
16.4346
 30
0.0
 10
-87.1102
 20
16.4346
 30
0.0
 10
-88.4345
 20
15.6289
 30
0.0
 10
-90.6407
 20
15.873
 30
0.0
 10
-90.8977
 20
18.0186
 30
0.0
 10
-90.8977
 20
18.0186
 30
0.0
 10
-90.8977
 20
18.0186
 30
0.0
 10
-90.8977
 20
24.199
 30
0.0
 10
-90.8977
 20
24.199
 30
0.0
 10
-90.8977
 20
24.199
 30
0.0
 10
-90.8977
 20
24.199
 30
0.0
 10
-85.7084
 20
29.5688
 30
0.0
 10
-85.7084
 20
29.5688
 30
0.0
 10
-85.7084
 20
29.5688
 30
0.0
 10
-85.7084
 20
29.5688
 30
0.0
 10
-81.6312
 20
33.8279
 30
0.0
 10
-81.6312
 20
33.8279
 30
0.0
 10
-81.6312
 20
33.8279
 30
0.0
 10
-81.6312
 20
33.8279
 30
0.0
 10
-75.4508
 20
33.8279
 30
0.0
 10
-75.4508
 20
33.8279
 30
0.0
 10
-75.4508
 20
33.8279
 30
0.0
 10
-73.3052
 20
33.5708
 30
0.0
 10
-73.0612
 20
31.3646
 30
0.0
 10
-73.8668
 20
30.0403
 30
0.0
 10
-73.8668
 20
30.0403
 30
0.0
 10
-74.7301
 20
28.6212
 30
0.0
 10
-77.5182
 20
28.6256
 30
0.0
 10
-78.4152
 20
30.0906
 30
0.0
 10
-78.4152
 20
30.0906
 30
0.0
 10
-78.4152
 20
30.0906
 30
0.0
 10
-82.8381
 20
25.5502
 30
0.0
 10
-82.8381
 20
25.5502
 30
0.0
  0
SPLINE
  5
6D
330
1F
100
AcDbEntity
  8
layer 1
 62
     7
100
AcDbSpline
210
0.0
220
0.0
230
1.0
 70
    11
 71
     3
 72
    20
 73
    16
 74
     0
 42
0.0000000001
 43
0.0000000001
 12
1.0
 22
0.0
 32
0.0
 13
1.0
 23
0.0
 33
0.0
 40
0.0
 40
0.0
 40
0.0
 40
0.0
 40
0.2
 40
0.2
 40
0.2
 40
0.2
 40
0.4
 40
0.4
 40
0.4
 40
0.4
 40
0.6
 40
0.6
 40
0.6
 40
0.6
 40
1.0
 40
1.0
 40
1.0
 40
1.0
 10
-101.5866
 20
-24.1675
 30
0.0
 10
-101.5866
 20
-24.1675
 30
0.0
 10
-92.9733
 20
-15.5542
 30
0.0
 10
-92.9733
 20
-15.5542
 30
0.0
 10
-92.9733
 20
-15.5542
 30
0.0
 10
-92.9733
 20
-15.5542
 30
0.0
 10
-84.36
 20
-24.1675
 30
0.0
 10
-84.36
 20
-24.1675
 30
0.0
 10
-84.36
 20
-24.1675
 30
0.0
 10
-84.36
 20
-24.1675
 30
0.0
 10
-92.9733
 20
-32.7808
 30
0.0
 10
-92.9733
 20
-32.7808
 30
0.0
 10
-92.9733
 20
-32.7808
 30
0.0
 10
-92.9733
 20
-32.7808
 30
0.0
 10
-101.5866
 20
-24.1675
 30
0.0
 10
-101.5866
 20
-24.1675
 30
0.0
  0
LWPOLYLINE
  5
6E
330
1F
100
AcDbEntity
  8
layer 1
 62
     7
100
AcDbPolyline
 90
        5
 70
     1
 43
0.0
 10
-119.156
 20
-2.0694
 10
-108.1288
 20
-2.0694
 10
-108.1288
 20
2.0464
 10
-119.156
 20
2.0464
 10
-119.156
 20
-2.0694
  0
LWPOLYLINE
  5
6F
330
1F
100
AcDbEntity
  8
layer 1
 62
     7
100
AcDbPolyline
 90
        5
 70
     1
 43
0.0
 10
-105.3681
 20
-2.0694
 10
-94.3409
 20
-2.0694
 10
-94.3409
 20
2.0464
 10
-105.3681
 20
2.0464
 10
-105.3681
 20
-2.0694
  0
SPLINE
  5
70
330
1F
100
AcDbEntity
  8
layer 1
 62
     7
100
AcDbSpline
210
0.0
220
0.0
230
1.0
 70
    11
 71
     3
 72
    20
 73
    16
 74
     0
 42
0.0000000001
 43
0.0000000001
 12
1.0
 22
0.0
 32
0.0
 13
1.0
 23
0.0
 33
0.0
 40
0.0
 40
0.0
 40
0.0
 40
0.0
 40
0.2
 40
0.2
 40
0.2
 40
0.2
 40
0.4
 40
0.4
 40
0.4
 40
0.4
 40
0.6
 40
0.6
 40
0.6
 40
0.6
 40
1.0
 40
1.0
 40
1.0
 40
1.0
 10
-119.1661
 20
-22.7849
 30
0.0
 10
-119.1661
 20
-22.7849
 30
0.0
 10
-119.1661
 20
-4.8487
 30
0.0
 10
-119.1661
 20
-4.8487
 30
0.0
 10
-119.1661
 20
-4.8487
 30
0.0
 10
-119.1661
 20
-4.8487
 30
0.0
 10
-115.7295
 20
-4.8487
 30
0.0
 10
-115.7295
 20
-4.8487
 30
0.0
 10
-115.7295
 20
-4.8487
 30
0.0
 10
-115.7295
 20
-4.8487
 30
0.0
 10
-115.7295
 20
-22.7849
 30
0.0
 10
-115.7295
 20
-22.7849
 30
0.0
 10
-115.7295
 20
-22.7849
 30
0.0
 10
-115.7295
 20
-22.7849
 30
0.0
 10
-119.1661
 20
-22.7849
 30
0.0
 10
-119.1661
 20
-22.7849
 30
0.0
  0
SPLINE
  5
71
330
1F
100
AcDbEntity
  8
layer 1
 62
     7
100
AcDbSpline
210
0.0
220
0.0
230
1.0
 70
    11
 71
     3
 72
    24
 73
    20
 74
     0
 42
0.0000000001
 43
0.0000000001
 12
1.0
 22
0.0
 32
0.0
 13
1.0
 23
0.0
 33
0.0
 40
0.0
 40
0.0
 40
0.0
 40
0.0
 40
0.1666666666666667
 40
0.1666666666666667
 40
0.1666666666666667
 40
0.1666666666666667
 40
0.3333333333333333
 40
0.3333333333333333
 40
0.3333333333333333
 40
0.3333333333333333
 40
0.5
 40
0.5
 40
0.5
 40
0.5
 40
0.6666666666666666
 40
0.6666666666666666
 40
0.6666666666666666
 40
0.6666666666666666
 40
1.0
 40
1.0
 40
1.0
 40
1.0
 10
-112.2087
 20
-4.8054
 30
0.0
 10
-112.2087
 20
-4.8054
 30
0.0
 10
-102.8229
 20
-4.8054
 30
0.0
 10
-102.8229
 20
-4.8054
 30
0.0
 10
-102.8229
 20
-4.8054
 30
0.0
 10
-102.8229
 20
-4.8054
 30
0.0
 10
-102.8229
 20
-9.5816
 30
0.0
 10
-102.8229
 20
-9.5816
 30
0.0
 10
-102.8229
 20
-9.5816
 30
0.0
 10
-102.8229
 20
-9.5816
 30
0.0
 10
-107.5158
 20
-14.6308
 30
0.0
 10
-107.5158
 20
-14.6308
 30
0.0
 10
-107.5158
 20
-14.6308
 30
0.0
 10
-107.5158
 20
-14.6308
 30
0.0
 10
-112.2087
 20
-14.6308
 30
0.0
 10
-112.2087
 20
-14.6308
 30
0.0
 10
-112.2087
 20
-14.6308
 30
0.0
 10
-112.2087
 20
-14.6308
 30
0.0
 10
-112.2087
 20
-4.8054
 30
0.0
 10
-112.2087
 20
-4.8054
 30
0.0
  0
SPLINE
  5
72
330
1F
100
AcDbEntity
  8
layer 1
 62
     7
100
AcDbSpline
210
0.0
220
0.0
230
1.0
 70
    11
 71
     3
 72
    44
 73
    40
 74
     0
 42
0.0000000001
 43
0.0000000001
 12
1.0
 22
0.0
 32
0.0
 13
1.0
 23
0.0
 33
0.0
 40
0.0
 40
0.0
 40
0.0
 40
0.0
 40
0.0909090909090909
 40
0.0909090909090909
 40
0.0909090909090909
 40
0.0909090909090909
 40
0.1818181818181818
 40
0.1818181818181818
 40
0.1818181818181818
 40
0.1818181818181818
 40
0.2727272727272727
 40
0.2727272727272727
 40
0.2727272727272727
 40
0.2727272727272727
 40
0.3636363636363636
 40
0.3636363636363636
 40
0.3636363636363636
 40
0.3636363636363636
 40
0.4545454545454545
 40
0.4545454545454545
 40
0.4545454545454545
 40
0.4545454545454545
 40
0.5454545454545454
 40
0.5454545454545454
 40
0.5454545454545454
 40
0.5454545454545454
 40
0.6363636363636364
 40
0.6363636363636364
 40
0.6363636363636364
 40
0.6363636363636364
 40
0.7272727272727273
 40
0.7272727272727273
 40
0.7272727272727273
 40
0.7272727272727273
 40
0.8181818181818182
 40
0.8181818181818182
 40
0.8181818181818182
 40
0.8181818181818182
 40
1.0
 40
1.0
 40
1.0
 40
1.0
 10
-103.0815
 20
-14.3049
 30
0.0
 10
-103.0815
 20
-14.3049
 30
0.0
 10
-98.7592
 20
-9.7376
 30
0.0
 10
-98.7592
 20
-9.7376
 30
0.0
 10
-98.7592
 20
-9.7376
 30
0.0
 10
-100.2241
 20
-8.8406
 30
0.0
 10
-100.2286
 20
-6.0526
 30
0.0
 10
-98.8094
 20
-5.1892
 30
0.0
 10
-98.8094
 20
-5.1892
 30
0.0
 10
-97.4852
 20
-4.3836
 30
0.0
 10
-95.2789
 20
-4.6276
 30
0.0
 10
-95.0219
 20
-6.7733
 30
0.0
 10
-95.0219
 20
-6.7733
 30
0.0
 10
-95.0219
 20
-6.7733
 30
0.0
 10
-95.0219
 20
-12.9536
 30
0.0
 10
-95.0219
 20
-12.9536
 30
0.0
 10
-95.0219
 20
-12.9536
 30
0.0
 10
-95.0219
 20
-12.9536
 30
0.0
 10
-100.2112
 20
-18.3234
 30
0.0
 10
-100.2112
 20
-18.3234
 30
0.0
 10
-100.2112
 20
-18.3234
 30
0.0
 10
-100.2112
 20
-18.3234
 30
0.0
 10
-104.2884
 20
-22.5826
 30
0.0
 10
-104.2884
 20
-22.5826
 30
0.0
 10
-104.2884
 20
-22.5826
 30
0.0
 10
-104.2884
 20
-22.5826
 30
0.0
 10
-110.4688
 20
-22.5826
 30
0.0
 10
-110.4688
 20
-22.5826
 30
0.0
 10
-110.4688
 20
-22.5826
 30
0.0
 10
-112.6144
 20
-22.3255
 30
0.0
 10
-112.8584
 20
-20.1193
 30
0.0
 10
-112.0528
 20
-18.795
 30
0.0
 10
-112.0528
 20
-18.795
 30
0.0
 10
-111.1895
 20
-17.3759
 30
0.0
 10
-108.4014
 20
-17.3803
 30
0.0
 10
-107.5044
 20
-18.8453
 30
0.0
 10
-107.5044
 20
-18.8453
 30
0.0
 10
-107.5044
 20
-18.8453
 30
0.0
 10
-103.0815
 20
-14.3049
 30
0.0
 10
-103.0815
 20
-14.3049
 30
0.0
  0
LWPOLYLINE
  5
73
330
1F
100
AcDbEntity
  8
layer 1
 62
     7
100
AcDbPolyline
 90
        5
 70
     1
 43
0.0
 10
-77.7908
 20
-2.0694
 10
-66.7636
 20
-2.0694
 10
-66.7636
 20
2.0464
 10
-77.7908
 20
2.0464
 10
-77.7908
 20
-2.0694
  0
LWPOLYLINE
  5
74
330
1F
100
AcDbEntity
  8
layer 1
 62
     7
100
AcDbPolyline
 90
        5
 70
     1
 43
0.0
 10
-91.5788
 20
-2.0694
 10
-80.5516
 20
-2.0694
 10
-80.5516
 20
2.0464
 10
-91.5788
 20
2.0464
 10
-91.5788
 20
-2.0694
  0
SPLINE
  5
75
330
1F
100
AcDbEntity
  8
layer 1
 62
     7
100
AcDbSpline
210
0.0
220
0.0
230
1.0
 70
    11
 71
     3
 72
    20
 73
    16
 74
     0
 42
0.0000000001
 43
0.0000000001
 12
1.0
 22
0.0
 32
0.0
 13
1.0
 23
0.0
 33
0.0
 40
0.0
 40
0.0
 40
0.0
 40
0.0
 40
0.2
 40
0.2
 40
0.2
 40
0.2
 40
0.4
 40
0.4
 40
0.4
 40
0.4
 40
0.6
 40
0.6
 40
0.6
 40
0.6
 40
1.0
 40
1.0
 40
1.0
 40
1.0
 10
-66.7535
 20
-22.7849
 30
0.0
 10
-66.7535
 20
-22.7849
 30
0.0
 10
-66.7535
 20
-4.8487
 30
0.0
 10
-66.7535
 20
-4.8487
 30
0.0
 10
-66.7535
 20
-4.8487
 30
0.0
 10
-66.7535
 20
-4.8487
 30
0.0
 10
-70.1901
 20
-4.8487
 30
0.0
 10
-70.1901
 20
-4.8487
 30
0.0
 10
-70.1901
 20
-4.8487
 30
0.0
 10
-70.1901
 20
-4.8487
 30
0.0
 10
-70.1901
 20
-22.7849
 30
0.0
 10
-70.1901
 20
-22.7849
 30
0.0
 10
-70.1901
 20
-22.7849
 30
0.0
 10
-70.1901
 20
-22.7849
 30
0.0
 10
-66.7535
 20
-22.7849
 30
0.0
 10
-66.7535
 20
-22.7849
 30
0.0
  0
SPLINE
  5
76
330
1F
100
AcDbEntity
  8
layer 1
 62
     7
100
AcDbSpline
210
0.0
220
0.0
230
1.0
 70
    11
 71
     3
 72
    24
 73
    20
 74
     0
 42
0.0000000001
 43
0.0000000001
 12
1.0
 22
0.0
 32
0.0
 13
1.0
 23
0.0
 33
0.0
 40
0.0
 40
0.0
 40
0.0
 40
0.0
 40
0.1666666666666667
 40
0.1666666666666667
 40
0.1666666666666667
 40
0.1666666666666667
 40
0.3333333333333333
 40
0.3333333333333333
 40
0.3333333333333333
 40
0.3333333333333333
 40
0.5
 40
0.5
 40
0.5
 40
0.5
 40
0.6666666666666666
 40
0.6666666666666666
 40
0.6666666666666666
 40
0.6666666666666666
 40
1.0
 40
1.0
 40
1.0
 40
1.0
 10
-73.7109
 20
-4.8054
 30
0.0
 10
-73.7109
 20
-4.8054
 30
0.0
 10
-83.0967
 20
-4.8054
 30
0.0
 10
-83.0967
 20
-4.8054
 30
0.0
 10
-83.0967
 20
-4.8054
 30
0.0
 10
-83.0967
 20
-4.8054
 30
0.0
 10
-83.0967
 20
-9.5816
 30
0.0
 10
-83.0967
 20
-9.5816
 30
0.0
 10
-83.0967
 20
-9.5816
 30
0.0
 10
-83.0967
 20
-9.5816
 30
0.0
 10
-78.4038
 20
-14.6308
 30
0.0
 10
-78.4038
 20
-14.6308
 30
0.0
 10
-78.4038
 20
-14.6308
 30
0.0
 10
-78.4038
 20
-14.6308
 30
0.0
 10
-73.7109
 20
-14.6308
 30
0.0
 10
-73.7109
 20
-14.6308
 30
0.0
 10
-73.7109
 20
-14.6308
 30
0.0
 10
-73.7109
 20
-14.6308
 30
0.0
 10
-73.7109
 20
-4.8054
 30
0.0
 10
-73.7109
 20
-4.8054
 30
0.0
  0
SPLINE
  5
77
330
1F
100
AcDbEntity
  8
layer 1
 62
     7
100
AcDbSpline
210
0.0
220
0.0
230
1.0
 70
    11
 71
     3
 72
    44
 73
    40
 74
     0
 42
0.0000000001
 43
0.0000000001
 12
1.0
 22
0.0
 32
0.0
 13
1.0
 23
0.0
 33
0.0
 40
0.0
 40
0.0
 40
0.0
 40
0.0
 40
0.0909090909090909
 40
0.0909090909090909
 40
0.0909090909090909
 40
0.0909090909090909
 40
0.1818181818181818
 40
0.1818181818181818
 40
0.1818181818181818
 40
0.1818181818181818
 40
0.2727272727272727
 40
0.2727272727272727
 40
0.2727272727272727
 40
0.2727272727272727
 40
0.3636363636363636
 40
0.3636363636363636
 40
0.3636363636363636
 40
0.3636363636363636
 40
0.4545454545454545
 40
0.4545454545454545
 40
0.4545454545454545
 40
0.4545454545454545
 40
0.5454545454545454
 40
0.5454545454545454
 40
0.5454545454545454
 40
0.5454545454545454
 40
0.6363636363636364
 40
0.6363636363636364
 40
0.6363636363636364
 40
0.6363636363636364
 40
0.7272727272727273
 40
0.7272727272727273
 40
0.7272727272727273
 40
0.7272727272727273
 40
0.8181818181818182
 40
0.8181818181818182
 40
0.8181818181818182
 40
0.8181818181818182
 40
1.0
 40
1.0
 40
1.0
 40
1.0
 10
-82.8381
 20
-14.3049
 30
0.0
 10
-82.8381
 20
-14.3049
 30
0.0
 10
-87.1604
 20
-9.7376
 30
0.0
 10
-87.1604
 20
-9.7376
 30
0.0
 10
-87.1604
 20
-9.7376
 30
0.0
 10
-85.6955
 20
-8.8406
 30
0.0
 10
-85.691
 20
-6.0526
 30
0.0
 10
-87.1102
 20
-5.1892
 30
0.0
 10
-87.1102
 20
-5.1892
 30
0.0
 10
-88.4345
 20
-4.3836
 30
0.0
 10
-90.6407
 20
-4.6276
 30
0.0
 10
-90.8977
 20
-6.7733
 30
0.0
 10
-90.8977
 20
-6.7733
 30
0.0
 10
-90.8977
 20
-6.7733
 30
0.0
 10
-90.8977
 20
-12.9536
 30
0.0
 10
-90.8977
 20
-12.9536
 30
0.0
 10
-90.8977
 20
-12.9536
 30
0.0
 10
-90.8977
 20
-12.9536
 30
0.0
 10
-85.7084
 20
-18.3234
 30
0.0
 10
-85.7084
 20
-18.3234
 30
0.0
 10
-85.7084
 20
-18.3234
 30
0.0
 10
-85.7084
 20
-18.3234
 30
0.0
 10
-81.6312
 20
-22.5826
 30
0.0
 10
-81.6312
 20
-22.5826
 30
0.0
 10
-81.6312
 20
-22.5826
 30
0.0
 10
-81.6312
 20
-22.5826
 30
0.0
 10
-75.4508
 20
-22.5826
 30
0.0
 10
-75.4508
 20
-22.5826
 30
0.0
 10
-75.4508
 20
-22.5826
 30
0.0
 10
-73.3052
 20
-22.3255
 30
0.0
 10
-73.0612
 20
-20.1193
 30
0.0
 10
-73.8668
 20
-18.795
 30
0.0
 10
-73.8668
 20
-18.795
 30
0.0
 10
-74.7301
 20
-17.3759
 30
0.0
 10
-77.5182
 20
-17.3803
 30
0.0
 10
-78.4152
 20
-18.8453
 30
0.0
 10
-78.4152
 20
-18.8453
 30
0.0
 10
-78.4152
 20
-18.8453
 30
0.0
 10
-82.8381
 20
-14.3049
 30
0.0
 10
-82.8381
 20
-14.3049
 30
0.0
  0
LWPOLYLINE
  5
78
330
1F
100
AcDbEntity
  8
layer 1
 62
     7
100
AcDbPolyline
 90
        5
 70
     1
 43
0.0
 10
-119.156
 20
-50.3814
 10
-108.1288
 20
-50.3814
 10
-108.1288
 20
-46.2656
 10
-119.156
 20
-46.2656
 10
-119.156
 20
-50.3814
  0
LWPOLYLINE
  5
79
330
1F
100
AcDbEntity
  8
layer 1
 62
     7
100
AcDbPolyline
 90
        5
 70
     1
 43
0.0
 10
-105.3681
 20
-50.3814
 10
-94.3409
 20
-50.3814
 10
-94.3409
 20
-46.2656
 10
-105.3681
 20
-46.2656
 10
-105.3681
 20
-50.3814
  0
SPLINE
  5
7A
330
1F
100
AcDbEntity
  8
layer 1
 62
     7
100
AcDbSpline
210
0.0
220
0.0
230
1.0
 70
    11
 71
     3
 72
    20
 73
    16
 74
     0
 42
0.0000000001
 43
0.0000000001
 12
1.0
 22
0.0
 32
0.0
 13
1.0
 23
0.0
 33
0.0
 40
0.0
 40
0.0
 40
0.0
 40
0.0
 40
0.2
 40
0.2
 40
0.2
 40
0.2
 40
0.4
 40
0.4
 40
0.4
 40
0.4
 40
0.6
 40
0.6
 40
0.6
 40
0.6
 40
1.0
 40
1.0
 40
1.0
 40
1.0
 10
-119.1661
 20
-25.5501
 30
0.0
 10
-119.1661
 20
-25.5501
 30
0.0
 10
-119.1661
 20
-43.4863
 30
0.0
 10
-119.1661
 20
-43.4863
 30
0.0
 10
-119.1661
 20
-43.4863
 30
0.0
 10
-119.1661
 20
-43.4863
 30
0.0
 10
-115.7295
 20
-43.4863
 30
0.0
 10
-115.7295
 20
-43.4863
 30
0.0
 10
-115.7295
 20
-43.4863
 30
0.0
 10
-115.7295
 20
-43.4863
 30
0.0
 10
-115.7295
 20
-25.5501
 30
0.0
 10
-115.7295
 20
-25.5501
 30
0.0
 10
-115.7295
 20
-25.5501
 30
0.0
 10
-115.7295
 20
-25.5501
 30
0.0
 10
-119.1661
 20
-25.5501
 30
0.0
 10
-119.1661
 20
-25.5501
 30
0.0
  0
SPLINE
  5
7B
330
1F
100
AcDbEntity
  8
layer 1
 62
     7
100
AcDbSpline
210
0.0
220
0.0
230
1.0
 70
    11
 71
     3
 72
    24
 73
    20
 74
     0
 42
0.0000000001
 43
0.0000000001
 12
1.0
 22
0.0
 32
0.0
 13
1.0
 23
0.0
 33
0.0
 40
0.0
 40
0.0
 40
0.0
 40
0.0
 40
0.1666666666666667
 40
0.1666666666666667
 40
0.1666666666666667
 40
0.1666666666666667
 40
0.3333333333333333
 40
0.3333333333333333
 40
0.3333333333333333
 40
0.3333333333333333
 40
0.5
 40
0.5
 40
0.5
 40
0.5
 40
0.6666666666666666
 40
0.6666666666666666
 40
0.6666666666666666
 40
0.6666666666666666
 40
1.0
 40
1.0
 40
1.0
 40
1.0
 10
-112.2087
 20
-43.5296
 30
0.0
 10
-112.2087
 20
-43.5296
 30
0.0
 10
-102.8229
 20
-43.5296
 30
0.0
 10
-102.8229
 20
-43.5296
 30
0.0
 10
-102.8229
 20
-43.5296
 30
0.0
 10
-102.8229
 20
-43.5296
 30
0.0
 10
-102.8229
 20
-38.7534
 30
0.0
 10
-102.8229
 20
-38.7534
 30
0.0
 10
-102.8229
 20
-38.7534
 30
0.0
 10
-102.8229
 20
-38.7534
 30
0.0
 10
-107.5158
 20
-33.7042
 30
0.0
 10
-107.5158
 20
-33.7042
 30
0.0
 10
-107.5158
 20
-33.7042
 30
0.0
 10
-107.5158
 20
-33.7042
 30
0.0
 10
-112.2087
 20
-33.7042
 30
0.0
 10
-112.2087
 20
-33.7042
 30
0.0
 10
-112.2087
 20
-33.7042
 30
0.0
 10
-112.2087
 20
-33.7042
 30
0.0
 10
-112.2087
 20
-43.5296
 30
0.0
 10
-112.2087
 20
-43.5296
 30
0.0
  0
SPLINE
  5
7C
330
1F
100
AcDbEntity
  8
layer 1
 62
     7
100
AcDbSpline
210
0.0
220
0.0
230
1.0
 70
    11
 71
     3
 72
    44
 73
    40
 74
     0
 42
0.0000000001
 43
0.0000000001
 12
1.0
 22
0.0
 32
0.0
 13
1.0
 23
0.0
 33
0.0
 40
0.0
 40
0.0
 40
0.0
 40
0.0
 40
0.0909090909090909
 40
0.0909090909090909
 40
0.0909090909090909
 40
0.0909090909090909
 40
0.1818181818181818
 40
0.1818181818181818
 40
0.1818181818181818
 40
0.1818181818181818
 40
0.2727272727272727
 40
0.2727272727272727
 40
0.2727272727272727
 40
0.2727272727272727
 40
0.3636363636363636
 40
0.3636363636363636
 40
0.3636363636363636
 40
0.3636363636363636
 40
0.4545454545454545
 40
0.4545454545454545
 40
0.4545454545454545
 40
0.4545454545454545
 40
0.5454545454545454
 40
0.5454545454545454
 40
0.5454545454545454
 40
0.5454545454545454
 40
0.6363636363636364
 40
0.6363636363636364
 40
0.6363636363636364
 40
0.6363636363636364
 40
0.7272727272727273
 40
0.7272727272727273
 40
0.7272727272727273
 40
0.7272727272727273
 40
0.8181818181818182
 40
0.8181818181818182
 40
0.8181818181818182
 40
0.8181818181818182
 40
1.0
 40
1.0
 40
1.0
 40
1.0
 10
-103.0815
 20
-34.0301
 30
0.0
 10
-103.0815
 20
-34.0301
 30
0.0
 10
-98.7592
 20
-38.5974
 30
0.0
 10
-98.7592
 20
-38.5974
 30
0.0
 10
-98.7592
 20
-38.5974
 30
0.0
 10
-100.2241
 20
-39.4944
 30
0.0
 10
-100.2286
 20
-42.2824
 30
0.0
 10
-98.8094
 20
-43.1457
 30
0.0
 10
-98.8094
 20
-43.1457
 30
0.0
 10
-97.4852
 20
-43.9514
 30
0.0
 10
-95.2789
 20
-43.7074
 30
0.0
 10
-95.0219
 20
-41.5617
 30
0.0
 10
-95.0219
 20
-41.5617
 30
0.0
 10
-95.0219
 20
-41.5617
 30
0.0
 10
-95.0219
 20
-35.3814
 30
0.0
 10
-95.0219
 20
-35.3814
 30
0.0
 10
-95.0219
 20
-35.3814
 30
0.0
 10
-95.0219
 20
-35.3814
 30
0.0
 10
-100.2112
 20
-30.0116
 30
0.0
 10
-100.2112
 20
-30.0116
 30
0.0
 10
-100.2112
 20
-30.0116
 30
0.0
 10
-100.2112
 20
-30.0116
 30
0.0
 10
-104.2884
 20
-25.7524
 30
0.0
 10
-104.2884
 20
-25.7524
 30
0.0
 10
-104.2884
 20
-25.7524
 30
0.0
 10
-104.2884
 20
-25.7524
 30
0.0
 10
-110.4688
 20
-25.7524
 30
0.0
 10
-110.4688
 20
-25.7524
 30
0.0
 10
-110.4688
 20
-25.7524
 30
0.0
 10
-112.6144
 20
-26.0095
 30
0.0
 10
-112.8584
 20
-28.2157
 30
0.0
 10
-112.0528
 20
-29.54
 30
0.0
 10
-112.0528
 20
-29.54
 30
0.0
 10
-111.1895
 20
-30.9591
 30
0.0
 10
-108.4014
 20
-30.9547
 30
0.0
 10
-107.5044
 20
-29.4897
 30
0.0
 10
-107.5044
 20
-29.4897
 30
0.0
 10
-107.5044
 20
-29.4897
 30
0.0
 10
-103.0815
 20
-34.0301
 30
0.0
 10
-103.0815
 20
-34.0301
 30
0.0
  0
SPLINE
  5
7D
330
1F
100
AcDbEntity
  8
layer 1
 62
     7
100
AcDbSpline
210
0.0
220
0.0
230
1.0
 70
    11
 71
     3
 72
    20
 73
    16
 74
     0
 42
0.0000000001
 43
0.0000000001
 12
1.0
 22
0.0
 32
0.0
 13
1.0
 23
0.0
 33
0.0
 40
0.0
 40
0.0
 40
0.0
 40
0.0
 40
0.2
 40
0.2
 40
0.2
 40
0.2
 40
0.4
 40
0.4
 40
0.4
 40
0.4
 40
0.6
 40
0.6
 40
0.6
 40
0.6
 40
1.0
 40
1.0
 40
1.0
 40
1.0
 10
-66.7636
 20
-50.3814
 30
0.0
 10
-66.7636
 20
-50.3814
 30
0.0
 10
-77.7908
 20
-50.3814
 30
0.0
 10
-77.7908
 20
-50.3814
 30
0.0
 10
-77.7908
 20
-50.3814
 30
0.0
 10
-77.7908
 20
-50.3814
 30
0.0
 10
-77.7908
 20
-46.2656
 30
0.0
 10
-77.7908
 20
-46.2656
 30
0.0
 10
-77.7908
 20
-46.2656
 30
0.0
 10
-77.7908
 20
-46.2656
 30
0.0
 10
-66.7636
 20
-46.2656
 30
0.0
 10
-66.7636
 20
-46.2656
 30
0.0
 10
-66.7636
 20
-46.2656
 30
0.0
 10
-66.7636
 20
-46.2656
 30
0.0
 10
-66.7636
 20
-50.3814
 30
0.0
 10
-66.7636
 20
-50.3814
 30
0.0
  0
SPLINE
  5
7E
330
1F
100
AcDbEntity
  8
layer 1
 62
     7
100
AcDbSpline
210
0.0
220
0.0
230
1.0
 70
    11
 71
     3
 72
    20
 73
    16
 74
     0
 42
0.0000000001
 43
0.0000000001
 12
1.0
 22
0.0
 32
0.0
 13
1.0
 23
0.0
 33
0.0
 40
0.0
 40
0.0
 40
0.0
 40
0.0
 40
0.2
 40
0.2
 40
0.2
 40
0.2
 40
0.4
 40
0.4
 40
0.4
 40
0.4
 40
0.6
 40
0.6
 40
0.6
 40
0.6
 40
1.0
 40
1.0
 40
1.0
 40
1.0
 10
-80.5516
 20
-50.3814
 30
0.0
 10
-80.5516
 20
-50.3814
 30
0.0
 10
-91.5788
 20
-50.3814
 30
0.0
 10
-91.5788
 20
-50.3814
 30
0.0
 10
-91.5788
 20
-50.3814
 30
0.0
 10
-91.5788
 20
-50.3814
 30
0.0
 10
-91.5788
 20
-46.2656
 30
0.0
 10
-91.5788
 20
-46.2656
 30
0.0
 10
-91.5788
 20
-46.2656
 30
0.0
 10
-91.5788
 20
-46.2656
 30
0.0
 10
-80.5516
 20
-46.2656
 30
0.0
 10
-80.5516
 20
-46.2656
 30
0.0
 10
-80.5516
 20
-46.2656
 30
0.0
 10
-80.5516
 20
-46.2656
 30
0.0
 10
-80.5516
 20
-50.3814
 30
0.0
 10
-80.5516
 20
-50.3814
 30
0.0
  0
SPLINE
  5
7F
330
1F
100
AcDbEntity
  8
layer 1
 62
     7
100
AcDbSpline
210
0.0
220
0.0
230
1.0
 70
    11
 71
     3
 72
    20
 73
    16
 74
     0
 42
0.0000000001
 43
0.0000000001
 12
1.0
 22
0.0
 32
0.0
 13
1.0
 23
0.0
 33
0.0
 40
0.0
 40
0.0
 40
0.0
 40
0.0
 40
0.2
 40
0.2
 40
0.2
 40
0.2
 40
0.4
 40
0.4
 40
0.4
 40
0.4
 40
0.6
 40
0.6
 40
0.6
 40
0.6
 40
1.0
 40
1.0
 40
1.0
 40
1.0
 10
-66.7535
 20
-25.5501
 30
0.0
 10
-66.7535
 20
-25.5501
 30
0.0
 10
-66.7535
 20
-43.4863
 30
0.0
 10
-66.7535
 20
-43.4863
 30
0.0
 10
-66.7535
 20
-43.4863
 30
0.0
 10
-66.7535
 20
-43.4863
 30
0.0
 10
-70.1901
 20
-43.4863
 30
0.0
 10
-70.1901
 20
-43.4863
 30
0.0
 10
-70.1901
 20
-43.4863
 30
0.0
 10
-70.1901
 20
-43.4863
 30
0.0
 10
-70.1901
 20
-25.5501
 30
0.0
 10
-70.1901
 20
-25.5501
 30
0.0
 10
-70.1901
 20
-25.5501
 30
0.0
 10
-70.1901
 20
-25.5501
 30
0.0
 10
-66.7535
 20
-25.5501
 30
0.0
 10
-66.7535
 20
-25.5501
 30
0.0
  0
SPLINE
  5
80
330
1F
100
AcDbEntity
  8
layer 1
 62
     7
100
AcDbSpline
210
0.0
220
0.0
230
1.0
 70
    11
 71
     3
 72
    24
 73
    20
 74
     0
 42
0.0000000001
 43
0.0000000001
 12
1.0
 22
0.0
 32
0.0
 13
1.0
 23
0.0
 33
0.0
 40
0.0
 40
0.0
 40
0.0
 40
0.0
 40
0.1666666666666667
 40
0.1666666666666667
 40
0.1666666666666667
 40
0.1666666666666667
 40
0.3333333333333333
 40
0.3333333333333333
 40
0.3333333333333333
 40
0.3333333333333333
 40
0.5
 40
0.5
 40
0.5
 40
0.5
 40
0.6666666666666666
 40
0.6666666666666666
 40
0.6666666666666666
 40
0.6666666666666666
 40
1.0
 40
1.0
 40
1.0
 40
1.0
 10
-73.7109
 20
-43.5296
 30
0.0
 10
-73.7109
 20
-43.5296
 30
0.0
 10
-83.0967
 20
-43.5296
 30
0.0
 10
-83.0967
 20
-43.5296
 30
0.0
 10
-83.0967
 20
-43.5296
 30
0.0
 10
-83.0967
 20
-43.5296
 30
0.0
 10
-83.0967
 20
-38.7534
 30
0.0
 10
-83.0967
 20
-38.7534
 30
0.0
 10
-83.0967
 20
-38.7534
 30
0.0
 10
-83.0967
 20
-38.7534
 30
0.0
 10
-78.4038
 20
-33.7042
 30
0.0
 10
-78.4038
 20
-33.7042
 30
0.0
 10
-78.4038
 20
-33.7042
 30
0.0
 10
-78.4038
 20
-33.7042
 30
0.0
 10
-73.7109
 20
-33.7042
 30
0.0
 10
-73.7109
 20
-33.7042
 30
0.0
 10
-73.7109
 20
-33.7042
 30
0.0
 10
-73.7109
 20
-33.7042
 30
0.0
 10
-73.7109
 20
-43.5296
 30
0.0
 10
-73.7109
 20
-43.5296
 30
0.0
  0
SPLINE
  5
81
330
1F
100
AcDbEntity
  8
layer 1
 62
     7
100
AcDbSpline
210
0.0
220
0.0
230
1.0
 70
    11
 71
     3
 72
    44
 73
    40
 74
     0
 42
0.0000000001
 43
0.0000000001
 12
1.0
 22
0.0
 32
0.0
 13
1.0
 23
0.0
 33
0.0
 40
0.0
 40
0.0
 40
0.0
 40
0.0
 40
0.0909090909090909
 40
0.0909090909090909
 40
0.0909090909090909
 40
0.0909090909090909
 40
0.1818181818181818
 40
0.1818181818181818
 40
0.1818181818181818
 40
0.1818181818181818
 40
0.2727272727272727
 40
0.2727272727272727
 40
0.2727272727272727
 40
0.2727272727272727
 40
0.3636363636363636
 40
0.3636363636363636
 40
0.3636363636363636
 40
0.3636363636363636
 40
0.4545454545454545
 40
0.4545454545454545
 40
0.4545454545454545
 40
0.4545454545454545
 40
0.5454545454545454
 40
0.5454545454545454
 40
0.5454545454545454
 40
0.5454545454545454
 40
0.6363636363636364
 40
0.6363636363636364
 40
0.6363636363636364
 40
0.6363636363636364
 40
0.7272727272727273
 40
0.7272727272727273
 40
0.7272727272727273
 40
0.7272727272727273
 40
0.8181818181818182
 40
0.8181818181818182
 40
0.8181818181818182
 40
0.8181818181818182
 40
1.0
 40
1.0
 40
1.0
 40
1.0
 10
-82.8381
 20
-34.0301
 30
0.0
 10
-82.8381
 20
-34.0301
 30
0.0
 10
-87.1604
 20
-38.5974
 30
0.0
 10
-87.1604
 20
-38.5974
 30
0.0
 10
-87.1604
 20
-38.5974
 30
0.0
 10
-85.6955
 20
-39.4944
 30
0.0
 10
-85.691
 20
-42.2824
 30
0.0
 10
-87.1102
 20
-43.1457
 30
0.0
 10
-87.1102
 20
-43.1457
 30
0.0
 10
-88.4345
 20
-43.9514
 30
0.0
 10
-90.6407
 20
-43.7074
 30
0.0
 10
-90.8977
 20
-41.5617
 30
0.0
 10
-90.8977
 20
-41.5617
 30
0.0
 10
-90.8977
 20
-41.5617
 30
0.0
 10
-90.8977
 20
-35.3814
 30
0.0
 10
-90.8977
 20
-35.3814
 30
0.0
 10
-90.8977
 20
-35.3814
 30
0.0
 10
-90.8977
 20
-35.3814
 30
0.0
 10
-85.7084
 20
-30.0116
 30
0.0
 10
-85.7084
 20
-30.0116
 30
0.0
 10
-85.7084
 20
-30.0116
 30
0.0
 10
-85.7084
 20
-30.0116
 30
0.0
 10
-81.6312
 20
-25.7524
 30
0.0
 10
-81.6312
 20
-25.7524
 30
0.0
 10
-81.6312
 20
-25.7524
 30
0.0
 10
-81.6312
 20
-25.7524
 30
0.0
 10
-75.4508
 20
-25.7524
 30
0.0
 10
-75.4508
 20
-25.7524
 30
0.0
 10
-75.4508
 20
-25.7524
 30
0.0
 10
-73.3052
 20
-26.0095
 30
0.0
 10
-73.0612
 20
-28.2157
 30
0.0
 10
-73.8668
 20
-29.54
 30
0.0
 10
-73.8668
 20
-29.54
 30
0.0
 10
-74.7301
 20
-30.9591
 30
0.0
 10
-77.5182
 20
-30.9547
 30
0.0
 10
-78.4152
 20
-29.4897
 30
0.0
 10
-78.4152
 20
-29.4897
 30
0.0
 10
-78.4152
 20
-29.4897
 30
0.0
 10
-82.8381
 20
-34.0301
 30
0.0
 10
-82.8381
 20
-34.0301
 30
0.0
  0
SPLINE
  5
82
330
1F
100
AcDbEntity
  8
layer 1
 62
     7
100
AcDbSpline
210
0.0
220
0.0
230
1.0
 70
    11
 71
     3
 72
    20
 73
    16
 74
     0
 42
0.0000000001
 43
0.0000000001
 12
1.0
 22
0.0
 32
0.0
 13
1.0
 23
0.0
 33
0.0
 40
0.0
 40
0.0
 40
0.0
 40
0.0
 40
0.2
 40
0.2
 40
0.2
 40
0.2
 40
0.4
 40
0.4
 40
0.4
 40
0.4
 40
0.6
 40
0.6
 40
0.6
 40
0.6
 40
1.0
 40
1.0
 40
1.0
 40
1.0
 10
-101.5866
 20
-83.7479
 30
0.0
 10
-101.5866
 20
-83.7479
 30
0.0
 10
-92.9733
 20
-75.1346
 30
0.0
 10
-92.9733
 20
-75.1346
 30
0.0
 10
-92.9733
 20
-75.1346
 30
0.0
 10
-92.9733
 20
-75.1346
 30
0.0
 10
-84.36
 20
-83.7479
 30
0.0
 10
-84.36
 20
-83.7479
 30
0.0
 10
-84.36
 20
-83.7479
 30
0.0
 10
-84.36
 20
-83.7479
 30
0.0
 10
-92.9733
 20
-92.3612
 30
0.0
 10
-92.9733
 20
-92.3612
 30
0.0
 10
-92.9733
 20
-92.3612
 30
0.0
 10
-92.9733
 20
-92.3612
 30
0.0
 10
-101.5866
 20
-83.7479
 30
0.0
 10
-101.5866
 20
-83.7479
 30
0.0
  0
LWPOLYLINE
  5
83
330
1F
100
AcDbEntity
  8
layer 1
 62
     7
100
AcDbPolyline
 90
        5
 70
     1
 43
0.0
 10
-119.156
 20
-61.6497
 10
-108.1288
 20
-61.6497
 10
-108.1288
 20
-57.5339
 10
-119.156
 20
-57.5339
 10
-119.156
 20
-61.6497
  0
LWPOLYLINE
  5
84
330
1F
100
AcDbEntity
  8
layer 1
 62
     7
100
AcDbPolyline
 90
        5
 70
     1
 43
0.0
 10
-105.3681
 20
-61.6497
 10
-94.3409
 20
-61.6497
 10
-94.3409
 20
-57.5339
 10
-105.3681
 20
-57.5339
 10
-105.3681
 20
-61.6497
  0
SPLINE
  5
85
330
1F
100
AcDbEntity
  8
layer 1
 62
     7
100
AcDbSpline
210
0.0
220
0.0
230
1.0
 70
    11
 71
     3
 72
    20
 73
    16
 74
     0
 42
0.0000000001
 43
0.0000000001
 12
1.0
 22
0.0
 32
0.0
 13
1.0
 23
0.0
 33
0.0
 40
0.0
 40
0.0
 40
0.0
 40
0.0
 40
0.2
 40
0.2
 40
0.2
 40
0.2
 40
0.4
 40
0.4
 40
0.4
 40
0.4
 40
0.6
 40
0.6
 40
0.6
 40
0.6
 40
1.0
 40
1.0
 40
1.0
 40
1.0
 10
-119.1661
 20
-82.3652
 30
0.0
 10
-119.1661
 20
-82.3652
 30
0.0
 10
-119.1661
 20
-64.429
 30
0.0
 10
-119.1661
 20
-64.429
 30
0.0
 10
-119.1661
 20
-64.429
 30
0.0
 10
-119.1661
 20
-64.429
 30
0.0
 10
-115.7295
 20
-64.429
 30
0.0
 10
-115.7295
 20
-64.429
 30
0.0
 10
-115.7295
 20
-64.429
 30
0.0
 10
-115.7295
 20
-64.429
 30
0.0
 10
-115.7295
 20
-82.3652
 30
0.0
 10
-115.7295
 20
-82.3652
 30
0.0
 10
-115.7295
 20
-82.3652
 30
0.0
 10
-115.7295
 20
-82.3652
 30
0.0
 10
-119.1661
 20
-82.3652
 30
0.0
 10
-119.1661
 20
-82.3652
 30
0.0
  0
SPLINE
  5
86
330
1F
100
AcDbEntity
  8
layer 1
 62
     7
100
AcDbSpline
210
0.0
220
0.0
230
1.0
 70
    11
 71
     3
 72
    24
 73
    20
 74
     0
 42
0.0000000001
 43
0.0000000001
 12
1.0
 22
0.0
 32
0.0
 13
1.0
 23
0.0
 33
0.0
 40
0.0
 40
0.0
 40
0.0
 40
0.0
 40
0.1666666666666667
 40
0.1666666666666667
 40
0.1666666666666667
 40
0.1666666666666667
 40
0.3333333333333333
 40
0.3333333333333333
 40
0.3333333333333333
 40
0.3333333333333333
 40
0.5
 40
0.5
 40
0.5
 40
0.5
 40
0.6666666666666666
 40
0.6666666666666666
 40
0.6666666666666666
 40
0.6666666666666666
 40
1.0
 40
1.0
 40
1.0
 40
1.0
 10
-112.2087
 20
-64.3858
 30
0.0
 10
-112.2087
 20
-64.3858
 30
0.0
 10
-102.8229
 20
-64.3858
 30
0.0
 10
-102.8229
 20
-64.3858
 30
0.0
 10
-102.8229
 20
-64.3858
 30
0.0
 10
-102.8229
 20
-64.3858
 30
0.0
 10
-102.8229
 20
-69.162
 30
0.0
 10
-102.8229
 20
-69.162
 30
0.0
 10
-102.8229
 20
-69.162
 30
0.0
 10
-102.8229
 20
-69.162
 30
0.0
 10
-107.5158
 20
-74.2111
 30
0.0
 10
-107.5158
 20
-74.2111
 30
0.0
 10
-107.5158
 20
-74.2111
 30
0.0
 10
-107.5158
 20
-74.2111
 30
0.0
 10
-112.2087
 20
-74.2111
 30
0.0
 10
-112.2087
 20
-74.2111
 30
0.0
 10
-112.2087
 20
-74.2111
 30
0.0
 10
-112.2087
 20
-74.2111
 30
0.0
 10
-112.2087
 20
-64.3858
 30
0.0
 10
-112.2087
 20
-64.3858
 30
0.0
  0
SPLINE
  5
87
330
1F
100
AcDbEntity
  8
layer 1
 62
     7
100
AcDbSpline
210
0.0
220
0.0
230
1.0
 70
    11
 71
     3
 72
    44
 73
    40
 74
     0
 42
0.0000000001
 43
0.0000000001
 12
1.0
 22
0.0
 32
0.0
 13
1.0
 23
0.0
 33
0.0
 40
0.0
 40
0.0
 40
0.0
 40
0.0
 40
0.0909090909090909
 40
0.0909090909090909
 40
0.0909090909090909
 40
0.0909090909090909
 40
0.1818181818181818
 40
0.1818181818181818
 40
0.1818181818181818
 40
0.1818181818181818
 40
0.2727272727272727
 40
0.2727272727272727
 40
0.2727272727272727
 40
0.2727272727272727
 40
0.3636363636363636
 40
0.3636363636363636
 40
0.3636363636363636
 40
0.3636363636363636
 40
0.4545454545454545
 40
0.4545454545454545
 40
0.4545454545454545
 40
0.4545454545454545
 40
0.5454545454545454
 40
0.5454545454545454
 40
0.5454545454545454
 40
0.5454545454545454
 40
0.6363636363636364
 40
0.6363636363636364
 40
0.6363636363636364
 40
0.6363636363636364
 40
0.7272727272727273
 40
0.7272727272727273
 40
0.7272727272727273
 40
0.7272727272727273
 40
0.8181818181818182
 40
0.8181818181818182
 40
0.8181818181818182
 40
0.8181818181818182
 40
1.0
 40
1.0
 40
1.0
 40
1.0
 10
-103.0815
 20
-73.8852
 30
0.0
 10
-103.0815
 20
-73.8852
 30
0.0
 10
-98.7592
 20
-69.318
 30
0.0
 10
-98.7592
 20
-69.318
 30
0.0
 10
-98.7592
 20
-69.318
 30
0.0
 10
-100.2241
 20
-68.4209
 30
0.0
 10
-100.2286
 20
-65.6329
 30
0.0
 10
-98.8094
 20
-64.7696
 30
0.0
 10
-98.8094
 20
-64.7696
 30
0.0
 10
-97.4852
 20
-63.964
 30
0.0
 10
-95.2789
 20
-64.208
 30
0.0
 10
-95.0219
 20
-66.3536
 30
0.0
 10
-95.0219
 20
-66.3536
 30
0.0
 10
-95.0219
 20
-66.3536
 30
0.0
 10
-95.0219
 20
-72.534
 30
0.0
 10
-95.0219
 20
-72.534
 30
0.0
 10
-95.0219
 20
-72.534
 30
0.0
 10
-95.0219
 20
-72.534
 30
0.0
 10
-100.2112
 20
-77.9038
 30
0.0
 10
-100.2112
 20
-77.9038
 30
0.0
 10
-100.2112
 20
-77.9038
 30
0.0
 10
-100.2112
 20
-77.9038
 30
0.0
 10
-104.2884
 20
-82.1629
 30
0.0
 10
-104.2884
 20
-82.1629
 30
0.0
 10
-104.2884
 20
-82.1629
 30
0.0
 10
-104.2884
 20
-82.1629
 30
0.0
 10
-110.4688
 20
-82.1629
 30
0.0
 10
-110.4688
 20
-82.1629
 30
0.0
 10
-110.4688
 20
-82.1629
 30
0.0
 10
-112.6144
 20
-81.9058
 30
0.0
 10
-112.8584
 20
-79.6996
 30
0.0
 10
-112.0528
 20
-78.3753
 30
0.0
 10
-112.0528
 20
-78.3753
 30
0.0
 10
-111.1895
 20
-76.9562
 30
0.0
 10
-108.4014
 20
-76.9607
 30
0.0
 10
-107.5044
 20
-78.4256
 30
0.0
 10
-107.5044
 20
-78.4256
 30
0.0
 10
-107.5044
 20
-78.4256
 30
0.0
 10
-103.0815
 20
-73.8852
 30
0.0
 10
-103.0815
 20
-73.8852
 30
0.0
  0
LWPOLYLINE
  5
88
330
1F
100
AcDbEntity
  8
layer 1
 62
     7
100
AcDbPolyline
 90
        5
 70
     1
 43
0.0
 10
-77.7908
 20
-61.6497
 10
-66.7636
 20
-61.6497
 10
-66.7636
 20
-57.5339
 10
-77.7908
 20
-57.5339
 10
-77.7908
 20
-61.6497
  0
LWPOLYLINE
  5
89
330
1F
100
AcDbEntity
  8
layer 1
 62
     7
100
AcDbPolyline
 90
        5
 70
     1
 43
0.0
 10
-91.5788
 20
-61.6497
 10
-80.5516
 20
-61.6497
 10
-80.5516
 20
-57.5339
 10
-91.5788
 20
-57.5339
 10
-91.5788
 20
-61.6497
  0
SPLINE
  5
8A
330
1F
100
AcDbEntity
  8
layer 1
 62
     7
100
AcDbSpline
210
0.0
220
0.0
230
1.0
 70
    11
 71
     3
 72
    20
 73
    16
 74
     0
 42
0.0000000001
 43
0.0000000001
 12
1.0
 22
0.0
 32
0.0
 13
1.0
 23
0.0
 33
0.0
 40
0.0
 40
0.0
 40
0.0
 40
0.0
 40
0.2
 40
0.2
 40
0.2
 40
0.2
 40
0.4
 40
0.4
 40
0.4
 40
0.4
 40
0.6
 40
0.6
 40
0.6
 40
0.6
 40
1.0
 40
1.0
 40
1.0
 40
1.0
 10
-66.7535
 20
-82.3652
 30
0.0
 10
-66.7535
 20
-82.3652
 30
0.0
 10
-66.7535
 20
-64.429
 30
0.0
 10
-66.7535
 20
-64.429
 30
0.0
 10
-66.7535
 20
-64.429
 30
0.0
 10
-66.7535
 20
-64.429
 30
0.0
 10
-70.1901
 20
-64.429
 30
0.0
 10
-70.1901
 20
-64.429
 30
0.0
 10
-70.1901
 20
-64.429
 30
0.0
 10
-70.1901
 20
-64.429
 30
0.0
 10
-70.1901
 20
-82.3652
 30
0.0
 10
-70.1901
 20
-82.3652
 30
0.0
 10
-70.1901
 20
-82.3652
 30
0.0
 10
-70.1901
 20
-82.3652
 30
0.0
 10
-66.7535
 20
-82.3652
 30
0.0
 10
-66.7535
 20
-82.3652
 30
0.0
  0
SPLINE
  5
8B
330
1F
100
AcDbEntity
  8
layer 1
 62
     7
100
AcDbSpline
210
0.0
220
0.0
230
1.0
 70
    11
 71
     3
 72
    24
 73
    20
 74
     0
 42
0.0000000001
 43
0.0000000001
 12
1.0
 22
0.0
 32
0.0
 13
1.0
 23
0.0
 33
0.0
 40
0.0
 40
0.0
 40
0.0
 40
0.0
 40
0.1666666666666667
 40
0.1666666666666667
 40
0.1666666666666667
 40
0.1666666666666667
 40
0.3333333333333333
 40
0.3333333333333333
 40
0.3333333333333333
 40
0.3333333333333333
 40
0.5
 40
0.5
 40
0.5
 40
0.5
 40
0.6666666666666666
 40
0.6666666666666666
 40
0.6666666666666666
 40
0.6666666666666666
 40
1.0
 40
1.0
 40
1.0
 40
1.0
 10
-73.7109
 20
-64.3858
 30
0.0
 10
-73.7109
 20
-64.3858
 30
0.0
 10
-83.0967
 20
-64.3858
 30
0.0
 10
-83.0967
 20
-64.3858
 30
0.0
 10
-83.0967
 20
-64.3858
 30
0.0
 10
-83.0967
 20
-64.3858
 30
0.0
 10
-83.0967
 20
-69.162
 30
0.0
 10
-83.0967
 20
-69.162
 30
0.0
 10
-83.0967
 20
-69.162
 30
0.0
 10
-83.0967
 20
-69.162
 30
0.0
 10
-78.4038
 20
-74.2111
 30
0.0
 10
-78.4038
 20
-74.2111
 30
0.0
 10
-78.4038
 20
-74.2111
 30
0.0
 10
-78.4038
 20
-74.2111
 30
0.0
 10
-73.7109
 20
-74.2111
 30
0.0
 10
-73.7109
 20
-74.2111
 30
0.0
 10
-73.7109
 20
-74.2111
 30
0.0
 10
-73.7109
 20
-74.2111
 30
0.0
 10
-73.7109
 20
-64.3858
 30
0.0
 10
-73.7109
 20
-64.3858
 30
0.0
  0
SPLINE
  5
8C
330
1F
100
AcDbEntity
  8
layer 1
 62
     7
100
AcDbSpline
210
0.0
220
0.0
230
1.0
 70
    11
 71
     3
 72
    44
 73
    40
 74
     0
 42
0.0000000001
 43
0.0000000001
 12
1.0
 22
0.0
 32
0.0
 13
1.0
 23
0.0
 33
0.0
 40
0.0
 40
0.0
 40
0.0
 40
0.0
 40
0.0909090909090909
 40
0.0909090909090909
 40
0.0909090909090909
 40
0.0909090909090909
 40
0.1818181818181818
 40
0.1818181818181818
 40
0.1818181818181818
 40
0.1818181818181818
 40
0.2727272727272727
 40
0.2727272727272727
 40
0.2727272727272727
 40
0.2727272727272727
 40
0.3636363636363636
 40
0.3636363636363636
 40
0.3636363636363636
 40
0.3636363636363636
 40
0.4545454545454545
 40
0.4545454545454545
 40
0.4545454545454545
 40
0.4545454545454545
 40
0.5454545454545454
 40
0.5454545454545454
 40
0.5454545454545454
 40
0.5454545454545454
 40
0.6363636363636364
 40
0.6363636363636364
 40
0.6363636363636364
 40
0.6363636363636364
 40
0.7272727272727273
 40
0.7272727272727273
 40
0.7272727272727273
 40
0.7272727272727273
 40
0.8181818181818182
 40
0.8181818181818182
 40
0.8181818181818182
 40
0.8181818181818182
 40
1.0
 40
1.0
 40
1.0
 40
1.0
 10
-82.8381
 20
-73.8852
 30
0.0
 10
-82.8381
 20
-73.8852
 30
0.0
 10
-87.1604
 20
-69.318
 30
0.0
 10
-87.1604
 20
-69.318
 30
0.0
 10
-87.1604
 20
-69.318
 30
0.0
 10
-85.6955
 20
-68.4209
 30
0.0
 10
-85.691
 20
-65.6329
 30
0.0
 10
-87.1102
 20
-64.7696
 30
0.0
 10
-87.1102
 20
-64.7696
 30
0.0
 10
-88.4345
 20
-63.964
 30
0.0
 10
-90.6407
 20
-64.208
 30
0.0
 10
-90.8977
 20
-66.3536
 30
0.0
 10
-90.8977
 20
-66.3536
 30
0.0
 10
-90.8977
 20
-66.3536
 30
0.0
 10
-90.8977
 20
-72.534
 30
0.0
 10
-90.8977
 20
-72.534
 30
0.0
 10
-90.8977
 20
-72.534
 30
0.0
 10
-90.8977
 20
-72.534
 30
0.0
 10
-85.7084
 20
-77.9038
 30
0.0
 10
-85.7084
 20
-77.9038
 30
0.0
 10
-85.7084
 20
-77.9038
 30
0.0
 10
-85.7084
 20
-77.9038
 30
0.0
 10
-81.6312
 20
-82.1629
 30
0.0
 10
-81.6312
 20
-82.1629
 30
0.0
 10
-81.6312
 20
-82.1629
 30
0.0
 10
-81.6312
 20
-82.1629
 30
0.0
 10
-75.4508
 20
-82.1629
 30
0.0
 10
-75.4508
 20
-82.1629
 30
0.0
 10
-75.4508
 20
-82.1629
 30
0.0
 10
-73.3052
 20
-81.9058
 30
0.0
 10
-73.0612
 20
-79.6996
 30
0.0
 10
-73.8668
 20
-78.3753
 30
0.0
 10
-73.8668
 20
-78.3753
 30
0.0
 10
-74.7301
 20
-76.9562
 30
0.0
 10
-77.5182
 20
-76.9607
 30
0.0
 10
-78.4152
 20
-78.4256
 30
0.0
 10
-78.4152
 20
-78.4256
 30
0.0
 10
-78.4152
 20
-78.4256
 30
0.0
 10
-82.8381
 20
-73.8852
 30
0.0
 10
-82.8381
 20
-73.8852
 30
0.0
  0
LWPOLYLINE
  5
8D
330
1F
100
AcDbEntity
  8
layer 1
 62
     7
100
AcDbPolyline
 90
        5
 70
     1
 43
0.0
 10
-119.156
 20
-109.9617
 10
-108.1288
 20
-109.9617
 10
-108.1288
 20
-105.8459
 10
-119.156
 20
-105.8459
 10
-119.156
 20
-109.9617
  0
LWPOLYLINE
  5
8E
330
1F
100
AcDbEntity
  8
layer 1
 62
     7
100
AcDbPolyline
 90
        5
 70
     1
 43
0.0
 10
-105.3681
 20
-109.9617
 10
-94.3409
 20
-109.9617
 10
-94.3409
 20
-105.8459
 10
-105.3681
 20
-105.8459
 10
-105.3681
 20
-109.9617
  0
SPLINE
  5
8F
330
1F
100
AcDbEntity
  8
layer 1
 62
     7
100
AcDbSpline
210
0.0
220
0.0
230
1.0
 70
    11
 71
     3
 72
    20
 73
    16
 74
     0
 42
0.0000000001
 43
0.0000000001
 12
1.0
 22
0.0
 32
0.0
 13
1.0
 23
0.0
 33
0.0
 40
0.0
 40
0.0
 40
0.0
 40
0.0
 40
0.2
 40
0.2
 40
0.2
 40
0.2
 40
0.4
 40
0.4
 40
0.4
 40
0.4
 40
0.6
 40
0.6
 40
0.6
 40
0.6
 40
1.0
 40
1.0
 40
1.0
 40
1.0
 10
-119.1661
 20
-85.1305
 30
0.0
 10
-119.1661
 20
-85.1305
 30
0.0
 10
-119.1661
 20
-103.0667
 30
0.0
 10
-119.1661
 20
-103.0667
 30
0.0
 10
-119.1661
 20
-103.0667
 30
0.0
 10
-119.1661
 20
-103.0667
 30
0.0
 10
-115.7295
 20
-103.0667
 30
0.0
 10
-115.7295
 20
-103.0667
 30
0.0
 10
-115.7295
 20
-103.0667
 30
0.0
 10
-115.7295
 20
-103.0667
 30
0.0
 10
-115.7295
 20
-85.1305
 30
0.0
 10
-115.7295
 20
-85.1305
 30
0.0
 10
-115.7295
 20
-85.1305
 30
0.0
 10
-115.7295
 20
-85.1305
 30
0.0
 10
-119.1661
 20
-85.1305
 30
0.0
 10
-119.1661
 20
-85.1305
 30
0.0
  0
SPLINE
  5
90
330
1F
100
AcDbEntity
  8
layer 1
 62
     7
100
AcDbSpline
210
0.0
220
0.0
230
1.0
 70
    11
 71
     3
 72
    24
 73
    20
 74
     0
 42
0.0000000001
 43
0.0000000001
 12
1.0
 22
0.0
 32
0.0
 13
1.0
 23
0.0
 33
0.0
 40
0.0
 40
0.0
 40
0.0
 40
0.0
 40
0.1666666666666667
 40
0.1666666666666667
 40
0.1666666666666667
 40
0.1666666666666667
 40
0.3333333333333333
 40
0.3333333333333333
 40
0.3333333333333333
 40
0.3333333333333333
 40
0.5
 40
0.5
 40
0.5
 40
0.5
 40
0.6666666666666666
 40
0.6666666666666666
 40
0.6666666666666666
 40
0.6666666666666666
 40
1.0
 40
1.0
 40
1.0
 40
1.0
 10
-112.2087
 20
-103.1099
 30
0.0
 10
-112.2087
 20
-103.1099
 30
0.0
 10
-102.8229
 20
-103.1099
 30
0.0
 10
-102.8229
 20
-103.1099
 30
0.0
 10
-102.8229
 20
-103.1099
 30
0.0
 10
-102.8229
 20
-103.1099
 30
0.0
 10
-102.8229
 20
-98.3337
 30
0.0
 10
-102.8229
 20
-98.3337
 30
0.0
 10
-102.8229
 20
-98.3337
 30
0.0
 10
-102.8229
 20
-98.3337
 30
0.0
 10
-107.5158
 20
-93.2846
 30
0.0
 10
-107.5158
 20
-93.2846
 30
0.0
 10
-107.5158
 20
-93.2846
 30
0.0
 10
-107.5158
 20
-93.2846
 30
0.0
 10
-112.2087
 20
-93.2846
 30
0.0
 10
-112.2087
 20
-93.2846
 30
0.0
 10
-112.2087
 20
-93.2846
 30
0.0
 10
-112.2087
 20
-93.2846
 30
0.0
 10
-112.2087
 20
-103.1099
 30
0.0
 10
-112.2087
 20
-103.1099
 30
0.0
  0
SPLINE
  5
91
330
1F
100
AcDbEntity
  8
layer 1
 62
     7
100
AcDbSpline
210
0.0
220
0.0
230
1.0
 70
    11
 71
     3
 72
    44
 73
    40
 74
     0
 42
0.0000000001
 43
0.0000000001
 12
1.0
 22
0.0
 32
0.0
 13
1.0
 23
0.0
 33
0.0
 40
0.0
 40
0.0
 40
0.0
 40
0.0
 40
0.0909090909090909
 40
0.0909090909090909
 40
0.0909090909090909
 40
0.0909090909090909
 40
0.1818181818181818
 40
0.1818181818181818
 40
0.1818181818181818
 40
0.1818181818181818
 40
0.2727272727272727
 40
0.2727272727272727
 40
0.2727272727272727
 40
0.2727272727272727
 40
0.3636363636363636
 40
0.3636363636363636
 40
0.3636363636363636
 40
0.3636363636363636
 40
0.4545454545454545
 40
0.4545454545454545
 40
0.4545454545454545
 40
0.4545454545454545
 40
0.5454545454545454
 40
0.5454545454545454
 40
0.5454545454545454
 40
0.5454545454545454
 40
0.6363636363636364
 40
0.6363636363636364
 40
0.6363636363636364
 40
0.6363636363636364
 40
0.7272727272727273
 40
0.7272727272727273
 40
0.7272727272727273
 40
0.7272727272727273
 40
0.8181818181818182
 40
0.8181818181818182
 40
0.8181818181818182
 40
0.8181818181818182
 40
1.0
 40
1.0
 40
1.0
 40
1.0
 10
-103.0815
 20
-93.6104
 30
0.0
 10
-103.0815
 20
-93.6104
 30
0.0
 10
-98.7592
 20
-98.1777
 30
0.0
 10
-98.7592
 20
-98.1777
 30
0.0
 10
-98.7592
 20
-98.1777
 30
0.0
 10
-100.2241
 20
-99.0747
 30
0.0
 10
-100.2286
 20
-101.8628
 30
0.0
 10
-98.8094
 20
-102.7261
 30
0.0
 10
-98.8094
 20
-102.7261
 30
0.0
 10
-97.4852
 20
-103.5317
 30
0.0
 10
-95.2789
 20
-103.2877
 30
0.0
 10
-95.0219
 20
-101.1421
 30
0.0
 10
-95.0219
 20
-101.1421
 30
0.0
 10
-95.0219
 20
-101.1421
 30
0.0
 10
-95.0219
 20
-94.9617
 30
0.0
 10
-95.0219
 20
-94.9617
 30
0.0
 10
-95.0219
 20
-94.9617
 30
0.0
 10
-95.0219
 20
-94.9617
 30
0.0
 10
-100.2112
 20
-89.5919
 30
0.0
 10
-100.2112
 20
-89.5919
 30
0.0
 10
-100.2112
 20
-89.5919
 30
0.0
 10
-100.2112
 20
-89.5919
 30
0.0
 10
-104.2884
 20
-85.3327
 30
0.0
 10
-104.2884
 20
-85.3327
 30
0.0
 10
-104.2884
 20
-85.3327
 30
0.0
 10
-104.2884
 20
-85.3327
 30
0.0
 10
-110.4688
 20
-85.3327
 30
0.0
 10
-110.4688
 20
-85.3327
 30
0.0
 10
-110.4688
 20
-85.3327
 30
0.0
 10
-112.6144
 20
-85.5898
 30
0.0
 10
-112.8584
 20
-87.796
 30
0.0
 10
-112.0528
 20
-89.1203
 30
0.0
 10
-112.0528
 20
-89.1203
 30
0.0
 10
-111.1895
 20
-90.5394
 30
0.0
 10
-108.4014
 20
-90.535
 30
0.0
 10
-107.5044
 20
-89.0701
 30
0.0
 10
-107.5044
 20
-89.0701
 30
0.0
 10
-107.5044
 20
-89.0701
 30
0.0
 10
-103.0815
 20
-93.6104
 30
0.0
 10
-103.0815
 20
-93.6104
 30
0.0
  0
SPLINE
  5
92
330
1F
100
AcDbEntity
  8
layer 1
 62
     7
100
AcDbSpline
210
0.0
220
0.0
230
1.0
 70
    11
 71
     3
 72
    20
 73
    16
 74
     0
 42
0.0000000001
 43
0.0000000001
 12
1.0
 22
0.0
 32
0.0
 13
1.0
 23
0.0
 33
0.0
 40
0.0
 40
0.0
 40
0.0
 40
0.0
 40
0.2
 40
0.2
 40
0.2
 40
0.2
 40
0.4
 40
0.4
 40
0.4
 40
0.4
 40
0.6
 40
0.6
 40
0.6
 40
0.6
 40
1.0
 40
1.0
 40
1.0
 40
1.0
 10
-66.7636
 20
-109.9617
 30
0.0
 10
-66.7636
 20
-109.9617
 30
0.0
 10
-77.7908
 20
-109.9617
 30
0.0
 10
-77.7908
 20
-109.9617
 30
0.0
 10
-77.7908
 20
-109.9617
 30
0.0
 10
-77.7908
 20
-109.9617
 30
0.0
 10
-77.7908
 20
-105.8459
 30
0.0
 10
-77.7908
 20
-105.8459
 30
0.0
 10
-77.7908
 20
-105.8459
 30
0.0
 10
-77.7908
 20
-105.8459
 30
0.0
 10
-66.7636
 20
-105.8459
 30
0.0
 10
-66.7636
 20
-105.8459
 30
0.0
 10
-66.7636
 20
-105.8459
 30
0.0
 10
-66.7636
 20
-105.8459
 30
0.0
 10
-66.7636
 20
-109.9617
 30
0.0
 10
-66.7636
 20
-109.9617
 30
0.0
  0
SPLINE
  5
93
330
1F
100
AcDbEntity
  8
layer 1
 62
     7
100
AcDbSpline
210
0.0
220
0.0
230
1.0
 70
    11
 71
     3
 72
    20
 73
    16
 74
     0
 42
0.0000000001
 43
0.0000000001
 12
1.0
 22
0.0
 32
0.0
 13
1.0
 23
0.0
 33
0.0
 40
0.0
 40
0.0
 40
0.0
 40
0.0
 40
0.2
 40
0.2
 40
0.2
 40
0.2
 40
0.4
 40
0.4
 40
0.4
 40
0.4
 40
0.6
 40
0.6
 40
0.6
 40
0.6
 40
1.0
 40
1.0
 40
1.0
 40
1.0
 10
-80.5516
 20
-109.9617
 30
0.0
 10
-80.5516
 20
-109.9617
 30
0.0
 10
-91.5788
 20
-109.9617
 30
0.0
 10
-91.5788
 20
-109.9617
 30
0.0
 10
-91.5788
 20
-109.9617
 30
0.0
 10
-91.5788
 20
-109.9617
 30
0.0
 10
-91.5788
 20
-105.8459
 30
0.0
 10
-91.5788
 20
-105.8459
 30
0.0
 10
-91.5788
 20
-105.8459
 30
0.0
 10
-91.5788
 20
-105.8459
 30
0.0
 10
-80.5516
 20
-105.8459
 30
0.0
 10
-80.5516
 20
-105.8459
 30
0.0
 10
-80.5516
 20
-105.8459
 30
0.0
 10
-80.5516
 20
-105.8459
 30
0.0
 10
-80.5516
 20
-109.9617
 30
0.0
 10
-80.5516
 20
-109.9617
 30
0.0
  0
SPLINE
  5
94
330
1F
100
AcDbEntity
  8
layer 1
 62
     7
100
AcDbSpline
210
0.0
220
0.0
230
1.0
 70
    11
 71
     3
 72
    20
 73
    16
 74
     0
 42
0.0000000001
 43
0.0000000001
 12
1.0
 22
0.0
 32
0.0
 13
1.0
 23
0.0
 33
0.0
 40
0.0
 40
0.0
 40
0.0
 40
0.0
 40
0.2
 40
0.2
 40
0.2
 40
0.2
 40
0.4
 40
0.4
 40
0.4
 40
0.4
 40
0.6
 40
0.6
 40
0.6
 40
0.6
 40
1.0
 40
1.0
 40
1.0
 40
1.0
 10
-66.7535
 20
-85.1305
 30
0.0
 10
-66.7535
 20
-85.1305
 30
0.0
 10
-66.7535
 20
-103.0667
 30
0.0
 10
-66.7535
 20
-103.0667
 30
0.0
 10
-66.7535
 20
-103.0667
 30
0.0
 10
-66.7535
 20
-103.0667
 30
0.0
 10
-70.1901
 20
-103.0667
 30
0.0
 10
-70.1901
 20
-103.0667
 30
0.0
 10
-70.1901
 20
-103.0667
 30
0.0
 10
-70.1901
 20
-103.0667
 30
0.0
 10
-70.1901
 20
-85.1305
 30
0.0
 10
-70.1901
 20
-85.1305
 30
0.0
 10
-70.1901
 20
-85.1305
 30
0.0
 10
-70.1901
 20
-85.1305
 30
0.0
 10
-66.7535
 20
-85.1305
 30
0.0
 10
-66.7535
 20
-85.1305
 30
0.0
  0
SPLINE
  5
95
330
1F
100
AcDbEntity
  8
layer 1
 62
     7
100
AcDbSpline
210
0.0
220
0.0
230
1.0
 70
    11
 71
     3
 72
    24
 73
    20
 74
     0
 42
0.0000000001
 43
0.0000000001
 12
1.0
 22
0.0
 32
0.0
 13
1.0
 23
0.0
 33
0.0
 40
0.0
 40
0.0
 40
0.0
 40
0.0
 40
0.1666666666666667
 40
0.1666666666666667
 40
0.1666666666666667
 40
0.1666666666666667
 40
0.3333333333333333
 40
0.3333333333333333
 40
0.3333333333333333
 40
0.3333333333333333
 40
0.5
 40
0.5
 40
0.5
 40
0.5
 40
0.6666666666666666
 40
0.6666666666666666
 40
0.6666666666666666
 40
0.6666666666666666
 40
1.0
 40
1.0
 40
1.0
 40
1.0
 10
-73.7109
 20
-103.1099
 30
0.0
 10
-73.7109
 20
-103.1099
 30
0.0
 10
-83.0967
 20
-103.1099
 30
0.0
 10
-83.0967
 20
-103.1099
 30
0.0
 10
-83.0967
 20
-103.1099
 30
0.0
 10
-83.0967
 20
-103.1099
 30
0.0
 10
-83.0967
 20
-98.3337
 30
0.0
 10
-83.0967
 20
-98.3337
 30
0.0
 10
-83.0967
 20
-98.3337
 30
0.0
 10
-83.0967
 20
-98.3337
 30
0.0
 10
-78.4038
 20
-93.2846
 30
0.0
 10
-78.4038
 20
-93.2846
 30
0.0
 10
-78.4038
 20
-93.2846
 30
0.0
 10
-78.4038
 20
-93.2846
 30
0.0
 10
-73.7109
 20
-93.2846
 30
0.0
 10
-73.7109
 20
-93.2846
 30
0.0
 10
-73.7109
 20
-93.2846
 30
0.0
 10
-73.7109
 20
-93.2846
 30
0.0
 10
-73.7109
 20
-103.1099
 30
0.0
 10
-73.7109
 20
-103.1099
 30
0.0
  0
SPLINE
  5
96
330
1F
100
AcDbEntity
  8
layer 1
 62
     7
100
AcDbSpline
210
0.0
220
0.0
230
1.0
 70
    11
 71
     3
 72
    44
 73
    40
 74
     0
 42
0.0000000001
 43
0.0000000001
 12
1.0
 22
0.0
 32
0.0
 13
1.0
 23
0.0
 33
0.0
 40
0.0
 40
0.0
 40
0.0
 40
0.0
 40
0.0909090909090909
 40
0.0909090909090909
 40
0.0909090909090909
 40
0.0909090909090909
 40
0.1818181818181818
 40
0.1818181818181818
 40
0.1818181818181818
 40
0.1818181818181818
 40
0.2727272727272727
 40
0.2727272727272727
 40
0.2727272727272727
 40
0.2727272727272727
 40
0.3636363636363636
 40
0.3636363636363636
 40
0.3636363636363636
 40
0.3636363636363636
 40
0.4545454545454545
 40
0.4545454545454545
 40
0.4545454545454545
 40
0.4545454545454545
 40
0.5454545454545454
 40
0.5454545454545454
 40
0.5454545454545454
 40
0.5454545454545454
 40
0.6363636363636364
 40
0.6363636363636364
 40
0.6363636363636364
 40
0.6363636363636364
 40
0.7272727272727273
 40
0.7272727272727273
 40
0.7272727272727273
 40
0.7272727272727273
 40
0.8181818181818182
 40
0.8181818181818182
 40
0.8181818181818182
 40
0.8181818181818182
 40
1.0
 40
1.0
 40
1.0
 40
1.0
 10
-82.8381
 20
-93.6104
 30
0.0
 10
-82.8381
 20
-93.6104
 30
0.0
 10
-87.1604
 20
-98.1777
 30
0.0
 10
-87.1604
 20
-98.1777
 30
0.0
 10
-87.1604
 20
-98.1777
 30
0.0
 10
-85.6955
 20
-99.0747
 30
0.0
 10
-85.691
 20
-101.8628
 30
0.0
 10
-87.1102
 20
-102.7261
 30
0.0
 10
-87.1102
 20
-102.7261
 30
0.0
 10
-88.4345
 20
-103.5317
 30
0.0
 10
-90.6407
 20
-103.2877
 30
0.0
 10
-90.8977
 20
-101.1421
 30
0.0
 10
-90.8977
 20
-101.1421
 30
0.0
 10
-90.8977
 20
-101.1421
 30
0.0
 10
-90.8977
 20
-94.9617
 30
0.0
 10
-90.8977
 20
-94.9617
 30
0.0
 10
-90.8977
 20
-94.9617
 30
0.0
 10
-90.8977
 20
-94.9617
 30
0.0
 10
-85.7084
 20
-89.5919
 30
0.0
 10
-85.7084
 20
-89.5919
 30
0.0
 10
-85.7084
 20
-89.5919
 30
0.0
 10
-85.7084
 20
-89.5919
 30
0.0
 10
-81.6312
 20
-85.3327
 30
0.0
 10
-81.6312
 20
-85.3327
 30
0.0
 10
-81.6312
 20
-85.3327
 30
0.0
 10
-81.6312
 20
-85.3327
 30
0.0
 10
-75.4508
 20
-85.3327
 30
0.0
 10
-75.4508
 20
-85.3327
 30
0.0
 10
-75.4508
 20
-85.3327
 30
0.0
 10
-73.3052
 20
-85.5898
 30
0.0
 10
-73.0612
 20
-87.796
 30
0.0
 10
-73.8668
 20
-89.1203
 30
0.0
 10
-73.8668
 20
-89.1203
 30
0.0
 10
-74.7301
 20
-90.5394
 30
0.0
 10
-77.5182
 20
-90.535
 30
0.0
 10
-78.4152
 20
-89.0701
 30
0.0
 10
-78.4152
 20
-89.0701
 30
0.0
 10
-78.4152
 20
-89.0701
 30
0.0
 10
-82.8381
 20
-93.6104
 30
0.0
 10
-82.8381
 20
-93.6104
 30
0.0
  0
LWPOLYLINE
  5
97
330
1F
100
AcDbEntity
  8
layer 1
 62
   250
100
AcDbPolyline
 90
        5
 70
     1
 43
0.0
 10
-187.4281
 20
72.1657
 10
-127.8399
 20
72.1657
 10
-127.8399
 20
131.7537
 10
-187.4281
 20
131.7537
 10
-187.4281
 20
72.1657
  0
LWPOLYLINE
  5
98
330
1F
100
AcDbEntity
  8
layer 1
 62
     7
100
AcDbPolyline
 90
        5
 70
     1
 43
0.0
 10
-183.7449
 20
124.2683
 10
-180.0245
 20
124.2683
 10
-180.0245
 20
127.9883
 10
-183.7449
 20
127.9883
 10
-183.7449
 20
124.2683
  0
SPLINE
  5
99
330
1F
100
AcDbEntity
  8
layer 1
 62
     7
100
AcDbSpline
210
0.0
220
0.0
230
1.0
 70
    11
 71
     3
 72
    24
 73
    20
 74
     0
 42
0.0000000001
 43
0.0000000001
 12
1.0
 22
0.0
 32
0.0
 13
1.0
 23
0.0
 33
0.0
 40
0.0
 40
0.0
 40
0.0
 40
0.0
 40
0.1666666666666667
 40
0.1666666666666667
 40
0.1666666666666667
 40
0.1666666666666667
 40
0.3333333333333333
 40
0.3333333333333333
 40
0.3333333333333333
 40
0.3333333333333333
 40
0.5
 40
0.5
 40
0.5
 40
0.5
 40
0.6666666666666666
 40
0.6666666666666666
 40
0.6666666666666666
 40
0.6666666666666666
 40
1.0
 40
1.0
 40
1.0
 40
1.0
 10
-177.2949
 20
127.9883
 30
0.0
 10
-177.2949
 20
127.9883
 30
0.0
 10
-158.9304
 20
127.9883
 30
0.0
 10
-158.9304
 20
127.9883
 30
0.0
 10
-158.9304
 20
127.9883
 30
0.0
 10
-158.9304
 20
127.9883
 30
0.0
 10
-158.9304
 20
118.0323
 30
0.0
 10
-158.9304
 20
118.0323
 30
0.0
 10
-158.9304
 20
118.0323
 30
0.0
 10
-158.9304
 20
118.0323
 30
0.0
 10
-161.7849
 20
124.2682
 30
0.0
 10
-161.7849
 20
124.2682
 30
0.0
 10
-161.7849
 20
124.2682
 30
0.0
 10
-161.7849
 20
124.2682
 30
0.0
 10
-177.2949
 20
124.2682
 30
0.0
 10
-177.2949
 20
124.2682
 30
0.0
 10
-177.2949
 20
124.2682
 30
0.0
 10
-177.2949
 20
124.2682
 30
0.0
 10
-177.2949
 20
127.9883
 30
0.0
 10
-177.2949
 20
127.9883
 30
0.0
  0
SPLINE
  5
9A
330
1F
100
AcDbEntity
  8
layer 1
 62
     7
100
AcDbSpline
210
0.0
220
0.0
230
1.0
 70
    11
 71
     3
 72
    20
 73
    16
 74
     0
 42
0.0000000001
 43
0.0000000001
 12
1.0
 22
0.0
 32
0.0
 13
1.0
 23
0.0
 33
0.0
 40
0.0
 40
0.0
 40
0.0
 40
0.0
 40
0.2
 40
0.2
 40
0.2
 40
0.2
 40
0.4
 40
0.4
 40
0.4
 40
0.4
 40
0.6
 40
0.6
 40
0.6
 40
0.6
 40
1.0
 40
1.0
 40
1.0
 40
1.0
 10
-175.3094
 20
121.535
 30
0.0
 10
-175.3094
 20
121.535
 30
0.0
 10
-163.6488
 20
121.535
 30
0.0
 10
-163.6488
 20
121.535
 30
0.0
 10
-163.6488
 20
121.535
 30
0.0
 10
-163.6488
 20
121.535
 30
0.0
 10
-161.3695
 20
116.6596
 30
0.0
 10
-161.3695
 20
116.6596
 30
0.0
 10
-161.3695
 20
116.6596
 30
0.0
 10
-161.3695
 20
116.6596
 30
0.0
 10
-170.4801
 20
116.6596
 30
0.0
 10
-170.4801
 20
116.6596
 30
0.0
 10
-170.4801
 20
116.6596
 30
0.0
 10
-170.4801
 20
116.6596
 30
0.0
 10
-175.3094
 20
121.535
 30
0.0
 10
-175.3094
 20
121.535
 30
0.0
  0
SPLINE
  5
9B
330
1F
100
AcDbEntity
  8
layer 1
 62
     7
100
AcDbSpline
210
0.0
220
0.0
230
1.0
 70
    11
 71
     3
 72
    20
 73
    16
 74
     0
 42
0.0000000001
 43
0.0000000001
 12
1.0
 22
0.0
 32
0.0
 13
1.0
 23
0.0
 33
0.0
 40
0.0
 40
0.0
 40
0.0
 40
0.0
 40
0.2
 40
0.2
 40
0.2
 40
0.2
 40
0.4
 40
0.4
 40
0.4
 40
0.4
 40
0.6
 40
0.6
 40
0.6
 40
0.6
 40
1.0
 40
1.0
 40
1.0
 40
1.0
 10
-167.6143
 20
113.894
 30
0.0
 10
-167.6143
 20
113.894
 30
0.0
 10
-160.6114
 20
113.9014
 30
0.0
 10
-160.6114
 20
113.9014
 30
0.0
 10
-160.6114
 20
113.9014
 30
0.0
 10
-160.6114
 20
113.9014
 30
0.0
 10
-158.9145
 20
109.9398
 30
0.0
 10
-158.9145
 20
109.9398
 30
0.0
 10
-158.9145
 20
109.9398
 30
0.0
 10
-160.3189
 20
109.7372
 30
0.0
 10
-161.6214
 20
109.0451
 30
0.0
 10
-162.2729
 20
108.5615
 30
0.0
 10
-162.2729
 20
108.5615
 30
0.0
 10
-162.2729
 20
108.5615
 30
0.0
 10
-167.6143
 20
113.894
 30
0.0
 10
-167.6143
 20
113.894
 30
0.0
  0
ELLIPSE
  5
9C
330
1F
100
AcDbEntity
  8
layer 1
 62
     7
100
AcDbEllipse
 10
-157.5477
 20
101.7972
 30
0.0
 11
0.0
 21
5.6911
 31
0.0
210
0.0
220
0.0
230
1.0
 40
0.9999824287044684
 41
0.0
 42
6.283185307179586
  0
SPLINE
  5
9D
330
1F
100
AcDbEntity
  8
layer 1
 62
     7
100
AcDbSpline
210
0.0
220
0.0
230
1.0
 70
    11
 71
     3
 72
    24
 73
    20
 74
     0
 42
0.0000000001
 43
0.0000000001
 12
1.0
 22
0.0
 32
0.0
 13
1.0
 23
0.0
 33
0.0
 40
0.0
 40
0.0
 40
0.0
 40
0.0
 40
0.1666666666666667
 40
0.1666666666666667
 40
0.1666666666666667
 40
0.1666666666666667
 40
0.3333333333333333
 40
0.3333333333333333
 40
0.3333333333333333
 40
0.3333333333333333
 40
0.5
 40
0.5
 40
0.5
 40
0.5
 40
0.6666666666666666
 40
0.6666666666666666
 40
0.6666666666666666
 40
0.6666666666666666
 40
1.0
 40
1.0
 40
1.0
 40
1.0
 10
-183.75
 20
121.5444
 30
0.0
 10
-183.75
 20
121.5444
 30
0.0
 10
-183.75
 20
103.18
 30
0.0
 10
-183.75
 20
103.18
 30
0.0
 10
-183.75
 20
103.18
 30
0.0
 10
-183.75
 20
103.18
 30
0.0
 10
-173.794
 20
103.18
 30
0.0
 10
-173.794
 20
103.18
 30
0.0
 10
-173.794
 20
103.18
 30
0.0
 10
-173.794
 20
103.18
 30
0.0
 10
-180.0299
 20
106.0344
 30
0.0
 10
-180.0299
 20
106.0344
 30
0.0
 10
-180.0299
 20
106.0344
 30
0.0
 10
-180.0299
 20
106.0344
 30
0.0
 10
-180.0299
 20
121.5444
 30
0.0
 10
-180.0299
 20
121.5444
 30
0.0
 10
-180.0299
 20
121.5444
 30
0.0
 10
-180.0299
 20
121.5444
 30
0.0
 10
-183.75
 20
121.5444
 30
0.0
 10
-183.75
 20
121.5444
 30
0.0
  0
SPLINE
  5
9E
330
1F
100
AcDbEntity
  8
layer 1
 62
     7
100
AcDbSpline
210
0.0
220
0.0
230
1.0
 70
    11
 71
     3
 72
    20
 73
    16
 74
     0
 42
0.0000000001
 43
0.0000000001
 12
1.0
 22
0.0
 32
0.0
 13
1.0
 23
0.0
 33
0.0
 40
0.0
 40
0.0
 40
0.0
 40
0.0
 40
0.2
 40
0.2
 40
0.2
 40
0.2
 40
0.4
 40
0.4
 40
0.4
 40
0.4
 40
0.6
 40
0.6
 40
0.6
 40
0.6
 40
1.0
 40
1.0
 40
1.0
 40
1.0
 10
-177.2967
 20
119.5589
 30
0.0
 10
-177.2967
 20
119.5589
 30
0.0
 10
-177.2967
 20
107.8984
 30
0.0
 10
-177.2967
 20
107.8984
 30
0.0
 10
-177.2967
 20
107.8984
 30
0.0
 10
-177.2967
 20
107.8984
 30
0.0
 10
-172.4213
 20
105.619
 30
0.0
 10
-172.4213
 20
105.619
 30
0.0
 10
-172.4213
 20
105.619
 30
0.0
 10
-172.4213
 20
105.619
 30
0.0
 10
-172.4213
 20
114.7296
 30
0.0
 10
-172.4213
 20
114.7296
 30
0.0
 10
-172.4213
 20
114.7296
 30
0.0
 10
-172.4213
 20
114.7296
 30
0.0
 10
-177.2967
 20
119.5589
 30
0.0
 10
-177.2967
 20
119.5589
 30
0.0
  0
SPLINE
  5
9F
330
1F
100
AcDbEntity
  8
layer 1
 62
     7
100
AcDbSpline
210
0.0
220
0.0
230
1.0
 70
    11
 71
     3
 72
    20
 73
    16
 74
     0
 42
0.0000000001
 43
0.0000000001
 12
1.0
 22
0.0
 32
0.0
 13
1.0
 23
0.0
 33
0.0
 40
0.0
 40
0.0
 40
0.0
 40
0.0
 40
0.2
 40
0.2
 40
0.2
 40
0.2
 40
0.4
 40
0.4
 40
0.4
 40
0.4
 40
0.6
 40
0.6
 40
0.6
 40
0.6
 40
1.0
 40
1.0
 40
1.0
 40
1.0
 10
-169.6558
 20
111.8638
 30
0.0
 10
-169.6558
 20
111.8638
 30
0.0
 10
-169.6631
 20
104.8609
 30
0.0
 10
-169.6631
 20
104.8609
 30
0.0
 10
-169.6631
 20
104.8609
 30
0.0
 10
-169.6631
 20
104.8609
 30
0.0
 10
-165.7015
 20
103.164
 30
0.0
 10
-165.7015
 20
103.164
 30
0.0
 10
-165.7015
 20
103.164
 30
0.0
 10
-165.499
 20
104.5684
 30
0.0
 10
-164.8069
 20
105.871
 30
0.0
 10
-164.3232
 20
106.5224
 30
0.0
 10
-164.3232
 20
106.5224
 30
0.0
 10
-164.3232
 20
106.5224
 30
0.0
 10
-169.6558
 20
111.8638
 30
0.0
 10
-169.6558
 20
111.8638
 30
0.0
  0
LWPOLYLINE
  5
A0
330
1F
100
AcDbEntity
  8
layer 1
 62
     7
100
AcDbPolyline
 90
        5
 70
     1
 43
0.0
 10
-135.0396
 20
124.2683
 10
-131.3192
 20
124.2683
 10
-131.3192
 20
127.9883
 10
-135.0396
 20
127.9883
 10
-135.0396
 20
124.2683
  0
SPLINE
  5
A1
330
1F
100
AcDbEntity
  8
layer 1
 62
     7
100
AcDbSpline
210
0.0
220
0.0
230
1.0
 70
    11
 71
     3
 72
    24
 73
    20
 74
     0
 42
0.0000000001
 43
0.0000000001
 12
1.0
 22
0.0
 32
0.0
 13
1.0
 23
0.0
 33
0.0
 40
0.0
 40
0.0
 40
0.0
 40
0.0
 40
0.1666666666666667
 40
0.1666666666666667
 40
0.1666666666666667
 40
0.1666666666666667
 40
0.3333333333333333
 40
0.3333333333333333
 40
0.3333333333333333
 40
0.3333333333333333
 40
0.5
 40
0.5
 40
0.5
 40
0.5
 40
0.6666666666666666
 40
0.6666666666666666
 40
0.6666666666666666
 40
0.6666666666666666
 40
1.0
 40
1.0
 40
1.0
 40
1.0
 10
-137.7692
 20
127.9883
 30
0.0
 10
-137.7692
 20
127.9883
 30
0.0
 10
-156.1337
 20
127.9883
 30
0.0
 10
-156.1337
 20
127.9883
 30
0.0
 10
-156.1337
 20
127.9883
 30
0.0
 10
-156.1337
 20
127.9883
 30
0.0
 10
-156.1337
 20
118.0323
 30
0.0
 10
-156.1337
 20
118.0323
 30
0.0
 10
-156.1337
 20
118.0323
 30
0.0
 10
-156.1337
 20
118.0323
 30
0.0
 10
-153.2792
 20
124.2682
 30
0.0
 10
-153.2792
 20
124.2682
 30
0.0
 10
-153.2792
 20
124.2682
 30
0.0
 10
-153.2792
 20
124.2682
 30
0.0
 10
-137.7692
 20
124.2682
 30
0.0
 10
-137.7692
 20
124.2682
 30
0.0
 10
-137.7692
 20
124.2682
 30
0.0
 10
-137.7692
 20
124.2682
 30
0.0
 10
-137.7692
 20
127.9883
 30
0.0
 10
-137.7692
 20
127.9883
 30
0.0
  0
SPLINE
  5
A2
330
1F
100
AcDbEntity
  8
layer 1
 62
     7
100
AcDbSpline
210
0.0
220
0.0
230
1.0
 70
    11
 71
     3
 72
    20
 73
    16
 74
     0
 42
0.0000000001
 43
0.0000000001
 12
1.0
 22
0.0
 32
0.0
 13
1.0
 23
0.0
 33
0.0
 40
0.0
 40
0.0
 40
0.0
 40
0.0
 40
0.2
 40
0.2
 40
0.2
 40
0.2
 40
0.4
 40
0.4
 40
0.4
 40
0.4
 40
0.6
 40
0.6
 40
0.6
 40
0.6
 40
1.0
 40
1.0
 40
1.0
 40
1.0
 10
-139.7547
 20
121.535
 30
0.0
 10
-139.7547
 20
121.535
 30
0.0
 10
-151.4152
 20
121.535
 30
0.0
 10
-151.4152
 20
121.535
 30
0.0
 10
-151.4152
 20
121.535
 30
0.0
 10
-151.4152
 20
121.535
 30
0.0
 10
-153.6946
 20
116.6596
 30
0.0
 10
-153.6946
 20
116.6596
 30
0.0
 10
-153.6946
 20
116.6596
 30
0.0
 10
-153.6946
 20
116.6596
 30
0.0
 10
-144.584
 20
116.6596
 30
0.0
 10
-144.584
 20
116.6596
 30
0.0
 10
-144.584
 20
116.6596
 30
0.0
 10
-144.584
 20
116.6596
 30
0.0
 10
-139.7547
 20
121.535
 30
0.0
 10
-139.7547
 20
121.535
 30
0.0
  0
SPLINE
  5
A3
330
1F
100
AcDbEntity
  8
layer 1
 62
     7
100
AcDbSpline
210
0.0
220
0.0
230
1.0
 70
    11
 71
     3
 72
    20
 73
    16
 74
     0
 42
0.0000000001
 43
0.0000000001
 12
1.0
 22
0.0
 32
0.0
 13
1.0
 23
0.0
 33
0.0
 40
0.0
 40
0.0
 40
0.0
 40
0.0
 40
0.2
 40
0.2
 40
0.2
 40
0.2
 40
0.4
 40
0.4
 40
0.4
 40
0.4
 40
0.6
 40
0.6
 40
0.6
 40
0.6
 40
1.0
 40
1.0
 40
1.0
 40
1.0
 10
-147.4498
 20
113.894
 30
0.0
 10
-147.4498
 20
113.894
 30
0.0
 10
-154.4527
 20
113.9014
 30
0.0
 10
-154.4527
 20
113.9014
 30
0.0
 10
-154.4527
 20
113.9014
 30
0.0
 10
-154.4527
 20
113.9014
 30
0.0
 10
-156.1496
 20
109.9398
 30
0.0
 10
-156.1496
 20
109.9398
 30
0.0
 10
-156.1496
 20
109.9398
 30
0.0
 10
-154.7452
 20
109.7372
 30
0.0
 10
-153.4427
 20
109.0451
 30
0.0
 10
-152.7912
 20
108.5615
 30
0.0
 10
-152.7912
 20
108.5615
 30
0.0
 10
-152.7912
 20
108.5615
 30
0.0
 10
-147.4498
 20
113.894
 30
0.0
 10
-147.4498
 20
113.894
 30
0.0
  0
SPLINE
  5
A4
330
1F
100
AcDbEntity
  8
layer 1
 62
     7
100
AcDbSpline
210
0.0
220
0.0
230
1.0
 70
    11
 71
     3
 72
    24
 73
    20
 74
     0
 42
0.0000000001
 43
0.0000000001
 12
1.0
 22
0.0
 32
0.0
 13
1.0
 23
0.0
 33
0.0
 40
0.0
 40
0.0
 40
0.0
 40
0.0
 40
0.1666666666666667
 40
0.1666666666666667
 40
0.1666666666666667
 40
0.1666666666666667
 40
0.3333333333333333
 40
0.3333333333333333
 40
0.3333333333333333
 40
0.3333333333333333
 40
0.5
 40
0.5
 40
0.5
 40
0.5
 40
0.6666666666666666
 40
0.6666666666666666
 40
0.6666666666666666
 40
0.6666666666666666
 40
1.0
 40
1.0
 40
1.0
 40
1.0
 10
-131.3141
 20
121.5444
 30
0.0
 10
-131.3141
 20
121.5444
 30
0.0
 10
-131.3141
 20
103.18
 30
0.0
 10
-131.3141
 20
103.18
 30
0.0
 10
-131.3141
 20
103.18
 30
0.0
 10
-131.3141
 20
103.18
 30
0.0
 10
-141.2701
 20
103.18
 30
0.0
 10
-141.2701
 20
103.18
 30
0.0
 10
-141.2701
 20
103.18
 30
0.0
 10
-141.2701
 20
103.18
 30
0.0
 10
-135.0342
 20
106.0344
 30
0.0
 10
-135.0342
 20
106.0344
 30
0.0
 10
-135.0342
 20
106.0344
 30
0.0
 10
-135.0342
 20
106.0344
 30
0.0
 10
-135.0342
 20
121.5444
 30
0.0
 10
-135.0342
 20
121.5444
 30
0.0
 10
-135.0342
 20
121.5444
 30
0.0
 10
-135.0342
 20
121.5444
 30
0.0
 10
-131.3141
 20
121.5444
 30
0.0
 10
-131.3141
 20
121.5444
 30
0.0
  0
SPLINE
  5
A5
330
1F
100
AcDbEntity
  8
layer 1
 62
     7
100
AcDbSpline
210
0.0
220
0.0
230
1.0
 70
    11
 71
     3
 72
    20
 73
    16
 74
     0
 42
0.0000000001
 43
0.0000000001
 12
1.0
 22
0.0
 32
0.0
 13
1.0
 23
0.0
 33
0.0
 40
0.0
 40
0.0
 40
0.0
 40
0.0
 40
0.2
 40
0.2
 40
0.2
 40
0.2
 40
0.4
 40
0.4
 40
0.4
 40
0.4
 40
0.6
 40
0.6
 40
0.6
 40
0.6
 40
1.0
 40
1.0
 40
1.0
 40
1.0
 10
-137.7673
 20
119.5589
 30
0.0
 10
-137.7673
 20
119.5589
 30
0.0
 10
-137.7673
 20
107.8984
 30
0.0
 10
-137.7673
 20
107.8984
 30
0.0
 10
-137.7673
 20
107.8984
 30
0.0
 10
-137.7673
 20
107.8984
 30
0.0
 10
-142.6428
 20
105.619
 30
0.0
 10
-142.6428
 20
105.619
 30
0.0
 10
-142.6428
 20
105.619
 30
0.0
 10
-142.6428
 20
105.619
 30
0.0
 10
-142.6428
 20
114.7296
 30
0.0
 10
-142.6428
 20
114.7296
 30
0.0
 10
-142.6428
 20
114.7296
 30
0.0
 10
-142.6428
 20
114.7296
 30
0.0
 10
-137.7673
 20
119.5589
 30
0.0
 10
-137.7673
 20
119.5589
 30
0.0
  0
SPLINE
  5
A6
330
1F
100
AcDbEntity
  8
layer 1
 62
     7
100
AcDbSpline
210
0.0
220
0.0
230
1.0
 70
    11
 71
     3
 72
    20
 73
    16
 74
     0
 42
0.0000000001
 43
0.0000000001
 12
1.0
 22
0.0
 32
0.0
 13
1.0
 23
0.0
 33
0.0
 40
0.0
 40
0.0
 40
0.0
 40
0.0
 40
0.2
 40
0.2
 40
0.2
 40
0.2
 40
0.4
 40
0.4
 40
0.4
 40
0.4
 40
0.6
 40
0.6
 40
0.6
 40
0.6
 40
1.0
 40
1.0
 40
1.0
 40
1.0
 10
-145.4083
 20
111.8638
 30
0.0
 10
-145.4083
 20
111.8638
 30
0.0
 10
-145.401
 20
104.8609
 30
0.0
 10
-145.401
 20
104.8609
 30
0.0
 10
-145.401
 20
104.8609
 30
0.0
 10
-145.401
 20
104.8609
 30
0.0
 10
-149.3626
 20
103.164
 30
0.0
 10
-149.3626
 20
103.164
 30
0.0
 10
-149.3626
 20
103.164
 30
0.0
 10
-149.5651
 20
104.5684
 30
0.0
 10
-150.2572
 20
105.871
 30
0.0
 10
-150.7409
 20
106.5224
 30
0.0
 10
-150.7409
 20
106.5224
 30
0.0
 10
-150.7409
 20
106.5224
 30
0.0
 10
-145.4083
 20
111.8638
 30
0.0
 10
-145.4083
 20
111.8638
 30
0.0
  0
LWPOLYLINE
  5
A7
330
1F
100
AcDbEntity
  8
layer 1
 62
     7
100
AcDbPolyline
 90
        5
 70
     1
 43
0.0
 10
-183.7449
 20
75.6271
 10
-180.0245
 20
75.6271
 10
-180.0245
 20
79.3471
 10
-183.7449
 20
79.3471
 10
-183.7449
 20
75.6271
  0
SPLINE
  5
A8
330
1F
100
AcDbEntity
  8
layer 1
 62
     7
100
AcDbSpline
210
0.0
220
0.0
230
1.0
 70
    11
 71
     3
 72
    24
 73
    20
 74
     0
 42
0.0000000001
 43
0.0000000001
 12
1.0
 22
0.0
 32
0.0
 13
1.0
 23
0.0
 33
0.0
 40
0.0
 40
0.0
 40
0.0
 40
0.0
 40
0.1666666666666667
 40
0.1666666666666667
 40
0.1666666666666667
 40
0.1666666666666667
 40
0.3333333333333333
 40
0.3333333333333333
 40
0.3333333333333333
 40
0.3333333333333333
 40
0.5
 40
0.5
 40
0.5
 40
0.5
 40
0.6666666666666666
 40
0.6666666666666666
 40
0.6666666666666666
 40
0.6666666666666666
 40
1.0
 40
1.0
 40
1.0
 40
1.0
 10
-177.2949
 20
75.6271
 30
0.0
 10
-177.2949
 20
75.6271
 30
0.0
 10
-158.9304
 20
75.6271
 30
0.0
 10
-158.9304
 20
75.6271
 30
0.0
 10
-158.9304
 20
75.6271
 30
0.0
 10
-158.9304
 20
75.6271
 30
0.0
 10
-158.9304
 20
85.5831
 30
0.0
 10
-158.9304
 20
85.5831
 30
0.0
 10
-158.9304
 20
85.5831
 30
0.0
 10
-158.9304
 20
85.5831
 30
0.0
 10
-161.7849
 20
79.3472
 30
0.0
 10
-161.7849
 20
79.3472
 30
0.0
 10
-161.7849
 20
79.3472
 30
0.0
 10
-161.7849
 20
79.3472
 30
0.0
 10
-177.2949
 20
79.3472
 30
0.0
 10
-177.2949
 20
79.3472
 30
0.0
 10
-177.2949
 20
79.3472
 30
0.0
 10
-177.2949
 20
79.3472
 30
0.0
 10
-177.2949
 20
75.6271
 30
0.0
 10
-177.2949
 20
75.6271
 30
0.0
  0
SPLINE
  5
A9
330
1F
100
AcDbEntity
  8
layer 1
 62
     7
100
AcDbSpline
210
0.0
220
0.0
230
1.0
 70
    11
 71
     3
 72
    20
 73
    16
 74
     0
 42
0.0000000001
 43
0.0000000001
 12
1.0
 22
0.0
 32
0.0
 13
1.0
 23
0.0
 33
0.0
 40
0.0
 40
0.0
 40
0.0
 40
0.0
 40
0.2
 40
0.2
 40
0.2
 40
0.2
 40
0.4
 40
0.4
 40
0.4
 40
0.4
 40
0.6
 40
0.6
 40
0.6
 40
0.6
 40
1.0
 40
1.0
 40
1.0
 40
1.0
 10
-175.3094
 20
82.0804
 30
0.0
 10
-175.3094
 20
82.0804
 30
0.0
 10
-163.6488
 20
82.0804
 30
0.0
 10
-163.6488
 20
82.0804
 30
0.0
 10
-163.6488
 20
82.0804
 30
0.0
 10
-163.6488
 20
82.0804
 30
0.0
 10
-161.3695
 20
86.9558
 30
0.0
 10
-161.3695
 20
86.9558
 30
0.0
 10
-161.3695
 20
86.9558
 30
0.0
 10
-161.3695
 20
86.9558
 30
0.0
 10
-170.4801
 20
86.9558
 30
0.0
 10
-170.4801
 20
86.9558
 30
0.0
 10
-170.4801
 20
86.9558
 30
0.0
 10
-170.4801
 20
86.9558
 30
0.0
 10
-175.3094
 20
82.0804
 30
0.0
 10
-175.3094
 20
82.0804
 30
0.0
  0
SPLINE
  5
AA
330
1F
100
AcDbEntity
  8
layer 1
 62
     7
100
AcDbSpline
210
0.0
220
0.0
230
1.0
 70
    11
 71
     3
 72
    20
 73
    16
 74
     0
 42
0.0000000001
 43
0.0000000001
 12
1.0
 22
0.0
 32
0.0
 13
1.0
 23
0.0
 33
0.0
 40
0.0
 40
0.0
 40
0.0
 40
0.0
 40
0.2
 40
0.2
 40
0.2
 40
0.2
 40
0.4
 40
0.4
 40
0.4
 40
0.4
 40
0.6
 40
0.6
 40
0.6
 40
0.6
 40
1.0
 40
1.0
 40
1.0
 40
1.0
 10
-167.6143
 20
89.7213
 30
0.0
 10
-167.6143
 20
89.7213
 30
0.0
 10
-160.6114
 20
89.714
 30
0.0
 10
-160.6114
 20
89.714
 30
0.0
 10
-160.6114
 20
89.714
 30
0.0
 10
-160.6114
 20
89.714
 30
0.0
 10
-158.9145
 20
93.6756
 30
0.0
 10
-158.9145
 20
93.6756
 30
0.0
 10
-158.9145
 20
93.6756
 30
0.0
 10
-160.3189
 20
93.8782
 30
0.0
 10
-161.6214
 20
94.5703
 30
0.0
 10
-162.2729
 20
95.0539
 30
0.0
 10
-162.2729
 20
95.0539
 30
0.0
 10
-162.2729
 20
95.0539
 30
0.0
 10
-167.6143
 20
89.7213
 30
0.0
 10
-167.6143
 20
89.7213
 30
0.0
  0
SPLINE
  5
AB
330
1F
100
AcDbEntity
  8
layer 1
 62
     7
100
AcDbSpline
210
0.0
220
0.0
230
1.0
 70
    11
 71
     3
 72
    24
 73
    20
 74
     0
 42
0.0000000001
 43
0.0000000001
 12
1.0
 22
0.0
 32
0.0
 13
1.0
 23
0.0
 33
0.0
 40
0.0
 40
0.0
 40
0.0
 40
0.0
 40
0.1666666666666667
 40
0.1666666666666667
 40
0.1666666666666667
 40
0.1666666666666667
 40
0.3333333333333333
 40
0.3333333333333333
 40
0.3333333333333333
 40
0.3333333333333333
 40
0.5
 40
0.5
 40
0.5
 40
0.5
 40
0.6666666666666666
 40
0.6666666666666666
 40
0.6666666666666666
 40
0.6666666666666666
 40
1.0
 40
1.0
 40
1.0
 40
1.0
 10
-183.75
 20
82.071
 30
0.0
 10
-183.75
 20
82.071
 30
0.0
 10
-183.75
 20
100.4354
 30
0.0
 10
-183.75
 20
100.4354
 30
0.0
 10
-183.75
 20
100.4354
 30
0.0
 10
-183.75
 20
100.4354
 30
0.0
 10
-173.794
 20
100.4354
 30
0.0
 10
-173.794
 20
100.4354
 30
0.0
 10
-173.794
 20
100.4354
 30
0.0
 10
-173.794
 20
100.4354
 30
0.0
 10
-180.0299
 20
97.581
 30
0.0
 10
-180.0299
 20
97.581
 30
0.0
 10
-180.0299
 20
97.581
 30
0.0
 10
-180.0299
 20
97.581
 30
0.0
 10
-180.0299
 20
82.071
 30
0.0
 10
-180.0299
 20
82.071
 30
0.0
 10
-180.0299
 20
82.071
 30
0.0
 10
-180.0299
 20
82.071
 30
0.0
 10
-183.75
 20
82.071
 30
0.0
 10
-183.75
 20
82.071
 30
0.0
  0
SPLINE
  5
AC
330
1F
100
AcDbEntity
  8
layer 1
 62
     7
100
AcDbSpline
210
0.0
220
0.0
230
1.0
 70
    11
 71
     3
 72
    20
 73
    16
 74
     0
 42
0.0000000001
 43
0.0000000001
 12
1.0
 22
0.0
 32
0.0
 13
1.0
 23
0.0
 33
0.0
 40
0.0
 40
0.0
 40
0.0
 40
0.0
 40
0.2
 40
0.2
 40
0.2
 40
0.2
 40
0.4
 40
0.4
 40
0.4
 40
0.4
 40
0.6
 40
0.6
 40
0.6
 40
0.6
 40
1.0
 40
1.0
 40
1.0
 40
1.0
 10
-177.2967
 20
84.0565
 30
0.0
 10
-177.2967
 20
84.0565
 30
0.0
 10
-177.2967
 20
95.717
 30
0.0
 10
-177.2967
 20
95.717
 30
0.0
 10
-177.2967
 20
95.717
 30
0.0
 10
-177.2967
 20
95.717
 30
0.0
 10
-172.4213
 20
97.9964
 30
0.0
 10
-172.4213
 20
97.9964
 30
0.0
 10
-172.4213
 20
97.9964
 30
0.0
 10
-172.4213
 20
97.9964
 30
0.0
 10
-172.4213
 20
88.8858
 30
0.0
 10
-172.4213
 20
88.8858
 30
0.0
 10
-172.4213
 20
88.8858
 30
0.0
 10
-172.4213
 20
88.8858
 30
0.0
 10
-177.2967
 20
84.0565
 30
0.0
 10
-177.2967
 20
84.0565
 30
0.0
  0
SPLINE
  5
AD
330
1F
100
AcDbEntity
  8
layer 1
 62
     7
100
AcDbSpline
210
0.0
220
0.0
230
1.0
 70
    11
 71
     3
 72
    20
 73
    16
 74
     0
 42
0.0000000001
 43
0.0000000001
 12
1.0
 22
0.0
 32
0.0
 13
1.0
 23
0.0
 33
0.0
 40
0.0
 40
0.0
 40
0.0
 40
0.0
 40
0.2
 40
0.2
 40
0.2
 40
0.2
 40
0.4
 40
0.4
 40
0.4
 40
0.4
 40
0.6
 40
0.6
 40
0.6
 40
0.6
 40
1.0
 40
1.0
 40
1.0
 40
1.0
 10
-169.6558
 20
91.7516
 30
0.0
 10
-169.6558
 20
91.7516
 30
0.0
 10
-169.6631
 20
98.7545
 30
0.0
 10
-169.6631
 20
98.7545
 30
0.0
 10
-169.6631
 20
98.7545
 30
0.0
 10
-169.6631
 20
98.7545
 30
0.0
 10
-165.7015
 20
100.4514
 30
0.0
 10
-165.7015
 20
100.4514
 30
0.0
 10
-165.7015
 20
100.4514
 30
0.0
 10
-165.499
 20
99.047
 30
0.0
 10
-164.8069
 20
97.7444
 30
0.0
 10
-164.3232
 20
97.093
 30
0.0
 10
-164.3232
 20
97.093
 30
0.0
 10
-164.3232
 20
97.093
 30
0.0
 10
-169.6558
 20
91.7516
 30
0.0
 10
-169.6558
 20
91.7516
 30
0.0
  0
SPLINE
  5
AE
330
1F
100
AcDbEntity
  8
layer 1
 62
     7
100
AcDbSpline
210
0.0
220
0.0
230
1.0
 70
    11
 71
     3
 72
    20
 73
    16
 74
     0
 42
0.0000000001
 43
0.0000000001
 12
1.0
 22
0.0
 32
0.0
 13
1.0
 23
0.0
 33
0.0
 40
0.0
 40
0.0
 40
0.0
 40
0.0
 40
0.2
 40
0.2
 40
0.2
 40
0.2
 40
0.4
 40
0.4
 40
0.4
 40
0.4
 40
0.6
 40
0.6
 40
0.6
 40
0.6
 40
1.0
 40
1.0
 40
1.0
 40
1.0
 10
-131.3192
 20
75.6271
 30
0.0
 10
-131.3192
 20
75.6271
 30
0.0
 10
-135.0396
 20
75.6271
 30
0.0
 10
-135.0396
 20
75.6271
 30
0.0
 10
-135.0396
 20
75.6271
 30
0.0
 10
-135.0396
 20
75.6271
 30
0.0
 10
-135.0396
 20
79.3472
 30
0.0
 10
-135.0396
 20
79.3472
 30
0.0
 10
-135.0396
 20
79.3472
 30
0.0
 10
-135.0396
 20
79.3472
 30
0.0
 10
-131.3192
 20
79.3472
 30
0.0
 10
-131.3192
 20
79.3472
 30
0.0
 10
-131.3192
 20
79.3472
 30
0.0
 10
-131.3192
 20
79.3472
 30
0.0
 10
-131.3192
 20
75.6271
 30
0.0
 10
-131.3192
 20
75.6271
 30
0.0
  0
SPLINE
  5
AF
330
1F
100
AcDbEntity
  8
layer 1
 62
     7
100
AcDbSpline
210
0.0
220
0.0
230
1.0
 70
    11
 71
     3
 72
    24
 73
    20
 74
     0
 42
0.0000000001
 43
0.0000000001
 12
1.0
 22
0.0
 32
0.0
 13
1.0
 23
0.0
 33
0.0
 40
0.0
 40
0.0
 40
0.0
 40
0.0
 40
0.1666666666666667
 40
0.1666666666666667
 40
0.1666666666666667
 40
0.1666666666666667
 40
0.3333333333333333
 40
0.3333333333333333
 40
0.3333333333333333
 40
0.3333333333333333
 40
0.5
 40
0.5
 40
0.5
 40
0.5
 40
0.6666666666666666
 40
0.6666666666666666
 40
0.6666666666666666
 40
0.6666666666666666
 40
1.0
 40
1.0
 40
1.0
 40
1.0
 10
-137.7692
 20
75.6271
 30
0.0
 10
-137.7692
 20
75.6271
 30
0.0
 10
-156.1337
 20
75.6271
 30
0.0
 10
-156.1337
 20
75.6271
 30
0.0
 10
-156.1337
 20
75.6271
 30
0.0
 10
-156.1337
 20
75.6271
 30
0.0
 10
-156.1337
 20
85.5831
 30
0.0
 10
-156.1337
 20
85.5831
 30
0.0
 10
-156.1337
 20
85.5831
 30
0.0
 10
-156.1337
 20
85.5831
 30
0.0
 10
-153.2792
 20
79.3472
 30
0.0
 10
-153.2792
 20
79.3472
 30
0.0
 10
-153.2792
 20
79.3472
 30
0.0
 10
-153.2792
 20
79.3472
 30
0.0
 10
-137.7692
 20
79.3472
 30
0.0
 10
-137.7692
 20
79.3472
 30
0.0
 10
-137.7692
 20
79.3472
 30
0.0
 10
-137.7692
 20
79.3472
 30
0.0
 10
-137.7692
 20
75.6271
 30
0.0
 10
-137.7692
 20
75.6271
 30
0.0
  0
SPLINE
  5
B0
330
1F
100
AcDbEntity
  8
layer 1
 62
     7
100
AcDbSpline
210
0.0
220
0.0
230
1.0
 70
    11
 71
     3
 72
    20
 73
    16
 74
     0
 42
0.0000000001
 43
0.0000000001
 12
1.0
 22
0.0
 32
0.0
 13
1.0
 23
0.0
 33
0.0
 40
0.0
 40
0.0
 40
0.0
 40
0.0
 40
0.2
 40
0.2
 40
0.2
 40
0.2
 40
0.4
 40
0.4
 40
0.4
 40
0.4
 40
0.6
 40
0.6
 40
0.6
 40
0.6
 40
1.0
 40
1.0
 40
1.0
 40
1.0
 10
-139.7547
 20
82.0804
 30
0.0
 10
-139.7547
 20
82.0804
 30
0.0
 10
-151.4152
 20
82.0804
 30
0.0
 10
-151.4152
 20
82.0804
 30
0.0
 10
-151.4152
 20
82.0804
 30
0.0
 10
-151.4152
 20
82.0804
 30
0.0
 10
-153.6946
 20
86.9558
 30
0.0
 10
-153.6946
 20
86.9558
 30
0.0
 10
-153.6946
 20
86.9558
 30
0.0
 10
-153.6946
 20
86.9558
 30
0.0
 10
-144.584
 20
86.9558
 30
0.0
 10
-144.584
 20
86.9558
 30
0.0
 10
-144.584
 20
86.9558
 30
0.0
 10
-144.584
 20
86.9558
 30
0.0
 10
-139.7547
 20
82.0804
 30
0.0
 10
-139.7547
 20
82.0804
 30
0.0
  0
SPLINE
  5
B1
330
1F
100
AcDbEntity
  8
layer 1
 62
     7
100
AcDbSpline
210
0.0
220
0.0
230
1.0
 70
    11
 71
     3
 72
    20
 73
    16
 74
     0
 42
0.0000000001
 43
0.0000000001
 12
1.0
 22
0.0
 32
0.0
 13
1.0
 23
0.0
 33
0.0
 40
0.0
 40
0.0
 40
0.0
 40
0.0
 40
0.2
 40
0.2
 40
0.2
 40
0.2
 40
0.4
 40
0.4
 40
0.4
 40
0.4
 40
0.6
 40
0.6
 40
0.6
 40
0.6
 40
1.0
 40
1.0
 40
1.0
 40
1.0
 10
-147.4498
 20
89.7213
 30
0.0
 10
-147.4498
 20
89.7213
 30
0.0
 10
-154.4527
 20
89.714
 30
0.0
 10
-154.4527
 20
89.714
 30
0.0
 10
-154.4527
 20
89.714
 30
0.0
 10
-154.4527
 20
89.714
 30
0.0
 10
-156.1496
 20
93.6756
 30
0.0
 10
-156.1496
 20
93.6756
 30
0.0
 10
-156.1496
 20
93.6756
 30
0.0
 10
-154.7452
 20
93.8782
 30
0.0
 10
-153.4427
 20
94.5703
 30
0.0
 10
-152.7912
 20
95.0539
 30
0.0
 10
-152.7912
 20
95.0539
 30
0.0
 10
-152.7912
 20
95.0539
 30
0.0
 10
-147.4498
 20
89.7213
 30
0.0
 10
-147.4498
 20
89.7213
 30
0.0
  0
SPLINE
  5
B2
330
1F
100
AcDbEntity
  8
layer 1
 62
     7
100
AcDbSpline
210
0.0
220
0.0
230
1.0
 70
    11
 71
     3
 72
    24
 73
    20
 74
     0
 42
0.0000000001
 43
0.0000000001
 12
1.0
 22
0.0
 32
0.0
 13
1.0
 23
0.0
 33
0.0
 40
0.0
 40
0.0
 40
0.0
 40
0.0
 40
0.1666666666666667
 40
0.1666666666666667
 40
0.1666666666666667
 40
0.1666666666666667
 40
0.3333333333333333
 40
0.3333333333333333
 40
0.3333333333333333
 40
0.3333333333333333
 40
0.5
 40
0.5
 40
0.5
 40
0.5
 40
0.6666666666666666
 40
0.6666666666666666
 40
0.6666666666666666
 40
0.6666666666666666
 40
1.0
 40
1.0
 40
1.0
 40
1.0
 10
-131.3141
 20
82.071
 30
0.0
 10
-131.3141
 20
82.071
 30
0.0
 10
-131.3141
 20
100.4354
 30
0.0
 10
-131.3141
 20
100.4354
 30
0.0
 10
-131.3141
 20
100.4354
 30
0.0
 10
-131.3141
 20
100.4354
 30
0.0
 10
-141.2701
 20
100.4354
 30
0.0
 10
-141.2701
 20
100.4354
 30
0.0
 10
-141.2701
 20
100.4354
 30
0.0
 10
-141.2701
 20
100.4354
 30
0.0
 10
-135.0342
 20
97.581
 30
0.0
 10
-135.0342
 20
97.581
 30
0.0
 10
-135.0342
 20
97.581
 30
0.0
 10
-135.0342
 20
97.581
 30
0.0
 10
-135.0342
 20
82.071
 30
0.0
 10
-135.0342
 20
82.071
 30
0.0
 10
-135.0342
 20
82.071
 30
0.0
 10
-135.0342
 20
82.071
 30
0.0
 10
-131.3141
 20
82.071
 30
0.0
 10
-131.3141
 20
82.071
 30
0.0
  0
SPLINE
  5
B3
330
1F
100
AcDbEntity
  8
layer 1
 62
     7
100
AcDbSpline
210
0.0
220
0.0
230
1.0
 70
    11
 71
     3
 72
    20
 73
    16
 74
     0
 42
0.0000000001
 43
0.0000000001
 12
1.0
 22
0.0
 32
0.0
 13
1.0
 23
0.0
 33
0.0
 40
0.0
 40
0.0
 40
0.0
 40
0.0
 40
0.2
 40
0.2
 40
0.2
 40
0.2
 40
0.4
 40
0.4
 40
0.4
 40
0.4
 40
0.6
 40
0.6
 40
0.6
 40
0.6
 40
1.0
 40
1.0
 40
1.0
 40
1.0
 10
-137.7673
 20
84.0565
 30
0.0
 10
-137.7673
 20
84.0565
 30
0.0
 10
-137.7673
 20
95.717
 30
0.0
 10
-137.7673
 20
95.717
 30
0.0
 10
-137.7673
 20
95.717
 30
0.0
 10
-137.7673
 20
95.717
 30
0.0
 10
-142.6428
 20
97.9964
 30
0.0
 10
-142.6428
 20
97.9964
 30
0.0
 10
-142.6428
 20
97.9964
 30
0.0
 10
-142.6428
 20
97.9964
 30
0.0
 10
-142.6428
 20
88.8858
 30
0.0
 10
-142.6428
 20
88.8858
 30
0.0
 10
-142.6428
 20
88.8858
 30
0.0
 10
-142.6428
 20
88.8858
 30
0.0
 10
-137.7673
 20
84.0565
 30
0.0
 10
-137.7673
 20
84.0565
 30
0.0
  0
SPLINE
  5
B4
330
1F
100
AcDbEntity
  8
layer 1
 62
     7
100
AcDbSpline
210
0.0
220
0.0
230
1.0
 70
    11
 71
     3
 72
    20
 73
    16
 74
     0
 42
0.0000000001
 43
0.0000000001
 12
1.0
 22
0.0
 32
0.0
 13
1.0
 23
0.0
 33
0.0
 40
0.0
 40
0.0
 40
0.0
 40
0.0
 40
0.2
 40
0.2
 40
0.2
 40
0.2
 40
0.4
 40
0.4
 40
0.4
 40
0.4
 40
0.6
 40
0.6
 40
0.6
 40
0.6
 40
1.0
 40
1.0
 40
1.0
 40
1.0
 10
-145.4083
 20
91.7516
 30
0.0
 10
-145.4083
 20
91.7516
 30
0.0
 10
-145.401
 20
98.7545
 30
0.0
 10
-145.401
 20
98.7545
 30
0.0
 10
-145.401
 20
98.7545
 30
0.0
 10
-145.401
 20
98.7545
 30
0.0
 10
-149.3626
 20
100.4514
 30
0.0
 10
-149.3626
 20
100.4514
 30
0.0
 10
-149.3626
 20
100.4514
 30
0.0
 10
-149.5651
 20
99.047
 30
0.0
 10
-150.2572
 20
97.7444
 30
0.0
 10
-150.7409
 20
97.093
 30
0.0
 10
-150.7409
 20
97.093
 30
0.0
 10
-150.7409
 20
97.093
 30
0.0
 10
-145.4083
 20
91.7516
 30
0.0
 10
-145.4083
 20
91.7516
 30
0.0
  0
LWPOLYLINE
  5
B5
330
1F
100
AcDbEntity
  8
layer 1
 62
   250
100
AcDbPolyline
 90
        5
 70
     1
 43
0.0
 10
-187.4316
 20
-114.7849
 10
-127.8434
 20
-114.7849
 10
-127.8434
 20
65.6677
 10
-187.4316
 20
65.6677
 10
-187.4316
 20
-114.7849
  0
LWPOLYLINE
  5
B6
330
1F
100
AcDbEntity
  8
layer 1
 62
     7
100
AcDbPolyline
 90
        5
 70
     1
 43
0.0
 10
-183.7484
 20
57.7129
 10
-180.028
 20
57.7129
 10
-180.028
 20
61.4329
 10
-183.7484
 20
61.4329
 10
-183.7484
 20
57.7129
  0
SPLINE
  5
B7
330
1F
100
AcDbEntity
  8
layer 1
 62
     7
100
AcDbSpline
210
0.0
220
0.0
230
1.0
 70
    11
 71
     3
 72
    24
 73
    20
 74
     0
 42
0.0000000001
 43
0.0000000001
 12
1.0
 22
0.0
 32
0.0
 13
1.0
 23
0.0
 33
0.0
 40
0.0
 40
0.0
 40
0.0
 40
0.0
 40
0.1666666666666667
 40
0.1666666666666667
 40
0.1666666666666667
 40
0.1666666666666667
 40
0.3333333333333333
 40
0.3333333333333333
 40
0.3333333333333333
 40
0.3333333333333333
 40
0.5
 40
0.5
 40
0.5
 40
0.5
 40
0.6666666666666666
 40
0.6666666666666666
 40
0.6666666666666666
 40
0.6666666666666666
 40
1.0
 40
1.0
 40
1.0
 40
1.0
 10
-177.2984
 20
61.4329
 30
0.0
 10
-177.2984
 20
61.4329
 30
0.0
 10
-158.9339
 20
61.4329
 30
0.0
 10
-158.9339
 20
61.4329
 30
0.0
 10
-158.9339
 20
61.4329
 30
0.0
 10
-158.9339
 20
61.4329
 30
0.0
 10
-158.9339
 20
51.4769
 30
0.0
 10
-158.9339
 20
51.4769
 30
0.0
 10
-158.9339
 20
51.4769
 30
0.0
 10
-158.9339
 20
51.4769
 30
0.0
 10
-161.7884
 20
57.7128
 30
0.0
 10
-161.7884
 20
57.7128
 30
0.0
 10
-161.7884
 20
57.7128
 30
0.0
 10
-161.7884
 20
57.7128
 30
0.0
 10
-177.2984
 20
57.7128
 30
0.0
 10
-177.2984
 20
57.7128
 30
0.0
 10
-177.2984
 20
57.7128
 30
0.0
 10
-177.2984
 20
57.7128
 30
0.0
 10
-177.2984
 20
61.4329
 30
0.0
 10
-177.2984
 20
61.4329
 30
0.0
  0
SPLINE
  5
B8
330
1F
100
AcDbEntity
  8
layer 1
 62
     7
100
AcDbSpline
210
0.0
220
0.0
230
1.0
 70
    11
 71
     3
 72
    20
 73
    16
 74
     0
 42
0.0000000001
 43
0.0000000001
 12
1.0
 22
0.0
 32
0.0
 13
1.0
 23
0.0
 33
0.0
 40
0.0
 40
0.0
 40
0.0
 40
0.0
 40
0.2
 40
0.2
 40
0.2
 40
0.2
 40
0.4
 40
0.4
 40
0.4
 40
0.4
 40
0.6
 40
0.6
 40
0.6
 40
0.6
 40
1.0
 40
1.0
 40
1.0
 40
1.0
 10
-175.3129
 20
54.9797
 30
0.0
 10
-175.3129
 20
54.9797
 30
0.0
 10
-163.6524
 20
54.9797
 30
0.0
 10
-163.6524
 20
54.9797
 30
0.0
 10
-163.6524
 20
54.9797
 30
0.0
 10
-163.6524
 20
54.9797
 30
0.0
 10
-161.373
 20
50.1042
 30
0.0
 10
-161.373
 20
50.1042
 30
0.0
 10
-161.373
 20
50.1042
 30
0.0
 10
-161.373
 20
50.1042
 30
0.0
 10
-170.4836
 20
50.1042
 30
0.0
 10
-170.4836
 20
50.1042
 30
0.0
 10
-170.4836
 20
50.1042
 30
0.0
 10
-170.4836
 20
50.1042
 30
0.0
 10
-175.3129
 20
54.9797
 30
0.0
 10
-175.3129
 20
54.9797
 30
0.0
  0
SPLINE
  5
B9
330
1F
100
AcDbEntity
  8
layer 1
 62
     7
100
AcDbSpline
210
0.0
220
0.0
230
1.0
 70
    11
 71
     3
 72
    20
 73
    16
 74
     0
 42
0.0000000001
 43
0.0000000001
 12
1.0
 22
0.0
 32
0.0
 13
1.0
 23
0.0
 33
0.0
 40
0.0
 40
0.0
 40
0.0
 40
0.0
 40
0.2
 40
0.2
 40
0.2
 40
0.2
 40
0.4
 40
0.4
 40
0.4
 40
0.4
 40
0.6
 40
0.6
 40
0.6
 40
0.6
 40
1.0
 40
1.0
 40
1.0
 40
1.0
 10
-167.6178
 20
47.3387
 30
0.0
 10
-167.6178
 20
47.3387
 30
0.0
 10
-160.6149
 20
47.346
 30
0.0
 10
-160.6149
 20
47.346
 30
0.0
 10
-160.6149
 20
47.346
 30
0.0
 10
-160.6149
 20
47.346
 30
0.0
 10
-158.918
 20
43.3844
 30
0.0
 10
-158.918
 20
43.3844
 30
0.0
 10
-158.918
 20
43.3844
 30
0.0
 10
-160.3224
 20
43.1819
 30
0.0
 10
-161.6249
 20
42.4898
 30
0.0
 10
-162.2764
 20
42.0061
 30
0.0
 10
-162.2764
 20
42.0061
 30
0.0
 10
-162.2764
 20
42.0061
 30
0.0
 10
-167.6178
 20
47.3387
 30
0.0
 10
-167.6178
 20
47.3387
 30
0.0
  0
ELLIPSE
  5
BA
330
1F
100
AcDbEntity
  8
layer 1
 62
     7
100
AcDbEllipse
 10
-157.5512
 20
35.2419
 30
0.0
 11
0.0
 21
5.691
 31
0.0
210
0.0
220
0.0
230
1.0
 40
1.0
 41
0.0
 42
6.283185307179586
  0
SPLINE
  5
BB
330
1F
100
AcDbEntity
  8
layer 1
 62
     7
100
AcDbSpline
210
0.0
220
0.0
230
1.0
 70
    11
 71
     3
 72
    24
 73
    20
 74
     0
 42
0.0000000001
 43
0.0000000001
 12
1.0
 22
0.0
 32
0.0
 13
1.0
 23
0.0
 33
0.0
 40
0.0
 40
0.0
 40
0.0
 40
0.0
 40
0.1666666666666667
 40
0.1666666666666667
 40
0.1666666666666667
 40
0.1666666666666667
 40
0.3333333333333333
 40
0.3333333333333333
 40
0.3333333333333333
 40
0.3333333333333333
 40
0.5
 40
0.5
 40
0.5
 40
0.5
 40
0.6666666666666666
 40
0.6666666666666666
 40
0.6666666666666666
 40
0.6666666666666666
 40
1.0
 40
1.0
 40
1.0
 40
1.0
 10
-183.7535
 20
54.9891
 30
0.0
 10
-183.7535
 20
54.9891
 30
0.0
 10
-183.7535
 20
36.6246
 30
0.0
 10
-183.7535
 20
36.6246
 30
0.0
 10
-183.7535
 20
36.6246
 30
0.0
 10
-183.7535
 20
36.6246
 30
0.0
 10
-173.7975
 20
36.6246
 30
0.0
 10
-173.7975
 20
36.6246
 30
0.0
 10
-173.7975
 20
36.6246
 30
0.0
 10
-173.7975
 20
36.6246
 30
0.0
 10
-180.0334
 20
39.4791
 30
0.0
 10
-180.0334
 20
39.4791
 30
0.0
 10
-180.0334
 20
39.4791
 30
0.0
 10
-180.0334
 20
39.4791
 30
0.0
 10
-180.0334
 20
54.9891
 30
0.0
 10
-180.0334
 20
54.9891
 30
0.0
 10
-180.0334
 20
54.9891
 30
0.0
 10
-180.0334
 20
54.9891
 30
0.0
 10
-183.7535
 20
54.9891
 30
0.0
 10
-183.7535
 20
54.9891
 30
0.0
  0
SPLINE
  5
BC
330
1F
100
AcDbEntity
  8
layer 1
 62
     7
100
AcDbSpline
210
0.0
220
0.0
230
1.0
 70
    11
 71
     3
 72
    20
 73
    16
 74
     0
 42
0.0000000001
 43
0.0000000001
 12
1.0
 22
0.0
 32
0.0
 13
1.0
 23
0.0
 33
0.0
 40
0.0
 40
0.0
 40
0.0
 40
0.0
 40
0.2
 40
0.2
 40
0.2
 40
0.2
 40
0.4
 40
0.4
 40
0.4
 40
0.4
 40
0.6
 40
0.6
 40
0.6
 40
0.6
 40
1.0
 40
1.0
 40
1.0
 40
1.0
 10
-177.3003
 20
53.0036
 30
0.0
 10
-177.3003
 20
53.0036
 30
0.0
 10
-177.3003
 20
41.343
 30
0.0
 10
-177.3003
 20
41.343
 30
0.0
 10
-177.3003
 20
41.343
 30
0.0
 10
-177.3003
 20
41.343
 30
0.0
 10
-172.4248
 20
39.0637
 30
0.0
 10
-172.4248
 20
39.0637
 30
0.0
 10
-172.4248
 20
39.0637
 30
0.0
 10
-172.4248
 20
39.0637
 30
0.0
 10
-172.4248
 20
48.1743
 30
0.0
 10
-172.4248
 20
48.1743
 30
0.0
 10
-172.4248
 20
48.1743
 30
0.0
 10
-172.4248
 20
48.1743
 30
0.0
 10
-177.3003
 20
53.0036
 30
0.0
 10
-177.3003
 20
53.0036
 30
0.0
  0
SPLINE
  5
BD
330
1F
100
AcDbEntity
  8
layer 1
 62
     7
100
AcDbSpline
210
0.0
220
0.0
230
1.0
 70
    11
 71
     3
 72
    20
 73
    16
 74
     0
 42
0.0000000001
 43
0.0000000001
 12
1.0
 22
0.0
 32
0.0
 13
1.0
 23
0.0
 33
0.0
 40
0.0
 40
0.0
 40
0.0
 40
0.0
 40
0.2
 40
0.2
 40
0.2
 40
0.2
 40
0.4
 40
0.4
 40
0.4
 40
0.4
 40
0.6
 40
0.6
 40
0.6
 40
0.6
 40
1.0
 40
1.0
 40
1.0
 40
1.0
 10
-169.6593
 20
45.3085
 30
0.0
 10
-169.6593
 20
45.3085
 30
0.0
 10
-169.6666
 20
38.3056
 30
0.0
 10
-169.6666
 20
38.3056
 30
0.0
 10
-169.6666
 20
38.3056
 30
0.0
 10
-169.6666
 20
38.3056
 30
0.0
 10
-165.705
 20
36.6086
 30
0.0
 10
-165.705
 20
36.6086
 30
0.0
 10
-165.705
 20
36.6086
 30
0.0
 10
-165.5025
 20
38.0131
 30
0.0
 10
-164.8104
 20
39.3156
 30
0.0
 10
-164.3267
 20
39.9671
 30
0.0
 10
-164.3267
 20
39.9671
 30
0.0
 10
-164.3267
 20
39.9671
 30
0.0
 10
-169.6593
 20
45.3085
 30
0.0
 10
-169.6593
 20
45.3085
 30
0.0
  0
LWPOLYLINE
  5
BE
330
1F
100
AcDbEntity
  8
layer 1
 62
     7
100
AcDbPolyline
 90
        5
 70
     1
 43
0.0
 10
-135.0431
 20
57.7129
 10
-131.3227
 20
57.7129
 10
-131.3227
 20
61.4329
 10
-135.0431
 20
61.4329
 10
-135.0431
 20
57.7129
  0
SPLINE
  5
BF
330
1F
100
AcDbEntity
  8
layer 1
 62
     7
100
AcDbSpline
210
0.0
220
0.0
230
1.0
 70
    11
 71
     3
 72
    24
 73
    20
 74
     0
 42
0.0000000001
 43
0.0000000001
 12
1.0
 22
0.0
 32
0.0
 13
1.0
 23
0.0
 33
0.0
 40
0.0
 40
0.0
 40
0.0
 40
0.0
 40
0.1666666666666667
 40
0.1666666666666667
 40
0.1666666666666667
 40
0.1666666666666667
 40
0.3333333333333333
 40
0.3333333333333333
 40
0.3333333333333333
 40
0.3333333333333333
 40
0.5
 40
0.5
 40
0.5
 40
0.5
 40
0.6666666666666666
 40
0.6666666666666666
 40
0.6666666666666666
 40
0.6666666666666666
 40
1.0
 40
1.0
 40
1.0
 40
1.0
 10
-137.7727
 20
61.4329
 30
0.0
 10
-137.7727
 20
61.4329
 30
0.0
 10
-156.1372
 20
61.4329
 30
0.0
 10
-156.1372
 20
61.4329
 30
0.0
 10
-156.1372
 20
61.4329
 30
0.0
 10
-156.1372
 20
61.4329
 30
0.0
 10
-156.1372
 20
51.4769
 30
0.0
 10
-156.1372
 20
51.4769
 30
0.0
 10
-156.1372
 20
51.4769
 30
0.0
 10
-156.1372
 20
51.4769
 30
0.0
 10
-153.2827
 20
57.7128
 30
0.0
 10
-153.2827
 20
57.7128
 30
0.0
 10
-153.2827
 20
57.7128
 30
0.0
 10
-153.2827
 20
57.7128
 30
0.0
 10
-137.7727
 20
57.7128
 30
0.0
 10
-137.7727
 20
57.7128
 30
0.0
 10
-137.7727
 20
57.7128
 30
0.0
 10
-137.7727
 20
57.7128
 30
0.0
 10
-137.7727
 20
61.4329
 30
0.0
 10
-137.7727
 20
61.4329
 30
0.0
  0
SPLINE
  5
C0
330
1F
100
AcDbEntity
  8
layer 1
 62
     7
100
AcDbSpline
210
0.0
220
0.0
230
1.0
 70
    11
 71
     3
 72
    20
 73
    16
 74
     0
 42
0.0000000001
 43
0.0000000001
 12
1.0
 22
0.0
 32
0.0
 13
1.0
 23
0.0
 33
0.0
 40
0.0
 40
0.0
 40
0.0
 40
0.0
 40
0.2
 40
0.2
 40
0.2
 40
0.2
 40
0.4
 40
0.4
 40
0.4
 40
0.4
 40
0.6
 40
0.6
 40
0.6
 40
0.6
 40
1.0
 40
1.0
 40
1.0
 40
1.0
 10
-139.7582
 20
54.9797
 30
0.0
 10
-139.7582
 20
54.9797
 30
0.0
 10
-151.4188
 20
54.9797
 30
0.0
 10
-151.4188
 20
54.9797
 30
0.0
 10
-151.4188
 20
54.9797
 30
0.0
 10
-151.4188
 20
54.9797
 30
0.0
 10
-153.6981
 20
50.1042
 30
0.0
 10
-153.6981
 20
50.1042
 30
0.0
 10
-153.6981
 20
50.1042
 30
0.0
 10
-153.6981
 20
50.1042
 30
0.0
 10
-144.5875
 20
50.1042
 30
0.0
 10
-144.5875
 20
50.1042
 30
0.0
 10
-144.5875
 20
50.1042
 30
0.0
 10
-144.5875
 20
50.1042
 30
0.0
 10
-139.7582
 20
54.9797
 30
0.0
 10
-139.7582
 20
54.9797
 30
0.0
  0
SPLINE
  5
C1
330
1F
100
AcDbEntity
  8
layer 1
 62
     7
100
AcDbSpline
210
0.0
220
0.0
230
1.0
 70
    11
 71
     3
 72
    20
 73
    16
 74
     0
 42
0.0000000001
 43
0.0000000001
 12
1.0
 22
0.0
 32
0.0
 13
1.0
 23
0.0
 33
0.0
 40
0.0
 40
0.0
 40
0.0
 40
0.0
 40
0.2
 40
0.2
 40
0.2
 40
0.2
 40
0.4
 40
0.4
 40
0.4
 40
0.4
 40
0.6
 40
0.6
 40
0.6
 40
0.6
 40
1.0
 40
1.0
 40
1.0
 40
1.0
 10
-147.4533
 20
47.3387
 30
0.0
 10
-147.4533
 20
47.3387
 30
0.0
 10
-154.4562
 20
47.346
 30
0.0
 10
-154.4562
 20
47.346
 30
0.0
 10
-154.4562
 20
47.346
 30
0.0
 10
-154.4562
 20
47.346
 30
0.0
 10
-156.1531
 20
43.3844
 30
0.0
 10
-156.1531
 20
43.3844
 30
0.0
 10
-156.1531
 20
43.3844
 30
0.0
 10
-154.7487
 20
43.1819
 30
0.0
 10
-153.4462
 20
42.4898
 30
0.0
 10
-152.7947
 20
42.0061
 30
0.0
 10
-152.7947
 20
42.0061
 30
0.0
 10
-152.7947
 20
42.0061
 30
0.0
 10
-147.4533
 20
47.3387
 30
0.0
 10
-147.4533
 20
47.3387
 30
0.0
  0
SPLINE
  5
C2
330
1F
100
AcDbEntity
  8
layer 1
 62
     7
100
AcDbSpline
210
0.0
220
0.0
230
1.0
 70
    11
 71
     3
 72
    24
 73
    20
 74
     0
 42
0.0000000001
 43
0.0000000001
 12
1.0
 22
0.0
 32
0.0
 13
1.0
 23
0.0
 33
0.0
 40
0.0
 40
0.0
 40
0.0
 40
0.0
 40
0.1666666666666667
 40
0.1666666666666667
 40
0.1666666666666667
 40
0.1666666666666667
 40
0.3333333333333333
 40
0.3333333333333333
 40
0.3333333333333333
 40
0.3333333333333333
 40
0.5
 40
0.5
 40
0.5
 40
0.5
 40
0.6666666666666666
 40
0.6666666666666666
 40
0.6666666666666666
 40
0.6666666666666666
 40
1.0
 40
1.0
 40
1.0
 40
1.0
 10
-131.3176
 20
54.9891
 30
0.0
 10
-131.3176
 20
54.9891
 30
0.0
 10
-131.3176
 20
36.6246
 30
0.0
 10
-131.3176
 20
36.6246
 30
0.0
 10
-131.3176
 20
36.6246
 30
0.0
 10
-131.3176
 20
36.6246
 30
0.0
 10
-141.2736
 20
36.6246
 30
0.0
 10
-141.2736
 20
36.6246
 30
0.0
 10
-141.2736
 20
36.6246
 30
0.0
 10
-141.2736
 20
36.6246
 30
0.0
 10
-135.0377
 20
39.4791
 30
0.0
 10
-135.0377
 20
39.4791
 30
0.0
 10
-135.0377
 20
39.4791
 30
0.0
 10
-135.0377
 20
39.4791
 30
0.0
 10
-135.0377
 20
54.9891
 30
0.0
 10
-135.0377
 20
54.9891
 30
0.0
 10
-135.0377
 20
54.9891
 30
0.0
 10
-135.0377
 20
54.9891
 30
0.0
 10
-131.3176
 20
54.9891
 30
0.0
 10
-131.3176
 20
54.9891
 30
0.0
  0
SPLINE
  5
C3
330
1F
100
AcDbEntity
  8
layer 1
 62
     7
100
AcDbSpline
210
0.0
220
0.0
230
1.0
 70
    11
 71
     3
 72
    20
 73
    16
 74
     0
 42
0.0000000001
 43
0.0000000001
 12
1.0
 22
0.0
 32
0.0
 13
1.0
 23
0.0
 33
0.0
 40
0.0
 40
0.0
 40
0.0
 40
0.0
 40
0.2
 40
0.2
 40
0.2
 40
0.2
 40
0.4
 40
0.4
 40
0.4
 40
0.4
 40
0.6
 40
0.6
 40
0.6
 40
0.6
 40
1.0
 40
1.0
 40
1.0
 40
1.0
 10
-137.7709
 20
53.0036
 30
0.0
 10
-137.7709
 20
53.0036
 30
0.0
 10
-137.7709
 20
41.343
 30
0.0
 10
-137.7709
 20
41.343
 30
0.0
 10
-137.7709
 20
41.343
 30
0.0
 10
-137.7709
 20
41.343
 30
0.0
 10
-142.6463
 20
39.0637
 30
0.0
 10
-142.6463
 20
39.0637
 30
0.0
 10
-142.6463
 20
39.0637
 30
0.0
 10
-142.6463
 20
39.0637
 30
0.0
 10
-142.6463
 20
48.1743
 30
0.0
 10
-142.6463
 20
48.1743
 30
0.0
 10
-142.6463
 20
48.1743
 30
0.0
 10
-142.6463
 20
48.1743
 30
0.0
 10
-137.7709
 20
53.0036
 30
0.0
 10
-137.7709
 20
53.0036
 30
0.0
  0
SPLINE
  5
C4
330
1F
100
AcDbEntity
  8
layer 1
 62
     7
100
AcDbSpline
210
0.0
220
0.0
230
1.0
 70
    11
 71
     3
 72
    20
 73
    16
 74
     0
 42
0.0000000001
 43
0.0000000001
 12
1.0
 22
0.0
 32
0.0
 13
1.0
 23
0.0
 33
0.0
 40
0.0
 40
0.0
 40
0.0
 40
0.0
 40
0.2
 40
0.2
 40
0.2
 40
0.2
 40
0.4
 40
0.4
 40
0.4
 40
0.4
 40
0.6
 40
0.6
 40
0.6
 40
0.6
 40
1.0
 40
1.0
 40
1.0
 40
1.0
 10
-145.4118
 20
45.3085
 30
0.0
 10
-145.4118
 20
45.3085
 30
0.0
 10
-145.4045
 20
38.3056
 30
0.0
 10
-145.4045
 20
38.3056
 30
0.0
 10
-145.4045
 20
38.3056
 30
0.0
 10
-145.4045
 20
38.3056
 30
0.0
 10
-149.3661
 20
36.6086
 30
0.0
 10
-149.3661
 20
36.6086
 30
0.0
 10
-149.3661
 20
36.6086
 30
0.0
 10
-149.5686
 20
38.0131
 30
0.0
 10
-150.2607
 20
39.3156
 30
0.0
 10
-150.7444
 20
39.9671
 30
0.0
 10
-150.7444
 20
39.9671
 30
0.0
 10
-150.7444
 20
39.9671
 30
0.0
 10
-145.4118
 20
45.3085
 30
0.0
 10
-145.4118
 20
45.3085
 30
0.0
  0
LWPOLYLINE
  5
C5
330
1F
100
AcDbEntity
  8
layer 1
 62
     7
100
AcDbPolyline
 90
        5
 70
     1
 43
0.0
 10
-183.7484
 20
9.0718
 10
-180.028
 20
9.0718
 10
-180.028
 20
12.7918
 10
-183.7484
 20
12.7918
 10
-183.7484
 20
9.0718
  0
SPLINE
  5
C6
330
1F
100
AcDbEntity
  8
layer 1
 62
     7
100
AcDbSpline
210
0.0
220
0.0
230
1.0
 70
    11
 71
     3
 72
    24
 73
    20
 74
     0
 42
0.0000000001
 43
0.0000000001
 12
1.0
 22
0.0
 32
0.0
 13
1.0
 23
0.0
 33
0.0
 40
0.0
 40
0.0
 40
0.0
 40
0.0
 40
0.1666666666666667
 40
0.1666666666666667
 40
0.1666666666666667
 40
0.1666666666666667
 40
0.3333333333333333
 40
0.3333333333333333
 40
0.3333333333333333
 40
0.3333333333333333
 40
0.5
 40
0.5
 40
0.5
 40
0.5
 40
0.6666666666666666
 40
0.6666666666666666
 40
0.6666666666666666
 40
0.6666666666666666
 40
1.0
 40
1.0
 40
1.0
 40
1.0
 10
-177.2984
 20
9.0718
 30
0.0
 10
-177.2984
 20
9.0718
 30
0.0
 10
-158.9339
 20
9.0718
 30
0.0
 10
-158.9339
 20
9.0718
 30
0.0
 10
-158.9339
 20
9.0718
 30
0.0
 10
-158.9339
 20
9.0718
 30
0.0
 10
-158.9339
 20
19.0278
 30
0.0
 10
-158.9339
 20
19.0278
 30
0.0
 10
-158.9339
 20
19.0278
 30
0.0
 10
-158.9339
 20
19.0278
 30
0.0
 10
-161.7884
 20
12.7918
 30
0.0
 10
-161.7884
 20
12.7918
 30
0.0
 10
-161.7884
 20
12.7918
 30
0.0
 10
-161.7884
 20
12.7918
 30
0.0
 10
-177.2984
 20
12.7918
 30
0.0
 10
-177.2984
 20
12.7918
 30
0.0
 10
-177.2984
 20
12.7918
 30
0.0
 10
-177.2984
 20
12.7918
 30
0.0
 10
-177.2984
 20
9.0718
 30
0.0
 10
-177.2984
 20
9.0718
 30
0.0
  0
SPLINE
  5
C7
330
1F
100
AcDbEntity
  8
layer 1
 62
     7
100
AcDbSpline
210
0.0
220
0.0
230
1.0
 70
    11
 71
     3
 72
    20
 73
    16
 74
     0
 42
0.0000000001
 43
0.0000000001
 12
1.0
 22
0.0
 32
0.0
 13
1.0
 23
0.0
 33
0.0
 40
0.0
 40
0.0
 40
0.0
 40
0.0
 40
0.2
 40
0.2
 40
0.2
 40
0.2
 40
0.4
 40
0.4
 40
0.4
 40
0.4
 40
0.6
 40
0.6
 40
0.6
 40
0.6
 40
1.0
 40
1.0
 40
1.0
 40
1.0
 10
-175.3129
 20
15.525
 30
0.0
 10
-175.3129
 20
15.525
 30
0.0
 10
-163.6524
 20
15.525
 30
0.0
 10
-163.6524
 20
15.525
 30
0.0
 10
-163.6524
 20
15.525
 30
0.0
 10
-163.6524
 20
15.525
 30
0.0
 10
-161.373
 20
20.4005
 30
0.0
 10
-161.373
 20
20.4005
 30
0.0
 10
-161.373
 20
20.4005
 30
0.0
 10
-161.373
 20
20.4005
 30
0.0
 10
-170.4836
 20
20.4005
 30
0.0
 10
-170.4836
 20
20.4005
 30
0.0
 10
-170.4836
 20
20.4005
 30
0.0
 10
-170.4836
 20
20.4005
 30
0.0
 10
-175.3129
 20
15.525
 30
0.0
 10
-175.3129
 20
15.525
 30
0.0
  0
SPLINE
  5
C8
330
1F
100
AcDbEntity
  8
layer 1
 62
     7
100
AcDbSpline
210
0.0
220
0.0
230
1.0
 70
    11
 71
     3
 72
    20
 73
    16
 74
     0
 42
0.0000000001
 43
0.0000000001
 12
1.0
 22
0.0
 32
0.0
 13
1.0
 23
0.0
 33
0.0
 40
0.0
 40
0.0
 40
0.0
 40
0.0
 40
0.2
 40
0.2
 40
0.2
 40
0.2
 40
0.4
 40
0.4
 40
0.4
 40
0.4
 40
0.6
 40
0.6
 40
0.6
 40
0.6
 40
1.0
 40
1.0
 40
1.0
 40
1.0
 10
-167.6178
 20
23.166
 30
0.0
 10
-167.6178
 20
23.166
 30
0.0
 10
-160.6149
 20
23.1586
 30
0.0
 10
-160.6149
 20
23.1586
 30
0.0
 10
-160.6149
 20
23.1586
 30
0.0
 10
-160.6149
 20
23.1586
 30
0.0
 10
-158.918
 20
27.1203
 30
0.0
 10
-158.918
 20
27.1203
 30
0.0
 10
-158.918
 20
27.1203
 30
0.0
 10
-160.3224
 20
27.3228
 30
0.0
 10
-161.6249
 20
28.0149
 30
0.0
 10
-162.2764
 20
28.4986
 30
0.0
 10
-162.2764
 20
28.4986
 30
0.0
 10
-162.2764
 20
28.4986
 30
0.0
 10
-167.6178
 20
23.166
 30
0.0
 10
-167.6178
 20
23.166
 30
0.0
  0
SPLINE
  5
C9
330
1F
100
AcDbEntity
  8
layer 1
 62
     7
100
AcDbSpline
210
0.0
220
0.0
230
1.0
 70
    11
 71
     3
 72
    24
 73
    20
 74
     0
 42
0.0000000001
 43
0.0000000001
 12
1.0
 22
0.0
 32
0.0
 13
1.0
 23
0.0
 33
0.0
 40
0.0
 40
0.0
 40
0.0
 40
0.0
 40
0.1666666666666667
 40
0.1666666666666667
 40
0.1666666666666667
 40
0.1666666666666667
 40
0.3333333333333333
 40
0.3333333333333333
 40
0.3333333333333333
 40
0.3333333333333333
 40
0.5
 40
0.5
 40
0.5
 40
0.5
 40
0.6666666666666666
 40
0.6666666666666666
 40
0.6666666666666666
 40
0.6666666666666666
 40
1.0
 40
1.0
 40
1.0
 40
1.0
 10
-183.7535
 20
15.5156
 30
0.0
 10
-183.7535
 20
15.5156
 30
0.0
 10
-183.7535
 20
33.8801
 30
0.0
 10
-183.7535
 20
33.8801
 30
0.0
 10
-183.7535
 20
33.8801
 30
0.0
 10
-183.7535
 20
33.8801
 30
0.0
 10
-173.7975
 20
33.8801
 30
0.0
 10
-173.7975
 20
33.8801
 30
0.0
 10
-173.7975
 20
33.8801
 30
0.0
 10
-173.7975
 20
33.8801
 30
0.0
 10
-180.0334
 20
31.0256
 30
0.0
 10
-180.0334
 20
31.0256
 30
0.0
 10
-180.0334
 20
31.0256
 30
0.0
 10
-180.0334
 20
31.0256
 30
0.0
 10
-180.0334
 20
15.5156
 30
0.0
 10
-180.0334
 20
15.5156
 30
0.0
 10
-180.0334
 20
15.5156
 30
0.0
 10
-180.0334
 20
15.5156
 30
0.0
 10
-183.7535
 20
15.5156
 30
0.0
 10
-183.7535
 20
15.5156
 30
0.0
  0
SPLINE
  5
CA
330
1F
100
AcDbEntity
  8
layer 1
 62
     7
100
AcDbSpline
210
0.0
220
0.0
230
1.0
 70
    11
 71
     3
 72
    20
 73
    16
 74
     0
 42
0.0000000001
 43
0.0000000001
 12
1.0
 22
0.0
 32
0.0
 13
1.0
 23
0.0
 33
0.0
 40
0.0
 40
0.0
 40
0.0
 40
0.0
 40
0.2
 40
0.2
 40
0.2
 40
0.2
 40
0.4
 40
0.4
 40
0.4
 40
0.4
 40
0.6
 40
0.6
 40
0.6
 40
0.6
 40
1.0
 40
1.0
 40
1.0
 40
1.0
 10
-177.3003
 20
17.5011
 30
0.0
 10
-177.3003
 20
17.5011
 30
0.0
 10
-177.3003
 20
29.1617
 30
0.0
 10
-177.3003
 20
29.1617
 30
0.0
 10
-177.3003
 20
29.1617
 30
0.0
 10
-177.3003
 20
29.1617
 30
0.0
 10
-172.4248
 20
31.441
 30
0.0
 10
-172.4248
 20
31.441
 30
0.0
 10
-172.4248
 20
31.441
 30
0.0
 10
-172.4248
 20
31.441
 30
0.0
 10
-172.4248
 20
22.3304
 30
0.0
 10
-172.4248
 20
22.3304
 30
0.0
 10
-172.4248
 20
22.3304
 30
0.0
 10
-172.4248
 20
22.3304
 30
0.0
 10
-177.3003
 20
17.5011
 30
0.0
 10
-177.3003
 20
17.5011
 30
0.0
  0
SPLINE
  5
CB
330
1F
100
AcDbEntity
  8
layer 1
 62
     7
100
AcDbSpline
210
0.0
220
0.0
230
1.0
 70
    11
 71
     3
 72
    20
 73
    16
 74
     0
 42
0.0000000001
 43
0.0000000001
 12
1.0
 22
0.0
 32
0.0
 13
1.0
 23
0.0
 33
0.0
 40
0.0
 40
0.0
 40
0.0
 40
0.0
 40
0.2
 40
0.2
 40
0.2
 40
0.2
 40
0.4
 40
0.4
 40
0.4
 40
0.4
 40
0.6
 40
0.6
 40
0.6
 40
0.6
 40
1.0
 40
1.0
 40
1.0
 40
1.0
 10
-169.6593
 20
25.1962
 30
0.0
 10
-169.6593
 20
25.1962
 30
0.0
 10
-169.6666
 20
32.1991
 30
0.0
 10
-169.6666
 20
32.1991
 30
0.0
 10
-169.6666
 20
32.1991
 30
0.0
 10
-169.6666
 20
32.1991
 30
0.0
 10
-165.705
 20
33.896
 30
0.0
 10
-165.705
 20
33.896
 30
0.0
 10
-165.705
 20
33.896
 30
0.0
 10
-165.5025
 20
32.4916
 30
0.0
 10
-164.8104
 20
31.1891
 30
0.0
 10
-164.3267
 20
30.5376
 30
0.0
 10
-164.3267
 20
30.5376
 30
0.0
 10
-164.3267
 20
30.5376
 30
0.0
 10
-169.6593
 20
25.1962
 30
0.0
 10
-169.6593
 20
25.1962
 30
0.0
  0
SPLINE
  5
CC
330
1F
100
AcDbEntity
  8
layer 1
 62
     7
100
AcDbSpline
210
0.0
220
0.0
230
1.0
 70
    11
 71
     3
 72
    20
 73
    16
 74
     0
 42
0.0000000001
 43
0.0000000001
 12
1.0
 22
0.0
 32
0.0
 13
1.0
 23
0.0
 33
0.0
 40
0.0
 40
0.0
 40
0.0
 40
0.0
 40
0.2
 40
0.2
 40
0.2
 40
0.2
 40
0.4
 40
0.4
 40
0.4
 40
0.4
 40
0.6
 40
0.6
 40
0.6
 40
0.6
 40
1.0
 40
1.0
 40
1.0
 40
1.0
 10
-131.3227
 20
9.0718
 30
0.0
 10
-131.3227
 20
9.0718
 30
0.0
 10
-135.0431
 20
9.0718
 30
0.0
 10
-135.0431
 20
9.0718
 30
0.0
 10
-135.0431
 20
9.0718
 30
0.0
 10
-135.0431
 20
9.0718
 30
0.0
 10
-135.0431
 20
12.7919
 30
0.0
 10
-135.0431
 20
12.7919
 30
0.0
 10
-135.0431
 20
12.7919
 30
0.0
 10
-135.0431
 20
12.7919
 30
0.0
 10
-131.3227
 20
12.7919
 30
0.0
 10
-131.3227
 20
12.7919
 30
0.0
 10
-131.3227
 20
12.7919
 30
0.0
 10
-131.3227
 20
12.7919
 30
0.0
 10
-131.3227
 20
9.0718
 30
0.0
 10
-131.3227
 20
9.0718
 30
0.0
  0
SPLINE
  5
CD
330
1F
100
AcDbEntity
  8
layer 1
 62
     7
100
AcDbSpline
210
0.0
220
0.0
230
1.0
 70
    11
 71
     3
 72
    24
 73
    20
 74
     0
 42
0.0000000001
 43
0.0000000001
 12
1.0
 22
0.0
 32
0.0
 13
1.0
 23
0.0
 33
0.0
 40
0.0
 40
0.0
 40
0.0
 40
0.0
 40
0.1666666666666667
 40
0.1666666666666667
 40
0.1666666666666667
 40
0.1666666666666667
 40
0.3333333333333333
 40
0.3333333333333333
 40
0.3333333333333333
 40
0.3333333333333333
 40
0.5
 40
0.5
 40
0.5
 40
0.5
 40
0.6666666666666666
 40
0.6666666666666666
 40
0.6666666666666666
 40
0.6666666666666666
 40
1.0
 40
1.0
 40
1.0
 40
1.0
 10
-137.7727
 20
9.0718
 30
0.0
 10
-137.7727
 20
9.0718
 30
0.0
 10
-156.1372
 20
9.0718
 30
0.0
 10
-156.1372
 20
9.0718
 30
0.0
 10
-156.1372
 20
9.0718
 30
0.0
 10
-156.1372
 20
9.0718
 30
0.0
 10
-156.1372
 20
19.0278
 30
0.0
 10
-156.1372
 20
19.0278
 30
0.0
 10
-156.1372
 20
19.0278
 30
0.0
 10
-156.1372
 20
19.0278
 30
0.0
 10
-153.2827
 20
12.7918
 30
0.0
 10
-153.2827
 20
12.7918
 30
0.0
 10
-153.2827
 20
12.7918
 30
0.0
 10
-153.2827
 20
12.7918
 30
0.0
 10
-137.7727
 20
12.7918
 30
0.0
 10
-137.7727
 20
12.7918
 30
0.0
 10
-137.7727
 20
12.7918
 30
0.0
 10
-137.7727
 20
12.7918
 30
0.0
 10
-137.7727
 20
9.0718
 30
0.0
 10
-137.7727
 20
9.0718
 30
0.0
  0
SPLINE
  5
CE
330
1F
100
AcDbEntity
  8
layer 1
 62
     7
100
AcDbSpline
210
0.0
220
0.0
230
1.0
 70
    11
 71
     3
 72
    20
 73
    16
 74
     0
 42
0.0000000001
 43
0.0000000001
 12
1.0
 22
0.0
 32
0.0
 13
1.0
 23
0.0
 33
0.0
 40
0.0
 40
0.0
 40
0.0
 40
0.0
 40
0.2
 40
0.2
 40
0.2
 40
0.2
 40
0.4
 40
0.4
 40
0.4
 40
0.4
 40
0.6
 40
0.6
 40
0.6
 40
0.6
 40
1.0
 40
1.0
 40
1.0
 40
1.0
 10
-139.7582
 20
15.525
 30
0.0
 10
-139.7582
 20
15.525
 30
0.0
 10
-151.4188
 20
15.525
 30
0.0
 10
-151.4188
 20
15.525
 30
0.0
 10
-151.4188
 20
15.525
 30
0.0
 10
-151.4188
 20
15.525
 30
0.0
 10
-153.6981
 20
20.4005
 30
0.0
 10
-153.6981
 20
20.4005
 30
0.0
 10
-153.6981
 20
20.4005
 30
0.0
 10
-153.6981
 20
20.4005
 30
0.0
 10
-144.5875
 20
20.4005
 30
0.0
 10
-144.5875
 20
20.4005
 30
0.0
 10
-144.5875
 20
20.4005
 30
0.0
 10
-144.5875
 20
20.4005
 30
0.0
 10
-139.7582
 20
15.525
 30
0.0
 10
-139.7582
 20
15.525
 30
0.0
  0
SPLINE
  5
CF
330
1F
100
AcDbEntity
  8
layer 1
 62
     7
100
AcDbSpline
210
0.0
220
0.0
230
1.0
 70
    11
 71
     3
 72
    20
 73
    16
 74
     0
 42
0.0000000001
 43
0.0000000001
 12
1.0
 22
0.0
 32
0.0
 13
1.0
 23
0.0
 33
0.0
 40
0.0
 40
0.0
 40
0.0
 40
0.0
 40
0.2
 40
0.2
 40
0.2
 40
0.2
 40
0.4
 40
0.4
 40
0.4
 40
0.4
 40
0.6
 40
0.6
 40
0.6
 40
0.6
 40
1.0
 40
1.0
 40
1.0
 40
1.0
 10
-147.4533
 20
23.166
 30
0.0
 10
-147.4533
 20
23.166
 30
0.0
 10
-154.4562
 20
23.1586
 30
0.0
 10
-154.4562
 20
23.1586
 30
0.0
 10
-154.4562
 20
23.1586
 30
0.0
 10
-154.4562
 20
23.1586
 30
0.0
 10
-156.1531
 20
27.1203
 30
0.0
 10
-156.1531
 20
27.1203
 30
0.0
 10
-156.1531
 20
27.1203
 30
0.0
 10
-154.7487
 20
27.3228
 30
0.0
 10
-153.4462
 20
28.0149
 30
0.0
 10
-152.7947
 20
28.4986
 30
0.0
 10
-152.7947
 20
28.4986
 30
0.0
 10
-152.7947
 20
28.4986
 30
0.0
 10
-147.4533
 20
23.166
 30
0.0
 10
-147.4533
 20
23.166
 30
0.0
  0
SPLINE
  5
D0
330
1F
100
AcDbEntity
  8
layer 1
 62
     7
100
AcDbSpline
210
0.0
220
0.0
230
1.0
 70
    11
 71
     3
 72
    24
 73
    20
 74
     0
 42
0.0000000001
 43
0.0000000001
 12
1.0
 22
0.0
 32
0.0
 13
1.0
 23
0.0
 33
0.0
 40
0.0
 40
0.0
 40
0.0
 40
0.0
 40
0.1666666666666667
 40
0.1666666666666667
 40
0.1666666666666667
 40
0.1666666666666667
 40
0.3333333333333333
 40
0.3333333333333333
 40
0.3333333333333333
 40
0.3333333333333333
 40
0.5
 40
0.5
 40
0.5
 40
0.5
 40
0.6666666666666666
 40
0.6666666666666666
 40
0.6666666666666666
 40
0.6666666666666666
 40
1.0
 40
1.0
 40
1.0
 40
1.0
 10
-131.3176
 20
15.5156
 30
0.0
 10
-131.3176
 20
15.5156
 30
0.0
 10
-131.3176
 20
33.8801
 30
0.0
 10
-131.3176
 20
33.8801
 30
0.0
 10
-131.3176
 20
33.8801
 30
0.0
 10
-131.3176
 20
33.8801
 30
0.0
 10
-141.2736
 20
33.8801
 30
0.0
 10
-141.2736
 20
33.8801
 30
0.0
 10
-141.2736
 20
33.8801
 30
0.0
 10
-141.2736
 20
33.8801
 30
0.0
 10
-135.0377
 20
31.0256
 30
0.0
 10
-135.0377
 20
31.0256
 30
0.0
 10
-135.0377
 20
31.0256
 30
0.0
 10
-135.0377
 20
31.0256
 30
0.0
 10
-135.0377
 20
15.5156
 30
0.0
 10
-135.0377
 20
15.5156
 30
0.0
 10
-135.0377
 20
15.5156
 30
0.0
 10
-135.0377
 20
15.5156
 30
0.0
 10
-131.3176
 20
15.5156
 30
0.0
 10
-131.3176
 20
15.5156
 30
0.0
  0
SPLINE
  5
D1
330
1F
100
AcDbEntity
  8
layer 1
 62
     7
100
AcDbSpline
210
0.0
220
0.0
230
1.0
 70
    11
 71
     3
 72
    20
 73
    16
 74
     0
 42
0.0000000001
 43
0.0000000001
 12
1.0
 22
0.0
 32
0.0
 13
1.0
 23
0.0
 33
0.0
 40
0.0
 40
0.0
 40
0.0
 40
0.0
 40
0.2
 40
0.2
 40
0.2
 40
0.2
 40
0.4
 40
0.4
 40
0.4
 40
0.4
 40
0.6
 40
0.6
 40
0.6
 40
0.6
 40
1.0
 40
1.0
 40
1.0
 40
1.0
 10
-137.7709
 20
17.5011
 30
0.0
 10
-137.7709
 20
17.5011
 30
0.0
 10
-137.7709
 20
29.1617
 30
0.0
 10
-137.7709
 20
29.1617
 30
0.0
 10
-137.7709
 20
29.1617
 30
0.0
 10
-137.7709
 20
29.1617
 30
0.0
 10
-142.6463
 20
31.441
 30
0.0
 10
-142.6463
 20
31.441
 30
0.0
 10
-142.6463
 20
31.441
 30
0.0
 10
-142.6463
 20
31.441
 30
0.0
 10
-142.6463
 20
22.3304
 30
0.0
 10
-142.6463
 20
22.3304
 30
0.0
 10
-142.6463
 20
22.3304
 30
0.0
 10
-142.6463
 20
22.3304
 30
0.0
 10
-137.7709
 20
17.5011
 30
0.0
 10
-137.7709
 20
17.5011
 30
0.0
  0
SPLINE
  5
D2
330
1F
100
AcDbEntity
  8
layer 1
 62
     7
100
AcDbSpline
210
0.0
220
0.0
230
1.0
 70
    11
 71
     3
 72
    20
 73
    16
 74
     0
 42
0.0000000001
 43
0.0000000001
 12
1.0
 22
0.0
 32
0.0
 13
1.0
 23
0.0
 33
0.0
 40
0.0
 40
0.0
 40
0.0
 40
0.0
 40
0.2
 40
0.2
 40
0.2
 40
0.2
 40
0.4
 40
0.4
 40
0.4
 40
0.4
 40
0.6
 40
0.6
 40
0.6
 40
0.6
 40
1.0
 40
1.0
 40
1.0
 40
1.0
 10
-145.4118
 20
25.1962
 30
0.0
 10
-145.4118
 20
25.1962
 30
0.0
 10
-145.4045
 20
32.1991
 30
0.0
 10
-145.4045
 20
32.1991
 30
0.0
 10
-145.4045
 20
32.1991
 30
0.0
 10
-145.4045
 20
32.1991
 30
0.0
 10
-149.3661
 20
33.896
 30
0.0
 10
-149.3661
 20
33.896
 30
0.0
 10
-149.3661
 20
33.896
 30
0.0
 10
-149.5686
 20
32.4916
 30
0.0
 10
-150.2607
 20
31.1891
 30
0.0
 10
-150.7444
 20
30.5376
 30
0.0
 10
-150.7444
 20
30.5376
 30
0.0
 10
-150.7444
 20
30.5376
 30
0.0
 10
-145.4118
 20
25.1962
 30
0.0
 10
-145.4118
 20
25.1962
 30
0.0
  0
LWPOLYLINE
  5
D3
330
1F
100
AcDbEntity
  8
layer 1
 62
     7
100
AcDbPolyline
 90
        5
 70
     1
 43
0.0
 10
-183.6374
 20
-1.7496
 10
-179.917
 20
-1.7496
 10
-179.917
 20
1.9704
 10
-183.6374
 20
1.9704
 10
-183.6374
 20
-1.7496
  0
SPLINE
  5
D4
330
1F
100
AcDbEntity
  8
layer 1
 62
     7
100
AcDbSpline
210
0.0
220
0.0
230
1.0
 70
    11
 71
     3
 72
    24
 73
    20
 74
     0
 42
0.0000000001
 43
0.0000000001
 12
1.0
 22
0.0
 32
0.0
 13
1.0
 23
0.0
 33
0.0
 40
0.0
 40
0.0
 40
0.0
 40
0.0
 40
0.1666666666666667
 40
0.1666666666666667
 40
0.1666666666666667
 40
0.1666666666666667
 40
0.3333333333333333
 40
0.3333333333333333
 40
0.3333333333333333
 40
0.3333333333333333
 40
0.5
 40
0.5
 40
0.5
 40
0.5
 40
0.6666666666666666
 40
0.6666666666666666
 40
0.6666666666666666
 40
0.6666666666666666
 40
1.0
 40
1.0
 40
1.0
 40
1.0
 10
-177.1874
 20
1.9704
 30
0.0
 10
-177.1874
 20
1.9704
 30
0.0
 10
-158.8229
 20
1.9704
 30
0.0
 10
-158.8229
 20
1.9704
 30
0.0
 10
-158.8229
 20
1.9704
 30
0.0
 10
-158.8229
 20
1.9704
 30
0.0
 10
-158.8229
 20
-7.9856
 30
0.0
 10
-158.8229
 20
-7.9856
 30
0.0
 10
-158.8229
 20
-7.9856
 30
0.0
 10
-158.8229
 20
-7.9856
 30
0.0
 10
-161.6774
 20
-1.7497
 30
0.0
 10
-161.6774
 20
-1.7497
 30
0.0
 10
-161.6774
 20
-1.7497
 30
0.0
 10
-161.6774
 20
-1.7497
 30
0.0
 10
-177.1874
 20
-1.7497
 30
0.0
 10
-177.1874
 20
-1.7497
 30
0.0
 10
-177.1874
 20
-1.7497
 30
0.0
 10
-177.1874
 20
-1.7497
 30
0.0
 10
-177.1874
 20
1.9704
 30
0.0
 10
-177.1874
 20
1.9704
 30
0.0
  0
SPLINE
  5
D5
330
1F
100
AcDbEntity
  8
layer 1
 62
     7
100
AcDbSpline
210
0.0
220
0.0
230
1.0
 70
    11
 71
     3
 72
    20
 73
    16
 74
     0
 42
0.0000000001
 43
0.0000000001
 12
1.0
 22
0.0
 32
0.0
 13
1.0
 23
0.0
 33
0.0
 40
0.0
 40
0.0
 40
0.0
 40
0.0
 40
0.2
 40
0.2
 40
0.2
 40
0.2
 40
0.4
 40
0.4
 40
0.4
 40
0.4
 40
0.6
 40
0.6
 40
0.6
 40
0.6
 40
1.0
 40
1.0
 40
1.0
 40
1.0
 10
-175.2019
 20
-4.4829
 30
0.0
 10
-175.2019
 20
-4.4829
 30
0.0
 10
-163.5413
 20
-4.4829
 30
0.0
 10
-163.5413
 20
-4.4829
 30
0.0
 10
-163.5413
 20
-4.4829
 30
0.0
 10
-163.5413
 20
-4.4829
 30
0.0
 10
-161.262
 20
-9.3583
 30
0.0
 10
-161.262
 20
-9.3583
 30
0.0
 10
-161.262
 20
-9.3583
 30
0.0
 10
-161.262
 20
-9.3583
 30
0.0
 10
-170.3726
 20
-9.3583
 30
0.0
 10
-170.3726
 20
-9.3583
 30
0.0
 10
-170.3726
 20
-9.3583
 30
0.0
 10
-170.3726
 20
-9.3583
 30
0.0
 10
-175.2019
 20
-4.4829
 30
0.0
 10
-175.2019
 20
-4.4829
 30
0.0
  0
SPLINE
  5
D6
330
1F
100
AcDbEntity
  8
layer 1
 62
     7
100
AcDbSpline
210
0.0
220
0.0
230
1.0
 70
    11
 71
     3
 72
    20
 73
    16
 74
     0
 42
0.0000000001
 43
0.0000000001
 12
1.0
 22
0.0
 32
0.0
 13
1.0
 23
0.0
 33
0.0
 40
0.0
 40
0.0
 40
0.0
 40
0.0
 40
0.2
 40
0.2
 40
0.2
 40
0.2
 40
0.4
 40
0.4
 40
0.4
 40
0.4
 40
0.6
 40
0.6
 40
0.6
 40
0.6
 40
1.0
 40
1.0
 40
1.0
 40
1.0
 10
-167.5068
 20
-12.1238
 30
0.0
 10
-167.5068
 20
-12.1238
 30
0.0
 10
-160.5039
 20
-12.1165
 30
0.0
 10
-160.5039
 20
-12.1165
 30
0.0
 10
-160.5039
 20
-12.1165
 30
0.0
 10
-160.5039
 20
-12.1165
 30
0.0
 10
-158.8069
 20
-16.0781
 30
0.0
 10
-158.8069
 20
-16.0781
 30
0.0
 10
-158.8069
 20
-16.0781
 30
0.0
 10
-160.2114
 20
-16.2806
 30
0.0
 10
-161.5139
 20
-16.9728
 30
0.0
 10
-162.1654
 20
-17.4564
 30
0.0
 10
-162.1654
 20
-17.4564
 30
0.0
 10
-162.1654
 20
-17.4564
 30
0.0
 10
-167.5068
 20
-12.1238
 30
0.0
 10
-167.5068
 20
-12.1238
 30
0.0
  0
ELLIPSE
  5
D7
330
1F
100
AcDbEntity
  8
layer 1
 62
     7
100
AcDbEllipse
 10
-157.4402
 20
-24.2207
 30
0.0
 11
0.0
 21
5.6911
 31
0.0
210
0.0
220
0.0
230
1.0
 40
0.9999824287044684
 41
0.0
 42
6.283185307179586
  0
SPLINE
  5
D8
330
1F
100
AcDbEntity
  8
layer 1
 62
     7
100
AcDbSpline
210
0.0
220
0.0
230
1.0
 70
    11
 71
     3
 72
    24
 73
    20
 74
     0
 42
0.0000000001
 43
0.0000000001
 12
1.0
 22
0.0
 32
0.0
 13
1.0
 23
0.0
 33
0.0
 40
0.0
 40
0.0
 40
0.0
 40
0.0
 40
0.1666666666666667
 40
0.1666666666666667
 40
0.1666666666666667
 40
0.1666666666666667
 40
0.3333333333333333
 40
0.3333333333333333
 40
0.3333333333333333
 40
0.3333333333333333
 40
0.5
 40
0.5
 40
0.5
 40
0.5
 40
0.6666666666666666
 40
0.6666666666666666
 40
0.6666666666666666
 40
0.6666666666666666
 40
1.0
 40
1.0
 40
1.0
 40
1.0
 10
-183.6425
 20
-4.4735
 30
0.0
 10
-183.6425
 20
-4.4735
 30
0.0
 10
-183.6425
 20
-22.8379
 30
0.0
 10
-183.6425
 20
-22.8379
 30
0.0
 10
-183.6425
 20
-22.8379
 30
0.0
 10
-183.6425
 20
-22.8379
 30
0.0
 10
-173.6865
 20
-22.8379
 30
0.0
 10
-173.6865
 20
-22.8379
 30
0.0
 10
-173.6865
 20
-22.8379
 30
0.0
 10
-173.6865
 20
-22.8379
 30
0.0
 10
-179.9224
 20
-19.9835
 30
0.0
 10
-179.9224
 20
-19.9835
 30
0.0
 10
-179.9224
 20
-19.9835
 30
0.0
 10
-179.9224
 20
-19.9835
 30
0.0
 10
-179.9224
 20
-4.4735
 30
0.0
 10
-179.9224
 20
-4.4735
 30
0.0
 10
-179.9224
 20
-4.4735
 30
0.0
 10
-179.9224
 20
-4.4735
 30
0.0
 10
-183.6425
 20
-4.4735
 30
0.0
 10
-183.6425
 20
-4.4735
 30
0.0
  0
SPLINE
  5
D9
330
1F
100
AcDbEntity
  8
layer 1
 62
     7
100
AcDbSpline
210
0.0
220
0.0
230
1.0
 70
    11
 71
     3
 72
    20
 73
    16
 74
     0
 42
0.0000000001
 43
0.0000000001
 12
1.0
 22
0.0
 32
0.0
 13
1.0
 23
0.0
 33
0.0
 40
0.0
 40
0.0
 40
0.0
 40
0.0
 40
0.2
 40
0.2
 40
0.2
 40
0.2
 40
0.4
 40
0.4
 40
0.4
 40
0.4
 40
0.6
 40
0.6
 40
0.6
 40
0.6
 40
1.0
 40
1.0
 40
1.0
 40
1.0
 10
-177.1892
 20
-6.459
 30
0.0
 10
-177.1892
 20
-6.459
 30
0.0
 10
-177.1892
 20
-18.1195
 30
0.0
 10
-177.1892
 20
-18.1195
 30
0.0
 10
-177.1892
 20
-18.1195
 30
0.0
 10
-177.1892
 20
-18.1195
 30
0.0
 10
-172.3138
 20
-20.3989
 30
0.0
 10
-172.3138
 20
-20.3989
 30
0.0
 10
-172.3138
 20
-20.3989
 30
0.0
 10
-172.3138
 20
-20.3989
 30
0.0
 10
-172.3138
 20
-11.2883
 30
0.0
 10
-172.3138
 20
-11.2883
 30
0.0
 10
-172.3138
 20
-11.2883
 30
0.0
 10
-172.3138
 20
-11.2883
 30
0.0
 10
-177.1892
 20
-6.459
 30
0.0
 10
-177.1892
 20
-6.459
 30
0.0
  0
SPLINE
  5
DA
330
1F
100
AcDbEntity
  8
layer 1
 62
     7
100
AcDbSpline
210
0.0
220
0.0
230
1.0
 70
    11
 71
     3
 72
    20
 73
    16
 74
     0
 42
0.0000000001
 43
0.0000000001
 12
1.0
 22
0.0
 32
0.0
 13
1.0
 23
0.0
 33
0.0
 40
0.0
 40
0.0
 40
0.0
 40
0.0
 40
0.2
 40
0.2
 40
0.2
 40
0.2
 40
0.4
 40
0.4
 40
0.4
 40
0.4
 40
0.6
 40
0.6
 40
0.6
 40
0.6
 40
1.0
 40
1.0
 40
1.0
 40
1.0
 10
-169.5483
 20
-14.1541
 30
0.0
 10
-169.5483
 20
-14.1541
 30
0.0
 10
-169.5556
 20
-21.157
 30
0.0
 10
-169.5556
 20
-21.157
 30
0.0
 10
-169.5556
 20
-21.157
 30
0.0
 10
-169.5556
 20
-21.157
 30
0.0
 10
-165.594
 20
-22.8539
 30
0.0
 10
-165.594
 20
-22.8539
 30
0.0
 10
-165.594
 20
-22.8539
 30
0.0
 10
-165.3915
 20
-21.4495
 30
0.0
 10
-164.6993
 20
-20.1469
 30
0.0
 10
-164.2157
 20
-19.4954
 30
0.0
 10
-164.2157
 20
-19.4954
 30
0.0
 10
-164.2157
 20
-19.4954
 30
0.0
 10
-169.5483
 20
-14.1541
 30
0.0
 10
-169.5483
 20
-14.1541
 30
0.0
  0
LWPOLYLINE
  5
DB
330
1F
100
AcDbEntity
  8
layer 1
 62
     7
100
AcDbPolyline
 90
        5
 70
     1
 43
0.0
 10
-134.9321
 20
-1.7496
 10
-131.2117
 20
-1.7496
 10
-131.2117
 20
1.9704
 10
-134.9321
 20
1.9704
 10
-134.9321
 20
-1.7496
  0
SPLINE
  5
DC
330
1F
100
AcDbEntity
  8
layer 1
 62
     7
100
AcDbSpline
210
0.0
220
0.0
230
1.0
 70
    11
 71
     3
 72
    24
 73
    20
 74
     0
 42
0.0000000001
 43
0.0000000001
 12
1.0
 22
0.0
 32
0.0
 13
1.0
 23
0.0
 33
0.0
 40
0.0
 40
0.0
 40
0.0
 40
0.0
 40
0.1666666666666667
 40
0.1666666666666667
 40
0.1666666666666667
 40
0.1666666666666667
 40
0.3333333333333333
 40
0.3333333333333333
 40
0.3333333333333333
 40
0.3333333333333333
 40
0.5
 40
0.5
 40
0.5
 40
0.5
 40
0.6666666666666666
 40
0.6666666666666666
 40
0.6666666666666666
 40
0.6666666666666666
 40
1.0
 40
1.0
 40
1.0
 40
1.0
 10
-137.6617
 20
1.9704
 30
0.0
 10
-137.6617
 20
1.9704
 30
0.0
 10
-156.0261
 20
1.9704
 30
0.0
 10
-156.0261
 20
1.9704
 30
0.0
 10
-156.0261
 20
1.9704
 30
0.0
 10
-156.0261
 20
1.9704
 30
0.0
 10
-156.0261
 20
-7.9856
 30
0.0
 10
-156.0261
 20
-7.9856
 30
0.0
 10
-156.0261
 20
-7.9856
 30
0.0
 10
-156.0261
 20
-7.9856
 30
0.0
 10
-153.1717
 20
-1.7497
 30
0.0
 10
-153.1717
 20
-1.7497
 30
0.0
 10
-153.1717
 20
-1.7497
 30
0.0
 10
-153.1717
 20
-1.7497
 30
0.0
 10
-137.6617
 20
-1.7497
 30
0.0
 10
-137.6617
 20
-1.7497
 30
0.0
 10
-137.6617
 20
-1.7497
 30
0.0
 10
-137.6617
 20
-1.7497
 30
0.0
 10
-137.6617
 20
1.9704
 30
0.0
 10
-137.6617
 20
1.9704
 30
0.0
  0
SPLINE
  5
DD
330
1F
100
AcDbEntity
  8
layer 1
 62
     7
100
AcDbSpline
210
0.0
220
0.0
230
1.0
 70
    11
 71
     3
 72
    20
 73
    16
 74
     0
 42
0.0000000001
 43
0.0000000001
 12
1.0
 22
0.0
 32
0.0
 13
1.0
 23
0.0
 33
0.0
 40
0.0
 40
0.0
 40
0.0
 40
0.0
 40
0.2
 40
0.2
 40
0.2
 40
0.2
 40
0.4
 40
0.4
 40
0.4
 40
0.4
 40
0.6
 40
0.6
 40
0.6
 40
0.6
 40
1.0
 40
1.0
 40
1.0
 40
1.0
 10
-139.6472
 20
-4.4829
 30
0.0
 10
-139.6472
 20
-4.4829
 30
0.0
 10
-151.3077
 20
-4.4829
 30
0.0
 10
-151.3077
 20
-4.4829
 30
0.0
 10
-151.3077
 20
-4.4829
 30
0.0
 10
-151.3077
 20
-4.4829
 30
0.0
 10
-153.5871
 20
-9.3583
 30
0.0
 10
-153.5871
 20
-9.3583
 30
0.0
 10
-153.5871
 20
-9.3583
 30
0.0
 10
-153.5871
 20
-9.3583
 30
0.0
 10
-144.4765
 20
-9.3583
 30
0.0
 10
-144.4765
 20
-9.3583
 30
0.0
 10
-144.4765
 20
-9.3583
 30
0.0
 10
-144.4765
 20
-9.3583
 30
0.0
 10
-139.6472
 20
-4.4829
 30
0.0
 10
-139.6472
 20
-4.4829
 30
0.0
  0
SPLINE
  5
DE
330
1F
100
AcDbEntity
  8
layer 1
 62
     7
100
AcDbSpline
210
0.0
220
0.0
230
1.0
 70
    11
 71
     3
 72
    20
 73
    16
 74
     0
 42
0.0000000001
 43
0.0000000001
 12
1.0
 22
0.0
 32
0.0
 13
1.0
 23
0.0
 33
0.0
 40
0.0
 40
0.0
 40
0.0
 40
0.0
 40
0.2
 40
0.2
 40
0.2
 40
0.2
 40
0.4
 40
0.4
 40
0.4
 40
0.4
 40
0.6
 40
0.6
 40
0.6
 40
0.6
 40
1.0
 40
1.0
 40
1.0
 40
1.0
 10
-147.3423
 20
-12.1238
 30
0.0
 10
-147.3423
 20
-12.1238
 30
0.0
 10
-154.3452
 20
-12.1165
 30
0.0
 10
-154.3452
 20
-12.1165
 30
0.0
 10
-154.3452
 20
-12.1165
 30
0.0
 10
-154.3452
 20
-12.1165
 30
0.0
 10
-156.0421
 20
-16.0781
 30
0.0
 10
-156.0421
 20
-16.0781
 30
0.0
 10
-156.0421
 20
-16.0781
 30
0.0
 10
-154.6377
 20
-16.2806
 30
0.0
 10
-153.3351
 20
-16.9728
 30
0.0
 10
-152.6837
 20
-17.4564
 30
0.0
 10
-152.6837
 20
-17.4564
 30
0.0
 10
-152.6837
 20
-17.4564
 30
0.0
 10
-147.3423
 20
-12.1238
 30
0.0
 10
-147.3423
 20
-12.1238
 30
0.0
  0
SPLINE
  5
DF
330
1F
100
AcDbEntity
  8
layer 1
 62
     7
100
AcDbSpline
210
0.0
220
0.0
230
1.0
 70
    11
 71
     3
 72
    24
 73
    20
 74
     0
 42
0.0000000001
 43
0.0000000001
 12
1.0
 22
0.0
 32
0.0
 13
1.0
 23
0.0
 33
0.0
 40
0.0
 40
0.0
 40
0.0
 40
0.0
 40
0.1666666666666667
 40
0.1666666666666667
 40
0.1666666666666667
 40
0.1666666666666667
 40
0.3333333333333333
 40
0.3333333333333333
 40
0.3333333333333333
 40
0.3333333333333333
 40
0.5
 40
0.5
 40
0.5
 40
0.5
 40
0.6666666666666666
 40
0.6666666666666666
 40
0.6666666666666666
 40
0.6666666666666666
 40
1.0
 40
1.0
 40
1.0
 40
1.0
 10
-131.2066
 20
-4.4735
 30
0.0
 10
-131.2066
 20
-4.4735
 30
0.0
 10
-131.2066
 20
-22.8379
 30
0.0
 10
-131.2066
 20
-22.8379
 30
0.0
 10
-131.2066
 20
-22.8379
 30
0.0
 10
-131.2066
 20
-22.8379
 30
0.0
 10
-141.1626
 20
-22.8379
 30
0.0
 10
-141.1626
 20
-22.8379
 30
0.0
 10
-141.1626
 20
-22.8379
 30
0.0
 10
-141.1626
 20
-22.8379
 30
0.0
 10
-134.9266
 20
-19.9835
 30
0.0
 10
-134.9266
 20
-19.9835
 30
0.0
 10
-134.9266
 20
-19.9835
 30
0.0
 10
-134.9266
 20
-19.9835
 30
0.0
 10
-134.9266
 20
-4.4735
 30
0.0
 10
-134.9266
 20
-4.4735
 30
0.0
 10
-134.9266
 20
-4.4735
 30
0.0
 10
-134.9266
 20
-4.4735
 30
0.0
 10
-131.2066
 20
-4.4735
 30
0.0
 10
-131.2066
 20
-4.4735
 30
0.0
  0
SPLINE
  5
E0
330
1F
100
AcDbEntity
  8
layer 1
 62
     7
100
AcDbSpline
210
0.0
220
0.0
230
1.0
 70
    11
 71
     3
 72
    20
 73
    16
 74
     0
 42
0.0000000001
 43
0.0000000001
 12
1.0
 22
0.0
 32
0.0
 13
1.0
 23
0.0
 33
0.0
 40
0.0
 40
0.0
 40
0.0
 40
0.0
 40
0.2
 40
0.2
 40
0.2
 40
0.2
 40
0.4
 40
0.4
 40
0.4
 40
0.4
 40
0.6
 40
0.6
 40
0.6
 40
0.6
 40
1.0
 40
1.0
 40
1.0
 40
1.0
 10
-137.6598
 20
-6.459
 30
0.0
 10
-137.6598
 20
-6.459
 30
0.0
 10
-137.6598
 20
-18.1195
 30
0.0
 10
-137.6598
 20
-18.1195
 30
0.0
 10
-137.6598
 20
-18.1195
 30
0.0
 10
-137.6598
 20
-18.1195
 30
0.0
 10
-142.5353
 20
-20.3989
 30
0.0
 10
-142.5353
 20
-20.3989
 30
0.0
 10
-142.5353
 20
-20.3989
 30
0.0
 10
-142.5353
 20
-20.3989
 30
0.0
 10
-142.5353
 20
-11.2883
 30
0.0
 10
-142.5353
 20
-11.2883
 30
0.0
 10
-142.5353
 20
-11.2883
 30
0.0
 10
-142.5353
 20
-11.2883
 30
0.0
 10
-137.6598
 20
-6.459
 30
0.0
 10
-137.6598
 20
-6.459
 30
0.0
  0
SPLINE
  5
E1
330
1F
100
AcDbEntity
  8
layer 1
 62
     7
100
AcDbSpline
210
0.0
220
0.0
230
1.0
 70
    11
 71
     3
 72
    20
 73
    16
 74
     0
 42
0.0000000001
 43
0.0000000001
 12
1.0
 22
0.0
 32
0.0
 13
1.0
 23
0.0
 33
0.0
 40
0.0
 40
0.0
 40
0.0
 40
0.0
 40
0.2
 40
0.2
 40
0.2
 40
0.2
 40
0.4
 40
0.4
 40
0.4
 40
0.4
 40
0.6
 40
0.6
 40
0.6
 40
0.6
 40
1.0
 40
1.0
 40
1.0
 40
1.0
 10
-145.3008
 20
-14.1541
 30
0.0
 10
-145.3008
 20
-14.1541
 30
0.0
 10
-145.2934
 20
-21.157
 30
0.0
 10
-145.2934
 20
-21.157
 30
0.0
 10
-145.2934
 20
-21.157
 30
0.0
 10
-145.2934
 20
-21.157
 30
0.0
 10
-149.2551
 20
-22.8539
 30
0.0
 10
-149.2551
 20
-22.8539
 30
0.0
 10
-149.2551
 20
-22.8539
 30
0.0
 10
-149.4576
 20
-21.4495
 30
0.0
 10
-150.1497
 20
-20.1469
 30
0.0
 10
-150.6334
 20
-19.4954
 30
0.0
 10
-150.6334
 20
-19.4954
 30
0.0
 10
-150.6334
 20
-19.4954
 30
0.0
 10
-145.3008
 20
-14.1541
 30
0.0
 10
-145.3008
 20
-14.1541
 30
0.0
  0
LWPOLYLINE
  5
E2
330
1F
100
AcDbEntity
  8
layer 1
 62
     7
100
AcDbPolyline
 90
        5
 70
     1
 43
0.0
 10
-183.6374
 20
-50.3908
 10
-179.917
 20
-50.3908
 10
-179.917
 20
-46.6708
 10
-183.6374
 20
-46.6708
 10
-183.6374
 20
-50.3908
  0
SPLINE
  5
E3
330
1F
100
AcDbEntity
  8
layer 1
 62
     7
100
AcDbSpline
210
0.0
220
0.0
230
1.0
 70
    11
 71
     3
 72
    24
 73
    20
 74
     0
 42
0.0000000001
 43
0.0000000001
 12
1.0
 22
0.0
 32
0.0
 13
1.0
 23
0.0
 33
0.0
 40
0.0
 40
0.0
 40
0.0
 40
0.0
 40
0.1666666666666667
 40
0.1666666666666667
 40
0.1666666666666667
 40
0.1666666666666667
 40
0.3333333333333333
 40
0.3333333333333333
 40
0.3333333333333333
 40
0.3333333333333333
 40
0.5
 40
0.5
 40
0.5
 40
0.5
 40
0.6666666666666666
 40
0.6666666666666666
 40
0.6666666666666666
 40
0.6666666666666666
 40
1.0
 40
1.0
 40
1.0
 40
1.0
 10
-177.1874
 20
-50.3908
 30
0.0
 10
-177.1874
 20
-50.3908
 30
0.0
 10
-158.8229
 20
-50.3908
 30
0.0
 10
-158.8229
 20
-50.3908
 30
0.0
 10
-158.8229
 20
-50.3908
 30
0.0
 10
-158.8229
 20
-50.3908
 30
0.0
 10
-158.8229
 20
-40.4347
 30
0.0
 10
-158.8229
 20
-40.4347
 30
0.0
 10
-158.8229
 20
-40.4347
 30
0.0
 10
-158.8229
 20
-40.4347
 30
0.0
 10
-161.6774
 20
-46.6707
 30
0.0
 10
-161.6774
 20
-46.6707
 30
0.0
 10
-161.6774
 20
-46.6707
 30
0.0
 10
-161.6774
 20
-46.6707
 30
0.0
 10
-177.1874
 20
-46.6707
 30
0.0
 10
-177.1874
 20
-46.6707
 30
0.0
 10
-177.1874
 20
-46.6707
 30
0.0
 10
-177.1874
 20
-46.6707
 30
0.0
 10
-177.1874
 20
-50.3908
 30
0.0
 10
-177.1874
 20
-50.3908
 30
0.0
  0
SPLINE
  5
E4
330
1F
100
AcDbEntity
  8
layer 1
 62
     7
100
AcDbSpline
210
0.0
220
0.0
230
1.0
 70
    11
 71
     3
 72
    20
 73
    16
 74
     0
 42
0.0000000001
 43
0.0000000001
 12
1.0
 22
0.0
 32
0.0
 13
1.0
 23
0.0
 33
0.0
 40
0.0
 40
0.0
 40
0.0
 40
0.0
 40
0.2
 40
0.2
 40
0.2
 40
0.2
 40
0.4
 40
0.4
 40
0.4
 40
0.4
 40
0.6
 40
0.6
 40
0.6
 40
0.6
 40
1.0
 40
1.0
 40
1.0
 40
1.0
 10
-175.2019
 20
-43.9375
 30
0.0
 10
-175.2019
 20
-43.9375
 30
0.0
 10
-163.5413
 20
-43.9375
 30
0.0
 10
-163.5413
 20
-43.9375
 30
0.0
 10
-163.5413
 20
-43.9375
 30
0.0
 10
-163.5413
 20
-43.9375
 30
0.0
 10
-161.262
 20
-39.0621
 30
0.0
 10
-161.262
 20
-39.0621
 30
0.0
 10
-161.262
 20
-39.0621
 30
0.0
 10
-161.262
 20
-39.0621
 30
0.0
 10
-170.3726
 20
-39.0621
 30
0.0
 10
-170.3726
 20
-39.0621
 30
0.0
 10
-170.3726
 20
-39.0621
 30
0.0
 10
-170.3726
 20
-39.0621
 30
0.0
 10
-175.2019
 20
-43.9375
 30
0.0
 10
-175.2019
 20
-43.9375
 30
0.0
  0
SPLINE
  5
E5
330
1F
100
AcDbEntity
  8
layer 1
 62
     7
100
AcDbSpline
210
0.0
220
0.0
230
1.0
 70
    11
 71
     3
 72
    20
 73
    16
 74
     0
 42
0.0000000001
 43
0.0000000001
 12
1.0
 22
0.0
 32
0.0
 13
1.0
 23
0.0
 33
0.0
 40
0.0
 40
0.0
 40
0.0
 40
0.0
 40
0.2
 40
0.2
 40
0.2
 40
0.2
 40
0.4
 40
0.4
 40
0.4
 40
0.4
 40
0.6
 40
0.6
 40
0.6
 40
0.6
 40
1.0
 40
1.0
 40
1.0
 40
1.0
 10
-167.5068
 20
-36.2965
 30
0.0
 10
-167.5068
 20
-36.2965
 30
0.0
 10
-160.5039
 20
-36.3039
 30
0.0
 10
-160.5039
 20
-36.3039
 30
0.0
 10
-160.5039
 20
-36.3039
 30
0.0
 10
-160.5039
 20
-36.3039
 30
0.0
 10
-158.8069
 20
-32.3423
 30
0.0
 10
-158.8069
 20
-32.3423
 30
0.0
 10
-158.8069
 20
-32.3423
 30
0.0
 10
-160.2114
 20
-32.1397
 30
0.0
 10
-161.5139
 20
-31.4476
 30
0.0
 10
-162.1654
 20
-30.9639
 30
0.0
 10
-162.1654
 20
-30.9639
 30
0.0
 10
-162.1654
 20
-30.9639
 30
0.0
 10
-167.5068
 20
-36.2965
 30
0.0
 10
-167.5068
 20
-36.2965
 30
0.0
  0
SPLINE
  5
E6
330
1F
100
AcDbEntity
  8
layer 1
 62
     7
100
AcDbSpline
210
0.0
220
0.0
230
1.0
 70
    11
 71
     3
 72
    24
 73
    20
 74
     0
 42
0.0000000001
 43
0.0000000001
 12
1.0
 22
0.0
 32
0.0
 13
1.0
 23
0.0
 33
0.0
 40
0.0
 40
0.0
 40
0.0
 40
0.0
 40
0.1666666666666667
 40
0.1666666666666667
 40
0.1666666666666667
 40
0.1666666666666667
 40
0.3333333333333333
 40
0.3333333333333333
 40
0.3333333333333333
 40
0.3333333333333333
 40
0.5
 40
0.5
 40
0.5
 40
0.5
 40
0.6666666666666666
 40
0.6666666666666666
 40
0.6666666666666666
 40
0.6666666666666666
 40
1.0
 40
1.0
 40
1.0
 40
1.0
 10
-183.6425
 20
-43.9469
 30
0.0
 10
-183.6425
 20
-43.9469
 30
0.0
 10
-183.6425
 20
-25.5825
 30
0.0
 10
-183.6425
 20
-25.5825
 30
0.0
 10
-183.6425
 20
-25.5825
 30
0.0
 10
-183.6425
 20
-25.5825
 30
0.0
 10
-173.6865
 20
-25.5825
 30
0.0
 10
-173.6865
 20
-25.5825
 30
0.0
 10
-173.6865
 20
-25.5825
 30
0.0
 10
-173.6865
 20
-25.5825
 30
0.0
 10
-179.9224
 20
-28.4369
 30
0.0
 10
-179.9224
 20
-28.4369
 30
0.0
 10
-179.9224
 20
-28.4369
 30
0.0
 10
-179.9224
 20
-28.4369
 30
0.0
 10
-179.9224
 20
-43.9469
 30
0.0
 10
-179.9224
 20
-43.9469
 30
0.0
 10
-179.9224
 20
-43.9469
 30
0.0
 10
-179.9224
 20
-43.9469
 30
0.0
 10
-183.6425
 20
-43.9469
 30
0.0
 10
-183.6425
 20
-43.9469
 30
0.0
  0
SPLINE
  5
E7
330
1F
100
AcDbEntity
  8
layer 1
 62
     7
100
AcDbSpline
210
0.0
220
0.0
230
1.0
 70
    11
 71
     3
 72
    20
 73
    16
 74
     0
 42
0.0000000001
 43
0.0000000001
 12
1.0
 22
0.0
 32
0.0
 13
1.0
 23
0.0
 33
0.0
 40
0.0
 40
0.0
 40
0.0
 40
0.0
 40
0.2
 40
0.2
 40
0.2
 40
0.2
 40
0.4
 40
0.4
 40
0.4
 40
0.4
 40
0.6
 40
0.6
 40
0.6
 40
0.6
 40
1.0
 40
1.0
 40
1.0
 40
1.0
 10
-177.1892
 20
-41.9614
 30
0.0
 10
-177.1892
 20
-41.9614
 30
0.0
 10
-177.1892
 20
-30.3009
 30
0.0
 10
-177.1892
 20
-30.3009
 30
0.0
 10
-177.1892
 20
-30.3009
 30
0.0
 10
-177.1892
 20
-30.3009
 30
0.0
 10
-172.3138
 20
-28.0215
 30
0.0
 10
-172.3138
 20
-28.0215
 30
0.0
 10
-172.3138
 20
-28.0215
 30
0.0
 10
-172.3138
 20
-28.0215
 30
0.0
 10
-172.3138
 20
-37.1321
 30
0.0
 10
-172.3138
 20
-37.1321
 30
0.0
 10
-172.3138
 20
-37.1321
 30
0.0
 10
-172.3138
 20
-37.1321
 30
0.0
 10
-177.1892
 20
-41.9614
 30
0.0
 10
-177.1892
 20
-41.9614
 30
0.0
  0
SPLINE
  5
E8
330
1F
100
AcDbEntity
  8
layer 1
 62
     7
100
AcDbSpline
210
0.0
220
0.0
230
1.0
 70
    11
 71
     3
 72
    20
 73
    16
 74
     0
 42
0.0000000001
 43
0.0000000001
 12
1.0
 22
0.0
 32
0.0
 13
1.0
 23
0.0
 33
0.0
 40
0.0
 40
0.0
 40
0.0
 40
0.0
 40
0.2
 40
0.2
 40
0.2
 40
0.2
 40
0.4
 40
0.4
 40
0.4
 40
0.4
 40
0.6
 40
0.6
 40
0.6
 40
0.6
 40
1.0
 40
1.0
 40
1.0
 40
1.0
 10
-169.5483
 20
-34.2663
 30
0.0
 10
-169.5483
 20
-34.2663
 30
0.0
 10
-169.5556
 20
-27.2634
 30
0.0
 10
-169.5556
 20
-27.2634
 30
0.0
 10
-169.5556
 20
-27.2634
 30
0.0
 10
-169.5556
 20
-27.2634
 30
0.0
 10
-165.594
 20
-25.5665
 30
0.0
 10
-165.594
 20
-25.5665
 30
0.0
 10
-165.594
 20
-25.5665
 30
0.0
 10
-165.3915
 20
-26.9709
 30
0.0
 10
-164.6993
 20
-28.2735
 30
0.0
 10
-164.2157
 20
-28.9249
 30
0.0
 10
-164.2157
 20
-28.9249
 30
0.0
 10
-164.2157
 20
-28.9249
 30
0.0
 10
-169.5483
 20
-34.2663
 30
0.0
 10
-169.5483
 20
-34.2663
 30
0.0
  0
SPLINE
  5
E9
330
1F
100
AcDbEntity
  8
layer 1
 62
     7
100
AcDbSpline
210
0.0
220
0.0
230
1.0
 70
    11
 71
     3
 72
    20
 73
    16
 74
     0
 42
0.0000000001
 43
0.0000000001
 12
1.0
 22
0.0
 32
0.0
 13
1.0
 23
0.0
 33
0.0
 40
0.0
 40
0.0
 40
0.0
 40
0.0
 40
0.2
 40
0.2
 40
0.2
 40
0.2
 40
0.4
 40
0.4
 40
0.4
 40
0.4
 40
0.6
 40
0.6
 40
0.6
 40
0.6
 40
1.0
 40
1.0
 40
1.0
 40
1.0
 10
-131.2117
 20
-50.3908
 30
0.0
 10
-131.2117
 20
-50.3908
 30
0.0
 10
-134.9321
 20
-50.3908
 30
0.0
 10
-134.9321
 20
-50.3908
 30
0.0
 10
-134.9321
 20
-50.3908
 30
0.0
 10
-134.9321
 20
-50.3908
 30
0.0
 10
-134.9321
 20
-46.6707
 30
0.0
 10
-134.9321
 20
-46.6707
 30
0.0
 10
-134.9321
 20
-46.6707
 30
0.0
 10
-134.9321
 20
-46.6707
 30
0.0
 10
-131.2117
 20
-46.6707
 30
0.0
 10
-131.2117
 20
-46.6707
 30
0.0
 10
-131.2117
 20
-46.6707
 30
0.0
 10
-131.2117
 20
-46.6707
 30
0.0
 10
-131.2117
 20
-50.3908
 30
0.0
 10
-131.2117
 20
-50.3908
 30
0.0
  0
SPLINE
  5
EA
330
1F
100
AcDbEntity
  8
layer 1
 62
     7
100
AcDbSpline
210
0.0
220
0.0
230
1.0
 70
    11
 71
     3
 72
    24
 73
    20
 74
     0
 42
0.0000000001
 43
0.0000000001
 12
1.0
 22
0.0
 32
0.0
 13
1.0
 23
0.0
 33
0.0
 40
0.0
 40
0.0
 40
0.0
 40
0.0
 40
0.1666666666666667
 40
0.1666666666666667
 40
0.1666666666666667
 40
0.1666666666666667
 40
0.3333333333333333
 40
0.3333333333333333
 40
0.3333333333333333
 40
0.3333333333333333
 40
0.5
 40
0.5
 40
0.5
 40
0.5
 40
0.6666666666666666
 40
0.6666666666666666
 40
0.6666666666666666
 40
0.6666666666666666
 40
1.0
 40
1.0
 40
1.0
 40
1.0
 10
-137.6617
 20
-50.3908
 30
0.0
 10
-137.6617
 20
-50.3908
 30
0.0
 10
-156.0261
 20
-50.3908
 30
0.0
 10
-156.0261
 20
-50.3908
 30
0.0
 10
-156.0261
 20
-50.3908
 30
0.0
 10
-156.0261
 20
-50.3908
 30
0.0
 10
-156.0261
 20
-40.4347
 30
0.0
 10
-156.0261
 20
-40.4347
 30
0.0
 10
-156.0261
 20
-40.4347
 30
0.0
 10
-156.0261
 20
-40.4347
 30
0.0
 10
-153.1717
 20
-46.6707
 30
0.0
 10
-153.1717
 20
-46.6707
 30
0.0
 10
-153.1717
 20
-46.6707
 30
0.0
 10
-153.1717
 20
-46.6707
 30
0.0
 10
-137.6617
 20
-46.6707
 30
0.0
 10
-137.6617
 20
-46.6707
 30
0.0
 10
-137.6617
 20
-46.6707
 30
0.0
 10
-137.6617
 20
-46.6707
 30
0.0
 10
-137.6617
 20
-50.3908
 30
0.0
 10
-137.6617
 20
-50.3908
 30
0.0
  0
SPLINE
  5
EB
330
1F
100
AcDbEntity
  8
layer 1
 62
     7
100
AcDbSpline
210
0.0
220
0.0
230
1.0
 70
    11
 71
     3
 72
    20
 73
    16
 74
     0
 42
0.0000000001
 43
0.0000000001
 12
1.0
 22
0.0
 32
0.0
 13
1.0
 23
0.0
 33
0.0
 40
0.0
 40
0.0
 40
0.0
 40
0.0
 40
0.2
 40
0.2
 40
0.2
 40
0.2
 40
0.4
 40
0.4
 40
0.4
 40
0.4
 40
0.6
 40
0.6
 40
0.6
 40
0.6
 40
1.0
 40
1.0
 40
1.0
 40
1.0
 10
-139.6472
 20
-43.9375
 30
0.0
 10
-139.6472
 20
-43.9375
 30
0.0
 10
-151.3077
 20
-43.9375
 30
0.0
 10
-151.3077
 20
-43.9375
 30
0.0
 10
-151.3077
 20
-43.9375
 30
0.0
 10
-151.3077
 20
-43.9375
 30
0.0
 10
-153.5871
 20
-39.0621
 30
0.0
 10
-153.5871
 20
-39.0621
 30
0.0
 10
-153.5871
 20
-39.0621
 30
0.0
 10
-153.5871
 20
-39.0621
 30
0.0
 10
-144.4765
 20
-39.0621
 30
0.0
 10
-144.4765
 20
-39.0621
 30
0.0
 10
-144.4765
 20
-39.0621
 30
0.0
 10
-144.4765
 20
-39.0621
 30
0.0
 10
-139.6472
 20
-43.9375
 30
0.0
 10
-139.6472
 20
-43.9375
 30
0.0
  0
SPLINE
  5
EC
330
1F
100
AcDbEntity
  8
layer 1
 62
     7
100
AcDbSpline
210
0.0
220
0.0
230
1.0
 70
    11
 71
     3
 72
    20
 73
    16
 74
     0
 42
0.0000000001
 43
0.0000000001
 12
1.0
 22
0.0
 32
0.0
 13
1.0
 23
0.0
 33
0.0
 40
0.0
 40
0.0
 40
0.0
 40
0.0
 40
0.2
 40
0.2
 40
0.2
 40
0.2
 40
0.4
 40
0.4
 40
0.4
 40
0.4
 40
0.6
 40
0.6
 40
0.6
 40
0.6
 40
1.0
 40
1.0
 40
1.0
 40
1.0
 10
-147.3423
 20
-36.2965
 30
0.0
 10
-147.3423
 20
-36.2965
 30
0.0
 10
-154.3452
 20
-36.3039
 30
0.0
 10
-154.3452
 20
-36.3039
 30
0.0
 10
-154.3452
 20
-36.3039
 30
0.0
 10
-154.3452
 20
-36.3039
 30
0.0
 10
-156.0421
 20
-32.3423
 30
0.0
 10
-156.0421
 20
-32.3423
 30
0.0
 10
-156.0421
 20
-32.3423
 30
0.0
 10
-154.6377
 20
-32.1397
 30
0.0
 10
-153.3351
 20
-31.4476
 30
0.0
 10
-152.6837
 20
-30.9639
 30
0.0
 10
-152.6837
 20
-30.9639
 30
0.0
 10
-152.6837
 20
-30.9639
 30
0.0
 10
-147.3423
 20
-36.2965
 30
0.0
 10
-147.3423
 20
-36.2965
 30
0.0
  0
SPLINE
  5
ED
330
1F
100
AcDbEntity
  8
layer 1
 62
     7
100
AcDbSpline
210
0.0
220
0.0
230
1.0
 70
    11
 71
     3
 72
    24
 73
    20
 74
     0
 42
0.0000000001
 43
0.0000000001
 12
1.0
 22
0.0
 32
0.0
 13
1.0
 23
0.0
 33
0.0
 40
0.0
 40
0.0
 40
0.0
 40
0.0
 40
0.1666666666666667
 40
0.1666666666666667
 40
0.1666666666666667
 40
0.1666666666666667
 40
0.3333333333333333
 40
0.3333333333333333
 40
0.3333333333333333
 40
0.3333333333333333
 40
0.5
 40
0.5
 40
0.5
 40
0.5
 40
0.6666666666666666
 40
0.6666666666666666
 40
0.6666666666666666
 40
0.6666666666666666
 40
1.0
 40
1.0
 40
1.0
 40
1.0
 10
-131.2066
 20
-43.9469
 30
0.0
 10
-131.2066
 20
-43.9469
 30
0.0
 10
-131.2066
 20
-25.5825
 30
0.0
 10
-131.2066
 20
-25.5825
 30
0.0
 10
-131.2066
 20
-25.5825
 30
0.0
 10
-131.2066
 20
-25.5825
 30
0.0
 10
-141.1626
 20
-25.5825
 30
0.0
 10
-141.1626
 20
-25.5825
 30
0.0
 10
-141.1626
 20
-25.5825
 30
0.0
 10
-141.1626
 20
-25.5825
 30
0.0
 10
-134.9266
 20
-28.4369
 30
0.0
 10
-134.9266
 20
-28.4369
 30
0.0
 10
-134.9266
 20
-28.4369
 30
0.0
 10
-134.9266
 20
-28.4369
 30
0.0
 10
-134.9266
 20
-43.9469
 30
0.0
 10
-134.9266
 20
-43.9469
 30
0.0
 10
-134.9266
 20
-43.9469
 30
0.0
 10
-134.9266
 20
-43.9469
 30
0.0
 10
-131.2066
 20
-43.9469
 30
0.0
 10
-131.2066
 20
-43.9469
 30
0.0
  0
SPLINE
  5
EE
330
1F
100
AcDbEntity
  8
layer 1
 62
     7
100
AcDbSpline
210
0.0
220
0.0
230
1.0
 70
    11
 71
     3
 72
    20
 73
    16
 74
     0
 42
0.0000000001
 43
0.0000000001
 12
1.0
 22
0.0
 32
0.0
 13
1.0
 23
0.0
 33
0.0
 40
0.0
 40
0.0
 40
0.0
 40
0.0
 40
0.2
 40
0.2
 40
0.2
 40
0.2
 40
0.4
 40
0.4
 40
0.4
 40
0.4
 40
0.6
 40
0.6
 40
0.6
 40
0.6
 40
1.0
 40
1.0
 40
1.0
 40
1.0
 10
-137.6598
 20
-41.9614
 30
0.0
 10
-137.6598
 20
-41.9614
 30
0.0
 10
-137.6598
 20
-30.3009
 30
0.0
 10
-137.6598
 20
-30.3009
 30
0.0
 10
-137.6598
 20
-30.3009
 30
0.0
 10
-137.6598
 20
-30.3009
 30
0.0
 10
-142.5353
 20
-28.0215
 30
0.0
 10
-142.5353
 20
-28.0215
 30
0.0
 10
-142.5353
 20
-28.0215
 30
0.0
 10
-142.5353
 20
-28.0215
 30
0.0
 10
-142.5353
 20
-37.1321
 30
0.0
 10
-142.5353
 20
-37.1321
 30
0.0
 10
-142.5353
 20
-37.1321
 30
0.0
 10
-142.5353
 20
-37.1321
 30
0.0
 10
-137.6598
 20
-41.9614
 30
0.0
 10
-137.6598
 20
-41.9614
 30
0.0
  0
SPLINE
  5
EF
330
1F
100
AcDbEntity
  8
layer 1
 62
     7
100
AcDbSpline
210
0.0
220
0.0
230
1.0
 70
    11
 71
     3
 72
    20
 73
    16
 74
     0
 42
0.0000000001
 43
0.0000000001
 12
1.0
 22
0.0
 32
0.0
 13
1.0
 23
0.0
 33
0.0
 40
0.0
 40
0.0
 40
0.0
 40
0.0
 40
0.2
 40
0.2
 40
0.2
 40
0.2
 40
0.4
 40
0.4
 40
0.4
 40
0.4
 40
0.6
 40
0.6
 40
0.6
 40
0.6
 40
1.0
 40
1.0
 40
1.0
 40
1.0
 10
-145.3008
 20
-34.2663
 30
0.0
 10
-145.3008
 20
-34.2663
 30
0.0
 10
-145.2934
 20
-27.2634
 30
0.0
 10
-145.2934
 20
-27.2634
 30
0.0
 10
-145.2934
 20
-27.2634
 30
0.0
 10
-145.2934
 20
-27.2634
 30
0.0
 10
-149.2551
 20
-25.5665
 30
0.0
 10
-149.2551
 20
-25.5665
 30
0.0
 10
-149.2551
 20
-25.5665
 30
0.0
 10
-149.4576
 20
-26.9709
 30
0.0
 10
-150.1497
 20
-28.2735
 30
0.0
 10
-150.6334
 20
-28.9249
 30
0.0
 10
-150.6334
 20
-28.9249
 30
0.0
 10
-150.6334
 20
-28.9249
 30
0.0
 10
-145.3008
 20
-34.2663
 30
0.0
 10
-145.3008
 20
-34.2663
 30
0.0
  0
LWPOLYLINE
  5
F0
330
1F
100
AcDbEntity
  8
layer 1
 62
     7
100
AcDbPolyline
 90
        5
 70
     1
 43
0.0
 10
-183.594
 20
-61.2122
 10
-179.8736
 20
-61.2122
 10
-179.8736
 20
-57.4922
 10
-183.594
 20
-57.4922
 10
-183.594
 20
-61.2122
  0
SPLINE
  5
F1
330
1F
100
AcDbEntity
  8
layer 1
 62
     7
100
AcDbSpline
210
0.0
220
0.0
230
1.0
 70
    11
 71
     3
 72
    24
 73
    20
 74
     0
 42
0.0000000001
 43
0.0000000001
 12
1.0
 22
0.0
 32
0.0
 13
1.0
 23
0.0
 33
0.0
 40
0.0
 40
0.0
 40
0.0
 40
0.0
 40
0.1666666666666667
 40
0.1666666666666667
 40
0.1666666666666667
 40
0.1666666666666667
 40
0.3333333333333333
 40
0.3333333333333333
 40
0.3333333333333333
 40
0.3333333333333333
 40
0.5
 40
0.5
 40
0.5
 40
0.5
 40
0.6666666666666666
 40
0.6666666666666666
 40
0.6666666666666666
 40
0.6666666666666666
 40
1.0
 40
1.0
 40
1.0
 40
1.0
 10
-177.144
 20
-57.4922
 30
0.0
 10
-177.144
 20
-57.4922
 30
0.0
 10
-158.7795
 20
-57.4922
 30
0.0
 10
-158.7795
 20
-57.4922
 30
0.0
 10
-158.7795
 20
-57.4922
 30
0.0
 10
-158.7795
 20
-57.4922
 30
0.0
 10
-158.7795
 20
-67.4482
 30
0.0
 10
-158.7795
 20
-67.4482
 30
0.0
 10
-158.7795
 20
-67.4482
 30
0.0
 10
-158.7795
 20
-67.4482
 30
0.0
 10
-161.634
 20
-61.2122
 30
0.0
 10
-161.634
 20
-61.2122
 30
0.0
 10
-161.634
 20
-61.2122
 30
0.0
 10
-161.634
 20
-61.2122
 30
0.0
 10
-177.144
 20
-61.2122
 30
0.0
 10
-177.144
 20
-61.2122
 30
0.0
 10
-177.144
 20
-61.2122
 30
0.0
 10
-177.144
 20
-61.2122
 30
0.0
 10
-177.144
 20
-57.4922
 30
0.0
 10
-177.144
 20
-57.4922
 30
0.0
  0
SPLINE
  5
F2
330
1F
100
AcDbEntity
  8
layer 1
 62
     7
100
AcDbSpline
210
0.0
220
0.0
230
1.0
 70
    11
 71
     3
 72
    20
 73
    16
 74
     0
 42
0.0000000001
 43
0.0000000001
 12
1.0
 22
0.0
 32
0.0
 13
1.0
 23
0.0
 33
0.0
 40
0.0
 40
0.0
 40
0.0
 40
0.0
 40
0.2
 40
0.2
 40
0.2
 40
0.2
 40
0.4
 40
0.4
 40
0.4
 40
0.4
 40
0.6
 40
0.6
 40
0.6
 40
0.6
 40
1.0
 40
1.0
 40
1.0
 40
1.0
 10
-175.1585
 20
-63.9454
 30
0.0
 10
-175.1585
 20
-63.9454
 30
0.0
 10
-163.498
 20
-63.9454
 30
0.0
 10
-163.498
 20
-63.9454
 30
0.0
 10
-163.498
 20
-63.9454
 30
0.0
 10
-163.498
 20
-63.9454
 30
0.0
 10
-161.2186
 20
-68.8209
 30
0.0
 10
-161.2186
 20
-68.8209
 30
0.0
 10
-161.2186
 20
-68.8209
 30
0.0
 10
-161.2186
 20
-68.8209
 30
0.0
 10
-170.3292
 20
-68.8209
 30
0.0
 10
-170.3292
 20
-68.8209
 30
0.0
 10
-170.3292
 20
-68.8209
 30
0.0
 10
-170.3292
 20
-68.8209
 30
0.0
 10
-175.1585
 20
-63.9454
 30
0.0
 10
-175.1585
 20
-63.9454
 30
0.0
  0
SPLINE
  5
F3
330
1F
100
AcDbEntity
  8
layer 1
 62
     7
100
AcDbSpline
210
0.0
220
0.0
230
1.0
 70
    11
 71
     3
 72
    20
 73
    16
 74
     0
 42
0.0000000001
 43
0.0000000001
 12
1.0
 22
0.0
 32
0.0
 13
1.0
 23
0.0
 33
0.0
 40
0.0
 40
0.0
 40
0.0
 40
0.0
 40
0.2
 40
0.2
 40
0.2
 40
0.2
 40
0.4
 40
0.4
 40
0.4
 40
0.4
 40
0.6
 40
0.6
 40
0.6
 40
0.6
 40
1.0
 40
1.0
 40
1.0
 40
1.0
 10
-167.4634
 20
-71.5864
 30
0.0
 10
-167.4634
 20
-71.5864
 30
0.0
 10
-160.4605
 20
-71.579
 30
0.0
 10
-160.4605
 20
-71.579
 30
0.0
 10
-160.4605
 20
-71.579
 30
0.0
 10
-160.4605
 20
-71.579
 30
0.0
 10
-158.7636
 20
-75.5407
 30
0.0
 10
-158.7636
 20
-75.5407
 30
0.0
 10
-158.7636
 20
-75.5407
 30
0.0
 10
-160.168
 20
-75.7432
 30
0.0
 10
-161.4706
 20
-76.4353
 30
0.0
 10
-162.122
 20
-76.919
 30
0.0
 10
-162.122
 20
-76.919
 30
0.0
 10
-162.122
 20
-76.919
 30
0.0
 10
-167.4634
 20
-71.5864
 30
0.0
 10
-167.4634
 20
-71.5864
 30
0.0
  0
ELLIPSE
  5
F4
330
1F
100
AcDbEntity
  8
layer 1
 62
     7
100
AcDbEllipse
 10
-157.3968
 20
-83.6832
 30
0.0
 11
5.6911
 21
0.0
 31
0.0
210
0.0
220
0.0
230
1.0
 40
0.9999824287044684
 41
0.0
 42
6.283185307179586
  0
SPLINE
  5
F5
330
1F
100
AcDbEntity
  8
layer 1
 62
     7
100
AcDbSpline
210
0.0
220
0.0
230
1.0
 70
    11
 71
     3
 72
    24
 73
    20
 74
     0
 42
0.0000000001
 43
0.0000000001
 12
1.0
 22
0.0
 32
0.0
 13
1.0
 23
0.0
 33
0.0
 40
0.0
 40
0.0
 40
0.0
 40
0.0
 40
0.1666666666666667
 40
0.1666666666666667
 40
0.1666666666666667
 40
0.1666666666666667
 40
0.3333333333333333
 40
0.3333333333333333
 40
0.3333333333333333
 40
0.3333333333333333
 40
0.5
 40
0.5
 40
0.5
 40
0.5
 40
0.6666666666666666
 40
0.6666666666666666
 40
0.6666666666666666
 40
0.6666666666666666
 40
1.0
 40
1.0
 40
1.0
 40
1.0
 10
-183.5991
 20
-63.936
 30
0.0
 10
-183.5991
 20
-63.936
 30
0.0
 10
-183.5991
 20
-82.3005
 30
0.0
 10
-183.5991
 20
-82.3005
 30
0.0
 10
-183.5991
 20
-82.3005
 30
0.0
 10
-183.5991
 20
-82.3005
 30
0.0
 10
-173.6431
 20
-82.3005
 30
0.0
 10
-173.6431
 20
-82.3005
 30
0.0
 10
-173.6431
 20
-82.3005
 30
0.0
 10
-173.6431
 20
-82.3005
 30
0.0
 10
-179.879
 20
-79.446
 30
0.0
 10
-179.879
 20
-79.446
 30
0.0
 10
-179.879
 20
-79.446
 30
0.0
 10
-179.879
 20
-79.446
 30
0.0
 10
-179.879
 20
-63.936
 30
0.0
 10
-179.879
 20
-63.936
 30
0.0
 10
-179.879
 20
-63.936
 30
0.0
 10
-179.879
 20
-63.936
 30
0.0
 10
-183.5991
 20
-63.936
 30
0.0
 10
-183.5991
 20
-63.936
 30
0.0
  0
SPLINE
  5
F6
330
1F
100
AcDbEntity
  8
layer 1
 62
     7
100
AcDbSpline
210
0.0
220
0.0
230
1.0
 70
    11
 71
     3
 72
    20
 73
    16
 74
     0
 42
0.0000000001
 43
0.0000000001
 12
1.0
 22
0.0
 32
0.0
 13
1.0
 23
0.0
 33
0.0
 40
0.0
 40
0.0
 40
0.0
 40
0.0
 40
0.2
 40
0.2
 40
0.2
 40
0.2
 40
0.4
 40
0.4
 40
0.4
 40
0.4
 40
0.6
 40
0.6
 40
0.6
 40
0.6
 40
1.0
 40
1.0
 40
1.0
 40
1.0
 10
-177.1459
 20
-65.9215
 30
0.0
 10
-177.1459
 20
-65.9215
 30
0.0
 10
-177.1459
 20
-77.5821
 30
0.0
 10
-177.1459
 20
-77.5821
 30
0.0
 10
-177.1459
 20
-77.5821
 30
0.0
 10
-177.1459
 20
-77.5821
 30
0.0
 10
-172.2704
 20
-79.8614
 30
0.0
 10
-172.2704
 20
-79.8614
 30
0.0
 10
-172.2704
 20
-79.8614
 30
0.0
 10
-172.2704
 20
-79.8614
 30
0.0
 10
-172.2704
 20
-70.7508
 30
0.0
 10
-172.2704
 20
-70.7508
 30
0.0
 10
-172.2704
 20
-70.7508
 30
0.0
 10
-172.2704
 20
-70.7508
 30
0.0
 10
-177.1459
 20
-65.9215
 30
0.0
 10
-177.1459
 20
-65.9215
 30
0.0
  0
SPLINE
  5
F7
330
1F
100
AcDbEntity
  8
layer 1
 62
     7
100
AcDbSpline
210
0.0
220
0.0
230
1.0
 70
    11
 71
     3
 72
    20
 73
    16
 74
     0
 42
0.0000000001
 43
0.0000000001
 12
1.0
 22
0.0
 32
0.0
 13
1.0
 23
0.0
 33
0.0
 40
0.0
 40
0.0
 40
0.0
 40
0.0
 40
0.2
 40
0.2
 40
0.2
 40
0.2
 40
0.4
 40
0.4
 40
0.4
 40
0.4
 40
0.6
 40
0.6
 40
0.6
 40
0.6
 40
1.0
 40
1.0
 40
1.0
 40
1.0
 10
-169.5049
 20
-73.6166
 30
0.0
 10
-169.5049
 20
-73.6166
 30
0.0
 10
-169.5122
 20
-80.6195
 30
0.0
 10
-169.5122
 20
-80.6195
 30
0.0
 10
-169.5122
 20
-80.6195
 30
0.0
 10
-169.5122
 20
-80.6195
 30
0.0
 10
-165.5506
 20
-82.3164
 30
0.0
 10
-165.5506
 20
-82.3164
 30
0.0
 10
-165.5506
 20
-82.3164
 30
0.0
 10
-165.3481
 20
-80.912
 30
0.0
 10
-164.656
 20
-79.6095
 30
0.0
 10
-164.1723
 20
-78.958
 30
0.0
 10
-164.1723
 20
-78.958
 30
0.0
 10
-164.1723
 20
-78.958
 30
0.0
 10
-169.5049
 20
-73.6166
 30
0.0
 10
-169.5049
 20
-73.6166
 30
0.0
  0
LWPOLYLINE
  5
F8
330
1F
100
AcDbEntity
  8
layer 1
 62
     7
100
AcDbPolyline
 90
        5
 70
     1
 43
0.0
 10
-134.8887
 20
-61.2122
 10
-131.1683
 20
-61.2122
 10
-131.1683
 20
-57.4922
 10
-134.8887
 20
-57.4922
 10
-134.8887
 20
-61.2122
  0
SPLINE
  5
F9
330
1F
100
AcDbEntity
  8
layer 1
 62
     7
100
AcDbSpline
210
0.0
220
0.0
230
1.0
 70
    11
 71
     3
 72
    24
 73
    20
 74
     0
 42
0.0000000001
 43
0.0000000001
 12
1.0
 22
0.0
 32
0.0
 13
1.0
 23
0.0
 33
0.0
 40
0.0
 40
0.0
 40
0.0
 40
0.0
 40
0.1666666666666667
 40
0.1666666666666667
 40
0.1666666666666667
 40
0.1666666666666667
 40
0.3333333333333333
 40
0.3333333333333333
 40
0.3333333333333333
 40
0.3333333333333333
 40
0.5
 40
0.5
 40
0.5
 40
0.5
 40
0.6666666666666666
 40
0.6666666666666666
 40
0.6666666666666666
 40
0.6666666666666666
 40
1.0
 40
1.0
 40
1.0
 40
1.0
 10
-137.6183
 20
-57.4922
 30
0.0
 10
-137.6183
 20
-57.4922
 30
0.0
 10
-155.9828
 20
-57.4922
 30
0.0
 10
-155.9828
 20
-57.4922
 30
0.0
 10
-155.9828
 20
-57.4922
 30
0.0
 10
-155.9828
 20
-57.4922
 30
0.0
 10
-155.9828
 20
-67.4482
 30
0.0
 10
-155.9828
 20
-67.4482
 30
0.0
 10
-155.9828
 20
-67.4482
 30
0.0
 10
-155.9828
 20
-67.4482
 30
0.0
 10
-153.1283
 20
-61.2122
 30
0.0
 10
-153.1283
 20
-61.2122
 30
0.0
 10
-153.1283
 20
-61.2122
 30
0.0
 10
-153.1283
 20
-61.2122
 30
0.0
 10
-137.6183
 20
-61.2122
 30
0.0
 10
-137.6183
 20
-61.2122
 30
0.0
 10
-137.6183
 20
-61.2122
 30
0.0
 10
-137.6183
 20
-61.2122
 30
0.0
 10
-137.6183
 20
-57.4922
 30
0.0
 10
-137.6183
 20
-57.4922
 30
0.0
  0
SPLINE
  5
FA
330
1F
100
AcDbEntity
  8
layer 1
 62
     7
100
AcDbSpline
210
0.0
220
0.0
230
1.0
 70
    11
 71
     3
 72
    20
 73
    16
 74
     0
 42
0.0000000001
 43
0.0000000001
 12
1.0
 22
0.0
 32
0.0
 13
1.0
 23
0.0
 33
0.0
 40
0.0
 40
0.0
 40
0.0
 40
0.0
 40
0.2
 40
0.2
 40
0.2
 40
0.2
 40
0.4
 40
0.4
 40
0.4
 40
0.4
 40
0.6
 40
0.6
 40
0.6
 40
0.6
 40
1.0
 40
1.0
 40
1.0
 40
1.0
 10
-139.6038
 20
-63.9454
 30
0.0
 10
-139.6038
 20
-63.9454
 30
0.0
 10
-151.2644
 20
-63.9454
 30
0.0
 10
-151.2644
 20
-63.9454
 30
0.0
 10
-151.2644
 20
-63.9454
 30
0.0
 10
-151.2644
 20
-63.9454
 30
0.0
 10
-153.5437
 20
-68.8209
 30
0.0
 10
-153.5437
 20
-68.8209
 30
0.0
 10
-153.5437
 20
-68.8209
 30
0.0
 10
-153.5437
 20
-68.8209
 30
0.0
 10
-144.4331
 20
-68.8209
 30
0.0
 10
-144.4331
 20
-68.8209
 30
0.0
 10
-144.4331
 20
-68.8209
 30
0.0
 10
-144.4331
 20
-68.8209
 30
0.0
 10
-139.6038
 20
-63.9454
 30
0.0
 10
-139.6038
 20
-63.9454
 30
0.0
  0
SPLINE
  5
FB
330
1F
100
AcDbEntity
  8
layer 1
 62
     7
100
AcDbSpline
210
0.0
220
0.0
230
1.0
 70
    11
 71
     3
 72
    20
 73
    16
 74
     0
 42
0.0000000001
 43
0.0000000001
 12
1.0
 22
0.0
 32
0.0
 13
1.0
 23
0.0
 33
0.0
 40
0.0
 40
0.0
 40
0.0
 40
0.0
 40
0.2
 40
0.2
 40
0.2
 40
0.2
 40
0.4
 40
0.4
 40
0.4
 40
0.4
 40
0.6
 40
0.6
 40
0.6
 40
0.6
 40
1.0
 40
1.0
 40
1.0
 40
1.0
 10
-147.2989
 20
-71.5864
 30
0.0
 10
-147.2989
 20
-71.5864
 30
0.0
 10
-154.3018
 20
-71.579
 30
0.0
 10
-154.3018
 20
-71.579
 30
0.0
 10
-154.3018
 20
-71.579
 30
0.0
 10
-154.3018
 20
-71.579
 30
0.0
 10
-155.9988
 20
-75.5407
 30
0.0
 10
-155.9988
 20
-75.5407
 30
0.0
 10
-155.9988
 20
-75.5407
 30
0.0
 10
-154.5943
 20
-75.7432
 30
0.0
 10
-153.2918
 20
-76.4353
 30
0.0
 10
-152.6403
 20
-76.919
 30
0.0
 10
-152.6403
 20
-76.919
 30
0.0
 10
-152.6403
 20
-76.919
 30
0.0
 10
-147.2989
 20
-71.5864
 30
0.0
 10
-147.2989
 20
-71.5864
 30
0.0
  0
SPLINE
  5
FC
330
1F
100
AcDbEntity
  8
layer 1
 62
     7
100
AcDbSpline
210
0.0
220
0.0
230
1.0
 70
    11
 71
     3
 72
    24
 73
    20
 74
     0
 42
0.0000000001
 43
0.0000000001
 12
1.0
 22
0.0
 32
0.0
 13
1.0
 23
0.0
 33
0.0
 40
0.0
 40
0.0
 40
0.0
 40
0.0
 40
0.1666666666666667
 40
0.1666666666666667
 40
0.1666666666666667
 40
0.1666666666666667
 40
0.3333333333333333
 40
0.3333333333333333
 40
0.3333333333333333
 40
0.3333333333333333
 40
0.5
 40
0.5
 40
0.5
 40
0.5
 40
0.6666666666666666
 40
0.6666666666666666
 40
0.6666666666666666
 40
0.6666666666666666
 40
1.0
 40
1.0
 40
1.0
 40
1.0
 10
-131.1632
 20
-63.936
 30
0.0
 10
-131.1632
 20
-63.936
 30
0.0
 10
-131.1632
 20
-82.3005
 30
0.0
 10
-131.1632
 20
-82.3005
 30
0.0
 10
-131.1632
 20
-82.3005
 30
0.0
 10
-131.1632
 20
-82.3005
 30
0.0
 10
-141.1192
 20
-82.3005
 30
0.0
 10
-141.1192
 20
-82.3005
 30
0.0
 10
-141.1192
 20
-82.3005
 30
0.0
 10
-141.1192
 20
-82.3005
 30
0.0
 10
-134.8833
 20
-79.446
 30
0.0
 10
-134.8833
 20
-79.446
 30
0.0
 10
-134.8833
 20
-79.446
 30
0.0
 10
-134.8833
 20
-79.446
 30
0.0
 10
-134.8833
 20
-63.936
 30
0.0
 10
-134.8833
 20
-63.936
 30
0.0
 10
-134.8833
 20
-63.936
 30
0.0
 10
-134.8833
 20
-63.936
 30
0.0
 10
-131.1632
 20
-63.936
 30
0.0
 10
-131.1632
 20
-63.936
 30
0.0
  0
SPLINE
  5
FD
330
1F
100
AcDbEntity
  8
layer 1
 62
     7
100
AcDbSpline
210
0.0
220
0.0
230
1.0
 70
    11
 71
     3
 72
    20
 73
    16
 74
     0
 42
0.0000000001
 43
0.0000000001
 12
1.0
 22
0.0
 32
0.0
 13
1.0
 23
0.0
 33
0.0
 40
0.0
 40
0.0
 40
0.0
 40
0.0
 40
0.2
 40
0.2
 40
0.2
 40
0.2
 40
0.4
 40
0.4
 40
0.4
 40
0.4
 40
0.6
 40
0.6
 40
0.6
 40
0.6
 40
1.0
 40
1.0
 40
1.0
 40
1.0
 10
-137.6165
 20
-65.9215
 30
0.0
 10
-137.6165
 20
-65.9215
 30
0.0
 10
-137.6165
 20
-77.5821
 30
0.0
 10
-137.6165
 20
-77.5821
 30
0.0
 10
-137.6165
 20
-77.5821
 30
0.0
 10
-137.6165
 20
-77.5821
 30
0.0
 10
-142.4919
 20
-79.8614
 30
0.0
 10
-142.4919
 20
-79.8614
 30
0.0
 10
-142.4919
 20
-79.8614
 30
0.0
 10
-142.4919
 20
-79.8614
 30
0.0
 10
-142.4919
 20
-70.7508
 30
0.0
 10
-142.4919
 20
-70.7508
 30
0.0
 10
-142.4919
 20
-70.7508
 30
0.0
 10
-142.4919
 20
-70.7508
 30
0.0
 10
-137.6165
 20
-65.9215
 30
0.0
 10
-137.6165
 20
-65.9215
 30
0.0
  0
SPLINE
  5
FE
330
1F
100
AcDbEntity
  8
layer 1
 62
     7
100
AcDbSpline
210
0.0
220
0.0
230
1.0
 70
    11
 71
     3
 72
    20
 73
    16
 74
     0
 42
0.0000000001
 43
0.0000000001
 12
1.0
 22
0.0
 32
0.0
 13
1.0
 23
0.0
 33
0.0
 40
0.0
 40
0.0
 40
0.0
 40
0.0
 40
0.2
 40
0.2
 40
0.2
 40
0.2
 40
0.4
 40
0.4
 40
0.4
 40
0.4
 40
0.6
 40
0.6
 40
0.6
 40
0.6
 40
1.0
 40
1.0
 40
1.0
 40
1.0
 10
-145.2574
 20
-73.6166
 30
0.0
 10
-145.2574
 20
-73.6166
 30
0.0
 10
-145.2501
 20
-80.6195
 30
0.0
 10
-145.2501
 20
-80.6195
 30
0.0
 10
-145.2501
 20
-80.6195
 30
0.0
 10
-145.2501
 20
-80.6195
 30
0.0
 10
-149.2117
 20
-82.3164
 30
0.0
 10
-149.2117
 20
-82.3164
 30
0.0
 10
-149.2117
 20
-82.3164
 30
0.0
 10
-149.4142
 20
-80.912
 30
0.0
 10
-150.1063
 20
-79.6095
 30
0.0
 10
-150.59
 20
-78.958
 30
0.0
 10
-150.59
 20
-78.958
 30
0.0
 10
-150.59
 20
-78.958
 30
0.0
 10
-145.2574
 20
-73.6166
 30
0.0
 10
-145.2574
 20
-73.6166
 30
0.0
  0
LWPOLYLINE
  5
FF
330
1F
100
AcDbEntity
  8
layer 1
 62
     7
100
AcDbPolyline
 90
        5
 70
     1
 43
0.0
 10
-183.594
 20
-109.8533
 10
-179.8736
 20
-109.8533
 10
-179.8736
 20
-106.1333
 10
-183.594
 20
-106.1333
 10
-183.594
 20
-109.8533
  0
SPLINE
  5
100
330
1F
100
AcDbEntity
  8
layer 1
 62
     7
100
AcDbSpline
210
0.0
220
0.0
230
1.0
 70
    11
 71
     3
 72
    24
 73
    20
 74
     0
 42
0.0000000001
 43
0.0000000001
 12
1.0
 22
0.0
 32
0.0
 13
1.0
 23
0.0
 33
0.0
 40
0.0
 40
0.0
 40
0.0
 40
0.0
 40
0.1666666666666667
 40
0.1666666666666667
 40
0.1666666666666667
 40
0.1666666666666667
 40
0.3333333333333333
 40
0.3333333333333333
 40
0.3333333333333333
 40
0.3333333333333333
 40
0.5
 40
0.5
 40
0.5
 40
0.5
 40
0.6666666666666666
 40
0.6666666666666666
 40
0.6666666666666666
 40
0.6666666666666666
 40
1.0
 40
1.0
 40
1.0
 40
1.0
 10
-177.144
 20
-109.8533
 30
0.0
 10
-177.144
 20
-109.8533
 30
0.0
 10
-158.7795
 20
-109.8533
 30
0.0
 10
-158.7795
 20
-109.8533
 30
0.0
 10
-158.7795
 20
-109.8533
 30
0.0
 10
-158.7795
 20
-109.8533
 30
0.0
 10
-158.7795
 20
-99.8973
 30
0.0
 10
-158.7795
 20
-99.8973
 30
0.0
 10
-158.7795
 20
-99.8973
 30
0.0
 10
-158.7795
 20
-99.8973
 30
0.0
 10
-161.634
 20
-106.1332
 30
0.0
 10
-161.634
 20
-106.1332
 30
0.0
 10
-161.634
 20
-106.1332
 30
0.0
 10
-161.634
 20
-106.1332
 30
0.0
 10
-177.144
 20
-106.1332
 30
0.0
 10
-177.144
 20
-106.1332
 30
0.0
 10
-177.144
 20
-106.1332
 30
0.0
 10
-177.144
 20
-106.1332
 30
0.0
 10
-177.144
 20
-109.8533
 30
0.0
 10
-177.144
 20
-109.8533
 30
0.0
  0
SPLINE
  5
101
330
1F
100
AcDbEntity
  8
layer 1
 62
     7
100
AcDbSpline
210
0.0
220
0.0
230
1.0
 70
    11
 71
     3
 72
    20
 73
    16
 74
     0
 42
0.0000000001
 43
0.0000000001
 12
1.0
 22
0.0
 32
0.0
 13
1.0
 23
0.0
 33
0.0
 40
0.0
 40
0.0
 40
0.0
 40
0.0
 40
0.2
 40
0.2
 40
0.2
 40
0.2
 40
0.4
 40
0.4
 40
0.4
 40
0.4
 40
0.6
 40
0.6
 40
0.6
 40
0.6
 40
1.0
 40
1.0
 40
1.0
 40
1.0
 10
-175.1585
 20
-103.4001
 30
0.0
 10
-175.1585
 20
-103.4001
 30
0.0
 10
-163.498
 20
-103.4001
 30
0.0
 10
-163.498
 20
-103.4001
 30
0.0
 10
-163.498
 20
-103.4001
 30
0.0
 10
-163.498
 20
-103.4001
 30
0.0
 10
-161.2186
 20
-98.5246
 30
0.0
 10
-161.2186
 20
-98.5246
 30
0.0
 10
-161.2186
 20
-98.5246
 30
0.0
 10
-161.2186
 20
-98.5246
 30
0.0
 10
-170.3292
 20
-98.5246
 30
0.0
 10
-170.3292
 20
-98.5246
 30
0.0
 10
-170.3292
 20
-98.5246
 30
0.0
 10
-170.3292
 20
-98.5246
 30
0.0
 10
-175.1585
 20
-103.4001
 30
0.0
 10
-175.1585
 20
-103.4001
 30
0.0
  0
SPLINE
  5
102
330
1F
100
AcDbEntity
  8
layer 1
 62
     7
100
AcDbSpline
210
0.0
220
0.0
230
1.0
 70
    11
 71
     3
 72
    20
 73
    16
 74
     0
 42
0.0000000001
 43
0.0000000001
 12
1.0
 22
0.0
 32
0.0
 13
1.0
 23
0.0
 33
0.0
 40
0.0
 40
0.0
 40
0.0
 40
0.0
 40
0.2
 40
0.2
 40
0.2
 40
0.2
 40
0.4
 40
0.4
 40
0.4
 40
0.4
 40
0.6
 40
0.6
 40
0.6
 40
0.6
 40
1.0
 40
1.0
 40
1.0
 40
1.0
 10
-167.4634
 20
-95.7591
 30
0.0
 10
-167.4634
 20
-95.7591
 30
0.0
 10
-160.4605
 20
-95.7664
 30
0.0
 10
-160.4605
 20
-95.7664
 30
0.0
 10
-160.4605
 20
-95.7664
 30
0.0
 10
-160.4605
 20
-95.7664
 30
0.0
 10
-158.7636
 20
-91.8048
 30
0.0
 10
-158.7636
 20
-91.8048
 30
0.0
 10
-158.7636
 20
-91.8048
 30
0.0
 10
-160.168
 20
-91.6023
 30
0.0
 10
-161.4706
 20
-90.9102
 30
0.0
 10
-162.122
 20
-90.4265
 30
0.0
 10
-162.122
 20
-90.4265
 30
0.0
 10
-162.122
 20
-90.4265
 30
0.0
 10
-167.4634
 20
-95.7591
 30
0.0
 10
-167.4634
 20
-95.7591
 30
0.0
  0
SPLINE
  5
103
330
1F
100
AcDbEntity
  8
layer 1
 62
     7
100
AcDbSpline
210
0.0
220
0.0
230
1.0
 70
    11
 71
     3
 72
    24
 73
    20
 74
     0
 42
0.0000000001
 43
0.0000000001
 12
1.0
 22
0.0
 32
0.0
 13
1.0
 23
0.0
 33
0.0
 40
0.0
 40
0.0
 40
0.0
 40
0.0
 40
0.1666666666666667
 40
0.1666666666666667
 40
0.1666666666666667
 40
0.1666666666666667
 40
0.3333333333333333
 40
0.3333333333333333
 40
0.3333333333333333
 40
0.3333333333333333
 40
0.5
 40
0.5
 40
0.5
 40
0.5
 40
0.6666666666666666
 40
0.6666666666666666
 40
0.6666666666666666
 40
0.6666666666666666
 40
1.0
 40
1.0
 40
1.0
 40
1.0
 10
-183.5991
 20
-103.4095
 30
0.0
 10
-183.5991
 20
-103.4095
 30
0.0
 10
-183.5991
 20
-85.045
 30
0.0
 10
-183.5991
 20
-85.045
 30
0.0
 10
-183.5991
 20
-85.045
 30
0.0
 10
-183.5991
 20
-85.045
 30
0.0
 10
-173.6431
 20
-85.045
 30
0.0
 10
-173.6431
 20
-85.045
 30
0.0
 10
-173.6431
 20
-85.045
 30
0.0
 10
-173.6431
 20
-85.045
 30
0.0
 10
-179.879
 20
-87.8995
 30
0.0
 10
-179.879
 20
-87.8995
 30
0.0
 10
-179.879
 20
-87.8995
 30
0.0
 10
-179.879
 20
-87.8995
 30
0.0
 10
-179.879
 20
-103.4095
 30
0.0
 10
-179.879
 20
-103.4095
 30
0.0
 10
-179.879
 20
-103.4095
 30
0.0
 10
-179.879
 20
-103.4095
 30
0.0
 10
-183.5991
 20
-103.4095
 30
0.0
 10
-183.5991
 20
-103.4095
 30
0.0
  0
SPLINE
  5
104
330
1F
100
AcDbEntity
  8
layer 1
 62
     7
100
AcDbSpline
210
0.0
220
0.0
230
1.0
 70
    11
 71
     3
 72
    20
 73
    16
 74
     0
 42
0.0000000001
 43
0.0000000001
 12
1.0
 22
0.0
 32
0.0
 13
1.0
 23
0.0
 33
0.0
 40
0.0
 40
0.0
 40
0.0
 40
0.0
 40
0.2
 40
0.2
 40
0.2
 40
0.2
 40
0.4
 40
0.4
 40
0.4
 40
0.4
 40
0.6
 40
0.6
 40
0.6
 40
0.6
 40
1.0
 40
1.0
 40
1.0
 40
1.0
 10
-177.1459
 20
-101.424
 30
0.0
 10
-177.1459
 20
-101.424
 30
0.0
 10
-177.1459
 20
-89.7634
 30
0.0
 10
-177.1459
 20
-89.7634
 30
0.0
 10
-177.1459
 20
-89.7634
 30
0.0
 10
-177.1459
 20
-89.7634
 30
0.0
 10
-172.2704
 20
-87.4841
 30
0.0
 10
-172.2704
 20
-87.4841
 30
0.0
 10
-172.2704
 20
-87.4841
 30
0.0
 10
-172.2704
 20
-87.4841
 30
0.0
 10
-172.2704
 20
-96.5947
 30
0.0
 10
-172.2704
 20
-96.5947
 30
0.0
 10
-172.2704
 20
-96.5947
 30
0.0
 10
-172.2704
 20
-96.5947
 30
0.0
 10
-177.1459
 20
-101.424
 30
0.0
 10
-177.1459
 20
-101.424
 30
0.0
  0
SPLINE
  5
105
330
1F
100
AcDbEntity
  8
layer 1
 62
     7
100
AcDbSpline
210
0.0
220
0.0
230
1.0
 70
    11
 71
     3
 72
    20
 73
    16
 74
     0
 42
0.0000000001
 43
0.0000000001
 12
1.0
 22
0.0
 32
0.0
 13
1.0
 23
0.0
 33
0.0
 40
0.0
 40
0.0
 40
0.0
 40
0.0
 40
0.2
 40
0.2
 40
0.2
 40
0.2
 40
0.4
 40
0.4
 40
0.4
 40
0.4
 40
0.6
 40
0.6
 40
0.6
 40
0.6
 40
1.0
 40
1.0
 40
1.0
 40
1.0
 10
-169.5049
 20
-93.7289
 30
0.0
 10
-169.5049
 20
-93.7289
 30
0.0
 10
-169.5122
 20
-86.726
 30
0.0
 10
-169.5122
 20
-86.726
 30
0.0
 10
-169.5122
 20
-86.726
 30
0.0
 10
-169.5122
 20
-86.726
 30
0.0
 10
-165.5506
 20
-85.029
 30
0.0
 10
-165.5506
 20
-85.029
 30
0.0
 10
-165.5506
 20
-85.029
 30
0.0
 10
-165.3481
 20
-86.4335
 30
0.0
 10
-164.656
 20
-87.736
 30
0.0
 10
-164.1723
 20
-88.3875
 30
0.0
 10
-164.1723
 20
-88.3875
 30
0.0
 10
-164.1723
 20
-88.3875
 30
0.0
 10
-169.5049
 20
-93.7289
 30
0.0
 10
-169.5049
 20
-93.7289
 30
0.0
  0
SPLINE
  5
106
330
1F
100
AcDbEntity
  8
layer 1
 62
     7
100
AcDbSpline
210
0.0
220
0.0
230
1.0
 70
    11
 71
     3
 72
    20
 73
    16
 74
     0
 42
0.0000000001
 43
0.0000000001
 12
1.0
 22
0.0
 32
0.0
 13
1.0
 23
0.0
 33
0.0
 40
0.0
 40
0.0
 40
0.0
 40
0.0
 40
0.2
 40
0.2
 40
0.2
 40
0.2
 40
0.4
 40
0.4
 40
0.4
 40
0.4
 40
0.6
 40
0.6
 40
0.6
 40
0.6
 40
1.0
 40
1.0
 40
1.0
 40
1.0
 10
-131.1683
 20
-109.8533
 30
0.0
 10
-131.1683
 20
-109.8533
 30
0.0
 10
-134.8887
 20
-109.8533
 30
0.0
 10
-134.8887
 20
-109.8533
 30
0.0
 10
-134.8887
 20
-109.8533
 30
0.0
 10
-134.8887
 20
-109.8533
 30
0.0
 10
-134.8887
 20
-106.1332
 30
0.0
 10
-134.8887
 20
-106.1332
 30
0.0
 10
-134.8887
 20
-106.1332
 30
0.0
 10
-134.8887
 20
-106.1332
 30
0.0
 10
-131.1683
 20
-106.1332
 30
0.0
 10
-131.1683
 20
-106.1332
 30
0.0
 10
-131.1683
 20
-106.1332
 30
0.0
 10
-131.1683
 20
-106.1332
 30
0.0
 10
-131.1683
 20
-109.8533
 30
0.0
 10
-131.1683
 20
-109.8533
 30
0.0
  0
SPLINE
  5
107
330
1F
100
AcDbEntity
  8
layer 1
 62
     7
100
AcDbSpline
210
0.0
220
0.0
230
1.0
 70
    11
 71
     3
 72
    24
 73
    20
 74
     0
 42
0.0000000001
 43
0.0000000001
 12
1.0
 22
0.0
 32
0.0
 13
1.0
 23
0.0
 33
0.0
 40
0.0
 40
0.0
 40
0.0
 40
0.0
 40
0.1666666666666667
 40
0.1666666666666667
 40
0.1666666666666667
 40
0.1666666666666667
 40
0.3333333333333333
 40
0.3333333333333333
 40
0.3333333333333333
 40
0.3333333333333333
 40
0.5
 40
0.5
 40
0.5
 40
0.5
 40
0.6666666666666666
 40
0.6666666666666666
 40
0.6666666666666666
 40
0.6666666666666666
 40
1.0
 40
1.0
 40
1.0
 40
1.0
 10
-137.6183
 20
-109.8533
 30
0.0
 10
-137.6183
 20
-109.8533
 30
0.0
 10
-155.9828
 20
-109.8533
 30
0.0
 10
-155.9828
 20
-109.8533
 30
0.0
 10
-155.9828
 20
-109.8533
 30
0.0
 10
-155.9828
 20
-109.8533
 30
0.0
 10
-155.9828
 20
-99.8973
 30
0.0
 10
-155.9828
 20
-99.8973
 30
0.0
 10
-155.9828
 20
-99.8973
 30
0.0
 10
-155.9828
 20
-99.8973
 30
0.0
 10
-153.1283
 20
-106.1332
 30
0.0
 10
-153.1283
 20
-106.1332
 30
0.0
 10
-153.1283
 20
-106.1332
 30
0.0
 10
-153.1283
 20
-106.1332
 30
0.0
 10
-137.6183
 20
-106.1332
 30
0.0
 10
-137.6183
 20
-106.1332
 30
0.0
 10
-137.6183
 20
-106.1332
 30
0.0
 10
-137.6183
 20
-106.1332
 30
0.0
 10
-137.6183
 20
-109.8533
 30
0.0
 10
-137.6183
 20
-109.8533
 30
0.0
  0
SPLINE
  5
108
330
1F
100
AcDbEntity
  8
layer 1
 62
     7
100
AcDbSpline
210
0.0
220
0.0
230
1.0
 70
    11
 71
     3
 72
    20
 73
    16
 74
     0
 42
0.0000000001
 43
0.0000000001
 12
1.0
 22
0.0
 32
0.0
 13
1.0
 23
0.0
 33
0.0
 40
0.0
 40
0.0
 40
0.0
 40
0.0
 40
0.2
 40
0.2
 40
0.2
 40
0.2
 40
0.4
 40
0.4
 40
0.4
 40
0.4
 40
0.6
 40
0.6
 40
0.6
 40
0.6
 40
1.0
 40
1.0
 40
1.0
 40
1.0
 10
-139.6038
 20
-103.4001
 30
0.0
 10
-139.6038
 20
-103.4001
 30
0.0
 10
-151.2644
 20
-103.4001
 30
0.0
 10
-151.2644
 20
-103.4001
 30
0.0
 10
-151.2644
 20
-103.4001
 30
0.0
 10
-151.2644
 20
-103.4001
 30
0.0
 10
-153.5437
 20
-98.5246
 30
0.0
 10
-153.5437
 20
-98.5246
 30
0.0
 10
-153.5437
 20
-98.5246
 30
0.0
 10
-153.5437
 20
-98.5246
 30
0.0
 10
-144.4331
 20
-98.5246
 30
0.0
 10
-144.4331
 20
-98.5246
 30
0.0
 10
-144.4331
 20
-98.5246
 30
0.0
 10
-144.4331
 20
-98.5246
 30
0.0
 10
-139.6038
 20
-103.4001
 30
0.0
 10
-139.6038
 20
-103.4001
 30
0.0
  0
SPLINE
  5
109
330
1F
100
AcDbEntity
  8
layer 1
 62
     7
100
AcDbSpline
210
0.0
220
0.0
230
1.0
 70
    11
 71
     3
 72
    20
 73
    16
 74
     0
 42
0.0000000001
 43
0.0000000001
 12
1.0
 22
0.0
 32
0.0
 13
1.0
 23
0.0
 33
0.0
 40
0.0
 40
0.0
 40
0.0
 40
0.0
 40
0.2
 40
0.2
 40
0.2
 40
0.2
 40
0.4
 40
0.4
 40
0.4
 40
0.4
 40
0.6
 40
0.6
 40
0.6
 40
0.6
 40
1.0
 40
1.0
 40
1.0
 40
1.0
 10
-147.2989
 20
-95.7591
 30
0.0
 10
-147.2989
 20
-95.7591
 30
0.0
 10
-154.3018
 20
-95.7664
 30
0.0
 10
-154.3018
 20
-95.7664
 30
0.0
 10
-154.3018
 20
-95.7664
 30
0.0
 10
-154.3018
 20
-95.7664
 30
0.0
 10
-155.9988
 20
-91.8048
 30
0.0
 10
-155.9988
 20
-91.8048
 30
0.0
 10
-155.9988
 20
-91.8048
 30
0.0
 10
-154.5943
 20
-91.6023
 30
0.0
 10
-153.2918
 20
-90.9102
 30
0.0
 10
-152.6403
 20
-90.4265
 30
0.0
 10
-152.6403
 20
-90.4265
 30
0.0
 10
-152.6403
 20
-90.4265
 30
0.0
 10
-147.2989
 20
-95.7591
 30
0.0
 10
-147.2989
 20
-95.7591
 30
0.0
  0
SPLINE
  5
10A
330
1F
100
AcDbEntity
  8
layer 1
 62
     7
100
AcDbSpline
210
0.0
220
0.0
230
1.0
 70
    11
 71
     3
 72
    24
 73
    20
 74
     0
 42
0.0000000001
 43
0.0000000001
 12
1.0
 22
0.0
 32
0.0
 13
1.0
 23
0.0
 33
0.0
 40
0.0
 40
0.0
 40
0.0
 40
0.0
 40
0.1666666666666667
 40
0.1666666666666667
 40
0.1666666666666667
 40
0.1666666666666667
 40
0.3333333333333333
 40
0.3333333333333333
 40
0.3333333333333333
 40
0.3333333333333333
 40
0.5
 40
0.5
 40
0.5
 40
0.5
 40
0.6666666666666666
 40
0.6666666666666666
 40
0.6666666666666666
 40
0.6666666666666666
 40
1.0
 40
1.0
 40
1.0
 40
1.0
 10
-131.1632
 20
-103.4095
 30
0.0
 10
-131.1632
 20
-103.4095
 30
0.0
 10
-131.1632
 20
-85.045
 30
0.0
 10
-131.1632
 20
-85.045
 30
0.0
 10
-131.1632
 20
-85.045
 30
0.0
 10
-131.1632
 20
-85.045
 30
0.0
 10
-141.1192
 20
-85.045
 30
0.0
 10
-141.1192
 20
-85.045
 30
0.0
 10
-141.1192
 20
-85.045
 30
0.0
 10
-141.1192
 20
-85.045
 30
0.0
 10
-134.8833
 20
-87.8995
 30
0.0
 10
-134.8833
 20
-87.8995
 30
0.0
 10
-134.8833
 20
-87.8995
 30
0.0
 10
-134.8833
 20
-87.8995
 30
0.0
 10
-134.8833
 20
-103.4095
 30
0.0
 10
-134.8833
 20
-103.4095
 30
0.0
 10
-134.8833
 20
-103.4095
 30
0.0
 10
-134.8833
 20
-103.4095
 30
0.0
 10
-131.1632
 20
-103.4095
 30
0.0
 10
-131.1632
 20
-103.4095
 30
0.0
  0
SPLINE
  5
10B
330
1F
100
AcDbEntity
  8
layer 1
 62
     7
100
AcDbSpline
210
0.0
220
0.0
230
1.0
 70
    11
 71
     3
 72
    20
 73
    16
 74
     0
 42
0.0000000001
 43
0.0000000001
 12
1.0
 22
0.0
 32
0.0
 13
1.0
 23
0.0
 33
0.0
 40
0.0
 40
0.0
 40
0.0
 40
0.0
 40
0.2
 40
0.2
 40
0.2
 40
0.2
 40
0.4
 40
0.4
 40
0.4
 40
0.4
 40
0.6
 40
0.6
 40
0.6
 40
0.6
 40
1.0
 40
1.0
 40
1.0
 40
1.0
 10
-137.6165
 20
-101.424
 30
0.0
 10
-137.6165
 20
-101.424
 30
0.0
 10
-137.6165
 20
-89.7634
 30
0.0
 10
-137.6165
 20
-89.7634
 30
0.0
 10
-137.6165
 20
-89.7634
 30
0.0
 10
-137.6165
 20
-89.7634
 30
0.0
 10
-142.4919
 20
-87.4841
 30
0.0
 10
-142.4919
 20
-87.4841
 30
0.0
 10
-142.4919
 20
-87.4841
 30
0.0
 10
-142.4919
 20
-87.4841
 30
0.0
 10
-142.4919
 20
-96.5947
 30
0.0
 10
-142.4919
 20
-96.5947
 30
0.0
 10
-142.4919
 20
-96.5947
 30
0.0
 10
-142.4919
 20
-96.5947
 30
0.0
 10
-137.6165
 20
-101.424
 30
0.0
 10
-137.6165
 20
-101.424
 30
0.0
  0
SPLINE
  5
10C
330
1F
100
AcDbEntity
  8
layer 1
 62
     7
100
AcDbSpline
210
0.0
220
0.0
230
1.0
 70
    11
 71
     3
 72
    20
 73
    16
 74
     0
 42
0.0000000001
 43
0.0000000001
 12
1.0
 22
0.0
 32
0.0
 13
1.0
 23
0.0
 33
0.0
 40
0.0
 40
0.0
 40
0.0
 40
0.0
 40
0.2
 40
0.2
 40
0.2
 40
0.2
 40
0.4
 40
0.4
 40
0.4
 40
0.4
 40
0.6
 40
0.6
 40
0.6
 40
0.6
 40
1.0
 40
1.0
 40
1.0
 40
1.0
 10
-145.2574
 20
-93.7289
 30
0.0
 10
-145.2574
 20
-93.7289
 30
0.0
 10
-145.2501
 20
-86.726
 30
0.0
 10
-145.2501
 20
-86.726
 30
0.0
 10
-145.2501
 20
-86.726
 30
0.0
 10
-145.2501
 20
-86.726
 30
0.0
 10
-149.2117
 20
-85.029
 30
0.0
 10
-149.2117
 20
-85.029
 30
0.0
 10
-149.2117
 20
-85.029
 30
0.0
 10
-149.4142
 20
-86.4335
 30
0.0
 10
-150.1063
 20
-87.736
 30
0.0
 10
-150.59
 20
-88.3875
 30
0.0
 10
-150.59
 20
-88.3875
 30
0.0
 10
-150.59
 20
-88.3875
 30
0.0
 10
-145.2574
 20
-93.7289
 30
0.0
 10
-145.2574
 20
-93.7289
 30
0.0
  0
LWPOLYLINE
  5
10D
330
1F
100
AcDbEntity
  8
layer 1
100
AcDbPolyline
 90
        5
 70
     1
 43
0.0
 10
-57.8877
 20
72.015
 10
2.1017
 20
72.015
 10
2.1017
 20
131.6318
 10
-57.8877
 20
131.6318
 10
-57.8877
 20
72.015
  0
SPLINE
  5
10E
330
1F
100
AcDbEntity
  8
layer 1
 62
     7
100
AcDbSpline
210
0.0
220
0.0
230
1.0
 70
    11
 71
     3
 72
    68
 73
    64
 74
     0
 42
0.0000000001
 43
0.0000000001
 12
1.0
 22
0.0
 32
0.0
 13
1.0
 23
0.0
 33
0.0
 40
0.0
 40
0.0
 40
0.0
 40
0.0
 40
0.0588235294117647
 40
0.0588235294117647
 40
0.0588235294117647
 40
0.0588235294117647
 40
0.1176470588235294
 40
0.1176470588235294
 40
0.1176470588235294
 40
0.1176470588235294
 40
0.1764705882352941
 40
0.1764705882352941
 40
0.1764705882352941
 40
0.1764705882352941
 40
0.2352941176470588
 40
0.2352941176470588
 40
0.2352941176470588
 40
0.2352941176470588
 40
0.2941176470588235
 40
0.2941176470588235
 40
0.2941176470588235
 40
0.2941176470588235
 40
0.3529411764705883
 40
0.3529411764705883
 40
0.3529411764705883
 40
0.3529411764705883
 40
0.4117647058823529
 40
0.4117647058823529
 40
0.4117647058823529
 40
0.4117647058823529
 40
0.4705882352941176
 40
0.4705882352941176
 40
0.4705882352941176
 40
0.4705882352941176
 40
0.5294117647058824
 40
0.5294117647058824
 40
0.5294117647058824
 40
0.5294117647058824
 40
0.5882352941176471
 40
0.5882352941176471
 40
0.5882352941176471
 40
0.5882352941176471
 40
0.6470588235294118
 40
0.6470588235294118
 40
0.6470588235294118
 40
0.6470588235294118
 40
0.7058823529411765
 40
0.7058823529411765
 40
0.7058823529411765
 40
0.7058823529411765
 40
0.7647058823529411
 40
0.7647058823529411
 40
0.7647058823529411
 40
0.7647058823529411
 40
0.8235294117647058
 40
0.8235294117647058
 40
0.8235294117647058
 40
0.8235294117647058
 40
0.8823529411764706
 40
0.8823529411764706
 40
0.8823529411764706
 40
0.8823529411764706
 40
1.0
 40
1.0
 40
1.0
 40
1.0
 10
-17.9264
 20
91.9726
 30
0.0
 10
-17.9264
 20
91.9726
 30
0.0
 10
-24.9578
 20
94.8872
 30
0.0
 10
-24.9578
 20
94.8872
 30
0.0
 10
-24.9578
 20
94.8872
 30
0.0
 10
-24.9578
 20
94.8872
 30
0.0
 10
-27.8966
 20
87.8302
 30
0.0
 10
-27.8966
 20
87.8302
 30
0.0
 10
-27.8966
 20
87.8302
 30
0.0
 10
-27.8966
 20
87.8302
 30
0.0
 10
-30.8708
 20
94.8241
 30
0.0
 10
-30.8708
 20
94.8241
 30
0.0
 10
-30.8708
 20
94.8241
 30
0.0
 10
-30.8708
 20
94.8241
 30
0.0
 10
-37.7552
 20
91.9898
 30
0.0
 10
-37.7552
 20
91.9898
 30
0.0
 10
-37.7552
 20
91.9898
 30
0.0
 10
-37.7552
 20
91.9898
 30
0.0
 10
-34.9457
 20
99.0317
 30
0.0
 10
-34.9457
 20
99.0317
 30
0.0
 10
-34.9457
 20
99.0317
 30
0.0
 10
-34.9457
 20
99.0317
 30
0.0
 10
-41.9748
 20
101.8637
 30
0.0
 10
-41.9748
 20
101.8637
 30
0.0
 10
-41.9748
 20
101.8637
 30
0.0
 10
-41.9748
 20
101.8637
 30
0.0
 10
-34.9075
 20
104.9013
 30
0.0
 10
-34.9075
 20
104.9013
 30
0.0
 10
-34.9075
 20
104.9013
 30
0.0
 10
-34.9075
 20
104.9013
 30
0.0
 10
-37.9511
 20
111.9657
 30
0.0
 10
-37.9511
 20
111.9657
 30
0.0
 10
-37.9511
 20
111.9657
 30
0.0
 10
-37.9511
 20
111.9657
 30
0.0
 10
-30.7509
 20
108.8401
 30
0.0
 10
-30.7509
 20
108.8401
 30
0.0
 10
-30.7509
 20
108.8401
 30
0.0
 10
-30.7509
 20
108.8401
 30
0.0
 10
-27.9158
 20
116.1081
 30
0.0
 10
-27.9158
 20
116.1081
 30
0.0
 10
-27.9158
 20
116.1081
 30
0.0
 10
-27.9158
 20
116.1081
 30
0.0
 10
-24.9223
 20
108.861
 30
0.0
 10
-24.9223
 20
108.861
 30
0.0
 10
-24.9223
 20
108.861
 30
0.0
 10
-24.9223
 20
108.861
 30
0.0
 10
-17.8692
 20
111.9063
 30
0.0
 10
-17.8692
 20
111.9063
 30
0.0
 10
-17.8692
 20
111.9063
 30
0.0
 10
-17.8692
 20
111.9063
 30
0.0
 10
-20.8896
 20
104.7378
 30
0.0
 10
-20.8896
 20
104.7378
 30
0.0
 10
-20.8896
 20
104.7378
 30
0.0
 10
-20.8896
 20
104.7378
 30
0.0
 10
-13.7761
 20
101.8637
 30
0.0
 10
-13.7761
 20
101.8637
 30
0.0
 10
-13.7761
 20
101.8637
 30
0.0
 10
-13.7761
 20
101.8637
 30
0.0
 10
-20.9278
 20
99.037
 30
0.0
 10
-20.9278
 20
99.037
 30
0.0
 10
-20.9278
 20
99.037
 30
0.0
 10
-20.9278
 20
99.037
 30
0.0
 10
-17.9264
 20
91.9726
 30
0.0
 10
-17.9264
 20
91.9726
 30
0.0
  0
SPLINE
  5
10F
330
1F
100
AcDbEntity
  8
layer 1
 62
     7
100
AcDbSpline
210
0.0
220
0.0
230
1.0
 70
    11
 71
     3
 72
    28
 73
    24
 74
     0
 42
0.0000000001
 43
0.0000000001
 12
1.0
 22
0.0
 32
0.0
 13
1.0
 23
0.0
 33
0.0
 40
0.0
 40
0.0
 40
0.0
 40
0.0
 40
0.1428571428571428
 40
0.1428571428571428
 40
0.1428571428571428
 40
0.1428571428571428
 40
0.2857142857142857
 40
0.2857142857142857
 40
0.2857142857142857
 40
0.2857142857142857
 40
0.4285714285714285
 40
0.4285714285714285
 40
0.4285714285714285
 40
0.4285714285714285
 40
0.5714285714285714
 40
0.5714285714285714
 40
0.5714285714285714
 40
0.5714285714285714
 40
0.7142857142857143
 40
0.7142857142857143
 40
0.7142857142857143
 40
0.7142857142857143
 40
1.0
 40
1.0
 40
1.0
 40
1.0
 10
-54.4331
 20
112.7875
 30
0.0
 10
-54.4331
 20
112.7875
 30
0.0
 10
-50.354
 20
116.8666
 30
0.0
 10
-50.354
 20
116.8666
 30
0.0
 10
-50.354
 20
116.8666
 30
0.0
 10
-50.354
 20
116.8666
 30
0.0
 10
-42.2462
 20
113.6181
 30
0.0
 10
-42.2462
 20
113.6181
 30
0.0
 10
-42.2462
 20
113.6181
 30
0.0
 10
-42.2462
 20
113.6181
 30
0.0
 10
-39.2831
 20
106.6038
 30
0.0
 10
-39.2831
 20
106.6038
 30
0.0
 10
-39.2831
 20
106.6038
 30
0.0
 10
-39.2831
 20
106.6038
 30
0.0
 10
-46.3327
 20
103.7112
 30
0.0
 10
-46.3327
 20
103.7112
 30
0.0
 10
-46.3327
 20
103.7112
 30
0.0
 10
-46.3327
 20
103.7112
 30
0.0
 10
-54.4279
 20
106.9583
 30
0.0
 10
-54.4279
 20
106.9583
 30
0.0
 10
-54.4279
 20
106.9583
 30
0.0
 10
-54.4279
 20
106.9583
 30
0.0
 10
-54.4331
 20
112.7875
 30
0.0
 10
-54.4331
 20
112.7875
 30
0.0
  0
SPLINE
  5
110
330
1F
100
AcDbEntity
  8
layer 1
 62
     7
100
AcDbSpline
210
0.0
220
0.0
230
1.0
 70
    11
 71
     3
 72
    28
 73
    24
 74
     0
 42
0.0000000001
 43
0.0000000001
 12
1.0
 22
0.0
 32
0.0
 13
1.0
 23
0.0
 33
0.0
 40
0.0
 40
0.0
 40
0.0
 40
0.0
 40
0.1428571428571428
 40
0.1428571428571428
 40
0.1428571428571428
 40
0.1428571428571428
 40
0.2857142857142857
 40
0.2857142857142857
 40
0.2857142857142857
 40
0.2857142857142857
 40
0.4285714285714285
 40
0.4285714285714285
 40
0.4285714285714285
 40
0.4285714285714285
 40
0.5714285714285714
 40
0.5714285714285714
 40
0.5714285714285714
 40
0.5714285714285714
 40
0.7142857142857143
 40
0.7142857142857143
 40
0.7142857142857143
 40
0.7142857142857143
 40
1.0
 40
1.0
 40
1.0
 40
1.0
 10
-16.8846
 20
128.3491
 30
0.0
 10
-16.8846
 20
128.3491
 30
0.0
 10
-22.6802
 20
128.3491
 30
0.0
 10
-22.6802
 20
128.3491
 30
0.0
 10
-22.6802
 20
128.3491
 30
0.0
 10
-22.6802
 20
128.3491
 30
0.0
 10
-26.0893
 20
120.3191
 30
0.0
 10
-26.0893
 20
120.3191
 30
0.0
 10
-26.0893
 20
120.3191
 30
0.0
 10
-26.0893
 20
120.3191
 30
0.0
 10
-23.2247
 20
113.2639
 30
0.0
 10
-23.2247
 20
113.2639
 30
0.0
 10
-23.2247
 20
113.2639
 30
0.0
 10
-23.2247
 20
113.2639
 30
0.0
 10
-16.1944
 20
116.2033
 30
0.0
 10
-16.1944
 20
116.2033
 30
0.0
 10
-16.1944
 20
116.2033
 30
0.0
 10
-16.1944
 20
116.2033
 30
0.0
 10
-12.7663
 20
124.2235
 30
0.0
 10
-12.7663
 20
124.2235
 30
0.0
 10
-12.7663
 20
124.2235
 30
0.0
 10
-12.7663
 20
124.2235
 30
0.0
 10
-16.8846
 20
128.3491
 30
0.0
 10
-16.8846
 20
128.3491
 30
0.0
  0
SPLINE
  5
111
330
1F
100
AcDbEntity
  8
layer 1
 62
     7
100
AcDbSpline
210
0.0
220
0.0
230
1.0
 70
    11
 71
     3
 72
    28
 73
    24
 74
     0
 42
0.0000000001
 43
0.0000000001
 12
1.0
 22
0.0
 32
0.0
 13
1.0
 23
0.0
 33
0.0
 40
0.0
 40
0.0
 40
0.0
 40
0.0
 40
0.1428571428571428
 40
0.1428571428571428
 40
0.1428571428571428
 40
0.1428571428571428
 40
0.2857142857142857
 40
0.2857142857142857
 40
0.2857142857142857
 40
0.2857142857142857
 40
0.4285714285714285
 40
0.4285714285714285
 40
0.4285714285714285
 40
0.4285714285714285
 40
0.5714285714285714
 40
0.5714285714285714
 40
0.5714285714285714
 40
0.5714285714285714
 40
0.7142857142857143
 40
0.7142857142857143
 40
0.7142857142857143
 40
0.7142857142857143
 40
1.0
 40
1.0
 40
1.0
 40
1.0
 10
-1.3235
 20
112.7587
 30
0.0
 10
-1.3235
 20
112.7587
 30
0.0
 10
-5.4216
 20
116.8568
 30
0.0
 10
-5.4216
 20
116.8568
 30
0.0
 10
-5.4216
 20
116.8568
 30
0.0
 10
-5.4216
 20
116.8568
 30
0.0
 10
-13.5103
 20
113.5893
 30
0.0
 10
-13.5103
 20
113.5893
 30
0.0
 10
-13.5103
 20
113.5893
 30
0.0
 10
-13.5103
 20
113.5893
 30
0.0
 10
-16.4734
 20
106.575
 30
0.0
 10
-16.4734
 20
106.575
 30
0.0
 10
-16.4734
 20
106.575
 30
0.0
 10
-16.4734
 20
106.575
 30
0.0
 10
-9.4239
 20
103.6823
 30
0.0
 10
-9.4239
 20
103.6823
 30
0.0
 10
-9.4239
 20
103.6823
 30
0.0
 10
-9.4239
 20
103.6823
 30
0.0
 10
-1.3287
 20
106.9294
 30
0.0
 10
-1.3287
 20
106.9294
 30
0.0
 10
-1.3287
 20
106.9294
 30
0.0
 10
-1.3287
 20
106.9294
 30
0.0
 10
-1.3235
 20
112.7587
 30
0.0
 10
-1.3235
 20
112.7587
 30
0.0
  0
SPLINE
  5
112
330
1F
100
AcDbEntity
  8
layer 1
 62
     7
100
AcDbSpline
210
0.0
220
0.0
230
1.0
 70
    11
 71
     3
 72
    28
 73
    24
 74
     0
 42
0.0000000001
 43
0.0000000001
 12
1.0
 22
0.0
 32
0.0
 13
1.0
 23
0.0
 33
0.0
 40
0.0
 40
0.0
 40
0.0
 40
0.0
 40
0.1428571428571428
 40
0.1428571428571428
 40
0.1428571428571428
 40
0.1428571428571428
 40
0.2857142857142857
 40
0.2857142857142857
 40
0.2857142857142857
 40
0.2857142857142857
 40
0.4285714285714285
 40
0.4285714285714285
 40
0.4285714285714285
 40
0.4285714285714285
 40
0.5714285714285714
 40
0.5714285714285714
 40
0.5714285714285714
 40
0.5714285714285714
 40
0.7142857142857143
 40
0.7142857142857143
 40
0.7142857142857143
 40
0.7142857142857143
 40
1.0
 40
1.0
 40
1.0
 40
1.0
 10
-38.9326
 20
128.3491
 30
0.0
 10
-38.9326
 20
128.3491
 30
0.0
 10
-33.137
 20
128.3491
 30
0.0
 10
-33.137
 20
128.3491
 30
0.0
 10
-33.137
 20
128.3491
 30
0.0
 10
-33.137
 20
128.3491
 30
0.0
 10
-29.7279
 20
120.3191
 30
0.0
 10
-29.7279
 20
120.3191
 30
0.0
 10
-29.7279
 20
120.3191
 30
0.0
 10
-29.7279
 20
120.3191
 30
0.0
 10
-32.5925
 20
113.2639
 30
0.0
 10
-32.5925
 20
113.2639
 30
0.0
 10
-32.5925
 20
113.2639
 30
0.0
 10
-32.5925
 20
113.2639
 30
0.0
 10
-39.6227
 20
116.2033
 30
0.0
 10
-39.6227
 20
116.2033
 30
0.0
 10
-39.6227
 20
116.2033
 30
0.0
 10
-39.6227
 20
116.2033
 30
0.0
 10
-43.0508
 20
124.2235
 30
0.0
 10
-43.0508
 20
124.2235
 30
0.0
 10
-43.0508
 20
124.2235
 30
0.0
 10
-43.0508
 20
124.2235
 30
0.0
 10
-38.9326
 20
128.3491
 30
0.0
 10
-38.9326
 20
128.3491
 30
0.0
  0
SPLINE
  5
113
330
1F
100
AcDbEntity
  8
layer 1
 62
     7
100
AcDbSpline
210
0.0
220
0.0
230
1.0
 70
    11
 71
     3
 72
    28
 73
    24
 74
     0
 42
0.0000000001
 43
0.0000000001
 12
1.0
 22
0.0
 32
0.0
 13
1.0
 23
0.0
 33
0.0
 40
0.0
 40
0.0
 40
0.0
 40
0.0
 40
0.1428571428571428
 40
0.1428571428571428
 40
0.1428571428571428
 40
0.1428571428571428
 40
0.2857142857142857
 40
0.2857142857142857
 40
0.2857142857142857
 40
0.2857142857142857
 40
0.4285714285714285
 40
0.4285714285714285
 40
0.4285714285714285
 40
0.4285714285714285
 40
0.5714285714285714
 40
0.5714285714285714
 40
0.5714285714285714
 40
0.5714285714285714
 40
0.7142857142857143
 40
0.7142857142857143
 40
0.7142857142857143
 40
0.7142857142857143
 40
1.0
 40
1.0
 40
1.0
 40
1.0
 10
-54.4594
 20
128.3491
 30
0.0
 10
-54.4594
 20
128.3491
 30
0.0
 10
-43.6405
 20
128.3491
 30
0.0
 10
-43.6405
 20
128.3491
 30
0.0
 10
-43.6405
 20
128.3491
 30
0.0
 10
-43.6405
 20
128.3491
 30
0.0
 10
-46.9355
 20
124.9751
 30
0.0
 10
-46.9355
 20
124.9751
 30
0.0
 10
-46.9355
 20
124.9751
 30
0.0
 10
-46.9355
 20
124.9751
 30
0.0
 10
-44.0041
 20
118.0359
 30
0.0
 10
-44.0041
 20
118.0359
 30
0.0
 10
-44.0041
 20
118.0359
 30
0.0
 10
-44.0041
 20
118.0359
 30
0.0
 10
-50.9957
 20
120.898
 30
0.0
 10
-50.9957
 20
120.898
 30
0.0
 10
-50.9957
 20
120.898
 30
0.0
 10
-50.9957
 20
120.898
 30
0.0
 10
-54.4624
 20
117.6934
 30
0.0
 10
-54.4624
 20
117.6934
 30
0.0
 10
-54.4624
 20
117.6934
 30
0.0
 10
-54.4624
 20
117.6934
 30
0.0
 10
-54.4594
 20
128.3491
 30
0.0
 10
-54.4594
 20
128.3491
 30
0.0
  0
SPLINE
  5
114
330
1F
100
AcDbEntity
  8
layer 1
 62
     7
100
AcDbSpline
210
0.0
220
0.0
230
1.0
 70
    11
 71
     3
 72
    28
 73
    24
 74
     0
 42
0.0000000001
 43
0.0000000001
 12
1.0
 22
0.0
 32
0.0
 13
1.0
 23
0.0
 33
0.0
 40
0.0
 40
0.0
 40
0.0
 40
0.0
 40
0.1428571428571428
 40
0.1428571428571428
 40
0.1428571428571428
 40
0.1428571428571428
 40
0.2857142857142857
 40
0.2857142857142857
 40
0.2857142857142857
 40
0.2857142857142857
 40
0.4285714285714285
 40
0.4285714285714285
 40
0.4285714285714285
 40
0.4285714285714285
 40
0.5714285714285714
 40
0.5714285714285714
 40
0.5714285714285714
 40
0.5714285714285714
 40
0.7142857142857143
 40
0.7142857142857143
 40
0.7142857142857143
 40
0.7142857142857143
 40
1.0
 40
1.0
 40
1.0
 40
1.0
 10
-1.3406
 20
128.3491
 30
0.0
 10
-1.3406
 20
128.3491
 30
0.0
 10
-12.1594
 20
128.3491
 30
0.0
 10
-12.1594
 20
128.3491
 30
0.0
 10
-12.1594
 20
128.3491
 30
0.0
 10
-12.1594
 20
128.3491
 30
0.0
 10
-8.8645
 20
124.9751
 30
0.0
 10
-8.8645
 20
124.9751
 30
0.0
 10
-8.8645
 20
124.9751
 30
0.0
 10
-8.8645
 20
124.9751
 30
0.0
 10
-11.7958
 20
118.0359
 30
0.0
 10
-11.7958
 20
118.0359
 30
0.0
 10
-11.7958
 20
118.0359
 30
0.0
 10
-11.7958
 20
118.0359
 30
0.0
 10
-4.8042
 20
120.898
 30
0.0
 10
-4.8042
 20
120.898
 30
0.0
 10
-4.8042
 20
120.898
 30
0.0
 10
-4.8042
 20
120.898
 30
0.0
 10
-1.3375
 20
117.6934
 30
0.0
 10
-1.3375
 20
117.6934
 30
0.0
 10
-1.3375
 20
117.6934
 30
0.0
 10
-1.3375
 20
117.6934
 30
0.0
 10
-1.3406
 20
128.3491
 30
0.0
 10
-1.3406
 20
128.3491
 30
0.0
  0
SPLINE
  5
115
330
1F
100
AcDbEntity
  8
layer 1
 62
     7
100
AcDbSpline
210
0.0
220
0.0
230
1.0
 70
    11
 71
     3
 72
    28
 73
    24
 74
     0
 42
0.0000000001
 43
0.0000000001
 12
1.0
 22
0.0
 32
0.0
 13
1.0
 23
0.0
 33
0.0
 40
0.0
 40
0.0
 40
0.0
 40
0.0
 40
0.1428571428571428
 40
0.1428571428571428
 40
0.1428571428571428
 40
0.1428571428571428
 40
0.2857142857142857
 40
0.2857142857142857
 40
0.2857142857142857
 40
0.2857142857142857
 40
0.4285714285714285
 40
0.4285714285714285
 40
0.4285714285714285
 40
0.4285714285714285
 40
0.5714285714285714
 40
0.5714285714285714
 40
0.5714285714285714
 40
0.5714285714285714
 40
0.7142857142857143
 40
0.7142857142857143
 40
0.7142857142857143
 40
0.7142857142857143
 40
1.0
 40
1.0
 40
1.0
 40
1.0
 10
-54.4331
 20
90.8594
 30
0.0
 10
-54.4331
 20
90.8594
 30
0.0
 10
-50.354
 20
86.7803
 30
0.0
 10
-50.354
 20
86.7803
 30
0.0
 10
-50.354
 20
86.7803
 30
0.0
 10
-50.354
 20
86.7803
 30
0.0
 10
-42.2462
 20
90.0288
 30
0.0
 10
-42.2462
 20
90.0288
 30
0.0
 10
-42.2462
 20
90.0288
 30
0.0
 10
-42.2462
 20
90.0288
 30
0.0
 10
-39.2831
 20
97.0431
 30
0.0
 10
-39.2831
 20
97.0431
 30
0.0
 10
-39.2831
 20
97.0431
 30
0.0
 10
-39.2831
 20
97.0431
 30
0.0
 10
-46.3327
 20
99.9357
 30
0.0
 10
-46.3327
 20
99.9357
 30
0.0
 10
-46.3327
 20
99.9357
 30
0.0
 10
-46.3327
 20
99.9357
 30
0.0
 10
-54.4279
 20
96.6886
 30
0.0
 10
-54.4279
 20
96.6886
 30
0.0
 10
-54.4279
 20
96.6886
 30
0.0
 10
-54.4279
 20
96.6886
 30
0.0
 10
-54.4331
 20
90.8594
 30
0.0
 10
-54.4331
 20
90.8594
 30
0.0
  0
SPLINE
  5
116
330
1F
100
AcDbEntity
  8
layer 1
 62
     7
100
AcDbSpline
210
0.0
220
0.0
230
1.0
 70
    11
 71
     3
 72
    28
 73
    24
 74
     0
 42
0.0000000001
 43
0.0000000001
 12
1.0
 22
0.0
 32
0.0
 13
1.0
 23
0.0
 33
0.0
 40
0.0
 40
0.0
 40
0.0
 40
0.0
 40
0.1428571428571428
 40
0.1428571428571428
 40
0.1428571428571428
 40
0.1428571428571428
 40
0.2857142857142857
 40
0.2857142857142857
 40
0.2857142857142857
 40
0.2857142857142857
 40
0.4285714285714285
 40
0.4285714285714285
 40
0.4285714285714285
 40
0.4285714285714285
 40
0.5714285714285714
 40
0.5714285714285714
 40
0.5714285714285714
 40
0.5714285714285714
 40
0.7142857142857143
 40
0.7142857142857143
 40
0.7142857142857143
 40
0.7142857142857143
 40
1.0
 40
1.0
 40
1.0
 40
1.0
 10
-16.8846
 20
75.2978
 30
0.0
 10
-16.8846
 20
75.2978
 30
0.0
 10
-22.6802
 20
75.2978
 30
0.0
 10
-22.6802
 20
75.2978
 30
0.0
 10
-22.6802
 20
75.2978
 30
0.0
 10
-22.6802
 20
75.2978
 30
0.0
 10
-26.0893
 20
83.3278
 30
0.0
 10
-26.0893
 20
83.3278
 30
0.0
 10
-26.0893
 20
83.3278
 30
0.0
 10
-26.0893
 20
83.3278
 30
0.0
 10
-23.2247
 20
90.383
 30
0.0
 10
-23.2247
 20
90.383
 30
0.0
 10
-23.2247
 20
90.383
 30
0.0
 10
-23.2247
 20
90.383
 30
0.0
 10
-16.1944
 20
87.4436
 30
0.0
 10
-16.1944
 20
87.4436
 30
0.0
 10
-16.1944
 20
87.4436
 30
0.0
 10
-16.1944
 20
87.4436
 30
0.0
 10
-12.7663
 20
79.4234
 30
0.0
 10
-12.7663
 20
79.4234
 30
0.0
 10
-12.7663
 20
79.4234
 30
0.0
 10
-12.7663
 20
79.4234
 30
0.0
 10
-16.8846
 20
75.2978
 30
0.0
 10
-16.8846
 20
75.2978
 30
0.0
  0
SPLINE
  5
117
330
1F
100
AcDbEntity
  8
layer 1
 62
     7
100
AcDbSpline
210
0.0
220
0.0
230
1.0
 70
    11
 71
     3
 72
    28
 73
    24
 74
     0
 42
0.0000000001
 43
0.0000000001
 12
1.0
 22
0.0
 32
0.0
 13
1.0
 23
0.0
 33
0.0
 40
0.0
 40
0.0
 40
0.0
 40
0.0
 40
0.1428571428571428
 40
0.1428571428571428
 40
0.1428571428571428
 40
0.1428571428571428
 40
0.2857142857142857
 40
0.2857142857142857
 40
0.2857142857142857
 40
0.2857142857142857
 40
0.4285714285714285
 40
0.4285714285714285
 40
0.4285714285714285
 40
0.4285714285714285
 40
0.5714285714285714
 40
0.5714285714285714
 40
0.5714285714285714
 40
0.5714285714285714
 40
0.7142857142857143
 40
0.7142857142857143
 40
0.7142857142857143
 40
0.7142857142857143
 40
1.0
 40
1.0
 40
1.0
 40
1.0
 10
-1.3235
 20
90.8882
 30
0.0
 10
-1.3235
 20
90.8882
 30
0.0
 10
-5.4216
 20
86.7901
 30
0.0
 10
-5.4216
 20
86.7901
 30
0.0
 10
-5.4216
 20
86.7901
 30
0.0
 10
-5.4216
 20
86.7901
 30
0.0
 10
-13.5103
 20
90.0576
 30
0.0
 10
-13.5103
 20
90.0576
 30
0.0
 10
-13.5103
 20
90.0576
 30
0.0
 10
-13.5103
 20
90.0576
 30
0.0
 10
-16.4734
 20
97.0719
 30
0.0
 10
-16.4734
 20
97.0719
 30
0.0
 10
-16.4734
 20
97.0719
 30
0.0
 10
-16.4734
 20
97.0719
 30
0.0
 10
-9.4239
 20
99.9646
 30
0.0
 10
-9.4239
 20
99.9646
 30
0.0
 10
-9.4239
 20
99.9646
 30
0.0
 10
-9.4239
 20
99.9646
 30
0.0
 10
-1.3287
 20
96.7174
 30
0.0
 10
-1.3287
 20
96.7174
 30
0.0
 10
-1.3287
 20
96.7174
 30
0.0
 10
-1.3287
 20
96.7174
 30
0.0
 10
-1.3235
 20
90.8882
 30
0.0
 10
-1.3235
 20
90.8882
 30
0.0
  0
SPLINE
  5
118
330
1F
100
AcDbEntity
  8
layer 1
 62
     7
100
AcDbSpline
210
0.0
220
0.0
230
1.0
 70
    11
 71
     3
 72
    28
 73
    24
 74
     0
 42
0.0000000001
 43
0.0000000001
 12
1.0
 22
0.0
 32
0.0
 13
1.0
 23
0.0
 33
0.0
 40
0.0
 40
0.0
 40
0.0
 40
0.0
 40
0.1428571428571428
 40
0.1428571428571428
 40
0.1428571428571428
 40
0.1428571428571428
 40
0.2857142857142857
 40
0.2857142857142857
 40
0.2857142857142857
 40
0.2857142857142857
 40
0.4285714285714285
 40
0.4285714285714285
 40
0.4285714285714285
 40
0.4285714285714285
 40
0.5714285714285714
 40
0.5714285714285714
 40
0.5714285714285714
 40
0.5714285714285714
 40
0.7142857142857143
 40
0.7142857142857143
 40
0.7142857142857143
 40
0.7142857142857143
 40
1.0
 40
1.0
 40
1.0
 40
1.0
 10
-38.9326
 20
75.2978
 30
0.0
 10
-38.9326
 20
75.2978
 30
0.0
 10
-33.137
 20
75.2978
 30
0.0
 10
-33.137
 20
75.2978
 30
0.0
 10
-33.137
 20
75.2978
 30
0.0
 10
-33.137
 20
75.2978
 30
0.0
 10
-29.7279
 20
83.3278
 30
0.0
 10
-29.7279
 20
83.3278
 30
0.0
 10
-29.7279
 20
83.3278
 30
0.0
 10
-29.7279
 20
83.3278
 30
0.0
 10
-32.5925
 20
90.383
 30
0.0
 10
-32.5925
 20
90.383
 30
0.0
 10
-32.5925
 20
90.383
 30
0.0
 10
-32.5925
 20
90.383
 30
0.0
 10
-39.6227
 20
87.4436
 30
0.0
 10
-39.6227
 20
87.4436
 30
0.0
 10
-39.6227
 20
87.4436
 30
0.0
 10
-39.6227
 20
87.4436
 30
0.0
 10
-43.0508
 20
79.4234
 30
0.0
 10
-43.0508
 20
79.4234
 30
0.0
 10
-43.0508
 20
79.4234
 30
0.0
 10
-43.0508
 20
79.4234
 30
0.0
 10
-38.9326
 20
75.2978
 30
0.0
 10
-38.9326
 20
75.2978
 30
0.0
  0
SPLINE
  5
119
330
1F
100
AcDbEntity
  8
layer 1
 62
     7
100
AcDbSpline
210
0.0
220
0.0
230
1.0
 70
    11
 71
     3
 72
    28
 73
    24
 74
     0
 42
0.0000000001
 43
0.0000000001
 12
1.0
 22
0.0
 32
0.0
 13
1.0
 23
0.0
 33
0.0
 40
0.0
 40
0.0
 40
0.0
 40
0.0
 40
0.1428571428571428
 40
0.1428571428571428
 40
0.1428571428571428
 40
0.1428571428571428
 40
0.2857142857142857
 40
0.2857142857142857
 40
0.2857142857142857
 40
0.2857142857142857
 40
0.4285714285714285
 40
0.4285714285714285
 40
0.4285714285714285
 40
0.4285714285714285
 40
0.5714285714285714
 40
0.5714285714285714
 40
0.5714285714285714
 40
0.5714285714285714
 40
0.7142857142857143
 40
0.7142857142857143
 40
0.7142857142857143
 40
0.7142857142857143
 40
1.0
 40
1.0
 40
1.0
 40
1.0
 10
-54.4594
 20
75.2978
 30
0.0
 10
-54.4594
 20
75.2978
 30
0.0
 10
-43.6405
 20
75.2978
 30
0.0
 10
-43.6405
 20
75.2978
 30
0.0
 10
-43.6405
 20
75.2978
 30
0.0
 10
-43.6405
 20
75.2978
 30
0.0
 10
-46.9355
 20
78.6718
 30
0.0
 10
-46.9355
 20
78.6718
 30
0.0
 10
-46.9355
 20
78.6718
 30
0.0
 10
-46.9355
 20
78.6718
 30
0.0
 10
-44.0041
 20
85.611
 30
0.0
 10
-44.0041
 20
85.611
 30
0.0
 10
-44.0041
 20
85.611
 30
0.0
 10
-44.0041
 20
85.611
 30
0.0
 10
-50.9957
 20
82.7489
 30
0.0
 10
-50.9957
 20
82.7489
 30
0.0
 10
-50.9957
 20
82.7489
 30
0.0
 10
-50.9957
 20
82.7489
 30
0.0
 10
-54.4624
 20
85.9535
 30
0.0
 10
-54.4624
 20
85.9535
 30
0.0
 10
-54.4624
 20
85.9535
 30
0.0
 10
-54.4624
 20
85.9535
 30
0.0
 10
-54.4594
 20
75.2978
 30
0.0
 10
-54.4594
 20
75.2978
 30
0.0
  0
SPLINE
  5
11A
330
1F
100
AcDbEntity
  8
layer 1
 62
     7
100
AcDbSpline
210
0.0
220
0.0
230
1.0
 70
    11
 71
     3
 72
    28
 73
    24
 74
     0
 42
0.0000000001
 43
0.0000000001
 12
1.0
 22
0.0
 32
0.0
 13
1.0
 23
0.0
 33
0.0
 40
0.0
 40
0.0
 40
0.0
 40
0.0
 40
0.1428571428571428
 40
0.1428571428571428
 40
0.1428571428571428
 40
0.1428571428571428
 40
0.2857142857142857
 40
0.2857142857142857
 40
0.2857142857142857
 40
0.2857142857142857
 40
0.4285714285714285
 40
0.4285714285714285
 40
0.4285714285714285
 40
0.4285714285714285
 40
0.5714285714285714
 40
0.5714285714285714
 40
0.5714285714285714
 40
0.5714285714285714
 40
0.7142857142857143
 40
0.7142857142857143
 40
0.7142857142857143
 40
0.7142857142857143
 40
1.0
 40
1.0
 40
1.0
 40
1.0
 10
-1.3406
 20
75.2978
 30
0.0
 10
-1.3406
 20
75.2978
 30
0.0
 10
-12.1594
 20
75.2978
 30
0.0
 10
-12.1594
 20
75.2978
 30
0.0
 10
-12.1594
 20
75.2978
 30
0.0
 10
-12.1594
 20
75.2978
 30
0.0
 10
-8.8645
 20
78.6718
 30
0.0
 10
-8.8645
 20
78.6718
 30
0.0
 10
-8.8645
 20
78.6718
 30
0.0
 10
-8.8645
 20
78.6718
 30
0.0
 10
-11.7958
 20
85.611
 30
0.0
 10
-11.7958
 20
85.611
 30
0.0
 10
-11.7958
 20
85.611
 30
0.0
 10
-11.7958
 20
85.611
 30
0.0
 10
-4.8042
 20
82.7489
 30
0.0
 10
-4.8042
 20
82.7489
 30
0.0
 10
-4.8042
 20
82.7489
 30
0.0
 10
-4.8042
 20
82.7489
 30
0.0
 10
-1.3375
 20
85.9535
 30
0.0
 10
-1.3375
 20
85.9535
 30
0.0
 10
-1.3375
 20
85.9535
 30
0.0
 10
-1.3375
 20
85.9535
 30
0.0
 10
-1.3406
 20
75.2978
 30
0.0
 10
-1.3406
 20
75.2978
 30
0.0
  0
LWPOLYLINE
  5
11B
330
1F
100
AcDbEntity
  8
layer 1
100
AcDbPolyline
 90
        5
 70
     1
 43
0.0
 10
-56.6816
 20
-114.7849
 10
3.3078
 20
-114.7849
 10
3.3078
 20
65.7619
 10
-56.6816
 20
65.7619
 10
-56.6816
 20
-114.7849
  0
SPLINE
  5
11C
330
1F
100
AcDbEntity
  8
layer 1
 62
     7
100
AcDbSpline
210
0.0
220
0.0
230
1.0
 70
    11
 71
     3
 72
    68
 73
    64
 74
     0
 42
0.0000000001
 43
0.0000000001
 12
1.0
 22
0.0
 32
0.0
 13
1.0
 23
0.0
 33
0.0
 40
0.0
 40
0.0
 40
0.0
 40
0.0
 40
0.0588235294117647
 40
0.0588235294117647
 40
0.0588235294117647
 40
0.0588235294117647
 40
0.1176470588235294
 40
0.1176470588235294
 40
0.1176470588235294
 40
0.1176470588235294
 40
0.1764705882352941
 40
0.1764705882352941
 40
0.1764705882352941
 40
0.1764705882352941
 40
0.2352941176470588
 40
0.2352941176470588
 40
0.2352941176470588
 40
0.2352941176470588
 40
0.2941176470588235
 40
0.2941176470588235
 40
0.2941176470588235
 40
0.2941176470588235
 40
0.3529411764705883
 40
0.3529411764705883
 40
0.3529411764705883
 40
0.3529411764705883
 40
0.4117647058823529
 40
0.4117647058823529
 40
0.4117647058823529
 40
0.4117647058823529
 40
0.4705882352941176
 40
0.4705882352941176
 40
0.4705882352941176
 40
0.4705882352941176
 40
0.5294117647058824
 40
0.5294117647058824
 40
0.5294117647058824
 40
0.5294117647058824
 40
0.5882352941176471
 40
0.5882352941176471
 40
0.5882352941176471
 40
0.5882352941176471
 40
0.6470588235294118
 40
0.6470588235294118
 40
0.6470588235294118
 40
0.6470588235294118
 40
0.7058823529411765
 40
0.7058823529411765
 40
0.7058823529411765
 40
0.7058823529411765
 40
0.7647058823529411
 40
0.7647058823529411
 40
0.7647058823529411
 40
0.7647058823529411
 40
0.8235294117647058
 40
0.8235294117647058
 40
0.8235294117647058
 40
0.8235294117647058
 40
0.8823529411764706
 40
0.8823529411764706
 40
0.8823529411764706
 40
0.8823529411764706
 40
1.0
 40
1.0
 40
1.0
 40
1.0
 10
-16.7204
 20
25.0563
 30
0.0
 10
-16.7204
 20
25.0563
 30
0.0
 10
-23.7518
 20
27.9709
 30
0.0
 10
-23.7518
 20
27.9709
 30
0.0
 10
-23.7518
 20
27.9709
 30
0.0
 10
-23.7518
 20
27.9709
 30
0.0
 10
-26.6906
 20
20.9139
 30
0.0
 10
-26.6906
 20
20.9139
 30
0.0
 10
-26.6906
 20
20.9139
 30
0.0
 10
-26.6906
 20
20.9139
 30
0.0
 10
-29.6648
 20
27.9078
 30
0.0
 10
-29.6648
 20
27.9078
 30
0.0
 10
-29.6648
 20
27.9078
 30
0.0
 10
-29.6648
 20
27.9078
 30
0.0
 10
-36.5492
 20
25.0735
 30
0.0
 10
-36.5492
 20
25.0735
 30
0.0
 10
-36.5492
 20
25.0735
 30
0.0
 10
-36.5492
 20
25.0735
 30
0.0
 10
-33.7397
 20
32.1154
 30
0.0
 10
-33.7397
 20
32.1154
 30
0.0
 10
-33.7397
 20
32.1154
 30
0.0
 10
-33.7397
 20
32.1154
 30
0.0
 10
-40.7688
 20
34.9474
 30
0.0
 10
-40.7688
 20
34.9474
 30
0.0
 10
-40.7688
 20
34.9474
 30
0.0
 10
-40.7688
 20
34.9474
 30
0.0
 10
-33.7015
 20
37.985
 30
0.0
 10
-33.7015
 20
37.985
 30
0.0
 10
-33.7015
 20
37.985
 30
0.0
 10
-33.7015
 20
37.985
 30
0.0
 10
-36.7451
 20
45.0494
 30
0.0
 10
-36.7451
 20
45.0494
 30
0.0
 10
-36.7451
 20
45.0494
 30
0.0
 10
-36.7451
 20
45.0494
 30
0.0
 10
-29.5449
 20
41.9238
 30
0.0
 10
-29.5449
 20
41.9238
 30
0.0
 10
-29.5449
 20
41.9238
 30
0.0
 10
-29.5449
 20
41.9238
 30
0.0
 10
-26.7098
 20
49.1918
 30
0.0
 10
-26.7098
 20
49.1918
 30
0.0
 10
-26.7098
 20
49.1918
 30
0.0
 10
-26.7098
 20
49.1918
 30
0.0
 10
-23.7163
 20
41.9447
 30
0.0
 10
-23.7163
 20
41.9447
 30
0.0
 10
-23.7163
 20
41.9447
 30
0.0
 10
-23.7163
 20
41.9447
 30
0.0
 10
-16.6632
 20
44.99
 30
0.0
 10
-16.6632
 20
44.99
 30
0.0
 10
-16.6632
 20
44.99
 30
0.0
 10
-16.6632
 20
44.99
 30
0.0
 10
-19.6836
 20
37.8215
 30
0.0
 10
-19.6836
 20
37.8215
 30
0.0
 10
-19.6836
 20
37.8215
 30
0.0
 10
-19.6836
 20
37.8215
 30
0.0
 10
-12.5701
 20
34.9474
 30
0.0
 10
-12.5701
 20
34.9474
 30
0.0
 10
-12.5701
 20
34.9474
 30
0.0
 10
-12.5701
 20
34.9474
 30
0.0
 10
-19.7218
 20
32.1207
 30
0.0
 10
-19.7218
 20
32.1207
 30
0.0
 10
-19.7218
 20
32.1207
 30
0.0
 10
-19.7218
 20
32.1207
 30
0.0
 10
-16.7204
 20
25.0563
 30
0.0
 10
-16.7204
 20
25.0563
 30
0.0
  0
SPLINE
  5
11D
330
1F
100
AcDbEntity
  8
layer 1
 62
     7
100
AcDbSpline
210
0.0
220
0.0
230
1.0
 70
    11
 71
     3
 72
    28
 73
    24
 74
     0
 42
0.0000000001
 43
0.0000000001
 12
1.0
 22
0.0
 32
0.0
 13
1.0
 23
0.0
 33
0.0
 40
0.0
 40
0.0
 40
0.0
 40
0.0
 40
0.1428571428571428
 40
0.1428571428571428
 40
0.1428571428571428
 40
0.1428571428571428
 40
0.2857142857142857
 40
0.2857142857142857
 40
0.2857142857142857
 40
0.2857142857142857
 40
0.4285714285714285
 40
0.4285714285714285
 40
0.4285714285714285
 40
0.4285714285714285
 40
0.5714285714285714
 40
0.5714285714285714
 40
0.5714285714285714
 40
0.5714285714285714
 40
0.7142857142857143
 40
0.7142857142857143
 40
0.7142857142857143
 40
0.7142857142857143
 40
1.0
 40
1.0
 40
1.0
 40
1.0
 10
-53.2271
 20
45.8712
 30
0.0
 10
-53.2271
 20
45.8712
 30
0.0
 10
-49.148
 20
49.9503
 30
0.0
 10
-49.148
 20
49.9503
 30
0.0
 10
-49.148
 20
49.9503
 30
0.0
 10
-49.148
 20
49.9503
 30
0.0
 10
-41.0402
 20
46.7019
 30
0.0
 10
-41.0402
 20
46.7019
 30
0.0
 10
-41.0402
 20
46.7019
 30
0.0
 10
-41.0402
 20
46.7019
 30
0.0
 10
-38.0771
 20
39.6875
 30
0.0
 10
-38.0771
 20
39.6875
 30
0.0
 10
-38.0771
 20
39.6875
 30
0.0
 10
-38.0771
 20
39.6875
 30
0.0
 10
-45.1267
 20
36.7949
 30
0.0
 10
-45.1267
 20
36.7949
 30
0.0
 10
-45.1267
 20
36.7949
 30
0.0
 10
-45.1267
 20
36.7949
 30
0.0
 10
-53.2219
 20
40.042
 30
0.0
 10
-53.2219
 20
40.042
 30
0.0
 10
-53.2219
 20
40.042
 30
0.0
 10
-53.2219
 20
40.042
 30
0.0
 10
-53.2271
 20
45.8712
 30
0.0
 10
-53.2271
 20
45.8712
 30
0.0
  0
SPLINE
  5
11E
330
1F
100
AcDbEntity
  8
layer 1
 62
     7
100
AcDbSpline
210
0.0
220
0.0
230
1.0
 70
    11
 71
     3
 72
    28
 73
    24
 74
     0
 42
0.0000000001
 43
0.0000000001
 12
1.0
 22
0.0
 32
0.0
 13
1.0
 23
0.0
 33
0.0
 40
0.0
 40
0.0
 40
0.0
 40
0.0
 40
0.1428571428571428
 40
0.1428571428571428
 40
0.1428571428571428
 40
0.1428571428571428
 40
0.2857142857142857
 40
0.2857142857142857
 40
0.2857142857142857
 40
0.2857142857142857
 40
0.4285714285714285
 40
0.4285714285714285
 40
0.4285714285714285
 40
0.4285714285714285
 40
0.5714285714285714
 40
0.5714285714285714
 40
0.5714285714285714
 40
0.5714285714285714
 40
0.7142857142857143
 40
0.7142857142857143
 40
0.7142857142857143
 40
0.7142857142857143
 40
1.0
 40
1.0
 40
1.0
 40
1.0
 10
-15.6785
 20
61.4328
 30
0.0
 10
-15.6785
 20
61.4328
 30
0.0
 10
-21.4742
 20
61.4328
 30
0.0
 10
-21.4742
 20
61.4328
 30
0.0
 10
-21.4742
 20
61.4328
 30
0.0
 10
-21.4742
 20
61.4328
 30
0.0
 10
-24.8833
 20
53.4028
 30
0.0
 10
-24.8833
 20
53.4028
 30
0.0
 10
-24.8833
 20
53.4028
 30
0.0
 10
-24.8833
 20
53.4028
 30
0.0
 10
-22.0186
 20
46.3476
 30
0.0
 10
-22.0186
 20
46.3476
 30
0.0
 10
-22.0186
 20
46.3476
 30
0.0
 10
-22.0186
 20
46.3476
 30
0.0
 10
-14.9884
 20
49.287
 30
0.0
 10
-14.9884
 20
49.287
 30
0.0
 10
-14.9884
 20
49.287
 30
0.0
 10
-14.9884
 20
49.287
 30
0.0
 10
-11.5603
 20
57.3072
 30
0.0
 10
-11.5603
 20
57.3072
 30
0.0
 10
-11.5603
 20
57.3072
 30
0.0
 10
-11.5603
 20
57.3072
 30
0.0
 10
-15.6785
 20
61.4328
 30
0.0
 10
-15.6785
 20
61.4328
 30
0.0
  0
SPLINE
  5
11F
330
1F
100
AcDbEntity
  8
layer 1
 62
     7
100
AcDbSpline
210
0.0
220
0.0
230
1.0
 70
    11
 71
     3
 72
    28
 73
    24
 74
     0
 42
0.0000000001
 43
0.0000000001
 12
1.0
 22
0.0
 32
0.0
 13
1.0
 23
0.0
 33
0.0
 40
0.0
 40
0.0
 40
0.0
 40
0.0
 40
0.1428571428571428
 40
0.1428571428571428
 40
0.1428571428571428
 40
0.1428571428571428
 40
0.2857142857142857
 40
0.2857142857142857
 40
0.2857142857142857
 40
0.2857142857142857
 40
0.4285714285714285
 40
0.4285714285714285
 40
0.4285714285714285
 40
0.4285714285714285
 40
0.5714285714285714
 40
0.5714285714285714
 40
0.5714285714285714
 40
0.5714285714285714
 40
0.7142857142857143
 40
0.7142857142857143
 40
0.7142857142857143
 40
0.7142857142857143
 40
1.0
 40
1.0
 40
1.0
 40
1.0
 10
-0.1175
 20
45.8424
 30
0.0
 10
-0.1175
 20
45.8424
 30
0.0
 10
-4.2156
 20
49.9405
 30
0.0
 10
-4.2156
 20
49.9405
 30
0.0
 10
-4.2156
 20
49.9405
 30
0.0
 10
-4.2156
 20
49.9405
 30
0.0
 10
-12.3043
 20
46.673
 30
0.0
 10
-12.3043
 20
46.673
 30
0.0
 10
-12.3043
 20
46.673
 30
0.0
 10
-12.3043
 20
46.673
 30
0.0
 10
-15.2674
 20
39.6587
 30
0.0
 10
-15.2674
 20
39.6587
 30
0.0
 10
-15.2674
 20
39.6587
 30
0.0
 10
-15.2674
 20
39.6587
 30
0.0
 10
-8.2179
 20
36.766
 30
0.0
 10
-8.2179
 20
36.766
 30
0.0
 10
-8.2179
 20
36.766
 30
0.0
 10
-8.2179
 20
36.766
 30
0.0
 10
-0.1227
 20
40.0132
 30
0.0
 10
-0.1227
 20
40.0132
 30
0.0
 10
-0.1227
 20
40.0132
 30
0.0
 10
-0.1227
 20
40.0132
 30
0.0
 10
-0.1175
 20
45.8424
 30
0.0
 10
-0.1175
 20
45.8424
 30
0.0
  0
SPLINE
  5
120
330
1F
100
AcDbEntity
  8
layer 1
 62
     7
100
AcDbSpline
210
0.0
220
0.0
230
1.0
 70
    11
 71
     3
 72
    28
 73
    24
 74
     0
 42
0.0000000001
 43
0.0000000001
 12
1.0
 22
0.0
 32
0.0
 13
1.0
 23
0.0
 33
0.0
 40
0.0
 40
0.0
 40
0.0
 40
0.0
 40
0.1428571428571428
 40
0.1428571428571428
 40
0.1428571428571428
 40
0.1428571428571428
 40
0.2857142857142857
 40
0.2857142857142857
 40
0.2857142857142857
 40
0.2857142857142857
 40
0.4285714285714285
 40
0.4285714285714285
 40
0.4285714285714285
 40
0.4285714285714285
 40
0.5714285714285714
 40
0.5714285714285714
 40
0.5714285714285714
 40
0.5714285714285714
 40
0.7142857142857143
 40
0.7142857142857143
 40
0.7142857142857143
 40
0.7142857142857143
 40
1.0
 40
1.0
 40
1.0
 40
1.0
 10
-37.7266
 20
61.4328
 30
0.0
 10
-37.7266
 20
61.4328
 30
0.0
 10
-31.931
 20
61.4328
 30
0.0
 10
-31.931
 20
61.4328
 30
0.0
 10
-31.931
 20
61.4328
 30
0.0
 10
-31.931
 20
61.4328
 30
0.0
 10
-28.5219
 20
53.4028
 30
0.0
 10
-28.5219
 20
53.4028
 30
0.0
 10
-28.5219
 20
53.4028
 30
0.0
 10
-28.5219
 20
53.4028
 30
0.0
 10
-31.3865
 20
46.3476
 30
0.0
 10
-31.3865
 20
46.3476
 30
0.0
 10
-31.3865
 20
46.3476
 30
0.0
 10
-31.3865
 20
46.3476
 30
0.0
 10
-38.4167
 20
49.287
 30
0.0
 10
-38.4167
 20
49.287
 30
0.0
 10
-38.4167
 20
49.287
 30
0.0
 10
-38.4167
 20
49.287
 30
0.0
 10
-41.8448
 20
57.3072
 30
0.0
 10
-41.8448
 20
57.3072
 30
0.0
 10
-41.8448
 20
57.3072
 30
0.0
 10
-41.8448
 20
57.3072
 30
0.0
 10
-37.7266
 20
61.4328
 30
0.0
 10
-37.7266
 20
61.4328
 30
0.0
  0
SPLINE
  5
121
330
1F
100
AcDbEntity
  8
layer 1
 62
     7
100
AcDbSpline
210
0.0
220
0.0
230
1.0
 70
    11
 71
     3
 72
    28
 73
    24
 74
     0
 42
0.0000000001
 43
0.0000000001
 12
1.0
 22
0.0
 32
0.0
 13
1.0
 23
0.0
 33
0.0
 40
0.0
 40
0.0
 40
0.0
 40
0.0
 40
0.1428571428571428
 40
0.1428571428571428
 40
0.1428571428571428
 40
0.1428571428571428
 40
0.2857142857142857
 40
0.2857142857142857
 40
0.2857142857142857
 40
0.2857142857142857
 40
0.4285714285714285
 40
0.4285714285714285
 40
0.4285714285714285
 40
0.4285714285714285
 40
0.5714285714285714
 40
0.5714285714285714
 40
0.5714285714285714
 40
0.5714285714285714
 40
0.7142857142857143
 40
0.7142857142857143
 40
0.7142857142857143
 40
0.7142857142857143
 40
1.0
 40
1.0
 40
1.0
 40
1.0
 10
-53.2533
 20
61.4328
 30
0.0
 10
-53.2533
 20
61.4328
 30
0.0
 10
-42.4345
 20
61.4328
 30
0.0
 10
-42.4345
 20
61.4328
 30
0.0
 10
-42.4345
 20
61.4328
 30
0.0
 10
-42.4345
 20
61.4328
 30
0.0
 10
-45.7294
 20
58.0588
 30
0.0
 10
-45.7294
 20
58.0588
 30
0.0
 10
-45.7294
 20
58.0588
 30
0.0
 10
-45.7294
 20
58.0588
 30
0.0
 10
-42.7981
 20
51.1196
 30
0.0
 10
-42.7981
 20
51.1196
 30
0.0
 10
-42.7981
 20
51.1196
 30
0.0
 10
-42.7981
 20
51.1196
 30
0.0
 10
-49.7897
 20
53.9817
 30
0.0
 10
-49.7897
 20
53.9817
 30
0.0
 10
-49.7897
 20
53.9817
 30
0.0
 10
-49.7897
 20
53.9817
 30
0.0
 10
-53.2564
 20
50.7771
 30
0.0
 10
-53.2564
 20
50.7771
 30
0.0
 10
-53.2564
 20
50.7771
 30
0.0
 10
-53.2564
 20
50.7771
 30
0.0
 10
-53.2533
 20
61.4328
 30
0.0
 10
-53.2533
 20
61.4328
 30
0.0
  0
SPLINE
  5
122
330
1F
100
AcDbEntity
  8
layer 1
 62
     7
100
AcDbSpline
210
0.0
220
0.0
230
1.0
 70
    11
 71
     3
 72
    28
 73
    24
 74
     0
 42
0.0000000001
 43
0.0000000001
 12
1.0
 22
0.0
 32
0.0
 13
1.0
 23
0.0
 33
0.0
 40
0.0
 40
0.0
 40
0.0
 40
0.0
 40
0.1428571428571428
 40
0.1428571428571428
 40
0.1428571428571428
 40
0.1428571428571428
 40
0.2857142857142857
 40
0.2857142857142857
 40
0.2857142857142857
 40
0.2857142857142857
 40
0.4285714285714285
 40
0.4285714285714285
 40
0.4285714285714285
 40
0.4285714285714285
 40
0.5714285714285714
 40
0.5714285714285714
 40
0.5714285714285714
 40
0.5714285714285714
 40
0.7142857142857143
 40
0.7142857142857143
 40
0.7142857142857143
 40
0.7142857142857143
 40
1.0
 40
1.0
 40
1.0
 40
1.0
 10
-0.1346
 20
61.4328
 30
0.0
 10
-0.1346
 20
61.4328
 30
0.0
 10
-10.9534
 20
61.4328
 30
0.0
 10
-10.9534
 20
61.4328
 30
0.0
 10
-10.9534
 20
61.4328
 30
0.0
 10
-10.9534
 20
61.4328
 30
0.0
 10
-7.6585
 20
58.0588
 30
0.0
 10
-7.6585
 20
58.0588
 30
0.0
 10
-7.6585
 20
58.0588
 30
0.0
 10
-7.6585
 20
58.0588
 30
0.0
 10
-10.5898
 20
51.1196
 30
0.0
 10
-10.5898
 20
51.1196
 30
0.0
 10
-10.5898
 20
51.1196
 30
0.0
 10
-10.5898
 20
51.1196
 30
0.0
 10
-3.5982
 20
53.9817
 30
0.0
 10
-3.5982
 20
53.9817
 30
0.0
 10
-3.5982
 20
53.9817
 30
0.0
 10
-3.5982
 20
53.9817
 30
0.0
 10
-0.1315
 20
50.7771
 30
0.0
 10
-0.1315
 20
50.7771
 30
0.0
 10
-0.1315
 20
50.7771
 30
0.0
 10
-0.1315
 20
50.7771
 30
0.0
 10
-0.1346
 20
61.4328
 30
0.0
 10
-0.1346
 20
61.4328
 30
0.0
  0
SPLINE
  5
123
330
1F
100
AcDbEntity
  8
layer 1
 62
     7
100
AcDbSpline
210
0.0
220
0.0
230
1.0
 70
    11
 71
     3
 72
    28
 73
    24
 74
     0
 42
0.0000000001
 43
0.0000000001
 12
1.0
 22
0.0
 32
0.0
 13
1.0
 23
0.0
 33
0.0
 40
0.0
 40
0.0
 40
0.0
 40
0.0
 40
0.1428571428571428
 40
0.1428571428571428
 40
0.1428571428571428
 40
0.1428571428571428
 40
0.2857142857142857
 40
0.2857142857142857
 40
0.2857142857142857
 40
0.2857142857142857
 40
0.4285714285714285
 40
0.4285714285714285
 40
0.4285714285714285
 40
0.4285714285714285
 40
0.5714285714285714
 40
0.5714285714285714
 40
0.5714285714285714
 40
0.5714285714285714
 40
0.7142857142857143
 40
0.7142857142857143
 40
0.7142857142857143
 40
0.7142857142857143
 40
1.0
 40
1.0
 40
1.0
 40
1.0
 10
-53.2271
 20
23.9431
 30
0.0
 10
-53.2271
 20
23.9431
 30
0.0
 10
-49.148
 20
19.864
 30
0.0
 10
-49.148
 20
19.864
 30
0.0
 10
-49.148
 20
19.864
 30
0.0
 10
-49.148
 20
19.864
 30
0.0
 10
-41.0402
 20
23.1125
 30
0.0
 10
-41.0402
 20
23.1125
 30
0.0
 10
-41.0402
 20
23.1125
 30
0.0
 10
-41.0402
 20
23.1125
 30
0.0
 10
-38.0771
 20
30.1268
 30
0.0
 10
-38.0771
 20
30.1268
 30
0.0
 10
-38.0771
 20
30.1268
 30
0.0
 10
-38.0771
 20
30.1268
 30
0.0
 10
-45.1267
 20
33.0194
 30
0.0
 10
-45.1267
 20
33.0194
 30
0.0
 10
-45.1267
 20
33.0194
 30
0.0
 10
-45.1267
 20
33.0194
 30
0.0
 10
-53.2219
 20
29.7723
 30
0.0
 10
-53.2219
 20
29.7723
 30
0.0
 10
-53.2219
 20
29.7723
 30
0.0
 10
-53.2219
 20
29.7723
 30
0.0
 10
-53.2271
 20
23.9431
 30
0.0
 10
-53.2271
 20
23.9431
 30
0.0
  0
SPLINE
  5
124
330
1F
100
AcDbEntity
  8
layer 1
 62
     7
100
AcDbSpline
210
0.0
220
0.0
230
1.0
 70
    11
 71
     3
 72
    28
 73
    24
 74
     0
 42
0.0000000001
 43
0.0000000001
 12
1.0
 22
0.0
 32
0.0
 13
1.0
 23
0.0
 33
0.0
 40
0.0
 40
0.0
 40
0.0
 40
0.0
 40
0.1428571428571428
 40
0.1428571428571428
 40
0.1428571428571428
 40
0.1428571428571428
 40
0.2857142857142857
 40
0.2857142857142857
 40
0.2857142857142857
 40
0.2857142857142857
 40
0.4285714285714285
 40
0.4285714285714285
 40
0.4285714285714285
 40
0.4285714285714285
 40
0.5714285714285714
 40
0.5714285714285714
 40
0.5714285714285714
 40
0.5714285714285714
 40
0.7142857142857143
 40
0.7142857142857143
 40
0.7142857142857143
 40
0.7142857142857143
 40
1.0
 40
1.0
 40
1.0
 40
1.0
 10
-15.6785
 20
8.3815
 30
0.0
 10
-15.6785
 20
8.3815
 30
0.0
 10
-21.4742
 20
8.3815
 30
0.0
 10
-21.4742
 20
8.3815
 30
0.0
 10
-21.4742
 20
8.3815
 30
0.0
 10
-21.4742
 20
8.3815
 30
0.0
 10
-24.8833
 20
16.4115
 30
0.0
 10
-24.8833
 20
16.4115
 30
0.0
 10
-24.8833
 20
16.4115
 30
0.0
 10
-24.8833
 20
16.4115
 30
0.0
 10
-22.0186
 20
23.4667
 30
0.0
 10
-22.0186
 20
23.4667
 30
0.0
 10
-22.0186
 20
23.4667
 30
0.0
 10
-22.0186
 20
23.4667
 30
0.0
 10
-14.9884
 20
20.5273
 30
0.0
 10
-14.9884
 20
20.5273
 30
0.0
 10
-14.9884
 20
20.5273
 30
0.0
 10
-14.9884
 20
20.5273
 30
0.0
 10
-11.5603
 20
12.5071
 30
0.0
 10
-11.5603
 20
12.5071
 30
0.0
 10
-11.5603
 20
12.5071
 30
0.0
 10
-11.5603
 20
12.5071
 30
0.0
 10
-15.6785
 20
8.3815
 30
0.0
 10
-15.6785
 20
8.3815
 30
0.0
  0
SPLINE
  5
125
330
1F
100
AcDbEntity
  8
layer 1
 62
     7
100
AcDbSpline
210
0.0
220
0.0
230
1.0
 70
    11
 71
     3
 72
    28
 73
    24
 74
     0
 42
0.0000000001
 43
0.0000000001
 12
1.0
 22
0.0
 32
0.0
 13
1.0
 23
0.0
 33
0.0
 40
0.0
 40
0.0
 40
0.0
 40
0.0
 40
0.1428571428571428
 40
0.1428571428571428
 40
0.1428571428571428
 40
0.1428571428571428
 40
0.2857142857142857
 40
0.2857142857142857
 40
0.2857142857142857
 40
0.2857142857142857
 40
0.4285714285714285
 40
0.4285714285714285
 40
0.4285714285714285
 40
0.4285714285714285
 40
0.5714285714285714
 40
0.5714285714285714
 40
0.5714285714285714
 40
0.5714285714285714
 40
0.7142857142857143
 40
0.7142857142857143
 40
0.7142857142857143
 40
0.7142857142857143
 40
1.0
 40
1.0
 40
1.0
 40
1.0
 10
-0.1175
 20
23.9719
 30
0.0
 10
-0.1175
 20
23.9719
 30
0.0
 10
-4.2156
 20
19.8738
 30
0.0
 10
-4.2156
 20
19.8738
 30
0.0
 10
-4.2156
 20
19.8738
 30
0.0
 10
-4.2156
 20
19.8738
 30
0.0
 10
-12.3043
 20
23.1413
 30
0.0
 10
-12.3043
 20
23.1413
 30
0.0
 10
-12.3043
 20
23.1413
 30
0.0
 10
-12.3043
 20
23.1413
 30
0.0
 10
-15.2674
 20
30.1556
 30
0.0
 10
-15.2674
 20
30.1556
 30
0.0
 10
-15.2674
 20
30.1556
 30
0.0
 10
-15.2674
 20
30.1556
 30
0.0
 10
-8.2179
 20
33.0483
 30
0.0
 10
-8.2179
 20
33.0483
 30
0.0
 10
-8.2179
 20
33.0483
 30
0.0
 10
-8.2179
 20
33.0483
 30
0.0
 10
-0.1227
 20
29.8012
 30
0.0
 10
-0.1227
 20
29.8012
 30
0.0
 10
-0.1227
 20
29.8012
 30
0.0
 10
-0.1227
 20
29.8012
 30
0.0
 10
-0.1175
 20
23.9719
 30
0.0
 10
-0.1175
 20
23.9719
 30
0.0
  0
SPLINE
  5
126
330
1F
100
AcDbEntity
  8
layer 1
 62
     7
100
AcDbSpline
210
0.0
220
0.0
230
1.0
 70
    11
 71
     3
 72
    28
 73
    24
 74
     0
 42
0.0000000001
 43
0.0000000001
 12
1.0
 22
0.0
 32
0.0
 13
1.0
 23
0.0
 33
0.0
 40
0.0
 40
0.0
 40
0.0
 40
0.0
 40
0.1428571428571428
 40
0.1428571428571428
 40
0.1428571428571428
 40
0.1428571428571428
 40
0.2857142857142857
 40
0.2857142857142857
 40
0.2857142857142857
 40
0.2857142857142857
 40
0.4285714285714285
 40
0.4285714285714285
 40
0.4285714285714285
 40
0.4285714285714285
 40
0.5714285714285714
 40
0.5714285714285714
 40
0.5714285714285714
 40
0.5714285714285714
 40
0.7142857142857143
 40
0.7142857142857143
 40
0.7142857142857143
 40
0.7142857142857143
 40
1.0
 40
1.0
 40
1.0
 40
1.0
 10
-37.7266
 20
8.3815
 30
0.0
 10
-37.7266
 20
8.3815
 30
0.0
 10
-31.931
 20
8.3815
 30
0.0
 10
-31.931
 20
8.3815
 30
0.0
 10
-31.931
 20
8.3815
 30
0.0
 10
-31.931
 20
8.3815
 30
0.0
 10
-28.5219
 20
16.4115
 30
0.0
 10
-28.5219
 20
16.4115
 30
0.0
 10
-28.5219
 20
16.4115
 30
0.0
 10
-28.5219
 20
16.4115
 30
0.0
 10
-31.3865
 20
23.4667
 30
0.0
 10
-31.3865
 20
23.4667
 30
0.0
 10
-31.3865
 20
23.4667
 30
0.0
 10
-31.3865
 20
23.4667
 30
0.0
 10
-38.4167
 20
20.5273
 30
0.0
 10
-38.4167
 20
20.5273
 30
0.0
 10
-38.4167
 20
20.5273
 30
0.0
 10
-38.4167
 20
20.5273
 30
0.0
 10
-41.8448
 20
12.5071
 30
0.0
 10
-41.8448
 20
12.5071
 30
0.0
 10
-41.8448
 20
12.5071
 30
0.0
 10
-41.8448
 20
12.5071
 30
0.0
 10
-37.7266
 20
8.3815
 30
0.0
 10
-37.7266
 20
8.3815
 30
0.0
  0
SPLINE
  5
127
330
1F
100
AcDbEntity
  8
layer 1
 62
     7
100
AcDbSpline
210
0.0
220
0.0
230
1.0
 70
    11
 71
     3
 72
    28
 73
    24
 74
     0
 42
0.0000000001
 43
0.0000000001
 12
1.0
 22
0.0
 32
0.0
 13
1.0
 23
0.0
 33
0.0
 40
0.0
 40
0.0
 40
0.0
 40
0.0
 40
0.1428571428571428
 40
0.1428571428571428
 40
0.1428571428571428
 40
0.1428571428571428
 40
0.2857142857142857
 40
0.2857142857142857
 40
0.2857142857142857
 40
0.2857142857142857
 40
0.4285714285714285
 40
0.4285714285714285
 40
0.4285714285714285
 40
0.4285714285714285
 40
0.5714285714285714
 40
0.5714285714285714
 40
0.5714285714285714
 40
0.5714285714285714
 40
0.7142857142857143
 40
0.7142857142857143
 40
0.7142857142857143
 40
0.7142857142857143
 40
1.0
 40
1.0
 40
1.0
 40
1.0
 10
-53.2533
 20
8.3815
 30
0.0
 10
-53.2533
 20
8.3815
 30
0.0
 10
-42.4345
 20
8.3815
 30
0.0
 10
-42.4345
 20
8.3815
 30
0.0
 10
-42.4345
 20
8.3815
 30
0.0
 10
-42.4345
 20
8.3815
 30
0.0
 10
-45.7294
 20
11.7555
 30
0.0
 10
-45.7294
 20
11.7555
 30
0.0
 10
-45.7294
 20
11.7555
 30
0.0
 10
-45.7294
 20
11.7555
 30
0.0
 10
-42.7981
 20
18.6947
 30
0.0
 10
-42.7981
 20
18.6947
 30
0.0
 10
-42.7981
 20
18.6947
 30
0.0
 10
-42.7981
 20
18.6947
 30
0.0
 10
-49.7897
 20
15.8326
 30
0.0
 10
-49.7897
 20
15.8326
 30
0.0
 10
-49.7897
 20
15.8326
 30
0.0
 10
-49.7897
 20
15.8326
 30
0.0
 10
-53.2564
 20
19.0372
 30
0.0
 10
-53.2564
 20
19.0372
 30
0.0
 10
-53.2564
 20
19.0372
 30
0.0
 10
-53.2564
 20
19.0372
 30
0.0
 10
-53.2533
 20
8.3815
 30
0.0
 10
-53.2533
 20
8.3815
 30
0.0
  0
SPLINE
  5
128
330
1F
100
AcDbEntity
  8
layer 1
 62
     7
100
AcDbSpline
210
0.0
220
0.0
230
1.0
 70
    11
 71
     3
 72
    28
 73
    24
 74
     0
 42
0.0000000001
 43
0.0000000001
 12
1.0
 22
0.0
 32
0.0
 13
1.0
 23
0.0
 33
0.0
 40
0.0
 40
0.0
 40
0.0
 40
0.0
 40
0.1428571428571428
 40
0.1428571428571428
 40
0.1428571428571428
 40
0.1428571428571428
 40
0.2857142857142857
 40
0.2857142857142857
 40
0.2857142857142857
 40
0.2857142857142857
 40
0.4285714285714285
 40
0.4285714285714285
 40
0.4285714285714285
 40
0.4285714285714285
 40
0.5714285714285714
 40
0.5714285714285714
 40
0.5714285714285714
 40
0.5714285714285714
 40
0.7142857142857143
 40
0.7142857142857143
 40
0.7142857142857143
 40
0.7142857142857143
 40
1.0
 40
1.0
 40
1.0
 40
1.0
 10
-0.1346
 20
8.3815
 30
0.0
 10
-0.1346
 20
8.3815
 30
0.0
 10
-10.9534
 20
8.3815
 30
0.0
 10
-10.9534
 20
8.3815
 30
0.0
 10
-10.9534
 20
8.3815
 30
0.0
 10
-10.9534
 20
8.3815
 30
0.0
 10
-7.6585
 20
11.7555
 30
0.0
 10
-7.6585
 20
11.7555
 30
0.0
 10
-7.6585
 20
11.7555
 30
0.0
 10
-7.6585
 20
11.7555
 30
0.0
 10
-10.5898
 20
18.6947
 30
0.0
 10
-10.5898
 20
18.6947
 30
0.0
 10
-10.5898
 20
18.6947
 30
0.0
 10
-10.5898
 20
18.6947
 30
0.0
 10
-3.5982
 20
15.8326
 30
0.0
 10
-3.5982
 20
15.8326
 30
0.0
 10
-3.5982
 20
15.8326
 30
0.0
 10
-3.5982
 20
15.8326
 30
0.0
 10
-0.1315
 20
19.0372
 30
0.0
 10
-0.1315
 20
19.0372
 30
0.0
 10
-0.1315
 20
19.0372
 30
0.0
 10
-0.1315
 20
19.0372
 30
0.0
 10
-0.1346
 20
8.3815
 30
0.0
 10
-0.1346
 20
8.3815
 30
0.0
  0
SPLINE
  5
129
330
1F
100
AcDbEntity
  8
layer 1
 62
     7
100
AcDbSpline
210
0.0
220
0.0
230
1.0
 70
    11
 71
     3
 72
    68
 73
    64
 74
     0
 42
0.0000000001
 43
0.0000000001
 12
1.0
 22
0.0
 32
0.0
 13
1.0
 23
0.0
 33
0.0
 40
0.0
 40
0.0
 40
0.0
 40
0.0
 40
0.0588235294117647
 40
0.0588235294117647
 40
0.0588235294117647
 40
0.0588235294117647
 40
0.1176470588235294
 40
0.1176470588235294
 40
0.1176470588235294
 40
0.1176470588235294
 40
0.1764705882352941
 40
0.1764705882352941
 40
0.1764705882352941
 40
0.1764705882352941
 40
0.2352941176470588
 40
0.2352941176470588
 40
0.2352941176470588
 40
0.2352941176470588
 40
0.2941176470588235
 40
0.2941176470588235
 40
0.2941176470588235
 40
0.2941176470588235
 40
0.3529411764705883
 40
0.3529411764705883
 40
0.3529411764705883
 40
0.3529411764705883
 40
0.4117647058823529
 40
0.4117647058823529
 40
0.4117647058823529
 40
0.4117647058823529
 40
0.4705882352941176
 40
0.4705882352941176
 40
0.4705882352941176
 40
0.4705882352941176
 40
0.5294117647058824
 40
0.5294117647058824
 40
0.5294117647058824
 40
0.5294117647058824
 40
0.5882352941176471
 40
0.5882352941176471
 40
0.5882352941176471
 40
0.5882352941176471
 40
0.6470588235294118
 40
0.6470588235294118
 40
0.6470588235294118
 40
0.6470588235294118
 40
0.7058823529411765
 40
0.7058823529411765
 40
0.7058823529411765
 40
0.7058823529411765
 40
0.7647058823529411
 40
0.7647058823529411
 40
0.7647058823529411
 40
0.7647058823529411
 40
0.8235294117647058
 40
0.8235294117647058
 40
0.8235294117647058
 40
0.8235294117647058
 40
0.8823529411764706
 40
0.8823529411764706
 40
0.8823529411764706
 40
0.8823529411764706
 40
1.0
 40
1.0
 40
1.0
 40
1.0
 10
-16.7204
 20
-33.7443
 30
0.0
 10
-16.7204
 20
-33.7443
 30
0.0
 10
-23.7518
 20
-30.8297
 30
0.0
 10
-23.7518
 20
-30.8297
 30
0.0
 10
-23.7518
 20
-30.8297
 30
0.0
 10
-23.7518
 20
-30.8297
 30
0.0
 10
-26.6906
 20
-37.8867
 30
0.0
 10
-26.6906
 20
-37.8867
 30
0.0
 10
-26.6906
 20
-37.8867
 30
0.0
 10
-26.6906
 20
-37.8867
 30
0.0
 10
-29.6648
 20
-30.8928
 30
0.0
 10
-29.6648
 20
-30.8928
 30
0.0
 10
-29.6648
 20
-30.8928
 30
0.0
 10
-29.6648
 20
-30.8928
 30
0.0
 10
-36.5492
 20
-33.7271
 30
0.0
 10
-36.5492
 20
-33.7271
 30
0.0
 10
-36.5492
 20
-33.7271
 30
0.0
 10
-36.5492
 20
-33.7271
 30
0.0
 10
-33.7397
 20
-26.6852
 30
0.0
 10
-33.7397
 20
-26.6852
 30
0.0
 10
-33.7397
 20
-26.6852
 30
0.0
 10
-33.7397
 20
-26.6852
 30
0.0
 10
-40.7688
 20
-23.8532
 30
0.0
 10
-40.7688
 20
-23.8532
 30
0.0
 10
-40.7688
 20
-23.8532
 30
0.0
 10
-40.7688
 20
-23.8532
 30
0.0
 10
-33.7015
 20
-20.8156
 30
0.0
 10
-33.7015
 20
-20.8156
 30
0.0
 10
-33.7015
 20
-20.8156
 30
0.0
 10
-33.7015
 20
-20.8156
 30
0.0
 10
-36.7451
 20
-13.7512
 30
0.0
 10
-36.7451
 20
-13.7512
 30
0.0
 10
-36.7451
 20
-13.7512
 30
0.0
 10
-36.7451
 20
-13.7512
 30
0.0
 10
-29.5449
 20
-16.8768
 30
0.0
 10
-29.5449
 20
-16.8768
 30
0.0
 10
-29.5449
 20
-16.8768
 30
0.0
 10
-29.5449
 20
-16.8768
 30
0.0
 10
-26.7098
 20
-9.6088
 30
0.0
 10
-26.7098
 20
-9.6088
 30
0.0
 10
-26.7098
 20
-9.6088
 30
0.0
 10
-26.7098
 20
-9.6088
 30
0.0
 10
-23.7163
 20
-16.8559
 30
0.0
 10
-23.7163
 20
-16.8559
 30
0.0
 10
-23.7163
 20
-16.8559
 30
0.0
 10
-23.7163
 20
-16.8559
 30
0.0
 10
-16.6632
 20
-13.8106
 30
0.0
 10
-16.6632
 20
-13.8106
 30
0.0
 10
-16.6632
 20
-13.8106
 30
0.0
 10
-16.6632
 20
-13.8106
 30
0.0
 10
-19.6836
 20
-20.9791
 30
0.0
 10
-19.6836
 20
-20.9791
 30
0.0
 10
-19.6836
 20
-20.9791
 30
0.0
 10
-19.6836
 20
-20.9791
 30
0.0
 10
-12.5701
 20
-23.8532
 30
0.0
 10
-12.5701
 20
-23.8532
 30
0.0
 10
-12.5701
 20
-23.8532
 30
0.0
 10
-12.5701
 20
-23.8532
 30
0.0
 10
-19.7218
 20
-26.6799
 30
0.0
 10
-19.7218
 20
-26.6799
 30
0.0
 10
-19.7218
 20
-26.6799
 30
0.0
 10
-19.7218
 20
-26.6799
 30
0.0
 10
-16.7204
 20
-33.7443
 30
0.0
 10
-16.7204
 20
-33.7443
 30
0.0
  0
SPLINE
  5
12A
330
1F
100
AcDbEntity
  8
layer 1
 62
     7
100
AcDbSpline
210
0.0
220
0.0
230
1.0
 70
    11
 71
     3
 72
    28
 73
    24
 74
     0
 42
0.0000000001
 43
0.0000000001
 12
1.0
 22
0.0
 32
0.0
 13
1.0
 23
0.0
 33
0.0
 40
0.0
 40
0.0
 40
0.0
 40
0.0
 40
0.1428571428571428
 40
0.1428571428571428
 40
0.1428571428571428
 40
0.1428571428571428
 40
0.2857142857142857
 40
0.2857142857142857
 40
0.2857142857142857
 40
0.2857142857142857
 40
0.4285714285714285
 40
0.4285714285714285
 40
0.4285714285714285
 40
0.4285714285714285
 40
0.5714285714285714
 40
0.5714285714285714
 40
0.5714285714285714
 40
0.5714285714285714
 40
0.7142857142857143
 40
0.7142857142857143
 40
0.7142857142857143
 40
0.7142857142857143
 40
1.0
 40
1.0
 40
1.0
 40
1.0
 10
-53.2271
 20
-12.9294
 30
0.0
 10
-53.2271
 20
-12.9294
 30
0.0
 10
-49.148
 20
-8.8503
 30
0.0
 10
-49.148
 20
-8.8503
 30
0.0
 10
-49.148
 20
-8.8503
 30
0.0
 10
-49.148
 20
-8.8503
 30
0.0
 10
-41.0402
 20
-12.0987
 30
0.0
 10
-41.0402
 20
-12.0987
 30
0.0
 10
-41.0402
 20
-12.0987
 30
0.0
 10
-41.0402
 20
-12.0987
 30
0.0
 10
-38.0771
 20
-19.1131
 30
0.0
 10
-38.0771
 20
-19.1131
 30
0.0
 10
-38.0771
 20
-19.1131
 30
0.0
 10
-38.0771
 20
-19.1131
 30
0.0
 10
-45.1267
 20
-22.0057
 30
0.0
 10
-45.1267
 20
-22.0057
 30
0.0
 10
-45.1267
 20
-22.0057
 30
0.0
 10
-45.1267
 20
-22.0057
 30
0.0
 10
-53.2219
 20
-18.7586
 30
0.0
 10
-53.2219
 20
-18.7586
 30
0.0
 10
-53.2219
 20
-18.7586
 30
0.0
 10
-53.2219
 20
-18.7586
 30
0.0
 10
-53.2271
 20
-12.9294
 30
0.0
 10
-53.2271
 20
-12.9294
 30
0.0
  0
SPLINE
  5
12B
330
1F
100
AcDbEntity
  8
layer 1
 62
     7
100
AcDbSpline
210
0.0
220
0.0
230
1.0
 70
    11
 71
     3
 72
    28
 73
    24
 74
     0
 42
0.0000000001
 43
0.0000000001
 12
1.0
 22
0.0
 32
0.0
 13
1.0
 23
0.0
 33
0.0
 40
0.0
 40
0.0
 40
0.0
 40
0.0
 40
0.1428571428571428
 40
0.1428571428571428
 40
0.1428571428571428
 40
0.1428571428571428
 40
0.2857142857142857
 40
0.2857142857142857
 40
0.2857142857142857
 40
0.2857142857142857
 40
0.4285714285714285
 40
0.4285714285714285
 40
0.4285714285714285
 40
0.4285714285714285
 40
0.5714285714285714
 40
0.5714285714285714
 40
0.5714285714285714
 40
0.5714285714285714
 40
0.7142857142857143
 40
0.7142857142857143
 40
0.7142857142857143
 40
0.7142857142857143
 40
1.0
 40
1.0
 40
1.0
 40
1.0
 10
-15.6785
 20
2.6322
 30
0.0
 10
-15.6785
 20
2.6322
 30
0.0
 10
-21.4742
 20
2.6322
 30
0.0
 10
-21.4742
 20
2.6322
 30
0.0
 10
-21.4742
 20
2.6322
 30
0.0
 10
-21.4742
 20
2.6322
 30
0.0
 10
-24.8833
 20
-5.3978
 30
0.0
 10
-24.8833
 20
-5.3978
 30
0.0
 10
-24.8833
 20
-5.3978
 30
0.0
 10
-24.8833
 20
-5.3978
 30
0.0
 10
-22.0186
 20
-12.453
 30
0.0
 10
-22.0186
 20
-12.453
 30
0.0
 10
-22.0186
 20
-12.453
 30
0.0
 10
-22.0186
 20
-12.453
 30
0.0
 10
-14.9884
 20
-9.5136
 30
0.0
 10
-14.9884
 20
-9.5136
 30
0.0
 10
-14.9884
 20
-9.5136
 30
0.0
 10
-14.9884
 20
-9.5136
 30
0.0
 10
-11.5603
 20
-1.4934
 30
0.0
 10
-11.5603
 20
-1.4934
 30
0.0
 10
-11.5603
 20
-1.4934
 30
0.0
 10
-11.5603
 20
-1.4934
 30
0.0
 10
-15.6785
 20
2.6322
 30
0.0
 10
-15.6785
 20
2.6322
 30
0.0
  0
SPLINE
  5
12C
330
1F
100
AcDbEntity
  8
layer 1
 62
     7
100
AcDbSpline
210
0.0
220
0.0
230
1.0
 70
    11
 71
     3
 72
    28
 73
    24
 74
     0
 42
0.0000000001
 43
0.0000000001
 12
1.0
 22
0.0
 32
0.0
 13
1.0
 23
0.0
 33
0.0
 40
0.0
 40
0.0
 40
0.0
 40
0.0
 40
0.1428571428571428
 40
0.1428571428571428
 40
0.1428571428571428
 40
0.1428571428571428
 40
0.2857142857142857
 40
0.2857142857142857
 40
0.2857142857142857
 40
0.2857142857142857
 40
0.4285714285714285
 40
0.4285714285714285
 40
0.4285714285714285
 40
0.4285714285714285
 40
0.5714285714285714
 40
0.5714285714285714
 40
0.5714285714285714
 40
0.5714285714285714
 40
0.7142857142857143
 40
0.7142857142857143
 40
0.7142857142857143
 40
0.7142857142857143
 40
1.0
 40
1.0
 40
1.0
 40
1.0
 10
-0.1175
 20
-12.9582
 30
0.0
 10
-0.1175
 20
-12.9582
 30
0.0
 10
-4.2156
 20
-8.8601
 30
0.0
 10
-4.2156
 20
-8.8601
 30
0.0
 10
-4.2156
 20
-8.8601
 30
0.0
 10
-4.2156
 20
-8.8601
 30
0.0
 10
-12.3043
 20
-12.1276
 30
0.0
 10
-12.3043
 20
-12.1276
 30
0.0
 10
-12.3043
 20
-12.1276
 30
0.0
 10
-12.3043
 20
-12.1276
 30
0.0
 10
-15.2674
 20
-19.1419
 30
0.0
 10
-15.2674
 20
-19.1419
 30
0.0
 10
-15.2674
 20
-19.1419
 30
0.0
 10
-15.2674
 20
-19.1419
 30
0.0
 10
-8.2179
 20
-22.0346
 30
0.0
 10
-8.2179
 20
-22.0346
 30
0.0
 10
-8.2179
 20
-22.0346
 30
0.0
 10
-8.2179
 20
-22.0346
 30
0.0
 10
-0.1227
 20
-18.7874
 30
0.0
 10
-0.1227
 20
-18.7874
 30
0.0
 10
-0.1227
 20
-18.7874
 30
0.0
 10
-0.1227
 20
-18.7874
 30
0.0
 10
-0.1175
 20
-12.9582
 30
0.0
 10
-0.1175
 20
-12.9582
 30
0.0
  0
SPLINE
  5
12D
330
1F
100
AcDbEntity
  8
layer 1
 62
     7
100
AcDbSpline
210
0.0
220
0.0
230
1.0
 70
    11
 71
     3
 72
    28
 73
    24
 74
     0
 42
0.0000000001
 43
0.0000000001
 12
1.0
 22
0.0
 32
0.0
 13
1.0
 23
0.0
 33
0.0
 40
0.0
 40
0.0
 40
0.0
 40
0.0
 40
0.1428571428571428
 40
0.1428571428571428
 40
0.1428571428571428
 40
0.1428571428571428
 40
0.2857142857142857
 40
0.2857142857142857
 40
0.2857142857142857
 40
0.2857142857142857
 40
0.4285714285714285
 40
0.4285714285714285
 40
0.4285714285714285
 40
0.4285714285714285
 40
0.5714285714285714
 40
0.5714285714285714
 40
0.5714285714285714
 40
0.5714285714285714
 40
0.7142857142857143
 40
0.7142857142857143
 40
0.7142857142857143
 40
0.7142857142857143
 40
1.0
 40
1.0
 40
1.0
 40
1.0
 10
-37.7266
 20
2.6322
 30
0.0
 10
-37.7266
 20
2.6322
 30
0.0
 10
-31.931
 20
2.6322
 30
0.0
 10
-31.931
 20
2.6322
 30
0.0
 10
-31.931
 20
2.6322
 30
0.0
 10
-31.931
 20
2.6322
 30
0.0
 10
-28.5219
 20
-5.3978
 30
0.0
 10
-28.5219
 20
-5.3978
 30
0.0
 10
-28.5219
 20
-5.3978
 30
0.0
 10
-28.5219
 20
-5.3978
 30
0.0
 10
-31.3865
 20
-12.453
 30
0.0
 10
-31.3865
 20
-12.453
 30
0.0
 10
-31.3865
 20
-12.453
 30
0.0
 10
-31.3865
 20
-12.453
 30
0.0
 10
-38.4167
 20
-9.5136
 30
0.0
 10
-38.4167
 20
-9.5136
 30
0.0
 10
-38.4167
 20
-9.5136
 30
0.0
 10
-38.4167
 20
-9.5136
 30
0.0
 10
-41.8448
 20
-1.4934
 30
0.0
 10
-41.8448
 20
-1.4934
 30
0.0
 10
-41.8448
 20
-1.4934
 30
0.0
 10
-41.8448
 20
-1.4934
 30
0.0
 10
-37.7266
 20
2.6322
 30
0.0
 10
-37.7266
 20
2.6322
 30
0.0
  0
SPLINE
  5
12E
330
1F
100
AcDbEntity
  8
layer 1
 62
     7
100
AcDbSpline
210
0.0
220
0.0
230
1.0
 70
    11
 71
     3
 72
    28
 73
    24
 74
     0
 42
0.0000000001
 43
0.0000000001
 12
1.0
 22
0.0
 32
0.0
 13
1.0
 23
0.0
 33
0.0
 40
0.0
 40
0.0
 40
0.0
 40
0.0
 40
0.1428571428571428
 40
0.1428571428571428
 40
0.1428571428571428
 40
0.1428571428571428
 40
0.2857142857142857
 40
0.2857142857142857
 40
0.2857142857142857
 40
0.2857142857142857
 40
0.4285714285714285
 40
0.4285714285714285
 40
0.4285714285714285
 40
0.4285714285714285
 40
0.5714285714285714
 40
0.5714285714285714
 40
0.5714285714285714
 40
0.5714285714285714
 40
0.7142857142857143
 40
0.7142857142857143
 40
0.7142857142857143
 40
0.7142857142857143
 40
1.0
 40
1.0
 40
1.0
 40
1.0
 10
-53.2533
 20
2.6322
 30
0.0
 10
-53.2533
 20
2.6322
 30
0.0
 10
-42.4345
 20
2.6322
 30
0.0
 10
-42.4345
 20
2.6322
 30
0.0
 10
-42.4345
 20
2.6322
 30
0.0
 10
-42.4345
 20
2.6322
 30
0.0
 10
-45.7294
 20
-0.7418
 30
0.0
 10
-45.7294
 20
-0.7418
 30
0.0
 10
-45.7294
 20
-0.7418
 30
0.0
 10
-45.7294
 20
-0.7418
 30
0.0
 10
-42.7981
 20
-7.681
 30
0.0
 10
-42.7981
 20
-7.681
 30
0.0
 10
-42.7981
 20
-7.681
 30
0.0
 10
-42.7981
 20
-7.681
 30
0.0
 10
-49.7897
 20
-4.8189
 30
0.0
 10
-49.7897
 20
-4.8189
 30
0.0
 10
-49.7897
 20
-4.8189
 30
0.0
 10
-49.7897
 20
-4.8189
 30
0.0
 10
-53.2564
 20
-8.0235
 30
0.0
 10
-53.2564
 20
-8.0235
 30
0.0
 10
-53.2564
 20
-8.0235
 30
0.0
 10
-53.2564
 20
-8.0235
 30
0.0
 10
-53.2533
 20
2.6322
 30
0.0
 10
-53.2533
 20
2.6322
 30
0.0
  0
SPLINE
  5
12F
330
1F
100
AcDbEntity
  8
layer 1
 62
     7
100
AcDbSpline
210
0.0
220
0.0
230
1.0
 70
    11
 71
     3
 72
    28
 73
    24
 74
     0
 42
0.0000000001
 43
0.0000000001
 12
1.0
 22
0.0
 32
0.0
 13
1.0
 23
0.0
 33
0.0
 40
0.0
 40
0.0
 40
0.0
 40
0.0
 40
0.1428571428571428
 40
0.1428571428571428
 40
0.1428571428571428
 40
0.1428571428571428
 40
0.2857142857142857
 40
0.2857142857142857
 40
0.2857142857142857
 40
0.2857142857142857
 40
0.4285714285714285
 40
0.4285714285714285
 40
0.4285714285714285
 40
0.4285714285714285
 40
0.5714285714285714
 40
0.5714285714285714
 40
0.5714285714285714
 40
0.5714285714285714
 40
0.7142857142857143
 40
0.7142857142857143
 40
0.7142857142857143
 40
0.7142857142857143
 40
1.0
 40
1.0
 40
1.0
 40
1.0
 10
-0.1346
 20
2.6322
 30
0.0
 10
-0.1346
 20
2.6322
 30
0.0
 10
-10.9534
 20
2.6322
 30
0.0
 10
-10.9534
 20
2.6322
 30
0.0
 10
-10.9534
 20
2.6322
 30
0.0
 10
-10.9534
 20
2.6322
 30
0.0
 10
-7.6585
 20
-0.7418
 30
0.0
 10
-7.6585
 20
-0.7418
 30
0.0
 10
-7.6585
 20
-0.7418
 30
0.0
 10
-7.6585
 20
-0.7418
 30
0.0
 10
-10.5898
 20
-7.681
 30
0.0
 10
-10.5898
 20
-7.681
 30
0.0
 10
-10.5898
 20
-7.681
 30
0.0
 10
-10.5898
 20
-7.681
 30
0.0
 10
-3.5982
 20
-4.8189
 30
0.0
 10
-3.5982
 20
-4.8189
 30
0.0
 10
-3.5982
 20
-4.8189
 30
0.0
 10
-3.5982
 20
-4.8189
 30
0.0
 10
-0.1315
 20
-8.0235
 30
0.0
 10
-0.1315
 20
-8.0235
 30
0.0
 10
-0.1315
 20
-8.0235
 30
0.0
 10
-0.1315
 20
-8.0235
 30
0.0
 10
-0.1346
 20
2.6322
 30
0.0
 10
-0.1346
 20
2.6322
 30
0.0
  0
SPLINE
  5
130
330
1F
100
AcDbEntity
  8
layer 1
 62
     7
100
AcDbSpline
210
0.0
220
0.0
230
1.0
 70
    11
 71
     3
 72
    28
 73
    24
 74
     0
 42
0.0000000001
 43
0.0000000001
 12
1.0
 22
0.0
 32
0.0
 13
1.0
 23
0.0
 33
0.0
 40
0.0
 40
0.0
 40
0.0
 40
0.0
 40
0.1428571428571428
 40
0.1428571428571428
 40
0.1428571428571428
 40
0.1428571428571428
 40
0.2857142857142857
 40
0.2857142857142857
 40
0.2857142857142857
 40
0.2857142857142857
 40
0.4285714285714285
 40
0.4285714285714285
 40
0.4285714285714285
 40
0.4285714285714285
 40
0.5714285714285714
 40
0.5714285714285714
 40
0.5714285714285714
 40
0.5714285714285714
 40
0.7142857142857143
 40
0.7142857142857143
 40
0.7142857142857143
 40
0.7142857142857143
 40
1.0
 40
1.0
 40
1.0
 40
1.0
 10
-53.2271
 20
-34.8575
 30
0.0
 10
-53.2271
 20
-34.8575
 30
0.0
 10
-49.148
 20
-38.9366
 30
0.0
 10
-49.148
 20
-38.9366
 30
0.0
 10
-49.148
 20
-38.9366
 30
0.0
 10
-49.148
 20
-38.9366
 30
0.0
 10
-41.0402
 20
-35.6881
 30
0.0
 10
-41.0402
 20
-35.6881
 30
0.0
 10
-41.0402
 20
-35.6881
 30
0.0
 10
-41.0402
 20
-35.6881
 30
0.0
 10
-38.0771
 20
-28.6738
 30
0.0
 10
-38.0771
 20
-28.6738
 30
0.0
 10
-38.0771
 20
-28.6738
 30
0.0
 10
-38.0771
 20
-28.6738
 30
0.0
 10
-45.1267
 20
-25.7812
 30
0.0
 10
-45.1267
 20
-25.7812
 30
0.0
 10
-45.1267
 20
-25.7812
 30
0.0
 10
-45.1267
 20
-25.7812
 30
0.0
 10
-53.2219
 20
-29.0283
 30
0.0
 10
-53.2219
 20
-29.0283
 30
0.0
 10
-53.2219
 20
-29.0283
 30
0.0
 10
-53.2219
 20
-29.0283
 30
0.0
 10
-53.2271
 20
-34.8575
 30
0.0
 10
-53.2271
 20
-34.8575
 30
0.0
  0
SPLINE
  5
131
330
1F
100
AcDbEntity
  8
layer 1
 62
     7
100
AcDbSpline
210
0.0
220
0.0
230
1.0
 70
    11
 71
     3
 72
    28
 73
    24
 74
     0
 42
0.0000000001
 43
0.0000000001
 12
1.0
 22
0.0
 32
0.0
 13
1.0
 23
0.0
 33
0.0
 40
0.0
 40
0.0
 40
0.0
 40
0.0
 40
0.1428571428571428
 40
0.1428571428571428
 40
0.1428571428571428
 40
0.1428571428571428
 40
0.2857142857142857
 40
0.2857142857142857
 40
0.2857142857142857
 40
0.2857142857142857
 40
0.4285714285714285
 40
0.4285714285714285
 40
0.4285714285714285
 40
0.4285714285714285
 40
0.5714285714285714
 40
0.5714285714285714
 40
0.5714285714285714
 40
0.5714285714285714
 40
0.7142857142857143
 40
0.7142857142857143
 40
0.7142857142857143
 40
0.7142857142857143
 40
1.0
 40
1.0
 40
1.0
 40
1.0
 10
-15.6785
 20
-50.4191
 30
0.0
 10
-15.6785
 20
-50.4191
 30
0.0
 10
-21.4742
 20
-50.4191
 30
0.0
 10
-21.4742
 20
-50.4191
 30
0.0
 10
-21.4742
 20
-50.4191
 30
0.0
 10
-21.4742
 20
-50.4191
 30
0.0
 10
-24.8833
 20
-42.3891
 30
0.0
 10
-24.8833
 20
-42.3891
 30
0.0
 10
-24.8833
 20
-42.3891
 30
0.0
 10
-24.8833
 20
-42.3891
 30
0.0
 10
-22.0186
 20
-35.3339
 30
0.0
 10
-22.0186
 20
-35.3339
 30
0.0
 10
-22.0186
 20
-35.3339
 30
0.0
 10
-22.0186
 20
-35.3339
 30
0.0
 10
-14.9884
 20
-38.2733
 30
0.0
 10
-14.9884
 20
-38.2733
 30
0.0
 10
-14.9884
 20
-38.2733
 30
0.0
 10
-14.9884
 20
-38.2733
 30
0.0
 10
-11.5603
 20
-46.2935
 30
0.0
 10
-11.5603
 20
-46.2935
 30
0.0
 10
-11.5603
 20
-46.2935
 30
0.0
 10
-11.5603
 20
-46.2935
 30
0.0
 10
-15.6785
 20
-50.4191
 30
0.0
 10
-15.6785
 20
-50.4191
 30
0.0
  0
SPLINE
  5
132
330
1F
100
AcDbEntity
  8
layer 1
 62
     7
100
AcDbSpline
210
0.0
220
0.0
230
1.0
 70
    11
 71
     3
 72
    28
 73
    24
 74
     0
 42
0.0000000001
 43
0.0000000001
 12
1.0
 22
0.0
 32
0.0
 13
1.0
 23
0.0
 33
0.0
 40
0.0
 40
0.0
 40
0.0
 40
0.0
 40
0.1428571428571428
 40
0.1428571428571428
 40
0.1428571428571428
 40
0.1428571428571428
 40
0.2857142857142857
 40
0.2857142857142857
 40
0.2857142857142857
 40
0.2857142857142857
 40
0.4285714285714285
 40
0.4285714285714285
 40
0.4285714285714285
 40
0.4285714285714285
 40
0.5714285714285714
 40
0.5714285714285714
 40
0.5714285714285714
 40
0.5714285714285714
 40
0.7142857142857143
 40
0.7142857142857143
 40
0.7142857142857143
 40
0.7142857142857143
 40
1.0
 40
1.0
 40
1.0
 40
1.0
 10
-0.1175
 20
-34.8287
 30
0.0
 10
-0.1175
 20
-34.8287
 30
0.0
 10
-4.2156
 20
-38.9268
 30
0.0
 10
-4.2156
 20
-38.9268
 30
0.0
 10
-4.2156
 20
-38.9268
 30
0.0
 10
-4.2156
 20
-38.9268
 30
0.0
 10
-12.3043
 20
-35.6593
 30
0.0
 10
-12.3043
 20
-35.6593
 30
0.0
 10
-12.3043
 20
-35.6593
 30
0.0
 10
-12.3043
 20
-35.6593
 30
0.0
 10
-15.2674
 20
-28.645
 30
0.0
 10
-15.2674
 20
-28.645
 30
0.0
 10
-15.2674
 20
-28.645
 30
0.0
 10
-15.2674
 20
-28.645
 30
0.0
 10
-8.2179
 20
-25.7523
 30
0.0
 10
-8.2179
 20
-25.7523
 30
0.0
 10
-8.2179
 20
-25.7523
 30
0.0
 10
-8.2179
 20
-25.7523
 30
0.0
 10
-0.1227
 20
-28.9994
 30
0.0
 10
-0.1227
 20
-28.9994
 30
0.0
 10
-0.1227
 20
-28.9994
 30
0.0
 10
-0.1227
 20
-28.9994
 30
0.0
 10
-0.1175
 20
-34.8287
 30
0.0
 10
-0.1175
 20
-34.8287
 30
0.0
  0
SPLINE
  5
133
330
1F
100
AcDbEntity
  8
layer 1
 62
     7
100
AcDbSpline
210
0.0
220
0.0
230
1.0
 70
    11
 71
     3
 72
    28
 73
    24
 74
     0
 42
0.0000000001
 43
0.0000000001
 12
1.0
 22
0.0
 32
0.0
 13
1.0
 23
0.0
 33
0.0
 40
0.0
 40
0.0
 40
0.0
 40
0.0
 40
0.1428571428571428
 40
0.1428571428571428
 40
0.1428571428571428
 40
0.1428571428571428
 40
0.2857142857142857
 40
0.2857142857142857
 40
0.2857142857142857
 40
0.2857142857142857
 40
0.4285714285714285
 40
0.4285714285714285
 40
0.4285714285714285
 40
0.4285714285714285
 40
0.5714285714285714
 40
0.5714285714285714
 40
0.5714285714285714
 40
0.5714285714285714
 40
0.7142857142857143
 40
0.7142857142857143
 40
0.7142857142857143
 40
0.7142857142857143
 40
1.0
 40
1.0
 40
1.0
 40
1.0
 10
-37.7266
 20
-50.4191
 30
0.0
 10
-37.7266
 20
-50.4191
 30
0.0
 10
-31.931
 20
-50.4191
 30
0.0
 10
-31.931
 20
-50.4191
 30
0.0
 10
-31.931
 20
-50.4191
 30
0.0
 10
-31.931
 20
-50.4191
 30
0.0
 10
-28.5219
 20
-42.3891
 30
0.0
 10
-28.5219
 20
-42.3891
 30
0.0
 10
-28.5219
 20
-42.3891
 30
0.0
 10
-28.5219
 20
-42.3891
 30
0.0
 10
-31.3865
 20
-35.3339
 30
0.0
 10
-31.3865
 20
-35.3339
 30
0.0
 10
-31.3865
 20
-35.3339
 30
0.0
 10
-31.3865
 20
-35.3339
 30
0.0
 10
-38.4167
 20
-38.2733
 30
0.0
 10
-38.4167
 20
-38.2733
 30
0.0
 10
-38.4167
 20
-38.2733
 30
0.0
 10
-38.4167
 20
-38.2733
 30
0.0
 10
-41.8448
 20
-46.2935
 30
0.0
 10
-41.8448
 20
-46.2935
 30
0.0
 10
-41.8448
 20
-46.2935
 30
0.0
 10
-41.8448
 20
-46.2935
 30
0.0
 10
-37.7266
 20
-50.4191
 30
0.0
 10
-37.7266
 20
-50.4191
 30
0.0
  0
SPLINE
  5
134
330
1F
100
AcDbEntity
  8
layer 1
 62
     7
100
AcDbSpline
210
0.0
220
0.0
230
1.0
 70
    11
 71
     3
 72
    28
 73
    24
 74
     0
 42
0.0000000001
 43
0.0000000001
 12
1.0
 22
0.0
 32
0.0
 13
1.0
 23
0.0
 33
0.0
 40
0.0
 40
0.0
 40
0.0
 40
0.0
 40
0.1428571428571428
 40
0.1428571428571428
 40
0.1428571428571428
 40
0.1428571428571428
 40
0.2857142857142857
 40
0.2857142857142857
 40
0.2857142857142857
 40
0.2857142857142857
 40
0.4285714285714285
 40
0.4285714285714285
 40
0.4285714285714285
 40
0.4285714285714285
 40
0.5714285714285714
 40
0.5714285714285714
 40
0.5714285714285714
 40
0.5714285714285714
 40
0.7142857142857143
 40
0.7142857142857143
 40
0.7142857142857143
 40
0.7142857142857143
 40
1.0
 40
1.0
 40
1.0
 40
1.0
 10
-53.2533
 20
-50.4191
 30
0.0
 10
-53.2533
 20
-50.4191
 30
0.0
 10
-42.4345
 20
-50.4191
 30
0.0
 10
-42.4345
 20
-50.4191
 30
0.0
 10
-42.4345
 20
-50.4191
 30
0.0
 10
-42.4345
 20
-50.4191
 30
0.0
 10
-45.7294
 20
-47.0451
 30
0.0
 10
-45.7294
 20
-47.0451
 30
0.0
 10
-45.7294
 20
-47.0451
 30
0.0
 10
-45.7294
 20
-47.0451
 30
0.0
 10
-42.7981
 20
-40.1059
 30
0.0
 10
-42.7981
 20
-40.1059
 30
0.0
 10
-42.7981
 20
-40.1059
 30
0.0
 10
-42.7981
 20
-40.1059
 30
0.0
 10
-49.7897
 20
-42.968
 30
0.0
 10
-49.7897
 20
-42.968
 30
0.0
 10
-49.7897
 20
-42.968
 30
0.0
 10
-49.7897
 20
-42.968
 30
0.0
 10
-53.2564
 20
-39.7634
 30
0.0
 10
-53.2564
 20
-39.7634
 30
0.0
 10
-53.2564
 20
-39.7634
 30
0.0
 10
-53.2564
 20
-39.7634
 30
0.0
 10
-53.2533
 20
-50.4191
 30
0.0
 10
-53.2533
 20
-50.4191
 30
0.0
  0
SPLINE
  5
135
330
1F
100
AcDbEntity
  8
layer 1
 62
     7
100
AcDbSpline
210
0.0
220
0.0
230
1.0
 70
    11
 71
     3
 72
    28
 73
    24
 74
     0
 42
0.0000000001
 43
0.0000000001
 12
1.0
 22
0.0
 32
0.0
 13
1.0
 23
0.0
 33
0.0
 40
0.0
 40
0.0
 40
0.0
 40
0.0
 40
0.1428571428571428
 40
0.1428571428571428
 40
0.1428571428571428
 40
0.1428571428571428
 40
0.2857142857142857
 40
0.2857142857142857
 40
0.2857142857142857
 40
0.2857142857142857
 40
0.4285714285714285
 40
0.4285714285714285
 40
0.4285714285714285
 40
0.4285714285714285
 40
0.5714285714285714
 40
0.5714285714285714
 40
0.5714285714285714
 40
0.5714285714285714
 40
0.7142857142857143
 40
0.7142857142857143
 40
0.7142857142857143
 40
0.7142857142857143
 40
1.0
 40
1.0
 40
1.0
 40
1.0
 10
-0.1346
 20
-50.4191
 30
0.0
 10
-0.1346
 20
-50.4191
 30
0.0
 10
-10.9534
 20
-50.4191
 30
0.0
 10
-10.9534
 20
-50.4191
 30
0.0
 10
-10.9534
 20
-50.4191
 30
0.0
 10
-10.9534
 20
-50.4191
 30
0.0
 10
-7.6585
 20
-47.0451
 30
0.0
 10
-7.6585
 20
-47.0451
 30
0.0
 10
-7.6585
 20
-47.0451
 30
0.0
 10
-7.6585
 20
-47.0451
 30
0.0
 10
-10.5898
 20
-40.1059
 30
0.0
 10
-10.5898
 20
-40.1059
 30
0.0
 10
-10.5898
 20
-40.1059
 30
0.0
 10
-10.5898
 20
-40.1059
 30
0.0
 10
-3.5982
 20
-42.968
 30
0.0
 10
-3.5982
 20
-42.968
 30
0.0
 10
-3.5982
 20
-42.968
 30
0.0
 10
-3.5982
 20
-42.968
 30
0.0
 10
-0.1315
 20
-39.7634
 30
0.0
 10
-0.1315
 20
-39.7634
 30
0.0
 10
-0.1315
 20
-39.7634
 30
0.0
 10
-0.1315
 20
-39.7634
 30
0.0
 10
-0.1346
 20
-50.4191
 30
0.0
 10
-0.1346
 20
-50.4191
 30
0.0
  0
SPLINE
  5
136
330
1F
100
AcDbEntity
  8
layer 1
 62
     7
100
AcDbSpline
210
0.0
220
0.0
230
1.0
 70
    11
 71
     3
 72
    68
 73
    64
 74
     0
 42
0.0000000001
 43
0.0000000001
 12
1.0
 22
0.0
 32
0.0
 13
1.0
 23
0.0
 33
0.0
 40
0.0
 40
0.0
 40
0.0
 40
0.0
 40
0.0588235294117647
 40
0.0588235294117647
 40
0.0588235294117647
 40
0.0588235294117647
 40
0.1176470588235294
 40
0.1176470588235294
 40
0.1176470588235294
 40
0.1176470588235294
 40
0.1764705882352941
 40
0.1764705882352941
 40
0.1764705882352941
 40
0.1764705882352941
 40
0.2352941176470588
 40
0.2352941176470588
 40
0.2352941176470588
 40
0.2352941176470588
 40
0.2941176470588235
 40
0.2941176470588235
 40
0.2941176470588235
 40
0.2941176470588235
 40
0.3529411764705883
 40
0.3529411764705883
 40
0.3529411764705883
 40
0.3529411764705883
 40
0.4117647058823529
 40
0.4117647058823529
 40
0.4117647058823529
 40
0.4117647058823529
 40
0.4705882352941176
 40
0.4705882352941176
 40
0.4705882352941176
 40
0.4705882352941176
 40
0.5294117647058824
 40
0.5294117647058824
 40
0.5294117647058824
 40
0.5294117647058824
 40
0.5882352941176471
 40
0.5882352941176471
 40
0.5882352941176471
 40
0.5882352941176471
 40
0.6470588235294118
 40
0.6470588235294118
 40
0.6470588235294118
 40
0.6470588235294118
 40
0.7058823529411765
 40
0.7058823529411765
 40
0.7058823529411765
 40
0.7058823529411765
 40
0.7647058823529411
 40
0.7647058823529411
 40
0.7647058823529411
 40
0.7647058823529411
 40
0.8235294117647058
 40
0.8235294117647058
 40
0.8235294117647058
 40
0.8235294117647058
 40
0.8823529411764706
 40
0.8823529411764706
 40
0.8823529411764706
 40
0.8823529411764706
 40
1.0
 40
1.0
 40
1.0
 40
1.0
 10
-16.7204
 20
-92.5448
 30
0.0
 10
-16.7204
 20
-92.5448
 30
0.0
 10
-23.7518
 20
-89.6302
 30
0.0
 10
-23.7518
 20
-89.6302
 30
0.0
 10
-23.7518
 20
-89.6302
 30
0.0
 10
-23.7518
 20
-89.6302
 30
0.0
 10
-26.6906
 20
-96.6872
 30
0.0
 10
-26.6906
 20
-96.6872
 30
0.0
 10
-26.6906
 20
-96.6872
 30
0.0
 10
-26.6906
 20
-96.6872
 30
0.0
 10
-29.6648
 20
-89.6933
 30
0.0
 10
-29.6648
 20
-89.6933
 30
0.0
 10
-29.6648
 20
-89.6933
 30
0.0
 10
-29.6648
 20
-89.6933
 30
0.0
 10
-36.5492
 20
-92.5276
 30
0.0
 10
-36.5492
 20
-92.5276
 30
0.0
 10
-36.5492
 20
-92.5276
 30
0.0
 10
-36.5492
 20
-92.5276
 30
0.0
 10
-33.7397
 20
-85.4857
 30
0.0
 10
-33.7397
 20
-85.4857
 30
0.0
 10
-33.7397
 20
-85.4857
 30
0.0
 10
-33.7397
 20
-85.4857
 30
0.0
 10
-40.7688
 20
-82.6537
 30
0.0
 10
-40.7688
 20
-82.6537
 30
0.0
 10
-40.7688
 20
-82.6537
 30
0.0
 10
-40.7688
 20
-82.6537
 30
0.0
 10
-33.7015
 20
-79.6161
 30
0.0
 10
-33.7015
 20
-79.6161
 30
0.0
 10
-33.7015
 20
-79.6161
 30
0.0
 10
-33.7015
 20
-79.6161
 30
0.0
 10
-36.7451
 20
-72.5517
 30
0.0
 10
-36.7451
 20
-72.5517
 30
0.0
 10
-36.7451
 20
-72.5517
 30
0.0
 10
-36.7451
 20
-72.5517
 30
0.0
 10
-29.5449
 20
-75.6773
 30
0.0
 10
-29.5449
 20
-75.6773
 30
0.0
 10
-29.5449
 20
-75.6773
 30
0.0
 10
-29.5449
 20
-75.6773
 30
0.0
 10
-26.7098
 20
-68.4093
 30
0.0
 10
-26.7098
 20
-68.4093
 30
0.0
 10
-26.7098
 20
-68.4093
 30
0.0
 10
-26.7098
 20
-68.4093
 30
0.0
 10
-23.7163
 20
-75.6564
 30
0.0
 10
-23.7163
 20
-75.6564
 30
0.0
 10
-23.7163
 20
-75.6564
 30
0.0
 10
-23.7163
 20
-75.6564
 30
0.0
 10
-16.6632
 20
-72.6111
 30
0.0
 10
-16.6632
 20
-72.6111
 30
0.0
 10
-16.6632
 20
-72.6111
 30
0.0
 10
-16.6632
 20
-72.6111
 30
0.0
 10
-19.6836
 20
-79.7796
 30
0.0
 10
-19.6836
 20
-79.7796
 30
0.0
 10
-19.6836
 20
-79.7796
 30
0.0
 10
-19.6836
 20
-79.7796
 30
0.0
 10
-12.5701
 20
-82.6537
 30
0.0
 10
-12.5701
 20
-82.6537
 30
0.0
 10
-12.5701
 20
-82.6537
 30
0.0
 10
-12.5701
 20
-82.6537
 30
0.0
 10
-19.7218
 20
-85.4804
 30
0.0
 10
-19.7218
 20
-85.4804
 30
0.0
 10
-19.7218
 20
-85.4804
 30
0.0
 10
-19.7218
 20
-85.4804
 30
0.0
 10
-16.7204
 20
-92.5448
 30
0.0
 10
-16.7204
 20
-92.5448
 30
0.0
  0
SPLINE
  5
137
330
1F
100
AcDbEntity
  8
layer 1
 62
     7
100
AcDbSpline
210
0.0
220
0.0
230
1.0
 70
    11
 71
     3
 72
    28
 73
    24
 74
     0
 42
0.0000000001
 43
0.0000000001
 12
1.0
 22
0.0
 32
0.0
 13
1.0
 23
0.0
 33
0.0
 40
0.0
 40
0.0
 40
0.0
 40
0.0
 40
0.1428571428571428
 40
0.1428571428571428
 40
0.1428571428571428
 40
0.1428571428571428
 40
0.2857142857142857
 40
0.2857142857142857
 40
0.2857142857142857
 40
0.2857142857142857
 40
0.4285714285714285
 40
0.4285714285714285
 40
0.4285714285714285
 40
0.4285714285714285
 40
0.5714285714285714
 40
0.5714285714285714
 40
0.5714285714285714
 40
0.5714285714285714
 40
0.7142857142857143
 40
0.7142857142857143
 40
0.7142857142857143
 40
0.7142857142857143
 40
1.0
 40
1.0
 40
1.0
 40
1.0
 10
-53.2271
 20
-71.7299
 30
0.0
 10
-53.2271
 20
-71.7299
 30
0.0
 10
-49.148
 20
-67.6508
 30
0.0
 10
-49.148
 20
-67.6508
 30
0.0
 10
-49.148
 20
-67.6508
 30
0.0
 10
-49.148
 20
-67.6508
 30
0.0
 10
-41.0402
 20
-70.8992
 30
0.0
 10
-41.0402
 20
-70.8992
 30
0.0
 10
-41.0402
 20
-70.8992
 30
0.0
 10
-41.0402
 20
-70.8992
 30
0.0
 10
-38.0771
 20
-77.9136
 30
0.0
 10
-38.0771
 20
-77.9136
 30
0.0
 10
-38.0771
 20
-77.9136
 30
0.0
 10
-38.0771
 20
-77.9136
 30
0.0
 10
-45.1267
 20
-80.8062
 30
0.0
 10
-45.1267
 20
-80.8062
 30
0.0
 10
-45.1267
 20
-80.8062
 30
0.0
 10
-45.1267
 20
-80.8062
 30
0.0
 10
-53.2219
 20
-77.5591
 30
0.0
 10
-53.2219
 20
-77.5591
 30
0.0
 10
-53.2219
 20
-77.5591
 30
0.0
 10
-53.2219
 20
-77.5591
 30
0.0
 10
-53.2271
 20
-71.7299
 30
0.0
 10
-53.2271
 20
-71.7299
 30
0.0
  0
SPLINE
  5
138
330
1F
100
AcDbEntity
  8
layer 1
 62
     7
100
AcDbSpline
210
0.0
220
0.0
230
1.0
 70
    11
 71
     3
 72
    28
 73
    24
 74
     0
 42
0.0000000001
 43
0.0000000001
 12
1.0
 22
0.0
 32
0.0
 13
1.0
 23
0.0
 33
0.0
 40
0.0
 40
0.0
 40
0.0
 40
0.0
 40
0.1428571428571428
 40
0.1428571428571428
 40
0.1428571428571428
 40
0.1428571428571428
 40
0.2857142857142857
 40
0.2857142857142857
 40
0.2857142857142857
 40
0.2857142857142857
 40
0.4285714285714285
 40
0.4285714285714285
 40
0.4285714285714285
 40
0.4285714285714285
 40
0.5714285714285714
 40
0.5714285714285714
 40
0.5714285714285714
 40
0.5714285714285714
 40
0.7142857142857143
 40
0.7142857142857143
 40
0.7142857142857143
 40
0.7142857142857143
 40
1.0
 40
1.0
 40
1.0
 40
1.0
 10
-15.6785
 20
-56.1683
 30
0.0
 10
-15.6785
 20
-56.1683
 30
0.0
 10
-21.4742
 20
-56.1683
 30
0.0
 10
-21.4742
 20
-56.1683
 30
0.0
 10
-21.4742
 20
-56.1683
 30
0.0
 10
-21.4742
 20
-56.1683
 30
0.0
 10
-24.8833
 20
-64.1983
 30
0.0
 10
-24.8833
 20
-64.1983
 30
0.0
 10
-24.8833
 20
-64.1983
 30
0.0
 10
-24.8833
 20
-64.1983
 30
0.0
 10
-22.0186
 20
-71.2535
 30
0.0
 10
-22.0186
 20
-71.2535
 30
0.0
 10
-22.0186
 20
-71.2535
 30
0.0
 10
-22.0186
 20
-71.2535
 30
0.0
 10
-14.9884
 20
-68.3141
 30
0.0
 10
-14.9884
 20
-68.3141
 30
0.0
 10
-14.9884
 20
-68.3141
 30
0.0
 10
-14.9884
 20
-68.3141
 30
0.0
 10
-11.5603
 20
-60.2939
 30
0.0
 10
-11.5603
 20
-60.2939
 30
0.0
 10
-11.5603
 20
-60.2939
 30
0.0
 10
-11.5603
 20
-60.2939
 30
0.0
 10
-15.6785
 20
-56.1683
 30
0.0
 10
-15.6785
 20
-56.1683
 30
0.0
  0
SPLINE
  5
139
330
1F
100
AcDbEntity
  8
layer 1
 62
     7
100
AcDbSpline
210
0.0
220
0.0
230
1.0
 70
    11
 71
     3
 72
    28
 73
    24
 74
     0
 42
0.0000000001
 43
0.0000000001
 12
1.0
 22
0.0
 32
0.0
 13
1.0
 23
0.0
 33
0.0
 40
0.0
 40
0.0
 40
0.0
 40
0.0
 40
0.1428571428571428
 40
0.1428571428571428
 40
0.1428571428571428
 40
0.1428571428571428
 40
0.2857142857142857
 40
0.2857142857142857
 40
0.2857142857142857
 40
0.2857142857142857
 40
0.4285714285714285
 40
0.4285714285714285
 40
0.4285714285714285
 40
0.4285714285714285
 40
0.5714285714285714
 40
0.5714285714285714
 40
0.5714285714285714
 40
0.5714285714285714
 40
0.7142857142857143
 40
0.7142857142857143
 40
0.7142857142857143
 40
0.7142857142857143
 40
1.0
 40
1.0
 40
1.0
 40
1.0
 10
-0.1175
 20
-71.7587
 30
0.0
 10
-0.1175
 20
-71.7587
 30
0.0
 10
-4.2156
 20
-67.6606
 30
0.0
 10
-4.2156
 20
-67.6606
 30
0.0
 10
-4.2156
 20
-67.6606
 30
0.0
 10
-4.2156
 20
-67.6606
 30
0.0
 10
-12.3043
 20
-70.9281
 30
0.0
 10
-12.3043
 20
-70.9281
 30
0.0
 10
-12.3043
 20
-70.9281
 30
0.0
 10
-12.3043
 20
-70.9281
 30
0.0
 10
-15.2674
 20
-77.9424
 30
0.0
 10
-15.2674
 20
-77.9424
 30
0.0
 10
-15.2674
 20
-77.9424
 30
0.0
 10
-15.2674
 20
-77.9424
 30
0.0
 10
-8.2179
 20
-80.8351
 30
0.0
 10
-8.2179
 20
-80.8351
 30
0.0
 10
-8.2179
 20
-80.8351
 30
0.0
 10
-8.2179
 20
-80.8351
 30
0.0
 10
-0.1227
 20
-77.5879
 30
0.0
 10
-0.1227
 20
-77.5879
 30
0.0
 10
-0.1227
 20
-77.5879
 30
0.0
 10
-0.1227
 20
-77.5879
 30
0.0
 10
-0.1175
 20
-71.7587
 30
0.0
 10
-0.1175
 20
-71.7587
 30
0.0
  0
SPLINE
  5
13A
330
1F
100
AcDbEntity
  8
layer 1
 62
     7
100
AcDbSpline
210
0.0
220
0.0
230
1.0
 70
    11
 71
     3
 72
    28
 73
    24
 74
     0
 42
0.0000000001
 43
0.0000000001
 12
1.0
 22
0.0
 32
0.0
 13
1.0
 23
0.0
 33
0.0
 40
0.0
 40
0.0
 40
0.0
 40
0.0
 40
0.1428571428571428
 40
0.1428571428571428
 40
0.1428571428571428
 40
0.1428571428571428
 40
0.2857142857142857
 40
0.2857142857142857
 40
0.2857142857142857
 40
0.2857142857142857
 40
0.4285714285714285
 40
0.4285714285714285
 40
0.4285714285714285
 40
0.4285714285714285
 40
0.5714285714285714
 40
0.5714285714285714
 40
0.5714285714285714
 40
0.5714285714285714
 40
0.7142857142857143
 40
0.7142857142857143
 40
0.7142857142857143
 40
0.7142857142857143
 40
1.0
 40
1.0
 40
1.0
 40
1.0
 10
-37.7266
 20
-56.1683
 30
0.0
 10
-37.7266
 20
-56.1683
 30
0.0
 10
-31.931
 20
-56.1683
 30
0.0
 10
-31.931
 20
-56.1683
 30
0.0
 10
-31.931
 20
-56.1683
 30
0.0
 10
-31.931
 20
-56.1683
 30
0.0
 10
-28.5219
 20
-64.1983
 30
0.0
 10
-28.5219
 20
-64.1983
 30
0.0
 10
-28.5219
 20
-64.1983
 30
0.0
 10
-28.5219
 20
-64.1983
 30
0.0
 10
-31.3865
 20
-71.2535
 30
0.0
 10
-31.3865
 20
-71.2535
 30
0.0
 10
-31.3865
 20
-71.2535
 30
0.0
 10
-31.3865
 20
-71.2535
 30
0.0
 10
-38.4167
 20
-68.3141
 30
0.0
 10
-38.4167
 20
-68.3141
 30
0.0
 10
-38.4167
 20
-68.3141
 30
0.0
 10
-38.4167
 20
-68.3141
 30
0.0
 10
-41.8448
 20
-60.2939
 30
0.0
 10
-41.8448
 20
-60.2939
 30
0.0
 10
-41.8448
 20
-60.2939
 30
0.0
 10
-41.8448
 20
-60.2939
 30
0.0
 10
-37.7266
 20
-56.1683
 30
0.0
 10
-37.7266
 20
-56.1683
 30
0.0
  0
SPLINE
  5
13B
330
1F
100
AcDbEntity
  8
layer 1
 62
     7
100
AcDbSpline
210
0.0
220
0.0
230
1.0
 70
    11
 71
     3
 72
    28
 73
    24
 74
     0
 42
0.0000000001
 43
0.0000000001
 12
1.0
 22
0.0
 32
0.0
 13
1.0
 23
0.0
 33
0.0
 40
0.0
 40
0.0
 40
0.0
 40
0.0
 40
0.1428571428571428
 40
0.1428571428571428
 40
0.1428571428571428
 40
0.1428571428571428
 40
0.2857142857142857
 40
0.2857142857142857
 40
0.2857142857142857
 40
0.2857142857142857
 40
0.4285714285714285
 40
0.4285714285714285
 40
0.4285714285714285
 40
0.4285714285714285
 40
0.5714285714285714
 40
0.5714285714285714
 40
0.5714285714285714
 40
0.5714285714285714
 40
0.7142857142857143
 40
0.7142857142857143
 40
0.7142857142857143
 40
0.7142857142857143
 40
1.0
 40
1.0
 40
1.0
 40
1.0
 10
-53.2533
 20
-56.1683
 30
0.0
 10
-53.2533
 20
-56.1683
 30
0.0
 10
-42.4345
 20
-56.1683
 30
0.0
 10
-42.4345
 20
-56.1683
 30
0.0
 10
-42.4345
 20
-56.1683
 30
0.0
 10
-42.4345
 20
-56.1683
 30
0.0
 10
-45.7294
 20
-59.5423
 30
0.0
 10
-45.7294
 20
-59.5423
 30
0.0
 10
-45.7294
 20
-59.5423
 30
0.0
 10
-45.7294
 20
-59.5423
 30
0.0
 10
-42.7981
 20
-66.4815
 30
0.0
 10
-42.7981
 20
-66.4815
 30
0.0
 10
-42.7981
 20
-66.4815
 30
0.0
 10
-42.7981
 20
-66.4815
 30
0.0
 10
-49.7897
 20
-63.6194
 30
0.0
 10
-49.7897
 20
-63.6194
 30
0.0
 10
-49.7897
 20
-63.6194
 30
0.0
 10
-49.7897
 20
-63.6194
 30
0.0
 10
-53.2564
 20
-66.824
 30
0.0
 10
-53.2564
 20
-66.824
 30
0.0
 10
-53.2564
 20
-66.824
 30
0.0
 10
-53.2564
 20
-66.824
 30
0.0
 10
-53.2533
 20
-56.1683
 30
0.0
 10
-53.2533
 20
-56.1683
 30
0.0
  0
SPLINE
  5
13C
330
1F
100
AcDbEntity
  8
layer 1
 62
     7
100
AcDbSpline
210
0.0
220
0.0
230
1.0
 70
    11
 71
     3
 72
    28
 73
    24
 74
     0
 42
0.0000000001
 43
0.0000000001
 12
1.0
 22
0.0
 32
0.0
 13
1.0
 23
0.0
 33
0.0
 40
0.0
 40
0.0
 40
0.0
 40
0.0
 40
0.1428571428571428
 40
0.1428571428571428
 40
0.1428571428571428
 40
0.1428571428571428
 40
0.2857142857142857
 40
0.2857142857142857
 40
0.2857142857142857
 40
0.2857142857142857
 40
0.4285714285714285
 40
0.4285714285714285
 40
0.4285714285714285
 40
0.4285714285714285
 40
0.5714285714285714
 40
0.5714285714285714
 40
0.5714285714285714
 40
0.5714285714285714
 40
0.7142857142857143
 40
0.7142857142857143
 40
0.7142857142857143
 40
0.7142857142857143
 40
1.0
 40
1.0
 40
1.0
 40
1.0
 10
-0.1346
 20
-56.1683
 30
0.0
 10
-0.1346
 20
-56.1683
 30
0.0
 10
-10.9534
 20
-56.1683
 30
0.0
 10
-10.9534
 20
-56.1683
 30
0.0
 10
-10.9534
 20
-56.1683
 30
0.0
 10
-10.9534
 20
-56.1683
 30
0.0
 10
-7.6585
 20
-59.5423
 30
0.0
 10
-7.6585
 20
-59.5423
 30
0.0
 10
-7.6585
 20
-59.5423
 30
0.0
 10
-7.6585
 20
-59.5423
 30
0.0
 10
-10.5898
 20
-66.4815
 30
0.0
 10
-10.5898
 20
-66.4815
 30
0.0
 10
-10.5898
 20
-66.4815
 30
0.0
 10
-10.5898
 20
-66.4815
 30
0.0
 10
-3.5982
 20
-63.6194
 30
0.0
 10
-3.5982
 20
-63.6194
 30
0.0
 10
-3.5982
 20
-63.6194
 30
0.0
 10
-3.5982
 20
-63.6194
 30
0.0
 10
-0.1315
 20
-66.824
 30
0.0
 10
-0.1315
 20
-66.824
 30
0.0
 10
-0.1315
 20
-66.824
 30
0.0
 10
-0.1315
 20
-66.824
 30
0.0
 10
-0.1346
 20
-56.1683
 30
0.0
 10
-0.1346
 20
-56.1683
 30
0.0
  0
SPLINE
  5
13D
330
1F
100
AcDbEntity
  8
layer 1
 62
     7
100
AcDbSpline
210
0.0
220
0.0
230
1.0
 70
    11
 71
     3
 72
    28
 73
    24
 74
     0
 42
0.0000000001
 43
0.0000000001
 12
1.0
 22
0.0
 32
0.0
 13
1.0
 23
0.0
 33
0.0
 40
0.0
 40
0.0
 40
0.0
 40
0.0
 40
0.1428571428571428
 40
0.1428571428571428
 40
0.1428571428571428
 40
0.1428571428571428
 40
0.2857142857142857
 40
0.2857142857142857
 40
0.2857142857142857
 40
0.2857142857142857
 40
0.4285714285714285
 40
0.4285714285714285
 40
0.4285714285714285
 40
0.4285714285714285
 40
0.5714285714285714
 40
0.5714285714285714
 40
0.5714285714285714
 40
0.5714285714285714
 40
0.7142857142857143
 40
0.7142857142857143
 40
0.7142857142857143
 40
0.7142857142857143
 40
1.0
 40
1.0
 40
1.0
 40
1.0
 10
-53.2271
 20
-93.658
 30
0.0
 10
-53.2271
 20
-93.658
 30
0.0
 10
-49.148
 20
-97.7371
 30
0.0
 10
-49.148
 20
-97.7371
 30
0.0
 10
-49.148
 20
-97.7371
 30
0.0
 10
-49.148
 20
-97.7371
 30
0.0
 10
-41.0402
 20
-94.4886
 30
0.0
 10
-41.0402
 20
-94.4886
 30
0.0
 10
-41.0402
 20
-94.4886
 30
0.0
 10
-41.0402
 20
-94.4886
 30
0.0
 10
-38.0771
 20
-87.4743
 30
0.0
 10
-38.0771
 20
-87.4743
 30
0.0
 10
-38.0771
 20
-87.4743
 30
0.0
 10
-38.0771
 20
-87.4743
 30
0.0
 10
-45.1267
 20
-84.5817
 30
0.0
 10
-45.1267
 20
-84.5817
 30
0.0
 10
-45.1267
 20
-84.5817
 30
0.0
 10
-45.1267
 20
-84.5817
 30
0.0
 10
-53.2219
 20
-87.8288
 30
0.0
 10
-53.2219
 20
-87.8288
 30
0.0
 10
-53.2219
 20
-87.8288
 30
0.0
 10
-53.2219
 20
-87.8288
 30
0.0
 10
-53.2271
 20
-93.658
 30
0.0
 10
-53.2271
 20
-93.658
 30
0.0
  0
SPLINE
  5
13E
330
1F
100
AcDbEntity
  8
layer 1
 62
     7
100
AcDbSpline
210
0.0
220
0.0
230
1.0
 70
    11
 71
     3
 72
    28
 73
    24
 74
     0
 42
0.0000000001
 43
0.0000000001
 12
1.0
 22
0.0
 32
0.0
 13
1.0
 23
0.0
 33
0.0
 40
0.0
 40
0.0
 40
0.0
 40
0.0
 40
0.1428571428571428
 40
0.1428571428571428
 40
0.1428571428571428
 40
0.1428571428571428
 40
0.2857142857142857
 40
0.2857142857142857
 40
0.2857142857142857
 40
0.2857142857142857
 40
0.4285714285714285
 40
0.4285714285714285
 40
0.4285714285714285
 40
0.4285714285714285
 40
0.5714285714285714
 40
0.5714285714285714
 40
0.5714285714285714
 40
0.5714285714285714
 40
0.7142857142857143
 40
0.7142857142857143
 40
0.7142857142857143
 40
0.7142857142857143
 40
1.0
 40
1.0
 40
1.0
 40
1.0
 10
-15.6785
 20
-109.2196
 30
0.0
 10
-15.6785
 20
-109.2196
 30
0.0
 10
-21.4742
 20
-109.2196
 30
0.0
 10
-21.4742
 20
-109.2196
 30
0.0
 10
-21.4742
 20
-109.2196
 30
0.0
 10
-21.4742
 20
-109.2196
 30
0.0
 10
-24.8833
 20
-101.1896
 30
0.0
 10
-24.8833
 20
-101.1896
 30
0.0
 10
-24.8833
 20
-101.1896
 30
0.0
 10
-24.8833
 20
-101.1896
 30
0.0
 10
-22.0186
 20
-94.1344
 30
0.0
 10
-22.0186
 20
-94.1344
 30
0.0
 10
-22.0186
 20
-94.1344
 30
0.0
 10
-22.0186
 20
-94.1344
 30
0.0
 10
-14.9884
 20
-97.0738
 30
0.0
 10
-14.9884
 20
-97.0738
 30
0.0
 10
-14.9884
 20
-97.0738
 30
0.0
 10
-14.9884
 20
-97.0738
 30
0.0
 10
-11.5603
 20
-105.094
 30
0.0
 10
-11.5603
 20
-105.094
 30
0.0
 10
-11.5603
 20
-105.094
 30
0.0
 10
-11.5603
 20
-105.094
 30
0.0
 10
-15.6785
 20
-109.2196
 30
0.0
 10
-15.6785
 20
-109.2196
 30
0.0
  0
SPLINE
  5
13F
330
1F
100
AcDbEntity
  8
layer 1
 62
     7
100
AcDbSpline
210
0.0
220
0.0
230
1.0
 70
    11
 71
     3
 72
    28
 73
    24
 74
     0
 42
0.0000000001
 43
0.0000000001
 12
1.0
 22
0.0
 32
0.0
 13
1.0
 23
0.0
 33
0.0
 40
0.0
 40
0.0
 40
0.0
 40
0.0
 40
0.1428571428571428
 40
0.1428571428571428
 40
0.1428571428571428
 40
0.1428571428571428
 40
0.2857142857142857
 40
0.2857142857142857
 40
0.2857142857142857
 40
0.2857142857142857
 40
0.4285714285714285
 40
0.4285714285714285
 40
0.4285714285714285
 40
0.4285714285714285
 40
0.5714285714285714
 40
0.5714285714285714
 40
0.5714285714285714
 40
0.5714285714285714
 40
0.7142857142857143
 40
0.7142857142857143
 40
0.7142857142857143
 40
0.7142857142857143
 40
1.0
 40
1.0
 40
1.0
 40
1.0
 10
-0.1175
 20
-93.6292
 30
0.0
 10
-0.1175
 20
-93.6292
 30
0.0
 10
-4.2156
 20
-97.7273
 30
0.0
 10
-4.2156
 20
-97.7273
 30
0.0
 10
-4.2156
 20
-97.7273
 30
0.0
 10
-4.2156
 20
-97.7273
 30
0.0
 10
-12.3043
 20
-94.4598
 30
0.0
 10
-12.3043
 20
-94.4598
 30
0.0
 10
-12.3043
 20
-94.4598
 30
0.0
 10
-12.3043
 20
-94.4598
 30
0.0
 10
-15.2674
 20
-87.4455
 30
0.0
 10
-15.2674
 20
-87.4455
 30
0.0
 10
-15.2674
 20
-87.4455
 30
0.0
 10
-15.2674
 20
-87.4455
 30
0.0
 10
-8.2179
 20
-84.5528
 30
0.0
 10
-8.2179
 20
-84.5528
 30
0.0
 10
-8.2179
 20
-84.5528
 30
0.0
 10
-8.2179
 20
-84.5528
 30
0.0
 10
-0.1227
 20
-87.7999
 30
0.0
 10
-0.1227
 20
-87.7999
 30
0.0
 10
-0.1227
 20
-87.7999
 30
0.0
 10
-0.1227
 20
-87.7999
 30
0.0
 10
-0.1175
 20
-93.6292
 30
0.0
 10
-0.1175
 20
-93.6292
 30
0.0
  0
SPLINE
  5
140
330
1F
100
AcDbEntity
  8
layer 1
 62
     7
100
AcDbSpline
210
0.0
220
0.0
230
1.0
 70
    11
 71
     3
 72
    28
 73
    24
 74
     0
 42
0.0000000001
 43
0.0000000001
 12
1.0
 22
0.0
 32
0.0
 13
1.0
 23
0.0
 33
0.0
 40
0.0
 40
0.0
 40
0.0
 40
0.0
 40
0.1428571428571428
 40
0.1428571428571428
 40
0.1428571428571428
 40
0.1428571428571428
 40
0.2857142857142857
 40
0.2857142857142857
 40
0.2857142857142857
 40
0.2857142857142857
 40
0.4285714285714285
 40
0.4285714285714285
 40
0.4285714285714285
 40
0.4285714285714285
 40
0.5714285714285714
 40
0.5714285714285714
 40
0.5714285714285714
 40
0.5714285714285714
 40
0.7142857142857143
 40
0.7142857142857143
 40
0.7142857142857143
 40
0.7142857142857143
 40
1.0
 40
1.0
 40
1.0
 40
1.0
 10
-37.7266
 20
-109.2196
 30
0.0
 10
-37.7266
 20
-109.2196
 30
0.0
 10
-31.931
 20
-109.2196
 30
0.0
 10
-31.931
 20
-109.2196
 30
0.0
 10
-31.931
 20
-109.2196
 30
0.0
 10
-31.931
 20
-109.2196
 30
0.0
 10
-28.5219
 20
-101.1896
 30
0.0
 10
-28.5219
 20
-101.1896
 30
0.0
 10
-28.5219
 20
-101.1896
 30
0.0
 10
-28.5219
 20
-101.1896
 30
0.0
 10
-31.3865
 20
-94.1344
 30
0.0
 10
-31.3865
 20
-94.1344
 30
0.0
 10
-31.3865
 20
-94.1344
 30
0.0
 10
-31.3865
 20
-94.1344
 30
0.0
 10
-38.4167
 20
-97.0738
 30
0.0
 10
-38.4167
 20
-97.0738
 30
0.0
 10
-38.4167
 20
-97.0738
 30
0.0
 10
-38.4167
 20
-97.0738
 30
0.0
 10
-41.8448
 20
-105.094
 30
0.0
 10
-41.8448
 20
-105.094
 30
0.0
 10
-41.8448
 20
-105.094
 30
0.0
 10
-41.8448
 20
-105.094
 30
0.0
 10
-37.7266
 20
-109.2196
 30
0.0
 10
-37.7266
 20
-109.2196
 30
0.0
  0
SPLINE
  5
141
330
1F
100
AcDbEntity
  8
layer 1
 62
     7
100
AcDbSpline
210
0.0
220
0.0
230
1.0
 70
    11
 71
     3
 72
    28
 73
    24
 74
     0
 42
0.0000000001
 43
0.0000000001
 12
1.0
 22
0.0
 32
0.0
 13
1.0
 23
0.0
 33
0.0
 40
0.0
 40
0.0
 40
0.0
 40
0.0
 40
0.1428571428571428
 40
0.1428571428571428
 40
0.1428571428571428
 40
0.1428571428571428
 40
0.2857142857142857
 40
0.2857142857142857
 40
0.2857142857142857
 40
0.2857142857142857
 40
0.4285714285714285
 40
0.4285714285714285
 40
0.4285714285714285
 40
0.4285714285714285
 40
0.5714285714285714
 40
0.5714285714285714
 40
0.5714285714285714
 40
0.5714285714285714
 40
0.7142857142857143
 40
0.7142857142857143
 40
0.7142857142857143
 40
0.7142857142857143
 40
1.0
 40
1.0
 40
1.0
 40
1.0
 10
-53.2533
 20
-109.2196
 30
0.0
 10
-53.2533
 20
-109.2196
 30
0.0
 10
-42.4345
 20
-109.2196
 30
0.0
 10
-42.4345
 20
-109.2196
 30
0.0
 10
-42.4345
 20
-109.2196
 30
0.0
 10
-42.4345
 20
-109.2196
 30
0.0
 10
-45.7294
 20
-105.8456
 30
0.0
 10
-45.7294
 20
-105.8456
 30
0.0
 10
-45.7294
 20
-105.8456
 30
0.0
 10
-45.7294
 20
-105.8456
 30
0.0
 10
-42.7981
 20
-98.9064
 30
0.0
 10
-42.7981
 20
-98.9064
 30
0.0
 10
-42.7981
 20
-98.9064
 30
0.0
 10
-42.7981
 20
-98.9064
 30
0.0
 10
-49.7897
 20
-101.7685
 30
0.0
 10
-49.7897
 20
-101.7685
 30
0.0
 10
-49.7897
 20
-101.7685
 30
0.0
 10
-49.7897
 20
-101.7685
 30
0.0
 10
-53.2564
 20
-98.5639
 30
0.0
 10
-53.2564
 20
-98.5639
 30
0.0
 10
-53.2564
 20
-98.5639
 30
0.0
 10
-53.2564
 20
-98.5639
 30
0.0
 10
-53.2533
 20
-109.2196
 30
0.0
 10
-53.2533
 20
-109.2196
 30
0.0
  0
SPLINE
  5
142
330
1F
100
AcDbEntity
  8
layer 1
 62
     7
100
AcDbSpline
210
0.0
220
0.0
230
1.0
 70
    11
 71
     3
 72
    28
 73
    24
 74
     0
 42
0.0000000001
 43
0.0000000001
 12
1.0
 22
0.0
 32
0.0
 13
1.0
 23
0.0
 33
0.0
 40
0.0
 40
0.0
 40
0.0
 40
0.0
 40
0.1428571428571428
 40
0.1428571428571428
 40
0.1428571428571428
 40
0.1428571428571428
 40
0.2857142857142857
 40
0.2857142857142857
 40
0.2857142857142857
 40
0.2857142857142857
 40
0.4285714285714285
 40
0.4285714285714285
 40
0.4285714285714285
 40
0.4285714285714285
 40
0.5714285714285714
 40
0.5714285714285714
 40
0.5714285714285714
 40
0.5714285714285714
 40
0.7142857142857143
 40
0.7142857142857143
 40
0.7142857142857143
 40
0.7142857142857143
 40
1.0
 40
1.0
 40
1.0
 40
1.0
 10
-0.1346
 20
-109.2196
 30
0.0
 10
-0.1346
 20
-109.2196
 30
0.0
 10
-10.9534
 20
-109.2196
 30
0.0
 10
-10.9534
 20
-109.2196
 30
0.0
 10
-10.9534
 20
-109.2196
 30
0.0
 10
-10.9534
 20
-109.2196
 30
0.0
 10
-7.6585
 20
-105.8456
 30
0.0
 10
-7.6585
 20
-105.8456
 30
0.0
 10
-7.6585
 20
-105.8456
 30
0.0
 10
-7.6585
 20
-105.8456
 30
0.0
 10
-10.5898
 20
-98.9064
 30
0.0
 10
-10.5898
 20
-98.9064
 30
0.0
 10
-10.5898
 20
-98.9064
 30
0.0
 10
-10.5898
 20
-98.9064
 30
0.0
 10
-3.5982
 20
-101.7685
 30
0.0
 10
-3.5982
 20
-101.7685
 30
0.0
 10
-3.5982
 20
-101.7685
 30
0.0
 10
-3.5982
 20
-101.7685
 30
0.0
 10
-0.1315
 20
-98.5639
 30
0.0
 10
-0.1315
 20
-98.5639
 30
0.0
 10
-0.1315
 20
-98.5639
 30
0.0
 10
-0.1315
 20
-98.5639
 30
0.0
 10
-0.1346
 20
-109.2196
 30
0.0
 10
-0.1346
 20
-109.2196
 30
0.0
  0
ENDSEC
  0
SECTION
  2
OBJECTS
  0
DICTIONARY
  5
C
330
0
100
AcDbDictionary
281
     1
  3
ACAD_GROUP
350
D
  3
ACAD_LAYOUT
350
1A
  3
ACAD_MATERIAL
350
3B
  3
ACAD_MLEADERSTYLE
350
164
  3
ACAD_MLINESTYLE
350
17
  3
ACAD_PLOTSETTINGS
350
19
  3
ACAD_PLOTSTYLENAME
350
E
  3
ACAD_TABLESTYLE
350
163
  3
ACAD_VISUALSTYLE
350
2A
  0
DICTIONARY
  5
D
102
{ACAD_REACTORS
330
C
102
}
330
C
100
AcDbDictionary
281
     1
  0
DICTIONARY
  5
1A
102
{ACAD_REACTORS
330
C
102
}
330
C
100
AcDbDictionary
281
     1
  3
Layout1
350
1E
  3
Layout2
350
26
  3
Model
350
22
  0
DICTIONARY
  5
3B
102
{ACAD_REACTORS
330
C
102
}
330
C
100
AcDbDictionary
281
     1
  3
ByBlock
350
3D
  3
ByLayer
350
3C
  3
Global
350
3E
  0
DICTIONARY
  5
164
102
{ACAD_REACTORS
330
C
102
}
330
C
100
AcDbDictionary
281
     1
  0
DICTIONARY
  5
17
102
{ACAD_REACTORS
330
C
102
}
330
C
100
AcDbDictionary
281
     1
  3
Standard
350
18
  0
DICTIONARY
  5
19
102
{ACAD_REACTORS
330
C
102
}
330
C
100
AcDbDictionary
281
     1
  0
ACDBDICTIONARYWDFLT
  5
E
102
{ACAD_REACTORS
330
C
102
}
330
C
100
AcDbDictionary
281
     1
  3
Normal
350
F
100
AcDbDictionaryWithDefault
340
F
  0
DICTIONARY
  5
163
102
{ACAD_REACTORS
330
C
102
}
330
C
100
AcDbDictionary
281
     1
  0
DICTIONARY
  5
2A
102
{ACAD_REACTORS
330
C
102
}
330
C
100
AcDbDictionary
281
     1
  3
2dWireframe
350
2F
  3
3D Hidden
350
31
  3
3dWireframe
350
30
  3
Basic
350
32
  3
Brighten
350
36
  3
ColorChange
350
3A
  3
Conceptual
350
34
  3
Dim
350
35
  3
Facepattern
350
39
  3
Flat
350
2B
  3
FlatWithEdges
350
2C
  3
Gouraud
350
2D
  3
GouraudWithEdges
350
2E
  3
Linepattern
350
38
  3
Realistic
350
33
  3
Thicken
350
37
  0
LAYOUT
  5
1E
102
{ACAD_REACTORS
330
1A
102
}
330
1A
100
AcDbPlotSettings
  1

  2
none_device
  4

  6

 40
0.0
 41
0.0
 42
0.0
 43
0.0
 44
0.0
 45
0.0
 46
0.0
 47
0.0
 48
0.0
 49
0.0
140
0.0
141
0.0
142
1.0
143
1.0
 70
   688
 72
     0
 73
     0
 74
     5
  7

 75
    16
 76
     0
 77
     2
 78
   300
147
1.0
148
0.0
149
0.0
100
AcDbLayout
  1
Layout1
 70
     1
 71
     1
 10
0.0
 20
0.0
 11
12.0
 21
9.0
 12
0.0
 22
0.0
 32
0.0
 14
1.000000000000000E+20
 24
1.000000000000000E+20
 34
1.000000000000000E+20
 15
-1.000000000000000E+20
 25
-1.000000000000000E+20
 35
-1.000000000000000E+20
146
0.0
 13
0.0
 23
0.0
 33
0.0
 16
1.0
 26
0.0
 36
0.0
 17
0.0
 27
1.0
 37
0.0
 76
     0
330
1B
  0
LAYOUT
  5
26
102
{ACAD_REACTORS
330
1A
102
}
330
1A
100
AcDbPlotSettings
  1

  2
none_device
  4

  6

 40
0.0
 41
0.0
 42
0.0
 43
0.0
 44
0.0
 45
0.0
 46
0.0
 47
0.0
 48
0.0
 49
0.0
140
0.0
141
0.0
142
1.0
143
1.0
 70
   688
 72
     0
 73
     0
 74
     5
  7

 75
    16
 76
     0
 77
     2
 78
   300
147
1.0
148
0.0
149
0.0
100
AcDbLayout
  1
Layout2
 70
     1
 71
     2
 10
0.0
 20
0.0
 11
0.0
 21
0.0
 12
0.0
 22
0.0
 32
0.0
 14
0.0
 24
0.0
 34
0.0
 15
0.0
 25
0.0
 35
0.0
146
0.0
 13
0.0
 23
0.0
 33
0.0
 16
1.0
 26
0.0
 36
0.0
 17
0.0
 27
1.0
 37
0.0
 76
     0
330
23
  0
LAYOUT
  5
22
102
{ACAD_REACTORS
330
1A
102
}
330
1A
100
AcDbPlotSettings
  1

  2
none_device
  4

  6

 40
0.0
 41
0.0
 42
0.0
 43
0.0
 44
0.0
 45
0.0
 46
0.0
 47
0.0
 48
0.0
 49
0.0
140
0.0
141
0.0
142
1.0
143
1.0
 70
  1712
 72
     0
 73
     0
 74
     0
  7

 75
     0
 76
     0
 77
     2
 78
   300
147
1.0
148
0.0
149
0.0
100
AcDbLayout
  1
Model
 70
     1
 71
     0
 10
0.0
 20
0.0
 11
12.0
 21
9.0
 12
0.0
 22
0.0
 32
0.0
 14
-187.4316
 24
-114.823
 34
0.0
 15
3.3079
 25
131.7537
 35
0.0
146
0.0
 13
0.0
 23
0.0
 33
0.0
 16
1.0
 26
0.0
 36
0.0
 17
0.0
 27
1.0
 37
0.0
 76
     0
330
1F
331
29
  0
MATERIAL
  5
3D
102
{ACAD_REACTORS
330
3B
102
}
330
3B
100
AcDbMaterial
  1
ByBlock
 72
     1
 94
      127
  0
MATERIAL
  5
3C
102
{ACAD_REACTORS
330
3B
102
}
330
3B
100
AcDbMaterial
  1
ByLayer
 72
     1
 94
      127
  0
MATERIAL
  5
3E
102
{ACAD_REACTORS
330
3B
102
}
330
3B
100
AcDbMaterial
  1
Global
 72
     1
 94
      127
  0
MLINESTYLE
  5
18
102
{ACAD_REACTORS
330
17
102
}
330
17
100
AcDbMlineStyle
  2
Standard
 70
     0
  3

 62
   256
 51
90.0
 52
90.0
 71
     2
 49
0.5
 62
   256
  6
BYLAYER
 49
-0.5
 62
   256
  6
BYLAYER
  0
ACDBPLACEHOLDER
  5
F
102
{ACAD_REACTORS
330
E
102
}
330
E
  0
VISUALSTYLE
  5
2F
102
{ACAD_REACTORS
330
2A
102
}
102
{ACAD_XDICTIONARY
360
14B
102
}
330
2A
100
AcDbVisualStyle
  2
2dWireframe
 70
     4
 71
     0
 72
     2
 73
     0
 90
        0
 40
-0.6
 41
-30.0
 62
     5
 63
     7
421
 16777215
 74
     1
 91
        4
 64
     7
 65
   257
 75
     1
175
     1
 42
1.0
 92
        0
 66
   257
 43
1.0
 76
     1
 77
     6
 78
     2
 67
     7
 79
     5
170
     0
171
     0
290
     0
174
     0
 93
        1
 44
0.0
173
     0
291
     0
 45
0.0
  0
VISUALSTYLE
  5
31
102
{ACAD_REACTORS
330
2A
102
}
102
{ACAD_XDICTIONARY
360
14F
102
}
330
2A
100
AcDbVisualStyle
  2
3D Hidden
 70
     6
 71
     1
 72
     2
 73
     2
 90
        0
 40
-0.6
 41
-30.0
 62
     5
 63
     7
421
 16777215
 74
     2
 91
        2
 64
     7
 65
   257
 75
     2
175
     1
 42
40.0
 92
        0
 66
   257
 43
1.0
 76
     1
 77
     6
 78
     2
 67
     7
 79
     3
170
     0
171
     0
290
     0
174
     0
 93
        1
 44
0.0
173
     0
291
     0
 45
0.0
  0
VISUALSTYLE
  5
30
102
{ACAD_REACTORS
330
2A
102
}
102
{ACAD_XDICTIONARY
360
14D
102
}
330
2A
100
AcDbVisualStyle
  2
3dWireframe
 70
     5
 71
     0
 72
     2
 73
     0
 90
        0
 40
-0.6
 41
-30.0
 62
     5
 63
     7
421
 16777215
 74
     1
 91
        4
 64
     7
 65
   257
 75
     1
175
     1
 42
1.0
 92
        0
 66
   257
 43
1.0
 76
     1
 77
     6
 78
     2
 67
     7
 79
     5
170
     0
171
     0
290
     0
174
     0
 93
        1
 44
0.0
173
     0
291
     0
 45
0.0
  0
VISUALSTYLE
  5
32
102
{ACAD_REACTORS
330
2A
102
}
102
{ACAD_XDICTIONARY
360
151
102
}
330
2A
100
AcDbVisualStyle
  2
Basic
 70
     7
 71
     1
 72
     0
 73
     1
 90
        0
 40
-0.6
 41
-30.0
 62
     5
 63
     7
421
 16777215
 74
     0
 91
        4
 64
     7
 65
   257
 75
     1
175
     1
 42
1.0
 92
        8
 66
     7
 43
1.0
 76
     1
 77
     6
 78
     2
 67
     7
 79
     5
170
     0
171
     0
290
     0
174
     0
 93
        1
 44
0.0
173
     0
291
     1
 45
0.0
  0
VISUALSTYLE
  5
36
102
{ACAD_REACTORS
330
2A
102
}
102
{ACAD_XDICTIONARY
360
159
102
}
330
2A
100
AcDbVisualStyle
  2
Brighten
 70
    12
 71
     2
 72
     2
 73
     0
 90
        0
 40
-0.6
 41
-30.0
 62
     5
 63
     7
421
 16777215
 74
     1
 91
        4
 64
     7
 65
   257
 75
     1
175
     1
 42
1.0
 92
        8
 66
     7
 43
1.0
 76
     1
 77
     6
 78
     2
 67
     7
 79
     5
170
     0
171
     0
290
     0
174
     0
 93
        1
 44
50.0
173
     0
291
     1
 45
0.0
  0
VISUALSTYLE
  5
3A
102
{ACAD_REACTORS
330
2A
102
}
102
{ACAD_XDICTIONARY
360
161
102
}
330
2A
100
AcDbVisualStyle
  2
ColorChange
 70
    16
 71
     2
 72
     2
 73
     3
 90
        0
 40
-0.6
 41
-30.0
 62
     5
 63
     8
421
  8421504
 74
     1
 91
        4
 64
     7
 65
   257
 75
     1
175
     1
 42
1.0
 92
        8
 66
     8
424
  8421504
 43
1.0
 76
     1
 77
     6
 78
     2
 67
     7
 79
     5
170
     0
171
     0
290
     0
174
     0
 93
        1
 44
0.0
173
     0
291
     1
 45
0.0
  0
VISUALSTYLE
  5
34
102
{ACAD_REACTORS
330
2A
102
}
102
{ACAD_XDICTIONARY
360
155
102
}
330
2A
100
AcDbVisualStyle
  2
Conceptual
 70
     9
 71
     3
 72
     2
 73
     0
 90
        0
 40
-0.6
 41
-30.0
 62
     5
 63
     7
421
 16777215
 74
     2
 91
        2
 64
     7
 65
   257
 75
     1
175
     1
 42
40.0
 92
        8
 66
     7
 43
1.0
 76
     1
 77
     6
 78
     2
 67
     7
 79
     3
170
     0
171
     0
290
     0
174
     0
 93
        1
 44
0.0
173
     0
291
     0
 45
0.0
  0
VISUALSTYLE
  5
35
102
{ACAD_REACTORS
330
2A
102
}
102
{ACAD_XDICTIONARY
360
157
102
}
330
2A
100
AcDbVisualStyle
  2
Dim
 70
    11
 71
     2
 72
     2
 73
     0
 90
        0
 40
-0.6
 41
-30.0
 62
     5
 63
     7
421
 16777215
 74
     1
 91
        4
 64
     7
 65
   257
 75
     1
175
     1
 42
1.0
 92
        8
 66
     7
 43
1.0
 76
     1
 77
     6
 78
     2
 67
     7
 79
     5
170
     0
171
     0
290
     0
174
     0
 93
        1
 44
-50.0
173
     0
291
     1
 45
0.0
  0
VISUALSTYLE
  5
39
102
{ACAD_REACTORS
330
2A
102
}
102
{ACAD_XDICTIONARY
360
15F
102
}
330
2A
100
AcDbVisualStyle
  2
Facepattern
 70
    15
 71
     2
 72
     2
 73
     0
 90
        0
 40
-0.6
 41
-30.0
 62
     5
 63
     7
421
 16777215
 74
     1
 91
        4
 64
     7
 65
   257
 75
     1
175
     1
 42
1.0
 92
        8
 66
     7
 43
1.0
 76
     1
 77
     6
 78
     2
 67
     7
 79
     5
170
     0
171
     0
290
     0
174
     0
 93
        1
 44
0.0
173
     0
291
     1
 45
0.0
  0
VISUALSTYLE
  5
2B
102
{ACAD_REACTORS
330
2A
102
}
102
{ACAD_XDICTIONARY
360
143
102
}
330
2A
100
AcDbVisualStyle
  2
Flat
 70
     0
 71
     2
 72
     1
 73
     1
 90
        2
 40
-0.6
 41
30.0
 62
     5
 63
     7
421
 16777215
 74
     0
 91
        4
 64
     7
 65
   257
 75
     1
175
     1
 42
1.0
 92
        8
 66
     7
 43
1.0
 76
     1
 77
     6
 78
     2
 67
     7
 79
     5
170
     0
171
     0
290
     0
174
     0
 93
       13
 44
0.0
173
     0
291
     1
 45
0.0
  0
VISUALSTYLE
  5
2C
102
{ACAD_REACTORS
330
2A
102
}
102
{ACAD_XDICTIONARY
360
145
102
}
330
2A
100
AcDbVisualStyle
  2
FlatWithEdges
 70
     1
 71
     2
 72
     1
 73
     1
 90
        2
 40
-0.6
 41
30.0
 62
     5
 63
     7
421
 16777215
 74
     1
 91
        4
 64
     7
 65
   257
 75
     1
175
     1
 42
1.0
 92
        0
 66
   257
 43
1.0
 76
     1
 77
     6
 78
     2
 67
     7
 79
     5
170
     0
171
     0
290
     0
174
     0
 93
       13
 44
0.0
173
     0
291
     1
 45
0.0
  0
VISUALSTYLE
  5
2D
102
{ACAD_REACTORS
330
2A
102
}
102
{ACAD_XDICTIONARY
360
147
102
}
330
2A
100
AcDbVisualStyle
  2
Gouraud
 70
     2
 71
     2
 72
     2
 73
     1
 90
        2
 40
-0.6
 41
30.0
 62
     5
 63
     7
421
 16777215
 74
     0
 91
        4
 64
     7
 65
   257
 75
     1
175
     1
 42
1.0
 92
        0
 66
     7
 43
1.0
 76
     1
 77
     6
 78
     2
 67
     7
 79
     5
170
     0
171
     0
290
     0
174
     0
 93
       13
 44
0.0
173
     0
291
     1
 45
0.0
  0
VISUALSTYLE
  5
2E
102
{ACAD_REACTORS
330
2A
102
}
102
{ACAD_XDICTIONARY
360
149
102
}
330
2A
100
AcDbVisualStyle
  2
GouraudWithEdges
 70
     3
 71
     2
 72
     2
 73
     1
 90
        2
 40
-0.6
 41
30.0
 62
     5
 63
     7
421
 16777215
 74
     1
 91
        4
 64
     7
 65
   257
 75
     1
175
     1
 42
1.0
 92
        0
 66
   257
 43
1.0
 76
     1
 77
     6
 78
     2
 67
     7
 79
     5
170
     0
171
     0
290
     0
174
     0
 93
       13
 44
0.0
173
     0
291
     1
 45
0.0
  0
VISUALSTYLE
  5
38
102
{ACAD_REACTORS
330
2A
102
}
102
{ACAD_XDICTIONARY
360
15D
102
}
330
2A
100
AcDbVisualStyle
  2
Linepattern
 70
    14
 71
     2
 72
     2
 73
     0
 90
        0
 40
-0.6
 41
-30.0
 62
     5
 63
     7
421
 16777215
 74
     1
 91
        4
 64
     7
 65
   257
 75
     7
175
     7
 42
1.0
 92
        8
 66
     7
 43
1.0
 76
     1
 77
     6
 78
     2
 67
     7
 79
     5
170
     0
171
     0
290
     0
174
     0
 93
        1
 44
0.0
173
     0
291
     1
 45
0.0
  0
VISUALSTYLE
  5
33
102
{ACAD_REACTORS
330
2A
102
}
102
{ACAD_XDICTIONARY
360
153
102
}
330
2A
100
AcDbVisualStyle
  2
Realistic
 70
     8
 71
     2
 72
     2
 73
     0
 90
        0
 40
-0.6
 41
-30.0
 62
     5
 63
     7
421
 16777215
 74
     1
 91
        0
 64
     7
 65
   257
 75
     1
175
     1
 42
1.0
 92
        8
 66
     8
424
  7895160
 43
1.0
 76
     1
 77
     6
 78
     2
 67
     7
 79
     5
170
     0
171
     0
290
     0
174
     0
 93
       13
 44
0.0
173
     0
291
     0
 45
0.0
  0
VISUALSTYLE
  5
37
102
{ACAD_REACTORS
330
2A
102
}
102
{ACAD_XDICTIONARY
360
15B
102
}
330
2A
100
AcDbVisualStyle
  2
Thicken
 70
    13
 71
     2
 72
     2
 73
     0
 90
        0
 40
-0.6
 41
-30.0
 62
     5
 63
     7
421
 16777215
 74
     1
 91
        4
 64
     7
 65
   257
 75
     1
175
     1
 42
1.0
 92
       12
 66
     7
 43
1.0
 76
     1
 77
     6
 78
     2
 67
     7
 79
     5
170
     0
171
     0
290
     0
174
     0
 93
        1
 44
0.0
173
     0
291
     1
 45
0.0
  0
DICTIONARY
  5
14B
330
2F
100
AcDbDictionary
280
     1
281
     1
  3
ACAD_XREC_ROUNDTRIP
360
14C
  0
DICTIONARY
  5
14F
330
31
100
AcDbDictionary
280
     1
281
     1
  3
ACAD_XREC_ROUNDTRIP
360
150
  0
DICTIONARY
  5
14D
330
30
100
AcDbDictionary
280
     1
281
     1
  3
ACAD_XREC_ROUNDTRIP
360
14E
  0
DICTIONARY
  5
151
330
32
100
AcDbDictionary
280
     1
281
     1
  3
ACAD_XREC_ROUNDTRIP
360
152
  0
DICTIONARY
  5
159
330
36
100
AcDbDictionary
280
     1
281
     1
  3
ACAD_XREC_ROUNDTRIP
360
15A
  0
DICTIONARY
  5
161
330
3A
100
AcDbDictionary
280
     1
281
     1
  3
ACAD_XREC_ROUNDTRIP
360
162
  0
DICTIONARY
  5
155
330
34
100
AcDbDictionary
280
     1
281
     1
  3
ACAD_XREC_ROUNDTRIP
360
156
  0
DICTIONARY
  5
157
330
35
100
AcDbDictionary
280
     1
281
     1
  3
ACAD_XREC_ROUNDTRIP
360
158
  0
DICTIONARY
  5
15F
330
39
100
AcDbDictionary
280
     1
281
     1
  3
ACAD_XREC_ROUNDTRIP
360
160
  0
DICTIONARY
  5
143
330
2B
100
AcDbDictionary
280
     1
281
     1
  3
ACAD_XREC_ROUNDTRIP
360
144
  0
DICTIONARY
  5
145
330
2C
100
AcDbDictionary
280
     1
281
     1
  3
ACAD_XREC_ROUNDTRIP
360
146
  0
DICTIONARY
  5
147
330
2D
100
AcDbDictionary
280
     1
281
     1
  3
ACAD_XREC_ROUNDTRIP
360
148
  0
DICTIONARY
  5
149
330
2E
100
AcDbDictionary
280
     1
281
     1
  3
ACAD_XREC_ROUNDTRIP
360
14A
  0
DICTIONARY
  5
15D
330
38
100
AcDbDictionary
280
     1
281
     1
  3
ACAD_XREC_ROUNDTRIP
360
15E
  0
DICTIONARY
  5
153
330
33
100
AcDbDictionary
280
     1
281
     1
  3
ACAD_XREC_ROUNDTRIP
360
154
  0
DICTIONARY
  5
15B
330
37
100
AcDbDictionary
280
     1
281
     1
  3
ACAD_XREC_ROUNDTRIP
360
15C
  0
XRECORD
  5
14C
102
{ACAD_REACTORS
330
14B
102
}
330
14B
100
AcDbXrecord
280
     1
102
RTVSPropertyOp0
 70
     1
102
RTVSPropertyOp1
 70
     1
102
RTVSPropertyOp2
 70
     1
102
RTVSPropertyOp3
 70
     1
102
RTVSPropertyOp4
 70
     1
102
RTVSPropertyOp5
 70
     1
102
RTVSPropertyOp6
 70
     1
102
RTVSPropertyOp7
 70
     1
102
RTVSPropertyOp8
 70
     1
102
RTVSPropertyOp9
 70
     1
102
RTVSPropertyOp10
 70
     1
102
RTVSPropertyOp11
 70
     1
102
RTVSPropertyOp12
 70
     1
102
RTVSPropertyOp13
 70
     1
102
RTVSPropertyOp14
 70
     1
102
RTVSPropertyOp15
 70
     1
102
RTVSPropertyOp16
 70
     1
102
RTVSPropertyOp17
 70
     1
102
RTVSPropertyOp18
 70
     1
102
RTVSPropertyOp19
 70
     1
102
RTVSPropertyOp20
 70
     1
102
RTVSPropertyOp21
 70
     1
102
RTVSPropertyOp22
 70
     1
102
RTVSPropertyOp23
 70
     1
102
RTVSPropertyOp24
 70
     1
102
RTVSPropertyOp25
 70
     1
102
RTVSPropertyOp26
 70
     1
102
RTVSPropertyOp27
 70
     1
102
RTVSPropertyOp28
 70
     1
102
RTVSPropertyOp29
 70
     1
102
RTVSPropertyOp30
 70
     1
102
RTVSPropertyOp31
 70
     1
102
RTVSPropertyOp32
 70
     1
  0
XRECORD
  5
150
102
{ACAD_REACTORS
330
14F
102
}
330
14F
100
AcDbXrecord
280
     1
102
RTVSPropertyOp0
 70
     1
102
RTVSPropertyOp1
 70
     1
102
RTVSPropertyOp2
 70
     1
102
RTVSPropertyOp3
 70
     1
102
RTVSPropertyOp4
 70
     1
102
RTVSPropertyOp5
 70
     1
102
RTVSPropertyOp6
 70
     1
102
RTVSPropertyOp7
 70
     1
102
RTVSPropertyOp8
 70
     1
102
RTVSPropertyOp9
 70
     1
102
RTVSPropertyOp10
 70
     1
102
RTVSPropertyOp11
 70
     1
102
RTVSPropertyOp12
 70
     1
102
RTVSPropertyOp13
 70
     1
102
RTVSPropertyOp14
 70
     1
102
RTVSPropertyOp15
 70
     1
102
RTVSPropertyOp16
 70
     1
102
RTVSPropertyOp17
 70
     1
102
RTVSPropertyOp18
 70
     1
102
RTVSPropertyOp19
 70
     1
102
RTVSPropertyOp20
 70
     1
102
RTVSPropertyOp21
 70
     1
102
RTVSPropertyOp22
 70
     1
102
RTVSPropertyOp23
 70
     1
102
RTVSPropertyOp24
 70
     1
102
RTVSPropertyOp25
 70
     1
102
RTVSPropertyOp26
 70
     1
102
RTVSPropertyOp27
 70
     1
102
RTVSPropertyOp28
 70
     1
102
RTVSPropertyOp29
 70
     1
102
RTVSPropertyOp30
 70
     1
102
RTVSPropertyOp31
 70
     1
102
RTVSPropertyOp32
 70
     1
  0
XRECORD
  5
14E
102
{ACAD_REACTORS
330
14D
102
}
330
14D
100
AcDbXrecord
280
     1
102
RTVSPropertyOp0
 70
     1
102
RTVSPropertyOp1
 70
     1
102
RTVSPropertyOp2
 70
     1
102
RTVSPropertyOp3
 70
     1
102
RTVSPropertyOp4
 70
     1
102
RTVSPropertyOp5
 70
     1
102
RTVSPropertyOp6
 70
     1
102
RTVSPropertyOp7
 70
     1
102
RTVSPropertyOp8
 70
     1
102
RTVSPropertyOp9
 70
     1
102
RTVSPropertyOp10
 70
     1
102
RTVSPropertyOp11
 70
     1
102
RTVSPropertyOp12
 70
     1
102
RTVSPropertyOp13
 70
     1
102
RTVSPropertyOp14
 70
     1
102
RTVSPropertyOp15
 70
     1
102
RTVSPropertyOp16
 70
     1
102
RTVSPropertyOp17
 70
     1
102
RTVSPropertyOp18
 70
     1
102
RTVSPropertyOp19
 70
     1
102
RTVSPropertyOp20
 70
     1
102
RTVSPropertyOp21
 70
     1
102
RTVSPropertyOp22
 70
     1
102
RTVSPropertyOp23
 70
     1
102
RTVSPropertyOp24
 70
     1
102
RTVSPropertyOp25
 70
     1
102
RTVSPropertyOp26
 70
     1
102
RTVSPropertyOp27
 70
     1
102
RTVSPropertyOp28
 70
     1
102
RTVSPropertyOp29
 70
     1
102
RTVSPropertyOp30
 70
     1
102
RTVSPropertyOp31
 70
     1
102
RTVSPropertyOp32
 70
     1
  0
XRECORD
  5
152
102
{ACAD_REACTORS
330
151
102
}
330
151
100
AcDbXrecord
280
     1
102
RTVSPropertyOp0
 70
     1
102
RTVSPropertyOp1
 70
     1
102
RTVSPropertyOp2
 70
     1
102
RTVSPropertyOp3
 70
     1
102
RTVSPropertyOp4
 70
     1
102
RTVSPropertyOp5
 70
     1
102
RTVSPropertyOp6
 70
     1
102
RTVSPropertyOp7
 70
     1
102
RTVSPropertyOp8
 70
     1
102
RTVSPropertyOp9
 70
     1
102
RTVSPropertyOp10
 70
     1
102
RTVSPropertyOp11
 70
     1
102
RTVSPropertyOp12
 70
     1
102
RTVSPropertyOp13
 70
     1
102
RTVSPropertyOp14
 70
     1
102
RTVSPropertyOp15
 70
     1
102
RTVSPropertyOp16
 70
     1
102
RTVSPropertyOp17
 70
     1
102
RTVSPropertyOp18
 70
     1
102
RTVSPropertyOp19
 70
     1
102
RTVSPropertyOp20
 70
     1
102
RTVSPropertyOp21
 70
     1
102
RTVSPropertyOp22
 70
     1
102
RTVSPropertyOp23
 70
     1
102
RTVSPropertyOp24
 70
     1
102
RTVSPropertyOp25
 70
     1
102
RTVSPropertyOp26
 70
     1
102
RTVSPropertyOp27
 70
     1
102
RTVSPropertyOp28
 70
     1
102
RTVSPropertyOp29
 70
     1
102
RTVSPropertyOp30
 70
     1
102
RTVSPropertyOp31
 70
     1
102
RTVSPropertyOp32
 70
     1
  0
XRECORD
  5
15A
102
{ACAD_REACTORS
330
159
102
}
330
159
100
AcDbXrecord
280
     1
102
RTVSPropertyOp0
 70
     1
102
RTVSPropertyOp1
 70
     1
102
RTVSPropertyOp2
 70
     1
102
RTVSPropertyOp3
 70
     1
102
RTVSPropertyOp4
 70
     1
102
RTVSPropertyOp5
 70
     1
102
RTVSPropertyOp6
 70
     1
102
RTVSPropertyOp7
 70
     1
102
RTVSPropertyOp8
 70
     1
102
RTVSPropertyOp9
 70
     1
102
RTVSPropertyOp10
 70
     1
102
RTVSPropertyOp11
 70
     1
102
RTVSPropertyOp12
 70
     1
102
RTVSPropertyOp13
 70
     1
102
RTVSPropertyOp14
 70
     1
102
RTVSPropertyOp15
 70
     1
102
RTVSPropertyOp16
 70
     1
102
RTVSPropertyOp17
 70
     1
102
RTVSPropertyOp18
 70
     1
102
RTVSPropertyOp19
 70
     1
102
RTVSPropertyOp20
 70
     1
102
RTVSPropertyOp21
 70
     1
102
RTVSPropertyOp22
 70
     1
102
RTVSPropertyOp23
 70
     1
102
RTVSPropertyOp24
 70
     1
102
RTVSPropertyOp25
 70
     1
102
RTVSPropertyOp26
 70
     1
102
RTVSPropertyOp27
 70
     1
102
RTVSPropertyOp28
 70
     1
102
RTVSPropertyOp29
 70
     1
102
RTVSPropertyOp30
 70
     1
102
RTVSPropertyOp31
 70
     1
102
RTVSPropertyOp32
 70
     1
  0
XRECORD
  5
162
102
{ACAD_REACTORS
330
161
102
}
330
161
100
AcDbXrecord
280
     1
102
RTVSPropertyOp0
 70
     1
102
RTVSPropertyOp1
 70
     1
102
RTVSPropertyOp2
 70
     1
102
RTVSPropertyOp3
 70
     1
102
RTVSPropertyOp4
 70
     1
102
RTVSPropertyOp5
 70
     1
102
RTVSPropertyOp6
 70
     1
102
RTVSPropertyOp7
 70
     1
102
RTVSPropertyOp8
 70
     1
102
RTVSPropertyOp9
 70
     1
102
RTVSPropertyOp10
 70
     1
102
RTVSPropertyOp11
 70
     1
102
RTVSPropertyOp12
 70
     1
102
RTVSPropertyOp13
 70
     1
102
RTVSPropertyOp14
 70
     1
102
RTVSPropertyOp15
 70
     1
102
RTVSPropertyOp16
 70
     1
102
RTVSPropertyOp17
 70
     1
102
RTVSPropertyOp18
 70
     1
102
RTVSPropertyOp19
 70
     1
102
RTVSPropertyOp20
 70
     1
102
RTVSPropertyOp21
 70
     1
102
RTVSPropertyOp22
 70
     1
102
RTVSPropertyOp23
 70
     1
102
RTVSPropertyOp24
 70
     1
102
RTVSPropertyOp25
 70
     1
102
RTVSPropertyOp26
 70
     1
102
RTVSPropertyOp27
 70
     1
102
RTVSPropertyOp28
 70
     1
102
RTVSPropertyOp29
 70
     1
102
RTVSPropertyOp30
 70
     1
102
RTVSPropertyOp31
 70
     1
102
RTVSPropertyOp32
 70
     1
  0
XRECORD
  5
156
102
{ACAD_REACTORS
330
155
102
}
330
155
100
AcDbXrecord
280
     1
102
RTVSPropertyOp0
 70
     1
102
RTVSPropertyOp1
 70
     1
102
RTVSPropertyOp2
 70
     1
102
RTVSPropertyOp3
 70
     1
102
RTVSPropertyOp4
 70
     1
102
RTVSPropertyOp5
 70
     1
102
RTVSPropertyOp6
 70
     1
102
RTVSPropertyOp7
 70
     1
102
RTVSPropertyOp8
 70
     1
102
RTVSPropertyOp9
 70
     1
102
RTVSPropertyOp10
 70
     1
102
RTVSPropertyOp11
 70
     1
102
RTVSPropertyOp12
 70
     1
102
RTVSPropertyOp13
 70
     1
102
RTVSPropertyOp14
 70
     1
102
RTVSPropertyOp15
 70
     1
102
RTVSPropertyOp16
 70
     1
102
RTVSPropertyOp17
 70
     1
102
RTVSPropertyOp18
 70
     1
102
RTVSPropertyOp19
 70
     1
102
RTVSPropertyOp20
 70
     1
102
RTVSPropertyOp21
 70
     1
102
RTVSPropertyOp22
 70
     1
102
RTVSPropertyOp23
 70
     1
102
RTVSPropertyOp24
 70
     1
102
RTVSPropertyOp25
 70
     1
102
RTVSPropertyOp26
 70
     1
102
RTVSPropertyOp27
 70
     1
102
RTVSPropertyOp28
 70
     1
102
RTVSPropertyOp29
 70
     1
102
RTVSPropertyOp30
 70
     1
102
RTVSPropertyOp31
 70
     1
102
RTVSPropertyOp32
 70
     1
  0
XRECORD
  5
158
102
{ACAD_REACTORS
330
157
102
}
330
157
100
AcDbXrecord
280
     1
102
RTVSPropertyOp0
 70
     1
102
RTVSPropertyOp1
 70
     1
102
RTVSPropertyOp2
 70
     1
102
RTVSPropertyOp3
 70
     1
102
RTVSPropertyOp4
 70
     1
102
RTVSPropertyOp5
 70
     1
102
RTVSPropertyOp6
 70
     1
102
RTVSPropertyOp7
 70
     1
102
RTVSPropertyOp8
 70
     1
102
RTVSPropertyOp9
 70
     1
102
RTVSPropertyOp10
 70
     1
102
RTVSPropertyOp11
 70
     1
102
RTVSPropertyOp12
 70
     1
102
RTVSPropertyOp13
 70
     1
102
RTVSPropertyOp14
 70
     1
102
RTVSPropertyOp15
 70
     1
102
RTVSPropertyOp16
 70
     1
102
RTVSPropertyOp17
 70
     1
102
RTVSPropertyOp18
 70
     1
102
RTVSPropertyOp19
 70
     1
102
RTVSPropertyOp20
 70
     1
102
RTVSPropertyOp21
 70
     1
102
RTVSPropertyOp22
 70
     1
102
RTVSPropertyOp23
 70
     1
102
RTVSPropertyOp24
 70
     1
102
RTVSPropertyOp25
 70
     1
102
RTVSPropertyOp26
 70
     1
102
RTVSPropertyOp27
 70
     1
102
RTVSPropertyOp28
 70
     1
102
RTVSPropertyOp29
 70
     1
102
RTVSPropertyOp30
 70
     1
102
RTVSPropertyOp31
 70
     1
102
RTVSPropertyOp32
 70
     1
  0
XRECORD
  5
160
102
{ACAD_REACTORS
330
15F
102
}
330
15F
100
AcDbXrecord
280
     1
102
RTVSPropertyOp0
 70
     1
102
RTVSPropertyOp1
 70
     1
102
RTVSPropertyOp2
 70
     1
102
RTVSPropertyOp3
 70
     1
102
RTVSPropertyOp4
 70
     1
102
RTVSPropertyOp5
 70
     1
102
RTVSPropertyOp6
 70
     1
102
RTVSPropertyOp7
 70
     1
102
RTVSPropertyOp8
 70
     1
102
RTVSPropertyOp9
 70
     1
102
RTVSPropertyOp10
 70
     1
102
RTVSPropertyOp11
 70
     1
102
RTVSPropertyOp12
 70
     1
102
RTVSPropertyOp13
 70
     1
102
RTVSPropertyOp14
 70
     1
102
RTVSPropertyOp15
 70
     1
102
RTVSPropertyOp16
 70
     1
102
RTVSPropertyOp17
 70
     1
102
RTVSPropertyOp18
 70
     1
102
RTVSPropertyOp19
 70
     1
102
RTVSPropertyOp20
 70
     1
102
RTVSPropertyOp21
 70
     1
102
RTVSPropertyOp22
 70
     1
102
RTVSPropertyOp23
 70
     1
102
RTVSPropertyOp24
 70
     1
102
RTVSPropertyOp25
 70
     1
102
RTVSPropertyOp26
 70
     1
102
RTVSPropertyOp27
 70
     1
102
RTVSPropertyOp28
 70
     1
102
RTVSPropertyOp29
 70
     1
102
RTVSPropertyOp30
 70
     1
102
RTVSPropertyOp31
 70
     1
102
RTVSPropertyOp32
 70
     1
  0
XRECORD
  5
144
102
{ACAD_REACTORS
330
143
102
}
330
143
100
AcDbXrecord
280
     1
102
RTVSPropertyOp0
 70
     1
102
RTVSPropertyOp1
 70
     1
102
RTVSPropertyOp2
 70
     1
102
RTVSPropertyOp3
 70
     1
102
RTVSPropertyOp4
 70
     1
102
RTVSPropertyOp5
 70
     1
102
RTVSPropertyOp6
 70
     1
102
RTVSPropertyOp7
 70
     1
102
RTVSPropertyOp8
 70
     1
102
RTVSPropertyOp9
 70
     1
102
RTVSPropertyOp10
 70
     1
102
RTVSPropertyOp11
 70
     1
102
RTVSPropertyOp12
 70
     1
102
RTVSPropertyOp13
 70
     1
102
RTVSPropertyOp14
 70
     1
102
RTVSPropertyOp15
 70
     1
102
RTVSPropertyOp16
 70
     1
102
RTVSPropertyOp17
 70
     1
102
RTVSPropertyOp18
 70
     1
102
RTVSPropertyOp19
 70
     1
102
RTVSPropertyOp20
 70
     1
102
RTVSPropertyOp21
 70
     1
102
RTVSPropertyOp22
 70
     1
102
RTVSPropertyOp23
 70
     1
102
RTVSPropertyOp24
 70
     1
102
RTVSPropertyOp25
 70
     1
102
RTVSPropertyOp26
 70
     1
102
RTVSPropertyOp27
 70
     1
102
RTVSPropertyOp28
 70
     1
102
RTVSPropertyOp29
 70
     1
102
RTVSPropertyOp30
 70
     1
102
RTVSPropertyOp31
 70
     1
102
RTVSPropertyOp32
 70
     1
  0
XRECORD
  5
146
102
{ACAD_REACTORS
330
145
102
}
330
145
100
AcDbXrecord
280
     1
102
RTVSPropertyOp0
 70
     1
102
RTVSPropertyOp1
 70
     1
102
RTVSPropertyOp2
 70
     1
102
RTVSPropertyOp3
 70
     1
102
RTVSPropertyOp4
 70
     1
102
RTVSPropertyOp5
 70
     1
102
RTVSPropertyOp6
 70
     1
102
RTVSPropertyOp7
 70
     1
102
RTVSPropertyOp8
 70
     1
102
RTVSPropertyOp9
 70
     1
102
RTVSPropertyOp10
 70
     1
102
RTVSPropertyOp11
 70
     1
102
RTVSPropertyOp12
 70
     1
102
RTVSPropertyOp13
 70
     1
102
RTVSPropertyOp14
 70
     1
102
RTVSPropertyOp15
 70
     1
102
RTVSPropertyOp16
 70
     1
102
RTVSPropertyOp17
 70
     1
102
RTVSPropertyOp18
 70
     1
102
RTVSPropertyOp19
 70
     1
102
RTVSPropertyOp20
 70
     1
102
RTVSPropertyOp21
 70
     1
102
RTVSPropertyOp22
 70
     1
102
RTVSPropertyOp23
 70
     1
102
RTVSPropertyOp24
 70
     1
102
RTVSPropertyOp25
 70
     1
102
RTVSPropertyOp26
 70
     1
102
RTVSPropertyOp27
 70
     1
102
RTVSPropertyOp28
 70
     1
102
RTVSPropertyOp29
 70
     1
102
RTVSPropertyOp30
 70
     1
102
RTVSPropertyOp31
 70
     1
102
RTVSPropertyOp32
 70
     1
  0
XRECORD
  5
148
102
{ACAD_REACTORS
330
147
102
}
330
147
100
AcDbXrecord
280
     1
102
RTVSPropertyOp0
 70
     1
102
RTVSPropertyOp1
 70
     1
102
RTVSPropertyOp2
 70
     1
102
RTVSPropertyOp3
 70
     1
102
RTVSPropertyOp4
 70
     1
102
RTVSPropertyOp5
 70
     1
102
RTVSPropertyOp6
 70
     1
102
RTVSPropertyOp7
 70
     1
102
RTVSPropertyOp8
 70
     1
102
RTVSPropertyOp9
 70
     1
102
RTVSPropertyOp10
 70
     1
102
RTVSPropertyOp11
 70
     1
102
RTVSPropertyOp12
 70
     1
102
RTVSPropertyOp13
 70
     1
102
RTVSPropertyOp14
 70
     1
102
RTVSPropertyOp15
 70
     1
102
RTVSPropertyOp16
 70
     1
102
RTVSPropertyOp17
 70
     1
102
RTVSPropertyOp18
 70
     1
102
RTVSPropertyOp19
 70
     1
102
RTVSPropertyOp20
 70
     1
102
RTVSPropertyOp21
 70
     1
102
RTVSPropertyOp22
 70
     1
102
RTVSPropertyOp23
 70
     1
102
RTVSPropertyOp24
 70
     1
102
RTVSPropertyOp25
 70
     1
102
RTVSPropertyOp26
 70
     1
102
RTVSPropertyOp27
 70
     1
102
RTVSPropertyOp28
 70
     1
102
RTVSPropertyOp29
 70
     1
102
RTVSPropertyOp30
 70
     1
102
RTVSPropertyOp31
 70
     1
102
RTVSPropertyOp32
 70
     1
  0
XRECORD
  5
14A
102
{ACAD_REACTORS
330
149
102
}
330
149
100
AcDbXrecord
280
     1
102
RTVSPropertyOp0
 70
     1
102
RTVSPropertyOp1
 70
     1
102
RTVSPropertyOp2
 70
     1
102
RTVSPropertyOp3
 70
     1
102
RTVSPropertyOp4
 70
     1
102
RTVSPropertyOp5
 70
     1
102
RTVSPropertyOp6
 70
     1
102
RTVSPropertyOp7
 70
     1
102
RTVSPropertyOp8
 70
     1
102
RTVSPropertyOp9
 70
     1
102
RTVSPropertyOp10
 70
     1
102
RTVSPropertyOp11
 70
     1
102
RTVSPropertyOp12
 70
     1
102
RTVSPropertyOp13
 70
     1
102
RTVSPropertyOp14
 70
     1
102
RTVSPropertyOp15
 70
     1
102
RTVSPropertyOp16
 70
     1
102
RTVSPropertyOp17
 70
     1
102
RTVSPropertyOp18
 70
     1
102
RTVSPropertyOp19
 70
     1
102
RTVSPropertyOp20
 70
     1
102
RTVSPropertyOp21
 70
     1
102
RTVSPropertyOp22
 70
     1
102
RTVSPropertyOp23
 70
     1
102
RTVSPropertyOp24
 70
     1
102
RTVSPropertyOp25
 70
     1
102
RTVSPropertyOp26
 70
     1
102
RTVSPropertyOp27
 70
     1
102
RTVSPropertyOp28
 70
     1
102
RTVSPropertyOp29
 70
     1
102
RTVSPropertyOp30
 70
     1
102
RTVSPropertyOp31
 70
     1
102
RTVSPropertyOp32
 70
     1
  0
XRECORD
  5
15E
102
{ACAD_REACTORS
330
15D
102
}
330
15D
100
AcDbXrecord
280
     1
102
RTVSPropertyOp0
 70
     1
102
RTVSPropertyOp1
 70
     1
102
RTVSPropertyOp2
 70
     1
102
RTVSPropertyOp3
 70
     1
102
RTVSPropertyOp4
 70
     1
102
RTVSPropertyOp5
 70
     1
102
RTVSPropertyOp6
 70
     1
102
RTVSPropertyOp7
 70
     1
102
RTVSPropertyOp8
 70
     1
102
RTVSPropertyOp9
 70
     1
102
RTVSPropertyOp10
 70
     1
102
RTVSPropertyOp11
 70
     1
102
RTVSPropertyOp12
 70
     1
102
RTVSPropertyOp13
 70
     1
102
RTVSPropertyOp14
 70
     1
102
RTVSPropertyOp15
 70
     1
102
RTVSPropertyOp16
 70
     1
102
RTVSPropertyOp17
 70
     1
102
RTVSPropertyOp18
 70
     1
102
RTVSPropertyOp19
 70
     1
102
RTVSPropertyOp20
 70
     1
102
RTVSPropertyOp21
 70
     1
102
RTVSPropertyOp22
 70
     1
102
RTVSPropertyOp23
 70
     1
102
RTVSPropertyOp24
 70
     1
102
RTVSPropertyOp25
 70
     1
102
RTVSPropertyOp26
 70
     1
102
RTVSPropertyOp27
 70
     1
102
RTVSPropertyOp28
 70
     1
102
RTVSPropertyOp29
 70
     1
102
RTVSPropertyOp30
 70
     1
102
RTVSPropertyOp31
 70
     1
102
RTVSPropertyOp32
 70
     1
  0
XRECORD
  5
154
102
{ACAD_REACTORS
330
153
102
}
330
153
100
AcDbXrecord
280
     1
102
RTVSPropertyOp0
 70
     1
102
RTVSPropertyOp1
 70
     1
102
RTVSPropertyOp2
 70
     1
102
RTVSPropertyOp3
 70
     1
102
RTVSPropertyOp4
 70
     1
102
RTVSPropertyOp5
 70
     1
102
RTVSPropertyOp6
 70
     1
102
RTVSPropertyOp7
 70
     1
102
RTVSPropertyOp8
 70
     1
102
RTVSPropertyOp9
 70
     1
102
RTVSPropertyOp10
 70
     1
102
RTVSPropertyOp11
 70
     1
102
RTVSPropertyOp12
 70
     1
102
RTVSPropertyOp13
 70
     1
102
RTVSPropertyOp14
 70
     1
102
RTVSPropertyOp15
 70
     1
102
RTVSPropertyOp16
 70
     1
102
RTVSPropertyOp17
 70
     1
102
RTVSPropertyOp18
 70
     1
102
RTVSPropertyOp19
 70
     1
102
RTVSPropertyOp20
 70
     1
102
RTVSPropertyOp21
 70
     1
102
RTVSPropertyOp22
 70
     1
102
RTVSPropertyOp23
 70
     1
102
RTVSPropertyOp24
 70
     1
102
RTVSPropertyOp25
 70
     1
102
RTVSPropertyOp26
 70
     1
102
RTVSPropertyOp27
 70
     1
102
RTVSPropertyOp28
 70
     1
102
RTVSPropertyOp29
 70
     1
102
RTVSPropertyOp30
 70
     1
102
RTVSPropertyOp31
 70
     1
102
RTVSPropertyOp32
 70
     1
  0
XRECORD
  5
15C
102
{ACAD_REACTORS
330
15B
102
}
330
15B
100
AcDbXrecord
280
     1
102
RTVSPropertyOp0
 70
     1
102
RTVSPropertyOp1
 70
     1
102
RTVSPropertyOp2
 70
     1
102
RTVSPropertyOp3
 70
     1
102
RTVSPropertyOp4
 70
     1
102
RTVSPropertyOp5
 70
     1
102
RTVSPropertyOp6
 70
     1
102
RTVSPropertyOp7
 70
     1
102
RTVSPropertyOp8
 70
     1
102
RTVSPropertyOp9
 70
     1
102
RTVSPropertyOp10
 70
     1
102
RTVSPropertyOp11
 70
     1
102
RTVSPropertyOp12
 70
     1
102
RTVSPropertyOp13
 70
     1
102
RTVSPropertyOp14
 70
     1
102
RTVSPropertyOp15
 70
     1
102
RTVSPropertyOp16
 70
     1
102
RTVSPropertyOp17
 70
     1
102
RTVSPropertyOp18
 70
     1
102
RTVSPropertyOp19
 70
     1
102
RTVSPropertyOp20
 70
     1
102
RTVSPropertyOp21
 70
     1
102
RTVSPropertyOp22
 70
     1
102
RTVSPropertyOp23
 70
     1
102
RTVSPropertyOp24
 70
     1
102
RTVSPropertyOp25
 70
     1
102
RTVSPropertyOp26
 70
     1
102
RTVSPropertyOp27
 70
     1
102
RTVSPropertyOp28
 70
     1
102
RTVSPropertyOp29
 70
     1
102
RTVSPropertyOp30
 70
     1
102
RTVSPropertyOp31
 70
     1
102
RTVSPropertyOp32
 70
     1
  0
ENDSEC
  0
EOF
