  0
SECTION
  2
HEADER
  9
$ACADVER
  1
AC1021
  9
$ACADMAINTVER
 70
    25
  9
$DWGCODEPAGE
  3
ANSI_1256
  9
$INSBASE
 10
0.0
 20
0.0
 30
0.0
  9
$EXTMIN
 10
5.8134
 20
-114.9865
 30
0.0
  9
$EXTMAX
 10
196.2556
 20
131.8436
 30
0.0
  9
$LIMMIN
 10
0.0
 20
0.0
  9
$LIMMAX
 10
12.0
 20
9.0
  9
$ORTHOMODE
 70
     0
  9
$REGENMODE
 70
     1
  9
$FILLMODE
 70
     1
  9
$QTEXTMODE
 70
     0
  9
$MIRRTEXT
 70
     1
  9
$LTSCALE
 40
1.0
  9
$ATTMODE
 70
     1
  9
$TEXTSIZE
 40
0.2
  9
$TRACEWID
 40
0.05
  9
$TEXTSTYLE
  7
Standard
  9
$CLAYER
  8
0
  9
$CELTYPE
  6
ByLayer
  9
$CECOLOR
 62
   256
  9
$CELTSCALE
 40
1.0
  9
$DISPSILH
 70
     0
  9
$DIMSCALE
 40
1.0
  9
$DIMASZ
 40
0.18
  9
$DIMEXO
 40
0.0625
  9
$DIMDLI
 40
0.38
  9
$DIMRND
 40
0.0
  9
$DIMDLE
 40
0.0
  9
$DIMEXE
 40
0.18
  9
$DIMTP
 40
0.0
  9
$DIMTM
 40
0.0
  9
$DIMTXT
 40
0.18
  9
$DIMCEN
 40
0.09
  9
$DIMTSZ
 40
0.0
  9
$DIMTOL
 70
     0
  9
$DIMLIM
 70
     0
  9
$DIMTIH
 70
     1
  9
$DIMTOH
 70
     1
  9
$DIMSE1
 70
     0
  9
$DIMSE2
 70
     0
  9
$DIMTAD
 70
     0
  9
$DIMZIN
 70
     0
  9
$DIMBLK
  1

  9
$DIMASO
 70
     1
  9
$DIMSHO
 70
     1
  9
$DIMPOST
  1

  9
$DIMAPOST
  1

  9
$DIMALT
 70
     0
  9
$DIMALTD
 70
     2
  9
$DIMALTF
 40
25.4
  9
$DIMLFAC
 40
1.0
  9
$DIMTOFL
 70
     0
  9
$DIMTVP
 40
0.0
  9
$DIMTIX
 70
     0
  9
$DIMSOXD
 70
     0
  9
$DIMSAH
 70
     0
  9
$DIMBLK1
  1

  9
$DIMBLK2
  1

  9
$DIMSTYLE
  2
Standard
  9
$DIMCLRD
 70
     0
  9
$DIMCLRE
 70
     0
  9
$DIMCLRT
 70
     0
  9
$DIMTFAC
 40
1.0
  9
$DIMGAP
 40
0.09
  9
$DIMJUST
 70
     0
  9
$DIMSD1
 70
     0
  9
$DIMSD2
 70
     0
  9
$DIMTOLJ
 70
     1
  9
$DIMTZIN
 70
     0
  9
$DIMALTZ
 70
     0
  9
$DIMALTTZ
 70
     0
  9
$DIMUPT
 70
     0
  9
$DIMDEC
 70
     4
  9
$DIMTDEC
 70
     4
  9
$DIMALTU
 70
     2
  9
$DIMALTTD
 70
     2
  9
$DIMTXSTY
  7
Standard
  9
$DIMAUNIT
 70
     0
  9
$DIMADEC
 70
     0
  9
$DIMALTRND
 40
0.0
  9
$DIMAZIN
 70
     0
  9
$DIMDSEP
 70
    46
  9
$DIMATFIT
 70
     3
  9
$DIMFRAC
 70
     0
  9
$DIMLDRBLK
  1

  9
$DIMLUNIT
 70
     2
  9
$DIMLWD
 70
    -2
  9
$DIMLWE
 70
    -2
  9
$DIMTMOVE
 70
     0
  9
$DIMFXL
 40
1.0
  9
$DIMFXLON
 70
     0
  9
$DIMJOGANG
 40
0.7853981633974483
  9
$DIMTFILL
 70
     0
  9
$DIMTFILLCLR
 70
     0
  9
$DIMARCSYM
 70
     0
  9
$DIMLTYPE
  6

  9
$DIMLTEX1
  6

  9
$DIMLTEX2
  6

  9
$LUNITS
 70
     2
  9
$LUPREC
 70
     4
  9
$SKETCHINC
 40
0.1
  9
$FILLETRAD
 40
0.5
  9
$AUNITS
 70
     0
  9
$AUPREC
 70
     0
  9
$MENU
  1
.
  9
$ELEVATION
 40
0.0
  9
$PELEVATION
 40
0.0
  9
$THICKNESS
 40
0.0
  9
$LIMCHECK
 70
     0
  9
$CHAMFERA
 40
0.5
  9
$CHAMFERB
 40
0.5
  9
$CHAMFERC
 40
1.0
  9
$CHAMFERD
 40
0.0
  9
$SKPOLY
 70
     0
  9
$TDCREATE
 40
2458492.962169954
  9
$TDUCREATE
 40
2458492.795503287
  9
$TDUPDATE
 40
2458492.962170278
  9
$TDUUPDATE
 40
2458492.795503611
  9
$TDINDWG
 40
0.0000000116
  9
$TDUSRTIMER
 40
0.0000000116
  9
$USRTIMER
 70
     1
  9
$ANGBASE
 50
0.0
  9
$ANGDIR
 70
     0
  9
$PDMODE
 70
     0
  9
$PDSIZE
 40
0.0
  9
$PLINEWID
 40
0.0
  9
$SPLFRAME
 70
     0
  9
$SPLINETYPE
 70
     6
  9
$SPLINESEGS
 70
     8
  9
$HANDSEED
  5
15A
  9
$SURFTAB1
 70
     6
  9
$SURFTAB2
 70
     6
  9
$SURFTYPE
 70
     6
  9
$SURFU
 70
     6
  9
$SURFV
 70
     6
  9
$UCSBASE
  2

  9
$UCSNAME
  2

  9
$UCSORG
 10
0.0
 20
0.0
 30
0.0
  9
$UCSXDIR
 10
1.0
 20
0.0
 30
0.0
  9
$UCSYDIR
 10
0.0
 20
1.0
 30
0.0
  9
$UCSORTHOREF
  2

  9
$UCSORTHOVIEW
 70
     0
  9
$UCSORGTOP
 10
0.0
 20
0.0
 30
0.0
  9
$UCSORGBOTTOM
 10
0.0
 20
0.0
 30
0.0
  9
$UCSORGLEFT
 10
0.0
 20
0.0
 30
0.0
  9
$UCSORGRIGHT
 10
0.0
 20
0.0
 30
0.0
  9
$UCSORGFRONT
 10
0.0
 20
0.0
 30
0.0
  9
$UCSORGBACK
 10
0.0
 20
0.0
 30
0.0
  9
$PUCSBASE
  2

  9
$PUCSNAME
  2

  9
$PUCSORG
 10
0.0
 20
0.0
 30
0.0
  9
$PUCSXDIR
 10
1.0
 20
0.0
 30
0.0
  9
$PUCSYDIR
 10
0.0
 20
1.0
 30
0.0
  9
$PUCSORTHOREF
  2

  9
$PUCSORTHOVIEW
 70
     0
  9
$PUCSORGTOP
 10
0.0
 20
0.0
 30
0.0
  9
$PUCSORGBOTTOM
 10
0.0
 20
0.0
 30
0.0
  9
$PUCSORGLEFT
 10
0.0
 20
0.0
 30
0.0
  9
$PUCSORGRIGHT
 10
0.0
 20
0.0
 30
0.0
  9
$PUCSORGFRONT
 10
0.0
 20
0.0
 30
0.0
  9
$PUCSORGBACK
 10
0.0
 20
0.0
 30
0.0
  9
$USERI1
 70
     0
  9
$USERI2
 70
     0
  9
$USERI3
 70
     0
  9
$USERI4
 70
     0
  9
$USERI5
 70
     0
  9
$USERR1
 40
0.0
  9
$USERR2
 40
0.0
  9
$USERR3
 40
0.0
  9
$USERR4
 40
0.0
  9
$USERR5
 40
0.0
  9
$WORLDVIEW
 70
     1
  9
$SHADEDGE
 70
     3
  9
$SHADEDIF
 70
    70
  9
$TILEMODE
 70
     1
  9
$MAXACTVP
 70
    64
  9
$PINSBASE
 10
0.0
 20
0.0
 30
0.0
  9
$PLIMCHECK
 70
     0
  9
$PEXTMIN
 10
1.000000000000000E+20
 20
1.000000000000000E+20
 30
1.000000000000000E+20
  9
$PEXTMAX
 10
-1.000000000000000E+20
 20
-1.000000000000000E+20
 30
-1.000000000000000E+20
  9
$PLIMMIN
 10
0.0
 20
0.0
  9
$PLIMMAX
 10
12.0
 20
9.0
  9
$UNITMODE
 70
     0
  9
$VISRETAIN
 70
     1
  9
$PLINEGEN
 70
     0
  9
$PSLTSCALE
 70
     1
  9
$TREEDEPTH
 70
  3020
  9
$CMLSTYLE
  2
Standard
  9
$CMLJUST
 70
     0
  9
$CMLSCALE
 40
1.0
  9
$PROXYGRAPHICS
 70
     1
  9
$MEASUREMENT
 70
     0
  9
$CELWEIGHT
370
    -1
  9
$ENDCAPS
280
     0
  9
$JOINSTYLE
280
     0
  9
$LWDISPLAY
290
     0
  9
$INSUNITS
 70
     4
  9
$HYPERLINKBASE
  1

  9
$STYLESHEET
  1

  9
$XEDIT
290
     1
  9
$CEPSNTYPE
380
     0
  9
$PSTYLEMODE
290
     1
  9
$FINGERPRINTGUID
  2
{EB3F3D08-3A44-4812-B0E0-1BA589854204}
  9
$VERSIONGUID
  2
{FAEB1C32-E019-11D5-929B-00C0DF256EC4}
  9
$EXTNAMES
290
     1
  9
$PSVPSCALE
 40
0.0
  9
$OLESTARTUP
290
     0
  9
$SORTENTS
280
   127
  9
$INDEXCTL
280
     0
  9
$HIDETEXT
280
     1
  9
$XCLIPFRAME
290
     0
  9
$HALOGAP
280
     0
  9
$OBSCOLOR
 70
   257
  9
$OBSLTYPE
280
     0
  9
$INTERSECTIONDISPLAY
280
     0
  9
$INTERSECTIONCOLOR
 70
   257
  9
$DIMASSOC
280
     2
  9
$PROJECTNAME
  1

  9
$CAMERADISPLAY
290
     0
  9
$LENSLENGTH
 40
50.0
  9
$CAMERAHEIGHT
 40
0.0
  9
$STEPSPERSEC
 40
2.0
  9
$STEPSIZE
 40
6.0
  9
$3DDWFPREC
 40
2.0
  9
$PSOLWIDTH
 40
0.25
  9
$PSOLHEIGHT
 40
4.0
  9
$LOFTANG1
 40
1.570796326794897
  9
$LOFTANG2
 40
1.570796326794897
  9
$LOFTMAG1
 40
0.0
  9
$LOFTMAG2
 40
0.0
  9
$LOFTPARAM
 70
     7
  9
$LOFTNORMALS
280
     1
  9
$LATITUDE
 40
37.795
  9
$LONGITUDE
 40
-122.394
  9
$NORTHDIRECTION
 40
0.0
  9
$TIMEZONE
 70
 -8000
  9
$LIGHTGLYPHDISPLAY
280
     1
  9
$TILEMODELIGHTSYNCH
280
     1
  9
$SOLIDHIST
280
     1
  9
$SHOWHIST
280
     1
  9
$DWFFRAME
280
     2
  9
$DGNFRAME
280
     2
  9
$REALWORLDSCALE
290
     1
  9
$INTERFERECOLOR
 62
   256
  9
$CSHADOW
280
     0
  9
$SHADOWPLANELOCATION
 40
0.0
  0
ENDSEC
  0
SECTION
  2
CLASSES
  0
CLASS
  1
ACDBDICTIONARYWDFLT
  2
AcDbDictionaryWithDefault
  3
ObjectDBX Classes
 90
        0
 91
        4
280
     0
281
     0
  0
CLASS
  1
VISUALSTYLE
  2
AcDbVisualStyle
  3
ObjectDBX Classes
 90
     4095
 91
        4
280
     0
281
     0
  0
CLASS
  1
MATERIAL
  2
AcDbMaterial
  3
ObjectDBX Classes
 90
     1153
 91
        4
280
     0
281
     0
  0
ENDSEC
  0
SECTION
  2
TABLES
  0
TABLE
  2
VPORT
  5
8
330
0
100
AcDbSymbolTable
 70
     1
  0
VPORT
  5
29
330
8
100
AcDbSymbolTableRecord
100
AcDbViewportTableRecord
  2
*Active
 70
     0
 10
0.0
 20
0.0
 11
1.0
 21
1.0
 12
10.42990654205607
 22
4.5
 13
0.0
 23
0.0
 14
0.5
 24
0.5
 15
0.5
 25
0.5
 16
0.0
 26
0.0
 36
1.0
 17
0.0
 27
0.0
 37
0.0
 40
9.0
 41
1.972972972850329
 42
50.0
 43
0.0
 44
0.0
 50
0.0
 51
0.0
 71
     0
 72
   100
 73
     1
 74
     3
 75
     0
 76
     0
 77
     0
 78
     0
281
     0
 65
     1
110
0.0
120
0.0
130
0.0
111
1.0
121
0.0
131
0.0
112
0.0
122
1.0
132
0.0
 79
     0
146
0.0
 60
     3
 61
     5
292
     1
282
     1
141
0.0
142
0.0
 63
   250
  0
ENDTAB
  0
TABLE
  2
LTYPE
  5
5
330
0
100
AcDbSymbolTable
 70
     1
  0
LTYPE
  5
14
330
5
100
AcDbSymbolTableRecord
100
AcDbLinetypeTableRecord
  2
ByBlock
 70
     0
  3

 72
    65
 73
     0
 40
0.0
  0
LTYPE
  5
15
330
5
100
AcDbSymbolTableRecord
100
AcDbLinetypeTableRecord
  2
ByLayer
 70
     0
  3

 72
    65
 73
     0
 40
0.0
  0
LTYPE
  5
16
330
5
100
AcDbSymbolTableRecord
100
AcDbLinetypeTableRecord
  2
Continuous
 70
     0
  3
Solid line
 72
    65
 73
     0
 40
0.0
  0
ENDTAB
  0
TABLE
  2
LAYER
  5
2
330
0
100
AcDbSymbolTable
 70
     3
  0
LAYER
  5
10
330
2
100
AcDbSymbolTableRecord
100
AcDbLayerTableRecord
  2
0
 70
     0
 62
     7
  6
Continuous
370
    -3
390
F
347
3E
  0
LAYER
  5
40
330
2
100
AcDbSymbolTableRecord
100
AcDbLayerTableRecord
  2
layer 1
 70
     0
 62
     7
  6
Continuous
370
    -3
390
F
347
3E
  0
LAYER
  5
137
330
2
100
AcDbSymbolTableRecord
100
AcDbLayerTableRecord
  2
Master Guides
 70
     0
 62
     7
  6
Continuous
370
    -3
390
F
347
3E
  0
ENDTAB
  0
TABLE
  2
STYLE
  5
3
330
0
100
AcDbSymbolTable
 70
     1
  0
STYLE
  5
11
330
3
100
AcDbSymbolTableRecord
100
AcDbTextStyleTableRecord
  2
Standard
 70
     0
 40
0.0
 41
1.0
 50
0.0
 71
     0
 42
0.2
  3
txt
  4

  0
ENDTAB
  0
TABLE
  2
VIEW
  5
6
330
0
100
AcDbSymbolTable
 70
     0
  0
ENDTAB
  0
TABLE
  2
UCS
  5
7
330
0
100
AcDbSymbolTable
 70
     0
  0
ENDTAB
  0
TABLE
  2
APPID
  5
9
330
0
100
AcDbSymbolTable
 70
     2
  0
APPID
  5
12
330
9
100
AcDbSymbolTableRecord
100
AcDbRegAppTableRecord
  2
ACAD
 70
     0
  0
APPID
  5
3F
330
9
100
AcDbSymbolTableRecord
100
AcDbRegAppTableRecord
  2
ODA
 70
     0
  0
ENDTAB
  0
TABLE
  2
DIMSTYLE
  5
A
330
0
100
AcDbSymbolTable
 70
     1
100
AcDbDimStyleTable
  0
DIMSTYLE
105
27
330
A
100
AcDbSymbolTableRecord
100
AcDbDimStyleTableRecord
  2
Standard
 70
     0
178
     0
340
11
  0
ENDTAB
  0
TABLE
  2
BLOCK_RECORD
  5
1
330
0
100
AcDbSymbolTable
 70
     1
  0
BLOCK_RECORD
  5
1F
330
1
100
AcDbSymbolTableRecord
100
AcDbBlockTableRecord
  2
*Model_Space
340
22
 70
     0
280
     1
281
     0
  0
BLOCK_RECORD
  5
1B
330
1
100
AcDbSymbolTableRecord
100
AcDbBlockTableRecord
  2
*Paper_Space
340
1E
 70
     0
280
     1
281
     0
  0
BLOCK_RECORD
  5
23
330
1
100
AcDbSymbolTableRecord
100
AcDbBlockTableRecord
  2
*Paper_Space0
340
26
 70
     0
280
     1
281
     0
  0
ENDTAB
  0
ENDSEC
  0
SECTION
  2
BLOCKS
  0
BLOCK
  5
20
330
1F
100
AcDbEntity
  8
0
100
AcDbBlockBegin
  2
*Model_Space
 70
     0
 10
0.0
 20
0.0
 30
0.0
  3
*Model_Space
  1

  0
ENDBLK
  5
21
330
1F
100
AcDbEntity
  8
0
100
AcDbBlockEnd
  0
BLOCK
  5
1C
330
1B
100
AcDbEntity
 67
     1
  8
0
100
AcDbBlockBegin
  2
*Paper_Space
 70
     0
 10
0.0
 20
0.0
 30
0.0
  3
*Paper_Space
  1

  0
ENDBLK
  5
1D
330
1B
100
AcDbEntity
 67
     1
  8
0
100
AcDbBlockEnd
  0
BLOCK
  5
24
330
23
100
AcDbEntity
  8
0
100
AcDbBlockBegin
  2
*Paper_Space0
 70
     0
 10
0.0
 20
0.0
 30
0.0
  3
*Paper_Space0
  1

  0
ENDBLK
  5
25
330
23
100
AcDbEntity
  8
0
100
AcDbBlockEnd
  0
ENDSEC
  0
SECTION
  2
ENTITIES
  0
SPLINE
  5
41
330
1F
100
AcDbEntity
  8
layer 1
 62
   250
100
AcDbSpline
210
0.0
220
0.0
230
1.0
 70
    11
 71
     3
 72
    20
 73
    16
 74
     0
 42
0.0000000001
 43
0.0000000001
 12
1.0
 22
0.0
 32
0.0
 13
1.0
 23
0.0
 33
0.0
 40
0.0
 40
0.0
 40
0.0
 40
0.0
 40
0.2
 40
0.2
 40
0.2
 40
0.2
 40
0.4
 40
0.4
 40
0.4
 40
0.4
 40
0.6
 40
0.6
 40
0.6
 40
0.6
 40
1.0
 40
1.0
 40
1.0
 40
1.0
 10
5.8134
 20
131.8436
 30
0.0
 10
5.8134
 20
131.8436
 30
0.0
 10
67.2447
 20
131.8436
 30
0.0
 10
67.2447
 20
131.8436
 30
0.0
 10
67.2447
 20
131.8436
 30
0.0
 10
67.2447
 20
131.8436
 30
0.0
 10
67.2447
 20
70.4093
 30
0.0
 10
67.2447
 20
70.4093
 30
0.0
 10
67.2447
 20
70.4093
 30
0.0
 10
67.2447
 20
70.4093
 30
0.0
 10
5.8136
 20
70.4093
 30
0.0
 10
5.8136
 20
70.4093
 30
0.0
 10
5.8136
 20
70.4093
 30
0.0
 10
5.8136
 20
70.4093
 30
0.0
 10
5.8134
 20
131.8436
 30
0.0
 10
5.8134
 20
131.8436
 30
0.0
  0
SPLINE
  5
42
330
1F
100
AcDbEntity
  8
layer 1
 62
     7
100
AcDbSpline
210
0.0
220
0.0
230
1.0
 70
    11
 71
     3
 72
    20
 73
    16
 74
     0
 42
0.0000000001
 43
0.0000000001
 12
1.0
 22
0.0
 32
0.0
 13
1.0
 23
0.0
 33
0.0
 40
0.0
 40
0.0
 40
0.0
 40
0.0
 40
0.2
 40
0.2
 40
0.2
 40
0.2
 40
0.4
 40
0.4
 40
0.4
 40
0.4
 40
0.6
 40
0.6
 40
0.6
 40
0.6
 40
1.0
 40
1.0
 40
1.0
 40
1.0
 10
26.2469
 20
115.0927
 30
0.0
 10
26.2469
 20
113.0419
 30
0.0
 10
24.586
 20
111.3811
 30
0.0
 10
22.5351
 20
111.3811
 30
0.0
 10
22.5351
 20
111.3811
 30
0.0
 10
20.4879
 20
111.3811
 30
0.0
 10
18.8267
 20
113.0419
 30
0.0
 10
18.8267
 20
115.0925
 30
0.0
 10
18.8267
 20
115.0925
 30
0.0
 10
18.8267
 20
117.1402
 30
0.0
 10
20.4877
 20
118.8009
 30
0.0
 10
22.5351
 20
118.8009
 30
0.0
 10
22.5351
 20
118.8009
 30
0.0
 10
24.586
 20
118.8009
 30
0.0
 10
26.2469
 20
117.1402
 30
0.0
 10
26.2469
 20
115.0927
 30
0.0
  0
SPLINE
  5
43
330
1F
100
AcDbEntity
  8
layer 1
 62
     7
100
AcDbSpline
210
0.0
220
0.0
230
1.0
 70
    11
 71
     3
 72
    24
 73
    20
 74
     0
 42
0.0000000001
 43
0.0000000001
 12
1.0
 22
0.0
 32
0.0
 13
1.0
 23
0.0
 33
0.0
 40
0.0
 40
0.0
 40
0.0
 40
0.0
 40
0.1666666666666667
 40
0.1666666666666667
 40
0.1666666666666667
 40
0.1666666666666667
 40
0.3333333333333333
 40
0.3333333333333333
 40
0.3333333333333333
 40
0.3333333333333333
 40
0.5
 40
0.5
 40
0.5
 40
0.5
 40
0.6666666666666666
 40
0.6666666666666666
 40
0.6666666666666666
 40
0.6666666666666666
 40
1.0
 40
1.0
 40
1.0
 40
1.0
 10
9.4625
 20
128.052
 30
0.0
 10
9.4625
 20
128.052
 30
0.0
 10
9.4625
 20
115.9721
 30
0.0
 10
9.4625
 20
115.9721
 30
0.0
 10
9.4625
 20
115.9721
 30
0.0
 10
9.4625
 20
115.9721
 30
0.0
 10
17.1154
 20
115.9721
 30
0.0
 10
17.1154
 20
115.9721
 30
0.0
 10
17.1154
 20
115.9721
 30
0.0
 10
17.457
 20
118.3331
 30
0.0
 10
19.1596
 20
119.9594
 30
0.0
 10
21.6115
 20
120.5911
 30
0.0
 10
21.6115
 20
120.5911
 30
0.0
 10
21.6115
 20
120.5911
 30
0.0
 10
21.6405
 20
128.0705
 30
0.0
 10
21.6405
 20
128.0705
 30
0.0
 10
21.6405
 20
128.0705
 30
0.0
 10
19.9355
 20
128.0737
 30
0.0
 10
9.4625
 20
128.052
 30
0.0
 10
9.4625
 20
128.052
 30
0.0
  0
SPLINE
  5
44
330
1F
100
AcDbEntity
  8
layer 1
 62
     7
100
AcDbSpline
210
0.0
220
0.0
230
1.0
 70
    11
 71
     3
 72
    24
 73
    20
 74
     0
 42
0.0000000001
 43
0.0000000001
 12
1.0
 22
0.0
 32
0.0
 13
1.0
 23
0.0
 33
0.0
 40
0.0
 40
0.0
 40
0.0
 40
0.0
 40
0.1666666666666667
 40
0.1666666666666667
 40
0.1666666666666667
 40
0.1666666666666667
 40
0.3333333333333333
 40
0.3333333333333333
 40
0.3333333333333333
 40
0.3333333333333333
 40
0.5
 40
0.5
 40
0.5
 40
0.5
 40
0.6666666666666666
 40
0.6666666666666666
 40
0.6666666666666666
 40
0.6666666666666666
 40
1.0
 40
1.0
 40
1.0
 40
1.0
 10
9.4625
 20
102.1646
 30
0.0
 10
9.4625
 20
102.1646
 30
0.0
 10
9.4625
 20
114.2444
 30
0.0
 10
9.4625
 20
114.2444
 30
0.0
 10
9.4625
 20
114.2444
 30
0.0
 10
9.4625
 20
114.2444
 30
0.0
 10
17.1154
 20
114.2444
 30
0.0
 10
17.1154
 20
114.2444
 30
0.0
 10
17.1154
 20
114.2444
 30
0.0
 10
17.457
 20
111.8836
 30
0.0
 10
19.1596
 20
110.2564
 30
0.0
 10
21.6115
 20
109.6254
 30
0.0
 10
21.6115
 20
109.6254
 30
0.0
 10
21.6115
 20
109.6254
 30
0.0
 10
21.6405
 20
102.1453
 30
0.0
 10
21.6405
 20
102.1453
 30
0.0
 10
21.6405
 20
102.1453
 30
0.0
 10
19.9355
 20
102.1421
 30
0.0
 10
9.4625
 20
102.1646
 30
0.0
 10
9.4625
 20
102.1646
 30
0.0
  0
SPLINE
  5
45
330
1F
100
AcDbEntity
  8
layer 1
 62
     7
100
AcDbSpline
210
0.0
220
0.0
230
1.0
 70
    11
 71
     3
 72
    24
 73
    20
 74
     0
 42
0.0000000001
 43
0.0000000001
 12
1.0
 22
0.0
 32
0.0
 13
1.0
 23
0.0
 33
0.0
 40
0.0
 40
0.0
 40
0.0
 40
0.0
 40
0.1666666666666667
 40
0.1666666666666667
 40
0.1666666666666667
 40
0.1666666666666667
 40
0.3333333333333333
 40
0.3333333333333333
 40
0.3333333333333333
 40
0.3333333333333333
 40
0.5
 40
0.5
 40
0.5
 40
0.5
 40
0.6666666666666666
 40
0.6666666666666666
 40
0.6666666666666666
 40
0.6666666666666666
 40
1.0
 40
1.0
 40
1.0
 40
1.0
 10
35.5106
 20
128.052
 30
0.0
 10
35.5106
 20
128.052
 30
0.0
 10
35.5106
 20
115.9721
 30
0.0
 10
35.5106
 20
115.9721
 30
0.0
 10
35.5106
 20
115.9721
 30
0.0
 10
35.5106
 20
115.9721
 30
0.0
 10
27.8577
 20
115.9721
 30
0.0
 10
27.8577
 20
115.9721
 30
0.0
 10
27.8577
 20
115.9721
 30
0.0
 10
27.5187
 20
118.3331
 30
0.0
 10
25.8133
 20
119.9594
 30
0.0
 10
23.3607
 20
120.5911
 30
0.0
 10
23.3607
 20
120.5911
 30
0.0
 10
23.3607
 20
120.5911
 30
0.0
 10
23.3327
 20
128.0705
 30
0.0
 10
23.3327
 20
128.0705
 30
0.0
 10
23.3327
 20
128.0705
 30
0.0
 10
25.0376
 20
128.0737
 30
0.0
 10
35.5106
 20
128.052
 30
0.0
 10
35.5106
 20
128.052
 30
0.0
  0
SPLINE
  5
46
330
1F
100
AcDbEntity
  8
layer 1
 62
     7
100
AcDbSpline
210
0.0
220
0.0
230
1.0
 70
    11
 71
     3
 72
    24
 73
    20
 74
     0
 42
0.0000000001
 43
0.0000000001
 12
1.0
 22
0.0
 32
0.0
 13
1.0
 23
0.0
 33
0.0
 40
0.0
 40
0.0
 40
0.0
 40
0.0
 40
0.1666666666666667
 40
0.1666666666666667
 40
0.1666666666666667
 40
0.1666666666666667
 40
0.3333333333333333
 40
0.3333333333333333
 40
0.3333333333333333
 40
0.3333333333333333
 40
0.5
 40
0.5
 40
0.5
 40
0.5
 40
0.6666666666666666
 40
0.6666666666666666
 40
0.6666666666666666
 40
0.6666666666666666
 40
1.0
 40
1.0
 40
1.0
 40
1.0
 10
35.5106
 20
102.1646
 30
0.0
 10
35.5106
 20
102.1646
 30
0.0
 10
35.5106
 20
114.2444
 30
0.0
 10
35.5106
 20
114.2444
 30
0.0
 10
35.5106
 20
114.2444
 30
0.0
 10
35.5106
 20
114.2444
 30
0.0
 10
27.8577
 20
114.2444
 30
0.0
 10
27.8577
 20
114.2444
 30
0.0
 10
27.8577
 20
114.2444
 30
0.0
 10
27.5187
 20
111.8836
 30
0.0
 10
25.8133
 20
110.2564
 30
0.0
 10
23.3607
 20
109.6254
 30
0.0
 10
23.3607
 20
109.6254
 30
0.0
 10
23.3607
 20
109.6254
 30
0.0
 10
23.3327
 20
102.1453
 30
0.0
 10
23.3327
 20
102.1453
 30
0.0
 10
23.3327
 20
102.1453
 30
0.0
 10
25.0376
 20
102.1421
 30
0.0
 10
35.5106
 20
102.1646
 30
0.0
 10
35.5106
 20
102.1646
 30
0.0
  0
SPLINE
  5
47
330
1F
100
AcDbEntity
  8
layer 1
 62
     7
100
AcDbSpline
210
0.0
220
0.0
230
1.0
 70
    11
 71
     3
 72
    20
 73
    16
 74
     0
 42
0.0000000001
 43
0.0000000001
 12
1.0
 22
0.0
 32
0.0
 13
1.0
 23
0.0
 33
0.0
 40
0.0
 40
0.0
 40
0.0
 40
0.0
 40
0.2
 40
0.2
 40
0.2
 40
0.2
 40
0.4
 40
0.4
 40
0.4
 40
0.4
 40
0.6
 40
0.6
 40
0.6
 40
0.6
 40
1.0
 40
1.0
 40
1.0
 40
1.0
 10
54.3328
 20
115.0927
 30
0.0
 10
54.3328
 20
113.0419
 30
0.0
 10
52.671
 20
111.3811
 30
0.0
 10
50.6203
 20
111.3811
 30
0.0
 10
50.6203
 20
111.3811
 30
0.0
 10
48.5738
 20
111.3811
 30
0.0
 10
46.9119
 20
113.0419
 30
0.0
 10
46.9119
 20
115.0925
 30
0.0
 10
46.9119
 20
115.0925
 30
0.0
 10
46.9119
 20
117.1402
 30
0.0
 10
48.5736
 20
118.8009
 30
0.0
 10
50.6203
 20
118.8009
 30
0.0
 10
50.6203
 20
118.8009
 30
0.0
 10
52.671
 20
118.8009
 30
0.0
 10
54.3328
 20
117.1402
 30
0.0
 10
54.3328
 20
115.0927
 30
0.0
  0
SPLINE
  5
48
330
1F
100
AcDbEntity
  8
layer 1
 62
     7
100
AcDbSpline
210
0.0
220
0.0
230
1.0
 70
    11
 71
     3
 72
    24
 73
    20
 74
     0
 42
0.0000000001
 43
0.0000000001
 12
1.0
 22
0.0
 32
0.0
 13
1.0
 23
0.0
 33
0.0
 40
0.0
 40
0.0
 40
0.0
 40
0.0
 40
0.1666666666666667
 40
0.1666666666666667
 40
0.1666666666666667
 40
0.1666666666666667
 40
0.3333333333333333
 40
0.3333333333333333
 40
0.3333333333333333
 40
0.3333333333333333
 40
0.5
 40
0.5
 40
0.5
 40
0.5
 40
0.6666666666666666
 40
0.6666666666666666
 40
0.6666666666666666
 40
0.6666666666666666
 40
1.0
 40
1.0
 40
1.0
 40
1.0
 10
37.5485
 20
128.052
 30
0.0
 10
37.5485
 20
128.052
 30
0.0
 10
37.5485
 20
115.9721
 30
0.0
 10
37.5485
 20
115.9721
 30
0.0
 10
37.5485
 20
115.9721
 30
0.0
 10
37.5485
 20
115.9721
 30
0.0
 10
45.2009
 20
115.9721
 30
0.0
 10
45.2009
 20
115.9721
 30
0.0
 10
45.2009
 20
115.9721
 30
0.0
 10
45.5399
 20
118.3331
 30
0.0
 10
47.2449
 20
119.9594
 30
0.0
 10
49.6975
 20
120.5911
 30
0.0
 10
49.6975
 20
120.5911
 30
0.0
 10
49.6975
 20
120.5911
 30
0.0
 10
49.7257
 20
128.0705
 30
0.0
 10
49.7257
 20
128.0705
 30
0.0
 10
49.7257
 20
128.0705
 30
0.0
 10
48.0208
 20
128.0737
 30
0.0
 10
37.5485
 20
128.052
 30
0.0
 10
37.5485
 20
128.052
 30
0.0
  0
SPLINE
  5
49
330
1F
100
AcDbEntity
  8
layer 1
 62
     7
100
AcDbSpline
210
0.0
220
0.0
230
1.0
 70
    11
 71
     3
 72
    24
 73
    20
 74
     0
 42
0.0000000001
 43
0.0000000001
 12
1.0
 22
0.0
 32
0.0
 13
1.0
 23
0.0
 33
0.0
 40
0.0
 40
0.0
 40
0.0
 40
0.0
 40
0.1666666666666667
 40
0.1666666666666667
 40
0.1666666666666667
 40
0.1666666666666667
 40
0.3333333333333333
 40
0.3333333333333333
 40
0.3333333333333333
 40
0.3333333333333333
 40
0.5
 40
0.5
 40
0.5
 40
0.5
 40
0.6666666666666666
 40
0.6666666666666666
 40
0.6666666666666666
 40
0.6666666666666666
 40
1.0
 40
1.0
 40
1.0
 40
1.0
 10
37.5485
 20
102.1646
 30
0.0
 10
37.5485
 20
102.1646
 30
0.0
 10
37.5485
 20
114.2444
 30
0.0
 10
37.5485
 20
114.2444
 30
0.0
 10
37.5485
 20
114.2444
 30
0.0
 10
37.5485
 20
114.2444
 30
0.0
 10
45.2009
 20
114.2444
 30
0.0
 10
45.2009
 20
114.2444
 30
0.0
 10
45.2009
 20
114.2444
 30
0.0
 10
45.5399
 20
111.8836
 30
0.0
 10
47.2449
 20
110.2564
 30
0.0
 10
49.6975
 20
109.6254
 30
0.0
 10
49.6975
 20
109.6254
 30
0.0
 10
49.6975
 20
109.6254
 30
0.0
 10
49.7257
 20
102.1453
 30
0.0
 10
49.7257
 20
102.1453
 30
0.0
 10
49.7257
 20
102.1453
 30
0.0
 10
48.0208
 20
102.1421
 30
0.0
 10
37.5485
 20
102.1646
 30
0.0
 10
37.5485
 20
102.1646
 30
0.0
  0
SPLINE
  5
4A
330
1F
100
AcDbEntity
  8
layer 1
 62
     7
100
AcDbSpline
210
0.0
220
0.0
230
1.0
 70
    11
 71
     3
 72
    24
 73
    20
 74
     0
 42
0.0000000001
 43
0.0000000001
 12
1.0
 22
0.0
 32
0.0
 13
1.0
 23
0.0
 33
0.0
 40
0.0
 40
0.0
 40
0.0
 40
0.0
 40
0.1666666666666667
 40
0.1666666666666667
 40
0.1666666666666667
 40
0.1666666666666667
 40
0.3333333333333333
 40
0.3333333333333333
 40
0.3333333333333333
 40
0.3333333333333333
 40
0.5
 40
0.5
 40
0.5
 40
0.5
 40
0.6666666666666666
 40
0.6666666666666666
 40
0.6666666666666666
 40
0.6666666666666666
 40
1.0
 40
1.0
 40
1.0
 40
1.0
 10
63.5958
 20
128.052
 30
0.0
 10
63.5958
 20
128.052
 30
0.0
 10
63.5958
 20
115.9721
 30
0.0
 10
63.5958
 20
115.9721
 30
0.0
 10
63.5958
 20
115.9721
 30
0.0
 10
63.5958
 20
115.9721
 30
0.0
 10
55.943
 20
115.9721
 30
0.0
 10
55.943
 20
115.9721
 30
0.0
 10
55.943
 20
115.9721
 30
0.0
 10
55.6012
 20
118.3331
 30
0.0
 10
53.8962
 20
119.9594
 30
0.0
 10
51.4436
 20
120.5911
 30
0.0
 10
51.4436
 20
120.5911
 30
0.0
 10
51.4436
 20
120.5911
 30
0.0
 10
51.4188
 20
128.0705
 30
0.0
 10
51.4188
 20
128.0705
 30
0.0
 10
51.4188
 20
128.0705
 30
0.0
 10
53.1237
 20
128.0737
 30
0.0
 10
63.5958
 20
128.052
 30
0.0
 10
63.5958
 20
128.052
 30
0.0
  0
SPLINE
  5
4B
330
1F
100
AcDbEntity
  8
layer 1
 62
     7
100
AcDbSpline
210
0.0
220
0.0
230
1.0
 70
    11
 71
     3
 72
    24
 73
    20
 74
     0
 42
0.0000000001
 43
0.0000000001
 12
1.0
 22
0.0
 32
0.0
 13
1.0
 23
0.0
 33
0.0
 40
0.0
 40
0.0
 40
0.0
 40
0.0
 40
0.1666666666666667
 40
0.1666666666666667
 40
0.1666666666666667
 40
0.1666666666666667
 40
0.3333333333333333
 40
0.3333333333333333
 40
0.3333333333333333
 40
0.3333333333333333
 40
0.5
 40
0.5
 40
0.5
 40
0.5
 40
0.6666666666666666
 40
0.6666666666666666
 40
0.6666666666666666
 40
0.6666666666666666
 40
1.0
 40
1.0
 40
1.0
 40
1.0
 10
63.5958
 20
102.1646
 30
0.0
 10
63.5958
 20
102.1646
 30
0.0
 10
63.5958
 20
114.2444
 30
0.0
 10
63.5958
 20
114.2444
 30
0.0
 10
63.5958
 20
114.2444
 30
0.0
 10
63.5958
 20
114.2444
 30
0.0
 10
55.943
 20
114.2444
 30
0.0
 10
55.943
 20
114.2444
 30
0.0
 10
55.943
 20
114.2444
 30
0.0
 10
55.6012
 20
111.8836
 30
0.0
 10
53.8962
 20
110.2564
 30
0.0
 10
51.4436
 20
109.6254
 30
0.0
 10
51.4436
 20
109.6254
 30
0.0
 10
51.4436
 20
109.6254
 30
0.0
 10
51.4188
 20
102.1453
 30
0.0
 10
51.4188
 20
102.1453
 30
0.0
 10
51.4188
 20
102.1453
 30
0.0
 10
53.1237
 20
102.1421
 30
0.0
 10
63.5958
 20
102.1646
 30
0.0
 10
63.5958
 20
102.1646
 30
0.0
  0
SPLINE
  5
4C
330
1F
100
AcDbEntity
  8
layer 1
 62
     7
100
AcDbSpline
210
0.0
220
0.0
230
1.0
 70
    11
 71
     3
 72
    20
 73
    16
 74
     0
 42
0.0000000001
 43
0.0000000001
 12
1.0
 22
0.0
 32
0.0
 13
1.0
 23
0.0
 33
0.0
 40
0.0
 40
0.0
 40
0.0
 40
0.0
 40
0.2
 40
0.2
 40
0.2
 40
0.2
 40
0.4
 40
0.4
 40
0.4
 40
0.4
 40
0.6
 40
0.6
 40
0.6
 40
0.6
 40
1.0
 40
1.0
 40
1.0
 40
1.0
 10
26.2469
 20
87.1296
 30
0.0
 10
26.2469
 20
85.0822
 30
0.0
 10
24.586
 20
83.4203
 30
0.0
 10
22.5351
 20
83.4203
 30
0.0
 10
22.5351
 20
83.4203
 30
0.0
 10
20.4879
 20
83.4206
 30
0.0
 10
18.8267
 20
85.082
 30
0.0
 10
18.8267
 20
87.1296
 30
0.0
 10
18.8267
 20
87.1296
 30
0.0
 10
18.8267
 20
89.1796
 30
0.0
 10
20.4877
 20
90.841
 30
0.0
 10
22.5351
 20
90.841
 30
0.0
 10
22.5351
 20
90.841
 30
0.0
 10
24.586
 20
90.8412
 30
0.0
 10
26.2469
 20
89.1793
 30
0.0
 10
26.2469
 20
87.1296
 30
0.0
  0
SPLINE
  5
4D
330
1F
100
AcDbEntity
  8
layer 1
 62
     7
100
AcDbSpline
210
0.0
220
0.0
230
1.0
 70
    11
 71
     3
 72
    24
 73
    20
 74
     0
 42
0.0000000001
 43
0.0000000001
 12
1.0
 22
0.0
 32
0.0
 13
1.0
 23
0.0
 33
0.0
 40
0.0
 40
0.0
 40
0.0
 40
0.0
 40
0.1666666666666667
 40
0.1666666666666667
 40
0.1666666666666667
 40
0.1666666666666667
 40
0.3333333333333333
 40
0.3333333333333333
 40
0.3333333333333333
 40
0.3333333333333333
 40
0.5
 40
0.5
 40
0.5
 40
0.5
 40
0.6666666666666666
 40
0.6666666666666666
 40
0.6666666666666666
 40
0.6666666666666666
 40
1.0
 40
1.0
 40
1.0
 40
1.0
 10
9.4625
 20
100.0921
 30
0.0
 10
9.4625
 20
100.0921
 30
0.0
 10
9.4625
 20
88.0115
 30
0.0
 10
9.4625
 20
88.0115
 30
0.0
 10
9.4625
 20
88.0115
 30
0.0
 10
9.4625
 20
88.0115
 30
0.0
 10
17.1154
 20
88.0115
 30
0.0
 10
17.1154
 20
88.0115
 30
0.0
 10
17.1154
 20
88.0115
 30
0.0
 10
17.457
 20
90.37
 30
0.0
 10
19.1596
 20
91.9963
 30
0.0
 10
21.6115
 20
92.6273
 30
0.0
 10
21.6115
 20
92.6273
 30
0.0
 10
21.6115
 20
92.6273
 30
0.0
 10
21.6405
 20
100.1106
 30
0.0
 10
21.6405
 20
100.1106
 30
0.0
 10
21.6405
 20
100.1106
 30
0.0
 10
19.9355
 20
100.1138
 30
0.0
 10
9.4625
 20
100.0921
 30
0.0
 10
9.4625
 20
100.0921
 30
0.0
  0
SPLINE
  5
4E
330
1F
100
AcDbEntity
  8
layer 1
 62
     7
100
AcDbSpline
210
0.0
220
0.0
230
1.0
 70
    11
 71
     3
 72
    24
 73
    20
 74
     0
 42
0.0000000001
 43
0.0000000001
 12
1.0
 22
0.0
 32
0.0
 13
1.0
 23
0.0
 33
0.0
 40
0.0
 40
0.0
 40
0.0
 40
0.0
 40
0.1666666666666667
 40
0.1666666666666667
 40
0.1666666666666667
 40
0.1666666666666667
 40
0.3333333333333333
 40
0.3333333333333333
 40
0.3333333333333333
 40
0.3333333333333333
 40
0.5
 40
0.5
 40
0.5
 40
0.5
 40
0.6666666666666666
 40
0.6666666666666666
 40
0.6666666666666666
 40
0.6666666666666666
 40
1.0
 40
1.0
 40
1.0
 40
1.0
 10
9.4625
 20
74.2041
 30
0.0
 10
9.4625
 20
74.2041
 30
0.0
 10
9.4625
 20
86.2815
 30
0.0
 10
9.4625
 20
86.2815
 30
0.0
 10
9.4625
 20
86.2815
 30
0.0
 10
9.4625
 20
86.2815
 30
0.0
 10
17.1154
 20
86.2815
 30
0.0
 10
17.1154
 20
86.2815
 30
0.0
 10
17.1154
 20
86.2815
 30
0.0
 10
17.457
 20
83.9228
 30
0.0
 10
19.1596
 20
82.2967
 30
0.0
 10
21.6115
 20
81.6655
 30
0.0
 10
21.6115
 20
81.6655
 30
0.0
 10
21.6115
 20
81.6655
 30
0.0
 10
21.6405
 20
74.1822
 30
0.0
 10
21.6405
 20
74.1822
 30
0.0
 10
21.6405
 20
74.1822
 30
0.0
 10
19.9355
 20
74.1822
 30
0.0
 10
9.4625
 20
74.2041
 30
0.0
 10
9.4625
 20
74.2041
 30
0.0
  0
SPLINE
  5
4F
330
1F
100
AcDbEntity
  8
layer 1
 62
     7
100
AcDbSpline
210
0.0
220
0.0
230
1.0
 70
    11
 71
     3
 72
    24
 73
    20
 74
     0
 42
0.0000000001
 43
0.0000000001
 12
1.0
 22
0.0
 32
0.0
 13
1.0
 23
0.0
 33
0.0
 40
0.0
 40
0.0
 40
0.0
 40
0.0
 40
0.1666666666666667
 40
0.1666666666666667
 40
0.1666666666666667
 40
0.1666666666666667
 40
0.3333333333333333
 40
0.3333333333333333
 40
0.3333333333333333
 40
0.3333333333333333
 40
0.5
 40
0.5
 40
0.5
 40
0.5
 40
0.6666666666666666
 40
0.6666666666666666
 40
0.6666666666666666
 40
0.6666666666666666
 40
1.0
 40
1.0
 40
1.0
 40
1.0
 10
35.5106
 20
100.0921
 30
0.0
 10
35.5106
 20
100.0921
 30
0.0
 10
35.5106
 20
88.0115
 30
0.0
 10
35.5106
 20
88.0115
 30
0.0
 10
35.5106
 20
88.0115
 30
0.0
 10
35.5106
 20
88.0115
 30
0.0
 10
27.8577
 20
88.0115
 30
0.0
 10
27.8577
 20
88.0115
 30
0.0
 10
27.8577
 20
88.0115
 30
0.0
 10
27.5187
 20
90.37
 30
0.0
 10
25.8133
 20
91.9963
 30
0.0
 10
23.3607
 20
92.6273
 30
0.0
 10
23.3607
 20
92.6273
 30
0.0
 10
23.3607
 20
92.6273
 30
0.0
 10
23.3327
 20
100.1106
 30
0.0
 10
23.3327
 20
100.1106
 30
0.0
 10
23.3327
 20
100.1106
 30
0.0
 10
25.0376
 20
100.1138
 30
0.0
 10
35.5106
 20
100.0921
 30
0.0
 10
35.5106
 20
100.0921
 30
0.0
  0
SPLINE
  5
50
330
1F
100
AcDbEntity
  8
layer 1
 62
     7
100
AcDbSpline
210
0.0
220
0.0
230
1.0
 70
    11
 71
     3
 72
    24
 73
    20
 74
     0
 42
0.0000000001
 43
0.0000000001
 12
1.0
 22
0.0
 32
0.0
 13
1.0
 23
0.0
 33
0.0
 40
0.0
 40
0.0
 40
0.0
 40
0.0
 40
0.1666666666666667
 40
0.1666666666666667
 40
0.1666666666666667
 40
0.1666666666666667
 40
0.3333333333333333
 40
0.3333333333333333
 40
0.3333333333333333
 40
0.3333333333333333
 40
0.5
 40
0.5
 40
0.5
 40
0.5
 40
0.6666666666666666
 40
0.6666666666666666
 40
0.6666666666666666
 40
0.6666666666666666
 40
1.0
 40
1.0
 40
1.0
 40
1.0
 10
35.5106
 20
74.2041
 30
0.0
 10
35.5106
 20
74.2041
 30
0.0
 10
35.5106
 20
86.2815
 30
0.0
 10
35.5106
 20
86.2815
 30
0.0
 10
35.5106
 20
86.2815
 30
0.0
 10
35.5106
 20
86.2815
 30
0.0
 10
27.8577
 20
86.2815
 30
0.0
 10
27.8577
 20
86.2815
 30
0.0
 10
27.8577
 20
86.2815
 30
0.0
 10
27.5187
 20
83.9228
 30
0.0
 10
25.8133
 20
82.2967
 30
0.0
 10
23.3607
 20
81.6655
 30
0.0
 10
23.3607
 20
81.6655
 30
0.0
 10
23.3607
 20
81.6655
 30
0.0
 10
23.3327
 20
74.1822
 30
0.0
 10
23.3327
 20
74.1822
 30
0.0
 10
23.3327
 20
74.1822
 30
0.0
 10
25.0376
 20
74.1822
 30
0.0
 10
35.5106
 20
74.2041
 30
0.0
 10
35.5106
 20
74.2041
 30
0.0
  0
SPLINE
  5
51
330
1F
100
AcDbEntity
  8
layer 1
 62
     7
100
AcDbSpline
210
0.0
220
0.0
230
1.0
 70
    11
 71
     3
 72
    20
 73
    16
 74
     0
 42
0.0000000001
 43
0.0000000001
 12
1.0
 22
0.0
 32
0.0
 13
1.0
 23
0.0
 33
0.0
 40
0.0
 40
0.0
 40
0.0
 40
0.0
 40
0.2
 40
0.2
 40
0.2
 40
0.2
 40
0.4
 40
0.4
 40
0.4
 40
0.4
 40
0.6
 40
0.6
 40
0.6
 40
0.6
 40
1.0
 40
1.0
 40
1.0
 40
1.0
 10
54.3328
 20
87.1296
 30
0.0
 10
54.3328
 20
85.0822
 30
0.0
 10
52.671
 20
83.4203
 30
0.0
 10
50.6203
 20
83.4203
 30
0.0
 10
50.6203
 20
83.4203
 30
0.0
 10
48.5738
 20
83.4206
 30
0.0
 10
46.9119
 20
85.082
 30
0.0
 10
46.9119
 20
87.1296
 30
0.0
 10
46.9119
 20
87.1296
 30
0.0
 10
46.9119
 20
89.1796
 30
0.0
 10
48.5736
 20
90.841
 30
0.0
 10
50.6203
 20
90.841
 30
0.0
 10
50.6203
 20
90.841
 30
0.0
 10
52.671
 20
90.8412
 30
0.0
 10
54.3328
 20
89.1793
 30
0.0
 10
54.3328
 20
87.1296
 30
0.0
  0
SPLINE
  5
52
330
1F
100
AcDbEntity
  8
layer 1
 62
     7
100
AcDbSpline
210
0.0
220
0.0
230
1.0
 70
    11
 71
     3
 72
    24
 73
    20
 74
     0
 42
0.0000000001
 43
0.0000000001
 12
1.0
 22
0.0
 32
0.0
 13
1.0
 23
0.0
 33
0.0
 40
0.0
 40
0.0
 40
0.0
 40
0.0
 40
0.1666666666666667
 40
0.1666666666666667
 40
0.1666666666666667
 40
0.1666666666666667
 40
0.3333333333333333
 40
0.3333333333333333
 40
0.3333333333333333
 40
0.3333333333333333
 40
0.5
 40
0.5
 40
0.5
 40
0.5
 40
0.6666666666666666
 40
0.6666666666666666
 40
0.6666666666666666
 40
0.6666666666666666
 40
1.0
 40
1.0
 40
1.0
 40
1.0
 10
37.5485
 20
100.0921
 30
0.0
 10
37.5485
 20
100.0921
 30
0.0
 10
37.5485
 20
88.0115
 30
0.0
 10
37.5485
 20
88.0115
 30
0.0
 10
37.5485
 20
88.0115
 30
0.0
 10
37.5485
 20
88.0115
 30
0.0
 10
45.2009
 20
88.0115
 30
0.0
 10
45.2009
 20
88.0115
 30
0.0
 10
45.2009
 20
88.0115
 30
0.0
 10
45.5399
 20
90.37
 30
0.0
 10
47.2449
 20
91.9963
 30
0.0
 10
49.6975
 20
92.6273
 30
0.0
 10
49.6975
 20
92.6273
 30
0.0
 10
49.6975
 20
92.6273
 30
0.0
 10
49.7257
 20
100.1106
 30
0.0
 10
49.7257
 20
100.1106
 30
0.0
 10
49.7257
 20
100.1106
 30
0.0
 10
48.0208
 20
100.1138
 30
0.0
 10
37.5485
 20
100.0921
 30
0.0
 10
37.5485
 20
100.0921
 30
0.0
  0
SPLINE
  5
53
330
1F
100
AcDbEntity
  8
layer 1
 62
     7
100
AcDbSpline
210
0.0
220
0.0
230
1.0
 70
    11
 71
     3
 72
    24
 73
    20
 74
     0
 42
0.0000000001
 43
0.0000000001
 12
1.0
 22
0.0
 32
0.0
 13
1.0
 23
0.0
 33
0.0
 40
0.0
 40
0.0
 40
0.0
 40
0.0
 40
0.1666666666666667
 40
0.1666666666666667
 40
0.1666666666666667
 40
0.1666666666666667
 40
0.3333333333333333
 40
0.3333333333333333
 40
0.3333333333333333
 40
0.3333333333333333
 40
0.5
 40
0.5
 40
0.5
 40
0.5
 40
0.6666666666666666
 40
0.6666666666666666
 40
0.6666666666666666
 40
0.6666666666666666
 40
1.0
 40
1.0
 40
1.0
 40
1.0
 10
37.5485
 20
74.2041
 30
0.0
 10
37.5485
 20
74.2041
 30
0.0
 10
37.5485
 20
86.2815
 30
0.0
 10
37.5485
 20
86.2815
 30
0.0
 10
37.5485
 20
86.2815
 30
0.0
 10
37.5485
 20
86.2815
 30
0.0
 10
45.2009
 20
86.2815
 30
0.0
 10
45.2009
 20
86.2815
 30
0.0
 10
45.2009
 20
86.2815
 30
0.0
 10
45.5399
 20
83.9228
 30
0.0
 10
47.2449
 20
82.2967
 30
0.0
 10
49.6975
 20
81.6655
 30
0.0
 10
49.6975
 20
81.6655
 30
0.0
 10
49.6975
 20
81.6655
 30
0.0
 10
49.7257
 20
74.1822
 30
0.0
 10
49.7257
 20
74.1822
 30
0.0
 10
49.7257
 20
74.1822
 30
0.0
 10
48.0208
 20
74.1822
 30
0.0
 10
37.5485
 20
74.2041
 30
0.0
 10
37.5485
 20
74.2041
 30
0.0
  0
SPLINE
  5
54
330
1F
100
AcDbEntity
  8
layer 1
 62
     7
100
AcDbSpline
210
0.0
220
0.0
230
1.0
 70
    11
 71
     3
 72
    24
 73
    20
 74
     0
 42
0.0000000001
 43
0.0000000001
 12
1.0
 22
0.0
 32
0.0
 13
1.0
 23
0.0
 33
0.0
 40
0.0
 40
0.0
 40
0.0
 40
0.0
 40
0.1666666666666667
 40
0.1666666666666667
 40
0.1666666666666667
 40
0.1666666666666667
 40
0.3333333333333333
 40
0.3333333333333333
 40
0.3333333333333333
 40
0.3333333333333333
 40
0.5
 40
0.5
 40
0.5
 40
0.5
 40
0.6666666666666666
 40
0.6666666666666666
 40
0.6666666666666666
 40
0.6666666666666666
 40
1.0
 40
1.0
 40
1.0
 40
1.0
 10
63.5958
 20
100.0921
 30
0.0
 10
63.5958
 20
100.0921
 30
0.0
 10
63.5958
 20
88.0115
 30
0.0
 10
63.5958
 20
88.0115
 30
0.0
 10
63.5958
 20
88.0115
 30
0.0
 10
63.5958
 20
88.0115
 30
0.0
 10
55.943
 20
88.0115
 30
0.0
 10
55.943
 20
88.0115
 30
0.0
 10
55.943
 20
88.0115
 30
0.0
 10
55.6012
 20
90.37
 30
0.0
 10
53.8962
 20
91.9963
 30
0.0
 10
51.4436
 20
92.6273
 30
0.0
 10
51.4436
 20
92.6273
 30
0.0
 10
51.4436
 20
92.6273
 30
0.0
 10
51.4188
 20
100.1106
 30
0.0
 10
51.4188
 20
100.1106
 30
0.0
 10
51.4188
 20
100.1106
 30
0.0
 10
53.1237
 20
100.1138
 30
0.0
 10
63.5958
 20
100.0921
 30
0.0
 10
63.5958
 20
100.0921
 30
0.0
  0
SPLINE
  5
55
330
1F
100
AcDbEntity
  8
layer 1
 62
     7
100
AcDbSpline
210
0.0
220
0.0
230
1.0
 70
    11
 71
     3
 72
    24
 73
    20
 74
     0
 42
0.0000000001
 43
0.0000000001
 12
1.0
 22
0.0
 32
0.0
 13
1.0
 23
0.0
 33
0.0
 40
0.0
 40
0.0
 40
0.0
 40
0.0
 40
0.1666666666666667
 40
0.1666666666666667
 40
0.1666666666666667
 40
0.1666666666666667
 40
0.3333333333333333
 40
0.3333333333333333
 40
0.3333333333333333
 40
0.3333333333333333
 40
0.5
 40
0.5
 40
0.5
 40
0.5
 40
0.6666666666666666
 40
0.6666666666666666
 40
0.6666666666666666
 40
0.6666666666666666
 40
1.0
 40
1.0
 40
1.0
 40
1.0
 10
63.5958
 20
74.2041
 30
0.0
 10
63.5958
 20
74.2041
 30
0.0
 10
63.5958
 20
86.2815
 30
0.0
 10
63.5958
 20
86.2815
 30
0.0
 10
63.5958
 20
86.2815
 30
0.0
 10
63.5958
 20
86.2815
 30
0.0
 10
55.943
 20
86.2815
 30
0.0
 10
55.943
 20
86.2815
 30
0.0
 10
55.943
 20
86.2815
 30
0.0
 10
55.6012
 20
83.9228
 30
0.0
 10
53.8962
 20
82.2967
 30
0.0
 10
51.4436
 20
81.6655
 30
0.0
 10
51.4436
 20
81.6655
 30
0.0
 10
51.4436
 20
81.6655
 30
0.0
 10
51.4188
 20
74.1822
 30
0.0
 10
51.4188
 20
74.1822
 30
0.0
 10
51.4188
 20
74.1822
 30
0.0
 10
53.1237
 20
74.1822
 30
0.0
 10
63.5958
 20
74.2041
 30
0.0
 10
63.5958
 20
74.2041
 30
0.0
  0
SPLINE
  5
56
330
1F
100
AcDbEntity
  8
layer 1
 62
   250
100
AcDbSpline
210
0.0
220
0.0
230
1.0
 70
    11
 71
     3
 72
    20
 73
    16
 74
     0
 42
0.0000000001
 43
0.0000000001
 12
1.0
 22
0.0
 32
0.0
 13
1.0
 23
0.0
 33
0.0
 40
0.0
 40
0.0
 40
0.0
 40
0.0
 40
0.2
 40
0.2
 40
0.2
 40
0.2
 40
0.4
 40
0.4
 40
0.4
 40
0.4
 40
0.6
 40
0.6
 40
0.6
 40
0.6
 40
1.0
 40
1.0
 40
1.0
 40
1.0
 10
70.356
 20
131.7936
 30
0.0
 10
70.356
 20
131.7936
 30
0.0
 10
131.7421
 20
131.7936
 30
0.0
 10
131.7421
 20
131.7936
 30
0.0
 10
131.7421
 20
131.7936
 30
0.0
 10
131.7421
 20
131.7936
 30
0.0
 10
131.7421
 20
70.4075
 30
0.0
 10
131.7421
 20
70.4075
 30
0.0
 10
131.7421
 20
70.4075
 30
0.0
 10
131.7421
 20
70.4075
 30
0.0
 10
70.3562
 20
70.4075
 30
0.0
 10
70.3562
 20
70.4075
 30
0.0
 10
70.3562
 20
70.4075
 30
0.0
 10
70.3562
 20
70.4075
 30
0.0
 10
70.356
 20
131.7936
 30
0.0
 10
70.356
 20
131.7936
 30
0.0
  0
SPLINE
  5
57
330
1F
100
AcDbEntity
  8
layer 1
 62
     7
100
AcDbSpline
210
0.0
220
0.0
230
1.0
 70
    11
 71
     3
 72
    20
 73
    16
 74
     0
 42
0.0000000001
 43
0.0000000001
 12
1.0
 22
0.0
 32
0.0
 13
1.0
 23
0.0
 33
0.0
 40
0.0
 40
0.0
 40
0.0
 40
0.0
 40
0.2
 40
0.2
 40
0.2
 40
0.2
 40
0.4
 40
0.4
 40
0.4
 40
0.4
 40
0.6
 40
0.6
 40
0.6
 40
0.6
 40
1.0
 40
1.0
 40
1.0
 40
1.0
 10
89.3071
 20
123.9186
 30
0.0
 10
89.3071
 20
123.9186
 30
0.0
 10
89.1883
 20
128.0128
 30
0.0
 10
89.1883
 20
128.0128
 30
0.0
 10
89.1883
 20
128.0128
 30
0.0
 10
89.1883
 20
128.0128
 30
0.0
 10
114.1767
 20
128.0722
 30
0.0
 10
114.1767
 20
128.0722
 30
0.0
 10
114.1767
 20
128.0722
 30
0.0
 10
114.1767
 20
128.0722
 30
0.0
 10
109.1973
 20
120.9843
 30
0.0
 10
109.1973
 20
120.9843
 30
0.0
 10
109.1973
 20
120.9843
 30
0.0
 10
109.1973
 20
120.9843
 30
0.0
 10
89.3071
 20
123.9186
 30
0.0
 10
89.3071
 20
123.9186
 30
0.0
  0
SPLINE
  5
58
330
1F
100
AcDbEntity
  8
layer 1
 62
     7
100
AcDbSpline
210
0.0
220
0.0
230
1.0
 70
    11
 71
     3
 72
    20
 73
    16
 74
     0
 42
0.0000000001
 43
0.0000000001
 12
1.0
 22
0.0
 32
0.0
 13
1.0
 23
0.0
 33
0.0
 40
0.0
 40
0.0
 40
0.0
 40
0.0
 40
0.2
 40
0.2
 40
0.2
 40
0.2
 40
0.4
 40
0.4
 40
0.4
 40
0.4
 40
0.6
 40
0.6
 40
0.6
 40
0.6
 40
1.0
 40
1.0
 40
1.0
 40
1.0
 10
89.778
 20
110.3476
 30
0.0
 10
89.778
 20
110.3476
 30
0.0
 10
89.4237
 20
122.2897
 30
0.0
 10
89.4237
 20
122.2897
 30
0.0
 10
89.4237
 20
122.2897
 30
0.0
 10
89.4237
 20
122.2897
 30
0.0
 10
108.0117
 20
119.3401
 30
0.0
 10
108.0117
 20
119.3401
 30
0.0
 10
108.0117
 20
119.3401
 30
0.0
 10
108.0117
 20
119.3401
 30
0.0
 10
99.9349
 20
107.8849
 30
0.0
 10
99.9349
 20
107.8849
 30
0.0
 10
99.9349
 20
107.8849
 30
0.0
 10
99.9349
 20
107.8849
 30
0.0
 10
89.778
 20
110.3476
 30
0.0
 10
89.778
 20
110.3476
 30
0.0
  0
SPLINE
  5
59
330
1F
100
AcDbEntity
  8
layer 1
 62
     7
100
AcDbSpline
210
0.0
220
0.0
230
1.0
 70
    11
 71
     3
 72
    16
 73
    12
 74
     0
 42
0.0000000001
 43
0.0000000001
 12
1.0
 22
0.0
 32
0.0
 13
1.0
 23
0.0
 33
0.0
 40
0.0
 40
0.0
 40
0.0
 40
0.0
 40
0.25
 40
0.25
 40
0.25
 40
0.25
 40
0.5
 40
0.5
 40
0.5
 40
0.5
 40
1.0
 40
1.0
 40
1.0
 40
1.0
 10
90.1922
 20
94.0031
 30
0.0
 10
90.1922
 20
94.0031
 30
0.0
 10
89.778
 20
108.5404
 30
0.0
 10
89.778
 20
108.5404
 30
0.0
 10
89.778
 20
108.5404
 30
0.0
 10
89.778
 20
108.5404
 30
0.0
 10
98.893
 20
106.4759
 30
0.0
 10
98.893
 20
106.4759
 30
0.0
 10
98.893
 20
106.4759
 30
0.0
 10
98.893
 20
106.4759
 30
0.0
 10
90.1922
 20
94.0031
 30
0.0
 10
90.1922
 20
94.0031
 30
0.0
  0
SPLINE
  5
5A
330
1F
100
AcDbEntity
  8
layer 1
 62
     7
100
AcDbSpline
210
0.0
220
0.0
230
1.0
 70
    11
 71
     3
 72
    20
 73
    16
 74
     0
 42
0.0000000001
 43
0.0000000001
 12
1.0
 22
0.0
 32
0.0
 13
1.0
 23
0.0
 33
0.0
 40
0.0
 40
0.0
 40
0.0
 40
0.0
 40
0.2
 40
0.2
 40
0.2
 40
0.2
 40
0.4
 40
0.4
 40
0.4
 40
0.4
 40
0.6
 40
0.6
 40
0.6
 40
0.6
 40
1.0
 40
1.0
 40
1.0
 40
1.0
 10
74.2589
 20
117.0154
 30
0.0
 10
74.2589
 20
117.0154
 30
0.0
 10
74.1432
 20
128.0128
 30
0.0
 10
74.1432
 20
128.0128
 30
0.0
 10
74.1432
 20
128.0128
 30
0.0
 10
74.1432
 20
128.0128
 30
0.0
 10
87.5632
 20
128.0722
 30
0.0
 10
87.5632
 20
128.0722
 30
0.0
 10
87.5632
 20
128.0722
 30
0.0
 10
87.5632
 20
128.0722
 30
0.0
 10
87.5441
 20
124.7588
 30
0.0
 10
87.5441
 20
124.7588
 30
0.0
 10
87.5441
 20
124.7588
 30
0.0
 10
87.5441
 20
124.7588
 30
0.0
 10
74.2589
 20
117.0154
 30
0.0
 10
74.2589
 20
117.0154
 30
0.0
  0
SPLINE
  5
5B
330
1F
100
AcDbEntity
  8
layer 1
 62
     7
100
AcDbSpline
210
0.0
220
0.0
230
1.0
 70
    11
 71
     3
 72
    20
 73
    16
 74
     0
 42
0.0000000001
 43
0.0000000001
 12
1.0
 22
0.0
 32
0.0
 13
1.0
 23
0.0
 33
0.0
 40
0.0
 40
0.0
 40
0.0
 40
0.0
 40
0.2
 40
0.2
 40
0.2
 40
0.2
 40
0.4
 40
0.4
 40
0.4
 40
0.4
 40
0.6
 40
0.6
 40
0.6
 40
0.6
 40
1.0
 40
1.0
 40
1.0
 40
1.0
 10
79.8062
 20
106.57
 30
0.0
 10
79.8062
 20
106.57
 30
0.0
 10
74.1432
 20
114.853
 30
0.0
 10
74.1432
 20
114.853
 30
0.0
 10
74.1432
 20
114.853
 30
0.0
 10
74.1432
 20
114.853
 30
0.0
 10
87.7415
 20
122.9393
 30
0.0
 10
87.7415
 20
122.9393
 30
0.0
 10
87.7415
 20
122.9393
 30
0.0
 10
87.7415
 20
122.9393
 30
0.0
 10
88.0147
 20
110.4232
 30
0.0
 10
88.0147
 20
110.4232
 30
0.0
 10
88.0147
 20
110.4232
 30
0.0
 10
88.0147
 20
110.4232
 30
0.0
 10
79.8062
 20
106.57
 30
0.0
 10
79.8062
 20
106.57
 30
0.0
  0
SPLINE
  5
5C
330
1F
100
AcDbEntity
  8
layer 1
 62
     7
100
AcDbSpline
210
0.0
220
0.0
230
1.0
 70
    11
 71
     3
 72
    16
 73
    12
 74
     0
 42
0.0000000001
 43
0.0000000001
 12
1.0
 22
0.0
 32
0.0
 13
1.0
 23
0.0
 33
0.0
 40
0.0
 40
0.0
 40
0.0
 40
0.0
 40
0.25
 40
0.25
 40
0.25
 40
0.25
 40
0.5
 40
0.5
 40
0.5
 40
0.5
 40
1.0
 40
1.0
 40
1.0
 40
1.0
 10
80.8103
 20
105.1168
 30
0.0
 10
80.8103
 20
105.1168
 30
0.0
 10
88.2124
 20
108.4808
 30
0.0
 10
88.2124
 20
108.4808
 30
0.0
 10
88.2124
 20
108.4808
 30
0.0
 10
88.2124
 20
108.4808
 30
0.0
 10
88.5448
 20
93.8401
 30
0.0
 10
88.5448
 20
93.8401
 30
0.0
 10
88.5448
 20
93.8401
 30
0.0
 10
88.5448
 20
93.8401
 30
0.0
 10
80.8103
 20
105.1168
 30
0.0
 10
80.8103
 20
105.1168
 30
0.0
  0
SPLINE
  5
5D
330
1F
100
AcDbEntity
  8
layer 1
 62
     7
100
AcDbSpline
210
0.0
220
0.0
230
1.0
 70
    11
 71
     3
 72
    16
 73
    12
 74
     0
 42
0.0000000001
 43
0.0000000001
 12
1.0
 22
0.0
 32
0.0
 13
1.0
 23
0.0
 33
0.0
 40
0.0
 40
0.0
 40
0.0
 40
0.0
 40
0.25
 40
0.25
 40
0.25
 40
0.25
 40
0.5
 40
0.5
 40
0.5
 40
0.5
 40
1.0
 40
1.0
 40
1.0
 40
1.0
 10
78.5074
 20
91.8696
 30
0.0
 10
78.5074
 20
91.8696
 30
0.0
 10
87.8012
 20
91.9894
 30
0.0
 10
87.8012
 20
91.9894
 30
0.0
 10
87.8012
 20
91.9894
 30
0.0
 10
87.8012
 20
91.9894
 30
0.0
 10
79.9886
 20
103.385
 30
0.0
 10
79.9886
 20
103.385
 30
0.0
 10
79.9886
 20
103.385
 30
0.0
 10
79.9886
 20
103.385
 30
0.0
 10
78.5074
 20
91.8696
 30
0.0
 10
78.5074
 20
91.8696
 30
0.0
  0
SPLINE
  5
5E
330
1F
100
AcDbEntity
  8
layer 1
 62
     7
100
AcDbSpline
210
0.0
220
0.0
230
1.0
 70
    11
 71
     3
 72
    20
 73
    16
 74
     0
 42
0.0000000001
 43
0.0000000001
 12
1.0
 22
0.0
 32
0.0
 13
1.0
 23
0.0
 33
0.0
 40
0.0
 40
0.0
 40
0.0
 40
0.0
 40
0.2
 40
0.2
 40
0.2
 40
0.2
 40
0.4
 40
0.4
 40
0.4
 40
0.4
 40
0.6
 40
0.6
 40
0.6
 40
0.6
 40
1.0
 40
1.0
 40
1.0
 40
1.0
 10
74.1143
 20
90.3853
 30
0.0
 10
74.1143
 20
90.3853
 30
0.0
 10
74.1771
 20
75.5099
 30
0.0
 10
74.1771
 20
75.5099
 30
0.0
 10
74.1771
 20
75.5099
 30
0.0
 10
74.1771
 20
75.5099
 30
0.0
 10
79.9788
 20
82.0458
 30
0.0
 10
79.9788
 20
82.0458
 30
0.0
 10
79.9788
 20
82.0458
 30
0.0
 10
79.9788
 20
82.0458
 30
0.0
 10
76.3805
 20
90.3634
 30
0.0
 10
76.3805
 20
90.3634
 30
0.0
 10
76.3805
 20
90.3634
 30
0.0
 10
76.3805
 20
90.3634
 30
0.0
 10
74.1143
 20
90.3853
 30
0.0
 10
74.1143
 20
90.3853
 30
0.0
  0
SPLINE
  5
5F
330
1F
100
AcDbEntity
  8
layer 1
 62
     7
100
AcDbSpline
210
0.0
220
0.0
230
1.0
 70
    11
 71
     3
 72
    16
 73
    12
 74
     0
 42
0.0000000001
 43
0.0000000001
 12
1.0
 22
0.0
 32
0.0
 13
1.0
 23
0.0
 33
0.0
 40
0.0
 40
0.0
 40
0.0
 40
0.0
 40
0.25
 40
0.25
 40
0.25
 40
0.25
 40
0.5
 40
0.5
 40
0.5
 40
0.5
 40
1.0
 40
1.0
 40
1.0
 40
1.0
 10
91.2027
 20
92.7419
 30
0.0
 10
91.2027
 20
92.7419
 30
0.0
 10
99.784
 20
104.9071
 30
0.0
 10
99.784
 20
104.9071
 30
0.0
 10
99.784
 20
104.9071
 30
0.0
 10
99.784
 20
104.9071
 30
0.0
 10
102.8123
 20
98.9044
 30
0.0
 10
102.8123
 20
98.9044
 30
0.0
 10
102.8123
 20
98.9044
 30
0.0
 10
102.8123
 20
98.9044
 30
0.0
 10
91.2027
 20
92.7419
 30
0.0
 10
91.2027
 20
92.7419
 30
0.0
  0
SPLINE
  5
60
330
1F
100
AcDbEntity
  8
layer 1
 62
     7
100
AcDbSpline
210
0.0
220
0.0
230
1.0
 70
    11
 71
     3
 72
    16
 73
    12
 74
     0
 42
0.0000000001
 43
0.0000000001
 12
1.0
 22
0.0
 32
0.0
 13
1.0
 23
0.0
 33
0.0
 40
0.0
 40
0.0
 40
0.0
 40
0.0
 40
0.25
 40
0.25
 40
0.25
 40
0.25
 40
0.5
 40
0.5
 40
0.5
 40
0.5
 40
1.0
 40
1.0
 40
1.0
 40
1.0
 10
91.9491
 20
91.3612
 30
0.0
 10
91.9491
 20
91.3612
 30
0.0
 10
103.609
 20
97.5551
 30
0.0
 10
103.609
 20
97.5551
 30
0.0
 10
103.609
 20
97.5551
 30
0.0
 10
103.609
 20
97.5551
 30
0.0
 10
104.4749
 20
91.1137
 30
0.0
 10
104.4749
 20
91.1137
 30
0.0
 10
104.4749
 20
91.1137
 30
0.0
 10
104.4749
 20
91.1137
 30
0.0
 10
91.9491
 20
91.3612
 30
0.0
 10
91.9491
 20
91.3612
 30
0.0
  0
SPLINE
  5
61
330
1F
100
AcDbEntity
  8
layer 1
 62
     7
100
AcDbSpline
210
0.0
220
0.0
230
1.0
 70
    11
 71
     3
 72
    16
 73
    12
 74
     0
 42
0.0000000001
 43
0.0000000001
 12
1.0
 22
0.0
 32
0.0
 13
1.0
 23
0.0
 33
0.0
 40
0.0
 40
0.0
 40
0.0
 40
0.0
 40
0.25
 40
0.25
 40
0.25
 40
0.25
 40
0.5
 40
0.5
 40
0.5
 40
0.5
 40
1.0
 40
1.0
 40
1.0
 40
1.0
 10
93.631
 20
89.6704
 30
0.0
 10
93.631
 20
89.6704
 30
0.0
 10
104.7038
 20
89.419
 30
0.0
 10
104.7038
 20
89.419
 30
0.0
 10
104.7038
 20
89.419
 30
0.0
 10
104.7038
 20
89.419
 30
0.0
 10
101.3214
 20
85.2492
 30
0.0
 10
101.3214
 20
85.2492
 30
0.0
 10
101.3214
 20
85.2492
 30
0.0
 10
101.3214
 20
85.2492
 30
0.0
 10
93.631
 20
89.6704
 30
0.0
 10
93.631
 20
89.6704
 30
0.0
  0
SPLINE
  5
62
330
1F
100
AcDbEntity
  8
layer 1
 62
     7
100
AcDbSpline
210
0.0
220
0.0
230
1.0
 70
    11
 71
     3
 72
    16
 73
    12
 74
     0
 42
0.0000000001
 43
0.0000000001
 12
1.0
 22
0.0
 32
0.0
 13
1.0
 23
0.0
 33
0.0
 40
0.0
 40
0.0
 40
0.0
 40
0.0
 40
0.25
 40
0.25
 40
0.25
 40
0.25
 40
0.5
 40
0.5
 40
0.5
 40
0.5
 40
1.0
 40
1.0
 40
1.0
 40
1.0
 10
90.4463
 20
89.5979
 30
0.0
 10
90.4463
 20
89.5979
 30
0.0
 10
100.3084
 20
83.9254
 30
0.0
 10
100.3084
 20
83.9254
 30
0.0
 10
100.3084
 20
83.9254
 30
0.0
 10
100.3084
 20
83.9254
 30
0.0
 10
91.7232
 20
80.3044
 30
0.0
 10
91.7232
 20
80.3044
 30
0.0
 10
91.7232
 20
80.3044
 30
0.0
 10
91.7232
 20
80.3044
 30
0.0
 10
90.4463
 20
89.5979
 30
0.0
 10
90.4463
 20
89.5979
 30
0.0
  0
SPLINE
  5
63
330
1F
100
AcDbEntity
  8
layer 1
 62
     7
100
AcDbSpline
210
0.0
220
0.0
230
1.0
 70
    11
 71
     3
 72
    16
 73
    12
 74
     0
 42
0.0000000001
 43
0.0000000001
 12
1.0
 22
0.0
 32
0.0
 13
1.0
 23
0.0
 33
0.0
 40
0.0
 40
0.0
 40
0.0
 40
0.0
 40
0.25
 40
0.25
 40
0.25
 40
0.25
 40
0.5
 40
0.5
 40
0.5
 40
0.5
 40
1.0
 40
1.0
 40
1.0
 40
1.0
 10
82.2441
 20
82.2025
 30
0.0
 10
82.2441
 20
82.2025
 30
0.0
 10
90.0704
 20
80.5237
 30
0.0
 10
90.0704
 20
80.5237
 30
0.0
 10
90.0704
 20
80.5237
 30
0.0
 10
90.0704
 20
80.5237
 30
0.0
 10
88.928
 20
89.7956
 30
0.0
 10
88.928
 20
89.7956
 30
0.0
 10
88.928
 20
89.7956
 30
0.0
 10
88.928
 20
89.7956
 30
0.0
 10
82.2441
 20
82.2025
 30
0.0
 10
82.2441
 20
82.2025
 30
0.0
  0
SPLINE
  5
64
330
1F
100
AcDbEntity
  8
layer 1
 62
     7
100
AcDbSpline
210
0.0
220
0.0
230
1.0
 70
    11
 71
     3
 72
    16
 73
    12
 74
     0
 42
0.0000000001
 43
0.0000000001
 12
1.0
 22
0.0
 32
0.0
 13
1.0
 23
0.0
 33
0.0
 40
0.0
 40
0.0
 40
0.0
 40
0.0
 40
0.25
 40
0.25
 40
0.25
 40
0.25
 40
0.5
 40
0.5
 40
0.5
 40
0.5
 40
1.0
 40
1.0
 40
1.0
 40
1.0
 10
78.3628
 20
90.3323
 30
0.0
 10
78.3628
 20
90.3323
 30
0.0
 10
87.2146
 20
90.304
 30
0.0
 10
87.2146
 20
90.304
 30
0.0
 10
87.2146
 20
90.304
 30
0.0
 10
87.2146
 20
90.304
 30
0.0
 10
81.2345
 20
83.4573
 30
0.0
 10
81.2345
 20
83.4573
 30
0.0
 10
81.2345
 20
83.4573
 30
0.0
 10
81.2345
 20
83.4573
 30
0.0
 10
78.3628
 20
90.3323
 30
0.0
 10
78.3628
 20
90.3323
 30
0.0
  0
SPLINE
  5
65
330
1F
100
AcDbEntity
  8
layer 1
 62
     7
100
AcDbSpline
210
0.0
220
0.0
230
1.0
 70
    11
 71
     3
 72
    20
 73
    16
 74
     0
 42
0.0000000001
 43
0.0000000001
 12
1.0
 22
0.0
 32
0.0
 13
1.0
 23
0.0
 33
0.0
 40
0.0
 40
0.0
 40
0.0
 40
0.0
 40
0.2
 40
0.2
 40
0.2
 40
0.2
 40
0.4
 40
0.4
 40
0.4
 40
0.4
 40
0.6
 40
0.6
 40
0.6
 40
0.6
 40
1.0
 40
1.0
 40
1.0
 40
1.0
 10
75.3227
 20
74.2639
 30
0.0
 10
75.3227
 20
74.2639
 30
0.0
 10
90.9297
 20
74.2198
 30
0.0
 10
90.9297
 20
74.2198
 30
0.0
 10
90.9297
 20
74.2198
 30
0.0
 10
90.9297
 20
74.2198
 30
0.0
 10
90.2928
 20
78.7012
 30
0.0
 10
90.2928
 20
78.7012
 30
0.0
 10
90.2928
 20
78.7012
 30
0.0
 10
90.2928
 20
78.7012
 30
0.0
 10
80.9485
 20
80.7061
 30
0.0
 10
80.9485
 20
80.7061
 30
0.0
 10
80.9485
 20
80.7061
 30
0.0
 10
80.9485
 20
80.7061
 30
0.0
 10
75.3227
 20
74.2639
 30
0.0
 10
75.3227
 20
74.2639
 30
0.0
  0
SPLINE
  5
66
330
1F
100
AcDbEntity
  8
layer 1
 62
     7
100
AcDbSpline
210
0.0
220
0.0
230
1.0
 70
    11
 71
     3
 72
    24
 73
    20
 74
     0
 42
0.0000000001
 43
0.0000000001
 12
1.0
 22
0.0
 32
0.0
 13
1.0
 23
0.0
 33
0.0
 40
0.0
 40
0.0
 40
0.0
 40
0.0
 40
0.1666666666666667
 40
0.1666666666666667
 40
0.1666666666666667
 40
0.1666666666666667
 40
0.3333333333333333
 40
0.3333333333333333
 40
0.3333333333333333
 40
0.3333333333333333
 40
0.5
 40
0.5
 40
0.5
 40
0.5
 40
0.6666666666666666
 40
0.6666666666666666
 40
0.6666666666666666
 40
0.6666666666666666
 40
1.0
 40
1.0
 40
1.0
 40
1.0
 10
92.5773
 20
74.2639
 30
0.0
 10
92.5773
 20
74.2639
 30
0.0
 10
108.5634
 20
74.1572
 30
0.0
 10
108.5634
 20
74.1572
 30
0.0
 10
108.5634
 20
74.1572
 30
0.0
 10
108.5634
 20
74.1572
 30
0.0
 10
111.9934
 20
77.2233
 30
0.0
 10
111.9934
 20
77.2233
 30
0.0
 10
111.9934
 20
77.2233
 30
0.0
 10
111.9934
 20
77.2233
 30
0.0
 10
102.0498
 20
82.8774
 30
0.0
 10
102.0498
 20
82.8774
 30
0.0
 10
102.0498
 20
82.8774
 30
0.0
 10
102.0498
 20
82.8774
 30
0.0
 10
91.9024
 20
78.5437
 30
0.0
 10
91.9024
 20
78.5437
 30
0.0
 10
91.9024
 20
78.5437
 30
0.0
 10
91.9024
 20
78.5437
 30
0.0
 10
92.5773
 20
74.2639
 30
0.0
 10
92.5773
 20
74.2639
 30
0.0
  0
SPLINE
  5
67
330
1F
100
AcDbEntity
  8
layer 1
 62
     7
100
AcDbSpline
210
0.0
220
0.0
230
1.0
 70
    11
 71
     3
 72
    16
 73
    12
 74
     0
 42
0.0000000001
 43
0.0000000001
 12
1.0
 22
0.0
 32
0.0
 13
1.0
 23
0.0
 33
0.0
 40
0.0
 40
0.0
 40
0.0
 40
0.0
 40
0.25
 40
0.25
 40
0.25
 40
0.25
 40
0.5
 40
0.5
 40
0.5
 40
0.5
 40
1.0
 40
1.0
 40
1.0
 40
1.0
 10
113.4834
 20
76.338
 30
0.0
 10
113.4834
 20
76.338
 30
0.0
 10
117.195
 20
74.2175
 30
0.0
 10
117.195
 20
74.2175
 30
0.0
 10
117.195
 20
74.2175
 30
0.0
 10
117.195
 20
74.2175
 30
0.0
 10
111.3941
 20
74.1861
 30
0.0
 10
111.3941
 20
74.1861
 30
0.0
 10
111.3941
 20
74.1861
 30
0.0
 10
111.3941
 20
74.1861
 30
0.0
 10
113.4834
 20
76.338
 30
0.0
 10
113.4834
 20
76.338
 30
0.0
  0
SPLINE
  5
68
330
1F
100
AcDbEntity
  8
layer 1
 62
     7
100
AcDbSpline
210
0.0
220
0.0
230
1.0
 70
    11
 71
     3
 72
    20
 73
    16
 74
     0
 42
0.0000000001
 43
0.0000000001
 12
1.0
 22
0.0
 32
0.0
 13
1.0
 23
0.0
 33
0.0
 40
0.0
 40
0.0
 40
0.0
 40
0.0
 40
0.2
 40
0.2
 40
0.2
 40
0.2
 40
0.4
 40
0.4
 40
0.4
 40
0.4
 40
0.6
 40
0.6
 40
0.6
 40
0.6
 40
1.0
 40
1.0
 40
1.0
 40
1.0
 10
102.8307
 20
84.336
 30
0.0
 10
102.8307
 20
84.336
 30
0.0
 10
112.9059
 20
78.5059
 30
0.0
 10
112.9059
 20
78.5059
 30
0.0
 10
112.9059
 20
78.5059
 30
0.0
 10
112.9059
 20
78.5059
 30
0.0
 10
118.6418
 20
88.9579
 30
0.0
 10
118.6418
 20
88.9579
 30
0.0
 10
118.6418
 20
88.9579
 30
0.0
 10
118.6418
 20
88.9579
 30
0.0
 10
106.957
 20
89.3154
 30
0.0
 10
106.957
 20
89.3154
 30
0.0
 10
106.957
 20
89.3154
 30
0.0
 10
106.957
 20
89.3154
 30
0.0
 10
102.8307
 20
84.336
 30
0.0
 10
102.8307
 20
84.336
 30
0.0
  0
SPLINE
  5
69
330
1F
100
AcDbEntity
  8
layer 1
 62
     7
100
AcDbSpline
210
0.0
220
0.0
230
1.0
 70
    11
 71
     3
 72
    20
 73
    16
 74
     0
 42
0.0000000001
 43
0.0000000001
 12
1.0
 22
0.0
 32
0.0
 13
1.0
 23
0.0
 33
0.0
 40
0.0
 40
0.0
 40
0.0
 40
0.0
 40
0.2
 40
0.2
 40
0.2
 40
0.2
 40
0.4
 40
0.4
 40
0.4
 40
0.4
 40
0.6
 40
0.6
 40
0.6
 40
0.6
 40
1.0
 40
1.0
 40
1.0
 40
1.0
 10
106.3104
 20
91.0759
 30
0.0
 10
106.3104
 20
91.0759
 30
0.0
 10
119.1343
 20
90.7025
 30
0.0
 10
119.1343
 20
90.7025
 30
0.0
 10
119.1343
 20
90.7025
 30
0.0
 10
119.1343
 20
90.7025
 30
0.0
 10
119.009
 20
105.6221
 30
0.0
 10
119.009
 20
105.6221
 30
0.0
 10
119.009
 20
105.6221
 30
0.0
 10
119.009
 20
105.6221
 30
0.0
 10
105.1969
 20
98.3992
 30
0.0
 10
105.1969
 20
98.3992
 30
0.0
 10
105.1969
 20
98.3992
 30
0.0
 10
105.1969
 20
98.3992
 30
0.0
 10
106.3104
 20
91.0759
 30
0.0
 10
106.3104
 20
91.0759
 30
0.0
  0
SPLINE
  5
6A
330
1F
100
AcDbEntity
  8
layer 1
 62
     7
100
AcDbSpline
210
0.0
220
0.0
230
1.0
 70
    11
 71
     3
 72
    20
 73
    16
 74
     0
 42
0.0000000001
 43
0.0000000001
 12
1.0
 22
0.0
 32
0.0
 13
1.0
 23
0.0
 33
0.0
 40
0.0
 40
0.0
 40
0.0
 40
0.0
 40
0.2
 40
0.2
 40
0.2
 40
0.2
 40
0.4
 40
0.4
 40
0.4
 40
0.4
 40
0.6
 40
0.6
 40
0.6
 40
0.6
 40
1.0
 40
1.0
 40
1.0
 40
1.0
 10
104.4059
 20
99.7205
 30
0.0
 10
104.4059
 20
99.7205
 30
0.0
 10
119.0621
 20
107.5147
 30
0.0
 10
119.0621
 20
107.5147
 30
0.0
 10
119.0621
 20
107.5147
 30
0.0
 10
119.0621
 20
107.5147
 30
0.0
 10
109.1941
 20
118.1511
 30
0.0
 10
109.1941
 20
118.1511
 30
0.0
 10
109.1941
 20
118.1511
 30
0.0
 10
109.1941
 20
118.1511
 30
0.0
 10
100.8765
 20
106.4568
 30
0.0
 10
100.8765
 20
106.4568
 30
0.0
 10
100.8765
 20
106.4568
 30
0.0
 10
100.8765
 20
106.4568
 30
0.0
 10
104.4059
 20
99.7205
 30
0.0
 10
104.4059
 20
99.7205
 30
0.0
  0
SPLINE
  5
6B
330
1F
100
AcDbEntity
  8
layer 1
 62
     7
100
AcDbSpline
210
0.0
220
0.0
230
1.0
 70
    11
 71
     3
 72
    20
 73
    16
 74
     0
 42
0.0000000001
 43
0.0000000001
 12
1.0
 22
0.0
 32
0.0
 13
1.0
 23
0.0
 33
0.0
 40
0.0
 40
0.0
 40
0.0
 40
0.0
 40
0.2
 40
0.2
 40
0.2
 40
0.2
 40
0.4
 40
0.4
 40
0.4
 40
0.4
 40
0.6
 40
0.6
 40
0.6
 40
0.6
 40
1.0
 40
1.0
 40
1.0
 40
1.0
 10
120.8789
 20
90.5925
 30
0.0
 10
120.8789
 20
90.5925
 30
0.0
 10
127.9266
 20
90.3796
 30
0.0
 10
127.9266
 20
90.3796
 30
0.0
 10
127.9266
 20
90.3796
 30
0.0
 10
127.9266
 20
90.3796
 30
0.0
 10
127.9355
 20
110.3508
 30
0.0
 10
127.9355
 20
110.3508
 30
0.0
 10
127.9355
 20
110.3508
 30
0.0
 10
127.9355
 20
110.3508
 30
0.0
 10
120.678
 20
106.5354
 30
0.0
 10
120.678
 20
106.5354
 30
0.0
 10
120.678
 20
106.5354
 30
0.0
 10
120.678
 20
106.5354
 30
0.0
 10
120.8789
 20
90.5925
 30
0.0
 10
120.8789
 20
90.5925
 30
0.0
  0
SPLINE
  5
6C
330
1F
100
AcDbEntity
  8
layer 1
 62
     7
100
AcDbSpline
210
0.0
220
0.0
230
1.0
 70
    11
 71
     3
 72
    24
 73
    20
 74
     0
 42
0.0000000001
 43
0.0000000001
 12
1.0
 22
0.0
 32
0.0
 13
1.0
 23
0.0
 33
0.0
 40
0.0
 40
0.0
 40
0.0
 40
0.0
 40
0.1666666666666667
 40
0.1666666666666667
 40
0.1666666666666667
 40
0.1666666666666667
 40
0.3333333333333333
 40
0.3333333333333333
 40
0.3333333333333333
 40
0.3333333333333333
 40
0.5
 40
0.5
 40
0.5
 40
0.5
 40
0.6666666666666666
 40
0.6666666666666666
 40
0.6666666666666666
 40
0.6666666666666666
 40
1.0
 40
1.0
 40
1.0
 40
1.0
 10
120.7254
 20
108.4248
 30
0.0
 10
120.7254
 20
108.4248
 30
0.0
 10
110.2173
 20
119.61
 30
0.0
 10
110.2173
 20
119.61
 30
0.0
 10
110.2173
 20
119.61
 30
0.0
 10
110.2173
 20
119.61
 30
0.0
 10
116.1535
 20
128.0096
 30
0.0
 10
116.1535
 20
128.0096
 30
0.0
 10
116.1535
 20
128.0096
 30
0.0
 10
116.1535
 20
128.0096
 30
0.0
 10
127.9009
 20
127.9911
 30
0.0
 10
127.9009
 20
127.9911
 30
0.0
 10
127.9009
 20
127.9911
 30
0.0
 10
127.9009
 20
127.9911
 30
0.0
 10
127.9171
 20
112.1485
 30
0.0
 10
127.9171
 20
112.1485
 30
0.0
 10
127.9171
 20
112.1485
 30
0.0
 10
127.9171
 20
112.1485
 30
0.0
 10
120.7254
 20
108.4248
 30
0.0
 10
120.7254
 20
108.4248
 30
0.0
  0
SPLINE
  5
6D
330
1F
100
AcDbEntity
  8
layer 1
 62
     7
100
AcDbSpline
210
0.0
220
0.0
230
1.0
 70
    11
 71
     3
 72
    24
 73
    20
 74
     0
 42
0.0000000001
 43
0.0000000001
 12
1.0
 22
0.0
 32
0.0
 13
1.0
 23
0.0
 33
0.0
 40
0.0
 40
0.0
 40
0.0
 40
0.0
 40
0.1666666666666667
 40
0.1666666666666667
 40
0.1666666666666667
 40
0.1666666666666667
 40
0.3333333333333333
 40
0.3333333333333333
 40
0.3333333333333333
 40
0.3333333333333333
 40
0.5
 40
0.5
 40
0.5
 40
0.5
 40
0.6666666666666666
 40
0.6666666666666666
 40
0.6666666666666666
 40
0.6666666666666666
 40
1.0
 40
1.0
 40
1.0
 40
1.0
 10
114.4121
 20
77.7317
 30
0.0
 10
114.4121
 20
77.7317
 30
0.0
 10
120.5312
 20
74.1667
 30
0.0
 10
120.5312
 20
74.1667
 30
0.0
 10
120.5312
 20
74.1667
 30
0.0
 10
120.5312
 20
74.1667
 30
0.0
 10
127.9797
 20
74.2077
 30
0.0
 10
127.9797
 20
74.2077
 30
0.0
 10
127.9797
 20
74.2077
 30
0.0
 10
127.9797
 20
74.2077
 30
0.0
 10
127.9419
 20
88.6879
 30
0.0
 10
127.9419
 20
88.6879
 30
0.0
 10
127.9419
 20
88.6879
 30
0.0
 10
127.9419
 20
88.6879
 30
0.0
 10
120.5778
 20
88.8855
 30
0.0
 10
120.5778
 20
88.8855
 30
0.0
 10
120.5778
 20
88.8855
 30
0.0
 10
120.5778
 20
88.8855
 30
0.0
 10
114.4121
 20
77.7317
 30
0.0
 10
114.4121
 20
77.7317
 30
0.0
  0
SPLINE
  5
6E
330
1F
100
AcDbEntity
  8
layer 1
 62
     7
100
AcDbSpline
210
0.0
220
0.0
230
1.0
 70
    11
 71
     3
 72
    16
 73
    12
 74
     0
 42
0.0000000001
 43
0.0000000001
 12
1.0
 22
0.0
 32
0.0
 13
1.0
 23
0.0
 33
0.0
 40
0.0
 40
0.0
 40
0.0
 40
0.0
 40
0.25
 40
0.25
 40
0.25
 40
0.25
 40
0.5
 40
0.5
 40
0.5
 40
0.5
 40
1.0
 40
1.0
 40
1.0
 40
1.0
 10
74.1177
 20
103.9529
 30
0.0
 10
74.1177
 20
103.9529
 30
0.0
 10
78.4006
 20
105.8703
 30
0.0
 10
78.4006
 20
105.8703
 30
0.0
 10
78.4006
 20
105.8703
 30
0.0
 10
78.4006
 20
105.8703
 30
0.0
 10
74.1241
 20
112.1075
 30
0.0
 10
74.1241
 20
112.1075
 30
0.0
 10
74.1241
 20
112.1075
 30
0.0
 10
74.1241
 20
112.1075
 30
0.0
 10
74.1177
 20
103.9529
 30
0.0
 10
74.1177
 20
103.9529
 30
0.0
  0
SPLINE
  5
6F
330
1F
100
AcDbEntity
  8
layer 1
 62
     7
100
AcDbSpline
210
0.0
220
0.0
230
1.0
 70
    11
 71
     3
 72
    20
 73
    16
 74
     0
 42
0.0000000001
 43
0.0000000001
 12
1.0
 22
0.0
 32
0.0
 13
1.0
 23
0.0
 33
0.0
 40
0.0
 40
0.0
 40
0.0
 40
0.0
 40
0.2
 40
0.2
 40
0.2
 40
0.2
 40
0.4
 40
0.4
 40
0.4
 40
0.4
 40
0.6
 40
0.6
 40
0.6
 40
0.6
 40
1.0
 40
1.0
 40
1.0
 40
1.0
 10
74.1177
 20
92.1083
 30
0.0
 10
74.1177
 20
92.1083
 30
0.0
 10
76.9259
 20
92.0174
 30
0.0
 10
76.9259
 20
92.0174
 30
0.0
 10
76.9259
 20
92.0174
 30
0.0
 10
76.9259
 20
92.0174
 30
0.0
 10
78.3098
 20
103.9376
 30
0.0
 10
78.3098
 20
103.9376
 30
0.0
 10
78.3098
 20
103.9376
 30
0.0
 10
78.3098
 20
103.9376
 30
0.0
 10
74.1555
 20
101.9697
 30
0.0
 10
74.1555
 20
101.9697
 30
0.0
 10
74.1555
 20
101.9697
 30
0.0
 10
74.1555
 20
101.9697
 30
0.0
 10
74.1177
 20
92.1083
 30
0.0
 10
74.1177
 20
92.1083
 30
0.0
  0
SPLINE
  5
70
330
1F
100
AcDbEntity
  8
layer 1
 62
   250
100
AcDbSpline
210
0.0
220
0.0
230
1.0
 70
    11
 71
     3
 72
    20
 73
    16
 74
     0
 42
0.0000000001
 43
0.0000000001
 12
1.0
 22
0.0
 32
0.0
 13
1.0
 23
0.0
 33
0.0
 40
0.0
 40
0.0
 40
0.0
 40
0.0
 40
0.2
 40
0.2
 40
0.2
 40
0.2
 40
0.4
 40
0.4
 40
0.4
 40
0.4
 40
0.6
 40
0.6
 40
0.6
 40
0.6
 40
1.0
 40
1.0
 40
1.0
 40
1.0
 10
134.8534
 20
131.8032
 30
0.0
 10
134.8534
 20
131.8032
 30
0.0
 10
196.2556
 20
131.8032
 30
0.0
 10
196.2556
 20
131.8032
 30
0.0
 10
196.2556
 20
131.8032
 30
0.0
 10
196.2556
 20
131.8032
 30
0.0
 10
196.2556
 20
70.3983
 30
0.0
 10
196.2556
 20
70.3983
 30
0.0
 10
196.2556
 20
70.3983
 30
0.0
 10
196.2556
 20
70.3983
 30
0.0
 10
134.8536
 20
70.3983
 30
0.0
 10
134.8536
 20
70.3983
 30
0.0
 10
134.8536
 20
70.3983
 30
0.0
 10
134.8536
 20
70.3983
 30
0.0
 10
134.8534
 20
131.8032
 30
0.0
 10
134.8534
 20
131.8032
 30
0.0
  0
SPLINE
  5
71
330
1F
100
AcDbEntity
  8
layer 1
 62
     7
100
AcDbSpline
210
0.0
220
0.0
230
1.0
 70
    11
 71
     3
 72
    20
 73
    16
 74
     0
 42
0.0000000001
 43
0.0000000001
 12
1.0
 22
0.0
 32
0.0
 13
1.0
 23
0.0
 33
0.0
 40
0.0
 40
0.0
 40
0.0
 40
0.0
 40
0.2
 40
0.2
 40
0.2
 40
0.2
 40
0.4
 40
0.4
 40
0.4
 40
0.4
 40
0.6
 40
0.6
 40
0.6
 40
0.6
 40
1.0
 40
1.0
 40
1.0
 40
1.0
 10
168.3684
 20
128.0048
 30
0.0
 10
168.3684
 20
128.0048
 30
0.0
 10
168.3996
 20
107.5416
 30
0.0
 10
168.3996
 20
107.5416
 30
0.0
 10
168.3996
 20
107.5416
 30
0.0
 10
166.529
 20
107.4001
 30
0.0
 10
164.6984
 20
107.3903
 30
0.0
 10
162.9597
 20
107.5725
 30
0.0
 10
162.9597
 20
107.5725
 30
0.0
 10
162.9597
 20
107.5725
 30
0.0
 10
162.8843
 20
128.0244
 30
0.0
 10
162.8843
 20
128.0244
 30
0.0
 10
162.8843
 20
128.0244
 30
0.0
 10
164.6704
 20
128.0305
 30
0.0
 10
166.582
 20
128.0048
 30
0.0
 10
168.3684
 20
128.0048
 30
0.0
  0
SPLINE
  5
72
330
1F
100
AcDbEntity
  8
layer 1
 62
     7
100
AcDbSpline
210
0.0
220
0.0
230
1.0
 70
    11
 71
     3
 72
    24
 73
    20
 74
     0
 42
0.0000000001
 43
0.0000000001
 12
1.0
 22
0.0
 32
0.0
 13
1.0
 23
0.0
 33
0.0
 40
0.0
 40
0.0
 40
0.0
 40
0.0
 40
0.1666666666666667
 40
0.1666666666666667
 40
0.1666666666666667
 40
0.1666666666666667
 40
0.3333333333333333
 40
0.3333333333333333
 40
0.3333333333333333
 40
0.3333333333333333
 40
0.5
 40
0.5
 40
0.5
 40
0.5
 40
0.6666666666666666
 40
0.6666666666666666
 40
0.6666666666666666
 40
0.6666666666666666
 40
1.0
 40
1.0
 40
1.0
 40
1.0
 10
192.6266
 20
102.1299
 30
0.0
 10
192.6266
 20
102.1299
 30
0.0
 10
192.6266
 20
128.0212
 30
0.0
 10
192.6266
 20
128.0212
 30
0.0
 10
192.6266
 20
128.0212
 30
0.0
 10
192.6266
 20
128.0212
 30
0.0
 10
188.8102
 20
128.0212
 30
0.0
 10
188.8102
 20
128.0212
 30
0.0
 10
188.8102
 20
128.0212
 30
0.0
 10
188.3954
 20
120.551
 30
0.0
 10
184.0991
 20
109.5404
 30
0.0
 10
169.9527
 20
106.0909
 30
0.0
 10
169.9527
 20
106.0909
 30
0.0
 10
169.9527
 20
106.0909
 30
0.0
 10
170.0033
 20
102.1083
 30
0.0
 10
170.0033
 20
102.1083
 30
0.0
 10
170.0033
 20
102.1083
 30
0.0
 10
171.7042
 20
102.1083
 30
0.0
 10
192.6266
 20
102.1299
 30
0.0
 10
192.6266
 20
102.1299
 30
0.0
  0
SPLINE
  5
73
330
1F
100
AcDbEntity
  8
layer 1
 62
     7
100
AcDbSpline
210
0.0
220
0.0
230
1.0
 70
    11
 71
     3
 72
    16
 73
    12
 74
     0
 42
0.0000000001
 43
0.0000000001
 12
1.0
 22
0.0
 32
0.0
 13
1.0
 23
0.0
 33
0.0
 40
0.0
 40
0.0
 40
0.0
 40
0.0
 40
0.25
 40
0.25
 40
0.25
 40
0.25
 40
0.5
 40
0.5
 40
0.5
 40
0.5
 40
1.0
 40
1.0
 40
1.0
 40
1.0
 10
169.9625
 20
128.0212
 30
0.0
 10
169.9625
 20
128.0212
 30
0.0
 10
169.9625
 20
118.0214
 30
0.0
 10
169.9625
 20
118.0214
 30
0.0
 10
169.9625
 20
118.0214
 30
0.0
 10
171.1959
 20
118.3631
 30
0.0
 10
176.6128
 20
121.1252
 30
0.0
 10
177.2726
 20
128.0394
 30
0.0
 10
177.2726
 20
128.0394
 30
0.0
 10
176.0383
 20
128.0428
 30
0.0
 10
169.9625
 20
128.0212
 30
0.0
 10
169.9625
 20
128.0212
 30
0.0
  0
SPLINE
  5
74
330
1F
100
AcDbEntity
  8
layer 1
 62
     7
100
AcDbSpline
210
0.0
220
0.0
230
1.0
 70
    11
 71
     3
 72
    20
 73
    16
 74
     0
 42
0.0000000001
 43
0.0000000001
 12
1.0
 22
0.0
 32
0.0
 13
1.0
 23
0.0
 33
0.0
 40
0.0
 40
0.0
 40
0.0
 40
0.0
 40
0.2
 40
0.2
 40
0.2
 40
0.2
 40
0.4
 40
0.4
 40
0.4
 40
0.4
 40
0.6
 40
0.6
 40
0.6
 40
0.6
 40
1.0
 40
1.0
 40
1.0
 40
1.0
 10
169.9625
 20
107.7953
 30
0.0
 10
181.5883
 20
110.6952
 30
0.0
 10
186.6911
 20
119.9071
 30
0.0
 10
187.1685
 20
128.021
 30
0.0
 10
187.1685
 20
128.021
 30
0.0
 10
187.1685
 20
128.021
 30
0.0
 10
178.7004
 20
128.0016
 30
0.0
 10
178.7004
 20
128.0016
 30
0.0
 10
178.7004
 20
128.0016
 30
0.0
 10
178.5558
 20
123.4916
 30
0.0
 10
175.778
 20
118.771
 30
0.0
 10
169.9245
 20
116.4392
 30
0.0
 10
169.9245
 20
116.4392
 30
0.0
 10
169.9245
 20
116.4392
 30
0.0
 10
169.9625
 20
107.7953
 30
0.0
 10
169.9625
 20
107.7953
 30
0.0
  0
SPLINE
  5
75
330
1F
100
AcDbEntity
  8
layer 1
 62
     7
100
AcDbSpline
210
0.0
220
0.0
230
1.0
 70
    11
 71
     3
 72
    24
 73
    20
 74
     0
 42
0.0000000001
 43
0.0000000001
 12
1.0
 22
0.0
 32
0.0
 13
1.0
 23
0.0
 33
0.0
 40
0.0
 40
0.0
 40
0.0
 40
0.0
 40
0.1666666666666667
 40
0.1666666666666667
 40
0.1666666666666667
 40
0.1666666666666667
 40
0.3333333333333333
 40
0.3333333333333333
 40
0.3333333333333333
 40
0.3333333333333333
 40
0.5
 40
0.5
 40
0.5
 40
0.5
 40
0.6666666666666666
 40
0.6666666666666666
 40
0.6666666666666666
 40
0.6666666666666666
 40
1.0
 40
1.0
 40
1.0
 40
1.0
 10
138.4596
 20
102.1299
 30
0.0
 10
138.4596
 20
102.1299
 30
0.0
 10
138.4596
 20
128.0212
 30
0.0
 10
138.4596
 20
128.0212
 30
0.0
 10
138.4596
 20
128.0212
 30
0.0
 10
138.4596
 20
128.0212
 30
0.0
 10
142.273
 20
128.0212
 30
0.0
 10
142.273
 20
128.0212
 30
0.0
 10
142.273
 20
128.0212
 30
0.0
 10
142.6876
 20
120.551
 30
0.0
 10
146.9871
 20
109.5404
 30
0.0
 10
161.1303
 20
106.0909
 30
0.0
 10
161.1303
 20
106.0909
 30
0.0
 10
161.1303
 20
106.0909
 30
0.0
 10
161.0827
 20
102.1083
 30
0.0
 10
161.0827
 20
102.1083
 30
0.0
 10
161.0827
 20
102.1083
 30
0.0
 10
159.3786
 20
102.1083
 30
0.0
 10
138.4596
 20
102.1299
 30
0.0
 10
138.4596
 20
102.1299
 30
0.0
  0
SPLINE
  5
76
330
1F
100
AcDbEntity
  8
layer 1
 62
     7
100
AcDbSpline
210
0.0
220
0.0
230
1.0
 70
    11
 71
     3
 72
    16
 73
    12
 74
     0
 42
0.0000000001
 43
0.0000000001
 12
1.0
 22
0.0
 32
0.0
 13
1.0
 23
0.0
 33
0.0
 40
0.0
 40
0.0
 40
0.0
 40
0.0
 40
0.25
 40
0.25
 40
0.25
 40
0.25
 40
0.5
 40
0.5
 40
0.5
 40
0.5
 40
1.0
 40
1.0
 40
1.0
 40
1.0
 10
161.1239
 20
128.0212
 30
0.0
 10
161.1239
 20
128.0212
 30
0.0
 10
161.1239
 20
118.0214
 30
0.0
 10
161.1239
 20
118.0214
 30
0.0
 10
161.1239
 20
118.0214
 30
0.0
 10
159.8874
 20
118.3631
 30
0.0
 10
154.47
 20
121.1252
 30
0.0
 10
153.8136
 20
128.0394
 30
0.0
 10
153.8136
 20
128.0394
 30
0.0
 10
155.0469
 20
128.0428
 30
0.0
 10
161.1239
 20
128.0212
 30
0.0
 10
161.1239
 20
128.0212
 30
0.0
  0
SPLINE
  5
77
330
1F
100
AcDbEntity
  8
layer 1
 62
     7
100
AcDbSpline
210
0.0
220
0.0
230
1.0
 70
    11
 71
     3
 72
    20
 73
    16
 74
     0
 42
0.0000000001
 43
0.0000000001
 12
1.0
 22
0.0
 32
0.0
 13
1.0
 23
0.0
 33
0.0
 40
0.0
 40
0.0
 40
0.0
 40
0.0
 40
0.2
 40
0.2
 40
0.2
 40
0.2
 40
0.4
 40
0.4
 40
0.4
 40
0.4
 40
0.6
 40
0.6
 40
0.6
 40
0.6
 40
1.0
 40
1.0
 40
1.0
 40
1.0
 10
161.1239
 20
107.7953
 30
0.0
 10
149.4947
 20
110.6952
 30
0.0
 10
144.3949
 20
119.9071
 30
0.0
 10
143.9177
 20
128.021
 30
0.0
 10
143.9177
 20
128.021
 30
0.0
 10
143.9177
 20
128.021
 30
0.0
 10
152.3826
 20
128.0016
 30
0.0
 10
152.3826
 20
128.0016
 30
0.0
 10
152.3826
 20
128.0016
 30
0.0
 10
152.5272
 20
123.4916
 30
0.0
 10
155.308
 20
118.771
 30
0.0
 10
161.1615
 20
116.4392
 30
0.0
 10
161.1615
 20
116.4392
 30
0.0
 10
161.1615
 20
116.4392
 30
0.0
 10
161.1239
 20
107.7953
 30
0.0
 10
161.1239
 20
107.7953
 30
0.0
  0
SPLINE
  5
78
330
1F
100
AcDbEntity
  8
layer 1
 62
     7
100
AcDbSpline
210
0.0
220
0.0
230
1.0
 70
    11
 71
     3
 72
    20
 73
    16
 74
     0
 42
0.0000000001
 43
0.0000000001
 12
1.0
 22
0.0
 32
0.0
 13
1.0
 23
0.0
 33
0.0
 40
0.0
 40
0.0
 40
0.0
 40
0.0
 40
0.2
 40
0.2
 40
0.2
 40
0.2
 40
0.4
 40
0.4
 40
0.4
 40
0.4
 40
0.6
 40
0.6
 40
0.6
 40
0.6
 40
1.0
 40
1.0
 40
1.0
 40
1.0
 10
168.3684
 20
73.8444
 30
0.0
 10
168.3684
 20
73.8444
 30
0.0
 10
168.3996
 20
94.3085
 30
0.0
 10
168.3996
 20
94.3085
 30
0.0
 10
168.3996
 20
94.3085
 30
0.0
 10
166.529
 20
94.4531
 30
0.0
 10
164.6984
 20
94.462
 30
0.0
 10
162.9597
 20
94.2771
 30
0.0
 10
162.9597
 20
94.2771
 30
0.0
 10
162.9597
 20
94.2771
 30
0.0
 10
162.8843
 20
73.8257
 30
0.0
 10
162.8843
 20
73.8257
 30
0.0
 10
162.8843
 20
73.8257
 30
0.0
 10
164.6704
 20
73.8193
 30
0.0
 10
166.582
 20
73.8441
 30
0.0
 10
168.3684
 20
73.8444
 30
0.0
  0
SPLINE
  5
79
330
1F
100
AcDbEntity
  8
layer 1
 62
     7
100
AcDbSpline
210
0.0
220
0.0
230
1.0
 70
    11
 71
     3
 72
    24
 73
    20
 74
     0
 42
0.0000000001
 43
0.0000000001
 12
1.0
 22
0.0
 32
0.0
 13
1.0
 23
0.0
 33
0.0
 40
0.0
 40
0.0
 40
0.0
 40
0.0
 40
0.1666666666666667
 40
0.1666666666666667
 40
0.1666666666666667
 40
0.1666666666666667
 40
0.3333333333333333
 40
0.3333333333333333
 40
0.3333333333333333
 40
0.3333333333333333
 40
0.5
 40
0.5
 40
0.5
 40
0.5
 40
0.6666666666666666
 40
0.6666666666666666
 40
0.6666666666666666
 40
0.6666666666666666
 40
1.0
 40
1.0
 40
1.0
 40
1.0
 10
192.6266
 20
99.7192
 30
0.0
 10
192.6266
 20
99.7192
 30
0.0
 10
192.6266
 20
73.8289
 30
0.0
 10
192.6266
 20
73.8289
 30
0.0
 10
192.6266
 20
73.8289
 30
0.0
 10
192.6266
 20
73.8289
 30
0.0
 10
188.8102
 20
73.8289
 30
0.0
 10
188.8102
 20
73.8289
 30
0.0
 10
188.8102
 20
73.8289
 30
0.0
 10
188.3954
 20
81.2984
 30
0.0
 10
184.0991
 20
92.3094
 30
0.0
 10
169.9527
 20
95.7589
 30
0.0
 10
169.9527
 20
95.7589
 30
0.0
 10
169.9527
 20
95.7589
 30
0.0
 10
170.0033
 20
99.7418
 30
0.0
 10
170.0033
 20
99.7418
 30
0.0
 10
170.0033
 20
99.7418
 30
0.0
 10
171.7042
 20
99.7418
 30
0.0
 10
192.6266
 20
99.7192
 30
0.0
 10
192.6266
 20
99.7192
 30
0.0
  0
SPLINE
  5
7A
330
1F
100
AcDbEntity
  8
layer 1
 62
     7
100
AcDbSpline
210
0.0
220
0.0
230
1.0
 70
    11
 71
     3
 72
    16
 73
    12
 74
     0
 42
0.0000000001
 43
0.0000000001
 12
1.0
 22
0.0
 32
0.0
 13
1.0
 23
0.0
 33
0.0
 40
0.0
 40
0.0
 40
0.0
 40
0.0
 40
0.25
 40
0.25
 40
0.25
 40
0.25
 40
0.5
 40
0.5
 40
0.5
 40
0.5
 40
1.0
 40
1.0
 40
1.0
 40
1.0
 10
169.9625
 20
73.8289
 30
0.0
 10
169.9625
 20
73.8289
 30
0.0
 10
169.9625
 20
83.8284
 30
0.0
 10
169.9625
 20
83.8284
 30
0.0
 10
169.9625
 20
83.8284
 30
0.0
 10
171.1959
 20
83.4861
 30
0.0
 10
176.6128
 20
80.7244
 30
0.0
 10
177.2726
 20
73.8095
 30
0.0
 10
177.2726
 20
73.8095
 30
0.0
 10
176.0383
 20
73.8066
 30
0.0
 10
169.9625
 20
73.8289
 30
0.0
 10
169.9625
 20
73.8289
 30
0.0
  0
SPLINE
  5
7B
330
1F
100
AcDbEntity
  8
layer 1
 62
     7
100
AcDbSpline
210
0.0
220
0.0
230
1.0
 70
    11
 71
     3
 72
    20
 73
    16
 74
     0
 42
0.0000000001
 43
0.0000000001
 12
1.0
 22
0.0
 32
0.0
 13
1.0
 23
0.0
 33
0.0
 40
0.0
 40
0.0
 40
0.0
 40
0.0
 40
0.2
 40
0.2
 40
0.2
 40
0.2
 40
0.4
 40
0.4
 40
0.4
 40
0.4
 40
0.6
 40
0.6
 40
0.6
 40
0.6
 40
1.0
 40
1.0
 40
1.0
 40
1.0
 10
169.9625
 20
94.057
 30
0.0
 10
181.5883
 20
91.154
 30
0.0
 10
186.6911
 20
81.9418
 30
0.0
 10
187.1685
 20
73.8289
 30
0.0
 10
187.1685
 20
73.8289
 30
0.0
 10
187.1685
 20
73.8289
 30
0.0
 10
178.7004
 20
73.8476
 30
0.0
 10
178.7004
 20
73.8476
 30
0.0
 10
178.7004
 20
73.8476
 30
0.0
 10
178.5558
 20
78.3575
 30
0.0
 10
175.778
 20
83.0779
 30
0.0
 10
169.9245
 20
85.4104
 30
0.0
 10
169.9245
 20
85.4104
 30
0.0
 10
169.9245
 20
85.4104
 30
0.0
 10
169.9625
 20
94.057
 30
0.0
 10
169.9625
 20
94.057
 30
0.0
  0
SPLINE
  5
7C
330
1F
100
AcDbEntity
  8
layer 1
 62
     7
100
AcDbSpline
210
0.0
220
0.0
230
1.0
 70
    11
 71
     3
 72
    24
 73
    20
 74
     0
 42
0.0000000001
 43
0.0000000001
 12
1.0
 22
0.0
 32
0.0
 13
1.0
 23
0.0
 33
0.0
 40
0.0
 40
0.0
 40
0.0
 40
0.0
 40
0.1666666666666667
 40
0.1666666666666667
 40
0.1666666666666667
 40
0.1666666666666667
 40
0.3333333333333333
 40
0.3333333333333333
 40
0.3333333333333333
 40
0.3333333333333333
 40
0.5
 40
0.5
 40
0.5
 40
0.5
 40
0.6666666666666666
 40
0.6666666666666666
 40
0.6666666666666666
 40
0.6666666666666666
 40
1.0
 40
1.0
 40
1.0
 40
1.0
 10
138.4596
 20
99.7192
 30
0.0
 10
138.4596
 20
99.7192
 30
0.0
 10
138.4596
 20
73.8289
 30
0.0
 10
138.4596
 20
73.8289
 30
0.0
 10
138.4596
 20
73.8289
 30
0.0
 10
138.4596
 20
73.8289
 30
0.0
 10
142.273
 20
73.8289
 30
0.0
 10
142.273
 20
73.8289
 30
0.0
 10
142.273
 20
73.8289
 30
0.0
 10
142.6876
 20
81.2984
 30
0.0
 10
146.9871
 20
92.3094
 30
0.0
 10
161.1303
 20
95.7589
 30
0.0
 10
161.1303
 20
95.7589
 30
0.0
 10
161.1303
 20
95.7589
 30
0.0
 10
161.0827
 20
99.7418
 30
0.0
 10
161.0827
 20
99.7418
 30
0.0
 10
161.0827
 20
99.7418
 30
0.0
 10
159.3786
 20
99.7418
 30
0.0
 10
138.4596
 20
99.7192
 30
0.0
 10
138.4596
 20
99.7192
 30
0.0
  0
SPLINE
  5
7D
330
1F
100
AcDbEntity
  8
layer 1
 62
     7
100
AcDbSpline
210
0.0
220
0.0
230
1.0
 70
    11
 71
     3
 72
    16
 73
    12
 74
     0
 42
0.0000000001
 43
0.0000000001
 12
1.0
 22
0.0
 32
0.0
 13
1.0
 23
0.0
 33
0.0
 40
0.0
 40
0.0
 40
0.0
 40
0.0
 40
0.25
 40
0.25
 40
0.25
 40
0.25
 40
0.5
 40
0.5
 40
0.5
 40
0.5
 40
1.0
 40
1.0
 40
1.0
 40
1.0
 10
161.1239
 20
73.8289
 30
0.0
 10
161.1239
 20
73.8289
 30
0.0
 10
161.1239
 20
83.8284
 30
0.0
 10
161.1239
 20
83.8284
 30
0.0
 10
161.1239
 20
83.8284
 30
0.0
 10
159.8874
 20
83.4861
 30
0.0
 10
154.47
 20
80.7244
 30
0.0
 10
153.8136
 20
73.8095
 30
0.0
 10
153.8136
 20
73.8095
 30
0.0
 10
155.0469
 20
73.8066
 30
0.0
 10
161.1239
 20
73.8289
 30
0.0
 10
161.1239
 20
73.8289
 30
0.0
  0
SPLINE
  5
7E
330
1F
100
AcDbEntity
  8
layer 1
 62
     7
100
AcDbSpline
210
0.0
220
0.0
230
1.0
 70
    11
 71
     3
 72
    20
 73
    16
 74
     0
 42
0.0000000001
 43
0.0000000001
 12
1.0
 22
0.0
 32
0.0
 13
1.0
 23
0.0
 33
0.0
 40
0.0
 40
0.0
 40
0.0
 40
0.0
 40
0.2
 40
0.2
 40
0.2
 40
0.2
 40
0.4
 40
0.4
 40
0.4
 40
0.4
 40
0.6
 40
0.6
 40
0.6
 40
0.6
 40
1.0
 40
1.0
 40
1.0
 40
1.0
 10
161.1239
 20
94.057
 30
0.0
 10
149.4947
 20
91.154
 30
0.0
 10
144.3949
 20
81.9418
 30
0.0
 10
143.9177
 20
73.8289
 30
0.0
 10
143.9177
 20
73.8289
 30
0.0
 10
143.9177
 20
73.8289
 30
0.0
 10
152.3826
 20
73.8476
 30
0.0
 10
152.3826
 20
73.8476
 30
0.0
 10
152.3826
 20
73.8476
 30
0.0
 10
152.5272
 20
78.3575
 30
0.0
 10
155.308
 20
83.0779
 30
0.0
 10
161.1615
 20
85.4104
 30
0.0
 10
161.1615
 20
85.4104
 30
0.0
 10
161.1615
 20
85.4104
 30
0.0
 10
161.1239
 20
94.057
 30
0.0
 10
161.1239
 20
94.057
 30
0.0
  0
SPLINE
  5
7F
330
1F
100
AcDbEntity
  8
layer 1
 62
     7
100
AcDbSpline
210
0.0
220
0.0
230
1.0
 70
    11
 71
     3
 72
    20
 73
    16
 74
     0
 42
0.0000000001
 43
0.0000000001
 12
1.0
 22
0.0
 32
0.0
 13
1.0
 23
0.0
 33
0.0
 40
0.0
 40
0.0
 40
0.0
 40
0.0
 40
0.2
 40
0.2
 40
0.2
 40
0.2
 40
0.4
 40
0.4
 40
0.4
 40
0.4
 40
0.6
 40
0.6
 40
0.6
 40
0.6
 40
1.0
 40
1.0
 40
1.0
 40
1.0
 10
168.3684
 20
105.8147
 30
0.0
 10
168.3684
 20
105.8147
 30
0.0
 10
168.3996
 20
96.0094
 30
0.0
 10
168.3996
 20
96.0094
 30
0.0
 10
168.3996
 20
96.0094
 30
0.0
 10
166.5506
 20
96.2135
 30
0.0
 10
164.6046
 20
96.2265
 30
0.0
 10
162.9597
 20
96.0409
 30
0.0
 10
162.9597
 20
96.0409
 30
0.0
 10
162.9597
 20
96.0409
 30
0.0
 10
162.8843
 20
105.834
 30
0.0
 10
162.8843
 20
105.834
 30
0.0
 10
162.8843
 20
105.834
 30
0.0
 10
164.8777
 20
105.6299
 30
0.0
 10
166.3023
 20
105.6265
 30
0.0
 10
168.3684
 20
105.8147
 30
0.0
  0
SPLINE
  5
80
330
1F
100
AcDbEntity
  8
layer 1
 62
   250
100
AcDbSpline
210
0.0
220
0.0
230
1.0
 70
    11
 71
     3
 72
    20
 73
    16
 74
     0
 42
0.0000000001
 43
0.0000000001
 12
1.0
 22
0.0
 32
0.0
 13
1.0
 23
0.0
 33
0.0
 40
0.0
 40
0.0
 40
0.0
 40
0.0
 40
0.2
 40
0.2
 40
0.2
 40
0.2
 40
0.4
 40
0.4
 40
0.4
 40
0.4
 40
0.6
 40
0.6
 40
0.6
 40
0.6
 40
1.0
 40
1.0
 40
1.0
 40
1.0
 10
5.9337
 20
64.8407
 30
0.0
 10
5.9337
 20
64.8407
 30
0.0
 10
67.2575
 20
64.8407
 30
0.0
 10
67.2575
 20
64.8407
 30
0.0
 10
67.2575
 20
64.8407
 30
0.0
 10
67.2575
 20
64.8407
 30
0.0
 10
67.2575
 20
-114.9865
 30
0.0
 10
67.2575
 20
-114.9865
 30
0.0
 10
67.2575
 20
-114.9865
 30
0.0
 10
67.2575
 20
-114.9865
 30
0.0
 10
5.9337
 20
-114.9865
 30
0.0
 10
5.9337
 20
-114.9865
 30
0.0
 10
5.9337
 20
-114.9865
 30
0.0
 10
5.9337
 20
-114.9865
 30
0.0
 10
5.9337
 20
64.8407
 30
0.0
 10
5.9337
 20
64.8407
 30
0.0
  0
SPLINE
  5
81
330
1F
100
AcDbEntity
  8
layer 1
 62
   250
100
AcDbSpline
210
0.0
220
0.0
230
1.0
 70
    11
 71
     3
 72
    20
 73
    16
 74
     0
 42
0.0000000001
 43
0.0000000001
 12
1.0
 22
0.0
 32
0.0
 13
1.0
 23
0.0
 33
0.0
 40
0.0
 40
0.0
 40
0.0
 40
0.0
 40
0.2
 40
0.2
 40
0.2
 40
0.2
 40
0.4
 40
0.4
 40
0.4
 40
0.4
 40
0.6
 40
0.6
 40
0.6
 40
0.6
 40
1.0
 40
1.0
 40
1.0
 40
1.0
 10
70.4073
 20
64.8407
 30
0.0
 10
70.4073
 20
64.8407
 30
0.0
 10
131.7311
 20
64.8407
 30
0.0
 10
131.7311
 20
64.8407
 30
0.0
 10
131.7311
 20
64.8407
 30
0.0
 10
131.7311
 20
64.8407
 30
0.0
 10
131.7311
 20
-114.9865
 30
0.0
 10
131.7311
 20
-114.9865
 30
0.0
 10
131.7311
 20
-114.9865
 30
0.0
 10
131.7311
 20
-114.9865
 30
0.0
 10
70.4073
 20
-114.9865
 30
0.0
 10
70.4073
 20
-114.9865
 30
0.0
 10
70.4073
 20
-114.9865
 30
0.0
 10
70.4073
 20
-114.9865
 30
0.0
 10
70.4073
 20
64.8407
 30
0.0
 10
70.4073
 20
64.8407
 30
0.0
  0
SPLINE
  5
82
330
1F
100
AcDbEntity
  8
layer 1
 62
   250
100
AcDbSpline
210
0.0
220
0.0
230
1.0
 70
    11
 71
     3
 72
    20
 73
    16
 74
     0
 42
0.0000000001
 43
0.0000000001
 12
1.0
 22
0.0
 32
0.0
 13
1.0
 23
0.0
 33
0.0
 40
0.0
 40
0.0
 40
0.0
 40
0.0
 40
0.2
 40
0.2
 40
0.2
 40
0.2
 40
0.4
 40
0.4
 40
0.4
 40
0.4
 40
0.6
 40
0.6
 40
0.6
 40
0.6
 40
1.0
 40
1.0
 40
1.0
 40
1.0
 10
134.8809
 20
64.8407
 30
0.0
 10
134.8809
 20
64.8407
 30
0.0
 10
196.2047
 20
64.8407
 30
0.0
 10
196.2047
 20
64.8407
 30
0.0
 10
196.2047
 20
64.8407
 30
0.0
 10
196.2047
 20
64.8407
 30
0.0
 10
196.2047
 20
-114.9865
 30
0.0
 10
196.2047
 20
-114.9865
 30
0.0
 10
196.2047
 20
-114.9865
 30
0.0
 10
196.2047
 20
-114.9865
 30
0.0
 10
134.8809
 20
-114.9865
 30
0.0
 10
134.8809
 20
-114.9865
 30
0.0
 10
134.8809
 20
-114.9865
 30
0.0
 10
134.8809
 20
-114.9865
 30
0.0
 10
134.8809
 20
64.8407
 30
0.0
 10
134.8809
 20
64.8407
 30
0.0
  0
SPLINE
  5
83
330
1F
100
AcDbEntity
  8
layer 1
 62
     7
100
AcDbSpline
210
0.0
220
0.0
230
1.0
 70
    11
 71
     3
 72
    20
 73
    16
 74
     0
 42
0.0000000001
 43
0.0000000001
 12
1.0
 22
0.0
 32
0.0
 13
1.0
 23
0.0
 33
0.0
 40
0.0
 40
0.0
 40
0.0
 40
0.0
 40
0.2
 40
0.2
 40
0.2
 40
0.2
 40
0.4
 40
0.4
 40
0.4
 40
0.4
 40
0.6
 40
0.6
 40
0.6
 40
0.6
 40
1.0
 40
1.0
 40
1.0
 40
1.0
 10
26.2469
 20
47.8464
 30
0.0
 10
26.2469
 20
45.7956
 30
0.0
 10
24.586
 20
44.1348
 30
0.0
 10
22.5351
 20
44.1348
 30
0.0
 10
22.5351
 20
44.1348
 30
0.0
 10
20.4879
 20
44.1348
 30
0.0
 10
18.8267
 20
45.7956
 30
0.0
 10
18.8267
 20
47.8462
 30
0.0
 10
18.8267
 20
47.8462
 30
0.0
 10
18.8267
 20
49.8939
 30
0.0
 10
20.4877
 20
51.5546
 30
0.0
 10
22.5351
 20
51.5546
 30
0.0
 10
22.5351
 20
51.5546
 30
0.0
 10
24.586
 20
51.5546
 30
0.0
 10
26.2469
 20
49.8939
 30
0.0
 10
26.2469
 20
47.8464
 30
0.0
  0
SPLINE
  5
84
330
1F
100
AcDbEntity
  8
layer 1
 62
     7
100
AcDbSpline
210
0.0
220
0.0
230
1.0
 70
    11
 71
     3
 72
    24
 73
    20
 74
     0
 42
0.0000000001
 43
0.0000000001
 12
1.0
 22
0.0
 32
0.0
 13
1.0
 23
0.0
 33
0.0
 40
0.0
 40
0.0
 40
0.0
 40
0.0
 40
0.1666666666666667
 40
0.1666666666666667
 40
0.1666666666666667
 40
0.1666666666666667
 40
0.3333333333333333
 40
0.3333333333333333
 40
0.3333333333333333
 40
0.3333333333333333
 40
0.5
 40
0.5
 40
0.5
 40
0.5
 40
0.6666666666666666
 40
0.6666666666666666
 40
0.6666666666666666
 40
0.6666666666666666
 40
1.0
 40
1.0
 40
1.0
 40
1.0
 10
9.4625
 20
60.8057
 30
0.0
 10
9.4625
 20
60.8057
 30
0.0
 10
9.4625
 20
48.7258
 30
0.0
 10
9.4625
 20
48.7258
 30
0.0
 10
9.4625
 20
48.7258
 30
0.0
 10
9.4625
 20
48.7258
 30
0.0
 10
17.1154
 20
48.7258
 30
0.0
 10
17.1154
 20
48.7258
 30
0.0
 10
17.1154
 20
48.7258
 30
0.0
 10
17.457
 20
51.0868
 30
0.0
 10
19.1596
 20
52.7131
 30
0.0
 10
21.6115
 20
53.3448
 30
0.0
 10
21.6115
 20
53.3448
 30
0.0
 10
21.6115
 20
53.3448
 30
0.0
 10
21.6405
 20
60.8242
 30
0.0
 10
21.6405
 20
60.8242
 30
0.0
 10
21.6405
 20
60.8242
 30
0.0
 10
19.9355
 20
60.8274
 30
0.0
 10
9.4625
 20
60.8057
 30
0.0
 10
9.4625
 20
60.8057
 30
0.0
  0
SPLINE
  5
85
330
1F
100
AcDbEntity
  8
layer 1
 62
     7
100
AcDbSpline
210
0.0
220
0.0
230
1.0
 70
    11
 71
     3
 72
    24
 73
    20
 74
     0
 42
0.0000000001
 43
0.0000000001
 12
1.0
 22
0.0
 32
0.0
 13
1.0
 23
0.0
 33
0.0
 40
0.0
 40
0.0
 40
0.0
 40
0.0
 40
0.1666666666666667
 40
0.1666666666666667
 40
0.1666666666666667
 40
0.1666666666666667
 40
0.3333333333333333
 40
0.3333333333333333
 40
0.3333333333333333
 40
0.3333333333333333
 40
0.5
 40
0.5
 40
0.5
 40
0.5
 40
0.6666666666666666
 40
0.6666666666666666
 40
0.6666666666666666
 40
0.6666666666666666
 40
1.0
 40
1.0
 40
1.0
 40
1.0
 10
9.4625
 20
34.9183
 30
0.0
 10
9.4625
 20
34.9183
 30
0.0
 10
9.4625
 20
46.9981
 30
0.0
 10
9.4625
 20
46.9981
 30
0.0
 10
9.4625
 20
46.9981
 30
0.0
 10
9.4625
 20
46.9981
 30
0.0
 10
17.1154
 20
46.9981
 30
0.0
 10
17.1154
 20
46.9981
 30
0.0
 10
17.1154
 20
46.9981
 30
0.0
 10
17.457
 20
44.6373
 30
0.0
 10
19.1596
 20
43.0101
 30
0.0
 10
21.6115
 20
42.3791
 30
0.0
 10
21.6115
 20
42.3791
 30
0.0
 10
21.6115
 20
42.3791
 30
0.0
 10
21.6405
 20
34.899
 30
0.0
 10
21.6405
 20
34.899
 30
0.0
 10
21.6405
 20
34.899
 30
0.0
 10
19.9355
 20
34.8958
 30
0.0
 10
9.4625
 20
34.9183
 30
0.0
 10
9.4625
 20
34.9183
 30
0.0
  0
SPLINE
  5
86
330
1F
100
AcDbEntity
  8
layer 1
 62
     7
100
AcDbSpline
210
0.0
220
0.0
230
1.0
 70
    11
 71
     3
 72
    24
 73
    20
 74
     0
 42
0.0000000001
 43
0.0000000001
 12
1.0
 22
0.0
 32
0.0
 13
1.0
 23
0.0
 33
0.0
 40
0.0
 40
0.0
 40
0.0
 40
0.0
 40
0.1666666666666667
 40
0.1666666666666667
 40
0.1666666666666667
 40
0.1666666666666667
 40
0.3333333333333333
 40
0.3333333333333333
 40
0.3333333333333333
 40
0.3333333333333333
 40
0.5
 40
0.5
 40
0.5
 40
0.5
 40
0.6666666666666666
 40
0.6666666666666666
 40
0.6666666666666666
 40
0.6666666666666666
 40
1.0
 40
1.0
 40
1.0
 40
1.0
 10
35.5106
 20
60.8057
 30
0.0
 10
35.5106
 20
60.8057
 30
0.0
 10
35.5106
 20
48.7258
 30
0.0
 10
35.5106
 20
48.7258
 30
0.0
 10
35.5106
 20
48.7258
 30
0.0
 10
35.5106
 20
48.7258
 30
0.0
 10
27.8577
 20
48.7258
 30
0.0
 10
27.8577
 20
48.7258
 30
0.0
 10
27.8577
 20
48.7258
 30
0.0
 10
27.5187
 20
51.0868
 30
0.0
 10
25.8133
 20
52.7131
 30
0.0
 10
23.3607
 20
53.3448
 30
0.0
 10
23.3607
 20
53.3448
 30
0.0
 10
23.3607
 20
53.3448
 30
0.0
 10
23.3327
 20
60.8242
 30
0.0
 10
23.3327
 20
60.8242
 30
0.0
 10
23.3327
 20
60.8242
 30
0.0
 10
25.0376
 20
60.8274
 30
0.0
 10
35.5106
 20
60.8057
 30
0.0
 10
35.5106
 20
60.8057
 30
0.0
  0
SPLINE
  5
87
330
1F
100
AcDbEntity
  8
layer 1
 62
     7
100
AcDbSpline
210
0.0
220
0.0
230
1.0
 70
    11
 71
     3
 72
    24
 73
    20
 74
     0
 42
0.0000000001
 43
0.0000000001
 12
1.0
 22
0.0
 32
0.0
 13
1.0
 23
0.0
 33
0.0
 40
0.0
 40
0.0
 40
0.0
 40
0.0
 40
0.1666666666666667
 40
0.1666666666666667
 40
0.1666666666666667
 40
0.1666666666666667
 40
0.3333333333333333
 40
0.3333333333333333
 40
0.3333333333333333
 40
0.3333333333333333
 40
0.5
 40
0.5
 40
0.5
 40
0.5
 40
0.6666666666666666
 40
0.6666666666666666
 40
0.6666666666666666
 40
0.6666666666666666
 40
1.0
 40
1.0
 40
1.0
 40
1.0
 10
35.5106
 20
34.9183
 30
0.0
 10
35.5106
 20
34.9183
 30
0.0
 10
35.5106
 20
46.9981
 30
0.0
 10
35.5106
 20
46.9981
 30
0.0
 10
35.5106
 20
46.9981
 30
0.0
 10
35.5106
 20
46.9981
 30
0.0
 10
27.8577
 20
46.9981
 30
0.0
 10
27.8577
 20
46.9981
 30
0.0
 10
27.8577
 20
46.9981
 30
0.0
 10
27.5187
 20
44.6373
 30
0.0
 10
25.8133
 20
43.0101
 30
0.0
 10
23.3607
 20
42.3791
 30
0.0
 10
23.3607
 20
42.3791
 30
0.0
 10
23.3607
 20
42.3791
 30
0.0
 10
23.3327
 20
34.899
 30
0.0
 10
23.3327
 20
34.899
 30
0.0
 10
23.3327
 20
34.899
 30
0.0
 10
25.0376
 20
34.8958
 30
0.0
 10
35.5106
 20
34.9183
 30
0.0
 10
35.5106
 20
34.9183
 30
0.0
  0
SPLINE
  5
88
330
1F
100
AcDbEntity
  8
layer 1
 62
     7
100
AcDbSpline
210
0.0
220
0.0
230
1.0
 70
    11
 71
     3
 72
    20
 73
    16
 74
     0
 42
0.0000000001
 43
0.0000000001
 12
1.0
 22
0.0
 32
0.0
 13
1.0
 23
0.0
 33
0.0
 40
0.0
 40
0.0
 40
0.0
 40
0.0
 40
0.2
 40
0.2
 40
0.2
 40
0.2
 40
0.4
 40
0.4
 40
0.4
 40
0.4
 40
0.6
 40
0.6
 40
0.6
 40
0.6
 40
1.0
 40
1.0
 40
1.0
 40
1.0
 10
54.3328
 20
47.8464
 30
0.0
 10
54.3328
 20
45.7956
 30
0.0
 10
52.671
 20
44.1348
 30
0.0
 10
50.6203
 20
44.1348
 30
0.0
 10
50.6203
 20
44.1348
 30
0.0
 10
48.5738
 20
44.1348
 30
0.0
 10
46.9119
 20
45.7956
 30
0.0
 10
46.9119
 20
47.8462
 30
0.0
 10
46.9119
 20
47.8462
 30
0.0
 10
46.9119
 20
49.8939
 30
0.0
 10
48.5736
 20
51.5546
 30
0.0
 10
50.6203
 20
51.5546
 30
0.0
 10
50.6203
 20
51.5546
 30
0.0
 10
52.671
 20
51.5546
 30
0.0
 10
54.3328
 20
49.8939
 30
0.0
 10
54.3328
 20
47.8464
 30
0.0
  0
SPLINE
  5
89
330
1F
100
AcDbEntity
  8
layer 1
 62
     7
100
AcDbSpline
210
0.0
220
0.0
230
1.0
 70
    11
 71
     3
 72
    24
 73
    20
 74
     0
 42
0.0000000001
 43
0.0000000001
 12
1.0
 22
0.0
 32
0.0
 13
1.0
 23
0.0
 33
0.0
 40
0.0
 40
0.0
 40
0.0
 40
0.0
 40
0.1666666666666667
 40
0.1666666666666667
 40
0.1666666666666667
 40
0.1666666666666667
 40
0.3333333333333333
 40
0.3333333333333333
 40
0.3333333333333333
 40
0.3333333333333333
 40
0.5
 40
0.5
 40
0.5
 40
0.5
 40
0.6666666666666666
 40
0.6666666666666666
 40
0.6666666666666666
 40
0.6666666666666666
 40
1.0
 40
1.0
 40
1.0
 40
1.0
 10
37.5485
 20
60.8057
 30
0.0
 10
37.5485
 20
60.8057
 30
0.0
 10
37.5485
 20
48.7258
 30
0.0
 10
37.5485
 20
48.7258
 30
0.0
 10
37.5485
 20
48.7258
 30
0.0
 10
37.5485
 20
48.7258
 30
0.0
 10
45.2009
 20
48.7258
 30
0.0
 10
45.2009
 20
48.7258
 30
0.0
 10
45.2009
 20
48.7258
 30
0.0
 10
45.5399
 20
51.0868
 30
0.0
 10
47.2449
 20
52.7131
 30
0.0
 10
49.6975
 20
53.3448
 30
0.0
 10
49.6975
 20
53.3448
 30
0.0
 10
49.6975
 20
53.3448
 30
0.0
 10
49.7257
 20
60.8242
 30
0.0
 10
49.7257
 20
60.8242
 30
0.0
 10
49.7257
 20
60.8242
 30
0.0
 10
48.0208
 20
60.8274
 30
0.0
 10
37.5485
 20
60.8057
 30
0.0
 10
37.5485
 20
60.8057
 30
0.0
  0
SPLINE
  5
8A
330
1F
100
AcDbEntity
  8
layer 1
 62
     7
100
AcDbSpline
210
0.0
220
0.0
230
1.0
 70
    11
 71
     3
 72
    24
 73
    20
 74
     0
 42
0.0000000001
 43
0.0000000001
 12
1.0
 22
0.0
 32
0.0
 13
1.0
 23
0.0
 33
0.0
 40
0.0
 40
0.0
 40
0.0
 40
0.0
 40
0.1666666666666667
 40
0.1666666666666667
 40
0.1666666666666667
 40
0.1666666666666667
 40
0.3333333333333333
 40
0.3333333333333333
 40
0.3333333333333333
 40
0.3333333333333333
 40
0.5
 40
0.5
 40
0.5
 40
0.5
 40
0.6666666666666666
 40
0.6666666666666666
 40
0.6666666666666666
 40
0.6666666666666666
 40
1.0
 40
1.0
 40
1.0
 40
1.0
 10
37.5485
 20
34.9183
 30
0.0
 10
37.5485
 20
34.9183
 30
0.0
 10
37.5485
 20
46.9981
 30
0.0
 10
37.5485
 20
46.9981
 30
0.0
 10
37.5485
 20
46.9981
 30
0.0
 10
37.5485
 20
46.9981
 30
0.0
 10
45.2009
 20
46.9981
 30
0.0
 10
45.2009
 20
46.9981
 30
0.0
 10
45.2009
 20
46.9981
 30
0.0
 10
45.5399
 20
44.6373
 30
0.0
 10
47.2449
 20
43.0101
 30
0.0
 10
49.6975
 20
42.3791
 30
0.0
 10
49.6975
 20
42.3791
 30
0.0
 10
49.6975
 20
42.3791
 30
0.0
 10
49.7257
 20
34.899
 30
0.0
 10
49.7257
 20
34.899
 30
0.0
 10
49.7257
 20
34.899
 30
0.0
 10
48.0208
 20
34.8958
 30
0.0
 10
37.5485
 20
34.9183
 30
0.0
 10
37.5485
 20
34.9183
 30
0.0
  0
SPLINE
  5
8B
330
1F
100
AcDbEntity
  8
layer 1
 62
     7
100
AcDbSpline
210
0.0
220
0.0
230
1.0
 70
    11
 71
     3
 72
    24
 73
    20
 74
     0
 42
0.0000000001
 43
0.0000000001
 12
1.0
 22
0.0
 32
0.0
 13
1.0
 23
0.0
 33
0.0
 40
0.0
 40
0.0
 40
0.0
 40
0.0
 40
0.1666666666666667
 40
0.1666666666666667
 40
0.1666666666666667
 40
0.1666666666666667
 40
0.3333333333333333
 40
0.3333333333333333
 40
0.3333333333333333
 40
0.3333333333333333
 40
0.5
 40
0.5
 40
0.5
 40
0.5
 40
0.6666666666666666
 40
0.6666666666666666
 40
0.6666666666666666
 40
0.6666666666666666
 40
1.0
 40
1.0
 40
1.0
 40
1.0
 10
63.5958
 20
60.8057
 30
0.0
 10
63.5958
 20
60.8057
 30
0.0
 10
63.5958
 20
48.7258
 30
0.0
 10
63.5958
 20
48.7258
 30
0.0
 10
63.5958
 20
48.7258
 30
0.0
 10
63.5958
 20
48.7258
 30
0.0
 10
55.943
 20
48.7258
 30
0.0
 10
55.943
 20
48.7258
 30
0.0
 10
55.943
 20
48.7258
 30
0.0
 10
55.6012
 20
51.0868
 30
0.0
 10
53.8962
 20
52.7131
 30
0.0
 10
51.4436
 20
53.3448
 30
0.0
 10
51.4436
 20
53.3448
 30
0.0
 10
51.4436
 20
53.3448
 30
0.0
 10
51.4188
 20
60.8242
 30
0.0
 10
51.4188
 20
60.8242
 30
0.0
 10
51.4188
 20
60.8242
 30
0.0
 10
53.1237
 20
60.8274
 30
0.0
 10
63.5958
 20
60.8057
 30
0.0
 10
63.5958
 20
60.8057
 30
0.0
  0
SPLINE
  5
8C
330
1F
100
AcDbEntity
  8
layer 1
 62
     7
100
AcDbSpline
210
0.0
220
0.0
230
1.0
 70
    11
 71
     3
 72
    24
 73
    20
 74
     0
 42
0.0000000001
 43
0.0000000001
 12
1.0
 22
0.0
 32
0.0
 13
1.0
 23
0.0
 33
0.0
 40
0.0
 40
0.0
 40
0.0
 40
0.0
 40
0.1666666666666667
 40
0.1666666666666667
 40
0.1666666666666667
 40
0.1666666666666667
 40
0.3333333333333333
 40
0.3333333333333333
 40
0.3333333333333333
 40
0.3333333333333333
 40
0.5
 40
0.5
 40
0.5
 40
0.5
 40
0.6666666666666666
 40
0.6666666666666666
 40
0.6666666666666666
 40
0.6666666666666666
 40
1.0
 40
1.0
 40
1.0
 40
1.0
 10
63.5958
 20
34.9183
 30
0.0
 10
63.5958
 20
34.9183
 30
0.0
 10
63.5958
 20
46.9981
 30
0.0
 10
63.5958
 20
46.9981
 30
0.0
 10
63.5958
 20
46.9981
 30
0.0
 10
63.5958
 20
46.9981
 30
0.0
 10
55.943
 20
46.9981
 30
0.0
 10
55.943
 20
46.9981
 30
0.0
 10
55.943
 20
46.9981
 30
0.0
 10
55.6012
 20
44.6373
 30
0.0
 10
53.8962
 20
43.0101
 30
0.0
 10
51.4436
 20
42.3791
 30
0.0
 10
51.4436
 20
42.3791
 30
0.0
 10
51.4436
 20
42.3791
 30
0.0
 10
51.4188
 20
34.899
 30
0.0
 10
51.4188
 20
34.899
 30
0.0
 10
51.4188
 20
34.899
 30
0.0
 10
53.1237
 20
34.8958
 30
0.0
 10
63.5958
 20
34.9183
 30
0.0
 10
63.5958
 20
34.9183
 30
0.0
  0
SPLINE
  5
8D
330
1F
100
AcDbEntity
  8
layer 1
 62
     7
100
AcDbSpline
210
0.0
220
0.0
230
1.0
 70
    11
 71
     3
 72
    20
 73
    16
 74
     0
 42
0.0000000001
 43
0.0000000001
 12
1.0
 22
0.0
 32
0.0
 13
1.0
 23
0.0
 33
0.0
 40
0.0
 40
0.0
 40
0.0
 40
0.0
 40
0.2
 40
0.2
 40
0.2
 40
0.2
 40
0.4
 40
0.4
 40
0.4
 40
0.4
 40
0.6
 40
0.6
 40
0.6
 40
0.6
 40
1.0
 40
1.0
 40
1.0
 40
1.0
 10
26.2469
 20
19.8833
 30
0.0
 10
26.2469
 20
17.8359
 30
0.0
 10
24.586
 20
16.174
 30
0.0
 10
22.5351
 20
16.174
 30
0.0
 10
22.5351
 20
16.174
 30
0.0
 10
20.4879
 20
16.1743
 30
0.0
 10
18.8267
 20
17.8357
 30
0.0
 10
18.8267
 20
19.8833
 30
0.0
 10
18.8267
 20
19.8833
 30
0.0
 10
18.8267
 20
21.9333
 30
0.0
 10
20.4877
 20
23.5947
 30
0.0
 10
22.5351
 20
23.5947
 30
0.0
 10
22.5351
 20
23.5947
 30
0.0
 10
24.586
 20
23.5949
 30
0.0
 10
26.2469
 20
21.933
 30
0.0
 10
26.2469
 20
19.8833
 30
0.0
  0
SPLINE
  5
8E
330
1F
100
AcDbEntity
  8
layer 1
 62
     7
100
AcDbSpline
210
0.0
220
0.0
230
1.0
 70
    11
 71
     3
 72
    24
 73
    20
 74
     0
 42
0.0000000001
 43
0.0000000001
 12
1.0
 22
0.0
 32
0.0
 13
1.0
 23
0.0
 33
0.0
 40
0.0
 40
0.0
 40
0.0
 40
0.0
 40
0.1666666666666667
 40
0.1666666666666667
 40
0.1666666666666667
 40
0.1666666666666667
 40
0.3333333333333333
 40
0.3333333333333333
 40
0.3333333333333333
 40
0.3333333333333333
 40
0.5
 40
0.5
 40
0.5
 40
0.5
 40
0.6666666666666666
 40
0.6666666666666666
 40
0.6666666666666666
 40
0.6666666666666666
 40
1.0
 40
1.0
 40
1.0
 40
1.0
 10
9.4625
 20
32.8458
 30
0.0
 10
9.4625
 20
32.8458
 30
0.0
 10
9.4625
 20
20.7652
 30
0.0
 10
9.4625
 20
20.7652
 30
0.0
 10
9.4625
 20
20.7652
 30
0.0
 10
9.4625
 20
20.7652
 30
0.0
 10
17.1154
 20
20.7652
 30
0.0
 10
17.1154
 20
20.7652
 30
0.0
 10
17.1154
 20
20.7652
 30
0.0
 10
17.457
 20
23.1237
 30
0.0
 10
19.1596
 20
24.75
 30
0.0
 10
21.6115
 20
25.381
 30
0.0
 10
21.6115
 20
25.381
 30
0.0
 10
21.6115
 20
25.381
 30
0.0
 10
21.6405
 20
32.8643
 30
0.0
 10
21.6405
 20
32.8643
 30
0.0
 10
21.6405
 20
32.8643
 30
0.0
 10
19.9355
 20
32.8675
 30
0.0
 10
9.4625
 20
32.8458
 30
0.0
 10
9.4625
 20
32.8458
 30
0.0
  0
SPLINE
  5
8F
330
1F
100
AcDbEntity
  8
layer 1
 62
     7
100
AcDbSpline
210
0.0
220
0.0
230
1.0
 70
    11
 71
     3
 72
    24
 73
    20
 74
     0
 42
0.0000000001
 43
0.0000000001
 12
1.0
 22
0.0
 32
0.0
 13
1.0
 23
0.0
 33
0.0
 40
0.0
 40
0.0
 40
0.0
 40
0.0
 40
0.1666666666666667
 40
0.1666666666666667
 40
0.1666666666666667
 40
0.1666666666666667
 40
0.3333333333333333
 40
0.3333333333333333
 40
0.3333333333333333
 40
0.3333333333333333
 40
0.5
 40
0.5
 40
0.5
 40
0.5
 40
0.6666666666666666
 40
0.6666666666666666
 40
0.6666666666666666
 40
0.6666666666666666
 40
1.0
 40
1.0
 40
1.0
 40
1.0
 10
9.4625
 20
6.9578
 30
0.0
 10
9.4625
 20
6.9578
 30
0.0
 10
9.4625
 20
19.0352
 30
0.0
 10
9.4625
 20
19.0352
 30
0.0
 10
9.4625
 20
19.0352
 30
0.0
 10
9.4625
 20
19.0352
 30
0.0
 10
17.1154
 20
19.0352
 30
0.0
 10
17.1154
 20
19.0352
 30
0.0
 10
17.1154
 20
19.0352
 30
0.0
 10
17.457
 20
16.6765
 30
0.0
 10
19.1596
 20
15.0504
 30
0.0
 10
21.6115
 20
14.4192
 30
0.0
 10
21.6115
 20
14.4192
 30
0.0
 10
21.6115
 20
14.4192
 30
0.0
 10
21.6405
 20
6.9359
 30
0.0
 10
21.6405
 20
6.9359
 30
0.0
 10
21.6405
 20
6.9359
 30
0.0
 10
19.9355
 20
6.9359
 30
0.0
 10
9.4625
 20
6.9578
 30
0.0
 10
9.4625
 20
6.9578
 30
0.0
  0
SPLINE
  5
90
330
1F
100
AcDbEntity
  8
layer 1
 62
     7
100
AcDbSpline
210
0.0
220
0.0
230
1.0
 70
    11
 71
     3
 72
    24
 73
    20
 74
     0
 42
0.0000000001
 43
0.0000000001
 12
1.0
 22
0.0
 32
0.0
 13
1.0
 23
0.0
 33
0.0
 40
0.0
 40
0.0
 40
0.0
 40
0.0
 40
0.1666666666666667
 40
0.1666666666666667
 40
0.1666666666666667
 40
0.1666666666666667
 40
0.3333333333333333
 40
0.3333333333333333
 40
0.3333333333333333
 40
0.3333333333333333
 40
0.5
 40
0.5
 40
0.5
 40
0.5
 40
0.6666666666666666
 40
0.6666666666666666
 40
0.6666666666666666
 40
0.6666666666666666
 40
1.0
 40
1.0
 40
1.0
 40
1.0
 10
35.5106
 20
32.8458
 30
0.0
 10
35.5106
 20
32.8458
 30
0.0
 10
35.5106
 20
20.7652
 30
0.0
 10
35.5106
 20
20.7652
 30
0.0
 10
35.5106
 20
20.7652
 30
0.0
 10
35.5106
 20
20.7652
 30
0.0
 10
27.8577
 20
20.7652
 30
0.0
 10
27.8577
 20
20.7652
 30
0.0
 10
27.8577
 20
20.7652
 30
0.0
 10
27.5187
 20
23.1237
 30
0.0
 10
25.8133
 20
24.75
 30
0.0
 10
23.3607
 20
25.381
 30
0.0
 10
23.3607
 20
25.381
 30
0.0
 10
23.3607
 20
25.381
 30
0.0
 10
23.3327
 20
32.8643
 30
0.0
 10
23.3327
 20
32.8643
 30
0.0
 10
23.3327
 20
32.8643
 30
0.0
 10
25.0376
 20
32.8675
 30
0.0
 10
35.5106
 20
32.8458
 30
0.0
 10
35.5106
 20
32.8458
 30
0.0
  0
SPLINE
  5
91
330
1F
100
AcDbEntity
  8
layer 1
 62
     7
100
AcDbSpline
210
0.0
220
0.0
230
1.0
 70
    11
 71
     3
 72
    24
 73
    20
 74
     0
 42
0.0000000001
 43
0.0000000001
 12
1.0
 22
0.0
 32
0.0
 13
1.0
 23
0.0
 33
0.0
 40
0.0
 40
0.0
 40
0.0
 40
0.0
 40
0.1666666666666667
 40
0.1666666666666667
 40
0.1666666666666667
 40
0.1666666666666667
 40
0.3333333333333333
 40
0.3333333333333333
 40
0.3333333333333333
 40
0.3333333333333333
 40
0.5
 40
0.5
 40
0.5
 40
0.5
 40
0.6666666666666666
 40
0.6666666666666666
 40
0.6666666666666666
 40
0.6666666666666666
 40
1.0
 40
1.0
 40
1.0
 40
1.0
 10
35.5106
 20
6.9578
 30
0.0
 10
35.5106
 20
6.9578
 30
0.0
 10
35.5106
 20
19.0352
 30
0.0
 10
35.5106
 20
19.0352
 30
0.0
 10
35.5106
 20
19.0352
 30
0.0
 10
35.5106
 20
19.0352
 30
0.0
 10
27.8577
 20
19.0352
 30
0.0
 10
27.8577
 20
19.0352
 30
0.0
 10
27.8577
 20
19.0352
 30
0.0
 10
27.5187
 20
16.6765
 30
0.0
 10
25.8133
 20
15.0504
 30
0.0
 10
23.3607
 20
14.4192
 30
0.0
 10
23.3607
 20
14.4192
 30
0.0
 10
23.3607
 20
14.4192
 30
0.0
 10
23.3327
 20
6.9359
 30
0.0
 10
23.3327
 20
6.9359
 30
0.0
 10
23.3327
 20
6.9359
 30
0.0
 10
25.0376
 20
6.9359
 30
0.0
 10
35.5106
 20
6.9578
 30
0.0
 10
35.5106
 20
6.9578
 30
0.0
  0
SPLINE
  5
92
330
1F
100
AcDbEntity
  8
layer 1
 62
     7
100
AcDbSpline
210
0.0
220
0.0
230
1.0
 70
    11
 71
     3
 72
    20
 73
    16
 74
     0
 42
0.0000000001
 43
0.0000000001
 12
1.0
 22
0.0
 32
0.0
 13
1.0
 23
0.0
 33
0.0
 40
0.0
 40
0.0
 40
0.0
 40
0.0
 40
0.2
 40
0.2
 40
0.2
 40
0.2
 40
0.4
 40
0.4
 40
0.4
 40
0.4
 40
0.6
 40
0.6
 40
0.6
 40
0.6
 40
1.0
 40
1.0
 40
1.0
 40
1.0
 10
54.3328
 20
19.8833
 30
0.0
 10
54.3328
 20
17.8359
 30
0.0
 10
52.671
 20
16.174
 30
0.0
 10
50.6203
 20
16.174
 30
0.0
 10
50.6203
 20
16.174
 30
0.0
 10
48.5738
 20
16.1743
 30
0.0
 10
46.9119
 20
17.8357
 30
0.0
 10
46.9119
 20
19.8833
 30
0.0
 10
46.9119
 20
19.8833
 30
0.0
 10
46.9119
 20
21.9333
 30
0.0
 10
48.5736
 20
23.5947
 30
0.0
 10
50.6203
 20
23.5947
 30
0.0
 10
50.6203
 20
23.5947
 30
0.0
 10
52.671
 20
23.5949
 30
0.0
 10
54.3328
 20
21.933
 30
0.0
 10
54.3328
 20
19.8833
 30
0.0
  0
SPLINE
  5
93
330
1F
100
AcDbEntity
  8
layer 1
 62
     7
100
AcDbSpline
210
0.0
220
0.0
230
1.0
 70
    11
 71
     3
 72
    24
 73
    20
 74
     0
 42
0.0000000001
 43
0.0000000001
 12
1.0
 22
0.0
 32
0.0
 13
1.0
 23
0.0
 33
0.0
 40
0.0
 40
0.0
 40
0.0
 40
0.0
 40
0.1666666666666667
 40
0.1666666666666667
 40
0.1666666666666667
 40
0.1666666666666667
 40
0.3333333333333333
 40
0.3333333333333333
 40
0.3333333333333333
 40
0.3333333333333333
 40
0.5
 40
0.5
 40
0.5
 40
0.5
 40
0.6666666666666666
 40
0.6666666666666666
 40
0.6666666666666666
 40
0.6666666666666666
 40
1.0
 40
1.0
 40
1.0
 40
1.0
 10
37.5485
 20
32.8458
 30
0.0
 10
37.5485
 20
32.8458
 30
0.0
 10
37.5485
 20
20.7652
 30
0.0
 10
37.5485
 20
20.7652
 30
0.0
 10
37.5485
 20
20.7652
 30
0.0
 10
37.5485
 20
20.7652
 30
0.0
 10
45.2009
 20
20.7652
 30
0.0
 10
45.2009
 20
20.7652
 30
0.0
 10
45.2009
 20
20.7652
 30
0.0
 10
45.5399
 20
23.1237
 30
0.0
 10
47.2449
 20
24.75
 30
0.0
 10
49.6975
 20
25.381
 30
0.0
 10
49.6975
 20
25.381
 30
0.0
 10
49.6975
 20
25.381
 30
0.0
 10
49.7257
 20
32.8643
 30
0.0
 10
49.7257
 20
32.8643
 30
0.0
 10
49.7257
 20
32.8643
 30
0.0
 10
48.0208
 20
32.8675
 30
0.0
 10
37.5485
 20
32.8458
 30
0.0
 10
37.5485
 20
32.8458
 30
0.0
  0
SPLINE
  5
94
330
1F
100
AcDbEntity
  8
layer 1
 62
     7
100
AcDbSpline
210
0.0
220
0.0
230
1.0
 70
    11
 71
     3
 72
    24
 73
    20
 74
     0
 42
0.0000000001
 43
0.0000000001
 12
1.0
 22
0.0
 32
0.0
 13
1.0
 23
0.0
 33
0.0
 40
0.0
 40
0.0
 40
0.0
 40
0.0
 40
0.1666666666666667
 40
0.1666666666666667
 40
0.1666666666666667
 40
0.1666666666666667
 40
0.3333333333333333
 40
0.3333333333333333
 40
0.3333333333333333
 40
0.3333333333333333
 40
0.5
 40
0.5
 40
0.5
 40
0.5
 40
0.6666666666666666
 40
0.6666666666666666
 40
0.6666666666666666
 40
0.6666666666666666
 40
1.0
 40
1.0
 40
1.0
 40
1.0
 10
37.5485
 20
6.9578
 30
0.0
 10
37.5485
 20
6.9578
 30
0.0
 10
37.5485
 20
19.0352
 30
0.0
 10
37.5485
 20
19.0352
 30
0.0
 10
37.5485
 20
19.0352
 30
0.0
 10
37.5485
 20
19.0352
 30
0.0
 10
45.2009
 20
19.0352
 30
0.0
 10
45.2009
 20
19.0352
 30
0.0
 10
45.2009
 20
19.0352
 30
0.0
 10
45.5399
 20
16.6765
 30
0.0
 10
47.2449
 20
15.0504
 30
0.0
 10
49.6975
 20
14.4192
 30
0.0
 10
49.6975
 20
14.4192
 30
0.0
 10
49.6975
 20
14.4192
 30
0.0
 10
49.7257
 20
6.9359
 30
0.0
 10
49.7257
 20
6.9359
 30
0.0
 10
49.7257
 20
6.9359
 30
0.0
 10
48.0208
 20
6.9359
 30
0.0
 10
37.5485
 20
6.9578
 30
0.0
 10
37.5485
 20
6.9578
 30
0.0
  0
SPLINE
  5
95
330
1F
100
AcDbEntity
  8
layer 1
 62
     7
100
AcDbSpline
210
0.0
220
0.0
230
1.0
 70
    11
 71
     3
 72
    24
 73
    20
 74
     0
 42
0.0000000001
 43
0.0000000001
 12
1.0
 22
0.0
 32
0.0
 13
1.0
 23
0.0
 33
0.0
 40
0.0
 40
0.0
 40
0.0
 40
0.0
 40
0.1666666666666667
 40
0.1666666666666667
 40
0.1666666666666667
 40
0.1666666666666667
 40
0.3333333333333333
 40
0.3333333333333333
 40
0.3333333333333333
 40
0.3333333333333333
 40
0.5
 40
0.5
 40
0.5
 40
0.5
 40
0.6666666666666666
 40
0.6666666666666666
 40
0.6666666666666666
 40
0.6666666666666666
 40
1.0
 40
1.0
 40
1.0
 40
1.0
 10
63.5958
 20
32.8458
 30
0.0
 10
63.5958
 20
32.8458
 30
0.0
 10
63.5958
 20
20.7652
 30
0.0
 10
63.5958
 20
20.7652
 30
0.0
 10
63.5958
 20
20.7652
 30
0.0
 10
63.5958
 20
20.7652
 30
0.0
 10
55.943
 20
20.7652
 30
0.0
 10
55.943
 20
20.7652
 30
0.0
 10
55.943
 20
20.7652
 30
0.0
 10
55.6012
 20
23.1237
 30
0.0
 10
53.8962
 20
24.75
 30
0.0
 10
51.4436
 20
25.381
 30
0.0
 10
51.4436
 20
25.381
 30
0.0
 10
51.4436
 20
25.381
 30
0.0
 10
51.4188
 20
32.8643
 30
0.0
 10
51.4188
 20
32.8643
 30
0.0
 10
51.4188
 20
32.8643
 30
0.0
 10
53.1237
 20
32.8675
 30
0.0
 10
63.5958
 20
32.8458
 30
0.0
 10
63.5958
 20
32.8458
 30
0.0
  0
SPLINE
  5
96
330
1F
100
AcDbEntity
  8
layer 1
 62
     7
100
AcDbSpline
210
0.0
220
0.0
230
1.0
 70
    11
 71
     3
 72
    24
 73
    20
 74
     0
 42
0.0000000001
 43
0.0000000001
 12
1.0
 22
0.0
 32
0.0
 13
1.0
 23
0.0
 33
0.0
 40
0.0
 40
0.0
 40
0.0
 40
0.0
 40
0.1666666666666667
 40
0.1666666666666667
 40
0.1666666666666667
 40
0.1666666666666667
 40
0.3333333333333333
 40
0.3333333333333333
 40
0.3333333333333333
 40
0.3333333333333333
 40
0.5
 40
0.5
 40
0.5
 40
0.5
 40
0.6666666666666666
 40
0.6666666666666666
 40
0.6666666666666666
 40
0.6666666666666666
 40
1.0
 40
1.0
 40
1.0
 40
1.0
 10
63.5958
 20
6.9578
 30
0.0
 10
63.5958
 20
6.9578
 30
0.0
 10
63.5958
 20
19.0352
 30
0.0
 10
63.5958
 20
19.0352
 30
0.0
 10
63.5958
 20
19.0352
 30
0.0
 10
63.5958
 20
19.0352
 30
0.0
 10
55.943
 20
19.0352
 30
0.0
 10
55.943
 20
19.0352
 30
0.0
 10
55.943
 20
19.0352
 30
0.0
 10
55.6012
 20
16.6765
 30
0.0
 10
53.8962
 20
15.0504
 30
0.0
 10
51.4436
 20
14.4192
 30
0.0
 10
51.4436
 20
14.4192
 30
0.0
 10
51.4436
 20
14.4192
 30
0.0
 10
51.4188
 20
6.9359
 30
0.0
 10
51.4188
 20
6.9359
 30
0.0
 10
51.4188
 20
6.9359
 30
0.0
 10
53.1237
 20
6.9359
 30
0.0
 10
63.5958
 20
6.9578
 30
0.0
 10
63.5958
 20
6.9578
 30
0.0
  0
SPLINE
  5
97
330
1F
100
AcDbEntity
  8
layer 1
 62
     7
100
AcDbSpline
210
0.0
220
0.0
230
1.0
 70
    11
 71
     3
 72
    20
 73
    16
 74
     0
 42
0.0000000001
 43
0.0000000001
 12
1.0
 22
0.0
 32
0.0
 13
1.0
 23
0.0
 33
0.0
 40
0.0
 40
0.0
 40
0.0
 40
0.0
 40
0.2
 40
0.2
 40
0.2
 40
0.2
 40
0.4
 40
0.4
 40
0.4
 40
0.4
 40
0.6
 40
0.6
 40
0.6
 40
0.6
 40
1.0
 40
1.0
 40
1.0
 40
1.0
 10
89.3071
 20
56.6723
 30
0.0
 10
89.3071
 20
56.6723
 30
0.0
 10
89.1883
 20
60.7665
 30
0.0
 10
89.1883
 20
60.7665
 30
0.0
 10
89.1883
 20
60.7665
 30
0.0
 10
89.1883
 20
60.7665
 30
0.0
 10
114.1767
 20
60.8259
 30
0.0
 10
114.1767
 20
60.8259
 30
0.0
 10
114.1767
 20
60.8259
 30
0.0
 10
114.1767
 20
60.8259
 30
0.0
 10
109.1973
 20
53.738
 30
0.0
 10
109.1973
 20
53.738
 30
0.0
 10
109.1973
 20
53.738
 30
0.0
 10
109.1973
 20
53.738
 30
0.0
 10
89.3071
 20
56.6723
 30
0.0
 10
89.3071
 20
56.6723
 30
0.0
  0
SPLINE
  5
98
330
1F
100
AcDbEntity
  8
layer 1
 62
     7
100
AcDbSpline
210
0.0
220
0.0
230
1.0
 70
    11
 71
     3
 72
    20
 73
    16
 74
     0
 42
0.0000000001
 43
0.0000000001
 12
1.0
 22
0.0
 32
0.0
 13
1.0
 23
0.0
 33
0.0
 40
0.0
 40
0.0
 40
0.0
 40
0.0
 40
0.2
 40
0.2
 40
0.2
 40
0.2
 40
0.4
 40
0.4
 40
0.4
 40
0.4
 40
0.6
 40
0.6
 40
0.6
 40
0.6
 40
1.0
 40
1.0
 40
1.0
 40
1.0
 10
89.778
 20
43.1013
 30
0.0
 10
89.778
 20
43.1013
 30
0.0
 10
89.4237
 20
55.0434
 30
0.0
 10
89.4237
 20
55.0434
 30
0.0
 10
89.4237
 20
55.0434
 30
0.0
 10
89.4237
 20
55.0434
 30
0.0
 10
108.0117
 20
52.0938
 30
0.0
 10
108.0117
 20
52.0938
 30
0.0
 10
108.0117
 20
52.0938
 30
0.0
 10
108.0117
 20
52.0938
 30
0.0
 10
99.9349
 20
40.6386
 30
0.0
 10
99.9349
 20
40.6386
 30
0.0
 10
99.9349
 20
40.6386
 30
0.0
 10
99.9349
 20
40.6386
 30
0.0
 10
89.778
 20
43.1013
 30
0.0
 10
89.778
 20
43.1013
 30
0.0
  0
SPLINE
  5
99
330
1F
100
AcDbEntity
  8
layer 1
 62
     7
100
AcDbSpline
210
0.0
220
0.0
230
1.0
 70
    11
 71
     3
 72
    16
 73
    12
 74
     0
 42
0.0000000001
 43
0.0000000001
 12
1.0
 22
0.0
 32
0.0
 13
1.0
 23
0.0
 33
0.0
 40
0.0
 40
0.0
 40
0.0
 40
0.0
 40
0.25
 40
0.25
 40
0.25
 40
0.25
 40
0.5
 40
0.5
 40
0.5
 40
0.5
 40
1.0
 40
1.0
 40
1.0
 40
1.0
 10
90.1922
 20
26.7568
 30
0.0
 10
90.1922
 20
26.7568
 30
0.0
 10
89.778
 20
41.2941
 30
0.0
 10
89.778
 20
41.2941
 30
0.0
 10
89.778
 20
41.2941
 30
0.0
 10
89.778
 20
41.2941
 30
0.0
 10
98.893
 20
39.2296
 30
0.0
 10
98.893
 20
39.2296
 30
0.0
 10
98.893
 20
39.2296
 30
0.0
 10
98.893
 20
39.2296
 30
0.0
 10
90.1922
 20
26.7568
 30
0.0
 10
90.1922
 20
26.7568
 30
0.0
  0
SPLINE
  5
9A
330
1F
100
AcDbEntity
  8
layer 1
 62
     7
100
AcDbSpline
210
0.0
220
0.0
230
1.0
 70
    11
 71
     3
 72
    20
 73
    16
 74
     0
 42
0.0000000001
 43
0.0000000001
 12
1.0
 22
0.0
 32
0.0
 13
1.0
 23
0.0
 33
0.0
 40
0.0
 40
0.0
 40
0.0
 40
0.0
 40
0.2
 40
0.2
 40
0.2
 40
0.2
 40
0.4
 40
0.4
 40
0.4
 40
0.4
 40
0.6
 40
0.6
 40
0.6
 40
0.6
 40
1.0
 40
1.0
 40
1.0
 40
1.0
 10
74.2589
 20
49.7691
 30
0.0
 10
74.2589
 20
49.7691
 30
0.0
 10
74.1432
 20
60.7665
 30
0.0
 10
74.1432
 20
60.7665
 30
0.0
 10
74.1432
 20
60.7665
 30
0.0
 10
74.1432
 20
60.7665
 30
0.0
 10
87.5632
 20
60.8259
 30
0.0
 10
87.5632
 20
60.8259
 30
0.0
 10
87.5632
 20
60.8259
 30
0.0
 10
87.5632
 20
60.8259
 30
0.0
 10
87.5441
 20
57.5125
 30
0.0
 10
87.5441
 20
57.5125
 30
0.0
 10
87.5441
 20
57.5125
 30
0.0
 10
87.5441
 20
57.5125
 30
0.0
 10
74.2589
 20
49.7691
 30
0.0
 10
74.2589
 20
49.7691
 30
0.0
  0
SPLINE
  5
9B
330
1F
100
AcDbEntity
  8
layer 1
 62
     7
100
AcDbSpline
210
0.0
220
0.0
230
1.0
 70
    11
 71
     3
 72
    20
 73
    16
 74
     0
 42
0.0000000001
 43
0.0000000001
 12
1.0
 22
0.0
 32
0.0
 13
1.0
 23
0.0
 33
0.0
 40
0.0
 40
0.0
 40
0.0
 40
0.0
 40
0.2
 40
0.2
 40
0.2
 40
0.2
 40
0.4
 40
0.4
 40
0.4
 40
0.4
 40
0.6
 40
0.6
 40
0.6
 40
0.6
 40
1.0
 40
1.0
 40
1.0
 40
1.0
 10
79.8062
 20
39.3237
 30
0.0
 10
79.8062
 20
39.3237
 30
0.0
 10
74.1432
 20
47.6067
 30
0.0
 10
74.1432
 20
47.6067
 30
0.0
 10
74.1432
 20
47.6067
 30
0.0
 10
74.1432
 20
47.6067
 30
0.0
 10
87.7415
 20
55.693
 30
0.0
 10
87.7415
 20
55.693
 30
0.0
 10
87.7415
 20
55.693
 30
0.0
 10
87.7415
 20
55.693
 30
0.0
 10
88.0147
 20
43.1769
 30
0.0
 10
88.0147
 20
43.1769
 30
0.0
 10
88.0147
 20
43.1769
 30
0.0
 10
88.0147
 20
43.1769
 30
0.0
 10
79.8062
 20
39.3237
 30
0.0
 10
79.8062
 20
39.3237
 30
0.0
  0
SPLINE
  5
9C
330
1F
100
AcDbEntity
  8
layer 1
 62
     7
100
AcDbSpline
210
0.0
220
0.0
230
1.0
 70
    11
 71
     3
 72
    16
 73
    12
 74
     0
 42
0.0000000001
 43
0.0000000001
 12
1.0
 22
0.0
 32
0.0
 13
1.0
 23
0.0
 33
0.0
 40
0.0
 40
0.0
 40
0.0
 40
0.0
 40
0.25
 40
0.25
 40
0.25
 40
0.25
 40
0.5
 40
0.5
 40
0.5
 40
0.5
 40
1.0
 40
1.0
 40
1.0
 40
1.0
 10
80.8103
 20
37.8705
 30
0.0
 10
80.8103
 20
37.8705
 30
0.0
 10
88.2124
 20
41.2345
 30
0.0
 10
88.2124
 20
41.2345
 30
0.0
 10
88.2124
 20
41.2345
 30
0.0
 10
88.2124
 20
41.2345
 30
0.0
 10
88.5448
 20
26.5938
 30
0.0
 10
88.5448
 20
26.5938
 30
0.0
 10
88.5448
 20
26.5938
 30
0.0
 10
88.5448
 20
26.5938
 30
0.0
 10
80.8103
 20
37.8705
 30
0.0
 10
80.8103
 20
37.8705
 30
0.0
  0
SPLINE
  5
9D
330
1F
100
AcDbEntity
  8
layer 1
 62
     7
100
AcDbSpline
210
0.0
220
0.0
230
1.0
 70
    11
 71
     3
 72
    16
 73
    12
 74
     0
 42
0.0000000001
 43
0.0000000001
 12
1.0
 22
0.0
 32
0.0
 13
1.0
 23
0.0
 33
0.0
 40
0.0
 40
0.0
 40
0.0
 40
0.0
 40
0.25
 40
0.25
 40
0.25
 40
0.25
 40
0.5
 40
0.5
 40
0.5
 40
0.5
 40
1.0
 40
1.0
 40
1.0
 40
1.0
 10
78.5074
 20
24.6233
 30
0.0
 10
78.5074
 20
24.6233
 30
0.0
 10
87.8012
 20
24.7431
 30
0.0
 10
87.8012
 20
24.7431
 30
0.0
 10
87.8012
 20
24.7431
 30
0.0
 10
87.8012
 20
24.7431
 30
0.0
 10
79.9886
 20
36.1387
 30
0.0
 10
79.9886
 20
36.1387
 30
0.0
 10
79.9886
 20
36.1387
 30
0.0
 10
79.9886
 20
36.1387
 30
0.0
 10
78.5074
 20
24.6233
 30
0.0
 10
78.5074
 20
24.6233
 30
0.0
  0
SPLINE
  5
9E
330
1F
100
AcDbEntity
  8
layer 1
 62
     7
100
AcDbSpline
210
0.0
220
0.0
230
1.0
 70
    11
 71
     3
 72
    20
 73
    16
 74
     0
 42
0.0000000001
 43
0.0000000001
 12
1.0
 22
0.0
 32
0.0
 13
1.0
 23
0.0
 33
0.0
 40
0.0
 40
0.0
 40
0.0
 40
0.0
 40
0.2
 40
0.2
 40
0.2
 40
0.2
 40
0.4
 40
0.4
 40
0.4
 40
0.4
 40
0.6
 40
0.6
 40
0.6
 40
0.6
 40
1.0
 40
1.0
 40
1.0
 40
1.0
 10
74.1143
 20
23.139
 30
0.0
 10
74.1143
 20
23.139
 30
0.0
 10
74.1771
 20
8.2636
 30
0.0
 10
74.1771
 20
8.2636
 30
0.0
 10
74.1771
 20
8.2636
 30
0.0
 10
74.1771
 20
8.2636
 30
0.0
 10
79.9788
 20
14.7995
 30
0.0
 10
79.9788
 20
14.7995
 30
0.0
 10
79.9788
 20
14.7995
 30
0.0
 10
79.9788
 20
14.7995
 30
0.0
 10
76.3805
 20
23.1171
 30
0.0
 10
76.3805
 20
23.1171
 30
0.0
 10
76.3805
 20
23.1171
 30
0.0
 10
76.3805
 20
23.1171
 30
0.0
 10
74.1143
 20
23.139
 30
0.0
 10
74.1143
 20
23.139
 30
0.0
  0
SPLINE
  5
9F
330
1F
100
AcDbEntity
  8
layer 1
 62
     7
100
AcDbSpline
210
0.0
220
0.0
230
1.0
 70
    11
 71
     3
 72
    16
 73
    12
 74
     0
 42
0.0000000001
 43
0.0000000001
 12
1.0
 22
0.0
 32
0.0
 13
1.0
 23
0.0
 33
0.0
 40
0.0
 40
0.0
 40
0.0
 40
0.0
 40
0.25
 40
0.25
 40
0.25
 40
0.25
 40
0.5
 40
0.5
 40
0.5
 40
0.5
 40
1.0
 40
1.0
 40
1.0
 40
1.0
 10
91.2027
 20
25.4956
 30
0.0
 10
91.2027
 20
25.4956
 30
0.0
 10
99.784
 20
37.6608
 30
0.0
 10
99.784
 20
37.6608
 30
0.0
 10
99.784
 20
37.6608
 30
0.0
 10
99.784
 20
37.6608
 30
0.0
 10
102.8123
 20
31.6581
 30
0.0
 10
102.8123
 20
31.6581
 30
0.0
 10
102.8123
 20
31.6581
 30
0.0
 10
102.8123
 20
31.6581
 30
0.0
 10
91.2027
 20
25.4956
 30
0.0
 10
91.2027
 20
25.4956
 30
0.0
  0
SPLINE
  5
A0
330
1F
100
AcDbEntity
  8
layer 1
 62
     7
100
AcDbSpline
210
0.0
220
0.0
230
1.0
 70
    11
 71
     3
 72
    16
 73
    12
 74
     0
 42
0.0000000001
 43
0.0000000001
 12
1.0
 22
0.0
 32
0.0
 13
1.0
 23
0.0
 33
0.0
 40
0.0
 40
0.0
 40
0.0
 40
0.0
 40
0.25
 40
0.25
 40
0.25
 40
0.25
 40
0.5
 40
0.5
 40
0.5
 40
0.5
 40
1.0
 40
1.0
 40
1.0
 40
1.0
 10
91.9491
 20
24.1149
 30
0.0
 10
91.9491
 20
24.1149
 30
0.0
 10
103.609
 20
30.3088
 30
0.0
 10
103.609
 20
30.3088
 30
0.0
 10
103.609
 20
30.3088
 30
0.0
 10
103.609
 20
30.3088
 30
0.0
 10
104.4749
 20
23.8674
 30
0.0
 10
104.4749
 20
23.8674
 30
0.0
 10
104.4749
 20
23.8674
 30
0.0
 10
104.4749
 20
23.8674
 30
0.0
 10
91.9491
 20
24.1149
 30
0.0
 10
91.9491
 20
24.1149
 30
0.0
  0
SPLINE
  5
A1
330
1F
100
AcDbEntity
  8
layer 1
 62
     7
100
AcDbSpline
210
0.0
220
0.0
230
1.0
 70
    11
 71
     3
 72
    16
 73
    12
 74
     0
 42
0.0000000001
 43
0.0000000001
 12
1.0
 22
0.0
 32
0.0
 13
1.0
 23
0.0
 33
0.0
 40
0.0
 40
0.0
 40
0.0
 40
0.0
 40
0.25
 40
0.25
 40
0.25
 40
0.25
 40
0.5
 40
0.5
 40
0.5
 40
0.5
 40
1.0
 40
1.0
 40
1.0
 40
1.0
 10
93.631
 20
22.4241
 30
0.0
 10
93.631
 20
22.4241
 30
0.0
 10
104.7038
 20
22.1727
 30
0.0
 10
104.7038
 20
22.1727
 30
0.0
 10
104.7038
 20
22.1727
 30
0.0
 10
104.7038
 20
22.1727
 30
0.0
 10
101.3214
 20
18.0029
 30
0.0
 10
101.3214
 20
18.0029
 30
0.0
 10
101.3214
 20
18.0029
 30
0.0
 10
101.3214
 20
18.0029
 30
0.0
 10
93.631
 20
22.4241
 30
0.0
 10
93.631
 20
22.4241
 30
0.0
  0
SPLINE
  5
A2
330
1F
100
AcDbEntity
  8
layer 1
 62
     7
100
AcDbSpline
210
0.0
220
0.0
230
1.0
 70
    11
 71
     3
 72
    16
 73
    12
 74
     0
 42
0.0000000001
 43
0.0000000001
 12
1.0
 22
0.0
 32
0.0
 13
1.0
 23
0.0
 33
0.0
 40
0.0
 40
0.0
 40
0.0
 40
0.0
 40
0.25
 40
0.25
 40
0.25
 40
0.25
 40
0.5
 40
0.5
 40
0.5
 40
0.5
 40
1.0
 40
1.0
 40
1.0
 40
1.0
 10
90.4463
 20
22.3516
 30
0.0
 10
90.4463
 20
22.3516
 30
0.0
 10
100.3084
 20
16.6791
 30
0.0
 10
100.3084
 20
16.6791
 30
0.0
 10
100.3084
 20
16.6791
 30
0.0
 10
100.3084
 20
16.6791
 30
0.0
 10
91.7232
 20
13.0581
 30
0.0
 10
91.7232
 20
13.0581
 30
0.0
 10
91.7232
 20
13.0581
 30
0.0
 10
91.7232
 20
13.0581
 30
0.0
 10
90.4463
 20
22.3516
 30
0.0
 10
90.4463
 20
22.3516
 30
0.0
  0
SPLINE
  5
A3
330
1F
100
AcDbEntity
  8
layer 1
 62
     7
100
AcDbSpline
210
0.0
220
0.0
230
1.0
 70
    11
 71
     3
 72
    16
 73
    12
 74
     0
 42
0.0000000001
 43
0.0000000001
 12
1.0
 22
0.0
 32
0.0
 13
1.0
 23
0.0
 33
0.0
 40
0.0
 40
0.0
 40
0.0
 40
0.0
 40
0.25
 40
0.25
 40
0.25
 40
0.25
 40
0.5
 40
0.5
 40
0.5
 40
0.5
 40
1.0
 40
1.0
 40
1.0
 40
1.0
 10
82.2441
 20
14.9562
 30
0.0
 10
82.2441
 20
14.9562
 30
0.0
 10
90.0704
 20
13.2774
 30
0.0
 10
90.0704
 20
13.2774
 30
0.0
 10
90.0704
 20
13.2774
 30
0.0
 10
90.0704
 20
13.2774
 30
0.0
 10
88.928
 20
22.5493
 30
0.0
 10
88.928
 20
22.5493
 30
0.0
 10
88.928
 20
22.5493
 30
0.0
 10
88.928
 20
22.5493
 30
0.0
 10
82.2441
 20
14.9562
 30
0.0
 10
82.2441
 20
14.9562
 30
0.0
  0
SPLINE
  5
A4
330
1F
100
AcDbEntity
  8
layer 1
 62
     7
100
AcDbSpline
210
0.0
220
0.0
230
1.0
 70
    11
 71
     3
 72
    16
 73
    12
 74
     0
 42
0.0000000001
 43
0.0000000001
 12
1.0
 22
0.0
 32
0.0
 13
1.0
 23
0.0
 33
0.0
 40
0.0
 40
0.0
 40
0.0
 40
0.0
 40
0.25
 40
0.25
 40
0.25
 40
0.25
 40
0.5
 40
0.5
 40
0.5
 40
0.5
 40
1.0
 40
1.0
 40
1.0
 40
1.0
 10
78.3628
 20
23.086
 30
0.0
 10
78.3628
 20
23.086
 30
0.0
 10
87.2146
 20
23.0577
 30
0.0
 10
87.2146
 20
23.0577
 30
0.0
 10
87.2146
 20
23.0577
 30
0.0
 10
87.2146
 20
23.0577
 30
0.0
 10
81.2345
 20
16.211
 30
0.0
 10
81.2345
 20
16.211
 30
0.0
 10
81.2345
 20
16.211
 30
0.0
 10
81.2345
 20
16.211
 30
0.0
 10
78.3628
 20
23.086
 30
0.0
 10
78.3628
 20
23.086
 30
0.0
  0
SPLINE
  5
A5
330
1F
100
AcDbEntity
  8
layer 1
 62
     7
100
AcDbSpline
210
0.0
220
0.0
230
1.0
 70
    11
 71
     3
 72
    20
 73
    16
 74
     0
 42
0.0000000001
 43
0.0000000001
 12
1.0
 22
0.0
 32
0.0
 13
1.0
 23
0.0
 33
0.0
 40
0.0
 40
0.0
 40
0.0
 40
0.0
 40
0.2
 40
0.2
 40
0.2
 40
0.2
 40
0.4
 40
0.4
 40
0.4
 40
0.4
 40
0.6
 40
0.6
 40
0.6
 40
0.6
 40
1.0
 40
1.0
 40
1.0
 40
1.0
 10
75.3227
 20
7.0176
 30
0.0
 10
75.3227
 20
7.0176
 30
0.0
 10
90.9297
 20
6.9735
 30
0.0
 10
90.9297
 20
6.9735
 30
0.0
 10
90.9297
 20
6.9735
 30
0.0
 10
90.9297
 20
6.9735
 30
0.0
 10
90.2928
 20
11.4549
 30
0.0
 10
90.2928
 20
11.4549
 30
0.0
 10
90.2928
 20
11.4549
 30
0.0
 10
90.2928
 20
11.4549
 30
0.0
 10
80.9485
 20
13.4598
 30
0.0
 10
80.9485
 20
13.4598
 30
0.0
 10
80.9485
 20
13.4598
 30
0.0
 10
80.9485
 20
13.4598
 30
0.0
 10
75.3227
 20
7.0176
 30
0.0
 10
75.3227
 20
7.0176
 30
0.0
  0
SPLINE
  5
A6
330
1F
100
AcDbEntity
  8
layer 1
 62
     7
100
AcDbSpline
210
0.0
220
0.0
230
1.0
 70
    11
 71
     3
 72
    24
 73
    20
 74
     0
 42
0.0000000001
 43
0.0000000001
 12
1.0
 22
0.0
 32
0.0
 13
1.0
 23
0.0
 33
0.0
 40
0.0
 40
0.0
 40
0.0
 40
0.0
 40
0.1666666666666667
 40
0.1666666666666667
 40
0.1666666666666667
 40
0.1666666666666667
 40
0.3333333333333333
 40
0.3333333333333333
 40
0.3333333333333333
 40
0.3333333333333333
 40
0.5
 40
0.5
 40
0.5
 40
0.5
 40
0.6666666666666666
 40
0.6666666666666666
 40
0.6666666666666666
 40
0.6666666666666666
 40
1.0
 40
1.0
 40
1.0
 40
1.0
 10
92.5773
 20
7.0176
 30
0.0
 10
92.5773
 20
7.0176
 30
0.0
 10
108.5634
 20
6.9109
 30
0.0
 10
108.5634
 20
6.9109
 30
0.0
 10
108.5634
 20
6.9109
 30
0.0
 10
108.5634
 20
6.9109
 30
0.0
 10
111.9934
 20
9.977
 30
0.0
 10
111.9934
 20
9.977
 30
0.0
 10
111.9934
 20
9.977
 30
0.0
 10
111.9934
 20
9.977
 30
0.0
 10
102.0498
 20
15.6311
 30
0.0
 10
102.0498
 20
15.6311
 30
0.0
 10
102.0498
 20
15.6311
 30
0.0
 10
102.0498
 20
15.6311
 30
0.0
 10
91.9024
 20
11.2974
 30
0.0
 10
91.9024
 20
11.2974
 30
0.0
 10
91.9024
 20
11.2974
 30
0.0
 10
91.9024
 20
11.2974
 30
0.0
 10
92.5773
 20
7.0176
 30
0.0
 10
92.5773
 20
7.0176
 30
0.0
  0
SPLINE
  5
A7
330
1F
100
AcDbEntity
  8
layer 1
 62
     7
100
AcDbSpline
210
0.0
220
0.0
230
1.0
 70
    11
 71
     3
 72
    16
 73
    12
 74
     0
 42
0.0000000001
 43
0.0000000001
 12
1.0
 22
0.0
 32
0.0
 13
1.0
 23
0.0
 33
0.0
 40
0.0
 40
0.0
 40
0.0
 40
0.0
 40
0.25
 40
0.25
 40
0.25
 40
0.25
 40
0.5
 40
0.5
 40
0.5
 40
0.5
 40
1.0
 40
1.0
 40
1.0
 40
1.0
 10
113.4834
 20
9.0917
 30
0.0
 10
113.4834
 20
9.0917
 30
0.0
 10
117.195
 20
6.9712
 30
0.0
 10
117.195
 20
6.9712
 30
0.0
 10
117.195
 20
6.9712
 30
0.0
 10
117.195
 20
6.9712
 30
0.0
 10
111.3941
 20
6.9398
 30
0.0
 10
111.3941
 20
6.9398
 30
0.0
 10
111.3941
 20
6.9398
 30
0.0
 10
111.3941
 20
6.9398
 30
0.0
 10
113.4834
 20
9.0917
 30
0.0
 10
113.4834
 20
9.0917
 30
0.0
  0
SPLINE
  5
A8
330
1F
100
AcDbEntity
  8
layer 1
 62
     7
100
AcDbSpline
210
0.0
220
0.0
230
1.0
 70
    11
 71
     3
 72
    20
 73
    16
 74
     0
 42
0.0000000001
 43
0.0000000001
 12
1.0
 22
0.0
 32
0.0
 13
1.0
 23
0.0
 33
0.0
 40
0.0
 40
0.0
 40
0.0
 40
0.0
 40
0.2
 40
0.2
 40
0.2
 40
0.2
 40
0.4
 40
0.4
 40
0.4
 40
0.4
 40
0.6
 40
0.6
 40
0.6
 40
0.6
 40
1.0
 40
1.0
 40
1.0
 40
1.0
 10
102.8307
 20
17.0897
 30
0.0
 10
102.8307
 20
17.0897
 30
0.0
 10
112.9059
 20
11.2596
 30
0.0
 10
112.9059
 20
11.2596
 30
0.0
 10
112.9059
 20
11.2596
 30
0.0
 10
112.9059
 20
11.2596
 30
0.0
 10
118.6418
 20
21.7116
 30
0.0
 10
118.6418
 20
21.7116
 30
0.0
 10
118.6418
 20
21.7116
 30
0.0
 10
118.6418
 20
21.7116
 30
0.0
 10
106.957
 20
22.0691
 30
0.0
 10
106.957
 20
22.0691
 30
0.0
 10
106.957
 20
22.0691
 30
0.0
 10
106.957
 20
22.0691
 30
0.0
 10
102.8307
 20
17.0897
 30
0.0
 10
102.8307
 20
17.0897
 30
0.0
  0
SPLINE
  5
A9
330
1F
100
AcDbEntity
  8
layer 1
 62
     7
100
AcDbSpline
210
0.0
220
0.0
230
1.0
 70
    11
 71
     3
 72
    20
 73
    16
 74
     0
 42
0.0000000001
 43
0.0000000001
 12
1.0
 22
0.0
 32
0.0
 13
1.0
 23
0.0
 33
0.0
 40
0.0
 40
0.0
 40
0.0
 40
0.0
 40
0.2
 40
0.2
 40
0.2
 40
0.2
 40
0.4
 40
0.4
 40
0.4
 40
0.4
 40
0.6
 40
0.6
 40
0.6
 40
0.6
 40
1.0
 40
1.0
 40
1.0
 40
1.0
 10
106.3104
 20
23.8296
 30
0.0
 10
106.3104
 20
23.8296
 30
0.0
 10
119.1343
 20
23.4562
 30
0.0
 10
119.1343
 20
23.4562
 30
0.0
 10
119.1343
 20
23.4562
 30
0.0
 10
119.1343
 20
23.4562
 30
0.0
 10
119.009
 20
38.3758
 30
0.0
 10
119.009
 20
38.3758
 30
0.0
 10
119.009
 20
38.3758
 30
0.0
 10
119.009
 20
38.3758
 30
0.0
 10
105.1969
 20
31.1529
 30
0.0
 10
105.1969
 20
31.1529
 30
0.0
 10
105.1969
 20
31.1529
 30
0.0
 10
105.1969
 20
31.1529
 30
0.0
 10
106.3104
 20
23.8296
 30
0.0
 10
106.3104
 20
23.8296
 30
0.0
  0
SPLINE
  5
AA
330
1F
100
AcDbEntity
  8
layer 1
 62
     7
100
AcDbSpline
210
0.0
220
0.0
230
1.0
 70
    11
 71
     3
 72
    20
 73
    16
 74
     0
 42
0.0000000001
 43
0.0000000001
 12
1.0
 22
0.0
 32
0.0
 13
1.0
 23
0.0
 33
0.0
 40
0.0
 40
0.0
 40
0.0
 40
0.0
 40
0.2
 40
0.2
 40
0.2
 40
0.2
 40
0.4
 40
0.4
 40
0.4
 40
0.4
 40
0.6
 40
0.6
 40
0.6
 40
0.6
 40
1.0
 40
1.0
 40
1.0
 40
1.0
 10
104.4059
 20
32.4742
 30
0.0
 10
104.4059
 20
32.4742
 30
0.0
 10
119.0621
 20
40.2684
 30
0.0
 10
119.0621
 20
40.2684
 30
0.0
 10
119.0621
 20
40.2684
 30
0.0
 10
119.0621
 20
40.2684
 30
0.0
 10
109.1941
 20
50.9048
 30
0.0
 10
109.1941
 20
50.9048
 30
0.0
 10
109.1941
 20
50.9048
 30
0.0
 10
109.1941
 20
50.9048
 30
0.0
 10
100.8765
 20
39.2105
 30
0.0
 10
100.8765
 20
39.2105
 30
0.0
 10
100.8765
 20
39.2105
 30
0.0
 10
100.8765
 20
39.2105
 30
0.0
 10
104.4059
 20
32.4742
 30
0.0
 10
104.4059
 20
32.4742
 30
0.0
  0
SPLINE
  5
AB
330
1F
100
AcDbEntity
  8
layer 1
 62
     7
100
AcDbSpline
210
0.0
220
0.0
230
1.0
 70
    11
 71
     3
 72
    20
 73
    16
 74
     0
 42
0.0000000001
 43
0.0000000001
 12
1.0
 22
0.0
 32
0.0
 13
1.0
 23
0.0
 33
0.0
 40
0.0
 40
0.0
 40
0.0
 40
0.0
 40
0.2
 40
0.2
 40
0.2
 40
0.2
 40
0.4
 40
0.4
 40
0.4
 40
0.4
 40
0.6
 40
0.6
 40
0.6
 40
0.6
 40
1.0
 40
1.0
 40
1.0
 40
1.0
 10
120.8789
 20
23.3462
 30
0.0
 10
120.8789
 20
23.3462
 30
0.0
 10
127.9266
 20
23.1333
 30
0.0
 10
127.9266
 20
23.1333
 30
0.0
 10
127.9266
 20
23.1333
 30
0.0
 10
127.9266
 20
23.1333
 30
0.0
 10
127.9355
 20
43.1045
 30
0.0
 10
127.9355
 20
43.1045
 30
0.0
 10
127.9355
 20
43.1045
 30
0.0
 10
127.9355
 20
43.1045
 30
0.0
 10
120.678
 20
39.2891
 30
0.0
 10
120.678
 20
39.2891
 30
0.0
 10
120.678
 20
39.2891
 30
0.0
 10
120.678
 20
39.2891
 30
0.0
 10
120.8789
 20
23.3462
 30
0.0
 10
120.8789
 20
23.3462
 30
0.0
  0
SPLINE
  5
AC
330
1F
100
AcDbEntity
  8
layer 1
 62
     7
100
AcDbSpline
210
0.0
220
0.0
230
1.0
 70
    11
 71
     3
 72
    24
 73
    20
 74
     0
 42
0.0000000001
 43
0.0000000001
 12
1.0
 22
0.0
 32
0.0
 13
1.0
 23
0.0
 33
0.0
 40
0.0
 40
0.0
 40
0.0
 40
0.0
 40
0.1666666666666667
 40
0.1666666666666667
 40
0.1666666666666667
 40
0.1666666666666667
 40
0.3333333333333333
 40
0.3333333333333333
 40
0.3333333333333333
 40
0.3333333333333333
 40
0.5
 40
0.5
 40
0.5
 40
0.5
 40
0.6666666666666666
 40
0.6666666666666666
 40
0.6666666666666666
 40
0.6666666666666666
 40
1.0
 40
1.0
 40
1.0
 40
1.0
 10
120.7254
 20
41.1785
 30
0.0
 10
120.7254
 20
41.1785
 30
0.0
 10
110.2173
 20
52.3637
 30
0.0
 10
110.2173
 20
52.3637
 30
0.0
 10
110.2173
 20
52.3637
 30
0.0
 10
110.2173
 20
52.3637
 30
0.0
 10
116.1535
 20
60.7633
 30
0.0
 10
116.1535
 20
60.7633
 30
0.0
 10
116.1535
 20
60.7633
 30
0.0
 10
116.1535
 20
60.7633
 30
0.0
 10
127.9009
 20
60.7448
 30
0.0
 10
127.9009
 20
60.7448
 30
0.0
 10
127.9009
 20
60.7448
 30
0.0
 10
127.9009
 20
60.7448
 30
0.0
 10
127.9171
 20
44.9022
 30
0.0
 10
127.9171
 20
44.9022
 30
0.0
 10
127.9171
 20
44.9022
 30
0.0
 10
127.9171
 20
44.9022
 30
0.0
 10
120.7254
 20
41.1785
 30
0.0
 10
120.7254
 20
41.1785
 30
0.0
  0
SPLINE
  5
AD
330
1F
100
AcDbEntity
  8
layer 1
 62
     7
100
AcDbSpline
210
0.0
220
0.0
230
1.0
 70
    11
 71
     3
 72
    24
 73
    20
 74
     0
 42
0.0000000001
 43
0.0000000001
 12
1.0
 22
0.0
 32
0.0
 13
1.0
 23
0.0
 33
0.0
 40
0.0
 40
0.0
 40
0.0
 40
0.0
 40
0.1666666666666667
 40
0.1666666666666667
 40
0.1666666666666667
 40
0.1666666666666667
 40
0.3333333333333333
 40
0.3333333333333333
 40
0.3333333333333333
 40
0.3333333333333333
 40
0.5
 40
0.5
 40
0.5
 40
0.5
 40
0.6666666666666666
 40
0.6666666666666666
 40
0.6666666666666666
 40
0.6666666666666666
 40
1.0
 40
1.0
 40
1.0
 40
1.0
 10
114.4121
 20
10.4854
 30
0.0
 10
114.4121
 20
10.4854
 30
0.0
 10
120.5312
 20
6.9204
 30
0.0
 10
120.5312
 20
6.9204
 30
0.0
 10
120.5312
 20
6.9204
 30
0.0
 10
120.5312
 20
6.9204
 30
0.0
 10
127.9797
 20
6.9614
 30
0.0
 10
127.9797
 20
6.9614
 30
0.0
 10
127.9797
 20
6.9614
 30
0.0
 10
127.9797
 20
6.9614
 30
0.0
 10
127.9419
 20
21.4416
 30
0.0
 10
127.9419
 20
21.4416
 30
0.0
 10
127.9419
 20
21.4416
 30
0.0
 10
127.9419
 20
21.4416
 30
0.0
 10
120.5778
 20
21.6392
 30
0.0
 10
120.5778
 20
21.6392
 30
0.0
 10
120.5778
 20
21.6392
 30
0.0
 10
120.5778
 20
21.6392
 30
0.0
 10
114.4121
 20
10.4854
 30
0.0
 10
114.4121
 20
10.4854
 30
0.0
  0
SPLINE
  5
AE
330
1F
100
AcDbEntity
  8
layer 1
 62
     7
100
AcDbSpline
210
0.0
220
0.0
230
1.0
 70
    11
 71
     3
 72
    16
 73
    12
 74
     0
 42
0.0000000001
 43
0.0000000001
 12
1.0
 22
0.0
 32
0.0
 13
1.0
 23
0.0
 33
0.0
 40
0.0
 40
0.0
 40
0.0
 40
0.0
 40
0.25
 40
0.25
 40
0.25
 40
0.25
 40
0.5
 40
0.5
 40
0.5
 40
0.5
 40
1.0
 40
1.0
 40
1.0
 40
1.0
 10
74.1177
 20
36.7066
 30
0.0
 10
74.1177
 20
36.7066
 30
0.0
 10
78.4006
 20
38.624
 30
0.0
 10
78.4006
 20
38.624
 30
0.0
 10
78.4006
 20
38.624
 30
0.0
 10
78.4006
 20
38.624
 30
0.0
 10
74.1241
 20
44.8612
 30
0.0
 10
74.1241
 20
44.8612
 30
0.0
 10
74.1241
 20
44.8612
 30
0.0
 10
74.1241
 20
44.8612
 30
0.0
 10
74.1177
 20
36.7066
 30
0.0
 10
74.1177
 20
36.7066
 30
0.0
  0
SPLINE
  5
AF
330
1F
100
AcDbEntity
  8
layer 1
 62
     7
100
AcDbSpline
210
0.0
220
0.0
230
1.0
 70
    11
 71
     3
 72
    20
 73
    16
 74
     0
 42
0.0000000001
 43
0.0000000001
 12
1.0
 22
0.0
 32
0.0
 13
1.0
 23
0.0
 33
0.0
 40
0.0
 40
0.0
 40
0.0
 40
0.0
 40
0.2
 40
0.2
 40
0.2
 40
0.2
 40
0.4
 40
0.4
 40
0.4
 40
0.4
 40
0.6
 40
0.6
 40
0.6
 40
0.6
 40
1.0
 40
1.0
 40
1.0
 40
1.0
 10
74.1177
 20
24.862
 30
0.0
 10
74.1177
 20
24.862
 30
0.0
 10
76.9259
 20
24.7711
 30
0.0
 10
76.9259
 20
24.7711
 30
0.0
 10
76.9259
 20
24.7711
 30
0.0
 10
76.9259
 20
24.7711
 30
0.0
 10
78.3098
 20
36.6913
 30
0.0
 10
78.3098
 20
36.6913
 30
0.0
 10
78.3098
 20
36.6913
 30
0.0
 10
78.3098
 20
36.6913
 30
0.0
 10
74.1555
 20
34.7234
 30
0.0
 10
74.1555
 20
34.7234
 30
0.0
 10
74.1555
 20
34.7234
 30
0.0
 10
74.1555
 20
34.7234
 30
0.0
 10
74.1177
 20
24.862
 30
0.0
 10
74.1177
 20
24.862
 30
0.0
  0
SPLINE
  5
B0
330
1F
100
AcDbEntity
  8
layer 1
 62
     7
100
AcDbSpline
210
0.0
220
0.0
230
1.0
 70
    11
 71
     3
 72
    20
 73
    16
 74
     0
 42
0.0000000001
 43
0.0000000001
 12
1.0
 22
0.0
 32
0.0
 13
1.0
 23
0.0
 33
0.0
 40
0.0
 40
0.0
 40
0.0
 40
0.0
 40
0.2
 40
0.2
 40
0.2
 40
0.2
 40
0.4
 40
0.4
 40
0.4
 40
0.4
 40
0.6
 40
0.6
 40
0.6
 40
0.6
 40
1.0
 40
1.0
 40
1.0
 40
1.0
 10
168.3684
 20
60.7585
 30
0.0
 10
168.3684
 20
60.7585
 30
0.0
 10
168.3996
 20
40.2953
 30
0.0
 10
168.3996
 20
40.2953
 30
0.0
 10
168.3996
 20
40.2953
 30
0.0
 10
166.529
 20
40.1538
 30
0.0
 10
164.6984
 20
40.144
 30
0.0
 10
162.9597
 20
40.3262
 30
0.0
 10
162.9597
 20
40.3262
 30
0.0
 10
162.9597
 20
40.3262
 30
0.0
 10
162.8843
 20
60.7781
 30
0.0
 10
162.8843
 20
60.7781
 30
0.0
 10
162.8843
 20
60.7781
 30
0.0
 10
164.6704
 20
60.7842
 30
0.0
 10
166.582
 20
60.7585
 30
0.0
 10
168.3684
 20
60.7585
 30
0.0
  0
SPLINE
  5
B1
330
1F
100
AcDbEntity
  8
layer 1
 62
     7
100
AcDbSpline
210
0.0
220
0.0
230
1.0
 70
    11
 71
     3
 72
    24
 73
    20
 74
     0
 42
0.0000000001
 43
0.0000000001
 12
1.0
 22
0.0
 32
0.0
 13
1.0
 23
0.0
 33
0.0
 40
0.0
 40
0.0
 40
0.0
 40
0.0
 40
0.1666666666666667
 40
0.1666666666666667
 40
0.1666666666666667
 40
0.1666666666666667
 40
0.3333333333333333
 40
0.3333333333333333
 40
0.3333333333333333
 40
0.3333333333333333
 40
0.5
 40
0.5
 40
0.5
 40
0.5
 40
0.6666666666666666
 40
0.6666666666666666
 40
0.6666666666666666
 40
0.6666666666666666
 40
1.0
 40
1.0
 40
1.0
 40
1.0
 10
192.6266
 20
34.8836
 30
0.0
 10
192.6266
 20
34.8836
 30
0.0
 10
192.6266
 20
60.7749
 30
0.0
 10
192.6266
 20
60.7749
 30
0.0
 10
192.6266
 20
60.7749
 30
0.0
 10
192.6266
 20
60.7749
 30
0.0
 10
188.8102
 20
60.7749
 30
0.0
 10
188.8102
 20
60.7749
 30
0.0
 10
188.8102
 20
60.7749
 30
0.0
 10
188.3954
 20
53.3047
 30
0.0
 10
184.0991
 20
42.2941
 30
0.0
 10
169.9527
 20
38.8446
 30
0.0
 10
169.9527
 20
38.8446
 30
0.0
 10
169.9527
 20
38.8446
 30
0.0
 10
170.0033
 20
34.862
 30
0.0
 10
170.0033
 20
34.862
 30
0.0
 10
170.0033
 20
34.862
 30
0.0
 10
171.7042
 20
34.862
 30
0.0
 10
192.6266
 20
34.8836
 30
0.0
 10
192.6266
 20
34.8836
 30
0.0
  0
SPLINE
  5
B2
330
1F
100
AcDbEntity
  8
layer 1
 62
     7
100
AcDbSpline
210
0.0
220
0.0
230
1.0
 70
    11
 71
     3
 72
    16
 73
    12
 74
     0
 42
0.0000000001
 43
0.0000000001
 12
1.0
 22
0.0
 32
0.0
 13
1.0
 23
0.0
 33
0.0
 40
0.0
 40
0.0
 40
0.0
 40
0.0
 40
0.25
 40
0.25
 40
0.25
 40
0.25
 40
0.5
 40
0.5
 40
0.5
 40
0.5
 40
1.0
 40
1.0
 40
1.0
 40
1.0
 10
169.9625
 20
60.7749
 30
0.0
 10
169.9625
 20
60.7749
 30
0.0
 10
169.9625
 20
50.7751
 30
0.0
 10
169.9625
 20
50.7751
 30
0.0
 10
169.9625
 20
50.7751
 30
0.0
 10
171.1959
 20
51.1168
 30
0.0
 10
176.6128
 20
53.8789
 30
0.0
 10
177.2726
 20
60.7931
 30
0.0
 10
177.2726
 20
60.7931
 30
0.0
 10
176.0383
 20
60.7965
 30
0.0
 10
169.9625
 20
60.7749
 30
0.0
 10
169.9625
 20
60.7749
 30
0.0
  0
SPLINE
  5
B3
330
1F
100
AcDbEntity
  8
layer 1
 62
     7
100
AcDbSpline
210
0.0
220
0.0
230
1.0
 70
    11
 71
     3
 72
    20
 73
    16
 74
     0
 42
0.0000000001
 43
0.0000000001
 12
1.0
 22
0.0
 32
0.0
 13
1.0
 23
0.0
 33
0.0
 40
0.0
 40
0.0
 40
0.0
 40
0.0
 40
0.2
 40
0.2
 40
0.2
 40
0.2
 40
0.4
 40
0.4
 40
0.4
 40
0.4
 40
0.6
 40
0.6
 40
0.6
 40
0.6
 40
1.0
 40
1.0
 40
1.0
 40
1.0
 10
169.9625
 20
40.549
 30
0.0
 10
181.5883
 20
43.4489
 30
0.0
 10
186.6911
 20
52.6608
 30
0.0
 10
187.1685
 20
60.7747
 30
0.0
 10
187.1685
 20
60.7747
 30
0.0
 10
187.1685
 20
60.7747
 30
0.0
 10
178.7004
 20
60.7553
 30
0.0
 10
178.7004
 20
60.7553
 30
0.0
 10
178.7004
 20
60.7553
 30
0.0
 10
178.5558
 20
56.2453
 30
0.0
 10
175.778
 20
51.5247
 30
0.0
 10
169.9245
 20
49.1929
 30
0.0
 10
169.9245
 20
49.1929
 30
0.0
 10
169.9245
 20
49.1929
 30
0.0
 10
169.9625
 20
40.549
 30
0.0
 10
169.9625
 20
40.549
 30
0.0
  0
SPLINE
  5
B4
330
1F
100
AcDbEntity
  8
layer 1
 62
     7
100
AcDbSpline
210
0.0
220
0.0
230
1.0
 70
    11
 71
     3
 72
    24
 73
    20
 74
     0
 42
0.0000000001
 43
0.0000000001
 12
1.0
 22
0.0
 32
0.0
 13
1.0
 23
0.0
 33
0.0
 40
0.0
 40
0.0
 40
0.0
 40
0.0
 40
0.1666666666666667
 40
0.1666666666666667
 40
0.1666666666666667
 40
0.1666666666666667
 40
0.3333333333333333
 40
0.3333333333333333
 40
0.3333333333333333
 40
0.3333333333333333
 40
0.5
 40
0.5
 40
0.5
 40
0.5
 40
0.6666666666666666
 40
0.6666666666666666
 40
0.6666666666666666
 40
0.6666666666666666
 40
1.0
 40
1.0
 40
1.0
 40
1.0
 10
138.4596
 20
34.8836
 30
0.0
 10
138.4596
 20
34.8836
 30
0.0
 10
138.4596
 20
60.7749
 30
0.0
 10
138.4596
 20
60.7749
 30
0.0
 10
138.4596
 20
60.7749
 30
0.0
 10
138.4596
 20
60.7749
 30
0.0
 10
142.273
 20
60.7749
 30
0.0
 10
142.273
 20
60.7749
 30
0.0
 10
142.273
 20
60.7749
 30
0.0
 10
142.6876
 20
53.3047
 30
0.0
 10
146.9871
 20
42.2941
 30
0.0
 10
161.1303
 20
38.8446
 30
0.0
 10
161.1303
 20
38.8446
 30
0.0
 10
161.1303
 20
38.8446
 30
0.0
 10
161.0827
 20
34.862
 30
0.0
 10
161.0827
 20
34.862
 30
0.0
 10
161.0827
 20
34.862
 30
0.0
 10
159.3786
 20
34.862
 30
0.0
 10
138.4596
 20
34.8836
 30
0.0
 10
138.4596
 20
34.8836
 30
0.0
  0
SPLINE
  5
B5
330
1F
100
AcDbEntity
  8
layer 1
 62
     7
100
AcDbSpline
210
0.0
220
0.0
230
1.0
 70
    11
 71
     3
 72
    16
 73
    12
 74
     0
 42
0.0000000001
 43
0.0000000001
 12
1.0
 22
0.0
 32
0.0
 13
1.0
 23
0.0
 33
0.0
 40
0.0
 40
0.0
 40
0.0
 40
0.0
 40
0.25
 40
0.25
 40
0.25
 40
0.25
 40
0.5
 40
0.5
 40
0.5
 40
0.5
 40
1.0
 40
1.0
 40
1.0
 40
1.0
 10
161.1239
 20
60.7749
 30
0.0
 10
161.1239
 20
60.7749
 30
0.0
 10
161.1239
 20
50.7751
 30
0.0
 10
161.1239
 20
50.7751
 30
0.0
 10
161.1239
 20
50.7751
 30
0.0
 10
159.8874
 20
51.1168
 30
0.0
 10
154.47
 20
53.8789
 30
0.0
 10
153.8136
 20
60.7931
 30
0.0
 10
153.8136
 20
60.7931
 30
0.0
 10
155.0469
 20
60.7965
 30
0.0
 10
161.1239
 20
60.7749
 30
0.0
 10
161.1239
 20
60.7749
 30
0.0
  0
SPLINE
  5
B6
330
1F
100
AcDbEntity
  8
layer 1
 62
     7
100
AcDbSpline
210
0.0
220
0.0
230
1.0
 70
    11
 71
     3
 72
    20
 73
    16
 74
     0
 42
0.0000000001
 43
0.0000000001
 12
1.0
 22
0.0
 32
0.0
 13
1.0
 23
0.0
 33
0.0
 40
0.0
 40
0.0
 40
0.0
 40
0.0
 40
0.2
 40
0.2
 40
0.2
 40
0.2
 40
0.4
 40
0.4
 40
0.4
 40
0.4
 40
0.6
 40
0.6
 40
0.6
 40
0.6
 40
1.0
 40
1.0
 40
1.0
 40
1.0
 10
161.1239
 20
40.549
 30
0.0
 10
149.4947
 20
43.4489
 30
0.0
 10
144.3949
 20
52.6608
 30
0.0
 10
143.9177
 20
60.7747
 30
0.0
 10
143.9177
 20
60.7747
 30
0.0
 10
143.9177
 20
60.7747
 30
0.0
 10
152.3826
 20
60.7553
 30
0.0
 10
152.3826
 20
60.7553
 30
0.0
 10
152.3826
 20
60.7553
 30
0.0
 10
152.5272
 20
56.2453
 30
0.0
 10
155.308
 20
51.5247
 30
0.0
 10
161.1615
 20
49.1929
 30
0.0
 10
161.1615
 20
49.1929
 30
0.0
 10
161.1615
 20
49.1929
 30
0.0
 10
161.1239
 20
40.549
 30
0.0
 10
161.1239
 20
40.549
 30
0.0
  0
SPLINE
  5
B7
330
1F
100
AcDbEntity
  8
layer 1
 62
     7
100
AcDbSpline
210
0.0
220
0.0
230
1.0
 70
    11
 71
     3
 72
    20
 73
    16
 74
     0
 42
0.0000000001
 43
0.0000000001
 12
1.0
 22
0.0
 32
0.0
 13
1.0
 23
0.0
 33
0.0
 40
0.0
 40
0.0
 40
0.0
 40
0.0
 40
0.2
 40
0.2
 40
0.2
 40
0.2
 40
0.4
 40
0.4
 40
0.4
 40
0.4
 40
0.6
 40
0.6
 40
0.6
 40
0.6
 40
1.0
 40
1.0
 40
1.0
 40
1.0
 10
168.3684
 20
6.5981
 30
0.0
 10
168.3684
 20
6.5981
 30
0.0
 10
168.3996
 20
27.0622
 30
0.0
 10
168.3996
 20
27.0622
 30
0.0
 10
168.3996
 20
27.0622
 30
0.0
 10
166.529
 20
27.2068
 30
0.0
 10
164.6984
 20
27.2157
 30
0.0
 10
162.9597
 20
27.0308
 30
0.0
 10
162.9597
 20
27.0308
 30
0.0
 10
162.9597
 20
27.0308
 30
0.0
 10
162.8843
 20
6.5794
 30
0.0
 10
162.8843
 20
6.5794
 30
0.0
 10
162.8843
 20
6.5794
 30
0.0
 10
164.6704
 20
6.573
 30
0.0
 10
166.582
 20
6.5978
 30
0.0
 10
168.3684
 20
6.5981
 30
0.0
  0
SPLINE
  5
B8
330
1F
100
AcDbEntity
  8
layer 1
 62
     7
100
AcDbSpline
210
0.0
220
0.0
230
1.0
 70
    11
 71
     3
 72
    24
 73
    20
 74
     0
 42
0.0000000001
 43
0.0000000001
 12
1.0
 22
0.0
 32
0.0
 13
1.0
 23
0.0
 33
0.0
 40
0.0
 40
0.0
 40
0.0
 40
0.0
 40
0.1666666666666667
 40
0.1666666666666667
 40
0.1666666666666667
 40
0.1666666666666667
 40
0.3333333333333333
 40
0.3333333333333333
 40
0.3333333333333333
 40
0.3333333333333333
 40
0.5
 40
0.5
 40
0.5
 40
0.5
 40
0.6666666666666666
 40
0.6666666666666666
 40
0.6666666666666666
 40
0.6666666666666666
 40
1.0
 40
1.0
 40
1.0
 40
1.0
 10
192.6266
 20
32.4729
 30
0.0
 10
192.6266
 20
32.4729
 30
0.0
 10
192.6266
 20
6.5826
 30
0.0
 10
192.6266
 20
6.5826
 30
0.0
 10
192.6266
 20
6.5826
 30
0.0
 10
192.6266
 20
6.5826
 30
0.0
 10
188.8102
 20
6.5826
 30
0.0
 10
188.8102
 20
6.5826
 30
0.0
 10
188.8102
 20
6.5826
 30
0.0
 10
188.3954
 20
14.0521
 30
0.0
 10
184.0991
 20
25.0631
 30
0.0
 10
169.9527
 20
28.5126
 30
0.0
 10
169.9527
 20
28.5126
 30
0.0
 10
169.9527
 20
28.5126
 30
0.0
 10
170.0033
 20
32.4955
 30
0.0
 10
170.0033
 20
32.4955
 30
0.0
 10
170.0033
 20
32.4955
 30
0.0
 10
171.7042
 20
32.4955
 30
0.0
 10
192.6266
 20
32.4729
 30
0.0
 10
192.6266
 20
32.4729
 30
0.0
  0
SPLINE
  5
B9
330
1F
100
AcDbEntity
  8
layer 1
 62
     7
100
AcDbSpline
210
0.0
220
0.0
230
1.0
 70
    11
 71
     3
 72
    16
 73
    12
 74
     0
 42
0.0000000001
 43
0.0000000001
 12
1.0
 22
0.0
 32
0.0
 13
1.0
 23
0.0
 33
0.0
 40
0.0
 40
0.0
 40
0.0
 40
0.0
 40
0.25
 40
0.25
 40
0.25
 40
0.25
 40
0.5
 40
0.5
 40
0.5
 40
0.5
 40
1.0
 40
1.0
 40
1.0
 40
1.0
 10
169.9625
 20
6.5826
 30
0.0
 10
169.9625
 20
6.5826
 30
0.0
 10
169.9625
 20
16.5821
 30
0.0
 10
169.9625
 20
16.5821
 30
0.0
 10
169.9625
 20
16.5821
 30
0.0
 10
171.1959
 20
16.2398
 30
0.0
 10
176.6128
 20
13.4781
 30
0.0
 10
177.2726
 20
6.5632
 30
0.0
 10
177.2726
 20
6.5632
 30
0.0
 10
176.0383
 20
6.5603
 30
0.0
 10
169.9625
 20
6.5826
 30
0.0
 10
169.9625
 20
6.5826
 30
0.0
  0
SPLINE
  5
BA
330
1F
100
AcDbEntity
  8
layer 1
 62
     7
100
AcDbSpline
210
0.0
220
0.0
230
1.0
 70
    11
 71
     3
 72
    20
 73
    16
 74
     0
 42
0.0000000001
 43
0.0000000001
 12
1.0
 22
0.0
 32
0.0
 13
1.0
 23
0.0
 33
0.0
 40
0.0
 40
0.0
 40
0.0
 40
0.0
 40
0.2
 40
0.2
 40
0.2
 40
0.2
 40
0.4
 40
0.4
 40
0.4
 40
0.4
 40
0.6
 40
0.6
 40
0.6
 40
0.6
 40
1.0
 40
1.0
 40
1.0
 40
1.0
 10
169.9625
 20
26.8107
 30
0.0
 10
181.5883
 20
23.9077
 30
0.0
 10
186.6911
 20
14.6955
 30
0.0
 10
187.1685
 20
6.5826
 30
0.0
 10
187.1685
 20
6.5826
 30
0.0
 10
187.1685
 20
6.5826
 30
0.0
 10
178.7004
 20
6.6013
 30
0.0
 10
178.7004
 20
6.6013
 30
0.0
 10
178.7004
 20
6.6013
 30
0.0
 10
178.5558
 20
11.1112
 30
0.0
 10
175.778
 20
15.8316
 30
0.0
 10
169.9245
 20
18.1641
 30
0.0
 10
169.9245
 20
18.1641
 30
0.0
 10
169.9245
 20
18.1641
 30
0.0
 10
169.9625
 20
26.8107
 30
0.0
 10
169.9625
 20
26.8107
 30
0.0
  0
SPLINE
  5
BB
330
1F
100
AcDbEntity
  8
layer 1
 62
     7
100
AcDbSpline
210
0.0
220
0.0
230
1.0
 70
    11
 71
     3
 72
    24
 73
    20
 74
     0
 42
0.0000000001
 43
0.0000000001
 12
1.0
 22
0.0
 32
0.0
 13
1.0
 23
0.0
 33
0.0
 40
0.0
 40
0.0
 40
0.0
 40
0.0
 40
0.1666666666666667
 40
0.1666666666666667
 40
0.1666666666666667
 40
0.1666666666666667
 40
0.3333333333333333
 40
0.3333333333333333
 40
0.3333333333333333
 40
0.3333333333333333
 40
0.5
 40
0.5
 40
0.5
 40
0.5
 40
0.6666666666666666
 40
0.6666666666666666
 40
0.6666666666666666
 40
0.6666666666666666
 40
1.0
 40
1.0
 40
1.0
 40
1.0
 10
138.4596
 20
32.4729
 30
0.0
 10
138.4596
 20
32.4729
 30
0.0
 10
138.4596
 20
6.5826
 30
0.0
 10
138.4596
 20
6.5826
 30
0.0
 10
138.4596
 20
6.5826
 30
0.0
 10
138.4596
 20
6.5826
 30
0.0
 10
142.273
 20
6.5826
 30
0.0
 10
142.273
 20
6.5826
 30
0.0
 10
142.273
 20
6.5826
 30
0.0
 10
142.6876
 20
14.0521
 30
0.0
 10
146.9871
 20
25.0631
 30
0.0
 10
161.1303
 20
28.5126
 30
0.0
 10
161.1303
 20
28.5126
 30
0.0
 10
161.1303
 20
28.5126
 30
0.0
 10
161.0827
 20
32.4955
 30
0.0
 10
161.0827
 20
32.4955
 30
0.0
 10
161.0827
 20
32.4955
 30
0.0
 10
159.3786
 20
32.4955
 30
0.0
 10
138.4596
 20
32.4729
 30
0.0
 10
138.4596
 20
32.4729
 30
0.0
  0
SPLINE
  5
BC
330
1F
100
AcDbEntity
  8
layer 1
 62
     7
100
AcDbSpline
210
0.0
220
0.0
230
1.0
 70
    11
 71
     3
 72
    16
 73
    12
 74
     0
 42
0.0000000001
 43
0.0000000001
 12
1.0
 22
0.0
 32
0.0
 13
1.0
 23
0.0
 33
0.0
 40
0.0
 40
0.0
 40
0.0
 40
0.0
 40
0.25
 40
0.25
 40
0.25
 40
0.25
 40
0.5
 40
0.5
 40
0.5
 40
0.5
 40
1.0
 40
1.0
 40
1.0
 40
1.0
 10
161.1239
 20
6.5826
 30
0.0
 10
161.1239
 20
6.5826
 30
0.0
 10
161.1239
 20
16.5821
 30
0.0
 10
161.1239
 20
16.5821
 30
0.0
 10
161.1239
 20
16.5821
 30
0.0
 10
159.8874
 20
16.2398
 30
0.0
 10
154.47
 20
13.4781
 30
0.0
 10
153.8136
 20
6.5632
 30
0.0
 10
153.8136
 20
6.5632
 30
0.0
 10
155.0469
 20
6.5603
 30
0.0
 10
161.1239
 20
6.5826
 30
0.0
 10
161.1239
 20
6.5826
 30
0.0
  0
SPLINE
  5
BD
330
1F
100
AcDbEntity
  8
layer 1
 62
     7
100
AcDbSpline
210
0.0
220
0.0
230
1.0
 70
    11
 71
     3
 72
    20
 73
    16
 74
     0
 42
0.0000000001
 43
0.0000000001
 12
1.0
 22
0.0
 32
0.0
 13
1.0
 23
0.0
 33
0.0
 40
0.0
 40
0.0
 40
0.0
 40
0.0
 40
0.2
 40
0.2
 40
0.2
 40
0.2
 40
0.4
 40
0.4
 40
0.4
 40
0.4
 40
0.6
 40
0.6
 40
0.6
 40
0.6
 40
1.0
 40
1.0
 40
1.0
 40
1.0
 10
161.1239
 20
26.8107
 30
0.0
 10
149.4947
 20
23.9077
 30
0.0
 10
144.3949
 20
14.6955
 30
0.0
 10
143.9177
 20
6.5826
 30
0.0
 10
143.9177
 20
6.5826
 30
0.0
 10
143.9177
 20
6.5826
 30
0.0
 10
152.3826
 20
6.6013
 30
0.0
 10
152.3826
 20
6.6013
 30
0.0
 10
152.3826
 20
6.6013
 30
0.0
 10
152.5272
 20
11.1112
 30
0.0
 10
155.308
 20
15.8316
 30
0.0
 10
161.1615
 20
18.1641
 30
0.0
 10
161.1615
 20
18.1641
 30
0.0
 10
161.1615
 20
18.1641
 30
0.0
 10
161.1239
 20
26.8107
 30
0.0
 10
161.1239
 20
26.8107
 30
0.0
  0
SPLINE
  5
BE
330
1F
100
AcDbEntity
  8
layer 1
 62
     7
100
AcDbSpline
210
0.0
220
0.0
230
1.0
 70
    11
 71
     3
 72
    20
 73
    16
 74
     0
 42
0.0000000001
 43
0.0000000001
 12
1.0
 22
0.0
 32
0.0
 13
1.0
 23
0.0
 33
0.0
 40
0.0
 40
0.0
 40
0.0
 40
0.0
 40
0.2
 40
0.2
 40
0.2
 40
0.2
 40
0.4
 40
0.4
 40
0.4
 40
0.4
 40
0.6
 40
0.6
 40
0.6
 40
0.6
 40
1.0
 40
1.0
 40
1.0
 40
1.0
 10
168.3684
 20
38.5684
 30
0.0
 10
168.3684
 20
38.5684
 30
0.0
 10
168.3996
 20
28.7631
 30
0.0
 10
168.3996
 20
28.7631
 30
0.0
 10
168.3996
 20
28.7631
 30
0.0
 10
166.5506
 20
28.9672
 30
0.0
 10
164.6046
 20
28.9802
 30
0.0
 10
162.9597
 20
28.7946
 30
0.0
 10
162.9597
 20
28.7946
 30
0.0
 10
162.9597
 20
28.7946
 30
0.0
 10
162.8843
 20
38.5877
 30
0.0
 10
162.8843
 20
38.5877
 30
0.0
 10
162.8843
 20
38.5877
 30
0.0
 10
164.8777
 20
38.3836
 30
0.0
 10
166.3023
 20
38.3802
 30
0.0
 10
168.3684
 20
38.5684
 30
0.0
  0
SPLINE
  5
BF
330
1F
100
AcDbEntity
  8
layer 1
 62
     7
100
AcDbSpline
210
0.0
220
0.0
230
1.0
 70
    11
 71
     3
 72
    20
 73
    16
 74
     0
 42
0.0000000001
 43
0.0000000001
 12
1.0
 22
0.0
 32
0.0
 13
1.0
 23
0.0
 33
0.0
 40
0.0
 40
0.0
 40
0.0
 40
0.0
 40
0.2
 40
0.2
 40
0.2
 40
0.2
 40
0.4
 40
0.4
 40
0.4
 40
0.4
 40
0.6
 40
0.6
 40
0.6
 40
0.6
 40
1.0
 40
1.0
 40
1.0
 40
1.0
 10
26.2469
 20
-11.2345
 30
0.0
 10
26.2469
 20
-13.2853
 30
0.0
 10
24.586
 20
-14.9461
 30
0.0
 10
22.5351
 20
-14.9461
 30
0.0
 10
22.5351
 20
-14.9461
 30
0.0
 10
20.4879
 20
-14.9461
 30
0.0
 10
18.8267
 20
-13.2853
 30
0.0
 10
18.8267
 20
-11.2347
 30
0.0
 10
18.8267
 20
-11.2347
 30
0.0
 10
18.8267
 20
-9.187
 30
0.0
 10
20.4877
 20
-7.5263
 30
0.0
 10
22.5351
 20
-7.5263
 30
0.0
 10
22.5351
 20
-7.5263
 30
0.0
 10
24.586
 20
-7.5263
 30
0.0
 10
26.2469
 20
-9.187
 30
0.0
 10
26.2469
 20
-11.2345
 30
0.0
  0
SPLINE
  5
C0
330
1F
100
AcDbEntity
  8
layer 1
 62
     7
100
AcDbSpline
210
0.0
220
0.0
230
1.0
 70
    11
 71
     3
 72
    24
 73
    20
 74
     0
 42
0.0000000001
 43
0.0000000001
 12
1.0
 22
0.0
 32
0.0
 13
1.0
 23
0.0
 33
0.0
 40
0.0
 40
0.0
 40
0.0
 40
0.0
 40
0.1666666666666667
 40
0.1666666666666667
 40
0.1666666666666667
 40
0.1666666666666667
 40
0.3333333333333333
 40
0.3333333333333333
 40
0.3333333333333333
 40
0.3333333333333333
 40
0.5
 40
0.5
 40
0.5
 40
0.5
 40
0.6666666666666666
 40
0.6666666666666666
 40
0.6666666666666666
 40
0.6666666666666666
 40
1.0
 40
1.0
 40
1.0
 40
1.0
 10
9.4625
 20
1.7248
 30
0.0
 10
9.4625
 20
1.7248
 30
0.0
 10
9.4625
 20
-10.3551
 30
0.0
 10
9.4625
 20
-10.3551
 30
0.0
 10
9.4625
 20
-10.3551
 30
0.0
 10
9.4625
 20
-10.3551
 30
0.0
 10
17.1154
 20
-10.3551
 30
0.0
 10
17.1154
 20
-10.3551
 30
0.0
 10
17.1154
 20
-10.3551
 30
0.0
 10
17.457
 20
-7.9941
 30
0.0
 10
19.1596
 20
-6.3678
 30
0.0
 10
21.6115
 20
-5.7361
 30
0.0
 10
21.6115
 20
-5.7361
 30
0.0
 10
21.6115
 20
-5.7361
 30
0.0
 10
21.6405
 20
1.7433
 30
0.0
 10
21.6405
 20
1.7433
 30
0.0
 10
21.6405
 20
1.7433
 30
0.0
 10
19.9355
 20
1.7465
 30
0.0
 10
9.4625
 20
1.7248
 30
0.0
 10
9.4625
 20
1.7248
 30
0.0
  0
SPLINE
  5
C1
330
1F
100
AcDbEntity
  8
layer 1
 62
     7
100
AcDbSpline
210
0.0
220
0.0
230
1.0
 70
    11
 71
     3
 72
    24
 73
    20
 74
     0
 42
0.0000000001
 43
0.0000000001
 12
1.0
 22
0.0
 32
0.0
 13
1.0
 23
0.0
 33
0.0
 40
0.0
 40
0.0
 40
0.0
 40
0.0
 40
0.1666666666666667
 40
0.1666666666666667
 40
0.1666666666666667
 40
0.1666666666666667
 40
0.3333333333333333
 40
0.3333333333333333
 40
0.3333333333333333
 40
0.3333333333333333
 40
0.5
 40
0.5
 40
0.5
 40
0.5
 40
0.6666666666666666
 40
0.6666666666666666
 40
0.6666666666666666
 40
0.6666666666666666
 40
1.0
 40
1.0
 40
1.0
 40
1.0
 10
9.4625
 20
-24.1626
 30
0.0
 10
9.4625
 20
-24.1626
 30
0.0
 10
9.4625
 20
-12.0828
 30
0.0
 10
9.4625
 20
-12.0828
 30
0.0
 10
9.4625
 20
-12.0828
 30
0.0
 10
9.4625
 20
-12.0828
 30
0.0
 10
17.1154
 20
-12.0828
 30
0.0
 10
17.1154
 20
-12.0828
 30
0.0
 10
17.1154
 20
-12.0828
 30
0.0
 10
17.457
 20
-14.4436
 30
0.0
 10
19.1596
 20
-16.0708
 30
0.0
 10
21.6115
 20
-16.7018
 30
0.0
 10
21.6115
 20
-16.7018
 30
0.0
 10
21.6115
 20
-16.7018
 30
0.0
 10
21.6405
 20
-24.1819
 30
0.0
 10
21.6405
 20
-24.1819
 30
0.0
 10
21.6405
 20
-24.1819
 30
0.0
 10
19.9355
 20
-24.1851
 30
0.0
 10
9.4625
 20
-24.1626
 30
0.0
 10
9.4625
 20
-24.1626
 30
0.0
  0
SPLINE
  5
C2
330
1F
100
AcDbEntity
  8
layer 1
 62
     7
100
AcDbSpline
210
0.0
220
0.0
230
1.0
 70
    11
 71
     3
 72
    24
 73
    20
 74
     0
 42
0.0000000001
 43
0.0000000001
 12
1.0
 22
0.0
 32
0.0
 13
1.0
 23
0.0
 33
0.0
 40
0.0
 40
0.0
 40
0.0
 40
0.0
 40
0.1666666666666667
 40
0.1666666666666667
 40
0.1666666666666667
 40
0.1666666666666667
 40
0.3333333333333333
 40
0.3333333333333333
 40
0.3333333333333333
 40
0.3333333333333333
 40
0.5
 40
0.5
 40
0.5
 40
0.5
 40
0.6666666666666666
 40
0.6666666666666666
 40
0.6666666666666666
 40
0.6666666666666666
 40
1.0
 40
1.0
 40
1.0
 40
1.0
 10
35.5106
 20
1.7248
 30
0.0
 10
35.5106
 20
1.7248
 30
0.0
 10
35.5106
 20
-10.3551
 30
0.0
 10
35.5106
 20
-10.3551
 30
0.0
 10
35.5106
 20
-10.3551
 30
0.0
 10
35.5106
 20
-10.3551
 30
0.0
 10
27.8577
 20
-10.3551
 30
0.0
 10
27.8577
 20
-10.3551
 30
0.0
 10
27.8577
 20
-10.3551
 30
0.0
 10
27.5187
 20
-7.9941
 30
0.0
 10
25.8133
 20
-6.3678
 30
0.0
 10
23.3607
 20
-5.7361
 30
0.0
 10
23.3607
 20
-5.7361
 30
0.0
 10
23.3607
 20
-5.7361
 30
0.0
 10
23.3327
 20
1.7433
 30
0.0
 10
23.3327
 20
1.7433
 30
0.0
 10
23.3327
 20
1.7433
 30
0.0
 10
25.0376
 20
1.7465
 30
0.0
 10
35.5106
 20
1.7248
 30
0.0
 10
35.5106
 20
1.7248
 30
0.0
  0
SPLINE
  5
C3
330
1F
100
AcDbEntity
  8
layer 1
 62
     7
100
AcDbSpline
210
0.0
220
0.0
230
1.0
 70
    11
 71
     3
 72
    24
 73
    20
 74
     0
 42
0.0000000001
 43
0.0000000001
 12
1.0
 22
0.0
 32
0.0
 13
1.0
 23
0.0
 33
0.0
 40
0.0
 40
0.0
 40
0.0
 40
0.0
 40
0.1666666666666667
 40
0.1666666666666667
 40
0.1666666666666667
 40
0.1666666666666667
 40
0.3333333333333333
 40
0.3333333333333333
 40
0.3333333333333333
 40
0.3333333333333333
 40
0.5
 40
0.5
 40
0.5
 40
0.5
 40
0.6666666666666666
 40
0.6666666666666666
 40
0.6666666666666666
 40
0.6666666666666666
 40
1.0
 40
1.0
 40
1.0
 40
1.0
 10
35.5106
 20
-24.1626
 30
0.0
 10
35.5106
 20
-24.1626
 30
0.0
 10
35.5106
 20
-12.0828
 30
0.0
 10
35.5106
 20
-12.0828
 30
0.0
 10
35.5106
 20
-12.0828
 30
0.0
 10
35.5106
 20
-12.0828
 30
0.0
 10
27.8577
 20
-12.0828
 30
0.0
 10
27.8577
 20
-12.0828
 30
0.0
 10
27.8577
 20
-12.0828
 30
0.0
 10
27.5187
 20
-14.4436
 30
0.0
 10
25.8133
 20
-16.0708
 30
0.0
 10
23.3607
 20
-16.7018
 30
0.0
 10
23.3607
 20
-16.7018
 30
0.0
 10
23.3607
 20
-16.7018
 30
0.0
 10
23.3327
 20
-24.1819
 30
0.0
 10
23.3327
 20
-24.1819
 30
0.0
 10
23.3327
 20
-24.1819
 30
0.0
 10
25.0376
 20
-24.1851
 30
0.0
 10
35.5106
 20
-24.1626
 30
0.0
 10
35.5106
 20
-24.1626
 30
0.0
  0
SPLINE
  5
C4
330
1F
100
AcDbEntity
  8
layer 1
 62
     7
100
AcDbSpline
210
0.0
220
0.0
230
1.0
 70
    11
 71
     3
 72
    20
 73
    16
 74
     0
 42
0.0000000001
 43
0.0000000001
 12
1.0
 22
0.0
 32
0.0
 13
1.0
 23
0.0
 33
0.0
 40
0.0
 40
0.0
 40
0.0
 40
0.0
 40
0.2
 40
0.2
 40
0.2
 40
0.2
 40
0.4
 40
0.4
 40
0.4
 40
0.4
 40
0.6
 40
0.6
 40
0.6
 40
0.6
 40
1.0
 40
1.0
 40
1.0
 40
1.0
 10
54.3328
 20
-11.2345
 30
0.0
 10
54.3328
 20
-13.2853
 30
0.0
 10
52.671
 20
-14.9461
 30
0.0
 10
50.6203
 20
-14.9461
 30
0.0
 10
50.6203
 20
-14.9461
 30
0.0
 10
48.5738
 20
-14.9461
 30
0.0
 10
46.9119
 20
-13.2853
 30
0.0
 10
46.9119
 20
-11.2347
 30
0.0
 10
46.9119
 20
-11.2347
 30
0.0
 10
46.9119
 20
-9.187
 30
0.0
 10
48.5736
 20
-7.5263
 30
0.0
 10
50.6203
 20
-7.5263
 30
0.0
 10
50.6203
 20
-7.5263
 30
0.0
 10
52.671
 20
-7.5263
 30
0.0
 10
54.3328
 20
-9.187
 30
0.0
 10
54.3328
 20
-11.2345
 30
0.0
  0
SPLINE
  5
C5
330
1F
100
AcDbEntity
  8
layer 1
 62
     7
100
AcDbSpline
210
0.0
220
0.0
230
1.0
 70
    11
 71
     3
 72
    24
 73
    20
 74
     0
 42
0.0000000001
 43
0.0000000001
 12
1.0
 22
0.0
 32
0.0
 13
1.0
 23
0.0
 33
0.0
 40
0.0
 40
0.0
 40
0.0
 40
0.0
 40
0.1666666666666667
 40
0.1666666666666667
 40
0.1666666666666667
 40
0.1666666666666667
 40
0.3333333333333333
 40
0.3333333333333333
 40
0.3333333333333333
 40
0.3333333333333333
 40
0.5
 40
0.5
 40
0.5
 40
0.5
 40
0.6666666666666666
 40
0.6666666666666666
 40
0.6666666666666666
 40
0.6666666666666666
 40
1.0
 40
1.0
 40
1.0
 40
1.0
 10
37.5485
 20
1.7248
 30
0.0
 10
37.5485
 20
1.7248
 30
0.0
 10
37.5485
 20
-10.3551
 30
0.0
 10
37.5485
 20
-10.3551
 30
0.0
 10
37.5485
 20
-10.3551
 30
0.0
 10
37.5485
 20
-10.3551
 30
0.0
 10
45.2009
 20
-10.3551
 30
0.0
 10
45.2009
 20
-10.3551
 30
0.0
 10
45.2009
 20
-10.3551
 30
0.0
 10
45.5399
 20
-7.9941
 30
0.0
 10
47.2449
 20
-6.3678
 30
0.0
 10
49.6975
 20
-5.7361
 30
0.0
 10
49.6975
 20
-5.7361
 30
0.0
 10
49.6975
 20
-5.7361
 30
0.0
 10
49.7257
 20
1.7433
 30
0.0
 10
49.7257
 20
1.7433
 30
0.0
 10
49.7257
 20
1.7433
 30
0.0
 10
48.0208
 20
1.7465
 30
0.0
 10
37.5485
 20
1.7248
 30
0.0
 10
37.5485
 20
1.7248
 30
0.0
  0
SPLINE
  5
C6
330
1F
100
AcDbEntity
  8
layer 1
 62
     7
100
AcDbSpline
210
0.0
220
0.0
230
1.0
 70
    11
 71
     3
 72
    24
 73
    20
 74
     0
 42
0.0000000001
 43
0.0000000001
 12
1.0
 22
0.0
 32
0.0
 13
1.0
 23
0.0
 33
0.0
 40
0.0
 40
0.0
 40
0.0
 40
0.0
 40
0.1666666666666667
 40
0.1666666666666667
 40
0.1666666666666667
 40
0.1666666666666667
 40
0.3333333333333333
 40
0.3333333333333333
 40
0.3333333333333333
 40
0.3333333333333333
 40
0.5
 40
0.5
 40
0.5
 40
0.5
 40
0.6666666666666666
 40
0.6666666666666666
 40
0.6666666666666666
 40
0.6666666666666666
 40
1.0
 40
1.0
 40
1.0
 40
1.0
 10
37.5485
 20
-24.1626
 30
0.0
 10
37.5485
 20
-24.1626
 30
0.0
 10
37.5485
 20
-12.0828
 30
0.0
 10
37.5485
 20
-12.0828
 30
0.0
 10
37.5485
 20
-12.0828
 30
0.0
 10
37.5485
 20
-12.0828
 30
0.0
 10
45.2009
 20
-12.0828
 30
0.0
 10
45.2009
 20
-12.0828
 30
0.0
 10
45.2009
 20
-12.0828
 30
0.0
 10
45.5399
 20
-14.4436
 30
0.0
 10
47.2449
 20
-16.0708
 30
0.0
 10
49.6975
 20
-16.7018
 30
0.0
 10
49.6975
 20
-16.7018
 30
0.0
 10
49.6975
 20
-16.7018
 30
0.0
 10
49.7257
 20
-24.1819
 30
0.0
 10
49.7257
 20
-24.1819
 30
0.0
 10
49.7257
 20
-24.1819
 30
0.0
 10
48.0208
 20
-24.1851
 30
0.0
 10
37.5485
 20
-24.1626
 30
0.0
 10
37.5485
 20
-24.1626
 30
0.0
  0
SPLINE
  5
C7
330
1F
100
AcDbEntity
  8
layer 1
 62
     7
100
AcDbSpline
210
0.0
220
0.0
230
1.0
 70
    11
 71
     3
 72
    24
 73
    20
 74
     0
 42
0.0000000001
 43
0.0000000001
 12
1.0
 22
0.0
 32
0.0
 13
1.0
 23
0.0
 33
0.0
 40
0.0
 40
0.0
 40
0.0
 40
0.0
 40
0.1666666666666667
 40
0.1666666666666667
 40
0.1666666666666667
 40
0.1666666666666667
 40
0.3333333333333333
 40
0.3333333333333333
 40
0.3333333333333333
 40
0.3333333333333333
 40
0.5
 40
0.5
 40
0.5
 40
0.5
 40
0.6666666666666666
 40
0.6666666666666666
 40
0.6666666666666666
 40
0.6666666666666666
 40
1.0
 40
1.0
 40
1.0
 40
1.0
 10
63.5958
 20
1.7248
 30
0.0
 10
63.5958
 20
1.7248
 30
0.0
 10
63.5958
 20
-10.3551
 30
0.0
 10
63.5958
 20
-10.3551
 30
0.0
 10
63.5958
 20
-10.3551
 30
0.0
 10
63.5958
 20
-10.3551
 30
0.0
 10
55.943
 20
-10.3551
 30
0.0
 10
55.943
 20
-10.3551
 30
0.0
 10
55.943
 20
-10.3551
 30
0.0
 10
55.6012
 20
-7.9941
 30
0.0
 10
53.8962
 20
-6.3678
 30
0.0
 10
51.4436
 20
-5.7361
 30
0.0
 10
51.4436
 20
-5.7361
 30
0.0
 10
51.4436
 20
-5.7361
 30
0.0
 10
51.4188
 20
1.7433
 30
0.0
 10
51.4188
 20
1.7433
 30
0.0
 10
51.4188
 20
1.7433
 30
0.0
 10
53.1237
 20
1.7465
 30
0.0
 10
63.5958
 20
1.7248
 30
0.0
 10
63.5958
 20
1.7248
 30
0.0
  0
SPLINE
  5
C8
330
1F
100
AcDbEntity
  8
layer 1
 62
     7
100
AcDbSpline
210
0.0
220
0.0
230
1.0
 70
    11
 71
     3
 72
    24
 73
    20
 74
     0
 42
0.0000000001
 43
0.0000000001
 12
1.0
 22
0.0
 32
0.0
 13
1.0
 23
0.0
 33
0.0
 40
0.0
 40
0.0
 40
0.0
 40
0.0
 40
0.1666666666666667
 40
0.1666666666666667
 40
0.1666666666666667
 40
0.1666666666666667
 40
0.3333333333333333
 40
0.3333333333333333
 40
0.3333333333333333
 40
0.3333333333333333
 40
0.5
 40
0.5
 40
0.5
 40
0.5
 40
0.6666666666666666
 40
0.6666666666666666
 40
0.6666666666666666
 40
0.6666666666666666
 40
1.0
 40
1.0
 40
1.0
 40
1.0
 10
63.5958
 20
-24.1626
 30
0.0
 10
63.5958
 20
-24.1626
 30
0.0
 10
63.5958
 20
-12.0828
 30
0.0
 10
63.5958
 20
-12.0828
 30
0.0
 10
63.5958
 20
-12.0828
 30
0.0
 10
63.5958
 20
-12.0828
 30
0.0
 10
55.943
 20
-12.0828
 30
0.0
 10
55.943
 20
-12.0828
 30
0.0
 10
55.943
 20
-12.0828
 30
0.0
 10
55.6012
 20
-14.4436
 30
0.0
 10
53.8962
 20
-16.0708
 30
0.0
 10
51.4436
 20
-16.7018
 30
0.0
 10
51.4436
 20
-16.7018
 30
0.0
 10
51.4436
 20
-16.7018
 30
0.0
 10
51.4188
 20
-24.1819
 30
0.0
 10
51.4188
 20
-24.1819
 30
0.0
 10
51.4188
 20
-24.1819
 30
0.0
 10
53.1237
 20
-24.1851
 30
0.0
 10
63.5958
 20
-24.1626
 30
0.0
 10
63.5958
 20
-24.1626
 30
0.0
  0
SPLINE
  5
C9
330
1F
100
AcDbEntity
  8
layer 1
 62
     7
100
AcDbSpline
210
0.0
220
0.0
230
1.0
 70
    11
 71
     3
 72
    20
 73
    16
 74
     0
 42
0.0000000001
 43
0.0000000001
 12
1.0
 22
0.0
 32
0.0
 13
1.0
 23
0.0
 33
0.0
 40
0.0
 40
0.0
 40
0.0
 40
0.0
 40
0.2
 40
0.2
 40
0.2
 40
0.2
 40
0.4
 40
0.4
 40
0.4
 40
0.4
 40
0.6
 40
0.6
 40
0.6
 40
0.6
 40
1.0
 40
1.0
 40
1.0
 40
1.0
 10
26.2469
 20
-39.1976
 30
0.0
 10
26.2469
 20
-41.245
 30
0.0
 10
24.586
 20
-42.9069
 30
0.0
 10
22.5351
 20
-42.9069
 30
0.0
 10
22.5351
 20
-42.9069
 30
0.0
 10
20.4879
 20
-42.9066
 30
0.0
 10
18.8267
 20
-41.2452
 30
0.0
 10
18.8267
 20
-39.1976
 30
0.0
 10
18.8267
 20
-39.1976
 30
0.0
 10
18.8267
 20
-37.1476
 30
0.0
 10
20.4877
 20
-35.4862
 30
0.0
 10
22.5351
 20
-35.4862
 30
0.0
 10
22.5351
 20
-35.4862
 30
0.0
 10
24.586
 20
-35.486
 30
0.0
 10
26.2469
 20
-37.1479
 30
0.0
 10
26.2469
 20
-39.1976
 30
0.0
  0
SPLINE
  5
CA
330
1F
100
AcDbEntity
  8
layer 1
 62
     7
100
AcDbSpline
210
0.0
220
0.0
230
1.0
 70
    11
 71
     3
 72
    24
 73
    20
 74
     0
 42
0.0000000001
 43
0.0000000001
 12
1.0
 22
0.0
 32
0.0
 13
1.0
 23
0.0
 33
0.0
 40
0.0
 40
0.0
 40
0.0
 40
0.0
 40
0.1666666666666667
 40
0.1666666666666667
 40
0.1666666666666667
 40
0.1666666666666667
 40
0.3333333333333333
 40
0.3333333333333333
 40
0.3333333333333333
 40
0.3333333333333333
 40
0.5
 40
0.5
 40
0.5
 40
0.5
 40
0.6666666666666666
 40
0.6666666666666666
 40
0.6666666666666666
 40
0.6666666666666666
 40
1.0
 40
1.0
 40
1.0
 40
1.0
 10
9.4625
 20
-26.2351
 30
0.0
 10
9.4625
 20
-26.2351
 30
0.0
 10
9.4625
 20
-38.3157
 30
0.0
 10
9.4625
 20
-38.3157
 30
0.0
 10
9.4625
 20
-38.3157
 30
0.0
 10
9.4625
 20
-38.3157
 30
0.0
 10
17.1154
 20
-38.3157
 30
0.0
 10
17.1154
 20
-38.3157
 30
0.0
 10
17.1154
 20
-38.3157
 30
0.0
 10
17.457
 20
-35.9572
 30
0.0
 10
19.1596
 20
-34.3309
 30
0.0
 10
21.6115
 20
-33.6999
 30
0.0
 10
21.6115
 20
-33.6999
 30
0.0
 10
21.6115
 20
-33.6999
 30
0.0
 10
21.6405
 20
-26.2166
 30
0.0
 10
21.6405
 20
-26.2166
 30
0.0
 10
21.6405
 20
-26.2166
 30
0.0
 10
19.9355
 20
-26.2134
 30
0.0
 10
9.4625
 20
-26.2351
 30
0.0
 10
9.4625
 20
-26.2351
 30
0.0
  0
SPLINE
  5
CB
330
1F
100
AcDbEntity
  8
layer 1
 62
     7
100
AcDbSpline
210
0.0
220
0.0
230
1.0
 70
    11
 71
     3
 72
    24
 73
    20
 74
     0
 42
0.0000000001
 43
0.0000000001
 12
1.0
 22
0.0
 32
0.0
 13
1.0
 23
0.0
 33
0.0
 40
0.0
 40
0.0
 40
0.0
 40
0.0
 40
0.1666666666666667
 40
0.1666666666666667
 40
0.1666666666666667
 40
0.1666666666666667
 40
0.3333333333333333
 40
0.3333333333333333
 40
0.3333333333333333
 40
0.3333333333333333
 40
0.5
 40
0.5
 40
0.5
 40
0.5
 40
0.6666666666666666
 40
0.6666666666666666
 40
0.6666666666666666
 40
0.6666666666666666
 40
1.0
 40
1.0
 40
1.0
 40
1.0
 10
9.4625
 20
-52.1231
 30
0.0
 10
9.4625
 20
-52.1231
 30
0.0
 10
9.4625
 20
-40.0457
 30
0.0
 10
9.4625
 20
-40.0457
 30
0.0
 10
9.4625
 20
-40.0457
 30
0.0
 10
9.4625
 20
-40.0457
 30
0.0
 10
17.1154
 20
-40.0457
 30
0.0
 10
17.1154
 20
-40.0457
 30
0.0
 10
17.1154
 20
-40.0457
 30
0.0
 10
17.457
 20
-42.4044
 30
0.0
 10
19.1596
 20
-44.0305
 30
0.0
 10
21.6115
 20
-44.6617
 30
0.0
 10
21.6115
 20
-44.6617
 30
0.0
 10
21.6115
 20
-44.6617
 30
0.0
 10
21.6405
 20
-52.145
 30
0.0
 10
21.6405
 20
-52.145
 30
0.0
 10
21.6405
 20
-52.145
 30
0.0
 10
19.9355
 20
-52.145
 30
0.0
 10
9.4625
 20
-52.1231
 30
0.0
 10
9.4625
 20
-52.1231
 30
0.0
  0
SPLINE
  5
CC
330
1F
100
AcDbEntity
  8
layer 1
 62
     7
100
AcDbSpline
210
0.0
220
0.0
230
1.0
 70
    11
 71
     3
 72
    24
 73
    20
 74
     0
 42
0.0000000001
 43
0.0000000001
 12
1.0
 22
0.0
 32
0.0
 13
1.0
 23
0.0
 33
0.0
 40
0.0
 40
0.0
 40
0.0
 40
0.0
 40
0.1666666666666667
 40
0.1666666666666667
 40
0.1666666666666667
 40
0.1666666666666667
 40
0.3333333333333333
 40
0.3333333333333333
 40
0.3333333333333333
 40
0.3333333333333333
 40
0.5
 40
0.5
 40
0.5
 40
0.5
 40
0.6666666666666666
 40
0.6666666666666666
 40
0.6666666666666666
 40
0.6666666666666666
 40
1.0
 40
1.0
 40
1.0
 40
1.0
 10
35.5106
 20
-26.2351
 30
0.0
 10
35.5106
 20
-26.2351
 30
0.0
 10
35.5106
 20
-38.3157
 30
0.0
 10
35.5106
 20
-38.3157
 30
0.0
 10
35.5106
 20
-38.3157
 30
0.0
 10
35.5106
 20
-38.3157
 30
0.0
 10
27.8577
 20
-38.3157
 30
0.0
 10
27.8577
 20
-38.3157
 30
0.0
 10
27.8577
 20
-38.3157
 30
0.0
 10
27.5187
 20
-35.9572
 30
0.0
 10
25.8133
 20
-34.3309
 30
0.0
 10
23.3607
 20
-33.6999
 30
0.0
 10
23.3607
 20
-33.6999
 30
0.0
 10
23.3607
 20
-33.6999
 30
0.0
 10
23.3327
 20
-26.2166
 30
0.0
 10
23.3327
 20
-26.2166
 30
0.0
 10
23.3327
 20
-26.2166
 30
0.0
 10
25.0376
 20
-26.2134
 30
0.0
 10
35.5106
 20
-26.2351
 30
0.0
 10
35.5106
 20
-26.2351
 30
0.0
  0
SPLINE
  5
CD
330
1F
100
AcDbEntity
  8
layer 1
 62
     7
100
AcDbSpline
210
0.0
220
0.0
230
1.0
 70
    11
 71
     3
 72
    24
 73
    20
 74
     0
 42
0.0000000001
 43
0.0000000001
 12
1.0
 22
0.0
 32
0.0
 13
1.0
 23
0.0
 33
0.0
 40
0.0
 40
0.0
 40
0.0
 40
0.0
 40
0.1666666666666667
 40
0.1666666666666667
 40
0.1666666666666667
 40
0.1666666666666667
 40
0.3333333333333333
 40
0.3333333333333333
 40
0.3333333333333333
 40
0.3333333333333333
 40
0.5
 40
0.5
 40
0.5
 40
0.5
 40
0.6666666666666666
 40
0.6666666666666666
 40
0.6666666666666666
 40
0.6666666666666666
 40
1.0
 40
1.0
 40
1.0
 40
1.0
 10
35.5106
 20
-52.1231
 30
0.0
 10
35.5106
 20
-52.1231
 30
0.0
 10
35.5106
 20
-40.0457
 30
0.0
 10
35.5106
 20
-40.0457
 30
0.0
 10
35.5106
 20
-40.0457
 30
0.0
 10
35.5106
 20
-40.0457
 30
0.0
 10
27.8577
 20
-40.0457
 30
0.0
 10
27.8577
 20
-40.0457
 30
0.0
 10
27.8577
 20
-40.0457
 30
0.0
 10
27.5187
 20
-42.4044
 30
0.0
 10
25.8133
 20
-44.0305
 30
0.0
 10
23.3607
 20
-44.6617
 30
0.0
 10
23.3607
 20
-44.6617
 30
0.0
 10
23.3607
 20
-44.6617
 30
0.0
 10
23.3327
 20
-52.145
 30
0.0
 10
23.3327
 20
-52.145
 30
0.0
 10
23.3327
 20
-52.145
 30
0.0
 10
25.0376
 20
-52.145
 30
0.0
 10
35.5106
 20
-52.1231
 30
0.0
 10
35.5106
 20
-52.1231
 30
0.0
  0
SPLINE
  5
CE
330
1F
100
AcDbEntity
  8
layer 1
 62
     7
100
AcDbSpline
210
0.0
220
0.0
230
1.0
 70
    11
 71
     3
 72
    20
 73
    16
 74
     0
 42
0.0000000001
 43
0.0000000001
 12
1.0
 22
0.0
 32
0.0
 13
1.0
 23
0.0
 33
0.0
 40
0.0
 40
0.0
 40
0.0
 40
0.0
 40
0.2
 40
0.2
 40
0.2
 40
0.2
 40
0.4
 40
0.4
 40
0.4
 40
0.4
 40
0.6
 40
0.6
 40
0.6
 40
0.6
 40
1.0
 40
1.0
 40
1.0
 40
1.0
 10
54.3328
 20
-39.1976
 30
0.0
 10
54.3328
 20
-41.245
 30
0.0
 10
52.671
 20
-42.9069
 30
0.0
 10
50.6203
 20
-42.9069
 30
0.0
 10
50.6203
 20
-42.9069
 30
0.0
 10
48.5738
 20
-42.9066
 30
0.0
 10
46.9119
 20
-41.2452
 30
0.0
 10
46.9119
 20
-39.1976
 30
0.0
 10
46.9119
 20
-39.1976
 30
0.0
 10
46.9119
 20
-37.1476
 30
0.0
 10
48.5736
 20
-35.4862
 30
0.0
 10
50.6203
 20
-35.4862
 30
0.0
 10
50.6203
 20
-35.4862
 30
0.0
 10
52.671
 20
-35.486
 30
0.0
 10
54.3328
 20
-37.1479
 30
0.0
 10
54.3328
 20
-39.1976
 30
0.0
  0
SPLINE
  5
CF
330
1F
100
AcDbEntity
  8
layer 1
 62
     7
100
AcDbSpline
210
0.0
220
0.0
230
1.0
 70
    11
 71
     3
 72
    24
 73
    20
 74
     0
 42
0.0000000001
 43
0.0000000001
 12
1.0
 22
0.0
 32
0.0
 13
1.0
 23
0.0
 33
0.0
 40
0.0
 40
0.0
 40
0.0
 40
0.0
 40
0.1666666666666667
 40
0.1666666666666667
 40
0.1666666666666667
 40
0.1666666666666667
 40
0.3333333333333333
 40
0.3333333333333333
 40
0.3333333333333333
 40
0.3333333333333333
 40
0.5
 40
0.5
 40
0.5
 40
0.5
 40
0.6666666666666666
 40
0.6666666666666666
 40
0.6666666666666666
 40
0.6666666666666666
 40
1.0
 40
1.0
 40
1.0
 40
1.0
 10
37.5485
 20
-26.2351
 30
0.0
 10
37.5485
 20
-26.2351
 30
0.0
 10
37.5485
 20
-38.3157
 30
0.0
 10
37.5485
 20
-38.3157
 30
0.0
 10
37.5485
 20
-38.3157
 30
0.0
 10
37.5485
 20
-38.3157
 30
0.0
 10
45.2009
 20
-38.3157
 30
0.0
 10
45.2009
 20
-38.3157
 30
0.0
 10
45.2009
 20
-38.3157
 30
0.0
 10
45.5399
 20
-35.9572
 30
0.0
 10
47.2449
 20
-34.3309
 30
0.0
 10
49.6975
 20
-33.6999
 30
0.0
 10
49.6975
 20
-33.6999
 30
0.0
 10
49.6975
 20
-33.6999
 30
0.0
 10
49.7257
 20
-26.2166
 30
0.0
 10
49.7257
 20
-26.2166
 30
0.0
 10
49.7257
 20
-26.2166
 30
0.0
 10
48.0208
 20
-26.2134
 30
0.0
 10
37.5485
 20
-26.2351
 30
0.0
 10
37.5485
 20
-26.2351
 30
0.0
  0
SPLINE
  5
D0
330
1F
100
AcDbEntity
  8
layer 1
 62
     7
100
AcDbSpline
210
0.0
220
0.0
230
1.0
 70
    11
 71
     3
 72
    24
 73
    20
 74
     0
 42
0.0000000001
 43
0.0000000001
 12
1.0
 22
0.0
 32
0.0
 13
1.0
 23
0.0
 33
0.0
 40
0.0
 40
0.0
 40
0.0
 40
0.0
 40
0.1666666666666667
 40
0.1666666666666667
 40
0.1666666666666667
 40
0.1666666666666667
 40
0.3333333333333333
 40
0.3333333333333333
 40
0.3333333333333333
 40
0.3333333333333333
 40
0.5
 40
0.5
 40
0.5
 40
0.5
 40
0.6666666666666666
 40
0.6666666666666666
 40
0.6666666666666666
 40
0.6666666666666666
 40
1.0
 40
1.0
 40
1.0
 40
1.0
 10
37.5485
 20
-52.1231
 30
0.0
 10
37.5485
 20
-52.1231
 30
0.0
 10
37.5485
 20
-40.0457
 30
0.0
 10
37.5485
 20
-40.0457
 30
0.0
 10
37.5485
 20
-40.0457
 30
0.0
 10
37.5485
 20
-40.0457
 30
0.0
 10
45.2009
 20
-40.0457
 30
0.0
 10
45.2009
 20
-40.0457
 30
0.0
 10
45.2009
 20
-40.0457
 30
0.0
 10
45.5399
 20
-42.4044
 30
0.0
 10
47.2449
 20
-44.0305
 30
0.0
 10
49.6975
 20
-44.6617
 30
0.0
 10
49.6975
 20
-44.6617
 30
0.0
 10
49.6975
 20
-44.6617
 30
0.0
 10
49.7257
 20
-52.145
 30
0.0
 10
49.7257
 20
-52.145
 30
0.0
 10
49.7257
 20
-52.145
 30
0.0
 10
48.0208
 20
-52.145
 30
0.0
 10
37.5485
 20
-52.1231
 30
0.0
 10
37.5485
 20
-52.1231
 30
0.0
  0
SPLINE
  5
D1
330
1F
100
AcDbEntity
  8
layer 1
 62
     7
100
AcDbSpline
210
0.0
220
0.0
230
1.0
 70
    11
 71
     3
 72
    24
 73
    20
 74
     0
 42
0.0000000001
 43
0.0000000001
 12
1.0
 22
0.0
 32
0.0
 13
1.0
 23
0.0
 33
0.0
 40
0.0
 40
0.0
 40
0.0
 40
0.0
 40
0.1666666666666667
 40
0.1666666666666667
 40
0.1666666666666667
 40
0.1666666666666667
 40
0.3333333333333333
 40
0.3333333333333333
 40
0.3333333333333333
 40
0.3333333333333333
 40
0.5
 40
0.5
 40
0.5
 40
0.5
 40
0.6666666666666666
 40
0.6666666666666666
 40
0.6666666666666666
 40
0.6666666666666666
 40
1.0
 40
1.0
 40
1.0
 40
1.0
 10
63.5958
 20
-26.2351
 30
0.0
 10
63.5958
 20
-26.2351
 30
0.0
 10
63.5958
 20
-38.3157
 30
0.0
 10
63.5958
 20
-38.3157
 30
0.0
 10
63.5958
 20
-38.3157
 30
0.0
 10
63.5958
 20
-38.3157
 30
0.0
 10
55.943
 20
-38.3157
 30
0.0
 10
55.943
 20
-38.3157
 30
0.0
 10
55.943
 20
-38.3157
 30
0.0
 10
55.6012
 20
-35.9572
 30
0.0
 10
53.8962
 20
-34.3309
 30
0.0
 10
51.4436
 20
-33.6999
 30
0.0
 10
51.4436
 20
-33.6999
 30
0.0
 10
51.4436
 20
-33.6999
 30
0.0
 10
51.4188
 20
-26.2166
 30
0.0
 10
51.4188
 20
-26.2166
 30
0.0
 10
51.4188
 20
-26.2166
 30
0.0
 10
53.1237
 20
-26.2134
 30
0.0
 10
63.5958
 20
-26.2351
 30
0.0
 10
63.5958
 20
-26.2351
 30
0.0
  0
SPLINE
  5
D2
330
1F
100
AcDbEntity
  8
layer 1
 62
     7
100
AcDbSpline
210
0.0
220
0.0
230
1.0
 70
    11
 71
     3
 72
    24
 73
    20
 74
     0
 42
0.0000000001
 43
0.0000000001
 12
1.0
 22
0.0
 32
0.0
 13
1.0
 23
0.0
 33
0.0
 40
0.0
 40
0.0
 40
0.0
 40
0.0
 40
0.1666666666666667
 40
0.1666666666666667
 40
0.1666666666666667
 40
0.1666666666666667
 40
0.3333333333333333
 40
0.3333333333333333
 40
0.3333333333333333
 40
0.3333333333333333
 40
0.5
 40
0.5
 40
0.5
 40
0.5
 40
0.6666666666666666
 40
0.6666666666666666
 40
0.6666666666666666
 40
0.6666666666666666
 40
1.0
 40
1.0
 40
1.0
 40
1.0
 10
63.5958
 20
-52.1231
 30
0.0
 10
63.5958
 20
-52.1231
 30
0.0
 10
63.5958
 20
-40.0457
 30
0.0
 10
63.5958
 20
-40.0457
 30
0.0
 10
63.5958
 20
-40.0457
 30
0.0
 10
63.5958
 20
-40.0457
 30
0.0
 10
55.943
 20
-40.0457
 30
0.0
 10
55.943
 20
-40.0457
 30
0.0
 10
55.943
 20
-40.0457
 30
0.0
 10
55.6012
 20
-42.4044
 30
0.0
 10
53.8962
 20
-44.0305
 30
0.0
 10
51.4436
 20
-44.6617
 30
0.0
 10
51.4436
 20
-44.6617
 30
0.0
 10
51.4436
 20
-44.6617
 30
0.0
 10
51.4188
 20
-52.145
 30
0.0
 10
51.4188
 20
-52.145
 30
0.0
 10
51.4188
 20
-52.145
 30
0.0
 10
53.1237
 20
-52.145
 30
0.0
 10
63.5958
 20
-52.1231
 30
0.0
 10
63.5958
 20
-52.1231
 30
0.0
  0
SPLINE
  5
D3
330
1F
100
AcDbEntity
  8
layer 1
 62
     7
100
AcDbSpline
210
0.0
220
0.0
230
1.0
 70
    11
 71
     3
 72
    20
 73
    16
 74
     0
 42
0.0000000001
 43
0.0000000001
 12
1.0
 22
0.0
 32
0.0
 13
1.0
 23
0.0
 33
0.0
 40
0.0
 40
0.0
 40
0.0
 40
0.0
 40
0.2
 40
0.2
 40
0.2
 40
0.2
 40
0.4
 40
0.4
 40
0.4
 40
0.4
 40
0.6
 40
0.6
 40
0.6
 40
0.6
 40
1.0
 40
1.0
 40
1.0
 40
1.0
 10
89.3071
 20
-2.4086
 30
0.0
 10
89.3071
 20
-2.4086
 30
0.0
 10
89.1883
 20
1.6856
 30
0.0
 10
89.1883
 20
1.6856
 30
0.0
 10
89.1883
 20
1.6856
 30
0.0
 10
89.1883
 20
1.6856
 30
0.0
 10
114.1767
 20
1.745
 30
0.0
 10
114.1767
 20
1.745
 30
0.0
 10
114.1767
 20
1.745
 30
0.0
 10
114.1767
 20
1.745
 30
0.0
 10
109.1973
 20
-5.3429
 30
0.0
 10
109.1973
 20
-5.3429
 30
0.0
 10
109.1973
 20
-5.3429
 30
0.0
 10
109.1973
 20
-5.3429
 30
0.0
 10
89.3071
 20
-2.4086
 30
0.0
 10
89.3071
 20
-2.4086
 30
0.0
  0
SPLINE
  5
D4
330
1F
100
AcDbEntity
  8
layer 1
 62
     7
100
AcDbSpline
210
0.0
220
0.0
230
1.0
 70
    11
 71
     3
 72
    20
 73
    16
 74
     0
 42
0.0000000001
 43
0.0000000001
 12
1.0
 22
0.0
 32
0.0
 13
1.0
 23
0.0
 33
0.0
 40
0.0
 40
0.0
 40
0.0
 40
0.0
 40
0.2
 40
0.2
 40
0.2
 40
0.2
 40
0.4
 40
0.4
 40
0.4
 40
0.4
 40
0.6
 40
0.6
 40
0.6
 40
0.6
 40
1.0
 40
1.0
 40
1.0
 40
1.0
 10
89.778
 20
-15.9796
 30
0.0
 10
89.778
 20
-15.9796
 30
0.0
 10
89.4237
 20
-4.0375
 30
0.0
 10
89.4237
 20
-4.0375
 30
0.0
 10
89.4237
 20
-4.0375
 30
0.0
 10
89.4237
 20
-4.0375
 30
0.0
 10
108.0117
 20
-6.9871
 30
0.0
 10
108.0117
 20
-6.9871
 30
0.0
 10
108.0117
 20
-6.9871
 30
0.0
 10
108.0117
 20
-6.9871
 30
0.0
 10
99.9349
 20
-18.4423
 30
0.0
 10
99.9349
 20
-18.4423
 30
0.0
 10
99.9349
 20
-18.4423
 30
0.0
 10
99.9349
 20
-18.4423
 30
0.0
 10
89.778
 20
-15.9796
 30
0.0
 10
89.778
 20
-15.9796
 30
0.0
  0
SPLINE
  5
D5
330
1F
100
AcDbEntity
  8
layer 1
 62
     7
100
AcDbSpline
210
0.0
220
0.0
230
1.0
 70
    11
 71
     3
 72
    16
 73
    12
 74
     0
 42
0.0000000001
 43
0.0000000001
 12
1.0
 22
0.0
 32
0.0
 13
1.0
 23
0.0
 33
0.0
 40
0.0
 40
0.0
 40
0.0
 40
0.0
 40
0.25
 40
0.25
 40
0.25
 40
0.25
 40
0.5
 40
0.5
 40
0.5
 40
0.5
 40
1.0
 40
1.0
 40
1.0
 40
1.0
 10
90.1922
 20
-32.3241
 30
0.0
 10
90.1922
 20
-32.3241
 30
0.0
 10
89.778
 20
-17.7868
 30
0.0
 10
89.778
 20
-17.7868
 30
0.0
 10
89.778
 20
-17.7868
 30
0.0
 10
89.778
 20
-17.7868
 30
0.0
 10
98.893
 20
-19.8513
 30
0.0
 10
98.893
 20
-19.8513
 30
0.0
 10
98.893
 20
-19.8513
 30
0.0
 10
98.893
 20
-19.8513
 30
0.0
 10
90.1922
 20
-32.3241
 30
0.0
 10
90.1922
 20
-32.3241
 30
0.0
  0
SPLINE
  5
D6
330
1F
100
AcDbEntity
  8
layer 1
 62
     7
100
AcDbSpline
210
0.0
220
0.0
230
1.0
 70
    11
 71
     3
 72
    20
 73
    16
 74
     0
 42
0.0000000001
 43
0.0000000001
 12
1.0
 22
0.0
 32
0.0
 13
1.0
 23
0.0
 33
0.0
 40
0.0
 40
0.0
 40
0.0
 40
0.0
 40
0.2
 40
0.2
 40
0.2
 40
0.2
 40
0.4
 40
0.4
 40
0.4
 40
0.4
 40
0.6
 40
0.6
 40
0.6
 40
0.6
 40
1.0
 40
1.0
 40
1.0
 40
1.0
 10
74.2589
 20
-9.3118
 30
0.0
 10
74.2589
 20
-9.3118
 30
0.0
 10
74.1432
 20
1.6856
 30
0.0
 10
74.1432
 20
1.6856
 30
0.0
 10
74.1432
 20
1.6856
 30
0.0
 10
74.1432
 20
1.6856
 30
0.0
 10
87.5632
 20
1.745
 30
0.0
 10
87.5632
 20
1.745
 30
0.0
 10
87.5632
 20
1.745
 30
0.0
 10
87.5632
 20
1.745
 30
0.0
 10
87.5441
 20
-1.5684
 30
0.0
 10
87.5441
 20
-1.5684
 30
0.0
 10
87.5441
 20
-1.5684
 30
0.0
 10
87.5441
 20
-1.5684
 30
0.0
 10
74.2589
 20
-9.3118
 30
0.0
 10
74.2589
 20
-9.3118
 30
0.0
  0
SPLINE
  5
D7
330
1F
100
AcDbEntity
  8
layer 1
 62
     7
100
AcDbSpline
210
0.0
220
0.0
230
1.0
 70
    11
 71
     3
 72
    20
 73
    16
 74
     0
 42
0.0000000001
 43
0.0000000001
 12
1.0
 22
0.0
 32
0.0
 13
1.0
 23
0.0
 33
0.0
 40
0.0
 40
0.0
 40
0.0
 40
0.0
 40
0.2
 40
0.2
 40
0.2
 40
0.2
 40
0.4
 40
0.4
 40
0.4
 40
0.4
 40
0.6
 40
0.6
 40
0.6
 40
0.6
 40
1.0
 40
1.0
 40
1.0
 40
1.0
 10
79.8062
 20
-19.7572
 30
0.0
 10
79.8062
 20
-19.7572
 30
0.0
 10
74.1432
 20
-11.4742
 30
0.0
 10
74.1432
 20
-11.4742
 30
0.0
 10
74.1432
 20
-11.4742
 30
0.0
 10
74.1432
 20
-11.4742
 30
0.0
 10
87.7415
 20
-3.3879
 30
0.0
 10
87.7415
 20
-3.3879
 30
0.0
 10
87.7415
 20
-3.3879
 30
0.0
 10
87.7415
 20
-3.3879
 30
0.0
 10
88.0147
 20
-15.904
 30
0.0
 10
88.0147
 20
-15.904
 30
0.0
 10
88.0147
 20
-15.904
 30
0.0
 10
88.0147
 20
-15.904
 30
0.0
 10
79.8062
 20
-19.7572
 30
0.0
 10
79.8062
 20
-19.7572
 30
0.0
  0
SPLINE
  5
D8
330
1F
100
AcDbEntity
  8
layer 1
 62
     7
100
AcDbSpline
210
0.0
220
0.0
230
1.0
 70
    11
 71
     3
 72
    16
 73
    12
 74
     0
 42
0.0000000001
 43
0.0000000001
 12
1.0
 22
0.0
 32
0.0
 13
1.0
 23
0.0
 33
0.0
 40
0.0
 40
0.0
 40
0.0
 40
0.0
 40
0.25
 40
0.25
 40
0.25
 40
0.25
 40
0.5
 40
0.5
 40
0.5
 40
0.5
 40
1.0
 40
1.0
 40
1.0
 40
1.0
 10
80.8103
 20
-21.2104
 30
0.0
 10
80.8103
 20
-21.2104
 30
0.0
 10
88.2124
 20
-17.8464
 30
0.0
 10
88.2124
 20
-17.8464
 30
0.0
 10
88.2124
 20
-17.8464
 30
0.0
 10
88.2124
 20
-17.8464
 30
0.0
 10
88.5448
 20
-32.4871
 30
0.0
 10
88.5448
 20
-32.4871
 30
0.0
 10
88.5448
 20
-32.4871
 30
0.0
 10
88.5448
 20
-32.4871
 30
0.0
 10
80.8103
 20
-21.2104
 30
0.0
 10
80.8103
 20
-21.2104
 30
0.0
  0
SPLINE
  5
D9
330
1F
100
AcDbEntity
  8
layer 1
 62
     7
100
AcDbSpline
210
0.0
220
0.0
230
1.0
 70
    11
 71
     3
 72
    16
 73
    12
 74
     0
 42
0.0000000001
 43
0.0000000001
 12
1.0
 22
0.0
 32
0.0
 13
1.0
 23
0.0
 33
0.0
 40
0.0
 40
0.0
 40
0.0
 40
0.0
 40
0.25
 40
0.25
 40
0.25
 40
0.25
 40
0.5
 40
0.5
 40
0.5
 40
0.5
 40
1.0
 40
1.0
 40
1.0
 40
1.0
 10
78.5074
 20
-34.4576
 30
0.0
 10
78.5074
 20
-34.4576
 30
0.0
 10
87.8012
 20
-34.3378
 30
0.0
 10
87.8012
 20
-34.3378
 30
0.0
 10
87.8012
 20
-34.3378
 30
0.0
 10
87.8012
 20
-34.3378
 30
0.0
 10
79.9886
 20
-22.9422
 30
0.0
 10
79.9886
 20
-22.9422
 30
0.0
 10
79.9886
 20
-22.9422
 30
0.0
 10
79.9886
 20
-22.9422
 30
0.0
 10
78.5074
 20
-34.4576
 30
0.0
 10
78.5074
 20
-34.4576
 30
0.0
  0
SPLINE
  5
DA
330
1F
100
AcDbEntity
  8
layer 1
 62
     7
100
AcDbSpline
210
0.0
220
0.0
230
1.0
 70
    11
 71
     3
 72
    20
 73
    16
 74
     0
 42
0.0000000001
 43
0.0000000001
 12
1.0
 22
0.0
 32
0.0
 13
1.0
 23
0.0
 33
0.0
 40
0.0
 40
0.0
 40
0.0
 40
0.0
 40
0.2
 40
0.2
 40
0.2
 40
0.2
 40
0.4
 40
0.4
 40
0.4
 40
0.4
 40
0.6
 40
0.6
 40
0.6
 40
0.6
 40
1.0
 40
1.0
 40
1.0
 40
1.0
 10
74.1143
 20
-35.9419
 30
0.0
 10
74.1143
 20
-35.9419
 30
0.0
 10
74.1771
 20
-50.8173
 30
0.0
 10
74.1771
 20
-50.8173
 30
0.0
 10
74.1771
 20
-50.8173
 30
0.0
 10
74.1771
 20
-50.8173
 30
0.0
 10
79.9788
 20
-44.2814
 30
0.0
 10
79.9788
 20
-44.2814
 30
0.0
 10
79.9788
 20
-44.2814
 30
0.0
 10
79.9788
 20
-44.2814
 30
0.0
 10
76.3805
 20
-35.9638
 30
0.0
 10
76.3805
 20
-35.9638
 30
0.0
 10
76.3805
 20
-35.9638
 30
0.0
 10
76.3805
 20
-35.9638
 30
0.0
 10
74.1143
 20
-35.9419
 30
0.0
 10
74.1143
 20
-35.9419
 30
0.0
  0
SPLINE
  5
DB
330
1F
100
AcDbEntity
  8
layer 1
 62
     7
100
AcDbSpline
210
0.0
220
0.0
230
1.0
 70
    11
 71
     3
 72
    16
 73
    12
 74
     0
 42
0.0000000001
 43
0.0000000001
 12
1.0
 22
0.0
 32
0.0
 13
1.0
 23
0.0
 33
0.0
 40
0.0
 40
0.0
 40
0.0
 40
0.0
 40
0.25
 40
0.25
 40
0.25
 40
0.25
 40
0.5
 40
0.5
 40
0.5
 40
0.5
 40
1.0
 40
1.0
 40
1.0
 40
1.0
 10
91.2027
 20
-33.5853
 30
0.0
 10
91.2027
 20
-33.5853
 30
0.0
 10
99.784
 20
-21.4201
 30
0.0
 10
99.784
 20
-21.4201
 30
0.0
 10
99.784
 20
-21.4201
 30
0.0
 10
99.784
 20
-21.4201
 30
0.0
 10
102.8123
 20
-27.4228
 30
0.0
 10
102.8123
 20
-27.4228
 30
0.0
 10
102.8123
 20
-27.4228
 30
0.0
 10
102.8123
 20
-27.4228
 30
0.0
 10
91.2027
 20
-33.5853
 30
0.0
 10
91.2027
 20
-33.5853
 30
0.0
  0
SPLINE
  5
DC
330
1F
100
AcDbEntity
  8
layer 1
 62
     7
100
AcDbSpline
210
0.0
220
0.0
230
1.0
 70
    11
 71
     3
 72
    16
 73
    12
 74
     0
 42
0.0000000001
 43
0.0000000001
 12
1.0
 22
0.0
 32
0.0
 13
1.0
 23
0.0
 33
0.0
 40
0.0
 40
0.0
 40
0.0
 40
0.0
 40
0.25
 40
0.25
 40
0.25
 40
0.25
 40
0.5
 40
0.5
 40
0.5
 40
0.5
 40
1.0
 40
1.0
 40
1.0
 40
1.0
 10
91.9491
 20
-34.966
 30
0.0
 10
91.9491
 20
-34.966
 30
0.0
 10
103.609
 20
-28.7721
 30
0.0
 10
103.609
 20
-28.7721
 30
0.0
 10
103.609
 20
-28.7721
 30
0.0
 10
103.609
 20
-28.7721
 30
0.0
 10
104.4749
 20
-35.2135
 30
0.0
 10
104.4749
 20
-35.2135
 30
0.0
 10
104.4749
 20
-35.2135
 30
0.0
 10
104.4749
 20
-35.2135
 30
0.0
 10
91.9491
 20
-34.966
 30
0.0
 10
91.9491
 20
-34.966
 30
0.0
  0
SPLINE
  5
DD
330
1F
100
AcDbEntity
  8
layer 1
 62
     7
100
AcDbSpline
210
0.0
220
0.0
230
1.0
 70
    11
 71
     3
 72
    16
 73
    12
 74
     0
 42
0.0000000001
 43
0.0000000001
 12
1.0
 22
0.0
 32
0.0
 13
1.0
 23
0.0
 33
0.0
 40
0.0
 40
0.0
 40
0.0
 40
0.0
 40
0.25
 40
0.25
 40
0.25
 40
0.25
 40
0.5
 40
0.5
 40
0.5
 40
0.5
 40
1.0
 40
1.0
 40
1.0
 40
1.0
 10
93.631
 20
-36.6568
 30
0.0
 10
93.631
 20
-36.6568
 30
0.0
 10
104.7038
 20
-36.9082
 30
0.0
 10
104.7038
 20
-36.9082
 30
0.0
 10
104.7038
 20
-36.9082
 30
0.0
 10
104.7038
 20
-36.9082
 30
0.0
 10
101.3214
 20
-41.078
 30
0.0
 10
101.3214
 20
-41.078
 30
0.0
 10
101.3214
 20
-41.078
 30
0.0
 10
101.3214
 20
-41.078
 30
0.0
 10
93.631
 20
-36.6568
 30
0.0
 10
93.631
 20
-36.6568
 30
0.0
  0
SPLINE
  5
DE
330
1F
100
AcDbEntity
  8
layer 1
 62
     7
100
AcDbSpline
210
0.0
220
0.0
230
1.0
 70
    11
 71
     3
 72
    16
 73
    12
 74
     0
 42
0.0000000001
 43
0.0000000001
 12
1.0
 22
0.0
 32
0.0
 13
1.0
 23
0.0
 33
0.0
 40
0.0
 40
0.0
 40
0.0
 40
0.0
 40
0.25
 40
0.25
 40
0.25
 40
0.25
 40
0.5
 40
0.5
 40
0.5
 40
0.5
 40
1.0
 40
1.0
 40
1.0
 40
1.0
 10
90.4463
 20
-36.7293
 30
0.0
 10
90.4463
 20
-36.7293
 30
0.0
 10
100.3084
 20
-42.4018
 30
0.0
 10
100.3084
 20
-42.4018
 30
0.0
 10
100.3084
 20
-42.4018
 30
0.0
 10
100.3084
 20
-42.4018
 30
0.0
 10
91.7232
 20
-46.0228
 30
0.0
 10
91.7232
 20
-46.0228
 30
0.0
 10
91.7232
 20
-46.0228
 30
0.0
 10
91.7232
 20
-46.0228
 30
0.0
 10
90.4463
 20
-36.7293
 30
0.0
 10
90.4463
 20
-36.7293
 30
0.0
  0
SPLINE
  5
DF
330
1F
100
AcDbEntity
  8
layer 1
 62
     7
100
AcDbSpline
210
0.0
220
0.0
230
1.0
 70
    11
 71
     3
 72
    16
 73
    12
 74
     0
 42
0.0000000001
 43
0.0000000001
 12
1.0
 22
0.0
 32
0.0
 13
1.0
 23
0.0
 33
0.0
 40
0.0
 40
0.0
 40
0.0
 40
0.0
 40
0.25
 40
0.25
 40
0.25
 40
0.25
 40
0.5
 40
0.5
 40
0.5
 40
0.5
 40
1.0
 40
1.0
 40
1.0
 40
1.0
 10
82.2441
 20
-44.1247
 30
0.0
 10
82.2441
 20
-44.1247
 30
0.0
 10
90.0704
 20
-45.8035
 30
0.0
 10
90.0704
 20
-45.8035
 30
0.0
 10
90.0704
 20
-45.8035
 30
0.0
 10
90.0704
 20
-45.8035
 30
0.0
 10
88.928
 20
-36.5316
 30
0.0
 10
88.928
 20
-36.5316
 30
0.0
 10
88.928
 20
-36.5316
 30
0.0
 10
88.928
 20
-36.5316
 30
0.0
 10
82.2441
 20
-44.1247
 30
0.0
 10
82.2441
 20
-44.1247
 30
0.0
  0
SPLINE
  5
E0
330
1F
100
AcDbEntity
  8
layer 1
 62
     7
100
AcDbSpline
210
0.0
220
0.0
230
1.0
 70
    11
 71
     3
 72
    16
 73
    12
 74
     0
 42
0.0000000001
 43
0.0000000001
 12
1.0
 22
0.0
 32
0.0
 13
1.0
 23
0.0
 33
0.0
 40
0.0
 40
0.0
 40
0.0
 40
0.0
 40
0.25
 40
0.25
 40
0.25
 40
0.25
 40
0.5
 40
0.5
 40
0.5
 40
0.5
 40
1.0
 40
1.0
 40
1.0
 40
1.0
 10
78.3628
 20
-35.9949
 30
0.0
 10
78.3628
 20
-35.9949
 30
0.0
 10
87.2146
 20
-36.0232
 30
0.0
 10
87.2146
 20
-36.0232
 30
0.0
 10
87.2146
 20
-36.0232
 30
0.0
 10
87.2146
 20
-36.0232
 30
0.0
 10
81.2345
 20
-42.8699
 30
0.0
 10
81.2345
 20
-42.8699
 30
0.0
 10
81.2345
 20
-42.8699
 30
0.0
 10
81.2345
 20
-42.8699
 30
0.0
 10
78.3628
 20
-35.9949
 30
0.0
 10
78.3628
 20
-35.9949
 30
0.0
  0
SPLINE
  5
E1
330
1F
100
AcDbEntity
  8
layer 1
 62
     7
100
AcDbSpline
210
0.0
220
0.0
230
1.0
 70
    11
 71
     3
 72
    20
 73
    16
 74
     0
 42
0.0000000001
 43
0.0000000001
 12
1.0
 22
0.0
 32
0.0
 13
1.0
 23
0.0
 33
0.0
 40
0.0
 40
0.0
 40
0.0
 40
0.0
 40
0.2
 40
0.2
 40
0.2
 40
0.2
 40
0.4
 40
0.4
 40
0.4
 40
0.4
 40
0.6
 40
0.6
 40
0.6
 40
0.6
 40
1.0
 40
1.0
 40
1.0
 40
1.0
 10
75.3227
 20
-52.0633
 30
0.0
 10
75.3227
 20
-52.0633
 30
0.0
 10
90.9297
 20
-52.1074
 30
0.0
 10
90.9297
 20
-52.1074
 30
0.0
 10
90.9297
 20
-52.1074
 30
0.0
 10
90.9297
 20
-52.1074
 30
0.0
 10
90.2928
 20
-47.626
 30
0.0
 10
90.2928
 20
-47.626
 30
0.0
 10
90.2928
 20
-47.626
 30
0.0
 10
90.2928
 20
-47.626
 30
0.0
 10
80.9485
 20
-45.6211
 30
0.0
 10
80.9485
 20
-45.6211
 30
0.0
 10
80.9485
 20
-45.6211
 30
0.0
 10
80.9485
 20
-45.6211
 30
0.0
 10
75.3227
 20
-52.0633
 30
0.0
 10
75.3227
 20
-52.0633
 30
0.0
  0
SPLINE
  5
E2
330
1F
100
AcDbEntity
  8
layer 1
 62
     7
100
AcDbSpline
210
0.0
220
0.0
230
1.0
 70
    11
 71
     3
 72
    24
 73
    20
 74
     0
 42
0.0000000001
 43
0.0000000001
 12
1.0
 22
0.0
 32
0.0
 13
1.0
 23
0.0
 33
0.0
 40
0.0
 40
0.0
 40
0.0
 40
0.0
 40
0.1666666666666667
 40
0.1666666666666667
 40
0.1666666666666667
 40
0.1666666666666667
 40
0.3333333333333333
 40
0.3333333333333333
 40
0.3333333333333333
 40
0.3333333333333333
 40
0.5
 40
0.5
 40
0.5
 40
0.5
 40
0.6666666666666666
 40
0.6666666666666666
 40
0.6666666666666666
 40
0.6666666666666666
 40
1.0
 40
1.0
 40
1.0
 40
1.0
 10
92.5773
 20
-52.0633
 30
0.0
 10
92.5773
 20
-52.0633
 30
0.0
 10
108.5634
 20
-52.17
 30
0.0
 10
108.5634
 20
-52.17
 30
0.0
 10
108.5634
 20
-52.17
 30
0.0
 10
108.5634
 20
-52.17
 30
0.0
 10
111.9934
 20
-49.1039
 30
0.0
 10
111.9934
 20
-49.1039
 30
0.0
 10
111.9934
 20
-49.1039
 30
0.0
 10
111.9934
 20
-49.1039
 30
0.0
 10
102.0498
 20
-43.4498
 30
0.0
 10
102.0498
 20
-43.4498
 30
0.0
 10
102.0498
 20
-43.4498
 30
0.0
 10
102.0498
 20
-43.4498
 30
0.0
 10
91.9024
 20
-47.7835
 30
0.0
 10
91.9024
 20
-47.7835
 30
0.0
 10
91.9024
 20
-47.7835
 30
0.0
 10
91.9024
 20
-47.7835
 30
0.0
 10
92.5773
 20
-52.0633
 30
0.0
 10
92.5773
 20
-52.0633
 30
0.0
  0
SPLINE
  5
E3
330
1F
100
AcDbEntity
  8
layer 1
 62
     7
100
AcDbSpline
210
0.0
220
0.0
230
1.0
 70
    11
 71
     3
 72
    16
 73
    12
 74
     0
 42
0.0000000001
 43
0.0000000001
 12
1.0
 22
0.0
 32
0.0
 13
1.0
 23
0.0
 33
0.0
 40
0.0
 40
0.0
 40
0.0
 40
0.0
 40
0.25
 40
0.25
 40
0.25
 40
0.25
 40
0.5
 40
0.5
 40
0.5
 40
0.5
 40
1.0
 40
1.0
 40
1.0
 40
1.0
 10
113.4834
 20
-49.9892
 30
0.0
 10
113.4834
 20
-49.9892
 30
0.0
 10
117.195
 20
-52.1097
 30
0.0
 10
117.195
 20
-52.1097
 30
0.0
 10
117.195
 20
-52.1097
 30
0.0
 10
117.195
 20
-52.1097
 30
0.0
 10
111.3941
 20
-52.1411
 30
0.0
 10
111.3941
 20
-52.1411
 30
0.0
 10
111.3941
 20
-52.1411
 30
0.0
 10
111.3941
 20
-52.1411
 30
0.0
 10
113.4834
 20
-49.9892
 30
0.0
 10
113.4834
 20
-49.9892
 30
0.0
  0
SPLINE
  5
E4
330
1F
100
AcDbEntity
  8
layer 1
 62
     7
100
AcDbSpline
210
0.0
220
0.0
230
1.0
 70
    11
 71
     3
 72
    20
 73
    16
 74
     0
 42
0.0000000001
 43
0.0000000001
 12
1.0
 22
0.0
 32
0.0
 13
1.0
 23
0.0
 33
0.0
 40
0.0
 40
0.0
 40
0.0
 40
0.0
 40
0.2
 40
0.2
 40
0.2
 40
0.2
 40
0.4
 40
0.4
 40
0.4
 40
0.4
 40
0.6
 40
0.6
 40
0.6
 40
0.6
 40
1.0
 40
1.0
 40
1.0
 40
1.0
 10
102.8307
 20
-41.9912
 30
0.0
 10
102.8307
 20
-41.9912
 30
0.0
 10
112.9059
 20
-47.8213
 30
0.0
 10
112.9059
 20
-47.8213
 30
0.0
 10
112.9059
 20
-47.8213
 30
0.0
 10
112.9059
 20
-47.8213
 30
0.0
 10
118.6418
 20
-37.3693
 30
0.0
 10
118.6418
 20
-37.3693
 30
0.0
 10
118.6418
 20
-37.3693
 30
0.0
 10
118.6418
 20
-37.3693
 30
0.0
 10
106.957
 20
-37.0118
 30
0.0
 10
106.957
 20
-37.0118
 30
0.0
 10
106.957
 20
-37.0118
 30
0.0
 10
106.957
 20
-37.0118
 30
0.0
 10
102.8307
 20
-41.9912
 30
0.0
 10
102.8307
 20
-41.9912
 30
0.0
  0
SPLINE
  5
E5
330
1F
100
AcDbEntity
  8
layer 1
 62
     7
100
AcDbSpline
210
0.0
220
0.0
230
1.0
 70
    11
 71
     3
 72
    20
 73
    16
 74
     0
 42
0.0000000001
 43
0.0000000001
 12
1.0
 22
0.0
 32
0.0
 13
1.0
 23
0.0
 33
0.0
 40
0.0
 40
0.0
 40
0.0
 40
0.0
 40
0.2
 40
0.2
 40
0.2
 40
0.2
 40
0.4
 40
0.4
 40
0.4
 40
0.4
 40
0.6
 40
0.6
 40
0.6
 40
0.6
 40
1.0
 40
1.0
 40
1.0
 40
1.0
 10
106.3104
 20
-35.2513
 30
0.0
 10
106.3104
 20
-35.2513
 30
0.0
 10
119.1343
 20
-35.6247
 30
0.0
 10
119.1343
 20
-35.6247
 30
0.0
 10
119.1343
 20
-35.6247
 30
0.0
 10
119.1343
 20
-35.6247
 30
0.0
 10
119.009
 20
-20.7051
 30
0.0
 10
119.009
 20
-20.7051
 30
0.0
 10
119.009
 20
-20.7051
 30
0.0
 10
119.009
 20
-20.7051
 30
0.0
 10
105.1969
 20
-27.928
 30
0.0
 10
105.1969
 20
-27.928
 30
0.0
 10
105.1969
 20
-27.928
 30
0.0
 10
105.1969
 20
-27.928
 30
0.0
 10
106.3104
 20
-35.2513
 30
0.0
 10
106.3104
 20
-35.2513
 30
0.0
  0
SPLINE
  5
E6
330
1F
100
AcDbEntity
  8
layer 1
 62
     7
100
AcDbSpline
210
0.0
220
0.0
230
1.0
 70
    11
 71
     3
 72
    20
 73
    16
 74
     0
 42
0.0000000001
 43
0.0000000001
 12
1.0
 22
0.0
 32
0.0
 13
1.0
 23
0.0
 33
0.0
 40
0.0
 40
0.0
 40
0.0
 40
0.0
 40
0.2
 40
0.2
 40
0.2
 40
0.2
 40
0.4
 40
0.4
 40
0.4
 40
0.4
 40
0.6
 40
0.6
 40
0.6
 40
0.6
 40
1.0
 40
1.0
 40
1.0
 40
1.0
 10
104.4059
 20
-26.6067
 30
0.0
 10
104.4059
 20
-26.6067
 30
0.0
 10
119.0621
 20
-18.8125
 30
0.0
 10
119.0621
 20
-18.8125
 30
0.0
 10
119.0621
 20
-18.8125
 30
0.0
 10
119.0621
 20
-18.8125
 30
0.0
 10
109.1941
 20
-8.1761
 30
0.0
 10
109.1941
 20
-8.1761
 30
0.0
 10
109.1941
 20
-8.1761
 30
0.0
 10
109.1941
 20
-8.1761
 30
0.0
 10
100.8765
 20
-19.8704
 30
0.0
 10
100.8765
 20
-19.8704
 30
0.0
 10
100.8765
 20
-19.8704
 30
0.0
 10
100.8765
 20
-19.8704
 30
0.0
 10
104.4059
 20
-26.6067
 30
0.0
 10
104.4059
 20
-26.6067
 30
0.0
  0
SPLINE
  5
E7
330
1F
100
AcDbEntity
  8
layer 1
 62
     7
100
AcDbSpline
210
0.0
220
0.0
230
1.0
 70
    11
 71
     3
 72
    20
 73
    16
 74
     0
 42
0.0000000001
 43
0.0000000001
 12
1.0
 22
0.0
 32
0.0
 13
1.0
 23
0.0
 33
0.0
 40
0.0
 40
0.0
 40
0.0
 40
0.0
 40
0.2
 40
0.2
 40
0.2
 40
0.2
 40
0.4
 40
0.4
 40
0.4
 40
0.4
 40
0.6
 40
0.6
 40
0.6
 40
0.6
 40
1.0
 40
1.0
 40
1.0
 40
1.0
 10
120.8789
 20
-35.7347
 30
0.0
 10
120.8789
 20
-35.7347
 30
0.0
 10
127.9266
 20
-35.9476
 30
0.0
 10
127.9266
 20
-35.9476
 30
0.0
 10
127.9266
 20
-35.9476
 30
0.0
 10
127.9266
 20
-35.9476
 30
0.0
 10
127.9355
 20
-15.9764
 30
0.0
 10
127.9355
 20
-15.9764
 30
0.0
 10
127.9355
 20
-15.9764
 30
0.0
 10
127.9355
 20
-15.9764
 30
0.0
 10
120.678
 20
-19.7918
 30
0.0
 10
120.678
 20
-19.7918
 30
0.0
 10
120.678
 20
-19.7918
 30
0.0
 10
120.678
 20
-19.7918
 30
0.0
 10
120.8789
 20
-35.7347
 30
0.0
 10
120.8789
 20
-35.7347
 30
0.0
  0
SPLINE
  5
E8
330
1F
100
AcDbEntity
  8
layer 1
 62
     7
100
AcDbSpline
210
0.0
220
0.0
230
1.0
 70
    11
 71
     3
 72
    24
 73
    20
 74
     0
 42
0.0000000001
 43
0.0000000001
 12
1.0
 22
0.0
 32
0.0
 13
1.0
 23
0.0
 33
0.0
 40
0.0
 40
0.0
 40
0.0
 40
0.0
 40
0.1666666666666667
 40
0.1666666666666667
 40
0.1666666666666667
 40
0.1666666666666667
 40
0.3333333333333333
 40
0.3333333333333333
 40
0.3333333333333333
 40
0.3333333333333333
 40
0.5
 40
0.5
 40
0.5
 40
0.5
 40
0.6666666666666666
 40
0.6666666666666666
 40
0.6666666666666666
 40
0.6666666666666666
 40
1.0
 40
1.0
 40
1.0
 40
1.0
 10
120.7254
 20
-17.9024
 30
0.0
 10
120.7254
 20
-17.9024
 30
0.0
 10
110.2173
 20
-6.7172
 30
0.0
 10
110.2173
 20
-6.7172
 30
0.0
 10
110.2173
 20
-6.7172
 30
0.0
 10
110.2173
 20
-6.7172
 30
0.0
 10
116.1535
 20
1.6824
 30
0.0
 10
116.1535
 20
1.6824
 30
0.0
 10
116.1535
 20
1.6824
 30
0.0
 10
116.1535
 20
1.6824
 30
0.0
 10
127.9009
 20
1.6639
 30
0.0
 10
127.9009
 20
1.6639
 30
0.0
 10
127.9009
 20
1.6639
 30
0.0
 10
127.9009
 20
1.6639
 30
0.0
 10
127.9171
 20
-14.1787
 30
0.0
 10
127.9171
 20
-14.1787
 30
0.0
 10
127.9171
 20
-14.1787
 30
0.0
 10
127.9171
 20
-14.1787
 30
0.0
 10
120.7254
 20
-17.9024
 30
0.0
 10
120.7254
 20
-17.9024
 30
0.0
  0
SPLINE
  5
E9
330
1F
100
AcDbEntity
  8
layer 1
 62
     7
100
AcDbSpline
210
0.0
220
0.0
230
1.0
 70
    11
 71
     3
 72
    24
 73
    20
 74
     0
 42
0.0000000001
 43
0.0000000001
 12
1.0
 22
0.0
 32
0.0
 13
1.0
 23
0.0
 33
0.0
 40
0.0
 40
0.0
 40
0.0
 40
0.0
 40
0.1666666666666667
 40
0.1666666666666667
 40
0.1666666666666667
 40
0.1666666666666667
 40
0.3333333333333333
 40
0.3333333333333333
 40
0.3333333333333333
 40
0.3333333333333333
 40
0.5
 40
0.5
 40
0.5
 40
0.5
 40
0.6666666666666666
 40
0.6666666666666666
 40
0.6666666666666666
 40
0.6666666666666666
 40
1.0
 40
1.0
 40
1.0
 40
1.0
 10
114.4121
 20
-48.5955
 30
0.0
 10
114.4121
 20
-48.5955
 30
0.0
 10
120.5312
 20
-52.1605
 30
0.0
 10
120.5312
 20
-52.1605
 30
0.0
 10
120.5312
 20
-52.1605
 30
0.0
 10
120.5312
 20
-52.1605
 30
0.0
 10
127.9797
 20
-52.1195
 30
0.0
 10
127.9797
 20
-52.1195
 30
0.0
 10
127.9797
 20
-52.1195
 30
0.0
 10
127.9797
 20
-52.1195
 30
0.0
 10
127.9419
 20
-37.6393
 30
0.0
 10
127.9419
 20
-37.6393
 30
0.0
 10
127.9419
 20
-37.6393
 30
0.0
 10
127.9419
 20
-37.6393
 30
0.0
 10
120.5778
 20
-37.4417
 30
0.0
 10
120.5778
 20
-37.4417
 30
0.0
 10
120.5778
 20
-37.4417
 30
0.0
 10
120.5778
 20
-37.4417
 30
0.0
 10
114.4121
 20
-48.5955
 30
0.0
 10
114.4121
 20
-48.5955
 30
0.0
  0
SPLINE
  5
EA
330
1F
100
AcDbEntity
  8
layer 1
 62
     7
100
AcDbSpline
210
0.0
220
0.0
230
1.0
 70
    11
 71
     3
 72
    16
 73
    12
 74
     0
 42
0.0000000001
 43
0.0000000001
 12
1.0
 22
0.0
 32
0.0
 13
1.0
 23
0.0
 33
0.0
 40
0.0
 40
0.0
 40
0.0
 40
0.0
 40
0.25
 40
0.25
 40
0.25
 40
0.25
 40
0.5
 40
0.5
 40
0.5
 40
0.5
 40
1.0
 40
1.0
 40
1.0
 40
1.0
 10
74.1177
 20
-22.3743
 30
0.0
 10
74.1177
 20
-22.3743
 30
0.0
 10
78.4006
 20
-20.4569
 30
0.0
 10
78.4006
 20
-20.4569
 30
0.0
 10
78.4006
 20
-20.4569
 30
0.0
 10
78.4006
 20
-20.4569
 30
0.0
 10
74.1241
 20
-14.2197
 30
0.0
 10
74.1241
 20
-14.2197
 30
0.0
 10
74.1241
 20
-14.2197
 30
0.0
 10
74.1241
 20
-14.2197
 30
0.0
 10
74.1177
 20
-22.3743
 30
0.0
 10
74.1177
 20
-22.3743
 30
0.0
  0
SPLINE
  5
EB
330
1F
100
AcDbEntity
  8
layer 1
 62
     7
100
AcDbSpline
210
0.0
220
0.0
230
1.0
 70
    11
 71
     3
 72
    20
 73
    16
 74
     0
 42
0.0000000001
 43
0.0000000001
 12
1.0
 22
0.0
 32
0.0
 13
1.0
 23
0.0
 33
0.0
 40
0.0
 40
0.0
 40
0.0
 40
0.0
 40
0.2
 40
0.2
 40
0.2
 40
0.2
 40
0.4
 40
0.4
 40
0.4
 40
0.4
 40
0.6
 40
0.6
 40
0.6
 40
0.6
 40
1.0
 40
1.0
 40
1.0
 40
1.0
 10
74.1177
 20
-34.2189
 30
0.0
 10
74.1177
 20
-34.2189
 30
0.0
 10
76.9259
 20
-34.3098
 30
0.0
 10
76.9259
 20
-34.3098
 30
0.0
 10
76.9259
 20
-34.3098
 30
0.0
 10
76.9259
 20
-34.3098
 30
0.0
 10
78.3098
 20
-22.3896
 30
0.0
 10
78.3098
 20
-22.3896
 30
0.0
 10
78.3098
 20
-22.3896
 30
0.0
 10
78.3098
 20
-22.3896
 30
0.0
 10
74.1555
 20
-24.3575
 30
0.0
 10
74.1555
 20
-24.3575
 30
0.0
 10
74.1555
 20
-24.3575
 30
0.0
 10
74.1555
 20
-24.3575
 30
0.0
 10
74.1177
 20
-34.2189
 30
0.0
 10
74.1177
 20
-34.2189
 30
0.0
  0
SPLINE
  5
EC
330
1F
100
AcDbEntity
  8
layer 1
 62
     7
100
AcDbSpline
210
0.0
220
0.0
230
1.0
 70
    11
 71
     3
 72
    20
 73
    16
 74
     0
 42
0.0000000001
 43
0.0000000001
 12
1.0
 22
0.0
 32
0.0
 13
1.0
 23
0.0
 33
0.0
 40
0.0
 40
0.0
 40
0.0
 40
0.0
 40
0.2
 40
0.2
 40
0.2
 40
0.2
 40
0.4
 40
0.4
 40
0.4
 40
0.4
 40
0.6
 40
0.6
 40
0.6
 40
0.6
 40
1.0
 40
1.0
 40
1.0
 40
1.0
 10
168.3684
 20
1.6776
 30
0.0
 10
168.3684
 20
1.6776
 30
0.0
 10
168.3996
 20
-18.7856
 30
0.0
 10
168.3996
 20
-18.7856
 30
0.0
 10
168.3996
 20
-18.7856
 30
0.0
 10
166.529
 20
-18.9271
 30
0.0
 10
164.6984
 20
-18.9369
 30
0.0
 10
162.9597
 20
-18.7547
 30
0.0
 10
162.9597
 20
-18.7547
 30
0.0
 10
162.9597
 20
-18.7547
 30
0.0
 10
162.8843
 20
1.6972
 30
0.0
 10
162.8843
 20
1.6972
 30
0.0
 10
162.8843
 20
1.6972
 30
0.0
 10
164.6704
 20
1.7033
 30
0.0
 10
166.582
 20
1.6776
 30
0.0
 10
168.3684
 20
1.6776
 30
0.0
  0
SPLINE
  5
ED
330
1F
100
AcDbEntity
  8
layer 1
 62
     7
100
AcDbSpline
210
0.0
220
0.0
230
1.0
 70
    11
 71
     3
 72
    24
 73
    20
 74
     0
 42
0.0000000001
 43
0.0000000001
 12
1.0
 22
0.0
 32
0.0
 13
1.0
 23
0.0
 33
0.0
 40
0.0
 40
0.0
 40
0.0
 40
0.0
 40
0.1666666666666667
 40
0.1666666666666667
 40
0.1666666666666667
 40
0.1666666666666667
 40
0.3333333333333333
 40
0.3333333333333333
 40
0.3333333333333333
 40
0.3333333333333333
 40
0.5
 40
0.5
 40
0.5
 40
0.5
 40
0.6666666666666666
 40
0.6666666666666666
 40
0.6666666666666666
 40
0.6666666666666666
 40
1.0
 40
1.0
 40
1.0
 40
1.0
 10
192.6266
 20
-24.1973
 30
0.0
 10
192.6266
 20
-24.1973
 30
0.0
 10
192.6266
 20
1.694
 30
0.0
 10
192.6266
 20
1.694
 30
0.0
 10
192.6266
 20
1.694
 30
0.0
 10
192.6266
 20
1.694
 30
0.0
 10
188.8102
 20
1.694
 30
0.0
 10
188.8102
 20
1.694
 30
0.0
 10
188.8102
 20
1.694
 30
0.0
 10
188.3954
 20
-5.7762
 30
0.0
 10
184.0991
 20
-16.7868
 30
0.0
 10
169.9527
 20
-20.2363
 30
0.0
 10
169.9527
 20
-20.2363
 30
0.0
 10
169.9527
 20
-20.2363
 30
0.0
 10
170.0033
 20
-24.2189
 30
0.0
 10
170.0033
 20
-24.2189
 30
0.0
 10
170.0033
 20
-24.2189
 30
0.0
 10
171.7042
 20
-24.2189
 30
0.0
 10
192.6266
 20
-24.1973
 30
0.0
 10
192.6266
 20
-24.1973
 30
0.0
  0
SPLINE
  5
EE
330
1F
100
AcDbEntity
  8
layer 1
 62
     7
100
AcDbSpline
210
0.0
220
0.0
230
1.0
 70
    11
 71
     3
 72
    16
 73
    12
 74
     0
 42
0.0000000001
 43
0.0000000001
 12
1.0
 22
0.0
 32
0.0
 13
1.0
 23
0.0
 33
0.0
 40
0.0
 40
0.0
 40
0.0
 40
0.0
 40
0.25
 40
0.25
 40
0.25
 40
0.25
 40
0.5
 40
0.5
 40
0.5
 40
0.5
 40
1.0
 40
1.0
 40
1.0
 40
1.0
 10
169.9625
 20
1.694
 30
0.0
 10
169.9625
 20
1.694
 30
0.0
 10
169.9625
 20
-8.3058
 30
0.0
 10
169.9625
 20
-8.3058
 30
0.0
 10
169.9625
 20
-8.3058
 30
0.0
 10
171.1959
 20
-7.9641
 30
0.0
 10
176.6128
 20
-5.202
 30
0.0
 10
177.2726
 20
1.7122
 30
0.0
 10
177.2726
 20
1.7122
 30
0.0
 10
176.0383
 20
1.7156
 30
0.0
 10
169.9625
 20
1.694
 30
0.0
 10
169.9625
 20
1.694
 30
0.0
  0
SPLINE
  5
EF
330
1F
100
AcDbEntity
  8
layer 1
 62
     7
100
AcDbSpline
210
0.0
220
0.0
230
1.0
 70
    11
 71
     3
 72
    20
 73
    16
 74
     0
 42
0.0000000001
 43
0.0000000001
 12
1.0
 22
0.0
 32
0.0
 13
1.0
 23
0.0
 33
0.0
 40
0.0
 40
0.0
 40
0.0
 40
0.0
 40
0.2
 40
0.2
 40
0.2
 40
0.2
 40
0.4
 40
0.4
 40
0.4
 40
0.4
 40
0.6
 40
0.6
 40
0.6
 40
0.6
 40
1.0
 40
1.0
 40
1.0
 40
1.0
 10
169.9625
 20
-18.5319
 30
0.0
 10
181.5883
 20
-15.632
 30
0.0
 10
186.6911
 20
-6.4201
 30
0.0
 10
187.1685
 20
1.6938
 30
0.0
 10
187.1685
 20
1.6938
 30
0.0
 10
187.1685
 20
1.6938
 30
0.0
 10
178.7004
 20
1.6744
 30
0.0
 10
178.7004
 20
1.6744
 30
0.0
 10
178.7004
 20
1.6744
 30
0.0
 10
178.5558
 20
-2.8356
 30
0.0
 10
175.778
 20
-7.5562
 30
0.0
 10
169.9245
 20
-9.888
 30
0.0
 10
169.9245
 20
-9.888
 30
0.0
 10
169.9245
 20
-9.888
 30
0.0
 10
169.9625
 20
-18.5319
 30
0.0
 10
169.9625
 20
-18.5319
 30
0.0
  0
SPLINE
  5
F0
330
1F
100
AcDbEntity
  8
layer 1
 62
     7
100
AcDbSpline
210
0.0
220
0.0
230
1.0
 70
    11
 71
     3
 72
    24
 73
    20
 74
     0
 42
0.0000000001
 43
0.0000000001
 12
1.0
 22
0.0
 32
0.0
 13
1.0
 23
0.0
 33
0.0
 40
0.0
 40
0.0
 40
0.0
 40
0.0
 40
0.1666666666666667
 40
0.1666666666666667
 40
0.1666666666666667
 40
0.1666666666666667
 40
0.3333333333333333
 40
0.3333333333333333
 40
0.3333333333333333
 40
0.3333333333333333
 40
0.5
 40
0.5
 40
0.5
 40
0.5
 40
0.6666666666666666
 40
0.6666666666666666
 40
0.6666666666666666
 40
0.6666666666666666
 40
1.0
 40
1.0
 40
1.0
 40
1.0
 10
138.4596
 20
-24.1973
 30
0.0
 10
138.4596
 20
-24.1973
 30
0.0
 10
138.4596
 20
1.694
 30
0.0
 10
138.4596
 20
1.694
 30
0.0
 10
138.4596
 20
1.694
 30
0.0
 10
138.4596
 20
1.694
 30
0.0
 10
142.273
 20
1.694
 30
0.0
 10
142.273
 20
1.694
 30
0.0
 10
142.273
 20
1.694
 30
0.0
 10
142.6876
 20
-5.7762
 30
0.0
 10
146.9871
 20
-16.7868
 30
0.0
 10
161.1303
 20
-20.2363
 30
0.0
 10
161.1303
 20
-20.2363
 30
0.0
 10
161.1303
 20
-20.2363
 30
0.0
 10
161.0827
 20
-24.2189
 30
0.0
 10
161.0827
 20
-24.2189
 30
0.0
 10
161.0827
 20
-24.2189
 30
0.0
 10
159.3786
 20
-24.2189
 30
0.0
 10
138.4596
 20
-24.1973
 30
0.0
 10
138.4596
 20
-24.1973
 30
0.0
  0
SPLINE
  5
F1
330
1F
100
AcDbEntity
  8
layer 1
 62
     7
100
AcDbSpline
210
0.0
220
0.0
230
1.0
 70
    11
 71
     3
 72
    16
 73
    12
 74
     0
 42
0.0000000001
 43
0.0000000001
 12
1.0
 22
0.0
 32
0.0
 13
1.0
 23
0.0
 33
0.0
 40
0.0
 40
0.0
 40
0.0
 40
0.0
 40
0.25
 40
0.25
 40
0.25
 40
0.25
 40
0.5
 40
0.5
 40
0.5
 40
0.5
 40
1.0
 40
1.0
 40
1.0
 40
1.0
 10
161.1239
 20
1.694
 30
0.0
 10
161.1239
 20
1.694
 30
0.0
 10
161.1239
 20
-8.3058
 30
0.0
 10
161.1239
 20
-8.3058
 30
0.0
 10
161.1239
 20
-8.3058
 30
0.0
 10
159.8874
 20
-7.9641
 30
0.0
 10
154.47
 20
-5.202
 30
0.0
 10
153.8136
 20
1.7122
 30
0.0
 10
153.8136
 20
1.7122
 30
0.0
 10
155.0469
 20
1.7156
 30
0.0
 10
161.1239
 20
1.694
 30
0.0
 10
161.1239
 20
1.694
 30
0.0
  0
SPLINE
  5
F2
330
1F
100
AcDbEntity
  8
layer 1
 62
     7
100
AcDbSpline
210
0.0
220
0.0
230
1.0
 70
    11
 71
     3
 72
    20
 73
    16
 74
     0
 42
0.0000000001
 43
0.0000000001
 12
1.0
 22
0.0
 32
0.0
 13
1.0
 23
0.0
 33
0.0
 40
0.0
 40
0.0
 40
0.0
 40
0.0
 40
0.2
 40
0.2
 40
0.2
 40
0.2
 40
0.4
 40
0.4
 40
0.4
 40
0.4
 40
0.6
 40
0.6
 40
0.6
 40
0.6
 40
1.0
 40
1.0
 40
1.0
 40
1.0
 10
161.1239
 20
-18.5319
 30
0.0
 10
149.4947
 20
-15.632
 30
0.0
 10
144.3949
 20
-6.4201
 30
0.0
 10
143.9177
 20
1.6938
 30
0.0
 10
143.9177
 20
1.6938
 30
0.0
 10
143.9177
 20
1.6938
 30
0.0
 10
152.3826
 20
1.6744
 30
0.0
 10
152.3826
 20
1.6744
 30
0.0
 10
152.3826
 20
1.6744
 30
0.0
 10
152.5272
 20
-2.8356
 30
0.0
 10
155.308
 20
-7.5562
 30
0.0
 10
161.1615
 20
-9.888
 30
0.0
 10
161.1615
 20
-9.888
 30
0.0
 10
161.1615
 20
-9.888
 30
0.0
 10
161.1239
 20
-18.5319
 30
0.0
 10
161.1239
 20
-18.5319
 30
0.0
  0
SPLINE
  5
F3
330
1F
100
AcDbEntity
  8
layer 1
 62
     7
100
AcDbSpline
210
0.0
220
0.0
230
1.0
 70
    11
 71
     3
 72
    20
 73
    16
 74
     0
 42
0.0000000001
 43
0.0000000001
 12
1.0
 22
0.0
 32
0.0
 13
1.0
 23
0.0
 33
0.0
 40
0.0
 40
0.0
 40
0.0
 40
0.0
 40
0.2
 40
0.2
 40
0.2
 40
0.2
 40
0.4
 40
0.4
 40
0.4
 40
0.4
 40
0.6
 40
0.6
 40
0.6
 40
0.6
 40
1.0
 40
1.0
 40
1.0
 40
1.0
 10
168.3684
 20
-52.4828
 30
0.0
 10
168.3684
 20
-52.4828
 30
0.0
 10
168.3996
 20
-32.0187
 30
0.0
 10
168.3996
 20
-32.0187
 30
0.0
 10
168.3996
 20
-32.0187
 30
0.0
 10
166.529
 20
-31.8741
 30
0.0
 10
164.6984
 20
-31.8652
 30
0.0
 10
162.9597
 20
-32.0501
 30
0.0
 10
162.9597
 20
-32.0501
 30
0.0
 10
162.9597
 20
-32.0501
 30
0.0
 10
162.8843
 20
-52.5015
 30
0.0
 10
162.8843
 20
-52.5015
 30
0.0
 10
162.8843
 20
-52.5015
 30
0.0
 10
164.6704
 20
-52.5079
 30
0.0
 10
166.582
 20
-52.4831
 30
0.0
 10
168.3684
 20
-52.4828
 30
0.0
  0
SPLINE
  5
F4
330
1F
100
AcDbEntity
  8
layer 1
 62
     7
100
AcDbSpline
210
0.0
220
0.0
230
1.0
 70
    11
 71
     3
 72
    24
 73
    20
 74
     0
 42
0.0000000001
 43
0.0000000001
 12
1.0
 22
0.0
 32
0.0
 13
1.0
 23
0.0
 33
0.0
 40
0.0
 40
0.0
 40
0.0
 40
0.0
 40
0.1666666666666667
 40
0.1666666666666667
 40
0.1666666666666667
 40
0.1666666666666667
 40
0.3333333333333333
 40
0.3333333333333333
 40
0.3333333333333333
 40
0.3333333333333333
 40
0.5
 40
0.5
 40
0.5
 40
0.5
 40
0.6666666666666666
 40
0.6666666666666666
 40
0.6666666666666666
 40
0.6666666666666666
 40
1.0
 40
1.0
 40
1.0
 40
1.0
 10
192.6266
 20
-26.608
 30
0.0
 10
192.6266
 20
-26.608
 30
0.0
 10
192.6266
 20
-52.4983
 30
0.0
 10
192.6266
 20
-52.4983
 30
0.0
 10
192.6266
 20
-52.4983
 30
0.0
 10
192.6266
 20
-52.4983
 30
0.0
 10
188.8102
 20
-52.4983
 30
0.0
 10
188.8102
 20
-52.4983
 30
0.0
 10
188.8102
 20
-52.4983
 30
0.0
 10
188.3954
 20
-45.0288
 30
0.0
 10
184.0991
 20
-34.0178
 30
0.0
 10
169.9527
 20
-30.5683
 30
0.0
 10
169.9527
 20
-30.5683
 30
0.0
 10
169.9527
 20
-30.5683
 30
0.0
 10
170.0033
 20
-26.5854
 30
0.0
 10
170.0033
 20
-26.5854
 30
0.0
 10
170.0033
 20
-26.5854
 30
0.0
 10
171.7042
 20
-26.5854
 30
0.0
 10
192.6266
 20
-26.608
 30
0.0
 10
192.6266
 20
-26.608
 30
0.0
  0
SPLINE
  5
F5
330
1F
100
AcDbEntity
  8
layer 1
 62
     7
100
AcDbSpline
210
0.0
220
0.0
230
1.0
 70
    11
 71
     3
 72
    16
 73
    12
 74
     0
 42
0.0000000001
 43
0.0000000001
 12
1.0
 22
0.0
 32
0.0
 13
1.0
 23
0.0
 33
0.0
 40
0.0
 40
0.0
 40
0.0
 40
0.0
 40
0.25
 40
0.25
 40
0.25
 40
0.25
 40
0.5
 40
0.5
 40
0.5
 40
0.5
 40
1.0
 40
1.0
 40
1.0
 40
1.0
 10
169.9625
 20
-52.4983
 30
0.0
 10
169.9625
 20
-52.4983
 30
0.0
 10
169.9625
 20
-42.4988
 30
0.0
 10
169.9625
 20
-42.4988
 30
0.0
 10
169.9625
 20
-42.4988
 30
0.0
 10
171.1959
 20
-42.8411
 30
0.0
 10
176.6128
 20
-45.6028
 30
0.0
 10
177.2726
 20
-52.5177
 30
0.0
 10
177.2726
 20
-52.5177
 30
0.0
 10
176.0383
 20
-52.5206
 30
0.0
 10
169.9625
 20
-52.4983
 30
0.0
 10
169.9625
 20
-52.4983
 30
0.0
  0
SPLINE
  5
F6
330
1F
100
AcDbEntity
  8
layer 1
 62
     7
100
AcDbSpline
210
0.0
220
0.0
230
1.0
 70
    11
 71
     3
 72
    20
 73
    16
 74
     0
 42
0.0000000001
 43
0.0000000001
 12
1.0
 22
0.0
 32
0.0
 13
1.0
 23
0.0
 33
0.0
 40
0.0
 40
0.0
 40
0.0
 40
0.0
 40
0.2
 40
0.2
 40
0.2
 40
0.2
 40
0.4
 40
0.4
 40
0.4
 40
0.4
 40
0.6
 40
0.6
 40
0.6
 40
0.6
 40
1.0
 40
1.0
 40
1.0
 40
1.0
 10
169.9625
 20
-32.2702
 30
0.0
 10
181.5883
 20
-35.1732
 30
0.0
 10
186.6911
 20
-44.3854
 30
0.0
 10
187.1685
 20
-52.4983
 30
0.0
 10
187.1685
 20
-52.4983
 30
0.0
 10
187.1685
 20
-52.4983
 30
0.0
 10
178.7004
 20
-52.4796
 30
0.0
 10
178.7004
 20
-52.4796
 30
0.0
 10
178.7004
 20
-52.4796
 30
0.0
 10
178.5558
 20
-47.9697
 30
0.0
 10
175.778
 20
-43.2493
 30
0.0
 10
169.9245
 20
-40.9168
 30
0.0
 10
169.9245
 20
-40.9168
 30
0.0
 10
169.9245
 20
-40.9168
 30
0.0
 10
169.9625
 20
-32.2702
 30
0.0
 10
169.9625
 20
-32.2702
 30
0.0
  0
SPLINE
  5
F7
330
1F
100
AcDbEntity
  8
layer 1
 62
     7
100
AcDbSpline
210
0.0
220
0.0
230
1.0
 70
    11
 71
     3
 72
    24
 73
    20
 74
     0
 42
0.0000000001
 43
0.0000000001
 12
1.0
 22
0.0
 32
0.0
 13
1.0
 23
0.0
 33
0.0
 40
0.0
 40
0.0
 40
0.0
 40
0.0
 40
0.1666666666666667
 40
0.1666666666666667
 40
0.1666666666666667
 40
0.1666666666666667
 40
0.3333333333333333
 40
0.3333333333333333
 40
0.3333333333333333
 40
0.3333333333333333
 40
0.5
 40
0.5
 40
0.5
 40
0.5
 40
0.6666666666666666
 40
0.6666666666666666
 40
0.6666666666666666
 40
0.6666666666666666
 40
1.0
 40
1.0
 40
1.0
 40
1.0
 10
138.4596
 20
-26.608
 30
0.0
 10
138.4596
 20
-26.608
 30
0.0
 10
138.4596
 20
-52.4983
 30
0.0
 10
138.4596
 20
-52.4983
 30
0.0
 10
138.4596
 20
-52.4983
 30
0.0
 10
138.4596
 20
-52.4983
 30
0.0
 10
142.273
 20
-52.4983
 30
0.0
 10
142.273
 20
-52.4983
 30
0.0
 10
142.273
 20
-52.4983
 30
0.0
 10
142.6876
 20
-45.0288
 30
0.0
 10
146.9871
 20
-34.0178
 30
0.0
 10
161.1303
 20
-30.5683
 30
0.0
 10
161.1303
 20
-30.5683
 30
0.0
 10
161.1303
 20
-30.5683
 30
0.0
 10
161.0827
 20
-26.5854
 30
0.0
 10
161.0827
 20
-26.5854
 30
0.0
 10
161.0827
 20
-26.5854
 30
0.0
 10
159.3786
 20
-26.5854
 30
0.0
 10
138.4596
 20
-26.608
 30
0.0
 10
138.4596
 20
-26.608
 30
0.0
  0
SPLINE
  5
F8
330
1F
100
AcDbEntity
  8
layer 1
 62
     7
100
AcDbSpline
210
0.0
220
0.0
230
1.0
 70
    11
 71
     3
 72
    16
 73
    12
 74
     0
 42
0.0000000001
 43
0.0000000001
 12
1.0
 22
0.0
 32
0.0
 13
1.0
 23
0.0
 33
0.0
 40
0.0
 40
0.0
 40
0.0
 40
0.0
 40
0.25
 40
0.25
 40
0.25
 40
0.25
 40
0.5
 40
0.5
 40
0.5
 40
0.5
 40
1.0
 40
1.0
 40
1.0
 40
1.0
 10
161.1239
 20
-52.4983
 30
0.0
 10
161.1239
 20
-52.4983
 30
0.0
 10
161.1239
 20
-42.4988
 30
0.0
 10
161.1239
 20
-42.4988
 30
0.0
 10
161.1239
 20
-42.4988
 30
0.0
 10
159.8874
 20
-42.8411
 30
0.0
 10
154.47
 20
-45.6028
 30
0.0
 10
153.8136
 20
-52.5177
 30
0.0
 10
153.8136
 20
-52.5177
 30
0.0
 10
155.0469
 20
-52.5206
 30
0.0
 10
161.1239
 20
-52.4983
 30
0.0
 10
161.1239
 20
-52.4983
 30
0.0
  0
SPLINE
  5
F9
330
1F
100
AcDbEntity
  8
layer 1
 62
     7
100
AcDbSpline
210
0.0
220
0.0
230
1.0
 70
    11
 71
     3
 72
    20
 73
    16
 74
     0
 42
0.0000000001
 43
0.0000000001
 12
1.0
 22
0.0
 32
0.0
 13
1.0
 23
0.0
 33
0.0
 40
0.0
 40
0.0
 40
0.0
 40
0.0
 40
0.2
 40
0.2
 40
0.2
 40
0.2
 40
0.4
 40
0.4
 40
0.4
 40
0.4
 40
0.6
 40
0.6
 40
0.6
 40
0.6
 40
1.0
 40
1.0
 40
1.0
 40
1.0
 10
161.1239
 20
-32.2702
 30
0.0
 10
149.4947
 20
-35.1732
 30
0.0
 10
144.3949
 20
-44.3854
 30
0.0
 10
143.9177
 20
-52.4983
 30
0.0
 10
143.9177
 20
-52.4983
 30
0.0
 10
143.9177
 20
-52.4983
 30
0.0
 10
152.3826
 20
-52.4796
 30
0.0
 10
152.3826
 20
-52.4796
 30
0.0
 10
152.3826
 20
-52.4796
 30
0.0
 10
152.5272
 20
-47.9697
 30
0.0
 10
155.308
 20
-43.2493
 30
0.0
 10
161.1615
 20
-40.9168
 30
0.0
 10
161.1615
 20
-40.9168
 30
0.0
 10
161.1615
 20
-40.9168
 30
0.0
 10
161.1239
 20
-32.2702
 30
0.0
 10
161.1239
 20
-32.2702
 30
0.0
  0
SPLINE
  5
FA
330
1F
100
AcDbEntity
  8
layer 1
 62
     7
100
AcDbSpline
210
0.0
220
0.0
230
1.0
 70
    11
 71
     3
 72
    20
 73
    16
 74
     0
 42
0.0000000001
 43
0.0000000001
 12
1.0
 22
0.0
 32
0.0
 13
1.0
 23
0.0
 33
0.0
 40
0.0
 40
0.0
 40
0.0
 40
0.0
 40
0.2
 40
0.2
 40
0.2
 40
0.2
 40
0.4
 40
0.4
 40
0.4
 40
0.4
 40
0.6
 40
0.6
 40
0.6
 40
0.6
 40
1.0
 40
1.0
 40
1.0
 40
1.0
 10
168.3684
 20
-20.5125
 30
0.0
 10
168.3684
 20
-20.5125
 30
0.0
 10
168.3996
 20
-30.3178
 30
0.0
 10
168.3996
 20
-30.3178
 30
0.0
 10
168.3996
 20
-30.3178
 30
0.0
 10
166.5506
 20
-30.1137
 30
0.0
 10
164.6046
 20
-30.1007
 30
0.0
 10
162.9597
 20
-30.2863
 30
0.0
 10
162.9597
 20
-30.2863
 30
0.0
 10
162.9597
 20
-30.2863
 30
0.0
 10
162.8843
 20
-20.4932
 30
0.0
 10
162.8843
 20
-20.4932
 30
0.0
 10
162.8843
 20
-20.4932
 30
0.0
 10
164.8777
 20
-20.6973
 30
0.0
 10
166.3023
 20
-20.7007
 30
0.0
 10
168.3684
 20
-20.5125
 30
0.0
  0
SPLINE
  5
FB
330
1F
100
AcDbEntity
  8
layer 1
 62
     7
100
AcDbSpline
210
0.0
220
0.0
230
1.0
 70
    11
 71
     3
 72
    20
 73
    16
 74
     0
 42
0.0000000001
 43
0.0000000001
 12
1.0
 22
0.0
 32
0.0
 13
1.0
 23
0.0
 33
0.0
 40
0.0
 40
0.0
 40
0.0
 40
0.0
 40
0.2
 40
0.2
 40
0.2
 40
0.2
 40
0.4
 40
0.4
 40
0.4
 40
0.4
 40
0.6
 40
0.6
 40
0.6
 40
0.6
 40
1.0
 40
1.0
 40
1.0
 40
1.0
 10
26.2469
 20
-70.3153
 30
0.0
 10
26.2469
 20
-72.3661
 30
0.0
 10
24.586
 20
-74.0269
 30
0.0
 10
22.5351
 20
-74.0269
 30
0.0
 10
22.5351
 20
-74.0269
 30
0.0
 10
20.4879
 20
-74.0269
 30
0.0
 10
18.8267
 20
-72.3661
 30
0.0
 10
18.8267
 20
-70.3155
 30
0.0
 10
18.8267
 20
-70.3155
 30
0.0
 10
18.8267
 20
-68.2678
 30
0.0
 10
20.4877
 20
-66.6071
 30
0.0
 10
22.5351
 20
-66.6071
 30
0.0
 10
22.5351
 20
-66.6071
 30
0.0
 10
24.586
 20
-66.6071
 30
0.0
 10
26.2469
 20
-68.2678
 30
0.0
 10
26.2469
 20
-70.3153
 30
0.0
  0
SPLINE
  5
FC
330
1F
100
AcDbEntity
  8
layer 1
 62
     7
100
AcDbSpline
210
0.0
220
0.0
230
1.0
 70
    11
 71
     3
 72
    24
 73
    20
 74
     0
 42
0.0000000001
 43
0.0000000001
 12
1.0
 22
0.0
 32
0.0
 13
1.0
 23
0.0
 33
0.0
 40
0.0
 40
0.0
 40
0.0
 40
0.0
 40
0.1666666666666667
 40
0.1666666666666667
 40
0.1666666666666667
 40
0.1666666666666667
 40
0.3333333333333333
 40
0.3333333333333333
 40
0.3333333333333333
 40
0.3333333333333333
 40
0.5
 40
0.5
 40
0.5
 40
0.5
 40
0.6666666666666666
 40
0.6666666666666666
 40
0.6666666666666666
 40
0.6666666666666666
 40
1.0
 40
1.0
 40
1.0
 40
1.0
 10
9.4625
 20
-57.356
 30
0.0
 10
9.4625
 20
-57.356
 30
0.0
 10
9.4625
 20
-69.4359
 30
0.0
 10
9.4625
 20
-69.4359
 30
0.0
 10
9.4625
 20
-69.4359
 30
0.0
 10
9.4625
 20
-69.4359
 30
0.0
 10
17.1154
 20
-69.4359
 30
0.0
 10
17.1154
 20
-69.4359
 30
0.0
 10
17.1154
 20
-69.4359
 30
0.0
 10
17.457
 20
-67.0749
 30
0.0
 10
19.1596
 20
-65.4486
 30
0.0
 10
21.6115
 20
-64.8169
 30
0.0
 10
21.6115
 20
-64.8169
 30
0.0
 10
21.6115
 20
-64.8169
 30
0.0
 10
21.6405
 20
-57.3375
 30
0.0
 10
21.6405
 20
-57.3375
 30
0.0
 10
21.6405
 20
-57.3375
 30
0.0
 10
19.9355
 20
-57.3343
 30
0.0
 10
9.4625
 20
-57.356
 30
0.0
 10
9.4625
 20
-57.356
 30
0.0
  0
SPLINE
  5
FD
330
1F
100
AcDbEntity
  8
layer 1
 62
     7
100
AcDbSpline
210
0.0
220
0.0
230
1.0
 70
    11
 71
     3
 72
    24
 73
    20
 74
     0
 42
0.0000000001
 43
0.0000000001
 12
1.0
 22
0.0
 32
0.0
 13
1.0
 23
0.0
 33
0.0
 40
0.0
 40
0.0
 40
0.0
 40
0.0
 40
0.1666666666666667
 40
0.1666666666666667
 40
0.1666666666666667
 40
0.1666666666666667
 40
0.3333333333333333
 40
0.3333333333333333
 40
0.3333333333333333
 40
0.3333333333333333
 40
0.5
 40
0.5
 40
0.5
 40
0.5
 40
0.6666666666666666
 40
0.6666666666666666
 40
0.6666666666666666
 40
0.6666666666666666
 40
1.0
 40
1.0
 40
1.0
 40
1.0
 10
9.4625
 20
-83.2434
 30
0.0
 10
9.4625
 20
-83.2434
 30
0.0
 10
9.4625
 20
-71.1636
 30
0.0
 10
9.4625
 20
-71.1636
 30
0.0
 10
9.4625
 20
-71.1636
 30
0.0
 10
9.4625
 20
-71.1636
 30
0.0
 10
17.1154
 20
-71.1636
 30
0.0
 10
17.1154
 20
-71.1636
 30
0.0
 10
17.1154
 20
-71.1636
 30
0.0
 10
17.457
 20
-73.5244
 30
0.0
 10
19.1596
 20
-75.1516
 30
0.0
 10
21.6115
 20
-75.7826
 30
0.0
 10
21.6115
 20
-75.7826
 30
0.0
 10
21.6115
 20
-75.7826
 30
0.0
 10
21.6405
 20
-83.2627
 30
0.0
 10
21.6405
 20
-83.2627
 30
0.0
 10
21.6405
 20
-83.2627
 30
0.0
 10
19.9355
 20
-83.2659
 30
0.0
 10
9.4625
 20
-83.2434
 30
0.0
 10
9.4625
 20
-83.2434
 30
0.0
  0
SPLINE
  5
FE
330
1F
100
AcDbEntity
  8
layer 1
 62
     7
100
AcDbSpline
210
0.0
220
0.0
230
1.0
 70
    11
 71
     3
 72
    24
 73
    20
 74
     0
 42
0.0000000001
 43
0.0000000001
 12
1.0
 22
0.0
 32
0.0
 13
1.0
 23
0.0
 33
0.0
 40
0.0
 40
0.0
 40
0.0
 40
0.0
 40
0.1666666666666667
 40
0.1666666666666667
 40
0.1666666666666667
 40
0.1666666666666667
 40
0.3333333333333333
 40
0.3333333333333333
 40
0.3333333333333333
 40
0.3333333333333333
 40
0.5
 40
0.5
 40
0.5
 40
0.5
 40
0.6666666666666666
 40
0.6666666666666666
 40
0.6666666666666666
 40
0.6666666666666666
 40
1.0
 40
1.0
 40
1.0
 40
1.0
 10
35.5106
 20
-57.356
 30
0.0
 10
35.5106
 20
-57.356
 30
0.0
 10
35.5106
 20
-69.4359
 30
0.0
 10
35.5106
 20
-69.4359
 30
0.0
 10
35.5106
 20
-69.4359
 30
0.0
 10
35.5106
 20
-69.4359
 30
0.0
 10
27.8577
 20
-69.4359
 30
0.0
 10
27.8577
 20
-69.4359
 30
0.0
 10
27.8577
 20
-69.4359
 30
0.0
 10
27.5187
 20
-67.0749
 30
0.0
 10
25.8133
 20
-65.4486
 30
0.0
 10
23.3607
 20
-64.8169
 30
0.0
 10
23.3607
 20
-64.8169
 30
0.0
 10
23.3607
 20
-64.8169
 30
0.0
 10
23.3327
 20
-57.3375
 30
0.0
 10
23.3327
 20
-57.3375
 30
0.0
 10
23.3327
 20
-57.3375
 30
0.0
 10
25.0376
 20
-57.3343
 30
0.0
 10
35.5106
 20
-57.356
 30
0.0
 10
35.5106
 20
-57.356
 30
0.0
  0
SPLINE
  5
FF
330
1F
100
AcDbEntity
  8
layer 1
 62
     7
100
AcDbSpline
210
0.0
220
0.0
230
1.0
 70
    11
 71
     3
 72
    24
 73
    20
 74
     0
 42
0.0000000001
 43
0.0000000001
 12
1.0
 22
0.0
 32
0.0
 13
1.0
 23
0.0
 33
0.0
 40
0.0
 40
0.0
 40
0.0
 40
0.0
 40
0.1666666666666667
 40
0.1666666666666667
 40
0.1666666666666667
 40
0.1666666666666667
 40
0.3333333333333333
 40
0.3333333333333333
 40
0.3333333333333333
 40
0.3333333333333333
 40
0.5
 40
0.5
 40
0.5
 40
0.5
 40
0.6666666666666666
 40
0.6666666666666666
 40
0.6666666666666666
 40
0.6666666666666666
 40
1.0
 40
1.0
 40
1.0
 40
1.0
 10
35.5106
 20
-83.2434
 30
0.0
 10
35.5106
 20
-83.2434
 30
0.0
 10
35.5106
 20
-71.1636
 30
0.0
 10
35.5106
 20
-71.1636
 30
0.0
 10
35.5106
 20
-71.1636
 30
0.0
 10
35.5106
 20
-71.1636
 30
0.0
 10
27.8577
 20
-71.1636
 30
0.0
 10
27.8577
 20
-71.1636
 30
0.0
 10
27.8577
 20
-71.1636
 30
0.0
 10
27.5187
 20
-73.5244
 30
0.0
 10
25.8133
 20
-75.1516
 30
0.0
 10
23.3607
 20
-75.7826
 30
0.0
 10
23.3607
 20
-75.7826
 30
0.0
 10
23.3607
 20
-75.7826
 30
0.0
 10
23.3327
 20
-83.2627
 30
0.0
 10
23.3327
 20
-83.2627
 30
0.0
 10
23.3327
 20
-83.2627
 30
0.0
 10
25.0376
 20
-83.2659
 30
0.0
 10
35.5106
 20
-83.2434
 30
0.0
 10
35.5106
 20
-83.2434
 30
0.0
  0
SPLINE
  5
100
330
1F
100
AcDbEntity
  8
layer 1
 62
     7
100
AcDbSpline
210
0.0
220
0.0
230
1.0
 70
    11
 71
     3
 72
    20
 73
    16
 74
     0
 42
0.0000000001
 43
0.0000000001
 12
1.0
 22
0.0
 32
0.0
 13
1.0
 23
0.0
 33
0.0
 40
0.0
 40
0.0
 40
0.0
 40
0.0
 40
0.2
 40
0.2
 40
0.2
 40
0.2
 40
0.4
 40
0.4
 40
0.4
 40
0.4
 40
0.6
 40
0.6
 40
0.6
 40
0.6
 40
1.0
 40
1.0
 40
1.0
 40
1.0
 10
54.3328
 20
-70.3153
 30
0.0
 10
54.3328
 20
-72.3661
 30
0.0
 10
52.671
 20
-74.0269
 30
0.0
 10
50.6203
 20
-74.0269
 30
0.0
 10
50.6203
 20
-74.0269
 30
0.0
 10
48.5738
 20
-74.0269
 30
0.0
 10
46.9119
 20
-72.3661
 30
0.0
 10
46.9119
 20
-70.3155
 30
0.0
 10
46.9119
 20
-70.3155
 30
0.0
 10
46.9119
 20
-68.2678
 30
0.0
 10
48.5736
 20
-66.6071
 30
0.0
 10
50.6203
 20
-66.6071
 30
0.0
 10
50.6203
 20
-66.6071
 30
0.0
 10
52.671
 20
-66.6071
 30
0.0
 10
54.3328
 20
-68.2678
 30
0.0
 10
54.3328
 20
-70.3153
 30
0.0
  0
SPLINE
  5
101
330
1F
100
AcDbEntity
  8
layer 1
 62
     7
100
AcDbSpline
210
0.0
220
0.0
230
1.0
 70
    11
 71
     3
 72
    24
 73
    20
 74
     0
 42
0.0000000001
 43
0.0000000001
 12
1.0
 22
0.0
 32
0.0
 13
1.0
 23
0.0
 33
0.0
 40
0.0
 40
0.0
 40
0.0
 40
0.0
 40
0.1666666666666667
 40
0.1666666666666667
 40
0.1666666666666667
 40
0.1666666666666667
 40
0.3333333333333333
 40
0.3333333333333333
 40
0.3333333333333333
 40
0.3333333333333333
 40
0.5
 40
0.5
 40
0.5
 40
0.5
 40
0.6666666666666666
 40
0.6666666666666666
 40
0.6666666666666666
 40
0.6666666666666666
 40
1.0
 40
1.0
 40
1.0
 40
1.0
 10
37.5485
 20
-57.356
 30
0.0
 10
37.5485
 20
-57.356
 30
0.0
 10
37.5485
 20
-69.4359
 30
0.0
 10
37.5485
 20
-69.4359
 30
0.0
 10
37.5485
 20
-69.4359
 30
0.0
 10
37.5485
 20
-69.4359
 30
0.0
 10
45.2009
 20
-69.4359
 30
0.0
 10
45.2009
 20
-69.4359
 30
0.0
 10
45.2009
 20
-69.4359
 30
0.0
 10
45.5399
 20
-67.0749
 30
0.0
 10
47.2449
 20
-65.4486
 30
0.0
 10
49.6975
 20
-64.8169
 30
0.0
 10
49.6975
 20
-64.8169
 30
0.0
 10
49.6975
 20
-64.8169
 30
0.0
 10
49.7257
 20
-57.3375
 30
0.0
 10
49.7257
 20
-57.3375
 30
0.0
 10
49.7257
 20
-57.3375
 30
0.0
 10
48.0208
 20
-57.3343
 30
0.0
 10
37.5485
 20
-57.356
 30
0.0
 10
37.5485
 20
-57.356
 30
0.0
  0
SPLINE
  5
102
330
1F
100
AcDbEntity
  8
layer 1
 62
     7
100
AcDbSpline
210
0.0
220
0.0
230
1.0
 70
    11
 71
     3
 72
    24
 73
    20
 74
     0
 42
0.0000000001
 43
0.0000000001
 12
1.0
 22
0.0
 32
0.0
 13
1.0
 23
0.0
 33
0.0
 40
0.0
 40
0.0
 40
0.0
 40
0.0
 40
0.1666666666666667
 40
0.1666666666666667
 40
0.1666666666666667
 40
0.1666666666666667
 40
0.3333333333333333
 40
0.3333333333333333
 40
0.3333333333333333
 40
0.3333333333333333
 40
0.5
 40
0.5
 40
0.5
 40
0.5
 40
0.6666666666666666
 40
0.6666666666666666
 40
0.6666666666666666
 40
0.6666666666666666
 40
1.0
 40
1.0
 40
1.0
 40
1.0
 10
37.5485
 20
-83.2434
 30
0.0
 10
37.5485
 20
-83.2434
 30
0.0
 10
37.5485
 20
-71.1636
 30
0.0
 10
37.5485
 20
-71.1636
 30
0.0
 10
37.5485
 20
-71.1636
 30
0.0
 10
37.5485
 20
-71.1636
 30
0.0
 10
45.2009
 20
-71.1636
 30
0.0
 10
45.2009
 20
-71.1636
 30
0.0
 10
45.2009
 20
-71.1636
 30
0.0
 10
45.5399
 20
-73.5244
 30
0.0
 10
47.2449
 20
-75.1516
 30
0.0
 10
49.6975
 20
-75.7826
 30
0.0
 10
49.6975
 20
-75.7826
 30
0.0
 10
49.6975
 20
-75.7826
 30
0.0
 10
49.7257
 20
-83.2627
 30
0.0
 10
49.7257
 20
-83.2627
 30
0.0
 10
49.7257
 20
-83.2627
 30
0.0
 10
48.0208
 20
-83.2659
 30
0.0
 10
37.5485
 20
-83.2434
 30
0.0
 10
37.5485
 20
-83.2434
 30
0.0
  0
SPLINE
  5
103
330
1F
100
AcDbEntity
  8
layer 1
 62
     7
100
AcDbSpline
210
0.0
220
0.0
230
1.0
 70
    11
 71
     3
 72
    24
 73
    20
 74
     0
 42
0.0000000001
 43
0.0000000001
 12
1.0
 22
0.0
 32
0.0
 13
1.0
 23
0.0
 33
0.0
 40
0.0
 40
0.0
 40
0.0
 40
0.0
 40
0.1666666666666667
 40
0.1666666666666667
 40
0.1666666666666667
 40
0.1666666666666667
 40
0.3333333333333333
 40
0.3333333333333333
 40
0.3333333333333333
 40
0.3333333333333333
 40
0.5
 40
0.5
 40
0.5
 40
0.5
 40
0.6666666666666666
 40
0.6666666666666666
 40
0.6666666666666666
 40
0.6666666666666666
 40
1.0
 40
1.0
 40
1.0
 40
1.0
 10
63.5958
 20
-57.356
 30
0.0
 10
63.5958
 20
-57.356
 30
0.0
 10
63.5958
 20
-69.4359
 30
0.0
 10
63.5958
 20
-69.4359
 30
0.0
 10
63.5958
 20
-69.4359
 30
0.0
 10
63.5958
 20
-69.4359
 30
0.0
 10
55.943
 20
-69.4359
 30
0.0
 10
55.943
 20
-69.4359
 30
0.0
 10
55.943
 20
-69.4359
 30
0.0
 10
55.6012
 20
-67.0749
 30
0.0
 10
53.8962
 20
-65.4486
 30
0.0
 10
51.4436
 20
-64.8169
 30
0.0
 10
51.4436
 20
-64.8169
 30
0.0
 10
51.4436
 20
-64.8169
 30
0.0
 10
51.4188
 20
-57.3375
 30
0.0
 10
51.4188
 20
-57.3375
 30
0.0
 10
51.4188
 20
-57.3375
 30
0.0
 10
53.1237
 20
-57.3343
 30
0.0
 10
63.5958
 20
-57.356
 30
0.0
 10
63.5958
 20
-57.356
 30
0.0
  0
SPLINE
  5
104
330
1F
100
AcDbEntity
  8
layer 1
 62
     7
100
AcDbSpline
210
0.0
220
0.0
230
1.0
 70
    11
 71
     3
 72
    24
 73
    20
 74
     0
 42
0.0000000001
 43
0.0000000001
 12
1.0
 22
0.0
 32
0.0
 13
1.0
 23
0.0
 33
0.0
 40
0.0
 40
0.0
 40
0.0
 40
0.0
 40
0.1666666666666667
 40
0.1666666666666667
 40
0.1666666666666667
 40
0.1666666666666667
 40
0.3333333333333333
 40
0.3333333333333333
 40
0.3333333333333333
 40
0.3333333333333333
 40
0.5
 40
0.5
 40
0.5
 40
0.5
 40
0.6666666666666666
 40
0.6666666666666666
 40
0.6666666666666666
 40
0.6666666666666666
 40
1.0
 40
1.0
 40
1.0
 40
1.0
 10
63.5958
 20
-83.2434
 30
0.0
 10
63.5958
 20
-83.2434
 30
0.0
 10
63.5958
 20
-71.1636
 30
0.0
 10
63.5958
 20
-71.1636
 30
0.0
 10
63.5958
 20
-71.1636
 30
0.0
 10
63.5958
 20
-71.1636
 30
0.0
 10
55.943
 20
-71.1636
 30
0.0
 10
55.943
 20
-71.1636
 30
0.0
 10
55.943
 20
-71.1636
 30
0.0
 10
55.6012
 20
-73.5244
 30
0.0
 10
53.8962
 20
-75.1516
 30
0.0
 10
51.4436
 20
-75.7826
 30
0.0
 10
51.4436
 20
-75.7826
 30
0.0
 10
51.4436
 20
-75.7826
 30
0.0
 10
51.4188
 20
-83.2627
 30
0.0
 10
51.4188
 20
-83.2627
 30
0.0
 10
51.4188
 20
-83.2627
 30
0.0
 10
53.1237
 20
-83.2659
 30
0.0
 10
63.5958
 20
-83.2434
 30
0.0
 10
63.5958
 20
-83.2434
 30
0.0
  0
SPLINE
  5
105
330
1F
100
AcDbEntity
  8
layer 1
 62
     7
100
AcDbSpline
210
0.0
220
0.0
230
1.0
 70
    11
 71
     3
 72
    20
 73
    16
 74
     0
 42
0.0000000001
 43
0.0000000001
 12
1.0
 22
0.0
 32
0.0
 13
1.0
 23
0.0
 33
0.0
 40
0.0
 40
0.0
 40
0.0
 40
0.0
 40
0.2
 40
0.2
 40
0.2
 40
0.2
 40
0.4
 40
0.4
 40
0.4
 40
0.4
 40
0.6
 40
0.6
 40
0.6
 40
0.6
 40
1.0
 40
1.0
 40
1.0
 40
1.0
 10
26.2469
 20
-98.2784
 30
0.0
 10
26.2469
 20
-100.3258
 30
0.0
 10
24.586
 20
-101.9877
 30
0.0
 10
22.5351
 20
-101.9877
 30
0.0
 10
22.5351
 20
-101.9877
 30
0.0
 10
20.4879
 20
-101.9874
 30
0.0
 10
18.8267
 20
-100.326
 30
0.0
 10
18.8267
 20
-98.2784
 30
0.0
 10
18.8267
 20
-98.2784
 30
0.0
 10
18.8267
 20
-96.2284
 30
0.0
 10
20.4877
 20
-94.567
 30
0.0
 10
22.5351
 20
-94.567
 30
0.0
 10
22.5351
 20
-94.567
 30
0.0
 10
24.586
 20
-94.5668
 30
0.0
 10
26.2469
 20
-96.2287
 30
0.0
 10
26.2469
 20
-98.2784
 30
0.0
  0
SPLINE
  5
106
330
1F
100
AcDbEntity
  8
layer 1
 62
     7
100
AcDbSpline
210
0.0
220
0.0
230
1.0
 70
    11
 71
     3
 72
    24
 73
    20
 74
     0
 42
0.0000000001
 43
0.0000000001
 12
1.0
 22
0.0
 32
0.0
 13
1.0
 23
0.0
 33
0.0
 40
0.0
 40
0.0
 40
0.0
 40
0.0
 40
0.1666666666666667
 40
0.1666666666666667
 40
0.1666666666666667
 40
0.1666666666666667
 40
0.3333333333333333
 40
0.3333333333333333
 40
0.3333333333333333
 40
0.3333333333333333
 40
0.5
 40
0.5
 40
0.5
 40
0.5
 40
0.6666666666666666
 40
0.6666666666666666
 40
0.6666666666666666
 40
0.6666666666666666
 40
1.0
 40
1.0
 40
1.0
 40
1.0
 10
9.4625
 20
-85.3159
 30
0.0
 10
9.4625
 20
-85.3159
 30
0.0
 10
9.4625
 20
-97.3965
 30
0.0
 10
9.4625
 20
-97.3965
 30
0.0
 10
9.4625
 20
-97.3965
 30
0.0
 10
9.4625
 20
-97.3965
 30
0.0
 10
17.1154
 20
-97.3965
 30
0.0
 10
17.1154
 20
-97.3965
 30
0.0
 10
17.1154
 20
-97.3965
 30
0.0
 10
17.457
 20
-95.038
 30
0.0
 10
19.1596
 20
-93.4117
 30
0.0
 10
21.6115
 20
-92.7807
 30
0.0
 10
21.6115
 20
-92.7807
 30
0.0
 10
21.6115
 20
-92.7807
 30
0.0
 10
21.6405
 20
-85.2974
 30
0.0
 10
21.6405
 20
-85.2974
 30
0.0
 10
21.6405
 20
-85.2974
 30
0.0
 10
19.9355
 20
-85.2942
 30
0.0
 10
9.4625
 20
-85.3159
 30
0.0
 10
9.4625
 20
-85.3159
 30
0.0
  0
SPLINE
  5
107
330
1F
100
AcDbEntity
  8
layer 1
 62
     7
100
AcDbSpline
210
0.0
220
0.0
230
1.0
 70
    11
 71
     3
 72
    24
 73
    20
 74
     0
 42
0.0000000001
 43
0.0000000001
 12
1.0
 22
0.0
 32
0.0
 13
1.0
 23
0.0
 33
0.0
 40
0.0
 40
0.0
 40
0.0
 40
0.0
 40
0.1666666666666667
 40
0.1666666666666667
 40
0.1666666666666667
 40
0.1666666666666667
 40
0.3333333333333333
 40
0.3333333333333333
 40
0.3333333333333333
 40
0.3333333333333333
 40
0.5
 40
0.5
 40
0.5
 40
0.5
 40
0.6666666666666666
 40
0.6666666666666666
 40
0.6666666666666666
 40
0.6666666666666666
 40
1.0
 40
1.0
 40
1.0
 40
1.0
 10
9.4625
 20
-111.2039
 30
0.0
 10
9.4625
 20
-111.2039
 30
0.0
 10
9.4625
 20
-99.1265
 30
0.0
 10
9.4625
 20
-99.1265
 30
0.0
 10
9.4625
 20
-99.1265
 30
0.0
 10
9.4625
 20
-99.1265
 30
0.0
 10
17.1154
 20
-99.1265
 30
0.0
 10
17.1154
 20
-99.1265
 30
0.0
 10
17.1154
 20
-99.1265
 30
0.0
 10
17.457
 20
-101.4852
 30
0.0
 10
19.1596
 20
-103.1113
 30
0.0
 10
21.6115
 20
-103.7425
 30
0.0
 10
21.6115
 20
-103.7425
 30
0.0
 10
21.6115
 20
-103.7425
 30
0.0
 10
21.6405
 20
-111.2258
 30
0.0
 10
21.6405
 20
-111.2258
 30
0.0
 10
21.6405
 20
-111.2258
 30
0.0
 10
19.9355
 20
-111.2258
 30
0.0
 10
9.4625
 20
-111.2039
 30
0.0
 10
9.4625
 20
-111.2039
 30
0.0
  0
SPLINE
  5
108
330
1F
100
AcDbEntity
  8
layer 1
 62
     7
100
AcDbSpline
210
0.0
220
0.0
230
1.0
 70
    11
 71
     3
 72
    24
 73
    20
 74
     0
 42
0.0000000001
 43
0.0000000001
 12
1.0
 22
0.0
 32
0.0
 13
1.0
 23
0.0
 33
0.0
 40
0.0
 40
0.0
 40
0.0
 40
0.0
 40
0.1666666666666667
 40
0.1666666666666667
 40
0.1666666666666667
 40
0.1666666666666667
 40
0.3333333333333333
 40
0.3333333333333333
 40
0.3333333333333333
 40
0.3333333333333333
 40
0.5
 40
0.5
 40
0.5
 40
0.5
 40
0.6666666666666666
 40
0.6666666666666666
 40
0.6666666666666666
 40
0.6666666666666666
 40
1.0
 40
1.0
 40
1.0
 40
1.0
 10
35.5106
 20
-85.3159
 30
0.0
 10
35.5106
 20
-85.3159
 30
0.0
 10
35.5106
 20
-97.3965
 30
0.0
 10
35.5106
 20
-97.3965
 30
0.0
 10
35.5106
 20
-97.3965
 30
0.0
 10
35.5106
 20
-97.3965
 30
0.0
 10
27.8577
 20
-97.3965
 30
0.0
 10
27.8577
 20
-97.3965
 30
0.0
 10
27.8577
 20
-97.3965
 30
0.0
 10
27.5187
 20
-95.038
 30
0.0
 10
25.8133
 20
-93.4117
 30
0.0
 10
23.3607
 20
-92.7807
 30
0.0
 10
23.3607
 20
-92.7807
 30
0.0
 10
23.3607
 20
-92.7807
 30
0.0
 10
23.3327
 20
-85.2974
 30
0.0
 10
23.3327
 20
-85.2974
 30
0.0
 10
23.3327
 20
-85.2974
 30
0.0
 10
25.0376
 20
-85.2942
 30
0.0
 10
35.5106
 20
-85.3159
 30
0.0
 10
35.5106
 20
-85.3159
 30
0.0
  0
SPLINE
  5
109
330
1F
100
AcDbEntity
  8
layer 1
 62
     7
100
AcDbSpline
210
0.0
220
0.0
230
1.0
 70
    11
 71
     3
 72
    24
 73
    20
 74
     0
 42
0.0000000001
 43
0.0000000001
 12
1.0
 22
0.0
 32
0.0
 13
1.0
 23
0.0
 33
0.0
 40
0.0
 40
0.0
 40
0.0
 40
0.0
 40
0.1666666666666667
 40
0.1666666666666667
 40
0.1666666666666667
 40
0.1666666666666667
 40
0.3333333333333333
 40
0.3333333333333333
 40
0.3333333333333333
 40
0.3333333333333333
 40
0.5
 40
0.5
 40
0.5
 40
0.5
 40
0.6666666666666666
 40
0.6666666666666666
 40
0.6666666666666666
 40
0.6666666666666666
 40
1.0
 40
1.0
 40
1.0
 40
1.0
 10
35.5106
 20
-111.2039
 30
0.0
 10
35.5106
 20
-111.2039
 30
0.0
 10
35.5106
 20
-99.1265
 30
0.0
 10
35.5106
 20
-99.1265
 30
0.0
 10
35.5106
 20
-99.1265
 30
0.0
 10
35.5106
 20
-99.1265
 30
0.0
 10
27.8577
 20
-99.1265
 30
0.0
 10
27.8577
 20
-99.1265
 30
0.0
 10
27.8577
 20
-99.1265
 30
0.0
 10
27.5187
 20
-101.4852
 30
0.0
 10
25.8133
 20
-103.1113
 30
0.0
 10
23.3607
 20
-103.7425
 30
0.0
 10
23.3607
 20
-103.7425
 30
0.0
 10
23.3607
 20
-103.7425
 30
0.0
 10
23.3327
 20
-111.2258
 30
0.0
 10
23.3327
 20
-111.2258
 30
0.0
 10
23.3327
 20
-111.2258
 30
0.0
 10
25.0376
 20
-111.2258
 30
0.0
 10
35.5106
 20
-111.2039
 30
0.0
 10
35.5106
 20
-111.2039
 30
0.0
  0
SPLINE
  5
10A
330
1F
100
AcDbEntity
  8
layer 1
 62
     7
100
AcDbSpline
210
0.0
220
0.0
230
1.0
 70
    11
 71
     3
 72
    20
 73
    16
 74
     0
 42
0.0000000001
 43
0.0000000001
 12
1.0
 22
0.0
 32
0.0
 13
1.0
 23
0.0
 33
0.0
 40
0.0
 40
0.0
 40
0.0
 40
0.0
 40
0.2
 40
0.2
 40
0.2
 40
0.2
 40
0.4
 40
0.4
 40
0.4
 40
0.4
 40
0.6
 40
0.6
 40
0.6
 40
0.6
 40
1.0
 40
1.0
 40
1.0
 40
1.0
 10
54.3328
 20
-98.2784
 30
0.0
 10
54.3328
 20
-100.3258
 30
0.0
 10
52.671
 20
-101.9877
 30
0.0
 10
50.6203
 20
-101.9877
 30
0.0
 10
50.6203
 20
-101.9877
 30
0.0
 10
48.5738
 20
-101.9874
 30
0.0
 10
46.9119
 20
-100.326
 30
0.0
 10
46.9119
 20
-98.2784
 30
0.0
 10
46.9119
 20
-98.2784
 30
0.0
 10
46.9119
 20
-96.2284
 30
0.0
 10
48.5736
 20
-94.567
 30
0.0
 10
50.6203
 20
-94.567
 30
0.0
 10
50.6203
 20
-94.567
 30
0.0
 10
52.671
 20
-94.5668
 30
0.0
 10
54.3328
 20
-96.2287
 30
0.0
 10
54.3328
 20
-98.2784
 30
0.0
  0
SPLINE
  5
10B
330
1F
100
AcDbEntity
  8
layer 1
 62
     7
100
AcDbSpline
210
0.0
220
0.0
230
1.0
 70
    11
 71
     3
 72
    24
 73
    20
 74
     0
 42
0.0000000001
 43
0.0000000001
 12
1.0
 22
0.0
 32
0.0
 13
1.0
 23
0.0
 33
0.0
 40
0.0
 40
0.0
 40
0.0
 40
0.0
 40
0.1666666666666667
 40
0.1666666666666667
 40
0.1666666666666667
 40
0.1666666666666667
 40
0.3333333333333333
 40
0.3333333333333333
 40
0.3333333333333333
 40
0.3333333333333333
 40
0.5
 40
0.5
 40
0.5
 40
0.5
 40
0.6666666666666666
 40
0.6666666666666666
 40
0.6666666666666666
 40
0.6666666666666666
 40
1.0
 40
1.0
 40
1.0
 40
1.0
 10
37.5485
 20
-85.3159
 30
0.0
 10
37.5485
 20
-85.3159
 30
0.0
 10
37.5485
 20
-97.3965
 30
0.0
 10
37.5485
 20
-97.3965
 30
0.0
 10
37.5485
 20
-97.3965
 30
0.0
 10
37.5485
 20
-97.3965
 30
0.0
 10
45.2009
 20
-97.3965
 30
0.0
 10
45.2009
 20
-97.3965
 30
0.0
 10
45.2009
 20
-97.3965
 30
0.0
 10
45.5399
 20
-95.038
 30
0.0
 10
47.2449
 20
-93.4117
 30
0.0
 10
49.6975
 20
-92.7807
 30
0.0
 10
49.6975
 20
-92.7807
 30
0.0
 10
49.6975
 20
-92.7807
 30
0.0
 10
49.7257
 20
-85.2974
 30
0.0
 10
49.7257
 20
-85.2974
 30
0.0
 10
49.7257
 20
-85.2974
 30
0.0
 10
48.0208
 20
-85.2942
 30
0.0
 10
37.5485
 20
-85.3159
 30
0.0
 10
37.5485
 20
-85.3159
 30
0.0
  0
SPLINE
  5
10C
330
1F
100
AcDbEntity
  8
layer 1
 62
     7
100
AcDbSpline
210
0.0
220
0.0
230
1.0
 70
    11
 71
     3
 72
    24
 73
    20
 74
     0
 42
0.0000000001
 43
0.0000000001
 12
1.0
 22
0.0
 32
0.0
 13
1.0
 23
0.0
 33
0.0
 40
0.0
 40
0.0
 40
0.0
 40
0.0
 40
0.1666666666666667
 40
0.1666666666666667
 40
0.1666666666666667
 40
0.1666666666666667
 40
0.3333333333333333
 40
0.3333333333333333
 40
0.3333333333333333
 40
0.3333333333333333
 40
0.5
 40
0.5
 40
0.5
 40
0.5
 40
0.6666666666666666
 40
0.6666666666666666
 40
0.6666666666666666
 40
0.6666666666666666
 40
1.0
 40
1.0
 40
1.0
 40
1.0
 10
37.5485
 20
-111.2039
 30
0.0
 10
37.5485
 20
-111.2039
 30
0.0
 10
37.5485
 20
-99.1265
 30
0.0
 10
37.5485
 20
-99.1265
 30
0.0
 10
37.5485
 20
-99.1265
 30
0.0
 10
37.5485
 20
-99.1265
 30
0.0
 10
45.2009
 20
-99.1265
 30
0.0
 10
45.2009
 20
-99.1265
 30
0.0
 10
45.2009
 20
-99.1265
 30
0.0
 10
45.5399
 20
-101.4852
 30
0.0
 10
47.2449
 20
-103.1113
 30
0.0
 10
49.6975
 20
-103.7425
 30
0.0
 10
49.6975
 20
-103.7425
 30
0.0
 10
49.6975
 20
-103.7425
 30
0.0
 10
49.7257
 20
-111.2258
 30
0.0
 10
49.7257
 20
-111.2258
 30
0.0
 10
49.7257
 20
-111.2258
 30
0.0
 10
48.0208
 20
-111.2258
 30
0.0
 10
37.5485
 20
-111.2039
 30
0.0
 10
37.5485
 20
-111.2039
 30
0.0
  0
SPLINE
  5
10D
330
1F
100
AcDbEntity
  8
layer 1
 62
     7
100
AcDbSpline
210
0.0
220
0.0
230
1.0
 70
    11
 71
     3
 72
    24
 73
    20
 74
     0
 42
0.0000000001
 43
0.0000000001
 12
1.0
 22
0.0
 32
0.0
 13
1.0
 23
0.0
 33
0.0
 40
0.0
 40
0.0
 40
0.0
 40
0.0
 40
0.1666666666666667
 40
0.1666666666666667
 40
0.1666666666666667
 40
0.1666666666666667
 40
0.3333333333333333
 40
0.3333333333333333
 40
0.3333333333333333
 40
0.3333333333333333
 40
0.5
 40
0.5
 40
0.5
 40
0.5
 40
0.6666666666666666
 40
0.6666666666666666
 40
0.6666666666666666
 40
0.6666666666666666
 40
1.0
 40
1.0
 40
1.0
 40
1.0
 10
63.5958
 20
-85.3159
 30
0.0
 10
63.5958
 20
-85.3159
 30
0.0
 10
63.5958
 20
-97.3965
 30
0.0
 10
63.5958
 20
-97.3965
 30
0.0
 10
63.5958
 20
-97.3965
 30
0.0
 10
63.5958
 20
-97.3965
 30
0.0
 10
55.943
 20
-97.3965
 30
0.0
 10
55.943
 20
-97.3965
 30
0.0
 10
55.943
 20
-97.3965
 30
0.0
 10
55.6012
 20
-95.038
 30
0.0
 10
53.8962
 20
-93.4117
 30
0.0
 10
51.4436
 20
-92.7807
 30
0.0
 10
51.4436
 20
-92.7807
 30
0.0
 10
51.4436
 20
-92.7807
 30
0.0
 10
51.4188
 20
-85.2974
 30
0.0
 10
51.4188
 20
-85.2974
 30
0.0
 10
51.4188
 20
-85.2974
 30
0.0
 10
53.1237
 20
-85.2942
 30
0.0
 10
63.5958
 20
-85.3159
 30
0.0
 10
63.5958
 20
-85.3159
 30
0.0
  0
SPLINE
  5
10E
330
1F
100
AcDbEntity
  8
layer 1
 62
     7
100
AcDbSpline
210
0.0
220
0.0
230
1.0
 70
    11
 71
     3
 72
    24
 73
    20
 74
     0
 42
0.0000000001
 43
0.0000000001
 12
1.0
 22
0.0
 32
0.0
 13
1.0
 23
0.0
 33
0.0
 40
0.0
 40
0.0
 40
0.0
 40
0.0
 40
0.1666666666666667
 40
0.1666666666666667
 40
0.1666666666666667
 40
0.1666666666666667
 40
0.3333333333333333
 40
0.3333333333333333
 40
0.3333333333333333
 40
0.3333333333333333
 40
0.5
 40
0.5
 40
0.5
 40
0.5
 40
0.6666666666666666
 40
0.6666666666666666
 40
0.6666666666666666
 40
0.6666666666666666
 40
1.0
 40
1.0
 40
1.0
 40
1.0
 10
63.5958
 20
-111.2039
 30
0.0
 10
63.5958
 20
-111.2039
 30
0.0
 10
63.5958
 20
-99.1265
 30
0.0
 10
63.5958
 20
-99.1265
 30
0.0
 10
63.5958
 20
-99.1265
 30
0.0
 10
63.5958
 20
-99.1265
 30
0.0
 10
55.943
 20
-99.1265
 30
0.0
 10
55.943
 20
-99.1265
 30
0.0
 10
55.943
 20
-99.1265
 30
0.0
 10
55.6012
 20
-101.4852
 30
0.0
 10
53.8962
 20
-103.1113
 30
0.0
 10
51.4436
 20
-103.7425
 30
0.0
 10
51.4436
 20
-103.7425
 30
0.0
 10
51.4436
 20
-103.7425
 30
0.0
 10
51.4188
 20
-111.2258
 30
0.0
 10
51.4188
 20
-111.2258
 30
0.0
 10
51.4188
 20
-111.2258
 30
0.0
 10
53.1237
 20
-111.2258
 30
0.0
 10
63.5958
 20
-111.2039
 30
0.0
 10
63.5958
 20
-111.2039
 30
0.0
  0
SPLINE
  5
10F
330
1F
100
AcDbEntity
  8
layer 1
 62
     7
100
AcDbSpline
210
0.0
220
0.0
230
1.0
 70
    11
 71
     3
 72
    20
 73
    16
 74
     0
 42
0.0000000001
 43
0.0000000001
 12
1.0
 22
0.0
 32
0.0
 13
1.0
 23
0.0
 33
0.0
 40
0.0
 40
0.0
 40
0.0
 40
0.0
 40
0.2
 40
0.2
 40
0.2
 40
0.2
 40
0.4
 40
0.4
 40
0.4
 40
0.4
 40
0.6
 40
0.6
 40
0.6
 40
0.6
 40
1.0
 40
1.0
 40
1.0
 40
1.0
 10
89.3071
 20
-61.4894
 30
0.0
 10
89.3071
 20
-61.4894
 30
0.0
 10
89.1883
 20
-57.3952
 30
0.0
 10
89.1883
 20
-57.3952
 30
0.0
 10
89.1883
 20
-57.3952
 30
0.0
 10
89.1883
 20
-57.3952
 30
0.0
 10
114.1767
 20
-57.3358
 30
0.0
 10
114.1767
 20
-57.3358
 30
0.0
 10
114.1767
 20
-57.3358
 30
0.0
 10
114.1767
 20
-57.3358
 30
0.0
 10
109.1973
 20
-64.4237
 30
0.0
 10
109.1973
 20
-64.4237
 30
0.0
 10
109.1973
 20
-64.4237
 30
0.0
 10
109.1973
 20
-64.4237
 30
0.0
 10
89.3071
 20
-61.4894
 30
0.0
 10
89.3071
 20
-61.4894
 30
0.0
  0
SPLINE
  5
110
330
1F
100
AcDbEntity
  8
layer 1
 62
     7
100
AcDbSpline
210
0.0
220
0.0
230
1.0
 70
    11
 71
     3
 72
    20
 73
    16
 74
     0
 42
0.0000000001
 43
0.0000000001
 12
1.0
 22
0.0
 32
0.0
 13
1.0
 23
0.0
 33
0.0
 40
0.0
 40
0.0
 40
0.0
 40
0.0
 40
0.2
 40
0.2
 40
0.2
 40
0.2
 40
0.4
 40
0.4
 40
0.4
 40
0.4
 40
0.6
 40
0.6
 40
0.6
 40
0.6
 40
1.0
 40
1.0
 40
1.0
 40
1.0
 10
89.778
 20
-75.0604
 30
0.0
 10
89.778
 20
-75.0604
 30
0.0
 10
89.4237
 20
-63.1183
 30
0.0
 10
89.4237
 20
-63.1183
 30
0.0
 10
89.4237
 20
-63.1183
 30
0.0
 10
89.4237
 20
-63.1183
 30
0.0
 10
108.0117
 20
-66.0679
 30
0.0
 10
108.0117
 20
-66.0679
 30
0.0
 10
108.0117
 20
-66.0679
 30
0.0
 10
108.0117
 20
-66.0679
 30
0.0
 10
99.9349
 20
-77.5231
 30
0.0
 10
99.9349
 20
-77.5231
 30
0.0
 10
99.9349
 20
-77.5231
 30
0.0
 10
99.9349
 20
-77.5231
 30
0.0
 10
89.778
 20
-75.0604
 30
0.0
 10
89.778
 20
-75.0604
 30
0.0
  0
SPLINE
  5
111
330
1F
100
AcDbEntity
  8
layer 1
 62
     7
100
AcDbSpline
210
0.0
220
0.0
230
1.0
 70
    11
 71
     3
 72
    16
 73
    12
 74
     0
 42
0.0000000001
 43
0.0000000001
 12
1.0
 22
0.0
 32
0.0
 13
1.0
 23
0.0
 33
0.0
 40
0.0
 40
0.0
 40
0.0
 40
0.0
 40
0.25
 40
0.25
 40
0.25
 40
0.25
 40
0.5
 40
0.5
 40
0.5
 40
0.5
 40
1.0
 40
1.0
 40
1.0
 40
1.0
 10
90.1922
 20
-91.4049
 30
0.0
 10
90.1922
 20
-91.4049
 30
0.0
 10
89.778
 20
-76.8676
 30
0.0
 10
89.778
 20
-76.8676
 30
0.0
 10
89.778
 20
-76.8676
 30
0.0
 10
89.778
 20
-76.8676
 30
0.0
 10
98.893
 20
-78.9321
 30
0.0
 10
98.893
 20
-78.9321
 30
0.0
 10
98.893
 20
-78.9321
 30
0.0
 10
98.893
 20
-78.9321
 30
0.0
 10
90.1922
 20
-91.4049
 30
0.0
 10
90.1922
 20
-91.4049
 30
0.0
  0
SPLINE
  5
112
330
1F
100
AcDbEntity
  8
layer 1
 62
     7
100
AcDbSpline
210
0.0
220
0.0
230
1.0
 70
    11
 71
     3
 72
    20
 73
    16
 74
     0
 42
0.0000000001
 43
0.0000000001
 12
1.0
 22
0.0
 32
0.0
 13
1.0
 23
0.0
 33
0.0
 40
0.0
 40
0.0
 40
0.0
 40
0.0
 40
0.2
 40
0.2
 40
0.2
 40
0.2
 40
0.4
 40
0.4
 40
0.4
 40
0.4
 40
0.6
 40
0.6
 40
0.6
 40
0.6
 40
1.0
 40
1.0
 40
1.0
 40
1.0
 10
74.2589
 20
-68.3926
 30
0.0
 10
74.2589
 20
-68.3926
 30
0.0
 10
74.1432
 20
-57.3952
 30
0.0
 10
74.1432
 20
-57.3952
 30
0.0
 10
74.1432
 20
-57.3952
 30
0.0
 10
74.1432
 20
-57.3952
 30
0.0
 10
87.5632
 20
-57.3358
 30
0.0
 10
87.5632
 20
-57.3358
 30
0.0
 10
87.5632
 20
-57.3358
 30
0.0
 10
87.5632
 20
-57.3358
 30
0.0
 10
87.5441
 20
-60.6492
 30
0.0
 10
87.5441
 20
-60.6492
 30
0.0
 10
87.5441
 20
-60.6492
 30
0.0
 10
87.5441
 20
-60.6492
 30
0.0
 10
74.2589
 20
-68.3926
 30
0.0
 10
74.2589
 20
-68.3926
 30
0.0
  0
SPLINE
  5
113
330
1F
100
AcDbEntity
  8
layer 1
 62
     7
100
AcDbSpline
210
0.0
220
0.0
230
1.0
 70
    11
 71
     3
 72
    20
 73
    16
 74
     0
 42
0.0000000001
 43
0.0000000001
 12
1.0
 22
0.0
 32
0.0
 13
1.0
 23
0.0
 33
0.0
 40
0.0
 40
0.0
 40
0.0
 40
0.0
 40
0.2
 40
0.2
 40
0.2
 40
0.2
 40
0.4
 40
0.4
 40
0.4
 40
0.4
 40
0.6
 40
0.6
 40
0.6
 40
0.6
 40
1.0
 40
1.0
 40
1.0
 40
1.0
 10
79.8062
 20
-78.838
 30
0.0
 10
79.8062
 20
-78.838
 30
0.0
 10
74.1432
 20
-70.555
 30
0.0
 10
74.1432
 20
-70.555
 30
0.0
 10
74.1432
 20
-70.555
 30
0.0
 10
74.1432
 20
-70.555
 30
0.0
 10
87.7415
 20
-62.4687
 30
0.0
 10
87.7415
 20
-62.4687
 30
0.0
 10
87.7415
 20
-62.4687
 30
0.0
 10
87.7415
 20
-62.4687
 30
0.0
 10
88.0147
 20
-74.9848
 30
0.0
 10
88.0147
 20
-74.9848
 30
0.0
 10
88.0147
 20
-74.9848
 30
0.0
 10
88.0147
 20
-74.9848
 30
0.0
 10
79.8062
 20
-78.838
 30
0.0
 10
79.8062
 20
-78.838
 30
0.0
  0
SPLINE
  5
114
330
1F
100
AcDbEntity
  8
layer 1
 62
     7
100
AcDbSpline
210
0.0
220
0.0
230
1.0
 70
    11
 71
     3
 72
    16
 73
    12
 74
     0
 42
0.0000000001
 43
0.0000000001
 12
1.0
 22
0.0
 32
0.0
 13
1.0
 23
0.0
 33
0.0
 40
0.0
 40
0.0
 40
0.0
 40
0.0
 40
0.25
 40
0.25
 40
0.25
 40
0.25
 40
0.5
 40
0.5
 40
0.5
 40
0.5
 40
1.0
 40
1.0
 40
1.0
 40
1.0
 10
80.8103
 20
-80.2912
 30
0.0
 10
80.8103
 20
-80.2912
 30
0.0
 10
88.2124
 20
-76.9272
 30
0.0
 10
88.2124
 20
-76.9272
 30
0.0
 10
88.2124
 20
-76.9272
 30
0.0
 10
88.2124
 20
-76.9272
 30
0.0
 10
88.5448
 20
-91.5679
 30
0.0
 10
88.5448
 20
-91.5679
 30
0.0
 10
88.5448
 20
-91.5679
 30
0.0
 10
88.5448
 20
-91.5679
 30
0.0
 10
80.8103
 20
-80.2912
 30
0.0
 10
80.8103
 20
-80.2912
 30
0.0
  0
SPLINE
  5
115
330
1F
100
AcDbEntity
  8
layer 1
 62
     7
100
AcDbSpline
210
0.0
220
0.0
230
1.0
 70
    11
 71
     3
 72
    16
 73
    12
 74
     0
 42
0.0000000001
 43
0.0000000001
 12
1.0
 22
0.0
 32
0.0
 13
1.0
 23
0.0
 33
0.0
 40
0.0
 40
0.0
 40
0.0
 40
0.0
 40
0.25
 40
0.25
 40
0.25
 40
0.25
 40
0.5
 40
0.5
 40
0.5
 40
0.5
 40
1.0
 40
1.0
 40
1.0
 40
1.0
 10
78.5074
 20
-93.5384
 30
0.0
 10
78.5074
 20
-93.5384
 30
0.0
 10
87.8012
 20
-93.4186
 30
0.0
 10
87.8012
 20
-93.4186
 30
0.0
 10
87.8012
 20
-93.4186
 30
0.0
 10
87.8012
 20
-93.4186
 30
0.0
 10
79.9886
 20
-82.023
 30
0.0
 10
79.9886
 20
-82.023
 30
0.0
 10
79.9886
 20
-82.023
 30
0.0
 10
79.9886
 20
-82.023
 30
0.0
 10
78.5074
 20
-93.5384
 30
0.0
 10
78.5074
 20
-93.5384
 30
0.0
  0
SPLINE
  5
116
330
1F
100
AcDbEntity
  8
layer 1
 62
     7
100
AcDbSpline
210
0.0
220
0.0
230
1.0
 70
    11
 71
     3
 72
    20
 73
    16
 74
     0
 42
0.0000000001
 43
0.0000000001
 12
1.0
 22
0.0
 32
0.0
 13
1.0
 23
0.0
 33
0.0
 40
0.0
 40
0.0
 40
0.0
 40
0.0
 40
0.2
 40
0.2
 40
0.2
 40
0.2
 40
0.4
 40
0.4
 40
0.4
 40
0.4
 40
0.6
 40
0.6
 40
0.6
 40
0.6
 40
1.0
 40
1.0
 40
1.0
 40
1.0
 10
74.1143
 20
-95.0227
 30
0.0
 10
74.1143
 20
-95.0227
 30
0.0
 10
74.1771
 20
-109.8981
 30
0.0
 10
74.1771
 20
-109.8981
 30
0.0
 10
74.1771
 20
-109.8981
 30
0.0
 10
74.1771
 20
-109.8981
 30
0.0
 10
79.9788
 20
-103.3622
 30
0.0
 10
79.9788
 20
-103.3622
 30
0.0
 10
79.9788
 20
-103.3622
 30
0.0
 10
79.9788
 20
-103.3622
 30
0.0
 10
76.3805
 20
-95.0446
 30
0.0
 10
76.3805
 20
-95.0446
 30
0.0
 10
76.3805
 20
-95.0446
 30
0.0
 10
76.3805
 20
-95.0446
 30
0.0
 10
74.1143
 20
-95.0227
 30
0.0
 10
74.1143
 20
-95.0227
 30
0.0
  0
SPLINE
  5
117
330
1F
100
AcDbEntity
  8
layer 1
 62
     7
100
AcDbSpline
210
0.0
220
0.0
230
1.0
 70
    11
 71
     3
 72
    16
 73
    12
 74
     0
 42
0.0000000001
 43
0.0000000001
 12
1.0
 22
0.0
 32
0.0
 13
1.0
 23
0.0
 33
0.0
 40
0.0
 40
0.0
 40
0.0
 40
0.0
 40
0.25
 40
0.25
 40
0.25
 40
0.25
 40
0.5
 40
0.5
 40
0.5
 40
0.5
 40
1.0
 40
1.0
 40
1.0
 40
1.0
 10
91.2027
 20
-92.6661
 30
0.0
 10
91.2027
 20
-92.6661
 30
0.0
 10
99.784
 20
-80.5009
 30
0.0
 10
99.784
 20
-80.5009
 30
0.0
 10
99.784
 20
-80.5009
 30
0.0
 10
99.784
 20
-80.5009
 30
0.0
 10
102.8123
 20
-86.5036
 30
0.0
 10
102.8123
 20
-86.5036
 30
0.0
 10
102.8123
 20
-86.5036
 30
0.0
 10
102.8123
 20
-86.5036
 30
0.0
 10
91.2027
 20
-92.6661
 30
0.0
 10
91.2027
 20
-92.6661
 30
0.0
  0
SPLINE
  5
118
330
1F
100
AcDbEntity
  8
layer 1
 62
     7
100
AcDbSpline
210
0.0
220
0.0
230
1.0
 70
    11
 71
     3
 72
    16
 73
    12
 74
     0
 42
0.0000000001
 43
0.0000000001
 12
1.0
 22
0.0
 32
0.0
 13
1.0
 23
0.0
 33
0.0
 40
0.0
 40
0.0
 40
0.0
 40
0.0
 40
0.25
 40
0.25
 40
0.25
 40
0.25
 40
0.5
 40
0.5
 40
0.5
 40
0.5
 40
1.0
 40
1.0
 40
1.0
 40
1.0
 10
91.9491
 20
-94.0468
 30
0.0
 10
91.9491
 20
-94.0468
 30
0.0
 10
103.609
 20
-87.8529
 30
0.0
 10
103.609
 20
-87.8529
 30
0.0
 10
103.609
 20
-87.8529
 30
0.0
 10
103.609
 20
-87.8529
 30
0.0
 10
104.4749
 20
-94.2943
 30
0.0
 10
104.4749
 20
-94.2943
 30
0.0
 10
104.4749
 20
-94.2943
 30
0.0
 10
104.4749
 20
-94.2943
 30
0.0
 10
91.9491
 20
-94.0468
 30
0.0
 10
91.9491
 20
-94.0468
 30
0.0
  0
SPLINE
  5
119
330
1F
100
AcDbEntity
  8
layer 1
 62
     7
100
AcDbSpline
210
0.0
220
0.0
230
1.0
 70
    11
 71
     3
 72
    16
 73
    12
 74
     0
 42
0.0000000001
 43
0.0000000001
 12
1.0
 22
0.0
 32
0.0
 13
1.0
 23
0.0
 33
0.0
 40
0.0
 40
0.0
 40
0.0
 40
0.0
 40
0.25
 40
0.25
 40
0.25
 40
0.25
 40
0.5
 40
0.5
 40
0.5
 40
0.5
 40
1.0
 40
1.0
 40
1.0
 40
1.0
 10
93.631
 20
-95.7376
 30
0.0
 10
93.631
 20
-95.7376
 30
0.0
 10
104.7038
 20
-95.989
 30
0.0
 10
104.7038
 20
-95.989
 30
0.0
 10
104.7038
 20
-95.989
 30
0.0
 10
104.7038
 20
-95.989
 30
0.0
 10
101.3214
 20
-100.1588
 30
0.0
 10
101.3214
 20
-100.1588
 30
0.0
 10
101.3214
 20
-100.1588
 30
0.0
 10
101.3214
 20
-100.1588
 30
0.0
 10
93.631
 20
-95.7376
 30
0.0
 10
93.631
 20
-95.7376
 30
0.0
  0
SPLINE
  5
11A
330
1F
100
AcDbEntity
  8
layer 1
 62
     7
100
AcDbSpline
210
0.0
220
0.0
230
1.0
 70
    11
 71
     3
 72
    16
 73
    12
 74
     0
 42
0.0000000001
 43
0.0000000001
 12
1.0
 22
0.0
 32
0.0
 13
1.0
 23
0.0
 33
0.0
 40
0.0
 40
0.0
 40
0.0
 40
0.0
 40
0.25
 40
0.25
 40
0.25
 40
0.25
 40
0.5
 40
0.5
 40
0.5
 40
0.5
 40
1.0
 40
1.0
 40
1.0
 40
1.0
 10
90.4463
 20
-95.8101
 30
0.0
 10
90.4463
 20
-95.8101
 30
0.0
 10
100.3084
 20
-101.4826
 30
0.0
 10
100.3084
 20
-101.4826
 30
0.0
 10
100.3084
 20
-101.4826
 30
0.0
 10
100.3084
 20
-101.4826
 30
0.0
 10
91.7232
 20
-105.1036
 30
0.0
 10
91.7232
 20
-105.1036
 30
0.0
 10
91.7232
 20
-105.1036
 30
0.0
 10
91.7232
 20
-105.1036
 30
0.0
 10
90.4463
 20
-95.8101
 30
0.0
 10
90.4463
 20
-95.8101
 30
0.0
  0
SPLINE
  5
11B
330
1F
100
AcDbEntity
  8
layer 1
 62
     7
100
AcDbSpline
210
0.0
220
0.0
230
1.0
 70
    11
 71
     3
 72
    16
 73
    12
 74
     0
 42
0.0000000001
 43
0.0000000001
 12
1.0
 22
0.0
 32
0.0
 13
1.0
 23
0.0
 33
0.0
 40
0.0
 40
0.0
 40
0.0
 40
0.0
 40
0.25
 40
0.25
 40
0.25
 40
0.25
 40
0.5
 40
0.5
 40
0.5
 40
0.5
 40
1.0
 40
1.0
 40
1.0
 40
1.0
 10
82.2441
 20
-103.2055
 30
0.0
 10
82.2441
 20
-103.2055
 30
0.0
 10
90.0704
 20
-104.8843
 30
0.0
 10
90.0704
 20
-104.8843
 30
0.0
 10
90.0704
 20
-104.8843
 30
0.0
 10
90.0704
 20
-104.8843
 30
0.0
 10
88.928
 20
-95.6124
 30
0.0
 10
88.928
 20
-95.6124
 30
0.0
 10
88.928
 20
-95.6124
 30
0.0
 10
88.928
 20
-95.6124
 30
0.0
 10
82.2441
 20
-103.2055
 30
0.0
 10
82.2441
 20
-103.2055
 30
0.0
  0
SPLINE
  5
11C
330
1F
100
AcDbEntity
  8
layer 1
 62
     7
100
AcDbSpline
210
0.0
220
0.0
230
1.0
 70
    11
 71
     3
 72
    16
 73
    12
 74
     0
 42
0.0000000001
 43
0.0000000001
 12
1.0
 22
0.0
 32
0.0
 13
1.0
 23
0.0
 33
0.0
 40
0.0
 40
0.0
 40
0.0
 40
0.0
 40
0.25
 40
0.25
 40
0.25
 40
0.25
 40
0.5
 40
0.5
 40
0.5
 40
0.5
 40
1.0
 40
1.0
 40
1.0
 40
1.0
 10
78.3628
 20
-95.0757
 30
0.0
 10
78.3628
 20
-95.0757
 30
0.0
 10
87.2146
 20
-95.104
 30
0.0
 10
87.2146
 20
-95.104
 30
0.0
 10
87.2146
 20
-95.104
 30
0.0
 10
87.2146
 20
-95.104
 30
0.0
 10
81.2345
 20
-101.9507
 30
0.0
 10
81.2345
 20
-101.9507
 30
0.0
 10
81.2345
 20
-101.9507
 30
0.0
 10
81.2345
 20
-101.9507
 30
0.0
 10
78.3628
 20
-95.0757
 30
0.0
 10
78.3628
 20
-95.0757
 30
0.0
  0
SPLINE
  5
11D
330
1F
100
AcDbEntity
  8
layer 1
 62
     7
100
AcDbSpline
210
0.0
220
0.0
230
1.0
 70
    11
 71
     3
 72
    20
 73
    16
 74
     0
 42
0.0000000001
 43
0.0000000001
 12
1.0
 22
0.0
 32
0.0
 13
1.0
 23
0.0
 33
0.0
 40
0.0
 40
0.0
 40
0.0
 40
0.0
 40
0.2
 40
0.2
 40
0.2
 40
0.2
 40
0.4
 40
0.4
 40
0.4
 40
0.4
 40
0.6
 40
0.6
 40
0.6
 40
0.6
 40
1.0
 40
1.0
 40
1.0
 40
1.0
 10
75.3227
 20
-111.1441
 30
0.0
 10
75.3227
 20
-111.1441
 30
0.0
 10
90.9297
 20
-111.1882
 30
0.0
 10
90.9297
 20
-111.1882
 30
0.0
 10
90.9297
 20
-111.1882
 30
0.0
 10
90.9297
 20
-111.1882
 30
0.0
 10
90.2928
 20
-106.7068
 30
0.0
 10
90.2928
 20
-106.7068
 30
0.0
 10
90.2928
 20
-106.7068
 30
0.0
 10
90.2928
 20
-106.7068
 30
0.0
 10
80.9485
 20
-104.7019
 30
0.0
 10
80.9485
 20
-104.7019
 30
0.0
 10
80.9485
 20
-104.7019
 30
0.0
 10
80.9485
 20
-104.7019
 30
0.0
 10
75.3227
 20
-111.1441
 30
0.0
 10
75.3227
 20
-111.1441
 30
0.0
  0
SPLINE
  5
11E
330
1F
100
AcDbEntity
  8
layer 1
 62
     7
100
AcDbSpline
210
0.0
220
0.0
230
1.0
 70
    11
 71
     3
 72
    24
 73
    20
 74
     0
 42
0.0000000001
 43
0.0000000001
 12
1.0
 22
0.0
 32
0.0
 13
1.0
 23
0.0
 33
0.0
 40
0.0
 40
0.0
 40
0.0
 40
0.0
 40
0.1666666666666667
 40
0.1666666666666667
 40
0.1666666666666667
 40
0.1666666666666667
 40
0.3333333333333333
 40
0.3333333333333333
 40
0.3333333333333333
 40
0.3333333333333333
 40
0.5
 40
0.5
 40
0.5
 40
0.5
 40
0.6666666666666666
 40
0.6666666666666666
 40
0.6666666666666666
 40
0.6666666666666666
 40
1.0
 40
1.0
 40
1.0
 40
1.0
 10
92.5773
 20
-111.1441
 30
0.0
 10
92.5773
 20
-111.1441
 30
0.0
 10
108.5634
 20
-111.2508
 30
0.0
 10
108.5634
 20
-111.2508
 30
0.0
 10
108.5634
 20
-111.2508
 30
0.0
 10
108.5634
 20
-111.2508
 30
0.0
 10
111.9934
 20
-108.1847
 30
0.0
 10
111.9934
 20
-108.1847
 30
0.0
 10
111.9934
 20
-108.1847
 30
0.0
 10
111.9934
 20
-108.1847
 30
0.0
 10
102.0498
 20
-102.5306
 30
0.0
 10
102.0498
 20
-102.5306
 30
0.0
 10
102.0498
 20
-102.5306
 30
0.0
 10
102.0498
 20
-102.5306
 30
0.0
 10
91.9024
 20
-106.8643
 30
0.0
 10
91.9024
 20
-106.8643
 30
0.0
 10
91.9024
 20
-106.8643
 30
0.0
 10
91.9024
 20
-106.8643
 30
0.0
 10
92.5773
 20
-111.1441
 30
0.0
 10
92.5773
 20
-111.1441
 30
0.0
  0
SPLINE
  5
11F
330
1F
100
AcDbEntity
  8
layer 1
 62
     7
100
AcDbSpline
210
0.0
220
0.0
230
1.0
 70
    11
 71
     3
 72
    16
 73
    12
 74
     0
 42
0.0000000001
 43
0.0000000001
 12
1.0
 22
0.0
 32
0.0
 13
1.0
 23
0.0
 33
0.0
 40
0.0
 40
0.0
 40
0.0
 40
0.0
 40
0.25
 40
0.25
 40
0.25
 40
0.25
 40
0.5
 40
0.5
 40
0.5
 40
0.5
 40
1.0
 40
1.0
 40
1.0
 40
1.0
 10
113.4834
 20
-109.07
 30
0.0
 10
113.4834
 20
-109.07
 30
0.0
 10
117.195
 20
-111.1905
 30
0.0
 10
117.195
 20
-111.1905
 30
0.0
 10
117.195
 20
-111.1905
 30
0.0
 10
117.195
 20
-111.1905
 30
0.0
 10
111.3941
 20
-111.2219
 30
0.0
 10
111.3941
 20
-111.2219
 30
0.0
 10
111.3941
 20
-111.2219
 30
0.0
 10
111.3941
 20
-111.2219
 30
0.0
 10
113.4834
 20
-109.07
 30
0.0
 10
113.4834
 20
-109.07
 30
0.0
  0
SPLINE
  5
120
330
1F
100
AcDbEntity
  8
layer 1
 62
     7
100
AcDbSpline
210
0.0
220
0.0
230
1.0
 70
    11
 71
     3
 72
    20
 73
    16
 74
     0
 42
0.0000000001
 43
0.0000000001
 12
1.0
 22
0.0
 32
0.0
 13
1.0
 23
0.0
 33
0.0
 40
0.0
 40
0.0
 40
0.0
 40
0.0
 40
0.2
 40
0.2
 40
0.2
 40
0.2
 40
0.4
 40
0.4
 40
0.4
 40
0.4
 40
0.6
 40
0.6
 40
0.6
 40
0.6
 40
1.0
 40
1.0
 40
1.0
 40
1.0
 10
102.8307
 20
-101.072
 30
0.0
 10
102.8307
 20
-101.072
 30
0.0
 10
112.9059
 20
-106.9021
 30
0.0
 10
112.9059
 20
-106.9021
 30
0.0
 10
112.9059
 20
-106.9021
 30
0.0
 10
112.9059
 20
-106.9021
 30
0.0
 10
118.6418
 20
-96.4501
 30
0.0
 10
118.6418
 20
-96.4501
 30
0.0
 10
118.6418
 20
-96.4501
 30
0.0
 10
118.6418
 20
-96.4501
 30
0.0
 10
106.957
 20
-96.0926
 30
0.0
 10
106.957
 20
-96.0926
 30
0.0
 10
106.957
 20
-96.0926
 30
0.0
 10
106.957
 20
-96.0926
 30
0.0
 10
102.8307
 20
-101.072
 30
0.0
 10
102.8307
 20
-101.072
 30
0.0
  0
SPLINE
  5
121
330
1F
100
AcDbEntity
  8
layer 1
 62
     7
100
AcDbSpline
210
0.0
220
0.0
230
1.0
 70
    11
 71
     3
 72
    20
 73
    16
 74
     0
 42
0.0000000001
 43
0.0000000001
 12
1.0
 22
0.0
 32
0.0
 13
1.0
 23
0.0
 33
0.0
 40
0.0
 40
0.0
 40
0.0
 40
0.0
 40
0.2
 40
0.2
 40
0.2
 40
0.2
 40
0.4
 40
0.4
 40
0.4
 40
0.4
 40
0.6
 40
0.6
 40
0.6
 40
0.6
 40
1.0
 40
1.0
 40
1.0
 40
1.0
 10
106.3104
 20
-94.3321
 30
0.0
 10
106.3104
 20
-94.3321
 30
0.0
 10
119.1343
 20
-94.7055
 30
0.0
 10
119.1343
 20
-94.7055
 30
0.0
 10
119.1343
 20
-94.7055
 30
0.0
 10
119.1343
 20
-94.7055
 30
0.0
 10
119.009
 20
-79.7859
 30
0.0
 10
119.009
 20
-79.7859
 30
0.0
 10
119.009
 20
-79.7859
 30
0.0
 10
119.009
 20
-79.7859
 30
0.0
 10
105.1969
 20
-87.0088
 30
0.0
 10
105.1969
 20
-87.0088
 30
0.0
 10
105.1969
 20
-87.0088
 30
0.0
 10
105.1969
 20
-87.0088
 30
0.0
 10
106.3104
 20
-94.3321
 30
0.0
 10
106.3104
 20
-94.3321
 30
0.0
  0
SPLINE
  5
122
330
1F
100
AcDbEntity
  8
layer 1
 62
     7
100
AcDbSpline
210
0.0
220
0.0
230
1.0
 70
    11
 71
     3
 72
    20
 73
    16
 74
     0
 42
0.0000000001
 43
0.0000000001
 12
1.0
 22
0.0
 32
0.0
 13
1.0
 23
0.0
 33
0.0
 40
0.0
 40
0.0
 40
0.0
 40
0.0
 40
0.2
 40
0.2
 40
0.2
 40
0.2
 40
0.4
 40
0.4
 40
0.4
 40
0.4
 40
0.6
 40
0.6
 40
0.6
 40
0.6
 40
1.0
 40
1.0
 40
1.0
 40
1.0
 10
104.4059
 20
-85.6875
 30
0.0
 10
104.4059
 20
-85.6875
 30
0.0
 10
119.0621
 20
-77.8933
 30
0.0
 10
119.0621
 20
-77.8933
 30
0.0
 10
119.0621
 20
-77.8933
 30
0.0
 10
119.0621
 20
-77.8933
 30
0.0
 10
109.1941
 20
-67.2569
 30
0.0
 10
109.1941
 20
-67.2569
 30
0.0
 10
109.1941
 20
-67.2569
 30
0.0
 10
109.1941
 20
-67.2569
 30
0.0
 10
100.8765
 20
-78.9512
 30
0.0
 10
100.8765
 20
-78.9512
 30
0.0
 10
100.8765
 20
-78.9512
 30
0.0
 10
100.8765
 20
-78.9512
 30
0.0
 10
104.4059
 20
-85.6875
 30
0.0
 10
104.4059
 20
-85.6875
 30
0.0
  0
SPLINE
  5
123
330
1F
100
AcDbEntity
  8
layer 1
 62
     7
100
AcDbSpline
210
0.0
220
0.0
230
1.0
 70
    11
 71
     3
 72
    20
 73
    16
 74
     0
 42
0.0000000001
 43
0.0000000001
 12
1.0
 22
0.0
 32
0.0
 13
1.0
 23
0.0
 33
0.0
 40
0.0
 40
0.0
 40
0.0
 40
0.0
 40
0.2
 40
0.2
 40
0.2
 40
0.2
 40
0.4
 40
0.4
 40
0.4
 40
0.4
 40
0.6
 40
0.6
 40
0.6
 40
0.6
 40
1.0
 40
1.0
 40
1.0
 40
1.0
 10
120.8789
 20
-94.8155
 30
0.0
 10
120.8789
 20
-94.8155
 30
0.0
 10
127.9266
 20
-95.0284
 30
0.0
 10
127.9266
 20
-95.0284
 30
0.0
 10
127.9266
 20
-95.0284
 30
0.0
 10
127.9266
 20
-95.0284
 30
0.0
 10
127.9355
 20
-75.0572
 30
0.0
 10
127.9355
 20
-75.0572
 30
0.0
 10
127.9355
 20
-75.0572
 30
0.0
 10
127.9355
 20
-75.0572
 30
0.0
 10
120.678
 20
-78.8726
 30
0.0
 10
120.678
 20
-78.8726
 30
0.0
 10
120.678
 20
-78.8726
 30
0.0
 10
120.678
 20
-78.8726
 30
0.0
 10
120.8789
 20
-94.8155
 30
0.0
 10
120.8789
 20
-94.8155
 30
0.0
  0
SPLINE
  5
124
330
1F
100
AcDbEntity
  8
layer 1
 62
     7
100
AcDbSpline
210
0.0
220
0.0
230
1.0
 70
    11
 71
     3
 72
    24
 73
    20
 74
     0
 42
0.0000000001
 43
0.0000000001
 12
1.0
 22
0.0
 32
0.0
 13
1.0
 23
0.0
 33
0.0
 40
0.0
 40
0.0
 40
0.0
 40
0.0
 40
0.1666666666666667
 40
0.1666666666666667
 40
0.1666666666666667
 40
0.1666666666666667
 40
0.3333333333333333
 40
0.3333333333333333
 40
0.3333333333333333
 40
0.3333333333333333
 40
0.5
 40
0.5
 40
0.5
 40
0.5
 40
0.6666666666666666
 40
0.6666666666666666
 40
0.6666666666666666
 40
0.6666666666666666
 40
1.0
 40
1.0
 40
1.0
 40
1.0
 10
120.7254
 20
-76.9832
 30
0.0
 10
120.7254
 20
-76.9832
 30
0.0
 10
110.2173
 20
-65.798
 30
0.0
 10
110.2173
 20
-65.798
 30
0.0
 10
110.2173
 20
-65.798
 30
0.0
 10
110.2173
 20
-65.798
 30
0.0
 10
116.1535
 20
-57.3984
 30
0.0
 10
116.1535
 20
-57.3984
 30
0.0
 10
116.1535
 20
-57.3984
 30
0.0
 10
116.1535
 20
-57.3984
 30
0.0
 10
127.9009
 20
-57.4169
 30
0.0
 10
127.9009
 20
-57.4169
 30
0.0
 10
127.9009
 20
-57.4169
 30
0.0
 10
127.9009
 20
-57.4169
 30
0.0
 10
127.9171
 20
-73.2595
 30
0.0
 10
127.9171
 20
-73.2595
 30
0.0
 10
127.9171
 20
-73.2595
 30
0.0
 10
127.9171
 20
-73.2595
 30
0.0
 10
120.7254
 20
-76.9832
 30
0.0
 10
120.7254
 20
-76.9832
 30
0.0
  0
SPLINE
  5
125
330
1F
100
AcDbEntity
  8
layer 1
 62
     7
100
AcDbSpline
210
0.0
220
0.0
230
1.0
 70
    11
 71
     3
 72
    24
 73
    20
 74
     0
 42
0.0000000001
 43
0.0000000001
 12
1.0
 22
0.0
 32
0.0
 13
1.0
 23
0.0
 33
0.0
 40
0.0
 40
0.0
 40
0.0
 40
0.0
 40
0.1666666666666667
 40
0.1666666666666667
 40
0.1666666666666667
 40
0.1666666666666667
 40
0.3333333333333333
 40
0.3333333333333333
 40
0.3333333333333333
 40
0.3333333333333333
 40
0.5
 40
0.5
 40
0.5
 40
0.5
 40
0.6666666666666666
 40
0.6666666666666666
 40
0.6666666666666666
 40
0.6666666666666666
 40
1.0
 40
1.0
 40
1.0
 40
1.0
 10
114.4121
 20
-107.6763
 30
0.0
 10
114.4121
 20
-107.6763
 30
0.0
 10
120.5312
 20
-111.2413
 30
0.0
 10
120.5312
 20
-111.2413
 30
0.0
 10
120.5312
 20
-111.2413
 30
0.0
 10
120.5312
 20
-111.2413
 30
0.0
 10
127.9797
 20
-111.2003
 30
0.0
 10
127.9797
 20
-111.2003
 30
0.0
 10
127.9797
 20
-111.2003
 30
0.0
 10
127.9797
 20
-111.2003
 30
0.0
 10
127.9419
 20
-96.7201
 30
0.0
 10
127.9419
 20
-96.7201
 30
0.0
 10
127.9419
 20
-96.7201
 30
0.0
 10
127.9419
 20
-96.7201
 30
0.0
 10
120.5778
 20
-96.5225
 30
0.0
 10
120.5778
 20
-96.5225
 30
0.0
 10
120.5778
 20
-96.5225
 30
0.0
 10
120.5778
 20
-96.5225
 30
0.0
 10
114.4121
 20
-107.6763
 30
0.0
 10
114.4121
 20
-107.6763
 30
0.0
  0
SPLINE
  5
126
330
1F
100
AcDbEntity
  8
layer 1
 62
     7
100
AcDbSpline
210
0.0
220
0.0
230
1.0
 70
    11
 71
     3
 72
    16
 73
    12
 74
     0
 42
0.0000000001
 43
0.0000000001
 12
1.0
 22
0.0
 32
0.0
 13
1.0
 23
0.0
 33
0.0
 40
0.0
 40
0.0
 40
0.0
 40
0.0
 40
0.25
 40
0.25
 40
0.25
 40
0.25
 40
0.5
 40
0.5
 40
0.5
 40
0.5
 40
1.0
 40
1.0
 40
1.0
 40
1.0
 10
74.1177
 20
-81.4551
 30
0.0
 10
74.1177
 20
-81.4551
 30
0.0
 10
78.4006
 20
-79.5377
 30
0.0
 10
78.4006
 20
-79.5377
 30
0.0
 10
78.4006
 20
-79.5377
 30
0.0
 10
78.4006
 20
-79.5377
 30
0.0
 10
74.1241
 20
-73.3005
 30
0.0
 10
74.1241
 20
-73.3005
 30
0.0
 10
74.1241
 20
-73.3005
 30
0.0
 10
74.1241
 20
-73.3005
 30
0.0
 10
74.1177
 20
-81.4551
 30
0.0
 10
74.1177
 20
-81.4551
 30
0.0
  0
SPLINE
  5
127
330
1F
100
AcDbEntity
  8
layer 1
 62
     7
100
AcDbSpline
210
0.0
220
0.0
230
1.0
 70
    11
 71
     3
 72
    20
 73
    16
 74
     0
 42
0.0000000001
 43
0.0000000001
 12
1.0
 22
0.0
 32
0.0
 13
1.0
 23
0.0
 33
0.0
 40
0.0
 40
0.0
 40
0.0
 40
0.0
 40
0.2
 40
0.2
 40
0.2
 40
0.2
 40
0.4
 40
0.4
 40
0.4
 40
0.4
 40
0.6
 40
0.6
 40
0.6
 40
0.6
 40
1.0
 40
1.0
 40
1.0
 40
1.0
 10
74.1177
 20
-93.2997
 30
0.0
 10
74.1177
 20
-93.2997
 30
0.0
 10
76.9259
 20
-93.3906
 30
0.0
 10
76.9259
 20
-93.3906
 30
0.0
 10
76.9259
 20
-93.3906
 30
0.0
 10
76.9259
 20
-93.3906
 30
0.0
 10
78.3098
 20
-81.4704
 30
0.0
 10
78.3098
 20
-81.4704
 30
0.0
 10
78.3098
 20
-81.4704
 30
0.0
 10
78.3098
 20
-81.4704
 30
0.0
 10
74.1555
 20
-83.4383
 30
0.0
 10
74.1555
 20
-83.4383
 30
0.0
 10
74.1555
 20
-83.4383
 30
0.0
 10
74.1555
 20
-83.4383
 30
0.0
 10
74.1177
 20
-93.2997
 30
0.0
 10
74.1177
 20
-93.2997
 30
0.0
  0
SPLINE
  5
128
330
1F
100
AcDbEntity
  8
layer 1
 62
     7
100
AcDbSpline
210
0.0
220
0.0
230
1.0
 70
    11
 71
     3
 72
    20
 73
    16
 74
     0
 42
0.0000000001
 43
0.0000000001
 12
1.0
 22
0.0
 32
0.0
 13
1.0
 23
0.0
 33
0.0
 40
0.0
 40
0.0
 40
0.0
 40
0.0
 40
0.2
 40
0.2
 40
0.2
 40
0.2
 40
0.4
 40
0.4
 40
0.4
 40
0.4
 40
0.6
 40
0.6
 40
0.6
 40
0.6
 40
1.0
 40
1.0
 40
1.0
 40
1.0
 10
168.3684
 20
-57.4032
 30
0.0
 10
168.3684
 20
-57.4032
 30
0.0
 10
168.3996
 20
-77.8664
 30
0.0
 10
168.3996
 20
-77.8664
 30
0.0
 10
168.3996
 20
-77.8664
 30
0.0
 10
166.529
 20
-78.0079
 30
0.0
 10
164.6984
 20
-78.0177
 30
0.0
 10
162.9597
 20
-77.8355
 30
0.0
 10
162.9597
 20
-77.8355
 30
0.0
 10
162.9597
 20
-77.8355
 30
0.0
 10
162.8843
 20
-57.3836
 30
0.0
 10
162.8843
 20
-57.3836
 30
0.0
 10
162.8843
 20
-57.3836
 30
0.0
 10
164.6704
 20
-57.3775
 30
0.0
 10
166.582
 20
-57.4032
 30
0.0
 10
168.3684
 20
-57.4032
 30
0.0
  0
SPLINE
  5
129
330
1F
100
AcDbEntity
  8
layer 1
 62
     7
100
AcDbSpline
210
0.0
220
0.0
230
1.0
 70
    11
 71
     3
 72
    24
 73
    20
 74
     0
 42
0.0000000001
 43
0.0000000001
 12
1.0
 22
0.0
 32
0.0
 13
1.0
 23
0.0
 33
0.0
 40
0.0
 40
0.0
 40
0.0
 40
0.0
 40
0.1666666666666667
 40
0.1666666666666667
 40
0.1666666666666667
 40
0.1666666666666667
 40
0.3333333333333333
 40
0.3333333333333333
 40
0.3333333333333333
 40
0.3333333333333333
 40
0.5
 40
0.5
 40
0.5
 40
0.5
 40
0.6666666666666666
 40
0.6666666666666666
 40
0.6666666666666666
 40
0.6666666666666666
 40
1.0
 40
1.0
 40
1.0
 40
1.0
 10
192.6266
 20
-83.2781
 30
0.0
 10
192.6266
 20
-83.2781
 30
0.0
 10
192.6266
 20
-57.3868
 30
0.0
 10
192.6266
 20
-57.3868
 30
0.0
 10
192.6266
 20
-57.3868
 30
0.0
 10
192.6266
 20
-57.3868
 30
0.0
 10
188.8102
 20
-57.3868
 30
0.0
 10
188.8102
 20
-57.3868
 30
0.0
 10
188.8102
 20
-57.3868
 30
0.0
 10
188.3954
 20
-64.857
 30
0.0
 10
184.0991
 20
-75.8676
 30
0.0
 10
169.9527
 20
-79.3171
 30
0.0
 10
169.9527
 20
-79.3171
 30
0.0
 10
169.9527
 20
-79.3171
 30
0.0
 10
170.0033
 20
-83.2997
 30
0.0
 10
170.0033
 20
-83.2997
 30
0.0
 10
170.0033
 20
-83.2997
 30
0.0
 10
171.7042
 20
-83.2997
 30
0.0
 10
192.6266
 20
-83.2781
 30
0.0
 10
192.6266
 20
-83.2781
 30
0.0
  0
SPLINE
  5
12A
330
1F
100
AcDbEntity
  8
layer 1
 62
     7
100
AcDbSpline
210
0.0
220
0.0
230
1.0
 70
    11
 71
     3
 72
    16
 73
    12
 74
     0
 42
0.0000000001
 43
0.0000000001
 12
1.0
 22
0.0
 32
0.0
 13
1.0
 23
0.0
 33
0.0
 40
0.0
 40
0.0
 40
0.0
 40
0.0
 40
0.25
 40
0.25
 40
0.25
 40
0.25
 40
0.5
 40
0.5
 40
0.5
 40
0.5
 40
1.0
 40
1.0
 40
1.0
 40
1.0
 10
169.9625
 20
-57.3868
 30
0.0
 10
169.9625
 20
-57.3868
 30
0.0
 10
169.9625
 20
-67.3866
 30
0.0
 10
169.9625
 20
-67.3866
 30
0.0
 10
169.9625
 20
-67.3866
 30
0.0
 10
171.1959
 20
-67.0449
 30
0.0
 10
176.6128
 20
-64.2828
 30
0.0
 10
177.2726
 20
-57.3686
 30
0.0
 10
177.2726
 20
-57.3686
 30
0.0
 10
176.0383
 20
-57.3652
 30
0.0
 10
169.9625
 20
-57.3868
 30
0.0
 10
169.9625
 20
-57.3868
 30
0.0
  0
SPLINE
  5
12B
330
1F
100
AcDbEntity
  8
layer 1
 62
     7
100
AcDbSpline
210
0.0
220
0.0
230
1.0
 70
    11
 71
     3
 72
    20
 73
    16
 74
     0
 42
0.0000000001
 43
0.0000000001
 12
1.0
 22
0.0
 32
0.0
 13
1.0
 23
0.0
 33
0.0
 40
0.0
 40
0.0
 40
0.0
 40
0.0
 40
0.2
 40
0.2
 40
0.2
 40
0.2
 40
0.4
 40
0.4
 40
0.4
 40
0.4
 40
0.6
 40
0.6
 40
0.6
 40
0.6
 40
1.0
 40
1.0
 40
1.0
 40
1.0
 10
169.9625
 20
-77.6127
 30
0.0
 10
181.5883
 20
-74.7128
 30
0.0
 10
186.6911
 20
-65.5009
 30
0.0
 10
187.1685
 20
-57.387
 30
0.0
 10
187.1685
 20
-57.387
 30
0.0
 10
187.1685
 20
-57.387
 30
0.0
 10
178.7004
 20
-57.4064
 30
0.0
 10
178.7004
 20
-57.4064
 30
0.0
 10
178.7004
 20
-57.4064
 30
0.0
 10
178.5558
 20
-61.9164
 30
0.0
 10
175.778
 20
-66.637
 30
0.0
 10
169.9245
 20
-68.9688
 30
0.0
 10
169.9245
 20
-68.9688
 30
0.0
 10
169.9245
 20
-68.9688
 30
0.0
 10
169.9625
 20
-77.6127
 30
0.0
 10
169.9625
 20
-77.6127
 30
0.0
  0
SPLINE
  5
12C
330
1F
100
AcDbEntity
  8
layer 1
 62
     7
100
AcDbSpline
210
0.0
220
0.0
230
1.0
 70
    11
 71
     3
 72
    24
 73
    20
 74
     0
 42
0.0000000001
 43
0.0000000001
 12
1.0
 22
0.0
 32
0.0
 13
1.0
 23
0.0
 33
0.0
 40
0.0
 40
0.0
 40
0.0
 40
0.0
 40
0.1666666666666667
 40
0.1666666666666667
 40
0.1666666666666667
 40
0.1666666666666667
 40
0.3333333333333333
 40
0.3333333333333333
 40
0.3333333333333333
 40
0.3333333333333333
 40
0.5
 40
0.5
 40
0.5
 40
0.5
 40
0.6666666666666666
 40
0.6666666666666666
 40
0.6666666666666666
 40
0.6666666666666666
 40
1.0
 40
1.0
 40
1.0
 40
1.0
 10
138.4596
 20
-83.2781
 30
0.0
 10
138.4596
 20
-83.2781
 30
0.0
 10
138.4596
 20
-57.3868
 30
0.0
 10
138.4596
 20
-57.3868
 30
0.0
 10
138.4596
 20
-57.3868
 30
0.0
 10
138.4596
 20
-57.3868
 30
0.0
 10
142.273
 20
-57.3868
 30
0.0
 10
142.273
 20
-57.3868
 30
0.0
 10
142.273
 20
-57.3868
 30
0.0
 10
142.6876
 20
-64.857
 30
0.0
 10
146.9871
 20
-75.8676
 30
0.0
 10
161.1303
 20
-79.3171
 30
0.0
 10
161.1303
 20
-79.3171
 30
0.0
 10
161.1303
 20
-79.3171
 30
0.0
 10
161.0827
 20
-83.2997
 30
0.0
 10
161.0827
 20
-83.2997
 30
0.0
 10
161.0827
 20
-83.2997
 30
0.0
 10
159.3786
 20
-83.2997
 30
0.0
 10
138.4596
 20
-83.2781
 30
0.0
 10
138.4596
 20
-83.2781
 30
0.0
  0
SPLINE
  5
12D
330
1F
100
AcDbEntity
  8
layer 1
 62
     7
100
AcDbSpline
210
0.0
220
0.0
230
1.0
 70
    11
 71
     3
 72
    16
 73
    12
 74
     0
 42
0.0000000001
 43
0.0000000001
 12
1.0
 22
0.0
 32
0.0
 13
1.0
 23
0.0
 33
0.0
 40
0.0
 40
0.0
 40
0.0
 40
0.0
 40
0.25
 40
0.25
 40
0.25
 40
0.25
 40
0.5
 40
0.5
 40
0.5
 40
0.5
 40
1.0
 40
1.0
 40
1.0
 40
1.0
 10
161.1239
 20
-57.3868
 30
0.0
 10
161.1239
 20
-57.3868
 30
0.0
 10
161.1239
 20
-67.3866
 30
0.0
 10
161.1239
 20
-67.3866
 30
0.0
 10
161.1239
 20
-67.3866
 30
0.0
 10
159.8874
 20
-67.0449
 30
0.0
 10
154.47
 20
-64.2828
 30
0.0
 10
153.8136
 20
-57.3686
 30
0.0
 10
153.8136
 20
-57.3686
 30
0.0
 10
155.0469
 20
-57.3652
 30
0.0
 10
161.1239
 20
-57.3868
 30
0.0
 10
161.1239
 20
-57.3868
 30
0.0
  0
SPLINE
  5
12E
330
1F
100
AcDbEntity
  8
layer 1
 62
     7
100
AcDbSpline
210
0.0
220
0.0
230
1.0
 70
    11
 71
     3
 72
    20
 73
    16
 74
     0
 42
0.0000000001
 43
0.0000000001
 12
1.0
 22
0.0
 32
0.0
 13
1.0
 23
0.0
 33
0.0
 40
0.0
 40
0.0
 40
0.0
 40
0.0
 40
0.2
 40
0.2
 40
0.2
 40
0.2
 40
0.4
 40
0.4
 40
0.4
 40
0.4
 40
0.6
 40
0.6
 40
0.6
 40
0.6
 40
1.0
 40
1.0
 40
1.0
 40
1.0
 10
161.1239
 20
-77.6127
 30
0.0
 10
149.4947
 20
-74.7128
 30
0.0
 10
144.3949
 20
-65.5009
 30
0.0
 10
143.9177
 20
-57.387
 30
0.0
 10
143.9177
 20
-57.387
 30
0.0
 10
143.9177
 20
-57.387
 30
0.0
 10
152.3826
 20
-57.4064
 30
0.0
 10
152.3826
 20
-57.4064
 30
0.0
 10
152.3826
 20
-57.4064
 30
0.0
 10
152.5272
 20
-61.9164
 30
0.0
 10
155.308
 20
-66.637
 30
0.0
 10
161.1615
 20
-68.9688
 30
0.0
 10
161.1615
 20
-68.9688
 30
0.0
 10
161.1615
 20
-68.9688
 30
0.0
 10
161.1239
 20
-77.6127
 30
0.0
 10
161.1239
 20
-77.6127
 30
0.0
  0
SPLINE
  5
12F
330
1F
100
AcDbEntity
  8
layer 1
 62
     7
100
AcDbSpline
210
0.0
220
0.0
230
1.0
 70
    11
 71
     3
 72
    20
 73
    16
 74
     0
 42
0.0000000001
 43
0.0000000001
 12
1.0
 22
0.0
 32
0.0
 13
1.0
 23
0.0
 33
0.0
 40
0.0
 40
0.0
 40
0.0
 40
0.0
 40
0.2
 40
0.2
 40
0.2
 40
0.2
 40
0.4
 40
0.4
 40
0.4
 40
0.4
 40
0.6
 40
0.6
 40
0.6
 40
0.6
 40
1.0
 40
1.0
 40
1.0
 40
1.0
 10
168.3684
 20
-111.5636
 30
0.0
 10
168.3684
 20
-111.5636
 30
0.0
 10
168.3996
 20
-91.0995
 30
0.0
 10
168.3996
 20
-91.0995
 30
0.0
 10
168.3996
 20
-91.0995
 30
0.0
 10
166.529
 20
-90.9549
 30
0.0
 10
164.6984
 20
-90.946
 30
0.0
 10
162.9597
 20
-91.1309
 30
0.0
 10
162.9597
 20
-91.1309
 30
0.0
 10
162.9597
 20
-91.1309
 30
0.0
 10
162.8843
 20
-111.5823
 30
0.0
 10
162.8843
 20
-111.5823
 30
0.0
 10
162.8843
 20
-111.5823
 30
0.0
 10
164.6704
 20
-111.5887
 30
0.0
 10
166.582
 20
-111.5639
 30
0.0
 10
168.3684
 20
-111.5636
 30
0.0
  0
SPLINE
  5
130
330
1F
100
AcDbEntity
  8
layer 1
 62
     7
100
AcDbSpline
210
0.0
220
0.0
230
1.0
 70
    11
 71
     3
 72
    24
 73
    20
 74
     0
 42
0.0000000001
 43
0.0000000001
 12
1.0
 22
0.0
 32
0.0
 13
1.0
 23
0.0
 33
0.0
 40
0.0
 40
0.0
 40
0.0
 40
0.0
 40
0.1666666666666667
 40
0.1666666666666667
 40
0.1666666666666667
 40
0.1666666666666667
 40
0.3333333333333333
 40
0.3333333333333333
 40
0.3333333333333333
 40
0.3333333333333333
 40
0.5
 40
0.5
 40
0.5
 40
0.5
 40
0.6666666666666666
 40
0.6666666666666666
 40
0.6666666666666666
 40
0.6666666666666666
 40
1.0
 40
1.0
 40
1.0
 40
1.0
 10
192.6266
 20
-85.6888
 30
0.0
 10
192.6266
 20
-85.6888
 30
0.0
 10
192.6266
 20
-111.5791
 30
0.0
 10
192.6266
 20
-111.5791
 30
0.0
 10
192.6266
 20
-111.5791
 30
0.0
 10
192.6266
 20
-111.5791
 30
0.0
 10
188.8102
 20
-111.5791
 30
0.0
 10
188.8102
 20
-111.5791
 30
0.0
 10
188.8102
 20
-111.5791
 30
0.0
 10
188.3954
 20
-104.1096
 30
0.0
 10
184.0991
 20
-93.0986
 30
0.0
 10
169.9527
 20
-89.6491
 30
0.0
 10
169.9527
 20
-89.6491
 30
0.0
 10
169.9527
 20
-89.6491
 30
0.0
 10
170.0033
 20
-85.6662
 30
0.0
 10
170.0033
 20
-85.6662
 30
0.0
 10
170.0033
 20
-85.6662
 30
0.0
 10
171.7042
 20
-85.6662
 30
0.0
 10
192.6266
 20
-85.6888
 30
0.0
 10
192.6266
 20
-85.6888
 30
0.0
  0
SPLINE
  5
131
330
1F
100
AcDbEntity
  8
layer 1
 62
     7
100
AcDbSpline
210
0.0
220
0.0
230
1.0
 70
    11
 71
     3
 72
    16
 73
    12
 74
     0
 42
0.0000000001
 43
0.0000000001
 12
1.0
 22
0.0
 32
0.0
 13
1.0
 23
0.0
 33
0.0
 40
0.0
 40
0.0
 40
0.0
 40
0.0
 40
0.25
 40
0.25
 40
0.25
 40
0.25
 40
0.5
 40
0.5
 40
0.5
 40
0.5
 40
1.0
 40
1.0
 40
1.0
 40
1.0
 10
169.9625
 20
-111.5791
 30
0.0
 10
169.9625
 20
-111.5791
 30
0.0
 10
169.9625
 20
-101.5796
 30
0.0
 10
169.9625
 20
-101.5796
 30
0.0
 10
169.9625
 20
-101.5796
 30
0.0
 10
171.1959
 20
-101.9219
 30
0.0
 10
176.6128
 20
-104.6836
 30
0.0
 10
177.2726
 20
-111.5985
 30
0.0
 10
177.2726
 20
-111.5985
 30
0.0
 10
176.0383
 20
-111.6014
 30
0.0
 10
169.9625
 20
-111.5791
 30
0.0
 10
169.9625
 20
-111.5791
 30
0.0
  0
SPLINE
  5
132
330
1F
100
AcDbEntity
  8
layer 1
 62
     7
100
AcDbSpline
210
0.0
220
0.0
230
1.0
 70
    11
 71
     3
 72
    20
 73
    16
 74
     0
 42
0.0000000001
 43
0.0000000001
 12
1.0
 22
0.0
 32
0.0
 13
1.0
 23
0.0
 33
0.0
 40
0.0
 40
0.0
 40
0.0
 40
0.0
 40
0.2
 40
0.2
 40
0.2
 40
0.2
 40
0.4
 40
0.4
 40
0.4
 40
0.4
 40
0.6
 40
0.6
 40
0.6
 40
0.6
 40
1.0
 40
1.0
 40
1.0
 40
1.0
 10
169.9625
 20
-91.351
 30
0.0
 10
181.5883
 20
-94.254
 30
0.0
 10
186.6911
 20
-103.4662
 30
0.0
 10
187.1685
 20
-111.5791
 30
0.0
 10
187.1685
 20
-111.5791
 30
0.0
 10
187.1685
 20
-111.5791
 30
0.0
 10
178.7004
 20
-111.5604
 30
0.0
 10
178.7004
 20
-111.5604
 30
0.0
 10
178.7004
 20
-111.5604
 30
0.0
 10
178.5558
 20
-107.0505
 30
0.0
 10
175.778
 20
-102.3301
 30
0.0
 10
169.9245
 20
-99.9976
 30
0.0
 10
169.9245
 20
-99.9976
 30
0.0
 10
169.9245
 20
-99.9976
 30
0.0
 10
169.9625
 20
-91.351
 30
0.0
 10
169.9625
 20
-91.351
 30
0.0
  0
SPLINE
  5
133
330
1F
100
AcDbEntity
  8
layer 1
 62
     7
100
AcDbSpline
210
0.0
220
0.0
230
1.0
 70
    11
 71
     3
 72
    24
 73
    20
 74
     0
 42
0.0000000001
 43
0.0000000001
 12
1.0
 22
0.0
 32
0.0
 13
1.0
 23
0.0
 33
0.0
 40
0.0
 40
0.0
 40
0.0
 40
0.0
 40
0.1666666666666667
 40
0.1666666666666667
 40
0.1666666666666667
 40
0.1666666666666667
 40
0.3333333333333333
 40
0.3333333333333333
 40
0.3333333333333333
 40
0.3333333333333333
 40
0.5
 40
0.5
 40
0.5
 40
0.5
 40
0.6666666666666666
 40
0.6666666666666666
 40
0.6666666666666666
 40
0.6666666666666666
 40
1.0
 40
1.0
 40
1.0
 40
1.0
 10
138.4596
 20
-85.6888
 30
0.0
 10
138.4596
 20
-85.6888
 30
0.0
 10
138.4596
 20
-111.5791
 30
0.0
 10
138.4596
 20
-111.5791
 30
0.0
 10
138.4596
 20
-111.5791
 30
0.0
 10
138.4596
 20
-111.5791
 30
0.0
 10
142.273
 20
-111.5791
 30
0.0
 10
142.273
 20
-111.5791
 30
0.0
 10
142.273
 20
-111.5791
 30
0.0
 10
142.6876
 20
-104.1096
 30
0.0
 10
146.9871
 20
-93.0986
 30
0.0
 10
161.1303
 20
-89.6491
 30
0.0
 10
161.1303
 20
-89.6491
 30
0.0
 10
161.1303
 20
-89.6491
 30
0.0
 10
161.0827
 20
-85.6662
 30
0.0
 10
161.0827
 20
-85.6662
 30
0.0
 10
161.0827
 20
-85.6662
 30
0.0
 10
159.3786
 20
-85.6662
 30
0.0
 10
138.4596
 20
-85.6888
 30
0.0
 10
138.4596
 20
-85.6888
 30
0.0
  0
SPLINE
  5
134
330
1F
100
AcDbEntity
  8
layer 1
 62
     7
100
AcDbSpline
210
0.0
220
0.0
230
1.0
 70
    11
 71
     3
 72
    16
 73
    12
 74
     0
 42
0.0000000001
 43
0.0000000001
 12
1.0
 22
0.0
 32
0.0
 13
1.0
 23
0.0
 33
0.0
 40
0.0
 40
0.0
 40
0.0
 40
0.0
 40
0.25
 40
0.25
 40
0.25
 40
0.25
 40
0.5
 40
0.5
 40
0.5
 40
0.5
 40
1.0
 40
1.0
 40
1.0
 40
1.0
 10
161.1239
 20
-111.5791
 30
0.0
 10
161.1239
 20
-111.5791
 30
0.0
 10
161.1239
 20
-101.5796
 30
0.0
 10
161.1239
 20
-101.5796
 30
0.0
 10
161.1239
 20
-101.5796
 30
0.0
 10
159.8874
 20
-101.9219
 30
0.0
 10
154.47
 20
-104.6836
 30
0.0
 10
153.8136
 20
-111.5985
 30
0.0
 10
153.8136
 20
-111.5985
 30
0.0
 10
155.0469
 20
-111.6014
 30
0.0
 10
161.1239
 20
-111.5791
 30
0.0
 10
161.1239
 20
-111.5791
 30
0.0
  0
SPLINE
  5
135
330
1F
100
AcDbEntity
  8
layer 1
 62
     7
100
AcDbSpline
210
0.0
220
0.0
230
1.0
 70
    11
 71
     3
 72
    20
 73
    16
 74
     0
 42
0.0000000001
 43
0.0000000001
 12
1.0
 22
0.0
 32
0.0
 13
1.0
 23
0.0
 33
0.0
 40
0.0
 40
0.0
 40
0.0
 40
0.0
 40
0.2
 40
0.2
 40
0.2
 40
0.2
 40
0.4
 40
0.4
 40
0.4
 40
0.4
 40
0.6
 40
0.6
 40
0.6
 40
0.6
 40
1.0
 40
1.0
 40
1.0
 40
1.0
 10
161.1239
 20
-91.351
 30
0.0
 10
149.4947
 20
-94.254
 30
0.0
 10
144.3949
 20
-103.4662
 30
0.0
 10
143.9177
 20
-111.5791
 30
0.0
 10
143.9177
 20
-111.5791
 30
0.0
 10
143.9177
 20
-111.5791
 30
0.0
 10
152.3826
 20
-111.5604
 30
0.0
 10
152.3826
 20
-111.5604
 30
0.0
 10
152.3826
 20
-111.5604
 30
0.0
 10
152.5272
 20
-107.0505
 30
0.0
 10
155.308
 20
-102.3301
 30
0.0
 10
161.1615
 20
-99.9976
 30
0.0
 10
161.1615
 20
-99.9976
 30
0.0
 10
161.1615
 20
-99.9976
 30
0.0
 10
161.1239
 20
-91.351
 30
0.0
 10
161.1239
 20
-91.351
 30
0.0
  0
SPLINE
  5
136
330
1F
100
AcDbEntity
  8
layer 1
 62
     7
100
AcDbSpline
210
0.0
220
0.0
230
1.0
 70
    11
 71
     3
 72
    20
 73
    16
 74
     0
 42
0.0000000001
 43
0.0000000001
 12
1.0
 22
0.0
 32
0.0
 13
1.0
 23
0.0
 33
0.0
 40
0.0
 40
0.0
 40
0.0
 40
0.0
 40
0.2
 40
0.2
 40
0.2
 40
0.2
 40
0.4
 40
0.4
 40
0.4
 40
0.4
 40
0.6
 40
0.6
 40
0.6
 40
0.6
 40
1.0
 40
1.0
 40
1.0
 40
1.0
 10
168.3684
 20
-79.5933
 30
0.0
 10
168.3684
 20
-79.5933
 30
0.0
 10
168.3996
 20
-89.3986
 30
0.0
 10
168.3996
 20
-89.3986
 30
0.0
 10
168.3996
 20
-89.3986
 30
0.0
 10
166.5506
 20
-89.1945
 30
0.0
 10
164.6046
 20
-89.1815
 30
0.0
 10
162.9597
 20
-89.3671
 30
0.0
 10
162.9597
 20
-89.3671
 30
0.0
 10
162.9597
 20
-89.3671
 30
0.0
 10
162.8843
 20
-79.574
 30
0.0
 10
162.8843
 20
-79.574
 30
0.0
 10
162.8843
 20
-79.574
 30
0.0
 10
164.8777
 20
-79.7781
 30
0.0
 10
166.3023
 20
-79.7815
 30
0.0
 10
168.3684
 20
-79.5933
 30
0.0
  0
ENDSEC
  0
SECTION
  2
OBJECTS
  0
DICTIONARY
  5
C
330
0
100
AcDbDictionary
281
     1
  3
ACAD_GROUP
350
D
  3
ACAD_LAYOUT
350
1A
  3
ACAD_MATERIAL
350
3B
  3
ACAD_MLEADERSTYLE
350
159
  3
ACAD_MLINESTYLE
350
17
  3
ACAD_PLOTSETTINGS
350
19
  3
ACAD_PLOTSTYLENAME
350
E
  3
ACAD_TABLESTYLE
350
158
  3
ACAD_VISUALSTYLE
350
2A
  0
DICTIONARY
  5
D
102
{ACAD_REACTORS
330
C
102
}
330
C
100
AcDbDictionary
281
     1
  0
DICTIONARY
  5
1A
102
{ACAD_REACTORS
330
C
102
}
330
C
100
AcDbDictionary
281
     1
  3
Layout1
350
1E
  3
Layout2
350
26
  3
Model
350
22
  0
DICTIONARY
  5
3B
102
{ACAD_REACTORS
330
C
102
}
330
C
100
AcDbDictionary
281
     1
  3
ByBlock
350
3D
  3
ByLayer
350
3C
  3
Global
350
3E
  0
DICTIONARY
  5
159
102
{ACAD_REACTORS
330
C
102
}
330
C
100
AcDbDictionary
281
     1
  0
DICTIONARY
  5
17
102
{ACAD_REACTORS
330
C
102
}
330
C
100
AcDbDictionary
281
     1
  3
Standard
350
18
  0
DICTIONARY
  5
19
102
{ACAD_REACTORS
330
C
102
}
330
C
100
AcDbDictionary
281
     1
  0
ACDBDICTIONARYWDFLT
  5
E
102
{ACAD_REACTORS
330
C
102
}
330
C
100
AcDbDictionary
281
     1
  3
Normal
350
F
100
AcDbDictionaryWithDefault
340
F
  0
DICTIONARY
  5
158
102
{ACAD_REACTORS
330
C
102
}
330
C
100
AcDbDictionary
281
     1
  0
DICTIONARY
  5
2A
102
{ACAD_REACTORS
330
C
102
}
330
C
100
AcDbDictionary
281
     1
  3
2dWireframe
350
2F
  3
3D Hidden
350
31
  3
3dWireframe
350
30
  3
Basic
350
32
  3
Brighten
350
36
  3
ColorChange
350
3A
  3
Conceptual
350
34
  3
Dim
350
35
  3
Facepattern
350
39
  3
Flat
350
2B
  3
FlatWithEdges
350
2C
  3
Gouraud
350
2D
  3
GouraudWithEdges
350
2E
  3
Linepattern
350
38
  3
Realistic
350
33
  3
Thicken
350
37
  0
LAYOUT
  5
1E
102
{ACAD_REACTORS
330
1A
102
}
330
1A
100
AcDbPlotSettings
  1

  2
none_device
  4

  6

 40
0.0
 41
0.0
 42
0.0
 43
0.0
 44
0.0
 45
0.0
 46
0.0
 47
0.0
 48
0.0
 49
0.0
140
0.0
141
0.0
142
1.0
143
1.0
 70
   688
 72
     0
 73
     0
 74
     5
  7

 75
    16
 76
     0
 77
     2
 78
   300
147
1.0
148
0.0
149
0.0
100
AcDbLayout
  1
Layout1
 70
     1
 71
     1
 10
0.0
 20
0.0
 11
12.0
 21
9.0
 12
0.0
 22
0.0
 32
0.0
 14
1.000000000000000E+20
 24
1.000000000000000E+20
 34
1.000000000000000E+20
 15
-1.000000000000000E+20
 25
-1.000000000000000E+20
 35
-1.000000000000000E+20
146
0.0
 13
0.0
 23
0.0
 33
0.0
 16
1.0
 26
0.0
 36
0.0
 17
0.0
 27
1.0
 37
0.0
 76
     0
330
1B
  0
LAYOUT
  5
26
102
{ACAD_REACTORS
330
1A
102
}
330
1A
100
AcDbPlotSettings
  1

  2
none_device
  4

  6

 40
0.0
 41
0.0
 42
0.0
 43
0.0
 44
0.0
 45
0.0
 46
0.0
 47
0.0
 48
0.0
 49
0.0
140
0.0
141
0.0
142
1.0
143
1.0
 70
   688
 72
     0
 73
     0
 74
     5
  7

 75
    16
 76
     0
 77
     2
 78
   300
147
1.0
148
0.0
149
0.0
100
AcDbLayout
  1
Layout2
 70
     1
 71
     2
 10
0.0
 20
0.0
 11
0.0
 21
0.0
 12
0.0
 22
0.0
 32
0.0
 14
0.0
 24
0.0
 34
0.0
 15
0.0
 25
0.0
 35
0.0
146
0.0
 13
0.0
 23
0.0
 33
0.0
 16
1.0
 26
0.0
 36
0.0
 17
0.0
 27
1.0
 37
0.0
 76
     0
330
23
  0
LAYOUT
  5
22
102
{ACAD_REACTORS
330
1A
102
}
330
1A
100
AcDbPlotSettings
  1

  2
none_device
  4

  6

 40
0.0
 41
0.0
 42
0.0
 43
0.0
 44
0.0
 45
0.0
 46
0.0
 47
0.0
 48
0.0
 49
0.0
140
0.0
141
0.0
142
1.0
143
1.0
 70
  1712
 72
     0
 73
     0
 74
     0
  7

 75
     0
 76
     0
 77
     2
 78
   300
147
1.0
148
0.0
149
0.0
100
AcDbLayout
  1
Model
 70
     1
 71
     0
 10
0.0
 20
0.0
 11
12.0
 21
9.0
 12
0.0
 22
0.0
 32
0.0
 14
5.8134
 24
-114.9865
 34
0.0
 15
196.2556
 25
131.8436
 35
0.0
146
0.0
 13
0.0
 23
0.0
 33
0.0
 16
1.0
 26
0.0
 36
0.0
 17
0.0
 27
1.0
 37
0.0
 76
     0
330
1F
331
29
  0
MATERIAL
  5
3D
102
{ACAD_REACTORS
330
3B
102
}
330
3B
100
AcDbMaterial
  1
ByBlock
 72
     1
 94
      127
  0
MATERIAL
  5
3C
102
{ACAD_REACTORS
330
3B
102
}
330
3B
100
AcDbMaterial
  1
ByLayer
 72
     1
 94
      127
  0
MATERIAL
  5
3E
102
{ACAD_REACTORS
330
3B
102
}
330
3B
100
AcDbMaterial
  1
Global
 72
     1
 94
      127
  0
MLINESTYLE
  5
18
102
{ACAD_REACTORS
330
17
102
}
330
17
100
AcDbMlineStyle
  2
Standard
 70
     0
  3

 62
   256
 51
90.0
 52
90.0
 71
     2
 49
0.5
 62
   256
  6
BYLAYER
 49
-0.5
 62
   256
  6
BYLAYER
  0
ACDBPLACEHOLDER
  5
F
102
{ACAD_REACTORS
330
E
102
}
330
E
  0
VISUALSTYLE
  5
2F
102
{ACAD_REACTORS
330
2A
102
}
102
{ACAD_XDICTIONARY
360
140
102
}
330
2A
100
AcDbVisualStyle
  2
2dWireframe
 70
     4
 71
     0
 72
     2
 73
     0
 90
        0
 40
-0.6
 41
-30.0
 62
     5
 63
     7
421
 16777215
 74
     1
 91
        4
 64
     7
 65
   257
 75
     1
175
     1
 42
1.0
 92
        0
 66
   257
 43
1.0
 76
     1
 77
     6
 78
     2
 67
     7
 79
     5
170
     0
171
     0
290
     0
174
     0
 93
        1
 44
0.0
173
     0
291
     0
 45
0.0
  0
VISUALSTYLE
  5
31
102
{ACAD_REACTORS
330
2A
102
}
102
{ACAD_XDICTIONARY
360
144
102
}
330
2A
100
AcDbVisualStyle
  2
3D Hidden
 70
     6
 71
     1
 72
     2
 73
     2
 90
        0
 40
-0.6
 41
-30.0
 62
     5
 63
     7
421
 16777215
 74
     2
 91
        2
 64
     7
 65
   257
 75
     2
175
     1
 42
40.0
 92
        0
 66
   257
 43
1.0
 76
     1
 77
     6
 78
     2
 67
     7
 79
     3
170
     0
171
     0
290
     0
174
     0
 93
        1
 44
0.0
173
     0
291
     0
 45
0.0
  0
VISUALSTYLE
  5
30
102
{ACAD_REACTORS
330
2A
102
}
102
{ACAD_XDICTIONARY
360
142
102
}
330
2A
100
AcDbVisualStyle
  2
3dWireframe
 70
     5
 71
     0
 72
     2
 73
     0
 90
        0
 40
-0.6
 41
-30.0
 62
     5
 63
     7
421
 16777215
 74
     1
 91
        4
 64
     7
 65
   257
 75
     1
175
     1
 42
1.0
 92
        0
 66
   257
 43
1.0
 76
     1
 77
     6
 78
     2
 67
     7
 79
     5
170
     0
171
     0
290
     0
174
     0
 93
        1
 44
0.0
173
     0
291
     0
 45
0.0
  0
VISUALSTYLE
  5
32
102
{ACAD_REACTORS
330
2A
102
}
102
{ACAD_XDICTIONARY
360
146
102
}
330
2A
100
AcDbVisualStyle
  2
Basic
 70
     7
 71
     1
 72
     0
 73
     1
 90
        0
 40
-0.6
 41
-30.0
 62
     5
 63
     7
421
 16777215
 74
     0
 91
        4
 64
     7
 65
   257
 75
     1
175
     1
 42
1.0
 92
        8
 66
     7
 43
1.0
 76
     1
 77
     6
 78
     2
 67
     7
 79
     5
170
     0
171
     0
290
     0
174
     0
 93
        1
 44
0.0
173
     0
291
     1
 45
0.0
  0
VISUALSTYLE
  5
36
102
{ACAD_REACTORS
330
2A
102
}
102
{ACAD_XDICTIONARY
360
14E
102
}
330
2A
100
AcDbVisualStyle
  2
Brighten
 70
    12
 71
     2
 72
     2
 73
     0
 90
        0
 40
-0.6
 41
-30.0
 62
     5
 63
     7
421
 16777215
 74
     1
 91
        4
 64
     7
 65
   257
 75
     1
175
     1
 42
1.0
 92
        8
 66
     7
 43
1.0
 76
     1
 77
     6
 78
     2
 67
     7
 79
     5
170
     0
171
     0
290
     0
174
     0
 93
        1
 44
50.0
173
     0
291
     1
 45
0.0
  0
VISUALSTYLE
  5
3A
102
{ACAD_REACTORS
330
2A
102
}
102
{ACAD_XDICTIONARY
360
156
102
}
330
2A
100
AcDbVisualStyle
  2
ColorChange
 70
    16
 71
     2
 72
     2
 73
     3
 90
        0
 40
-0.6
 41
-30.0
 62
     5
 63
     8
421
  8421504
 74
     1
 91
        4
 64
     7
 65
   257
 75
     1
175
     1
 42
1.0
 92
        8
 66
     8
424
  8421504
 43
1.0
 76
     1
 77
     6
 78
     2
 67
     7
 79
     5
170
     0
171
     0
290
     0
174
     0
 93
        1
 44
0.0
173
     0
291
     1
 45
0.0
  0
VISUALSTYLE
  5
34
102
{ACAD_REACTORS
330
2A
102
}
102
{ACAD_XDICTIONARY
360
14A
102
}
330
2A
100
AcDbVisualStyle
  2
Conceptual
 70
     9
 71
     3
 72
     2
 73
     0
 90
        0
 40
-0.6
 41
-30.0
 62
     5
 63
     7
421
 16777215
 74
     2
 91
        2
 64
     7
 65
   257
 75
     1
175
     1
 42
40.0
 92
        8
 66
     7
 43
1.0
 76
     1
 77
     6
 78
     2
 67
     7
 79
     3
170
     0
171
     0
290
     0
174
     0
 93
        1
 44
0.0
173
     0
291
     0
 45
0.0
  0
VISUALSTYLE
  5
35
102
{ACAD_REACTORS
330
2A
102
}
102
{ACAD_XDICTIONARY
360
14C
102
}
330
2A
100
AcDbVisualStyle
  2
Dim
 70
    11
 71
     2
 72
     2
 73
     0
 90
        0
 40
-0.6
 41
-30.0
 62
     5
 63
     7
421
 16777215
 74
     1
 91
        4
 64
     7
 65
   257
 75
     1
175
     1
 42
1.0
 92
        8
 66
     7
 43
1.0
 76
     1
 77
     6
 78
     2
 67
     7
 79
     5
170
     0
171
     0
290
     0
174
     0
 93
        1
 44
-50.0
173
     0
291
     1
 45
0.0
  0
VISUALSTYLE
  5
39
102
{ACAD_REACTORS
330
2A
102
}
102
{ACAD_XDICTIONARY
360
154
102
}
330
2A
100
AcDbVisualStyle
  2
Facepattern
 70
    15
 71
     2
 72
     2
 73
     0
 90
        0
 40
-0.6
 41
-30.0
 62
     5
 63
     7
421
 16777215
 74
     1
 91
        4
 64
     7
 65
   257
 75
     1
175
     1
 42
1.0
 92
        8
 66
     7
 43
1.0
 76
     1
 77
     6
 78
     2
 67
     7
 79
     5
170
     0
171
     0
290
     0
174
     0
 93
        1
 44
0.0
173
     0
291
     1
 45
0.0
  0
VISUALSTYLE
  5
2B
102
{ACAD_REACTORS
330
2A
102
}
102
{ACAD_XDICTIONARY
360
138
102
}
330
2A
100
AcDbVisualStyle
  2
Flat
 70
     0
 71
     2
 72
     1
 73
     1
 90
        2
 40
-0.6
 41
30.0
 62
     5
 63
     7
421
 16777215
 74
     0
 91
        4
 64
     7
 65
   257
 75
     1
175
     1
 42
1.0
 92
        8
 66
     7
 43
1.0
 76
     1
 77
     6
 78
     2
 67
     7
 79
     5
170
     0
171
     0
290
     0
174
     0
 93
       13
 44
0.0
173
     0
291
     1
 45
0.0
  0
VISUALSTYLE
  5
2C
102
{ACAD_REACTORS
330
2A
102
}
102
{ACAD_XDICTIONARY
360
13A
102
}
330
2A
100
AcDbVisualStyle
  2
FlatWithEdges
 70
     1
 71
     2
 72
     1
 73
     1
 90
        2
 40
-0.6
 41
30.0
 62
     5
 63
     7
421
 16777215
 74
     1
 91
        4
 64
     7
 65
   257
 75
     1
175
     1
 42
1.0
 92
        0
 66
   257
 43
1.0
 76
     1
 77
     6
 78
     2
 67
     7
 79
     5
170
     0
171
     0
290
     0
174
     0
 93
       13
 44
0.0
173
     0
291
     1
 45
0.0
  0
VISUALSTYLE
  5
2D
102
{ACAD_REACTORS
330
2A
102
}
102
{ACAD_XDICTIONARY
360
13C
102
}
330
2A
100
AcDbVisualStyle
  2
Gouraud
 70
     2
 71
     2
 72
     2
 73
     1
 90
        2
 40
-0.6
 41
30.0
 62
     5
 63
     7
421
 16777215
 74
     0
 91
        4
 64
     7
 65
   257
 75
     1
175
     1
 42
1.0
 92
        0
 66
     7
 43
1.0
 76
     1
 77
     6
 78
     2
 67
     7
 79
     5
170
     0
171
     0
290
     0
174
     0
 93
       13
 44
0.0
173
     0
291
     1
 45
0.0
  0
VISUALSTYLE
  5
2E
102
{ACAD_REACTORS
330
2A
102
}
102
{ACAD_XDICTIONARY
360
13E
102
}
330
2A
100
AcDbVisualStyle
  2
GouraudWithEdges
 70
     3
 71
     2
 72
     2
 73
     1
 90
        2
 40
-0.6
 41
30.0
 62
     5
 63
     7
421
 16777215
 74
     1
 91
        4
 64
     7
 65
   257
 75
     1
175
     1
 42
1.0
 92
        0
 66
   257
 43
1.0
 76
     1
 77
     6
 78
     2
 67
     7
 79
     5
170
     0
171
     0
290
     0
174
     0
 93
       13
 44
0.0
173
     0
291
     1
 45
0.0
  0
VISUALSTYLE
  5
38
102
{ACAD_REACTORS
330
2A
102
}
102
{ACAD_XDICTIONARY
360
152
102
}
330
2A
100
AcDbVisualStyle
  2
Linepattern
 70
    14
 71
     2
 72
     2
 73
     0
 90
        0
 40
-0.6
 41
-30.0
 62
     5
 63
     7
421
 16777215
 74
     1
 91
        4
 64
     7
 65
   257
 75
     7
175
     7
 42
1.0
 92
        8
 66
     7
 43
1.0
 76
     1
 77
     6
 78
     2
 67
     7
 79
     5
170
     0
171
     0
290
     0
174
     0
 93
        1
 44
0.0
173
     0
291
     1
 45
0.0
  0
VISUALSTYLE
  5
33
102
{ACAD_REACTORS
330
2A
102
}
102
{ACAD_XDICTIONARY
360
148
102
}
330
2A
100
AcDbVisualStyle
  2
Realistic
 70
     8
 71
     2
 72
     2
 73
     0
 90
        0
 40
-0.6
 41
-30.0
 62
     5
 63
     7
421
 16777215
 74
     1
 91
        0
 64
     7
 65
   257
 75
     1
175
     1
 42
1.0
 92
        8
 66
     8
424
  7895160
 43
1.0
 76
     1
 77
     6
 78
     2
 67
     7
 79
     5
170
     0
171
     0
290
     0
174
     0
 93
       13
 44
0.0
173
     0
291
     0
 45
0.0
  0
VISUALSTYLE
  5
37
102
{ACAD_REACTORS
330
2A
102
}
102
{ACAD_XDICTIONARY
360
150
102
}
330
2A
100
AcDbVisualStyle
  2
Thicken
 70
    13
 71
     2
 72
     2
 73
     0
 90
        0
 40
-0.6
 41
-30.0
 62
     5
 63
     7
421
 16777215
 74
     1
 91
        4
 64
     7
 65
   257
 75
     1
175
     1
 42
1.0
 92
       12
 66
     7
 43
1.0
 76
     1
 77
     6
 78
     2
 67
     7
 79
     5
170
     0
171
     0
290
     0
174
     0
 93
        1
 44
0.0
173
     0
291
     1
 45
0.0
  0
DICTIONARY
  5
140
330
2F
100
AcDbDictionary
280
     1
281
     1
  3
ACAD_XREC_ROUNDTRIP
360
141
  0
DICTIONARY
  5
144
330
31
100
AcDbDictionary
280
     1
281
     1
  3
ACAD_XREC_ROUNDTRIP
360
145
  0
DICTIONARY
  5
142
330
30
100
AcDbDictionary
280
     1
281
     1
  3
ACAD_XREC_ROUNDTRIP
360
143
  0
DICTIONARY
  5
146
330
32
100
AcDbDictionary
280
     1
281
     1
  3
ACAD_XREC_ROUNDTRIP
360
147
  0
DICTIONARY
  5
14E
330
36
100
AcDbDictionary
280
     1
281
     1
  3
ACAD_XREC_ROUNDTRIP
360
14F
  0
DICTIONARY
  5
156
330
3A
100
AcDbDictionary
280
     1
281
     1
  3
ACAD_XREC_ROUNDTRIP
360
157
  0
DICTIONARY
  5
14A
330
34
100
AcDbDictionary
280
     1
281
     1
  3
ACAD_XREC_ROUNDTRIP
360
14B
  0
DICTIONARY
  5
14C
330
35
100
AcDbDictionary
280
     1
281
     1
  3
ACAD_XREC_ROUNDTRIP
360
14D
  0
DICTIONARY
  5
154
330
39
100
AcDbDictionary
280
     1
281
     1
  3
ACAD_XREC_ROUNDTRIP
360
155
  0
DICTIONARY
  5
138
330
2B
100
AcDbDictionary
280
     1
281
     1
  3
ACAD_XREC_ROUNDTRIP
360
139
  0
DICTIONARY
  5
13A
330
2C
100
AcDbDictionary
280
     1
281
     1
  3
ACAD_XREC_ROUNDTRIP
360
13B
  0
DICTIONARY
  5
13C
330
2D
100
AcDbDictionary
280
     1
281
     1
  3
ACAD_XREC_ROUNDTRIP
360
13D
  0
DICTIONARY
  5
13E
330
2E
100
AcDbDictionary
280
     1
281
     1
  3
ACAD_XREC_ROUNDTRIP
360
13F
  0
DICTIONARY
  5
152
330
38
100
AcDbDictionary
280
     1
281
     1
  3
ACAD_XREC_ROUNDTRIP
360
153
  0
DICTIONARY
  5
148
330
33
100
AcDbDictionary
280
     1
281
     1
  3
ACAD_XREC_ROUNDTRIP
360
149
  0
DICTIONARY
  5
150
330
37
100
AcDbDictionary
280
     1
281
     1
  3
ACAD_XREC_ROUNDTRIP
360
151
  0
XRECORD
  5
141
102
{ACAD_REACTORS
330
140
102
}
330
140
100
AcDbXrecord
280
     1
102
RTVSPropertyOp0
 70
     1
102
RTVSPropertyOp1
 70
     1
102
RTVSPropertyOp2
 70
     1
102
RTVSPropertyOp3
 70
     1
102
RTVSPropertyOp4
 70
     1
102
RTVSPropertyOp5
 70
     1
102
RTVSPropertyOp6
 70
     1
102
RTVSPropertyOp7
 70
     1
102
RTVSPropertyOp8
 70
     1
102
RTVSPropertyOp9
 70
     1
102
RTVSPropertyOp10
 70
     1
102
RTVSPropertyOp11
 70
     1
102
RTVSPropertyOp12
 70
     1
102
RTVSPropertyOp13
 70
     1
102
RTVSPropertyOp14
 70
     1
102
RTVSPropertyOp15
 70
     1
102
RTVSPropertyOp16
 70
     1
102
RTVSPropertyOp17
 70
     1
102
RTVSPropertyOp18
 70
     1
102
RTVSPropertyOp19
 70
     1
102
RTVSPropertyOp20
 70
     1
102
RTVSPropertyOp21
 70
     1
102
RTVSPropertyOp22
 70
     1
102
RTVSPropertyOp23
 70
     1
102
RTVSPropertyOp24
 70
     1
102
RTVSPropertyOp25
 70
     1
102
RTVSPropertyOp26
 70
     1
102
RTVSPropertyOp27
 70
     1
102
RTVSPropertyOp28
 70
     1
102
RTVSPropertyOp29
 70
     1
102
RTVSPropertyOp30
 70
     1
102
RTVSPropertyOp31
 70
     1
102
RTVSPropertyOp32
 70
     1
  0
XRECORD
  5
145
102
{ACAD_REACTORS
330
144
102
}
330
144
100
AcDbXrecord
280
     1
102
RTVSPropertyOp0
 70
     1
102
RTVSPropertyOp1
 70
     1
102
RTVSPropertyOp2
 70
     1
102
RTVSPropertyOp3
 70
     1
102
RTVSPropertyOp4
 70
     1
102
RTVSPropertyOp5
 70
     1
102
RTVSPropertyOp6
 70
     1
102
RTVSPropertyOp7
 70
     1
102
RTVSPropertyOp8
 70
     1
102
RTVSPropertyOp9
 70
     1
102
RTVSPropertyOp10
 70
     1
102
RTVSPropertyOp11
 70
     1
102
RTVSPropertyOp12
 70
     1
102
RTVSPropertyOp13
 70
     1
102
RTVSPropertyOp14
 70
     1
102
RTVSPropertyOp15
 70
     1
102
RTVSPropertyOp16
 70
     1
102
RTVSPropertyOp17
 70
     1
102
RTVSPropertyOp18
 70
     1
102
RTVSPropertyOp19
 70
     1
102
RTVSPropertyOp20
 70
     1
102
RTVSPropertyOp21
 70
     1
102
RTVSPropertyOp22
 70
     1
102
RTVSPropertyOp23
 70
     1
102
RTVSPropertyOp24
 70
     1
102
RTVSPropertyOp25
 70
     1
102
RTVSPropertyOp26
 70
     1
102
RTVSPropertyOp27
 70
     1
102
RTVSPropertyOp28
 70
     1
102
RTVSPropertyOp29
 70
     1
102
RTVSPropertyOp30
 70
     1
102
RTVSPropertyOp31
 70
     1
102
RTVSPropertyOp32
 70
     1
  0
XRECORD
  5
143
102
{ACAD_REACTORS
330
142
102
}
330
142
100
AcDbXrecord
280
     1
102
RTVSPropertyOp0
 70
     1
102
RTVSPropertyOp1
 70
     1
102
RTVSPropertyOp2
 70
     1
102
RTVSPropertyOp3
 70
     1
102
RTVSPropertyOp4
 70
     1
102
RTVSPropertyOp5
 70
     1
102
RTVSPropertyOp6
 70
     1
102
RTVSPropertyOp7
 70
     1
102
RTVSPropertyOp8
 70
     1
102
RTVSPropertyOp9
 70
     1
102
RTVSPropertyOp10
 70
     1
102
RTVSPropertyOp11
 70
     1
102
RTVSPropertyOp12
 70
     1
102
RTVSPropertyOp13
 70
     1
102
RTVSPropertyOp14
 70
     1
102
RTVSPropertyOp15
 70
     1
102
RTVSPropertyOp16
 70
     1
102
RTVSPropertyOp17
 70
     1
102
RTVSPropertyOp18
 70
     1
102
RTVSPropertyOp19
 70
     1
102
RTVSPropertyOp20
 70
     1
102
RTVSPropertyOp21
 70
     1
102
RTVSPropertyOp22
 70
     1
102
RTVSPropertyOp23
 70
     1
102
RTVSPropertyOp24
 70
     1
102
RTVSPropertyOp25
 70
     1
102
RTVSPropertyOp26
 70
     1
102
RTVSPropertyOp27
 70
     1
102
RTVSPropertyOp28
 70
     1
102
RTVSPropertyOp29
 70
     1
102
RTVSPropertyOp30
 70
     1
102
RTVSPropertyOp31
 70
     1
102
RTVSPropertyOp32
 70
     1
  0
XRECORD
  5
147
102
{ACAD_REACTORS
330
146
102
}
330
146
100
AcDbXrecord
280
     1
102
RTVSPropertyOp0
 70
     1
102
RTVSPropertyOp1
 70
     1
102
RTVSPropertyOp2
 70
     1
102
RTVSPropertyOp3
 70
     1
102
RTVSPropertyOp4
 70
     1
102
RTVSPropertyOp5
 70
     1
102
RTVSPropertyOp6
 70
     1
102
RTVSPropertyOp7
 70
     1
102
RTVSPropertyOp8
 70
     1
102
RTVSPropertyOp9
 70
     1
102
RTVSPropertyOp10
 70
     1
102
RTVSPropertyOp11
 70
     1
102
RTVSPropertyOp12
 70
     1
102
RTVSPropertyOp13
 70
     1
102
RTVSPropertyOp14
 70
     1
102
RTVSPropertyOp15
 70
     1
102
RTVSPropertyOp16
 70
     1
102
RTVSPropertyOp17
 70
     1
102
RTVSPropertyOp18
 70
     1
102
RTVSPropertyOp19
 70
     1
102
RTVSPropertyOp20
 70
     1
102
RTVSPropertyOp21
 70
     1
102
RTVSPropertyOp22
 70
     1
102
RTVSPropertyOp23
 70
     1
102
RTVSPropertyOp24
 70
     1
102
RTVSPropertyOp25
 70
     1
102
RTVSPropertyOp26
 70
     1
102
RTVSPropertyOp27
 70
     1
102
RTVSPropertyOp28
 70
     1
102
RTVSPropertyOp29
 70
     1
102
RTVSPropertyOp30
 70
     1
102
RTVSPropertyOp31
 70
     1
102
RTVSPropertyOp32
 70
     1
  0
XRECORD
  5
14F
102
{ACAD_REACTORS
330
14E
102
}
330
14E
100
AcDbXrecord
280
     1
102
RTVSPropertyOp0
 70
     1
102
RTVSPropertyOp1
 70
     1
102
RTVSPropertyOp2
 70
     1
102
RTVSPropertyOp3
 70
     1
102
RTVSPropertyOp4
 70
     1
102
RTVSPropertyOp5
 70
     1
102
RTVSPropertyOp6
 70
     1
102
RTVSPropertyOp7
 70
     1
102
RTVSPropertyOp8
 70
     1
102
RTVSPropertyOp9
 70
     1
102
RTVSPropertyOp10
 70
     1
102
RTVSPropertyOp11
 70
     1
102
RTVSPropertyOp12
 70
     1
102
RTVSPropertyOp13
 70
     1
102
RTVSPropertyOp14
 70
     1
102
RTVSPropertyOp15
 70
     1
102
RTVSPropertyOp16
 70
     1
102
RTVSPropertyOp17
 70
     1
102
RTVSPropertyOp18
 70
     1
102
RTVSPropertyOp19
 70
     1
102
RTVSPropertyOp20
 70
     1
102
RTVSPropertyOp21
 70
     1
102
RTVSPropertyOp22
 70
     1
102
RTVSPropertyOp23
 70
     1
102
RTVSPropertyOp24
 70
     1
102
RTVSPropertyOp25
 70
     1
102
RTVSPropertyOp26
 70
     1
102
RTVSPropertyOp27
 70
     1
102
RTVSPropertyOp28
 70
     1
102
RTVSPropertyOp29
 70
     1
102
RTVSPropertyOp30
 70
     1
102
RTVSPropertyOp31
 70
     1
102
RTVSPropertyOp32
 70
     1
  0
XRECORD
  5
157
102
{ACAD_REACTORS
330
156
102
}
330
156
100
AcDbXrecord
280
     1
102
RTVSPropertyOp0
 70
     1
102
RTVSPropertyOp1
 70
     1
102
RTVSPropertyOp2
 70
     1
102
RTVSPropertyOp3
 70
     1
102
RTVSPropertyOp4
 70
     1
102
RTVSPropertyOp5
 70
     1
102
RTVSPropertyOp6
 70
     1
102
RTVSPropertyOp7
 70
     1
102
RTVSPropertyOp8
 70
     1
102
RTVSPropertyOp9
 70
     1
102
RTVSPropertyOp10
 70
     1
102
RTVSPropertyOp11
 70
     1
102
RTVSPropertyOp12
 70
     1
102
RTVSPropertyOp13
 70
     1
102
RTVSPropertyOp14
 70
     1
102
RTVSPropertyOp15
 70
     1
102
RTVSPropertyOp16
 70
     1
102
RTVSPropertyOp17
 70
     1
102
RTVSPropertyOp18
 70
     1
102
RTVSPropertyOp19
 70
     1
102
RTVSPropertyOp20
 70
     1
102
RTVSPropertyOp21
 70
     1
102
RTVSPropertyOp22
 70
     1
102
RTVSPropertyOp23
 70
     1
102
RTVSPropertyOp24
 70
     1
102
RTVSPropertyOp25
 70
     1
102
RTVSPropertyOp26
 70
     1
102
RTVSPropertyOp27
 70
     1
102
RTVSPropertyOp28
 70
     1
102
RTVSPropertyOp29
 70
     1
102
RTVSPropertyOp30
 70
     1
102
RTVSPropertyOp31
 70
     1
102
RTVSPropertyOp32
 70
     1
  0
XRECORD
  5
14B
102
{ACAD_REACTORS
330
14A
102
}
330
14A
100
AcDbXrecord
280
     1
102
RTVSPropertyOp0
 70
     1
102
RTVSPropertyOp1
 70
     1
102
RTVSPropertyOp2
 70
     1
102
RTVSPropertyOp3
 70
     1
102
RTVSPropertyOp4
 70
     1
102
RTVSPropertyOp5
 70
     1
102
RTVSPropertyOp6
 70
     1
102
RTVSPropertyOp7
 70
     1
102
RTVSPropertyOp8
 70
     1
102
RTVSPropertyOp9
 70
     1
102
RTVSPropertyOp10
 70
     1
102
RTVSPropertyOp11
 70
     1
102
RTVSPropertyOp12
 70
     1
102
RTVSPropertyOp13
 70
     1
102
RTVSPropertyOp14
 70
     1
102
RTVSPropertyOp15
 70
     1
102
RTVSPropertyOp16
 70
     1
102
RTVSPropertyOp17
 70
     1
102
RTVSPropertyOp18
 70
     1
102
RTVSPropertyOp19
 70
     1
102
RTVSPropertyOp20
 70
     1
102
RTVSPropertyOp21
 70
     1
102
RTVSPropertyOp22
 70
     1
102
RTVSPropertyOp23
 70
     1
102
RTVSPropertyOp24
 70
     1
102
RTVSPropertyOp25
 70
     1
102
RTVSPropertyOp26
 70
     1
102
RTVSPropertyOp27
 70
     1
102
RTVSPropertyOp28
 70
     1
102
RTVSPropertyOp29
 70
     1
102
RTVSPropertyOp30
 70
     1
102
RTVSPropertyOp31
 70
     1
102
RTVSPropertyOp32
 70
     1
  0
XRECORD
  5
14D
102
{ACAD_REACTORS
330
14C
102
}
330
14C
100
AcDbXrecord
280
     1
102
RTVSPropertyOp0
 70
     1
102
RTVSPropertyOp1
 70
     1
102
RTVSPropertyOp2
 70
     1
102
RTVSPropertyOp3
 70
     1
102
RTVSPropertyOp4
 70
     1
102
RTVSPropertyOp5
 70
     1
102
RTVSPropertyOp6
 70
     1
102
RTVSPropertyOp7
 70
     1
102
RTVSPropertyOp8
 70
     1
102
RTVSPropertyOp9
 70
     1
102
RTVSPropertyOp10
 70
     1
102
RTVSPropertyOp11
 70
     1
102
RTVSPropertyOp12
 70
     1
102
RTVSPropertyOp13
 70
     1
102
RTVSPropertyOp14
 70
     1
102
RTVSPropertyOp15
 70
     1
102
RTVSPropertyOp16
 70
     1
102
RTVSPropertyOp17
 70
     1
102
RTVSPropertyOp18
 70
     1
102
RTVSPropertyOp19
 70
     1
102
RTVSPropertyOp20
 70
     1
102
RTVSPropertyOp21
 70
     1
102
RTVSPropertyOp22
 70
     1
102
RTVSPropertyOp23
 70
     1
102
RTVSPropertyOp24
 70
     1
102
RTVSPropertyOp25
 70
     1
102
RTVSPropertyOp26
 70
     1
102
RTVSPropertyOp27
 70
     1
102
RTVSPropertyOp28
 70
     1
102
RTVSPropertyOp29
 70
     1
102
RTVSPropertyOp30
 70
     1
102
RTVSPropertyOp31
 70
     1
102
RTVSPropertyOp32
 70
     1
  0
XRECORD
  5
155
102
{ACAD_REACTORS
330
154
102
}
330
154
100
AcDbXrecord
280
     1
102
RTVSPropertyOp0
 70
     1
102
RTVSPropertyOp1
 70
     1
102
RTVSPropertyOp2
 70
     1
102
RTVSPropertyOp3
 70
     1
102
RTVSPropertyOp4
 70
     1
102
RTVSPropertyOp5
 70
     1
102
RTVSPropertyOp6
 70
     1
102
RTVSPropertyOp7
 70
     1
102
RTVSPropertyOp8
 70
     1
102
RTVSPropertyOp9
 70
     1
102
RTVSPropertyOp10
 70
     1
102
RTVSPropertyOp11
 70
     1
102
RTVSPropertyOp12
 70
     1
102
RTVSPropertyOp13
 70
     1
102
RTVSPropertyOp14
 70
     1
102
RTVSPropertyOp15
 70
     1
102
RTVSPropertyOp16
 70
     1
102
RTVSPropertyOp17
 70
     1
102
RTVSPropertyOp18
 70
     1
102
RTVSPropertyOp19
 70
     1
102
RTVSPropertyOp20
 70
     1
102
RTVSPropertyOp21
 70
     1
102
RTVSPropertyOp22
 70
     1
102
RTVSPropertyOp23
 70
     1
102
RTVSPropertyOp24
 70
     1
102
RTVSPropertyOp25
 70
     1
102
RTVSPropertyOp26
 70
     1
102
RTVSPropertyOp27
 70
     1
102
RTVSPropertyOp28
 70
     1
102
RTVSPropertyOp29
 70
     1
102
RTVSPropertyOp30
 70
     1
102
RTVSPropertyOp31
 70
     1
102
RTVSPropertyOp32
 70
     1
  0
XRECORD
  5
139
102
{ACAD_REACTORS
330
138
102
}
330
138
100
AcDbXrecord
280
     1
102
RTVSPropertyOp0
 70
     1
102
RTVSPropertyOp1
 70
     1
102
RTVSPropertyOp2
 70
     1
102
RTVSPropertyOp3
 70
     1
102
RTVSPropertyOp4
 70
     1
102
RTVSPropertyOp5
 70
     1
102
RTVSPropertyOp6
 70
     1
102
RTVSPropertyOp7
 70
     1
102
RTVSPropertyOp8
 70
     1
102
RTVSPropertyOp9
 70
     1
102
RTVSPropertyOp10
 70
     1
102
RTVSPropertyOp11
 70
     1
102
RTVSPropertyOp12
 70
     1
102
RTVSPropertyOp13
 70
     1
102
RTVSPropertyOp14
 70
     1
102
RTVSPropertyOp15
 70
     1
102
RTVSPropertyOp16
 70
     1
102
RTVSPropertyOp17
 70
     1
102
RTVSPropertyOp18
 70
     1
102
RTVSPropertyOp19
 70
     1
102
RTVSPropertyOp20
 70
     1
102
RTVSPropertyOp21
 70
     1
102
RTVSPropertyOp22
 70
     1
102
RTVSPropertyOp23
 70
     1
102
RTVSPropertyOp24
 70
     1
102
RTVSPropertyOp25
 70
     1
102
RTVSPropertyOp26
 70
     1
102
RTVSPropertyOp27
 70
     1
102
RTVSPropertyOp28
 70
     1
102
RTVSPropertyOp29
 70
     1
102
RTVSPropertyOp30
 70
     1
102
RTVSPropertyOp31
 70
     1
102
RTVSPropertyOp32
 70
     1
  0
XRECORD
  5
13B
102
{ACAD_REACTORS
330
13A
102
}
330
13A
100
AcDbXrecord
280
     1
102
RTVSPropertyOp0
 70
     1
102
RTVSPropertyOp1
 70
     1
102
RTVSPropertyOp2
 70
     1
102
RTVSPropertyOp3
 70
     1
102
RTVSPropertyOp4
 70
     1
102
RTVSPropertyOp5
 70
     1
102
RTVSPropertyOp6
 70
     1
102
RTVSPropertyOp7
 70
     1
102
RTVSPropertyOp8
 70
     1
102
RTVSPropertyOp9
 70
     1
102
RTVSPropertyOp10
 70
     1
102
RTVSPropertyOp11
 70
     1
102
RTVSPropertyOp12
 70
     1
102
RTVSPropertyOp13
 70
     1
102
RTVSPropertyOp14
 70
     1
102
RTVSPropertyOp15
 70
     1
102
RTVSPropertyOp16
 70
     1
102
RTVSPropertyOp17
 70
     1
102
RTVSPropertyOp18
 70
     1
102
RTVSPropertyOp19
 70
     1
102
RTVSPropertyOp20
 70
     1
102
RTVSPropertyOp21
 70
     1
102
RTVSPropertyOp22
 70
     1
102
RTVSPropertyOp23
 70
     1
102
RTVSPropertyOp24
 70
     1
102
RTVSPropertyOp25
 70
     1
102
RTVSPropertyOp26
 70
     1
102
RTVSPropertyOp27
 70
     1
102
RTVSPropertyOp28
 70
     1
102
RTVSPropertyOp29
 70
     1
102
RTVSPropertyOp30
 70
     1
102
RTVSPropertyOp31
 70
     1
102
RTVSPropertyOp32
 70
     1
  0
XRECORD
  5
13D
102
{ACAD_REACTORS
330
13C
102
}
330
13C
100
AcDbXrecord
280
     1
102
RTVSPropertyOp0
 70
     1
102
RTVSPropertyOp1
 70
     1
102
RTVSPropertyOp2
 70
     1
102
RTVSPropertyOp3
 70
     1
102
RTVSPropertyOp4
 70
     1
102
RTVSPropertyOp5
 70
     1
102
RTVSPropertyOp6
 70
     1
102
RTVSPropertyOp7
 70
     1
102
RTVSPropertyOp8
 70
     1
102
RTVSPropertyOp9
 70
     1
102
RTVSPropertyOp10
 70
     1
102
RTVSPropertyOp11
 70
     1
102
RTVSPropertyOp12
 70
     1
102
RTVSPropertyOp13
 70
     1
102
RTVSPropertyOp14
 70
     1
102
RTVSPropertyOp15
 70
     1
102
RTVSPropertyOp16
 70
     1
102
RTVSPropertyOp17
 70
     1
102
RTVSPropertyOp18
 70
     1
102
RTVSPropertyOp19
 70
     1
102
RTVSPropertyOp20
 70
     1
102
RTVSPropertyOp21
 70
     1
102
RTVSPropertyOp22
 70
     1
102
RTVSPropertyOp23
 70
     1
102
RTVSPropertyOp24
 70
     1
102
RTVSPropertyOp25
 70
     1
102
RTVSPropertyOp26
 70
     1
102
RTVSPropertyOp27
 70
     1
102
RTVSPropertyOp28
 70
     1
102
RTVSPropertyOp29
 70
     1
102
RTVSPropertyOp30
 70
     1
102
RTVSPropertyOp31
 70
     1
102
RTVSPropertyOp32
 70
     1
  0
XRECORD
  5
13F
102
{ACAD_REACTORS
330
13E
102
}
330
13E
100
AcDbXrecord
280
     1
102
RTVSPropertyOp0
 70
     1
102
RTVSPropertyOp1
 70
     1
102
RTVSPropertyOp2
 70
     1
102
RTVSPropertyOp3
 70
     1
102
RTVSPropertyOp4
 70
     1
102
RTVSPropertyOp5
 70
     1
102
RTVSPropertyOp6
 70
     1
102
RTVSPropertyOp7
 70
     1
102
RTVSPropertyOp8
 70
     1
102
RTVSPropertyOp9
 70
     1
102
RTVSPropertyOp10
 70
     1
102
RTVSPropertyOp11
 70
     1
102
RTVSPropertyOp12
 70
     1
102
RTVSPropertyOp13
 70
     1
102
RTVSPropertyOp14
 70
     1
102
RTVSPropertyOp15
 70
     1
102
RTVSPropertyOp16
 70
     1
102
RTVSPropertyOp17
 70
     1
102
RTVSPropertyOp18
 70
     1
102
RTVSPropertyOp19
 70
     1
102
RTVSPropertyOp20
 70
     1
102
RTVSPropertyOp21
 70
     1
102
RTVSPropertyOp22
 70
     1
102
RTVSPropertyOp23
 70
     1
102
RTVSPropertyOp24
 70
     1
102
RTVSPropertyOp25
 70
     1
102
RTVSPropertyOp26
 70
     1
102
RTVSPropertyOp27
 70
     1
102
RTVSPropertyOp28
 70
     1
102
RTVSPropertyOp29
 70
     1
102
RTVSPropertyOp30
 70
     1
102
RTVSPropertyOp31
 70
     1
102
RTVSPropertyOp32
 70
     1
  0
XRECORD
  5
153
102
{ACAD_REACTORS
330
152
102
}
330
152
100
AcDbXrecord
280
     1
102
RTVSPropertyOp0
 70
     1
102
RTVSPropertyOp1
 70
     1
102
RTVSPropertyOp2
 70
     1
102
RTVSPropertyOp3
 70
     1
102
RTVSPropertyOp4
 70
     1
102
RTVSPropertyOp5
 70
     1
102
RTVSPropertyOp6
 70
     1
102
RTVSPropertyOp7
 70
     1
102
RTVSPropertyOp8
 70
     1
102
RTVSPropertyOp9
 70
     1
102
RTVSPropertyOp10
 70
     1
102
RTVSPropertyOp11
 70
     1
102
RTVSPropertyOp12
 70
     1
102
RTVSPropertyOp13
 70
     1
102
RTVSPropertyOp14
 70
     1
102
RTVSPropertyOp15
 70
     1
102
RTVSPropertyOp16
 70
     1
102
RTVSPropertyOp17
 70
     1
102
RTVSPropertyOp18
 70
     1
102
RTVSPropertyOp19
 70
     1
102
RTVSPropertyOp20
 70
     1
102
RTVSPropertyOp21
 70
     1
102
RTVSPropertyOp22
 70
     1
102
RTVSPropertyOp23
 70
     1
102
RTVSPropertyOp24
 70
     1
102
RTVSPropertyOp25
 70
     1
102
RTVSPropertyOp26
 70
     1
102
RTVSPropertyOp27
 70
     1
102
RTVSPropertyOp28
 70
     1
102
RTVSPropertyOp29
 70
     1
102
RTVSPropertyOp30
 70
     1
102
RTVSPropertyOp31
 70
     1
102
RTVSPropertyOp32
 70
     1
  0
XRECORD
  5
149
102
{ACAD_REACTORS
330
148
102
}
330
148
100
AcDbXrecord
280
     1
102
RTVSPropertyOp0
 70
     1
102
RTVSPropertyOp1
 70
     1
102
RTVSPropertyOp2
 70
     1
102
RTVSPropertyOp3
 70
     1
102
RTVSPropertyOp4
 70
     1
102
RTVSPropertyOp5
 70
     1
102
RTVSPropertyOp6
 70
     1
102
RTVSPropertyOp7
 70
     1
102
RTVSPropertyOp8
 70
     1
102
RTVSPropertyOp9
 70
     1
102
RTVSPropertyOp10
 70
     1
102
RTVSPropertyOp11
 70
     1
102
RTVSPropertyOp12
 70
     1
102
RTVSPropertyOp13
 70
     1
102
RTVSPropertyOp14
 70
     1
102
RTVSPropertyOp15
 70
     1
102
RTVSPropertyOp16
 70
     1
102
RTVSPropertyOp17
 70
     1
102
RTVSPropertyOp18
 70
     1
102
RTVSPropertyOp19
 70
     1
102
RTVSPropertyOp20
 70
     1
102
RTVSPropertyOp21
 70
     1
102
RTVSPropertyOp22
 70
     1
102
RTVSPropertyOp23
 70
     1
102
RTVSPropertyOp24
 70
     1
102
RTVSPropertyOp25
 70
     1
102
RTVSPropertyOp26
 70
     1
102
RTVSPropertyOp27
 70
     1
102
RTVSPropertyOp28
 70
     1
102
RTVSPropertyOp29
 70
     1
102
RTVSPropertyOp30
 70
     1
102
RTVSPropertyOp31
 70
     1
102
RTVSPropertyOp32
 70
     1
  0
XRECORD
  5
151
102
{ACAD_REACTORS
330
150
102
}
330
150
100
AcDbXrecord
280
     1
102
RTVSPropertyOp0
 70
     1
102
RTVSPropertyOp1
 70
     1
102
RTVSPropertyOp2
 70
     1
102
RTVSPropertyOp3
 70
     1
102
RTVSPropertyOp4
 70
     1
102
RTVSPropertyOp5
 70
     1
102
RTVSPropertyOp6
 70
     1
102
RTVSPropertyOp7
 70
     1
102
RTVSPropertyOp8
 70
     1
102
RTVSPropertyOp9
 70
     1
102
RTVSPropertyOp10
 70
     1
102
RTVSPropertyOp11
 70
     1
102
RTVSPropertyOp12
 70
     1
102
RTVSPropertyOp13
 70
     1
102
RTVSPropertyOp14
 70
     1
102
RTVSPropertyOp15
 70
     1
102
RTVSPropertyOp16
 70
     1
102
RTVSPropertyOp17
 70
     1
102
RTVSPropertyOp18
 70
     1
102
RTVSPropertyOp19
 70
     1
102
RTVSPropertyOp20
 70
     1
102
RTVSPropertyOp21
 70
     1
102
RTVSPropertyOp22
 70
     1
102
RTVSPropertyOp23
 70
     1
102
RTVSPropertyOp24
 70
     1
102
RTVSPropertyOp25
 70
     1
102
RTVSPropertyOp26
 70
     1
102
RTVSPropertyOp27
 70
     1
102
RTVSPropertyOp28
 70
     1
102
RTVSPropertyOp29
 70
     1
102
RTVSPropertyOp30
 70
     1
102
RTVSPropertyOp31
 70
     1
102
RTVSPropertyOp32
 70
     1
  0
ENDSEC
  0
EOF
