  0
SECTION
  2
HEADER
  9
$ACADVER
  1
AC1021
  9
$ACADMAINTVER
 70
    25
  9
$DWGCODEPAGE
  3
ANSI_1256
  9
$INSBASE
 10
0.0
 20
0.0
 30
0.0
  9
$EXTMIN
 10
-187.4871
 20
-114.9865
 30
0.0
  9
$EXTMAX
 10
2.7839
 20
131.8041
 30
0.0
  9
$LIMMIN
 10
0.0
 20
0.0
  9
$LIMMAX
 10
12.0
 20
9.0
  9
$ORTHOMODE
 70
     0
  9
$REGENMODE
 70
     1
  9
$FILLMODE
 70
     1
  9
$QTEXTMODE
 70
     0
  9
$MIRRTEXT
 70
     1
  9
$LTSCALE
 40
1.0
  9
$ATTMODE
 70
     1
  9
$TEXTSIZE
 40
0.2
  9
$TRACEWID
 40
0.05
  9
$TEXTSTYLE
  7
Standard
  9
$CLAYER
  8
0
  9
$CELTYPE
  6
ByLayer
  9
$CECOLOR
 62
   256
  9
$CELTSCALE
 40
1.0
  9
$DISPSILH
 70
     0
  9
$DIMSCALE
 40
1.0
  9
$DIMASZ
 40
0.18
  9
$DIMEXO
 40
0.0625
  9
$DIMDLI
 40
0.38
  9
$DIMRND
 40
0.0
  9
$DIMDLE
 40
0.0
  9
$DIMEXE
 40
0.18
  9
$DIMTP
 40
0.0
  9
$DIMTM
 40
0.0
  9
$DIMTXT
 40
0.18
  9
$DIMCEN
 40
0.09
  9
$DIMTSZ
 40
0.0
  9
$DIMTOL
 70
     0
  9
$DIMLIM
 70
     0
  9
$DIMTIH
 70
     1
  9
$DIMTOH
 70
     1
  9
$DIMSE1
 70
     0
  9
$DIMSE2
 70
     0
  9
$DIMTAD
 70
     0
  9
$DIMZIN
 70
     0
  9
$DIMBLK
  1

  9
$DIMASO
 70
     1
  9
$DIMSHO
 70
     1
  9
$DIMPOST
  1

  9
$DIMAPOST
  1

  9
$DIMALT
 70
     0
  9
$DIMALTD
 70
     2
  9
$DIMALTF
 40
25.4
  9
$DIMLFAC
 40
1.0
  9
$DIMTOFL
 70
     0
  9
$DIMTVP
 40
0.0
  9
$DIMTIX
 70
     0
  9
$DIMSOXD
 70
     0
  9
$DIMSAH
 70
     0
  9
$DIMBLK1
  1

  9
$DIMBLK2
  1

  9
$DIMSTYLE
  2
Standard
  9
$DIMCLRD
 70
     0
  9
$DIMCLRE
 70
     0
  9
$DIMCLRT
 70
     0
  9
$DIMTFAC
 40
1.0
  9
$DIMGAP
 40
0.09
  9
$DIMJUST
 70
     0
  9
$DIMSD1
 70
     0
  9
$DIMSD2
 70
     0
  9
$DIMTOLJ
 70
     1
  9
$DIMTZIN
 70
     0
  9
$DIMALTZ
 70
     0
  9
$DIMALTTZ
 70
     0
  9
$DIMUPT
 70
     0
  9
$DIMDEC
 70
     4
  9
$DIMTDEC
 70
     4
  9
$DIMALTU
 70
     2
  9
$DIMALTTD
 70
     2
  9
$DIMTXSTY
  7
Standard
  9
$DIMAUNIT
 70
     0
  9
$DIMADEC
 70
     0
  9
$DIMALTRND
 40
0.0
  9
$DIMAZIN
 70
     0
  9
$DIMDSEP
 70
    46
  9
$DIMATFIT
 70
     3
  9
$DIMFRAC
 70
     0
  9
$DIMLDRBLK
  1

  9
$DIMLUNIT
 70
     2
  9
$DIMLWD
 70
    -2
  9
$DIMLWE
 70
    -2
  9
$DIMTMOVE
 70
     0
  9
$DIMFXL
 40
1.0
  9
$DIMFXLON
 70
     0
  9
$DIMJOGANG
 40
0.7853981633974483
  9
$DIMTFILL
 70
     0
  9
$DIMTFILLCLR
 70
     0
  9
$DIMARCSYM
 70
     0
  9
$DIMLTYPE
  6

  9
$DIMLTEX1
  6

  9
$DIMLTEX2
  6

  9
$LUNITS
 70
     2
  9
$LUPREC
 70
     4
  9
$SKETCHINC
 40
0.1
  9
$FILLETRAD
 40
0.5
  9
$AUNITS
 70
     0
  9
$AUPREC
 70
     0
  9
$MENU
  1
.
  9
$ELEVATION
 40
0.0
  9
$PELEVATION
 40
0.0
  9
$THICKNESS
 40
0.0
  9
$LIMCHECK
 70
     0
  9
$CHAMFERA
 40
0.5
  9
$CHAMFERB
 40
0.5
  9
$CHAMFERC
 40
1.0
  9
$CHAMFERD
 40
0.0
  9
$SKPOLY
 70
     0
  9
$TDCREATE
 40
2458492.961460706
  9
$TDUCREATE
 40
2458492.794794039
  9
$TDUPDATE
 40
2458492.961460961
  9
$TDUUPDATE
 40
2458492.794794294
  9
$TDINDWG
 40
0.0000000116
  9
$TDUSRTIMER
 40
0.0000000116
  9
$USRTIMER
 70
     1
  9
$ANGBASE
 50
0.0
  9
$ANGDIR
 70
     0
  9
$PDMODE
 70
     0
  9
$PDSIZE
 40
0.0
  9
$PLINEWID
 40
0.0
  9
$SPLFRAME
 70
     0
  9
$SPLINETYPE
 70
     6
  9
$SPLINESEGS
 70
     8
  9
$HANDSEED
  5
10A
  9
$SURFTAB1
 70
     6
  9
$SURFTAB2
 70
     6
  9
$SURFTYPE
 70
     6
  9
$SURFU
 70
     6
  9
$SURFV
 70
     6
  9
$UCSBASE
  2

  9
$UCSNAME
  2

  9
$UCSORG
 10
0.0
 20
0.0
 30
0.0
  9
$UCSXDIR
 10
1.0
 20
0.0
 30
0.0
  9
$UCSYDIR
 10
0.0
 20
1.0
 30
0.0
  9
$UCSORTHOREF
  2

  9
$UCSORTHOVIEW
 70
     0
  9
$UCSORGTOP
 10
0.0
 20
0.0
 30
0.0
  9
$UCSORGBOTTOM
 10
0.0
 20
0.0
 30
0.0
  9
$UCSORGLEFT
 10
0.0
 20
0.0
 30
0.0
  9
$UCSORGRIGHT
 10
0.0
 20
0.0
 30
0.0
  9
$UCSORGFRONT
 10
0.0
 20
0.0
 30
0.0
  9
$UCSORGBACK
 10
0.0
 20
0.0
 30
0.0
  9
$PUCSBASE
  2

  9
$PUCSNAME
  2

  9
$PUCSORG
 10
0.0
 20
0.0
 30
0.0
  9
$PUCSXDIR
 10
1.0
 20
0.0
 30
0.0
  9
$PUCSYDIR
 10
0.0
 20
1.0
 30
0.0
  9
$PUCSORTHOREF
  2

  9
$PUCSORTHOVIEW
 70
     0
  9
$PUCSORGTOP
 10
0.0
 20
0.0
 30
0.0
  9
$PUCSORGBOTTOM
 10
0.0
 20
0.0
 30
0.0
  9
$PUCSORGLEFT
 10
0.0
 20
0.0
 30
0.0
  9
$PUCSORGRIGHT
 10
0.0
 20
0.0
 30
0.0
  9
$PUCSORGFRONT
 10
0.0
 20
0.0
 30
0.0
  9
$PUCSORGBACK
 10
0.0
 20
0.0
 30
0.0
  9
$USERI1
 70
     0
  9
$USERI2
 70
     0
  9
$USERI3
 70
     0
  9
$USERI4
 70
     0
  9
$USERI5
 70
     0
  9
$USERR1
 40
0.0
  9
$USERR2
 40
0.0
  9
$USERR3
 40
0.0
  9
$USERR4
 40
0.0
  9
$USERR5
 40
0.0
  9
$WORLDVIEW
 70
     1
  9
$SHADEDGE
 70
     3
  9
$SHADEDIF
 70
    70
  9
$TILEMODE
 70
     1
  9
$MAXACTVP
 70
    64
  9
$PINSBASE
 10
0.0
 20
0.0
 30
0.0
  9
$PLIMCHECK
 70
     0
  9
$PEXTMIN
 10
1.000000000000000E+20
 20
1.000000000000000E+20
 30
1.000000000000000E+20
  9
$PEXTMAX
 10
-1.000000000000000E+20
 20
-1.000000000000000E+20
 30
-1.000000000000000E+20
  9
$PLIMMIN
 10
0.0
 20
0.0
  9
$PLIMMAX
 10
12.0
 20
9.0
  9
$UNITMODE
 70
     0
  9
$VISRETAIN
 70
     1
  9
$PLINEGEN
 70
     0
  9
$PSLTSCALE
 70
     1
  9
$TREEDEPTH
 70
  3020
  9
$CMLSTYLE
  2
Standard
  9
$CMLJUST
 70
     0
  9
$CMLSCALE
 40
1.0
  9
$PROXYGRAPHICS
 70
     1
  9
$MEASUREMENT
 70
     0
  9
$CELWEIGHT
370
    -1
  9
$ENDCAPS
280
     0
  9
$JOINSTYLE
280
     0
  9
$LWDISPLAY
290
     0
  9
$INSUNITS
 70
     4
  9
$HYPERLINKBASE
  1

  9
$STYLESHEET
  1

  9
$XEDIT
290
     1
  9
$CEPSNTYPE
380
     0
  9
$PSTYLEMODE
290
     1
  9
$FINGERPRINTGUID
  2
{3C1CB84A-3F08-4A1D-8A65-64F30005E611}
  9
$VERSIONGUID
  2
{FAEB1C32-E019-11D5-929B-00C0DF256EC4}
  9
$EXTNAMES
290
     1
  9
$PSVPSCALE
 40
0.0
  9
$OLESTARTUP
290
     0
  9
$SORTENTS
280
   127
  9
$INDEXCTL
280
     0
  9
$HIDETEXT
280
     1
  9
$XCLIPFRAME
290
     0
  9
$HALOGAP
280
     0
  9
$OBSCOLOR
 70
   257
  9
$OBSLTYPE
280
     0
  9
$INTERSECTIONDISPLAY
280
     0
  9
$INTERSECTIONCOLOR
 70
   257
  9
$DIMASSOC
280
     2
  9
$PROJECTNAME
  1

  9
$CAMERADISPLAY
290
     0
  9
$LENSLENGTH
 40
50.0
  9
$CAMERAHEIGHT
 40
0.0
  9
$STEPSPERSEC
 40
2.0
  9
$STEPSIZE
 40
6.0
  9
$3DDWFPREC
 40
2.0
  9
$PSOLWIDTH
 40
0.25
  9
$PSOLHEIGHT
 40
4.0
  9
$LOFTANG1
 40
1.570796326794897
  9
$LOFTANG2
 40
1.570796326794897
  9
$LOFTMAG1
 40
0.0
  9
$LOFTMAG2
 40
0.0
  9
$LOFTPARAM
 70
     7
  9
$LOFTNORMALS
280
     1
  9
$LATITUDE
 40
37.795
  9
$LONGITUDE
 40
-122.394
  9
$NORTHDIRECTION
 40
0.0
  9
$TIMEZONE
 70
 -8000
  9
$LIGHTGLYPHDISPLAY
280
     1
  9
$TILEMODELIGHTSYNCH
280
     1
  9
$SOLIDHIST
280
     1
  9
$SHOWHIST
280
     1
  9
$DWFFRAME
280
     2
  9
$DGNFRAME
280
     2
  9
$REALWORLDSCALE
290
     1
  9
$INTERFERECOLOR
 62
   256
  9
$CSHADOW
280
     0
  9
$SHADOWPLANELOCATION
 40
0.0
  0
ENDSEC
  0
SECTION
  2
CLASSES
  0
CLASS
  1
ACDBDICTIONARYWDFLT
  2
AcDbDictionaryWithDefault
  3
ObjectDBX Classes
 90
        0
 91
        4
280
     0
281
     0
  0
CLASS
  1
VISUALSTYLE
  2
AcDbVisualStyle
  3
ObjectDBX Classes
 90
     4095
 91
        4
280
     0
281
     0
  0
CLASS
  1
MATERIAL
  2
AcDbMaterial
  3
ObjectDBX Classes
 90
     1153
 91
        4
280
     0
281
     0
  0
ENDSEC
  0
SECTION
  2
TABLES
  0
TABLE
  2
VPORT
  5
8
330
0
100
AcDbSymbolTable
 70
     1
  0
VPORT
  5
29
330
8
100
AcDbSymbolTableRecord
100
AcDbViewportTableRecord
  2
*Active
 70
     0
 10
0.0
 20
0.0
 11
1.0
 21
1.0
 12
10.42990654205607
 22
4.5
 13
0.0
 23
0.0
 14
0.5
 24
0.5
 15
0.5
 25
0.5
 16
0.0
 26
0.0
 36
1.0
 17
0.0
 27
0.0
 37
0.0
 40
9.0
 41
1.972972972850329
 42
50.0
 43
0.0
 44
0.0
 50
0.0
 51
0.0
 71
     0
 72
   100
 73
     1
 74
     3
 75
     0
 76
     0
 77
     0
 78
     0
281
     0
 65
     1
110
0.0
120
0.0
130
0.0
111
1.0
121
0.0
131
0.0
112
0.0
122
1.0
132
0.0
 79
     0
146
0.0
 60
     3
 61
     5
292
     1
282
     1
141
0.0
142
0.0
 63
   250
  0
ENDTAB
  0
TABLE
  2
LTYPE
  5
5
330
0
100
AcDbSymbolTable
 70
     1
  0
LTYPE
  5
14
330
5
100
AcDbSymbolTableRecord
100
AcDbLinetypeTableRecord
  2
ByBlock
 70
     0
  3

 72
    65
 73
     0
 40
0.0
  0
LTYPE
  5
15
330
5
100
AcDbSymbolTableRecord
100
AcDbLinetypeTableRecord
  2
ByLayer
 70
     0
  3

 72
    65
 73
     0
 40
0.0
  0
LTYPE
  5
16
330
5
100
AcDbSymbolTableRecord
100
AcDbLinetypeTableRecord
  2
Continuous
 70
     0
  3
Solid line
 72
    65
 73
     0
 40
0.0
  0
ENDTAB
  0
TABLE
  2
LAYER
  5
2
330
0
100
AcDbSymbolTable
 70
     3
  0
LAYER
  5
10
330
2
100
AcDbSymbolTableRecord
100
AcDbLayerTableRecord
  2
0
 70
     0
 62
     7
  6
Continuous
370
    -3
390
F
347
3E
  0
LAYER
  5
40
330
2
100
AcDbSymbolTableRecord
100
AcDbLayerTableRecord
  2
layer 1
 70
     0
 62
     7
  6
Continuous
370
    -3
390
F
347
3E
  0
LAYER
  5
E7
330
2
100
AcDbSymbolTableRecord
100
AcDbLayerTableRecord
  2
Master Guides
 70
     0
 62
     7
  6
Continuous
370
    -3
390
F
347
3E
  0
ENDTAB
  0
TABLE
  2
STYLE
  5
3
330
0
100
AcDbSymbolTable
 70
     1
  0
STYLE
  5
11
330
3
100
AcDbSymbolTableRecord
100
AcDbTextStyleTableRecord
  2
Standard
 70
     0
 40
0.0
 41
1.0
 50
0.0
 71
     0
 42
0.2
  3
txt
  4

  0
ENDTAB
  0
TABLE
  2
VIEW
  5
6
330
0
100
AcDbSymbolTable
 70
     0
  0
ENDTAB
  0
TABLE
  2
UCS
  5
7
330
0
100
AcDbSymbolTable
 70
     0
  0
ENDTAB
  0
TABLE
  2
APPID
  5
9
330
0
100
AcDbSymbolTable
 70
     2
  0
APPID
  5
12
330
9
100
AcDbSymbolTableRecord
100
AcDbRegAppTableRecord
  2
ACAD
 70
     0
  0
APPID
  5
3F
330
9
100
AcDbSymbolTableRecord
100
AcDbRegAppTableRecord
  2
ODA
 70
     0
  0
ENDTAB
  0
TABLE
  2
DIMSTYLE
  5
A
330
0
100
AcDbSymbolTable
 70
     1
100
AcDbDimStyleTable
  0
DIMSTYLE
105
27
330
A
100
AcDbSymbolTableRecord
100
AcDbDimStyleTableRecord
  2
Standard
 70
     0
178
     0
340
11
  0
ENDTAB
  0
TABLE
  2
BLOCK_RECORD
  5
1
330
0
100
AcDbSymbolTable
 70
     1
  0
BLOCK_RECORD
  5
1F
330
1
100
AcDbSymbolTableRecord
100
AcDbBlockTableRecord
  2
*Model_Space
340
22
 70
     0
280
     1
281
     0
  0
BLOCK_RECORD
  5
1B
330
1
100
AcDbSymbolTableRecord
100
AcDbBlockTableRecord
  2
*Paper_Space
340
1E
 70
     0
280
     1
281
     0
  0
BLOCK_RECORD
  5
23
330
1
100
AcDbSymbolTableRecord
100
AcDbBlockTableRecord
  2
*Paper_Space0
340
26
 70
     0
280
     1
281
     0
  0
ENDTAB
  0
ENDSEC
  0
SECTION
  2
BLOCKS
  0
BLOCK
  5
20
330
1F
100
AcDbEntity
  8
0
100
AcDbBlockBegin
  2
*Model_Space
 70
     0
 10
0.0
 20
0.0
 30
0.0
  3
*Model_Space
  1

  0
ENDBLK
  5
21
330
1F
100
AcDbEntity
  8
0
100
AcDbBlockEnd
  0
BLOCK
  5
1C
330
1B
100
AcDbEntity
 67
     1
  8
0
100
AcDbBlockBegin
  2
*Paper_Space
 70
     0
 10
0.0
 20
0.0
 30
0.0
  3
*Paper_Space
  1

  0
ENDBLK
  5
1D
330
1B
100
AcDbEntity
 67
     1
  8
0
100
AcDbBlockEnd
  0
BLOCK
  5
24
330
23
100
AcDbEntity
  8
0
100
AcDbBlockBegin
  2
*Paper_Space0
 70
     0
 10
0.0
 20
0.0
 30
0.0
  3
*Paper_Space0
  1

  0
ENDBLK
  5
25
330
23
100
AcDbEntity
  8
0
100
AcDbBlockEnd
  0
ENDSEC
  0
SECTION
  2
ENTITIES
  0
SPLINE
  5
41
330
1F
100
AcDbEntity
  8
layer 1
 62
   250
100
AcDbSpline
210
0.0
220
0.0
230
1.0
 70
    11
 71
     3
 72
    20
 73
    16
 74
     0
 42
0.0000000001
 43
0.0000000001
 12
1.0
 22
0.0
 32
0.0
 13
1.0
 23
0.0
 33
0.0
 40
0.0
 40
0.0
 40
0.0
 40
0.0
 40
0.2
 40
0.2
 40
0.2
 40
0.2
 40
0.4
 40
0.4
 40
0.4
 40
0.4
 40
0.6
 40
0.6
 40
0.6
 40
0.6
 40
1.0
 40
1.0
 40
1.0
 40
1.0
 10
-187.4871
 20
64.8407
 30
0.0
 10
-187.4871
 20
64.8407
 30
0.0
 10
-126.1633
 20
64.8407
 30
0.0
 10
-126.1633
 20
64.8407
 30
0.0
 10
-126.1633
 20
64.8407
 30
0.0
 10
-126.1633
 20
64.8407
 30
0.0
 10
-126.1633
 20
-114.9865
 30
0.0
 10
-126.1633
 20
-114.9865
 30
0.0
 10
-126.1633
 20
-114.9865
 30
0.0
 10
-126.1633
 20
-114.9865
 30
0.0
 10
-187.4871
 20
-114.9865
 30
0.0
 10
-187.4871
 20
-114.9865
 30
0.0
 10
-187.4871
 20
-114.9865
 30
0.0
 10
-187.4871
 20
-114.9865
 30
0.0
 10
-187.4871
 20
64.8407
 30
0.0
 10
-187.4871
 20
64.8407
 30
0.0
  0
SPLINE
  5
42
330
1F
100
AcDbEntity
  8
layer 1
 62
   250
100
AcDbSpline
210
0.0
220
0.0
230
1.0
 70
    11
 71
     3
 72
    20
 73
    16
 74
     0
 42
0.0000000001
 43
0.0000000001
 12
1.0
 22
0.0
 32
0.0
 13
1.0
 23
0.0
 33
0.0
 40
0.0
 40
0.0
 40
0.0
 40
0.0
 40
0.2
 40
0.2
 40
0.2
 40
0.2
 40
0.4
 40
0.4
 40
0.4
 40
0.4
 40
0.6
 40
0.6
 40
0.6
 40
0.6
 40
1.0
 40
1.0
 40
1.0
 40
1.0
 10
-187.4871
 20
131.8041
 30
0.0
 10
-187.4871
 20
131.8041
 30
0.0
 10
-126.1633
 20
131.8041
 30
0.0
 10
-126.1633
 20
131.8041
 30
0.0
 10
-126.1633
 20
131.8041
 30
0.0
 10
-126.1633
 20
131.8041
 30
0.0
 10
-126.1633
 20
70.4805
 30
0.0
 10
-126.1633
 20
70.4805
 30
0.0
 10
-126.1633
 20
70.4805
 30
0.0
 10
-126.1633
 20
70.4805
 30
0.0
 10
-187.4871
 20
70.4805
 30
0.0
 10
-187.4871
 20
70.4805
 30
0.0
 10
-187.4871
 20
70.4805
 30
0.0
 10
-187.4871
 20
70.4805
 30
0.0
 10
-187.4871
 20
131.8041
 30
0.0
 10
-187.4871
 20
131.8041
 30
0.0
  0
SPLINE
  5
43
330
1F
100
AcDbEntity
  8
layer 1
 62
     7
100
AcDbSpline
210
0.0
220
0.0
230
1.0
 70
    11
 71
     3
 72
    20
 73
    16
 74
     0
 42
0.0000000001
 43
0.0000000001
 12
1.0
 22
0.0
 32
0.0
 13
1.0
 23
0.0
 33
0.0
 40
0.0
 40
0.0
 40
0.0
 40
0.0
 40
0.2
 40
0.2
 40
0.2
 40
0.2
 40
0.4
 40
0.4
 40
0.4
 40
0.4
 40
0.6
 40
0.6
 40
0.6
 40
0.6
 40
1.0
 40
1.0
 40
1.0
 40
1.0
 10
-181.2178
 20
128.0612
 30
0.0
 10
-181.2178
 20
128.0612
 30
0.0
 10
-157.8531
 20
128.0612
 30
0.0
 10
-157.8531
 20
128.0612
 30
0.0
 10
-157.8531
 20
128.0612
 30
0.0
 10
-157.8531
 20
128.0612
 30
0.0
 10
-157.8531
 20
116.4829
 30
0.0
 10
-157.8531
 20
116.4829
 30
0.0
 10
-157.8531
 20
116.4829
 30
0.0
 10
-161.2225
 20
116.3915
 30
0.0
 10
-165.4258
 20
114.2916
 30
0.0
 10
-166.5829
 20
112.9065
 30
0.0
 10
-166.5829
 20
112.9065
 30
0.0
 10
-166.5829
 20
112.9065
 30
0.0
 10
-181.2178
 20
128.0612
 30
0.0
 10
-181.2178
 20
128.0612
 30
0.0
  0
SPLINE
  5
44
330
1F
100
AcDbEntity
  8
layer 1
 62
     7
100
AcDbSpline
210
0.0
220
0.0
230
1.0
 70
    11
 71
     3
 72
    20
 73
    16
 74
     0
 42
0.0000000001
 43
0.0000000001
 12
1.0
 22
0.0
 32
0.0
 13
1.0
 23
0.0
 33
0.0
 40
0.0
 40
0.0
 40
0.0
 40
0.0
 40
0.2
 40
0.2
 40
0.2
 40
0.2
 40
0.4
 40
0.4
 40
0.4
 40
0.4
 40
0.6
 40
0.6
 40
0.6
 40
0.6
 40
1.0
 40
1.0
 40
1.0
 40
1.0
 10
-183.6971
 20
125.626
 30
0.0
 10
-183.6971
 20
125.626
 30
0.0
 10
-183.6971
 20
102.2613
 30
0.0
 10
-183.6971
 20
102.2613
 30
0.0
 10
-183.6971
 20
102.2613
 30
0.0
 10
-183.6971
 20
102.2613
 30
0.0
 10
-172.1147
 20
102.2613
 30
0.0
 10
-172.1147
 20
102.2613
 30
0.0
 10
-172.1147
 20
102.2613
 30
0.0
 10
-172.0242
 20
105.6309
 30
0.0
 10
-169.9275
 20
109.8347
 30
0.0
 10
-168.5415
 20
110.9911
 30
0.0
 10
-168.5415
 20
110.9911
 30
0.0
 10
-168.5415
 20
110.9911
 30
0.0
 10
-183.6971
 20
125.626
 30
0.0
 10
-183.6971
 20
125.626
 30
0.0
  0
SPLINE
  5
45
330
1F
100
AcDbEntity
  8
layer 1
 62
     7
100
AcDbSpline
210
0.0
220
0.0
230
1.0
 70
    11
 71
     3
 72
    20
 73
    16
 74
     0
 42
0.0000000001
 43
0.0000000001
 12
1.0
 22
0.0
 32
0.0
 13
1.0
 23
0.0
 33
0.0
 40
0.0
 40
0.0
 40
0.0
 40
0.0
 40
0.2
 40
0.2
 40
0.2
 40
0.2
 40
0.4
 40
0.4
 40
0.4
 40
0.4
 40
0.6
 40
0.6
 40
0.6
 40
0.6
 40
1.0
 40
1.0
 40
1.0
 40
1.0
 10
-169.551
 20
102.2613
 30
0.0
 10
-169.551
 20
102.2613
 30
0.0
 10
-164.4798
 20
102.2613
 30
0.0
 10
-164.4798
 20
102.2613
 30
0.0
 10
-164.4798
 20
102.2613
 30
0.0
 10
-164.4798
 20
102.2613
 30
0.0
 10
-157.768
 20
109.1263
 30
0.0
 10
-157.768
 20
109.1263
 30
0.0
 10
-157.768
 20
109.1263
 30
0.0
 10
-157.768
 20
109.1263
 30
0.0
 10
-157.8185
 20
113.8871
 30
0.0
 10
-157.8185
 20
113.8871
 30
0.0
 10
-157.8185
 20
113.8871
 30
0.0
 10
-163.7364
 20
113.2853
 30
0.0
 10
-169.0247
 20
108.988
 30
0.0
 10
-169.551
 20
102.2613
 30
0.0
  0
SPLINE
  5
46
330
1F
100
AcDbEntity
  8
layer 1
 62
     7
100
AcDbSpline
210
0.0
220
0.0
230
1.0
 70
    11
 71
     3
 72
    20
 73
    16
 74
     0
 42
0.0000000001
 43
0.0000000001
 12
1.0
 22
0.0
 32
0.0
 13
1.0
 23
0.0
 33
0.0
 40
0.0
 40
0.0
 40
0.0
 40
0.0
 40
0.2
 40
0.2
 40
0.2
 40
0.2
 40
0.4
 40
0.4
 40
0.4
 40
0.4
 40
0.6
 40
0.6
 40
0.6
 40
0.6
 40
1.0
 40
1.0
 40
1.0
 40
1.0
 10
-144.1612
 20
102.2613
 30
0.0
 10
-144.1612
 20
102.2613
 30
0.0
 10
-149.2332
 20
102.2613
 30
0.0
 10
-149.2332
 20
102.2613
 30
0.0
 10
-149.2332
 20
102.2613
 30
0.0
 10
-149.2332
 20
102.2613
 30
0.0
 10
-155.944
 20
109.1263
 30
0.0
 10
-155.944
 20
109.1263
 30
0.0
 10
-155.944
 20
109.1263
 30
0.0
 10
-155.944
 20
109.1263
 30
0.0
 10
-155.8935
 20
113.8871
 30
0.0
 10
-155.8935
 20
113.8871
 30
0.0
 10
-155.8935
 20
113.8871
 30
0.0
 10
-149.9756
 20
113.2853
 30
0.0
 10
-144.6885
 20
108.988
 30
0.0
 10
-144.1612
 20
102.2613
 30
0.0
  0
SPLINE
  5
47
330
1F
100
AcDbEntity
  8
layer 1
 62
     7
100
AcDbSpline
210
0.0
220
0.0
230
1.0
 70
    11
 71
     3
 72
    20
 73
    16
 74
     0
 42
0.0000000001
 43
0.0000000001
 12
1.0
 22
0.0
 32
0.0
 13
1.0
 23
0.0
 33
0.0
 40
0.0
 40
0.0
 40
0.0
 40
0.0
 40
0.2
 40
0.2
 40
0.2
 40
0.2
 40
0.4
 40
0.4
 40
0.4
 40
0.4
 40
0.6
 40
0.6
 40
0.6
 40
0.6
 40
1.0
 40
1.0
 40
1.0
 40
1.0
 10
-144.1612
 20
100.1334
 30
0.0
 10
-144.1612
 20
100.1334
 30
0.0
 10
-149.2332
 20
100.1334
 30
0.0
 10
-149.2332
 20
100.1334
 30
0.0
 10
-149.2332
 20
100.1334
 30
0.0
 10
-149.2332
 20
100.1334
 30
0.0
 10
-155.944
 20
93.2686
 30
0.0
 10
-155.944
 20
93.2686
 30
0.0
 10
-155.944
 20
93.2686
 30
0.0
 10
-155.944
 20
93.2686
 30
0.0
 10
-155.8935
 20
88.5067
 30
0.0
 10
-155.8935
 20
88.5067
 30
0.0
 10
-155.8935
 20
88.5067
 30
0.0
 10
-149.9756
 20
89.1088
 30
0.0
 10
-144.6885
 20
93.4096
 30
0.0
 10
-144.1612
 20
100.1334
 30
0.0
  0
SPLINE
  5
48
330
1F
100
AcDbEntity
  8
layer 1
 62
     7
100
AcDbSpline
210
0.0
220
0.0
230
1.0
 70
    11
 71
     3
 72
    20
 73
    16
 74
     0
 42
0.0000000001
 43
0.0000000001
 12
1.0
 22
0.0
 32
0.0
 13
1.0
 23
0.0
 33
0.0
 40
0.0
 40
0.0
 40
0.0
 40
0.0
 40
0.2
 40
0.2
 40
0.2
 40
0.2
 40
0.4
 40
0.4
 40
0.4
 40
0.4
 40
0.6
 40
0.6
 40
0.6
 40
0.6
 40
1.0
 40
1.0
 40
1.0
 40
1.0
 10
-169.551
 20
100.1334
 30
0.0
 10
-169.551
 20
100.1334
 30
0.0
 10
-164.4798
 20
100.1334
 30
0.0
 10
-164.4798
 20
100.1334
 30
0.0
 10
-164.4798
 20
100.1334
 30
0.0
 10
-164.4798
 20
100.1334
 30
0.0
 10
-157.768
 20
93.2686
 30
0.0
 10
-157.768
 20
93.2686
 30
0.0
 10
-157.768
 20
93.2686
 30
0.0
 10
-157.768
 20
93.2686
 30
0.0
 10
-157.8185
 20
88.5067
 30
0.0
 10
-157.8185
 20
88.5067
 30
0.0
 10
-157.8185
 20
88.5067
 30
0.0
 10
-163.7364
 20
89.1088
 30
0.0
 10
-169.0247
 20
93.4096
 30
0.0
 10
-169.551
 20
100.1334
 30
0.0
  0
SPLINE
  5
49
330
1F
100
AcDbEntity
  8
layer 1
 62
     7
100
AcDbSpline
210
0.0
220
0.0
230
1.0
 70
    11
 71
     3
 72
    20
 73
    16
 74
     0
 42
0.0000000001
 43
0.0000000001
 12
1.0
 22
0.0
 32
0.0
 13
1.0
 23
0.0
 33
0.0
 40
0.0
 40
0.0
 40
0.0
 40
0.0
 40
0.2
 40
0.2
 40
0.2
 40
0.2
 40
0.4
 40
0.4
 40
0.4
 40
0.4
 40
0.6
 40
0.6
 40
0.6
 40
0.6
 40
1.0
 40
1.0
 40
1.0
 40
1.0
 10
-132.4913
 20
128.0612
 30
0.0
 10
-132.4913
 20
128.0612
 30
0.0
 10
-155.8567
 20
128.0612
 30
0.0
 10
-155.8567
 20
128.0612
 30
0.0
 10
-155.8567
 20
128.0612
 30
0.0
 10
-155.8567
 20
128.0612
 30
0.0
 10
-155.8567
 20
116.4829
 30
0.0
 10
-155.8567
 20
116.4829
 30
0.0
 10
-155.8567
 20
116.4829
 30
0.0
 10
-152.4864
 20
116.3915
 30
0.0
 10
-148.2865
 20
114.2916
 30
0.0
 10
-147.1271
 20
112.9065
 30
0.0
 10
-147.1271
 20
112.9065
 30
0.0
 10
-147.1271
 20
112.9065
 30
0.0
 10
-132.4913
 20
128.0612
 30
0.0
 10
-132.4913
 20
128.0612
 30
0.0
  0
SPLINE
  5
4A
330
1F
100
AcDbEntity
  8
layer 1
 62
     7
100
AcDbSpline
210
0.0
220
0.0
230
1.0
 70
    11
 71
     3
 72
    20
 73
    16
 74
     0
 42
0.0000000001
 43
0.0000000001
 12
1.0
 22
0.0
 32
0.0
 13
1.0
 23
0.0
 33
0.0
 40
0.0
 40
0.0
 40
0.0
 40
0.0
 40
0.2
 40
0.2
 40
0.2
 40
0.2
 40
0.4
 40
0.4
 40
0.4
 40
0.4
 40
0.6
 40
0.6
 40
0.6
 40
0.6
 40
1.0
 40
1.0
 40
1.0
 40
1.0
 10
-130.0126
 20
125.626
 30
0.0
 10
-130.0126
 20
125.626
 30
0.0
 10
-130.0126
 20
102.2613
 30
0.0
 10
-130.0126
 20
102.2613
 30
0.0
 10
-130.0126
 20
102.2613
 30
0.0
 10
-130.0126
 20
102.2613
 30
0.0
 10
-141.5941
 20
102.2613
 30
0.0
 10
-141.5941
 20
102.2613
 30
0.0
 10
-141.5941
 20
102.2613
 30
0.0
 10
-141.6849
 20
105.6309
 30
0.0
 10
-143.7857
 20
109.8347
 30
0.0
 10
-145.1675
 20
110.9911
 30
0.0
 10
-145.1675
 20
110.9911
 30
0.0
 10
-145.1675
 20
110.9911
 30
0.0
 10
-130.0126
 20
125.626
 30
0.0
 10
-130.0126
 20
125.626
 30
0.0
  0
SPLINE
  5
4B
330
1F
100
AcDbEntity
  8
layer 1
 62
     7
100
AcDbSpline
210
0.0
220
0.0
230
1.0
 70
    11
 71
     3
 72
    20
 73
    16
 74
     0
 42
0.0000000001
 43
0.0000000001
 12
1.0
 22
0.0
 32
0.0
 13
1.0
 23
0.0
 33
0.0
 40
0.0
 40
0.0
 40
0.0
 40
0.0
 40
0.2
 40
0.2
 40
0.2
 40
0.2
 40
0.4
 40
0.4
 40
0.4
 40
0.4
 40
0.6
 40
0.6
 40
0.6
 40
0.6
 40
1.0
 40
1.0
 40
1.0
 40
1.0
 10
-181.2178
 20
74.27
 30
0.0
 10
-181.2178
 20
74.27
 30
0.0
 10
-157.8531
 20
74.27
 30
0.0
 10
-157.8531
 20
74.27
 30
0.0
 10
-157.8531
 20
74.27
 30
0.0
 10
-157.8531
 20
74.27
 30
0.0
 10
-157.8531
 20
85.8524
 30
0.0
 10
-157.8531
 20
85.8524
 30
0.0
 10
-157.8531
 20
85.8524
 30
0.0
 10
-161.2225
 20
85.9429
 30
0.0
 10
-165.4258
 20
88.0397
 30
0.0
 10
-166.5829
 20
89.4256
 30
0.0
 10
-166.5829
 20
89.4256
 30
0.0
 10
-166.5829
 20
89.4256
 30
0.0
 10
-181.2178
 20
74.27
 30
0.0
 10
-181.2178
 20
74.27
 30
0.0
  0
SPLINE
  5
4C
330
1F
100
AcDbEntity
  8
layer 1
 62
     7
100
AcDbSpline
210
0.0
220
0.0
230
1.0
 70
    11
 71
     3
 72
    20
 73
    16
 74
     0
 42
0.0000000001
 43
0.0000000001
 12
1.0
 22
0.0
 32
0.0
 13
1.0
 23
0.0
 33
0.0
 40
0.0
 40
0.0
 40
0.0
 40
0.0
 40
0.2
 40
0.2
 40
0.2
 40
0.2
 40
0.4
 40
0.4
 40
0.4
 40
0.4
 40
0.6
 40
0.6
 40
0.6
 40
0.6
 40
1.0
 40
1.0
 40
1.0
 40
1.0
 10
-183.6971
 20
76.7055
 30
0.0
 10
-183.6971
 20
76.7055
 30
0.0
 10
-183.6971
 20
100.0731
 30
0.0
 10
-183.6971
 20
100.0731
 30
0.0
 10
-183.6971
 20
100.0731
 30
0.0
 10
-183.6971
 20
100.0731
 30
0.0
 10
-172.1147
 20
100.0731
 30
0.0
 10
-172.1147
 20
100.0731
 30
0.0
 10
-172.1147
 20
100.0731
 30
0.0
 10
-172.0242
 20
96.7037
 30
0.0
 10
-169.9275
 20
92.5005
 30
0.0
 10
-168.5415
 20
91.3411
 30
0.0
 10
-168.5415
 20
91.3411
 30
0.0
 10
-168.5415
 20
91.3411
 30
0.0
 10
-183.6971
 20
76.7055
 30
0.0
 10
-183.6971
 20
76.7055
 30
0.0
  0
SPLINE
  5
4D
330
1F
100
AcDbEntity
  8
layer 1
 62
     7
100
AcDbSpline
210
0.0
220
0.0
230
1.0
 70
    11
 71
     3
 72
    20
 73
    16
 74
     0
 42
0.0000000001
 43
0.0000000001
 12
1.0
 22
0.0
 32
0.0
 13
1.0
 23
0.0
 33
0.0
 40
0.0
 40
0.0
 40
0.0
 40
0.0
 40
0.2
 40
0.2
 40
0.2
 40
0.2
 40
0.4
 40
0.4
 40
0.4
 40
0.4
 40
0.6
 40
0.6
 40
0.6
 40
0.6
 40
1.0
 40
1.0
 40
1.0
 40
1.0
 10
-132.4913
 20
74.27
 30
0.0
 10
-132.4913
 20
74.27
 30
0.0
 10
-155.8567
 20
74.27
 30
0.0
 10
-155.8567
 20
74.27
 30
0.0
 10
-155.8567
 20
74.27
 30
0.0
 10
-155.8567
 20
74.27
 30
0.0
 10
-155.8567
 20
85.8524
 30
0.0
 10
-155.8567
 20
85.8524
 30
0.0
 10
-155.8567
 20
85.8524
 30
0.0
 10
-152.4864
 20
85.9429
 30
0.0
 10
-148.2865
 20
88.0397
 30
0.0
 10
-147.1271
 20
89.4256
 30
0.0
 10
-147.1271
 20
89.4256
 30
0.0
 10
-147.1271
 20
89.4256
 30
0.0
 10
-132.4913
 20
74.27
 30
0.0
 10
-132.4913
 20
74.27
 30
0.0
  0
SPLINE
  5
4E
330
1F
100
AcDbEntity
  8
layer 1
 62
     7
100
AcDbSpline
210
0.0
220
0.0
230
1.0
 70
    11
 71
     3
 72
    20
 73
    16
 74
     0
 42
0.0000000001
 43
0.0000000001
 12
1.0
 22
0.0
 32
0.0
 13
1.0
 23
0.0
 33
0.0
 40
0.0
 40
0.0
 40
0.0
 40
0.0
 40
0.2
 40
0.2
 40
0.2
 40
0.2
 40
0.4
 40
0.4
 40
0.4
 40
0.4
 40
0.6
 40
0.6
 40
0.6
 40
0.6
 40
1.0
 40
1.0
 40
1.0
 40
1.0
 10
-130.0126
 20
76.7055
 30
0.0
 10
-130.0126
 20
76.7055
 30
0.0
 10
-130.0126
 20
100.0731
 30
0.0
 10
-130.0126
 20
100.0731
 30
0.0
 10
-130.0126
 20
100.0731
 30
0.0
 10
-130.0126
 20
100.0731
 30
0.0
 10
-141.5941
 20
100.0731
 30
0.0
 10
-141.5941
 20
100.0731
 30
0.0
 10
-141.5941
 20
100.0731
 30
0.0
 10
-141.6849
 20
96.7037
 30
0.0
 10
-143.7857
 20
92.5005
 30
0.0
 10
-145.1675
 20
91.3411
 30
0.0
 10
-145.1675
 20
91.3411
 30
0.0
 10
-145.1675
 20
91.3411
 30
0.0
 10
-130.0126
 20
76.7055
 30
0.0
 10
-130.0126
 20
76.7055
 30
0.0
  0
SPLINE
  5
4F
330
1F
100
AcDbEntity
  8
layer 1
 62
     7
100
AcDbSpline
210
0.0
220
0.0
230
1.0
 70
    11
 71
     3
 72
    20
 73
    16
 74
     0
 42
0.0000000001
 43
0.0000000001
 12
1.0
 22
0.0
 32
0.0
 13
1.0
 23
0.0
 33
0.0
 40
0.0
 40
0.0
 40
0.0
 40
0.0
 40
0.2
 40
0.2
 40
0.2
 40
0.2
 40
0.4
 40
0.4
 40
0.4
 40
0.4
 40
0.6
 40
0.6
 40
0.6
 40
0.6
 40
1.0
 40
1.0
 40
1.0
 40
1.0
 10
-163.0128
 20
101.123
 30
0.0
 10
-163.0128
 20
101.123
 30
0.0
 10
-156.8283
 20
107.3073
 30
0.0
 10
-156.8283
 20
107.3073
 30
0.0
 10
-156.8283
 20
107.3073
 30
0.0
 10
-156.8283
 20
107.3073
 30
0.0
 10
-150.647
 20
101.123
 30
0.0
 10
-150.647
 20
101.123
 30
0.0
 10
-150.647
 20
101.123
 30
0.0
 10
-150.647
 20
101.123
 30
0.0
 10
-156.8283
 20
94.9386
 30
0.0
 10
-156.8283
 20
94.9386
 30
0.0
 10
-156.8283
 20
94.9386
 30
0.0
 10
-156.8283
 20
94.9386
 30
0.0
 10
-163.0128
 20
101.123
 30
0.0
 10
-163.0128
 20
101.123
 30
0.0
  0
SPLINE
  5
50
330
1F
100
AcDbEntity
  8
layer 1
 62
   250
100
AcDbSpline
210
0.0
220
0.0
230
1.0
 70
    11
 71
     3
 72
    20
 73
    16
 74
     0
 42
0.0000000001
 43
0.0000000001
 12
1.0
 22
0.0
 32
0.0
 13
1.0
 23
0.0
 33
0.0
 40
0.0
 40
0.0
 40
0.0
 40
0.0
 40
0.2
 40
0.2
 40
0.2
 40
0.2
 40
0.4
 40
0.4
 40
0.4
 40
0.4
 40
0.6
 40
0.6
 40
0.6
 40
0.6
 40
1.0
 40
1.0
 40
1.0
 40
1.0
 10
-123.0521
 20
131.7905
 30
0.0
 10
-123.0521
 20
131.7905
 30
0.0
 10
-61.7668
 20
131.7905
 30
0.0
 10
-61.7668
 20
131.7905
 30
0.0
 10
-61.7668
 20
131.7905
 30
0.0
 10
-61.7668
 20
131.7905
 30
0.0
 10
-61.7668
 20
70.5054
 30
0.0
 10
-61.7668
 20
70.5054
 30
0.0
 10
-61.7668
 20
70.5054
 30
0.0
 10
-61.7668
 20
70.5054
 30
0.0
 10
-123.0519
 20
70.5054
 30
0.0
 10
-123.0519
 20
70.5054
 30
0.0
 10
-123.0519
 20
70.5054
 30
0.0
 10
-123.0519
 20
70.5054
 30
0.0
 10
-123.0521
 20
131.7905
 30
0.0
 10
-123.0521
 20
131.7905
 30
0.0
  0
SPLINE
  5
51
330
1F
100
AcDbEntity
  8
layer 1
 62
     7
100
AcDbSpline
210
0.0
220
0.0
230
1.0
 70
    11
 71
     3
 72
    20
 73
    16
 74
     0
 42
0.0000000001
 43
0.0000000001
 12
1.0
 22
0.0
 32
0.0
 13
1.0
 23
0.0
 33
0.0
 40
0.0
 40
0.0
 40
0.0
 40
0.0
 40
0.2
 40
0.2
 40
0.2
 40
0.2
 40
0.4
 40
0.4
 40
0.4
 40
0.4
 40
0.6
 40
0.6
 40
0.6
 40
0.6
 40
1.0
 40
1.0
 40
1.0
 40
1.0
 10
-106.5403
 20
128.03
 30
0.0
 10
-106.5403
 20
128.03
 30
0.0
 10
-93.4335
 20
128.03
 30
0.0
 10
-93.4335
 20
128.03
 30
0.0
 10
-93.4335
 20
128.03
 30
0.0
 10
-93.4335
 20
128.03
 30
0.0
 10
-93.4335
 20
118.1597
 30
0.0
 10
-93.4335
 20
118.1597
 30
0.0
 10
-93.4335
 20
118.1597
 30
0.0
 10
-93.4335
 20
118.1597
 30
0.0
 10
-100.7759
 20
118.1502
 30
0.0
 10
-100.7759
 20
118.1502
 30
0.0
 10
-100.7759
 20
118.1502
 30
0.0
 10
-100.7759
 20
118.1502
 30
0.0
 10
-106.5403
 20
128.03
 30
0.0
 10
-106.5403
 20
128.03
 30
0.0
  0
SPLINE
  5
52
330
1F
100
AcDbEntity
  8
layer 1
 62
     7
100
AcDbSpline
210
0.0
220
0.0
230
1.0
 70
    11
 71
     3
 72
    28
 73
    24
 74
     0
 42
0.0000000001
 43
0.0000000001
 12
1.0
 22
0.0
 32
0.0
 13
1.0
 23
0.0
 33
0.0
 40
0.0
 40
0.0
 40
0.0
 40
0.0
 40
0.1428571428571428
 40
0.1428571428571428
 40
0.1428571428571428
 40
0.1428571428571428
 40
0.2857142857142857
 40
0.2857142857142857
 40
0.2857142857142857
 40
0.2857142857142857
 40
0.4285714285714285
 40
0.4285714285714285
 40
0.4285714285714285
 40
0.4285714285714285
 40
0.5714285714285714
 40
0.5714285714285714
 40
0.5714285714285714
 40
0.5714285714285714
 40
0.7142857142857143
 40
0.7142857142857143
 40
0.7142857142857143
 40
0.7142857142857143
 40
1.0
 40
1.0
 40
1.0
 40
1.0
 10
-119.2613
 20
127.9922
 30
0.0
 10
-119.2613
 20
127.9922
 30
0.0
 10
-119.2613
 20
118.3009
 30
0.0
 10
-119.2613
 20
118.3009
 30
0.0
 10
-119.2613
 20
118.3009
 30
0.0
 10
-119.2613
 20
118.3009
 30
0.0
 10
-109.4561
 20
112.2485
 30
0.0
 10
-109.4561
 20
112.2485
 30
0.0
 10
-109.4561
 20
112.2485
 30
0.0
 10
-109.4561
 20
112.2485
 30
0.0
 10
-109.3936
 20
118.1286
 30
0.0
 10
-109.3936
 20
118.1286
 30
0.0
 10
-109.3936
 20
118.1286
 30
0.0
 10
-109.3936
 20
118.1286
 30
0.0
 10
-103.6302
 20
118.1848
 30
0.0
 10
-103.6302
 20
118.1848
 30
0.0
 10
-103.6302
 20
118.1848
 30
0.0
 10
-103.6302
 20
118.1848
 30
0.0
 10
-108.8803
 20
128.0147
 30
0.0
 10
-108.8803
 20
128.0147
 30
0.0
 10
-108.8803
 20
128.0147
 30
0.0
 10
-108.8803
 20
128.0147
 30
0.0
 10
-119.2613
 20
127.9922
 30
0.0
 10
-119.2613
 20
127.9922
 30
0.0
  0
SPLINE
  5
53
330
1F
100
AcDbEntity
  8
layer 1
 62
     7
100
AcDbSpline
210
0.0
220
0.0
230
1.0
 70
    11
 71
     3
 72
    20
 73
    16
 74
     0
 42
0.0000000001
 43
0.0000000001
 12
1.0
 22
0.0
 32
0.0
 13
1.0
 23
0.0
 33
0.0
 40
0.0
 40
0.0
 40
0.0
 40
0.0
 40
0.2
 40
0.2
 40
0.2
 40
0.2
 40
0.4
 40
0.4
 40
0.4
 40
0.4
 40
0.6
 40
0.6
 40
0.6
 40
0.6
 40
1.0
 40
1.0
 40
1.0
 40
1.0
 10
-119.3429
 20
115.5504
 30
0.0
 10
-119.3429
 20
115.5504
 30
0.0
 10
-119.3429
 20
102.4436
 30
0.0
 10
-119.3429
 20
102.4436
 30
0.0
 10
-119.3429
 20
102.4436
 30
0.0
 10
-119.3429
 20
102.4436
 30
0.0
 10
-109.472
 20
102.4436
 30
0.0
 10
-109.472
 20
102.4436
 30
0.0
 10
-109.472
 20
102.4436
 30
0.0
 10
-109.472
 20
102.4436
 30
0.0
 10
-109.4625
 20
109.7332
 30
0.0
 10
-109.4625
 20
109.7332
 30
0.0
 10
-109.4625
 20
109.7332
 30
0.0
 10
-109.4625
 20
109.7332
 30
0.0
 10
-119.3429
 20
115.5504
 30
0.0
 10
-119.3429
 20
115.5504
 30
0.0
  0
SPLINE
  5
54
330
1F
100
AcDbEntity
  8
layer 1
 62
     7
100
AcDbSpline
210
0.0
220
0.0
230
1.0
 70
    11
 71
     3
 72
    20
 73
    16
 74
     0
 42
0.0000000001
 43
0.0000000001
 12
1.0
 22
0.0
 32
0.0
 13
1.0
 23
0.0
 33
0.0
 40
0.0
 40
0.0
 40
0.0
 40
0.0
 40
0.2
 40
0.2
 40
0.2
 40
0.2
 40
0.4
 40
0.4
 40
0.4
 40
0.4
 40
0.6
 40
0.6
 40
0.6
 40
0.6
 40
1.0
 40
1.0
 40
1.0
 40
1.0
 10
-78.297
 20
128.03
 30
0.0
 10
-78.297
 20
128.03
 30
0.0
 10
-91.4038
 20
128.03
 30
0.0
 10
-91.4038
 20
128.03
 30
0.0
 10
-91.4038
 20
128.03
 30
0.0
 10
-91.4038
 20
128.03
 30
0.0
 10
-91.4038
 20
118.1597
 30
0.0
 10
-91.4038
 20
118.1597
 30
0.0
 10
-91.4038
 20
118.1597
 30
0.0
 10
-91.4038
 20
118.1597
 30
0.0
 10
-84.0636
 20
118.1502
 30
0.0
 10
-84.0636
 20
118.1502
 30
0.0
 10
-84.0636
 20
118.1502
 30
0.0
 10
-84.0636
 20
118.1502
 30
0.0
 10
-78.297
 20
128.03
 30
0.0
 10
-78.297
 20
128.03
 30
0.0
  0
SPLINE
  5
55
330
1F
100
AcDbEntity
  8
layer 1
 62
     7
100
AcDbSpline
210
0.0
220
0.0
230
1.0
 70
    11
 71
     3
 72
    28
 73
    24
 74
     0
 42
0.0000000001
 43
0.0000000001
 12
1.0
 22
0.0
 32
0.0
 13
1.0
 23
0.0
 33
0.0
 40
0.0
 40
0.0
 40
0.0
 40
0.0
 40
0.1428571428571428
 40
0.1428571428571428
 40
0.1428571428571428
 40
0.1428571428571428
 40
0.2857142857142857
 40
0.2857142857142857
 40
0.2857142857142857
 40
0.2857142857142857
 40
0.4285714285714285
 40
0.4285714285714285
 40
0.4285714285714285
 40
0.4285714285714285
 40
0.5714285714285714
 40
0.5714285714285714
 40
0.5714285714285714
 40
0.5714285714285714
 40
0.7142857142857143
 40
0.7142857142857143
 40
0.7142857142857143
 40
0.7142857142857143
 40
1.0
 40
1.0
 40
1.0
 40
1.0
 10
-65.576
 20
127.9922
 30
0.0
 10
-65.576
 20
127.9922
 30
0.0
 10
-65.576
 20
118.3009
 30
0.0
 10
-65.576
 20
118.3009
 30
0.0
 10
-65.576
 20
118.3009
 30
0.0
 10
-65.576
 20
118.3009
 30
0.0
 10
-75.3837
 20
112.2485
 30
0.0
 10
-75.3837
 20
112.2485
 30
0.0
 10
-75.3837
 20
112.2485
 30
0.0
 10
-75.3837
 20
112.2485
 30
0.0
 10
-75.443
 20
118.1286
 30
0.0
 10
-75.443
 20
118.1286
 30
0.0
 10
-75.443
 20
118.1286
 30
0.0
 10
-75.443
 20
118.1286
 30
0.0
 10
-81.2072
 20
118.1848
 30
0.0
 10
-81.2072
 20
118.1848
 30
0.0
 10
-81.2072
 20
118.1848
 30
0.0
 10
-81.2072
 20
118.1848
 30
0.0
 10
-75.957
 20
128.0147
 30
0.0
 10
-75.957
 20
128.0147
 30
0.0
 10
-75.957
 20
128.0147
 30
0.0
 10
-75.957
 20
128.0147
 30
0.0
 10
-65.576
 20
127.9922
 30
0.0
 10
-65.576
 20
127.9922
 30
0.0
  0
SPLINE
  5
56
330
1F
100
AcDbEntity
  8
layer 1
 62
     7
100
AcDbSpline
210
0.0
220
0.0
230
1.0
 70
    11
 71
     3
 72
    20
 73
    16
 74
     0
 42
0.0000000001
 43
0.0000000001
 12
1.0
 22
0.0
 32
0.0
 13
1.0
 23
0.0
 33
0.0
 40
0.0
 40
0.0
 40
0.0
 40
0.0
 40
0.2
 40
0.2
 40
0.2
 40
0.2
 40
0.4
 40
0.4
 40
0.4
 40
0.4
 40
0.6
 40
0.6
 40
0.6
 40
0.6
 40
1.0
 40
1.0
 40
1.0
 40
1.0
 10
-65.4942
 20
115.5504
 30
0.0
 10
-65.4942
 20
115.5504
 30
0.0
 10
-65.4942
 20
102.4436
 30
0.0
 10
-65.4942
 20
102.4436
 30
0.0
 10
-65.4942
 20
102.4436
 30
0.0
 10
-65.4942
 20
102.4436
 30
0.0
 10
-75.3685
 20
102.4436
 30
0.0
 10
-75.3685
 20
102.4436
 30
0.0
 10
-75.3685
 20
102.4436
 30
0.0
 10
-75.3685
 20
102.4436
 30
0.0
 10
-75.3771
 20
109.7332
 30
0.0
 10
-75.3771
 20
109.7332
 30
0.0
 10
-75.3771
 20
109.7332
 30
0.0
 10
-75.3771
 20
109.7332
 30
0.0
 10
-65.4942
 20
115.5504
 30
0.0
 10
-65.4942
 20
115.5504
 30
0.0
  0
SPLINE
  5
57
330
1F
100
AcDbEntity
  8
layer 1
 62
     7
100
AcDbSpline
210
0.0
220
0.0
230
1.0
 70
    11
 71
     3
 72
    20
 73
    16
 74
     0
 42
0.0000000001
 43
0.0000000001
 12
1.0
 22
0.0
 32
0.0
 13
1.0
 23
0.0
 33
0.0
 40
0.0
 40
0.0
 40
0.0
 40
0.0
 40
0.2
 40
0.2
 40
0.2
 40
0.2
 40
0.4
 40
0.4
 40
0.4
 40
0.4
 40
0.6
 40
0.6
 40
0.6
 40
0.6
 40
1.0
 40
1.0
 40
1.0
 40
1.0
 10
-106.521
 20
74.266
 30
0.0
 10
-106.521
 20
74.266
 30
0.0
 10
-93.4149
 20
74.266
 30
0.0
 10
-93.4149
 20
74.266
 30
0.0
 10
-93.4149
 20
74.266
 30
0.0
 10
-93.4149
 20
74.266
 30
0.0
 10
-93.4149
 20
84.1369
 30
0.0
 10
-93.4149
 20
84.1369
 30
0.0
 10
-93.4149
 20
84.1369
 30
0.0
 10
-93.4149
 20
84.1369
 30
0.0
 10
-100.7543
 20
84.1466
 30
0.0
 10
-100.7543
 20
84.1466
 30
0.0
 10
-100.7543
 20
84.1466
 30
0.0
 10
-100.7543
 20
84.1466
 30
0.0
 10
-106.521
 20
74.266
 30
0.0
 10
-106.521
 20
74.266
 30
0.0
  0
SPLINE
  5
58
330
1F
100
AcDbEntity
  8
layer 1
 62
     7
100
AcDbSpline
210
0.0
220
0.0
230
1.0
 70
    11
 71
     3
 72
    28
 73
    24
 74
     0
 42
0.0000000001
 43
0.0000000001
 12
1.0
 22
0.0
 32
0.0
 13
1.0
 23
0.0
 33
0.0
 40
0.0
 40
0.0
 40
0.0
 40
0.0
 40
0.1428571428571428
 40
0.1428571428571428
 40
0.1428571428571428
 40
0.1428571428571428
 40
0.2857142857142857
 40
0.2857142857142857
 40
0.2857142857142857
 40
0.2857142857142857
 40
0.4285714285714285
 40
0.4285714285714285
 40
0.4285714285714285
 40
0.4285714285714285
 40
0.5714285714285714
 40
0.5714285714285714
 40
0.5714285714285714
 40
0.5714285714285714
 40
0.7142857142857143
 40
0.7142857142857143
 40
0.7142857142857143
 40
0.7142857142857143
 40
1.0
 40
1.0
 40
1.0
 40
1.0
 10
-119.2429
 20
74.3069
 30
0.0
 10
-119.2429
 20
74.3069
 30
0.0
 10
-119.2429
 20
83.9959
 30
0.0
 10
-119.2429
 20
83.9959
 30
0.0
 10
-119.2429
 20
83.9959
 30
0.0
 10
-119.2429
 20
83.9959
 30
0.0
 10
-109.4345
 20
90.0478
 30
0.0
 10
-109.4345
 20
90.0478
 30
0.0
 10
-109.4345
 20
90.0478
 30
0.0
 10
-109.4345
 20
90.0478
 30
0.0
 10
-109.372
 20
84.1682
 30
0.0
 10
-109.372
 20
84.1682
 30
0.0
 10
-109.372
 20
84.1682
 30
0.0
 10
-109.372
 20
84.1682
 30
0.0
 10
-103.6108
 20
84.1121
 30
0.0
 10
-103.6108
 20
84.1121
 30
0.0
 10
-103.6108
 20
84.1121
 30
0.0
 10
-103.6108
 20
84.1121
 30
0.0
 10
-108.8581
 20
74.2821
 30
0.0
 10
-108.8581
 20
74.2821
 30
0.0
 10
-108.8581
 20
74.2821
 30
0.0
 10
-108.8581
 20
74.2821
 30
0.0
 10
-119.2429
 20
74.3069
 30
0.0
 10
-119.2429
 20
74.3069
 30
0.0
  0
SPLINE
  5
59
330
1F
100
AcDbEntity
  8
layer 1
 62
     7
100
AcDbSpline
210
0.0
220
0.0
230
1.0
 70
    11
 71
     3
 72
    20
 73
    16
 74
     0
 42
0.0000000001
 43
0.0000000001
 12
1.0
 22
0.0
 32
0.0
 13
1.0
 23
0.0
 33
0.0
 40
0.0
 40
0.0
 40
0.0
 40
0.0
 40
0.2
 40
0.2
 40
0.2
 40
0.2
 40
0.4
 40
0.4
 40
0.4
 40
0.4
 40
0.6
 40
0.6
 40
0.6
 40
0.6
 40
1.0
 40
1.0
 40
1.0
 40
1.0
 10
-119.3207
 20
86.7465
 30
0.0
 10
-119.3207
 20
86.7465
 30
0.0
 10
-119.3207
 20
99.8533
 30
0.0
 10
-119.3207
 20
99.8533
 30
0.0
 10
-119.3207
 20
99.8533
 30
0.0
 10
-119.3207
 20
99.8533
 30
0.0
 10
-109.4504
 20
99.8533
 30
0.0
 10
-109.4504
 20
99.8533
 30
0.0
 10
-109.4504
 20
99.8533
 30
0.0
 10
-109.4504
 20
99.8533
 30
0.0
 10
-109.4407
 20
92.5636
 30
0.0
 10
-109.4407
 20
92.5636
 30
0.0
 10
-109.4407
 20
92.5636
 30
0.0
 10
-109.4407
 20
92.5636
 30
0.0
 10
-119.3207
 20
86.7465
 30
0.0
 10
-119.3207
 20
86.7465
 30
0.0
  0
SPLINE
  5
5A
330
1F
100
AcDbEntity
  8
layer 1
 62
     7
100
AcDbSpline
210
0.0
220
0.0
230
1.0
 70
    11
 71
     3
 72
    20
 73
    16
 74
     0
 42
0.0000000001
 43
0.0000000001
 12
1.0
 22
0.0
 32
0.0
 13
1.0
 23
0.0
 33
0.0
 40
0.0
 40
0.0
 40
0.0
 40
0.0
 40
0.2
 40
0.2
 40
0.2
 40
0.2
 40
0.4
 40
0.4
 40
0.4
 40
0.4
 40
0.6
 40
0.6
 40
0.6
 40
0.6
 40
1.0
 40
1.0
 40
1.0
 40
1.0
 10
-78.2786
 20
74.266
 30
0.0
 10
-78.2786
 20
74.266
 30
0.0
 10
-91.3847
 20
74.266
 30
0.0
 10
-91.3847
 20
74.266
 30
0.0
 10
-91.3847
 20
74.266
 30
0.0
 10
-91.3847
 20
74.266
 30
0.0
 10
-91.3847
 20
84.1369
 30
0.0
 10
-91.3847
 20
84.1369
 30
0.0
 10
-91.3847
 20
84.1369
 30
0.0
 10
-91.3847
 20
84.1369
 30
0.0
 10
-84.0421
 20
84.1466
 30
0.0
 10
-84.0421
 20
84.1466
 30
0.0
 10
-84.0421
 20
84.1466
 30
0.0
 10
-84.0421
 20
84.1466
 30
0.0
 10
-78.2786
 20
74.266
 30
0.0
 10
-78.2786
 20
74.266
 30
0.0
  0
SPLINE
  5
5B
330
1F
100
AcDbEntity
  8
layer 1
 62
     7
100
AcDbSpline
210
0.0
220
0.0
230
1.0
 70
    11
 71
     3
 72
    28
 73
    24
 74
     0
 42
0.0000000001
 43
0.0000000001
 12
1.0
 22
0.0
 32
0.0
 13
1.0
 23
0.0
 33
0.0
 40
0.0
 40
0.0
 40
0.0
 40
0.0
 40
0.1428571428571428
 40
0.1428571428571428
 40
0.1428571428571428
 40
0.1428571428571428
 40
0.2857142857142857
 40
0.2857142857142857
 40
0.2857142857142857
 40
0.2857142857142857
 40
0.4285714285714285
 40
0.4285714285714285
 40
0.4285714285714285
 40
0.4285714285714285
 40
0.5714285714285714
 40
0.5714285714285714
 40
0.5714285714285714
 40
0.5714285714285714
 40
0.7142857142857143
 40
0.7142857142857143
 40
0.7142857142857143
 40
0.7142857142857143
 40
1.0
 40
1.0
 40
1.0
 40
1.0
 10
-65.5567
 20
74.3069
 30
0.0
 10
-65.5567
 20
74.3069
 30
0.0
 10
-65.5567
 20
83.9959
 30
0.0
 10
-65.5567
 20
83.9959
 30
0.0
 10
-65.5567
 20
83.9959
 30
0.0
 10
-65.5567
 20
83.9959
 30
0.0
 10
-75.3621
 20
90.0478
 30
0.0
 10
-75.3621
 20
90.0478
 30
0.0
 10
-75.3621
 20
90.0478
 30
0.0
 10
-75.3621
 20
90.0478
 30
0.0
 10
-75.4246
 20
84.1682
 30
0.0
 10
-75.4246
 20
84.1682
 30
0.0
 10
-75.4246
 20
84.1682
 30
0.0
 10
-75.4246
 20
84.1682
 30
0.0
 10
-81.1881
 20
84.1121
 30
0.0
 10
-81.1881
 20
84.1121
 30
0.0
 10
-81.1881
 20
84.1121
 30
0.0
 10
-81.1881
 20
84.1121
 30
0.0
 10
-75.9386
 20
74.2821
 30
0.0
 10
-75.9386
 20
74.2821
 30
0.0
 10
-75.9386
 20
74.2821
 30
0.0
 10
-75.9386
 20
74.2821
 30
0.0
 10
-65.5567
 20
74.3069
 30
0.0
 10
-65.5567
 20
74.3069
 30
0.0
  0
SPLINE
  5
5C
330
1F
100
AcDbEntity
  8
layer 1
 62
     7
100
AcDbSpline
210
0.0
220
0.0
230
1.0
 70
    11
 71
     3
 72
    20
 73
    16
 74
     0
 42
0.0000000001
 43
0.0000000001
 12
1.0
 22
0.0
 32
0.0
 13
1.0
 23
0.0
 33
0.0
 40
0.0
 40
0.0
 40
0.0
 40
0.0
 40
0.2
 40
0.2
 40
0.2
 40
0.2
 40
0.4
 40
0.4
 40
0.4
 40
0.4
 40
0.6
 40
0.6
 40
0.6
 40
0.6
 40
1.0
 40
1.0
 40
1.0
 40
1.0
 10
-65.4757
 20
86.7465
 30
0.0
 10
-65.4757
 20
86.7465
 30
0.0
 10
-65.4757
 20
99.8533
 30
0.0
 10
-65.4757
 20
99.8533
 30
0.0
 10
-65.4757
 20
99.8533
 30
0.0
 10
-65.4757
 20
99.8533
 30
0.0
 10
-75.3457
 20
99.8533
 30
0.0
 10
-75.3457
 20
99.8533
 30
0.0
 10
-75.3457
 20
99.8533
 30
0.0
 10
-75.3457
 20
99.8533
 30
0.0
 10
-75.3555
 20
92.5636
 30
0.0
 10
-75.3555
 20
92.5636
 30
0.0
 10
-75.3555
 20
92.5636
 30
0.0
 10
-75.3555
 20
92.5636
 30
0.0
 10
-65.4757
 20
86.7465
 30
0.0
 10
-65.4757
 20
86.7465
 30
0.0
  0
SPLINE
  5
5D
330
1F
100
AcDbEntity
  8
layer 1
 62
     7
100
AcDbSpline
210
0.0
220
0.0
230
1.0
 70
    11
 71
     3
 72
    20
 73
    16
 74
     0
 42
0.0000000001
 43
0.0000000001
 12
1.0
 22
0.0
 32
0.0
 13
1.0
 23
0.0
 33
0.0
 40
0.0
 40
0.0
 40
0.0
 40
0.0
 40
0.2
 40
0.2
 40
0.2
 40
0.2
 40
0.4
 40
0.4
 40
0.4
 40
0.4
 40
0.6
 40
0.6
 40
0.6
 40
0.6
 40
1.0
 40
1.0
 40
1.0
 40
1.0
 10
-107.6021
 20
116.3241
 30
0.0
 10
-107.6021
 20
116.3241
 30
0.0
 10
-93.6588
 20
116.3241
 30
0.0
 10
-93.6588
 20
116.3241
 30
0.0
 10
-93.6588
 20
116.3241
 30
0.0
 10
-93.6588
 20
116.3241
 30
0.0
 10
-93.6588
 20
102.3811
 30
0.0
 10
-93.6588
 20
102.3811
 30
0.0
 10
-93.6588
 20
102.3811
 30
0.0
 10
-93.6588
 20
102.3811
 30
0.0
 10
-107.6019
 20
102.3811
 30
0.0
 10
-107.6019
 20
102.3811
 30
0.0
 10
-107.6019
 20
102.3811
 30
0.0
 10
-107.6019
 20
102.3811
 30
0.0
 10
-107.6021
 20
116.3241
 30
0.0
 10
-107.6021
 20
116.3241
 30
0.0
  0
SPLINE
  5
5E
330
1F
100
AcDbEntity
  8
layer 1
 62
     7
100
AcDbSpline
210
0.0
220
0.0
230
1.0
 70
    11
 71
     3
 72
    20
 73
    16
 74
     0
 42
0.0000000001
 43
0.0000000001
 12
1.0
 22
0.0
 32
0.0
 13
1.0
 23
0.0
 33
0.0
 40
0.0
 40
0.0
 40
0.0
 40
0.0
 40
0.2
 40
0.2
 40
0.2
 40
0.2
 40
0.4
 40
0.4
 40
0.4
 40
0.4
 40
0.6
 40
0.6
 40
0.6
 40
0.6
 40
1.0
 40
1.0
 40
1.0
 40
1.0
 10
-91.2692
 20
116.3241
 30
0.0
 10
-91.2692
 20
116.3241
 30
0.0
 10
-77.3259
 20
116.3241
 30
0.0
 10
-77.3259
 20
116.3241
 30
0.0
 10
-77.3259
 20
116.3241
 30
0.0
 10
-77.3259
 20
116.3241
 30
0.0
 10
-77.3259
 20
102.3811
 30
0.0
 10
-77.3259
 20
102.3811
 30
0.0
 10
-77.3259
 20
102.3811
 30
0.0
 10
-77.3259
 20
102.3811
 30
0.0
 10
-91.269
 20
102.3811
 30
0.0
 10
-91.269
 20
102.3811
 30
0.0
 10
-91.269
 20
102.3811
 30
0.0
 10
-91.269
 20
102.3811
 30
0.0
 10
-91.2692
 20
116.3241
 30
0.0
 10
-91.2692
 20
116.3241
 30
0.0
  0
SPLINE
  5
5F
330
1F
100
AcDbEntity
  8
layer 1
 62
     7
100
AcDbSpline
210
0.0
220
0.0
230
1.0
 70
    11
 71
     3
 72
    20
 73
    16
 74
     0
 42
0.0000000001
 43
0.0000000001
 12
1.0
 22
0.0
 32
0.0
 13
1.0
 23
0.0
 33
0.0
 40
0.0
 40
0.0
 40
0.0
 40
0.0
 40
0.2
 40
0.2
 40
0.2
 40
0.2
 40
0.4
 40
0.4
 40
0.4
 40
0.4
 40
0.6
 40
0.6
 40
0.6
 40
0.6
 40
1.0
 40
1.0
 40
1.0
 40
1.0
 10
-107.6021
 20
99.9535
 30
0.0
 10
-107.6021
 20
99.9535
 30
0.0
 10
-93.6588
 20
99.9535
 30
0.0
 10
-93.6588
 20
99.9535
 30
0.0
 10
-93.6588
 20
99.9535
 30
0.0
 10
-93.6588
 20
99.9535
 30
0.0
 10
-93.6588
 20
86.0104
 30
0.0
 10
-93.6588
 20
86.0104
 30
0.0
 10
-93.6588
 20
86.0104
 30
0.0
 10
-93.6588
 20
86.0104
 30
0.0
 10
-107.6019
 20
86.0104
 30
0.0
 10
-107.6019
 20
86.0104
 30
0.0
 10
-107.6019
 20
86.0104
 30
0.0
 10
-107.6019
 20
86.0104
 30
0.0
 10
-107.6021
 20
99.9535
 30
0.0
 10
-107.6021
 20
99.9535
 30
0.0
  0
SPLINE
  5
60
330
1F
100
AcDbEntity
  8
layer 1
 62
     7
100
AcDbSpline
210
0.0
220
0.0
230
1.0
 70
    11
 71
     3
 72
    20
 73
    16
 74
     0
 42
0.0000000001
 43
0.0000000001
 12
1.0
 22
0.0
 32
0.0
 13
1.0
 23
0.0
 33
0.0
 40
0.0
 40
0.0
 40
0.0
 40
0.0
 40
0.2
 40
0.2
 40
0.2
 40
0.2
 40
0.4
 40
0.4
 40
0.4
 40
0.4
 40
0.6
 40
0.6
 40
0.6
 40
0.6
 40
1.0
 40
1.0
 40
1.0
 40
1.0
 10
-91.2692
 20
99.9535
 30
0.0
 10
-91.2692
 20
99.9535
 30
0.0
 10
-77.3259
 20
99.9535
 30
0.0
 10
-77.3259
 20
99.9535
 30
0.0
 10
-77.3259
 20
99.9535
 30
0.0
 10
-77.3259
 20
99.9535
 30
0.0
 10
-77.3259
 20
86.0104
 30
0.0
 10
-77.3259
 20
86.0104
 30
0.0
 10
-77.3259
 20
86.0104
 30
0.0
 10
-77.3259
 20
86.0104
 30
0.0
 10
-91.269
 20
86.0104
 30
0.0
 10
-91.269
 20
86.0104
 30
0.0
 10
-91.269
 20
86.0104
 30
0.0
 10
-91.269
 20
86.0104
 30
0.0
 10
-91.2692
 20
99.9535
 30
0.0
 10
-91.2692
 20
99.9535
 30
0.0
  0
SPLINE
  5
61
330
1F
100
AcDbEntity
  8
layer 1
 62
   250
100
AcDbSpline
210
0.0
220
0.0
230
1.0
 70
    11
 71
     3
 72
    20
 73
    16
 74
     0
 42
0.0000000001
 43
0.0000000001
 12
1.0
 22
0.0
 32
0.0
 13
1.0
 23
0.0
 33
0.0
 40
0.0
 40
0.0
 40
0.0
 40
0.0
 40
0.2
 40
0.2
 40
0.2
 40
0.2
 40
0.4
 40
0.4
 40
0.4
 40
0.4
 40
0.6
 40
0.6
 40
0.6
 40
0.6
 40
1.0
 40
1.0
 40
1.0
 40
1.0
 10
-58.6555
 20
131.7908
 30
0.0
 10
-58.6555
 20
131.7908
 30
0.0
 10
2.7022
 20
131.7908
 30
0.0
 10
2.7022
 20
131.7908
 30
0.0
 10
2.7022
 20
131.7908
 30
0.0
 10
2.7022
 20
131.7908
 30
0.0
 10
2.7022
 20
70.4333
 30
0.0
 10
2.7022
 20
70.4333
 30
0.0
 10
2.7022
 20
70.4333
 30
0.0
 10
2.7022
 20
70.4333
 30
0.0
 10
-58.6555
 20
70.4333
 30
0.0
 10
-58.6555
 20
70.4333
 30
0.0
 10
-58.6555
 20
70.4333
 30
0.0
 10
-58.6555
 20
70.4333
 30
0.0
 10
-58.6555
 20
131.7908
 30
0.0
 10
-58.6555
 20
131.7908
 30
0.0
  0
SPLINE
  5
62
330
1F
100
AcDbEntity
  8
layer 1
 62
     7
100
AcDbSpline
210
0.0
220
0.0
230
1.0
 70
    11
 71
     3
 72
    24
 73
    20
 74
     0
 42
0.0000000001
 43
0.0000000001
 12
1.0
 22
0.0
 32
0.0
 13
1.0
 23
0.0
 33
0.0
 40
0.0
 40
0.0
 40
0.0
 40
0.0
 40
0.1666666666666667
 40
0.1666666666666667
 40
0.1666666666666667
 40
0.1666666666666667
 40
0.3333333333333333
 40
0.3333333333333333
 40
0.3333333333333333
 40
0.3333333333333333
 40
0.5
 40
0.5
 40
0.5
 40
0.5
 40
0.6666666666666666
 40
0.6666666666666666
 40
0.6666666666666666
 40
0.6666666666666666
 40
1.0
 40
1.0
 40
1.0
 40
1.0
 10
-33.845
 20
109.2573
 30
0.0
 10
-33.845
 20
109.2573
 30
0.0
 10
-33.858
 20
128.0463
 30
0.0
 10
-33.858
 20
128.0463
 30
0.0
 10
-33.858
 20
128.0463
 30
0.0
 10
-33.858
 20
128.0463
 30
0.0
 10
-22.0869
 20
128.0463
 30
0.0
 10
-22.0869
 20
128.0463
 30
0.0
 10
-22.0869
 20
128.0463
 30
0.0
 10
-22.0869
 20
128.0463
 30
0.0
 10
-22.0996
 20
109.2573
 30
0.0
 10
-22.0996
 20
109.2573
 30
0.0
 10
-22.0996
 20
109.2573
 30
0.0
 10
-23.6836
 20
110.3773
 30
0.0
 10
-25.7319
 20
111.0227
 30
0.0
 10
-27.9737
 20
111.0509
 30
0.0
 10
-27.9737
 20
111.0509
 30
0.0
 10
-30.2136
 20
111.0229
 30
0.0
 10
-32.261
 20
110.3773
 30
0.0
 10
-33.845
 20
109.2573
 30
0.0
  0
SPLINE
  5
63
330
1F
100
AcDbEntity
  8
layer 1
 62
     7
100
AcDbSpline
210
0.0
220
0.0
230
1.0
 70
    11
 71
     3
 72
    20
 73
    16
 74
     0
 42
0.0000000001
 43
0.0000000001
 12
1.0
 22
0.0
 32
0.0
 13
1.0
 23
0.0
 33
0.0
 40
0.0
 40
0.0
 40
0.0
 40
0.0
 40
0.2
 40
0.2
 40
0.2
 40
0.2
 40
0.4
 40
0.4
 40
0.4
 40
0.4
 40
0.6
 40
0.6
 40
0.6
 40
0.6
 40
1.0
 40
1.0
 40
1.0
 40
1.0
 10
-19.8388
 20
101.1122
 30
0.0
 10
-19.8388
 20
96.6184
 30
0.0
 10
-23.4831
 20
92.9773
 30
0.0
 10
-27.9769
 20
92.9773
 30
0.0
 10
-27.9769
 20
92.9773
 30
0.0
 10
-32.4681
 20
92.9773
 30
0.0
 10
-36.1125
 20
96.6182
 30
0.0
 10
-36.1125
 20
101.1119
 30
0.0
 10
-36.1125
 20
101.1119
 30
0.0
 10
-36.1125
 20
105.6066
 30
0.0
 10
-32.4681
 20
109.2475
 30
0.0
 10
-27.9769
 20
109.2475
 30
0.0
 10
-27.9769
 20
109.2475
 30
0.0
 10
-23.4831
 20
109.2475
 30
0.0
 10
-19.8388
 20
105.6066
 30
0.0
 10
-19.8388
 20
101.1122
 30
0.0
  0
SPLINE
  5
64
330
1F
100
AcDbEntity
  8
layer 1
 62
     7
100
AcDbSpline
210
0.0
220
0.0
230
1.0
 70
    11
 71
     3
 72
    24
 73
    20
 74
     0
 42
0.0000000001
 43
0.0000000001
 12
1.0
 22
0.0
 32
0.0
 13
1.0
 23
0.0
 33
0.0
 40
0.0
 40
0.0
 40
0.0
 40
0.0
 40
0.1666666666666667
 40
0.1666666666666667
 40
0.1666666666666667
 40
0.1666666666666667
 40
0.3333333333333333
 40
0.3333333333333333
 40
0.3333333333333333
 40
0.3333333333333333
 40
0.5
 40
0.5
 40
0.5
 40
0.5
 40
0.6666666666666666
 40
0.6666666666666666
 40
0.6666666666666666
 40
0.6666666666666666
 40
1.0
 40
1.0
 40
1.0
 40
1.0
 10
-54.9422
 20
127.9307
 30
0.0
 10
-54.9422
 20
127.9307
 30
0.0
 10
-54.9422
 20
102.4297
 30
0.0
 10
-54.9422
 20
102.4297
 30
0.0
 10
-54.9422
 20
102.4297
 30
0.0
 10
-54.9422
 20
102.4297
 30
0.0
 10
-37.9693
 20
102.4297
 30
0.0
 10
-37.9693
 20
102.4297
 30
0.0
 10
-37.9693
 20
102.4297
 30
0.0
 10
-37.9693
 20
102.4297
 30
0.0
 10
-37.9502
 20
102.8125
 30
0.0
 10
-37.7807
 20
103.4579
 30
0.0
 10
-37.7807
 20
103.4579
 30
0.0
 10
-46.2053
 20
109.2671
 30
0.0
 10
-51.3358
 20
121.1126
 30
0.0
 10
-51.2234
 20
127.9716
 30
0.0
 10
-51.2234
 20
127.9716
 30
0.0
 10
-52.9166
 20
127.9771
 30
0.0
 10
-54.9422
 20
127.9307
 30
0.0
 10
-54.9422
 20
127.9307
 30
0.0
  0
SPLINE
  5
65
330
1F
100
AcDbEntity
  8
layer 1
 62
     7
100
AcDbSpline
210
0.0
220
0.0
230
1.0
 70
    11
 71
     3
 72
    20
 73
    16
 74
     0
 42
0.0000000001
 43
0.0000000001
 12
1.0
 22
0.0
 32
0.0
 13
1.0
 23
0.0
 33
0.0
 40
0.0
 40
0.0
 40
0.0
 40
0.0
 40
0.2
 40
0.2
 40
0.2
 40
0.2
 40
0.4
 40
0.4
 40
0.4
 40
0.4
 40
0.6
 40
0.6
 40
0.6
 40
0.6
 40
1.0
 40
1.0
 40
1.0
 40
1.0
 10
-36.2633
 20
127.9716
 30
0.0
 10
-36.2633
 20
127.9716
 30
0.0
 10
-49.2411
 20
128.0342
 30
0.0
 10
-49.2411
 20
128.0342
 30
0.0
 10
-49.2411
 20
128.0342
 30
0.0
 10
-48.1805
 20
120.0466
 30
0.0
 10
-44.3138
 20
111.2018
 30
0.0
 10
-37.1753
 20
105.2397
 30
0.0
 10
-37.1753
 20
105.2397
 30
0.0
 10
-36.7306
 20
106.2466
 30
0.0
 10
-36.2633
 20
106.9047
 30
0.0
 10
-36.2633
 20
106.9047
 30
0.0
 10
-36.2633
 20
106.9047
 30
0.0
 10
-36.2633
 20
106.9047
 30
0.0
 10
-36.2633
 20
127.9716
 30
0.0
 10
-36.2633
 20
127.9716
 30
0.0
  0
SPLINE
  5
66
330
1F
100
AcDbEntity
  8
layer 1
 62
     7
100
AcDbSpline
210
0.0
220
0.0
230
1.0
 70
    11
 71
     3
 72
    24
 73
    20
 74
     0
 42
0.0000000001
 43
0.0000000001
 12
1.0
 22
0.0
 32
0.0
 13
1.0
 23
0.0
 33
0.0
 40
0.0
 40
0.0
 40
0.0
 40
0.0
 40
0.1666666666666667
 40
0.1666666666666667
 40
0.1666666666666667
 40
0.1666666666666667
 40
0.3333333333333333
 40
0.3333333333333333
 40
0.3333333333333333
 40
0.3333333333333333
 40
0.5
 40
0.5
 40
0.5
 40
0.5
 40
0.6666666666666666
 40
0.6666666666666666
 40
0.6666666666666666
 40
0.6666666666666666
 40
1.0
 40
1.0
 40
1.0
 40
1.0
 10
-1.1149
 20
127.9307
 30
0.0
 10
-1.1149
 20
127.9307
 30
0.0
 10
-1.1149
 20
102.4297
 30
0.0
 10
-1.1149
 20
102.4297
 30
0.0
 10
-1.1149
 20
102.4297
 30
0.0
 10
-1.1149
 20
102.4297
 30
0.0
 10
-18.0884
 20
102.4297
 30
0.0
 10
-18.0884
 20
102.4297
 30
0.0
 10
-18.0884
 20
102.4297
 30
0.0
 10
-18.0884
 20
102.4297
 30
0.0
 10
-18.1102
 20
102.8125
 30
0.0
 10
-18.2764
 20
103.4579
 30
0.0
 10
-18.2764
 20
103.4579
 30
0.0
 10
-9.8524
 20
109.2671
 30
0.0
 10
-4.7222
 20
121.1126
 30
0.0
 10
-4.8346
 20
127.9716
 30
0.0
 10
-4.8346
 20
127.9716
 30
0.0
 10
-3.1413
 20
127.9771
 30
0.0
 10
-1.1149
 20
127.9307
 30
0.0
 10
-1.1149
 20
127.9307
 30
0.0
  0
SPLINE
  5
67
330
1F
100
AcDbEntity
  8
layer 1
 62
     7
100
AcDbSpline
210
0.0
220
0.0
230
1.0
 70
    11
 71
     3
 72
    20
 73
    16
 74
     0
 42
0.0000000001
 43
0.0000000001
 12
1.0
 22
0.0
 32
0.0
 13
1.0
 23
0.0
 33
0.0
 40
0.0
 40
0.0
 40
0.0
 40
0.0
 40
0.2
 40
0.2
 40
0.2
 40
0.2
 40
0.4
 40
0.4
 40
0.4
 40
0.4
 40
0.6
 40
0.6
 40
0.6
 40
0.6
 40
1.0
 40
1.0
 40
1.0
 40
1.0
 10
-19.7946
 20
127.9716
 30
0.0
 10
-19.7946
 20
127.9716
 30
0.0
 10
-6.8169
 20
128.0342
 30
0.0
 10
-6.8169
 20
128.0342
 30
0.0
 10
-6.8169
 20
128.0342
 30
0.0
 10
-7.8799
 20
120.0466
 30
0.0
 10
-11.7473
 20
111.2018
 30
0.0
 10
-18.885
 20
105.2397
 30
0.0
 10
-18.885
 20
105.2397
 30
0.0
 10
-19.3274
 20
106.2466
 30
0.0
 10
-19.7946
 20
106.9047
 30
0.0
 10
-19.7946
 20
106.9047
 30
0.0
 10
-19.7946
 20
106.9047
 30
0.0
 10
-19.7946
 20
106.9047
 30
0.0
 10
-19.7946
 20
127.9716
 30
0.0
 10
-19.7946
 20
127.9716
 30
0.0
  0
SPLINE
  5
68
330
1F
100
AcDbEntity
  8
layer 1
 62
     7
100
AcDbSpline
210
0.0
220
0.0
230
1.0
 70
    11
 71
     3
 72
    24
 73
    20
 74
     0
 42
0.0000000001
 43
0.0000000001
 12
1.0
 22
0.0
 32
0.0
 13
1.0
 23
0.0
 33
0.0
 40
0.0
 40
0.0
 40
0.0
 40
0.0
 40
0.1666666666666667
 40
0.1666666666666667
 40
0.1666666666666667
 40
0.1666666666666667
 40
0.3333333333333333
 40
0.3333333333333333
 40
0.3333333333333333
 40
0.3333333333333333
 40
0.5
 40
0.5
 40
0.5
 40
0.5
 40
0.6666666666666666
 40
0.6666666666666666
 40
0.6666666666666666
 40
0.6666666666666666
 40
1.0
 40
1.0
 40
1.0
 40
1.0
 10
-54.9422
 20
74.2975
 30
0.0
 10
-54.9422
 20
74.2975
 30
0.0
 10
-54.9422
 20
99.7985
 30
0.0
 10
-54.9422
 20
99.7985
 30
0.0
 10
-54.9422
 20
99.7985
 30
0.0
 10
-54.9422
 20
99.7985
 30
0.0
 10
-37.9693
 20
99.7985
 30
0.0
 10
-37.9693
 20
99.7985
 30
0.0
 10
-37.9693
 20
99.7985
 30
0.0
 10
-37.9693
 20
99.7985
 30
0.0
 10
-37.9502
 20
99.4155
 30
0.0
 10
-37.7807
 20
98.7701
 30
0.0
 10
-37.7807
 20
98.7701
 30
0.0
 10
-46.2053
 20
92.9613
 30
0.0
 10
-51.3358
 20
81.1154
 30
0.0
 10
-51.2234
 20
74.2566
 30
0.0
 10
-51.2234
 20
74.2566
 30
0.0
 10
-52.9166
 20
74.2534
 30
0.0
 10
-54.9422
 20
74.2975
 30
0.0
 10
-54.9422
 20
74.2975
 30
0.0
  0
SPLINE
  5
69
330
1F
100
AcDbEntity
  8
layer 1
 62
     7
100
AcDbSpline
210
0.0
220
0.0
230
1.0
 70
    11
 71
     3
 72
    20
 73
    16
 74
     0
 42
0.0000000001
 43
0.0000000001
 12
1.0
 22
0.0
 32
0.0
 13
1.0
 23
0.0
 33
0.0
 40
0.0
 40
0.0
 40
0.0
 40
0.0
 40
0.2
 40
0.2
 40
0.2
 40
0.2
 40
0.4
 40
0.4
 40
0.4
 40
0.4
 40
0.6
 40
0.6
 40
0.6
 40
0.6
 40
1.0
 40
1.0
 40
1.0
 40
1.0
 10
-36.2633
 20
74.2566
 30
0.0
 10
-36.2633
 20
74.2566
 30
0.0
 10
-49.2411
 20
74.194
 30
0.0
 10
-49.2411
 20
74.194
 30
0.0
 10
-49.2411
 20
74.194
 30
0.0
 10
-48.1805
 20
82.1818
 30
0.0
 10
-44.3138
 20
91.0261
 30
0.0
 10
-37.1753
 20
96.9885
 30
0.0
 10
-37.1753
 20
96.9885
 30
0.0
 10
-36.7306
 20
95.9816
 30
0.0
 10
-36.2633
 20
95.3232
 30
0.0
 10
-36.2633
 20
95.3232
 30
0.0
 10
-36.2633
 20
95.3232
 30
0.0
 10
-36.2633
 20
95.3232
 30
0.0
 10
-36.2633
 20
74.2566
 30
0.0
 10
-36.2633
 20
74.2566
 30
0.0
  0
SPLINE
  5
6A
330
1F
100
AcDbEntity
  8
layer 1
 62
     7
100
AcDbSpline
210
0.0
220
0.0
230
1.0
 70
    11
 71
     3
 72
    24
 73
    20
 74
     0
 42
0.0000000001
 43
0.0000000001
 12
1.0
 22
0.0
 32
0.0
 13
1.0
 23
0.0
 33
0.0
 40
0.0
 40
0.0
 40
0.0
 40
0.0
 40
0.1666666666666667
 40
0.1666666666666667
 40
0.1666666666666667
 40
0.1666666666666667
 40
0.3333333333333333
 40
0.3333333333333333
 40
0.3333333333333333
 40
0.3333333333333333
 40
0.5
 40
0.5
 40
0.5
 40
0.5
 40
0.6666666666666666
 40
0.6666666666666666
 40
0.6666666666666666
 40
0.6666666666666666
 40
1.0
 40
1.0
 40
1.0
 40
1.0
 10
-22.213
 20
92.9709
 30
0.0
 10
-22.213
 20
92.9709
 30
0.0
 10
-22.2
 20
74.1819
 30
0.0
 10
-22.2
 20
74.1819
 30
0.0
 10
-22.2
 20
74.1819
 30
0.0
 10
-22.2
 20
74.1819
 30
0.0
 10
-33.9702
 20
74.1819
 30
0.0
 10
-33.9702
 20
74.1819
 30
0.0
 10
-33.9702
 20
74.1819
 30
0.0
 10
-33.9702
 20
74.1819
 30
0.0
 10
-33.9581
 20
92.9709
 30
0.0
 10
-33.9581
 20
92.9709
 30
0.0
 10
-33.9581
 20
92.9709
 30
0.0
 10
-32.3741
 20
91.8509
 30
0.0
 10
-30.326
 20
91.2053
 30
0.0
 10
-28.0868
 20
91.1764
 30
0.0
 10
-28.0868
 20
91.1764
 30
0.0
 10
-25.8444
 20
91.2053
 30
0.0
 10
-23.7963
 20
91.8507
 30
0.0
 10
-22.213
 20
92.9709
 30
0.0
  0
SPLINE
  5
6B
330
1F
100
AcDbEntity
  8
layer 1
 62
     7
100
AcDbSpline
210
0.0
220
0.0
230
1.0
 70
    11
 71
     3
 72
    24
 73
    20
 74
     0
 42
0.0000000001
 43
0.0000000001
 12
1.0
 22
0.0
 32
0.0
 13
1.0
 23
0.0
 33
0.0
 40
0.0
 40
0.0
 40
0.0
 40
0.0
 40
0.1666666666666667
 40
0.1666666666666667
 40
0.1666666666666667
 40
0.1666666666666667
 40
0.3333333333333333
 40
0.3333333333333333
 40
0.3333333333333333
 40
0.3333333333333333
 40
0.5
 40
0.5
 40
0.5
 40
0.5
 40
0.6666666666666666
 40
0.6666666666666666
 40
0.6666666666666666
 40
0.6666666666666666
 40
1.0
 40
1.0
 40
1.0
 40
1.0
 10
-1.1149
 20
74.2975
 30
0.0
 10
-1.1149
 20
74.2975
 30
0.0
 10
-1.1149
 20
99.7985
 30
0.0
 10
-1.1149
 20
99.7985
 30
0.0
 10
-1.1149
 20
99.7985
 30
0.0
 10
-1.1149
 20
99.7985
 30
0.0
 10
-18.0884
 20
99.7985
 30
0.0
 10
-18.0884
 20
99.7985
 30
0.0
 10
-18.0884
 20
99.7985
 30
0.0
 10
-18.0884
 20
99.7985
 30
0.0
 10
-18.1102
 20
99.4155
 30
0.0
 10
-18.2764
 20
98.7701
 30
0.0
 10
-18.2764
 20
98.7701
 30
0.0
 10
-9.8524
 20
92.9613
 30
0.0
 10
-4.7222
 20
81.1154
 30
0.0
 10
-4.8346
 20
74.2566
 30
0.0
 10
-4.8346
 20
74.2566
 30
0.0
 10
-3.1413
 20
74.2534
 30
0.0
 10
-1.1149
 20
74.2975
 30
0.0
 10
-1.1149
 20
74.2975
 30
0.0
  0
SPLINE
  5
6C
330
1F
100
AcDbEntity
  8
layer 1
 62
     7
100
AcDbSpline
210
0.0
220
0.0
230
1.0
 70
    11
 71
     3
 72
    20
 73
    16
 74
     0
 42
0.0000000001
 43
0.0000000001
 12
1.0
 22
0.0
 32
0.0
 13
1.0
 23
0.0
 33
0.0
 40
0.0
 40
0.0
 40
0.0
 40
0.0
 40
0.2
 40
0.2
 40
0.2
 40
0.2
 40
0.4
 40
0.4
 40
0.4
 40
0.4
 40
0.6
 40
0.6
 40
0.6
 40
0.6
 40
1.0
 40
1.0
 40
1.0
 40
1.0
 10
-19.7946
 20
74.2566
 30
0.0
 10
-19.7946
 20
74.2566
 30
0.0
 10
-6.8169
 20
74.194
 30
0.0
 10
-6.8169
 20
74.194
 30
0.0
 10
-6.8169
 20
74.194
 30
0.0
 10
-7.8799
 20
82.1818
 30
0.0
 10
-11.7473
 20
91.0261
 30
0.0
 10
-18.885
 20
96.9885
 30
0.0
 10
-18.885
 20
96.9885
 30
0.0
 10
-19.3274
 20
95.9816
 30
0.0
 10
-19.7946
 20
95.3232
 30
0.0
 10
-19.7946
 20
95.3232
 30
0.0
 10
-19.7946
 20
95.3232
 30
0.0
 10
-19.7946
 20
95.3232
 30
0.0
 10
-19.7946
 20
74.2566
 30
0.0
 10
-19.7946
 20
74.2566
 30
0.0
  0
SPLINE
  5
6D
330
1F
100
AcDbEntity
  8
layer 1
 62
   250
100
AcDbSpline
210
0.0
220
0.0
230
1.0
 70
    11
 71
     3
 72
    20
 73
    16
 74
     0
 42
0.0000000001
 43
0.0000000001
 12
1.0
 22
0.0
 32
0.0
 13
1.0
 23
0.0
 33
0.0
 40
0.0
 40
0.0
 40
0.0
 40
0.0
 40
0.2
 40
0.2
 40
0.2
 40
0.2
 40
0.4
 40
0.4
 40
0.4
 40
0.4
 40
0.6
 40
0.6
 40
0.6
 40
0.6
 40
1.0
 40
1.0
 40
1.0
 40
1.0
 10
-123.0135
 20
64.8407
 30
0.0
 10
-123.0135
 20
64.8407
 30
0.0
 10
-61.6897
 20
64.8407
 30
0.0
 10
-61.6897
 20
64.8407
 30
0.0
 10
-61.6897
 20
64.8407
 30
0.0
 10
-61.6897
 20
64.8407
 30
0.0
 10
-61.6897
 20
-114.9865
 30
0.0
 10
-61.6897
 20
-114.9865
 30
0.0
 10
-61.6897
 20
-114.9865
 30
0.0
 10
-61.6897
 20
-114.9865
 30
0.0
 10
-123.0135
 20
-114.9865
 30
0.0
 10
-123.0135
 20
-114.9865
 30
0.0
 10
-123.0135
 20
-114.9865
 30
0.0
 10
-123.0135
 20
-114.9865
 30
0.0
 10
-123.0135
 20
64.8407
 30
0.0
 10
-123.0135
 20
64.8407
 30
0.0
  0
SPLINE
  5
6E
330
1F
100
AcDbEntity
  8
layer 1
 62
   250
100
AcDbSpline
210
0.0
220
0.0
230
1.0
 70
    11
 71
     3
 72
    20
 73
    16
 74
     0
 42
0.0000000001
 43
0.0000000001
 12
1.0
 22
0.0
 32
0.0
 13
1.0
 23
0.0
 33
0.0
 40
0.0
 40
0.0
 40
0.0
 40
0.0
 40
0.2
 40
0.2
 40
0.2
 40
0.2
 40
0.4
 40
0.4
 40
0.4
 40
0.4
 40
0.6
 40
0.6
 40
0.6
 40
0.6
 40
1.0
 40
1.0
 40
1.0
 40
1.0
 10
-58.5399
 20
64.8407
 30
0.0
 10
-58.5399
 20
64.8407
 30
0.0
 10
2.7839
 20
64.8407
 30
0.0
 10
2.7839
 20
64.8407
 30
0.0
 10
2.7839
 20
64.8407
 30
0.0
 10
2.7839
 20
64.8407
 30
0.0
 10
2.7839
 20
-114.9865
 30
0.0
 10
2.7839
 20
-114.9865
 30
0.0
 10
2.7839
 20
-114.9865
 30
0.0
 10
2.7839
 20
-114.9865
 30
0.0
 10
-58.5399
 20
-114.9865
 30
0.0
 10
-58.5399
 20
-114.9865
 30
0.0
 10
-58.5399
 20
-114.9865
 30
0.0
 10
-58.5399
 20
-114.9865
 30
0.0
 10
-58.5399
 20
64.8407
 30
0.0
 10
-58.5399
 20
64.8407
 30
0.0
  0
SPLINE
  5
6F
330
1F
100
AcDbEntity
  8
layer 1
 62
     7
100
AcDbSpline
210
0.0
220
0.0
230
1.0
 70
    11
 71
     3
 72
    20
 73
    16
 74
     0
 42
0.0000000001
 43
0.0000000001
 12
1.0
 22
0.0
 32
0.0
 13
1.0
 23
0.0
 33
0.0
 40
0.0
 40
0.0
 40
0.0
 40
0.0
 40
0.2
 40
0.2
 40
0.2
 40
0.2
 40
0.4
 40
0.4
 40
0.4
 40
0.4
 40
0.6
 40
0.6
 40
0.6
 40
0.6
 40
1.0
 40
1.0
 40
1.0
 40
1.0
 10
-181.2178
 20
61.1278
 30
0.0
 10
-181.2178
 20
61.1278
 30
0.0
 10
-157.8531
 20
61.1278
 30
0.0
 10
-157.8531
 20
61.1278
 30
0.0
 10
-157.8531
 20
61.1278
 30
0.0
 10
-157.8531
 20
61.1278
 30
0.0
 10
-157.8531
 20
49.5495
 30
0.0
 10
-157.8531
 20
49.5495
 30
0.0
 10
-157.8531
 20
49.5495
 30
0.0
 10
-161.2225
 20
49.4581
 30
0.0
 10
-165.4258
 20
47.3582
 30
0.0
 10
-166.5829
 20
45.9731
 30
0.0
 10
-166.5829
 20
45.9731
 30
0.0
 10
-166.5829
 20
45.9731
 30
0.0
 10
-181.2178
 20
61.1278
 30
0.0
 10
-181.2178
 20
61.1278
 30
0.0
  0
SPLINE
  5
70
330
1F
100
AcDbEntity
  8
layer 1
 62
     7
100
AcDbSpline
210
0.0
220
0.0
230
1.0
 70
    11
 71
     3
 72
    20
 73
    16
 74
     0
 42
0.0000000001
 43
0.0000000001
 12
1.0
 22
0.0
 32
0.0
 13
1.0
 23
0.0
 33
0.0
 40
0.0
 40
0.0
 40
0.0
 40
0.0
 40
0.2
 40
0.2
 40
0.2
 40
0.2
 40
0.4
 40
0.4
 40
0.4
 40
0.4
 40
0.6
 40
0.6
 40
0.6
 40
0.6
 40
1.0
 40
1.0
 40
1.0
 40
1.0
 10
-183.6971
 20
58.6926
 30
0.0
 10
-183.6971
 20
58.6926
 30
0.0
 10
-183.6971
 20
35.3279
 30
0.0
 10
-183.6971
 20
35.3279
 30
0.0
 10
-183.6971
 20
35.3279
 30
0.0
 10
-183.6971
 20
35.3279
 30
0.0
 10
-172.1147
 20
35.3279
 30
0.0
 10
-172.1147
 20
35.3279
 30
0.0
 10
-172.1147
 20
35.3279
 30
0.0
 10
-172.0242
 20
38.6975
 30
0.0
 10
-169.9275
 20
42.9013
 30
0.0
 10
-168.5415
 20
44.0577
 30
0.0
 10
-168.5415
 20
44.0577
 30
0.0
 10
-168.5415
 20
44.0577
 30
0.0
 10
-183.6971
 20
58.6926
 30
0.0
 10
-183.6971
 20
58.6926
 30
0.0
  0
SPLINE
  5
71
330
1F
100
AcDbEntity
  8
layer 1
 62
     7
100
AcDbSpline
210
0.0
220
0.0
230
1.0
 70
    11
 71
     3
 72
    20
 73
    16
 74
     0
 42
0.0000000001
 43
0.0000000001
 12
1.0
 22
0.0
 32
0.0
 13
1.0
 23
0.0
 33
0.0
 40
0.0
 40
0.0
 40
0.0
 40
0.0
 40
0.2
 40
0.2
 40
0.2
 40
0.2
 40
0.4
 40
0.4
 40
0.4
 40
0.4
 40
0.6
 40
0.6
 40
0.6
 40
0.6
 40
1.0
 40
1.0
 40
1.0
 40
1.0
 10
-169.551
 20
35.3279
 30
0.0
 10
-169.551
 20
35.3279
 30
0.0
 10
-164.4798
 20
35.3279
 30
0.0
 10
-164.4798
 20
35.3279
 30
0.0
 10
-164.4798
 20
35.3279
 30
0.0
 10
-164.4798
 20
35.3279
 30
0.0
 10
-157.768
 20
42.1929
 30
0.0
 10
-157.768
 20
42.1929
 30
0.0
 10
-157.768
 20
42.1929
 30
0.0
 10
-157.768
 20
42.1929
 30
0.0
 10
-157.8185
 20
46.9537
 30
0.0
 10
-157.8185
 20
46.9537
 30
0.0
 10
-157.8185
 20
46.9537
 30
0.0
 10
-163.7364
 20
46.3519
 30
0.0
 10
-169.0247
 20
42.0546
 30
0.0
 10
-169.551
 20
35.3279
 30
0.0
  0
SPLINE
  5
72
330
1F
100
AcDbEntity
  8
layer 1
 62
     7
100
AcDbSpline
210
0.0
220
0.0
230
1.0
 70
    11
 71
     3
 72
    20
 73
    16
 74
     0
 42
0.0000000001
 43
0.0000000001
 12
1.0
 22
0.0
 32
0.0
 13
1.0
 23
0.0
 33
0.0
 40
0.0
 40
0.0
 40
0.0
 40
0.0
 40
0.2
 40
0.2
 40
0.2
 40
0.2
 40
0.4
 40
0.4
 40
0.4
 40
0.4
 40
0.6
 40
0.6
 40
0.6
 40
0.6
 40
1.0
 40
1.0
 40
1.0
 40
1.0
 10
-144.1612
 20
35.3279
 30
0.0
 10
-144.1612
 20
35.3279
 30
0.0
 10
-149.2332
 20
35.3279
 30
0.0
 10
-149.2332
 20
35.3279
 30
0.0
 10
-149.2332
 20
35.3279
 30
0.0
 10
-149.2332
 20
35.3279
 30
0.0
 10
-155.944
 20
42.1929
 30
0.0
 10
-155.944
 20
42.1929
 30
0.0
 10
-155.944
 20
42.1929
 30
0.0
 10
-155.944
 20
42.1929
 30
0.0
 10
-155.8935
 20
46.9537
 30
0.0
 10
-155.8935
 20
46.9537
 30
0.0
 10
-155.8935
 20
46.9537
 30
0.0
 10
-149.9756
 20
46.3519
 30
0.0
 10
-144.6885
 20
42.0546
 30
0.0
 10
-144.1612
 20
35.3279
 30
0.0
  0
SPLINE
  5
73
330
1F
100
AcDbEntity
  8
layer 1
 62
     7
100
AcDbSpline
210
0.0
220
0.0
230
1.0
 70
    11
 71
     3
 72
    20
 73
    16
 74
     0
 42
0.0000000001
 43
0.0000000001
 12
1.0
 22
0.0
 32
0.0
 13
1.0
 23
0.0
 33
0.0
 40
0.0
 40
0.0
 40
0.0
 40
0.0
 40
0.2
 40
0.2
 40
0.2
 40
0.2
 40
0.4
 40
0.4
 40
0.4
 40
0.4
 40
0.6
 40
0.6
 40
0.6
 40
0.6
 40
1.0
 40
1.0
 40
1.0
 40
1.0
 10
-144.1612
 20
33.2
 30
0.0
 10
-144.1612
 20
33.2
 30
0.0
 10
-149.2332
 20
33.2
 30
0.0
 10
-149.2332
 20
33.2
 30
0.0
 10
-149.2332
 20
33.2
 30
0.0
 10
-149.2332
 20
33.2
 30
0.0
 10
-155.944
 20
26.3352
 30
0.0
 10
-155.944
 20
26.3352
 30
0.0
 10
-155.944
 20
26.3352
 30
0.0
 10
-155.944
 20
26.3352
 30
0.0
 10
-155.8935
 20
21.5733
 30
0.0
 10
-155.8935
 20
21.5733
 30
0.0
 10
-155.8935
 20
21.5733
 30
0.0
 10
-149.9756
 20
22.1754
 30
0.0
 10
-144.6885
 20
26.4762
 30
0.0
 10
-144.1612
 20
33.2
 30
0.0
  0
SPLINE
  5
74
330
1F
100
AcDbEntity
  8
layer 1
 62
     7
100
AcDbSpline
210
0.0
220
0.0
230
1.0
 70
    11
 71
     3
 72
    20
 73
    16
 74
     0
 42
0.0000000001
 43
0.0000000001
 12
1.0
 22
0.0
 32
0.0
 13
1.0
 23
0.0
 33
0.0
 40
0.0
 40
0.0
 40
0.0
 40
0.0
 40
0.2
 40
0.2
 40
0.2
 40
0.2
 40
0.4
 40
0.4
 40
0.4
 40
0.4
 40
0.6
 40
0.6
 40
0.6
 40
0.6
 40
1.0
 40
1.0
 40
1.0
 40
1.0
 10
-169.551
 20
33.2
 30
0.0
 10
-169.551
 20
33.2
 30
0.0
 10
-164.4798
 20
33.2
 30
0.0
 10
-164.4798
 20
33.2
 30
0.0
 10
-164.4798
 20
33.2
 30
0.0
 10
-164.4798
 20
33.2
 30
0.0
 10
-157.768
 20
26.3352
 30
0.0
 10
-157.768
 20
26.3352
 30
0.0
 10
-157.768
 20
26.3352
 30
0.0
 10
-157.768
 20
26.3352
 30
0.0
 10
-157.8185
 20
21.5733
 30
0.0
 10
-157.8185
 20
21.5733
 30
0.0
 10
-157.8185
 20
21.5733
 30
0.0
 10
-163.7364
 20
22.1754
 30
0.0
 10
-169.0247
 20
26.4762
 30
0.0
 10
-169.551
 20
33.2
 30
0.0
  0
SPLINE
  5
75
330
1F
100
AcDbEntity
  8
layer 1
 62
     7
100
AcDbSpline
210
0.0
220
0.0
230
1.0
 70
    11
 71
     3
 72
    20
 73
    16
 74
     0
 42
0.0000000001
 43
0.0000000001
 12
1.0
 22
0.0
 32
0.0
 13
1.0
 23
0.0
 33
0.0
 40
0.0
 40
0.0
 40
0.0
 40
0.0
 40
0.2
 40
0.2
 40
0.2
 40
0.2
 40
0.4
 40
0.4
 40
0.4
 40
0.4
 40
0.6
 40
0.6
 40
0.6
 40
0.6
 40
1.0
 40
1.0
 40
1.0
 40
1.0
 10
-132.4913
 20
61.1278
 30
0.0
 10
-132.4913
 20
61.1278
 30
0.0
 10
-155.8567
 20
61.1278
 30
0.0
 10
-155.8567
 20
61.1278
 30
0.0
 10
-155.8567
 20
61.1278
 30
0.0
 10
-155.8567
 20
61.1278
 30
0.0
 10
-155.8567
 20
49.5495
 30
0.0
 10
-155.8567
 20
49.5495
 30
0.0
 10
-155.8567
 20
49.5495
 30
0.0
 10
-152.4864
 20
49.4581
 30
0.0
 10
-148.2865
 20
47.3582
 30
0.0
 10
-147.1271
 20
45.9731
 30
0.0
 10
-147.1271
 20
45.9731
 30
0.0
 10
-147.1271
 20
45.9731
 30
0.0
 10
-132.4913
 20
61.1278
 30
0.0
 10
-132.4913
 20
61.1278
 30
0.0
  0
SPLINE
  5
76
330
1F
100
AcDbEntity
  8
layer 1
 62
     7
100
AcDbSpline
210
0.0
220
0.0
230
1.0
 70
    11
 71
     3
 72
    20
 73
    16
 74
     0
 42
0.0000000001
 43
0.0000000001
 12
1.0
 22
0.0
 32
0.0
 13
1.0
 23
0.0
 33
0.0
 40
0.0
 40
0.0
 40
0.0
 40
0.0
 40
0.2
 40
0.2
 40
0.2
 40
0.2
 40
0.4
 40
0.4
 40
0.4
 40
0.4
 40
0.6
 40
0.6
 40
0.6
 40
0.6
 40
1.0
 40
1.0
 40
1.0
 40
1.0
 10
-130.0126
 20
58.6926
 30
0.0
 10
-130.0126
 20
58.6926
 30
0.0
 10
-130.0126
 20
35.3279
 30
0.0
 10
-130.0126
 20
35.3279
 30
0.0
 10
-130.0126
 20
35.3279
 30
0.0
 10
-130.0126
 20
35.3279
 30
0.0
 10
-141.5941
 20
35.3279
 30
0.0
 10
-141.5941
 20
35.3279
 30
0.0
 10
-141.5941
 20
35.3279
 30
0.0
 10
-141.6849
 20
38.6975
 30
0.0
 10
-143.7857
 20
42.9013
 30
0.0
 10
-145.1675
 20
44.0577
 30
0.0
 10
-145.1675
 20
44.0577
 30
0.0
 10
-145.1675
 20
44.0577
 30
0.0
 10
-130.0126
 20
58.6926
 30
0.0
 10
-130.0126
 20
58.6926
 30
0.0
  0
SPLINE
  5
77
330
1F
100
AcDbEntity
  8
layer 1
 62
     7
100
AcDbSpline
210
0.0
220
0.0
230
1.0
 70
    11
 71
     3
 72
    20
 73
    16
 74
     0
 42
0.0000000001
 43
0.0000000001
 12
1.0
 22
0.0
 32
0.0
 13
1.0
 23
0.0
 33
0.0
 40
0.0
 40
0.0
 40
0.0
 40
0.0
 40
0.2
 40
0.2
 40
0.2
 40
0.2
 40
0.4
 40
0.4
 40
0.4
 40
0.4
 40
0.6
 40
0.6
 40
0.6
 40
0.6
 40
1.0
 40
1.0
 40
1.0
 40
1.0
 10
-181.2178
 20
7.3366
 30
0.0
 10
-181.2178
 20
7.3366
 30
0.0
 10
-157.8531
 20
7.3366
 30
0.0
 10
-157.8531
 20
7.3366
 30
0.0
 10
-157.8531
 20
7.3366
 30
0.0
 10
-157.8531
 20
7.3366
 30
0.0
 10
-157.8531
 20
18.919
 30
0.0
 10
-157.8531
 20
18.919
 30
0.0
 10
-157.8531
 20
18.919
 30
0.0
 10
-161.2225
 20
19.0095
 30
0.0
 10
-165.4258
 20
21.1063
 30
0.0
 10
-166.5829
 20
22.4922
 30
0.0
 10
-166.5829
 20
22.4922
 30
0.0
 10
-166.5829
 20
22.4922
 30
0.0
 10
-181.2178
 20
7.3366
 30
0.0
 10
-181.2178
 20
7.3366
 30
0.0
  0
SPLINE
  5
78
330
1F
100
AcDbEntity
  8
layer 1
 62
     7
100
AcDbSpline
210
0.0
220
0.0
230
1.0
 70
    11
 71
     3
 72
    20
 73
    16
 74
     0
 42
0.0000000001
 43
0.0000000001
 12
1.0
 22
0.0
 32
0.0
 13
1.0
 23
0.0
 33
0.0
 40
0.0
 40
0.0
 40
0.0
 40
0.0
 40
0.2
 40
0.2
 40
0.2
 40
0.2
 40
0.4
 40
0.4
 40
0.4
 40
0.4
 40
0.6
 40
0.6
 40
0.6
 40
0.6
 40
1.0
 40
1.0
 40
1.0
 40
1.0
 10
-183.6971
 20
9.7721
 30
0.0
 10
-183.6971
 20
9.7721
 30
0.0
 10
-183.6971
 20
33.1397
 30
0.0
 10
-183.6971
 20
33.1397
 30
0.0
 10
-183.6971
 20
33.1397
 30
0.0
 10
-183.6971
 20
33.1397
 30
0.0
 10
-172.1147
 20
33.1397
 30
0.0
 10
-172.1147
 20
33.1397
 30
0.0
 10
-172.1147
 20
33.1397
 30
0.0
 10
-172.0242
 20
29.7703
 30
0.0
 10
-169.9275
 20
25.5671
 30
0.0
 10
-168.5415
 20
24.4077
 30
0.0
 10
-168.5415
 20
24.4077
 30
0.0
 10
-168.5415
 20
24.4077
 30
0.0
 10
-183.6971
 20
9.7721
 30
0.0
 10
-183.6971
 20
9.7721
 30
0.0
  0
SPLINE
  5
79
330
1F
100
AcDbEntity
  8
layer 1
 62
     7
100
AcDbSpline
210
0.0
220
0.0
230
1.0
 70
    11
 71
     3
 72
    20
 73
    16
 74
     0
 42
0.0000000001
 43
0.0000000001
 12
1.0
 22
0.0
 32
0.0
 13
1.0
 23
0.0
 33
0.0
 40
0.0
 40
0.0
 40
0.0
 40
0.0
 40
0.2
 40
0.2
 40
0.2
 40
0.2
 40
0.4
 40
0.4
 40
0.4
 40
0.4
 40
0.6
 40
0.6
 40
0.6
 40
0.6
 40
1.0
 40
1.0
 40
1.0
 40
1.0
 10
-132.4913
 20
7.3366
 30
0.0
 10
-132.4913
 20
7.3366
 30
0.0
 10
-155.8567
 20
7.3366
 30
0.0
 10
-155.8567
 20
7.3366
 30
0.0
 10
-155.8567
 20
7.3366
 30
0.0
 10
-155.8567
 20
7.3366
 30
0.0
 10
-155.8567
 20
18.919
 30
0.0
 10
-155.8567
 20
18.919
 30
0.0
 10
-155.8567
 20
18.919
 30
0.0
 10
-152.4864
 20
19.0095
 30
0.0
 10
-148.2865
 20
21.1063
 30
0.0
 10
-147.1271
 20
22.4922
 30
0.0
 10
-147.1271
 20
22.4922
 30
0.0
 10
-147.1271
 20
22.4922
 30
0.0
 10
-132.4913
 20
7.3366
 30
0.0
 10
-132.4913
 20
7.3366
 30
0.0
  0
SPLINE
  5
7A
330
1F
100
AcDbEntity
  8
layer 1
 62
     7
100
AcDbSpline
210
0.0
220
0.0
230
1.0
 70
    11
 71
     3
 72
    20
 73
    16
 74
     0
 42
0.0000000001
 43
0.0000000001
 12
1.0
 22
0.0
 32
0.0
 13
1.0
 23
0.0
 33
0.0
 40
0.0
 40
0.0
 40
0.0
 40
0.0
 40
0.2
 40
0.2
 40
0.2
 40
0.2
 40
0.4
 40
0.4
 40
0.4
 40
0.4
 40
0.6
 40
0.6
 40
0.6
 40
0.6
 40
1.0
 40
1.0
 40
1.0
 40
1.0
 10
-130.0126
 20
9.7721
 30
0.0
 10
-130.0126
 20
9.7721
 30
0.0
 10
-130.0126
 20
33.1397
 30
0.0
 10
-130.0126
 20
33.1397
 30
0.0
 10
-130.0126
 20
33.1397
 30
0.0
 10
-130.0126
 20
33.1397
 30
0.0
 10
-141.5941
 20
33.1397
 30
0.0
 10
-141.5941
 20
33.1397
 30
0.0
 10
-141.5941
 20
33.1397
 30
0.0
 10
-141.6849
 20
29.7703
 30
0.0
 10
-143.7857
 20
25.5671
 30
0.0
 10
-145.1675
 20
24.4077
 30
0.0
 10
-145.1675
 20
24.4077
 30
0.0
 10
-145.1675
 20
24.4077
 30
0.0
 10
-130.0126
 20
9.7721
 30
0.0
 10
-130.0126
 20
9.7721
 30
0.0
  0
SPLINE
  5
7B
330
1F
100
AcDbEntity
  8
layer 1
 62
     7
100
AcDbSpline
210
0.0
220
0.0
230
1.0
 70
    11
 71
     3
 72
    20
 73
    16
 74
     0
 42
0.0000000001
 43
0.0000000001
 12
1.0
 22
0.0
 32
0.0
 13
1.0
 23
0.0
 33
0.0
 40
0.0
 40
0.0
 40
0.0
 40
0.0
 40
0.2
 40
0.2
 40
0.2
 40
0.2
 40
0.4
 40
0.4
 40
0.4
 40
0.4
 40
0.6
 40
0.6
 40
0.6
 40
0.6
 40
1.0
 40
1.0
 40
1.0
 40
1.0
 10
-163.0128
 20
34.1896
 30
0.0
 10
-163.0128
 20
34.1896
 30
0.0
 10
-156.8283
 20
40.3739
 30
0.0
 10
-156.8283
 20
40.3739
 30
0.0
 10
-156.8283
 20
40.3739
 30
0.0
 10
-156.8283
 20
40.3739
 30
0.0
 10
-150.647
 20
34.1896
 30
0.0
 10
-150.647
 20
34.1896
 30
0.0
 10
-150.647
 20
34.1896
 30
0.0
 10
-150.647
 20
34.1896
 30
0.0
 10
-156.8283
 20
28.0052
 30
0.0
 10
-156.8283
 20
28.0052
 30
0.0
 10
-156.8283
 20
28.0052
 30
0.0
 10
-156.8283
 20
28.0052
 30
0.0
 10
-163.0128
 20
34.1896
 30
0.0
 10
-163.0128
 20
34.1896
 30
0.0
  0
SPLINE
  5
7C
330
1F
100
AcDbEntity
  8
layer 1
 62
     7
100
AcDbSpline
210
0.0
220
0.0
230
1.0
 70
    11
 71
     3
 72
    20
 73
    16
 74
     0
 42
0.0000000001
 43
0.0000000001
 12
1.0
 22
0.0
 32
0.0
 13
1.0
 23
0.0
 33
0.0
 40
0.0
 40
0.0
 40
0.0
 40
0.0
 40
0.2
 40
0.2
 40
0.2
 40
0.2
 40
0.4
 40
0.4
 40
0.4
 40
0.4
 40
0.6
 40
0.6
 40
0.6
 40
0.6
 40
1.0
 40
1.0
 40
1.0
 40
1.0
 10
-106.5403
 20
61.0966
 30
0.0
 10
-106.5403
 20
61.0966
 30
0.0
 10
-93.4335
 20
61.0966
 30
0.0
 10
-93.4335
 20
61.0966
 30
0.0
 10
-93.4335
 20
61.0966
 30
0.0
 10
-93.4335
 20
61.0966
 30
0.0
 10
-93.4335
 20
51.2263
 30
0.0
 10
-93.4335
 20
51.2263
 30
0.0
 10
-93.4335
 20
51.2263
 30
0.0
 10
-93.4335
 20
51.2263
 30
0.0
 10
-100.7759
 20
51.2168
 30
0.0
 10
-100.7759
 20
51.2168
 30
0.0
 10
-100.7759
 20
51.2168
 30
0.0
 10
-100.7759
 20
51.2168
 30
0.0
 10
-106.5403
 20
61.0966
 30
0.0
 10
-106.5403
 20
61.0966
 30
0.0
  0
SPLINE
  5
7D
330
1F
100
AcDbEntity
  8
layer 1
 62
     7
100
AcDbSpline
210
0.0
220
0.0
230
1.0
 70
    11
 71
     3
 72
    28
 73
    24
 74
     0
 42
0.0000000001
 43
0.0000000001
 12
1.0
 22
0.0
 32
0.0
 13
1.0
 23
0.0
 33
0.0
 40
0.0
 40
0.0
 40
0.0
 40
0.0
 40
0.1428571428571428
 40
0.1428571428571428
 40
0.1428571428571428
 40
0.1428571428571428
 40
0.2857142857142857
 40
0.2857142857142857
 40
0.2857142857142857
 40
0.2857142857142857
 40
0.4285714285714285
 40
0.4285714285714285
 40
0.4285714285714285
 40
0.4285714285714285
 40
0.5714285714285714
 40
0.5714285714285714
 40
0.5714285714285714
 40
0.5714285714285714
 40
0.7142857142857143
 40
0.7142857142857143
 40
0.7142857142857143
 40
0.7142857142857143
 40
1.0
 40
1.0
 40
1.0
 40
1.0
 10
-119.2613
 20
61.0588
 30
0.0
 10
-119.2613
 20
61.0588
 30
0.0
 10
-119.2613
 20
51.3675
 30
0.0
 10
-119.2613
 20
51.3675
 30
0.0
 10
-119.2613
 20
51.3675
 30
0.0
 10
-119.2613
 20
51.3675
 30
0.0
 10
-109.4561
 20
45.3151
 30
0.0
 10
-109.4561
 20
45.3151
 30
0.0
 10
-109.4561
 20
45.3151
 30
0.0
 10
-109.4561
 20
45.3151
 30
0.0
 10
-109.3936
 20
51.1952
 30
0.0
 10
-109.3936
 20
51.1952
 30
0.0
 10
-109.3936
 20
51.1952
 30
0.0
 10
-109.3936
 20
51.1952
 30
0.0
 10
-103.6302
 20
51.2514
 30
0.0
 10
-103.6302
 20
51.2514
 30
0.0
 10
-103.6302
 20
51.2514
 30
0.0
 10
-103.6302
 20
51.2514
 30
0.0
 10
-108.8803
 20
61.0813
 30
0.0
 10
-108.8803
 20
61.0813
 30
0.0
 10
-108.8803
 20
61.0813
 30
0.0
 10
-108.8803
 20
61.0813
 30
0.0
 10
-119.2613
 20
61.0588
 30
0.0
 10
-119.2613
 20
61.0588
 30
0.0
  0
SPLINE
  5
7E
330
1F
100
AcDbEntity
  8
layer 1
 62
     7
100
AcDbSpline
210
0.0
220
0.0
230
1.0
 70
    11
 71
     3
 72
    20
 73
    16
 74
     0
 42
0.0000000001
 43
0.0000000001
 12
1.0
 22
0.0
 32
0.0
 13
1.0
 23
0.0
 33
0.0
 40
0.0
 40
0.0
 40
0.0
 40
0.0
 40
0.2
 40
0.2
 40
0.2
 40
0.2
 40
0.4
 40
0.4
 40
0.4
 40
0.4
 40
0.6
 40
0.6
 40
0.6
 40
0.6
 40
1.0
 40
1.0
 40
1.0
 40
1.0
 10
-119.3429
 20
48.617
 30
0.0
 10
-119.3429
 20
48.617
 30
0.0
 10
-119.3429
 20
35.5102
 30
0.0
 10
-119.3429
 20
35.5102
 30
0.0
 10
-119.3429
 20
35.5102
 30
0.0
 10
-119.3429
 20
35.5102
 30
0.0
 10
-109.472
 20
35.5102
 30
0.0
 10
-109.472
 20
35.5102
 30
0.0
 10
-109.472
 20
35.5102
 30
0.0
 10
-109.472
 20
35.5102
 30
0.0
 10
-109.4625
 20
42.7998
 30
0.0
 10
-109.4625
 20
42.7998
 30
0.0
 10
-109.4625
 20
42.7998
 30
0.0
 10
-109.4625
 20
42.7998
 30
0.0
 10
-119.3429
 20
48.617
 30
0.0
 10
-119.3429
 20
48.617
 30
0.0
  0
SPLINE
  5
7F
330
1F
100
AcDbEntity
  8
layer 1
 62
     7
100
AcDbSpline
210
0.0
220
0.0
230
1.0
 70
    11
 71
     3
 72
    20
 73
    16
 74
     0
 42
0.0000000001
 43
0.0000000001
 12
1.0
 22
0.0
 32
0.0
 13
1.0
 23
0.0
 33
0.0
 40
0.0
 40
0.0
 40
0.0
 40
0.0
 40
0.2
 40
0.2
 40
0.2
 40
0.2
 40
0.4
 40
0.4
 40
0.4
 40
0.4
 40
0.6
 40
0.6
 40
0.6
 40
0.6
 40
1.0
 40
1.0
 40
1.0
 40
1.0
 10
-78.297
 20
61.0966
 30
0.0
 10
-78.297
 20
61.0966
 30
0.0
 10
-91.4038
 20
61.0966
 30
0.0
 10
-91.4038
 20
61.0966
 30
0.0
 10
-91.4038
 20
61.0966
 30
0.0
 10
-91.4038
 20
61.0966
 30
0.0
 10
-91.4038
 20
51.2263
 30
0.0
 10
-91.4038
 20
51.2263
 30
0.0
 10
-91.4038
 20
51.2263
 30
0.0
 10
-91.4038
 20
51.2263
 30
0.0
 10
-84.0636
 20
51.2168
 30
0.0
 10
-84.0636
 20
51.2168
 30
0.0
 10
-84.0636
 20
51.2168
 30
0.0
 10
-84.0636
 20
51.2168
 30
0.0
 10
-78.297
 20
61.0966
 30
0.0
 10
-78.297
 20
61.0966
 30
0.0
  0
SPLINE
  5
80
330
1F
100
AcDbEntity
  8
layer 1
 62
     7
100
AcDbSpline
210
0.0
220
0.0
230
1.0
 70
    11
 71
     3
 72
    28
 73
    24
 74
     0
 42
0.0000000001
 43
0.0000000001
 12
1.0
 22
0.0
 32
0.0
 13
1.0
 23
0.0
 33
0.0
 40
0.0
 40
0.0
 40
0.0
 40
0.0
 40
0.1428571428571428
 40
0.1428571428571428
 40
0.1428571428571428
 40
0.1428571428571428
 40
0.2857142857142857
 40
0.2857142857142857
 40
0.2857142857142857
 40
0.2857142857142857
 40
0.4285714285714285
 40
0.4285714285714285
 40
0.4285714285714285
 40
0.4285714285714285
 40
0.5714285714285714
 40
0.5714285714285714
 40
0.5714285714285714
 40
0.5714285714285714
 40
0.7142857142857143
 40
0.7142857142857143
 40
0.7142857142857143
 40
0.7142857142857143
 40
1.0
 40
1.0
 40
1.0
 40
1.0
 10
-65.576
 20
61.0588
 30
0.0
 10
-65.576
 20
61.0588
 30
0.0
 10
-65.576
 20
51.3675
 30
0.0
 10
-65.576
 20
51.3675
 30
0.0
 10
-65.576
 20
51.3675
 30
0.0
 10
-65.576
 20
51.3675
 30
0.0
 10
-75.3837
 20
45.3151
 30
0.0
 10
-75.3837
 20
45.3151
 30
0.0
 10
-75.3837
 20
45.3151
 30
0.0
 10
-75.3837
 20
45.3151
 30
0.0
 10
-75.443
 20
51.1952
 30
0.0
 10
-75.443
 20
51.1952
 30
0.0
 10
-75.443
 20
51.1952
 30
0.0
 10
-75.443
 20
51.1952
 30
0.0
 10
-81.2072
 20
51.2514
 30
0.0
 10
-81.2072
 20
51.2514
 30
0.0
 10
-81.2072
 20
51.2514
 30
0.0
 10
-81.2072
 20
51.2514
 30
0.0
 10
-75.957
 20
61.0813
 30
0.0
 10
-75.957
 20
61.0813
 30
0.0
 10
-75.957
 20
61.0813
 30
0.0
 10
-75.957
 20
61.0813
 30
0.0
 10
-65.576
 20
61.0588
 30
0.0
 10
-65.576
 20
61.0588
 30
0.0
  0
SPLINE
  5
81
330
1F
100
AcDbEntity
  8
layer 1
 62
     7
100
AcDbSpline
210
0.0
220
0.0
230
1.0
 70
    11
 71
     3
 72
    20
 73
    16
 74
     0
 42
0.0000000001
 43
0.0000000001
 12
1.0
 22
0.0
 32
0.0
 13
1.0
 23
0.0
 33
0.0
 40
0.0
 40
0.0
 40
0.0
 40
0.0
 40
0.2
 40
0.2
 40
0.2
 40
0.2
 40
0.4
 40
0.4
 40
0.4
 40
0.4
 40
0.6
 40
0.6
 40
0.6
 40
0.6
 40
1.0
 40
1.0
 40
1.0
 40
1.0
 10
-65.4942
 20
48.617
 30
0.0
 10
-65.4942
 20
48.617
 30
0.0
 10
-65.4942
 20
35.5102
 30
0.0
 10
-65.4942
 20
35.5102
 30
0.0
 10
-65.4942
 20
35.5102
 30
0.0
 10
-65.4942
 20
35.5102
 30
0.0
 10
-75.3685
 20
35.5102
 30
0.0
 10
-75.3685
 20
35.5102
 30
0.0
 10
-75.3685
 20
35.5102
 30
0.0
 10
-75.3685
 20
35.5102
 30
0.0
 10
-75.3771
 20
42.7998
 30
0.0
 10
-75.3771
 20
42.7998
 30
0.0
 10
-75.3771
 20
42.7998
 30
0.0
 10
-75.3771
 20
42.7998
 30
0.0
 10
-65.4942
 20
48.617
 30
0.0
 10
-65.4942
 20
48.617
 30
0.0
  0
SPLINE
  5
82
330
1F
100
AcDbEntity
  8
layer 1
 62
     7
100
AcDbSpline
210
0.0
220
0.0
230
1.0
 70
    11
 71
     3
 72
    20
 73
    16
 74
     0
 42
0.0000000001
 43
0.0000000001
 12
1.0
 22
0.0
 32
0.0
 13
1.0
 23
0.0
 33
0.0
 40
0.0
 40
0.0
 40
0.0
 40
0.0
 40
0.2
 40
0.2
 40
0.2
 40
0.2
 40
0.4
 40
0.4
 40
0.4
 40
0.4
 40
0.6
 40
0.6
 40
0.6
 40
0.6
 40
1.0
 40
1.0
 40
1.0
 40
1.0
 10
-106.521
 20
7.3326
 30
0.0
 10
-106.521
 20
7.3326
 30
0.0
 10
-93.4149
 20
7.3326
 30
0.0
 10
-93.4149
 20
7.3326
 30
0.0
 10
-93.4149
 20
7.3326
 30
0.0
 10
-93.4149
 20
7.3326
 30
0.0
 10
-93.4149
 20
17.2035
 30
0.0
 10
-93.4149
 20
17.2035
 30
0.0
 10
-93.4149
 20
17.2035
 30
0.0
 10
-93.4149
 20
17.2035
 30
0.0
 10
-100.7543
 20
17.2132
 30
0.0
 10
-100.7543
 20
17.2132
 30
0.0
 10
-100.7543
 20
17.2132
 30
0.0
 10
-100.7543
 20
17.2132
 30
0.0
 10
-106.521
 20
7.3326
 30
0.0
 10
-106.521
 20
7.3326
 30
0.0
  0
SPLINE
  5
83
330
1F
100
AcDbEntity
  8
layer 1
 62
     7
100
AcDbSpline
210
0.0
220
0.0
230
1.0
 70
    11
 71
     3
 72
    28
 73
    24
 74
     0
 42
0.0000000001
 43
0.0000000001
 12
1.0
 22
0.0
 32
0.0
 13
1.0
 23
0.0
 33
0.0
 40
0.0
 40
0.0
 40
0.0
 40
0.0
 40
0.1428571428571428
 40
0.1428571428571428
 40
0.1428571428571428
 40
0.1428571428571428
 40
0.2857142857142857
 40
0.2857142857142857
 40
0.2857142857142857
 40
0.2857142857142857
 40
0.4285714285714285
 40
0.4285714285714285
 40
0.4285714285714285
 40
0.4285714285714285
 40
0.5714285714285714
 40
0.5714285714285714
 40
0.5714285714285714
 40
0.5714285714285714
 40
0.7142857142857143
 40
0.7142857142857143
 40
0.7142857142857143
 40
0.7142857142857143
 40
1.0
 40
1.0
 40
1.0
 40
1.0
 10
-119.2429
 20
7.3735
 30
0.0
 10
-119.2429
 20
7.3735
 30
0.0
 10
-119.2429
 20
17.0625
 30
0.0
 10
-119.2429
 20
17.0625
 30
0.0
 10
-119.2429
 20
17.0625
 30
0.0
 10
-119.2429
 20
17.0625
 30
0.0
 10
-109.4345
 20
23.1144
 30
0.0
 10
-109.4345
 20
23.1144
 30
0.0
 10
-109.4345
 20
23.1144
 30
0.0
 10
-109.4345
 20
23.1144
 30
0.0
 10
-109.372
 20
17.2348
 30
0.0
 10
-109.372
 20
17.2348
 30
0.0
 10
-109.372
 20
17.2348
 30
0.0
 10
-109.372
 20
17.2348
 30
0.0
 10
-103.6108
 20
17.1787
 30
0.0
 10
-103.6108
 20
17.1787
 30
0.0
 10
-103.6108
 20
17.1787
 30
0.0
 10
-103.6108
 20
17.1787
 30
0.0
 10
-108.8581
 20
7.3487
 30
0.0
 10
-108.8581
 20
7.3487
 30
0.0
 10
-108.8581
 20
7.3487
 30
0.0
 10
-108.8581
 20
7.3487
 30
0.0
 10
-119.2429
 20
7.3735
 30
0.0
 10
-119.2429
 20
7.3735
 30
0.0
  0
SPLINE
  5
84
330
1F
100
AcDbEntity
  8
layer 1
 62
     7
100
AcDbSpline
210
0.0
220
0.0
230
1.0
 70
    11
 71
     3
 72
    20
 73
    16
 74
     0
 42
0.0000000001
 43
0.0000000001
 12
1.0
 22
0.0
 32
0.0
 13
1.0
 23
0.0
 33
0.0
 40
0.0
 40
0.0
 40
0.0
 40
0.0
 40
0.2
 40
0.2
 40
0.2
 40
0.2
 40
0.4
 40
0.4
 40
0.4
 40
0.4
 40
0.6
 40
0.6
 40
0.6
 40
0.6
 40
1.0
 40
1.0
 40
1.0
 40
1.0
 10
-119.3207
 20
19.8131
 30
0.0
 10
-119.3207
 20
19.8131
 30
0.0
 10
-119.3207
 20
32.9199
 30
0.0
 10
-119.3207
 20
32.9199
 30
0.0
 10
-119.3207
 20
32.9199
 30
0.0
 10
-119.3207
 20
32.9199
 30
0.0
 10
-109.4504
 20
32.9199
 30
0.0
 10
-109.4504
 20
32.9199
 30
0.0
 10
-109.4504
 20
32.9199
 30
0.0
 10
-109.4504
 20
32.9199
 30
0.0
 10
-109.4407
 20
25.6302
 30
0.0
 10
-109.4407
 20
25.6302
 30
0.0
 10
-109.4407
 20
25.6302
 30
0.0
 10
-109.4407
 20
25.6302
 30
0.0
 10
-119.3207
 20
19.8131
 30
0.0
 10
-119.3207
 20
19.8131
 30
0.0
  0
SPLINE
  5
85
330
1F
100
AcDbEntity
  8
layer 1
 62
     7
100
AcDbSpline
210
0.0
220
0.0
230
1.0
 70
    11
 71
     3
 72
    20
 73
    16
 74
     0
 42
0.0000000001
 43
0.0000000001
 12
1.0
 22
0.0
 32
0.0
 13
1.0
 23
0.0
 33
0.0
 40
0.0
 40
0.0
 40
0.0
 40
0.0
 40
0.2
 40
0.2
 40
0.2
 40
0.2
 40
0.4
 40
0.4
 40
0.4
 40
0.4
 40
0.6
 40
0.6
 40
0.6
 40
0.6
 40
1.0
 40
1.0
 40
1.0
 40
1.0
 10
-78.2786
 20
7.3326
 30
0.0
 10
-78.2786
 20
7.3326
 30
0.0
 10
-91.3847
 20
7.3326
 30
0.0
 10
-91.3847
 20
7.3326
 30
0.0
 10
-91.3847
 20
7.3326
 30
0.0
 10
-91.3847
 20
7.3326
 30
0.0
 10
-91.3847
 20
17.2035
 30
0.0
 10
-91.3847
 20
17.2035
 30
0.0
 10
-91.3847
 20
17.2035
 30
0.0
 10
-91.3847
 20
17.2035
 30
0.0
 10
-84.0421
 20
17.2132
 30
0.0
 10
-84.0421
 20
17.2132
 30
0.0
 10
-84.0421
 20
17.2132
 30
0.0
 10
-84.0421
 20
17.2132
 30
0.0
 10
-78.2786
 20
7.3326
 30
0.0
 10
-78.2786
 20
7.3326
 30
0.0
  0
SPLINE
  5
86
330
1F
100
AcDbEntity
  8
layer 1
 62
     7
100
AcDbSpline
210
0.0
220
0.0
230
1.0
 70
    11
 71
     3
 72
    28
 73
    24
 74
     0
 42
0.0000000001
 43
0.0000000001
 12
1.0
 22
0.0
 32
0.0
 13
1.0
 23
0.0
 33
0.0
 40
0.0
 40
0.0
 40
0.0
 40
0.0
 40
0.1428571428571428
 40
0.1428571428571428
 40
0.1428571428571428
 40
0.1428571428571428
 40
0.2857142857142857
 40
0.2857142857142857
 40
0.2857142857142857
 40
0.2857142857142857
 40
0.4285714285714285
 40
0.4285714285714285
 40
0.4285714285714285
 40
0.4285714285714285
 40
0.5714285714285714
 40
0.5714285714285714
 40
0.5714285714285714
 40
0.5714285714285714
 40
0.7142857142857143
 40
0.7142857142857143
 40
0.7142857142857143
 40
0.7142857142857143
 40
1.0
 40
1.0
 40
1.0
 40
1.0
 10
-65.5567
 20
7.3735
 30
0.0
 10
-65.5567
 20
7.3735
 30
0.0
 10
-65.5567
 20
17.0625
 30
0.0
 10
-65.5567
 20
17.0625
 30
0.0
 10
-65.5567
 20
17.0625
 30
0.0
 10
-65.5567
 20
17.0625
 30
0.0
 10
-75.3621
 20
23.1144
 30
0.0
 10
-75.3621
 20
23.1144
 30
0.0
 10
-75.3621
 20
23.1144
 30
0.0
 10
-75.3621
 20
23.1144
 30
0.0
 10
-75.4246
 20
17.2348
 30
0.0
 10
-75.4246
 20
17.2348
 30
0.0
 10
-75.4246
 20
17.2348
 30
0.0
 10
-75.4246
 20
17.2348
 30
0.0
 10
-81.1881
 20
17.1787
 30
0.0
 10
-81.1881
 20
17.1787
 30
0.0
 10
-81.1881
 20
17.1787
 30
0.0
 10
-81.1881
 20
17.1787
 30
0.0
 10
-75.9386
 20
7.3487
 30
0.0
 10
-75.9386
 20
7.3487
 30
0.0
 10
-75.9386
 20
7.3487
 30
0.0
 10
-75.9386
 20
7.3487
 30
0.0
 10
-65.5567
 20
7.3735
 30
0.0
 10
-65.5567
 20
7.3735
 30
0.0
  0
SPLINE
  5
87
330
1F
100
AcDbEntity
  8
layer 1
 62
     7
100
AcDbSpline
210
0.0
220
0.0
230
1.0
 70
    11
 71
     3
 72
    20
 73
    16
 74
     0
 42
0.0000000001
 43
0.0000000001
 12
1.0
 22
0.0
 32
0.0
 13
1.0
 23
0.0
 33
0.0
 40
0.0
 40
0.0
 40
0.0
 40
0.0
 40
0.2
 40
0.2
 40
0.2
 40
0.2
 40
0.4
 40
0.4
 40
0.4
 40
0.4
 40
0.6
 40
0.6
 40
0.6
 40
0.6
 40
1.0
 40
1.0
 40
1.0
 40
1.0
 10
-65.4757
 20
19.8131
 30
0.0
 10
-65.4757
 20
19.8131
 30
0.0
 10
-65.4757
 20
32.9199
 30
0.0
 10
-65.4757
 20
32.9199
 30
0.0
 10
-65.4757
 20
32.9199
 30
0.0
 10
-65.4757
 20
32.9199
 30
0.0
 10
-75.3457
 20
32.9199
 30
0.0
 10
-75.3457
 20
32.9199
 30
0.0
 10
-75.3457
 20
32.9199
 30
0.0
 10
-75.3457
 20
32.9199
 30
0.0
 10
-75.3555
 20
25.6302
 30
0.0
 10
-75.3555
 20
25.6302
 30
0.0
 10
-75.3555
 20
25.6302
 30
0.0
 10
-75.3555
 20
25.6302
 30
0.0
 10
-65.4757
 20
19.8131
 30
0.0
 10
-65.4757
 20
19.8131
 30
0.0
  0
SPLINE
  5
88
330
1F
100
AcDbEntity
  8
layer 1
 62
     7
100
AcDbSpline
210
0.0
220
0.0
230
1.0
 70
    11
 71
     3
 72
    20
 73
    16
 74
     0
 42
0.0000000001
 43
0.0000000001
 12
1.0
 22
0.0
 32
0.0
 13
1.0
 23
0.0
 33
0.0
 40
0.0
 40
0.0
 40
0.0
 40
0.0
 40
0.2
 40
0.2
 40
0.2
 40
0.2
 40
0.4
 40
0.4
 40
0.4
 40
0.4
 40
0.6
 40
0.6
 40
0.6
 40
0.6
 40
1.0
 40
1.0
 40
1.0
 40
1.0
 10
-107.6021
 20
49.3907
 30
0.0
 10
-107.6021
 20
49.3907
 30
0.0
 10
-93.6588
 20
49.3907
 30
0.0
 10
-93.6588
 20
49.3907
 30
0.0
 10
-93.6588
 20
49.3907
 30
0.0
 10
-93.6588
 20
49.3907
 30
0.0
 10
-93.6588
 20
35.4477
 30
0.0
 10
-93.6588
 20
35.4477
 30
0.0
 10
-93.6588
 20
35.4477
 30
0.0
 10
-93.6588
 20
35.4477
 30
0.0
 10
-107.6019
 20
35.4477
 30
0.0
 10
-107.6019
 20
35.4477
 30
0.0
 10
-107.6019
 20
35.4477
 30
0.0
 10
-107.6019
 20
35.4477
 30
0.0
 10
-107.6021
 20
49.3907
 30
0.0
 10
-107.6021
 20
49.3907
 30
0.0
  0
SPLINE
  5
89
330
1F
100
AcDbEntity
  8
layer 1
 62
     7
100
AcDbSpline
210
0.0
220
0.0
230
1.0
 70
    11
 71
     3
 72
    20
 73
    16
 74
     0
 42
0.0000000001
 43
0.0000000001
 12
1.0
 22
0.0
 32
0.0
 13
1.0
 23
0.0
 33
0.0
 40
0.0
 40
0.0
 40
0.0
 40
0.0
 40
0.2
 40
0.2
 40
0.2
 40
0.2
 40
0.4
 40
0.4
 40
0.4
 40
0.4
 40
0.6
 40
0.6
 40
0.6
 40
0.6
 40
1.0
 40
1.0
 40
1.0
 40
1.0
 10
-91.2692
 20
49.3907
 30
0.0
 10
-91.2692
 20
49.3907
 30
0.0
 10
-77.3259
 20
49.3907
 30
0.0
 10
-77.3259
 20
49.3907
 30
0.0
 10
-77.3259
 20
49.3907
 30
0.0
 10
-77.3259
 20
49.3907
 30
0.0
 10
-77.3259
 20
35.4477
 30
0.0
 10
-77.3259
 20
35.4477
 30
0.0
 10
-77.3259
 20
35.4477
 30
0.0
 10
-77.3259
 20
35.4477
 30
0.0
 10
-91.269
 20
35.4477
 30
0.0
 10
-91.269
 20
35.4477
 30
0.0
 10
-91.269
 20
35.4477
 30
0.0
 10
-91.269
 20
35.4477
 30
0.0
 10
-91.2692
 20
49.3907
 30
0.0
 10
-91.2692
 20
49.3907
 30
0.0
  0
SPLINE
  5
8A
330
1F
100
AcDbEntity
  8
layer 1
 62
     7
100
AcDbSpline
210
0.0
220
0.0
230
1.0
 70
    11
 71
     3
 72
    20
 73
    16
 74
     0
 42
0.0000000001
 43
0.0000000001
 12
1.0
 22
0.0
 32
0.0
 13
1.0
 23
0.0
 33
0.0
 40
0.0
 40
0.0
 40
0.0
 40
0.0
 40
0.2
 40
0.2
 40
0.2
 40
0.2
 40
0.4
 40
0.4
 40
0.4
 40
0.4
 40
0.6
 40
0.6
 40
0.6
 40
0.6
 40
1.0
 40
1.0
 40
1.0
 40
1.0
 10
-107.6021
 20
33.0201
 30
0.0
 10
-107.6021
 20
33.0201
 30
0.0
 10
-93.6588
 20
33.0201
 30
0.0
 10
-93.6588
 20
33.0201
 30
0.0
 10
-93.6588
 20
33.0201
 30
0.0
 10
-93.6588
 20
33.0201
 30
0.0
 10
-93.6588
 20
19.077
 30
0.0
 10
-93.6588
 20
19.077
 30
0.0
 10
-93.6588
 20
19.077
 30
0.0
 10
-93.6588
 20
19.077
 30
0.0
 10
-107.6019
 20
19.077
 30
0.0
 10
-107.6019
 20
19.077
 30
0.0
 10
-107.6019
 20
19.077
 30
0.0
 10
-107.6019
 20
19.077
 30
0.0
 10
-107.6021
 20
33.0201
 30
0.0
 10
-107.6021
 20
33.0201
 30
0.0
  0
SPLINE
  5
8B
330
1F
100
AcDbEntity
  8
layer 1
 62
     7
100
AcDbSpline
210
0.0
220
0.0
230
1.0
 70
    11
 71
     3
 72
    20
 73
    16
 74
     0
 42
0.0000000001
 43
0.0000000001
 12
1.0
 22
0.0
 32
0.0
 13
1.0
 23
0.0
 33
0.0
 40
0.0
 40
0.0
 40
0.0
 40
0.0
 40
0.2
 40
0.2
 40
0.2
 40
0.2
 40
0.4
 40
0.4
 40
0.4
 40
0.4
 40
0.6
 40
0.6
 40
0.6
 40
0.6
 40
1.0
 40
1.0
 40
1.0
 40
1.0
 10
-91.2692
 20
33.0201
 30
0.0
 10
-91.2692
 20
33.0201
 30
0.0
 10
-77.3259
 20
33.0201
 30
0.0
 10
-77.3259
 20
33.0201
 30
0.0
 10
-77.3259
 20
33.0201
 30
0.0
 10
-77.3259
 20
33.0201
 30
0.0
 10
-77.3259
 20
19.077
 30
0.0
 10
-77.3259
 20
19.077
 30
0.0
 10
-77.3259
 20
19.077
 30
0.0
 10
-77.3259
 20
19.077
 30
0.0
 10
-91.269
 20
19.077
 30
0.0
 10
-91.269
 20
19.077
 30
0.0
 10
-91.269
 20
19.077
 30
0.0
 10
-91.269
 20
19.077
 30
0.0
 10
-91.2692
 20
33.0201
 30
0.0
 10
-91.2692
 20
33.0201
 30
0.0
  0
SPLINE
  5
8C
330
1F
100
AcDbEntity
  8
layer 1
 62
     7
100
AcDbSpline
210
0.0
220
0.0
230
1.0
 70
    11
 71
     3
 72
    24
 73
    20
 74
     0
 42
0.0000000001
 43
0.0000000001
 12
1.0
 22
0.0
 32
0.0
 13
1.0
 23
0.0
 33
0.0
 40
0.0
 40
0.0
 40
0.0
 40
0.0
 40
0.1666666666666667
 40
0.1666666666666667
 40
0.1666666666666667
 40
0.1666666666666667
 40
0.3333333333333333
 40
0.3333333333333333
 40
0.3333333333333333
 40
0.3333333333333333
 40
0.5
 40
0.5
 40
0.5
 40
0.5
 40
0.6666666666666666
 40
0.6666666666666666
 40
0.6666666666666666
 40
0.6666666666666666
 40
1.0
 40
1.0
 40
1.0
 40
1.0
 10
-33.845
 20
42.3239
 30
0.0
 10
-33.845
 20
42.3239
 30
0.0
 10
-33.858
 20
61.1129
 30
0.0
 10
-33.858
 20
61.1129
 30
0.0
 10
-33.858
 20
61.1129
 30
0.0
 10
-33.858
 20
61.1129
 30
0.0
 10
-22.0869
 20
61.1129
 30
0.0
 10
-22.0869
 20
61.1129
 30
0.0
 10
-22.0869
 20
61.1129
 30
0.0
 10
-22.0869
 20
61.1129
 30
0.0
 10
-22.0996
 20
42.3239
 30
0.0
 10
-22.0996
 20
42.3239
 30
0.0
 10
-22.0996
 20
42.3239
 30
0.0
 10
-23.6836
 20
43.4439
 30
0.0
 10
-25.7319
 20
44.0893
 30
0.0
 10
-27.9737
 20
44.1175
 30
0.0
 10
-27.9737
 20
44.1175
 30
0.0
 10
-30.2136
 20
44.0895
 30
0.0
 10
-32.261
 20
43.4439
 30
0.0
 10
-33.845
 20
42.3239
 30
0.0
  0
SPLINE
  5
8D
330
1F
100
AcDbEntity
  8
layer 1
 62
     7
100
AcDbSpline
210
0.0
220
0.0
230
1.0
 70
    11
 71
     3
 72
    20
 73
    16
 74
     0
 42
0.0000000001
 43
0.0000000001
 12
1.0
 22
0.0
 32
0.0
 13
1.0
 23
0.0
 33
0.0
 40
0.0
 40
0.0
 40
0.0
 40
0.0
 40
0.2
 40
0.2
 40
0.2
 40
0.2
 40
0.4
 40
0.4
 40
0.4
 40
0.4
 40
0.6
 40
0.6
 40
0.6
 40
0.6
 40
1.0
 40
1.0
 40
1.0
 40
1.0
 10
-19.8388
 20
34.1788
 30
0.0
 10
-19.8388
 20
29.685
 30
0.0
 10
-23.4831
 20
26.0439
 30
0.0
 10
-27.9769
 20
26.0439
 30
0.0
 10
-27.9769
 20
26.0439
 30
0.0
 10
-32.4681
 20
26.0439
 30
0.0
 10
-36.1125
 20
29.6848
 30
0.0
 10
-36.1125
 20
34.1785
 30
0.0
 10
-36.1125
 20
34.1785
 30
0.0
 10
-36.1125
 20
38.6732
 30
0.0
 10
-32.4681
 20
42.3141
 30
0.0
 10
-27.9769
 20
42.3141
 30
0.0
 10
-27.9769
 20
42.3141
 30
0.0
 10
-23.4831
 20
42.3141
 30
0.0
 10
-19.8388
 20
38.6732
 30
0.0
 10
-19.8388
 20
34.1788
 30
0.0
  0
SPLINE
  5
8E
330
1F
100
AcDbEntity
  8
layer 1
 62
     7
100
AcDbSpline
210
0.0
220
0.0
230
1.0
 70
    11
 71
     3
 72
    24
 73
    20
 74
     0
 42
0.0000000001
 43
0.0000000001
 12
1.0
 22
0.0
 32
0.0
 13
1.0
 23
0.0
 33
0.0
 40
0.0
 40
0.0
 40
0.0
 40
0.0
 40
0.1666666666666667
 40
0.1666666666666667
 40
0.1666666666666667
 40
0.1666666666666667
 40
0.3333333333333333
 40
0.3333333333333333
 40
0.3333333333333333
 40
0.3333333333333333
 40
0.5
 40
0.5
 40
0.5
 40
0.5
 40
0.6666666666666666
 40
0.6666666666666666
 40
0.6666666666666666
 40
0.6666666666666666
 40
1.0
 40
1.0
 40
1.0
 40
1.0
 10
-54.9422
 20
60.9973
 30
0.0
 10
-54.9422
 20
60.9973
 30
0.0
 10
-54.9422
 20
35.4963
 30
0.0
 10
-54.9422
 20
35.4963
 30
0.0
 10
-54.9422
 20
35.4963
 30
0.0
 10
-54.9422
 20
35.4963
 30
0.0
 10
-37.9693
 20
35.4963
 30
0.0
 10
-37.9693
 20
35.4963
 30
0.0
 10
-37.9693
 20
35.4963
 30
0.0
 10
-37.9693
 20
35.4963
 30
0.0
 10
-37.9502
 20
35.8791
 30
0.0
 10
-37.7807
 20
36.5245
 30
0.0
 10
-37.7807
 20
36.5245
 30
0.0
 10
-46.2053
 20
42.3337
 30
0.0
 10
-51.3358
 20
54.1792
 30
0.0
 10
-51.2234
 20
61.0382
 30
0.0
 10
-51.2234
 20
61.0382
 30
0.0
 10
-52.9166
 20
61.0437
 30
0.0
 10
-54.9422
 20
60.9973
 30
0.0
 10
-54.9422
 20
60.9973
 30
0.0
  0
SPLINE
  5
8F
330
1F
100
AcDbEntity
  8
layer 1
 62
     7
100
AcDbSpline
210
0.0
220
0.0
230
1.0
 70
    11
 71
     3
 72
    20
 73
    16
 74
     0
 42
0.0000000001
 43
0.0000000001
 12
1.0
 22
0.0
 32
0.0
 13
1.0
 23
0.0
 33
0.0
 40
0.0
 40
0.0
 40
0.0
 40
0.0
 40
0.2
 40
0.2
 40
0.2
 40
0.2
 40
0.4
 40
0.4
 40
0.4
 40
0.4
 40
0.6
 40
0.6
 40
0.6
 40
0.6
 40
1.0
 40
1.0
 40
1.0
 40
1.0
 10
-36.2633
 20
61.0382
 30
0.0
 10
-36.2633
 20
61.0382
 30
0.0
 10
-49.2411
 20
61.1008
 30
0.0
 10
-49.2411
 20
61.1008
 30
0.0
 10
-49.2411
 20
61.1008
 30
0.0
 10
-48.1805
 20
53.1132
 30
0.0
 10
-44.3138
 20
44.2684
 30
0.0
 10
-37.1753
 20
38.3063
 30
0.0
 10
-37.1753
 20
38.3063
 30
0.0
 10
-36.7306
 20
39.3132
 30
0.0
 10
-36.2633
 20
39.9713
 30
0.0
 10
-36.2633
 20
39.9713
 30
0.0
 10
-36.2633
 20
39.9713
 30
0.0
 10
-36.2633
 20
39.9713
 30
0.0
 10
-36.2633
 20
61.0382
 30
0.0
 10
-36.2633
 20
61.0382
 30
0.0
  0
SPLINE
  5
90
330
1F
100
AcDbEntity
  8
layer 1
 62
     7
100
AcDbSpline
210
0.0
220
0.0
230
1.0
 70
    11
 71
     3
 72
    24
 73
    20
 74
     0
 42
0.0000000001
 43
0.0000000001
 12
1.0
 22
0.0
 32
0.0
 13
1.0
 23
0.0
 33
0.0
 40
0.0
 40
0.0
 40
0.0
 40
0.0
 40
0.1666666666666667
 40
0.1666666666666667
 40
0.1666666666666667
 40
0.1666666666666667
 40
0.3333333333333333
 40
0.3333333333333333
 40
0.3333333333333333
 40
0.3333333333333333
 40
0.5
 40
0.5
 40
0.5
 40
0.5
 40
0.6666666666666666
 40
0.6666666666666666
 40
0.6666666666666666
 40
0.6666666666666666
 40
1.0
 40
1.0
 40
1.0
 40
1.0
 10
-1.1149
 20
60.9973
 30
0.0
 10
-1.1149
 20
60.9973
 30
0.0
 10
-1.1149
 20
35.4963
 30
0.0
 10
-1.1149
 20
35.4963
 30
0.0
 10
-1.1149
 20
35.4963
 30
0.0
 10
-1.1149
 20
35.4963
 30
0.0
 10
-18.0884
 20
35.4963
 30
0.0
 10
-18.0884
 20
35.4963
 30
0.0
 10
-18.0884
 20
35.4963
 30
0.0
 10
-18.0884
 20
35.4963
 30
0.0
 10
-18.1102
 20
35.8791
 30
0.0
 10
-18.2764
 20
36.5245
 30
0.0
 10
-18.2764
 20
36.5245
 30
0.0
 10
-9.8524
 20
42.3337
 30
0.0
 10
-4.7222
 20
54.1792
 30
0.0
 10
-4.8346
 20
61.0382
 30
0.0
 10
-4.8346
 20
61.0382
 30
0.0
 10
-3.1413
 20
61.0437
 30
0.0
 10
-1.1149
 20
60.9973
 30
0.0
 10
-1.1149
 20
60.9973
 30
0.0
  0
SPLINE
  5
91
330
1F
100
AcDbEntity
  8
layer 1
 62
     7
100
AcDbSpline
210
0.0
220
0.0
230
1.0
 70
    11
 71
     3
 72
    20
 73
    16
 74
     0
 42
0.0000000001
 43
0.0000000001
 12
1.0
 22
0.0
 32
0.0
 13
1.0
 23
0.0
 33
0.0
 40
0.0
 40
0.0
 40
0.0
 40
0.0
 40
0.2
 40
0.2
 40
0.2
 40
0.2
 40
0.4
 40
0.4
 40
0.4
 40
0.4
 40
0.6
 40
0.6
 40
0.6
 40
0.6
 40
1.0
 40
1.0
 40
1.0
 40
1.0
 10
-19.7946
 20
61.0382
 30
0.0
 10
-19.7946
 20
61.0382
 30
0.0
 10
-6.8169
 20
61.1008
 30
0.0
 10
-6.8169
 20
61.1008
 30
0.0
 10
-6.8169
 20
61.1008
 30
0.0
 10
-7.8799
 20
53.1132
 30
0.0
 10
-11.7473
 20
44.2684
 30
0.0
 10
-18.885
 20
38.3063
 30
0.0
 10
-18.885
 20
38.3063
 30
0.0
 10
-19.3274
 20
39.3132
 30
0.0
 10
-19.7946
 20
39.9713
 30
0.0
 10
-19.7946
 20
39.9713
 30
0.0
 10
-19.7946
 20
39.9713
 30
0.0
 10
-19.7946
 20
39.9713
 30
0.0
 10
-19.7946
 20
61.0382
 30
0.0
 10
-19.7946
 20
61.0382
 30
0.0
  0
SPLINE
  5
92
330
1F
100
AcDbEntity
  8
layer 1
 62
     7
100
AcDbSpline
210
0.0
220
0.0
230
1.0
 70
    11
 71
     3
 72
    24
 73
    20
 74
     0
 42
0.0000000001
 43
0.0000000001
 12
1.0
 22
0.0
 32
0.0
 13
1.0
 23
0.0
 33
0.0
 40
0.0
 40
0.0
 40
0.0
 40
0.0
 40
0.1666666666666667
 40
0.1666666666666667
 40
0.1666666666666667
 40
0.1666666666666667
 40
0.3333333333333333
 40
0.3333333333333333
 40
0.3333333333333333
 40
0.3333333333333333
 40
0.5
 40
0.5
 40
0.5
 40
0.5
 40
0.6666666666666666
 40
0.6666666666666666
 40
0.6666666666666666
 40
0.6666666666666666
 40
1.0
 40
1.0
 40
1.0
 40
1.0
 10
-54.9422
 20
7.3641
 30
0.0
 10
-54.9422
 20
7.3641
 30
0.0
 10
-54.9422
 20
32.8651
 30
0.0
 10
-54.9422
 20
32.8651
 30
0.0
 10
-54.9422
 20
32.8651
 30
0.0
 10
-54.9422
 20
32.8651
 30
0.0
 10
-37.9693
 20
32.8651
 30
0.0
 10
-37.9693
 20
32.8651
 30
0.0
 10
-37.9693
 20
32.8651
 30
0.0
 10
-37.9693
 20
32.8651
 30
0.0
 10
-37.9502
 20
32.4821
 30
0.0
 10
-37.7807
 20
31.8367
 30
0.0
 10
-37.7807
 20
31.8367
 30
0.0
 10
-46.2053
 20
26.0279
 30
0.0
 10
-51.3358
 20
14.182
 30
0.0
 10
-51.2234
 20
7.3232
 30
0.0
 10
-51.2234
 20
7.3232
 30
0.0
 10
-52.9166
 20
7.32
 30
0.0
 10
-54.9422
 20
7.3641
 30
0.0
 10
-54.9422
 20
7.3641
 30
0.0
  0
SPLINE
  5
93
330
1F
100
AcDbEntity
  8
layer 1
 62
     7
100
AcDbSpline
210
0.0
220
0.0
230
1.0
 70
    11
 71
     3
 72
    20
 73
    16
 74
     0
 42
0.0000000001
 43
0.0000000001
 12
1.0
 22
0.0
 32
0.0
 13
1.0
 23
0.0
 33
0.0
 40
0.0
 40
0.0
 40
0.0
 40
0.0
 40
0.2
 40
0.2
 40
0.2
 40
0.2
 40
0.4
 40
0.4
 40
0.4
 40
0.4
 40
0.6
 40
0.6
 40
0.6
 40
0.6
 40
1.0
 40
1.0
 40
1.0
 40
1.0
 10
-36.2633
 20
7.3232
 30
0.0
 10
-36.2633
 20
7.3232
 30
0.0
 10
-49.2411
 20
7.2606
 30
0.0
 10
-49.2411
 20
7.2606
 30
0.0
 10
-49.2411
 20
7.2606
 30
0.0
 10
-48.1805
 20
15.2484
 30
0.0
 10
-44.3138
 20
24.0927
 30
0.0
 10
-37.1753
 20
30.0551
 30
0.0
 10
-37.1753
 20
30.0551
 30
0.0
 10
-36.7306
 20
29.0482
 30
0.0
 10
-36.2633
 20
28.3898
 30
0.0
 10
-36.2633
 20
28.3898
 30
0.0
 10
-36.2633
 20
28.3898
 30
0.0
 10
-36.2633
 20
28.3898
 30
0.0
 10
-36.2633
 20
7.3232
 30
0.0
 10
-36.2633
 20
7.3232
 30
0.0
  0
SPLINE
  5
94
330
1F
100
AcDbEntity
  8
layer 1
 62
     7
100
AcDbSpline
210
0.0
220
0.0
230
1.0
 70
    11
 71
     3
 72
    24
 73
    20
 74
     0
 42
0.0000000001
 43
0.0000000001
 12
1.0
 22
0.0
 32
0.0
 13
1.0
 23
0.0
 33
0.0
 40
0.0
 40
0.0
 40
0.0
 40
0.0
 40
0.1666666666666667
 40
0.1666666666666667
 40
0.1666666666666667
 40
0.1666666666666667
 40
0.3333333333333333
 40
0.3333333333333333
 40
0.3333333333333333
 40
0.3333333333333333
 40
0.5
 40
0.5
 40
0.5
 40
0.5
 40
0.6666666666666666
 40
0.6666666666666666
 40
0.6666666666666666
 40
0.6666666666666666
 40
1.0
 40
1.0
 40
1.0
 40
1.0
 10
-22.213
 20
26.0375
 30
0.0
 10
-22.213
 20
26.0375
 30
0.0
 10
-22.2
 20
7.2485
 30
0.0
 10
-22.2
 20
7.2485
 30
0.0
 10
-22.2
 20
7.2485
 30
0.0
 10
-22.2
 20
7.2485
 30
0.0
 10
-33.9702
 20
7.2485
 30
0.0
 10
-33.9702
 20
7.2485
 30
0.0
 10
-33.9702
 20
7.2485
 30
0.0
 10
-33.9702
 20
7.2485
 30
0.0
 10
-33.9581
 20
26.0375
 30
0.0
 10
-33.9581
 20
26.0375
 30
0.0
 10
-33.9581
 20
26.0375
 30
0.0
 10
-32.3741
 20
24.9175
 30
0.0
 10
-30.326
 20
24.2719
 30
0.0
 10
-28.0868
 20
24.243
 30
0.0
 10
-28.0868
 20
24.243
 30
0.0
 10
-25.8444
 20
24.2719
 30
0.0
 10
-23.7963
 20
24.9173
 30
0.0
 10
-22.213
 20
26.0375
 30
0.0
  0
SPLINE
  5
95
330
1F
100
AcDbEntity
  8
layer 1
 62
     7
100
AcDbSpline
210
0.0
220
0.0
230
1.0
 70
    11
 71
     3
 72
    24
 73
    20
 74
     0
 42
0.0000000001
 43
0.0000000001
 12
1.0
 22
0.0
 32
0.0
 13
1.0
 23
0.0
 33
0.0
 40
0.0
 40
0.0
 40
0.0
 40
0.0
 40
0.1666666666666667
 40
0.1666666666666667
 40
0.1666666666666667
 40
0.1666666666666667
 40
0.3333333333333333
 40
0.3333333333333333
 40
0.3333333333333333
 40
0.3333333333333333
 40
0.5
 40
0.5
 40
0.5
 40
0.5
 40
0.6666666666666666
 40
0.6666666666666666
 40
0.6666666666666666
 40
0.6666666666666666
 40
1.0
 40
1.0
 40
1.0
 40
1.0
 10
-1.1149
 20
7.3641
 30
0.0
 10
-1.1149
 20
7.3641
 30
0.0
 10
-1.1149
 20
32.8651
 30
0.0
 10
-1.1149
 20
32.8651
 30
0.0
 10
-1.1149
 20
32.8651
 30
0.0
 10
-1.1149
 20
32.8651
 30
0.0
 10
-18.0884
 20
32.8651
 30
0.0
 10
-18.0884
 20
32.8651
 30
0.0
 10
-18.0884
 20
32.8651
 30
0.0
 10
-18.0884
 20
32.8651
 30
0.0
 10
-18.1102
 20
32.4821
 30
0.0
 10
-18.2764
 20
31.8367
 30
0.0
 10
-18.2764
 20
31.8367
 30
0.0
 10
-9.8524
 20
26.0279
 30
0.0
 10
-4.7222
 20
14.182
 30
0.0
 10
-4.8346
 20
7.3232
 30
0.0
 10
-4.8346
 20
7.3232
 30
0.0
 10
-3.1413
 20
7.32
 30
0.0
 10
-1.1149
 20
7.3641
 30
0.0
 10
-1.1149
 20
7.3641
 30
0.0
  0
SPLINE
  5
96
330
1F
100
AcDbEntity
  8
layer 1
 62
     7
100
AcDbSpline
210
0.0
220
0.0
230
1.0
 70
    11
 71
     3
 72
    20
 73
    16
 74
     0
 42
0.0000000001
 43
0.0000000001
 12
1.0
 22
0.0
 32
0.0
 13
1.0
 23
0.0
 33
0.0
 40
0.0
 40
0.0
 40
0.0
 40
0.0
 40
0.2
 40
0.2
 40
0.2
 40
0.2
 40
0.4
 40
0.4
 40
0.4
 40
0.4
 40
0.6
 40
0.6
 40
0.6
 40
0.6
 40
1.0
 40
1.0
 40
1.0
 40
1.0
 10
-19.7946
 20
7.3232
 30
0.0
 10
-19.7946
 20
7.3232
 30
0.0
 10
-6.8169
 20
7.2606
 30
0.0
 10
-6.8169
 20
7.2606
 30
0.0
 10
-6.8169
 20
7.2606
 30
0.0
 10
-7.8799
 20
15.2484
 30
0.0
 10
-11.7473
 20
24.0927
 30
0.0
 10
-18.885
 20
30.0551
 30
0.0
 10
-18.885
 20
30.0551
 30
0.0
 10
-19.3274
 20
29.0482
 30
0.0
 10
-19.7946
 20
28.3898
 30
0.0
 10
-19.7946
 20
28.3898
 30
0.0
 10
-19.7946
 20
28.3898
 30
0.0
 10
-19.7946
 20
28.3898
 30
0.0
 10
-19.7946
 20
7.3232
 30
0.0
 10
-19.7946
 20
7.3232
 30
0.0
  0
SPLINE
  5
97
330
1F
100
AcDbEntity
  8
layer 1
 62
     7
100
AcDbSpline
210
0.0
220
0.0
230
1.0
 70
    11
 71
     3
 72
    20
 73
    16
 74
     0
 42
0.0000000001
 43
0.0000000001
 12
1.0
 22
0.0
 32
0.0
 13
1.0
 23
0.0
 33
0.0
 40
0.0
 40
0.0
 40
0.0
 40
0.0
 40
0.2
 40
0.2
 40
0.2
 40
0.2
 40
0.4
 40
0.4
 40
0.4
 40
0.4
 40
0.6
 40
0.6
 40
0.6
 40
0.6
 40
1.0
 40
1.0
 40
1.0
 40
1.0
 10
-181.2178
 20
1.97
 30
0.0
 10
-181.2178
 20
1.97
 30
0.0
 10
-157.8531
 20
1.97
 30
0.0
 10
-157.8531
 20
1.97
 30
0.0
 10
-157.8531
 20
1.97
 30
0.0
 10
-157.8531
 20
1.97
 30
0.0
 10
-157.8531
 20
-9.6083
 30
0.0
 10
-157.8531
 20
-9.6083
 30
0.0
 10
-157.8531
 20
-9.6083
 30
0.0
 10
-161.2225
 20
-9.6997
 30
0.0
 10
-165.4258
 20
-11.7996
 30
0.0
 10
-166.5829
 20
-13.1847
 30
0.0
 10
-166.5829
 20
-13.1847
 30
0.0
 10
-166.5829
 20
-13.1847
 30
0.0
 10
-181.2178
 20
1.97
 30
0.0
 10
-181.2178
 20
1.97
 30
0.0
  0
SPLINE
  5
98
330
1F
100
AcDbEntity
  8
layer 1
 62
     7
100
AcDbSpline
210
0.0
220
0.0
230
1.0
 70
    11
 71
     3
 72
    20
 73
    16
 74
     0
 42
0.0000000001
 43
0.0000000001
 12
1.0
 22
0.0
 32
0.0
 13
1.0
 23
0.0
 33
0.0
 40
0.0
 40
0.0
 40
0.0
 40
0.0
 40
0.2
 40
0.2
 40
0.2
 40
0.2
 40
0.4
 40
0.4
 40
0.4
 40
0.4
 40
0.6
 40
0.6
 40
0.6
 40
0.6
 40
1.0
 40
1.0
 40
1.0
 40
1.0
 10
-183.6971
 20
-0.4652
 30
0.0
 10
-183.6971
 20
-0.4652
 30
0.0
 10
-183.6971
 20
-23.8299
 30
0.0
 10
-183.6971
 20
-23.8299
 30
0.0
 10
-183.6971
 20
-23.8299
 30
0.0
 10
-183.6971
 20
-23.8299
 30
0.0
 10
-172.1147
 20
-23.8299
 30
0.0
 10
-172.1147
 20
-23.8299
 30
0.0
 10
-172.1147
 20
-23.8299
 30
0.0
 10
-172.0242
 20
-20.4603
 30
0.0
 10
-169.9275
 20
-16.2565
 30
0.0
 10
-168.5415
 20
-15.1001
 30
0.0
 10
-168.5415
 20
-15.1001
 30
0.0
 10
-168.5415
 20
-15.1001
 30
0.0
 10
-183.6971
 20
-0.4652
 30
0.0
 10
-183.6971
 20
-0.4652
 30
0.0
  0
SPLINE
  5
99
330
1F
100
AcDbEntity
  8
layer 1
 62
     7
100
AcDbSpline
210
0.0
220
0.0
230
1.0
 70
    11
 71
     3
 72
    20
 73
    16
 74
     0
 42
0.0000000001
 43
0.0000000001
 12
1.0
 22
0.0
 32
0.0
 13
1.0
 23
0.0
 33
0.0
 40
0.0
 40
0.0
 40
0.0
 40
0.0
 40
0.2
 40
0.2
 40
0.2
 40
0.2
 40
0.4
 40
0.4
 40
0.4
 40
0.4
 40
0.6
 40
0.6
 40
0.6
 40
0.6
 40
1.0
 40
1.0
 40
1.0
 40
1.0
 10
-169.551
 20
-23.8299
 30
0.0
 10
-169.551
 20
-23.8299
 30
0.0
 10
-164.4798
 20
-23.8299
 30
0.0
 10
-164.4798
 20
-23.8299
 30
0.0
 10
-164.4798
 20
-23.8299
 30
0.0
 10
-164.4798
 20
-23.8299
 30
0.0
 10
-157.768
 20
-16.9649
 30
0.0
 10
-157.768
 20
-16.9649
 30
0.0
 10
-157.768
 20
-16.9649
 30
0.0
 10
-157.768
 20
-16.9649
 30
0.0
 10
-157.8185
 20
-12.2041
 30
0.0
 10
-157.8185
 20
-12.2041
 30
0.0
 10
-157.8185
 20
-12.2041
 30
0.0
 10
-163.7364
 20
-12.8059
 30
0.0
 10
-169.0247
 20
-17.1032
 30
0.0
 10
-169.551
 20
-23.8299
 30
0.0
  0
SPLINE
  5
9A
330
1F
100
AcDbEntity
  8
layer 1
 62
     7
100
AcDbSpline
210
0.0
220
0.0
230
1.0
 70
    11
 71
     3
 72
    20
 73
    16
 74
     0
 42
0.0000000001
 43
0.0000000001
 12
1.0
 22
0.0
 32
0.0
 13
1.0
 23
0.0
 33
0.0
 40
0.0
 40
0.0
 40
0.0
 40
0.0
 40
0.2
 40
0.2
 40
0.2
 40
0.2
 40
0.4
 40
0.4
 40
0.4
 40
0.4
 40
0.6
 40
0.6
 40
0.6
 40
0.6
 40
1.0
 40
1.0
 40
1.0
 40
1.0
 10
-144.1612
 20
-23.8299
 30
0.0
 10
-144.1612
 20
-23.8299
 30
0.0
 10
-149.2332
 20
-23.8299
 30
0.0
 10
-149.2332
 20
-23.8299
 30
0.0
 10
-149.2332
 20
-23.8299
 30
0.0
 10
-149.2332
 20
-23.8299
 30
0.0
 10
-155.944
 20
-16.9649
 30
0.0
 10
-155.944
 20
-16.9649
 30
0.0
 10
-155.944
 20
-16.9649
 30
0.0
 10
-155.944
 20
-16.9649
 30
0.0
 10
-155.8935
 20
-12.2041
 30
0.0
 10
-155.8935
 20
-12.2041
 30
0.0
 10
-155.8935
 20
-12.2041
 30
0.0
 10
-149.9756
 20
-12.8059
 30
0.0
 10
-144.6885
 20
-17.1032
 30
0.0
 10
-144.1612
 20
-23.8299
 30
0.0
  0
SPLINE
  5
9B
330
1F
100
AcDbEntity
  8
layer 1
 62
     7
100
AcDbSpline
210
0.0
220
0.0
230
1.0
 70
    11
 71
     3
 72
    20
 73
    16
 74
     0
 42
0.0000000001
 43
0.0000000001
 12
1.0
 22
0.0
 32
0.0
 13
1.0
 23
0.0
 33
0.0
 40
0.0
 40
0.0
 40
0.0
 40
0.0
 40
0.2
 40
0.2
 40
0.2
 40
0.2
 40
0.4
 40
0.4
 40
0.4
 40
0.4
 40
0.6
 40
0.6
 40
0.6
 40
0.6
 40
1.0
 40
1.0
 40
1.0
 40
1.0
 10
-144.1612
 20
-25.9578
 30
0.0
 10
-144.1612
 20
-25.9578
 30
0.0
 10
-149.2332
 20
-25.9578
 30
0.0
 10
-149.2332
 20
-25.9578
 30
0.0
 10
-149.2332
 20
-25.9578
 30
0.0
 10
-149.2332
 20
-25.9578
 30
0.0
 10
-155.944
 20
-32.8226
 30
0.0
 10
-155.944
 20
-32.8226
 30
0.0
 10
-155.944
 20
-32.8226
 30
0.0
 10
-155.944
 20
-32.8226
 30
0.0
 10
-155.8935
 20
-37.5845
 30
0.0
 10
-155.8935
 20
-37.5845
 30
0.0
 10
-155.8935
 20
-37.5845
 30
0.0
 10
-149.9756
 20
-36.9824
 30
0.0
 10
-144.6885
 20
-32.6816
 30
0.0
 10
-144.1612
 20
-25.9578
 30
0.0
  0
SPLINE
  5
9C
330
1F
100
AcDbEntity
  8
layer 1
 62
     7
100
AcDbSpline
210
0.0
220
0.0
230
1.0
 70
    11
 71
     3
 72
    20
 73
    16
 74
     0
 42
0.0000000001
 43
0.0000000001
 12
1.0
 22
0.0
 32
0.0
 13
1.0
 23
0.0
 33
0.0
 40
0.0
 40
0.0
 40
0.0
 40
0.0
 40
0.2
 40
0.2
 40
0.2
 40
0.2
 40
0.4
 40
0.4
 40
0.4
 40
0.4
 40
0.6
 40
0.6
 40
0.6
 40
0.6
 40
1.0
 40
1.0
 40
1.0
 40
1.0
 10
-169.551
 20
-25.9578
 30
0.0
 10
-169.551
 20
-25.9578
 30
0.0
 10
-164.4798
 20
-25.9578
 30
0.0
 10
-164.4798
 20
-25.9578
 30
0.0
 10
-164.4798
 20
-25.9578
 30
0.0
 10
-164.4798
 20
-25.9578
 30
0.0
 10
-157.768
 20
-32.8226
 30
0.0
 10
-157.768
 20
-32.8226
 30
0.0
 10
-157.768
 20
-32.8226
 30
0.0
 10
-157.768
 20
-32.8226
 30
0.0
 10
-157.8185
 20
-37.5845
 30
0.0
 10
-157.8185
 20
-37.5845
 30
0.0
 10
-157.8185
 20
-37.5845
 30
0.0
 10
-163.7364
 20
-36.9824
 30
0.0
 10
-169.0247
 20
-32.6816
 30
0.0
 10
-169.551
 20
-25.9578
 30
0.0
  0
SPLINE
  5
9D
330
1F
100
AcDbEntity
  8
layer 1
 62
     7
100
AcDbSpline
210
0.0
220
0.0
230
1.0
 70
    11
 71
     3
 72
    20
 73
    16
 74
     0
 42
0.0000000001
 43
0.0000000001
 12
1.0
 22
0.0
 32
0.0
 13
1.0
 23
0.0
 33
0.0
 40
0.0
 40
0.0
 40
0.0
 40
0.0
 40
0.2
 40
0.2
 40
0.2
 40
0.2
 40
0.4
 40
0.4
 40
0.4
 40
0.4
 40
0.6
 40
0.6
 40
0.6
 40
0.6
 40
1.0
 40
1.0
 40
1.0
 40
1.0
 10
-132.4913
 20
1.97
 30
0.0
 10
-132.4913
 20
1.97
 30
0.0
 10
-155.8567
 20
1.97
 30
0.0
 10
-155.8567
 20
1.97
 30
0.0
 10
-155.8567
 20
1.97
 30
0.0
 10
-155.8567
 20
1.97
 30
0.0
 10
-155.8567
 20
-9.6083
 30
0.0
 10
-155.8567
 20
-9.6083
 30
0.0
 10
-155.8567
 20
-9.6083
 30
0.0
 10
-152.4864
 20
-9.6997
 30
0.0
 10
-148.2865
 20
-11.7996
 30
0.0
 10
-147.1271
 20
-13.1847
 30
0.0
 10
-147.1271
 20
-13.1847
 30
0.0
 10
-147.1271
 20
-13.1847
 30
0.0
 10
-132.4913
 20
1.97
 30
0.0
 10
-132.4913
 20
1.97
 30
0.0
  0
SPLINE
  5
9E
330
1F
100
AcDbEntity
  8
layer 1
 62
     7
100
AcDbSpline
210
0.0
220
0.0
230
1.0
 70
    11
 71
     3
 72
    20
 73
    16
 74
     0
 42
0.0000000001
 43
0.0000000001
 12
1.0
 22
0.0
 32
0.0
 13
1.0
 23
0.0
 33
0.0
 40
0.0
 40
0.0
 40
0.0
 40
0.0
 40
0.2
 40
0.2
 40
0.2
 40
0.2
 40
0.4
 40
0.4
 40
0.4
 40
0.4
 40
0.6
 40
0.6
 40
0.6
 40
0.6
 40
1.0
 40
1.0
 40
1.0
 40
1.0
 10
-130.0126
 20
-0.4652
 30
0.0
 10
-130.0126
 20
-0.4652
 30
0.0
 10
-130.0126
 20
-23.8299
 30
0.0
 10
-130.0126
 20
-23.8299
 30
0.0
 10
-130.0126
 20
-23.8299
 30
0.0
 10
-130.0126
 20
-23.8299
 30
0.0
 10
-141.5941
 20
-23.8299
 30
0.0
 10
-141.5941
 20
-23.8299
 30
0.0
 10
-141.5941
 20
-23.8299
 30
0.0
 10
-141.6849
 20
-20.4603
 30
0.0
 10
-143.7857
 20
-16.2565
 30
0.0
 10
-145.1675
 20
-15.1001
 30
0.0
 10
-145.1675
 20
-15.1001
 30
0.0
 10
-145.1675
 20
-15.1001
 30
0.0
 10
-130.0126
 20
-0.4652
 30
0.0
 10
-130.0126
 20
-0.4652
 30
0.0
  0
SPLINE
  5
9F
330
1F
100
AcDbEntity
  8
layer 1
 62
     7
100
AcDbSpline
210
0.0
220
0.0
230
1.0
 70
    11
 71
     3
 72
    20
 73
    16
 74
     0
 42
0.0000000001
 43
0.0000000001
 12
1.0
 22
0.0
 32
0.0
 13
1.0
 23
0.0
 33
0.0
 40
0.0
 40
0.0
 40
0.0
 40
0.0
 40
0.2
 40
0.2
 40
0.2
 40
0.2
 40
0.4
 40
0.4
 40
0.4
 40
0.4
 40
0.6
 40
0.6
 40
0.6
 40
0.6
 40
1.0
 40
1.0
 40
1.0
 40
1.0
 10
-181.2178
 20
-51.8212
 30
0.0
 10
-181.2178
 20
-51.8212
 30
0.0
 10
-157.8531
 20
-51.8212
 30
0.0
 10
-157.8531
 20
-51.8212
 30
0.0
 10
-157.8531
 20
-51.8212
 30
0.0
 10
-157.8531
 20
-51.8212
 30
0.0
 10
-157.8531
 20
-40.2388
 30
0.0
 10
-157.8531
 20
-40.2388
 30
0.0
 10
-157.8531
 20
-40.2388
 30
0.0
 10
-161.2225
 20
-40.1483
 30
0.0
 10
-165.4258
 20
-38.0515
 30
0.0
 10
-166.5829
 20
-36.6656
 30
0.0
 10
-166.5829
 20
-36.6656
 30
0.0
 10
-166.5829
 20
-36.6656
 30
0.0
 10
-181.2178
 20
-51.8212
 30
0.0
 10
-181.2178
 20
-51.8212
 30
0.0
  0
SPLINE
  5
A0
330
1F
100
AcDbEntity
  8
layer 1
 62
     7
100
AcDbSpline
210
0.0
220
0.0
230
1.0
 70
    11
 71
     3
 72
    20
 73
    16
 74
     0
 42
0.0000000001
 43
0.0000000001
 12
1.0
 22
0.0
 32
0.0
 13
1.0
 23
0.0
 33
0.0
 40
0.0
 40
0.0
 40
0.0
 40
0.0
 40
0.2
 40
0.2
 40
0.2
 40
0.2
 40
0.4
 40
0.4
 40
0.4
 40
0.4
 40
0.6
 40
0.6
 40
0.6
 40
0.6
 40
1.0
 40
1.0
 40
1.0
 40
1.0
 10
-183.6971
 20
-49.3857
 30
0.0
 10
-183.6971
 20
-49.3857
 30
0.0
 10
-183.6971
 20
-26.0181
 30
0.0
 10
-183.6971
 20
-26.0181
 30
0.0
 10
-183.6971
 20
-26.0181
 30
0.0
 10
-183.6971
 20
-26.0181
 30
0.0
 10
-172.1147
 20
-26.0181
 30
0.0
 10
-172.1147
 20
-26.0181
 30
0.0
 10
-172.1147
 20
-26.0181
 30
0.0
 10
-172.0242
 20
-29.3875
 30
0.0
 10
-169.9275
 20
-33.5907
 30
0.0
 10
-168.5415
 20
-34.7501
 30
0.0
 10
-168.5415
 20
-34.7501
 30
0.0
 10
-168.5415
 20
-34.7501
 30
0.0
 10
-183.6971
 20
-49.3857
 30
0.0
 10
-183.6971
 20
-49.3857
 30
0.0
  0
SPLINE
  5
A1
330
1F
100
AcDbEntity
  8
layer 1
 62
     7
100
AcDbSpline
210
0.0
220
0.0
230
1.0
 70
    11
 71
     3
 72
    20
 73
    16
 74
     0
 42
0.0000000001
 43
0.0000000001
 12
1.0
 22
0.0
 32
0.0
 13
1.0
 23
0.0
 33
0.0
 40
0.0
 40
0.0
 40
0.0
 40
0.0
 40
0.2
 40
0.2
 40
0.2
 40
0.2
 40
0.4
 40
0.4
 40
0.4
 40
0.4
 40
0.6
 40
0.6
 40
0.6
 40
0.6
 40
1.0
 40
1.0
 40
1.0
 40
1.0
 10
-132.4913
 20
-51.8212
 30
0.0
 10
-132.4913
 20
-51.8212
 30
0.0
 10
-155.8567
 20
-51.8212
 30
0.0
 10
-155.8567
 20
-51.8212
 30
0.0
 10
-155.8567
 20
-51.8212
 30
0.0
 10
-155.8567
 20
-51.8212
 30
0.0
 10
-155.8567
 20
-40.2388
 30
0.0
 10
-155.8567
 20
-40.2388
 30
0.0
 10
-155.8567
 20
-40.2388
 30
0.0
 10
-152.4864
 20
-40.1483
 30
0.0
 10
-148.2865
 20
-38.0515
 30
0.0
 10
-147.1271
 20
-36.6656
 30
0.0
 10
-147.1271
 20
-36.6656
 30
0.0
 10
-147.1271
 20
-36.6656
 30
0.0
 10
-132.4913
 20
-51.8212
 30
0.0
 10
-132.4913
 20
-51.8212
 30
0.0
  0
SPLINE
  5
A2
330
1F
100
AcDbEntity
  8
layer 1
 62
     7
100
AcDbSpline
210
0.0
220
0.0
230
1.0
 70
    11
 71
     3
 72
    20
 73
    16
 74
     0
 42
0.0000000001
 43
0.0000000001
 12
1.0
 22
0.0
 32
0.0
 13
1.0
 23
0.0
 33
0.0
 40
0.0
 40
0.0
 40
0.0
 40
0.0
 40
0.2
 40
0.2
 40
0.2
 40
0.2
 40
0.4
 40
0.4
 40
0.4
 40
0.4
 40
0.6
 40
0.6
 40
0.6
 40
0.6
 40
1.0
 40
1.0
 40
1.0
 40
1.0
 10
-130.0126
 20
-49.3857
 30
0.0
 10
-130.0126
 20
-49.3857
 30
0.0
 10
-130.0126
 20
-26.0181
 30
0.0
 10
-130.0126
 20
-26.0181
 30
0.0
 10
-130.0126
 20
-26.0181
 30
0.0
 10
-130.0126
 20
-26.0181
 30
0.0
 10
-141.5941
 20
-26.0181
 30
0.0
 10
-141.5941
 20
-26.0181
 30
0.0
 10
-141.5941
 20
-26.0181
 30
0.0
 10
-141.6849
 20
-29.3875
 30
0.0
 10
-143.7857
 20
-33.5907
 30
0.0
 10
-145.1675
 20
-34.7501
 30
0.0
 10
-145.1675
 20
-34.7501
 30
0.0
 10
-145.1675
 20
-34.7501
 30
0.0
 10
-130.0126
 20
-49.3857
 30
0.0
 10
-130.0126
 20
-49.3857
 30
0.0
  0
SPLINE
  5
A3
330
1F
100
AcDbEntity
  8
layer 1
 62
     7
100
AcDbSpline
210
0.0
220
0.0
230
1.0
 70
    11
 71
     3
 72
    20
 73
    16
 74
     0
 42
0.0000000001
 43
0.0000000001
 12
1.0
 22
0.0
 32
0.0
 13
1.0
 23
0.0
 33
0.0
 40
0.0
 40
0.0
 40
0.0
 40
0.0
 40
0.2
 40
0.2
 40
0.2
 40
0.2
 40
0.4
 40
0.4
 40
0.4
 40
0.4
 40
0.6
 40
0.6
 40
0.6
 40
0.6
 40
1.0
 40
1.0
 40
1.0
 40
1.0
 10
-163.0128
 20
-24.9682
 30
0.0
 10
-163.0128
 20
-24.9682
 30
0.0
 10
-156.8283
 20
-18.7839
 30
0.0
 10
-156.8283
 20
-18.7839
 30
0.0
 10
-156.8283
 20
-18.7839
 30
0.0
 10
-156.8283
 20
-18.7839
 30
0.0
 10
-150.647
 20
-24.9682
 30
0.0
 10
-150.647
 20
-24.9682
 30
0.0
 10
-150.647
 20
-24.9682
 30
0.0
 10
-150.647
 20
-24.9682
 30
0.0
 10
-156.8283
 20
-31.1526
 30
0.0
 10
-156.8283
 20
-31.1526
 30
0.0
 10
-156.8283
 20
-31.1526
 30
0.0
 10
-156.8283
 20
-31.1526
 30
0.0
 10
-163.0128
 20
-24.9682
 30
0.0
 10
-163.0128
 20
-24.9682
 30
0.0
  0
SPLINE
  5
A4
330
1F
100
AcDbEntity
  8
layer 1
 62
     7
100
AcDbSpline
210
0.0
220
0.0
230
1.0
 70
    11
 71
     3
 72
    20
 73
    16
 74
     0
 42
0.0000000001
 43
0.0000000001
 12
1.0
 22
0.0
 32
0.0
 13
1.0
 23
0.0
 33
0.0
 40
0.0
 40
0.0
 40
0.0
 40
0.0
 40
0.2
 40
0.2
 40
0.2
 40
0.2
 40
0.4
 40
0.4
 40
0.4
 40
0.4
 40
0.6
 40
0.6
 40
0.6
 40
0.6
 40
1.0
 40
1.0
 40
1.0
 40
1.0
 10
-106.5403
 20
1.9388
 30
0.0
 10
-106.5403
 20
1.9388
 30
0.0
 10
-93.4335
 20
1.9388
 30
0.0
 10
-93.4335
 20
1.9388
 30
0.0
 10
-93.4335
 20
1.9388
 30
0.0
 10
-93.4335
 20
1.9388
 30
0.0
 10
-93.4335
 20
-7.9315
 30
0.0
 10
-93.4335
 20
-7.9315
 30
0.0
 10
-93.4335
 20
-7.9315
 30
0.0
 10
-93.4335
 20
-7.9315
 30
0.0
 10
-100.7759
 20
-7.941
 30
0.0
 10
-100.7759
 20
-7.941
 30
0.0
 10
-100.7759
 20
-7.941
 30
0.0
 10
-100.7759
 20
-7.941
 30
0.0
 10
-106.5403
 20
1.9388
 30
0.0
 10
-106.5403
 20
1.9388
 30
0.0
  0
SPLINE
  5
A5
330
1F
100
AcDbEntity
  8
layer 1
 62
     7
100
AcDbSpline
210
0.0
220
0.0
230
1.0
 70
    11
 71
     3
 72
    28
 73
    24
 74
     0
 42
0.0000000001
 43
0.0000000001
 12
1.0
 22
0.0
 32
0.0
 13
1.0
 23
0.0
 33
0.0
 40
0.0
 40
0.0
 40
0.0
 40
0.0
 40
0.1428571428571428
 40
0.1428571428571428
 40
0.1428571428571428
 40
0.1428571428571428
 40
0.2857142857142857
 40
0.2857142857142857
 40
0.2857142857142857
 40
0.2857142857142857
 40
0.4285714285714285
 40
0.4285714285714285
 40
0.4285714285714285
 40
0.4285714285714285
 40
0.5714285714285714
 40
0.5714285714285714
 40
0.5714285714285714
 40
0.5714285714285714
 40
0.7142857142857143
 40
0.7142857142857143
 40
0.7142857142857143
 40
0.7142857142857143
 40
1.0
 40
1.0
 40
1.0
 40
1.0
 10
-119.2613
 20
1.901
 30
0.0
 10
-119.2613
 20
1.901
 30
0.0
 10
-119.2613
 20
-7.7903
 30
0.0
 10
-119.2613
 20
-7.7903
 30
0.0
 10
-119.2613
 20
-7.7903
 30
0.0
 10
-119.2613
 20
-7.7903
 30
0.0
 10
-109.4561
 20
-13.8427
 30
0.0
 10
-109.4561
 20
-13.8427
 30
0.0
 10
-109.4561
 20
-13.8427
 30
0.0
 10
-109.4561
 20
-13.8427
 30
0.0
 10
-109.3936
 20
-7.9626
 30
0.0
 10
-109.3936
 20
-7.9626
 30
0.0
 10
-109.3936
 20
-7.9626
 30
0.0
 10
-109.3936
 20
-7.9626
 30
0.0
 10
-103.6302
 20
-7.9064
 30
0.0
 10
-103.6302
 20
-7.9064
 30
0.0
 10
-103.6302
 20
-7.9064
 30
0.0
 10
-103.6302
 20
-7.9064
 30
0.0
 10
-108.8803
 20
1.9235
 30
0.0
 10
-108.8803
 20
1.9235
 30
0.0
 10
-108.8803
 20
1.9235
 30
0.0
 10
-108.8803
 20
1.9235
 30
0.0
 10
-119.2613
 20
1.901
 30
0.0
 10
-119.2613
 20
1.901
 30
0.0
  0
SPLINE
  5
A6
330
1F
100
AcDbEntity
  8
layer 1
 62
     7
100
AcDbSpline
210
0.0
220
0.0
230
1.0
 70
    11
 71
     3
 72
    20
 73
    16
 74
     0
 42
0.0000000001
 43
0.0000000001
 12
1.0
 22
0.0
 32
0.0
 13
1.0
 23
0.0
 33
0.0
 40
0.0
 40
0.0
 40
0.0
 40
0.0
 40
0.2
 40
0.2
 40
0.2
 40
0.2
 40
0.4
 40
0.4
 40
0.4
 40
0.4
 40
0.6
 40
0.6
 40
0.6
 40
0.6
 40
1.0
 40
1.0
 40
1.0
 40
1.0
 10
-119.3429
 20
-10.5408
 30
0.0
 10
-119.3429
 20
-10.5408
 30
0.0
 10
-119.3429
 20
-23.6476
 30
0.0
 10
-119.3429
 20
-23.6476
 30
0.0
 10
-119.3429
 20
-23.6476
 30
0.0
 10
-119.3429
 20
-23.6476
 30
0.0
 10
-109.472
 20
-23.6476
 30
0.0
 10
-109.472
 20
-23.6476
 30
0.0
 10
-109.472
 20
-23.6476
 30
0.0
 10
-109.472
 20
-23.6476
 30
0.0
 10
-109.4625
 20
-16.358
 30
0.0
 10
-109.4625
 20
-16.358
 30
0.0
 10
-109.4625
 20
-16.358
 30
0.0
 10
-109.4625
 20
-16.358
 30
0.0
 10
-119.3429
 20
-10.5408
 30
0.0
 10
-119.3429
 20
-10.5408
 30
0.0
  0
SPLINE
  5
A7
330
1F
100
AcDbEntity
  8
layer 1
 62
     7
100
AcDbSpline
210
0.0
220
0.0
230
1.0
 70
    11
 71
     3
 72
    20
 73
    16
 74
     0
 42
0.0000000001
 43
0.0000000001
 12
1.0
 22
0.0
 32
0.0
 13
1.0
 23
0.0
 33
0.0
 40
0.0
 40
0.0
 40
0.0
 40
0.0
 40
0.2
 40
0.2
 40
0.2
 40
0.2
 40
0.4
 40
0.4
 40
0.4
 40
0.4
 40
0.6
 40
0.6
 40
0.6
 40
0.6
 40
1.0
 40
1.0
 40
1.0
 40
1.0
 10
-78.297
 20
1.9388
 30
0.0
 10
-78.297
 20
1.9388
 30
0.0
 10
-91.4038
 20
1.9388
 30
0.0
 10
-91.4038
 20
1.9388
 30
0.0
 10
-91.4038
 20
1.9388
 30
0.0
 10
-91.4038
 20
1.9388
 30
0.0
 10
-91.4038
 20
-7.9315
 30
0.0
 10
-91.4038
 20
-7.9315
 30
0.0
 10
-91.4038
 20
-7.9315
 30
0.0
 10
-91.4038
 20
-7.9315
 30
0.0
 10
-84.0636
 20
-7.941
 30
0.0
 10
-84.0636
 20
-7.941
 30
0.0
 10
-84.0636
 20
-7.941
 30
0.0
 10
-84.0636
 20
-7.941
 30
0.0
 10
-78.297
 20
1.9388
 30
0.0
 10
-78.297
 20
1.9388
 30
0.0
  0
SPLINE
  5
A8
330
1F
100
AcDbEntity
  8
layer 1
 62
     7
100
AcDbSpline
210
0.0
220
0.0
230
1.0
 70
    11
 71
     3
 72
    28
 73
    24
 74
     0
 42
0.0000000001
 43
0.0000000001
 12
1.0
 22
0.0
 32
0.0
 13
1.0
 23
0.0
 33
0.0
 40
0.0
 40
0.0
 40
0.0
 40
0.0
 40
0.1428571428571428
 40
0.1428571428571428
 40
0.1428571428571428
 40
0.1428571428571428
 40
0.2857142857142857
 40
0.2857142857142857
 40
0.2857142857142857
 40
0.2857142857142857
 40
0.4285714285714285
 40
0.4285714285714285
 40
0.4285714285714285
 40
0.4285714285714285
 40
0.5714285714285714
 40
0.5714285714285714
 40
0.5714285714285714
 40
0.5714285714285714
 40
0.7142857142857143
 40
0.7142857142857143
 40
0.7142857142857143
 40
0.7142857142857143
 40
1.0
 40
1.0
 40
1.0
 40
1.0
 10
-65.576
 20
1.901
 30
0.0
 10
-65.576
 20
1.901
 30
0.0
 10
-65.576
 20
-7.7903
 30
0.0
 10
-65.576
 20
-7.7903
 30
0.0
 10
-65.576
 20
-7.7903
 30
0.0
 10
-65.576
 20
-7.7903
 30
0.0
 10
-75.3837
 20
-13.8427
 30
0.0
 10
-75.3837
 20
-13.8427
 30
0.0
 10
-75.3837
 20
-13.8427
 30
0.0
 10
-75.3837
 20
-13.8427
 30
0.0
 10
-75.443
 20
-7.9626
 30
0.0
 10
-75.443
 20
-7.9626
 30
0.0
 10
-75.443
 20
-7.9626
 30
0.0
 10
-75.443
 20
-7.9626
 30
0.0
 10
-81.2072
 20
-7.9064
 30
0.0
 10
-81.2072
 20
-7.9064
 30
0.0
 10
-81.2072
 20
-7.9064
 30
0.0
 10
-81.2072
 20
-7.9064
 30
0.0
 10
-75.957
 20
1.9235
 30
0.0
 10
-75.957
 20
1.9235
 30
0.0
 10
-75.957
 20
1.9235
 30
0.0
 10
-75.957
 20
1.9235
 30
0.0
 10
-65.576
 20
1.901
 30
0.0
 10
-65.576
 20
1.901
 30
0.0
  0
SPLINE
  5
A9
330
1F
100
AcDbEntity
  8
layer 1
 62
     7
100
AcDbSpline
210
0.0
220
0.0
230
1.0
 70
    11
 71
     3
 72
    20
 73
    16
 74
     0
 42
0.0000000001
 43
0.0000000001
 12
1.0
 22
0.0
 32
0.0
 13
1.0
 23
0.0
 33
0.0
 40
0.0
 40
0.0
 40
0.0
 40
0.0
 40
0.2
 40
0.2
 40
0.2
 40
0.2
 40
0.4
 40
0.4
 40
0.4
 40
0.4
 40
0.6
 40
0.6
 40
0.6
 40
0.6
 40
1.0
 40
1.0
 40
1.0
 40
1.0
 10
-65.4942
 20
-10.5408
 30
0.0
 10
-65.4942
 20
-10.5408
 30
0.0
 10
-65.4942
 20
-23.6476
 30
0.0
 10
-65.4942
 20
-23.6476
 30
0.0
 10
-65.4942
 20
-23.6476
 30
0.0
 10
-65.4942
 20
-23.6476
 30
0.0
 10
-75.3685
 20
-23.6476
 30
0.0
 10
-75.3685
 20
-23.6476
 30
0.0
 10
-75.3685
 20
-23.6476
 30
0.0
 10
-75.3685
 20
-23.6476
 30
0.0
 10
-75.3771
 20
-16.358
 30
0.0
 10
-75.3771
 20
-16.358
 30
0.0
 10
-75.3771
 20
-16.358
 30
0.0
 10
-75.3771
 20
-16.358
 30
0.0
 10
-65.4942
 20
-10.5408
 30
0.0
 10
-65.4942
 20
-10.5408
 30
0.0
  0
SPLINE
  5
AA
330
1F
100
AcDbEntity
  8
layer 1
 62
     7
100
AcDbSpline
210
0.0
220
0.0
230
1.0
 70
    11
 71
     3
 72
    20
 73
    16
 74
     0
 42
0.0000000001
 43
0.0000000001
 12
1.0
 22
0.0
 32
0.0
 13
1.0
 23
0.0
 33
0.0
 40
0.0
 40
0.0
 40
0.0
 40
0.0
 40
0.2
 40
0.2
 40
0.2
 40
0.2
 40
0.4
 40
0.4
 40
0.4
 40
0.4
 40
0.6
 40
0.6
 40
0.6
 40
0.6
 40
1.0
 40
1.0
 40
1.0
 40
1.0
 10
-106.521
 20
-51.8252
 30
0.0
 10
-106.521
 20
-51.8252
 30
0.0
 10
-93.4149
 20
-51.8252
 30
0.0
 10
-93.4149
 20
-51.8252
 30
0.0
 10
-93.4149
 20
-51.8252
 30
0.0
 10
-93.4149
 20
-51.8252
 30
0.0
 10
-93.4149
 20
-41.9543
 30
0.0
 10
-93.4149
 20
-41.9543
 30
0.0
 10
-93.4149
 20
-41.9543
 30
0.0
 10
-93.4149
 20
-41.9543
 30
0.0
 10
-100.7543
 20
-41.9446
 30
0.0
 10
-100.7543
 20
-41.9446
 30
0.0
 10
-100.7543
 20
-41.9446
 30
0.0
 10
-100.7543
 20
-41.9446
 30
0.0
 10
-106.521
 20
-51.8252
 30
0.0
 10
-106.521
 20
-51.8252
 30
0.0
  0
SPLINE
  5
AB
330
1F
100
AcDbEntity
  8
layer 1
 62
     7
100
AcDbSpline
210
0.0
220
0.0
230
1.0
 70
    11
 71
     3
 72
    28
 73
    24
 74
     0
 42
0.0000000001
 43
0.0000000001
 12
1.0
 22
0.0
 32
0.0
 13
1.0
 23
0.0
 33
0.0
 40
0.0
 40
0.0
 40
0.0
 40
0.0
 40
0.1428571428571428
 40
0.1428571428571428
 40
0.1428571428571428
 40
0.1428571428571428
 40
0.2857142857142857
 40
0.2857142857142857
 40
0.2857142857142857
 40
0.2857142857142857
 40
0.4285714285714285
 40
0.4285714285714285
 40
0.4285714285714285
 40
0.4285714285714285
 40
0.5714285714285714
 40
0.5714285714285714
 40
0.5714285714285714
 40
0.5714285714285714
 40
0.7142857142857143
 40
0.7142857142857143
 40
0.7142857142857143
 40
0.7142857142857143
 40
1.0
 40
1.0
 40
1.0
 40
1.0
 10
-119.2429
 20
-51.7843
 30
0.0
 10
-119.2429
 20
-51.7843
 30
0.0
 10
-119.2429
 20
-42.0953
 30
0.0
 10
-119.2429
 20
-42.0953
 30
0.0
 10
-119.2429
 20
-42.0953
 30
0.0
 10
-119.2429
 20
-42.0953
 30
0.0
 10
-109.4345
 20
-36.0434
 30
0.0
 10
-109.4345
 20
-36.0434
 30
0.0
 10
-109.4345
 20
-36.0434
 30
0.0
 10
-109.4345
 20
-36.0434
 30
0.0
 10
-109.372
 20
-41.923
 30
0.0
 10
-109.372
 20
-41.923
 30
0.0
 10
-109.372
 20
-41.923
 30
0.0
 10
-109.372
 20
-41.923
 30
0.0
 10
-103.6108
 20
-41.9791
 30
0.0
 10
-103.6108
 20
-41.9791
 30
0.0
 10
-103.6108
 20
-41.9791
 30
0.0
 10
-103.6108
 20
-41.9791
 30
0.0
 10
-108.8581
 20
-51.8091
 30
0.0
 10
-108.8581
 20
-51.8091
 30
0.0
 10
-108.8581
 20
-51.8091
 30
0.0
 10
-108.8581
 20
-51.8091
 30
0.0
 10
-119.2429
 20
-51.7843
 30
0.0
 10
-119.2429
 20
-51.7843
 30
0.0
  0
SPLINE
  5
AC
330
1F
100
AcDbEntity
  8
layer 1
 62
     7
100
AcDbSpline
210
0.0
220
0.0
230
1.0
 70
    11
 71
     3
 72
    20
 73
    16
 74
     0
 42
0.0000000001
 43
0.0000000001
 12
1.0
 22
0.0
 32
0.0
 13
1.0
 23
0.0
 33
0.0
 40
0.0
 40
0.0
 40
0.0
 40
0.0
 40
0.2
 40
0.2
 40
0.2
 40
0.2
 40
0.4
 40
0.4
 40
0.4
 40
0.4
 40
0.6
 40
0.6
 40
0.6
 40
0.6
 40
1.0
 40
1.0
 40
1.0
 40
1.0
 10
-119.3207
 20
-39.3447
 30
0.0
 10
-119.3207
 20
-39.3447
 30
0.0
 10
-119.3207
 20
-26.2379
 30
0.0
 10
-119.3207
 20
-26.2379
 30
0.0
 10
-119.3207
 20
-26.2379
 30
0.0
 10
-119.3207
 20
-26.2379
 30
0.0
 10
-109.4504
 20
-26.2379
 30
0.0
 10
-109.4504
 20
-26.2379
 30
0.0
 10
-109.4504
 20
-26.2379
 30
0.0
 10
-109.4504
 20
-26.2379
 30
0.0
 10
-109.4407
 20
-33.5276
 30
0.0
 10
-109.4407
 20
-33.5276
 30
0.0
 10
-109.4407
 20
-33.5276
 30
0.0
 10
-109.4407
 20
-33.5276
 30
0.0
 10
-119.3207
 20
-39.3447
 30
0.0
 10
-119.3207
 20
-39.3447
 30
0.0
  0
SPLINE
  5
AD
330
1F
100
AcDbEntity
  8
layer 1
 62
     7
100
AcDbSpline
210
0.0
220
0.0
230
1.0
 70
    11
 71
     3
 72
    20
 73
    16
 74
     0
 42
0.0000000001
 43
0.0000000001
 12
1.0
 22
0.0
 32
0.0
 13
1.0
 23
0.0
 33
0.0
 40
0.0
 40
0.0
 40
0.0
 40
0.0
 40
0.2
 40
0.2
 40
0.2
 40
0.2
 40
0.4
 40
0.4
 40
0.4
 40
0.4
 40
0.6
 40
0.6
 40
0.6
 40
0.6
 40
1.0
 40
1.0
 40
1.0
 40
1.0
 10
-78.2786
 20
-51.8252
 30
0.0
 10
-78.2786
 20
-51.8252
 30
0.0
 10
-91.3847
 20
-51.8252
 30
0.0
 10
-91.3847
 20
-51.8252
 30
0.0
 10
-91.3847
 20
-51.8252
 30
0.0
 10
-91.3847
 20
-51.8252
 30
0.0
 10
-91.3847
 20
-41.9543
 30
0.0
 10
-91.3847
 20
-41.9543
 30
0.0
 10
-91.3847
 20
-41.9543
 30
0.0
 10
-91.3847
 20
-41.9543
 30
0.0
 10
-84.0421
 20
-41.9446
 30
0.0
 10
-84.0421
 20
-41.9446
 30
0.0
 10
-84.0421
 20
-41.9446
 30
0.0
 10
-84.0421
 20
-41.9446
 30
0.0
 10
-78.2786
 20
-51.8252
 30
0.0
 10
-78.2786
 20
-51.8252
 30
0.0
  0
SPLINE
  5
AE
330
1F
100
AcDbEntity
  8
layer 1
 62
     7
100
AcDbSpline
210
0.0
220
0.0
230
1.0
 70
    11
 71
     3
 72
    28
 73
    24
 74
     0
 42
0.0000000001
 43
0.0000000001
 12
1.0
 22
0.0
 32
0.0
 13
1.0
 23
0.0
 33
0.0
 40
0.0
 40
0.0
 40
0.0
 40
0.0
 40
0.1428571428571428
 40
0.1428571428571428
 40
0.1428571428571428
 40
0.1428571428571428
 40
0.2857142857142857
 40
0.2857142857142857
 40
0.2857142857142857
 40
0.2857142857142857
 40
0.4285714285714285
 40
0.4285714285714285
 40
0.4285714285714285
 40
0.4285714285714285
 40
0.5714285714285714
 40
0.5714285714285714
 40
0.5714285714285714
 40
0.5714285714285714
 40
0.7142857142857143
 40
0.7142857142857143
 40
0.7142857142857143
 40
0.7142857142857143
 40
1.0
 40
1.0
 40
1.0
 40
1.0
 10
-65.5567
 20
-51.7843
 30
0.0
 10
-65.5567
 20
-51.7843
 30
0.0
 10
-65.5567
 20
-42.0953
 30
0.0
 10
-65.5567
 20
-42.0953
 30
0.0
 10
-65.5567
 20
-42.0953
 30
0.0
 10
-65.5567
 20
-42.0953
 30
0.0
 10
-75.3621
 20
-36.0434
 30
0.0
 10
-75.3621
 20
-36.0434
 30
0.0
 10
-75.3621
 20
-36.0434
 30
0.0
 10
-75.3621
 20
-36.0434
 30
0.0
 10
-75.4246
 20
-41.923
 30
0.0
 10
-75.4246
 20
-41.923
 30
0.0
 10
-75.4246
 20
-41.923
 30
0.0
 10
-75.4246
 20
-41.923
 30
0.0
 10
-81.1881
 20
-41.9791
 30
0.0
 10
-81.1881
 20
-41.9791
 30
0.0
 10
-81.1881
 20
-41.9791
 30
0.0
 10
-81.1881
 20
-41.9791
 30
0.0
 10
-75.9386
 20
-51.8091
 30
0.0
 10
-75.9386
 20
-51.8091
 30
0.0
 10
-75.9386
 20
-51.8091
 30
0.0
 10
-75.9386
 20
-51.8091
 30
0.0
 10
-65.5567
 20
-51.7843
 30
0.0
 10
-65.5567
 20
-51.7843
 30
0.0
  0
SPLINE
  5
AF
330
1F
100
AcDbEntity
  8
layer 1
 62
     7
100
AcDbSpline
210
0.0
220
0.0
230
1.0
 70
    11
 71
     3
 72
    20
 73
    16
 74
     0
 42
0.0000000001
 43
0.0000000001
 12
1.0
 22
0.0
 32
0.0
 13
1.0
 23
0.0
 33
0.0
 40
0.0
 40
0.0
 40
0.0
 40
0.0
 40
0.2
 40
0.2
 40
0.2
 40
0.2
 40
0.4
 40
0.4
 40
0.4
 40
0.4
 40
0.6
 40
0.6
 40
0.6
 40
0.6
 40
1.0
 40
1.0
 40
1.0
 40
1.0
 10
-65.4757
 20
-39.3447
 30
0.0
 10
-65.4757
 20
-39.3447
 30
0.0
 10
-65.4757
 20
-26.2379
 30
0.0
 10
-65.4757
 20
-26.2379
 30
0.0
 10
-65.4757
 20
-26.2379
 30
0.0
 10
-65.4757
 20
-26.2379
 30
0.0
 10
-75.3457
 20
-26.2379
 30
0.0
 10
-75.3457
 20
-26.2379
 30
0.0
 10
-75.3457
 20
-26.2379
 30
0.0
 10
-75.3457
 20
-26.2379
 30
0.0
 10
-75.3555
 20
-33.5276
 30
0.0
 10
-75.3555
 20
-33.5276
 30
0.0
 10
-75.3555
 20
-33.5276
 30
0.0
 10
-75.3555
 20
-33.5276
 30
0.0
 10
-65.4757
 20
-39.3447
 30
0.0
 10
-65.4757
 20
-39.3447
 30
0.0
  0
SPLINE
  5
B0
330
1F
100
AcDbEntity
  8
layer 1
 62
     7
100
AcDbSpline
210
0.0
220
0.0
230
1.0
 70
    11
 71
     3
 72
    20
 73
    16
 74
     0
 42
0.0000000001
 43
0.0000000001
 12
1.0
 22
0.0
 32
0.0
 13
1.0
 23
0.0
 33
0.0
 40
0.0
 40
0.0
 40
0.0
 40
0.0
 40
0.2
 40
0.2
 40
0.2
 40
0.2
 40
0.4
 40
0.4
 40
0.4
 40
0.4
 40
0.6
 40
0.6
 40
0.6
 40
0.6
 40
1.0
 40
1.0
 40
1.0
 40
1.0
 10
-107.6021
 20
-9.7671
 30
0.0
 10
-107.6021
 20
-9.7671
 30
0.0
 10
-93.6588
 20
-9.7671
 30
0.0
 10
-93.6588
 20
-9.7671
 30
0.0
 10
-93.6588
 20
-9.7671
 30
0.0
 10
-93.6588
 20
-9.7671
 30
0.0
 10
-93.6588
 20
-23.7101
 30
0.0
 10
-93.6588
 20
-23.7101
 30
0.0
 10
-93.6588
 20
-23.7101
 30
0.0
 10
-93.6588
 20
-23.7101
 30
0.0
 10
-107.6019
 20
-23.7101
 30
0.0
 10
-107.6019
 20
-23.7101
 30
0.0
 10
-107.6019
 20
-23.7101
 30
0.0
 10
-107.6019
 20
-23.7101
 30
0.0
 10
-107.6021
 20
-9.7671
 30
0.0
 10
-107.6021
 20
-9.7671
 30
0.0
  0
SPLINE
  5
B1
330
1F
100
AcDbEntity
  8
layer 1
 62
     7
100
AcDbSpline
210
0.0
220
0.0
230
1.0
 70
    11
 71
     3
 72
    20
 73
    16
 74
     0
 42
0.0000000001
 43
0.0000000001
 12
1.0
 22
0.0
 32
0.0
 13
1.0
 23
0.0
 33
0.0
 40
0.0
 40
0.0
 40
0.0
 40
0.0
 40
0.2
 40
0.2
 40
0.2
 40
0.2
 40
0.4
 40
0.4
 40
0.4
 40
0.4
 40
0.6
 40
0.6
 40
0.6
 40
0.6
 40
1.0
 40
1.0
 40
1.0
 40
1.0
 10
-91.2692
 20
-9.7671
 30
0.0
 10
-91.2692
 20
-9.7671
 30
0.0
 10
-77.3259
 20
-9.7671
 30
0.0
 10
-77.3259
 20
-9.7671
 30
0.0
 10
-77.3259
 20
-9.7671
 30
0.0
 10
-77.3259
 20
-9.7671
 30
0.0
 10
-77.3259
 20
-23.7101
 30
0.0
 10
-77.3259
 20
-23.7101
 30
0.0
 10
-77.3259
 20
-23.7101
 30
0.0
 10
-77.3259
 20
-23.7101
 30
0.0
 10
-91.269
 20
-23.7101
 30
0.0
 10
-91.269
 20
-23.7101
 30
0.0
 10
-91.269
 20
-23.7101
 30
0.0
 10
-91.269
 20
-23.7101
 30
0.0
 10
-91.2692
 20
-9.7671
 30
0.0
 10
-91.2692
 20
-9.7671
 30
0.0
  0
SPLINE
  5
B2
330
1F
100
AcDbEntity
  8
layer 1
 62
     7
100
AcDbSpline
210
0.0
220
0.0
230
1.0
 70
    11
 71
     3
 72
    20
 73
    16
 74
     0
 42
0.0000000001
 43
0.0000000001
 12
1.0
 22
0.0
 32
0.0
 13
1.0
 23
0.0
 33
0.0
 40
0.0
 40
0.0
 40
0.0
 40
0.0
 40
0.2
 40
0.2
 40
0.2
 40
0.2
 40
0.4
 40
0.4
 40
0.4
 40
0.4
 40
0.6
 40
0.6
 40
0.6
 40
0.6
 40
1.0
 40
1.0
 40
1.0
 40
1.0
 10
-107.6021
 20
-26.1377
 30
0.0
 10
-107.6021
 20
-26.1377
 30
0.0
 10
-93.6588
 20
-26.1377
 30
0.0
 10
-93.6588
 20
-26.1377
 30
0.0
 10
-93.6588
 20
-26.1377
 30
0.0
 10
-93.6588
 20
-26.1377
 30
0.0
 10
-93.6588
 20
-40.0808
 30
0.0
 10
-93.6588
 20
-40.0808
 30
0.0
 10
-93.6588
 20
-40.0808
 30
0.0
 10
-93.6588
 20
-40.0808
 30
0.0
 10
-107.6019
 20
-40.0808
 30
0.0
 10
-107.6019
 20
-40.0808
 30
0.0
 10
-107.6019
 20
-40.0808
 30
0.0
 10
-107.6019
 20
-40.0808
 30
0.0
 10
-107.6021
 20
-26.1377
 30
0.0
 10
-107.6021
 20
-26.1377
 30
0.0
  0
SPLINE
  5
B3
330
1F
100
AcDbEntity
  8
layer 1
 62
     7
100
AcDbSpline
210
0.0
220
0.0
230
1.0
 70
    11
 71
     3
 72
    20
 73
    16
 74
     0
 42
0.0000000001
 43
0.0000000001
 12
1.0
 22
0.0
 32
0.0
 13
1.0
 23
0.0
 33
0.0
 40
0.0
 40
0.0
 40
0.0
 40
0.0
 40
0.2
 40
0.2
 40
0.2
 40
0.2
 40
0.4
 40
0.4
 40
0.4
 40
0.4
 40
0.6
 40
0.6
 40
0.6
 40
0.6
 40
1.0
 40
1.0
 40
1.0
 40
1.0
 10
-91.2692
 20
-26.1377
 30
0.0
 10
-91.2692
 20
-26.1377
 30
0.0
 10
-77.3259
 20
-26.1377
 30
0.0
 10
-77.3259
 20
-26.1377
 30
0.0
 10
-77.3259
 20
-26.1377
 30
0.0
 10
-77.3259
 20
-26.1377
 30
0.0
 10
-77.3259
 20
-40.0808
 30
0.0
 10
-77.3259
 20
-40.0808
 30
0.0
 10
-77.3259
 20
-40.0808
 30
0.0
 10
-77.3259
 20
-40.0808
 30
0.0
 10
-91.269
 20
-40.0808
 30
0.0
 10
-91.269
 20
-40.0808
 30
0.0
 10
-91.269
 20
-40.0808
 30
0.0
 10
-91.269
 20
-40.0808
 30
0.0
 10
-91.2692
 20
-26.1377
 30
0.0
 10
-91.2692
 20
-26.1377
 30
0.0
  0
SPLINE
  5
B4
330
1F
100
AcDbEntity
  8
layer 1
 62
     7
100
AcDbSpline
210
0.0
220
0.0
230
1.0
 70
    11
 71
     3
 72
    24
 73
    20
 74
     0
 42
0.0000000001
 43
0.0000000001
 12
1.0
 22
0.0
 32
0.0
 13
1.0
 23
0.0
 33
0.0
 40
0.0
 40
0.0
 40
0.0
 40
0.0
 40
0.1666666666666667
 40
0.1666666666666667
 40
0.1666666666666667
 40
0.1666666666666667
 40
0.3333333333333333
 40
0.3333333333333333
 40
0.3333333333333333
 40
0.3333333333333333
 40
0.5
 40
0.5
 40
0.5
 40
0.5
 40
0.6666666666666666
 40
0.6666666666666666
 40
0.6666666666666666
 40
0.6666666666666666
 40
1.0
 40
1.0
 40
1.0
 40
1.0
 10
-33.845
 20
-16.8339
 30
0.0
 10
-33.845
 20
-16.8339
 30
0.0
 10
-33.858
 20
1.9551
 30
0.0
 10
-33.858
 20
1.9551
 30
0.0
 10
-33.858
 20
1.9551
 30
0.0
 10
-33.858
 20
1.9551
 30
0.0
 10
-22.0869
 20
1.9551
 30
0.0
 10
-22.0869
 20
1.9551
 30
0.0
 10
-22.0869
 20
1.9551
 30
0.0
 10
-22.0869
 20
1.9551
 30
0.0
 10
-22.0996
 20
-16.8339
 30
0.0
 10
-22.0996
 20
-16.8339
 30
0.0
 10
-22.0996
 20
-16.8339
 30
0.0
 10
-23.6836
 20
-15.7139
 30
0.0
 10
-25.7319
 20
-15.0685
 30
0.0
 10
-27.9737
 20
-15.0403
 30
0.0
 10
-27.9737
 20
-15.0403
 30
0.0
 10
-30.2136
 20
-15.0683
 30
0.0
 10
-32.261
 20
-15.7139
 30
0.0
 10
-33.845
 20
-16.8339
 30
0.0
  0
SPLINE
  5
B5
330
1F
100
AcDbEntity
  8
layer 1
 62
     7
100
AcDbSpline
210
0.0
220
0.0
230
1.0
 70
    11
 71
     3
 72
    20
 73
    16
 74
     0
 42
0.0000000001
 43
0.0000000001
 12
1.0
 22
0.0
 32
0.0
 13
1.0
 23
0.0
 33
0.0
 40
0.0
 40
0.0
 40
0.0
 40
0.0
 40
0.2
 40
0.2
 40
0.2
 40
0.2
 40
0.4
 40
0.4
 40
0.4
 40
0.4
 40
0.6
 40
0.6
 40
0.6
 40
0.6
 40
1.0
 40
1.0
 40
1.0
 40
1.0
 10
-19.8388
 20
-24.979
 30
0.0
 10
-19.8388
 20
-29.4728
 30
0.0
 10
-23.4831
 20
-33.1139
 30
0.0
 10
-27.9769
 20
-33.1139
 30
0.0
 10
-27.9769
 20
-33.1139
 30
0.0
 10
-32.4681
 20
-33.1139
 30
0.0
 10
-36.1125
 20
-29.473
 30
0.0
 10
-36.1125
 20
-24.9793
 30
0.0
 10
-36.1125
 20
-24.9793
 30
0.0
 10
-36.1125
 20
-20.4846
 30
0.0
 10
-32.4681
 20
-16.8437
 30
0.0
 10
-27.9769
 20
-16.8437
 30
0.0
 10
-27.9769
 20
-16.8437
 30
0.0
 10
-23.4831
 20
-16.8437
 30
0.0
 10
-19.8388
 20
-20.4846
 30
0.0
 10
-19.8388
 20
-24.979
 30
0.0
  0
SPLINE
  5
B6
330
1F
100
AcDbEntity
  8
layer 1
 62
     7
100
AcDbSpline
210
0.0
220
0.0
230
1.0
 70
    11
 71
     3
 72
    24
 73
    20
 74
     0
 42
0.0000000001
 43
0.0000000001
 12
1.0
 22
0.0
 32
0.0
 13
1.0
 23
0.0
 33
0.0
 40
0.0
 40
0.0
 40
0.0
 40
0.0
 40
0.1666666666666667
 40
0.1666666666666667
 40
0.1666666666666667
 40
0.1666666666666667
 40
0.3333333333333333
 40
0.3333333333333333
 40
0.3333333333333333
 40
0.3333333333333333
 40
0.5
 40
0.5
 40
0.5
 40
0.5
 40
0.6666666666666666
 40
0.6666666666666666
 40
0.6666666666666666
 40
0.6666666666666666
 40
1.0
 40
1.0
 40
1.0
 40
1.0
 10
-54.9422
 20
1.8395
 30
0.0
 10
-54.9422
 20
1.8395
 30
0.0
 10
-54.9422
 20
-23.6615
 30
0.0
 10
-54.9422
 20
-23.6615
 30
0.0
 10
-54.9422
 20
-23.6615
 30
0.0
 10
-54.9422
 20
-23.6615
 30
0.0
 10
-37.9693
 20
-23.6615
 30
0.0
 10
-37.9693
 20
-23.6615
 30
0.0
 10
-37.9693
 20
-23.6615
 30
0.0
 10
-37.9693
 20
-23.6615
 30
0.0
 10
-37.9502
 20
-23.2787
 30
0.0
 10
-37.7807
 20
-22.6333
 30
0.0
 10
-37.7807
 20
-22.6333
 30
0.0
 10
-46.2053
 20
-16.8241
 30
0.0
 10
-51.3358
 20
-4.9786
 30
0.0
 10
-51.2234
 20
1.8804
 30
0.0
 10
-51.2234
 20
1.8804
 30
0.0
 10
-52.9166
 20
1.8859
 30
0.0
 10
-54.9422
 20
1.8395
 30
0.0
 10
-54.9422
 20
1.8395
 30
0.0
  0
SPLINE
  5
B7
330
1F
100
AcDbEntity
  8
layer 1
 62
     7
100
AcDbSpline
210
0.0
220
0.0
230
1.0
 70
    11
 71
     3
 72
    20
 73
    16
 74
     0
 42
0.0000000001
 43
0.0000000001
 12
1.0
 22
0.0
 32
0.0
 13
1.0
 23
0.0
 33
0.0
 40
0.0
 40
0.0
 40
0.0
 40
0.0
 40
0.2
 40
0.2
 40
0.2
 40
0.2
 40
0.4
 40
0.4
 40
0.4
 40
0.4
 40
0.6
 40
0.6
 40
0.6
 40
0.6
 40
1.0
 40
1.0
 40
1.0
 40
1.0
 10
-36.2633
 20
1.8804
 30
0.0
 10
-36.2633
 20
1.8804
 30
0.0
 10
-49.2411
 20
1.943
 30
0.0
 10
-49.2411
 20
1.943
 30
0.0
 10
-49.2411
 20
1.943
 30
0.0
 10
-48.1805
 20
-6.0446
 30
0.0
 10
-44.3138
 20
-14.8894
 30
0.0
 10
-37.1753
 20
-20.8515
 30
0.0
 10
-37.1753
 20
-20.8515
 30
0.0
 10
-36.7306
 20
-19.8446
 30
0.0
 10
-36.2633
 20
-19.1865
 30
0.0
 10
-36.2633
 20
-19.1865
 30
0.0
 10
-36.2633
 20
-19.1865
 30
0.0
 10
-36.2633
 20
-19.1865
 30
0.0
 10
-36.2633
 20
1.8804
 30
0.0
 10
-36.2633
 20
1.8804
 30
0.0
  0
SPLINE
  5
B8
330
1F
100
AcDbEntity
  8
layer 1
 62
     7
100
AcDbSpline
210
0.0
220
0.0
230
1.0
 70
    11
 71
     3
 72
    24
 73
    20
 74
     0
 42
0.0000000001
 43
0.0000000001
 12
1.0
 22
0.0
 32
0.0
 13
1.0
 23
0.0
 33
0.0
 40
0.0
 40
0.0
 40
0.0
 40
0.0
 40
0.1666666666666667
 40
0.1666666666666667
 40
0.1666666666666667
 40
0.1666666666666667
 40
0.3333333333333333
 40
0.3333333333333333
 40
0.3333333333333333
 40
0.3333333333333333
 40
0.5
 40
0.5
 40
0.5
 40
0.5
 40
0.6666666666666666
 40
0.6666666666666666
 40
0.6666666666666666
 40
0.6666666666666666
 40
1.0
 40
1.0
 40
1.0
 40
1.0
 10
-1.1149
 20
1.8395
 30
0.0
 10
-1.1149
 20
1.8395
 30
0.0
 10
-1.1149
 20
-23.6615
 30
0.0
 10
-1.1149
 20
-23.6615
 30
0.0
 10
-1.1149
 20
-23.6615
 30
0.0
 10
-1.1149
 20
-23.6615
 30
0.0
 10
-18.0884
 20
-23.6615
 30
0.0
 10
-18.0884
 20
-23.6615
 30
0.0
 10
-18.0884
 20
-23.6615
 30
0.0
 10
-18.0884
 20
-23.6615
 30
0.0
 10
-18.1102
 20
-23.2787
 30
0.0
 10
-18.2764
 20
-22.6333
 30
0.0
 10
-18.2764
 20
-22.6333
 30
0.0
 10
-9.8524
 20
-16.8241
 30
0.0
 10
-4.7222
 20
-4.9786
 30
0.0
 10
-4.8346
 20
1.8804
 30
0.0
 10
-4.8346
 20
1.8804
 30
0.0
 10
-3.1413
 20
1.8859
 30
0.0
 10
-1.1149
 20
1.8395
 30
0.0
 10
-1.1149
 20
1.8395
 30
0.0
  0
SPLINE
  5
B9
330
1F
100
AcDbEntity
  8
layer 1
 62
     7
100
AcDbSpline
210
0.0
220
0.0
230
1.0
 70
    11
 71
     3
 72
    20
 73
    16
 74
     0
 42
0.0000000001
 43
0.0000000001
 12
1.0
 22
0.0
 32
0.0
 13
1.0
 23
0.0
 33
0.0
 40
0.0
 40
0.0
 40
0.0
 40
0.0
 40
0.2
 40
0.2
 40
0.2
 40
0.2
 40
0.4
 40
0.4
 40
0.4
 40
0.4
 40
0.6
 40
0.6
 40
0.6
 40
0.6
 40
1.0
 40
1.0
 40
1.0
 40
1.0
 10
-19.7946
 20
1.8804
 30
0.0
 10
-19.7946
 20
1.8804
 30
0.0
 10
-6.8169
 20
1.943
 30
0.0
 10
-6.8169
 20
1.943
 30
0.0
 10
-6.8169
 20
1.943
 30
0.0
 10
-7.8799
 20
-6.0446
 30
0.0
 10
-11.7473
 20
-14.8894
 30
0.0
 10
-18.885
 20
-20.8515
 30
0.0
 10
-18.885
 20
-20.8515
 30
0.0
 10
-19.3274
 20
-19.8446
 30
0.0
 10
-19.7946
 20
-19.1865
 30
0.0
 10
-19.7946
 20
-19.1865
 30
0.0
 10
-19.7946
 20
-19.1865
 30
0.0
 10
-19.7946
 20
-19.1865
 30
0.0
 10
-19.7946
 20
1.8804
 30
0.0
 10
-19.7946
 20
1.8804
 30
0.0
  0
SPLINE
  5
BA
330
1F
100
AcDbEntity
  8
layer 1
 62
     7
100
AcDbSpline
210
0.0
220
0.0
230
1.0
 70
    11
 71
     3
 72
    24
 73
    20
 74
     0
 42
0.0000000001
 43
0.0000000001
 12
1.0
 22
0.0
 32
0.0
 13
1.0
 23
0.0
 33
0.0
 40
0.0
 40
0.0
 40
0.0
 40
0.0
 40
0.1666666666666667
 40
0.1666666666666667
 40
0.1666666666666667
 40
0.1666666666666667
 40
0.3333333333333333
 40
0.3333333333333333
 40
0.3333333333333333
 40
0.3333333333333333
 40
0.5
 40
0.5
 40
0.5
 40
0.5
 40
0.6666666666666666
 40
0.6666666666666666
 40
0.6666666666666666
 40
0.6666666666666666
 40
1.0
 40
1.0
 40
1.0
 40
1.0
 10
-54.9422
 20
-51.7937
 30
0.0
 10
-54.9422
 20
-51.7937
 30
0.0
 10
-54.9422
 20
-26.2927
 30
0.0
 10
-54.9422
 20
-26.2927
 30
0.0
 10
-54.9422
 20
-26.2927
 30
0.0
 10
-54.9422
 20
-26.2927
 30
0.0
 10
-37.9693
 20
-26.2927
 30
0.0
 10
-37.9693
 20
-26.2927
 30
0.0
 10
-37.9693
 20
-26.2927
 30
0.0
 10
-37.9693
 20
-26.2927
 30
0.0
 10
-37.9502
 20
-26.6757
 30
0.0
 10
-37.7807
 20
-27.3211
 30
0.0
 10
-37.7807
 20
-27.3211
 30
0.0
 10
-46.2053
 20
-33.1299
 30
0.0
 10
-51.3358
 20
-44.9758
 30
0.0
 10
-51.2234
 20
-51.8346
 30
0.0
 10
-51.2234
 20
-51.8346
 30
0.0
 10
-52.9166
 20
-51.8378
 30
0.0
 10
-54.9422
 20
-51.7937
 30
0.0
 10
-54.9422
 20
-51.7937
 30
0.0
  0
SPLINE
  5
BB
330
1F
100
AcDbEntity
  8
layer 1
 62
     7
100
AcDbSpline
210
0.0
220
0.0
230
1.0
 70
    11
 71
     3
 72
    20
 73
    16
 74
     0
 42
0.0000000001
 43
0.0000000001
 12
1.0
 22
0.0
 32
0.0
 13
1.0
 23
0.0
 33
0.0
 40
0.0
 40
0.0
 40
0.0
 40
0.0
 40
0.2
 40
0.2
 40
0.2
 40
0.2
 40
0.4
 40
0.4
 40
0.4
 40
0.4
 40
0.6
 40
0.6
 40
0.6
 40
0.6
 40
1.0
 40
1.0
 40
1.0
 40
1.0
 10
-36.2633
 20
-51.8346
 30
0.0
 10
-36.2633
 20
-51.8346
 30
0.0
 10
-49.2411
 20
-51.8972
 30
0.0
 10
-49.2411
 20
-51.8972
 30
0.0
 10
-49.2411
 20
-51.8972
 30
0.0
 10
-48.1805
 20
-43.9094
 30
0.0
 10
-44.3138
 20
-35.0651
 30
0.0
 10
-37.1753
 20
-29.1027
 30
0.0
 10
-37.1753
 20
-29.1027
 30
0.0
 10
-36.7306
 20
-30.1096
 30
0.0
 10
-36.2633
 20
-30.768
 30
0.0
 10
-36.2633
 20
-30.768
 30
0.0
 10
-36.2633
 20
-30.768
 30
0.0
 10
-36.2633
 20
-30.768
 30
0.0
 10
-36.2633
 20
-51.8346
 30
0.0
 10
-36.2633
 20
-51.8346
 30
0.0
  0
SPLINE
  5
BC
330
1F
100
AcDbEntity
  8
layer 1
 62
     7
100
AcDbSpline
210
0.0
220
0.0
230
1.0
 70
    11
 71
     3
 72
    24
 73
    20
 74
     0
 42
0.0000000001
 43
0.0000000001
 12
1.0
 22
0.0
 32
0.0
 13
1.0
 23
0.0
 33
0.0
 40
0.0
 40
0.0
 40
0.0
 40
0.0
 40
0.1666666666666667
 40
0.1666666666666667
 40
0.1666666666666667
 40
0.1666666666666667
 40
0.3333333333333333
 40
0.3333333333333333
 40
0.3333333333333333
 40
0.3333333333333333
 40
0.5
 40
0.5
 40
0.5
 40
0.5
 40
0.6666666666666666
 40
0.6666666666666666
 40
0.6666666666666666
 40
0.6666666666666666
 40
1.0
 40
1.0
 40
1.0
 40
1.0
 10
-22.213
 20
-33.1203
 30
0.0
 10
-22.213
 20
-33.1203
 30
0.0
 10
-22.2
 20
-51.9093
 30
0.0
 10
-22.2
 20
-51.9093
 30
0.0
 10
-22.2
 20
-51.9093
 30
0.0
 10
-22.2
 20
-51.9093
 30
0.0
 10
-33.9702
 20
-51.9093
 30
0.0
 10
-33.9702
 20
-51.9093
 30
0.0
 10
-33.9702
 20
-51.9093
 30
0.0
 10
-33.9702
 20
-51.9093
 30
0.0
 10
-33.9581
 20
-33.1203
 30
0.0
 10
-33.9581
 20
-33.1203
 30
0.0
 10
-33.9581
 20
-33.1203
 30
0.0
 10
-32.3741
 20
-34.2403
 30
0.0
 10
-30.326
 20
-34.8859
 30
0.0
 10
-28.0868
 20
-34.9148
 30
0.0
 10
-28.0868
 20
-34.9148
 30
0.0
 10
-25.8444
 20
-34.8859
 30
0.0
 10
-23.7963
 20
-34.2405
 30
0.0
 10
-22.213
 20
-33.1203
 30
0.0
  0
SPLINE
  5
BD
330
1F
100
AcDbEntity
  8
layer 1
 62
     7
100
AcDbSpline
210
0.0
220
0.0
230
1.0
 70
    11
 71
     3
 72
    24
 73
    20
 74
     0
 42
0.0000000001
 43
0.0000000001
 12
1.0
 22
0.0
 32
0.0
 13
1.0
 23
0.0
 33
0.0
 40
0.0
 40
0.0
 40
0.0
 40
0.0
 40
0.1666666666666667
 40
0.1666666666666667
 40
0.1666666666666667
 40
0.1666666666666667
 40
0.3333333333333333
 40
0.3333333333333333
 40
0.3333333333333333
 40
0.3333333333333333
 40
0.5
 40
0.5
 40
0.5
 40
0.5
 40
0.6666666666666666
 40
0.6666666666666666
 40
0.6666666666666666
 40
0.6666666666666666
 40
1.0
 40
1.0
 40
1.0
 40
1.0
 10
-1.1149
 20
-51.7937
 30
0.0
 10
-1.1149
 20
-51.7937
 30
0.0
 10
-1.1149
 20
-26.2927
 30
0.0
 10
-1.1149
 20
-26.2927
 30
0.0
 10
-1.1149
 20
-26.2927
 30
0.0
 10
-1.1149
 20
-26.2927
 30
0.0
 10
-18.0884
 20
-26.2927
 30
0.0
 10
-18.0884
 20
-26.2927
 30
0.0
 10
-18.0884
 20
-26.2927
 30
0.0
 10
-18.0884
 20
-26.2927
 30
0.0
 10
-18.1102
 20
-26.6757
 30
0.0
 10
-18.2764
 20
-27.3211
 30
0.0
 10
-18.2764
 20
-27.3211
 30
0.0
 10
-9.8524
 20
-33.1299
 30
0.0
 10
-4.7222
 20
-44.9758
 30
0.0
 10
-4.8346
 20
-51.8346
 30
0.0
 10
-4.8346
 20
-51.8346
 30
0.0
 10
-3.1413
 20
-51.8378
 30
0.0
 10
-1.1149
 20
-51.7937
 30
0.0
 10
-1.1149
 20
-51.7937
 30
0.0
  0
SPLINE
  5
BE
330
1F
100
AcDbEntity
  8
layer 1
 62
     7
100
AcDbSpline
210
0.0
220
0.0
230
1.0
 70
    11
 71
     3
 72
    20
 73
    16
 74
     0
 42
0.0000000001
 43
0.0000000001
 12
1.0
 22
0.0
 32
0.0
 13
1.0
 23
0.0
 33
0.0
 40
0.0
 40
0.0
 40
0.0
 40
0.0
 40
0.2
 40
0.2
 40
0.2
 40
0.2
 40
0.4
 40
0.4
 40
0.4
 40
0.4
 40
0.6
 40
0.6
 40
0.6
 40
0.6
 40
1.0
 40
1.0
 40
1.0
 40
1.0
 10
-19.7946
 20
-51.8346
 30
0.0
 10
-19.7946
 20
-51.8346
 30
0.0
 10
-6.8169
 20
-51.8972
 30
0.0
 10
-6.8169
 20
-51.8972
 30
0.0
 10
-6.8169
 20
-51.8972
 30
0.0
 10
-7.8799
 20
-43.9094
 30
0.0
 10
-11.7473
 20
-35.0651
 30
0.0
 10
-18.885
 20
-29.1027
 30
0.0
 10
-18.885
 20
-29.1027
 30
0.0
 10
-19.3274
 20
-30.1096
 30
0.0
 10
-19.7946
 20
-30.768
 30
0.0
 10
-19.7946
 20
-30.768
 30
0.0
 10
-19.7946
 20
-30.768
 30
0.0
 10
-19.7946
 20
-30.768
 30
0.0
 10
-19.7946
 20
-51.8346
 30
0.0
 10
-19.7946
 20
-51.8346
 30
0.0
  0
SPLINE
  5
BF
330
1F
100
AcDbEntity
  8
layer 1
 62
     7
100
AcDbSpline
210
0.0
220
0.0
230
1.0
 70
    11
 71
     3
 72
    20
 73
    16
 74
     0
 42
0.0000000001
 43
0.0000000001
 12
1.0
 22
0.0
 32
0.0
 13
1.0
 23
0.0
 33
0.0
 40
0.0
 40
0.0
 40
0.0
 40
0.0
 40
0.2
 40
0.2
 40
0.2
 40
0.2
 40
0.4
 40
0.4
 40
0.4
 40
0.4
 40
0.6
 40
0.6
 40
0.6
 40
0.6
 40
1.0
 40
1.0
 40
1.0
 40
1.0
 10
-181.2178
 20
-57.1878
 30
0.0
 10
-181.2178
 20
-57.1878
 30
0.0
 10
-157.8531
 20
-57.1878
 30
0.0
 10
-157.8531
 20
-57.1878
 30
0.0
 10
-157.8531
 20
-57.1878
 30
0.0
 10
-157.8531
 20
-57.1878
 30
0.0
 10
-157.8531
 20
-68.7661
 30
0.0
 10
-157.8531
 20
-68.7661
 30
0.0
 10
-157.8531
 20
-68.7661
 30
0.0
 10
-161.2225
 20
-68.8575
 30
0.0
 10
-165.4258
 20
-70.9574
 30
0.0
 10
-166.5829
 20
-72.3425
 30
0.0
 10
-166.5829
 20
-72.3425
 30
0.0
 10
-166.5829
 20
-72.3425
 30
0.0
 10
-181.2178
 20
-57.1878
 30
0.0
 10
-181.2178
 20
-57.1878
 30
0.0
  0
SPLINE
  5
C0
330
1F
100
AcDbEntity
  8
layer 1
 62
     7
100
AcDbSpline
210
0.0
220
0.0
230
1.0
 70
    11
 71
     3
 72
    20
 73
    16
 74
     0
 42
0.0000000001
 43
0.0000000001
 12
1.0
 22
0.0
 32
0.0
 13
1.0
 23
0.0
 33
0.0
 40
0.0
 40
0.0
 40
0.0
 40
0.0
 40
0.2
 40
0.2
 40
0.2
 40
0.2
 40
0.4
 40
0.4
 40
0.4
 40
0.4
 40
0.6
 40
0.6
 40
0.6
 40
0.6
 40
1.0
 40
1.0
 40
1.0
 40
1.0
 10
-183.6971
 20
-59.623
 30
0.0
 10
-183.6971
 20
-59.623
 30
0.0
 10
-183.6971
 20
-82.9877
 30
0.0
 10
-183.6971
 20
-82.9877
 30
0.0
 10
-183.6971
 20
-82.9877
 30
0.0
 10
-183.6971
 20
-82.9877
 30
0.0
 10
-172.1147
 20
-82.9877
 30
0.0
 10
-172.1147
 20
-82.9877
 30
0.0
 10
-172.1147
 20
-82.9877
 30
0.0
 10
-172.0242
 20
-79.6181
 30
0.0
 10
-169.9275
 20
-75.4143
 30
0.0
 10
-168.5415
 20
-74.2579
 30
0.0
 10
-168.5415
 20
-74.2579
 30
0.0
 10
-168.5415
 20
-74.2579
 30
0.0
 10
-183.6971
 20
-59.623
 30
0.0
 10
-183.6971
 20
-59.623
 30
0.0
  0
SPLINE
  5
C1
330
1F
100
AcDbEntity
  8
layer 1
 62
     7
100
AcDbSpline
210
0.0
220
0.0
230
1.0
 70
    11
 71
     3
 72
    20
 73
    16
 74
     0
 42
0.0000000001
 43
0.0000000001
 12
1.0
 22
0.0
 32
0.0
 13
1.0
 23
0.0
 33
0.0
 40
0.0
 40
0.0
 40
0.0
 40
0.0
 40
0.2
 40
0.2
 40
0.2
 40
0.2
 40
0.4
 40
0.4
 40
0.4
 40
0.4
 40
0.6
 40
0.6
 40
0.6
 40
0.6
 40
1.0
 40
1.0
 40
1.0
 40
1.0
 10
-169.551
 20
-82.9877
 30
0.0
 10
-169.551
 20
-82.9877
 30
0.0
 10
-164.4798
 20
-82.9877
 30
0.0
 10
-164.4798
 20
-82.9877
 30
0.0
 10
-164.4798
 20
-82.9877
 30
0.0
 10
-164.4798
 20
-82.9877
 30
0.0
 10
-157.768
 20
-76.1227
 30
0.0
 10
-157.768
 20
-76.1227
 30
0.0
 10
-157.768
 20
-76.1227
 30
0.0
 10
-157.768
 20
-76.1227
 30
0.0
 10
-157.8185
 20
-71.3619
 30
0.0
 10
-157.8185
 20
-71.3619
 30
0.0
 10
-157.8185
 20
-71.3619
 30
0.0
 10
-163.7364
 20
-71.9637
 30
0.0
 10
-169.0247
 20
-76.261
 30
0.0
 10
-169.551
 20
-82.9877
 30
0.0
  0
SPLINE
  5
C2
330
1F
100
AcDbEntity
  8
layer 1
 62
     7
100
AcDbSpline
210
0.0
220
0.0
230
1.0
 70
    11
 71
     3
 72
    20
 73
    16
 74
     0
 42
0.0000000001
 43
0.0000000001
 12
1.0
 22
0.0
 32
0.0
 13
1.0
 23
0.0
 33
0.0
 40
0.0
 40
0.0
 40
0.0
 40
0.0
 40
0.2
 40
0.2
 40
0.2
 40
0.2
 40
0.4
 40
0.4
 40
0.4
 40
0.4
 40
0.6
 40
0.6
 40
0.6
 40
0.6
 40
1.0
 40
1.0
 40
1.0
 40
1.0
 10
-144.1612
 20
-82.9877
 30
0.0
 10
-144.1612
 20
-82.9877
 30
0.0
 10
-149.2332
 20
-82.9877
 30
0.0
 10
-149.2332
 20
-82.9877
 30
0.0
 10
-149.2332
 20
-82.9877
 30
0.0
 10
-149.2332
 20
-82.9877
 30
0.0
 10
-155.944
 20
-76.1227
 30
0.0
 10
-155.944
 20
-76.1227
 30
0.0
 10
-155.944
 20
-76.1227
 30
0.0
 10
-155.944
 20
-76.1227
 30
0.0
 10
-155.8935
 20
-71.3619
 30
0.0
 10
-155.8935
 20
-71.3619
 30
0.0
 10
-155.8935
 20
-71.3619
 30
0.0
 10
-149.9756
 20
-71.9637
 30
0.0
 10
-144.6885
 20
-76.261
 30
0.0
 10
-144.1612
 20
-82.9877
 30
0.0
  0
SPLINE
  5
C3
330
1F
100
AcDbEntity
  8
layer 1
 62
     7
100
AcDbSpline
210
0.0
220
0.0
230
1.0
 70
    11
 71
     3
 72
    20
 73
    16
 74
     0
 42
0.0000000001
 43
0.0000000001
 12
1.0
 22
0.0
 32
0.0
 13
1.0
 23
0.0
 33
0.0
 40
0.0
 40
0.0
 40
0.0
 40
0.0
 40
0.2
 40
0.2
 40
0.2
 40
0.2
 40
0.4
 40
0.4
 40
0.4
 40
0.4
 40
0.6
 40
0.6
 40
0.6
 40
0.6
 40
1.0
 40
1.0
 40
1.0
 40
1.0
 10
-144.1612
 20
-85.1156
 30
0.0
 10
-144.1612
 20
-85.1156
 30
0.0
 10
-149.2332
 20
-85.1156
 30
0.0
 10
-149.2332
 20
-85.1156
 30
0.0
 10
-149.2332
 20
-85.1156
 30
0.0
 10
-149.2332
 20
-85.1156
 30
0.0
 10
-155.944
 20
-91.9804
 30
0.0
 10
-155.944
 20
-91.9804
 30
0.0
 10
-155.944
 20
-91.9804
 30
0.0
 10
-155.944
 20
-91.9804
 30
0.0
 10
-155.8935
 20
-96.7423
 30
0.0
 10
-155.8935
 20
-96.7423
 30
0.0
 10
-155.8935
 20
-96.7423
 30
0.0
 10
-149.9756
 20
-96.1402
 30
0.0
 10
-144.6885
 20
-91.8394
 30
0.0
 10
-144.1612
 20
-85.1156
 30
0.0
  0
SPLINE
  5
C4
330
1F
100
AcDbEntity
  8
layer 1
 62
     7
100
AcDbSpline
210
0.0
220
0.0
230
1.0
 70
    11
 71
     3
 72
    20
 73
    16
 74
     0
 42
0.0000000001
 43
0.0000000001
 12
1.0
 22
0.0
 32
0.0
 13
1.0
 23
0.0
 33
0.0
 40
0.0
 40
0.0
 40
0.0
 40
0.0
 40
0.2
 40
0.2
 40
0.2
 40
0.2
 40
0.4
 40
0.4
 40
0.4
 40
0.4
 40
0.6
 40
0.6
 40
0.6
 40
0.6
 40
1.0
 40
1.0
 40
1.0
 40
1.0
 10
-169.551
 20
-85.1156
 30
0.0
 10
-169.551
 20
-85.1156
 30
0.0
 10
-164.4798
 20
-85.1156
 30
0.0
 10
-164.4798
 20
-85.1156
 30
0.0
 10
-164.4798
 20
-85.1156
 30
0.0
 10
-164.4798
 20
-85.1156
 30
0.0
 10
-157.768
 20
-91.9804
 30
0.0
 10
-157.768
 20
-91.9804
 30
0.0
 10
-157.768
 20
-91.9804
 30
0.0
 10
-157.768
 20
-91.9804
 30
0.0
 10
-157.8185
 20
-96.7423
 30
0.0
 10
-157.8185
 20
-96.7423
 30
0.0
 10
-157.8185
 20
-96.7423
 30
0.0
 10
-163.7364
 20
-96.1402
 30
0.0
 10
-169.0247
 20
-91.8394
 30
0.0
 10
-169.551
 20
-85.1156
 30
0.0
  0
SPLINE
  5
C5
330
1F
100
AcDbEntity
  8
layer 1
 62
     7
100
AcDbSpline
210
0.0
220
0.0
230
1.0
 70
    11
 71
     3
 72
    20
 73
    16
 74
     0
 42
0.0000000001
 43
0.0000000001
 12
1.0
 22
0.0
 32
0.0
 13
1.0
 23
0.0
 33
0.0
 40
0.0
 40
0.0
 40
0.0
 40
0.0
 40
0.2
 40
0.2
 40
0.2
 40
0.2
 40
0.4
 40
0.4
 40
0.4
 40
0.4
 40
0.6
 40
0.6
 40
0.6
 40
0.6
 40
1.0
 40
1.0
 40
1.0
 40
1.0
 10
-132.4913
 20
-57.1878
 30
0.0
 10
-132.4913
 20
-57.1878
 30
0.0
 10
-155.8567
 20
-57.1878
 30
0.0
 10
-155.8567
 20
-57.1878
 30
0.0
 10
-155.8567
 20
-57.1878
 30
0.0
 10
-155.8567
 20
-57.1878
 30
0.0
 10
-155.8567
 20
-68.7661
 30
0.0
 10
-155.8567
 20
-68.7661
 30
0.0
 10
-155.8567
 20
-68.7661
 30
0.0
 10
-152.4864
 20
-68.8575
 30
0.0
 10
-148.2865
 20
-70.9574
 30
0.0
 10
-147.1271
 20
-72.3425
 30
0.0
 10
-147.1271
 20
-72.3425
 30
0.0
 10
-147.1271
 20
-72.3425
 30
0.0
 10
-132.4913
 20
-57.1878
 30
0.0
 10
-132.4913
 20
-57.1878
 30
0.0
  0
SPLINE
  5
C6
330
1F
100
AcDbEntity
  8
layer 1
 62
     7
100
AcDbSpline
210
0.0
220
0.0
230
1.0
 70
    11
 71
     3
 72
    20
 73
    16
 74
     0
 42
0.0000000001
 43
0.0000000001
 12
1.0
 22
0.0
 32
0.0
 13
1.0
 23
0.0
 33
0.0
 40
0.0
 40
0.0
 40
0.0
 40
0.0
 40
0.2
 40
0.2
 40
0.2
 40
0.2
 40
0.4
 40
0.4
 40
0.4
 40
0.4
 40
0.6
 40
0.6
 40
0.6
 40
0.6
 40
1.0
 40
1.0
 40
1.0
 40
1.0
 10
-130.0126
 20
-59.623
 30
0.0
 10
-130.0126
 20
-59.623
 30
0.0
 10
-130.0126
 20
-82.9877
 30
0.0
 10
-130.0126
 20
-82.9877
 30
0.0
 10
-130.0126
 20
-82.9877
 30
0.0
 10
-130.0126
 20
-82.9877
 30
0.0
 10
-141.5941
 20
-82.9877
 30
0.0
 10
-141.5941
 20
-82.9877
 30
0.0
 10
-141.5941
 20
-82.9877
 30
0.0
 10
-141.6849
 20
-79.6181
 30
0.0
 10
-143.7857
 20
-75.4143
 30
0.0
 10
-145.1675
 20
-74.2579
 30
0.0
 10
-145.1675
 20
-74.2579
 30
0.0
 10
-145.1675
 20
-74.2579
 30
0.0
 10
-130.0126
 20
-59.623
 30
0.0
 10
-130.0126
 20
-59.623
 30
0.0
  0
SPLINE
  5
C7
330
1F
100
AcDbEntity
  8
layer 1
 62
     7
100
AcDbSpline
210
0.0
220
0.0
230
1.0
 70
    11
 71
     3
 72
    20
 73
    16
 74
     0
 42
0.0000000001
 43
0.0000000001
 12
1.0
 22
0.0
 32
0.0
 13
1.0
 23
0.0
 33
0.0
 40
0.0
 40
0.0
 40
0.0
 40
0.0
 40
0.2
 40
0.2
 40
0.2
 40
0.2
 40
0.4
 40
0.4
 40
0.4
 40
0.4
 40
0.6
 40
0.6
 40
0.6
 40
0.6
 40
1.0
 40
1.0
 40
1.0
 40
1.0
 10
-181.2178
 20
-110.979
 30
0.0
 10
-181.2178
 20
-110.979
 30
0.0
 10
-157.8531
 20
-110.979
 30
0.0
 10
-157.8531
 20
-110.979
 30
0.0
 10
-157.8531
 20
-110.979
 30
0.0
 10
-157.8531
 20
-110.979
 30
0.0
 10
-157.8531
 20
-99.3966
 30
0.0
 10
-157.8531
 20
-99.3966
 30
0.0
 10
-157.8531
 20
-99.3966
 30
0.0
 10
-161.2225
 20
-99.3061
 30
0.0
 10
-165.4258
 20
-97.2093
 30
0.0
 10
-166.5829
 20
-95.8234
 30
0.0
 10
-166.5829
 20
-95.8234
 30
0.0
 10
-166.5829
 20
-95.8234
 30
0.0
 10
-181.2178
 20
-110.979
 30
0.0
 10
-181.2178
 20
-110.979
 30
0.0
  0
SPLINE
  5
C8
330
1F
100
AcDbEntity
  8
layer 1
 62
     7
100
AcDbSpline
210
0.0
220
0.0
230
1.0
 70
    11
 71
     3
 72
    20
 73
    16
 74
     0
 42
0.0000000001
 43
0.0000000001
 12
1.0
 22
0.0
 32
0.0
 13
1.0
 23
0.0
 33
0.0
 40
0.0
 40
0.0
 40
0.0
 40
0.0
 40
0.2
 40
0.2
 40
0.2
 40
0.2
 40
0.4
 40
0.4
 40
0.4
 40
0.4
 40
0.6
 40
0.6
 40
0.6
 40
0.6
 40
1.0
 40
1.0
 40
1.0
 40
1.0
 10
-183.6971
 20
-108.5435
 30
0.0
 10
-183.6971
 20
-108.5435
 30
0.0
 10
-183.6971
 20
-85.1759
 30
0.0
 10
-183.6971
 20
-85.1759
 30
0.0
 10
-183.6971
 20
-85.1759
 30
0.0
 10
-183.6971
 20
-85.1759
 30
0.0
 10
-172.1147
 20
-85.1759
 30
0.0
 10
-172.1147
 20
-85.1759
 30
0.0
 10
-172.1147
 20
-85.1759
 30
0.0
 10
-172.0242
 20
-88.5453
 30
0.0
 10
-169.9275
 20
-92.7485
 30
0.0
 10
-168.5415
 20
-93.9079
 30
0.0
 10
-168.5415
 20
-93.9079
 30
0.0
 10
-168.5415
 20
-93.9079
 30
0.0
 10
-183.6971
 20
-108.5435
 30
0.0
 10
-183.6971
 20
-108.5435
 30
0.0
  0
SPLINE
  5
C9
330
1F
100
AcDbEntity
  8
layer 1
 62
     7
100
AcDbSpline
210
0.0
220
0.0
230
1.0
 70
    11
 71
     3
 72
    20
 73
    16
 74
     0
 42
0.0000000001
 43
0.0000000001
 12
1.0
 22
0.0
 32
0.0
 13
1.0
 23
0.0
 33
0.0
 40
0.0
 40
0.0
 40
0.0
 40
0.0
 40
0.2
 40
0.2
 40
0.2
 40
0.2
 40
0.4
 40
0.4
 40
0.4
 40
0.4
 40
0.6
 40
0.6
 40
0.6
 40
0.6
 40
1.0
 40
1.0
 40
1.0
 40
1.0
 10
-132.4913
 20
-110.979
 30
0.0
 10
-132.4913
 20
-110.979
 30
0.0
 10
-155.8567
 20
-110.979
 30
0.0
 10
-155.8567
 20
-110.979
 30
0.0
 10
-155.8567
 20
-110.979
 30
0.0
 10
-155.8567
 20
-110.979
 30
0.0
 10
-155.8567
 20
-99.3966
 30
0.0
 10
-155.8567
 20
-99.3966
 30
0.0
 10
-155.8567
 20
-99.3966
 30
0.0
 10
-152.4864
 20
-99.3061
 30
0.0
 10
-148.2865
 20
-97.2093
 30
0.0
 10
-147.1271
 20
-95.8234
 30
0.0
 10
-147.1271
 20
-95.8234
 30
0.0
 10
-147.1271
 20
-95.8234
 30
0.0
 10
-132.4913
 20
-110.979
 30
0.0
 10
-132.4913
 20
-110.979
 30
0.0
  0
SPLINE
  5
CA
330
1F
100
AcDbEntity
  8
layer 1
 62
     7
100
AcDbSpline
210
0.0
220
0.0
230
1.0
 70
    11
 71
     3
 72
    20
 73
    16
 74
     0
 42
0.0000000001
 43
0.0000000001
 12
1.0
 22
0.0
 32
0.0
 13
1.0
 23
0.0
 33
0.0
 40
0.0
 40
0.0
 40
0.0
 40
0.0
 40
0.2
 40
0.2
 40
0.2
 40
0.2
 40
0.4
 40
0.4
 40
0.4
 40
0.4
 40
0.6
 40
0.6
 40
0.6
 40
0.6
 40
1.0
 40
1.0
 40
1.0
 40
1.0
 10
-130.0126
 20
-108.5435
 30
0.0
 10
-130.0126
 20
-108.5435
 30
0.0
 10
-130.0126
 20
-85.1759
 30
0.0
 10
-130.0126
 20
-85.1759
 30
0.0
 10
-130.0126
 20
-85.1759
 30
0.0
 10
-130.0126
 20
-85.1759
 30
0.0
 10
-141.5941
 20
-85.1759
 30
0.0
 10
-141.5941
 20
-85.1759
 30
0.0
 10
-141.5941
 20
-85.1759
 30
0.0
 10
-141.6849
 20
-88.5453
 30
0.0
 10
-143.7857
 20
-92.7485
 30
0.0
 10
-145.1675
 20
-93.9079
 30
0.0
 10
-145.1675
 20
-93.9079
 30
0.0
 10
-145.1675
 20
-93.9079
 30
0.0
 10
-130.0126
 20
-108.5435
 30
0.0
 10
-130.0126
 20
-108.5435
 30
0.0
  0
SPLINE
  5
CB
330
1F
100
AcDbEntity
  8
layer 1
 62
     7
100
AcDbSpline
210
0.0
220
0.0
230
1.0
 70
    11
 71
     3
 72
    20
 73
    16
 74
     0
 42
0.0000000001
 43
0.0000000001
 12
1.0
 22
0.0
 32
0.0
 13
1.0
 23
0.0
 33
0.0
 40
0.0
 40
0.0
 40
0.0
 40
0.0
 40
0.2
 40
0.2
 40
0.2
 40
0.2
 40
0.4
 40
0.4
 40
0.4
 40
0.4
 40
0.6
 40
0.6
 40
0.6
 40
0.6
 40
1.0
 40
1.0
 40
1.0
 40
1.0
 10
-163.0128
 20
-84.126
 30
0.0
 10
-163.0128
 20
-84.126
 30
0.0
 10
-156.8283
 20
-77.9417
 30
0.0
 10
-156.8283
 20
-77.9417
 30
0.0
 10
-156.8283
 20
-77.9417
 30
0.0
 10
-156.8283
 20
-77.9417
 30
0.0
 10
-150.647
 20
-84.126
 30
0.0
 10
-150.647
 20
-84.126
 30
0.0
 10
-150.647
 20
-84.126
 30
0.0
 10
-150.647
 20
-84.126
 30
0.0
 10
-156.8283
 20
-90.3104
 30
0.0
 10
-156.8283
 20
-90.3104
 30
0.0
 10
-156.8283
 20
-90.3104
 30
0.0
 10
-156.8283
 20
-90.3104
 30
0.0
 10
-163.0128
 20
-84.126
 30
0.0
 10
-163.0128
 20
-84.126
 30
0.0
  0
SPLINE
  5
CC
330
1F
100
AcDbEntity
  8
layer 1
 62
     7
100
AcDbSpline
210
0.0
220
0.0
230
1.0
 70
    11
 71
     3
 72
    20
 73
    16
 74
     0
 42
0.0000000001
 43
0.0000000001
 12
1.0
 22
0.0
 32
0.0
 13
1.0
 23
0.0
 33
0.0
 40
0.0
 40
0.0
 40
0.0
 40
0.0
 40
0.2
 40
0.2
 40
0.2
 40
0.2
 40
0.4
 40
0.4
 40
0.4
 40
0.4
 40
0.6
 40
0.6
 40
0.6
 40
0.6
 40
1.0
 40
1.0
 40
1.0
 40
1.0
 10
-106.5403
 20
-57.219
 30
0.0
 10
-106.5403
 20
-57.219
 30
0.0
 10
-93.4335
 20
-57.219
 30
0.0
 10
-93.4335
 20
-57.219
 30
0.0
 10
-93.4335
 20
-57.219
 30
0.0
 10
-93.4335
 20
-57.219
 30
0.0
 10
-93.4335
 20
-67.0893
 30
0.0
 10
-93.4335
 20
-67.0893
 30
0.0
 10
-93.4335
 20
-67.0893
 30
0.0
 10
-93.4335
 20
-67.0893
 30
0.0
 10
-100.7759
 20
-67.0988
 30
0.0
 10
-100.7759
 20
-67.0988
 30
0.0
 10
-100.7759
 20
-67.0988
 30
0.0
 10
-100.7759
 20
-67.0988
 30
0.0
 10
-106.5403
 20
-57.219
 30
0.0
 10
-106.5403
 20
-57.219
 30
0.0
  0
SPLINE
  5
CD
330
1F
100
AcDbEntity
  8
layer 1
 62
     7
100
AcDbSpline
210
0.0
220
0.0
230
1.0
 70
    11
 71
     3
 72
    28
 73
    24
 74
     0
 42
0.0000000001
 43
0.0000000001
 12
1.0
 22
0.0
 32
0.0
 13
1.0
 23
0.0
 33
0.0
 40
0.0
 40
0.0
 40
0.0
 40
0.0
 40
0.1428571428571428
 40
0.1428571428571428
 40
0.1428571428571428
 40
0.1428571428571428
 40
0.2857142857142857
 40
0.2857142857142857
 40
0.2857142857142857
 40
0.2857142857142857
 40
0.4285714285714285
 40
0.4285714285714285
 40
0.4285714285714285
 40
0.4285714285714285
 40
0.5714285714285714
 40
0.5714285714285714
 40
0.5714285714285714
 40
0.5714285714285714
 40
0.7142857142857143
 40
0.7142857142857143
 40
0.7142857142857143
 40
0.7142857142857143
 40
1.0
 40
1.0
 40
1.0
 40
1.0
 10
-119.2613
 20
-57.2568
 30
0.0
 10
-119.2613
 20
-57.2568
 30
0.0
 10
-119.2613
 20
-66.9481
 30
0.0
 10
-119.2613
 20
-66.9481
 30
0.0
 10
-119.2613
 20
-66.9481
 30
0.0
 10
-119.2613
 20
-66.9481
 30
0.0
 10
-109.4561
 20
-73.0005
 30
0.0
 10
-109.4561
 20
-73.0005
 30
0.0
 10
-109.4561
 20
-73.0005
 30
0.0
 10
-109.4561
 20
-73.0005
 30
0.0
 10
-109.3936
 20
-67.1204
 30
0.0
 10
-109.3936
 20
-67.1204
 30
0.0
 10
-109.3936
 20
-67.1204
 30
0.0
 10
-109.3936
 20
-67.1204
 30
0.0
 10
-103.6302
 20
-67.0642
 30
0.0
 10
-103.6302
 20
-67.0642
 30
0.0
 10
-103.6302
 20
-67.0642
 30
0.0
 10
-103.6302
 20
-67.0642
 30
0.0
 10
-108.8803
 20
-57.2343
 30
0.0
 10
-108.8803
 20
-57.2343
 30
0.0
 10
-108.8803
 20
-57.2343
 30
0.0
 10
-108.8803
 20
-57.2343
 30
0.0
 10
-119.2613
 20
-57.2568
 30
0.0
 10
-119.2613
 20
-57.2568
 30
0.0
  0
SPLINE
  5
CE
330
1F
100
AcDbEntity
  8
layer 1
 62
     7
100
AcDbSpline
210
0.0
220
0.0
230
1.0
 70
    11
 71
     3
 72
    20
 73
    16
 74
     0
 42
0.0000000001
 43
0.0000000001
 12
1.0
 22
0.0
 32
0.0
 13
1.0
 23
0.0
 33
0.0
 40
0.0
 40
0.0
 40
0.0
 40
0.0
 40
0.2
 40
0.2
 40
0.2
 40
0.2
 40
0.4
 40
0.4
 40
0.4
 40
0.4
 40
0.6
 40
0.6
 40
0.6
 40
0.6
 40
1.0
 40
1.0
 40
1.0
 40
1.0
 10
-119.3429
 20
-69.6986
 30
0.0
 10
-119.3429
 20
-69.6986
 30
0.0
 10
-119.3429
 20
-82.8054
 30
0.0
 10
-119.3429
 20
-82.8054
 30
0.0
 10
-119.3429
 20
-82.8054
 30
0.0
 10
-119.3429
 20
-82.8054
 30
0.0
 10
-109.472
 20
-82.8054
 30
0.0
 10
-109.472
 20
-82.8054
 30
0.0
 10
-109.472
 20
-82.8054
 30
0.0
 10
-109.472
 20
-82.8054
 30
0.0
 10
-109.4625
 20
-75.5158
 30
0.0
 10
-109.4625
 20
-75.5158
 30
0.0
 10
-109.4625
 20
-75.5158
 30
0.0
 10
-109.4625
 20
-75.5158
 30
0.0
 10
-119.3429
 20
-69.6986
 30
0.0
 10
-119.3429
 20
-69.6986
 30
0.0
  0
SPLINE
  5
CF
330
1F
100
AcDbEntity
  8
layer 1
 62
     7
100
AcDbSpline
210
0.0
220
0.0
230
1.0
 70
    11
 71
     3
 72
    20
 73
    16
 74
     0
 42
0.0000000001
 43
0.0000000001
 12
1.0
 22
0.0
 32
0.0
 13
1.0
 23
0.0
 33
0.0
 40
0.0
 40
0.0
 40
0.0
 40
0.0
 40
0.2
 40
0.2
 40
0.2
 40
0.2
 40
0.4
 40
0.4
 40
0.4
 40
0.4
 40
0.6
 40
0.6
 40
0.6
 40
0.6
 40
1.0
 40
1.0
 40
1.0
 40
1.0
 10
-78.297
 20
-57.219
 30
0.0
 10
-78.297
 20
-57.219
 30
0.0
 10
-91.4038
 20
-57.219
 30
0.0
 10
-91.4038
 20
-57.219
 30
0.0
 10
-91.4038
 20
-57.219
 30
0.0
 10
-91.4038
 20
-57.219
 30
0.0
 10
-91.4038
 20
-67.0893
 30
0.0
 10
-91.4038
 20
-67.0893
 30
0.0
 10
-91.4038
 20
-67.0893
 30
0.0
 10
-91.4038
 20
-67.0893
 30
0.0
 10
-84.0636
 20
-67.0988
 30
0.0
 10
-84.0636
 20
-67.0988
 30
0.0
 10
-84.0636
 20
-67.0988
 30
0.0
 10
-84.0636
 20
-67.0988
 30
0.0
 10
-78.297
 20
-57.219
 30
0.0
 10
-78.297
 20
-57.219
 30
0.0
  0
SPLINE
  5
D0
330
1F
100
AcDbEntity
  8
layer 1
 62
     7
100
AcDbSpline
210
0.0
220
0.0
230
1.0
 70
    11
 71
     3
 72
    28
 73
    24
 74
     0
 42
0.0000000001
 43
0.0000000001
 12
1.0
 22
0.0
 32
0.0
 13
1.0
 23
0.0
 33
0.0
 40
0.0
 40
0.0
 40
0.0
 40
0.0
 40
0.1428571428571428
 40
0.1428571428571428
 40
0.1428571428571428
 40
0.1428571428571428
 40
0.2857142857142857
 40
0.2857142857142857
 40
0.2857142857142857
 40
0.2857142857142857
 40
0.4285714285714285
 40
0.4285714285714285
 40
0.4285714285714285
 40
0.4285714285714285
 40
0.5714285714285714
 40
0.5714285714285714
 40
0.5714285714285714
 40
0.5714285714285714
 40
0.7142857142857143
 40
0.7142857142857143
 40
0.7142857142857143
 40
0.7142857142857143
 40
1.0
 40
1.0
 40
1.0
 40
1.0
 10
-65.576
 20
-57.2568
 30
0.0
 10
-65.576
 20
-57.2568
 30
0.0
 10
-65.576
 20
-66.9481
 30
0.0
 10
-65.576
 20
-66.9481
 30
0.0
 10
-65.576
 20
-66.9481
 30
0.0
 10
-65.576
 20
-66.9481
 30
0.0
 10
-75.3837
 20
-73.0005
 30
0.0
 10
-75.3837
 20
-73.0005
 30
0.0
 10
-75.3837
 20
-73.0005
 30
0.0
 10
-75.3837
 20
-73.0005
 30
0.0
 10
-75.443
 20
-67.1204
 30
0.0
 10
-75.443
 20
-67.1204
 30
0.0
 10
-75.443
 20
-67.1204
 30
0.0
 10
-75.443
 20
-67.1204
 30
0.0
 10
-81.2072
 20
-67.0642
 30
0.0
 10
-81.2072
 20
-67.0642
 30
0.0
 10
-81.2072
 20
-67.0642
 30
0.0
 10
-81.2072
 20
-67.0642
 30
0.0
 10
-75.957
 20
-57.2343
 30
0.0
 10
-75.957
 20
-57.2343
 30
0.0
 10
-75.957
 20
-57.2343
 30
0.0
 10
-75.957
 20
-57.2343
 30
0.0
 10
-65.576
 20
-57.2568
 30
0.0
 10
-65.576
 20
-57.2568
 30
0.0
  0
SPLINE
  5
D1
330
1F
100
AcDbEntity
  8
layer 1
 62
     7
100
AcDbSpline
210
0.0
220
0.0
230
1.0
 70
    11
 71
     3
 72
    20
 73
    16
 74
     0
 42
0.0000000001
 43
0.0000000001
 12
1.0
 22
0.0
 32
0.0
 13
1.0
 23
0.0
 33
0.0
 40
0.0
 40
0.0
 40
0.0
 40
0.0
 40
0.2
 40
0.2
 40
0.2
 40
0.2
 40
0.4
 40
0.4
 40
0.4
 40
0.4
 40
0.6
 40
0.6
 40
0.6
 40
0.6
 40
1.0
 40
1.0
 40
1.0
 40
1.0
 10
-65.4942
 20
-69.6986
 30
0.0
 10
-65.4942
 20
-69.6986
 30
0.0
 10
-65.4942
 20
-82.8054
 30
0.0
 10
-65.4942
 20
-82.8054
 30
0.0
 10
-65.4942
 20
-82.8054
 30
0.0
 10
-65.4942
 20
-82.8054
 30
0.0
 10
-75.3685
 20
-82.8054
 30
0.0
 10
-75.3685
 20
-82.8054
 30
0.0
 10
-75.3685
 20
-82.8054
 30
0.0
 10
-75.3685
 20
-82.8054
 30
0.0
 10
-75.3771
 20
-75.5158
 30
0.0
 10
-75.3771
 20
-75.5158
 30
0.0
 10
-75.3771
 20
-75.5158
 30
0.0
 10
-75.3771
 20
-75.5158
 30
0.0
 10
-65.4942
 20
-69.6986
 30
0.0
 10
-65.4942
 20
-69.6986
 30
0.0
  0
SPLINE
  5
D2
330
1F
100
AcDbEntity
  8
layer 1
 62
     7
100
AcDbSpline
210
0.0
220
0.0
230
1.0
 70
    11
 71
     3
 72
    20
 73
    16
 74
     0
 42
0.0000000001
 43
0.0000000001
 12
1.0
 22
0.0
 32
0.0
 13
1.0
 23
0.0
 33
0.0
 40
0.0
 40
0.0
 40
0.0
 40
0.0
 40
0.2
 40
0.2
 40
0.2
 40
0.2
 40
0.4
 40
0.4
 40
0.4
 40
0.4
 40
0.6
 40
0.6
 40
0.6
 40
0.6
 40
1.0
 40
1.0
 40
1.0
 40
1.0
 10
-106.521
 20
-110.983
 30
0.0
 10
-106.521
 20
-110.983
 30
0.0
 10
-93.4149
 20
-110.983
 30
0.0
 10
-93.4149
 20
-110.983
 30
0.0
 10
-93.4149
 20
-110.983
 30
0.0
 10
-93.4149
 20
-110.983
 30
0.0
 10
-93.4149
 20
-101.1121
 30
0.0
 10
-93.4149
 20
-101.1121
 30
0.0
 10
-93.4149
 20
-101.1121
 30
0.0
 10
-93.4149
 20
-101.1121
 30
0.0
 10
-100.7543
 20
-101.1024
 30
0.0
 10
-100.7543
 20
-101.1024
 30
0.0
 10
-100.7543
 20
-101.1024
 30
0.0
 10
-100.7543
 20
-101.1024
 30
0.0
 10
-106.521
 20
-110.983
 30
0.0
 10
-106.521
 20
-110.983
 30
0.0
  0
SPLINE
  5
D3
330
1F
100
AcDbEntity
  8
layer 1
 62
     7
100
AcDbSpline
210
0.0
220
0.0
230
1.0
 70
    11
 71
     3
 72
    28
 73
    24
 74
     0
 42
0.0000000001
 43
0.0000000001
 12
1.0
 22
0.0
 32
0.0
 13
1.0
 23
0.0
 33
0.0
 40
0.0
 40
0.0
 40
0.0
 40
0.0
 40
0.1428571428571428
 40
0.1428571428571428
 40
0.1428571428571428
 40
0.1428571428571428
 40
0.2857142857142857
 40
0.2857142857142857
 40
0.2857142857142857
 40
0.2857142857142857
 40
0.4285714285714285
 40
0.4285714285714285
 40
0.4285714285714285
 40
0.4285714285714285
 40
0.5714285714285714
 40
0.5714285714285714
 40
0.5714285714285714
 40
0.5714285714285714
 40
0.7142857142857143
 40
0.7142857142857143
 40
0.7142857142857143
 40
0.7142857142857143
 40
1.0
 40
1.0
 40
1.0
 40
1.0
 10
-119.2429
 20
-110.9421
 30
0.0
 10
-119.2429
 20
-110.9421
 30
0.0
 10
-119.2429
 20
-101.2531
 30
0.0
 10
-119.2429
 20
-101.2531
 30
0.0
 10
-119.2429
 20
-101.2531
 30
0.0
 10
-119.2429
 20
-101.2531
 30
0.0
 10
-109.4345
 20
-95.2012
 30
0.0
 10
-109.4345
 20
-95.2012
 30
0.0
 10
-109.4345
 20
-95.2012
 30
0.0
 10
-109.4345
 20
-95.2012
 30
0.0
 10
-109.372
 20
-101.0808
 30
0.0
 10
-109.372
 20
-101.0808
 30
0.0
 10
-109.372
 20
-101.0808
 30
0.0
 10
-109.372
 20
-101.0808
 30
0.0
 10
-103.6108
 20
-101.1369
 30
0.0
 10
-103.6108
 20
-101.1369
 30
0.0
 10
-103.6108
 20
-101.1369
 30
0.0
 10
-103.6108
 20
-101.1369
 30
0.0
 10
-108.8581
 20
-110.9669
 30
0.0
 10
-108.8581
 20
-110.9669
 30
0.0
 10
-108.8581
 20
-110.9669
 30
0.0
 10
-108.8581
 20
-110.9669
 30
0.0
 10
-119.2429
 20
-110.9421
 30
0.0
 10
-119.2429
 20
-110.9421
 30
0.0
  0
SPLINE
  5
D4
330
1F
100
AcDbEntity
  8
layer 1
 62
     7
100
AcDbSpline
210
0.0
220
0.0
230
1.0
 70
    11
 71
     3
 72
    20
 73
    16
 74
     0
 42
0.0000000001
 43
0.0000000001
 12
1.0
 22
0.0
 32
0.0
 13
1.0
 23
0.0
 33
0.0
 40
0.0
 40
0.0
 40
0.0
 40
0.0
 40
0.2
 40
0.2
 40
0.2
 40
0.2
 40
0.4
 40
0.4
 40
0.4
 40
0.4
 40
0.6
 40
0.6
 40
0.6
 40
0.6
 40
1.0
 40
1.0
 40
1.0
 40
1.0
 10
-119.3207
 20
-98.5025
 30
0.0
 10
-119.3207
 20
-98.5025
 30
0.0
 10
-119.3207
 20
-85.3957
 30
0.0
 10
-119.3207
 20
-85.3957
 30
0.0
 10
-119.3207
 20
-85.3957
 30
0.0
 10
-119.3207
 20
-85.3957
 30
0.0
 10
-109.4504
 20
-85.3957
 30
0.0
 10
-109.4504
 20
-85.3957
 30
0.0
 10
-109.4504
 20
-85.3957
 30
0.0
 10
-109.4504
 20
-85.3957
 30
0.0
 10
-109.4407
 20
-92.6854
 30
0.0
 10
-109.4407
 20
-92.6854
 30
0.0
 10
-109.4407
 20
-92.6854
 30
0.0
 10
-109.4407
 20
-92.6854
 30
0.0
 10
-119.3207
 20
-98.5025
 30
0.0
 10
-119.3207
 20
-98.5025
 30
0.0
  0
SPLINE
  5
D5
330
1F
100
AcDbEntity
  8
layer 1
 62
     7
100
AcDbSpline
210
0.0
220
0.0
230
1.0
 70
    11
 71
     3
 72
    20
 73
    16
 74
     0
 42
0.0000000001
 43
0.0000000001
 12
1.0
 22
0.0
 32
0.0
 13
1.0
 23
0.0
 33
0.0
 40
0.0
 40
0.0
 40
0.0
 40
0.0
 40
0.2
 40
0.2
 40
0.2
 40
0.2
 40
0.4
 40
0.4
 40
0.4
 40
0.4
 40
0.6
 40
0.6
 40
0.6
 40
0.6
 40
1.0
 40
1.0
 40
1.0
 40
1.0
 10
-78.2786
 20
-110.983
 30
0.0
 10
-78.2786
 20
-110.983
 30
0.0
 10
-91.3847
 20
-110.983
 30
0.0
 10
-91.3847
 20
-110.983
 30
0.0
 10
-91.3847
 20
-110.983
 30
0.0
 10
-91.3847
 20
-110.983
 30
0.0
 10
-91.3847
 20
-101.1121
 30
0.0
 10
-91.3847
 20
-101.1121
 30
0.0
 10
-91.3847
 20
-101.1121
 30
0.0
 10
-91.3847
 20
-101.1121
 30
0.0
 10
-84.0421
 20
-101.1024
 30
0.0
 10
-84.0421
 20
-101.1024
 30
0.0
 10
-84.0421
 20
-101.1024
 30
0.0
 10
-84.0421
 20
-101.1024
 30
0.0
 10
-78.2786
 20
-110.983
 30
0.0
 10
-78.2786
 20
-110.983
 30
0.0
  0
SPLINE
  5
D6
330
1F
100
AcDbEntity
  8
layer 1
 62
     7
100
AcDbSpline
210
0.0
220
0.0
230
1.0
 70
    11
 71
     3
 72
    28
 73
    24
 74
     0
 42
0.0000000001
 43
0.0000000001
 12
1.0
 22
0.0
 32
0.0
 13
1.0
 23
0.0
 33
0.0
 40
0.0
 40
0.0
 40
0.0
 40
0.0
 40
0.1428571428571428
 40
0.1428571428571428
 40
0.1428571428571428
 40
0.1428571428571428
 40
0.2857142857142857
 40
0.2857142857142857
 40
0.2857142857142857
 40
0.2857142857142857
 40
0.4285714285714285
 40
0.4285714285714285
 40
0.4285714285714285
 40
0.4285714285714285
 40
0.5714285714285714
 40
0.5714285714285714
 40
0.5714285714285714
 40
0.5714285714285714
 40
0.7142857142857143
 40
0.7142857142857143
 40
0.7142857142857143
 40
0.7142857142857143
 40
1.0
 40
1.0
 40
1.0
 40
1.0
 10
-65.5567
 20
-110.9421
 30
0.0
 10
-65.5567
 20
-110.9421
 30
0.0
 10
-65.5567
 20
-101.2531
 30
0.0
 10
-65.5567
 20
-101.2531
 30
0.0
 10
-65.5567
 20
-101.2531
 30
0.0
 10
-65.5567
 20
-101.2531
 30
0.0
 10
-75.3621
 20
-95.2012
 30
0.0
 10
-75.3621
 20
-95.2012
 30
0.0
 10
-75.3621
 20
-95.2012
 30
0.0
 10
-75.3621
 20
-95.2012
 30
0.0
 10
-75.4246
 20
-101.0808
 30
0.0
 10
-75.4246
 20
-101.0808
 30
0.0
 10
-75.4246
 20
-101.0808
 30
0.0
 10
-75.4246
 20
-101.0808
 30
0.0
 10
-81.1881
 20
-101.1369
 30
0.0
 10
-81.1881
 20
-101.1369
 30
0.0
 10
-81.1881
 20
-101.1369
 30
0.0
 10
-81.1881
 20
-101.1369
 30
0.0
 10
-75.9386
 20
-110.9669
 30
0.0
 10
-75.9386
 20
-110.9669
 30
0.0
 10
-75.9386
 20
-110.9669
 30
0.0
 10
-75.9386
 20
-110.9669
 30
0.0
 10
-65.5567
 20
-110.9421
 30
0.0
 10
-65.5567
 20
-110.9421
 30
0.0
  0
SPLINE
  5
D7
330
1F
100
AcDbEntity
  8
layer 1
 62
     7
100
AcDbSpline
210
0.0
220
0.0
230
1.0
 70
    11
 71
     3
 72
    20
 73
    16
 74
     0
 42
0.0000000001
 43
0.0000000001
 12
1.0
 22
0.0
 32
0.0
 13
1.0
 23
0.0
 33
0.0
 40
0.0
 40
0.0
 40
0.0
 40
0.0
 40
0.2
 40
0.2
 40
0.2
 40
0.2
 40
0.4
 40
0.4
 40
0.4
 40
0.4
 40
0.6
 40
0.6
 40
0.6
 40
0.6
 40
1.0
 40
1.0
 40
1.0
 40
1.0
 10
-65.4757
 20
-98.5025
 30
0.0
 10
-65.4757
 20
-98.5025
 30
0.0
 10
-65.4757
 20
-85.3957
 30
0.0
 10
-65.4757
 20
-85.3957
 30
0.0
 10
-65.4757
 20
-85.3957
 30
0.0
 10
-65.4757
 20
-85.3957
 30
0.0
 10
-75.3457
 20
-85.3957
 30
0.0
 10
-75.3457
 20
-85.3957
 30
0.0
 10
-75.3457
 20
-85.3957
 30
0.0
 10
-75.3457
 20
-85.3957
 30
0.0
 10
-75.3555
 20
-92.6854
 30
0.0
 10
-75.3555
 20
-92.6854
 30
0.0
 10
-75.3555
 20
-92.6854
 30
0.0
 10
-75.3555
 20
-92.6854
 30
0.0
 10
-65.4757
 20
-98.5025
 30
0.0
 10
-65.4757
 20
-98.5025
 30
0.0
  0
SPLINE
  5
D8
330
1F
100
AcDbEntity
  8
layer 1
 62
     7
100
AcDbSpline
210
0.0
220
0.0
230
1.0
 70
    11
 71
     3
 72
    20
 73
    16
 74
     0
 42
0.0000000001
 43
0.0000000001
 12
1.0
 22
0.0
 32
0.0
 13
1.0
 23
0.0
 33
0.0
 40
0.0
 40
0.0
 40
0.0
 40
0.0
 40
0.2
 40
0.2
 40
0.2
 40
0.2
 40
0.4
 40
0.4
 40
0.4
 40
0.4
 40
0.6
 40
0.6
 40
0.6
 40
0.6
 40
1.0
 40
1.0
 40
1.0
 40
1.0
 10
-107.6021
 20
-68.9249
 30
0.0
 10
-107.6021
 20
-68.9249
 30
0.0
 10
-93.6588
 20
-68.9249
 30
0.0
 10
-93.6588
 20
-68.9249
 30
0.0
 10
-93.6588
 20
-68.9249
 30
0.0
 10
-93.6588
 20
-68.9249
 30
0.0
 10
-93.6588
 20
-82.8679
 30
0.0
 10
-93.6588
 20
-82.8679
 30
0.0
 10
-93.6588
 20
-82.8679
 30
0.0
 10
-93.6588
 20
-82.8679
 30
0.0
 10
-107.6019
 20
-82.8679
 30
0.0
 10
-107.6019
 20
-82.8679
 30
0.0
 10
-107.6019
 20
-82.8679
 30
0.0
 10
-107.6019
 20
-82.8679
 30
0.0
 10
-107.6021
 20
-68.9249
 30
0.0
 10
-107.6021
 20
-68.9249
 30
0.0
  0
SPLINE
  5
D9
330
1F
100
AcDbEntity
  8
layer 1
 62
     7
100
AcDbSpline
210
0.0
220
0.0
230
1.0
 70
    11
 71
     3
 72
    20
 73
    16
 74
     0
 42
0.0000000001
 43
0.0000000001
 12
1.0
 22
0.0
 32
0.0
 13
1.0
 23
0.0
 33
0.0
 40
0.0
 40
0.0
 40
0.0
 40
0.0
 40
0.2
 40
0.2
 40
0.2
 40
0.2
 40
0.4
 40
0.4
 40
0.4
 40
0.4
 40
0.6
 40
0.6
 40
0.6
 40
0.6
 40
1.0
 40
1.0
 40
1.0
 40
1.0
 10
-91.2692
 20
-68.9249
 30
0.0
 10
-91.2692
 20
-68.9249
 30
0.0
 10
-77.3259
 20
-68.9249
 30
0.0
 10
-77.3259
 20
-68.9249
 30
0.0
 10
-77.3259
 20
-68.9249
 30
0.0
 10
-77.3259
 20
-68.9249
 30
0.0
 10
-77.3259
 20
-82.8679
 30
0.0
 10
-77.3259
 20
-82.8679
 30
0.0
 10
-77.3259
 20
-82.8679
 30
0.0
 10
-77.3259
 20
-82.8679
 30
0.0
 10
-91.269
 20
-82.8679
 30
0.0
 10
-91.269
 20
-82.8679
 30
0.0
 10
-91.269
 20
-82.8679
 30
0.0
 10
-91.269
 20
-82.8679
 30
0.0
 10
-91.2692
 20
-68.9249
 30
0.0
 10
-91.2692
 20
-68.9249
 30
0.0
  0
SPLINE
  5
DA
330
1F
100
AcDbEntity
  8
layer 1
 62
     7
100
AcDbSpline
210
0.0
220
0.0
230
1.0
 70
    11
 71
     3
 72
    20
 73
    16
 74
     0
 42
0.0000000001
 43
0.0000000001
 12
1.0
 22
0.0
 32
0.0
 13
1.0
 23
0.0
 33
0.0
 40
0.0
 40
0.0
 40
0.0
 40
0.0
 40
0.2
 40
0.2
 40
0.2
 40
0.2
 40
0.4
 40
0.4
 40
0.4
 40
0.4
 40
0.6
 40
0.6
 40
0.6
 40
0.6
 40
1.0
 40
1.0
 40
1.0
 40
1.0
 10
-107.6021
 20
-85.2955
 30
0.0
 10
-107.6021
 20
-85.2955
 30
0.0
 10
-93.6588
 20
-85.2955
 30
0.0
 10
-93.6588
 20
-85.2955
 30
0.0
 10
-93.6588
 20
-85.2955
 30
0.0
 10
-93.6588
 20
-85.2955
 30
0.0
 10
-93.6588
 20
-99.2386
 30
0.0
 10
-93.6588
 20
-99.2386
 30
0.0
 10
-93.6588
 20
-99.2386
 30
0.0
 10
-93.6588
 20
-99.2386
 30
0.0
 10
-107.6019
 20
-99.2386
 30
0.0
 10
-107.6019
 20
-99.2386
 30
0.0
 10
-107.6019
 20
-99.2386
 30
0.0
 10
-107.6019
 20
-99.2386
 30
0.0
 10
-107.6021
 20
-85.2955
 30
0.0
 10
-107.6021
 20
-85.2955
 30
0.0
  0
SPLINE
  5
DB
330
1F
100
AcDbEntity
  8
layer 1
 62
     7
100
AcDbSpline
210
0.0
220
0.0
230
1.0
 70
    11
 71
     3
 72
    20
 73
    16
 74
     0
 42
0.0000000001
 43
0.0000000001
 12
1.0
 22
0.0
 32
0.0
 13
1.0
 23
0.0
 33
0.0
 40
0.0
 40
0.0
 40
0.0
 40
0.0
 40
0.2
 40
0.2
 40
0.2
 40
0.2
 40
0.4
 40
0.4
 40
0.4
 40
0.4
 40
0.6
 40
0.6
 40
0.6
 40
0.6
 40
1.0
 40
1.0
 40
1.0
 40
1.0
 10
-91.2692
 20
-85.2955
 30
0.0
 10
-91.2692
 20
-85.2955
 30
0.0
 10
-77.3259
 20
-85.2955
 30
0.0
 10
-77.3259
 20
-85.2955
 30
0.0
 10
-77.3259
 20
-85.2955
 30
0.0
 10
-77.3259
 20
-85.2955
 30
0.0
 10
-77.3259
 20
-99.2386
 30
0.0
 10
-77.3259
 20
-99.2386
 30
0.0
 10
-77.3259
 20
-99.2386
 30
0.0
 10
-77.3259
 20
-99.2386
 30
0.0
 10
-91.269
 20
-99.2386
 30
0.0
 10
-91.269
 20
-99.2386
 30
0.0
 10
-91.269
 20
-99.2386
 30
0.0
 10
-91.269
 20
-99.2386
 30
0.0
 10
-91.2692
 20
-85.2955
 30
0.0
 10
-91.2692
 20
-85.2955
 30
0.0
  0
SPLINE
  5
DC
330
1F
100
AcDbEntity
  8
layer 1
 62
     7
100
AcDbSpline
210
0.0
220
0.0
230
1.0
 70
    11
 71
     3
 72
    24
 73
    20
 74
     0
 42
0.0000000001
 43
0.0000000001
 12
1.0
 22
0.0
 32
0.0
 13
1.0
 23
0.0
 33
0.0
 40
0.0
 40
0.0
 40
0.0
 40
0.0
 40
0.1666666666666667
 40
0.1666666666666667
 40
0.1666666666666667
 40
0.1666666666666667
 40
0.3333333333333333
 40
0.3333333333333333
 40
0.3333333333333333
 40
0.3333333333333333
 40
0.5
 40
0.5
 40
0.5
 40
0.5
 40
0.6666666666666666
 40
0.6666666666666666
 40
0.6666666666666666
 40
0.6666666666666666
 40
1.0
 40
1.0
 40
1.0
 40
1.0
 10
-33.845
 20
-75.9917
 30
0.0
 10
-33.845
 20
-75.9917
 30
0.0
 10
-33.858
 20
-57.2027
 30
0.0
 10
-33.858
 20
-57.2027
 30
0.0
 10
-33.858
 20
-57.2027
 30
0.0
 10
-33.858
 20
-57.2027
 30
0.0
 10
-22.0869
 20
-57.2027
 30
0.0
 10
-22.0869
 20
-57.2027
 30
0.0
 10
-22.0869
 20
-57.2027
 30
0.0
 10
-22.0869
 20
-57.2027
 30
0.0
 10
-22.0996
 20
-75.9917
 30
0.0
 10
-22.0996
 20
-75.9917
 30
0.0
 10
-22.0996
 20
-75.9917
 30
0.0
 10
-23.6836
 20
-74.8717
 30
0.0
 10
-25.7319
 20
-74.2263
 30
0.0
 10
-27.9737
 20
-74.1981
 30
0.0
 10
-27.9737
 20
-74.1981
 30
0.0
 10
-30.2136
 20
-74.2261
 30
0.0
 10
-32.261
 20
-74.8717
 30
0.0
 10
-33.845
 20
-75.9917
 30
0.0
  0
SPLINE
  5
DD
330
1F
100
AcDbEntity
  8
layer 1
 62
     7
100
AcDbSpline
210
0.0
220
0.0
230
1.0
 70
    11
 71
     3
 72
    20
 73
    16
 74
     0
 42
0.0000000001
 43
0.0000000001
 12
1.0
 22
0.0
 32
0.0
 13
1.0
 23
0.0
 33
0.0
 40
0.0
 40
0.0
 40
0.0
 40
0.0
 40
0.2
 40
0.2
 40
0.2
 40
0.2
 40
0.4
 40
0.4
 40
0.4
 40
0.4
 40
0.6
 40
0.6
 40
0.6
 40
0.6
 40
1.0
 40
1.0
 40
1.0
 40
1.0
 10
-19.8388
 20
-84.1368
 30
0.0
 10
-19.8388
 20
-88.6306
 30
0.0
 10
-23.4831
 20
-92.2717
 30
0.0
 10
-27.9769
 20
-92.2717
 30
0.0
 10
-27.9769
 20
-92.2717
 30
0.0
 10
-32.4681
 20
-92.2717
 30
0.0
 10
-36.1125
 20
-88.6308
 30
0.0
 10
-36.1125
 20
-84.1371
 30
0.0
 10
-36.1125
 20
-84.1371
 30
0.0
 10
-36.1125
 20
-79.6424
 30
0.0
 10
-32.4681
 20
-76.0015
 30
0.0
 10
-27.9769
 20
-76.0015
 30
0.0
 10
-27.9769
 20
-76.0015
 30
0.0
 10
-23.4831
 20
-76.0015
 30
0.0
 10
-19.8388
 20
-79.6424
 30
0.0
 10
-19.8388
 20
-84.1368
 30
0.0
  0
SPLINE
  5
DE
330
1F
100
AcDbEntity
  8
layer 1
 62
     7
100
AcDbSpline
210
0.0
220
0.0
230
1.0
 70
    11
 71
     3
 72
    24
 73
    20
 74
     0
 42
0.0000000001
 43
0.0000000001
 12
1.0
 22
0.0
 32
0.0
 13
1.0
 23
0.0
 33
0.0
 40
0.0
 40
0.0
 40
0.0
 40
0.0
 40
0.1666666666666667
 40
0.1666666666666667
 40
0.1666666666666667
 40
0.1666666666666667
 40
0.3333333333333333
 40
0.3333333333333333
 40
0.3333333333333333
 40
0.3333333333333333
 40
0.5
 40
0.5
 40
0.5
 40
0.5
 40
0.6666666666666666
 40
0.6666666666666666
 40
0.6666666666666666
 40
0.6666666666666666
 40
1.0
 40
1.0
 40
1.0
 40
1.0
 10
-54.9422
 20
-57.3183
 30
0.0
 10
-54.9422
 20
-57.3183
 30
0.0
 10
-54.9422
 20
-82.8193
 30
0.0
 10
-54.9422
 20
-82.8193
 30
0.0
 10
-54.9422
 20
-82.8193
 30
0.0
 10
-54.9422
 20
-82.8193
 30
0.0
 10
-37.9693
 20
-82.8193
 30
0.0
 10
-37.9693
 20
-82.8193
 30
0.0
 10
-37.9693
 20
-82.8193
 30
0.0
 10
-37.9693
 20
-82.8193
 30
0.0
 10
-37.9502
 20
-82.4365
 30
0.0
 10
-37.7807
 20
-81.7911
 30
0.0
 10
-37.7807
 20
-81.7911
 30
0.0
 10
-46.2053
 20
-75.9819
 30
0.0
 10
-51.3358
 20
-64.1364
 30
0.0
 10
-51.2234
 20
-57.2774
 30
0.0
 10
-51.2234
 20
-57.2774
 30
0.0
 10
-52.9166
 20
-57.2719
 30
0.0
 10
-54.9422
 20
-57.3183
 30
0.0
 10
-54.9422
 20
-57.3183
 30
0.0
  0
SPLINE
  5
DF
330
1F
100
AcDbEntity
  8
layer 1
 62
     7
100
AcDbSpline
210
0.0
220
0.0
230
1.0
 70
    11
 71
     3
 72
    20
 73
    16
 74
     0
 42
0.0000000001
 43
0.0000000001
 12
1.0
 22
0.0
 32
0.0
 13
1.0
 23
0.0
 33
0.0
 40
0.0
 40
0.0
 40
0.0
 40
0.0
 40
0.2
 40
0.2
 40
0.2
 40
0.2
 40
0.4
 40
0.4
 40
0.4
 40
0.4
 40
0.6
 40
0.6
 40
0.6
 40
0.6
 40
1.0
 40
1.0
 40
1.0
 40
1.0
 10
-36.2633
 20
-57.2774
 30
0.0
 10
-36.2633
 20
-57.2774
 30
0.0
 10
-49.2411
 20
-57.2148
 30
0.0
 10
-49.2411
 20
-57.2148
 30
0.0
 10
-49.2411
 20
-57.2148
 30
0.0
 10
-48.1805
 20
-65.2024
 30
0.0
 10
-44.3138
 20
-74.0472
 30
0.0
 10
-37.1753
 20
-80.0093
 30
0.0
 10
-37.1753
 20
-80.0093
 30
0.0
 10
-36.7306
 20
-79.0024
 30
0.0
 10
-36.2633
 20
-78.3443
 30
0.0
 10
-36.2633
 20
-78.3443
 30
0.0
 10
-36.2633
 20
-78.3443
 30
0.0
 10
-36.2633
 20
-78.3443
 30
0.0
 10
-36.2633
 20
-57.2774
 30
0.0
 10
-36.2633
 20
-57.2774
 30
0.0
  0
SPLINE
  5
E0
330
1F
100
AcDbEntity
  8
layer 1
 62
     7
100
AcDbSpline
210
0.0
220
0.0
230
1.0
 70
    11
 71
     3
 72
    24
 73
    20
 74
     0
 42
0.0000000001
 43
0.0000000001
 12
1.0
 22
0.0
 32
0.0
 13
1.0
 23
0.0
 33
0.0
 40
0.0
 40
0.0
 40
0.0
 40
0.0
 40
0.1666666666666667
 40
0.1666666666666667
 40
0.1666666666666667
 40
0.1666666666666667
 40
0.3333333333333333
 40
0.3333333333333333
 40
0.3333333333333333
 40
0.3333333333333333
 40
0.5
 40
0.5
 40
0.5
 40
0.5
 40
0.6666666666666666
 40
0.6666666666666666
 40
0.6666666666666666
 40
0.6666666666666666
 40
1.0
 40
1.0
 40
1.0
 40
1.0
 10
-1.1149
 20
-57.3183
 30
0.0
 10
-1.1149
 20
-57.3183
 30
0.0
 10
-1.1149
 20
-82.8193
 30
0.0
 10
-1.1149
 20
-82.8193
 30
0.0
 10
-1.1149
 20
-82.8193
 30
0.0
 10
-1.1149
 20
-82.8193
 30
0.0
 10
-18.0884
 20
-82.8193
 30
0.0
 10
-18.0884
 20
-82.8193
 30
0.0
 10
-18.0884
 20
-82.8193
 30
0.0
 10
-18.0884
 20
-82.8193
 30
0.0
 10
-18.1102
 20
-82.4365
 30
0.0
 10
-18.2764
 20
-81.7911
 30
0.0
 10
-18.2764
 20
-81.7911
 30
0.0
 10
-9.8524
 20
-75.9819
 30
0.0
 10
-4.7222
 20
-64.1364
 30
0.0
 10
-4.8346
 20
-57.2774
 30
0.0
 10
-4.8346
 20
-57.2774
 30
0.0
 10
-3.1413
 20
-57.2719
 30
0.0
 10
-1.1149
 20
-57.3183
 30
0.0
 10
-1.1149
 20
-57.3183
 30
0.0
  0
SPLINE
  5
E1
330
1F
100
AcDbEntity
  8
layer 1
 62
     7
100
AcDbSpline
210
0.0
220
0.0
230
1.0
 70
    11
 71
     3
 72
    20
 73
    16
 74
     0
 42
0.0000000001
 43
0.0000000001
 12
1.0
 22
0.0
 32
0.0
 13
1.0
 23
0.0
 33
0.0
 40
0.0
 40
0.0
 40
0.0
 40
0.0
 40
0.2
 40
0.2
 40
0.2
 40
0.2
 40
0.4
 40
0.4
 40
0.4
 40
0.4
 40
0.6
 40
0.6
 40
0.6
 40
0.6
 40
1.0
 40
1.0
 40
1.0
 40
1.0
 10
-19.7946
 20
-57.2774
 30
0.0
 10
-19.7946
 20
-57.2774
 30
0.0
 10
-6.8169
 20
-57.2148
 30
0.0
 10
-6.8169
 20
-57.2148
 30
0.0
 10
-6.8169
 20
-57.2148
 30
0.0
 10
-7.8799
 20
-65.2024
 30
0.0
 10
-11.7473
 20
-74.0472
 30
0.0
 10
-18.885
 20
-80.0093
 30
0.0
 10
-18.885
 20
-80.0093
 30
0.0
 10
-19.3274
 20
-79.0024
 30
0.0
 10
-19.7946
 20
-78.3443
 30
0.0
 10
-19.7946
 20
-78.3443
 30
0.0
 10
-19.7946
 20
-78.3443
 30
0.0
 10
-19.7946
 20
-78.3443
 30
0.0
 10
-19.7946
 20
-57.2774
 30
0.0
 10
-19.7946
 20
-57.2774
 30
0.0
  0
SPLINE
  5
E2
330
1F
100
AcDbEntity
  8
layer 1
 62
     7
100
AcDbSpline
210
0.0
220
0.0
230
1.0
 70
    11
 71
     3
 72
    24
 73
    20
 74
     0
 42
0.0000000001
 43
0.0000000001
 12
1.0
 22
0.0
 32
0.0
 13
1.0
 23
0.0
 33
0.0
 40
0.0
 40
0.0
 40
0.0
 40
0.0
 40
0.1666666666666667
 40
0.1666666666666667
 40
0.1666666666666667
 40
0.1666666666666667
 40
0.3333333333333333
 40
0.3333333333333333
 40
0.3333333333333333
 40
0.3333333333333333
 40
0.5
 40
0.5
 40
0.5
 40
0.5
 40
0.6666666666666666
 40
0.6666666666666666
 40
0.6666666666666666
 40
0.6666666666666666
 40
1.0
 40
1.0
 40
1.0
 40
1.0
 10
-54.9422
 20
-110.9515
 30
0.0
 10
-54.9422
 20
-110.9515
 30
0.0
 10
-54.9422
 20
-85.4505
 30
0.0
 10
-54.9422
 20
-85.4505
 30
0.0
 10
-54.9422
 20
-85.4505
 30
0.0
 10
-54.9422
 20
-85.4505
 30
0.0
 10
-37.9693
 20
-85.4505
 30
0.0
 10
-37.9693
 20
-85.4505
 30
0.0
 10
-37.9693
 20
-85.4505
 30
0.0
 10
-37.9693
 20
-85.4505
 30
0.0
 10
-37.9502
 20
-85.8335
 30
0.0
 10
-37.7807
 20
-86.4789
 30
0.0
 10
-37.7807
 20
-86.4789
 30
0.0
 10
-46.2053
 20
-92.2877
 30
0.0
 10
-51.3358
 20
-104.1336
 30
0.0
 10
-51.2234
 20
-110.9924
 30
0.0
 10
-51.2234
 20
-110.9924
 30
0.0
 10
-52.9166
 20
-110.9956
 30
0.0
 10
-54.9422
 20
-110.9515
 30
0.0
 10
-54.9422
 20
-110.9515
 30
0.0
  0
SPLINE
  5
E3
330
1F
100
AcDbEntity
  8
layer 1
 62
     7
100
AcDbSpline
210
0.0
220
0.0
230
1.0
 70
    11
 71
     3
 72
    20
 73
    16
 74
     0
 42
0.0000000001
 43
0.0000000001
 12
1.0
 22
0.0
 32
0.0
 13
1.0
 23
0.0
 33
0.0
 40
0.0
 40
0.0
 40
0.0
 40
0.0
 40
0.2
 40
0.2
 40
0.2
 40
0.2
 40
0.4
 40
0.4
 40
0.4
 40
0.4
 40
0.6
 40
0.6
 40
0.6
 40
0.6
 40
1.0
 40
1.0
 40
1.0
 40
1.0
 10
-36.2633
 20
-110.9924
 30
0.0
 10
-36.2633
 20
-110.9924
 30
0.0
 10
-49.2411
 20
-111.055
 30
0.0
 10
-49.2411
 20
-111.055
 30
0.0
 10
-49.2411
 20
-111.055
 30
0.0
 10
-48.1805
 20
-103.0672
 30
0.0
 10
-44.3138
 20
-94.2229
 30
0.0
 10
-37.1753
 20
-88.2605
 30
0.0
 10
-37.1753
 20
-88.2605
 30
0.0
 10
-36.7306
 20
-89.2674
 30
0.0
 10
-36.2633
 20
-89.9258
 30
0.0
 10
-36.2633
 20
-89.9258
 30
0.0
 10
-36.2633
 20
-89.9258
 30
0.0
 10
-36.2633
 20
-89.9258
 30
0.0
 10
-36.2633
 20
-110.9924
 30
0.0
 10
-36.2633
 20
-110.9924
 30
0.0
  0
SPLINE
  5
E4
330
1F
100
AcDbEntity
  8
layer 1
 62
     7
100
AcDbSpline
210
0.0
220
0.0
230
1.0
 70
    11
 71
     3
 72
    24
 73
    20
 74
     0
 42
0.0000000001
 43
0.0000000001
 12
1.0
 22
0.0
 32
0.0
 13
1.0
 23
0.0
 33
0.0
 40
0.0
 40
0.0
 40
0.0
 40
0.0
 40
0.1666666666666667
 40
0.1666666666666667
 40
0.1666666666666667
 40
0.1666666666666667
 40
0.3333333333333333
 40
0.3333333333333333
 40
0.3333333333333333
 40
0.3333333333333333
 40
0.5
 40
0.5
 40
0.5
 40
0.5
 40
0.6666666666666666
 40
0.6666666666666666
 40
0.6666666666666666
 40
0.6666666666666666
 40
1.0
 40
1.0
 40
1.0
 40
1.0
 10
-22.213
 20
-92.2781
 30
0.0
 10
-22.213
 20
-92.2781
 30
0.0
 10
-22.2
 20
-111.0671
 30
0.0
 10
-22.2
 20
-111.0671
 30
0.0
 10
-22.2
 20
-111.0671
 30
0.0
 10
-22.2
 20
-111.0671
 30
0.0
 10
-33.9702
 20
-111.0671
 30
0.0
 10
-33.9702
 20
-111.0671
 30
0.0
 10
-33.9702
 20
-111.0671
 30
0.0
 10
-33.9702
 20
-111.0671
 30
0.0
 10
-33.9581
 20
-92.2781
 30
0.0
 10
-33.9581
 20
-92.2781
 30
0.0
 10
-33.9581
 20
-92.2781
 30
0.0
 10
-32.3741
 20
-93.3981
 30
0.0
 10
-30.326
 20
-94.0437
 30
0.0
 10
-28.0868
 20
-94.0726
 30
0.0
 10
-28.0868
 20
-94.0726
 30
0.0
 10
-25.8444
 20
-94.0437
 30
0.0
 10
-23.7963
 20
-93.3983
 30
0.0
 10
-22.213
 20
-92.2781
 30
0.0
  0
SPLINE
  5
E5
330
1F
100
AcDbEntity
  8
layer 1
 62
     7
100
AcDbSpline
210
0.0
220
0.0
230
1.0
 70
    11
 71
     3
 72
    24
 73
    20
 74
     0
 42
0.0000000001
 43
0.0000000001
 12
1.0
 22
0.0
 32
0.0
 13
1.0
 23
0.0
 33
0.0
 40
0.0
 40
0.0
 40
0.0
 40
0.0
 40
0.1666666666666667
 40
0.1666666666666667
 40
0.1666666666666667
 40
0.1666666666666667
 40
0.3333333333333333
 40
0.3333333333333333
 40
0.3333333333333333
 40
0.3333333333333333
 40
0.5
 40
0.5
 40
0.5
 40
0.5
 40
0.6666666666666666
 40
0.6666666666666666
 40
0.6666666666666666
 40
0.6666666666666666
 40
1.0
 40
1.0
 40
1.0
 40
1.0
 10
-1.1149
 20
-110.9515
 30
0.0
 10
-1.1149
 20
-110.9515
 30
0.0
 10
-1.1149
 20
-85.4505
 30
0.0
 10
-1.1149
 20
-85.4505
 30
0.0
 10
-1.1149
 20
-85.4505
 30
0.0
 10
-1.1149
 20
-85.4505
 30
0.0
 10
-18.0884
 20
-85.4505
 30
0.0
 10
-18.0884
 20
-85.4505
 30
0.0
 10
-18.0884
 20
-85.4505
 30
0.0
 10
-18.0884
 20
-85.4505
 30
0.0
 10
-18.1102
 20
-85.8335
 30
0.0
 10
-18.2764
 20
-86.4789
 30
0.0
 10
-18.2764
 20
-86.4789
 30
0.0
 10
-9.8524
 20
-92.2877
 30
0.0
 10
-4.7222
 20
-104.1336
 30
0.0
 10
-4.8346
 20
-110.9924
 30
0.0
 10
-4.8346
 20
-110.9924
 30
0.0
 10
-3.1413
 20
-110.9956
 30
0.0
 10
-1.1149
 20
-110.9515
 30
0.0
 10
-1.1149
 20
-110.9515
 30
0.0
  0
SPLINE
  5
E6
330
1F
100
AcDbEntity
  8
layer 1
 62
     7
100
AcDbSpline
210
0.0
220
0.0
230
1.0
 70
    11
 71
     3
 72
    20
 73
    16
 74
     0
 42
0.0000000001
 43
0.0000000001
 12
1.0
 22
0.0
 32
0.0
 13
1.0
 23
0.0
 33
0.0
 40
0.0
 40
0.0
 40
0.0
 40
0.0
 40
0.2
 40
0.2
 40
0.2
 40
0.2
 40
0.4
 40
0.4
 40
0.4
 40
0.4
 40
0.6
 40
0.6
 40
0.6
 40
0.6
 40
1.0
 40
1.0
 40
1.0
 40
1.0
 10
-19.7946
 20
-110.9924
 30
0.0
 10
-19.7946
 20
-110.9924
 30
0.0
 10
-6.8169
 20
-111.055
 30
0.0
 10
-6.8169
 20
-111.055
 30
0.0
 10
-6.8169
 20
-111.055
 30
0.0
 10
-7.8799
 20
-103.0672
 30
0.0
 10
-11.7473
 20
-94.2229
 30
0.0
 10
-18.885
 20
-88.2605
 30
0.0
 10
-18.885
 20
-88.2605
 30
0.0
 10
-19.3274
 20
-89.2674
 30
0.0
 10
-19.7946
 20
-89.9258
 30
0.0
 10
-19.7946
 20
-89.9258
 30
0.0
 10
-19.7946
 20
-89.9258
 30
0.0
 10
-19.7946
 20
-89.9258
 30
0.0
 10
-19.7946
 20
-110.9924
 30
0.0
 10
-19.7946
 20
-110.9924
 30
0.0
  0
ENDSEC
  0
SECTION
  2
OBJECTS
  0
DICTIONARY
  5
C
330
0
100
AcDbDictionary
281
     1
  3
ACAD_GROUP
350
D
  3
ACAD_LAYOUT
350
1A
  3
ACAD_MATERIAL
350
3B
  3
ACAD_MLEADERSTYLE
350
109
  3
ACAD_MLINESTYLE
350
17
  3
ACAD_PLOTSETTINGS
350
19
  3
ACAD_PLOTSTYLENAME
350
E
  3
ACAD_TABLESTYLE
350
108
  3
ACAD_VISUALSTYLE
350
2A
  0
DICTIONARY
  5
D
102
{ACAD_REACTORS
330
C
102
}
330
C
100
AcDbDictionary
281
     1
  0
DICTIONARY
  5
1A
102
{ACAD_REACTORS
330
C
102
}
330
C
100
AcDbDictionary
281
     1
  3
Layout1
350
1E
  3
Layout2
350
26
  3
Model
350
22
  0
DICTIONARY
  5
3B
102
{ACAD_REACTORS
330
C
102
}
330
C
100
AcDbDictionary
281
     1
  3
ByBlock
350
3D
  3
ByLayer
350
3C
  3
Global
350
3E
  0
DICTIONARY
  5
109
102
{ACAD_REACTORS
330
C
102
}
330
C
100
AcDbDictionary
281
     1
  0
DICTIONARY
  5
17
102
{ACAD_REACTORS
330
C
102
}
330
C
100
AcDbDictionary
281
     1
  3
Standard
350
18
  0
DICTIONARY
  5
19
102
{ACAD_REACTORS
330
C
102
}
330
C
100
AcDbDictionary
281
     1
  0
ACDBDICTIONARYWDFLT
  5
E
102
{ACAD_REACTORS
330
C
102
}
330
C
100
AcDbDictionary
281
     1
  3
Normal
350
F
100
AcDbDictionaryWithDefault
340
F
  0
DICTIONARY
  5
108
102
{ACAD_REACTORS
330
C
102
}
330
C
100
AcDbDictionary
281
     1
  0
DICTIONARY
  5
2A
102
{ACAD_REACTORS
330
C
102
}
330
C
100
AcDbDictionary
281
     1
  3
2dWireframe
350
2F
  3
3D Hidden
350
31
  3
3dWireframe
350
30
  3
Basic
350
32
  3
Brighten
350
36
  3
ColorChange
350
3A
  3
Conceptual
350
34
  3
Dim
350
35
  3
Facepattern
350
39
  3
Flat
350
2B
  3
FlatWithEdges
350
2C
  3
Gouraud
350
2D
  3
GouraudWithEdges
350
2E
  3
Linepattern
350
38
  3
Realistic
350
33
  3
Thicken
350
37
  0
LAYOUT
  5
1E
102
{ACAD_REACTORS
330
1A
102
}
330
1A
100
AcDbPlotSettings
  1

  2
none_device
  4

  6

 40
0.0
 41
0.0
 42
0.0
 43
0.0
 44
0.0
 45
0.0
 46
0.0
 47
0.0
 48
0.0
 49
0.0
140
0.0
141
0.0
142
1.0
143
1.0
 70
   688
 72
     0
 73
     0
 74
     5
  7

 75
    16
 76
     0
 77
     2
 78
   300
147
1.0
148
0.0
149
0.0
100
AcDbLayout
  1
Layout1
 70
     1
 71
     1
 10
0.0
 20
0.0
 11
12.0
 21
9.0
 12
0.0
 22
0.0
 32
0.0
 14
1.000000000000000E+20
 24
1.000000000000000E+20
 34
1.000000000000000E+20
 15
-1.000000000000000E+20
 25
-1.000000000000000E+20
 35
-1.000000000000000E+20
146
0.0
 13
0.0
 23
0.0
 33
0.0
 16
1.0
 26
0.0
 36
0.0
 17
0.0
 27
1.0
 37
0.0
 76
     0
330
1B
  0
LAYOUT
  5
26
102
{ACAD_REACTORS
330
1A
102
}
330
1A
100
AcDbPlotSettings
  1

  2
none_device
  4

  6

 40
0.0
 41
0.0
 42
0.0
 43
0.0
 44
0.0
 45
0.0
 46
0.0
 47
0.0
 48
0.0
 49
0.0
140
0.0
141
0.0
142
1.0
143
1.0
 70
   688
 72
     0
 73
     0
 74
     5
  7

 75
    16
 76
     0
 77
     2
 78
   300
147
1.0
148
0.0
149
0.0
100
AcDbLayout
  1
Layout2
 70
     1
 71
     2
 10
0.0
 20
0.0
 11
0.0
 21
0.0
 12
0.0
 22
0.0
 32
0.0
 14
0.0
 24
0.0
 34
0.0
 15
0.0
 25
0.0
 35
0.0
146
0.0
 13
0.0
 23
0.0
 33
0.0
 16
1.0
 26
0.0
 36
0.0
 17
0.0
 27
1.0
 37
0.0
 76
     0
330
23
  0
LAYOUT
  5
22
102
{ACAD_REACTORS
330
1A
102
}
330
1A
100
AcDbPlotSettings
  1

  2
none_device
  4

  6

 40
0.0
 41
0.0
 42
0.0
 43
0.0
 44
0.0
 45
0.0
 46
0.0
 47
0.0
 48
0.0
 49
0.0
140
0.0
141
0.0
142
1.0
143
1.0
 70
  1712
 72
     0
 73
     0
 74
     0
  7

 75
     0
 76
     0
 77
     2
 78
   300
147
1.0
148
0.0
149
0.0
100
AcDbLayout
  1
Model
 70
     1
 71
     0
 10
0.0
 20
0.0
 11
12.0
 21
9.0
 12
0.0
 22
0.0
 32
0.0
 14
-187.4871
 24
-114.9865
 34
0.0
 15
2.7839
 25
131.8041
 35
0.0
146
0.0
 13
0.0
 23
0.0
 33
0.0
 16
1.0
 26
0.0
 36
0.0
 17
0.0
 27
1.0
 37
0.0
 76
     0
330
1F
331
29
  0
MATERIAL
  5
3D
102
{ACAD_REACTORS
330
3B
102
}
330
3B
100
AcDbMaterial
  1
ByBlock
 72
     1
 94
      127
  0
MATERIAL
  5
3C
102
{ACAD_REACTORS
330
3B
102
}
330
3B
100
AcDbMaterial
  1
ByLayer
 72
     1
 94
      127
  0
MATERIAL
  5
3E
102
{ACAD_REACTORS
330
3B
102
}
330
3B
100
AcDbMaterial
  1
Global
 72
     1
 94
      127
  0
MLINESTYLE
  5
18
102
{ACAD_REACTORS
330
17
102
}
330
17
100
AcDbMlineStyle
  2
Standard
 70
     0
  3

 62
   256
 51
90.0
 52
90.0
 71
     2
 49
0.5
 62
   256
  6
BYLAYER
 49
-0.5
 62
   256
  6
BYLAYER
  0
ACDBPLACEHOLDER
  5
F
102
{ACAD_REACTORS
330
E
102
}
330
E
  0
VISUALSTYLE
  5
2F
102
{ACAD_REACTORS
330
2A
102
}
102
{ACAD_XDICTIONARY
360
F0
102
}
330
2A
100
AcDbVisualStyle
  2
2dWireframe
 70
     4
 71
     0
 72
     2
 73
     0
 90
        0
 40
-0.6
 41
-30.0
 62
     5
 63
     7
421
 16777215
 74
     1
 91
        4
 64
     7
 65
   257
 75
     1
175
     1
 42
1.0
 92
        0
 66
   257
 43
1.0
 76
     1
 77
     6
 78
     2
 67
     7
 79
     5
170
     0
171
     0
290
     0
174
     0
 93
        1
 44
0.0
173
     0
291
     0
 45
0.0
  0
VISUALSTYLE
  5
31
102
{ACAD_REACTORS
330
2A
102
}
102
{ACAD_XDICTIONARY
360
F4
102
}
330
2A
100
AcDbVisualStyle
  2
3D Hidden
 70
     6
 71
     1
 72
     2
 73
     2
 90
        0
 40
-0.6
 41
-30.0
 62
     5
 63
     7
421
 16777215
 74
     2
 91
        2
 64
     7
 65
   257
 75
     2
175
     1
 42
40.0
 92
        0
 66
   257
 43
1.0
 76
     1
 77
     6
 78
     2
 67
     7
 79
     3
170
     0
171
     0
290
     0
174
     0
 93
        1
 44
0.0
173
     0
291
     0
 45
0.0
  0
VISUALSTYLE
  5
30
102
{ACAD_REACTORS
330
2A
102
}
102
{ACAD_XDICTIONARY
360
F2
102
}
330
2A
100
AcDbVisualStyle
  2
3dWireframe
 70
     5
 71
     0
 72
     2
 73
     0
 90
        0
 40
-0.6
 41
-30.0
 62
     5
 63
     7
421
 16777215
 74
     1
 91
        4
 64
     7
 65
   257
 75
     1
175
     1
 42
1.0
 92
        0
 66
   257
 43
1.0
 76
     1
 77
     6
 78
     2
 67
     7
 79
     5
170
     0
171
     0
290
     0
174
     0
 93
        1
 44
0.0
173
     0
291
     0
 45
0.0
  0
VISUALSTYLE
  5
32
102
{ACAD_REACTORS
330
2A
102
}
102
{ACAD_XDICTIONARY
360
F6
102
}
330
2A
100
AcDbVisualStyle
  2
Basic
 70
     7
 71
     1
 72
     0
 73
     1
 90
        0
 40
-0.6
 41
-30.0
 62
     5
 63
     7
421
 16777215
 74
     0
 91
        4
 64
     7
 65
   257
 75
     1
175
     1
 42
1.0
 92
        8
 66
     7
 43
1.0
 76
     1
 77
     6
 78
     2
 67
     7
 79
     5
170
     0
171
     0
290
     0
174
     0
 93
        1
 44
0.0
173
     0
291
     1
 45
0.0
  0
VISUALSTYLE
  5
36
102
{ACAD_REACTORS
330
2A
102
}
102
{ACAD_XDICTIONARY
360
FE
102
}
330
2A
100
AcDbVisualStyle
  2
Brighten
 70
    12
 71
     2
 72
     2
 73
     0
 90
        0
 40
-0.6
 41
-30.0
 62
     5
 63
     7
421
 16777215
 74
     1
 91
        4
 64
     7
 65
   257
 75
     1
175
     1
 42
1.0
 92
        8
 66
     7
 43
1.0
 76
     1
 77
     6
 78
     2
 67
     7
 79
     5
170
     0
171
     0
290
     0
174
     0
 93
        1
 44
50.0
173
     0
291
     1
 45
0.0
  0
VISUALSTYLE
  5
3A
102
{ACAD_REACTORS
330
2A
102
}
102
{ACAD_XDICTIONARY
360
106
102
}
330
2A
100
AcDbVisualStyle
  2
ColorChange
 70
    16
 71
     2
 72
     2
 73
     3
 90
        0
 40
-0.6
 41
-30.0
 62
     5
 63
     8
421
  8421504
 74
     1
 91
        4
 64
     7
 65
   257
 75
     1
175
     1
 42
1.0
 92
        8
 66
     8
424
  8421504
 43
1.0
 76
     1
 77
     6
 78
     2
 67
     7
 79
     5
170
     0
171
     0
290
     0
174
     0
 93
        1
 44
0.0
173
     0
291
     1
 45
0.0
  0
VISUALSTYLE
  5
34
102
{ACAD_REACTORS
330
2A
102
}
102
{ACAD_XDICTIONARY
360
FA
102
}
330
2A
100
AcDbVisualStyle
  2
Conceptual
 70
     9
 71
     3
 72
     2
 73
     0
 90
        0
 40
-0.6
 41
-30.0
 62
     5
 63
     7
421
 16777215
 74
     2
 91
        2
 64
     7
 65
   257
 75
     1
175
     1
 42
40.0
 92
        8
 66
     7
 43
1.0
 76
     1
 77
     6
 78
     2
 67
     7
 79
     3
170
     0
171
     0
290
     0
174
     0
 93
        1
 44
0.0
173
     0
291
     0
 45
0.0
  0
VISUALSTYLE
  5
35
102
{ACAD_REACTORS
330
2A
102
}
102
{ACAD_XDICTIONARY
360
FC
102
}
330
2A
100
AcDbVisualStyle
  2
Dim
 70
    11
 71
     2
 72
     2
 73
     0
 90
        0
 40
-0.6
 41
-30.0
 62
     5
 63
     7
421
 16777215
 74
     1
 91
        4
 64
     7
 65
   257
 75
     1
175
     1
 42
1.0
 92
        8
 66
     7
 43
1.0
 76
     1
 77
     6
 78
     2
 67
     7
 79
     5
170
     0
171
     0
290
     0
174
     0
 93
        1
 44
-50.0
173
     0
291
     1
 45
0.0
  0
VISUALSTYLE
  5
39
102
{ACAD_REACTORS
330
2A
102
}
102
{ACAD_XDICTIONARY
360
104
102
}
330
2A
100
AcDbVisualStyle
  2
Facepattern
 70
    15
 71
     2
 72
     2
 73
     0
 90
        0
 40
-0.6
 41
-30.0
 62
     5
 63
     7
421
 16777215
 74
     1
 91
        4
 64
     7
 65
   257
 75
     1
175
     1
 42
1.0
 92
        8
 66
     7
 43
1.0
 76
     1
 77
     6
 78
     2
 67
     7
 79
     5
170
     0
171
     0
290
     0
174
     0
 93
        1
 44
0.0
173
     0
291
     1
 45
0.0
  0
VISUALSTYLE
  5
2B
102
{ACAD_REACTORS
330
2A
102
}
102
{ACAD_XDICTIONARY
360
E8
102
}
330
2A
100
AcDbVisualStyle
  2
Flat
 70
     0
 71
     2
 72
     1
 73
     1
 90
        2
 40
-0.6
 41
30.0
 62
     5
 63
     7
421
 16777215
 74
     0
 91
        4
 64
     7
 65
   257
 75
     1
175
     1
 42
1.0
 92
        8
 66
     7
 43
1.0
 76
     1
 77
     6
 78
     2
 67
     7
 79
     5
170
     0
171
     0
290
     0
174
     0
 93
       13
 44
0.0
173
     0
291
     1
 45
0.0
  0
VISUALSTYLE
  5
2C
102
{ACAD_REACTORS
330
2A
102
}
102
{ACAD_XDICTIONARY
360
EA
102
}
330
2A
100
AcDbVisualStyle
  2
FlatWithEdges
 70
     1
 71
     2
 72
     1
 73
     1
 90
        2
 40
-0.6
 41
30.0
 62
     5
 63
     7
421
 16777215
 74
     1
 91
        4
 64
     7
 65
   257
 75
     1
175
     1
 42
1.0
 92
        0
 66
   257
 43
1.0
 76
     1
 77
     6
 78
     2
 67
     7
 79
     5
170
     0
171
     0
290
     0
174
     0
 93
       13
 44
0.0
173
     0
291
     1
 45
0.0
  0
VISUALSTYLE
  5
2D
102
{ACAD_REACTORS
330
2A
102
}
102
{ACAD_XDICTIONARY
360
EC
102
}
330
2A
100
AcDbVisualStyle
  2
Gouraud
 70
     2
 71
     2
 72
     2
 73
     1
 90
        2
 40
-0.6
 41
30.0
 62
     5
 63
     7
421
 16777215
 74
     0
 91
        4
 64
     7
 65
   257
 75
     1
175
     1
 42
1.0
 92
        0
 66
     7
 43
1.0
 76
     1
 77
     6
 78
     2
 67
     7
 79
     5
170
     0
171
     0
290
     0
174
     0
 93
       13
 44
0.0
173
     0
291
     1
 45
0.0
  0
VISUALSTYLE
  5
2E
102
{ACAD_REACTORS
330
2A
102
}
102
{ACAD_XDICTIONARY
360
EE
102
}
330
2A
100
AcDbVisualStyle
  2
GouraudWithEdges
 70
     3
 71
     2
 72
     2
 73
     1
 90
        2
 40
-0.6
 41
30.0
 62
     5
 63
     7
421
 16777215
 74
     1
 91
        4
 64
     7
 65
   257
 75
     1
175
     1
 42
1.0
 92
        0
 66
   257
 43
1.0
 76
     1
 77
     6
 78
     2
 67
     7
 79
     5
170
     0
171
     0
290
     0
174
     0
 93
       13
 44
0.0
173
     0
291
     1
 45
0.0
  0
VISUALSTYLE
  5
38
102
{ACAD_REACTORS
330
2A
102
}
102
{ACAD_XDICTIONARY
360
102
102
}
330
2A
100
AcDbVisualStyle
  2
Linepattern
 70
    14
 71
     2
 72
     2
 73
     0
 90
        0
 40
-0.6
 41
-30.0
 62
     5
 63
     7
421
 16777215
 74
     1
 91
        4
 64
     7
 65
   257
 75
     7
175
     7
 42
1.0
 92
        8
 66
     7
 43
1.0
 76
     1
 77
     6
 78
     2
 67
     7
 79
     5
170
     0
171
     0
290
     0
174
     0
 93
        1
 44
0.0
173
     0
291
     1
 45
0.0
  0
VISUALSTYLE
  5
33
102
{ACAD_REACTORS
330
2A
102
}
102
{ACAD_XDICTIONARY
360
F8
102
}
330
2A
100
AcDbVisualStyle
  2
Realistic
 70
     8
 71
     2
 72
     2
 73
     0
 90
        0
 40
-0.6
 41
-30.0
 62
     5
 63
     7
421
 16777215
 74
     1
 91
        0
 64
     7
 65
   257
 75
     1
175
     1
 42
1.0
 92
        8
 66
     8
424
  7895160
 43
1.0
 76
     1
 77
     6
 78
     2
 67
     7
 79
     5
170
     0
171
     0
290
     0
174
     0
 93
       13
 44
0.0
173
     0
291
     0
 45
0.0
  0
VISUALSTYLE
  5
37
102
{ACAD_REACTORS
330
2A
102
}
102
{ACAD_XDICTIONARY
360
100
102
}
330
2A
100
AcDbVisualStyle
  2
Thicken
 70
    13
 71
     2
 72
     2
 73
     0
 90
        0
 40
-0.6
 41
-30.0
 62
     5
 63
     7
421
 16777215
 74
     1
 91
        4
 64
     7
 65
   257
 75
     1
175
     1
 42
1.0
 92
       12
 66
     7
 43
1.0
 76
     1
 77
     6
 78
     2
 67
     7
 79
     5
170
     0
171
     0
290
     0
174
     0
 93
        1
 44
0.0
173
     0
291
     1
 45
0.0
  0
DICTIONARY
  5
F0
330
2F
100
AcDbDictionary
280
     1
281
     1
  3
ACAD_XREC_ROUNDTRIP
360
F1
  0
DICTIONARY
  5
F4
330
31
100
AcDbDictionary
280
     1
281
     1
  3
ACAD_XREC_ROUNDTRIP
360
F5
  0
DICTIONARY
  5
F2
330
30
100
AcDbDictionary
280
     1
281
     1
  3
ACAD_XREC_ROUNDTRIP
360
F3
  0
DICTIONARY
  5
F6
330
32
100
AcDbDictionary
280
     1
281
     1
  3
ACAD_XREC_ROUNDTRIP
360
F7
  0
DICTIONARY
  5
FE
330
36
100
AcDbDictionary
280
     1
281
     1
  3
ACAD_XREC_ROUNDTRIP
360
FF
  0
DICTIONARY
  5
106
330
3A
100
AcDbDictionary
280
     1
281
     1
  3
ACAD_XREC_ROUNDTRIP
360
107
  0
DICTIONARY
  5
FA
330
34
100
AcDbDictionary
280
     1
281
     1
  3
ACAD_XREC_ROUNDTRIP
360
FB
  0
DICTIONARY
  5
FC
330
35
100
AcDbDictionary
280
     1
281
     1
  3
ACAD_XREC_ROUNDTRIP
360
FD
  0
DICTIONARY
  5
104
330
39
100
AcDbDictionary
280
     1
281
     1
  3
ACAD_XREC_ROUNDTRIP
360
105
  0
DICTIONARY
  5
E8
330
2B
100
AcDbDictionary
280
     1
281
     1
  3
ACAD_XREC_ROUNDTRIP
360
E9
  0
DICTIONARY
  5
EA
330
2C
100
AcDbDictionary
280
     1
281
     1
  3
ACAD_XREC_ROUNDTRIP
360
EB
  0
DICTIONARY
  5
EC
330
2D
100
AcDbDictionary
280
     1
281
     1
  3
ACAD_XREC_ROUNDTRIP
360
ED
  0
DICTIONARY
  5
EE
330
2E
100
AcDbDictionary
280
     1
281
     1
  3
ACAD_XREC_ROUNDTRIP
360
EF
  0
DICTIONARY
  5
102
330
38
100
AcDbDictionary
280
     1
281
     1
  3
ACAD_XREC_ROUNDTRIP
360
103
  0
DICTIONARY
  5
F8
330
33
100
AcDbDictionary
280
     1
281
     1
  3
ACAD_XREC_ROUNDTRIP
360
F9
  0
DICTIONARY
  5
100
330
37
100
AcDbDictionary
280
     1
281
     1
  3
ACAD_XREC_ROUNDTRIP
360
101
  0
XRECORD
  5
F1
102
{ACAD_REACTORS
330
F0
102
}
330
F0
100
AcDbXrecord
280
     1
102
RTVSPropertyOp0
 70
     1
102
RTVSPropertyOp1
 70
     1
102
RTVSPropertyOp2
 70
     1
102
RTVSPropertyOp3
 70
     1
102
RTVSPropertyOp4
 70
     1
102
RTVSPropertyOp5
 70
     1
102
RTVSPropertyOp6
 70
     1
102
RTVSPropertyOp7
 70
     1
102
RTVSPropertyOp8
 70
     1
102
RTVSPropertyOp9
 70
     1
102
RTVSPropertyOp10
 70
     1
102
RTVSPropertyOp11
 70
     1
102
RTVSPropertyOp12
 70
     1
102
RTVSPropertyOp13
 70
     1
102
RTVSPropertyOp14
 70
     1
102
RTVSPropertyOp15
 70
     1
102
RTVSPropertyOp16
 70
     1
102
RTVSPropertyOp17
 70
     1
102
RTVSPropertyOp18
 70
     1
102
RTVSPropertyOp19
 70
     1
102
RTVSPropertyOp20
 70
     1
102
RTVSPropertyOp21
 70
     1
102
RTVSPropertyOp22
 70
     1
102
RTVSPropertyOp23
 70
     1
102
RTVSPropertyOp24
 70
     1
102
RTVSPropertyOp25
 70
     1
102
RTVSPropertyOp26
 70
     1
102
RTVSPropertyOp27
 70
     1
102
RTVSPropertyOp28
 70
     1
102
RTVSPropertyOp29
 70
     1
102
RTVSPropertyOp30
 70
     1
102
RTVSPropertyOp31
 70
     1
102
RTVSPropertyOp32
 70
     1
  0
XRECORD
  5
F5
102
{ACAD_REACTORS
330
F4
102
}
330
F4
100
AcDbXrecord
280
     1
102
RTVSPropertyOp0
 70
     1
102
RTVSPropertyOp1
 70
     1
102
RTVSPropertyOp2
 70
     1
102
RTVSPropertyOp3
 70
     1
102
RTVSPropertyOp4
 70
     1
102
RTVSPropertyOp5
 70
     1
102
RTVSPropertyOp6
 70
     1
102
RTVSPropertyOp7
 70
     1
102
RTVSPropertyOp8
 70
     1
102
RTVSPropertyOp9
 70
     1
102
RTVSPropertyOp10
 70
     1
102
RTVSPropertyOp11
 70
     1
102
RTVSPropertyOp12
 70
     1
102
RTVSPropertyOp13
 70
     1
102
RTVSPropertyOp14
 70
     1
102
RTVSPropertyOp15
 70
     1
102
RTVSPropertyOp16
 70
     1
102
RTVSPropertyOp17
 70
     1
102
RTVSPropertyOp18
 70
     1
102
RTVSPropertyOp19
 70
     1
102
RTVSPropertyOp20
 70
     1
102
RTVSPropertyOp21
 70
     1
102
RTVSPropertyOp22
 70
     1
102
RTVSPropertyOp23
 70
     1
102
RTVSPropertyOp24
 70
     1
102
RTVSPropertyOp25
 70
     1
102
RTVSPropertyOp26
 70
     1
102
RTVSPropertyOp27
 70
     1
102
RTVSPropertyOp28
 70
     1
102
RTVSPropertyOp29
 70
     1
102
RTVSPropertyOp30
 70
     1
102
RTVSPropertyOp31
 70
     1
102
RTVSPropertyOp32
 70
     1
  0
XRECORD
  5
F3
102
{ACAD_REACTORS
330
F2
102
}
330
F2
100
AcDbXrecord
280
     1
102
RTVSPropertyOp0
 70
     1
102
RTVSPropertyOp1
 70
     1
102
RTVSPropertyOp2
 70
     1
102
RTVSPropertyOp3
 70
     1
102
RTVSPropertyOp4
 70
     1
102
RTVSPropertyOp5
 70
     1
102
RTVSPropertyOp6
 70
     1
102
RTVSPropertyOp7
 70
     1
102
RTVSPropertyOp8
 70
     1
102
RTVSPropertyOp9
 70
     1
102
RTVSPropertyOp10
 70
     1
102
RTVSPropertyOp11
 70
     1
102
RTVSPropertyOp12
 70
     1
102
RTVSPropertyOp13
 70
     1
102
RTVSPropertyOp14
 70
     1
102
RTVSPropertyOp15
 70
     1
102
RTVSPropertyOp16
 70
     1
102
RTVSPropertyOp17
 70
     1
102
RTVSPropertyOp18
 70
     1
102
RTVSPropertyOp19
 70
     1
102
RTVSPropertyOp20
 70
     1
102
RTVSPropertyOp21
 70
     1
102
RTVSPropertyOp22
 70
     1
102
RTVSPropertyOp23
 70
     1
102
RTVSPropertyOp24
 70
     1
102
RTVSPropertyOp25
 70
     1
102
RTVSPropertyOp26
 70
     1
102
RTVSPropertyOp27
 70
     1
102
RTVSPropertyOp28
 70
     1
102
RTVSPropertyOp29
 70
     1
102
RTVSPropertyOp30
 70
     1
102
RTVSPropertyOp31
 70
     1
102
RTVSPropertyOp32
 70
     1
  0
XRECORD
  5
F7
102
{ACAD_REACTORS
330
F6
102
}
330
F6
100
AcDbXrecord
280
     1
102
RTVSPropertyOp0
 70
     1
102
RTVSPropertyOp1
 70
     1
102
RTVSPropertyOp2
 70
     1
102
RTVSPropertyOp3
 70
     1
102
RTVSPropertyOp4
 70
     1
102
RTVSPropertyOp5
 70
     1
102
RTVSPropertyOp6
 70
     1
102
RTVSPropertyOp7
 70
     1
102
RTVSPropertyOp8
 70
     1
102
RTVSPropertyOp9
 70
     1
102
RTVSPropertyOp10
 70
     1
102
RTVSPropertyOp11
 70
     1
102
RTVSPropertyOp12
 70
     1
102
RTVSPropertyOp13
 70
     1
102
RTVSPropertyOp14
 70
     1
102
RTVSPropertyOp15
 70
     1
102
RTVSPropertyOp16
 70
     1
102
RTVSPropertyOp17
 70
     1
102
RTVSPropertyOp18
 70
     1
102
RTVSPropertyOp19
 70
     1
102
RTVSPropertyOp20
 70
     1
102
RTVSPropertyOp21
 70
     1
102
RTVSPropertyOp22
 70
     1
102
RTVSPropertyOp23
 70
     1
102
RTVSPropertyOp24
 70
     1
102
RTVSPropertyOp25
 70
     1
102
RTVSPropertyOp26
 70
     1
102
RTVSPropertyOp27
 70
     1
102
RTVSPropertyOp28
 70
     1
102
RTVSPropertyOp29
 70
     1
102
RTVSPropertyOp30
 70
     1
102
RTVSPropertyOp31
 70
     1
102
RTVSPropertyOp32
 70
     1
  0
XRECORD
  5
FF
102
{ACAD_REACTORS
330
FE
102
}
330
FE
100
AcDbXrecord
280
     1
102
RTVSPropertyOp0
 70
     1
102
RTVSPropertyOp1
 70
     1
102
RTVSPropertyOp2
 70
     1
102
RTVSPropertyOp3
 70
     1
102
RTVSPropertyOp4
 70
     1
102
RTVSPropertyOp5
 70
     1
102
RTVSPropertyOp6
 70
     1
102
RTVSPropertyOp7
 70
     1
102
RTVSPropertyOp8
 70
     1
102
RTVSPropertyOp9
 70
     1
102
RTVSPropertyOp10
 70
     1
102
RTVSPropertyOp11
 70
     1
102
RTVSPropertyOp12
 70
     1
102
RTVSPropertyOp13
 70
     1
102
RTVSPropertyOp14
 70
     1
102
RTVSPropertyOp15
 70
     1
102
RTVSPropertyOp16
 70
     1
102
RTVSPropertyOp17
 70
     1
102
RTVSPropertyOp18
 70
     1
102
RTVSPropertyOp19
 70
     1
102
RTVSPropertyOp20
 70
     1
102
RTVSPropertyOp21
 70
     1
102
RTVSPropertyOp22
 70
     1
102
RTVSPropertyOp23
 70
     1
102
RTVSPropertyOp24
 70
     1
102
RTVSPropertyOp25
 70
     1
102
RTVSPropertyOp26
 70
     1
102
RTVSPropertyOp27
 70
     1
102
RTVSPropertyOp28
 70
     1
102
RTVSPropertyOp29
 70
     1
102
RTVSPropertyOp30
 70
     1
102
RTVSPropertyOp31
 70
     1
102
RTVSPropertyOp32
 70
     1
  0
XRECORD
  5
107
102
{ACAD_REACTORS
330
106
102
}
330
106
100
AcDbXrecord
280
     1
102
RTVSPropertyOp0
 70
     1
102
RTVSPropertyOp1
 70
     1
102
RTVSPropertyOp2
 70
     1
102
RTVSPropertyOp3
 70
     1
102
RTVSPropertyOp4
 70
     1
102
RTVSPropertyOp5
 70
     1
102
RTVSPropertyOp6
 70
     1
102
RTVSPropertyOp7
 70
     1
102
RTVSPropertyOp8
 70
     1
102
RTVSPropertyOp9
 70
     1
102
RTVSPropertyOp10
 70
     1
102
RTVSPropertyOp11
 70
     1
102
RTVSPropertyOp12
 70
     1
102
RTVSPropertyOp13
 70
     1
102
RTVSPropertyOp14
 70
     1
102
RTVSPropertyOp15
 70
     1
102
RTVSPropertyOp16
 70
     1
102
RTVSPropertyOp17
 70
     1
102
RTVSPropertyOp18
 70
     1
102
RTVSPropertyOp19
 70
     1
102
RTVSPropertyOp20
 70
     1
102
RTVSPropertyOp21
 70
     1
102
RTVSPropertyOp22
 70
     1
102
RTVSPropertyOp23
 70
     1
102
RTVSPropertyOp24
 70
     1
102
RTVSPropertyOp25
 70
     1
102
RTVSPropertyOp26
 70
     1
102
RTVSPropertyOp27
 70
     1
102
RTVSPropertyOp28
 70
     1
102
RTVSPropertyOp29
 70
     1
102
RTVSPropertyOp30
 70
     1
102
RTVSPropertyOp31
 70
     1
102
RTVSPropertyOp32
 70
     1
  0
XRECORD
  5
FB
102
{ACAD_REACTORS
330
FA
102
}
330
FA
100
AcDbXrecord
280
     1
102
RTVSPropertyOp0
 70
     1
102
RTVSPropertyOp1
 70
     1
102
RTVSPropertyOp2
 70
     1
102
RTVSPropertyOp3
 70
     1
102
RTVSPropertyOp4
 70
     1
102
RTVSPropertyOp5
 70
     1
102
RTVSPropertyOp6
 70
     1
102
RTVSPropertyOp7
 70
     1
102
RTVSPropertyOp8
 70
     1
102
RTVSPropertyOp9
 70
     1
102
RTVSPropertyOp10
 70
     1
102
RTVSPropertyOp11
 70
     1
102
RTVSPropertyOp12
 70
     1
102
RTVSPropertyOp13
 70
     1
102
RTVSPropertyOp14
 70
     1
102
RTVSPropertyOp15
 70
     1
102
RTVSPropertyOp16
 70
     1
102
RTVSPropertyOp17
 70
     1
102
RTVSPropertyOp18
 70
     1
102
RTVSPropertyOp19
 70
     1
102
RTVSPropertyOp20
 70
     1
102
RTVSPropertyOp21
 70
     1
102
RTVSPropertyOp22
 70
     1
102
RTVSPropertyOp23
 70
     1
102
RTVSPropertyOp24
 70
     1
102
RTVSPropertyOp25
 70
     1
102
RTVSPropertyOp26
 70
     1
102
RTVSPropertyOp27
 70
     1
102
RTVSPropertyOp28
 70
     1
102
RTVSPropertyOp29
 70
     1
102
RTVSPropertyOp30
 70
     1
102
RTVSPropertyOp31
 70
     1
102
RTVSPropertyOp32
 70
     1
  0
XRECORD
  5
FD
102
{ACAD_REACTORS
330
FC
102
}
330
FC
100
AcDbXrecord
280
     1
102
RTVSPropertyOp0
 70
     1
102
RTVSPropertyOp1
 70
     1
102
RTVSPropertyOp2
 70
     1
102
RTVSPropertyOp3
 70
     1
102
RTVSPropertyOp4
 70
     1
102
RTVSPropertyOp5
 70
     1
102
RTVSPropertyOp6
 70
     1
102
RTVSPropertyOp7
 70
     1
102
RTVSPropertyOp8
 70
     1
102
RTVSPropertyOp9
 70
     1
102
RTVSPropertyOp10
 70
     1
102
RTVSPropertyOp11
 70
     1
102
RTVSPropertyOp12
 70
     1
102
RTVSPropertyOp13
 70
     1
102
RTVSPropertyOp14
 70
     1
102
RTVSPropertyOp15
 70
     1
102
RTVSPropertyOp16
 70
     1
102
RTVSPropertyOp17
 70
     1
102
RTVSPropertyOp18
 70
     1
102
RTVSPropertyOp19
 70
     1
102
RTVSPropertyOp20
 70
     1
102
RTVSPropertyOp21
 70
     1
102
RTVSPropertyOp22
 70
     1
102
RTVSPropertyOp23
 70
     1
102
RTVSPropertyOp24
 70
     1
102
RTVSPropertyOp25
 70
     1
102
RTVSPropertyOp26
 70
     1
102
RTVSPropertyOp27
 70
     1
102
RTVSPropertyOp28
 70
     1
102
RTVSPropertyOp29
 70
     1
102
RTVSPropertyOp30
 70
     1
102
RTVSPropertyOp31
 70
     1
102
RTVSPropertyOp32
 70
     1
  0
XRECORD
  5
105
102
{ACAD_REACTORS
330
104
102
}
330
104
100
AcDbXrecord
280
     1
102
RTVSPropertyOp0
 70
     1
102
RTVSPropertyOp1
 70
     1
102
RTVSPropertyOp2
 70
     1
102
RTVSPropertyOp3
 70
     1
102
RTVSPropertyOp4
 70
     1
102
RTVSPropertyOp5
 70
     1
102
RTVSPropertyOp6
 70
     1
102
RTVSPropertyOp7
 70
     1
102
RTVSPropertyOp8
 70
     1
102
RTVSPropertyOp9
 70
     1
102
RTVSPropertyOp10
 70
     1
102
RTVSPropertyOp11
 70
     1
102
RTVSPropertyOp12
 70
     1
102
RTVSPropertyOp13
 70
     1
102
RTVSPropertyOp14
 70
     1
102
RTVSPropertyOp15
 70
     1
102
RTVSPropertyOp16
 70
     1
102
RTVSPropertyOp17
 70
     1
102
RTVSPropertyOp18
 70
     1
102
RTVSPropertyOp19
 70
     1
102
RTVSPropertyOp20
 70
     1
102
RTVSPropertyOp21
 70
     1
102
RTVSPropertyOp22
 70
     1
102
RTVSPropertyOp23
 70
     1
102
RTVSPropertyOp24
 70
     1
102
RTVSPropertyOp25
 70
     1
102
RTVSPropertyOp26
 70
     1
102
RTVSPropertyOp27
 70
     1
102
RTVSPropertyOp28
 70
     1
102
RTVSPropertyOp29
 70
     1
102
RTVSPropertyOp30
 70
     1
102
RTVSPropertyOp31
 70
     1
102
RTVSPropertyOp32
 70
     1
  0
XRECORD
  5
E9
102
{ACAD_REACTORS
330
E8
102
}
330
E8
100
AcDbXrecord
280
     1
102
RTVSPropertyOp0
 70
     1
102
RTVSPropertyOp1
 70
     1
102
RTVSPropertyOp2
 70
     1
102
RTVSPropertyOp3
 70
     1
102
RTVSPropertyOp4
 70
     1
102
RTVSPropertyOp5
 70
     1
102
RTVSPropertyOp6
 70
     1
102
RTVSPropertyOp7
 70
     1
102
RTVSPropertyOp8
 70
     1
102
RTVSPropertyOp9
 70
     1
102
RTVSPropertyOp10
 70
     1
102
RTVSPropertyOp11
 70
     1
102
RTVSPropertyOp12
 70
     1
102
RTVSPropertyOp13
 70
     1
102
RTVSPropertyOp14
 70
     1
102
RTVSPropertyOp15
 70
     1
102
RTVSPropertyOp16
 70
     1
102
RTVSPropertyOp17
 70
     1
102
RTVSPropertyOp18
 70
     1
102
RTVSPropertyOp19
 70
     1
102
RTVSPropertyOp20
 70
     1
102
RTVSPropertyOp21
 70
     1
102
RTVSPropertyOp22
 70
     1
102
RTVSPropertyOp23
 70
     1
102
RTVSPropertyOp24
 70
     1
102
RTVSPropertyOp25
 70
     1
102
RTVSPropertyOp26
 70
     1
102
RTVSPropertyOp27
 70
     1
102
RTVSPropertyOp28
 70
     1
102
RTVSPropertyOp29
 70
     1
102
RTVSPropertyOp30
 70
     1
102
RTVSPropertyOp31
 70
     1
102
RTVSPropertyOp32
 70
     1
  0
XRECORD
  5
EB
102
{ACAD_REACTORS
330
EA
102
}
330
EA
100
AcDbXrecord
280
     1
102
RTVSPropertyOp0
 70
     1
102
RTVSPropertyOp1
 70
     1
102
RTVSPropertyOp2
 70
     1
102
RTVSPropertyOp3
 70
     1
102
RTVSPropertyOp4
 70
     1
102
RTVSPropertyOp5
 70
     1
102
RTVSPropertyOp6
 70
     1
102
RTVSPropertyOp7
 70
     1
102
RTVSPropertyOp8
 70
     1
102
RTVSPropertyOp9
 70
     1
102
RTVSPropertyOp10
 70
     1
102
RTVSPropertyOp11
 70
     1
102
RTVSPropertyOp12
 70
     1
102
RTVSPropertyOp13
 70
     1
102
RTVSPropertyOp14
 70
     1
102
RTVSPropertyOp15
 70
     1
102
RTVSPropertyOp16
 70
     1
102
RTVSPropertyOp17
 70
     1
102
RTVSPropertyOp18
 70
     1
102
RTVSPropertyOp19
 70
     1
102
RTVSPropertyOp20
 70
     1
102
RTVSPropertyOp21
 70
     1
102
RTVSPropertyOp22
 70
     1
102
RTVSPropertyOp23
 70
     1
102
RTVSPropertyOp24
 70
     1
102
RTVSPropertyOp25
 70
     1
102
RTVSPropertyOp26
 70
     1
102
RTVSPropertyOp27
 70
     1
102
RTVSPropertyOp28
 70
     1
102
RTVSPropertyOp29
 70
     1
102
RTVSPropertyOp30
 70
     1
102
RTVSPropertyOp31
 70
     1
102
RTVSPropertyOp32
 70
     1
  0
XRECORD
  5
ED
102
{ACAD_REACTORS
330
EC
102
}
330
EC
100
AcDbXrecord
280
     1
102
RTVSPropertyOp0
 70
     1
102
RTVSPropertyOp1
 70
     1
102
RTVSPropertyOp2
 70
     1
102
RTVSPropertyOp3
 70
     1
102
RTVSPropertyOp4
 70
     1
102
RTVSPropertyOp5
 70
     1
102
RTVSPropertyOp6
 70
     1
102
RTVSPropertyOp7
 70
     1
102
RTVSPropertyOp8
 70
     1
102
RTVSPropertyOp9
 70
     1
102
RTVSPropertyOp10
 70
     1
102
RTVSPropertyOp11
 70
     1
102
RTVSPropertyOp12
 70
     1
102
RTVSPropertyOp13
 70
     1
102
RTVSPropertyOp14
 70
     1
102
RTVSPropertyOp15
 70
     1
102
RTVSPropertyOp16
 70
     1
102
RTVSPropertyOp17
 70
     1
102
RTVSPropertyOp18
 70
     1
102
RTVSPropertyOp19
 70
     1
102
RTVSPropertyOp20
 70
     1
102
RTVSPropertyOp21
 70
     1
102
RTVSPropertyOp22
 70
     1
102
RTVSPropertyOp23
 70
     1
102
RTVSPropertyOp24
 70
     1
102
RTVSPropertyOp25
 70
     1
102
RTVSPropertyOp26
 70
     1
102
RTVSPropertyOp27
 70
     1
102
RTVSPropertyOp28
 70
     1
102
RTVSPropertyOp29
 70
     1
102
RTVSPropertyOp30
 70
     1
102
RTVSPropertyOp31
 70
     1
102
RTVSPropertyOp32
 70
     1
  0
XRECORD
  5
EF
102
{ACAD_REACTORS
330
EE
102
}
330
EE
100
AcDbXrecord
280
     1
102
RTVSPropertyOp0
 70
     1
102
RTVSPropertyOp1
 70
     1
102
RTVSPropertyOp2
 70
     1
102
RTVSPropertyOp3
 70
     1
102
RTVSPropertyOp4
 70
     1
102
RTVSPropertyOp5
 70
     1
102
RTVSPropertyOp6
 70
     1
102
RTVSPropertyOp7
 70
     1
102
RTVSPropertyOp8
 70
     1
102
RTVSPropertyOp9
 70
     1
102
RTVSPropertyOp10
 70
     1
102
RTVSPropertyOp11
 70
     1
102
RTVSPropertyOp12
 70
     1
102
RTVSPropertyOp13
 70
     1
102
RTVSPropertyOp14
 70
     1
102
RTVSPropertyOp15
 70
     1
102
RTVSPropertyOp16
 70
     1
102
RTVSPropertyOp17
 70
     1
102
RTVSPropertyOp18
 70
     1
102
RTVSPropertyOp19
 70
     1
102
RTVSPropertyOp20
 70
     1
102
RTVSPropertyOp21
 70
     1
102
RTVSPropertyOp22
 70
     1
102
RTVSPropertyOp23
 70
     1
102
RTVSPropertyOp24
 70
     1
102
RTVSPropertyOp25
 70
     1
102
RTVSPropertyOp26
 70
     1
102
RTVSPropertyOp27
 70
     1
102
RTVSPropertyOp28
 70
     1
102
RTVSPropertyOp29
 70
     1
102
RTVSPropertyOp30
 70
     1
102
RTVSPropertyOp31
 70
     1
102
RTVSPropertyOp32
 70
     1
  0
XRECORD
  5
103
102
{ACAD_REACTORS
330
102
102
}
330
102
100
AcDbXrecord
280
     1
102
RTVSPropertyOp0
 70
     1
102
RTVSPropertyOp1
 70
     1
102
RTVSPropertyOp2
 70
     1
102
RTVSPropertyOp3
 70
     1
102
RTVSPropertyOp4
 70
     1
102
RTVSPropertyOp5
 70
     1
102
RTVSPropertyOp6
 70
     1
102
RTVSPropertyOp7
 70
     1
102
RTVSPropertyOp8
 70
     1
102
RTVSPropertyOp9
 70
     1
102
RTVSPropertyOp10
 70
     1
102
RTVSPropertyOp11
 70
     1
102
RTVSPropertyOp12
 70
     1
102
RTVSPropertyOp13
 70
     1
102
RTVSPropertyOp14
 70
     1
102
RTVSPropertyOp15
 70
     1
102
RTVSPropertyOp16
 70
     1
102
RTVSPropertyOp17
 70
     1
102
RTVSPropertyOp18
 70
     1
102
RTVSPropertyOp19
 70
     1
102
RTVSPropertyOp20
 70
     1
102
RTVSPropertyOp21
 70
     1
102
RTVSPropertyOp22
 70
     1
102
RTVSPropertyOp23
 70
     1
102
RTVSPropertyOp24
 70
     1
102
RTVSPropertyOp25
 70
     1
102
RTVSPropertyOp26
 70
     1
102
RTVSPropertyOp27
 70
     1
102
RTVSPropertyOp28
 70
     1
102
RTVSPropertyOp29
 70
     1
102
RTVSPropertyOp30
 70
     1
102
RTVSPropertyOp31
 70
     1
102
RTVSPropertyOp32
 70
     1
  0
XRECORD
  5
F9
102
{ACAD_REACTORS
330
F8
102
}
330
F8
100
AcDbXrecord
280
     1
102
RTVSPropertyOp0
 70
     1
102
RTVSPropertyOp1
 70
     1
102
RTVSPropertyOp2
 70
     1
102
RTVSPropertyOp3
 70
     1
102
RTVSPropertyOp4
 70
     1
102
RTVSPropertyOp5
 70
     1
102
RTVSPropertyOp6
 70
     1
102
RTVSPropertyOp7
 70
     1
102
RTVSPropertyOp8
 70
     1
102
RTVSPropertyOp9
 70
     1
102
RTVSPropertyOp10
 70
     1
102
RTVSPropertyOp11
 70
     1
102
RTVSPropertyOp12
 70
     1
102
RTVSPropertyOp13
 70
     1
102
RTVSPropertyOp14
 70
     1
102
RTVSPropertyOp15
 70
     1
102
RTVSPropertyOp16
 70
     1
102
RTVSPropertyOp17
 70
     1
102
RTVSPropertyOp18
 70
     1
102
RTVSPropertyOp19
 70
     1
102
RTVSPropertyOp20
 70
     1
102
RTVSPropertyOp21
 70
     1
102
RTVSPropertyOp22
 70
     1
102
RTVSPropertyOp23
 70
     1
102
RTVSPropertyOp24
 70
     1
102
RTVSPropertyOp25
 70
     1
102
RTVSPropertyOp26
 70
     1
102
RTVSPropertyOp27
 70
     1
102
RTVSPropertyOp28
 70
     1
102
RTVSPropertyOp29
 70
     1
102
RTVSPropertyOp30
 70
     1
102
RTVSPropertyOp31
 70
     1
102
RTVSPropertyOp32
 70
     1
  0
XRECORD
  5
101
102
{ACAD_REACTORS
330
100
102
}
330
100
100
AcDbXrecord
280
     1
102
RTVSPropertyOp0
 70
     1
102
RTVSPropertyOp1
 70
     1
102
RTVSPropertyOp2
 70
     1
102
RTVSPropertyOp3
 70
     1
102
RTVSPropertyOp4
 70
     1
102
RTVSPropertyOp5
 70
     1
102
RTVSPropertyOp6
 70
     1
102
RTVSPropertyOp7
 70
     1
102
RTVSPropertyOp8
 70
     1
102
RTVSPropertyOp9
 70
     1
102
RTVSPropertyOp10
 70
     1
102
RTVSPropertyOp11
 70
     1
102
RTVSPropertyOp12
 70
     1
102
RTVSPropertyOp13
 70
     1
102
RTVSPropertyOp14
 70
     1
102
RTVSPropertyOp15
 70
     1
102
RTVSPropertyOp16
 70
     1
102
RTVSPropertyOp17
 70
     1
102
RTVSPropertyOp18
 70
     1
102
RTVSPropertyOp19
 70
     1
102
RTVSPropertyOp20
 70
     1
102
RTVSPropertyOp21
 70
     1
102
RTVSPropertyOp22
 70
     1
102
RTVSPropertyOp23
 70
     1
102
RTVSPropertyOp24
 70
     1
102
RTVSPropertyOp25
 70
     1
102
RTVSPropertyOp26
 70
     1
102
RTVSPropertyOp27
 70
     1
102
RTVSPropertyOp28
 70
     1
102
RTVSPropertyOp29
 70
     1
102
RTVSPropertyOp30
 70
     1
102
RTVSPropertyOp31
 70
     1
102
RTVSPropertyOp32
 70
     1
  0
ENDSEC
  0
EOF
