  0
SECTION
  2
HEADER
  9
$ACADVER
  1
AC1021
  9
$ACADMAINTVER
 70
    25
  9
$DWGCODEPAGE
  3
ANSI_1256
  9
$INSBASE
 10
0.0
 20
0.0
 30
0.0
  9
$EXTMIN
 10
-187.3945
 20
-115.0002
 30
0.0
  9
$EXTMAX
 10
-10.301
 20
131.653
 30
0.0
  9
$LIMMIN
 10
0.0
 20
0.0
  9
$LIMMAX
 10
12.0
 20
9.0
  9
$ORTHOMODE
 70
     0
  9
$REGENMODE
 70
     1
  9
$FILLMODE
 70
     1
  9
$QTEXTMODE
 70
     0
  9
$MIRRTEXT
 70
     1
  9
$LTSCALE
 40
1.0
  9
$ATTMODE
 70
     1
  9
$TEXTSIZE
 40
0.2
  9
$TRACEWID
 40
0.05
  9
$TEXTSTYLE
  7
Standard
  9
$CLAYER
  8
0
  9
$CELTYPE
  6
ByLayer
  9
$CECOLOR
 62
   256
  9
$CELTSCALE
 40
1.0
  9
$DISPSILH
 70
     0
  9
$DIMSCALE
 40
1.0
  9
$DIMASZ
 40
0.18
  9
$DIMEXO
 40
0.0625
  9
$DIMDLI
 40
0.38
  9
$DIMRND
 40
0.0
  9
$DIMDLE
 40
0.0
  9
$DIMEXE
 40
0.18
  9
$DIMTP
 40
0.0
  9
$DIMTM
 40
0.0
  9
$DIMTXT
 40
0.18
  9
$DIMCEN
 40
0.09
  9
$DIMTSZ
 40
0.0
  9
$DIMTOL
 70
     0
  9
$DIMLIM
 70
     0
  9
$DIMTIH
 70
     1
  9
$DIMTOH
 70
     1
  9
$DIMSE1
 70
     0
  9
$DIMSE2
 70
     0
  9
$DIMTAD
 70
     0
  9
$DIMZIN
 70
     0
  9
$DIMBLK
  1

  9
$DIMASO
 70
     1
  9
$DIMSHO
 70
     1
  9
$DIMPOST
  1

  9
$DIMAPOST
  1

  9
$DIMALT
 70
     0
  9
$DIMALTD
 70
     2
  9
$DIMALTF
 40
25.4
  9
$DIMLFAC
 40
1.0
  9
$DIMTOFL
 70
     0
  9
$DIMTVP
 40
0.0
  9
$DIMTIX
 70
     0
  9
$DIMSOXD
 70
     0
  9
$DIMSAH
 70
     0
  9
$DIMBLK1
  1

  9
$DIMBLK2
  1

  9
$DIMSTYLE
  2
Standard
  9
$DIMCLRD
 70
     0
  9
$DIMCLRE
 70
     0
  9
$DIMCLRT
 70
     0
  9
$DIMTFAC
 40
1.0
  9
$DIMGAP
 40
0.09
  9
$DIMJUST
 70
     0
  9
$DIMSD1
 70
     0
  9
$DIMSD2
 70
     0
  9
$DIMTOLJ
 70
     1
  9
$DIMTZIN
 70
     0
  9
$DIMALTZ
 70
     0
  9
$DIMALTTZ
 70
     0
  9
$DIMUPT
 70
     0
  9
$DIMDEC
 70
     4
  9
$DIMTDEC
 70
     4
  9
$DIMALTU
 70
     2
  9
$DIMALTTD
 70
     2
  9
$DIMTXSTY
  7
Standard
  9
$DIMAUNIT
 70
     0
  9
$DIMADEC
 70
     0
  9
$DIMALTRND
 40
0.0
  9
$DIMAZIN
 70
     0
  9
$DIMDSEP
 70
    46
  9
$DIMATFIT
 70
     3
  9
$DIMFRAC
 70
     0
  9
$DIMLDRBLK
  1

  9
$DIMLUNIT
 70
     2
  9
$DIMLWD
 70
    -2
  9
$DIMLWE
 70
    -2
  9
$DIMTMOVE
 70
     0
  9
$DIMFXL
 40
1.0
  9
$DIMFXLON
 70
     0
  9
$DIMJOGANG
 40
0.7853981633974483
  9
$DIMTFILL
 70
     0
  9
$DIMTFILLCLR
 70
     0
  9
$DIMARCSYM
 70
     0
  9
$DIMLTYPE
  6

  9
$DIMLTEX1
  6

  9
$DIMLTEX2
  6

  9
$LUNITS
 70
     2
  9
$LUPREC
 70
     4
  9
$SKETCHINC
 40
0.1
  9
$FILLETRAD
 40
0.5
  9
$AUNITS
 70
     0
  9
$AUPREC
 70
     0
  9
$MENU
  1
.
  9
$ELEVATION
 40
0.0
  9
$PELEVATION
 40
0.0
  9
$THICKNESS
 40
0.0
  9
$LIMCHECK
 70
     0
  9
$CHAMFERA
 40
0.5
  9
$CHAMFERB
 40
0.5
  9
$CHAMFERC
 40
1.0
  9
$CHAMFERD
 40
0.0
  9
$SKPOLY
 70
     0
  9
$TDCREATE
 40
2458492.956939109
  9
$TDUCREATE
 40
2458492.790272442
  9
$TDUPDATE
 40
2458492.956939271
  9
$TDUUPDATE
 40
2458492.790272604
  9
$TDINDWG
 40
0.0000000116
  9
$TDUSRTIMER
 40
0.0000000116
  9
$USRTIMER
 70
     1
  9
$ANGBASE
 50
0.0
  9
$ANGDIR
 70
     0
  9
$PDMODE
 70
     0
  9
$PDSIZE
 40
0.0
  9
$PLINEWID
 40
0.0
  9
$SPLFRAME
 70
     0
  9
$SPLINETYPE
 70
     6
  9
$SPLINESEGS
 70
     8
  9
$HANDSEED
  5
AA
  9
$SURFTAB1
 70
     6
  9
$SURFTAB2
 70
     6
  9
$SURFTYPE
 70
     6
  9
$SURFU
 70
     6
  9
$SURFV
 70
     6
  9
$UCSBASE
  2

  9
$UCSNAME
  2

  9
$UCSORG
 10
0.0
 20
0.0
 30
0.0
  9
$UCSXDIR
 10
1.0
 20
0.0
 30
0.0
  9
$UCSYDIR
 10
0.0
 20
1.0
 30
0.0
  9
$UCSORTHOREF
  2

  9
$UCSORTHOVIEW
 70
     0
  9
$UCSORGTOP
 10
0.0
 20
0.0
 30
0.0
  9
$UCSORGBOTTOM
 10
0.0
 20
0.0
 30
0.0
  9
$UCSORGLEFT
 10
0.0
 20
0.0
 30
0.0
  9
$UCSORGRIGHT
 10
0.0
 20
0.0
 30
0.0
  9
$UCSORGFRONT
 10
0.0
 20
0.0
 30
0.0
  9
$UCSORGBACK
 10
0.0
 20
0.0
 30
0.0
  9
$PUCSBASE
  2

  9
$PUCSNAME
  2

  9
$PUCSORG
 10
0.0
 20
0.0
 30
0.0
  9
$PUCSXDIR
 10
1.0
 20
0.0
 30
0.0
  9
$PUCSYDIR
 10
0.0
 20
1.0
 30
0.0
  9
$PUCSORTHOREF
  2

  9
$PUCSORTHOVIEW
 70
     0
  9
$PUCSORGTOP
 10
0.0
 20
0.0
 30
0.0
  9
$PUCSORGBOTTOM
 10
0.0
 20
0.0
 30
0.0
  9
$PUCSORGLEFT
 10
0.0
 20
0.0
 30
0.0
  9
$PUCSORGRIGHT
 10
0.0
 20
0.0
 30
0.0
  9
$PUCSORGFRONT
 10
0.0
 20
0.0
 30
0.0
  9
$PUCSORGBACK
 10
0.0
 20
0.0
 30
0.0
  9
$USERI1
 70
     0
  9
$USERI2
 70
     0
  9
$USERI3
 70
     0
  9
$USERI4
 70
     0
  9
$USERI5
 70
     0
  9
$USERR1
 40
0.0
  9
$USERR2
 40
0.0
  9
$USERR3
 40
0.0
  9
$USERR4
 40
0.0
  9
$USERR5
 40
0.0
  9
$WORLDVIEW
 70
     1
  9
$SHADEDGE
 70
     3
  9
$SHADEDIF
 70
    70
  9
$TILEMODE
 70
     1
  9
$MAXACTVP
 70
    64
  9
$PINSBASE
 10
0.0
 20
0.0
 30
0.0
  9
$PLIMCHECK
 70
     0
  9
$PEXTMIN
 10
1.000000000000000E+20
 20
1.000000000000000E+20
 30
1.000000000000000E+20
  9
$PEXTMAX
 10
-1.000000000000000E+20
 20
-1.000000000000000E+20
 30
-1.000000000000000E+20
  9
$PLIMMIN
 10
0.0
 20
0.0
  9
$PLIMMAX
 10
12.0
 20
9.0
  9
$UNITMODE
 70
     0
  9
$VISRETAIN
 70
     1
  9
$PLINEGEN
 70
     0
  9
$PSLTSCALE
 70
     1
  9
$TREEDEPTH
 70
  3020
  9
$CMLSTYLE
  2
Standard
  9
$CMLJUST
 70
     0
  9
$CMLSCALE
 40
1.0
  9
$PROXYGRAPHICS
 70
     1
  9
$MEASUREMENT
 70
     0
  9
$CELWEIGHT
370
    -1
  9
$ENDCAPS
280
     0
  9
$JOINSTYLE
280
     0
  9
$LWDISPLAY
290
     0
  9
$INSUNITS
 70
     4
  9
$HYPERLINKBASE
  1

  9
$STYLESHEET
  1

  9
$XEDIT
290
     1
  9
$CEPSNTYPE
380
     0
  9
$PSTYLEMODE
290
     1
  9
$FINGERPRINTGUID
  2
{4E2BEC5E-AFD4-4E84-A8D2-BB6019A3C68D}
  9
$VERSIONGUID
  2
{FAEB1C32-E019-11D5-929B-00C0DF256EC4}
  9
$EXTNAMES
290
     1
  9
$PSVPSCALE
 40
0.0
  9
$OLESTARTUP
290
     0
  9
$SORTENTS
280
   127
  9
$INDEXCTL
280
     0
  9
$HIDETEXT
280
     1
  9
$XCLIPFRAME
290
     0
  9
$HALOGAP
280
     0
  9
$OBSCOLOR
 70
   257
  9
$OBSLTYPE
280
     0
  9
$INTERSECTIONDISPLAY
280
     0
  9
$INTERSECTIONCOLOR
 70
   257
  9
$DIMASSOC
280
     2
  9
$PROJECTNAME
  1

  9
$CAMERADISPLAY
290
     0
  9
$LENSLENGTH
 40
50.0
  9
$CAMERAHEIGHT
 40
0.0
  9
$STEPSPERSEC
 40
2.0
  9
$STEPSIZE
 40
6.0
  9
$3DDWFPREC
 40
2.0
  9
$PSOLWIDTH
 40
0.25
  9
$PSOLHEIGHT
 40
4.0
  9
$LOFTANG1
 40
1.570796326794897
  9
$LOFTANG2
 40
1.570796326794897
  9
$LOFTMAG1
 40
0.0
  9
$LOFTMAG2
 40
0.0
  9
$LOFTPARAM
 70
     7
  9
$LOFTNORMALS
280
     1
  9
$LATITUDE
 40
37.795
  9
$LONGITUDE
 40
-122.394
  9
$NORTHDIRECTION
 40
0.0
  9
$TIMEZONE
 70
 -8000
  9
$LIGHTGLYPHDISPLAY
280
     1
  9
$TILEMODELIGHTSYNCH
280
     1
  9
$SOLIDHIST
280
     1
  9
$SHOWHIST
280
     1
  9
$DWFFRAME
280
     2
  9
$DGNFRAME
280
     2
  9
$REALWORLDSCALE
290
     1
  9
$INTERFERECOLOR
 62
   256
  9
$CSHADOW
280
     0
  9
$SHADOWPLANELOCATION
 40
0.0
  0
ENDSEC
  0
SECTION
  2
CLASSES
  0
CLASS
  1
ACDBDICTIONARYWDFLT
  2
AcDbDictionaryWithDefault
  3
ObjectDBX Classes
 90
        0
 91
        4
280
     0
281
     0
  0
CLASS
  1
VISUALSTYLE
  2
AcDbVisualStyle
  3
ObjectDBX Classes
 90
     4095
 91
        4
280
     0
281
     0
  0
CLASS
  1
MATERIAL
  2
AcDbMaterial
  3
ObjectDBX Classes
 90
     1153
 91
        4
280
     0
281
     0
  0
ENDSEC
  0
SECTION
  2
TABLES
  0
TABLE
  2
VPORT
  5
8
330
0
100
AcDbSymbolTable
 70
     1
  0
VPORT
  5
29
330
8
100
AcDbSymbolTableRecord
100
AcDbViewportTableRecord
  2
*Active
 70
     0
 10
0.0
 20
0.0
 11
1.0
 21
1.0
 12
10.42990654205607
 22
4.5
 13
0.0
 23
0.0
 14
0.5
 24
0.5
 15
0.5
 25
0.5
 16
0.0
 26
0.0
 36
1.0
 17
0.0
 27
0.0
 37
0.0
 40
9.0
 41
1.972972972850329
 42
50.0
 43
0.0
 44
0.0
 50
0.0
 51
0.0
 71
     0
 72
   100
 73
     1
 74
     3
 75
     0
 76
     0
 77
     0
 78
     0
281
     0
 65
     1
110
0.0
120
0.0
130
0.0
111
1.0
121
0.0
131
0.0
112
0.0
122
1.0
132
0.0
 79
     0
146
0.0
 60
     3
 61
     5
292
     1
282
     1
141
0.0
142
0.0
 63
   250
  0
ENDTAB
  0
TABLE
  2
LTYPE
  5
5
330
0
100
AcDbSymbolTable
 70
     1
  0
LTYPE
  5
14
330
5
100
AcDbSymbolTableRecord
100
AcDbLinetypeTableRecord
  2
ByBlock
 70
     0
  3

 72
    65
 73
     0
 40
0.0
  0
LTYPE
  5
15
330
5
100
AcDbSymbolTableRecord
100
AcDbLinetypeTableRecord
  2
ByLayer
 70
     0
  3

 72
    65
 73
     0
 40
0.0
  0
LTYPE
  5
16
330
5
100
AcDbSymbolTableRecord
100
AcDbLinetypeTableRecord
  2
Continuous
 70
     0
  3
Solid line
 72
    65
 73
     0
 40
0.0
  0
ENDTAB
  0
TABLE
  2
LAYER
  5
2
330
0
100
AcDbSymbolTable
 70
     3
  0
LAYER
  5
10
330
2
100
AcDbSymbolTableRecord
100
AcDbLayerTableRecord
  2
0
 70
     0
 62
     7
  6
Continuous
370
    -3
390
F
347
3E
  0
LAYER
  5
40
330
2
100
AcDbSymbolTableRecord
100
AcDbLayerTableRecord
  2
layer 1
 70
     0
 62
     7
  6
Continuous
370
    -3
390
F
347
3E
  0
LAYER
  5
87
330
2
100
AcDbSymbolTableRecord
100
AcDbLayerTableRecord
  2
Master Guides
 70
     0
 62
     7
  6
Continuous
370
    -3
390
F
347
3E
  0
ENDTAB
  0
TABLE
  2
STYLE
  5
3
330
0
100
AcDbSymbolTable
 70
     1
  0
STYLE
  5
11
330
3
100
AcDbSymbolTableRecord
100
AcDbTextStyleTableRecord
  2
Standard
 70
     0
 40
0.0
 41
1.0
 50
0.0
 71
     0
 42
0.2
  3
txt
  4

  0
ENDTAB
  0
TABLE
  2
VIEW
  5
6
330
0
100
AcDbSymbolTable
 70
     0
  0
ENDTAB
  0
TABLE
  2
UCS
  5
7
330
0
100
AcDbSymbolTable
 70
     0
  0
ENDTAB
  0
TABLE
  2
APPID
  5
9
330
0
100
AcDbSymbolTable
 70
     2
  0
APPID
  5
12
330
9
100
AcDbSymbolTableRecord
100
AcDbRegAppTableRecord
  2
ACAD
 70
     0
  0
APPID
  5
3F
330
9
100
AcDbSymbolTableRecord
100
AcDbRegAppTableRecord
  2
ODA
 70
     0
  0
ENDTAB
  0
TABLE
  2
DIMSTYLE
  5
A
330
0
100
AcDbSymbolTable
 70
     1
100
AcDbDimStyleTable
  0
DIMSTYLE
105
27
330
A
100
AcDbSymbolTableRecord
100
AcDbDimStyleTableRecord
  2
Standard
 70
     0
178
     0
340
11
  0
ENDTAB
  0
TABLE
  2
BLOCK_RECORD
  5
1
330
0
100
AcDbSymbolTable
 70
     1
  0
BLOCK_RECORD
  5
1F
330
1
100
AcDbSymbolTableRecord
100
AcDbBlockTableRecord
  2
*Model_Space
340
22
 70
     0
280
     1
281
     0
  0
BLOCK_RECORD
  5
1B
330
1
100
AcDbSymbolTableRecord
100
AcDbBlockTableRecord
  2
*Paper_Space
340
1E
 70
     0
280
     1
281
     0
  0
BLOCK_RECORD
  5
23
330
1
100
AcDbSymbolTableRecord
100
AcDbBlockTableRecord
  2
*Paper_Space0
340
26
 70
     0
280
     1
281
     0
  0
ENDTAB
  0
ENDSEC
  0
SECTION
  2
BLOCKS
  0
BLOCK
  5
20
330
1F
100
AcDbEntity
  8
0
100
AcDbBlockBegin
  2
*Model_Space
 70
     0
 10
0.0
 20
0.0
 30
0.0
  3
*Model_Space
  1

  0
ENDBLK
  5
21
330
1F
100
AcDbEntity
  8
0
100
AcDbBlockEnd
  0
BLOCK
  5
1C
330
1B
100
AcDbEntity
 67
     1
  8
0
100
AcDbBlockBegin
  2
*Paper_Space
 70
     0
 10
0.0
 20
0.0
 30
0.0
  3
*Paper_Space
  1

  0
ENDBLK
  5
1D
330
1B
100
AcDbEntity
 67
     1
  8
0
100
AcDbBlockEnd
  0
BLOCK
  5
24
330
23
100
AcDbEntity
  8
0
100
AcDbBlockBegin
  2
*Paper_Space0
 70
     0
 10
0.0
 20
0.0
 30
0.0
  3
*Paper_Space0
  1

  0
ENDBLK
  5
25
330
23
100
AcDbEntity
  8
0
100
AcDbBlockEnd
  0
ENDSEC
  0
SECTION
  2
ENTITIES
  0
SPLINE
  5
41
330
1F
100
AcDbEntity
  8
layer 1
100
AcDbSpline
210
0.0
220
0.0
230
1.0
 70
    11
 71
     3
 72
    20
 73
    16
 74
     0
 42
0.0000000001
 43
0.0000000001
 12
1.0
 22
0.0
 32
0.0
 13
1.0
 23
0.0
 33
0.0
 40
0.0
 40
0.0
 40
0.0
 40
0.0
 40
0.2
 40
0.2
 40
0.2
 40
0.2
 40
0.4
 40
0.4
 40
0.4
 40
0.4
 40
0.6
 40
0.6
 40
0.6
 40
0.6
 40
1.0
 40
1.0
 40
1.0
 40
1.0
 10
-187.3945
 20
131.653
 30
0.0
 10
-187.3945
 20
131.653
 30
0.0
 10
-10.301
 20
131.653
 30
0.0
 10
-10.301
 20
131.653
 30
0.0
 10
-10.301
 20
131.653
 30
0.0
 10
-10.301
 20
131.653
 30
0.0
 10
-10.301
 20
-115.0002
 30
0.0
 10
-10.301
 20
-115.0002
 30
0.0
 10
-10.301
 20
-115.0002
 30
0.0
 10
-10.301
 20
-115.0002
 30
0.0
 10
-187.3945
 20
-115.0002
 30
0.0
 10
-187.3945
 20
-115.0002
 30
0.0
 10
-187.3945
 20
-115.0002
 30
0.0
 10
-187.3945
 20
-115.0002
 30
0.0
 10
-187.3945
 20
131.653
 30
0.0
 10
-187.3945
 20
131.653
 30
0.0
  0
SPLINE
  5
42
330
1F
100
AcDbEntity
  8
layer 1
 62
     7
100
AcDbSpline
210
0.0
220
0.0
230
1.0
 70
    11
 71
     3
 72
    32
 73
    28
 74
     0
 42
0.0000000001
 43
0.0000000001
 12
1.0
 22
0.0
 32
0.0
 13
1.0
 23
0.0
 33
0.0
 40
0.0
 40
0.0
 40
0.0
 40
0.0
 40
0.125
 40
0.125
 40
0.125
 40
0.125
 40
0.25
 40
0.25
 40
0.25
 40
0.25
 40
0.375
 40
0.375
 40
0.375
 40
0.375
 40
0.5
 40
0.5
 40
0.5
 40
0.5
 40
0.625
 40
0.625
 40
0.625
 40
0.625
 40
0.75
 40
0.75
 40
0.75
 40
0.75
 40
1.0
 40
1.0
 40
1.0
 40
1.0
 10
-116.9417
 20
86.9093
 30
0.0
 10
-113.2751
 20
79.6063
 30
0.0
 10
-110.0276
 20
79.6787
 30
0.0
 10
-106.222
 20
81.001
 30
0.0
 10
-106.222
 20
81.001
 30
0.0
 10
-107.0286
 20
93.209
 30
0.0
 10
-113.7875
 20
100.9296
 30
0.0
 10
-121.8216
 20
98.8761
 30
0.0
 10
-121.8216
 20
98.8761
 30
0.0
 10
-123.1778
 20
101.4688
 30
0.0
 10
-120.8906
 20
104.3887
 30
0.0
 10
-118.3923
 20
104.4108
 30
0.0
 10
-118.3923
 20
104.4108
 30
0.0
 10
-121.6209
 20
108.0513
 30
0.0
 10
-123.2191
 20
109.5434
 30
0.0
 10
-126.2481
 20
111.1708
 30
0.0
 10
-126.2481
 20
111.1708
 30
0.0
 10
-125.2988
 20
109.3208
 30
0.0
 10
-125.5621
 20
108.1795
 30
0.0
 10
-126.1467
 20
107.1695
 30
0.0
 10
-126.1467
 20
107.1695
 30
0.0
 10
-131.4143
 20
110.0257
 30
0.0
 10
-136.2594
 20
106.913
 30
0.0
 10
-132.7784
 20
95.3872
 30
0.0
 10
-132.7784
 20
95.3872
 30
0.0
 10
-122.1937
 20
99.803
 30
0.0
 10
-119.1043
 20
91.7129
 30
0.0
 10
-116.9417
 20
86.9093
 30
0.0
  0
SPLINE
  5
43
330
1F
100
AcDbEntity
  8
layer 1
 62
     7
100
AcDbSpline
210
0.0
220
0.0
230
1.0
 70
    11
 71
     3
 72
    28
 73
    24
 74
     0
 42
0.0000000001
 43
0.0000000001
 12
1.0
 22
0.0
 32
0.0
 13
1.0
 23
0.0
 33
0.0
 40
0.0
 40
0.0
 40
0.0
 40
0.0
 40
0.1428571428571428
 40
0.1428571428571428
 40
0.1428571428571428
 40
0.1428571428571428
 40
0.2857142857142857
 40
0.2857142857142857
 40
0.2857142857142857
 40
0.2857142857142857
 40
0.4285714285714285
 40
0.4285714285714285
 40
0.4285714285714285
 40
0.4285714285714285
 40
0.5714285714285714
 40
0.5714285714285714
 40
0.5714285714285714
 40
0.5714285714285714
 40
0.7142857142857143
 40
0.7142857142857143
 40
0.7142857142857143
 40
0.7142857142857143
 40
1.0
 40
1.0
 40
1.0
 40
1.0
 10
-167.8239
 20
108.334
 30
0.0
 10
-174.3389
 20
108.7408
 30
0.0
 10
-174.3233
 20
114.4377
 30
0.0
 10
-172.7935
 20
116.4799
 30
0.0
 10
-172.7935
 20
116.4799
 30
0.0
 10
-170.9396
 20
114.7051
 30
0.0
 10
-166.9462
 20
113.0468
 30
0.0
 10
-163.7359
 20
115.0551
 30
0.0
 10
-163.7359
 20
115.0551
 30
0.0
 10
-156.0115
 20
119.9651
 30
0.0
 10
-146.9983
 20
121.8564
 30
0.0
 10
-144.5038
 20
121.8796
 30
0.0
 10
-144.5038
 20
121.8796
 30
0.0
 10
-144.5038
 20
121.8796
 30
0.0
 10
-178.1297
 20
121.8796
 30
0.0
 10
-178.1297
 20
121.8796
 30
0.0
 10
-178.1297
 20
121.8796
 30
0.0
 10
-178.1297
 20
121.8796
 30
0.0
 10
-178.1297
 20
93.4048
 30
0.0
 10
-178.1297
 20
93.4048
 30
0.0
 10
-178.1297
 20
93.4048
 30
0.0
 10
-175.9775
 20
100.3308
 30
0.0
 10
-173.024
 20
104.7012
 30
0.0
 10
-167.8239
 20
108.334
 30
0.0
  0
SPLINE
  5
44
330
1F
100
AcDbEntity
  8
layer 1
 62
     7
100
AcDbSpline
210
0.0
220
0.0
230
1.0
 70
    11
 71
     3
 72
    32
 73
    28
 74
     0
 42
0.0000000001
 43
0.0000000001
 12
1.0
 22
0.0
 32
0.0
 13
1.0
 23
0.0
 33
0.0
 40
0.0
 40
0.0
 40
0.0
 40
0.0
 40
0.125
 40
0.125
 40
0.125
 40
0.125
 40
0.25
 40
0.25
 40
0.25
 40
0.25
 40
0.375
 40
0.375
 40
0.375
 40
0.375
 40
0.5
 40
0.5
 40
0.5
 40
0.5
 40
0.625
 40
0.625
 40
0.625
 40
0.625
 40
0.75
 40
0.75
 40
0.75
 40
0.75
 40
1.0
 40
1.0
 40
1.0
 40
1.0
 10
-137.6506
 20
121.8796
 30
0.0
 10
-129.0857
 20
120.0296
 30
0.0
 10
-118.4453
 20
115.9377
 30
0.0
 10
-111.9268
 20
108.2509
 30
0.0
 10
-111.9268
 20
108.2509
 30
0.0
 10
-112.1447
 20
112.9494
 30
0.0
 10
-103.3428
 20
117.3199
 30
0.0
 10
-100.1626
 20
110.2852
 30
0.0
 10
-100.1626
 20
110.2852
 30
0.0
 10
-112.5477
 20
106.7057
 30
0.0
 10
-98.9502
 20
97.1995
 30
0.0
 10
-98.9567
 20
88.3368
 30
0.0
 10
-98.9567
 20
88.3368
 30
0.0
 10
-98.9682
 20
97.1997
 30
0.0
 10
-85.3666
 20
106.7057
 30
0.0
 10
-97.755
 20
110.2852
 30
0.0
 10
-97.755
 20
110.2852
 30
0.0
 10
-94.5718
 20
117.3199
 30
0.0
 10
-85.7729
 20
112.9494
 30
0.0
 10
-85.9878
 20
108.2509
 30
0.0
 10
-85.9878
 20
108.2509
 30
0.0
 10
-79.4731
 20
115.9377
 30
0.0
 10
-68.8326
 20
120.0296
 30
0.0
 10
-60.2681
 20
121.8796
 30
0.0
 10
-60.2681
 20
121.8796
 30
0.0
 10
-60.2681
 20
121.8796
 30
0.0
 10
-137.6506
 20
121.8796
 30
0.0
 10
-137.6506
 20
121.8796
 30
0.0
  0
SPLINE
  5
45
330
1F
100
AcDbEntity
  8
layer 1
 62
     7
100
AcDbSpline
210
0.0
220
0.0
230
1.0
 70
    11
 71
     3
 72
    16
 73
    12
 74
     0
 42
0.0000000001
 43
0.0000000001
 12
1.0
 22
0.0
 32
0.0
 13
1.0
 23
0.0
 33
0.0
 40
0.0
 40
0.0
 40
0.0
 40
0.0
 40
0.25
 40
0.25
 40
0.25
 40
0.25
 40
0.5
 40
0.5
 40
0.5
 40
0.5
 40
1.0
 40
1.0
 40
1.0
 40
1.0
 10
-115.6607
 20
76.3779
 30
0.0
 10
-110.8831
 20
70.0743
 30
0.0
 10
-113.0418
 20
61.4449
 30
0.0
 10
-110.5397
 20
56.3171
 30
0.0
 10
-110.5397
 20
56.3171
 30
0.0
 10
-106.2441
 20
66.1629
 30
0.0
 10
-105.785
 20
75.1489
 30
0.0
 10
-106.1055
 20
78.0841
 30
0.0
 10
-106.1055
 20
78.0841
 30
0.0
 10
-108.32
 20
75.6129
 30
0.0
 10
-111.5456
 20
75.4248
 30
0.0
 10
-115.6607
 20
76.3779
 30
0.0
  0
SPLINE
  5
46
330
1F
100
AcDbEntity
  8
layer 1
 62
     7
100
AcDbSpline
210
0.0
220
0.0
230
1.0
 70
    11
 71
     3
 72
    28
 73
    24
 74
     0
 42
0.0000000001
 43
0.0000000001
 12
1.0
 22
0.0
 32
0.0
 13
1.0
 23
0.0
 33
0.0
 40
0.0
 40
0.0
 40
0.0
 40
0.0
 40
0.1428571428571428
 40
0.1428571428571428
 40
0.1428571428571428
 40
0.1428571428571428
 40
0.2857142857142857
 40
0.2857142857142857
 40
0.2857142857142857
 40
0.2857142857142857
 40
0.4285714285714285
 40
0.4285714285714285
 40
0.4285714285714285
 40
0.4285714285714285
 40
0.5714285714285714
 40
0.5714285714285714
 40
0.5714285714285714
 40
0.5714285714285714
 40
0.7142857142857143
 40
0.7142857142857143
 40
0.7142857142857143
 40
0.7142857142857143
 40
1.0
 40
1.0
 40
1.0
 40
1.0
 10
-166.6441
 20
52.0336
 30
0.0
 10
-172.1192
 20
53.5519
 30
0.0
 10
-171.4788
 20
57.9262
 30
0.0
 10
-170.2276
 20
58.8608
 30
0.0
 10
-170.2276
 20
58.8608
 30
0.0
 10
-163.0348
 20
51.747
 30
0.0
 10
-160.0088
 20
65.5562
 30
0.0
 10
-167.6205
 20
66.4569
 30
0.0
 10
-167.6205
 20
66.4569
 30
0.0
 10
-167.6656
 20
62.9709
 30
0.0
 10
-172.8049
 20
61.1141
 30
0.0
 10
-175.5108
 20
64.3996
 30
0.0
 10
-175.5108
 20
64.3996
 30
0.0
 10
-166.8631
 20
68.8414
 30
0.0
 10
-176.8514
 20
72.3082
 30
0.0
 10
-178.1297
 20
84.5201
 30
0.0
 10
-178.1297
 20
84.5201
 30
0.0
 10
-178.1297
 20
84.5201
 30
0.0
 10
-178.1297
 20
40.251
 30
0.0
 10
-178.1297
 20
40.251
 30
0.0
 10
-178.1297
 20
40.251
 30
0.0
 10
-176.9498
 20
48.1481
 30
0.0
 10
-171.3582
 20
51.5887
 30
0.0
 10
-166.6441
 20
52.0336
 30
0.0
  0
SPLINE
  5
47
330
1F
100
AcDbEntity
  8
layer 1
 62
     7
100
AcDbSpline
210
0.0
220
0.0
230
1.0
 70
    11
 71
     3
 72
    28
 73
    24
 74
     0
 42
0.0000000001
 43
0.0000000001
 12
1.0
 22
0.0
 32
0.0
 13
1.0
 23
0.0
 33
0.0
 40
0.0
 40
0.0
 40
0.0
 40
0.0
 40
0.1428571428571428
 40
0.1428571428571428
 40
0.1428571428571428
 40
0.1428571428571428
 40
0.2857142857142857
 40
0.2857142857142857
 40
0.2857142857142857
 40
0.2857142857142857
 40
0.4285714285714285
 40
0.4285714285714285
 40
0.4285714285714285
 40
0.4285714285714285
 40
0.5714285714285714
 40
0.5714285714285714
 40
0.5714285714285714
 40
0.5714285714285714
 40
0.7142857142857143
 40
0.7142857142857143
 40
0.7142857142857143
 40
0.7142857142857143
 40
1.0
 40
1.0
 40
1.0
 40
1.0
 10
-173.9279
 20
14.5379
 30
0.0
 10
-172.1115
 20
11.867
 30
0.0
 10
-167.7785
 20
11.1512
 30
0.0
 10
-163.0838
 20
10.201
 30
0.0
 10
-163.0838
 20
10.201
 30
0.0
 10
-166.4368
 20
12.2025
 30
0.0
 10
-170.3146
 20
13.4381
 30
0.0
 10
-171.9234
 20
17.7933
 30
0.0
 10
-171.9234
 20
17.7933
 30
0.0
 10
-170.6192
 20
18.7957
 30
0.0
 10
-169.293
 20
18.9652
 30
0.0
 10
-166.8401
 20
19.9
 30
0.0
 10
-166.8401
 20
19.9
 30
0.0
 10
-174.1466
 20
22.4621
 30
0.0
 10
-176.8254
 20
26.7612
 30
0.0
 10
-178.1297
 20
30.7256
 30
0.0
 10
-178.1297
 20
30.7256
 30
0.0
 10
-178.1297
 20
30.7256
 30
0.0
 10
-178.1297
 20
10.4353
 30
0.0
 10
-178.1297
 20
10.4353
 30
0.0
 10
-178.1297
 20
10.4353
 30
0.0
 10
-175.718
 20
10.6311
 30
0.0
 10
-173.92
 20
11.8178
 30
0.0
 10
-173.9279
 20
14.5379
 30
0.0
  0
SPLINE
  5
48
330
1F
100
AcDbEntity
  8
layer 1
 62
     7
100
AcDbSpline
210
0.0
220
0.0
230
1.0
 70
    11
 71
     3
 72
    48
 73
    44
 74
     0
 42
0.0000000001
 43
0.0000000001
 12
1.0
 22
0.0
 32
0.0
 13
1.0
 23
0.0
 33
0.0
 40
0.0
 40
0.0
 40
0.0
 40
0.0
 40
0.0833333333333333
 40
0.0833333333333333
 40
0.0833333333333333
 40
0.0833333333333333
 40
0.1666666666666667
 40
0.1666666666666667
 40
0.1666666666666667
 40
0.1666666666666667
 40
0.25
 40
0.25
 40
0.25
 40
0.25
 40
0.3333333333333333
 40
0.3333333333333333
 40
0.3333333333333333
 40
0.3333333333333333
 40
0.4166666666666667
 40
0.4166666666666667
 40
0.4166666666666667
 40
0.4166666666666667
 40
0.5
 40
0.5
 40
0.5
 40
0.5
 40
0.5833333333333334
 40
0.5833333333333334
 40
0.5833333333333334
 40
0.5833333333333334
 40
0.6666666666666666
 40
0.6666666666666666
 40
0.6666666666666666
 40
0.6666666666666666
 40
0.75
 40
0.75
 40
0.75
 40
0.75
 40
0.8333333333333334
 40
0.8333333333333334
 40
0.8333333333333334
 40
0.8333333333333334
 40
1.0
 40
1.0
 40
1.0
 40
1.0
 10
-133.4641
 20
78.8453
 30
0.0
 10
-126.5008
 20
75.2552
 30
0.0
 10
-121.6972
 20
82.0111
 30
0.0
 10
-126.655
 20
87.5267
 30
0.0
 10
-126.655
 20
87.5267
 30
0.0
 10
-128.015
 20
89.042
 30
0.0
 10
-134.828
 20
90.1792
 30
0.0
 10
-137.2134
 20
82.9005
 30
0.0
 10
-137.2134
 20
82.9005
 30
0.0
 10
-137.2954
 20
79.2224
 30
0.0
 10
-137.5106
 20
76.6905
 30
0.0
 10
-137.337
 20
74.0716
 30
0.0
 10
-137.337
 20
74.0716
 30
0.0
 10
-135.5362
 20
73.8534
 30
0.0
 10
-131.5909
 20
74.5692
 30
0.0
 10
-131.3467
 20
68.612
 30
0.0
 10
-131.3467
 20
68.612
 30
0.0
 10
-134.4963
 20
68.3824
 30
0.0
 10
-136.9752
 20
66.295
 30
0.0
 10
-137.6572
 20
63.3327
 30
0.0
 10
-137.6572
 20
63.3327
 30
0.0
 10
-127.04
 20
66.076
 30
0.0
 10
-118.5391
 20
57.1275
 30
0.0
 10
-119.8094
 20
41.6747
 30
0.0
 10
-119.8094
 20
41.6747
 30
0.0
 10
-117.6573
 20
44.9756
 30
0.0
 10
-116.1507
 20
46.6038
 30
0.0
 10
-113.4749
 20
50.9368
 30
0.0
 10
-113.4749
 20
50.9368
 30
0.0
 10
-117.5214
 20
54.3205
 30
0.0
 10
-120.6417
 20
63.2613
 30
0.0
 10
-117.9931
 20
68.0805
 30
0.0
 10
-117.9931
 20
68.0805
 30
0.0
 10
-120.9803
 20
64.69
 30
0.0
 10
-122.1486
 20
62.8359
 30
0.0
 10
-123.8258
 20
61.4605
 30
0.0
 10
-123.8258
 20
61.4605
 30
0.0
 10
-124.692
 20
63.57
 30
0.0
 10
-126.8248
 20
66.2081
 30
0.0
 10
-124.9564
 20
74.3464
 30
0.0
 10
-124.9564
 20
74.3464
 30
0.0
 10
-130.4083
 20
69.2409
 30
0.0
 10
-134.7036
 20
75.53
 30
0.0
 10
-133.4641
 20
78.8453
 30
0.0
  0
SPLINE
  5
49
330
1F
100
AcDbEntity
  8
layer 1
 62
     7
100
AcDbSpline
210
0.0
220
0.0
230
1.0
 70
    11
 71
     3
 72
    32
 73
    28
 74
     0
 42
0.0000000001
 43
0.0000000001
 12
1.0
 22
0.0
 32
0.0
 13
1.0
 23
0.0
 33
0.0
 40
0.0
 40
0.0
 40
0.0
 40
0.0
 40
0.125
 40
0.125
 40
0.125
 40
0.125
 40
0.25
 40
0.25
 40
0.25
 40
0.25
 40
0.375
 40
0.375
 40
0.375
 40
0.375
 40
0.5
 40
0.5
 40
0.5
 40
0.5
 40
0.625
 40
0.625
 40
0.625
 40
0.625
 40
0.75
 40
0.75
 40
0.75
 40
0.75
 40
1.0
 40
1.0
 40
1.0
 40
1.0
 10
-141.8772
 20
48.2157
 30
0.0
 10
-140.7324
 20
55.6469
 30
0.0
 10
-134.5868
 20
53.1593
 30
0.0
 10
-133.3851
 20
52.3343
 30
0.0
 10
-133.3851
 20
52.3343
 30
0.0
 10
-131.3016
 20
50.9098
 30
0.0
 10
-128.5014
 20
44.9302
 30
0.0
 10
-135.0615
 20
41.3814
 30
0.0
 10
-135.0615
 20
41.3814
 30
0.0
 10
-132.3789
 20
39.8961
 30
0.0
 10
-129.8844
 20
37.4738
 30
0.0
 10
-128.1889
 20
34.5569
 30
0.0
 10
-128.1889
 20
34.5569
 30
0.0
 10
-124.8542
 20
36.7429
 30
0.0
 10
-122.6761
 20
48.1635
 30
0.0
 10
-130.5327
 20
51.6032
 30
0.0
 10
-130.5327
 20
51.6032
 30
0.0
 10
-129.1689
 20
52.9865
 30
0.0
 10
-127.0205
 20
53.9172
 30
0.0
 10
-125.4831
 20
53.9886
 30
0.0
 10
-125.4831
 20
53.9886
 30
0.0
 10
-128.9914
 20
58.1635
 30
0.0
 10
-131.942
 20
59.1279
 30
0.0
 10
-135.0992
 20
59.1618
 30
0.0
 10
-135.0992
 20
59.1618
 30
0.0
 10
-140.5626
 20
60.3638
 30
0.0
 10
-146.0416
 20
52.4434
 30
0.0
 10
-141.8772
 20
48.2157
 30
0.0
  0
SPLINE
  5
4A
330
1F
100
AcDbEntity
  8
layer 1
 62
     7
100
AcDbSpline
210
0.0
220
0.0
230
1.0
 70
    11
 71
     3
 72
    32
 73
    28
 74
     0
 42
0.0000000001
 43
0.0000000001
 12
1.0
 22
0.0
 32
0.0
 13
1.0
 23
0.0
 33
0.0
 40
0.0
 40
0.0
 40
0.0
 40
0.0
 40
0.125
 40
0.125
 40
0.125
 40
0.125
 40
0.25
 40
0.25
 40
0.25
 40
0.25
 40
0.375
 40
0.375
 40
0.375
 40
0.375
 40
0.5
 40
0.5
 40
0.5
 40
0.5
 40
0.625
 40
0.625
 40
0.625
 40
0.625
 40
0.75
 40
0.75
 40
0.75
 40
0.75
 40
1.0
 40
1.0
 40
1.0
 40
1.0
 10
-162.0518
 20
52.071
 30
0.0
 10
-155.2686
 20
52.757
 30
0.0
 10
-148.3091
 20
46.6336
 30
0.0
 10
-150.4418
 20
38.7625
 30
0.0
 10
-150.4418
 20
38.7625
 30
0.0
 10
-149.1348
 20
41.479
 30
0.0
 10
-147.7065
 20
42.0365
 30
0.0
 10
-145.1483
 20
42.2697
 30
0.0
 10
-145.1483
 20
42.2697
 30
0.0
 10
-148.174
 20
45.0885
 30
0.0
 10
-148.3506
 20
49.1918
 30
0.0
 10
-148.0652
 20
51.3166
 30
0.0
 10
-148.0652
 20
51.3166
 30
0.0
 10
-152.515
 20
50.0928
 30
0.0
 10
-154.9378
 20
52.7598
 30
0.0
 10
-155.3788
 20
55.3111
 30
0.0
 10
-155.3788
 20
55.3111
 30
0.0
 10
-151.4893
 20
53.8759
 30
0.0
 10
-144.9678
 20
61.0351
 30
0.0
 10
-143.4303
 20
61.1103
 30
0.0
 10
-143.4303
 20
61.1103
 30
0.0
 10
-149.0143
 20
60.168
 30
0.0
 10
-154.6359
 20
60.0887
 30
0.0
 10
-157.7932
 20
60.7939
 30
0.0
 10
-157.7932
 20
60.7939
 30
0.0
 10
-155.6159
 20
58.1414
 30
0.0
 10
-156.8698
 20
53.2615
 30
0.0
 10
-162.0518
 20
52.071
 30
0.0
  0
SPLINE
  5
4B
330
1F
100
AcDbEntity
  8
layer 1
 62
     7
100
AcDbSpline
210
0.0
220
0.0
230
1.0
 70
    11
 71
     3
 72
    32
 73
    28
 74
     0
 42
0.0000000001
 43
0.0000000001
 12
1.0
 22
0.0
 32
0.0
 13
1.0
 23
0.0
 33
0.0
 40
0.0
 40
0.0
 40
0.0
 40
0.0
 40
0.125
 40
0.125
 40
0.125
 40
0.125
 40
0.25
 40
0.25
 40
0.25
 40
0.25
 40
0.375
 40
0.375
 40
0.375
 40
0.375
 40
0.5
 40
0.5
 40
0.5
 40
0.5
 40
0.625
 40
0.625
 40
0.625
 40
0.625
 40
0.75
 40
0.75
 40
0.75
 40
0.75
 40
1.0
 40
1.0
 40
1.0
 40
1.0
 10
-162.9402
 20
96.2725
 30
0.0
 10
-165.3516
 20
94.8816
 30
0.0
 10
-167.9628
 20
95.8772
 30
0.0
 10
-169.0557
 20
97.8699
 30
0.0
 10
-169.0557
 20
97.8699
 30
0.0
 10
-169.7529
 20
94.358
 30
0.0
 10
-170.2536
 20
92.6176
 30
0.0
 10
-169.9189
 20
88.6986
 30
0.0
 10
-169.9189
 20
88.6986
 30
0.0
 10
-163.7504
 20
86.3209
 30
0.0
 10
-163.5546
 20
91.1709
 30
0.0
 10
-158.9689
 20
90.0288
 30
0.0
 10
-158.9689
 20
90.0288
 30
0.0
 10
-162.232
 20
92.365
 30
0.0
 10
-160.6492
 20
96.5927
 30
0.0
 10
-158.7171
 20
97.2139
 30
0.0
 10
-158.7171
 20
97.2139
 30
0.0
 10
-158.611
 20
89.3286
 30
0.0
 10
-153.2759
 20
95.3754
 30
0.0
 10
-148.5475
 20
91.2953
 30
0.0
 10
-148.5475
 20
91.2953
 30
0.0
 10
-149.6809
 20
99.0303
 30
0.0
 10
-159.8245
 20
99.7691
 30
0.0
 10
-156.6065
 20
111.7436
 30
0.0
 10
-156.6065
 20
111.7436
 30
0.0
 10
-158.8782
 20
107.9799
 30
0.0
 10
-166.0644
 20
106.0651
 30
0.0
 10
-162.9402
 20
96.2725
 30
0.0
  0
SPLINE
  5
4C
330
1F
100
AcDbEntity
  8
layer 1
 62
     7
100
AcDbSpline
210
0.0
220
0.0
230
1.0
 70
    11
 71
     3
 72
    32
 73
    28
 74
     0
 42
0.0000000001
 43
0.0000000001
 12
1.0
 22
0.0
 32
0.0
 13
1.0
 23
0.0
 33
0.0
 40
0.0
 40
0.0
 40
0.0
 40
0.0
 40
0.125
 40
0.125
 40
0.125
 40
0.125
 40
0.25
 40
0.25
 40
0.25
 40
0.25
 40
0.375
 40
0.375
 40
0.375
 40
0.375
 40
0.5
 40
0.5
 40
0.5
 40
0.5
 40
0.625
 40
0.625
 40
0.625
 40
0.625
 40
0.75
 40
0.75
 40
0.75
 40
0.75
 40
1.0
 40
1.0
 40
1.0
 40
1.0
 10
-150.7024
 20
113.7779
 30
0.0
 10
-146.2595
 20
112.8174
 30
0.0
 10
-146.4033
 20
108.1642
 30
0.0
 10
-148.3208
 20
106.6458
 30
0.0
 10
-148.3208
 20
106.6458
 30
0.0
 10
-151.0264
 20
104.5093
 30
0.0
 10
-154.0593
 20
106.6912
 30
0.0
 10
-154.3726
 20
109.2193
 30
0.0
 10
-154.3726
 20
109.2193
 30
0.0
 10
-156.9087
 20
104.1967
 30
0.0
 10
-146.9154
 20
98.9437
 30
0.0
 10
-143.2452
 20
92.9977
 30
0.0
 10
-143.2452
 20
92.9977
 30
0.0
 10
-139.9077
 20
96.9624
 30
0.0
 10
-141.6632
 20
107.1957
 30
0.0
 10
-144.0332
 20
107.377
 30
0.0
 10
-144.0332
 20
107.377
 30
0.0
 10
-141.9226
 20
110.6846
 30
0.0
 10
-138.4414
 20
110.6507
 30
0.0
 10
-136.3124
 20
107.535
 30
0.0
 10
-136.3124
 20
107.535
 30
0.0
 10
-136.7043
 20
110.5977
 30
0.0
 10
-134.0178
 20
112.8964
 30
0.0
 10
-132.4281
 20
113.3035
 30
0.0
 10
-132.4281
 20
113.3035
 30
0.0
 10
-135.5179
 20
115.8393
 30
0.0
 10
-146.8555
 20
115.2624
 30
0.0
 10
-150.7024
 20
113.7779
 30
0.0
  0
SPLINE
  5
4D
330
1F
100
AcDbEntity
  8
layer 1
 62
     7
100
AcDbSpline
210
0.0
220
0.0
230
1.0
 70
    11
 71
     3
 72
    36
 73
    32
 74
     0
 42
0.0000000001
 43
0.0000000001
 12
1.0
 22
0.0
 32
0.0
 13
1.0
 23
0.0
 33
0.0
 40
0.0
 40
0.0
 40
0.0
 40
0.0
 40
0.1111111111111111
 40
0.1111111111111111
 40
0.1111111111111111
 40
0.1111111111111111
 40
0.2222222222222222
 40
0.2222222222222222
 40
0.2222222222222222
 40
0.2222222222222222
 40
0.3333333333333333
 40
0.3333333333333333
 40
0.3333333333333333
 40
0.3333333333333333
 40
0.4444444444444444
 40
0.4444444444444444
 40
0.4444444444444444
 40
0.4444444444444444
 40
0.5555555555555556
 40
0.5555555555555556
 40
0.5555555555555556
 40
0.5555555555555556
 40
0.6666666666666666
 40
0.6666666666666666
 40
0.6666666666666666
 40
0.6666666666666666
 40
0.7777777777777778
 40
0.7777777777777778
 40
0.7777777777777778
 40
0.7777777777777778
 40
1.0
 40
1.0
 40
1.0
 40
1.0
 10
-169.8361
 20
86.3364
 30
0.0
 10
-170.2883
 20
86.0461
 30
0.0
 10
-166.46
 20
76.3547
 30
0.0
 10
-155.8871
 20
79.2071
 30
0.0
 10
-155.8871
 20
79.2071
 30
0.0
 10
-157.1796
 20
76.0277
 30
0.0
 10
-155.4685
 20
73.6877
 30
0.0
 10
-152.7405
 20
73.9923
 30
0.0
 10
-152.7405
 20
73.9923
 30
0.0
 10
-151.1768
 20
74.1845
 30
0.0
 10
-148.6334
 20
76.6153
 30
0.0
 10
-151.5503
 20
79.5013
 30
0.0
 10
-151.5503
 20
79.5013
 30
0.0
 10
-148.5319
 20
81.3551
 30
0.0
 10
-146.377
 20
78.9927
 30
0.0
 10
-145.6913
 20
75.7895
 30
0.0
 10
-145.6913
 20
75.7895
 30
0.0
 10
-145.6188
 20
79.0903
 30
0.0
 10
-145.9661
 20
82.7228
 30
0.0
 10
-147.5183
 20
85.202
 30
0.0
 10
-147.5183
 20
85.202
 30
0.0
 10
-151.3428
 20
89.6969
 30
0.0
 10
-157.2808
 20
84.9906
 30
0.0
 10
-150.9203
 20
81.7997
 30
0.0
 10
-150.9203
 20
81.7997
 30
0.0
 10
-156.2825
 20
78.4122
 30
0.0
 10
-158.7133
 20
82.1915
 30
0.0
 10
-157.9406
 20
85.3417
 30
0.0
 10
-157.9406
 20
85.3417
 30
0.0
 10
-159.8428
 20
83.2844
 30
0.0
 10
-166.1396
 20
82.5571
 30
0.0
 10
-169.8361
 20
86.3364
 30
0.0
  0
SPLINE
  5
4E
330
1F
100
AcDbEntity
  8
layer 1
 62
     7
100
AcDbSpline
210
0.0
220
0.0
230
1.0
 70
    11
 71
     3
 72
    16
 73
    12
 74
     0
 42
0.0000000001
 43
0.0000000001
 12
1.0
 22
0.0
 32
0.0
 13
1.0
 23
0.0
 33
0.0
 40
0.0
 40
0.0
 40
0.0
 40
0.0
 40
0.25
 40
0.25
 40
0.25
 40
0.25
 40
0.5
 40
0.5
 40
0.5
 40
0.5
 40
1.0
 40
1.0
 40
1.0
 40
1.0
 10
-169.1503
 20
76.8717
 30
0.0
 10
-163.3096
 20
67.2741
 30
0.0
 10
-150.5105
 20
62.7229
 30
0.0
 10
-141.5956
 20
69.8851
 30
0.0
 10
-141.5956
 20
69.8851
 30
0.0
 10
-142.7407
 20
70.164
 30
0.0
 10
-143.6039
 20
71.0012
 30
0.0
 10
-144.4587
 20
72.0296
 30
0.0
 10
-144.4587
 20
72.0296
 30
0.0
 10
-146.2034
 20
68.6872
 30
0.0
 10
-157.47
 20
65.9333
 30
0.0
 10
-169.1503
 20
76.8717
 30
0.0
  0
SPLINE
  5
4F
330
1F
100
AcDbEntity
  8
layer 1
 62
     7
100
AcDbSpline
210
0.0
220
0.0
230
1.0
 70
    11
 71
     3
 72
    48
 73
    44
 74
     0
 42
0.0000000001
 43
0.0000000001
 12
1.0
 22
0.0
 32
0.0
 13
1.0
 23
0.0
 33
0.0
 40
0.0
 40
0.0
 40
0.0
 40
0.0
 40
0.0833333333333333
 40
0.0833333333333333
 40
0.0833333333333333
 40
0.0833333333333333
 40
0.1666666666666667
 40
0.1666666666666667
 40
0.1666666666666667
 40
0.1666666666666667
 40
0.25
 40
0.25
 40
0.25
 40
0.25
 40
0.3333333333333333
 40
0.3333333333333333
 40
0.3333333333333333
 40
0.3333333333333333
 40
0.4166666666666667
 40
0.4166666666666667
 40
0.4166666666666667
 40
0.4166666666666667
 40
0.5
 40
0.5
 40
0.5
 40
0.5
 40
0.5833333333333334
 40
0.5833333333333334
 40
0.5833333333333334
 40
0.5833333333333334
 40
0.6666666666666666
 40
0.6666666666666666
 40
0.6666666666666666
 40
0.6666666666666666
 40
0.75
 40
0.75
 40
0.75
 40
0.75
 40
0.8333333333333334
 40
0.8333333333333334
 40
0.8333333333333334
 40
0.8333333333333334
 40
1.0
 40
1.0
 40
1.0
 40
1.0
 10
-134.4922
 20
33.2578
 30
0.0
 10
-137.6727
 20
37.3417
 30
0.0
 10
-142.0055
 20
38.0537
 30
0.0
 10
-143.2903
 20
37.6657
 30
0.0
 10
-143.2903
 20
37.6657
 30
0.0
 10
-137.2057
 20
30.1643
 30
0.0
 10
-150.6947
 20
24.6632
 30
0.0
 10
-151.8628
 20
34.938
 30
0.0
 10
-151.8628
 20
34.938
 30
0.0
 10
-155.235
 20
28.5967
 30
0.0
 10
-163.0646
 20
33.1785
 30
0.0
 10
-163.5469
 20
34.9003
 30
0.0
 10
-163.5469
 20
34.9003
 30
0.0
 10
-166.6856
 20
40.9513
 30
0.0
 10
-161.4558
 20
45.4461
 30
0.0
 10
-159.9191
 20
45.5224
 30
0.0
 10
-159.9191
 20
45.5224
 30
0.0
 10
-165.669
 20
48.4877
 30
0.0
 10
-172.4511
 20
43.3782
 30
0.0
 10
-172.2398
 20
36.3434
 30
0.0
 10
-172.2398
 20
36.3434
 30
0.0
 10
-172.2176
 20
32.7599
 30
0.0
 10
-165.7702
 20
20.9659
 30
0.0
 10
-156.8931
 20
30.1036
 30
0.0
 10
-156.8931
 20
30.1036
 30
0.0
 10
-155.2465
 20
29.6029
 30
0.0
 10
-154.8396
 20
24.4857
 30
0.0
 10
-158.7316
 20
23.0502
 30
0.0
 10
-158.7316
 20
23.0502
 30
0.0
 10
-156.8816
 20
22.4957
 30
0.0
 10
-148.8108
 20
20.1111
 30
0.0
 10
-146.5159
 20
27.3263
 30
0.0
 10
-146.5159
 20
27.3263
 30
0.0
 10
-145.0509
 20
26.713
 30
0.0
 10
-144.3118
 20
25.2844
 30
0.0
 10
-144.3717
 20
23.8038
 30
0.0
 10
-144.3717
 20
23.8038
 30
0.0
 10
-140.5104
 20
24.9265
 30
0.0
 10
-136.9867
 20
26.3357
 30
0.0
 10
-134.583
 20
28.2388
 30
0.0
 10
-134.583
 20
28.2388
 30
0.0
 10
-133.0154
 20
29.1206
 30
0.0
 10
-132.7967
 20
31.3545
 30
0.0
 10
-134.4922
 20
33.2578
 30
0.0
  0
SPLINE
  5
50
330
1F
100
AcDbEntity
  8
layer 1
 62
     7
100
AcDbSpline
210
0.0
220
0.0
230
1.0
 70
    11
 71
     3
 72
    16
 73
    12
 74
     0
 42
0.0000000001
 43
0.0000000001
 12
1.0
 22
0.0
 32
0.0
 13
1.0
 23
0.0
 33
0.0
 40
0.0
 40
0.0
 40
0.0
 40
0.0
 40
0.25
 40
0.25
 40
0.25
 40
0.25
 40
0.5
 40
0.5
 40
0.5
 40
0.5
 40
1.0
 40
1.0
 40
1.0
 40
1.0
 10
-154.7412
 20
16.7729
 30
0.0
 10
-153.5392
 20
15.4765
 30
0.0
 10
-152.3528
 20
12.9481
 30
0.0
 10
-151.614
 20
10.9929
 30
0.0
 10
-151.614
 20
10.9929
 30
0.0
 10
-145.3334
 20
12.6058
 30
0.0
 10
-139.1041
 20
15.0732
 30
0.0
 10
-135.7965
 20
19.6665
 30
0.0
 10
-135.7965
 20
19.6665
 30
0.0
 10
-141.5502
 20
17.2773
 30
0.0
 10
-146.0973
 20
15.322
 30
0.0
 10
-154.7412
 20
16.7729
 30
0.0
  0
SPLINE
  5
51
330
1F
100
AcDbEntity
  8
layer 1
 62
     7
100
AcDbSpline
210
0.0
220
0.0
230
1.0
 70
    11
 71
     3
 72
    16
 73
    12
 74
     0
 42
0.0000000001
 43
0.0000000001
 12
1.0
 22
0.0
 32
0.0
 13
1.0
 23
0.0
 33
0.0
 40
0.0
 40
0.0
 40
0.0
 40
0.0
 40
0.25
 40
0.25
 40
0.25
 40
0.25
 40
0.5
 40
0.5
 40
0.5
 40
0.5
 40
1.0
 40
1.0
 40
1.0
 40
1.0
 10
-165.7366
 20
19.3608
 30
0.0
 10
-167.0589
 20
16.2375
 30
0.0
 10
-163.7244
 20
12.6917
 30
0.0
 10
-159.8283
 20
11.181
 30
0.0
 10
-159.8283
 20
11.181
 30
0.0
 10
-159.4212
 20
13.3629
 30
0.0
 10
-158.5656
 20
16.083
 30
0.0
 10
-157.6581
 20
17.2021
 30
0.0
 10
-157.6581
 20
17.2021
 30
0.0
 10
-160.7591
 20
17.5937
 30
0.0
 10
-163.2836
 20
18.3546
 30
0.0
 10
-165.7366
 20
19.3608
 30
0.0
  0
SPLINE
  5
52
330
1F
100
AcDbEntity
  8
layer 1
 62
     7
100
AcDbSpline
210
0.0
220
0.0
230
1.0
 70
    11
 71
     3
 72
    40
 73
    36
 74
     0
 42
0.0000000001
 43
0.0000000001
 12
1.0
 22
0.0
 32
0.0
 13
1.0
 23
0.0
 33
0.0
 40
0.0
 40
0.0
 40
0.0
 40
0.0
 40
0.1
 40
0.1
 40
0.1
 40
0.1
 40
0.2
 40
0.2
 40
0.2
 40
0.2
 40
0.3
 40
0.3
 40
0.3
 40
0.3
 40
0.4
 40
0.4
 40
0.4
 40
0.4
 40
0.5
 40
0.5
 40
0.5
 40
0.5
 40
0.6
 40
0.6
 40
0.6
 40
0.6
 40
0.7
 40
0.7
 40
0.7
 40
0.7
 40
0.8
 40
0.8
 40
0.8
 40
0.8
 40
1.0
 40
1.0
 40
1.0
 40
1.0
 10
-114.4095
 20
34.9227
 30
0.0
 10
-109.4167
 20
41.0161
 30
0.0
 10
-108.4378
 20
42.323
 30
0.0
 10
-105.4003
 20
47.7787
 30
0.0
 10
-105.4003
 20
47.7787
 30
0.0
 10
-103.3321
 20
46.8488
 30
0.0
 10
-100.8029
 20
47.2896
 30
0.0
 10
-100.1702
 20
49.9191
 30
0.0
 10
-100.1702
 20
49.9191
 30
0.0
 10
-101.9606
 20
49.6326
 30
0.0
 10
-102.9436
 20
49.7455
 30
0.0
 10
-103.8175
 20
51.6825
 30
0.0
 10
-103.8175
 20
51.6825
 30
0.0
 10
-100.4229
 20
57.6965
 30
0.0
 10
-99.6089
 20
60.0433
 30
0.0
 10
-98.9567
 20
68.4083
 30
0.0
 10
-98.9567
 20
68.4083
 30
0.0
 10
-98.4263
 20
60.0436
 30
0.0
 10
-97.4917
 20
57.6965
 30
0.0
 10
-94.0963
 20
51.6825
 30
0.0
 10
-94.0963
 20
51.6825
 30
0.0
 10
-94.971
 20
49.7455
 30
0.0
 10
-95.9578
 20
49.6326
 30
0.0
 10
-97.7444
 20
49.9191
 30
0.0
 10
-97.7444
 20
49.9191
 30
0.0
 10
-97.1105
 20
47.2896
 30
0.0
 10
-94.703
 20
46.7881
 30
0.0
 10
-92.5142
 20
47.7787
 30
0.0
 10
-92.5142
 20
47.7787
 30
0.0
 10
-89.4767
 20
42.323
 30
0.0
 10
-88.4978
 20
41.0158
 30
0.0
 10
-83.5051
 20
34.9224
 30
0.0
 10
-83.5051
 20
34.9224
 30
0.0
 10
-93.9948
 20
40.8307
 30
0.0
 10
-104.7406
 20
40.4429
 30
0.0
 10
-114.4095
 20
34.9227
 30
0.0
  0
SPLINE
  5
53
330
1F
100
AcDbEntity
  8
layer 1
 62
     7
100
AcDbSpline
210
0.0
220
0.0
230
1.0
 70
    11
 71
     3
 72
    24
 73
    20
 74
     0
 42
0.0000000001
 43
0.0000000001
 12
1.0
 22
0.0
 32
0.0
 13
1.0
 23
0.0
 33
0.0
 40
0.0
 40
0.0
 40
0.0
 40
0.0
 40
0.1666666666666667
 40
0.1666666666666667
 40
0.1666666666666667
 40
0.1666666666666667
 40
0.3333333333333333
 40
0.3333333333333333
 40
0.3333333333333333
 40
0.3333333333333333
 40
0.5
 40
0.5
 40
0.5
 40
0.5
 40
0.6666666666666666
 40
0.6666666666666666
 40
0.6666666666666666
 40
0.6666666666666666
 40
1.0
 40
1.0
 40
1.0
 40
1.0
 10
-142.0432
 20
9.9454
 30
0.0
 10
-137.5636
 20
9.7343
 30
0.0
 10
-133.5432
 20
11.3546
 30
0.0
 10
-133.1284
 20
13.2462
 30
0.0
 10
-133.1284
 20
13.2462
 30
0.0
 10
-133.0272
 20
11.6556
 30
0.0
 10
-132.077
 20
10.1827
 30
0.0
 10
-129.6241
 20
9.7302
 30
0.0
 10
-129.6241
 20
9.7302
 30
0.0
 10
-128.9006
 20
18.4
 30
0.0
 10
-126.5645
 20
22.1687
 30
0.0
 10
-123.9155
 20
26.3849
 30
0.0
 10
-123.9155
 20
26.3849
 30
0.0
 10
-125.6345
 20
24.9188
 30
0.0
 10
-126.9907
 20
23.6455
 30
0.0
 10
-128.2641
 20
22.922
 30
0.0
 10
-128.2641
 20
22.922
 30
0.0
 10
-131.7569
 20
14.2138
 30
0.0
 10
-138.6218
 20
11.3016
 30
0.0
 10
-142.0432
 20
9.9454
 30
0.0
  0
SPLINE
  5
54
330
1F
100
AcDbEntity
  8
layer 1
 62
     7
100
AcDbSpline
210
0.0
220
0.0
230
1.0
 70
    11
 71
     3
 72
    20
 73
    16
 74
     0
 42
0.0000000001
 43
0.0000000001
 12
1.0
 22
0.0
 32
0.0
 13
1.0
 23
0.0
 33
0.0
 40
0.0
 40
0.0
 40
0.0
 40
0.0
 40
0.2
 40
0.2
 40
0.2
 40
0.2
 40
0.4
 40
0.4
 40
0.4
 40
0.4
 40
0.6
 40
0.6
 40
0.6
 40
0.6
 40
1.0
 40
1.0
 40
1.0
 40
1.0
 10
-76.4173
 20
8.0759
 30
0.0
 10
-76.4173
 20
-4.3653
 30
0.0
 10
-86.504
 20
-14.4521
 30
0.0
 10
-98.9502
 20
-14.4521
 30
0.0
 10
-98.9502
 20
-14.4521
 30
0.0
 10
-111.3914
 20
-14.4521
 30
0.0
 10
-121.4782
 20
-4.3653
 30
0.0
 10
-121.4782
 20
8.0759
 30
0.0
 10
-121.4782
 20
8.0759
 30
0.0
 10
-121.4782
 20
20.5183
 30
0.0
 10
-111.3914
 20
30.605
 30
0.0
 10
-98.9502
 20
30.605
 30
0.0
 10
-98.9502
 20
30.605
 30
0.0
 10
-86.5037
 20
30.605
 30
0.0
 10
-76.4173
 20
20.5183
 30
0.0
 10
-76.4173
 20
8.0759
 30
0.0
  0
SPLINE
  5
55
330
1F
100
AcDbEntity
  8
layer 1
 62
     7
100
AcDbSpline
210
0.0
220
0.0
230
1.0
 70
    11
 71
     3
 72
    32
 73
    28
 74
     0
 42
0.0000000001
 43
0.0000000001
 12
1.0
 22
0.0
 32
0.0
 13
1.0
 23
0.0
 33
0.0
 40
0.0
 40
0.0
 40
0.0
 40
0.0
 40
0.125
 40
0.125
 40
0.125
 40
0.125
 40
0.25
 40
0.25
 40
0.25
 40
0.25
 40
0.375
 40
0.375
 40
0.375
 40
0.375
 40
0.5
 40
0.5
 40
0.5
 40
0.5
 40
0.625
 40
0.625
 40
0.625
 40
0.625
 40
0.75
 40
0.75
 40
0.75
 40
0.75
 40
1.0
 40
1.0
 40
1.0
 40
1.0
 10
-80.9728
 20
86.9093
 30
0.0
 10
-84.6392
 20
79.6063
 30
0.0
 10
-87.887
 20
79.6787
 30
0.0
 10
-91.6926
 20
81.001
 30
0.0
 10
-91.6926
 20
81.001
 30
0.0
 10
-90.886
 20
93.209
 30
0.0
 10
-84.1263
 20
100.9296
 30
0.0
 10
-76.093
 20
98.8761
 30
0.0
 10
-76.093
 20
98.8761
 30
0.0
 10
-74.7368
 20
101.4688
 30
0.0
 10
-77.024
 20
104.3887
 30
0.0
 10
-79.5223
 20
104.4108
 30
0.0
 10
-79.5223
 20
104.4108
 30
0.0
 10
-76.2926
 20
108.0513
 30
0.0
 10
-74.6955
 20
109.5434
 30
0.0
 10
-71.6695
 20
111.1708
 30
0.0
 10
-71.6695
 20
111.1708
 30
0.0
 10
-72.6196
 20
109.3208
 30
0.0
 10
-72.3514
 20
108.1795
 30
0.0
 10
-71.7679
 20
107.1695
 30
0.0
 10
-71.7679
 20
107.1695
 30
0.0
 10
-66.5041
 20
110.0257
 30
0.0
 10
-61.6579
 20
106.913
 30
0.0
 10
-65.1362
 20
95.3872
 30
0.0
 10
-65.1362
 20
95.3872
 30
0.0
 10
-75.7206
 20
99.803
 30
0.0
 10
-78.8103
 20
91.7129
 30
0.0
 10
-80.9728
 20
86.9093
 30
0.0
  0
SPLINE
  5
56
330
1F
100
AcDbEntity
  8
layer 1
 62
     7
100
AcDbSpline
210
0.0
220
0.0
230
1.0
 70
    11
 71
     3
 72
    28
 73
    24
 74
     0
 42
0.0000000001
 43
0.0000000001
 12
1.0
 22
0.0
 32
0.0
 13
1.0
 23
0.0
 33
0.0
 40
0.0
 40
0.0
 40
0.0
 40
0.0
 40
0.1428571428571428
 40
0.1428571428571428
 40
0.1428571428571428
 40
0.1428571428571428
 40
0.2857142857142857
 40
0.2857142857142857
 40
0.2857142857142857
 40
0.2857142857142857
 40
0.4285714285714285
 40
0.4285714285714285
 40
0.4285714285714285
 40
0.4285714285714285
 40
0.5714285714285714
 40
0.5714285714285714
 40
0.5714285714285714
 40
0.5714285714285714
 40
0.7142857142857143
 40
0.7142857142857143
 40
0.7142857142857143
 40
0.7142857142857143
 40
1.0
 40
1.0
 40
1.0
 40
1.0
 10
-30.0907
 20
108.334
 30
0.0
 10
-23.5757
 20
108.7408
 30
0.0
 10
-23.594
 20
114.4377
 30
0.0
 10
-25.1211
 20
116.4799
 30
0.0
 10
-25.1211
 20
116.4799
 30
0.0
 10
-26.9741
 20
114.7051
 30
0.0
 10
-30.9684
 20
113.0468
 30
0.0
 10
-34.1787
 20
115.0551
 30
0.0
 10
-34.1787
 20
115.0551
 30
0.0
 10
-41.9068
 20
119.9651
 30
0.0
 10
-50.9163
 20
121.8564
 30
0.0
 10
-53.4146
 20
121.8796
 30
0.0
 10
-53.4146
 20
121.8796
 30
0.0
 10
-53.4146
 20
121.8796
 30
0.0
 10
-19.7887
 20
121.8796
 30
0.0
 10
-19.7887
 20
121.8796
 30
0.0
 10
-19.7887
 20
121.8796
 30
0.0
 10
-19.7887
 20
121.8796
 30
0.0
 10
-19.7887
 20
93.4048
 30
0.0
 10
-19.7887
 20
93.4048
 30
0.0
 10
-19.7887
 20
93.4048
 30
0.0
 10
-21.9368
 20
100.3308
 30
0.0
 10
-24.8906
 20
104.7012
 30
0.0
 10
-30.0907
 20
108.334
 30
0.0
  0
SPLINE
  5
57
330
1F
100
AcDbEntity
  8
layer 1
 62
     7
100
AcDbSpline
210
0.0
220
0.0
230
1.0
 70
    11
 71
     3
 72
    16
 73
    12
 74
     0
 42
0.0000000001
 43
0.0000000001
 12
1.0
 22
0.0
 32
0.0
 13
1.0
 23
0.0
 33
0.0
 40
0.0
 40
0.0
 40
0.0
 40
0.0
 40
0.25
 40
0.25
 40
0.25
 40
0.25
 40
0.5
 40
0.5
 40
0.5
 40
0.5
 40
1.0
 40
1.0
 40
1.0
 40
1.0
 10
-82.2538
 20
76.3779
 30
0.0
 10
-87.0353
 20
70.0743
 30
0.0
 10
-84.8727
 20
61.4449
 30
0.0
 10
-87.3749
 20
56.3171
 30
0.0
 10
-87.3749
 20
56.3171
 30
0.0
 10
-91.6743
 20
66.1629
 30
0.0
 10
-92.1295
 20
75.1489
 30
0.0
 10
-91.8091
 20
78.0841
 30
0.0
 10
-91.8091
 20
78.0841
 30
0.0
 10
-89.5935
 20
75.6129
 30
0.0
 10
-86.3728
 20
75.4248
 30
0.0
 10
-82.2538
 20
76.3779
 30
0.0
  0
SPLINE
  5
58
330
1F
100
AcDbEntity
  8
layer 1
 62
     7
100
AcDbSpline
210
0.0
220
0.0
230
1.0
 70
    11
 71
     3
 72
    28
 73
    24
 74
     0
 42
0.0000000001
 43
0.0000000001
 12
1.0
 22
0.0
 32
0.0
 13
1.0
 23
0.0
 33
0.0
 40
0.0
 40
0.0
 40
0.0
 40
0.0
 40
0.1428571428571428
 40
0.1428571428571428
 40
0.1428571428571428
 40
0.1428571428571428
 40
0.2857142857142857
 40
0.2857142857142857
 40
0.2857142857142857
 40
0.2857142857142857
 40
0.4285714285714285
 40
0.4285714285714285
 40
0.4285714285714285
 40
0.4285714285714285
 40
0.5714285714285714
 40
0.5714285714285714
 40
0.5714285714285714
 40
0.5714285714285714
 40
0.7142857142857143
 40
0.7142857142857143
 40
0.7142857142857143
 40
0.7142857142857143
 40
1.0
 40
1.0
 40
1.0
 40
1.0
 10
-31.2702
 20
52.0336
 30
0.0
 10
-25.7954
 20
53.5519
 30
0.0
 10
-26.4396
 20
57.9262
 30
0.0
 10
-27.687
 20
58.8608
 30
0.0
 10
-27.687
 20
58.8608
 30
0.0
 10
-34.8836
 20
51.747
 30
0.0
 10
-37.905
 20
65.5562
 30
0.0
 10
-30.2941
 20
66.4569
 30
0.0
 10
-30.2941
 20
66.4569
 30
0.0
 10
-30.2487
 20
62.9709
 30
0.0
 10
-25.1096
 20
61.1141
 30
0.0
 10
-22.4038
 20
64.3996
 30
0.0
 10
-22.4038
 20
64.3996
 30
0.0
 10
-31.0512
 20
68.8414
 30
0.0
 10
-21.0659
 20
72.3082
 30
0.0
 10
-19.7887
 20
84.5201
 30
0.0
 10
-19.7887
 20
84.5201
 30
0.0
 10
-19.7887
 20
84.5201
 30
0.0
 10
-19.7887
 20
40.251
 30
0.0
 10
-19.7887
 20
40.251
 30
0.0
 10
-19.7887
 20
40.251
 30
0.0
 10
-20.9647
 20
48.1481
 30
0.0
 10
-26.5563
 20
51.5887
 30
0.0
 10
-31.2702
 20
52.0336
 30
0.0
  0
SPLINE
  5
59
330
1F
100
AcDbEntity
  8
layer 1
 62
     7
100
AcDbSpline
210
0.0
220
0.0
230
1.0
 70
    11
 71
     3
 72
    28
 73
    24
 74
     0
 42
0.0000000001
 43
0.0000000001
 12
1.0
 22
0.0
 32
0.0
 13
1.0
 23
0.0
 33
0.0
 40
0.0
 40
0.0
 40
0.0
 40
0.0
 40
0.1428571428571428
 40
0.1428571428571428
 40
0.1428571428571428
 40
0.1428571428571428
 40
0.2857142857142857
 40
0.2857142857142857
 40
0.2857142857142857
 40
0.2857142857142857
 40
0.4285714285714285
 40
0.4285714285714285
 40
0.4285714285714285
 40
0.4285714285714285
 40
0.5714285714285714
 40
0.5714285714285714
 40
0.5714285714285714
 40
0.5714285714285714
 40
0.7142857142857143
 40
0.7142857142857143
 40
0.7142857142857143
 40
0.7142857142857143
 40
1.0
 40
1.0
 40
1.0
 40
1.0
 10
-23.9867
 20
14.5379
 30
0.0
 10
-25.803
 20
11.867
 30
0.0
 10
-30.136
 20
11.1512
 30
0.0
 10
-34.8346
 20
10.201
 30
0.0
 10
-34.8346
 20
10.201
 30
0.0
 10
-31.4767
 20
12.2025
 30
0.0
 10
-27.6
 20
13.4381
 30
0.0
 10
-25.9912
 20
17.7933
 30
0.0
 10
-25.9912
 20
17.7933
 30
0.0
 10
-27.2943
 20
18.7957
 30
0.0
 10
-28.6207
 20
18.9652
 30
0.0
 10
-31.0736
 20
19.9
 30
0.0
 10
-31.0736
 20
19.9
 30
0.0
 10
-23.7715
 20
22.4621
 30
0.0
 10
-21.0891
 20
26.7612
 30
0.0
 10
-19.7887
 20
30.7256
 30
0.0
 10
-19.7887
 20
30.7256
 30
0.0
 10
-19.7887
 20
30.7256
 30
0.0
 10
-19.7887
 20
10.4353
 30
0.0
 10
-19.7887
 20
10.4353
 30
0.0
 10
-19.7887
 20
10.4353
 30
0.0
 10
-22.1963
 20
10.6311
 30
0.0
 10
-23.9946
 20
11.8178
 30
0.0
 10
-23.9867
 20
14.5379
 30
0.0
  0
SPLINE
  5
5A
330
1F
100
AcDbEntity
  8
layer 1
 62
     7
100
AcDbSpline
210
0.0
220
0.0
230
1.0
 70
    11
 71
     3
 72
    48
 73
    44
 74
     0
 42
0.0000000001
 43
0.0000000001
 12
1.0
 22
0.0
 32
0.0
 13
1.0
 23
0.0
 33
0.0
 40
0.0
 40
0.0
 40
0.0
 40
0.0
 40
0.0833333333333333
 40
0.0833333333333333
 40
0.0833333333333333
 40
0.0833333333333333
 40
0.1666666666666667
 40
0.1666666666666667
 40
0.1666666666666667
 40
0.1666666666666667
 40
0.25
 40
0.25
 40
0.25
 40
0.25
 40
0.3333333333333333
 40
0.3333333333333333
 40
0.3333333333333333
 40
0.3333333333333333
 40
0.4166666666666667
 40
0.4166666666666667
 40
0.4166666666666667
 40
0.4166666666666667
 40
0.5
 40
0.5
 40
0.5
 40
0.5
 40
0.5833333333333334
 40
0.5833333333333334
 40
0.5833333333333334
 40
0.5833333333333334
 40
0.6666666666666666
 40
0.6666666666666666
 40
0.6666666666666666
 40
0.6666666666666666
 40
0.75
 40
0.75
 40
0.75
 40
0.75
 40
0.8333333333333334
 40
0.8333333333333334
 40
0.8333333333333334
 40
0.8333333333333334
 40
1.0
 40
1.0
 40
1.0
 40
1.0
 10
-64.4504
 20
78.8453
 30
0.0
 10
-71.4138
 20
75.2552
 30
0.0
 10
-76.2174
 20
82.0111
 30
0.0
 10
-71.2623
 20
87.5267
 30
0.0
 10
-71.2623
 20
87.5267
 30
0.0
 10
-69.8985
 20
89.042
 30
0.0
 10
-63.0904
 20
90.1792
 30
0.0
 10
-60.7012
 20
82.9005
 30
0.0
 10
-60.7012
 20
82.9005
 30
0.0
 10
-60.6181
 20
79.2224
 30
0.0
 10
-60.404
 20
76.6905
 30
0.0
 10
-60.5806
 20
74.0716
 30
0.0
 10
-60.5806
 20
74.0716
 30
0.0
 10
-62.3784
 20
73.8534
 30
0.0
 10
-66.3226
 20
74.5692
 30
0.0
 10
-66.5676
 20
68.612
 30
0.0
 10
-66.5676
 20
68.612
 30
0.0
 10
-63.4182
 20
68.3824
 30
0.0
 10
-60.9382
 20
66.295
 30
0.0
 10
-60.2563
 20
63.3327
 30
0.0
 10
-60.2563
 20
63.3327
 30
0.0
 10
-70.8784
 20
66.076
 30
0.0
 10
-79.3755
 20
57.1275
 30
0.0
 10
-78.1051
 20
41.6747
 30
0.0
 10
-78.1051
 20
41.6747
 30
0.0
 10
-80.2573
 20
44.9756
 30
0.0
 10
-81.7639
 20
46.6038
 30
0.0
 10
-84.4396
 20
50.9368
 30
0.0
 10
-84.4396
 20
50.9368
 30
0.0
 10
-80.3921
 20
54.3205
 30
0.0
 10
-77.2728
 20
63.2613
 30
0.0
 10
-79.9215
 20
68.0805
 30
0.0
 10
-79.9215
 20
68.0805
 30
0.0
 10
-76.9332
 20
64.69
 30
0.0
 10
-75.7651
 20
62.8359
 30
0.0
 10
-74.0887
 20
61.4605
 30
0.0
 10
-74.0887
 20
61.4605
 30
0.0
 10
-73.2225
 20
63.57
 30
0.0
 10
-71.0898
 20
66.2081
 30
0.0
 10
-72.9581
 20
74.3464
 30
0.0
 10
-72.9581
 20
74.3464
 30
0.0
 10
-67.5062
 20
69.2409
 30
0.0
 10
-63.2148
 20
75.53
 30
0.0
 10
-64.4504
 20
78.8453
 30
0.0
  0
SPLINE
  5
5B
330
1F
100
AcDbEntity
  8
layer 1
 62
     7
100
AcDbSpline
210
0.0
220
0.0
230
1.0
 70
    11
 71
     3
 72
    32
 73
    28
 74
     0
 42
0.0000000001
 43
0.0000000001
 12
1.0
 22
0.0
 32
0.0
 13
1.0
 23
0.0
 33
0.0
 40
0.0
 40
0.0
 40
0.0
 40
0.0
 40
0.125
 40
0.125
 40
0.125
 40
0.125
 40
0.25
 40
0.25
 40
0.25
 40
0.25
 40
0.375
 40
0.375
 40
0.375
 40
0.375
 40
0.5
 40
0.5
 40
0.5
 40
0.5
 40
0.625
 40
0.625
 40
0.625
 40
0.625
 40
0.75
 40
0.75
 40
0.75
 40
0.75
 40
1.0
 40
1.0
 40
1.0
 40
1.0
 10
-56.0401
 20
48.2157
 30
0.0
 10
-57.186
 20
55.6469
 30
0.0
 10
-63.3277
 20
53.1593
 30
0.0
 10
-64.5333
 20
52.3343
 30
0.0
 10
-64.5333
 20
52.3343
 30
0.0
 10
-66.613
 20
50.9098
 30
0.0
 10
-69.4161
 20
44.9302
 30
0.0
 10
-62.8531
 20
41.3814
 30
0.0
 10
-62.8531
 20
41.3814
 30
0.0
 10
-65.5395
 20
39.8961
 30
0.0
 10
-68.0301
 20
37.4738
 30
0.0
 10
-69.7257
 20
34.5569
 30
0.0
 10
-69.7257
 20
34.5569
 30
0.0
 10
-73.0642
 20
36.7429
 30
0.0
 10
-75.2385
 20
48.1635
 30
0.0
 10
-67.3818
 20
51.6032
 30
0.0
 10
-67.3818
 20
51.6032
 30
0.0
 10
-68.7495
 20
52.9865
 30
0.0
 10
-70.894
 20
53.9172
 30
0.0
 10
-72.4304
 20
53.9886
 30
0.0
 10
-72.4304
 20
53.9886
 30
0.0
 10
-68.9231
 20
58.1635
 30
0.0
 10
-65.9764
 20
59.1279
 30
0.0
 10
-62.8194
 20
59.1618
 30
0.0
 10
-62.8194
 20
59.1618
 30
0.0
 10
-57.355
 20
60.3638
 30
0.0
 10
-51.873
 20
52.4434
 30
0.0
 10
-56.0401
 20
48.2157
 30
0.0
  0
SPLINE
  5
5C
330
1F
100
AcDbEntity
  8
layer 1
 62
     7
100
AcDbSpline
210
0.0
220
0.0
230
1.0
 70
    11
 71
     3
 72
    32
 73
    28
 74
     0
 42
0.0000000001
 43
0.0000000001
 12
1.0
 22
0.0
 32
0.0
 13
1.0
 23
0.0
 33
0.0
 40
0.0
 40
0.0
 40
0.0
 40
0.0
 40
0.125
 40
0.125
 40
0.125
 40
0.125
 40
0.25
 40
0.25
 40
0.25
 40
0.25
 40
0.375
 40
0.375
 40
0.375
 40
0.375
 40
0.5
 40
0.5
 40
0.5
 40
0.5
 40
0.625
 40
0.625
 40
0.625
 40
0.625
 40
0.75
 40
0.75
 40
0.75
 40
0.75
 40
1.0
 40
1.0
 40
1.0
 40
1.0
 10
-35.8665
 20
52.071
 30
0.0
 10
-42.6487
 20
52.757
 30
0.0
 10
-49.6082
 20
46.6336
 30
0.0
 10
-47.4755
 20
38.7625
 30
0.0
 10
-47.4755
 20
38.7625
 30
0.0
 10
-48.7797
 20
41.479
 30
0.0
 10
-50.2073
 20
42.0365
 30
0.0
 10
-52.7663
 20
42.2697
 30
0.0
 10
-52.7663
 20
42.2697
 30
0.0
 10
-49.7403
 20
45.0885
 30
0.0
 10
-49.5628
 20
49.1918
 30
0.0
 10
-49.8494
 20
51.3166
 30
0.0
 10
-49.8494
 20
51.3166
 30
0.0
 10
-45.3996
 20
50.0928
 30
0.0
 10
-42.9768
 20
52.7598
 30
0.0
 10
-42.5357
 20
55.3111
 30
0.0
 10
-42.5357
 20
55.3111
 30
0.0
 10
-46.4241
 20
53.8759
 30
0.0
 10
-52.9468
 20
61.0351
 30
0.0
 10
-54.4842
 20
61.1103
 30
0.0
 10
-54.4842
 20
61.1103
 30
0.0
 10
-48.9003
 20
60.168
 30
0.0
 10
-43.2825
 20
60.0887
 30
0.0
 10
-40.1244
 20
60.7939
 30
0.0
 10
-40.1244
 20
60.7939
 30
0.0
 10
-42.2984
 20
58.1414
 30
0.0
 10
-41.0475
 20
53.2615
 30
0.0
 10
-35.8665
 20
52.071
 30
0.0
  0
SPLINE
  5
5D
330
1F
100
AcDbEntity
  8
layer 1
 62
     7
100
AcDbSpline
210
0.0
220
0.0
230
1.0
 70
    11
 71
     3
 72
    32
 73
    28
 74
     0
 42
0.0000000001
 43
0.0000000001
 12
1.0
 22
0.0
 32
0.0
 13
1.0
 23
0.0
 33
0.0
 40
0.0
 40
0.0
 40
0.0
 40
0.0
 40
0.125
 40
0.125
 40
0.125
 40
0.125
 40
0.25
 40
0.25
 40
0.25
 40
0.25
 40
0.375
 40
0.375
 40
0.375
 40
0.375
 40
0.5
 40
0.5
 40
0.5
 40
0.5
 40
0.625
 40
0.625
 40
0.625
 40
0.625
 40
0.75
 40
0.75
 40
0.75
 40
0.75
 40
1.0
 40
1.0
 40
1.0
 40
1.0
 10
-34.9774
 20
96.2725
 30
0.0
 10
-32.5619
 20
94.8816
 30
0.0
 10
-29.9548
 20
95.8772
 30
0.0
 10
-28.8589
 20
97.8699
 30
0.0
 10
-28.8589
 20
97.8699
 30
0.0
 10
-28.1616
 20
94.358
 30
0.0
 10
-27.6599
 20
92.6176
 30
0.0
 10
-27.9957
 20
88.6986
 30
0.0
 10
-27.9957
 20
88.6986
 30
0.0
 10
-34.1669
 20
86.3209
 30
0.0
 10
-34.36
 20
91.1709
 30
0.0
 10
-38.9486
 20
90.0288
 30
0.0
 10
-38.9486
 20
90.0288
 30
0.0
 10
-35.6823
 20
92.365
 30
0.0
 10
-37.2643
 20
96.5927
 30
0.0
 10
-39.1974
 20
97.2139
 30
0.0
 10
-39.1974
 20
97.2139
 30
0.0
 10
-39.3074
 20
89.3286
 30
0.0
 10
-44.6425
 20
95.3754
 30
0.0
 10
-49.367
 20
91.2953
 30
0.0
 10
-49.367
 20
91.2953
 30
0.0
 10
-48.2326
 20
99.0303
 30
0.0
 10
-38.0901
 20
99.7691
 30
0.0
 10
-41.3119
 20
111.7436
 30
0.0
 10
-41.3119
 20
111.7436
 30
0.0
 10
-39.0353
 20
107.9799
 30
0.0
 10
-31.8502
 20
106.0651
 30
0.0
 10
-34.9774
 20
96.2725
 30
0.0
  0
SPLINE
  5
5E
330
1F
100
AcDbEntity
  8
layer 1
 62
     7
100
AcDbSpline
210
0.0
220
0.0
230
1.0
 70
    11
 71
     3
 72
    32
 73
    28
 74
     0
 42
0.0000000001
 43
0.0000000001
 12
1.0
 22
0.0
 32
0.0
 13
1.0
 23
0.0
 33
0.0
 40
0.0
 40
0.0
 40
0.0
 40
0.0
 40
0.125
 40
0.125
 40
0.125
 40
0.125
 40
0.25
 40
0.25
 40
0.25
 40
0.25
 40
0.375
 40
0.375
 40
0.375
 40
0.375
 40
0.5
 40
0.5
 40
0.5
 40
0.5
 40
0.625
 40
0.625
 40
0.625
 40
0.625
 40
0.75
 40
0.75
 40
0.75
 40
0.75
 40
1.0
 40
1.0
 40
1.0
 40
1.0
 10
-47.2122
 20
113.7779
 30
0.0
 10
-51.6581
 20
112.8174
 30
0.0
 10
-51.5154
 20
108.1642
 30
0.0
 10
-49.5937
 20
106.6458
 30
0.0
 10
-49.5937
 20
106.6458
 30
0.0
 10
-46.8881
 20
104.5093
 30
0.0
 10
-43.8545
 20
106.6912
 30
0.0
 10
-43.5419
 20
109.2193
 30
0.0
 10
-43.5419
 20
109.2193
 30
0.0
 10
-41.0059
 20
104.1967
 30
0.0
 10
-51.003
 20
98.9437
 30
0.0
 10
-54.6685
 20
92.9977
 30
0.0
 10
-54.6685
 20
92.9977
 30
0.0
 10
-58.0068
 20
96.9624
 30
0.0
 10
-56.2514
 20
107.1957
 30
0.0
 10
-53.8852
 20
107.377
 30
0.0
 10
-53.8852
 20
107.377
 30
0.0
 10
-55.9908
 20
110.6846
 30
0.0
 10
-59.4732
 20
110.6507
 30
0.0
 10
-61.6059
 20
107.535
 30
0.0
 10
-61.6059
 20
107.535
 30
0.0
 10
-61.2103
 20
110.5977
 30
0.0
 10
-63.9006
 20
112.8964
 30
0.0
 10
-65.4864
 20
113.3035
 30
0.0
 10
-65.4864
 20
113.3035
 30
0.0
 10
-62.3967
 20
115.8393
 30
0.0
 10
-51.059
 20
115.2624
 30
0.0
 10
-47.2122
 20
113.7779
 30
0.0
  0
SPLINE
  5
5F
330
1F
100
AcDbEntity
  8
layer 1
 62
     7
100
AcDbSpline
210
0.0
220
0.0
230
1.0
 70
    11
 71
     3
 72
    36
 73
    32
 74
     0
 42
0.0000000001
 43
0.0000000001
 12
1.0
 22
0.0
 32
0.0
 13
1.0
 23
0.0
 33
0.0
 40
0.0
 40
0.0
 40
0.0
 40
0.0
 40
0.1111111111111111
 40
0.1111111111111111
 40
0.1111111111111111
 40
0.1111111111111111
 40
0.2222222222222222
 40
0.2222222222222222
 40
0.2222222222222222
 40
0.2222222222222222
 40
0.3333333333333333
 40
0.3333333333333333
 40
0.3333333333333333
 40
0.3333333333333333
 40
0.4444444444444444
 40
0.4444444444444444
 40
0.4444444444444444
 40
0.4444444444444444
 40
0.5555555555555556
 40
0.5555555555555556
 40
0.5555555555555556
 40
0.5555555555555556
 40
0.6666666666666666
 40
0.6666666666666666
 40
0.6666666666666666
 40
0.6666666666666666
 40
0.7777777777777778
 40
0.7777777777777778
 40
0.7777777777777778
 40
0.7777777777777778
 40
1.0
 40
1.0
 40
1.0
 40
1.0
 10
-28.0785
 20
86.3364
 30
0.0
 10
-27.626
 20
86.0461
 30
0.0
 10
-31.4583
 20
76.3547
 30
0.0
 10
-42.0274
 20
79.2071
 30
0.0
 10
-42.0274
 20
79.2071
 30
0.0
 10
-40.7349
 20
76.0277
 30
0.0
 10
-42.4452
 20
73.6877
 30
0.0
 10
-45.174
 20
73.9923
 30
0.0
 10
-45.174
 20
73.9923
 30
0.0
 10
-46.7413
 20
74.1845
 30
0.0
 10
-49.2842
 20
76.6153
 30
0.0
 10
-46.3681
 20
79.5013
 30
0.0
 10
-46.3681
 20
79.5013
 30
0.0
 10
-49.3824
 20
81.3551
 30
0.0
 10
-51.5375
 20
78.9927
 30
0.0
 10
-52.2233
 20
75.7895
 30
0.0
 10
-52.2233
 20
75.7895
 30
0.0
 10
-52.2946
 20
79.0903
 30
0.0
 10
-51.9523
 20
82.7228
 30
0.0
 10
-50.3962
 20
85.202
 30
0.0
 10
-50.3962
 20
85.202
 30
0.0
 10
-46.5718
 20
89.6969
 30
0.0
 10
-40.6365
 20
84.9906
 30
0.0
 10
-46.9931
 20
81.7997
 30
0.0
 10
-46.9931
 20
81.7997
 30
0.0
 10
-41.632
 20
78.4122
 30
0.0
 10
-39.2013
 20
82.1915
 30
0.0
 10
-39.974
 20
85.3417
 30
0.0
 10
-39.974
 20
85.3417
 30
0.0
 10
-38.0706
 20
83.2844
 30
0.0
 10
-31.775
 20
82.5571
 30
0.0
 10
-28.0785
 20
86.3364
 30
0.0
  0
SPLINE
  5
60
330
1F
100
AcDbEntity
  8
layer 1
 62
     7
100
AcDbSpline
210
0.0
220
0.0
230
1.0
 70
    11
 71
     3
 72
    16
 73
    12
 74
     0
 42
0.0000000001
 43
0.0000000001
 12
1.0
 22
0.0
 32
0.0
 13
1.0
 23
0.0
 33
0.0
 40
0.0
 40
0.0
 40
0.0
 40
0.0
 40
0.25
 40
0.25
 40
0.25
 40
0.25
 40
0.5
 40
0.5
 40
0.5
 40
0.5
 40
1.0
 40
1.0
 40
1.0
 40
1.0
 10
-28.7643
 20
76.8717
 30
0.0
 10
-34.605
 20
67.2741
 30
0.0
 10
-47.4041
 20
62.7229
 30
0.0
 10
-56.3228
 20
69.8851
 30
0.0
 10
-56.3228
 20
69.8851
 30
0.0
 10
-55.1738
 20
70.164
 30
0.0
 10
-54.3106
 20
71.0012
 30
0.0
 10
-53.4559
 20
72.0296
 30
0.0
 10
-53.4559
 20
72.0296
 30
0.0
 10
-51.7111
 20
68.6872
 30
0.0
 10
-40.4484
 20
65.9333
 30
0.0
 10
-28.7643
 20
76.8717
 30
0.0
  0
SPLINE
  5
61
330
1F
100
AcDbEntity
  8
layer 1
 62
     7
100
AcDbSpline
210
0.0
220
0.0
230
1.0
 70
    11
 71
     3
 72
    48
 73
    44
 74
     0
 42
0.0000000001
 43
0.0000000001
 12
1.0
 22
0.0
 32
0.0
 13
1.0
 23
0.0
 33
0.0
 40
0.0
 40
0.0
 40
0.0
 40
0.0
 40
0.0833333333333333
 40
0.0833333333333333
 40
0.0833333333333333
 40
0.0833333333333333
 40
0.1666666666666667
 40
0.1666666666666667
 40
0.1666666666666667
 40
0.1666666666666667
 40
0.25
 40
0.25
 40
0.25
 40
0.25
 40
0.3333333333333333
 40
0.3333333333333333
 40
0.3333333333333333
 40
0.3333333333333333
 40
0.4166666666666667
 40
0.4166666666666667
 40
0.4166666666666667
 40
0.4166666666666667
 40
0.5
 40
0.5
 40
0.5
 40
0.5
 40
0.5833333333333334
 40
0.5833333333333334
 40
0.5833333333333334
 40
0.5833333333333334
 40
0.6666666666666666
 40
0.6666666666666666
 40
0.6666666666666666
 40
0.6666666666666666
 40
0.75
 40
0.75
 40
0.75
 40
0.75
 40
0.8333333333333334
 40
0.8333333333333334
 40
0.8333333333333334
 40
0.8333333333333334
 40
1.0
 40
1.0
 40
1.0
 40
1.0
 10
-63.4251
 20
33.2578
 30
0.0
 10
-60.2456
 20
37.3417
 30
0.0
 10
-55.9118
 20
38.0537
 30
0.0
 10
-54.627
 20
37.6657
 30
0.0
 10
-54.627
 20
37.6657
 30
0.0
 10
-60.7088
 20
30.1643
 30
0.0
 10
-47.2198
 20
24.6632
 30
0.0
 10
-46.0517
 20
34.938
 30
0.0
 10
-46.0517
 20
34.938
 30
0.0
 10
-42.6834
 20
28.5967
 30
0.0
 10
-34.8491
 20
33.1785
 30
0.0
 10
-34.3706
 20
34.9003
 30
0.0
 10
-34.3706
 20
34.9003
 30
0.0
 10
-31.2289
 20
40.9513
 30
0.0
 10
-36.4618
 20
45.4461
 30
0.0
 10
-37.9993
 20
45.5224
 30
0.0
 10
-37.9993
 20
45.5224
 30
0.0
 10
-32.2455
 20
48.4877
 30
0.0
 10
-25.4634
 20
43.3782
 30
0.0
 10
-25.6748
 20
36.3434
 30
0.0
 10
-25.6748
 20
36.3434
 30
0.0
 10
-25.6969
 20
32.7599
 30
0.0
 10
-32.1444
 20
20.9659
 30
0.0
 10
-41.0215
 20
30.1036
 30
0.0
 10
-41.0215
 20
30.1036
 30
0.0
 10
-42.6681
 20
29.6029
 30
0.0
 10
-43.0749
 20
24.4857
 30
0.0
 10
-39.1868
 20
23.0502
 30
0.0
 10
-39.1868
 20
23.0502
 30
0.0
 10
-41.033
 20
22.4957
 30
0.0
 10
-49.1037
 20
20.1111
 30
0.0
 10
-51.4024
 20
27.3263
 30
0.0
 10
-51.4024
 20
27.3263
 30
0.0
 10
-52.8636
 20
26.713
 30
0.0
 10
-53.6027
 20
25.2844
 30
0.0
 10
-53.5417
 20
23.8038
 30
0.0
 10
-53.5417
 20
23.8038
 30
0.0
 10
-57.408
 20
24.9265
 30
0.0
 10
-60.9278
 20
26.3357
 30
0.0
 10
-63.3354
 20
28.2388
 30
0.0
 10
-63.3354
 20
28.2388
 30
0.0
 10
-64.8988
 20
29.1206
 30
0.0
 10
-65.117
 20
31.3545
 30
0.0
 10
-63.4251
 20
33.2578
 30
0.0
  0
SPLINE
  5
62
330
1F
100
AcDbEntity
  8
layer 1
 62
     7
100
AcDbSpline
210
0.0
220
0.0
230
1.0
 70
    11
 71
     3
 72
    16
 73
    12
 74
     0
 42
0.0000000001
 43
0.0000000001
 12
1.0
 22
0.0
 32
0.0
 13
1.0
 23
0.0
 33
0.0
 40
0.0
 40
0.0
 40
0.0
 40
0.0
 40
0.25
 40
0.25
 40
0.25
 40
0.25
 40
0.5
 40
0.5
 40
0.5
 40
0.5
 40
1.0
 40
1.0
 40
1.0
 40
1.0
 10
-43.1725
 20
16.7729
 30
0.0
 10
-44.3743
 20
15.4765
 30
0.0
 10
-45.5618
 20
12.9481
 30
0.0
 10
-46.3036
 20
10.9929
 30
0.0
 10
-46.3036
 20
10.9929
 30
0.0
 10
-52.5812
 20
12.6058
 30
0.0
 10
-58.8096
 20
15.0732
 30
0.0
 10
-62.1219
 20
19.6665
 30
0.0
 10
-62.1219
 20
19.6665
 30
0.0
 10
-56.3643
 20
17.2773
 30
0.0
 10
-51.8161
 20
15.322
 30
0.0
 10
-43.1725
 20
16.7729
 30
0.0
  0
SPLINE
  5
63
330
1F
100
AcDbEntity
  8
layer 1
 62
     7
100
AcDbSpline
210
0.0
220
0.0
230
1.0
 70
    11
 71
     3
 72
    16
 73
    12
 74
     0
 42
0.0000000001
 43
0.0000000001
 12
1.0
 22
0.0
 32
0.0
 13
1.0
 23
0.0
 33
0.0
 40
0.0
 40
0.0
 40
0.0
 40
0.0
 40
0.25
 40
0.25
 40
0.25
 40
0.25
 40
0.5
 40
0.5
 40
0.5
 40
0.5
 40
1.0
 40
1.0
 40
1.0
 40
1.0
 10
-32.178
 20
19.3608
 30
0.0
 10
-30.8554
 20
16.2375
 30
0.0
 10
-34.1902
 20
12.6917
 30
0.0
 10
-38.0901
 20
11.181
 30
0.0
 10
-38.0901
 20
11.181
 30
0.0
 10
-38.4931
 20
13.3629
 30
0.0
 10
-39.3517
 20
16.083
 30
0.0
 10
-40.2603
 20
17.2021
 30
0.0
 10
-40.2603
 20
17.2021
 30
0.0
 10
-37.159
 20
17.5937
 30
0.0
 10
-34.6309
 20
18.3546
 30
0.0
 10
-32.178
 20
19.3608
 30
0.0
  0
SPLINE
  5
64
330
1F
100
AcDbEntity
  8
layer 1
 62
     7
100
AcDbSpline
210
0.0
220
0.0
230
1.0
 70
    11
 71
     3
 72
    24
 73
    20
 74
     0
 42
0.0000000001
 43
0.0000000001
 12
1.0
 22
0.0
 32
0.0
 13
1.0
 23
0.0
 33
0.0
 40
0.0
 40
0.0
 40
0.0
 40
0.0
 40
0.1666666666666667
 40
0.1666666666666667
 40
0.1666666666666667
 40
0.1666666666666667
 40
0.3333333333333333
 40
0.3333333333333333
 40
0.3333333333333333
 40
0.3333333333333333
 40
0.5
 40
0.5
 40
0.5
 40
0.5
 40
0.6666666666666666
 40
0.6666666666666666
 40
0.6666666666666666
 40
0.6666666666666666
 40
1.0
 40
1.0
 40
1.0
 40
1.0
 10
-55.8741
 20
9.9454
 30
0.0
 10
-60.3509
 20
9.7343
 30
0.0
 10
-64.3714
 20
11.3546
 30
0.0
 10
-64.79
 20
13.2462
 30
0.0
 10
-64.79
 20
13.2462
 30
0.0
 10
-64.8912
 20
11.6556
 30
0.0
 10
-65.8364
 20
10.1827
 30
0.0
 10
-68.2896
 20
9.7302
 30
0.0
 10
-68.2896
 20
9.7302
 30
0.0
 10
-69.0167
 20
18.4
 30
0.0
 10
-71.3493
 20
22.1687
 30
0.0
 10
-73.998
 20
26.3849
 30
0.0
 10
-73.998
 20
26.3849
 30
0.0
 10
-72.28
 20
24.9188
 30
0.0
 10
-70.9276
 20
23.6455
 30
0.0
 10
-69.6505
 20
22.922
 30
0.0
 10
-69.6505
 20
22.922
 30
0.0
 10
-66.1569
 20
14.2138
 30
0.0
 10
-59.2917
 20
11.3016
 30
0.0
 10
-55.8741
 20
9.9454
 30
0.0
  0
SPLINE
  5
65
330
1F
100
AcDbEntity
  8
layer 1
 62
     7
100
AcDbSpline
210
0.0
220
0.0
230
1.0
 70
    11
 71
     3
 72
    32
 73
    28
 74
     0
 42
0.0000000001
 43
0.0000000001
 12
1.0
 22
0.0
 32
0.0
 13
1.0
 23
0.0
 33
0.0
 40
0.0
 40
0.0
 40
0.0
 40
0.0
 40
0.125
 40
0.125
 40
0.125
 40
0.125
 40
0.25
 40
0.25
 40
0.25
 40
0.25
 40
0.375
 40
0.375
 40
0.375
 40
0.375
 40
0.5
 40
0.5
 40
0.5
 40
0.5
 40
0.625
 40
0.625
 40
0.625
 40
0.625
 40
0.75
 40
0.75
 40
0.75
 40
0.75
 40
1.0
 40
1.0
 40
1.0
 40
1.0
 10
-116.9417
 20
-70.4968
 30
0.0
 10
-113.2751
 20
-63.1949
 30
0.0
 10
-110.0276
 20
-63.2663
 30
0.0
 10
-106.222
 20
-64.5886
 30
0.0
 10
-106.222
 20
-64.5886
 30
0.0
 10
-107.0286
 20
-76.7966
 30
0.0
 10
-113.7875
 20
-84.5209
 30
0.0
 10
-121.8216
 20
-82.4637
 30
0.0
 10
-121.8216
 20
-82.4637
 30
0.0
 10
-123.1778
 20
-85.0563
 30
0.0
 10
-120.8906
 20
-87.9763
 30
0.0
 10
-118.3923
 20
-87.9984
 30
0.0
 10
-118.3923
 20
-87.9984
 30
0.0
 10
-121.6209
 20
-91.6388
 30
0.0
 10
-123.2191
 20
-93.1347
 30
0.0
 10
-126.2481
 20
-94.7622
 30
0.0
 10
-126.2481
 20
-94.7622
 30
0.0
 10
-125.2988
 20
-92.9081
 30
0.0
 10
-125.5621
 20
-91.7671
 30
0.0
 10
-126.1467
 20
-90.757
 30
0.0
 10
-126.1467
 20
-90.757
 30
0.0
 10
-131.4143
 20
-93.6132
 30
0.0
 10
-136.2594
 20
-90.5005
 30
0.0
 10
-132.7784
 20
-78.9747
 30
0.0
 10
-132.7784
 20
-78.9747
 30
0.0
 10
-122.1937
 20
-83.3944
 30
0.0
 10
-119.1043
 20
-75.3004
 30
0.0
 10
-116.9417
 20
-70.4968
 30
0.0
  0
SPLINE
  5
66
330
1F
100
AcDbEntity
  8
layer 1
 62
     7
100
AcDbSpline
210
0.0
220
0.0
230
1.0
 70
    11
 71
     3
 72
    28
 73
    24
 74
     0
 42
0.0000000001
 43
0.0000000001
 12
1.0
 22
0.0
 32
0.0
 13
1.0
 23
0.0
 33
0.0
 40
0.0
 40
0.0
 40
0.0
 40
0.0
 40
0.1428571428571428
 40
0.1428571428571428
 40
0.1428571428571428
 40
0.1428571428571428
 40
0.2857142857142857
 40
0.2857142857142857
 40
0.2857142857142857
 40
0.2857142857142857
 40
0.4285714285714285
 40
0.4285714285714285
 40
0.4285714285714285
 40
0.4285714285714285
 40
0.5714285714285714
 40
0.5714285714285714
 40
0.5714285714285714
 40
0.5714285714285714
 40
0.7142857142857143
 40
0.7142857142857143
 40
0.7142857142857143
 40
0.7142857142857143
 40
1.0
 40
1.0
 40
1.0
 40
1.0
 10
-167.8239
 20
-91.9213
 30
0.0
 10
-174.3389
 20
-92.3284
 30
0.0
 10
-174.3233
 20
-98.0253
 30
0.0
 10
-172.7935
 20
-100.0672
 30
0.0
 10
-172.7935
 20
-100.0672
 30
0.0
 10
-170.9396
 20
-98.2924
 30
0.0
 10
-166.9462
 20
-96.6343
 30
0.0
 10
-163.7359
 20
-98.6435
 30
0.0
 10
-163.7359
 20
-98.6435
 30
0.0
 10
-156.0115
 20
-103.5523
 30
0.0
 10
-146.9983
 20
-105.4439
 30
0.0
 10
-144.5038
 20
-105.471
 30
0.0
 10
-144.5038
 20
-105.471
 30
0.0
 10
-144.5038
 20
-105.471
 30
0.0
 10
-178.1297
 20
-105.471
 30
0.0
 10
-178.1297
 20
-105.471
 30
0.0
 10
-178.1297
 20
-105.471
 30
0.0
 10
-178.1297
 20
-105.471
 30
0.0
 10
-178.1297
 20
-76.9924
 30
0.0
 10
-178.1297
 20
-76.9924
 30
0.0
 10
-178.1297
 20
-76.9924
 30
0.0
 10
-175.9775
 20
-83.918
 30
0.0
 10
-173.024
 20
-88.2888
 30
0.0
 10
-167.8239
 20
-91.9213
 30
0.0
  0
SPLINE
  5
67
330
1F
100
AcDbEntity
  8
layer 1
 62
     7
100
AcDbSpline
210
0.0
220
0.0
230
1.0
 70
    11
 71
     3
 72
    32
 73
    28
 74
     0
 42
0.0000000001
 43
0.0000000001
 12
1.0
 22
0.0
 32
0.0
 13
1.0
 23
0.0
 33
0.0
 40
0.0
 40
0.0
 40
0.0
 40
0.0
 40
0.125
 40
0.125
 40
0.125
 40
0.125
 40
0.25
 40
0.25
 40
0.25
 40
0.25
 40
0.375
 40
0.375
 40
0.375
 40
0.375
 40
0.5
 40
0.5
 40
0.5
 40
0.5
 40
0.625
 40
0.625
 40
0.625
 40
0.625
 40
0.75
 40
0.75
 40
0.75
 40
0.75
 40
1.0
 40
1.0
 40
1.0
 40
1.0
 10
-137.6506
 20
-105.471
 30
0.0
 10
-129.0857
 20
-103.6171
 30
0.0
 10
-118.4453
 20
-99.5253
 30
0.0
 10
-111.9268
 20
-91.8384
 30
0.0
 10
-111.9268
 20
-91.8384
 30
0.0
 10
-112.1447
 20
-96.537
 30
0.0
 10
-103.3428
 20
-100.9075
 30
0.0
 10
-100.1626
 20
-93.8727
 30
0.0
 10
-100.1626
 20
-93.8727
 30
0.0
 10
-112.5477
 20
-90.293
 30
0.0
 10
-98.9502
 20
-80.787
 30
0.0
 10
-98.9567
 20
-71.9244
 30
0.0
 10
-98.9567
 20
-71.9244
 30
0.0
 10
-98.9682
 20
-80.787
 30
0.0
 10
-85.3666
 20
-90.293
 30
0.0
 10
-97.755
 20
-93.8727
 30
0.0
 10
-97.755
 20
-93.8727
 30
0.0
 10
-94.5718
 20
-100.9075
 30
0.0
 10
-85.7729
 20
-96.537
 30
0.0
 10
-85.9878
 20
-91.8384
 30
0.0
 10
-85.9878
 20
-91.8384
 30
0.0
 10
-79.4731
 20
-99.5253
 30
0.0
 10
-68.8326
 20
-103.6171
 30
0.0
 10
-60.2681
 20
-105.471
 30
0.0
 10
-60.2681
 20
-105.471
 30
0.0
 10
-60.2681
 20
-105.471
 30
0.0
 10
-137.6506
 20
-105.471
 30
0.0
 10
-137.6506
 20
-105.471
 30
0.0
  0
SPLINE
  5
68
330
1F
100
AcDbEntity
  8
layer 1
 62
     7
100
AcDbSpline
210
0.0
220
0.0
230
1.0
 70
    11
 71
     3
 72
    16
 73
    12
 74
     0
 42
0.0000000001
 43
0.0000000001
 12
1.0
 22
0.0
 32
0.0
 13
1.0
 23
0.0
 33
0.0
 40
0.0
 40
0.0
 40
0.0
 40
0.0
 40
0.25
 40
0.25
 40
0.25
 40
0.25
 40
0.5
 40
0.5
 40
0.5
 40
0.5
 40
1.0
 40
1.0
 40
1.0
 40
1.0
 10
-115.6607
 20
-59.9655
 30
0.0
 10
-110.8831
 20
-53.6619
 30
0.0
 10
-113.0418
 20
-45.0363
 30
0.0
 10
-110.5397
 20
-39.9046
 30
0.0
 10
-110.5397
 20
-39.9046
 30
0.0
 10
-106.2441
 20
-49.7502
 30
0.0
 10
-105.785
 20
-58.7364
 30
0.0
 10
-106.1055
 20
-61.6755
 30
0.0
 10
-106.1055
 20
-61.6755
 30
0.0
 10
-108.32
 20
-59.2004
 30
0.0
 10
-111.5456
 20
-59.0123
 30
0.0
 10
-115.6607
 20
-59.9655
 30
0.0
  0
SPLINE
  5
69
330
1F
100
AcDbEntity
  8
layer 1
 62
     7
100
AcDbSpline
210
0.0
220
0.0
230
1.0
 70
    11
 71
     3
 72
    28
 73
    24
 74
     0
 42
0.0000000001
 43
0.0000000001
 12
1.0
 22
0.0
 32
0.0
 13
1.0
 23
0.0
 33
0.0
 40
0.0
 40
0.0
 40
0.0
 40
0.0
 40
0.1428571428571428
 40
0.1428571428571428
 40
0.1428571428571428
 40
0.1428571428571428
 40
0.2857142857142857
 40
0.2857142857142857
 40
0.2857142857142857
 40
0.2857142857142857
 40
0.4285714285714285
 40
0.4285714285714285
 40
0.4285714285714285
 40
0.4285714285714285
 40
0.5714285714285714
 40
0.5714285714285714
 40
0.5714285714285714
 40
0.5714285714285714
 40
0.7142857142857143
 40
0.7142857142857143
 40
0.7142857142857143
 40
0.7142857142857143
 40
1.0
 40
1.0
 40
1.0
 40
1.0
 10
-166.6441
 20
-35.6208
 30
0.0
 10
-172.1192
 20
-37.1392
 30
0.0
 10
-171.4788
 20
-41.5138
 30
0.0
 10
-170.2276
 20
-42.4483
 30
0.0
 10
-170.2276
 20
-42.4483
 30
0.0
 10
-163.0348
 20
-35.3346
 30
0.0
 10
-160.0088
 20
-49.1435
 30
0.0
 10
-167.6205
 20
-50.0444
 30
0.0
 10
-167.6205
 20
-50.0444
 30
0.0
 10
-167.6656
 20
-46.5585
 30
0.0
 10
-172.8049
 20
-44.7055
 30
0.0
 10
-175.5108
 20
-47.9872
 30
0.0
 10
-175.5108
 20
-47.9872
 30
0.0
 10
-166.8631
 20
-52.429
 30
0.0
 10
-176.8514
 20
-55.8958
 30
0.0
 10
-178.1297
 20
-68.1076
 30
0.0
 10
-178.1297
 20
-68.1076
 30
0.0
 10
-178.1297
 20
-68.1076
 30
0.0
 10
-178.1297
 20
-23.8386
 30
0.0
 10
-178.1297
 20
-23.8386
 30
0.0
 10
-178.1297
 20
-23.8386
 30
0.0
 10
-176.9498
 20
-31.7357
 30
0.0
 10
-171.3582
 20
-35.1801
 30
0.0
 10
-166.6441
 20
-35.6208
 30
0.0
  0
SPLINE
  5
6A
330
1F
100
AcDbEntity
  8
layer 1
 62
     7
100
AcDbSpline
210
0.0
220
0.0
230
1.0
 70
    11
 71
     3
 72
    28
 73
    24
 74
     0
 42
0.0000000001
 43
0.0000000001
 12
1.0
 22
0.0
 32
0.0
 13
1.0
 23
0.0
 33
0.0
 40
0.0
 40
0.0
 40
0.0
 40
0.0
 40
0.1428571428571428
 40
0.1428571428571428
 40
0.1428571428571428
 40
0.1428571428571428
 40
0.2857142857142857
 40
0.2857142857142857
 40
0.2857142857142857
 40
0.2857142857142857
 40
0.4285714285714285
 40
0.4285714285714285
 40
0.4285714285714285
 40
0.4285714285714285
 40
0.5714285714285714
 40
0.5714285714285714
 40
0.5714285714285714
 40
0.5714285714285714
 40
0.7142857142857143
 40
0.7142857142857143
 40
0.7142857142857143
 40
0.7142857142857143
 40
1.0
 40
1.0
 40
1.0
 40
1.0
 10
-173.9279
 20
1.8708
 30
0.0
 10
-172.1115
 20
4.5457
 30
0.0
 10
-167.7785
 20
5.2613
 30
0.0
 10
-163.0838
 20
6.2114
 30
0.0
 10
-163.0838
 20
6.2114
 30
0.0
 10
-166.4368
 20
4.2099
 30
0.0
 10
-170.3146
 20
2.9705
 30
0.0
 10
-171.9234
 20
-1.3808
 30
0.0
 10
-171.9234
 20
-1.3808
 30
0.0
 10
-170.6192
 20
-2.384
 30
0.0
 10
-169.293
 20
-2.5528
 30
0.0
 10
-166.8401
 20
-3.4914
 30
0.0
 10
-166.8401
 20
-3.4914
 30
0.0
 10
-174.1466
 20
-6.0496
 30
0.0
 10
-176.8254
 20
-10.3487
 30
0.0
 10
-178.1297
 20
-14.3132
 30
0.0
 10
-178.1297
 20
-14.3132
 30
0.0
 10
-178.1297
 20
-14.3132
 30
0.0
 10
-178.1297
 20
5.9771
 30
0.0
 10
-178.1297
 20
5.9771
 30
0.0
 10
-178.1297
 20
5.9771
 30
0.0
 10
-175.718
 20
5.7813
 30
0.0
 10
-173.92
 20
4.5949
 30
0.0
 10
-173.9279
 20
1.8708
 30
0.0
  0
SPLINE
  5
6B
330
1F
100
AcDbEntity
  8
layer 1
 62
     7
100
AcDbSpline
210
0.0
220
0.0
230
1.0
 70
    11
 71
     3
 72
    48
 73
    44
 74
     0
 42
0.0000000001
 43
0.0000000001
 12
1.0
 22
0.0
 32
0.0
 13
1.0
 23
0.0
 33
0.0
 40
0.0
 40
0.0
 40
0.0
 40
0.0
 40
0.0833333333333333
 40
0.0833333333333333
 40
0.0833333333333333
 40
0.0833333333333333
 40
0.1666666666666667
 40
0.1666666666666667
 40
0.1666666666666667
 40
0.1666666666666667
 40
0.25
 40
0.25
 40
0.25
 40
0.25
 40
0.3333333333333333
 40
0.3333333333333333
 40
0.3333333333333333
 40
0.3333333333333333
 40
0.4166666666666667
 40
0.4166666666666667
 40
0.4166666666666667
 40
0.4166666666666667
 40
0.5
 40
0.5
 40
0.5
 40
0.5
 40
0.5833333333333334
 40
0.5833333333333334
 40
0.5833333333333334
 40
0.5833333333333334
 40
0.6666666666666666
 40
0.6666666666666666
 40
0.6666666666666666
 40
0.6666666666666666
 40
0.75
 40
0.75
 40
0.75
 40
0.75
 40
0.8333333333333334
 40
0.8333333333333334
 40
0.8333333333333334
 40
0.8333333333333334
 40
1.0
 40
1.0
 40
1.0
 40
1.0
 10
-133.4641
 20
-62.4329
 30
0.0
 10
-126.5008
 20
-58.8425
 30
0.0
 10
-121.6972
 20
-65.5986
 30
0.0
 10
-126.655
 20
-71.1142
 30
0.0
 10
-126.655
 20
-71.1142
 30
0.0
 10
-128.015
 20
-72.6296
 30
0.0
 10
-134.828
 20
-73.7668
 30
0.0
 10
-137.2134
 20
-66.4878
 30
0.0
 10
-137.2134
 20
-66.4878
 30
0.0
 10
-137.2954
 20
-62.81
 30
0.0
 10
-137.5106
 20
-60.278
 30
0.0
 10
-137.337
 20
-57.6591
 30
0.0
 10
-137.337
 20
-57.6591
 30
0.0
 10
-135.5362
 20
-57.4409
 30
0.0
 10
-131.5909
 20
-58.1568
 30
0.0
 10
-131.3467
 20
-52.1993
 30
0.0
 10
-131.3467
 20
-52.1993
 30
0.0
 10
-134.4963
 20
-51.9699
 30
0.0
 10
-136.9752
 20
-49.8826
 30
0.0
 10
-137.6572
 20
-46.9202
 30
0.0
 10
-137.6572
 20
-46.9202
 30
0.0
 10
-127.04
 20
-49.6635
 30
0.0
 10
-118.5391
 20
-40.7189
 30
0.0
 10
-119.8094
 20
-25.2623
 30
0.0
 10
-119.8094
 20
-25.2623
 30
0.0
 10
-117.6573
 20
-28.5631
 30
0.0
 10
-116.1507
 20
-30.1952
 30
0.0
 10
-113.4749
 20
-34.5244
 30
0.0
 10
-113.4749
 20
-34.5244
 30
0.0
 10
-117.5214
 20
-37.9081
 30
0.0
 10
-120.6417
 20
-46.8489
 30
0.0
 10
-117.9931
 20
-51.668
 30
0.0
 10
-117.9931
 20
-51.668
 30
0.0
 10
-120.9803
 20
-48.2773
 30
0.0
 10
-122.1486
 20
-46.4234
 30
0.0
 10
-123.8258
 20
-45.0481
 30
0.0
 10
-123.8258
 20
-45.0481
 30
0.0
 10
-124.692
 20
-47.1584
 30
0.0
 10
-126.8248
 20
-49.7956
 30
0.0
 10
-124.9564
 20
-57.9339
 30
0.0
 10
-124.9564
 20
-57.9339
 30
0.0
 10
-130.4083
 20
-52.8285
 30
0.0
 10
-134.7036
 20
-59.1176
 30
0.0
 10
-133.4641
 20
-62.4329
 30
0.0
  0
SPLINE
  5
6C
330
1F
100
AcDbEntity
  8
layer 1
 62
     7
100
AcDbSpline
210
0.0
220
0.0
230
1.0
 70
    11
 71
     3
 72
    32
 73
    28
 74
     0
 42
0.0000000001
 43
0.0000000001
 12
1.0
 22
0.0
 32
0.0
 13
1.0
 23
0.0
 33
0.0
 40
0.0
 40
0.0
 40
0.0
 40
0.0
 40
0.125
 40
0.125
 40
0.125
 40
0.125
 40
0.25
 40
0.25
 40
0.25
 40
0.25
 40
0.375
 40
0.375
 40
0.375
 40
0.375
 40
0.5
 40
0.5
 40
0.5
 40
0.5
 40
0.625
 40
0.625
 40
0.625
 40
0.625
 40
0.75
 40
0.75
 40
0.75
 40
0.75
 40
1.0
 40
1.0
 40
1.0
 40
1.0
 10
-141.8772
 20
-31.8041
 30
0.0
 10
-140.7324
 20
-39.2345
 30
0.0
 10
-134.5868
 20
-36.7476
 30
0.0
 10
-133.3851
 20
-35.9219
 30
0.0
 10
-133.3851
 20
-35.9219
 30
0.0
 10
-131.3016
 20
-34.4981
 30
0.0
 10
-128.5014
 20
-28.5177
 30
0.0
 10
-135.0615
 20
-24.9689
 30
0.0
 10
-135.0615
 20
-24.9689
 30
0.0
 10
-132.3789
 20
-23.4845
 30
0.0
 10
-129.8844
 20
-21.0652
 30
0.0
 10
-128.1889
 20
-18.1444
 30
0.0
 10
-128.1889
 20
-18.1444
 30
0.0
 10
-124.8542
 20
-20.3302
 30
0.0
 10
-122.6761
 20
-31.751
 30
0.0
 10
-130.5327
 20
-35.1907
 30
0.0
 10
-130.5327
 20
-35.1907
 30
0.0
 10
-129.1689
 20
-36.574
 30
0.0
 10
-127.0205
 20
-37.5048
 30
0.0
 10
-125.4831
 20
-37.5761
 30
0.0
 10
-125.4831
 20
-37.5761
 30
0.0
 10
-128.9914
 20
-41.7508
 30
0.0
 10
-131.942
 20
-42.7155
 30
0.0
 10
-135.0992
 20
-42.7494
 30
0.0
 10
-135.0992
 20
-42.7494
 30
0.0
 10
-140.5626
 20
-43.9552
 30
0.0
 10
-146.0416
 20
-36.031
 30
0.0
 10
-141.8772
 20
-31.8041
 30
0.0
  0
SPLINE
  5
6D
330
1F
100
AcDbEntity
  8
layer 1
 62
     7
100
AcDbSpline
210
0.0
220
0.0
230
1.0
 70
    11
 71
     3
 72
    32
 73
    28
 74
     0
 42
0.0000000001
 43
0.0000000001
 12
1.0
 22
0.0
 32
0.0
 13
1.0
 23
0.0
 33
0.0
 40
0.0
 40
0.0
 40
0.0
 40
0.0
 40
0.125
 40
0.125
 40
0.125
 40
0.125
 40
0.25
 40
0.25
 40
0.25
 40
0.25
 40
0.375
 40
0.375
 40
0.375
 40
0.375
 40
0.5
 40
0.5
 40
0.5
 40
0.5
 40
0.625
 40
0.625
 40
0.625
 40
0.625
 40
0.75
 40
0.75
 40
0.75
 40
0.75
 40
1.0
 40
1.0
 40
1.0
 40
1.0
 10
-162.0518
 20
-35.6586
 30
0.0
 10
-155.2686
 20
-36.3443
 30
0.0
 10
-148.3091
 20
-30.2212
 30
0.0
 10
-150.4418
 20
-22.35
 30
0.0
 10
-150.4418
 20
-22.35
 30
0.0
 10
-149.1348
 20
-25.0665
 30
0.0
 10
-147.7065
 20
-25.624
 30
0.0
 10
-145.1483
 20
-25.8573
 30
0.0
 10
-145.1483
 20
-25.8573
 30
0.0
 10
-148.174
 20
-28.6758
 30
0.0
 10
-148.3506
 20
-32.7832
 30
0.0
 10
-148.0652
 20
-34.9042
 30
0.0
 10
-148.0652
 20
-34.9042
 30
0.0
 10
-152.515
 20
-33.6803
 30
0.0
 10
-154.9378
 20
-36.3473
 30
0.0
 10
-155.3788
 20
-38.8987
 30
0.0
 10
-155.3788
 20
-38.8987
 30
0.0
 10
-151.4893
 20
-37.4635
 30
0.0
 10
-144.9678
 20
-44.6226
 30
0.0
 10
-143.4303
 20
-44.6978
 30
0.0
 10
-143.4303
 20
-44.6978
 30
0.0
 10
-149.0143
 20
-43.7553
 30
0.0
 10
-154.6359
 20
-43.6801
 30
0.0
 10
-157.7932
 20
-44.3815
 30
0.0
 10
-157.7932
 20
-44.3815
 30
0.0
 10
-155.6159
 20
-41.7287
 30
0.0
 10
-156.8698
 20
-36.8488
 30
0.0
 10
-162.0518
 20
-35.6586
 30
0.0
  0
SPLINE
  5
6E
330
1F
100
AcDbEntity
  8
layer 1
 62
     7
100
AcDbSpline
210
0.0
220
0.0
230
1.0
 70
    11
 71
     3
 72
    32
 73
    28
 74
     0
 42
0.0000000001
 43
0.0000000001
 12
1.0
 22
0.0
 32
0.0
 13
1.0
 23
0.0
 33
0.0
 40
0.0
 40
0.0
 40
0.0
 40
0.0
 40
0.125
 40
0.125
 40
0.125
 40
0.125
 40
0.25
 40
0.25
 40
0.25
 40
0.25
 40
0.375
 40
0.375
 40
0.375
 40
0.375
 40
0.5
 40
0.5
 40
0.5
 40
0.5
 40
0.625
 40
0.625
 40
0.625
 40
0.625
 40
0.75
 40
0.75
 40
0.75
 40
0.75
 40
1.0
 40
1.0
 40
1.0
 40
1.0
 10
-162.9402
 20
-79.8639
 30
0.0
 10
-165.3516
 20
-78.4692
 30
0.0
 10
-167.9628
 20
-79.4647
 30
0.0
 10
-169.0557
 20
-81.4613
 30
0.0
 10
-169.0557
 20
-81.4613
 30
0.0
 10
-169.7529
 20
-77.9453
 30
0.0
 10
-170.2536
 20
-76.2052
 30
0.0
 10
-169.9189
 20
-72.2861
 30
0.0
 10
-169.9189
 20
-72.2861
 30
0.0
 10
-163.7504
 20
-69.9084
 30
0.0
 10
-163.5546
 20
-74.7585
 30
0.0
 10
-158.9689
 20
-73.6202
 30
0.0
 10
-158.9689
 20
-73.6202
 30
0.0
 10
-162.232
 20
-75.9525
 30
0.0
 10
-160.6492
 20
-80.1803
 30
0.0
 10
-158.7171
 20
-80.8015
 30
0.0
 10
-158.7171
 20
-80.8015
 30
0.0
 10
-158.611
 20
-72.9161
 30
0.0
 10
-153.2759
 20
-78.963
 30
0.0
 10
-148.5475
 20
-74.8829
 30
0.0
 10
-148.5475
 20
-74.8829
 30
0.0
 10
-149.6809
 20
-82.6179
 30
0.0
 10
-159.8245
 20
-83.3567
 30
0.0
 10
-156.6065
 20
-95.3312
 30
0.0
 10
-156.6065
 20
-95.3312
 30
0.0
 10
-158.8782
 20
-91.5675
 30
0.0
 10
-166.0644
 20
-89.6526
 30
0.0
 10
-162.9402
 20
-79.8639
 30
0.0
  0
SPLINE
  5
6F
330
1F
100
AcDbEntity
  8
layer 1
 62
     7
100
AcDbSpline
210
0.0
220
0.0
230
1.0
 70
    11
 71
     3
 72
    32
 73
    28
 74
     0
 42
0.0000000001
 43
0.0000000001
 12
1.0
 22
0.0
 32
0.0
 13
1.0
 23
0.0
 33
0.0
 40
0.0
 40
0.0
 40
0.0
 40
0.0
 40
0.125
 40
0.125
 40
0.125
 40
0.125
 40
0.25
 40
0.25
 40
0.25
 40
0.25
 40
0.375
 40
0.375
 40
0.375
 40
0.375
 40
0.5
 40
0.5
 40
0.5
 40
0.5
 40
0.625
 40
0.625
 40
0.625
 40
0.625
 40
0.75
 40
0.75
 40
0.75
 40
0.75
 40
1.0
 40
1.0
 40
1.0
 40
1.0
 10
-150.7024
 20
-97.3655
 30
0.0
 10
-146.2595
 20
-96.4049
 30
0.0
 10
-146.4033
 20
-91.7517
 30
0.0
 10
-148.3208
 20
-90.2334
 30
0.0
 10
-148.3208
 20
-90.2334
 30
0.0
 10
-151.0264
 20
-88.0968
 30
0.0
 10
-154.0593
 20
-90.2788
 30
0.0
 10
-154.3726
 20
-92.8069
 30
0.0
 10
-154.3726
 20
-92.8069
 30
0.0
 10
-156.9087
 20
-87.7843
 30
0.0
 10
-146.9154
 20
-82.5309
 30
0.0
 10
-143.2452
 20
-76.5852
 30
0.0
 10
-143.2452
 20
-76.5852
 30
0.0
 10
-139.9077
 20
-80.5497
 30
0.0
 10
-141.6632
 20
-90.7871
 30
0.0
 10
-144.0332
 20
-90.9645
 30
0.0
 10
-144.0332
 20
-90.9645
 30
0.0
 10
-141.9226
 20
-94.2722
 30
0.0
 10
-138.4414
 20
-94.2383
 30
0.0
 10
-136.3124
 20
-91.1226
 30
0.0
 10
-136.3124
 20
-91.1226
 30
0.0
 10
-136.7043
 20
-94.1852
 30
0.0
 10
-134.0178
 20
-96.484
 30
0.0
 10
-132.4281
 20
-96.8911
 30
0.0
 10
-132.4281
 20
-96.8911
 30
0.0
 10
-135.5179
 20
-99.4269
 30
0.0
 10
-146.8555
 20
-98.8499
 30
0.0
 10
-150.7024
 20
-97.3655
 30
0.0
  0
SPLINE
  5
70
330
1F
100
AcDbEntity
  8
layer 1
 62
     7
100
AcDbSpline
210
0.0
220
0.0
230
1.0
 70
    11
 71
     3
 72
    36
 73
    32
 74
     0
 42
0.0000000001
 43
0.0000000001
 12
1.0
 22
0.0
 32
0.0
 13
1.0
 23
0.0
 33
0.0
 40
0.0
 40
0.0
 40
0.0
 40
0.0
 40
0.1111111111111111
 40
0.1111111111111111
 40
0.1111111111111111
 40
0.1111111111111111
 40
0.2222222222222222
 40
0.2222222222222222
 40
0.2222222222222222
 40
0.2222222222222222
 40
0.3333333333333333
 40
0.3333333333333333
 40
0.3333333333333333
 40
0.3333333333333333
 40
0.4444444444444444
 40
0.4444444444444444
 40
0.4444444444444444
 40
0.4444444444444444
 40
0.5555555555555556
 40
0.5555555555555556
 40
0.5555555555555556
 40
0.5555555555555556
 40
0.6666666666666666
 40
0.6666666666666666
 40
0.6666666666666666
 40
0.6666666666666666
 40
0.7777777777777778
 40
0.7777777777777778
 40
0.7777777777777778
 40
0.7777777777777778
 40
1.0
 40
1.0
 40
1.0
 40
1.0
 10
-169.8361
 20
-69.9237
 30
0.0
 10
-170.2883
 20
-69.6333
 30
0.0
 10
-166.46
 20
-59.9422
 30
0.0
 10
-155.8871
 20
-62.7946
 30
0.0
 10
-155.8871
 20
-62.7946
 30
0.0
 10
-157.1796
 20
-59.6152
 30
0.0
 10
-155.4685
 20
-57.2752
 30
0.0
 10
-152.7405
 20
-57.5798
 30
0.0
 10
-152.7405
 20
-57.5798
 30
0.0
 10
-151.1768
 20
-57.7718
 30
0.0
 10
-148.6334
 20
-60.2025
 30
0.0
 10
-151.5503
 20
-63.0927
 30
0.0
 10
-151.5503
 20
-63.0927
 30
0.0
 10
-148.5319
 20
-64.9427
 30
0.0
 10
-146.377
 20
-62.5803
 30
0.0
 10
-145.6913
 20
-59.3771
 30
0.0
 10
-145.6913
 20
-59.3771
 30
0.0
 10
-145.6188
 20
-62.6779
 30
0.0
 10
-145.9661
 20
-66.3104
 30
0.0
 10
-147.5183
 20
-68.7895
 30
0.0
 10
-147.5183
 20
-68.7895
 30
0.0
 10
-151.3428
 20
-73.2844
 30
0.0
 10
-157.2808
 20
-68.5793
 30
0.0
 10
-150.9203
 20
-65.3873
 30
0.0
 10
-150.9203
 20
-65.3873
 30
0.0
 10
-156.2825
 20
-61.9998
 30
0.0
 10
-158.7133
 20
-65.7791
 30
0.0
 10
-157.9406
 20
-68.9293
 30
0.0
 10
-157.9406
 20
-68.9293
 30
0.0
 10
-159.8428
 20
-66.8717
 30
0.0
 10
-166.1396
 20
-66.1447
 30
0.0
 10
-169.8361
 20
-69.9237
 30
0.0
  0
SPLINE
  5
71
330
1F
100
AcDbEntity
  8
layer 1
 62
     7
100
AcDbSpline
210
0.0
220
0.0
230
1.0
 70
    11
 71
     3
 72
    16
 73
    12
 74
     0
 42
0.0000000001
 43
0.0000000001
 12
1.0
 22
0.0
 32
0.0
 13
1.0
 23
0.0
 33
0.0
 40
0.0
 40
0.0
 40
0.0
 40
0.0
 40
0.25
 40
0.25
 40
0.25
 40
0.25
 40
0.5
 40
0.5
 40
0.5
 40
0.5
 40
1.0
 40
1.0
 40
1.0
 40
1.0
 10
-169.1503
 20
-60.4593
 30
0.0
 10
-163.3096
 20
-50.8614
 30
0.0
 10
-150.5105
 20
-46.3105
 30
0.0
 10
-141.5956
 20
-53.4727
 30
0.0
 10
-141.5956
 20
-53.4727
 30
0.0
 10
-142.7407
 20
-53.7516
 30
0.0
 10
-143.6039
 20
-54.5888
 30
0.0
 10
-144.4587
 20
-55.6169
 30
0.0
 10
-144.4587
 20
-55.6169
 30
0.0
 10
-146.2034
 20
-52.2748
 30
0.0
 10
-157.47
 20
-49.5208
 30
0.0
 10
-169.1503
 20
-60.4593
 30
0.0
  0
SPLINE
  5
72
330
1F
100
AcDbEntity
  8
layer 1
 62
     7
100
AcDbSpline
210
0.0
220
0.0
230
1.0
 70
    11
 71
     3
 72
    48
 73
    44
 74
     0
 42
0.0000000001
 43
0.0000000001
 12
1.0
 22
0.0
 32
0.0
 13
1.0
 23
0.0
 33
0.0
 40
0.0
 40
0.0
 40
0.0
 40
0.0
 40
0.0833333333333333
 40
0.0833333333333333
 40
0.0833333333333333
 40
0.0833333333333333
 40
0.1666666666666667
 40
0.1666666666666667
 40
0.1666666666666667
 40
0.1666666666666667
 40
0.25
 40
0.25
 40
0.25
 40
0.25
 40
0.3333333333333333
 40
0.3333333333333333
 40
0.3333333333333333
 40
0.3333333333333333
 40
0.4166666666666667
 40
0.4166666666666667
 40
0.4166666666666667
 40
0.4166666666666667
 40
0.5
 40
0.5
 40
0.5
 40
0.5
 40
0.5833333333333334
 40
0.5833333333333334
 40
0.5833333333333334
 40
0.5833333333333334
 40
0.6666666666666666
 40
0.6666666666666666
 40
0.6666666666666666
 40
0.6666666666666666
 40
0.75
 40
0.75
 40
0.75
 40
0.75
 40
0.8333333333333334
 40
0.8333333333333334
 40
0.8333333333333334
 40
0.8333333333333334
 40
1.0
 40
1.0
 40
1.0
 40
1.0
 10
-134.4922
 20
-16.8451
 30
0.0
 10
-137.6727
 20
-20.9293
 30
0.0
 10
-142.0055
 20
-21.641
 30
0.0
 10
-143.2903
 20
-21.2533
 30
0.0
 10
-143.2903
 20
-21.2533
 30
0.0
 10
-137.2057
 20
-13.7518
 30
0.0
 10
-150.6947
 20
-8.2507
 30
0.0
 10
-151.8628
 20
-18.5256
 30
0.0
 10
-151.8628
 20
-18.5256
 30
0.0
 10
-155.235
 20
-12.1842
 30
0.0
 10
-163.0646
 20
-16.7661
 30
0.0
 10
-163.5469
 20
-18.4879
 30
0.0
 10
-163.5469
 20
-18.4879
 30
0.0
 10
-166.6856
 20
-24.5388
 30
0.0
 10
-161.4558
 20
-29.0337
 30
0.0
 10
-159.9191
 20
-29.11
 30
0.0
 10
-159.9191
 20
-29.11
 30
0.0
 10
-165.669
 20
-32.075
 30
0.0
 10
-172.4511
 20
-26.9658
 30
0.0
 10
-172.2398
 20
-19.9348
 30
0.0
 10
-172.2398
 20
-19.9348
 30
0.0
 10
-172.2176
 20
-16.3475
 30
0.0
 10
-165.7702
 20
-4.5542
 30
0.0
 10
-156.8931
 20
-13.6911
 30
0.0
 10
-156.8931
 20
-13.6911
 30
0.0
 10
-155.2465
 20
-13.1905
 30
0.0
 10
-154.8396
 20
-8.0733
 30
0.0
 10
-158.7316
 20
-6.6378
 30
0.0
 10
-158.7316
 20
-6.6378
 30
0.0
 10
-156.8816
 20
-6.0833
 30
0.0
 10
-148.8108
 20
-3.6987
 30
0.0
 10
-146.5159
 20
-10.9139
 30
0.0
 10
-146.5159
 20
-10.9139
 30
0.0
 10
-145.0509
 20
-10.3003
 30
0.0
 10
-144.3118
 20
-8.8719
 30
0.0
 10
-144.3717
 20
-7.3913
 30
0.0
 10
-144.3717
 20
-7.3913
 30
0.0
 10
-140.5104
 20
-8.514
 30
0.0
 10
-136.9867
 20
-9.9233
 30
0.0
 10
-134.583
 20
-11.8263
 30
0.0
 10
-134.583
 20
-11.8263
 30
0.0
 10
-133.0154
 20
-12.7081
 30
0.0
 10
-132.7967
 20
-14.942
 30
0.0
 10
-134.4922
 20
-16.8451
 30
0.0
  0
SPLINE
  5
73
330
1F
100
AcDbEntity
  8
layer 1
 62
     7
100
AcDbSpline
210
0.0
220
0.0
230
1.0
 70
    11
 71
     3
 72
    16
 73
    12
 74
     0
 42
0.0000000001
 43
0.0000000001
 12
1.0
 22
0.0
 32
0.0
 13
1.0
 23
0.0
 33
0.0
 40
0.0
 40
0.0
 40
0.0
 40
0.0
 40
0.25
 40
0.25
 40
0.25
 40
0.25
 40
0.5
 40
0.5
 40
0.5
 40
0.5
 40
1.0
 40
1.0
 40
1.0
 40
1.0
 10
-154.7412
 20
-0.3604
 30
0.0
 10
-153.5392
 20
0.9324
 30
0.0
 10
-152.3528
 20
3.4643
 30
0.0
 10
-151.614
 20
5.4196
 30
0.0
 10
-151.614
 20
5.4196
 30
0.0
 10
-145.3334
 20
3.8066
 30
0.0
 10
-139.1041
 20
1.3392
 30
0.0
 10
-135.7965
 20
-3.2541
 30
0.0
 10
-135.7965
 20
-3.2541
 30
0.0
 10
-141.5502
 20
-0.8649
 30
0.0
 10
-146.0973
 20
1.0904
 30
0.0
 10
-154.7412
 20
-0.3604
 30
0.0
  0
SPLINE
  5
74
330
1F
100
AcDbEntity
  8
layer 1
 62
     7
100
AcDbSpline
210
0.0
220
0.0
230
1.0
 70
    11
 71
     3
 72
    16
 73
    12
 74
     0
 42
0.0000000001
 43
0.0000000001
 12
1.0
 22
0.0
 32
0.0
 13
1.0
 23
0.0
 33
0.0
 40
0.0
 40
0.0
 40
0.0
 40
0.0
 40
0.25
 40
0.25
 40
0.25
 40
0.25
 40
0.5
 40
0.5
 40
0.5
 40
0.5
 40
1.0
 40
1.0
 40
1.0
 40
1.0
 10
-165.7366
 20
-2.9484
 30
0.0
 10
-167.0589
 20
0.175
 30
0.0
 10
-163.7244
 20
3.7169
 30
0.0
 10
-159.8283
 20
5.2315
 30
0.0
 10
-159.8283
 20
5.2315
 30
0.0
 10
-159.4212
 20
3.0495
 30
0.0
 10
-158.5656
 20
0.3294
 30
0.0
 10
-157.6581
 20
-0.7897
 30
0.0
 10
-157.6581
 20
-0.7897
 30
0.0
 10
-160.7591
 20
-1.1812
 30
0.0
 10
-163.2836
 20
-1.9433
 30
0.0
 10
-165.7366
 20
-2.9484
 30
0.0
  0
SPLINE
  5
75
330
1F
100
AcDbEntity
  8
layer 1
 62
     7
100
AcDbSpline
210
0.0
220
0.0
230
1.0
 70
    11
 71
     3
 72
    40
 73
    36
 74
     0
 42
0.0000000001
 43
0.0000000001
 12
1.0
 22
0.0
 32
0.0
 13
1.0
 23
0.0
 33
0.0
 40
0.0
 40
0.0
 40
0.0
 40
0.0
 40
0.1
 40
0.1
 40
0.1
 40
0.1
 40
0.2
 40
0.2
 40
0.2
 40
0.2
 40
0.3
 40
0.3
 40
0.3
 40
0.3
 40
0.4
 40
0.4
 40
0.4
 40
0.4
 40
0.5
 40
0.5
 40
0.5
 40
0.5
 40
0.6
 40
0.6
 40
0.6
 40
0.6
 40
0.7
 40
0.7
 40
0.7
 40
0.7
 40
0.8
 40
0.8
 40
0.8
 40
0.8
 40
1.0
 40
1.0
 40
1.0
 40
1.0
 10
-114.4095
 20
-18.51
 30
0.0
 10
-109.4167
 20
-24.6033
 30
0.0
 10
-108.4378
 20
-25.9144
 30
0.0
 10
-105.4003
 20
-31.3663
 30
0.0
 10
-105.4003
 20
-31.3663
 30
0.0
 10
-103.3321
 20
-30.4364
 30
0.0
 10
-100.8029
 20
-30.8771
 30
0.0
 10
-100.1702
 20
-33.5067
 30
0.0
 10
-100.1702
 20
-33.5067
 30
0.0
 10
-101.9606
 20
-33.224
 30
0.0
 10
-102.9436
 20
-33.3331
 30
0.0
 10
-103.8175
 20
-35.2698
 30
0.0
 10
-103.8175
 20
-35.2698
 30
0.0
 10
-100.4229
 20
-41.2841
 30
0.0
 10
-99.6089
 20
-43.6347
 30
0.0
 10
-98.9567
 20
-51.9959
 30
0.0
 10
-98.9567
 20
-51.9959
 30
0.0
 10
-98.4263
 20
-43.6347
 30
0.0
 10
-97.4917
 20
-41.2841
 30
0.0
 10
-94.0963
 20
-35.2698
 30
0.0
 10
-94.0963
 20
-35.2698
 30
0.0
 10
-94.971
 20
-33.3331
 30
0.0
 10
-95.9578
 20
-33.224
 30
0.0
 10
-97.7444
 20
-33.5067
 30
0.0
 10
-97.7444
 20
-33.5067
 30
0.0
 10
-97.1105
 20
-30.8771
 30
0.0
 10
-94.703
 20
-30.3795
 30
0.0
 10
-92.5142
 20
-31.3663
 30
0.0
 10
-92.5142
 20
-31.3663
 30
0.0
 10
-89.4767
 20
-25.9142
 30
0.0
 10
-88.4978
 20
-24.6033
 30
0.0
 10
-83.5051
 20
-18.51
 30
0.0
 10
-83.5051
 20
-18.51
 30
0.0
 10
-93.9948
 20
-24.4182
 30
0.0
 10
-104.7406
 20
-24.0305
 30
0.0
 10
-114.4095
 20
-18.51
 30
0.0
  0
SPLINE
  5
76
330
1F
100
AcDbEntity
  8
layer 1
 62
     7
100
AcDbSpline
210
0.0
220
0.0
230
1.0
 70
    11
 71
     3
 72
    24
 73
    20
 74
     0
 42
0.0000000001
 43
0.0000000001
 12
1.0
 22
0.0
 32
0.0
 13
1.0
 23
0.0
 33
0.0
 40
0.0
 40
0.0
 40
0.0
 40
0.0
 40
0.1666666666666667
 40
0.1666666666666667
 40
0.1666666666666667
 40
0.1666666666666667
 40
0.3333333333333333
 40
0.3333333333333333
 40
0.3333333333333333
 40
0.3333333333333333
 40
0.5
 40
0.5
 40
0.5
 40
0.5
 40
0.6666666666666666
 40
0.6666666666666666
 40
0.6666666666666666
 40
0.6666666666666666
 40
1.0
 40
1.0
 40
1.0
 40
1.0
 10
-142.0432
 20
6.4633
 30
0.0
 10
-137.5636
 20
6.6784
 30
0.0
 10
-133.5432
 20
5.0578
 30
0.0
 10
-133.1284
 20
3.1663
 30
0.0
 10
-133.1284
 20
3.1663
 30
0.0
 10
-133.0272
 20
4.7568
 30
0.0
 10
-132.077
 20
6.2297
 30
0.0
 10
-129.6241
 20
6.6823
 30
0.0
 10
-129.6241
 20
6.6823
 30
0.0
 10
-128.9006
 20
-1.9876
 30
0.0
 10
-126.5645
 20
-5.7562
 30
0.0
 10
-123.9155
 20
-9.9725
 30
0.0
 10
-123.9155
 20
-9.9725
 30
0.0
 10
-125.6345
 20
-8.5102
 30
0.0
 10
-126.9907
 20
-7.233
 30
0.0
 10
-128.2641
 20
-6.5134
 30
0.0
 10
-128.2641
 20
-6.5134
 30
0.0
 10
-131.7569
 20
2.1978
 30
0.0
 10
-138.6218
 20
5.1109
 30
0.0
 10
-142.0432
 20
6.4633
 30
0.0
  0
SPLINE
  5
77
330
1F
100
AcDbEntity
  8
layer 1
 62
     7
100
AcDbSpline
210
0.0
220
0.0
230
1.0
 70
    11
 71
     3
 72
    32
 73
    28
 74
     0
 42
0.0000000001
 43
0.0000000001
 12
1.0
 22
0.0
 32
0.0
 13
1.0
 23
0.0
 33
0.0
 40
0.0
 40
0.0
 40
0.0
 40
0.0
 40
0.125
 40
0.125
 40
0.125
 40
0.125
 40
0.25
 40
0.25
 40
0.25
 40
0.25
 40
0.375
 40
0.375
 40
0.375
 40
0.375
 40
0.5
 40
0.5
 40
0.5
 40
0.5
 40
0.625
 40
0.625
 40
0.625
 40
0.625
 40
0.75
 40
0.75
 40
0.75
 40
0.75
 40
1.0
 40
1.0
 40
1.0
 40
1.0
 10
-80.9728
 20
-70.4968
 30
0.0
 10
-84.6392
 20
-63.1949
 30
0.0
 10
-87.887
 20
-63.2663
 30
0.0
 10
-91.6926
 20
-64.5886
 30
0.0
 10
-91.6926
 20
-64.5886
 30
0.0
 10
-90.886
 20
-76.7966
 30
0.0
 10
-84.1263
 20
-84.5209
 30
0.0
 10
-76.093
 20
-82.4637
 30
0.0
 10
-76.093
 20
-82.4637
 30
0.0
 10
-74.7368
 20
-85.0563
 30
0.0
 10
-77.024
 20
-87.9763
 30
0.0
 10
-79.5223
 20
-87.9984
 30
0.0
 10
-79.5223
 20
-87.9984
 30
0.0
 10
-76.2926
 20
-91.6388
 30
0.0
 10
-74.6955
 20
-93.1347
 30
0.0
 10
-71.6695
 20
-94.7622
 30
0.0
 10
-71.6695
 20
-94.7622
 30
0.0
 10
-72.6196
 20
-92.9081
 30
0.0
 10
-72.3514
 20
-91.7671
 30
0.0
 10
-71.7679
 20
-90.757
 30
0.0
 10
-71.7679
 20
-90.757
 30
0.0
 10
-66.5041
 20
-93.6132
 30
0.0
 10
-61.6579
 20
-90.5005
 30
0.0
 10
-65.1362
 20
-78.9747
 30
0.0
 10
-65.1362
 20
-78.9747
 30
0.0
 10
-75.7206
 20
-83.3944
 30
0.0
 10
-78.8103
 20
-75.3004
 30
0.0
 10
-80.9728
 20
-70.4968
 30
0.0
  0
SPLINE
  5
78
330
1F
100
AcDbEntity
  8
layer 1
 62
     7
100
AcDbSpline
210
0.0
220
0.0
230
1.0
 70
    11
 71
     3
 72
    28
 73
    24
 74
     0
 42
0.0000000001
 43
0.0000000001
 12
1.0
 22
0.0
 32
0.0
 13
1.0
 23
0.0
 33
0.0
 40
0.0
 40
0.0
 40
0.0
 40
0.0
 40
0.1428571428571428
 40
0.1428571428571428
 40
0.1428571428571428
 40
0.1428571428571428
 40
0.2857142857142857
 40
0.2857142857142857
 40
0.2857142857142857
 40
0.2857142857142857
 40
0.4285714285714285
 40
0.4285714285714285
 40
0.4285714285714285
 40
0.4285714285714285
 40
0.5714285714285714
 40
0.5714285714285714
 40
0.5714285714285714
 40
0.5714285714285714
 40
0.7142857142857143
 40
0.7142857142857143
 40
0.7142857142857143
 40
0.7142857142857143
 40
1.0
 40
1.0
 40
1.0
 40
1.0
 10
-30.0907
 20
-91.9213
 30
0.0
 10
-23.5757
 20
-92.3284
 30
0.0
 10
-23.594
 20
-98.0253
 30
0.0
 10
-25.1211
 20
-100.0672
 30
0.0
 10
-25.1211
 20
-100.0672
 30
0.0
 10
-26.9741
 20
-98.2924
 30
0.0
 10
-30.9684
 20
-96.6343
 30
0.0
 10
-34.1787
 20
-98.6435
 30
0.0
 10
-34.1787
 20
-98.6435
 30
0.0
 10
-41.9068
 20
-103.5523
 30
0.0
 10
-50.9163
 20
-105.4439
 30
0.0
 10
-53.4146
 20
-105.471
 30
0.0
 10
-53.4146
 20
-105.471
 30
0.0
 10
-53.4146
 20
-105.471
 30
0.0
 10
-19.7887
 20
-105.471
 30
0.0
 10
-19.7887
 20
-105.471
 30
0.0
 10
-19.7887
 20
-105.471
 30
0.0
 10
-19.7887
 20
-105.471
 30
0.0
 10
-19.7887
 20
-76.9924
 30
0.0
 10
-19.7887
 20
-76.9924
 30
0.0
 10
-19.7887
 20
-76.9924
 30
0.0
 10
-21.9368
 20
-83.918
 30
0.0
 10
-24.8906
 20
-88.2888
 30
0.0
 10
-30.0907
 20
-91.9213
 30
0.0
  0
SPLINE
  5
79
330
1F
100
AcDbEntity
  8
layer 1
 62
     7
100
AcDbSpline
210
0.0
220
0.0
230
1.0
 70
    11
 71
     3
 72
    16
 73
    12
 74
     0
 42
0.0000000001
 43
0.0000000001
 12
1.0
 22
0.0
 32
0.0
 13
1.0
 23
0.0
 33
0.0
 40
0.0
 40
0.0
 40
0.0
 40
0.0
 40
0.25
 40
0.25
 40
0.25
 40
0.25
 40
0.5
 40
0.5
 40
0.5
 40
0.5
 40
1.0
 40
1.0
 40
1.0
 40
1.0
 10
-82.2538
 20
-59.9655
 30
0.0
 10
-87.0353
 20
-53.6619
 30
0.0
 10
-84.8727
 20
-45.0363
 30
0.0
 10
-87.3749
 20
-39.9046
 30
0.0
 10
-87.3749
 20
-39.9046
 30
0.0
 10
-91.6743
 20
-49.7502
 30
0.0
 10
-92.1295
 20
-58.7364
 30
0.0
 10
-91.8091
 20
-61.6755
 30
0.0
 10
-91.8091
 20
-61.6755
 30
0.0
 10
-89.5935
 20
-59.2004
 30
0.0
 10
-86.3728
 20
-59.0123
 30
0.0
 10
-82.2538
 20
-59.9655
 30
0.0
  0
SPLINE
  5
7A
330
1F
100
AcDbEntity
  8
layer 1
 62
     7
100
AcDbSpline
210
0.0
220
0.0
230
1.0
 70
    11
 71
     3
 72
    28
 73
    24
 74
     0
 42
0.0000000001
 43
0.0000000001
 12
1.0
 22
0.0
 32
0.0
 13
1.0
 23
0.0
 33
0.0
 40
0.0
 40
0.0
 40
0.0
 40
0.0
 40
0.1428571428571428
 40
0.1428571428571428
 40
0.1428571428571428
 40
0.1428571428571428
 40
0.2857142857142857
 40
0.2857142857142857
 40
0.2857142857142857
 40
0.2857142857142857
 40
0.4285714285714285
 40
0.4285714285714285
 40
0.4285714285714285
 40
0.4285714285714285
 40
0.5714285714285714
 40
0.5714285714285714
 40
0.5714285714285714
 40
0.5714285714285714
 40
0.7142857142857143
 40
0.7142857142857143
 40
0.7142857142857143
 40
0.7142857142857143
 40
1.0
 40
1.0
 40
1.0
 40
1.0
 10
-31.2702
 20
-35.6208
 30
0.0
 10
-25.7954
 20
-37.1392
 30
0.0
 10
-26.4396
 20
-41.5138
 30
0.0
 10
-27.687
 20
-42.4483
 30
0.0
 10
-27.687
 20
-42.4483
 30
0.0
 10
-34.8836
 20
-35.3346
 30
0.0
 10
-37.905
 20
-49.1435
 30
0.0
 10
-30.2941
 20
-50.0444
 30
0.0
 10
-30.2941
 20
-50.0444
 30
0.0
 10
-30.2487
 20
-46.5585
 30
0.0
 10
-25.1096
 20
-44.7055
 30
0.0
 10
-22.4038
 20
-47.9872
 30
0.0
 10
-22.4038
 20
-47.9872
 30
0.0
 10
-31.0512
 20
-52.429
 30
0.0
 10
-21.0659
 20
-55.8958
 30
0.0
 10
-19.7887
 20
-68.1076
 30
0.0
 10
-19.7887
 20
-68.1076
 30
0.0
 10
-19.7887
 20
-68.1076
 30
0.0
 10
-19.7887
 20
-23.8386
 30
0.0
 10
-19.7887
 20
-23.8386
 30
0.0
 10
-19.7887
 20
-23.8386
 30
0.0
 10
-20.9647
 20
-31.7357
 30
0.0
 10
-26.5563
 20
-35.1801
 30
0.0
 10
-31.2702
 20
-35.6208
 30
0.0
  0
SPLINE
  5
7B
330
1F
100
AcDbEntity
  8
layer 1
 62
     7
100
AcDbSpline
210
0.0
220
0.0
230
1.0
 70
    11
 71
     3
 72
    28
 73
    24
 74
     0
 42
0.0000000001
 43
0.0000000001
 12
1.0
 22
0.0
 32
0.0
 13
1.0
 23
0.0
 33
0.0
 40
0.0
 40
0.0
 40
0.0
 40
0.0
 40
0.1428571428571428
 40
0.1428571428571428
 40
0.1428571428571428
 40
0.1428571428571428
 40
0.2857142857142857
 40
0.2857142857142857
 40
0.2857142857142857
 40
0.2857142857142857
 40
0.4285714285714285
 40
0.4285714285714285
 40
0.4285714285714285
 40
0.4285714285714285
 40
0.5714285714285714
 40
0.5714285714285714
 40
0.5714285714285714
 40
0.5714285714285714
 40
0.7142857142857143
 40
0.7142857142857143
 40
0.7142857142857143
 40
0.7142857142857143
 40
1.0
 40
1.0
 40
1.0
 40
1.0
 10
-23.9867
 20
1.8708
 30
0.0
 10
-25.803
 20
4.5457
 30
0.0
 10
-30.136
 20
5.2613
 30
0.0
 10
-34.8346
 20
6.2114
 30
0.0
 10
-34.8346
 20
6.2114
 30
0.0
 10
-31.4767
 20
4.2099
 30
0.0
 10
-27.6
 20
2.9705
 30
0.0
 10
-25.9912
 20
-1.3808
 30
0.0
 10
-25.9912
 20
-1.3808
 30
0.0
 10
-27.2943
 20
-2.384
 30
0.0
 10
-28.6207
 20
-2.5528
 30
0.0
 10
-31.0736
 20
-3.4914
 30
0.0
 10
-31.0736
 20
-3.4914
 30
0.0
 10
-23.7715
 20
-6.0496
 30
0.0
 10
-21.0891
 20
-10.3487
 30
0.0
 10
-19.7887
 20
-14.3132
 30
0.0
 10
-19.7887
 20
-14.3132
 30
0.0
 10
-19.7887
 20
-14.3132
 30
0.0
 10
-19.7887
 20
5.9771
 30
0.0
 10
-19.7887
 20
5.9771
 30
0.0
 10
-19.7887
 20
5.9771
 30
0.0
 10
-22.1963
 20
5.7813
 30
0.0
 10
-23.9946
 20
4.5949
 30
0.0
 10
-23.9867
 20
1.8708
 30
0.0
  0
SPLINE
  5
7C
330
1F
100
AcDbEntity
  8
layer 1
 62
     7
100
AcDbSpline
210
0.0
220
0.0
230
1.0
 70
    11
 71
     3
 72
    48
 73
    44
 74
     0
 42
0.0000000001
 43
0.0000000001
 12
1.0
 22
0.0
 32
0.0
 13
1.0
 23
0.0
 33
0.0
 40
0.0
 40
0.0
 40
0.0
 40
0.0
 40
0.0833333333333333
 40
0.0833333333333333
 40
0.0833333333333333
 40
0.0833333333333333
 40
0.1666666666666667
 40
0.1666666666666667
 40
0.1666666666666667
 40
0.1666666666666667
 40
0.25
 40
0.25
 40
0.25
 40
0.25
 40
0.3333333333333333
 40
0.3333333333333333
 40
0.3333333333333333
 40
0.3333333333333333
 40
0.4166666666666667
 40
0.4166666666666667
 40
0.4166666666666667
 40
0.4166666666666667
 40
0.5
 40
0.5
 40
0.5
 40
0.5
 40
0.5833333333333334
 40
0.5833333333333334
 40
0.5833333333333334
 40
0.5833333333333334
 40
0.6666666666666666
 40
0.6666666666666666
 40
0.6666666666666666
 40
0.6666666666666666
 40
0.75
 40
0.75
 40
0.75
 40
0.75
 40
0.8333333333333334
 40
0.8333333333333334
 40
0.8333333333333334
 40
0.8333333333333334
 40
1.0
 40
1.0
 40
1.0
 40
1.0
 10
-64.4504
 20
-62.4329
 30
0.0
 10
-71.4138
 20
-58.8425
 30
0.0
 10
-76.2174
 20
-65.5986
 30
0.0
 10
-71.2623
 20
-71.1142
 30
0.0
 10
-71.2623
 20
-71.1142
 30
0.0
 10
-69.8985
 20
-72.6296
 30
0.0
 10
-63.0904
 20
-73.7668
 30
0.0
 10
-60.7012
 20
-66.4878
 30
0.0
 10
-60.7012
 20
-66.4878
 30
0.0
 10
-60.6181
 20
-62.81
 30
0.0
 10
-60.404
 20
-60.278
 30
0.0
 10
-60.5806
 20
-57.6591
 30
0.0
 10
-60.5806
 20
-57.6591
 30
0.0
 10
-62.3784
 20
-57.4409
 30
0.0
 10
-66.3226
 20
-58.1568
 30
0.0
 10
-66.5676
 20
-52.1993
 30
0.0
 10
-66.5676
 20
-52.1993
 30
0.0
 10
-63.4182
 20
-51.9699
 30
0.0
 10
-60.9382
 20
-49.8826
 30
0.0
 10
-60.2563
 20
-46.9202
 30
0.0
 10
-60.2563
 20
-46.9202
 30
0.0
 10
-70.8784
 20
-49.6635
 30
0.0
 10
-79.3755
 20
-40.7189
 30
0.0
 10
-78.1051
 20
-25.2623
 30
0.0
 10
-78.1051
 20
-25.2623
 30
0.0
 10
-80.2573
 20
-28.5631
 30
0.0
 10
-81.7639
 20
-30.1952
 30
0.0
 10
-84.4396
 20
-34.5244
 30
0.0
 10
-84.4396
 20
-34.5244
 30
0.0
 10
-80.3921
 20
-37.9081
 30
0.0
 10
-77.2728
 20
-46.8489
 30
0.0
 10
-79.9215
 20
-51.668
 30
0.0
 10
-79.9215
 20
-51.668
 30
0.0
 10
-76.9332
 20
-48.2773
 30
0.0
 10
-75.7651
 20
-46.4234
 30
0.0
 10
-74.0887
 20
-45.0481
 30
0.0
 10
-74.0887
 20
-45.0481
 30
0.0
 10
-73.2225
 20
-47.1584
 30
0.0
 10
-71.0898
 20
-49.7956
 30
0.0
 10
-72.9581
 20
-57.9339
 30
0.0
 10
-72.9581
 20
-57.9339
 30
0.0
 10
-67.5062
 20
-52.8285
 30
0.0
 10
-63.2148
 20
-59.1176
 30
0.0
 10
-64.4504
 20
-62.4329
 30
0.0
  0
SPLINE
  5
7D
330
1F
100
AcDbEntity
  8
layer 1
 62
     7
100
AcDbSpline
210
0.0
220
0.0
230
1.0
 70
    11
 71
     3
 72
    32
 73
    28
 74
     0
 42
0.0000000001
 43
0.0000000001
 12
1.0
 22
0.0
 32
0.0
 13
1.0
 23
0.0
 33
0.0
 40
0.0
 40
0.0
 40
0.0
 40
0.0
 40
0.125
 40
0.125
 40
0.125
 40
0.125
 40
0.25
 40
0.25
 40
0.25
 40
0.25
 40
0.375
 40
0.375
 40
0.375
 40
0.375
 40
0.5
 40
0.5
 40
0.5
 40
0.5
 40
0.625
 40
0.625
 40
0.625
 40
0.625
 40
0.75
 40
0.75
 40
0.75
 40
0.75
 40
1.0
 40
1.0
 40
1.0
 40
1.0
 10
-56.0401
 20
-31.8041
 30
0.0
 10
-57.186
 20
-39.2345
 30
0.0
 10
-63.3277
 20
-36.7476
 30
0.0
 10
-64.5333
 20
-35.9219
 30
0.0
 10
-64.5333
 20
-35.9219
 30
0.0
 10
-66.613
 20
-34.4981
 30
0.0
 10
-69.4161
 20
-28.5177
 30
0.0
 10
-62.8531
 20
-24.9689
 30
0.0
 10
-62.8531
 20
-24.9689
 30
0.0
 10
-65.5395
 20
-23.4845
 30
0.0
 10
-68.0301
 20
-21.0652
 30
0.0
 10
-69.7257
 20
-18.1444
 30
0.0
 10
-69.7257
 20
-18.1444
 30
0.0
 10
-73.0642
 20
-20.3302
 30
0.0
 10
-75.2385
 20
-31.751
 30
0.0
 10
-67.3818
 20
-35.1907
 30
0.0
 10
-67.3818
 20
-35.1907
 30
0.0
 10
-68.7495
 20
-36.574
 30
0.0
 10
-70.894
 20
-37.5048
 30
0.0
 10
-72.4304
 20
-37.5761
 30
0.0
 10
-72.4304
 20
-37.5761
 30
0.0
 10
-68.9231
 20
-41.7508
 30
0.0
 10
-65.9764
 20
-42.7155
 30
0.0
 10
-62.8194
 20
-42.7494
 30
0.0
 10
-62.8194
 20
-42.7494
 30
0.0
 10
-57.355
 20
-43.9552
 30
0.0
 10
-51.873
 20
-36.031
 30
0.0
 10
-56.0401
 20
-31.8041
 30
0.0
  0
SPLINE
  5
7E
330
1F
100
AcDbEntity
  8
layer 1
 62
     7
100
AcDbSpline
210
0.0
220
0.0
230
1.0
 70
    11
 71
     3
 72
    32
 73
    28
 74
     0
 42
0.0000000001
 43
0.0000000001
 12
1.0
 22
0.0
 32
0.0
 13
1.0
 23
0.0
 33
0.0
 40
0.0
 40
0.0
 40
0.0
 40
0.0
 40
0.125
 40
0.125
 40
0.125
 40
0.125
 40
0.25
 40
0.25
 40
0.25
 40
0.25
 40
0.375
 40
0.375
 40
0.375
 40
0.375
 40
0.5
 40
0.5
 40
0.5
 40
0.5
 40
0.625
 40
0.625
 40
0.625
 40
0.625
 40
0.75
 40
0.75
 40
0.75
 40
0.75
 40
1.0
 40
1.0
 40
1.0
 40
1.0
 10
-35.8665
 20
-35.6586
 30
0.0
 10
-42.6487
 20
-36.3443
 30
0.0
 10
-49.6082
 20
-30.2212
 30
0.0
 10
-47.4755
 20
-22.35
 30
0.0
 10
-47.4755
 20
-22.35
 30
0.0
 10
-48.7797
 20
-25.0665
 30
0.0
 10
-50.2073
 20
-25.624
 30
0.0
 10
-52.7663
 20
-25.8573
 30
0.0
 10
-52.7663
 20
-25.8573
 30
0.0
 10
-49.7403
 20
-28.6758
 30
0.0
 10
-49.5628
 20
-32.7832
 30
0.0
 10
-49.8494
 20
-34.9042
 30
0.0
 10
-49.8494
 20
-34.9042
 30
0.0
 10
-45.3996
 20
-33.6803
 30
0.0
 10
-42.9768
 20
-36.3473
 30
0.0
 10
-42.5357
 20
-38.8987
 30
0.0
 10
-42.5357
 20
-38.8987
 30
0.0
 10
-46.4241
 20
-37.4635
 30
0.0
 10
-52.9468
 20
-44.6226
 30
0.0
 10
-54.4842
 20
-44.6978
 30
0.0
 10
-54.4842
 20
-44.6978
 30
0.0
 10
-48.9003
 20
-43.7553
 30
0.0
 10
-43.2825
 20
-43.6801
 30
0.0
 10
-40.1244
 20
-44.3815
 30
0.0
 10
-40.1244
 20
-44.3815
 30
0.0
 10
-42.2984
 20
-41.7287
 30
0.0
 10
-41.0475
 20
-36.8488
 30
0.0
 10
-35.8665
 20
-35.6586
 30
0.0
  0
SPLINE
  5
7F
330
1F
100
AcDbEntity
  8
layer 1
 62
     7
100
AcDbSpline
210
0.0
220
0.0
230
1.0
 70
    11
 71
     3
 72
    32
 73
    28
 74
     0
 42
0.0000000001
 43
0.0000000001
 12
1.0
 22
0.0
 32
0.0
 13
1.0
 23
0.0
 33
0.0
 40
0.0
 40
0.0
 40
0.0
 40
0.0
 40
0.125
 40
0.125
 40
0.125
 40
0.125
 40
0.25
 40
0.25
 40
0.25
 40
0.25
 40
0.375
 40
0.375
 40
0.375
 40
0.375
 40
0.5
 40
0.5
 40
0.5
 40
0.5
 40
0.625
 40
0.625
 40
0.625
 40
0.625
 40
0.75
 40
0.75
 40
0.75
 40
0.75
 40
1.0
 40
1.0
 40
1.0
 40
1.0
 10
-34.9774
 20
-79.8639
 30
0.0
 10
-32.5619
 20
-78.4692
 30
0.0
 10
-29.9548
 20
-79.4647
 30
0.0
 10
-28.8589
 20
-81.4613
 30
0.0
 10
-28.8589
 20
-81.4613
 30
0.0
 10
-28.1616
 20
-77.9453
 30
0.0
 10
-27.6599
 20
-76.2052
 30
0.0
 10
-27.9957
 20
-72.2861
 30
0.0
 10
-27.9957
 20
-72.2861
 30
0.0
 10
-34.1669
 20
-69.9084
 30
0.0
 10
-34.36
 20
-74.7585
 30
0.0
 10
-38.9486
 20
-73.6202
 30
0.0
 10
-38.9486
 20
-73.6202
 30
0.0
 10
-35.6823
 20
-75.9525
 30
0.0
 10
-37.2643
 20
-80.1803
 30
0.0
 10
-39.1974
 20
-80.8015
 30
0.0
 10
-39.1974
 20
-80.8015
 30
0.0
 10
-39.3074
 20
-72.9161
 30
0.0
 10
-44.6425
 20
-78.963
 30
0.0
 10
-49.367
 20
-74.8829
 30
0.0
 10
-49.367
 20
-74.8829
 30
0.0
 10
-48.2326
 20
-82.6179
 30
0.0
 10
-38.0901
 20
-83.3567
 30
0.0
 10
-41.3119
 20
-95.3312
 30
0.0
 10
-41.3119
 20
-95.3312
 30
0.0
 10
-39.0353
 20
-91.5675
 30
0.0
 10
-31.8502
 20
-89.6526
 30
0.0
 10
-34.9774
 20
-79.8639
 30
0.0
  0
SPLINE
  5
80
330
1F
100
AcDbEntity
  8
layer 1
 62
     7
100
AcDbSpline
210
0.0
220
0.0
230
1.0
 70
    11
 71
     3
 72
    32
 73
    28
 74
     0
 42
0.0000000001
 43
0.0000000001
 12
1.0
 22
0.0
 32
0.0
 13
1.0
 23
0.0
 33
0.0
 40
0.0
 40
0.0
 40
0.0
 40
0.0
 40
0.125
 40
0.125
 40
0.125
 40
0.125
 40
0.25
 40
0.25
 40
0.25
 40
0.25
 40
0.375
 40
0.375
 40
0.375
 40
0.375
 40
0.5
 40
0.5
 40
0.5
 40
0.5
 40
0.625
 40
0.625
 40
0.625
 40
0.625
 40
0.75
 40
0.75
 40
0.75
 40
0.75
 40
1.0
 40
1.0
 40
1.0
 40
1.0
 10
-47.2122
 20
-97.3655
 30
0.0
 10
-51.6581
 20
-96.4049
 30
0.0
 10
-51.5154
 20
-91.7517
 30
0.0
 10
-49.5937
 20
-90.2334
 30
0.0
 10
-49.5937
 20
-90.2334
 30
0.0
 10
-46.8881
 20
-88.0968
 30
0.0
 10
-43.8545
 20
-90.2788
 30
0.0
 10
-43.5419
 20
-92.8069
 30
0.0
 10
-43.5419
 20
-92.8069
 30
0.0
 10
-41.0059
 20
-87.7843
 30
0.0
 10
-51.003
 20
-82.5309
 30
0.0
 10
-54.6685
 20
-76.5852
 30
0.0
 10
-54.6685
 20
-76.5852
 30
0.0
 10
-58.0068
 20
-80.5497
 30
0.0
 10
-56.2514
 20
-90.7871
 30
0.0
 10
-53.8852
 20
-90.9645
 30
0.0
 10
-53.8852
 20
-90.9645
 30
0.0
 10
-55.9908
 20
-94.2722
 30
0.0
 10
-59.4732
 20
-94.2383
 30
0.0
 10
-61.6059
 20
-91.1226
 30
0.0
 10
-61.6059
 20
-91.1226
 30
0.0
 10
-61.2103
 20
-94.1852
 30
0.0
 10
-63.9006
 20
-96.484
 30
0.0
 10
-65.4864
 20
-96.8911
 30
0.0
 10
-65.4864
 20
-96.8911
 30
0.0
 10
-62.3967
 20
-99.4269
 30
0.0
 10
-51.059
 20
-98.8499
 30
0.0
 10
-47.2122
 20
-97.3655
 30
0.0
  0
SPLINE
  5
81
330
1F
100
AcDbEntity
  8
layer 1
 62
     7
100
AcDbSpline
210
0.0
220
0.0
230
1.0
 70
    11
 71
     3
 72
    36
 73
    32
 74
     0
 42
0.0000000001
 43
0.0000000001
 12
1.0
 22
0.0
 32
0.0
 13
1.0
 23
0.0
 33
0.0
 40
0.0
 40
0.0
 40
0.0
 40
0.0
 40
0.1111111111111111
 40
0.1111111111111111
 40
0.1111111111111111
 40
0.1111111111111111
 40
0.2222222222222222
 40
0.2222222222222222
 40
0.2222222222222222
 40
0.2222222222222222
 40
0.3333333333333333
 40
0.3333333333333333
 40
0.3333333333333333
 40
0.3333333333333333
 40
0.4444444444444444
 40
0.4444444444444444
 40
0.4444444444444444
 40
0.4444444444444444
 40
0.5555555555555556
 40
0.5555555555555556
 40
0.5555555555555556
 40
0.5555555555555556
 40
0.6666666666666666
 40
0.6666666666666666
 40
0.6666666666666666
 40
0.6666666666666666
 40
0.7777777777777778
 40
0.7777777777777778
 40
0.7777777777777778
 40
0.7777777777777778
 40
1.0
 40
1.0
 40
1.0
 40
1.0
 10
-28.0785
 20
-69.9237
 30
0.0
 10
-27.626
 20
-69.6333
 30
0.0
 10
-31.4583
 20
-59.9422
 30
0.0
 10
-42.0274
 20
-62.7946
 30
0.0
 10
-42.0274
 20
-62.7946
 30
0.0
 10
-40.7349
 20
-59.6152
 30
0.0
 10
-42.4452
 20
-57.2752
 30
0.0
 10
-45.174
 20
-57.5798
 30
0.0
 10
-45.174
 20
-57.5798
 30
0.0
 10
-46.7413
 20
-57.7718
 30
0.0
 10
-49.2842
 20
-60.2025
 30
0.0
 10
-46.3681
 20
-63.0927
 30
0.0
 10
-46.3681
 20
-63.0927
 30
0.0
 10
-49.3824
 20
-64.9427
 30
0.0
 10
-51.5375
 20
-62.5803
 30
0.0
 10
-52.2233
 20
-59.3771
 30
0.0
 10
-52.2233
 20
-59.3771
 30
0.0
 10
-52.2946
 20
-62.6779
 30
0.0
 10
-51.9523
 20
-66.3104
 30
0.0
 10
-50.3962
 20
-68.7895
 30
0.0
 10
-50.3962
 20
-68.7895
 30
0.0
 10
-46.5718
 20
-73.2844
 30
0.0
 10
-40.6365
 20
-68.5793
 30
0.0
 10
-46.9931
 20
-65.3873
 30
0.0
 10
-46.9931
 20
-65.3873
 30
0.0
 10
-41.632
 20
-61.9998
 30
0.0
 10
-39.2013
 20
-65.7791
 30
0.0
 10
-39.974
 20
-68.9293
 30
0.0
 10
-39.974
 20
-68.9293
 30
0.0
 10
-38.0706
 20
-66.8717
 30
0.0
 10
-31.775
 20
-66.1447
 30
0.0
 10
-28.0785
 20
-69.9237
 30
0.0
  0
SPLINE
  5
82
330
1F
100
AcDbEntity
  8
layer 1
 62
     7
100
AcDbSpline
210
0.0
220
0.0
230
1.0
 70
    11
 71
     3
 72
    16
 73
    12
 74
     0
 42
0.0000000001
 43
0.0000000001
 12
1.0
 22
0.0
 32
0.0
 13
1.0
 23
0.0
 33
0.0
 40
0.0
 40
0.0
 40
0.0
 40
0.0
 40
0.25
 40
0.25
 40
0.25
 40
0.25
 40
0.5
 40
0.5
 40
0.5
 40
0.5
 40
1.0
 40
1.0
 40
1.0
 40
1.0
 10
-28.7643
 20
-60.4593
 30
0.0
 10
-34.605
 20
-50.8614
 30
0.0
 10
-47.4041
 20
-46.3105
 30
0.0
 10
-56.3228
 20
-53.4727
 30
0.0
 10
-56.3228
 20
-53.4727
 30
0.0
 10
-55.1738
 20
-53.7516
 30
0.0
 10
-54.3106
 20
-54.5888
 30
0.0
 10
-53.4559
 20
-55.6169
 30
0.0
 10
-53.4559
 20
-55.6169
 30
0.0
 10
-51.7111
 20
-52.2748
 30
0.0
 10
-40.4484
 20
-49.5208
 30
0.0
 10
-28.7643
 20
-60.4593
 30
0.0
  0
SPLINE
  5
83
330
1F
100
AcDbEntity
  8
layer 1
 62
     7
100
AcDbSpline
210
0.0
220
0.0
230
1.0
 70
    11
 71
     3
 72
    48
 73
    44
 74
     0
 42
0.0000000001
 43
0.0000000001
 12
1.0
 22
0.0
 32
0.0
 13
1.0
 23
0.0
 33
0.0
 40
0.0
 40
0.0
 40
0.0
 40
0.0
 40
0.0833333333333333
 40
0.0833333333333333
 40
0.0833333333333333
 40
0.0833333333333333
 40
0.1666666666666667
 40
0.1666666666666667
 40
0.1666666666666667
 40
0.1666666666666667
 40
0.25
 40
0.25
 40
0.25
 40
0.25
 40
0.3333333333333333
 40
0.3333333333333333
 40
0.3333333333333333
 40
0.3333333333333333
 40
0.4166666666666667
 40
0.4166666666666667
 40
0.4166666666666667
 40
0.4166666666666667
 40
0.5
 40
0.5
 40
0.5
 40
0.5
 40
0.5833333333333334
 40
0.5833333333333334
 40
0.5833333333333334
 40
0.5833333333333334
 40
0.6666666666666666
 40
0.6666666666666666
 40
0.6666666666666666
 40
0.6666666666666666
 40
0.75
 40
0.75
 40
0.75
 40
0.75
 40
0.8333333333333334
 40
0.8333333333333334
 40
0.8333333333333334
 40
0.8333333333333334
 40
1.0
 40
1.0
 40
1.0
 40
1.0
 10
-63.4251
 20
-16.8451
 30
0.0
 10
-60.2456
 20
-20.9293
 30
0.0
 10
-55.9118
 20
-21.641
 30
0.0
 10
-54.627
 20
-21.2533
 30
0.0
 10
-54.627
 20
-21.2533
 30
0.0
 10
-60.7088
 20
-13.7518
 30
0.0
 10
-47.2198
 20
-8.2507
 30
0.0
 10
-46.0517
 20
-18.5256
 30
0.0
 10
-46.0517
 20
-18.5256
 30
0.0
 10
-42.6834
 20
-12.1842
 30
0.0
 10
-34.8491
 20
-16.7661
 30
0.0
 10
-34.3706
 20
-18.4879
 30
0.0
 10
-34.3706
 20
-18.4879
 30
0.0
 10
-31.2289
 20
-24.5388
 30
0.0
 10
-36.4618
 20
-29.0337
 30
0.0
 10
-37.9993
 20
-29.11
 30
0.0
 10
-37.9993
 20
-29.11
 30
0.0
 10
-32.2455
 20
-32.075
 30
0.0
 10
-25.4634
 20
-26.9658
 30
0.0
 10
-25.6748
 20
-19.9348
 30
0.0
 10
-25.6748
 20
-19.9348
 30
0.0
 10
-25.6969
 20
-16.3475
 30
0.0
 10
-32.1444
 20
-4.5542
 30
0.0
 10
-41.0215
 20
-13.6911
 30
0.0
 10
-41.0215
 20
-13.6911
 30
0.0
 10
-42.6681
 20
-13.1905
 30
0.0
 10
-43.0749
 20
-8.0733
 30
0.0
 10
-39.1868
 20
-6.6378
 30
0.0
 10
-39.1868
 20
-6.6378
 30
0.0
 10
-41.033
 20
-6.0833
 30
0.0
 10
-49.1037
 20
-3.6987
 30
0.0
 10
-51.4024
 20
-10.9139
 30
0.0
 10
-51.4024
 20
-10.9139
 30
0.0
 10
-52.8636
 20
-10.3003
 30
0.0
 10
-53.6027
 20
-8.8719
 30
0.0
 10
-53.5417
 20
-7.3913
 30
0.0
 10
-53.5417
 20
-7.3913
 30
0.0
 10
-57.408
 20
-8.514
 30
0.0
 10
-60.9278
 20
-9.9233
 30
0.0
 10
-63.3354
 20
-11.8263
 30
0.0
 10
-63.3354
 20
-11.8263
 30
0.0
 10
-64.8988
 20
-12.7081
 30
0.0
 10
-65.117
 20
-14.942
 30
0.0
 10
-63.4251
 20
-16.8451
 30
0.0
  0
SPLINE
  5
84
330
1F
100
AcDbEntity
  8
layer 1
 62
     7
100
AcDbSpline
210
0.0
220
0.0
230
1.0
 70
    11
 71
     3
 72
    16
 73
    12
 74
     0
 42
0.0000000001
 43
0.0000000001
 12
1.0
 22
0.0
 32
0.0
 13
1.0
 23
0.0
 33
0.0
 40
0.0
 40
0.0
 40
0.0
 40
0.0
 40
0.25
 40
0.25
 40
0.25
 40
0.25
 40
0.5
 40
0.5
 40
0.5
 40
0.5
 40
1.0
 40
1.0
 40
1.0
 40
1.0
 10
-43.1725
 20
-0.3604
 30
0.0
 10
-44.3743
 20
0.9324
 30
0.0
 10
-45.5618
 20
3.4643
 30
0.0
 10
-46.3036
 20
5.4196
 30
0.0
 10
-46.3036
 20
5.4196
 30
0.0
 10
-52.5812
 20
3.8066
 30
0.0
 10
-58.8096
 20
1.3392
 30
0.0
 10
-62.1219
 20
-3.2541
 30
0.0
 10
-62.1219
 20
-3.2541
 30
0.0
 10
-56.3643
 20
-0.8649
 30
0.0
 10
-51.8161
 20
1.0904
 30
0.0
 10
-43.1725
 20
-0.3604
 30
0.0
  0
SPLINE
  5
85
330
1F
100
AcDbEntity
  8
layer 1
 62
     7
100
AcDbSpline
210
0.0
220
0.0
230
1.0
 70
    11
 71
     3
 72
    16
 73
    12
 74
     0
 42
0.0000000001
 43
0.0000000001
 12
1.0
 22
0.0
 32
0.0
 13
1.0
 23
0.0
 33
0.0
 40
0.0
 40
0.0
 40
0.0
 40
0.0
 40
0.25
 40
0.25
 40
0.25
 40
0.25
 40
0.5
 40
0.5
 40
0.5
 40
0.5
 40
1.0
 40
1.0
 40
1.0
 40
1.0
 10
-32.178
 20
-2.9484
 30
0.0
 10
-30.8554
 20
0.175
 30
0.0
 10
-34.1902
 20
3.7169
 30
0.0
 10
-38.0901
 20
5.2315
 30
0.0
 10
-38.0901
 20
5.2315
 30
0.0
 10
-38.4931
 20
3.0495
 30
0.0
 10
-39.3517
 20
0.3294
 30
0.0
 10
-40.2603
 20
-0.7897
 30
0.0
 10
-40.2603
 20
-0.7897
 30
0.0
 10
-37.159
 20
-1.1812
 30
0.0
 10
-34.6309
 20
-1.9433
 30
0.0
 10
-32.178
 20
-2.9484
 30
0.0
  0
SPLINE
  5
86
330
1F
100
AcDbEntity
  8
layer 1
 62
     7
100
AcDbSpline
210
0.0
220
0.0
230
1.0
 70
    11
 71
     3
 72
    24
 73
    20
 74
     0
 42
0.0000000001
 43
0.0000000001
 12
1.0
 22
0.0
 32
0.0
 13
1.0
 23
0.0
 33
0.0
 40
0.0
 40
0.0
 40
0.0
 40
0.0
 40
0.1666666666666667
 40
0.1666666666666667
 40
0.1666666666666667
 40
0.1666666666666667
 40
0.3333333333333333
 40
0.3333333333333333
 40
0.3333333333333333
 40
0.3333333333333333
 40
0.5
 40
0.5
 40
0.5
 40
0.5
 40
0.6666666666666666
 40
0.6666666666666666
 40
0.6666666666666666
 40
0.6666666666666666
 40
1.0
 40
1.0
 40
1.0
 40
1.0
 10
-55.8741
 20
6.4633
 30
0.0
 10
-60.3509
 20
6.6784
 30
0.0
 10
-64.3714
 20
5.0578
 30
0.0
 10
-64.79
 20
3.1663
 30
0.0
 10
-64.79
 20
3.1663
 30
0.0
 10
-64.8912
 20
4.7568
 30
0.0
 10
-65.8364
 20
6.2297
 30
0.0
 10
-68.2896
 20
6.6823
 30
0.0
 10
-68.2896
 20
6.6823
 30
0.0
 10
-69.0167
 20
-1.9876
 30
0.0
 10
-71.3493
 20
-5.7562
 30
0.0
 10
-73.998
 20
-9.9725
 30
0.0
 10
-73.998
 20
-9.9725
 30
0.0
 10
-72.28
 20
-8.5102
 30
0.0
 10
-70.9276
 20
-7.233
 30
0.0
 10
-69.6505
 20
-6.5134
 30
0.0
 10
-69.6505
 20
-6.5134
 30
0.0
 10
-66.1569
 20
2.1978
 30
0.0
 10
-59.2917
 20
5.1109
 30
0.0
 10
-55.8741
 20
6.4633
 30
0.0
  0
ENDSEC
  0
SECTION
  2
OBJECTS
  0
DICTIONARY
  5
C
330
0
100
AcDbDictionary
281
     1
  3
ACAD_GROUP
350
D
  3
ACAD_LAYOUT
350
1A
  3
ACAD_MATERIAL
350
3B
  3
ACAD_MLEADERSTYLE
350
A9
  3
ACAD_MLINESTYLE
350
17
  3
ACAD_PLOTSETTINGS
350
19
  3
ACAD_PLOTSTYLENAME
350
E
  3
ACAD_TABLESTYLE
350
A8
  3
ACAD_VISUALSTYLE
350
2A
  0
DICTIONARY
  5
D
102
{ACAD_REACTORS
330
C
102
}
330
C
100
AcDbDictionary
281
     1
  0
DICTIONARY
  5
1A
102
{ACAD_REACTORS
330
C
102
}
330
C
100
AcDbDictionary
281
     1
  3
Layout1
350
1E
  3
Layout2
350
26
  3
Model
350
22
  0
DICTIONARY
  5
3B
102
{ACAD_REACTORS
330
C
102
}
330
C
100
AcDbDictionary
281
     1
  3
ByBlock
350
3D
  3
ByLayer
350
3C
  3
Global
350
3E
  0
DICTIONARY
  5
A9
102
{ACAD_REACTORS
330
C
102
}
330
C
100
AcDbDictionary
281
     1
  0
DICTIONARY
  5
17
102
{ACAD_REACTORS
330
C
102
}
330
C
100
AcDbDictionary
281
     1
  3
Standard
350
18
  0
DICTIONARY
  5
19
102
{ACAD_REACTORS
330
C
102
}
330
C
100
AcDbDictionary
281
     1
  0
ACDBDICTIONARYWDFLT
  5
E
102
{ACAD_REACTORS
330
C
102
}
330
C
100
AcDbDictionary
281
     1
  3
Normal
350
F
100
AcDbDictionaryWithDefault
340
F
  0
DICTIONARY
  5
A8
102
{ACAD_REACTORS
330
C
102
}
330
C
100
AcDbDictionary
281
     1
  0
DICTIONARY
  5
2A
102
{ACAD_REACTORS
330
C
102
}
330
C
100
AcDbDictionary
281
     1
  3
2dWireframe
350
2F
  3
3D Hidden
350
31
  3
3dWireframe
350
30
  3
Basic
350
32
  3
Brighten
350
36
  3
ColorChange
350
3A
  3
Conceptual
350
34
  3
Dim
350
35
  3
Facepattern
350
39
  3
Flat
350
2B
  3
FlatWithEdges
350
2C
  3
Gouraud
350
2D
  3
GouraudWithEdges
350
2E
  3
Linepattern
350
38
  3
Realistic
350
33
  3
Thicken
350
37
  0
LAYOUT
  5
1E
102
{ACAD_REACTORS
330
1A
102
}
330
1A
100
AcDbPlotSettings
  1

  2
none_device
  4

  6

 40
0.0
 41
0.0
 42
0.0
 43
0.0
 44
0.0
 45
0.0
 46
0.0
 47
0.0
 48
0.0
 49
0.0
140
0.0
141
0.0
142
1.0
143
1.0
 70
   688
 72
     0
 73
     0
 74
     5
  7

 75
    16
 76
     0
 77
     2
 78
   300
147
1.0
148
0.0
149
0.0
100
AcDbLayout
  1
Layout1
 70
     1
 71
     1
 10
0.0
 20
0.0
 11
12.0
 21
9.0
 12
0.0
 22
0.0
 32
0.0
 14
1.000000000000000E+20
 24
1.000000000000000E+20
 34
1.000000000000000E+20
 15
-1.000000000000000E+20
 25
-1.000000000000000E+20
 35
-1.000000000000000E+20
146
0.0
 13
0.0
 23
0.0
 33
0.0
 16
1.0
 26
0.0
 36
0.0
 17
0.0
 27
1.0
 37
0.0
 76
     0
330
1B
  0
LAYOUT
  5
26
102
{ACAD_REACTORS
330
1A
102
}
330
1A
100
AcDbPlotSettings
  1

  2
none_device
  4

  6

 40
0.0
 41
0.0
 42
0.0
 43
0.0
 44
0.0
 45
0.0
 46
0.0
 47
0.0
 48
0.0
 49
0.0
140
0.0
141
0.0
142
1.0
143
1.0
 70
   688
 72
     0
 73
     0
 74
     5
  7

 75
    16
 76
     0
 77
     2
 78
   300
147
1.0
148
0.0
149
0.0
100
AcDbLayout
  1
Layout2
 70
     1
 71
     2
 10
0.0
 20
0.0
 11
0.0
 21
0.0
 12
0.0
 22
0.0
 32
0.0
 14
0.0
 24
0.0
 34
0.0
 15
0.0
 25
0.0
 35
0.0
146
0.0
 13
0.0
 23
0.0
 33
0.0
 16
1.0
 26
0.0
 36
0.0
 17
0.0
 27
1.0
 37
0.0
 76
     0
330
23
  0
LAYOUT
  5
22
102
{ACAD_REACTORS
330
1A
102
}
330
1A
100
AcDbPlotSettings
  1

  2
none_device
  4

  6

 40
0.0
 41
0.0
 42
0.0
 43
0.0
 44
0.0
 45
0.0
 46
0.0
 47
0.0
 48
0.0
 49
0.0
140
0.0
141
0.0
142
1.0
143
1.0
 70
  1712
 72
     0
 73
     0
 74
     0
  7

 75
     0
 76
     0
 77
     2
 78
   300
147
1.0
148
0.0
149
0.0
100
AcDbLayout
  1
Model
 70
     1
 71
     0
 10
0.0
 20
0.0
 11
12.0
 21
9.0
 12
0.0
 22
0.0
 32
0.0
 14
-187.3945
 24
-115.0002
 34
0.0
 15
-10.301
 25
131.653
 35
0.0
146
0.0
 13
0.0
 23
0.0
 33
0.0
 16
1.0
 26
0.0
 36
0.0
 17
0.0
 27
1.0
 37
0.0
 76
     0
330
1F
331
29
  0
MATERIAL
  5
3D
102
{ACAD_REACTORS
330
3B
102
}
330
3B
100
AcDbMaterial
  1
ByBlock
 72
     1
 94
      127
  0
MATERIAL
  5
3C
102
{ACAD_REACTORS
330
3B
102
}
330
3B
100
AcDbMaterial
  1
ByLayer
 72
     1
 94
      127
  0
MATERIAL
  5
3E
102
{ACAD_REACTORS
330
3B
102
}
330
3B
100
AcDbMaterial
  1
Global
 72
     1
 94
      127
  0
MLINESTYLE
  5
18
102
{ACAD_REACTORS
330
17
102
}
330
17
100
AcDbMlineStyle
  2
Standard
 70
     0
  3

 62
   256
 51
90.0
 52
90.0
 71
     2
 49
0.5
 62
   256
  6
BYLAYER
 49
-0.5
 62
   256
  6
BYLAYER
  0
ACDBPLACEHOLDER
  5
F
102
{ACAD_REACTORS
330
E
102
}
330
E
  0
VISUALSTYLE
  5
2F
102
{ACAD_REACTORS
330
2A
102
}
102
{ACAD_XDICTIONARY
360
90
102
}
330
2A
100
AcDbVisualStyle
  2
2dWireframe
 70
     4
 71
     0
 72
     2
 73
     0
 90
        0
 40
-0.6
 41
-30.0
 62
     5
 63
     7
421
 16777215
 74
     1
 91
        4
 64
     7
 65
   257
 75
     1
175
     1
 42
1.0
 92
        0
 66
   257
 43
1.0
 76
     1
 77
     6
 78
     2
 67
     7
 79
     5
170
     0
171
     0
290
     0
174
     0
 93
        1
 44
0.0
173
     0
291
     0
 45
0.0
  0
VISUALSTYLE
  5
31
102
{ACAD_REACTORS
330
2A
102
}
102
{ACAD_XDICTIONARY
360
94
102
}
330
2A
100
AcDbVisualStyle
  2
3D Hidden
 70
     6
 71
     1
 72
     2
 73
     2
 90
        0
 40
-0.6
 41
-30.0
 62
     5
 63
     7
421
 16777215
 74
     2
 91
        2
 64
     7
 65
   257
 75
     2
175
     1
 42
40.0
 92
        0
 66
   257
 43
1.0
 76
     1
 77
     6
 78
     2
 67
     7
 79
     3
170
     0
171
     0
290
     0
174
     0
 93
        1
 44
0.0
173
     0
291
     0
 45
0.0
  0
VISUALSTYLE
  5
30
102
{ACAD_REACTORS
330
2A
102
}
102
{ACAD_XDICTIONARY
360
92
102
}
330
2A
100
AcDbVisualStyle
  2
3dWireframe
 70
     5
 71
     0
 72
     2
 73
     0
 90
        0
 40
-0.6
 41
-30.0
 62
     5
 63
     7
421
 16777215
 74
     1
 91
        4
 64
     7
 65
   257
 75
     1
175
     1
 42
1.0
 92
        0
 66
   257
 43
1.0
 76
     1
 77
     6
 78
     2
 67
     7
 79
     5
170
     0
171
     0
290
     0
174
     0
 93
        1
 44
0.0
173
     0
291
     0
 45
0.0
  0
VISUALSTYLE
  5
32
102
{ACAD_REACTORS
330
2A
102
}
102
{ACAD_XDICTIONARY
360
96
102
}
330
2A
100
AcDbVisualStyle
  2
Basic
 70
     7
 71
     1
 72
     0
 73
     1
 90
        0
 40
-0.6
 41
-30.0
 62
     5
 63
     7
421
 16777215
 74
     0
 91
        4
 64
     7
 65
   257
 75
     1
175
     1
 42
1.0
 92
        8
 66
     7
 43
1.0
 76
     1
 77
     6
 78
     2
 67
     7
 79
     5
170
     0
171
     0
290
     0
174
     0
 93
        1
 44
0.0
173
     0
291
     1
 45
0.0
  0
VISUALSTYLE
  5
36
102
{ACAD_REACTORS
330
2A
102
}
102
{ACAD_XDICTIONARY
360
9E
102
}
330
2A
100
AcDbVisualStyle
  2
Brighten
 70
    12
 71
     2
 72
     2
 73
     0
 90
        0
 40
-0.6
 41
-30.0
 62
     5
 63
     7
421
 16777215
 74
     1
 91
        4
 64
     7
 65
   257
 75
     1
175
     1
 42
1.0
 92
        8
 66
     7
 43
1.0
 76
     1
 77
     6
 78
     2
 67
     7
 79
     5
170
     0
171
     0
290
     0
174
     0
 93
        1
 44
50.0
173
     0
291
     1
 45
0.0
  0
VISUALSTYLE
  5
3A
102
{ACAD_REACTORS
330
2A
102
}
102
{ACAD_XDICTIONARY
360
A6
102
}
330
2A
100
AcDbVisualStyle
  2
ColorChange
 70
    16
 71
     2
 72
     2
 73
     3
 90
        0
 40
-0.6
 41
-30.0
 62
     5
 63
     8
421
  8421504
 74
     1
 91
        4
 64
     7
 65
   257
 75
     1
175
     1
 42
1.0
 92
        8
 66
     8
424
  8421504
 43
1.0
 76
     1
 77
     6
 78
     2
 67
     7
 79
     5
170
     0
171
     0
290
     0
174
     0
 93
        1
 44
0.0
173
     0
291
     1
 45
0.0
  0
VISUALSTYLE
  5
34
102
{ACAD_REACTORS
330
2A
102
}
102
{ACAD_XDICTIONARY
360
9A
102
}
330
2A
100
AcDbVisualStyle
  2
Conceptual
 70
     9
 71
     3
 72
     2
 73
     0
 90
        0
 40
-0.6
 41
-30.0
 62
     5
 63
     7
421
 16777215
 74
     2
 91
        2
 64
     7
 65
   257
 75
     1
175
     1
 42
40.0
 92
        8
 66
     7
 43
1.0
 76
     1
 77
     6
 78
     2
 67
     7
 79
     3
170
     0
171
     0
290
     0
174
     0
 93
        1
 44
0.0
173
     0
291
     0
 45
0.0
  0
VISUALSTYLE
  5
35
102
{ACAD_REACTORS
330
2A
102
}
102
{ACAD_XDICTIONARY
360
9C
102
}
330
2A
100
AcDbVisualStyle
  2
Dim
 70
    11
 71
     2
 72
     2
 73
     0
 90
        0
 40
-0.6
 41
-30.0
 62
     5
 63
     7
421
 16777215
 74
     1
 91
        4
 64
     7
 65
   257
 75
     1
175
     1
 42
1.0
 92
        8
 66
     7
 43
1.0
 76
     1
 77
     6
 78
     2
 67
     7
 79
     5
170
     0
171
     0
290
     0
174
     0
 93
        1
 44
-50.0
173
     0
291
     1
 45
0.0
  0
VISUALSTYLE
  5
39
102
{ACAD_REACTORS
330
2A
102
}
102
{ACAD_XDICTIONARY
360
A4
102
}
330
2A
100
AcDbVisualStyle
  2
Facepattern
 70
    15
 71
     2
 72
     2
 73
     0
 90
        0
 40
-0.6
 41
-30.0
 62
     5
 63
     7
421
 16777215
 74
     1
 91
        4
 64
     7
 65
   257
 75
     1
175
     1
 42
1.0
 92
        8
 66
     7
 43
1.0
 76
     1
 77
     6
 78
     2
 67
     7
 79
     5
170
     0
171
     0
290
     0
174
     0
 93
        1
 44
0.0
173
     0
291
     1
 45
0.0
  0
VISUALSTYLE
  5
2B
102
{ACAD_REACTORS
330
2A
102
}
102
{ACAD_XDICTIONARY
360
88
102
}
330
2A
100
AcDbVisualStyle
  2
Flat
 70
     0
 71
     2
 72
     1
 73
     1
 90
        2
 40
-0.6
 41
30.0
 62
     5
 63
     7
421
 16777215
 74
     0
 91
        4
 64
     7
 65
   257
 75
     1
175
     1
 42
1.0
 92
        8
 66
     7
 43
1.0
 76
     1
 77
     6
 78
     2
 67
     7
 79
     5
170
     0
171
     0
290
     0
174
     0
 93
       13
 44
0.0
173
     0
291
     1
 45
0.0
  0
VISUALSTYLE
  5
2C
102
{ACAD_REACTORS
330
2A
102
}
102
{ACAD_XDICTIONARY
360
8A
102
}
330
2A
100
AcDbVisualStyle
  2
FlatWithEdges
 70
     1
 71
     2
 72
     1
 73
     1
 90
        2
 40
-0.6
 41
30.0
 62
     5
 63
     7
421
 16777215
 74
     1
 91
        4
 64
     7
 65
   257
 75
     1
175
     1
 42
1.0
 92
        0
 66
   257
 43
1.0
 76
     1
 77
     6
 78
     2
 67
     7
 79
     5
170
     0
171
     0
290
     0
174
     0
 93
       13
 44
0.0
173
     0
291
     1
 45
0.0
  0
VISUALSTYLE
  5
2D
102
{ACAD_REACTORS
330
2A
102
}
102
{ACAD_XDICTIONARY
360
8C
102
}
330
2A
100
AcDbVisualStyle
  2
Gouraud
 70
     2
 71
     2
 72
     2
 73
     1
 90
        2
 40
-0.6
 41
30.0
 62
     5
 63
     7
421
 16777215
 74
     0
 91
        4
 64
     7
 65
   257
 75
     1
175
     1
 42
1.0
 92
        0
 66
     7
 43
1.0
 76
     1
 77
     6
 78
     2
 67
     7
 79
     5
170
     0
171
     0
290
     0
174
     0
 93
       13
 44
0.0
173
     0
291
     1
 45
0.0
  0
VISUALSTYLE
  5
2E
102
{ACAD_REACTORS
330
2A
102
}
102
{ACAD_XDICTIONARY
360
8E
102
}
330
2A
100
AcDbVisualStyle
  2
GouraudWithEdges
 70
     3
 71
     2
 72
     2
 73
     1
 90
        2
 40
-0.6
 41
30.0
 62
     5
 63
     7
421
 16777215
 74
     1
 91
        4
 64
     7
 65
   257
 75
     1
175
     1
 42
1.0
 92
        0
 66
   257
 43
1.0
 76
     1
 77
     6
 78
     2
 67
     7
 79
     5
170
     0
171
     0
290
     0
174
     0
 93
       13
 44
0.0
173
     0
291
     1
 45
0.0
  0
VISUALSTYLE
  5
38
102
{ACAD_REACTORS
330
2A
102
}
102
{ACAD_XDICTIONARY
360
A2
102
}
330
2A
100
AcDbVisualStyle
  2
Linepattern
 70
    14
 71
     2
 72
     2
 73
     0
 90
        0
 40
-0.6
 41
-30.0
 62
     5
 63
     7
421
 16777215
 74
     1
 91
        4
 64
     7
 65
   257
 75
     7
175
     7
 42
1.0
 92
        8
 66
     7
 43
1.0
 76
     1
 77
     6
 78
     2
 67
     7
 79
     5
170
     0
171
     0
290
     0
174
     0
 93
        1
 44
0.0
173
     0
291
     1
 45
0.0
  0
VISUALSTYLE
  5
33
102
{ACAD_REACTORS
330
2A
102
}
102
{ACAD_XDICTIONARY
360
98
102
}
330
2A
100
AcDbVisualStyle
  2
Realistic
 70
     8
 71
     2
 72
     2
 73
     0
 90
        0
 40
-0.6
 41
-30.0
 62
     5
 63
     7
421
 16777215
 74
     1
 91
        0
 64
     7
 65
   257
 75
     1
175
     1
 42
1.0
 92
        8
 66
     8
424
  7895160
 43
1.0
 76
     1
 77
     6
 78
     2
 67
     7
 79
     5
170
     0
171
     0
290
     0
174
     0
 93
       13
 44
0.0
173
     0
291
     0
 45
0.0
  0
VISUALSTYLE
  5
37
102
{ACAD_REACTORS
330
2A
102
}
102
{ACAD_XDICTIONARY
360
A0
102
}
330
2A
100
AcDbVisualStyle
  2
Thicken
 70
    13
 71
     2
 72
     2
 73
     0
 90
        0
 40
-0.6
 41
-30.0
 62
     5
 63
     7
421
 16777215
 74
     1
 91
        4
 64
     7
 65
   257
 75
     1
175
     1
 42
1.0
 92
       12
 66
     7
 43
1.0
 76
     1
 77
     6
 78
     2
 67
     7
 79
     5
170
     0
171
     0
290
     0
174
     0
 93
        1
 44
0.0
173
     0
291
     1
 45
0.0
  0
DICTIONARY
  5
90
330
2F
100
AcDbDictionary
280
     1
281
     1
  3
ACAD_XREC_ROUNDTRIP
360
91
  0
DICTIONARY
  5
94
330
31
100
AcDbDictionary
280
     1
281
     1
  3
ACAD_XREC_ROUNDTRIP
360
95
  0
DICTIONARY
  5
92
330
30
100
AcDbDictionary
280
     1
281
     1
  3
ACAD_XREC_ROUNDTRIP
360
93
  0
DICTIONARY
  5
96
330
32
100
AcDbDictionary
280
     1
281
     1
  3
ACAD_XREC_ROUNDTRIP
360
97
  0
DICTIONARY
  5
9E
330
36
100
AcDbDictionary
280
     1
281
     1
  3
ACAD_XREC_ROUNDTRIP
360
9F
  0
DICTIONARY
  5
A6
330
3A
100
AcDbDictionary
280
     1
281
     1
  3
ACAD_XREC_ROUNDTRIP
360
A7
  0
DICTIONARY
  5
9A
330
34
100
AcDbDictionary
280
     1
281
     1
  3
ACAD_XREC_ROUNDTRIP
360
9B
  0
DICTIONARY
  5
9C
330
35
100
AcDbDictionary
280
     1
281
     1
  3
ACAD_XREC_ROUNDTRIP
360
9D
  0
DICTIONARY
  5
A4
330
39
100
AcDbDictionary
280
     1
281
     1
  3
ACAD_XREC_ROUNDTRIP
360
A5
  0
DICTIONARY
  5
88
330
2B
100
AcDbDictionary
280
     1
281
     1
  3
ACAD_XREC_ROUNDTRIP
360
89
  0
DICTIONARY
  5
8A
330
2C
100
AcDbDictionary
280
     1
281
     1
  3
ACAD_XREC_ROUNDTRIP
360
8B
  0
DICTIONARY
  5
8C
330
2D
100
AcDbDictionary
280
     1
281
     1
  3
ACAD_XREC_ROUNDTRIP
360
8D
  0
DICTIONARY
  5
8E
330
2E
100
AcDbDictionary
280
     1
281
     1
  3
ACAD_XREC_ROUNDTRIP
360
8F
  0
DICTIONARY
  5
A2
330
38
100
AcDbDictionary
280
     1
281
     1
  3
ACAD_XREC_ROUNDTRIP
360
A3
  0
DICTIONARY
  5
98
330
33
100
AcDbDictionary
280
     1
281
     1
  3
ACAD_XREC_ROUNDTRIP
360
99
  0
DICTIONARY
  5
A0
330
37
100
AcDbDictionary
280
     1
281
     1
  3
ACAD_XREC_ROUNDTRIP
360
A1
  0
XRECORD
  5
91
102
{ACAD_REACTORS
330
90
102
}
330
90
100
AcDbXrecord
280
     1
102
RTVSPropertyOp0
 70
     1
102
RTVSPropertyOp1
 70
     1
102
RTVSPropertyOp2
 70
     1
102
RTVSPropertyOp3
 70
     1
102
RTVSPropertyOp4
 70
     1
102
RTVSPropertyOp5
 70
     1
102
RTVSPropertyOp6
 70
     1
102
RTVSPropertyOp7
 70
     1
102
RTVSPropertyOp8
 70
     1
102
RTVSPropertyOp9
 70
     1
102
RTVSPropertyOp10
 70
     1
102
RTVSPropertyOp11
 70
     1
102
RTVSPropertyOp12
 70
     1
102
RTVSPropertyOp13
 70
     1
102
RTVSPropertyOp14
 70
     1
102
RTVSPropertyOp15
 70
     1
102
RTVSPropertyOp16
 70
     1
102
RTVSPropertyOp17
 70
     1
102
RTVSPropertyOp18
 70
     1
102
RTVSPropertyOp19
 70
     1
102
RTVSPropertyOp20
 70
     1
102
RTVSPropertyOp21
 70
     1
102
RTVSPropertyOp22
 70
     1
102
RTVSPropertyOp23
 70
     1
102
RTVSPropertyOp24
 70
     1
102
RTVSPropertyOp25
 70
     1
102
RTVSPropertyOp26
 70
     1
102
RTVSPropertyOp27
 70
     1
102
RTVSPropertyOp28
 70
     1
102
RTVSPropertyOp29
 70
     1
102
RTVSPropertyOp30
 70
     1
102
RTVSPropertyOp31
 70
     1
102
RTVSPropertyOp32
 70
     1
  0
XRECORD
  5
95
102
{ACAD_REACTORS
330
94
102
}
330
94
100
AcDbXrecord
280
     1
102
RTVSPropertyOp0
 70
     1
102
RTVSPropertyOp1
 70
     1
102
RTVSPropertyOp2
 70
     1
102
RTVSPropertyOp3
 70
     1
102
RTVSPropertyOp4
 70
     1
102
RTVSPropertyOp5
 70
     1
102
RTVSPropertyOp6
 70
     1
102
RTVSPropertyOp7
 70
     1
102
RTVSPropertyOp8
 70
     1
102
RTVSPropertyOp9
 70
     1
102
RTVSPropertyOp10
 70
     1
102
RTVSPropertyOp11
 70
     1
102
RTVSPropertyOp12
 70
     1
102
RTVSPropertyOp13
 70
     1
102
RTVSPropertyOp14
 70
     1
102
RTVSPropertyOp15
 70
     1
102
RTVSPropertyOp16
 70
     1
102
RTVSPropertyOp17
 70
     1
102
RTVSPropertyOp18
 70
     1
102
RTVSPropertyOp19
 70
     1
102
RTVSPropertyOp20
 70
     1
102
RTVSPropertyOp21
 70
     1
102
RTVSPropertyOp22
 70
     1
102
RTVSPropertyOp23
 70
     1
102
RTVSPropertyOp24
 70
     1
102
RTVSPropertyOp25
 70
     1
102
RTVSPropertyOp26
 70
     1
102
RTVSPropertyOp27
 70
     1
102
RTVSPropertyOp28
 70
     1
102
RTVSPropertyOp29
 70
     1
102
RTVSPropertyOp30
 70
     1
102
RTVSPropertyOp31
 70
     1
102
RTVSPropertyOp32
 70
     1
  0
XRECORD
  5
93
102
{ACAD_REACTORS
330
92
102
}
330
92
100
AcDbXrecord
280
     1
102
RTVSPropertyOp0
 70
     1
102
RTVSPropertyOp1
 70
     1
102
RTVSPropertyOp2
 70
     1
102
RTVSPropertyOp3
 70
     1
102
RTVSPropertyOp4
 70
     1
102
RTVSPropertyOp5
 70
     1
102
RTVSPropertyOp6
 70
     1
102
RTVSPropertyOp7
 70
     1
102
RTVSPropertyOp8
 70
     1
102
RTVSPropertyOp9
 70
     1
102
RTVSPropertyOp10
 70
     1
102
RTVSPropertyOp11
 70
     1
102
RTVSPropertyOp12
 70
     1
102
RTVSPropertyOp13
 70
     1
102
RTVSPropertyOp14
 70
     1
102
RTVSPropertyOp15
 70
     1
102
RTVSPropertyOp16
 70
     1
102
RTVSPropertyOp17
 70
     1
102
RTVSPropertyOp18
 70
     1
102
RTVSPropertyOp19
 70
     1
102
RTVSPropertyOp20
 70
     1
102
RTVSPropertyOp21
 70
     1
102
RTVSPropertyOp22
 70
     1
102
RTVSPropertyOp23
 70
     1
102
RTVSPropertyOp24
 70
     1
102
RTVSPropertyOp25
 70
     1
102
RTVSPropertyOp26
 70
     1
102
RTVSPropertyOp27
 70
     1
102
RTVSPropertyOp28
 70
     1
102
RTVSPropertyOp29
 70
     1
102
RTVSPropertyOp30
 70
     1
102
RTVSPropertyOp31
 70
     1
102
RTVSPropertyOp32
 70
     1
  0
XRECORD
  5
97
102
{ACAD_REACTORS
330
96
102
}
330
96
100
AcDbXrecord
280
     1
102
RTVSPropertyOp0
 70
     1
102
RTVSPropertyOp1
 70
     1
102
RTVSPropertyOp2
 70
     1
102
RTVSPropertyOp3
 70
     1
102
RTVSPropertyOp4
 70
     1
102
RTVSPropertyOp5
 70
     1
102
RTVSPropertyOp6
 70
     1
102
RTVSPropertyOp7
 70
     1
102
RTVSPropertyOp8
 70
     1
102
RTVSPropertyOp9
 70
     1
102
RTVSPropertyOp10
 70
     1
102
RTVSPropertyOp11
 70
     1
102
RTVSPropertyOp12
 70
     1
102
RTVSPropertyOp13
 70
     1
102
RTVSPropertyOp14
 70
     1
102
RTVSPropertyOp15
 70
     1
102
RTVSPropertyOp16
 70
     1
102
RTVSPropertyOp17
 70
     1
102
RTVSPropertyOp18
 70
     1
102
RTVSPropertyOp19
 70
     1
102
RTVSPropertyOp20
 70
     1
102
RTVSPropertyOp21
 70
     1
102
RTVSPropertyOp22
 70
     1
102
RTVSPropertyOp23
 70
     1
102
RTVSPropertyOp24
 70
     1
102
RTVSPropertyOp25
 70
     1
102
RTVSPropertyOp26
 70
     1
102
RTVSPropertyOp27
 70
     1
102
RTVSPropertyOp28
 70
     1
102
RTVSPropertyOp29
 70
     1
102
RTVSPropertyOp30
 70
     1
102
RTVSPropertyOp31
 70
     1
102
RTVSPropertyOp32
 70
     1
  0
XRECORD
  5
9F
102
{ACAD_REACTORS
330
9E
102
}
330
9E
100
AcDbXrecord
280
     1
102
RTVSPropertyOp0
 70
     1
102
RTVSPropertyOp1
 70
     1
102
RTVSPropertyOp2
 70
     1
102
RTVSPropertyOp3
 70
     1
102
RTVSPropertyOp4
 70
     1
102
RTVSPropertyOp5
 70
     1
102
RTVSPropertyOp6
 70
     1
102
RTVSPropertyOp7
 70
     1
102
RTVSPropertyOp8
 70
     1
102
RTVSPropertyOp9
 70
     1
102
RTVSPropertyOp10
 70
     1
102
RTVSPropertyOp11
 70
     1
102
RTVSPropertyOp12
 70
     1
102
RTVSPropertyOp13
 70
     1
102
RTVSPropertyOp14
 70
     1
102
RTVSPropertyOp15
 70
     1
102
RTVSPropertyOp16
 70
     1
102
RTVSPropertyOp17
 70
     1
102
RTVSPropertyOp18
 70
     1
102
RTVSPropertyOp19
 70
     1
102
RTVSPropertyOp20
 70
     1
102
RTVSPropertyOp21
 70
     1
102
RTVSPropertyOp22
 70
     1
102
RTVSPropertyOp23
 70
     1
102
RTVSPropertyOp24
 70
     1
102
RTVSPropertyOp25
 70
     1
102
RTVSPropertyOp26
 70
     1
102
RTVSPropertyOp27
 70
     1
102
RTVSPropertyOp28
 70
     1
102
RTVSPropertyOp29
 70
     1
102
RTVSPropertyOp30
 70
     1
102
RTVSPropertyOp31
 70
     1
102
RTVSPropertyOp32
 70
     1
  0
XRECORD
  5
A7
102
{ACAD_REACTORS
330
A6
102
}
330
A6
100
AcDbXrecord
280
     1
102
RTVSPropertyOp0
 70
     1
102
RTVSPropertyOp1
 70
     1
102
RTVSPropertyOp2
 70
     1
102
RTVSPropertyOp3
 70
     1
102
RTVSPropertyOp4
 70
     1
102
RTVSPropertyOp5
 70
     1
102
RTVSPropertyOp6
 70
     1
102
RTVSPropertyOp7
 70
     1
102
RTVSPropertyOp8
 70
     1
102
RTVSPropertyOp9
 70
     1
102
RTVSPropertyOp10
 70
     1
102
RTVSPropertyOp11
 70
     1
102
RTVSPropertyOp12
 70
     1
102
RTVSPropertyOp13
 70
     1
102
RTVSPropertyOp14
 70
     1
102
RTVSPropertyOp15
 70
     1
102
RTVSPropertyOp16
 70
     1
102
RTVSPropertyOp17
 70
     1
102
RTVSPropertyOp18
 70
     1
102
RTVSPropertyOp19
 70
     1
102
RTVSPropertyOp20
 70
     1
102
RTVSPropertyOp21
 70
     1
102
RTVSPropertyOp22
 70
     1
102
RTVSPropertyOp23
 70
     1
102
RTVSPropertyOp24
 70
     1
102
RTVSPropertyOp25
 70
     1
102
RTVSPropertyOp26
 70
     1
102
RTVSPropertyOp27
 70
     1
102
RTVSPropertyOp28
 70
     1
102
RTVSPropertyOp29
 70
     1
102
RTVSPropertyOp30
 70
     1
102
RTVSPropertyOp31
 70
     1
102
RTVSPropertyOp32
 70
     1
  0
XRECORD
  5
9B
102
{ACAD_REACTORS
330
9A
102
}
330
9A
100
AcDbXrecord
280
     1
102
RTVSPropertyOp0
 70
     1
102
RTVSPropertyOp1
 70
     1
102
RTVSPropertyOp2
 70
     1
102
RTVSPropertyOp3
 70
     1
102
RTVSPropertyOp4
 70
     1
102
RTVSPropertyOp5
 70
     1
102
RTVSPropertyOp6
 70
     1
102
RTVSPropertyOp7
 70
     1
102
RTVSPropertyOp8
 70
     1
102
RTVSPropertyOp9
 70
     1
102
RTVSPropertyOp10
 70
     1
102
RTVSPropertyOp11
 70
     1
102
RTVSPropertyOp12
 70
     1
102
RTVSPropertyOp13
 70
     1
102
RTVSPropertyOp14
 70
     1
102
RTVSPropertyOp15
 70
     1
102
RTVSPropertyOp16
 70
     1
102
RTVSPropertyOp17
 70
     1
102
RTVSPropertyOp18
 70
     1
102
RTVSPropertyOp19
 70
     1
102
RTVSPropertyOp20
 70
     1
102
RTVSPropertyOp21
 70
     1
102
RTVSPropertyOp22
 70
     1
102
RTVSPropertyOp23
 70
     1
102
RTVSPropertyOp24
 70
     1
102
RTVSPropertyOp25
 70
     1
102
RTVSPropertyOp26
 70
     1
102
RTVSPropertyOp27
 70
     1
102
RTVSPropertyOp28
 70
     1
102
RTVSPropertyOp29
 70
     1
102
RTVSPropertyOp30
 70
     1
102
RTVSPropertyOp31
 70
     1
102
RTVSPropertyOp32
 70
     1
  0
XRECORD
  5
9D
102
{ACAD_REACTORS
330
9C
102
}
330
9C
100
AcDbXrecord
280
     1
102
RTVSPropertyOp0
 70
     1
102
RTVSPropertyOp1
 70
     1
102
RTVSPropertyOp2
 70
     1
102
RTVSPropertyOp3
 70
     1
102
RTVSPropertyOp4
 70
     1
102
RTVSPropertyOp5
 70
     1
102
RTVSPropertyOp6
 70
     1
102
RTVSPropertyOp7
 70
     1
102
RTVSPropertyOp8
 70
     1
102
RTVSPropertyOp9
 70
     1
102
RTVSPropertyOp10
 70
     1
102
RTVSPropertyOp11
 70
     1
102
RTVSPropertyOp12
 70
     1
102
RTVSPropertyOp13
 70
     1
102
RTVSPropertyOp14
 70
     1
102
RTVSPropertyOp15
 70
     1
102
RTVSPropertyOp16
 70
     1
102
RTVSPropertyOp17
 70
     1
102
RTVSPropertyOp18
 70
     1
102
RTVSPropertyOp19
 70
     1
102
RTVSPropertyOp20
 70
     1
102
RTVSPropertyOp21
 70
     1
102
RTVSPropertyOp22
 70
     1
102
RTVSPropertyOp23
 70
     1
102
RTVSPropertyOp24
 70
     1
102
RTVSPropertyOp25
 70
     1
102
RTVSPropertyOp26
 70
     1
102
RTVSPropertyOp27
 70
     1
102
RTVSPropertyOp28
 70
     1
102
RTVSPropertyOp29
 70
     1
102
RTVSPropertyOp30
 70
     1
102
RTVSPropertyOp31
 70
     1
102
RTVSPropertyOp32
 70
     1
  0
XRECORD
  5
A5
102
{ACAD_REACTORS
330
A4
102
}
330
A4
100
AcDbXrecord
280
     1
102
RTVSPropertyOp0
 70
     1
102
RTVSPropertyOp1
 70
     1
102
RTVSPropertyOp2
 70
     1
102
RTVSPropertyOp3
 70
     1
102
RTVSPropertyOp4
 70
     1
102
RTVSPropertyOp5
 70
     1
102
RTVSPropertyOp6
 70
     1
102
RTVSPropertyOp7
 70
     1
102
RTVSPropertyOp8
 70
     1
102
RTVSPropertyOp9
 70
     1
102
RTVSPropertyOp10
 70
     1
102
RTVSPropertyOp11
 70
     1
102
RTVSPropertyOp12
 70
     1
102
RTVSPropertyOp13
 70
     1
102
RTVSPropertyOp14
 70
     1
102
RTVSPropertyOp15
 70
     1
102
RTVSPropertyOp16
 70
     1
102
RTVSPropertyOp17
 70
     1
102
RTVSPropertyOp18
 70
     1
102
RTVSPropertyOp19
 70
     1
102
RTVSPropertyOp20
 70
     1
102
RTVSPropertyOp21
 70
     1
102
RTVSPropertyOp22
 70
     1
102
RTVSPropertyOp23
 70
     1
102
RTVSPropertyOp24
 70
     1
102
RTVSPropertyOp25
 70
     1
102
RTVSPropertyOp26
 70
     1
102
RTVSPropertyOp27
 70
     1
102
RTVSPropertyOp28
 70
     1
102
RTVSPropertyOp29
 70
     1
102
RTVSPropertyOp30
 70
     1
102
RTVSPropertyOp31
 70
     1
102
RTVSPropertyOp32
 70
     1
  0
XRECORD
  5
89
102
{ACAD_REACTORS
330
88
102
}
330
88
100
AcDbXrecord
280
     1
102
RTVSPropertyOp0
 70
     1
102
RTVSPropertyOp1
 70
     1
102
RTVSPropertyOp2
 70
     1
102
RTVSPropertyOp3
 70
     1
102
RTVSPropertyOp4
 70
     1
102
RTVSPropertyOp5
 70
     1
102
RTVSPropertyOp6
 70
     1
102
RTVSPropertyOp7
 70
     1
102
RTVSPropertyOp8
 70
     1
102
RTVSPropertyOp9
 70
     1
102
RTVSPropertyOp10
 70
     1
102
RTVSPropertyOp11
 70
     1
102
RTVSPropertyOp12
 70
     1
102
RTVSPropertyOp13
 70
     1
102
RTVSPropertyOp14
 70
     1
102
RTVSPropertyOp15
 70
     1
102
RTVSPropertyOp16
 70
     1
102
RTVSPropertyOp17
 70
     1
102
RTVSPropertyOp18
 70
     1
102
RTVSPropertyOp19
 70
     1
102
RTVSPropertyOp20
 70
     1
102
RTVSPropertyOp21
 70
     1
102
RTVSPropertyOp22
 70
     1
102
RTVSPropertyOp23
 70
     1
102
RTVSPropertyOp24
 70
     1
102
RTVSPropertyOp25
 70
     1
102
RTVSPropertyOp26
 70
     1
102
RTVSPropertyOp27
 70
     1
102
RTVSPropertyOp28
 70
     1
102
RTVSPropertyOp29
 70
     1
102
RTVSPropertyOp30
 70
     1
102
RTVSPropertyOp31
 70
     1
102
RTVSPropertyOp32
 70
     1
  0
XRECORD
  5
8B
102
{ACAD_REACTORS
330
8A
102
}
330
8A
100
AcDbXrecord
280
     1
102
RTVSPropertyOp0
 70
     1
102
RTVSPropertyOp1
 70
     1
102
RTVSPropertyOp2
 70
     1
102
RTVSPropertyOp3
 70
     1
102
RTVSPropertyOp4
 70
     1
102
RTVSPropertyOp5
 70
     1
102
RTVSPropertyOp6
 70
     1
102
RTVSPropertyOp7
 70
     1
102
RTVSPropertyOp8
 70
     1
102
RTVSPropertyOp9
 70
     1
102
RTVSPropertyOp10
 70
     1
102
RTVSPropertyOp11
 70
     1
102
RTVSPropertyOp12
 70
     1
102
RTVSPropertyOp13
 70
     1
102
RTVSPropertyOp14
 70
     1
102
RTVSPropertyOp15
 70
     1
102
RTVSPropertyOp16
 70
     1
102
RTVSPropertyOp17
 70
     1
102
RTVSPropertyOp18
 70
     1
102
RTVSPropertyOp19
 70
     1
102
RTVSPropertyOp20
 70
     1
102
RTVSPropertyOp21
 70
     1
102
RTVSPropertyOp22
 70
     1
102
RTVSPropertyOp23
 70
     1
102
RTVSPropertyOp24
 70
     1
102
RTVSPropertyOp25
 70
     1
102
RTVSPropertyOp26
 70
     1
102
RTVSPropertyOp27
 70
     1
102
RTVSPropertyOp28
 70
     1
102
RTVSPropertyOp29
 70
     1
102
RTVSPropertyOp30
 70
     1
102
RTVSPropertyOp31
 70
     1
102
RTVSPropertyOp32
 70
     1
  0
XRECORD
  5
8D
102
{ACAD_REACTORS
330
8C
102
}
330
8C
100
AcDbXrecord
280
     1
102
RTVSPropertyOp0
 70
     1
102
RTVSPropertyOp1
 70
     1
102
RTVSPropertyOp2
 70
     1
102
RTVSPropertyOp3
 70
     1
102
RTVSPropertyOp4
 70
     1
102
RTVSPropertyOp5
 70
     1
102
RTVSPropertyOp6
 70
     1
102
RTVSPropertyOp7
 70
     1
102
RTVSPropertyOp8
 70
     1
102
RTVSPropertyOp9
 70
     1
102
RTVSPropertyOp10
 70
     1
102
RTVSPropertyOp11
 70
     1
102
RTVSPropertyOp12
 70
     1
102
RTVSPropertyOp13
 70
     1
102
RTVSPropertyOp14
 70
     1
102
RTVSPropertyOp15
 70
     1
102
RTVSPropertyOp16
 70
     1
102
RTVSPropertyOp17
 70
     1
102
RTVSPropertyOp18
 70
     1
102
RTVSPropertyOp19
 70
     1
102
RTVSPropertyOp20
 70
     1
102
RTVSPropertyOp21
 70
     1
102
RTVSPropertyOp22
 70
     1
102
RTVSPropertyOp23
 70
     1
102
RTVSPropertyOp24
 70
     1
102
RTVSPropertyOp25
 70
     1
102
RTVSPropertyOp26
 70
     1
102
RTVSPropertyOp27
 70
     1
102
RTVSPropertyOp28
 70
     1
102
RTVSPropertyOp29
 70
     1
102
RTVSPropertyOp30
 70
     1
102
RTVSPropertyOp31
 70
     1
102
RTVSPropertyOp32
 70
     1
  0
XRECORD
  5
8F
102
{ACAD_REACTORS
330
8E
102
}
330
8E
100
AcDbXrecord
280
     1
102
RTVSPropertyOp0
 70
     1
102
RTVSPropertyOp1
 70
     1
102
RTVSPropertyOp2
 70
     1
102
RTVSPropertyOp3
 70
     1
102
RTVSPropertyOp4
 70
     1
102
RTVSPropertyOp5
 70
     1
102
RTVSPropertyOp6
 70
     1
102
RTVSPropertyOp7
 70
     1
102
RTVSPropertyOp8
 70
     1
102
RTVSPropertyOp9
 70
     1
102
RTVSPropertyOp10
 70
     1
102
RTVSPropertyOp11
 70
     1
102
RTVSPropertyOp12
 70
     1
102
RTVSPropertyOp13
 70
     1
102
RTVSPropertyOp14
 70
     1
102
RTVSPropertyOp15
 70
     1
102
RTVSPropertyOp16
 70
     1
102
RTVSPropertyOp17
 70
     1
102
RTVSPropertyOp18
 70
     1
102
RTVSPropertyOp19
 70
     1
102
RTVSPropertyOp20
 70
     1
102
RTVSPropertyOp21
 70
     1
102
RTVSPropertyOp22
 70
     1
102
RTVSPropertyOp23
 70
     1
102
RTVSPropertyOp24
 70
     1
102
RTVSPropertyOp25
 70
     1
102
RTVSPropertyOp26
 70
     1
102
RTVSPropertyOp27
 70
     1
102
RTVSPropertyOp28
 70
     1
102
RTVSPropertyOp29
 70
     1
102
RTVSPropertyOp30
 70
     1
102
RTVSPropertyOp31
 70
     1
102
RTVSPropertyOp32
 70
     1
  0
XRECORD
  5
A3
102
{ACAD_REACTORS
330
A2
102
}
330
A2
100
AcDbXrecord
280
     1
102
RTVSPropertyOp0
 70
     1
102
RTVSPropertyOp1
 70
     1
102
RTVSPropertyOp2
 70
     1
102
RTVSPropertyOp3
 70
     1
102
RTVSPropertyOp4
 70
     1
102
RTVSPropertyOp5
 70
     1
102
RTVSPropertyOp6
 70
     1
102
RTVSPropertyOp7
 70
     1
102
RTVSPropertyOp8
 70
     1
102
RTVSPropertyOp9
 70
     1
102
RTVSPropertyOp10
 70
     1
102
RTVSPropertyOp11
 70
     1
102
RTVSPropertyOp12
 70
     1
102
RTVSPropertyOp13
 70
     1
102
RTVSPropertyOp14
 70
     1
102
RTVSPropertyOp15
 70
     1
102
RTVSPropertyOp16
 70
     1
102
RTVSPropertyOp17
 70
     1
102
RTVSPropertyOp18
 70
     1
102
RTVSPropertyOp19
 70
     1
102
RTVSPropertyOp20
 70
     1
102
RTVSPropertyOp21
 70
     1
102
RTVSPropertyOp22
 70
     1
102
RTVSPropertyOp23
 70
     1
102
RTVSPropertyOp24
 70
     1
102
RTVSPropertyOp25
 70
     1
102
RTVSPropertyOp26
 70
     1
102
RTVSPropertyOp27
 70
     1
102
RTVSPropertyOp28
 70
     1
102
RTVSPropertyOp29
 70
     1
102
RTVSPropertyOp30
 70
     1
102
RTVSPropertyOp31
 70
     1
102
RTVSPropertyOp32
 70
     1
  0
XRECORD
  5
99
102
{ACAD_REACTORS
330
98
102
}
330
98
100
AcDbXrecord
280
     1
102
RTVSPropertyOp0
 70
     1
102
RTVSPropertyOp1
 70
     1
102
RTVSPropertyOp2
 70
     1
102
RTVSPropertyOp3
 70
     1
102
RTVSPropertyOp4
 70
     1
102
RTVSPropertyOp5
 70
     1
102
RTVSPropertyOp6
 70
     1
102
RTVSPropertyOp7
 70
     1
102
RTVSPropertyOp8
 70
     1
102
RTVSPropertyOp9
 70
     1
102
RTVSPropertyOp10
 70
     1
102
RTVSPropertyOp11
 70
     1
102
RTVSPropertyOp12
 70
     1
102
RTVSPropertyOp13
 70
     1
102
RTVSPropertyOp14
 70
     1
102
RTVSPropertyOp15
 70
     1
102
RTVSPropertyOp16
 70
     1
102
RTVSPropertyOp17
 70
     1
102
RTVSPropertyOp18
 70
     1
102
RTVSPropertyOp19
 70
     1
102
RTVSPropertyOp20
 70
     1
102
RTVSPropertyOp21
 70
     1
102
RTVSPropertyOp22
 70
     1
102
RTVSPropertyOp23
 70
     1
102
RTVSPropertyOp24
 70
     1
102
RTVSPropertyOp25
 70
     1
102
RTVSPropertyOp26
 70
     1
102
RTVSPropertyOp27
 70
     1
102
RTVSPropertyOp28
 70
     1
102
RTVSPropertyOp29
 70
     1
102
RTVSPropertyOp30
 70
     1
102
RTVSPropertyOp31
 70
     1
102
RTVSPropertyOp32
 70
     1
  0
XRECORD
  5
A1
102
{ACAD_REACTORS
330
A0
102
}
330
A0
100
AcDbXrecord
280
     1
102
RTVSPropertyOp0
 70
     1
102
RTVSPropertyOp1
 70
     1
102
RTVSPropertyOp2
 70
     1
102
RTVSPropertyOp3
 70
     1
102
RTVSPropertyOp4
 70
     1
102
RTVSPropertyOp5
 70
     1
102
RTVSPropertyOp6
 70
     1
102
RTVSPropertyOp7
 70
     1
102
RTVSPropertyOp8
 70
     1
102
RTVSPropertyOp9
 70
     1
102
RTVSPropertyOp10
 70
     1
102
RTVSPropertyOp11
 70
     1
102
RTVSPropertyOp12
 70
     1
102
RTVSPropertyOp13
 70
     1
102
RTVSPropertyOp14
 70
     1
102
RTVSPropertyOp15
 70
     1
102
RTVSPropertyOp16
 70
     1
102
RTVSPropertyOp17
 70
     1
102
RTVSPropertyOp18
 70
     1
102
RTVSPropertyOp19
 70
     1
102
RTVSPropertyOp20
 70
     1
102
RTVSPropertyOp21
 70
     1
102
RTVSPropertyOp22
 70
     1
102
RTVSPropertyOp23
 70
     1
102
RTVSPropertyOp24
 70
     1
102
RTVSPropertyOp25
 70
     1
102
RTVSPropertyOp26
 70
     1
102
RTVSPropertyOp27
 70
     1
102
RTVSPropertyOp28
 70
     1
102
RTVSPropertyOp29
 70
     1
102
RTVSPropertyOp30
 70
     1
102
RTVSPropertyOp31
 70
     1
102
RTVSPropertyOp32
 70
     1
  0
ENDSEC
  0
EOF
