  0
SECTION
  2
HEADER
  9
$ACADVER
  1
AC1021
  9
$ACADMAINTVER
 70
    25
  9
$DWGCODEPAGE
  3
ANSI_1256
  9
$INSBASE
 10
0.0
 20
0.0
 30
0.0
  9
$EXTMIN
 10
-187.2964
 20
-114.8264
 30
0.0
  9
$EXTMAX
 10
-99.9423
 20
131.8842
 30
0.0
  9
$LIMMIN
 10
0.0
 20
0.0
  9
$LIMMAX
 10
12.0
 20
9.0
  9
$ORTHOMODE
 70
     0
  9
$REGENMODE
 70
     1
  9
$FILLMODE
 70
     1
  9
$QTEXTMODE
 70
     0
  9
$MIRRTEXT
 70
     1
  9
$LTSCALE
 40
1.0
  9
$ATTMODE
 70
     1
  9
$TEXTSIZE
 40
0.2
  9
$TRACEWID
 40
0.05
  9
$TEXTSTYLE
  7
Standard
  9
$CLAYER
  8
0
  9
$CELTYPE
  6
ByLayer
  9
$CECOLOR
 62
   256
  9
$CELTSCALE
 40
1.0
  9
$DISPSILH
 70
     0
  9
$DIMSCALE
 40
1.0
  9
$DIMASZ
 40
0.18
  9
$DIMEXO
 40
0.0625
  9
$DIMDLI
 40
0.38
  9
$DIMRND
 40
0.0
  9
$DIMDLE
 40
0.0
  9
$DIMEXE
 40
0.18
  9
$DIMTP
 40
0.0
  9
$DIMTM
 40
0.0
  9
$DIMTXT
 40
0.18
  9
$DIMCEN
 40
0.09
  9
$DIMTSZ
 40
0.0
  9
$DIMTOL
 70
     0
  9
$DIMLIM
 70
     0
  9
$DIMTIH
 70
     1
  9
$DIMTOH
 70
     1
  9
$DIMSE1
 70
     0
  9
$DIMSE2
 70
     0
  9
$DIMTAD
 70
     0
  9
$DIMZIN
 70
     0
  9
$DIMBLK
  1

  9
$DIMASO
 70
     1
  9
$DIMSHO
 70
     1
  9
$DIMPOST
  1

  9
$DIMAPOST
  1

  9
$DIMALT
 70
     0
  9
$DIMALTD
 70
     2
  9
$DIMALTF
 40
25.4
  9
$DIMLFAC
 40
1.0
  9
$DIMTOFL
 70
     0
  9
$DIMTVP
 40
0.0
  9
$DIMTIX
 70
     0
  9
$DIMSOXD
 70
     0
  9
$DIMSAH
 70
     0
  9
$DIMBLK1
  1

  9
$DIMBLK2
  1

  9
$DIMSTYLE
  2
Standard
  9
$DIMCLRD
 70
     0
  9
$DIMCLRE
 70
     0
  9
$DIMCLRT
 70
     0
  9
$DIMTFAC
 40
1.0
  9
$DIMGAP
 40
0.09
  9
$DIMJUST
 70
     0
  9
$DIMSD1
 70
     0
  9
$DIMSD2
 70
     0
  9
$DIMTOLJ
 70
     1
  9
$DIMTZIN
 70
     0
  9
$DIMALTZ
 70
     0
  9
$DIMALTTZ
 70
     0
  9
$DIMUPT
 70
     0
  9
$DIMDEC
 70
     4
  9
$DIMTDEC
 70
     4
  9
$DIMALTU
 70
     2
  9
$DIMALTTD
 70
     2
  9
$DIMTXSTY
  7
Standard
  9
$DIMAUNIT
 70
     0
  9
$DIMADEC
 70
     0
  9
$DIMALTRND
 40
0.0
  9
$DIMAZIN
 70
     0
  9
$DIMDSEP
 70
    46
  9
$DIMATFIT
 70
     3
  9
$DIMFRAC
 70
     0
  9
$DIMLDRBLK
  1

  9
$DIMLUNIT
 70
     2
  9
$DIMLWD
 70
    -2
  9
$DIMLWE
 70
    -2
  9
$DIMTMOVE
 70
     0
  9
$DIMFXL
 40
1.0
  9
$DIMFXLON
 70
     0
  9
$DIMJOGANG
 40
0.7853981633974483
  9
$DIMTFILL
 70
     0
  9
$DIMTFILLCLR
 70
     0
  9
$DIMARCSYM
 70
     0
  9
$DIMLTYPE
  6

  9
$DIMLTEX1
  6

  9
$DIMLTEX2
  6

  9
$LUNITS
 70
     2
  9
$LUPREC
 70
     4
  9
$SKETCHINC
 40
0.1
  9
$FILLETRAD
 40
0.5
  9
$AUNITS
 70
     0
  9
$AUPREC
 70
     0
  9
$MENU
  1
.
  9
$ELEVATION
 40
0.0
  9
$PELEVATION
 40
0.0
  9
$THICKNESS
 40
0.0
  9
$LIMCHECK
 70
     0
  9
$CHAMFERA
 40
0.5
  9
$CHAMFERB
 40
0.5
  9
$CHAMFERC
 40
1.0
  9
$CHAMFERD
 40
0.0
  9
$SKPOLY
 70
     0
  9
$TDCREATE
 40
2458492.387339514
  9
$TDUCREATE
 40
2458492.220672847
  9
$TDUPDATE
 40
2458492.387339676
  9
$TDUUPDATE
 40
2458492.220673009
  9
$TDINDWG
 40
0.0000000116
  9
$TDUSRTIMER
 40
0.0000000116
  9
$USRTIMER
 70
     1
  9
$ANGBASE
 50
0.0
  9
$ANGDIR
 70
     0
  9
$PDMODE
 70
     0
  9
$PDSIZE
 40
0.0
  9
$PLINEWID
 40
0.0
  9
$SPLFRAME
 70
     0
  9
$SPLINETYPE
 70
     6
  9
$SPLINESEGS
 70
     8
  9
$HANDSEED
  5
B1
  9
$SURFTAB1
 70
     6
  9
$SURFTAB2
 70
     6
  9
$SURFTYPE
 70
     6
  9
$SURFU
 70
     6
  9
$SURFV
 70
     6
  9
$UCSBASE
  2

  9
$UCSNAME
  2

  9
$UCSORG
 10
0.0
 20
0.0
 30
0.0
  9
$UCSXDIR
 10
1.0
 20
0.0
 30
0.0
  9
$UCSYDIR
 10
0.0
 20
1.0
 30
0.0
  9
$UCSORTHOREF
  2

  9
$UCSORTHOVIEW
 70
     0
  9
$UCSORGTOP
 10
0.0
 20
0.0
 30
0.0
  9
$UCSORGBOTTOM
 10
0.0
 20
0.0
 30
0.0
  9
$UCSORGLEFT
 10
0.0
 20
0.0
 30
0.0
  9
$UCSORGRIGHT
 10
0.0
 20
0.0
 30
0.0
  9
$UCSORGFRONT
 10
0.0
 20
0.0
 30
0.0
  9
$UCSORGBACK
 10
0.0
 20
0.0
 30
0.0
  9
$PUCSBASE
  2

  9
$PUCSNAME
  2

  9
$PUCSORG
 10
0.0
 20
0.0
 30
0.0
  9
$PUCSXDIR
 10
1.0
 20
0.0
 30
0.0
  9
$PUCSYDIR
 10
0.0
 20
1.0
 30
0.0
  9
$PUCSORTHOREF
  2

  9
$PUCSORTHOVIEW
 70
     0
  9
$PUCSORGTOP
 10
0.0
 20
0.0
 30
0.0
  9
$PUCSORGBOTTOM
 10
0.0
 20
0.0
 30
0.0
  9
$PUCSORGLEFT
 10
0.0
 20
0.0
 30
0.0
  9
$PUCSORGRIGHT
 10
0.0
 20
0.0
 30
0.0
  9
$PUCSORGFRONT
 10
0.0
 20
0.0
 30
0.0
  9
$PUCSORGBACK
 10
0.0
 20
0.0
 30
0.0
  9
$USERI1
 70
     0
  9
$USERI2
 70
     0
  9
$USERI3
 70
     0
  9
$USERI4
 70
     0
  9
$USERI5
 70
     0
  9
$USERR1
 40
0.0
  9
$USERR2
 40
0.0
  9
$USERR3
 40
0.0
  9
$USERR4
 40
0.0
  9
$USERR5
 40
0.0
  9
$WORLDVIEW
 70
     1
  9
$SHADEDGE
 70
     3
  9
$SHADEDIF
 70
    70
  9
$TILEMODE
 70
     1
  9
$MAXACTVP
 70
    64
  9
$PINSBASE
 10
0.0
 20
0.0
 30
0.0
  9
$PLIMCHECK
 70
     0
  9
$PEXTMIN
 10
1.000000000000000E+20
 20
1.000000000000000E+20
 30
1.000000000000000E+20
  9
$PEXTMAX
 10
-1.000000000000000E+20
 20
-1.000000000000000E+20
 30
-1.000000000000000E+20
  9
$PLIMMIN
 10
0.0
 20
0.0
  9
$PLIMMAX
 10
12.0
 20
9.0
  9
$UNITMODE
 70
     0
  9
$VISRETAIN
 70
     1
  9
$PLINEGEN
 70
     0
  9
$PSLTSCALE
 70
     1
  9
$TREEDEPTH
 70
  3020
  9
$CMLSTYLE
  2
Standard
  9
$CMLJUST
 70
     0
  9
$CMLSCALE
 40
1.0
  9
$PROXYGRAPHICS
 70
     1
  9
$MEASUREMENT
 70
     0
  9
$CELWEIGHT
370
    -1
  9
$ENDCAPS
280
     0
  9
$JOINSTYLE
280
     0
  9
$LWDISPLAY
290
     0
  9
$INSUNITS
 70
     4
  9
$HYPERLINKBASE
  1

  9
$STYLESHEET
  1

  9
$XEDIT
290
     1
  9
$CEPSNTYPE
380
     0
  9
$PSTYLEMODE
290
     1
  9
$FINGERPRINTGUID
  2
{CF1FD139-FFE4-4296-9310-605DD53FB728}
  9
$VERSIONGUID
  2
{FAEB1C32-E019-11D5-929B-00C0DF256EC4}
  9
$EXTNAMES
290
     1
  9
$PSVPSCALE
 40
0.0
  9
$OLESTARTUP
290
     0
  9
$SORTENTS
280
   127
  9
$INDEXCTL
280
     0
  9
$HIDETEXT
280
     1
  9
$XCLIPFRAME
290
     0
  9
$HALOGAP
280
     0
  9
$OBSCOLOR
 70
   257
  9
$OBSLTYPE
280
     0
  9
$INTERSECTIONDISPLAY
280
     0
  9
$INTERSECTIONCOLOR
 70
   257
  9
$DIMASSOC
280
     2
  9
$PROJECTNAME
  1

  9
$CAMERADISPLAY
290
     0
  9
$LENSLENGTH
 40
50.0
  9
$CAMERAHEIGHT
 40
0.0
  9
$STEPSPERSEC
 40
2.0
  9
$STEPSIZE
 40
6.0
  9
$3DDWFPREC
 40
2.0
  9
$PSOLWIDTH
 40
0.25
  9
$PSOLHEIGHT
 40
4.0
  9
$LOFTANG1
 40
1.570796326794897
  9
$LOFTANG2
 40
1.570796326794897
  9
$LOFTMAG1
 40
0.0
  9
$LOFTMAG2
 40
0.0
  9
$LOFTPARAM
 70
     7
  9
$LOFTNORMALS
280
     1
  9
$LATITUDE
 40
37.795
  9
$LONGITUDE
 40
-122.394
  9
$NORTHDIRECTION
 40
0.0
  9
$TIMEZONE
 70
 -8000
  9
$LIGHTGLYPHDISPLAY
280
     1
  9
$TILEMODELIGHTSYNCH
280
     1
  9
$SOLIDHIST
280
     1
  9
$SHOWHIST
280
     1
  9
$DWFFRAME
280
     2
  9
$DGNFRAME
280
     2
  9
$REALWORLDSCALE
290
     1
  9
$INTERFERECOLOR
 62
   256
  9
$CSHADOW
280
     0
  9
$SHADOWPLANELOCATION
 40
0.0
  0
ENDSEC
  0
SECTION
  2
CLASSES
  0
CLASS
  1
ACDBDICTIONARYWDFLT
  2
AcDbDictionaryWithDefault
  3
ObjectDBX Classes
 90
        0
 91
        4
280
     0
281
     0
  0
CLASS
  1
VISUALSTYLE
  2
AcDbVisualStyle
  3
ObjectDBX Classes
 90
     4095
 91
        4
280
     0
281
     0
  0
CLASS
  1
MATERIAL
  2
AcDbMaterial
  3
ObjectDBX Classes
 90
     1153
 91
        4
280
     0
281
     0
  0
ENDSEC
  0
SECTION
  2
TABLES
  0
TABLE
  2
VPORT
  5
8
330
0
100
AcDbSymbolTable
 70
     1
  0
VPORT
  5
29
330
8
100
AcDbSymbolTableRecord
100
AcDbViewportTableRecord
  2
*Active
 70
     0
 10
0.0
 20
0.0
 11
1.0
 21
1.0
 12
10.42990654205607
 22
4.5
 13
0.0
 23
0.0
 14
0.5
 24
0.5
 15
0.5
 25
0.5
 16
0.0
 26
0.0
 36
1.0
 17
0.0
 27
0.0
 37
0.0
 40
9.0
 41
1.972972972850329
 42
50.0
 43
0.0
 44
0.0
 50
0.0
 51
0.0
 71
     0
 72
   100
 73
     1
 74
     3
 75
     0
 76
     0
 77
     0
 78
     0
281
     0
 65
     1
110
0.0
120
0.0
130
0.0
111
1.0
121
0.0
131
0.0
112
0.0
122
1.0
132
0.0
 79
     0
146
0.0
 60
     3
 61
     5
292
     1
282
     1
141
0.0
142
0.0
 63
   250
  0
ENDTAB
  0
TABLE
  2
LTYPE
  5
5
330
0
100
AcDbSymbolTable
 70
     1
  0
LTYPE
  5
14
330
5
100
AcDbSymbolTableRecord
100
AcDbLinetypeTableRecord
  2
ByBlock
 70
     0
  3

 72
    65
 73
     0
 40
0.0
  0
LTYPE
  5
15
330
5
100
AcDbSymbolTableRecord
100
AcDbLinetypeTableRecord
  2
ByLayer
 70
     0
  3

 72
    65
 73
     0
 40
0.0
  0
LTYPE
  5
16
330
5
100
AcDbSymbolTableRecord
100
AcDbLinetypeTableRecord
  2
Continuous
 70
     0
  3
Solid line
 72
    65
 73
     0
 40
0.0
  0
ENDTAB
  0
TABLE
  2
LAYER
  5
2
330
0
100
AcDbSymbolTable
 70
     2
  0
LAYER
  5
10
330
2
100
AcDbSymbolTableRecord
100
AcDbLayerTableRecord
  2
0
 70
     0
 62
     7
  6
Continuous
370
    -3
390
F
347
3E
  0
LAYER
  5
40
330
2
100
AcDbSymbolTableRecord
100
AcDbLayerTableRecord
  2
layer 1
 70
     0
 62
     7
  6
Continuous
370
    -3
390
F
347
3E
  0
ENDTAB
  0
TABLE
  2
STYLE
  5
3
330
0
100
AcDbSymbolTable
 70
     1
  0
STYLE
  5
11
330
3
100
AcDbSymbolTableRecord
100
AcDbTextStyleTableRecord
  2
Standard
 70
     0
 40
0.0
 41
1.0
 50
0.0
 71
     0
 42
0.2
  3
txt
  4

  0
ENDTAB
  0
TABLE
  2
VIEW
  5
6
330
0
100
AcDbSymbolTable
 70
     0
  0
ENDTAB
  0
TABLE
  2
UCS
  5
7
330
0
100
AcDbSymbolTable
 70
     0
  0
ENDTAB
  0
TABLE
  2
APPID
  5
9
330
0
100
AcDbSymbolTable
 70
     2
  0
APPID
  5
12
330
9
100
AcDbSymbolTableRecord
100
AcDbRegAppTableRecord
  2
ACAD
 70
     0
  0
APPID
  5
3F
330
9
100
AcDbSymbolTableRecord
100
AcDbRegAppTableRecord
  2
ODA
 70
     0
  0
ENDTAB
  0
TABLE
  2
DIMSTYLE
  5
A
330
0
100
AcDbSymbolTable
 70
     1
100
AcDbDimStyleTable
  0
DIMSTYLE
105
27
330
A
100
AcDbSymbolTableRecord
100
AcDbDimStyleTableRecord
  2
Standard
 70
     0
178
     0
340
11
  0
ENDTAB
  0
TABLE
  2
BLOCK_RECORD
  5
1
330
0
100
AcDbSymbolTable
 70
     1
  0
BLOCK_RECORD
  5
1F
330
1
100
AcDbSymbolTableRecord
100
AcDbBlockTableRecord
  2
*Model_Space
340
22
 70
     0
280
     1
281
     0
  0
BLOCK_RECORD
  5
1B
330
1
100
AcDbSymbolTableRecord
100
AcDbBlockTableRecord
  2
*Paper_Space
340
1E
 70
     0
280
     1
281
     0
  0
BLOCK_RECORD
  5
23
330
1
100
AcDbSymbolTableRecord
100
AcDbBlockTableRecord
  2
*Paper_Space0
340
26
 70
     0
280
     1
281
     0
  0
ENDTAB
  0
ENDSEC
  0
SECTION
  2
BLOCKS
  0
BLOCK
  5
20
330
1F
100
AcDbEntity
  8
0
100
AcDbBlockBegin
  2
*Model_Space
 70
     0
 10
0.0
 20
0.0
 30
0.0
  3
*Model_Space
  1

  0
ENDBLK
  5
21
330
1F
100
AcDbEntity
  8
0
100
AcDbBlockEnd
  0
BLOCK
  5
1C
330
1B
100
AcDbEntity
 67
     1
  8
0
100
AcDbBlockBegin
  2
*Paper_Space
 70
     0
 10
0.0
 20
0.0
 30
0.0
  3
*Paper_Space
  1

  0
ENDBLK
  5
1D
330
1B
100
AcDbEntity
 67
     1
  8
0
100
AcDbBlockEnd
  0
BLOCK
  5
24
330
23
100
AcDbEntity
  8
0
100
AcDbBlockBegin
  2
*Paper_Space0
 70
     0
 10
0.0
 20
0.0
 30
0.0
  3
*Paper_Space0
  1

  0
ENDBLK
  5
25
330
23
100
AcDbEntity
  8
0
100
AcDbBlockEnd
  0
ENDSEC
  0
SECTION
  2
ENTITIES
  0
SPLINE
  5
41
330
1F
100
AcDbEntity
  8
layer 1
100
AcDbSpline
210
0.0
220
0.0
230
1.0
 70
    11
 71
     3
 72
    20
 73
    16
 74
     0
 42
0.0000000001
 43
0.0000000001
 12
1.0
 22
0.0
 32
0.0
 13
1.0
 23
0.0
 33
0.0
 40
0.0
 40
0.0
 40
0.0
 40
0.0
 40
0.2
 40
0.2
 40
0.2
 40
0.2
 40
0.4
 40
0.4
 40
0.4
 40
0.4
 40
0.6
 40
0.6
 40
0.6
 40
0.6
 40
1.0
 40
1.0
 40
1.0
 40
1.0
 10
-187.2964
 20
131.8842
 30
0.0
 10
-187.2964
 20
131.8842
 30
0.0
 10
-99.9423
 20
131.8842
 30
0.0
 10
-99.9423
 20
131.8842
 30
0.0
 10
-99.9423
 20
131.8842
 30
0.0
 10
-99.9423
 20
131.8842
 30
0.0
 10
-99.9423
 20
-114.8264
 30
0.0
 10
-99.9423
 20
-114.8264
 30
0.0
 10
-99.9423
 20
-114.8264
 30
0.0
 10
-99.9423
 20
-114.8264
 30
0.0
 10
-187.2964
 20
-114.8264
 30
0.0
 10
-187.2964
 20
-114.8264
 30
0.0
 10
-187.2964
 20
-114.8264
 30
0.0
 10
-187.2964
 20
-114.8264
 30
0.0
 10
-187.2964
 20
131.8842
 30
0.0
 10
-187.2964
 20
131.8842
 30
0.0
  0
SPLINE
  5
42
330
1F
100
AcDbEntity
  8
layer 1
 62
     7
100
AcDbSpline
210
0.0
220
0.0
230
1.0
 70
    11
 71
     3
 72
    16
 73
    12
 74
     0
 42
0.0000000001
 43
0.0000000001
 12
1.0
 22
0.0
 32
0.0
 13
1.0
 23
0.0
 33
0.0
 40
0.0
 40
0.0
 40
0.0
 40
0.0
 40
0.25
 40
0.25
 40
0.25
 40
0.25
 40
0.5
 40
0.5
 40
0.5
 40
0.5
 40
1.0
 40
1.0
 40
1.0
 40
1.0
 10
-108.369
 20
81.3341
 30
0.0
 10
-108.369
 20
81.3341
 30
0.0
 10
-108.369
 20
75.5563
 30
0.0
 10
-108.369
 20
75.5563
 30
0.0
 10
-108.369
 20
75.5563
 30
0.0
 10
-109.999
 20
77.0174
 30
0.0
 10
-113.3086
 20
78.3417
 30
0.0
 10
-114.2272
 20
78.4305
 30
0.0
 10
-114.2272
 20
78.4305
 30
0.0
 10
-111.9841
 20
79.145
 30
0.0
 10
-109.8892
 20
79.3671
 30
0.0
 10
-108.369
 20
81.3341
 30
0.0
  0
SPLINE
  5
43
330
1F
100
AcDbEntity
  8
layer 1
 62
     7
100
AcDbSpline
210
0.0
220
0.0
230
1.0
 70
    11
 71
     3
 72
    20
 73
    16
 74
     0
 42
0.0000000001
 43
0.0000000001
 12
1.0
 22
0.0
 32
0.0
 13
1.0
 23
0.0
 33
0.0
 40
0.0
 40
0.0
 40
0.0
 40
0.0
 40
0.2
 40
0.2
 40
0.2
 40
0.2
 40
0.4
 40
0.4
 40
0.4
 40
0.4
 40
0.6
 40
0.6
 40
0.6
 40
0.6
 40
1.0
 40
1.0
 40
1.0
 40
1.0
 10
-178.8158
 20
92.6767
 30
0.0
 10
-178.8158
 20
92.6767
 30
0.0
 10
-178.8158
 20
83.1538
 30
0.0
 10
-178.8158
 20
83.1538
 30
0.0
 10
-178.8158
 20
83.1538
 30
0.0
 10
-178.8158
 20
83.1538
 30
0.0
 10
-176.2149
 20
83.4975
 30
0.0
 10
-176.2149
 20
83.4975
 30
0.0
 10
-176.2149
 20
83.4975
 30
0.0
 10
-176.8217
 20
88.5646
 30
0.0
 10
-173.5478
 20
89.7167
 30
0.0
 10
-172.9554
 20
89.7728
 30
0.0
 10
-172.9554
 20
89.7728
 30
0.0
 10
-175.1983
 20
90.4876
 30
0.0
 10
-177.2928
 20
90.7097
 30
0.0
 10
-178.8158
 20
92.6767
 30
0.0
  0
SPLINE
  5
44
330
1F
100
AcDbEntity
  8
layer 1
 62
     7
100
AcDbSpline
210
0.0
220
0.0
230
1.0
 70
    11
 71
     3
 72
    20
 73
    16
 74
     0
 42
0.0000000001
 43
0.0000000001
 12
1.0
 22
0.0
 32
0.0
 13
1.0
 23
0.0
 33
0.0
 40
0.0
 40
0.0
 40
0.0
 40
0.0
 40
0.2
 40
0.2
 40
0.2
 40
0.2
 40
0.4
 40
0.4
 40
0.4
 40
0.4
 40
0.6
 40
0.6
 40
0.6
 40
0.6
 40
1.0
 40
1.0
 40
1.0
 40
1.0
 10
-164.5248
 20
91.7407
 30
0.0
 10
-164.5248
 20
91.7407
 30
0.0
 10
-165.2486
 20
86.5817
 30
0.0
 10
-162.6529
 20
83.3609
 30
0.0
 10
-162.6529
 20
83.3609
 30
0.0
 10
-167.5506
 20
84.3031
 30
0.0
 10
-166.8066
 20
76.9043
 30
0.0
 10
-172.0155
 20
83.1865
 30
0.0
 10
-172.0155
 20
83.1865
 30
0.0
 10
-165.7309
 20
81.7612
 30
0.0
 10
-165.2303
 20
89.3701
 30
0.0
 10
-168.0953
 20
90.3979
 30
0.0
 10
-168.0953
 20
90.3979
 30
0.0
 10
-166.9606
 20
90.1704
 30
0.0
 10
-165.2456
 20
91.0769
 30
0.0
 10
-164.5248
 20
91.7407
 30
0.0
  0
SPLINE
  5
45
330
1F
100
AcDbEntity
  8
layer 1
 62
     7
100
AcDbSpline
210
0.0
220
0.0
230
1.0
 70
    11
 71
     3
 72
    24
 73
    20
 74
     0
 42
0.0000000001
 43
0.0000000001
 12
1.0
 22
0.0
 32
0.0
 13
1.0
 23
0.0
 33
0.0
 40
0.0
 40
0.0
 40
0.0
 40
0.0
 40
0.1666666666666667
 40
0.1666666666666667
 40
0.1666666666666667
 40
0.1666666666666667
 40
0.3333333333333333
 40
0.3333333333333333
 40
0.3333333333333333
 40
0.3333333333333333
 40
0.5
 40
0.5
 40
0.5
 40
0.5
 40
0.6666666666666666
 40
0.6666666666666666
 40
0.6666666666666666
 40
0.6666666666666666
 40
1.0
 40
1.0
 40
1.0
 40
1.0
 10
-155.1112
 20
84.2113
 30
0.0
 10
-155.1112
 20
84.2113
 30
0.0
 10
-154.8982
 20
80.2586
 30
0.0
 10
-154.8982
 20
80.2586
 30
0.0
 10
-154.8982
 20
80.2586
 30
0.0
 10
-162.288
 20
82.5015
 30
0.0
 10
-163.4736
 20
94.6351
 30
0.0
 10
-157.6685
 20
101.4386
 30
0.0
 10
-157.6685
 20
101.4386
 30
0.0
 10
-156.0124
 20
103.3798
 30
0.0
 10
-154.1897
 20
104.9028
 30
0.0
 10
-150.8627
 20
105.4474
 30
0.0
 10
-150.8627
 20
105.4474
 30
0.0
 10
-150.9454
 20
104.852
 30
0.0
 10
-150.8893
 20
104.3218
 30
0.0
 10
-150.9841
 20
103.9661
 30
0.0
 10
-150.9841
 20
103.9661
 30
0.0
 10
-162.5845
 20
101.9658
 30
0.0
 10
-161.257
 20
86.2024
 30
0.0
 10
-155.1112
 20
84.2113
 30
0.0
  0
SPLINE
  5
46
330
1F
100
AcDbEntity
  8
layer 1
 62
     7
100
AcDbSpline
210
0.0
220
0.0
230
1.0
 70
    11
 71
     3
 72
    16
 73
    12
 74
     0
 42
0.0000000001
 43
0.0000000001
 12
1.0
 22
0.0
 32
0.0
 13
1.0
 23
0.0
 33
0.0
 40
0.0
 40
0.0
 40
0.0
 40
0.0
 40
0.25
 40
0.25
 40
0.25
 40
0.25
 40
0.5
 40
0.5
 40
0.5
 40
0.5
 40
1.0
 40
1.0
 40
1.0
 40
1.0
 10
-108.369
 20
99.5006
 30
0.0
 10
-108.369
 20
99.5006
 30
0.0
 10
-108.369
 20
93.7197
 30
0.0
 10
-108.369
 20
93.7197
 30
0.0
 10
-108.369
 20
93.7197
 30
0.0
 10
-110.2214
 20
95.2367
 30
0.0
 10
-114.1384
 20
100.105
 30
0.0
 10
-114.728
 20
104.7368
 30
0.0
 10
-114.728
 20
104.7368
 30
0.0
 10
-112.8162
 20
103.9547
 30
0.0
 10
-110.6091
 20
102.295
 30
0.0
 10
-108.369
 20
99.5006
 30
0.0
  0
SPLINE
  5
47
330
1F
100
AcDbEntity
  8
layer 1
 62
     7
100
AcDbSpline
210
0.0
220
0.0
230
1.0
 70
    11
 71
     3
 72
    28
 73
    24
 74
     0
 42
0.0000000001
 43
0.0000000001
 12
1.0
 22
0.0
 32
0.0
 13
1.0
 23
0.0
 33
0.0
 40
0.0
 40
0.0
 40
0.0
 40
0.0
 40
0.1428571428571428
 40
0.1428571428571428
 40
0.1428571428571428
 40
0.1428571428571428
 40
0.2857142857142857
 40
0.2857142857142857
 40
0.2857142857142857
 40
0.2857142857142857
 40
0.4285714285714285
 40
0.4285714285714285
 40
0.4285714285714285
 40
0.4285714285714285
 40
0.5714285714285714
 40
0.5714285714285714
 40
0.5714285714285714
 40
0.5714285714285714
 40
0.7142857142857143
 40
0.7142857142857143
 40
0.7142857142857143
 40
0.7142857142857143
 40
1.0
 40
1.0
 40
1.0
 40
1.0
 10
-115.9044
 20
97.7856
 30
0.0
 10
-116.873
 20
99.9807
 30
0.0
 10
-118.4167
 20
101.9718
 30
0.0
 10
-118.1292
 20
105.7798
 30
0.0
 10
-118.1292
 20
105.7798
 30
0.0
 10
-124.1324
 20
105.7532
 30
0.0
 10
-128.9037
 20
102.8465
 30
0.0
 10
-131.419
 20
97.6695
 30
0.0
 10
-131.419
 20
97.6695
 30
0.0
 10
-133.1226
 20
94.1612
 30
0.0
 10
-133.3419
 20
87.806
 30
0.0
 10
-131.8991
 20
83.791
 30
0.0
 10
-131.8991
 20
83.791
 30
0.0
 10
-130.1476
 20
83.7372
 30
0.0
 10
-128.4295
 20
81.8824
 30
0.0
 10
-127.8516
 20
79.6243
 30
0.0
 10
-127.8516
 20
79.6243
 30
0.0
 10
-127.8516
 20
79.6243
 30
0.0
 10
-125.3627
 20
79.5387
 30
0.0
 10
-125.3627
 20
79.5387
 30
0.0
 10
-125.3627
 20
79.5387
 30
0.0
 10
-138.2784
 20
90.8159
 30
0.0
 10
-127.3835
 20
105.8714
 30
0.0
 10
-115.9044
 20
97.7856
 30
0.0
  0
SPLINE
  5
48
330
1F
100
AcDbEntity
  8
layer 1
 62
     7
100
AcDbSpline
210
0.0
220
0.0
230
1.0
 70
    11
 71
     3
 72
    32
 73
    28
 74
     0
 42
0.0000000001
 43
0.0000000001
 12
1.0
 22
0.0
 32
0.0
 13
1.0
 23
0.0
 33
0.0
 40
0.0
 40
0.0
 40
0.0
 40
0.0
 40
0.125
 40
0.125
 40
0.125
 40
0.125
 40
0.25
 40
0.25
 40
0.25
 40
0.25
 40
0.375
 40
0.375
 40
0.375
 40
0.375
 40
0.5
 40
0.5
 40
0.5
 40
0.5
 40
0.625
 40
0.625
 40
0.625
 40
0.625
 40
0.75
 40
0.75
 40
0.75
 40
0.75
 40
1.0
 40
1.0
 40
1.0
 40
1.0
 10
-113.0334
 20
93.6817
 30
0.0
 10
-111.4866
 20
92.3778
 30
0.0
 10
-110.141
 20
90.7688
 30
0.0
 10
-108.369
 20
89.7584
 30
0.0
 10
-108.369
 20
89.7584
 30
0.0
 10
-108.369
 20
89.7584
 30
0.0
 10
-108.369
 20
86.1994
 30
0.0
 10
-108.369
 20
86.1994
 30
0.0
 10
-108.369
 20
86.1994
 30
0.0
 10
-109.993
 20
84.5876
 30
0.0
 10
-111.3767
 20
82.8603
 30
0.0
 10
-114.0582
 20
82.0987
 30
0.0
 10
-114.0582
 20
82.0987
 30
0.0
 10
-114.473
 20
84.9964
 30
0.0
 10
-118.6276
 20
85.1002
 30
0.0
 10
-118.8878
 20
81.705
 30
0.0
 10
-118.8878
 20
81.705
 30
0.0
 10
-130.2189
 20
82.4871
 30
0.0
 10
-130.4617
 20
95.9953
 30
0.0
 10
-121.2939
 20
95.8177
 30
0.0
 10
-121.2939
 20
95.8177
 30
0.0
 10
-128.1391
 20
88.8491
 30
0.0
 10
-119.1609
 20
83.9716
 30
0.0
 10
-115.4152
 20
86.6469
 30
0.0
 10
-115.4152
 20
86.6469
 30
0.0
 10
-112.8732
 20
88.4638
 30
0.0
 10
-112.5767
 20
92.4012
 30
0.0
 10
-113.0334
 20
93.6817
 30
0.0
  0
SPLINE
  5
49
330
1F
100
AcDbEntity
  8
layer 1
 62
     7
100
AcDbSpline
210
0.0
220
0.0
230
1.0
 70
    11
 71
     3
 72
    40
 73
    36
 74
     0
 42
0.0000000001
 43
0.0000000001
 12
1.0
 22
0.0
 32
0.0
 13
1.0
 23
0.0
 33
0.0
 40
0.0
 40
0.0
 40
0.0
 40
0.0
 40
0.1
 40
0.1
 40
0.1
 40
0.1
 40
0.2
 40
0.2
 40
0.2
 40
0.2
 40
0.3
 40
0.3
 40
0.3
 40
0.3
 40
0.4
 40
0.4
 40
0.4
 40
0.4
 40
0.5
 40
0.5
 40
0.5
 40
0.5
 40
0.6
 40
0.6
 40
0.6
 40
0.6
 40
0.7
 40
0.7
 40
0.7
 40
0.7
 40
0.8
 40
0.8
 40
0.8
 40
0.8
 40
1.0
 40
1.0
 40
1.0
 40
1.0
 10
-151.3634
 20
82.9552
 30
0.0
 10
-151.3634
 20
82.9552
 30
0.0
 10
-151.2503
 20
81.121
 30
0.0
 10
-151.2503
 20
81.121
 30
0.0
 10
-151.2503
 20
81.121
 30
0.0
 10
-148.0386
 20
83.3792
 30
0.0
 10
-145.603
 20
81.705
 30
0.0
 10
-144.9363
 20
79.2572
 30
0.0
 10
-144.9363
 20
79.2572
 30
0.0
 10
-139.7181
 20
81.8113
 30
0.0
 10
-137.1377
 20
87.5155
 30
0.0
 10
-137.6178
 20
90.7477
 30
0.0
 10
-137.6178
 20
90.7477
 30
0.0
 10
-138.0326
 20
95.3438
 30
0.0
 10
-141.1618
 20
100.4486
 30
0.0
 10
-147.8195
 20
100.2916
 30
0.0
 10
-147.8195
 20
100.2916
 30
0.0
 10
-150.3735
 20
100.4222
 30
0.0
 10
-155.6477
 20
98.4227
 30
0.0
 10
-156.3113
 20
93.0884
 30
0.0
 10
-156.3113
 20
93.0884
 30
0.0
 10
-157.0525
 20
87.1036
 30
0.0
 10
-149.3661
 20
83.7789
 30
0.0
 10
-146.6908
 20
89.154
 30
0.0
 10
-146.6908
 20
89.154
 30
0.0
 10
-154.9399
 20
87.5626
 30
0.0
 10
-153.651
 20
98.1913
 30
0.0
 10
-147.4993
 20
97.4418
 30
0.0
 10
-147.4993
 20
97.4418
 30
0.0
 10
-140.9569
 20
96.6447
 30
0.0
 10
-141.9907
 20
89.7077
 30
0.0
 10
-143.1733
 20
87.2872
 30
0.0
 10
-143.1733
 20
87.2872
 30
0.0
 10
-144.7761
 20
83.9982
 30
0.0
 10
-148.1988
 20
83.4618
 30
0.0
 10
-151.3634
 20
82.9552
 30
0.0
  0
SPLINE
  5
4A
330
1F
100
AcDbEntity
  8
layer 1
 62
     7
100
AcDbSpline
210
0.0
220
0.0
230
1.0
 70
    11
 71
     3
 72
    44
 73
    40
 74
     0
 42
0.0000000001
 43
0.0000000001
 12
1.0
 22
0.0
 32
0.0
 13
1.0
 23
0.0
 33
0.0
 40
0.0
 40
0.0
 40
0.0
 40
0.0
 40
0.0909090909090909
 40
0.0909090909090909
 40
0.0909090909090909
 40
0.0909090909090909
 40
0.1818181818181818
 40
0.1818181818181818
 40
0.1818181818181818
 40
0.1818181818181818
 40
0.2727272727272727
 40
0.2727272727272727
 40
0.2727272727272727
 40
0.2727272727272727
 40
0.3636363636363636
 40
0.3636363636363636
 40
0.3636363636363636
 40
0.3636363636363636
 40
0.4545454545454545
 40
0.4545454545454545
 40
0.4545454545454545
 40
0.4545454545454545
 40
0.5454545454545454
 40
0.5454545454545454
 40
0.5454545454545454
 40
0.5454545454545454
 40
0.6363636363636364
 40
0.6363636363636364
 40
0.6363636363636364
 40
0.6363636363636364
 40
0.7272727272727273
 40
0.7272727272727273
 40
0.7272727272727273
 40
0.7272727272727273
 40
0.8181818181818182
 40
0.8181818181818182
 40
0.8181818181818182
 40
0.8181818181818182
 40
1.0
 40
1.0
 40
1.0
 40
1.0
 10
-122.9975
 20
117.2854
 30
0.0
 10
-123.9079
 20
103.3471
 30
0.0
 10
-131.3712
 20
111.3884
 30
0.0
 10
-135.6858
 20
96.8904
 30
0.0
 10
-135.6858
 20
96.8904
 30
0.0
 10
-137.1347
 20
101.1397
 30
0.0
 10
-140.8386
 20
103.495
 30
0.0
 10
-144.5038
 20
103.7591
 30
0.0
 10
-144.5038
 20
103.7591
 30
0.0
 10
-144.2194
 20
106.6864
 30
0.0
 10
-145.6804
 20
111.2201
 30
0.0
 10
-154.1753
 20
108.1145
 30
0.0
 10
-154.1753
 20
108.1145
 30
0.0
 10
-152.6703
 20
110.2361
 30
0.0
 10
-146.9783
 20
122.6929
 30
0.0
 10
-138.9484
 20
122.7961
 30
0.0
 10
-138.9484
 20
122.7961
 30
0.0
 10
-129.4573
 20
122.6839
 30
0.0
 10
-127.5314
 20
116.0292
 30
0.0
 10
-130.8644
 20
110.9143
 30
0.0
 10
-130.8644
 20
110.9143
 30
0.0
 10
-134.9537
 20
106.5853
 30
0.0
 10
-138.3824
 20
108.823
 30
0.0
 10
-139.4784
 20
109.4246
 30
0.0
 10
-139.4784
 20
109.4246
 30
0.0
 10
-131.7656
 20
111.2884
 30
0.0
 10
-134.9066
 20
119.7355
 30
0.0
 10
-140.1034
 20
118.3639
 30
0.0
 10
-140.1034
 20
118.3639
 30
0.0
 10
-146.756
 20
116.6035
 30
0.0
 10
-145.0281
 20
108.6334
 30
0.0
 10
-141.3301
 20
106.3903
 30
0.0
 10
-141.3301
 20
106.3903
 30
0.0
 10
-132.1479
 20
102.0312
 30
0.0
 10
-125.739
 20
108.39
 30
0.0
 10
-125.7829
 20
116.8704
 30
0.0
 10
-125.7829
 20
116.8704
 30
0.0
 10
-124.6572
 20
116.687
 30
0.0
 10
-123.8425
 20
116.693
 30
0.0
 10
-122.9975
 20
117.2854
 30
0.0
  0
SPLINE
  5
4B
330
1F
100
AcDbEntity
  8
layer 1
 62
     7
100
AcDbSpline
210
0.0
220
0.0
230
1.0
 70
    11
 71
     3
 72
    24
 73
    20
 74
     0
 42
0.0000000001
 43
0.0000000001
 12
1.0
 22
0.0
 32
0.0
 13
1.0
 23
0.0
 33
0.0
 40
0.0
 40
0.0
 40
0.0
 40
0.0
 40
0.1666666666666667
 40
0.1666666666666667
 40
0.1666666666666667
 40
0.1666666666666667
 40
0.3333333333333333
 40
0.3333333333333333
 40
0.3333333333333333
 40
0.3333333333333333
 40
0.5
 40
0.5
 40
0.5
 40
0.5
 40
0.6666666666666666
 40
0.6666666666666666
 40
0.6666666666666666
 40
0.6666666666666666
 40
1.0
 40
1.0
 40
1.0
 40
1.0
 10
-135.1995
 20
83.9124
 30
0.0
 10
-135.1995
 20
83.9124
 30
0.0
 10
-135.0752
 20
82.7503
 30
0.0
 10
-135.0752
 20
82.7503
 30
0.0
 10
-135.0752
 20
82.7503
 30
0.0
 10
-138.0623
 20
80.2085
 30
0.0
 10
-137.0011
 20
76.333
 30
0.0
 10
-134.6071
 20
74.8925
 30
0.0
 10
-134.6071
 20
74.8925
 30
0.0
 10
-134.8855
 20
74.2258
 30
0.0
 10
-135.0281
 20
73.8557
 30
0.0
 10
-135.2117
 20
73.0554
 30
0.0
 10
-135.2117
 20
73.0554
 30
0.0
 10
-136.1772
 20
74.9699
 30
0.0
 10
-138.4446
 20
77.7044
 30
0.0
 10
-139.5582
 20
78.5935
 30
0.0
 10
-139.5582
 20
78.5935
 30
0.0
 10
-137.7391
 20
80.0689
 30
0.0
 10
-136.6158
 20
81.6693
 30
0.0
 10
-135.1995
 20
83.9124
 30
0.0
  0
SPLINE
  5
4C
330
1F
100
AcDbEntity
  8
layer 1
 62
     7
100
AcDbSpline
210
0.0
220
0.0
230
1.0
 70
    11
 71
     3
 72
    20
 73
    16
 74
     0
 42
0.0000000001
 43
0.0000000001
 12
1.0
 22
0.0
 32
0.0
 13
1.0
 23
0.0
 33
0.0
 40
0.0
 40
0.0
 40
0.0
 40
0.0
 40
0.2
 40
0.2
 40
0.2
 40
0.2
 40
0.4
 40
0.4
 40
0.4
 40
0.4
 40
0.6
 40
0.6
 40
0.6
 40
0.6
 40
1.0
 40
1.0
 40
1.0
 40
1.0
 10
-110.2358
 20
114.0882
 30
0.0
 10
-110.3837
 20
111.5639
 30
0.0
 10
-110.2655
 20
108.7693
 30
0.0
 10
-108.369
 20
108.4704
 30
0.0
 10
-108.369
 20
108.4704
 30
0.0
 10
-108.369
 20
108.4704
 30
0.0
 10
-108.369
 20
105.1956
 30
0.0
 10
-108.369
 20
105.1956
 30
0.0
 10
-108.369
 20
105.1956
 30
0.0
 10
-109.999
 20
106.6567
 30
0.0
 10
-114.464
 20
108.6925
 30
0.0
 10
-115.3855
 20
108.7813
 30
0.0
 10
-115.3855
 20
108.7813
 30
0.0
 10
-114.5648
 20
110.5623
 30
0.0
 10
-113.4506
 20
113.4569
 30
0.0
 10
-110.2358
 20
114.0882
 30
0.0
  0
SPLINE
  5
4D
330
1F
100
AcDbEntity
  8
layer 1
 62
     7
100
AcDbSpline
210
0.0
220
0.0
230
1.0
 70
    11
 71
     3
 72
    20
 73
    16
 74
     0
 42
0.0000000001
 43
0.0000000001
 12
1.0
 22
0.0
 32
0.0
 13
1.0
 23
0.0
 33
0.0
 40
0.0
 40
0.0
 40
0.0
 40
0.0
 40
0.2
 40
0.2
 40
0.2
 40
0.2
 40
0.4
 40
0.4
 40
0.4
 40
0.4
 40
0.6
 40
0.6
 40
0.6
 40
0.6
 40
1.0
 40
1.0
 40
1.0
 40
1.0
 10
-115.667
 20
122.9002
 30
0.0
 10
-114.3016
 20
124.0411
 30
0.0
 10
-110.2655
 20
124.3428
 30
0.0
 10
-108.369
 20
124.0409
 30
0.0
 10
-108.369
 20
124.0409
 30
0.0
 10
-108.369
 20
124.0409
 30
0.0
 10
-108.369
 20
117.9227
 30
0.0
 10
-108.369
 20
117.9227
 30
0.0
 10
-108.369
 20
117.9227
 30
0.0
 10
-109.8208
 20
118.2276
 30
0.0
 10
-110.725
 20
117.8982
 30
0.0
 10
-111.7353
 20
117.3649
 30
0.0
 10
-111.7353
 20
117.3649
 30
0.0
 10
-110.9176
 20
119.1462
 30
0.0
 10
-111.8478
 20
122.6248
 30
0.0
 10
-115.667
 20
122.9002
 30
0.0
  0
SPLINE
  5
4E
330
1F
100
AcDbEntity
  8
layer 1
 62
     7
100
AcDbSpline
210
0.0
220
0.0
230
1.0
 70
    11
 71
     3
 72
    20
 73
    16
 74
     0
 42
0.0000000001
 43
0.0000000001
 12
1.0
 22
0.0
 32
0.0
 13
1.0
 23
0.0
 33
0.0
 40
0.0
 40
0.0
 40
0.0
 40
0.0
 40
0.2
 40
0.2
 40
0.2
 40
0.2
 40
0.4
 40
0.4
 40
0.4
 40
0.4
 40
0.6
 40
0.6
 40
0.6
 40
0.6
 40
1.0
 40
1.0
 40
1.0
 40
1.0
 10
-117.2674
 20
118.3611
 30
0.0
 10
-116.7038
 20
116.7431
 30
0.0
 10
-115.9635
 20
116.1535
 30
0.0
 10
-114.9531
 20
115.854
 30
0.0
 10
-114.9531
 20
115.854
 30
0.0
 10
-116.8526
 20
113.5457
 30
0.0
 10
-117.6847
 20
111.7737
 30
0.0
 10
-117.9813
 20
109.1993
 30
0.0
 10
-117.9813
 20
109.1993
 30
0.0
 10
-119.5219
 20
109.5042
 30
0.0
 10
-120.9623
 20
109.3563
 30
0.0
 10
-122.1503
 20
108.823
 30
0.0
 10
-122.1503
 20
108.823
 30
0.0
 10
-120.2631
 20
110.6922
 30
0.0
 10
-118.6123
 20
113.9902
 30
0.0
 10
-117.2674
 20
118.3611
 30
0.0
  0
SPLINE
  5
4F
330
1F
100
AcDbEntity
  8
layer 1
 62
     7
100
AcDbSpline
210
0.0
220
0.0
230
1.0
 70
    11
 71
     3
 72
    20
 73
    16
 74
     0
 42
0.0000000001
 43
0.0000000001
 12
1.0
 22
0.0
 32
0.0
 13
1.0
 23
0.0
 33
0.0
 40
0.0
 40
0.0
 40
0.0
 40
0.0
 40
0.2
 40
0.2
 40
0.2
 40
0.2
 40
0.4
 40
0.4
 40
0.4
 40
0.4
 40
0.6
 40
0.6
 40
0.6
 40
0.6
 40
1.0
 40
1.0
 40
1.0
 40
1.0
 10
-154.0273
 20
124.0411
 30
0.0
 10
-154.0273
 20
124.0411
 30
0.0
 10
-146.7293
 20
124.0411
 30
0.0
 10
-146.7293
 20
124.0411
 30
0.0
 10
-146.7293
 20
124.0411
 30
0.0
 10
-150.1398
 20
122.2691
 30
0.0
 10
-154.3529
 20
116.118
 30
0.0
 10
-155.8965
 20
111.4985
 30
0.0
 10
-155.8965
 20
111.4985
 30
0.0
 10
-156.4601
 20
114.2953
 30
0.0
 10
-157.0077
 20
114.6774
 30
0.0
 10
-158.4626
 20
114.7692
 30
0.0
 10
-158.4626
 20
114.7692
 30
0.0
 10
-155.0164
 20
117.3415
 30
0.0
 10
-153.5025
 20
119.6702
 30
0.0
 10
-154.0273
 20
124.0411
 30
0.0
  0
SPLINE
  5
50
330
1F
100
AcDbEntity
  8
layer 1
 62
     7
100
AcDbSpline
210
0.0
220
0.0
230
1.0
 70
    11
 71
     3
 72
    16
 73
    12
 74
     0
 42
0.0000000001
 43
0.0000000001
 12
1.0
 22
0.0
 32
0.0
 13
1.0
 23
0.0
 33
0.0
 40
0.0
 40
0.0
 40
0.0
 40
0.0
 40
0.25
 40
0.25
 40
0.25
 40
0.25
 40
0.5
 40
0.5
 40
0.5
 40
0.5
 40
1.0
 40
1.0
 40
1.0
 40
1.0
 10
-175.2993
 20
124.0411
 30
0.0
 10
-175.2993
 20
124.0411
 30
0.0
 10
-164.2617
 20
124.0411
 30
0.0
 10
-164.2617
 20
124.0411
 30
0.0
 10
-164.2617
 20
124.0411
 30
0.0
 10
-164.5575
 20
122.2691
 30
0.0
 10
-162.1848
 20
118.9655
 30
0.0
 10
-159.0111
 20
119.3296
 30
0.0
 10
-159.0111
 20
119.3296
 30
0.0
 10
-163.1444
 20
112.1743
 30
0.0
 10
-173.9535
 20
119.6497
 30
0.0
 10
-175.2993
 20
124.0411
 30
0.0
  0
SPLINE
  5
51
330
1F
100
AcDbEntity
  8
layer 1
 62
     7
100
AcDbSpline
210
0.0
220
0.0
230
1.0
 70
    11
 71
     3
 72
    16
 73
    12
 74
     0
 42
0.0000000001
 43
0.0000000001
 12
1.0
 22
0.0
 32
0.0
 13
1.0
 23
0.0
 33
0.0
 40
0.0
 40
0.0
 40
0.0
 40
0.0
 40
0.25
 40
0.25
 40
0.25
 40
0.25
 40
0.5
 40
0.5
 40
0.5
 40
0.5
 40
1.0
 40
1.0
 40
1.0
 40
1.0
 10
-124.5654
 20
122.989
 30
0.0
 10
-125.7798
 20
122.2812
 30
0.0
 10
-126.5627
 20
121.5697
 30
0.0
 10
-126.3641
 20
119.9699
 30
0.0
 10
-126.3641
 20
119.9699
 30
0.0
 10
-126.9177
 20
121.635
 30
0.0
 10
-127.1725
 20
122.1597
 30
0.0
 10
-128.2633
 20
122.9918
 30
0.0
 10
-128.2633
 20
122.9918
 30
0.0
 10
-127.0603
 20
122.6278
 30
0.0
 10
-125.6442
 20
122.5269
 30
0.0
 10
-124.5654
 20
122.989
 30
0.0
  0
SPLINE
  5
52
330
1F
100
AcDbEntity
  8
layer 1
 62
     7
100
AcDbSpline
210
0.0
220
0.0
230
1.0
 70
    11
 71
     3
 72
    24
 73
    20
 74
     0
 42
0.0000000001
 43
0.0000000001
 12
1.0
 22
0.0
 32
0.0
 13
1.0
 23
0.0
 33
0.0
 40
0.0
 40
0.0
 40
0.0
 40
0.0
 40
0.1666666666666667
 40
0.1666666666666667
 40
0.1666666666666667
 40
0.1666666666666667
 40
0.3333333333333333
 40
0.3333333333333333
 40
0.3333333333333333
 40
0.3333333333333333
 40
0.5
 40
0.5
 40
0.5
 40
0.5
 40
0.6666666666666666
 40
0.6666666666666666
 40
0.6666666666666666
 40
0.6666666666666666
 40
1.0
 40
1.0
 40
1.0
 40
1.0
 10
-178.8697
 20
105.842
 30
0.0
 10
-178.8697
 20
105.842
 30
0.0
 10
-178.8697
 20
122.1446
 30
0.0
 10
-178.8697
 20
122.1446
 30
0.0
 10
-178.8697
 20
122.1446
 30
0.0
 10
-176.8991
 20
120.2247
 30
0.0
 10
-175.0617
 20
117.211
 30
0.0
 10
-171.0703
 20
115.7531
 30
0.0
 10
-171.0703
 20
115.7531
 30
0.0
 10
-173.6723
 20
115.6084
 30
0.0
 10
-173.8739
 20
111.7176
 30
0.0
 10
-170.8837
 20
111.0418
 30
0.0
 10
-170.8837
 20
111.0418
 30
0.0
 10
-170.5932
 20
110.9767
 30
0.0
 10
-171.0826
 20
110.18
 30
0.0
 10
-171.2842
 20
109.8775
 30
0.0
 10
-171.2842
 20
109.8775
 30
0.0
 10
-174.4459
 20
109.8039
 30
0.0
 10
-177.8024
 20
108.1829
 30
0.0
 10
-178.8697
 20
105.842
 30
0.0
  0
SPLINE
  5
53
330
1F
100
AcDbEntity
  8
layer 1
 62
     7
100
AcDbSpline
210
0.0
220
0.0
230
1.0
 70
    11
 71
     3
 72
    40
 73
    36
 74
     0
 42
0.0000000001
 43
0.0000000001
 12
1.0
 22
0.0
 32
0.0
 13
1.0
 23
0.0
 33
0.0
 40
0.0
 40
0.0
 40
0.0
 40
0.0
 40
0.1
 40
0.1
 40
0.1
 40
0.1
 40
0.2
 40
0.2
 40
0.2
 40
0.2
 40
0.3
 40
0.3
 40
0.3
 40
0.3
 40
0.4
 40
0.4
 40
0.4
 40
0.4
 40
0.5
 40
0.5
 40
0.5
 40
0.5
 40
0.6
 40
0.6
 40
0.6
 40
0.6
 40
0.7
 40
0.7
 40
0.7
 40
0.7
 40
0.8
 40
0.8
 40
0.8
 40
0.8
 40
1.0
 40
1.0
 40
1.0
 40
1.0
 10
-168.8926
 20
108.1382
 30
0.0
 10
-167.2694
 20
108.7396
 30
0.0
 10
-165.2099
 20
110.168
 30
0.0
 10
-165.8053
 20
113.6702
 30
0.0
 10
-165.8053
 20
113.6702
 30
0.0
 10
-165.3963
 20
113.5877
 30
0.0
 10
-165.1241
 20
113.6526
 30
0.0
 10
-164.7091
 20
113.5283
 30
0.0
 10
-164.7091
 20
113.5283
 30
0.0
 10
-165.9502
 20
109.4919
 30
0.0
 10
-161.6924
 20
107.4303
 30
0.0
 10
-158.8358
 20
110.171
 30
0.0
 10
-158.8358
 20
110.171
 30
0.0
 10
-157.6745
 20
105.8269
 30
0.0
 10
-158.907
 20
100.2916
 30
0.0
 10
-166.5699
 20
94.3332
 30
0.0
 10
-166.5699
 20
94.3332
 30
0.0
 10
-170.3657
 20
91.3818
 30
0.0
 10
-180.0698
 20
93.5095
 30
0.0
 10
-177.619
 20
101.8391
 30
0.0
 10
-177.619
 20
101.8391
 30
0.0
 10
-176.0426
 20
106.6477
 30
0.0
 10
-170.5583
 20
106.5087
 30
0.0
 10
-169.5002
 20
104.4757
 30
0.0
 10
-169.5002
 20
104.4757
 30
0.0
 10
-176.3331
 20
105.1662
 30
0.0
 10
-175.4707
 20
98.0404
 30
0.0
 10
-172.3
 20
96.4905
 30
0.0
 10
-172.3
 20
96.4905
 30
0.0
 10
-168.4101
 20
94.5882
 30
0.0
 10
-165.8797
 20
97.554
 30
0.0
 10
-165.847
 20
97.8946
 30
0.0
 10
-165.847
 20
97.8946
 30
0.0
 10
-162.4215
 20
103.8978
 30
0.0
 10
-167.1533
 20
107.5692
 30
0.0
 10
-168.8926
 20
108.1382
 30
0.0
  0
SPLINE
  5
54
330
1F
100
AcDbEntity
  8
layer 1
 62
     7
100
AcDbSpline
210
0.0
220
0.0
230
1.0
 70
    11
 71
     3
 72
    20
 73
    16
 74
     0
 42
0.0000000001
 43
0.0000000001
 12
1.0
 22
0.0
 32
0.0
 13
1.0
 23
0.0
 33
0.0
 40
0.0
 40
0.0
 40
0.0
 40
0.0
 40
0.2
 40
0.2
 40
0.2
 40
0.2
 40
0.4
 40
0.4
 40
0.4
 40
0.4
 40
0.6
 40
0.6
 40
0.6
 40
0.6
 40
1.0
 40
1.0
 40
1.0
 40
1.0
 10
-178.8158
 20
64.0067
 30
0.0
 10
-178.8158
 20
64.0067
 30
0.0
 10
-178.8158
 20
73.5325
 30
0.0
 10
-178.8158
 20
73.5325
 30
0.0
 10
-178.8158
 20
73.5325
 30
0.0
 10
-178.8158
 20
73.5325
 30
0.0
 10
-176.2149
 20
73.1859
 30
0.0
 10
-176.2149
 20
73.1859
 30
0.0
 10
-176.2149
 20
73.1859
 30
0.0
 10
-176.8217
 20
68.1187
 30
0.0
 10
-173.5478
 20
66.9695
 30
0.0
 10
-172.9554
 20
66.9103
 30
0.0
 10
-172.9554
 20
66.9103
 30
0.0
 10
-175.1983
 20
66.1958
 30
0.0
 10
-177.2928
 20
65.9735
 30
0.0
 10
-178.8158
 20
64.0067
 30
0.0
  0
SPLINE
  5
55
330
1F
100
AcDbEntity
  8
layer 1
 62
     7
100
AcDbSpline
210
0.0
220
0.0
230
1.0
 70
    11
 71
     3
 72
    20
 73
    16
 74
     0
 42
0.0000000001
 43
0.0000000001
 12
1.0
 22
0.0
 32
0.0
 13
1.0
 23
0.0
 33
0.0
 40
0.0
 40
0.0
 40
0.0
 40
0.0
 40
0.2
 40
0.2
 40
0.2
 40
0.2
 40
0.4
 40
0.4
 40
0.4
 40
0.4
 40
0.6
 40
0.6
 40
0.6
 40
0.6
 40
1.0
 40
1.0
 40
1.0
 40
1.0
 10
-164.5248
 20
64.9427
 30
0.0
 10
-164.5248
 20
64.9427
 30
0.0
 10
-165.2486
 20
70.1047
 30
0.0
 10
-162.6529
 20
73.3225
 30
0.0
 10
-162.6529
 20
73.3225
 30
0.0
 10
-167.5506
 20
72.3802
 30
0.0
 10
-166.8066
 20
79.7782
 30
0.0
 10
-172.0155
 20
73.4998
 30
0.0
 10
-172.0155
 20
73.4998
 30
0.0
 10
-165.7309
 20
74.9252
 30
0.0
 10
-165.2303
 20
67.3131
 30
0.0
 10
-168.0953
 20
66.2846
 30
0.0
 10
-168.0953
 20
66.2846
 30
0.0
 10
-166.9606
 20
66.513
 30
0.0
 10
-165.2456
 20
65.6095
 30
0.0
 10
-164.5248
 20
64.9427
 30
0.0
  0
SPLINE
  5
56
330
1F
100
AcDbEntity
  8
layer 1
 62
     7
100
AcDbSpline
210
0.0
220
0.0
230
1.0
 70
    11
 71
     3
 72
    24
 73
    20
 74
     0
 42
0.0000000001
 43
0.0000000001
 12
1.0
 22
0.0
 32
0.0
 13
1.0
 23
0.0
 33
0.0
 40
0.0
 40
0.0
 40
0.0
 40
0.0
 40
0.1666666666666667
 40
0.1666666666666667
 40
0.1666666666666667
 40
0.1666666666666667
 40
0.3333333333333333
 40
0.3333333333333333
 40
0.3333333333333333
 40
0.3333333333333333
 40
0.5
 40
0.5
 40
0.5
 40
0.5
 40
0.6666666666666666
 40
0.6666666666666666
 40
0.6666666666666666
 40
0.6666666666666666
 40
1.0
 40
1.0
 40
1.0
 40
1.0
 10
-155.1112
 20
72.4751
 30
0.0
 10
-155.1112
 20
72.4751
 30
0.0
 10
-154.8982
 20
76.4248
 30
0.0
 10
-154.8982
 20
76.4248
 30
0.0
 10
-154.8982
 20
76.4248
 30
0.0
 10
-162.288
 20
74.184
 30
0.0
 10
-163.4736
 20
62.0474
 30
0.0
 10
-157.6685
 20
55.2448
 30
0.0
 10
-157.6685
 20
55.2448
 30
0.0
 10
-156.0124
 20
53.3066
 30
0.0
 10
-154.1897
 20
51.7804
 30
0.0
 10
-150.8627
 20
51.2357
 30
0.0
 10
-150.8627
 20
51.2357
 30
0.0
 10
-150.9454
 20
51.8314
 30
0.0
 10
-150.8893
 20
52.3614
 30
0.0
 10
-150.9841
 20
52.7203
 30
0.0
 10
-150.9841
 20
52.7203
 30
0.0
 10
-162.5845
 20
54.7197
 30
0.0
 10
-161.257
 20
70.4807
 30
0.0
 10
-155.1112
 20
72.4751
 30
0.0
  0
SPLINE
  5
57
330
1F
100
AcDbEntity
  8
layer 1
 62
     7
100
AcDbSpline
210
0.0
220
0.0
230
1.0
 70
    11
 71
     3
 72
    16
 73
    12
 74
     0
 42
0.0000000001
 43
0.0000000001
 12
1.0
 22
0.0
 32
0.0
 13
1.0
 23
0.0
 33
0.0
 40
0.0
 40
0.0
 40
0.0
 40
0.0
 40
0.25
 40
0.25
 40
0.25
 40
0.25
 40
0.5
 40
0.5
 40
0.5
 40
0.5
 40
1.0
 40
1.0
 40
1.0
 40
1.0
 10
-108.369
 20
57.1852
 30
0.0
 10
-108.369
 20
57.1852
 30
0.0
 10
-108.369
 20
62.9636
 30
0.0
 10
-108.369
 20
62.9636
 30
0.0
 10
-108.369
 20
62.9636
 30
0.0
 10
-110.2214
 20
61.4467
 30
0.0
 10
-114.1384
 20
56.5805
 30
0.0
 10
-114.728
 20
51.9496
 30
0.0
 10
-114.728
 20
51.9496
 30
0.0
 10
-112.8162
 20
52.7316
 30
0.0
 10
-110.6091
 20
54.3914
 30
0.0
 10
-108.369
 20
57.1852
 30
0.0
  0
SPLINE
  5
58
330
1F
100
AcDbEntity
  8
layer 1
 62
     7
100
AcDbSpline
210
0.0
220
0.0
230
1.0
 70
    11
 71
     3
 72
    28
 73
    24
 74
     0
 42
0.0000000001
 43
0.0000000001
 12
1.0
 22
0.0
 32
0.0
 13
1.0
 23
0.0
 33
0.0
 40
0.0
 40
0.0
 40
0.0
 40
0.0
 40
0.1428571428571428
 40
0.1428571428571428
 40
0.1428571428571428
 40
0.1428571428571428
 40
0.2857142857142857
 40
0.2857142857142857
 40
0.2857142857142857
 40
0.2857142857142857
 40
0.4285714285714285
 40
0.4285714285714285
 40
0.4285714285714285
 40
0.4285714285714285
 40
0.5714285714285714
 40
0.5714285714285714
 40
0.5714285714285714
 40
0.5714285714285714
 40
0.7142857142857143
 40
0.7142857142857143
 40
0.7142857142857143
 40
0.7142857142857143
 40
1.0
 40
1.0
 40
1.0
 40
1.0
 10
-115.9044
 20
58.8978
 30
0.0
 10
-116.873
 20
56.7026
 30
0.0
 10
-118.4167
 20
54.7146
 30
0.0
 10
-118.1292
 20
50.9035
 30
0.0
 10
-118.1292
 20
50.9035
 30
0.0
 10
-124.1324
 20
50.9302
 30
0.0
 10
-128.9037
 20
53.8369
 30
0.0
 10
-131.419
 20
59.0163
 30
0.0
 10
-131.419
 20
59.0163
 30
0.0
 10
-133.1226
 20
62.5215
 30
0.0
 10
-133.0544
 20
70.2229
 30
0.0
 10
-131.6116
 20
74.238
 30
0.0
 10
-131.6116
 20
74.238
 30
0.0
 10
-129.8571
 20
74.2911
 30
0.0
 10
-128.811
 20
75.3757
 30
0.0
 10
-127.8516
 20
77.0589
 30
0.0
 10
-127.8516
 20
77.0589
 30
0.0
 10
-127.8516
 20
77.0589
 30
0.0
 10
-125.3627
 20
77.1447
 30
0.0
 10
-125.3627
 20
77.1447
 30
0.0
 10
-125.3627
 20
77.1447
 30
0.0
 10
-138.2784
 20
65.8705
 30
0.0
 10
-127.3835
 20
50.8147
 30
0.0
 10
-115.9044
 20
58.8978
 30
0.0
  0
SPLINE
  5
59
330
1F
100
AcDbEntity
  8
layer 1
 62
     7
100
AcDbSpline
210
0.0
220
0.0
230
1.0
 70
    11
 71
     3
 72
    32
 73
    28
 74
     0
 42
0.0000000001
 43
0.0000000001
 12
1.0
 22
0.0
 32
0.0
 13
1.0
 23
0.0
 33
0.0
 40
0.0
 40
0.0
 40
0.0
 40
0.0
 40
0.125
 40
0.125
 40
0.125
 40
0.125
 40
0.25
 40
0.25
 40
0.25
 40
0.25
 40
0.375
 40
0.375
 40
0.375
 40
0.375
 40
0.5
 40
0.5
 40
0.5
 40
0.5
 40
0.625
 40
0.625
 40
0.625
 40
0.625
 40
0.75
 40
0.75
 40
0.75
 40
0.75
 40
1.0
 40
1.0
 40
1.0
 40
1.0
 10
-113.0334
 20
63.0017
 30
0.0
 10
-111.4866
 20
64.3086
 30
0.0
 10
-110.141
 20
65.9174
 30
0.0
 10
-108.369
 20
66.9247
 30
0.0
 10
-108.369
 20
66.9247
 30
0.0
 10
-108.369
 20
66.9247
 30
0.0
 10
-108.369
 20
70.484
 30
0.0
 10
-108.369
 20
70.484
 30
0.0
 10
-108.369
 20
70.484
 30
0.0
 10
-109.4181
 20
72.2878
 30
0.0
 10
-111.3767
 20
73.823
 30
0.0
 10
-114.0582
 20
74.5846
 30
0.0
 10
-114.0582
 20
74.5846
 30
0.0
 10
-114.473
 20
71.687
 30
0.0
 10
-118.6276
 20
71.5829
 30
0.0
 10
-118.8878
 20
74.9813
 30
0.0
 10
-118.8878
 20
74.9813
 30
0.0
 10
-130.2189
 20
74.1993
 30
0.0
 10
-130.4617
 20
60.6881
 30
0.0
 10
-121.2939
 20
60.8685
 30
0.0
 10
-121.2939
 20
60.8685
 30
0.0
 10
-128.1391
 20
67.8343
 30
0.0
 10
-119.1609
 20
72.7118
 30
0.0
 10
-115.4152
 20
70.0393
 30
0.0
 10
-115.4152
 20
70.0393
 30
0.0
 10
-112.8732
 20
68.2226
 30
0.0
 10
-112.5767
 20
64.2851
 30
0.0
 10
-113.0334
 20
63.0017
 30
0.0
  0
SPLINE
  5
5A
330
1F
100
AcDbEntity
  8
layer 1
 62
     7
100
AcDbSpline
210
0.0
220
0.0
230
1.0
 70
    11
 71
     3
 72
    40
 73
    36
 74
     0
 42
0.0000000001
 43
0.0000000001
 12
1.0
 22
0.0
 32
0.0
 13
1.0
 23
0.0
 33
0.0
 40
0.0
 40
0.0
 40
0.0
 40
0.0
 40
0.1
 40
0.1
 40
0.1
 40
0.1
 40
0.2
 40
0.2
 40
0.2
 40
0.2
 40
0.3
 40
0.3
 40
0.3
 40
0.3
 40
0.4
 40
0.4
 40
0.4
 40
0.4
 40
0.5
 40
0.5
 40
0.5
 40
0.5
 40
0.6
 40
0.6
 40
0.6
 40
0.6
 40
0.7
 40
0.7
 40
0.7
 40
0.7
 40
0.8
 40
0.8
 40
0.8
 40
0.8
 40
1.0
 40
1.0
 40
1.0
 40
1.0
 10
-151.3634
 20
73.7282
 30
0.0
 10
-151.3634
 20
73.7282
 30
0.0
 10
-151.2503
 20
75.5623
 30
0.0
 10
-151.2503
 20
75.5623
 30
0.0
 10
-151.2503
 20
75.5623
 30
0.0
 10
-148.0386
 20
73.3042
 30
0.0
 10
-145.603
 20
74.9783
 30
0.0
 10
-144.9363
 20
77.4261
 30
0.0
 10
-144.9363
 20
77.4261
 30
0.0
 10
-139.7181
 20
74.8721
 30
0.0
 10
-137.1377
 20
69.1678
 30
0.0
 10
-137.6178
 20
65.9348
 30
0.0
 10
-137.6178
 20
65.9348
 30
0.0
 10
-138.0326
 20
61.3428
 30
0.0
 10
-141.1618
 20
56.2339
 30
0.0
 10
-147.8195
 20
56.3909
 30
0.0
 10
-147.8195
 20
56.3909
 30
0.0
 10
-150.3735
 20
56.2636
 30
0.0
 10
-155.6477
 20
58.2607
 30
0.0
 10
-156.3113
 20
63.5971
 30
0.0
 10
-156.3113
 20
63.5971
 30
0.0
 10
-157.0525
 20
69.5798
 30
0.0
 10
-149.3661
 20
72.9075
 30
0.0
 10
-146.6908
 20
67.5324
 30
0.0
 10
-146.6908
 20
67.5324
 30
0.0
 10
-154.9399
 20
69.1207
 30
0.0
 10
-153.651
 20
58.4951
 30
0.0
 10
-147.4993
 20
59.2414
 30
0.0
 10
-147.4993
 20
59.2414
 30
0.0
 10
-140.9569
 20
60.0387
 30
0.0
 10
-141.9907
 20
66.9757
 30
0.0
 10
-143.1733
 20
69.3962
 30
0.0
 10
-143.1733
 20
69.3962
 30
0.0
 10
-144.7761
 20
72.6851
 30
0.0
 10
-148.1988
 20
73.2244
 30
0.0
 10
-151.3634
 20
73.7282
 30
0.0
  0
SPLINE
  5
5B
330
1F
100
AcDbEntity
  8
layer 1
 62
     7
100
AcDbSpline
210
0.0
220
0.0
230
1.0
 70
    11
 71
     3
 72
    40
 73
    36
 74
     0
 42
0.0000000001
 43
0.0000000001
 12
1.0
 22
0.0
 32
0.0
 13
1.0
 23
0.0
 33
0.0
 40
0.0
 40
0.0
 40
0.0
 40
0.0
 40
0.1
 40
0.1
 40
0.1
 40
0.1
 40
0.2
 40
0.2
 40
0.2
 40
0.2
 40
0.3
 40
0.3
 40
0.3
 40
0.3
 40
0.4
 40
0.4
 40
0.4
 40
0.4
 40
0.5
 40
0.5
 40
0.5
 40
0.5
 40
0.6
 40
0.6
 40
0.6
 40
0.6
 40
0.7
 40
0.7
 40
0.7
 40
0.7
 40
0.8
 40
0.8
 40
0.8
 40
0.8
 40
1.0
 40
1.0
 40
1.0
 40
1.0
 10
-168.8926
 20
48.5452
 30
0.0
 10
-167.2694
 20
47.9438
 30
0.0
 10
-165.2099
 20
46.5154
 30
0.0
 10
-165.8053
 20
43.0131
 30
0.0
 10
-165.8053
 20
43.0131
 30
0.0
 10
-165.3963
 20
43.0959
 30
0.0
 10
-165.1241
 20
43.0306
 30
0.0
 10
-164.7091
 20
43.1551
 30
0.0
 10
-164.7091
 20
43.1551
 30
0.0
 10
-165.9502
 20
47.1936
 30
0.0
 10
-161.6924
 20
49.253
 30
0.0
 10
-158.8358
 20
46.5124
 30
0.0
 10
-158.8358
 20
46.5124
 30
0.0
 10
-157.6745
 20
50.8567
 30
0.0
 10
-161.4997
 20
59.6564
 30
0.0
 10
-166.5699
 20
62.35
 30
0.0
 10
-166.5699
 20
62.35
 30
0.0
 10
-170.8155
 20
64.6075
 30
0.0
 10
-180.0698
 20
63.1737
 30
0.0
 10
-177.619
 20
54.8442
 30
0.0
 10
-177.619
 20
54.8442
 30
0.0
 10
-176.0426
 20
50.0357
 30
0.0
 10
-170.5583
 20
50.1746
 30
0.0
 10
-169.5002
 20
52.2104
 30
0.0
 10
-169.5002
 20
52.2104
 30
0.0
 10
-176.3331
 20
51.5202
 30
0.0
 10
-175.4707
 20
58.643
 30
0.0
 10
-172.3
 20
60.1927
 30
0.0
 10
-172.3
 20
60.1927
 30
0.0
 10
-168.4101
 20
62.0952
 30
0.0
 10
-165.8797
 20
59.1292
 30
0.0
 10
-165.847
 20
58.7916
 30
0.0
 10
-165.847
 20
58.7916
 30
0.0
 10
-162.4215
 20
52.7878
 30
0.0
 10
-167.1533
 20
49.1171
 30
0.0
 10
-168.8926
 20
48.5452
 30
0.0
  0
SPLINE
  5
5C
330
1F
100
AcDbEntity
  8
layer 1
 62
     7
100
AcDbSpline
210
0.0
220
0.0
230
1.0
 70
    11
 71
     3
 72
    44
 73
    40
 74
     0
 42
0.0000000001
 43
0.0000000001
 12
1.0
 22
0.0
 32
0.0
 13
1.0
 23
0.0
 33
0.0
 40
0.0
 40
0.0
 40
0.0
 40
0.0
 40
0.0909090909090909
 40
0.0909090909090909
 40
0.0909090909090909
 40
0.0909090909090909
 40
0.1818181818181818
 40
0.1818181818181818
 40
0.1818181818181818
 40
0.1818181818181818
 40
0.2727272727272727
 40
0.2727272727272727
 40
0.2727272727272727
 40
0.2727272727272727
 40
0.3636363636363636
 40
0.3636363636363636
 40
0.3636363636363636
 40
0.3636363636363636
 40
0.4545454545454545
 40
0.4545454545454545
 40
0.4545454545454545
 40
0.4545454545454545
 40
0.5454545454545454
 40
0.5454545454545454
 40
0.5454545454545454
 40
0.5454545454545454
 40
0.6363636363636364
 40
0.6363636363636364
 40
0.6363636363636364
 40
0.6363636363636364
 40
0.7272727272727273
 40
0.7272727272727273
 40
0.7272727272727273
 40
0.7272727272727273
 40
0.8181818181818182
 40
0.8181818181818182
 40
0.8181818181818182
 40
0.8181818181818182
 40
1.0
 40
1.0
 40
1.0
 40
1.0
 10
-122.9975
 20
117.2854
 30
0.0
 10
-123.9079
 20
103.3471
 30
0.0
 10
-131.3712
 20
111.3884
 30
0.0
 10
-135.6858
 20
96.8904
 30
0.0
 10
-135.6858
 20
96.8904
 30
0.0
 10
-137.1347
 20
101.1397
 30
0.0
 10
-140.8386
 20
103.495
 30
0.0
 10
-144.5038
 20
103.7591
 30
0.0
 10
-144.5038
 20
103.7591
 30
0.0
 10
-144.2194
 20
106.6864
 30
0.0
 10
-145.6804
 20
111.2201
 30
0.0
 10
-154.1753
 20
108.1145
 30
0.0
 10
-154.1753
 20
108.1145
 30
0.0
 10
-152.6703
 20
110.2361
 30
0.0
 10
-146.9783
 20
122.6929
 30
0.0
 10
-138.9484
 20
122.7961
 30
0.0
 10
-138.9484
 20
122.7961
 30
0.0
 10
-129.4573
 20
122.6839
 30
0.0
 10
-127.5314
 20
116.0292
 30
0.0
 10
-130.8644
 20
110.9143
 30
0.0
 10
-130.8644
 20
110.9143
 30
0.0
 10
-134.9537
 20
106.5853
 30
0.0
 10
-138.3824
 20
108.823
 30
0.0
 10
-139.4784
 20
109.4246
 30
0.0
 10
-139.4784
 20
109.4246
 30
0.0
 10
-131.7656
 20
111.2884
 30
0.0
 10
-134.9066
 20
119.7355
 30
0.0
 10
-140.1034
 20
118.3639
 30
0.0
 10
-140.1034
 20
118.3639
 30
0.0
 10
-146.756
 20
116.6035
 30
0.0
 10
-145.0281
 20
108.6334
 30
0.0
 10
-141.3301
 20
106.3903
 30
0.0
 10
-141.3301
 20
106.3903
 30
0.0
 10
-132.1479
 20
102.0312
 30
0.0
 10
-125.739
 20
108.39
 30
0.0
 10
-125.7829
 20
116.8704
 30
0.0
 10
-125.7829
 20
116.8704
 30
0.0
 10
-124.6572
 20
116.687
 30
0.0
 10
-123.8425
 20
116.693
 30
0.0
 10
-122.9975
 20
117.2854
 30
0.0
  0
SPLINE
  5
5D
330
1F
100
AcDbEntity
  8
layer 1
 62
     7
100
AcDbSpline
210
0.0
220
0.0
230
1.0
 70
    11
 71
     3
 72
    20
 73
    16
 74
     0
 42
0.0000000001
 43
0.0000000001
 12
1.0
 22
0.0
 32
0.0
 13
1.0
 23
0.0
 33
0.0
 40
0.0
 40
0.0
 40
0.0
 40
0.0
 40
0.2
 40
0.2
 40
0.2
 40
0.2
 40
0.4
 40
0.4
 40
0.4
 40
0.4
 40
0.6
 40
0.6
 40
0.6
 40
0.6
 40
1.0
 40
1.0
 40
1.0
 40
1.0
 10
-110.2358
 20
42.7674
 30
0.0
 10
-112.4021
 20
44.139
 30
0.0
 10
-111.6111
 20
48.5656
 30
0.0
 10
-108.369
 20
48.3882
 30
0.0
 10
-108.369
 20
48.3882
 30
0.0
 10
-108.369
 20
48.3882
 30
0.0
 10
-108.369
 20
51.6621
 30
0.0
 10
-108.369
 20
51.6621
 30
0.0
 10
-108.369
 20
51.6621
 30
0.0
 10
-109.999
 20
50.1981
 30
0.0
 10
-114.464
 20
48.1629
 30
0.0
 10
-115.3855
 20
48.0741
 30
0.0
 10
-115.3855
 20
48.0741
 30
0.0
 10
-114.5648
 20
46.2931
 30
0.0
 10
-113.4506
 20
43.3985
 30
0.0
 10
-110.2358
 20
42.7674
 30
0.0
  0
SPLINE
  5
5E
330
1F
100
AcDbEntity
  8
layer 1
 62
     7
100
AcDbSpline
210
0.0
220
0.0
230
1.0
 70
    11
 71
     3
 72
    20
 73
    16
 74
     0
 42
0.0000000001
 43
0.0000000001
 12
1.0
 22
0.0
 32
0.0
 13
1.0
 23
0.0
 33
0.0
 40
0.0
 40
0.0
 40
0.0
 40
0.0
 40
0.2
 40
0.2
 40
0.2
 40
0.2
 40
0.4
 40
0.4
 40
0.4
 40
0.4
 40
0.6
 40
0.6
 40
0.6
 40
0.6
 40
1.0
 40
1.0
 40
1.0
 40
1.0
 10
-115.667
 20
33.9548
 30
0.0
 10
-113.4452
 20
33.3297
 30
0.0
 10
-110.6955
 20
32.2569
 30
0.0
 10
-108.369
 20
29.9016
 30
0.0
 10
-108.369
 20
29.9016
 30
0.0
 10
-108.369
 20
29.9016
 30
0.0
 10
-108.369
 20
38.9329
 30
0.0
 10
-108.369
 20
38.9329
 30
0.0
 10
-108.369
 20
38.9329
 30
0.0
 10
-109.8208
 20
38.6274
 30
0.0
 10
-110.725
 20
38.9563
 30
0.0
 10
-111.7353
 20
39.4898
 30
0.0
 10
-111.7353
 20
39.4898
 30
0.0
 10
-110.9176
 20
37.7094
 30
0.0
 10
-111.8478
 20
34.2306
 30
0.0
 10
-115.667
 20
33.9548
 30
0.0
  0
SPLINE
  5
5F
330
1F
100
AcDbEntity
  8
layer 1
 62
     7
100
AcDbSpline
210
0.0
220
0.0
230
1.0
 70
    11
 71
     3
 72
    20
 73
    16
 74
     0
 42
0.0000000001
 43
0.0000000001
 12
1.0
 22
0.0
 32
0.0
 13
1.0
 23
0.0
 33
0.0
 40
0.0
 40
0.0
 40
0.0
 40
0.0
 40
0.2
 40
0.2
 40
0.2
 40
0.2
 40
0.4
 40
0.4
 40
0.4
 40
0.4
 40
0.6
 40
0.6
 40
0.6
 40
0.6
 40
1.0
 40
1.0
 40
1.0
 40
1.0
 10
-117.2674
 20
38.4945
 30
0.0
 10
-116.7038
 20
40.1125
 30
0.0
 10
-115.9635
 20
40.7019
 30
0.0
 10
-114.9531
 20
41.0008
 30
0.0
 10
-114.9531
 20
41.0008
 30
0.0
 10
-116.8526
 20
43.309
 30
0.0
 10
-117.6847
 20
45.081
 30
0.0
 10
-117.9813
 20
47.6563
 30
0.0
 10
-117.9813
 20
47.6563
 30
0.0
 10
-119.5219
 20
47.3505
 30
0.0
 10
-120.9623
 20
47.5021
 30
0.0
 10
-122.1503
 20
48.0324
 30
0.0
 10
-122.1503
 20
48.0324
 30
0.0
 10
-120.2631
 20
46.1628
 30
0.0
 10
-118.6123
 20
42.8646
 30
0.0
 10
-117.2674
 20
38.4945
 30
0.0
  0
SPLINE
  5
60
330
1F
100
AcDbEntity
  8
layer 1
 62
     7
100
AcDbSpline
210
0.0
220
0.0
230
1.0
 70
    11
 71
     3
 72
    44
 73
    40
 74
     0
 42
0.0000000001
 43
0.0000000001
 12
1.0
 22
0.0
 32
0.0
 13
1.0
 23
0.0
 33
0.0
 40
0.0
 40
0.0
 40
0.0
 40
0.0
 40
0.0909090909090909
 40
0.0909090909090909
 40
0.0909090909090909
 40
0.0909090909090909
 40
0.1818181818181818
 40
0.1818181818181818
 40
0.1818181818181818
 40
0.1818181818181818
 40
0.2727272727272727
 40
0.2727272727272727
 40
0.2727272727272727
 40
0.2727272727272727
 40
0.3636363636363636
 40
0.3636363636363636
 40
0.3636363636363636
 40
0.3636363636363636
 40
0.4545454545454545
 40
0.4545454545454545
 40
0.4545454545454545
 40
0.4545454545454545
 40
0.5454545454545454
 40
0.5454545454545454
 40
0.5454545454545454
 40
0.5454545454545454
 40
0.6363636363636364
 40
0.6363636363636364
 40
0.6363636363636364
 40
0.6363636363636364
 40
0.7272727272727273
 40
0.7272727272727273
 40
0.7272727272727273
 40
0.7272727272727273
 40
0.8181818181818182
 40
0.8181818181818182
 40
0.8181818181818182
 40
0.8181818181818182
 40
1.0
 40
1.0
 40
1.0
 40
1.0
 10
-122.9975
 20
39.5702
 30
0.0
 10
-123.9079
 20
53.5085
 30
0.0
 10
-131.3712
 20
45.4663
 30
0.0
 10
-135.6858
 20
59.9643
 30
0.0
 10
-135.6858
 20
59.9643
 30
0.0
 10
-137.1347
 20
55.7157
 30
0.0
 10
-140.8386
 20
53.3597
 30
0.0
 10
-144.5038
 20
53.0965
 30
0.0
 10
-144.5038
 20
53.0965
 30
0.0
 10
-144.2194
 20
50.1686
 30
0.0
 10
-145.6804
 20
45.6355
 30
0.0
 10
-154.1753
 20
48.7409
 30
0.0
 10
-154.1753
 20
48.7409
 30
0.0
 10
-152.6703
 20
46.6193
 30
0.0
 10
-146.9783
 20
34.1655
 30
0.0
 10
-138.9484
 20
34.0586
 30
0.0
 10
-138.9484
 20
34.0586
 30
0.0
 10
-129.4573
 20
34.1708
 30
0.0
 10
-127.5314
 20
40.8264
 30
0.0
 10
-130.8644
 20
45.9404
 30
0.0
 10
-130.8644
 20
45.9404
 30
0.0
 10
-134.9537
 20
50.2694
 30
0.0
 10
-138.3824
 20
48.0324
 30
0.0
 10
-139.4784
 20
47.431
 30
0.0
 10
-139.4784
 20
47.431
 30
0.0
 10
-131.7656
 20
45.5672
 30
0.0
 10
-134.9066
 20
37.1192
 30
0.0
 10
-140.1034
 20
38.4915
 30
0.0
 10
-140.1034
 20
38.4915
 30
0.0
 10
-146.756
 20
40.2514
 30
0.0
 10
-145.0281
 20
48.222
 30
0.0
 10
-141.3301
 20
50.4651
 30
0.0
 10
-141.3301
 20
50.4651
 30
0.0
 10
-132.1479
 20
54.8238
 30
0.0
 10
-125.739
 20
48.4648
 30
0.0
 10
-125.7829
 20
39.985
 30
0.0
 10
-125.7829
 20
39.985
 30
0.0
 10
-124.6572
 20
40.1716
 30
0.0
 10
-123.8425
 20
40.1626
 30
0.0
 10
-122.9975
 20
39.5702
 30
0.0
  0
SPLINE
  5
61
330
1F
100
AcDbEntity
  8
layer 1
 62
     7
100
AcDbSpline
210
0.0
220
0.0
230
1.0
 70
    11
 71
     3
 72
    12
 73
     8
 74
     0
 42
0.0000000001
 43
0.0000000001
 12
1.0
 22
0.0
 32
0.0
 13
1.0
 23
0.0
 33
0.0
 40
0.0
 40
0.0
 40
0.0
 40
0.0
 40
0.3333333333333333
 40
0.3333333333333333
 40
0.3333333333333333
 40
0.3333333333333333
 40
1.0
 40
1.0
 40
1.0
 40
1.0
 10
-123.1667
 20
31.167
 30
0.0
 10
-128.3992
 20
30.8612
 30
0.0
 10
-136.6726
 20
25.3679
 30
0.0
 10
-137.9704
 20
16.354
 30
0.0
 10
-137.9704
 20
16.354
 30
0.0
 10
-130.2901
 20
17.1393
 30
0.0
 10
-122.9323
 20
25.7622
 30
0.0
 10
-123.1667
 20
31.167
 30
0.0
  0
SPLINE
  5
62
330
1F
100
AcDbEntity
  8
layer 1
 62
     7
100
AcDbSpline
210
0.0
220
0.0
230
1.0
 70
    11
 71
     3
 72
    12
 73
     8
 74
     0
 42
0.0000000001
 43
0.0000000001
 12
1.0
 22
0.0
 32
0.0
 13
1.0
 23
0.0
 33
0.0
 40
0.0
 40
0.0
 40
0.0
 40
0.0
 40
0.3333333333333333
 40
0.3333333333333333
 40
0.3333333333333333
 40
0.3333333333333333
 40
1.0
 40
1.0
 40
1.0
 40
1.0
 10
-149.9675
 20
0.3535
 30
0.0
 10
-155.1977
 20
0.0484
 30
0.0
 10
-163.4706
 20
-5.445
 30
0.0
 10
-164.7685
 20
-14.4589
 30
0.0
 10
-164.7685
 20
-14.4589
 30
0.0
 10
-157.0881
 20
-13.6736
 30
0.0
 10
-149.7331
 20
-5.0483
 30
0.0
 10
-149.9675
 20
0.3535
 30
0.0
  0
SPLINE
  5
63
330
1F
100
AcDbEntity
  8
layer 1
 62
     7
100
AcDbSpline
210
0.0
220
0.0
230
1.0
 70
    11
 71
     3
 72
    36
 73
    32
 74
     0
 42
0.0000000001
 43
0.0000000001
 12
1.0
 22
0.0
 32
0.0
 13
1.0
 23
0.0
 33
0.0
 40
0.0
 40
0.0
 40
0.0
 40
0.0
 40
0.1111111111111111
 40
0.1111111111111111
 40
0.1111111111111111
 40
0.1111111111111111
 40
0.2222222222222222
 40
0.2222222222222222
 40
0.2222222222222222
 40
0.2222222222222222
 40
0.3333333333333333
 40
0.3333333333333333
 40
0.3333333333333333
 40
0.3333333333333333
 40
0.4444444444444444
 40
0.4444444444444444
 40
0.4444444444444444
 40
0.4444444444444444
 40
0.5555555555555556
 40
0.5555555555555556
 40
0.5555555555555556
 40
0.5555555555555556
 40
0.6666666666666666
 40
0.6666666666666666
 40
0.6666666666666666
 40
0.6666666666666666
 40
0.7777777777777778
 40
0.7777777777777778
 40
0.7777777777777778
 40
0.7777777777777778
 40
1.0
 40
1.0
 40
1.0
 40
1.0
 10
-138.8647
 20
24.8437
 30
0.0
 10
-139.084
 20
29.5634
 30
0.0
 10
-145.7753
 20
31.9604
 30
0.0
 10
-149.8493
 20
28.6244
 30
0.0
 10
-149.8493
 20
28.6244
 30
0.0
 10
-149.5383
 20
33.8515
 30
0.0
 10
-153.8317
 20
35.5908
 30
0.0
 10
-154.8982
 20
35.4573
 30
0.0
 10
-154.8982
 20
35.4573
 30
0.0
 10
-155.263
 20
34.5
 30
0.0
 10
-155.2213
 20
33.1695
 30
0.0
 10
-154.9248
 20
31.8065
 30
0.0
 10
-154.9248
 20
31.8065
 30
0.0
 10
-156.8445
 20
33.1256
 30
0.0
 10
-157.7601
 20
38.1418
 30
0.0
 10
-162.1461
 20
37.8961
 30
0.0
 10
-162.1461
 20
37.8961
 30
0.0
 10
-162.6589
 20
38.8557
 30
0.0
 10
-162.454
 20
39.7506
 30
0.0
 10
-162.303
 20
40.5836
 30
0.0
 10
-162.303
 20
40.5836
 30
0.0
 10
-160.1193
 20
40.2422
 30
0.0
 10
-156.4031
 20
41.7419
 30
0.0
 10
-155.781
 20
45.3685
 30
0.0
 10
-155.781
 20
45.3685
 30
0.0
 10
-152.6346
 20
36.8734
 30
0.0
 10
-145.2829
 20
28.5827
 30
0.0
 10
-135.7654
 20
29.1811
 30
0.0
 10
-135.7654
 20
29.1811
 30
0.0
 10
-134.6275
 20
29.4094
 30
0.0
 10
-138.0857
 20
25.4475
 30
0.0
 10
-138.8647
 20
24.8437
 30
0.0
  0
SPLINE
  5
64
330
1F
100
AcDbEntity
  8
layer 1
 62
     7
100
AcDbSpline
210
0.0
220
0.0
230
1.0
 70
    11
 71
     3
 72
    36
 73
    32
 74
     0
 42
0.0000000001
 43
0.0000000001
 12
1.0
 22
0.0
 32
0.0
 13
1.0
 23
0.0
 33
0.0
 40
0.0
 40
0.0
 40
0.0
 40
0.0
 40
0.1111111111111111
 40
0.1111111111111111
 40
0.1111111111111111
 40
0.1111111111111111
 40
0.2222222222222222
 40
0.2222222222222222
 40
0.2222222222222222
 40
0.2222222222222222
 40
0.3333333333333333
 40
0.3333333333333333
 40
0.3333333333333333
 40
0.3333333333333333
 40
0.4444444444444444
 40
0.4444444444444444
 40
0.4444444444444444
 40
0.4444444444444444
 40
0.5555555555555556
 40
0.5555555555555556
 40
0.5555555555555556
 40
0.5555555555555556
 40
0.6666666666666666
 40
0.6666666666666666
 40
0.6666666666666666
 40
0.6666666666666666
 40
0.7777777777777778
 40
0.7777777777777778
 40
0.7777777777777778
 40
0.7777777777777778
 40
1.0
 40
1.0
 40
1.0
 40
1.0
 10
-148.5484
 20
-7.8807
 30
0.0
 10
-148.3291
 20
-12.6011
 30
0.0
 10
-141.6357
 20
-14.9951
 30
0.0
 10
-137.5617
 20
-11.6582
 30
0.0
 10
-137.5617
 20
-11.6582
 30
0.0
 10
-137.8756
 20
-16.8854
 30
0.0
 10
-133.5814
 20
-18.6277
 30
0.0
 10
-132.5149
 20
-18.4912
 30
0.0
 10
-132.5149
 20
-18.4912
 30
0.0
 10
-132.1479
 20
-17.5369
 30
0.0
 10
-132.1896
 20
-16.2072
 30
0.0
 10
-132.4855
 20
-14.8442
 30
0.0
 10
-132.4855
 20
-14.8442
 30
0.0
 10
-130.5656
 20
-16.1595
 30
0.0
 10
-129.653
 20
-21.1787
 30
0.0
 10
-125.2649
 20
-20.9329
 30
0.0
 10
-125.2649
 20
-20.9329
 30
0.0
 10
-125.522
 20
-21.8932
 30
0.0
 10
-125.7267
 20
-22.7877
 30
0.0
 10
-125.1109
 20
-23.6175
 30
0.0
 10
-125.1109
 20
-23.6175
 30
0.0
 10
-127.2917
 20
-23.2799
 30
0.0
 10
-131.01
 20
-24.7758
 30
0.0
 10
-131.6321
 20
-28.4032
 30
0.0
 10
-131.6321
 20
-28.4032
 30
0.0
 10
-134.7793
 20
-19.9105
 30
0.0
 10
-142.1272
 20
-11.6204
 30
0.0
 10
-151.6479
 20
-12.2158
 30
0.0
 10
-151.6479
 20
-12.2158
 30
0.0
 10
-152.7826
 20
-12.4441
 30
0.0
 10
-149.3274
 20
-8.4852
 30
0.0
 10
-148.5484
 20
-7.8807
 30
0.0
  0
SPLINE
  5
65
330
1F
100
AcDbEntity
  8
layer 1
 62
     7
100
AcDbSpline
210
0.0
220
0.0
230
1.0
 70
    11
 71
     3
 72
    16
 73
    12
 74
     0
 42
0.0000000001
 43
0.0000000001
 12
1.0
 22
0.0
 32
0.0
 13
1.0
 23
0.0
 33
0.0
 40
0.0
 40
0.0
 40
0.0
 40
0.0
 40
0.25
 40
0.25
 40
0.25
 40
0.25
 40
0.5
 40
0.5
 40
0.5
 40
0.5
 40
1.0
 40
1.0
 40
1.0
 40
1.0
 10
-178.8158
 20
-40.1545
 30
0.0
 10
-178.8158
 20
-40.1545
 30
0.0
 10
-178.8158
 20
-45.9323
 30
0.0
 10
-178.8158
 20
-45.9323
 30
0.0
 10
-178.8158
 20
-45.9323
 30
0.0
 10
-176.9612
 20
-44.4151
 30
0.0
 10
-173.0442
 20
-39.5468
 30
0.0
 10
-172.4548
 20
-34.9159
 30
0.0
 10
-172.4548
 20
-34.9159
 30
0.0
 10
-174.3685
 20
-35.698
 30
0.0
 10
-176.5729
 20
-37.3571
 30
0.0
 10
-178.8158
 20
-40.1545
 30
0.0
  0
SPLINE
  5
66
330
1F
100
AcDbEntity
  8
layer 1
 62
     7
100
AcDbSpline
210
0.0
220
0.0
230
1.0
 70
    11
 71
     3
 72
    28
 73
    24
 74
     0
 42
0.0000000001
 43
0.0000000001
 12
1.0
 22
0.0
 32
0.0
 13
1.0
 23
0.0
 33
0.0
 40
0.0
 40
0.0
 40
0.0
 40
0.0
 40
0.1428571428571428
 40
0.1428571428571428
 40
0.1428571428571428
 40
0.1428571428571428
 40
0.2857142857142857
 40
0.2857142857142857
 40
0.2857142857142857
 40
0.2857142857142857
 40
0.4285714285714285
 40
0.4285714285714285
 40
0.4285714285714285
 40
0.4285714285714285
 40
0.5714285714285714
 40
0.5714285714285714
 40
0.5714285714285714
 40
0.5714285714285714
 40
0.7142857142857143
 40
0.7142857142857143
 40
0.7142857142857143
 40
0.7142857142857143
 40
1.0
 40
1.0
 40
1.0
 40
1.0
 10
-171.2782
 20
-41.8673
 30
0.0
 10
-170.3087
 20
-39.6713
 30
0.0
 10
-168.7651
 20
-37.6833
 30
0.0
 10
-169.0525
 20
-33.8731
 30
0.0
 10
-169.0525
 20
-33.8731
 30
0.0
 10
-163.0496
 20
-33.8995
 30
0.0
 10
-158.2789
 20
-36.8062
 30
0.0
 10
-155.7636
 20
-41.9826
 30
0.0
 10
-155.7636
 20
-41.9826
 30
0.0
 10
-154.0622
 20
-45.4909
 30
0.0
 10
-153.9355
 20
-52.9018
 30
0.0
 10
-155.3813
 20
-56.9169
 30
0.0
 10
-155.3813
 20
-56.9169
 30
0.0
 10
-157.132
 20
-56.97
 30
0.0
 10
-158.8509
 20
-58.3444
 30
0.0
 10
-159.331
 20
-60.0276
 30
0.0
 10
-159.331
 20
-60.0276
 30
0.0
 10
-159.331
 20
-60.0276
 30
0.0
 10
-161.8199
 20
-60.1134
 30
0.0
 10
-161.8199
 20
-60.1134
 30
0.0
 10
-161.8199
 20
-60.1134
 30
0.0
 10
-148.9042
 20
-48.836
 30
0.0
 10
-159.7991
 20
-33.7813
 30
0.0
 10
-171.2782
 20
-41.8673
 30
0.0
  0
SPLINE
  5
67
330
1F
100
AcDbEntity
  8
layer 1
 62
     7
100
AcDbSpline
210
0.0
220
0.0
230
1.0
 70
    11
 71
     3
 72
    32
 73
    28
 74
     0
 42
0.0000000001
 43
0.0000000001
 12
1.0
 22
0.0
 32
0.0
 13
1.0
 23
0.0
 33
0.0
 40
0.0
 40
0.0
 40
0.0
 40
0.0
 40
0.125
 40
0.125
 40
0.125
 40
0.125
 40
0.25
 40
0.25
 40
0.25
 40
0.25
 40
0.375
 40
0.375
 40
0.375
 40
0.375
 40
0.5
 40
0.5
 40
0.5
 40
0.5
 40
0.625
 40
0.625
 40
0.625
 40
0.625
 40
0.75
 40
0.75
 40
0.75
 40
0.75
 40
1.0
 40
1.0
 40
1.0
 40
1.0
 10
-174.1494
 20
-45.971
 30
0.0
 10
-175.696
 20
-47.2749
 30
0.0
 10
-177.0408
 20
-48.8839
 30
0.0
 10
-178.8158
 20
-49.8943
 30
0.0
 10
-178.8158
 20
-49.8943
 30
0.0
 10
-178.8158
 20
-49.8943
 30
0.0
 10
-178.8158
 20
-53.4524
 30
0.0
 10
-178.8158
 20
-53.4524
 30
0.0
 10
-178.8158
 20
-53.4524
 30
0.0
 10
-177.1896
 20
-55.0645
 30
0.0
 10
-175.8059
 20
-56.7917
 30
0.0
 10
-173.1237
 20
-57.5533
 30
0.0
 10
-173.1237
 20
-57.5533
 30
0.0
 10
-172.7096
 20
-54.6555
 30
0.0
 10
-168.555
 20
-54.5516
 30
0.0
 10
-168.2942
 20
-57.9477
 30
0.0
 10
-168.2942
 20
-57.9477
 30
0.0
 10
-156.9636
 20
-57.1656
 30
0.0
 10
-156.7202
 20
-43.6567
 30
0.0
 10
-165.8911
 20
-43.8341
 30
0.0
 10
-165.8911
 20
-43.8341
 30
0.0
 10
-159.0435
 20
-50.8038
 30
0.0
 10
-168.0217
 20
-55.6811
 30
0.0
 10
-171.7667
 20
-53.005
 30
0.0
 10
-171.7667
 20
-53.005
 30
0.0
 10
-174.3094
 20
-51.1889
 30
0.0
 10
-174.6059
 20
-47.2506
 30
0.0
 10
-174.1494
 20
-45.971
 30
0.0
  0
SPLINE
  5
68
330
1F
100
AcDbEntity
  8
layer 1
 62
     7
100
AcDbSpline
210
0.0
220
0.0
230
1.0
 70
    11
 71
     3
 72
    16
 73
    12
 74
     0
 42
0.0000000001
 43
0.0000000001
 12
1.0
 22
0.0
 32
0.0
 13
1.0
 23
0.0
 33
0.0
 40
0.0
 40
0.0
 40
0.0
 40
0.0
 40
0.25
 40
0.25
 40
0.25
 40
0.25
 40
0.5
 40
0.5
 40
0.5
 40
0.5
 40
1.0
 40
1.0
 40
1.0
 40
1.0
 10
-178.8158
 20
-82.3007
 30
0.0
 10
-178.8158
 20
-82.3007
 30
0.0
 10
-178.8158
 20
-76.5229
 30
0.0
 10
-178.8158
 20
-76.5229
 30
0.0
 10
-178.8158
 20
-76.5229
 30
0.0
 10
-176.9612
 20
-78.0401
 30
0.0
 10
-173.0442
 20
-82.9053
 30
0.0
 10
-172.4548
 20
-87.5371
 30
0.0
 10
-172.4548
 20
-87.5371
 30
0.0
 10
-174.3685
 20
-86.7542
 30
0.0
 10
-176.5729
 20
-85.0953
 30
0.0
 10
-178.8158
 20
-82.3007
 30
0.0
  0
SPLINE
  5
69
330
1F
100
AcDbEntity
  8
layer 1
 62
     7
100
AcDbSpline
210
0.0
220
0.0
230
1.0
 70
    11
 71
     3
 72
    28
 73
    24
 74
     0
 42
0.0000000001
 43
0.0000000001
 12
1.0
 22
0.0
 32
0.0
 13
1.0
 23
0.0
 33
0.0
 40
0.0
 40
0.0
 40
0.0
 40
0.0
 40
0.1428571428571428
 40
0.1428571428571428
 40
0.1428571428571428
 40
0.1428571428571428
 40
0.2857142857142857
 40
0.2857142857142857
 40
0.2857142857142857
 40
0.2857142857142857
 40
0.4285714285714285
 40
0.4285714285714285
 40
0.4285714285714285
 40
0.4285714285714285
 40
0.5714285714285714
 40
0.5714285714285714
 40
0.5714285714285714
 40
0.5714285714285714
 40
0.7142857142857143
 40
0.7142857142857143
 40
0.7142857142857143
 40
0.7142857142857143
 40
1.0
 40
1.0
 40
1.0
 40
1.0
 10
-171.2782
 20
-80.5887
 30
0.0
 10
-170.3087
 20
-82.7841
 30
0.0
 10
-168.7651
 20
-84.7721
 30
0.0
 10
-169.0525
 20
-88.5799
 30
0.0
 10
-169.0525
 20
-88.5799
 30
0.0
 10
-163.0496
 20
-88.5535
 30
0.0
 10
-158.2789
 20
-85.649
 30
0.0
 10
-155.7636
 20
-80.4696
 30
0.0
 10
-155.7636
 20
-80.4696
 30
0.0
 10
-154.0622
 20
-76.9643
 30
0.0
 10
-153.8407
 20
-70.6085
 30
0.0
 10
-155.2835
 20
-66.5936
 30
0.0
 10
-155.2835
 20
-66.5936
 30
0.0
 10
-157.0372
 20
-66.5405
 30
0.0
 10
-158.753
 20
-64.6858
 30
0.0
 10
-159.331
 20
-62.4276
 30
0.0
 10
-159.331
 20
-62.4276
 30
0.0
 10
-159.331
 20
-62.4276
 30
0.0
 10
-161.8199
 20
-62.3418
 30
0.0
 10
-161.8199
 20
-62.3418
 30
0.0
 10
-161.8199
 20
-62.3418
 30
0.0
 10
-148.9042
 20
-73.6162
 30
0.0
 10
-159.7991
 20
-88.6718
 30
0.0
 10
-171.2782
 20
-80.5887
 30
0.0
  0
SPLINE
  5
6A
330
1F
100
AcDbEntity
  8
layer 1
 62
     7
100
AcDbSpline
210
0.0
220
0.0
230
1.0
 70
    11
 71
     3
 72
    32
 73
    28
 74
     0
 42
0.0000000001
 43
0.0000000001
 12
1.0
 22
0.0
 32
0.0
 13
1.0
 23
0.0
 33
0.0
 40
0.0
 40
0.0
 40
0.0
 40
0.0
 40
0.125
 40
0.125
 40
0.125
 40
0.125
 40
0.25
 40
0.25
 40
0.25
 40
0.25
 40
0.375
 40
0.375
 40
0.375
 40
0.375
 40
0.5
 40
0.5
 40
0.5
 40
0.5
 40
0.625
 40
0.625
 40
0.625
 40
0.625
 40
0.75
 40
0.75
 40
0.75
 40
0.75
 40
1.0
 40
1.0
 40
1.0
 40
1.0
 10
-174.1494
 20
-76.4842
 30
0.0
 10
-175.696
 20
-75.1781
 30
0.0
 10
-177.0408
 20
-73.5691
 30
0.0
 10
-178.8158
 20
-72.5618
 30
0.0
 10
-178.8158
 20
-72.5618
 30
0.0
 10
-178.8158
 20
-72.5618
 30
0.0
 10
-178.8158
 20
-69.0027
 30
0.0
 10
-178.8158
 20
-69.0027
 30
0.0
 10
-178.8158
 20
-69.0027
 30
0.0
 10
-177.1896
 20
-67.3907
 30
0.0
 10
-175.8059
 20
-65.6607
 30
0.0
 10
-173.1237
 20
-64.8991
 30
0.0
 10
-173.1237
 20
-64.8991
 30
0.0
 10
-172.7096
 20
-67.7997
 30
0.0
 10
-168.555
 20
-67.9005
 30
0.0
 10
-168.2942
 20
-64.5045
 30
0.0
 10
-168.2942
 20
-64.5045
 30
0.0
 10
-156.9636
 20
-65.2874
 30
0.0
 10
-156.7202
 20
-78.7987
 30
0.0
 10
-165.8911
 20
-78.618
 30
0.0
 10
-165.8911
 20
-78.618
 30
0.0
 10
-159.0435
 20
-71.6486
 30
0.0
 10
-168.0217
 20
-66.7719
 30
0.0
 10
-171.7667
 20
-69.4472
 30
0.0
 10
-171.7667
 20
-69.4472
 30
0.0
 10
-174.3094
 20
-71.2639
 30
0.0
 10
-174.6059
 20
-75.2016
 30
0.0
 10
-174.1494
 20
-76.4842
 30
0.0
  0
SPLINE
  5
6B
330
1F
100
AcDbEntity
  8
layer 1
 62
     7
100
AcDbSpline
210
0.0
220
0.0
230
1.0
 70
    11
 71
     3
 72
    20
 73
    16
 74
     0
 42
0.0000000001
 43
0.0000000001
 12
1.0
 22
0.0
 32
0.0
 13
1.0
 23
0.0
 33
0.0
 40
0.0
 40
0.0
 40
0.0
 40
0.0
 40
0.2
 40
0.2
 40
0.2
 40
0.2
 40
0.4
 40
0.4
 40
0.4
 40
0.4
 40
0.6
 40
0.6
 40
0.6
 40
0.6
 40
1.0
 40
1.0
 40
1.0
 40
1.0
 10
-108.369
 20
-75.646
 30
0.0
 10
-108.369
 20
-75.646
 30
0.0
 10
-108.369
 20
-66.1195
 30
0.0
 10
-108.369
 20
-66.1195
 30
0.0
 10
-108.369
 20
-66.1195
 30
0.0
 10
-108.369
 20
-66.1195
 30
0.0
 10
-110.9677
 20
-66.4661
 30
0.0
 10
-110.9677
 20
-66.4661
 30
0.0
 10
-110.9677
 20
-66.4661
 30
0.0
 10
-110.3601
 20
-71.5333
 30
0.0
 10
-113.6348
 20
-72.6832
 30
0.0
 10
-114.2272
 20
-72.7424
 30
0.0
 10
-114.2272
 20
-72.7424
 30
0.0
 10
-111.9841
 20
-73.456
 30
0.0
 10
-109.8892
 20
-73.6784
 30
0.0
 10
-108.369
 20
-75.646
 30
0.0
  0
SPLINE
  5
6C
330
1F
100
AcDbEntity
  8
layer 1
 62
     7
100
AcDbSpline
210
0.0
220
0.0
230
1.0
 70
    11
 71
     3
 72
    20
 73
    16
 74
     0
 42
0.0000000001
 43
0.0000000001
 12
1.0
 22
0.0
 32
0.0
 13
1.0
 23
0.0
 33
0.0
 40
0.0
 40
0.0
 40
0.0
 40
0.0
 40
0.2
 40
0.2
 40
0.2
 40
0.2
 40
0.4
 40
0.4
 40
0.4
 40
0.4
 40
0.6
 40
0.6
 40
0.6
 40
0.6
 40
1.0
 40
1.0
 40
1.0
 40
1.0
 10
-122.6569
 20
-74.71
 30
0.0
 10
-122.6569
 20
-74.71
 30
0.0
 10
-121.9372
 20
-69.548
 30
0.0
 10
-124.5297
 20
-66.3305
 30
0.0
 10
-124.5297
 20
-66.3305
 30
0.0
 10
-119.632
 20
-67.2725
 30
0.0
 10
-120.3753
 20
-59.8736
 30
0.0
 10
-115.1664
 20
-66.1522
 30
0.0
 10
-115.1664
 20
-66.1522
 30
0.0
 10
-121.4508
 20
-64.7268
 30
0.0
 10
-121.9516
 20
-72.3396
 30
0.0
 10
-119.0865
 20
-73.3674
 30
0.0
 10
-119.0865
 20
-73.3674
 30
0.0
 10
-120.2213
 20
-73.1391
 30
0.0
 10
-121.9372
 20
-74.0433
 30
0.0
 10
-122.6569
 20
-74.71
 30
0.0
  0
SPLINE
  5
6D
330
1F
100
AcDbEntity
  8
layer 1
 62
     7
100
AcDbSpline
210
0.0
220
0.0
230
1.0
 70
    11
 71
     3
 72
    20
 73
    16
 74
     0
 42
0.0000000001
 43
0.0000000001
 12
1.0
 22
0.0
 32
0.0
 13
1.0
 23
0.0
 33
0.0
 40
0.0
 40
0.0
 40
0.0
 40
0.0
 40
0.2
 40
0.2
 40
0.2
 40
0.2
 40
0.4
 40
0.4
 40
0.4
 40
0.4
 40
0.6
 40
0.6
 40
0.6
 40
0.6
 40
1.0
 40
1.0
 40
1.0
 40
1.0
 10
-108.369
 20
-47.0109
 30
0.0
 10
-108.369
 20
-47.0109
 30
0.0
 10
-108.369
 20
-56.5376
 30
0.0
 10
-108.369
 20
-56.5376
 30
0.0
 10
-108.369
 20
-56.5376
 30
0.0
 10
-108.369
 20
-56.5376
 30
0.0
 10
-110.9677
 20
-56.1931
 30
0.0
 10
-110.9677
 20
-56.1931
 30
0.0
 10
-110.9677
 20
-56.1931
 30
0.0
 10
-110.3601
 20
-51.1238
 30
0.0
 10
-113.6348
 20
-49.9738
 30
0.0
 10
-114.2272
 20
-49.9177
 30
0.0
 10
-114.2272
 20
-49.9177
 30
0.0
 10
-111.9841
 20
-49.2039
 30
0.0
 10
-109.8892
 20
-48.9787
 30
0.0
 10
-108.369
 20
-47.0109
 30
0.0
  0
SPLINE
  5
6E
330
1F
100
AcDbEntity
  8
layer 1
 62
     7
100
AcDbSpline
210
0.0
220
0.0
230
1.0
 70
    11
 71
     3
 72
    20
 73
    16
 74
     0
 42
0.0000000001
 43
0.0000000001
 12
1.0
 22
0.0
 32
0.0
 13
1.0
 23
0.0
 33
0.0
 40
0.0
 40
0.0
 40
0.0
 40
0.0
 40
0.2
 40
0.2
 40
0.2
 40
0.2
 40
0.4
 40
0.4
 40
0.4
 40
0.4
 40
0.6
 40
0.6
 40
0.6
 40
0.6
 40
1.0
 40
1.0
 40
1.0
 40
1.0
 10
-122.6569
 20
-47.9471
 30
0.0
 10
-122.6569
 20
-47.9471
 30
0.0
 10
-121.9372
 20
-53.1088
 30
0.0
 10
-124.5297
 20
-56.3296
 30
0.0
 10
-124.5297
 20
-56.3296
 30
0.0
 10
-119.632
 20
-55.3876
 30
0.0
 10
-120.3753
 20
-62.7835
 30
0.0
 10
-115.1664
 20
-56.5049
 30
0.0
 10
-115.1664
 20
-56.5049
 30
0.0
 10
-121.4508
 20
-57.9294
 30
0.0
 10
-121.9516
 20
-50.3174
 30
0.0
 10
-119.0865
 20
-49.2927
 30
0.0
 10
-119.0865
 20
-49.2927
 30
0.0
 10
-120.2213
 20
-49.521
 30
0.0
 10
-121.9372
 20
-48.6138
 30
0.0
 10
-122.6569
 20
-47.9471
 30
0.0
  0
SPLINE
  5
6F
330
1F
100
AcDbEntity
  8
layer 1
 62
     7
100
AcDbSpline
210
0.0
220
0.0
230
1.0
 70
    11
 71
     3
 72
    16
 73
    12
 74
     0
 42
0.0000000001
 43
0.0000000001
 12
1.0
 22
0.0
 32
0.0
 13
1.0
 23
0.0
 33
0.0
 40
0.0
 40
0.0
 40
0.0
 40
0.0
 40
0.25
 40
0.25
 40
0.25
 40
0.25
 40
0.5
 40
0.5
 40
0.5
 40
0.5
 40
1.0
 40
1.0
 40
1.0
 40
1.0
 10
-108.369
 20
-15.7892
 30
0.0
 10
-108.369
 20
-15.7892
 30
0.0
 10
-108.369
 20
4.6825
 30
0.0
 10
-108.369
 20
4.6825
 30
0.0
 10
-108.369
 20
4.6825
 30
0.0
 10
-114.9828
 20
-0.6866
 30
0.0
 10
-108.369
 20
-5.3502
 30
0.0
 10
-119.3892
 20
-8.6628
 30
0.0
 10
-119.3892
 20
-8.6628
 30
0.0
 10
-116.0583
 20
-10.3133
 30
0.0
 10
-112.7367
 20
-12.3016
 30
0.0
 10
-108.369
 20
-15.7892
 30
0.0
  0
SPLINE
  5
70
330
1F
100
AcDbEntity
  8
layer 1
 62
     7
100
AcDbSpline
210
0.0
220
0.0
230
1.0
 70
    11
 71
     3
 72
    44
 73
    40
 74
     0
 42
0.0000000001
 43
0.0000000001
 12
1.0
 22
0.0
 32
0.0
 13
1.0
 23
0.0
 33
0.0
 40
0.0
 40
0.0
 40
0.0
 40
0.0
 40
0.0909090909090909
 40
0.0909090909090909
 40
0.0909090909090909
 40
0.0909090909090909
 40
0.1818181818181818
 40
0.1818181818181818
 40
0.1818181818181818
 40
0.1818181818181818
 40
0.2727272727272727
 40
0.2727272727272727
 40
0.2727272727272727
 40
0.2727272727272727
 40
0.3636363636363636
 40
0.3636363636363636
 40
0.3636363636363636
 40
0.3636363636363636
 40
0.4545454545454545
 40
0.4545454545454545
 40
0.4545454545454545
 40
0.4545454545454545
 40
0.5454545454545454
 40
0.5454545454545454
 40
0.5454545454545454
 40
0.5454545454545454
 40
0.6363636363636364
 40
0.6363636363636364
 40
0.6363636363636364
 40
0.6363636363636364
 40
0.7272727272727273
 40
0.7272727272727273
 40
0.7272727272727273
 40
0.7272727272727273
 40
0.8181818181818182
 40
0.8181818181818182
 40
0.8181818181818182
 40
0.8181818181818182
 40
1.0
 40
1.0
 40
1.0
 40
1.0
 10
-165.2568
 20
-22.13
 30
0.0
 10
-161.3548
 20
-38.1397
 30
0.0
 10
-156.1369
 20
-28.243
 30
0.0
 10
-151.8223
 20
-42.7412
 30
0.0
 10
-151.8223
 20
-42.7412
 30
0.0
 10
-150.3735
 20
-38.4917
 30
0.0
 10
-146.6695
 20
-36.1364
 30
0.0
 10
-143.0043
 20
-35.8726
 30
0.0
 10
-143.0043
 20
-35.8726
 30
0.0
 10
-143.2885
 20
-32.9453
 30
0.0
 10
-141.8283
 20
-28.4116
 30
0.0
 10
-133.3327
 20
-31.5169
 30
0.0
 10
-133.3327
 20
-31.5169
 30
0.0
 10
-134.8384
 20
-29.3953
 30
0.0
 10
-140.5305
 20
-16.9385
 30
0.0
 10
-148.5604
 20
-16.8353
 30
0.0
 10
-148.5604
 20
-16.8353
 30
0.0
 10
-158.0506
 20
-16.9475
 30
0.0
 10
-159.9767
 20
-23.6031
 30
0.0
 10
-156.6437
 20
-28.7171
 30
0.0
 10
-156.6437
 20
-28.7171
 30
0.0
 10
-152.5542
 20
-33.0461
 30
0.0
 10
-149.1264
 20
-30.8093
 30
0.0
 10
-148.0295
 20
-30.2076
 30
0.0
 10
-148.0295
 20
-30.2076
 30
0.0
 10
-155.7425
 20
-28.3438
 30
0.0
 10
-152.6022
 20
-19.8931
 30
0.0
 10
-147.4045
 20
-21.2675
 30
0.0
 10
-147.4045
 20
-21.2675
 30
0.0
 10
-140.7528
 20
-23.0281
 30
0.0
 10
-142.4801
 20
-30.9989
 30
0.0
 10
-146.178
 20
-33.2418
 30
0.0
 10
-146.178
 20
-33.2418
 30
0.0
 10
-155.36
 20
-37.6005
 30
0.0
 10
-162.4837
 20
-31.3128
 30
0.0
 10
-161.7251
 20
-22.761
 30
0.0
 10
-161.7251
 20
-22.761
 30
0.0
 10
-162.8507
 20
-22.9447
 30
0.0
 10
-164.4156
 20
-22.7253
 30
0.0
 10
-165.2568
 20
-22.13
 30
0.0
  0
SPLINE
  5
71
330
1F
100
AcDbEntity
  8
layer 1
 62
     7
100
AcDbSpline
210
0.0
220
0.0
230
1.0
 70
    11
 71
     3
 72
    24
 73
    20
 74
     0
 42
0.0000000001
 43
0.0000000001
 12
1.0
 22
0.0
 32
0.0
 13
1.0
 23
0.0
 33
0.0
 40
0.0
 40
0.0
 40
0.0
 40
0.0
 40
0.1666666666666667
 40
0.1666666666666667
 40
0.1666666666666667
 40
0.1666666666666667
 40
0.3333333333333333
 40
0.3333333333333333
 40
0.3333333333333333
 40
0.3333333333333333
 40
0.5
 40
0.5
 40
0.5
 40
0.5
 40
0.6666666666666666
 40
0.6666666666666666
 40
0.6666666666666666
 40
0.6666666666666666
 40
1.0
 40
1.0
 40
1.0
 40
1.0
 10
-132.4438
 20
-56.2735
 30
0.0
 10
-132.4438
 20
-56.2735
 30
0.0
 10
-132.6577
 20
-60.2262
 30
0.0
 10
-132.6577
 20
-60.2262
 30
0.0
 10
-132.6577
 20
-60.2262
 30
0.0
 10
-125.2679
 20
-57.9834
 30
0.0
 10
-124.0141
 20
-45.5797
 30
0.0
 10
-129.487
 20
-38.7762
 30
0.0
 10
-129.487
 20
-38.7762
 30
0.0
 10
-131.0844
 20
-36.7911
 30
0.0
 10
-132.6964
 20
-34.8121
 30
0.0
 10
-136.6279
 20
-34.0352
 30
0.0
 10
-136.6279
 20
-34.0352
 30
0.0
 10
-135.8753
 20
-34.7644
 30
0.0
 10
-136.0325
 20
-36.0947
 30
0.0
 10
-136.5717
 20
-36.5187
 30
0.0
 10
-136.5717
 20
-36.5187
 30
0.0
 10
-124.9714
 20
-38.519
 30
0.0
 10
-126.2987
 20
-54.2824
 30
0.0
 10
-132.4438
 20
-56.2735
 30
0.0
  0
SPLINE
  5
72
330
1F
100
AcDbEntity
  8
layer 1
 62
     7
100
AcDbSpline
210
0.0
220
0.0
230
1.0
 70
    11
 71
     3
 72
    40
 73
    36
 74
     0
 42
0.0000000001
 43
0.0000000001
 12
1.0
 22
0.0
 32
0.0
 13
1.0
 23
0.0
 33
0.0
 40
0.0
 40
0.0
 40
0.0
 40
0.0
 40
0.1
 40
0.1
 40
0.1
 40
0.1
 40
0.2
 40
0.2
 40
0.2
 40
0.2
 40
0.3
 40
0.3
 40
0.3
 40
0.3
 40
0.4
 40
0.4
 40
0.4
 40
0.4
 40
0.5
 40
0.5
 40
0.5
 40
0.5
 40
0.6
 40
0.6
 40
0.6
 40
0.6
 40
0.7
 40
0.7
 40
0.7
 40
0.7
 40
0.8
 40
0.8
 40
0.8
 40
0.8
 40
1.0
 40
1.0
 40
1.0
 40
1.0
 10
-136.1924
 20
-57.5297
 30
0.0
 10
-136.1924
 20
-57.5297
 30
0.0
 10
-136.3047
 20
-59.3638
 30
0.0
 10
-136.3047
 20
-59.3638
 30
0.0
 10
-136.3047
 20
-59.3638
 30
0.0
 10
-139.5171
 20
-57.1065
 30
0.0
 10
-141.9528
 20
-58.7807
 30
0.0
 10
-142.6196
 20
-61.2276
 30
0.0
 10
-142.6196
 20
-61.2276
 30
0.0
 10
-147.8369
 20
-58.6736
 30
0.0
 10
-150.4182
 20
-52.9693
 30
0.0
 10
-149.9381
 20
-49.7371
 30
0.0
 10
-149.9381
 20
-49.7371
 30
0.0
 10
-149.5231
 20
-45.1443
 30
0.0
 10
-146.3941
 20
-40.0362
 30
0.0
 10
-139.7394
 20
-40.1932
 30
0.0
 10
-139.7394
 20
-40.1932
 30
0.0
 10
-137.1824
 20
-40.0627
 30
0.0
 10
-131.9075
 20
-42.063
 30
0.0
 10
-131.2467
 20
-47.3964
 30
0.0
 10
-131.2467
 20
-47.3964
 30
0.0
 10
-130.5034
 20
-53.3813
 30
0.0
 10
-138.1898
 20
-56.7059
 30
0.0
 10
-140.865
 20
-51.3308
 30
0.0
 10
-140.865
 20
-51.3308
 30
0.0
 10
-132.616
 20
-52.9222
 30
0.0
 10
-133.9046
 20
-42.2935
 30
0.0
 10
-140.0566
 20
-43.0431
 30
0.0
 10
-140.0566
 20
-43.0431
 30
0.0
 10
-146.599
 20
-43.8404
 30
0.0
 10
-145.5643
 20
-50.7772
 30
0.0
 10
-144.3824
 20
-53.1976
 30
0.0
 10
-144.3824
 20
-53.1976
 30
0.0
 10
-142.7789
 20
-56.4866
 30
0.0
 10
-139.3571
 20
-57.0231
 30
0.0
 10
-136.1924
 20
-57.5297
 30
0.0
  0
SPLINE
  5
73
330
1F
100
AcDbEntity
  8
layer 1
 62
     7
100
AcDbSpline
210
0.0
220
0.0
230
1.0
 70
    11
 71
     3
 72
    44
 73
    40
 74
     0
 42
0.0000000001
 43
0.0000000001
 12
1.0
 22
0.0
 32
0.0
 13
1.0
 23
0.0
 33
0.0
 40
0.0
 40
0.0
 40
0.0
 40
0.0
 40
0.0909090909090909
 40
0.0909090909090909
 40
0.0909090909090909
 40
0.0909090909090909
 40
0.1818181818181818
 40
0.1818181818181818
 40
0.1818181818181818
 40
0.1818181818181818
 40
0.2727272727272727
 40
0.2727272727272727
 40
0.2727272727272727
 40
0.2727272727272727
 40
0.3636363636363636
 40
0.3636363636363636
 40
0.3636363636363636
 40
0.3636363636363636
 40
0.4545454545454545
 40
0.4545454545454545
 40
0.4545454545454545
 40
0.4545454545454545
 40
0.5454545454545454
 40
0.5454545454545454
 40
0.5454545454545454
 40
0.5454545454545454
 40
0.6363636363636364
 40
0.6363636363636364
 40
0.6363636363636364
 40
0.6363636363636364
 40
0.7272727272727273
 40
0.7272727272727273
 40
0.7272727272727273
 40
0.7272727272727273
 40
0.8181818181818182
 40
0.8181818181818182
 40
0.8181818181818182
 40
0.8181818181818182
 40
1.0
 40
1.0
 40
1.0
 40
1.0
 10
-164.3057
 20
-100.05
 30
0.0
 10
-163.3962
 20
-86.1087
 30
0.0
 10
-155.932
 20
-94.1531
 30
0.0
 10
-151.6212
 20
-79.6551
 30
0.0
 10
-151.6212
 20
-79.6551
 30
0.0
 10
-150.1724
 20
-83.9043
 30
0.0
 10
-146.4685
 20
-86.2597
 30
0.0
 10
-142.8032
 20
-86.5237
 30
0.0
 10
-142.8032
 20
-86.5237
 30
0.0
 10
-143.0877
 20
-89.4478
 30
0.0
 10
-141.6236
 20
-93.9817
 30
0.0
 10
-133.1318
 20
-90.8761
 30
0.0
 10
-133.1318
 20
-90.8761
 30
0.0
 10
-134.6335
 20
-93.0008
 30
0.0
 10
-140.3258
 20
-105.4546
 30
0.0
 10
-148.3587
 20
-105.5586
 30
0.0
 10
-148.3587
 20
-105.5586
 30
0.0
 10
-157.8497
 20
-105.4455
 30
0.0
 10
-159.7757
 20
-98.7939
 30
0.0
 10
-156.4388
 20
-93.6759
 30
0.0
 10
-156.4388
 20
-93.6759
 30
0.0
 10
-152.3532
 20
-89.3499
 30
0.0
 10
-148.9247
 20
-91.5877
 30
0.0
 10
-147.8255
 20
-92.1893
 30
0.0
 10
-147.8255
 20
-92.1893
 30
0.0
 10
-155.5383
 20
-94.0529
 30
0.0
 10
-152.3973
 20
-102.5002
 30
0.0
 10
-147.2034
 20
-101.1285
 30
0.0
 10
-147.2034
 20
-101.1285
 30
0.0
 10
-140.5481
 20
-99.368
 30
0.0
 10
-142.2782
 20
-91.398
 30
0.0
 10
-145.9761
 20
-89.1549
 30
0.0
 10
-145.9761
 20
-89.1549
 30
0.0
 10
-155.156
 20
-84.7956
 30
0.0
 10
-161.5681
 20
-91.1516
 30
0.0
 10
-161.5234
 20
-99.635
 30
0.0
 10
-161.5234
 20
-99.635
 30
0.0
 10
-162.6497
 20
-99.4484
 30
0.0
 10
-163.4644
 20
-99.4576
 30
0.0
 10
-164.3057
 20
-100.05
 30
0.0
  0
SPLINE
  5
74
330
1F
100
AcDbEntity
  8
layer 1
 62
     7
100
AcDbSpline
210
0.0
220
0.0
230
1.0
 70
    11
 71
     3
 72
    24
 73
    20
 74
     0
 42
0.0000000001
 43
0.0000000001
 12
1.0
 22
0.0
 32
0.0
 13
1.0
 23
0.0
 33
0.0
 40
0.0
 40
0.0
 40
0.0
 40
0.0
 40
0.1666666666666667
 40
0.1666666666666667
 40
0.1666666666666667
 40
0.1666666666666667
 40
0.3333333333333333
 40
0.3333333333333333
 40
0.3333333333333333
 40
0.3333333333333333
 40
0.5
 40
0.5
 40
0.5
 40
0.5
 40
0.6666666666666666
 40
0.6666666666666666
 40
0.6666666666666666
 40
0.6666666666666666
 40
1.0
 40
1.0
 40
1.0
 40
1.0
 10
-132.4438
 20
-67.145
 30
0.0
 10
-132.4438
 20
-67.145
 30
0.0
 10
-132.6577
 20
-63.1952
 30
0.0
 10
-132.6577
 20
-63.1952
 30
0.0
 10
-132.6577
 20
-63.1952
 30
0.0
 10
-125.2679
 20
-65.4353
 30
0.0
 10
-124.0823
 20
-77.572
 30
0.0
 10
-129.8867
 20
-84.3754
 30
0.0
 10
-129.8867
 20
-84.3754
 30
0.0
 10
-131.5433
 20
-86.3128
 30
0.0
 10
-132.8828
 20
-88.2834
 30
0.0
 10
-136.2099
 20
-88.8287
 30
0.0
 10
-136.2099
 20
-88.8287
 30
0.0
 10
-135.7897
 20
-87.9846
 30
0.0
 10
-136.2047
 20
-87.1038
 30
0.0
 10
-136.5717
 20
-86.8998
 30
0.0
 10
-136.5717
 20
-86.8998
 30
0.0
 10
-124.9714
 20
-84.8996
 30
0.0
 10
-126.2987
 20
-69.1363
 30
0.0
 10
-132.4438
 20
-67.145
 30
0.0
  0
SPLINE
  5
75
330
1F
100
AcDbEntity
  8
layer 1
 62
     7
100
AcDbSpline
210
0.0
220
0.0
230
1.0
 70
    11
 71
     3
 72
    40
 73
    36
 74
     0
 42
0.0000000001
 43
0.0000000001
 12
1.0
 22
0.0
 32
0.0
 13
1.0
 23
0.0
 33
0.0
 40
0.0
 40
0.0
 40
0.0
 40
0.0
 40
0.1
 40
0.1
 40
0.1
 40
0.1
 40
0.2
 40
0.2
 40
0.2
 40
0.2
 40
0.3
 40
0.3
 40
0.3
 40
0.3
 40
0.4
 40
0.4
 40
0.4
 40
0.4
 40
0.5
 40
0.5
 40
0.5
 40
0.5
 40
0.6
 40
0.6
 40
0.6
 40
0.6
 40
0.7
 40
0.7
 40
0.7
 40
0.7
 40
0.8
 40
0.8
 40
0.8
 40
0.8
 40
1.0
 40
1.0
 40
1.0
 40
1.0
 10
-136.1924
 20
-65.8888
 30
0.0
 10
-136.1924
 20
-65.8888
 30
0.0
 10
-136.3047
 20
-64.0547
 30
0.0
 10
-136.3047
 20
-64.0547
 30
0.0
 10
-136.3047
 20
-64.0547
 30
0.0
 10
-139.5171
 20
-66.3152
 30
0.0
 10
-141.9528
 20
-64.641
 30
0.0
 10
-142.6196
 20
-62.1911
 30
0.0
 10
-142.6196
 20
-62.1911
 30
0.0
 10
-147.8369
 20
-64.7449
 30
0.0
 10
-150.4182
 20
-70.4515
 30
0.0
 10
-149.9381
 20
-73.6814
 30
0.0
 10
-149.9381
 20
-73.6814
 30
0.0
 10
-149.5231
 20
-78.2774
 30
0.0
 10
-146.3941
 20
-83.3825
 30
0.0
 10
-139.7394
 20
-83.2255
 30
0.0
 10
-139.7394
 20
-83.2255
 30
0.0
 10
-137.1824
 20
-83.3558
 30
0.0
 10
-131.9075
 20
-81.3587
 30
0.0
 10
-131.2467
 20
-76.0223
 30
0.0
 10
-131.2467
 20
-76.0223
 30
0.0
 10
-130.5034
 20
-70.0396
 30
0.0
 10
-138.1898
 20
-66.7128
 30
0.0
 10
-140.865
 20
-72.0876
 30
0.0
 10
-140.865
 20
-72.0876
 30
0.0
 10
-132.616
 20
-70.4993
 30
0.0
 10
-133.9046
 20
-81.125
 30
0.0
 10
-140.0566
 20
-80.3748
 30
0.0
 10
-140.0566
 20
-80.3748
 30
0.0
 10
-146.599
 20
-79.5807
 30
0.0
 10
-145.5643
 20
-72.6445
 30
0.0
 10
-144.3824
 20
-70.2241
 30
0.0
 10
-144.3824
 20
-70.2241
 30
0.0
 10
-142.7789
 20
-66.9319
 30
0.0
 10
-139.3571
 20
-66.3956
 30
0.0
 10
-136.1924
 20
-65.8888
 30
0.0
  0
SPLINE
  5
76
330
1F
100
AcDbEntity
  8
layer 1
 62
     7
100
AcDbSpline
210
0.0
220
0.0
230
1.0
 70
    11
 71
     3
 72
    20
 73
    16
 74
     0
 42
0.0000000001
 43
0.0000000001
 12
1.0
 22
0.0
 32
0.0
 13
1.0
 23
0.0
 33
0.0
 40
0.0
 40
0.0
 40
0.0
 40
0.0
 40
0.2
 40
0.2
 40
0.2
 40
0.2
 40
0.4
 40
0.4
 40
0.4
 40
0.4
 40
0.6
 40
0.6
 40
0.6
 40
0.6
 40
1.0
 40
1.0
 40
1.0
 40
1.0
 10
-178.8158
 20
-92.8081
 30
0.0
 10
-176.795
 20
-94.2629
 30
0.0
 10
-177.64
 20
-97.1758
 30
0.0
 10
-177.8708
 20
-98.2249
 30
0.0
 10
-177.8708
 20
-98.2249
 30
0.0
 10
-174.2737
 20
-97.4807
 30
0.0
 10
-172.6232
 20
-93.8746
 30
0.0
 10
-172.9197
 20
-91.3002
 30
0.0
 10
-172.9197
 20
-91.3002
 30
0.0
 10
-175.1097
 20
-91.3359
 30
0.0
 10
-177.4119
 20
-89.6761
 30
0.0
 10
-178.8158
 20
-88.3365
 30
0.0
 10
-178.8158
 20
-88.3365
 30
0.0
 10
-178.8158
 20
-88.3365
 30
0.0
 10
-178.8158
 20
-92.8081
 30
0.0
 10
-178.8158
 20
-92.8081
 30
0.0
  0
SPLINE
  5
77
330
1F
100
AcDbEntity
  8
layer 1
 62
     7
100
AcDbSpline
210
0.0
220
0.0
230
1.0
 70
    11
 71
     3
 72
    20
 73
    16
 74
     0
 42
0.0000000001
 43
0.0000000001
 12
1.0
 22
0.0
 32
0.0
 13
1.0
 23
0.0
 33
0.0
 40
0.0
 40
0.0
 40
0.0
 40
0.0
 40
0.2
 40
0.2
 40
0.2
 40
0.2
 40
0.4
 40
0.4
 40
0.4
 40
0.4
 40
0.6
 40
0.6
 40
0.6
 40
0.6
 40
1.0
 40
1.0
 40
1.0
 40
1.0
 10
-172.1847
 20
-98.5268
 30
0.0
 10
-170.8011
 20
-97.0128
 30
0.0
 10
-169.5237
 20
-94.8525
 30
0.0
 10
-169.488
 20
-91.8835
 30
0.0
 10
-169.488
 20
-91.8835
 30
0.0
 10
-168.4451
 20
-92.3787
 30
0.0
 10
-167.1683
 20
-92.7724
 30
0.0
 10
-165.9859
 20
-92.3871
 30
0.0
 10
-165.9859
 20
-92.3871
 30
0.0
 10
-167.3672
 20
-94.6218
 30
0.0
 10
-169.7073
 20
-99.1996
 30
0.0
 10
-170.1016
 20
-101.3001
 30
0.0
 10
-170.1016
 20
-101.3001
 30
0.0
 10
-170.5493
 20
-100.3222
 30
0.0
 10
-171.0082
 20
-99.3181
 30
0.0
 10
-172.1847
 20
-98.5268
 30
0.0
  0
SPLINE
  5
78
330
1F
100
AcDbEntity
  8
layer 1
 62
     7
100
AcDbSpline
210
0.0
220
0.0
230
1.0
 70
    11
 71
     3
 72
    24
 73
    20
 74
     0
 42
0.0000000001
 43
0.0000000001
 12
1.0
 22
0.0
 32
0.0
 13
1.0
 23
0.0
 33
0.0
 40
0.0
 40
0.0
 40
0.0
 40
0.0
 40
0.1666666666666667
 40
0.1666666666666667
 40
0.1666666666666667
 40
0.1666666666666667
 40
0.3333333333333333
 40
0.3333333333333333
 40
0.3333333333333333
 40
0.3333333333333333
 40
0.5
 40
0.5
 40
0.5
 40
0.5
 40
0.6666666666666666
 40
0.6666666666666666
 40
0.6666666666666666
 40
0.6666666666666666
 40
1.0
 40
1.0
 40
1.0
 40
1.0
 10
-178.8158
 20
-107.093
 30
0.0
 10
-178.8158
 20
-107.093
 30
0.0
 10
-174.3154
 20
-107.0636
 30
0.0
 10
-174.3154
 20
-107.0636
 30
0.0
 10
-174.3154
 20
-107.0636
 30
0.0
 10
-173.7344
 20
-106.5894
 30
0.0
 10
-172.73
 20
-105.9491
 30
0.0
 10
-171.8411
 20
-105.6412
 30
0.0
 10
-171.8411
 20
-105.6412
 30
0.0
 10
-174.9792
 20
-105.0131
 30
0.0
 10
-175.9031
 20
-103.4809
 30
0.0
 10
-176.0039
 20
-101.1879
 30
0.0
 10
-176.0039
 20
-101.1879
 30
0.0
 10
-176.9642
 20
-101.8659
 30
0.0
 10
-177.7106
 20
-102.0768
 30
0.0
 10
-178.8158
 20
-102.2421
 30
0.0
 10
-178.8158
 20
-102.2421
 30
0.0
 10
-178.8158
 20
-102.2421
 30
0.0
 10
-178.8158
 20
-107.093
 30
0.0
 10
-178.8158
 20
-107.093
 30
0.0
  0
SPLINE
  5
79
330
1F
100
AcDbEntity
  8
layer 1
 62
     7
100
AcDbSpline
210
0.0
220
0.0
230
1.0
 70
    11
 71
     3
 72
    16
 73
    12
 74
     0
 42
0.0000000001
 43
0.0000000001
 12
1.0
 22
0.0
 32
0.0
 13
1.0
 23
0.0
 33
0.0
 40
0.0
 40
0.0
 40
0.0
 40
0.0
 40
0.25
 40
0.25
 40
0.25
 40
0.25
 40
0.5
 40
0.5
 40
0.5
 40
0.5
 40
1.0
 40
1.0
 40
1.0
 40
1.0
 10
-163.3431
 20
-104.6074
 30
0.0
 10
-162.6232
 20
-104.7757
 30
0.0
 10
-161.4559
 20
-104.6308
 30
0.0
 10
-160.8656
 20
-103.7092
 30
0.0
 10
-160.8656
 20
-103.7092
 30
0.0
 10
-160.7891
 20
-104.539
 30
0.0
 10
-160.1664
 20
-105.2385
 30
0.0
 10
-158.8896
 20
-106.4232
 30
0.0
 10
-158.8896
 20
-106.4232
 30
0.0
 10
-161.518
 20
-107.09
 30
0.0
 10
-162.718
 20
-105.6829
 30
0.0
 10
-163.3431
 20
-104.6074
 30
0.0
  0
SPLINE
  5
7A
330
1F
100
AcDbEntity
  8
layer 1
 62
     7
100
AcDbSpline
210
0.0
220
0.0
230
1.0
 70
    11
 71
     3
 72
    24
 73
    20
 74
     0
 42
0.0000000001
 43
0.0000000001
 12
1.0
 22
0.0
 32
0.0
 13
1.0
 23
0.0
 33
0.0
 40
0.0
 40
0.0
 40
0.0
 40
0.0
 40
0.1666666666666667
 40
0.1666666666666667
 40
0.1666666666666667
 40
0.1666666666666667
 40
0.3333333333333333
 40
0.3333333333333333
 40
0.3333333333333333
 40
0.3333333333333333
 40
0.5
 40
0.5
 40
0.5
 40
0.5
 40
0.6666666666666666
 40
0.6666666666666666
 40
0.6666666666666666
 40
0.6666666666666666
 40
1.0
 40
1.0
 40
1.0
 40
1.0
 10
-108.369
 20
-107.09
 30
0.0
 10
-108.369
 20
-107.09
 30
0.0
 10
-108.369
 20
-88.5118
 30
0.0
 10
-108.369
 20
-88.5118
 30
0.0
 10
-108.369
 20
-88.5118
 30
0.0
 10
-110.2358
 20
-91.395
 30
0.0
 10
-112.6184
 20
-91.6582
 30
0.0
 10
-114.9176
 20
-92.2217
 30
0.0
 10
-114.9176
 20
-92.2217
 30
0.0
 10
-115.5548
 20
-92.3787
 30
0.0
 10
-116.3695
 20
-92.6451
 30
0.0
 10
-116.8169
 20
-93.7624
 30
0.0
 10
-116.8169
 20
-93.7624
 30
0.0
 10
-113.6105
 20
-94.5741
 30
0.0
 10
-114.2242
 20
-98.7992
 30
0.0
 10
-117.1248
 20
-99.2701
 30
0.0
 10
-117.1248
 20
-99.2701
 30
0.0
 10
-114.4078
 20
-100.2184
 30
0.0
 10
-109.8892
 20
-105.1223
 30
0.0
 10
-108.369
 20
-107.09
 30
0.0
  0
SPLINE
  5
7B
330
1F
100
AcDbEntity
  8
layer 1
 62
     7
100
AcDbSpline
210
0.0
220
0.0
230
1.0
 70
    11
 71
     3
 72
    16
 73
    12
 74
     0
 42
0.0000000001
 43
0.0000000001
 12
1.0
 22
0.0
 32
0.0
 13
1.0
 23
0.0
 33
0.0
 40
0.0
 40
0.0
 40
0.0
 40
0.0
 40
0.25
 40
0.25
 40
0.25
 40
0.25
 40
0.5
 40
0.5
 40
0.5
 40
0.5
 40
1.0
 40
1.0
 40
1.0
 40
1.0
 10
-123.9547
 20
-107.09
 30
0.0
 10
-123.9547
 20
-107.09
 30
0.0
 10
-113.7084
 20
-107.09
 30
0.0
 10
-113.7084
 20
-107.09
 30
0.0
 10
-113.7084
 20
-107.09
 30
0.0
 10
-115.5517
 20
-101.5375
 30
0.0
 10
-126.4559
 20
-97.279
 30
0.0
 10
-129.1903
 20
-103.8305
 30
0.0
 10
-129.1903
 20
-103.8305
 30
0.0
 10
-127.2469
 20
-103.0607
 30
0.0
 10
-124.2332
 20
-104.3283
 30
0.0
 10
-123.9547
 20
-107.09
 30
0.0
  0
SPLINE
  5
7C
330
1F
100
AcDbEntity
  8
layer 1
 62
     7
100
AcDbSpline
210
0.0
220
0.0
230
1.0
 70
    11
 71
     3
 72
    20
 73
    16
 74
     0
 42
0.0000000001
 43
0.0000000001
 12
1.0
 22
0.0
 32
0.0
 13
1.0
 23
0.0
 33
0.0
 40
0.0
 40
0.0
 40
0.0
 40
0.0
 40
0.2
 40
0.2
 40
0.2
 40
0.2
 40
0.4
 40
0.4
 40
0.4
 40
0.4
 40
0.6
 40
0.6
 40
0.6
 40
0.6
 40
1.0
 40
1.0
 40
1.0
 40
1.0
 10
-140.9128
 20
-107.09
 30
0.0
 10
-140.9128
 20
-107.09
 30
0.0
 10
-134.0321
 20
-107.09
 30
0.0
 10
-134.0321
 20
-107.09
 30
0.0
 10
-134.0321
 20
-107.09
 30
0.0
 10
-133.8721
 20
-102.2073
 30
0.0
 10
-130.58
 20
-99.9786
 30
0.0
 10
-128.5265
 20
-98.5799
 30
0.0
 10
-128.5265
 20
-98.5799
 30
0.0
 10
-130.4647
 20
-97.0629
 30
0.0
 10
-131.3773
 20
-95.6793
 30
0.0
 10
-131.7329
 20
-94.6128
 30
0.0
 10
-131.7329
 20
-94.6128
 30
0.0
 10
-132.6811
 20
-97.3298
 30
0.0
 10
-138.9451
 20
-105.5668
 30
0.0
 10
-140.9128
 20
-107.09
 30
0.0
  0
SPLINE
  5
7D
330
1F
100
AcDbEntity
  8
layer 1
 62
     7
100
AcDbSpline
210
0.0
220
0.0
230
1.0
 70
    11
 71
     3
 72
    36
 73
    32
 74
     0
 42
0.0000000001
 43
0.0000000001
 12
1.0
 22
0.0
 32
0.0
 13
1.0
 23
0.0
 33
0.0
 40
0.0
 40
0.0
 40
0.0
 40
0.0
 40
0.1111111111111111
 40
0.1111111111111111
 40
0.1111111111111111
 40
0.1111111111111111
 40
0.2222222222222222
 40
0.2222222222222222
 40
0.2222222222222222
 40
0.2222222222222222
 40
0.3333333333333333
 40
0.3333333333333333
 40
0.3333333333333333
 40
0.3333333333333333
 40
0.4444444444444444
 40
0.4444444444444444
 40
0.4444444444444444
 40
0.4444444444444444
 40
0.5555555555555556
 40
0.5555555555555556
 40
0.5555555555555556
 40
0.5555555555555556
 40
0.6666666666666666
 40
0.6666666666666666
 40
0.6666666666666666
 40
0.6666666666666666
 40
0.7777777777777778
 40
0.7777777777777778
 40
0.7777777777777778
 40
0.7777777777777778
 40
1.0
 40
1.0
 40
1.0
 40
1.0
 10
-124.3697
 20
-80.4431
 30
0.0
 10
-127.096
 20
-84.4436
 30
0.0
 10
-129.1167
 20
-88.3813
 30
0.0
 10
-129.0099
 20
-93.1457
 30
0.0
 10
-129.0099
 20
-93.1457
 30
0.0
 10
-126.515
 20
-90.3459
 30
0.0
 10
-120.8759
 20
-92.337
 30
0.0
 10
-123.3798
 20
-97.3829
 30
0.0
 10
-123.3798
 20
-97.3829
 30
0.0
 10
-122.8027
 20
-97.4603
 30
0.0
 10
-122.0768
 20
-97.2973
 30
0.0
 10
-121.1309
 20
-97.3625
 30
0.0
 10
-121.1309
 20
-97.3625
 30
0.0
 10
-123.2819
 20
-94.0765
 30
0.0
 10
-120.2448
 20
-91.0718
 30
0.0
 10
-118.4289
 20
-91.2645
 30
0.0
 10
-118.4289
 20
-91.2645
 30
0.0
 10
-126.8442
 20
-85.4684
 30
0.0
 10
-121.2203
 20
-78.9412
 30
0.0
 10
-117.0362
 20
-78.8494
 30
0.0
 10
-117.0362
 20
-78.8494
 30
0.0
 10
-112.2064
 20
-78.7455
 30
0.0
 10
-109.7853
 20
-87.4831
 30
0.0
 10
-118.8377
 20
-86.7071
 30
0.0
 10
-118.8377
 20
-86.7071
 30
0.0
 10
-114.3751
 20
-90.7048
 30
0.0
 10
-110.3366
 20
-87.1842
 30
0.0
 10
-110.0818
 20
-85.1043
 30
0.0
 10
-110.0818
 20
-85.1043
 30
0.0
 10
-107.6551
 20
-74.7896
 30
0.0
 10
-119.2641
 20
-73.2666
 30
0.0
 10
-124.3697
 20
-80.4431
 30
0.0
  0
SPLINE
  5
7E
330
1F
100
AcDbEntity
  8
layer 1
 62
     7
100
AcDbSpline
210
0.0
220
0.0
230
1.0
 70
    11
 71
     3
 72
    24
 73
    20
 74
     0
 42
0.0000000001
 43
0.0000000001
 12
1.0
 22
0.0
 32
0.0
 13
1.0
 23
0.0
 33
0.0
 40
0.0
 40
0.0
 40
0.0
 40
0.0
 40
0.1666666666666667
 40
0.1666666666666667
 40
0.1666666666666667
 40
0.1666666666666667
 40
0.3333333333333333
 40
0.3333333333333333
 40
0.3333333333333333
 40
0.3333333333333333
 40
0.5
 40
0.5
 40
0.5
 40
0.5
 40
0.6666666666666666
 40
0.6666666666666666
 40
0.6666666666666666
 40
0.6666666666666666
 40
1.0
 40
1.0
 40
1.0
 40
1.0
 10
-152.6703
 20
-56.4602
 30
0.0
 10
-152.6703
 20
-56.4602
 30
0.0
 10
-152.7946
 20
-57.6215
 30
0.0
 10
-152.7946
 20
-57.6215
 30
0.0
 10
-152.7946
 20
-57.6215
 30
0.0
 10
-149.8075
 20
-60.1641
 30
0.0
 10
-150.8689
 20
-64.0366
 30
0.0
 10
-153.2627
 20
-65.477
 30
0.0
 10
-153.2627
 20
-65.477
 30
0.0
 10
-152.9843
 20
-66.1438
 30
0.0
 10
-152.8417
 20
-66.5169
 30
0.0
 10
-152.6583
 20
-67.3165
 30
0.0
 10
-152.6583
 20
-67.3165
 30
0.0
 10
-151.6918
 20
-65.3996
 30
0.0
 10
-149.4252
 20
-62.665
 30
0.0
 10
-148.311
 20
-61.7791
 30
0.0
 10
-148.311
 20
-61.7791
 30
0.0
 10
-150.1307
 20
-60.303
 30
0.0
 10
-151.2533
 20
-58.7032
 30
0.0
 10
-152.6703
 20
-56.4602
 30
0.0
  0
SPLINE
  5
7F
330
1F
100
AcDbEntity
  8
layer 1
 62
     7
100
AcDbSpline
210
0.0
220
0.0
230
1.0
 70
    11
 71
     3
 72
    16
 73
    12
 74
     0
 42
0.0000000001
 43
0.0000000001
 12
1.0
 22
0.0
 32
0.0
 13
1.0
 23
0.0
 33
0.0
 40
0.0
 40
0.0
 40
0.0
 40
0.0
 40
0.25
 40
0.25
 40
0.25
 40
0.25
 40
0.5
 40
0.5
 40
0.5
 40
0.5
 40
1.0
 40
1.0
 40
1.0
 40
1.0
 10
-178.8158
 20
32.5894
 30
0.0
 10
-178.8158
 20
32.5894
 30
0.0
 10
-178.8158
 20
12.1198
 30
0.0
 10
-178.8158
 20
12.1198
 30
0.0
 10
-178.8158
 20
12.1198
 30
0.0
 10
-172.1998
 20
17.4859
 30
0.0
 10
-178.8158
 20
22.1501
 30
0.0
 10
-167.7964
 20
25.4657
 30
0.0
 10
-167.7964
 20
25.4657
 30
0.0
 10
-171.1243
 20
27.1134
 30
0.0
 10
-174.4459
 20
29.1015
 30
0.0
 10
-178.8158
 20
32.5894
 30
0.0
  0
SPLINE
  5
80
330
1F
100
AcDbEntity
  8
layer 1
 62
     7
100
AcDbSpline
210
0.0
220
0.0
230
1.0
 70
    11
 71
     3
 72
    16
 73
    12
 74
     0
 42
0.0000000001
 43
0.0000000001
 12
1.0
 22
0.0
 32
0.0
 13
1.0
 23
0.0
 33
0.0
 40
0.0
 40
0.0
 40
0.0
 40
0.0
 40
0.25
 40
0.25
 40
0.25
 40
0.25
 40
0.5
 40
0.5
 40
0.5
 40
0.5
 40
1.0
 40
1.0
 40
1.0
 40
1.0
 10
-178.8158
 20
-64.3331
 30
0.0
 10
-178.8158
 20
-64.3331
 30
0.0
 10
-178.8158
 20
-58.493
 30
0.0
 10
-178.8158
 20
-58.493
 30
0.0
 10
-178.8158
 20
-58.493
 30
0.0
 10
-177.4444
 20
-59.731
 30
0.0
 10
-175.847
 20
-60.6586
 30
0.0
 10
-173.8056
 20
-61.2786
 30
0.0
 10
-173.8056
 20
-61.2786
 30
0.0
 10
-175.7491
 20
-61.7669
 30
0.0
 10
-177.367
 20
-62.5164
 30
0.0
 10
-178.8158
 20
-64.3331
 30
0.0
  0
SPLINE
  5
81
330
1F
100
AcDbEntity
  8
layer 1
 62
     7
100
AcDbSpline
210
0.0
220
0.0
230
1.0
 70
    11
 71
     3
 72
    24
 73
    20
 74
     0
 42
0.0000000001
 43
0.0000000001
 12
1.0
 22
0.0
 32
0.0
 13
1.0
 23
0.0
 33
0.0
 40
0.0
 40
0.0
 40
0.0
 40
0.0
 40
0.1666666666666667
 40
0.1666666666666667
 40
0.1666666666666667
 40
0.1666666666666667
 40
0.3333333333333333
 40
0.3333333333333333
 40
0.3333333333333333
 40
0.3333333333333333
 40
0.5
 40
0.5
 40
0.5
 40
0.5
 40
0.6666666666666666
 40
0.6666666666666666
 40
0.6666666666666666
 40
0.6666666666666666
 40
1.0
 40
1.0
 40
1.0
 40
1.0
 10
-178.8158
 20
45.4399
 30
0.0
 10
-178.8158
 20
45.4399
 30
0.0
 10
-178.8158
 20
49.9645
 30
0.0
 10
-178.8158
 20
49.9645
 30
0.0
 10
-178.8158
 20
49.9645
 30
0.0
 10
-177.8024
 20
48.2904
 30
0.0
 10
-173.669
 20
46.9538
 30
0.0
 10
-171.9807
 20
47.3452
 30
0.0
 10
-171.9807
 20
47.3452
 30
0.0
 10
-171.2873
 20
47.1291
 30
0.0
 10
-170.4839
 20
46.029
 30
0.0
 10
-170.3444
 20
45.6059
 30
0.0
 10
-170.3444
 20
45.6059
 30
0.0
 10
-170.6736
 20
45.2502
 30
0.0
 10
-171.7136
 20
45.0991
 30
0.0
 10
-171.8115
 20
45.2592
 30
0.0
 10
-171.8115
 20
45.2592
 30
0.0
 10
-173.2633
 20
47.6032
 30
0.0
 10
-177.6841
 20
47.698
 30
0.0
 10
-178.8158
 20
45.4399
 30
0.0
  0
SPLINE
  5
82
330
1F
100
AcDbEntity
  8
layer 1
 62
     7
100
AcDbSpline
210
0.0
220
0.0
230
1.0
 70
    11
 71
     3
 72
    36
 73
    32
 74
     0
 42
0.0000000001
 43
0.0000000001
 12
1.0
 22
0.0
 32
0.0
 13
1.0
 23
0.0
 33
0.0
 40
0.0
 40
0.0
 40
0.0
 40
0.0
 40
0.1111111111111111
 40
0.1111111111111111
 40
0.1111111111111111
 40
0.1111111111111111
 40
0.2222222222222222
 40
0.2222222222222222
 40
0.2222222222222222
 40
0.2222222222222222
 40
0.3333333333333333
 40
0.3333333333333333
 40
0.3333333333333333
 40
0.3333333333333333
 40
0.4444444444444444
 40
0.4444444444444444
 40
0.4444444444444444
 40
0.4444444444444444
 40
0.5555555555555556
 40
0.5555555555555556
 40
0.5555555555555556
 40
0.5555555555555556
 40
0.6666666666666666
 40
0.6666666666666666
 40
0.6666666666666666
 40
0.6666666666666666
 40
0.7777777777777778
 40
0.7777777777777778
 40
0.7777777777777778
 40
0.7777777777777778
 40
1.0
 40
1.0
 40
1.0
 40
1.0
 10
-178.8158
 20
37.5465
 30
0.0
 10
-178.8158
 20
37.5465
 30
0.0
 10
-178.8158
 20
41.1463
 30
0.0
 10
-178.8158
 20
41.1463
 30
0.0
 10
-178.8158
 20
41.1463
 30
0.0
 10
-178.3956
 20
38.0971
 30
0.0
 10
-172.6526
 20
35.3982
 30
0.0
 10
-170.0335
 20
40.139
 30
0.0
 10
-170.0335
 20
40.139
 30
0.0
 10
-169.3432
 20
39.9229
 30
0.0
 10
-168.6264
 20
40.598
 30
0.0
 10
-168.4868
 20
40.1716
 30
0.0
 10
-168.4868
 20
40.1716
 30
0.0
 10
-168.0718
 20
38.7873
 30
0.0
 10
-167.5833
 20
37.8991
 30
0.0
 10
-166.4661
 20
37.0805
 30
0.0
 10
-166.4661
 20
37.0805
 30
0.0
 10
-167.977
 20
36.8674
 30
0.0
 10
-170.5962
 20
31.4566
 30
0.0
 10
-165.5625
 20
28.974
 30
0.0
 10
-165.5625
 20
28.974
 30
0.0
 10
-164.4573
 20
28.4287
 30
0.0
 10
-159.9591
 20
29.0454
 30
0.0
 10
-159.7817
 20
32.9003
 30
0.0
 10
-159.7817
 20
32.9003
 30
0.0
 10
-156.6966
 20
28.2625
 30
0.0
 10
-158.747
 20
27.039
 30
0.0
 10
-156.2999
 20
21.5599
 30
0.0
 10
-156.2999
 20
21.5599
 30
0.0
 10
-163.1922
 20
26.6157
 30
0.0
 10
-175.8977
 20
33.454
 30
0.0
 10
-178.8158
 20
37.5465
 30
0.0
  0
SPLINE
  5
83
330
1F
100
AcDbEntity
  8
layer 1
 62
     7
100
AcDbSpline
210
0.0
220
0.0
230
1.0
 70
    11
 71
     3
 72
    20
 73
    16
 74
     0
 42
0.0000000001
 43
0.0000000001
 12
1.0
 22
0.0
 32
0.0
 13
1.0
 23
0.0
 33
0.0
 40
0.0
 40
0.0
 40
0.0
 40
0.0
 40
0.2
 40
0.2
 40
0.2
 40
0.2
 40
0.4
 40
0.4
 40
0.4
 40
0.4
 40
0.6
 40
0.6
 40
0.6
 40
0.6
 40
1.0
 40
1.0
 40
1.0
 40
1.0
 10
-146.0565
 20
5.1951
 30
0.0
 10
-142.3973
 20
4.8425
 30
0.0
 10
-140.661
 20
4.57
 30
0.0
 10
-138.4028
 20
3.1416
 30
0.0
 10
-138.4028
 20
3.1416
 30
0.0
 10
-140.3023
 20
5.4471
 30
0.0
 10
-141.4757
 20
9.8533
 30
0.0
 10
-141.7716
 20
12.4256
 30
0.0
 10
-141.7716
 20
12.4256
 30
0.0
 10
-143.7954
 20
12.6002
 30
0.0
 10
-146.335
 20
13.3646
 30
0.0
 10
-148.8002
 20
13.8327
 30
0.0
 10
-148.8002
 20
13.8327
 30
0.0
 10
-146.7998
 20
10.3601
 30
0.0
 10
-146.599
 20
8.6503
 30
0.0
 10
-146.0565
 20
5.1951
 30
0.0
  0
SPLINE
  5
84
330
1F
100
AcDbEntity
  8
layer 1
 62
     7
100
AcDbSpline
210
0.0
220
0.0
230
1.0
 70
    11
 71
     3
 72
    16
 73
    12
 74
     0
 42
0.0000000001
 43
0.0000000001
 12
1.0
 22
0.0
 32
0.0
 13
1.0
 23
0.0
 33
0.0
 40
0.0
 40
0.0
 40
0.0
 40
0.0
 40
0.25
 40
0.25
 40
0.25
 40
0.25
 40
0.5
 40
0.5
 40
0.5
 40
0.5
 40
1.0
 40
1.0
 40
1.0
 40
1.0
 10
-141.861
 20
16.188
 30
0.0
 10
-142.0978
 20
17.9219
 30
0.0
 10
-141.8133
 20
19.6552
 30
0.0
 10
-140.8059
 20
21.3294
 30
0.0
 10
-140.8059
 20
21.3294
 30
0.0
 10
-145.5794
 20
19.5454
 30
0.0
 10
-146.7233
 20
22.9474
 30
0.0
 10
-146.4001
 20
25.842
 30
0.0
 10
-146.4001
 20
25.842
 30
0.0
 10
-150.2316
 20
24.7725
 30
0.0
 10
-148.9247
 20
17.0148
 30
0.0
 10
-141.861
 20
16.188
 30
0.0
  0
SPLINE
  5
85
330
1F
100
AcDbEntity
  8
layer 1
 62
     7
100
AcDbSpline
210
0.0
220
0.0
230
1.0
 70
    11
 71
     3
 72
    16
 73
    12
 74
     0
 42
0.0000000001
 43
0.0000000001
 12
1.0
 22
0.0
 32
0.0
 13
1.0
 23
0.0
 33
0.0
 40
0.0
 40
0.0
 40
0.0
 40
0.0
 40
0.25
 40
0.25
 40
0.25
 40
0.25
 40
0.5
 40
0.5
 40
0.5
 40
0.5
 40
1.0
 40
1.0
 40
1.0
 40
1.0
 10
-145.8548
 20
1.1361
 30
0.0
 10
-145.7303
 20
-0.71
 30
0.0
 10
-145.8995
 20
-2.2152
 30
0.0
 10
-146.9099
 20
-4.0022
 30
0.0
 10
-146.9099
 20
-4.0022
 30
0.0
 10
-142.1365
 20
-2.2212
 30
0.0
 10
-140.9895
 20
-5.6224
 30
0.0
 10
-141.3157
 20
-8.5179
 30
0.0
 10
-141.3157
 20
-8.5179
 30
0.0
 10
-137.4843
 20
-7.4483
 30
0.0
 10
-138.7912
 20
0.3124
 30
0.0
 10
-145.8548
 20
1.1361
 30
0.0
  0
SPLINE
  5
86
330
1F
100
AcDbEntity
  8
layer 1
 62
     7
100
AcDbSpline
210
0.0
220
0.0
230
1.0
 70
    11
 71
     3
 72
    28
 73
    24
 74
     0
 42
0.0000000001
 43
0.0000000001
 12
1.0
 22
0.0
 32
0.0
 13
1.0
 23
0.0
 33
0.0
 40
0.0
 40
0.0
 40
0.0
 40
0.0
 40
0.1428571428571428
 40
0.1428571428571428
 40
0.1428571428571428
 40
0.1428571428571428
 40
0.2857142857142857
 40
0.2857142857142857
 40
0.2857142857142857
 40
0.2857142857142857
 40
0.4285714285714285
 40
0.4285714285714285
 40
0.4285714285714285
 40
0.4285714285714285
 40
0.5714285714285714
 40
0.5714285714285714
 40
0.5714285714285714
 40
0.5714285714285714
 40
0.7142857142857143
 40
0.7142857142857143
 40
0.7142857142857143
 40
0.7142857142857143
 40
1.0
 40
1.0
 40
1.0
 40
1.0
 10
-119.842
 20
-1.2228
 30
0.0
 10
-121.3947
 20
-3.0389
 30
0.0
 10
-122.2929
 20
-4.6333
 30
0.0
 10
-121.8811
 20
-6.6654
 30
0.0
 10
-121.8811
 20
-6.6654
 30
0.0
 10
-123.8275
 20
-5.6172
 30
0.0
 10
-130.0293
 20
-2.1468
 30
0.0
 10
-133.0217
 20
1.6868
 30
0.0
 10
-133.0217
 20
1.6868
 30
0.0
 10
-136.9684
 20
6.745
 30
0.0
 10
-137.8786
 20
8.6412
 30
0.0
 10
-138.1358
 20
12.2239
 30
0.0
 10
-138.1358
 20
12.2239
 30
0.0
 10
-136.4679
 20
12.443
 30
0.0
 10
-135.6084
 20
12.6623
 30
0.0
 10
-134.1747
 20
13.1659
 30
0.0
 10
-134.1747
 20
13.1659
 30
0.0
 10
-135.4543
 20
8.7808
 30
0.0
 10
-134.5654
 20
5.0267
 30
0.0
 10
-132.3762
 20
2.6411
 30
0.0
 10
-132.3762
 20
2.6411
 30
0.0
 10
-128.9211
 20
-1.116
 30
0.0
 10
-122.6569
 20
-2.0612
 30
0.0
 10
-119.842
 20
-1.2228
 30
0.0
  0
SPLINE
  5
87
330
1F
100
AcDbEntity
  8
layer 1
 62
     7
100
AcDbSpline
210
0.0
220
0.0
230
1.0
 70
    11
 71
     3
 72
    36
 73
    32
 74
     0
 42
0.0000000001
 43
0.0000000001
 12
1.0
 22
0.0
 32
0.0
 13
1.0
 23
0.0
 33
0.0
 40
0.0
 40
0.0
 40
0.0
 40
0.0
 40
0.1111111111111111
 40
0.1111111111111111
 40
0.1111111111111111
 40
0.1111111111111111
 40
0.2222222222222222
 40
0.2222222222222222
 40
0.2222222222222222
 40
0.2222222222222222
 40
0.3333333333333333
 40
0.3333333333333333
 40
0.3333333333333333
 40
0.3333333333333333
 40
0.4444444444444444
 40
0.4444444444444444
 40
0.4444444444444444
 40
0.4444444444444444
 40
0.5555555555555556
 40
0.5555555555555556
 40
0.5555555555555556
 40
0.5555555555555556
 40
0.6666666666666666
 40
0.6666666666666666
 40
0.6666666666666666
 40
0.6666666666666666
 40
0.7777777777777778
 40
0.7777777777777778
 40
0.7777777777777778
 40
0.7777777777777778
 40
1.0
 40
1.0
 40
1.0
 40
1.0
 10
-108.369
 20
-20.4324
 30
0.0
 10
-108.369
 20
-20.4324
 30
0.0
 10
-108.369
 20
-24.8979
 30
0.0
 10
-108.369
 20
-24.8979
 30
0.0
 10
-108.369
 20
-24.8979
 30
0.0
 10
-107.1575
 20
-20.791
 30
0.0
 10
-115.4894
 20
-17.5165
 30
0.0
 10
-116.5712
 20
-23.0281
 30
0.0
 10
-116.5712
 20
-23.0281
 30
0.0
 10
-117.2614
 20
-22.8118
 30
0.0
 10
-118.5592
 20
-23.4839
 30
0.0
 10
-118.6951
 20
-23.0608
 30
0.0
 10
-118.6951
 20
-23.0608
 30
0.0
 10
-118.5358
 20
-21.4845
 30
0.0
 10
-118.9265
 20
-20.3079
 30
0.0
 10
-120.7165
 20
-19.9673
 30
0.0
 10
-120.7165
 20
-19.9673
 30
0.0
 10
-119.2049
 20
-19.7563
 30
0.0
 10
-116.5856
 20
-14.3434
 30
0.0
 10
-121.6201
 20
-11.8599
 30
0.0
 10
-121.6201
 20
-11.8599
 30
0.0
 10
-122.7253
 20
-11.3176
 30
0.0
 10
-127.2235
 20
-11.9313
 30
0.0
 10
-127.4009
 20
-15.7892
 30
0.0
 10
-127.4009
 20
-15.7892
 30
0.0
 10
-130.4851
 20
-11.1493
 30
0.0
 10
-128.4349
 20
-9.9249
 30
0.0
 10
-130.8827
 20
-4.4467
 30
0.0
 10
-130.8827
 20
-4.4467
 30
0.0
 10
-123.9904
 20
-9.5016
 30
0.0
 10
-111.765
 20
-15.2856
 30
0.0
 10
-108.369
 20
-20.4324
 30
0.0
  0
SPLINE
  5
88
330
1F
100
AcDbEntity
  8
layer 1
 62
     7
100
AcDbSpline
210
0.0
220
0.0
230
1.0
 70
    11
 71
     3
 72
    20
 73
    16
 74
     0
 42
0.0000000001
 43
0.0000000001
 12
1.0
 22
0.0
 32
0.0
 13
1.0
 23
0.0
 33
0.0
 40
0.0
 40
0.0
 40
0.0
 40
0.0
 40
0.2
 40
0.2
 40
0.2
 40
0.2
 40
0.4
 40
0.4
 40
0.4
 40
0.4
 40
0.6
 40
0.6
 40
0.6
 40
0.6
 40
1.0
 40
1.0
 40
1.0
 40
1.0
 10
-176.9459
 20
-26.5273
 30
0.0
 10
-176.7982
 20
-29.0517
 30
0.0
 10
-176.9165
 20
-31.8461
 30
0.0
 10
-178.8158
 20
-32.148
 30
0.0
 10
-178.8158
 20
-32.148
 30
0.0
 10
-178.8158
 20
-32.148
 30
0.0
 10
-178.8158
 20
-35.4227
 30
0.0
 10
-178.8158
 20
-35.4227
 30
0.0
 10
-178.8158
 20
-35.4227
 30
0.0
 10
-177.1835
 20
-33.9587
 30
0.0
 10
-172.718
 20
-31.9229
 30
0.0
 10
-171.7962
 20
-31.8341
 30
0.0
 10
-171.7962
 20
-31.8341
 30
0.0
 10
-172.6169
 20
-30.0528
 30
0.0
 10
-173.7314
 20
-27.1584
 30
0.0
 10
-176.9459
 20
-26.5273
 30
0.0
  0
SPLINE
  5
89
330
1F
100
AcDbEntity
  8
layer 1
 62
     7
100
AcDbSpline
210
0.0
220
0.0
230
1.0
 70
    11
 71
     3
 72
    32
 73
    28
 74
     0
 42
0.0000000001
 43
0.0000000001
 12
1.0
 22
0.0
 32
0.0
 13
1.0
 23
0.0
 33
0.0
 40
0.0
 40
0.0
 40
0.0
 40
0.0
 40
0.125
 40
0.125
 40
0.125
 40
0.125
 40
0.25
 40
0.25
 40
0.25
 40
0.25
 40
0.375
 40
0.375
 40
0.375
 40
0.375
 40
0.5
 40
0.5
 40
0.5
 40
0.5
 40
0.625
 40
0.625
 40
0.625
 40
0.625
 40
0.75
 40
0.75
 40
0.75
 40
0.75
 40
1.0
 40
1.0
 40
1.0
 40
1.0
 10
-178.8158
 20
-12.4054
 30
0.0
 10
-178.8158
 20
-12.4054
 30
0.0
 10
-178.8158
 20
-22.5357
 30
0.0
 10
-178.8158
 20
-22.5357
 30
0.0
 10
-178.8158
 20
-22.5357
 30
0.0
 10
-175.589
 20
-22.1269
 30
0.0
 10
-170.1844
 20
-26.0653
 30
0.0
 10
-169.6602
 20
-30.3556
 30
0.0
 10
-169.6602
 20
-30.3556
 30
0.0
 10
-169.3787
 20
-30.3169
 30
0.0
 10
-167.5977
 20
-30.0978
 30
0.0
 10
-166.0837
 20
-30.1986
 30
0.0
 10
-166.0837
 20
-30.1986
 30
0.0
 10
-168.2555
 20
-27.5437
 30
0.0
 10
-169.3727
 20
-23.4756
 30
0.0
 10
-170.0335
 20
-21.1316
 30
0.0
 10
-170.0335
 20
-21.1316
 30
0.0
 10
-170.4218
 20
-23.2889
 30
0.0
 10
-173.9421
 20
-23.493
 30
0.0
 10
-175.077
 20
-22.2665
 30
0.0
 10
-175.077
 20
-22.2665
 30
0.0
 10
-177.4323
 20
-19.7239
 30
0.0
 10
-174.9222
 20
-16.0797
 30
0.0
 10
-172.108
 20
-16.7314
 30
0.0
 10
-172.108
 20
-16.7314
 30
0.0
 10
-176.3241
 20
-15.6527
 30
0.0
 10
-177.9686
 20
-13.7474
 30
0.0
 10
-178.8158
 20
-12.4054
 30
0.0
  0
SPLINE
  5
8A
330
1F
100
AcDbEntity
  8
layer 1
 62
     7
100
AcDbSpline
210
0.0
220
0.0
230
1.0
 70
    11
 71
     3
 72
    40
 73
    36
 74
     0
 42
0.0000000001
 43
0.0000000001
 12
1.0
 22
0.0
 32
0.0
 13
1.0
 23
0.0
 33
0.0
 40
0.0
 40
0.0
 40
0.0
 40
0.0
 40
0.1
 40
0.1
 40
0.1
 40
0.1
 40
0.2
 40
0.2
 40
0.2
 40
0.2
 40
0.3
 40
0.3
 40
0.3
 40
0.3
 40
0.4
 40
0.4
 40
0.4
 40
0.4
 40
0.5
 40
0.5
 40
0.5
 40
0.5
 40
0.6
 40
0.6
 40
0.6
 40
0.6
 40
0.7
 40
0.7
 40
0.7
 40
0.7
 40
0.8
 40
0.8
 40
0.8
 40
0.8
 40
1.0
 40
1.0
 40
1.0
 40
1.0
 10
-118.6807
 20
-31.0641
 30
0.0
 10
-120.3048
 20
-30.4596
 30
0.0
 10
-122.3634
 20
-29.0313
 30
0.0
 10
-121.768
 20
-25.529
 30
0.0
 10
-121.768
 20
-25.529
 30
0.0
 10
-122.1737
 20
-25.6116
 30
0.0
 10
-122.4498
 20
-25.5464
 30
0.0
 10
-122.8648
 20
-25.6709
 30
0.0
 10
-122.8648
 20
-25.6709
 30
0.0
 10
-121.6231
 20
-29.7092
 30
0.0
 10
-125.8807
 20
-31.7687
 30
0.0
 10
-128.7375
 20
-29.0282
 30
0.0
 10
-128.7375
 20
-29.0282
 30
0.0
 10
-129.8958
 20
-33.3717
 30
0.0
 10
-128.3756
 20
-38.0449
 30
0.0
 10
-121.0034
 20
-44.8658
 30
0.0
 10
-121.0034
 20
-44.8658
 30
0.0
 10
-117.4747
 20
-48.1337
 30
0.0
 10
-107.5012
 20
-45.6896
 30
0.0
 10
-109.9513
 20
-37.3601
 30
0.0
 10
-109.9513
 20
-37.3601
 30
0.0
 10
-111.5306
 20
-32.5507
 30
0.0
 10
-117.0156
 20
-32.6905
 30
0.0
 10
-118.0731
 20
-34.7263
 30
0.0
 10
-118.0731
 20
-34.7263
 30
0.0
 10
-111.2401
 20
-34.0352
 30
0.0
 10
-112.1026
 20
-41.1589
 30
0.0
 10
-115.2733
 20
-42.7085
 30
0.0
 10
-115.2733
 20
-42.7085
 30
0.0
 10
-119.1639
 20
-44.614
 30
0.0
 10
-121.6914
 20
-41.645
 30
0.0
 10
-121.7239
 20
-41.3068
 30
0.0
 10
-121.7239
 20
-41.3068
 30
0.0
 10
-125.1488
 20
-35.3036
 30
0.0
 10
-120.42
 20
-31.633
 30
0.0
 10
-118.6807
 20
-31.0641
 30
0.0
  0
SPLINE
  5
8B
330
1F
100
AcDbEntity
  8
layer 1
 62
     7
100
AcDbSpline
210
0.0
220
0.0
230
1.0
 70
    11
 71
     3
 72
    24
 73
    20
 74
     0
 42
0.0000000001
 43
0.0000000001
 12
1.0
 22
0.0
 32
0.0
 13
1.0
 23
0.0
 33
0.0
 40
0.0
 40
0.0
 40
0.0
 40
0.0
 40
0.1666666666666667
 40
0.1666666666666667
 40
0.1666666666666667
 40
0.1666666666666667
 40
0.3333333333333333
 40
0.3333333333333333
 40
0.3333333333333333
 40
0.3333333333333333
 40
0.5
 40
0.5
 40
0.5
 40
0.5
 40
0.6666666666666666
 40
0.6666666666666666
 40
0.6666666666666666
 40
0.6666666666666666
 40
1.0
 40
1.0
 40
1.0
 40
1.0
 10
-108.369
 20
-28.4296
 30
0.0
 10
-108.369
 20
-28.4296
 30
0.0
 10
-108.369
 20
-32.9543
 30
0.0
 10
-108.369
 20
-32.9543
 30
0.0
 10
-108.369
 20
-32.9543
 30
0.0
 10
-109.3794
 20
-31.2802
 30
0.0
 10
-113.5127
 20
-29.9438
 30
0.0
 10
-115.2051
 20
-30.3351
 30
0.0
 10
-115.2051
 20
-30.3351
 30
0.0
 10
-115.8953
 20
-30.1212
 30
0.0
 10
-116.6987
 20
-29.022
 30
0.0
 10
-116.8373
 20
-28.5958
 30
0.0
 10
-116.8373
 20
-28.5958
 30
0.0
 10
-116.509
 20
-28.24
 30
0.0
 10
-115.4834
 20
-28.0974
 30
0.0
 10
-115.3711
 20
-28.2492
 30
0.0
 10
-115.3711
 20
-28.2492
 30
0.0
 10
-114.2089
 20
-29.8253
 30
0.0
 10
-109.4978
 20
-30.6871
 30
0.0
 10
-108.369
 20
-28.4296
 30
0.0
  0
SPLINE
  5
8C
330
1F
100
AcDbEntity
  8
layer 1
 62
     7
100
AcDbSpline
210
0.0
220
0.0
230
1.0
 70
    11
 71
     3
 72
    52
 73
    48
 74
     0
 42
0.0000000001
 43
0.0000000001
 12
1.0
 22
0.0
 32
0.0
 13
1.0
 23
0.0
 33
0.0
 40
0.0
 40
0.0
 40
0.0
 40
0.0
 40
0.0769230769230769
 40
0.0769230769230769
 40
0.0769230769230769
 40
0.0769230769230769
 40
0.1538461538461539
 40
0.1538461538461539
 40
0.1538461538461539
 40
0.1538461538461539
 40
0.2307692307692308
 40
0.2307692307692308
 40
0.2307692307692308
 40
0.2307692307692308
 40
0.3076923076923077
 40
0.3076923076923077
 40
0.3076923076923077
 40
0.3076923076923077
 40
0.3846153846153846
 40
0.3846153846153846
 40
0.3846153846153846
 40
0.3846153846153846
 40
0.4615384615384616
 40
0.4615384615384616
 40
0.4615384615384616
 40
0.4615384615384616
 40
0.5384615384615384
 40
0.5384615384615384
 40
0.5384615384615384
 40
0.5384615384615384
 40
0.6153846153846154
 40
0.6153846153846154
 40
0.6153846153846154
 40
0.6153846153846154
 40
0.6923076923076923
 40
0.6923076923076923
 40
0.6923076923076923
 40
0.6923076923076923
 40
0.7692307692307693
 40
0.7692307692307693
 40
0.7692307692307693
 40
0.7692307692307693
 40
0.8461538461538461
 40
0.8461538461538461
 40
0.8461538461538461
 40
0.8461538461538461
 40
1.0
 40
1.0
 40
1.0
 40
1.0
 10
-108.369
 20
11.7375
 30
0.0
 10
-108.369
 20
11.7375
 30
0.0
 10
-108.369
 20
22.7902
 30
0.0
 10
-108.369
 20
22.7902
 30
0.0
 10
-108.369
 20
22.7902
 30
0.0
 10
-109.9603
 20
26.7249
 30
0.0
 10
-113.3534
 20
29.9934
 30
0.0
 10
-120.2069
 20
31.1904
 30
0.0
 10
-120.2069
 20
31.1904
 30
0.0
 10
-120.0581
 20
30.5207
 30
0.0
 10
-120.0704
 20
29.1075
 30
0.0
 10
-120.2925
 20
28.3868
 30
0.0
 10
-120.2925
 20
28.3868
 30
0.0
 10
-112.3664
 20
26.3905
 30
0.0
 10
-111.19
 20
20.8727
 30
0.0
 10
-110.3072
 20
16.612
 30
0.0
 10
-110.3072
 20
16.612
 30
0.0
 10
-112.4135
 20
18.0996
 30
0.0
 10
-120.5649
 20
14.9613
 30
0.0
 10
-122.7874
 20
22.4877
 30
0.0
 10
-122.7874
 20
22.4877
 30
0.0
 10
-123.8212
 20
21.0299
 30
0.0
 10
-124.8234
 20
18.8581
 30
0.0
 10
-126.2783
 20
17.9456
 30
0.0
 10
-126.2783
 20
17.9456
 30
0.0
 10
-120.4321
 20
17.7173
 30
0.0
 10
-115.4956
 20
10.5702
 30
0.0
 10
-121.7383
 20
5.5335
 30
0.0
 10
-121.7383
 20
5.5335
 30
0.0
 10
-124.8583
 20
3.0795
 30
0.0
 10
-133.395
 20
5.4295
 30
0.0
 10
-128.654
 20
13.9509
 30
0.0
 10
-128.654
 20
13.9509
 30
0.0
 10
-136.3464
 20
7.8235
 30
0.0
 10
-125.9316
 20
-3.0776
 30
0.0
 10
-115.1724
 20
4.3303
 30
0.0
 10
-115.1724
 20
4.3303
 30
0.0
 10
-118.3158
 20
5.1951
 30
0.0
 10
-118.648
 20
8.7126
 30
0.0
 10
-116.9087
 20
10.9138
 30
0.0
 10
-116.9087
 20
10.9138
 30
0.0
 10
-115.1785
 20
13.1008
 30
0.0
 10
-111.7263
 20
12.4013
 30
0.0
 10
-110.7129
 20
8.887
 30
0.0
 10
-110.7129
 20
8.887
 30
0.0
 10
-110.1614
 20
10.1819
 30
0.0
 10
-109.2344
 20
10.4876
 30
0.0
 10
-108.369
 20
11.7375
 30
0.0
  0
SPLINE
  5
8D
330
1F
100
AcDbEntity
  8
layer 1
 62
     7
100
AcDbSpline
210
0.0
220
0.0
230
1.0
 70
    11
 71
     3
 72
    52
 73
    48
 74
     0
 42
0.0000000001
 43
0.0000000001
 12
1.0
 22
0.0
 32
0.0
 13
1.0
 23
0.0
 33
0.0
 40
0.0
 40
0.0
 40
0.0
 40
0.0
 40
0.0769230769230769
 40
0.0769230769230769
 40
0.0769230769230769
 40
0.0769230769230769
 40
0.1538461538461539
 40
0.1538461538461539
 40
0.1538461538461539
 40
0.1538461538461539
 40
0.2307692307692308
 40
0.2307692307692308
 40
0.2307692307692308
 40
0.2307692307692308
 40
0.3076923076923077
 40
0.3076923076923077
 40
0.3076923076923077
 40
0.3076923076923077
 40
0.3846153846153846
 40
0.3846153846153846
 40
0.3846153846153846
 40
0.3846153846153846
 40
0.4615384615384616
 40
0.4615384615384616
 40
0.4615384615384616
 40
0.4615384615384616
 40
0.5384615384615384
 40
0.5384615384615384
 40
0.5384615384615384
 40
0.5384615384615384
 40
0.6153846153846154
 40
0.6153846153846154
 40
0.6153846153846154
 40
0.6153846153846154
 40
0.6923076923076923
 40
0.6923076923076923
 40
0.6923076923076923
 40
0.6923076923076923
 40
0.7692307692307693
 40
0.7692307692307693
 40
0.7692307692307693
 40
0.7692307692307693
 40
0.8461538461538461
 40
0.8461538461538461
 40
0.8461538461538461
 40
0.8461538461538461
 40
1.0
 40
1.0
 40
1.0
 40
1.0
 10
-178.8158
 20
5.3112
 30
0.0
 10
-178.8158
 20
5.3112
 30
0.0
 10
-178.8158
 20
-5.7415
 30
0.0
 10
-178.8158
 20
-5.7415
 30
0.0
 10
-178.8158
 20
-5.7415
 30
0.0
 10
-177.2223
 20
-9.6762
 30
0.0
 10
-174.0159
 20
-12.9447
 30
0.0
 10
-167.1623
 20
-14.1417
 30
0.0
 10
-167.1623
 20
-14.1417
 30
0.0
 10
-167.3102
 20
-13.4719
 30
0.0
 10
-167.1122
 20
-12.0588
 30
0.0
 10
-166.8901
 20
-11.3389
 30
0.0
 10
-166.8901
 20
-11.3389
 30
0.0
 10
-174.816
 20
-9.3416
 30
0.0
 10
-175.9925
 20
-3.824
 30
0.0
 10
-176.8754
 20
0.4367
 30
0.0
 10
-176.8754
 20
0.4367
 30
0.0
 10
-174.7682
 20
-1.0506
 30
0.0
 10
-166.617
 20
2.0874
 30
0.0
 10
-164.3952
 20
-5.439
 30
0.0
 10
-164.3952
 20
-5.439
 30
0.0
 10
-163.3635
 20
-3.9809
 30
0.0
 10
-162.3592
 20
-1.8092
 30
0.0
 10
-160.9043
 20
-0.8967
 30
0.0
 10
-160.9043
 20
-0.8967
 30
0.0
 10
-166.7505
 20
-0.6683
 30
0.0
 10
-171.687
 20
6.4785
 30
0.0
 10
-165.4434
 20
11.5154
 30
0.0
 10
-165.4434
 20
11.5154
 30
0.0
 10
-162.3235
 20
13.9692
 30
0.0
 10
-153.7869
 20
11.6193
 30
0.0
 10
-158.5309
 20
3.0978
 30
0.0
 10
-158.5309
 20
3.0978
 30
0.0
 10
-150.8362
 20
9.2252
 30
0.0
 10
-161.254
 20
20.1263
 30
0.0
 10
-172.0101
 20
12.7184
 30
0.0
 10
-172.0101
 20
12.7184
 30
0.0
 10
-168.8661
 20
11.8566
 30
0.0
 10
-168.5346
 20
8.3363
 30
0.0
 10
-170.2739
 20
6.1349
 30
0.0
 10
-170.2739
 20
6.1349
 30
0.0
 10
-172.0041
 20
3.948
 30
0.0
 10
-175.4563
 20
4.6474
 30
0.0
 10
-176.472
 20
8.1611
 30
0.0
 10
-176.472
 20
8.1611
 30
0.0
 10
-177.0203
 20
6.8662
 30
0.0
 10
-177.9482
 20
6.5613
 30
0.0
 10
-178.8158
 20
5.3112
 30
0.0
  0
SPLINE
  5
8E
330
1F
100
AcDbEntity
  8
layer 1
 62
     7
100
AcDbSpline
210
0.0
220
0.0
230
1.0
 70
    11
 71
     3
 72
    28
 73
    24
 74
     0
 42
0.0000000001
 43
0.0000000001
 12
1.0
 22
0.0
 32
0.0
 13
1.0
 23
0.0
 33
0.0
 40
0.0
 40
0.0
 40
0.0
 40
0.0
 40
0.1428571428571428
 40
0.1428571428571428
 40
0.1428571428571428
 40
0.1428571428571428
 40
0.2857142857142857
 40
0.2857142857142857
 40
0.2857142857142857
 40
0.2857142857142857
 40
0.4285714285714285
 40
0.4285714285714285
 40
0.4285714285714285
 40
0.4285714285714285
 40
0.5714285714285714
 40
0.5714285714285714
 40
0.5714285714285714
 40
0.5714285714285714
 40
0.7142857142857143
 40
0.7142857142857143
 40
0.7142857142857143
 40
0.7142857142857143
 40
1.0
 40
1.0
 40
1.0
 40
1.0
 10
-167.9953
 20
18.2862
 30
0.0
 10
-166.4424
 20
20.0999
 30
0.0
 10
-165.5475
 20
21.6964
 30
0.0
 10
-165.9593
 20
23.7294
 30
0.0
 10
-165.9593
 20
23.7294
 30
0.0
 10
-164.0099
 20
22.6804
 30
0.0
 10
-157.808
 20
19.2108
 30
0.0
 10
-154.8186
 20
15.3763
 30
0.0
 10
-154.8186
 20
15.3763
 30
0.0
 10
-150.871
 20
10.3184
 30
0.0
 10
-149.9615
 20
8.4219
 30
0.0
 10
-149.7037
 20
4.8401
 30
0.0
 10
-149.7037
 20
4.8401
 30
0.0
 10
-151.3695
 20
4.6201
 30
0.0
 10
-152.2289
 20
4.401
 30
0.0
 10
-153.6654
 20
3.8972
 30
0.0
 10
-153.6654
 20
3.8972
 30
0.0
 10
-152.3859
 20
8.2832
 30
0.0
 10
-153.272
 20
12.0373
 30
0.0
 10
-155.4641
 20
14.4221
 30
0.0
 10
-155.4641
 20
14.4221
 30
0.0
 10
-158.9193
 20
18.1791
 30
0.0
 10
-165.1802
 20
19.125
 30
0.0
 10
-167.9953
 20
18.2862
 30
0.0
  0
ENDSEC
  0
SECTION
  2
OBJECTS
  0
DICTIONARY
  5
C
330
0
100
AcDbDictionary
281
     1
  3
ACAD_GROUP
350
D
  3
ACAD_LAYOUT
350
1A
  3
ACAD_MATERIAL
350
3B
  3
ACAD_MLEADERSTYLE
350
B0
  3
ACAD_MLINESTYLE
350
17
  3
ACAD_PLOTSETTINGS
350
19
  3
ACAD_PLOTSTYLENAME
350
E
  3
ACAD_TABLESTYLE
350
AF
  3
ACAD_VISUALSTYLE
350
2A
  0
DICTIONARY
  5
D
102
{ACAD_REACTORS
330
C
102
}
330
C
100
AcDbDictionary
281
     1
  0
DICTIONARY
  5
1A
102
{ACAD_REACTORS
330
C
102
}
330
C
100
AcDbDictionary
281
     1
  3
Layout1
350
1E
  3
Layout2
350
26
  3
Model
350
22
  0
DICTIONARY
  5
3B
102
{ACAD_REACTORS
330
C
102
}
330
C
100
AcDbDictionary
281
     1
  3
ByBlock
350
3D
  3
ByLayer
350
3C
  3
Global
350
3E
  0
DICTIONARY
  5
B0
102
{ACAD_REACTORS
330
C
102
}
330
C
100
AcDbDictionary
281
     1
  0
DICTIONARY
  5
17
102
{ACAD_REACTORS
330
C
102
}
330
C
100
AcDbDictionary
281
     1
  3
Standard
350
18
  0
DICTIONARY
  5
19
102
{ACAD_REACTORS
330
C
102
}
330
C
100
AcDbDictionary
281
     1
  0
ACDBDICTIONARYWDFLT
  5
E
102
{ACAD_REACTORS
330
C
102
}
330
C
100
AcDbDictionary
281
     1
  3
Normal
350
F
100
AcDbDictionaryWithDefault
340
F
  0
DICTIONARY
  5
AF
102
{ACAD_REACTORS
330
C
102
}
330
C
100
AcDbDictionary
281
     1
  0
DICTIONARY
  5
2A
102
{ACAD_REACTORS
330
C
102
}
330
C
100
AcDbDictionary
281
     1
  3
2dWireframe
350
2F
  3
3D Hidden
350
31
  3
3dWireframe
350
30
  3
Basic
350
32
  3
Brighten
350
36
  3
ColorChange
350
3A
  3
Conceptual
350
34
  3
Dim
350
35
  3
Facepattern
350
39
  3
Flat
350
2B
  3
FlatWithEdges
350
2C
  3
Gouraud
350
2D
  3
GouraudWithEdges
350
2E
  3
Linepattern
350
38
  3
Realistic
350
33
  3
Thicken
350
37
  0
LAYOUT
  5
1E
102
{ACAD_REACTORS
330
1A
102
}
330
1A
100
AcDbPlotSettings
  1

  2
none_device
  4

  6

 40
0.0
 41
0.0
 42
0.0
 43
0.0
 44
0.0
 45
0.0
 46
0.0
 47
0.0
 48
0.0
 49
0.0
140
0.0
141
0.0
142
1.0
143
1.0
 70
   688
 72
     0
 73
     0
 74
     5
  7

 75
    16
 76
     0
 77
     2
 78
   300
147
1.0
148
0.0
149
0.0
100
AcDbLayout
  1
Layout1
 70
     1
 71
     1
 10
0.0
 20
0.0
 11
12.0
 21
9.0
 12
0.0
 22
0.0
 32
0.0
 14
1.000000000000000E+20
 24
1.000000000000000E+20
 34
1.000000000000000E+20
 15
-1.000000000000000E+20
 25
-1.000000000000000E+20
 35
-1.000000000000000E+20
146
0.0
 13
0.0
 23
0.0
 33
0.0
 16
1.0
 26
0.0
 36
0.0
 17
0.0
 27
1.0
 37
0.0
 76
     0
330
1B
  0
LAYOUT
  5
26
102
{ACAD_REACTORS
330
1A
102
}
330
1A
100
AcDbPlotSettings
  1

  2
none_device
  4

  6

 40
0.0
 41
0.0
 42
0.0
 43
0.0
 44
0.0
 45
0.0
 46
0.0
 47
0.0
 48
0.0
 49
0.0
140
0.0
141
0.0
142
1.0
143
1.0
 70
   688
 72
     0
 73
     0
 74
     5
  7

 75
    16
 76
     0
 77
     2
 78
   300
147
1.0
148
0.0
149
0.0
100
AcDbLayout
  1
Layout2
 70
     1
 71
     2
 10
0.0
 20
0.0
 11
0.0
 21
0.0
 12
0.0
 22
0.0
 32
0.0
 14
0.0
 24
0.0
 34
0.0
 15
0.0
 25
0.0
 35
0.0
146
0.0
 13
0.0
 23
0.0
 33
0.0
 16
1.0
 26
0.0
 36
0.0
 17
0.0
 27
1.0
 37
0.0
 76
     0
330
23
  0
LAYOUT
  5
22
102
{ACAD_REACTORS
330
1A
102
}
330
1A
100
AcDbPlotSettings
  1

  2
none_device
  4

  6

 40
0.0
 41
0.0
 42
0.0
 43
0.0
 44
0.0
 45
0.0
 46
0.0
 47
0.0
 48
0.0
 49
0.0
140
0.0
141
0.0
142
1.0
143
1.0
 70
  1712
 72
     0
 73
     0
 74
     0
  7

 75
     0
 76
     0
 77
     2
 78
   300
147
1.0
148
0.0
149
0.0
100
AcDbLayout
  1
Model
 70
     1
 71
     0
 10
0.0
 20
0.0
 11
12.0
 21
9.0
 12
0.0
 22
0.0
 32
0.0
 14
-187.2964
 24
-114.8264
 34
0.0
 15
-99.9423
 25
131.8842
 35
0.0
146
0.0
 13
0.0
 23
0.0
 33
0.0
 16
1.0
 26
0.0
 36
0.0
 17
0.0
 27
1.0
 37
0.0
 76
     0
330
1F
331
29
  0
MATERIAL
  5
3D
102
{ACAD_REACTORS
330
3B
102
}
330
3B
100
AcDbMaterial
  1
ByBlock
 72
     1
 94
      127
  0
MATERIAL
  5
3C
102
{ACAD_REACTORS
330
3B
102
}
330
3B
100
AcDbMaterial
  1
ByLayer
 72
     1
 94
      127
  0
MATERIAL
  5
3E
102
{ACAD_REACTORS
330
3B
102
}
330
3B
100
AcDbMaterial
  1
Global
 72
     1
 94
      127
  0
MLINESTYLE
  5
18
102
{ACAD_REACTORS
330
17
102
}
330
17
100
AcDbMlineStyle
  2
Standard
 70
     0
  3

 62
   256
 51
90.0
 52
90.0
 71
     2
 49
0.5
 62
   256
  6
BYLAYER
 49
-0.5
 62
   256
  6
BYLAYER
  0
ACDBPLACEHOLDER
  5
F
102
{ACAD_REACTORS
330
E
102
}
330
E
  0
VISUALSTYLE
  5
2F
102
{ACAD_REACTORS
330
2A
102
}
102
{ACAD_XDICTIONARY
360
97
102
}
330
2A
100
AcDbVisualStyle
  2
2dWireframe
 70
     4
 71
     0
 72
     2
 73
     0
 90
        0
 40
-0.6
 41
-30.0
 62
     5
 63
     7
421
 16777215
 74
     1
 91
        4
 64
     7
 65
   257
 75
     1
175
     1
 42
1.0
 92
        0
 66
   257
 43
1.0
 76
     1
 77
     6
 78
     2
 67
     7
 79
     5
170
     0
171
     0
290
     0
174
     0
 93
        1
 44
0.0
173
     0
291
     0
 45
0.0
  0
VISUALSTYLE
  5
31
102
{ACAD_REACTORS
330
2A
102
}
102
{ACAD_XDICTIONARY
360
9B
102
}
330
2A
100
AcDbVisualStyle
  2
3D Hidden
 70
     6
 71
     1
 72
     2
 73
     2
 90
        0
 40
-0.6
 41
-30.0
 62
     5
 63
     7
421
 16777215
 74
     2
 91
        2
 64
     7
 65
   257
 75
     2
175
     1
 42
40.0
 92
        0
 66
   257
 43
1.0
 76
     1
 77
     6
 78
     2
 67
     7
 79
     3
170
     0
171
     0
290
     0
174
     0
 93
        1
 44
0.0
173
     0
291
     0
 45
0.0
  0
VISUALSTYLE
  5
30
102
{ACAD_REACTORS
330
2A
102
}
102
{ACAD_XDICTIONARY
360
99
102
}
330
2A
100
AcDbVisualStyle
  2
3dWireframe
 70
     5
 71
     0
 72
     2
 73
     0
 90
        0
 40
-0.6
 41
-30.0
 62
     5
 63
     7
421
 16777215
 74
     1
 91
        4
 64
     7
 65
   257
 75
     1
175
     1
 42
1.0
 92
        0
 66
   257
 43
1.0
 76
     1
 77
     6
 78
     2
 67
     7
 79
     5
170
     0
171
     0
290
     0
174
     0
 93
        1
 44
0.0
173
     0
291
     0
 45
0.0
  0
VISUALSTYLE
  5
32
102
{ACAD_REACTORS
330
2A
102
}
102
{ACAD_XDICTIONARY
360
9D
102
}
330
2A
100
AcDbVisualStyle
  2
Basic
 70
     7
 71
     1
 72
     0
 73
     1
 90
        0
 40
-0.6
 41
-30.0
 62
     5
 63
     7
421
 16777215
 74
     0
 91
        4
 64
     7
 65
   257
 75
     1
175
     1
 42
1.0
 92
        8
 66
     7
 43
1.0
 76
     1
 77
     6
 78
     2
 67
     7
 79
     5
170
     0
171
     0
290
     0
174
     0
 93
        1
 44
0.0
173
     0
291
     1
 45
0.0
  0
VISUALSTYLE
  5
36
102
{ACAD_REACTORS
330
2A
102
}
102
{ACAD_XDICTIONARY
360
A5
102
}
330
2A
100
AcDbVisualStyle
  2
Brighten
 70
    12
 71
     2
 72
     2
 73
     0
 90
        0
 40
-0.6
 41
-30.0
 62
     5
 63
     7
421
 16777215
 74
     1
 91
        4
 64
     7
 65
   257
 75
     1
175
     1
 42
1.0
 92
        8
 66
     7
 43
1.0
 76
     1
 77
     6
 78
     2
 67
     7
 79
     5
170
     0
171
     0
290
     0
174
     0
 93
        1
 44
50.0
173
     0
291
     1
 45
0.0
  0
VISUALSTYLE
  5
3A
102
{ACAD_REACTORS
330
2A
102
}
102
{ACAD_XDICTIONARY
360
AD
102
}
330
2A
100
AcDbVisualStyle
  2
ColorChange
 70
    16
 71
     2
 72
     2
 73
     3
 90
        0
 40
-0.6
 41
-30.0
 62
     5
 63
     8
421
  8421504
 74
     1
 91
        4
 64
     7
 65
   257
 75
     1
175
     1
 42
1.0
 92
        8
 66
     8
424
  8421504
 43
1.0
 76
     1
 77
     6
 78
     2
 67
     7
 79
     5
170
     0
171
     0
290
     0
174
     0
 93
        1
 44
0.0
173
     0
291
     1
 45
0.0
  0
VISUALSTYLE
  5
34
102
{ACAD_REACTORS
330
2A
102
}
102
{ACAD_XDICTIONARY
360
A1
102
}
330
2A
100
AcDbVisualStyle
  2
Conceptual
 70
     9
 71
     3
 72
     2
 73
     0
 90
        0
 40
-0.6
 41
-30.0
 62
     5
 63
     7
421
 16777215
 74
     2
 91
        2
 64
     7
 65
   257
 75
     1
175
     1
 42
40.0
 92
        8
 66
     7
 43
1.0
 76
     1
 77
     6
 78
     2
 67
     7
 79
     3
170
     0
171
     0
290
     0
174
     0
 93
        1
 44
0.0
173
     0
291
     0
 45
0.0
  0
VISUALSTYLE
  5
35
102
{ACAD_REACTORS
330
2A
102
}
102
{ACAD_XDICTIONARY
360
A3
102
}
330
2A
100
AcDbVisualStyle
  2
Dim
 70
    11
 71
     2
 72
     2
 73
     0
 90
        0
 40
-0.6
 41
-30.0
 62
     5
 63
     7
421
 16777215
 74
     1
 91
        4
 64
     7
 65
   257
 75
     1
175
     1
 42
1.0
 92
        8
 66
     7
 43
1.0
 76
     1
 77
     6
 78
     2
 67
     7
 79
     5
170
     0
171
     0
290
     0
174
     0
 93
        1
 44
-50.0
173
     0
291
     1
 45
0.0
  0
VISUALSTYLE
  5
39
102
{ACAD_REACTORS
330
2A
102
}
102
{ACAD_XDICTIONARY
360
AB
102
}
330
2A
100
AcDbVisualStyle
  2
Facepattern
 70
    15
 71
     2
 72
     2
 73
     0
 90
        0
 40
-0.6
 41
-30.0
 62
     5
 63
     7
421
 16777215
 74
     1
 91
        4
 64
     7
 65
   257
 75
     1
175
     1
 42
1.0
 92
        8
 66
     7
 43
1.0
 76
     1
 77
     6
 78
     2
 67
     7
 79
     5
170
     0
171
     0
290
     0
174
     0
 93
        1
 44
0.0
173
     0
291
     1
 45
0.0
  0
VISUALSTYLE
  5
2B
102
{ACAD_REACTORS
330
2A
102
}
102
{ACAD_XDICTIONARY
360
8F
102
}
330
2A
100
AcDbVisualStyle
  2
Flat
 70
     0
 71
     2
 72
     1
 73
     1
 90
        2
 40
-0.6
 41
30.0
 62
     5
 63
     7
421
 16777215
 74
     0
 91
        4
 64
     7
 65
   257
 75
     1
175
     1
 42
1.0
 92
        8
 66
     7
 43
1.0
 76
     1
 77
     6
 78
     2
 67
     7
 79
     5
170
     0
171
     0
290
     0
174
     0
 93
       13
 44
0.0
173
     0
291
     1
 45
0.0
  0
VISUALSTYLE
  5
2C
102
{ACAD_REACTORS
330
2A
102
}
102
{ACAD_XDICTIONARY
360
91
102
}
330
2A
100
AcDbVisualStyle
  2
FlatWithEdges
 70
     1
 71
     2
 72
     1
 73
     1
 90
        2
 40
-0.6
 41
30.0
 62
     5
 63
     7
421
 16777215
 74
     1
 91
        4
 64
     7
 65
   257
 75
     1
175
     1
 42
1.0
 92
        0
 66
   257
 43
1.0
 76
     1
 77
     6
 78
     2
 67
     7
 79
     5
170
     0
171
     0
290
     0
174
     0
 93
       13
 44
0.0
173
     0
291
     1
 45
0.0
  0
VISUALSTYLE
  5
2D
102
{ACAD_REACTORS
330
2A
102
}
102
{ACAD_XDICTIONARY
360
93
102
}
330
2A
100
AcDbVisualStyle
  2
Gouraud
 70
     2
 71
     2
 72
     2
 73
     1
 90
        2
 40
-0.6
 41
30.0
 62
     5
 63
     7
421
 16777215
 74
     0
 91
        4
 64
     7
 65
   257
 75
     1
175
     1
 42
1.0
 92
        0
 66
     7
 43
1.0
 76
     1
 77
     6
 78
     2
 67
     7
 79
     5
170
     0
171
     0
290
     0
174
     0
 93
       13
 44
0.0
173
     0
291
     1
 45
0.0
  0
VISUALSTYLE
  5
2E
102
{ACAD_REACTORS
330
2A
102
}
102
{ACAD_XDICTIONARY
360
95
102
}
330
2A
100
AcDbVisualStyle
  2
GouraudWithEdges
 70
     3
 71
     2
 72
     2
 73
     1
 90
        2
 40
-0.6
 41
30.0
 62
     5
 63
     7
421
 16777215
 74
     1
 91
        4
 64
     7
 65
   257
 75
     1
175
     1
 42
1.0
 92
        0
 66
   257
 43
1.0
 76
     1
 77
     6
 78
     2
 67
     7
 79
     5
170
     0
171
     0
290
     0
174
     0
 93
       13
 44
0.0
173
     0
291
     1
 45
0.0
  0
VISUALSTYLE
  5
38
102
{ACAD_REACTORS
330
2A
102
}
102
{ACAD_XDICTIONARY
360
A9
102
}
330
2A
100
AcDbVisualStyle
  2
Linepattern
 70
    14
 71
     2
 72
     2
 73
     0
 90
        0
 40
-0.6
 41
-30.0
 62
     5
 63
     7
421
 16777215
 74
     1
 91
        4
 64
     7
 65
   257
 75
     7
175
     7
 42
1.0
 92
        8
 66
     7
 43
1.0
 76
     1
 77
     6
 78
     2
 67
     7
 79
     5
170
     0
171
     0
290
     0
174
     0
 93
        1
 44
0.0
173
     0
291
     1
 45
0.0
  0
VISUALSTYLE
  5
33
102
{ACAD_REACTORS
330
2A
102
}
102
{ACAD_XDICTIONARY
360
9F
102
}
330
2A
100
AcDbVisualStyle
  2
Realistic
 70
     8
 71
     2
 72
     2
 73
     0
 90
        0
 40
-0.6
 41
-30.0
 62
     5
 63
     7
421
 16777215
 74
     1
 91
        0
 64
     7
 65
   257
 75
     1
175
     1
 42
1.0
 92
        8
 66
     8
424
  7895160
 43
1.0
 76
     1
 77
     6
 78
     2
 67
     7
 79
     5
170
     0
171
     0
290
     0
174
     0
 93
       13
 44
0.0
173
     0
291
     0
 45
0.0
  0
VISUALSTYLE
  5
37
102
{ACAD_REACTORS
330
2A
102
}
102
{ACAD_XDICTIONARY
360
A7
102
}
330
2A
100
AcDbVisualStyle
  2
Thicken
 70
    13
 71
     2
 72
     2
 73
     0
 90
        0
 40
-0.6
 41
-30.0
 62
     5
 63
     7
421
 16777215
 74
     1
 91
        4
 64
     7
 65
   257
 75
     1
175
     1
 42
1.0
 92
       12
 66
     7
 43
1.0
 76
     1
 77
     6
 78
     2
 67
     7
 79
     5
170
     0
171
     0
290
     0
174
     0
 93
        1
 44
0.0
173
     0
291
     1
 45
0.0
  0
DICTIONARY
  5
97
330
2F
100
AcDbDictionary
280
     1
281
     1
  3
ACAD_XREC_ROUNDTRIP
360
98
  0
DICTIONARY
  5
9B
330
31
100
AcDbDictionary
280
     1
281
     1
  3
ACAD_XREC_ROUNDTRIP
360
9C
  0
DICTIONARY
  5
99
330
30
100
AcDbDictionary
280
     1
281
     1
  3
ACAD_XREC_ROUNDTRIP
360
9A
  0
DICTIONARY
  5
9D
330
32
100
AcDbDictionary
280
     1
281
     1
  3
ACAD_XREC_ROUNDTRIP
360
9E
  0
DICTIONARY
  5
A5
330
36
100
AcDbDictionary
280
     1
281
     1
  3
ACAD_XREC_ROUNDTRIP
360
A6
  0
DICTIONARY
  5
AD
330
3A
100
AcDbDictionary
280
     1
281
     1
  3
ACAD_XREC_ROUNDTRIP
360
AE
  0
DICTIONARY
  5
A1
330
34
100
AcDbDictionary
280
     1
281
     1
  3
ACAD_XREC_ROUNDTRIP
360
A2
  0
DICTIONARY
  5
A3
330
35
100
AcDbDictionary
280
     1
281
     1
  3
ACAD_XREC_ROUNDTRIP
360
A4
  0
DICTIONARY
  5
AB
330
39
100
AcDbDictionary
280
     1
281
     1
  3
ACAD_XREC_ROUNDTRIP
360
AC
  0
DICTIONARY
  5
8F
330
2B
100
AcDbDictionary
280
     1
281
     1
  3
ACAD_XREC_ROUNDTRIP
360
90
  0
DICTIONARY
  5
91
330
2C
100
AcDbDictionary
280
     1
281
     1
  3
ACAD_XREC_ROUNDTRIP
360
92
  0
DICTIONARY
  5
93
330
2D
100
AcDbDictionary
280
     1
281
     1
  3
ACAD_XREC_ROUNDTRIP
360
94
  0
DICTIONARY
  5
95
330
2E
100
AcDbDictionary
280
     1
281
     1
  3
ACAD_XREC_ROUNDTRIP
360
96
  0
DICTIONARY
  5
A9
330
38
100
AcDbDictionary
280
     1
281
     1
  3
ACAD_XREC_ROUNDTRIP
360
AA
  0
DICTIONARY
  5
9F
330
33
100
AcDbDictionary
280
     1
281
     1
  3
ACAD_XREC_ROUNDTRIP
360
A0
  0
DICTIONARY
  5
A7
330
37
100
AcDbDictionary
280
     1
281
     1
  3
ACAD_XREC_ROUNDTRIP
360
A8
  0
XRECORD
  5
98
102
{ACAD_REACTORS
330
97
102
}
330
97
100
AcDbXrecord
280
     1
102
RTVSPropertyOp0
 70
     1
102
RTVSPropertyOp1
 70
     1
102
RTVSPropertyOp2
 70
     1
102
RTVSPropertyOp3
 70
     1
102
RTVSPropertyOp4
 70
     1
102
RTVSPropertyOp5
 70
     1
102
RTVSPropertyOp6
 70
     1
102
RTVSPropertyOp7
 70
     1
102
RTVSPropertyOp8
 70
     1
102
RTVSPropertyOp9
 70
     1
102
RTVSPropertyOp10
 70
     1
102
RTVSPropertyOp11
 70
     1
102
RTVSPropertyOp12
 70
     1
102
RTVSPropertyOp13
 70
     1
102
RTVSPropertyOp14
 70
     1
102
RTVSPropertyOp15
 70
     1
102
RTVSPropertyOp16
 70
     1
102
RTVSPropertyOp17
 70
     1
102
RTVSPropertyOp18
 70
     1
102
RTVSPropertyOp19
 70
     1
102
RTVSPropertyOp20
 70
     1
102
RTVSPropertyOp21
 70
     1
102
RTVSPropertyOp22
 70
     1
102
RTVSPropertyOp23
 70
     1
102
RTVSPropertyOp24
 70
     1
102
RTVSPropertyOp25
 70
     1
102
RTVSPropertyOp26
 70
     1
102
RTVSPropertyOp27
 70
     1
102
RTVSPropertyOp28
 70
     1
102
RTVSPropertyOp29
 70
     1
102
RTVSPropertyOp30
 70
     1
102
RTVSPropertyOp31
 70
     1
102
RTVSPropertyOp32
 70
     1
  0
XRECORD
  5
9C
102
{ACAD_REACTORS
330
9B
102
}
330
9B
100
AcDbXrecord
280
     1
102
RTVSPropertyOp0
 70
     1
102
RTVSPropertyOp1
 70
     1
102
RTVSPropertyOp2
 70
     1
102
RTVSPropertyOp3
 70
     1
102
RTVSPropertyOp4
 70
     1
102
RTVSPropertyOp5
 70
     1
102
RTVSPropertyOp6
 70
     1
102
RTVSPropertyOp7
 70
     1
102
RTVSPropertyOp8
 70
     1
102
RTVSPropertyOp9
 70
     1
102
RTVSPropertyOp10
 70
     1
102
RTVSPropertyOp11
 70
     1
102
RTVSPropertyOp12
 70
     1
102
RTVSPropertyOp13
 70
     1
102
RTVSPropertyOp14
 70
     1
102
RTVSPropertyOp15
 70
     1
102
RTVSPropertyOp16
 70
     1
102
RTVSPropertyOp17
 70
     1
102
RTVSPropertyOp18
 70
     1
102
RTVSPropertyOp19
 70
     1
102
RTVSPropertyOp20
 70
     1
102
RTVSPropertyOp21
 70
     1
102
RTVSPropertyOp22
 70
     1
102
RTVSPropertyOp23
 70
     1
102
RTVSPropertyOp24
 70
     1
102
RTVSPropertyOp25
 70
     1
102
RTVSPropertyOp26
 70
     1
102
RTVSPropertyOp27
 70
     1
102
RTVSPropertyOp28
 70
     1
102
RTVSPropertyOp29
 70
     1
102
RTVSPropertyOp30
 70
     1
102
RTVSPropertyOp31
 70
     1
102
RTVSPropertyOp32
 70
     1
  0
XRECORD
  5
9A
102
{ACAD_REACTORS
330
99
102
}
330
99
100
AcDbXrecord
280
     1
102
RTVSPropertyOp0
 70
     1
102
RTVSPropertyOp1
 70
     1
102
RTVSPropertyOp2
 70
     1
102
RTVSPropertyOp3
 70
     1
102
RTVSPropertyOp4
 70
     1
102
RTVSPropertyOp5
 70
     1
102
RTVSPropertyOp6
 70
     1
102
RTVSPropertyOp7
 70
     1
102
RTVSPropertyOp8
 70
     1
102
RTVSPropertyOp9
 70
     1
102
RTVSPropertyOp10
 70
     1
102
RTVSPropertyOp11
 70
     1
102
RTVSPropertyOp12
 70
     1
102
RTVSPropertyOp13
 70
     1
102
RTVSPropertyOp14
 70
     1
102
RTVSPropertyOp15
 70
     1
102
RTVSPropertyOp16
 70
     1
102
RTVSPropertyOp17
 70
     1
102
RTVSPropertyOp18
 70
     1
102
RTVSPropertyOp19
 70
     1
102
RTVSPropertyOp20
 70
     1
102
RTVSPropertyOp21
 70
     1
102
RTVSPropertyOp22
 70
     1
102
RTVSPropertyOp23
 70
     1
102
RTVSPropertyOp24
 70
     1
102
RTVSPropertyOp25
 70
     1
102
RTVSPropertyOp26
 70
     1
102
RTVSPropertyOp27
 70
     1
102
RTVSPropertyOp28
 70
     1
102
RTVSPropertyOp29
 70
     1
102
RTVSPropertyOp30
 70
     1
102
RTVSPropertyOp31
 70
     1
102
RTVSPropertyOp32
 70
     1
  0
XRECORD
  5
9E
102
{ACAD_REACTORS
330
9D
102
}
330
9D
100
AcDbXrecord
280
     1
102
RTVSPropertyOp0
 70
     1
102
RTVSPropertyOp1
 70
     1
102
RTVSPropertyOp2
 70
     1
102
RTVSPropertyOp3
 70
     1
102
RTVSPropertyOp4
 70
     1
102
RTVSPropertyOp5
 70
     1
102
RTVSPropertyOp6
 70
     1
102
RTVSPropertyOp7
 70
     1
102
RTVSPropertyOp8
 70
     1
102
RTVSPropertyOp9
 70
     1
102
RTVSPropertyOp10
 70
     1
102
RTVSPropertyOp11
 70
     1
102
RTVSPropertyOp12
 70
     1
102
RTVSPropertyOp13
 70
     1
102
RTVSPropertyOp14
 70
     1
102
RTVSPropertyOp15
 70
     1
102
RTVSPropertyOp16
 70
     1
102
RTVSPropertyOp17
 70
     1
102
RTVSPropertyOp18
 70
     1
102
RTVSPropertyOp19
 70
     1
102
RTVSPropertyOp20
 70
     1
102
RTVSPropertyOp21
 70
     1
102
RTVSPropertyOp22
 70
     1
102
RTVSPropertyOp23
 70
     1
102
RTVSPropertyOp24
 70
     1
102
RTVSPropertyOp25
 70
     1
102
RTVSPropertyOp26
 70
     1
102
RTVSPropertyOp27
 70
     1
102
RTVSPropertyOp28
 70
     1
102
RTVSPropertyOp29
 70
     1
102
RTVSPropertyOp30
 70
     1
102
RTVSPropertyOp31
 70
     1
102
RTVSPropertyOp32
 70
     1
  0
XRECORD
  5
A6
102
{ACAD_REACTORS
330
A5
102
}
330
A5
100
AcDbXrecord
280
     1
102
RTVSPropertyOp0
 70
     1
102
RTVSPropertyOp1
 70
     1
102
RTVSPropertyOp2
 70
     1
102
RTVSPropertyOp3
 70
     1
102
RTVSPropertyOp4
 70
     1
102
RTVSPropertyOp5
 70
     1
102
RTVSPropertyOp6
 70
     1
102
RTVSPropertyOp7
 70
     1
102
RTVSPropertyOp8
 70
     1
102
RTVSPropertyOp9
 70
     1
102
RTVSPropertyOp10
 70
     1
102
RTVSPropertyOp11
 70
     1
102
RTVSPropertyOp12
 70
     1
102
RTVSPropertyOp13
 70
     1
102
RTVSPropertyOp14
 70
     1
102
RTVSPropertyOp15
 70
     1
102
RTVSPropertyOp16
 70
     1
102
RTVSPropertyOp17
 70
     1
102
RTVSPropertyOp18
 70
     1
102
RTVSPropertyOp19
 70
     1
102
RTVSPropertyOp20
 70
     1
102
RTVSPropertyOp21
 70
     1
102
RTVSPropertyOp22
 70
     1
102
RTVSPropertyOp23
 70
     1
102
RTVSPropertyOp24
 70
     1
102
RTVSPropertyOp25
 70
     1
102
RTVSPropertyOp26
 70
     1
102
RTVSPropertyOp27
 70
     1
102
RTVSPropertyOp28
 70
     1
102
RTVSPropertyOp29
 70
     1
102
RTVSPropertyOp30
 70
     1
102
RTVSPropertyOp31
 70
     1
102
RTVSPropertyOp32
 70
     1
  0
XRECORD
  5
AE
102
{ACAD_REACTORS
330
AD
102
}
330
AD
100
AcDbXrecord
280
     1
102
RTVSPropertyOp0
 70
     1
102
RTVSPropertyOp1
 70
     1
102
RTVSPropertyOp2
 70
     1
102
RTVSPropertyOp3
 70
     1
102
RTVSPropertyOp4
 70
     1
102
RTVSPropertyOp5
 70
     1
102
RTVSPropertyOp6
 70
     1
102
RTVSPropertyOp7
 70
     1
102
RTVSPropertyOp8
 70
     1
102
RTVSPropertyOp9
 70
     1
102
RTVSPropertyOp10
 70
     1
102
RTVSPropertyOp11
 70
     1
102
RTVSPropertyOp12
 70
     1
102
RTVSPropertyOp13
 70
     1
102
RTVSPropertyOp14
 70
     1
102
RTVSPropertyOp15
 70
     1
102
RTVSPropertyOp16
 70
     1
102
RTVSPropertyOp17
 70
     1
102
RTVSPropertyOp18
 70
     1
102
RTVSPropertyOp19
 70
     1
102
RTVSPropertyOp20
 70
     1
102
RTVSPropertyOp21
 70
     1
102
RTVSPropertyOp22
 70
     1
102
RTVSPropertyOp23
 70
     1
102
RTVSPropertyOp24
 70
     1
102
RTVSPropertyOp25
 70
     1
102
RTVSPropertyOp26
 70
     1
102
RTVSPropertyOp27
 70
     1
102
RTVSPropertyOp28
 70
     1
102
RTVSPropertyOp29
 70
     1
102
RTVSPropertyOp30
 70
     1
102
RTVSPropertyOp31
 70
     1
102
RTVSPropertyOp32
 70
     1
  0
XRECORD
  5
A2
102
{ACAD_REACTORS
330
A1
102
}
330
A1
100
AcDbXrecord
280
     1
102
RTVSPropertyOp0
 70
     1
102
RTVSPropertyOp1
 70
     1
102
RTVSPropertyOp2
 70
     1
102
RTVSPropertyOp3
 70
     1
102
RTVSPropertyOp4
 70
     1
102
RTVSPropertyOp5
 70
     1
102
RTVSPropertyOp6
 70
     1
102
RTVSPropertyOp7
 70
     1
102
RTVSPropertyOp8
 70
     1
102
RTVSPropertyOp9
 70
     1
102
RTVSPropertyOp10
 70
     1
102
RTVSPropertyOp11
 70
     1
102
RTVSPropertyOp12
 70
     1
102
RTVSPropertyOp13
 70
     1
102
RTVSPropertyOp14
 70
     1
102
RTVSPropertyOp15
 70
     1
102
RTVSPropertyOp16
 70
     1
102
RTVSPropertyOp17
 70
     1
102
RTVSPropertyOp18
 70
     1
102
RTVSPropertyOp19
 70
     1
102
RTVSPropertyOp20
 70
     1
102
RTVSPropertyOp21
 70
     1
102
RTVSPropertyOp22
 70
     1
102
RTVSPropertyOp23
 70
     1
102
RTVSPropertyOp24
 70
     1
102
RTVSPropertyOp25
 70
     1
102
RTVSPropertyOp26
 70
     1
102
RTVSPropertyOp27
 70
     1
102
RTVSPropertyOp28
 70
     1
102
RTVSPropertyOp29
 70
     1
102
RTVSPropertyOp30
 70
     1
102
RTVSPropertyOp31
 70
     1
102
RTVSPropertyOp32
 70
     1
  0
XRECORD
  5
A4
102
{ACAD_REACTORS
330
A3
102
}
330
A3
100
AcDbXrecord
280
     1
102
RTVSPropertyOp0
 70
     1
102
RTVSPropertyOp1
 70
     1
102
RTVSPropertyOp2
 70
     1
102
RTVSPropertyOp3
 70
     1
102
RTVSPropertyOp4
 70
     1
102
RTVSPropertyOp5
 70
     1
102
RTVSPropertyOp6
 70
     1
102
RTVSPropertyOp7
 70
     1
102
RTVSPropertyOp8
 70
     1
102
RTVSPropertyOp9
 70
     1
102
RTVSPropertyOp10
 70
     1
102
RTVSPropertyOp11
 70
     1
102
RTVSPropertyOp12
 70
     1
102
RTVSPropertyOp13
 70
     1
102
RTVSPropertyOp14
 70
     1
102
RTVSPropertyOp15
 70
     1
102
RTVSPropertyOp16
 70
     1
102
RTVSPropertyOp17
 70
     1
102
RTVSPropertyOp18
 70
     1
102
RTVSPropertyOp19
 70
     1
102
RTVSPropertyOp20
 70
     1
102
RTVSPropertyOp21
 70
     1
102
RTVSPropertyOp22
 70
     1
102
RTVSPropertyOp23
 70
     1
102
RTVSPropertyOp24
 70
     1
102
RTVSPropertyOp25
 70
     1
102
RTVSPropertyOp26
 70
     1
102
RTVSPropertyOp27
 70
     1
102
RTVSPropertyOp28
 70
     1
102
RTVSPropertyOp29
 70
     1
102
RTVSPropertyOp30
 70
     1
102
RTVSPropertyOp31
 70
     1
102
RTVSPropertyOp32
 70
     1
  0
XRECORD
  5
AC
102
{ACAD_REACTORS
330
AB
102
}
330
AB
100
AcDbXrecord
280
     1
102
RTVSPropertyOp0
 70
     1
102
RTVSPropertyOp1
 70
     1
102
RTVSPropertyOp2
 70
     1
102
RTVSPropertyOp3
 70
     1
102
RTVSPropertyOp4
 70
     1
102
RTVSPropertyOp5
 70
     1
102
RTVSPropertyOp6
 70
     1
102
RTVSPropertyOp7
 70
     1
102
RTVSPropertyOp8
 70
     1
102
RTVSPropertyOp9
 70
     1
102
RTVSPropertyOp10
 70
     1
102
RTVSPropertyOp11
 70
     1
102
RTVSPropertyOp12
 70
     1
102
RTVSPropertyOp13
 70
     1
102
RTVSPropertyOp14
 70
     1
102
RTVSPropertyOp15
 70
     1
102
RTVSPropertyOp16
 70
     1
102
RTVSPropertyOp17
 70
     1
102
RTVSPropertyOp18
 70
     1
102
RTVSPropertyOp19
 70
     1
102
RTVSPropertyOp20
 70
     1
102
RTVSPropertyOp21
 70
     1
102
RTVSPropertyOp22
 70
     1
102
RTVSPropertyOp23
 70
     1
102
RTVSPropertyOp24
 70
     1
102
RTVSPropertyOp25
 70
     1
102
RTVSPropertyOp26
 70
     1
102
RTVSPropertyOp27
 70
     1
102
RTVSPropertyOp28
 70
     1
102
RTVSPropertyOp29
 70
     1
102
RTVSPropertyOp30
 70
     1
102
RTVSPropertyOp31
 70
     1
102
RTVSPropertyOp32
 70
     1
  0
XRECORD
  5
90
102
{ACAD_REACTORS
330
8F
102
}
330
8F
100
AcDbXrecord
280
     1
102
RTVSPropertyOp0
 70
     1
102
RTVSPropertyOp1
 70
     1
102
RTVSPropertyOp2
 70
     1
102
RTVSPropertyOp3
 70
     1
102
RTVSPropertyOp4
 70
     1
102
RTVSPropertyOp5
 70
     1
102
RTVSPropertyOp6
 70
     1
102
RTVSPropertyOp7
 70
     1
102
RTVSPropertyOp8
 70
     1
102
RTVSPropertyOp9
 70
     1
102
RTVSPropertyOp10
 70
     1
102
RTVSPropertyOp11
 70
     1
102
RTVSPropertyOp12
 70
     1
102
RTVSPropertyOp13
 70
     1
102
RTVSPropertyOp14
 70
     1
102
RTVSPropertyOp15
 70
     1
102
RTVSPropertyOp16
 70
     1
102
RTVSPropertyOp17
 70
     1
102
RTVSPropertyOp18
 70
     1
102
RTVSPropertyOp19
 70
     1
102
RTVSPropertyOp20
 70
     1
102
RTVSPropertyOp21
 70
     1
102
RTVSPropertyOp22
 70
     1
102
RTVSPropertyOp23
 70
     1
102
RTVSPropertyOp24
 70
     1
102
RTVSPropertyOp25
 70
     1
102
RTVSPropertyOp26
 70
     1
102
RTVSPropertyOp27
 70
     1
102
RTVSPropertyOp28
 70
     1
102
RTVSPropertyOp29
 70
     1
102
RTVSPropertyOp30
 70
     1
102
RTVSPropertyOp31
 70
     1
102
RTVSPropertyOp32
 70
     1
  0
XRECORD
  5
92
102
{ACAD_REACTORS
330
91
102
}
330
91
100
AcDbXrecord
280
     1
102
RTVSPropertyOp0
 70
     1
102
RTVSPropertyOp1
 70
     1
102
RTVSPropertyOp2
 70
     1
102
RTVSPropertyOp3
 70
     1
102
RTVSPropertyOp4
 70
     1
102
RTVSPropertyOp5
 70
     1
102
RTVSPropertyOp6
 70
     1
102
RTVSPropertyOp7
 70
     1
102
RTVSPropertyOp8
 70
     1
102
RTVSPropertyOp9
 70
     1
102
RTVSPropertyOp10
 70
     1
102
RTVSPropertyOp11
 70
     1
102
RTVSPropertyOp12
 70
     1
102
RTVSPropertyOp13
 70
     1
102
RTVSPropertyOp14
 70
     1
102
RTVSPropertyOp15
 70
     1
102
RTVSPropertyOp16
 70
     1
102
RTVSPropertyOp17
 70
     1
102
RTVSPropertyOp18
 70
     1
102
RTVSPropertyOp19
 70
     1
102
RTVSPropertyOp20
 70
     1
102
RTVSPropertyOp21
 70
     1
102
RTVSPropertyOp22
 70
     1
102
RTVSPropertyOp23
 70
     1
102
RTVSPropertyOp24
 70
     1
102
RTVSPropertyOp25
 70
     1
102
RTVSPropertyOp26
 70
     1
102
RTVSPropertyOp27
 70
     1
102
RTVSPropertyOp28
 70
     1
102
RTVSPropertyOp29
 70
     1
102
RTVSPropertyOp30
 70
     1
102
RTVSPropertyOp31
 70
     1
102
RTVSPropertyOp32
 70
     1
  0
XRECORD
  5
94
102
{ACAD_REACTORS
330
93
102
}
330
93
100
AcDbXrecord
280
     1
102
RTVSPropertyOp0
 70
     1
102
RTVSPropertyOp1
 70
     1
102
RTVSPropertyOp2
 70
     1
102
RTVSPropertyOp3
 70
     1
102
RTVSPropertyOp4
 70
     1
102
RTVSPropertyOp5
 70
     1
102
RTVSPropertyOp6
 70
     1
102
RTVSPropertyOp7
 70
     1
102
RTVSPropertyOp8
 70
     1
102
RTVSPropertyOp9
 70
     1
102
RTVSPropertyOp10
 70
     1
102
RTVSPropertyOp11
 70
     1
102
RTVSPropertyOp12
 70
     1
102
RTVSPropertyOp13
 70
     1
102
RTVSPropertyOp14
 70
     1
102
RTVSPropertyOp15
 70
     1
102
RTVSPropertyOp16
 70
     1
102
RTVSPropertyOp17
 70
     1
102
RTVSPropertyOp18
 70
     1
102
RTVSPropertyOp19
 70
     1
102
RTVSPropertyOp20
 70
     1
102
RTVSPropertyOp21
 70
     1
102
RTVSPropertyOp22
 70
     1
102
RTVSPropertyOp23
 70
     1
102
RTVSPropertyOp24
 70
     1
102
RTVSPropertyOp25
 70
     1
102
RTVSPropertyOp26
 70
     1
102
RTVSPropertyOp27
 70
     1
102
RTVSPropertyOp28
 70
     1
102
RTVSPropertyOp29
 70
     1
102
RTVSPropertyOp30
 70
     1
102
RTVSPropertyOp31
 70
     1
102
RTVSPropertyOp32
 70
     1
  0
XRECORD
  5
96
102
{ACAD_REACTORS
330
95
102
}
330
95
100
AcDbXrecord
280
     1
102
RTVSPropertyOp0
 70
     1
102
RTVSPropertyOp1
 70
     1
102
RTVSPropertyOp2
 70
     1
102
RTVSPropertyOp3
 70
     1
102
RTVSPropertyOp4
 70
     1
102
RTVSPropertyOp5
 70
     1
102
RTVSPropertyOp6
 70
     1
102
RTVSPropertyOp7
 70
     1
102
RTVSPropertyOp8
 70
     1
102
RTVSPropertyOp9
 70
     1
102
RTVSPropertyOp10
 70
     1
102
RTVSPropertyOp11
 70
     1
102
RTVSPropertyOp12
 70
     1
102
RTVSPropertyOp13
 70
     1
102
RTVSPropertyOp14
 70
     1
102
RTVSPropertyOp15
 70
     1
102
RTVSPropertyOp16
 70
     1
102
RTVSPropertyOp17
 70
     1
102
RTVSPropertyOp18
 70
     1
102
RTVSPropertyOp19
 70
     1
102
RTVSPropertyOp20
 70
     1
102
RTVSPropertyOp21
 70
     1
102
RTVSPropertyOp22
 70
     1
102
RTVSPropertyOp23
 70
     1
102
RTVSPropertyOp24
 70
     1
102
RTVSPropertyOp25
 70
     1
102
RTVSPropertyOp26
 70
     1
102
RTVSPropertyOp27
 70
     1
102
RTVSPropertyOp28
 70
     1
102
RTVSPropertyOp29
 70
     1
102
RTVSPropertyOp30
 70
     1
102
RTVSPropertyOp31
 70
     1
102
RTVSPropertyOp32
 70
     1
  0
XRECORD
  5
AA
102
{ACAD_REACTORS
330
A9
102
}
330
A9
100
AcDbXrecord
280
     1
102
RTVSPropertyOp0
 70
     1
102
RTVSPropertyOp1
 70
     1
102
RTVSPropertyOp2
 70
     1
102
RTVSPropertyOp3
 70
     1
102
RTVSPropertyOp4
 70
     1
102
RTVSPropertyOp5
 70
     1
102
RTVSPropertyOp6
 70
     1
102
RTVSPropertyOp7
 70
     1
102
RTVSPropertyOp8
 70
     1
102
RTVSPropertyOp9
 70
     1
102
RTVSPropertyOp10
 70
     1
102
RTVSPropertyOp11
 70
     1
102
RTVSPropertyOp12
 70
     1
102
RTVSPropertyOp13
 70
     1
102
RTVSPropertyOp14
 70
     1
102
RTVSPropertyOp15
 70
     1
102
RTVSPropertyOp16
 70
     1
102
RTVSPropertyOp17
 70
     1
102
RTVSPropertyOp18
 70
     1
102
RTVSPropertyOp19
 70
     1
102
RTVSPropertyOp20
 70
     1
102
RTVSPropertyOp21
 70
     1
102
RTVSPropertyOp22
 70
     1
102
RTVSPropertyOp23
 70
     1
102
RTVSPropertyOp24
 70
     1
102
RTVSPropertyOp25
 70
     1
102
RTVSPropertyOp26
 70
     1
102
RTVSPropertyOp27
 70
     1
102
RTVSPropertyOp28
 70
     1
102
RTVSPropertyOp29
 70
     1
102
RTVSPropertyOp30
 70
     1
102
RTVSPropertyOp31
 70
     1
102
RTVSPropertyOp32
 70
     1
  0
XRECORD
  5
A0
102
{ACAD_REACTORS
330
9F
102
}
330
9F
100
AcDbXrecord
280
     1
102
RTVSPropertyOp0
 70
     1
102
RTVSPropertyOp1
 70
     1
102
RTVSPropertyOp2
 70
     1
102
RTVSPropertyOp3
 70
     1
102
RTVSPropertyOp4
 70
     1
102
RTVSPropertyOp5
 70
     1
102
RTVSPropertyOp6
 70
     1
102
RTVSPropertyOp7
 70
     1
102
RTVSPropertyOp8
 70
     1
102
RTVSPropertyOp9
 70
     1
102
RTVSPropertyOp10
 70
     1
102
RTVSPropertyOp11
 70
     1
102
RTVSPropertyOp12
 70
     1
102
RTVSPropertyOp13
 70
     1
102
RTVSPropertyOp14
 70
     1
102
RTVSPropertyOp15
 70
     1
102
RTVSPropertyOp16
 70
     1
102
RTVSPropertyOp17
 70
     1
102
RTVSPropertyOp18
 70
     1
102
RTVSPropertyOp19
 70
     1
102
RTVSPropertyOp20
 70
     1
102
RTVSPropertyOp21
 70
     1
102
RTVSPropertyOp22
 70
     1
102
RTVSPropertyOp23
 70
     1
102
RTVSPropertyOp24
 70
     1
102
RTVSPropertyOp25
 70
     1
102
RTVSPropertyOp26
 70
     1
102
RTVSPropertyOp27
 70
     1
102
RTVSPropertyOp28
 70
     1
102
RTVSPropertyOp29
 70
     1
102
RTVSPropertyOp30
 70
     1
102
RTVSPropertyOp31
 70
     1
102
RTVSPropertyOp32
 70
     1
  0
XRECORD
  5
A8
102
{ACAD_REACTORS
330
A7
102
}
330
A7
100
AcDbXrecord
280
     1
102
RTVSPropertyOp0
 70
     1
102
RTVSPropertyOp1
 70
     1
102
RTVSPropertyOp2
 70
     1
102
RTVSPropertyOp3
 70
     1
102
RTVSPropertyOp4
 70
     1
102
RTVSPropertyOp5
 70
     1
102
RTVSPropertyOp6
 70
     1
102
RTVSPropertyOp7
 70
     1
102
RTVSPropertyOp8
 70
     1
102
RTVSPropertyOp9
 70
     1
102
RTVSPropertyOp10
 70
     1
102
RTVSPropertyOp11
 70
     1
102
RTVSPropertyOp12
 70
     1
102
RTVSPropertyOp13
 70
     1
102
RTVSPropertyOp14
 70
     1
102
RTVSPropertyOp15
 70
     1
102
RTVSPropertyOp16
 70
     1
102
RTVSPropertyOp17
 70
     1
102
RTVSPropertyOp18
 70
     1
102
RTVSPropertyOp19
 70
     1
102
RTVSPropertyOp20
 70
     1
102
RTVSPropertyOp21
 70
     1
102
RTVSPropertyOp22
 70
     1
102
RTVSPropertyOp23
 70
     1
102
RTVSPropertyOp24
 70
     1
102
RTVSPropertyOp25
 70
     1
102
RTVSPropertyOp26
 70
     1
102
RTVSPropertyOp27
 70
     1
102
RTVSPropertyOp28
 70
     1
102
RTVSPropertyOp29
 70
     1
102
RTVSPropertyOp30
 70
     1
102
RTVSPropertyOp31
 70
     1
102
RTVSPropertyOp32
 70
     1
  0
ENDSEC
  0
EOF
