  0
SECTION
  2
HEADER
  9
$ACADVER
  1
AC1021
  9
$ACADMAINTVER
 70
    25
  9
$DWGCODEPAGE
  3
ANSI_1256
  9
$INSBASE
 10
0.0
 20
0.0
 30
0.0
  9
$EXTMIN
 10
-21.7665
 20
-114.7704
 30
0.0
  9
$EXTMAX
 10
28.3493
 20
132.1859
 30
0.0
  9
$LIMMIN
 10
0.0
 20
0.0
  9
$LIMMAX
 10
12.0
 20
9.0
  9
$ORTHOMODE
 70
     0
  9
$REGENMODE
 70
     1
  9
$FILLMODE
 70
     1
  9
$QTEXTMODE
 70
     0
  9
$MIRRTEXT
 70
     1
  9
$LTSCALE
 40
1.0
  9
$ATTMODE
 70
     1
  9
$TEXTSIZE
 40
0.2
  9
$TRACEWID
 40
0.05
  9
$TEXTSTYLE
  7
Standard
  9
$CLAYER
  8
0
  9
$CELTYPE
  6
ByLayer
  9
$CECOLOR
 62
   256
  9
$CELTSCALE
 40
1.0
  9
$DISPSILH
 70
     0
  9
$DIMSCALE
 40
1.0
  9
$DIMASZ
 40
0.18
  9
$DIMEXO
 40
0.0625
  9
$DIMDLI
 40
0.38
  9
$DIMRND
 40
0.0
  9
$DIMDLE
 40
0.0
  9
$DIMEXE
 40
0.18
  9
$DIMTP
 40
0.0
  9
$DIMTM
 40
0.0
  9
$DIMTXT
 40
0.18
  9
$DIMCEN
 40
0.09
  9
$DIMTSZ
 40
0.0
  9
$DIMTOL
 70
     0
  9
$DIMLIM
 70
     0
  9
$DIMTIH
 70
     1
  9
$DIMTOH
 70
     1
  9
$DIMSE1
 70
     0
  9
$DIMSE2
 70
     0
  9
$DIMTAD
 70
     0
  9
$DIMZIN
 70
     0
  9
$DIMBLK
  1

  9
$DIMASO
 70
     1
  9
$DIMSHO
 70
     1
  9
$DIMPOST
  1

  9
$DIMAPOST
  1

  9
$DIMALT
 70
     0
  9
$DIMALTD
 70
     2
  9
$DIMALTF
 40
25.4
  9
$DIMLFAC
 40
1.0
  9
$DIMTOFL
 70
     0
  9
$DIMTVP
 40
0.0
  9
$DIMTIX
 70
     0
  9
$DIMSOXD
 70
     0
  9
$DIMSAH
 70
     0
  9
$DIMBLK1
  1

  9
$DIMBLK2
  1

  9
$DIMSTYLE
  2
Standard
  9
$DIMCLRD
 70
     0
  9
$DIMCLRE
 70
     0
  9
$DIMCLRT
 70
     0
  9
$DIMTFAC
 40
1.0
  9
$DIMGAP
 40
0.09
  9
$DIMJUST
 70
     0
  9
$DIMSD1
 70
     0
  9
$DIMSD2
 70
     0
  9
$DIMTOLJ
 70
     1
  9
$DIMTZIN
 70
     0
  9
$DIMALTZ
 70
     0
  9
$DIMALTTZ
 70
     0
  9
$DIMUPT
 70
     0
  9
$DIMDEC
 70
     4
  9
$DIMTDEC
 70
     4
  9
$DIMALTU
 70
     2
  9
$DIMALTTD
 70
     2
  9
$DIMTXSTY
  7
Standard
  9
$DIMAUNIT
 70
     0
  9
$DIMADEC
 70
     0
  9
$DIMALTRND
 40
0.0
  9
$DIMAZIN
 70
     0
  9
$DIMDSEP
 70
    46
  9
$DIMATFIT
 70
     3
  9
$DIMFRAC
 70
     0
  9
$DIMLDRBLK
  1

  9
$DIMLUNIT
 70
     2
  9
$DIMLWD
 70
    -2
  9
$DIMLWE
 70
    -2
  9
$DIMTMOVE
 70
     0
  9
$DIMFXL
 40
1.0
  9
$DIMFXLON
 70
     0
  9
$DIMJOGANG
 40
0.7853981633974483
  9
$DIMTFILL
 70
     0
  9
$DIMTFILLCLR
 70
     0
  9
$DIMARCSYM
 70
     0
  9
$DIMLTYPE
  6

  9
$DIMLTEX1
  6

  9
$DIMLTEX2
  6

  9
$LUNITS
 70
     2
  9
$LUPREC
 70
     4
  9
$SKETCHINC
 40
0.1
  9
$FILLETRAD
 40
0.5
  9
$AUNITS
 70
     0
  9
$AUPREC
 70
     0
  9
$MENU
  1
.
  9
$ELEVATION
 40
0.0
  9
$PELEVATION
 40
0.0
  9
$THICKNESS
 40
0.0
  9
$LIMCHECK
 70
     0
  9
$CHAMFERA
 40
0.5
  9
$CHAMFERB
 40
0.5
  9
$CHAMFERC
 40
1.0
  9
$CHAMFERD
 40
0.0
  9
$SKPOLY
 70
     0
  9
$TDCREATE
 40
2458492.955626204
  9
$TDUCREATE
 40
2458492.788959537
  9
$TDUPDATE
 40
2458492.955626435
  9
$TDUUPDATE
 40
2458492.788959769
  9
$TDINDWG
 40
0.0000000116
  9
$TDUSRTIMER
 40
0.0000000116
  9
$USRTIMER
 70
     1
  9
$ANGBASE
 50
0.0
  9
$ANGDIR
 70
     0
  9
$PDMODE
 70
     0
  9
$PDSIZE
 40
0.0
  9
$PLINEWID
 40
0.0
  9
$SPLFRAME
 70
     0
  9
$SPLINETYPE
 70
     6
  9
$SPLINESEGS
 70
     8
  9
$HANDSEED
  5
E5
  9
$SURFTAB1
 70
     6
  9
$SURFTAB2
 70
     6
  9
$SURFTYPE
 70
     6
  9
$SURFU
 70
     6
  9
$SURFV
 70
     6
  9
$UCSBASE
  2

  9
$UCSNAME
  2

  9
$UCSORG
 10
0.0
 20
0.0
 30
0.0
  9
$UCSXDIR
 10
1.0
 20
0.0
 30
0.0
  9
$UCSYDIR
 10
0.0
 20
1.0
 30
0.0
  9
$UCSORTHOREF
  2

  9
$UCSORTHOVIEW
 70
     0
  9
$UCSORGTOP
 10
0.0
 20
0.0
 30
0.0
  9
$UCSORGBOTTOM
 10
0.0
 20
0.0
 30
0.0
  9
$UCSORGLEFT
 10
0.0
 20
0.0
 30
0.0
  9
$UCSORGRIGHT
 10
0.0
 20
0.0
 30
0.0
  9
$UCSORGFRONT
 10
0.0
 20
0.0
 30
0.0
  9
$UCSORGBACK
 10
0.0
 20
0.0
 30
0.0
  9
$PUCSBASE
  2

  9
$PUCSNAME
  2

  9
$PUCSORG
 10
0.0
 20
0.0
 30
0.0
  9
$PUCSXDIR
 10
1.0
 20
0.0
 30
0.0
  9
$PUCSYDIR
 10
0.0
 20
1.0
 30
0.0
  9
$PUCSORTHOREF
  2

  9
$PUCSORTHOVIEW
 70
     0
  9
$PUCSORGTOP
 10
0.0
 20
0.0
 30
0.0
  9
$PUCSORGBOTTOM
 10
0.0
 20
0.0
 30
0.0
  9
$PUCSORGLEFT
 10
0.0
 20
0.0
 30
0.0
  9
$PUCSORGRIGHT
 10
0.0
 20
0.0
 30
0.0
  9
$PUCSORGFRONT
 10
0.0
 20
0.0
 30
0.0
  9
$PUCSORGBACK
 10
0.0
 20
0.0
 30
0.0
  9
$USERI1
 70
     0
  9
$USERI2
 70
     0
  9
$USERI3
 70
     0
  9
$USERI4
 70
     0
  9
$USERI5
 70
     0
  9
$USERR1
 40
0.0
  9
$USERR2
 40
0.0
  9
$USERR3
 40
0.0
  9
$USERR4
 40
0.0
  9
$USERR5
 40
0.0
  9
$WORLDVIEW
 70
     1
  9
$SHADEDGE
 70
     3
  9
$SHADEDIF
 70
    70
  9
$TILEMODE
 70
     1
  9
$MAXACTVP
 70
    64
  9
$PINSBASE
 10
0.0
 20
0.0
 30
0.0
  9
$PLIMCHECK
 70
     0
  9
$PEXTMIN
 10
1.000000000000000E+20
 20
1.000000000000000E+20
 30
1.000000000000000E+20
  9
$PEXTMAX
 10
-1.000000000000000E+20
 20
-1.000000000000000E+20
 30
-1.000000000000000E+20
  9
$PLIMMIN
 10
0.0
 20
0.0
  9
$PLIMMAX
 10
12.0
 20
9.0
  9
$UNITMODE
 70
     0
  9
$VISRETAIN
 70
     1
  9
$PLINEGEN
 70
     0
  9
$PSLTSCALE
 70
     1
  9
$TREEDEPTH
 70
  3020
  9
$CMLSTYLE
  2
Standard
  9
$CMLJUST
 70
     0
  9
$CMLSCALE
 40
1.0
  9
$PROXYGRAPHICS
 70
     1
  9
$MEASUREMENT
 70
     0
  9
$CELWEIGHT
370
    -1
  9
$ENDCAPS
280
     0
  9
$JOINSTYLE
280
     0
  9
$LWDISPLAY
290
     0
  9
$INSUNITS
 70
     4
  9
$HYPERLINKBASE
  1

  9
$STYLESHEET
  1

  9
$XEDIT
290
     1
  9
$CEPSNTYPE
380
     0
  9
$PSTYLEMODE
290
     1
  9
$FINGERPRINTGUID
  2
{D8759341-42B2-4AA7-A4B7-0DE759706A8B}
  9
$VERSIONGUID
  2
{FAEB1C32-E019-11D5-929B-00C0DF256EC4}
  9
$EXTNAMES
290
     1
  9
$PSVPSCALE
 40
0.0
  9
$OLESTARTUP
290
     0
  9
$SORTENTS
280
   127
  9
$INDEXCTL
280
     0
  9
$HIDETEXT
280
     1
  9
$XCLIPFRAME
290
     0
  9
$HALOGAP
280
     0
  9
$OBSCOLOR
 70
   257
  9
$OBSLTYPE
280
     0
  9
$INTERSECTIONDISPLAY
280
     0
  9
$INTERSECTIONCOLOR
 70
   257
  9
$DIMASSOC
280
     2
  9
$PROJECTNAME
  1

  9
$CAMERADISPLAY
290
     0
  9
$LENSLENGTH
 40
50.0
  9
$CAMERAHEIGHT
 40
0.0
  9
$STEPSPERSEC
 40
2.0
  9
$STEPSIZE
 40
6.0
  9
$3DDWFPREC
 40
2.0
  9
$PSOLWIDTH
 40
0.25
  9
$PSOLHEIGHT
 40
4.0
  9
$LOFTANG1
 40
1.570796326794897
  9
$LOFTANG2
 40
1.570796326794897
  9
$LOFTMAG1
 40
0.0
  9
$LOFTMAG2
 40
0.0
  9
$LOFTPARAM
 70
     7
  9
$LOFTNORMALS
280
     1
  9
$LATITUDE
 40
37.795
  9
$LONGITUDE
 40
-122.394
  9
$NORTHDIRECTION
 40
0.0
  9
$TIMEZONE
 70
 -8000
  9
$LIGHTGLYPHDISPLAY
280
     1
  9
$TILEMODELIGHTSYNCH
280
     1
  9
$SOLIDHIST
280
     1
  9
$SHOWHIST
280
     1
  9
$DWFFRAME
280
     2
  9
$DGNFRAME
280
     2
  9
$REALWORLDSCALE
290
     1
  9
$INTERFERECOLOR
 62
   256
  9
$CSHADOW
280
     0
  9
$SHADOWPLANELOCATION
 40
0.0
  0
ENDSEC
  0
SECTION
  2
CLASSES
  0
CLASS
  1
ACDBDICTIONARYWDFLT
  2
AcDbDictionaryWithDefault
  3
ObjectDBX Classes
 90
        0
 91
        4
280
     0
281
     0
  0
CLASS
  1
VISUALSTYLE
  2
AcDbVisualStyle
  3
ObjectDBX Classes
 90
     4095
 91
        4
280
     0
281
     0
  0
CLASS
  1
MATERIAL
  2
AcDbMaterial
  3
ObjectDBX Classes
 90
     1153
 91
        4
280
     0
281
     0
  0
ENDSEC
  0
SECTION
  2
TABLES
  0
TABLE
  2
VPORT
  5
8
330
0
100
AcDbSymbolTable
 70
     1
  0
VPORT
  5
29
330
8
100
AcDbSymbolTableRecord
100
AcDbViewportTableRecord
  2
*Active
 70
     0
 10
0.0
 20
0.0
 11
1.0
 21
1.0
 12
10.42990654205607
 22
4.5
 13
0.0
 23
0.0
 14
0.5
 24
0.5
 15
0.5
 25
0.5
 16
0.0
 26
0.0
 36
1.0
 17
0.0
 27
0.0
 37
0.0
 40
9.0
 41
1.972972972850329
 42
50.0
 43
0.0
 44
0.0
 50
0.0
 51
0.0
 71
     0
 72
   100
 73
     1
 74
     3
 75
     0
 76
     0
 77
     0
 78
     0
281
     0
 65
     1
110
0.0
120
0.0
130
0.0
111
1.0
121
0.0
131
0.0
112
0.0
122
1.0
132
0.0
 79
     0
146
0.0
 60
     3
 61
     5
292
     1
282
     1
141
0.0
142
0.0
 63
   250
  0
ENDTAB
  0
TABLE
  2
LTYPE
  5
5
330
0
100
AcDbSymbolTable
 70
     1
  0
LTYPE
  5
14
330
5
100
AcDbSymbolTableRecord
100
AcDbLinetypeTableRecord
  2
ByBlock
 70
     0
  3

 72
    65
 73
     0
 40
0.0
  0
LTYPE
  5
15
330
5
100
AcDbSymbolTableRecord
100
AcDbLinetypeTableRecord
  2
ByLayer
 70
     0
  3

 72
    65
 73
     0
 40
0.0
  0
LTYPE
  5
16
330
5
100
AcDbSymbolTableRecord
100
AcDbLinetypeTableRecord
  2
Continuous
 70
     0
  3
Solid line
 72
    65
 73
     0
 40
0.0
  0
ENDTAB
  0
TABLE
  2
LAYER
  5
2
330
0
100
AcDbSymbolTable
 70
     3
  0
LAYER
  5
10
330
2
100
AcDbSymbolTableRecord
100
AcDbLayerTableRecord
  2
0
 70
     0
 62
     7
  6
Continuous
370
    -3
390
F
347
3E
  0
LAYER
  5
40
330
2
100
AcDbSymbolTableRecord
100
AcDbLayerTableRecord
  2
layer 1
 70
     0
 62
     7
  6
Continuous
370
    -3
390
F
347
3E
  0
LAYER
  5
C2
330
2
100
AcDbSymbolTableRecord
100
AcDbLayerTableRecord
  2
Master Guides
 70
     0
 62
     7
  6
Continuous
370
    -3
390
F
347
3E
  0
ENDTAB
  0
TABLE
  2
STYLE
  5
3
330
0
100
AcDbSymbolTable
 70
     1
  0
STYLE
  5
11
330
3
100
AcDbSymbolTableRecord
100
AcDbTextStyleTableRecord
  2
Standard
 70
     0
 40
0.0
 41
1.0
 50
0.0
 71
     0
 42
0.2
  3
txt
  4

  0
ENDTAB
  0
TABLE
  2
VIEW
  5
6
330
0
100
AcDbSymbolTable
 70
     0
  0
ENDTAB
  0
TABLE
  2
UCS
  5
7
330
0
100
AcDbSymbolTable
 70
     0
  0
ENDTAB
  0
TABLE
  2
APPID
  5
9
330
0
100
AcDbSymbolTable
 70
     2
  0
APPID
  5
12
330
9
100
AcDbSymbolTableRecord
100
AcDbRegAppTableRecord
  2
ACAD
 70
     0
  0
APPID
  5
3F
330
9
100
AcDbSymbolTableRecord
100
AcDbRegAppTableRecord
  2
ODA
 70
     0
  0
ENDTAB
  0
TABLE
  2
DIMSTYLE
  5
A
330
0
100
AcDbSymbolTable
 70
     1
100
AcDbDimStyleTable
  0
DIMSTYLE
105
27
330
A
100
AcDbSymbolTableRecord
100
AcDbDimStyleTableRecord
  2
Standard
 70
     0
178
     0
340
11
  0
ENDTAB
  0
TABLE
  2
BLOCK_RECORD
  5
1
330
0
100
AcDbSymbolTable
 70
     1
  0
BLOCK_RECORD
  5
1F
330
1
100
AcDbSymbolTableRecord
100
AcDbBlockTableRecord
  2
*Model_Space
340
22
 70
     0
280
     1
281
     0
  0
BLOCK_RECORD
  5
1B
330
1
100
AcDbSymbolTableRecord
100
AcDbBlockTableRecord
  2
*Paper_Space
340
1E
 70
     0
280
     1
281
     0
  0
BLOCK_RECORD
  5
23
330
1
100
AcDbSymbolTableRecord
100
AcDbBlockTableRecord
  2
*Paper_Space0
340
26
 70
     0
280
     1
281
     0
  0
ENDTAB
  0
ENDSEC
  0
SECTION
  2
BLOCKS
  0
BLOCK
  5
20
330
1F
100
AcDbEntity
  8
0
100
AcDbBlockBegin
  2
*Model_Space
 70
     0
 10
0.0
 20
0.0
 30
0.0
  3
*Model_Space
  1

  0
ENDBLK
  5
21
330
1F
100
AcDbEntity
  8
0
100
AcDbBlockEnd
  0
BLOCK
  5
1C
330
1B
100
AcDbEntity
 67
     1
  8
0
100
AcDbBlockBegin
  2
*Paper_Space
 70
     0
 10
0.0
 20
0.0
 30
0.0
  3
*Paper_Space
  1

  0
ENDBLK
  5
1D
330
1B
100
AcDbEntity
 67
     1
  8
0
100
AcDbBlockEnd
  0
BLOCK
  5
24
330
23
100
AcDbEntity
  8
0
100
AcDbBlockBegin
  2
*Paper_Space0
 70
     0
 10
0.0
 20
0.0
 30
0.0
  3
*Paper_Space0
  1

  0
ENDBLK
  5
25
330
23
100
AcDbEntity
  8
0
100
AcDbBlockEnd
  0
ENDSEC
  0
SECTION
  2
ENTITIES
  0
SPLINE
  5
41
330
1F
100
AcDbEntity
  8
layer 1
100
AcDbSpline
210
0.0
220
0.0
230
1.0
 70
    11
 71
     3
 72
    84
 73
    80
 74
     0
 42
0.0000000001
 43
0.0000000001
 12
1.0
 22
0.0
 32
0.0
 13
1.0
 23
0.0
 33
0.0
 40
0.0
 40
0.0
 40
0.0
 40
0.0
 40
0.0476190476190476
 40
0.0476190476190476
 40
0.0476190476190476
 40
0.0476190476190476
 40
0.0952380952380952
 40
0.0952380952380952
 40
0.0952380952380952
 40
0.0952380952380952
 40
0.1428571428571428
 40
0.1428571428571428
 40
0.1428571428571428
 40
0.1428571428571428
 40
0.1904761904761905
 40
0.1904761904761905
 40
0.1904761904761905
 40
0.1904761904761905
 40
0.2380952380952381
 40
0.2380952380952381
 40
0.2380952380952381
 40
0.2380952380952381
 40
0.2857142857142857
 40
0.2857142857142857
 40
0.2857142857142857
 40
0.2857142857142857
 40
0.3333333333333333
 40
0.3333333333333333
 40
0.3333333333333333
 40
0.3333333333333333
 40
0.3809523809523809
 40
0.3809523809523809
 40
0.3809523809523809
 40
0.3809523809523809
 40
0.4285714285714285
 40
0.4285714285714285
 40
0.4285714285714285
 40
0.4285714285714285
 40
0.4761904761904762
 40
0.4761904761904762
 40
0.4761904761904762
 40
0.4761904761904762
 40
0.5238095238095238
 40
0.5238095238095238
 40
0.5238095238095238
 40
0.5238095238095238
 40
0.5714285714285714
 40
0.5714285714285714
 40
0.5714285714285714
 40
0.5714285714285714
 40
0.6190476190476191
 40
0.6190476190476191
 40
0.6190476190476191
 40
0.6190476190476191
 40
0.6666666666666666
 40
0.6666666666666666
 40
0.6666666666666666
 40
0.6666666666666666
 40
0.7142857142857143
 40
0.7142857142857143
 40
0.7142857142857143
 40
0.7142857142857143
 40
0.7619047619047619
 40
0.7619047619047619
 40
0.7619047619047619
 40
0.7619047619047619
 40
0.8095238095238095
 40
0.8095238095238095
 40
0.8095238095238095
 40
0.8095238095238095
 40
0.8571428571428571
 40
0.8571428571428571
 40
0.8571428571428571
 40
0.8571428571428571
 40
0.9047619047619048
 40
0.9047619047619048
 40
0.9047619047619048
 40
0.9047619047619048
 40
1.0
 40
1.0
 40
1.0
 40
1.0
 10
28.3493
 20
-114.352
 30
0.0
 10
28.3493
 20
-114.352
 30
0.0
 10
25.2954
 20
-114.3154
 30
0.0
 10
25.2954
 20
-114.3154
 30
0.0
 10
25.2954
 20
-114.3154
 30
0.0
 10
25.2954
 20
-114.3154
 30
0.0
 10
25.2954
 20
-102.2702
 30
0.0
 10
25.2954
 20
-102.2702
 30
0.0
 10
25.2954
 20
-102.2702
 30
0.0
 10
23.9679
 20
-102.2604
 30
0.0
 10
23.6484
 20
-102.3147
 30
0.0
 10
21.5114
 20
-102.2753
 30
0.0
 10
21.5114
 20
-102.2753
 30
0.0
 10
20.7153
 20
-108.959
 30
0.0
 10
16.4185
 20
-114.7243
 30
0.0
 10
3.2923
 20
-114.7672
 30
0.0
 10
3.2923
 20
-114.7672
 30
0.0
 10
-10.0374
 20
-114.9261
 30
0.0
 10
-14.1324
 20
-108.959
 30
0.0
 10
-14.9287
 20
-102.2753
 30
0.0
 10
-14.9287
 20
-102.2753
 30
0.0
 10
-17.0655
 20
-102.3147
 30
0.0
 10
-17.385
 20
-102.2604
 30
0.0
 10
-18.7127
 20
-102.2702
 30
0.0
 10
-18.7127
 20
-102.2702
 30
0.0
 10
-18.7127
 20
-102.2702
 30
0.0
 10
-18.7127
 20
-114.3154
 30
0.0
 10
-18.7127
 20
-114.3154
 30
0.0
 10
-18.7127
 20
-114.3154
 30
0.0
 10
-18.7127
 20
-114.3154
 30
0.0
 10
-21.7665
 20
-114.352
 30
0.0
 10
-21.7665
 20
-114.352
 30
0.0
 10
-21.7665
 20
-114.352
 30
0.0
 10
-21.7665
 20
-114.352
 30
0.0
 10
-21.7267
 20
8.7068
 30
0.0
 10
-21.7267
 20
8.7068
 30
0.0
 10
-21.7267
 20
8.7068
 30
0.0
 10
-21.7267
 20
8.7068
 30
0.0
 10
-21.7665
 20
131.766
 30
0.0
 10
-21.7665
 20
131.766
 30
0.0
 10
-21.7665
 20
131.766
 30
0.0
 10
-21.7665
 20
131.766
 30
0.0
 10
-18.7127
 20
131.7312
 30
0.0
 10
-18.7127
 20
131.7312
 30
0.0
 10
-18.7127
 20
131.7312
 30
0.0
 10
-18.7127
 20
131.7312
 30
0.0
 10
-18.7127
 20
119.686
 30
0.0
 10
-18.7127
 20
119.686
 30
0.0
 10
-18.7127
 20
119.686
 30
0.0
 10
-17.385
 20
119.6758
 30
0.0
 10
-17.0655
 20
119.7303
 30
0.0
 10
-14.9287
 20
119.6909
 30
0.0
 10
-14.9287
 20
119.6909
 30
0.0
 10
-14.1324
 20
126.3729
 30
0.0
 10
-10.0373
 20
132.34
 30
0.0
 10
3.2923
 20
132.1828
 30
0.0
 10
3.2923
 20
132.1828
 30
0.0
 10
16.4185
 20
132.1384
 30
0.0
 10
20.7153
 20
126.3729
 30
0.0
 10
21.5114
 20
119.6909
 30
0.0
 10
21.5114
 20
119.6909
 30
0.0
 10
23.6484
 20
119.7304
 30
0.0
 10
23.9679
 20
119.6756
 30
0.0
 10
25.2954
 20
119.6859
 30
0.0
 10
25.2954
 20
119.6859
 30
0.0
 10
25.2954
 20
119.6859
 30
0.0
 10
25.2954
 20
131.7312
 30
0.0
 10
25.2954
 20
131.7312
 30
0.0
 10
25.2954
 20
131.7312
 30
0.0
 10
25.2954
 20
131.7312
 30
0.0
 10
28.3493
 20
131.766
 30
0.0
 10
28.3493
 20
131.766
 30
0.0
 10
28.3493
 20
131.766
 30
0.0
 10
28.3493
 20
131.766
 30
0.0
 10
28.3095
 20
8.7068
 30
0.0
 10
28.3095
 20
8.7068
 30
0.0
 10
28.3095
 20
8.7068
 30
0.0
 10
28.3095
 20
8.7068
 30
0.0
 10
28.3493
 20
-114.352
 30
0.0
 10
28.3493
 20
-114.352
 30
0.0
  0
SPLINE
  5
42
330
1F
100
AcDbEntity
  8
layer 1
 62
     7
100
AcDbSpline
210
0.0
220
0.0
230
1.0
 70
    11
 71
     3
 72
    40
 73
    36
 74
     0
 42
0.0000000001
 43
0.0000000001
 12
1.0
 22
0.0
 32
0.0
 13
1.0
 23
0.0
 33
0.0
 40
0.0
 40
0.0
 40
0.0
 40
0.0
 40
0.1
 40
0.1
 40
0.1
 40
0.1
 40
0.2
 40
0.2
 40
0.2
 40
0.2
 40
0.3
 40
0.3
 40
0.3
 40
0.3
 40
0.4
 40
0.4
 40
0.4
 40
0.4
 40
0.5
 40
0.5
 40
0.5
 40
0.5
 40
0.6
 40
0.6
 40
0.6
 40
0.6
 40
0.7
 40
0.7
 40
0.7
 40
0.7
 40
0.8
 40
0.8
 40
0.8
 40
0.8
 40
1.0
 40
1.0
 40
1.0
 40
1.0
 10
-8.7924
 20
1.6227
 30
0.0
 10
-10.3136
 20
1.6956
 30
0.0
 10
-11.5286
 20
0.9985
 30
0.0
 10
-11.6942
 20
0.5035
 30
0.0
 10
-11.6942
 20
0.5035
 30
0.0
 10
-11.2374
 20
-0.1833
 30
0.0
 10
-9.9047
 20
-0.43
 30
0.0
 10
-9.4018
 20
-0.5261
 30
0.0
 10
-9.4018
 20
-0.5261
 30
0.0
 10
-10.4395
 20
-1.2575
 30
0.0
 10
-10.6133
 20
-3.2338
 30
0.0
 10
-10.398
 20
-4.0432
 30
0.0
 10
-10.398
 20
-4.0432
 30
0.0
 10
-13.4637
 20
-0.9515
 30
0.0
 10
-15.3803
 20
3.6918
 30
0.0
 10
-15.5045
 20
8.1606
 30
0.0
 10
-15.5045
 20
8.1606
 30
0.0
 10
-15.1206
 20
7.4623
 30
0.0
 10
-14.0595
 20
6.6644
 30
0.0
 10
-12.8116
 20
6.8944
 30
0.0
 10
-12.8116
 20
6.8944
 30
0.0
 10
-13.0946
 20
6.4673
 30
0.0
 10
-13.51
 20
5.4244
 30
0.0
 10
-13.3395
 20
4.6168
 30
0.0
 10
-13.3395
 20
4.6168
 30
0.0
 10
-12.871
 20
4.3884
 30
0.0
 10
-11.4179
 20
4.5952
 30
0.0
 10
-10.4047
 20
5.7359
 30
0.0
 10
-10.4047
 20
5.7359
 30
0.0
 10
-11.0421
 20
4.5457
 30
0.0
 10
-10.2908
 20
3.6105
 30
0.0
 10
-9.1119
 20
3.8837
 30
0.0
 10
-9.1119
 20
3.8837
 30
0.0
 10
-10.2294
 20
3.1919
 30
0.0
 10
-10.0869
 20
1.9981
 30
0.0
 10
-8.7924
 20
1.6227
 30
0.0
  0
SPLINE
  5
43
330
1F
100
AcDbEntity
  8
layer 1
 62
     7
100
AcDbSpline
210
0.0
220
0.0
230
1.0
 70
    11
 71
     3
 72
    16
 73
    12
 74
     0
 42
0.0000000001
 43
0.0000000001
 12
1.0
 22
0.0
 32
0.0
 13
1.0
 23
0.0
 33
0.0
 40
0.0
 40
0.0
 40
0.0
 40
0.0
 40
0.25
 40
0.25
 40
0.25
 40
0.25
 40
0.5
 40
0.5
 40
0.5
 40
0.5
 40
1.0
 40
1.0
 40
1.0
 40
1.0
 10
-6.2436
 20
3.7977
 30
0.0
 10
-4.3681
 20
4.7495
 30
0.0
 10
-0.8506
 20
7.4657
 30
0.0
 10
-0.1854
 20
8.0712
 30
0.0
 10
-0.1854
 20
8.0712
 30
0.0
 10
-3.8333
 20
7.525
 30
0.0
 10
-6.3758
 20
6.4279
 30
0.0
 10
-7.7267
 20
5.6164
 30
0.0
 10
-7.7267
 20
5.6164
 30
0.0
 10
-9.1255
 20
4.7012
 30
0.0
 10
-8.5013
 20
2.8854
 30
0.0
 10
-6.2436
 20
3.7977
 30
0.0
  0
SPLINE
  5
44
330
1F
100
AcDbEntity
  8
layer 1
 62
     7
100
AcDbSpline
210
0.0
220
0.0
230
1.0
 70
    11
 71
     3
 72
    20
 73
    16
 74
     0
 42
0.0000000001
 43
0.0000000001
 12
1.0
 22
0.0
 32
0.0
 13
1.0
 23
0.0
 33
0.0
 40
0.0
 40
0.0
 40
0.0
 40
0.0
 40
0.2
 40
0.2
 40
0.2
 40
0.2
 40
0.4
 40
0.4
 40
0.4
 40
0.4
 40
0.6
 40
0.6
 40
0.6
 40
0.6
 40
1.0
 40
1.0
 40
1.0
 40
1.0
 10
-5.6211
 20
0.0764
 30
0.0
 10
-4.408
 20
-0.1172
 30
0.0
 10
-1.955
 20
3.8854
 30
0.0
 10
-0.4451
 20
5.4957
 30
0.0
 10
-0.4451
 20
5.4957
 30
0.0
 10
-3.9741
 20
2.6985
 30
0.0
 10
-5.9737
 20
1.2998
 30
0.0
 10
-5.7982
 20
0.2866
 30
0.0
 10
-5.7982
 20
0.2866
 30
0.0
 10
-7.6869
 20
0.2502
 30
0.0
 10
-9.0526
 20
-2.1466
 30
0.0
 10
-8.5941
 20
-2.5935
 30
0.0
 10
-8.5941
 20
-2.5935
 30
0.0
 10
-8.2445
 20
-2.9325
 30
0.0
 10
-5.6029
 20
-1.9062
 30
0.0
 10
-5.6211
 20
0.0764
 30
0.0
  0
SPLINE
  5
45
330
1F
100
AcDbEntity
  8
layer 1
 62
     7
100
AcDbSpline
210
0.0
220
0.0
230
1.0
 70
    11
 71
     3
 72
    40
 73
    36
 74
     0
 42
0.0000000001
 43
0.0000000001
 12
1.0
 22
0.0
 32
0.0
 13
1.0
 23
0.0
 33
0.0
 40
0.0
 40
0.0
 40
0.0
 40
0.0
 40
0.1
 40
0.1
 40
0.1
 40
0.1
 40
0.2
 40
0.2
 40
0.2
 40
0.2
 40
0.3
 40
0.3
 40
0.3
 40
0.3
 40
0.4
 40
0.4
 40
0.4
 40
0.4
 40
0.5
 40
0.5
 40
0.5
 40
0.5
 40
0.6
 40
0.6
 40
0.6
 40
0.6
 40
0.7
 40
0.7
 40
0.7
 40
0.7
 40
0.8
 40
0.8
 40
0.8
 40
0.8
 40
1.0
 40
1.0
 40
1.0
 40
1.0
 10
-8.7924
 20
15.7765
 30
0.0
 10
-10.3136
 20
15.7037
 30
0.0
 10
-11.5286
 20
16.4006
 30
0.0
 10
-11.6942
 20
16.8956
 30
0.0
 10
-11.6942
 20
16.8956
 30
0.0
 10
-11.2374
 20
17.5825
 30
0.0
 10
-9.9047
 20
17.829
 30
0.0
 10
-9.4018
 20
17.9249
 30
0.0
 10
-9.4018
 20
17.9249
 30
0.0
 10
-10.4395
 20
18.6566
 30
0.0
 10
-10.6133
 20
20.633
 30
0.0
 10
-10.398
 20
21.4423
 30
0.0
 10
-10.398
 20
21.4423
 30
0.0
 10
-13.4637
 20
18.3503
 30
0.0
 10
-15.3803
 20
13.7074
 30
0.0
 10
-15.5045
 20
9.2381
 30
0.0
 10
-15.5045
 20
9.2381
 30
0.0
 10
-15.1206
 20
9.9369
 30
0.0
 10
-14.0595
 20
10.7348
 30
0.0
 10
-12.8116
 20
10.5047
 30
0.0
 10
-12.8116
 20
10.5047
 30
0.0
 10
-13.0946
 20
10.9315
 30
0.0
 10
-13.51
 20
11.9742
 30
0.0
 10
-13.3395
 20
12.7824
 30
0.0
 10
-13.3395
 20
12.7824
 30
0.0
 10
-12.871
 20
13.0107
 30
0.0
 10
-11.4179
 20
12.8035
 30
0.0
 10
-10.4047
 20
11.6632
 30
0.0
 10
-10.4047
 20
11.6632
 30
0.0
 10
-11.0421
 20
12.8536
 30
0.0
 10
-10.2908
 20
13.7887
 30
0.0
 10
-9.1119
 20
13.5154
 30
0.0
 10
-9.1119
 20
13.5154
 30
0.0
 10
-10.2294
 20
14.2074
 30
0.0
 10
-10.0869
 20
15.4006
 30
0.0
 10
-8.7924
 20
15.7765
 30
0.0
  0
SPLINE
  5
46
330
1F
100
AcDbEntity
  8
layer 1
 62
     7
100
AcDbSpline
210
0.0
220
0.0
230
1.0
 70
    11
 71
     3
 72
    16
 73
    12
 74
     0
 42
0.0000000001
 43
0.0000000001
 12
1.0
 22
0.0
 32
0.0
 13
1.0
 23
0.0
 33
0.0
 40
0.0
 40
0.0
 40
0.0
 40
0.0
 40
0.25
 40
0.25
 40
0.25
 40
0.25
 40
0.5
 40
0.5
 40
0.5
 40
0.5
 40
1.0
 40
1.0
 40
1.0
 40
1.0
 10
-6.2436
 20
13.6014
 30
0.0
 10
-4.3681
 20
12.6498
 30
0.0
 10
-0.8506
 20
9.9335
 30
0.0
 10
-0.1854
 20
9.3276
 30
0.0
 10
-0.1854
 20
9.3276
 30
0.0
 10
-3.8333
 20
9.8738
 30
0.0
 10
-6.3758
 20
10.9713
 30
0.0
 10
-7.7267
 20
11.7823
 30
0.0
 10
-7.7267
 20
11.7823
 30
0.0
 10
-9.1255
 20
12.6977
 30
0.0
 10
-8.5013
 20
14.5137
 30
0.0
 10
-6.2436
 20
13.6014
 30
0.0
  0
SPLINE
  5
47
330
1F
100
AcDbEntity
  8
layer 1
 62
     7
100
AcDbSpline
210
0.0
220
0.0
230
1.0
 70
    11
 71
     3
 72
    20
 73
    16
 74
     0
 42
0.0000000001
 43
0.0000000001
 12
1.0
 22
0.0
 32
0.0
 13
1.0
 23
0.0
 33
0.0
 40
0.0
 40
0.0
 40
0.0
 40
0.0
 40
0.2
 40
0.2
 40
0.2
 40
0.2
 40
0.4
 40
0.4
 40
0.4
 40
0.4
 40
0.6
 40
0.6
 40
0.6
 40
0.6
 40
1.0
 40
1.0
 40
1.0
 40
1.0
 10
-5.6211
 20
17.3224
 30
0.0
 10
-4.408
 20
17.5164
 30
0.0
 10
-1.955
 20
13.5136
 30
0.0
 10
-0.4451
 20
11.903
 30
0.0
 10
-0.4451
 20
11.903
 30
0.0
 10
-3.9741
 20
14.7007
 30
0.0
 10
-5.9737
 20
16.0994
 30
0.0
 10
-5.7982
 20
17.1121
 30
0.0
 10
-5.7982
 20
17.1121
 30
0.0
 10
-7.6869
 20
17.1486
 30
0.0
 10
-9.0526
 20
19.5456
 30
0.0
 10
-8.5941
 20
19.9923
 30
0.0
 10
-8.5941
 20
19.9923
 30
0.0
 10
-8.2445
 20
20.3318
 30
0.0
 10
-5.6029
 20
19.3054
 30
0.0
 10
-5.6211
 20
17.3224
 30
0.0
  0
SPLINE
  5
48
330
1F
100
AcDbEntity
  8
layer 1
 62
     7
100
AcDbSpline
210
0.0
220
0.0
230
1.0
 70
    11
 71
     3
 72
    40
 73
    36
 74
     0
 42
0.0000000001
 43
0.0000000001
 12
1.0
 22
0.0
 32
0.0
 13
1.0
 23
0.0
 33
0.0
 40
0.0
 40
0.0
 40
0.0
 40
0.0
 40
0.1
 40
0.1
 40
0.1
 40
0.1
 40
0.2
 40
0.2
 40
0.2
 40
0.2
 40
0.3
 40
0.3
 40
0.3
 40
0.3
 40
0.4
 40
0.4
 40
0.4
 40
0.4
 40
0.5
 40
0.5
 40
0.5
 40
0.5
 40
0.6
 40
0.6
 40
0.6
 40
0.6
 40
0.7
 40
0.7
 40
0.7
 40
0.7
 40
0.8
 40
0.8
 40
0.8
 40
0.8
 40
1.0
 40
1.0
 40
1.0
 40
1.0
 10
0.0561
 20
-4.8393
 30
0.0
 10
-1.0426
 20
-5.8954
 30
0.0
 10
-1.374
 20
-7.2577
 30
0.0
 10
-1.1286
 20
-7.7179
 30
0.0
 10
-1.1286
 20
-7.7179
 30
0.0
 10
-0.3159
 20
-7.8585
 30
0.0
 10
0.7783
 20
-7.0594
 30
0.0
 10
1.1935
 20
-6.7598
 30
0.0
 10
1.1935
 20
-6.7598
 30
0.0
 10
1.0113
 20
-8.0175
 30
0.0
 10
2.3223
 20
-9.5039
 30
0.0
 10
3.0571
 20
-9.9031
 30
0.0
 10
3.0571
 20
-9.9031
 30
0.0
 10
-1.291
 20
-10.0039
 30
0.0
 10
-5.9754
 20
-8.2047
 30
0.0
 10
-9.2975
 20
-5.222
 30
0.0
 10
-9.2975
 20
-5.222
 30
0.0
 10
-8.5276
 20
-5.4237
 30
0.0
 10
-7.2199
 20
-5.2004
 30
0.0
 10
-6.5284
 20
-4.1342
 30
0.0
 10
-6.5284
 20
-4.1342
 30
0.0
 10
-6.4139
 20
-4.6343
 30
0.0
 10
-5.944
 20
-5.6538
 30
0.0
 10
-5.2406
 20
-6.0843
 30
0.0
 10
-5.2406
 20
-6.0843
 30
0.0
 10
-4.7538
 20
-5.9021
 30
0.0
 10
-3.9046
 20
-4.7021
 30
0.0
 10
-4.0338
 20
-3.1826
 30
0.0
 10
-4.0338
 20
-3.1826
 30
0.0
 10
-3.61
 20
-4.464
 30
0.0
 10
-2.4151
 20
-4.5614
 30
0.0
 10
-1.8024
 20
-3.5152
 30
0.0
 10
-1.8024
 20
-3.5152
 30
0.0
 10
-2.0672
 20
-4.8046
 30
0.0
 10
-1.1074
 20
-5.5216
 30
0.0
 10
0.0561
 20
-4.8393
 30
0.0
  0
SPLINE
  5
49
330
1F
100
AcDbEntity
  8
layer 1
 62
     7
100
AcDbSpline
210
0.0
220
0.0
230
1.0
 70
    11
 71
     3
 72
    16
 73
    12
 74
     0
 42
0.0000000001
 43
0.0000000001
 12
1.0
 22
0.0
 32
0.0
 13
1.0
 23
0.0
 33
0.0
 40
0.0
 40
0.0
 40
0.0
 40
0.0
 40
0.25
 40
0.25
 40
0.25
 40
0.25
 40
0.5
 40
0.5
 40
0.5
 40
0.5
 40
1.0
 40
1.0
 40
1.0
 40
1.0
 10
0.0879
 20
-1.2625
 30
0.0
 10
0.8871
 20
0.6874
 30
0.0
 10
1.7795
 20
5.0439
 30
0.0
 10
1.8888
 20
5.9376
 30
0.0
 10
1.8888
 20
5.9376
 30
0.0
 10
-0.518
 20
3.1372
 30
0.0
 10
-1.7278
 20
0.6442
 30
0.0
 10
-2.2215
 20
-0.8536
 30
0.0
 10
-2.2215
 20
-0.8536
 30
0.0
 10
-2.6846
 20
-2.4609
 30
0.0
 10
-1.0278
 20
-3.4292
 30
0.0
 10
0.0879
 20
-1.2625
 30
0.0
  0
SPLINE
  5
4A
330
1F
100
AcDbEntity
  8
layer 1
 62
     7
100
AcDbSpline
210
0.0
220
0.0
230
1.0
 70
    11
 71
     3
 72
    20
 73
    16
 74
     0
 42
0.0000000001
 43
0.0000000001
 12
1.0
 22
0.0
 32
0.0
 13
1.0
 23
0.0
 33
0.0
 40
0.0
 40
0.0
 40
0.0
 40
0.0
 40
0.2
 40
0.2
 40
0.2
 40
0.2
 40
0.4
 40
0.4
 40
0.4
 40
0.4
 40
0.6
 40
0.6
 40
0.6
 40
0.6
 40
1.0
 40
1.0
 40
1.0
 40
1.0
 10
3.3583
 20
-3.5965
 30
0.0
 10
4.3334
 20
-2.8482
 30
0.0
 10
3.4232
 20
1.7947
 30
0.0
 10
3.2923
 20
3.9994
 30
0.0
 10
3.2923
 20
3.9994
 30
0.0
 10
2.6583
 20
-0.3338
 30
0.0
 10
2.2295
 20
-3.0122
 30
0.0
 10
3.0838
 20
-3.5817
 30
0.0
 10
3.0838
 20
-3.5817
 30
0.0
 10
1.8126
 20
-4.9783
 30
0.0
 10
2.6088
 20
-7.6204
 30
0.0
 10
3.2478
 20
-7.5937
 30
0.0
 10
3.2478
 20
-7.5937
 30
0.0
 10
3.7342
 20
-7.5737
 30
0.0
 10
4.8084
 20
-4.9471
 30
0.0
 10
3.3583
 20
-3.5965
 30
0.0
  0
SPLINE
  5
4B
330
1F
100
AcDbEntity
  8
layer 1
 62
     7
100
AcDbSpline
210
0.0
220
0.0
230
1.0
 70
    11
 71
     3
 72
    40
 73
    36
 74
     0
 42
0.0000000001
 43
0.0000000001
 12
1.0
 22
0.0
 32
0.0
 13
1.0
 23
0.0
 33
0.0
 40
0.0
 40
0.0
 40
0.0
 40
0.0
 40
0.1
 40
0.1
 40
0.1
 40
0.1
 40
0.2
 40
0.2
 40
0.2
 40
0.2
 40
0.3
 40
0.3
 40
0.3
 40
0.3
 40
0.4
 40
0.4
 40
0.4
 40
0.4
 40
0.5
 40
0.5
 40
0.5
 40
0.5
 40
0.6
 40
0.6
 40
0.6
 40
0.6
 40
0.7
 40
0.7
 40
0.7
 40
0.7
 40
0.8
 40
0.8
 40
0.8
 40
0.8
 40
1.0
 40
1.0
 40
1.0
 40
1.0
 10
-0.015
 20
22.1707
 30
0.0
 10
-1.1155
 20
23.2251
 30
0.0
 10
-1.4498
 20
24.5856
 30
0.0
 10
-1.2049
 20
25.0475
 30
0.0
 10
-1.2049
 20
25.0475
 30
0.0
 10
-0.3938
 20
25.1899
 30
0.0
 10
0.7037
 20
24.3937
 30
0.0
 10
1.1189
 20
24.0941
 30
0.0
 10
1.1189
 20
24.0941
 30
0.0
 10
0.9337
 20
25.3522
 30
0.0
 10
2.2431
 20
26.84
 30
0.0
 10
2.9761
 20
27.2425
 30
0.0
 10
2.9761
 20
27.2425
 30
0.0
 10
-1.374
 20
27.3333
 30
0.0
 10
-6.0533
 20
25.5259
 30
0.0
 10
-9.3688
 20
22.5347
 30
0.0
 10
-9.3688
 20
22.5347
 30
0.0
 10
-8.6005
 20
22.7386
 30
0.0
 10
-7.2928
 20
22.5182
 30
0.0
 10
-6.5978
 20
21.4524
 30
0.0
 10
-6.5978
 20
21.4524
 30
0.0
 10
-6.4851
 20
21.9521
 30
0.0
 10
-6.0169
 20
22.9733
 30
0.0
 10
-5.313
 20
23.4055
 30
0.0
 10
-5.313
 20
23.4055
 30
0.0
 10
-4.8266
 20
23.2233
 30
0.0
 10
-3.974
 20
22.0267
 30
0.0
 10
-4.0999
 20
20.5054
 30
0.0
 10
-4.0999
 20
20.5054
 30
0.0
 10
-3.6796
 20
21.7885
 30
0.0
 10
-2.4846
 20
21.8876
 30
0.0
 10
-1.8702
 20
20.8432
 30
0.0
 10
-1.8702
 20
20.8432
 30
0.0
 10
-2.1384
 20
22.1325
 30
0.0
 10
-1.1787
 20
22.8508
 30
0.0
 10
-0.015
 20
22.1707
 30
0.0
  0
SPLINE
  5
4C
330
1F
100
AcDbEntity
  8
layer 1
 62
     7
100
AcDbSpline
210
0.0
220
0.0
230
1.0
 70
    11
 71
     3
 72
    16
 73
    12
 74
     0
 42
0.0000000001
 43
0.0000000001
 12
1.0
 22
0.0
 32
0.0
 13
1.0
 23
0.0
 33
0.0
 40
0.0
 40
0.0
 40
0.0
 40
0.0
 40
0.25
 40
0.25
 40
0.25
 40
0.25
 40
0.5
 40
0.5
 40
0.5
 40
0.5
 40
1.0
 40
1.0
 40
1.0
 40
1.0
 10
0.3443
 20
18.4346
 30
0.0
 10
1.0892
 20
16.4651
 30
0.0
 10
1.8605
 20
12.0835
 30
0.0
 10
1.9448
 20
11.1882
 30
0.0
 10
1.9448
 20
11.1882
 30
0.0
 10
-0.3841
 20
14.0552
 30
0.0
 10
-1.5227
 20
16.5808
 30
0.0
 10
-1.9748
 20
18.0922
 30
0.0
 10
-1.9748
 20
18.0922
 30
0.0
 10
-2.3918
 20
19.7127
 30
0.0
 10
-0.71
 20
20.633
 30
0.0
 10
0.3443
 20
18.4346
 30
0.0
  0
SPLINE
  5
4D
330
1F
100
AcDbEntity
  8
layer 1
 62
     7
100
AcDbSpline
210
0.0
220
0.0
230
1.0
 70
    11
 71
     3
 72
    20
 73
    16
 74
     0
 42
0.0000000001
 43
0.0000000001
 12
1.0
 22
0.0
 32
0.0
 13
1.0
 23
0.0
 33
0.0
 40
0.0
 40
0.0
 40
0.0
 40
0.0
 40
0.2
 40
0.2
 40
0.2
 40
0.2
 40
0.4
 40
0.4
 40
0.4
 40
0.4
 40
0.6
 40
0.6
 40
0.6
 40
0.6
 40
1.0
 40
1.0
 40
1.0
 40
1.0
 10
3.4415
 20
20.944
 30
0.0
 10
4.4342
 20
20.2208
 30
0.0
 10
3.3436
 20
15.6523
 30
0.0
 10
3.274
 20
13.4459
 30
0.0
 10
3.274
 20
13.4459
 30
0.0
 10
2.7545
 20
17.9232
 30
0.0
 10
2.3274
 20
20.3283
 30
0.0
 10
3.1664
 20
20.9212
 30
0.0
 10
3.1664
 20
20.9212
 30
0.0
 10
1.857
 20
22.2835
 30
0.0
 10
2.5837
 20
24.9449
 30
0.0
 10
3.2227
 20
24.9365
 30
0.0
 10
3.2227
 20
24.9365
 30
0.0
 10
3.7097
 20
24.9285
 30
0.0
 10
4.8533
 20
22.333
 30
0.0
 10
3.4415
 20
20.944
 30
0.0
  0
SPLINE
  5
4E
330
1F
100
AcDbEntity
  8
layer 1
 62
     7
100
AcDbSpline
210
0.0
220
0.0
230
1.0
 70
    11
 71
     3
 72
    40
 73
    36
 74
     0
 42
0.0000000001
 43
0.0000000001
 12
1.0
 22
0.0
 32
0.0
 13
1.0
 23
0.0
 33
0.0
 40
0.0
 40
0.0
 40
0.0
 40
0.0
 40
0.1
 40
0.1
 40
0.1
 40
0.1
 40
0.2
 40
0.2
 40
0.2
 40
0.2
 40
0.3
 40
0.3
 40
0.3
 40
0.3
 40
0.4
 40
0.4
 40
0.4
 40
0.4
 40
0.5
 40
0.5
 40
0.5
 40
0.5
 40
0.6
 40
0.6
 40
0.6
 40
0.6
 40
0.7
 40
0.7
 40
0.7
 40
0.7
 40
0.8
 40
0.8
 40
0.8
 40
0.8
 40
1.0
 40
1.0
 40
1.0
 40
1.0
 10
15.374
 20
1.6607
 30
0.0
 10
16.8969
 20
1.7333
 30
0.0
 10
18.1101
 20
1.0366
 30
0.0
 10
18.2757
 20
0.5417
 30
0.0
 10
18.2757
 20
0.5417
 30
0.0
 10
17.8186
 20
-0.1452
 30
0.0
 10
16.4863
 20
-0.3918
 30
0.0
 10
15.9828
 20
-0.488
 30
0.0
 10
15.9828
 20
-0.488
 30
0.0
 10
17.021
 20
-1.2194
 30
0.0
 10
17.1948
 20
-3.1957
 30
0.0
 10
16.9796
 20
-4.0055
 30
0.0
 10
16.9796
 20
-4.0055
 30
0.0
 10
20.0449
 20
-0.9117
 30
0.0
 10
21.9635
 20
3.7312
 30
0.0
 10
22.086
 20
8.1988
 30
0.0
 10
22.086
 20
8.1988
 30
0.0
 10
21.7017
 20
7.5004
 30
0.0
 10
20.6424
 20
6.7025
 30
0.0
 10
19.3927
 20
6.9326
 30
0.0
 10
19.3927
 20
6.9326
 30
0.0
 10
19.6758
 20
6.5055
 30
0.0
 10
20.0915
 20
5.4626
 30
0.0
 10
19.9207
 20
4.655
 30
0.0
 10
19.9207
 20
4.655
 30
0.0
 10
19.4525
 20
4.4266
 30
0.0
 10
17.999
 20
4.635
 30
0.0
 10
16.9863
 20
5.7741
 30
0.0
 10
16.9863
 20
5.7741
 30
0.0
 10
17.6231
 20
4.5838
 30
0.0
 10
16.8719
 20
3.6485
 30
0.0
 10
15.6935
 20
3.9214
 30
0.0
 10
15.6935
 20
3.9214
 30
0.0
 10
16.8109
 20
3.2299
 30
0.0
 10
16.6685
 20
2.0362
 30
0.0
 10
15.374
 20
1.6607
 30
0.0
  0
SPLINE
  5
4F
330
1F
100
AcDbEntity
  8
layer 1
 62
     7
100
AcDbSpline
210
0.0
220
0.0
230
1.0
 70
    11
 71
     3
 72
    16
 73
    12
 74
     0
 42
0.0000000001
 43
0.0000000001
 12
1.0
 22
0.0
 32
0.0
 13
1.0
 23
0.0
 33
0.0
 40
0.0
 40
0.0
 40
0.0
 40
0.0
 40
0.25
 40
0.25
 40
0.25
 40
0.25
 40
0.5
 40
0.5
 40
0.5
 40
0.5
 40
1.0
 40
1.0
 40
1.0
 40
1.0
 10
12.8248
 20
3.8354
 30
0.0
 10
10.9493
 20
4.7872
 30
0.0
 10
7.4322
 20
7.5038
 30
0.0
 10
6.7665
 20
8.1093
 30
0.0
 10
6.7665
 20
8.1093
 30
0.0
 10
10.4149
 20
7.5631
 30
0.0
 10
12.9574
 20
6.4673
 30
0.0
 10
14.3078
 20
5.6546
 30
0.0
 10
14.3078
 20
5.6546
 30
0.0
 10
15.7066
 20
4.7393
 30
0.0
 10
15.0825
 20
2.9235
 30
0.0
 10
12.8248
 20
3.8354
 30
0.0
  0
SPLINE
  5
50
330
1F
100
AcDbEntity
  8
layer 1
 62
     7
100
AcDbSpline
210
0.0
220
0.0
230
1.0
 70
    11
 71
     3
 72
    20
 73
    16
 74
     0
 42
0.0000000001
 43
0.0000000001
 12
1.0
 22
0.0
 32
0.0
 13
1.0
 23
0.0
 33
0.0
 40
0.0
 40
0.0
 40
0.0
 40
0.0
 40
0.2
 40
0.2
 40
0.2
 40
0.2
 40
0.4
 40
0.4
 40
0.4
 40
0.4
 40
0.6
 40
0.6
 40
0.6
 40
0.6
 40
1.0
 40
1.0
 40
1.0
 40
1.0
 10
12.2027
 20
0.1146
 30
0.0
 10
10.989
 20
-0.079
 30
0.0
 10
8.536
 20
3.9231
 30
0.0
 10
7.0283
 20
5.5337
 30
0.0
 10
7.0283
 20
5.5337
 30
0.0
 10
10.5555
 20
2.7367
 30
0.0
 10
12.5552
 20
1.3379
 30
0.0
 10
12.3794
 20
0.3247
 30
0.0
 10
12.3794
 20
0.3247
 30
0.0
 10
14.2684
 20
0.2883
 30
0.0
 10
15.6337
 20
-2.1084
 30
0.0
 10
15.1752
 20
-2.5554
 30
0.0
 10
15.1752
 20
-2.5554
 30
0.0
 10
14.8261
 20
-2.8944
 30
0.0
 10
12.1844
 20
-1.8685
 30
0.0
 10
12.2027
 20
0.1146
 30
0.0
  0
SPLINE
  5
51
330
1F
100
AcDbEntity
  8
layer 1
 62
     7
100
AcDbSpline
210
0.0
220
0.0
230
1.0
 70
    11
 71
     3
 72
    40
 73
    36
 74
     0
 42
0.0000000001
 43
0.0000000001
 12
1.0
 22
0.0
 32
0.0
 13
1.0
 23
0.0
 33
0.0
 40
0.0
 40
0.0
 40
0.0
 40
0.0
 40
0.1
 40
0.1
 40
0.1
 40
0.1
 40
0.2
 40
0.2
 40
0.2
 40
0.2
 40
0.3
 40
0.3
 40
0.3
 40
0.3
 40
0.4
 40
0.4
 40
0.4
 40
0.4
 40
0.5
 40
0.5
 40
0.5
 40
0.5
 40
0.6
 40
0.6
 40
0.6
 40
0.6
 40
0.7
 40
0.7
 40
0.7
 40
0.7
 40
0.8
 40
0.8
 40
0.8
 40
0.8
 40
1.0
 40
1.0
 40
1.0
 40
1.0
 10
15.374
 20
15.8147
 30
0.0
 10
16.8969
 20
15.7435
 30
0.0
 10
18.1101
 20
16.4388
 30
0.0
 10
18.2757
 20
16.9337
 30
0.0
 10
18.2757
 20
16.9337
 30
0.0
 10
17.8186
 20
17.6206
 30
0.0
 10
16.4863
 20
17.8672
 30
0.0
 10
15.9828
 20
17.963
 30
0.0
 10
15.9828
 20
17.963
 30
0.0
 10
17.021
 20
18.6965
 30
0.0
 10
17.1948
 20
20.6711
 30
0.0
 10
16.9796
 20
21.4804
 30
0.0
 10
16.9796
 20
21.4804
 30
0.0
 10
20.0449
 20
18.3885
 30
0.0
 10
21.9635
 20
13.7455
 30
0.0
 10
22.086
 20
9.278
 30
0.0
 10
22.086
 20
9.278
 30
0.0
 10
21.7017
 20
9.9767
 30
0.0
 10
20.6424
 20
10.7725
 30
0.0
 10
19.3927
 20
10.5425
 30
0.0
 10
19.3927
 20
10.5425
 30
0.0
 10
19.6758
 20
10.9696
 30
0.0
 10
20.0915
 20
12.0124
 30
0.0
 10
19.9207
 20
12.8201
 30
0.0
 10
19.9207
 20
12.8201
 30
0.0
 10
19.4525
 20
13.0489
 30
0.0
 10
17.999
 20
12.8417
 30
0.0
 10
16.9863
 20
11.7013
 30
0.0
 10
16.9863
 20
11.7013
 30
0.0
 10
17.6231
 20
12.8912
 30
0.0
 10
16.8719
 20
13.8264
 30
0.0
 10
15.6935
 20
13.5535
 30
0.0
 10
15.6935
 20
13.5535
 30
0.0
 10
16.8109
 20
14.2472
 30
0.0
 10
16.6685
 20
15.4387
 30
0.0
 10
15.374
 20
15.8147
 30
0.0
  0
SPLINE
  5
52
330
1F
100
AcDbEntity
  8
layer 1
 62
     7
100
AcDbSpline
210
0.0
220
0.0
230
1.0
 70
    11
 71
     3
 72
    16
 73
    12
 74
     0
 42
0.0000000001
 43
0.0000000001
 12
1.0
 22
0.0
 32
0.0
 13
1.0
 23
0.0
 33
0.0
 40
0.0
 40
0.0
 40
0.0
 40
0.0
 40
0.25
 40
0.25
 40
0.25
 40
0.25
 40
0.5
 40
0.5
 40
0.5
 40
0.5
 40
1.0
 40
1.0
 40
1.0
 40
1.0
 10
12.8248
 20
13.6413
 30
0.0
 10
10.9493
 20
12.688
 30
0.0
 10
7.4322
 20
9.9717
 30
0.0
 10
6.7665
 20
9.3674
 30
0.0
 10
6.7665
 20
9.3674
 30
0.0
 10
10.4149
 20
9.912
 30
0.0
 10
12.9574
 20
11.0093
 30
0.0
 10
14.3078
 20
11.8222
 30
0.0
 10
14.3078
 20
11.8222
 30
0.0
 10
15.7066
 20
12.7356
 30
0.0
 10
15.0825
 20
14.5514
 30
0.0
 10
12.8248
 20
13.6413
 30
0.0
  0
SPLINE
  5
53
330
1F
100
AcDbEntity
  8
layer 1
 62
     7
100
AcDbSpline
210
0.0
220
0.0
230
1.0
 70
    11
 71
     3
 72
    20
 73
    16
 74
     0
 42
0.0000000001
 43
0.0000000001
 12
1.0
 22
0.0
 32
0.0
 13
1.0
 23
0.0
 33
0.0
 40
0.0
 40
0.0
 40
0.0
 40
0.0
 40
0.2
 40
0.2
 40
0.2
 40
0.2
 40
0.4
 40
0.4
 40
0.4
 40
0.4
 40
0.6
 40
0.6
 40
0.6
 40
0.6
 40
1.0
 40
1.0
 40
1.0
 40
1.0
 10
12.2027
 20
17.3605
 30
0.0
 10
10.989
 20
17.5542
 30
0.0
 10
8.536
 20
13.5518
 30
0.0
 10
7.0283
 20
11.9412
 30
0.0
 10
7.0283
 20
11.9412
 30
0.0
 10
10.5555
 20
14.7388
 30
0.0
 10
12.5552
 20
16.1374
 30
0.0
 10
12.3794
 20
17.1503
 30
0.0
 10
12.3794
 20
17.1503
 30
0.0
 10
14.2684
 20
17.1868
 30
0.0
 10
15.6337
 20
19.5833
 30
0.0
 10
15.1752
 20
20.0304
 30
0.0
 10
15.1752
 20
20.0304
 30
0.0
 10
14.8261
 20
20.3698
 30
0.0
 10
12.1844
 20
19.3436
 30
0.0
 10
12.2027
 20
17.3605
 30
0.0
  0
SPLINE
  5
54
330
1F
100
AcDbEntity
  8
layer 1
 62
     7
100
AcDbSpline
210
0.0
220
0.0
230
1.0
 70
    11
 71
     3
 72
    40
 73
    36
 74
     0
 42
0.0000000001
 43
0.0000000001
 12
1.0
 22
0.0
 32
0.0
 13
1.0
 23
0.0
 33
0.0
 40
0.0
 40
0.0
 40
0.0
 40
0.0
 40
0.1
 40
0.1
 40
0.1
 40
0.1
 40
0.2
 40
0.2
 40
0.2
 40
0.2
 40
0.3
 40
0.3
 40
0.3
 40
0.3
 40
0.4
 40
0.4
 40
0.4
 40
0.4
 40
0.5
 40
0.5
 40
0.5
 40
0.5
 40
0.6
 40
0.6
 40
0.6
 40
0.6
 40
0.7
 40
0.7
 40
0.7
 40
0.7
 40
0.8
 40
0.8
 40
0.8
 40
0.8
 40
1.0
 40
1.0
 40
1.0
 40
1.0
 10
6.5249
 20
-4.8012
 30
0.0
 10
7.6241
 20
-5.8577
 30
0.0
 10
7.9552
 20
-7.2195
 30
0.0
 10
7.7102
 20
-7.6797
 30
0.0
 10
7.7102
 20
-7.6797
 30
0.0
 10
6.8974
 20
-7.8203
 30
0.0
 10
5.8034
 20
-7.0212
 30
0.0
 10
5.3877
 20
-6.7216
 30
0.0
 10
5.3877
 20
-6.7216
 30
0.0
 10
5.5716
 20
-7.9793
 30
0.0
 10
4.2588
 20
-9.4641
 30
0.0
 10
3.5241
 20
-9.865
 30
0.0
 10
3.5241
 20
-9.865
 30
0.0
 10
7.8742
 20
-9.9657
 30
0.0
 10
12.5566
 20
-8.1666
 30
0.0
 10
15.8786
 20
-5.1839
 30
0.0
 10
15.8786
 20
-5.1839
 30
0.0
 10
15.1091
 20
-5.3856
 30
0.0
 10
13.8014
 20
-5.1623
 30
0.0
 10
13.1094
 20
-4.0962
 30
0.0
 10
13.1094
 20
-4.0962
 30
0.0
 10
12.9955
 20
-4.5961
 30
0.0
 10
12.5252
 20
-5.6157
 30
0.0
 10
11.8218
 20
-6.0462
 30
0.0
 10
11.8218
 20
-6.0462
 30
0.0
 10
11.3353
 20
-5.8622
 30
0.0
 10
10.4861
 20
-4.6639
 30
0.0
 10
10.6149
 20
-3.1427
 30
0.0
 10
10.6149
 20
-3.1427
 30
0.0
 10
10.1912
 20
-4.4258
 30
0.0
 10
8.9962
 20
-4.5216
 30
0.0
 10
8.384
 20
-3.4771
 30
0.0
 10
8.384
 20
-3.4771
 30
0.0
 10
8.6505
 20
-4.7665
 30
0.0
 10
7.6886
 20
-5.4835
 30
0.0
 10
6.5249
 20
-4.8012
 30
0.0
  0
SPLINE
  5
55
330
1F
100
AcDbEntity
  8
layer 1
 62
     7
100
AcDbSpline
210
0.0
220
0.0
230
1.0
 70
    11
 71
     3
 72
    16
 73
    12
 74
     0
 42
0.0000000001
 43
0.0000000001
 12
1.0
 22
0.0
 32
0.0
 13
1.0
 23
0.0
 33
0.0
 40
0.0
 40
0.0
 40
0.0
 40
0.0
 40
0.25
 40
0.25
 40
0.25
 40
0.25
 40
0.5
 40
0.5
 40
0.5
 40
0.5
 40
1.0
 40
1.0
 40
1.0
 40
1.0
 10
6.4936
 20
-1.2228
 30
0.0
 10
5.694
 20
0.7256
 30
0.0
 10
4.802
 20
5.0821
 30
0.0
 10
4.6927
 20
5.9758
 30
0.0
 10
4.6927
 20
5.9758
 30
0.0
 10
7.1009
 20
3.1753
 30
0.0
 10
8.3094
 20
0.6824
 30
0.0
 10
8.8026
 20
-0.8156
 30
0.0
 10
8.8026
 20
-0.8156
 30
0.0
 10
9.2661
 20
-2.4227
 30
0.0
 10
7.6093
 20
-3.3911
 30
0.0
 10
6.4936
 20
-1.2228
 30
0.0
  0
SPLINE
  5
56
330
1F
100
AcDbEntity
  8
layer 1
 62
     7
100
AcDbSpline
210
0.0
220
0.0
230
1.0
 70
    11
 71
     3
 72
    40
 73
    36
 74
     0
 42
0.0000000001
 43
0.0000000001
 12
1.0
 22
0.0
 32
0.0
 13
1.0
 23
0.0
 33
0.0
 40
0.0
 40
0.0
 40
0.0
 40
0.0
 40
0.1
 40
0.1
 40
0.1
 40
0.1
 40
0.2
 40
0.2
 40
0.2
 40
0.2
 40
0.3
 40
0.3
 40
0.3
 40
0.3
 40
0.4
 40
0.4
 40
0.4
 40
0.4
 40
0.5
 40
0.5
 40
0.5
 40
0.5
 40
0.6
 40
0.6
 40
0.6
 40
0.6
 40
0.7
 40
0.7
 40
0.7
 40
0.7
 40
0.8
 40
0.8
 40
0.8
 40
0.8
 40
1.0
 40
1.0
 40
1.0
 40
1.0
 10
6.5962
 20
22.2106
 30
0.0
 10
7.697
 20
23.2632
 30
0.0
 10
8.0314
 20
24.6254
 30
0.0
 10
7.7882
 20
25.0857
 30
0.0
 10
7.7882
 20
25.0857
 30
0.0
 10
6.9754
 20
25.2281
 30
0.0
 10
5.8779
 20
24.4318
 30
0.0
 10
5.4623
 20
24.1322
 30
0.0
 10
5.4623
 20
24.1322
 30
0.0
 10
5.6479
 20
25.3904
 30
0.0
 10
4.3385
 20
26.8781
 30
0.0
 10
3.6049
 20
27.2802
 30
0.0
 10
3.6049
 20
27.2802
 30
0.0
 10
7.9552
 20
27.3714
 30
0.0
 10
12.6345
 20
25.564
 30
0.0
 10
15.9515
 20
22.5729
 30
0.0
 10
15.9515
 20
22.5729
 30
0.0
 10
15.182
 20
22.7767
 30
0.0
 10
13.8743
 20
22.5563
 30
0.0
 10
13.179
 20
21.4901
 30
0.0
 10
13.179
 20
21.4901
 30
0.0
 10
13.0667
 20
21.9903
 30
0.0
 10
12.598
 20
23.0114
 30
0.0
 10
11.8963
 20
23.4454
 30
0.0
 10
11.8963
 20
23.4454
 30
0.0
 10
11.4081
 20
23.2614
 30
0.0
 10
10.5557
 20
22.0648
 30
0.0
 10
10.6814
 20
20.5435
 30
0.0
 10
10.6814
 20
20.5435
 30
0.0
 10
10.2607
 20
21.8264
 30
0.0
 10
9.0658
 20
21.9258
 30
0.0
 10
8.4517
 20
20.8813
 30
0.0
 10
8.4517
 20
20.8813
 30
0.0
 10
8.7199
 20
22.1707
 30
0.0
 10
7.7597
 20
22.889
 30
0.0
 10
6.5962
 20
22.2106
 30
0.0
  0
SPLINE
  5
57
330
1F
100
AcDbEntity
  8
layer 1
 62
     7
100
AcDbSpline
210
0.0
220
0.0
230
1.0
 70
    11
 71
     3
 72
    16
 73
    12
 74
     0
 42
0.0000000001
 43
0.0000000001
 12
1.0
 22
0.0
 32
0.0
 13
1.0
 23
0.0
 33
0.0
 40
0.0
 40
0.0
 40
0.0
 40
0.0
 40
0.25
 40
0.25
 40
0.25
 40
0.25
 40
0.5
 40
0.5
 40
0.5
 40
0.5
 40
1.0
 40
1.0
 40
1.0
 40
1.0
 10
6.2368
 20
18.4744
 30
0.0
 10
5.4923
 20
16.5033
 30
0.0
 10
4.7207
 20
12.1234
 30
0.0
 10
4.6364
 20
11.2264
 30
0.0
 10
4.6364
 20
11.2264
 30
0.0
 10
6.9653
 20
14.0931
 30
0.0
 10
8.1059
 20
16.6189
 30
0.0
 10
8.556
 20
18.1304
 30
0.0
 10
8.556
 20
18.1304
 30
0.0
 10
8.9746
 20
19.7509
 30
0.0
 10
7.2915
 20
20.6711
 30
0.0
 10
6.2368
 20
18.4744
 30
0.0
  0
SPLINE
  5
58
330
1F
100
AcDbEntity
  8
layer 1
 62
     7
100
AcDbSpline
210
0.0
220
0.0
230
1.0
 70
    11
 71
     3
 72
    20
 73
    16
 74
     0
 42
0.0000000001
 43
0.0000000001
 12
1.0
 22
0.0
 32
0.0
 13
1.0
 23
0.0
 33
0.0
 40
0.0
 40
0.0
 40
0.0
 40
0.0
 40
0.2
 40
0.2
 40
0.2
 40
0.2
 40
0.4
 40
0.4
 40
0.4
 40
0.4
 40
0.6
 40
0.6
 40
0.6
 40
0.6
 40
1.0
 40
1.0
 40
1.0
 40
1.0
 10
-9.5111
 20
8.9818
 30
0.0
 10
-8.7894
 20
9.978
 30
0.0
 10
-4.2291
 20
8.8856
 30
0.0
 10
-2.0261
 20
8.8143
 30
0.0
 10
-2.0261
 20
8.8143
 30
0.0
 10
-6.4949
 20
8.2933
 30
0.0
 10
-8.8967
 20
7.866
 30
0.0
 10
-9.4878
 20
8.7067
 30
0.0
 10
-9.4878
 20
8.7067
 30
0.0
 10
-10.8485
 20
7.3961
 30
0.0
 10
-13.5065
 20
8.1228
 30
0.0
 10
-13.4968
 20
8.7632
 30
0.0
 10
-13.4968
 20
8.7632
 30
0.0
 10
-13.49
 20
9.2517
 30
0.0
 10
-10.8979
 20
10.3971
 30
0.0
 10
-9.5111
 20
8.9818
 30
0.0
  0
SPLINE
  5
59
330
1F
100
AcDbEntity
  8
layer 1
 62
     7
100
AcDbSpline
210
0.0
220
0.0
230
1.0
 70
    11
 71
     3
 72
    20
 73
    16
 74
     0
 42
0.0000000001
 43
0.0000000001
 12
1.0
 22
0.0
 32
0.0
 13
1.0
 23
0.0
 33
0.0
 40
0.0
 40
0.0
 40
0.0
 40
0.0
 40
0.2
 40
0.2
 40
0.2
 40
0.2
 40
0.4
 40
0.4
 40
0.4
 40
0.4
 40
0.6
 40
0.6
 40
0.6
 40
0.6
 40
1.0
 40
1.0
 40
1.0
 40
1.0
 10
15.485
 20
8.9818
 30
0.0
 10
14.763
 20
9.978
 30
0.0
 10
10.203
 20
8.8856
 30
0.0
 10
7.9983
 20
8.8143
 30
0.0
 10
7.9983
 20
8.8143
 30
0.0
 10
12.4687
 20
8.2933
 30
0.0
 10
14.8706
 20
7.866
 30
0.0
 10
15.4617
 20
8.7067
 30
0.0
 10
15.4617
 20
8.7067
 30
0.0
 10
16.8223
 20
7.3961
 30
0.0
 10
19.4788
 20
8.1228
 30
0.0
 10
19.4706
 20
8.7632
 30
0.0
 10
19.4706
 20
8.7632
 30
0.0
 10
19.4639
 20
9.2517
 30
0.0
 10
16.8703
 20
10.3971
 30
0.0
 10
15.485
 20
8.9818
 30
0.0
  0
SPLINE
  5
5A
330
1F
100
AcDbEntity
  8
layer 1
 62
     7
100
AcDbSpline
210
0.0
220
0.0
230
1.0
 70
    11
 71
     3
 72
    40
 73
    36
 74
     0
 42
0.0000000001
 43
0.0000000001
 12
1.0
 22
0.0
 32
0.0
 13
1.0
 23
0.0
 33
0.0
 40
0.0
 40
0.0
 40
0.0
 40
0.0
 40
0.1
 40
0.1
 40
0.1
 40
0.1
 40
0.2
 40
0.2
 40
0.2
 40
0.2
 40
0.3
 40
0.3
 40
0.3
 40
0.3
 40
0.4
 40
0.4
 40
0.4
 40
0.4
 40
0.5
 40
0.5
 40
0.5
 40
0.5
 40
0.6
 40
0.6
 40
0.6
 40
0.6
 40
0.7
 40
0.7
 40
0.7
 40
0.7
 40
0.8
 40
0.8
 40
0.8
 40
0.8
 40
1.0
 40
1.0
 40
1.0
 40
1.0
 10
-11.5255
 20
-38.2226
 30
0.0
 10
-13.2929
 20
-39.1675
 30
0.0
 10
-14.5959
 20
-39.7103
 30
0.0
 10
-15.3575
 20
-39.6476
 30
0.0
 10
-15.3575
 20
-39.6476
 30
0.0
 10
-14.1291
 20
-38.7535
 30
0.0
 10
-15.301
 20
-38.4356
 30
0.0
 10
-14.2845
 20
-37.0044
 30
0.0
 10
-14.2845
 20
-37.0044
 30
0.0
 10
-16.3024
 20
-38.9043
 30
0.0
 10
-17.6181
 20
-37.7225
 30
0.0
 10
-17.9724
 20
-37.5472
 30
0.0
 10
-17.9724
 20
-37.5472
 30
0.0
 10
-14.9964
 20
-35.6534
 30
0.0
 10
-16.7842
 20
-33.0631
 30
0.0
 10
-12.7221
 20
-32.0995
 30
0.0
 10
-12.7221
 20
-32.0995
 30
0.0
 10
-14.0612
 20
-32.1723
 30
0.0
 10
-14.8574
 20
-31.8181
 30
0.0
 10
-15.5261
 20
-30.6779
 30
0.0
 10
-15.5261
 20
-30.6779
 30
0.0
 10
-13.6706
 20
-31.2041
 30
0.0
 10
-14.6871
 20
-29.7956
 30
0.0
 10
-11.7386
 20
-30.1482
 30
0.0
 10
-11.7386
 20
-30.1482
 30
0.0
 10
-15.3786
 20
-29.9215
 30
0.0
 10
-17.4397
 20
-27.9998
 30
0.0
 10
-18.7127
 20
-25.1692
 30
0.0
 10
-18.7127
 20
-25.1692
 30
0.0
 10
-18.7127
 20
-29.893
 30
0.0
 10
-18.8267
 20
-47.3707
 30
0.0
 10
-18.8267
 20
-53.2154
 30
0.0
 10
-18.8267
 20
-53.2154
 30
0.0
 10
-17.7592
 20
-47.6161
 30
0.0
 10
-16.082
 20
-44.0321
 30
0.0
 10
-11.5255
 20
-38.2226
 30
0.0
  0
SPLINE
  5
5B
330
1F
100
AcDbEntity
  8
layer 1
 62
     7
100
AcDbSpline
210
0.0
220
0.0
230
1.0
 70
    11
 71
     3
 72
    24
 73
    20
 74
     0
 42
0.0000000001
 43
0.0000000001
 12
1.0
 22
0.0
 32
0.0
 13
1.0
 23
0.0
 33
0.0
 40
0.0
 40
0.0
 40
0.0
 40
0.0
 40
0.1666666666666667
 40
0.1666666666666667
 40
0.1666666666666667
 40
0.1666666666666667
 40
0.3333333333333333
 40
0.3333333333333333
 40
0.3333333333333333
 40
0.3333333333333333
 40
0.5
 40
0.5
 40
0.5
 40
0.5
 40
0.6666666666666666
 40
0.6666666666666666
 40
0.6666666666666666
 40
0.6666666666666666
 40
1.0
 40
1.0
 40
1.0
 40
1.0
 10
-18.7127
 20
-18.6855
 30
0.0
 10
-18.0965
 20
-13.7697
 30
0.0
 10
-16.9198
 20
-12.8409
 30
0.0
 10
-16.0027
 20
-11.1277
 30
0.0
 10
-16.0027
 20
-11.1277
 30
0.0
 10
-13.8939
 20
-8.6332
 30
0.0
 10
-14.8244
 20
-5.0678
 30
0.0
 10
-17.3931
 20
-6.675
 30
0.0
 10
-17.3931
 20
-6.675
 30
0.0
 10
-17.4745
 20
-3.694
 30
0.0
 10
-14.5049
 20
-4.3017
 30
0.0
 10
-13.9633
 20
-4.8941
 30
0.0
 10
-13.9633
 20
-4.8941
 30
0.0
 10
-16.021
 20
-1.6863
 30
0.0
 10
-17.9045
 20
0.7833
 30
0.0
 10
-18.7127
 20
7.4173
 30
0.0
 10
-18.7127
 20
7.4173
 30
0.0
 10
-18.7127
 20
7.4173
 30
0.0
 10
-18.7127
 20
-18.6855
 30
0.0
 10
-18.7127
 20
-18.6855
 30
0.0
  0
SPLINE
  5
5C
330
1F
100
AcDbEntity
  8
layer 1
 62
     7
100
AcDbSpline
210
0.0
220
0.0
230
1.0
 70
    11
 71
     3
 72
    36
 73
    32
 74
     0
 42
0.0000000001
 43
0.0000000001
 12
1.0
 22
0.0
 32
0.0
 13
1.0
 23
0.0
 33
0.0
 40
0.0
 40
0.0
 40
0.0
 40
0.0
 40
0.1111111111111111
 40
0.1111111111111111
 40
0.1111111111111111
 40
0.1111111111111111
 40
0.2222222222222222
 40
0.2222222222222222
 40
0.2222222222222222
 40
0.2222222222222222
 40
0.3333333333333333
 40
0.3333333333333333
 40
0.3333333333333333
 40
0.3333333333333333
 40
0.4444444444444444
 40
0.4444444444444444
 40
0.4444444444444444
 40
0.4444444444444444
 40
0.5555555555555556
 40
0.5555555555555556
 40
0.5555555555555556
 40
0.5555555555555556
 40
0.6666666666666666
 40
0.6666666666666666
 40
0.6666666666666666
 40
0.6666666666666666
 40
0.7777777777777778
 40
0.7777777777777778
 40
0.7777777777777778
 40
0.7777777777777778
 40
1.0
 40
1.0
 40
1.0
 40
1.0
 10
-14.5493
 20
-34.541
 30
0.0
 10
-14.313
 20
-34.9068
 30
0.0
 10
-13.6706
 20
-35.8852
 30
0.0
 10
-12.012
 20
-35.3869
 30
0.0
 10
-12.012
 20
-35.3869
 30
0.0
 10
-11.6082
 20
-35.8784
 30
0.0
 10
-12.8561
 20
-36.7293
 30
0.0
 10
-12.6361
 20
-36.7361
 30
0.0
 10
-12.6361
 20
-36.7361
 30
0.0
 10
-9.8056
 20
-36.105
 30
0.0
 10
-5.7004
 20
-33.1195
 30
0.0
 10
-4.2491
 20
-30.6329
 30
0.0
 10
-4.2491
 20
-30.6329
 30
0.0
 10
-4.605
 20
-31.133
 30
0.0
 10
-5.8097
 20
-31.6894
 30
0.0
 10
-6.8627
 20
-31.5055
 30
0.0
 10
-6.8627
 20
-31.5055
 30
0.0
 10
-6.7267
 20
-30.6693
 30
0.0
 10
-5.2652
 20
-29.5655
 30
0.0
 10
-5.5881
 20
-29.6697
 30
0.0
 10
-5.5881
 20
-29.6697
 30
0.0
 10
-7.3127
 20
-31.0668
 30
0.0
 10
-9.6501
 20
-30.6346
 30
0.0
 10
-10.5653
 20
-30.5783
 30
0.0
 10
-10.5653
 20
-30.5783
 30
0.0
 10
-10.0738
 20
-30.8995
 30
0.0
 10
-9.7641
 20
-31.5003
 30
0.0
 10
-9.7726
 20
-31.7521
 30
0.0
 10
-9.7726
 20
-31.7521
 30
0.0
 10
-12.5235
 20
-32.4189
 30
0.0
 10
-11.259
 20
-34.4865
 30
0.0
 10
-14.5493
 20
-34.541
 30
0.0
  0
SPLINE
  5
5D
330
1F
100
AcDbEntity
  8
layer 1
 62
     7
100
AcDbSpline
210
0.0
220
0.0
230
1.0
 70
    11
 71
     3
 72
    24
 73
    20
 74
     0
 42
0.0000000001
 43
0.0000000001
 12
1.0
 22
0.0
 32
0.0
 13
1.0
 23
0.0
 33
0.0
 40
0.0
 40
0.0
 40
0.0
 40
0.0
 40
0.1666666666666667
 40
0.1666666666666667
 40
0.1666666666666667
 40
0.1666666666666667
 40
0.3333333333333333
 40
0.3333333333333333
 40
0.3333333333333333
 40
0.3333333333333333
 40
0.5
 40
0.5
 40
0.5
 40
0.5
 40
0.6666666666666666
 40
0.6666666666666666
 40
0.6666666666666666
 40
0.6666666666666666
 40
1.0
 40
1.0
 40
1.0
 40
1.0
 10
-16.5557
 20
-21.5856
 30
0.0
 10
-18.1478
 20
-23.7853
 30
0.0
 10
-15.2117
 20
-29.5524
 30
0.0
 10
-6.8593
 20
-28.2596
 30
0.0
 10
-6.8593
 20
-28.2596
 30
0.0
 10
-12.7104
 20
-28.3689
 30
0.0
 10
-14.4781
 20
-23.8302
 30
0.0
 10
-11.4726
 20
-22.9332
 30
0.0
 10
-11.4726
 20
-22.9332
 30
0.0
 10
-12.5332
 20
-21.8419
 30
0.0
 10
-12.4442
 20
-21.228
 30
0.0
 10
-13.2535
 20
-20.5509
 30
0.0
 10
-13.2535
 20
-20.5509
 30
0.0
 10
-14.8108
 20
-18.7931
 30
0.0
 10
-16.5125
 20
-21.2081
 30
0.0
 10
-14.9185
 20
-23.0933
 30
0.0
 10
-14.9185
 20
-23.0933
 30
0.0
 10
-15.7858
 20
-22.8301
 30
0.0
 10
-16.541
 20
-22.5454
 30
0.0
 10
-16.5557
 20
-21.5856
 30
0.0
  0
SPLINE
  5
5E
330
1F
100
AcDbEntity
  8
layer 1
 62
     7
100
AcDbSpline
210
0.0
220
0.0
230
1.0
 70
    11
 71
     3
 72
    16
 73
    12
 74
     0
 42
0.0000000001
 43
0.0000000001
 12
1.0
 22
0.0
 32
0.0
 13
1.0
 23
0.0
 33
0.0
 40
0.0
 40
0.0
 40
0.0
 40
0.0
 40
0.25
 40
0.25
 40
0.25
 40
0.25
 40
0.5
 40
0.5
 40
0.5
 40
0.5
 40
1.0
 40
1.0
 40
1.0
 40
1.0
 10
-10.9179
 20
-23.1962
 30
0.0
 10
-12.0053
 20
-25.4026
 30
0.0
 10
-6.7483
 20
-29.0091
 30
0.0
 10
-0.3871
 20
-25.1937
 30
0.0
 10
-0.3871
 20
-25.1937
 30
0.0
 10
-4.7821
 20
-26.937
 30
0.0
 10
-8.1687
 20
-24.9972
 30
0.0
 10
-9.4844
 20
-21.0822
 30
0.0
 10
-9.4844
 20
-21.0822
 30
0.0
 10
-8.5542
 20
-23.1992
 30
0.0
 10
-10.1268
 20
-23.4458
 30
0.0
 10
-10.9179
 20
-23.1962
 30
0.0
  0
SPLINE
  5
5F
330
1F
100
AcDbEntity
  8
layer 1
 62
     7
100
AcDbSpline
210
0.0
220
0.0
230
1.0
 70
    11
 71
     3
 72
    40
 73
    36
 74
     0
 42
0.0000000001
 43
0.0000000001
 12
1.0
 22
0.0
 32
0.0
 13
1.0
 23
0.0
 33
0.0
 40
0.0
 40
0.0
 40
0.0
 40
0.0
 40
0.1
 40
0.1
 40
0.1
 40
0.1
 40
0.2
 40
0.2
 40
0.2
 40
0.2
 40
0.3
 40
0.3
 40
0.3
 40
0.3
 40
0.4
 40
0.4
 40
0.4
 40
0.4
 40
0.5
 40
0.5
 40
0.5
 40
0.5
 40
0.6
 40
0.6
 40
0.6
 40
0.6
 40
0.7
 40
0.7
 40
0.7
 40
0.7
 40
0.8
 40
0.8
 40
0.8
 40
0.8
 40
1.0
 40
1.0
 40
1.0
 40
1.0
 10
-6.3906
 20
-16.9177
 30
0.0
 10
-6.1987
 20
-15.7973
 30
0.0
 10
-4.3037
 20
-15.1452
 30
0.0
 10
-3.4677
 20
-16.6313
 30
0.0
 10
-3.4677
 20
-16.6313
 30
0.0
 10
-3.8533
 20
-17.5203
 30
0.0
 10
-4.4029
 20
-21.8386
 30
0.0
 10
-0.604
 20
-21.367
 30
0.0
 10
-0.604
 20
-21.367
 30
0.0
 10
0.5198
 20
-21.228
 30
0.0
 10
1.0443
 20
-19.472
 30
0.0
 10
0.5909
 20
-18.5995
 30
0.0
 10
0.5909
 20
-18.5995
 30
0.0
 10
0.0794
 20
-17.6164
 30
0.0
 10
-1.2778
 20
-17.3101
 30
0.0
 10
-2.1897
 20
-18.2368
 30
0.0
 10
-2.1897
 20
-18.2368
 30
0.0
 10
-1.9248
 20
-16.7041
 30
0.0
 10
-0.1472
 20
-16.2292
 30
0.0
 10
0.8723
 20
-17.2901
 30
0.0
 10
0.8723
 20
-17.2901
 30
0.0
 10
1.5045
 20
-17.9474
 30
0.0
 10
2.1948
 20
-19.0563
 30
0.0
 10
1.9799
 20
-20.3377
 30
0.0
 10
1.9799
 20
-20.3377
 30
0.0
 10
-0.69
 20
-27.1604
 30
0.0
 10
-7.8076
 20
-23.6382
 30
0.0
 10
-8.3822
 20
-21.2661
 30
0.0
 10
-8.3822
 20
-21.2661
 30
0.0
 10
-7.1441
 20
-22.9361
 30
0.0
 10
-5.6475
 20
-22.4759
 30
0.0
 10
-5.4076
 20
-21.1403
 30
0.0
 10
-5.4076
 20
-21.1403
 30
0.0
 10
-5.2555
 20
-19.4385
 30
0.0
 10
-6.6571
 20
-18.3729
 30
0.0
 10
-6.3906
 20
-16.9177
 30
0.0
  0
SPLINE
  5
60
330
1F
100
AcDbEntity
  8
layer 1
 62
     7
100
AcDbSpline
210
0.0
220
0.0
230
1.0
 70
    11
 71
     3
 72
    68
 73
    64
 74
     0
 42
0.0000000001
 43
0.0000000001
 12
1.0
 22
0.0
 32
0.0
 13
1.0
 23
0.0
 33
0.0
 40
0.0
 40
0.0
 40
0.0
 40
0.0
 40
0.0588235294117647
 40
0.0588235294117647
 40
0.0588235294117647
 40
0.0588235294117647
 40
0.1176470588235294
 40
0.1176470588235294
 40
0.1176470588235294
 40
0.1176470588235294
 40
0.1764705882352941
 40
0.1764705882352941
 40
0.1764705882352941
 40
0.1764705882352941
 40
0.2352941176470588
 40
0.2352941176470588
 40
0.2352941176470588
 40
0.2352941176470588
 40
0.2941176470588235
 40
0.2941176470588235
 40
0.2941176470588235
 40
0.2941176470588235
 40
0.3529411764705883
 40
0.3529411764705883
 40
0.3529411764705883
 40
0.3529411764705883
 40
0.4117647058823529
 40
0.4117647058823529
 40
0.4117647058823529
 40
0.4117647058823529
 40
0.4705882352941176
 40
0.4705882352941176
 40
0.4705882352941176
 40
0.4705882352941176
 40
0.5294117647058824
 40
0.5294117647058824
 40
0.5294117647058824
 40
0.5294117647058824
 40
0.5882352941176471
 40
0.5882352941176471
 40
0.5882352941176471
 40
0.5882352941176471
 40
0.6470588235294118
 40
0.6470588235294118
 40
0.6470588235294118
 40
0.6470588235294118
 40
0.7058823529411765
 40
0.7058823529411765
 40
0.7058823529411765
 40
0.7058823529411765
 40
0.7647058823529411
 40
0.7647058823529411
 40
0.7647058823529411
 40
0.7647058823529411
 40
0.8235294117647058
 40
0.8235294117647058
 40
0.8235294117647058
 40
0.8235294117647058
 40
0.8823529411764706
 40
0.8823529411764706
 40
0.8823529411764706
 40
0.8823529411764706
 40
1.0
 40
1.0
 40
1.0
 40
1.0
 10
-18.7127
 20
-23.1729
 30
0.0
 10
-18.7127
 20
-21.597
 30
0.0
 10
-17.9694
 20
-20.6056
 30
0.0
 10
-16.7757
 20
-20.7365
 30
0.0
 10
-16.7757
 20
-20.7365
 30
0.0
 10
-16.6799
 20
-20.8522
 30
0.0
 10
-15.9778
 20
-16.3021
 30
0.0
 10
-12.0023
 20
-19.1542
 30
0.0
 10
-12.0023
 20
-19.1542
 30
0.0
 10
-11.7688
 20
-19.1059
 30
0.0
 10
-13.4057
 20
-18.5199
 30
0.0
 10
-13.154
 20
-16.9046
 30
0.0
 10
-13.154
 20
-16.9046
 30
0.0
 10
-12.9392
 20
-16.7621
 30
0.0
 10
-11.517
 20
-16.7919
 30
0.0
 10
-10.62
 20
-18.4475
 30
0.0
 10
-10.62
 20
-18.4475
 30
0.0
 10
-10.3073
 20
-18.386
 30
0.0
 10
-12.3713
 20
-16.1299
 30
0.0
 10
-11.2637
 20
-13.3028
 30
0.0
 10
-11.2637
 20
-13.3028
 30
0.0
 10
-10.8798
 20
-13.1353
 30
0.0
 10
-8.0874
 20
-14.6668
 30
0.0
 10
-8.4267
 20
-17.6542
 30
0.0
 10
-8.4267
 20
-17.6542
 30
0.0
 10
-9.0013
 20
-13.0477
 30
0.0
 10
-3.077
 20
-12.3079
 30
0.0
 10
-2.6981
 20
-16.032
 30
0.0
 10
-2.6981
 20
-16.032
 30
0.0
 10
-1.521
 20
-14.6172
 30
0.0
 10
0.3443
 20
-15.1516
 30
0.0
 10
1.1605
 20
-16.2176
 30
0.0
 10
1.1605
 20
-16.2176
 30
0.0
 10
-0.2448
 20
-15.0541
 30
0.0
 10
0.0214
 20
-13.4651
 30
0.0
 10
1.5016
 20
-13.1918
 30
0.0
 10
1.5016
 20
-13.1918
 30
0.0
 10
-1.5393
 20
-12.8955
 30
0.0
 10
-4.4873
 20
-12.0663
 30
0.0
 10
-7.0
 20
-10.6925
 30
0.0
 10
-7.0
 20
-10.6925
 30
0.0
 10
-9.7094
 20
-9.211
 30
0.0
 10
-11.8747
 20
-7.3157
 30
0.0
 10
-12.8361
 20
-6.3525
 30
0.0
 10
-12.8361
 20
-6.3525
 30
0.0
 10
-12.6743
 20
-7.0691
 30
0.0
 10
-12.1577
 20
-8.4463
 30
0.0
 10
-14.4947
 20
-11.0002
 30
0.0
 10
-14.4947
 20
-11.0002
 30
0.0
 10
-11.4362
 20
-8.6581
 30
0.0
 10
-9.1814
 20
-11.3845
 30
0.0
 10
-9.9149
 20
-13.3227
 30
0.0
 10
-9.9149
 20
-13.3227
 30
0.0
 10
-10.9014
 20
-11.573
 30
0.0
 10
-15.9977
 20
-12.182
 30
0.0
 10
-17.6516
 20
-15.4892
 30
0.0
 10
-17.6516
 20
-15.4892
 30
0.0
 10
-14.7828
 20
-12.993
 30
0.0
 10
-13.1625
 20
-15.2643
 30
0.0
 10
-13.3082
 20
-16.1432
 30
0.0
 10
-13.3082
 20
-16.1432
 30
0.0
 10
-15.6765
 20
-15.8532
 30
0.0
 10
-18.2207
 20
-18.222
 30
0.0
 10
-18.7127
 20
-23.1729
 30
0.0
  0
SPLINE
  5
61
330
1F
100
AcDbEntity
  8
layer 1
 62
     7
100
AcDbSpline
210
0.0
220
0.0
230
1.0
 70
    11
 71
     3
 72
    16
 73
    12
 74
     0
 42
0.0000000001
 43
0.0000000001
 12
1.0
 22
0.0
 32
0.0
 13
1.0
 23
0.0
 33
0.0
 40
0.0
 40
0.0
 40
0.0
 40
0.0
 40
0.25
 40
0.25
 40
0.25
 40
0.25
 40
0.5
 40
0.5
 40
0.5
 40
0.5
 40
1.0
 40
1.0
 40
1.0
 40
1.0
 10
-12.0187
 20
-99.91
 30
0.0
 10
-10.8205
 20
-100.8765
 30
0.0
 10
-9.4861
 20
-101.2177
 30
0.0
 10
-8.0344
 20
-100.6481
 30
0.0
 10
-8.0344
 20
-100.6481
 30
0.0
 10
-9.9246
 20
-101.9855
 30
0.0
 10
-10.3238
 20
-104.8822
 30
0.0
 10
-9.15
 20
-107.3568
 30
0.0
 10
-9.15
 20
-107.3568
 30
0.0
 10
-11.1081
 20
-105.2461
 30
0.0
 10
-11.9158
 20
-102.6939
 30
0.0
 10
-12.0187
 20
-99.91
 30
0.0
  0
SPLINE
  5
62
330
1F
100
AcDbEntity
  8
layer 1
 62
     7
100
AcDbSpline
210
0.0
220
0.0
230
1.0
 70
    11
 71
     3
 72
    32
 73
    28
 74
     0
 42
0.0000000001
 43
0.0000000001
 12
1.0
 22
0.0
 32
0.0
 13
1.0
 23
0.0
 33
0.0
 40
0.0
 40
0.0
 40
0.0
 40
0.0
 40
0.125
 40
0.125
 40
0.125
 40
0.125
 40
0.25
 40
0.25
 40
0.25
 40
0.25
 40
0.375
 40
0.375
 40
0.375
 40
0.375
 40
0.5
 40
0.5
 40
0.5
 40
0.5
 40
0.625
 40
0.625
 40
0.625
 40
0.625
 40
0.75
 40
0.75
 40
0.75
 40
0.75
 40
1.0
 40
1.0
 40
1.0
 40
1.0
 10
-2.8088
 20
-66.7522
 30
0.0
 10
-5.8826
 20
-66.5734
 30
0.0
 10
-6.1046
 20
-65.5289
 30
0.0
 10
-8.0462
 20
-65.7043
 30
0.0
 10
-8.0462
 20
-65.7043
 30
0.0
 10
-10.7192
 20
-65.9442
 30
0.0
 10
-13.2319
 20
-64.0674
 30
0.0
 10
-13.9604
 20
-62.7398
 30
0.0
 10
-13.9604
 20
-62.7398
 30
0.0
 10
-10.6629
 20
-66.5073
 30
0.0
 10
-9.1849
 20
-68.0366
 30
0.0
 10
-5.858
 20
-71.1121
 30
0.0
 10
-5.858
 20
-71.1121
 30
0.0
 10
-6.4105
 20
-70.4282
 30
0.0
 10
-6.9783
 20
-69.0345
 30
0.0
 10
-6.8296
 20
-68.629
 30
0.0
 10
-6.8296
 20
-68.629
 30
0.0
 10
-3.466
 20
-69.6836
 30
0.0
 10
-2.7541
 20
-68.0252
 30
0.0
 10
-0.3774
 20
-70.554
 30
0.0
 10
-0.3774
 20
-70.554
 30
0.0
 10
-1.3011
 20
-69.0412
 30
0.0
 10
-1.1468
 20
-68.4205
 30
0.0
 10
-5.0634
 20
-67.2933
 30
0.0
 10
-5.0634
 20
-67.2933
 30
0.0
 10
-3.5588
 20
-67.0963
 30
0.0
 10
-2.4664
 20
-66.7951
 30
0.0
 10
-2.8088
 20
-66.7522
 30
0.0
  0
SPLINE
  5
63
330
1F
100
AcDbEntity
  8
layer 1
 62
     7
100
AcDbSpline
210
0.0
220
0.0
230
1.0
 70
    11
 71
     3
 72
    28
 73
    24
 74
     0
 42
0.0000000001
 43
0.0000000001
 12
1.0
 22
0.0
 32
0.0
 13
1.0
 23
0.0
 33
0.0
 40
0.0
 40
0.0
 40
0.0
 40
0.0
 40
0.1428571428571428
 40
0.1428571428571428
 40
0.1428571428571428
 40
0.1428571428571428
 40
0.2857142857142857
 40
0.2857142857142857
 40
0.2857142857142857
 40
0.2857142857142857
 40
0.4285714285714285
 40
0.4285714285714285
 40
0.4285714285714285
 40
0.4285714285714285
 40
0.5714285714285714
 40
0.5714285714285714
 40
0.5714285714285714
 40
0.5714285714285714
 40
0.7142857142857143
 40
0.7142857142857143
 40
0.7142857142857143
 40
0.7142857142857143
 40
1.0
 40
1.0
 40
1.0
 40
1.0
 10
2.8058
 20
-47.4054
 30
0.0
 10
2.5656
 20
-47.5762
 30
0.0
 10
1.5444
 20
-48.3606
 30
0.0
 10
1.5427
 20
-48.7911
 30
0.0
 10
1.5427
 20
-48.7911
 30
0.0
 10
1.541
 20
-49.3805
 30
0.0
 10
2.6915
 20
-50.8649
 30
0.0
 10
3.2809
 20
-54.4883
 30
0.0
 10
3.2809
 20
-54.4883
 30
0.0
 10
3.8686
 20
-50.8649
 30
0.0
 10
5.0186
 20
-49.3805
 30
0.0
 10
5.0169
 20
-48.7911
 30
0.0
 10
5.0169
 20
-48.7911
 30
0.0
 10
5.0169
 20
-48.3606
 30
0.0
 10
3.994
 20
-47.5762
 30
0.0
 10
3.7541
 20
-47.4054
 30
0.0
 10
3.7541
 20
-47.4054
 30
0.0
 10
5.2241
 20
-45.8465
 30
0.0
 10
4.4394
 20
-43.0062
 30
0.0
 10
3.2809
 20
-42.6417
 30
0.0
 10
3.2809
 20
-42.6417
 30
0.0
 10
2.1207
 20
-43.0062
 30
0.0
 10
1.3375
 20
-45.8465
 30
0.0
 10
2.8058
 20
-47.4054
 30
0.0
  0
SPLINE
  5
64
330
1F
100
AcDbEntity
  8
layer 1
 62
     7
100
AcDbSpline
210
0.0
220
0.0
230
1.0
 70
    11
 71
     3
 72
    12
 73
     8
 74
     0
 42
0.0000000001
 43
0.0000000001
 12
1.0
 22
0.0
 32
0.0
 13
1.0
 23
0.0
 33
0.0
 40
0.0
 40
0.0
 40
0.0
 40
0.0
 40
0.3333333333333333
 40
0.3333333333333333
 40
0.3333333333333333
 40
0.3333333333333333
 40
1.0
 40
1.0
 40
1.0
 40
1.0
 10
3.2809
 20
-30.1545
 30
0.0
 10
6.7186
 20
-30.1282
 30
0.0
 10
3.7741
 20
-24.168
 30
0.0
 10
3.2809
 20
-21.2729
 30
0.0
 10
3.2809
 20
-21.2729
 30
0.0
 10
2.7859
 20
-24.1678
 30
0.0
 10
-0.157
 20
-30.1282
 30
0.0
 10
3.2809
 20
-30.1545
 30
0.0
  0
SPLINE
  5
65
330
1F
100
AcDbEntity
  8
layer 1
 62
     7
100
AcDbSpline
210
0.0
220
0.0
230
1.0
 70
    11
 71
     3
 72
    12
 73
     8
 74
     0
 42
0.0000000001
 43
0.0000000001
 12
1.0
 22
0.0
 32
0.0
 13
1.0
 23
0.0
 33
0.0
 40
0.0
 40
0.0
 40
0.0
 40
0.0
 40
0.3333333333333333
 40
0.3333333333333333
 40
0.3333333333333333
 40
0.3333333333333333
 40
1.0
 40
1.0
 40
1.0
 40
1.0
 10
3.2809
 20
-19.4932
 30
0.0
 10
3.6864
 20
-16.8482
 30
0.0
 10
5.6678
 20
-14.6138
 30
0.0
 10
3.2809
 20
-13.2316
 30
0.0
 10
3.2809
 20
-13.2316
 30
0.0
 10
0.8922
 20
-14.6138
 30
0.0
 10
2.8754
 20
-16.8482
 30
0.0
 10
3.2809
 20
-19.4932
 30
0.0
  0
SPLINE
  5
66
330
1F
100
AcDbEntity
  8
layer 1
 62
     7
100
AcDbSpline
210
0.0
220
0.0
230
1.0
 70
    11
 71
     3
 72
    52
 73
    48
 74
     0
 42
0.0000000001
 43
0.0000000001
 12
1.0
 22
0.0
 32
0.0
 13
1.0
 23
0.0
 33
0.0
 40
0.0
 40
0.0
 40
0.0
 40
0.0
 40
0.0769230769230769
 40
0.0769230769230769
 40
0.0769230769230769
 40
0.0769230769230769
 40
0.1538461538461539
 40
0.1538461538461539
 40
0.1538461538461539
 40
0.1538461538461539
 40
0.2307692307692308
 40
0.2307692307692308
 40
0.2307692307692308
 40
0.2307692307692308
 40
0.3076923076923077
 40
0.3076923076923077
 40
0.3076923076923077
 40
0.3076923076923077
 40
0.3846153846153846
 40
0.3846153846153846
 40
0.3846153846153846
 40
0.3846153846153846
 40
0.4615384615384616
 40
0.4615384615384616
 40
0.4615384615384616
 40
0.4615384615384616
 40
0.5384615384615384
 40
0.5384615384615384
 40
0.5384615384615384
 40
0.5384615384615384
 40
0.6153846153846154
 40
0.6153846153846154
 40
0.6153846153846154
 40
0.6153846153846154
 40
0.6923076923076923
 40
0.6923076923076923
 40
0.6923076923076923
 40
0.6923076923076923
 40
0.7692307692307693
 40
0.7692307692307693
 40
0.7692307692307693
 40
0.7692307692307693
 40
0.8461538461538461
 40
0.8461538461538461
 40
0.8461538461538461
 40
0.8461538461538461
 40
1.0
 40
1.0
 40
1.0
 40
1.0
 10
-3.2143
 20
-48.2746
 30
0.0
 10
-1.3654
 20
-48.6139
 30
0.0
 10
0.0697
 20
-49.597
 30
0.0
 10
1.1023
 20
-51.2475
 30
0.0
 10
1.1023
 20
-51.2475
 30
0.0
 10
-0.3791
 20
-48.8787
 30
0.0
 10
-0.1638
 20
-46.9105
 30
0.0
 10
-1.0575
 20
-46.002
 30
0.0
 10
-1.0575
 20
-46.002
 30
0.0
 10
-0.1239
 20
-45.8664
 30
0.0
 10
0.96
 20
-46.194
 30
0.0
 10
1.3274
 20
-46.9669
 30
0.0
 10
1.3274
 20
-46.9669
 30
0.0
 10
0.7434
 20
-45.4375
 30
0.0
 10
-0.4502
 20
-42.8883
 30
0.0
 10
2.3587
 20
-40.6921
 30
0.0
 10
2.3587
 20
-40.6921
 30
0.0
 10
-0.8855
 20
-41.6039
 30
0.0
 10
-2.6715
 20
-37.4692
 30
0.0
 10
-1.3604
 20
-34.0097
 30
0.0
 10
-1.3604
 20
-34.0097
 30
0.0
 10
-2.0723
 20
-36.0293
 30
0.0
 10
-3.2838
 20
-35.7793
 30
0.0
 10
-3.4842
 20
-35.6631
 30
0.0
 10
-3.4842
 20
-35.6631
 30
0.0
 10
-2.0638
 20
-34.6966
 30
0.0
 10
-4.2008
 20
-33.6606
 30
0.0
 10
-2.4926
 20
-31.8893
 30
0.0
 10
-2.4926
 20
-31.8893
 30
0.0
 10
-4.2457
 20
-33.1572
 30
0.0
 10
-7.4318
 20
-35.9432
 30
0.0
 10
-8.7246
 20
-38.0569
 30
0.0
 10
-8.7246
 20
-38.0569
 30
0.0
 10
-1.9613
 20
-33.7152
 30
0.0
 10
-0.7184
 20
-43.1515
 30
0.0
 10
-4.8665
 20
-41.9747
 30
0.0
 10
-4.8665
 20
-41.9747
 30
0.0
 10
-3.4114
 20
-38.8348
 30
0.0
 10
-6.6555
 20
-38.4527
 30
0.0
 10
-7.8936
 20
-39.8675
 30
0.0
 10
-7.8936
 20
-39.8675
 30
0.0
 10
-8.6699
 20
-40.7548
 30
0.0
 10
-9.0276
 20
-43.0888
 30
0.0
 10
-6.7431
 20
-44.0257
 30
0.0
 10
-6.7431
 20
-44.0257
 30
0.0
 10
-5.0168
 20
-44.8914
 30
0.0
 10
-0.2299
 20
-45.3431
 30
0.0
 10
-3.2143
 20
-48.2746
 30
0.0
  0
SPLINE
  5
67
330
1F
100
AcDbEntity
  8
layer 1
 62
     7
100
AcDbSpline
210
0.0
220
0.0
230
1.0
 70
    11
 71
     3
 72
    24
 73
    20
 74
     0
 42
0.0000000001
 43
0.0000000001
 12
1.0
 22
0.0
 32
0.0
 13
1.0
 23
0.0
 33
0.0
 40
0.0
 40
0.0
 40
0.0
 40
0.0
 40
0.1666666666666667
 40
0.1666666666666667
 40
0.1666666666666667
 40
0.1666666666666667
 40
0.3333333333333333
 40
0.3333333333333333
 40
0.3333333333333333
 40
0.3333333333333333
 40
0.5
 40
0.5
 40
0.5
 40
0.5
 40
0.6666666666666666
 40
0.6666666666666666
 40
0.6666666666666666
 40
0.6666666666666666
 40
1.0
 40
1.0
 40
1.0
 40
1.0
 10
-16.5557
 20
-21.5856
 30
0.0
 10
-18.1478
 20
-23.7853
 30
0.0
 10
-15.2117
 20
-29.5524
 30
0.0
 10
-6.8593
 20
-28.2596
 30
0.0
 10
-6.8593
 20
-28.2596
 30
0.0
 10
-12.7104
 20
-28.3689
 30
0.0
 10
-14.4781
 20
-23.8302
 30
0.0
 10
-11.4726
 20
-22.9332
 30
0.0
 10
-11.4726
 20
-22.9332
 30
0.0
 10
-12.5332
 20
-21.8419
 30
0.0
 10
-12.4442
 20
-21.228
 30
0.0
 10
-13.2535
 20
-20.5509
 30
0.0
 10
-13.2535
 20
-20.5509
 30
0.0
 10
-14.8108
 20
-18.7931
 30
0.0
 10
-16.5125
 20
-21.2081
 30
0.0
 10
-14.9185
 20
-23.0933
 30
0.0
 10
-14.9185
 20
-23.0933
 30
0.0
 10
-15.7858
 20
-22.8301
 30
0.0
 10
-16.541
 20
-22.5454
 30
0.0
 10
-16.5557
 20
-21.5856
 30
0.0
  0
SPLINE
  5
68
330
1F
100
AcDbEntity
  8
layer 1
 62
     7
100
AcDbSpline
210
0.0
220
0.0
230
1.0
 70
    11
 71
     3
 72
    28
 73
    24
 74
     0
 42
0.0000000001
 43
0.0000000001
 12
1.0
 22
0.0
 32
0.0
 13
1.0
 23
0.0
 33
0.0
 40
0.0
 40
0.0
 40
0.0
 40
0.0
 40
0.1428571428571428
 40
0.1428571428571428
 40
0.1428571428571428
 40
0.1428571428571428
 40
0.2857142857142857
 40
0.2857142857142857
 40
0.2857142857142857
 40
0.2857142857142857
 40
0.4285714285714285
 40
0.4285714285714285
 40
0.4285714285714285
 40
0.4285714285714285
 40
0.5714285714285714
 40
0.5714285714285714
 40
0.5714285714285714
 40
0.5714285714285714
 40
0.7142857142857143
 40
0.7142857142857143
 40
0.7142857142857143
 40
0.7142857142857143
 40
1.0
 40
1.0
 40
1.0
 40
1.0
 10
-9.4035
 20
-60.8529
 30
0.0
 10
-15.6537
 20
-58.0091
 30
0.0
 10
-12.8976
 20
-47.6622
 30
0.0
 10
-6.8975
 20
-48.061
 30
0.0
 10
-6.8975
 20
-48.061
 30
0.0
 10
-11.3349
 20
-48.0313
 30
0.0
 10
-8.0958
 20
-44.1151
 30
0.0
 10
-12.757
 20
-43.8718
 30
0.0
 10
-12.757
 20
-43.8718
 30
0.0
 10
-12.9489
 20
-43.4646
 30
0.0
 10
-11.0865
 20
-41.4435
 30
0.0
 10
-9.036
 20
-43.721
 30
0.0
 10
-9.036
 20
-43.721
 30
0.0
 10
-10.2658
 20
-42.3489
 30
0.0
 10
-10.3967
 20
-40.6722
 30
0.0
 10
-9.7178
 20
-39.421
 30
0.0
 10
-9.7178
 20
-39.421
 30
0.0
 10
-12.909
 20
-42.0362
 30
0.0
 10
-17.2575
 20
-49.1784
 30
0.0
 10
-17.0588
 20
-53.6806
 30
0.0
 10
-17.0588
 20
-53.6806
 30
0.0
 10
-16.8223
 20
-59.0253
 30
0.0
 10
-13.0646
 20
-63.0577
 30
0.0
 10
-9.4035
 20
-60.8529
 30
0.0
  0
SPLINE
  5
69
330
1F
100
AcDbEntity
  8
layer 1
 62
     7
100
AcDbSpline
210
0.0
220
0.0
230
1.0
 70
    11
 71
     3
 72
    20
 73
    16
 74
     0
 42
0.0000000001
 43
0.0000000001
 12
1.0
 22
0.0
 32
0.0
 13
1.0
 23
0.0
 33
0.0
 40
0.0
 40
0.0
 40
0.0
 40
0.0
 40
0.2
 40
0.2
 40
0.2
 40
0.2
 40
0.4
 40
0.4
 40
0.4
 40
0.4
 40
0.6
 40
0.6
 40
0.6
 40
0.6
 40
1.0
 40
1.0
 40
1.0
 40
1.0
 10
-8.4946
 20
-61.2932
 30
0.0
 10
-7.5213
 20
-61.6935
 30
0.0
 10
-6.3098
 20
-63.6551
 30
0.0
 10
-11.0602
 20
-63.3653
 30
0.0
 10
-11.0602
 20
-63.3653
 30
0.0
 10
-8.3207
 20
-64.3818
 30
0.0
 10
-2.2676
 20
-63.8618
 30
0.0
 10
-0.9452
 20
-61.2995
 30
0.0
 10
-0.9452
 20
-61.2995
 30
0.0
 10
0.1392
 20
-59.507
 30
0.0
 10
0.3443
 20
-54.9188
 30
0.0
 10
-2.8452
 20
-56.1502
 30
0.0
 10
-2.8452
 20
-56.1502
 30
0.0
 10
-1.3421
 20
-59.9342
 30
0.0
 10
-5.4224
 20
-62.0199
 30
0.0
 10
-8.4946
 20
-61.2932
 30
0.0
  0
SPLINE
  5
6A
330
1F
100
AcDbEntity
  8
layer 1
 62
     7
100
AcDbSpline
210
0.0
220
0.0
230
1.0
 70
    11
 71
     3
 72
    28
 73
    24
 74
     0
 42
0.0000000001
 43
0.0000000001
 12
1.0
 22
0.0
 32
0.0
 13
1.0
 23
0.0
 33
0.0
 40
0.0
 40
0.0
 40
0.0
 40
0.0
 40
0.1428571428571428
 40
0.1428571428571428
 40
0.1428571428571428
 40
0.1428571428571428
 40
0.2857142857142857
 40
0.2857142857142857
 40
0.2857142857142857
 40
0.2857142857142857
 40
0.4285714285714285
 40
0.4285714285714285
 40
0.4285714285714285
 40
0.4285714285714285
 40
0.5714285714285714
 40
0.5714285714285714
 40
0.5714285714285714
 40
0.5714285714285714
 40
0.7142857142857143
 40
0.7142857142857143
 40
0.7142857142857143
 40
0.7142857142857143
 40
1.0
 40
1.0
 40
1.0
 40
1.0
 10
-6.5597
 20
-59.618
 30
0.0
 10
-12.1327
 20
-57.2939
 30
0.0
 10
-7.9268
 20
-50.6928
 30
0.0
 10
-3.2575
 20
-54.7833
 30
0.0
 10
-3.2575
 20
-54.7833
 30
0.0
 10
-3.7525
 20
-52.3831
 30
0.0
 10
0.596
 20
-51.8153
 30
0.0
 10
0.7053
 20
-55.9053
 30
0.0
 10
0.7053
 20
-55.9053
 30
0.0
 10
0.788
 20
-55.2565
 30
0.0
 10
-1.0045
 20
-50.6746
 30
0.0
 10
-3.1185
 20
-50.2657
 30
0.0
 10
-3.1185
 20
-50.2657
 30
0.0
 10
-3.2473
 20
-52.8912
 30
0.0
 10
-7.5428
 20
-49.7394
 30
0.0
 10
-8.1055
 20
-53.2684
 30
0.0
 10
-8.1055
 20
-53.2684
 30
0.0
 10
-8.5708
 20
-53.7238
 30
0.0
 10
-11.5187
 20
-52.0882
 30
0.0
 10
-6.6093
 20
-49.6649
 30
0.0
 10
-6.6093
 20
-49.6649
 30
0.0
 10
-13.4455
 20
-51.6314
 30
0.0
 10
-12.0581
 20
-59.3317
 30
0.0
 10
-6.5597
 20
-59.618
 30
0.0
  0
SPLINE
  5
6B
330
1F
100
AcDbEntity
  8
layer 1
 62
     7
100
AcDbSpline
210
0.0
220
0.0
230
1.0
 70
    11
 71
     3
 72
    16
 73
    12
 74
     0
 42
0.0000000001
 43
0.0000000001
 12
1.0
 22
0.0
 32
0.0
 13
1.0
 23
0.0
 33
0.0
 40
0.0
 40
0.0
 40
0.0
 40
0.0
 40
0.25
 40
0.25
 40
0.25
 40
0.25
 40
0.5
 40
0.5
 40
0.5
 40
0.5
 40
1.0
 40
1.0
 40
1.0
 40
1.0
 10
-3.4347
 20
-97.806
 30
0.0
 10
-6.0449
 20
-98.2611
 30
0.0
 10
-6.1889
 20
-99.1137
 30
0.0
 10
-7.1258
 20
-99.91
 30
0.0
 10
-7.1258
 20
-99.91
 30
0.0
 10
-10.8352
 20
-99.3137
 30
0.0
 10
-9.0725
 20
-97.8323
 30
0.0
 10
-8.6949
 20
-96.9518
 30
0.0
 10
-8.6949
 20
-96.9518
 30
0.0
 10
-7.356
 20
-98.0841
 30
0.0
 10
-6.2881
 20
-98.4879
 30
0.0
 10
-3.4347
 20
-97.806
 30
0.0
  0
SPLINE
  5
6C
330
1F
100
AcDbEntity
  8
layer 1
 62
     7
100
AcDbSpline
210
0.0
220
0.0
230
1.0
 70
    11
 71
     3
 72
    36
 73
    32
 74
     0
 42
0.0000000001
 43
0.0000000001
 12
1.0
 22
0.0
 32
0.0
 13
1.0
 23
0.0
 33
0.0
 40
0.0
 40
0.0
 40
0.0
 40
0.0
 40
0.1111111111111111
 40
0.1111111111111111
 40
0.1111111111111111
 40
0.1111111111111111
 40
0.2222222222222222
 40
0.2222222222222222
 40
0.2222222222222222
 40
0.2222222222222222
 40
0.3333333333333333
 40
0.3333333333333333
 40
0.3333333333333333
 40
0.3333333333333333
 40
0.4444444444444444
 40
0.4444444444444444
 40
0.4444444444444444
 40
0.4444444444444444
 40
0.5555555555555556
 40
0.5555555555555556
 40
0.5555555555555556
 40
0.5555555555555556
 40
0.6666666666666666
 40
0.6666666666666666
 40
0.6666666666666666
 40
0.6666666666666666
 40
0.7777777777777778
 40
0.7777777777777778
 40
0.7777777777777778
 40
0.7777777777777778
 40
1.0
 40
1.0
 40
1.0
 40
1.0
 10
-3.2774
 20
-65.4839
 30
0.0
 10
-0.7863
 20
-64.9462
 30
0.0
 10
-0.5083
 20
-66.3017
 30
0.0
 10
1.5427
 20
-64.7276
 30
0.0
 10
1.5427
 20
-64.7276
 30
0.0
 10
1.7893
 20
-67.4607
 30
0.0
 10
-0.9583
 20
-67.3992
 30
0.0
 10
-0.9583
 20
-67.6094
 30
0.0
 10
-0.9583
 20
-67.6094
 30
0.0
 10
0.9736
 20
-68.0264
 30
0.0
 10
2.6915
 20
-68.9438
 30
0.0
 10
3.2809
 20
-72.5667
 30
0.0
 10
3.2809
 20
-72.5667
 30
0.0
 10
3.8686
 20
-68.9438
 30
0.0
 10
5.588
 20
-68.0264
 30
0.0
 10
7.52
 20
-67.6094
 30
0.0
 10
7.52
 20
-67.6094
 30
0.0
 10
7.5182
 20
-67.3992
 30
0.0
 10
4.772
 20
-67.4607
 30
0.0
 10
5.0169
 20
-64.7276
 30
0.0
 10
5.0169
 20
-64.7276
 30
0.0
 10
7.0677
 20
-66.3017
 30
0.0
 10
7.3462
 20
-64.9462
 30
0.0
 10
9.8369
 20
-65.484
 30
0.0
 10
9.8369
 20
-65.484
 30
0.0
 10
6.3033
 20
-63.2428
 30
0.0
 10
4.0106
 20
-61.8246
 30
0.0
 10
3.2809
 20
-56.6833
 30
0.0
 10
3.2809
 20
-56.6833
 30
0.0
 10
2.549
 20
-61.8246
 30
0.0
 10
0.2566
 20
-63.2428
 30
0.0
 10
-3.2774
 20
-65.4839
 30
0.0
  0
SPLINE
  5
6D
330
1F
100
AcDbEntity
  8
layer 1
 62
     7
100
AcDbSpline
210
0.0
220
0.0
230
1.0
 70
    11
 71
     3
 72
    32
 73
    28
 74
     0
 42
0.0000000001
 43
0.0000000001
 12
1.0
 22
0.0
 32
0.0
 13
1.0
 23
0.0
 33
0.0
 40
0.0
 40
0.0
 40
0.0
 40
0.0
 40
0.125
 40
0.125
 40
0.125
 40
0.125
 40
0.25
 40
0.25
 40
0.25
 40
0.25
 40
0.375
 40
0.375
 40
0.375
 40
0.375
 40
0.5
 40
0.5
 40
0.5
 40
0.5
 40
0.625
 40
0.625
 40
0.625
 40
0.625
 40
0.75
 40
0.75
 40
0.75
 40
0.75
 40
1.0
 40
1.0
 40
1.0
 40
1.0
 10
-16.5308
 20
-89.3593
 30
0.0
 10
-16.7973
 20
-93.4195
 30
0.0
 10
-13.0565
 20
-93.6513
 30
0.0
 10
-12.0963
 20
-92.5339
 30
0.0
 10
-12.0963
 20
-92.5339
 30
0.0
 10
-11.7488
 20
-94.2106
 30
0.0
 10
-10.9082
 20
-95.3366
 30
0.0
 10
-9.8454
 20
-96.3959
 30
0.0
 10
-9.8454
 20
-96.3959
 30
0.0
 10
-11.1993
 20
-96.6488
 30
0.0
 10
-12.2289
 20
-98.0824
 30
0.0
 10
-12.3548
 20
-99.0011
 30
0.0
 10
-12.3548
 20
-99.0011
 30
0.0
 10
-12.3548
 20
-99.0011
 30
0.0
 10
-18.8562
 20
-99.0244
 30
0.0
 10
-18.8562
 20
-99.0244
 30
0.0
 10
-18.8562
 20
-99.0244
 30
0.0
 10
-18.8562
 20
-99.0244
 30
0.0
 10
-18.8562
 20
-86.6265
 30
0.0
 10
-18.8562
 20
-86.6265
 30
0.0
 10
-18.8562
 20
-86.6265
 30
0.0
 10
-17.1351
 20
-83.3607
 30
0.0
 10
-15.5875
 20
-84.4981
 30
0.0
 10
-13.9502
 20
-83.6353
 30
0.0
 10
-13.9502
 20
-83.6353
 30
0.0
 10
-16.0376
 20
-85.582
 30
0.0
 10
-16.2163
 20
-87.0867
 30
0.0
 10
-16.5308
 20
-89.3593
 30
0.0
  0
SPLINE
  5
6E
330
1F
100
AcDbEntity
  8
layer 1
 62
     7
100
AcDbSpline
210
0.0
220
0.0
230
1.0
 70
    11
 71
     3
 72
    24
 73
    20
 74
     0
 42
0.0000000001
 43
0.0000000001
 12
1.0
 22
0.0
 32
0.0
 13
1.0
 23
0.0
 33
0.0
 40
0.0
 40
0.0
 40
0.0
 40
0.0
 40
0.1666666666666667
 40
0.1666666666666667
 40
0.1666666666666667
 40
0.1666666666666667
 40
0.3333333333333333
 40
0.3333333333333333
 40
0.3333333333333333
 40
0.3333333333333333
 40
0.5
 40
0.5
 40
0.5
 40
0.5
 40
0.6666666666666666
 40
0.6666666666666666
 40
0.6666666666666666
 40
0.6666666666666666
 40
1.0
 40
1.0
 40
1.0
 40
1.0
 10
-15.4566
 20
-77.6419
 30
0.0
 10
-16.607
 20
-78.0026
 30
0.0
 10
-17.3999
 20
-78.3089
 30
0.0
 10
-17.9278
 20
-78.8238
 30
0.0
 10
-17.9278
 20
-78.8238
 30
0.0
 10
-17.4643
 20
-79.4411
 30
0.0
 10
-16.4961
 20
-79.3301
 30
0.0
 10
-15.6701
 20
-79.4327
 30
0.0
 10
-15.6701
 20
-79.4327
 30
0.0
 10
-17.6846
 20
-80.5449
 30
0.0
 10
-17.7939
 20
-81.7022
 30
0.0
 10
-18.8562
 20
-84.1319
 30
0.0
 10
-18.8562
 20
-84.1319
 30
0.0
 10
-18.8562
 20
-84.1319
 30
0.0
 10
-18.8562
 20
-75.366
 30
0.0
 10
-18.8562
 20
-75.366
 30
0.0
 10
-18.8562
 20
-75.366
 30
0.0
 10
-18.388
 20
-77.5093
 30
0.0
 10
-16.6617
 20
-77.9283
 30
0.0
 10
-15.4566
 20
-77.6419
 30
0.0
  0
SPLINE
  5
6F
330
1F
100
AcDbEntity
  8
layer 1
 62
     7
100
AcDbSpline
210
0.0
220
0.0
230
1.0
 70
    11
 71
     3
 72
    28
 73
    24
 74
     0
 42
0.0000000001
 43
0.0000000001
 12
1.0
 22
0.0
 32
0.0
 13
1.0
 23
0.0
 33
0.0
 40
0.0
 40
0.0
 40
0.0
 40
0.0
 40
0.1428571428571428
 40
0.1428571428571428
 40
0.1428571428571428
 40
0.1428571428571428
 40
0.2857142857142857
 40
0.2857142857142857
 40
0.2857142857142857
 40
0.2857142857142857
 40
0.4285714285714285
 40
0.4285714285714285
 40
0.4285714285714285
 40
0.4285714285714285
 40
0.5714285714285714
 40
0.5714285714285714
 40
0.5714285714285714
 40
0.5714285714285714
 40
0.7142857142857143
 40
0.7142857142857143
 40
0.7142857142857143
 40
0.7142857142857143
 40
1.0
 40
1.0
 40
1.0
 40
1.0
 10
-9.6899
 20
-76.144
 30
0.0
 10
-10.6582
 20
-73.416
 30
0.0
 10
-13.5863
 20
-74.9042
 30
0.0
 10
-13.9319
 20
-75.419
 30
0.0
 10
-13.9319
 20
-75.419
 30
0.0
 10
-17.6003
 20
-77.352
 30
0.0
 10
-18.8562
 20
-73.2007
 30
0.0
 10
-15.5345
 20
-71.7146
 30
0.0
 10
-15.5345
 20
-71.7146
 30
0.0
 10
-16.7774
 20
-71.2825
 30
0.0
 10
-18.8562
 20
-71.8947
 30
0.0
 10
-18.8562
 20
-74.6427
 30
0.0
 10
-18.8562
 20
-74.6427
 30
0.0
 10
-18.8562
 20
-74.6427
 30
0.0
 10
-18.8562
 20
-55.8887
 30
0.0
 10
-18.8562
 20
-55.8887
 30
0.0
 10
-18.8562
 20
-55.8887
 30
0.0
 10
-18.8562
 20
-58.5537
 30
0.0
 10
-15.8205
 20
-64.3369
 30
0.0
 10
-11.1081
 20
-69.49
 30
0.0
 10
-11.1081
 20
-69.49
 30
0.0
 10
-8.6899
 20
-72.3714
 30
0.0
 10
-8.5725
 20
-74.8477
 30
0.0
 10
-9.6899
 20
-76.144
 30
0.0
  0
SPLINE
  5
70
330
1F
100
AcDbEntity
  8
layer 1
 62
     7
100
AcDbSpline
210
0.0
220
0.0
230
1.0
 70
    11
 71
     3
 72
    24
 73
    20
 74
     0
 42
0.0000000001
 43
0.0000000001
 12
1.0
 22
0.0
 32
0.0
 13
1.0
 23
0.0
 33
0.0
 40
0.0
 40
0.0
 40
0.0
 40
0.0
 40
0.1666666666666667
 40
0.1666666666666667
 40
0.1666666666666667
 40
0.1666666666666667
 40
0.3333333333333333
 40
0.3333333333333333
 40
0.3333333333333333
 40
0.3333333333333333
 40
0.5
 40
0.5
 40
0.5
 40
0.5
 40
0.6666666666666666
 40
0.6666666666666666
 40
0.6666666666666666
 40
0.6666666666666666
 40
1.0
 40
1.0
 40
1.0
 40
1.0
 10
-15.5722
 20
-81.5514
 30
0.0
 10
-13.3578
 20
-81.9768
 30
0.0
 10
-12.5632
 20
-80.959
 30
0.0
 10
-12.0667
 20
-81.2654
 30
0.0
 10
-12.0667
 20
-81.2654
 30
0.0
 10
-12.0467
 20
-82.028
 30
0.0
 10
-11.9988
 20
-83.0133
 30
0.0
 10
-11.5649
 20
-83.3823
 30
0.0
 10
-11.5649
 20
-83.3823
 30
0.0
 10
-7.9648
 20
-80.1974
 30
0.0
 10
-9.756
 20
-76.5428
 30
0.0
 10
-13.8545
 20
-78.6996
 30
0.0
 10
-13.8545
 20
-78.6996
 30
0.0
 10
-14.1934
 20
-78.9878
 30
0.0
 10
-12.1823
 20
-79.628
 30
0.0
 10
-12.5615
 20
-79.6445
 30
0.0
 10
-12.5615
 20
-79.6445
 30
0.0
 10
-14.2811
 20
-79.7157
 30
0.0
 10
-14.8061
 20
-81.1065
 30
0.0
 10
-15.5722
 20
-81.5514
 30
0.0
  0
SPLINE
  5
71
330
1F
100
AcDbEntity
  8
layer 1
 62
     7
100
AcDbSpline
210
0.0
220
0.0
230
1.0
 70
    11
 71
     3
 72
    36
 73
    32
 74
     0
 42
0.0000000001
 43
0.0000000001
 12
1.0
 22
0.0
 32
0.0
 13
1.0
 23
0.0
 33
0.0
 40
0.0
 40
0.0
 40
0.0
 40
0.0
 40
0.1111111111111111
 40
0.1111111111111111
 40
0.1111111111111111
 40
0.1111111111111111
 40
0.2222222222222222
 40
0.2222222222222222
 40
0.2222222222222222
 40
0.2222222222222222
 40
0.3333333333333333
 40
0.3333333333333333
 40
0.3333333333333333
 40
0.3333333333333333
 40
0.4444444444444444
 40
0.4444444444444444
 40
0.4444444444444444
 40
0.4444444444444444
 40
0.5555555555555556
 40
0.5555555555555556
 40
0.5555555555555556
 40
0.5555555555555556
 40
0.6666666666666666
 40
0.6666666666666666
 40
0.6666666666666666
 40
0.6666666666666666
 40
0.7777777777777778
 40
0.7777777777777778
 40
0.7777777777777778
 40
0.7777777777777778
 40
1.0
 40
1.0
 40
1.0
 40
1.0
 10
-7.8805
 20
-108.4907
 30
0.0
 10
-7.5
 20
-108.7966
 30
0.0
 10
-4.3715
 20
-109.2454
 30
0.0
 10
-3.6414
 20
-108.0203
 30
0.0
 10
-3.6414
 20
-108.0203
 30
0.0
 10
-9.9213
 20
-105.9711
 30
0.0
 10
-4.6147
 20
-100.2659
 30
0.0
 10
-1.9431
 20
-98.7875
 30
0.0
 10
-1.9431
 20
-98.7875
 30
0.0
 10
-2.6252
 20
-99.2693
 30
0.0
 10
-3.3931
 20
-101.11
 30
0.0
 10
-2.8253
 20
-102.9207
 30
0.0
 10
-2.8253
 20
-102.9207
 30
0.0
 10
-2.713
 20
-103.2749
 30
0.0
 10
-0.71
 20
-101.1431
 30
0.0
 10
-0.546
 20
-101.5172
 30
0.0
 10
-0.546
 20
-101.5172
 30
0.0
 10
-1.6502
 20
-103.2618
 30
0.0
 10
-1.8702
 20
-104.6223
 30
0.0
 10
-1.9778
 20
-106.5042
 30
0.0
 10
-1.9778
 20
-106.5042
 30
0.0
 10
-0.5511
 20
-105.7859
 30
0.0
 10
-0.2976
 20
-105.205
 30
0.0
 10
0.1609
 20
-104.7016
 30
0.0
 10
0.1609
 20
-104.7016
 30
0.0
 10
-1.6948
 20
-107.9691
 30
0.0
 10
-0.3675
 20
-110.7963
 30
0.0
 10
1.935
 20
-111.8972
 30
0.0
 10
1.935
 20
-111.8972
 30
0.0
 10
-1.2032
 20
-111.8306
 30
0.0
 10
-6.4602
 20
-110.9124
 30
0.0
 10
-7.8805
 20
-108.4907
 30
0.0
  0
SPLINE
  5
72
330
1F
100
AcDbEntity
  8
layer 1
 62
     7
100
AcDbSpline
210
0.0
220
0.0
230
1.0
 70
    11
 71
     3
 72
    28
 73
    24
 74
     0
 42
0.0000000001
 43
0.0000000001
 12
1.0
 22
0.0
 32
0.0
 13
1.0
 23
0.0
 33
0.0
 40
0.0
 40
0.0
 40
0.0
 40
0.0
 40
0.1428571428571428
 40
0.1428571428571428
 40
0.1428571428571428
 40
0.1428571428571428
 40
0.2857142857142857
 40
0.2857142857142857
 40
0.2857142857142857
 40
0.2857142857142857
 40
0.4285714285714285
 40
0.4285714285714285
 40
0.4285714285714285
 40
0.4285714285714285
 40
0.5714285714285714
 40
0.5714285714285714
 40
0.5714285714285714
 40
0.5714285714285714
 40
0.7142857142857143
 40
0.7142857142857143
 40
0.7142857142857143
 40
0.7142857142857143
 40
1.0
 40
1.0
 40
1.0
 40
1.0
 10
-10.6696
 20
-84.4981
 30
0.0
 10
-16.807
 20
-88.51
 30
0.0
 10
-13.7879
 20
-91.4021
 30
0.0
 10
-12.1577
 20
-91.7529
 30
0.0
 10
-12.1577
 20
-91.7529
 30
0.0
 10
-12.7273
 20
-82.937
 30
0.0
 10
-2.9181
 20
-83.6951
 30
0.0
 10
-2.1201
 20
-87.9689
 30
0.0
 10
-2.1201
 20
-87.9689
 30
0.0
 10
-0.2448
 20
-87.8363
 30
0.0
 10
-0.2019
 20
-85.0871
 30
0.0
 10
-0.7036
 20
-82.6442
 30
0.0
 10
-0.7036
 20
-82.6442
 30
0.0
 10
-1.4435
 20
-79.039
 30
0.0
 10
-4.0652
 20
-74.7669
 30
0.0
 10
-9.4035
 20
-69.6655
 30
0.0
 10
-9.4035
 20
-69.6655
 30
0.0
 10
-6.6555
 20
-73.9473
 30
0.0
 10
-8.0297
 20
-77.0013
 30
0.0
 10
-8.8835
 20
-77.3738
 30
0.0
 10
-8.8835
 20
-77.3738
 30
0.0
 10
-3.2473
 20
-80.6691
 30
0.0
 10
-9.3569
 20
-83.5891
 30
0.0
 10
-10.6696
 20
-84.4981
 30
0.0
  0
SPLINE
  5
73
330
1F
100
AcDbEntity
  8
layer 1
 62
     7
100
AcDbSpline
210
0.0
220
0.0
230
1.0
 70
    11
 71
     3
 72
    40
 73
    36
 74
     0
 42
0.0000000001
 43
0.0000000001
 12
1.0
 22
0.0
 32
0.0
 13
1.0
 23
0.0
 33
0.0
 40
0.0
 40
0.0
 40
0.0
 40
0.0
 40
0.1
 40
0.1
 40
0.1
 40
0.1
 40
0.2
 40
0.2
 40
0.2
 40
0.2
 40
0.3
 40
0.3
 40
0.3
 40
0.3
 40
0.4
 40
0.4
 40
0.4
 40
0.4
 40
0.5
 40
0.5
 40
0.5
 40
0.5
 40
0.6
 40
0.6
 40
0.6
 40
0.6
 40
0.7
 40
0.7
 40
0.7
 40
0.7
 40
0.8
 40
0.8
 40
0.8
 40
0.8
 40
1.0
 40
1.0
 40
1.0
 40
1.0
 10
18.0868
 20
-38.2226
 30
0.0
 10
19.8547
 20
-39.1675
 30
0.0
 10
21.1555
 20
-39.7103
 30
0.0
 10
21.9186
 20
-39.6476
 30
0.0
 10
21.9186
 20
-39.6476
 30
0.0
 10
20.689
 20
-38.7535
 30
0.0
 10
21.8623
 20
-38.4356
 30
0.0
 10
20.8462
 20
-37.0044
 30
0.0
 10
20.8462
 20
-37.0044
 30
0.0
 10
22.8623
 20
-38.9043
 30
0.0
 10
24.1781
 20
-37.7225
 30
0.0
 10
24.5323
 20
-37.5472
 30
0.0
 10
24.5323
 20
-37.5472
 30
0.0
 10
21.558
 20
-35.6534
 30
0.0
 10
23.3453
 20
-33.0631
 30
0.0
 10
19.2834
 20
-32.0995
 30
0.0
 10
19.2834
 20
-32.0995
 30
0.0
 10
20.6211
 20
-32.1723
 30
0.0
 10
21.419
 20
-31.8181
 30
0.0
 10
22.0877
 20
-30.6779
 30
0.0
 10
22.0877
 20
-30.6779
 30
0.0
 10
20.2322
 20
-31.2041
 30
0.0
 10
21.2466
 20
-29.7956
 30
0.0
 10
18.3004
 20
-30.1482
 30
0.0
 10
18.3004
 20
-30.1482
 30
0.0
 10
21.9402
 20
-29.9215
 30
0.0
 10
24.0009
 20
-27.9998
 30
0.0
 10
25.2738
 20
-25.1692
 30
0.0
 10
25.2738
 20
-25.1692
 30
0.0
 10
25.2738
 20
-29.893
 30
0.0
 10
25.3883
 20
-47.3707
 30
0.0
 10
25.3883
 20
-53.2154
 30
0.0
 10
25.3883
 20
-53.2154
 30
0.0
 10
24.3188
 20
-47.6161
 30
0.0
 10
22.6419
 20
-44.0321
 30
0.0
 10
18.0868
 20
-38.2226
 30
0.0
  0
SPLINE
  5
74
330
1F
100
AcDbEntity
  8
layer 1
 62
     7
100
AcDbSpline
210
0.0
220
0.0
230
1.0
 70
    11
 71
     3
 72
    24
 73
    20
 74
     0
 42
0.0000000001
 43
0.0000000001
 12
1.0
 22
0.0
 32
0.0
 13
1.0
 23
0.0
 33
0.0
 40
0.0
 40
0.0
 40
0.0
 40
0.0
 40
0.1666666666666667
 40
0.1666666666666667
 40
0.1666666666666667
 40
0.1666666666666667
 40
0.3333333333333333
 40
0.3333333333333333
 40
0.3333333333333333
 40
0.3333333333333333
 40
0.5
 40
0.5
 40
0.5
 40
0.5
 40
0.6666666666666666
 40
0.6666666666666666
 40
0.6666666666666666
 40
0.6666666666666666
 40
1.0
 40
1.0
 40
1.0
 40
1.0
 10
25.2738
 20
-18.6855
 30
0.0
 10
24.6582
 20
-13.7697
 30
0.0
 10
23.4814
 20
-12.8409
 30
0.0
 10
22.5645
 20
-11.1277
 30
0.0
 10
22.5645
 20
-11.1277
 30
0.0
 10
20.4538
 20
-8.6332
 30
0.0
 10
21.3856
 20
-5.0678
 30
0.0
 10
23.953
 20
-6.675
 30
0.0
 10
23.953
 20
-6.675
 30
0.0
 10
24.0356
 20
-3.694
 30
0.0
 10
21.0648
 20
-4.3017
 30
0.0
 10
20.525
 20
-4.8941
 30
0.0
 10
20.525
 20
-4.8941
 30
0.0
 10
22.5809
 20
-1.6863
 30
0.0
 10
24.4645
 20
0.7833
 30
0.0
 10
25.2738
 20
7.4173
 30
0.0
 10
25.2738
 20
7.4173
 30
0.0
 10
25.2738
 20
7.4173
 30
0.0
 10
25.2738
 20
-18.6855
 30
0.0
 10
25.2738
 20
-18.6855
 30
0.0
  0
SPLINE
  5
75
330
1F
100
AcDbEntity
  8
layer 1
 62
     7
100
AcDbSpline
210
0.0
220
0.0
230
1.0
 70
    11
 71
     3
 72
    36
 73
    32
 74
     0
 42
0.0000000001
 43
0.0000000001
 12
1.0
 22
0.0
 32
0.0
 13
1.0
 23
0.0
 33
0.0
 40
0.0
 40
0.0
 40
0.0
 40
0.0
 40
0.1111111111111111
 40
0.1111111111111111
 40
0.1111111111111111
 40
0.1111111111111111
 40
0.2222222222222222
 40
0.2222222222222222
 40
0.2222222222222222
 40
0.2222222222222222
 40
0.3333333333333333
 40
0.3333333333333333
 40
0.3333333333333333
 40
0.3333333333333333
 40
0.4444444444444444
 40
0.4444444444444444
 40
0.4444444444444444
 40
0.4444444444444444
 40
0.5555555555555556
 40
0.5555555555555556
 40
0.5555555555555556
 40
0.5555555555555556
 40
0.6666666666666666
 40
0.6666666666666666
 40
0.6666666666666666
 40
0.6666666666666666
 40
0.7777777777777778
 40
0.7777777777777778
 40
0.7777777777777778
 40
0.7777777777777778
 40
1.0
 40
1.0
 40
1.0
 40
1.0
 10
21.1109
 20
-34.541
 30
0.0
 10
20.8724
 20
-34.9068
 30
0.0
 10
20.2305
 20
-35.8852
 30
0.0
 10
18.5719
 20
-35.3869
 30
0.0
 10
18.5719
 20
-35.3869
 30
0.0
 10
18.1681
 20
-35.8784
 30
0.0
 10
19.4178
 20
-36.7293
 30
0.0
 10
19.1957
 20
-36.7361
 30
0.0
 10
19.1957
 20
-36.7361
 30
0.0
 10
16.3655
 20
-36.105
 30
0.0
 10
12.2603
 20
-33.1195
 30
0.0
 10
10.8086
 20
-30.6329
 30
0.0
 10
10.8086
 20
-30.6329
 30
0.0
 10
11.1662
 20
-31.133
 30
0.0
 10
12.3713
 20
-31.6894
 30
0.0
 10
13.4239
 20
-31.5055
 30
0.0
 10
13.4239
 20
-31.5055
 30
0.0
 10
13.2866
 20
-30.6693
 30
0.0
 10
11.8252
 20
-29.5655
 30
0.0
 10
12.1497
 20
-29.6697
 30
0.0
 10
12.1497
 20
-29.6697
 30
0.0
 10
13.8727
 20
-31.0668
 30
0.0
 10
16.21
 20
-30.6346
 30
0.0
 10
17.1269
 20
-30.5783
 30
0.0
 10
17.1269
 20
-30.5783
 30
0.0
 10
16.6351
 20
-30.8995
 30
0.0
 10
16.324
 20
-31.5003
 30
0.0
 10
16.3342
 20
-31.7521
 30
0.0
 10
16.3342
 20
-31.7521
 30
0.0
 10
19.0851
 20
-32.4189
 30
0.0
 10
17.8186
 20
-34.4865
 30
0.0
 10
21.1109
 20
-34.541
 30
0.0
  0
SPLINE
  5
76
330
1F
100
AcDbEntity
  8
layer 1
 62
     7
100
AcDbSpline
210
0.0
220
0.0
230
1.0
 70
    11
 71
     3
 72
    24
 73
    20
 74
     0
 42
0.0000000001
 43
0.0000000001
 12
1.0
 22
0.0
 32
0.0
 13
1.0
 23
0.0
 33
0.0
 40
0.0
 40
0.0
 40
0.0
 40
0.0
 40
0.1666666666666667
 40
0.1666666666666667
 40
0.1666666666666667
 40
0.1666666666666667
 40
0.3333333333333333
 40
0.3333333333333333
 40
0.3333333333333333
 40
0.3333333333333333
 40
0.5
 40
0.5
 40
0.5
 40
0.5
 40
0.6666666666666666
 40
0.6666666666666666
 40
0.6666666666666666
 40
0.6666666666666666
 40
1.0
 40
1.0
 40
1.0
 40
1.0
 10
23.1153
 20
-21.5856
 30
0.0
 10
24.7077
 20
-23.7853
 30
0.0
 10
21.7716
 20
-29.5524
 30
0.0
 10
13.4209
 20
-28.2596
 30
0.0
 10
13.4209
 20
-28.2596
 30
0.0
 10
19.272
 20
-28.3689
 30
0.0
 10
21.0398
 20
-23.8302
 30
0.0
 10
18.0321
 20
-22.9332
 30
0.0
 10
18.0321
 20
-22.9332
 30
0.0
 10
19.0948
 20
-21.8419
 30
0.0
 10
19.0054
 20
-21.228
 30
0.0
 10
19.8148
 20
-20.5509
 30
0.0
 10
19.8148
 20
-20.5509
 30
0.0
 10
21.3708
 20
-18.7931
 30
0.0
 10
23.0742
 20
-21.2081
 30
0.0
 10
21.4801
 20
-23.0933
 30
0.0
 10
21.4801
 20
-23.0933
 30
0.0
 10
22.3457
 20
-22.8301
 30
0.0
 10
23.1022
 20
-22.5454
 30
0.0
 10
23.1153
 20
-21.5856
 30
0.0
  0
SPLINE
  5
77
330
1F
100
AcDbEntity
  8
layer 1
 62
     7
100
AcDbSpline
210
0.0
220
0.0
230
1.0
 70
    11
 71
     3
 72
    16
 73
    12
 74
     0
 42
0.0000000001
 43
0.0000000001
 12
1.0
 22
0.0
 32
0.0
 13
1.0
 23
0.0
 33
0.0
 40
0.0
 40
0.0
 40
0.0
 40
0.0
 40
0.25
 40
0.25
 40
0.25
 40
0.25
 40
0.5
 40
0.5
 40
0.5
 40
0.5
 40
1.0
 40
1.0
 40
1.0
 40
1.0
 10
17.4778
 20
-23.1962
 30
0.0
 10
18.5652
 20
-25.4026
 30
0.0
 10
13.3082
 20
-29.0091
 30
0.0
 10
6.947
 20
-25.1937
 30
0.0
 10
6.947
 20
-25.1937
 30
0.0
 10
11.3434
 20
-26.937
 30
0.0
 10
14.7282
 20
-24.9972
 30
0.0
 10
16.0443
 20
-21.0822
 30
0.0
 10
16.0443
 20
-21.0822
 30
0.0
 10
15.116
 20
-23.1992
 30
0.0
 10
16.6867
 20
-23.4458
 30
0.0
 10
17.4778
 20
-23.1962
 30
0.0
  0
SPLINE
  5
78
330
1F
100
AcDbEntity
  8
layer 1
 62
     7
100
AcDbSpline
210
0.0
220
0.0
230
1.0
 70
    11
 71
     3
 72
    40
 73
    36
 74
     0
 42
0.0000000001
 43
0.0000000001
 12
1.0
 22
0.0
 32
0.0
 13
1.0
 23
0.0
 33
0.0
 40
0.0
 40
0.0
 40
0.0
 40
0.0
 40
0.1
 40
0.1
 40
0.1
 40
0.1
 40
0.2
 40
0.2
 40
0.2
 40
0.2
 40
0.3
 40
0.3
 40
0.3
 40
0.3
 40
0.4
 40
0.4
 40
0.4
 40
0.4
 40
0.5
 40
0.5
 40
0.5
 40
0.5
 40
0.6
 40
0.6
 40
0.6
 40
0.6
 40
0.7
 40
0.7
 40
0.7
 40
0.7
 40
0.8
 40
0.8
 40
0.8
 40
0.8
 40
1.0
 40
1.0
 40
1.0
 40
1.0
 10
12.9523
 20
-16.9177
 30
0.0
 10
12.7604
 20
-15.7973
 30
0.0
 10
10.8633
 20
-15.1452
 30
0.0
 10
10.0293
 20
-16.6313
 30
0.0
 10
10.0293
 20
-16.6313
 30
0.0
 10
10.4132
 20
-17.5203
 30
0.0
 10
10.9645
 20
-21.8386
 30
0.0
 10
7.164
 20
-21.367
 30
0.0
 10
7.164
 20
-21.367
 30
0.0
 10
6.0402
 20
-21.228
 30
0.0
 10
5.5169
 20
-19.472
 30
0.0
 10
5.9691
 20
-18.5995
 30
0.0
 10
5.9691
 20
-18.5995
 30
0.0
 10
6.4805
 20
-17.6164
 30
0.0
 10
7.8395
 20
-17.3101
 30
0.0
 10
8.7513
 20
-18.2368
 30
0.0
 10
8.7513
 20
-18.2368
 30
0.0
 10
8.4864
 20
-16.7041
 30
0.0
 10
6.7072
 20
-16.2292
 30
0.0
 10
5.6876
 20
-17.2901
 30
0.0
 10
5.6876
 20
-17.2901
 30
0.0
 10
5.055
 20
-17.9474
 30
0.0
 10
4.3648
 20
-19.0563
 30
0.0
 10
4.58
 20
-20.3377
 30
0.0
 10
4.58
 20
-20.3377
 30
0.0
 10
7.25
 20
-27.1604
 30
0.0
 10
14.3675
 20
-23.6382
 30
0.0
 10
14.9418
 20
-21.2661
 30
0.0
 10
14.9418
 20
-21.2661
 30
0.0
 10
13.7035
 20
-22.9361
 30
0.0
 10
12.2074
 20
-22.4759
 30
0.0
 10
11.9675
 20
-21.1403
 30
0.0
 10
11.9675
 20
-21.1403
 30
0.0
 10
11.815
 20
-19.4385
 30
0.0
 10
13.2172
 20
-18.3729
 30
0.0
 10
12.9523
 20
-16.9177
 30
0.0
  0
SPLINE
  5
79
330
1F
100
AcDbEntity
  8
layer 1
 62
     7
100
AcDbSpline
210
0.0
220
0.0
230
1.0
 70
    11
 71
     3
 72
    68
 73
    64
 74
     0
 42
0.0000000001
 43
0.0000000001
 12
1.0
 22
0.0
 32
0.0
 13
1.0
 23
0.0
 33
0.0
 40
0.0
 40
0.0
 40
0.0
 40
0.0
 40
0.0588235294117647
 40
0.0588235294117647
 40
0.0588235294117647
 40
0.0588235294117647
 40
0.1176470588235294
 40
0.1176470588235294
 40
0.1176470588235294
 40
0.1176470588235294
 40
0.1764705882352941
 40
0.1764705882352941
 40
0.1764705882352941
 40
0.1764705882352941
 40
0.2352941176470588
 40
0.2352941176470588
 40
0.2352941176470588
 40
0.2352941176470588
 40
0.2941176470588235
 40
0.2941176470588235
 40
0.2941176470588235
 40
0.2941176470588235
 40
0.3529411764705883
 40
0.3529411764705883
 40
0.3529411764705883
 40
0.3529411764705883
 40
0.4117647058823529
 40
0.4117647058823529
 40
0.4117647058823529
 40
0.4117647058823529
 40
0.4705882352941176
 40
0.4705882352941176
 40
0.4705882352941176
 40
0.4705882352941176
 40
0.5294117647058824
 40
0.5294117647058824
 40
0.5294117647058824
 40
0.5294117647058824
 40
0.5882352941176471
 40
0.5882352941176471
 40
0.5882352941176471
 40
0.5882352941176471
 40
0.6470588235294118
 40
0.6470588235294118
 40
0.6470588235294118
 40
0.6470588235294118
 40
0.7058823529411765
 40
0.7058823529411765
 40
0.7058823529411765
 40
0.7058823529411765
 40
0.7647058823529411
 40
0.7647058823529411
 40
0.7647058823529411
 40
0.7647058823529411
 40
0.8235294117647058
 40
0.8235294117647058
 40
0.8235294117647058
 40
0.8235294117647058
 40
0.8823529411764706
 40
0.8823529411764706
 40
0.8823529411764706
 40
0.8823529411764706
 40
1.0
 40
1.0
 40
1.0
 40
1.0
 10
25.2738
 20
-23.1729
 30
0.0
 10
25.2738
 20
-21.597
 30
0.0
 10
24.5306
 20
-20.6056
 30
0.0
 10
23.3356
 20
-20.7365
 30
0.0
 10
23.3356
 20
-20.7365
 30
0.0
 10
23.2395
 20
-20.8522
 30
0.0
 10
22.5395
 20
-16.3021
 30
0.0
 10
18.5635
 20
-19.1542
 30
0.0
 10
18.5635
 20
-19.1542
 30
0.0
 10
18.3287
 20
-19.1059
 30
0.0
 10
19.9656
 20
-18.5199
 30
0.0
 10
19.7157
 20
-16.9046
 30
0.0
 10
19.7157
 20
-16.9046
 30
0.0
 10
19.4986
 20
-16.7621
 30
0.0
 10
18.0787
 20
-16.7919
 30
0.0
 10
17.1799
 20
-18.4475
 30
0.0
 10
17.1799
 20
-18.4475
 30
0.0
 10
16.8685
 20
-18.386
 30
0.0
 10
18.9325
 20
-16.1299
 30
0.0
 10
17.8253
 20
-13.3028
 30
0.0
 10
17.8253
 20
-13.3028
 30
0.0
 10
17.4397
 20
-13.1353
 30
0.0
 10
14.649
 20
-14.6668
 30
0.0
 10
14.9884
 20
-17.6542
 30
0.0
 10
14.9884
 20
-17.6542
 30
0.0
 10
15.5609
 20
-13.0477
 30
0.0
 10
9.6386
 20
-12.3079
 30
0.0
 10
9.2594
 20
-16.032
 30
0.0
 10
9.2594
 20
-16.032
 30
0.0
 10
8.0809
 20
-14.6172
 30
0.0
 10
6.2173
 20
-15.1516
 30
0.0
 10
5.4013
 20
-16.2176
 30
0.0
 10
5.4013
 20
-16.2176
 30
0.0
 10
6.8064
 20
-15.0541
 30
0.0
 10
6.5398
 20
-13.4651
 30
0.0
 10
5.0585
 20
-13.1918
 30
0.0
 10
5.0585
 20
-13.1918
 30
0.0
 10
8.0992
 20
-12.8955
 30
0.0
 10
11.0489
 20
-12.0663
 30
0.0
 10
13.5599
 20
-10.6925
 30
0.0
 10
13.5599
 20
-10.6925
 30
0.0
 10
16.2693
 20
-9.211
 30
0.0
 10
18.4346
 20
-7.3157
 30
0.0
 10
19.3962
 20
-6.3525
 30
0.0
 10
19.3962
 20
-6.3525
 30
0.0
 10
19.2338
 20
-7.0691
 30
0.0
 10
18.719
 20
-8.4463
 30
0.0
 10
21.0546
 20
-11.0002
 30
0.0
 10
21.0546
 20
-11.0002
 30
0.0
 10
17.9956
 20
-8.6581
 30
0.0
 10
15.7431
 20
-11.3845
 30
0.0
 10
16.4762
 20
-13.3227
 30
0.0
 10
16.4762
 20
-13.3227
 30
0.0
 10
17.463
 20
-11.573
 30
0.0
 10
22.5593
 20
-12.182
 30
0.0
 10
24.2111
 20
-15.4892
 30
0.0
 10
24.2111
 20
-15.4892
 30
0.0
 10
21.3444
 20
-12.993
 30
0.0
 10
19.7224
 20
-15.2643
 30
0.0
 10
19.8677
 20
-16.1432
 30
0.0
 10
19.8677
 20
-16.1432
 30
0.0
 10
22.2364
 20
-15.8532
 30
0.0
 10
24.7823
 20
-18.222
 30
0.0
 10
25.2738
 20
-23.1729
 30
0.0
  0
SPLINE
  5
7A
330
1F
100
AcDbEntity
  8
layer 1
 62
     7
100
AcDbSpline
210
0.0
220
0.0
230
1.0
 70
    11
 71
     3
 72
    16
 73
    12
 74
     0
 42
0.0000000001
 43
0.0000000001
 12
1.0
 22
0.0
 32
0.0
 13
1.0
 23
0.0
 33
0.0
 40
0.0
 40
0.0
 40
0.0
 40
0.0
 40
0.25
 40
0.25
 40
0.25
 40
0.25
 40
0.5
 40
0.5
 40
0.5
 40
0.5
 40
1.0
 40
1.0
 40
1.0
 40
1.0
 10
18.58
 20
-99.91
 30
0.0
 10
17.3816
 20
-100.8765
 30
0.0
 10
16.046
 20
-101.2177
 30
0.0
 10
14.596
 20
-100.6481
 30
0.0
 10
14.596
 20
-100.6481
 30
0.0
 10
16.4863
 20
-101.9855
 30
0.0
 10
16.8834
 20
-104.8822
 30
0.0
 10
15.7117
 20
-107.3568
 30
0.0
 10
15.7117
 20
-107.3568
 30
0.0
 10
17.6681
 20
-105.2461
 30
0.0
 10
18.4757
 20
-102.6939
 30
0.0
 10
18.58
 20
-99.91
 30
0.0
  0
SPLINE
  5
7B
330
1F
100
AcDbEntity
  8
layer 1
 62
     7
100
AcDbSpline
210
0.0
220
0.0
230
1.0
 70
    11
 71
     3
 72
    32
 73
    28
 74
     0
 42
0.0000000001
 43
0.0000000001
 12
1.0
 22
0.0
 32
0.0
 13
1.0
 23
0.0
 33
0.0
 40
0.0
 40
0.0
 40
0.0
 40
0.0
 40
0.125
 40
0.125
 40
0.125
 40
0.125
 40
0.25
 40
0.25
 40
0.25
 40
0.25
 40
0.375
 40
0.375
 40
0.375
 40
0.375
 40
0.5
 40
0.5
 40
0.5
 40
0.5
 40
0.625
 40
0.625
 40
0.625
 40
0.625
 40
0.75
 40
0.75
 40
0.75
 40
0.75
 40
1.0
 40
1.0
 40
1.0
 40
1.0
 10
9.3687
 20
-66.7522
 30
0.0
 10
12.4442
 20
-66.5734
 30
0.0
 10
12.6642
 20
-65.5289
 30
0.0
 10
14.6057
 20
-65.7043
 30
0.0
 10
14.6057
 20
-65.7043
 30
0.0
 10
17.2808
 20
-65.9442
 30
0.0
 10
19.792
 20
-64.0674
 30
0.0
 10
20.5199
 20
-62.7398
 30
0.0
 10
20.5199
 20
-62.7398
 30
0.0
 10
17.2228
 20
-66.5073
 30
0.0
 10
15.7465
 20
-68.0366
 30
0.0
 10
12.4176
 20
-71.1121
 30
0.0
 10
12.4176
 20
-71.1121
 30
0.0
 10
12.9722
 20
-70.4282
 30
0.0
 10
13.5384
 20
-69.0345
 30
0.0
 10
13.3892
 20
-68.629
 30
0.0
 10
13.3892
 20
-68.629
 30
0.0
 10
10.026
 20
-69.6836
 30
0.0
 10
9.3157
 20
-68.0252
 30
0.0
 10
6.939
 20
-70.554
 30
0.0
 10
6.939
 20
-70.554
 30
0.0
 10
7.8606
 20
-69.0412
 30
0.0
 10
7.7084
 20
-68.4205
 30
0.0
 10
11.623
 20
-67.2933
 30
0.0
 10
11.623
 20
-67.2933
 30
0.0
 10
10.12
 20
-67.0963
 30
0.0
 10
9.0259
 20
-66.7951
 30
0.0
 10
9.3687
 20
-66.7522
 30
0.0
  0
SPLINE
  5
7C
330
1F
100
AcDbEntity
  8
layer 1
 62
     7
100
AcDbSpline
210
0.0
220
0.0
230
1.0
 70
    11
 71
     3
 72
    36
 73
    32
 74
     0
 42
0.0000000001
 43
0.0000000001
 12
1.0
 22
0.0
 32
0.0
 13
1.0
 23
0.0
 33
0.0
 40
0.0
 40
0.0
 40
0.0
 40
0.0
 40
0.1111111111111111
 40
0.1111111111111111
 40
0.1111111111111111
 40
0.1111111111111111
 40
0.2222222222222222
 40
0.2222222222222222
 40
0.2222222222222222
 40
0.2222222222222222
 40
0.3333333333333333
 40
0.3333333333333333
 40
0.3333333333333333
 40
0.3333333333333333
 40
0.4444444444444444
 40
0.4444444444444444
 40
0.4444444444444444
 40
0.4444444444444444
 40
0.5555555555555556
 40
0.5555555555555556
 40
0.5555555555555556
 40
0.5555555555555556
 40
0.6666666666666666
 40
0.6666666666666666
 40
0.6666666666666666
 40
0.6666666666666666
 40
0.7777777777777778
 40
0.7777777777777778
 40
0.7777777777777778
 40
0.7777777777777778
 40
1.0
 40
1.0
 40
1.0
 40
1.0
 10
6.2636
 20
-30.9825
 30
0.0
 10
6.1793
 20
-30.5587
 30
0.0
 10
5.5436
 20
-33.0465
 30
0.0
 10
5.4623
 20
-33.5364
 30
0.0
 10
5.4623
 20
-33.5364
 30
0.0
 10
4.9473
 20
-32.7584
 30
0.0
 10
4.5487
 20
-32.1313
 30
0.0
 10
4.4278
 20
-31.6295
 30
0.0
 10
4.4278
 20
-31.6295
 30
0.0
 10
4.1363
 20
-32.3363
 30
0.0
 10
3.7457
 20
-32.9008
 30
0.0
 10
3.2809
 20
-33.5496
 30
0.0
 10
3.2809
 20
-33.5496
 30
0.0
 10
2.8155
 20
-32.9007
 30
0.0
 10
2.4249
 20
-32.3364
 30
0.0
 10
2.1338
 20
-31.6295
 30
0.0
 10
2.1338
 20
-31.6295
 30
0.0
 10
2.0129
 20
-32.1313
 30
0.0
 10
1.6138
 20
-32.7584
 30
0.0
 10
1.0973
 20
-33.5364
 30
0.0
 10
1.0973
 20
-33.5364
 30
0.0
 10
1.018
 20
-33.0465
 30
0.0
 10
0.3825
 20
-30.5588
 30
0.0
 10
0.2982
 20
-30.9825
 30
0.0
 10
0.2982
 20
-30.9825
 30
0.0
 10
-0.5231
 20
-35.0821
 30
0.0
 10
-0.2812
 20
-38.6179
 30
0.0
 10
3.2809
 20
-38.729
 30
0.0
 10
3.2809
 20
-38.729
 30
0.0
 10
6.8411
 20
-38.6179
 30
0.0
 10
7.0843
 20
-35.0823
 30
0.0
 10
6.2636
 20
-30.9825
 30
0.0
  0
SPLINE
  5
7D
330
1F
100
AcDbEntity
  8
layer 1
 62
     7
100
AcDbSpline
210
0.0
220
0.0
230
1.0
 70
    11
 71
     3
 72
    52
 73
    48
 74
     0
 42
0.0000000001
 43
0.0000000001
 12
1.0
 22
0.0
 32
0.0
 13
1.0
 23
0.0
 33
0.0
 40
0.0
 40
0.0
 40
0.0
 40
0.0
 40
0.0769230769230769
 40
0.0769230769230769
 40
0.0769230769230769
 40
0.0769230769230769
 40
0.1538461538461539
 40
0.1538461538461539
 40
0.1538461538461539
 40
0.1538461538461539
 40
0.2307692307692308
 40
0.2307692307692308
 40
0.2307692307692308
 40
0.2307692307692308
 40
0.3076923076923077
 40
0.3076923076923077
 40
0.3076923076923077
 40
0.3076923076923077
 40
0.3846153846153846
 40
0.3846153846153846
 40
0.3846153846153846
 40
0.3846153846153846
 40
0.4615384615384616
 40
0.4615384615384616
 40
0.4615384615384616
 40
0.4615384615384616
 40
0.5384615384615384
 40
0.5384615384615384
 40
0.5384615384615384
 40
0.5384615384615384
 40
0.6153846153846154
 40
0.6153846153846154
 40
0.6153846153846154
 40
0.6153846153846154
 40
0.6923076923076923
 40
0.6923076923076923
 40
0.6923076923076923
 40
0.6923076923076923
 40
0.7692307692307693
 40
0.7692307692307693
 40
0.7692307692307693
 40
0.7692307692307693
 40
0.8461538461538461
 40
0.8461538461538461
 40
0.8461538461538461
 40
0.8461538461538461
 40
1.0
 40
1.0
 40
1.0
 40
1.0
 10
9.7759
 20
-48.2746
 30
0.0
 10
7.9272
 20
-48.6139
 30
0.0
 10
6.4902
 20
-49.597
 30
0.0
 10
5.4588
 20
-51.2475
 30
0.0
 10
5.4588
 20
-51.2475
 30
0.0
 10
6.939
 20
-48.8787
 30
0.0
 10
6.7237
 20
-46.9105
 30
0.0
 10
7.6174
 20
-46.002
 30
0.0
 10
7.6174
 20
-46.002
 30
0.0
 10
6.6855
 20
-45.8664
 30
0.0
 10
5.5996
 20
-46.194
 30
0.0
 10
5.2338
 20
-46.9669
 30
0.0
 10
5.2338
 20
-46.9669
 30
0.0
 10
5.8165
 20
-45.4375
 30
0.0
 10
7.0102
 20
-42.8883
 30
0.0
 10
4.2029
 20
-40.6921
 30
0.0
 10
4.2029
 20
-40.6921
 30
0.0
 10
7.4454
 20
-41.6039
 30
0.0
 10
9.2331
 20
-37.4692
 30
0.0
 10
7.9203
 20
-34.0097
 30
0.0
 10
7.9203
 20
-34.0097
 30
0.0
 10
8.6339
 20
-36.0293
 30
0.0
 10
9.8454
 20
-35.7793
 30
0.0
 10
10.0442
 20
-35.6631
 30
0.0
 10
10.0442
 20
-35.6631
 30
0.0
 10
8.6237
 20
-34.6966
 30
0.0
 10
10.7607
 20
-33.6606
 30
0.0
 10
9.0543
 20
-31.8893
 30
0.0
 10
9.0543
 20
-31.8893
 30
0.0
 10
10.8056
 20
-33.1572
 30
0.0
 10
13.9917
 20
-35.9432
 30
0.0
 10
15.2846
 20
-38.0569
 30
0.0
 10
15.2846
 20
-38.0569
 30
0.0
 10
8.5213
 20
-33.7152
 30
0.0
 10
7.2796
 20
-43.1515
 30
0.0
 10
11.426
 20
-41.9747
 30
0.0
 10
11.426
 20
-41.9747
 30
0.0
 10
9.973
 20
-38.8348
 30
0.0
 10
13.2172
 20
-38.4527
 30
0.0
 10
14.4553
 20
-39.8675
 30
0.0
 10
14.4553
 20
-39.8675
 30
0.0
 10
15.2298
 20
-40.7548
 30
0.0
 10
15.5875
 20
-43.0888
 30
0.0
 10
13.3032
 20
-44.0257
 30
0.0
 10
13.3032
 20
-44.0257
 30
0.0
 10
11.5769
 20
-44.8914
 30
0.0
 10
6.7915
 20
-45.3431
 30
0.0
 10
9.7759
 20
-48.2746
 30
0.0
  0
SPLINE
  5
7E
330
1F
100
AcDbEntity
  8
layer 1
 62
     7
100
AcDbSpline
210
0.0
220
0.0
230
1.0
 70
    11
 71
     3
 72
    24
 73
    20
 74
     0
 42
0.0000000001
 43
0.0000000001
 12
1.0
 22
0.0
 32
0.0
 13
1.0
 23
0.0
 33
0.0
 40
0.0
 40
0.0
 40
0.0
 40
0.0
 40
0.1666666666666667
 40
0.1666666666666667
 40
0.1666666666666667
 40
0.1666666666666667
 40
0.3333333333333333
 40
0.3333333333333333
 40
0.3333333333333333
 40
0.3333333333333333
 40
0.5
 40
0.5
 40
0.5
 40
0.5
 40
0.6666666666666666
 40
0.6666666666666666
 40
0.6666666666666666
 40
0.6666666666666666
 40
1.0
 40
1.0
 40
1.0
 40
1.0
 10
23.1153
 20
-21.5856
 30
0.0
 10
24.7077
 20
-23.7853
 30
0.0
 10
21.7716
 20
-29.5524
 30
0.0
 10
13.4209
 20
-28.2596
 30
0.0
 10
13.4209
 20
-28.2596
 30
0.0
 10
19.272
 20
-28.3689
 30
0.0
 10
21.0398
 20
-23.8302
 30
0.0
 10
18.0321
 20
-22.9332
 30
0.0
 10
18.0321
 20
-22.9332
 30
0.0
 10
19.0948
 20
-21.8419
 30
0.0
 10
19.0054
 20
-21.228
 30
0.0
 10
19.8148
 20
-20.5509
 30
0.0
 10
19.8148
 20
-20.5509
 30
0.0
 10
21.3708
 20
-18.7931
 30
0.0
 10
23.0742
 20
-21.2081
 30
0.0
 10
21.4801
 20
-23.0933
 30
0.0
 10
21.4801
 20
-23.0933
 30
0.0
 10
22.3457
 20
-22.8301
 30
0.0
 10
23.1022
 20
-22.5454
 30
0.0
 10
23.1153
 20
-21.5856
 30
0.0
  0
SPLINE
  5
7F
330
1F
100
AcDbEntity
  8
layer 1
 62
     7
100
AcDbSpline
210
0.0
220
0.0
230
1.0
 70
    11
 71
     3
 72
    28
 73
    24
 74
     0
 42
0.0000000001
 43
0.0000000001
 12
1.0
 22
0.0
 32
0.0
 13
1.0
 23
0.0
 33
0.0
 40
0.0
 40
0.0
 40
0.0
 40
0.0
 40
0.1428571428571428
 40
0.1428571428571428
 40
0.1428571428571428
 40
0.1428571428571428
 40
0.2857142857142857
 40
0.2857142857142857
 40
0.2857142857142857
 40
0.2857142857142857
 40
0.4285714285714285
 40
0.4285714285714285
 40
0.4285714285714285
 40
0.4285714285714285
 40
0.5714285714285714
 40
0.5714285714285714
 40
0.5714285714285714
 40
0.5714285714285714
 40
0.7142857142857143
 40
0.7142857142857143
 40
0.7142857142857143
 40
0.7142857142857143
 40
1.0
 40
1.0
 40
1.0
 40
1.0
 10
15.9647
 20
-60.8529
 30
0.0
 10
22.2136
 20
-58.0091
 30
0.0
 10
19.4576
 20
-47.6622
 30
0.0
 10
13.4586
 20
-48.061
 30
0.0
 10
13.4586
 20
-48.061
 30
0.0
 10
17.8965
 20
-48.0313
 30
0.0
 10
14.657
 20
-44.1151
 30
0.0
 10
19.3181
 20
-43.8718
 30
0.0
 10
19.3181
 20
-43.8718
 30
0.0
 10
19.5088
 20
-43.4646
 30
0.0
 10
17.6464
 20
-41.4435
 30
0.0
 10
15.5956
 20
-43.721
 30
0.0
 10
15.5956
 20
-43.721
 30
0.0
 10
16.8274
 20
-42.3489
 30
0.0
 10
16.9563
 20
-40.6722
 30
0.0
 10
16.2795
 20
-39.421
 30
0.0
 10
16.2795
 20
-39.421
 30
0.0
 10
19.469
 20
-42.0362
 30
0.0
 10
23.8192
 20
-49.1784
 30
0.0
 10
23.6187
 20
-53.6806
 30
0.0
 10
23.6187
 20
-53.6806
 30
0.0
 10
23.3818
 20
-59.0253
 30
0.0
 10
19.6262
 20
-63.0577
 30
0.0
 10
15.9647
 20
-60.8529
 30
0.0
  0
SPLINE
  5
80
330
1F
100
AcDbEntity
  8
layer 1
 62
     7
100
AcDbSpline
210
0.0
220
0.0
230
1.0
 70
    11
 71
     3
 72
    20
 73
    16
 74
     0
 42
0.0000000001
 43
0.0000000001
 12
1.0
 22
0.0
 32
0.0
 13
1.0
 23
0.0
 33
0.0
 40
0.0
 40
0.0
 40
0.0
 40
0.0
 40
0.2
 40
0.2
 40
0.2
 40
0.2
 40
0.4
 40
0.4
 40
0.4
 40
0.4
 40
0.6
 40
0.6
 40
0.6
 40
0.6
 40
1.0
 40
1.0
 40
1.0
 40
1.0
 10
15.0545
 20
-61.2932
 30
0.0
 10
14.0829
 20
-61.6935
 30
0.0
 10
12.8697
 20
-63.6551
 30
0.0
 10
17.6219
 20
-63.3653
 30
0.0
 10
17.6219
 20
-63.3653
 30
0.0
 10
14.8825
 20
-64.3818
 30
0.0
 10
8.8292
 20
-63.8618
 30
0.0
 10
7.5064
 20
-61.2995
 30
0.0
 10
7.5064
 20
-61.2995
 30
0.0
 10
6.4208
 20
-59.507
 30
0.0
 10
6.2173
 20
-54.9188
 30
0.0
 10
9.4069
 20
-56.1502
 30
0.0
 10
9.4069
 20
-56.1502
 30
0.0
 10
7.9022
 20
-59.9342
 30
0.0
 10
11.9824
 20
-62.0199
 30
0.0
 10
15.0545
 20
-61.2932
 30
0.0
  0
SPLINE
  5
81
330
1F
100
AcDbEntity
  8
layer 1
 62
     7
100
AcDbSpline
210
0.0
220
0.0
230
1.0
 70
    11
 71
     3
 72
    28
 73
    24
 74
     0
 42
0.0000000001
 43
0.0000000001
 12
1.0
 22
0.0
 32
0.0
 13
1.0
 23
0.0
 33
0.0
 40
0.0
 40
0.0
 40
0.0
 40
0.0
 40
0.1428571428571428
 40
0.1428571428571428
 40
0.1428571428571428
 40
0.1428571428571428
 40
0.2857142857142857
 40
0.2857142857142857
 40
0.2857142857142857
 40
0.2857142857142857
 40
0.4285714285714285
 40
0.4285714285714285
 40
0.4285714285714285
 40
0.4285714285714285
 40
0.5714285714285714
 40
0.5714285714285714
 40
0.5714285714285714
 40
0.5714285714285714
 40
0.7142857142857143
 40
0.7142857142857143
 40
0.7142857142857143
 40
0.7142857142857143
 40
1.0
 40
1.0
 40
1.0
 40
1.0
 10
13.1197
 20
-59.618
 30
0.0
 10
18.6945
 20
-57.2939
 30
0.0
 10
14.4867
 20
-50.6928
 30
0.0
 10
9.8174
 20
-54.7833
 30
0.0
 10
9.8174
 20
-54.7833
 30
0.0
 10
10.3124
 20
-52.3831
 30
0.0
 10
5.9657
 20
-51.8153
 30
0.0
 10
5.8546
 20
-55.9053
 30
0.0
 10
5.8546
 20
-55.9053
 30
0.0
 10
5.7719
 20
-55.2565
 30
0.0
 10
7.5661
 20
-50.6746
 30
0.0
 10
9.6781
 20
-50.2657
 30
0.0
 10
9.6781
 20
-50.2657
 30
0.0
 10
9.809
 20
-52.8912
 30
0.0
 10
14.1028
 20
-49.7394
 30
0.0
 10
14.6672
 20
-53.2684
 30
0.0
 10
14.6672
 20
-53.2684
 30
0.0
 10
15.1324
 20
-53.7238
 30
0.0
 10
18.0787
 20
-52.0882
 30
0.0
 10
13.1709
 20
-49.6649
 30
0.0
 10
13.1709
 20
-49.6649
 30
0.0
 10
20.0054
 20
-51.6314
 30
0.0
 10
18.6199
 20
-59.3317
 30
0.0
 10
13.1197
 20
-59.618
 30
0.0
  0
SPLINE
  5
82
330
1F
100
AcDbEntity
  8
layer 1
 62
     7
100
AcDbSpline
210
0.0
220
0.0
230
1.0
 70
    11
 71
     3
 72
    16
 73
    12
 74
     0
 42
0.0000000001
 43
0.0000000001
 12
1.0
 22
0.0
 32
0.0
 13
1.0
 23
0.0
 33
0.0
 40
0.0
 40
0.0
 40
0.0
 40
0.0
 40
0.25
 40
0.25
 40
0.25
 40
0.25
 40
0.5
 40
0.5
 40
0.5
 40
0.5
 40
1.0
 40
1.0
 40
1.0
 40
1.0
 10
9.9946
 20
-97.806
 30
0.0
 10
12.6065
 20
-98.2611
 30
0.0
 10
12.7489
 20
-99.1137
 30
0.0
 10
13.6858
 20
-99.91
 30
0.0
 10
13.6858
 20
-99.91
 30
0.0
 10
17.3948
 20
-99.3137
 30
0.0
 10
15.6337
 20
-97.8323
 30
0.0
 10
15.2566
 20
-96.9518
 30
0.0
 10
15.2566
 20
-96.9518
 30
0.0
 10
13.9154
 20
-98.0841
 30
0.0
 10
12.8481
 20
-98.4879
 30
0.0
 10
9.9946
 20
-97.806
 30
0.0
  0
SPLINE
  5
83
330
1F
100
AcDbEntity
  8
layer 1
 62
     7
100
AcDbSpline
210
0.0
220
0.0
230
1.0
 70
    11
 71
     3
 72
    36
 73
    32
 74
     0
 42
0.0000000001
 43
0.0000000001
 12
1.0
 22
0.0
 32
0.0
 13
1.0
 23
0.0
 33
0.0
 40
0.0
 40
0.0
 40
0.0
 40
0.0
 40
0.1111111111111111
 40
0.1111111111111111
 40
0.1111111111111111
 40
0.1111111111111111
 40
0.2222222222222222
 40
0.2222222222222222
 40
0.2222222222222222
 40
0.2222222222222222
 40
0.3333333333333333
 40
0.3333333333333333
 40
0.3333333333333333
 40
0.3333333333333333
 40
0.4444444444444444
 40
0.4444444444444444
 40
0.4444444444444444
 40
0.4444444444444444
 40
0.5555555555555556
 40
0.5555555555555556
 40
0.5555555555555556
 40
0.5555555555555556
 40
0.6666666666666666
 40
0.6666666666666666
 40
0.6666666666666666
 40
0.6666666666666666
 40
0.7777777777777778
 40
0.7777777777777778
 40
0.7777777777777778
 40
0.7777777777777778
 40
1.0
 40
1.0
 40
1.0
 40
1.0
 10
8.7
 20
-71.112
 30
0.0
 10
7.745
 20
-71.8816
 30
0.0
 10
7.6937
 20
-73.3516
 30
0.0
 10
8.0314
 20
-73.5402
 30
0.0
 10
8.0314
 20
-73.5402
 30
0.0
 10
9.5475
 20
-71.7244
 30
0.0
 10
9.3373
 20
-73.0287
 30
0.0
 10
11.4413
 20
-72.2142
 30
0.0
 10
11.4413
 20
-72.2142
 30
0.0
 10
8.089
 20
-74.7914
 30
0.0
 10
4.7787
 20
-79.9161
 30
0.0
 10
3.2809
 20
-88.7139
 30
0.0
 10
3.2809
 20
-88.7139
 30
0.0
 10
1.7829
 20
-79.9161
 30
0.0
 10
-1.5295
 20
-74.7914
 30
0.0
 10
-4.8812
 20
-72.2142
 30
0.0
 10
-4.8812
 20
-72.2142
 30
0.0
 10
-2.7774
 20
-73.0287
 30
0.0
 10
-2.9859
 20
-71.7244
 30
0.0
 10
-1.4697
 20
-73.5402
 30
0.0
 10
-1.4697
 20
-73.5402
 30
0.0
 10
-1.1321
 20
-73.3516
 30
0.0
 10
-1.1832
 20
-71.8816
 30
0.0
 10
-2.1401
 20
-71.1121
 30
0.0
 10
-2.1401
 20
-71.1121
 30
0.0
 10
1.0528
 20
-74.0452
 30
0.0
 10
-0.1786
 20
-70.3523
 30
0.0
 10
3.2809
 20
-73.9673
 30
0.0
 10
3.2809
 20
-73.9673
 30
0.0
 10
6.7402
 20
-70.3523
 30
0.0
 10
5.5089
 20
-74.0452
 30
0.0
 10
8.7
 20
-71.112
 30
0.0
  0
SPLINE
  5
84
330
1F
100
AcDbEntity
  8
layer 1
 62
     7
100
AcDbSpline
210
0.0
220
0.0
230
1.0
 70
    11
 71
     3
 72
    32
 73
    28
 74
     0
 42
0.0000000001
 43
0.0000000001
 12
1.0
 22
0.0
 32
0.0
 13
1.0
 23
0.0
 33
0.0
 40
0.0
 40
0.0
 40
0.0
 40
0.0
 40
0.125
 40
0.125
 40
0.125
 40
0.125
 40
0.25
 40
0.25
 40
0.25
 40
0.25
 40
0.375
 40
0.375
 40
0.375
 40
0.375
 40
0.5
 40
0.5
 40
0.5
 40
0.5
 40
0.625
 40
0.625
 40
0.625
 40
0.625
 40
0.75
 40
0.75
 40
0.75
 40
0.75
 40
1.0
 40
1.0
 40
1.0
 40
1.0
 10
23.0924
 20
-89.3593
 30
0.0
 10
23.3572
 20
-93.4195
 30
0.0
 10
19.6181
 20
-93.6513
 30
0.0
 10
18.6563
 20
-92.5339
 30
0.0
 10
18.6563
 20
-92.5339
 30
0.0
 10
18.3088
 20
-94.2106
 30
0.0
 10
17.4677
 20
-95.3366
 30
0.0
 10
16.4066
 20
-96.3959
 30
0.0
 10
16.4066
 20
-96.3959
 30
0.0
 10
17.7592
 20
-96.6488
 30
0.0
 10
18.7885
 20
-98.0824
 30
0.0
 10
18.9161
 20
-99.0011
 30
0.0
 10
18.9161
 20
-99.0011
 30
0.0
 10
18.9161
 20
-99.0011
 30
0.0
 10
25.4162
 20
-99.0244
 30
0.0
 10
25.4162
 20
-99.0244
 30
0.0
 10
25.4162
 20
-99.0244
 30
0.0
 10
25.4162
 20
-99.0244
 30
0.0
 10
25.4162
 20
-86.6265
 30
0.0
 10
25.4162
 20
-86.6265
 30
0.0
 10
25.4162
 20
-86.6265
 30
0.0
 10
23.6967
 20
-83.3607
 30
0.0
 10
22.1471
 20
-84.4981
 30
0.0
 10
20.5101
 20
-83.6353
 30
0.0
 10
20.5101
 20
-83.6353
 30
0.0
 10
22.5975
 20
-85.582
 30
0.0
 10
22.7763
 20
-87.0867
 30
0.0
 10
23.0924
 20
-89.3593
 30
0.0
  0
SPLINE
  5
85
330
1F
100
AcDbEntity
  8
layer 1
 62
     7
100
AcDbSpline
210
0.0
220
0.0
230
1.0
 70
    11
 71
     3
 72
    24
 73
    20
 74
     0
 42
0.0000000001
 43
0.0000000001
 12
1.0
 22
0.0
 32
0.0
 13
1.0
 23
0.0
 33
0.0
 40
0.0
 40
0.0
 40
0.0
 40
0.0
 40
0.1666666666666667
 40
0.1666666666666667
 40
0.1666666666666667
 40
0.1666666666666667
 40
0.3333333333333333
 40
0.3333333333333333
 40
0.3333333333333333
 40
0.3333333333333333
 40
0.5
 40
0.5
 40
0.5
 40
0.5
 40
0.6666666666666666
 40
0.6666666666666666
 40
0.6666666666666666
 40
0.6666666666666666
 40
1.0
 40
1.0
 40
1.0
 40
1.0
 10
22.0165
 20
-77.6419
 30
0.0
 10
23.167
 20
-78.0026
 30
0.0
 10
23.9615
 20
-78.3089
 30
0.0
 10
24.4878
 20
-78.8238
 30
0.0
 10
24.4878
 20
-78.8238
 30
0.0
 10
24.0259
 20
-79.4411
 30
0.0
 10
23.0577
 20
-79.3301
 30
0.0
 10
22.2301
 20
-79.4327
 30
0.0
 10
22.2301
 20
-79.4327
 30
0.0
 10
24.2458
 20
-80.5449
 30
0.0
 10
24.3551
 20
-81.7022
 30
0.0
 10
25.4162
 20
-84.1319
 30
0.0
 10
25.4162
 20
-84.1319
 30
0.0
 10
25.4162
 20
-84.1319
 30
0.0
 10
25.4162
 20
-75.366
 30
0.0
 10
25.4162
 20
-75.366
 30
0.0
 10
25.4162
 20
-75.366
 30
0.0
 10
24.948
 20
-77.5093
 30
0.0
 10
23.2229
 20
-77.9283
 30
0.0
 10
22.0165
 20
-77.6419
 30
0.0
  0
SPLINE
  5
86
330
1F
100
AcDbEntity
  8
layer 1
 62
     7
100
AcDbSpline
210
0.0
220
0.0
230
1.0
 70
    11
 71
     3
 72
    28
 73
    24
 74
     0
 42
0.0000000001
 43
0.0000000001
 12
1.0
 22
0.0
 32
0.0
 13
1.0
 23
0.0
 33
0.0
 40
0.0
 40
0.0
 40
0.0
 40
0.0
 40
0.1428571428571428
 40
0.1428571428571428
 40
0.1428571428571428
 40
0.1428571428571428
 40
0.2857142857142857
 40
0.2857142857142857
 40
0.2857142857142857
 40
0.2857142857142857
 40
0.4285714285714285
 40
0.4285714285714285
 40
0.4285714285714285
 40
0.4285714285714285
 40
0.5714285714285714
 40
0.5714285714285714
 40
0.5714285714285714
 40
0.5714285714285714
 40
0.7142857142857143
 40
0.7142857142857143
 40
0.7142857142857143
 40
0.7142857142857143
 40
1.0
 40
1.0
 40
1.0
 40
1.0
 10
16.2494
 20
-76.144
 30
0.0
 10
17.2193
 20
-73.416
 30
0.0
 10
20.1479
 20
-74.9042
 30
0.0
 10
20.4937
 20
-75.419
 30
0.0
 10
20.4937
 20
-75.419
 30
0.0
 10
24.1615
 20
-77.352
 30
0.0
 10
25.4162
 20
-73.2007
 30
0.0
 10
22.0941
 20
-71.7146
 30
0.0
 10
22.0941
 20
-71.7146
 30
0.0
 10
23.3373
 20
-71.2825
 30
0.0
 10
25.4162
 20
-71.8947
 30
0.0
 10
25.4162
 20
-74.6427
 30
0.0
 10
25.4162
 20
-74.6427
 30
0.0
 10
25.4162
 20
-74.6427
 30
0.0
 10
25.4162
 20
-55.8887
 30
0.0
 10
25.4162
 20
-55.8887
 30
0.0
 10
25.4162
 20
-55.8887
 30
0.0
 10
25.4162
 20
-58.5537
 30
0.0
 10
22.3806
 20
-64.3369
 30
0.0
 10
17.6681
 20
-69.49
 30
0.0
 10
17.6681
 20
-69.49
 30
0.0
 10
15.2515
 20
-72.3714
 30
0.0
 10
15.1338
 20
-74.8477
 30
0.0
 10
16.2494
 20
-76.144
 30
0.0
  0
SPLINE
  5
87
330
1F
100
AcDbEntity
  8
layer 1
 62
     7
100
AcDbSpline
210
0.0
220
0.0
230
1.0
 70
    11
 71
     3
 72
    24
 73
    20
 74
     0
 42
0.0000000001
 43
0.0000000001
 12
1.0
 22
0.0
 32
0.0
 13
1.0
 23
0.0
 33
0.0
 40
0.0
 40
0.0
 40
0.0
 40
0.0
 40
0.1666666666666667
 40
0.1666666666666667
 40
0.1666666666666667
 40
0.1666666666666667
 40
0.3333333333333333
 40
0.3333333333333333
 40
0.3333333333333333
 40
0.3333333333333333
 40
0.5
 40
0.5
 40
0.5
 40
0.5
 40
0.6666666666666666
 40
0.6666666666666666
 40
0.6666666666666666
 40
0.6666666666666666
 40
1.0
 40
1.0
 40
1.0
 40
1.0
 10
22.134
 20
-81.5514
 30
0.0
 10
19.9177
 20
-81.9768
 30
0.0
 10
19.1233
 20
-80.959
 30
0.0
 10
18.6283
 20
-81.2654
 30
0.0
 10
18.6283
 20
-81.2654
 30
0.0
 10
18.6067
 20
-82.028
 30
0.0
 10
18.56
 20
-83.0133
 30
0.0
 10
18.1249
 20
-83.3823
 30
0.0
 10
18.1249
 20
-83.3823
 30
0.0
 10
14.5264
 20
-80.1974
 30
0.0
 10
16.3159
 20
-76.5428
 30
0.0
 10
20.4139
 20
-78.6996
 30
0.0
 10
20.4139
 20
-78.6996
 30
0.0
 10
20.7534
 20
-78.9878
 30
0.0
 10
18.7423
 20
-79.628
 30
0.0
 10
19.1216
 20
-79.6445
 30
0.0
 10
19.1216
 20
-79.6445
 30
0.0
 10
20.841
 20
-79.7157
 30
0.0
 10
21.3661
 20
-81.1065
 30
0.0
 10
22.134
 20
-81.5514
 30
0.0
  0
SPLINE
  5
88
330
1F
100
AcDbEntity
  8
layer 1
 62
     7
100
AcDbSpline
210
0.0
220
0.0
230
1.0
 70
    11
 71
     3
 72
    36
 73
    32
 74
     0
 42
0.0000000001
 43
0.0000000001
 12
1.0
 22
0.0
 32
0.0
 13
1.0
 23
0.0
 33
0.0
 40
0.0
 40
0.0
 40
0.0
 40
0.0
 40
0.1111111111111111
 40
0.1111111111111111
 40
0.1111111111111111
 40
0.1111111111111111
 40
0.2222222222222222
 40
0.2222222222222222
 40
0.2222222222222222
 40
0.2222222222222222
 40
0.3333333333333333
 40
0.3333333333333333
 40
0.3333333333333333
 40
0.3333333333333333
 40
0.4444444444444444
 40
0.4444444444444444
 40
0.4444444444444444
 40
0.4444444444444444
 40
0.5555555555555556
 40
0.5555555555555556
 40
0.5555555555555556
 40
0.5555555555555556
 40
0.6666666666666666
 40
0.6666666666666666
 40
0.6666666666666666
 40
0.6666666666666666
 40
0.7777777777777778
 40
0.7777777777777778
 40
0.7777777777777778
 40
0.7777777777777778
 40
1.0
 40
1.0
 40
1.0
 40
1.0
 10
14.4404
 20
-108.4907
 30
0.0
 10
14.0612
 20
-108.7966
 30
0.0
 10
10.9327
 20
-109.2454
 30
0.0
 10
10.2013
 20
-108.0203
 30
0.0
 10
10.2013
 20
-108.0203
 30
0.0
 10
16.4829
 20
-105.9711
 30
0.0
 10
11.1764
 20
-100.2659
 30
0.0
 10
8.5047
 20
-98.7875
 30
0.0
 10
8.5047
 20
-98.7875
 30
0.0
 10
9.1848
 20
-99.2693
 30
0.0
 10
9.9547
 20
-101.11
 30
0.0
 10
9.3853
 20
-102.9207
 30
0.0
 10
9.3853
 20
-102.9207
 30
0.0
 10
9.2742
 20
-103.2749
 30
0.0
 10
7.2716
 20
-101.1431
 30
0.0
 10
7.1076
 20
-101.5172
 30
0.0
 10
7.1076
 20
-101.5172
 30
0.0
 10
8.2118
 20
-103.2618
 30
0.0
 10
8.4318
 20
-104.6223
 30
0.0
 10
8.5377
 20
-106.5042
 30
0.0
 10
8.5377
 20
-106.5042
 30
0.0
 10
7.111
 20
-105.7859
 30
0.0
 10
6.8577
 20
-105.205
 30
0.0
 10
6.3992
 20
-104.7016
 30
0.0
 10
6.3992
 20
-104.7016
 30
0.0
 10
8.2564
 20
-107.9691
 30
0.0
 10
6.9271
 20
-110.7963
 30
0.0
 10
4.625
 20
-111.8972
 30
0.0
 10
4.625
 20
-111.8972
 30
0.0
 10
7.7631
 20
-111.8306
 30
0.0
 10
13.0218
 20
-110.9124
 30
0.0
 10
14.4404
 20
-108.4907
 30
0.0
  0
SPLINE
  5
89
330
1F
100
AcDbEntity
  8
layer 1
 62
     7
100
AcDbSpline
210
0.0
220
0.0
230
1.0
 70
    11
 71
     3
 72
    28
 73
    24
 74
     0
 42
0.0000000001
 43
0.0000000001
 12
1.0
 22
0.0
 32
0.0
 13
1.0
 23
0.0
 33
0.0
 40
0.0
 40
0.0
 40
0.0
 40
0.0
 40
0.1428571428571428
 40
0.1428571428571428
 40
0.1428571428571428
 40
0.1428571428571428
 40
0.2857142857142857
 40
0.2857142857142857
 40
0.2857142857142857
 40
0.2857142857142857
 40
0.4285714285714285
 40
0.4285714285714285
 40
0.4285714285714285
 40
0.4285714285714285
 40
0.5714285714285714
 40
0.5714285714285714
 40
0.5714285714285714
 40
0.5714285714285714
 40
0.7142857142857143
 40
0.7142857142857143
 40
0.7142857142857143
 40
0.7142857142857143
 40
1.0
 40
1.0
 40
1.0
 40
1.0
 10
17.2295
 20
-84.4981
 30
0.0
 10
23.3688
 20
-88.51
 30
0.0
 10
20.3495
 20
-91.4021
 30
0.0
 10
18.719
 20
-91.7529
 30
0.0
 10
18.719
 20
-91.7529
 30
0.0
 10
19.2867
 20
-82.937
 30
0.0
 10
9.4798
 20
-83.6951
 30
0.0
 10
8.6819
 20
-87.9689
 30
0.0
 10
8.6819
 20
-87.9689
 30
0.0
 10
6.8064
 20
-87.8363
 30
0.0
 10
6.7635
 20
-85.0871
 30
0.0
 10
7.2632
 20
-82.6442
 30
0.0
 10
7.2632
 20
-82.6442
 30
0.0
 10
8.003
 20
-79.039
 30
0.0
 10
10.6251
 20
-74.7669
 30
0.0
 10
15.9647
 20
-69.6655
 30
0.0
 10
15.9647
 20
-69.6655
 30
0.0
 10
13.2171
 20
-73.9473
 30
0.0
 10
14.5909
 20
-77.0013
 30
0.0
 10
15.4434
 20
-77.3738
 30
0.0
 10
15.4434
 20
-77.3738
 30
0.0
 10
9.809
 20
-80.6691
 30
0.0
 10
15.9185
 20
-83.5891
 30
0.0
 10
17.2295
 20
-84.4981
 30
0.0
  0
SPLINE
  5
8A
330
1F
100
AcDbEntity
  8
layer 1
 62
     7
100
AcDbSpline
210
0.0
220
0.0
230
1.0
 70
    11
 71
     3
 72
    36
 73
    32
 74
     0
 42
0.0000000001
 43
0.0000000001
 12
1.0
 22
0.0
 32
0.0
 13
1.0
 23
0.0
 33
0.0
 40
0.0
 40
0.0
 40
0.0
 40
0.0
 40
0.1111111111111111
 40
0.1111111111111111
 40
0.1111111111111111
 40
0.1111111111111111
 40
0.2222222222222222
 40
0.2222222222222222
 40
0.2222222222222222
 40
0.2222222222222222
 40
0.3333333333333333
 40
0.3333333333333333
 40
0.3333333333333333
 40
0.3333333333333333
 40
0.4444444444444444
 40
0.4444444444444444
 40
0.4444444444444444
 40
0.4444444444444444
 40
0.5555555555555556
 40
0.5555555555555556
 40
0.5555555555555556
 40
0.5555555555555556
 40
0.6666666666666666
 40
0.6666666666666666
 40
0.6666666666666666
 40
0.6666666666666666
 40
0.7777777777777778
 40
0.7777777777777778
 40
0.7777777777777778
 40
0.7777777777777778
 40
1.0
 40
1.0
 40
1.0
 40
1.0
 10
7.0677
 20
-97.4039
 30
0.0
 10
6.1657
 20
-97.5463
 30
0.0
 10
4.9706
 20
-97.4947
 30
0.0
 10
3.9181
 20
-96.8277
 30
0.0
 10
3.9181
 20
-96.8277
 30
0.0
 10
3.6732
 20
-99.5603
 30
0.0
 10
4.7936
 20
-100.2722
 30
0.0
 10
5.2936
 20
-101.6163
 30
0.0
 10
5.2936
 20
-101.6163
 30
0.0
 10
5.4241
 20
-102.6261
 30
0.0
 10
4.7884
 20
-103.1939
 30
0.0
 10
3.2809
 20
-103.26
 30
0.0
 10
3.2809
 20
-103.26
 30
0.0
 10
1.8159
 20
-103.26
 30
0.0
 10
1.0693
 20
-102.7601
 30
0.0
 10
1.2664
 20
-101.6163
 30
0.0
 10
1.2664
 20
-101.6163
 30
0.0
 10
1.7663
 20
-100.2722
 30
0.0
 10
2.8884
 20
-99.5603
 30
0.0
 10
2.6418
 20
-96.8277
 30
0.0
 10
2.6418
 20
-96.8277
 30
0.0
 10
1.591
 20
-97.4947
 30
0.0
 10
0.3956
 20
-97.5463
 30
0.0
 10
-0.5083
 20
-97.404
 30
0.0
 10
-0.5083
 20
-97.404
 30
0.0
 10
1.3922
 20
-95.6162
 30
0.0
 10
2.5046
 20
-94.878
 30
0.0
 10
3.2809
 20
-90.8724
 30
0.0
 10
3.2809
 20
-90.8724
 30
0.0
 10
4.0554
 20
-94.878
 30
0.0
 10
5.1694
 20
-95.6162
 30
0.0
 10
7.0677
 20
-97.4039
 30
0.0
  0
SPLINE
  5
8B
330
1F
100
AcDbEntity
  8
layer 1
 62
     7
100
AcDbSpline
210
0.0
220
0.0
230
1.0
 70
    11
 71
     3
 72
    20
 73
    16
 74
     0
 42
0.0000000001
 43
0.0000000001
 12
1.0
 22
0.0
 32
0.0
 13
1.0
 23
0.0
 33
0.0
 40
0.0
 40
0.0
 40
0.0
 40
0.0
 40
0.2
 40
0.2
 40
0.2
 40
0.2
 40
0.4
 40
0.4
 40
0.4
 40
0.4
 40
0.6
 40
0.6
 40
0.6
 40
0.6
 40
1.0
 40
1.0
 40
1.0
 40
1.0
 10
4.911
 20
-105.0342
 30
0.0
 10
6.0995
 20
-108.5106
 30
0.0
 10
4.2143
 20
-110.2683
 30
0.0
 10
3.2809
 20
-110.2916
 30
0.0
 10
3.2809
 20
-110.2916
 30
0.0
 10
2.3685
 20
-110.2466
 30
0.0
 10
0.4604
 20
-108.5106
 30
0.0
 10
1.6486
 20
-105.0342
 30
0.0
 10
1.6486
 20
-105.0342
 30
0.0
 10
2.1718
 20
-105.4847
 30
0.0
 10
2.5575
 20
-106.1619
 30
0.0
 10
3.2809
 20
-106.2512
 30
0.0
 10
3.2809
 20
-106.2512
 30
0.0
 10
4.0024
 20
-106.1619
 30
0.0
 10
4.3898
 20
-105.4847
 30
0.0
 10
4.911
 20
-105.0342
 30
0.0
  0
SPLINE
  5
8C
330
1F
100
AcDbEntity
  8
layer 1
 62
     7
100
AcDbSpline
210
0.0
220
0.0
230
1.0
 70
    11
 71
     3
 72
    40
 73
    36
 74
     0
 42
0.0000000001
 43
0.0000000001
 12
1.0
 22
0.0
 32
0.0
 13
1.0
 23
0.0
 33
0.0
 40
0.0
 40
0.0
 40
0.0
 40
0.0
 40
0.1
 40
0.1
 40
0.1
 40
0.1
 40
0.2
 40
0.2
 40
0.2
 40
0.2
 40
0.3
 40
0.3
 40
0.3
 40
0.3
 40
0.4
 40
0.4
 40
0.4
 40
0.4
 40
0.5
 40
0.5
 40
0.5
 40
0.5
 40
0.6
 40
0.6
 40
0.6
 40
0.6
 40
0.7
 40
0.7
 40
0.7
 40
0.7
 40
0.8
 40
0.8
 40
0.8
 40
0.8
 40
1.0
 40
1.0
 40
1.0
 40
1.0
 10
-11.5255
 20
55.6361
 30
0.0
 10
-13.2929
 20
56.5832
 30
0.0
 10
-14.5959
 20
57.126
 30
0.0
 10
-15.3575
 20
57.0632
 30
0.0
 10
-15.3575
 20
57.0632
 30
0.0
 10
-14.1291
 20
56.1692
 30
0.0
 10
-15.301
 20
55.8497
 30
0.0
 10
-14.2845
 20
54.4196
 30
0.0
 10
-14.2845
 20
54.4196
 30
0.0
 10
-16.3024
 20
56.3201
 30
0.0
 10
-17.6181
 20
55.1383
 30
0.0
 10
-17.9724
 20
54.9628
 30
0.0
 10
-17.9724
 20
54.9628
 30
0.0
 10
-14.9964
 20
53.069
 30
0.0
 10
-16.7842
 20
50.4787
 30
0.0
 10
-12.7221
 20
49.5152
 30
0.0
 10
-12.7221
 20
49.5152
 30
0.0
 10
-14.0612
 20
49.5882
 30
0.0
 10
-14.8574
 20
49.2338
 30
0.0
 10
-15.5261
 20
48.0935
 30
0.0
 10
-15.5261
 20
48.0935
 30
0.0
 10
-13.6706
 20
48.6198
 30
0.0
 10
-14.6871
 20
47.2112
 30
0.0
 10
-11.7386
 20
47.5639
 30
0.0
 10
-11.7386
 20
47.5639
 30
0.0
 10
-15.3786
 20
47.3371
 30
0.0
 10
-17.4397
 20
45.415
 30
0.0
 10
-18.7127
 20
42.5832
 30
0.0
 10
-18.7127
 20
42.5832
 30
0.0
 10
-18.7127
 20
47.3088
 30
0.0
 10
-18.8267
 20
64.7864
 30
0.0
 10
-18.8267
 20
70.6293
 30
0.0
 10
-18.8267
 20
70.6293
 30
0.0
 10
-17.7592
 20
65.0313
 30
0.0
 10
-16.082
 20
61.4477
 30
0.0
 10
-11.5255
 20
55.6361
 30
0.0
  0
SPLINE
  5
8D
330
1F
100
AcDbEntity
  8
layer 1
 62
     7
100
AcDbSpline
210
0.0
220
0.0
230
1.0
 70
    11
 71
     3
 72
    24
 73
    20
 74
     0
 42
0.0000000001
 43
0.0000000001
 12
1.0
 22
0.0
 32
0.0
 13
1.0
 23
0.0
 33
0.0
 40
0.0
 40
0.0
 40
0.0
 40
0.0
 40
0.1666666666666667
 40
0.1666666666666667
 40
0.1666666666666667
 40
0.1666666666666667
 40
0.3333333333333333
 40
0.3333333333333333
 40
0.3333333333333333
 40
0.3333333333333333
 40
0.5
 40
0.5
 40
0.5
 40
0.5
 40
0.6666666666666666
 40
0.6666666666666666
 40
0.6666666666666666
 40
0.6666666666666666
 40
1.0
 40
1.0
 40
1.0
 40
1.0
 10
-18.7127
 20
36.1012
 30
0.0
 10
-18.0965
 20
31.185
 30
0.0
 10
-16.9198
 20
30.2565
 30
0.0
 10
-16.0027
 20
28.5433
 30
0.0
 10
-16.0027
 20
28.5433
 30
0.0
 10
-13.8939
 20
26.0489
 30
0.0
 10
-14.8244
 20
22.4817
 30
0.0
 10
-17.3931
 20
24.089
 30
0.0
 10
-17.3931
 20
24.089
 30
0.0
 10
-17.4745
 20
21.1097
 30
0.0
 10
-14.5049
 20
21.7173
 30
0.0
 10
-13.9633
 20
22.3097
 30
0.0
 10
-13.9633
 20
22.3097
 30
0.0
 10
-16.021
 20
19.1003
 30
0.0
 10
-17.9045
 20
16.6324
 30
0.0
 10
-18.7127
 20
9.998
 30
0.0
 10
-18.7127
 20
9.998
 30
0.0
 10
-18.7127
 20
9.998
 30
0.0
 10
-18.7127
 20
36.1012
 30
0.0
 10
-18.7127
 20
36.1012
 30
0.0
  0
SPLINE
  5
8E
330
1F
100
AcDbEntity
  8
layer 1
 62
     7
100
AcDbSpline
210
0.0
220
0.0
230
1.0
 70
    11
 71
     3
 72
    36
 73
    32
 74
     0
 42
0.0000000001
 43
0.0000000001
 12
1.0
 22
0.0
 32
0.0
 13
1.0
 23
0.0
 33
0.0
 40
0.0
 40
0.0
 40
0.0
 40
0.0
 40
0.1111111111111111
 40
0.1111111111111111
 40
0.1111111111111111
 40
0.1111111111111111
 40
0.2222222222222222
 40
0.2222222222222222
 40
0.2222222222222222
 40
0.2222222222222222
 40
0.3333333333333333
 40
0.3333333333333333
 40
0.3333333333333333
 40
0.3333333333333333
 40
0.4444444444444444
 40
0.4444444444444444
 40
0.4444444444444444
 40
0.4444444444444444
 40
0.5555555555555556
 40
0.5555555555555556
 40
0.5555555555555556
 40
0.5555555555555556
 40
0.6666666666666666
 40
0.6666666666666666
 40
0.6666666666666666
 40
0.6666666666666666
 40
0.7777777777777778
 40
0.7777777777777778
 40
0.7777777777777778
 40
0.7777777777777778
 40
1.0
 40
1.0
 40
1.0
 40
1.0
 10
-14.5493
 20
51.9552
 30
0.0
 10
-14.313
 20
52.3225
 30
0.0
 10
-13.6706
 20
53.3008
 30
0.0
 10
-12.012
 20
52.8008
 30
0.0
 10
-12.012
 20
52.8008
 30
0.0
 10
-11.6082
 20
53.2941
 30
0.0
 10
-12.8561
 20
54.1432
 30
0.0
 10
-12.6361
 20
54.1501
 30
0.0
 10
-12.6361
 20
54.1501
 30
0.0
 10
-9.8056
 20
53.5192
 30
0.0
 10
-5.7004
 20
50.5347
 30
0.0
 10
-4.2491
 20
48.0485
 30
0.0
 10
-4.2491
 20
48.0485
 30
0.0
 10
-4.605
 20
48.547
 30
0.0
 10
-5.8097
 20
49.1029
 30
0.0
 10
-6.8627
 20
48.9211
 30
0.0
 10
-6.8627
 20
48.9211
 30
0.0
 10
-6.7267
 20
48.0834
 30
0.0
 10
-5.2652
 20
46.9795
 30
0.0
 10
-5.5881
 20
47.0855
 30
0.0
 10
-5.5881
 20
47.0855
 30
0.0
 10
-7.3127
 20
48.4825
 30
0.0
 10
-9.6501
 20
48.0502
 30
0.0
 10
-10.5653
 20
47.9922
 30
0.0
 10
-10.5653
 20
47.9922
 30
0.0
 10
-10.0738
 20
48.3152
 30
0.0
 10
-9.7641
 20
48.916
 30
0.0
 10
-9.7726
 20
49.166
 30
0.0
 10
-9.7726
 20
49.166
 30
0.0
 10
-12.5235
 20
49.8348
 30
0.0
 10
-11.259
 20
51.9021
 30
0.0
 10
-14.5493
 20
51.9552
 30
0.0
  0
SPLINE
  5
8F
330
1F
100
AcDbEntity
  8
layer 1
 62
     7
100
AcDbSpline
210
0.0
220
0.0
230
1.0
 70
    11
 71
     3
 72
    24
 73
    20
 74
     0
 42
0.0000000001
 43
0.0000000001
 12
1.0
 22
0.0
 32
0.0
 13
1.0
 23
0.0
 33
0.0
 40
0.0
 40
0.0
 40
0.0
 40
0.0
 40
0.1666666666666667
 40
0.1666666666666667
 40
0.1666666666666667
 40
0.1666666666666667
 40
0.3333333333333333
 40
0.3333333333333333
 40
0.3333333333333333
 40
0.3333333333333333
 40
0.5
 40
0.5
 40
0.5
 40
0.5
 40
0.6666666666666666
 40
0.6666666666666666
 40
0.6666666666666666
 40
0.6666666666666666
 40
1.0
 40
1.0
 40
1.0
 40
1.0
 10
-16.5557
 20
39.0014
 30
0.0
 10
-18.1478
 20
41.2009
 30
0.0
 10
-15.2117
 20
46.9676
 30
0.0
 10
-6.8593
 20
45.6752
 30
0.0
 10
-6.8593
 20
45.6752
 30
0.0
 10
-12.7104
 20
45.7841
 30
0.0
 10
-14.4781
 20
41.2441
 30
0.0
 10
-11.4726
 20
40.3484
 30
0.0
 10
-11.4726
 20
40.3484
 30
0.0
 10
-12.5332
 20
39.256
 30
0.0
 10
-12.4442
 20
38.6436
 30
0.0
 10
-13.2535
 20
37.9665
 30
0.0
 10
-13.2535
 20
37.9665
 30
0.0
 10
-14.8108
 20
36.2089
 30
0.0
 10
-16.5125
 20
38.6238
 30
0.0
 10
-14.9185
 20
40.5073
 30
0.0
 10
-14.9185
 20
40.5073
 30
0.0
 10
-15.7858
 20
40.2458
 30
0.0
 10
-16.541
 20
39.9594
 30
0.0
 10
-16.5557
 20
39.0014
 30
0.0
  0
SPLINE
  5
90
330
1F
100
AcDbEntity
  8
layer 1
 62
     7
100
AcDbSpline
210
0.0
220
0.0
230
1.0
 70
    11
 71
     3
 72
    16
 73
    12
 74
     0
 42
0.0000000001
 43
0.0000000001
 12
1.0
 22
0.0
 32
0.0
 13
1.0
 23
0.0
 33
0.0
 40
0.0
 40
0.0
 40
0.0
 40
0.0
 40
0.25
 40
0.25
 40
0.25
 40
0.25
 40
0.5
 40
0.5
 40
0.5
 40
0.5
 40
1.0
 40
1.0
 40
1.0
 40
1.0
 10
-10.9179
 20
40.6116
 30
0.0
 10
-12.0053
 20
42.818
 30
0.0
 10
-6.7483
 20
46.4248
 30
0.0
 10
-0.3871
 20
42.6095
 30
0.0
 10
-0.3871
 20
42.6095
 30
0.0
 10
-4.7821
 20
44.351
 30
0.0
 10
-8.1687
 20
42.4124
 30
0.0
 10
-9.4844
 20
38.4962
 30
0.0
 10
-9.4844
 20
38.4962
 30
0.0
 10
-8.5542
 20
40.6133
 30
0.0
 10
-10.1268
 20
40.8616
 30
0.0
 10
-10.9179
 20
40.6116
 30
0.0
  0
SPLINE
  5
91
330
1F
100
AcDbEntity
  8
layer 1
 62
     7
100
AcDbSpline
210
0.0
220
0.0
230
1.0
 70
    11
 71
     3
 72
    40
 73
    36
 74
     0
 42
0.0000000001
 43
0.0000000001
 12
1.0
 22
0.0
 32
0.0
 13
1.0
 23
0.0
 33
0.0
 40
0.0
 40
0.0
 40
0.0
 40
0.0
 40
0.1
 40
0.1
 40
0.1
 40
0.1
 40
0.2
 40
0.2
 40
0.2
 40
0.2
 40
0.3
 40
0.3
 40
0.3
 40
0.3
 40
0.4
 40
0.4
 40
0.4
 40
0.4
 40
0.5
 40
0.5
 40
0.5
 40
0.5
 40
0.6
 40
0.6
 40
0.6
 40
0.6
 40
0.7
 40
0.7
 40
0.7
 40
0.7
 40
0.8
 40
0.8
 40
0.8
 40
0.8
 40
1.0
 40
1.0
 40
1.0
 40
1.0
 10
-6.3906
 20
34.3335
 30
0.0
 10
-6.1987
 20
33.2113
 30
0.0
 10
-4.3037
 20
32.5605
 30
0.0
 10
-3.4677
 20
34.0452
 30
0.0
 10
-3.4677
 20
34.0452
 30
0.0
 10
-3.8533
 20
34.936
 30
0.0
 10
-4.4029
 20
39.2526
 30
0.0
 10
-0.604
 20
38.7827
 30
0.0
 10
-0.604
 20
38.7827
 30
0.0
 10
0.5198
 20
38.6437
 30
0.0
 10
1.0443
 20
36.8873
 30
0.0
 10
0.5909
 20
36.0152
 30
0.0
 10
0.5909
 20
36.0152
 30
0.0
 10
0.0794
 20
35.0317
 30
0.0
 10
-1.2778
 20
34.7258
 30
0.0
 10
-2.1897
 20
35.6525
 30
0.0
 10
-2.1897
 20
35.6525
 30
0.0
 10
-1.9248
 20
34.1199
 30
0.0
 10
-0.1472
 20
33.6448
 30
0.0
 10
0.8723
 20
34.7042
 30
0.0
 10
0.8723
 20
34.7042
 30
0.0
 10
1.5045
 20
35.3631
 30
0.0
 10
2.1948
 20
36.4719
 30
0.0
 10
1.9799
 20
37.753
 30
0.0
 10
1.9799
 20
37.753
 30
0.0
 10
-0.69
 20
44.5743
 30
0.0
 10
-7.8076
 20
41.0535
 30
0.0
 10
-8.3822
 20
38.6801
 30
0.0
 10
-8.3822
 20
38.6801
 30
0.0
 10
-7.1441
 20
40.3501
 30
0.0
 10
-5.6475
 20
39.8916
 30
0.0
 10
-5.4076
 20
38.5559
 30
0.0
 10
-5.4076
 20
38.5559
 30
0.0
 10
-5.2555
 20
36.8543
 30
0.0
 10
-6.6571
 20
35.7885
 30
0.0
 10
-6.3906
 20
34.3335
 30
0.0
  0
SPLINE
  5
92
330
1F
100
AcDbEntity
  8
layer 1
 62
     7
100
AcDbSpline
210
0.0
220
0.0
230
1.0
 70
    11
 71
     3
 72
    68
 73
    64
 74
     0
 42
0.0000000001
 43
0.0000000001
 12
1.0
 22
0.0
 32
0.0
 13
1.0
 23
0.0
 33
0.0
 40
0.0
 40
0.0
 40
0.0
 40
0.0
 40
0.0588235294117647
 40
0.0588235294117647
 40
0.0588235294117647
 40
0.0588235294117647
 40
0.1176470588235294
 40
0.1176470588235294
 40
0.1176470588235294
 40
0.1176470588235294
 40
0.1764705882352941
 40
0.1764705882352941
 40
0.1764705882352941
 40
0.1764705882352941
 40
0.2352941176470588
 40
0.2352941176470588
 40
0.2352941176470588
 40
0.2352941176470588
 40
0.2941176470588235
 40
0.2941176470588235
 40
0.2941176470588235
 40
0.2941176470588235
 40
0.3529411764705883
 40
0.3529411764705883
 40
0.3529411764705883
 40
0.3529411764705883
 40
0.4117647058823529
 40
0.4117647058823529
 40
0.4117647058823529
 40
0.4117647058823529
 40
0.4705882352941176
 40
0.4705882352941176
 40
0.4705882352941176
 40
0.4705882352941176
 40
0.5294117647058824
 40
0.5294117647058824
 40
0.5294117647058824
 40
0.5294117647058824
 40
0.5882352941176471
 40
0.5882352941176471
 40
0.5882352941176471
 40
0.5882352941176471
 40
0.6470588235294118
 40
0.6470588235294118
 40
0.6470588235294118
 40
0.6470588235294118
 40
0.7058823529411765
 40
0.7058823529411765
 40
0.7058823529411765
 40
0.7058823529411765
 40
0.7647058823529411
 40
0.7647058823529411
 40
0.7647058823529411
 40
0.7647058823529411
 40
0.8235294117647058
 40
0.8235294117647058
 40
0.8235294117647058
 40
0.8235294117647058
 40
0.8823529411764706
 40
0.8823529411764706
 40
0.8823529411764706
 40
0.8823529411764706
 40
1.0
 40
1.0
 40
1.0
 40
1.0
 10
-18.7127
 20
40.5888
 30
0.0
 10
-18.7127
 20
39.0129
 30
0.0
 10
-17.9694
 20
38.0212
 30
0.0
 10
-16.7757
 20
38.1504
 30
0.0
 10
-16.7757
 20
38.1504
 30
0.0
 10
-16.6799
 20
38.2679
 30
0.0
 10
-15.9778
 20
33.7177
 30
0.0
 10
-12.0023
 20
36.5695
 30
0.0
 10
-12.0023
 20
36.5695
 30
0.0
 10
-11.7688
 20
36.5199
 30
0.0
 10
-13.4057
 20
35.9355
 30
0.0
 10
-13.154
 20
34.3202
 30
0.0
 10
-13.154
 20
34.3202
 30
0.0
 10
-12.9392
 20
34.178
 30
0.0
 10
-11.517
 20
34.2058
 30
0.0
 10
-10.62
 20
35.861
 30
0.0
 10
-10.62
 20
35.861
 30
0.0
 10
-10.3073
 20
35.8017
 30
0.0
 10
-12.3713
 20
33.5457
 30
0.0
 10
-11.2637
 20
30.7184
 30
0.0
 10
-11.2637
 20
30.7184
 30
0.0
 10
-10.8798
 20
30.5512
 30
0.0
 10
-8.0874
 20
32.0824
 30
0.0
 10
-8.4267
 20
35.0698
 30
0.0
 10
-8.4267
 20
35.0698
 30
0.0
 10
-9.0013
 20
30.4634
 30
0.0
 10
-3.077
 20
29.7218
 30
0.0
 10
-2.6981
 20
33.4478
 30
0.0
 10
-2.6981
 20
33.4478
 30
0.0
 10
-1.521
 20
32.0309
 30
0.0
 10
0.3443
 20
32.5672
 30
0.0
 10
1.1605
 20
33.6317
 30
0.0
 10
1.1605
 20
33.6317
 30
0.0
 10
-0.2448
 20
32.4698
 30
0.0
 10
0.0214
 20
30.879
 30
0.0
 10
1.5016
 20
30.6074
 30
0.0
 10
1.5016
 20
30.6074
 30
0.0
 10
-1.5393
 20
30.3112
 30
0.0
 10
-4.4873
 20
29.4802
 30
0.0
 10
-7.0
 20
28.1082
 30
0.0
 10
-7.0
 20
28.1082
 30
0.0
 10
-9.7094
 20
26.6269
 30
0.0
 10
-11.8747
 20
24.7297
 30
0.0
 10
-12.8361
 20
23.7666
 30
0.0
 10
-12.8361
 20
23.7666
 30
0.0
 10
-12.6743
 20
24.4847
 30
0.0
 10
-12.1577
 20
25.862
 30
0.0
 10
-14.4947
 20
28.4141
 30
0.0
 10
-14.4947
 20
28.4141
 30
0.0
 10
-11.4362
 20
26.0739
 30
0.0
 10
-9.1814
 20
28.7998
 30
0.0
 10
-9.9149
 20
30.7383
 30
0.0
 10
-9.9149
 20
30.7383
 30
0.0
 10
-10.9014
 20
28.9887
 30
0.0
 10
-15.9977
 20
29.5959
 30
0.0
 10
-17.6516
 20
32.905
 30
0.0
 10
-17.6516
 20
32.905
 30
0.0
 10
-14.7828
 20
30.4087
 30
0.0
 10
-13.1625
 20
32.6782
 30
0.0
 10
-13.3082
 20
33.5588
 30
0.0
 10
-13.3082
 20
33.5588
 30
0.0
 10
-15.6765
 20
33.2689
 30
0.0
 10
-18.2207
 20
35.6376
 30
0.0
 10
-18.7127
 20
40.5888
 30
0.0
  0
SPLINE
  5
93
330
1F
100
AcDbEntity
  8
layer 1
 62
     7
100
AcDbSpline
210
0.0
220
0.0
230
1.0
 70
    11
 71
     3
 72
    16
 73
    12
 74
     0
 42
0.0000000001
 43
0.0000000001
 12
1.0
 22
0.0
 32
0.0
 13
1.0
 23
0.0
 33
0.0
 40
0.0
 40
0.0
 40
0.0
 40
0.0
 40
0.25
 40
0.25
 40
0.25
 40
0.25
 40
0.5
 40
0.5
 40
0.5
 40
0.5
 40
1.0
 40
1.0
 40
1.0
 40
1.0
 10
-12.0187
 20
117.3252
 30
0.0
 10
-10.8205
 20
118.2905
 30
0.0
 10
-9.4861
 20
118.6328
 30
0.0
 10
-8.0344
 20
118.0638
 30
0.0
 10
-8.0344
 20
118.0638
 30
0.0
 10
-9.9246
 20
119.3994
 30
0.0
 10
-10.3238
 20
122.2961
 30
0.0
 10
-9.15
 20
124.7707
 30
0.0
 10
-9.15
 20
124.7707
 30
0.0
 10
-11.1081
 20
122.6618
 30
0.0
 10
-11.9158
 20
120.1096
 30
0.0
 10
-12.0187
 20
117.3252
 30
0.0
  0
SPLINE
  5
94
330
1F
100
AcDbEntity
  8
layer 1
 62
     7
100
AcDbSpline
210
0.0
220
0.0
230
1.0
 70
    11
 71
     3
 72
    32
 73
    28
 74
     0
 42
0.0000000001
 43
0.0000000001
 12
1.0
 22
0.0
 32
0.0
 13
1.0
 23
0.0
 33
0.0
 40
0.0
 40
0.0
 40
0.0
 40
0.0
 40
0.125
 40
0.125
 40
0.125
 40
0.125
 40
0.25
 40
0.25
 40
0.25
 40
0.25
 40
0.375
 40
0.375
 40
0.375
 40
0.375
 40
0.5
 40
0.5
 40
0.5
 40
0.5
 40
0.625
 40
0.625
 40
0.625
 40
0.625
 40
0.75
 40
0.75
 40
0.75
 40
0.75
 40
1.0
 40
1.0
 40
1.0
 40
1.0
 10
-2.8088
 20
84.1662
 30
0.0
 10
-5.8826
 20
83.9892
 30
0.0
 10
-6.1046
 20
82.9445
 30
0.0
 10
-8.0462
 20
83.1182
 30
0.0
 10
-8.0462
 20
83.1182
 30
0.0
 10
-10.7192
 20
83.3599
 30
0.0
 10
-13.2319
 20
81.4814
 30
0.0
 10
-13.9604
 20
80.1554
 30
0.0
 10
-13.9604
 20
80.1554
 30
0.0
 10
-10.6629
 20
83.9226
 30
0.0
 10
-9.1849
 20
85.4505
 30
0.0
 10
-5.858
 20
88.5277
 30
0.0
 10
-5.858
 20
88.5277
 30
0.0
 10
-6.4105
 20
87.8422
 30
0.0
 10
-6.9783
 20
86.4501
 30
0.0
 10
-6.8296
 20
86.0446
 30
0.0
 10
-6.8296
 20
86.0446
 30
0.0
 10
-3.466
 20
87.099
 30
0.0
 10
-2.7541
 20
85.4387
 30
0.0
 10
-0.3774
 20
87.968
 30
0.0
 10
-0.3774
 20
87.968
 30
0.0
 10
-1.3011
 20
86.457
 30
0.0
 10
-1.1468
 20
85.8361
 30
0.0
 10
-5.0634
 20
84.709
 30
0.0
 10
-5.0634
 20
84.709
 30
0.0
 10
-3.5588
 20
84.5119
 30
0.0
 10
-2.4664
 20
84.2107
 30
0.0
 10
-2.8088
 20
84.1662
 30
0.0
  0
SPLINE
  5
95
330
1F
100
AcDbEntity
  8
layer 1
 62
     7
100
AcDbSpline
210
0.0
220
0.0
230
1.0
 70
    11
 71
     3
 72
    28
 73
    24
 74
     0
 42
0.0000000001
 43
0.0000000001
 12
1.0
 22
0.0
 32
0.0
 13
1.0
 23
0.0
 33
0.0
 40
0.0
 40
0.0
 40
0.0
 40
0.0
 40
0.1428571428571428
 40
0.1428571428571428
 40
0.1428571428571428
 40
0.1428571428571428
 40
0.2857142857142857
 40
0.2857142857142857
 40
0.2857142857142857
 40
0.2857142857142857
 40
0.4285714285714285
 40
0.4285714285714285
 40
0.4285714285714285
 40
0.4285714285714285
 40
0.5714285714285714
 40
0.5714285714285714
 40
0.5714285714285714
 40
0.5714285714285714
 40
0.7142857142857143
 40
0.7142857142857143
 40
0.7142857142857143
 40
0.7142857142857143
 40
1.0
 40
1.0
 40
1.0
 40
1.0
 10
2.8058
 20
64.8211
 30
0.0
 10
2.5656
 20
64.9903
 30
0.0
 10
1.5444
 20
65.7745
 30
0.0
 10
1.5427
 20
66.2068
 30
0.0
 10
1.5427
 20
66.2068
 30
0.0
 10
1.541
 20
66.7941
 30
0.0
 10
2.6915
 20
68.2806
 30
0.0
 10
3.2809
 20
71.904
 30
0.0
 10
3.2809
 20
71.904
 30
0.0
 10
3.8686
 20
68.2806
 30
0.0
 10
5.0186
 20
66.794
 30
0.0
 10
5.0169
 20
66.2068
 30
0.0
 10
5.0169
 20
66.2068
 30
0.0
 10
5.0169
 20
65.7746
 30
0.0
 10
3.994
 20
64.9903
 30
0.0
 10
3.7541
 20
64.8211
 30
0.0
 10
3.7541
 20
64.8211
 30
0.0
 10
5.2241
 20
63.2622
 30
0.0
 10
4.4394
 20
60.4214
 30
0.0
 10
3.2809
 20
60.0575
 30
0.0
 10
3.2809
 20
60.0575
 30
0.0
 10
2.1207
 20
60.4215
 30
0.0
 10
1.3375
 20
63.2622
 30
0.0
 10
2.8058
 20
64.8211
 30
0.0
  0
SPLINE
  5
96
330
1F
100
AcDbEntity
  8
layer 1
 62
     7
100
AcDbSpline
210
0.0
220
0.0
230
1.0
 70
    11
 71
     3
 72
    12
 73
     8
 74
     0
 42
0.0000000001
 43
0.0000000001
 12
1.0
 22
0.0
 32
0.0
 13
1.0
 23
0.0
 33
0.0
 40
0.0
 40
0.0
 40
0.0
 40
0.0
 40
0.3333333333333333
 40
0.3333333333333333
 40
0.3333333333333333
 40
0.3333333333333333
 40
1.0
 40
1.0
 40
1.0
 40
1.0
 10
3.2809
 20
47.5702
 30
0.0
 10
6.7186
 20
47.5441
 30
0.0
 10
3.7741
 20
41.5832
 30
0.0
 10
3.2809
 20
38.6882
 30
0.0
 10
3.2809
 20
38.6882
 30
0.0
 10
2.7859
 20
41.5832
 30
0.0
 10
-0.157
 20
47.5439
 30
0.0
 10
3.2809
 20
47.5702
 30
0.0
  0
SPLINE
  5
97
330
1F
100
AcDbEntity
  8
layer 1
 62
     7
100
AcDbSpline
210
0.0
220
0.0
230
1.0
 70
    11
 71
     3
 72
    12
 73
     8
 74
     0
 42
0.0000000001
 43
0.0000000001
 12
1.0
 22
0.0
 32
0.0
 13
1.0
 23
0.0
 33
0.0
 40
0.0
 40
0.0
 40
0.0
 40
0.0
 40
0.3333333333333333
 40
0.3333333333333333
 40
0.3333333333333333
 40
0.3333333333333333
 40
1.0
 40
1.0
 40
1.0
 40
1.0
 10
3.2809
 20
36.9089
 30
0.0
 10
3.6864
 20
34.2622
 30
0.0
 10
5.6678
 20
32.0295
 30
0.0
 10
3.2809
 20
30.6473
 30
0.0
 10
3.2809
 20
30.6473
 30
0.0
 10
0.8922
 20
32.0296
 30
0.0
 10
2.8754
 20
34.2622
 30
0.0
 10
3.2809
 20
36.9089
 30
0.0
  0
SPLINE
  5
98
330
1F
100
AcDbEntity
  8
layer 1
 62
     7
100
AcDbSpline
210
0.0
220
0.0
230
1.0
 70
    11
 71
     3
 72
    52
 73
    48
 74
     0
 42
0.0000000001
 43
0.0000000001
 12
1.0
 22
0.0
 32
0.0
 13
1.0
 23
0.0
 33
0.0
 40
0.0
 40
0.0
 40
0.0
 40
0.0
 40
0.0769230769230769
 40
0.0769230769230769
 40
0.0769230769230769
 40
0.0769230769230769
 40
0.1538461538461539
 40
0.1538461538461539
 40
0.1538461538461539
 40
0.1538461538461539
 40
0.2307692307692308
 40
0.2307692307692308
 40
0.2307692307692308
 40
0.2307692307692308
 40
0.3076923076923077
 40
0.3076923076923077
 40
0.3076923076923077
 40
0.3076923076923077
 40
0.3846153846153846
 40
0.3846153846153846
 40
0.3846153846153846
 40
0.3846153846153846
 40
0.4615384615384616
 40
0.4615384615384616
 40
0.4615384615384616
 40
0.4615384615384616
 40
0.5384615384615384
 40
0.5384615384615384
 40
0.5384615384615384
 40
0.5384615384615384
 40
0.6153846153846154
 40
0.6153846153846154
 40
0.6153846153846154
 40
0.6153846153846154
 40
0.6923076923076923
 40
0.6923076923076923
 40
0.6923076923076923
 40
0.6923076923076923
 40
0.7692307692307693
 40
0.7692307692307693
 40
0.7692307692307693
 40
0.7692307692307693
 40
0.8461538461538461
 40
0.8461538461538461
 40
0.8461538461538461
 40
0.8461538461538461
 40
1.0
 40
1.0
 40
1.0
 40
1.0
 10
-3.2143
 20
65.6903
 30
0.0
 10
-1.3654
 20
66.0279
 30
0.0
 10
0.0697
 20
67.0128
 30
0.0
 10
1.1023
 20
68.6631
 30
0.0
 10
1.1023
 20
68.6631
 30
0.0
 10
-0.3791
 20
66.2929
 30
0.0
 10
-0.1638
 20
64.3263
 30
0.0
 10
-1.0575
 20
63.416
 30
0.0
 10
-1.0575
 20
63.416
 30
0.0
 10
-0.1239
 20
63.2817
 30
0.0
 10
0.96
 20
63.608
 30
0.0
 10
1.3274
 20
64.3826
 30
0.0
 10
1.3274
 20
64.3826
 30
0.0
 10
0.7434
 20
62.8516
 30
0.0
 10
-0.4502
 20
60.3024
 30
0.0
 10
2.3587
 20
58.1074
 30
0.0
 10
2.3587
 20
58.1074
 30
0.0
 10
-0.8855
 20
59.0197
 30
0.0
 10
-2.6715
 20
54.8831
 30
0.0
 10
-1.3604
 20
51.4254
 30
0.0
 10
-1.3604
 20
51.4254
 30
0.0
 10
-2.0723
 20
53.4433
 30
0.0
 10
-3.2838
 20
53.1932
 30
0.0
 10
-3.4842
 20
53.0772
 30
0.0
 10
-3.4842
 20
53.0772
 30
0.0
 10
-2.0638
 20
52.1123
 30
0.0
 10
-4.2008
 20
51.0762
 30
0.0
 10
-2.4926
 20
49.305
 30
0.0
 10
-2.4926
 20
49.305
 30
0.0
 10
-4.2457
 20
50.5729
 30
0.0
 10
-7.4318
 20
53.3585
 30
0.0
 10
-8.7246
 20
55.4725
 30
0.0
 10
-8.7246
 20
55.4725
 30
0.0
 10
-1.9613
 20
51.131
 30
0.0
 10
-0.7184
 20
60.5672
 30
0.0
 10
-4.8665
 20
59.3905
 30
0.0
 10
-4.8665
 20
59.3905
 30
0.0
 10
-3.4114
 20
56.2488
 30
0.0
 10
-6.6555
 20
55.868
 30
0.0
 10
-7.8936
 20
57.2832
 30
0.0
 10
-7.8936
 20
57.2832
 30
0.0
 10
-8.6699
 20
58.1689
 30
0.0
 10
-9.0276
 20
60.5044
 30
0.0
 10
-6.7431
 20
61.4413
 30
0.0
 10
-6.7431
 20
61.4413
 30
0.0
 10
-5.0168
 20
62.3071
 30
0.0
 10
-0.2299
 20
62.7571
 30
0.0
 10
-3.2143
 20
65.6903
 30
0.0
  0
SPLINE
  5
99
330
1F
100
AcDbEntity
  8
layer 1
 62
     7
100
AcDbSpline
210
0.0
220
0.0
230
1.0
 70
    11
 71
     3
 72
    24
 73
    20
 74
     0
 42
0.0000000001
 43
0.0000000001
 12
1.0
 22
0.0
 32
0.0
 13
1.0
 23
0.0
 33
0.0
 40
0.0
 40
0.0
 40
0.0
 40
0.0
 40
0.1666666666666667
 40
0.1666666666666667
 40
0.1666666666666667
 40
0.1666666666666667
 40
0.3333333333333333
 40
0.3333333333333333
 40
0.3333333333333333
 40
0.3333333333333333
 40
0.5
 40
0.5
 40
0.5
 40
0.5
 40
0.6666666666666666
 40
0.6666666666666666
 40
0.6666666666666666
 40
0.6666666666666666
 40
1.0
 40
1.0
 40
1.0
 40
1.0
 10
-16.5557
 20
39.0014
 30
0.0
 10
-18.1478
 20
41.2009
 30
0.0
 10
-15.2117
 20
46.9676
 30
0.0
 10
-6.8593
 20
45.6752
 30
0.0
 10
-6.8593
 20
45.6752
 30
0.0
 10
-12.7104
 20
45.7841
 30
0.0
 10
-14.4781
 20
41.2441
 30
0.0
 10
-11.4726
 20
40.3484
 30
0.0
 10
-11.4726
 20
40.3484
 30
0.0
 10
-12.5332
 20
39.256
 30
0.0
 10
-12.4442
 20
38.6436
 30
0.0
 10
-13.2535
 20
37.9665
 30
0.0
 10
-13.2535
 20
37.9665
 30
0.0
 10
-14.8108
 20
36.2089
 30
0.0
 10
-16.5125
 20
38.6238
 30
0.0
 10
-14.9185
 20
40.5073
 30
0.0
 10
-14.9185
 20
40.5073
 30
0.0
 10
-15.7858
 20
40.2458
 30
0.0
 10
-16.541
 20
39.9594
 30
0.0
 10
-16.5557
 20
39.0014
 30
0.0
  0
SPLINE
  5
9A
330
1F
100
AcDbEntity
  8
layer 1
 62
     7
100
AcDbSpline
210
0.0
220
0.0
230
1.0
 70
    11
 71
     3
 72
    28
 73
    24
 74
     0
 42
0.0000000001
 43
0.0000000001
 12
1.0
 22
0.0
 32
0.0
 13
1.0
 23
0.0
 33
0.0
 40
0.0
 40
0.0
 40
0.0
 40
0.0
 40
0.1428571428571428
 40
0.1428571428571428
 40
0.1428571428571428
 40
0.1428571428571428
 40
0.2857142857142857
 40
0.2857142857142857
 40
0.2857142857142857
 40
0.2857142857142857
 40
0.4285714285714285
 40
0.4285714285714285
 40
0.4285714285714285
 40
0.4285714285714285
 40
0.5714285714285714
 40
0.5714285714285714
 40
0.5714285714285714
 40
0.5714285714285714
 40
0.7142857142857143
 40
0.7142857142857143
 40
0.7142857142857143
 40
0.7142857142857143
 40
1.0
 40
1.0
 40
1.0
 40
1.0
 10
-9.4035
 20
78.267
 30
0.0
 10
-15.6537
 20
75.4248
 30
0.0
 10
-12.8976
 20
65.0779
 30
0.0
 10
-6.8975
 20
65.4749
 30
0.0
 10
-6.8975
 20
65.4749
 30
0.0
 10
-11.3349
 20
65.4454
 30
0.0
 10
-8.0958
 20
61.5308
 30
0.0
 10
-12.757
 20
61.2871
 30
0.0
 10
-12.757
 20
61.2871
 30
0.0
 10
-12.9489
 20
60.8799
 30
0.0
 10
-11.0865
 20
58.8591
 30
0.0
 10
-9.036
 20
61.135
 30
0.0
 10
-9.036
 20
61.135
 30
0.0
 10
-10.2658
 20
59.7647
 30
0.0
 10
-10.3967
 20
58.0861
 30
0.0
 10
-9.7178
 20
56.8349
 30
0.0
 10
-9.7178
 20
56.8349
 30
0.0
 10
-12.909
 20
59.4515
 30
0.0
 10
-17.2575
 20
66.594
 30
0.0
 10
-17.0588
 20
71.0963
 30
0.0
 10
-17.0588
 20
71.0963
 30
0.0
 10
-16.8223
 20
76.4393
 30
0.0
 10
-13.0646
 20
80.4733
 30
0.0
 10
-9.4035
 20
78.267
 30
0.0
  0
SPLINE
  5
9B
330
1F
100
AcDbEntity
  8
layer 1
 62
     7
100
AcDbSpline
210
0.0
220
0.0
230
1.0
 70
    11
 71
     3
 72
    20
 73
    16
 74
     0
 42
0.0000000001
 43
0.0000000001
 12
1.0
 22
0.0
 32
0.0
 13
1.0
 23
0.0
 33
0.0
 40
0.0
 40
0.0
 40
0.0
 40
0.0
 40
0.2
 40
0.2
 40
0.2
 40
0.2
 40
0.4
 40
0.4
 40
0.4
 40
0.4
 40
0.6
 40
0.6
 40
0.6
 40
0.6
 40
1.0
 40
1.0
 40
1.0
 40
1.0
 10
-8.4946
 20
78.7089
 30
0.0
 10
-7.5213
 20
79.1092
 30
0.0
 10
-6.3098
 20
81.0707
 30
0.0
 10
-11.0602
 20
80.7809
 30
0.0
 10
-11.0602
 20
80.7809
 30
0.0
 10
-8.3207
 20
81.7957
 30
0.0
 10
-2.2676
 20
81.2776
 30
0.0
 10
-0.9452
 20
78.7135
 30
0.0
 10
-0.9452
 20
78.7135
 30
0.0
 10
0.1392
 20
76.9228
 30
0.0
 10
0.3443
 20
72.3328
 30
0.0
 10
-2.8452
 20
73.5659
 30
0.0
 10
-2.8452
 20
73.5659
 30
0.0
 10
-1.3421
 20
77.3482
 30
0.0
 10
-5.4224
 20
79.4355
 30
0.0
 10
-8.4946
 20
78.7089
 30
0.0
  0
SPLINE
  5
9C
330
1F
100
AcDbEntity
  8
layer 1
 62
     7
100
AcDbSpline
210
0.0
220
0.0
230
1.0
 70
    11
 71
     3
 72
    28
 73
    24
 74
     0
 42
0.0000000001
 43
0.0000000001
 12
1.0
 22
0.0
 32
0.0
 13
1.0
 23
0.0
 33
0.0
 40
0.0
 40
0.0
 40
0.0
 40
0.0
 40
0.1428571428571428
 40
0.1428571428571428
 40
0.1428571428571428
 40
0.1428571428571428
 40
0.2857142857142857
 40
0.2857142857142857
 40
0.2857142857142857
 40
0.2857142857142857
 40
0.4285714285714285
 40
0.4285714285714285
 40
0.4285714285714285
 40
0.4285714285714285
 40
0.5714285714285714
 40
0.5714285714285714
 40
0.5714285714285714
 40
0.5714285714285714
 40
0.7142857142857143
 40
0.7142857142857143
 40
0.7142857142857143
 40
0.7142857142857143
 40
1.0
 40
1.0
 40
1.0
 40
1.0
 10
-6.5597
 20
77.0339
 30
0.0
 10
-12.1327
 20
74.708
 30
0.0
 10
-7.9268
 20
68.1085
 30
0.0
 10
-3.2575
 20
72.1967
 30
0.0
 10
-3.2575
 20
72.1967
 30
0.0
 10
-3.7525
 20
69.7985
 30
0.0
 10
0.596
 20
69.2306
 30
0.0
 10
0.7053
 20
73.321
 30
0.0
 10
0.7053
 20
73.321
 30
0.0
 10
0.788
 20
72.6722
 30
0.0
 10
-1.0045
 20
68.0886
 30
0.0
 10
-3.1185
 20
67.6813
 30
0.0
 10
-3.1185
 20
67.6813
 30
0.0
 10
-3.2473
 20
70.3068
 30
0.0
 10
-7.5428
 20
67.1551
 30
0.0
 10
-8.1055
 20
70.684
 30
0.0
 10
-8.1055
 20
70.684
 30
0.0
 10
-8.5708
 20
71.1374
 30
0.0
 10
-11.5187
 20
69.5022
 30
0.0
 10
-6.6093
 20
67.0805
 30
0.0
 10
-6.6093
 20
67.0805
 30
0.0
 10
-13.4455
 20
69.0472
 30
0.0
 10
-12.0581
 20
76.7473
 30
0.0
 10
-6.5597
 20
77.0339
 30
0.0
  0
SPLINE
  5
9D
330
1F
100
AcDbEntity
  8
layer 1
 62
     7
100
AcDbSpline
210
0.0
220
0.0
230
1.0
 70
    11
 71
     3
 72
    16
 73
    12
 74
     0
 42
0.0000000001
 43
0.0000000001
 12
1.0
 22
0.0
 32
0.0
 13
1.0
 23
0.0
 33
0.0
 40
0.0
 40
0.0
 40
0.0
 40
0.0
 40
0.25
 40
0.25
 40
0.25
 40
0.25
 40
0.5
 40
0.5
 40
0.5
 40
0.5
 40
1.0
 40
1.0
 40
1.0
 40
1.0
 10
-3.4347
 20
115.2218
 30
0.0
 10
-6.0449
 20
115.6769
 30
0.0
 10
-6.1889
 20
116.5295
 30
0.0
 10
-7.1258
 20
117.3252
 30
0.0
 10
-7.1258
 20
117.3252
 30
0.0
 10
-10.8352
 20
116.7278
 30
0.0
 10
-9.0725
 20
115.2463
 30
0.0
 10
-8.6949
 20
114.3675
 30
0.0
 10
-8.6949
 20
114.3675
 30
0.0
 10
-7.356
 20
115.498
 30
0.0
 10
-6.2881
 20
115.9035
 30
0.0
 10
-3.4347
 20
115.2218
 30
0.0
  0
SPLINE
  5
9E
330
1F
100
AcDbEntity
  8
layer 1
 62
     7
100
AcDbSpline
210
0.0
220
0.0
230
1.0
 70
    11
 71
     3
 72
    36
 73
    32
 74
     0
 42
0.0000000001
 43
0.0000000001
 12
1.0
 22
0.0
 32
0.0
 13
1.0
 23
0.0
 33
0.0
 40
0.0
 40
0.0
 40
0.0
 40
0.0
 40
0.1111111111111111
 40
0.1111111111111111
 40
0.1111111111111111
 40
0.1111111111111111
 40
0.2222222222222222
 40
0.2222222222222222
 40
0.2222222222222222
 40
0.2222222222222222
 40
0.3333333333333333
 40
0.3333333333333333
 40
0.3333333333333333
 40
0.3333333333333333
 40
0.4444444444444444
 40
0.4444444444444444
 40
0.4444444444444444
 40
0.4444444444444444
 40
0.5555555555555556
 40
0.5555555555555556
 40
0.5555555555555556
 40
0.5555555555555556
 40
0.6666666666666666
 40
0.6666666666666666
 40
0.6666666666666666
 40
0.6666666666666666
 40
0.7777777777777778
 40
0.7777777777777778
 40
0.7777777777777778
 40
0.7777777777777778
 40
1.0
 40
1.0
 40
1.0
 40
1.0
 10
-3.2774
 20
82.8997
 30
0.0
 10
-0.7863
 20
82.3619
 30
0.0
 10
-0.5083
 20
83.7175
 30
0.0
 10
1.5427
 20
82.1432
 30
0.0
 10
1.5427
 20
82.1432
 30
0.0
 10
1.7893
 20
84.8743
 30
0.0
 10
-0.9583
 20
84.815
 30
0.0
 10
-0.9583
 20
85.0234
 30
0.0
 10
-0.9583
 20
85.0234
 30
0.0
 10
0.9736
 20
85.4421
 30
0.0
 10
2.6915
 20
86.3591
 30
0.0
 10
3.2809
 20
89.9825
 30
0.0
 10
3.2809
 20
89.9825
 30
0.0
 10
3.8686
 20
86.3591
 30
0.0
 10
5.588
 20
85.4421
 30
0.0
 10
7.52
 20
85.0234
 30
0.0
 10
7.52
 20
85.0234
 30
0.0
 10
7.5182
 20
84.815
 30
0.0
 10
4.772
 20
84.8743
 30
0.0
 10
5.0169
 20
82.1432
 30
0.0
 10
5.0169
 20
82.1432
 30
0.0
 10
7.0677
 20
83.7175
 30
0.0
 10
7.3462
 20
82.3619
 30
0.0
 10
9.8369
 20
82.8996
 30
0.0
 10
9.8369
 20
82.8996
 30
0.0
 10
6.3033
 20
80.6585
 30
0.0
 10
4.0106
 20
79.2402
 30
0.0
 10
3.2809
 20
74.099
 30
0.0
 10
3.2809
 20
74.099
 30
0.0
 10
2.549
 20
79.2403
 30
0.0
 10
0.2566
 20
80.6585
 30
0.0
 10
-3.2774
 20
82.8997
 30
0.0
  0
SPLINE
  5
9F
330
1F
100
AcDbEntity
  8
layer 1
 62
     7
100
AcDbSpline
210
0.0
220
0.0
230
1.0
 70
    11
 71
     3
 72
    32
 73
    28
 74
     0
 42
0.0000000001
 43
0.0000000001
 12
1.0
 22
0.0
 32
0.0
 13
1.0
 23
0.0
 33
0.0
 40
0.0
 40
0.0
 40
0.0
 40
0.0
 40
0.125
 40
0.125
 40
0.125
 40
0.125
 40
0.25
 40
0.25
 40
0.25
 40
0.25
 40
0.375
 40
0.375
 40
0.375
 40
0.375
 40
0.5
 40
0.5
 40
0.5
 40
0.5
 40
0.625
 40
0.625
 40
0.625
 40
0.625
 40
0.75
 40
0.75
 40
0.75
 40
0.75
 40
1.0
 40
1.0
 40
1.0
 40
1.0
 10
-16.5308
 20
106.775
 30
0.0
 10
-16.7973
 20
110.8336
 30
0.0
 10
-13.0565
 20
111.067
 30
0.0
 10
-12.0963
 20
109.9495
 30
0.0
 10
-12.0963
 20
109.9495
 30
0.0
 10
-11.7488
 20
111.6263
 30
0.0
 10
-10.9082
 20
112.7505
 30
0.0
 10
-9.8454
 20
113.8098
 30
0.0
 10
-9.8454
 20
113.8098
 30
0.0
 10
-11.1993
 20
114.0629
 30
0.0
 10
-12.2289
 20
115.4963
 30
0.0
 10
-12.3548
 20
116.4167
 30
0.0
 10
-12.3548
 20
116.4167
 30
0.0
 10
-12.3548
 20
116.4167
 30
0.0
 10
-18.8562
 20
116.4383
 30
0.0
 10
-18.8562
 20
116.4383
 30
0.0
 10
-18.8562
 20
116.4383
 30
0.0
 10
-18.8562
 20
116.4383
 30
0.0
 10
-18.8562
 20
104.0422
 30
0.0
 10
-18.8562
 20
104.0422
 30
0.0
 10
-18.8562
 20
104.0422
 30
0.0
 10
-17.1351
 20
100.7764
 30
0.0
 10
-15.5875
 20
101.9116
 30
0.0
 10
-13.9502
 20
101.051
 30
0.0
 10
-13.9502
 20
101.051
 30
0.0
 10
-16.0376
 20
102.996
 30
0.0
 10
-16.2163
 20
104.5024
 30
0.0
 10
-16.5308
 20
106.775
 30
0.0
  0
SPLINE
  5
A0
330
1F
100
AcDbEntity
  8
layer 1
 62
     7
100
AcDbSpline
210
0.0
220
0.0
230
1.0
 70
    11
 71
     3
 72
    24
 73
    20
 74
     0
 42
0.0000000001
 43
0.0000000001
 12
1.0
 22
0.0
 32
0.0
 13
1.0
 23
0.0
 33
0.0
 40
0.0
 40
0.0
 40
0.0
 40
0.0
 40
0.1666666666666667
 40
0.1666666666666667
 40
0.1666666666666667
 40
0.1666666666666667
 40
0.3333333333333333
 40
0.3333333333333333
 40
0.3333333333333333
 40
0.3333333333333333
 40
0.5
 40
0.5
 40
0.5
 40
0.5
 40
0.6666666666666666
 40
0.6666666666666666
 40
0.6666666666666666
 40
0.6666666666666666
 40
1.0
 40
1.0
 40
1.0
 40
1.0
 10
-15.4566
 20
95.0576
 30
0.0
 10
-16.607
 20
95.4182
 30
0.0
 10
-17.3999
 20
95.7246
 30
0.0
 10
-17.9278
 20
96.2394
 30
0.0
 10
-17.9278
 20
96.2394
 30
0.0
 10
-17.4643
 20
96.8551
 30
0.0
 10
-16.4961
 20
96.7458
 30
0.0
 10
-15.6701
 20
96.8483
 30
0.0
 10
-15.6701
 20
96.8483
 30
0.0
 10
-17.6846
 20
97.9608
 30
0.0
 10
-17.7939
 20
99.1179
 30
0.0
 10
-18.8562
 20
101.5459
 30
0.0
 10
-18.8562
 20
101.5459
 30
0.0
 10
-18.8562
 20
101.5459
 30
0.0
 10
-18.8562
 20
92.7818
 30
0.0
 10
-18.8562
 20
92.7818
 30
0.0
 10
-18.8562
 20
92.7818
 30
0.0
 10
-18.388
 20
94.9233
 30
0.0
 10
-16.6617
 20
95.3436
 30
0.0
 10
-15.4566
 20
95.0576
 30
0.0
  0
SPLINE
  5
A1
330
1F
100
AcDbEntity
  8
layer 1
 62
     7
100
AcDbSpline
210
0.0
220
0.0
230
1.0
 70
    11
 71
     3
 72
    28
 73
    24
 74
     0
 42
0.0000000001
 43
0.0000000001
 12
1.0
 22
0.0
 32
0.0
 13
1.0
 23
0.0
 33
0.0
 40
0.0
 40
0.0
 40
0.0
 40
0.0
 40
0.1428571428571428
 40
0.1428571428571428
 40
0.1428571428571428
 40
0.1428571428571428
 40
0.2857142857142857
 40
0.2857142857142857
 40
0.2857142857142857
 40
0.2857142857142857
 40
0.4285714285714285
 40
0.4285714285714285
 40
0.4285714285714285
 40
0.4285714285714285
 40
0.5714285714285714
 40
0.5714285714285714
 40
0.5714285714285714
 40
0.5714285714285714
 40
0.7142857142857143
 40
0.7142857142857143
 40
0.7142857142857143
 40
0.7142857142857143
 40
1.0
 40
1.0
 40
1.0
 40
1.0
 10
-9.6899
 20
93.5597
 30
0.0
 10
-10.6582
 20
90.8317
 30
0.0
 10
-13.5863
 20
92.3198
 30
0.0
 10
-13.9319
 20
92.8346
 30
0.0
 10
-13.9319
 20
92.8346
 30
0.0
 10
-17.6003
 20
94.7661
 30
0.0
 10
-18.8562
 20
90.6146
 30
0.0
 10
-15.5345
 20
89.1286
 30
0.0
 10
-15.5345
 20
89.1286
 30
0.0
 10
-16.7774
 20
88.6982
 30
0.0
 10
-18.8562
 20
89.3104
 30
0.0
 10
-18.8562
 20
92.0566
 30
0.0
 10
-18.8562
 20
92.0566
 30
0.0
 10
-18.8562
 20
92.0566
 30
0.0
 10
-18.8562
 20
73.3027
 30
0.0
 10
-18.8562
 20
73.3027
 30
0.0
 10
-18.8562
 20
73.3027
 30
0.0
 10
-18.8562
 20
75.9693
 30
0.0
 10
-15.8205
 20
81.7525
 30
0.0
 10
-11.1081
 20
86.9039
 30
0.0
 10
-11.1081
 20
86.9039
 30
0.0
 10
-8.6899
 20
89.7855
 30
0.0
 10
-8.5725
 20
92.2635
 30
0.0
 10
-9.6899
 20
93.5597
 30
0.0
  0
SPLINE
  5
A2
330
1F
100
AcDbEntity
  8
layer 1
 62
     7
100
AcDbSpline
210
0.0
220
0.0
230
1.0
 70
    11
 71
     3
 72
    24
 73
    20
 74
     0
 42
0.0000000001
 43
0.0000000001
 12
1.0
 22
0.0
 32
0.0
 13
1.0
 23
0.0
 33
0.0
 40
0.0
 40
0.0
 40
0.0
 40
0.0
 40
0.1666666666666667
 40
0.1666666666666667
 40
0.1666666666666667
 40
0.1666666666666667
 40
0.3333333333333333
 40
0.3333333333333333
 40
0.3333333333333333
 40
0.3333333333333333
 40
0.5
 40
0.5
 40
0.5
 40
0.5
 40
0.6666666666666666
 40
0.6666666666666666
 40
0.6666666666666666
 40
0.6666666666666666
 40
1.0
 40
1.0
 40
1.0
 40
1.0
 10
-15.5722
 20
98.9671
 30
0.0
 10
-13.3578
 20
99.3926
 30
0.0
 10
-12.5632
 20
98.3746
 30
0.0
 10
-12.0667
 20
98.6793
 30
0.0
 10
-12.0667
 20
98.6793
 30
0.0
 10
-12.0467
 20
99.4437
 30
0.0
 10
-11.9988
 20
100.4286
 30
0.0
 10
-11.5649
 20
100.798
 30
0.0
 10
-11.5649
 20
100.798
 30
0.0
 10
-7.9648
 20
97.6132
 30
0.0
 10
-9.756
 20
93.9567
 30
0.0
 10
-13.8545
 20
96.1152
 30
0.0
 10
-13.8545
 20
96.1152
 30
0.0
 10
-14.1934
 20
96.4018
 30
0.0
 10
-12.1823
 20
97.0437
 30
0.0
 10
-12.5615
 20
97.0602
 30
0.0
 10
-12.5615
 20
97.0602
 30
0.0
 10
-14.2811
 20
97.1314
 30
0.0
 10
-14.8061
 20
98.5217
 30
0.0
 10
-15.5722
 20
98.9671
 30
0.0
  0
SPLINE
  5
A3
330
1F
100
AcDbEntity
  8
layer 1
 62
     7
100
AcDbSpline
210
0.0
220
0.0
230
1.0
 70
    11
 71
     3
 72
    36
 73
    32
 74
     0
 42
0.0000000001
 43
0.0000000001
 12
1.0
 22
0.0
 32
0.0
 13
1.0
 23
0.0
 33
0.0
 40
0.0
 40
0.0
 40
0.0
 40
0.0
 40
0.1111111111111111
 40
0.1111111111111111
 40
0.1111111111111111
 40
0.1111111111111111
 40
0.2222222222222222
 40
0.2222222222222222
 40
0.2222222222222222
 40
0.2222222222222222
 40
0.3333333333333333
 40
0.3333333333333333
 40
0.3333333333333333
 40
0.3333333333333333
 40
0.4444444444444444
 40
0.4444444444444444
 40
0.4444444444444444
 40
0.4444444444444444
 40
0.5555555555555556
 40
0.5555555555555556
 40
0.5555555555555556
 40
0.5555555555555556
 40
0.6666666666666666
 40
0.6666666666666666
 40
0.6666666666666666
 40
0.6666666666666666
 40
0.7777777777777778
 40
0.7777777777777778
 40
0.7777777777777778
 40
0.7777777777777778
 40
1.0
 40
1.0
 40
1.0
 40
1.0
 10
-7.8805
 20
125.906
 30
0.0
 10
-7.5
 20
126.2125
 30
0.0
 10
-4.3715
 20
126.6594
 30
0.0
 10
-3.6414
 20
125.4343
 30
0.0
 10
-3.6414
 20
125.4343
 30
0.0
 10
-9.9213
 20
123.3869
 30
0.0
 10
-4.6147
 20
117.6794
 30
0.0
 10
-1.9431
 20
116.2014
 30
0.0
 10
-1.9431
 20
116.2014
 30
0.0
 10
-2.6252
 20
116.6832
 30
0.0
 10
-3.3931
 20
118.5257
 30
0.0
 10
-2.8253
 20
120.3363
 30
0.0
 10
-2.8253
 20
120.3363
 30
0.0
 10
-2.713
 20
120.6906
 30
0.0
 10
-0.71
 20
118.5587
 30
0.0
 10
-0.546
 20
118.9312
 30
0.0
 10
-0.546
 20
118.9312
 30
0.0
 10
-1.6502
 20
120.6775
 30
0.0
 10
-1.8702
 20
122.0364
 30
0.0
 10
-1.9778
 20
123.9181
 30
0.0
 10
-1.9778
 20
123.9181
 30
0.0
 10
-0.5511
 20
123.2
 30
0.0
 10
-0.2976
 20
122.6206
 30
0.0
 10
0.1609
 20
122.1156
 30
0.0
 10
0.1609
 20
122.1156
 30
0.0
 10
-1.6948
 20
125.3831
 30
0.0
 10
-0.3675
 20
128.2102
 30
0.0
 10
1.935
 20
129.3111
 30
0.0
 10
1.935
 20
129.3111
 30
0.0
 10
-1.2032
 20
129.2447
 30
0.0
 10
-6.4602
 20
128.3277
 30
0.0
 10
-7.8805
 20
125.906
 30
0.0
  0
SPLINE
  5
A4
330
1F
100
AcDbEntity
  8
layer 1
 62
     7
100
AcDbSpline
210
0.0
220
0.0
230
1.0
 70
    11
 71
     3
 72
    28
 73
    24
 74
     0
 42
0.0000000001
 43
0.0000000001
 12
1.0
 22
0.0
 32
0.0
 13
1.0
 23
0.0
 33
0.0
 40
0.0
 40
0.0
 40
0.0
 40
0.0
 40
0.1428571428571428
 40
0.1428571428571428
 40
0.1428571428571428
 40
0.1428571428571428
 40
0.2857142857142857
 40
0.2857142857142857
 40
0.2857142857142857
 40
0.2857142857142857
 40
0.4285714285714285
 40
0.4285714285714285
 40
0.4285714285714285
 40
0.4285714285714285
 40
0.5714285714285714
 40
0.5714285714285714
 40
0.5714285714285714
 40
0.5714285714285714
 40
0.7142857142857143
 40
0.7142857142857143
 40
0.7142857142857143
 40
0.7142857142857143
 40
1.0
 40
1.0
 40
1.0
 40
1.0
 10
-10.6696
 20
101.9117
 30
0.0
 10
-16.807
 20
105.9241
 30
0.0
 10
-13.7879
 20
108.8173
 30
0.0
 10
-12.1577
 20
109.1682
 30
0.0
 10
-12.1577
 20
109.1682
 30
0.0
 10
-12.7273
 20
100.3528
 30
0.0
 10
-2.9181
 20
101.109
 30
0.0
 10
-2.1201
 20
105.3828
 30
0.0
 10
-2.1201
 20
105.3828
 30
0.0
 10
-0.2448
 20
105.252
 30
0.0
 10
-0.2019
 20
102.5027
 30
0.0
 10
-0.7036
 20
100.0594
 30
0.0
 10
-0.7036
 20
100.0594
 30
0.0
 10
-1.4435
 20
96.4547
 30
0.0
 10
-4.0652
 20
92.1808
 30
0.0
 10
-9.4035
 20
87.0807
 30
0.0
 10
-9.4035
 20
87.0807
 30
0.0
 10
-6.6555
 20
91.3631
 30
0.0
 10
-8.0297
 20
94.4169
 30
0.0
 10
-8.8835
 20
94.7894
 30
0.0
 10
-8.8835
 20
94.7894
 30
0.0
 10
-3.2473
 20
98.0849
 30
0.0
 10
-9.3569
 20
101.0048
 30
0.0
 10
-10.6696
 20
101.9117
 30
0.0
  0
SPLINE
  5
A5
330
1F
100
AcDbEntity
  8
layer 1
 62
     7
100
AcDbSpline
210
0.0
220
0.0
230
1.0
 70
    11
 71
     3
 72
    40
 73
    36
 74
     0
 42
0.0000000001
 43
0.0000000001
 12
1.0
 22
0.0
 32
0.0
 13
1.0
 23
0.0
 33
0.0
 40
0.0
 40
0.0
 40
0.0
 40
0.0
 40
0.1
 40
0.1
 40
0.1
 40
0.1
 40
0.2
 40
0.2
 40
0.2
 40
0.2
 40
0.3
 40
0.3
 40
0.3
 40
0.3
 40
0.4
 40
0.4
 40
0.4
 40
0.4
 40
0.5
 40
0.5
 40
0.5
 40
0.5
 40
0.6
 40
0.6
 40
0.6
 40
0.6
 40
0.7
 40
0.7
 40
0.7
 40
0.7
 40
0.8
 40
0.8
 40
0.8
 40
0.8
 40
1.0
 40
1.0
 40
1.0
 40
1.0
 10
18.0868
 20
55.6361
 30
0.0
 10
19.8547
 20
56.5832
 30
0.0
 10
21.1555
 20
57.126
 30
0.0
 10
21.9186
 20
57.0632
 30
0.0
 10
21.9186
 20
57.0632
 30
0.0
 10
20.689
 20
56.1692
 30
0.0
 10
21.8623
 20
55.8497
 30
0.0
 10
20.8462
 20
54.4196
 30
0.0
 10
20.8462
 20
54.4196
 30
0.0
 10
22.8623
 20
56.3201
 30
0.0
 10
24.1781
 20
55.1383
 30
0.0
 10
24.5323
 20
54.9628
 30
0.0
 10
24.5323
 20
54.9628
 30
0.0
 10
21.558
 20
53.069
 30
0.0
 10
23.3453
 20
50.4787
 30
0.0
 10
19.2834
 20
49.5152
 30
0.0
 10
19.2834
 20
49.5152
 30
0.0
 10
20.6211
 20
49.5882
 30
0.0
 10
21.419
 20
49.2338
 30
0.0
 10
22.0877
 20
48.0935
 30
0.0
 10
22.0877
 20
48.0935
 30
0.0
 10
20.2322
 20
48.6198
 30
0.0
 10
21.2466
 20
47.2112
 30
0.0
 10
18.3004
 20
47.5639
 30
0.0
 10
18.3004
 20
47.5639
 30
0.0
 10
21.9402
 20
47.3371
 30
0.0
 10
24.0009
 20
45.415
 30
0.0
 10
25.2738
 20
42.5832
 30
0.0
 10
25.2738
 20
42.5832
 30
0.0
 10
25.2738
 20
47.3088
 30
0.0
 10
25.3883
 20
64.7864
 30
0.0
 10
25.3883
 20
70.6293
 30
0.0
 10
25.3883
 20
70.6293
 30
0.0
 10
24.3188
 20
65.0313
 30
0.0
 10
22.6419
 20
61.4477
 30
0.0
 10
18.0868
 20
55.6361
 30
0.0
  0
SPLINE
  5
A6
330
1F
100
AcDbEntity
  8
layer 1
 62
     7
100
AcDbSpline
210
0.0
220
0.0
230
1.0
 70
    11
 71
     3
 72
    24
 73
    20
 74
     0
 42
0.0000000001
 43
0.0000000001
 12
1.0
 22
0.0
 32
0.0
 13
1.0
 23
0.0
 33
0.0
 40
0.0
 40
0.0
 40
0.0
 40
0.0
 40
0.1666666666666667
 40
0.1666666666666667
 40
0.1666666666666667
 40
0.1666666666666667
 40
0.3333333333333333
 40
0.3333333333333333
 40
0.3333333333333333
 40
0.3333333333333333
 40
0.5
 40
0.5
 40
0.5
 40
0.5
 40
0.6666666666666666
 40
0.6666666666666666
 40
0.6666666666666666
 40
0.6666666666666666
 40
1.0
 40
1.0
 40
1.0
 40
1.0
 10
25.2738
 20
36.1012
 30
0.0
 10
24.6582
 20
31.185
 30
0.0
 10
23.4814
 20
30.2565
 30
0.0
 10
22.5645
 20
28.5433
 30
0.0
 10
22.5645
 20
28.5433
 30
0.0
 10
20.4538
 20
26.0489
 30
0.0
 10
21.3856
 20
22.4817
 30
0.0
 10
23.953
 20
24.089
 30
0.0
 10
23.953
 20
24.089
 30
0.0
 10
24.0356
 20
21.1097
 30
0.0
 10
21.0648
 20
21.7173
 30
0.0
 10
20.525
 20
22.3097
 30
0.0
 10
20.525
 20
22.3097
 30
0.0
 10
22.5809
 20
19.1003
 30
0.0
 10
24.4645
 20
16.6324
 30
0.0
 10
25.2738
 20
9.998
 30
0.0
 10
25.2738
 20
9.998
 30
0.0
 10
25.2738
 20
9.998
 30
0.0
 10
25.2738
 20
36.1012
 30
0.0
 10
25.2738
 20
36.1012
 30
0.0
  0
SPLINE
  5
A7
330
1F
100
AcDbEntity
  8
layer 1
 62
     7
100
AcDbSpline
210
0.0
220
0.0
230
1.0
 70
    11
 71
     3
 72
    36
 73
    32
 74
     0
 42
0.0000000001
 43
0.0000000001
 12
1.0
 22
0.0
 32
0.0
 13
1.0
 23
0.0
 33
0.0
 40
0.0
 40
0.0
 40
0.0
 40
0.0
 40
0.1111111111111111
 40
0.1111111111111111
 40
0.1111111111111111
 40
0.1111111111111111
 40
0.2222222222222222
 40
0.2222222222222222
 40
0.2222222222222222
 40
0.2222222222222222
 40
0.3333333333333333
 40
0.3333333333333333
 40
0.3333333333333333
 40
0.3333333333333333
 40
0.4444444444444444
 40
0.4444444444444444
 40
0.4444444444444444
 40
0.4444444444444444
 40
0.5555555555555556
 40
0.5555555555555556
 40
0.5555555555555556
 40
0.5555555555555556
 40
0.6666666666666666
 40
0.6666666666666666
 40
0.6666666666666666
 40
0.6666666666666666
 40
0.7777777777777778
 40
0.7777777777777778
 40
0.7777777777777778
 40
0.7777777777777778
 40
1.0
 40
1.0
 40
1.0
 40
1.0
 10
21.1109
 20
51.9552
 30
0.0
 10
20.8724
 20
52.3225
 30
0.0
 10
20.2305
 20
53.3008
 30
0.0
 10
18.5719
 20
52.8008
 30
0.0
 10
18.5719
 20
52.8008
 30
0.0
 10
18.1681
 20
53.2941
 30
0.0
 10
19.4178
 20
54.1432
 30
0.0
 10
19.1957
 20
54.1501
 30
0.0
 10
19.1957
 20
54.1501
 30
0.0
 10
16.3655
 20
53.5192
 30
0.0
 10
12.2603
 20
50.5347
 30
0.0
 10
10.8086
 20
48.0485
 30
0.0
 10
10.8086
 20
48.0485
 30
0.0
 10
11.1662
 20
48.547
 30
0.0
 10
12.3713
 20
49.1029
 30
0.0
 10
13.4239
 20
48.9211
 30
0.0
 10
13.4239
 20
48.9211
 30
0.0
 10
13.2866
 20
48.0834
 30
0.0
 10
11.8252
 20
46.9795
 30
0.0
 10
12.1497
 20
47.0855
 30
0.0
 10
12.1497
 20
47.0855
 30
0.0
 10
13.8727
 20
48.4825
 30
0.0
 10
16.21
 20
48.0502
 30
0.0
 10
17.1269
 20
47.9922
 30
0.0
 10
17.1269
 20
47.9922
 30
0.0
 10
16.6351
 20
48.3152
 30
0.0
 10
16.324
 20
48.916
 30
0.0
 10
16.3342
 20
49.166
 30
0.0
 10
16.3342
 20
49.166
 30
0.0
 10
19.0851
 20
49.8348
 30
0.0
 10
17.8186
 20
51.9021
 30
0.0
 10
21.1109
 20
51.9552
 30
0.0
  0
SPLINE
  5
A8
330
1F
100
AcDbEntity
  8
layer 1
 62
     7
100
AcDbSpline
210
0.0
220
0.0
230
1.0
 70
    11
 71
     3
 72
    24
 73
    20
 74
     0
 42
0.0000000001
 43
0.0000000001
 12
1.0
 22
0.0
 32
0.0
 13
1.0
 23
0.0
 33
0.0
 40
0.0
 40
0.0
 40
0.0
 40
0.0
 40
0.1666666666666667
 40
0.1666666666666667
 40
0.1666666666666667
 40
0.1666666666666667
 40
0.3333333333333333
 40
0.3333333333333333
 40
0.3333333333333333
 40
0.3333333333333333
 40
0.5
 40
0.5
 40
0.5
 40
0.5
 40
0.6666666666666666
 40
0.6666666666666666
 40
0.6666666666666666
 40
0.6666666666666666
 40
1.0
 40
1.0
 40
1.0
 40
1.0
 10
23.1153
 20
39.0014
 30
0.0
 10
24.7077
 20
41.2009
 30
0.0
 10
21.7716
 20
46.9676
 30
0.0
 10
13.4209
 20
45.6752
 30
0.0
 10
13.4209
 20
45.6752
 30
0.0
 10
19.272
 20
45.7841
 30
0.0
 10
21.0398
 20
41.2441
 30
0.0
 10
18.0321
 20
40.3484
 30
0.0
 10
18.0321
 20
40.3484
 30
0.0
 10
19.0948
 20
39.256
 30
0.0
 10
19.0054
 20
38.6436
 30
0.0
 10
19.8148
 20
37.9665
 30
0.0
 10
19.8148
 20
37.9665
 30
0.0
 10
21.3708
 20
36.2089
 30
0.0
 10
23.0742
 20
38.6238
 30
0.0
 10
21.4801
 20
40.5073
 30
0.0
 10
21.4801
 20
40.5073
 30
0.0
 10
22.3457
 20
40.2458
 30
0.0
 10
23.1022
 20
39.9594
 30
0.0
 10
23.1153
 20
39.0014
 30
0.0
  0
SPLINE
  5
A9
330
1F
100
AcDbEntity
  8
layer 1
 62
     7
100
AcDbSpline
210
0.0
220
0.0
230
1.0
 70
    11
 71
     3
 72
    16
 73
    12
 74
     0
 42
0.0000000001
 43
0.0000000001
 12
1.0
 22
0.0
 32
0.0
 13
1.0
 23
0.0
 33
0.0
 40
0.0
 40
0.0
 40
0.0
 40
0.0
 40
0.25
 40
0.25
 40
0.25
 40
0.25
 40
0.5
 40
0.5
 40
0.5
 40
0.5
 40
1.0
 40
1.0
 40
1.0
 40
1.0
 10
17.4778
 20
40.6116
 30
0.0
 10
18.5652
 20
42.818
 30
0.0
 10
13.3082
 20
46.4248
 30
0.0
 10
6.947
 20
42.6095
 30
0.0
 10
6.947
 20
42.6095
 30
0.0
 10
11.3434
 20
44.351
 30
0.0
 10
14.7282
 20
42.4124
 30
0.0
 10
16.0443
 20
38.4962
 30
0.0
 10
16.0443
 20
38.4962
 30
0.0
 10
15.116
 20
40.6133
 30
0.0
 10
16.6867
 20
40.8616
 30
0.0
 10
17.4778
 20
40.6116
 30
0.0
  0
SPLINE
  5
AA
330
1F
100
AcDbEntity
  8
layer 1
 62
     7
100
AcDbSpline
210
0.0
220
0.0
230
1.0
 70
    11
 71
     3
 72
    40
 73
    36
 74
     0
 42
0.0000000001
 43
0.0000000001
 12
1.0
 22
0.0
 32
0.0
 13
1.0
 23
0.0
 33
0.0
 40
0.0
 40
0.0
 40
0.0
 40
0.0
 40
0.1
 40
0.1
 40
0.1
 40
0.1
 40
0.2
 40
0.2
 40
0.2
 40
0.2
 40
0.3
 40
0.3
 40
0.3
 40
0.3
 40
0.4
 40
0.4
 40
0.4
 40
0.4
 40
0.5
 40
0.5
 40
0.5
 40
0.5
 40
0.6
 40
0.6
 40
0.6
 40
0.6
 40
0.7
 40
0.7
 40
0.7
 40
0.7
 40
0.8
 40
0.8
 40
0.8
 40
0.8
 40
1.0
 40
1.0
 40
1.0
 40
1.0
 10
12.9523
 20
34.3335
 30
0.0
 10
12.7604
 20
33.2113
 30
0.0
 10
10.8633
 20
32.5605
 30
0.0
 10
10.0293
 20
34.0452
 30
0.0
 10
10.0293
 20
34.0452
 30
0.0
 10
10.4132
 20
34.936
 30
0.0
 10
10.9645
 20
39.2526
 30
0.0
 10
7.164
 20
38.7827
 30
0.0
 10
7.164
 20
38.7827
 30
0.0
 10
6.0402
 20
38.6437
 30
0.0
 10
5.5169
 20
36.8873
 30
0.0
 10
5.9691
 20
36.0152
 30
0.0
 10
5.9691
 20
36.0152
 30
0.0
 10
6.4805
 20
35.0317
 30
0.0
 10
7.8395
 20
34.7258
 30
0.0
 10
8.7513
 20
35.6525
 30
0.0
 10
8.7513
 20
35.6525
 30
0.0
 10
8.4864
 20
34.1199
 30
0.0
 10
6.7072
 20
33.6448
 30
0.0
 10
5.6876
 20
34.7042
 30
0.0
 10
5.6876
 20
34.7042
 30
0.0
 10
5.055
 20
35.3631
 30
0.0
 10
4.3648
 20
36.4719
 30
0.0
 10
4.58
 20
37.753
 30
0.0
 10
4.58
 20
37.753
 30
0.0
 10
7.25
 20
44.5743
 30
0.0
 10
14.3675
 20
41.0535
 30
0.0
 10
14.9418
 20
38.6801
 30
0.0
 10
14.9418
 20
38.6801
 30
0.0
 10
13.7035
 20
40.3501
 30
0.0
 10
12.2074
 20
39.8916
 30
0.0
 10
11.9675
 20
38.5559
 30
0.0
 10
11.9675
 20
38.5559
 30
0.0
 10
11.815
 20
36.8543
 30
0.0
 10
13.2172
 20
35.7885
 30
0.0
 10
12.9523
 20
34.3335
 30
0.0
  0
SPLINE
  5
AB
330
1F
100
AcDbEntity
  8
layer 1
 62
     7
100
AcDbSpline
210
0.0
220
0.0
230
1.0
 70
    11
 71
     3
 72
    68
 73
    64
 74
     0
 42
0.0000000001
 43
0.0000000001
 12
1.0
 22
0.0
 32
0.0
 13
1.0
 23
0.0
 33
0.0
 40
0.0
 40
0.0
 40
0.0
 40
0.0
 40
0.0588235294117647
 40
0.0588235294117647
 40
0.0588235294117647
 40
0.0588235294117647
 40
0.1176470588235294
 40
0.1176470588235294
 40
0.1176470588235294
 40
0.1176470588235294
 40
0.1764705882352941
 40
0.1764705882352941
 40
0.1764705882352941
 40
0.1764705882352941
 40
0.2352941176470588
 40
0.2352941176470588
 40
0.2352941176470588
 40
0.2352941176470588
 40
0.2941176470588235
 40
0.2941176470588235
 40
0.2941176470588235
 40
0.2941176470588235
 40
0.3529411764705883
 40
0.3529411764705883
 40
0.3529411764705883
 40
0.3529411764705883
 40
0.4117647058823529
 40
0.4117647058823529
 40
0.4117647058823529
 40
0.4117647058823529
 40
0.4705882352941176
 40
0.4705882352941176
 40
0.4705882352941176
 40
0.4705882352941176
 40
0.5294117647058824
 40
0.5294117647058824
 40
0.5294117647058824
 40
0.5294117647058824
 40
0.5882352941176471
 40
0.5882352941176471
 40
0.5882352941176471
 40
0.5882352941176471
 40
0.6470588235294118
 40
0.6470588235294118
 40
0.6470588235294118
 40
0.6470588235294118
 40
0.7058823529411765
 40
0.7058823529411765
 40
0.7058823529411765
 40
0.7058823529411765
 40
0.7647058823529411
 40
0.7647058823529411
 40
0.7647058823529411
 40
0.7647058823529411
 40
0.8235294117647058
 40
0.8235294117647058
 40
0.8235294117647058
 40
0.8235294117647058
 40
0.8823529411764706
 40
0.8823529411764706
 40
0.8823529411764706
 40
0.8823529411764706
 40
1.0
 40
1.0
 40
1.0
 40
1.0
 10
25.2738
 20
40.5888
 30
0.0
 10
25.2738
 20
39.0129
 30
0.0
 10
24.5306
 20
38.0212
 30
0.0
 10
23.3356
 20
38.1504
 30
0.0
 10
23.3356
 20
38.1504
 30
0.0
 10
23.2395
 20
38.2679
 30
0.0
 10
22.5395
 20
33.7177
 30
0.0
 10
18.5635
 20
36.5695
 30
0.0
 10
18.5635
 20
36.5695
 30
0.0
 10
18.3287
 20
36.5199
 30
0.0
 10
19.9656
 20
35.9355
 30
0.0
 10
19.7157
 20
34.3202
 30
0.0
 10
19.7157
 20
34.3202
 30
0.0
 10
19.4986
 20
34.178
 30
0.0
 10
18.0787
 20
34.2058
 30
0.0
 10
17.1799
 20
35.861
 30
0.0
 10
17.1799
 20
35.861
 30
0.0
 10
16.8685
 20
35.8017
 30
0.0
 10
18.9325
 20
33.5457
 30
0.0
 10
17.8253
 20
30.7184
 30
0.0
 10
17.8253
 20
30.7184
 30
0.0
 10
17.4397
 20
30.5512
 30
0.0
 10
14.649
 20
32.0824
 30
0.0
 10
14.9884
 20
35.0698
 30
0.0
 10
14.9884
 20
35.0698
 30
0.0
 10
15.5609
 20
30.4634
 30
0.0
 10
9.6386
 20
29.7218
 30
0.0
 10
9.2594
 20
33.4478
 30
0.0
 10
9.2594
 20
33.4478
 30
0.0
 10
8.0809
 20
32.0309
 30
0.0
 10
6.2173
 20
32.5672
 30
0.0
 10
5.4013
 20
33.6317
 30
0.0
 10
5.4013
 20
33.6317
 30
0.0
 10
6.8064
 20
32.4698
 30
0.0
 10
6.5398
 20
30.879
 30
0.0
 10
5.0585
 20
30.6074
 30
0.0
 10
5.0585
 20
30.6074
 30
0.0
 10
8.0992
 20
30.3112
 30
0.0
 10
11.0489
 20
29.4802
 30
0.0
 10
13.5599
 20
28.1082
 30
0.0
 10
13.5599
 20
28.1082
 30
0.0
 10
16.2693
 20
26.6269
 30
0.0
 10
18.4346
 20
24.7297
 30
0.0
 10
19.3962
 20
23.7666
 30
0.0
 10
19.3962
 20
23.7666
 30
0.0
 10
19.2338
 20
24.4847
 30
0.0
 10
18.719
 20
25.862
 30
0.0
 10
21.0546
 20
28.4141
 30
0.0
 10
21.0546
 20
28.4141
 30
0.0
 10
17.9956
 20
26.0739
 30
0.0
 10
15.7431
 20
28.7998
 30
0.0
 10
16.4762
 20
30.7383
 30
0.0
 10
16.4762
 20
30.7383
 30
0.0
 10
17.463
 20
28.9887
 30
0.0
 10
22.5593
 20
29.5959
 30
0.0
 10
24.2111
 20
32.905
 30
0.0
 10
24.2111
 20
32.905
 30
0.0
 10
21.3444
 20
30.4087
 30
0.0
 10
19.7224
 20
32.6782
 30
0.0
 10
19.8677
 20
33.5588
 30
0.0
 10
19.8677
 20
33.5588
 30
0.0
 10
22.2364
 20
33.2689
 30
0.0
 10
24.7823
 20
35.6376
 30
0.0
 10
25.2738
 20
40.5888
 30
0.0
  0
SPLINE
  5
AC
330
1F
100
AcDbEntity
  8
layer 1
 62
     7
100
AcDbSpline
210
0.0
220
0.0
230
1.0
 70
    11
 71
     3
 72
    16
 73
    12
 74
     0
 42
0.0000000001
 43
0.0000000001
 12
1.0
 22
0.0
 32
0.0
 13
1.0
 23
0.0
 33
0.0
 40
0.0
 40
0.0
 40
0.0
 40
0.0
 40
0.25
 40
0.25
 40
0.25
 40
0.25
 40
0.5
 40
0.5
 40
0.5
 40
0.5
 40
1.0
 40
1.0
 40
1.0
 40
1.0
 10
18.58
 20
117.3252
 30
0.0
 10
17.3816
 20
118.2905
 30
0.0
 10
16.046
 20
118.6328
 30
0.0
 10
14.596
 20
118.0638
 30
0.0
 10
14.596
 20
118.0638
 30
0.0
 10
16.4863
 20
119.3994
 30
0.0
 10
16.8834
 20
122.2961
 30
0.0
 10
15.7117
 20
124.7707
 30
0.0
 10
15.7117
 20
124.7707
 30
0.0
 10
17.6681
 20
122.6618
 30
0.0
 10
18.4757
 20
120.1096
 30
0.0
 10
18.58
 20
117.3252
 30
0.0
  0
SPLINE
  5
AD
330
1F
100
AcDbEntity
  8
layer 1
 62
     7
100
AcDbSpline
210
0.0
220
0.0
230
1.0
 70
    11
 71
     3
 72
    32
 73
    28
 74
     0
 42
0.0000000001
 43
0.0000000001
 12
1.0
 22
0.0
 32
0.0
 13
1.0
 23
0.0
 33
0.0
 40
0.0
 40
0.0
 40
0.0
 40
0.0
 40
0.125
 40
0.125
 40
0.125
 40
0.125
 40
0.25
 40
0.25
 40
0.25
 40
0.25
 40
0.375
 40
0.375
 40
0.375
 40
0.375
 40
0.5
 40
0.5
 40
0.5
 40
0.5
 40
0.625
 40
0.625
 40
0.625
 40
0.625
 40
0.75
 40
0.75
 40
0.75
 40
0.75
 40
1.0
 40
1.0
 40
1.0
 40
1.0
 10
9.3687
 20
84.1662
 30
0.0
 10
12.4442
 20
83.9892
 30
0.0
 10
12.6642
 20
82.9445
 30
0.0
 10
14.6057
 20
83.1182
 30
0.0
 10
14.6057
 20
83.1182
 30
0.0
 10
17.2808
 20
83.3599
 30
0.0
 10
19.792
 20
81.4814
 30
0.0
 10
20.5199
 20
80.1554
 30
0.0
 10
20.5199
 20
80.1554
 30
0.0
 10
17.2228
 20
83.9226
 30
0.0
 10
15.7465
 20
85.4505
 30
0.0
 10
12.4176
 20
88.5277
 30
0.0
 10
12.4176
 20
88.5277
 30
0.0
 10
12.9722
 20
87.8422
 30
0.0
 10
13.5384
 20
86.4501
 30
0.0
 10
13.3892
 20
86.0446
 30
0.0
 10
13.3892
 20
86.0446
 30
0.0
 10
10.026
 20
87.099
 30
0.0
 10
9.3157
 20
85.4387
 30
0.0
 10
6.939
 20
87.968
 30
0.0
 10
6.939
 20
87.968
 30
0.0
 10
7.8606
 20
86.457
 30
0.0
 10
7.7084
 20
85.8361
 30
0.0
 10
11.623
 20
84.709
 30
0.0
 10
11.623
 20
84.709
 30
0.0
 10
10.12
 20
84.5119
 30
0.0
 10
9.0259
 20
84.2107
 30
0.0
 10
9.3687
 20
84.1662
 30
0.0
  0
SPLINE
  5
AE
330
1F
100
AcDbEntity
  8
layer 1
 62
     7
100
AcDbSpline
210
0.0
220
0.0
230
1.0
 70
    11
 71
     3
 72
    36
 73
    32
 74
     0
 42
0.0000000001
 43
0.0000000001
 12
1.0
 22
0.0
 32
0.0
 13
1.0
 23
0.0
 33
0.0
 40
0.0
 40
0.0
 40
0.0
 40
0.0
 40
0.1111111111111111
 40
0.1111111111111111
 40
0.1111111111111111
 40
0.1111111111111111
 40
0.2222222222222222
 40
0.2222222222222222
 40
0.2222222222222222
 40
0.2222222222222222
 40
0.3333333333333333
 40
0.3333333333333333
 40
0.3333333333333333
 40
0.3333333333333333
 40
0.4444444444444444
 40
0.4444444444444444
 40
0.4444444444444444
 40
0.4444444444444444
 40
0.5555555555555556
 40
0.5555555555555556
 40
0.5555555555555556
 40
0.5555555555555556
 40
0.6666666666666666
 40
0.6666666666666666
 40
0.6666666666666666
 40
0.6666666666666666
 40
0.7777777777777778
 40
0.7777777777777778
 40
0.7777777777777778
 40
0.7777777777777778
 40
1.0
 40
1.0
 40
1.0
 40
1.0
 10
6.2636
 20
48.3965
 30
0.0
 10
6.1793
 20
47.9741
 30
0.0
 10
5.5436
 20
50.4623
 30
0.0
 10
5.4623
 20
50.9521
 30
0.0
 10
5.4623
 20
50.9521
 30
0.0
 10
4.9473
 20
50.1741
 30
0.0
 10
4.5487
 20
49.5465
 30
0.0
 10
4.4278
 20
49.0453
 30
0.0
 10
4.4278
 20
49.0453
 30
0.0
 10
4.1363
 20
49.7521
 30
0.0
 10
3.7457
 20
50.3148
 30
0.0
 10
3.2809
 20
50.9652
 30
0.0
 10
3.2809
 20
50.9652
 30
0.0
 10
2.8155
 20
50.3148
 30
0.0
 10
2.4249
 20
49.752
 30
0.0
 10
2.1338
 20
49.0453
 30
0.0
 10
2.1338
 20
49.0453
 30
0.0
 10
2.0129
 20
49.5465
 30
0.0
 10
1.6138
 20
50.1741
 30
0.0
 10
1.0973
 20
50.9521
 30
0.0
 10
1.0973
 20
50.9521
 30
0.0
 10
1.018
 20
50.4623
 30
0.0
 10
0.3825
 20
47.9741
 30
0.0
 10
0.2982
 20
48.3965
 30
0.0
 10
0.2982
 20
48.3965
 30
0.0
 10
-0.5231
 20
52.498
 30
0.0
 10
-0.2812
 20
56.0336
 30
0.0
 10
3.2809
 20
56.1446
 30
0.0
 10
3.2809
 20
56.1446
 30
0.0
 10
6.8411
 20
56.0336
 30
0.0
 10
7.0843
 20
52.4979
 30
0.0
 10
6.2636
 20
48.3965
 30
0.0
  0
SPLINE
  5
AF
330
1F
100
AcDbEntity
  8
layer 1
 62
     7
100
AcDbSpline
210
0.0
220
0.0
230
1.0
 70
    11
 71
     3
 72
    52
 73
    48
 74
     0
 42
0.0000000001
 43
0.0000000001
 12
1.0
 22
0.0
 32
0.0
 13
1.0
 23
0.0
 33
0.0
 40
0.0
 40
0.0
 40
0.0
 40
0.0
 40
0.0769230769230769
 40
0.0769230769230769
 40
0.0769230769230769
 40
0.0769230769230769
 40
0.1538461538461539
 40
0.1538461538461539
 40
0.1538461538461539
 40
0.1538461538461539
 40
0.2307692307692308
 40
0.2307692307692308
 40
0.2307692307692308
 40
0.2307692307692308
 40
0.3076923076923077
 40
0.3076923076923077
 40
0.3076923076923077
 40
0.3076923076923077
 40
0.3846153846153846
 40
0.3846153846153846
 40
0.3846153846153846
 40
0.3846153846153846
 40
0.4615384615384616
 40
0.4615384615384616
 40
0.4615384615384616
 40
0.4615384615384616
 40
0.5384615384615384
 40
0.5384615384615384
 40
0.5384615384615384
 40
0.5384615384615384
 40
0.6153846153846154
 40
0.6153846153846154
 40
0.6153846153846154
 40
0.6153846153846154
 40
0.6923076923076923
 40
0.6923076923076923
 40
0.6923076923076923
 40
0.6923076923076923
 40
0.7692307692307693
 40
0.7692307692307693
 40
0.7692307692307693
 40
0.7692307692307693
 40
0.8461538461538461
 40
0.8461538461538461
 40
0.8461538461538461
 40
0.8461538461538461
 40
1.0
 40
1.0
 40
1.0
 40
1.0
 10
9.7759
 20
65.6903
 30
0.0
 10
7.9272
 20
66.0279
 30
0.0
 10
6.4902
 20
67.0128
 30
0.0
 10
5.4588
 20
68.6631
 30
0.0
 10
5.4588
 20
68.6631
 30
0.0
 10
6.939
 20
66.2929
 30
0.0
 10
6.7237
 20
64.3263
 30
0.0
 10
7.6174
 20
63.416
 30
0.0
 10
7.6174
 20
63.416
 30
0.0
 10
6.6855
 20
63.2817
 30
0.0
 10
5.5996
 20
63.608
 30
0.0
 10
5.2338
 20
64.3826
 30
0.0
 10
5.2338
 20
64.3826
 30
0.0
 10
5.8165
 20
62.8516
 30
0.0
 10
7.0102
 20
60.3024
 30
0.0
 10
4.2029
 20
58.1074
 30
0.0
 10
4.2029
 20
58.1074
 30
0.0
 10
7.4454
 20
59.0197
 30
0.0
 10
9.2331
 20
54.8831
 30
0.0
 10
7.9203
 20
51.4254
 30
0.0
 10
7.9203
 20
51.4254
 30
0.0
 10
8.6339
 20
53.4433
 30
0.0
 10
9.8454
 20
53.1932
 30
0.0
 10
10.0442
 20
53.0772
 30
0.0
 10
10.0442
 20
53.0772
 30
0.0
 10
8.6237
 20
52.1123
 30
0.0
 10
10.7607
 20
51.0762
 30
0.0
 10
9.0543
 20
49.305
 30
0.0
 10
9.0543
 20
49.305
 30
0.0
 10
10.8056
 20
50.5729
 30
0.0
 10
13.9917
 20
53.3585
 30
0.0
 10
15.2846
 20
55.4725
 30
0.0
 10
15.2846
 20
55.4725
 30
0.0
 10
8.5213
 20
51.131
 30
0.0
 10
7.2796
 20
60.5672
 30
0.0
 10
11.426
 20
59.3905
 30
0.0
 10
11.426
 20
59.3905
 30
0.0
 10
9.973
 20
56.2488
 30
0.0
 10
13.2172
 20
55.868
 30
0.0
 10
14.4553
 20
57.2832
 30
0.0
 10
14.4553
 20
57.2832
 30
0.0
 10
15.2298
 20
58.1689
 30
0.0
 10
15.5875
 20
60.5044
 30
0.0
 10
13.3032
 20
61.4413
 30
0.0
 10
13.3032
 20
61.4413
 30
0.0
 10
11.5769
 20
62.3071
 30
0.0
 10
6.7915
 20
62.7571
 30
0.0
 10
9.7759
 20
65.6903
 30
0.0
  0
SPLINE
  5
B0
330
1F
100
AcDbEntity
  8
layer 1
 62
     7
100
AcDbSpline
210
0.0
220
0.0
230
1.0
 70
    11
 71
     3
 72
    24
 73
    20
 74
     0
 42
0.0000000001
 43
0.0000000001
 12
1.0
 22
0.0
 32
0.0
 13
1.0
 23
0.0
 33
0.0
 40
0.0
 40
0.0
 40
0.0
 40
0.0
 40
0.1666666666666667
 40
0.1666666666666667
 40
0.1666666666666667
 40
0.1666666666666667
 40
0.3333333333333333
 40
0.3333333333333333
 40
0.3333333333333333
 40
0.3333333333333333
 40
0.5
 40
0.5
 40
0.5
 40
0.5
 40
0.6666666666666666
 40
0.6666666666666666
 40
0.6666666666666666
 40
0.6666666666666666
 40
1.0
 40
1.0
 40
1.0
 40
1.0
 10
23.1153
 20
39.0014
 30
0.0
 10
24.7077
 20
41.2009
 30
0.0
 10
21.7716
 20
46.9676
 30
0.0
 10
13.4209
 20
45.6752
 30
0.0
 10
13.4209
 20
45.6752
 30
0.0
 10
19.272
 20
45.7841
 30
0.0
 10
21.0398
 20
41.2441
 30
0.0
 10
18.0321
 20
40.3484
 30
0.0
 10
18.0321
 20
40.3484
 30
0.0
 10
19.0948
 20
39.256
 30
0.0
 10
19.0054
 20
38.6436
 30
0.0
 10
19.8148
 20
37.9665
 30
0.0
 10
19.8148
 20
37.9665
 30
0.0
 10
21.3708
 20
36.2089
 30
0.0
 10
23.0742
 20
38.6238
 30
0.0
 10
21.4801
 20
40.5073
 30
0.0
 10
21.4801
 20
40.5073
 30
0.0
 10
22.3457
 20
40.2458
 30
0.0
 10
23.1022
 20
39.9594
 30
0.0
 10
23.1153
 20
39.0014
 30
0.0
  0
SPLINE
  5
B1
330
1F
100
AcDbEntity
  8
layer 1
 62
     7
100
AcDbSpline
210
0.0
220
0.0
230
1.0
 70
    11
 71
     3
 72
    28
 73
    24
 74
     0
 42
0.0000000001
 43
0.0000000001
 12
1.0
 22
0.0
 32
0.0
 13
1.0
 23
0.0
 33
0.0
 40
0.0
 40
0.0
 40
0.0
 40
0.0
 40
0.1428571428571428
 40
0.1428571428571428
 40
0.1428571428571428
 40
0.1428571428571428
 40
0.2857142857142857
 40
0.2857142857142857
 40
0.2857142857142857
 40
0.2857142857142857
 40
0.4285714285714285
 40
0.4285714285714285
 40
0.4285714285714285
 40
0.4285714285714285
 40
0.5714285714285714
 40
0.5714285714285714
 40
0.5714285714285714
 40
0.5714285714285714
 40
0.7142857142857143
 40
0.7142857142857143
 40
0.7142857142857143
 40
0.7142857142857143
 40
1.0
 40
1.0
 40
1.0
 40
1.0
 10
15.9647
 20
78.267
 30
0.0
 10
22.2136
 20
75.4248
 30
0.0
 10
19.4576
 20
65.0779
 30
0.0
 10
13.4586
 20
65.4749
 30
0.0
 10
13.4586
 20
65.4749
 30
0.0
 10
17.8965
 20
65.4454
 30
0.0
 10
14.657
 20
61.5308
 30
0.0
 10
19.3181
 20
61.2871
 30
0.0
 10
19.3181
 20
61.2871
 30
0.0
 10
19.5088
 20
60.8799
 30
0.0
 10
17.6464
 20
58.8591
 30
0.0
 10
15.5956
 20
61.135
 30
0.0
 10
15.5956
 20
61.135
 30
0.0
 10
16.8274
 20
59.7647
 30
0.0
 10
16.9563
 20
58.0861
 30
0.0
 10
16.2795
 20
56.8349
 30
0.0
 10
16.2795
 20
56.8349
 30
0.0
 10
19.469
 20
59.4515
 30
0.0
 10
23.8192
 20
66.594
 30
0.0
 10
23.6187
 20
71.0963
 30
0.0
 10
23.6187
 20
71.0963
 30
0.0
 10
23.3818
 20
76.4393
 30
0.0
 10
19.6262
 20
80.4733
 30
0.0
 10
15.9647
 20
78.267
 30
0.0
  0
SPLINE
  5
B2
330
1F
100
AcDbEntity
  8
layer 1
 62
     7
100
AcDbSpline
210
0.0
220
0.0
230
1.0
 70
    11
 71
     3
 72
    20
 73
    16
 74
     0
 42
0.0000000001
 43
0.0000000001
 12
1.0
 22
0.0
 32
0.0
 13
1.0
 23
0.0
 33
0.0
 40
0.0
 40
0.0
 40
0.0
 40
0.0
 40
0.2
 40
0.2
 40
0.2
 40
0.2
 40
0.4
 40
0.4
 40
0.4
 40
0.4
 40
0.6
 40
0.6
 40
0.6
 40
0.6
 40
1.0
 40
1.0
 40
1.0
 40
1.0
 10
15.0545
 20
78.7089
 30
0.0
 10
14.0829
 20
79.1092
 30
0.0
 10
12.8697
 20
81.0707
 30
0.0
 10
17.6219
 20
80.7809
 30
0.0
 10
17.6219
 20
80.7809
 30
0.0
 10
14.8825
 20
81.7957
 30
0.0
 10
8.8292
 20
81.2776
 30
0.0
 10
7.5064
 20
78.7135
 30
0.0
 10
7.5064
 20
78.7135
 30
0.0
 10
6.4208
 20
76.9228
 30
0.0
 10
6.2173
 20
72.3328
 30
0.0
 10
9.4069
 20
73.5659
 30
0.0
 10
9.4069
 20
73.5659
 30
0.0
 10
7.9022
 20
77.3482
 30
0.0
 10
11.9824
 20
79.4355
 30
0.0
 10
15.0545
 20
78.7089
 30
0.0
  0
SPLINE
  5
B3
330
1F
100
AcDbEntity
  8
layer 1
 62
     7
100
AcDbSpline
210
0.0
220
0.0
230
1.0
 70
    11
 71
     3
 72
    28
 73
    24
 74
     0
 42
0.0000000001
 43
0.0000000001
 12
1.0
 22
0.0
 32
0.0
 13
1.0
 23
0.0
 33
0.0
 40
0.0
 40
0.0
 40
0.0
 40
0.0
 40
0.1428571428571428
 40
0.1428571428571428
 40
0.1428571428571428
 40
0.1428571428571428
 40
0.2857142857142857
 40
0.2857142857142857
 40
0.2857142857142857
 40
0.2857142857142857
 40
0.4285714285714285
 40
0.4285714285714285
 40
0.4285714285714285
 40
0.4285714285714285
 40
0.5714285714285714
 40
0.5714285714285714
 40
0.5714285714285714
 40
0.5714285714285714
 40
0.7142857142857143
 40
0.7142857142857143
 40
0.7142857142857143
 40
0.7142857142857143
 40
1.0
 40
1.0
 40
1.0
 40
1.0
 10
13.1197
 20
77.0339
 30
0.0
 10
18.6945
 20
74.708
 30
0.0
 10
14.4867
 20
68.1085
 30
0.0
 10
9.8174
 20
72.1967
 30
0.0
 10
9.8174
 20
72.1967
 30
0.0
 10
10.3124
 20
69.7985
 30
0.0
 10
5.9657
 20
69.2306
 30
0.0
 10
5.8546
 20
73.321
 30
0.0
 10
5.8546
 20
73.321
 30
0.0
 10
5.7719
 20
72.6722
 30
0.0
 10
7.5661
 20
68.0886
 30
0.0
 10
9.6781
 20
67.6813
 30
0.0
 10
9.6781
 20
67.6813
 30
0.0
 10
9.809
 20
70.3068
 30
0.0
 10
14.1028
 20
67.1551
 30
0.0
 10
14.6672
 20
70.684
 30
0.0
 10
14.6672
 20
70.684
 30
0.0
 10
15.1324
 20
71.1374
 30
0.0
 10
18.0787
 20
69.5022
 30
0.0
 10
13.1709
 20
67.0805
 30
0.0
 10
13.1709
 20
67.0805
 30
0.0
 10
20.0054
 20
69.0472
 30
0.0
 10
18.6199
 20
76.7473
 30
0.0
 10
13.1197
 20
77.0339
 30
0.0
  0
SPLINE
  5
B4
330
1F
100
AcDbEntity
  8
layer 1
 62
     7
100
AcDbSpline
210
0.0
220
0.0
230
1.0
 70
    11
 71
     3
 72
    16
 73
    12
 74
     0
 42
0.0000000001
 43
0.0000000001
 12
1.0
 22
0.0
 32
0.0
 13
1.0
 23
0.0
 33
0.0
 40
0.0
 40
0.0
 40
0.0
 40
0.0
 40
0.25
 40
0.25
 40
0.25
 40
0.25
 40
0.5
 40
0.5
 40
0.5
 40
0.5
 40
1.0
 40
1.0
 40
1.0
 40
1.0
 10
9.9946
 20
115.2218
 30
0.0
 10
12.6065
 20
115.6769
 30
0.0
 10
12.7489
 20
116.5295
 30
0.0
 10
13.6858
 20
117.3252
 30
0.0
 10
13.6858
 20
117.3252
 30
0.0
 10
17.3948
 20
116.7278
 30
0.0
 10
15.6337
 20
115.2463
 30
0.0
 10
15.2566
 20
114.3675
 30
0.0
 10
15.2566
 20
114.3675
 30
0.0
 10
13.9154
 20
115.498
 30
0.0
 10
12.8481
 20
115.9035
 30
0.0
 10
9.9946
 20
115.2218
 30
0.0
  0
SPLINE
  5
B5
330
1F
100
AcDbEntity
  8
layer 1
 62
     7
100
AcDbSpline
210
0.0
220
0.0
230
1.0
 70
    11
 71
     3
 72
    36
 73
    32
 74
     0
 42
0.0000000001
 43
0.0000000001
 12
1.0
 22
0.0
 32
0.0
 13
1.0
 23
0.0
 33
0.0
 40
0.0
 40
0.0
 40
0.0
 40
0.0
 40
0.1111111111111111
 40
0.1111111111111111
 40
0.1111111111111111
 40
0.1111111111111111
 40
0.2222222222222222
 40
0.2222222222222222
 40
0.2222222222222222
 40
0.2222222222222222
 40
0.3333333333333333
 40
0.3333333333333333
 40
0.3333333333333333
 40
0.3333333333333333
 40
0.4444444444444444
 40
0.4444444444444444
 40
0.4444444444444444
 40
0.4444444444444444
 40
0.5555555555555556
 40
0.5555555555555556
 40
0.5555555555555556
 40
0.5555555555555556
 40
0.6666666666666666
 40
0.6666666666666666
 40
0.6666666666666666
 40
0.6666666666666666
 40
0.7777777777777778
 40
0.7777777777777778
 40
0.7777777777777778
 40
0.7777777777777778
 40
1.0
 40
1.0
 40
1.0
 40
1.0
 10
8.7
 20
88.5277
 30
0.0
 10
7.745
 20
89.2973
 30
0.0
 10
7.6937
 20
90.7672
 30
0.0
 10
8.0314
 20
90.9541
 30
0.0
 10
8.0314
 20
90.9541
 30
0.0
 10
9.5475
 20
89.1384
 30
0.0
 10
9.3373
 20
90.4426
 30
0.0
 10
11.4413
 20
89.6299
 30
0.0
 10
11.4413
 20
89.6299
 30
0.0
 10
8.089
 20
92.2071
 30
0.0
 10
4.7787
 20
97.3319
 30
0.0
 10
3.2809
 20
106.1278
 30
0.0
 10
3.2809
 20
106.1278
 30
0.0
 10
1.7829
 20
97.3319
 30
0.0
 10
-1.5295
 20
92.2071
 30
0.0
 10
-4.8812
 20
89.6299
 30
0.0
 10
-4.8812
 20
89.6299
 30
0.0
 10
-2.7774
 20
90.4427
 30
0.0
 10
-2.9859
 20
89.1384
 30
0.0
 10
-1.4697
 20
90.9541
 30
0.0
 10
-1.4697
 20
90.9541
 30
0.0
 10
-1.1321
 20
90.7672
 30
0.0
 10
-1.1832
 20
89.2972
 30
0.0
 10
-2.1401
 20
88.5277
 30
0.0
 10
-2.1401
 20
88.5277
 30
0.0
 10
1.0528
 20
91.4605
 30
0.0
 10
-0.1786
 20
87.768
 30
0.0
 10
3.2809
 20
91.3812
 30
0.0
 10
3.2809
 20
91.3812
 30
0.0
 10
6.7402
 20
87.768
 30
0.0
 10
5.5089
 20
91.4605
 30
0.0
 10
8.7
 20
88.5277
 30
0.0
  0
SPLINE
  5
B6
330
1F
100
AcDbEntity
  8
layer 1
 62
     7
100
AcDbSpline
210
0.0
220
0.0
230
1.0
 70
    11
 71
     3
 72
    32
 73
    28
 74
     0
 42
0.0000000001
 43
0.0000000001
 12
1.0
 22
0.0
 32
0.0
 13
1.0
 23
0.0
 33
0.0
 40
0.0
 40
0.0
 40
0.0
 40
0.0
 40
0.125
 40
0.125
 40
0.125
 40
0.125
 40
0.25
 40
0.25
 40
0.25
 40
0.25
 40
0.375
 40
0.375
 40
0.375
 40
0.375
 40
0.5
 40
0.5
 40
0.5
 40
0.5
 40
0.625
 40
0.625
 40
0.625
 40
0.625
 40
0.75
 40
0.75
 40
0.75
 40
0.75
 40
1.0
 40
1.0
 40
1.0
 40
1.0
 10
23.0924
 20
106.775
 30
0.0
 10
23.3572
 20
110.8336
 30
0.0
 10
19.6181
 20
111.067
 30
0.0
 10
18.6563
 20
109.9495
 30
0.0
 10
18.6563
 20
109.9495
 30
0.0
 10
18.3088
 20
111.6263
 30
0.0
 10
17.4677
 20
112.7505
 30
0.0
 10
16.4066
 20
113.8098
 30
0.0
 10
16.4066
 20
113.8098
 30
0.0
 10
17.7592
 20
114.0629
 30
0.0
 10
18.7885
 20
115.4963
 30
0.0
 10
18.9161
 20
116.4167
 30
0.0
 10
18.9161
 20
116.4167
 30
0.0
 10
18.9161
 20
116.4167
 30
0.0
 10
25.4162
 20
116.4383
 30
0.0
 10
25.4162
 20
116.4383
 30
0.0
 10
25.4162
 20
116.4383
 30
0.0
 10
25.4162
 20
116.4383
 30
0.0
 10
25.4162
 20
104.0422
 30
0.0
 10
25.4162
 20
104.0422
 30
0.0
 10
25.4162
 20
104.0422
 30
0.0
 10
23.6967
 20
100.7764
 30
0.0
 10
22.1471
 20
101.9116
 30
0.0
 10
20.5101
 20
101.051
 30
0.0
 10
20.5101
 20
101.051
 30
0.0
 10
22.5975
 20
102.996
 30
0.0
 10
22.7763
 20
104.5024
 30
0.0
 10
23.0924
 20
106.775
 30
0.0
  0
SPLINE
  5
B7
330
1F
100
AcDbEntity
  8
layer 1
 62
     7
100
AcDbSpline
210
0.0
220
0.0
230
1.0
 70
    11
 71
     3
 72
    24
 73
    20
 74
     0
 42
0.0000000001
 43
0.0000000001
 12
1.0
 22
0.0
 32
0.0
 13
1.0
 23
0.0
 33
0.0
 40
0.0
 40
0.0
 40
0.0
 40
0.0
 40
0.1666666666666667
 40
0.1666666666666667
 40
0.1666666666666667
 40
0.1666666666666667
 40
0.3333333333333333
 40
0.3333333333333333
 40
0.3333333333333333
 40
0.3333333333333333
 40
0.5
 40
0.5
 40
0.5
 40
0.5
 40
0.6666666666666666
 40
0.6666666666666666
 40
0.6666666666666666
 40
0.6666666666666666
 40
1.0
 40
1.0
 40
1.0
 40
1.0
 10
22.0165
 20
95.0576
 30
0.0
 10
23.167
 20
95.4182
 30
0.0
 10
23.9615
 20
95.7246
 30
0.0
 10
24.4878
 20
96.2394
 30
0.0
 10
24.4878
 20
96.2394
 30
0.0
 10
24.0259
 20
96.8551
 30
0.0
 10
23.0577
 20
96.7458
 30
0.0
 10
22.2301
 20
96.8483
 30
0.0
 10
22.2301
 20
96.8483
 30
0.0
 10
24.2458
 20
97.9608
 30
0.0
 10
24.3551
 20
99.1179
 30
0.0
 10
25.4162
 20
101.5459
 30
0.0
 10
25.4162
 20
101.5459
 30
0.0
 10
25.4162
 20
101.5459
 30
0.0
 10
25.4162
 20
92.7818
 30
0.0
 10
25.4162
 20
92.7818
 30
0.0
 10
25.4162
 20
92.7818
 30
0.0
 10
24.948
 20
94.9233
 30
0.0
 10
23.2229
 20
95.3436
 30
0.0
 10
22.0165
 20
95.0576
 30
0.0
  0
SPLINE
  5
B8
330
1F
100
AcDbEntity
  8
layer 1
 62
     7
100
AcDbSpline
210
0.0
220
0.0
230
1.0
 70
    11
 71
     3
 72
    28
 73
    24
 74
     0
 42
0.0000000001
 43
0.0000000001
 12
1.0
 22
0.0
 32
0.0
 13
1.0
 23
0.0
 33
0.0
 40
0.0
 40
0.0
 40
0.0
 40
0.0
 40
0.1428571428571428
 40
0.1428571428571428
 40
0.1428571428571428
 40
0.1428571428571428
 40
0.2857142857142857
 40
0.2857142857142857
 40
0.2857142857142857
 40
0.2857142857142857
 40
0.4285714285714285
 40
0.4285714285714285
 40
0.4285714285714285
 40
0.4285714285714285
 40
0.5714285714285714
 40
0.5714285714285714
 40
0.5714285714285714
 40
0.5714285714285714
 40
0.7142857142857143
 40
0.7142857142857143
 40
0.7142857142857143
 40
0.7142857142857143
 40
1.0
 40
1.0
 40
1.0
 40
1.0
 10
16.2494
 20
93.5597
 30
0.0
 10
17.2193
 20
90.8317
 30
0.0
 10
20.1479
 20
92.3198
 30
0.0
 10
20.4937
 20
92.8346
 30
0.0
 10
20.4937
 20
92.8346
 30
0.0
 10
24.1615
 20
94.7661
 30
0.0
 10
25.4162
 20
90.6146
 30
0.0
 10
22.0941
 20
89.1286
 30
0.0
 10
22.0941
 20
89.1286
 30
0.0
 10
23.3373
 20
88.6982
 30
0.0
 10
25.4162
 20
89.3104
 30
0.0
 10
25.4162
 20
92.0566
 30
0.0
 10
25.4162
 20
92.0566
 30
0.0
 10
25.4162
 20
92.0566
 30
0.0
 10
25.4162
 20
73.3027
 30
0.0
 10
25.4162
 20
73.3027
 30
0.0
 10
25.4162
 20
73.3027
 30
0.0
 10
25.4162
 20
75.9693
 30
0.0
 10
22.3806
 20
81.7525
 30
0.0
 10
17.6681
 20
86.9039
 30
0.0
 10
17.6681
 20
86.9039
 30
0.0
 10
15.2515
 20
89.7855
 30
0.0
 10
15.1338
 20
92.2635
 30
0.0
 10
16.2494
 20
93.5597
 30
0.0
  0
SPLINE
  5
B9
330
1F
100
AcDbEntity
  8
layer 1
 62
     7
100
AcDbSpline
210
0.0
220
0.0
230
1.0
 70
    11
 71
     3
 72
    24
 73
    20
 74
     0
 42
0.0000000001
 43
0.0000000001
 12
1.0
 22
0.0
 32
0.0
 13
1.0
 23
0.0
 33
0.0
 40
0.0
 40
0.0
 40
0.0
 40
0.0
 40
0.1666666666666667
 40
0.1666666666666667
 40
0.1666666666666667
 40
0.1666666666666667
 40
0.3333333333333333
 40
0.3333333333333333
 40
0.3333333333333333
 40
0.3333333333333333
 40
0.5
 40
0.5
 40
0.5
 40
0.5
 40
0.6666666666666666
 40
0.6666666666666666
 40
0.6666666666666666
 40
0.6666666666666666
 40
1.0
 40
1.0
 40
1.0
 40
1.0
 10
22.134
 20
98.9671
 30
0.0
 10
19.9177
 20
99.3926
 30
0.0
 10
19.1233
 20
98.3746
 30
0.0
 10
18.6283
 20
98.6793
 30
0.0
 10
18.6283
 20
98.6793
 30
0.0
 10
18.6067
 20
99.4437
 30
0.0
 10
18.56
 20
100.4286
 30
0.0
 10
18.1249
 20
100.798
 30
0.0
 10
18.1249
 20
100.798
 30
0.0
 10
14.5264
 20
97.6132
 30
0.0
 10
16.3159
 20
93.9567
 30
0.0
 10
20.4139
 20
96.1152
 30
0.0
 10
20.4139
 20
96.1152
 30
0.0
 10
20.7534
 20
96.4018
 30
0.0
 10
18.7423
 20
97.0437
 30
0.0
 10
19.1216
 20
97.0602
 30
0.0
 10
19.1216
 20
97.0602
 30
0.0
 10
20.841
 20
97.1314
 30
0.0
 10
21.3661
 20
98.5217
 30
0.0
 10
22.134
 20
98.9671
 30
0.0
  0
SPLINE
  5
BA
330
1F
100
AcDbEntity
  8
layer 1
 62
     7
100
AcDbSpline
210
0.0
220
0.0
230
1.0
 70
    11
 71
     3
 72
    36
 73
    32
 74
     0
 42
0.0000000001
 43
0.0000000001
 12
1.0
 22
0.0
 32
0.0
 13
1.0
 23
0.0
 33
0.0
 40
0.0
 40
0.0
 40
0.0
 40
0.0
 40
0.1111111111111111
 40
0.1111111111111111
 40
0.1111111111111111
 40
0.1111111111111111
 40
0.2222222222222222
 40
0.2222222222222222
 40
0.2222222222222222
 40
0.2222222222222222
 40
0.3333333333333333
 40
0.3333333333333333
 40
0.3333333333333333
 40
0.3333333333333333
 40
0.4444444444444444
 40
0.4444444444444444
 40
0.4444444444444444
 40
0.4444444444444444
 40
0.5555555555555556
 40
0.5555555555555556
 40
0.5555555555555556
 40
0.5555555555555556
 40
0.6666666666666666
 40
0.6666666666666666
 40
0.6666666666666666
 40
0.6666666666666666
 40
0.7777777777777778
 40
0.7777777777777778
 40
0.7777777777777778
 40
0.7777777777777778
 40
1.0
 40
1.0
 40
1.0
 40
1.0
 10
14.4404
 20
125.906
 30
0.0
 10
14.0612
 20
126.2125
 30
0.0
 10
10.9327
 20
126.6594
 30
0.0
 10
10.2013
 20
125.4343
 30
0.0
 10
10.2013
 20
125.4343
 30
0.0
 10
16.4829
 20
123.3869
 30
0.0
 10
11.1764
 20
117.6794
 30
0.0
 10
8.5047
 20
116.2014
 30
0.0
 10
8.5047
 20
116.2014
 30
0.0
 10
9.1848
 20
116.6832
 30
0.0
 10
9.9547
 20
118.5257
 30
0.0
 10
9.3853
 20
120.3363
 30
0.0
 10
9.3853
 20
120.3363
 30
0.0
 10
9.2742
 20
120.6906
 30
0.0
 10
7.2716
 20
118.5587
 30
0.0
 10
7.1076
 20
118.9312
 30
0.0
 10
7.1076
 20
118.9312
 30
0.0
 10
8.2118
 20
120.6775
 30
0.0
 10
8.4318
 20
122.0364
 30
0.0
 10
8.5377
 20
123.9181
 30
0.0
 10
8.5377
 20
123.9181
 30
0.0
 10
7.111
 20
123.2
 30
0.0
 10
6.8577
 20
122.6206
 30
0.0
 10
6.3992
 20
122.1156
 30
0.0
 10
6.3992
 20
122.1156
 30
0.0
 10
8.2564
 20
125.3831
 30
0.0
 10
6.9271
 20
128.2102
 30
0.0
 10
4.625
 20
129.3111
 30
0.0
 10
4.625
 20
129.3111
 30
0.0
 10
7.7631
 20
129.2447
 30
0.0
 10
13.0218
 20
128.3277
 30
0.0
 10
14.4404
 20
125.906
 30
0.0
  0
SPLINE
  5
BB
330
1F
100
AcDbEntity
  8
layer 1
 62
     7
100
AcDbSpline
210
0.0
220
0.0
230
1.0
 70
    11
 71
     3
 72
    28
 73
    24
 74
     0
 42
0.0000000001
 43
0.0000000001
 12
1.0
 22
0.0
 32
0.0
 13
1.0
 23
0.0
 33
0.0
 40
0.0
 40
0.0
 40
0.0
 40
0.0
 40
0.1428571428571428
 40
0.1428571428571428
 40
0.1428571428571428
 40
0.1428571428571428
 40
0.2857142857142857
 40
0.2857142857142857
 40
0.2857142857142857
 40
0.2857142857142857
 40
0.4285714285714285
 40
0.4285714285714285
 40
0.4285714285714285
 40
0.4285714285714285
 40
0.5714285714285714
 40
0.5714285714285714
 40
0.5714285714285714
 40
0.5714285714285714
 40
0.7142857142857143
 40
0.7142857142857143
 40
0.7142857142857143
 40
0.7142857142857143
 40
1.0
 40
1.0
 40
1.0
 40
1.0
 10
17.2295
 20
101.9117
 30
0.0
 10
23.3688
 20
105.9241
 30
0.0
 10
20.3495
 20
108.8173
 30
0.0
 10
18.719
 20
109.1682
 30
0.0
 10
18.719
 20
109.1682
 30
0.0
 10
19.2867
 20
100.3528
 30
0.0
 10
9.4798
 20
101.109
 30
0.0
 10
8.6819
 20
105.3828
 30
0.0
 10
8.6819
 20
105.3828
 30
0.0
 10
6.8064
 20
105.252
 30
0.0
 10
6.7635
 20
102.5027
 30
0.0
 10
7.2632
 20
100.0594
 30
0.0
 10
7.2632
 20
100.0594
 30
0.0
 10
8.003
 20
96.4547
 30
0.0
 10
10.6251
 20
92.1808
 30
0.0
 10
15.9647
 20
87.0807
 30
0.0
 10
15.9647
 20
87.0807
 30
0.0
 10
13.2171
 20
91.3631
 30
0.0
 10
14.5909
 20
94.4169
 30
0.0
 10
15.4434
 20
94.7894
 30
0.0
 10
15.4434
 20
94.7894
 30
0.0
 10
9.809
 20
98.0849
 30
0.0
 10
15.9185
 20
101.0048
 30
0.0
 10
17.2295
 20
101.9117
 30
0.0
  0
SPLINE
  5
BC
330
1F
100
AcDbEntity
  8
layer 1
 62
     7
100
AcDbSpline
210
0.0
220
0.0
230
1.0
 70
    11
 71
     3
 72
    36
 73
    32
 74
     0
 42
0.0000000001
 43
0.0000000001
 12
1.0
 22
0.0
 32
0.0
 13
1.0
 23
0.0
 33
0.0
 40
0.0
 40
0.0
 40
0.0
 40
0.0
 40
0.1111111111111111
 40
0.1111111111111111
 40
0.1111111111111111
 40
0.1111111111111111
 40
0.2222222222222222
 40
0.2222222222222222
 40
0.2222222222222222
 40
0.2222222222222222
 40
0.3333333333333333
 40
0.3333333333333333
 40
0.3333333333333333
 40
0.3333333333333333
 40
0.4444444444444444
 40
0.4444444444444444
 40
0.4444444444444444
 40
0.4444444444444444
 40
0.5555555555555556
 40
0.5555555555555556
 40
0.5555555555555556
 40
0.5555555555555556
 40
0.6666666666666666
 40
0.6666666666666666
 40
0.6666666666666666
 40
0.6666666666666666
 40
0.7777777777777778
 40
0.7777777777777778
 40
0.7777777777777778
 40
0.7777777777777778
 40
1.0
 40
1.0
 40
1.0
 40
1.0
 10
7.0677
 20
114.818
 30
0.0
 10
6.1657
 20
114.9616
 30
0.0
 10
4.9706
 20
114.9103
 30
0.0
 10
3.9181
 20
114.2433
 30
0.0
 10
3.9181
 20
114.2433
 30
0.0
 10
3.6732
 20
116.976
 30
0.0
 10
4.7936
 20
117.6862
 30
0.0
 10
5.2936
 20
119.0321
 30
0.0
 10
5.2936
 20
119.0321
 30
0.0
 10
5.4241
 20
120.0419
 30
0.0
 10
4.7884
 20
120.6092
 30
0.0
 10
3.2809
 20
120.6757
 30
0.0
 10
3.2809
 20
120.6757
 30
0.0
 10
1.8159
 20
120.6758
 30
0.0
 10
1.0693
 20
120.174
 30
0.0
 10
1.2664
 20
119.0321
 30
0.0
 10
1.2664
 20
119.0321
 30
0.0
 10
1.7663
 20
117.6863
 30
0.0
 10
2.8884
 20
116.976
 30
0.0
 10
2.6418
 20
114.2433
 30
0.0
 10
2.6418
 20
114.2433
 30
0.0
 10
1.591
 20
114.9104
 30
0.0
 10
0.3956
 20
114.9616
 30
0.0
 10
-0.5083
 20
114.8179
 30
0.0
 10
-0.5083
 20
114.8179
 30
0.0
 10
1.3922
 20
113.0319
 30
0.0
 10
2.5046
 20
112.2932
 30
0.0
 10
3.2809
 20
108.2876
 30
0.0
 10
3.2809
 20
108.2876
 30
0.0
 10
4.0554
 20
112.2933
 30
0.0
 10
5.1694
 20
113.0318
 30
0.0
 10
7.0677
 20
114.818
 30
0.0
  0
SPLINE
  5
BD
330
1F
100
AcDbEntity
  8
layer 1
 62
     7
100
AcDbSpline
210
0.0
220
0.0
230
1.0
 70
    11
 71
     3
 72
    20
 73
    16
 74
     0
 42
0.0000000001
 43
0.0000000001
 12
1.0
 22
0.0
 32
0.0
 13
1.0
 23
0.0
 33
0.0
 40
0.0
 40
0.0
 40
0.0
 40
0.0
 40
0.2
 40
0.2
 40
0.2
 40
0.2
 40
0.4
 40
0.4
 40
0.4
 40
0.4
 40
0.6
 40
0.6
 40
0.6
 40
0.6
 40
1.0
 40
1.0
 40
1.0
 40
1.0
 10
4.911
 20
122.45
 30
0.0
 10
6.0995
 20
125.9243
 30
0.0
 10
4.2143
 20
127.684
 30
0.0
 10
3.2809
 20
127.7068
 30
0.0
 10
3.2809
 20
127.7068
 30
0.0
 10
2.3685
 20
127.6607
 30
0.0
 10
0.4604
 20
125.9242
 30
0.0
 10
1.6486
 20
122.45
 30
0.0
 10
1.6486
 20
122.45
 30
0.0
 10
2.1718
 20
122.9004
 30
0.0
 10
2.5575
 20
123.5753
 30
0.0
 10
3.2809
 20
123.6665
 30
0.0
 10
3.2809
 20
123.6665
 30
0.0
 10
4.0024
 20
123.5754
 30
0.0
 10
4.3898
 20
122.9004
 30
0.0
 10
4.911
 20
122.45
 30
0.0
  0
SPLINE
  5
BE
330
1F
100
AcDbEntity
  8
layer 1
 62
     7
100
AcDbSpline
210
0.0
220
0.0
230
1.0
 70
    11
 71
     3
 72
    24
 73
    20
 74
     0
 42
0.0000000001
 43
0.0000000001
 12
1.0
 22
0.0
 32
0.0
 13
1.0
 23
0.0
 33
0.0
 40
0.0
 40
0.0
 40
0.0
 40
0.0
 40
0.1666666666666667
 40
0.1666666666666667
 40
0.1666666666666667
 40
0.1666666666666667
 40
0.3333333333333333
 40
0.3333333333333333
 40
0.3333333333333333
 40
0.3333333333333333
 40
0.5
 40
0.5
 40
0.5
 40
0.5
 40
0.6666666666666666
 40
0.6666666666666666
 40
0.6666666666666666
 40
0.6666666666666666
 40
1.0
 40
1.0
 40
1.0
 40
1.0
 10
-6.9885
 20
-92.7458
 30
0.0
 10
-9.0754
 20
-91.3059
 30
0.0
 10
-9.7196
 20
-87.0587
 30
0.0
 10
-4.7372
 20
-87.1066
 30
0.0
 10
-4.7372
 20
-87.1066
 30
0.0
 10
-11.0188
 20
-84.1387
 30
0.0
 10
-13.3248
 20
-96.3675
 30
0.0
 10
-4.9575
 20
-96.2519
 30
0.0
 10
-4.9575
 20
-96.2519
 30
0.0
 10
0.2236
 20
-96.1277
 30
0.0
 10
1.5807
 20
-90.811
 30
0.0
 10
1.2248
 20
-87.6113
 30
0.0
 10
1.2248
 20
-87.6113
 30
0.0
 10
1.3341
 20
-89.0004
 30
0.0
 10
0.1027
 20
-91.0177
 30
0.0
 10
-1.8125
 20
-89.0597
 30
0.0
 10
-1.8125
 20
-89.0597
 30
0.0
 10
-1.435
 20
-94.2937
 30
0.0
 10
-5.8414
 20
-93.4873
 30
0.0
 10
-6.9885
 20
-92.7458
 30
0.0
  0
SPLINE
  5
BF
330
1F
100
AcDbEntity
  8
layer 1
 62
     7
100
AcDbSpline
210
0.0
220
0.0
230
1.0
 70
    11
 71
     3
 72
    24
 73
    20
 74
     0
 42
0.0000000001
 43
0.0000000001
 12
1.0
 22
0.0
 32
0.0
 13
1.0
 23
0.0
 33
0.0
 40
0.0
 40
0.0
 40
0.0
 40
0.0
 40
0.1666666666666667
 40
0.1666666666666667
 40
0.1666666666666667
 40
0.1666666666666667
 40
0.3333333333333333
 40
0.3333333333333333
 40
0.3333333333333333
 40
0.3333333333333333
 40
0.5
 40
0.5
 40
0.5
 40
0.5
 40
0.6666666666666666
 40
0.6666666666666666
 40
0.6666666666666666
 40
0.6666666666666666
 40
1.0
 40
1.0
 40
1.0
 40
1.0
 10
13.6757
 20
-92.7458
 30
0.0
 10
15.7629
 20
-91.3059
 30
0.0
 10
16.4066
 20
-87.0587
 30
0.0
 10
11.4247
 20
-87.1066
 30
0.0
 10
11.4247
 20
-87.1066
 30
0.0
 10
17.7063
 20
-84.1387
 30
0.0
 10
20.0118
 20
-96.3675
 30
0.0
 10
11.6446
 20
-96.2519
 30
0.0
 10
11.6446
 20
-96.2519
 30
0.0
 10
6.4639
 20
-96.1277
 30
0.0
 10
5.1063
 20
-90.811
 30
0.0
 10
5.4623
 20
-87.6113
 30
0.0
 10
5.4623
 20
-87.6113
 30
0.0
 10
5.353
 20
-89.0004
 30
0.0
 10
6.5848
 20
-91.0177
 30
0.0
 10
8.4996
 20
-89.0597
 30
0.0
 10
8.4996
 20
-89.0597
 30
0.0
 10
8.1225
 20
-94.2937
 30
0.0
 10
12.5286
 20
-93.4873
 30
0.0
 10
13.6757
 20
-92.7458
 30
0.0
  0
SPLINE
  5
C0
330
1F
100
AcDbEntity
  8
layer 1
 62
     7
100
AcDbSpline
210
0.0
220
0.0
230
1.0
 70
    11
 71
     3
 72
    24
 73
    20
 74
     0
 42
0.0000000001
 43
0.0000000001
 12
1.0
 22
0.0
 32
0.0
 13
1.0
 23
0.0
 33
0.0
 40
0.0
 40
0.0
 40
0.0
 40
0.0
 40
0.1666666666666667
 40
0.1666666666666667
 40
0.1666666666666667
 40
0.1666666666666667
 40
0.3333333333333333
 40
0.3333333333333333
 40
0.3333333333333333
 40
0.3333333333333333
 40
0.5
 40
0.5
 40
0.5
 40
0.5
 40
0.6666666666666666
 40
0.6666666666666666
 40
0.6666666666666666
 40
0.6666666666666666
 40
1.0
 40
1.0
 40
1.0
 40
1.0
 10
-6.9885
 20
110.1716
 30
0.0
 10
-9.0754
 20
108.7314
 30
0.0
 10
-9.7196
 20
104.4825
 30
0.0
 10
-4.7372
 20
104.5321
 30
0.0
 10
-4.7372
 20
104.5321
 30
0.0
 10
-11.0188
 20
101.5641
 30
0.0
 10
-13.3248
 20
113.7933
 30
0.0
 10
-4.9575
 20
113.6772
 30
0.0
 10
-4.9575
 20
113.6772
 30
0.0
 10
0.2236
 20
113.5531
 30
0.0
 10
1.5807
 20
108.2363
 30
0.0
 10
1.2248
 20
105.0355
 30
0.0
 10
1.2248
 20
105.0355
 30
0.0
 10
1.3341
 20
106.4241
 30
0.0
 10
0.1027
 20
108.4436
 30
0.0
 10
-1.8125
 20
106.485
 30
0.0
 10
-1.8125
 20
106.485
 30
0.0
 10
-1.435
 20
111.7192
 30
0.0
 10
-5.8414
 20
110.9131
 30
0.0
 10
-6.9885
 20
110.1716
 30
0.0
  0
SPLINE
  5
C1
330
1F
100
AcDbEntity
  8
layer 1
 62
     7
100
AcDbSpline
210
0.0
220
0.0
230
1.0
 70
    11
 71
     3
 72
    24
 73
    20
 74
     0
 42
0.0000000001
 43
0.0000000001
 12
1.0
 22
0.0
 32
0.0
 13
1.0
 23
0.0
 33
0.0
 40
0.0
 40
0.0
 40
0.0
 40
0.0
 40
0.1666666666666667
 40
0.1666666666666667
 40
0.1666666666666667
 40
0.1666666666666667
 40
0.3333333333333333
 40
0.3333333333333333
 40
0.3333333333333333
 40
0.3333333333333333
 40
0.5
 40
0.5
 40
0.5
 40
0.5
 40
0.6666666666666666
 40
0.6666666666666666
 40
0.6666666666666666
 40
0.6666666666666666
 40
1.0
 40
1.0
 40
1.0
 40
1.0
 10
13.6757
 20
110.1716
 30
0.0
 10
15.7629
 20
108.7314
 30
0.0
 10
16.4066
 20
104.4825
 30
0.0
 10
11.4247
 20
104.5321
 30
0.0
 10
11.4247
 20
104.5321
 30
0.0
 10
17.7063
 20
101.5641
 30
0.0
 10
20.0118
 20
113.7933
 30
0.0
 10
11.6446
 20
113.6772
 30
0.0
 10
11.6446
 20
113.6772
 30
0.0
 10
6.4639
 20
113.5531
 30
0.0
 10
5.1063
 20
108.2363
 30
0.0
 10
5.4623
 20
105.0355
 30
0.0
 10
5.4623
 20
105.0355
 30
0.0
 10
5.353
 20
106.4241
 30
0.0
 10
6.5848
 20
108.4436
 30
0.0
 10
8.4996
 20
106.485
 30
0.0
 10
8.4996
 20
106.485
 30
0.0
 10
8.1225
 20
111.7192
 30
0.0
 10
12.5286
 20
110.9131
 30
0.0
 10
13.6757
 20
110.1716
 30
0.0
  0
ENDSEC
  0
SECTION
  2
OBJECTS
  0
DICTIONARY
  5
C
330
0
100
AcDbDictionary
281
     1
  3
ACAD_GROUP
350
D
  3
ACAD_LAYOUT
350
1A
  3
ACAD_MATERIAL
350
3B
  3
ACAD_MLEADERSTYLE
350
E4
  3
ACAD_MLINESTYLE
350
17
  3
ACAD_PLOTSETTINGS
350
19
  3
ACAD_PLOTSTYLENAME
350
E
  3
ACAD_TABLESTYLE
350
E3
  3
ACAD_VISUALSTYLE
350
2A
  0
DICTIONARY
  5
D
102
{ACAD_REACTORS
330
C
102
}
330
C
100
AcDbDictionary
281
     1
  0
DICTIONARY
  5
1A
102
{ACAD_REACTORS
330
C
102
}
330
C
100
AcDbDictionary
281
     1
  3
Layout1
350
1E
  3
Layout2
350
26
  3
Model
350
22
  0
DICTIONARY
  5
3B
102
{ACAD_REACTORS
330
C
102
}
330
C
100
AcDbDictionary
281
     1
  3
ByBlock
350
3D
  3
ByLayer
350
3C
  3
Global
350
3E
  0
DICTIONARY
  5
E4
102
{ACAD_REACTORS
330
C
102
}
330
C
100
AcDbDictionary
281
     1
  0
DICTIONARY
  5
17
102
{ACAD_REACTORS
330
C
102
}
330
C
100
AcDbDictionary
281
     1
  3
Standard
350
18
  0
DICTIONARY
  5
19
102
{ACAD_REACTORS
330
C
102
}
330
C
100
AcDbDictionary
281
     1
  0
ACDBDICTIONARYWDFLT
  5
E
102
{ACAD_REACTORS
330
C
102
}
330
C
100
AcDbDictionary
281
     1
  3
Normal
350
F
100
AcDbDictionaryWithDefault
340
F
  0
DICTIONARY
  5
E3
102
{ACAD_REACTORS
330
C
102
}
330
C
100
AcDbDictionary
281
     1
  0
DICTIONARY
  5
2A
102
{ACAD_REACTORS
330
C
102
}
330
C
100
AcDbDictionary
281
     1
  3
2dWireframe
350
2F
  3
3D Hidden
350
31
  3
3dWireframe
350
30
  3
Basic
350
32
  3
Brighten
350
36
  3
ColorChange
350
3A
  3
Conceptual
350
34
  3
Dim
350
35
  3
Facepattern
350
39
  3
Flat
350
2B
  3
FlatWithEdges
350
2C
  3
Gouraud
350
2D
  3
GouraudWithEdges
350
2E
  3
Linepattern
350
38
  3
Realistic
350
33
  3
Thicken
350
37
  0
LAYOUT
  5
1E
102
{ACAD_REACTORS
330
1A
102
}
330
1A
100
AcDbPlotSettings
  1

  2
none_device
  4

  6

 40
0.0
 41
0.0
 42
0.0
 43
0.0
 44
0.0
 45
0.0
 46
0.0
 47
0.0
 48
0.0
 49
0.0
140
0.0
141
0.0
142
1.0
143
1.0
 70
   688
 72
     0
 73
     0
 74
     5
  7

 75
    16
 76
     0
 77
     2
 78
   300
147
1.0
148
0.0
149
0.0
100
AcDbLayout
  1
Layout1
 70
     1
 71
     1
 10
0.0
 20
0.0
 11
12.0
 21
9.0
 12
0.0
 22
0.0
 32
0.0
 14
1.000000000000000E+20
 24
1.000000000000000E+20
 34
1.000000000000000E+20
 15
-1.000000000000000E+20
 25
-1.000000000000000E+20
 35
-1.000000000000000E+20
146
0.0
 13
0.0
 23
0.0
 33
0.0
 16
1.0
 26
0.0
 36
0.0
 17
0.0
 27
1.0
 37
0.0
 76
     0
330
1B
  0
LAYOUT
  5
26
102
{ACAD_REACTORS
330
1A
102
}
330
1A
100
AcDbPlotSettings
  1

  2
none_device
  4

  6

 40
0.0
 41
0.0
 42
0.0
 43
0.0
 44
0.0
 45
0.0
 46
0.0
 47
0.0
 48
0.0
 49
0.0
140
0.0
141
0.0
142
1.0
143
1.0
 70
   688
 72
     0
 73
     0
 74
     5
  7

 75
    16
 76
     0
 77
     2
 78
   300
147
1.0
148
0.0
149
0.0
100
AcDbLayout
  1
Layout2
 70
     1
 71
     2
 10
0.0
 20
0.0
 11
0.0
 21
0.0
 12
0.0
 22
0.0
 32
0.0
 14
0.0
 24
0.0
 34
0.0
 15
0.0
 25
0.0
 35
0.0
146
0.0
 13
0.0
 23
0.0
 33
0.0
 16
1.0
 26
0.0
 36
0.0
 17
0.0
 27
1.0
 37
0.0
 76
     0
330
23
  0
LAYOUT
  5
22
102
{ACAD_REACTORS
330
1A
102
}
330
1A
100
AcDbPlotSettings
  1

  2
none_device
  4

  6

 40
0.0
 41
0.0
 42
0.0
 43
0.0
 44
0.0
 45
0.0
 46
0.0
 47
0.0
 48
0.0
 49
0.0
140
0.0
141
0.0
142
1.0
143
1.0
 70
  1712
 72
     0
 73
     0
 74
     0
  7

 75
     0
 76
     0
 77
     2
 78
   300
147
1.0
148
0.0
149
0.0
100
AcDbLayout
  1
Model
 70
     1
 71
     0
 10
0.0
 20
0.0
 11
12.0
 21
9.0
 12
0.0
 22
0.0
 32
0.0
 14
-21.7665
 24
-114.7704
 34
0.0
 15
28.3493
 25
132.1859
 35
0.0
146
0.0
 13
0.0
 23
0.0
 33
0.0
 16
1.0
 26
0.0
 36
0.0
 17
0.0
 27
1.0
 37
0.0
 76
     0
330
1F
331
29
  0
MATERIAL
  5
3D
102
{ACAD_REACTORS
330
3B
102
}
330
3B
100
AcDbMaterial
  1
ByBlock
 72
     1
 94
      127
  0
MATERIAL
  5
3C
102
{ACAD_REACTORS
330
3B
102
}
330
3B
100
AcDbMaterial
  1
ByLayer
 72
     1
 94
      127
  0
MATERIAL
  5
3E
102
{ACAD_REACTORS
330
3B
102
}
330
3B
100
AcDbMaterial
  1
Global
 72
     1
 94
      127
  0
MLINESTYLE
  5
18
102
{ACAD_REACTORS
330
17
102
}
330
17
100
AcDbMlineStyle
  2
Standard
 70
     0
  3

 62
   256
 51
90.0
 52
90.0
 71
     2
 49
0.5
 62
   256
  6
BYLAYER
 49
-0.5
 62
   256
  6
BYLAYER
  0
ACDBPLACEHOLDER
  5
F
102
{ACAD_REACTORS
330
E
102
}
330
E
  0
VISUALSTYLE
  5
2F
102
{ACAD_REACTORS
330
2A
102
}
102
{ACAD_XDICTIONARY
360
CB
102
}
330
2A
100
AcDbVisualStyle
  2
2dWireframe
 70
     4
 71
     0
 72
     2
 73
     0
 90
        0
 40
-0.6
 41
-30.0
 62
     5
 63
     7
421
 16777215
 74
     1
 91
        4
 64
     7
 65
   257
 75
     1
175
     1
 42
1.0
 92
        0
 66
   257
 43
1.0
 76
     1
 77
     6
 78
     2
 67
     7
 79
     5
170
     0
171
     0
290
     0
174
     0
 93
        1
 44
0.0
173
     0
291
     0
 45
0.0
  0
VISUALSTYLE
  5
31
102
{ACAD_REACTORS
330
2A
102
}
102
{ACAD_XDICTIONARY
360
CF
102
}
330
2A
100
AcDbVisualStyle
  2
3D Hidden
 70
     6
 71
     1
 72
     2
 73
     2
 90
        0
 40
-0.6
 41
-30.0
 62
     5
 63
     7
421
 16777215
 74
     2
 91
        2
 64
     7
 65
   257
 75
     2
175
     1
 42
40.0
 92
        0
 66
   257
 43
1.0
 76
     1
 77
     6
 78
     2
 67
     7
 79
     3
170
     0
171
     0
290
     0
174
     0
 93
        1
 44
0.0
173
     0
291
     0
 45
0.0
  0
VISUALSTYLE
  5
30
102
{ACAD_REACTORS
330
2A
102
}
102
{ACAD_XDICTIONARY
360
CD
102
}
330
2A
100
AcDbVisualStyle
  2
3dWireframe
 70
     5
 71
     0
 72
     2
 73
     0
 90
        0
 40
-0.6
 41
-30.0
 62
     5
 63
     7
421
 16777215
 74
     1
 91
        4
 64
     7
 65
   257
 75
     1
175
     1
 42
1.0
 92
        0
 66
   257
 43
1.0
 76
     1
 77
     6
 78
     2
 67
     7
 79
     5
170
     0
171
     0
290
     0
174
     0
 93
        1
 44
0.0
173
     0
291
     0
 45
0.0
  0
VISUALSTYLE
  5
32
102
{ACAD_REACTORS
330
2A
102
}
102
{ACAD_XDICTIONARY
360
D1
102
}
330
2A
100
AcDbVisualStyle
  2
Basic
 70
     7
 71
     1
 72
     0
 73
     1
 90
        0
 40
-0.6
 41
-30.0
 62
     5
 63
     7
421
 16777215
 74
     0
 91
        4
 64
     7
 65
   257
 75
     1
175
     1
 42
1.0
 92
        8
 66
     7
 43
1.0
 76
     1
 77
     6
 78
     2
 67
     7
 79
     5
170
     0
171
     0
290
     0
174
     0
 93
        1
 44
0.0
173
     0
291
     1
 45
0.0
  0
VISUALSTYLE
  5
36
102
{ACAD_REACTORS
330
2A
102
}
102
{ACAD_XDICTIONARY
360
D9
102
}
330
2A
100
AcDbVisualStyle
  2
Brighten
 70
    12
 71
     2
 72
     2
 73
     0
 90
        0
 40
-0.6
 41
-30.0
 62
     5
 63
     7
421
 16777215
 74
     1
 91
        4
 64
     7
 65
   257
 75
     1
175
     1
 42
1.0
 92
        8
 66
     7
 43
1.0
 76
     1
 77
     6
 78
     2
 67
     7
 79
     5
170
     0
171
     0
290
     0
174
     0
 93
        1
 44
50.0
173
     0
291
     1
 45
0.0
  0
VISUALSTYLE
  5
3A
102
{ACAD_REACTORS
330
2A
102
}
102
{ACAD_XDICTIONARY
360
E1
102
}
330
2A
100
AcDbVisualStyle
  2
ColorChange
 70
    16
 71
     2
 72
     2
 73
     3
 90
        0
 40
-0.6
 41
-30.0
 62
     5
 63
     8
421
  8421504
 74
     1
 91
        4
 64
     7
 65
   257
 75
     1
175
     1
 42
1.0
 92
        8
 66
     8
424
  8421504
 43
1.0
 76
     1
 77
     6
 78
     2
 67
     7
 79
     5
170
     0
171
     0
290
     0
174
     0
 93
        1
 44
0.0
173
     0
291
     1
 45
0.0
  0
VISUALSTYLE
  5
34
102
{ACAD_REACTORS
330
2A
102
}
102
{ACAD_XDICTIONARY
360
D5
102
}
330
2A
100
AcDbVisualStyle
  2
Conceptual
 70
     9
 71
     3
 72
     2
 73
     0
 90
        0
 40
-0.6
 41
-30.0
 62
     5
 63
     7
421
 16777215
 74
     2
 91
        2
 64
     7
 65
   257
 75
     1
175
     1
 42
40.0
 92
        8
 66
     7
 43
1.0
 76
     1
 77
     6
 78
     2
 67
     7
 79
     3
170
     0
171
     0
290
     0
174
     0
 93
        1
 44
0.0
173
     0
291
     0
 45
0.0
  0
VISUALSTYLE
  5
35
102
{ACAD_REACTORS
330
2A
102
}
102
{ACAD_XDICTIONARY
360
D7
102
}
330
2A
100
AcDbVisualStyle
  2
Dim
 70
    11
 71
     2
 72
     2
 73
     0
 90
        0
 40
-0.6
 41
-30.0
 62
     5
 63
     7
421
 16777215
 74
     1
 91
        4
 64
     7
 65
   257
 75
     1
175
     1
 42
1.0
 92
        8
 66
     7
 43
1.0
 76
     1
 77
     6
 78
     2
 67
     7
 79
     5
170
     0
171
     0
290
     0
174
     0
 93
        1
 44
-50.0
173
     0
291
     1
 45
0.0
  0
VISUALSTYLE
  5
39
102
{ACAD_REACTORS
330
2A
102
}
102
{ACAD_XDICTIONARY
360
DF
102
}
330
2A
100
AcDbVisualStyle
  2
Facepattern
 70
    15
 71
     2
 72
     2
 73
     0
 90
        0
 40
-0.6
 41
-30.0
 62
     5
 63
     7
421
 16777215
 74
     1
 91
        4
 64
     7
 65
   257
 75
     1
175
     1
 42
1.0
 92
        8
 66
     7
 43
1.0
 76
     1
 77
     6
 78
     2
 67
     7
 79
     5
170
     0
171
     0
290
     0
174
     0
 93
        1
 44
0.0
173
     0
291
     1
 45
0.0
  0
VISUALSTYLE
  5
2B
102
{ACAD_REACTORS
330
2A
102
}
102
{ACAD_XDICTIONARY
360
C3
102
}
330
2A
100
AcDbVisualStyle
  2
Flat
 70
     0
 71
     2
 72
     1
 73
     1
 90
        2
 40
-0.6
 41
30.0
 62
     5
 63
     7
421
 16777215
 74
     0
 91
        4
 64
     7
 65
   257
 75
     1
175
     1
 42
1.0
 92
        8
 66
     7
 43
1.0
 76
     1
 77
     6
 78
     2
 67
     7
 79
     5
170
     0
171
     0
290
     0
174
     0
 93
       13
 44
0.0
173
     0
291
     1
 45
0.0
  0
VISUALSTYLE
  5
2C
102
{ACAD_REACTORS
330
2A
102
}
102
{ACAD_XDICTIONARY
360
C5
102
}
330
2A
100
AcDbVisualStyle
  2
FlatWithEdges
 70
     1
 71
     2
 72
     1
 73
     1
 90
        2
 40
-0.6
 41
30.0
 62
     5
 63
     7
421
 16777215
 74
     1
 91
        4
 64
     7
 65
   257
 75
     1
175
     1
 42
1.0
 92
        0
 66
   257
 43
1.0
 76
     1
 77
     6
 78
     2
 67
     7
 79
     5
170
     0
171
     0
290
     0
174
     0
 93
       13
 44
0.0
173
     0
291
     1
 45
0.0
  0
VISUALSTYLE
  5
2D
102
{ACAD_REACTORS
330
2A
102
}
102
{ACAD_XDICTIONARY
360
C7
102
}
330
2A
100
AcDbVisualStyle
  2
Gouraud
 70
     2
 71
     2
 72
     2
 73
     1
 90
        2
 40
-0.6
 41
30.0
 62
     5
 63
     7
421
 16777215
 74
     0
 91
        4
 64
     7
 65
   257
 75
     1
175
     1
 42
1.0
 92
        0
 66
     7
 43
1.0
 76
     1
 77
     6
 78
     2
 67
     7
 79
     5
170
     0
171
     0
290
     0
174
     0
 93
       13
 44
0.0
173
     0
291
     1
 45
0.0
  0
VISUALSTYLE
  5
2E
102
{ACAD_REACTORS
330
2A
102
}
102
{ACAD_XDICTIONARY
360
C9
102
}
330
2A
100
AcDbVisualStyle
  2
GouraudWithEdges
 70
     3
 71
     2
 72
     2
 73
     1
 90
        2
 40
-0.6
 41
30.0
 62
     5
 63
     7
421
 16777215
 74
     1
 91
        4
 64
     7
 65
   257
 75
     1
175
     1
 42
1.0
 92
        0
 66
   257
 43
1.0
 76
     1
 77
     6
 78
     2
 67
     7
 79
     5
170
     0
171
     0
290
     0
174
     0
 93
       13
 44
0.0
173
     0
291
     1
 45
0.0
  0
VISUALSTYLE
  5
38
102
{ACAD_REACTORS
330
2A
102
}
102
{ACAD_XDICTIONARY
360
DD
102
}
330
2A
100
AcDbVisualStyle
  2
Linepattern
 70
    14
 71
     2
 72
     2
 73
     0
 90
        0
 40
-0.6
 41
-30.0
 62
     5
 63
     7
421
 16777215
 74
     1
 91
        4
 64
     7
 65
   257
 75
     7
175
     7
 42
1.0
 92
        8
 66
     7
 43
1.0
 76
     1
 77
     6
 78
     2
 67
     7
 79
     5
170
     0
171
     0
290
     0
174
     0
 93
        1
 44
0.0
173
     0
291
     1
 45
0.0
  0
VISUALSTYLE
  5
33
102
{ACAD_REACTORS
330
2A
102
}
102
{ACAD_XDICTIONARY
360
D3
102
}
330
2A
100
AcDbVisualStyle
  2
Realistic
 70
     8
 71
     2
 72
     2
 73
     0
 90
        0
 40
-0.6
 41
-30.0
 62
     5
 63
     7
421
 16777215
 74
     1
 91
        0
 64
     7
 65
   257
 75
     1
175
     1
 42
1.0
 92
        8
 66
     8
424
  7895160
 43
1.0
 76
     1
 77
     6
 78
     2
 67
     7
 79
     5
170
     0
171
     0
290
     0
174
     0
 93
       13
 44
0.0
173
     0
291
     0
 45
0.0
  0
VISUALSTYLE
  5
37
102
{ACAD_REACTORS
330
2A
102
}
102
{ACAD_XDICTIONARY
360
DB
102
}
330
2A
100
AcDbVisualStyle
  2
Thicken
 70
    13
 71
     2
 72
     2
 73
     0
 90
        0
 40
-0.6
 41
-30.0
 62
     5
 63
     7
421
 16777215
 74
     1
 91
        4
 64
     7
 65
   257
 75
     1
175
     1
 42
1.0
 92
       12
 66
     7
 43
1.0
 76
     1
 77
     6
 78
     2
 67
     7
 79
     5
170
     0
171
     0
290
     0
174
     0
 93
        1
 44
0.0
173
     0
291
     1
 45
0.0
  0
DICTIONARY
  5
CB
330
2F
100
AcDbDictionary
280
     1
281
     1
  3
ACAD_XREC_ROUNDTRIP
360
CC
  0
DICTIONARY
  5
CF
330
31
100
AcDbDictionary
280
     1
281
     1
  3
ACAD_XREC_ROUNDTRIP
360
D0
  0
DICTIONARY
  5
CD
330
30
100
AcDbDictionary
280
     1
281
     1
  3
ACAD_XREC_ROUNDTRIP
360
CE
  0
DICTIONARY
  5
D1
330
32
100
AcDbDictionary
280
     1
281
     1
  3
ACAD_XREC_ROUNDTRIP
360
D2
  0
DICTIONARY
  5
D9
330
36
100
AcDbDictionary
280
     1
281
     1
  3
ACAD_XREC_ROUNDTRIP
360
DA
  0
DICTIONARY
  5
E1
330
3A
100
AcDbDictionary
280
     1
281
     1
  3
ACAD_XREC_ROUNDTRIP
360
E2
  0
DICTIONARY
  5
D5
330
34
100
AcDbDictionary
280
     1
281
     1
  3
ACAD_XREC_ROUNDTRIP
360
D6
  0
DICTIONARY
  5
D7
330
35
100
AcDbDictionary
280
     1
281
     1
  3
ACAD_XREC_ROUNDTRIP
360
D8
  0
DICTIONARY
  5
DF
330
39
100
AcDbDictionary
280
     1
281
     1
  3
ACAD_XREC_ROUNDTRIP
360
E0
  0
DICTIONARY
  5
C3
330
2B
100
AcDbDictionary
280
     1
281
     1
  3
ACAD_XREC_ROUNDTRIP
360
C4
  0
DICTIONARY
  5
C5
330
2C
100
AcDbDictionary
280
     1
281
     1
  3
ACAD_XREC_ROUNDTRIP
360
C6
  0
DICTIONARY
  5
C7
330
2D
100
AcDbDictionary
280
     1
281
     1
  3
ACAD_XREC_ROUNDTRIP
360
C8
  0
DICTIONARY
  5
C9
330
2E
100
AcDbDictionary
280
     1
281
     1
  3
ACAD_XREC_ROUNDTRIP
360
CA
  0
DICTIONARY
  5
DD
330
38
100
AcDbDictionary
280
     1
281
     1
  3
ACAD_XREC_ROUNDTRIP
360
DE
  0
DICTIONARY
  5
D3
330
33
100
AcDbDictionary
280
     1
281
     1
  3
ACAD_XREC_ROUNDTRIP
360
D4
  0
DICTIONARY
  5
DB
330
37
100
AcDbDictionary
280
     1
281
     1
  3
ACAD_XREC_ROUNDTRIP
360
DC
  0
XRECORD
  5
CC
102
{ACAD_REACTORS
330
CB
102
}
330
CB
100
AcDbXrecord
280
     1
102
RTVSPropertyOp0
 70
     1
102
RTVSPropertyOp1
 70
     1
102
RTVSPropertyOp2
 70
     1
102
RTVSPropertyOp3
 70
     1
102
RTVSPropertyOp4
 70
     1
102
RTVSPropertyOp5
 70
     1
102
RTVSPropertyOp6
 70
     1
102
RTVSPropertyOp7
 70
     1
102
RTVSPropertyOp8
 70
     1
102
RTVSPropertyOp9
 70
     1
102
RTVSPropertyOp10
 70
     1
102
RTVSPropertyOp11
 70
     1
102
RTVSPropertyOp12
 70
     1
102
RTVSPropertyOp13
 70
     1
102
RTVSPropertyOp14
 70
     1
102
RTVSPropertyOp15
 70
     1
102
RTVSPropertyOp16
 70
     1
102
RTVSPropertyOp17
 70
     1
102
RTVSPropertyOp18
 70
     1
102
RTVSPropertyOp19
 70
     1
102
RTVSPropertyOp20
 70
     1
102
RTVSPropertyOp21
 70
     1
102
RTVSPropertyOp22
 70
     1
102
RTVSPropertyOp23
 70
     1
102
RTVSPropertyOp24
 70
     1
102
RTVSPropertyOp25
 70
     1
102
RTVSPropertyOp26
 70
     1
102
RTVSPropertyOp27
 70
     1
102
RTVSPropertyOp28
 70
     1
102
RTVSPropertyOp29
 70
     1
102
RTVSPropertyOp30
 70
     1
102
RTVSPropertyOp31
 70
     1
102
RTVSPropertyOp32
 70
     1
  0
XRECORD
  5
D0
102
{ACAD_REACTORS
330
CF
102
}
330
CF
100
AcDbXrecord
280
     1
102
RTVSPropertyOp0
 70
     1
102
RTVSPropertyOp1
 70
     1
102
RTVSPropertyOp2
 70
     1
102
RTVSPropertyOp3
 70
     1
102
RTVSPropertyOp4
 70
     1
102
RTVSPropertyOp5
 70
     1
102
RTVSPropertyOp6
 70
     1
102
RTVSPropertyOp7
 70
     1
102
RTVSPropertyOp8
 70
     1
102
RTVSPropertyOp9
 70
     1
102
RTVSPropertyOp10
 70
     1
102
RTVSPropertyOp11
 70
     1
102
RTVSPropertyOp12
 70
     1
102
RTVSPropertyOp13
 70
     1
102
RTVSPropertyOp14
 70
     1
102
RTVSPropertyOp15
 70
     1
102
RTVSPropertyOp16
 70
     1
102
RTVSPropertyOp17
 70
     1
102
RTVSPropertyOp18
 70
     1
102
RTVSPropertyOp19
 70
     1
102
RTVSPropertyOp20
 70
     1
102
RTVSPropertyOp21
 70
     1
102
RTVSPropertyOp22
 70
     1
102
RTVSPropertyOp23
 70
     1
102
RTVSPropertyOp24
 70
     1
102
RTVSPropertyOp25
 70
     1
102
RTVSPropertyOp26
 70
     1
102
RTVSPropertyOp27
 70
     1
102
RTVSPropertyOp28
 70
     1
102
RTVSPropertyOp29
 70
     1
102
RTVSPropertyOp30
 70
     1
102
RTVSPropertyOp31
 70
     1
102
RTVSPropertyOp32
 70
     1
  0
XRECORD
  5
CE
102
{ACAD_REACTORS
330
CD
102
}
330
CD
100
AcDbXrecord
280
     1
102
RTVSPropertyOp0
 70
     1
102
RTVSPropertyOp1
 70
     1
102
RTVSPropertyOp2
 70
     1
102
RTVSPropertyOp3
 70
     1
102
RTVSPropertyOp4
 70
     1
102
RTVSPropertyOp5
 70
     1
102
RTVSPropertyOp6
 70
     1
102
RTVSPropertyOp7
 70
     1
102
RTVSPropertyOp8
 70
     1
102
RTVSPropertyOp9
 70
     1
102
RTVSPropertyOp10
 70
     1
102
RTVSPropertyOp11
 70
     1
102
RTVSPropertyOp12
 70
     1
102
RTVSPropertyOp13
 70
     1
102
RTVSPropertyOp14
 70
     1
102
RTVSPropertyOp15
 70
     1
102
RTVSPropertyOp16
 70
     1
102
RTVSPropertyOp17
 70
     1
102
RTVSPropertyOp18
 70
     1
102
RTVSPropertyOp19
 70
     1
102
RTVSPropertyOp20
 70
     1
102
RTVSPropertyOp21
 70
     1
102
RTVSPropertyOp22
 70
     1
102
RTVSPropertyOp23
 70
     1
102
RTVSPropertyOp24
 70
     1
102
RTVSPropertyOp25
 70
     1
102
RTVSPropertyOp26
 70
     1
102
RTVSPropertyOp27
 70
     1
102
RTVSPropertyOp28
 70
     1
102
RTVSPropertyOp29
 70
     1
102
RTVSPropertyOp30
 70
     1
102
RTVSPropertyOp31
 70
     1
102
RTVSPropertyOp32
 70
     1
  0
XRECORD
  5
D2
102
{ACAD_REACTORS
330
D1
102
}
330
D1
100
AcDbXrecord
280
     1
102
RTVSPropertyOp0
 70
     1
102
RTVSPropertyOp1
 70
     1
102
RTVSPropertyOp2
 70
     1
102
RTVSPropertyOp3
 70
     1
102
RTVSPropertyOp4
 70
     1
102
RTVSPropertyOp5
 70
     1
102
RTVSPropertyOp6
 70
     1
102
RTVSPropertyOp7
 70
     1
102
RTVSPropertyOp8
 70
     1
102
RTVSPropertyOp9
 70
     1
102
RTVSPropertyOp10
 70
     1
102
RTVSPropertyOp11
 70
     1
102
RTVSPropertyOp12
 70
     1
102
RTVSPropertyOp13
 70
     1
102
RTVSPropertyOp14
 70
     1
102
RTVSPropertyOp15
 70
     1
102
RTVSPropertyOp16
 70
     1
102
RTVSPropertyOp17
 70
     1
102
RTVSPropertyOp18
 70
     1
102
RTVSPropertyOp19
 70
     1
102
RTVSPropertyOp20
 70
     1
102
RTVSPropertyOp21
 70
     1
102
RTVSPropertyOp22
 70
     1
102
RTVSPropertyOp23
 70
     1
102
RTVSPropertyOp24
 70
     1
102
RTVSPropertyOp25
 70
     1
102
RTVSPropertyOp26
 70
     1
102
RTVSPropertyOp27
 70
     1
102
RTVSPropertyOp28
 70
     1
102
RTVSPropertyOp29
 70
     1
102
RTVSPropertyOp30
 70
     1
102
RTVSPropertyOp31
 70
     1
102
RTVSPropertyOp32
 70
     1
  0
XRECORD
  5
DA
102
{ACAD_REACTORS
330
D9
102
}
330
D9
100
AcDbXrecord
280
     1
102
RTVSPropertyOp0
 70
     1
102
RTVSPropertyOp1
 70
     1
102
RTVSPropertyOp2
 70
     1
102
RTVSPropertyOp3
 70
     1
102
RTVSPropertyOp4
 70
     1
102
RTVSPropertyOp5
 70
     1
102
RTVSPropertyOp6
 70
     1
102
RTVSPropertyOp7
 70
     1
102
RTVSPropertyOp8
 70
     1
102
RTVSPropertyOp9
 70
     1
102
RTVSPropertyOp10
 70
     1
102
RTVSPropertyOp11
 70
     1
102
RTVSPropertyOp12
 70
     1
102
RTVSPropertyOp13
 70
     1
102
RTVSPropertyOp14
 70
     1
102
RTVSPropertyOp15
 70
     1
102
RTVSPropertyOp16
 70
     1
102
RTVSPropertyOp17
 70
     1
102
RTVSPropertyOp18
 70
     1
102
RTVSPropertyOp19
 70
     1
102
RTVSPropertyOp20
 70
     1
102
RTVSPropertyOp21
 70
     1
102
RTVSPropertyOp22
 70
     1
102
RTVSPropertyOp23
 70
     1
102
RTVSPropertyOp24
 70
     1
102
RTVSPropertyOp25
 70
     1
102
RTVSPropertyOp26
 70
     1
102
RTVSPropertyOp27
 70
     1
102
RTVSPropertyOp28
 70
     1
102
RTVSPropertyOp29
 70
     1
102
RTVSPropertyOp30
 70
     1
102
RTVSPropertyOp31
 70
     1
102
RTVSPropertyOp32
 70
     1
  0
XRECORD
  5
E2
102
{ACAD_REACTORS
330
E1
102
}
330
E1
100
AcDbXrecord
280
     1
102
RTVSPropertyOp0
 70
     1
102
RTVSPropertyOp1
 70
     1
102
RTVSPropertyOp2
 70
     1
102
RTVSPropertyOp3
 70
     1
102
RTVSPropertyOp4
 70
     1
102
RTVSPropertyOp5
 70
     1
102
RTVSPropertyOp6
 70
     1
102
RTVSPropertyOp7
 70
     1
102
RTVSPropertyOp8
 70
     1
102
RTVSPropertyOp9
 70
     1
102
RTVSPropertyOp10
 70
     1
102
RTVSPropertyOp11
 70
     1
102
RTVSPropertyOp12
 70
     1
102
RTVSPropertyOp13
 70
     1
102
RTVSPropertyOp14
 70
     1
102
RTVSPropertyOp15
 70
     1
102
RTVSPropertyOp16
 70
     1
102
RTVSPropertyOp17
 70
     1
102
RTVSPropertyOp18
 70
     1
102
RTVSPropertyOp19
 70
     1
102
RTVSPropertyOp20
 70
     1
102
RTVSPropertyOp21
 70
     1
102
RTVSPropertyOp22
 70
     1
102
RTVSPropertyOp23
 70
     1
102
RTVSPropertyOp24
 70
     1
102
RTVSPropertyOp25
 70
     1
102
RTVSPropertyOp26
 70
     1
102
RTVSPropertyOp27
 70
     1
102
RTVSPropertyOp28
 70
     1
102
RTVSPropertyOp29
 70
     1
102
RTVSPropertyOp30
 70
     1
102
RTVSPropertyOp31
 70
     1
102
RTVSPropertyOp32
 70
     1
  0
XRECORD
  5
D6
102
{ACAD_REACTORS
330
D5
102
}
330
D5
100
AcDbXrecord
280
     1
102
RTVSPropertyOp0
 70
     1
102
RTVSPropertyOp1
 70
     1
102
RTVSPropertyOp2
 70
     1
102
RTVSPropertyOp3
 70
     1
102
RTVSPropertyOp4
 70
     1
102
RTVSPropertyOp5
 70
     1
102
RTVSPropertyOp6
 70
     1
102
RTVSPropertyOp7
 70
     1
102
RTVSPropertyOp8
 70
     1
102
RTVSPropertyOp9
 70
     1
102
RTVSPropertyOp10
 70
     1
102
RTVSPropertyOp11
 70
     1
102
RTVSPropertyOp12
 70
     1
102
RTVSPropertyOp13
 70
     1
102
RTVSPropertyOp14
 70
     1
102
RTVSPropertyOp15
 70
     1
102
RTVSPropertyOp16
 70
     1
102
RTVSPropertyOp17
 70
     1
102
RTVSPropertyOp18
 70
     1
102
RTVSPropertyOp19
 70
     1
102
RTVSPropertyOp20
 70
     1
102
RTVSPropertyOp21
 70
     1
102
RTVSPropertyOp22
 70
     1
102
RTVSPropertyOp23
 70
     1
102
RTVSPropertyOp24
 70
     1
102
RTVSPropertyOp25
 70
     1
102
RTVSPropertyOp26
 70
     1
102
RTVSPropertyOp27
 70
     1
102
RTVSPropertyOp28
 70
     1
102
RTVSPropertyOp29
 70
     1
102
RTVSPropertyOp30
 70
     1
102
RTVSPropertyOp31
 70
     1
102
RTVSPropertyOp32
 70
     1
  0
XRECORD
  5
D8
102
{ACAD_REACTORS
330
D7
102
}
330
D7
100
AcDbXrecord
280
     1
102
RTVSPropertyOp0
 70
     1
102
RTVSPropertyOp1
 70
     1
102
RTVSPropertyOp2
 70
     1
102
RTVSPropertyOp3
 70
     1
102
RTVSPropertyOp4
 70
     1
102
RTVSPropertyOp5
 70
     1
102
RTVSPropertyOp6
 70
     1
102
RTVSPropertyOp7
 70
     1
102
RTVSPropertyOp8
 70
     1
102
RTVSPropertyOp9
 70
     1
102
RTVSPropertyOp10
 70
     1
102
RTVSPropertyOp11
 70
     1
102
RTVSPropertyOp12
 70
     1
102
RTVSPropertyOp13
 70
     1
102
RTVSPropertyOp14
 70
     1
102
RTVSPropertyOp15
 70
     1
102
RTVSPropertyOp16
 70
     1
102
RTVSPropertyOp17
 70
     1
102
RTVSPropertyOp18
 70
     1
102
RTVSPropertyOp19
 70
     1
102
RTVSPropertyOp20
 70
     1
102
RTVSPropertyOp21
 70
     1
102
RTVSPropertyOp22
 70
     1
102
RTVSPropertyOp23
 70
     1
102
RTVSPropertyOp24
 70
     1
102
RTVSPropertyOp25
 70
     1
102
RTVSPropertyOp26
 70
     1
102
RTVSPropertyOp27
 70
     1
102
RTVSPropertyOp28
 70
     1
102
RTVSPropertyOp29
 70
     1
102
RTVSPropertyOp30
 70
     1
102
RTVSPropertyOp31
 70
     1
102
RTVSPropertyOp32
 70
     1
  0
XRECORD
  5
E0
102
{ACAD_REACTORS
330
DF
102
}
330
DF
100
AcDbXrecord
280
     1
102
RTVSPropertyOp0
 70
     1
102
RTVSPropertyOp1
 70
     1
102
RTVSPropertyOp2
 70
     1
102
RTVSPropertyOp3
 70
     1
102
RTVSPropertyOp4
 70
     1
102
RTVSPropertyOp5
 70
     1
102
RTVSPropertyOp6
 70
     1
102
RTVSPropertyOp7
 70
     1
102
RTVSPropertyOp8
 70
     1
102
RTVSPropertyOp9
 70
     1
102
RTVSPropertyOp10
 70
     1
102
RTVSPropertyOp11
 70
     1
102
RTVSPropertyOp12
 70
     1
102
RTVSPropertyOp13
 70
     1
102
RTVSPropertyOp14
 70
     1
102
RTVSPropertyOp15
 70
     1
102
RTVSPropertyOp16
 70
     1
102
RTVSPropertyOp17
 70
     1
102
RTVSPropertyOp18
 70
     1
102
RTVSPropertyOp19
 70
     1
102
RTVSPropertyOp20
 70
     1
102
RTVSPropertyOp21
 70
     1
102
RTVSPropertyOp22
 70
     1
102
RTVSPropertyOp23
 70
     1
102
RTVSPropertyOp24
 70
     1
102
RTVSPropertyOp25
 70
     1
102
RTVSPropertyOp26
 70
     1
102
RTVSPropertyOp27
 70
     1
102
RTVSPropertyOp28
 70
     1
102
RTVSPropertyOp29
 70
     1
102
RTVSPropertyOp30
 70
     1
102
RTVSPropertyOp31
 70
     1
102
RTVSPropertyOp32
 70
     1
  0
XRECORD
  5
C4
102
{ACAD_REACTORS
330
C3
102
}
330
C3
100
AcDbXrecord
280
     1
102
RTVSPropertyOp0
 70
     1
102
RTVSPropertyOp1
 70
     1
102
RTVSPropertyOp2
 70
     1
102
RTVSPropertyOp3
 70
     1
102
RTVSPropertyOp4
 70
     1
102
RTVSPropertyOp5
 70
     1
102
RTVSPropertyOp6
 70
     1
102
RTVSPropertyOp7
 70
     1
102
RTVSPropertyOp8
 70
     1
102
RTVSPropertyOp9
 70
     1
102
RTVSPropertyOp10
 70
     1
102
RTVSPropertyOp11
 70
     1
102
RTVSPropertyOp12
 70
     1
102
RTVSPropertyOp13
 70
     1
102
RTVSPropertyOp14
 70
     1
102
RTVSPropertyOp15
 70
     1
102
RTVSPropertyOp16
 70
     1
102
RTVSPropertyOp17
 70
     1
102
RTVSPropertyOp18
 70
     1
102
RTVSPropertyOp19
 70
     1
102
RTVSPropertyOp20
 70
     1
102
RTVSPropertyOp21
 70
     1
102
RTVSPropertyOp22
 70
     1
102
RTVSPropertyOp23
 70
     1
102
RTVSPropertyOp24
 70
     1
102
RTVSPropertyOp25
 70
     1
102
RTVSPropertyOp26
 70
     1
102
RTVSPropertyOp27
 70
     1
102
RTVSPropertyOp28
 70
     1
102
RTVSPropertyOp29
 70
     1
102
RTVSPropertyOp30
 70
     1
102
RTVSPropertyOp31
 70
     1
102
RTVSPropertyOp32
 70
     1
  0
XRECORD
  5
C6
102
{ACAD_REACTORS
330
C5
102
}
330
C5
100
AcDbXrecord
280
     1
102
RTVSPropertyOp0
 70
     1
102
RTVSPropertyOp1
 70
     1
102
RTVSPropertyOp2
 70
     1
102
RTVSPropertyOp3
 70
     1
102
RTVSPropertyOp4
 70
     1
102
RTVSPropertyOp5
 70
     1
102
RTVSPropertyOp6
 70
     1
102
RTVSPropertyOp7
 70
     1
102
RTVSPropertyOp8
 70
     1
102
RTVSPropertyOp9
 70
     1
102
RTVSPropertyOp10
 70
     1
102
RTVSPropertyOp11
 70
     1
102
RTVSPropertyOp12
 70
     1
102
RTVSPropertyOp13
 70
     1
102
RTVSPropertyOp14
 70
     1
102
RTVSPropertyOp15
 70
     1
102
RTVSPropertyOp16
 70
     1
102
RTVSPropertyOp17
 70
     1
102
RTVSPropertyOp18
 70
     1
102
RTVSPropertyOp19
 70
     1
102
RTVSPropertyOp20
 70
     1
102
RTVSPropertyOp21
 70
     1
102
RTVSPropertyOp22
 70
     1
102
RTVSPropertyOp23
 70
     1
102
RTVSPropertyOp24
 70
     1
102
RTVSPropertyOp25
 70
     1
102
RTVSPropertyOp26
 70
     1
102
RTVSPropertyOp27
 70
     1
102
RTVSPropertyOp28
 70
     1
102
RTVSPropertyOp29
 70
     1
102
RTVSPropertyOp30
 70
     1
102
RTVSPropertyOp31
 70
     1
102
RTVSPropertyOp32
 70
     1
  0
XRECORD
  5
C8
102
{ACAD_REACTORS
330
C7
102
}
330
C7
100
AcDbXrecord
280
     1
102
RTVSPropertyOp0
 70
     1
102
RTVSPropertyOp1
 70
     1
102
RTVSPropertyOp2
 70
     1
102
RTVSPropertyOp3
 70
     1
102
RTVSPropertyOp4
 70
     1
102
RTVSPropertyOp5
 70
     1
102
RTVSPropertyOp6
 70
     1
102
RTVSPropertyOp7
 70
     1
102
RTVSPropertyOp8
 70
     1
102
RTVSPropertyOp9
 70
     1
102
RTVSPropertyOp10
 70
     1
102
RTVSPropertyOp11
 70
     1
102
RTVSPropertyOp12
 70
     1
102
RTVSPropertyOp13
 70
     1
102
RTVSPropertyOp14
 70
     1
102
RTVSPropertyOp15
 70
     1
102
RTVSPropertyOp16
 70
     1
102
RTVSPropertyOp17
 70
     1
102
RTVSPropertyOp18
 70
     1
102
RTVSPropertyOp19
 70
     1
102
RTVSPropertyOp20
 70
     1
102
RTVSPropertyOp21
 70
     1
102
RTVSPropertyOp22
 70
     1
102
RTVSPropertyOp23
 70
     1
102
RTVSPropertyOp24
 70
     1
102
RTVSPropertyOp25
 70
     1
102
RTVSPropertyOp26
 70
     1
102
RTVSPropertyOp27
 70
     1
102
RTVSPropertyOp28
 70
     1
102
RTVSPropertyOp29
 70
     1
102
RTVSPropertyOp30
 70
     1
102
RTVSPropertyOp31
 70
     1
102
RTVSPropertyOp32
 70
     1
  0
XRECORD
  5
CA
102
{ACAD_REACTORS
330
C9
102
}
330
C9
100
AcDbXrecord
280
     1
102
RTVSPropertyOp0
 70
     1
102
RTVSPropertyOp1
 70
     1
102
RTVSPropertyOp2
 70
     1
102
RTVSPropertyOp3
 70
     1
102
RTVSPropertyOp4
 70
     1
102
RTVSPropertyOp5
 70
     1
102
RTVSPropertyOp6
 70
     1
102
RTVSPropertyOp7
 70
     1
102
RTVSPropertyOp8
 70
     1
102
RTVSPropertyOp9
 70
     1
102
RTVSPropertyOp10
 70
     1
102
RTVSPropertyOp11
 70
     1
102
RTVSPropertyOp12
 70
     1
102
RTVSPropertyOp13
 70
     1
102
RTVSPropertyOp14
 70
     1
102
RTVSPropertyOp15
 70
     1
102
RTVSPropertyOp16
 70
     1
102
RTVSPropertyOp17
 70
     1
102
RTVSPropertyOp18
 70
     1
102
RTVSPropertyOp19
 70
     1
102
RTVSPropertyOp20
 70
     1
102
RTVSPropertyOp21
 70
     1
102
RTVSPropertyOp22
 70
     1
102
RTVSPropertyOp23
 70
     1
102
RTVSPropertyOp24
 70
     1
102
RTVSPropertyOp25
 70
     1
102
RTVSPropertyOp26
 70
     1
102
RTVSPropertyOp27
 70
     1
102
RTVSPropertyOp28
 70
     1
102
RTVSPropertyOp29
 70
     1
102
RTVSPropertyOp30
 70
     1
102
RTVSPropertyOp31
 70
     1
102
RTVSPropertyOp32
 70
     1
  0
XRECORD
  5
DE
102
{ACAD_REACTORS
330
DD
102
}
330
DD
100
AcDbXrecord
280
     1
102
RTVSPropertyOp0
 70
     1
102
RTVSPropertyOp1
 70
     1
102
RTVSPropertyOp2
 70
     1
102
RTVSPropertyOp3
 70
     1
102
RTVSPropertyOp4
 70
     1
102
RTVSPropertyOp5
 70
     1
102
RTVSPropertyOp6
 70
     1
102
RTVSPropertyOp7
 70
     1
102
RTVSPropertyOp8
 70
     1
102
RTVSPropertyOp9
 70
     1
102
RTVSPropertyOp10
 70
     1
102
RTVSPropertyOp11
 70
     1
102
RTVSPropertyOp12
 70
     1
102
RTVSPropertyOp13
 70
     1
102
RTVSPropertyOp14
 70
     1
102
RTVSPropertyOp15
 70
     1
102
RTVSPropertyOp16
 70
     1
102
RTVSPropertyOp17
 70
     1
102
RTVSPropertyOp18
 70
     1
102
RTVSPropertyOp19
 70
     1
102
RTVSPropertyOp20
 70
     1
102
RTVSPropertyOp21
 70
     1
102
RTVSPropertyOp22
 70
     1
102
RTVSPropertyOp23
 70
     1
102
RTVSPropertyOp24
 70
     1
102
RTVSPropertyOp25
 70
     1
102
RTVSPropertyOp26
 70
     1
102
RTVSPropertyOp27
 70
     1
102
RTVSPropertyOp28
 70
     1
102
RTVSPropertyOp29
 70
     1
102
RTVSPropertyOp30
 70
     1
102
RTVSPropertyOp31
 70
     1
102
RTVSPropertyOp32
 70
     1
  0
XRECORD
  5
D4
102
{ACAD_REACTORS
330
D3
102
}
330
D3
100
AcDbXrecord
280
     1
102
RTVSPropertyOp0
 70
     1
102
RTVSPropertyOp1
 70
     1
102
RTVSPropertyOp2
 70
     1
102
RTVSPropertyOp3
 70
     1
102
RTVSPropertyOp4
 70
     1
102
RTVSPropertyOp5
 70
     1
102
RTVSPropertyOp6
 70
     1
102
RTVSPropertyOp7
 70
     1
102
RTVSPropertyOp8
 70
     1
102
RTVSPropertyOp9
 70
     1
102
RTVSPropertyOp10
 70
     1
102
RTVSPropertyOp11
 70
     1
102
RTVSPropertyOp12
 70
     1
102
RTVSPropertyOp13
 70
     1
102
RTVSPropertyOp14
 70
     1
102
RTVSPropertyOp15
 70
     1
102
RTVSPropertyOp16
 70
     1
102
RTVSPropertyOp17
 70
     1
102
RTVSPropertyOp18
 70
     1
102
RTVSPropertyOp19
 70
     1
102
RTVSPropertyOp20
 70
     1
102
RTVSPropertyOp21
 70
     1
102
RTVSPropertyOp22
 70
     1
102
RTVSPropertyOp23
 70
     1
102
RTVSPropertyOp24
 70
     1
102
RTVSPropertyOp25
 70
     1
102
RTVSPropertyOp26
 70
     1
102
RTVSPropertyOp27
 70
     1
102
RTVSPropertyOp28
 70
     1
102
RTVSPropertyOp29
 70
     1
102
RTVSPropertyOp30
 70
     1
102
RTVSPropertyOp31
 70
     1
102
RTVSPropertyOp32
 70
     1
  0
XRECORD
  5
DC
102
{ACAD_REACTORS
330
DB
102
}
330
DB
100
AcDbXrecord
280
     1
102
RTVSPropertyOp0
 70
     1
102
RTVSPropertyOp1
 70
     1
102
RTVSPropertyOp2
 70
     1
102
RTVSPropertyOp3
 70
     1
102
RTVSPropertyOp4
 70
     1
102
RTVSPropertyOp5
 70
     1
102
RTVSPropertyOp6
 70
     1
102
RTVSPropertyOp7
 70
     1
102
RTVSPropertyOp8
 70
     1
102
RTVSPropertyOp9
 70
     1
102
RTVSPropertyOp10
 70
     1
102
RTVSPropertyOp11
 70
     1
102
RTVSPropertyOp12
 70
     1
102
RTVSPropertyOp13
 70
     1
102
RTVSPropertyOp14
 70
     1
102
RTVSPropertyOp15
 70
     1
102
RTVSPropertyOp16
 70
     1
102
RTVSPropertyOp17
 70
     1
102
RTVSPropertyOp18
 70
     1
102
RTVSPropertyOp19
 70
     1
102
RTVSPropertyOp20
 70
     1
102
RTVSPropertyOp21
 70
     1
102
RTVSPropertyOp22
 70
     1
102
RTVSPropertyOp23
 70
     1
102
RTVSPropertyOp24
 70
     1
102
RTVSPropertyOp25
 70
     1
102
RTVSPropertyOp26
 70
     1
102
RTVSPropertyOp27
 70
     1
102
RTVSPropertyOp28
 70
     1
102
RTVSPropertyOp29
 70
     1
102
RTVSPropertyOp30
 70
     1
102
RTVSPropertyOp31
 70
     1
102
RTVSPropertyOp32
 70
     1
  0
ENDSEC
  0
EOF
