  0
SECTION
  2
HEADER
  9
$ACADVER
  1
AC1021
  9
$ACADMAINTVER
 70
    25
  9
$DWGCODEPAGE
  3
ANSI_1256
  9
$INSBASE
 10
0.0
 20
0.0
 30
0.0
  9
$EXTMIN
 10
-187.4738
 20
-115.1237
 30
0.0
  9
$EXTMAX
 10
-37.1155
 20
131.6802
 30
0.0
  9
$LIMMIN
 10
0.0
 20
0.0
  9
$LIMMAX
 10
12.0
 20
9.0
  9
$ORTHOMODE
 70
     0
  9
$REGENMODE
 70
     1
  9
$FILLMODE
 70
     1
  9
$QTEXTMODE
 70
     0
  9
$MIRRTEXT
 70
     1
  9
$LTSCALE
 40
1.0
  9
$ATTMODE
 70
     1
  9
$TEXTSIZE
 40
0.2
  9
$TRACEWID
 40
0.05
  9
$TEXTSTYLE
  7
Standard
  9
$CLAYER
  8
0
  9
$CELTYPE
  6
ByLayer
  9
$CECOLOR
 62
   256
  9
$CELTSCALE
 40
1.0
  9
$DISPSILH
 70
     0
  9
$DIMSCALE
 40
1.0
  9
$DIMASZ
 40
0.18
  9
$DIMEXO
 40
0.0625
  9
$DIMDLI
 40
0.38
  9
$DIMRND
 40
0.0
  9
$DIMDLE
 40
0.0
  9
$DIMEXE
 40
0.18
  9
$DIMTP
 40
0.0
  9
$DIMTM
 40
0.0
  9
$DIMTXT
 40
0.18
  9
$DIMCEN
 40
0.09
  9
$DIMTSZ
 40
0.0
  9
$DIMTOL
 70
     0
  9
$DIMLIM
 70
     0
  9
$DIMTIH
 70
     1
  9
$DIMTOH
 70
     1
  9
$DIMSE1
 70
     0
  9
$DIMSE2
 70
     0
  9
$DIMTAD
 70
     0
  9
$DIMZIN
 70
     0
  9
$DIMBLK
  1

  9
$DIMASO
 70
     1
  9
$DIMSHO
 70
     1
  9
$DIMPOST
  1

  9
$DIMAPOST
  1

  9
$DIMALT
 70
     0
  9
$DIMALTD
 70
     2
  9
$DIMALTF
 40
25.4
  9
$DIMLFAC
 40
1.0
  9
$DIMTOFL
 70
     0
  9
$DIMTVP
 40
0.0
  9
$DIMTIX
 70
     0
  9
$DIMSOXD
 70
     0
  9
$DIMSAH
 70
     0
  9
$DIMBLK1
  1

  9
$DIMBLK2
  1

  9
$DIMSTYLE
  2
Standard
  9
$DIMCLRD
 70
     0
  9
$DIMCLRE
 70
     0
  9
$DIMCLRT
 70
     0
  9
$DIMTFAC
 40
1.0
  9
$DIMGAP
 40
0.09
  9
$DIMJUST
 70
     0
  9
$DIMSD1
 70
     0
  9
$DIMSD2
 70
     0
  9
$DIMTOLJ
 70
     1
  9
$DIMTZIN
 70
     0
  9
$DIMALTZ
 70
     0
  9
$DIMALTTZ
 70
     0
  9
$DIMUPT
 70
     0
  9
$DIMDEC
 70
     4
  9
$DIMTDEC
 70
     4
  9
$DIMALTU
 70
     2
  9
$DIMALTTD
 70
     2
  9
$DIMTXSTY
  7
Standard
  9
$DIMAUNIT
 70
     0
  9
$DIMADEC
 70
     0
  9
$DIMALTRND
 40
0.0
  9
$DIMAZIN
 70
     0
  9
$DIMDSEP
 70
    46
  9
$DIMATFIT
 70
     3
  9
$DIMFRAC
 70
     0
  9
$DIMLDRBLK
  1

  9
$DIMLUNIT
 70
     2
  9
$DIMLWD
 70
    -2
  9
$DIMLWE
 70
    -2
  9
$DIMTMOVE
 70
     0
  9
$DIMFXL
 40
1.0
  9
$DIMFXLON
 70
     0
  9
$DIMJOGANG
 40
0.7853981633974483
  9
$DIMTFILL
 70
     0
  9
$DIMTFILLCLR
 70
     0
  9
$DIMARCSYM
 70
     0
  9
$DIMLTYPE
  6

  9
$DIMLTEX1
  6

  9
$DIMLTEX2
  6

  9
$LUNITS
 70
     2
  9
$LUPREC
 70
     4
  9
$SKETCHINC
 40
0.1
  9
$FILLETRAD
 40
0.5
  9
$AUNITS
 70
     0
  9
$AUPREC
 70
     0
  9
$MENU
  1
.
  9
$ELEVATION
 40
0.0
  9
$PELEVATION
 40
0.0
  9
$THICKNESS
 40
0.0
  9
$LIMCHECK
 70
     0
  9
$CHAMFERA
 40
0.5
  9
$CHAMFERB
 40
0.5
  9
$CHAMFERC
 40
1.0
  9
$CHAMFERD
 40
0.0
  9
$SKPOLY
 70
     0
  9
$TDCREATE
 40
2458492.954664942
  9
$TDUCREATE
 40
2458492.787998275
  9
$TDUPDATE
 40
2458492.954665081
  9
$TDUUPDATE
 40
2458492.787998414
  9
$TDINDWG
 40
0.0000000116
  9
$TDUSRTIMER
 40
0.0000000116
  9
$USRTIMER
 70
     1
  9
$ANGBASE
 50
0.0
  9
$ANGDIR
 70
     0
  9
$PDMODE
 70
     0
  9
$PDSIZE
 40
0.0
  9
$PLINEWID
 40
0.0
  9
$SPLFRAME
 70
     0
  9
$SPLINETYPE
 70
     6
  9
$SPLINESEGS
 70
     8
  9
$HANDSEED
  5
A9
  9
$SURFTAB1
 70
     6
  9
$SURFTAB2
 70
     6
  9
$SURFTYPE
 70
     6
  9
$SURFU
 70
     6
  9
$SURFV
 70
     6
  9
$UCSBASE
  2

  9
$UCSNAME
  2

  9
$UCSORG
 10
0.0
 20
0.0
 30
0.0
  9
$UCSXDIR
 10
1.0
 20
0.0
 30
0.0
  9
$UCSYDIR
 10
0.0
 20
1.0
 30
0.0
  9
$UCSORTHOREF
  2

  9
$UCSORTHOVIEW
 70
     0
  9
$UCSORGTOP
 10
0.0
 20
0.0
 30
0.0
  9
$UCSORGBOTTOM
 10
0.0
 20
0.0
 30
0.0
  9
$UCSORGLEFT
 10
0.0
 20
0.0
 30
0.0
  9
$UCSORGRIGHT
 10
0.0
 20
0.0
 30
0.0
  9
$UCSORGFRONT
 10
0.0
 20
0.0
 30
0.0
  9
$UCSORGBACK
 10
0.0
 20
0.0
 30
0.0
  9
$PUCSBASE
  2

  9
$PUCSNAME
  2

  9
$PUCSORG
 10
0.0
 20
0.0
 30
0.0
  9
$PUCSXDIR
 10
1.0
 20
0.0
 30
0.0
  9
$PUCSYDIR
 10
0.0
 20
1.0
 30
0.0
  9
$PUCSORTHOREF
  2

  9
$PUCSORTHOVIEW
 70
     0
  9
$PUCSORGTOP
 10
0.0
 20
0.0
 30
0.0
  9
$PUCSORGBOTTOM
 10
0.0
 20
0.0
 30
0.0
  9
$PUCSORGLEFT
 10
0.0
 20
0.0
 30
0.0
  9
$PUCSORGRIGHT
 10
0.0
 20
0.0
 30
0.0
  9
$PUCSORGFRONT
 10
0.0
 20
0.0
 30
0.0
  9
$PUCSORGBACK
 10
0.0
 20
0.0
 30
0.0
  9
$USERI1
 70
     0
  9
$USERI2
 70
     0
  9
$USERI3
 70
     0
  9
$USERI4
 70
     0
  9
$USERI5
 70
     0
  9
$USERR1
 40
0.0
  9
$USERR2
 40
0.0
  9
$USERR3
 40
0.0
  9
$USERR4
 40
0.0
  9
$USERR5
 40
0.0
  9
$WORLDVIEW
 70
     1
  9
$SHADEDGE
 70
     3
  9
$SHADEDIF
 70
    70
  9
$TILEMODE
 70
     1
  9
$MAXACTVP
 70
    64
  9
$PINSBASE
 10
0.0
 20
0.0
 30
0.0
  9
$PLIMCHECK
 70
     0
  9
$PEXTMIN
 10
1.000000000000000E+20
 20
1.000000000000000E+20
 30
1.000000000000000E+20
  9
$PEXTMAX
 10
-1.000000000000000E+20
 20
-1.000000000000000E+20
 30
-1.000000000000000E+20
  9
$PLIMMIN
 10
0.0
 20
0.0
  9
$PLIMMAX
 10
12.0
 20
9.0
  9
$UNITMODE
 70
     0
  9
$VISRETAIN
 70
     1
  9
$PLINEGEN
 70
     0
  9
$PSLTSCALE
 70
     1
  9
$TREEDEPTH
 70
  3020
  9
$CMLSTYLE
  2
Standard
  9
$CMLJUST
 70
     0
  9
$CMLSCALE
 40
1.0
  9
$PROXYGRAPHICS
 70
     1
  9
$MEASUREMENT
 70
     0
  9
$CELWEIGHT
370
    -1
  9
$ENDCAPS
280
     0
  9
$JOINSTYLE
280
     0
  9
$LWDISPLAY
290
     0
  9
$INSUNITS
 70
     4
  9
$HYPERLINKBASE
  1

  9
$STYLESHEET
  1

  9
$XEDIT
290
     1
  9
$CEPSNTYPE
380
     0
  9
$PSTYLEMODE
290
     1
  9
$FINGERPRINTGUID
  2
{CE9177EA-B6BB-4A6B-BACF-7B9E3835858F}
  9
$VERSIONGUID
  2
{FAEB1C32-E019-11D5-929B-00C0DF256EC4}
  9
$EXTNAMES
290
     1
  9
$PSVPSCALE
 40
0.0
  9
$OLESTARTUP
290
     0
  9
$SORTENTS
280
   127
  9
$INDEXCTL
280
     0
  9
$HIDETEXT
280
     1
  9
$XCLIPFRAME
290
     0
  9
$HALOGAP
280
     0
  9
$OBSCOLOR
 70
   257
  9
$OBSLTYPE
280
     0
  9
$INTERSECTIONDISPLAY
280
     0
  9
$INTERSECTIONCOLOR
 70
   257
  9
$DIMASSOC
280
     2
  9
$PROJECTNAME
  1

  9
$CAMERADISPLAY
290
     0
  9
$LENSLENGTH
 40
50.0
  9
$CAMERAHEIGHT
 40
0.0
  9
$STEPSPERSEC
 40
2.0
  9
$STEPSIZE
 40
6.0
  9
$3DDWFPREC
 40
2.0
  9
$PSOLWIDTH
 40
0.25
  9
$PSOLHEIGHT
 40
4.0
  9
$LOFTANG1
 40
1.570796326794897
  9
$LOFTANG2
 40
1.570796326794897
  9
$LOFTMAG1
 40
0.0
  9
$LOFTMAG2
 40
0.0
  9
$LOFTPARAM
 70
     7
  9
$LOFTNORMALS
280
     1
  9
$LATITUDE
 40
37.795
  9
$LONGITUDE
 40
-122.394
  9
$NORTHDIRECTION
 40
0.0
  9
$TIMEZONE
 70
 -8000
  9
$LIGHTGLYPHDISPLAY
280
     1
  9
$TILEMODELIGHTSYNCH
280
     1
  9
$SOLIDHIST
280
     1
  9
$SHOWHIST
280
     1
  9
$DWFFRAME
280
     2
  9
$DGNFRAME
280
     2
  9
$REALWORLDSCALE
290
     1
  9
$INTERFERECOLOR
 62
   256
  9
$CSHADOW
280
     0
  9
$SHADOWPLANELOCATION
 40
0.0
  0
ENDSEC
  0
SECTION
  2
CLASSES
  0
CLASS
  1
ACDBDICTIONARYWDFLT
  2
AcDbDictionaryWithDefault
  3
ObjectDBX Classes
 90
        0
 91
        4
280
     0
281
     0
  0
CLASS
  1
VISUALSTYLE
  2
AcDbVisualStyle
  3
ObjectDBX Classes
 90
     4095
 91
        4
280
     0
281
     0
  0
CLASS
  1
MATERIAL
  2
AcDbMaterial
  3
ObjectDBX Classes
 90
     1153
 91
        4
280
     0
281
     0
  0
ENDSEC
  0
SECTION
  2
TABLES
  0
TABLE
  2
VPORT
  5
8
330
0
100
AcDbSymbolTable
 70
     1
  0
VPORT
  5
29
330
8
100
AcDbSymbolTableRecord
100
AcDbViewportTableRecord
  2
*Active
 70
     0
 10
0.0
 20
0.0
 11
1.0
 21
1.0
 12
10.42990654205607
 22
4.5
 13
0.0
 23
0.0
 14
0.5
 24
0.5
 15
0.5
 25
0.5
 16
0.0
 26
0.0
 36
1.0
 17
0.0
 27
0.0
 37
0.0
 40
9.0
 41
1.972972972850329
 42
50.0
 43
0.0
 44
0.0
 50
0.0
 51
0.0
 71
     0
 72
   100
 73
     1
 74
     3
 75
     0
 76
     0
 77
     0
 78
     0
281
     0
 65
     1
110
0.0
120
0.0
130
0.0
111
1.0
121
0.0
131
0.0
112
0.0
122
1.0
132
0.0
 79
     0
146
0.0
 60
     3
 61
     5
292
     1
282
     1
141
0.0
142
0.0
 63
   250
  0
ENDTAB
  0
TABLE
  2
LTYPE
  5
5
330
0
100
AcDbSymbolTable
 70
     1
  0
LTYPE
  5
14
330
5
100
AcDbSymbolTableRecord
100
AcDbLinetypeTableRecord
  2
ByBlock
 70
     0
  3

 72
    65
 73
     0
 40
0.0
  0
LTYPE
  5
15
330
5
100
AcDbSymbolTableRecord
100
AcDbLinetypeTableRecord
  2
ByLayer
 70
     0
  3

 72
    65
 73
     0
 40
0.0
  0
LTYPE
  5
16
330
5
100
AcDbSymbolTableRecord
100
AcDbLinetypeTableRecord
  2
Continuous
 70
     0
  3
Solid line
 72
    65
 73
     0
 40
0.0
  0
ENDTAB
  0
TABLE
  2
LAYER
  5
2
330
0
100
AcDbSymbolTable
 70
     3
  0
LAYER
  5
10
330
2
100
AcDbSymbolTableRecord
100
AcDbLayerTableRecord
  2
0
 70
     0
 62
     7
  6
Continuous
370
    -3
390
F
347
3E
  0
LAYER
  5
40
330
2
100
AcDbSymbolTableRecord
100
AcDbLayerTableRecord
  2
layer 1
 70
     0
 62
     7
  6
Continuous
370
    -3
390
F
347
3E
  0
LAYER
  5
86
330
2
100
AcDbSymbolTableRecord
100
AcDbLayerTableRecord
  2
Master Guides
 70
     0
 62
     7
  6
Continuous
370
    -3
390
F
347
3E
  0
ENDTAB
  0
TABLE
  2
STYLE
  5
3
330
0
100
AcDbSymbolTable
 70
     1
  0
STYLE
  5
11
330
3
100
AcDbSymbolTableRecord
100
AcDbTextStyleTableRecord
  2
Standard
 70
     0
 40
0.0
 41
1.0
 50
0.0
 71
     0
 42
0.2
  3
txt
  4

  0
ENDTAB
  0
TABLE
  2
VIEW
  5
6
330
0
100
AcDbSymbolTable
 70
     0
  0
ENDTAB
  0
TABLE
  2
UCS
  5
7
330
0
100
AcDbSymbolTable
 70
     0
  0
ENDTAB
  0
TABLE
  2
APPID
  5
9
330
0
100
AcDbSymbolTable
 70
     2
  0
APPID
  5
12
330
9
100
AcDbSymbolTableRecord
100
AcDbRegAppTableRecord
  2
ACAD
 70
     0
  0
APPID
  5
3F
330
9
100
AcDbSymbolTableRecord
100
AcDbRegAppTableRecord
  2
ODA
 70
     0
  0
ENDTAB
  0
TABLE
  2
DIMSTYLE
  5
A
330
0
100
AcDbSymbolTable
 70
     1
100
AcDbDimStyleTable
  0
DIMSTYLE
105
27
330
A
100
AcDbSymbolTableRecord
100
AcDbDimStyleTableRecord
  2
Standard
 70
     0
178
     0
340
11
  0
ENDTAB
  0
TABLE
  2
BLOCK_RECORD
  5
1
330
0
100
AcDbSymbolTable
 70
     1
  0
BLOCK_RECORD
  5
1F
330
1
100
AcDbSymbolTableRecord
100
AcDbBlockTableRecord
  2
*Model_Space
340
22
 70
     0
280
     1
281
     0
  0
BLOCK_RECORD
  5
1B
330
1
100
AcDbSymbolTableRecord
100
AcDbBlockTableRecord
  2
*Paper_Space
340
1E
 70
     0
280
     1
281
     0
  0
BLOCK_RECORD
  5
23
330
1
100
AcDbSymbolTableRecord
100
AcDbBlockTableRecord
  2
*Paper_Space0
340
26
 70
     0
280
     1
281
     0
  0
ENDTAB
  0
ENDSEC
  0
SECTION
  2
BLOCKS
  0
BLOCK
  5
20
330
1F
100
AcDbEntity
  8
0
100
AcDbBlockBegin
  2
*Model_Space
 70
     0
 10
0.0
 20
0.0
 30
0.0
  3
*Model_Space
  1

  0
ENDBLK
  5
21
330
1F
100
AcDbEntity
  8
0
100
AcDbBlockEnd
  0
BLOCK
  5
1C
330
1B
100
AcDbEntity
 67
     1
  8
0
100
AcDbBlockBegin
  2
*Paper_Space
 70
     0
 10
0.0
 20
0.0
 30
0.0
  3
*Paper_Space
  1

  0
ENDBLK
  5
1D
330
1B
100
AcDbEntity
 67
     1
  8
0
100
AcDbBlockEnd
  0
BLOCK
  5
24
330
23
100
AcDbEntity
  8
0
100
AcDbBlockBegin
  2
*Paper_Space0
 70
     0
 10
0.0
 20
0.0
 30
0.0
  3
*Paper_Space0
  1

  0
ENDBLK
  5
25
330
23
100
AcDbEntity
  8
0
100
AcDbBlockEnd
  0
ENDSEC
  0
SECTION
  2
ENTITIES
  0
SPLINE
  5
41
330
1F
100
AcDbEntity
  8
layer 1
 62
   250
100
AcDbSpline
210
0.0
220
0.0
230
1.0
 70
    11
 71
     3
 72
    20
 73
    16
 74
     0
 42
0.0000000001
 43
0.0000000001
 12
1.0
 22
0.0
 32
0.0
 13
1.0
 23
0.0
 33
0.0
 40
0.0
 40
0.0
 40
0.0
 40
0.0
 40
0.2
 40
0.2
 40
0.2
 40
0.2
 40
0.4
 40
0.4
 40
0.4
 40
0.4
 40
0.6
 40
0.6
 40
0.6
 40
0.6
 40
1.0
 40
1.0
 40
1.0
 40
1.0
 10
-187.4738
 20
-115.1237
 30
0.0
 10
-187.4738
 20
-115.1237
 30
0.0
 10
-187.4738
 20
131.6802
 30
0.0
 10
-187.4738
 20
131.6802
 30
0.0
 10
-187.4738
 20
131.6802
 30
0.0
 10
-187.4738
 20
131.6802
 30
0.0
 10
-37.1155
 20
131.6802
 30
0.0
 10
-37.1155
 20
131.6802
 30
0.0
 10
-37.1155
 20
131.6802
 30
0.0
 10
-37.1155
 20
131.6802
 30
0.0
 10
-37.1155
 20
-115.1237
 30
0.0
 10
-37.1155
 20
-115.1237
 30
0.0
 10
-37.1155
 20
-115.1237
 30
0.0
 10
-37.1155
 20
-115.1237
 30
0.0
 10
-187.4738
 20
-115.1237
 30
0.0
 10
-187.4738
 20
-115.1237
 30
0.0
  0
SPLINE
  5
42
330
1F
100
AcDbEntity
  8
layer 1
 62
     7
100
AcDbSpline
210
0.0
220
0.0
230
1.0
 70
    11
 71
     3
 72
    36
 73
    32
 74
     0
 42
0.0000000001
 43
0.0000000001
 12
1.0
 22
0.0
 32
0.0
 13
1.0
 23
0.0
 33
0.0
 40
0.0
 40
0.0
 40
0.0
 40
0.0
 40
0.1111111111111111
 40
0.1111111111111111
 40
0.1111111111111111
 40
0.1111111111111111
 40
0.2222222222222222
 40
0.2222222222222222
 40
0.2222222222222222
 40
0.2222222222222222
 40
0.3333333333333333
 40
0.3333333333333333
 40
0.3333333333333333
 40
0.3333333333333333
 40
0.4444444444444444
 40
0.4444444444444444
 40
0.4444444444444444
 40
0.4444444444444444
 40
0.5555555555555556
 40
0.5555555555555556
 40
0.5555555555555556
 40
0.5555555555555556
 40
0.6666666666666666
 40
0.6666666666666666
 40
0.6666666666666666
 40
0.6666666666666666
 40
0.7777777777777778
 40
0.7777777777777778
 40
0.7777777777777778
 40
0.7777777777777778
 40
1.0
 40
1.0
 40
1.0
 40
1.0
 10
-56.7454
 20
-108.3123
 30
0.0
 10
-55.2198
 20
-107.6765
 30
0.0
 10
-54.0247
 20
-106.2781
 30
0.0
 10
-53.4906
 20
-104.6253
 30
0.0
 10
-53.4906
 20
-104.6253
 30
0.0
 10
-53.4906
 20
-104.6253
 30
0.0
 10
-49.3329
 20
-104.6253
 30
0.0
 10
-49.3329
 20
-104.6253
 30
0.0
 10
-49.3329
 20
-104.6253
 30
0.0
 10
-49.3329
 20
-104.6253
 30
0.0
 10
-49.3459
 20
-100.5567
 30
0.0
 10
-49.3459
 20
-100.5567
 30
0.0
 10
-49.3459
 20
-100.5567
 30
0.0
 10
-47.7183
 20
-99.9209
 30
0.0
 10
-46.3833
 20
-98.7766
 30
0.0
 10
-45.6586
 20
-97.251
 30
0.0
 10
-45.6586
 20
-97.251
 30
0.0
 10
-45.0736
 20
-98.5222
 30
0.0
 10
-44.0821
 20
-99.5396
 30
0.0
 10
-42.8741
 20
-100.1754
 30
0.0
 10
-42.8741
 20
-100.1754
 30
0.0
 10
-42.8741
 20
-100.1754
 30
0.0
 10
-42.8741
 20
-109.4566
 30
0.0
 10
-42.8741
 20
-109.4566
 30
0.0
 10
-42.8741
 20
-109.4566
 30
0.0
 10
-42.8741
 20
-109.4566
 30
0.0
 10
-55.1564
 20
-109.4566
 30
0.0
 10
-55.1564
 20
-109.4566
 30
0.0
 10
-55.1564
 20
-109.4566
 30
0.0
 10
-55.6267
 20
-108.948
 30
0.0
 10
-56.1608
 20
-108.694
 30
0.0
 10
-56.7454
 20
-108.3123
 30
0.0
  0
SPLINE
  5
43
330
1F
100
AcDbEntity
  8
layer 1
 62
     7
100
AcDbSpline
210
0.0
220
0.0
230
1.0
 70
    11
 71
     3
 72
    68
 73
    64
 74
     0
 42
0.0000000001
 43
0.0000000001
 12
1.0
 22
0.0
 32
0.0
 13
1.0
 23
0.0
 33
0.0
 40
0.0
 40
0.0
 40
0.0
 40
0.0
 40
0.0588235294117647
 40
0.0588235294117647
 40
0.0588235294117647
 40
0.0588235294117647
 40
0.1176470588235294
 40
0.1176470588235294
 40
0.1176470588235294
 40
0.1176470588235294
 40
0.1764705882352941
 40
0.1764705882352941
 40
0.1764705882352941
 40
0.1764705882352941
 40
0.2352941176470588
 40
0.2352941176470588
 40
0.2352941176470588
 40
0.2352941176470588
 40
0.2941176470588235
 40
0.2941176470588235
 40
0.2941176470588235
 40
0.2941176470588235
 40
0.3529411764705883
 40
0.3529411764705883
 40
0.3529411764705883
 40
0.3529411764705883
 40
0.4117647058823529
 40
0.4117647058823529
 40
0.4117647058823529
 40
0.4117647058823529
 40
0.4705882352941176
 40
0.4705882352941176
 40
0.4705882352941176
 40
0.4705882352941176
 40
0.5294117647058824
 40
0.5294117647058824
 40
0.5294117647058824
 40
0.5294117647058824
 40
0.5882352941176471
 40
0.5882352941176471
 40
0.5882352941176471
 40
0.5882352941176471
 40
0.6470588235294118
 40
0.6470588235294118
 40
0.6470588235294118
 40
0.6470588235294118
 40
0.7058823529411765
 40
0.7058823529411765
 40
0.7058823529411765
 40
0.7058823529411765
 40
0.7647058823529411
 40
0.7647058823529411
 40
0.7647058823529411
 40
0.7647058823529411
 40
0.8235294117647058
 40
0.8235294117647058
 40
0.8235294117647058
 40
0.8235294117647058
 40
0.8823529411764706
 40
0.8823529411764706
 40
0.8823529411764706
 40
0.8823529411764706
 40
1.0
 40
1.0
 40
1.0
 40
1.0
 10
-58.1186
 20
-83.7736
 30
0.0
 10
-58.1186
 20
-83.7736
 30
0.0
 10
-53.7576
 20
-83.7736
 30
0.0
 10
-53.7576
 20
-83.7736
 30
0.0
 10
-53.7576
 20
-83.7736
 30
0.0
 10
-53.7576
 20
-83.7736
 30
0.0
 10
-53.745
 20
-88.2235
 30
0.0
 10
-53.745
 20
-88.2235
 30
0.0
 10
-53.745
 20
-88.2235
 30
0.0
 10
-51.6215
 20
-88.2235
 30
0.0
 10
-49.8926
 20
-89.8767
 30
0.0
 10
-49.8926
 20
-92.0381
 30
0.0
 10
-49.8926
 20
-92.0381
 30
0.0
 10
-49.8926
 20
-94.1995
 30
0.0
 10
-51.6215
 20
-95.8523
 30
0.0
 10
-53.745
 20
-95.8523
 30
0.0
 10
-53.745
 20
-95.8523
 30
0.0
 10
-53.745
 20
-95.8523
 30
0.0
 10
-53.745
 20
-100.3022
 30
0.0
 10
-53.745
 20
-100.3022
 30
0.0
 10
-53.745
 20
-100.3022
 30
0.0
 10
-53.745
 20
-100.3022
 30
0.0
 10
-58.1186
 20
-100.3022
 30
0.0
 10
-58.1186
 20
-100.3022
 30
0.0
 10
-58.1186
 20
-100.3022
 30
0.0
 10
-58.1186
 20
-102.3367
 30
0.0
 10
-59.8478
 20
-104.1168
 30
0.0
 10
-61.9713
 20
-104.1168
 30
0.0
 10
-61.9713
 20
-104.1168
 30
0.0
 10
-64.0945
 20
-104.1168
 30
0.0
 10
-65.8237
 20
-102.3367
 30
0.0
 10
-65.8237
 20
-100.3022
 30
0.0
 10
-65.8237
 20
-100.3022
 30
0.0
 10
-65.8237
 20
-100.3022
 30
0.0
 10
-70.1846
 20
-100.3022
 30
0.0
 10
-70.1846
 20
-100.3022
 30
0.0
 10
-70.1846
 20
-100.3022
 30
0.0
 10
-70.1846
 20
-100.3022
 30
0.0
 10
-70.1846
 20
-95.8523
 30
0.0
 10
-70.1846
 20
-95.8523
 30
0.0
 10
-70.1846
 20
-95.8523
 30
0.0
 10
-72.3208
 20
-95.8523
 30
0.0
 10
-74.037
 20
-94.1995
 30
0.0
 10
-74.037
 20
-92.0381
 30
0.0
 10
-74.037
 20
-92.0381
 30
0.0
 10
-74.037
 20
-89.8767
 30
0.0
 10
-72.3208
 20
-88.2235
 30
0.0
 10
-70.1846
 20
-88.2235
 30
0.0
 10
-70.1846
 20
-88.2235
 30
0.0
 10
-70.1846
 20
-88.2235
 30
0.0
 10
-70.1846
 20
-83.7736
 30
0.0
 10
-70.1846
 20
-83.7736
 30
0.0
 10
-70.1846
 20
-83.7736
 30
0.0
 10
-70.1846
 20
-83.7736
 30
0.0
 10
-65.8237
 20
-83.7736
 30
0.0
 10
-65.8237
 20
-83.7736
 30
0.0
 10
-65.8237
 20
-83.7736
 30
0.0
 10
-65.8237
 20
-81.7395
 30
0.0
 10
-64.0945
 20
-79.9594
 30
0.0
 10
-61.9713
 20
-79.9594
 30
0.0
 10
-61.9713
 20
-79.9594
 30
0.0
 10
-59.8478
 20
-79.9594
 30
0.0
 10
-58.1186
 20
-81.7395
 30
0.0
 10
-58.1186
 20
-83.7736
 30
0.0
  0
SPLINE
  5
44
330
1F
100
AcDbEntity
  8
layer 1
 62
     7
100
AcDbSpline
210
0.0
220
0.0
230
1.0
 70
    11
 71
     3
 72
    48
 73
    44
 74
     0
 42
0.0000000001
 43
0.0000000001
 12
1.0
 22
0.0
 32
0.0
 13
1.0
 23
0.0
 33
0.0
 40
0.0
 40
0.0
 40
0.0
 40
0.0
 40
0.0833333333333333
 40
0.0833333333333333
 40
0.0833333333333333
 40
0.0833333333333333
 40
0.1666666666666667
 40
0.1666666666666667
 40
0.1666666666666667
 40
0.1666666666666667
 40
0.25
 40
0.25
 40
0.25
 40
0.25
 40
0.3333333333333333
 40
0.3333333333333333
 40
0.3333333333333333
 40
0.3333333333333333
 40
0.4166666666666667
 40
0.4166666666666667
 40
0.4166666666666667
 40
0.4166666666666667
 40
0.5
 40
0.5
 40
0.5
 40
0.5
 40
0.5833333333333334
 40
0.5833333333333334
 40
0.5833333333333334
 40
0.5833333333333334
 40
0.6666666666666666
 40
0.6666666666666666
 40
0.6666666666666666
 40
0.6666666666666666
 40
0.75
 40
0.75
 40
0.75
 40
0.75
 40
0.8333333333333334
 40
0.8333333333333334
 40
0.8333333333333334
 40
0.8333333333333334
 40
1.0
 40
1.0
 40
1.0
 40
1.0
 10
-56.7454
 20
-75.0009
 30
0.0
 10
-55.2198
 20
-74.3652
 30
0.0
 10
-54.0247
 20
-72.9664
 30
0.0
 10
-53.4906
 20
-71.3136
 30
0.0
 10
-53.4906
 20
-71.3136
 30
0.0
 10
-53.4906
 20
-71.3136
 30
0.0
 10
-49.3329
 20
-71.3136
 30
0.0
 10
-49.3329
 20
-71.3136
 30
0.0
 10
-49.3329
 20
-71.3136
 30
0.0
 10
-49.3329
 20
-71.3136
 30
0.0
 10
-49.3459
 20
-67.245
 30
0.0
 10
-49.3459
 20
-67.245
 30
0.0
 10
-49.3459
 20
-67.245
 30
0.0
 10
-47.7183
 20
-66.6092
 30
0.0
 10
-46.3833
 20
-65.4649
 30
0.0
 10
-45.6586
 20
-63.9393
 30
0.0
 10
-45.6586
 20
-63.9393
 30
0.0
 10
-45.0736
 20
-65.2108
 30
0.0
 10
-44.0821
 20
-66.2279
 30
0.0
 10
-42.8741
 20
-66.8636
 30
0.0
 10
-42.8741
 20
-66.8636
 30
0.0
 10
-42.8741
 20
-66.8636
 30
0.0
 10
-42.8741
 20
-83.2651
 30
0.0
 10
-42.8741
 20
-83.2651
 30
0.0
 10
-42.8741
 20
-83.2651
 30
0.0
 10
-44.0821
 20
-83.9008
 30
0.0
 10
-45.0736
 20
-84.9179
 30
0.0
 10
-45.6586
 20
-86.1894
 30
0.0
 10
-45.6586
 20
-86.1894
 30
0.0
 10
-46.3833
 20
-84.6638
 30
0.0
 10
-47.7183
 20
-83.3923
 30
0.0
 10
-49.3459
 20
-82.8837
 30
0.0
 10
-49.3459
 20
-82.8837
 30
0.0
 10
-49.3459
 20
-82.8837
 30
0.0
 10
-49.3329
 20
-78.6879
 30
0.0
 10
-49.3329
 20
-78.6879
 30
0.0
 10
-49.3329
 20
-78.6879
 30
0.0
 10
-49.3329
 20
-78.6879
 30
0.0
 10
-53.4906
 20
-78.6879
 30
0.0
 10
-53.4906
 20
-78.6879
 30
0.0
 10
-53.4906
 20
-78.6879
 30
0.0
 10
-54.0247
 20
-77.1623
 30
0.0
 10
-55.2198
 20
-75.7635
 30
0.0
 10
-56.7454
 20
-75.0009
 30
0.0
  0
SPLINE
  5
45
330
1F
100
AcDbEntity
  8
layer 1
 62
     7
100
AcDbSpline
210
0.0
220
0.0
230
1.0
 70
    11
 71
     3
 72
    68
 73
    64
 74
     0
 42
0.0000000001
 43
0.0000000001
 12
1.0
 22
0.0
 32
0.0
 13
1.0
 23
0.0
 33
0.0
 40
0.0
 40
0.0
 40
0.0
 40
0.0
 40
0.0588235294117647
 40
0.0588235294117647
 40
0.0588235294117647
 40
0.0588235294117647
 40
0.1176470588235294
 40
0.1176470588235294
 40
0.1176470588235294
 40
0.1176470588235294
 40
0.1764705882352941
 40
0.1764705882352941
 40
0.1764705882352941
 40
0.1764705882352941
 40
0.2352941176470588
 40
0.2352941176470588
 40
0.2352941176470588
 40
0.2352941176470588
 40
0.2941176470588235
 40
0.2941176470588235
 40
0.2941176470588235
 40
0.2941176470588235
 40
0.3529411764705883
 40
0.3529411764705883
 40
0.3529411764705883
 40
0.3529411764705883
 40
0.4117647058823529
 40
0.4117647058823529
 40
0.4117647058823529
 40
0.4117647058823529
 40
0.4705882352941176
 40
0.4705882352941176
 40
0.4705882352941176
 40
0.4705882352941176
 40
0.5294117647058824
 40
0.5294117647058824
 40
0.5294117647058824
 40
0.5294117647058824
 40
0.5882352941176471
 40
0.5882352941176471
 40
0.5882352941176471
 40
0.5882352941176471
 40
0.6470588235294118
 40
0.6470588235294118
 40
0.6470588235294118
 40
0.6470588235294118
 40
0.7058823529411765
 40
0.7058823529411765
 40
0.7058823529411765
 40
0.7058823529411765
 40
0.7647058823529411
 40
0.7647058823529411
 40
0.7647058823529411
 40
0.7647058823529411
 40
0.8235294117647058
 40
0.8235294117647058
 40
0.8235294117647058
 40
0.8235294117647058
 40
0.8823529411764706
 40
0.8823529411764706
 40
0.8823529411764706
 40
0.8823529411764706
 40
1.0
 40
1.0
 40
1.0
 40
1.0
 10
-58.1186
 20
-50.4619
 30
0.0
 10
-58.1186
 20
-50.4619
 30
0.0
 10
-53.7576
 20
-50.4619
 30
0.0
 10
-53.7576
 20
-50.4619
 30
0.0
 10
-53.7576
 20
-50.4619
 30
0.0
 10
-53.7576
 20
-50.4619
 30
0.0
 10
-53.745
 20
-54.9122
 30
0.0
 10
-53.745
 20
-54.9122
 30
0.0
 10
-53.745
 20
-54.9122
 30
0.0
 10
-51.6215
 20
-54.9122
 30
0.0
 10
-49.8926
 20
-56.565
 30
0.0
 10
-49.8926
 20
-58.7264
 30
0.0
 10
-49.8926
 20
-58.7264
 30
0.0
 10
-49.8926
 20
-60.8877
 30
0.0
 10
-51.6215
 20
-62.5406
 30
0.0
 10
-53.745
 20
-62.5406
 30
0.0
 10
-53.745
 20
-62.5406
 30
0.0
 10
-53.745
 20
-62.5406
 30
0.0
 10
-53.745
 20
-66.9909
 30
0.0
 10
-53.745
 20
-66.9909
 30
0.0
 10
-53.745
 20
-66.9909
 30
0.0
 10
-53.745
 20
-66.9909
 30
0.0
 10
-58.1186
 20
-66.9909
 30
0.0
 10
-58.1186
 20
-66.9909
 30
0.0
 10
-58.1186
 20
-66.9909
 30
0.0
 10
-58.1186
 20
-69.025
 30
0.0
 10
-59.8478
 20
-70.8051
 30
0.0
 10
-61.9713
 20
-70.8051
 30
0.0
 10
-61.9713
 20
-70.8051
 30
0.0
 10
-64.0945
 20
-70.8051
 30
0.0
 10
-65.8237
 20
-69.025
 30
0.0
 10
-65.8237
 20
-66.9909
 30
0.0
 10
-65.8237
 20
-66.9909
 30
0.0
 10
-65.8237
 20
-66.9909
 30
0.0
 10
-70.1846
 20
-66.9909
 30
0.0
 10
-70.1846
 20
-66.9909
 30
0.0
 10
-70.1846
 20
-66.9909
 30
0.0
 10
-70.1846
 20
-66.9909
 30
0.0
 10
-70.1846
 20
-62.5406
 30
0.0
 10
-70.1846
 20
-62.5406
 30
0.0
 10
-70.1846
 20
-62.5406
 30
0.0
 10
-72.3208
 20
-62.5406
 30
0.0
 10
-74.037
 20
-60.8877
 30
0.0
 10
-74.037
 20
-58.7264
 30
0.0
 10
-74.037
 20
-58.7264
 30
0.0
 10
-74.037
 20
-56.565
 30
0.0
 10
-72.3208
 20
-54.9122
 30
0.0
 10
-70.1846
 20
-54.9122
 30
0.0
 10
-70.1846
 20
-54.9122
 30
0.0
 10
-70.1846
 20
-54.9122
 30
0.0
 10
-70.1846
 20
-50.4619
 30
0.0
 10
-70.1846
 20
-50.4619
 30
0.0
 10
-70.1846
 20
-50.4619
 30
0.0
 10
-70.1846
 20
-50.4619
 30
0.0
 10
-65.8237
 20
-50.4619
 30
0.0
 10
-65.8237
 20
-50.4619
 30
0.0
 10
-65.8237
 20
-50.4619
 30
0.0
 10
-65.8237
 20
-48.4277
 30
0.0
 10
-64.0945
 20
-46.6477
 30
0.0
 10
-61.9713
 20
-46.6477
 30
0.0
 10
-61.9713
 20
-46.6477
 30
0.0
 10
-59.8478
 20
-46.6477
 30
0.0
 10
-58.1186
 20
-48.4277
 30
0.0
 10
-58.1186
 20
-50.4619
 30
0.0
  0
SPLINE
  5
46
330
1F
100
AcDbEntity
  8
layer 1
 62
     7
100
AcDbSpline
210
0.0
220
0.0
230
1.0
 70
    11
 71
     3
 72
    48
 73
    44
 74
     0
 42
0.0000000001
 43
0.0000000001
 12
1.0
 22
0.0
 32
0.0
 13
1.0
 23
0.0
 33
0.0
 40
0.0
 40
0.0
 40
0.0
 40
0.0
 40
0.0833333333333333
 40
0.0833333333333333
 40
0.0833333333333333
 40
0.0833333333333333
 40
0.1666666666666667
 40
0.1666666666666667
 40
0.1666666666666667
 40
0.1666666666666667
 40
0.25
 40
0.25
 40
0.25
 40
0.25
 40
0.3333333333333333
 40
0.3333333333333333
 40
0.3333333333333333
 40
0.3333333333333333
 40
0.4166666666666667
 40
0.4166666666666667
 40
0.4166666666666667
 40
0.4166666666666667
 40
0.5
 40
0.5
 40
0.5
 40
0.5
 40
0.5833333333333334
 40
0.5833333333333334
 40
0.5833333333333334
 40
0.5833333333333334
 40
0.6666666666666666
 40
0.6666666666666666
 40
0.6666666666666666
 40
0.6666666666666666
 40
0.75
 40
0.75
 40
0.75
 40
0.75
 40
0.8333333333333334
 40
0.8333333333333334
 40
0.8333333333333334
 40
0.8333333333333334
 40
1.0
 40
1.0
 40
1.0
 40
1.0
 10
-56.7454
 20
-41.6892
 30
0.0
 10
-55.2198
 20
-41.0534
 30
0.0
 10
-54.0247
 20
-39.6547
 30
0.0
 10
-53.4906
 20
-38.0019
 30
0.0
 10
-53.4906
 20
-38.0019
 30
0.0
 10
-53.4906
 20
-38.0019
 30
0.0
 10
-49.3329
 20
-38.0019
 30
0.0
 10
-49.3329
 20
-38.0019
 30
0.0
 10
-49.3329
 20
-38.0019
 30
0.0
 10
-49.3329
 20
-38.0019
 30
0.0
 10
-49.3459
 20
-33.9332
 30
0.0
 10
-49.3459
 20
-33.9332
 30
0.0
 10
-49.3459
 20
-33.9332
 30
0.0
 10
-47.7183
 20
-33.2975
 30
0.0
 10
-46.3833
 20
-32.1532
 30
0.0
 10
-45.6586
 20
-30.6276
 30
0.0
 10
-45.6586
 20
-30.6276
 30
0.0
 10
-45.0736
 20
-31.8991
 30
0.0
 10
-44.0821
 20
-32.9162
 30
0.0
 10
-42.8741
 20
-33.5519
 30
0.0
 10
-42.8741
 20
-33.5519
 30
0.0
 10
-42.8741
 20
-33.5519
 30
0.0
 10
-42.8741
 20
-49.9533
 30
0.0
 10
-42.8741
 20
-49.9533
 30
0.0
 10
-42.8741
 20
-49.9533
 30
0.0
 10
-44.0821
 20
-50.5891
 30
0.0
 10
-45.0736
 20
-51.6062
 30
0.0
 10
-45.6586
 20
-52.8777
 30
0.0
 10
-45.6586
 20
-52.8777
 30
0.0
 10
-46.3833
 20
-51.3521
 30
0.0
 10
-47.7183
 20
-50.0806
 30
0.0
 10
-49.3459
 20
-49.572
 30
0.0
 10
-49.3459
 20
-49.572
 30
0.0
 10
-49.3459
 20
-49.572
 30
0.0
 10
-49.3329
 20
-45.3762
 30
0.0
 10
-49.3329
 20
-45.3762
 30
0.0
 10
-49.3329
 20
-45.3762
 30
0.0
 10
-49.3329
 20
-45.3762
 30
0.0
 10
-53.4906
 20
-45.3762
 30
0.0
 10
-53.4906
 20
-45.3762
 30
0.0
 10
-53.4906
 20
-45.3762
 30
0.0
 10
-54.0247
 20
-43.7233
 30
0.0
 10
-55.2198
 20
-42.4518
 30
0.0
 10
-56.7454
 20
-41.6892
 30
0.0
  0
SPLINE
  5
47
330
1F
100
AcDbEntity
  8
layer 1
 62
     7
100
AcDbSpline
210
0.0
220
0.0
230
1.0
 70
    11
 71
     3
 72
    68
 73
    64
 74
     0
 42
0.0000000001
 43
0.0000000001
 12
1.0
 22
0.0
 32
0.0
 13
1.0
 23
0.0
 33
0.0
 40
0.0
 40
0.0
 40
0.0
 40
0.0
 40
0.0588235294117647
 40
0.0588235294117647
 40
0.0588235294117647
 40
0.0588235294117647
 40
0.1176470588235294
 40
0.1176470588235294
 40
0.1176470588235294
 40
0.1176470588235294
 40
0.1764705882352941
 40
0.1764705882352941
 40
0.1764705882352941
 40
0.1764705882352941
 40
0.2352941176470588
 40
0.2352941176470588
 40
0.2352941176470588
 40
0.2352941176470588
 40
0.2941176470588235
 40
0.2941176470588235
 40
0.2941176470588235
 40
0.2941176470588235
 40
0.3529411764705883
 40
0.3529411764705883
 40
0.3529411764705883
 40
0.3529411764705883
 40
0.4117647058823529
 40
0.4117647058823529
 40
0.4117647058823529
 40
0.4117647058823529
 40
0.4705882352941176
 40
0.4705882352941176
 40
0.4705882352941176
 40
0.4705882352941176
 40
0.5294117647058824
 40
0.5294117647058824
 40
0.5294117647058824
 40
0.5294117647058824
 40
0.5882352941176471
 40
0.5882352941176471
 40
0.5882352941176471
 40
0.5882352941176471
 40
0.6470588235294118
 40
0.6470588235294118
 40
0.6470588235294118
 40
0.6470588235294118
 40
0.7058823529411765
 40
0.7058823529411765
 40
0.7058823529411765
 40
0.7058823529411765
 40
0.7647058823529411
 40
0.7647058823529411
 40
0.7647058823529411
 40
0.7647058823529411
 40
0.8235294117647058
 40
0.8235294117647058
 40
0.8235294117647058
 40
0.8235294117647058
 40
0.8823529411764706
 40
0.8823529411764706
 40
0.8823529411764706
 40
0.8823529411764706
 40
1.0
 40
1.0
 40
1.0
 40
1.0
 10
-58.1186
 20
-17.1505
 30
0.0
 10
-58.1186
 20
-17.1505
 30
0.0
 10
-53.7576
 20
-17.1505
 30
0.0
 10
-53.7576
 20
-17.1505
 30
0.0
 10
-53.7576
 20
-17.1505
 30
0.0
 10
-53.7576
 20
-17.1505
 30
0.0
 10
-53.745
 20
-21.6005
 30
0.0
 10
-53.745
 20
-21.6005
 30
0.0
 10
-53.745
 20
-21.6005
 30
0.0
 10
-51.6215
 20
-21.6005
 30
0.0
 10
-49.8926
 20
-23.2533
 30
0.0
 10
-49.8926
 20
-25.4147
 30
0.0
 10
-49.8926
 20
-25.4147
 30
0.0
 10
-49.8926
 20
-27.576
 30
0.0
 10
-51.6215
 20
-29.2292
 30
0.0
 10
-53.745
 20
-29.2292
 30
0.0
 10
-53.745
 20
-29.2292
 30
0.0
 10
-53.745
 20
-29.2292
 30
0.0
 10
-53.745
 20
-33.6792
 30
0.0
 10
-53.745
 20
-33.6792
 30
0.0
 10
-53.745
 20
-33.6792
 30
0.0
 10
-53.745
 20
-33.6792
 30
0.0
 10
-58.1186
 20
-33.6792
 30
0.0
 10
-58.1186
 20
-33.6792
 30
0.0
 10
-58.1186
 20
-33.6792
 30
0.0
 10
-58.1186
 20
-35.7133
 30
0.0
 10
-59.8478
 20
-37.4933
 30
0.0
 10
-61.9713
 20
-37.4933
 30
0.0
 10
-61.9713
 20
-37.4933
 30
0.0
 10
-64.0945
 20
-37.4933
 30
0.0
 10
-65.8237
 20
-35.7133
 30
0.0
 10
-65.8237
 20
-33.6792
 30
0.0
 10
-65.8237
 20
-33.6792
 30
0.0
 10
-65.8237
 20
-33.6792
 30
0.0
 10
-70.1846
 20
-33.6792
 30
0.0
 10
-70.1846
 20
-33.6792
 30
0.0
 10
-70.1846
 20
-33.6792
 30
0.0
 10
-70.1846
 20
-33.6792
 30
0.0
 10
-70.1846
 20
-29.2292
 30
0.0
 10
-70.1846
 20
-29.2292
 30
0.0
 10
-70.1846
 20
-29.2292
 30
0.0
 10
-72.3208
 20
-29.2292
 30
0.0
 10
-74.037
 20
-27.576
 30
0.0
 10
-74.037
 20
-25.4147
 30
0.0
 10
-74.037
 20
-25.4147
 30
0.0
 10
-74.037
 20
-23.2533
 30
0.0
 10
-72.3208
 20
-21.6005
 30
0.0
 10
-70.1846
 20
-21.6005
 30
0.0
 10
-70.1846
 20
-21.6005
 30
0.0
 10
-70.1846
 20
-21.6005
 30
0.0
 10
-70.1846
 20
-17.1505
 30
0.0
 10
-70.1846
 20
-17.1505
 30
0.0
 10
-70.1846
 20
-17.1505
 30
0.0
 10
-70.1846
 20
-17.1505
 30
0.0
 10
-65.8237
 20
-17.1505
 30
0.0
 10
-65.8237
 20
-17.1505
 30
0.0
 10
-65.8237
 20
-17.1505
 30
0.0
 10
-65.8237
 20
-15.116
 30
0.0
 10
-64.0945
 20
-13.336
 30
0.0
 10
-61.9713
 20
-13.336
 30
0.0
 10
-61.9713
 20
-13.336
 30
0.0
 10
-59.8478
 20
-13.336
 30
0.0
 10
-58.1186
 20
-15.116
 30
0.0
 10
-58.1186
 20
-17.1505
 30
0.0
  0
SPLINE
  5
48
330
1F
100
AcDbEntity
  8
layer 1
 62
     7
100
AcDbSpline
210
0.0
220
0.0
230
1.0
 70
    11
 71
     3
 72
    48
 73
    44
 74
     0
 42
0.0000000001
 43
0.0000000001
 12
1.0
 22
0.0
 32
0.0
 13
1.0
 23
0.0
 33
0.0
 40
0.0
 40
0.0
 40
0.0
 40
0.0
 40
0.0833333333333333
 40
0.0833333333333333
 40
0.0833333333333333
 40
0.0833333333333333
 40
0.1666666666666667
 40
0.1666666666666667
 40
0.1666666666666667
 40
0.1666666666666667
 40
0.25
 40
0.25
 40
0.25
 40
0.25
 40
0.3333333333333333
 40
0.3333333333333333
 40
0.3333333333333333
 40
0.3333333333333333
 40
0.4166666666666667
 40
0.4166666666666667
 40
0.4166666666666667
 40
0.4166666666666667
 40
0.5
 40
0.5
 40
0.5
 40
0.5
 40
0.5833333333333334
 40
0.5833333333333334
 40
0.5833333333333334
 40
0.5833333333333334
 40
0.6666666666666666
 40
0.6666666666666666
 40
0.6666666666666666
 40
0.6666666666666666
 40
0.75
 40
0.75
 40
0.75
 40
0.75
 40
0.8333333333333334
 40
0.8333333333333334
 40
0.8333333333333334
 40
0.8333333333333334
 40
1.0
 40
1.0
 40
1.0
 40
1.0
 10
-56.7454
 20
-8.3775
 30
0.0
 10
-55.2198
 20
-7.7417
 30
0.0
 10
-54.0247
 20
-6.3433
 30
0.0
 10
-53.4906
 20
-4.6902
 30
0.0
 10
-53.4906
 20
-4.6902
 30
0.0
 10
-53.4906
 20
-4.6902
 30
0.0
 10
-49.3329
 20
-4.6902
 30
0.0
 10
-49.3329
 20
-4.6902
 30
0.0
 10
-49.3329
 20
-4.6902
 30
0.0
 10
-49.3329
 20
-4.6902
 30
0.0
 10
-49.3459
 20
-0.4947
 30
0.0
 10
-49.3459
 20
-0.4947
 30
0.0
 10
-49.3459
 20
-0.4947
 30
0.0
 10
-47.7183
 20
0.0139
 30
0.0
 10
-46.3833
 20
1.1582
 30
0.0
 10
-45.6586
 20
2.6841
 30
0.0
 10
-45.6586
 20
2.6841
 30
0.0
 10
-45.0736
 20
1.4126
 30
0.0
 10
-44.0821
 20
0.3955
 30
0.0
 10
-42.8741
 20
-0.2402
 30
0.0
 10
-42.8741
 20
-0.2402
 30
0.0
 10
-42.8741
 20
-0.2402
 30
0.0
 10
-42.8741
 20
-16.642
 30
0.0
 10
-42.8741
 20
-16.642
 30
0.0
 10
-42.8741
 20
-16.642
 30
0.0
 10
-44.0821
 20
-17.2774
 30
0.0
 10
-45.0736
 20
-18.2948
 30
0.0
 10
-45.6586
 20
-19.566
 30
0.0
 10
-45.6586
 20
-19.566
 30
0.0
 10
-46.3833
 20
-18.0404
 30
0.0
 10
-47.7183
 20
-16.7688
 30
0.0
 10
-49.3459
 20
-16.2603
 30
0.0
 10
-49.3459
 20
-16.2603
 30
0.0
 10
-49.3459
 20
-16.2603
 30
0.0
 10
-49.3329
 20
-12.0648
 30
0.0
 10
-49.3329
 20
-12.0648
 30
0.0
 10
-49.3329
 20
-12.0648
 30
0.0
 10
-49.3329
 20
-12.0648
 30
0.0
 10
-53.4906
 20
-12.0648
 30
0.0
 10
-53.4906
 20
-12.0648
 30
0.0
 10
-53.4906
 20
-12.0648
 30
0.0
 10
-54.0247
 20
-10.4116
 30
0.0
 10
-55.2198
 20
-9.1405
 30
0.0
 10
-56.7454
 20
-8.3775
 30
0.0
  0
SPLINE
  5
49
330
1F
100
AcDbEntity
  8
layer 1
 62
     7
100
AcDbSpline
210
0.0
220
0.0
230
1.0
 70
    11
 71
     3
 72
    68
 73
    64
 74
     0
 42
0.0000000001
 43
0.0000000001
 12
1.0
 22
0.0
 32
0.0
 13
1.0
 23
0.0
 33
0.0
 40
0.0
 40
0.0
 40
0.0
 40
0.0
 40
0.0588235294117647
 40
0.0588235294117647
 40
0.0588235294117647
 40
0.0588235294117647
 40
0.1176470588235294
 40
0.1176470588235294
 40
0.1176470588235294
 40
0.1176470588235294
 40
0.1764705882352941
 40
0.1764705882352941
 40
0.1764705882352941
 40
0.1764705882352941
 40
0.2352941176470588
 40
0.2352941176470588
 40
0.2352941176470588
 40
0.2352941176470588
 40
0.2941176470588235
 40
0.2941176470588235
 40
0.2941176470588235
 40
0.2941176470588235
 40
0.3529411764705883
 40
0.3529411764705883
 40
0.3529411764705883
 40
0.3529411764705883
 40
0.4117647058823529
 40
0.4117647058823529
 40
0.4117647058823529
 40
0.4117647058823529
 40
0.4705882352941176
 40
0.4705882352941176
 40
0.4705882352941176
 40
0.4705882352941176
 40
0.5294117647058824
 40
0.5294117647058824
 40
0.5294117647058824
 40
0.5294117647058824
 40
0.5882352941176471
 40
0.5882352941176471
 40
0.5882352941176471
 40
0.5882352941176471
 40
0.6470588235294118
 40
0.6470588235294118
 40
0.6470588235294118
 40
0.6470588235294118
 40
0.7058823529411765
 40
0.7058823529411765
 40
0.7058823529411765
 40
0.7058823529411765
 40
0.7647058823529411
 40
0.7647058823529411
 40
0.7647058823529411
 40
0.7647058823529411
 40
0.8235294117647058
 40
0.8235294117647058
 40
0.8235294117647058
 40
0.8235294117647058
 40
0.8823529411764706
 40
0.8823529411764706
 40
0.8823529411764706
 40
0.8823529411764706
 40
1.0
 40
1.0
 40
1.0
 40
1.0
 10
-58.1186
 20
16.1612
 30
0.0
 10
-58.1186
 20
16.1612
 30
0.0
 10
-53.7576
 20
16.1612
 30
0.0
 10
-53.7576
 20
16.1612
 30
0.0
 10
-53.7576
 20
16.1612
 30
0.0
 10
-53.7576
 20
16.1612
 30
0.0
 10
-53.745
 20
11.7113
 30
0.0
 10
-53.745
 20
11.7113
 30
0.0
 10
-53.745
 20
11.7113
 30
0.0
 10
-51.6215
 20
11.7113
 30
0.0
 10
-49.8926
 20
10.0584
 30
0.0
 10
-49.8926
 20
7.8971
 30
0.0
 10
-49.8926
 20
7.8971
 30
0.0
 10
-49.8926
 20
5.7353
 30
0.0
 10
-51.6215
 20
4.0825
 30
0.0
 10
-53.745
 20
4.0825
 30
0.0
 10
-53.745
 20
4.0825
 30
0.0
 10
-53.745
 20
4.0825
 30
0.0
 10
-53.745
 20
-0.3674
 30
0.0
 10
-53.745
 20
-0.3674
 30
0.0
 10
-53.745
 20
-0.3674
 30
0.0
 10
-53.745
 20
-0.3674
 30
0.0
 10
-58.1186
 20
-0.3674
 30
0.0
 10
-58.1186
 20
-0.3674
 30
0.0
 10
-58.1186
 20
-0.3674
 30
0.0
 10
-58.1186
 20
-2.4016
 30
0.0
 10
-59.8478
 20
-4.1816
 30
0.0
 10
-61.9713
 20
-4.1816
 30
0.0
 10
-61.9713
 20
-4.1816
 30
0.0
 10
-64.0945
 20
-4.1816
 30
0.0
 10
-65.8237
 20
-2.4016
 30
0.0
 10
-65.8237
 20
-0.3674
 30
0.0
 10
-65.8237
 20
-0.3674
 30
0.0
 10
-65.8237
 20
-0.3674
 30
0.0
 10
-70.1846
 20
-0.3674
 30
0.0
 10
-70.1846
 20
-0.3674
 30
0.0
 10
-70.1846
 20
-0.3674
 30
0.0
 10
-70.1846
 20
-0.3674
 30
0.0
 10
-70.1846
 20
4.0825
 30
0.0
 10
-70.1846
 20
4.0825
 30
0.0
 10
-70.1846
 20
4.0825
 30
0.0
 10
-72.3208
 20
4.0825
 30
0.0
 10
-74.037
 20
5.7353
 30
0.0
 10
-74.037
 20
7.8971
 30
0.0
 10
-74.037
 20
7.8971
 30
0.0
 10
-74.037
 20
10.0584
 30
0.0
 10
-72.3208
 20
11.7113
 30
0.0
 10
-70.1846
 20
11.7113
 30
0.0
 10
-70.1846
 20
11.7113
 30
0.0
 10
-70.1846
 20
11.7113
 30
0.0
 10
-70.1846
 20
16.1612
 30
0.0
 10
-70.1846
 20
16.1612
 30
0.0
 10
-70.1846
 20
16.1612
 30
0.0
 10
-70.1846
 20
16.1612
 30
0.0
 10
-65.8237
 20
16.1612
 30
0.0
 10
-65.8237
 20
16.1612
 30
0.0
 10
-65.8237
 20
16.1612
 30
0.0
 10
-65.8237
 20
18.1957
 30
0.0
 10
-64.0945
 20
19.9754
 30
0.0
 10
-61.9713
 20
19.9754
 30
0.0
 10
-61.9713
 20
19.9754
 30
0.0
 10
-59.8478
 20
19.9754
 30
0.0
 10
-58.1186
 20
18.1957
 30
0.0
 10
-58.1186
 20
16.1612
 30
0.0
  0
SPLINE
  5
4A
330
1F
100
AcDbEntity
  8
layer 1
 62
     7
100
AcDbSpline
210
0.0
220
0.0
230
1.0
 70
    11
 71
     3
 72
    48
 73
    44
 74
     0
 42
0.0000000001
 43
0.0000000001
 12
1.0
 22
0.0
 32
0.0
 13
1.0
 23
0.0
 33
0.0
 40
0.0
 40
0.0
 40
0.0
 40
0.0
 40
0.0833333333333333
 40
0.0833333333333333
 40
0.0833333333333333
 40
0.0833333333333333
 40
0.1666666666666667
 40
0.1666666666666667
 40
0.1666666666666667
 40
0.1666666666666667
 40
0.25
 40
0.25
 40
0.25
 40
0.25
 40
0.3333333333333333
 40
0.3333333333333333
 40
0.3333333333333333
 40
0.3333333333333333
 40
0.4166666666666667
 40
0.4166666666666667
 40
0.4166666666666667
 40
0.4166666666666667
 40
0.5
 40
0.5
 40
0.5
 40
0.5
 40
0.5833333333333334
 40
0.5833333333333334
 40
0.5833333333333334
 40
0.5833333333333334
 40
0.6666666666666666
 40
0.6666666666666666
 40
0.6666666666666666
 40
0.6666666666666666
 40
0.75
 40
0.75
 40
0.75
 40
0.75
 40
0.8333333333333334
 40
0.8333333333333334
 40
0.8333333333333334
 40
0.8333333333333334
 40
1.0
 40
1.0
 40
1.0
 40
1.0
 10
-56.7454
 20
24.9342
 30
0.0
 10
-55.2198
 20
25.6969
 30
0.0
 10
-54.0247
 20
26.9684
 30
0.0
 10
-53.4906
 20
28.6212
 30
0.0
 10
-53.4906
 20
28.6212
 30
0.0
 10
-53.4906
 20
28.6212
 30
0.0
 10
-49.3329
 20
28.6212
 30
0.0
 10
-49.3329
 20
28.6212
 30
0.0
 10
-49.3329
 20
28.6212
 30
0.0
 10
-49.3329
 20
28.6212
 30
0.0
 10
-49.3459
 20
32.8171
 30
0.0
 10
-49.3459
 20
32.8171
 30
0.0
 10
-49.3459
 20
32.8171
 30
0.0
 10
-47.7183
 20
33.3256
 30
0.0
 10
-46.3833
 20
34.4699
 30
0.0
 10
-45.6586
 20
35.9955
 30
0.0
 10
-45.6586
 20
35.9955
 30
0.0
 10
-45.0736
 20
34.7243
 30
0.0
 10
-44.0821
 20
33.7069
 30
0.0
 10
-42.8741
 20
33.1984
 30
0.0
 10
-42.8741
 20
33.1984
 30
0.0
 10
-42.8741
 20
33.1984
 30
0.0
 10
-42.8741
 20
16.6697
 30
0.0
 10
-42.8741
 20
16.6697
 30
0.0
 10
-42.8741
 20
16.6697
 30
0.0
 10
-44.0821
 20
16.034
 30
0.0
 10
-45.0736
 20
15.0169
 30
0.0
 10
-45.6586
 20
13.7454
 30
0.0
 10
-45.6586
 20
13.7454
 30
0.0
 10
-46.3833
 20
15.3982
 30
0.0
 10
-47.7183
 20
16.5425
 30
0.0
 10
-49.3459
 20
17.0514
 30
0.0
 10
-49.3459
 20
17.0514
 30
0.0
 10
-49.3459
 20
17.0514
 30
0.0
 10
-49.3329
 20
21.2469
 30
0.0
 10
-49.3329
 20
21.2469
 30
0.0
 10
-49.3329
 20
21.2469
 30
0.0
 10
-49.3329
 20
21.2469
 30
0.0
 10
-53.4906
 20
21.2469
 30
0.0
 10
-53.4906
 20
21.2469
 30
0.0
 10
-53.4906
 20
21.2469
 30
0.0
 10
-54.0247
 20
22.8997
 30
0.0
 10
-55.2198
 20
24.1712
 30
0.0
 10
-56.7454
 20
24.9342
 30
0.0
  0
SPLINE
  5
4B
330
1F
100
AcDbEntity
  8
layer 1
 62
     7
100
AcDbSpline
210
0.0
220
0.0
230
1.0
 70
    11
 71
     3
 72
    68
 73
    64
 74
     0
 42
0.0000000001
 43
0.0000000001
 12
1.0
 22
0.0
 32
0.0
 13
1.0
 23
0.0
 33
0.0
 40
0.0
 40
0.0
 40
0.0
 40
0.0
 40
0.0588235294117647
 40
0.0588235294117647
 40
0.0588235294117647
 40
0.0588235294117647
 40
0.1176470588235294
 40
0.1176470588235294
 40
0.1176470588235294
 40
0.1176470588235294
 40
0.1764705882352941
 40
0.1764705882352941
 40
0.1764705882352941
 40
0.1764705882352941
 40
0.2352941176470588
 40
0.2352941176470588
 40
0.2352941176470588
 40
0.2352941176470588
 40
0.2941176470588235
 40
0.2941176470588235
 40
0.2941176470588235
 40
0.2941176470588235
 40
0.3529411764705883
 40
0.3529411764705883
 40
0.3529411764705883
 40
0.3529411764705883
 40
0.4117647058823529
 40
0.4117647058823529
 40
0.4117647058823529
 40
0.4117647058823529
 40
0.4705882352941176
 40
0.4705882352941176
 40
0.4705882352941176
 40
0.4705882352941176
 40
0.5294117647058824
 40
0.5294117647058824
 40
0.5294117647058824
 40
0.5294117647058824
 40
0.5882352941176471
 40
0.5882352941176471
 40
0.5882352941176471
 40
0.5882352941176471
 40
0.6470588235294118
 40
0.6470588235294118
 40
0.6470588235294118
 40
0.6470588235294118
 40
0.7058823529411765
 40
0.7058823529411765
 40
0.7058823529411765
 40
0.7058823529411765
 40
0.7647058823529411
 40
0.7647058823529411
 40
0.7647058823529411
 40
0.7647058823529411
 40
0.8235294117647058
 40
0.8235294117647058
 40
0.8235294117647058
 40
0.8235294117647058
 40
0.8823529411764706
 40
0.8823529411764706
 40
0.8823529411764706
 40
0.8823529411764706
 40
1.0
 40
1.0
 40
1.0
 40
1.0
 10
-58.1186
 20
49.4729
 30
0.0
 10
-58.1186
 20
49.4729
 30
0.0
 10
-53.7576
 20
49.4729
 30
0.0
 10
-53.7576
 20
49.4729
 30
0.0
 10
-53.7576
 20
49.4729
 30
0.0
 10
-53.7576
 20
49.4729
 30
0.0
 10
-53.745
 20
45.023
 30
0.0
 10
-53.745
 20
45.023
 30
0.0
 10
-53.745
 20
45.023
 30
0.0
 10
-51.6215
 20
45.023
 30
0.0
 10
-49.8926
 20
43.3701
 30
0.0
 10
-49.8926
 20
41.2084
 30
0.0
 10
-49.8926
 20
41.2084
 30
0.0
 10
-49.8926
 20
39.0471
 30
0.0
 10
-51.6215
 20
37.3942
 30
0.0
 10
-53.745
 20
37.3942
 30
0.0
 10
-53.745
 20
37.3942
 30
0.0
 10
-53.745
 20
37.3942
 30
0.0
 10
-53.745
 20
33.0715
 30
0.0
 10
-53.745
 20
33.0715
 30
0.0
 10
-53.745
 20
33.0715
 30
0.0
 10
-53.745
 20
33.0715
 30
0.0
 10
-58.1186
 20
32.9443
 30
0.0
 10
-58.1186
 20
32.9443
 30
0.0
 10
-58.1186
 20
32.9443
 30
0.0
 10
-58.1186
 20
30.9098
 30
0.0
 10
-59.8478
 20
29.1297
 30
0.0
 10
-61.9713
 20
29.1297
 30
0.0
 10
-61.9713
 20
29.1297
 30
0.0
 10
-64.0945
 20
29.1297
 30
0.0
 10
-65.8237
 20
30.9098
 30
0.0
 10
-65.8237
 20
32.9443
 30
0.0
 10
-65.8237
 20
32.9443
 30
0.0
 10
-65.8237
 20
32.9443
 30
0.0
 10
-70.1846
 20
32.9443
 30
0.0
 10
-70.1846
 20
32.9443
 30
0.0
 10
-70.1846
 20
32.9443
 30
0.0
 10
-70.1846
 20
32.9443
 30
0.0
 10
-70.1846
 20
37.3942
 30
0.0
 10
-70.1846
 20
37.3942
 30
0.0
 10
-70.1846
 20
37.3942
 30
0.0
 10
-72.3208
 20
37.3942
 30
0.0
 10
-74.037
 20
39.0471
 30
0.0
 10
-74.037
 20
41.2084
 30
0.0
 10
-74.037
 20
41.2084
 30
0.0
 10
-74.037
 20
43.3701
 30
0.0
 10
-72.3208
 20
45.023
 30
0.0
 10
-70.1846
 20
45.023
 30
0.0
 10
-70.1846
 20
45.023
 30
0.0
 10
-70.1846
 20
45.023
 30
0.0
 10
-70.1846
 20
49.4729
 30
0.0
 10
-70.1846
 20
49.4729
 30
0.0
 10
-70.1846
 20
49.4729
 30
0.0
 10
-70.1846
 20
49.4729
 30
0.0
 10
-65.8237
 20
49.4729
 30
0.0
 10
-65.8237
 20
49.4729
 30
0.0
 10
-65.8237
 20
49.4729
 30
0.0
 10
-65.8237
 20
51.5071
 30
0.0
 10
-64.0945
 20
53.2871
 30
0.0
 10
-61.9713
 20
53.2871
 30
0.0
 10
-61.9713
 20
53.2871
 30
0.0
 10
-59.8478
 20
53.2871
 30
0.0
 10
-58.1186
 20
51.5071
 30
0.0
 10
-58.1186
 20
49.4729
 30
0.0
  0
SPLINE
  5
4C
330
1F
100
AcDbEntity
  8
layer 1
 62
     7
100
AcDbSpline
210
0.0
220
0.0
230
1.0
 70
    11
 71
     3
 72
    48
 73
    44
 74
     0
 42
0.0000000001
 43
0.0000000001
 12
1.0
 22
0.0
 32
0.0
 13
1.0
 23
0.0
 33
0.0
 40
0.0
 40
0.0
 40
0.0
 40
0.0
 40
0.0833333333333333
 40
0.0833333333333333
 40
0.0833333333333333
 40
0.0833333333333333
 40
0.1666666666666667
 40
0.1666666666666667
 40
0.1666666666666667
 40
0.1666666666666667
 40
0.25
 40
0.25
 40
0.25
 40
0.25
 40
0.3333333333333333
 40
0.3333333333333333
 40
0.3333333333333333
 40
0.3333333333333333
 40
0.4166666666666667
 40
0.4166666666666667
 40
0.4166666666666667
 40
0.4166666666666667
 40
0.5
 40
0.5
 40
0.5
 40
0.5
 40
0.5833333333333334
 40
0.5833333333333334
 40
0.5833333333333334
 40
0.5833333333333334
 40
0.6666666666666666
 40
0.6666666666666666
 40
0.6666666666666666
 40
0.6666666666666666
 40
0.75
 40
0.75
 40
0.75
 40
0.75
 40
0.8333333333333334
 40
0.8333333333333334
 40
0.8333333333333334
 40
0.8333333333333334
 40
1.0
 40
1.0
 40
1.0
 40
1.0
 10
-56.7454
 20
58.2459
 30
0.0
 10
-55.2198
 20
59.0086
 30
0.0
 10
-54.0247
 20
60.2801
 30
0.0
 10
-53.4906
 20
61.9329
 30
0.0
 10
-53.4906
 20
61.9329
 30
0.0
 10
-53.4906
 20
61.9329
 30
0.0
 10
-49.3329
 20
61.9329
 30
0.0
 10
-49.3329
 20
61.9329
 30
0.0
 10
-49.3329
 20
61.9329
 30
0.0
 10
-49.3329
 20
61.9329
 30
0.0
 10
-49.3459
 20
66.1288
 30
0.0
 10
-49.3459
 20
66.1288
 30
0.0
 10
-49.3459
 20
66.1288
 30
0.0
 10
-47.7183
 20
66.6373
 30
0.0
 10
-46.3833
 20
67.7816
 30
0.0
 10
-45.6586
 20
69.3072
 30
0.0
 10
-45.6586
 20
69.3072
 30
0.0
 10
-45.0736
 20
68.0357
 30
0.0
 10
-44.0821
 20
67.0186
 30
0.0
 10
-42.8741
 20
66.5101
 30
0.0
 10
-42.8741
 20
66.5101
 30
0.0
 10
-42.8741
 20
66.5101
 30
0.0
 10
-42.8741
 20
49.9815
 30
0.0
 10
-42.8741
 20
49.9815
 30
0.0
 10
-42.8741
 20
49.9815
 30
0.0
 10
-44.0821
 20
49.3457
 30
0.0
 10
-45.0736
 20
48.3286
 30
0.0
 10
-45.6586
 20
47.1843
 30
0.0
 10
-45.6586
 20
47.1843
 30
0.0
 10
-46.3833
 20
48.7099
 30
0.0
 10
-47.7183
 20
49.8542
 30
0.0
 10
-49.3459
 20
50.3628
 30
0.0
 10
-49.3459
 20
50.3628
 30
0.0
 10
-49.3459
 20
50.3628
 30
0.0
 10
-49.3329
 20
54.5586
 30
0.0
 10
-49.3329
 20
54.5586
 30
0.0
 10
-49.3329
 20
54.5586
 30
0.0
 10
-49.3329
 20
54.5586
 30
0.0
 10
-53.4906
 20
54.5586
 30
0.0
 10
-53.4906
 20
54.5586
 30
0.0
 10
-53.4906
 20
54.5586
 30
0.0
 10
-54.0247
 20
56.2115
 30
0.0
 10
-55.2198
 20
57.483
 30
0.0
 10
-56.7454
 20
58.2459
 30
0.0
  0
SPLINE
  5
4D
330
1F
100
AcDbEntity
  8
layer 1
 62
     7
100
AcDbSpline
210
0.0
220
0.0
230
1.0
 70
    11
 71
     3
 72
    68
 73
    64
 74
     0
 42
0.0000000001
 43
0.0000000001
 12
1.0
 22
0.0
 32
0.0
 13
1.0
 23
0.0
 33
0.0
 40
0.0
 40
0.0
 40
0.0
 40
0.0
 40
0.0588235294117647
 40
0.0588235294117647
 40
0.0588235294117647
 40
0.0588235294117647
 40
0.1176470588235294
 40
0.1176470588235294
 40
0.1176470588235294
 40
0.1176470588235294
 40
0.1764705882352941
 40
0.1764705882352941
 40
0.1764705882352941
 40
0.1764705882352941
 40
0.2352941176470588
 40
0.2352941176470588
 40
0.2352941176470588
 40
0.2352941176470588
 40
0.2941176470588235
 40
0.2941176470588235
 40
0.2941176470588235
 40
0.2941176470588235
 40
0.3529411764705883
 40
0.3529411764705883
 40
0.3529411764705883
 40
0.3529411764705883
 40
0.4117647058823529
 40
0.4117647058823529
 40
0.4117647058823529
 40
0.4117647058823529
 40
0.4705882352941176
 40
0.4705882352941176
 40
0.4705882352941176
 40
0.4705882352941176
 40
0.5294117647058824
 40
0.5294117647058824
 40
0.5294117647058824
 40
0.5294117647058824
 40
0.5882352941176471
 40
0.5882352941176471
 40
0.5882352941176471
 40
0.5882352941176471
 40
0.6470588235294118
 40
0.6470588235294118
 40
0.6470588235294118
 40
0.6470588235294118
 40
0.7058823529411765
 40
0.7058823529411765
 40
0.7058823529411765
 40
0.7058823529411765
 40
0.7647058823529411
 40
0.7647058823529411
 40
0.7647058823529411
 40
0.7647058823529411
 40
0.8235294117647058
 40
0.8235294117647058
 40
0.8235294117647058
 40
0.8235294117647058
 40
0.8823529411764706
 40
0.8823529411764706
 40
0.8823529411764706
 40
0.8823529411764706
 40
1.0
 40
1.0
 40
1.0
 40
1.0
 10
-58.1186
 20
82.7846
 30
0.0
 10
-58.1186
 20
82.7846
 30
0.0
 10
-53.7576
 20
82.7846
 30
0.0
 10
-53.7576
 20
82.7846
 30
0.0
 10
-53.7576
 20
82.7846
 30
0.0
 10
-53.7576
 20
82.7846
 30
0.0
 10
-53.745
 20
78.3343
 30
0.0
 10
-53.745
 20
78.3343
 30
0.0
 10
-53.745
 20
78.3343
 30
0.0
 10
-51.6215
 20
78.3343
 30
0.0
 10
-49.8926
 20
76.6815
 30
0.0
 10
-49.8926
 20
74.5201
 30
0.0
 10
-49.8926
 20
74.5201
 30
0.0
 10
-49.8926
 20
72.3588
 30
0.0
 10
-51.6215
 20
70.7059
 30
0.0
 10
-53.745
 20
70.7059
 30
0.0
 10
-53.745
 20
70.7059
 30
0.0
 10
-53.745
 20
70.7059
 30
0.0
 10
-53.745
 20
66.3829
 30
0.0
 10
-53.745
 20
66.3829
 30
0.0
 10
-53.745
 20
66.3829
 30
0.0
 10
-53.745
 20
66.3829
 30
0.0
 10
-58.1186
 20
66.3829
 30
0.0
 10
-58.1186
 20
66.3829
 30
0.0
 10
-58.1186
 20
66.3829
 30
0.0
 10
-58.1186
 20
64.2215
 30
0.0
 10
-59.8478
 20
62.4414
 30
0.0
 10
-61.9713
 20
62.4414
 30
0.0
 10
-61.9713
 20
62.4414
 30
0.0
 10
-64.0945
 20
62.4414
 30
0.0
 10
-65.8237
 20
64.2215
 30
0.0
 10
-65.8237
 20
66.3829
 30
0.0
 10
-65.8237
 20
66.3829
 30
0.0
 10
-65.8237
 20
66.3829
 30
0.0
 10
-70.1846
 20
66.3829
 30
0.0
 10
-70.1846
 20
66.3829
 30
0.0
 10
-70.1846
 20
66.3829
 30
0.0
 10
-70.1846
 20
66.3829
 30
0.0
 10
-70.1846
 20
70.7059
 30
0.0
 10
-70.1846
 20
70.7059
 30
0.0
 10
-70.1846
 20
70.7059
 30
0.0
 10
-72.3208
 20
70.7059
 30
0.0
 10
-74.037
 20
72.3588
 30
0.0
 10
-74.037
 20
74.5201
 30
0.0
 10
-74.037
 20
74.5201
 30
0.0
 10
-74.037
 20
76.6815
 30
0.0
 10
-72.3208
 20
78.3343
 30
0.0
 10
-70.1846
 20
78.3343
 30
0.0
 10
-70.1846
 20
78.3343
 30
0.0
 10
-70.1846
 20
78.3343
 30
0.0
 10
-70.1846
 20
82.7846
 30
0.0
 10
-70.1846
 20
82.7846
 30
0.0
 10
-70.1846
 20
82.7846
 30
0.0
 10
-70.1846
 20
82.7846
 30
0.0
 10
-65.8237
 20
82.7846
 30
0.0
 10
-65.8237
 20
82.7846
 30
0.0
 10
-65.8237
 20
82.7846
 30
0.0
 10
-65.8237
 20
84.946
 30
0.0
 10
-64.0945
 20
86.5988
 30
0.0
 10
-61.9713
 20
86.5988
 30
0.0
 10
-61.9713
 20
86.5988
 30
0.0
 10
-59.8478
 20
86.5988
 30
0.0
 10
-58.1186
 20
84.946
 30
0.0
 10
-58.1186
 20
82.7846
 30
0.0
  0
SPLINE
  5
4E
330
1F
100
AcDbEntity
  8
layer 1
 62
     7
100
AcDbSpline
210
0.0
220
0.0
230
1.0
 70
    11
 71
     3
 72
    48
 73
    44
 74
     0
 42
0.0000000001
 43
0.0000000001
 12
1.0
 22
0.0
 32
0.0
 13
1.0
 23
0.0
 33
0.0
 40
0.0
 40
0.0
 40
0.0
 40
0.0
 40
0.0833333333333333
 40
0.0833333333333333
 40
0.0833333333333333
 40
0.0833333333333333
 40
0.1666666666666667
 40
0.1666666666666667
 40
0.1666666666666667
 40
0.1666666666666667
 40
0.25
 40
0.25
 40
0.25
 40
0.25
 40
0.3333333333333333
 40
0.3333333333333333
 40
0.3333333333333333
 40
0.3333333333333333
 40
0.4166666666666667
 40
0.4166666666666667
 40
0.4166666666666667
 40
0.4166666666666667
 40
0.5
 40
0.5
 40
0.5
 40
0.5
 40
0.5833333333333334
 40
0.5833333333333334
 40
0.5833333333333334
 40
0.5833333333333334
 40
0.6666666666666666
 40
0.6666666666666666
 40
0.6666666666666666
 40
0.6666666666666666
 40
0.75
 40
0.75
 40
0.75
 40
0.75
 40
0.8333333333333334
 40
0.8333333333333334
 40
0.8333333333333334
 40
0.8333333333333334
 40
1.0
 40
1.0
 40
1.0
 40
1.0
 10
-56.7454
 20
91.5573
 30
0.0
 10
-55.2198
 20
92.3203
 30
0.0
 10
-54.0247
 20
93.5918
 30
0.0
 10
-53.4906
 20
95.2446
 30
0.0
 10
-53.4906
 20
95.2446
 30
0.0
 10
-53.4906
 20
95.2446
 30
0.0
 10
-49.3329
 20
95.2446
 30
0.0
 10
-49.3329
 20
95.2446
 30
0.0
 10
-49.3329
 20
95.2446
 30
0.0
 10
-49.3329
 20
95.2446
 30
0.0
 10
-49.3459
 20
99.4405
 30
0.0
 10
-49.3459
 20
99.4405
 30
0.0
 10
-49.3459
 20
99.4405
 30
0.0
 10
-47.7183
 20
99.949
 30
0.0
 10
-46.3833
 20
101.0933
 30
0.0
 10
-45.6586
 20
102.6189
 30
0.0
 10
-45.6586
 20
102.6189
 30
0.0
 10
-45.0736
 20
101.4746
 30
0.0
 10
-44.0821
 20
100.4576
 30
0.0
 10
-42.8741
 20
99.8218
 30
0.0
 10
-42.8741
 20
99.8218
 30
0.0
 10
-42.8741
 20
99.8218
 30
0.0
 10
-42.8741
 20
83.2932
 30
0.0
 10
-42.8741
 20
83.2932
 30
0.0
 10
-42.8741
 20
83.2932
 30
0.0
 10
-44.0821
 20
82.6574
 30
0.0
 10
-45.0736
 20
81.6403
 30
0.0
 10
-45.6586
 20
80.496
 30
0.0
 10
-45.6586
 20
80.496
 30
0.0
 10
-46.3833
 20
82.0217
 30
0.0
 10
-47.7183
 20
83.1659
 30
0.0
 10
-49.3459
 20
83.6745
 30
0.0
 10
-49.3459
 20
83.6745
 30
0.0
 10
-49.3459
 20
83.6745
 30
0.0
 10
-49.3329
 20
87.8703
 30
0.0
 10
-49.3329
 20
87.8703
 30
0.0
 10
-49.3329
 20
87.8703
 30
0.0
 10
-49.3329
 20
87.8703
 30
0.0
 10
-53.4906
 20
87.8703
 30
0.0
 10
-53.4906
 20
87.8703
 30
0.0
 10
-53.4906
 20
87.8703
 30
0.0
 10
-54.0247
 20
89.5232
 30
0.0
 10
-55.2198
 20
90.7947
 30
0.0
 10
-56.7454
 20
91.5573
 30
0.0
  0
SPLINE
  5
4F
330
1F
100
AcDbEntity
  8
layer 1
 62
     7
100
AcDbSpline
210
0.0
220
0.0
230
1.0
 70
    11
 71
     3
 72
    68
 73
    64
 74
     0
 42
0.0000000001
 43
0.0000000001
 12
1.0
 22
0.0
 32
0.0
 13
1.0
 23
0.0
 33
0.0
 40
0.0
 40
0.0
 40
0.0
 40
0.0
 40
0.0588235294117647
 40
0.0588235294117647
 40
0.0588235294117647
 40
0.0588235294117647
 40
0.1176470588235294
 40
0.1176470588235294
 40
0.1176470588235294
 40
0.1176470588235294
 40
0.1764705882352941
 40
0.1764705882352941
 40
0.1764705882352941
 40
0.1764705882352941
 40
0.2352941176470588
 40
0.2352941176470588
 40
0.2352941176470588
 40
0.2352941176470588
 40
0.2941176470588235
 40
0.2941176470588235
 40
0.2941176470588235
 40
0.2941176470588235
 40
0.3529411764705883
 40
0.3529411764705883
 40
0.3529411764705883
 40
0.3529411764705883
 40
0.4117647058823529
 40
0.4117647058823529
 40
0.4117647058823529
 40
0.4117647058823529
 40
0.4705882352941176
 40
0.4705882352941176
 40
0.4705882352941176
 40
0.4705882352941176
 40
0.5294117647058824
 40
0.5294117647058824
 40
0.5294117647058824
 40
0.5294117647058824
 40
0.5882352941176471
 40
0.5882352941176471
 40
0.5882352941176471
 40
0.5882352941176471
 40
0.6470588235294118
 40
0.6470588235294118
 40
0.6470588235294118
 40
0.6470588235294118
 40
0.7058823529411765
 40
0.7058823529411765
 40
0.7058823529411765
 40
0.7058823529411765
 40
0.7647058823529411
 40
0.7647058823529411
 40
0.7647058823529411
 40
0.7647058823529411
 40
0.8235294117647058
 40
0.8235294117647058
 40
0.8235294117647058
 40
0.8235294117647058
 40
0.8823529411764706
 40
0.8823529411764706
 40
0.8823529411764706
 40
0.8823529411764706
 40
1.0
 40
1.0
 40
1.0
 40
1.0
 10
-58.1186
 20
116.096
 30
0.0
 10
-58.1186
 20
116.096
 30
0.0
 10
-53.7576
 20
116.096
 30
0.0
 10
-53.7576
 20
116.096
 30
0.0
 10
-53.7576
 20
116.096
 30
0.0
 10
-53.7576
 20
116.096
 30
0.0
 10
-53.745
 20
111.7733
 30
0.0
 10
-53.745
 20
111.7733
 30
0.0
 10
-53.745
 20
111.7733
 30
0.0
 10
-51.6215
 20
111.7733
 30
0.0
 10
-49.8926
 20
109.9932
 30
0.0
 10
-49.8926
 20
107.8319
 30
0.0
 10
-49.8926
 20
107.8319
 30
0.0
 10
-49.8926
 20
105.7974
 30
0.0
 10
-51.6215
 20
104.0177
 30
0.0
 10
-53.745
 20
104.0177
 30
0.0
 10
-53.745
 20
104.0177
 30
0.0
 10
-53.745
 20
104.0177
 30
0.0
 10
-53.745
 20
99.6946
 30
0.0
 10
-53.745
 20
99.6946
 30
0.0
 10
-53.745
 20
99.6946
 30
0.0
 10
-53.745
 20
99.6946
 30
0.0
 10
-58.1186
 20
99.6946
 30
0.0
 10
-58.1186
 20
99.6946
 30
0.0
 10
-58.1186
 20
99.6946
 30
0.0
 10
-58.1186
 20
97.5332
 30
0.0
 10
-59.8478
 20
95.7532
 30
0.0
 10
-61.9713
 20
95.7532
 30
0.0
 10
-61.9713
 20
95.7532
 30
0.0
 10
-64.0945
 20
95.7532
 30
0.0
 10
-65.8237
 20
97.5332
 30
0.0
 10
-65.8237
 20
99.6946
 30
0.0
 10
-65.8237
 20
99.6946
 30
0.0
 10
-65.8237
 20
99.6946
 30
0.0
 10
-70.1846
 20
99.6946
 30
0.0
 10
-70.1846
 20
99.6946
 30
0.0
 10
-70.1846
 20
99.6946
 30
0.0
 10
-70.1846
 20
99.6946
 30
0.0
 10
-70.1846
 20
104.0177
 30
0.0
 10
-70.1846
 20
104.0177
 30
0.0
 10
-70.1846
 20
104.0177
 30
0.0
 10
-72.3208
 20
104.0177
 30
0.0
 10
-74.037
 20
105.7974
 30
0.0
 10
-74.037
 20
107.8319
 30
0.0
 10
-74.037
 20
107.8319
 30
0.0
 10
-74.037
 20
109.9932
 30
0.0
 10
-72.3208
 20
111.7733
 30
0.0
 10
-70.1846
 20
111.7733
 30
0.0
 10
-70.1846
 20
111.7733
 30
0.0
 10
-70.1846
 20
111.7733
 30
0.0
 10
-70.1846
 20
116.096
 30
0.0
 10
-70.1846
 20
116.096
 30
0.0
 10
-70.1846
 20
116.096
 30
0.0
 10
-70.1846
 20
116.096
 30
0.0
 10
-65.8237
 20
116.096
 30
0.0
 10
-65.8237
 20
116.096
 30
0.0
 10
-65.8237
 20
116.096
 30
0.0
 10
-65.8237
 20
118.2577
 30
0.0
 10
-64.0945
 20
119.9105
 30
0.0
 10
-61.9713
 20
119.9105
 30
0.0
 10
-61.9713
 20
119.9105
 30
0.0
 10
-59.8478
 20
119.9105
 30
0.0
 10
-58.1186
 20
118.2577
 30
0.0
 10
-58.1186
 20
116.096
 30
0.0
  0
SPLINE
  5
50
330
1F
100
AcDbEntity
  8
layer 1
 62
     7
100
AcDbSpline
210
0.0
220
0.0
230
1.0
 70
    11
 71
     3
 72
    36
 73
    32
 74
     0
 42
0.0000000001
 43
0.0000000001
 12
1.0
 22
0.0
 32
0.0
 13
1.0
 23
0.0
 33
0.0
 40
0.0
 40
0.0
 40
0.0
 40
0.0
 40
0.1111111111111111
 40
0.1111111111111111
 40
0.1111111111111111
 40
0.1111111111111111
 40
0.2222222222222222
 40
0.2222222222222222
 40
0.2222222222222222
 40
0.2222222222222222
 40
0.3333333333333333
 40
0.3333333333333333
 40
0.3333333333333333
 40
0.3333333333333333
 40
0.4444444444444444
 40
0.4444444444444444
 40
0.4444444444444444
 40
0.4444444444444444
 40
0.5555555555555556
 40
0.5555555555555556
 40
0.5555555555555556
 40
0.5555555555555556
 40
0.6666666666666666
 40
0.6666666666666666
 40
0.6666666666666666
 40
0.6666666666666666
 40
0.7777777777777778
 40
0.7777777777777778
 40
0.7777777777777778
 40
0.7777777777777778
 40
1.0
 40
1.0
 40
1.0
 40
1.0
 10
-56.7454
 20
124.869
 30
0.0
 10
-56.1608
 20
125.1235
 30
0.0
 10
-55.6267
 20
125.5048
 30
0.0
 10
-55.1564
 20
126.0133
 30
0.0
 10
-55.1564
 20
126.0133
 30
0.0
 10
-55.1564
 20
126.0133
 30
0.0
 10
-42.8741
 20
126.0133
 30
0.0
 10
-42.8741
 20
126.0133
 30
0.0
 10
-42.8741
 20
126.0133
 30
0.0
 10
-42.8741
 20
126.0133
 30
0.0
 10
-42.8741
 20
116.6049
 30
0.0
 10
-42.8741
 20
116.6049
 30
0.0
 10
-42.8741
 20
116.6049
 30
0.0
 10
-44.0821
 20
115.9691
 30
0.0
 10
-45.0736
 20
114.9517
 30
0.0
 10
-45.6586
 20
113.8074
 30
0.0
 10
-45.6586
 20
113.8074
 30
0.0
 10
-46.3833
 20
115.3334
 30
0.0
 10
-47.7183
 20
116.4777
 30
0.0
 10
-49.3459
 20
116.9862
 30
0.0
 10
-49.3459
 20
116.9862
 30
0.0
 10
-49.3459
 20
116.9862
 30
0.0
 10
-49.3329
 20
121.1821
 30
0.0
 10
-49.3329
 20
121.1821
 30
0.0
 10
-49.3329
 20
121.1821
 30
0.0
 10
-49.3329
 20
121.1821
 30
0.0
 10
-53.4906
 20
121.1821
 30
0.0
 10
-53.4906
 20
121.1821
 30
0.0
 10
-53.4906
 20
121.1821
 30
0.0
 10
-54.0247
 20
122.8349
 30
0.0
 10
-55.2198
 20
124.106
 30
0.0
 10
-56.7454
 20
124.869
 30
0.0
  0
SPLINE
  5
51
330
1F
100
AcDbEntity
  8
layer 1
 62
     7
100
AcDbSpline
210
0.0
220
0.0
230
1.0
 70
    11
 71
     3
 72
    48
 73
    44
 74
     0
 42
0.0000000001
 43
0.0000000001
 12
1.0
 22
0.0
 32
0.0
 13
1.0
 23
0.0
 33
0.0
 40
0.0
 40
0.0
 40
0.0
 40
0.0
 40
0.0833333333333333
 40
0.0833333333333333
 40
0.0833333333333333
 40
0.0833333333333333
 40
0.1666666666666667
 40
0.1666666666666667
 40
0.1666666666666667
 40
0.1666666666666667
 40
0.25
 40
0.25
 40
0.25
 40
0.25
 40
0.3333333333333333
 40
0.3333333333333333
 40
0.3333333333333333
 40
0.3333333333333333
 40
0.4166666666666667
 40
0.4166666666666667
 40
0.4166666666666667
 40
0.4166666666666667
 40
0.5
 40
0.5
 40
0.5
 40
0.5
 40
0.5833333333333334
 40
0.5833333333333334
 40
0.5833333333333334
 40
0.5833333333333334
 40
0.6666666666666666
 40
0.6666666666666666
 40
0.6666666666666666
 40
0.6666666666666666
 40
0.75
 40
0.75
 40
0.75
 40
0.75
 40
0.8333333333333334
 40
0.8333333333333334
 40
0.8333333333333334
 40
0.8333333333333334
 40
1.0
 40
1.0
 40
1.0
 40
1.0
 10
-90.0697
 20
124.869
 30
0.0
 10
-89.4722
 20
125.1235
 30
0.0
 10
-88.9384
 20
125.5048
 30
0.0
 10
-88.4677
 20
126.0133
 30
0.0
 10
-88.4677
 20
126.0133
 30
0.0
 10
-88.4677
 20
126.0133
 30
0.0
 10
-69.4472
 20
126.0133
 30
0.0
 10
-69.4472
 20
126.0133
 30
0.0
 10
-69.4472
 20
126.0133
 30
0.0
 10
-68.9769
 20
125.5048
 30
0.0
 10
-68.4428
 20
125.1235
 30
0.0
 10
-67.8452
 20
124.869
 30
0.0
 10
-67.8452
 20
124.869
 30
0.0
 10
-69.3835
 20
124.106
 30
0.0
 10
-70.5659
 20
122.8349
 30
0.0
 10
-71.1127
 20
121.1821
 30
0.0
 10
-71.1127
 20
121.1821
 30
0.0
 10
-71.1127
 20
121.1821
 30
0.0
 10
-75.283
 20
121.1821
 30
0.0
 10
-75.283
 20
121.1821
 30
0.0
 10
-75.283
 20
121.1821
 30
0.0
 10
-75.283
 20
121.1821
 30
0.0
 10
-75.2959
 20
116.9862
 30
0.0
 10
-75.2959
 20
116.9862
 30
0.0
 10
-75.2959
 20
116.9862
 30
0.0
 10
-76.9232
 20
116.4777
 30
0.0
 10
-78.2455
 20
115.3334
 30
0.0
 10
-78.9703
 20
113.8074
 30
0.0
 10
-78.9703
 20
113.8074
 30
0.0
 10
-79.7077
 20
115.3334
 30
0.0
 10
-81.03
 20
116.4777
 30
0.0
 10
-82.6572
 20
116.9862
 30
0.0
 10
-82.6572
 20
116.9862
 30
0.0
 10
-82.6572
 20
116.9862
 30
0.0
 10
-82.6572
 20
121.1821
 30
0.0
 10
-82.6572
 20
121.1821
 30
0.0
 10
-82.6572
 20
121.1821
 30
0.0
 10
-82.6572
 20
121.1821
 30
0.0
 10
-86.8149
 20
121.1821
 30
0.0
 10
-86.8149
 20
121.1821
 30
0.0
 10
-86.8149
 20
121.1821
 30
0.0
 10
-87.349
 20
122.8349
 30
0.0
 10
-88.5315
 20
124.106
 30
0.0
 10
-90.0697
 20
124.869
 30
0.0
  0
SPLINE
  5
52
330
1F
100
AcDbEntity
  8
layer 1
 62
     7
100
AcDbSpline
210
0.0
220
0.0
230
1.0
 70
    11
 71
     3
 72
    68
 73
    64
 74
     0
 42
0.0000000001
 43
0.0000000001
 12
1.0
 22
0.0
 32
0.0
 13
1.0
 23
0.0
 33
0.0
 40
0.0
 40
0.0
 40
0.0
 40
0.0
 40
0.0588235294117647
 40
0.0588235294117647
 40
0.0588235294117647
 40
0.0588235294117647
 40
0.1176470588235294
 40
0.1176470588235294
 40
0.1176470588235294
 40
0.1176470588235294
 40
0.1764705882352941
 40
0.1764705882352941
 40
0.1764705882352941
 40
0.1764705882352941
 40
0.2352941176470588
 40
0.2352941176470588
 40
0.2352941176470588
 40
0.2352941176470588
 40
0.2941176470588235
 40
0.2941176470588235
 40
0.2941176470588235
 40
0.2941176470588235
 40
0.3529411764705883
 40
0.3529411764705883
 40
0.3529411764705883
 40
0.3529411764705883
 40
0.4117647058823529
 40
0.4117647058823529
 40
0.4117647058823529
 40
0.4117647058823529
 40
0.4705882352941176
 40
0.4705882352941176
 40
0.4705882352941176
 40
0.4705882352941176
 40
0.5294117647058824
 40
0.5294117647058824
 40
0.5294117647058824
 40
0.5294117647058824
 40
0.5882352941176471
 40
0.5882352941176471
 40
0.5882352941176471
 40
0.5882352941176471
 40
0.6470588235294118
 40
0.6470588235294118
 40
0.6470588235294118
 40
0.6470588235294118
 40
0.7058823529411765
 40
0.7058823529411765
 40
0.7058823529411765
 40
0.7058823529411765
 40
0.7647058823529411
 40
0.7647058823529411
 40
0.7647058823529411
 40
0.7647058823529411
 40
0.8235294117647058
 40
0.8235294117647058
 40
0.8235294117647058
 40
0.8235294117647058
 40
0.8823529411764706
 40
0.8823529411764706
 40
0.8823529411764706
 40
0.8823529411764706
 40
1.0
 40
1.0
 40
1.0
 40
1.0
 10
-90.0697
 20
91.5573
 30
0.0
 10
-88.5315
 20
92.3203
 30
0.0
 10
-87.349
 20
93.5918
 30
0.0
 10
-86.8149
 20
95.2446
 30
0.0
 10
-86.8149
 20
95.2446
 30
0.0
 10
-86.8149
 20
95.2446
 30
0.0
 10
-82.6572
 20
95.2446
 30
0.0
 10
-82.6572
 20
95.2446
 30
0.0
 10
-82.6572
 20
95.2446
 30
0.0
 10
-82.6572
 20
95.2446
 30
0.0
 10
-82.6572
 20
99.4405
 30
0.0
 10
-82.6572
 20
99.4405
 30
0.0
 10
-82.6572
 20
99.4405
 30
0.0
 10
-81.03
 20
99.949
 30
0.0
 10
-79.7077
 20
101.0933
 30
0.0
 10
-78.9703
 20
102.6189
 30
0.0
 10
-78.9703
 20
102.6189
 30
0.0
 10
-78.2455
 20
101.0933
 30
0.0
 10
-76.9232
 20
99.949
 30
0.0
 10
-75.2959
 20
99.4405
 30
0.0
 10
-75.2959
 20
99.4405
 30
0.0
 10
-75.2959
 20
99.4405
 30
0.0
 10
-75.2959
 20
95.2446
 30
0.0
 10
-75.2959
 20
95.2446
 30
0.0
 10
-75.2959
 20
95.2446
 30
0.0
 10
-75.2959
 20
95.2446
 30
0.0
 10
-71.1127
 20
95.2446
 30
0.0
 10
-71.1127
 20
95.2446
 30
0.0
 10
-71.1127
 20
95.2446
 30
0.0
 10
-70.5659
 20
93.5918
 30
0.0
 10
-69.3835
 20
92.3203
 30
0.0
 10
-67.8452
 20
91.5573
 30
0.0
 10
-67.8452
 20
91.5573
 30
0.0
 10
-69.3835
 20
90.7947
 30
0.0
 10
-70.5659
 20
89.5232
 30
0.0
 10
-71.1127
 20
87.8703
 30
0.0
 10
-71.1127
 20
87.8703
 30
0.0
 10
-71.1127
 20
87.8703
 30
0.0
 10
-75.283
 20
87.8703
 30
0.0
 10
-75.283
 20
87.8703
 30
0.0
 10
-75.283
 20
87.8703
 30
0.0
 10
-75.283
 20
87.8703
 30
0.0
 10
-75.2959
 20
83.6745
 30
0.0
 10
-75.2959
 20
83.6745
 30
0.0
 10
-75.2959
 20
83.6745
 30
0.0
 10
-76.9232
 20
83.1659
 30
0.0
 10
-78.2455
 20
82.0217
 30
0.0
 10
-78.9703
 20
80.496
 30
0.0
 10
-78.9703
 20
80.496
 30
0.0
 10
-79.7077
 20
82.0217
 30
0.0
 10
-81.03
 20
83.1659
 30
0.0
 10
-82.6572
 20
83.6745
 30
0.0
 10
-82.6572
 20
83.6745
 30
0.0
 10
-82.6572
 20
83.6745
 30
0.0
 10
-82.6572
 20
87.8703
 30
0.0
 10
-82.6572
 20
87.8703
 30
0.0
 10
-82.6572
 20
87.8703
 30
0.0
 10
-82.6572
 20
87.8703
 30
0.0
 10
-86.8149
 20
87.8703
 30
0.0
 10
-86.8149
 20
87.8703
 30
0.0
 10
-86.8149
 20
87.8703
 30
0.0
 10
-87.349
 20
89.5232
 30
0.0
 10
-88.5315
 20
90.7947
 30
0.0
 10
-90.0697
 20
91.5573
 30
0.0
  0
SPLINE
  5
53
330
1F
100
AcDbEntity
  8
layer 1
 62
     7
100
AcDbSpline
210
0.0
220
0.0
230
1.0
 70
    11
 71
     3
 72
    68
 73
    64
 74
     0
 42
0.0000000001
 43
0.0000000001
 12
1.0
 22
0.0
 32
0.0
 13
1.0
 23
0.0
 33
0.0
 40
0.0
 40
0.0
 40
0.0
 40
0.0
 40
0.0588235294117647
 40
0.0588235294117647
 40
0.0588235294117647
 40
0.0588235294117647
 40
0.1176470588235294
 40
0.1176470588235294
 40
0.1176470588235294
 40
0.1176470588235294
 40
0.1764705882352941
 40
0.1764705882352941
 40
0.1764705882352941
 40
0.1764705882352941
 40
0.2352941176470588
 40
0.2352941176470588
 40
0.2352941176470588
 40
0.2352941176470588
 40
0.2941176470588235
 40
0.2941176470588235
 40
0.2941176470588235
 40
0.2941176470588235
 40
0.3529411764705883
 40
0.3529411764705883
 40
0.3529411764705883
 40
0.3529411764705883
 40
0.4117647058823529
 40
0.4117647058823529
 40
0.4117647058823529
 40
0.4117647058823529
 40
0.4705882352941176
 40
0.4705882352941176
 40
0.4705882352941176
 40
0.4705882352941176
 40
0.5294117647058824
 40
0.5294117647058824
 40
0.5294117647058824
 40
0.5294117647058824
 40
0.5882352941176471
 40
0.5882352941176471
 40
0.5882352941176471
 40
0.5882352941176471
 40
0.6470588235294118
 40
0.6470588235294118
 40
0.6470588235294118
 40
0.6470588235294118
 40
0.7058823529411765
 40
0.7058823529411765
 40
0.7058823529411765
 40
0.7058823529411765
 40
0.7647058823529411
 40
0.7647058823529411
 40
0.7647058823529411
 40
0.7647058823529411
 40
0.8235294117647058
 40
0.8235294117647058
 40
0.8235294117647058
 40
0.8235294117647058
 40
0.8823529411764706
 40
0.8823529411764706
 40
0.8823529411764706
 40
0.8823529411764706
 40
1.0
 40
1.0
 40
1.0
 40
1.0
 10
-91.4303
 20
116.096
 30
0.0
 10
-91.4303
 20
116.096
 30
0.0
 10
-87.0694
 20
116.096
 30
0.0
 10
-87.0694
 20
116.096
 30
0.0
 10
-87.0694
 20
116.096
 30
0.0
 10
-87.0694
 20
116.096
 30
0.0
 10
-87.0694
 20
111.7733
 30
0.0
 10
-87.0694
 20
111.7733
 30
0.0
 10
-87.0694
 20
111.7733
 30
0.0
 10
-84.9458
 20
111.7733
 30
0.0
 10
-83.217
 20
109.9932
 30
0.0
 10
-83.217
 20
107.8319
 30
0.0
 10
-83.217
 20
107.8319
 30
0.0
 10
-83.217
 20
105.7974
 30
0.0
 10
-84.9458
 20
104.0177
 30
0.0
 10
-87.0694
 20
104.0177
 30
0.0
 10
-87.0694
 20
104.0177
 30
0.0
 10
-87.0694
 20
104.0177
 30
0.0
 10
-87.0694
 20
99.6946
 30
0.0
 10
-87.0694
 20
99.6946
 30
0.0
 10
-87.0694
 20
99.6946
 30
0.0
 10
-87.0694
 20
99.6946
 30
0.0
 10
-91.4303
 20
99.6946
 30
0.0
 10
-91.4303
 20
99.6946
 30
0.0
 10
-91.4303
 20
99.6946
 30
0.0
 10
-91.4303
 20
97.5332
 30
0.0
 10
-93.1595
 20
95.7532
 30
0.0
 10
-95.2827
 20
95.7532
 30
0.0
 10
-95.2827
 20
95.7532
 30
0.0
 10
-97.4188
 20
95.7532
 30
0.0
 10
-99.1351
 20
97.5332
 30
0.0
 10
-99.1351
 20
99.6946
 30
0.0
 10
-99.1351
 20
99.6946
 30
0.0
 10
-99.1351
 20
99.6946
 30
0.0
 10
-103.5216
 20
99.6946
 30
0.0
 10
-103.5216
 20
99.6946
 30
0.0
 10
-103.5216
 20
99.6946
 30
0.0
 10
-103.5216
 20
99.6946
 30
0.0
 10
-103.5216
 20
104.0177
 30
0.0
 10
-103.5216
 20
104.0177
 30
0.0
 10
-103.5216
 20
104.0177
 30
0.0
 10
-105.6833
 20
104.0177
 30
0.0
 10
-107.3361
 20
105.7974
 30
0.0
 10
-107.3361
 20
107.8319
 30
0.0
 10
-107.3361
 20
107.8319
 30
0.0
 10
-107.3361
 20
109.9932
 30
0.0
 10
-105.6833
 20
111.7733
 30
0.0
 10
-103.5216
 20
111.7733
 30
0.0
 10
-103.5216
 20
111.7733
 30
0.0
 10
-103.5216
 20
111.7733
 30
0.0
 10
-103.5216
 20
116.096
 30
0.0
 10
-103.5216
 20
116.096
 30
0.0
 10
-103.5216
 20
116.096
 30
0.0
 10
-103.5216
 20
116.096
 30
0.0
 10
-99.1351
 20
116.096
 30
0.0
 10
-99.1351
 20
116.096
 30
0.0
 10
-99.1351
 20
116.096
 30
0.0
 10
-99.1351
 20
118.2577
 30
0.0
 10
-97.4188
 20
119.9105
 30
0.0
 10
-95.2827
 20
119.9105
 30
0.0
 10
-95.2827
 20
119.9105
 30
0.0
 10
-93.1595
 20
119.9105
 30
0.0
 10
-91.4303
 20
118.2577
 30
0.0
 10
-91.4303
 20
116.096
 30
0.0
  0
SPLINE
  5
54
330
1F
100
AcDbEntity
  8
layer 1
 62
     7
100
AcDbSpline
210
0.0
220
0.0
230
1.0
 70
    11
 71
     3
 72
    68
 73
    64
 74
     0
 42
0.0000000001
 43
0.0000000001
 12
1.0
 22
0.0
 32
0.0
 13
1.0
 23
0.0
 33
0.0
 40
0.0
 40
0.0
 40
0.0
 40
0.0
 40
0.0588235294117647
 40
0.0588235294117647
 40
0.0588235294117647
 40
0.0588235294117647
 40
0.1176470588235294
 40
0.1176470588235294
 40
0.1176470588235294
 40
0.1176470588235294
 40
0.1764705882352941
 40
0.1764705882352941
 40
0.1764705882352941
 40
0.1764705882352941
 40
0.2352941176470588
 40
0.2352941176470588
 40
0.2352941176470588
 40
0.2352941176470588
 40
0.2941176470588235
 40
0.2941176470588235
 40
0.2941176470588235
 40
0.2941176470588235
 40
0.3529411764705883
 40
0.3529411764705883
 40
0.3529411764705883
 40
0.3529411764705883
 40
0.4117647058823529
 40
0.4117647058823529
 40
0.4117647058823529
 40
0.4117647058823529
 40
0.4705882352941176
 40
0.4705882352941176
 40
0.4705882352941176
 40
0.4705882352941176
 40
0.5294117647058824
 40
0.5294117647058824
 40
0.5294117647058824
 40
0.5294117647058824
 40
0.5882352941176471
 40
0.5882352941176471
 40
0.5882352941176471
 40
0.5882352941176471
 40
0.6470588235294118
 40
0.6470588235294118
 40
0.6470588235294118
 40
0.6470588235294118
 40
0.7058823529411765
 40
0.7058823529411765
 40
0.7058823529411765
 40
0.7058823529411765
 40
0.7647058823529411
 40
0.7647058823529411
 40
0.7647058823529411
 40
0.7647058823529411
 40
0.8235294117647058
 40
0.8235294117647058
 40
0.8235294117647058
 40
0.8235294117647058
 40
0.8823529411764706
 40
0.8823529411764706
 40
0.8823529411764706
 40
0.8823529411764706
 40
1.0
 40
1.0
 40
1.0
 40
1.0
 10
-90.0697
 20
58.2459
 30
0.0
 10
-88.5315
 20
59.0086
 30
0.0
 10
-87.349
 20
60.2801
 30
0.0
 10
-86.8149
 20
61.9329
 30
0.0
 10
-86.8149
 20
61.9329
 30
0.0
 10
-86.8149
 20
61.9329
 30
0.0
 10
-82.6572
 20
61.9329
 30
0.0
 10
-82.6572
 20
61.9329
 30
0.0
 10
-82.6572
 20
61.9329
 30
0.0
 10
-82.6572
 20
61.9329
 30
0.0
 10
-82.6572
 20
66.1288
 30
0.0
 10
-82.6572
 20
66.1288
 30
0.0
 10
-82.6572
 20
66.1288
 30
0.0
 10
-81.03
 20
66.6373
 30
0.0
 10
-79.7077
 20
67.7816
 30
0.0
 10
-78.9703
 20
69.3072
 30
0.0
 10
-78.9703
 20
69.3072
 30
0.0
 10
-78.2455
 20
67.7816
 30
0.0
 10
-76.9232
 20
66.6373
 30
0.0
 10
-75.2959
 20
66.1288
 30
0.0
 10
-75.2959
 20
66.1288
 30
0.0
 10
-75.2959
 20
66.1288
 30
0.0
 10
-75.2959
 20
61.9329
 30
0.0
 10
-75.2959
 20
61.9329
 30
0.0
 10
-75.2959
 20
61.9329
 30
0.0
 10
-75.2959
 20
61.9329
 30
0.0
 10
-71.1127
 20
61.9329
 30
0.0
 10
-71.1127
 20
61.9329
 30
0.0
 10
-71.1127
 20
61.9329
 30
0.0
 10
-70.5659
 20
60.2801
 30
0.0
 10
-69.3835
 20
59.0086
 30
0.0
 10
-67.8452
 20
58.2459
 30
0.0
 10
-67.8452
 20
58.2459
 30
0.0
 10
-69.3835
 20
57.483
 30
0.0
 10
-70.5659
 20
56.2115
 30
0.0
 10
-71.1127
 20
54.5586
 30
0.0
 10
-71.1127
 20
54.5586
 30
0.0
 10
-71.1127
 20
54.5586
 30
0.0
 10
-75.283
 20
54.5586
 30
0.0
 10
-75.283
 20
54.5586
 30
0.0
 10
-75.283
 20
54.5586
 30
0.0
 10
-75.283
 20
54.5586
 30
0.0
 10
-75.2959
 20
50.3628
 30
0.0
 10
-75.2959
 20
50.3628
 30
0.0
 10
-75.2959
 20
50.3628
 30
0.0
 10
-76.9232
 20
49.8542
 30
0.0
 10
-78.2455
 20
48.7099
 30
0.0
 10
-78.9703
 20
47.1843
 30
0.0
 10
-78.9703
 20
47.1843
 30
0.0
 10
-79.7077
 20
48.7099
 30
0.0
 10
-81.03
 20
49.8542
 30
0.0
 10
-82.6572
 20
50.3628
 30
0.0
 10
-82.6572
 20
50.3628
 30
0.0
 10
-82.6572
 20
50.3628
 30
0.0
 10
-82.6572
 20
54.5586
 30
0.0
 10
-82.6572
 20
54.5586
 30
0.0
 10
-82.6572
 20
54.5586
 30
0.0
 10
-82.6572
 20
54.5586
 30
0.0
 10
-86.8149
 20
54.5586
 30
0.0
 10
-86.8149
 20
54.5586
 30
0.0
 10
-86.8149
 20
54.5586
 30
0.0
 10
-87.349
 20
56.2115
 30
0.0
 10
-88.5315
 20
57.483
 30
0.0
 10
-90.0697
 20
58.2459
 30
0.0
  0
SPLINE
  5
55
330
1F
100
AcDbEntity
  8
layer 1
 62
     7
100
AcDbSpline
210
0.0
220
0.0
230
1.0
 70
    11
 71
     3
 72
    68
 73
    64
 74
     0
 42
0.0000000001
 43
0.0000000001
 12
1.0
 22
0.0
 32
0.0
 13
1.0
 23
0.0
 33
0.0
 40
0.0
 40
0.0
 40
0.0
 40
0.0
 40
0.0588235294117647
 40
0.0588235294117647
 40
0.0588235294117647
 40
0.0588235294117647
 40
0.1176470588235294
 40
0.1176470588235294
 40
0.1176470588235294
 40
0.1176470588235294
 40
0.1764705882352941
 40
0.1764705882352941
 40
0.1764705882352941
 40
0.1764705882352941
 40
0.2352941176470588
 40
0.2352941176470588
 40
0.2352941176470588
 40
0.2352941176470588
 40
0.2941176470588235
 40
0.2941176470588235
 40
0.2941176470588235
 40
0.2941176470588235
 40
0.3529411764705883
 40
0.3529411764705883
 40
0.3529411764705883
 40
0.3529411764705883
 40
0.4117647058823529
 40
0.4117647058823529
 40
0.4117647058823529
 40
0.4117647058823529
 40
0.4705882352941176
 40
0.4705882352941176
 40
0.4705882352941176
 40
0.4705882352941176
 40
0.5294117647058824
 40
0.5294117647058824
 40
0.5294117647058824
 40
0.5294117647058824
 40
0.5882352941176471
 40
0.5882352941176471
 40
0.5882352941176471
 40
0.5882352941176471
 40
0.6470588235294118
 40
0.6470588235294118
 40
0.6470588235294118
 40
0.6470588235294118
 40
0.7058823529411765
 40
0.7058823529411765
 40
0.7058823529411765
 40
0.7058823529411765
 40
0.7647058823529411
 40
0.7647058823529411
 40
0.7647058823529411
 40
0.7647058823529411
 40
0.8235294117647058
 40
0.8235294117647058
 40
0.8235294117647058
 40
0.8235294117647058
 40
0.8823529411764706
 40
0.8823529411764706
 40
0.8823529411764706
 40
0.8823529411764706
 40
1.0
 40
1.0
 40
1.0
 40
1.0
 10
-91.4303
 20
82.7846
 30
0.0
 10
-91.4303
 20
82.7846
 30
0.0
 10
-87.0694
 20
82.7846
 30
0.0
 10
-87.0694
 20
82.7846
 30
0.0
 10
-87.0694
 20
82.7846
 30
0.0
 10
-87.0694
 20
82.7846
 30
0.0
 10
-87.0694
 20
78.3343
 30
0.0
 10
-87.0694
 20
78.3343
 30
0.0
 10
-87.0694
 20
78.3343
 30
0.0
 10
-84.9458
 20
78.3343
 30
0.0
 10
-83.217
 20
76.6815
 30
0.0
 10
-83.217
 20
74.5201
 30
0.0
 10
-83.217
 20
74.5201
 30
0.0
 10
-83.217
 20
72.3588
 30
0.0
 10
-84.9458
 20
70.7059
 30
0.0
 10
-87.0694
 20
70.7059
 30
0.0
 10
-87.0694
 20
70.7059
 30
0.0
 10
-87.0694
 20
70.7059
 30
0.0
 10
-87.0694
 20
66.3829
 30
0.0
 10
-87.0694
 20
66.3829
 30
0.0
 10
-87.0694
 20
66.3829
 30
0.0
 10
-87.0694
 20
66.3829
 30
0.0
 10
-91.4303
 20
66.3829
 30
0.0
 10
-91.4303
 20
66.3829
 30
0.0
 10
-91.4303
 20
66.3829
 30
0.0
 10
-91.4303
 20
64.2215
 30
0.0
 10
-93.1595
 20
62.4414
 30
0.0
 10
-95.2827
 20
62.4414
 30
0.0
 10
-95.2827
 20
62.4414
 30
0.0
 10
-97.4188
 20
62.4414
 30
0.0
 10
-99.1351
 20
64.2215
 30
0.0
 10
-99.1351
 20
66.3829
 30
0.0
 10
-99.1351
 20
66.3829
 30
0.0
 10
-99.1351
 20
66.3829
 30
0.0
 10
-103.5216
 20
66.3829
 30
0.0
 10
-103.5216
 20
66.3829
 30
0.0
 10
-103.5216
 20
66.3829
 30
0.0
 10
-103.5216
 20
66.3829
 30
0.0
 10
-103.5216
 20
70.7059
 30
0.0
 10
-103.5216
 20
70.7059
 30
0.0
 10
-103.5216
 20
70.7059
 30
0.0
 10
-105.6833
 20
70.7059
 30
0.0
 10
-107.3361
 20
72.3588
 30
0.0
 10
-107.3361
 20
74.5201
 30
0.0
 10
-107.3361
 20
74.5201
 30
0.0
 10
-107.3361
 20
76.6815
 30
0.0
 10
-105.6833
 20
78.3343
 30
0.0
 10
-103.5216
 20
78.3343
 30
0.0
 10
-103.5216
 20
78.3343
 30
0.0
 10
-103.5216
 20
78.3343
 30
0.0
 10
-103.5216
 20
82.7846
 30
0.0
 10
-103.5216
 20
82.7846
 30
0.0
 10
-103.5216
 20
82.7846
 30
0.0
 10
-103.5216
 20
82.7846
 30
0.0
 10
-99.1351
 20
82.7846
 30
0.0
 10
-99.1351
 20
82.7846
 30
0.0
 10
-99.1351
 20
82.7846
 30
0.0
 10
-99.1351
 20
84.946
 30
0.0
 10
-97.4188
 20
86.5988
 30
0.0
 10
-95.2827
 20
86.5988
 30
0.0
 10
-95.2827
 20
86.5988
 30
0.0
 10
-93.1595
 20
86.5988
 30
0.0
 10
-91.4303
 20
84.946
 30
0.0
 10
-91.4303
 20
82.7846
 30
0.0
  0
SPLINE
  5
56
330
1F
100
AcDbEntity
  8
layer 1
 62
     7
100
AcDbSpline
210
0.0
220
0.0
230
1.0
 70
    11
 71
     3
 72
    68
 73
    64
 74
     0
 42
0.0000000001
 43
0.0000000001
 12
1.0
 22
0.0
 32
0.0
 13
1.0
 23
0.0
 33
0.0
 40
0.0
 40
0.0
 40
0.0
 40
0.0
 40
0.0588235294117647
 40
0.0588235294117647
 40
0.0588235294117647
 40
0.0588235294117647
 40
0.1176470588235294
 40
0.1176470588235294
 40
0.1176470588235294
 40
0.1176470588235294
 40
0.1764705882352941
 40
0.1764705882352941
 40
0.1764705882352941
 40
0.1764705882352941
 40
0.2352941176470588
 40
0.2352941176470588
 40
0.2352941176470588
 40
0.2352941176470588
 40
0.2941176470588235
 40
0.2941176470588235
 40
0.2941176470588235
 40
0.2941176470588235
 40
0.3529411764705883
 40
0.3529411764705883
 40
0.3529411764705883
 40
0.3529411764705883
 40
0.4117647058823529
 40
0.4117647058823529
 40
0.4117647058823529
 40
0.4117647058823529
 40
0.4705882352941176
 40
0.4705882352941176
 40
0.4705882352941176
 40
0.4705882352941176
 40
0.5294117647058824
 40
0.5294117647058824
 40
0.5294117647058824
 40
0.5294117647058824
 40
0.5882352941176471
 40
0.5882352941176471
 40
0.5882352941176471
 40
0.5882352941176471
 40
0.6470588235294118
 40
0.6470588235294118
 40
0.6470588235294118
 40
0.6470588235294118
 40
0.7058823529411765
 40
0.7058823529411765
 40
0.7058823529411765
 40
0.7058823529411765
 40
0.7647058823529411
 40
0.7647058823529411
 40
0.7647058823529411
 40
0.7647058823529411
 40
0.8235294117647058
 40
0.8235294117647058
 40
0.8235294117647058
 40
0.8235294117647058
 40
0.8823529411764706
 40
0.8823529411764706
 40
0.8823529411764706
 40
0.8823529411764706
 40
1.0
 40
1.0
 40
1.0
 40
1.0
 10
-90.0697
 20
24.9342
 30
0.0
 10
-88.5315
 20
25.6969
 30
0.0
 10
-87.349
 20
26.9684
 30
0.0
 10
-86.8149
 20
28.6212
 30
0.0
 10
-86.8149
 20
28.6212
 30
0.0
 10
-86.8149
 20
28.6212
 30
0.0
 10
-82.6572
 20
28.6212
 30
0.0
 10
-82.6572
 20
28.6212
 30
0.0
 10
-82.6572
 20
28.6212
 30
0.0
 10
-82.6572
 20
28.6212
 30
0.0
 10
-82.6572
 20
32.8171
 30
0.0
 10
-82.6572
 20
32.8171
 30
0.0
 10
-82.6572
 20
32.8171
 30
0.0
 10
-81.03
 20
33.3256
 30
0.0
 10
-79.7077
 20
34.4699
 30
0.0
 10
-78.9703
 20
35.9955
 30
0.0
 10
-78.9703
 20
35.9955
 30
0.0
 10
-78.2455
 20
34.4699
 30
0.0
 10
-76.9232
 20
33.3256
 30
0.0
 10
-75.2959
 20
32.8171
 30
0.0
 10
-75.2959
 20
32.8171
 30
0.0
 10
-75.2959
 20
32.8171
 30
0.0
 10
-75.2959
 20
28.6212
 30
0.0
 10
-75.2959
 20
28.6212
 30
0.0
 10
-75.2959
 20
28.6212
 30
0.0
 10
-75.2959
 20
28.6212
 30
0.0
 10
-71.1127
 20
28.6212
 30
0.0
 10
-71.1127
 20
28.6212
 30
0.0
 10
-71.1127
 20
28.6212
 30
0.0
 10
-70.5659
 20
26.9684
 30
0.0
 10
-69.3835
 20
25.6969
 30
0.0
 10
-67.8452
 20
24.9342
 30
0.0
 10
-67.8452
 20
24.9342
 30
0.0
 10
-69.3835
 20
24.1712
 30
0.0
 10
-70.5659
 20
22.8997
 30
0.0
 10
-71.1127
 20
21.2469
 30
0.0
 10
-71.1127
 20
21.2469
 30
0.0
 10
-71.1127
 20
21.2469
 30
0.0
 10
-75.283
 20
21.2469
 30
0.0
 10
-75.283
 20
21.2469
 30
0.0
 10
-75.283
 20
21.2469
 30
0.0
 10
-75.283
 20
21.2469
 30
0.0
 10
-75.2959
 20
17.0514
 30
0.0
 10
-75.2959
 20
17.0514
 30
0.0
 10
-75.2959
 20
17.0514
 30
0.0
 10
-76.9232
 20
16.5425
 30
0.0
 10
-78.2455
 20
15.3982
 30
0.0
 10
-78.9703
 20
13.7454
 30
0.0
 10
-78.9703
 20
13.7454
 30
0.0
 10
-79.7077
 20
15.3982
 30
0.0
 10
-81.03
 20
16.5425
 30
0.0
 10
-82.6572
 20
17.0514
 30
0.0
 10
-82.6572
 20
17.0514
 30
0.0
 10
-82.6572
 20
17.0514
 30
0.0
 10
-82.6572
 20
21.2469
 30
0.0
 10
-82.6572
 20
21.2469
 30
0.0
 10
-82.6572
 20
21.2469
 30
0.0
 10
-82.6572
 20
21.2469
 30
0.0
 10
-86.8149
 20
21.2469
 30
0.0
 10
-86.8149
 20
21.2469
 30
0.0
 10
-86.8149
 20
21.2469
 30
0.0
 10
-87.349
 20
22.8997
 30
0.0
 10
-88.5315
 20
24.1712
 30
0.0
 10
-90.0697
 20
24.9342
 30
0.0
  0
SPLINE
  5
57
330
1F
100
AcDbEntity
  8
layer 1
 62
     7
100
AcDbSpline
210
0.0
220
0.0
230
1.0
 70
    11
 71
     3
 72
    68
 73
    64
 74
     0
 42
0.0000000001
 43
0.0000000001
 12
1.0
 22
0.0
 32
0.0
 13
1.0
 23
0.0
 33
0.0
 40
0.0
 40
0.0
 40
0.0
 40
0.0
 40
0.0588235294117647
 40
0.0588235294117647
 40
0.0588235294117647
 40
0.0588235294117647
 40
0.1176470588235294
 40
0.1176470588235294
 40
0.1176470588235294
 40
0.1176470588235294
 40
0.1764705882352941
 40
0.1764705882352941
 40
0.1764705882352941
 40
0.1764705882352941
 40
0.2352941176470588
 40
0.2352941176470588
 40
0.2352941176470588
 40
0.2352941176470588
 40
0.2941176470588235
 40
0.2941176470588235
 40
0.2941176470588235
 40
0.2941176470588235
 40
0.3529411764705883
 40
0.3529411764705883
 40
0.3529411764705883
 40
0.3529411764705883
 40
0.4117647058823529
 40
0.4117647058823529
 40
0.4117647058823529
 40
0.4117647058823529
 40
0.4705882352941176
 40
0.4705882352941176
 40
0.4705882352941176
 40
0.4705882352941176
 40
0.5294117647058824
 40
0.5294117647058824
 40
0.5294117647058824
 40
0.5294117647058824
 40
0.5882352941176471
 40
0.5882352941176471
 40
0.5882352941176471
 40
0.5882352941176471
 40
0.6470588235294118
 40
0.6470588235294118
 40
0.6470588235294118
 40
0.6470588235294118
 40
0.7058823529411765
 40
0.7058823529411765
 40
0.7058823529411765
 40
0.7058823529411765
 40
0.7647058823529411
 40
0.7647058823529411
 40
0.7647058823529411
 40
0.7647058823529411
 40
0.8235294117647058
 40
0.8235294117647058
 40
0.8235294117647058
 40
0.8235294117647058
 40
0.8823529411764706
 40
0.8823529411764706
 40
0.8823529411764706
 40
0.8823529411764706
 40
1.0
 40
1.0
 40
1.0
 40
1.0
 10
-91.4303
 20
49.4729
 30
0.0
 10
-91.4303
 20
49.4729
 30
0.0
 10
-87.0694
 20
49.4729
 30
0.0
 10
-87.0694
 20
49.4729
 30
0.0
 10
-87.0694
 20
49.4729
 30
0.0
 10
-87.0694
 20
49.4729
 30
0.0
 10
-87.0694
 20
45.023
 30
0.0
 10
-87.0694
 20
45.023
 30
0.0
 10
-87.0694
 20
45.023
 30
0.0
 10
-84.9458
 20
45.023
 30
0.0
 10
-83.217
 20
43.3701
 30
0.0
 10
-83.217
 20
41.2084
 30
0.0
 10
-83.217
 20
41.2084
 30
0.0
 10
-83.217
 20
39.0471
 30
0.0
 10
-84.9458
 20
37.3942
 30
0.0
 10
-87.0694
 20
37.3942
 30
0.0
 10
-87.0694
 20
37.3942
 30
0.0
 10
-87.0694
 20
37.3942
 30
0.0
 10
-87.0694
 20
33.0715
 30
0.0
 10
-87.0694
 20
33.0715
 30
0.0
 10
-87.0694
 20
33.0715
 30
0.0
 10
-87.0694
 20
33.0715
 30
0.0
 10
-91.4303
 20
32.9443
 30
0.0
 10
-91.4303
 20
32.9443
 30
0.0
 10
-91.4303
 20
32.9443
 30
0.0
 10
-91.4303
 20
30.9098
 30
0.0
 10
-93.1595
 20
29.1297
 30
0.0
 10
-95.2827
 20
29.1297
 30
0.0
 10
-95.2827
 20
29.1297
 30
0.0
 10
-97.4188
 20
29.1297
 30
0.0
 10
-99.1351
 20
30.9098
 30
0.0
 10
-99.1351
 20
32.9443
 30
0.0
 10
-99.1351
 20
32.9443
 30
0.0
 10
-99.1351
 20
32.9443
 30
0.0
 10
-103.5216
 20
32.9443
 30
0.0
 10
-103.5216
 20
32.9443
 30
0.0
 10
-103.5216
 20
32.9443
 30
0.0
 10
-103.5216
 20
32.9443
 30
0.0
 10
-103.5216
 20
37.3942
 30
0.0
 10
-103.5216
 20
37.3942
 30
0.0
 10
-103.5216
 20
37.3942
 30
0.0
 10
-105.6833
 20
37.3942
 30
0.0
 10
-107.3361
 20
39.0471
 30
0.0
 10
-107.3361
 20
41.2084
 30
0.0
 10
-107.3361
 20
41.2084
 30
0.0
 10
-107.3361
 20
43.3701
 30
0.0
 10
-105.6833
 20
45.023
 30
0.0
 10
-103.5216
 20
45.023
 30
0.0
 10
-103.5216
 20
45.023
 30
0.0
 10
-103.5216
 20
45.023
 30
0.0
 10
-103.5216
 20
49.4729
 30
0.0
 10
-103.5216
 20
49.4729
 30
0.0
 10
-103.5216
 20
49.4729
 30
0.0
 10
-103.5216
 20
49.4729
 30
0.0
 10
-99.1351
 20
49.4729
 30
0.0
 10
-99.1351
 20
49.4729
 30
0.0
 10
-99.1351
 20
49.4729
 30
0.0
 10
-99.1351
 20
51.5071
 30
0.0
 10
-97.4188
 20
53.2871
 30
0.0
 10
-95.2827
 20
53.2871
 30
0.0
 10
-95.2827
 20
53.2871
 30
0.0
 10
-93.1595
 20
53.2871
 30
0.0
 10
-91.4303
 20
51.5071
 30
0.0
 10
-91.4303
 20
49.4729
 30
0.0
  0
SPLINE
  5
58
330
1F
100
AcDbEntity
  8
layer 1
 62
     7
100
AcDbSpline
210
0.0
220
0.0
230
1.0
 70
    11
 71
     3
 72
    68
 73
    64
 74
     0
 42
0.0000000001
 43
0.0000000001
 12
1.0
 22
0.0
 32
0.0
 13
1.0
 23
0.0
 33
0.0
 40
0.0
 40
0.0
 40
0.0
 40
0.0
 40
0.0588235294117647
 40
0.0588235294117647
 40
0.0588235294117647
 40
0.0588235294117647
 40
0.1176470588235294
 40
0.1176470588235294
 40
0.1176470588235294
 40
0.1176470588235294
 40
0.1764705882352941
 40
0.1764705882352941
 40
0.1764705882352941
 40
0.1764705882352941
 40
0.2352941176470588
 40
0.2352941176470588
 40
0.2352941176470588
 40
0.2352941176470588
 40
0.2941176470588235
 40
0.2941176470588235
 40
0.2941176470588235
 40
0.2941176470588235
 40
0.3529411764705883
 40
0.3529411764705883
 40
0.3529411764705883
 40
0.3529411764705883
 40
0.4117647058823529
 40
0.4117647058823529
 40
0.4117647058823529
 40
0.4117647058823529
 40
0.4705882352941176
 40
0.4705882352941176
 40
0.4705882352941176
 40
0.4705882352941176
 40
0.5294117647058824
 40
0.5294117647058824
 40
0.5294117647058824
 40
0.5294117647058824
 40
0.5882352941176471
 40
0.5882352941176471
 40
0.5882352941176471
 40
0.5882352941176471
 40
0.6470588235294118
 40
0.6470588235294118
 40
0.6470588235294118
 40
0.6470588235294118
 40
0.7058823529411765
 40
0.7058823529411765
 40
0.7058823529411765
 40
0.7058823529411765
 40
0.7647058823529411
 40
0.7647058823529411
 40
0.7647058823529411
 40
0.7647058823529411
 40
0.8235294117647058
 40
0.8235294117647058
 40
0.8235294117647058
 40
0.8235294117647058
 40
0.8823529411764706
 40
0.8823529411764706
 40
0.8823529411764706
 40
0.8823529411764706
 40
1.0
 40
1.0
 40
1.0
 40
1.0
 10
-90.0697
 20
-8.3775
 30
0.0
 10
-88.5315
 20
-7.7417
 30
0.0
 10
-87.349
 20
-6.3433
 30
0.0
 10
-86.8149
 20
-4.6902
 30
0.0
 10
-86.8149
 20
-4.6902
 30
0.0
 10
-86.8149
 20
-4.6902
 30
0.0
 10
-82.6572
 20
-4.6902
 30
0.0
 10
-82.6572
 20
-4.6902
 30
0.0
 10
-82.6572
 20
-4.6902
 30
0.0
 10
-82.6572
 20
-4.6902
 30
0.0
 10
-82.6572
 20
-0.4947
 30
0.0
 10
-82.6572
 20
-0.4947
 30
0.0
 10
-82.6572
 20
-0.4947
 30
0.0
 10
-81.03
 20
0.0139
 30
0.0
 10
-79.7077
 20
1.1582
 30
0.0
 10
-78.9703
 20
2.6841
 30
0.0
 10
-78.9703
 20
2.6841
 30
0.0
 10
-78.2455
 20
1.1582
 30
0.0
 10
-76.9232
 20
0.0139
 30
0.0
 10
-75.2959
 20
-0.4947
 30
0.0
 10
-75.2959
 20
-0.4947
 30
0.0
 10
-75.2959
 20
-0.4947
 30
0.0
 10
-75.2959
 20
-4.6902
 30
0.0
 10
-75.2959
 20
-4.6902
 30
0.0
 10
-75.2959
 20
-4.6902
 30
0.0
 10
-75.2959
 20
-4.6902
 30
0.0
 10
-71.1127
 20
-4.6902
 30
0.0
 10
-71.1127
 20
-4.6902
 30
0.0
 10
-71.1127
 20
-4.6902
 30
0.0
 10
-70.5659
 20
-6.3433
 30
0.0
 10
-69.3835
 20
-7.7417
 30
0.0
 10
-67.8452
 20
-8.3775
 30
0.0
 10
-67.8452
 20
-8.3775
 30
0.0
 10
-69.3835
 20
-9.1405
 30
0.0
 10
-70.5659
 20
-10.4116
 30
0.0
 10
-71.1127
 20
-12.0648
 30
0.0
 10
-71.1127
 20
-12.0648
 30
0.0
 10
-71.1127
 20
-12.0648
 30
0.0
 10
-75.283
 20
-12.0648
 30
0.0
 10
-75.283
 20
-12.0648
 30
0.0
 10
-75.283
 20
-12.0648
 30
0.0
 10
-75.283
 20
-12.0648
 30
0.0
 10
-75.2959
 20
-16.2603
 30
0.0
 10
-75.2959
 20
-16.2603
 30
0.0
 10
-75.2959
 20
-16.2603
 30
0.0
 10
-76.9232
 20
-16.7688
 30
0.0
 10
-78.2455
 20
-18.0404
 30
0.0
 10
-78.9703
 20
-19.566
 30
0.0
 10
-78.9703
 20
-19.566
 30
0.0
 10
-79.7077
 20
-18.0404
 30
0.0
 10
-81.03
 20
-16.7688
 30
0.0
 10
-82.6572
 20
-16.2603
 30
0.0
 10
-82.6572
 20
-16.2603
 30
0.0
 10
-82.6572
 20
-16.2603
 30
0.0
 10
-82.6572
 20
-12.0648
 30
0.0
 10
-82.6572
 20
-12.0648
 30
0.0
 10
-82.6572
 20
-12.0648
 30
0.0
 10
-82.6572
 20
-12.0648
 30
0.0
 10
-86.8149
 20
-12.0648
 30
0.0
 10
-86.8149
 20
-12.0648
 30
0.0
 10
-86.8149
 20
-12.0648
 30
0.0
 10
-87.349
 20
-10.4116
 30
0.0
 10
-88.5315
 20
-9.1405
 30
0.0
 10
-90.0697
 20
-8.3775
 30
0.0
  0
SPLINE
  5
59
330
1F
100
AcDbEntity
  8
layer 1
 62
     7
100
AcDbSpline
210
0.0
220
0.0
230
1.0
 70
    11
 71
     3
 72
    68
 73
    64
 74
     0
 42
0.0000000001
 43
0.0000000001
 12
1.0
 22
0.0
 32
0.0
 13
1.0
 23
0.0
 33
0.0
 40
0.0
 40
0.0
 40
0.0
 40
0.0
 40
0.0588235294117647
 40
0.0588235294117647
 40
0.0588235294117647
 40
0.0588235294117647
 40
0.1176470588235294
 40
0.1176470588235294
 40
0.1176470588235294
 40
0.1176470588235294
 40
0.1764705882352941
 40
0.1764705882352941
 40
0.1764705882352941
 40
0.1764705882352941
 40
0.2352941176470588
 40
0.2352941176470588
 40
0.2352941176470588
 40
0.2352941176470588
 40
0.2941176470588235
 40
0.2941176470588235
 40
0.2941176470588235
 40
0.2941176470588235
 40
0.3529411764705883
 40
0.3529411764705883
 40
0.3529411764705883
 40
0.3529411764705883
 40
0.4117647058823529
 40
0.4117647058823529
 40
0.4117647058823529
 40
0.4117647058823529
 40
0.4705882352941176
 40
0.4705882352941176
 40
0.4705882352941176
 40
0.4705882352941176
 40
0.5294117647058824
 40
0.5294117647058824
 40
0.5294117647058824
 40
0.5294117647058824
 40
0.5882352941176471
 40
0.5882352941176471
 40
0.5882352941176471
 40
0.5882352941176471
 40
0.6470588235294118
 40
0.6470588235294118
 40
0.6470588235294118
 40
0.6470588235294118
 40
0.7058823529411765
 40
0.7058823529411765
 40
0.7058823529411765
 40
0.7058823529411765
 40
0.7647058823529411
 40
0.7647058823529411
 40
0.7647058823529411
 40
0.7647058823529411
 40
0.8235294117647058
 40
0.8235294117647058
 40
0.8235294117647058
 40
0.8235294117647058
 40
0.8823529411764706
 40
0.8823529411764706
 40
0.8823529411764706
 40
0.8823529411764706
 40
1.0
 40
1.0
 40
1.0
 40
1.0
 10
-91.4303
 20
16.1612
 30
0.0
 10
-91.4303
 20
16.1612
 30
0.0
 10
-87.0694
 20
16.1612
 30
0.0
 10
-87.0694
 20
16.1612
 30
0.0
 10
-87.0694
 20
16.1612
 30
0.0
 10
-87.0694
 20
16.1612
 30
0.0
 10
-87.0694
 20
11.7113
 30
0.0
 10
-87.0694
 20
11.7113
 30
0.0
 10
-87.0694
 20
11.7113
 30
0.0
 10
-84.9458
 20
11.7113
 30
0.0
 10
-83.217
 20
10.0584
 30
0.0
 10
-83.217
 20
7.8971
 30
0.0
 10
-83.217
 20
7.8971
 30
0.0
 10
-83.217
 20
5.7353
 30
0.0
 10
-84.9458
 20
4.0825
 30
0.0
 10
-87.0694
 20
4.0825
 30
0.0
 10
-87.0694
 20
4.0825
 30
0.0
 10
-87.0694
 20
4.0825
 30
0.0
 10
-87.0694
 20
-0.3674
 30
0.0
 10
-87.0694
 20
-0.3674
 30
0.0
 10
-87.0694
 20
-0.3674
 30
0.0
 10
-87.0694
 20
-0.3674
 30
0.0
 10
-91.4303
 20
-0.3674
 30
0.0
 10
-91.4303
 20
-0.3674
 30
0.0
 10
-91.4303
 20
-0.3674
 30
0.0
 10
-91.4303
 20
-2.4016
 30
0.0
 10
-93.1595
 20
-4.1816
 30
0.0
 10
-95.2827
 20
-4.1816
 30
0.0
 10
-95.2827
 20
-4.1816
 30
0.0
 10
-97.4188
 20
-4.1816
 30
0.0
 10
-99.1351
 20
-2.4016
 30
0.0
 10
-99.1351
 20
-0.3674
 30
0.0
 10
-99.1351
 20
-0.3674
 30
0.0
 10
-99.1351
 20
-0.3674
 30
0.0
 10
-103.5216
 20
-0.3674
 30
0.0
 10
-103.5216
 20
-0.3674
 30
0.0
 10
-103.5216
 20
-0.3674
 30
0.0
 10
-103.5216
 20
-0.3674
 30
0.0
 10
-103.5216
 20
4.0825
 30
0.0
 10
-103.5216
 20
4.0825
 30
0.0
 10
-103.5216
 20
4.0825
 30
0.0
 10
-105.6833
 20
4.0825
 30
0.0
 10
-107.3361
 20
5.7353
 30
0.0
 10
-107.3361
 20
7.8971
 30
0.0
 10
-107.3361
 20
7.8971
 30
0.0
 10
-107.3361
 20
10.0584
 30
0.0
 10
-105.6833
 20
11.7113
 30
0.0
 10
-103.5216
 20
11.7113
 30
0.0
 10
-103.5216
 20
11.7113
 30
0.0
 10
-103.5216
 20
11.7113
 30
0.0
 10
-103.5216
 20
16.1612
 30
0.0
 10
-103.5216
 20
16.1612
 30
0.0
 10
-103.5216
 20
16.1612
 30
0.0
 10
-103.5216
 20
16.1612
 30
0.0
 10
-99.1351
 20
16.1612
 30
0.0
 10
-99.1351
 20
16.1612
 30
0.0
 10
-99.1351
 20
16.1612
 30
0.0
 10
-99.1351
 20
18.1957
 30
0.0
 10
-97.4188
 20
19.9754
 30
0.0
 10
-95.2827
 20
19.9754
 30
0.0
 10
-95.2827
 20
19.9754
 30
0.0
 10
-93.1595
 20
19.9754
 30
0.0
 10
-91.4303
 20
18.1957
 30
0.0
 10
-91.4303
 20
16.1612
 30
0.0
  0
SPLINE
  5
5A
330
1F
100
AcDbEntity
  8
layer 1
 62
     7
100
AcDbSpline
210
0.0
220
0.0
230
1.0
 70
    11
 71
     3
 72
    68
 73
    64
 74
     0
 42
0.0000000001
 43
0.0000000001
 12
1.0
 22
0.0
 32
0.0
 13
1.0
 23
0.0
 33
0.0
 40
0.0
 40
0.0
 40
0.0
 40
0.0
 40
0.0588235294117647
 40
0.0588235294117647
 40
0.0588235294117647
 40
0.0588235294117647
 40
0.1176470588235294
 40
0.1176470588235294
 40
0.1176470588235294
 40
0.1176470588235294
 40
0.1764705882352941
 40
0.1764705882352941
 40
0.1764705882352941
 40
0.1764705882352941
 40
0.2352941176470588
 40
0.2352941176470588
 40
0.2352941176470588
 40
0.2352941176470588
 40
0.2941176470588235
 40
0.2941176470588235
 40
0.2941176470588235
 40
0.2941176470588235
 40
0.3529411764705883
 40
0.3529411764705883
 40
0.3529411764705883
 40
0.3529411764705883
 40
0.4117647058823529
 40
0.4117647058823529
 40
0.4117647058823529
 40
0.4117647058823529
 40
0.4705882352941176
 40
0.4705882352941176
 40
0.4705882352941176
 40
0.4705882352941176
 40
0.5294117647058824
 40
0.5294117647058824
 40
0.5294117647058824
 40
0.5294117647058824
 40
0.5882352941176471
 40
0.5882352941176471
 40
0.5882352941176471
 40
0.5882352941176471
 40
0.6470588235294118
 40
0.6470588235294118
 40
0.6470588235294118
 40
0.6470588235294118
 40
0.7058823529411765
 40
0.7058823529411765
 40
0.7058823529411765
 40
0.7058823529411765
 40
0.7647058823529411
 40
0.7647058823529411
 40
0.7647058823529411
 40
0.7647058823529411
 40
0.8235294117647058
 40
0.8235294117647058
 40
0.8235294117647058
 40
0.8235294117647058
 40
0.8823529411764706
 40
0.8823529411764706
 40
0.8823529411764706
 40
0.8823529411764706
 40
1.0
 40
1.0
 40
1.0
 40
1.0
 10
-90.0697
 20
-41.6892
 30
0.0
 10
-88.5315
 20
-41.0534
 30
0.0
 10
-87.349
 20
-39.6547
 30
0.0
 10
-86.8149
 20
-38.0019
 30
0.0
 10
-86.8149
 20
-38.0019
 30
0.0
 10
-86.8149
 20
-38.0019
 30
0.0
 10
-82.6572
 20
-38.0019
 30
0.0
 10
-82.6572
 20
-38.0019
 30
0.0
 10
-82.6572
 20
-38.0019
 30
0.0
 10
-82.6572
 20
-38.0019
 30
0.0
 10
-82.6572
 20
-33.9332
 30
0.0
 10
-82.6572
 20
-33.9332
 30
0.0
 10
-82.6572
 20
-33.9332
 30
0.0
 10
-81.03
 20
-33.2975
 30
0.0
 10
-79.7077
 20
-32.1532
 30
0.0
 10
-78.9703
 20
-30.6276
 30
0.0
 10
-78.9703
 20
-30.6276
 30
0.0
 10
-78.2455
 20
-32.1532
 30
0.0
 10
-76.9232
 20
-33.2975
 30
0.0
 10
-75.2959
 20
-33.9332
 30
0.0
 10
-75.2959
 20
-33.9332
 30
0.0
 10
-75.2959
 20
-33.9332
 30
0.0
 10
-75.2959
 20
-38.0019
 30
0.0
 10
-75.2959
 20
-38.0019
 30
0.0
 10
-75.2959
 20
-38.0019
 30
0.0
 10
-75.2959
 20
-38.0019
 30
0.0
 10
-71.1127
 20
-38.0019
 30
0.0
 10
-71.1127
 20
-38.0019
 30
0.0
 10
-71.1127
 20
-38.0019
 30
0.0
 10
-70.5659
 20
-39.6547
 30
0.0
 10
-69.3835
 20
-41.0534
 30
0.0
 10
-67.8452
 20
-41.6892
 30
0.0
 10
-67.8452
 20
-41.6892
 30
0.0
 10
-69.3835
 20
-42.4518
 30
0.0
 10
-70.5659
 20
-43.7233
 30
0.0
 10
-71.1127
 20
-45.3762
 30
0.0
 10
-71.1127
 20
-45.3762
 30
0.0
 10
-71.1127
 20
-45.3762
 30
0.0
 10
-75.283
 20
-45.3762
 30
0.0
 10
-75.283
 20
-45.3762
 30
0.0
 10
-75.283
 20
-45.3762
 30
0.0
 10
-75.283
 20
-45.3762
 30
0.0
 10
-75.2959
 20
-49.572
 30
0.0
 10
-75.2959
 20
-49.572
 30
0.0
 10
-75.2959
 20
-49.572
 30
0.0
 10
-76.9232
 20
-50.0806
 30
0.0
 10
-78.2455
 20
-51.3521
 30
0.0
 10
-78.9703
 20
-52.8777
 30
0.0
 10
-78.9703
 20
-52.8777
 30
0.0
 10
-79.7077
 20
-51.3521
 30
0.0
 10
-81.03
 20
-50.0806
 30
0.0
 10
-82.6572
 20
-49.572
 30
0.0
 10
-82.6572
 20
-49.572
 30
0.0
 10
-82.6572
 20
-49.572
 30
0.0
 10
-82.6572
 20
-45.3762
 30
0.0
 10
-82.6572
 20
-45.3762
 30
0.0
 10
-82.6572
 20
-45.3762
 30
0.0
 10
-82.6572
 20
-45.3762
 30
0.0
 10
-86.8149
 20
-45.3762
 30
0.0
 10
-86.8149
 20
-45.3762
 30
0.0
 10
-86.8149
 20
-45.3762
 30
0.0
 10
-87.349
 20
-43.7233
 30
0.0
 10
-88.5315
 20
-42.4518
 30
0.0
 10
-90.0697
 20
-41.6892
 30
0.0
  0
SPLINE
  5
5B
330
1F
100
AcDbEntity
  8
layer 1
 62
     7
100
AcDbSpline
210
0.0
220
0.0
230
1.0
 70
    11
 71
     3
 72
    68
 73
    64
 74
     0
 42
0.0000000001
 43
0.0000000001
 12
1.0
 22
0.0
 32
0.0
 13
1.0
 23
0.0
 33
0.0
 40
0.0
 40
0.0
 40
0.0
 40
0.0
 40
0.0588235294117647
 40
0.0588235294117647
 40
0.0588235294117647
 40
0.0588235294117647
 40
0.1176470588235294
 40
0.1176470588235294
 40
0.1176470588235294
 40
0.1176470588235294
 40
0.1764705882352941
 40
0.1764705882352941
 40
0.1764705882352941
 40
0.1764705882352941
 40
0.2352941176470588
 40
0.2352941176470588
 40
0.2352941176470588
 40
0.2352941176470588
 40
0.2941176470588235
 40
0.2941176470588235
 40
0.2941176470588235
 40
0.2941176470588235
 40
0.3529411764705883
 40
0.3529411764705883
 40
0.3529411764705883
 40
0.3529411764705883
 40
0.4117647058823529
 40
0.4117647058823529
 40
0.4117647058823529
 40
0.4117647058823529
 40
0.4705882352941176
 40
0.4705882352941176
 40
0.4705882352941176
 40
0.4705882352941176
 40
0.5294117647058824
 40
0.5294117647058824
 40
0.5294117647058824
 40
0.5294117647058824
 40
0.5882352941176471
 40
0.5882352941176471
 40
0.5882352941176471
 40
0.5882352941176471
 40
0.6470588235294118
 40
0.6470588235294118
 40
0.6470588235294118
 40
0.6470588235294118
 40
0.7058823529411765
 40
0.7058823529411765
 40
0.7058823529411765
 40
0.7058823529411765
 40
0.7647058823529411
 40
0.7647058823529411
 40
0.7647058823529411
 40
0.7647058823529411
 40
0.8235294117647058
 40
0.8235294117647058
 40
0.8235294117647058
 40
0.8235294117647058
 40
0.8823529411764706
 40
0.8823529411764706
 40
0.8823529411764706
 40
0.8823529411764706
 40
1.0
 40
1.0
 40
1.0
 40
1.0
 10
-91.4303
 20
-17.1505
 30
0.0
 10
-91.4303
 20
-17.1505
 30
0.0
 10
-87.0694
 20
-17.1505
 30
0.0
 10
-87.0694
 20
-17.1505
 30
0.0
 10
-87.0694
 20
-17.1505
 30
0.0
 10
-87.0694
 20
-17.1505
 30
0.0
 10
-87.0694
 20
-21.6005
 30
0.0
 10
-87.0694
 20
-21.6005
 30
0.0
 10
-87.0694
 20
-21.6005
 30
0.0
 10
-84.9458
 20
-21.6005
 30
0.0
 10
-83.217
 20
-23.2533
 30
0.0
 10
-83.217
 20
-25.4147
 30
0.0
 10
-83.217
 20
-25.4147
 30
0.0
 10
-83.217
 20
-27.576
 30
0.0
 10
-84.9458
 20
-29.2292
 30
0.0
 10
-87.0694
 20
-29.2292
 30
0.0
 10
-87.0694
 20
-29.2292
 30
0.0
 10
-87.0694
 20
-29.2292
 30
0.0
 10
-87.0694
 20
-33.6792
 30
0.0
 10
-87.0694
 20
-33.6792
 30
0.0
 10
-87.0694
 20
-33.6792
 30
0.0
 10
-87.0694
 20
-33.6792
 30
0.0
 10
-91.4303
 20
-33.6792
 30
0.0
 10
-91.4303
 20
-33.6792
 30
0.0
 10
-91.4303
 20
-33.6792
 30
0.0
 10
-91.4303
 20
-35.7133
 30
0.0
 10
-93.1595
 20
-37.4933
 30
0.0
 10
-95.2827
 20
-37.4933
 30
0.0
 10
-95.2827
 20
-37.4933
 30
0.0
 10
-97.4188
 20
-37.4933
 30
0.0
 10
-99.1351
 20
-35.7133
 30
0.0
 10
-99.1351
 20
-33.6792
 30
0.0
 10
-99.1351
 20
-33.6792
 30
0.0
 10
-99.1351
 20
-33.6792
 30
0.0
 10
-103.5216
 20
-33.6792
 30
0.0
 10
-103.5216
 20
-33.6792
 30
0.0
 10
-103.5216
 20
-33.6792
 30
0.0
 10
-103.5216
 20
-33.6792
 30
0.0
 10
-103.5216
 20
-29.2292
 30
0.0
 10
-103.5216
 20
-29.2292
 30
0.0
 10
-103.5216
 20
-29.2292
 30
0.0
 10
-105.6833
 20
-29.2292
 30
0.0
 10
-107.3361
 20
-27.576
 30
0.0
 10
-107.3361
 20
-25.4147
 30
0.0
 10
-107.3361
 20
-25.4147
 30
0.0
 10
-107.3361
 20
-23.2533
 30
0.0
 10
-105.6833
 20
-21.6005
 30
0.0
 10
-103.5216
 20
-21.6005
 30
0.0
 10
-103.5216
 20
-21.6005
 30
0.0
 10
-103.5216
 20
-21.6005
 30
0.0
 10
-103.5216
 20
-17.1505
 30
0.0
 10
-103.5216
 20
-17.1505
 30
0.0
 10
-103.5216
 20
-17.1505
 30
0.0
 10
-103.5216
 20
-17.1505
 30
0.0
 10
-99.1351
 20
-17.1505
 30
0.0
 10
-99.1351
 20
-17.1505
 30
0.0
 10
-99.1351
 20
-17.1505
 30
0.0
 10
-99.1351
 20
-15.116
 30
0.0
 10
-97.4188
 20
-13.336
 30
0.0
 10
-95.2827
 20
-13.336
 30
0.0
 10
-95.2827
 20
-13.336
 30
0.0
 10
-93.1595
 20
-13.336
 30
0.0
 10
-91.4303
 20
-15.116
 30
0.0
 10
-91.4303
 20
-17.1505
 30
0.0
  0
SPLINE
  5
5C
330
1F
100
AcDbEntity
  8
layer 1
 62
     7
100
AcDbSpline
210
0.0
220
0.0
230
1.0
 70
    11
 71
     3
 72
    68
 73
    64
 74
     0
 42
0.0000000001
 43
0.0000000001
 12
1.0
 22
0.0
 32
0.0
 13
1.0
 23
0.0
 33
0.0
 40
0.0
 40
0.0
 40
0.0
 40
0.0
 40
0.0588235294117647
 40
0.0588235294117647
 40
0.0588235294117647
 40
0.0588235294117647
 40
0.1176470588235294
 40
0.1176470588235294
 40
0.1176470588235294
 40
0.1176470588235294
 40
0.1764705882352941
 40
0.1764705882352941
 40
0.1764705882352941
 40
0.1764705882352941
 40
0.2352941176470588
 40
0.2352941176470588
 40
0.2352941176470588
 40
0.2352941176470588
 40
0.2941176470588235
 40
0.2941176470588235
 40
0.2941176470588235
 40
0.2941176470588235
 40
0.3529411764705883
 40
0.3529411764705883
 40
0.3529411764705883
 40
0.3529411764705883
 40
0.4117647058823529
 40
0.4117647058823529
 40
0.4117647058823529
 40
0.4117647058823529
 40
0.4705882352941176
 40
0.4705882352941176
 40
0.4705882352941176
 40
0.4705882352941176
 40
0.5294117647058824
 40
0.5294117647058824
 40
0.5294117647058824
 40
0.5294117647058824
 40
0.5882352941176471
 40
0.5882352941176471
 40
0.5882352941176471
 40
0.5882352941176471
 40
0.6470588235294118
 40
0.6470588235294118
 40
0.6470588235294118
 40
0.6470588235294118
 40
0.7058823529411765
 40
0.7058823529411765
 40
0.7058823529411765
 40
0.7058823529411765
 40
0.7647058823529411
 40
0.7647058823529411
 40
0.7647058823529411
 40
0.7647058823529411
 40
0.8235294117647058
 40
0.8235294117647058
 40
0.8235294117647058
 40
0.8235294117647058
 40
0.8823529411764706
 40
0.8823529411764706
 40
0.8823529411764706
 40
0.8823529411764706
 40
1.0
 40
1.0
 40
1.0
 40
1.0
 10
-90.0697
 20
-75.0009
 30
0.0
 10
-88.5315
 20
-74.3652
 30
0.0
 10
-87.349
 20
-72.9664
 30
0.0
 10
-86.8149
 20
-71.3136
 30
0.0
 10
-86.8149
 20
-71.3136
 30
0.0
 10
-86.8149
 20
-71.3136
 30
0.0
 10
-82.6572
 20
-71.3136
 30
0.0
 10
-82.6572
 20
-71.3136
 30
0.0
 10
-82.6572
 20
-71.3136
 30
0.0
 10
-82.6572
 20
-71.3136
 30
0.0
 10
-82.6572
 20
-67.245
 30
0.0
 10
-82.6572
 20
-67.245
 30
0.0
 10
-82.6572
 20
-67.245
 30
0.0
 10
-81.03
 20
-66.6092
 30
0.0
 10
-79.7077
 20
-65.4649
 30
0.0
 10
-78.9703
 20
-63.9393
 30
0.0
 10
-78.9703
 20
-63.9393
 30
0.0
 10
-78.2455
 20
-65.4649
 30
0.0
 10
-76.9232
 20
-66.6092
 30
0.0
 10
-75.2959
 20
-67.245
 30
0.0
 10
-75.2959
 20
-67.245
 30
0.0
 10
-75.2959
 20
-67.245
 30
0.0
 10
-75.2959
 20
-71.3136
 30
0.0
 10
-75.2959
 20
-71.3136
 30
0.0
 10
-75.2959
 20
-71.3136
 30
0.0
 10
-75.2959
 20
-71.3136
 30
0.0
 10
-71.1127
 20
-71.3136
 30
0.0
 10
-71.1127
 20
-71.3136
 30
0.0
 10
-71.1127
 20
-71.3136
 30
0.0
 10
-70.5659
 20
-72.9664
 30
0.0
 10
-69.3835
 20
-74.3652
 30
0.0
 10
-67.8452
 20
-75.0009
 30
0.0
 10
-67.8452
 20
-75.0009
 30
0.0
 10
-69.3835
 20
-75.7635
 30
0.0
 10
-70.5659
 20
-77.1623
 30
0.0
 10
-71.1127
 20
-78.6879
 30
0.0
 10
-71.1127
 20
-78.6879
 30
0.0
 10
-71.1127
 20
-78.6879
 30
0.0
 10
-75.283
 20
-78.6879
 30
0.0
 10
-75.283
 20
-78.6879
 30
0.0
 10
-75.283
 20
-78.6879
 30
0.0
 10
-75.283
 20
-78.6879
 30
0.0
 10
-75.2959
 20
-82.8837
 30
0.0
 10
-75.2959
 20
-82.8837
 30
0.0
 10
-75.2959
 20
-82.8837
 30
0.0
 10
-76.9232
 20
-83.3923
 30
0.0
 10
-78.2455
 20
-84.6638
 30
0.0
 10
-78.9703
 20
-86.1894
 30
0.0
 10
-78.9703
 20
-86.1894
 30
0.0
 10
-79.7077
 20
-84.6638
 30
0.0
 10
-81.03
 20
-83.3923
 30
0.0
 10
-82.6572
 20
-82.8837
 30
0.0
 10
-82.6572
 20
-82.8837
 30
0.0
 10
-82.6572
 20
-82.8837
 30
0.0
 10
-82.6572
 20
-78.6879
 30
0.0
 10
-82.6572
 20
-78.6879
 30
0.0
 10
-82.6572
 20
-78.6879
 30
0.0
 10
-82.6572
 20
-78.6879
 30
0.0
 10
-86.8149
 20
-78.6879
 30
0.0
 10
-86.8149
 20
-78.6879
 30
0.0
 10
-86.8149
 20
-78.6879
 30
0.0
 10
-87.349
 20
-77.1623
 30
0.0
 10
-88.5315
 20
-75.7635
 30
0.0
 10
-90.0697
 20
-75.0009
 30
0.0
  0
SPLINE
  5
5D
330
1F
100
AcDbEntity
  8
layer 1
 62
     7
100
AcDbSpline
210
0.0
220
0.0
230
1.0
 70
    11
 71
     3
 72
    68
 73
    64
 74
     0
 42
0.0000000001
 43
0.0000000001
 12
1.0
 22
0.0
 32
0.0
 13
1.0
 23
0.0
 33
0.0
 40
0.0
 40
0.0
 40
0.0
 40
0.0
 40
0.0588235294117647
 40
0.0588235294117647
 40
0.0588235294117647
 40
0.0588235294117647
 40
0.1176470588235294
 40
0.1176470588235294
 40
0.1176470588235294
 40
0.1176470588235294
 40
0.1764705882352941
 40
0.1764705882352941
 40
0.1764705882352941
 40
0.1764705882352941
 40
0.2352941176470588
 40
0.2352941176470588
 40
0.2352941176470588
 40
0.2352941176470588
 40
0.2941176470588235
 40
0.2941176470588235
 40
0.2941176470588235
 40
0.2941176470588235
 40
0.3529411764705883
 40
0.3529411764705883
 40
0.3529411764705883
 40
0.3529411764705883
 40
0.4117647058823529
 40
0.4117647058823529
 40
0.4117647058823529
 40
0.4117647058823529
 40
0.4705882352941176
 40
0.4705882352941176
 40
0.4705882352941176
 40
0.4705882352941176
 40
0.5294117647058824
 40
0.5294117647058824
 40
0.5294117647058824
 40
0.5294117647058824
 40
0.5882352941176471
 40
0.5882352941176471
 40
0.5882352941176471
 40
0.5882352941176471
 40
0.6470588235294118
 40
0.6470588235294118
 40
0.6470588235294118
 40
0.6470588235294118
 40
0.7058823529411765
 40
0.7058823529411765
 40
0.7058823529411765
 40
0.7058823529411765
 40
0.7647058823529411
 40
0.7647058823529411
 40
0.7647058823529411
 40
0.7647058823529411
 40
0.8235294117647058
 40
0.8235294117647058
 40
0.8235294117647058
 40
0.8235294117647058
 40
0.8823529411764706
 40
0.8823529411764706
 40
0.8823529411764706
 40
0.8823529411764706
 40
1.0
 40
1.0
 40
1.0
 40
1.0
 10
-91.4303
 20
-50.4619
 30
0.0
 10
-91.4303
 20
-50.4619
 30
0.0
 10
-87.0694
 20
-50.4619
 30
0.0
 10
-87.0694
 20
-50.4619
 30
0.0
 10
-87.0694
 20
-50.4619
 30
0.0
 10
-87.0694
 20
-50.4619
 30
0.0
 10
-87.0694
 20
-54.9122
 30
0.0
 10
-87.0694
 20
-54.9122
 30
0.0
 10
-87.0694
 20
-54.9122
 30
0.0
 10
-84.9458
 20
-54.9122
 30
0.0
 10
-83.217
 20
-56.565
 30
0.0
 10
-83.217
 20
-58.7264
 30
0.0
 10
-83.217
 20
-58.7264
 30
0.0
 10
-83.217
 20
-60.8877
 30
0.0
 10
-84.9458
 20
-62.5406
 30
0.0
 10
-87.0694
 20
-62.5406
 30
0.0
 10
-87.0694
 20
-62.5406
 30
0.0
 10
-87.0694
 20
-62.5406
 30
0.0
 10
-87.0694
 20
-66.9909
 30
0.0
 10
-87.0694
 20
-66.9909
 30
0.0
 10
-87.0694
 20
-66.9909
 30
0.0
 10
-87.0694
 20
-66.9909
 30
0.0
 10
-91.4303
 20
-66.9909
 30
0.0
 10
-91.4303
 20
-66.9909
 30
0.0
 10
-91.4303
 20
-66.9909
 30
0.0
 10
-91.4303
 20
-69.025
 30
0.0
 10
-93.1595
 20
-70.8051
 30
0.0
 10
-95.2827
 20
-70.8051
 30
0.0
 10
-95.2827
 20
-70.8051
 30
0.0
 10
-97.4188
 20
-70.8051
 30
0.0
 10
-99.1351
 20
-69.025
 30
0.0
 10
-99.1351
 20
-66.9909
 30
0.0
 10
-99.1351
 20
-66.9909
 30
0.0
 10
-99.1351
 20
-66.9909
 30
0.0
 10
-103.5216
 20
-66.9909
 30
0.0
 10
-103.5216
 20
-66.9909
 30
0.0
 10
-103.5216
 20
-66.9909
 30
0.0
 10
-103.5216
 20
-66.9909
 30
0.0
 10
-103.5216
 20
-62.5406
 30
0.0
 10
-103.5216
 20
-62.5406
 30
0.0
 10
-103.5216
 20
-62.5406
 30
0.0
 10
-105.6833
 20
-62.5406
 30
0.0
 10
-107.3361
 20
-60.8877
 30
0.0
 10
-107.3361
 20
-58.7264
 30
0.0
 10
-107.3361
 20
-58.7264
 30
0.0
 10
-107.3361
 20
-56.565
 30
0.0
 10
-105.6833
 20
-54.9122
 30
0.0
 10
-103.5216
 20
-54.9122
 30
0.0
 10
-103.5216
 20
-54.9122
 30
0.0
 10
-103.5216
 20
-54.9122
 30
0.0
 10
-103.5216
 20
-50.4619
 30
0.0
 10
-103.5216
 20
-50.4619
 30
0.0
 10
-103.5216
 20
-50.4619
 30
0.0
 10
-103.5216
 20
-50.4619
 30
0.0
 10
-99.1351
 20
-50.4619
 30
0.0
 10
-99.1351
 20
-50.4619
 30
0.0
 10
-99.1351
 20
-50.4619
 30
0.0
 10
-99.1351
 20
-48.4277
 30
0.0
 10
-97.4188
 20
-46.6477
 30
0.0
 10
-95.2827
 20
-46.6477
 30
0.0
 10
-95.2827
 20
-46.6477
 30
0.0
 10
-93.1595
 20
-46.6477
 30
0.0
 10
-91.4303
 20
-48.4277
 30
0.0
 10
-91.4303
 20
-50.4619
 30
0.0
  0
SPLINE
  5
5E
330
1F
100
AcDbEntity
  8
layer 1
 62
     7
100
AcDbSpline
210
0.0
220
0.0
230
1.0
 70
    11
 71
     3
 72
    48
 73
    44
 74
     0
 42
0.0000000001
 43
0.0000000001
 12
1.0
 22
0.0
 32
0.0
 13
1.0
 23
0.0
 33
0.0
 40
0.0
 40
0.0
 40
0.0
 40
0.0
 40
0.0833333333333333
 40
0.0833333333333333
 40
0.0833333333333333
 40
0.0833333333333333
 40
0.1666666666666667
 40
0.1666666666666667
 40
0.1666666666666667
 40
0.1666666666666667
 40
0.25
 40
0.25
 40
0.25
 40
0.25
 40
0.3333333333333333
 40
0.3333333333333333
 40
0.3333333333333333
 40
0.3333333333333333
 40
0.4166666666666667
 40
0.4166666666666667
 40
0.4166666666666667
 40
0.4166666666666667
 40
0.5
 40
0.5
 40
0.5
 40
0.5
 40
0.5833333333333334
 40
0.5833333333333334
 40
0.5833333333333334
 40
0.5833333333333334
 40
0.6666666666666666
 40
0.6666666666666666
 40
0.6666666666666666
 40
0.6666666666666666
 40
0.75
 40
0.75
 40
0.75
 40
0.75
 40
0.8333333333333334
 40
0.8333333333333334
 40
0.8333333333333334
 40
0.8333333333333334
 40
1.0
 40
1.0
 40
1.0
 40
1.0
 10
-90.0697
 20
-108.3123
 30
0.0
 10
-88.5315
 20
-107.6765
 30
0.0
 10
-87.349
 20
-106.2781
 30
0.0
 10
-86.8149
 20
-104.6253
 30
0.0
 10
-86.8149
 20
-104.6253
 30
0.0
 10
-86.8149
 20
-104.6253
 30
0.0
 10
-82.6572
 20
-104.6253
 30
0.0
 10
-82.6572
 20
-104.6253
 30
0.0
 10
-82.6572
 20
-104.6253
 30
0.0
 10
-82.6572
 20
-104.6253
 30
0.0
 10
-82.6572
 20
-100.5567
 30
0.0
 10
-82.6572
 20
-100.5567
 30
0.0
 10
-82.6572
 20
-100.5567
 30
0.0
 10
-81.03
 20
-99.9209
 30
0.0
 10
-79.7077
 20
-98.7766
 30
0.0
 10
-78.9703
 20
-97.251
 30
0.0
 10
-78.9703
 20
-97.251
 30
0.0
 10
-78.2455
 20
-98.7766
 30
0.0
 10
-76.9232
 20
-99.9209
 30
0.0
 10
-75.2959
 20
-100.5567
 30
0.0
 10
-75.2959
 20
-100.5567
 30
0.0
 10
-75.2959
 20
-100.5567
 30
0.0
 10
-75.2959
 20
-104.6253
 30
0.0
 10
-75.2959
 20
-104.6253
 30
0.0
 10
-75.2959
 20
-104.6253
 30
0.0
 10
-75.2959
 20
-104.6253
 30
0.0
 10
-71.1127
 20
-104.6253
 30
0.0
 10
-71.1127
 20
-104.6253
 30
0.0
 10
-71.1127
 20
-104.6253
 30
0.0
 10
-70.5659
 20
-106.2781
 30
0.0
 10
-69.3835
 20
-107.6765
 30
0.0
 10
-67.8452
 20
-108.3123
 30
0.0
 10
-67.8452
 20
-108.3123
 30
0.0
 10
-68.4428
 20
-108.694
 30
0.0
 10
-68.9769
 20
-108.948
 30
0.0
 10
-69.4472
 20
-109.4566
 30
0.0
 10
-69.4472
 20
-109.4566
 30
0.0
 10
-69.4472
 20
-109.4566
 30
0.0
 10
-88.4677
 20
-109.4566
 30
0.0
 10
-88.4677
 20
-109.4566
 30
0.0
 10
-88.4677
 20
-109.4566
 30
0.0
 10
-88.9384
 20
-108.948
 30
0.0
 10
-89.4722
 20
-108.694
 30
0.0
 10
-90.0697
 20
-108.3123
 30
0.0
  0
SPLINE
  5
5F
330
1F
100
AcDbEntity
  8
layer 1
 62
     7
100
AcDbSpline
210
0.0
220
0.0
230
1.0
 70
    11
 71
     3
 72
    68
 73
    64
 74
     0
 42
0.0000000001
 43
0.0000000001
 12
1.0
 22
0.0
 32
0.0
 13
1.0
 23
0.0
 33
0.0
 40
0.0
 40
0.0
 40
0.0
 40
0.0
 40
0.0588235294117647
 40
0.0588235294117647
 40
0.0588235294117647
 40
0.0588235294117647
 40
0.1176470588235294
 40
0.1176470588235294
 40
0.1176470588235294
 40
0.1176470588235294
 40
0.1764705882352941
 40
0.1764705882352941
 40
0.1764705882352941
 40
0.1764705882352941
 40
0.2352941176470588
 40
0.2352941176470588
 40
0.2352941176470588
 40
0.2352941176470588
 40
0.2941176470588235
 40
0.2941176470588235
 40
0.2941176470588235
 40
0.2941176470588235
 40
0.3529411764705883
 40
0.3529411764705883
 40
0.3529411764705883
 40
0.3529411764705883
 40
0.4117647058823529
 40
0.4117647058823529
 40
0.4117647058823529
 40
0.4117647058823529
 40
0.4705882352941176
 40
0.4705882352941176
 40
0.4705882352941176
 40
0.4705882352941176
 40
0.5294117647058824
 40
0.5294117647058824
 40
0.5294117647058824
 40
0.5294117647058824
 40
0.5882352941176471
 40
0.5882352941176471
 40
0.5882352941176471
 40
0.5882352941176471
 40
0.6470588235294118
 40
0.6470588235294118
 40
0.6470588235294118
 40
0.6470588235294118
 40
0.7058823529411765
 40
0.7058823529411765
 40
0.7058823529411765
 40
0.7058823529411765
 40
0.7647058823529411
 40
0.7647058823529411
 40
0.7647058823529411
 40
0.7647058823529411
 40
0.8235294117647058
 40
0.8235294117647058
 40
0.8235294117647058
 40
0.8235294117647058
 40
0.8823529411764706
 40
0.8823529411764706
 40
0.8823529411764706
 40
0.8823529411764706
 40
1.0
 40
1.0
 40
1.0
 40
1.0
 10
-91.4303
 20
-83.7736
 30
0.0
 10
-91.4303
 20
-83.7736
 30
0.0
 10
-87.0694
 20
-83.7736
 30
0.0
 10
-87.0694
 20
-83.7736
 30
0.0
 10
-87.0694
 20
-83.7736
 30
0.0
 10
-87.0694
 20
-83.7736
 30
0.0
 10
-87.0694
 20
-88.2235
 30
0.0
 10
-87.0694
 20
-88.2235
 30
0.0
 10
-87.0694
 20
-88.2235
 30
0.0
 10
-84.9458
 20
-88.2235
 30
0.0
 10
-83.217
 20
-89.8767
 30
0.0
 10
-83.217
 20
-92.0381
 30
0.0
 10
-83.217
 20
-92.0381
 30
0.0
 10
-83.217
 20
-94.1995
 30
0.0
 10
-84.9458
 20
-95.8523
 30
0.0
 10
-87.0694
 20
-95.8523
 30
0.0
 10
-87.0694
 20
-95.8523
 30
0.0
 10
-87.0694
 20
-95.8523
 30
0.0
 10
-87.0694
 20
-100.3022
 30
0.0
 10
-87.0694
 20
-100.3022
 30
0.0
 10
-87.0694
 20
-100.3022
 30
0.0
 10
-87.0694
 20
-100.3022
 30
0.0
 10
-91.4303
 20
-100.3022
 30
0.0
 10
-91.4303
 20
-100.3022
 30
0.0
 10
-91.4303
 20
-100.3022
 30
0.0
 10
-91.4303
 20
-102.3367
 30
0.0
 10
-93.1595
 20
-104.1168
 30
0.0
 10
-95.2827
 20
-104.1168
 30
0.0
 10
-95.2827
 20
-104.1168
 30
0.0
 10
-97.4188
 20
-104.1168
 30
0.0
 10
-99.1351
 20
-102.3367
 30
0.0
 10
-99.1351
 20
-100.3022
 30
0.0
 10
-99.1351
 20
-100.3022
 30
0.0
 10
-99.1351
 20
-100.3022
 30
0.0
 10
-103.5216
 20
-100.3022
 30
0.0
 10
-103.5216
 20
-100.3022
 30
0.0
 10
-103.5216
 20
-100.3022
 30
0.0
 10
-103.5216
 20
-100.3022
 30
0.0
 10
-103.5216
 20
-95.8523
 30
0.0
 10
-103.5216
 20
-95.8523
 30
0.0
 10
-103.5216
 20
-95.8523
 30
0.0
 10
-105.6833
 20
-95.8523
 30
0.0
 10
-107.3361
 20
-94.1995
 30
0.0
 10
-107.3361
 20
-92.0381
 30
0.0
 10
-107.3361
 20
-92.0381
 30
0.0
 10
-107.3361
 20
-89.8767
 30
0.0
 10
-105.6833
 20
-88.2235
 30
0.0
 10
-103.5216
 20
-88.2235
 30
0.0
 10
-103.5216
 20
-88.2235
 30
0.0
 10
-103.5216
 20
-88.2235
 30
0.0
 10
-103.5216
 20
-83.7736
 30
0.0
 10
-103.5216
 20
-83.7736
 30
0.0
 10
-103.5216
 20
-83.7736
 30
0.0
 10
-103.5216
 20
-83.7736
 30
0.0
 10
-99.1351
 20
-83.7736
 30
0.0
 10
-99.1351
 20
-83.7736
 30
0.0
 10
-99.1351
 20
-83.7736
 30
0.0
 10
-99.1351
 20
-81.7395
 30
0.0
 10
-97.4188
 20
-79.9594
 30
0.0
 10
-95.2827
 20
-79.9594
 30
0.0
 10
-95.2827
 20
-79.9594
 30
0.0
 10
-93.1595
 20
-79.9594
 30
0.0
 10
-91.4303
 20
-81.7395
 30
0.0
 10
-91.4303
 20
-83.7736
 30
0.0
  0
SPLINE
  5
60
330
1F
100
AcDbEntity
  8
layer 1
 62
     7
100
AcDbSpline
210
0.0
220
0.0
230
1.0
 70
    11
 71
     3
 72
    48
 73
    44
 74
     0
 42
0.0000000001
 43
0.0000000001
 12
1.0
 22
0.0
 32
0.0
 13
1.0
 23
0.0
 33
0.0
 40
0.0
 40
0.0
 40
0.0
 40
0.0
 40
0.0833333333333333
 40
0.0833333333333333
 40
0.0833333333333333
 40
0.0833333333333333
 40
0.1666666666666667
 40
0.1666666666666667
 40
0.1666666666666667
 40
0.1666666666666667
 40
0.25
 40
0.25
 40
0.25
 40
0.25
 40
0.3333333333333333
 40
0.3333333333333333
 40
0.3333333333333333
 40
0.3333333333333333
 40
0.4166666666666667
 40
0.4166666666666667
 40
0.4166666666666667
 40
0.4166666666666667
 40
0.5
 40
0.5
 40
0.5
 40
0.5
 40
0.5833333333333334
 40
0.5833333333333334
 40
0.5833333333333334
 40
0.5833333333333334
 40
0.6666666666666666
 40
0.6666666666666666
 40
0.6666666666666666
 40
0.6666666666666666
 40
0.75
 40
0.75
 40
0.75
 40
0.75
 40
0.8333333333333334
 40
0.8333333333333334
 40
0.8333333333333334
 40
0.8333333333333334
 40
1.0
 40
1.0
 40
1.0
 40
1.0
 10
-123.3562
 20
-108.3123
 30
0.0
 10
-121.8303
 20
-107.6765
 30
0.0
 10
-120.686
 20
-106.2781
 30
0.0
 10
-120.1774
 20
-104.6253
 30
0.0
 10
-120.1774
 20
-104.6253
 30
0.0
 10
-120.1774
 20
-104.6253
 30
0.0
 10
-115.9819
 20
-104.6253
 30
0.0
 10
-115.9819
 20
-104.6253
 30
0.0
 10
-115.9819
 20
-104.6253
 30
0.0
 10
-115.9819
 20
-104.6253
 30
0.0
 10
-115.9819
 20
-100.5567
 30
0.0
 10
-115.9819
 20
-100.5567
 30
0.0
 10
-115.9819
 20
-100.5567
 30
0.0
 10
-114.3288
 20
-99.9209
 30
0.0
 10
-113.0576
 20
-98.7766
 30
0.0
 10
-112.2946
 20
-97.251
 30
0.0
 10
-112.2946
 20
-97.251
 30
0.0
 10
-111.5316
 20
-98.7766
 30
0.0
 10
-110.2605
 20
-99.9209
 30
0.0
 10
-108.6073
 20
-100.5567
 30
0.0
 10
-108.6073
 20
-100.5567
 30
0.0
 10
-108.6073
 20
-100.5567
 30
0.0
 10
-108.6073
 20
-104.6253
 30
0.0
 10
-108.6073
 20
-104.6253
 30
0.0
 10
-108.6073
 20
-104.6253
 30
0.0
 10
-108.6073
 20
-104.6253
 30
0.0
 10
-104.4118
 20
-104.6253
 30
0.0
 10
-104.4118
 20
-104.6253
 30
0.0
 10
-104.4118
 20
-104.6253
 30
0.0
 10
-103.9033
 20
-106.2781
 30
0.0
 10
-102.759
 20
-107.6765
 30
0.0
 10
-101.1696
 20
-108.3123
 30
0.0
 10
-101.1696
 20
-108.3123
 30
0.0
 10
-101.7545
 20
-108.694
 30
0.0
 10
-102.2504
 20
-108.948
 30
0.0
 10
-102.759
 20
-109.4566
 30
0.0
 10
-102.759
 20
-109.4566
 30
0.0
 10
-102.759
 20
-109.4566
 30
0.0
 10
-121.8303
 20
-109.4566
 30
0.0
 10
-121.8303
 20
-109.4566
 30
0.0
 10
-121.8303
 20
-109.4566
 30
0.0
 10
-122.2119
 20
-108.948
 30
0.0
 10
-122.8477
 20
-108.694
 30
0.0
 10
-123.3562
 20
-108.3123
 30
0.0
  0
SPLINE
  5
61
330
1F
100
AcDbEntity
  8
layer 1
 62
     7
100
AcDbSpline
210
0.0
220
0.0
230
1.0
 70
    11
 71
     3
 72
    68
 73
    64
 74
     0
 42
0.0000000001
 43
0.0000000001
 12
1.0
 22
0.0
 32
0.0
 13
1.0
 23
0.0
 33
0.0
 40
0.0
 40
0.0
 40
0.0
 40
0.0
 40
0.0588235294117647
 40
0.0588235294117647
 40
0.0588235294117647
 40
0.0588235294117647
 40
0.1176470588235294
 40
0.1176470588235294
 40
0.1176470588235294
 40
0.1176470588235294
 40
0.1764705882352941
 40
0.1764705882352941
 40
0.1764705882352941
 40
0.1764705882352941
 40
0.2352941176470588
 40
0.2352941176470588
 40
0.2352941176470588
 40
0.2352941176470588
 40
0.2941176470588235
 40
0.2941176470588235
 40
0.2941176470588235
 40
0.2941176470588235
 40
0.3529411764705883
 40
0.3529411764705883
 40
0.3529411764705883
 40
0.3529411764705883
 40
0.4117647058823529
 40
0.4117647058823529
 40
0.4117647058823529
 40
0.4117647058823529
 40
0.4705882352941176
 40
0.4705882352941176
 40
0.4705882352941176
 40
0.4705882352941176
 40
0.5294117647058824
 40
0.5294117647058824
 40
0.5294117647058824
 40
0.5294117647058824
 40
0.5882352941176471
 40
0.5882352941176471
 40
0.5882352941176471
 40
0.5882352941176471
 40
0.6470588235294118
 40
0.6470588235294118
 40
0.6470588235294118
 40
0.6470588235294118
 40
0.7058823529411765
 40
0.7058823529411765
 40
0.7058823529411765
 40
0.7058823529411765
 40
0.7647058823529411
 40
0.7647058823529411
 40
0.7647058823529411
 40
0.7647058823529411
 40
0.8235294117647058
 40
0.8235294117647058
 40
0.8235294117647058
 40
0.8235294117647058
 40
0.8823529411764706
 40
0.8823529411764706
 40
0.8823529411764706
 40
0.8823529411764706
 40
1.0
 40
1.0
 40
1.0
 40
1.0
 10
-124.7546
 20
-83.7736
 30
0.0
 10
-124.7546
 20
-83.7736
 30
0.0
 10
-120.4319
 20
-83.7736
 30
0.0
 10
-120.4319
 20
-83.7736
 30
0.0
 10
-120.4319
 20
-83.7736
 30
0.0
 10
-120.4319
 20
-83.7736
 30
0.0
 10
-120.4319
 20
-88.2235
 30
0.0
 10
-120.4319
 20
-88.2235
 30
0.0
 10
-120.4319
 20
-88.2235
 30
0.0
 10
-118.2705
 20
-88.2235
 30
0.0
 10
-116.4905
 20
-89.8767
 30
0.0
 10
-116.4905
 20
-92.0381
 30
0.0
 10
-116.4905
 20
-92.0381
 30
0.0
 10
-116.4905
 20
-94.1995
 30
0.0
 10
-118.2705
 20
-95.8523
 30
0.0
 10
-120.4319
 20
-95.8523
 30
0.0
 10
-120.4319
 20
-95.8523
 30
0.0
 10
-120.4319
 20
-95.8523
 30
0.0
 10
-120.4319
 20
-100.3022
 30
0.0
 10
-120.4319
 20
-100.3022
 30
0.0
 10
-120.4319
 20
-100.3022
 30
0.0
 10
-120.4319
 20
-100.3022
 30
0.0
 10
-124.7546
 20
-100.3022
 30
0.0
 10
-124.7546
 20
-100.3022
 30
0.0
 10
-124.7546
 20
-100.3022
 30
0.0
 10
-124.7546
 20
-102.3367
 30
0.0
 10
-126.5347
 20
-104.1168
 30
0.0
 10
-128.5692
 20
-104.1168
 30
0.0
 10
-128.5692
 20
-104.1168
 30
0.0
 10
-130.7305
 20
-104.1168
 30
0.0
 10
-132.5106
 20
-102.3367
 30
0.0
 10
-132.5106
 20
-100.3022
 30
0.0
 10
-132.5106
 20
-100.3022
 30
0.0
 10
-132.5106
 20
-100.3022
 30
0.0
 10
-136.8333
 20
-100.3022
 30
0.0
 10
-136.8333
 20
-100.3022
 30
0.0
 10
-136.8333
 20
-100.3022
 30
0.0
 10
-136.8333
 20
-100.3022
 30
0.0
 10
-136.8333
 20
-95.8523
 30
0.0
 10
-136.8333
 20
-95.8523
 30
0.0
 10
-136.8333
 20
-95.8523
 30
0.0
 10
-138.9947
 20
-95.8523
 30
0.0
 10
-140.6475
 20
-94.1995
 30
0.0
 10
-140.6475
 20
-92.0381
 30
0.0
 10
-140.6475
 20
-92.0381
 30
0.0
 10
-140.6475
 20
-89.8767
 30
0.0
 10
-138.9947
 20
-88.2235
 30
0.0
 10
-136.8333
 20
-88.2235
 30
0.0
 10
-136.8333
 20
-88.2235
 30
0.0
 10
-136.8333
 20
-88.2235
 30
0.0
 10
-136.8333
 20
-83.7736
 30
0.0
 10
-136.8333
 20
-83.7736
 30
0.0
 10
-136.8333
 20
-83.7736
 30
0.0
 10
-136.8333
 20
-83.7736
 30
0.0
 10
-132.5106
 20
-83.7736
 30
0.0
 10
-132.5106
 20
-83.7736
 30
0.0
 10
-132.5106
 20
-83.7736
 30
0.0
 10
-132.5106
 20
-81.7395
 30
0.0
 10
-130.7305
 20
-79.9594
 30
0.0
 10
-128.5692
 20
-79.9594
 30
0.0
 10
-128.5692
 20
-79.9594
 30
0.0
 10
-126.5347
 20
-79.9594
 30
0.0
 10
-124.7546
 20
-81.7395
 30
0.0
 10
-124.7546
 20
-83.7736
 30
0.0
  0
SPLINE
  5
62
330
1F
100
AcDbEntity
  8
layer 1
 62
     7
100
AcDbSpline
210
0.0
220
0.0
230
1.0
 70
    11
 71
     3
 72
    68
 73
    64
 74
     0
 42
0.0000000001
 43
0.0000000001
 12
1.0
 22
0.0
 32
0.0
 13
1.0
 23
0.0
 33
0.0
 40
0.0
 40
0.0
 40
0.0
 40
0.0
 40
0.0588235294117647
 40
0.0588235294117647
 40
0.0588235294117647
 40
0.0588235294117647
 40
0.1176470588235294
 40
0.1176470588235294
 40
0.1176470588235294
 40
0.1176470588235294
 40
0.1764705882352941
 40
0.1764705882352941
 40
0.1764705882352941
 40
0.1764705882352941
 40
0.2352941176470588
 40
0.2352941176470588
 40
0.2352941176470588
 40
0.2352941176470588
 40
0.2941176470588235
 40
0.2941176470588235
 40
0.2941176470588235
 40
0.2941176470588235
 40
0.3529411764705883
 40
0.3529411764705883
 40
0.3529411764705883
 40
0.3529411764705883
 40
0.4117647058823529
 40
0.4117647058823529
 40
0.4117647058823529
 40
0.4117647058823529
 40
0.4705882352941176
 40
0.4705882352941176
 40
0.4705882352941176
 40
0.4705882352941176
 40
0.5294117647058824
 40
0.5294117647058824
 40
0.5294117647058824
 40
0.5294117647058824
 40
0.5882352941176471
 40
0.5882352941176471
 40
0.5882352941176471
 40
0.5882352941176471
 40
0.6470588235294118
 40
0.6470588235294118
 40
0.6470588235294118
 40
0.6470588235294118
 40
0.7058823529411765
 40
0.7058823529411765
 40
0.7058823529411765
 40
0.7058823529411765
 40
0.7647058823529411
 40
0.7647058823529411
 40
0.7647058823529411
 40
0.7647058823529411
 40
0.8235294117647058
 40
0.8235294117647058
 40
0.8235294117647058
 40
0.8235294117647058
 40
0.8823529411764706
 40
0.8823529411764706
 40
0.8823529411764706
 40
0.8823529411764706
 40
1.0
 40
1.0
 40
1.0
 40
1.0
 10
-123.3562
 20
-75.0009
 30
0.0
 10
-121.8303
 20
-74.3652
 30
0.0
 10
-120.686
 20
-72.9664
 30
0.0
 10
-120.1774
 20
-71.3136
 30
0.0
 10
-120.1774
 20
-71.3136
 30
0.0
 10
-120.1774
 20
-71.3136
 30
0.0
 10
-115.9819
 20
-71.3136
 30
0.0
 10
-115.9819
 20
-71.3136
 30
0.0
 10
-115.9819
 20
-71.3136
 30
0.0
 10
-115.9819
 20
-71.3136
 30
0.0
 10
-115.9819
 20
-67.245
 30
0.0
 10
-115.9819
 20
-67.245
 30
0.0
 10
-115.9819
 20
-67.245
 30
0.0
 10
-114.3288
 20
-66.6092
 30
0.0
 10
-113.0576
 20
-65.4649
 30
0.0
 10
-112.2946
 20
-63.9393
 30
0.0
 10
-112.2946
 20
-63.9393
 30
0.0
 10
-111.5316
 20
-65.4649
 30
0.0
 10
-110.2605
 20
-66.6092
 30
0.0
 10
-108.6073
 20
-67.245
 30
0.0
 10
-108.6073
 20
-67.245
 30
0.0
 10
-108.6073
 20
-67.245
 30
0.0
 10
-108.6073
 20
-71.3136
 30
0.0
 10
-108.6073
 20
-71.3136
 30
0.0
 10
-108.6073
 20
-71.3136
 30
0.0
 10
-108.6073
 20
-71.3136
 30
0.0
 10
-104.4118
 20
-71.3136
 30
0.0
 10
-104.4118
 20
-71.3136
 30
0.0
 10
-104.4118
 20
-71.3136
 30
0.0
 10
-103.9033
 20
-72.9664
 30
0.0
 10
-102.759
 20
-74.3652
 30
0.0
 10
-101.1696
 20
-75.0009
 30
0.0
 10
-101.1696
 20
-75.0009
 30
0.0
 10
-102.759
 20
-75.7635
 30
0.0
 10
-103.9033
 20
-77.1623
 30
0.0
 10
-104.4118
 20
-78.6879
 30
0.0
 10
-104.4118
 20
-78.6879
 30
0.0
 10
-104.4118
 20
-78.6879
 30
0.0
 10
-108.6073
 20
-78.6879
 30
0.0
 10
-108.6073
 20
-78.6879
 30
0.0
 10
-108.6073
 20
-78.6879
 30
0.0
 10
-108.6073
 20
-78.6879
 30
0.0
 10
-108.6073
 20
-82.8837
 30
0.0
 10
-108.6073
 20
-82.8837
 30
0.0
 10
-108.6073
 20
-82.8837
 30
0.0
 10
-110.2605
 20
-83.3923
 30
0.0
 10
-111.5316
 20
-84.6638
 30
0.0
 10
-112.2946
 20
-86.1894
 30
0.0
 10
-112.2946
 20
-86.1894
 30
0.0
 10
-113.0576
 20
-84.6638
 30
0.0
 10
-114.3288
 20
-83.3923
 30
0.0
 10
-115.9819
 20
-82.8837
 30
0.0
 10
-115.9819
 20
-82.8837
 30
0.0
 10
-115.9819
 20
-82.8837
 30
0.0
 10
-115.9819
 20
-78.6879
 30
0.0
 10
-115.9819
 20
-78.6879
 30
0.0
 10
-115.9819
 20
-78.6879
 30
0.0
 10
-115.9819
 20
-78.6879
 30
0.0
 10
-120.1774
 20
-78.6879
 30
0.0
 10
-120.1774
 20
-78.6879
 30
0.0
 10
-120.1774
 20
-78.6879
 30
0.0
 10
-120.686
 20
-77.1623
 30
0.0
 10
-121.8303
 20
-75.7635
 30
0.0
 10
-123.3562
 20
-75.0009
 30
0.0
  0
SPLINE
  5
63
330
1F
100
AcDbEntity
  8
layer 1
 62
     7
100
AcDbSpline
210
0.0
220
0.0
230
1.0
 70
    11
 71
     3
 72
    68
 73
    64
 74
     0
 42
0.0000000001
 43
0.0000000001
 12
1.0
 22
0.0
 32
0.0
 13
1.0
 23
0.0
 33
0.0
 40
0.0
 40
0.0
 40
0.0
 40
0.0
 40
0.0588235294117647
 40
0.0588235294117647
 40
0.0588235294117647
 40
0.0588235294117647
 40
0.1176470588235294
 40
0.1176470588235294
 40
0.1176470588235294
 40
0.1176470588235294
 40
0.1764705882352941
 40
0.1764705882352941
 40
0.1764705882352941
 40
0.1764705882352941
 40
0.2352941176470588
 40
0.2352941176470588
 40
0.2352941176470588
 40
0.2352941176470588
 40
0.2941176470588235
 40
0.2941176470588235
 40
0.2941176470588235
 40
0.2941176470588235
 40
0.3529411764705883
 40
0.3529411764705883
 40
0.3529411764705883
 40
0.3529411764705883
 40
0.4117647058823529
 40
0.4117647058823529
 40
0.4117647058823529
 40
0.4117647058823529
 40
0.4705882352941176
 40
0.4705882352941176
 40
0.4705882352941176
 40
0.4705882352941176
 40
0.5294117647058824
 40
0.5294117647058824
 40
0.5294117647058824
 40
0.5294117647058824
 40
0.5882352941176471
 40
0.5882352941176471
 40
0.5882352941176471
 40
0.5882352941176471
 40
0.6470588235294118
 40
0.6470588235294118
 40
0.6470588235294118
 40
0.6470588235294118
 40
0.7058823529411765
 40
0.7058823529411765
 40
0.7058823529411765
 40
0.7058823529411765
 40
0.7647058823529411
 40
0.7647058823529411
 40
0.7647058823529411
 40
0.7647058823529411
 40
0.8235294117647058
 40
0.8235294117647058
 40
0.8235294117647058
 40
0.8235294117647058
 40
0.8823529411764706
 40
0.8823529411764706
 40
0.8823529411764706
 40
0.8823529411764706
 40
1.0
 40
1.0
 40
1.0
 40
1.0
 10
-124.7546
 20
-50.4619
 30
0.0
 10
-124.7546
 20
-50.4619
 30
0.0
 10
-120.4319
 20
-50.4619
 30
0.0
 10
-120.4319
 20
-50.4619
 30
0.0
 10
-120.4319
 20
-50.4619
 30
0.0
 10
-120.4319
 20
-50.4619
 30
0.0
 10
-120.4319
 20
-54.9122
 30
0.0
 10
-120.4319
 20
-54.9122
 30
0.0
 10
-120.4319
 20
-54.9122
 30
0.0
 10
-118.2705
 20
-54.9122
 30
0.0
 10
-116.4905
 20
-56.565
 30
0.0
 10
-116.4905
 20
-58.7264
 30
0.0
 10
-116.4905
 20
-58.7264
 30
0.0
 10
-116.4905
 20
-60.8877
 30
0.0
 10
-118.2705
 20
-62.5406
 30
0.0
 10
-120.4319
 20
-62.5406
 30
0.0
 10
-120.4319
 20
-62.5406
 30
0.0
 10
-120.4319
 20
-62.5406
 30
0.0
 10
-120.4319
 20
-66.9909
 30
0.0
 10
-120.4319
 20
-66.9909
 30
0.0
 10
-120.4319
 20
-66.9909
 30
0.0
 10
-120.4319
 20
-66.9909
 30
0.0
 10
-124.7546
 20
-66.9909
 30
0.0
 10
-124.7546
 20
-66.9909
 30
0.0
 10
-124.7546
 20
-66.9909
 30
0.0
 10
-124.7546
 20
-69.025
 30
0.0
 10
-126.5347
 20
-70.8051
 30
0.0
 10
-128.5692
 20
-70.8051
 30
0.0
 10
-128.5692
 20
-70.8051
 30
0.0
 10
-130.7305
 20
-70.8051
 30
0.0
 10
-132.5106
 20
-69.025
 30
0.0
 10
-132.5106
 20
-66.9909
 30
0.0
 10
-132.5106
 20
-66.9909
 30
0.0
 10
-132.5106
 20
-66.9909
 30
0.0
 10
-136.8333
 20
-66.9909
 30
0.0
 10
-136.8333
 20
-66.9909
 30
0.0
 10
-136.8333
 20
-66.9909
 30
0.0
 10
-136.8333
 20
-66.9909
 30
0.0
 10
-136.8333
 20
-62.5406
 30
0.0
 10
-136.8333
 20
-62.5406
 30
0.0
 10
-136.8333
 20
-62.5406
 30
0.0
 10
-138.9947
 20
-62.5406
 30
0.0
 10
-140.6475
 20
-60.8877
 30
0.0
 10
-140.6475
 20
-58.7264
 30
0.0
 10
-140.6475
 20
-58.7264
 30
0.0
 10
-140.6475
 20
-56.565
 30
0.0
 10
-138.9947
 20
-54.9122
 30
0.0
 10
-136.8333
 20
-54.9122
 30
0.0
 10
-136.8333
 20
-54.9122
 30
0.0
 10
-136.8333
 20
-54.9122
 30
0.0
 10
-136.8333
 20
-50.4619
 30
0.0
 10
-136.8333
 20
-50.4619
 30
0.0
 10
-136.8333
 20
-50.4619
 30
0.0
 10
-136.8333
 20
-50.4619
 30
0.0
 10
-132.5106
 20
-50.4619
 30
0.0
 10
-132.5106
 20
-50.4619
 30
0.0
 10
-132.5106
 20
-50.4619
 30
0.0
 10
-132.5106
 20
-48.4277
 30
0.0
 10
-130.7305
 20
-46.6477
 30
0.0
 10
-128.5692
 20
-46.6477
 30
0.0
 10
-128.5692
 20
-46.6477
 30
0.0
 10
-126.5347
 20
-46.6477
 30
0.0
 10
-124.7546
 20
-48.4277
 30
0.0
 10
-124.7546
 20
-50.4619
 30
0.0
  0
SPLINE
  5
64
330
1F
100
AcDbEntity
  8
layer 1
 62
     7
100
AcDbSpline
210
0.0
220
0.0
230
1.0
 70
    11
 71
     3
 72
    68
 73
    64
 74
     0
 42
0.0000000001
 43
0.0000000001
 12
1.0
 22
0.0
 32
0.0
 13
1.0
 23
0.0
 33
0.0
 40
0.0
 40
0.0
 40
0.0
 40
0.0
 40
0.0588235294117647
 40
0.0588235294117647
 40
0.0588235294117647
 40
0.0588235294117647
 40
0.1176470588235294
 40
0.1176470588235294
 40
0.1176470588235294
 40
0.1176470588235294
 40
0.1764705882352941
 40
0.1764705882352941
 40
0.1764705882352941
 40
0.1764705882352941
 40
0.2352941176470588
 40
0.2352941176470588
 40
0.2352941176470588
 40
0.2352941176470588
 40
0.2941176470588235
 40
0.2941176470588235
 40
0.2941176470588235
 40
0.2941176470588235
 40
0.3529411764705883
 40
0.3529411764705883
 40
0.3529411764705883
 40
0.3529411764705883
 40
0.4117647058823529
 40
0.4117647058823529
 40
0.4117647058823529
 40
0.4117647058823529
 40
0.4705882352941176
 40
0.4705882352941176
 40
0.4705882352941176
 40
0.4705882352941176
 40
0.5294117647058824
 40
0.5294117647058824
 40
0.5294117647058824
 40
0.5294117647058824
 40
0.5882352941176471
 40
0.5882352941176471
 40
0.5882352941176471
 40
0.5882352941176471
 40
0.6470588235294118
 40
0.6470588235294118
 40
0.6470588235294118
 40
0.6470588235294118
 40
0.7058823529411765
 40
0.7058823529411765
 40
0.7058823529411765
 40
0.7058823529411765
 40
0.7647058823529411
 40
0.7647058823529411
 40
0.7647058823529411
 40
0.7647058823529411
 40
0.8235294117647058
 40
0.8235294117647058
 40
0.8235294117647058
 40
0.8235294117647058
 40
0.8823529411764706
 40
0.8823529411764706
 40
0.8823529411764706
 40
0.8823529411764706
 40
1.0
 40
1.0
 40
1.0
 40
1.0
 10
-123.3562
 20
-41.6892
 30
0.0
 10
-121.8303
 20
-41.0534
 30
0.0
 10
-120.686
 20
-39.6547
 30
0.0
 10
-120.1774
 20
-38.0019
 30
0.0
 10
-120.1774
 20
-38.0019
 30
0.0
 10
-120.1774
 20
-38.0019
 30
0.0
 10
-115.9819
 20
-38.0019
 30
0.0
 10
-115.9819
 20
-38.0019
 30
0.0
 10
-115.9819
 20
-38.0019
 30
0.0
 10
-115.9819
 20
-38.0019
 30
0.0
 10
-115.9819
 20
-33.9332
 30
0.0
 10
-115.9819
 20
-33.9332
 30
0.0
 10
-115.9819
 20
-33.9332
 30
0.0
 10
-114.3288
 20
-33.2975
 30
0.0
 10
-113.0576
 20
-32.1532
 30
0.0
 10
-112.2946
 20
-30.6276
 30
0.0
 10
-112.2946
 20
-30.6276
 30
0.0
 10
-111.5316
 20
-32.1532
 30
0.0
 10
-110.2605
 20
-33.2975
 30
0.0
 10
-108.6073
 20
-33.9332
 30
0.0
 10
-108.6073
 20
-33.9332
 30
0.0
 10
-108.6073
 20
-33.9332
 30
0.0
 10
-108.6073
 20
-38.0019
 30
0.0
 10
-108.6073
 20
-38.0019
 30
0.0
 10
-108.6073
 20
-38.0019
 30
0.0
 10
-108.6073
 20
-38.0019
 30
0.0
 10
-104.4118
 20
-38.0019
 30
0.0
 10
-104.4118
 20
-38.0019
 30
0.0
 10
-104.4118
 20
-38.0019
 30
0.0
 10
-103.9033
 20
-39.6547
 30
0.0
 10
-102.759
 20
-41.0534
 30
0.0
 10
-101.1696
 20
-41.6892
 30
0.0
 10
-101.1696
 20
-41.6892
 30
0.0
 10
-102.759
 20
-42.4518
 30
0.0
 10
-103.9033
 20
-43.7233
 30
0.0
 10
-104.4118
 20
-45.3762
 30
0.0
 10
-104.4118
 20
-45.3762
 30
0.0
 10
-104.4118
 20
-45.3762
 30
0.0
 10
-108.6073
 20
-45.3762
 30
0.0
 10
-108.6073
 20
-45.3762
 30
0.0
 10
-108.6073
 20
-45.3762
 30
0.0
 10
-108.6073
 20
-45.3762
 30
0.0
 10
-108.6073
 20
-49.572
 30
0.0
 10
-108.6073
 20
-49.572
 30
0.0
 10
-108.6073
 20
-49.572
 30
0.0
 10
-110.2605
 20
-50.0806
 30
0.0
 10
-111.5316
 20
-51.3521
 30
0.0
 10
-112.2946
 20
-52.8777
 30
0.0
 10
-112.2946
 20
-52.8777
 30
0.0
 10
-113.0576
 20
-51.3521
 30
0.0
 10
-114.3288
 20
-50.0806
 30
0.0
 10
-115.9819
 20
-49.572
 30
0.0
 10
-115.9819
 20
-49.572
 30
0.0
 10
-115.9819
 20
-49.572
 30
0.0
 10
-115.9819
 20
-45.3762
 30
0.0
 10
-115.9819
 20
-45.3762
 30
0.0
 10
-115.9819
 20
-45.3762
 30
0.0
 10
-115.9819
 20
-45.3762
 30
0.0
 10
-120.1774
 20
-45.3762
 30
0.0
 10
-120.1774
 20
-45.3762
 30
0.0
 10
-120.1774
 20
-45.3762
 30
0.0
 10
-120.686
 20
-43.7233
 30
0.0
 10
-121.8303
 20
-42.4518
 30
0.0
 10
-123.3562
 20
-41.6892
 30
0.0
  0
SPLINE
  5
65
330
1F
100
AcDbEntity
  8
layer 1
 62
     7
100
AcDbSpline
210
0.0
220
0.0
230
1.0
 70
    11
 71
     3
 72
    68
 73
    64
 74
     0
 42
0.0000000001
 43
0.0000000001
 12
1.0
 22
0.0
 32
0.0
 13
1.0
 23
0.0
 33
0.0
 40
0.0
 40
0.0
 40
0.0
 40
0.0
 40
0.0588235294117647
 40
0.0588235294117647
 40
0.0588235294117647
 40
0.0588235294117647
 40
0.1176470588235294
 40
0.1176470588235294
 40
0.1176470588235294
 40
0.1176470588235294
 40
0.1764705882352941
 40
0.1764705882352941
 40
0.1764705882352941
 40
0.1764705882352941
 40
0.2352941176470588
 40
0.2352941176470588
 40
0.2352941176470588
 40
0.2352941176470588
 40
0.2941176470588235
 40
0.2941176470588235
 40
0.2941176470588235
 40
0.2941176470588235
 40
0.3529411764705883
 40
0.3529411764705883
 40
0.3529411764705883
 40
0.3529411764705883
 40
0.4117647058823529
 40
0.4117647058823529
 40
0.4117647058823529
 40
0.4117647058823529
 40
0.4705882352941176
 40
0.4705882352941176
 40
0.4705882352941176
 40
0.4705882352941176
 40
0.5294117647058824
 40
0.5294117647058824
 40
0.5294117647058824
 40
0.5294117647058824
 40
0.5882352941176471
 40
0.5882352941176471
 40
0.5882352941176471
 40
0.5882352941176471
 40
0.6470588235294118
 40
0.6470588235294118
 40
0.6470588235294118
 40
0.6470588235294118
 40
0.7058823529411765
 40
0.7058823529411765
 40
0.7058823529411765
 40
0.7058823529411765
 40
0.7647058823529411
 40
0.7647058823529411
 40
0.7647058823529411
 40
0.7647058823529411
 40
0.8235294117647058
 40
0.8235294117647058
 40
0.8235294117647058
 40
0.8235294117647058
 40
0.8823529411764706
 40
0.8823529411764706
 40
0.8823529411764706
 40
0.8823529411764706
 40
1.0
 40
1.0
 40
1.0
 40
1.0
 10
-124.7546
 20
-17.1505
 30
0.0
 10
-124.7546
 20
-17.1505
 30
0.0
 10
-120.4319
 20
-17.1505
 30
0.0
 10
-120.4319
 20
-17.1505
 30
0.0
 10
-120.4319
 20
-17.1505
 30
0.0
 10
-120.4319
 20
-17.1505
 30
0.0
 10
-120.4319
 20
-21.6005
 30
0.0
 10
-120.4319
 20
-21.6005
 30
0.0
 10
-120.4319
 20
-21.6005
 30
0.0
 10
-118.2705
 20
-21.6005
 30
0.0
 10
-116.4905
 20
-23.2533
 30
0.0
 10
-116.4905
 20
-25.4147
 30
0.0
 10
-116.4905
 20
-25.4147
 30
0.0
 10
-116.4905
 20
-27.576
 30
0.0
 10
-118.2705
 20
-29.2292
 30
0.0
 10
-120.4319
 20
-29.2292
 30
0.0
 10
-120.4319
 20
-29.2292
 30
0.0
 10
-120.4319
 20
-29.2292
 30
0.0
 10
-120.4319
 20
-33.6792
 30
0.0
 10
-120.4319
 20
-33.6792
 30
0.0
 10
-120.4319
 20
-33.6792
 30
0.0
 10
-120.4319
 20
-33.6792
 30
0.0
 10
-124.7546
 20
-33.6792
 30
0.0
 10
-124.7546
 20
-33.6792
 30
0.0
 10
-124.7546
 20
-33.6792
 30
0.0
 10
-124.7546
 20
-35.7133
 30
0.0
 10
-126.5347
 20
-37.4933
 30
0.0
 10
-128.5692
 20
-37.4933
 30
0.0
 10
-128.5692
 20
-37.4933
 30
0.0
 10
-130.7305
 20
-37.4933
 30
0.0
 10
-132.5106
 20
-35.7133
 30
0.0
 10
-132.5106
 20
-33.6792
 30
0.0
 10
-132.5106
 20
-33.6792
 30
0.0
 10
-132.5106
 20
-33.6792
 30
0.0
 10
-136.8333
 20
-33.6792
 30
0.0
 10
-136.8333
 20
-33.6792
 30
0.0
 10
-136.8333
 20
-33.6792
 30
0.0
 10
-136.8333
 20
-33.6792
 30
0.0
 10
-136.8333
 20
-29.2292
 30
0.0
 10
-136.8333
 20
-29.2292
 30
0.0
 10
-136.8333
 20
-29.2292
 30
0.0
 10
-138.9947
 20
-29.2292
 30
0.0
 10
-140.6475
 20
-27.576
 30
0.0
 10
-140.6475
 20
-25.4147
 30
0.0
 10
-140.6475
 20
-25.4147
 30
0.0
 10
-140.6475
 20
-23.2533
 30
0.0
 10
-138.9947
 20
-21.6005
 30
0.0
 10
-136.8333
 20
-21.6005
 30
0.0
 10
-136.8333
 20
-21.6005
 30
0.0
 10
-136.8333
 20
-21.6005
 30
0.0
 10
-136.8333
 20
-17.1505
 30
0.0
 10
-136.8333
 20
-17.1505
 30
0.0
 10
-136.8333
 20
-17.1505
 30
0.0
 10
-136.8333
 20
-17.1505
 30
0.0
 10
-132.5106
 20
-17.1505
 30
0.0
 10
-132.5106
 20
-17.1505
 30
0.0
 10
-132.5106
 20
-17.1505
 30
0.0
 10
-132.5106
 20
-15.116
 30
0.0
 10
-130.7305
 20
-13.336
 30
0.0
 10
-128.5692
 20
-13.336
 30
0.0
 10
-128.5692
 20
-13.336
 30
0.0
 10
-126.5347
 20
-13.336
 30
0.0
 10
-124.7546
 20
-15.116
 30
0.0
 10
-124.7546
 20
-17.1505
 30
0.0
  0
SPLINE
  5
66
330
1F
100
AcDbEntity
  8
layer 1
 62
     7
100
AcDbSpline
210
0.0
220
0.0
230
1.0
 70
    11
 71
     3
 72
    68
 73
    64
 74
     0
 42
0.0000000001
 43
0.0000000001
 12
1.0
 22
0.0
 32
0.0
 13
1.0
 23
0.0
 33
0.0
 40
0.0
 40
0.0
 40
0.0
 40
0.0
 40
0.0588235294117647
 40
0.0588235294117647
 40
0.0588235294117647
 40
0.0588235294117647
 40
0.1176470588235294
 40
0.1176470588235294
 40
0.1176470588235294
 40
0.1176470588235294
 40
0.1764705882352941
 40
0.1764705882352941
 40
0.1764705882352941
 40
0.1764705882352941
 40
0.2352941176470588
 40
0.2352941176470588
 40
0.2352941176470588
 40
0.2352941176470588
 40
0.2941176470588235
 40
0.2941176470588235
 40
0.2941176470588235
 40
0.2941176470588235
 40
0.3529411764705883
 40
0.3529411764705883
 40
0.3529411764705883
 40
0.3529411764705883
 40
0.4117647058823529
 40
0.4117647058823529
 40
0.4117647058823529
 40
0.4117647058823529
 40
0.4705882352941176
 40
0.4705882352941176
 40
0.4705882352941176
 40
0.4705882352941176
 40
0.5294117647058824
 40
0.5294117647058824
 40
0.5294117647058824
 40
0.5294117647058824
 40
0.5882352941176471
 40
0.5882352941176471
 40
0.5882352941176471
 40
0.5882352941176471
 40
0.6470588235294118
 40
0.6470588235294118
 40
0.6470588235294118
 40
0.6470588235294118
 40
0.7058823529411765
 40
0.7058823529411765
 40
0.7058823529411765
 40
0.7058823529411765
 40
0.7647058823529411
 40
0.7647058823529411
 40
0.7647058823529411
 40
0.7647058823529411
 40
0.8235294117647058
 40
0.8235294117647058
 40
0.8235294117647058
 40
0.8235294117647058
 40
0.8823529411764706
 40
0.8823529411764706
 40
0.8823529411764706
 40
0.8823529411764706
 40
1.0
 40
1.0
 40
1.0
 40
1.0
 10
-123.3562
 20
-8.3775
 30
0.0
 10
-121.8303
 20
-7.7417
 30
0.0
 10
-120.686
 20
-6.3433
 30
0.0
 10
-120.1774
 20
-4.6902
 30
0.0
 10
-120.1774
 20
-4.6902
 30
0.0
 10
-120.1774
 20
-4.6902
 30
0.0
 10
-115.9819
 20
-4.6902
 30
0.0
 10
-115.9819
 20
-4.6902
 30
0.0
 10
-115.9819
 20
-4.6902
 30
0.0
 10
-115.9819
 20
-4.6902
 30
0.0
 10
-115.9819
 20
-0.4947
 30
0.0
 10
-115.9819
 20
-0.4947
 30
0.0
 10
-115.9819
 20
-0.4947
 30
0.0
 10
-114.3288
 20
0.0139
 30
0.0
 10
-113.0576
 20
1.1582
 30
0.0
 10
-112.2946
 20
2.6841
 30
0.0
 10
-112.2946
 20
2.6841
 30
0.0
 10
-111.5316
 20
1.1582
 30
0.0
 10
-110.2605
 20
0.0139
 30
0.0
 10
-108.6073
 20
-0.4947
 30
0.0
 10
-108.6073
 20
-0.4947
 30
0.0
 10
-108.6073
 20
-0.4947
 30
0.0
 10
-108.6073
 20
-4.6902
 30
0.0
 10
-108.6073
 20
-4.6902
 30
0.0
 10
-108.6073
 20
-4.6902
 30
0.0
 10
-108.6073
 20
-4.6902
 30
0.0
 10
-104.4118
 20
-4.6902
 30
0.0
 10
-104.4118
 20
-4.6902
 30
0.0
 10
-104.4118
 20
-4.6902
 30
0.0
 10
-103.9033
 20
-6.3433
 30
0.0
 10
-102.759
 20
-7.7417
 30
0.0
 10
-101.1696
 20
-8.3775
 30
0.0
 10
-101.1696
 20
-8.3775
 30
0.0
 10
-102.759
 20
-9.1405
 30
0.0
 10
-103.9033
 20
-10.4116
 30
0.0
 10
-104.4118
 20
-12.0648
 30
0.0
 10
-104.4118
 20
-12.0648
 30
0.0
 10
-104.4118
 20
-12.0648
 30
0.0
 10
-108.6073
 20
-12.0648
 30
0.0
 10
-108.6073
 20
-12.0648
 30
0.0
 10
-108.6073
 20
-12.0648
 30
0.0
 10
-108.6073
 20
-12.0648
 30
0.0
 10
-108.6073
 20
-16.2603
 30
0.0
 10
-108.6073
 20
-16.2603
 30
0.0
 10
-108.6073
 20
-16.2603
 30
0.0
 10
-110.2605
 20
-16.7688
 30
0.0
 10
-111.5316
 20
-18.0404
 30
0.0
 10
-112.2946
 20
-19.566
 30
0.0
 10
-112.2946
 20
-19.566
 30
0.0
 10
-113.0576
 20
-18.0404
 30
0.0
 10
-114.3288
 20
-16.7688
 30
0.0
 10
-115.9819
 20
-16.2603
 30
0.0
 10
-115.9819
 20
-16.2603
 30
0.0
 10
-115.9819
 20
-16.2603
 30
0.0
 10
-115.9819
 20
-12.0648
 30
0.0
 10
-115.9819
 20
-12.0648
 30
0.0
 10
-115.9819
 20
-12.0648
 30
0.0
 10
-115.9819
 20
-12.0648
 30
0.0
 10
-120.1774
 20
-12.0648
 30
0.0
 10
-120.1774
 20
-12.0648
 30
0.0
 10
-120.1774
 20
-12.0648
 30
0.0
 10
-120.686
 20
-10.4116
 30
0.0
 10
-121.8303
 20
-9.1405
 30
0.0
 10
-123.3562
 20
-8.3775
 30
0.0
  0
SPLINE
  5
67
330
1F
100
AcDbEntity
  8
layer 1
 62
     7
100
AcDbSpline
210
0.0
220
0.0
230
1.0
 70
    11
 71
     3
 72
    68
 73
    64
 74
     0
 42
0.0000000001
 43
0.0000000001
 12
1.0
 22
0.0
 32
0.0
 13
1.0
 23
0.0
 33
0.0
 40
0.0
 40
0.0
 40
0.0
 40
0.0
 40
0.0588235294117647
 40
0.0588235294117647
 40
0.0588235294117647
 40
0.0588235294117647
 40
0.1176470588235294
 40
0.1176470588235294
 40
0.1176470588235294
 40
0.1176470588235294
 40
0.1764705882352941
 40
0.1764705882352941
 40
0.1764705882352941
 40
0.1764705882352941
 40
0.2352941176470588
 40
0.2352941176470588
 40
0.2352941176470588
 40
0.2352941176470588
 40
0.2941176470588235
 40
0.2941176470588235
 40
0.2941176470588235
 40
0.2941176470588235
 40
0.3529411764705883
 40
0.3529411764705883
 40
0.3529411764705883
 40
0.3529411764705883
 40
0.4117647058823529
 40
0.4117647058823529
 40
0.4117647058823529
 40
0.4117647058823529
 40
0.4705882352941176
 40
0.4705882352941176
 40
0.4705882352941176
 40
0.4705882352941176
 40
0.5294117647058824
 40
0.5294117647058824
 40
0.5294117647058824
 40
0.5294117647058824
 40
0.5882352941176471
 40
0.5882352941176471
 40
0.5882352941176471
 40
0.5882352941176471
 40
0.6470588235294118
 40
0.6470588235294118
 40
0.6470588235294118
 40
0.6470588235294118
 40
0.7058823529411765
 40
0.7058823529411765
 40
0.7058823529411765
 40
0.7058823529411765
 40
0.7647058823529411
 40
0.7647058823529411
 40
0.7647058823529411
 40
0.7647058823529411
 40
0.8235294117647058
 40
0.8235294117647058
 40
0.8235294117647058
 40
0.8235294117647058
 40
0.8823529411764706
 40
0.8823529411764706
 40
0.8823529411764706
 40
0.8823529411764706
 40
1.0
 40
1.0
 40
1.0
 40
1.0
 10
-124.7546
 20
16.1612
 30
0.0
 10
-124.7546
 20
16.1612
 30
0.0
 10
-120.4319
 20
16.1612
 30
0.0
 10
-120.4319
 20
16.1612
 30
0.0
 10
-120.4319
 20
16.1612
 30
0.0
 10
-120.4319
 20
16.1612
 30
0.0
 10
-120.4319
 20
11.7113
 30
0.0
 10
-120.4319
 20
11.7113
 30
0.0
 10
-120.4319
 20
11.7113
 30
0.0
 10
-118.2705
 20
11.7113
 30
0.0
 10
-116.4905
 20
10.0584
 30
0.0
 10
-116.4905
 20
7.8971
 30
0.0
 10
-116.4905
 20
7.8971
 30
0.0
 10
-116.4905
 20
5.7353
 30
0.0
 10
-118.2705
 20
4.0825
 30
0.0
 10
-120.4319
 20
4.0825
 30
0.0
 10
-120.4319
 20
4.0825
 30
0.0
 10
-120.4319
 20
4.0825
 30
0.0
 10
-120.4319
 20
-0.3674
 30
0.0
 10
-120.4319
 20
-0.3674
 30
0.0
 10
-120.4319
 20
-0.3674
 30
0.0
 10
-120.4319
 20
-0.3674
 30
0.0
 10
-124.7546
 20
-0.3674
 30
0.0
 10
-124.7546
 20
-0.3674
 30
0.0
 10
-124.7546
 20
-0.3674
 30
0.0
 10
-124.7546
 20
-2.4016
 30
0.0
 10
-126.5347
 20
-4.1816
 30
0.0
 10
-128.5692
 20
-4.1816
 30
0.0
 10
-128.5692
 20
-4.1816
 30
0.0
 10
-130.7305
 20
-4.1816
 30
0.0
 10
-132.5106
 20
-2.4016
 30
0.0
 10
-132.5106
 20
-0.3674
 30
0.0
 10
-132.5106
 20
-0.3674
 30
0.0
 10
-132.5106
 20
-0.3674
 30
0.0
 10
-136.8333
 20
-0.3674
 30
0.0
 10
-136.8333
 20
-0.3674
 30
0.0
 10
-136.8333
 20
-0.3674
 30
0.0
 10
-136.8333
 20
-0.3674
 30
0.0
 10
-136.8333
 20
4.0825
 30
0.0
 10
-136.8333
 20
4.0825
 30
0.0
 10
-136.8333
 20
4.0825
 30
0.0
 10
-138.9947
 20
4.0825
 30
0.0
 10
-140.6475
 20
5.7353
 30
0.0
 10
-140.6475
 20
7.8971
 30
0.0
 10
-140.6475
 20
7.8971
 30
0.0
 10
-140.6475
 20
10.0584
 30
0.0
 10
-138.9947
 20
11.7113
 30
0.0
 10
-136.8333
 20
11.7113
 30
0.0
 10
-136.8333
 20
11.7113
 30
0.0
 10
-136.8333
 20
11.7113
 30
0.0
 10
-136.8333
 20
16.1612
 30
0.0
 10
-136.8333
 20
16.1612
 30
0.0
 10
-136.8333
 20
16.1612
 30
0.0
 10
-136.8333
 20
16.1612
 30
0.0
 10
-132.5106
 20
16.1612
 30
0.0
 10
-132.5106
 20
16.1612
 30
0.0
 10
-132.5106
 20
16.1612
 30
0.0
 10
-132.5106
 20
18.1957
 30
0.0
 10
-130.7305
 20
19.9754
 30
0.0
 10
-128.5692
 20
19.9754
 30
0.0
 10
-128.5692
 20
19.9754
 30
0.0
 10
-126.5347
 20
19.9754
 30
0.0
 10
-124.7546
 20
18.1957
 30
0.0
 10
-124.7546
 20
16.1612
 30
0.0
  0
SPLINE
  5
68
330
1F
100
AcDbEntity
  8
layer 1
 62
     7
100
AcDbSpline
210
0.0
220
0.0
230
1.0
 70
    11
 71
     3
 72
    68
 73
    64
 74
     0
 42
0.0000000001
 43
0.0000000001
 12
1.0
 22
0.0
 32
0.0
 13
1.0
 23
0.0
 33
0.0
 40
0.0
 40
0.0
 40
0.0
 40
0.0
 40
0.0588235294117647
 40
0.0588235294117647
 40
0.0588235294117647
 40
0.0588235294117647
 40
0.1176470588235294
 40
0.1176470588235294
 40
0.1176470588235294
 40
0.1176470588235294
 40
0.1764705882352941
 40
0.1764705882352941
 40
0.1764705882352941
 40
0.1764705882352941
 40
0.2352941176470588
 40
0.2352941176470588
 40
0.2352941176470588
 40
0.2352941176470588
 40
0.2941176470588235
 40
0.2941176470588235
 40
0.2941176470588235
 40
0.2941176470588235
 40
0.3529411764705883
 40
0.3529411764705883
 40
0.3529411764705883
 40
0.3529411764705883
 40
0.4117647058823529
 40
0.4117647058823529
 40
0.4117647058823529
 40
0.4117647058823529
 40
0.4705882352941176
 40
0.4705882352941176
 40
0.4705882352941176
 40
0.4705882352941176
 40
0.5294117647058824
 40
0.5294117647058824
 40
0.5294117647058824
 40
0.5294117647058824
 40
0.5882352941176471
 40
0.5882352941176471
 40
0.5882352941176471
 40
0.5882352941176471
 40
0.6470588235294118
 40
0.6470588235294118
 40
0.6470588235294118
 40
0.6470588235294118
 40
0.7058823529411765
 40
0.7058823529411765
 40
0.7058823529411765
 40
0.7058823529411765
 40
0.7647058823529411
 40
0.7647058823529411
 40
0.7647058823529411
 40
0.7647058823529411
 40
0.8235294117647058
 40
0.8235294117647058
 40
0.8235294117647058
 40
0.8235294117647058
 40
0.8823529411764706
 40
0.8823529411764706
 40
0.8823529411764706
 40
0.8823529411764706
 40
1.0
 40
1.0
 40
1.0
 40
1.0
 10
-123.3562
 20
24.9342
 30
0.0
 10
-121.8303
 20
25.6969
 30
0.0
 10
-120.686
 20
26.9684
 30
0.0
 10
-120.1774
 20
28.6212
 30
0.0
 10
-120.1774
 20
28.6212
 30
0.0
 10
-120.1774
 20
28.6212
 30
0.0
 10
-115.9819
 20
28.6212
 30
0.0
 10
-115.9819
 20
28.6212
 30
0.0
 10
-115.9819
 20
28.6212
 30
0.0
 10
-115.9819
 20
28.6212
 30
0.0
 10
-115.9819
 20
32.8171
 30
0.0
 10
-115.9819
 20
32.8171
 30
0.0
 10
-115.9819
 20
32.8171
 30
0.0
 10
-114.3288
 20
33.3256
 30
0.0
 10
-113.0576
 20
34.4699
 30
0.0
 10
-112.2946
 20
35.9955
 30
0.0
 10
-112.2946
 20
35.9955
 30
0.0
 10
-111.5316
 20
34.4699
 30
0.0
 10
-110.2605
 20
33.3256
 30
0.0
 10
-108.6073
 20
32.8171
 30
0.0
 10
-108.6073
 20
32.8171
 30
0.0
 10
-108.6073
 20
32.8171
 30
0.0
 10
-108.6073
 20
28.6212
 30
0.0
 10
-108.6073
 20
28.6212
 30
0.0
 10
-108.6073
 20
28.6212
 30
0.0
 10
-108.6073
 20
28.6212
 30
0.0
 10
-104.4118
 20
28.6212
 30
0.0
 10
-104.4118
 20
28.6212
 30
0.0
 10
-104.4118
 20
28.6212
 30
0.0
 10
-103.9033
 20
26.9684
 30
0.0
 10
-102.759
 20
25.6969
 30
0.0
 10
-101.1696
 20
24.9342
 30
0.0
 10
-101.1696
 20
24.9342
 30
0.0
 10
-102.759
 20
24.1712
 30
0.0
 10
-103.9033
 20
22.8997
 30
0.0
 10
-104.4118
 20
21.2469
 30
0.0
 10
-104.4118
 20
21.2469
 30
0.0
 10
-104.4118
 20
21.2469
 30
0.0
 10
-108.6073
 20
21.2469
 30
0.0
 10
-108.6073
 20
21.2469
 30
0.0
 10
-108.6073
 20
21.2469
 30
0.0
 10
-108.6073
 20
21.2469
 30
0.0
 10
-108.6073
 20
17.0514
 30
0.0
 10
-108.6073
 20
17.0514
 30
0.0
 10
-108.6073
 20
17.0514
 30
0.0
 10
-110.2605
 20
16.5425
 30
0.0
 10
-111.5316
 20
15.3982
 30
0.0
 10
-112.2946
 20
13.7454
 30
0.0
 10
-112.2946
 20
13.7454
 30
0.0
 10
-113.0576
 20
15.3982
 30
0.0
 10
-114.3288
 20
16.5425
 30
0.0
 10
-115.9819
 20
17.0514
 30
0.0
 10
-115.9819
 20
17.0514
 30
0.0
 10
-115.9819
 20
17.0514
 30
0.0
 10
-115.9819
 20
21.2469
 30
0.0
 10
-115.9819
 20
21.2469
 30
0.0
 10
-115.9819
 20
21.2469
 30
0.0
 10
-115.9819
 20
21.2469
 30
0.0
 10
-120.1774
 20
21.2469
 30
0.0
 10
-120.1774
 20
21.2469
 30
0.0
 10
-120.1774
 20
21.2469
 30
0.0
 10
-120.686
 20
22.8997
 30
0.0
 10
-121.8303
 20
24.1712
 30
0.0
 10
-123.3562
 20
24.9342
 30
0.0
  0
SPLINE
  5
69
330
1F
100
AcDbEntity
  8
layer 1
 62
     7
100
AcDbSpline
210
0.0
220
0.0
230
1.0
 70
    11
 71
     3
 72
    68
 73
    64
 74
     0
 42
0.0000000001
 43
0.0000000001
 12
1.0
 22
0.0
 32
0.0
 13
1.0
 23
0.0
 33
0.0
 40
0.0
 40
0.0
 40
0.0
 40
0.0
 40
0.0588235294117647
 40
0.0588235294117647
 40
0.0588235294117647
 40
0.0588235294117647
 40
0.1176470588235294
 40
0.1176470588235294
 40
0.1176470588235294
 40
0.1176470588235294
 40
0.1764705882352941
 40
0.1764705882352941
 40
0.1764705882352941
 40
0.1764705882352941
 40
0.2352941176470588
 40
0.2352941176470588
 40
0.2352941176470588
 40
0.2352941176470588
 40
0.2941176470588235
 40
0.2941176470588235
 40
0.2941176470588235
 40
0.2941176470588235
 40
0.3529411764705883
 40
0.3529411764705883
 40
0.3529411764705883
 40
0.3529411764705883
 40
0.4117647058823529
 40
0.4117647058823529
 40
0.4117647058823529
 40
0.4117647058823529
 40
0.4705882352941176
 40
0.4705882352941176
 40
0.4705882352941176
 40
0.4705882352941176
 40
0.5294117647058824
 40
0.5294117647058824
 40
0.5294117647058824
 40
0.5294117647058824
 40
0.5882352941176471
 40
0.5882352941176471
 40
0.5882352941176471
 40
0.5882352941176471
 40
0.6470588235294118
 40
0.6470588235294118
 40
0.6470588235294118
 40
0.6470588235294118
 40
0.7058823529411765
 40
0.7058823529411765
 40
0.7058823529411765
 40
0.7058823529411765
 40
0.7647058823529411
 40
0.7647058823529411
 40
0.7647058823529411
 40
0.7647058823529411
 40
0.8235294117647058
 40
0.8235294117647058
 40
0.8235294117647058
 40
0.8235294117647058
 40
0.8823529411764706
 40
0.8823529411764706
 40
0.8823529411764706
 40
0.8823529411764706
 40
1.0
 40
1.0
 40
1.0
 40
1.0
 10
-124.7546
 20
49.4729
 30
0.0
 10
-124.7546
 20
49.4729
 30
0.0
 10
-120.4319
 20
49.4729
 30
0.0
 10
-120.4319
 20
49.4729
 30
0.0
 10
-120.4319
 20
49.4729
 30
0.0
 10
-120.4319
 20
49.4729
 30
0.0
 10
-120.4319
 20
45.023
 30
0.0
 10
-120.4319
 20
45.023
 30
0.0
 10
-120.4319
 20
45.023
 30
0.0
 10
-118.2705
 20
45.023
 30
0.0
 10
-116.4905
 20
43.3701
 30
0.0
 10
-116.4905
 20
41.2084
 30
0.0
 10
-116.4905
 20
41.2084
 30
0.0
 10
-116.4905
 20
39.0471
 30
0.0
 10
-118.2705
 20
37.3942
 30
0.0
 10
-120.4319
 20
37.3942
 30
0.0
 10
-120.4319
 20
37.3942
 30
0.0
 10
-120.4319
 20
37.3942
 30
0.0
 10
-120.4319
 20
33.0715
 30
0.0
 10
-120.4319
 20
33.0715
 30
0.0
 10
-120.4319
 20
33.0715
 30
0.0
 10
-120.4319
 20
33.0715
 30
0.0
 10
-124.7546
 20
32.9443
 30
0.0
 10
-124.7546
 20
32.9443
 30
0.0
 10
-124.7546
 20
32.9443
 30
0.0
 10
-124.7546
 20
30.9098
 30
0.0
 10
-126.5347
 20
29.1297
 30
0.0
 10
-128.5692
 20
29.1297
 30
0.0
 10
-128.5692
 20
29.1297
 30
0.0
 10
-130.7305
 20
29.1297
 30
0.0
 10
-132.5106
 20
30.9098
 30
0.0
 10
-132.5106
 20
32.9443
 30
0.0
 10
-132.5106
 20
32.9443
 30
0.0
 10
-132.5106
 20
32.9443
 30
0.0
 10
-136.8333
 20
32.9443
 30
0.0
 10
-136.8333
 20
32.9443
 30
0.0
 10
-136.8333
 20
32.9443
 30
0.0
 10
-136.8333
 20
32.9443
 30
0.0
 10
-136.8333
 20
37.3942
 30
0.0
 10
-136.8333
 20
37.3942
 30
0.0
 10
-136.8333
 20
37.3942
 30
0.0
 10
-138.9947
 20
37.3942
 30
0.0
 10
-140.6475
 20
39.0471
 30
0.0
 10
-140.6475
 20
41.2084
 30
0.0
 10
-140.6475
 20
41.2084
 30
0.0
 10
-140.6475
 20
43.3701
 30
0.0
 10
-138.9947
 20
45.023
 30
0.0
 10
-136.8333
 20
45.023
 30
0.0
 10
-136.8333
 20
45.023
 30
0.0
 10
-136.8333
 20
45.023
 30
0.0
 10
-136.8333
 20
49.4729
 30
0.0
 10
-136.8333
 20
49.4729
 30
0.0
 10
-136.8333
 20
49.4729
 30
0.0
 10
-136.8333
 20
49.4729
 30
0.0
 10
-132.5106
 20
49.4729
 30
0.0
 10
-132.5106
 20
49.4729
 30
0.0
 10
-132.5106
 20
49.4729
 30
0.0
 10
-132.5106
 20
51.5071
 30
0.0
 10
-130.7305
 20
53.2871
 30
0.0
 10
-128.5692
 20
53.2871
 30
0.0
 10
-128.5692
 20
53.2871
 30
0.0
 10
-126.5347
 20
53.2871
 30
0.0
 10
-124.7546
 20
51.5071
 30
0.0
 10
-124.7546
 20
49.4729
 30
0.0
  0
SPLINE
  5
6A
330
1F
100
AcDbEntity
  8
layer 1
 62
     7
100
AcDbSpline
210
0.0
220
0.0
230
1.0
 70
    11
 71
     3
 72
    68
 73
    64
 74
     0
 42
0.0000000001
 43
0.0000000001
 12
1.0
 22
0.0
 32
0.0
 13
1.0
 23
0.0
 33
0.0
 40
0.0
 40
0.0
 40
0.0
 40
0.0
 40
0.0588235294117647
 40
0.0588235294117647
 40
0.0588235294117647
 40
0.0588235294117647
 40
0.1176470588235294
 40
0.1176470588235294
 40
0.1176470588235294
 40
0.1176470588235294
 40
0.1764705882352941
 40
0.1764705882352941
 40
0.1764705882352941
 40
0.1764705882352941
 40
0.2352941176470588
 40
0.2352941176470588
 40
0.2352941176470588
 40
0.2352941176470588
 40
0.2941176470588235
 40
0.2941176470588235
 40
0.2941176470588235
 40
0.2941176470588235
 40
0.3529411764705883
 40
0.3529411764705883
 40
0.3529411764705883
 40
0.3529411764705883
 40
0.4117647058823529
 40
0.4117647058823529
 40
0.4117647058823529
 40
0.4117647058823529
 40
0.4705882352941176
 40
0.4705882352941176
 40
0.4705882352941176
 40
0.4705882352941176
 40
0.5294117647058824
 40
0.5294117647058824
 40
0.5294117647058824
 40
0.5294117647058824
 40
0.5882352941176471
 40
0.5882352941176471
 40
0.5882352941176471
 40
0.5882352941176471
 40
0.6470588235294118
 40
0.6470588235294118
 40
0.6470588235294118
 40
0.6470588235294118
 40
0.7058823529411765
 40
0.7058823529411765
 40
0.7058823529411765
 40
0.7058823529411765
 40
0.7647058823529411
 40
0.7647058823529411
 40
0.7647058823529411
 40
0.7647058823529411
 40
0.8235294117647058
 40
0.8235294117647058
 40
0.8235294117647058
 40
0.8235294117647058
 40
0.8823529411764706
 40
0.8823529411764706
 40
0.8823529411764706
 40
0.8823529411764706
 40
1.0
 40
1.0
 40
1.0
 40
1.0
 10
-123.3562
 20
58.2459
 30
0.0
 10
-121.8303
 20
59.0086
 30
0.0
 10
-120.686
 20
60.2801
 30
0.0
 10
-120.1774
 20
61.9329
 30
0.0
 10
-120.1774
 20
61.9329
 30
0.0
 10
-120.1774
 20
61.9329
 30
0.0
 10
-115.9819
 20
61.9329
 30
0.0
 10
-115.9819
 20
61.9329
 30
0.0
 10
-115.9819
 20
61.9329
 30
0.0
 10
-115.9819
 20
61.9329
 30
0.0
 10
-115.9819
 20
66.1288
 30
0.0
 10
-115.9819
 20
66.1288
 30
0.0
 10
-115.9819
 20
66.1288
 30
0.0
 10
-114.3288
 20
66.6373
 30
0.0
 10
-113.0576
 20
67.7816
 30
0.0
 10
-112.2946
 20
69.3072
 30
0.0
 10
-112.2946
 20
69.3072
 30
0.0
 10
-111.5316
 20
67.7816
 30
0.0
 10
-110.2605
 20
66.6373
 30
0.0
 10
-108.6073
 20
66.1288
 30
0.0
 10
-108.6073
 20
66.1288
 30
0.0
 10
-108.6073
 20
66.1288
 30
0.0
 10
-108.6073
 20
61.9329
 30
0.0
 10
-108.6073
 20
61.9329
 30
0.0
 10
-108.6073
 20
61.9329
 30
0.0
 10
-108.6073
 20
61.9329
 30
0.0
 10
-104.4118
 20
61.9329
 30
0.0
 10
-104.4118
 20
61.9329
 30
0.0
 10
-104.4118
 20
61.9329
 30
0.0
 10
-103.9033
 20
60.2801
 30
0.0
 10
-102.759
 20
59.0086
 30
0.0
 10
-101.1696
 20
58.2459
 30
0.0
 10
-101.1696
 20
58.2459
 30
0.0
 10
-102.759
 20
57.483
 30
0.0
 10
-103.9033
 20
56.2115
 30
0.0
 10
-104.4118
 20
54.5586
 30
0.0
 10
-104.4118
 20
54.5586
 30
0.0
 10
-104.4118
 20
54.5586
 30
0.0
 10
-108.6073
 20
54.5586
 30
0.0
 10
-108.6073
 20
54.5586
 30
0.0
 10
-108.6073
 20
54.5586
 30
0.0
 10
-108.6073
 20
54.5586
 30
0.0
 10
-108.6073
 20
50.3628
 30
0.0
 10
-108.6073
 20
50.3628
 30
0.0
 10
-108.6073
 20
50.3628
 30
0.0
 10
-110.2605
 20
49.8542
 30
0.0
 10
-111.5316
 20
48.7099
 30
0.0
 10
-112.2946
 20
47.1843
 30
0.0
 10
-112.2946
 20
47.1843
 30
0.0
 10
-113.0576
 20
48.7099
 30
0.0
 10
-114.3288
 20
49.8542
 30
0.0
 10
-115.9819
 20
50.3628
 30
0.0
 10
-115.9819
 20
50.3628
 30
0.0
 10
-115.9819
 20
50.3628
 30
0.0
 10
-115.9819
 20
54.5586
 30
0.0
 10
-115.9819
 20
54.5586
 30
0.0
 10
-115.9819
 20
54.5586
 30
0.0
 10
-115.9819
 20
54.5586
 30
0.0
 10
-120.1774
 20
54.5586
 30
0.0
 10
-120.1774
 20
54.5586
 30
0.0
 10
-120.1774
 20
54.5586
 30
0.0
 10
-120.686
 20
56.2115
 30
0.0
 10
-121.8303
 20
57.483
 30
0.0
 10
-123.3562
 20
58.2459
 30
0.0
  0
SPLINE
  5
6B
330
1F
100
AcDbEntity
  8
layer 1
 62
     7
100
AcDbSpline
210
0.0
220
0.0
230
1.0
 70
    11
 71
     3
 72
    68
 73
    64
 74
     0
 42
0.0000000001
 43
0.0000000001
 12
1.0
 22
0.0
 32
0.0
 13
1.0
 23
0.0
 33
0.0
 40
0.0
 40
0.0
 40
0.0
 40
0.0
 40
0.0588235294117647
 40
0.0588235294117647
 40
0.0588235294117647
 40
0.0588235294117647
 40
0.1176470588235294
 40
0.1176470588235294
 40
0.1176470588235294
 40
0.1176470588235294
 40
0.1764705882352941
 40
0.1764705882352941
 40
0.1764705882352941
 40
0.1764705882352941
 40
0.2352941176470588
 40
0.2352941176470588
 40
0.2352941176470588
 40
0.2352941176470588
 40
0.2941176470588235
 40
0.2941176470588235
 40
0.2941176470588235
 40
0.2941176470588235
 40
0.3529411764705883
 40
0.3529411764705883
 40
0.3529411764705883
 40
0.3529411764705883
 40
0.4117647058823529
 40
0.4117647058823529
 40
0.4117647058823529
 40
0.4117647058823529
 40
0.4705882352941176
 40
0.4705882352941176
 40
0.4705882352941176
 40
0.4705882352941176
 40
0.5294117647058824
 40
0.5294117647058824
 40
0.5294117647058824
 40
0.5294117647058824
 40
0.5882352941176471
 40
0.5882352941176471
 40
0.5882352941176471
 40
0.5882352941176471
 40
0.6470588235294118
 40
0.6470588235294118
 40
0.6470588235294118
 40
0.6470588235294118
 40
0.7058823529411765
 40
0.7058823529411765
 40
0.7058823529411765
 40
0.7058823529411765
 40
0.7647058823529411
 40
0.7647058823529411
 40
0.7647058823529411
 40
0.7647058823529411
 40
0.8235294117647058
 40
0.8235294117647058
 40
0.8235294117647058
 40
0.8235294117647058
 40
0.8823529411764706
 40
0.8823529411764706
 40
0.8823529411764706
 40
0.8823529411764706
 40
1.0
 40
1.0
 40
1.0
 40
1.0
 10
-124.7546
 20
82.7846
 30
0.0
 10
-124.7546
 20
82.7846
 30
0.0
 10
-120.4319
 20
82.7846
 30
0.0
 10
-120.4319
 20
82.7846
 30
0.0
 10
-120.4319
 20
82.7846
 30
0.0
 10
-120.4319
 20
82.7846
 30
0.0
 10
-120.4319
 20
78.3343
 30
0.0
 10
-120.4319
 20
78.3343
 30
0.0
 10
-120.4319
 20
78.3343
 30
0.0
 10
-118.2705
 20
78.3343
 30
0.0
 10
-116.4905
 20
76.6815
 30
0.0
 10
-116.4905
 20
74.5201
 30
0.0
 10
-116.4905
 20
74.5201
 30
0.0
 10
-116.4905
 20
72.3588
 30
0.0
 10
-118.2705
 20
70.7059
 30
0.0
 10
-120.4319
 20
70.7059
 30
0.0
 10
-120.4319
 20
70.7059
 30
0.0
 10
-120.4319
 20
70.7059
 30
0.0
 10
-120.4319
 20
66.3829
 30
0.0
 10
-120.4319
 20
66.3829
 30
0.0
 10
-120.4319
 20
66.3829
 30
0.0
 10
-120.4319
 20
66.3829
 30
0.0
 10
-124.7546
 20
66.3829
 30
0.0
 10
-124.7546
 20
66.3829
 30
0.0
 10
-124.7546
 20
66.3829
 30
0.0
 10
-124.7546
 20
64.2215
 30
0.0
 10
-126.5347
 20
62.4414
 30
0.0
 10
-128.5692
 20
62.4414
 30
0.0
 10
-128.5692
 20
62.4414
 30
0.0
 10
-130.7305
 20
62.4414
 30
0.0
 10
-132.5106
 20
64.2215
 30
0.0
 10
-132.5106
 20
66.3829
 30
0.0
 10
-132.5106
 20
66.3829
 30
0.0
 10
-132.5106
 20
66.3829
 30
0.0
 10
-136.8333
 20
66.3829
 30
0.0
 10
-136.8333
 20
66.3829
 30
0.0
 10
-136.8333
 20
66.3829
 30
0.0
 10
-136.8333
 20
66.3829
 30
0.0
 10
-136.8333
 20
70.7059
 30
0.0
 10
-136.8333
 20
70.7059
 30
0.0
 10
-136.8333
 20
70.7059
 30
0.0
 10
-138.9947
 20
70.7059
 30
0.0
 10
-140.6475
 20
72.3588
 30
0.0
 10
-140.6475
 20
74.5201
 30
0.0
 10
-140.6475
 20
74.5201
 30
0.0
 10
-140.6475
 20
76.6815
 30
0.0
 10
-138.9947
 20
78.3343
 30
0.0
 10
-136.8333
 20
78.3343
 30
0.0
 10
-136.8333
 20
78.3343
 30
0.0
 10
-136.8333
 20
78.3343
 30
0.0
 10
-136.8333
 20
82.7846
 30
0.0
 10
-136.8333
 20
82.7846
 30
0.0
 10
-136.8333
 20
82.7846
 30
0.0
 10
-136.8333
 20
82.7846
 30
0.0
 10
-132.5106
 20
82.7846
 30
0.0
 10
-132.5106
 20
82.7846
 30
0.0
 10
-132.5106
 20
82.7846
 30
0.0
 10
-132.5106
 20
84.946
 30
0.0
 10
-130.7305
 20
86.5988
 30
0.0
 10
-128.5692
 20
86.5988
 30
0.0
 10
-128.5692
 20
86.5988
 30
0.0
 10
-126.5347
 20
86.5988
 30
0.0
 10
-124.7546
 20
84.946
 30
0.0
 10
-124.7546
 20
82.7846
 30
0.0
  0
SPLINE
  5
6C
330
1F
100
AcDbEntity
  8
layer 1
 62
     7
100
AcDbSpline
210
0.0
220
0.0
230
1.0
 70
    11
 71
     3
 72
    68
 73
    64
 74
     0
 42
0.0000000001
 43
0.0000000001
 12
1.0
 22
0.0
 32
0.0
 13
1.0
 23
0.0
 33
0.0
 40
0.0
 40
0.0
 40
0.0
 40
0.0
 40
0.0588235294117647
 40
0.0588235294117647
 40
0.0588235294117647
 40
0.0588235294117647
 40
0.1176470588235294
 40
0.1176470588235294
 40
0.1176470588235294
 40
0.1176470588235294
 40
0.1764705882352941
 40
0.1764705882352941
 40
0.1764705882352941
 40
0.1764705882352941
 40
0.2352941176470588
 40
0.2352941176470588
 40
0.2352941176470588
 40
0.2352941176470588
 40
0.2941176470588235
 40
0.2941176470588235
 40
0.2941176470588235
 40
0.2941176470588235
 40
0.3529411764705883
 40
0.3529411764705883
 40
0.3529411764705883
 40
0.3529411764705883
 40
0.4117647058823529
 40
0.4117647058823529
 40
0.4117647058823529
 40
0.4117647058823529
 40
0.4705882352941176
 40
0.4705882352941176
 40
0.4705882352941176
 40
0.4705882352941176
 40
0.5294117647058824
 40
0.5294117647058824
 40
0.5294117647058824
 40
0.5294117647058824
 40
0.5882352941176471
 40
0.5882352941176471
 40
0.5882352941176471
 40
0.5882352941176471
 40
0.6470588235294118
 40
0.6470588235294118
 40
0.6470588235294118
 40
0.6470588235294118
 40
0.7058823529411765
 40
0.7058823529411765
 40
0.7058823529411765
 40
0.7058823529411765
 40
0.7647058823529411
 40
0.7647058823529411
 40
0.7647058823529411
 40
0.7647058823529411
 40
0.8235294117647058
 40
0.8235294117647058
 40
0.8235294117647058
 40
0.8235294117647058
 40
0.8823529411764706
 40
0.8823529411764706
 40
0.8823529411764706
 40
0.8823529411764706
 40
1.0
 40
1.0
 40
1.0
 40
1.0
 10
-123.3562
 20
91.5573
 30
0.0
 10
-121.8303
 20
92.3203
 30
0.0
 10
-120.686
 20
93.5918
 30
0.0
 10
-120.1774
 20
95.2446
 30
0.0
 10
-120.1774
 20
95.2446
 30
0.0
 10
-120.1774
 20
95.2446
 30
0.0
 10
-115.9819
 20
95.2446
 30
0.0
 10
-115.9819
 20
95.2446
 30
0.0
 10
-115.9819
 20
95.2446
 30
0.0
 10
-115.9819
 20
95.2446
 30
0.0
 10
-115.9819
 20
99.4405
 30
0.0
 10
-115.9819
 20
99.4405
 30
0.0
 10
-115.9819
 20
99.4405
 30
0.0
 10
-114.3288
 20
99.949
 30
0.0
 10
-113.0576
 20
101.0933
 30
0.0
 10
-112.2946
 20
102.6189
 30
0.0
 10
-112.2946
 20
102.6189
 30
0.0
 10
-111.5316
 20
101.0933
 30
0.0
 10
-110.2605
 20
99.949
 30
0.0
 10
-108.6073
 20
99.4405
 30
0.0
 10
-108.6073
 20
99.4405
 30
0.0
 10
-108.6073
 20
99.4405
 30
0.0
 10
-108.6073
 20
95.2446
 30
0.0
 10
-108.6073
 20
95.2446
 30
0.0
 10
-108.6073
 20
95.2446
 30
0.0
 10
-108.6073
 20
95.2446
 30
0.0
 10
-104.4118
 20
95.2446
 30
0.0
 10
-104.4118
 20
95.2446
 30
0.0
 10
-104.4118
 20
95.2446
 30
0.0
 10
-103.9033
 20
93.5918
 30
0.0
 10
-102.759
 20
92.3203
 30
0.0
 10
-101.1696
 20
91.5573
 30
0.0
 10
-101.1696
 20
91.5573
 30
0.0
 10
-102.759
 20
90.7947
 30
0.0
 10
-103.9033
 20
89.5232
 30
0.0
 10
-104.4118
 20
87.8703
 30
0.0
 10
-104.4118
 20
87.8703
 30
0.0
 10
-104.4118
 20
87.8703
 30
0.0
 10
-108.6073
 20
87.8703
 30
0.0
 10
-108.6073
 20
87.8703
 30
0.0
 10
-108.6073
 20
87.8703
 30
0.0
 10
-108.6073
 20
87.8703
 30
0.0
 10
-108.6073
 20
83.6745
 30
0.0
 10
-108.6073
 20
83.6745
 30
0.0
 10
-108.6073
 20
83.6745
 30
0.0
 10
-110.2605
 20
83.1659
 30
0.0
 10
-111.5316
 20
82.0217
 30
0.0
 10
-112.2946
 20
80.496
 30
0.0
 10
-112.2946
 20
80.496
 30
0.0
 10
-113.0576
 20
82.0217
 30
0.0
 10
-114.3288
 20
83.1659
 30
0.0
 10
-115.9819
 20
83.6745
 30
0.0
 10
-115.9819
 20
83.6745
 30
0.0
 10
-115.9819
 20
83.6745
 30
0.0
 10
-115.9819
 20
87.8703
 30
0.0
 10
-115.9819
 20
87.8703
 30
0.0
 10
-115.9819
 20
87.8703
 30
0.0
 10
-115.9819
 20
87.8703
 30
0.0
 10
-120.1774
 20
87.8703
 30
0.0
 10
-120.1774
 20
87.8703
 30
0.0
 10
-120.1774
 20
87.8703
 30
0.0
 10
-120.686
 20
89.5232
 30
0.0
 10
-121.8303
 20
90.7947
 30
0.0
 10
-123.3562
 20
91.5573
 30
0.0
  0
SPLINE
  5
6D
330
1F
100
AcDbEntity
  8
layer 1
 62
     7
100
AcDbSpline
210
0.0
220
0.0
230
1.0
 70
    11
 71
     3
 72
    68
 73
    64
 74
     0
 42
0.0000000001
 43
0.0000000001
 12
1.0
 22
0.0
 32
0.0
 13
1.0
 23
0.0
 33
0.0
 40
0.0
 40
0.0
 40
0.0
 40
0.0
 40
0.0588235294117647
 40
0.0588235294117647
 40
0.0588235294117647
 40
0.0588235294117647
 40
0.1176470588235294
 40
0.1176470588235294
 40
0.1176470588235294
 40
0.1176470588235294
 40
0.1764705882352941
 40
0.1764705882352941
 40
0.1764705882352941
 40
0.1764705882352941
 40
0.2352941176470588
 40
0.2352941176470588
 40
0.2352941176470588
 40
0.2352941176470588
 40
0.2941176470588235
 40
0.2941176470588235
 40
0.2941176470588235
 40
0.2941176470588235
 40
0.3529411764705883
 40
0.3529411764705883
 40
0.3529411764705883
 40
0.3529411764705883
 40
0.4117647058823529
 40
0.4117647058823529
 40
0.4117647058823529
 40
0.4117647058823529
 40
0.4705882352941176
 40
0.4705882352941176
 40
0.4705882352941176
 40
0.4705882352941176
 40
0.5294117647058824
 40
0.5294117647058824
 40
0.5294117647058824
 40
0.5294117647058824
 40
0.5882352941176471
 40
0.5882352941176471
 40
0.5882352941176471
 40
0.5882352941176471
 40
0.6470588235294118
 40
0.6470588235294118
 40
0.6470588235294118
 40
0.6470588235294118
 40
0.7058823529411765
 40
0.7058823529411765
 40
0.7058823529411765
 40
0.7058823529411765
 40
0.7647058823529411
 40
0.7647058823529411
 40
0.7647058823529411
 40
0.7647058823529411
 40
0.8235294117647058
 40
0.8235294117647058
 40
0.8235294117647058
 40
0.8235294117647058
 40
0.8823529411764706
 40
0.8823529411764706
 40
0.8823529411764706
 40
0.8823529411764706
 40
1.0
 40
1.0
 40
1.0
 40
1.0
 10
-124.7546
 20
116.096
 30
0.0
 10
-124.7546
 20
116.096
 30
0.0
 10
-120.4319
 20
116.096
 30
0.0
 10
-120.4319
 20
116.096
 30
0.0
 10
-120.4319
 20
116.096
 30
0.0
 10
-120.4319
 20
116.096
 30
0.0
 10
-120.4319
 20
111.7733
 30
0.0
 10
-120.4319
 20
111.7733
 30
0.0
 10
-120.4319
 20
111.7733
 30
0.0
 10
-118.2705
 20
111.7733
 30
0.0
 10
-116.4905
 20
109.9932
 30
0.0
 10
-116.4905
 20
107.8319
 30
0.0
 10
-116.4905
 20
107.8319
 30
0.0
 10
-116.4905
 20
105.7974
 30
0.0
 10
-118.2705
 20
104.0177
 30
0.0
 10
-120.4319
 20
104.0177
 30
0.0
 10
-120.4319
 20
104.0177
 30
0.0
 10
-120.4319
 20
104.0177
 30
0.0
 10
-120.4319
 20
99.6946
 30
0.0
 10
-120.4319
 20
99.6946
 30
0.0
 10
-120.4319
 20
99.6946
 30
0.0
 10
-120.4319
 20
99.6946
 30
0.0
 10
-124.7546
 20
99.6946
 30
0.0
 10
-124.7546
 20
99.6946
 30
0.0
 10
-124.7546
 20
99.6946
 30
0.0
 10
-124.7546
 20
97.5332
 30
0.0
 10
-126.5347
 20
95.7532
 30
0.0
 10
-128.5692
 20
95.7532
 30
0.0
 10
-128.5692
 20
95.7532
 30
0.0
 10
-130.7305
 20
95.7532
 30
0.0
 10
-132.5106
 20
97.5332
 30
0.0
 10
-132.5106
 20
99.6946
 30
0.0
 10
-132.5106
 20
99.6946
 30
0.0
 10
-132.5106
 20
99.6946
 30
0.0
 10
-136.8333
 20
99.6946
 30
0.0
 10
-136.8333
 20
99.6946
 30
0.0
 10
-136.8333
 20
99.6946
 30
0.0
 10
-136.8333
 20
99.6946
 30
0.0
 10
-136.8333
 20
104.0177
 30
0.0
 10
-136.8333
 20
104.0177
 30
0.0
 10
-136.8333
 20
104.0177
 30
0.0
 10
-138.9947
 20
104.0177
 30
0.0
 10
-140.6475
 20
105.7974
 30
0.0
 10
-140.6475
 20
107.8319
 30
0.0
 10
-140.6475
 20
107.8319
 30
0.0
 10
-140.6475
 20
109.9932
 30
0.0
 10
-138.9947
 20
111.7733
 30
0.0
 10
-136.8333
 20
111.7733
 30
0.0
 10
-136.8333
 20
111.7733
 30
0.0
 10
-136.8333
 20
111.7733
 30
0.0
 10
-136.8333
 20
116.096
 30
0.0
 10
-136.8333
 20
116.096
 30
0.0
 10
-136.8333
 20
116.096
 30
0.0
 10
-136.8333
 20
116.096
 30
0.0
 10
-132.5106
 20
116.096
 30
0.0
 10
-132.5106
 20
116.096
 30
0.0
 10
-132.5106
 20
116.096
 30
0.0
 10
-132.5106
 20
118.2577
 30
0.0
 10
-130.7305
 20
119.9105
 30
0.0
 10
-128.5692
 20
119.9105
 30
0.0
 10
-128.5692
 20
119.9105
 30
0.0
 10
-126.5347
 20
119.9105
 30
0.0
 10
-124.7546
 20
118.2577
 30
0.0
 10
-124.7546
 20
116.096
 30
0.0
  0
SPLINE
  5
6E
330
1F
100
AcDbEntity
  8
layer 1
 62
     7
100
AcDbSpline
210
0.0
220
0.0
230
1.0
 70
    11
 71
     3
 72
    48
 73
    44
 74
     0
 42
0.0000000001
 43
0.0000000001
 12
1.0
 22
0.0
 32
0.0
 13
1.0
 23
0.0
 33
0.0
 40
0.0
 40
0.0
 40
0.0
 40
0.0
 40
0.0833333333333333
 40
0.0833333333333333
 40
0.0833333333333333
 40
0.0833333333333333
 40
0.1666666666666667
 40
0.1666666666666667
 40
0.1666666666666667
 40
0.1666666666666667
 40
0.25
 40
0.25
 40
0.25
 40
0.25
 40
0.3333333333333333
 40
0.3333333333333333
 40
0.3333333333333333
 40
0.3333333333333333
 40
0.4166666666666667
 40
0.4166666666666667
 40
0.4166666666666667
 40
0.4166666666666667
 40
0.5
 40
0.5
 40
0.5
 40
0.5
 40
0.5833333333333334
 40
0.5833333333333334
 40
0.5833333333333334
 40
0.5833333333333334
 40
0.6666666666666666
 40
0.6666666666666666
 40
0.6666666666666666
 40
0.6666666666666666
 40
0.75
 40
0.75
 40
0.75
 40
0.75
 40
0.8333333333333334
 40
0.8333333333333334
 40
0.8333333333333334
 40
0.8333333333333334
 40
1.0
 40
1.0
 40
1.0
 40
1.0
 10
-123.3562
 20
124.869
 30
0.0
 10
-122.8477
 20
125.1235
 30
0.0
 10
-122.2119
 20
125.5048
 30
0.0
 10
-121.8303
 20
126.0133
 30
0.0
 10
-121.8303
 20
126.0133
 30
0.0
 10
-121.8303
 20
126.0133
 30
0.0
 10
-102.759
 20
126.0133
 30
0.0
 10
-102.759
 20
126.0133
 30
0.0
 10
-102.759
 20
126.0133
 30
0.0
 10
-102.2504
 20
125.5048
 30
0.0
 10
-101.7545
 20
125.1235
 30
0.0
 10
-101.1696
 20
124.869
 30
0.0
 10
-101.1696
 20
124.869
 30
0.0
 10
-102.759
 20
124.106
 30
0.0
 10
-103.9033
 20
122.8349
 30
0.0
 10
-104.4118
 20
121.1821
 30
0.0
 10
-104.4118
 20
121.1821
 30
0.0
 10
-104.4118
 20
121.1821
 30
0.0
 10
-108.6073
 20
121.1821
 30
0.0
 10
-108.6073
 20
121.1821
 30
0.0
 10
-108.6073
 20
121.1821
 30
0.0
 10
-108.6073
 20
121.1821
 30
0.0
 10
-108.6073
 20
116.9862
 30
0.0
 10
-108.6073
 20
116.9862
 30
0.0
 10
-108.6073
 20
116.9862
 30
0.0
 10
-110.2605
 20
116.4777
 30
0.0
 10
-111.5316
 20
115.3334
 30
0.0
 10
-112.2946
 20
113.8074
 30
0.0
 10
-112.2946
 20
113.8074
 30
0.0
 10
-113.0576
 20
115.3334
 30
0.0
 10
-114.3288
 20
116.4777
 30
0.0
 10
-115.9819
 20
116.9862
 30
0.0
 10
-115.9819
 20
116.9862
 30
0.0
 10
-115.9819
 20
116.9862
 30
0.0
 10
-115.9819
 20
121.1821
 30
0.0
 10
-115.9819
 20
121.1821
 30
0.0
 10
-115.9819
 20
121.1821
 30
0.0
 10
-115.9819
 20
121.1821
 30
0.0
 10
-120.1774
 20
121.1821
 30
0.0
 10
-120.1774
 20
121.1821
 30
0.0
 10
-120.1774
 20
121.1821
 30
0.0
 10
-120.686
 20
122.8349
 30
0.0
 10
-121.8303
 20
124.106
 30
0.0
 10
-123.3562
 20
124.869
 30
0.0
  0
SPLINE
  5
6F
330
1F
100
AcDbEntity
  8
layer 1
 62
     7
100
AcDbSpline
210
0.0
220
0.0
230
1.0
 70
    11
 71
     3
 72
    48
 73
    44
 74
     0
 42
0.0000000001
 43
0.0000000001
 12
1.0
 22
0.0
 32
0.0
 13
1.0
 23
0.0
 33
0.0
 40
0.0
 40
0.0
 40
0.0
 40
0.0
 40
0.0833333333333333
 40
0.0833333333333333
 40
0.0833333333333333
 40
0.0833333333333333
 40
0.1666666666666667
 40
0.1666666666666667
 40
0.1666666666666667
 40
0.1666666666666667
 40
0.25
 40
0.25
 40
0.25
 40
0.25
 40
0.3333333333333333
 40
0.3333333333333333
 40
0.3333333333333333
 40
0.3333333333333333
 40
0.4166666666666667
 40
0.4166666666666667
 40
0.4166666666666667
 40
0.4166666666666667
 40
0.5
 40
0.5
 40
0.5
 40
0.5
 40
0.5833333333333334
 40
0.5833333333333334
 40
0.5833333333333334
 40
0.5833333333333334
 40
0.6666666666666666
 40
0.6666666666666666
 40
0.6666666666666666
 40
0.6666666666666666
 40
0.75
 40
0.75
 40
0.75
 40
0.75
 40
0.8333333333333334
 40
0.8333333333333334
 40
0.8333333333333334
 40
0.8333333333333334
 40
1.0
 40
1.0
 40
1.0
 40
1.0
 10
-156.6676
 20
124.869
 30
0.0
 10
-156.1591
 20
125.1235
 30
0.0
 10
-155.5233
 20
125.5048
 30
0.0
 10
-155.142
 20
126.0133
 30
0.0
 10
-155.142
 20
126.0133
 30
0.0
 10
-155.142
 20
126.0133
 30
0.0
 10
-136.0703
 20
126.0133
 30
0.0
 10
-136.0703
 20
126.0133
 30
0.0
 10
-136.0703
 20
126.0133
 30
0.0
 10
-135.5618
 20
125.5048
 30
0.0
 10
-135.0532
 20
125.1235
 30
0.0
 10
-134.5447
 20
124.869
 30
0.0
 10
-134.5447
 20
124.869
 30
0.0
 10
-136.0703
 20
124.106
 30
0.0
 10
-137.2146
 20
122.8349
 30
0.0
 10
-137.7235
 20
121.1821
 30
0.0
 10
-137.7235
 20
121.1821
 30
0.0
 10
-137.7235
 20
121.1821
 30
0.0
 10
-141.919
 20
121.1821
 30
0.0
 10
-141.919
 20
121.1821
 30
0.0
 10
-141.919
 20
121.1821
 30
0.0
 10
-141.919
 20
121.1821
 30
0.0
 10
-141.919
 20
116.9862
 30
0.0
 10
-141.919
 20
116.9862
 30
0.0
 10
-141.919
 20
116.9862
 30
0.0
 10
-143.5718
 20
116.4777
 30
0.0
 10
-144.8434
 20
115.3334
 30
0.0
 10
-145.6063
 20
113.8074
 30
0.0
 10
-145.6063
 20
113.8074
 30
0.0
 10
-146.369
 20
115.3334
 30
0.0
 10
-147.6405
 20
116.4777
 30
0.0
 10
-149.2933
 20
116.9862
 30
0.0
 10
-149.2933
 20
116.9862
 30
0.0
 10
-149.2933
 20
116.9862
 30
0.0
 10
-149.2933
 20
121.1821
 30
0.0
 10
-149.2933
 20
121.1821
 30
0.0
 10
-149.2933
 20
121.1821
 30
0.0
 10
-149.2933
 20
121.1821
 30
0.0
 10
-153.4892
 20
121.1821
 30
0.0
 10
-153.4892
 20
121.1821
 30
0.0
 10
-153.4892
 20
121.1821
 30
0.0
 10
-153.9977
 20
122.8349
 30
0.0
 10
-155.142
 20
124.106
 30
0.0
 10
-156.6676
 20
124.869
 30
0.0
  0
SPLINE
  5
70
330
1F
100
AcDbEntity
  8
layer 1
 62
     7
100
AcDbSpline
210
0.0
220
0.0
230
1.0
 70
    11
 71
     3
 72
    68
 73
    64
 74
     0
 42
0.0000000001
 43
0.0000000001
 12
1.0
 22
0.0
 32
0.0
 13
1.0
 23
0.0
 33
0.0
 40
0.0
 40
0.0
 40
0.0
 40
0.0
 40
0.0588235294117647
 40
0.0588235294117647
 40
0.0588235294117647
 40
0.0588235294117647
 40
0.1176470588235294
 40
0.1176470588235294
 40
0.1176470588235294
 40
0.1176470588235294
 40
0.1764705882352941
 40
0.1764705882352941
 40
0.1764705882352941
 40
0.1764705882352941
 40
0.2352941176470588
 40
0.2352941176470588
 40
0.2352941176470588
 40
0.2352941176470588
 40
0.2941176470588235
 40
0.2941176470588235
 40
0.2941176470588235
 40
0.2941176470588235
 40
0.3529411764705883
 40
0.3529411764705883
 40
0.3529411764705883
 40
0.3529411764705883
 40
0.4117647058823529
 40
0.4117647058823529
 40
0.4117647058823529
 40
0.4117647058823529
 40
0.4705882352941176
 40
0.4705882352941176
 40
0.4705882352941176
 40
0.4705882352941176
 40
0.5294117647058824
 40
0.5294117647058824
 40
0.5294117647058824
 40
0.5294117647058824
 40
0.5882352941176471
 40
0.5882352941176471
 40
0.5882352941176471
 40
0.5882352941176471
 40
0.6470588235294118
 40
0.6470588235294118
 40
0.6470588235294118
 40
0.6470588235294118
 40
0.7058823529411765
 40
0.7058823529411765
 40
0.7058823529411765
 40
0.7058823529411765
 40
0.7647058823529411
 40
0.7647058823529411
 40
0.7647058823529411
 40
0.7647058823529411
 40
0.8235294117647058
 40
0.8235294117647058
 40
0.8235294117647058
 40
0.8235294117647058
 40
0.8823529411764706
 40
0.8823529411764706
 40
0.8823529411764706
 40
0.8823529411764706
 40
1.0
 40
1.0
 40
1.0
 40
1.0
 10
-156.6676
 20
91.5573
 30
0.0
 10
-155.142
 20
92.3203
 30
0.0
 10
-153.9977
 20
93.5918
 30
0.0
 10
-153.4892
 20
95.2446
 30
0.0
 10
-153.4892
 20
95.2446
 30
0.0
 10
-153.4892
 20
95.2446
 30
0.0
 10
-149.2933
 20
95.2446
 30
0.0
 10
-149.2933
 20
95.2446
 30
0.0
 10
-149.2933
 20
95.2446
 30
0.0
 10
-149.2933
 20
95.2446
 30
0.0
 10
-149.2933
 20
99.4405
 30
0.0
 10
-149.2933
 20
99.4405
 30
0.0
 10
-149.2933
 20
99.4405
 30
0.0
 10
-147.6405
 20
99.949
 30
0.0
 10
-146.369
 20
101.0933
 30
0.0
 10
-145.6063
 20
102.6189
 30
0.0
 10
-145.6063
 20
102.6189
 30
0.0
 10
-144.8434
 20
101.0933
 30
0.0
 10
-143.5718
 20
99.949
 30
0.0
 10
-141.919
 20
99.4405
 30
0.0
 10
-141.919
 20
99.4405
 30
0.0
 10
-141.919
 20
99.4405
 30
0.0
 10
-141.919
 20
95.2446
 30
0.0
 10
-141.919
 20
95.2446
 30
0.0
 10
-141.919
 20
95.2446
 30
0.0
 10
-141.919
 20
95.2446
 30
0.0
 10
-137.7235
 20
95.2446
 30
0.0
 10
-137.7235
 20
95.2446
 30
0.0
 10
-137.7235
 20
95.2446
 30
0.0
 10
-137.2146
 20
93.5918
 30
0.0
 10
-136.0703
 20
92.3203
 30
0.0
 10
-134.5447
 20
91.5573
 30
0.0
 10
-134.5447
 20
91.5573
 30
0.0
 10
-136.0703
 20
90.7947
 30
0.0
 10
-137.2146
 20
89.5232
 30
0.0
 10
-137.7235
 20
87.8703
 30
0.0
 10
-137.7235
 20
87.8703
 30
0.0
 10
-137.7235
 20
87.8703
 30
0.0
 10
-141.919
 20
87.8703
 30
0.0
 10
-141.919
 20
87.8703
 30
0.0
 10
-141.919
 20
87.8703
 30
0.0
 10
-141.919
 20
87.8703
 30
0.0
 10
-141.919
 20
83.6745
 30
0.0
 10
-141.919
 20
83.6745
 30
0.0
 10
-141.919
 20
83.6745
 30
0.0
 10
-143.5718
 20
83.1659
 30
0.0
 10
-144.8434
 20
82.0217
 30
0.0
 10
-145.6063
 20
80.496
 30
0.0
 10
-145.6063
 20
80.496
 30
0.0
 10
-146.369
 20
82.0217
 30
0.0
 10
-147.6405
 20
83.1659
 30
0.0
 10
-149.2933
 20
83.6745
 30
0.0
 10
-149.2933
 20
83.6745
 30
0.0
 10
-149.2933
 20
83.6745
 30
0.0
 10
-149.2933
 20
87.8703
 30
0.0
 10
-149.2933
 20
87.8703
 30
0.0
 10
-149.2933
 20
87.8703
 30
0.0
 10
-149.2933
 20
87.8703
 30
0.0
 10
-153.4892
 20
87.8703
 30
0.0
 10
-153.4892
 20
87.8703
 30
0.0
 10
-153.4892
 20
87.8703
 30
0.0
 10
-153.9977
 20
89.5232
 30
0.0
 10
-155.142
 20
90.7947
 30
0.0
 10
-156.6676
 20
91.5573
 30
0.0
  0
SPLINE
  5
71
330
1F
100
AcDbEntity
  8
layer 1
 62
     7
100
AcDbSpline
210
0.0
220
0.0
230
1.0
 70
    11
 71
     3
 72
    68
 73
    64
 74
     0
 42
0.0000000001
 43
0.0000000001
 12
1.0
 22
0.0
 32
0.0
 13
1.0
 23
0.0
 33
0.0
 40
0.0
 40
0.0
 40
0.0
 40
0.0
 40
0.0588235294117647
 40
0.0588235294117647
 40
0.0588235294117647
 40
0.0588235294117647
 40
0.1176470588235294
 40
0.1176470588235294
 40
0.1176470588235294
 40
0.1176470588235294
 40
0.1764705882352941
 40
0.1764705882352941
 40
0.1764705882352941
 40
0.1764705882352941
 40
0.2352941176470588
 40
0.2352941176470588
 40
0.2352941176470588
 40
0.2352941176470588
 40
0.2941176470588235
 40
0.2941176470588235
 40
0.2941176470588235
 40
0.2941176470588235
 40
0.3529411764705883
 40
0.3529411764705883
 40
0.3529411764705883
 40
0.3529411764705883
 40
0.4117647058823529
 40
0.4117647058823529
 40
0.4117647058823529
 40
0.4117647058823529
 40
0.4705882352941176
 40
0.4705882352941176
 40
0.4705882352941176
 40
0.4705882352941176
 40
0.5294117647058824
 40
0.5294117647058824
 40
0.5294117647058824
 40
0.5294117647058824
 40
0.5882352941176471
 40
0.5882352941176471
 40
0.5882352941176471
 40
0.5882352941176471
 40
0.6470588235294118
 40
0.6470588235294118
 40
0.6470588235294118
 40
0.6470588235294118
 40
0.7058823529411765
 40
0.7058823529411765
 40
0.7058823529411765
 40
0.7058823529411765
 40
0.7647058823529411
 40
0.7647058823529411
 40
0.7647058823529411
 40
0.7647058823529411
 40
0.8235294117647058
 40
0.8235294117647058
 40
0.8235294117647058
 40
0.8235294117647058
 40
0.8823529411764706
 40
0.8823529411764706
 40
0.8823529411764706
 40
0.8823529411764706
 40
1.0
 40
1.0
 40
1.0
 40
1.0
 10
-158.0663
 20
116.096
 30
0.0
 10
-158.0663
 20
116.096
 30
0.0
 10
-153.7436
 20
116.096
 30
0.0
 10
-153.7436
 20
116.096
 30
0.0
 10
-153.7436
 20
116.096
 30
0.0
 10
-153.7436
 20
116.096
 30
0.0
 10
-153.7436
 20
111.7733
 30
0.0
 10
-153.7436
 20
111.7733
 30
0.0
 10
-153.7436
 20
111.7733
 30
0.0
 10
-151.5819
 20
111.7733
 30
0.0
 10
-149.8018
 20
109.9932
 30
0.0
 10
-149.8018
 20
107.8319
 30
0.0
 10
-149.8018
 20
107.8319
 30
0.0
 10
-149.8018
 20
105.7974
 30
0.0
 10
-151.5819
 20
104.0177
 30
0.0
 10
-153.7436
 20
104.0177
 30
0.0
 10
-153.7436
 20
104.0177
 30
0.0
 10
-153.7436
 20
104.0177
 30
0.0
 10
-153.7436
 20
99.6946
 30
0.0
 10
-153.7436
 20
99.6946
 30
0.0
 10
-153.7436
 20
99.6946
 30
0.0
 10
-153.7436
 20
99.6946
 30
0.0
 10
-158.0663
 20
99.6946
 30
0.0
 10
-158.0663
 20
99.6946
 30
0.0
 10
-158.0663
 20
99.6946
 30
0.0
 10
-158.0663
 20
97.5332
 30
0.0
 10
-159.8464
 20
95.7532
 30
0.0
 10
-161.8805
 20
95.7532
 30
0.0
 10
-161.8805
 20
95.7532
 30
0.0
 10
-164.0422
 20
95.7532
 30
0.0
 10
-165.8219
 20
97.5332
 30
0.0
 10
-165.8219
 20
99.6946
 30
0.0
 10
-165.8219
 20
99.6946
 30
0.0
 10
-165.8219
 20
99.6946
 30
0.0
 10
-170.145
 20
99.6946
 30
0.0
 10
-170.145
 20
99.6946
 30
0.0
 10
-170.145
 20
99.6946
 30
0.0
 10
-170.145
 20
99.6946
 30
0.0
 10
-170.145
 20
104.0177
 30
0.0
 10
-170.145
 20
104.0177
 30
0.0
 10
-170.145
 20
104.0177
 30
0.0
 10
-172.3064
 20
104.0177
 30
0.0
 10
-173.9592
 20
105.7974
 30
0.0
 10
-173.9592
 20
107.8319
 30
0.0
 10
-173.9592
 20
107.8319
 30
0.0
 10
-173.9592
 20
109.9932
 30
0.0
 10
-172.3064
 20
111.7733
 30
0.0
 10
-170.145
 20
111.7733
 30
0.0
 10
-170.145
 20
111.7733
 30
0.0
 10
-170.145
 20
111.7733
 30
0.0
 10
-170.145
 20
116.096
 30
0.0
 10
-170.145
 20
116.096
 30
0.0
 10
-170.145
 20
116.096
 30
0.0
 10
-170.145
 20
116.096
 30
0.0
 10
-165.8219
 20
116.096
 30
0.0
 10
-165.8219
 20
116.096
 30
0.0
 10
-165.8219
 20
116.096
 30
0.0
 10
-165.8219
 20
118.2577
 30
0.0
 10
-164.0422
 20
119.9105
 30
0.0
 10
-161.8805
 20
119.9105
 30
0.0
 10
-161.8805
 20
119.9105
 30
0.0
 10
-159.8464
 20
119.9105
 30
0.0
 10
-158.0663
 20
118.2577
 30
0.0
 10
-158.0663
 20
116.096
 30
0.0
  0
SPLINE
  5
72
330
1F
100
AcDbEntity
  8
layer 1
 62
     7
100
AcDbSpline
210
0.0
220
0.0
230
1.0
 70
    11
 71
     3
 72
    68
 73
    64
 74
     0
 42
0.0000000001
 43
0.0000000001
 12
1.0
 22
0.0
 32
0.0
 13
1.0
 23
0.0
 33
0.0
 40
0.0
 40
0.0
 40
0.0
 40
0.0
 40
0.0588235294117647
 40
0.0588235294117647
 40
0.0588235294117647
 40
0.0588235294117647
 40
0.1176470588235294
 40
0.1176470588235294
 40
0.1176470588235294
 40
0.1176470588235294
 40
0.1764705882352941
 40
0.1764705882352941
 40
0.1764705882352941
 40
0.1764705882352941
 40
0.2352941176470588
 40
0.2352941176470588
 40
0.2352941176470588
 40
0.2352941176470588
 40
0.2941176470588235
 40
0.2941176470588235
 40
0.2941176470588235
 40
0.2941176470588235
 40
0.3529411764705883
 40
0.3529411764705883
 40
0.3529411764705883
 40
0.3529411764705883
 40
0.4117647058823529
 40
0.4117647058823529
 40
0.4117647058823529
 40
0.4117647058823529
 40
0.4705882352941176
 40
0.4705882352941176
 40
0.4705882352941176
 40
0.4705882352941176
 40
0.5294117647058824
 40
0.5294117647058824
 40
0.5294117647058824
 40
0.5294117647058824
 40
0.5882352941176471
 40
0.5882352941176471
 40
0.5882352941176471
 40
0.5882352941176471
 40
0.6470588235294118
 40
0.6470588235294118
 40
0.6470588235294118
 40
0.6470588235294118
 40
0.7058823529411765
 40
0.7058823529411765
 40
0.7058823529411765
 40
0.7058823529411765
 40
0.7647058823529411
 40
0.7647058823529411
 40
0.7647058823529411
 40
0.7647058823529411
 40
0.8235294117647058
 40
0.8235294117647058
 40
0.8235294117647058
 40
0.8235294117647058
 40
0.8823529411764706
 40
0.8823529411764706
 40
0.8823529411764706
 40
0.8823529411764706
 40
1.0
 40
1.0
 40
1.0
 40
1.0
 10
-156.6676
 20
58.2459
 30
0.0
 10
-155.142
 20
59.0086
 30
0.0
 10
-153.9977
 20
60.2801
 30
0.0
 10
-153.4892
 20
61.9329
 30
0.0
 10
-153.4892
 20
61.9329
 30
0.0
 10
-153.4892
 20
61.9329
 30
0.0
 10
-149.2933
 20
61.9329
 30
0.0
 10
-149.2933
 20
61.9329
 30
0.0
 10
-149.2933
 20
61.9329
 30
0.0
 10
-149.2933
 20
61.9329
 30
0.0
 10
-149.2933
 20
66.1288
 30
0.0
 10
-149.2933
 20
66.1288
 30
0.0
 10
-149.2933
 20
66.1288
 30
0.0
 10
-147.6405
 20
66.6373
 30
0.0
 10
-146.369
 20
67.7816
 30
0.0
 10
-145.6063
 20
69.3072
 30
0.0
 10
-145.6063
 20
69.3072
 30
0.0
 10
-144.8434
 20
67.7816
 30
0.0
 10
-143.5718
 20
66.6373
 30
0.0
 10
-141.919
 20
66.1288
 30
0.0
 10
-141.919
 20
66.1288
 30
0.0
 10
-141.919
 20
66.1288
 30
0.0
 10
-141.919
 20
61.9329
 30
0.0
 10
-141.919
 20
61.9329
 30
0.0
 10
-141.919
 20
61.9329
 30
0.0
 10
-141.919
 20
61.9329
 30
0.0
 10
-137.7235
 20
61.9329
 30
0.0
 10
-137.7235
 20
61.9329
 30
0.0
 10
-137.7235
 20
61.9329
 30
0.0
 10
-137.2146
 20
60.2801
 30
0.0
 10
-136.0703
 20
59.0086
 30
0.0
 10
-134.5447
 20
58.2459
 30
0.0
 10
-134.5447
 20
58.2459
 30
0.0
 10
-136.0703
 20
57.483
 30
0.0
 10
-137.2146
 20
56.2115
 30
0.0
 10
-137.7235
 20
54.5586
 30
0.0
 10
-137.7235
 20
54.5586
 30
0.0
 10
-137.7235
 20
54.5586
 30
0.0
 10
-141.919
 20
54.5586
 30
0.0
 10
-141.919
 20
54.5586
 30
0.0
 10
-141.919
 20
54.5586
 30
0.0
 10
-141.919
 20
54.5586
 30
0.0
 10
-141.919
 20
50.3628
 30
0.0
 10
-141.919
 20
50.3628
 30
0.0
 10
-141.919
 20
50.3628
 30
0.0
 10
-143.5718
 20
49.8542
 30
0.0
 10
-144.8434
 20
48.7099
 30
0.0
 10
-145.6063
 20
47.1843
 30
0.0
 10
-145.6063
 20
47.1843
 30
0.0
 10
-146.369
 20
48.7099
 30
0.0
 10
-147.6405
 20
49.8542
 30
0.0
 10
-149.2933
 20
50.3628
 30
0.0
 10
-149.2933
 20
50.3628
 30
0.0
 10
-149.2933
 20
50.3628
 30
0.0
 10
-149.2933
 20
54.5586
 30
0.0
 10
-149.2933
 20
54.5586
 30
0.0
 10
-149.2933
 20
54.5586
 30
0.0
 10
-149.2933
 20
54.5586
 30
0.0
 10
-153.4892
 20
54.5586
 30
0.0
 10
-153.4892
 20
54.5586
 30
0.0
 10
-153.4892
 20
54.5586
 30
0.0
 10
-153.9977
 20
56.2115
 30
0.0
 10
-155.142
 20
57.483
 30
0.0
 10
-156.6676
 20
58.2459
 30
0.0
  0
SPLINE
  5
73
330
1F
100
AcDbEntity
  8
layer 1
 62
     7
100
AcDbSpline
210
0.0
220
0.0
230
1.0
 70
    11
 71
     3
 72
    68
 73
    64
 74
     0
 42
0.0000000001
 43
0.0000000001
 12
1.0
 22
0.0
 32
0.0
 13
1.0
 23
0.0
 33
0.0
 40
0.0
 40
0.0
 40
0.0
 40
0.0
 40
0.0588235294117647
 40
0.0588235294117647
 40
0.0588235294117647
 40
0.0588235294117647
 40
0.1176470588235294
 40
0.1176470588235294
 40
0.1176470588235294
 40
0.1176470588235294
 40
0.1764705882352941
 40
0.1764705882352941
 40
0.1764705882352941
 40
0.1764705882352941
 40
0.2352941176470588
 40
0.2352941176470588
 40
0.2352941176470588
 40
0.2352941176470588
 40
0.2941176470588235
 40
0.2941176470588235
 40
0.2941176470588235
 40
0.2941176470588235
 40
0.3529411764705883
 40
0.3529411764705883
 40
0.3529411764705883
 40
0.3529411764705883
 40
0.4117647058823529
 40
0.4117647058823529
 40
0.4117647058823529
 40
0.4117647058823529
 40
0.4705882352941176
 40
0.4705882352941176
 40
0.4705882352941176
 40
0.4705882352941176
 40
0.5294117647058824
 40
0.5294117647058824
 40
0.5294117647058824
 40
0.5294117647058824
 40
0.5882352941176471
 40
0.5882352941176471
 40
0.5882352941176471
 40
0.5882352941176471
 40
0.6470588235294118
 40
0.6470588235294118
 40
0.6470588235294118
 40
0.6470588235294118
 40
0.7058823529411765
 40
0.7058823529411765
 40
0.7058823529411765
 40
0.7058823529411765
 40
0.7647058823529411
 40
0.7647058823529411
 40
0.7647058823529411
 40
0.7647058823529411
 40
0.8235294117647058
 40
0.8235294117647058
 40
0.8235294117647058
 40
0.8235294117647058
 40
0.8823529411764706
 40
0.8823529411764706
 40
0.8823529411764706
 40
0.8823529411764706
 40
1.0
 40
1.0
 40
1.0
 40
1.0
 10
-158.0663
 20
82.7846
 30
0.0
 10
-158.0663
 20
82.7846
 30
0.0
 10
-153.7436
 20
82.7846
 30
0.0
 10
-153.7436
 20
82.7846
 30
0.0
 10
-153.7436
 20
82.7846
 30
0.0
 10
-153.7436
 20
82.7846
 30
0.0
 10
-153.7436
 20
78.3343
 30
0.0
 10
-153.7436
 20
78.3343
 30
0.0
 10
-153.7436
 20
78.3343
 30
0.0
 10
-151.5819
 20
78.3343
 30
0.0
 10
-149.8018
 20
76.6815
 30
0.0
 10
-149.8018
 20
74.5201
 30
0.0
 10
-149.8018
 20
74.5201
 30
0.0
 10
-149.8018
 20
72.3588
 30
0.0
 10
-151.5819
 20
70.7059
 30
0.0
 10
-153.7436
 20
70.7059
 30
0.0
 10
-153.7436
 20
70.7059
 30
0.0
 10
-153.7436
 20
70.7059
 30
0.0
 10
-153.7436
 20
66.3829
 30
0.0
 10
-153.7436
 20
66.3829
 30
0.0
 10
-153.7436
 20
66.3829
 30
0.0
 10
-153.7436
 20
66.3829
 30
0.0
 10
-158.0663
 20
66.3829
 30
0.0
 10
-158.0663
 20
66.3829
 30
0.0
 10
-158.0663
 20
66.3829
 30
0.0
 10
-158.0663
 20
64.2215
 30
0.0
 10
-159.8464
 20
62.4414
 30
0.0
 10
-161.8805
 20
62.4414
 30
0.0
 10
-161.8805
 20
62.4414
 30
0.0
 10
-164.0422
 20
62.4414
 30
0.0
 10
-165.8219
 20
64.2215
 30
0.0
 10
-165.8219
 20
66.3829
 30
0.0
 10
-165.8219
 20
66.3829
 30
0.0
 10
-165.8219
 20
66.3829
 30
0.0
 10
-170.145
 20
66.3829
 30
0.0
 10
-170.145
 20
66.3829
 30
0.0
 10
-170.145
 20
66.3829
 30
0.0
 10
-170.145
 20
66.3829
 30
0.0
 10
-170.145
 20
70.7059
 30
0.0
 10
-170.145
 20
70.7059
 30
0.0
 10
-170.145
 20
70.7059
 30
0.0
 10
-172.3064
 20
70.7059
 30
0.0
 10
-173.9592
 20
72.3588
 30
0.0
 10
-173.9592
 20
74.5201
 30
0.0
 10
-173.9592
 20
74.5201
 30
0.0
 10
-173.9592
 20
76.6815
 30
0.0
 10
-172.3064
 20
78.3343
 30
0.0
 10
-170.145
 20
78.3343
 30
0.0
 10
-170.145
 20
78.3343
 30
0.0
 10
-170.145
 20
78.3343
 30
0.0
 10
-170.145
 20
82.7846
 30
0.0
 10
-170.145
 20
82.7846
 30
0.0
 10
-170.145
 20
82.7846
 30
0.0
 10
-170.145
 20
82.7846
 30
0.0
 10
-165.8219
 20
82.7846
 30
0.0
 10
-165.8219
 20
82.7846
 30
0.0
 10
-165.8219
 20
82.7846
 30
0.0
 10
-165.8219
 20
84.946
 30
0.0
 10
-164.0422
 20
86.5988
 30
0.0
 10
-161.8805
 20
86.5988
 30
0.0
 10
-161.8805
 20
86.5988
 30
0.0
 10
-159.8464
 20
86.5988
 30
0.0
 10
-158.0663
 20
84.946
 30
0.0
 10
-158.0663
 20
82.7846
 30
0.0
  0
SPLINE
  5
74
330
1F
100
AcDbEntity
  8
layer 1
 62
     7
100
AcDbSpline
210
0.0
220
0.0
230
1.0
 70
    11
 71
     3
 72
    68
 73
    64
 74
     0
 42
0.0000000001
 43
0.0000000001
 12
1.0
 22
0.0
 32
0.0
 13
1.0
 23
0.0
 33
0.0
 40
0.0
 40
0.0
 40
0.0
 40
0.0
 40
0.0588235294117647
 40
0.0588235294117647
 40
0.0588235294117647
 40
0.0588235294117647
 40
0.1176470588235294
 40
0.1176470588235294
 40
0.1176470588235294
 40
0.1176470588235294
 40
0.1764705882352941
 40
0.1764705882352941
 40
0.1764705882352941
 40
0.1764705882352941
 40
0.2352941176470588
 40
0.2352941176470588
 40
0.2352941176470588
 40
0.2352941176470588
 40
0.2941176470588235
 40
0.2941176470588235
 40
0.2941176470588235
 40
0.2941176470588235
 40
0.3529411764705883
 40
0.3529411764705883
 40
0.3529411764705883
 40
0.3529411764705883
 40
0.4117647058823529
 40
0.4117647058823529
 40
0.4117647058823529
 40
0.4117647058823529
 40
0.4705882352941176
 40
0.4705882352941176
 40
0.4705882352941176
 40
0.4705882352941176
 40
0.5294117647058824
 40
0.5294117647058824
 40
0.5294117647058824
 40
0.5294117647058824
 40
0.5882352941176471
 40
0.5882352941176471
 40
0.5882352941176471
 40
0.5882352941176471
 40
0.6470588235294118
 40
0.6470588235294118
 40
0.6470588235294118
 40
0.6470588235294118
 40
0.7058823529411765
 40
0.7058823529411765
 40
0.7058823529411765
 40
0.7058823529411765
 40
0.7647058823529411
 40
0.7647058823529411
 40
0.7647058823529411
 40
0.7647058823529411
 40
0.8235294117647058
 40
0.8235294117647058
 40
0.8235294117647058
 40
0.8235294117647058
 40
0.8823529411764706
 40
0.8823529411764706
 40
0.8823529411764706
 40
0.8823529411764706
 40
1.0
 40
1.0
 40
1.0
 40
1.0
 10
-156.6676
 20
24.9342
 30
0.0
 10
-155.142
 20
25.6969
 30
0.0
 10
-153.9977
 20
26.9684
 30
0.0
 10
-153.4892
 20
28.6212
 30
0.0
 10
-153.4892
 20
28.6212
 30
0.0
 10
-153.4892
 20
28.6212
 30
0.0
 10
-149.2933
 20
28.6212
 30
0.0
 10
-149.2933
 20
28.6212
 30
0.0
 10
-149.2933
 20
28.6212
 30
0.0
 10
-149.2933
 20
28.6212
 30
0.0
 10
-149.2933
 20
32.8171
 30
0.0
 10
-149.2933
 20
32.8171
 30
0.0
 10
-149.2933
 20
32.8171
 30
0.0
 10
-147.6405
 20
33.3256
 30
0.0
 10
-146.369
 20
34.4699
 30
0.0
 10
-145.6063
 20
35.9955
 30
0.0
 10
-145.6063
 20
35.9955
 30
0.0
 10
-144.8434
 20
34.4699
 30
0.0
 10
-143.5718
 20
33.3256
 30
0.0
 10
-141.919
 20
32.8171
 30
0.0
 10
-141.919
 20
32.8171
 30
0.0
 10
-141.919
 20
32.8171
 30
0.0
 10
-141.919
 20
28.6212
 30
0.0
 10
-141.919
 20
28.6212
 30
0.0
 10
-141.919
 20
28.6212
 30
0.0
 10
-141.919
 20
28.6212
 30
0.0
 10
-137.7235
 20
28.6212
 30
0.0
 10
-137.7235
 20
28.6212
 30
0.0
 10
-137.7235
 20
28.6212
 30
0.0
 10
-137.2146
 20
26.9684
 30
0.0
 10
-136.0703
 20
25.6969
 30
0.0
 10
-134.5447
 20
24.9342
 30
0.0
 10
-134.5447
 20
24.9342
 30
0.0
 10
-136.0703
 20
24.1712
 30
0.0
 10
-137.2146
 20
22.8997
 30
0.0
 10
-137.7235
 20
21.2469
 30
0.0
 10
-137.7235
 20
21.2469
 30
0.0
 10
-137.7235
 20
21.2469
 30
0.0
 10
-141.919
 20
21.2469
 30
0.0
 10
-141.919
 20
21.2469
 30
0.0
 10
-141.919
 20
21.2469
 30
0.0
 10
-141.919
 20
21.2469
 30
0.0
 10
-141.919
 20
17.0514
 30
0.0
 10
-141.919
 20
17.0514
 30
0.0
 10
-141.919
 20
17.0514
 30
0.0
 10
-143.5718
 20
16.5425
 30
0.0
 10
-144.8434
 20
15.3982
 30
0.0
 10
-145.6063
 20
13.7454
 30
0.0
 10
-145.6063
 20
13.7454
 30
0.0
 10
-146.369
 20
15.3982
 30
0.0
 10
-147.6405
 20
16.5425
 30
0.0
 10
-149.2933
 20
17.0514
 30
0.0
 10
-149.2933
 20
17.0514
 30
0.0
 10
-149.2933
 20
17.0514
 30
0.0
 10
-149.2933
 20
21.2469
 30
0.0
 10
-149.2933
 20
21.2469
 30
0.0
 10
-149.2933
 20
21.2469
 30
0.0
 10
-149.2933
 20
21.2469
 30
0.0
 10
-153.4892
 20
21.2469
 30
0.0
 10
-153.4892
 20
21.2469
 30
0.0
 10
-153.4892
 20
21.2469
 30
0.0
 10
-153.9977
 20
22.8997
 30
0.0
 10
-155.142
 20
24.1712
 30
0.0
 10
-156.6676
 20
24.9342
 30
0.0
  0
SPLINE
  5
75
330
1F
100
AcDbEntity
  8
layer 1
 62
     7
100
AcDbSpline
210
0.0
220
0.0
230
1.0
 70
    11
 71
     3
 72
    68
 73
    64
 74
     0
 42
0.0000000001
 43
0.0000000001
 12
1.0
 22
0.0
 32
0.0
 13
1.0
 23
0.0
 33
0.0
 40
0.0
 40
0.0
 40
0.0
 40
0.0
 40
0.0588235294117647
 40
0.0588235294117647
 40
0.0588235294117647
 40
0.0588235294117647
 40
0.1176470588235294
 40
0.1176470588235294
 40
0.1176470588235294
 40
0.1176470588235294
 40
0.1764705882352941
 40
0.1764705882352941
 40
0.1764705882352941
 40
0.1764705882352941
 40
0.2352941176470588
 40
0.2352941176470588
 40
0.2352941176470588
 40
0.2352941176470588
 40
0.2941176470588235
 40
0.2941176470588235
 40
0.2941176470588235
 40
0.2941176470588235
 40
0.3529411764705883
 40
0.3529411764705883
 40
0.3529411764705883
 40
0.3529411764705883
 40
0.4117647058823529
 40
0.4117647058823529
 40
0.4117647058823529
 40
0.4117647058823529
 40
0.4705882352941176
 40
0.4705882352941176
 40
0.4705882352941176
 40
0.4705882352941176
 40
0.5294117647058824
 40
0.5294117647058824
 40
0.5294117647058824
 40
0.5294117647058824
 40
0.5882352941176471
 40
0.5882352941176471
 40
0.5882352941176471
 40
0.5882352941176471
 40
0.6470588235294118
 40
0.6470588235294118
 40
0.6470588235294118
 40
0.6470588235294118
 40
0.7058823529411765
 40
0.7058823529411765
 40
0.7058823529411765
 40
0.7058823529411765
 40
0.7647058823529411
 40
0.7647058823529411
 40
0.7647058823529411
 40
0.7647058823529411
 40
0.8235294117647058
 40
0.8235294117647058
 40
0.8235294117647058
 40
0.8235294117647058
 40
0.8823529411764706
 40
0.8823529411764706
 40
0.8823529411764706
 40
0.8823529411764706
 40
1.0
 40
1.0
 40
1.0
 40
1.0
 10
-158.0663
 20
49.4729
 30
0.0
 10
-158.0663
 20
49.4729
 30
0.0
 10
-153.7436
 20
49.4729
 30
0.0
 10
-153.7436
 20
49.4729
 30
0.0
 10
-153.7436
 20
49.4729
 30
0.0
 10
-153.7436
 20
49.4729
 30
0.0
 10
-153.7436
 20
45.023
 30
0.0
 10
-153.7436
 20
45.023
 30
0.0
 10
-153.7436
 20
45.023
 30
0.0
 10
-151.5819
 20
45.023
 30
0.0
 10
-149.8018
 20
43.3701
 30
0.0
 10
-149.8018
 20
41.2084
 30
0.0
 10
-149.8018
 20
41.2084
 30
0.0
 10
-149.8018
 20
39.0471
 30
0.0
 10
-151.5819
 20
37.3942
 30
0.0
 10
-153.7436
 20
37.3942
 30
0.0
 10
-153.7436
 20
37.3942
 30
0.0
 10
-153.7436
 20
37.3942
 30
0.0
 10
-153.7436
 20
33.0715
 30
0.0
 10
-153.7436
 20
33.0715
 30
0.0
 10
-153.7436
 20
33.0715
 30
0.0
 10
-153.7436
 20
33.0715
 30
0.0
 10
-158.0663
 20
32.9443
 30
0.0
 10
-158.0663
 20
32.9443
 30
0.0
 10
-158.0663
 20
32.9443
 30
0.0
 10
-158.0663
 20
30.9098
 30
0.0
 10
-159.8464
 20
29.1297
 30
0.0
 10
-161.8805
 20
29.1297
 30
0.0
 10
-161.8805
 20
29.1297
 30
0.0
 10
-164.0422
 20
29.1297
 30
0.0
 10
-165.8219
 20
30.9098
 30
0.0
 10
-165.8219
 20
32.9443
 30
0.0
 10
-165.8219
 20
32.9443
 30
0.0
 10
-165.8219
 20
32.9443
 30
0.0
 10
-170.145
 20
32.9443
 30
0.0
 10
-170.145
 20
32.9443
 30
0.0
 10
-170.145
 20
32.9443
 30
0.0
 10
-170.145
 20
32.9443
 30
0.0
 10
-170.145
 20
37.3942
 30
0.0
 10
-170.145
 20
37.3942
 30
0.0
 10
-170.145
 20
37.3942
 30
0.0
 10
-172.3064
 20
37.3942
 30
0.0
 10
-173.9592
 20
39.0471
 30
0.0
 10
-173.9592
 20
41.2084
 30
0.0
 10
-173.9592
 20
41.2084
 30
0.0
 10
-173.9592
 20
43.3701
 30
0.0
 10
-172.3064
 20
45.023
 30
0.0
 10
-170.145
 20
45.023
 30
0.0
 10
-170.145
 20
45.023
 30
0.0
 10
-170.145
 20
45.023
 30
0.0
 10
-170.145
 20
49.4729
 30
0.0
 10
-170.145
 20
49.4729
 30
0.0
 10
-170.145
 20
49.4729
 30
0.0
 10
-170.145
 20
49.4729
 30
0.0
 10
-165.8219
 20
49.4729
 30
0.0
 10
-165.8219
 20
49.4729
 30
0.0
 10
-165.8219
 20
49.4729
 30
0.0
 10
-165.8219
 20
51.5071
 30
0.0
 10
-164.0422
 20
53.2871
 30
0.0
 10
-161.8805
 20
53.2871
 30
0.0
 10
-161.8805
 20
53.2871
 30
0.0
 10
-159.8464
 20
53.2871
 30
0.0
 10
-158.0663
 20
51.5071
 30
0.0
 10
-158.0663
 20
49.4729
 30
0.0
  0
SPLINE
  5
76
330
1F
100
AcDbEntity
  8
layer 1
 62
     7
100
AcDbSpline
210
0.0
220
0.0
230
1.0
 70
    11
 71
     3
 72
    68
 73
    64
 74
     0
 42
0.0000000001
 43
0.0000000001
 12
1.0
 22
0.0
 32
0.0
 13
1.0
 23
0.0
 33
0.0
 40
0.0
 40
0.0
 40
0.0
 40
0.0
 40
0.0588235294117647
 40
0.0588235294117647
 40
0.0588235294117647
 40
0.0588235294117647
 40
0.1176470588235294
 40
0.1176470588235294
 40
0.1176470588235294
 40
0.1176470588235294
 40
0.1764705882352941
 40
0.1764705882352941
 40
0.1764705882352941
 40
0.1764705882352941
 40
0.2352941176470588
 40
0.2352941176470588
 40
0.2352941176470588
 40
0.2352941176470588
 40
0.2941176470588235
 40
0.2941176470588235
 40
0.2941176470588235
 40
0.2941176470588235
 40
0.3529411764705883
 40
0.3529411764705883
 40
0.3529411764705883
 40
0.3529411764705883
 40
0.4117647058823529
 40
0.4117647058823529
 40
0.4117647058823529
 40
0.4117647058823529
 40
0.4705882352941176
 40
0.4705882352941176
 40
0.4705882352941176
 40
0.4705882352941176
 40
0.5294117647058824
 40
0.5294117647058824
 40
0.5294117647058824
 40
0.5294117647058824
 40
0.5882352941176471
 40
0.5882352941176471
 40
0.5882352941176471
 40
0.5882352941176471
 40
0.6470588235294118
 40
0.6470588235294118
 40
0.6470588235294118
 40
0.6470588235294118
 40
0.7058823529411765
 40
0.7058823529411765
 40
0.7058823529411765
 40
0.7058823529411765
 40
0.7647058823529411
 40
0.7647058823529411
 40
0.7647058823529411
 40
0.7647058823529411
 40
0.8235294117647058
 40
0.8235294117647058
 40
0.8235294117647058
 40
0.8235294117647058
 40
0.8823529411764706
 40
0.8823529411764706
 40
0.8823529411764706
 40
0.8823529411764706
 40
1.0
 40
1.0
 40
1.0
 40
1.0
 10
-156.6676
 20
-8.3775
 30
0.0
 10
-155.142
 20
-7.7417
 30
0.0
 10
-153.9977
 20
-6.3433
 30
0.0
 10
-153.4892
 20
-4.6902
 30
0.0
 10
-153.4892
 20
-4.6902
 30
0.0
 10
-153.4892
 20
-4.6902
 30
0.0
 10
-149.2933
 20
-4.6902
 30
0.0
 10
-149.2933
 20
-4.6902
 30
0.0
 10
-149.2933
 20
-4.6902
 30
0.0
 10
-149.2933
 20
-4.6902
 30
0.0
 10
-149.2933
 20
-0.4947
 30
0.0
 10
-149.2933
 20
-0.4947
 30
0.0
 10
-149.2933
 20
-0.4947
 30
0.0
 10
-147.6405
 20
0.0139
 30
0.0
 10
-146.369
 20
1.1582
 30
0.0
 10
-145.6063
 20
2.6841
 30
0.0
 10
-145.6063
 20
2.6841
 30
0.0
 10
-144.8434
 20
1.1582
 30
0.0
 10
-143.5718
 20
0.0139
 30
0.0
 10
-141.919
 20
-0.4947
 30
0.0
 10
-141.919
 20
-0.4947
 30
0.0
 10
-141.919
 20
-0.4947
 30
0.0
 10
-141.919
 20
-4.6902
 30
0.0
 10
-141.919
 20
-4.6902
 30
0.0
 10
-141.919
 20
-4.6902
 30
0.0
 10
-141.919
 20
-4.6902
 30
0.0
 10
-137.7235
 20
-4.6902
 30
0.0
 10
-137.7235
 20
-4.6902
 30
0.0
 10
-137.7235
 20
-4.6902
 30
0.0
 10
-137.2146
 20
-6.3433
 30
0.0
 10
-136.0703
 20
-7.7417
 30
0.0
 10
-134.5447
 20
-8.3775
 30
0.0
 10
-134.5447
 20
-8.3775
 30
0.0
 10
-136.0703
 20
-9.1405
 30
0.0
 10
-137.2146
 20
-10.4116
 30
0.0
 10
-137.7235
 20
-12.0648
 30
0.0
 10
-137.7235
 20
-12.0648
 30
0.0
 10
-137.7235
 20
-12.0648
 30
0.0
 10
-141.919
 20
-12.0648
 30
0.0
 10
-141.919
 20
-12.0648
 30
0.0
 10
-141.919
 20
-12.0648
 30
0.0
 10
-141.919
 20
-12.0648
 30
0.0
 10
-141.919
 20
-16.2603
 30
0.0
 10
-141.919
 20
-16.2603
 30
0.0
 10
-141.919
 20
-16.2603
 30
0.0
 10
-143.5718
 20
-16.7688
 30
0.0
 10
-144.8434
 20
-18.0404
 30
0.0
 10
-145.6063
 20
-19.566
 30
0.0
 10
-145.6063
 20
-19.566
 30
0.0
 10
-146.369
 20
-18.0404
 30
0.0
 10
-147.6405
 20
-16.7688
 30
0.0
 10
-149.2933
 20
-16.2603
 30
0.0
 10
-149.2933
 20
-16.2603
 30
0.0
 10
-149.2933
 20
-16.2603
 30
0.0
 10
-149.2933
 20
-12.0648
 30
0.0
 10
-149.2933
 20
-12.0648
 30
0.0
 10
-149.2933
 20
-12.0648
 30
0.0
 10
-149.2933
 20
-12.0648
 30
0.0
 10
-153.4892
 20
-12.0648
 30
0.0
 10
-153.4892
 20
-12.0648
 30
0.0
 10
-153.4892
 20
-12.0648
 30
0.0
 10
-153.9977
 20
-10.4116
 30
0.0
 10
-155.142
 20
-9.1405
 30
0.0
 10
-156.6676
 20
-8.3775
 30
0.0
  0
SPLINE
  5
77
330
1F
100
AcDbEntity
  8
layer 1
 62
     7
100
AcDbSpline
210
0.0
220
0.0
230
1.0
 70
    11
 71
     3
 72
    68
 73
    64
 74
     0
 42
0.0000000001
 43
0.0000000001
 12
1.0
 22
0.0
 32
0.0
 13
1.0
 23
0.0
 33
0.0
 40
0.0
 40
0.0
 40
0.0
 40
0.0
 40
0.0588235294117647
 40
0.0588235294117647
 40
0.0588235294117647
 40
0.0588235294117647
 40
0.1176470588235294
 40
0.1176470588235294
 40
0.1176470588235294
 40
0.1176470588235294
 40
0.1764705882352941
 40
0.1764705882352941
 40
0.1764705882352941
 40
0.1764705882352941
 40
0.2352941176470588
 40
0.2352941176470588
 40
0.2352941176470588
 40
0.2352941176470588
 40
0.2941176470588235
 40
0.2941176470588235
 40
0.2941176470588235
 40
0.2941176470588235
 40
0.3529411764705883
 40
0.3529411764705883
 40
0.3529411764705883
 40
0.3529411764705883
 40
0.4117647058823529
 40
0.4117647058823529
 40
0.4117647058823529
 40
0.4117647058823529
 40
0.4705882352941176
 40
0.4705882352941176
 40
0.4705882352941176
 40
0.4705882352941176
 40
0.5294117647058824
 40
0.5294117647058824
 40
0.5294117647058824
 40
0.5294117647058824
 40
0.5882352941176471
 40
0.5882352941176471
 40
0.5882352941176471
 40
0.5882352941176471
 40
0.6470588235294118
 40
0.6470588235294118
 40
0.6470588235294118
 40
0.6470588235294118
 40
0.7058823529411765
 40
0.7058823529411765
 40
0.7058823529411765
 40
0.7058823529411765
 40
0.7647058823529411
 40
0.7647058823529411
 40
0.7647058823529411
 40
0.7647058823529411
 40
0.8235294117647058
 40
0.8235294117647058
 40
0.8235294117647058
 40
0.8235294117647058
 40
0.8823529411764706
 40
0.8823529411764706
 40
0.8823529411764706
 40
0.8823529411764706
 40
1.0
 40
1.0
 40
1.0
 40
1.0
 10
-158.0663
 20
16.1612
 30
0.0
 10
-158.0663
 20
16.1612
 30
0.0
 10
-153.7436
 20
16.1612
 30
0.0
 10
-153.7436
 20
16.1612
 30
0.0
 10
-153.7436
 20
16.1612
 30
0.0
 10
-153.7436
 20
16.1612
 30
0.0
 10
-153.7436
 20
11.7113
 30
0.0
 10
-153.7436
 20
11.7113
 30
0.0
 10
-153.7436
 20
11.7113
 30
0.0
 10
-151.5819
 20
11.7113
 30
0.0
 10
-149.8018
 20
10.0584
 30
0.0
 10
-149.8018
 20
7.8971
 30
0.0
 10
-149.8018
 20
7.8971
 30
0.0
 10
-149.8018
 20
5.7353
 30
0.0
 10
-151.5819
 20
4.0825
 30
0.0
 10
-153.7436
 20
4.0825
 30
0.0
 10
-153.7436
 20
4.0825
 30
0.0
 10
-153.7436
 20
4.0825
 30
0.0
 10
-153.7436
 20
-0.3674
 30
0.0
 10
-153.7436
 20
-0.3674
 30
0.0
 10
-153.7436
 20
-0.3674
 30
0.0
 10
-153.7436
 20
-0.3674
 30
0.0
 10
-158.0663
 20
-0.3674
 30
0.0
 10
-158.0663
 20
-0.3674
 30
0.0
 10
-158.0663
 20
-0.3674
 30
0.0
 10
-158.0663
 20
-2.4016
 30
0.0
 10
-159.8464
 20
-4.1816
 30
0.0
 10
-161.8805
 20
-4.1816
 30
0.0
 10
-161.8805
 20
-4.1816
 30
0.0
 10
-164.0422
 20
-4.1816
 30
0.0
 10
-165.8219
 20
-2.4016
 30
0.0
 10
-165.8219
 20
-0.3674
 30
0.0
 10
-165.8219
 20
-0.3674
 30
0.0
 10
-165.8219
 20
-0.3674
 30
0.0
 10
-170.145
 20
-0.3674
 30
0.0
 10
-170.145
 20
-0.3674
 30
0.0
 10
-170.145
 20
-0.3674
 30
0.0
 10
-170.145
 20
-0.3674
 30
0.0
 10
-170.145
 20
4.0825
 30
0.0
 10
-170.145
 20
4.0825
 30
0.0
 10
-170.145
 20
4.0825
 30
0.0
 10
-172.3064
 20
4.0825
 30
0.0
 10
-173.9592
 20
5.7353
 30
0.0
 10
-173.9592
 20
7.8971
 30
0.0
 10
-173.9592
 20
7.8971
 30
0.0
 10
-173.9592
 20
10.0584
 30
0.0
 10
-172.3064
 20
11.7113
 30
0.0
 10
-170.145
 20
11.7113
 30
0.0
 10
-170.145
 20
11.7113
 30
0.0
 10
-170.145
 20
11.7113
 30
0.0
 10
-170.145
 20
16.1612
 30
0.0
 10
-170.145
 20
16.1612
 30
0.0
 10
-170.145
 20
16.1612
 30
0.0
 10
-170.145
 20
16.1612
 30
0.0
 10
-165.8219
 20
16.1612
 30
0.0
 10
-165.8219
 20
16.1612
 30
0.0
 10
-165.8219
 20
16.1612
 30
0.0
 10
-165.8219
 20
18.1957
 30
0.0
 10
-164.0422
 20
19.9754
 30
0.0
 10
-161.8805
 20
19.9754
 30
0.0
 10
-161.8805
 20
19.9754
 30
0.0
 10
-159.8464
 20
19.9754
 30
0.0
 10
-158.0663
 20
18.1957
 30
0.0
 10
-158.0663
 20
16.1612
 30
0.0
  0
SPLINE
  5
78
330
1F
100
AcDbEntity
  8
layer 1
 62
     7
100
AcDbSpline
210
0.0
220
0.0
230
1.0
 70
    11
 71
     3
 72
    68
 73
    64
 74
     0
 42
0.0000000001
 43
0.0000000001
 12
1.0
 22
0.0
 32
0.0
 13
1.0
 23
0.0
 33
0.0
 40
0.0
 40
0.0
 40
0.0
 40
0.0
 40
0.0588235294117647
 40
0.0588235294117647
 40
0.0588235294117647
 40
0.0588235294117647
 40
0.1176470588235294
 40
0.1176470588235294
 40
0.1176470588235294
 40
0.1176470588235294
 40
0.1764705882352941
 40
0.1764705882352941
 40
0.1764705882352941
 40
0.1764705882352941
 40
0.2352941176470588
 40
0.2352941176470588
 40
0.2352941176470588
 40
0.2352941176470588
 40
0.2941176470588235
 40
0.2941176470588235
 40
0.2941176470588235
 40
0.2941176470588235
 40
0.3529411764705883
 40
0.3529411764705883
 40
0.3529411764705883
 40
0.3529411764705883
 40
0.4117647058823529
 40
0.4117647058823529
 40
0.4117647058823529
 40
0.4117647058823529
 40
0.4705882352941176
 40
0.4705882352941176
 40
0.4705882352941176
 40
0.4705882352941176
 40
0.5294117647058824
 40
0.5294117647058824
 40
0.5294117647058824
 40
0.5294117647058824
 40
0.5882352941176471
 40
0.5882352941176471
 40
0.5882352941176471
 40
0.5882352941176471
 40
0.6470588235294118
 40
0.6470588235294118
 40
0.6470588235294118
 40
0.6470588235294118
 40
0.7058823529411765
 40
0.7058823529411765
 40
0.7058823529411765
 40
0.7058823529411765
 40
0.7647058823529411
 40
0.7647058823529411
 40
0.7647058823529411
 40
0.7647058823529411
 40
0.8235294117647058
 40
0.8235294117647058
 40
0.8235294117647058
 40
0.8235294117647058
 40
0.8823529411764706
 40
0.8823529411764706
 40
0.8823529411764706
 40
0.8823529411764706
 40
1.0
 40
1.0
 40
1.0
 40
1.0
 10
-156.6676
 20
-41.6892
 30
0.0
 10
-155.142
 20
-41.0534
 30
0.0
 10
-153.9977
 20
-39.6547
 30
0.0
 10
-153.4892
 20
-38.0019
 30
0.0
 10
-153.4892
 20
-38.0019
 30
0.0
 10
-153.4892
 20
-38.0019
 30
0.0
 10
-149.2933
 20
-38.0019
 30
0.0
 10
-149.2933
 20
-38.0019
 30
0.0
 10
-149.2933
 20
-38.0019
 30
0.0
 10
-149.2933
 20
-38.0019
 30
0.0
 10
-149.2933
 20
-33.9332
 30
0.0
 10
-149.2933
 20
-33.9332
 30
0.0
 10
-149.2933
 20
-33.9332
 30
0.0
 10
-147.6405
 20
-33.2975
 30
0.0
 10
-146.369
 20
-32.1532
 30
0.0
 10
-145.6063
 20
-30.6276
 30
0.0
 10
-145.6063
 20
-30.6276
 30
0.0
 10
-144.8434
 20
-32.1532
 30
0.0
 10
-143.5718
 20
-33.2975
 30
0.0
 10
-141.919
 20
-33.9332
 30
0.0
 10
-141.919
 20
-33.9332
 30
0.0
 10
-141.919
 20
-33.9332
 30
0.0
 10
-141.919
 20
-38.0019
 30
0.0
 10
-141.919
 20
-38.0019
 30
0.0
 10
-141.919
 20
-38.0019
 30
0.0
 10
-141.919
 20
-38.0019
 30
0.0
 10
-137.7235
 20
-38.0019
 30
0.0
 10
-137.7235
 20
-38.0019
 30
0.0
 10
-137.7235
 20
-38.0019
 30
0.0
 10
-137.2146
 20
-39.6547
 30
0.0
 10
-136.0703
 20
-41.0534
 30
0.0
 10
-134.5447
 20
-41.6892
 30
0.0
 10
-134.5447
 20
-41.6892
 30
0.0
 10
-136.0703
 20
-42.4518
 30
0.0
 10
-137.2146
 20
-43.7233
 30
0.0
 10
-137.7235
 20
-45.3762
 30
0.0
 10
-137.7235
 20
-45.3762
 30
0.0
 10
-137.7235
 20
-45.3762
 30
0.0
 10
-141.919
 20
-45.3762
 30
0.0
 10
-141.919
 20
-45.3762
 30
0.0
 10
-141.919
 20
-45.3762
 30
0.0
 10
-141.919
 20
-45.3762
 30
0.0
 10
-141.919
 20
-49.572
 30
0.0
 10
-141.919
 20
-49.572
 30
0.0
 10
-141.919
 20
-49.572
 30
0.0
 10
-143.5718
 20
-50.0806
 30
0.0
 10
-144.8434
 20
-51.3521
 30
0.0
 10
-145.6063
 20
-52.8777
 30
0.0
 10
-145.6063
 20
-52.8777
 30
0.0
 10
-146.369
 20
-51.3521
 30
0.0
 10
-147.6405
 20
-50.0806
 30
0.0
 10
-149.2933
 20
-49.572
 30
0.0
 10
-149.2933
 20
-49.572
 30
0.0
 10
-149.2933
 20
-49.572
 30
0.0
 10
-149.2933
 20
-45.3762
 30
0.0
 10
-149.2933
 20
-45.3762
 30
0.0
 10
-149.2933
 20
-45.3762
 30
0.0
 10
-149.2933
 20
-45.3762
 30
0.0
 10
-153.4892
 20
-45.3762
 30
0.0
 10
-153.4892
 20
-45.3762
 30
0.0
 10
-153.4892
 20
-45.3762
 30
0.0
 10
-153.9977
 20
-43.7233
 30
0.0
 10
-155.142
 20
-42.4518
 30
0.0
 10
-156.6676
 20
-41.6892
 30
0.0
  0
SPLINE
  5
79
330
1F
100
AcDbEntity
  8
layer 1
 62
     7
100
AcDbSpline
210
0.0
220
0.0
230
1.0
 70
    11
 71
     3
 72
    68
 73
    64
 74
     0
 42
0.0000000001
 43
0.0000000001
 12
1.0
 22
0.0
 32
0.0
 13
1.0
 23
0.0
 33
0.0
 40
0.0
 40
0.0
 40
0.0
 40
0.0
 40
0.0588235294117647
 40
0.0588235294117647
 40
0.0588235294117647
 40
0.0588235294117647
 40
0.1176470588235294
 40
0.1176470588235294
 40
0.1176470588235294
 40
0.1176470588235294
 40
0.1764705882352941
 40
0.1764705882352941
 40
0.1764705882352941
 40
0.1764705882352941
 40
0.2352941176470588
 40
0.2352941176470588
 40
0.2352941176470588
 40
0.2352941176470588
 40
0.2941176470588235
 40
0.2941176470588235
 40
0.2941176470588235
 40
0.2941176470588235
 40
0.3529411764705883
 40
0.3529411764705883
 40
0.3529411764705883
 40
0.3529411764705883
 40
0.4117647058823529
 40
0.4117647058823529
 40
0.4117647058823529
 40
0.4117647058823529
 40
0.4705882352941176
 40
0.4705882352941176
 40
0.4705882352941176
 40
0.4705882352941176
 40
0.5294117647058824
 40
0.5294117647058824
 40
0.5294117647058824
 40
0.5294117647058824
 40
0.5882352941176471
 40
0.5882352941176471
 40
0.5882352941176471
 40
0.5882352941176471
 40
0.6470588235294118
 40
0.6470588235294118
 40
0.6470588235294118
 40
0.6470588235294118
 40
0.7058823529411765
 40
0.7058823529411765
 40
0.7058823529411765
 40
0.7058823529411765
 40
0.7647058823529411
 40
0.7647058823529411
 40
0.7647058823529411
 40
0.7647058823529411
 40
0.8235294117647058
 40
0.8235294117647058
 40
0.8235294117647058
 40
0.8235294117647058
 40
0.8823529411764706
 40
0.8823529411764706
 40
0.8823529411764706
 40
0.8823529411764706
 40
1.0
 40
1.0
 40
1.0
 40
1.0
 10
-158.0663
 20
-17.1505
 30
0.0
 10
-158.0663
 20
-17.1505
 30
0.0
 10
-153.7436
 20
-17.1505
 30
0.0
 10
-153.7436
 20
-17.1505
 30
0.0
 10
-153.7436
 20
-17.1505
 30
0.0
 10
-153.7436
 20
-17.1505
 30
0.0
 10
-153.7436
 20
-21.6005
 30
0.0
 10
-153.7436
 20
-21.6005
 30
0.0
 10
-153.7436
 20
-21.6005
 30
0.0
 10
-151.5819
 20
-21.6005
 30
0.0
 10
-149.8018
 20
-23.2533
 30
0.0
 10
-149.8018
 20
-25.4147
 30
0.0
 10
-149.8018
 20
-25.4147
 30
0.0
 10
-149.8018
 20
-27.576
 30
0.0
 10
-151.5819
 20
-29.2292
 30
0.0
 10
-153.7436
 20
-29.2292
 30
0.0
 10
-153.7436
 20
-29.2292
 30
0.0
 10
-153.7436
 20
-29.2292
 30
0.0
 10
-153.7436
 20
-33.6792
 30
0.0
 10
-153.7436
 20
-33.6792
 30
0.0
 10
-153.7436
 20
-33.6792
 30
0.0
 10
-153.7436
 20
-33.6792
 30
0.0
 10
-158.0663
 20
-33.6792
 30
0.0
 10
-158.0663
 20
-33.6792
 30
0.0
 10
-158.0663
 20
-33.6792
 30
0.0
 10
-158.0663
 20
-35.7133
 30
0.0
 10
-159.8464
 20
-37.4933
 30
0.0
 10
-161.8805
 20
-37.4933
 30
0.0
 10
-161.8805
 20
-37.4933
 30
0.0
 10
-164.0422
 20
-37.4933
 30
0.0
 10
-165.8219
 20
-35.7133
 30
0.0
 10
-165.8219
 20
-33.6792
 30
0.0
 10
-165.8219
 20
-33.6792
 30
0.0
 10
-165.8219
 20
-33.6792
 30
0.0
 10
-170.145
 20
-33.6792
 30
0.0
 10
-170.145
 20
-33.6792
 30
0.0
 10
-170.145
 20
-33.6792
 30
0.0
 10
-170.145
 20
-33.6792
 30
0.0
 10
-170.145
 20
-29.2292
 30
0.0
 10
-170.145
 20
-29.2292
 30
0.0
 10
-170.145
 20
-29.2292
 30
0.0
 10
-172.3064
 20
-29.2292
 30
0.0
 10
-173.9592
 20
-27.576
 30
0.0
 10
-173.9592
 20
-25.4147
 30
0.0
 10
-173.9592
 20
-25.4147
 30
0.0
 10
-173.9592
 20
-23.2533
 30
0.0
 10
-172.3064
 20
-21.6005
 30
0.0
 10
-170.145
 20
-21.6005
 30
0.0
 10
-170.145
 20
-21.6005
 30
0.0
 10
-170.145
 20
-21.6005
 30
0.0
 10
-170.145
 20
-17.1505
 30
0.0
 10
-170.145
 20
-17.1505
 30
0.0
 10
-170.145
 20
-17.1505
 30
0.0
 10
-170.145
 20
-17.1505
 30
0.0
 10
-165.8219
 20
-17.1505
 30
0.0
 10
-165.8219
 20
-17.1505
 30
0.0
 10
-165.8219
 20
-17.1505
 30
0.0
 10
-165.8219
 20
-15.116
 30
0.0
 10
-164.0422
 20
-13.336
 30
0.0
 10
-161.8805
 20
-13.336
 30
0.0
 10
-161.8805
 20
-13.336
 30
0.0
 10
-159.8464
 20
-13.336
 30
0.0
 10
-158.0663
 20
-15.116
 30
0.0
 10
-158.0663
 20
-17.1505
 30
0.0
  0
SPLINE
  5
7A
330
1F
100
AcDbEntity
  8
layer 1
 62
     7
100
AcDbSpline
210
0.0
220
0.0
230
1.0
 70
    11
 71
     3
 72
    68
 73
    64
 74
     0
 42
0.0000000001
 43
0.0000000001
 12
1.0
 22
0.0
 32
0.0
 13
1.0
 23
0.0
 33
0.0
 40
0.0
 40
0.0
 40
0.0
 40
0.0
 40
0.0588235294117647
 40
0.0588235294117647
 40
0.0588235294117647
 40
0.0588235294117647
 40
0.1176470588235294
 40
0.1176470588235294
 40
0.1176470588235294
 40
0.1176470588235294
 40
0.1764705882352941
 40
0.1764705882352941
 40
0.1764705882352941
 40
0.1764705882352941
 40
0.2352941176470588
 40
0.2352941176470588
 40
0.2352941176470588
 40
0.2352941176470588
 40
0.2941176470588235
 40
0.2941176470588235
 40
0.2941176470588235
 40
0.2941176470588235
 40
0.3529411764705883
 40
0.3529411764705883
 40
0.3529411764705883
 40
0.3529411764705883
 40
0.4117647058823529
 40
0.4117647058823529
 40
0.4117647058823529
 40
0.4117647058823529
 40
0.4705882352941176
 40
0.4705882352941176
 40
0.4705882352941176
 40
0.4705882352941176
 40
0.5294117647058824
 40
0.5294117647058824
 40
0.5294117647058824
 40
0.5294117647058824
 40
0.5882352941176471
 40
0.5882352941176471
 40
0.5882352941176471
 40
0.5882352941176471
 40
0.6470588235294118
 40
0.6470588235294118
 40
0.6470588235294118
 40
0.6470588235294118
 40
0.7058823529411765
 40
0.7058823529411765
 40
0.7058823529411765
 40
0.7058823529411765
 40
0.7647058823529411
 40
0.7647058823529411
 40
0.7647058823529411
 40
0.7647058823529411
 40
0.8235294117647058
 40
0.8235294117647058
 40
0.8235294117647058
 40
0.8235294117647058
 40
0.8823529411764706
 40
0.8823529411764706
 40
0.8823529411764706
 40
0.8823529411764706
 40
1.0
 40
1.0
 40
1.0
 40
1.0
 10
-156.6676
 20
-75.0009
 30
0.0
 10
-155.142
 20
-74.3652
 30
0.0
 10
-153.9977
 20
-72.9664
 30
0.0
 10
-153.4892
 20
-71.3136
 30
0.0
 10
-153.4892
 20
-71.3136
 30
0.0
 10
-153.4892
 20
-71.3136
 30
0.0
 10
-149.2933
 20
-71.3136
 30
0.0
 10
-149.2933
 20
-71.3136
 30
0.0
 10
-149.2933
 20
-71.3136
 30
0.0
 10
-149.2933
 20
-71.3136
 30
0.0
 10
-149.2933
 20
-67.245
 30
0.0
 10
-149.2933
 20
-67.245
 30
0.0
 10
-149.2933
 20
-67.245
 30
0.0
 10
-147.6405
 20
-66.6092
 30
0.0
 10
-146.369
 20
-65.4649
 30
0.0
 10
-145.6063
 20
-63.9393
 30
0.0
 10
-145.6063
 20
-63.9393
 30
0.0
 10
-144.8434
 20
-65.4649
 30
0.0
 10
-143.5718
 20
-66.6092
 30
0.0
 10
-141.919
 20
-67.245
 30
0.0
 10
-141.919
 20
-67.245
 30
0.0
 10
-141.919
 20
-67.245
 30
0.0
 10
-141.919
 20
-71.3136
 30
0.0
 10
-141.919
 20
-71.3136
 30
0.0
 10
-141.919
 20
-71.3136
 30
0.0
 10
-141.919
 20
-71.3136
 30
0.0
 10
-137.7235
 20
-71.3136
 30
0.0
 10
-137.7235
 20
-71.3136
 30
0.0
 10
-137.7235
 20
-71.3136
 30
0.0
 10
-137.2146
 20
-72.9664
 30
0.0
 10
-136.0703
 20
-74.3652
 30
0.0
 10
-134.5447
 20
-75.0009
 30
0.0
 10
-134.5447
 20
-75.0009
 30
0.0
 10
-136.0703
 20
-75.7635
 30
0.0
 10
-137.2146
 20
-77.1623
 30
0.0
 10
-137.7235
 20
-78.6879
 30
0.0
 10
-137.7235
 20
-78.6879
 30
0.0
 10
-137.7235
 20
-78.6879
 30
0.0
 10
-141.919
 20
-78.6879
 30
0.0
 10
-141.919
 20
-78.6879
 30
0.0
 10
-141.919
 20
-78.6879
 30
0.0
 10
-141.919
 20
-78.6879
 30
0.0
 10
-141.919
 20
-82.8837
 30
0.0
 10
-141.919
 20
-82.8837
 30
0.0
 10
-141.919
 20
-82.8837
 30
0.0
 10
-143.5718
 20
-83.3923
 30
0.0
 10
-144.8434
 20
-84.6638
 30
0.0
 10
-145.6063
 20
-86.1894
 30
0.0
 10
-145.6063
 20
-86.1894
 30
0.0
 10
-146.369
 20
-84.6638
 30
0.0
 10
-147.6405
 20
-83.3923
 30
0.0
 10
-149.2933
 20
-82.8837
 30
0.0
 10
-149.2933
 20
-82.8837
 30
0.0
 10
-149.2933
 20
-82.8837
 30
0.0
 10
-149.2933
 20
-78.6879
 30
0.0
 10
-149.2933
 20
-78.6879
 30
0.0
 10
-149.2933
 20
-78.6879
 30
0.0
 10
-149.2933
 20
-78.6879
 30
0.0
 10
-153.4892
 20
-78.6879
 30
0.0
 10
-153.4892
 20
-78.6879
 30
0.0
 10
-153.4892
 20
-78.6879
 30
0.0
 10
-153.9977
 20
-77.1623
 30
0.0
 10
-155.142
 20
-75.7635
 30
0.0
 10
-156.6676
 20
-75.0009
 30
0.0
  0
SPLINE
  5
7B
330
1F
100
AcDbEntity
  8
layer 1
 62
     7
100
AcDbSpline
210
0.0
220
0.0
230
1.0
 70
    11
 71
     3
 72
    68
 73
    64
 74
     0
 42
0.0000000001
 43
0.0000000001
 12
1.0
 22
0.0
 32
0.0
 13
1.0
 23
0.0
 33
0.0
 40
0.0
 40
0.0
 40
0.0
 40
0.0
 40
0.0588235294117647
 40
0.0588235294117647
 40
0.0588235294117647
 40
0.0588235294117647
 40
0.1176470588235294
 40
0.1176470588235294
 40
0.1176470588235294
 40
0.1176470588235294
 40
0.1764705882352941
 40
0.1764705882352941
 40
0.1764705882352941
 40
0.1764705882352941
 40
0.2352941176470588
 40
0.2352941176470588
 40
0.2352941176470588
 40
0.2352941176470588
 40
0.2941176470588235
 40
0.2941176470588235
 40
0.2941176470588235
 40
0.2941176470588235
 40
0.3529411764705883
 40
0.3529411764705883
 40
0.3529411764705883
 40
0.3529411764705883
 40
0.4117647058823529
 40
0.4117647058823529
 40
0.4117647058823529
 40
0.4117647058823529
 40
0.4705882352941176
 40
0.4705882352941176
 40
0.4705882352941176
 40
0.4705882352941176
 40
0.5294117647058824
 40
0.5294117647058824
 40
0.5294117647058824
 40
0.5294117647058824
 40
0.5882352941176471
 40
0.5882352941176471
 40
0.5882352941176471
 40
0.5882352941176471
 40
0.6470588235294118
 40
0.6470588235294118
 40
0.6470588235294118
 40
0.6470588235294118
 40
0.7058823529411765
 40
0.7058823529411765
 40
0.7058823529411765
 40
0.7058823529411765
 40
0.7647058823529411
 40
0.7647058823529411
 40
0.7647058823529411
 40
0.7647058823529411
 40
0.8235294117647058
 40
0.8235294117647058
 40
0.8235294117647058
 40
0.8235294117647058
 40
0.8823529411764706
 40
0.8823529411764706
 40
0.8823529411764706
 40
0.8823529411764706
 40
1.0
 40
1.0
 40
1.0
 40
1.0
 10
-158.0663
 20
-50.4619
 30
0.0
 10
-158.0663
 20
-50.4619
 30
0.0
 10
-153.7436
 20
-50.4619
 30
0.0
 10
-153.7436
 20
-50.4619
 30
0.0
 10
-153.7436
 20
-50.4619
 30
0.0
 10
-153.7436
 20
-50.4619
 30
0.0
 10
-153.7436
 20
-54.9122
 30
0.0
 10
-153.7436
 20
-54.9122
 30
0.0
 10
-153.7436
 20
-54.9122
 30
0.0
 10
-151.5819
 20
-54.9122
 30
0.0
 10
-149.8018
 20
-56.565
 30
0.0
 10
-149.8018
 20
-58.7264
 30
0.0
 10
-149.8018
 20
-58.7264
 30
0.0
 10
-149.8018
 20
-60.8877
 30
0.0
 10
-151.5819
 20
-62.5406
 30
0.0
 10
-153.7436
 20
-62.5406
 30
0.0
 10
-153.7436
 20
-62.5406
 30
0.0
 10
-153.7436
 20
-62.5406
 30
0.0
 10
-153.7436
 20
-66.9909
 30
0.0
 10
-153.7436
 20
-66.9909
 30
0.0
 10
-153.7436
 20
-66.9909
 30
0.0
 10
-153.7436
 20
-66.9909
 30
0.0
 10
-158.0663
 20
-66.9909
 30
0.0
 10
-158.0663
 20
-66.9909
 30
0.0
 10
-158.0663
 20
-66.9909
 30
0.0
 10
-158.0663
 20
-69.025
 30
0.0
 10
-159.8464
 20
-70.8051
 30
0.0
 10
-161.8805
 20
-70.8051
 30
0.0
 10
-161.8805
 20
-70.8051
 30
0.0
 10
-164.0422
 20
-70.8051
 30
0.0
 10
-165.8219
 20
-69.025
 30
0.0
 10
-165.8219
 20
-66.9909
 30
0.0
 10
-165.8219
 20
-66.9909
 30
0.0
 10
-165.8219
 20
-66.9909
 30
0.0
 10
-170.145
 20
-66.9909
 30
0.0
 10
-170.145
 20
-66.9909
 30
0.0
 10
-170.145
 20
-66.9909
 30
0.0
 10
-170.145
 20
-66.9909
 30
0.0
 10
-170.145
 20
-62.5406
 30
0.0
 10
-170.145
 20
-62.5406
 30
0.0
 10
-170.145
 20
-62.5406
 30
0.0
 10
-172.3064
 20
-62.5406
 30
0.0
 10
-173.9592
 20
-60.8877
 30
0.0
 10
-173.9592
 20
-58.7264
 30
0.0
 10
-173.9592
 20
-58.7264
 30
0.0
 10
-173.9592
 20
-56.565
 30
0.0
 10
-172.3064
 20
-54.9122
 30
0.0
 10
-170.145
 20
-54.9122
 30
0.0
 10
-170.145
 20
-54.9122
 30
0.0
 10
-170.145
 20
-54.9122
 30
0.0
 10
-170.145
 20
-50.4619
 30
0.0
 10
-170.145
 20
-50.4619
 30
0.0
 10
-170.145
 20
-50.4619
 30
0.0
 10
-170.145
 20
-50.4619
 30
0.0
 10
-165.8219
 20
-50.4619
 30
0.0
 10
-165.8219
 20
-50.4619
 30
0.0
 10
-165.8219
 20
-50.4619
 30
0.0
 10
-165.8219
 20
-48.4277
 30
0.0
 10
-164.0422
 20
-46.6477
 30
0.0
 10
-161.8805
 20
-46.6477
 30
0.0
 10
-161.8805
 20
-46.6477
 30
0.0
 10
-159.8464
 20
-46.6477
 30
0.0
 10
-158.0663
 20
-48.4277
 30
0.0
 10
-158.0663
 20
-50.4619
 30
0.0
  0
SPLINE
  5
7C
330
1F
100
AcDbEntity
  8
layer 1
 62
     7
100
AcDbSpline
210
0.0
220
0.0
230
1.0
 70
    11
 71
     3
 72
    48
 73
    44
 74
     0
 42
0.0000000001
 43
0.0000000001
 12
1.0
 22
0.0
 32
0.0
 13
1.0
 23
0.0
 33
0.0
 40
0.0
 40
0.0
 40
0.0
 40
0.0
 40
0.0833333333333333
 40
0.0833333333333333
 40
0.0833333333333333
 40
0.0833333333333333
 40
0.1666666666666667
 40
0.1666666666666667
 40
0.1666666666666667
 40
0.1666666666666667
 40
0.25
 40
0.25
 40
0.25
 40
0.25
 40
0.3333333333333333
 40
0.3333333333333333
 40
0.3333333333333333
 40
0.3333333333333333
 40
0.4166666666666667
 40
0.4166666666666667
 40
0.4166666666666667
 40
0.4166666666666667
 40
0.5
 40
0.5
 40
0.5
 40
0.5
 40
0.5833333333333334
 40
0.5833333333333334
 40
0.5833333333333334
 40
0.5833333333333334
 40
0.6666666666666666
 40
0.6666666666666666
 40
0.6666666666666666
 40
0.6666666666666666
 40
0.75
 40
0.75
 40
0.75
 40
0.75
 40
0.8333333333333334
 40
0.8333333333333334
 40
0.8333333333333334
 40
0.8333333333333334
 40
1.0
 40
1.0
 40
1.0
 40
1.0
 10
-156.6676
 20
-108.3123
 30
0.0
 10
-155.142
 20
-107.6765
 30
0.0
 10
-153.9977
 20
-106.2781
 30
0.0
 10
-153.4892
 20
-104.6253
 30
0.0
 10
-153.4892
 20
-104.6253
 30
0.0
 10
-153.4892
 20
-104.6253
 30
0.0
 10
-149.2933
 20
-104.6253
 30
0.0
 10
-149.2933
 20
-104.6253
 30
0.0
 10
-149.2933
 20
-104.6253
 30
0.0
 10
-149.2933
 20
-104.6253
 30
0.0
 10
-149.2933
 20
-100.5567
 30
0.0
 10
-149.2933
 20
-100.5567
 30
0.0
 10
-149.2933
 20
-100.5567
 30
0.0
 10
-147.6405
 20
-99.9209
 30
0.0
 10
-146.369
 20
-98.7766
 30
0.0
 10
-145.6063
 20
-97.251
 30
0.0
 10
-145.6063
 20
-97.251
 30
0.0
 10
-144.8434
 20
-98.7766
 30
0.0
 10
-143.5718
 20
-99.9209
 30
0.0
 10
-141.919
 20
-100.5567
 30
0.0
 10
-141.919
 20
-100.5567
 30
0.0
 10
-141.919
 20
-100.5567
 30
0.0
 10
-141.919
 20
-104.6253
 30
0.0
 10
-141.919
 20
-104.6253
 30
0.0
 10
-141.919
 20
-104.6253
 30
0.0
 10
-141.919
 20
-104.6253
 30
0.0
 10
-137.7235
 20
-104.6253
 30
0.0
 10
-137.7235
 20
-104.6253
 30
0.0
 10
-137.7235
 20
-104.6253
 30
0.0
 10
-137.2146
 20
-106.2781
 30
0.0
 10
-136.0703
 20
-107.6765
 30
0.0
 10
-134.5447
 20
-108.3123
 30
0.0
 10
-134.5447
 20
-108.3123
 30
0.0
 10
-135.0532
 20
-108.694
 30
0.0
 10
-135.5618
 20
-108.948
 30
0.0
 10
-136.0703
 20
-109.4566
 30
0.0
 10
-136.0703
 20
-109.4566
 30
0.0
 10
-136.0703
 20
-109.4566
 30
0.0
 10
-155.142
 20
-109.4566
 30
0.0
 10
-155.142
 20
-109.4566
 30
0.0
 10
-155.142
 20
-109.4566
 30
0.0
 10
-155.5233
 20
-108.948
 30
0.0
 10
-156.1591
 20
-108.694
 30
0.0
 10
-156.6676
 20
-108.3123
 30
0.0
  0
SPLINE
  5
7D
330
1F
100
AcDbEntity
  8
layer 1
 62
     7
100
AcDbSpline
210
0.0
220
0.0
230
1.0
 70
    11
 71
     3
 72
    68
 73
    64
 74
     0
 42
0.0000000001
 43
0.0000000001
 12
1.0
 22
0.0
 32
0.0
 13
1.0
 23
0.0
 33
0.0
 40
0.0
 40
0.0
 40
0.0
 40
0.0
 40
0.0588235294117647
 40
0.0588235294117647
 40
0.0588235294117647
 40
0.0588235294117647
 40
0.1176470588235294
 40
0.1176470588235294
 40
0.1176470588235294
 40
0.1176470588235294
 40
0.1764705882352941
 40
0.1764705882352941
 40
0.1764705882352941
 40
0.1764705882352941
 40
0.2352941176470588
 40
0.2352941176470588
 40
0.2352941176470588
 40
0.2352941176470588
 40
0.2941176470588235
 40
0.2941176470588235
 40
0.2941176470588235
 40
0.2941176470588235
 40
0.3529411764705883
 40
0.3529411764705883
 40
0.3529411764705883
 40
0.3529411764705883
 40
0.4117647058823529
 40
0.4117647058823529
 40
0.4117647058823529
 40
0.4117647058823529
 40
0.4705882352941176
 40
0.4705882352941176
 40
0.4705882352941176
 40
0.4705882352941176
 40
0.5294117647058824
 40
0.5294117647058824
 40
0.5294117647058824
 40
0.5294117647058824
 40
0.5882352941176471
 40
0.5882352941176471
 40
0.5882352941176471
 40
0.5882352941176471
 40
0.6470588235294118
 40
0.6470588235294118
 40
0.6470588235294118
 40
0.6470588235294118
 40
0.7058823529411765
 40
0.7058823529411765
 40
0.7058823529411765
 40
0.7058823529411765
 40
0.7647058823529411
 40
0.7647058823529411
 40
0.7647058823529411
 40
0.7647058823529411
 40
0.8235294117647058
 40
0.8235294117647058
 40
0.8235294117647058
 40
0.8235294117647058
 40
0.8823529411764706
 40
0.8823529411764706
 40
0.8823529411764706
 40
0.8823529411764706
 40
1.0
 40
1.0
 40
1.0
 40
1.0
 10
-158.0663
 20
-83.7736
 30
0.0
 10
-158.0663
 20
-83.7736
 30
0.0
 10
-153.7436
 20
-83.7736
 30
0.0
 10
-153.7436
 20
-83.7736
 30
0.0
 10
-153.7436
 20
-83.7736
 30
0.0
 10
-153.7436
 20
-83.7736
 30
0.0
 10
-153.7436
 20
-88.2235
 30
0.0
 10
-153.7436
 20
-88.2235
 30
0.0
 10
-153.7436
 20
-88.2235
 30
0.0
 10
-151.5819
 20
-88.2235
 30
0.0
 10
-149.8018
 20
-89.8767
 30
0.0
 10
-149.8018
 20
-92.0381
 30
0.0
 10
-149.8018
 20
-92.0381
 30
0.0
 10
-149.8018
 20
-94.1995
 30
0.0
 10
-151.5819
 20
-95.8523
 30
0.0
 10
-153.7436
 20
-95.8523
 30
0.0
 10
-153.7436
 20
-95.8523
 30
0.0
 10
-153.7436
 20
-95.8523
 30
0.0
 10
-153.7436
 20
-100.3022
 30
0.0
 10
-153.7436
 20
-100.3022
 30
0.0
 10
-153.7436
 20
-100.3022
 30
0.0
 10
-153.7436
 20
-100.3022
 30
0.0
 10
-158.0663
 20
-100.3022
 30
0.0
 10
-158.0663
 20
-100.3022
 30
0.0
 10
-158.0663
 20
-100.3022
 30
0.0
 10
-158.0663
 20
-102.3367
 30
0.0
 10
-159.8464
 20
-104.1168
 30
0.0
 10
-161.8805
 20
-104.1168
 30
0.0
 10
-161.8805
 20
-104.1168
 30
0.0
 10
-164.0422
 20
-104.1168
 30
0.0
 10
-165.8219
 20
-102.3367
 30
0.0
 10
-165.8219
 20
-100.3022
 30
0.0
 10
-165.8219
 20
-100.3022
 30
0.0
 10
-165.8219
 20
-100.3022
 30
0.0
 10
-170.145
 20
-100.3022
 30
0.0
 10
-170.145
 20
-100.3022
 30
0.0
 10
-170.145
 20
-100.3022
 30
0.0
 10
-170.145
 20
-100.3022
 30
0.0
 10
-170.145
 20
-95.8523
 30
0.0
 10
-170.145
 20
-95.8523
 30
0.0
 10
-170.145
 20
-95.8523
 30
0.0
 10
-172.3064
 20
-95.8523
 30
0.0
 10
-173.9592
 20
-94.1995
 30
0.0
 10
-173.9592
 20
-92.0381
 30
0.0
 10
-173.9592
 20
-92.0381
 30
0.0
 10
-173.9592
 20
-89.8767
 30
0.0
 10
-172.3064
 20
-88.2235
 30
0.0
 10
-170.145
 20
-88.2235
 30
0.0
 10
-170.145
 20
-88.2235
 30
0.0
 10
-170.145
 20
-88.2235
 30
0.0
 10
-170.145
 20
-83.7736
 30
0.0
 10
-170.145
 20
-83.7736
 30
0.0
 10
-170.145
 20
-83.7736
 30
0.0
 10
-170.145
 20
-83.7736
 30
0.0
 10
-165.8219
 20
-83.7736
 30
0.0
 10
-165.8219
 20
-83.7736
 30
0.0
 10
-165.8219
 20
-83.7736
 30
0.0
 10
-165.8219
 20
-81.7395
 30
0.0
 10
-164.0422
 20
-79.9594
 30
0.0
 10
-161.8805
 20
-79.9594
 30
0.0
 10
-161.8805
 20
-79.9594
 30
0.0
 10
-159.8464
 20
-79.9594
 30
0.0
 10
-158.0663
 20
-81.7395
 30
0.0
 10
-158.0663
 20
-83.7736
 30
0.0
  0
SPLINE
  5
7E
330
1F
100
AcDbEntity
  8
layer 1
 62
     7
100
AcDbSpline
210
0.0
220
0.0
230
1.0
 70
    11
 71
     3
 72
    36
 73
    32
 74
     0
 42
0.0000000001
 43
0.0000000001
 12
1.0
 22
0.0
 32
0.0
 13
1.0
 23
0.0
 33
0.0
 40
0.0
 40
0.0
 40
0.0
 40
0.0
 40
0.1111111111111111
 40
0.1111111111111111
 40
0.1111111111111111
 40
0.1111111111111111
 40
0.2222222222222222
 40
0.2222222222222222
 40
0.2222222222222222
 40
0.2222222222222222
 40
0.3333333333333333
 40
0.3333333333333333
 40
0.3333333333333333
 40
0.3333333333333333
 40
0.4444444444444444
 40
0.4444444444444444
 40
0.4444444444444444
 40
0.4444444444444444
 40
0.5555555555555556
 40
0.5555555555555556
 40
0.5555555555555556
 40
0.5555555555555556
 40
0.6666666666666666
 40
0.6666666666666666
 40
0.6666666666666666
 40
0.6666666666666666
 40
0.7777777777777778
 40
0.7777777777777778
 40
0.7777777777777778
 40
0.7777777777777778
 40
1.0
 40
1.0
 40
1.0
 40
1.0
 10
-181.7152
 20
-100.1754
 30
0.0
 10
-180.4437
 20
-99.5396
 30
0.0
 10
-179.5534
 20
-98.5222
 30
0.0
 10
-178.9181
 20
-97.251
 30
0.0
 10
-178.9181
 20
-97.251
 30
0.0
 10
-178.1551
 20
-98.7766
 30
0.0
 10
-176.8836
 20
-99.9209
 30
0.0
 10
-175.2307
 20
-100.5567
 30
0.0
 10
-175.2307
 20
-100.5567
 30
0.0
 10
-175.2307
 20
-100.5567
 30
0.0
 10
-175.2307
 20
-104.6253
 30
0.0
 10
-175.2307
 20
-104.6253
 30
0.0
 10
-175.2307
 20
-104.6253
 30
0.0
 10
-175.2307
 20
-104.6253
 30
0.0
 10
-171.0349
 20
-104.6253
 30
0.0
 10
-171.0349
 20
-104.6253
 30
0.0
 10
-171.0349
 20
-104.6253
 30
0.0
 10
-170.5263
 20
-106.2781
 30
0.0
 10
-169.382
 20
-107.6765
 30
0.0
 10
-167.8564
 20
-108.3123
 30
0.0
 10
-167.8564
 20
-108.3123
 30
0.0
 10
-168.365
 20
-108.694
 30
0.0
 10
-168.8735
 20
-108.948
 30
0.0
 10
-169.382
 20
-109.4566
 30
0.0
 10
-169.382
 20
-109.4566
 30
0.0
 10
-169.382
 20
-109.4566
 30
0.0
 10
-181.7152
 20
-109.4566
 30
0.0
 10
-181.7152
 20
-109.4566
 30
0.0
 10
-181.7152
 20
-109.4566
 30
0.0
 10
-181.7152
 20
-109.4566
 30
0.0
 10
-181.7152
 20
-100.1754
 30
0.0
 10
-181.7152
 20
-100.1754
 30
0.0
  0
SPLINE
  5
7F
330
1F
100
AcDbEntity
  8
layer 1
 62
     7
100
AcDbSpline
210
0.0
220
0.0
230
1.0
 70
    11
 71
     3
 72
    48
 73
    44
 74
     0
 42
0.0000000001
 43
0.0000000001
 12
1.0
 22
0.0
 32
0.0
 13
1.0
 23
0.0
 33
0.0
 40
0.0
 40
0.0
 40
0.0
 40
0.0
 40
0.0833333333333333
 40
0.0833333333333333
 40
0.0833333333333333
 40
0.0833333333333333
 40
0.1666666666666667
 40
0.1666666666666667
 40
0.1666666666666667
 40
0.1666666666666667
 40
0.25
 40
0.25
 40
0.25
 40
0.25
 40
0.3333333333333333
 40
0.3333333333333333
 40
0.3333333333333333
 40
0.3333333333333333
 40
0.4166666666666667
 40
0.4166666666666667
 40
0.4166666666666667
 40
0.4166666666666667
 40
0.5
 40
0.5
 40
0.5
 40
0.5
 40
0.5833333333333334
 40
0.5833333333333334
 40
0.5833333333333334
 40
0.5833333333333334
 40
0.6666666666666666
 40
0.6666666666666666
 40
0.6666666666666666
 40
0.6666666666666666
 40
0.75
 40
0.75
 40
0.75
 40
0.75
 40
0.8333333333333334
 40
0.8333333333333334
 40
0.8333333333333334
 40
0.8333333333333334
 40
1.0
 40
1.0
 40
1.0
 40
1.0
 10
-181.7152
 20
-66.8636
 30
0.0
 10
-180.4437
 20
-66.2279
 30
0.0
 10
-179.5534
 20
-65.2108
 30
0.0
 10
-178.9181
 20
-63.9393
 30
0.0
 10
-178.9181
 20
-63.9393
 30
0.0
 10
-178.1551
 20
-65.4649
 30
0.0
 10
-176.8836
 20
-66.6092
 30
0.0
 10
-175.2307
 20
-67.245
 30
0.0
 10
-175.2307
 20
-67.245
 30
0.0
 10
-175.2307
 20
-67.245
 30
0.0
 10
-175.2307
 20
-71.3136
 30
0.0
 10
-175.2307
 20
-71.3136
 30
0.0
 10
-175.2307
 20
-71.3136
 30
0.0
 10
-175.2307
 20
-71.3136
 30
0.0
 10
-171.0349
 20
-71.3136
 30
0.0
 10
-171.0349
 20
-71.3136
 30
0.0
 10
-171.0349
 20
-71.3136
 30
0.0
 10
-170.5263
 20
-72.9664
 30
0.0
 10
-169.382
 20
-74.3652
 30
0.0
 10
-167.8564
 20
-75.0009
 30
0.0
 10
-167.8564
 20
-75.0009
 30
0.0
 10
-169.382
 20
-75.7635
 30
0.0
 10
-170.5263
 20
-77.1623
 30
0.0
 10
-171.0349
 20
-78.6879
 30
0.0
 10
-171.0349
 20
-78.6879
 30
0.0
 10
-171.0349
 20
-78.6879
 30
0.0
 10
-175.2307
 20
-78.6879
 30
0.0
 10
-175.2307
 20
-78.6879
 30
0.0
 10
-175.2307
 20
-78.6879
 30
0.0
 10
-175.2307
 20
-78.6879
 30
0.0
 10
-175.2307
 20
-82.8837
 30
0.0
 10
-175.2307
 20
-82.8837
 30
0.0
 10
-175.2307
 20
-82.8837
 30
0.0
 10
-176.8836
 20
-83.3923
 30
0.0
 10
-178.1551
 20
-84.6638
 30
0.0
 10
-178.9181
 20
-86.1894
 30
0.0
 10
-178.9181
 20
-86.1894
 30
0.0
 10
-179.5534
 20
-84.9179
 30
0.0
 10
-180.4437
 20
-83.9008
 30
0.0
 10
-181.7152
 20
-83.2651
 30
0.0
 10
-181.7152
 20
-83.2651
 30
0.0
 10
-181.7152
 20
-83.2651
 30
0.0
 10
-181.7152
 20
-66.8636
 30
0.0
 10
-181.7152
 20
-66.8636
 30
0.0
  0
SPLINE
  5
80
330
1F
100
AcDbEntity
  8
layer 1
 62
     7
100
AcDbSpline
210
0.0
220
0.0
230
1.0
 70
    11
 71
     3
 72
    48
 73
    44
 74
     0
 42
0.0000000001
 43
0.0000000001
 12
1.0
 22
0.0
 32
0.0
 13
1.0
 23
0.0
 33
0.0
 40
0.0
 40
0.0
 40
0.0
 40
0.0
 40
0.0833333333333333
 40
0.0833333333333333
 40
0.0833333333333333
 40
0.0833333333333333
 40
0.1666666666666667
 40
0.1666666666666667
 40
0.1666666666666667
 40
0.1666666666666667
 40
0.25
 40
0.25
 40
0.25
 40
0.25
 40
0.3333333333333333
 40
0.3333333333333333
 40
0.3333333333333333
 40
0.3333333333333333
 40
0.4166666666666667
 40
0.4166666666666667
 40
0.4166666666666667
 40
0.4166666666666667
 40
0.5
 40
0.5
 40
0.5
 40
0.5
 40
0.5833333333333334
 40
0.5833333333333334
 40
0.5833333333333334
 40
0.5833333333333334
 40
0.6666666666666666
 40
0.6666666666666666
 40
0.6666666666666666
 40
0.6666666666666666
 40
0.75
 40
0.75
 40
0.75
 40
0.75
 40
0.8333333333333334
 40
0.8333333333333334
 40
0.8333333333333334
 40
0.8333333333333334
 40
1.0
 40
1.0
 40
1.0
 40
1.0
 10
-181.7152
 20
-33.4247
 30
0.0
 10
-180.4437
 20
-32.9162
 30
0.0
 10
-179.5534
 20
-31.8991
 30
0.0
 10
-178.9181
 20
-30.6276
 30
0.0
 10
-178.9181
 20
-30.6276
 30
0.0
 10
-178.1551
 20
-32.1532
 30
0.0
 10
-176.8836
 20
-33.2975
 30
0.0
 10
-175.2307
 20
-33.9332
 30
0.0
 10
-175.2307
 20
-33.9332
 30
0.0
 10
-175.2307
 20
-33.9332
 30
0.0
 10
-175.2307
 20
-38.0019
 30
0.0
 10
-175.2307
 20
-38.0019
 30
0.0
 10
-175.2307
 20
-38.0019
 30
0.0
 10
-175.2307
 20
-38.0019
 30
0.0
 10
-171.0349
 20
-38.0019
 30
0.0
 10
-171.0349
 20
-38.0019
 30
0.0
 10
-171.0349
 20
-38.0019
 30
0.0
 10
-170.5263
 20
-39.6547
 30
0.0
 10
-169.382
 20
-41.0534
 30
0.0
 10
-167.8564
 20
-41.6892
 30
0.0
 10
-167.8564
 20
-41.6892
 30
0.0
 10
-169.382
 20
-42.4518
 30
0.0
 10
-170.5263
 20
-43.7233
 30
0.0
 10
-171.0349
 20
-45.3762
 30
0.0
 10
-171.0349
 20
-45.3762
 30
0.0
 10
-171.0349
 20
-45.3762
 30
0.0
 10
-175.2307
 20
-45.3762
 30
0.0
 10
-175.2307
 20
-45.3762
 30
0.0
 10
-175.2307
 20
-45.3762
 30
0.0
 10
-175.2307
 20
-45.3762
 30
0.0
 10
-175.2307
 20
-49.572
 30
0.0
 10
-175.2307
 20
-49.572
 30
0.0
 10
-175.2307
 20
-49.572
 30
0.0
 10
-176.8836
 20
-50.0806
 30
0.0
 10
-178.1551
 20
-51.3521
 30
0.0
 10
-178.9181
 20
-52.8777
 30
0.0
 10
-178.9181
 20
-52.8777
 30
0.0
 10
-179.5534
 20
-51.6062
 30
0.0
 10
-180.4437
 20
-50.5891
 30
0.0
 10
-181.7152
 20
-49.9533
 30
0.0
 10
-181.7152
 20
-49.9533
 30
0.0
 10
-181.7152
 20
-49.9533
 30
0.0
 10
-181.7152
 20
-33.4247
 30
0.0
 10
-181.7152
 20
-33.4247
 30
0.0
  0
SPLINE
  5
81
330
1F
100
AcDbEntity
  8
layer 1
 62
     7
100
AcDbSpline
210
0.0
220
0.0
230
1.0
 70
    11
 71
     3
 72
    48
 73
    44
 74
     0
 42
0.0000000001
 43
0.0000000001
 12
1.0
 22
0.0
 32
0.0
 13
1.0
 23
0.0
 33
0.0
 40
0.0
 40
0.0
 40
0.0
 40
0.0
 40
0.0833333333333333
 40
0.0833333333333333
 40
0.0833333333333333
 40
0.0833333333333333
 40
0.1666666666666667
 40
0.1666666666666667
 40
0.1666666666666667
 40
0.1666666666666667
 40
0.25
 40
0.25
 40
0.25
 40
0.25
 40
0.3333333333333333
 40
0.3333333333333333
 40
0.3333333333333333
 40
0.3333333333333333
 40
0.4166666666666667
 40
0.4166666666666667
 40
0.4166666666666667
 40
0.4166666666666667
 40
0.5
 40
0.5
 40
0.5
 40
0.5
 40
0.5833333333333334
 40
0.5833333333333334
 40
0.5833333333333334
 40
0.5833333333333334
 40
0.6666666666666666
 40
0.6666666666666666
 40
0.6666666666666666
 40
0.6666666666666666
 40
0.75
 40
0.75
 40
0.75
 40
0.75
 40
0.8333333333333334
 40
0.8333333333333334
 40
0.8333333333333334
 40
0.8333333333333334
 40
1.0
 40
1.0
 40
1.0
 40
1.0
 10
-181.7152
 20
-0.113
 30
0.0
 10
-180.4437
 20
0.5224
 30
0.0
 10
-179.5534
 20
1.4126
 30
0.0
 10
-178.9181
 20
2.6841
 30
0.0
 10
-178.9181
 20
2.6841
 30
0.0
 10
-178.1551
 20
1.1582
 30
0.0
 10
-176.8836
 20
0.0139
 30
0.0
 10
-175.2307
 20
-0.4947
 30
0.0
 10
-175.2307
 20
-0.4947
 30
0.0
 10
-175.2307
 20
-0.4947
 30
0.0
 10
-175.2307
 20
-4.6902
 30
0.0
 10
-175.2307
 20
-4.6902
 30
0.0
 10
-175.2307
 20
-4.6902
 30
0.0
 10
-175.2307
 20
-4.6902
 30
0.0
 10
-171.0349
 20
-4.6902
 30
0.0
 10
-171.0349
 20
-4.6902
 30
0.0
 10
-171.0349
 20
-4.6902
 30
0.0
 10
-170.5263
 20
-6.3433
 30
0.0
 10
-169.382
 20
-7.7417
 30
0.0
 10
-167.8564
 20
-8.3775
 30
0.0
 10
-167.8564
 20
-8.3775
 30
0.0
 10
-169.382
 20
-9.1405
 30
0.0
 10
-170.5263
 20
-10.4116
 30
0.0
 10
-171.0349
 20
-12.0648
 30
0.0
 10
-171.0349
 20
-12.0648
 30
0.0
 10
-171.0349
 20
-12.0648
 30
0.0
 10
-175.2307
 20
-12.0648
 30
0.0
 10
-175.2307
 20
-12.0648
 30
0.0
 10
-175.2307
 20
-12.0648
 30
0.0
 10
-175.2307
 20
-12.0648
 30
0.0
 10
-175.2307
 20
-16.2603
 30
0.0
 10
-175.2307
 20
-16.2603
 30
0.0
 10
-175.2307
 20
-16.2603
 30
0.0
 10
-176.8836
 20
-16.7688
 30
0.0
 10
-178.1551
 20
-18.0404
 30
0.0
 10
-178.9181
 20
-19.566
 30
0.0
 10
-178.9181
 20
-19.566
 30
0.0
 10
-179.5534
 20
-18.2948
 30
0.0
 10
-180.4437
 20
-17.2774
 30
0.0
 10
-181.7152
 20
-16.642
 30
0.0
 10
-181.7152
 20
-16.642
 30
0.0
 10
-181.7152
 20
-16.642
 30
0.0
 10
-181.7152
 20
-0.113
 30
0.0
 10
-181.7152
 20
-0.113
 30
0.0
  0
SPLINE
  5
82
330
1F
100
AcDbEntity
  8
layer 1
 62
     7
100
AcDbSpline
210
0.0
220
0.0
230
1.0
 70
    11
 71
     3
 72
    48
 73
    44
 74
     0
 42
0.0000000001
 43
0.0000000001
 12
1.0
 22
0.0
 32
0.0
 13
1.0
 23
0.0
 33
0.0
 40
0.0
 40
0.0
 40
0.0
 40
0.0
 40
0.0833333333333333
 40
0.0833333333333333
 40
0.0833333333333333
 40
0.0833333333333333
 40
0.1666666666666667
 40
0.1666666666666667
 40
0.1666666666666667
 40
0.1666666666666667
 40
0.25
 40
0.25
 40
0.25
 40
0.25
 40
0.3333333333333333
 40
0.3333333333333333
 40
0.3333333333333333
 40
0.3333333333333333
 40
0.4166666666666667
 40
0.4166666666666667
 40
0.4166666666666667
 40
0.4166666666666667
 40
0.5
 40
0.5
 40
0.5
 40
0.5
 40
0.5833333333333334
 40
0.5833333333333334
 40
0.5833333333333334
 40
0.5833333333333334
 40
0.6666666666666666
 40
0.6666666666666666
 40
0.6666666666666666
 40
0.6666666666666666
 40
0.75
 40
0.75
 40
0.75
 40
0.75
 40
0.8333333333333334
 40
0.8333333333333334
 40
0.8333333333333334
 40
0.8333333333333334
 40
1.0
 40
1.0
 40
1.0
 40
1.0
 10
-181.7152
 20
33.1984
 30
0.0
 10
-180.4437
 20
33.8341
 30
0.0
 10
-179.5534
 20
34.8512
 30
0.0
 10
-178.9181
 20
35.9955
 30
0.0
 10
-178.9181
 20
35.9955
 30
0.0
 10
-178.1551
 20
34.4699
 30
0.0
 10
-176.8836
 20
33.3256
 30
0.0
 10
-175.2307
 20
32.8171
 30
0.0
 10
-175.2307
 20
32.8171
 30
0.0
 10
-175.2307
 20
32.8171
 30
0.0
 10
-175.2307
 20
28.6212
 30
0.0
 10
-175.2307
 20
28.6212
 30
0.0
 10
-175.2307
 20
28.6212
 30
0.0
 10
-175.2307
 20
28.6212
 30
0.0
 10
-171.0349
 20
28.6212
 30
0.0
 10
-171.0349
 20
28.6212
 30
0.0
 10
-171.0349
 20
28.6212
 30
0.0
 10
-170.5263
 20
26.9684
 30
0.0
 10
-169.382
 20
25.6969
 30
0.0
 10
-167.8564
 20
24.9342
 30
0.0
 10
-167.8564
 20
24.9342
 30
0.0
 10
-169.382
 20
24.1712
 30
0.0
 10
-170.5263
 20
22.8997
 30
0.0
 10
-171.0349
 20
21.2469
 30
0.0
 10
-171.0349
 20
21.2469
 30
0.0
 10
-171.0349
 20
21.2469
 30
0.0
 10
-175.2307
 20
21.2469
 30
0.0
 10
-175.2307
 20
21.2469
 30
0.0
 10
-175.2307
 20
21.2469
 30
0.0
 10
-175.2307
 20
21.2469
 30
0.0
 10
-175.2307
 20
17.0514
 30
0.0
 10
-175.2307
 20
17.0514
 30
0.0
 10
-175.2307
 20
17.0514
 30
0.0
 10
-176.8836
 20
16.5425
 30
0.0
 10
-178.1551
 20
15.3982
 30
0.0
 10
-178.9181
 20
13.7454
 30
0.0
 10
-178.9181
 20
13.7454
 30
0.0
 10
-179.5534
 20
15.0169
 30
0.0
 10
-180.4437
 20
16.034
 30
0.0
 10
-181.7152
 20
16.6697
 30
0.0
 10
-181.7152
 20
16.6697
 30
0.0
 10
-181.7152
 20
16.6697
 30
0.0
 10
-181.7152
 20
33.1984
 30
0.0
 10
-181.7152
 20
33.1984
 30
0.0
  0
SPLINE
  5
83
330
1F
100
AcDbEntity
  8
layer 1
 62
     7
100
AcDbSpline
210
0.0
220
0.0
230
1.0
 70
    11
 71
     3
 72
    48
 73
    44
 74
     0
 42
0.0000000001
 43
0.0000000001
 12
1.0
 22
0.0
 32
0.0
 13
1.0
 23
0.0
 33
0.0
 40
0.0
 40
0.0
 40
0.0
 40
0.0
 40
0.0833333333333333
 40
0.0833333333333333
 40
0.0833333333333333
 40
0.0833333333333333
 40
0.1666666666666667
 40
0.1666666666666667
 40
0.1666666666666667
 40
0.1666666666666667
 40
0.25
 40
0.25
 40
0.25
 40
0.25
 40
0.3333333333333333
 40
0.3333333333333333
 40
0.3333333333333333
 40
0.3333333333333333
 40
0.4166666666666667
 40
0.4166666666666667
 40
0.4166666666666667
 40
0.4166666666666667
 40
0.5
 40
0.5
 40
0.5
 40
0.5
 40
0.5833333333333334
 40
0.5833333333333334
 40
0.5833333333333334
 40
0.5833333333333334
 40
0.6666666666666666
 40
0.6666666666666666
 40
0.6666666666666666
 40
0.6666666666666666
 40
0.75
 40
0.75
 40
0.75
 40
0.75
 40
0.8333333333333334
 40
0.8333333333333334
 40
0.8333333333333334
 40
0.8333333333333334
 40
1.0
 40
1.0
 40
1.0
 40
1.0
 10
-181.7152
 20
66.5101
 30
0.0
 10
-180.4437
 20
67.1458
 30
0.0
 10
-179.5534
 20
68.1629
 30
0.0
 10
-178.9181
 20
69.3072
 30
0.0
 10
-178.9181
 20
69.3072
 30
0.0
 10
-178.1551
 20
67.7816
 30
0.0
 10
-176.8836
 20
66.6373
 30
0.0
 10
-175.2307
 20
66.1288
 30
0.0
 10
-175.2307
 20
66.1288
 30
0.0
 10
-175.2307
 20
66.1288
 30
0.0
 10
-175.2307
 20
61.9329
 30
0.0
 10
-175.2307
 20
61.9329
 30
0.0
 10
-175.2307
 20
61.9329
 30
0.0
 10
-175.2307
 20
61.9329
 30
0.0
 10
-171.0349
 20
61.9329
 30
0.0
 10
-171.0349
 20
61.9329
 30
0.0
 10
-171.0349
 20
61.9329
 30
0.0
 10
-170.5263
 20
60.2801
 30
0.0
 10
-169.382
 20
59.0086
 30
0.0
 10
-167.8564
 20
58.2459
 30
0.0
 10
-167.8564
 20
58.2459
 30
0.0
 10
-169.382
 20
57.483
 30
0.0
 10
-170.5263
 20
56.2115
 30
0.0
 10
-171.0349
 20
54.5586
 30
0.0
 10
-171.0349
 20
54.5586
 30
0.0
 10
-171.0349
 20
54.5586
 30
0.0
 10
-175.2307
 20
54.5586
 30
0.0
 10
-175.2307
 20
54.5586
 30
0.0
 10
-175.2307
 20
54.5586
 30
0.0
 10
-175.2307
 20
54.5586
 30
0.0
 10
-175.2307
 20
50.3628
 30
0.0
 10
-175.2307
 20
50.3628
 30
0.0
 10
-175.2307
 20
50.3628
 30
0.0
 10
-176.8836
 20
49.8542
 30
0.0
 10
-178.1551
 20
48.7099
 30
0.0
 10
-178.9181
 20
47.1843
 30
0.0
 10
-178.9181
 20
47.1843
 30
0.0
 10
-179.5534
 20
48.3286
 30
0.0
 10
-180.4437
 20
49.3457
 30
0.0
 10
-181.7152
 20
49.9815
 30
0.0
 10
-181.7152
 20
49.9815
 30
0.0
 10
-181.7152
 20
49.9815
 30
0.0
 10
-181.7152
 20
66.5101
 30
0.0
 10
-181.7152
 20
66.5101
 30
0.0
  0
SPLINE
  5
84
330
1F
100
AcDbEntity
  8
layer 1
 62
     7
100
AcDbSpline
210
0.0
220
0.0
230
1.0
 70
    11
 71
     3
 72
    48
 73
    44
 74
     0
 42
0.0000000001
 43
0.0000000001
 12
1.0
 22
0.0
 32
0.0
 13
1.0
 23
0.0
 33
0.0
 40
0.0
 40
0.0
 40
0.0
 40
0.0
 40
0.0833333333333333
 40
0.0833333333333333
 40
0.0833333333333333
 40
0.0833333333333333
 40
0.1666666666666667
 40
0.1666666666666667
 40
0.1666666666666667
 40
0.1666666666666667
 40
0.25
 40
0.25
 40
0.25
 40
0.25
 40
0.3333333333333333
 40
0.3333333333333333
 40
0.3333333333333333
 40
0.3333333333333333
 40
0.4166666666666667
 40
0.4166666666666667
 40
0.4166666666666667
 40
0.4166666666666667
 40
0.5
 40
0.5
 40
0.5
 40
0.5
 40
0.5833333333333334
 40
0.5833333333333334
 40
0.5833333333333334
 40
0.5833333333333334
 40
0.6666666666666666
 40
0.6666666666666666
 40
0.6666666666666666
 40
0.6666666666666666
 40
0.75
 40
0.75
 40
0.75
 40
0.75
 40
0.8333333333333334
 40
0.8333333333333334
 40
0.8333333333333334
 40
0.8333333333333334
 40
1.0
 40
1.0
 40
1.0
 40
1.0
 10
-181.7152
 20
99.8218
 30
0.0
 10
-180.4437
 20
100.4576
 30
0.0
 10
-179.5534
 20
101.4746
 30
0.0
 10
-178.9181
 20
102.6189
 30
0.0
 10
-178.9181
 20
102.6189
 30
0.0
 10
-178.1551
 20
101.0933
 30
0.0
 10
-176.8836
 20
99.949
 30
0.0
 10
-175.2307
 20
99.4405
 30
0.0
 10
-175.2307
 20
99.4405
 30
0.0
 10
-175.2307
 20
99.4405
 30
0.0
 10
-175.2307
 20
95.2446
 30
0.0
 10
-175.2307
 20
95.2446
 30
0.0
 10
-175.2307
 20
95.2446
 30
0.0
 10
-175.2307
 20
95.2446
 30
0.0
 10
-171.0349
 20
95.2446
 30
0.0
 10
-171.0349
 20
95.2446
 30
0.0
 10
-171.0349
 20
95.2446
 30
0.0
 10
-170.5263
 20
93.5918
 30
0.0
 10
-169.382
 20
92.3203
 30
0.0
 10
-167.8564
 20
91.5573
 30
0.0
 10
-167.8564
 20
91.5573
 30
0.0
 10
-169.382
 20
90.7947
 30
0.0
 10
-170.5263
 20
89.5232
 30
0.0
 10
-171.0349
 20
87.8703
 30
0.0
 10
-171.0349
 20
87.8703
 30
0.0
 10
-171.0349
 20
87.8703
 30
0.0
 10
-175.2307
 20
87.8703
 30
0.0
 10
-175.2307
 20
87.8703
 30
0.0
 10
-175.2307
 20
87.8703
 30
0.0
 10
-175.2307
 20
87.8703
 30
0.0
 10
-175.2307
 20
83.6745
 30
0.0
 10
-175.2307
 20
83.6745
 30
0.0
 10
-175.2307
 20
83.6745
 30
0.0
 10
-176.8836
 20
83.1659
 30
0.0
 10
-178.1551
 20
82.0217
 30
0.0
 10
-178.9181
 20
80.496
 30
0.0
 10
-178.9181
 20
80.496
 30
0.0
 10
-179.5534
 20
81.6403
 30
0.0
 10
-180.4437
 20
82.6574
 30
0.0
 10
-181.7152
 20
83.2932
 30
0.0
 10
-181.7152
 20
83.2932
 30
0.0
 10
-181.7152
 20
83.2932
 30
0.0
 10
-181.7152
 20
99.8218
 30
0.0
 10
-181.7152
 20
99.8218
 30
0.0
  0
SPLINE
  5
85
330
1F
100
AcDbEntity
  8
layer 1
 62
     7
100
AcDbSpline
210
0.0
220
0.0
230
1.0
 70
    11
 71
     3
 72
    36
 73
    32
 74
     0
 42
0.0000000001
 43
0.0000000001
 12
1.0
 22
0.0
 32
0.0
 13
1.0
 23
0.0
 33
0.0
 40
0.0
 40
0.0
 40
0.0
 40
0.0
 40
0.1111111111111111
 40
0.1111111111111111
 40
0.1111111111111111
 40
0.1111111111111111
 40
0.2222222222222222
 40
0.2222222222222222
 40
0.2222222222222222
 40
0.2222222222222222
 40
0.3333333333333333
 40
0.3333333333333333
 40
0.3333333333333333
 40
0.3333333333333333
 40
0.4444444444444444
 40
0.4444444444444444
 40
0.4444444444444444
 40
0.4444444444444444
 40
0.5555555555555556
 40
0.5555555555555556
 40
0.5555555555555556
 40
0.5555555555555556
 40
0.6666666666666666
 40
0.6666666666666666
 40
0.6666666666666666
 40
0.6666666666666666
 40
0.7777777777777778
 40
0.7777777777777778
 40
0.7777777777777778
 40
0.7777777777777778
 40
1.0
 40
1.0
 40
1.0
 40
1.0
 10
-169.382
 20
126.0133
 30
0.0
 10
-168.8735
 20
125.5048
 30
0.0
 10
-168.365
 20
125.1235
 30
0.0
 10
-167.8564
 20
124.869
 30
0.0
 10
-167.8564
 20
124.869
 30
0.0
 10
-169.382
 20
124.106
 30
0.0
 10
-170.5263
 20
122.8349
 30
0.0
 10
-171.0349
 20
121.1821
 30
0.0
 10
-171.0349
 20
121.1821
 30
0.0
 10
-171.0349
 20
121.1821
 30
0.0
 10
-175.2307
 20
121.1821
 30
0.0
 10
-175.2307
 20
121.1821
 30
0.0
 10
-175.2307
 20
121.1821
 30
0.0
 10
-175.2307
 20
121.1821
 30
0.0
 10
-175.2307
 20
116.9862
 30
0.0
 10
-175.2307
 20
116.9862
 30
0.0
 10
-175.2307
 20
116.9862
 30
0.0
 10
-176.8836
 20
116.4777
 30
0.0
 10
-178.1551
 20
115.3334
 30
0.0
 10
-178.9181
 20
113.8074
 30
0.0
 10
-178.9181
 20
113.8074
 30
0.0
 10
-179.5534
 20
114.9517
 30
0.0
 10
-180.4437
 20
115.9691
 30
0.0
 10
-181.7152
 20
116.6049
 30
0.0
 10
-181.7152
 20
116.6049
 30
0.0
 10
-181.7152
 20
116.6049
 30
0.0
 10
-181.7152
 20
126.0133
 30
0.0
 10
-181.7152
 20
126.0133
 30
0.0
 10
-181.7152
 20
126.0133
 30
0.0
 10
-181.7152
 20
126.0133
 30
0.0
 10
-169.382
 20
126.0133
 30
0.0
 10
-169.382
 20
126.0133
 30
0.0
  0
ENDSEC
  0
SECTION
  2
OBJECTS
  0
DICTIONARY
  5
C
330
0
100
AcDbDictionary
281
     1
  3
ACAD_GROUP
350
D
  3
ACAD_LAYOUT
350
1A
  3
ACAD_MATERIAL
350
3B
  3
ACAD_MLEADERSTYLE
350
A8
  3
ACAD_MLINESTYLE
350
17
  3
ACAD_PLOTSETTINGS
350
19
  3
ACAD_PLOTSTYLENAME
350
E
  3
ACAD_TABLESTYLE
350
A7
  3
ACAD_VISUALSTYLE
350
2A
  0
DICTIONARY
  5
D
102
{ACAD_REACTORS
330
C
102
}
330
C
100
AcDbDictionary
281
     1
  0
DICTIONARY
  5
1A
102
{ACAD_REACTORS
330
C
102
}
330
C
100
AcDbDictionary
281
     1
  3
Layout1
350
1E
  3
Layout2
350
26
  3
Model
350
22
  0
DICTIONARY
  5
3B
102
{ACAD_REACTORS
330
C
102
}
330
C
100
AcDbDictionary
281
     1
  3
ByBlock
350
3D
  3
ByLayer
350
3C
  3
Global
350
3E
  0
DICTIONARY
  5
A8
102
{ACAD_REACTORS
330
C
102
}
330
C
100
AcDbDictionary
281
     1
  0
DICTIONARY
  5
17
102
{ACAD_REACTORS
330
C
102
}
330
C
100
AcDbDictionary
281
     1
  3
Standard
350
18
  0
DICTIONARY
  5
19
102
{ACAD_REACTORS
330
C
102
}
330
C
100
AcDbDictionary
281
     1
  0
ACDBDICTIONARYWDFLT
  5
E
102
{ACAD_REACTORS
330
C
102
}
330
C
100
AcDbDictionary
281
     1
  3
Normal
350
F
100
AcDbDictionaryWithDefault
340
F
  0
DICTIONARY
  5
A7
102
{ACAD_REACTORS
330
C
102
}
330
C
100
AcDbDictionary
281
     1
  0
DICTIONARY
  5
2A
102
{ACAD_REACTORS
330
C
102
}
330
C
100
AcDbDictionary
281
     1
  3
2dWireframe
350
2F
  3
3D Hidden
350
31
  3
3dWireframe
350
30
  3
Basic
350
32
  3
Brighten
350
36
  3
ColorChange
350
3A
  3
Conceptual
350
34
  3
Dim
350
35
  3
Facepattern
350
39
  3
Flat
350
2B
  3
FlatWithEdges
350
2C
  3
Gouraud
350
2D
  3
GouraudWithEdges
350
2E
  3
Linepattern
350
38
  3
Realistic
350
33
  3
Thicken
350
37
  0
LAYOUT
  5
1E
102
{ACAD_REACTORS
330
1A
102
}
330
1A
100
AcDbPlotSettings
  1

  2
none_device
  4

  6

 40
0.0
 41
0.0
 42
0.0
 43
0.0
 44
0.0
 45
0.0
 46
0.0
 47
0.0
 48
0.0
 49
0.0
140
0.0
141
0.0
142
1.0
143
1.0
 70
   688
 72
     0
 73
     0
 74
     5
  7

 75
    16
 76
     0
 77
     2
 78
   300
147
1.0
148
0.0
149
0.0
100
AcDbLayout
  1
Layout1
 70
     1
 71
     1
 10
0.0
 20
0.0
 11
12.0
 21
9.0
 12
0.0
 22
0.0
 32
0.0
 14
1.000000000000000E+20
 24
1.000000000000000E+20
 34
1.000000000000000E+20
 15
-1.000000000000000E+20
 25
-1.000000000000000E+20
 35
-1.000000000000000E+20
146
0.0
 13
0.0
 23
0.0
 33
0.0
 16
1.0
 26
0.0
 36
0.0
 17
0.0
 27
1.0
 37
0.0
 76
     0
330
1B
  0
LAYOUT
  5
26
102
{ACAD_REACTORS
330
1A
102
}
330
1A
100
AcDbPlotSettings
  1

  2
none_device
  4

  6

 40
0.0
 41
0.0
 42
0.0
 43
0.0
 44
0.0
 45
0.0
 46
0.0
 47
0.0
 48
0.0
 49
0.0
140
0.0
141
0.0
142
1.0
143
1.0
 70
   688
 72
     0
 73
     0
 74
     5
  7

 75
    16
 76
     0
 77
     2
 78
   300
147
1.0
148
0.0
149
0.0
100
AcDbLayout
  1
Layout2
 70
     1
 71
     2
 10
0.0
 20
0.0
 11
0.0
 21
0.0
 12
0.0
 22
0.0
 32
0.0
 14
0.0
 24
0.0
 34
0.0
 15
0.0
 25
0.0
 35
0.0
146
0.0
 13
0.0
 23
0.0
 33
0.0
 16
1.0
 26
0.0
 36
0.0
 17
0.0
 27
1.0
 37
0.0
 76
     0
330
23
  0
LAYOUT
  5
22
102
{ACAD_REACTORS
330
1A
102
}
330
1A
100
AcDbPlotSettings
  1

  2
none_device
  4

  6

 40
0.0
 41
0.0
 42
0.0
 43
0.0
 44
0.0
 45
0.0
 46
0.0
 47
0.0
 48
0.0
 49
0.0
140
0.0
141
0.0
142
1.0
143
1.0
 70
  1712
 72
     0
 73
     0
 74
     0
  7

 75
     0
 76
     0
 77
     2
 78
   300
147
1.0
148
0.0
149
0.0
100
AcDbLayout
  1
Model
 70
     1
 71
     0
 10
0.0
 20
0.0
 11
12.0
 21
9.0
 12
0.0
 22
0.0
 32
0.0
 14
-187.4738
 24
-115.1237
 34
0.0
 15
-37.1155
 25
131.6802
 35
0.0
146
0.0
 13
0.0
 23
0.0
 33
0.0
 16
1.0
 26
0.0
 36
0.0
 17
0.0
 27
1.0
 37
0.0
 76
     0
330
1F
331
29
  0
MATERIAL
  5
3D
102
{ACAD_REACTORS
330
3B
102
}
330
3B
100
AcDbMaterial
  1
ByBlock
 72
     1
 94
      127
  0
MATERIAL
  5
3C
102
{ACAD_REACTORS
330
3B
102
}
330
3B
100
AcDbMaterial
  1
ByLayer
 72
     1
 94
      127
  0
MATERIAL
  5
3E
102
{ACAD_REACTORS
330
3B
102
}
330
3B
100
AcDbMaterial
  1
Global
 72
     1
 94
      127
  0
MLINESTYLE
  5
18
102
{ACAD_REACTORS
330
17
102
}
330
17
100
AcDbMlineStyle
  2
Standard
 70
     0
  3

 62
   256
 51
90.0
 52
90.0
 71
     2
 49
0.5
 62
   256
  6
BYLAYER
 49
-0.5
 62
   256
  6
BYLAYER
  0
ACDBPLACEHOLDER
  5
F
102
{ACAD_REACTORS
330
E
102
}
330
E
  0
VISUALSTYLE
  5
2F
102
{ACAD_REACTORS
330
2A
102
}
102
{ACAD_XDICTIONARY
360
8F
102
}
330
2A
100
AcDbVisualStyle
  2
2dWireframe
 70
     4
 71
     0
 72
     2
 73
     0
 90
        0
 40
-0.6
 41
-30.0
 62
     5
 63
     7
421
 16777215
 74
     1
 91
        4
 64
     7
 65
   257
 75
     1
175
     1
 42
1.0
 92
        0
 66
   257
 43
1.0
 76
     1
 77
     6
 78
     2
 67
     7
 79
     5
170
     0
171
     0
290
     0
174
     0
 93
        1
 44
0.0
173
     0
291
     0
 45
0.0
  0
VISUALSTYLE
  5
31
102
{ACAD_REACTORS
330
2A
102
}
102
{ACAD_XDICTIONARY
360
93
102
}
330
2A
100
AcDbVisualStyle
  2
3D Hidden
 70
     6
 71
     1
 72
     2
 73
     2
 90
        0
 40
-0.6
 41
-30.0
 62
     5
 63
     7
421
 16777215
 74
     2
 91
        2
 64
     7
 65
   257
 75
     2
175
     1
 42
40.0
 92
        0
 66
   257
 43
1.0
 76
     1
 77
     6
 78
     2
 67
     7
 79
     3
170
     0
171
     0
290
     0
174
     0
 93
        1
 44
0.0
173
     0
291
     0
 45
0.0
  0
VISUALSTYLE
  5
30
102
{ACAD_REACTORS
330
2A
102
}
102
{ACAD_XDICTIONARY
360
91
102
}
330
2A
100
AcDbVisualStyle
  2
3dWireframe
 70
     5
 71
     0
 72
     2
 73
     0
 90
        0
 40
-0.6
 41
-30.0
 62
     5
 63
     7
421
 16777215
 74
     1
 91
        4
 64
     7
 65
   257
 75
     1
175
     1
 42
1.0
 92
        0
 66
   257
 43
1.0
 76
     1
 77
     6
 78
     2
 67
     7
 79
     5
170
     0
171
     0
290
     0
174
     0
 93
        1
 44
0.0
173
     0
291
     0
 45
0.0
  0
VISUALSTYLE
  5
32
102
{ACAD_REACTORS
330
2A
102
}
102
{ACAD_XDICTIONARY
360
95
102
}
330
2A
100
AcDbVisualStyle
  2
Basic
 70
     7
 71
     1
 72
     0
 73
     1
 90
        0
 40
-0.6
 41
-30.0
 62
     5
 63
     7
421
 16777215
 74
     0
 91
        4
 64
     7
 65
   257
 75
     1
175
     1
 42
1.0
 92
        8
 66
     7
 43
1.0
 76
     1
 77
     6
 78
     2
 67
     7
 79
     5
170
     0
171
     0
290
     0
174
     0
 93
        1
 44
0.0
173
     0
291
     1
 45
0.0
  0
VISUALSTYLE
  5
36
102
{ACAD_REACTORS
330
2A
102
}
102
{ACAD_XDICTIONARY
360
9D
102
}
330
2A
100
AcDbVisualStyle
  2
Brighten
 70
    12
 71
     2
 72
     2
 73
     0
 90
        0
 40
-0.6
 41
-30.0
 62
     5
 63
     7
421
 16777215
 74
     1
 91
        4
 64
     7
 65
   257
 75
     1
175
     1
 42
1.0
 92
        8
 66
     7
 43
1.0
 76
     1
 77
     6
 78
     2
 67
     7
 79
     5
170
     0
171
     0
290
     0
174
     0
 93
        1
 44
50.0
173
     0
291
     1
 45
0.0
  0
VISUALSTYLE
  5
3A
102
{ACAD_REACTORS
330
2A
102
}
102
{ACAD_XDICTIONARY
360
A5
102
}
330
2A
100
AcDbVisualStyle
  2
ColorChange
 70
    16
 71
     2
 72
     2
 73
     3
 90
        0
 40
-0.6
 41
-30.0
 62
     5
 63
     8
421
  8421504
 74
     1
 91
        4
 64
     7
 65
   257
 75
     1
175
     1
 42
1.0
 92
        8
 66
     8
424
  8421504
 43
1.0
 76
     1
 77
     6
 78
     2
 67
     7
 79
     5
170
     0
171
     0
290
     0
174
     0
 93
        1
 44
0.0
173
     0
291
     1
 45
0.0
  0
VISUALSTYLE
  5
34
102
{ACAD_REACTORS
330
2A
102
}
102
{ACAD_XDICTIONARY
360
99
102
}
330
2A
100
AcDbVisualStyle
  2
Conceptual
 70
     9
 71
     3
 72
     2
 73
     0
 90
        0
 40
-0.6
 41
-30.0
 62
     5
 63
     7
421
 16777215
 74
     2
 91
        2
 64
     7
 65
   257
 75
     1
175
     1
 42
40.0
 92
        8
 66
     7
 43
1.0
 76
     1
 77
     6
 78
     2
 67
     7
 79
     3
170
     0
171
     0
290
     0
174
     0
 93
        1
 44
0.0
173
     0
291
     0
 45
0.0
  0
VISUALSTYLE
  5
35
102
{ACAD_REACTORS
330
2A
102
}
102
{ACAD_XDICTIONARY
360
9B
102
}
330
2A
100
AcDbVisualStyle
  2
Dim
 70
    11
 71
     2
 72
     2
 73
     0
 90
        0
 40
-0.6
 41
-30.0
 62
     5
 63
     7
421
 16777215
 74
     1
 91
        4
 64
     7
 65
   257
 75
     1
175
     1
 42
1.0
 92
        8
 66
     7
 43
1.0
 76
     1
 77
     6
 78
     2
 67
     7
 79
     5
170
     0
171
     0
290
     0
174
     0
 93
        1
 44
-50.0
173
     0
291
     1
 45
0.0
  0
VISUALSTYLE
  5
39
102
{ACAD_REACTORS
330
2A
102
}
102
{ACAD_XDICTIONARY
360
A3
102
}
330
2A
100
AcDbVisualStyle
  2
Facepattern
 70
    15
 71
     2
 72
     2
 73
     0
 90
        0
 40
-0.6
 41
-30.0
 62
     5
 63
     7
421
 16777215
 74
     1
 91
        4
 64
     7
 65
   257
 75
     1
175
     1
 42
1.0
 92
        8
 66
     7
 43
1.0
 76
     1
 77
     6
 78
     2
 67
     7
 79
     5
170
     0
171
     0
290
     0
174
     0
 93
        1
 44
0.0
173
     0
291
     1
 45
0.0
  0
VISUALSTYLE
  5
2B
102
{ACAD_REACTORS
330
2A
102
}
102
{ACAD_XDICTIONARY
360
87
102
}
330
2A
100
AcDbVisualStyle
  2
Flat
 70
     0
 71
     2
 72
     1
 73
     1
 90
        2
 40
-0.6
 41
30.0
 62
     5
 63
     7
421
 16777215
 74
     0
 91
        4
 64
     7
 65
   257
 75
     1
175
     1
 42
1.0
 92
        8
 66
     7
 43
1.0
 76
     1
 77
     6
 78
     2
 67
     7
 79
     5
170
     0
171
     0
290
     0
174
     0
 93
       13
 44
0.0
173
     0
291
     1
 45
0.0
  0
VISUALSTYLE
  5
2C
102
{ACAD_REACTORS
330
2A
102
}
102
{ACAD_XDICTIONARY
360
89
102
}
330
2A
100
AcDbVisualStyle
  2
FlatWithEdges
 70
     1
 71
     2
 72
     1
 73
     1
 90
        2
 40
-0.6
 41
30.0
 62
     5
 63
     7
421
 16777215
 74
     1
 91
        4
 64
     7
 65
   257
 75
     1
175
     1
 42
1.0
 92
        0
 66
   257
 43
1.0
 76
     1
 77
     6
 78
     2
 67
     7
 79
     5
170
     0
171
     0
290
     0
174
     0
 93
       13
 44
0.0
173
     0
291
     1
 45
0.0
  0
VISUALSTYLE
  5
2D
102
{ACAD_REACTORS
330
2A
102
}
102
{ACAD_XDICTIONARY
360
8B
102
}
330
2A
100
AcDbVisualStyle
  2
Gouraud
 70
     2
 71
     2
 72
     2
 73
     1
 90
        2
 40
-0.6
 41
30.0
 62
     5
 63
     7
421
 16777215
 74
     0
 91
        4
 64
     7
 65
   257
 75
     1
175
     1
 42
1.0
 92
        0
 66
     7
 43
1.0
 76
     1
 77
     6
 78
     2
 67
     7
 79
     5
170
     0
171
     0
290
     0
174
     0
 93
       13
 44
0.0
173
     0
291
     1
 45
0.0
  0
VISUALSTYLE
  5
2E
102
{ACAD_REACTORS
330
2A
102
}
102
{ACAD_XDICTIONARY
360
8D
102
}
330
2A
100
AcDbVisualStyle
  2
GouraudWithEdges
 70
     3
 71
     2
 72
     2
 73
     1
 90
        2
 40
-0.6
 41
30.0
 62
     5
 63
     7
421
 16777215
 74
     1
 91
        4
 64
     7
 65
   257
 75
     1
175
     1
 42
1.0
 92
        0
 66
   257
 43
1.0
 76
     1
 77
     6
 78
     2
 67
     7
 79
     5
170
     0
171
     0
290
     0
174
     0
 93
       13
 44
0.0
173
     0
291
     1
 45
0.0
  0
VISUALSTYLE
  5
38
102
{ACAD_REACTORS
330
2A
102
}
102
{ACAD_XDICTIONARY
360
A1
102
}
330
2A
100
AcDbVisualStyle
  2
Linepattern
 70
    14
 71
     2
 72
     2
 73
     0
 90
        0
 40
-0.6
 41
-30.0
 62
     5
 63
     7
421
 16777215
 74
     1
 91
        4
 64
     7
 65
   257
 75
     7
175
     7
 42
1.0
 92
        8
 66
     7
 43
1.0
 76
     1
 77
     6
 78
     2
 67
     7
 79
     5
170
     0
171
     0
290
     0
174
     0
 93
        1
 44
0.0
173
     0
291
     1
 45
0.0
  0
VISUALSTYLE
  5
33
102
{ACAD_REACTORS
330
2A
102
}
102
{ACAD_XDICTIONARY
360
97
102
}
330
2A
100
AcDbVisualStyle
  2
Realistic
 70
     8
 71
     2
 72
     2
 73
     0
 90
        0
 40
-0.6
 41
-30.0
 62
     5
 63
     7
421
 16777215
 74
     1
 91
        0
 64
     7
 65
   257
 75
     1
175
     1
 42
1.0
 92
        8
 66
     8
424
  7895160
 43
1.0
 76
     1
 77
     6
 78
     2
 67
     7
 79
     5
170
     0
171
     0
290
     0
174
     0
 93
       13
 44
0.0
173
     0
291
     0
 45
0.0
  0
VISUALSTYLE
  5
37
102
{ACAD_REACTORS
330
2A
102
}
102
{ACAD_XDICTIONARY
360
9F
102
}
330
2A
100
AcDbVisualStyle
  2
Thicken
 70
    13
 71
     2
 72
     2
 73
     0
 90
        0
 40
-0.6
 41
-30.0
 62
     5
 63
     7
421
 16777215
 74
     1
 91
        4
 64
     7
 65
   257
 75
     1
175
     1
 42
1.0
 92
       12
 66
     7
 43
1.0
 76
     1
 77
     6
 78
     2
 67
     7
 79
     5
170
     0
171
     0
290
     0
174
     0
 93
        1
 44
0.0
173
     0
291
     1
 45
0.0
  0
DICTIONARY
  5
8F
330
2F
100
AcDbDictionary
280
     1
281
     1
  3
ACAD_XREC_ROUNDTRIP
360
90
  0
DICTIONARY
  5
93
330
31
100
AcDbDictionary
280
     1
281
     1
  3
ACAD_XREC_ROUNDTRIP
360
94
  0
DICTIONARY
  5
91
330
30
100
AcDbDictionary
280
     1
281
     1
  3
ACAD_XREC_ROUNDTRIP
360
92
  0
DICTIONARY
  5
95
330
32
100
AcDbDictionary
280
     1
281
     1
  3
ACAD_XREC_ROUNDTRIP
360
96
  0
DICTIONARY
  5
9D
330
36
100
AcDbDictionary
280
     1
281
     1
  3
ACAD_XREC_ROUNDTRIP
360
9E
  0
DICTIONARY
  5
A5
330
3A
100
AcDbDictionary
280
     1
281
     1
  3
ACAD_XREC_ROUNDTRIP
360
A6
  0
DICTIONARY
  5
99
330
34
100
AcDbDictionary
280
     1
281
     1
  3
ACAD_XREC_ROUNDTRIP
360
9A
  0
DICTIONARY
  5
9B
330
35
100
AcDbDictionary
280
     1
281
     1
  3
ACAD_XREC_ROUNDTRIP
360
9C
  0
DICTIONARY
  5
A3
330
39
100
AcDbDictionary
280
     1
281
     1
  3
ACAD_XREC_ROUNDTRIP
360
A4
  0
DICTIONARY
  5
87
330
2B
100
AcDbDictionary
280
     1
281
     1
  3
ACAD_XREC_ROUNDTRIP
360
88
  0
DICTIONARY
  5
89
330
2C
100
AcDbDictionary
280
     1
281
     1
  3
ACAD_XREC_ROUNDTRIP
360
8A
  0
DICTIONARY
  5
8B
330
2D
100
AcDbDictionary
280
     1
281
     1
  3
ACAD_XREC_ROUNDTRIP
360
8C
  0
DICTIONARY
  5
8D
330
2E
100
AcDbDictionary
280
     1
281
     1
  3
ACAD_XREC_ROUNDTRIP
360
8E
  0
DICTIONARY
  5
A1
330
38
100
AcDbDictionary
280
     1
281
     1
  3
ACAD_XREC_ROUNDTRIP
360
A2
  0
DICTIONARY
  5
97
330
33
100
AcDbDictionary
280
     1
281
     1
  3
ACAD_XREC_ROUNDTRIP
360
98
  0
DICTIONARY
  5
9F
330
37
100
AcDbDictionary
280
     1
281
     1
  3
ACAD_XREC_ROUNDTRIP
360
A0
  0
XRECORD
  5
90
102
{ACAD_REACTORS
330
8F
102
}
330
8F
100
AcDbXrecord
280
     1
102
RTVSPropertyOp0
 70
     1
102
RTVSPropertyOp1
 70
     1
102
RTVSPropertyOp2
 70
     1
102
RTVSPropertyOp3
 70
     1
102
RTVSPropertyOp4
 70
     1
102
RTVSPropertyOp5
 70
     1
102
RTVSPropertyOp6
 70
     1
102
RTVSPropertyOp7
 70
     1
102
RTVSPropertyOp8
 70
     1
102
RTVSPropertyOp9
 70
     1
102
RTVSPropertyOp10
 70
     1
102
RTVSPropertyOp11
 70
     1
102
RTVSPropertyOp12
 70
     1
102
RTVSPropertyOp13
 70
     1
102
RTVSPropertyOp14
 70
     1
102
RTVSPropertyOp15
 70
     1
102
RTVSPropertyOp16
 70
     1
102
RTVSPropertyOp17
 70
     1
102
RTVSPropertyOp18
 70
     1
102
RTVSPropertyOp19
 70
     1
102
RTVSPropertyOp20
 70
     1
102
RTVSPropertyOp21
 70
     1
102
RTVSPropertyOp22
 70
     1
102
RTVSPropertyOp23
 70
     1
102
RTVSPropertyOp24
 70
     1
102
RTVSPropertyOp25
 70
     1
102
RTVSPropertyOp26
 70
     1
102
RTVSPropertyOp27
 70
     1
102
RTVSPropertyOp28
 70
     1
102
RTVSPropertyOp29
 70
     1
102
RTVSPropertyOp30
 70
     1
102
RTVSPropertyOp31
 70
     1
102
RTVSPropertyOp32
 70
     1
  0
XRECORD
  5
94
102
{ACAD_REACTORS
330
93
102
}
330
93
100
AcDbXrecord
280
     1
102
RTVSPropertyOp0
 70
     1
102
RTVSPropertyOp1
 70
     1
102
RTVSPropertyOp2
 70
     1
102
RTVSPropertyOp3
 70
     1
102
RTVSPropertyOp4
 70
     1
102
RTVSPropertyOp5
 70
     1
102
RTVSPropertyOp6
 70
     1
102
RTVSPropertyOp7
 70
     1
102
RTVSPropertyOp8
 70
     1
102
RTVSPropertyOp9
 70
     1
102
RTVSPropertyOp10
 70
     1
102
RTVSPropertyOp11
 70
     1
102
RTVSPropertyOp12
 70
     1
102
RTVSPropertyOp13
 70
     1
102
RTVSPropertyOp14
 70
     1
102
RTVSPropertyOp15
 70
     1
102
RTVSPropertyOp16
 70
     1
102
RTVSPropertyOp17
 70
     1
102
RTVSPropertyOp18
 70
     1
102
RTVSPropertyOp19
 70
     1
102
RTVSPropertyOp20
 70
     1
102
RTVSPropertyOp21
 70
     1
102
RTVSPropertyOp22
 70
     1
102
RTVSPropertyOp23
 70
     1
102
RTVSPropertyOp24
 70
     1
102
RTVSPropertyOp25
 70
     1
102
RTVSPropertyOp26
 70
     1
102
RTVSPropertyOp27
 70
     1
102
RTVSPropertyOp28
 70
     1
102
RTVSPropertyOp29
 70
     1
102
RTVSPropertyOp30
 70
     1
102
RTVSPropertyOp31
 70
     1
102
RTVSPropertyOp32
 70
     1
  0
XRECORD
  5
92
102
{ACAD_REACTORS
330
91
102
}
330
91
100
AcDbXrecord
280
     1
102
RTVSPropertyOp0
 70
     1
102
RTVSPropertyOp1
 70
     1
102
RTVSPropertyOp2
 70
     1
102
RTVSPropertyOp3
 70
     1
102
RTVSPropertyOp4
 70
     1
102
RTVSPropertyOp5
 70
     1
102
RTVSPropertyOp6
 70
     1
102
RTVSPropertyOp7
 70
     1
102
RTVSPropertyOp8
 70
     1
102
RTVSPropertyOp9
 70
     1
102
RTVSPropertyOp10
 70
     1
102
RTVSPropertyOp11
 70
     1
102
RTVSPropertyOp12
 70
     1
102
RTVSPropertyOp13
 70
     1
102
RTVSPropertyOp14
 70
     1
102
RTVSPropertyOp15
 70
     1
102
RTVSPropertyOp16
 70
     1
102
RTVSPropertyOp17
 70
     1
102
RTVSPropertyOp18
 70
     1
102
RTVSPropertyOp19
 70
     1
102
RTVSPropertyOp20
 70
     1
102
RTVSPropertyOp21
 70
     1
102
RTVSPropertyOp22
 70
     1
102
RTVSPropertyOp23
 70
     1
102
RTVSPropertyOp24
 70
     1
102
RTVSPropertyOp25
 70
     1
102
RTVSPropertyOp26
 70
     1
102
RTVSPropertyOp27
 70
     1
102
RTVSPropertyOp28
 70
     1
102
RTVSPropertyOp29
 70
     1
102
RTVSPropertyOp30
 70
     1
102
RTVSPropertyOp31
 70
     1
102
RTVSPropertyOp32
 70
     1
  0
XRECORD
  5
96
102
{ACAD_REACTORS
330
95
102
}
330
95
100
AcDbXrecord
280
     1
102
RTVSPropertyOp0
 70
     1
102
RTVSPropertyOp1
 70
     1
102
RTVSPropertyOp2
 70
     1
102
RTVSPropertyOp3
 70
     1
102
RTVSPropertyOp4
 70
     1
102
RTVSPropertyOp5
 70
     1
102
RTVSPropertyOp6
 70
     1
102
RTVSPropertyOp7
 70
     1
102
RTVSPropertyOp8
 70
     1
102
RTVSPropertyOp9
 70
     1
102
RTVSPropertyOp10
 70
     1
102
RTVSPropertyOp11
 70
     1
102
RTVSPropertyOp12
 70
     1
102
RTVSPropertyOp13
 70
     1
102
RTVSPropertyOp14
 70
     1
102
RTVSPropertyOp15
 70
     1
102
RTVSPropertyOp16
 70
     1
102
RTVSPropertyOp17
 70
     1
102
RTVSPropertyOp18
 70
     1
102
RTVSPropertyOp19
 70
     1
102
RTVSPropertyOp20
 70
     1
102
RTVSPropertyOp21
 70
     1
102
RTVSPropertyOp22
 70
     1
102
RTVSPropertyOp23
 70
     1
102
RTVSPropertyOp24
 70
     1
102
RTVSPropertyOp25
 70
     1
102
RTVSPropertyOp26
 70
     1
102
RTVSPropertyOp27
 70
     1
102
RTVSPropertyOp28
 70
     1
102
RTVSPropertyOp29
 70
     1
102
RTVSPropertyOp30
 70
     1
102
RTVSPropertyOp31
 70
     1
102
RTVSPropertyOp32
 70
     1
  0
XRECORD
  5
9E
102
{ACAD_REACTORS
330
9D
102
}
330
9D
100
AcDbXrecord
280
     1
102
RTVSPropertyOp0
 70
     1
102
RTVSPropertyOp1
 70
     1
102
RTVSPropertyOp2
 70
     1
102
RTVSPropertyOp3
 70
     1
102
RTVSPropertyOp4
 70
     1
102
RTVSPropertyOp5
 70
     1
102
RTVSPropertyOp6
 70
     1
102
RTVSPropertyOp7
 70
     1
102
RTVSPropertyOp8
 70
     1
102
RTVSPropertyOp9
 70
     1
102
RTVSPropertyOp10
 70
     1
102
RTVSPropertyOp11
 70
     1
102
RTVSPropertyOp12
 70
     1
102
RTVSPropertyOp13
 70
     1
102
RTVSPropertyOp14
 70
     1
102
RTVSPropertyOp15
 70
     1
102
RTVSPropertyOp16
 70
     1
102
RTVSPropertyOp17
 70
     1
102
RTVSPropertyOp18
 70
     1
102
RTVSPropertyOp19
 70
     1
102
RTVSPropertyOp20
 70
     1
102
RTVSPropertyOp21
 70
     1
102
RTVSPropertyOp22
 70
     1
102
RTVSPropertyOp23
 70
     1
102
RTVSPropertyOp24
 70
     1
102
RTVSPropertyOp25
 70
     1
102
RTVSPropertyOp26
 70
     1
102
RTVSPropertyOp27
 70
     1
102
RTVSPropertyOp28
 70
     1
102
RTVSPropertyOp29
 70
     1
102
RTVSPropertyOp30
 70
     1
102
RTVSPropertyOp31
 70
     1
102
RTVSPropertyOp32
 70
     1
  0
XRECORD
  5
A6
102
{ACAD_REACTORS
330
A5
102
}
330
A5
100
AcDbXrecord
280
     1
102
RTVSPropertyOp0
 70
     1
102
RTVSPropertyOp1
 70
     1
102
RTVSPropertyOp2
 70
     1
102
RTVSPropertyOp3
 70
     1
102
RTVSPropertyOp4
 70
     1
102
RTVSPropertyOp5
 70
     1
102
RTVSPropertyOp6
 70
     1
102
RTVSPropertyOp7
 70
     1
102
RTVSPropertyOp8
 70
     1
102
RTVSPropertyOp9
 70
     1
102
RTVSPropertyOp10
 70
     1
102
RTVSPropertyOp11
 70
     1
102
RTVSPropertyOp12
 70
     1
102
RTVSPropertyOp13
 70
     1
102
RTVSPropertyOp14
 70
     1
102
RTVSPropertyOp15
 70
     1
102
RTVSPropertyOp16
 70
     1
102
RTVSPropertyOp17
 70
     1
102
RTVSPropertyOp18
 70
     1
102
RTVSPropertyOp19
 70
     1
102
RTVSPropertyOp20
 70
     1
102
RTVSPropertyOp21
 70
     1
102
RTVSPropertyOp22
 70
     1
102
RTVSPropertyOp23
 70
     1
102
RTVSPropertyOp24
 70
     1
102
RTVSPropertyOp25
 70
     1
102
RTVSPropertyOp26
 70
     1
102
RTVSPropertyOp27
 70
     1
102
RTVSPropertyOp28
 70
     1
102
RTVSPropertyOp29
 70
     1
102
RTVSPropertyOp30
 70
     1
102
RTVSPropertyOp31
 70
     1
102
RTVSPropertyOp32
 70
     1
  0
XRECORD
  5
9A
102
{ACAD_REACTORS
330
99
102
}
330
99
100
AcDbXrecord
280
     1
102
RTVSPropertyOp0
 70
     1
102
RTVSPropertyOp1
 70
     1
102
RTVSPropertyOp2
 70
     1
102
RTVSPropertyOp3
 70
     1
102
RTVSPropertyOp4
 70
     1
102
RTVSPropertyOp5
 70
     1
102
RTVSPropertyOp6
 70
     1
102
RTVSPropertyOp7
 70
     1
102
RTVSPropertyOp8
 70
     1
102
RTVSPropertyOp9
 70
     1
102
RTVSPropertyOp10
 70
     1
102
RTVSPropertyOp11
 70
     1
102
RTVSPropertyOp12
 70
     1
102
RTVSPropertyOp13
 70
     1
102
RTVSPropertyOp14
 70
     1
102
RTVSPropertyOp15
 70
     1
102
RTVSPropertyOp16
 70
     1
102
RTVSPropertyOp17
 70
     1
102
RTVSPropertyOp18
 70
     1
102
RTVSPropertyOp19
 70
     1
102
RTVSPropertyOp20
 70
     1
102
RTVSPropertyOp21
 70
     1
102
RTVSPropertyOp22
 70
     1
102
RTVSPropertyOp23
 70
     1
102
RTVSPropertyOp24
 70
     1
102
RTVSPropertyOp25
 70
     1
102
RTVSPropertyOp26
 70
     1
102
RTVSPropertyOp27
 70
     1
102
RTVSPropertyOp28
 70
     1
102
RTVSPropertyOp29
 70
     1
102
RTVSPropertyOp30
 70
     1
102
RTVSPropertyOp31
 70
     1
102
RTVSPropertyOp32
 70
     1
  0
XRECORD
  5
9C
102
{ACAD_REACTORS
330
9B
102
}
330
9B
100
AcDbXrecord
280
     1
102
RTVSPropertyOp0
 70
     1
102
RTVSPropertyOp1
 70
     1
102
RTVSPropertyOp2
 70
     1
102
RTVSPropertyOp3
 70
     1
102
RTVSPropertyOp4
 70
     1
102
RTVSPropertyOp5
 70
     1
102
RTVSPropertyOp6
 70
     1
102
RTVSPropertyOp7
 70
     1
102
RTVSPropertyOp8
 70
     1
102
RTVSPropertyOp9
 70
     1
102
RTVSPropertyOp10
 70
     1
102
RTVSPropertyOp11
 70
     1
102
RTVSPropertyOp12
 70
     1
102
RTVSPropertyOp13
 70
     1
102
RTVSPropertyOp14
 70
     1
102
RTVSPropertyOp15
 70
     1
102
RTVSPropertyOp16
 70
     1
102
RTVSPropertyOp17
 70
     1
102
RTVSPropertyOp18
 70
     1
102
RTVSPropertyOp19
 70
     1
102
RTVSPropertyOp20
 70
     1
102
RTVSPropertyOp21
 70
     1
102
RTVSPropertyOp22
 70
     1
102
RTVSPropertyOp23
 70
     1
102
RTVSPropertyOp24
 70
     1
102
RTVSPropertyOp25
 70
     1
102
RTVSPropertyOp26
 70
     1
102
RTVSPropertyOp27
 70
     1
102
RTVSPropertyOp28
 70
     1
102
RTVSPropertyOp29
 70
     1
102
RTVSPropertyOp30
 70
     1
102
RTVSPropertyOp31
 70
     1
102
RTVSPropertyOp32
 70
     1
  0
XRECORD
  5
A4
102
{ACAD_REACTORS
330
A3
102
}
330
A3
100
AcDbXrecord
280
     1
102
RTVSPropertyOp0
 70
     1
102
RTVSPropertyOp1
 70
     1
102
RTVSPropertyOp2
 70
     1
102
RTVSPropertyOp3
 70
     1
102
RTVSPropertyOp4
 70
     1
102
RTVSPropertyOp5
 70
     1
102
RTVSPropertyOp6
 70
     1
102
RTVSPropertyOp7
 70
     1
102
RTVSPropertyOp8
 70
     1
102
RTVSPropertyOp9
 70
     1
102
RTVSPropertyOp10
 70
     1
102
RTVSPropertyOp11
 70
     1
102
RTVSPropertyOp12
 70
     1
102
RTVSPropertyOp13
 70
     1
102
RTVSPropertyOp14
 70
     1
102
RTVSPropertyOp15
 70
     1
102
RTVSPropertyOp16
 70
     1
102
RTVSPropertyOp17
 70
     1
102
RTVSPropertyOp18
 70
     1
102
RTVSPropertyOp19
 70
     1
102
RTVSPropertyOp20
 70
     1
102
RTVSPropertyOp21
 70
     1
102
RTVSPropertyOp22
 70
     1
102
RTVSPropertyOp23
 70
     1
102
RTVSPropertyOp24
 70
     1
102
RTVSPropertyOp25
 70
     1
102
RTVSPropertyOp26
 70
     1
102
RTVSPropertyOp27
 70
     1
102
RTVSPropertyOp28
 70
     1
102
RTVSPropertyOp29
 70
     1
102
RTVSPropertyOp30
 70
     1
102
RTVSPropertyOp31
 70
     1
102
RTVSPropertyOp32
 70
     1
  0
XRECORD
  5
88
102
{ACAD_REACTORS
330
87
102
}
330
87
100
AcDbXrecord
280
     1
102
RTVSPropertyOp0
 70
     1
102
RTVSPropertyOp1
 70
     1
102
RTVSPropertyOp2
 70
     1
102
RTVSPropertyOp3
 70
     1
102
RTVSPropertyOp4
 70
     1
102
RTVSPropertyOp5
 70
     1
102
RTVSPropertyOp6
 70
     1
102
RTVSPropertyOp7
 70
     1
102
RTVSPropertyOp8
 70
     1
102
RTVSPropertyOp9
 70
     1
102
RTVSPropertyOp10
 70
     1
102
RTVSPropertyOp11
 70
     1
102
RTVSPropertyOp12
 70
     1
102
RTVSPropertyOp13
 70
     1
102
RTVSPropertyOp14
 70
     1
102
RTVSPropertyOp15
 70
     1
102
RTVSPropertyOp16
 70
     1
102
RTVSPropertyOp17
 70
     1
102
RTVSPropertyOp18
 70
     1
102
RTVSPropertyOp19
 70
     1
102
RTVSPropertyOp20
 70
     1
102
RTVSPropertyOp21
 70
     1
102
RTVSPropertyOp22
 70
     1
102
RTVSPropertyOp23
 70
     1
102
RTVSPropertyOp24
 70
     1
102
RTVSPropertyOp25
 70
     1
102
RTVSPropertyOp26
 70
     1
102
RTVSPropertyOp27
 70
     1
102
RTVSPropertyOp28
 70
     1
102
RTVSPropertyOp29
 70
     1
102
RTVSPropertyOp30
 70
     1
102
RTVSPropertyOp31
 70
     1
102
RTVSPropertyOp32
 70
     1
  0
XRECORD
  5
8A
102
{ACAD_REACTORS
330
89
102
}
330
89
100
AcDbXrecord
280
     1
102
RTVSPropertyOp0
 70
     1
102
RTVSPropertyOp1
 70
     1
102
RTVSPropertyOp2
 70
     1
102
RTVSPropertyOp3
 70
     1
102
RTVSPropertyOp4
 70
     1
102
RTVSPropertyOp5
 70
     1
102
RTVSPropertyOp6
 70
     1
102
RTVSPropertyOp7
 70
     1
102
RTVSPropertyOp8
 70
     1
102
RTVSPropertyOp9
 70
     1
102
RTVSPropertyOp10
 70
     1
102
RTVSPropertyOp11
 70
     1
102
RTVSPropertyOp12
 70
     1
102
RTVSPropertyOp13
 70
     1
102
RTVSPropertyOp14
 70
     1
102
RTVSPropertyOp15
 70
     1
102
RTVSPropertyOp16
 70
     1
102
RTVSPropertyOp17
 70
     1
102
RTVSPropertyOp18
 70
     1
102
RTVSPropertyOp19
 70
     1
102
RTVSPropertyOp20
 70
     1
102
RTVSPropertyOp21
 70
     1
102
RTVSPropertyOp22
 70
     1
102
RTVSPropertyOp23
 70
     1
102
RTVSPropertyOp24
 70
     1
102
RTVSPropertyOp25
 70
     1
102
RTVSPropertyOp26
 70
     1
102
RTVSPropertyOp27
 70
     1
102
RTVSPropertyOp28
 70
     1
102
RTVSPropertyOp29
 70
     1
102
RTVSPropertyOp30
 70
     1
102
RTVSPropertyOp31
 70
     1
102
RTVSPropertyOp32
 70
     1
  0
XRECORD
  5
8C
102
{ACAD_REACTORS
330
8B
102
}
330
8B
100
AcDbXrecord
280
     1
102
RTVSPropertyOp0
 70
     1
102
RTVSPropertyOp1
 70
     1
102
RTVSPropertyOp2
 70
     1
102
RTVSPropertyOp3
 70
     1
102
RTVSPropertyOp4
 70
     1
102
RTVSPropertyOp5
 70
     1
102
RTVSPropertyOp6
 70
     1
102
RTVSPropertyOp7
 70
     1
102
RTVSPropertyOp8
 70
     1
102
RTVSPropertyOp9
 70
     1
102
RTVSPropertyOp10
 70
     1
102
RTVSPropertyOp11
 70
     1
102
RTVSPropertyOp12
 70
     1
102
RTVSPropertyOp13
 70
     1
102
RTVSPropertyOp14
 70
     1
102
RTVSPropertyOp15
 70
     1
102
RTVSPropertyOp16
 70
     1
102
RTVSPropertyOp17
 70
     1
102
RTVSPropertyOp18
 70
     1
102
RTVSPropertyOp19
 70
     1
102
RTVSPropertyOp20
 70
     1
102
RTVSPropertyOp21
 70
     1
102
RTVSPropertyOp22
 70
     1
102
RTVSPropertyOp23
 70
     1
102
RTVSPropertyOp24
 70
     1
102
RTVSPropertyOp25
 70
     1
102
RTVSPropertyOp26
 70
     1
102
RTVSPropertyOp27
 70
     1
102
RTVSPropertyOp28
 70
     1
102
RTVSPropertyOp29
 70
     1
102
RTVSPropertyOp30
 70
     1
102
RTVSPropertyOp31
 70
     1
102
RTVSPropertyOp32
 70
     1
  0
XRECORD
  5
8E
102
{ACAD_REACTORS
330
8D
102
}
330
8D
100
AcDbXrecord
280
     1
102
RTVSPropertyOp0
 70
     1
102
RTVSPropertyOp1
 70
     1
102
RTVSPropertyOp2
 70
     1
102
RTVSPropertyOp3
 70
     1
102
RTVSPropertyOp4
 70
     1
102
RTVSPropertyOp5
 70
     1
102
RTVSPropertyOp6
 70
     1
102
RTVSPropertyOp7
 70
     1
102
RTVSPropertyOp8
 70
     1
102
RTVSPropertyOp9
 70
     1
102
RTVSPropertyOp10
 70
     1
102
RTVSPropertyOp11
 70
     1
102
RTVSPropertyOp12
 70
     1
102
RTVSPropertyOp13
 70
     1
102
RTVSPropertyOp14
 70
     1
102
RTVSPropertyOp15
 70
     1
102
RTVSPropertyOp16
 70
     1
102
RTVSPropertyOp17
 70
     1
102
RTVSPropertyOp18
 70
     1
102
RTVSPropertyOp19
 70
     1
102
RTVSPropertyOp20
 70
     1
102
RTVSPropertyOp21
 70
     1
102
RTVSPropertyOp22
 70
     1
102
RTVSPropertyOp23
 70
     1
102
RTVSPropertyOp24
 70
     1
102
RTVSPropertyOp25
 70
     1
102
RTVSPropertyOp26
 70
     1
102
RTVSPropertyOp27
 70
     1
102
RTVSPropertyOp28
 70
     1
102
RTVSPropertyOp29
 70
     1
102
RTVSPropertyOp30
 70
     1
102
RTVSPropertyOp31
 70
     1
102
RTVSPropertyOp32
 70
     1
  0
XRECORD
  5
A2
102
{ACAD_REACTORS
330
A1
102
}
330
A1
100
AcDbXrecord
280
     1
102
RTVSPropertyOp0
 70
     1
102
RTVSPropertyOp1
 70
     1
102
RTVSPropertyOp2
 70
     1
102
RTVSPropertyOp3
 70
     1
102
RTVSPropertyOp4
 70
     1
102
RTVSPropertyOp5
 70
     1
102
RTVSPropertyOp6
 70
     1
102
RTVSPropertyOp7
 70
     1
102
RTVSPropertyOp8
 70
     1
102
RTVSPropertyOp9
 70
     1
102
RTVSPropertyOp10
 70
     1
102
RTVSPropertyOp11
 70
     1
102
RTVSPropertyOp12
 70
     1
102
RTVSPropertyOp13
 70
     1
102
RTVSPropertyOp14
 70
     1
102
RTVSPropertyOp15
 70
     1
102
RTVSPropertyOp16
 70
     1
102
RTVSPropertyOp17
 70
     1
102
RTVSPropertyOp18
 70
     1
102
RTVSPropertyOp19
 70
     1
102
RTVSPropertyOp20
 70
     1
102
RTVSPropertyOp21
 70
     1
102
RTVSPropertyOp22
 70
     1
102
RTVSPropertyOp23
 70
     1
102
RTVSPropertyOp24
 70
     1
102
RTVSPropertyOp25
 70
     1
102
RTVSPropertyOp26
 70
     1
102
RTVSPropertyOp27
 70
     1
102
RTVSPropertyOp28
 70
     1
102
RTVSPropertyOp29
 70
     1
102
RTVSPropertyOp30
 70
     1
102
RTVSPropertyOp31
 70
     1
102
RTVSPropertyOp32
 70
     1
  0
XRECORD
  5
98
102
{ACAD_REACTORS
330
97
102
}
330
97
100
AcDbXrecord
280
     1
102
RTVSPropertyOp0
 70
     1
102
RTVSPropertyOp1
 70
     1
102
RTVSPropertyOp2
 70
     1
102
RTVSPropertyOp3
 70
     1
102
RTVSPropertyOp4
 70
     1
102
RTVSPropertyOp5
 70
     1
102
RTVSPropertyOp6
 70
     1
102
RTVSPropertyOp7
 70
     1
102
RTVSPropertyOp8
 70
     1
102
RTVSPropertyOp9
 70
     1
102
RTVSPropertyOp10
 70
     1
102
RTVSPropertyOp11
 70
     1
102
RTVSPropertyOp12
 70
     1
102
RTVSPropertyOp13
 70
     1
102
RTVSPropertyOp14
 70
     1
102
RTVSPropertyOp15
 70
     1
102
RTVSPropertyOp16
 70
     1
102
RTVSPropertyOp17
 70
     1
102
RTVSPropertyOp18
 70
     1
102
RTVSPropertyOp19
 70
     1
102
RTVSPropertyOp20
 70
     1
102
RTVSPropertyOp21
 70
     1
102
RTVSPropertyOp22
 70
     1
102
RTVSPropertyOp23
 70
     1
102
RTVSPropertyOp24
 70
     1
102
RTVSPropertyOp25
 70
     1
102
RTVSPropertyOp26
 70
     1
102
RTVSPropertyOp27
 70
     1
102
RTVSPropertyOp28
 70
     1
102
RTVSPropertyOp29
 70
     1
102
RTVSPropertyOp30
 70
     1
102
RTVSPropertyOp31
 70
     1
102
RTVSPropertyOp32
 70
     1
  0
XRECORD
  5
A0
102
{ACAD_REACTORS
330
9F
102
}
330
9F
100
AcDbXrecord
280
     1
102
RTVSPropertyOp0
 70
     1
102
RTVSPropertyOp1
 70
     1
102
RTVSPropertyOp2
 70
     1
102
RTVSPropertyOp3
 70
     1
102
RTVSPropertyOp4
 70
     1
102
RTVSPropertyOp5
 70
     1
102
RTVSPropertyOp6
 70
     1
102
RTVSPropertyOp7
 70
     1
102
RTVSPropertyOp8
 70
     1
102
RTVSPropertyOp9
 70
     1
102
RTVSPropertyOp10
 70
     1
102
RTVSPropertyOp11
 70
     1
102
RTVSPropertyOp12
 70
     1
102
RTVSPropertyOp13
 70
     1
102
RTVSPropertyOp14
 70
     1
102
RTVSPropertyOp15
 70
     1
102
RTVSPropertyOp16
 70
     1
102
RTVSPropertyOp17
 70
     1
102
RTVSPropertyOp18
 70
     1
102
RTVSPropertyOp19
 70
     1
102
RTVSPropertyOp20
 70
     1
102
RTVSPropertyOp21
 70
     1
102
RTVSPropertyOp22
 70
     1
102
RTVSPropertyOp23
 70
     1
102
RTVSPropertyOp24
 70
     1
102
RTVSPropertyOp25
 70
     1
102
RTVSPropertyOp26
 70
     1
102
RTVSPropertyOp27
 70
     1
102
RTVSPropertyOp28
 70
     1
102
RTVSPropertyOp29
 70
     1
102
RTVSPropertyOp30
 70
     1
102
RTVSPropertyOp31
 70
     1
102
RTVSPropertyOp32
 70
     1
  0
ENDSEC
  0
EOF
