  0
SECTION
  2
HEADER
  9
$ACADVER
  1
AC1021
  9
$ACADMAINTVER
 70
    25
  9
$DWGCODEPAGE
  3
ANSI_1256
  9
$INSBASE
 10
0.0
 20
0.0
 30
0.0
  9
$EXTMIN
 10
-187.5271
 20
-114.9788
 30
0.0
  9
$EXTMAX
 10
-34.1506
 20
131.7874
 30
0.0
  9
$LIMMIN
 10
0.0
 20
0.0
  9
$LIMMAX
 10
12.0
 20
9.0
  9
$ORTHOMODE
 70
     0
  9
$REGENMODE
 70
     1
  9
$FILLMODE
 70
     1
  9
$QTEXTMODE
 70
     0
  9
$MIRRTEXT
 70
     1
  9
$LTSCALE
 40
1.0
  9
$ATTMODE
 70
     1
  9
$TEXTSIZE
 40
0.2
  9
$TRACEWID
 40
0.05
  9
$TEXTSTYLE
  7
Standard
  9
$CLAYER
  8
0
  9
$CELTYPE
  6
ByLayer
  9
$CECOLOR
 62
   256
  9
$CELTSCALE
 40
1.0
  9
$DISPSILH
 70
     0
  9
$DIMSCALE
 40
1.0
  9
$DIMASZ
 40
0.18
  9
$DIMEXO
 40
0.0625
  9
$DIMDLI
 40
0.38
  9
$DIMRND
 40
0.0
  9
$DIMDLE
 40
0.0
  9
$DIMEXE
 40
0.18
  9
$DIMTP
 40
0.0
  9
$DIMTM
 40
0.0
  9
$DIMTXT
 40
0.18
  9
$DIMCEN
 40
0.09
  9
$DIMTSZ
 40
0.0
  9
$DIMTOL
 70
     0
  9
$DIMLIM
 70
     0
  9
$DIMTIH
 70
     1
  9
$DIMTOH
 70
     1
  9
$DIMSE1
 70
     0
  9
$DIMSE2
 70
     0
  9
$DIMTAD
 70
     0
  9
$DIMZIN
 70
     0
  9
$DIMBLK
  1

  9
$DIMASO
 70
     1
  9
$DIMSHO
 70
     1
  9
$DIMPOST
  1

  9
$DIMAPOST
  1

  9
$DIMALT
 70
     0
  9
$DIMALTD
 70
     2
  9
$DIMALTF
 40
25.4
  9
$DIMLFAC
 40
1.0
  9
$DIMTOFL
 70
     0
  9
$DIMTVP
 40
0.0
  9
$DIMTIX
 70
     0
  9
$DIMSOXD
 70
     0
  9
$DIMSAH
 70
     0
  9
$DIMBLK1
  1

  9
$DIMBLK2
  1

  9
$DIMSTYLE
  2
Standard
  9
$DIMCLRD
 70
     0
  9
$DIMCLRE
 70
     0
  9
$DIMCLRT
 70
     0
  9
$DIMTFAC
 40
1.0
  9
$DIMGAP
 40
0.09
  9
$DIMJUST
 70
     0
  9
$DIMSD1
 70
     0
  9
$DIMSD2
 70
     0
  9
$DIMTOLJ
 70
     1
  9
$DIMTZIN
 70
     0
  9
$DIMALTZ
 70
     0
  9
$DIMALTTZ
 70
     0
  9
$DIMUPT
 70
     0
  9
$DIMDEC
 70
     4
  9
$DIMTDEC
 70
     4
  9
$DIMALTU
 70
     2
  9
$DIMALTTD
 70
     2
  9
$DIMTXSTY
  7
Standard
  9
$DIMAUNIT
 70
     0
  9
$DIMADEC
 70
     0
  9
$DIMALTRND
 40
0.0
  9
$DIMAZIN
 70
     0
  9
$DIMDSEP
 70
    46
  9
$DIMATFIT
 70
     3
  9
$DIMFRAC
 70
     0
  9
$DIMLDRBLK
  1

  9
$DIMLUNIT
 70
     2
  9
$DIMLWD
 70
    -2
  9
$DIMLWE
 70
    -2
  9
$DIMTMOVE
 70
     0
  9
$DIMFXL
 40
1.0
  9
$DIMFXLON
 70
     0
  9
$DIMJOGANG
 40
0.7853981633974483
  9
$DIMTFILL
 70
     0
  9
$DIMTFILLCLR
 70
     0
  9
$DIMARCSYM
 70
     0
  9
$DIMLTYPE
  6

  9
$DIMLTEX1
  6

  9
$DIMLTEX2
  6

  9
$LUNITS
 70
     2
  9
$LUPREC
 70
     4
  9
$SKETCHINC
 40
0.1
  9
$FILLETRAD
 40
0.5
  9
$AUNITS
 70
     0
  9
$AUPREC
 70
     0
  9
$MENU
  1
.
  9
$ELEVATION
 40
0.0
  9
$PELEVATION
 40
0.0
  9
$THICKNESS
 40
0.0
  9
$LIMCHECK
 70
     0
  9
$CHAMFERA
 40
0.5
  9
$CHAMFERB
 40
0.5
  9
$CHAMFERC
 40
1.0
  9
$CHAMFERD
 40
0.0
  9
$SKPOLY
 70
     0
  9
$TDCREATE
 40
2458492.949874086
  9
$TDUCREATE
 40
2458492.783207419
  9
$TDUPDATE
 40
2458492.949874294
  9
$TDUUPDATE
 40
2458492.783207627
  9
$TDINDWG
 40
0.0000000116
  9
$TDUSRTIMER
 40
0.0000000116
  9
$USRTIMER
 70
     1
  9
$ANGBASE
 50
0.0
  9
$ANGDIR
 70
     0
  9
$PDMODE
 70
     0
  9
$PDSIZE
 40
0.0
  9
$PLINEWID
 40
0.0
  9
$SPLFRAME
 70
     0
  9
$SPLINETYPE
 70
     6
  9
$SPLINESEGS
 70
     8
  9
$HANDSEED
  5
C6
  9
$SURFTAB1
 70
     6
  9
$SURFTAB2
 70
     6
  9
$SURFTYPE
 70
     6
  9
$SURFU
 70
     6
  9
$SURFV
 70
     6
  9
$UCSBASE
  2

  9
$UCSNAME
  2

  9
$UCSORG
 10
0.0
 20
0.0
 30
0.0
  9
$UCSXDIR
 10
1.0
 20
0.0
 30
0.0
  9
$UCSYDIR
 10
0.0
 20
1.0
 30
0.0
  9
$UCSORTHOREF
  2

  9
$UCSORTHOVIEW
 70
     0
  9
$UCSORGTOP
 10
0.0
 20
0.0
 30
0.0
  9
$UCSORGBOTTOM
 10
0.0
 20
0.0
 30
0.0
  9
$UCSORGLEFT
 10
0.0
 20
0.0
 30
0.0
  9
$UCSORGRIGHT
 10
0.0
 20
0.0
 30
0.0
  9
$UCSORGFRONT
 10
0.0
 20
0.0
 30
0.0
  9
$UCSORGBACK
 10
0.0
 20
0.0
 30
0.0
  9
$PUCSBASE
  2

  9
$PUCSNAME
  2

  9
$PUCSORG
 10
0.0
 20
0.0
 30
0.0
  9
$PUCSXDIR
 10
1.0
 20
0.0
 30
0.0
  9
$PUCSYDIR
 10
0.0
 20
1.0
 30
0.0
  9
$PUCSORTHOREF
  2

  9
$PUCSORTHOVIEW
 70
     0
  9
$PUCSORGTOP
 10
0.0
 20
0.0
 30
0.0
  9
$PUCSORGBOTTOM
 10
0.0
 20
0.0
 30
0.0
  9
$PUCSORGLEFT
 10
0.0
 20
0.0
 30
0.0
  9
$PUCSORGRIGHT
 10
0.0
 20
0.0
 30
0.0
  9
$PUCSORGFRONT
 10
0.0
 20
0.0
 30
0.0
  9
$PUCSORGBACK
 10
0.0
 20
0.0
 30
0.0
  9
$USERI1
 70
     0
  9
$USERI2
 70
     0
  9
$USERI3
 70
     0
  9
$USERI4
 70
     0
  9
$USERI5
 70
     0
  9
$USERR1
 40
0.0
  9
$USERR2
 40
0.0
  9
$USERR3
 40
0.0
  9
$USERR4
 40
0.0
  9
$USERR5
 40
0.0
  9
$WORLDVIEW
 70
     1
  9
$SHADEDGE
 70
     3
  9
$SHADEDIF
 70
    70
  9
$TILEMODE
 70
     1
  9
$MAXACTVP
 70
    64
  9
$PINSBASE
 10
0.0
 20
0.0
 30
0.0
  9
$PLIMCHECK
 70
     0
  9
$PEXTMIN
 10
1.000000000000000E+20
 20
1.000000000000000E+20
 30
1.000000000000000E+20
  9
$PEXTMAX
 10
-1.000000000000000E+20
 20
-1.000000000000000E+20
 30
-1.000000000000000E+20
  9
$PLIMMIN
 10
0.0
 20
0.0
  9
$PLIMMAX
 10
12.0
 20
9.0
  9
$UNITMODE
 70
     0
  9
$VISRETAIN
 70
     1
  9
$PLINEGEN
 70
     0
  9
$PSLTSCALE
 70
     1
  9
$TREEDEPTH
 70
  3020
  9
$CMLSTYLE
  2
Standard
  9
$CMLJUST
 70
     0
  9
$CMLSCALE
 40
1.0
  9
$PROXYGRAPHICS
 70
     1
  9
$MEASUREMENT
 70
     0
  9
$CELWEIGHT
370
    -1
  9
$ENDCAPS
280
     0
  9
$JOINSTYLE
280
     0
  9
$LWDISPLAY
290
     0
  9
$INSUNITS
 70
     4
  9
$HYPERLINKBASE
  1

  9
$STYLESHEET
  1

  9
$XEDIT
290
     1
  9
$CEPSNTYPE
380
     0
  9
$PSTYLEMODE
290
     1
  9
$FINGERPRINTGUID
  2
{9D0892E6-C536-41F9-A038-30C2161242A2}
  9
$VERSIONGUID
  2
{FAEB1C32-E019-11D5-929B-00C0DF256EC4}
  9
$EXTNAMES
290
     1
  9
$PSVPSCALE
 40
0.0
  9
$OLESTARTUP
290
     0
  9
$SORTENTS
280
   127
  9
$INDEXCTL
280
     0
  9
$HIDETEXT
280
     1
  9
$XCLIPFRAME
290
     0
  9
$HALOGAP
280
     0
  9
$OBSCOLOR
 70
   257
  9
$OBSLTYPE
280
     0
  9
$INTERSECTIONDISPLAY
280
     0
  9
$INTERSECTIONCOLOR
 70
   257
  9
$DIMASSOC
280
     2
  9
$PROJECTNAME
  1

  9
$CAMERADISPLAY
290
     0
  9
$LENSLENGTH
 40
50.0
  9
$CAMERAHEIGHT
 40
0.0
  9
$STEPSPERSEC
 40
2.0
  9
$STEPSIZE
 40
6.0
  9
$3DDWFPREC
 40
2.0
  9
$PSOLWIDTH
 40
0.25
  9
$PSOLHEIGHT
 40
4.0
  9
$LOFTANG1
 40
1.570796326794897
  9
$LOFTANG2
 40
1.570796326794897
  9
$LOFTMAG1
 40
0.0
  9
$LOFTMAG2
 40
0.0
  9
$LOFTPARAM
 70
     7
  9
$LOFTNORMALS
280
     1
  9
$LATITUDE
 40
37.795
  9
$LONGITUDE
 40
-122.394
  9
$NORTHDIRECTION
 40
0.0
  9
$TIMEZONE
 70
 -8000
  9
$LIGHTGLYPHDISPLAY
280
     1
  9
$TILEMODELIGHTSYNCH
280
     1
  9
$SOLIDHIST
280
     1
  9
$SHOWHIST
280
     1
  9
$DWFFRAME
280
     2
  9
$DGNFRAME
280
     2
  9
$REALWORLDSCALE
290
     1
  9
$INTERFERECOLOR
 62
   256
  9
$CSHADOW
280
     0
  9
$SHADOWPLANELOCATION
 40
0.0
  0
ENDSEC
  0
SECTION
  2
CLASSES
  0
CLASS
  1
ACDBDICTIONARYWDFLT
  2
AcDbDictionaryWithDefault
  3
ObjectDBX Classes
 90
        0
 91
        4
280
     0
281
     0
  0
CLASS
  1
VISUALSTYLE
  2
AcDbVisualStyle
  3
ObjectDBX Classes
 90
     4095
 91
        4
280
     0
281
     0
  0
CLASS
  1
MATERIAL
  2
AcDbMaterial
  3
ObjectDBX Classes
 90
     1153
 91
        4
280
     0
281
     0
  0
ENDSEC
  0
SECTION
  2
TABLES
  0
TABLE
  2
VPORT
  5
8
330
0
100
AcDbSymbolTable
 70
     1
  0
VPORT
  5
29
330
8
100
AcDbSymbolTableRecord
100
AcDbViewportTableRecord
  2
*Active
 70
     0
 10
0.0
 20
0.0
 11
1.0
 21
1.0
 12
10.42990654205607
 22
4.5
 13
0.0
 23
0.0
 14
0.5
 24
0.5
 15
0.5
 25
0.5
 16
0.0
 26
0.0
 36
1.0
 17
0.0
 27
0.0
 37
0.0
 40
9.0
 41
1.972972972850329
 42
50.0
 43
0.0
 44
0.0
 50
0.0
 51
0.0
 71
     0
 72
   100
 73
     1
 74
     3
 75
     0
 76
     0
 77
     0
 78
     0
281
     0
 65
     1
110
0.0
120
0.0
130
0.0
111
1.0
121
0.0
131
0.0
112
0.0
122
1.0
132
0.0
 79
     0
146
0.0
 60
     3
 61
     5
292
     1
282
     1
141
0.0
142
0.0
 63
   250
  0
ENDTAB
  0
TABLE
  2
LTYPE
  5
5
330
0
100
AcDbSymbolTable
 70
     1
  0
LTYPE
  5
14
330
5
100
AcDbSymbolTableRecord
100
AcDbLinetypeTableRecord
  2
ByBlock
 70
     0
  3

 72
    65
 73
     0
 40
0.0
  0
LTYPE
  5
15
330
5
100
AcDbSymbolTableRecord
100
AcDbLinetypeTableRecord
  2
ByLayer
 70
     0
  3

 72
    65
 73
     0
 40
0.0
  0
LTYPE
  5
16
330
5
100
AcDbSymbolTableRecord
100
AcDbLinetypeTableRecord
  2
Continuous
 70
     0
  3
Solid line
 72
    65
 73
     0
 40
0.0
  0
ENDTAB
  0
TABLE
  2
LAYER
  5
2
330
0
100
AcDbSymbolTable
 70
     3
  0
LAYER
  5
10
330
2
100
AcDbSymbolTableRecord
100
AcDbLayerTableRecord
  2
0
 70
     0
 62
     7
  6
Continuous
370
    -3
390
F
347
3E
  0
LAYER
  5
40
330
2
100
AcDbSymbolTableRecord
100
AcDbLayerTableRecord
  2
layer 1
 70
     0
 62
     7
  6
Continuous
370
    -3
390
F
347
3E
  0
LAYER
  5
A3
330
2
100
AcDbSymbolTableRecord
100
AcDbLayerTableRecord
  2
Master Guides
 70
     0
 62
     7
  6
Continuous
370
    -3
390
F
347
3E
  0
ENDTAB
  0
TABLE
  2
STYLE
  5
3
330
0
100
AcDbSymbolTable
 70
     1
  0
STYLE
  5
11
330
3
100
AcDbSymbolTableRecord
100
AcDbTextStyleTableRecord
  2
Standard
 70
     0
 40
0.0
 41
1.0
 50
0.0
 71
     0
 42
0.2
  3
txt
  4

  0
ENDTAB
  0
TABLE
  2
VIEW
  5
6
330
0
100
AcDbSymbolTable
 70
     0
  0
ENDTAB
  0
TABLE
  2
UCS
  5
7
330
0
100
AcDbSymbolTable
 70
     0
  0
ENDTAB
  0
TABLE
  2
APPID
  5
9
330
0
100
AcDbSymbolTable
 70
     2
  0
APPID
  5
12
330
9
100
AcDbSymbolTableRecord
100
AcDbRegAppTableRecord
  2
ACAD
 70
     0
  0
APPID
  5
3F
330
9
100
AcDbSymbolTableRecord
100
AcDbRegAppTableRecord
  2
ODA
 70
     0
  0
ENDTAB
  0
TABLE
  2
DIMSTYLE
  5
A
330
0
100
AcDbSymbolTable
 70
     1
100
AcDbDimStyleTable
  0
DIMSTYLE
105
27
330
A
100
AcDbSymbolTableRecord
100
AcDbDimStyleTableRecord
  2
Standard
 70
     0
178
     0
340
11
  0
ENDTAB
  0
TABLE
  2
BLOCK_RECORD
  5
1
330
0
100
AcDbSymbolTable
 70
     1
  0
BLOCK_RECORD
  5
1F
330
1
100
AcDbSymbolTableRecord
100
AcDbBlockTableRecord
  2
*Model_Space
340
22
 70
     0
280
     1
281
     0
  0
BLOCK_RECORD
  5
1B
330
1
100
AcDbSymbolTableRecord
100
AcDbBlockTableRecord
  2
*Paper_Space
340
1E
 70
     0
280
     1
281
     0
  0
BLOCK_RECORD
  5
23
330
1
100
AcDbSymbolTableRecord
100
AcDbBlockTableRecord
  2
*Paper_Space0
340
26
 70
     0
280
     1
281
     0
  0
ENDTAB
  0
ENDSEC
  0
SECTION
  2
BLOCKS
  0
BLOCK
  5
20
330
1F
100
AcDbEntity
  8
0
100
AcDbBlockBegin
  2
*Model_Space
 70
     0
 10
0.0
 20
0.0
 30
0.0
  3
*Model_Space
  1

  0
ENDBLK
  5
21
330
1F
100
AcDbEntity
  8
0
100
AcDbBlockEnd
  0
BLOCK
  5
1C
330
1B
100
AcDbEntity
 67
     1
  8
0
100
AcDbBlockBegin
  2
*Paper_Space
 70
     0
 10
0.0
 20
0.0
 30
0.0
  3
*Paper_Space
  1

  0
ENDBLK
  5
1D
330
1B
100
AcDbEntity
 67
     1
  8
0
100
AcDbBlockEnd
  0
BLOCK
  5
24
330
23
100
AcDbEntity
  8
0
100
AcDbBlockBegin
  2
*Paper_Space0
 70
     0
 10
0.0
 20
0.0
 30
0.0
  3
*Paper_Space0
  1

  0
ENDBLK
  5
25
330
23
100
AcDbEntity
  8
0
100
AcDbBlockEnd
  0
ENDSEC
  0
SECTION
  2
ENTITIES
  0
SPLINE
  5
41
330
1F
100
AcDbEntity
  8
layer 1
 62
   250
100
AcDbSpline
210
0.0
220
0.0
230
1.0
 70
    11
 71
     3
 72
    20
 73
    16
 74
     0
 42
0.0000000001
 43
0.0000000001
 12
1.0
 22
0.0
 32
0.0
 13
1.0
 23
0.0
 33
0.0
 40
0.0
 40
0.0
 40
0.0
 40
0.0
 40
0.2
 40
0.2
 40
0.2
 40
0.2
 40
0.4
 40
0.4
 40
0.4
 40
0.4
 40
0.6
 40
0.6
 40
0.6
 40
0.6
 40
1.0
 40
1.0
 40
1.0
 40
1.0
 10
-187.5271
 20
-114.9788
 30
0.0
 10
-187.5271
 20
-114.9788
 30
0.0
 10
-187.5271
 20
131.7874
 30
0.0
 10
-187.5271
 20
131.7874
 30
0.0
 10
-187.5271
 20
131.7874
 30
0.0
 10
-187.5271
 20
131.7874
 30
0.0
 10
-34.1506
 20
131.7874
 30
0.0
 10
-34.1506
 20
131.7874
 30
0.0
 10
-34.1506
 20
131.7874
 30
0.0
 10
-34.1506
 20
131.7874
 30
0.0
 10
-34.1506
 20
-114.9788
 30
0.0
 10
-34.1506
 20
-114.9788
 30
0.0
 10
-34.1506
 20
-114.9788
 30
0.0
 10
-34.1506
 20
-114.9788
 30
0.0
 10
-187.5271
 20
-114.9788
 30
0.0
 10
-187.5271
 20
-114.9788
 30
0.0
  0
SPLINE
  5
42
330
1F
100
AcDbEntity
  8
layer 1
 62
     7
100
AcDbSpline
210
0.0
220
0.0
230
1.0
 70
    11
 71
     3
 72
    20
 73
    16
 74
     0
 42
0.0000000001
 43
0.0000000001
 12
1.0
 22
0.0
 32
0.0
 13
1.0
 23
0.0
 33
0.0
 40
0.0
 40
0.0
 40
0.0
 40
0.0
 40
0.2
 40
0.2
 40
0.2
 40
0.2
 40
0.4
 40
0.4
 40
0.4
 40
0.4
 40
0.6
 40
0.6
 40
0.6
 40
0.6
 40
1.0
 40
1.0
 40
1.0
 40
1.0
 10
-135.8503
 20
-98.1574
 30
0.0
 10
-137.2258
 20
-95.6185
 30
0.0
 10
-139.2269
 20
-93.4426
 30
0.0
 10
-141.9781
 20
-91.8793
 30
0.0
 10
-141.9781
 20
-91.8793
 30
0.0
 10
-139.2269
 20
-90.3036
 30
0.0
 10
-137.2258
 20
-88.1277
 30
0.0
 10
-135.8503
 20
-85.5892
 30
0.0
 10
-135.8503
 20
-85.5892
 30
0.0
 10
-134.5997
 20
-88.1277
 30
0.0
 10
-132.5986
 20
-90.3036
 30
0.0
 10
-129.8473
 20
-91.8793
 30
0.0
 10
-129.8473
 20
-91.8793
 30
0.0
 10
-132.5986
 20
-93.4426
 30
0.0
 10
-134.5997
 20
-95.6185
 30
0.0
 10
-135.8503
 20
-98.1574
 30
0.0
  0
SPLINE
  5
43
330
1F
100
AcDbEntity
  8
layer 1
 62
     7
100
AcDbSpline
210
0.0
220
0.0
230
1.0
 70
    11
 71
     3
 72
    28
 73
    24
 74
     0
 42
0.0000000001
 43
0.0000000001
 12
1.0
 22
0.0
 32
0.0
 13
1.0
 23
0.0
 33
0.0
 40
0.0
 40
0.0
 40
0.0
 40
0.0
 40
0.1428571428571428
 40
0.1428571428571428
 40
0.1428571428571428
 40
0.1428571428571428
 40
0.2857142857142857
 40
0.2857142857142857
 40
0.2857142857142857
 40
0.2857142857142857
 40
0.4285714285714285
 40
0.4285714285714285
 40
0.4285714285714285
 40
0.4285714285714285
 40
0.5714285714285714
 40
0.5714285714285714
 40
0.5714285714285714
 40
0.5714285714285714
 40
0.7142857142857143
 40
0.7142857142857143
 40
0.7142857142857143
 40
0.7142857142857143
 40
1.0
 40
1.0
 40
1.0
 40
1.0
 10
-131.9732
 20
-107.3867
 30
0.0
 10
-131.9732
 20
-107.3867
 30
0.0
 10
-131.9732
 20
-101.8339
 30
0.0
 10
-131.9732
 20
-101.8339
 30
0.0
 10
-131.9732
 20
-101.8339
 30
0.0
 10
-129.8473
 20
-96.8568
 30
0.0
 10
-125.4704
 20
-94.7433
 30
0.0
 10
-120.4681
 20
-94.7933
 30
0.0
 10
-120.4681
 20
-94.7933
 30
0.0
 10
-120.4681
 20
-94.7933
 30
0.0
 10
-120.4681
 20
-101.4964
 30
0.0
 10
-120.4681
 20
-101.4964
 30
0.0
 10
-120.4681
 20
-101.4964
 30
0.0
 10
-120.4681
 20
-101.4964
 30
0.0
 10
-113.715
 20
-101.5088
 30
0.0
 10
-113.715
 20
-101.5088
 30
0.0
 10
-113.715
 20
-101.5088
 30
0.0
 10
-113.715
 20
-103.6223
 30
0.0
 10
-114.0901
 20
-105.6234
 30
0.0
 10
-114.9657
 20
-107.3867
 30
0.0
 10
-114.9657
 20
-107.3867
 30
0.0
 10
-114.9657
 20
-107.3867
 30
0.0
 10
-131.9732
 20
-107.3867
 30
0.0
 10
-131.9732
 20
-107.3867
 30
0.0
  0
SPLINE
  5
44
330
1F
100
AcDbEntity
  8
layer 1
 62
     7
100
AcDbSpline
210
0.0
220
0.0
230
1.0
 70
    11
 71
     3
 72
    28
 73
    24
 74
     0
 42
0.0000000001
 43
0.0000000001
 12
1.0
 22
0.0
 32
0.0
 13
1.0
 23
0.0
 33
0.0
 40
0.0
 40
0.0
 40
0.0
 40
0.0
 40
0.1428571428571428
 40
0.1428571428571428
 40
0.1428571428571428
 40
0.1428571428571428
 40
0.2857142857142857
 40
0.2857142857142857
 40
0.2857142857142857
 40
0.2857142857142857
 40
0.4285714285714285
 40
0.4285714285714285
 40
0.4285714285714285
 40
0.4285714285714285
 40
0.5714285714285714
 40
0.5714285714285714
 40
0.5714285714285714
 40
0.5714285714285714
 40
0.7142857142857143
 40
0.7142857142857143
 40
0.7142857142857143
 40
0.7142857142857143
 40
1.0
 40
1.0
 40
1.0
 40
1.0
 10
-106.8368
 20
-107.3867
 30
0.0
 10
-107.5872
 20
-105.6234
 30
0.0
 10
-107.9623
 20
-103.6223
 30
0.0
 10
-107.9623
 20
-101.5088
 30
0.0
 10
-107.9623
 20
-101.5088
 30
0.0
 10
-107.9623
 20
-101.5088
 30
0.0
 10
-101.2092
 20
-101.5088
 30
0.0
 10
-101.2092
 20
-101.5088
 30
0.0
 10
-101.2092
 20
-101.5088
 30
0.0
 10
-101.2092
 20
-101.5088
 30
0.0
 10
-101.2092
 20
-94.7933
 30
0.0
 10
-101.2092
 20
-94.7933
 30
0.0
 10
-101.2092
 20
-94.7933
 30
0.0
 10
-96.2069
 20
-94.7433
 30
0.0
 10
-91.9551
 20
-96.8568
 30
0.0
 10
-89.7041
 20
-101.8339
 30
0.0
 10
-89.7041
 20
-101.8339
 30
0.0
 10
-89.7041
 20
-101.8339
 30
0.0
 10
-89.7041
 20
-107.3867
 30
0.0
 10
-89.7041
 20
-107.3867
 30
0.0
 10
-89.7041
 20
-107.3867
 30
0.0
 10
-89.7041
 20
-107.3867
 30
0.0
 10
-106.8368
 20
-107.3867
 30
0.0
 10
-106.8368
 20
-107.3867
 30
0.0
  0
SPLINE
  5
45
330
1F
100
AcDbEntity
  8
layer 1
 62
     7
100
AcDbSpline
210
0.0
220
0.0
230
1.0
 70
    11
 71
     3
 72
    28
 73
    24
 74
     0
 42
0.0000000001
 43
0.0000000001
 12
1.0
 22
0.0
 32
0.0
 13
1.0
 23
0.0
 33
0.0
 40
0.0
 40
0.0
 40
0.0
 40
0.0
 40
0.1428571428571428
 40
0.1428571428571428
 40
0.1428571428571428
 40
0.1428571428571428
 40
0.2857142857142857
 40
0.2857142857142857
 40
0.2857142857142857
 40
0.2857142857142857
 40
0.4285714285714285
 40
0.4285714285714285
 40
0.4285714285714285
 40
0.4285714285714285
 40
0.5714285714285714
 40
0.5714285714285714
 40
0.5714285714285714
 40
0.5714285714285714
 40
0.7142857142857143
 40
0.7142857142857143
 40
0.7142857142857143
 40
0.7142857142857143
 40
1.0
 40
1.0
 40
1.0
 40
1.0
 10
-89.7041
 20
-70.7695
 30
0.0
 10
-89.7041
 20
-70.7695
 30
0.0
 10
-89.7041
 20
-81.9248
 30
0.0
 10
-89.7041
 20
-81.9248
 30
0.0
 10
-89.7041
 20
-81.9248
 30
0.0
 10
-91.9551
 20
-86.8895
 30
0.0
 10
-96.2069
 20
-89.003
 30
0.0
 10
-101.2092
 20
-88.9657
 30
0.0
 10
-101.2092
 20
-88.9657
 30
0.0
 10
-101.2092
 20
-88.9657
 30
0.0
 10
-101.2092
 20
-82.2498
 30
0.0
 10
-101.2092
 20
-82.2498
 30
0.0
 10
-101.2092
 20
-82.2498
 30
0.0
 10
-101.2092
 20
-82.2498
 30
0.0
 10
-107.9623
 20
-82.2498
 30
0.0
 10
-107.9623
 20
-82.2498
 30
0.0
 10
-107.9623
 20
-82.2498
 30
0.0
 10
-107.9623
 20
-77.2352
 30
0.0
 10
-105.8364
 20
-72.8958
 30
0.0
 10
-100.9593
 20
-70.7695
 30
0.0
 10
-100.9593
 20
-70.7695
 30
0.0
 10
-100.9593
 20
-70.7695
 30
0.0
 10
-89.7041
 20
-70.7695
 30
0.0
 10
-89.7041
 20
-70.7695
 30
0.0
  0
SPLINE
  5
46
330
1F
100
AcDbEntity
  8
layer 1
 62
     7
100
AcDbSpline
210
0.0
220
0.0
230
1.0
 70
    11
 71
     3
 72
    28
 73
    24
 74
     0
 42
0.0000000001
 43
0.0000000001
 12
1.0
 22
0.0
 32
0.0
 13
1.0
 23
0.0
 33
0.0
 40
0.0
 40
0.0
 40
0.0
 40
0.0
 40
0.1428571428571428
 40
0.1428571428571428
 40
0.1428571428571428
 40
0.1428571428571428
 40
0.2857142857142857
 40
0.2857142857142857
 40
0.2857142857142857
 40
0.2857142857142857
 40
0.4285714285714285
 40
0.4285714285714285
 40
0.4285714285714285
 40
0.4285714285714285
 40
0.5714285714285714
 40
0.5714285714285714
 40
0.5714285714285714
 40
0.5714285714285714
 40
0.7142857142857143
 40
0.7142857142857143
 40
0.7142857142857143
 40
0.7142857142857143
 40
1.0
 40
1.0
 40
1.0
 40
1.0
 10
-131.9732
 20
-70.7695
 30
0.0
 10
-131.9732
 20
-70.7695
 30
0.0
 10
-120.8432
 20
-70.7695
 30
0.0
 10
-120.8432
 20
-70.7695
 30
0.0
 10
-120.8432
 20
-70.7695
 30
0.0
 10
-115.8409
 20
-72.8958
 30
0.0
 10
-113.715
 20
-77.2352
 30
0.0
 10
-113.715
 20
-82.2498
 30
0.0
 10
-113.715
 20
-82.2498
 30
0.0
 10
-113.715
 20
-82.2498
 30
0.0
 10
-120.4681
 20
-82.2498
 30
0.0
 10
-120.4681
 20
-82.2498
 30
0.0
 10
-120.4681
 20
-82.2498
 30
0.0
 10
-120.4681
 20
-82.2498
 30
0.0
 10
-120.4681
 20
-88.953
 30
0.0
 10
-120.4681
 20
-88.953
 30
0.0
 10
-120.4681
 20
-88.953
 30
0.0
 10
-125.4704
 20
-89.003
 30
0.0
 10
-129.8473
 20
-86.8895
 30
0.0
 10
-131.9732
 20
-81.9248
 30
0.0
 10
-131.9732
 20
-81.9248
 30
0.0
 10
-131.9732
 20
-81.9248
 30
0.0
 10
-131.9732
 20
-70.7695
 30
0.0
 10
-131.9732
 20
-70.7695
 30
0.0
  0
SPLINE
  5
47
330
1F
100
AcDbEntity
  8
layer 1
 62
     7
100
AcDbSpline
210
0.0
220
0.0
230
1.0
 70
    11
 71
     3
 72
    20
 73
    16
 74
     0
 42
0.0000000001
 43
0.0000000001
 12
1.0
 22
0.0
 32
0.0
 13
1.0
 23
0.0
 33
0.0
 40
0.0
 40
0.0
 40
0.0
 40
0.0
 40
0.2
 40
0.2
 40
0.2
 40
0.2
 40
0.4
 40
0.4
 40
0.4
 40
0.4
 40
0.6
 40
0.6
 40
0.6
 40
0.6
 40
1.0
 40
1.0
 40
1.0
 40
1.0
 10
-116.5914
 20
-97.5945
 30
0.0
 10
-116.5914
 20
-97.5945
 30
0.0
 10
-116.5914
 20
-86.1532
 30
0.0
 10
-116.5914
 20
-86.1532
 30
0.0
 10
-116.5914
 20
-86.1532
 30
0.0
 10
-116.5914
 20
-86.1532
 30
0.0
 10
-105.1511
 20
-86.1532
 30
0.0
 10
-105.1511
 20
-86.1532
 30
0.0
 10
-105.1511
 20
-86.1532
 30
0.0
 10
-105.1511
 20
-86.1532
 30
0.0
 10
-105.1511
 20
-97.5945
 30
0.0
 10
-105.1511
 20
-97.5945
 30
0.0
 10
-105.1511
 20
-97.5945
 30
0.0
 10
-105.1511
 20
-97.5945
 30
0.0
 10
-116.5914
 20
-97.5945
 30
0.0
 10
-116.5914
 20
-97.5945
 30
0.0
  0
SPLINE
  5
48
330
1F
100
AcDbEntity
  8
layer 1
 62
     7
100
AcDbSpline
210
0.0
220
0.0
230
1.0
 70
    11
 71
     3
 72
    20
 73
    16
 74
     0
 42
0.0000000001
 43
0.0000000001
 12
1.0
 22
0.0
 32
0.0
 13
1.0
 23
0.0
 33
0.0
 40
0.0
 40
0.0
 40
0.0
 40
0.0
 40
0.2
 40
0.2
 40
0.2
 40
0.2
 40
0.4
 40
0.4
 40
0.4
 40
0.4
 40
0.6
 40
0.6
 40
0.6
 40
0.6
 40
1.0
 40
1.0
 40
1.0
 40
1.0
 10
-117.0916
 20
-66.7677
 30
0.0
 10
-114.5903
 20
-65.5174
 30
0.0
 10
-112.4644
 20
-63.5162
 30
0.0
 10
-110.8387
 20
-60.765
 30
0.0
 10
-110.8387
 20
-60.765
 30
0.0
 10
-109.3381
 20
-63.5162
 30
0.0
 10
-107.087
 20
-65.5174
 30
0.0
 10
-104.5857
 20
-66.7677
 30
0.0
 10
-104.5857
 20
-66.7677
 30
0.0
 10
-107.087
 20
-68.1434
 30
0.0
 10
-109.3381
 20
-70.1442
 30
0.0
 10
-110.8387
 20
-72.8958
 30
0.0
 10
-110.8387
 20
-72.8958
 30
0.0
 10
-112.4644
 20
-70.1442
 30
0.0
 10
-114.5903
 20
-68.1434
 30
0.0
 10
-117.0916
 20
-66.7677
 30
0.0
  0
SPLINE
  5
49
330
1F
100
AcDbEntity
  8
layer 1
 62
     7
100
AcDbSpline
210
0.0
220
0.0
230
1.0
 70
    11
 71
     3
 72
    20
 73
    16
 74
     0
 42
0.0000000001
 43
0.0000000001
 12
1.0
 22
0.0
 32
0.0
 13
1.0
 23
0.0
 33
0.0
 40
0.0
 40
0.0
 40
0.0
 40
0.0
 40
0.2
 40
0.2
 40
0.2
 40
0.2
 40
0.4
 40
0.4
 40
0.4
 40
0.4
 40
0.6
 40
0.6
 40
0.6
 40
0.6
 40
1.0
 40
1.0
 40
1.0
 40
1.0
 10
-135.8503
 20
-48.0092
 30
0.0
 10
-137.2258
 20
-45.5079
 30
0.0
 10
-139.2269
 20
-43.2569
 30
0.0
 10
-141.9781
 20
-41.7563
 30
0.0
 10
-141.9781
 20
-41.7563
 30
0.0
 10
-139.2269
 20
-40.1306
 30
0.0
 10
-137.2258
 20
-38.0047
 30
0.0
 10
-135.8503
 20
-35.5034
 30
0.0
 10
-135.8503
 20
-35.5034
 30
0.0
 10
-134.5997
 20
-38.0047
 30
0.0
 10
-132.5986
 20
-40.1306
 30
0.0
 10
-129.8473
 20
-41.7563
 30
0.0
 10
-129.8473
 20
-41.7563
 30
0.0
 10
-132.5986
 20
-43.2569
 30
0.0
 10
-134.5997
 20
-45.5079
 30
0.0
 10
-135.8503
 20
-48.0092
 30
0.0
  0
SPLINE
  5
4A
330
1F
100
AcDbEntity
  8
layer 1
 62
     7
100
AcDbSpline
210
0.0
220
0.0
230
1.0
 70
    11
 71
     3
 72
    28
 73
    24
 74
     0
 42
0.0000000001
 43
0.0000000001
 12
1.0
 22
0.0
 32
0.0
 13
1.0
 23
0.0
 33
0.0
 40
0.0
 40
0.0
 40
0.0
 40
0.0
 40
0.1428571428571428
 40
0.1428571428571428
 40
0.1428571428571428
 40
0.1428571428571428
 40
0.2857142857142857
 40
0.2857142857142857
 40
0.2857142857142857
 40
0.2857142857142857
 40
0.4285714285714285
 40
0.4285714285714285
 40
0.4285714285714285
 40
0.4285714285714285
 40
0.5714285714285714
 40
0.5714285714285714
 40
0.5714285714285714
 40
0.5714285714285714
 40
0.7142857142857143
 40
0.7142857142857143
 40
0.7142857142857143
 40
0.7142857142857143
 40
1.0
 40
1.0
 40
1.0
 40
1.0
 10
-131.9732
 20
-62.8909
 30
0.0
 10
-131.9732
 20
-62.8909
 30
0.0
 10
-131.9732
 20
-51.6357
 30
0.0
 10
-131.9732
 20
-51.6357
 30
0.0
 10
-131.9732
 20
-51.6357
 30
0.0
 10
-129.8473
 20
-46.7586
 30
0.0
 10
-125.4704
 20
-44.6327
 30
0.0
 10
-120.4681
 20
-44.6327
 30
0.0
 10
-120.4681
 20
-44.6327
 30
0.0
 10
-120.4681
 20
-44.6327
 30
0.0
 10
-120.4681
 20
-51.3858
 30
0.0
 10
-120.4681
 20
-51.3858
 30
0.0
 10
-120.4681
 20
-51.3858
 30
0.0
 10
-120.4681
 20
-51.3858
 30
0.0
 10
-113.715
 20
-51.3858
 30
0.0
 10
-113.715
 20
-51.3858
 30
0.0
 10
-113.715
 20
-51.3858
 30
0.0
 10
-113.715
 20
-56.3881
 30
0.0
 10
-115.8409
 20
-60.6399
 30
0.0
 10
-120.8432
 20
-62.8909
 30
0.0
 10
-120.8432
 20
-62.8909
 30
0.0
 10
-120.8432
 20
-62.8909
 30
0.0
 10
-131.9732
 20
-62.8909
 30
0.0
 10
-131.9732
 20
-62.8909
 30
0.0
  0
SPLINE
  5
4B
330
1F
100
AcDbEntity
  8
layer 1
 62
     7
100
AcDbSpline
210
0.0
220
0.0
230
1.0
 70
    11
 71
     3
 72
    28
 73
    24
 74
     0
 42
0.0000000001
 43
0.0000000001
 12
1.0
 22
0.0
 32
0.0
 13
1.0
 23
0.0
 33
0.0
 40
0.0
 40
0.0
 40
0.0
 40
0.0
 40
0.1428571428571428
 40
0.1428571428571428
 40
0.1428571428571428
 40
0.1428571428571428
 40
0.2857142857142857
 40
0.2857142857142857
 40
0.2857142857142857
 40
0.2857142857142857
 40
0.4285714285714285
 40
0.4285714285714285
 40
0.4285714285714285
 40
0.4285714285714285
 40
0.5714285714285714
 40
0.5714285714285714
 40
0.5714285714285714
 40
0.5714285714285714
 40
0.7142857142857143
 40
0.7142857142857143
 40
0.7142857142857143
 40
0.7142857142857143
 40
1.0
 40
1.0
 40
1.0
 40
1.0
 10
-89.7041
 20
-62.8909
 30
0.0
 10
-89.7041
 20
-62.8909
 30
0.0
 10
-100.9593
 20
-62.8909
 30
0.0
 10
-100.9593
 20
-62.8909
 30
0.0
 10
-100.9593
 20
-62.8909
 30
0.0
 10
-105.8364
 20
-60.6399
 30
0.0
 10
-107.9623
 20
-56.3881
 30
0.0
 10
-107.9623
 20
-51.3858
 30
0.0
 10
-107.9623
 20
-51.3858
 30
0.0
 10
-107.9623
 20
-51.3858
 30
0.0
 10
-101.2092
 20
-51.3858
 30
0.0
 10
-101.2092
 20
-51.3858
 30
0.0
 10
-101.2092
 20
-51.3858
 30
0.0
 10
-101.2092
 20
-51.3858
 30
0.0
 10
-101.2092
 20
-44.6327
 30
0.0
 10
-101.2092
 20
-44.6327
 30
0.0
 10
-101.2092
 20
-44.6327
 30
0.0
 10
-96.2069
 20
-44.6327
 30
0.0
 10
-91.9551
 20
-46.7586
 30
0.0
 10
-89.7041
 20
-51.7609
 30
0.0
 10
-89.7041
 20
-51.7609
 30
0.0
 10
-89.7041
 20
-51.7609
 30
0.0
 10
-89.7041
 20
-62.8909
 30
0.0
 10
-89.7041
 20
-62.8909
 30
0.0
  0
SPLINE
  5
4C
330
1F
100
AcDbEntity
  8
layer 1
 62
     7
100
AcDbSpline
210
0.0
220
0.0
230
1.0
 70
    11
 71
     3
 72
    28
 73
    24
 74
     0
 42
0.0000000001
 43
0.0000000001
 12
1.0
 22
0.0
 32
0.0
 13
1.0
 23
0.0
 33
0.0
 40
0.0
 40
0.0
 40
0.0
 40
0.0
 40
0.1428571428571428
 40
0.1428571428571428
 40
0.1428571428571428
 40
0.1428571428571428
 40
0.2857142857142857
 40
0.2857142857142857
 40
0.2857142857142857
 40
0.2857142857142857
 40
0.4285714285714285
 40
0.4285714285714285
 40
0.4285714285714285
 40
0.4285714285714285
 40
0.5714285714285714
 40
0.5714285714285714
 40
0.5714285714285714
 40
0.5714285714285714
 40
0.7142857142857143
 40
0.7142857142857143
 40
0.7142857142857143
 40
0.7142857142857143
 40
1.0
 40
1.0
 40
1.0
 40
1.0
 10
-89.7041
 20
-20.6214
 30
0.0
 10
-89.7041
 20
-20.6214
 30
0.0
 10
-89.7041
 20
-31.7518
 30
0.0
 10
-89.7041
 20
-31.7518
 30
0.0
 10
-89.7041
 20
-31.7518
 30
0.0
 10
-91.9551
 20
-36.754
 30
0.0
 10
-96.2069
 20
-38.8799
 30
0.0
 10
-101.2092
 20
-38.8799
 30
0.0
 10
-101.2092
 20
-38.8799
 30
0.0
 10
-101.2092
 20
-38.8799
 30
0.0
 10
-101.2092
 20
-32.1268
 30
0.0
 10
-101.2092
 20
-32.1268
 30
0.0
 10
-101.2092
 20
-32.1268
 30
0.0
 10
-101.2092
 20
-32.1268
 30
0.0
 10
-107.9623
 20
-32.1268
 30
0.0
 10
-107.9623
 20
-32.1268
 30
0.0
 10
-107.9623
 20
-32.1268
 30
0.0
 10
-107.9623
 20
-27.1246
 30
0.0
 10
-105.8364
 20
-22.7476
 30
0.0
 10
-100.9593
 20
-20.6214
 30
0.0
 10
-100.9593
 20
-20.6214
 30
0.0
 10
-100.9593
 20
-20.6214
 30
0.0
 10
-89.7041
 20
-20.6214
 30
0.0
 10
-89.7041
 20
-20.6214
 30
0.0
  0
SPLINE
  5
4D
330
1F
100
AcDbEntity
  8
layer 1
 62
     7
100
AcDbSpline
210
0.0
220
0.0
230
1.0
 70
    11
 71
     3
 72
    28
 73
    24
 74
     0
 42
0.0000000001
 43
0.0000000001
 12
1.0
 22
0.0
 32
0.0
 13
1.0
 23
0.0
 33
0.0
 40
0.0
 40
0.0
 40
0.0
 40
0.0
 40
0.1428571428571428
 40
0.1428571428571428
 40
0.1428571428571428
 40
0.1428571428571428
 40
0.2857142857142857
 40
0.2857142857142857
 40
0.2857142857142857
 40
0.2857142857142857
 40
0.4285714285714285
 40
0.4285714285714285
 40
0.4285714285714285
 40
0.4285714285714285
 40
0.5714285714285714
 40
0.5714285714285714
 40
0.5714285714285714
 40
0.5714285714285714
 40
0.7142857142857143
 40
0.7142857142857143
 40
0.7142857142857143
 40
0.7142857142857143
 40
1.0
 40
1.0
 40
1.0
 40
1.0
 10
-131.9732
 20
-20.6214
 30
0.0
 10
-131.9732
 20
-20.6214
 30
0.0
 10
-120.8432
 20
-20.6214
 30
0.0
 10
-120.8432
 20
-20.6214
 30
0.0
 10
-120.8432
 20
-20.6214
 30
0.0
 10
-115.8409
 20
-22.7476
 30
0.0
 10
-113.715
 20
-27.1246
 30
0.0
 10
-113.715
 20
-32.1268
 30
0.0
 10
-113.715
 20
-32.1268
 30
0.0
 10
-113.715
 20
-32.1268
 30
0.0
 10
-120.4681
 20
-32.1268
 30
0.0
 10
-120.4681
 20
-32.1268
 30
0.0
 10
-120.4681
 20
-32.1268
 30
0.0
 10
-120.4681
 20
-32.1268
 30
0.0
 10
-120.4681
 20
-38.8799
 30
0.0
 10
-120.4681
 20
-38.8799
 30
0.0
 10
-120.4681
 20
-38.8799
 30
0.0
 10
-125.4704
 20
-38.8799
 30
0.0
 10
-129.8473
 20
-36.754
 30
0.0
 10
-131.9732
 20
-31.7518
 30
0.0
 10
-131.9732
 20
-31.7518
 30
0.0
 10
-131.9732
 20
-31.7518
 30
0.0
 10
-131.9732
 20
-20.6214
 30
0.0
 10
-131.9732
 20
-20.6214
 30
0.0
  0
SPLINE
  5
4E
330
1F
100
AcDbEntity
  8
layer 1
 62
     7
100
AcDbSpline
210
0.0
220
0.0
230
1.0
 70
    11
 71
     3
 72
    20
 73
    16
 74
     0
 42
0.0000000001
 43
0.0000000001
 12
1.0
 22
0.0
 32
0.0
 13
1.0
 23
0.0
 33
0.0
 40
0.0
 40
0.0
 40
0.0
 40
0.0
 40
0.2
 40
0.2
 40
0.2
 40
0.2
 40
0.4
 40
0.4
 40
0.4
 40
0.4
 40
0.6
 40
0.6
 40
0.6
 40
0.6
 40
1.0
 40
1.0
 40
1.0
 40
1.0
 10
-116.5914
 20
-47.509
 30
0.0
 10
-116.5914
 20
-47.509
 30
0.0
 10
-116.5914
 20
-36.0688
 30
0.0
 10
-116.5914
 20
-36.0688
 30
0.0
 10
-116.5914
 20
-36.0688
 30
0.0
 10
-116.5914
 20
-36.0688
 30
0.0
 10
-105.1511
 20
-36.0688
 30
0.0
 10
-105.1511
 20
-36.0688
 30
0.0
 10
-105.1511
 20
-36.0688
 30
0.0
 10
-105.1511
 20
-36.0688
 30
0.0
 10
-105.1511
 20
-47.509
 30
0.0
 10
-105.1511
 20
-47.509
 30
0.0
 10
-105.1511
 20
-47.509
 30
0.0
 10
-105.1511
 20
-47.509
 30
0.0
 10
-116.5914
 20
-47.509
 30
0.0
 10
-116.5914
 20
-47.509
 30
0.0
  0
SPLINE
  5
4F
330
1F
100
AcDbEntity
  8
layer 1
 62
     7
100
AcDbSpline
210
0.0
220
0.0
230
1.0
 70
    11
 71
     3
 72
    20
 73
    16
 74
     0
 42
0.0000000001
 43
0.0000000001
 12
1.0
 22
0.0
 32
0.0
 13
1.0
 23
0.0
 33
0.0
 40
0.0
 40
0.0
 40
0.0
 40
0.0
 40
0.2
 40
0.2
 40
0.2
 40
0.2
 40
0.4
 40
0.4
 40
0.4
 40
0.4
 40
0.6
 40
0.6
 40
0.6
 40
0.6
 40
1.0
 40
1.0
 40
1.0
 40
1.0
 10
-85.827
 20
-98.1574
 30
0.0
 10
-87.0776
 20
-95.6185
 30
0.0
 10
-89.2035
 20
-93.4426
 30
0.0
 10
-91.83
 20
-91.8793
 30
0.0
 10
-91.83
 20
-91.8793
 30
0.0
 10
-89.2035
 20
-90.3036
 30
0.0
 10
-87.0776
 20
-88.1277
 30
0.0
 10
-85.827
 20
-85.5892
 30
0.0
 10
-85.827
 20
-85.5892
 30
0.0
 10
-84.4515
 20
-88.1277
 30
0.0
 10
-82.4504
 20
-90.3036
 30
0.0
 10
-79.6992
 20
-91.8793
 30
0.0
 10
-79.6992
 20
-91.8793
 30
0.0
 10
-82.4504
 20
-93.4426
 30
0.0
 10
-84.4515
 20
-95.6185
 30
0.0
 10
-85.827
 20
-98.1574
 30
0.0
  0
SPLINE
  5
50
330
1F
100
AcDbEntity
  8
layer 1
 62
     7
100
AcDbSpline
210
0.0
220
0.0
230
1.0
 70
    11
 71
     3
 72
    28
 73
    24
 74
     0
 42
0.0000000001
 43
0.0000000001
 12
1.0
 22
0.0
 32
0.0
 13
1.0
 23
0.0
 33
0.0
 40
0.0
 40
0.0
 40
0.0
 40
0.0
 40
0.1428571428571428
 40
0.1428571428571428
 40
0.1428571428571428
 40
0.1428571428571428
 40
0.2857142857142857
 40
0.2857142857142857
 40
0.2857142857142857
 40
0.2857142857142857
 40
0.4285714285714285
 40
0.4285714285714285
 40
0.4285714285714285
 40
0.4285714285714285
 40
0.5714285714285714
 40
0.5714285714285714
 40
0.5714285714285714
 40
0.5714285714285714
 40
0.7142857142857143
 40
0.7142857142857143
 40
0.7142857142857143
 40
0.7142857142857143
 40
1.0
 40
1.0
 40
1.0
 40
1.0
 10
-81.8254
 20
-107.3867
 30
0.0
 10
-81.8254
 20
-107.3867
 30
0.0
 10
-81.8254
 20
-101.8339
 30
0.0
 10
-81.8254
 20
-101.8339
 30
0.0
 10
-81.8254
 20
-101.8339
 30
0.0
 10
-79.6992
 20
-96.8568
 30
0.0
 10
-75.3222
 20
-94.7433
 30
0.0
 10
-70.32
 20
-94.7933
 30
0.0
 10
-70.32
 20
-94.7933
 30
0.0
 10
-70.32
 20
-94.7933
 30
0.0
 10
-70.32
 20
-101.4964
 30
0.0
 10
-70.32
 20
-101.4964
 30
0.0
 10
-70.32
 20
-101.4964
 30
0.0
 10
-70.32
 20
-101.4964
 30
0.0
 10
-63.692
 20
-101.5088
 30
0.0
 10
-63.692
 20
-101.5088
 30
0.0
 10
-63.692
 20
-101.5088
 30
0.0
 10
-63.5668
 20
-103.6223
 30
0.0
 10
-63.9419
 20
-105.6234
 30
0.0
 10
-64.8175
 20
-107.3867
 30
0.0
 10
-64.8175
 20
-107.3867
 30
0.0
 10
-64.8175
 20
-107.3867
 30
0.0
 10
-81.8254
 20
-107.3867
 30
0.0
 10
-81.8254
 20
-107.3867
 30
0.0
  0
SPLINE
  5
51
330
1F
100
AcDbEntity
  8
layer 1
 62
     7
100
AcDbSpline
210
0.0
220
0.0
230
1.0
 70
    11
 71
     3
 72
    28
 73
    24
 74
     0
 42
0.0000000001
 43
0.0000000001
 12
1.0
 22
0.0
 32
0.0
 13
1.0
 23
0.0
 33
0.0
 40
0.0
 40
0.0
 40
0.0
 40
0.0
 40
0.1428571428571428
 40
0.1428571428571428
 40
0.1428571428571428
 40
0.1428571428571428
 40
0.2857142857142857
 40
0.2857142857142857
 40
0.2857142857142857
 40
0.2857142857142857
 40
0.4285714285714285
 40
0.4285714285714285
 40
0.4285714285714285
 40
0.4285714285714285
 40
0.5714285714285714
 40
0.5714285714285714
 40
0.5714285714285714
 40
0.5714285714285714
 40
0.7142857142857143
 40
0.7142857142857143
 40
0.7142857142857143
 40
0.7142857142857143
 40
1.0
 40
1.0
 40
1.0
 40
1.0
 10
-56.6886
 20
-107.3867
 30
0.0
 10
-57.4391
 20
-105.6234
 30
0.0
 10
-57.8141
 20
-103.6223
 30
0.0
 10
-57.8141
 20
-101.5088
 30
0.0
 10
-57.8141
 20
-101.5088
 30
0.0
 10
-57.8141
 20
-101.5088
 30
0.0
 10
-51.061
 20
-101.5088
 30
0.0
 10
-51.061
 20
-101.5088
 30
0.0
 10
-51.061
 20
-101.5088
 30
0.0
 10
-51.061
 20
-101.5088
 30
0.0
 10
-51.061
 20
-94.7933
 30
0.0
 10
-51.061
 20
-94.7933
 30
0.0
 10
-51.061
 20
-94.7933
 30
0.0
 10
-47.8096
 20
-94.7557
 30
0.0
 10
-44.8081
 20
-95.6437
 30
0.0
 10
-42.557
 20
-97.6572
 30
0.0
 10
-42.557
 20
-97.6572
 30
0.0
 10
-42.557
 20
-97.6572
 30
0.0
 10
-42.557
 20
-107.3867
 30
0.0
 10
-42.557
 20
-107.3867
 30
0.0
 10
-42.557
 20
-107.3867
 30
0.0
 10
-42.557
 20
-107.3867
 30
0.0
 10
-56.6886
 20
-107.3867
 30
0.0
 10
-56.6886
 20
-107.3867
 30
0.0
  0
SPLINE
  5
52
330
1F
100
AcDbEntity
  8
layer 1
 62
     7
100
AcDbSpline
210
0.0
220
0.0
230
1.0
 70
    11
 71
     3
 72
    28
 73
    24
 74
     0
 42
0.0000000001
 43
0.0000000001
 12
1.0
 22
0.0
 32
0.0
 13
1.0
 23
0.0
 33
0.0
 40
0.0
 40
0.0
 40
0.0
 40
0.0
 40
0.1428571428571428
 40
0.1428571428571428
 40
0.1428571428571428
 40
0.1428571428571428
 40
0.2857142857142857
 40
0.2857142857142857
 40
0.2857142857142857
 40
0.2857142857142857
 40
0.4285714285714285
 40
0.4285714285714285
 40
0.4285714285714285
 40
0.4285714285714285
 40
0.5714285714285714
 40
0.5714285714285714
 40
0.5714285714285714
 40
0.5714285714285714
 40
0.7142857142857143
 40
0.7142857142857143
 40
0.7142857142857143
 40
0.7142857142857143
 40
1.0
 40
1.0
 40
1.0
 40
1.0
 10
-42.557
 20
-86.1018
 30
0.0
 10
-44.8081
 20
-88.1025
 30
0.0
 10
-47.8096
 20
-88.9905
 30
0.0
 10
-51.061
 20
-88.9657
 30
0.0
 10
-51.061
 20
-88.9657
 30
0.0
 10
-51.061
 20
-88.9657
 30
0.0
 10
-51.061
 20
-82.2498
 30
0.0
 10
-51.061
 20
-82.2498
 30
0.0
 10
-51.061
 20
-82.2498
 30
0.0
 10
-51.061
 20
-82.2498
 30
0.0
 10
-57.8141
 20
-82.2498
 30
0.0
 10
-57.8141
 20
-82.2498
 30
0.0
 10
-57.8141
 20
-82.2498
 30
0.0
 10
-57.8141
 20
-77.2352
 30
0.0
 10
-55.6882
 20
-72.8958
 30
0.0
 10
-50.8111
 20
-70.7695
 30
0.0
 10
-50.8111
 20
-70.7695
 30
0.0
 10
-50.8111
 20
-70.7695
 30
0.0
 10
-42.557
 20
-70.7695
 30
0.0
 10
-42.557
 20
-70.7695
 30
0.0
 10
-42.557
 20
-70.7695
 30
0.0
 10
-42.557
 20
-70.7695
 30
0.0
 10
-42.557
 20
-86.1018
 30
0.0
 10
-42.557
 20
-86.1018
 30
0.0
  0
SPLINE
  5
53
330
1F
100
AcDbEntity
  8
layer 1
 62
     7
100
AcDbSpline
210
0.0
220
0.0
230
1.0
 70
    11
 71
     3
 72
    28
 73
    24
 74
     0
 42
0.0000000001
 43
0.0000000001
 12
1.0
 22
0.0
 32
0.0
 13
1.0
 23
0.0
 33
0.0
 40
0.0
 40
0.0
 40
0.0
 40
0.0
 40
0.1428571428571428
 40
0.1428571428571428
 40
0.1428571428571428
 40
0.1428571428571428
 40
0.2857142857142857
 40
0.2857142857142857
 40
0.2857142857142857
 40
0.2857142857142857
 40
0.4285714285714285
 40
0.4285714285714285
 40
0.4285714285714285
 40
0.4285714285714285
 40
0.5714285714285714
 40
0.5714285714285714
 40
0.5714285714285714
 40
0.5714285714285714
 40
0.7142857142857143
 40
0.7142857142857143
 40
0.7142857142857143
 40
0.7142857142857143
 40
1.0
 40
1.0
 40
1.0
 40
1.0
 10
-81.8254
 20
-70.7695
 30
0.0
 10
-81.8254
 20
-70.7695
 30
0.0
 10
-70.695
 20
-70.7695
 30
0.0
 10
-70.695
 20
-70.7695
 30
0.0
 10
-70.695
 20
-70.7695
 30
0.0
 10
-65.6928
 20
-72.8958
 30
0.0
 10
-63.5668
 20
-77.2352
 30
0.0
 10
-63.692
 20
-82.2498
 30
0.0
 10
-63.692
 20
-82.2498
 30
0.0
 10
-63.692
 20
-82.2498
 30
0.0
 10
-70.32
 20
-82.2498
 30
0.0
 10
-70.32
 20
-82.2498
 30
0.0
 10
-70.32
 20
-82.2498
 30
0.0
 10
-70.32
 20
-82.2498
 30
0.0
 10
-70.32
 20
-88.953
 30
0.0
 10
-70.32
 20
-88.953
 30
0.0
 10
-70.32
 20
-88.953
 30
0.0
 10
-75.3222
 20
-89.003
 30
0.0
 10
-79.6992
 20
-86.8895
 30
0.0
 10
-81.8254
 20
-81.9248
 30
0.0
 10
-81.8254
 20
-81.9248
 30
0.0
 10
-81.8254
 20
-81.9248
 30
0.0
 10
-81.8254
 20
-70.7695
 30
0.0
 10
-81.8254
 20
-70.7695
 30
0.0
  0
SPLINE
  5
54
330
1F
100
AcDbEntity
  8
layer 1
 62
     7
100
AcDbSpline
210
0.0
220
0.0
230
1.0
 70
    11
 71
     3
 72
    20
 73
    16
 74
     0
 42
0.0000000001
 43
0.0000000001
 12
1.0
 22
0.0
 32
0.0
 13
1.0
 23
0.0
 33
0.0
 40
0.0
 40
0.0
 40
0.0
 40
0.0
 40
0.2
 40
0.2
 40
0.2
 40
0.2
 40
0.4
 40
0.4
 40
0.4
 40
0.4
 40
0.6
 40
0.6
 40
0.6
 40
0.6
 40
1.0
 40
1.0
 40
1.0
 40
1.0
 10
-66.4432
 20
-97.5945
 30
0.0
 10
-66.4432
 20
-97.5945
 30
0.0
 10
-66.4432
 20
-86.1532
 30
0.0
 10
-66.4432
 20
-86.1532
 30
0.0
 10
-66.4432
 20
-86.1532
 30
0.0
 10
-66.4432
 20
-86.1532
 30
0.0
 10
-55.003
 20
-86.1532
 30
0.0
 10
-55.003
 20
-86.1532
 30
0.0
 10
-55.003
 20
-86.1532
 30
0.0
 10
-55.003
 20
-86.1532
 30
0.0
 10
-55.003
 20
-97.5945
 30
0.0
 10
-55.003
 20
-97.5945
 30
0.0
 10
-55.003
 20
-97.5945
 30
0.0
 10
-55.003
 20
-97.5945
 30
0.0
 10
-66.4432
 20
-97.5945
 30
0.0
 10
-66.4432
 20
-97.5945
 30
0.0
  0
SPLINE
  5
55
330
1F
100
AcDbEntity
  8
layer 1
 62
     7
100
AcDbSpline
210
0.0
220
0.0
230
1.0
 70
    11
 71
     3
 72
    20
 73
    16
 74
     0
 42
0.0000000001
 43
0.0000000001
 12
1.0
 22
0.0
 32
0.0
 13
1.0
 23
0.0
 33
0.0
 40
0.0
 40
0.0
 40
0.0
 40
0.0
 40
0.2
 40
0.2
 40
0.2
 40
0.2
 40
0.4
 40
0.4
 40
0.4
 40
0.4
 40
0.6
 40
0.6
 40
0.6
 40
0.6
 40
1.0
 40
1.0
 40
1.0
 40
1.0
 10
-117.0916
 20
-16.7446
 30
0.0
 10
-114.5903
 20
-15.3692
 30
0.0
 10
-112.4644
 20
-13.3681
 30
0.0
 10
-110.8387
 20
-10.6168
 30
0.0
 10
-110.8387
 20
-10.6168
 30
0.0
 10
-109.3381
 20
-13.3681
 30
0.0
 10
-107.087
 20
-15.3692
 30
0.0
 10
-104.5857
 20
-16.7446
 30
0.0
 10
-104.5857
 20
-16.7446
 30
0.0
 10
-107.087
 20
-17.9953
 30
0.0
 10
-109.3381
 20
-19.9964
 30
0.0
 10
-110.8387
 20
-22.7476
 30
0.0
 10
-110.8387
 20
-22.7476
 30
0.0
 10
-112.4644
 20
-19.9964
 30
0.0
 10
-114.5903
 20
-17.9953
 30
0.0
 10
-117.0916
 20
-16.7446
 30
0.0
  0
SPLINE
  5
56
330
1F
100
AcDbEntity
  8
layer 1
 62
     7
100
AcDbSpline
210
0.0
220
0.0
230
1.0
 70
    11
 71
     3
 72
    20
 73
    16
 74
     0
 42
0.0000000001
 43
0.0000000001
 12
1.0
 22
0.0
 32
0.0
 13
1.0
 23
0.0
 33
0.0
 40
0.0
 40
0.0
 40
0.0
 40
0.0
 40
0.2
 40
0.2
 40
0.2
 40
0.2
 40
0.4
 40
0.4
 40
0.4
 40
0.4
 40
0.6
 40
0.6
 40
0.6
 40
0.6
 40
1.0
 40
1.0
 40
1.0
 40
1.0
 10
-135.8503
 20
2.1389
 30
0.0
 10
-137.2258
 20
4.6402
 30
0.0
 10
-139.2269
 20
6.7661
 30
0.0
 10
-141.9781
 20
8.3919
 30
0.0
 10
-141.9781
 20
8.3919
 30
0.0
 10
-139.2269
 20
10.0176
 30
0.0
 10
-137.2258
 20
12.1435
 30
0.0
 10
-135.8503
 20
14.6448
 30
0.0
 10
-135.8503
 20
14.6448
 30
0.0
 10
-134.5997
 20
12.1435
 30
0.0
 10
-132.5986
 20
10.0176
 30
0.0
 10
-129.8473
 20
8.3919
 30
0.0
 10
-129.8473
 20
8.3919
 30
0.0
 10
-132.5986
 20
6.7661
 30
0.0
 10
-134.5997
 20
4.6402
 30
0.0
 10
-135.8503
 20
2.1389
 30
0.0
  0
SPLINE
  5
57
330
1F
100
AcDbEntity
  8
layer 1
 62
     7
100
AcDbSpline
210
0.0
220
0.0
230
1.0
 70
    11
 71
     3
 72
    28
 73
    24
 74
     0
 42
0.0000000001
 43
0.0000000001
 12
1.0
 22
0.0
 32
0.0
 13
1.0
 23
0.0
 33
0.0
 40
0.0
 40
0.0
 40
0.0
 40
0.0
 40
0.1428571428571428
 40
0.1428571428571428
 40
0.1428571428571428
 40
0.1428571428571428
 40
0.2857142857142857
 40
0.2857142857142857
 40
0.2857142857142857
 40
0.2857142857142857
 40
0.4285714285714285
 40
0.4285714285714285
 40
0.4285714285714285
 40
0.4285714285714285
 40
0.5714285714285714
 40
0.5714285714285714
 40
0.5714285714285714
 40
0.5714285714285714
 40
0.7142857142857143
 40
0.7142857142857143
 40
0.7142857142857143
 40
0.7142857142857143
 40
1.0
 40
1.0
 40
1.0
 40
1.0
 10
-131.9732
 20
-12.7427
 30
0.0
 10
-131.9732
 20
-12.7427
 30
0.0
 10
-131.9732
 20
-1.6127
 30
0.0
 10
-131.9732
 20
-1.6127
 30
0.0
 10
-131.9732
 20
-1.6127
 30
0.0
 10
-129.8473
 20
3.3896
 30
0.0
 10
-125.4704
 20
5.5155
 30
0.0
 10
-120.4681
 20
5.5155
 30
0.0
 10
-120.4681
 20
5.5155
 30
0.0
 10
-120.4681
 20
5.5155
 30
0.0
 10
-120.4681
 20
-1.2376
 30
0.0
 10
-120.4681
 20
-1.2376
 30
0.0
 10
-120.4681
 20
-1.2376
 30
0.0
 10
-120.4681
 20
-1.2376
 30
0.0
 10
-113.715
 20
-1.2376
 30
0.0
 10
-113.715
 20
-1.2376
 30
0.0
 10
-113.715
 20
-1.2376
 30
0.0
 10
-113.715
 20
-6.2399
 30
0.0
 10
-115.8409
 20
-10.6168
 30
0.0
 10
-120.8432
 20
-12.7427
 30
0.0
 10
-120.8432
 20
-12.7427
 30
0.0
 10
-120.8432
 20
-12.7427
 30
0.0
 10
-131.9732
 20
-12.7427
 30
0.0
 10
-131.9732
 20
-12.7427
 30
0.0
  0
SPLINE
  5
58
330
1F
100
AcDbEntity
  8
layer 1
 62
     7
100
AcDbSpline
210
0.0
220
0.0
230
1.0
 70
    11
 71
     3
 72
    28
 73
    24
 74
     0
 42
0.0000000001
 43
0.0000000001
 12
1.0
 22
0.0
 32
0.0
 13
1.0
 23
0.0
 33
0.0
 40
0.0
 40
0.0
 40
0.0
 40
0.0
 40
0.1428571428571428
 40
0.1428571428571428
 40
0.1428571428571428
 40
0.1428571428571428
 40
0.2857142857142857
 40
0.2857142857142857
 40
0.2857142857142857
 40
0.2857142857142857
 40
0.4285714285714285
 40
0.4285714285714285
 40
0.4285714285714285
 40
0.4285714285714285
 40
0.5714285714285714
 40
0.5714285714285714
 40
0.5714285714285714
 40
0.5714285714285714
 40
0.7142857142857143
 40
0.7142857142857143
 40
0.7142857142857143
 40
0.7142857142857143
 40
1.0
 40
1.0
 40
1.0
 40
1.0
 10
-89.7041
 20
-12.7427
 30
0.0
 10
-89.7041
 20
-12.7427
 30
0.0
 10
-100.9593
 20
-12.7427
 30
0.0
 10
-100.9593
 20
-12.7427
 30
0.0
 10
-100.9593
 20
-12.7427
 30
0.0
 10
-105.8364
 20
-10.6168
 30
0.0
 10
-107.9623
 20
-6.2399
 30
0.0
 10
-107.9623
 20
-1.2376
 30
0.0
 10
-107.9623
 20
-1.2376
 30
0.0
 10
-107.9623
 20
-1.2376
 30
0.0
 10
-101.2092
 20
-1.2376
 30
0.0
 10
-101.2092
 20
-1.2376
 30
0.0
 10
-101.2092
 20
-1.2376
 30
0.0
 10
-101.2092
 20
-1.2376
 30
0.0
 10
-101.2092
 20
5.5155
 30
0.0
 10
-101.2092
 20
5.5155
 30
0.0
 10
-101.2092
 20
5.5155
 30
0.0
 10
-96.2069
 20
5.5155
 30
0.0
 10
-91.9551
 20
3.3896
 30
0.0
 10
-89.7041
 20
-1.6127
 30
0.0
 10
-89.7041
 20
-1.6127
 30
0.0
 10
-89.7041
 20
-1.6127
 30
0.0
 10
-89.7041
 20
-12.7427
 30
0.0
 10
-89.7041
 20
-12.7427
 30
0.0
  0
SPLINE
  5
59
330
1F
100
AcDbEntity
  8
layer 1
 62
     7
100
AcDbSpline
210
0.0
220
0.0
230
1.0
 70
    11
 71
     3
 72
    28
 73
    24
 74
     0
 42
0.0000000001
 43
0.0000000001
 12
1.0
 22
0.0
 32
0.0
 13
1.0
 23
0.0
 33
0.0
 40
0.0
 40
0.0
 40
0.0
 40
0.0
 40
0.1428571428571428
 40
0.1428571428571428
 40
0.1428571428571428
 40
0.1428571428571428
 40
0.2857142857142857
 40
0.2857142857142857
 40
0.2857142857142857
 40
0.2857142857142857
 40
0.4285714285714285
 40
0.4285714285714285
 40
0.4285714285714285
 40
0.4285714285714285
 40
0.5714285714285714
 40
0.5714285714285714
 40
0.5714285714285714
 40
0.5714285714285714
 40
0.7142857142857143
 40
0.7142857142857143
 40
0.7142857142857143
 40
0.7142857142857143
 40
1.0
 40
1.0
 40
1.0
 40
1.0
 10
-89.7041
 20
29.5264
 30
0.0
 10
-89.7041
 20
29.5264
 30
0.0
 10
-89.7041
 20
18.3964
 30
0.0
 10
-89.7041
 20
18.3964
 30
0.0
 10
-89.7041
 20
18.3964
 30
0.0
 10
-91.9551
 20
13.3941
 30
0.0
 10
-96.2069
 20
11.2682
 30
0.0
 10
-101.2092
 20
11.2682
 30
0.0
 10
-101.2092
 20
11.2682
 30
0.0
 10
-101.2092
 20
11.2682
 30
0.0
 10
-101.2092
 20
18.0213
 30
0.0
 10
-101.2092
 20
18.0213
 30
0.0
 10
-101.2092
 20
18.0213
 30
0.0
 10
-101.2092
 20
18.0213
 30
0.0
 10
-107.9623
 20
18.0213
 30
0.0
 10
-107.9623
 20
18.0213
 30
0.0
 10
-107.9623
 20
18.0213
 30
0.0
 10
-107.9623
 20
23.0236
 30
0.0
 10
-105.8364
 20
27.4005
 30
0.0
 10
-100.9593
 20
29.5264
 30
0.0
 10
-100.9593
 20
29.5264
 30
0.0
 10
-100.9593
 20
29.5264
 30
0.0
 10
-89.7041
 20
29.5264
 30
0.0
 10
-89.7041
 20
29.5264
 30
0.0
  0
SPLINE
  5
5A
330
1F
100
AcDbEntity
  8
layer 1
 62
     7
100
AcDbSpline
210
0.0
220
0.0
230
1.0
 70
    11
 71
     3
 72
    28
 73
    24
 74
     0
 42
0.0000000001
 43
0.0000000001
 12
1.0
 22
0.0
 32
0.0
 13
1.0
 23
0.0
 33
0.0
 40
0.0
 40
0.0
 40
0.0
 40
0.0
 40
0.1428571428571428
 40
0.1428571428571428
 40
0.1428571428571428
 40
0.1428571428571428
 40
0.2857142857142857
 40
0.2857142857142857
 40
0.2857142857142857
 40
0.2857142857142857
 40
0.4285714285714285
 40
0.4285714285714285
 40
0.4285714285714285
 40
0.4285714285714285
 40
0.5714285714285714
 40
0.5714285714285714
 40
0.5714285714285714
 40
0.5714285714285714
 40
0.7142857142857143
 40
0.7142857142857143
 40
0.7142857142857143
 40
0.7142857142857143
 40
1.0
 40
1.0
 40
1.0
 40
1.0
 10
-131.9732
 20
29.5264
 30
0.0
 10
-131.9732
 20
29.5264
 30
0.0
 10
-120.8432
 20
29.5264
 30
0.0
 10
-120.8432
 20
29.5264
 30
0.0
 10
-120.8432
 20
29.5264
 30
0.0
 10
-115.8409
 20
27.4005
 30
0.0
 10
-113.715
 20
23.0236
 30
0.0
 10
-113.715
 20
18.0213
 30
0.0
 10
-113.715
 20
18.0213
 30
0.0
 10
-113.715
 20
18.0213
 30
0.0
 10
-120.4681
 20
18.0213
 30
0.0
 10
-120.4681
 20
18.0213
 30
0.0
 10
-120.4681
 20
18.0213
 30
0.0
 10
-120.4681
 20
18.0213
 30
0.0
 10
-120.4681
 20
11.2682
 30
0.0
 10
-120.4681
 20
11.2682
 30
0.0
 10
-120.4681
 20
11.2682
 30
0.0
 10
-125.4704
 20
11.2682
 30
0.0
 10
-129.8473
 20
13.3941
 30
0.0
 10
-131.9732
 20
18.3964
 30
0.0
 10
-131.9732
 20
18.3964
 30
0.0
 10
-131.9732
 20
18.3964
 30
0.0
 10
-131.9732
 20
29.5264
 30
0.0
 10
-131.9732
 20
29.5264
 30
0.0
  0
SPLINE
  5
5B
330
1F
100
AcDbEntity
  8
layer 1
 62
     7
100
AcDbSpline
210
0.0
220
0.0
230
1.0
 70
    11
 71
     3
 72
    20
 73
    16
 74
     0
 42
0.0000000001
 43
0.0000000001
 12
1.0
 22
0.0
 32
0.0
 13
1.0
 23
0.0
 33
0.0
 40
0.0
 40
0.0
 40
0.0
 40
0.0
 40
0.2
 40
0.2
 40
0.2
 40
0.2
 40
0.4
 40
0.4
 40
0.4
 40
0.4
 40
0.6
 40
0.6
 40
0.6
 40
0.6
 40
1.0
 40
1.0
 40
1.0
 40
1.0
 10
-116.5914
 20
2.6391
 30
0.0
 10
-116.5914
 20
2.6391
 30
0.0
 10
-116.5914
 20
14.0794
 30
0.0
 10
-116.5914
 20
14.0794
 30
0.0
 10
-116.5914
 20
14.0794
 30
0.0
 10
-116.5914
 20
14.0794
 30
0.0
 10
-105.1511
 20
14.0794
 30
0.0
 10
-105.1511
 20
14.0794
 30
0.0
 10
-105.1511
 20
14.0794
 30
0.0
 10
-105.1511
 20
14.0794
 30
0.0
 10
-105.1511
 20
2.6391
 30
0.0
 10
-105.1511
 20
2.6391
 30
0.0
 10
-105.1511
 20
2.6391
 30
0.0
 10
-105.1511
 20
2.6391
 30
0.0
 10
-116.5914
 20
2.6391
 30
0.0
 10
-116.5914
 20
2.6391
 30
0.0
  0
SPLINE
  5
5C
330
1F
100
AcDbEntity
  8
layer 1
 62
     7
100
AcDbSpline
210
0.0
220
0.0
230
1.0
 70
    11
 71
     3
 72
    20
 73
    16
 74
     0
 42
0.0000000001
 43
0.0000000001
 12
1.0
 22
0.0
 32
0.0
 13
1.0
 23
0.0
 33
0.0
 40
0.0
 40
0.0
 40
0.0
 40
0.0
 40
0.2
 40
0.2
 40
0.2
 40
0.2
 40
0.4
 40
0.4
 40
0.4
 40
0.4
 40
0.6
 40
0.6
 40
0.6
 40
0.6
 40
1.0
 40
1.0
 40
1.0
 40
1.0
 10
-67.0685
 20
-66.7677
 30
0.0
 10
-64.4421
 20
-65.5174
 30
0.0
 10
-62.3162
 20
-63.5162
 30
0.0
 10
-60.6905
 20
-60.765
 30
0.0
 10
-60.6905
 20
-60.765
 30
0.0
 10
-59.1899
 20
-63.5162
 30
0.0
 10
-56.9389
 20
-65.5174
 30
0.0
 10
-54.4376
 20
-66.7677
 30
0.0
 10
-54.4376
 20
-66.7677
 30
0.0
 10
-56.9389
 20
-68.1434
 30
0.0
 10
-59.1899
 20
-70.1442
 30
0.0
 10
-60.6905
 20
-72.8958
 30
0.0
 10
-60.6905
 20
-72.8958
 30
0.0
 10
-62.3162
 20
-70.1442
 30
0.0
 10
-64.4421
 20
-68.1434
 30
0.0
 10
-67.0685
 20
-66.7677
 30
0.0
  0
SPLINE
  5
5D
330
1F
100
AcDbEntity
  8
layer 1
 62
     7
100
AcDbSpline
210
0.0
220
0.0
230
1.0
 70
    11
 71
     3
 72
    20
 73
    16
 74
     0
 42
0.0000000001
 43
0.0000000001
 12
1.0
 22
0.0
 32
0.0
 13
1.0
 23
0.0
 33
0.0
 40
0.0
 40
0.0
 40
0.0
 40
0.0
 40
0.2
 40
0.2
 40
0.2
 40
0.2
 40
0.4
 40
0.4
 40
0.4
 40
0.4
 40
0.6
 40
0.6
 40
0.6
 40
0.6
 40
1.0
 40
1.0
 40
1.0
 40
1.0
 10
-85.827
 20
-48.0092
 30
0.0
 10
-87.0776
 20
-45.5079
 30
0.0
 10
-89.2035
 20
-43.2569
 30
0.0
 10
-91.83
 20
-41.7563
 30
0.0
 10
-91.83
 20
-41.7563
 30
0.0
 10
-89.2035
 20
-40.1306
 30
0.0
 10
-87.0776
 20
-38.0047
 30
0.0
 10
-85.827
 20
-35.5034
 30
0.0
 10
-85.827
 20
-35.5034
 30
0.0
 10
-84.4515
 20
-38.0047
 30
0.0
 10
-82.4504
 20
-40.1306
 30
0.0
 10
-79.6992
 20
-41.7563
 30
0.0
 10
-79.6992
 20
-41.7563
 30
0.0
 10
-82.4504
 20
-43.2569
 30
0.0
 10
-84.4515
 20
-45.5079
 30
0.0
 10
-85.827
 20
-48.0092
 30
0.0
  0
SPLINE
  5
5E
330
1F
100
AcDbEntity
  8
layer 1
 62
     7
100
AcDbSpline
210
0.0
220
0.0
230
1.0
 70
    11
 71
     3
 72
    28
 73
    24
 74
     0
 42
0.0000000001
 43
0.0000000001
 12
1.0
 22
0.0
 32
0.0
 13
1.0
 23
0.0
 33
0.0
 40
0.0
 40
0.0
 40
0.0
 40
0.0
 40
0.1428571428571428
 40
0.1428571428571428
 40
0.1428571428571428
 40
0.1428571428571428
 40
0.2857142857142857
 40
0.2857142857142857
 40
0.2857142857142857
 40
0.2857142857142857
 40
0.4285714285714285
 40
0.4285714285714285
 40
0.4285714285714285
 40
0.4285714285714285
 40
0.5714285714285714
 40
0.5714285714285714
 40
0.5714285714285714
 40
0.5714285714285714
 40
0.7142857142857143
 40
0.7142857142857143
 40
0.7142857142857143
 40
0.7142857142857143
 40
1.0
 40
1.0
 40
1.0
 40
1.0
 10
-81.8254
 20
-62.8909
 30
0.0
 10
-81.8254
 20
-62.8909
 30
0.0
 10
-81.8254
 20
-51.6357
 30
0.0
 10
-81.8254
 20
-51.6357
 30
0.0
 10
-81.8254
 20
-51.6357
 30
0.0
 10
-79.6992
 20
-46.7586
 30
0.0
 10
-75.3222
 20
-44.6327
 30
0.0
 10
-70.32
 20
-44.6327
 30
0.0
 10
-70.32
 20
-44.6327
 30
0.0
 10
-70.32
 20
-44.6327
 30
0.0
 10
-70.32
 20
-51.3858
 30
0.0
 10
-70.32
 20
-51.3858
 30
0.0
 10
-70.32
 20
-51.3858
 30
0.0
 10
-70.32
 20
-51.3858
 30
0.0
 10
-63.692
 20
-51.3858
 30
0.0
 10
-63.692
 20
-51.3858
 30
0.0
 10
-63.692
 20
-51.3858
 30
0.0
 10
-63.5668
 20
-56.3881
 30
0.0
 10
-65.6928
 20
-60.6399
 30
0.0
 10
-70.695
 20
-62.8909
 30
0.0
 10
-70.695
 20
-62.8909
 30
0.0
 10
-70.695
 20
-62.8909
 30
0.0
 10
-81.8254
 20
-62.8909
 30
0.0
 10
-81.8254
 20
-62.8909
 30
0.0
  0
SPLINE
  5
5F
330
1F
100
AcDbEntity
  8
layer 1
 62
     7
100
AcDbSpline
210
0.0
220
0.0
230
1.0
 70
    11
 71
     3
 72
    28
 73
    24
 74
     0
 42
0.0000000001
 43
0.0000000001
 12
1.0
 22
0.0
 32
0.0
 13
1.0
 23
0.0
 33
0.0
 40
0.0
 40
0.0
 40
0.0
 40
0.0
 40
0.1428571428571428
 40
0.1428571428571428
 40
0.1428571428571428
 40
0.1428571428571428
 40
0.2857142857142857
 40
0.2857142857142857
 40
0.2857142857142857
 40
0.2857142857142857
 40
0.4285714285714285
 40
0.4285714285714285
 40
0.4285714285714285
 40
0.4285714285714285
 40
0.5714285714285714
 40
0.5714285714285714
 40
0.5714285714285714
 40
0.5714285714285714
 40
0.7142857142857143
 40
0.7142857142857143
 40
0.7142857142857143
 40
0.7142857142857143
 40
1.0
 40
1.0
 40
1.0
 40
1.0
 10
-42.557
 20
-62.8909
 30
0.0
 10
-42.557
 20
-62.8909
 30
0.0
 10
-50.8111
 20
-62.8909
 30
0.0
 10
-50.8111
 20
-62.8909
 30
0.0
 10
-50.8111
 20
-62.8909
 30
0.0
 10
-55.6882
 20
-60.6399
 30
0.0
 10
-57.8141
 20
-56.3881
 30
0.0
 10
-57.8141
 20
-51.3858
 30
0.0
 10
-57.8141
 20
-51.3858
 30
0.0
 10
-57.8141
 20
-51.3858
 30
0.0
 10
-51.061
 20
-51.3858
 30
0.0
 10
-51.061
 20
-51.3858
 30
0.0
 10
-51.061
 20
-51.3858
 30
0.0
 10
-51.061
 20
-51.3858
 30
0.0
 10
-51.061
 20
-44.6327
 30
0.0
 10
-51.061
 20
-44.6327
 30
0.0
 10
-51.061
 20
-44.6327
 30
0.0
 10
-47.8096
 20
-44.6327
 30
0.0
 10
-44.8081
 20
-45.5079
 30
0.0
 10
-42.557
 20
-47.509
 30
0.0
 10
-42.557
 20
-47.509
 30
0.0
 10
-42.557
 20
-47.509
 30
0.0
 10
-42.557
 20
-62.8909
 30
0.0
 10
-42.557
 20
-62.8909
 30
0.0
  0
SPLINE
  5
60
330
1F
100
AcDbEntity
  8
layer 1
 62
     7
100
AcDbSpline
210
0.0
220
0.0
230
1.0
 70
    11
 71
     3
 72
    28
 73
    24
 74
     0
 42
0.0000000001
 43
0.0000000001
 12
1.0
 22
0.0
 32
0.0
 13
1.0
 23
0.0
 33
0.0
 40
0.0
 40
0.0
 40
0.0
 40
0.0
 40
0.1428571428571428
 40
0.1428571428571428
 40
0.1428571428571428
 40
0.1428571428571428
 40
0.2857142857142857
 40
0.2857142857142857
 40
0.2857142857142857
 40
0.2857142857142857
 40
0.4285714285714285
 40
0.4285714285714285
 40
0.4285714285714285
 40
0.4285714285714285
 40
0.5714285714285714
 40
0.5714285714285714
 40
0.5714285714285714
 40
0.5714285714285714
 40
0.7142857142857143
 40
0.7142857142857143
 40
0.7142857142857143
 40
0.7142857142857143
 40
1.0
 40
1.0
 40
1.0
 40
1.0
 10
-42.557
 20
-36.0036
 30
0.0
 10
-44.8081
 20
-38.0047
 30
0.0
 10
-47.8096
 20
-38.8799
 30
0.0
 10
-51.061
 20
-38.8799
 30
0.0
 10
-51.061
 20
-38.8799
 30
0.0
 10
-51.061
 20
-38.8799
 30
0.0
 10
-51.061
 20
-32.1268
 30
0.0
 10
-51.061
 20
-32.1268
 30
0.0
 10
-51.061
 20
-32.1268
 30
0.0
 10
-51.061
 20
-32.1268
 30
0.0
 10
-57.8141
 20
-32.1268
 30
0.0
 10
-57.8141
 20
-32.1268
 30
0.0
 10
-57.8141
 20
-32.1268
 30
0.0
 10
-57.8141
 20
-27.1246
 30
0.0
 10
-55.6882
 20
-22.7476
 30
0.0
 10
-50.8111
 20
-20.6214
 30
0.0
 10
-50.8111
 20
-20.6214
 30
0.0
 10
-50.8111
 20
-20.6214
 30
0.0
 10
-42.557
 20
-20.6214
 30
0.0
 10
-42.557
 20
-20.6214
 30
0.0
 10
-42.557
 20
-20.6214
 30
0.0
 10
-42.557
 20
-20.6214
 30
0.0
 10
-42.557
 20
-36.0036
 30
0.0
 10
-42.557
 20
-36.0036
 30
0.0
  0
SPLINE
  5
61
330
1F
100
AcDbEntity
  8
layer 1
 62
     7
100
AcDbSpline
210
0.0
220
0.0
230
1.0
 70
    11
 71
     3
 72
    28
 73
    24
 74
     0
 42
0.0000000001
 43
0.0000000001
 12
1.0
 22
0.0
 32
0.0
 13
1.0
 23
0.0
 33
0.0
 40
0.0
 40
0.0
 40
0.0
 40
0.0
 40
0.1428571428571428
 40
0.1428571428571428
 40
0.1428571428571428
 40
0.1428571428571428
 40
0.2857142857142857
 40
0.2857142857142857
 40
0.2857142857142857
 40
0.2857142857142857
 40
0.4285714285714285
 40
0.4285714285714285
 40
0.4285714285714285
 40
0.4285714285714285
 40
0.5714285714285714
 40
0.5714285714285714
 40
0.5714285714285714
 40
0.5714285714285714
 40
0.7142857142857143
 40
0.7142857142857143
 40
0.7142857142857143
 40
0.7142857142857143
 40
1.0
 40
1.0
 40
1.0
 40
1.0
 10
-81.8254
 20
-20.6214
 30
0.0
 10
-81.8254
 20
-20.6214
 30
0.0
 10
-70.695
 20
-20.6214
 30
0.0
 10
-70.695
 20
-20.6214
 30
0.0
 10
-70.695
 20
-20.6214
 30
0.0
 10
-65.6928
 20
-22.7476
 30
0.0
 10
-63.5668
 20
-27.1246
 30
0.0
 10
-63.692
 20
-32.1268
 30
0.0
 10
-63.692
 20
-32.1268
 30
0.0
 10
-63.692
 20
-32.1268
 30
0.0
 10
-70.32
 20
-32.1268
 30
0.0
 10
-70.32
 20
-32.1268
 30
0.0
 10
-70.32
 20
-32.1268
 30
0.0
 10
-70.32
 20
-32.1268
 30
0.0
 10
-70.32
 20
-38.8799
 30
0.0
 10
-70.32
 20
-38.8799
 30
0.0
 10
-70.32
 20
-38.8799
 30
0.0
 10
-75.3222
 20
-38.8799
 30
0.0
 10
-79.6992
 20
-36.754
 30
0.0
 10
-81.8254
 20
-31.7518
 30
0.0
 10
-81.8254
 20
-31.7518
 30
0.0
 10
-81.8254
 20
-31.7518
 30
0.0
 10
-81.8254
 20
-20.6214
 30
0.0
 10
-81.8254
 20
-20.6214
 30
0.0
  0
SPLINE
  5
62
330
1F
100
AcDbEntity
  8
layer 1
 62
     7
100
AcDbSpline
210
0.0
220
0.0
230
1.0
 70
    11
 71
     3
 72
    20
 73
    16
 74
     0
 42
0.0000000001
 43
0.0000000001
 12
1.0
 22
0.0
 32
0.0
 13
1.0
 23
0.0
 33
0.0
 40
0.0
 40
0.0
 40
0.0
 40
0.0
 40
0.2
 40
0.2
 40
0.2
 40
0.2
 40
0.4
 40
0.4
 40
0.4
 40
0.4
 40
0.6
 40
0.6
 40
0.6
 40
0.6
 40
1.0
 40
1.0
 40
1.0
 40
1.0
 10
-66.4432
 20
-47.509
 30
0.0
 10
-66.4432
 20
-47.509
 30
0.0
 10
-66.4432
 20
-36.0688
 30
0.0
 10
-66.4432
 20
-36.0688
 30
0.0
 10
-66.4432
 20
-36.0688
 30
0.0
 10
-66.4432
 20
-36.0688
 30
0.0
 10
-55.003
 20
-36.0688
 30
0.0
 10
-55.003
 20
-36.0688
 30
0.0
 10
-55.003
 20
-36.0688
 30
0.0
 10
-55.003
 20
-36.0688
 30
0.0
 10
-55.003
 20
-47.509
 30
0.0
 10
-55.003
 20
-47.509
 30
0.0
 10
-55.003
 20
-47.509
 30
0.0
 10
-55.003
 20
-47.509
 30
0.0
 10
-66.4432
 20
-47.509
 30
0.0
 10
-66.4432
 20
-47.509
 30
0.0
  0
SPLINE
  5
63
330
1F
100
AcDbEntity
  8
layer 1
 62
     7
100
AcDbSpline
210
0.0
220
0.0
230
1.0
 70
    11
 71
     3
 72
    20
 73
    16
 74
     0
 42
0.0000000001
 43
0.0000000001
 12
1.0
 22
0.0
 32
0.0
 13
1.0
 23
0.0
 33
0.0
 40
0.0
 40
0.0
 40
0.0
 40
0.0
 40
0.2
 40
0.2
 40
0.2
 40
0.2
 40
0.4
 40
0.4
 40
0.4
 40
0.4
 40
0.6
 40
0.6
 40
0.6
 40
0.6
 40
1.0
 40
1.0
 40
1.0
 40
1.0
 10
-117.0916
 20
33.4036
 30
0.0
 10
-114.5903
 20
34.779
 30
0.0
 10
-112.4644
 20
36.7801
 30
0.0
 10
-110.8387
 20
39.5313
 30
0.0
 10
-110.8387
 20
39.5313
 30
0.0
 10
-109.3381
 20
36.7801
 30
0.0
 10
-107.087
 20
34.779
 30
0.0
 10
-104.5857
 20
33.4036
 30
0.0
 10
-104.5857
 20
33.4036
 30
0.0
 10
-107.087
 20
32.1529
 30
0.0
 10
-109.3381
 20
30.027
 30
0.0
 10
-110.8387
 20
27.4005
 30
0.0
 10
-110.8387
 20
27.4005
 30
0.0
 10
-112.4644
 20
30.027
 30
0.0
 10
-114.5903
 20
32.1529
 30
0.0
 10
-117.0916
 20
33.4036
 30
0.0
  0
SPLINE
  5
64
330
1F
100
AcDbEntity
  8
layer 1
 62
     7
100
AcDbSpline
210
0.0
220
0.0
230
1.0
 70
    11
 71
     3
 72
    20
 73
    16
 74
     0
 42
0.0000000001
 43
0.0000000001
 12
1.0
 22
0.0
 32
0.0
 13
1.0
 23
0.0
 33
0.0
 40
0.0
 40
0.0
 40
0.0
 40
0.0
 40
0.2
 40
0.2
 40
0.2
 40
0.2
 40
0.4
 40
0.4
 40
0.4
 40
0.4
 40
0.6
 40
0.6
 40
0.6
 40
0.6
 40
1.0
 40
1.0
 40
1.0
 40
1.0
 10
-135.8503
 20
52.2871
 30
0.0
 10
-137.2258
 20
54.7884
 30
0.0
 10
-139.2269
 20
56.9143
 30
0.0
 10
-141.9781
 20
58.54
 30
0.0
 10
-141.9781
 20
58.54
 30
0.0
 10
-139.2269
 20
60.0406
 30
0.0
 10
-137.2258
 20
62.2916
 30
0.0
 10
-135.8503
 20
64.793
 30
0.0
 10
-135.8503
 20
64.793
 30
0.0
 10
-134.5997
 20
62.2916
 30
0.0
 10
-132.5986
 20
60.0406
 30
0.0
 10
-129.8473
 20
58.54
 30
0.0
 10
-129.8473
 20
58.54
 30
0.0
 10
-132.5986
 20
56.9143
 30
0.0
 10
-134.5997
 20
54.7884
 30
0.0
 10
-135.8503
 20
52.2871
 30
0.0
  0
SPLINE
  5
65
330
1F
100
AcDbEntity
  8
layer 1
 62
     7
100
AcDbSpline
210
0.0
220
0.0
230
1.0
 70
    11
 71
     3
 72
    28
 73
    24
 74
     0
 42
0.0000000001
 43
0.0000000001
 12
1.0
 22
0.0
 32
0.0
 13
1.0
 23
0.0
 33
0.0
 40
0.0
 40
0.0
 40
0.0
 40
0.0
 40
0.1428571428571428
 40
0.1428571428571428
 40
0.1428571428571428
 40
0.1428571428571428
 40
0.2857142857142857
 40
0.2857142857142857
 40
0.2857142857142857
 40
0.2857142857142857
 40
0.4285714285714285
 40
0.4285714285714285
 40
0.4285714285714285
 40
0.4285714285714285
 40
0.5714285714285714
 40
0.5714285714285714
 40
0.5714285714285714
 40
0.5714285714285714
 40
0.7142857142857143
 40
0.7142857142857143
 40
0.7142857142857143
 40
0.7142857142857143
 40
1.0
 40
1.0
 40
1.0
 40
1.0
 10
-131.9732
 20
37.4051
 30
0.0
 10
-131.9732
 20
37.4051
 30
0.0
 10
-131.9732
 20
48.5355
 30
0.0
 10
-131.9732
 20
48.5355
 30
0.0
 10
-131.9732
 20
48.5355
 30
0.0
 10
-129.8473
 20
53.5378
 30
0.0
 10
-125.4704
 20
55.6637
 30
0.0
 10
-120.4681
 20
55.6637
 30
0.0
 10
-120.4681
 20
55.6637
 30
0.0
 10
-120.4681
 20
55.6637
 30
0.0
 10
-120.4681
 20
48.9105
 30
0.0
 10
-120.4681
 20
48.9105
 30
0.0
 10
-120.4681
 20
48.9105
 30
0.0
 10
-120.4681
 20
48.9105
 30
0.0
 10
-113.715
 20
48.9105
 30
0.0
 10
-113.715
 20
48.9105
 30
0.0
 10
-113.715
 20
48.9105
 30
0.0
 10
-113.715
 20
43.9083
 30
0.0
 10
-115.8409
 20
39.5313
 30
0.0
 10
-120.8432
 20
37.4051
 30
0.0
 10
-120.8432
 20
37.4051
 30
0.0
 10
-120.8432
 20
37.4051
 30
0.0
 10
-131.9732
 20
37.4051
 30
0.0
 10
-131.9732
 20
37.4051
 30
0.0
  0
SPLINE
  5
66
330
1F
100
AcDbEntity
  8
layer 1
 62
     7
100
AcDbSpline
210
0.0
220
0.0
230
1.0
 70
    11
 71
     3
 72
    28
 73
    24
 74
     0
 42
0.0000000001
 43
0.0000000001
 12
1.0
 22
0.0
 32
0.0
 13
1.0
 23
0.0
 33
0.0
 40
0.0
 40
0.0
 40
0.0
 40
0.0
 40
0.1428571428571428
 40
0.1428571428571428
 40
0.1428571428571428
 40
0.1428571428571428
 40
0.2857142857142857
 40
0.2857142857142857
 40
0.2857142857142857
 40
0.2857142857142857
 40
0.4285714285714285
 40
0.4285714285714285
 40
0.4285714285714285
 40
0.4285714285714285
 40
0.5714285714285714
 40
0.5714285714285714
 40
0.5714285714285714
 40
0.5714285714285714
 40
0.7142857142857143
 40
0.7142857142857143
 40
0.7142857142857143
 40
0.7142857142857143
 40
1.0
 40
1.0
 40
1.0
 40
1.0
 10
-89.7041
 20
37.4051
 30
0.0
 10
-89.7041
 20
37.4051
 30
0.0
 10
-100.9593
 20
37.4051
 30
0.0
 10
-100.9593
 20
37.4051
 30
0.0
 10
-100.9593
 20
37.4051
 30
0.0
 10
-105.8364
 20
39.5313
 30
0.0
 10
-107.9623
 20
43.9083
 30
0.0
 10
-107.9623
 20
48.9105
 30
0.0
 10
-107.9623
 20
48.9105
 30
0.0
 10
-107.9623
 20
48.9105
 30
0.0
 10
-101.2092
 20
48.9105
 30
0.0
 10
-101.2092
 20
48.9105
 30
0.0
 10
-101.2092
 20
48.9105
 30
0.0
 10
-101.2092
 20
48.9105
 30
0.0
 10
-101.2092
 20
55.6637
 30
0.0
 10
-101.2092
 20
55.6637
 30
0.0
 10
-101.2092
 20
55.6637
 30
0.0
 10
-96.2069
 20
55.6637
 30
0.0
 10
-91.9551
 20
53.5378
 30
0.0
 10
-89.7041
 20
48.5355
 30
0.0
 10
-89.7041
 20
48.5355
 30
0.0
 10
-89.7041
 20
48.5355
 30
0.0
 10
-89.7041
 20
37.4051
 30
0.0
 10
-89.7041
 20
37.4051
 30
0.0
  0
SPLINE
  5
67
330
1F
100
AcDbEntity
  8
layer 1
 62
     7
100
AcDbSpline
210
0.0
220
0.0
230
1.0
 70
    11
 71
     3
 72
    28
 73
    24
 74
     0
 42
0.0000000001
 43
0.0000000001
 12
1.0
 22
0.0
 32
0.0
 13
1.0
 23
0.0
 33
0.0
 40
0.0
 40
0.0
 40
0.0
 40
0.0
 40
0.1428571428571428
 40
0.1428571428571428
 40
0.1428571428571428
 40
0.1428571428571428
 40
0.2857142857142857
 40
0.2857142857142857
 40
0.2857142857142857
 40
0.2857142857142857
 40
0.4285714285714285
 40
0.4285714285714285
 40
0.4285714285714285
 40
0.4285714285714285
 40
0.5714285714285714
 40
0.5714285714285714
 40
0.5714285714285714
 40
0.5714285714285714
 40
0.7142857142857143
 40
0.7142857142857143
 40
0.7142857142857143
 40
0.7142857142857143
 40
1.0
 40
1.0
 40
1.0
 40
1.0
 10
-89.7041
 20
79.6746
 30
0.0
 10
-89.7041
 20
79.6746
 30
0.0
 10
-89.7041
 20
68.4194
 30
0.0
 10
-89.7041
 20
68.4194
 30
0.0
 10
-89.7041
 20
68.4194
 30
0.0
 10
-91.9551
 20
63.5423
 30
0.0
 10
-96.2069
 20
61.4164
 30
0.0
 10
-101.2092
 20
61.4164
 30
0.0
 10
-101.2092
 20
61.4164
 30
0.0
 10
-101.2092
 20
61.4164
 30
0.0
 10
-101.2092
 20
68.1695
 30
0.0
 10
-101.2092
 20
68.1695
 30
0.0
 10
-101.2092
 20
68.1695
 30
0.0
 10
-101.2092
 20
68.1695
 30
0.0
 10
-107.9623
 20
68.1695
 30
0.0
 10
-107.9623
 20
68.1695
 30
0.0
 10
-107.9623
 20
68.1695
 30
0.0
 10
-107.9623
 20
73.1718
 30
0.0
 10
-105.8364
 20
77.4236
 30
0.0
 10
-100.9593
 20
79.6746
 30
0.0
 10
-100.9593
 20
79.6746
 30
0.0
 10
-100.9593
 20
79.6746
 30
0.0
 10
-89.7041
 20
79.6746
 30
0.0
 10
-89.7041
 20
79.6746
 30
0.0
  0
SPLINE
  5
68
330
1F
100
AcDbEntity
  8
layer 1
 62
     7
100
AcDbSpline
210
0.0
220
0.0
230
1.0
 70
    11
 71
     3
 72
    28
 73
    24
 74
     0
 42
0.0000000001
 43
0.0000000001
 12
1.0
 22
0.0
 32
0.0
 13
1.0
 23
0.0
 33
0.0
 40
0.0
 40
0.0
 40
0.0
 40
0.0
 40
0.1428571428571428
 40
0.1428571428571428
 40
0.1428571428571428
 40
0.1428571428571428
 40
0.2857142857142857
 40
0.2857142857142857
 40
0.2857142857142857
 40
0.2857142857142857
 40
0.4285714285714285
 40
0.4285714285714285
 40
0.4285714285714285
 40
0.4285714285714285
 40
0.5714285714285714
 40
0.5714285714285714
 40
0.5714285714285714
 40
0.5714285714285714
 40
0.7142857142857143
 40
0.7142857142857143
 40
0.7142857142857143
 40
0.7142857142857143
 40
1.0
 40
1.0
 40
1.0
 40
1.0
 10
-131.9732
 20
79.6746
 30
0.0
 10
-131.9732
 20
79.6746
 30
0.0
 10
-120.8432
 20
79.6746
 30
0.0
 10
-120.8432
 20
79.6746
 30
0.0
 10
-120.8432
 20
79.6746
 30
0.0
 10
-115.8409
 20
77.4236
 30
0.0
 10
-113.715
 20
73.1718
 30
0.0
 10
-113.715
 20
68.1695
 30
0.0
 10
-113.715
 20
68.1695
 30
0.0
 10
-113.715
 20
68.1695
 30
0.0
 10
-120.4681
 20
68.1695
 30
0.0
 10
-120.4681
 20
68.1695
 30
0.0
 10
-120.4681
 20
68.1695
 30
0.0
 10
-120.4681
 20
68.1695
 30
0.0
 10
-120.4681
 20
61.4164
 30
0.0
 10
-120.4681
 20
61.4164
 30
0.0
 10
-120.4681
 20
61.4164
 30
0.0
 10
-125.4704
 20
61.4164
 30
0.0
 10
-129.8473
 20
63.5423
 30
0.0
 10
-131.9732
 20
68.4194
 30
0.0
 10
-131.9732
 20
68.4194
 30
0.0
 10
-131.9732
 20
68.4194
 30
0.0
 10
-131.9732
 20
79.6746
 30
0.0
 10
-131.9732
 20
79.6746
 30
0.0
  0
SPLINE
  5
69
330
1F
100
AcDbEntity
  8
layer 1
 62
     7
100
AcDbSpline
210
0.0
220
0.0
230
1.0
 70
    11
 71
     3
 72
    20
 73
    16
 74
     0
 42
0.0000000001
 43
0.0000000001
 12
1.0
 22
0.0
 32
0.0
 13
1.0
 23
0.0
 33
0.0
 40
0.0
 40
0.0
 40
0.0
 40
0.0
 40
0.2
 40
0.2
 40
0.2
 40
0.2
 40
0.4
 40
0.4
 40
0.4
 40
0.4
 40
0.6
 40
0.6
 40
0.6
 40
0.6
 40
1.0
 40
1.0
 40
1.0
 40
1.0
 10
-116.5914
 20
52.7873
 30
0.0
 10
-116.5914
 20
52.7873
 30
0.0
 10
-116.5914
 20
64.2275
 30
0.0
 10
-116.5914
 20
64.2275
 30
0.0
 10
-116.5914
 20
64.2275
 30
0.0
 10
-116.5914
 20
64.2275
 30
0.0
 10
-105.1511
 20
64.2275
 30
0.0
 10
-105.1511
 20
64.2275
 30
0.0
 10
-105.1511
 20
64.2275
 30
0.0
 10
-105.1511
 20
64.2275
 30
0.0
 10
-105.1511
 20
52.7873
 30
0.0
 10
-105.1511
 20
52.7873
 30
0.0
 10
-105.1511
 20
52.7873
 30
0.0
 10
-105.1511
 20
52.7873
 30
0.0
 10
-116.5914
 20
52.7873
 30
0.0
 10
-116.5914
 20
52.7873
 30
0.0
  0
SPLINE
  5
6A
330
1F
100
AcDbEntity
  8
layer 1
 62
     7
100
AcDbSpline
210
0.0
220
0.0
230
1.0
 70
    11
 71
     3
 72
    20
 73
    16
 74
     0
 42
0.0000000001
 43
0.0000000001
 12
1.0
 22
0.0
 32
0.0
 13
1.0
 23
0.0
 33
0.0
 40
0.0
 40
0.0
 40
0.0
 40
0.0
 40
0.2
 40
0.2
 40
0.2
 40
0.2
 40
0.4
 40
0.4
 40
0.4
 40
0.4
 40
0.6
 40
0.6
 40
0.6
 40
0.6
 40
1.0
 40
1.0
 40
1.0
 40
1.0
 10
-67.0685
 20
-16.7446
 30
0.0
 10
-64.4421
 20
-15.3692
 30
0.0
 10
-62.3162
 20
-13.3681
 30
0.0
 10
-60.6905
 20
-10.6168
 30
0.0
 10
-60.6905
 20
-10.6168
 30
0.0
 10
-59.1899
 20
-13.3681
 30
0.0
 10
-56.9389
 20
-15.3692
 30
0.0
 10
-54.4376
 20
-16.7446
 30
0.0
 10
-54.4376
 20
-16.7446
 30
0.0
 10
-56.9389
 20
-17.9953
 30
0.0
 10
-59.1899
 20
-19.9964
 30
0.0
 10
-60.6905
 20
-22.7476
 30
0.0
 10
-60.6905
 20
-22.7476
 30
0.0
 10
-62.3162
 20
-19.9964
 30
0.0
 10
-64.4421
 20
-17.9953
 30
0.0
 10
-67.0685
 20
-16.7446
 30
0.0
  0
SPLINE
  5
6B
330
1F
100
AcDbEntity
  8
layer 1
 62
     7
100
AcDbSpline
210
0.0
220
0.0
230
1.0
 70
    11
 71
     3
 72
    20
 73
    16
 74
     0
 42
0.0000000001
 43
0.0000000001
 12
1.0
 22
0.0
 32
0.0
 13
1.0
 23
0.0
 33
0.0
 40
0.0
 40
0.0
 40
0.0
 40
0.0
 40
0.2
 40
0.2
 40
0.2
 40
0.2
 40
0.4
 40
0.4
 40
0.4
 40
0.4
 40
0.6
 40
0.6
 40
0.6
 40
0.6
 40
1.0
 40
1.0
 40
1.0
 40
1.0
 10
-85.827
 20
2.1389
 30
0.0
 10
-87.0776
 20
4.6402
 30
0.0
 10
-89.2035
 20
6.7661
 30
0.0
 10
-91.83
 20
8.3919
 30
0.0
 10
-91.83
 20
8.3919
 30
0.0
 10
-89.2035
 20
10.0176
 30
0.0
 10
-87.0776
 20
12.1435
 30
0.0
 10
-85.827
 20
14.6448
 30
0.0
 10
-85.827
 20
14.6448
 30
0.0
 10
-84.4515
 20
12.1435
 30
0.0
 10
-82.4504
 20
10.0176
 30
0.0
 10
-79.6992
 20
8.3919
 30
0.0
 10
-79.6992
 20
8.3919
 30
0.0
 10
-82.4504
 20
6.7661
 30
0.0
 10
-84.4515
 20
4.6402
 30
0.0
 10
-85.827
 20
2.1389
 30
0.0
  0
SPLINE
  5
6C
330
1F
100
AcDbEntity
  8
layer 1
 62
     7
100
AcDbSpline
210
0.0
220
0.0
230
1.0
 70
    11
 71
     3
 72
    28
 73
    24
 74
     0
 42
0.0000000001
 43
0.0000000001
 12
1.0
 22
0.0
 32
0.0
 13
1.0
 23
0.0
 33
0.0
 40
0.0
 40
0.0
 40
0.0
 40
0.0
 40
0.1428571428571428
 40
0.1428571428571428
 40
0.1428571428571428
 40
0.1428571428571428
 40
0.2857142857142857
 40
0.2857142857142857
 40
0.2857142857142857
 40
0.2857142857142857
 40
0.4285714285714285
 40
0.4285714285714285
 40
0.4285714285714285
 40
0.4285714285714285
 40
0.5714285714285714
 40
0.5714285714285714
 40
0.5714285714285714
 40
0.5714285714285714
 40
0.7142857142857143
 40
0.7142857142857143
 40
0.7142857142857143
 40
0.7142857142857143
 40
1.0
 40
1.0
 40
1.0
 40
1.0
 10
-81.8254
 20
-12.7427
 30
0.0
 10
-81.8254
 20
-12.7427
 30
0.0
 10
-81.8254
 20
-1.6127
 30
0.0
 10
-81.8254
 20
-1.6127
 30
0.0
 10
-81.8254
 20
-1.6127
 30
0.0
 10
-79.6992
 20
3.3896
 30
0.0
 10
-75.3222
 20
5.5155
 30
0.0
 10
-70.32
 20
5.5155
 30
0.0
 10
-70.32
 20
5.5155
 30
0.0
 10
-70.32
 20
5.5155
 30
0.0
 10
-70.32
 20
-1.2376
 30
0.0
 10
-70.32
 20
-1.2376
 30
0.0
 10
-70.32
 20
-1.2376
 30
0.0
 10
-70.32
 20
-1.2376
 30
0.0
 10
-63.692
 20
-1.2376
 30
0.0
 10
-63.692
 20
-1.2376
 30
0.0
 10
-63.692
 20
-1.2376
 30
0.0
 10
-63.5668
 20
-6.2399
 30
0.0
 10
-65.6928
 20
-10.6168
 30
0.0
 10
-70.695
 20
-12.7427
 30
0.0
 10
-70.695
 20
-12.7427
 30
0.0
 10
-70.695
 20
-12.7427
 30
0.0
 10
-81.8254
 20
-12.7427
 30
0.0
 10
-81.8254
 20
-12.7427
 30
0.0
  0
SPLINE
  5
6D
330
1F
100
AcDbEntity
  8
layer 1
 62
     7
100
AcDbSpline
210
0.0
220
0.0
230
1.0
 70
    11
 71
     3
 72
    28
 73
    24
 74
     0
 42
0.0000000001
 43
0.0000000001
 12
1.0
 22
0.0
 32
0.0
 13
1.0
 23
0.0
 33
0.0
 40
0.0
 40
0.0
 40
0.0
 40
0.0
 40
0.1428571428571428
 40
0.1428571428571428
 40
0.1428571428571428
 40
0.1428571428571428
 40
0.2857142857142857
 40
0.2857142857142857
 40
0.2857142857142857
 40
0.2857142857142857
 40
0.4285714285714285
 40
0.4285714285714285
 40
0.4285714285714285
 40
0.4285714285714285
 40
0.5714285714285714
 40
0.5714285714285714
 40
0.5714285714285714
 40
0.5714285714285714
 40
0.7142857142857143
 40
0.7142857142857143
 40
0.7142857142857143
 40
0.7142857142857143
 40
1.0
 40
1.0
 40
1.0
 40
1.0
 10
-42.557
 20
-12.7427
 30
0.0
 10
-42.557
 20
-12.7427
 30
0.0
 10
-50.8111
 20
-12.7427
 30
0.0
 10
-50.8111
 20
-12.7427
 30
0.0
 10
-50.8111
 20
-12.7427
 30
0.0
 10
-55.6882
 20
-10.6168
 30
0.0
 10
-57.8141
 20
-6.2399
 30
0.0
 10
-57.8141
 20
-1.2376
 30
0.0
 10
-57.8141
 20
-1.2376
 30
0.0
 10
-57.8141
 20
-1.2376
 30
0.0
 10
-51.061
 20
-1.2376
 30
0.0
 10
-51.061
 20
-1.2376
 30
0.0
 10
-51.061
 20
-1.2376
 30
0.0
 10
-51.061
 20
-1.2376
 30
0.0
 10
-51.061
 20
5.5155
 30
0.0
 10
-51.061
 20
5.5155
 30
0.0
 10
-51.061
 20
5.5155
 30
0.0
 10
-47.8096
 20
5.5155
 30
0.0
 10
-44.8081
 20
4.6402
 30
0.0
 10
-42.557
 20
2.6391
 30
0.0
 10
-42.557
 20
2.6391
 30
0.0
 10
-42.557
 20
2.6391
 30
0.0
 10
-42.557
 20
-12.7427
 30
0.0
 10
-42.557
 20
-12.7427
 30
0.0
  0
SPLINE
  5
6E
330
1F
100
AcDbEntity
  8
layer 1
 62
     7
100
AcDbSpline
210
0.0
220
0.0
230
1.0
 70
    11
 71
     3
 72
    28
 73
    24
 74
     0
 42
0.0000000001
 43
0.0000000001
 12
1.0
 22
0.0
 32
0.0
 13
1.0
 23
0.0
 33
0.0
 40
0.0
 40
0.0
 40
0.0
 40
0.0
 40
0.1428571428571428
 40
0.1428571428571428
 40
0.1428571428571428
 40
0.1428571428571428
 40
0.2857142857142857
 40
0.2857142857142857
 40
0.2857142857142857
 40
0.2857142857142857
 40
0.4285714285714285
 40
0.4285714285714285
 40
0.4285714285714285
 40
0.4285714285714285
 40
0.5714285714285714
 40
0.5714285714285714
 40
0.5714285714285714
 40
0.5714285714285714
 40
0.7142857142857143
 40
0.7142857142857143
 40
0.7142857142857143
 40
0.7142857142857143
 40
1.0
 40
1.0
 40
1.0
 40
1.0
 10
-42.557
 20
14.1446
 30
0.0
 10
-44.8081
 20
12.1435
 30
0.0
 10
-47.8096
 20
11.2682
 30
0.0
 10
-51.061
 20
11.2682
 30
0.0
 10
-51.061
 20
11.2682
 30
0.0
 10
-51.061
 20
11.2682
 30
0.0
 10
-51.061
 20
18.0213
 30
0.0
 10
-51.061
 20
18.0213
 30
0.0
 10
-51.061
 20
18.0213
 30
0.0
 10
-51.061
 20
18.0213
 30
0.0
 10
-57.8141
 20
18.0213
 30
0.0
 10
-57.8141
 20
18.0213
 30
0.0
 10
-57.8141
 20
18.0213
 30
0.0
 10
-57.8141
 20
23.0236
 30
0.0
 10
-55.6882
 20
27.4005
 30
0.0
 10
-50.8111
 20
29.5264
 30
0.0
 10
-50.8111
 20
29.5264
 30
0.0
 10
-50.8111
 20
29.5264
 30
0.0
 10
-42.557
 20
29.5264
 30
0.0
 10
-42.557
 20
29.5264
 30
0.0
 10
-42.557
 20
29.5264
 30
0.0
 10
-42.557
 20
29.5264
 30
0.0
 10
-42.557
 20
14.1446
 30
0.0
 10
-42.557
 20
14.1446
 30
0.0
  0
SPLINE
  5
6F
330
1F
100
AcDbEntity
  8
layer 1
 62
     7
100
AcDbSpline
210
0.0
220
0.0
230
1.0
 70
    11
 71
     3
 72
    28
 73
    24
 74
     0
 42
0.0000000001
 43
0.0000000001
 12
1.0
 22
0.0
 32
0.0
 13
1.0
 23
0.0
 33
0.0
 40
0.0
 40
0.0
 40
0.0
 40
0.0
 40
0.1428571428571428
 40
0.1428571428571428
 40
0.1428571428571428
 40
0.1428571428571428
 40
0.2857142857142857
 40
0.2857142857142857
 40
0.2857142857142857
 40
0.2857142857142857
 40
0.4285714285714285
 40
0.4285714285714285
 40
0.4285714285714285
 40
0.4285714285714285
 40
0.5714285714285714
 40
0.5714285714285714
 40
0.5714285714285714
 40
0.5714285714285714
 40
0.7142857142857143
 40
0.7142857142857143
 40
0.7142857142857143
 40
0.7142857142857143
 40
1.0
 40
1.0
 40
1.0
 40
1.0
 10
-81.8254
 20
29.5264
 30
0.0
 10
-81.8254
 20
29.5264
 30
0.0
 10
-70.695
 20
29.5264
 30
0.0
 10
-70.695
 20
29.5264
 30
0.0
 10
-70.695
 20
29.5264
 30
0.0
 10
-65.6928
 20
27.4005
 30
0.0
 10
-63.5668
 20
23.0236
 30
0.0
 10
-63.692
 20
18.0213
 30
0.0
 10
-63.692
 20
18.0213
 30
0.0
 10
-63.692
 20
18.0213
 30
0.0
 10
-70.32
 20
18.0213
 30
0.0
 10
-70.32
 20
18.0213
 30
0.0
 10
-70.32
 20
18.0213
 30
0.0
 10
-70.32
 20
18.0213
 30
0.0
 10
-70.32
 20
11.2682
 30
0.0
 10
-70.32
 20
11.2682
 30
0.0
 10
-70.32
 20
11.2682
 30
0.0
 10
-75.3222
 20
11.2682
 30
0.0
 10
-79.6992
 20
13.3941
 30
0.0
 10
-81.8254
 20
18.3964
 30
0.0
 10
-81.8254
 20
18.3964
 30
0.0
 10
-81.8254
 20
18.3964
 30
0.0
 10
-81.8254
 20
29.5264
 30
0.0
 10
-81.8254
 20
29.5264
 30
0.0
  0
SPLINE
  5
70
330
1F
100
AcDbEntity
  8
layer 1
 62
     7
100
AcDbSpline
210
0.0
220
0.0
230
1.0
 70
    11
 71
     3
 72
    20
 73
    16
 74
     0
 42
0.0000000001
 43
0.0000000001
 12
1.0
 22
0.0
 32
0.0
 13
1.0
 23
0.0
 33
0.0
 40
0.0
 40
0.0
 40
0.0
 40
0.0
 40
0.2
 40
0.2
 40
0.2
 40
0.2
 40
0.4
 40
0.4
 40
0.4
 40
0.4
 40
0.6
 40
0.6
 40
0.6
 40
0.6
 40
1.0
 40
1.0
 40
1.0
 40
1.0
 10
-66.4432
 20
2.6391
 30
0.0
 10
-66.4432
 20
2.6391
 30
0.0
 10
-66.4432
 20
14.0794
 30
0.0
 10
-66.4432
 20
14.0794
 30
0.0
 10
-66.4432
 20
14.0794
 30
0.0
 10
-66.4432
 20
14.0794
 30
0.0
 10
-55.003
 20
14.0794
 30
0.0
 10
-55.003
 20
14.0794
 30
0.0
 10
-55.003
 20
14.0794
 30
0.0
 10
-55.003
 20
14.0794
 30
0.0
 10
-55.003
 20
2.6391
 30
0.0
 10
-55.003
 20
2.6391
 30
0.0
 10
-55.003
 20
2.6391
 30
0.0
 10
-55.003
 20
2.6391
 30
0.0
 10
-66.4432
 20
2.6391
 30
0.0
 10
-66.4432
 20
2.6391
 30
0.0
  0
SPLINE
  5
71
330
1F
100
AcDbEntity
  8
layer 1
 62
     7
100
AcDbSpline
210
0.0
220
0.0
230
1.0
 70
    11
 71
     3
 72
    20
 73
    16
 74
     0
 42
0.0000000001
 43
0.0000000001
 12
1.0
 22
0.0
 32
0.0
 13
1.0
 23
0.0
 33
0.0
 40
0.0
 40
0.0
 40
0.0
 40
0.0
 40
0.2
 40
0.2
 40
0.2
 40
0.2
 40
0.4
 40
0.4
 40
0.4
 40
0.4
 40
0.6
 40
0.6
 40
0.6
 40
0.6
 40
1.0
 40
1.0
 40
1.0
 40
1.0
 10
-117.0916
 20
83.5514
 30
0.0
 10
-114.5903
 20
84.9272
 30
0.0
 10
-112.4644
 20
86.9279
 30
0.0
 10
-110.8387
 20
89.6795
 30
0.0
 10
-110.8387
 20
89.6795
 30
0.0
 10
-109.3381
 20
86.9279
 30
0.0
 10
-107.087
 20
84.9272
 30
0.0
 10
-104.5857
 20
83.5514
 30
0.0
 10
-104.5857
 20
83.5514
 30
0.0
 10
-107.087
 20
82.3011
 30
0.0
 10
-109.3381
 20
80.1748
 30
0.0
 10
-110.8387
 20
77.5487
 30
0.0
 10
-110.8387
 20
77.5487
 30
0.0
 10
-112.4644
 20
80.1748
 30
0.0
 10
-114.5903
 20
82.3011
 30
0.0
 10
-117.0916
 20
83.5514
 30
0.0
  0
SPLINE
  5
72
330
1F
100
AcDbEntity
  8
layer 1
 62
     7
100
AcDbSpline
210
0.0
220
0.0
230
1.0
 70
    11
 71
     3
 72
    20
 73
    16
 74
     0
 42
0.0000000001
 43
0.0000000001
 12
1.0
 22
0.0
 32
0.0
 13
1.0
 23
0.0
 33
0.0
 40
0.0
 40
0.0
 40
0.0
 40
0.0
 40
0.2
 40
0.2
 40
0.2
 40
0.2
 40
0.4
 40
0.4
 40
0.4
 40
0.4
 40
0.6
 40
0.6
 40
0.6
 40
0.6
 40
1.0
 40
1.0
 40
1.0
 40
1.0
 10
-135.8503
 20
102.3101
 30
0.0
 10
-137.2258
 20
104.9362
 30
0.0
 10
-139.2269
 20
107.0625
 30
0.0
 10
-141.9781
 20
108.6882
 30
0.0
 10
-141.9781
 20
108.6882
 30
0.0
 10
-139.2269
 20
110.1888
 30
0.0
 10
-137.2258
 20
112.4398
 30
0.0
 10
-135.8503
 20
114.9411
 30
0.0
 10
-135.8503
 20
114.9411
 30
0.0
 10
-134.5997
 20
112.4398
 30
0.0
 10
-132.5986
 20
110.1888
 30
0.0
 10
-129.8473
 20
108.6882
 30
0.0
 10
-129.8473
 20
108.6882
 30
0.0
 10
-132.5986
 20
107.0625
 30
0.0
 10
-134.5997
 20
104.9362
 30
0.0
 10
-135.8503
 20
102.3101
 30
0.0
  0
SPLINE
  5
73
330
1F
100
AcDbEntity
  8
layer 1
 62
     7
100
AcDbSpline
210
0.0
220
0.0
230
1.0
 70
    11
 71
     3
 72
    28
 73
    24
 74
     0
 42
0.0000000001
 43
0.0000000001
 12
1.0
 22
0.0
 32
0.0
 13
1.0
 23
0.0
 33
0.0
 40
0.0
 40
0.0
 40
0.0
 40
0.0
 40
0.1428571428571428
 40
0.1428571428571428
 40
0.1428571428571428
 40
0.1428571428571428
 40
0.2857142857142857
 40
0.2857142857142857
 40
0.2857142857142857
 40
0.2857142857142857
 40
0.4285714285714285
 40
0.4285714285714285
 40
0.4285714285714285
 40
0.4285714285714285
 40
0.5714285714285714
 40
0.5714285714285714
 40
0.5714285714285714
 40
0.5714285714285714
 40
0.7142857142857143
 40
0.7142857142857143
 40
0.7142857142857143
 40
0.7142857142857143
 40
1.0
 40
1.0
 40
1.0
 40
1.0
 10
-131.9732
 20
87.5533
 30
0.0
 10
-131.9732
 20
87.5533
 30
0.0
 10
-131.9732
 20
98.6837
 30
0.0
 10
-131.9732
 20
98.6837
 30
0.0
 10
-131.9732
 20
98.6837
 30
0.0
 10
-129.8473
 20
103.6859
 30
0.0
 10
-125.4704
 20
105.8118
 30
0.0
 10
-120.4681
 20
105.6867
 30
0.0
 10
-120.4681
 20
105.6867
 30
0.0
 10
-120.4681
 20
105.6867
 30
0.0
 10
-120.4681
 20
99.0587
 30
0.0
 10
-120.4681
 20
99.0587
 30
0.0
 10
-120.4681
 20
99.0587
 30
0.0
 10
-120.4681
 20
99.0587
 30
0.0
 10
-113.715
 20
99.0587
 30
0.0
 10
-113.715
 20
99.0587
 30
0.0
 10
-113.715
 20
99.0587
 30
0.0
 10
-113.715
 20
94.0565
 30
0.0
 10
-115.8409
 20
89.6795
 30
0.0
 10
-120.8432
 20
87.5533
 30
0.0
 10
-120.8432
 20
87.5533
 30
0.0
 10
-120.8432
 20
87.5533
 30
0.0
 10
-131.9732
 20
87.5533
 30
0.0
 10
-131.9732
 20
87.5533
 30
0.0
  0
SPLINE
  5
74
330
1F
100
AcDbEntity
  8
layer 1
 62
     7
100
AcDbSpline
210
0.0
220
0.0
230
1.0
 70
    11
 71
     3
 72
    28
 73
    24
 74
     0
 42
0.0000000001
 43
0.0000000001
 12
1.0
 22
0.0
 32
0.0
 13
1.0
 23
0.0
 33
0.0
 40
0.0
 40
0.0
 40
0.0
 40
0.0
 40
0.1428571428571428
 40
0.1428571428571428
 40
0.1428571428571428
 40
0.1428571428571428
 40
0.2857142857142857
 40
0.2857142857142857
 40
0.2857142857142857
 40
0.2857142857142857
 40
0.4285714285714285
 40
0.4285714285714285
 40
0.4285714285714285
 40
0.4285714285714285
 40
0.5714285714285714
 40
0.5714285714285714
 40
0.5714285714285714
 40
0.5714285714285714
 40
0.7142857142857143
 40
0.7142857142857143
 40
0.7142857142857143
 40
0.7142857142857143
 40
1.0
 40
1.0
 40
1.0
 40
1.0
 10
-89.7041
 20
87.5533
 30
0.0
 10
-89.7041
 20
87.5533
 30
0.0
 10
-100.9593
 20
87.5533
 30
0.0
 10
-100.9593
 20
87.5533
 30
0.0
 10
-100.9593
 20
87.5533
 30
0.0
 10
-105.8364
 20
89.6795
 30
0.0
 10
-107.9623
 20
94.0565
 30
0.0
 10
-107.9623
 20
99.0587
 30
0.0
 10
-107.9623
 20
99.0587
 30
0.0
 10
-107.9623
 20
99.0587
 30
0.0
 10
-101.2092
 20
99.0587
 30
0.0
 10
-101.2092
 20
99.0587
 30
0.0
 10
-101.2092
 20
99.0587
 30
0.0
 10
-101.2092
 20
99.0587
 30
0.0
 10
-101.2092
 20
105.6867
 30
0.0
 10
-101.2092
 20
105.6867
 30
0.0
 10
-101.2092
 20
105.6867
 30
0.0
 10
-96.2069
 20
105.8118
 30
0.0
 10
-91.9551
 20
103.6859
 30
0.0
 10
-89.7041
 20
98.6837
 30
0.0
 10
-89.7041
 20
98.6837
 30
0.0
 10
-89.7041
 20
98.6837
 30
0.0
 10
-89.7041
 20
87.5533
 30
0.0
 10
-89.7041
 20
87.5533
 30
0.0
  0
SPLINE
  5
75
330
1F
100
AcDbEntity
  8
layer 1
 62
     7
100
AcDbSpline
210
0.0
220
0.0
230
1.0
 70
    11
 71
     3
 72
    28
 73
    24
 74
     0
 42
0.0000000001
 43
0.0000000001
 12
1.0
 22
0.0
 32
0.0
 13
1.0
 23
0.0
 33
0.0
 40
0.0
 40
0.0
 40
0.0
 40
0.0
 40
0.1428571428571428
 40
0.1428571428571428
 40
0.1428571428571428
 40
0.1428571428571428
 40
0.2857142857142857
 40
0.2857142857142857
 40
0.2857142857142857
 40
0.2857142857142857
 40
0.4285714285714285
 40
0.4285714285714285
 40
0.4285714285714285
 40
0.4285714285714285
 40
0.5714285714285714
 40
0.5714285714285714
 40
0.5714285714285714
 40
0.5714285714285714
 40
0.7142857142857143
 40
0.7142857142857143
 40
0.7142857142857143
 40
0.7142857142857143
 40
1.0
 40
1.0
 40
1.0
 40
1.0
 10
-89.7041
 20
124.1952
 30
0.0
 10
-89.7041
 20
124.1952
 30
0.0
 10
-89.7041
 20
118.5676
 30
0.0
 10
-89.7041
 20
118.5676
 30
0.0
 10
-89.7041
 20
118.5676
 30
0.0
 10
-91.9551
 20
113.6905
 30
0.0
 10
-96.2069
 20
111.5646
 30
0.0
 10
-101.2092
 20
111.5646
 30
0.0
 10
-101.2092
 20
111.5646
 30
0.0
 10
-101.2092
 20
111.5646
 30
0.0
 10
-101.2092
 20
118.3177
 30
0.0
 10
-101.2092
 20
118.3177
 30
0.0
 10
-101.2092
 20
118.3177
 30
0.0
 10
-101.2092
 20
118.3177
 30
0.0
 10
-107.9623
 20
118.3177
 30
0.0
 10
-107.9623
 20
118.3177
 30
0.0
 10
-107.9623
 20
118.3177
 30
0.0
 10
-107.9623
 20
120.4436
 30
0.0
 10
-107.5872
 20
122.4444
 30
0.0
 10
-106.8368
 20
124.1952
 30
0.0
 10
-106.8368
 20
124.1952
 30
0.0
 10
-106.8368
 20
124.1952
 30
0.0
 10
-89.7041
 20
124.1952
 30
0.0
 10
-89.7041
 20
124.1952
 30
0.0
  0
SPLINE
  5
76
330
1F
100
AcDbEntity
  8
layer 1
 62
     7
100
AcDbSpline
210
0.0
220
0.0
230
1.0
 70
    11
 71
     3
 72
    28
 73
    24
 74
     0
 42
0.0000000001
 43
0.0000000001
 12
1.0
 22
0.0
 32
0.0
 13
1.0
 23
0.0
 33
0.0
 40
0.0
 40
0.0
 40
0.0
 40
0.0
 40
0.1428571428571428
 40
0.1428571428571428
 40
0.1428571428571428
 40
0.1428571428571428
 40
0.2857142857142857
 40
0.2857142857142857
 40
0.2857142857142857
 40
0.2857142857142857
 40
0.4285714285714285
 40
0.4285714285714285
 40
0.4285714285714285
 40
0.4285714285714285
 40
0.5714285714285714
 40
0.5714285714285714
 40
0.5714285714285714
 40
0.5714285714285714
 40
0.7142857142857143
 40
0.7142857142857143
 40
0.7142857142857143
 40
0.7142857142857143
 40
1.0
 40
1.0
 40
1.0
 40
1.0
 10
-114.9657
 20
124.1952
 30
0.0
 10
-114.0901
 20
122.4444
 30
0.0
 10
-113.715
 20
120.4436
 30
0.0
 10
-113.715
 20
118.3177
 30
0.0
 10
-113.715
 20
118.3177
 30
0.0
 10
-113.715
 20
118.3177
 30
0.0
 10
-120.4681
 20
118.3177
 30
0.0
 10
-120.4681
 20
118.3177
 30
0.0
 10
-120.4681
 20
118.3177
 30
0.0
 10
-120.4681
 20
118.3177
 30
0.0
 10
-120.4681
 20
111.5646
 30
0.0
 10
-120.4681
 20
111.5646
 30
0.0
 10
-120.4681
 20
111.5646
 30
0.0
 10
-125.4704
 20
111.5646
 30
0.0
 10
-129.8473
 20
113.6905
 30
0.0
 10
-131.9732
 20
118.5676
 30
0.0
 10
-131.9732
 20
118.5676
 30
0.0
 10
-131.9732
 20
118.5676
 30
0.0
 10
-131.9732
 20
124.1952
 30
0.0
 10
-131.9732
 20
124.1952
 30
0.0
 10
-131.9732
 20
124.1952
 30
0.0
 10
-131.9732
 20
124.1952
 30
0.0
 10
-114.9657
 20
124.1952
 30
0.0
 10
-114.9657
 20
124.1952
 30
0.0
  0
SPLINE
  5
77
330
1F
100
AcDbEntity
  8
layer 1
 62
     7
100
AcDbSpline
210
0.0
220
0.0
230
1.0
 70
    11
 71
     3
 72
    20
 73
    16
 74
     0
 42
0.0000000001
 43
0.0000000001
 12
1.0
 22
0.0
 32
0.0
 13
1.0
 23
0.0
 33
0.0
 40
0.0
 40
0.0
 40
0.0
 40
0.0
 40
0.2
 40
0.2
 40
0.2
 40
0.2
 40
0.4
 40
0.4
 40
0.4
 40
0.4
 40
0.6
 40
0.6
 40
0.6
 40
0.6
 40
1.0
 40
1.0
 40
1.0
 40
1.0
 10
-116.5914
 20
102.9355
 30
0.0
 10
-116.5914
 20
102.9355
 30
0.0
 10
-116.5914
 20
114.3771
 30
0.0
 10
-116.5914
 20
114.3771
 30
0.0
 10
-116.5914
 20
114.3771
 30
0.0
 10
-116.5914
 20
114.3771
 30
0.0
 10
-105.1511
 20
114.3771
 30
0.0
 10
-105.1511
 20
114.3771
 30
0.0
 10
-105.1511
 20
114.3771
 30
0.0
 10
-105.1511
 20
114.3771
 30
0.0
 10
-105.1511
 20
102.9355
 30
0.0
 10
-105.1511
 20
102.9355
 30
0.0
 10
-105.1511
 20
102.9355
 30
0.0
 10
-105.1511
 20
102.9355
 30
0.0
 10
-116.5914
 20
102.9355
 30
0.0
 10
-116.5914
 20
102.9355
 30
0.0
  0
SPLINE
  5
78
330
1F
100
AcDbEntity
  8
layer 1
 62
     7
100
AcDbSpline
210
0.0
220
0.0
230
1.0
 70
    11
 71
     3
 72
    20
 73
    16
 74
     0
 42
0.0000000001
 43
0.0000000001
 12
1.0
 22
0.0
 32
0.0
 13
1.0
 23
0.0
 33
0.0
 40
0.0
 40
0.0
 40
0.0
 40
0.0
 40
0.2
 40
0.2
 40
0.2
 40
0.2
 40
0.4
 40
0.4
 40
0.4
 40
0.4
 40
0.6
 40
0.6
 40
0.6
 40
0.6
 40
1.0
 40
1.0
 40
1.0
 40
1.0
 10
-67.0685
 20
33.4036
 30
0.0
 10
-64.4421
 20
34.779
 30
0.0
 10
-62.3162
 20
36.7801
 30
0.0
 10
-60.6905
 20
39.5313
 30
0.0
 10
-60.6905
 20
39.5313
 30
0.0
 10
-59.1899
 20
36.7801
 30
0.0
 10
-56.9389
 20
34.779
 30
0.0
 10
-54.4376
 20
33.4036
 30
0.0
 10
-54.4376
 20
33.4036
 30
0.0
 10
-56.9389
 20
32.1529
 30
0.0
 10
-59.1899
 20
30.027
 30
0.0
 10
-60.6905
 20
27.4005
 30
0.0
 10
-60.6905
 20
27.4005
 30
0.0
 10
-62.3162
 20
30.027
 30
0.0
 10
-64.4421
 20
32.1529
 30
0.0
 10
-67.0685
 20
33.4036
 30
0.0
  0
SPLINE
  5
79
330
1F
100
AcDbEntity
  8
layer 1
 62
     7
100
AcDbSpline
210
0.0
220
0.0
230
1.0
 70
    11
 71
     3
 72
    20
 73
    16
 74
     0
 42
0.0000000001
 43
0.0000000001
 12
1.0
 22
0.0
 32
0.0
 13
1.0
 23
0.0
 33
0.0
 40
0.0
 40
0.0
 40
0.0
 40
0.0
 40
0.2
 40
0.2
 40
0.2
 40
0.2
 40
0.4
 40
0.4
 40
0.4
 40
0.4
 40
0.6
 40
0.6
 40
0.6
 40
0.6
 40
1.0
 40
1.0
 40
1.0
 40
1.0
 10
-85.827
 20
52.2871
 30
0.0
 10
-87.0776
 20
54.7884
 30
0.0
 10
-89.2035
 20
56.9143
 30
0.0
 10
-91.83
 20
58.54
 30
0.0
 10
-91.83
 20
58.54
 30
0.0
 10
-89.2035
 20
60.0406
 30
0.0
 10
-87.0776
 20
62.2916
 30
0.0
 10
-85.827
 20
64.793
 30
0.0
 10
-85.827
 20
64.793
 30
0.0
 10
-84.4515
 20
62.2916
 30
0.0
 10
-82.4504
 20
60.0406
 30
0.0
 10
-79.6992
 20
58.54
 30
0.0
 10
-79.6992
 20
58.54
 30
0.0
 10
-82.4504
 20
56.9143
 30
0.0
 10
-84.4515
 20
54.7884
 30
0.0
 10
-85.827
 20
52.2871
 30
0.0
  0
SPLINE
  5
7A
330
1F
100
AcDbEntity
  8
layer 1
 62
     7
100
AcDbSpline
210
0.0
220
0.0
230
1.0
 70
    11
 71
     3
 72
    28
 73
    24
 74
     0
 42
0.0000000001
 43
0.0000000001
 12
1.0
 22
0.0
 32
0.0
 13
1.0
 23
0.0
 33
0.0
 40
0.0
 40
0.0
 40
0.0
 40
0.0
 40
0.1428571428571428
 40
0.1428571428571428
 40
0.1428571428571428
 40
0.1428571428571428
 40
0.2857142857142857
 40
0.2857142857142857
 40
0.2857142857142857
 40
0.2857142857142857
 40
0.4285714285714285
 40
0.4285714285714285
 40
0.4285714285714285
 40
0.4285714285714285
 40
0.5714285714285714
 40
0.5714285714285714
 40
0.5714285714285714
 40
0.5714285714285714
 40
0.7142857142857143
 40
0.7142857142857143
 40
0.7142857142857143
 40
0.7142857142857143
 40
1.0
 40
1.0
 40
1.0
 40
1.0
 10
-81.8254
 20
37.4051
 30
0.0
 10
-81.8254
 20
37.4051
 30
0.0
 10
-81.8254
 20
48.5355
 30
0.0
 10
-81.8254
 20
48.5355
 30
0.0
 10
-81.8254
 20
48.5355
 30
0.0
 10
-79.6992
 20
53.5378
 30
0.0
 10
-75.3222
 20
55.6637
 30
0.0
 10
-70.32
 20
55.6637
 30
0.0
 10
-70.32
 20
55.6637
 30
0.0
 10
-70.32
 20
55.6637
 30
0.0
 10
-70.32
 20
48.9105
 30
0.0
 10
-70.32
 20
48.9105
 30
0.0
 10
-70.32
 20
48.9105
 30
0.0
 10
-70.32
 20
48.9105
 30
0.0
 10
-63.692
 20
48.9105
 30
0.0
 10
-63.692
 20
48.9105
 30
0.0
 10
-63.692
 20
48.9105
 30
0.0
 10
-63.5668
 20
43.9083
 30
0.0
 10
-65.6928
 20
39.5313
 30
0.0
 10
-70.695
 20
37.4051
 30
0.0
 10
-70.695
 20
37.4051
 30
0.0
 10
-70.695
 20
37.4051
 30
0.0
 10
-81.8254
 20
37.4051
 30
0.0
 10
-81.8254
 20
37.4051
 30
0.0
  0
SPLINE
  5
7B
330
1F
100
AcDbEntity
  8
layer 1
 62
     7
100
AcDbSpline
210
0.0
220
0.0
230
1.0
 70
    11
 71
     3
 72
    28
 73
    24
 74
     0
 42
0.0000000001
 43
0.0000000001
 12
1.0
 22
0.0
 32
0.0
 13
1.0
 23
0.0
 33
0.0
 40
0.0
 40
0.0
 40
0.0
 40
0.0
 40
0.1428571428571428
 40
0.1428571428571428
 40
0.1428571428571428
 40
0.1428571428571428
 40
0.2857142857142857
 40
0.2857142857142857
 40
0.2857142857142857
 40
0.2857142857142857
 40
0.4285714285714285
 40
0.4285714285714285
 40
0.4285714285714285
 40
0.4285714285714285
 40
0.5714285714285714
 40
0.5714285714285714
 40
0.5714285714285714
 40
0.5714285714285714
 40
0.7142857142857143
 40
0.7142857142857143
 40
0.7142857142857143
 40
0.7142857142857143
 40
1.0
 40
1.0
 40
1.0
 40
1.0
 10
-42.557
 20
37.4051
 30
0.0
 10
-42.557
 20
37.4051
 30
0.0
 10
-50.8111
 20
37.4051
 30
0.0
 10
-50.8111
 20
37.4051
 30
0.0
 10
-50.8111
 20
37.4051
 30
0.0
 10
-55.6882
 20
39.5313
 30
0.0
 10
-57.8141
 20
43.9083
 30
0.0
 10
-57.8141
 20
48.9105
 30
0.0
 10
-57.8141
 20
48.9105
 30
0.0
 10
-57.8141
 20
48.9105
 30
0.0
 10
-51.061
 20
48.9105
 30
0.0
 10
-51.061
 20
48.9105
 30
0.0
 10
-51.061
 20
48.9105
 30
0.0
 10
-51.061
 20
48.9105
 30
0.0
 10
-51.061
 20
55.6637
 30
0.0
 10
-51.061
 20
55.6637
 30
0.0
 10
-51.061
 20
55.6637
 30
0.0
 10
-47.8096
 20
55.6637
 30
0.0
 10
-44.8081
 20
54.7884
 30
0.0
 10
-42.557
 20
52.7873
 30
0.0
 10
-42.557
 20
52.7873
 30
0.0
 10
-42.557
 20
52.7873
 30
0.0
 10
-42.557
 20
37.4051
 30
0.0
 10
-42.557
 20
37.4051
 30
0.0
  0
SPLINE
  5
7C
330
1F
100
AcDbEntity
  8
layer 1
 62
     7
100
AcDbSpline
210
0.0
220
0.0
230
1.0
 70
    11
 71
     3
 72
    28
 73
    24
 74
     0
 42
0.0000000001
 43
0.0000000001
 12
1.0
 22
0.0
 32
0.0
 13
1.0
 23
0.0
 33
0.0
 40
0.0
 40
0.0
 40
0.0
 40
0.0
 40
0.1428571428571428
 40
0.1428571428571428
 40
0.1428571428571428
 40
0.1428571428571428
 40
0.2857142857142857
 40
0.2857142857142857
 40
0.2857142857142857
 40
0.2857142857142857
 40
0.4285714285714285
 40
0.4285714285714285
 40
0.4285714285714285
 40
0.4285714285714285
 40
0.5714285714285714
 40
0.5714285714285714
 40
0.5714285714285714
 40
0.5714285714285714
 40
0.7142857142857143
 40
0.7142857142857143
 40
0.7142857142857143
 40
0.7142857142857143
 40
1.0
 40
1.0
 40
1.0
 40
1.0
 10
-42.557
 20
64.2928
 30
0.0
 10
-44.8081
 20
62.2916
 30
0.0
 10
-47.8096
 20
61.4164
 30
0.0
 10
-51.061
 20
61.4164
 30
0.0
 10
-51.061
 20
61.4164
 30
0.0
 10
-51.061
 20
61.4164
 30
0.0
 10
-51.061
 20
68.1695
 30
0.0
 10
-51.061
 20
68.1695
 30
0.0
 10
-51.061
 20
68.1695
 30
0.0
 10
-51.061
 20
68.1695
 30
0.0
 10
-57.8141
 20
68.1695
 30
0.0
 10
-57.8141
 20
68.1695
 30
0.0
 10
-57.8141
 20
68.1695
 30
0.0
 10
-57.8141
 20
73.1718
 30
0.0
 10
-55.6882
 20
77.4236
 30
0.0
 10
-50.8111
 20
79.6746
 30
0.0
 10
-50.8111
 20
79.6746
 30
0.0
 10
-50.8111
 20
79.6746
 30
0.0
 10
-42.557
 20
79.6746
 30
0.0
 10
-42.557
 20
79.6746
 30
0.0
 10
-42.557
 20
79.6746
 30
0.0
 10
-42.557
 20
79.6746
 30
0.0
 10
-42.557
 20
64.2928
 30
0.0
 10
-42.557
 20
64.2928
 30
0.0
  0
SPLINE
  5
7D
330
1F
100
AcDbEntity
  8
layer 1
 62
     7
100
AcDbSpline
210
0.0
220
0.0
230
1.0
 70
    11
 71
     3
 72
    28
 73
    24
 74
     0
 42
0.0000000001
 43
0.0000000001
 12
1.0
 22
0.0
 32
0.0
 13
1.0
 23
0.0
 33
0.0
 40
0.0
 40
0.0
 40
0.0
 40
0.0
 40
0.1428571428571428
 40
0.1428571428571428
 40
0.1428571428571428
 40
0.1428571428571428
 40
0.2857142857142857
 40
0.2857142857142857
 40
0.2857142857142857
 40
0.2857142857142857
 40
0.4285714285714285
 40
0.4285714285714285
 40
0.4285714285714285
 40
0.4285714285714285
 40
0.5714285714285714
 40
0.5714285714285714
 40
0.5714285714285714
 40
0.5714285714285714
 40
0.7142857142857143
 40
0.7142857142857143
 40
0.7142857142857143
 40
0.7142857142857143
 40
1.0
 40
1.0
 40
1.0
 40
1.0
 10
-81.8254
 20
79.6746
 30
0.0
 10
-81.8254
 20
79.6746
 30
0.0
 10
-70.695
 20
79.6746
 30
0.0
 10
-70.695
 20
79.6746
 30
0.0
 10
-70.695
 20
79.6746
 30
0.0
 10
-65.6928
 20
77.4236
 30
0.0
 10
-63.5668
 20
73.1718
 30
0.0
 10
-63.692
 20
68.1695
 30
0.0
 10
-63.692
 20
68.1695
 30
0.0
 10
-63.692
 20
68.1695
 30
0.0
 10
-70.32
 20
68.1695
 30
0.0
 10
-70.32
 20
68.1695
 30
0.0
 10
-70.32
 20
68.1695
 30
0.0
 10
-70.32
 20
68.1695
 30
0.0
 10
-70.32
 20
61.4164
 30
0.0
 10
-70.32
 20
61.4164
 30
0.0
 10
-70.32
 20
61.4164
 30
0.0
 10
-75.3222
 20
61.4164
 30
0.0
 10
-79.6992
 20
63.5423
 30
0.0
 10
-81.8254
 20
68.4194
 30
0.0
 10
-81.8254
 20
68.4194
 30
0.0
 10
-81.8254
 20
68.4194
 30
0.0
 10
-81.8254
 20
79.6746
 30
0.0
 10
-81.8254
 20
79.6746
 30
0.0
  0
SPLINE
  5
7E
330
1F
100
AcDbEntity
  8
layer 1
 62
     7
100
AcDbSpline
210
0.0
220
0.0
230
1.0
 70
    11
 71
     3
 72
    20
 73
    16
 74
     0
 42
0.0000000001
 43
0.0000000001
 12
1.0
 22
0.0
 32
0.0
 13
1.0
 23
0.0
 33
0.0
 40
0.0
 40
0.0
 40
0.0
 40
0.0
 40
0.2
 40
0.2
 40
0.2
 40
0.2
 40
0.4
 40
0.4
 40
0.4
 40
0.4
 40
0.6
 40
0.6
 40
0.6
 40
0.6
 40
1.0
 40
1.0
 40
1.0
 40
1.0
 10
-66.4432
 20
52.7873
 30
0.0
 10
-66.4432
 20
52.7873
 30
0.0
 10
-66.4432
 20
64.2275
 30
0.0
 10
-66.4432
 20
64.2275
 30
0.0
 10
-66.4432
 20
64.2275
 30
0.0
 10
-66.4432
 20
64.2275
 30
0.0
 10
-55.003
 20
64.2275
 30
0.0
 10
-55.003
 20
64.2275
 30
0.0
 10
-55.003
 20
64.2275
 30
0.0
 10
-55.003
 20
64.2275
 30
0.0
 10
-55.003
 20
52.7873
 30
0.0
 10
-55.003
 20
52.7873
 30
0.0
 10
-55.003
 20
52.7873
 30
0.0
 10
-55.003
 20
52.7873
 30
0.0
 10
-66.4432
 20
52.7873
 30
0.0
 10
-66.4432
 20
52.7873
 30
0.0
  0
SPLINE
  5
7F
330
1F
100
AcDbEntity
  8
layer 1
 62
     7
100
AcDbSpline
210
0.0
220
0.0
230
1.0
 70
    11
 71
     3
 72
    20
 73
    16
 74
     0
 42
0.0000000001
 43
0.0000000001
 12
1.0
 22
0.0
 32
0.0
 13
1.0
 23
0.0
 33
0.0
 40
0.0
 40
0.0
 40
0.0
 40
0.0
 40
0.2
 40
0.2
 40
0.2
 40
0.2
 40
0.4
 40
0.4
 40
0.4
 40
0.4
 40
0.6
 40
0.6
 40
0.6
 40
0.6
 40
1.0
 40
1.0
 40
1.0
 40
1.0
 10
-67.0685
 20
83.5514
 30
0.0
 10
-64.4421
 20
84.9272
 30
0.0
 10
-62.3162
 20
86.9279
 30
0.0
 10
-60.6905
 20
89.6795
 30
0.0
 10
-60.6905
 20
89.6795
 30
0.0
 10
-59.1899
 20
86.9279
 30
0.0
 10
-56.9389
 20
84.9272
 30
0.0
 10
-54.4376
 20
83.5514
 30
0.0
 10
-54.4376
 20
83.5514
 30
0.0
 10
-56.9389
 20
82.3011
 30
0.0
 10
-59.1899
 20
80.1748
 30
0.0
 10
-60.6905
 20
77.5487
 30
0.0
 10
-60.6905
 20
77.5487
 30
0.0
 10
-62.3162
 20
80.1748
 30
0.0
 10
-64.4421
 20
82.3011
 30
0.0
 10
-67.0685
 20
83.5514
 30
0.0
  0
SPLINE
  5
80
330
1F
100
AcDbEntity
  8
layer 1
 62
     7
100
AcDbSpline
210
0.0
220
0.0
230
1.0
 70
    11
 71
     3
 72
    20
 73
    16
 74
     0
 42
0.0000000001
 43
0.0000000001
 12
1.0
 22
0.0
 32
0.0
 13
1.0
 23
0.0
 33
0.0
 40
0.0
 40
0.0
 40
0.0
 40
0.0
 40
0.2
 40
0.2
 40
0.2
 40
0.2
 40
0.4
 40
0.4
 40
0.4
 40
0.4
 40
0.6
 40
0.6
 40
0.6
 40
0.6
 40
1.0
 40
1.0
 40
1.0
 40
1.0
 10
-85.827
 20
102.3101
 30
0.0
 10
-87.0776
 20
104.9362
 30
0.0
 10
-89.2035
 20
107.0625
 30
0.0
 10
-91.83
 20
108.6882
 30
0.0
 10
-91.83
 20
108.6882
 30
0.0
 10
-89.2035
 20
110.1888
 30
0.0
 10
-87.0776
 20
112.4398
 30
0.0
 10
-85.827
 20
114.9411
 30
0.0
 10
-85.827
 20
114.9411
 30
0.0
 10
-84.4515
 20
112.4398
 30
0.0
 10
-82.4504
 20
110.1888
 30
0.0
 10
-79.6992
 20
108.6882
 30
0.0
 10
-79.6992
 20
108.6882
 30
0.0
 10
-82.4504
 20
107.0625
 30
0.0
 10
-84.4515
 20
104.9362
 30
0.0
 10
-85.827
 20
102.3101
 30
0.0
  0
SPLINE
  5
81
330
1F
100
AcDbEntity
  8
layer 1
 62
     7
100
AcDbSpline
210
0.0
220
0.0
230
1.0
 70
    11
 71
     3
 72
    28
 73
    24
 74
     0
 42
0.0000000001
 43
0.0000000001
 12
1.0
 22
0.0
 32
0.0
 13
1.0
 23
0.0
 33
0.0
 40
0.0
 40
0.0
 40
0.0
 40
0.0
 40
0.1428571428571428
 40
0.1428571428571428
 40
0.1428571428571428
 40
0.1428571428571428
 40
0.2857142857142857
 40
0.2857142857142857
 40
0.2857142857142857
 40
0.2857142857142857
 40
0.4285714285714285
 40
0.4285714285714285
 40
0.4285714285714285
 40
0.4285714285714285
 40
0.5714285714285714
 40
0.5714285714285714
 40
0.5714285714285714
 40
0.5714285714285714
 40
0.7142857142857143
 40
0.7142857142857143
 40
0.7142857142857143
 40
0.7142857142857143
 40
1.0
 40
1.0
 40
1.0
 40
1.0
 10
-81.8254
 20
87.5533
 30
0.0
 10
-81.8254
 20
87.5533
 30
0.0
 10
-81.8254
 20
98.6837
 30
0.0
 10
-81.8254
 20
98.6837
 30
0.0
 10
-81.8254
 20
98.6837
 30
0.0
 10
-79.6992
 20
103.6859
 30
0.0
 10
-75.3222
 20
105.8118
 30
0.0
 10
-70.32
 20
105.6867
 30
0.0
 10
-70.32
 20
105.6867
 30
0.0
 10
-70.32
 20
105.6867
 30
0.0
 10
-70.32
 20
99.0587
 30
0.0
 10
-70.32
 20
99.0587
 30
0.0
 10
-70.32
 20
99.0587
 30
0.0
 10
-70.32
 20
99.0587
 30
0.0
 10
-63.692
 20
99.0587
 30
0.0
 10
-63.692
 20
99.0587
 30
0.0
 10
-63.692
 20
99.0587
 30
0.0
 10
-63.5668
 20
94.0565
 30
0.0
 10
-65.6928
 20
89.6795
 30
0.0
 10
-70.695
 20
87.5533
 30
0.0
 10
-70.695
 20
87.5533
 30
0.0
 10
-70.695
 20
87.5533
 30
0.0
 10
-81.8254
 20
87.5533
 30
0.0
 10
-81.8254
 20
87.5533
 30
0.0
  0
SPLINE
  5
82
330
1F
100
AcDbEntity
  8
layer 1
 62
     7
100
AcDbSpline
210
0.0
220
0.0
230
1.0
 70
    11
 71
     3
 72
    28
 73
    24
 74
     0
 42
0.0000000001
 43
0.0000000001
 12
1.0
 22
0.0
 32
0.0
 13
1.0
 23
0.0
 33
0.0
 40
0.0
 40
0.0
 40
0.0
 40
0.0
 40
0.1428571428571428
 40
0.1428571428571428
 40
0.1428571428571428
 40
0.1428571428571428
 40
0.2857142857142857
 40
0.2857142857142857
 40
0.2857142857142857
 40
0.2857142857142857
 40
0.4285714285714285
 40
0.4285714285714285
 40
0.4285714285714285
 40
0.4285714285714285
 40
0.5714285714285714
 40
0.5714285714285714
 40
0.5714285714285714
 40
0.5714285714285714
 40
0.7142857142857143
 40
0.7142857142857143
 40
0.7142857142857143
 40
0.7142857142857143
 40
1.0
 40
1.0
 40
1.0
 40
1.0
 10
-42.557
 20
87.5533
 30
0.0
 10
-42.557
 20
87.5533
 30
0.0
 10
-50.8111
 20
87.5533
 30
0.0
 10
-50.8111
 20
87.5533
 30
0.0
 10
-50.8111
 20
87.5533
 30
0.0
 10
-55.6882
 20
89.6795
 30
0.0
 10
-57.8141
 20
94.0565
 30
0.0
 10
-57.8141
 20
99.0587
 30
0.0
 10
-57.8141
 20
99.0587
 30
0.0
 10
-57.8141
 20
99.0587
 30
0.0
 10
-51.061
 20
99.0587
 30
0.0
 10
-51.061
 20
99.0587
 30
0.0
 10
-51.061
 20
99.0587
 30
0.0
 10
-51.061
 20
99.0587
 30
0.0
 10
-51.061
 20
105.6867
 30
0.0
 10
-51.061
 20
105.6867
 30
0.0
 10
-51.061
 20
105.6867
 30
0.0
 10
-47.8096
 20
105.8118
 30
0.0
 10
-44.8081
 20
104.9362
 30
0.0
 10
-42.557
 20
102.9355
 30
0.0
 10
-42.557
 20
102.9355
 30
0.0
 10
-42.557
 20
102.9355
 30
0.0
 10
-42.557
 20
87.5533
 30
0.0
 10
-42.557
 20
87.5533
 30
0.0
  0
SPLINE
  5
83
330
1F
100
AcDbEntity
  8
layer 1
 62
     7
100
AcDbSpline
210
0.0
220
0.0
230
1.0
 70
    11
 71
     3
 72
    28
 73
    24
 74
     0
 42
0.0000000001
 43
0.0000000001
 12
1.0
 22
0.0
 32
0.0
 13
1.0
 23
0.0
 33
0.0
 40
0.0
 40
0.0
 40
0.0
 40
0.0
 40
0.1428571428571428
 40
0.1428571428571428
 40
0.1428571428571428
 40
0.1428571428571428
 40
0.2857142857142857
 40
0.2857142857142857
 40
0.2857142857142857
 40
0.2857142857142857
 40
0.4285714285714285
 40
0.4285714285714285
 40
0.4285714285714285
 40
0.4285714285714285
 40
0.5714285714285714
 40
0.5714285714285714
 40
0.5714285714285714
 40
0.5714285714285714
 40
0.7142857142857143
 40
0.7142857142857143
 40
0.7142857142857143
 40
0.7142857142857143
 40
1.0
 40
1.0
 40
1.0
 40
1.0
 10
-42.557
 20
114.4409
 30
0.0
 10
-44.8081
 20
112.4398
 30
0.0
 10
-47.8096
 20
111.5646
 30
0.0
 10
-51.061
 20
111.5646
 30
0.0
 10
-51.061
 20
111.5646
 30
0.0
 10
-51.061
 20
111.5646
 30
0.0
 10
-51.061
 20
118.3177
 30
0.0
 10
-51.061
 20
118.3177
 30
0.0
 10
-51.061
 20
118.3177
 30
0.0
 10
-51.061
 20
118.3177
 30
0.0
 10
-57.8141
 20
118.3177
 30
0.0
 10
-57.8141
 20
118.3177
 30
0.0
 10
-57.8141
 20
118.3177
 30
0.0
 10
-57.8141
 20
120.4436
 30
0.0
 10
-57.4391
 20
122.4444
 30
0.0
 10
-56.6886
 20
124.1952
 30
0.0
 10
-56.6886
 20
124.1952
 30
0.0
 10
-56.6886
 20
124.1952
 30
0.0
 10
-42.557
 20
124.1952
 30
0.0
 10
-42.557
 20
124.1952
 30
0.0
 10
-42.557
 20
124.1952
 30
0.0
 10
-42.557
 20
124.1952
 30
0.0
 10
-42.557
 20
114.4409
 30
0.0
 10
-42.557
 20
114.4409
 30
0.0
  0
SPLINE
  5
84
330
1F
100
AcDbEntity
  8
layer 1
 62
     7
100
AcDbSpline
210
0.0
220
0.0
230
1.0
 70
    11
 71
     3
 72
    28
 73
    24
 74
     0
 42
0.0000000001
 43
0.0000000001
 12
1.0
 22
0.0
 32
0.0
 13
1.0
 23
0.0
 33
0.0
 40
0.0
 40
0.0
 40
0.0
 40
0.0
 40
0.1428571428571428
 40
0.1428571428571428
 40
0.1428571428571428
 40
0.1428571428571428
 40
0.2857142857142857
 40
0.2857142857142857
 40
0.2857142857142857
 40
0.2857142857142857
 40
0.4285714285714285
 40
0.4285714285714285
 40
0.4285714285714285
 40
0.4285714285714285
 40
0.5714285714285714
 40
0.5714285714285714
 40
0.5714285714285714
 40
0.5714285714285714
 40
0.7142857142857143
 40
0.7142857142857143
 40
0.7142857142857143
 40
0.7142857142857143
 40
1.0
 40
1.0
 40
1.0
 40
1.0
 10
-64.8175
 20
124.1952
 30
0.0
 10
-63.9419
 20
122.4444
 30
0.0
 10
-63.5668
 20
120.4436
 30
0.0
 10
-63.692
 20
118.3177
 30
0.0
 10
-63.692
 20
118.3177
 30
0.0
 10
-63.692
 20
118.3177
 30
0.0
 10
-70.32
 20
118.3177
 30
0.0
 10
-70.32
 20
118.3177
 30
0.0
 10
-70.32
 20
118.3177
 30
0.0
 10
-70.32
 20
118.3177
 30
0.0
 10
-70.32
 20
111.5646
 30
0.0
 10
-70.32
 20
111.5646
 30
0.0
 10
-70.32
 20
111.5646
 30
0.0
 10
-75.3222
 20
111.5646
 30
0.0
 10
-79.6992
 20
113.6905
 30
0.0
 10
-81.8254
 20
118.5676
 30
0.0
 10
-81.8254
 20
118.5676
 30
0.0
 10
-81.8254
 20
118.5676
 30
0.0
 10
-81.8254
 20
124.1952
 30
0.0
 10
-81.8254
 20
124.1952
 30
0.0
 10
-81.8254
 20
124.1952
 30
0.0
 10
-81.8254
 20
124.1952
 30
0.0
 10
-64.8175
 20
124.1952
 30
0.0
 10
-64.8175
 20
124.1952
 30
0.0
  0
SPLINE
  5
85
330
1F
100
AcDbEntity
  8
layer 1
 62
     7
100
AcDbSpline
210
0.0
220
0.0
230
1.0
 70
    11
 71
     3
 72
    20
 73
    16
 74
     0
 42
0.0000000001
 43
0.0000000001
 12
1.0
 22
0.0
 32
0.0
 13
1.0
 23
0.0
 33
0.0
 40
0.0
 40
0.0
 40
0.0
 40
0.0
 40
0.2
 40
0.2
 40
0.2
 40
0.2
 40
0.4
 40
0.4
 40
0.4
 40
0.4
 40
0.6
 40
0.6
 40
0.6
 40
0.6
 40
1.0
 40
1.0
 40
1.0
 40
1.0
 10
-66.4432
 20
102.9355
 30
0.0
 10
-66.4432
 20
102.9355
 30
0.0
 10
-66.4432
 20
114.3771
 30
0.0
 10
-66.4432
 20
114.3771
 30
0.0
 10
-66.4432
 20
114.3771
 30
0.0
 10
-66.4432
 20
114.3771
 30
0.0
 10
-55.003
 20
114.3771
 30
0.0
 10
-55.003
 20
114.3771
 30
0.0
 10
-55.003
 20
114.3771
 30
0.0
 10
-55.003
 20
114.3771
 30
0.0
 10
-55.003
 20
102.9355
 30
0.0
 10
-55.003
 20
102.9355
 30
0.0
 10
-55.003
 20
102.9355
 30
0.0
 10
-55.003
 20
102.9355
 30
0.0
 10
-66.4432
 20
102.9355
 30
0.0
 10
-66.4432
 20
102.9355
 30
0.0
  0
SPLINE
  5
86
330
1F
100
AcDbEntity
  8
layer 1
 62
     7
100
AcDbSpline
210
0.0
220
0.0
230
1.0
 70
    11
 71
     3
 72
    20
 73
    16
 74
     0
 42
0.0000000001
 43
0.0000000001
 12
1.0
 22
0.0
 32
0.0
 13
1.0
 23
0.0
 33
0.0
 40
0.0
 40
0.0
 40
0.0
 40
0.0
 40
0.2
 40
0.2
 40
0.2
 40
0.2
 40
0.4
 40
0.4
 40
0.4
 40
0.4
 40
0.6
 40
0.6
 40
0.6
 40
0.6
 40
1.0
 40
1.0
 40
1.0
 40
1.0
 10
-167.2397
 20
83.5514
 30
0.0
 10
-164.7384
 20
84.9272
 30
0.0
 10
-162.6125
 20
86.9279
 30
0.0
 10
-160.9868
 20
89.6795
 30
0.0
 10
-160.9868
 20
89.6795
 30
0.0
 10
-159.3611
 20
86.9279
 30
0.0
 10
-157.2352
 20
84.9272
 30
0.0
 10
-154.7339
 20
83.5514
 30
0.0
 10
-154.7339
 20
83.5514
 30
0.0
 10
-157.2352
 20
82.3011
 30
0.0
 10
-159.3611
 20
80.1748
 30
0.0
 10
-160.9868
 20
77.5487
 30
0.0
 10
-160.9868
 20
77.5487
 30
0.0
 10
-162.6125
 20
80.1748
 30
0.0
 10
-164.7384
 20
82.3011
 30
0.0
 10
-167.2397
 20
83.5514
 30
0.0
  0
SPLINE
  5
87
330
1F
100
AcDbEntity
  8
layer 1
 62
     7
100
AcDbSpline
210
0.0
220
0.0
230
1.0
 70
    11
 71
     3
 72
    28
 73
    24
 74
     0
 42
0.0000000001
 43
0.0000000001
 12
1.0
 22
0.0
 32
0.0
 13
1.0
 23
0.0
 33
0.0
 40
0.0
 40
0.0
 40
0.0
 40
0.0
 40
0.1428571428571428
 40
0.1428571428571428
 40
0.1428571428571428
 40
0.1428571428571428
 40
0.2857142857142857
 40
0.2857142857142857
 40
0.2857142857142857
 40
0.2857142857142857
 40
0.4285714285714285
 40
0.4285714285714285
 40
0.4285714285714285
 40
0.4285714285714285
 40
0.5714285714285714
 40
0.5714285714285714
 40
0.5714285714285714
 40
0.5714285714285714
 40
0.7142857142857143
 40
0.7142857142857143
 40
0.7142857142857143
 40
0.7142857142857143
 40
1.0
 40
1.0
 40
1.0
 40
1.0
 10
-179.1203
 20
102.9355
 30
0.0
 10
-176.8692
 20
104.9362
 30
0.0
 10
-173.8677
 20
105.8118
 30
0.0
 10
-170.6163
 20
105.6867
 30
0.0
 10
-170.6163
 20
105.6867
 30
0.0
 10
-170.6163
 20
105.6867
 30
0.0
 10
-170.6163
 20
99.0587
 30
0.0
 10
-170.6163
 20
99.0587
 30
0.0
 10
-170.6163
 20
99.0587
 30
0.0
 10
-170.6163
 20
99.0587
 30
0.0
 10
-163.8632
 20
99.0587
 30
0.0
 10
-163.8632
 20
99.0587
 30
0.0
 10
-163.8632
 20
99.0587
 30
0.0
 10
-163.8632
 20
94.0565
 30
0.0
 10
-165.9891
 20
89.6795
 30
0.0
 10
-170.9914
 20
87.5533
 30
0.0
 10
-170.9914
 20
87.5533
 30
0.0
 10
-170.9914
 20
87.5533
 30
0.0
 10
-179.1203
 20
87.5533
 30
0.0
 10
-179.1203
 20
87.5533
 30
0.0
 10
-179.1203
 20
87.5533
 30
0.0
 10
-179.1203
 20
87.5533
 30
0.0
 10
-179.1203
 20
102.9355
 30
0.0
 10
-179.1203
 20
102.9355
 30
0.0
  0
SPLINE
  5
88
330
1F
100
AcDbEntity
  8
layer 1
 62
     7
100
AcDbSpline
210
0.0
220
0.0
230
1.0
 70
    11
 71
     3
 72
    28
 73
    24
 74
     0
 42
0.0000000001
 43
0.0000000001
 12
1.0
 22
0.0
 32
0.0
 13
1.0
 23
0.0
 33
0.0
 40
0.0
 40
0.0
 40
0.0
 40
0.0
 40
0.1428571428571428
 40
0.1428571428571428
 40
0.1428571428571428
 40
0.1428571428571428
 40
0.2857142857142857
 40
0.2857142857142857
 40
0.2857142857142857
 40
0.2857142857142857
 40
0.4285714285714285
 40
0.4285714285714285
 40
0.4285714285714285
 40
0.4285714285714285
 40
0.5714285714285714
 40
0.5714285714285714
 40
0.5714285714285714
 40
0.5714285714285714
 40
0.7142857142857143
 40
0.7142857142857143
 40
0.7142857142857143
 40
0.7142857142857143
 40
1.0
 40
1.0
 40
1.0
 40
1.0
 10
-139.8519
 20
87.5533
 30
0.0
 10
-139.8519
 20
87.5533
 30
0.0
 10
-150.9823
 20
87.5533
 30
0.0
 10
-150.9823
 20
87.5533
 30
0.0
 10
-150.9823
 20
87.5533
 30
0.0
 10
-155.9846
 20
89.6795
 30
0.0
 10
-158.1105
 20
94.0565
 30
0.0
 10
-158.1105
 20
99.0587
 30
0.0
 10
-158.1105
 20
99.0587
 30
0.0
 10
-158.1105
 20
99.0587
 30
0.0
 10
-151.3573
 20
99.0587
 30
0.0
 10
-151.3573
 20
99.0587
 30
0.0
 10
-151.3573
 20
99.0587
 30
0.0
 10
-151.3573
 20
99.0587
 30
0.0
 10
-151.3573
 20
105.6867
 30
0.0
 10
-151.3573
 20
105.6867
 30
0.0
 10
-151.3573
 20
105.6867
 30
0.0
 10
-146.3551
 20
105.8118
 30
0.0
 10
-141.9781
 20
103.6859
 30
0.0
 10
-139.8519
 20
98.6837
 30
0.0
 10
-139.8519
 20
98.6837
 30
0.0
 10
-139.8519
 20
98.6837
 30
0.0
 10
-139.8519
 20
87.5533
 30
0.0
 10
-139.8519
 20
87.5533
 30
0.0
  0
SPLINE
  5
89
330
1F
100
AcDbEntity
  8
layer 1
 62
     7
100
AcDbSpline
210
0.0
220
0.0
230
1.0
 70
    11
 71
     3
 72
    28
 73
    24
 74
     0
 42
0.0000000001
 43
0.0000000001
 12
1.0
 22
0.0
 32
0.0
 13
1.0
 23
0.0
 33
0.0
 40
0.0
 40
0.0
 40
0.0
 40
0.0
 40
0.1428571428571428
 40
0.1428571428571428
 40
0.1428571428571428
 40
0.1428571428571428
 40
0.2857142857142857
 40
0.2857142857142857
 40
0.2857142857142857
 40
0.2857142857142857
 40
0.4285714285714285
 40
0.4285714285714285
 40
0.4285714285714285
 40
0.4285714285714285
 40
0.5714285714285714
 40
0.5714285714285714
 40
0.5714285714285714
 40
0.5714285714285714
 40
0.7142857142857143
 40
0.7142857142857143
 40
0.7142857142857143
 40
0.7142857142857143
 40
1.0
 40
1.0
 40
1.0
 40
1.0
 10
-139.8519
 20
124.1952
 30
0.0
 10
-139.8519
 20
124.1952
 30
0.0
 10
-139.8519
 20
118.5676
 30
0.0
 10
-139.8519
 20
118.5676
 30
0.0
 10
-139.8519
 20
118.5676
 30
0.0
 10
-141.9781
 20
113.6905
 30
0.0
 10
-146.3551
 20
111.5646
 30
0.0
 10
-151.3573
 20
111.5646
 30
0.0
 10
-151.3573
 20
111.5646
 30
0.0
 10
-151.3573
 20
111.5646
 30
0.0
 10
-151.3573
 20
118.3177
 30
0.0
 10
-151.3573
 20
118.3177
 30
0.0
 10
-151.3573
 20
118.3177
 30
0.0
 10
-151.3573
 20
118.3177
 30
0.0
 10
-158.1105
 20
118.3177
 30
0.0
 10
-158.1105
 20
118.3177
 30
0.0
 10
-158.1105
 20
118.3177
 30
0.0
 10
-158.1105
 20
120.4436
 30
0.0
 10
-157.7354
 20
122.4444
 30
0.0
 10
-156.9849
 20
124.1952
 30
0.0
 10
-156.9849
 20
124.1952
 30
0.0
 10
-156.9849
 20
124.1952
 30
0.0
 10
-139.8519
 20
124.1952
 30
0.0
 10
-139.8519
 20
124.1952
 30
0.0
  0
SPLINE
  5
8A
330
1F
100
AcDbEntity
  8
layer 1
 62
     7
100
AcDbSpline
210
0.0
220
0.0
230
1.0
 70
    11
 71
     3
 72
    28
 73
    24
 74
     0
 42
0.0000000001
 43
0.0000000001
 12
1.0
 22
0.0
 32
0.0
 13
1.0
 23
0.0
 33
0.0
 40
0.0
 40
0.0
 40
0.0
 40
0.0
 40
0.1428571428571428
 40
0.1428571428571428
 40
0.1428571428571428
 40
0.1428571428571428
 40
0.2857142857142857
 40
0.2857142857142857
 40
0.2857142857142857
 40
0.2857142857142857
 40
0.4285714285714285
 40
0.4285714285714285
 40
0.4285714285714285
 40
0.4285714285714285
 40
0.5714285714285714
 40
0.5714285714285714
 40
0.5714285714285714
 40
0.5714285714285714
 40
0.7142857142857143
 40
0.7142857142857143
 40
0.7142857142857143
 40
0.7142857142857143
 40
1.0
 40
1.0
 40
1.0
 40
1.0
 10
-165.1138
 20
124.1952
 30
0.0
 10
-164.2382
 20
122.4444
 30
0.0
 10
-163.8632
 20
120.4436
 30
0.0
 10
-163.8632
 20
118.3177
 30
0.0
 10
-163.8632
 20
118.3177
 30
0.0
 10
-163.8632
 20
118.3177
 30
0.0
 10
-170.6163
 20
118.3177
 30
0.0
 10
-170.6163
 20
118.3177
 30
0.0
 10
-170.6163
 20
118.3177
 30
0.0
 10
-170.6163
 20
118.3177
 30
0.0
 10
-170.6163
 20
111.5646
 30
0.0
 10
-170.6163
 20
111.5646
 30
0.0
 10
-170.6163
 20
111.5646
 30
0.0
 10
-173.8677
 20
111.5646
 30
0.0
 10
-176.8692
 20
112.4398
 30
0.0
 10
-179.1203
 20
114.4409
 30
0.0
 10
-179.1203
 20
114.4409
 30
0.0
 10
-179.1203
 20
114.4409
 30
0.0
 10
-179.1203
 20
124.1952
 30
0.0
 10
-179.1203
 20
124.1952
 30
0.0
 10
-179.1203
 20
124.1952
 30
0.0
 10
-179.1203
 20
124.1952
 30
0.0
 10
-165.1138
 20
124.1952
 30
0.0
 10
-165.1138
 20
124.1952
 30
0.0
  0
SPLINE
  5
8B
330
1F
100
AcDbEntity
  8
layer 1
 62
     7
100
AcDbSpline
210
0.0
220
0.0
230
1.0
 70
    11
 71
     3
 72
    20
 73
    16
 74
     0
 42
0.0000000001
 43
0.0000000001
 12
1.0
 22
0.0
 32
0.0
 13
1.0
 23
0.0
 33
0.0
 40
0.0
 40
0.0
 40
0.0
 40
0.0
 40
0.2
 40
0.2
 40
0.2
 40
0.2
 40
0.4
 40
0.4
 40
0.4
 40
0.4
 40
0.6
 40
0.6
 40
0.6
 40
0.6
 40
1.0
 40
1.0
 40
1.0
 40
1.0
 10
-166.7396
 20
102.9355
 30
0.0
 10
-166.7396
 20
102.9355
 30
0.0
 10
-166.7396
 20
114.3771
 30
0.0
 10
-166.7396
 20
114.3771
 30
0.0
 10
-166.7396
 20
114.3771
 30
0.0
 10
-166.7396
 20
114.3771
 30
0.0
 10
-155.2993
 20
114.3771
 30
0.0
 10
-155.2993
 20
114.3771
 30
0.0
 10
-155.2993
 20
114.3771
 30
0.0
 10
-155.2993
 20
114.3771
 30
0.0
 10
-155.2993
 20
102.9355
 30
0.0
 10
-155.2993
 20
102.9355
 30
0.0
 10
-155.2993
 20
102.9355
 30
0.0
 10
-155.2993
 20
102.9355
 30
0.0
 10
-166.7396
 20
102.9355
 30
0.0
 10
-166.7396
 20
102.9355
 30
0.0
  0
SPLINE
  5
8C
330
1F
100
AcDbEntity
  8
layer 1
 62
     7
100
AcDbSpline
210
0.0
220
0.0
230
1.0
 70
    11
 71
     3
 72
    20
 73
    16
 74
     0
 42
0.0000000001
 43
0.0000000001
 12
1.0
 22
0.0
 32
0.0
 13
1.0
 23
0.0
 33
0.0
 40
0.0
 40
0.0
 40
0.0
 40
0.0
 40
0.2
 40
0.2
 40
0.2
 40
0.2
 40
0.4
 40
0.4
 40
0.4
 40
0.4
 40
0.6
 40
0.6
 40
0.6
 40
0.6
 40
1.0
 40
1.0
 40
1.0
 40
1.0
 10
-167.2397
 20
33.4036
 30
0.0
 10
-164.7384
 20
34.779
 30
0.0
 10
-162.6125
 20
36.7801
 30
0.0
 10
-160.9868
 20
39.5313
 30
0.0
 10
-160.9868
 20
39.5313
 30
0.0
 10
-159.3611
 20
36.7801
 30
0.0
 10
-157.2352
 20
34.779
 30
0.0
 10
-154.7339
 20
33.4036
 30
0.0
 10
-154.7339
 20
33.4036
 30
0.0
 10
-157.2352
 20
32.1529
 30
0.0
 10
-159.3611
 20
30.027
 30
0.0
 10
-160.9868
 20
27.4005
 30
0.0
 10
-160.9868
 20
27.4005
 30
0.0
 10
-162.6125
 20
30.027
 30
0.0
 10
-164.7384
 20
32.1529
 30
0.0
 10
-167.2397
 20
33.4036
 30
0.0
  0
SPLINE
  5
8D
330
1F
100
AcDbEntity
  8
layer 1
 62
     7
100
AcDbSpline
210
0.0
220
0.0
230
1.0
 70
    11
 71
     3
 72
    28
 73
    24
 74
     0
 42
0.0000000001
 43
0.0000000001
 12
1.0
 22
0.0
 32
0.0
 13
1.0
 23
0.0
 33
0.0
 40
0.0
 40
0.0
 40
0.0
 40
0.0
 40
0.1428571428571428
 40
0.1428571428571428
 40
0.1428571428571428
 40
0.1428571428571428
 40
0.2857142857142857
 40
0.2857142857142857
 40
0.2857142857142857
 40
0.2857142857142857
 40
0.4285714285714285
 40
0.4285714285714285
 40
0.4285714285714285
 40
0.4285714285714285
 40
0.5714285714285714
 40
0.5714285714285714
 40
0.5714285714285714
 40
0.5714285714285714
 40
0.7142857142857143
 40
0.7142857142857143
 40
0.7142857142857143
 40
0.7142857142857143
 40
1.0
 40
1.0
 40
1.0
 40
1.0
 10
-179.1203
 20
52.7873
 30
0.0
 10
-176.8692
 20
54.7884
 30
0.0
 10
-173.8677
 20
55.6637
 30
0.0
 10
-170.6163
 20
55.6637
 30
0.0
 10
-170.6163
 20
55.6637
 30
0.0
 10
-170.6163
 20
55.6637
 30
0.0
 10
-170.6163
 20
48.9105
 30
0.0
 10
-170.6163
 20
48.9105
 30
0.0
 10
-170.6163
 20
48.9105
 30
0.0
 10
-170.6163
 20
48.9105
 30
0.0
 10
-163.8632
 20
48.9105
 30
0.0
 10
-163.8632
 20
48.9105
 30
0.0
 10
-163.8632
 20
48.9105
 30
0.0
 10
-163.8632
 20
43.9083
 30
0.0
 10
-165.9891
 20
39.5313
 30
0.0
 10
-170.9914
 20
37.4051
 30
0.0
 10
-170.9914
 20
37.4051
 30
0.0
 10
-170.9914
 20
37.4051
 30
0.0
 10
-179.1203
 20
37.4051
 30
0.0
 10
-179.1203
 20
37.4051
 30
0.0
 10
-179.1203
 20
37.4051
 30
0.0
 10
-179.1203
 20
37.4051
 30
0.0
 10
-179.1203
 20
52.7873
 30
0.0
 10
-179.1203
 20
52.7873
 30
0.0
  0
SPLINE
  5
8E
330
1F
100
AcDbEntity
  8
layer 1
 62
     7
100
AcDbSpline
210
0.0
220
0.0
230
1.0
 70
    11
 71
     3
 72
    28
 73
    24
 74
     0
 42
0.0000000001
 43
0.0000000001
 12
1.0
 22
0.0
 32
0.0
 13
1.0
 23
0.0
 33
0.0
 40
0.0
 40
0.0
 40
0.0
 40
0.0
 40
0.1428571428571428
 40
0.1428571428571428
 40
0.1428571428571428
 40
0.1428571428571428
 40
0.2857142857142857
 40
0.2857142857142857
 40
0.2857142857142857
 40
0.2857142857142857
 40
0.4285714285714285
 40
0.4285714285714285
 40
0.4285714285714285
 40
0.4285714285714285
 40
0.5714285714285714
 40
0.5714285714285714
 40
0.5714285714285714
 40
0.5714285714285714
 40
0.7142857142857143
 40
0.7142857142857143
 40
0.7142857142857143
 40
0.7142857142857143
 40
1.0
 40
1.0
 40
1.0
 40
1.0
 10
-139.8519
 20
37.4051
 30
0.0
 10
-139.8519
 20
37.4051
 30
0.0
 10
-150.9823
 20
37.4051
 30
0.0
 10
-150.9823
 20
37.4051
 30
0.0
 10
-150.9823
 20
37.4051
 30
0.0
 10
-155.9846
 20
39.5313
 30
0.0
 10
-158.1105
 20
43.9083
 30
0.0
 10
-158.1105
 20
48.9105
 30
0.0
 10
-158.1105
 20
48.9105
 30
0.0
 10
-158.1105
 20
48.9105
 30
0.0
 10
-151.3573
 20
48.9105
 30
0.0
 10
-151.3573
 20
48.9105
 30
0.0
 10
-151.3573
 20
48.9105
 30
0.0
 10
-151.3573
 20
48.9105
 30
0.0
 10
-151.3573
 20
55.6637
 30
0.0
 10
-151.3573
 20
55.6637
 30
0.0
 10
-151.3573
 20
55.6637
 30
0.0
 10
-146.3551
 20
55.6637
 30
0.0
 10
-141.9781
 20
53.5378
 30
0.0
 10
-139.8519
 20
48.5355
 30
0.0
 10
-139.8519
 20
48.5355
 30
0.0
 10
-139.8519
 20
48.5355
 30
0.0
 10
-139.8519
 20
37.4051
 30
0.0
 10
-139.8519
 20
37.4051
 30
0.0
  0
SPLINE
  5
8F
330
1F
100
AcDbEntity
  8
layer 1
 62
     7
100
AcDbSpline
210
0.0
220
0.0
230
1.0
 70
    11
 71
     3
 72
    28
 73
    24
 74
     0
 42
0.0000000001
 43
0.0000000001
 12
1.0
 22
0.0
 32
0.0
 13
1.0
 23
0.0
 33
0.0
 40
0.0
 40
0.0
 40
0.0
 40
0.0
 40
0.1428571428571428
 40
0.1428571428571428
 40
0.1428571428571428
 40
0.1428571428571428
 40
0.2857142857142857
 40
0.2857142857142857
 40
0.2857142857142857
 40
0.2857142857142857
 40
0.4285714285714285
 40
0.4285714285714285
 40
0.4285714285714285
 40
0.4285714285714285
 40
0.5714285714285714
 40
0.5714285714285714
 40
0.5714285714285714
 40
0.5714285714285714
 40
0.7142857142857143
 40
0.7142857142857143
 40
0.7142857142857143
 40
0.7142857142857143
 40
1.0
 40
1.0
 40
1.0
 40
1.0
 10
-139.8519
 20
79.6746
 30
0.0
 10
-139.8519
 20
79.6746
 30
0.0
 10
-139.8519
 20
68.4194
 30
0.0
 10
-139.8519
 20
68.4194
 30
0.0
 10
-139.8519
 20
68.4194
 30
0.0
 10
-141.9781
 20
63.5423
 30
0.0
 10
-146.3551
 20
61.4164
 30
0.0
 10
-151.3573
 20
61.4164
 30
0.0
 10
-151.3573
 20
61.4164
 30
0.0
 10
-151.3573
 20
61.4164
 30
0.0
 10
-151.3573
 20
68.1695
 30
0.0
 10
-151.3573
 20
68.1695
 30
0.0
 10
-151.3573
 20
68.1695
 30
0.0
 10
-151.3573
 20
68.1695
 30
0.0
 10
-158.1105
 20
68.1695
 30
0.0
 10
-158.1105
 20
68.1695
 30
0.0
 10
-158.1105
 20
68.1695
 30
0.0
 10
-158.1105
 20
73.1718
 30
0.0
 10
-155.9846
 20
77.4236
 30
0.0
 10
-150.9823
 20
79.6746
 30
0.0
 10
-150.9823
 20
79.6746
 30
0.0
 10
-150.9823
 20
79.6746
 30
0.0
 10
-139.8519
 20
79.6746
 30
0.0
 10
-139.8519
 20
79.6746
 30
0.0
  0
SPLINE
  5
90
330
1F
100
AcDbEntity
  8
layer 1
 62
     7
100
AcDbSpline
210
0.0
220
0.0
230
1.0
 70
    11
 71
     3
 72
    28
 73
    24
 74
     0
 42
0.0000000001
 43
0.0000000001
 12
1.0
 22
0.0
 32
0.0
 13
1.0
 23
0.0
 33
0.0
 40
0.0
 40
0.0
 40
0.0
 40
0.0
 40
0.1428571428571428
 40
0.1428571428571428
 40
0.1428571428571428
 40
0.1428571428571428
 40
0.2857142857142857
 40
0.2857142857142857
 40
0.2857142857142857
 40
0.2857142857142857
 40
0.4285714285714285
 40
0.4285714285714285
 40
0.4285714285714285
 40
0.4285714285714285
 40
0.5714285714285714
 40
0.5714285714285714
 40
0.5714285714285714
 40
0.5714285714285714
 40
0.7142857142857143
 40
0.7142857142857143
 40
0.7142857142857143
 40
0.7142857142857143
 40
1.0
 40
1.0
 40
1.0
 40
1.0
 10
-179.1203
 20
79.6746
 30
0.0
 10
-179.1203
 20
79.6746
 30
0.0
 10
-170.9914
 20
79.6746
 30
0.0
 10
-170.9914
 20
79.6746
 30
0.0
 10
-170.9914
 20
79.6746
 30
0.0
 10
-165.9891
 20
77.4236
 30
0.0
 10
-163.8632
 20
73.1718
 30
0.0
 10
-163.8632
 20
68.1695
 30
0.0
 10
-163.8632
 20
68.1695
 30
0.0
 10
-163.8632
 20
68.1695
 30
0.0
 10
-170.6163
 20
68.1695
 30
0.0
 10
-170.6163
 20
68.1695
 30
0.0
 10
-170.6163
 20
68.1695
 30
0.0
 10
-170.6163
 20
68.1695
 30
0.0
 10
-170.6163
 20
61.4164
 30
0.0
 10
-170.6163
 20
61.4164
 30
0.0
 10
-170.6163
 20
61.4164
 30
0.0
 10
-173.8677
 20
61.4164
 30
0.0
 10
-176.8692
 20
62.2916
 30
0.0
 10
-179.1203
 20
64.2928
 30
0.0
 10
-179.1203
 20
64.2928
 30
0.0
 10
-179.1203
 20
64.2928
 30
0.0
 10
-179.1203
 20
79.6746
 30
0.0
 10
-179.1203
 20
79.6746
 30
0.0
  0
SPLINE
  5
91
330
1F
100
AcDbEntity
  8
layer 1
 62
     7
100
AcDbSpline
210
0.0
220
0.0
230
1.0
 70
    11
 71
     3
 72
    20
 73
    16
 74
     0
 42
0.0000000001
 43
0.0000000001
 12
1.0
 22
0.0
 32
0.0
 13
1.0
 23
0.0
 33
0.0
 40
0.0
 40
0.0
 40
0.0
 40
0.0
 40
0.2
 40
0.2
 40
0.2
 40
0.2
 40
0.4
 40
0.4
 40
0.4
 40
0.4
 40
0.6
 40
0.6
 40
0.6
 40
0.6
 40
1.0
 40
1.0
 40
1.0
 40
1.0
 10
-166.7396
 20
52.7873
 30
0.0
 10
-166.7396
 20
52.7873
 30
0.0
 10
-166.7396
 20
64.2275
 30
0.0
 10
-166.7396
 20
64.2275
 30
0.0
 10
-166.7396
 20
64.2275
 30
0.0
 10
-166.7396
 20
64.2275
 30
0.0
 10
-155.2993
 20
64.2275
 30
0.0
 10
-155.2993
 20
64.2275
 30
0.0
 10
-155.2993
 20
64.2275
 30
0.0
 10
-155.2993
 20
64.2275
 30
0.0
 10
-155.2993
 20
52.7873
 30
0.0
 10
-155.2993
 20
52.7873
 30
0.0
 10
-155.2993
 20
52.7873
 30
0.0
 10
-155.2993
 20
52.7873
 30
0.0
 10
-166.7396
 20
52.7873
 30
0.0
 10
-166.7396
 20
52.7873
 30
0.0
  0
SPLINE
  5
92
330
1F
100
AcDbEntity
  8
layer 1
 62
     7
100
AcDbSpline
210
0.0
220
0.0
230
1.0
 70
    11
 71
     3
 72
    20
 73
    16
 74
     0
 42
0.0000000001
 43
0.0000000001
 12
1.0
 22
0.0
 32
0.0
 13
1.0
 23
0.0
 33
0.0
 40
0.0
 40
0.0
 40
0.0
 40
0.0
 40
0.2
 40
0.2
 40
0.2
 40
0.2
 40
0.4
 40
0.4
 40
0.4
 40
0.4
 40
0.6
 40
0.6
 40
0.6
 40
0.6
 40
1.0
 40
1.0
 40
1.0
 40
1.0
 10
-167.2397
 20
-16.7446
 30
0.0
 10
-164.7384
 20
-15.3692
 30
0.0
 10
-162.6125
 20
-13.3681
 30
0.0
 10
-160.9868
 20
-10.6168
 30
0.0
 10
-160.9868
 20
-10.6168
 30
0.0
 10
-159.3611
 20
-13.3681
 30
0.0
 10
-157.2352
 20
-15.3692
 30
0.0
 10
-154.7339
 20
-16.7446
 30
0.0
 10
-154.7339
 20
-16.7446
 30
0.0
 10
-157.2352
 20
-17.9953
 30
0.0
 10
-159.3611
 20
-19.9964
 30
0.0
 10
-160.9868
 20
-22.7476
 30
0.0
 10
-160.9868
 20
-22.7476
 30
0.0
 10
-162.6125
 20
-19.9964
 30
0.0
 10
-164.7384
 20
-17.9953
 30
0.0
 10
-167.2397
 20
-16.7446
 30
0.0
  0
SPLINE
  5
93
330
1F
100
AcDbEntity
  8
layer 1
 62
     7
100
AcDbSpline
210
0.0
220
0.0
230
1.0
 70
    11
 71
     3
 72
    28
 73
    24
 74
     0
 42
0.0000000001
 43
0.0000000001
 12
1.0
 22
0.0
 32
0.0
 13
1.0
 23
0.0
 33
0.0
 40
0.0
 40
0.0
 40
0.0
 40
0.0
 40
0.1428571428571428
 40
0.1428571428571428
 40
0.1428571428571428
 40
0.1428571428571428
 40
0.2857142857142857
 40
0.2857142857142857
 40
0.2857142857142857
 40
0.2857142857142857
 40
0.4285714285714285
 40
0.4285714285714285
 40
0.4285714285714285
 40
0.4285714285714285
 40
0.5714285714285714
 40
0.5714285714285714
 40
0.5714285714285714
 40
0.5714285714285714
 40
0.7142857142857143
 40
0.7142857142857143
 40
0.7142857142857143
 40
0.7142857142857143
 40
1.0
 40
1.0
 40
1.0
 40
1.0
 10
-179.1203
 20
2.6391
 30
0.0
 10
-176.8692
 20
4.6402
 30
0.0
 10
-173.8677
 20
5.5155
 30
0.0
 10
-170.6163
 20
5.5155
 30
0.0
 10
-170.6163
 20
5.5155
 30
0.0
 10
-170.6163
 20
5.5155
 30
0.0
 10
-170.6163
 20
-1.2376
 30
0.0
 10
-170.6163
 20
-1.2376
 30
0.0
 10
-170.6163
 20
-1.2376
 30
0.0
 10
-170.6163
 20
-1.2376
 30
0.0
 10
-163.8632
 20
-1.2376
 30
0.0
 10
-163.8632
 20
-1.2376
 30
0.0
 10
-163.8632
 20
-1.2376
 30
0.0
 10
-163.8632
 20
-6.2399
 30
0.0
 10
-165.9891
 20
-10.6168
 30
0.0
 10
-170.9914
 20
-12.7427
 30
0.0
 10
-170.9914
 20
-12.7427
 30
0.0
 10
-170.9914
 20
-12.7427
 30
0.0
 10
-179.1203
 20
-12.7427
 30
0.0
 10
-179.1203
 20
-12.7427
 30
0.0
 10
-179.1203
 20
-12.7427
 30
0.0
 10
-179.1203
 20
-12.7427
 30
0.0
 10
-179.1203
 20
2.6391
 30
0.0
 10
-179.1203
 20
2.6391
 30
0.0
  0
SPLINE
  5
94
330
1F
100
AcDbEntity
  8
layer 1
 62
     7
100
AcDbSpline
210
0.0
220
0.0
230
1.0
 70
    11
 71
     3
 72
    28
 73
    24
 74
     0
 42
0.0000000001
 43
0.0000000001
 12
1.0
 22
0.0
 32
0.0
 13
1.0
 23
0.0
 33
0.0
 40
0.0
 40
0.0
 40
0.0
 40
0.0
 40
0.1428571428571428
 40
0.1428571428571428
 40
0.1428571428571428
 40
0.1428571428571428
 40
0.2857142857142857
 40
0.2857142857142857
 40
0.2857142857142857
 40
0.2857142857142857
 40
0.4285714285714285
 40
0.4285714285714285
 40
0.4285714285714285
 40
0.4285714285714285
 40
0.5714285714285714
 40
0.5714285714285714
 40
0.5714285714285714
 40
0.5714285714285714
 40
0.7142857142857143
 40
0.7142857142857143
 40
0.7142857142857143
 40
0.7142857142857143
 40
1.0
 40
1.0
 40
1.0
 40
1.0
 10
-139.8519
 20
-12.7427
 30
0.0
 10
-139.8519
 20
-12.7427
 30
0.0
 10
-150.9823
 20
-12.7427
 30
0.0
 10
-150.9823
 20
-12.7427
 30
0.0
 10
-150.9823
 20
-12.7427
 30
0.0
 10
-155.9846
 20
-10.6168
 30
0.0
 10
-158.1105
 20
-6.2399
 30
0.0
 10
-158.1105
 20
-1.2376
 30
0.0
 10
-158.1105
 20
-1.2376
 30
0.0
 10
-158.1105
 20
-1.2376
 30
0.0
 10
-151.3573
 20
-1.2376
 30
0.0
 10
-151.3573
 20
-1.2376
 30
0.0
 10
-151.3573
 20
-1.2376
 30
0.0
 10
-151.3573
 20
-1.2376
 30
0.0
 10
-151.3573
 20
5.5155
 30
0.0
 10
-151.3573
 20
5.5155
 30
0.0
 10
-151.3573
 20
5.5155
 30
0.0
 10
-146.3551
 20
5.5155
 30
0.0
 10
-141.9781
 20
3.3896
 30
0.0
 10
-139.8519
 20
-1.6127
 30
0.0
 10
-139.8519
 20
-1.6127
 30
0.0
 10
-139.8519
 20
-1.6127
 30
0.0
 10
-139.8519
 20
-12.7427
 30
0.0
 10
-139.8519
 20
-12.7427
 30
0.0
  0
SPLINE
  5
95
330
1F
100
AcDbEntity
  8
layer 1
 62
     7
100
AcDbSpline
210
0.0
220
0.0
230
1.0
 70
    11
 71
     3
 72
    28
 73
    24
 74
     0
 42
0.0000000001
 43
0.0000000001
 12
1.0
 22
0.0
 32
0.0
 13
1.0
 23
0.0
 33
0.0
 40
0.0
 40
0.0
 40
0.0
 40
0.0
 40
0.1428571428571428
 40
0.1428571428571428
 40
0.1428571428571428
 40
0.1428571428571428
 40
0.2857142857142857
 40
0.2857142857142857
 40
0.2857142857142857
 40
0.2857142857142857
 40
0.4285714285714285
 40
0.4285714285714285
 40
0.4285714285714285
 40
0.4285714285714285
 40
0.5714285714285714
 40
0.5714285714285714
 40
0.5714285714285714
 40
0.5714285714285714
 40
0.7142857142857143
 40
0.7142857142857143
 40
0.7142857142857143
 40
0.7142857142857143
 40
1.0
 40
1.0
 40
1.0
 40
1.0
 10
-139.8519
 20
29.5264
 30
0.0
 10
-139.8519
 20
29.5264
 30
0.0
 10
-139.8519
 20
18.3964
 30
0.0
 10
-139.8519
 20
18.3964
 30
0.0
 10
-139.8519
 20
18.3964
 30
0.0
 10
-141.9781
 20
13.3941
 30
0.0
 10
-146.3551
 20
11.2682
 30
0.0
 10
-151.3573
 20
11.2682
 30
0.0
 10
-151.3573
 20
11.2682
 30
0.0
 10
-151.3573
 20
11.2682
 30
0.0
 10
-151.3573
 20
18.0213
 30
0.0
 10
-151.3573
 20
18.0213
 30
0.0
 10
-151.3573
 20
18.0213
 30
0.0
 10
-151.3573
 20
18.0213
 30
0.0
 10
-158.1105
 20
18.0213
 30
0.0
 10
-158.1105
 20
18.0213
 30
0.0
 10
-158.1105
 20
18.0213
 30
0.0
 10
-158.1105
 20
23.0236
 30
0.0
 10
-155.9846
 20
27.4005
 30
0.0
 10
-150.9823
 20
29.5264
 30
0.0
 10
-150.9823
 20
29.5264
 30
0.0
 10
-150.9823
 20
29.5264
 30
0.0
 10
-139.8519
 20
29.5264
 30
0.0
 10
-139.8519
 20
29.5264
 30
0.0
  0
SPLINE
  5
96
330
1F
100
AcDbEntity
  8
layer 1
 62
     7
100
AcDbSpline
210
0.0
220
0.0
230
1.0
 70
    11
 71
     3
 72
    28
 73
    24
 74
     0
 42
0.0000000001
 43
0.0000000001
 12
1.0
 22
0.0
 32
0.0
 13
1.0
 23
0.0
 33
0.0
 40
0.0
 40
0.0
 40
0.0
 40
0.0
 40
0.1428571428571428
 40
0.1428571428571428
 40
0.1428571428571428
 40
0.1428571428571428
 40
0.2857142857142857
 40
0.2857142857142857
 40
0.2857142857142857
 40
0.2857142857142857
 40
0.4285714285714285
 40
0.4285714285714285
 40
0.4285714285714285
 40
0.4285714285714285
 40
0.5714285714285714
 40
0.5714285714285714
 40
0.5714285714285714
 40
0.5714285714285714
 40
0.7142857142857143
 40
0.7142857142857143
 40
0.7142857142857143
 40
0.7142857142857143
 40
1.0
 40
1.0
 40
1.0
 40
1.0
 10
-179.1203
 20
29.5264
 30
0.0
 10
-179.1203
 20
29.5264
 30
0.0
 10
-170.9914
 20
29.5264
 30
0.0
 10
-170.9914
 20
29.5264
 30
0.0
 10
-170.9914
 20
29.5264
 30
0.0
 10
-165.9891
 20
27.4005
 30
0.0
 10
-163.8632
 20
23.0236
 30
0.0
 10
-163.8632
 20
18.0213
 30
0.0
 10
-163.8632
 20
18.0213
 30
0.0
 10
-163.8632
 20
18.0213
 30
0.0
 10
-170.6163
 20
18.0213
 30
0.0
 10
-170.6163
 20
18.0213
 30
0.0
 10
-170.6163
 20
18.0213
 30
0.0
 10
-170.6163
 20
18.0213
 30
0.0
 10
-170.6163
 20
11.2682
 30
0.0
 10
-170.6163
 20
11.2682
 30
0.0
 10
-170.6163
 20
11.2682
 30
0.0
 10
-173.8677
 20
11.2682
 30
0.0
 10
-176.8692
 20
12.1435
 30
0.0
 10
-179.1203
 20
14.1446
 30
0.0
 10
-179.1203
 20
14.1446
 30
0.0
 10
-179.1203
 20
14.1446
 30
0.0
 10
-179.1203
 20
29.5264
 30
0.0
 10
-179.1203
 20
29.5264
 30
0.0
  0
SPLINE
  5
97
330
1F
100
AcDbEntity
  8
layer 1
 62
     7
100
AcDbSpline
210
0.0
220
0.0
230
1.0
 70
    11
 71
     3
 72
    20
 73
    16
 74
     0
 42
0.0000000001
 43
0.0000000001
 12
1.0
 22
0.0
 32
0.0
 13
1.0
 23
0.0
 33
0.0
 40
0.0
 40
0.0
 40
0.0
 40
0.0
 40
0.2
 40
0.2
 40
0.2
 40
0.2
 40
0.4
 40
0.4
 40
0.4
 40
0.4
 40
0.6
 40
0.6
 40
0.6
 40
0.6
 40
1.0
 40
1.0
 40
1.0
 40
1.0
 10
-166.7396
 20
2.6391
 30
0.0
 10
-166.7396
 20
2.6391
 30
0.0
 10
-166.7396
 20
14.0794
 30
0.0
 10
-166.7396
 20
14.0794
 30
0.0
 10
-166.7396
 20
14.0794
 30
0.0
 10
-166.7396
 20
14.0794
 30
0.0
 10
-155.2993
 20
14.0794
 30
0.0
 10
-155.2993
 20
14.0794
 30
0.0
 10
-155.2993
 20
14.0794
 30
0.0
 10
-155.2993
 20
14.0794
 30
0.0
 10
-155.2993
 20
2.6391
 30
0.0
 10
-155.2993
 20
2.6391
 30
0.0
 10
-155.2993
 20
2.6391
 30
0.0
 10
-155.2993
 20
2.6391
 30
0.0
 10
-166.7396
 20
2.6391
 30
0.0
 10
-166.7396
 20
2.6391
 30
0.0
  0
SPLINE
  5
98
330
1F
100
AcDbEntity
  8
layer 1
 62
     7
100
AcDbSpline
210
0.0
220
0.0
230
1.0
 70
    11
 71
     3
 72
    20
 73
    16
 74
     0
 42
0.0000000001
 43
0.0000000001
 12
1.0
 22
0.0
 32
0.0
 13
1.0
 23
0.0
 33
0.0
 40
0.0
 40
0.0
 40
0.0
 40
0.0
 40
0.2
 40
0.2
 40
0.2
 40
0.2
 40
0.4
 40
0.4
 40
0.4
 40
0.4
 40
0.6
 40
0.6
 40
0.6
 40
0.6
 40
1.0
 40
1.0
 40
1.0
 40
1.0
 10
-167.2397
 20
-66.7677
 30
0.0
 10
-164.7384
 20
-65.5174
 30
0.0
 10
-162.6125
 20
-63.5162
 30
0.0
 10
-160.9868
 20
-60.765
 30
0.0
 10
-160.9868
 20
-60.765
 30
0.0
 10
-159.3611
 20
-63.5162
 30
0.0
 10
-157.2352
 20
-65.5174
 30
0.0
 10
-154.7339
 20
-66.7677
 30
0.0
 10
-154.7339
 20
-66.7677
 30
0.0
 10
-157.2352
 20
-68.1434
 30
0.0
 10
-159.3611
 20
-70.1442
 30
0.0
 10
-160.9868
 20
-72.8958
 30
0.0
 10
-160.9868
 20
-72.8958
 30
0.0
 10
-162.6125
 20
-70.1442
 30
0.0
 10
-164.7384
 20
-68.1434
 30
0.0
 10
-167.2397
 20
-66.7677
 30
0.0
  0
SPLINE
  5
99
330
1F
100
AcDbEntity
  8
layer 1
 62
     7
100
AcDbSpline
210
0.0
220
0.0
230
1.0
 70
    11
 71
     3
 72
    28
 73
    24
 74
     0
 42
0.0000000001
 43
0.0000000001
 12
1.0
 22
0.0
 32
0.0
 13
1.0
 23
0.0
 33
0.0
 40
0.0
 40
0.0
 40
0.0
 40
0.0
 40
0.1428571428571428
 40
0.1428571428571428
 40
0.1428571428571428
 40
0.1428571428571428
 40
0.2857142857142857
 40
0.2857142857142857
 40
0.2857142857142857
 40
0.2857142857142857
 40
0.4285714285714285
 40
0.4285714285714285
 40
0.4285714285714285
 40
0.4285714285714285
 40
0.5714285714285714
 40
0.5714285714285714
 40
0.5714285714285714
 40
0.5714285714285714
 40
0.7142857142857143
 40
0.7142857142857143
 40
0.7142857142857143
 40
0.7142857142857143
 40
1.0
 40
1.0
 40
1.0
 40
1.0
 10
-179.1203
 20
-47.509
 30
0.0
 10
-176.8692
 20
-45.5079
 30
0.0
 10
-173.8677
 20
-44.6327
 30
0.0
 10
-170.6163
 20
-44.6327
 30
0.0
 10
-170.6163
 20
-44.6327
 30
0.0
 10
-170.6163
 20
-44.6327
 30
0.0
 10
-170.6163
 20
-51.3858
 30
0.0
 10
-170.6163
 20
-51.3858
 30
0.0
 10
-170.6163
 20
-51.3858
 30
0.0
 10
-170.6163
 20
-51.3858
 30
0.0
 10
-163.8632
 20
-51.3858
 30
0.0
 10
-163.8632
 20
-51.3858
 30
0.0
 10
-163.8632
 20
-51.3858
 30
0.0
 10
-163.8632
 20
-56.3881
 30
0.0
 10
-165.9891
 20
-60.6399
 30
0.0
 10
-170.9914
 20
-62.8909
 30
0.0
 10
-170.9914
 20
-62.8909
 30
0.0
 10
-170.9914
 20
-62.8909
 30
0.0
 10
-179.1203
 20
-62.8909
 30
0.0
 10
-179.1203
 20
-62.8909
 30
0.0
 10
-179.1203
 20
-62.8909
 30
0.0
 10
-179.1203
 20
-62.8909
 30
0.0
 10
-179.1203
 20
-47.509
 30
0.0
 10
-179.1203
 20
-47.509
 30
0.0
  0
SPLINE
  5
9A
330
1F
100
AcDbEntity
  8
layer 1
 62
     7
100
AcDbSpline
210
0.0
220
0.0
230
1.0
 70
    11
 71
     3
 72
    28
 73
    24
 74
     0
 42
0.0000000001
 43
0.0000000001
 12
1.0
 22
0.0
 32
0.0
 13
1.0
 23
0.0
 33
0.0
 40
0.0
 40
0.0
 40
0.0
 40
0.0
 40
0.1428571428571428
 40
0.1428571428571428
 40
0.1428571428571428
 40
0.1428571428571428
 40
0.2857142857142857
 40
0.2857142857142857
 40
0.2857142857142857
 40
0.2857142857142857
 40
0.4285714285714285
 40
0.4285714285714285
 40
0.4285714285714285
 40
0.4285714285714285
 40
0.5714285714285714
 40
0.5714285714285714
 40
0.5714285714285714
 40
0.5714285714285714
 40
0.7142857142857143
 40
0.7142857142857143
 40
0.7142857142857143
 40
0.7142857142857143
 40
1.0
 40
1.0
 40
1.0
 40
1.0
 10
-139.8519
 20
-62.8909
 30
0.0
 10
-139.8519
 20
-62.8909
 30
0.0
 10
-150.9823
 20
-62.8909
 30
0.0
 10
-150.9823
 20
-62.8909
 30
0.0
 10
-150.9823
 20
-62.8909
 30
0.0
 10
-155.9846
 20
-60.6399
 30
0.0
 10
-158.1105
 20
-56.3881
 30
0.0
 10
-158.1105
 20
-51.3858
 30
0.0
 10
-158.1105
 20
-51.3858
 30
0.0
 10
-158.1105
 20
-51.3858
 30
0.0
 10
-151.3573
 20
-51.3858
 30
0.0
 10
-151.3573
 20
-51.3858
 30
0.0
 10
-151.3573
 20
-51.3858
 30
0.0
 10
-151.3573
 20
-51.3858
 30
0.0
 10
-151.3573
 20
-44.6327
 30
0.0
 10
-151.3573
 20
-44.6327
 30
0.0
 10
-151.3573
 20
-44.6327
 30
0.0
 10
-146.3551
 20
-44.6327
 30
0.0
 10
-141.9781
 20
-46.7586
 30
0.0
 10
-139.8519
 20
-51.7609
 30
0.0
 10
-139.8519
 20
-51.7609
 30
0.0
 10
-139.8519
 20
-51.7609
 30
0.0
 10
-139.8519
 20
-62.8909
 30
0.0
 10
-139.8519
 20
-62.8909
 30
0.0
  0
SPLINE
  5
9B
330
1F
100
AcDbEntity
  8
layer 1
 62
     7
100
AcDbSpline
210
0.0
220
0.0
230
1.0
 70
    11
 71
     3
 72
    28
 73
    24
 74
     0
 42
0.0000000001
 43
0.0000000001
 12
1.0
 22
0.0
 32
0.0
 13
1.0
 23
0.0
 33
0.0
 40
0.0
 40
0.0
 40
0.0
 40
0.0
 40
0.1428571428571428
 40
0.1428571428571428
 40
0.1428571428571428
 40
0.1428571428571428
 40
0.2857142857142857
 40
0.2857142857142857
 40
0.2857142857142857
 40
0.2857142857142857
 40
0.4285714285714285
 40
0.4285714285714285
 40
0.4285714285714285
 40
0.4285714285714285
 40
0.5714285714285714
 40
0.5714285714285714
 40
0.5714285714285714
 40
0.5714285714285714
 40
0.7142857142857143
 40
0.7142857142857143
 40
0.7142857142857143
 40
0.7142857142857143
 40
1.0
 40
1.0
 40
1.0
 40
1.0
 10
-139.8519
 20
-20.6214
 30
0.0
 10
-139.8519
 20
-20.6214
 30
0.0
 10
-139.8519
 20
-31.7518
 30
0.0
 10
-139.8519
 20
-31.7518
 30
0.0
 10
-139.8519
 20
-31.7518
 30
0.0
 10
-141.9781
 20
-36.754
 30
0.0
 10
-146.3551
 20
-38.8799
 30
0.0
 10
-151.3573
 20
-38.8799
 30
0.0
 10
-151.3573
 20
-38.8799
 30
0.0
 10
-151.3573
 20
-38.8799
 30
0.0
 10
-151.3573
 20
-32.1268
 30
0.0
 10
-151.3573
 20
-32.1268
 30
0.0
 10
-151.3573
 20
-32.1268
 30
0.0
 10
-151.3573
 20
-32.1268
 30
0.0
 10
-158.1105
 20
-32.1268
 30
0.0
 10
-158.1105
 20
-32.1268
 30
0.0
 10
-158.1105
 20
-32.1268
 30
0.0
 10
-158.1105
 20
-27.1246
 30
0.0
 10
-155.9846
 20
-22.7476
 30
0.0
 10
-150.9823
 20
-20.6214
 30
0.0
 10
-150.9823
 20
-20.6214
 30
0.0
 10
-150.9823
 20
-20.6214
 30
0.0
 10
-139.8519
 20
-20.6214
 30
0.0
 10
-139.8519
 20
-20.6214
 30
0.0
  0
SPLINE
  5
9C
330
1F
100
AcDbEntity
  8
layer 1
 62
     7
100
AcDbSpline
210
0.0
220
0.0
230
1.0
 70
    11
 71
     3
 72
    28
 73
    24
 74
     0
 42
0.0000000001
 43
0.0000000001
 12
1.0
 22
0.0
 32
0.0
 13
1.0
 23
0.0
 33
0.0
 40
0.0
 40
0.0
 40
0.0
 40
0.0
 40
0.1428571428571428
 40
0.1428571428571428
 40
0.1428571428571428
 40
0.1428571428571428
 40
0.2857142857142857
 40
0.2857142857142857
 40
0.2857142857142857
 40
0.2857142857142857
 40
0.4285714285714285
 40
0.4285714285714285
 40
0.4285714285714285
 40
0.4285714285714285
 40
0.5714285714285714
 40
0.5714285714285714
 40
0.5714285714285714
 40
0.5714285714285714
 40
0.7142857142857143
 40
0.7142857142857143
 40
0.7142857142857143
 40
0.7142857142857143
 40
1.0
 40
1.0
 40
1.0
 40
1.0
 10
-179.1203
 20
-20.6214
 30
0.0
 10
-179.1203
 20
-20.6214
 30
0.0
 10
-170.9914
 20
-20.6214
 30
0.0
 10
-170.9914
 20
-20.6214
 30
0.0
 10
-170.9914
 20
-20.6214
 30
0.0
 10
-165.9891
 20
-22.7476
 30
0.0
 10
-163.8632
 20
-27.1246
 30
0.0
 10
-163.8632
 20
-32.1268
 30
0.0
 10
-163.8632
 20
-32.1268
 30
0.0
 10
-163.8632
 20
-32.1268
 30
0.0
 10
-170.6163
 20
-32.1268
 30
0.0
 10
-170.6163
 20
-32.1268
 30
0.0
 10
-170.6163
 20
-32.1268
 30
0.0
 10
-170.6163
 20
-32.1268
 30
0.0
 10
-170.6163
 20
-38.8799
 30
0.0
 10
-170.6163
 20
-38.8799
 30
0.0
 10
-170.6163
 20
-38.8799
 30
0.0
 10
-173.8677
 20
-38.8799
 30
0.0
 10
-176.8692
 20
-38.0047
 30
0.0
 10
-179.1203
 20
-36.0036
 30
0.0
 10
-179.1203
 20
-36.0036
 30
0.0
 10
-179.1203
 20
-36.0036
 30
0.0
 10
-179.1203
 20
-20.6214
 30
0.0
 10
-179.1203
 20
-20.6214
 30
0.0
  0
SPLINE
  5
9D
330
1F
100
AcDbEntity
  8
layer 1
 62
     7
100
AcDbSpline
210
0.0
220
0.0
230
1.0
 70
    11
 71
     3
 72
    20
 73
    16
 74
     0
 42
0.0000000001
 43
0.0000000001
 12
1.0
 22
0.0
 32
0.0
 13
1.0
 23
0.0
 33
0.0
 40
0.0
 40
0.0
 40
0.0
 40
0.0
 40
0.2
 40
0.2
 40
0.2
 40
0.2
 40
0.4
 40
0.4
 40
0.4
 40
0.4
 40
0.6
 40
0.6
 40
0.6
 40
0.6
 40
1.0
 40
1.0
 40
1.0
 40
1.0
 10
-166.7396
 20
-47.509
 30
0.0
 10
-166.7396
 20
-47.509
 30
0.0
 10
-166.7396
 20
-36.0688
 30
0.0
 10
-166.7396
 20
-36.0688
 30
0.0
 10
-166.7396
 20
-36.0688
 30
0.0
 10
-166.7396
 20
-36.0688
 30
0.0
 10
-155.2993
 20
-36.0688
 30
0.0
 10
-155.2993
 20
-36.0688
 30
0.0
 10
-155.2993
 20
-36.0688
 30
0.0
 10
-155.2993
 20
-36.0688
 30
0.0
 10
-155.2993
 20
-47.509
 30
0.0
 10
-155.2993
 20
-47.509
 30
0.0
 10
-155.2993
 20
-47.509
 30
0.0
 10
-155.2993
 20
-47.509
 30
0.0
 10
-166.7396
 20
-47.509
 30
0.0
 10
-166.7396
 20
-47.509
 30
0.0
  0
SPLINE
  5
9E
330
1F
100
AcDbEntity
  8
layer 1
 62
     7
100
AcDbSpline
210
0.0
220
0.0
230
1.0
 70
    11
 71
     3
 72
    28
 73
    24
 74
     0
 42
0.0000000001
 43
0.0000000001
 12
1.0
 22
0.0
 32
0.0
 13
1.0
 23
0.0
 33
0.0
 40
0.0
 40
0.0
 40
0.0
 40
0.0
 40
0.1428571428571428
 40
0.1428571428571428
 40
0.1428571428571428
 40
0.1428571428571428
 40
0.2857142857142857
 40
0.2857142857142857
 40
0.2857142857142857
 40
0.2857142857142857
 40
0.4285714285714285
 40
0.4285714285714285
 40
0.4285714285714285
 40
0.4285714285714285
 40
0.5714285714285714
 40
0.5714285714285714
 40
0.5714285714285714
 40
0.5714285714285714
 40
0.7142857142857143
 40
0.7142857142857143
 40
0.7142857142857143
 40
0.7142857142857143
 40
1.0
 40
1.0
 40
1.0
 40
1.0
 10
-179.1203
 20
-97.6445
 30
0.0
 10
-176.8692
 20
-95.6437
 30
0.0
 10
-173.8677
 20
-94.7557
 30
0.0
 10
-170.6163
 20
-94.7933
 30
0.0
 10
-170.6163
 20
-94.7933
 30
0.0
 10
-170.6163
 20
-94.7933
 30
0.0
 10
-170.6163
 20
-101.4964
 30
0.0
 10
-170.6163
 20
-101.4964
 30
0.0
 10
-170.6163
 20
-101.4964
 30
0.0
 10
-170.6163
 20
-101.4964
 30
0.0
 10
-163.8632
 20
-101.5088
 30
0.0
 10
-163.8632
 20
-101.5088
 30
0.0
 10
-163.8632
 20
-101.5088
 30
0.0
 10
-163.8632
 20
-103.6223
 30
0.0
 10
-164.2382
 20
-105.6234
 30
0.0
 10
-165.1138
 20
-107.3867
 30
0.0
 10
-165.1138
 20
-107.3867
 30
0.0
 10
-165.1138
 20
-107.3867
 30
0.0
 10
-179.1203
 20
-107.3867
 30
0.0
 10
-179.1203
 20
-107.3867
 30
0.0
 10
-179.1203
 20
-107.3867
 30
0.0
 10
-179.1203
 20
-107.3867
 30
0.0
 10
-179.1203
 20
-97.6445
 30
0.0
 10
-179.1203
 20
-97.6445
 30
0.0
  0
SPLINE
  5
9F
330
1F
100
AcDbEntity
  8
layer 1
 62
     7
100
AcDbSpline
210
0.0
220
0.0
230
1.0
 70
    11
 71
     3
 72
    28
 73
    24
 74
     0
 42
0.0000000001
 43
0.0000000001
 12
1.0
 22
0.0
 32
0.0
 13
1.0
 23
0.0
 33
0.0
 40
0.0
 40
0.0
 40
0.0
 40
0.0
 40
0.1428571428571428
 40
0.1428571428571428
 40
0.1428571428571428
 40
0.1428571428571428
 40
0.2857142857142857
 40
0.2857142857142857
 40
0.2857142857142857
 40
0.2857142857142857
 40
0.4285714285714285
 40
0.4285714285714285
 40
0.4285714285714285
 40
0.4285714285714285
 40
0.5714285714285714
 40
0.5714285714285714
 40
0.5714285714285714
 40
0.5714285714285714
 40
0.7142857142857143
 40
0.7142857142857143
 40
0.7142857142857143
 40
0.7142857142857143
 40
1.0
 40
1.0
 40
1.0
 40
1.0
 10
-156.8598
 20
-107.3867
 30
0.0
 10
-157.7354
 20
-105.6234
 30
0.0
 10
-158.1105
 20
-103.6223
 30
0.0
 10
-158.1105
 20
-101.5088
 30
0.0
 10
-158.1105
 20
-101.5088
 30
0.0
 10
-158.1105
 20
-101.5088
 30
0.0
 10
-151.3573
 20
-101.5088
 30
0.0
 10
-151.3573
 20
-101.5088
 30
0.0
 10
-151.3573
 20
-101.5088
 30
0.0
 10
-151.3573
 20
-101.5088
 30
0.0
 10
-151.3573
 20
-94.7933
 30
0.0
 10
-151.3573
 20
-94.7933
 30
0.0
 10
-151.3573
 20
-94.7933
 30
0.0
 10
-146.3551
 20
-94.7433
 30
0.0
 10
-141.9781
 20
-96.8568
 30
0.0
 10
-139.8519
 20
-101.8339
 30
0.0
 10
-139.8519
 20
-101.8339
 30
0.0
 10
-139.8519
 20
-101.8339
 30
0.0
 10
-139.8519
 20
-107.3867
 30
0.0
 10
-139.8519
 20
-107.3867
 30
0.0
 10
-139.8519
 20
-107.3867
 30
0.0
 10
-139.8519
 20
-107.3867
 30
0.0
 10
-156.8598
 20
-107.3867
 30
0.0
 10
-156.8598
 20
-107.3867
 30
0.0
  0
SPLINE
  5
A0
330
1F
100
AcDbEntity
  8
layer 1
 62
     7
100
AcDbSpline
210
0.0
220
0.0
230
1.0
 70
    11
 71
     3
 72
    28
 73
    24
 74
     0
 42
0.0000000001
 43
0.0000000001
 12
1.0
 22
0.0
 32
0.0
 13
1.0
 23
0.0
 33
0.0
 40
0.0
 40
0.0
 40
0.0
 40
0.0
 40
0.1428571428571428
 40
0.1428571428571428
 40
0.1428571428571428
 40
0.1428571428571428
 40
0.2857142857142857
 40
0.2857142857142857
 40
0.2857142857142857
 40
0.2857142857142857
 40
0.4285714285714285
 40
0.4285714285714285
 40
0.4285714285714285
 40
0.4285714285714285
 40
0.5714285714285714
 40
0.5714285714285714
 40
0.5714285714285714
 40
0.5714285714285714
 40
0.7142857142857143
 40
0.7142857142857143
 40
0.7142857142857143
 40
0.7142857142857143
 40
1.0
 40
1.0
 40
1.0
 40
1.0
 10
-139.8519
 20
-70.7695
 30
0.0
 10
-139.8519
 20
-70.7695
 30
0.0
 10
-139.8519
 20
-81.9248
 30
0.0
 10
-139.8519
 20
-81.9248
 30
0.0
 10
-139.8519
 20
-81.9248
 30
0.0
 10
-141.9781
 20
-86.8895
 30
0.0
 10
-146.3551
 20
-89.003
 30
0.0
 10
-151.3573
 20
-88.9657
 30
0.0
 10
-151.3573
 20
-88.9657
 30
0.0
 10
-151.3573
 20
-88.9657
 30
0.0
 10
-151.3573
 20
-82.2498
 30
0.0
 10
-151.3573
 20
-82.2498
 30
0.0
 10
-151.3573
 20
-82.2498
 30
0.0
 10
-151.3573
 20
-82.2498
 30
0.0
 10
-158.1105
 20
-82.2498
 30
0.0
 10
-158.1105
 20
-82.2498
 30
0.0
 10
-158.1105
 20
-82.2498
 30
0.0
 10
-158.1105
 20
-77.2352
 30
0.0
 10
-155.9846
 20
-72.8958
 30
0.0
 10
-150.9823
 20
-70.7695
 30
0.0
 10
-150.9823
 20
-70.7695
 30
0.0
 10
-150.9823
 20
-70.7695
 30
0.0
 10
-139.8519
 20
-70.7695
 30
0.0
 10
-139.8519
 20
-70.7695
 30
0.0
  0
SPLINE
  5
A1
330
1F
100
AcDbEntity
  8
layer 1
 62
     7
100
AcDbSpline
210
0.0
220
0.0
230
1.0
 70
    11
 71
     3
 72
    28
 73
    24
 74
     0
 42
0.0000000001
 43
0.0000000001
 12
1.0
 22
0.0
 32
0.0
 13
1.0
 23
0.0
 33
0.0
 40
0.0
 40
0.0
 40
0.0
 40
0.0
 40
0.1428571428571428
 40
0.1428571428571428
 40
0.1428571428571428
 40
0.1428571428571428
 40
0.2857142857142857
 40
0.2857142857142857
 40
0.2857142857142857
 40
0.2857142857142857
 40
0.4285714285714285
 40
0.4285714285714285
 40
0.4285714285714285
 40
0.4285714285714285
 40
0.5714285714285714
 40
0.5714285714285714
 40
0.5714285714285714
 40
0.5714285714285714
 40
0.7142857142857143
 40
0.7142857142857143
 40
0.7142857142857143
 40
0.7142857142857143
 40
1.0
 40
1.0
 40
1.0
 40
1.0
 10
-179.1203
 20
-70.7695
 30
0.0
 10
-179.1203
 20
-70.7695
 30
0.0
 10
-170.9914
 20
-70.7695
 30
0.0
 10
-170.9914
 20
-70.7695
 30
0.0
 10
-170.9914
 20
-70.7695
 30
0.0
 10
-165.9891
 20
-72.8958
 30
0.0
 10
-163.8632
 20
-77.2352
 30
0.0
 10
-163.8632
 20
-82.2498
 30
0.0
 10
-163.8632
 20
-82.2498
 30
0.0
 10
-163.8632
 20
-82.2498
 30
0.0
 10
-170.6163
 20
-82.2498
 30
0.0
 10
-170.6163
 20
-82.2498
 30
0.0
 10
-170.6163
 20
-82.2498
 30
0.0
 10
-170.6163
 20
-82.2498
 30
0.0
 10
-170.6163
 20
-88.953
 30
0.0
 10
-170.6163
 20
-88.953
 30
0.0
 10
-170.6163
 20
-88.953
 30
0.0
 10
-173.8677
 20
-88.9905
 30
0.0
 10
-176.8692
 20
-88.1025
 30
0.0
 10
-179.1203
 20
-86.1142
 30
0.0
 10
-179.1203
 20
-86.1142
 30
0.0
 10
-179.1203
 20
-86.1142
 30
0.0
 10
-179.1203
 20
-70.7695
 30
0.0
 10
-179.1203
 20
-70.7695
 30
0.0
  0
SPLINE
  5
A2
330
1F
100
AcDbEntity
  8
layer 1
 62
     7
100
AcDbSpline
210
0.0
220
0.0
230
1.0
 70
    11
 71
     3
 72
    20
 73
    16
 74
     0
 42
0.0000000001
 43
0.0000000001
 12
1.0
 22
0.0
 32
0.0
 13
1.0
 23
0.0
 33
0.0
 40
0.0
 40
0.0
 40
0.0
 40
0.0
 40
0.2
 40
0.2
 40
0.2
 40
0.2
 40
0.4
 40
0.4
 40
0.4
 40
0.4
 40
0.6
 40
0.6
 40
0.6
 40
0.6
 40
1.0
 40
1.0
 40
1.0
 40
1.0
 10
-166.7396
 20
-97.5945
 30
0.0
 10
-166.7396
 20
-97.5945
 30
0.0
 10
-166.7396
 20
-86.1532
 30
0.0
 10
-166.7396
 20
-86.1532
 30
0.0
 10
-166.7396
 20
-86.1532
 30
0.0
 10
-166.7396
 20
-86.1532
 30
0.0
 10
-155.2993
 20
-86.1532
 30
0.0
 10
-155.2993
 20
-86.1532
 30
0.0
 10
-155.2993
 20
-86.1532
 30
0.0
 10
-155.2993
 20
-86.1532
 30
0.0
 10
-155.2993
 20
-97.5945
 30
0.0
 10
-155.2993
 20
-97.5945
 30
0.0
 10
-155.2993
 20
-97.5945
 30
0.0
 10
-155.2993
 20
-97.5945
 30
0.0
 10
-166.7396
 20
-97.5945
 30
0.0
 10
-166.7396
 20
-97.5945
 30
0.0
  0
ENDSEC
  0
SECTION
  2
OBJECTS
  0
DICTIONARY
  5
C
330
0
100
AcDbDictionary
281
     1
  3
ACAD_GROUP
350
D
  3
ACAD_LAYOUT
350
1A
  3
ACAD_MATERIAL
350
3B
  3
ACAD_MLEADERSTYLE
350
C5
  3
ACAD_MLINESTYLE
350
17
  3
ACAD_PLOTSETTINGS
350
19
  3
ACAD_PLOTSTYLENAME
350
E
  3
ACAD_TABLESTYLE
350
C4
  3
ACAD_VISUALSTYLE
350
2A
  0
DICTIONARY
  5
D
102
{ACAD_REACTORS
330
C
102
}
330
C
100
AcDbDictionary
281
     1
  0
DICTIONARY
  5
1A
102
{ACAD_REACTORS
330
C
102
}
330
C
100
AcDbDictionary
281
     1
  3
Layout1
350
1E
  3
Layout2
350
26
  3
Model
350
22
  0
DICTIONARY
  5
3B
102
{ACAD_REACTORS
330
C
102
}
330
C
100
AcDbDictionary
281
     1
  3
ByBlock
350
3D
  3
ByLayer
350
3C
  3
Global
350
3E
  0
DICTIONARY
  5
C5
102
{ACAD_REACTORS
330
C
102
}
330
C
100
AcDbDictionary
281
     1
  0
DICTIONARY
  5
17
102
{ACAD_REACTORS
330
C
102
}
330
C
100
AcDbDictionary
281
     1
  3
Standard
350
18
  0
DICTIONARY
  5
19
102
{ACAD_REACTORS
330
C
102
}
330
C
100
AcDbDictionary
281
     1
  0
ACDBDICTIONARYWDFLT
  5
E
102
{ACAD_REACTORS
330
C
102
}
330
C
100
AcDbDictionary
281
     1
  3
Normal
350
F
100
AcDbDictionaryWithDefault
340
F
  0
DICTIONARY
  5
C4
102
{ACAD_REACTORS
330
C
102
}
330
C
100
AcDbDictionary
281
     1
  0
DICTIONARY
  5
2A
102
{ACAD_REACTORS
330
C
102
}
330
C
100
AcDbDictionary
281
     1
  3
2dWireframe
350
2F
  3
3D Hidden
350
31
  3
3dWireframe
350
30
  3
Basic
350
32
  3
Brighten
350
36
  3
ColorChange
350
3A
  3
Conceptual
350
34
  3
Dim
350
35
  3
Facepattern
350
39
  3
Flat
350
2B
  3
FlatWithEdges
350
2C
  3
Gouraud
350
2D
  3
GouraudWithEdges
350
2E
  3
Linepattern
350
38
  3
Realistic
350
33
  3
Thicken
350
37
  0
LAYOUT
  5
1E
102
{ACAD_REACTORS
330
1A
102
}
330
1A
100
AcDbPlotSettings
  1

  2
none_device
  4

  6

 40
0.0
 41
0.0
 42
0.0
 43
0.0
 44
0.0
 45
0.0
 46
0.0
 47
0.0
 48
0.0
 49
0.0
140
0.0
141
0.0
142
1.0
143
1.0
 70
   688
 72
     0
 73
     0
 74
     5
  7

 75
    16
 76
     0
 77
     2
 78
   300
147
1.0
148
0.0
149
0.0
100
AcDbLayout
  1
Layout1
 70
     1
 71
     1
 10
0.0
 20
0.0
 11
12.0
 21
9.0
 12
0.0
 22
0.0
 32
0.0
 14
1.000000000000000E+20
 24
1.000000000000000E+20
 34
1.000000000000000E+20
 15
-1.000000000000000E+20
 25
-1.000000000000000E+20
 35
-1.000000000000000E+20
146
0.0
 13
0.0
 23
0.0
 33
0.0
 16
1.0
 26
0.0
 36
0.0
 17
0.0
 27
1.0
 37
0.0
 76
     0
330
1B
  0
LAYOUT
  5
26
102
{ACAD_REACTORS
330
1A
102
}
330
1A
100
AcDbPlotSettings
  1

  2
none_device
  4

  6

 40
0.0
 41
0.0
 42
0.0
 43
0.0
 44
0.0
 45
0.0
 46
0.0
 47
0.0
 48
0.0
 49
0.0
140
0.0
141
0.0
142
1.0
143
1.0
 70
   688
 72
     0
 73
     0
 74
     5
  7

 75
    16
 76
     0
 77
     2
 78
   300
147
1.0
148
0.0
149
0.0
100
AcDbLayout
  1
Layout2
 70
     1
 71
     2
 10
0.0
 20
0.0
 11
0.0
 21
0.0
 12
0.0
 22
0.0
 32
0.0
 14
0.0
 24
0.0
 34
0.0
 15
0.0
 25
0.0
 35
0.0
146
0.0
 13
0.0
 23
0.0
 33
0.0
 16
1.0
 26
0.0
 36
0.0
 17
0.0
 27
1.0
 37
0.0
 76
     0
330
23
  0
LAYOUT
  5
22
102
{ACAD_REACTORS
330
1A
102
}
330
1A
100
AcDbPlotSettings
  1

  2
none_device
  4

  6

 40
0.0
 41
0.0
 42
0.0
 43
0.0
 44
0.0
 45
0.0
 46
0.0
 47
0.0
 48
0.0
 49
0.0
140
0.0
141
0.0
142
1.0
143
1.0
 70
  1712
 72
     0
 73
     0
 74
     0
  7

 75
     0
 76
     0
 77
     2
 78
   300
147
1.0
148
0.0
149
0.0
100
AcDbLayout
  1
Model
 70
     1
 71
     0
 10
0.0
 20
0.0
 11
12.0
 21
9.0
 12
0.0
 22
0.0
 32
0.0
 14
-187.5271
 24
-114.9788
 34
0.0
 15
-34.1506
 25
131.7874
 35
0.0
146
0.0
 13
0.0
 23
0.0
 33
0.0
 16
1.0
 26
0.0
 36
0.0
 17
0.0
 27
1.0
 37
0.0
 76
     0
330
1F
331
29
  0
MATERIAL
  5
3D
102
{ACAD_REACTORS
330
3B
102
}
330
3B
100
AcDbMaterial
  1
ByBlock
 72
     1
 94
      127
  0
MATERIAL
  5
3C
102
{ACAD_REACTORS
330
3B
102
}
330
3B
100
AcDbMaterial
  1
ByLayer
 72
     1
 94
      127
  0
MATERIAL
  5
3E
102
{ACAD_REACTORS
330
3B
102
}
330
3B
100
AcDbMaterial
  1
Global
 72
     1
 94
      127
  0
MLINESTYLE
  5
18
102
{ACAD_REACTORS
330
17
102
}
330
17
100
AcDbMlineStyle
  2
Standard
 70
     0
  3

 62
   256
 51
90.0
 52
90.0
 71
     2
 49
0.5
 62
   256
  6
BYLAYER
 49
-0.5
 62
   256
  6
BYLAYER
  0
ACDBPLACEHOLDER
  5
F
102
{ACAD_REACTORS
330
E
102
}
330
E
  0
VISUALSTYLE
  5
2F
102
{ACAD_REACTORS
330
2A
102
}
102
{ACAD_XDICTIONARY
360
AC
102
}
330
2A
100
AcDbVisualStyle
  2
2dWireframe
 70
     4
 71
     0
 72
     2
 73
     0
 90
        0
 40
-0.6
 41
-30.0
 62
     5
 63
     7
421
 16777215
 74
     1
 91
        4
 64
     7
 65
   257
 75
     1
175
     1
 42
1.0
 92
        0
 66
   257
 43
1.0
 76
     1
 77
     6
 78
     2
 67
     7
 79
     5
170
     0
171
     0
290
     0
174
     0
 93
        1
 44
0.0
173
     0
291
     0
 45
0.0
  0
VISUALSTYLE
  5
31
102
{ACAD_REACTORS
330
2A
102
}
102
{ACAD_XDICTIONARY
360
B0
102
}
330
2A
100
AcDbVisualStyle
  2
3D Hidden
 70
     6
 71
     1
 72
     2
 73
     2
 90
        0
 40
-0.6
 41
-30.0
 62
     5
 63
     7
421
 16777215
 74
     2
 91
        2
 64
     7
 65
   257
 75
     2
175
     1
 42
40.0
 92
        0
 66
   257
 43
1.0
 76
     1
 77
     6
 78
     2
 67
     7
 79
     3
170
     0
171
     0
290
     0
174
     0
 93
        1
 44
0.0
173
     0
291
     0
 45
0.0
  0
VISUALSTYLE
  5
30
102
{ACAD_REACTORS
330
2A
102
}
102
{ACAD_XDICTIONARY
360
AE
102
}
330
2A
100
AcDbVisualStyle
  2
3dWireframe
 70
     5
 71
     0
 72
     2
 73
     0
 90
        0
 40
-0.6
 41
-30.0
 62
     5
 63
     7
421
 16777215
 74
     1
 91
        4
 64
     7
 65
   257
 75
     1
175
     1
 42
1.0
 92
        0
 66
   257
 43
1.0
 76
     1
 77
     6
 78
     2
 67
     7
 79
     5
170
     0
171
     0
290
     0
174
     0
 93
        1
 44
0.0
173
     0
291
     0
 45
0.0
  0
VISUALSTYLE
  5
32
102
{ACAD_REACTORS
330
2A
102
}
102
{ACAD_XDICTIONARY
360
B2
102
}
330
2A
100
AcDbVisualStyle
  2
Basic
 70
     7
 71
     1
 72
     0
 73
     1
 90
        0
 40
-0.6
 41
-30.0
 62
     5
 63
     7
421
 16777215
 74
     0
 91
        4
 64
     7
 65
   257
 75
     1
175
     1
 42
1.0
 92
        8
 66
     7
 43
1.0
 76
     1
 77
     6
 78
     2
 67
     7
 79
     5
170
     0
171
     0
290
     0
174
     0
 93
        1
 44
0.0
173
     0
291
     1
 45
0.0
  0
VISUALSTYLE
  5
36
102
{ACAD_REACTORS
330
2A
102
}
102
{ACAD_XDICTIONARY
360
BA
102
}
330
2A
100
AcDbVisualStyle
  2
Brighten
 70
    12
 71
     2
 72
     2
 73
     0
 90
        0
 40
-0.6
 41
-30.0
 62
     5
 63
     7
421
 16777215
 74
     1
 91
        4
 64
     7
 65
   257
 75
     1
175
     1
 42
1.0
 92
        8
 66
     7
 43
1.0
 76
     1
 77
     6
 78
     2
 67
     7
 79
     5
170
     0
171
     0
290
     0
174
     0
 93
        1
 44
50.0
173
     0
291
     1
 45
0.0
  0
VISUALSTYLE
  5
3A
102
{ACAD_REACTORS
330
2A
102
}
102
{ACAD_XDICTIONARY
360
C2
102
}
330
2A
100
AcDbVisualStyle
  2
ColorChange
 70
    16
 71
     2
 72
     2
 73
     3
 90
        0
 40
-0.6
 41
-30.0
 62
     5
 63
     8
421
  8421504
 74
     1
 91
        4
 64
     7
 65
   257
 75
     1
175
     1
 42
1.0
 92
        8
 66
     8
424
  8421504
 43
1.0
 76
     1
 77
     6
 78
     2
 67
     7
 79
     5
170
     0
171
     0
290
     0
174
     0
 93
        1
 44
0.0
173
     0
291
     1
 45
0.0
  0
VISUALSTYLE
  5
34
102
{ACAD_REACTORS
330
2A
102
}
102
{ACAD_XDICTIONARY
360
B6
102
}
330
2A
100
AcDbVisualStyle
  2
Conceptual
 70
     9
 71
     3
 72
     2
 73
     0
 90
        0
 40
-0.6
 41
-30.0
 62
     5
 63
     7
421
 16777215
 74
     2
 91
        2
 64
     7
 65
   257
 75
     1
175
     1
 42
40.0
 92
        8
 66
     7
 43
1.0
 76
     1
 77
     6
 78
     2
 67
     7
 79
     3
170
     0
171
     0
290
     0
174
     0
 93
        1
 44
0.0
173
     0
291
     0
 45
0.0
  0
VISUALSTYLE
  5
35
102
{ACAD_REACTORS
330
2A
102
}
102
{ACAD_XDICTIONARY
360
B8
102
}
330
2A
100
AcDbVisualStyle
  2
Dim
 70
    11
 71
     2
 72
     2
 73
     0
 90
        0
 40
-0.6
 41
-30.0
 62
     5
 63
     7
421
 16777215
 74
     1
 91
        4
 64
     7
 65
   257
 75
     1
175
     1
 42
1.0
 92
        8
 66
     7
 43
1.0
 76
     1
 77
     6
 78
     2
 67
     7
 79
     5
170
     0
171
     0
290
     0
174
     0
 93
        1
 44
-50.0
173
     0
291
     1
 45
0.0
  0
VISUALSTYLE
  5
39
102
{ACAD_REACTORS
330
2A
102
}
102
{ACAD_XDICTIONARY
360
C0
102
}
330
2A
100
AcDbVisualStyle
  2
Facepattern
 70
    15
 71
     2
 72
     2
 73
     0
 90
        0
 40
-0.6
 41
-30.0
 62
     5
 63
     7
421
 16777215
 74
     1
 91
        4
 64
     7
 65
   257
 75
     1
175
     1
 42
1.0
 92
        8
 66
     7
 43
1.0
 76
     1
 77
     6
 78
     2
 67
     7
 79
     5
170
     0
171
     0
290
     0
174
     0
 93
        1
 44
0.0
173
     0
291
     1
 45
0.0
  0
VISUALSTYLE
  5
2B
102
{ACAD_REACTORS
330
2A
102
}
102
{ACAD_XDICTIONARY
360
A4
102
}
330
2A
100
AcDbVisualStyle
  2
Flat
 70
     0
 71
     2
 72
     1
 73
     1
 90
        2
 40
-0.6
 41
30.0
 62
     5
 63
     7
421
 16777215
 74
     0
 91
        4
 64
     7
 65
   257
 75
     1
175
     1
 42
1.0
 92
        8
 66
     7
 43
1.0
 76
     1
 77
     6
 78
     2
 67
     7
 79
     5
170
     0
171
     0
290
     0
174
     0
 93
       13
 44
0.0
173
     0
291
     1
 45
0.0
  0
VISUALSTYLE
  5
2C
102
{ACAD_REACTORS
330
2A
102
}
102
{ACAD_XDICTIONARY
360
A6
102
}
330
2A
100
AcDbVisualStyle
  2
FlatWithEdges
 70
     1
 71
     2
 72
     1
 73
     1
 90
        2
 40
-0.6
 41
30.0
 62
     5
 63
     7
421
 16777215
 74
     1
 91
        4
 64
     7
 65
   257
 75
     1
175
     1
 42
1.0
 92
        0
 66
   257
 43
1.0
 76
     1
 77
     6
 78
     2
 67
     7
 79
     5
170
     0
171
     0
290
     0
174
     0
 93
       13
 44
0.0
173
     0
291
     1
 45
0.0
  0
VISUALSTYLE
  5
2D
102
{ACAD_REACTORS
330
2A
102
}
102
{ACAD_XDICTIONARY
360
A8
102
}
330
2A
100
AcDbVisualStyle
  2
Gouraud
 70
     2
 71
     2
 72
     2
 73
     1
 90
        2
 40
-0.6
 41
30.0
 62
     5
 63
     7
421
 16777215
 74
     0
 91
        4
 64
     7
 65
   257
 75
     1
175
     1
 42
1.0
 92
        0
 66
     7
 43
1.0
 76
     1
 77
     6
 78
     2
 67
     7
 79
     5
170
     0
171
     0
290
     0
174
     0
 93
       13
 44
0.0
173
     0
291
     1
 45
0.0
  0
VISUALSTYLE
  5
2E
102
{ACAD_REACTORS
330
2A
102
}
102
{ACAD_XDICTIONARY
360
AA
102
}
330
2A
100
AcDbVisualStyle
  2
GouraudWithEdges
 70
     3
 71
     2
 72
     2
 73
     1
 90
        2
 40
-0.6
 41
30.0
 62
     5
 63
     7
421
 16777215
 74
     1
 91
        4
 64
     7
 65
   257
 75
     1
175
     1
 42
1.0
 92
        0
 66
   257
 43
1.0
 76
     1
 77
     6
 78
     2
 67
     7
 79
     5
170
     0
171
     0
290
     0
174
     0
 93
       13
 44
0.0
173
     0
291
     1
 45
0.0
  0
VISUALSTYLE
  5
38
102
{ACAD_REACTORS
330
2A
102
}
102
{ACAD_XDICTIONARY
360
BE
102
}
330
2A
100
AcDbVisualStyle
  2
Linepattern
 70
    14
 71
     2
 72
     2
 73
     0
 90
        0
 40
-0.6
 41
-30.0
 62
     5
 63
     7
421
 16777215
 74
     1
 91
        4
 64
     7
 65
   257
 75
     7
175
     7
 42
1.0
 92
        8
 66
     7
 43
1.0
 76
     1
 77
     6
 78
     2
 67
     7
 79
     5
170
     0
171
     0
290
     0
174
     0
 93
        1
 44
0.0
173
     0
291
     1
 45
0.0
  0
VISUALSTYLE
  5
33
102
{ACAD_REACTORS
330
2A
102
}
102
{ACAD_XDICTIONARY
360
B4
102
}
330
2A
100
AcDbVisualStyle
  2
Realistic
 70
     8
 71
     2
 72
     2
 73
     0
 90
        0
 40
-0.6
 41
-30.0
 62
     5
 63
     7
421
 16777215
 74
     1
 91
        0
 64
     7
 65
   257
 75
     1
175
     1
 42
1.0
 92
        8
 66
     8
424
  7895160
 43
1.0
 76
     1
 77
     6
 78
     2
 67
     7
 79
     5
170
     0
171
     0
290
     0
174
     0
 93
       13
 44
0.0
173
     0
291
     0
 45
0.0
  0
VISUALSTYLE
  5
37
102
{ACAD_REACTORS
330
2A
102
}
102
{ACAD_XDICTIONARY
360
BC
102
}
330
2A
100
AcDbVisualStyle
  2
Thicken
 70
    13
 71
     2
 72
     2
 73
     0
 90
        0
 40
-0.6
 41
-30.0
 62
     5
 63
     7
421
 16777215
 74
     1
 91
        4
 64
     7
 65
   257
 75
     1
175
     1
 42
1.0
 92
       12
 66
     7
 43
1.0
 76
     1
 77
     6
 78
     2
 67
     7
 79
     5
170
     0
171
     0
290
     0
174
     0
 93
        1
 44
0.0
173
     0
291
     1
 45
0.0
  0
DICTIONARY
  5
AC
330
2F
100
AcDbDictionary
280
     1
281
     1
  3
ACAD_XREC_ROUNDTRIP
360
AD
  0
DICTIONARY
  5
B0
330
31
100
AcDbDictionary
280
     1
281
     1
  3
ACAD_XREC_ROUNDTRIP
360
B1
  0
DICTIONARY
  5
AE
330
30
100
AcDbDictionary
280
     1
281
     1
  3
ACAD_XREC_ROUNDTRIP
360
AF
  0
DICTIONARY
  5
B2
330
32
100
AcDbDictionary
280
     1
281
     1
  3
ACAD_XREC_ROUNDTRIP
360
B3
  0
DICTIONARY
  5
BA
330
36
100
AcDbDictionary
280
     1
281
     1
  3
ACAD_XREC_ROUNDTRIP
360
BB
  0
DICTIONARY
  5
C2
330
3A
100
AcDbDictionary
280
     1
281
     1
  3
ACAD_XREC_ROUNDTRIP
360
C3
  0
DICTIONARY
  5
B6
330
34
100
AcDbDictionary
280
     1
281
     1
  3
ACAD_XREC_ROUNDTRIP
360
B7
  0
DICTIONARY
  5
B8
330
35
100
AcDbDictionary
280
     1
281
     1
  3
ACAD_XREC_ROUNDTRIP
360
B9
  0
DICTIONARY
  5
C0
330
39
100
AcDbDictionary
280
     1
281
     1
  3
ACAD_XREC_ROUNDTRIP
360
C1
  0
DICTIONARY
  5
A4
330
2B
100
AcDbDictionary
280
     1
281
     1
  3
ACAD_XREC_ROUNDTRIP
360
A5
  0
DICTIONARY
  5
A6
330
2C
100
AcDbDictionary
280
     1
281
     1
  3
ACAD_XREC_ROUNDTRIP
360
A7
  0
DICTIONARY
  5
A8
330
2D
100
AcDbDictionary
280
     1
281
     1
  3
ACAD_XREC_ROUNDTRIP
360
A9
  0
DICTIONARY
  5
AA
330
2E
100
AcDbDictionary
280
     1
281
     1
  3
ACAD_XREC_ROUNDTRIP
360
AB
  0
DICTIONARY
  5
BE
330
38
100
AcDbDictionary
280
     1
281
     1
  3
ACAD_XREC_ROUNDTRIP
360
BF
  0
DICTIONARY
  5
B4
330
33
100
AcDbDictionary
280
     1
281
     1
  3
ACAD_XREC_ROUNDTRIP
360
B5
  0
DICTIONARY
  5
BC
330
37
100
AcDbDictionary
280
     1
281
     1
  3
ACAD_XREC_ROUNDTRIP
360
BD
  0
XRECORD
  5
AD
102
{ACAD_REACTORS
330
AC
102
}
330
AC
100
AcDbXrecord
280
     1
102
RTVSPropertyOp0
 70
     1
102
RTVSPropertyOp1
 70
     1
102
RTVSPropertyOp2
 70
     1
102
RTVSPropertyOp3
 70
     1
102
RTVSPropertyOp4
 70
     1
102
RTVSPropertyOp5
 70
     1
102
RTVSPropertyOp6
 70
     1
102
RTVSPropertyOp7
 70
     1
102
RTVSPropertyOp8
 70
     1
102
RTVSPropertyOp9
 70
     1
102
RTVSPropertyOp10
 70
     1
102
RTVSPropertyOp11
 70
     1
102
RTVSPropertyOp12
 70
     1
102
RTVSPropertyOp13
 70
     1
102
RTVSPropertyOp14
 70
     1
102
RTVSPropertyOp15
 70
     1
102
RTVSPropertyOp16
 70
     1
102
RTVSPropertyOp17
 70
     1
102
RTVSPropertyOp18
 70
     1
102
RTVSPropertyOp19
 70
     1
102
RTVSPropertyOp20
 70
     1
102
RTVSPropertyOp21
 70
     1
102
RTVSPropertyOp22
 70
     1
102
RTVSPropertyOp23
 70
     1
102
RTVSPropertyOp24
 70
     1
102
RTVSPropertyOp25
 70
     1
102
RTVSPropertyOp26
 70
     1
102
RTVSPropertyOp27
 70
     1
102
RTVSPropertyOp28
 70
     1
102
RTVSPropertyOp29
 70
     1
102
RTVSPropertyOp30
 70
     1
102
RTVSPropertyOp31
 70
     1
102
RTVSPropertyOp32
 70
     1
  0
XRECORD
  5
B1
102
{ACAD_REACTORS
330
B0
102
}
330
B0
100
AcDbXrecord
280
     1
102
RTVSPropertyOp0
 70
     1
102
RTVSPropertyOp1
 70
     1
102
RTVSPropertyOp2
 70
     1
102
RTVSPropertyOp3
 70
     1
102
RTVSPropertyOp4
 70
     1
102
RTVSPropertyOp5
 70
     1
102
RTVSPropertyOp6
 70
     1
102
RTVSPropertyOp7
 70
     1
102
RTVSPropertyOp8
 70
     1
102
RTVSPropertyOp9
 70
     1
102
RTVSPropertyOp10
 70
     1
102
RTVSPropertyOp11
 70
     1
102
RTVSPropertyOp12
 70
     1
102
RTVSPropertyOp13
 70
     1
102
RTVSPropertyOp14
 70
     1
102
RTVSPropertyOp15
 70
     1
102
RTVSPropertyOp16
 70
     1
102
RTVSPropertyOp17
 70
     1
102
RTVSPropertyOp18
 70
     1
102
RTVSPropertyOp19
 70
     1
102
RTVSPropertyOp20
 70
     1
102
RTVSPropertyOp21
 70
     1
102
RTVSPropertyOp22
 70
     1
102
RTVSPropertyOp23
 70
     1
102
RTVSPropertyOp24
 70
     1
102
RTVSPropertyOp25
 70
     1
102
RTVSPropertyOp26
 70
     1
102
RTVSPropertyOp27
 70
     1
102
RTVSPropertyOp28
 70
     1
102
RTVSPropertyOp29
 70
     1
102
RTVSPropertyOp30
 70
     1
102
RTVSPropertyOp31
 70
     1
102
RTVSPropertyOp32
 70
     1
  0
XRECORD
  5
AF
102
{ACAD_REACTORS
330
AE
102
}
330
AE
100
AcDbXrecord
280
     1
102
RTVSPropertyOp0
 70
     1
102
RTVSPropertyOp1
 70
     1
102
RTVSPropertyOp2
 70
     1
102
RTVSPropertyOp3
 70
     1
102
RTVSPropertyOp4
 70
     1
102
RTVSPropertyOp5
 70
     1
102
RTVSPropertyOp6
 70
     1
102
RTVSPropertyOp7
 70
     1
102
RTVSPropertyOp8
 70
     1
102
RTVSPropertyOp9
 70
     1
102
RTVSPropertyOp10
 70
     1
102
RTVSPropertyOp11
 70
     1
102
RTVSPropertyOp12
 70
     1
102
RTVSPropertyOp13
 70
     1
102
RTVSPropertyOp14
 70
     1
102
RTVSPropertyOp15
 70
     1
102
RTVSPropertyOp16
 70
     1
102
RTVSPropertyOp17
 70
     1
102
RTVSPropertyOp18
 70
     1
102
RTVSPropertyOp19
 70
     1
102
RTVSPropertyOp20
 70
     1
102
RTVSPropertyOp21
 70
     1
102
RTVSPropertyOp22
 70
     1
102
RTVSPropertyOp23
 70
     1
102
RTVSPropertyOp24
 70
     1
102
RTVSPropertyOp25
 70
     1
102
RTVSPropertyOp26
 70
     1
102
RTVSPropertyOp27
 70
     1
102
RTVSPropertyOp28
 70
     1
102
RTVSPropertyOp29
 70
     1
102
RTVSPropertyOp30
 70
     1
102
RTVSPropertyOp31
 70
     1
102
RTVSPropertyOp32
 70
     1
  0
XRECORD
  5
B3
102
{ACAD_REACTORS
330
B2
102
}
330
B2
100
AcDbXrecord
280
     1
102
RTVSPropertyOp0
 70
     1
102
RTVSPropertyOp1
 70
     1
102
RTVSPropertyOp2
 70
     1
102
RTVSPropertyOp3
 70
     1
102
RTVSPropertyOp4
 70
     1
102
RTVSPropertyOp5
 70
     1
102
RTVSPropertyOp6
 70
     1
102
RTVSPropertyOp7
 70
     1
102
RTVSPropertyOp8
 70
     1
102
RTVSPropertyOp9
 70
     1
102
RTVSPropertyOp10
 70
     1
102
RTVSPropertyOp11
 70
     1
102
RTVSPropertyOp12
 70
     1
102
RTVSPropertyOp13
 70
     1
102
RTVSPropertyOp14
 70
     1
102
RTVSPropertyOp15
 70
     1
102
RTVSPropertyOp16
 70
     1
102
RTVSPropertyOp17
 70
     1
102
RTVSPropertyOp18
 70
     1
102
RTVSPropertyOp19
 70
     1
102
RTVSPropertyOp20
 70
     1
102
RTVSPropertyOp21
 70
     1
102
RTVSPropertyOp22
 70
     1
102
RTVSPropertyOp23
 70
     1
102
RTVSPropertyOp24
 70
     1
102
RTVSPropertyOp25
 70
     1
102
RTVSPropertyOp26
 70
     1
102
RTVSPropertyOp27
 70
     1
102
RTVSPropertyOp28
 70
     1
102
RTVSPropertyOp29
 70
     1
102
RTVSPropertyOp30
 70
     1
102
RTVSPropertyOp31
 70
     1
102
RTVSPropertyOp32
 70
     1
  0
XRECORD
  5
BB
102
{ACAD_REACTORS
330
BA
102
}
330
BA
100
AcDbXrecord
280
     1
102
RTVSPropertyOp0
 70
     1
102
RTVSPropertyOp1
 70
     1
102
RTVSPropertyOp2
 70
     1
102
RTVSPropertyOp3
 70
     1
102
RTVSPropertyOp4
 70
     1
102
RTVSPropertyOp5
 70
     1
102
RTVSPropertyOp6
 70
     1
102
RTVSPropertyOp7
 70
     1
102
RTVSPropertyOp8
 70
     1
102
RTVSPropertyOp9
 70
     1
102
RTVSPropertyOp10
 70
     1
102
RTVSPropertyOp11
 70
     1
102
RTVSPropertyOp12
 70
     1
102
RTVSPropertyOp13
 70
     1
102
RTVSPropertyOp14
 70
     1
102
RTVSPropertyOp15
 70
     1
102
RTVSPropertyOp16
 70
     1
102
RTVSPropertyOp17
 70
     1
102
RTVSPropertyOp18
 70
     1
102
RTVSPropertyOp19
 70
     1
102
RTVSPropertyOp20
 70
     1
102
RTVSPropertyOp21
 70
     1
102
RTVSPropertyOp22
 70
     1
102
RTVSPropertyOp23
 70
     1
102
RTVSPropertyOp24
 70
     1
102
RTVSPropertyOp25
 70
     1
102
RTVSPropertyOp26
 70
     1
102
RTVSPropertyOp27
 70
     1
102
RTVSPropertyOp28
 70
     1
102
RTVSPropertyOp29
 70
     1
102
RTVSPropertyOp30
 70
     1
102
RTVSPropertyOp31
 70
     1
102
RTVSPropertyOp32
 70
     1
  0
XRECORD
  5
C3
102
{ACAD_REACTORS
330
C2
102
}
330
C2
100
AcDbXrecord
280
     1
102
RTVSPropertyOp0
 70
     1
102
RTVSPropertyOp1
 70
     1
102
RTVSPropertyOp2
 70
     1
102
RTVSPropertyOp3
 70
     1
102
RTVSPropertyOp4
 70
     1
102
RTVSPropertyOp5
 70
     1
102
RTVSPropertyOp6
 70
     1
102
RTVSPropertyOp7
 70
     1
102
RTVSPropertyOp8
 70
     1
102
RTVSPropertyOp9
 70
     1
102
RTVSPropertyOp10
 70
     1
102
RTVSPropertyOp11
 70
     1
102
RTVSPropertyOp12
 70
     1
102
RTVSPropertyOp13
 70
     1
102
RTVSPropertyOp14
 70
     1
102
RTVSPropertyOp15
 70
     1
102
RTVSPropertyOp16
 70
     1
102
RTVSPropertyOp17
 70
     1
102
RTVSPropertyOp18
 70
     1
102
RTVSPropertyOp19
 70
     1
102
RTVSPropertyOp20
 70
     1
102
RTVSPropertyOp21
 70
     1
102
RTVSPropertyOp22
 70
     1
102
RTVSPropertyOp23
 70
     1
102
RTVSPropertyOp24
 70
     1
102
RTVSPropertyOp25
 70
     1
102
RTVSPropertyOp26
 70
     1
102
RTVSPropertyOp27
 70
     1
102
RTVSPropertyOp28
 70
     1
102
RTVSPropertyOp29
 70
     1
102
RTVSPropertyOp30
 70
     1
102
RTVSPropertyOp31
 70
     1
102
RTVSPropertyOp32
 70
     1
  0
XRECORD
  5
B7
102
{ACAD_REACTORS
330
B6
102
}
330
B6
100
AcDbXrecord
280
     1
102
RTVSPropertyOp0
 70
     1
102
RTVSPropertyOp1
 70
     1
102
RTVSPropertyOp2
 70
     1
102
RTVSPropertyOp3
 70
     1
102
RTVSPropertyOp4
 70
     1
102
RTVSPropertyOp5
 70
     1
102
RTVSPropertyOp6
 70
     1
102
RTVSPropertyOp7
 70
     1
102
RTVSPropertyOp8
 70
     1
102
RTVSPropertyOp9
 70
     1
102
RTVSPropertyOp10
 70
     1
102
RTVSPropertyOp11
 70
     1
102
RTVSPropertyOp12
 70
     1
102
RTVSPropertyOp13
 70
     1
102
RTVSPropertyOp14
 70
     1
102
RTVSPropertyOp15
 70
     1
102
RTVSPropertyOp16
 70
     1
102
RTVSPropertyOp17
 70
     1
102
RTVSPropertyOp18
 70
     1
102
RTVSPropertyOp19
 70
     1
102
RTVSPropertyOp20
 70
     1
102
RTVSPropertyOp21
 70
     1
102
RTVSPropertyOp22
 70
     1
102
RTVSPropertyOp23
 70
     1
102
RTVSPropertyOp24
 70
     1
102
RTVSPropertyOp25
 70
     1
102
RTVSPropertyOp26
 70
     1
102
RTVSPropertyOp27
 70
     1
102
RTVSPropertyOp28
 70
     1
102
RTVSPropertyOp29
 70
     1
102
RTVSPropertyOp30
 70
     1
102
RTVSPropertyOp31
 70
     1
102
RTVSPropertyOp32
 70
     1
  0
XRECORD
  5
B9
102
{ACAD_REACTORS
330
B8
102
}
330
B8
100
AcDbXrecord
280
     1
102
RTVSPropertyOp0
 70
     1
102
RTVSPropertyOp1
 70
     1
102
RTVSPropertyOp2
 70
     1
102
RTVSPropertyOp3
 70
     1
102
RTVSPropertyOp4
 70
     1
102
RTVSPropertyOp5
 70
     1
102
RTVSPropertyOp6
 70
     1
102
RTVSPropertyOp7
 70
     1
102
RTVSPropertyOp8
 70
     1
102
RTVSPropertyOp9
 70
     1
102
RTVSPropertyOp10
 70
     1
102
RTVSPropertyOp11
 70
     1
102
RTVSPropertyOp12
 70
     1
102
RTVSPropertyOp13
 70
     1
102
RTVSPropertyOp14
 70
     1
102
RTVSPropertyOp15
 70
     1
102
RTVSPropertyOp16
 70
     1
102
RTVSPropertyOp17
 70
     1
102
RTVSPropertyOp18
 70
     1
102
RTVSPropertyOp19
 70
     1
102
RTVSPropertyOp20
 70
     1
102
RTVSPropertyOp21
 70
     1
102
RTVSPropertyOp22
 70
     1
102
RTVSPropertyOp23
 70
     1
102
RTVSPropertyOp24
 70
     1
102
RTVSPropertyOp25
 70
     1
102
RTVSPropertyOp26
 70
     1
102
RTVSPropertyOp27
 70
     1
102
RTVSPropertyOp28
 70
     1
102
RTVSPropertyOp29
 70
     1
102
RTVSPropertyOp30
 70
     1
102
RTVSPropertyOp31
 70
     1
102
RTVSPropertyOp32
 70
     1
  0
XRECORD
  5
C1
102
{ACAD_REACTORS
330
C0
102
}
330
C0
100
AcDbXrecord
280
     1
102
RTVSPropertyOp0
 70
     1
102
RTVSPropertyOp1
 70
     1
102
RTVSPropertyOp2
 70
     1
102
RTVSPropertyOp3
 70
     1
102
RTVSPropertyOp4
 70
     1
102
RTVSPropertyOp5
 70
     1
102
RTVSPropertyOp6
 70
     1
102
RTVSPropertyOp7
 70
     1
102
RTVSPropertyOp8
 70
     1
102
RTVSPropertyOp9
 70
     1
102
RTVSPropertyOp10
 70
     1
102
RTVSPropertyOp11
 70
     1
102
RTVSPropertyOp12
 70
     1
102
RTVSPropertyOp13
 70
     1
102
RTVSPropertyOp14
 70
     1
102
RTVSPropertyOp15
 70
     1
102
RTVSPropertyOp16
 70
     1
102
RTVSPropertyOp17
 70
     1
102
RTVSPropertyOp18
 70
     1
102
RTVSPropertyOp19
 70
     1
102
RTVSPropertyOp20
 70
     1
102
RTVSPropertyOp21
 70
     1
102
RTVSPropertyOp22
 70
     1
102
RTVSPropertyOp23
 70
     1
102
RTVSPropertyOp24
 70
     1
102
RTVSPropertyOp25
 70
     1
102
RTVSPropertyOp26
 70
     1
102
RTVSPropertyOp27
 70
     1
102
RTVSPropertyOp28
 70
     1
102
RTVSPropertyOp29
 70
     1
102
RTVSPropertyOp30
 70
     1
102
RTVSPropertyOp31
 70
     1
102
RTVSPropertyOp32
 70
     1
  0
XRECORD
  5
A5
102
{ACAD_REACTORS
330
A4
102
}
330
A4
100
AcDbXrecord
280
     1
102
RTVSPropertyOp0
 70
     1
102
RTVSPropertyOp1
 70
     1
102
RTVSPropertyOp2
 70
     1
102
RTVSPropertyOp3
 70
     1
102
RTVSPropertyOp4
 70
     1
102
RTVSPropertyOp5
 70
     1
102
RTVSPropertyOp6
 70
     1
102
RTVSPropertyOp7
 70
     1
102
RTVSPropertyOp8
 70
     1
102
RTVSPropertyOp9
 70
     1
102
RTVSPropertyOp10
 70
     1
102
RTVSPropertyOp11
 70
     1
102
RTVSPropertyOp12
 70
     1
102
RTVSPropertyOp13
 70
     1
102
RTVSPropertyOp14
 70
     1
102
RTVSPropertyOp15
 70
     1
102
RTVSPropertyOp16
 70
     1
102
RTVSPropertyOp17
 70
     1
102
RTVSPropertyOp18
 70
     1
102
RTVSPropertyOp19
 70
     1
102
RTVSPropertyOp20
 70
     1
102
RTVSPropertyOp21
 70
     1
102
RTVSPropertyOp22
 70
     1
102
RTVSPropertyOp23
 70
     1
102
RTVSPropertyOp24
 70
     1
102
RTVSPropertyOp25
 70
     1
102
RTVSPropertyOp26
 70
     1
102
RTVSPropertyOp27
 70
     1
102
RTVSPropertyOp28
 70
     1
102
RTVSPropertyOp29
 70
     1
102
RTVSPropertyOp30
 70
     1
102
RTVSPropertyOp31
 70
     1
102
RTVSPropertyOp32
 70
     1
  0
XRECORD
  5
A7
102
{ACAD_REACTORS
330
A6
102
}
330
A6
100
AcDbXrecord
280
     1
102
RTVSPropertyOp0
 70
     1
102
RTVSPropertyOp1
 70
     1
102
RTVSPropertyOp2
 70
     1
102
RTVSPropertyOp3
 70
     1
102
RTVSPropertyOp4
 70
     1
102
RTVSPropertyOp5
 70
     1
102
RTVSPropertyOp6
 70
     1
102
RTVSPropertyOp7
 70
     1
102
RTVSPropertyOp8
 70
     1
102
RTVSPropertyOp9
 70
     1
102
RTVSPropertyOp10
 70
     1
102
RTVSPropertyOp11
 70
     1
102
RTVSPropertyOp12
 70
     1
102
RTVSPropertyOp13
 70
     1
102
RTVSPropertyOp14
 70
     1
102
RTVSPropertyOp15
 70
     1
102
RTVSPropertyOp16
 70
     1
102
RTVSPropertyOp17
 70
     1
102
RTVSPropertyOp18
 70
     1
102
RTVSPropertyOp19
 70
     1
102
RTVSPropertyOp20
 70
     1
102
RTVSPropertyOp21
 70
     1
102
RTVSPropertyOp22
 70
     1
102
RTVSPropertyOp23
 70
     1
102
RTVSPropertyOp24
 70
     1
102
RTVSPropertyOp25
 70
     1
102
RTVSPropertyOp26
 70
     1
102
RTVSPropertyOp27
 70
     1
102
RTVSPropertyOp28
 70
     1
102
RTVSPropertyOp29
 70
     1
102
RTVSPropertyOp30
 70
     1
102
RTVSPropertyOp31
 70
     1
102
RTVSPropertyOp32
 70
     1
  0
XRECORD
  5
A9
102
{ACAD_REACTORS
330
A8
102
}
330
A8
100
AcDbXrecord
280
     1
102
RTVSPropertyOp0
 70
     1
102
RTVSPropertyOp1
 70
     1
102
RTVSPropertyOp2
 70
     1
102
RTVSPropertyOp3
 70
     1
102
RTVSPropertyOp4
 70
     1
102
RTVSPropertyOp5
 70
     1
102
RTVSPropertyOp6
 70
     1
102
RTVSPropertyOp7
 70
     1
102
RTVSPropertyOp8
 70
     1
102
RTVSPropertyOp9
 70
     1
102
RTVSPropertyOp10
 70
     1
102
RTVSPropertyOp11
 70
     1
102
RTVSPropertyOp12
 70
     1
102
RTVSPropertyOp13
 70
     1
102
RTVSPropertyOp14
 70
     1
102
RTVSPropertyOp15
 70
     1
102
RTVSPropertyOp16
 70
     1
102
RTVSPropertyOp17
 70
     1
102
RTVSPropertyOp18
 70
     1
102
RTVSPropertyOp19
 70
     1
102
RTVSPropertyOp20
 70
     1
102
RTVSPropertyOp21
 70
     1
102
RTVSPropertyOp22
 70
     1
102
RTVSPropertyOp23
 70
     1
102
RTVSPropertyOp24
 70
     1
102
RTVSPropertyOp25
 70
     1
102
RTVSPropertyOp26
 70
     1
102
RTVSPropertyOp27
 70
     1
102
RTVSPropertyOp28
 70
     1
102
RTVSPropertyOp29
 70
     1
102
RTVSPropertyOp30
 70
     1
102
RTVSPropertyOp31
 70
     1
102
RTVSPropertyOp32
 70
     1
  0
XRECORD
  5
AB
102
{ACAD_REACTORS
330
AA
102
}
330
AA
100
AcDbXrecord
280
     1
102
RTVSPropertyOp0
 70
     1
102
RTVSPropertyOp1
 70
     1
102
RTVSPropertyOp2
 70
     1
102
RTVSPropertyOp3
 70
     1
102
RTVSPropertyOp4
 70
     1
102
RTVSPropertyOp5
 70
     1
102
RTVSPropertyOp6
 70
     1
102
RTVSPropertyOp7
 70
     1
102
RTVSPropertyOp8
 70
     1
102
RTVSPropertyOp9
 70
     1
102
RTVSPropertyOp10
 70
     1
102
RTVSPropertyOp11
 70
     1
102
RTVSPropertyOp12
 70
     1
102
RTVSPropertyOp13
 70
     1
102
RTVSPropertyOp14
 70
     1
102
RTVSPropertyOp15
 70
     1
102
RTVSPropertyOp16
 70
     1
102
RTVSPropertyOp17
 70
     1
102
RTVSPropertyOp18
 70
     1
102
RTVSPropertyOp19
 70
     1
102
RTVSPropertyOp20
 70
     1
102
RTVSPropertyOp21
 70
     1
102
RTVSPropertyOp22
 70
     1
102
RTVSPropertyOp23
 70
     1
102
RTVSPropertyOp24
 70
     1
102
RTVSPropertyOp25
 70
     1
102
RTVSPropertyOp26
 70
     1
102
RTVSPropertyOp27
 70
     1
102
RTVSPropertyOp28
 70
     1
102
RTVSPropertyOp29
 70
     1
102
RTVSPropertyOp30
 70
     1
102
RTVSPropertyOp31
 70
     1
102
RTVSPropertyOp32
 70
     1
  0
XRECORD
  5
BF
102
{ACAD_REACTORS
330
BE
102
}
330
BE
100
AcDbXrecord
280
     1
102
RTVSPropertyOp0
 70
     1
102
RTVSPropertyOp1
 70
     1
102
RTVSPropertyOp2
 70
     1
102
RTVSPropertyOp3
 70
     1
102
RTVSPropertyOp4
 70
     1
102
RTVSPropertyOp5
 70
     1
102
RTVSPropertyOp6
 70
     1
102
RTVSPropertyOp7
 70
     1
102
RTVSPropertyOp8
 70
     1
102
RTVSPropertyOp9
 70
     1
102
RTVSPropertyOp10
 70
     1
102
RTVSPropertyOp11
 70
     1
102
RTVSPropertyOp12
 70
     1
102
RTVSPropertyOp13
 70
     1
102
RTVSPropertyOp14
 70
     1
102
RTVSPropertyOp15
 70
     1
102
RTVSPropertyOp16
 70
     1
102
RTVSPropertyOp17
 70
     1
102
RTVSPropertyOp18
 70
     1
102
RTVSPropertyOp19
 70
     1
102
RTVSPropertyOp20
 70
     1
102
RTVSPropertyOp21
 70
     1
102
RTVSPropertyOp22
 70
     1
102
RTVSPropertyOp23
 70
     1
102
RTVSPropertyOp24
 70
     1
102
RTVSPropertyOp25
 70
     1
102
RTVSPropertyOp26
 70
     1
102
RTVSPropertyOp27
 70
     1
102
RTVSPropertyOp28
 70
     1
102
RTVSPropertyOp29
 70
     1
102
RTVSPropertyOp30
 70
     1
102
RTVSPropertyOp31
 70
     1
102
RTVSPropertyOp32
 70
     1
  0
XRECORD
  5
B5
102
{ACAD_REACTORS
330
B4
102
}
330
B4
100
AcDbXrecord
280
     1
102
RTVSPropertyOp0
 70
     1
102
RTVSPropertyOp1
 70
     1
102
RTVSPropertyOp2
 70
     1
102
RTVSPropertyOp3
 70
     1
102
RTVSPropertyOp4
 70
     1
102
RTVSPropertyOp5
 70
     1
102
RTVSPropertyOp6
 70
     1
102
RTVSPropertyOp7
 70
     1
102
RTVSPropertyOp8
 70
     1
102
RTVSPropertyOp9
 70
     1
102
RTVSPropertyOp10
 70
     1
102
RTVSPropertyOp11
 70
     1
102
RTVSPropertyOp12
 70
     1
102
RTVSPropertyOp13
 70
     1
102
RTVSPropertyOp14
 70
     1
102
RTVSPropertyOp15
 70
     1
102
RTVSPropertyOp16
 70
     1
102
RTVSPropertyOp17
 70
     1
102
RTVSPropertyOp18
 70
     1
102
RTVSPropertyOp19
 70
     1
102
RTVSPropertyOp20
 70
     1
102
RTVSPropertyOp21
 70
     1
102
RTVSPropertyOp22
 70
     1
102
RTVSPropertyOp23
 70
     1
102
RTVSPropertyOp24
 70
     1
102
RTVSPropertyOp25
 70
     1
102
RTVSPropertyOp26
 70
     1
102
RTVSPropertyOp27
 70
     1
102
RTVSPropertyOp28
 70
     1
102
RTVSPropertyOp29
 70
     1
102
RTVSPropertyOp30
 70
     1
102
RTVSPropertyOp31
 70
     1
102
RTVSPropertyOp32
 70
     1
  0
XRECORD
  5
BD
102
{ACAD_REACTORS
330
BC
102
}
330
BC
100
AcDbXrecord
280
     1
102
RTVSPropertyOp0
 70
     1
102
RTVSPropertyOp1
 70
     1
102
RTVSPropertyOp2
 70
     1
102
RTVSPropertyOp3
 70
     1
102
RTVSPropertyOp4
 70
     1
102
RTVSPropertyOp5
 70
     1
102
RTVSPropertyOp6
 70
     1
102
RTVSPropertyOp7
 70
     1
102
RTVSPropertyOp8
 70
     1
102
RTVSPropertyOp9
 70
     1
102
RTVSPropertyOp10
 70
     1
102
RTVSPropertyOp11
 70
     1
102
RTVSPropertyOp12
 70
     1
102
RTVSPropertyOp13
 70
     1
102
RTVSPropertyOp14
 70
     1
102
RTVSPropertyOp15
 70
     1
102
RTVSPropertyOp16
 70
     1
102
RTVSPropertyOp17
 70
     1
102
RTVSPropertyOp18
 70
     1
102
RTVSPropertyOp19
 70
     1
102
RTVSPropertyOp20
 70
     1
102
RTVSPropertyOp21
 70
     1
102
RTVSPropertyOp22
 70
     1
102
RTVSPropertyOp23
 70
     1
102
RTVSPropertyOp24
 70
     1
102
RTVSPropertyOp25
 70
     1
102
RTVSPropertyOp26
 70
     1
102
RTVSPropertyOp27
 70
     1
102
RTVSPropertyOp28
 70
     1
102
RTVSPropertyOp29
 70
     1
102
RTVSPropertyOp30
 70
     1
102
RTVSPropertyOp31
 70
     1
102
RTVSPropertyOp32
 70
     1
  0
ENDSEC
  0
EOF
