  0
SECTION
  2
HEADER
  9
$ACADVER
  1
AC1021
  9
$ACADMAINTVER
 70
    25
  9
$DWGCODEPAGE
  3
ANSI_1256
  9
$INSBASE
 10
0.0
 20
0.0
 30
0.0
  9
$EXTMIN
 10
-43.8581
 20
-115.0788
 30
0.0
  9
$EXTMAX
 10
83.1873
 20
131.8643
 30
0.0
  9
$LIMMIN
 10
0.0
 20
0.0
  9
$LIMMAX
 10
12.0
 20
9.0
  9
$ORTHOMODE
 70
     0
  9
$REGENMODE
 70
     1
  9
$FILLMODE
 70
     1
  9
$QTEXTMODE
 70
     0
  9
$MIRRTEXT
 70
     1
  9
$LTSCALE
 40
1.0
  9
$ATTMODE
 70
     1
  9
$TEXTSIZE
 40
0.2
  9
$TRACEWID
 40
0.05
  9
$TEXTSTYLE
  7
Standard
  9
$CLAYER
  8
0
  9
$CELTYPE
  6
ByLayer
  9
$CECOLOR
 62
   256
  9
$CELTSCALE
 40
1.0
  9
$DISPSILH
 70
     0
  9
$DIMSCALE
 40
1.0
  9
$DIMASZ
 40
0.18
  9
$DIMEXO
 40
0.0625
  9
$DIMDLI
 40
0.38
  9
$DIMRND
 40
0.0
  9
$DIMDLE
 40
0.0
  9
$DIMEXE
 40
0.18
  9
$DIMTP
 40
0.0
  9
$DIMTM
 40
0.0
  9
$DIMTXT
 40
0.18
  9
$DIMCEN
 40
0.09
  9
$DIMTSZ
 40
0.0
  9
$DIMTOL
 70
     0
  9
$DIMLIM
 70
     0
  9
$DIMTIH
 70
     1
  9
$DIMTOH
 70
     1
  9
$DIMSE1
 70
     0
  9
$DIMSE2
 70
     0
  9
$DIMTAD
 70
     0
  9
$DIMZIN
 70
     0
  9
$DIMBLK
  1

  9
$DIMASO
 70
     1
  9
$DIMSHO
 70
     1
  9
$DIMPOST
  1

  9
$DIMAPOST
  1

  9
$DIMALT
 70
     0
  9
$DIMALTD
 70
     2
  9
$DIMALTF
 40
25.4
  9
$DIMLFAC
 40
1.0
  9
$DIMTOFL
 70
     0
  9
$DIMTVP
 40
0.0
  9
$DIMTIX
 70
     0
  9
$DIMSOXD
 70
     0
  9
$DIMSAH
 70
     0
  9
$DIMBLK1
  1

  9
$DIMBLK2
  1

  9
$DIMSTYLE
  2
Standard
  9
$DIMCLRD
 70
     0
  9
$DIMCLRE
 70
     0
  9
$DIMCLRT
 70
     0
  9
$DIMTFAC
 40
1.0
  9
$DIMGAP
 40
0.09
  9
$DIMJUST
 70
     0
  9
$DIMSD1
 70
     0
  9
$DIMSD2
 70
     0
  9
$DIMTOLJ
 70
     1
  9
$DIMTZIN
 70
     0
  9
$DIMALTZ
 70
     0
  9
$DIMALTTZ
 70
     0
  9
$DIMUPT
 70
     0
  9
$DIMDEC
 70
     4
  9
$DIMTDEC
 70
     4
  9
$DIMALTU
 70
     2
  9
$DIMALTTD
 70
     2
  9
$DIMTXSTY
  7
Standard
  9
$DIMAUNIT
 70
     0
  9
$DIMADEC
 70
     0
  9
$DIMALTRND
 40
0.0
  9
$DIMAZIN
 70
     0
  9
$DIMDSEP
 70
    46
  9
$DIMATFIT
 70
     3
  9
$DIMFRAC
 70
     0
  9
$DIMLDRBLK
  1

  9
$DIMLUNIT
 70
     2
  9
$DIMLWD
 70
    -2
  9
$DIMLWE
 70
    -2
  9
$DIMTMOVE
 70
     0
  9
$DIMFXL
 40
1.0
  9
$DIMFXLON
 70
     0
  9
$DIMJOGANG
 40
0.7853981633974483
  9
$DIMTFILL
 70
     0
  9
$DIMTFILLCLR
 70
     0
  9
$DIMARCSYM
 70
     0
  9
$DIMLTYPE
  6

  9
$DIMLTEX1
  6

  9
$DIMLTEX2
  6

  9
$LUNITS
 70
     2
  9
$LUPREC
 70
     4
  9
$SKETCHINC
 40
0.1
  9
$FILLETRAD
 40
0.5
  9
$AUNITS
 70
     0
  9
$AUPREC
 70
     0
  9
$MENU
  1
.
  9
$ELEVATION
 40
0.0
  9
$PELEVATION
 40
0.0
  9
$THICKNESS
 40
0.0
  9
$LIMCHECK
 70
     0
  9
$CHAMFERA
 40
0.5
  9
$CHAMFERB
 40
0.5
  9
$CHAMFERC
 40
1.0
  9
$CHAMFERD
 40
0.0
  9
$SKPOLY
 70
     0
  9
$TDCREATE
 40
2458492.944692986
  9
$TDUCREATE
 40
2458492.77802632
  9
$TDUPDATE
 40
2458492.944693113
  9
$TDUUPDATE
 40
2458492.778026447
  9
$TDINDWG
 40
0.0000000116
  9
$TDUSRTIMER
 40
0.0000000116
  9
$USRTIMER
 70
     1
  9
$ANGBASE
 50
0.0
  9
$ANGDIR
 70
     0
  9
$PDMODE
 70
     0
  9
$PDSIZE
 40
0.0
  9
$PLINEWID
 40
0.0
  9
$SPLFRAME
 70
     0
  9
$SPLINETYPE
 70
     6
  9
$SPLINESEGS
 70
     8
  9
$HANDSEED
  5
9E
  9
$SURFTAB1
 70
     6
  9
$SURFTAB2
 70
     6
  9
$SURFTYPE
 70
     6
  9
$SURFU
 70
     6
  9
$SURFV
 70
     6
  9
$UCSBASE
  2

  9
$UCSNAME
  2

  9
$UCSORG
 10
0.0
 20
0.0
 30
0.0
  9
$UCSXDIR
 10
1.0
 20
0.0
 30
0.0
  9
$UCSYDIR
 10
0.0
 20
1.0
 30
0.0
  9
$UCSORTHOREF
  2

  9
$UCSORTHOVIEW
 70
     0
  9
$UCSORGTOP
 10
0.0
 20
0.0
 30
0.0
  9
$UCSORGBOTTOM
 10
0.0
 20
0.0
 30
0.0
  9
$UCSORGLEFT
 10
0.0
 20
0.0
 30
0.0
  9
$UCSORGRIGHT
 10
0.0
 20
0.0
 30
0.0
  9
$UCSORGFRONT
 10
0.0
 20
0.0
 30
0.0
  9
$UCSORGBACK
 10
0.0
 20
0.0
 30
0.0
  9
$PUCSBASE
  2

  9
$PUCSNAME
  2

  9
$PUCSORG
 10
0.0
 20
0.0
 30
0.0
  9
$PUCSXDIR
 10
1.0
 20
0.0
 30
0.0
  9
$PUCSYDIR
 10
0.0
 20
1.0
 30
0.0
  9
$PUCSORTHOREF
  2

  9
$PUCSORTHOVIEW
 70
     0
  9
$PUCSORGTOP
 10
0.0
 20
0.0
 30
0.0
  9
$PUCSORGBOTTOM
 10
0.0
 20
0.0
 30
0.0
  9
$PUCSORGLEFT
 10
0.0
 20
0.0
 30
0.0
  9
$PUCSORGRIGHT
 10
0.0
 20
0.0
 30
0.0
  9
$PUCSORGFRONT
 10
0.0
 20
0.0
 30
0.0
  9
$PUCSORGBACK
 10
0.0
 20
0.0
 30
0.0
  9
$USERI1
 70
     0
  9
$USERI2
 70
     0
  9
$USERI3
 70
     0
  9
$USERI4
 70
     0
  9
$USERI5
 70
     0
  9
$USERR1
 40
0.0
  9
$USERR2
 40
0.0
  9
$USERR3
 40
0.0
  9
$USERR4
 40
0.0
  9
$USERR5
 40
0.0
  9
$WORLDVIEW
 70
     1
  9
$SHADEDGE
 70
     3
  9
$SHADEDIF
 70
    70
  9
$TILEMODE
 70
     1
  9
$MAXACTVP
 70
    64
  9
$PINSBASE
 10
0.0
 20
0.0
 30
0.0
  9
$PLIMCHECK
 70
     0
  9
$PEXTMIN
 10
1.000000000000000E+20
 20
1.000000000000000E+20
 30
1.000000000000000E+20
  9
$PEXTMAX
 10
-1.000000000000000E+20
 20
-1.000000000000000E+20
 30
-1.000000000000000E+20
  9
$PLIMMIN
 10
0.0
 20
0.0
  9
$PLIMMAX
 10
12.0
 20
9.0
  9
$UNITMODE
 70
     0
  9
$VISRETAIN
 70
     1
  9
$PLINEGEN
 70
     0
  9
$PSLTSCALE
 70
     1
  9
$TREEDEPTH
 70
  3020
  9
$CMLSTYLE
  2
Standard
  9
$CMLJUST
 70
     0
  9
$CMLSCALE
 40
1.0
  9
$PROXYGRAPHICS
 70
     1
  9
$MEASUREMENT
 70
     0
  9
$CELWEIGHT
370
    -1
  9
$ENDCAPS
280
     0
  9
$JOINSTYLE
280
     0
  9
$LWDISPLAY
290
     0
  9
$INSUNITS
 70
     4
  9
$HYPERLINKBASE
  1

  9
$STYLESHEET
  1

  9
$XEDIT
290
     1
  9
$CEPSNTYPE
380
     0
  9
$PSTYLEMODE
290
     1
  9
$FINGERPRINTGUID
  2
{5E3350D5-A605-44E5-AFF1-A77DE8C56F8B}
  9
$VERSIONGUID
  2
{FAEB1C32-E019-11D5-929B-00C0DF256EC4}
  9
$EXTNAMES
290
     1
  9
$PSVPSCALE
 40
0.0
  9
$OLESTARTUP
290
     0
  9
$SORTENTS
280
   127
  9
$INDEXCTL
280
     0
  9
$HIDETEXT
280
     1
  9
$XCLIPFRAME
290
     0
  9
$HALOGAP
280
     0
  9
$OBSCOLOR
 70
   257
  9
$OBSLTYPE
280
     0
  9
$INTERSECTIONDISPLAY
280
     0
  9
$INTERSECTIONCOLOR
 70
   257
  9
$DIMASSOC
280
     2
  9
$PROJECTNAME
  1

  9
$CAMERADISPLAY
290
     0
  9
$LENSLENGTH
 40
50.0
  9
$CAMERAHEIGHT
 40
0.0
  9
$STEPSPERSEC
 40
2.0
  9
$STEPSIZE
 40
6.0
  9
$3DDWFPREC
 40
2.0
  9
$PSOLWIDTH
 40
0.25
  9
$PSOLHEIGHT
 40
4.0
  9
$LOFTANG1
 40
1.570796326794897
  9
$LOFTANG2
 40
1.570796326794897
  9
$LOFTMAG1
 40
0.0
  9
$LOFTMAG2
 40
0.0
  9
$LOFTPARAM
 70
     7
  9
$LOFTNORMALS
280
     1
  9
$LATITUDE
 40
37.795
  9
$LONGITUDE
 40
-122.394
  9
$NORTHDIRECTION
 40
0.0
  9
$TIMEZONE
 70
 -8000
  9
$LIGHTGLYPHDISPLAY
280
     1
  9
$TILEMODELIGHTSYNCH
280
     1
  9
$SOLIDHIST
280
     1
  9
$SHOWHIST
280
     1
  9
$DWFFRAME
280
     2
  9
$DGNFRAME
280
     2
  9
$REALWORLDSCALE
290
     1
  9
$INTERFERECOLOR
 62
   256
  9
$CSHADOW
280
     0
  9
$SHADOWPLANELOCATION
 40
0.0
  0
ENDSEC
  0
SECTION
  2
CLASSES
  0
CLASS
  1
ACDBDICTIONARYWDFLT
  2
AcDbDictionaryWithDefault
  3
ObjectDBX Classes
 90
        0
 91
        4
280
     0
281
     0
  0
CLASS
  1
VISUALSTYLE
  2
AcDbVisualStyle
  3
ObjectDBX Classes
 90
     4095
 91
        4
280
     0
281
     0
  0
CLASS
  1
MATERIAL
  2
AcDbMaterial
  3
ObjectDBX Classes
 90
     1153
 91
        4
280
     0
281
     0
  0
ENDSEC
  0
SECTION
  2
TABLES
  0
TABLE
  2
VPORT
  5
8
330
0
100
AcDbSymbolTable
 70
     1
  0
VPORT
  5
29
330
8
100
AcDbSymbolTableRecord
100
AcDbViewportTableRecord
  2
*Active
 70
     0
 10
0.0
 20
0.0
 11
1.0
 21
1.0
 12
10.42990654205607
 22
4.5
 13
0.0
 23
0.0
 14
0.5
 24
0.5
 15
0.5
 25
0.5
 16
0.0
 26
0.0
 36
1.0
 17
0.0
 27
0.0
 37
0.0
 40
9.0
 41
1.972972972850329
 42
50.0
 43
0.0
 44
0.0
 50
0.0
 51
0.0
 71
     0
 72
   100
 73
     1
 74
     3
 75
     0
 76
     0
 77
     0
 78
     0
281
     0
 65
     1
110
0.0
120
0.0
130
0.0
111
1.0
121
0.0
131
0.0
112
0.0
122
1.0
132
0.0
 79
     0
146
0.0
 60
     3
 61
     5
292
     1
282
     1
141
0.0
142
0.0
 63
   250
  0
ENDTAB
  0
TABLE
  2
LTYPE
  5
5
330
0
100
AcDbSymbolTable
 70
     1
  0
LTYPE
  5
14
330
5
100
AcDbSymbolTableRecord
100
AcDbLinetypeTableRecord
  2
ByBlock
 70
     0
  3

 72
    65
 73
     0
 40
0.0
  0
LTYPE
  5
15
330
5
100
AcDbSymbolTableRecord
100
AcDbLinetypeTableRecord
  2
ByLayer
 70
     0
  3

 72
    65
 73
     0
 40
0.0
  0
LTYPE
  5
16
330
5
100
AcDbSymbolTableRecord
100
AcDbLinetypeTableRecord
  2
Continuous
 70
     0
  3
Solid line
 72
    65
 73
     0
 40
0.0
  0
ENDTAB
  0
TABLE
  2
LAYER
  5
2
330
0
100
AcDbSymbolTable
 70
     3
  0
LAYER
  5
10
330
2
100
AcDbSymbolTableRecord
100
AcDbLayerTableRecord
  2
0
 70
     0
 62
     7
  6
Continuous
370
    -3
390
F
347
3E
  0
LAYER
  5
40
330
2
100
AcDbSymbolTableRecord
100
AcDbLayerTableRecord
  2
layer 1
 70
     0
 62
     7
  6
Continuous
370
    -3
390
F
347
3E
  0
LAYER
  5
7B
330
2
100
AcDbSymbolTableRecord
100
AcDbLayerTableRecord
  2
Master Guides
 70
     0
 62
     7
  6
Continuous
370
    -3
390
F
347
3E
  0
ENDTAB
  0
TABLE
  2
STYLE
  5
3
330
0
100
AcDbSymbolTable
 70
     1
  0
STYLE
  5
11
330
3
100
AcDbSymbolTableRecord
100
AcDbTextStyleTableRecord
  2
Standard
 70
     0
 40
0.0
 41
1.0
 50
0.0
 71
     0
 42
0.2
  3
txt
  4

  0
ENDTAB
  0
TABLE
  2
VIEW
  5
6
330
0
100
AcDbSymbolTable
 70
     0
  0
ENDTAB
  0
TABLE
  2
UCS
  5
7
330
0
100
AcDbSymbolTable
 70
     0
  0
ENDTAB
  0
TABLE
  2
APPID
  5
9
330
0
100
AcDbSymbolTable
 70
     2
  0
APPID
  5
12
330
9
100
AcDbSymbolTableRecord
100
AcDbRegAppTableRecord
  2
ACAD
 70
     0
  0
APPID
  5
3F
330
9
100
AcDbSymbolTableRecord
100
AcDbRegAppTableRecord
  2
ODA
 70
     0
  0
ENDTAB
  0
TABLE
  2
DIMSTYLE
  5
A
330
0
100
AcDbSymbolTable
 70
     1
100
AcDbDimStyleTable
  0
DIMSTYLE
105
27
330
A
100
AcDbSymbolTableRecord
100
AcDbDimStyleTableRecord
  2
Standard
 70
     0
178
     0
340
11
  0
ENDTAB
  0
TABLE
  2
BLOCK_RECORD
  5
1
330
0
100
AcDbSymbolTable
 70
     1
  0
BLOCK_RECORD
  5
1F
330
1
100
AcDbSymbolTableRecord
100
AcDbBlockTableRecord
  2
*Model_Space
340
22
 70
     0
280
     1
281
     0
  0
BLOCK_RECORD
  5
1B
330
1
100
AcDbSymbolTableRecord
100
AcDbBlockTableRecord
  2
*Paper_Space
340
1E
 70
     0
280
     1
281
     0
  0
BLOCK_RECORD
  5
23
330
1
100
AcDbSymbolTableRecord
100
AcDbBlockTableRecord
  2
*Paper_Space0
340
26
 70
     0
280
     1
281
     0
  0
ENDTAB
  0
ENDSEC
  0
SECTION
  2
BLOCKS
  0
BLOCK
  5
20
330
1F
100
AcDbEntity
  8
0
100
AcDbBlockBegin
  2
*Model_Space
 70
     0
 10
0.0
 20
0.0
 30
0.0
  3
*Model_Space
  1

  0
ENDBLK
  5
21
330
1F
100
AcDbEntity
  8
0
100
AcDbBlockEnd
  0
BLOCK
  5
1C
330
1B
100
AcDbEntity
 67
     1
  8
0
100
AcDbBlockBegin
  2
*Paper_Space
 70
     0
 10
0.0
 20
0.0
 30
0.0
  3
*Paper_Space
  1

  0
ENDBLK
  5
1D
330
1B
100
AcDbEntity
 67
     1
  8
0
100
AcDbBlockEnd
  0
BLOCK
  5
24
330
23
100
AcDbEntity
  8
0
100
AcDbBlockBegin
  2
*Paper_Space0
 70
     0
 10
0.0
 20
0.0
 30
0.0
  3
*Paper_Space0
  1

  0
ENDBLK
  5
25
330
23
100
AcDbEntity
  8
0
100
AcDbBlockEnd
  0
ENDSEC
  0
SECTION
  2
ENTITIES
  0
SPLINE
  5
41
330
1F
100
AcDbEntity
  8
layer 1
100
AcDbSpline
210
0.0
220
0.0
230
1.0
 70
    11
 71
     3
 72
    20
 73
    16
 74
     0
 42
0.0000000001
 43
0.0000000001
 12
1.0
 22
0.0
 32
0.0
 13
1.0
 23
0.0
 33
0.0
 40
0.0
 40
0.0
 40
0.0
 40
0.0
 40
0.2
 40
0.2
 40
0.2
 40
0.2
 40
0.4
 40
0.4
 40
0.4
 40
0.4
 40
0.6
 40
0.6
 40
0.6
 40
0.6
 40
1.0
 40
1.0
 40
1.0
 40
1.0
 10
-43.8581
 20
131.8643
 30
0.0
 10
-43.8581
 20
131.8643
 30
0.0
 10
83.1873
 20
131.8643
 30
0.0
 10
83.1873
 20
131.8643
 30
0.0
 10
83.1873
 20
131.8643
 30
0.0
 10
83.1873
 20
131.8643
 30
0.0
 10
83.1873
 20
-115.0788
 30
0.0
 10
83.1873
 20
-115.0788
 30
0.0
 10
83.1873
 20
-115.0788
 30
0.0
 10
83.1873
 20
-115.0788
 30
0.0
 10
-43.8579
 20
-115.0788
 30
0.0
 10
-43.8579
 20
-115.0788
 30
0.0
 10
-43.8579
 20
-115.0788
 30
0.0
 10
-43.8579
 20
-115.0788
 30
0.0
 10
-43.8581
 20
131.8643
 30
0.0
 10
-43.8581
 20
131.8643
 30
0.0
  0
SPLINE
  5
42
330
1F
100
AcDbEntity
  8
layer 1
100
AcDbSpline
210
0.0
220
0.0
230
1.0
 70
    11
 71
     3
 72
    20
 73
    16
 74
     0
 42
0.0000000001
 43
0.0000000001
 12
1.0
 22
0.0
 32
0.0
 13
1.0
 23
0.0
 33
0.0
 40
0.0
 40
0.0
 40
0.0
 40
0.0
 40
0.2
 40
0.2
 40
0.2
 40
0.2
 40
0.4
 40
0.4
 40
0.4
 40
0.4
 40
0.6
 40
0.6
 40
0.6
 40
0.6
 40
1.0
 40
1.0
 40
1.0
 40
1.0
 10
18.8149
 20
1.3387
 30
0.0
 10
19.6137
 20
4.2739
 30
0.0
 10
21.4025
 20
6.7143
 30
0.0
 10
23.7703
 20
8.6127
 30
0.0
 10
23.7703
 20
8.6127
 30
0.0
 10
21.48
 20
11.1073
 30
0.0
 10
19.7106
 20
13.7898
 30
0.0
 10
18.8164
 20
17.6027
 30
0.0
 10
18.8164
 20
17.6027
 30
0.0
 10
17.9201
 20
13.7898
 30
0.0
 10
16.1525
 20
11.1073
 30
0.0
 10
13.8622
 20
8.6127
 30
0.0
 10
13.8622
 20
8.6127
 30
0.0
 10
16.2311
 20
6.7143
 30
0.0
 10
18.0188
 20
4.2739
 30
0.0
 10
18.8149
 20
1.3387
 30
0.0
  0
SPLINE
  5
43
330
1F
100
AcDbEntity
  8
layer 1
 62
     7
100
AcDbSpline
210
0.0
220
0.0
230
1.0
 70
    11
 71
     3
 72
    68
 73
    64
 74
     0
 42
0.0000000001
 43
0.0000000001
 12
1.0
 22
0.0
 32
0.0
 13
1.0
 23
0.0
 33
0.0
 40
0.0
 40
0.0
 40
0.0
 40
0.0
 40
0.0588235294117647
 40
0.0588235294117647
 40
0.0588235294117647
 40
0.0588235294117647
 40
0.1176470588235294
 40
0.1176470588235294
 40
0.1176470588235294
 40
0.1176470588235294
 40
0.1764705882352941
 40
0.1764705882352941
 40
0.1764705882352941
 40
0.1764705882352941
 40
0.2352941176470588
 40
0.2352941176470588
 40
0.2352941176470588
 40
0.2352941176470588
 40
0.2941176470588235
 40
0.2941176470588235
 40
0.2941176470588235
 40
0.2941176470588235
 40
0.3529411764705883
 40
0.3529411764705883
 40
0.3529411764705883
 40
0.3529411764705883
 40
0.4117647058823529
 40
0.4117647058823529
 40
0.4117647058823529
 40
0.4117647058823529
 40
0.4705882352941176
 40
0.4705882352941176
 40
0.4705882352941176
 40
0.4705882352941176
 40
0.5294117647058824
 40
0.5294117647058824
 40
0.5294117647058824
 40
0.5294117647058824
 40
0.5882352941176471
 40
0.5882352941176471
 40
0.5882352941176471
 40
0.5882352941176471
 40
0.6470588235294118
 40
0.6470588235294118
 40
0.6470588235294118
 40
0.6470588235294118
 40
0.7058823529411765
 40
0.7058823529411765
 40
0.7058823529411765
 40
0.7058823529411765
 40
0.7647058823529411
 40
0.7647058823529411
 40
0.7647058823529411
 40
0.7647058823529411
 40
0.8235294117647058
 40
0.8235294117647058
 40
0.8235294117647058
 40
0.8235294117647058
 40
0.8823529411764706
 40
0.8823529411764706
 40
0.8823529411764706
 40
0.8823529411764706
 40
1.0
 40
1.0
 40
1.0
 40
1.0
 10
-0.6672
 20
37.5401
 30
0.0
 10
-1.0969
 20
36.0339
 30
0.0
 10
-2.9577
 20
35.5129
 30
0.0
 10
-3.8948
 20
35.5129
 30
0.0
 10
-3.8948
 20
35.5129
 30
0.0
 10
0.9604
 20
30.9348
 30
0.0
 10
3.6564
 20
22.0356
 30
0.0
 10
1.1268
 20
16.6657
 30
0.0
 10
1.1268
 20
16.6657
 30
0.0
 10
-1.5877
 20
10.9383
 30
0.0
 10
-8.8006
 20
9.2817
 30
0.0
 10
-13.8997
 20
13.215
 30
0.0
 10
-13.8997
 20
13.215
 30
0.0
 10
-20.3145
 20
17.7506
 30
0.0
 10
-26.3047
 20
15.2723
 30
0.0
 10
-26.5033
 20
8.4327
 30
0.0
 10
-26.5033
 20
8.4327
 30
0.0
 10
-24.8686
 20
11.126
 30
0.0
 10
-20.2582
 20
12.0876
 30
0.0
 10
-18.2738
 20
8.0705
 30
0.0
 10
-18.2738
 20
8.0705
 30
0.0
 10
-18.0291
 20
7.4801
 30
0.0
 10
-18.0454
 20
7.2166
 30
0.0
 10
-18.3679
 20
6.596
 30
0.0
 10
-18.3679
 20
6.596
 30
0.0
 10
-18.9316
 20
5.5039
 30
0.0
 10
-18.8615
 20
4.0643
 30
0.0
 10
-18.1933
 20
3.0682
 30
0.0
 10
-18.1933
 20
3.0682
 30
0.0
 10
-16.2169
 20
-0.0575
 30
0.0
 10
-8.9403
 20
-1.7546
 30
0.0
 10
-5.8895
 20
0.6004
 30
0.0
 10
-5.8895
 20
0.6004
 30
0.0
 10
-9.9123
 20
1.0754
 30
0.0
 10
-11.4424
 20
1.9807
 30
0.0
 10
-11.2842
 20
5.0871
 30
0.0
 10
-11.2842
 20
5.0871
 30
0.0
 10
-11.0346
 20
8.4623
 30
0.0
 10
-7.9709
 20
9.0293
 30
0.0
 10
-5.5672
 20
8.0251
 30
0.0
 10
-5.5672
 20
8.0251
 30
0.0
 10
-1.0028
 20
5.9113
 30
0.0
 10
4.4592
 20
8.3144
 30
0.0
 10
6.8865
 20
9.7002
 30
0.0
 10
6.8865
 20
9.7002
 30
0.0
 10
4.4428
 20
9.6281
 30
0.0
 10
2.2733
 20
11.5747
 30
0.0
 10
2.2815
 20
12.6086
 30
0.0
 10
2.2815
 20
12.6086
 30
0.0
 10
2.2838
 20
13.0059
 30
0.0
 10
2.582
 20
13.2101
 30
0.0
 10
3.6585
 20
13.5538
 30
0.0
 10
3.6585
 20
13.5538
 30
0.0
 10
10.2561
 20
15.7261
 30
0.0
 10
12.3369
 20
21.483
 30
0.0
 10
12.0928
 20
26.4797
 30
0.0
 10
12.0928
 20
26.4797
 30
0.0
 10
11.2522
 20
38.4557
 30
0.0
 10
3.2934
 20
49.7598
 30
0.0
 10
-4.6089
 20
54.8137
 30
0.0
 10
-4.6089
 20
54.8137
 30
0.0
 10
-1.6736
 20
50.563
 30
0.0
 10
0.7371
 20
43.2248
 30
0.0
 10
-0.6672
 20
37.5401
 30
0.0
  0
SPLINE
  5
44
330
1F
100
AcDbEntity
  8
layer 1
 62
     7
100
AcDbSpline
210
0.0
220
0.0
230
1.0
 70
    11
 71
     3
 72
    48
 73
    44
 74
     0
 42
0.0000000001
 43
0.0000000001
 12
1.0
 22
0.0
 32
0.0
 13
1.0
 23
0.0
 33
0.0
 40
0.0
 40
0.0
 40
0.0
 40
0.0
 40
0.0833333333333333
 40
0.0833333333333333
 40
0.0833333333333333
 40
0.0833333333333333
 40
0.1666666666666667
 40
0.1666666666666667
 40
0.1666666666666667
 40
0.1666666666666667
 40
0.25
 40
0.25
 40
0.25
 40
0.25
 40
0.3333333333333333
 40
0.3333333333333333
 40
0.3333333333333333
 40
0.3333333333333333
 40
0.4166666666666667
 40
0.4166666666666667
 40
0.4166666666666667
 40
0.4166666666666667
 40
0.5
 40
0.5
 40
0.5
 40
0.5
 40
0.5833333333333334
 40
0.5833333333333334
 40
0.5833333333333334
 40
0.5833333333333334
 40
0.6666666666666666
 40
0.6666666666666666
 40
0.6666666666666666
 40
0.6666666666666666
 40
0.75
 40
0.75
 40
0.75
 40
0.75
 40
0.8333333333333334
 40
0.8333333333333334
 40
0.8333333333333334
 40
0.8333333333333334
 40
1.0
 40
1.0
 40
1.0
 40
1.0
 10
-26.5198
 20
32.7578
 30
0.0
 10
-28.7353
 20
31.7212
 30
0.0
 10
-31.2244
 20
28.1178
 30
0.0
 10
-32.1234
 20
24.6457
 30
0.0
 10
-32.1234
 20
24.6457
 30
0.0
 10
-32.9161
 20
20.3928
 30
0.0
 10
-32.5993
 20
17.78
 30
0.0
 10
-31.7234
 20
15.471
 30
0.0
 10
-31.7234
 20
15.471
 30
0.0
 10
-29.7554
 20
19.8182
 30
0.0
 10
-25.2956
 20
18.3656
 30
0.0
 10
-23.008
 20
23.0268
 30
0.0
 10
-23.008
 20
23.0268
 30
0.0
 10
-22.5507
 20
24.1736
 30
0.0
 10
-22.3926
 20
24.2244
 30
0.0
 10
-21.673
 20
23.4592
 30
0.0
 10
-21.673
 20
23.4592
 30
0.0
 10
-20.6177
 20
22.0198
 30
0.0
 10
-20.3814
 20
20.7393
 30
0.0
 10
-20.3814
 20
19.0957
 30
0.0
 10
-20.3814
 20
19.0957
 30
0.0
 10
-17.4469
 20
20.6773
 30
0.0
 10
-14.7721
 20
21.1282
 30
0.0
 10
-11.8101
 20
19.3157
 30
0.0
 10
-11.8101
 20
19.3157
 30
0.0
 10
-11.9097
 20
23.4269
 30
0.0
 10
-7.0871
 20
24.0175
 30
0.0
 10
-5.35
 20
21.5181
 30
0.0
 10
-5.35
 20
21.5181
 30
0.0
 10
-4.3324
 20
25.8974
 30
0.0
 10
-6.2841
 20
30.5264
 30
0.0
 10
-9.6702
 20
33.2115
 30
0.0
 10
-9.6702
 20
33.2115
 30
0.0
 10
-9.1278
 20
30.4564
 30
0.0
 10
-9.939
 20
28.3163
 30
0.0
 10
-11.9099
 20
27.4276
 30
0.0
 10
-11.9099
 20
27.4276
 30
0.0
 10
-13.897
 20
26.5498
 30
0.0
 10
-15.7627
 20
27.1864
 30
0.0
 10
-16.7162
 20
29.0685
 30
0.0
 10
-16.7162
 20
29.0685
 30
0.0
 10
-18.7756
 20
32.9776
 30
0.0
 10
-21.7617
 20
34.7313
 30
0.0
 10
-26.5198
 20
32.7578
 30
0.0
  0
SPLINE
  5
45
330
1F
100
AcDbEntity
  8
layer 1
 62
     7
100
AcDbSpline
210
0.0
220
0.0
230
1.0
 70
    11
 71
     3
 72
    52
 73
    48
 74
     0
 42
0.0000000001
 43
0.0000000001
 12
1.0
 22
0.0
 32
0.0
 13
1.0
 23
0.0
 33
0.0
 40
0.0
 40
0.0
 40
0.0
 40
0.0
 40
0.0769230769230769
 40
0.0769230769230769
 40
0.0769230769230769
 40
0.0769230769230769
 40
0.1538461538461539
 40
0.1538461538461539
 40
0.1538461538461539
 40
0.1538461538461539
 40
0.2307692307692308
 40
0.2307692307692308
 40
0.2307692307692308
 40
0.2307692307692308
 40
0.3076923076923077
 40
0.3076923076923077
 40
0.3076923076923077
 40
0.3076923076923077
 40
0.3846153846153846
 40
0.3846153846153846
 40
0.3846153846153846
 40
0.3846153846153846
 40
0.4615384615384616
 40
0.4615384615384616
 40
0.4615384615384616
 40
0.4615384615384616
 40
0.5384615384615384
 40
0.5384615384615384
 40
0.5384615384615384
 40
0.5384615384615384
 40
0.6153846153846154
 40
0.6153846153846154
 40
0.6153846153846154
 40
0.6153846153846154
 40
0.6923076923076923
 40
0.6923076923076923
 40
0.6923076923076923
 40
0.6923076923076923
 40
0.7692307692307693
 40
0.7692307692307693
 40
0.7692307692307693
 40
0.7692307692307693
 40
0.8461538461538461
 40
0.8461538461538461
 40
0.8461538461538461
 40
0.8461538461538461
 40
1.0
 40
1.0
 40
1.0
 40
1.0
 10
-24.8632
 20
-14.6859
 30
0.0
 10
-22.2208
 20
-13.3463
 30
0.0
 10
-18.6064
 20
-12.1865
 30
0.0
 10
-17.0735
 20
-12.1865
 30
0.0
 10
-17.0735
 20
-12.1865
 30
0.0
 10
-16.6811
 20
-12.1865
 30
0.0
 10
-16.6088
 20
-12.0519
 30
0.0
 10
-16.6947
 20
-11.4724
 30
0.0
 10
-16.6947
 20
-11.4724
 30
0.0
 10
-16.8611
 20
-10.336
 30
0.0
 10
-16.367
 20
-9.7752
 30
0.0
 10
-14.383
 20
-8.8458
 30
0.0
 10
-14.383
 20
-8.8458
 30
0.0
 10
-11.625
 20
-7.5541
 30
0.0
 10
-9.3183
 20
-6.9824
 30
0.0
 10
-6.1851
 20
-6.8187
 30
0.0
 10
-6.1851
 20
-6.8187
 30
0.0
 10
1.6369
 20
-6.7622
 30
0.0
 10
4.3623
 20
-8.0326
 30
0.0
 10
9.8911
 20
-12.1865
 30
0.0
 10
9.8911
 20
-12.1865
 30
0.0
 10
17.7963
 20
-7.2105
 30
0.0
 10
14.665
 20
1.6769
 30
0.0
 10
10.2645
 20
5.1221
 30
0.0
 10
10.2645
 20
5.1221
 30
0.0
 10
6.5236
 20
2.3589
 30
0.0
 10
2.6948
 20
1.4651
 30
0.0
 10
-0.8097
 20
0.788
 30
0.0
 10
-0.8097
 20
0.788
 30
0.0
 10
-1.22
 20
0.7132
 30
0.0
 10
-1.3032
 20
0.5495
 30
0.0
 10
-1.22
 20
-0.0175
 30
0.0
 10
-1.22
 20
-0.0175
 30
0.0
 10
-1.0349
 20
-1.2843
 30
0.0
 10
-2.7831
 20
-2.4984
 30
0.0
 10
-6.5851
 20
-3.7466
 30
0.0
 10
-6.5851
 20
-3.7466
 30
0.0
 10
-15.5564
 20
-5.7421
 30
0.0
 10
-20.9051
 20
-4.4423
 30
0.0
 10
-28.0046
 20
1.1964
 30
0.0
 10
-28.0046
 20
1.1964
 30
0.0
 10
-34.4085
 20
-3.2634
 30
0.0
 10
-33.9095
 20
-11.6304
 30
0.0
 10
-27.8355
 20
-16.1467
 30
0.0
 10
-27.8355
 20
-16.1467
 30
0.0
 10
-27.7846
 20
-16.1467
 30
0.0
 10
-26.447
 20
-15.4889
 30
0.0
 10
-24.8632
 20
-14.6859
 30
0.0
  0
SPLINE
  5
46
330
1F
100
AcDbEntity
  8
layer 1
 62
     7
100
AcDbSpline
210
0.0
220
0.0
230
1.0
 70
    11
 71
     3
 72
    16
 73
    12
 74
     0
 42
0.0000000001
 43
0.0000000001
 12
1.0
 22
0.0
 32
0.0
 13
1.0
 23
0.0
 33
0.0
 40
0.0
 40
0.0
 40
0.0
 40
0.0
 40
0.25
 40
0.25
 40
0.25
 40
0.25
 40
0.5
 40
0.5
 40
0.5
 40
0.5
 40
1.0
 40
1.0
 40
1.0
 40
1.0
 10
-31.2429
 20
4.969
 30
0.0
 10
-33.6137
 20
7.9709
 30
0.0
 10
-35.2545
 20
11.0564
 30
0.0
 10
-36.5326
 20
14.6626
 30
0.0
 10
-36.5326
 20
14.6626
 30
0.0
 10
-36.5324
 20
9.2197
 30
0.0
 10
-36.5326
 20
3.7741
 30
0.0
 10
-36.5326
 20
-1.6687
 30
0.0
 10
-36.5326
 20
-1.6687
 30
0.0
 10
-35.276
 20
1.1401
 30
0.0
 10
-33.7458
 20
3.2022
 30
0.0
 10
-31.2429
 20
4.969
 30
0.0
  0
SPLINE
  5
47
330
1F
100
AcDbEntity
  8
layer 1
 62
     7
100
AcDbSpline
210
0.0
220
0.0
230
1.0
 70
    11
 71
     3
 72
    36
 73
    32
 74
     0
 42
0.0000000001
 43
0.0000000001
 12
1.0
 22
0.0
 32
0.0
 13
1.0
 23
0.0
 33
0.0
 40
0.0
 40
0.0
 40
0.0
 40
0.0
 40
0.1111111111111111
 40
0.1111111111111111
 40
0.1111111111111111
 40
0.1111111111111111
 40
0.2222222222222222
 40
0.2222222222222222
 40
0.2222222222222222
 40
0.2222222222222222
 40
0.3333333333333333
 40
0.3333333333333333
 40
0.3333333333333333
 40
0.3333333333333333
 40
0.4444444444444444
 40
0.4444444444444444
 40
0.4444444444444444
 40
0.4444444444444444
 40
0.5555555555555556
 40
0.5555555555555556
 40
0.5555555555555556
 40
0.5555555555555556
 40
0.6666666666666666
 40
0.6666666666666666
 40
0.6666666666666666
 40
0.6666666666666666
 40
0.7777777777777778
 40
0.7777777777777778
 40
0.7777777777777778
 40
0.7777777777777778
 40
1.0
 40
1.0
 40
1.0
 40
1.0
 10
-27.392
 20
47.9478
 30
0.0
 10
-27.2421
 20
49.3709
 30
0.0
 10
-28.0128
 20
51.1162
 30
0.0
 10
-30.0289
 20
51.6584
 30
0.0
 10
-30.0289
 20
51.6584
 30
0.0
 10
-30.3191
 20
51.6584
 30
0.0
 10
-30.3651
 20
51.8385
 30
0.0
 10
-30.2332
 20
52.4642
 30
0.0
 10
-30.2332
 20
52.4642
 30
0.0
 10
-29.4302
 20
56.6691
 30
0.0
 10
-24.9676
 20
56.7225
 30
0.0
 10
-22.9784
 20
53.5729
 30
0.0
 10
-22.9784
 20
53.5729
 30
0.0
 10
-20.8137
 20
58.7073
 30
0.0
 10
-24.7476
 20
63.4625
 30
0.0
 10
-29.4173
 20
63.5375
 30
0.0
 10
-29.4173
 20
63.5375
 30
0.0
 10
-30.3431
 20
63.5375
 30
0.0
 10
-30.3623
 20
63.5188
 30
0.0
 10
-30.3623
 20
62.6088
 30
0.0
 10
-30.3623
 20
62.6088
 30
0.0
 10
-30.4833
 20
59.0886
 30
0.0
 10
-33.9712
 20
58.1703
 30
0.0
 10
-36.5489
 20
60.3129
 30
0.0
 10
-36.5489
 20
60.3129
 30
0.0
 10
-36.5489
 20
60.3129
 30
0.0
 10
-36.6294
 20
30.1614
 30
0.0
 10
-36.6294
 20
30.1614
 30
0.0
 10
-36.6294
 20
30.1614
 30
0.0
 10
-33.8687
 20
39.1081
 30
0.0
 10
-28.292
 20
42.2741
 30
0.0
 10
-27.392
 20
47.9478
 30
0.0
  0
SPLINE
  5
48
330
1F
100
AcDbEntity
  8
layer 1
 62
     7
100
AcDbSpline
210
0.0
220
0.0
230
1.0
 70
    11
 71
     3
 72
    28
 73
    24
 74
     0
 42
0.0000000001
 43
0.0000000001
 12
1.0
 22
0.0
 32
0.0
 13
1.0
 23
0.0
 33
0.0
 40
0.0
 40
0.0
 40
0.0
 40
0.0
 40
0.1428571428571428
 40
0.1428571428571428
 40
0.1428571428571428
 40
0.1428571428571428
 40
0.2857142857142857
 40
0.2857142857142857
 40
0.2857142857142857
 40
0.2857142857142857
 40
0.4285714285714285
 40
0.4285714285714285
 40
0.4285714285714285
 40
0.4285714285714285
 40
0.5714285714285714
 40
0.5714285714285714
 40
0.5714285714285714
 40
0.5714285714285714
 40
0.7142857142857143
 40
0.7142857142857143
 40
0.7142857142857143
 40
0.7142857142857143
 40
1.0
 40
1.0
 40
1.0
 40
1.0
 10
-8.2657
 20
40.8616
 30
0.0
 10
-6.7995
 20
40.0643
 30
0.0
 10
-5.8655
 20
41.3096
 30
0.0
 10
-5.8517
 20
43.0956
 30
0.0
 10
-5.8517
 20
43.0956
 30
0.0
 10
-6.0881
 20
47.6903
 30
0.0
 10
-8.4783
 20
51.3979
 30
0.0
 10
-11.1605
 20
54.7249
 30
0.0
 10
-11.1605
 20
54.7249
 30
0.0
 10
-13.7596
 20
57.9448
 30
0.0
 10
-16.622
 20
60.8201
 30
0.0
 10
-18.7976
 20
63.2583
 30
0.0
 10
-18.7976
 20
63.2583
 30
0.0
 10
-15.7846
 20
53.56
 30
0.0
 10
-18.1205
 20
46.8707
 30
0.0
 10
-23.2141
 20
40.9955
 30
0.0
 10
-23.2141
 20
40.9955
 30
0.0
 10
-17.9163
 20
42.0377
 30
0.0
 10
-12.8468
 20
41.3125
 30
0.0
 10
-8.2151
 20
38.9018
 30
0.0
 10
-8.2151
 20
38.9018
 30
0.0
 10
-8.3489
 20
39.5623
 30
0.0
 10
-8.5153
 20
40.0504
 30
0.0
 10
-8.2657
 20
40.8616
 30
0.0
  0
SPLINE
  5
49
330
1F
100
AcDbEntity
  8
layer 1
 62
     7
100
AcDbSpline
210
0.0
220
0.0
230
1.0
 70
    11
 71
     3
 72
    28
 73
    24
 74
     0
 42
0.0000000001
 43
0.0000000001
 12
1.0
 22
0.0
 32
0.0
 13
1.0
 23
0.0
 33
0.0
 40
0.0
 40
0.0
 40
0.0
 40
0.0
 40
0.1428571428571428
 40
0.1428571428571428
 40
0.1428571428571428
 40
0.1428571428571428
 40
0.2857142857142857
 40
0.2857142857142857
 40
0.2857142857142857
 40
0.2857142857142857
 40
0.4285714285714285
 40
0.4285714285714285
 40
0.4285714285714285
 40
0.4285714285714285
 40
0.5714285714285714
 40
0.5714285714285714
 40
0.5714285714285714
 40
0.5714285714285714
 40
0.7142857142857143
 40
0.7142857142857143
 40
0.7142857142857143
 40
0.7142857142857143
 40
1.0
 40
1.0
 40
1.0
 40
1.0
 10
5.1949
 20
79.7801
 30
0.0
 10
0.1143
 20
78.4348
 30
0.0
 10
-5.1191
 20
79.45
 30
0.0
 10
-9.8236
 20
82.1028
 30
0.0
 10
-9.8236
 20
82.1028
 30
0.0
 10
-9.7404
 20
81.0827
 30
0.0
 10
-9.4853
 20
81.2277
 30
0.0
 10
-9.8902
 20
80.411
 30
0.0
 10
-9.8902
 20
80.411
 30
0.0
 10
-11.8397
 20
80.2125
 30
0.0
 10
-12.6509
 20
77.7556
 30
0.0
 10
-12.0706
 20
75.7016
 30
0.0
 10
-12.0706
 20
75.7016
 30
0.0
 10
-11.0827
 20
72.2161
 30
0.0
 10
-10.2587
 20
70.6857
 30
0.0
 10
-6.891
 20
66.4459
 30
0.0
 10
-6.891
 20
66.4459
 30
0.0
 10
-4.2301
 20
63.0948
 30
0.0
 10
0.587
 20
57.5309
 30
0.0
 10
0.7129
 20
57.6601
 30
0.0
 10
0.7129
 20
57.6601
 30
0.0
 10
-1.9747
 20
66.1345
 30
0.0
 10
-0.5032
 20
72.8229
 30
0.0
 10
5.1949
 20
79.7801
 30
0.0
  0
SPLINE
  5
4A
330
1F
100
AcDbEntity
  8
layer 1
 62
     7
100
AcDbSpline
210
0.0
220
0.0
230
1.0
 70
    11
 71
     3
 72
    16
 73
    12
 74
     0
 42
0.0000000001
 43
0.0000000001
 12
1.0
 22
0.0
 32
0.0
 13
1.0
 23
0.0
 33
0.0
 40
0.0
 40
0.0
 40
0.0
 40
0.0
 40
0.25
 40
0.25
 40
0.25
 40
0.25
 40
0.5
 40
0.5
 40
0.5
 40
0.5
 40
1.0
 40
1.0
 40
1.0
 40
1.0
 10
-34.0435
 20
68.2393
 30
0.0
 10
-34.9831
 20
68.7122
 30
0.0
 10
-35.9124
 20
69.7192
 30
0.0
 10
-36.5489
 20
71.0349
 30
0.0
 10
-36.5489
 20
71.0349
 30
0.0
 10
-36.5489
 20
71.0349
 30
0.0
 10
-36.5489
 20
66.0246
 30
0.0
 10
-36.5489
 20
66.0246
 30
0.0
 10
-36.5489
 20
66.0246
 30
0.0
 10
-35.7674
 20
67.1224
 30
0.0
 10
-34.9646
 20
67.6783
 30
0.0
 10
-34.0435
 20
68.2393
 30
0.0
  0
SPLINE
  5
4B
330
1F
100
AcDbEntity
  8
layer 1
 62
     7
100
AcDbSpline
210
0.0
220
0.0
230
1.0
 70
    11
 71
     3
 72
    68
 73
    64
 74
     0
 42
0.0000000001
 43
0.0000000001
 12
1.0
 22
0.0
 32
0.0
 13
1.0
 23
0.0
 33
0.0
 40
0.0
 40
0.0
 40
0.0
 40
0.0
 40
0.0588235294117647
 40
0.0588235294117647
 40
0.0588235294117647
 40
0.0588235294117647
 40
0.1176470588235294
 40
0.1176470588235294
 40
0.1176470588235294
 40
0.1176470588235294
 40
0.1764705882352941
 40
0.1764705882352941
 40
0.1764705882352941
 40
0.1764705882352941
 40
0.2352941176470588
 40
0.2352941176470588
 40
0.2352941176470588
 40
0.2352941176470588
 40
0.2941176470588235
 40
0.2941176470588235
 40
0.2941176470588235
 40
0.2941176470588235
 40
0.3529411764705883
 40
0.3529411764705883
 40
0.3529411764705883
 40
0.3529411764705883
 40
0.4117647058823529
 40
0.4117647058823529
 40
0.4117647058823529
 40
0.4117647058823529
 40
0.4705882352941176
 40
0.4705882352941176
 40
0.4705882352941176
 40
0.4705882352941176
 40
0.5294117647058824
 40
0.5294117647058824
 40
0.5294117647058824
 40
0.5294117647058824
 40
0.5882352941176471
 40
0.5882352941176471
 40
0.5882352941176471
 40
0.5882352941176471
 40
0.6470588235294118
 40
0.6470588235294118
 40
0.6470588235294118
 40
0.6470588235294118
 40
0.7058823529411765
 40
0.7058823529411765
 40
0.7058823529411765
 40
0.7058823529411765
 40
0.7647058823529411
 40
0.7647058823529411
 40
0.7647058823529411
 40
0.7647058823529411
 40
0.8235294117647058
 40
0.8235294117647058
 40
0.8235294117647058
 40
0.8235294117647058
 40
0.8823529411764706
 40
0.8823529411764706
 40
0.8823529411764706
 40
0.8823529411764706
 40
1.0
 40
1.0
 40
1.0
 40
1.0
 10
-17.2723
 20
83.2844
 30
0.0
 10
-16.8426
 20
84.7906
 30
0.0
 10
-14.9818
 20
85.3116
 30
0.0
 10
-14.0441
 20
85.3116
 30
0.0
 10
-14.0441
 20
85.3116
 30
0.0
 10
-18.8993
 20
89.8897
 30
0.0
 10
-21.5953
 20
98.7887
 30
0.0
 10
-19.0657
 20
104.1586
 30
0.0
 10
-19.0657
 20
104.1586
 30
0.0
 10
-16.351
 20
109.8889
 30
0.0
 10
-9.1389
 20
111.5455
 30
0.0
 10
-4.0398
 20
107.6122
 30
0.0
 10
-4.0398
 20
107.6122
 30
0.0
 10
2.3752
 20
103.0741
 30
0.0
 10
8.3658
 20
105.5548
 30
0.0
 10
8.5644
 20
112.3916
 30
0.0
 10
8.5644
 20
112.3916
 30
0.0
 10
6.9291
 20
109.6985
 30
0.0
 10
2.3187
 20
108.7367
 30
0.0
 10
0.3349
 20
112.7568
 30
0.0
 10
0.3349
 20
112.7568
 30
0.0
 10
0.0902
 20
113.3446
 30
0.0
 10
0.106
 20
113.6077
 30
0.0
 10
0.4282
 20
114.2312
 30
0.0
 10
0.4282
 20
114.2312
 30
0.0
 10
0.9929
 20
115.3236
 30
0.0
 10
0.9226
 20
116.7629
 30
0.0
 10
0.2538
 20
117.7561
 30
0.0
 10
0.2538
 20
117.7561
 30
0.0
 10
-1.7226
 20
120.8818
 30
0.0
 10
-8.9994
 20
122.5789
 30
0.0
 10
-12.0494
 20
120.2239
 30
0.0
 10
-12.0494
 20
120.2239
 30
0.0
 10
-8.0272
 20
119.7491
 30
0.0
 10
-6.4965
 20
118.8463
 30
0.0
 10
-6.6547
 20
115.7372
 30
0.0
 10
-6.6547
 20
115.7372
 30
0.0
 10
-6.9047
 20
112.3649
 30
0.0
 10
-9.9686
 20
111.7957
 30
0.0
 10
-12.3717
 20
112.802
 30
0.0
 10
-12.3717
 20
112.802
 30
0.0
 10
-16.936
 20
114.9159
 30
0.0
 10
-22.3981
 20
112.5126
 30
0.0
 10
-24.8254
 20
111.1268
 30
0.0
 10
-24.8254
 20
111.1268
 30
0.0
 10
-22.3817
 20
111.1964
 30
0.0
 10
-20.2122
 20
109.2523
 30
0.0
 10
-20.2204
 20
108.2184
 30
0.0
 10
-20.2204
 20
108.2184
 30
0.0
 10
-20.2231
 20
107.8186
 30
0.0
 10
-20.5209
 20
107.615
 30
0.0
 10
-21.598
 20
107.2734
 30
0.0
 10
-21.598
 20
107.2734
 30
0.0
 10
-28.195
 20
105.1012
 30
0.0
 10
-30.2737
 20
99.3415
 30
0.0
 10
-30.0317
 20
94.3474
 30
0.0
 10
-30.0317
 20
94.3474
 30
0.0
 10
-29.1917
 20
82.3687
 30
0.0
 10
-21.2323
 20
71.0645
 30
0.0
 10
-13.33
 20
66.0108
 30
0.0
 10
-13.33
 20
66.0108
 30
0.0
 10
-16.2651
 20
70.2644
 30
0.0
 10
-18.6766
 20
77.5995
 30
0.0
 10
-17.2723
 20
83.2844
 30
0.0
  0
SPLINE
  5
4C
330
1F
100
AcDbEntity
  8
layer 1
 62
     7
100
AcDbSpline
210
0.0
220
0.0
230
1.0
 70
    11
 71
     3
 72
    24
 73
    20
 74
     0
 42
0.0000000001
 43
0.0000000001
 12
1.0
 22
0.0
 32
0.0
 13
1.0
 23
0.0
 33
0.0
 40
0.0
 40
0.0
 40
0.0
 40
0.0
 40
0.1666666666666667
 40
0.1666666666666667
 40
0.1666666666666667
 40
0.1666666666666667
 40
0.3333333333333333
 40
0.3333333333333333
 40
0.3333333333333333
 40
0.3333333333333333
 40
0.5
 40
0.5
 40
0.5
 40
0.5
 40
0.6666666666666666
 40
0.6666666666666666
 40
0.6666666666666666
 40
0.6666666666666666
 40
1.0
 40
1.0
 40
1.0
 40
1.0
 10
-36.5221
 20
88.9018
 30
0.0
 10
-36.5677
 20
84.6592
 30
0.0
 10
-36.5677
 20
77.847
 30
0.0
 10
-36.5326
 20
74.8184
 30
0.0
 10
-36.5326
 20
74.8184
 30
0.0
 10
-35.322
 20
76.2036
 30
0.0
 10
-34.436
 20
75.7739
 30
0.0
 10
-33.8613
 20
74.7991
 30
0.0
 10
-33.8613
 20
74.7991
 30
0.0
 10
-33.2006
 20
73.6794
 30
0.0
 10
-31.9757
 20
72.9466
 30
0.0
 10
-30.733
 20
72.9254
 30
0.0
 10
-30.733
 20
72.9254
 30
0.0
 10
-29.9754
 20
72.9117
 30
0.0
 10
-27.61
 20
72.3959
 30
0.0
 10
-26.4257
 20
71.985
 30
0.0
 10
-26.4257
 20
71.985
 30
0.0
 10
-32.0644
 20
77.7825
 30
0.0
 10
-34.9081
 20
83.3113
 30
0.0
 10
-36.5221
 20
88.9018
 30
0.0
  0
SPLINE
  5
4D
330
1F
100
AcDbEntity
  8
layer 1
 62
     7
100
AcDbSpline
210
0.0
220
0.0
230
1.0
 70
    11
 71
     3
 72
    48
 73
    44
 74
     0
 42
0.0000000001
 43
0.0000000001
 12
1.0
 22
0.0
 32
0.0
 13
1.0
 23
0.0
 33
0.0
 40
0.0
 40
0.0
 40
0.0
 40
0.0
 40
0.0833333333333333
 40
0.0833333333333333
 40
0.0833333333333333
 40
0.0833333333333333
 40
0.1666666666666667
 40
0.1666666666666667
 40
0.1666666666666667
 40
0.1666666666666667
 40
0.25
 40
0.25
 40
0.25
 40
0.25
 40
0.3333333333333333
 40
0.3333333333333333
 40
0.3333333333333333
 40
0.3333333333333333
 40
0.4166666666666667
 40
0.4166666666666667
 40
0.4166666666666667
 40
0.4166666666666667
 40
0.5
 40
0.5
 40
0.5
 40
0.5
 40
0.5833333333333334
 40
0.5833333333333334
 40
0.5833333333333334
 40
0.5833333333333334
 40
0.6666666666666666
 40
0.6666666666666666
 40
0.6666666666666666
 40
0.6666666666666666
 40
0.75
 40
0.75
 40
0.75
 40
0.75
 40
0.8333333333333334
 40
0.8333333333333334
 40
0.8333333333333334
 40
0.8333333333333334
 40
1.0
 40
1.0
 40
1.0
 40
1.0
 10
8.691
 20
87.9595
 30
0.0
 10
10.9057
 20
88.9961
 30
0.0
 10
13.3954
 20
92.5966
 30
0.0
 10
14.2946
 20
96.0687
 30
0.0
 10
14.2946
 20
96.0687
 30
0.0
 10
15.0865
 20
100.3218
 30
0.0
 10
14.7675
 20
102.9371
 30
0.0
 10
13.8946
 20
105.2461
 30
0.0
 10
13.8946
 20
105.2461
 30
0.0
 10
11.9266
 20
100.8991
 30
0.0
 10
7.4665
 20
102.3488
 30
0.0
 10
5.1784
 20
97.6903
 30
0.0
 10
5.1784
 20
97.6903
 30
0.0
 10
4.7191
 20
96.5438
 30
0.0
 10
4.5609
 20
96.4927
 30
0.0
 10
3.844
 20
97.2579
 30
0.0
 10
3.844
 20
97.2579
 30
0.0
 10
2.7889
 20
98.6975
 30
0.0
 10
2.5496
 20
99.9751
 30
0.0
 10
2.5496
 20
101.6187
 30
0.0
 10
2.5496
 20
101.6187
 30
0.0
 10
-0.3822
 20
100.0371
 30
0.0
 10
-3.0567
 20
99.586
 30
0.0
 10
-6.0187
 20
101.3987
 30
0.0
 10
-6.0187
 20
101.3987
 30
0.0
 10
-5.9191
 20
97.2875
 30
0.0
 10
-10.7419
 20
96.6996
 30
0.0
 10
-12.4791
 20
99.1963
 30
0.0
 10
-12.4791
 20
99.1963
 30
0.0
 10
-13.497
 20
94.8197
 30
0.0
 10
-11.5447
 20
90.1908
 30
0.0
 10
-8.1588
 20
87.5029
 30
0.0
 10
-8.1588
 20
87.5029
 30
0.0
 10
-8.701
 20
90.2603
 30
0.0
 10
-7.8899
 20
92.4008
 30
0.0
 10
-5.9191
 20
93.2895
 30
0.0
 10
-5.9191
 20
93.2895
 30
0.0
 10
-3.9324
 20
94.1675
 30
0.0
 10
-2.0663
 20
93.528
 30
0.0
 10
-1.1129
 20
91.6486
 30
0.0
 10
-1.1129
 20
91.6486
 30
0.0
 10
0.9467
 20
87.7387
 30
0.0
 10
3.9327
 20
85.9831
 30
0.0
 10
8.691
 20
87.9595
 30
0.0
  0
SPLINE
  5
4E
330
1F
100
AcDbEntity
  8
layer 1
 62
     7
100
AcDbSpline
210
0.0
220
0.0
230
1.0
 70
    11
 71
     3
 72
    16
 73
    12
 74
     0
 42
0.0000000001
 43
0.0000000001
 12
1.0
 22
0.0
 32
0.0
 13
1.0
 23
0.0
 33
0.0
 40
0.0
 40
0.0
 40
0.0
 40
0.0
 40
0.25
 40
0.25
 40
0.25
 40
0.25
 40
0.5
 40
0.5
 40
0.5
 40
0.5
 40
1.0
 40
1.0
 40
1.0
 40
1.0
 10
-31.6162
 20
112.4343
 30
0.0
 10
-33.8233
 20
114.172
 30
0.0
 10
-35.2197
 20
116.2555
 30
0.0
 10
-36.5353
 20
119.0938
 30
0.0
 10
-36.5353
 20
119.0938
 30
0.0
 10
-36.5353
 20
119.0938
 30
0.0
 10
-36.5435
 20
103.9979
 30
0.0
 10
-36.5435
 20
103.9979
 30
0.0
 10
-36.5435
 20
103.9979
 30
0.0
 10
-35.1232
 20
107.8157
 30
0.0
 10
-33.4584
 20
110.2539
 30
0.0
 10
-31.6162
 20
112.4343
 30
0.0
  0
SPLINE
  5
4F
330
1F
100
AcDbEntity
  8
layer 1
 62
     7
100
AcDbSpline
210
0.0
220
0.0
230
1.0
 70
    11
 71
     3
 72
    20
 73
    16
 74
     0
 42
0.0000000001
 43
0.0000000001
 12
1.0
 22
0.0
 32
0.0
 13
1.0
 23
0.0
 33
0.0
 40
0.0
 40
0.0
 40
0.0
 40
0.0
 40
0.2
 40
0.2
 40
0.2
 40
0.2
 40
0.4
 40
0.4
 40
0.4
 40
0.4
 40
0.6
 40
0.6
 40
0.6
 40
0.6
 40
1.0
 40
1.0
 40
1.0
 40
1.0
 10
-16.4878
 20
120.1437
 30
0.0
 10
-17.1162
 20
121.2715
 30
0.0
 10
-16.7485
 20
122.3562
 30
0.0
 10
-14.4017
 20
123.4225
 30
0.0
 10
-14.4017
 20
123.4225
 30
0.0
 10
-14.4017
 20
123.4225
 30
0.0
 10
-32.4054
 20
123.4252
 30
0.0
 10
-32.4054
 20
123.4252
 30
0.0
 10
-32.4054
 20
123.4252
 30
0.0
 10
-31.8417
 20
120.3395
 30
0.0
 10
-30.2256
 20
117.2811
 30
0.0
 10
-27.7014
 20
116.0432
 30
0.0
 10
-27.7014
 20
116.0432
 30
0.0
 10
-25.2735
 20
117.6895
 30
0.0
 10
-20.9133
 20
119.4052
 30
0.0
 10
-16.4878
 20
120.1437
 30
0.0
  0
SPLINE
  5
50
330
1F
100
AcDbEntity
  8
layer 1
 62
     7
100
AcDbSpline
210
0.0
220
0.0
230
1.0
 70
    11
 71
     3
 72
    16
 73
    12
 74
     0
 42
0.0000000001
 43
0.0000000001
 12
1.0
 22
0.0
 32
0.0
 13
1.0
 23
0.0
 33
0.0
 40
0.0
 40
0.0
 40
0.0
 40
0.0
 40
0.25
 40
0.25
 40
0.25
 40
0.25
 40
0.5
 40
0.5
 40
0.5
 40
0.5
 40
1.0
 40
1.0
 40
1.0
 40
1.0
 10
13.379
 20
123.5861
 30
0.0
 10
10.0575
 20
123.4864
 30
0.0
 10
7.6838
 20
123.4864
 30
0.0
 10
4.4159
 20
123.4225
 30
0.0
 10
4.4159
 20
123.4225
 30
0.0
 10
6.6343
 20
122.3369
 30
0.0
 10
8.167
 20
121.1719
 30
0.0
 10
9.8403
 20
119.7571
 30
0.0
 10
9.8403
 20
119.7571
 30
0.0
 10
11.7843
 20
121.1397
 30
0.0
 10
12.5705
 20
121.9238
 30
0.0
 10
13.379
 20
123.5861
 30
0.0
  0
SPLINE
  5
51
330
1F
100
AcDbEntity
  8
layer 1
 62
     7
100
AcDbSpline
210
0.0
220
0.0
230
1.0
 70
    11
 71
     3
 72
    68
 73
    64
 74
     0
 42
0.0000000001
 43
0.0000000001
 12
1.0
 22
0.0
 32
0.0
 13
1.0
 23
0.0
 33
0.0
 40
0.0
 40
0.0
 40
0.0
 40
0.0
 40
0.0588235294117647
 40
0.0588235294117647
 40
0.0588235294117647
 40
0.0588235294117647
 40
0.1176470588235294
 40
0.1176470588235294
 40
0.1176470588235294
 40
0.1176470588235294
 40
0.1764705882352941
 40
0.1764705882352941
 40
0.1764705882352941
 40
0.1764705882352941
 40
0.2352941176470588
 40
0.2352941176470588
 40
0.2352941176470588
 40
0.2352941176470588
 40
0.2941176470588235
 40
0.2941176470588235
 40
0.2941176470588235
 40
0.2941176470588235
 40
0.3529411764705883
 40
0.3529411764705883
 40
0.3529411764705883
 40
0.3529411764705883
 40
0.4117647058823529
 40
0.4117647058823529
 40
0.4117647058823529
 40
0.4117647058823529
 40
0.4705882352941176
 40
0.4705882352941176
 40
0.4705882352941176
 40
0.4705882352941176
 40
0.5294117647058824
 40
0.5294117647058824
 40
0.5294117647058824
 40
0.5294117647058824
 40
0.5882352941176471
 40
0.5882352941176471
 40
0.5882352941176471
 40
0.5882352941176471
 40
0.6470588235294118
 40
0.6470588235294118
 40
0.6470588235294118
 40
0.6470588235294118
 40
0.7058823529411765
 40
0.7058823529411765
 40
0.7058823529411765
 40
0.7058823529411765
 40
0.7647058823529411
 40
0.7647058823529411
 40
0.7647058823529411
 40
0.7647058823529411
 40
0.8235294117647058
 40
0.8235294117647058
 40
0.8235294117647058
 40
0.8235294117647058
 40
0.8823529411764706
 40
0.8823529411764706
 40
0.8823529411764706
 40
0.8823529411764706
 40
1.0
 40
1.0
 40
1.0
 40
1.0
 10
38.3
 20
37.5401
 30
0.0
 10
38.7296
 20
36.0339
 30
0.0
 10
40.5876
 20
35.5129
 30
0.0
 10
41.5246
 20
35.5129
 30
0.0
 10
41.5246
 20
35.5129
 30
0.0
 10
36.673
 20
30.9348
 30
0.0
 10
33.9742
 20
22.0356
 30
0.0
 10
36.5066
 20
16.6657
 30
0.0
 10
36.5066
 20
16.6657
 30
0.0
 10
39.2213
 20
10.9383
 30
0.0
 10
46.4307
 20
9.2817
 30
0.0
 10
51.5296
 20
13.215
 30
0.0
 10
51.5296
 20
13.215
 30
0.0
 10
57.9446
 20
17.7506
 30
0.0
 10
63.9351
 20
15.2723
 30
0.0
 10
64.1339
 20
8.4327
 30
0.0
 10
64.1339
 20
8.4327
 30
0.0
 10
62.4985
 20
11.126
 30
0.0
 10
57.888
 20
12.0876
 30
0.0
 10
55.9037
 20
8.0705
 30
0.0
 10
55.9037
 20
8.0705
 30
0.0
 10
55.6597
 20
7.4801
 30
0.0
 10
55.6782
 20
7.2166
 30
0.0
 10
55.9978
 20
6.596
 30
0.0
 10
55.9978
 20
6.596
 30
0.0
 10
56.5642
 20
5.5039
 30
0.0
 10
56.4921
 20
4.0643
 30
0.0
 10
55.8232
 20
3.0682
 30
0.0
 10
55.8232
 20
3.0682
 30
0.0
 10
53.8497
 20
-0.0575
 30
0.0
 10
46.5702
 20
-1.7546
 30
0.0
 10
43.5201
 20
0.6004
 30
0.0
 10
43.5201
 20
0.6004
 30
0.0
 10
47.5423
 20
1.0754
 30
0.0
 10
49.0729
 20
1.9807
 30
0.0
 10
48.9168
 20
5.0871
 30
0.0
 10
48.9168
 20
5.0871
 30
0.0
 10
48.6646
 20
8.4623
 30
0.0
 10
45.6008
 20
9.0293
 30
0.0
 10
43.1976
 20
8.0251
 30
0.0
 10
43.1976
 20
8.0251
 30
0.0
 10
38.6355
 20
5.9113
 30
0.0
 10
33.174
 20
8.3144
 30
0.0
 10
30.7469
 20
9.7002
 30
0.0
 10
30.7469
 20
9.7002
 30
0.0
 10
33.1872
 20
9.6281
 30
0.0
 10
35.3573
 20
11.5747
 30
0.0
 10
35.3517
 20
12.6086
 30
0.0
 10
35.3517
 20
12.6086
 30
0.0
 10
35.3489
 20
13.0059
 30
0.0
 10
35.0506
 20
13.2101
 30
0.0
 10
33.9715
 20
13.5538
 30
0.0
 10
33.9715
 20
13.5538
 30
0.0
 10
27.374
 20
15.7261
 30
0.0
 10
25.2957
 20
21.483
 30
0.0
 10
25.5398
 20
26.4797
 30
0.0
 10
25.5398
 20
26.4797
 30
0.0
 10
26.3806
 20
38.4557
 30
0.0
 10
34.3392
 20
49.7598
 30
0.0
 10
42.2388
 20
54.8137
 30
0.0
 10
42.2388
 20
54.8137
 30
0.0
 10
39.3045
 20
50.563
 30
0.0
 10
36.893
 20
43.2248
 30
0.0
 10
38.3
 20
37.5401
 30
0.0
  0
SPLINE
  5
52
330
1F
100
AcDbEntity
  8
layer 1
 62
     7
100
AcDbSpline
210
0.0
220
0.0
230
1.0
 70
    11
 71
     3
 72
    48
 73
    44
 74
     0
 42
0.0000000001
 43
0.0000000001
 12
1.0
 22
0.0
 32
0.0
 13
1.0
 23
0.0
 33
0.0
 40
0.0
 40
0.0
 40
0.0
 40
0.0
 40
0.0833333333333333
 40
0.0833333333333333
 40
0.0833333333333333
 40
0.0833333333333333
 40
0.1666666666666667
 40
0.1666666666666667
 40
0.1666666666666667
 40
0.1666666666666667
 40
0.25
 40
0.25
 40
0.25
 40
0.25
 40
0.3333333333333333
 40
0.3333333333333333
 40
0.3333333333333333
 40
0.3333333333333333
 40
0.4166666666666667
 40
0.4166666666666667
 40
0.4166666666666667
 40
0.4166666666666667
 40
0.5
 40
0.5
 40
0.5
 40
0.5
 40
0.5833333333333334
 40
0.5833333333333334
 40
0.5833333333333334
 40
0.5833333333333334
 40
0.6666666666666666
 40
0.6666666666666666
 40
0.6666666666666666
 40
0.6666666666666666
 40
0.75
 40
0.75
 40
0.75
 40
0.75
 40
0.8333333333333334
 40
0.8333333333333334
 40
0.8333333333333334
 40
0.8333333333333334
 40
1.0
 40
1.0
 40
1.0
 40
1.0
 10
64.1499
 20
32.7578
 30
0.0
 10
66.3652
 20
31.7212
 30
0.0
 10
68.8542
 20
28.1178
 30
0.0
 10
69.754
 20
24.6457
 30
0.0
 10
69.754
 20
24.6457
 30
0.0
 10
70.5489
 20
20.3928
 30
0.0
 10
70.2291
 20
17.78
 30
0.0
 10
69.354
 20
15.471
 30
0.0
 10
69.354
 20
15.471
 30
0.0
 10
67.3881
 20
19.8182
 30
0.0
 10
62.9254
 20
18.3656
 30
0.0
 10
60.6405
 20
23.0268
 30
0.0
 10
60.6405
 20
23.0268
 30
0.0
 10
60.1815
 20
24.1736
 30
0.0
 10
60.0233
 20
24.2244
 30
0.0
 10
59.3035
 20
23.4592
 30
0.0
 10
59.3035
 20
23.4592
 30
0.0
 10
58.2483
 20
22.0198
 30
0.0
 10
58.0118
 20
20.7393
 30
0.0
 10
58.0118
 20
19.0957
 30
0.0
 10
58.0118
 20
19.0957
 30
0.0
 10
55.0767
 20
20.6773
 30
0.0
 10
52.4027
 20
21.1282
 30
0.0
 10
49.4435
 20
19.3157
 30
0.0
 10
49.4435
 20
19.3157
 30
0.0
 10
49.5425
 20
23.4269
 30
0.0
 10
44.7202
 20
24.0175
 30
0.0
 10
42.9804
 20
21.5181
 30
0.0
 10
42.9804
 20
21.5181
 30
0.0
 10
41.9652
 20
25.8974
 30
0.0
 10
43.9147
 20
30.5264
 30
0.0
 10
47.3009
 20
33.2115
 30
0.0
 10
47.3009
 20
33.2115
 30
0.0
 10
46.7613
 20
30.4564
 30
0.0
 10
47.569
 20
28.3163
 30
0.0
 10
49.5425
 20
27.4276
 30
0.0
 10
49.5425
 20
27.4276
 30
0.0
 10
51.527
 20
26.5498
 30
0.0
 10
53.3932
 20
27.1864
 30
0.0
 10
54.3466
 20
29.0685
 30
0.0
 10
54.3466
 20
29.0685
 30
0.0
 10
56.4089
 20
32.9776
 30
0.0
 10
59.3921
 20
34.7313
 30
0.0
 10
64.1499
 20
32.7578
 30
0.0
  0
SPLINE
  5
53
330
1F
100
AcDbEntity
  8
layer 1
 62
     7
100
AcDbSpline
210
0.0
220
0.0
230
1.0
 70
    11
 71
     3
 72
    52
 73
    48
 74
     0
 42
0.0000000001
 43
0.0000000001
 12
1.0
 22
0.0
 32
0.0
 13
1.0
 23
0.0
 33
0.0
 40
0.0
 40
0.0
 40
0.0
 40
0.0
 40
0.0769230769230769
 40
0.0769230769230769
 40
0.0769230769230769
 40
0.0769230769230769
 40
0.1538461538461539
 40
0.1538461538461539
 40
0.1538461538461539
 40
0.1538461538461539
 40
0.2307692307692308
 40
0.2307692307692308
 40
0.2307692307692308
 40
0.2307692307692308
 40
0.3076923076923077
 40
0.3076923076923077
 40
0.3076923076923077
 40
0.3076923076923077
 40
0.3846153846153846
 40
0.3846153846153846
 40
0.3846153846153846
 40
0.3846153846153846
 40
0.4615384615384616
 40
0.4615384615384616
 40
0.4615384615384616
 40
0.4615384615384616
 40
0.5384615384615384
 40
0.5384615384615384
 40
0.5384615384615384
 40
0.5384615384615384
 40
0.6153846153846154
 40
0.6153846153846154
 40
0.6153846153846154
 40
0.6153846153846154
 40
0.6923076923076923
 40
0.6923076923076923
 40
0.6923076923076923
 40
0.6923076923076923
 40
0.7692307692307693
 40
0.7692307692307693
 40
0.7692307692307693
 40
0.7692307692307693
 40
0.8461538461538461
 40
0.8461538461538461
 40
0.8461538461538461
 40
0.8461538461538461
 40
1.0
 40
1.0
 40
1.0
 40
1.0
 10
62.4958
 20
-14.6859
 30
0.0
 10
59.8535
 20
-13.3463
 30
0.0
 10
56.2398
 20
-12.1865
 30
0.0
 10
54.7034
 20
-12.1865
 30
0.0
 10
54.7034
 20
-12.1865
 30
0.0
 10
54.3117
 20
-12.1865
 30
0.0
 10
54.2416
 20
-12.0519
 30
0.0
 10
54.3248
 20
-11.4724
 30
0.0
 10
54.3248
 20
-11.4724
 30
0.0
 10
54.4917
 20
-10.336
 30
0.0
 10
54.0001
 20
-9.7752
 30
0.0
 10
52.0157
 20
-8.8458
 30
0.0
 10
52.0157
 20
-8.8458
 30
0.0
 10
49.2551
 20
-7.5541
 30
0.0
 10
46.9488
 20
-6.9824
 30
0.0
 10
43.8177
 20
-6.8187
 30
0.0
 10
43.8177
 20
-6.8187
 30
0.0
 10
35.9958
 20
-6.7622
 30
0.0
 10
33.271
 20
-8.0326
 30
0.0
 10
27.7395
 20
-12.1865
 30
0.0
 10
27.7395
 20
-12.1865
 30
0.0
 10
19.8372
 20
-7.2105
 30
0.0
 10
22.9648
 20
1.6769
 30
0.0
 10
27.3689
 20
5.1221
 30
0.0
 10
27.3689
 20
5.1221
 30
0.0
 10
31.1064
 20
2.3589
 30
0.0
 10
34.938
 20
1.4651
 30
0.0
 10
38.4422
 20
0.788
 30
0.0
 10
38.4422
 20
0.788
 30
0.0
 10
38.8534
 20
0.7132
 30
0.0
 10
38.9337
 20
0.5495
 30
0.0
 10
38.8507
 20
-0.0175
 30
0.0
 10
38.8507
 20
-0.0175
 30
0.0
 10
38.665
 20
-1.2843
 30
0.0
 10
40.4157
 20
-2.4984
 30
0.0
 10
44.2179
 20
-3.7466
 30
0.0
 10
44.2179
 20
-3.7466
 30
0.0
 10
53.1892
 20
-5.7421
 30
0.0
 10
58.5377
 20
-4.4423
 30
0.0
 10
65.638
 20
1.1964
 30
0.0
 10
65.638
 20
1.1964
 30
0.0
 10
72.0391
 20
-3.2634
 30
0.0
 10
71.542
 20
-11.6304
 30
0.0
 10
65.4661
 20
-16.1467
 30
0.0
 10
65.4661
 20
-16.1467
 30
0.0
 10
65.4145
 20
-16.1467
 30
0.0
 10
64.0776
 20
-15.4889
 30
0.0
 10
62.4958
 20
-14.6859
 30
0.0
  0
SPLINE
  5
54
330
1F
100
AcDbEntity
  8
layer 1
 62
     7
100
AcDbSpline
210
0.0
220
0.0
230
1.0
 70
    11
 71
     3
 72
    16
 73
    12
 74
     0
 42
0.0000000001
 43
0.0000000001
 12
1.0
 22
0.0
 32
0.0
 13
1.0
 23
0.0
 33
0.0
 40
0.0
 40
0.0
 40
0.0
 40
0.0
 40
0.25
 40
0.25
 40
0.25
 40
0.25
 40
0.5
 40
0.5
 40
0.5
 40
0.5
 40
1.0
 40
1.0
 40
1.0
 40
1.0
 10
68.8756
 20
4.969
 30
0.0
 10
71.2472
 20
7.9709
 30
0.0
 10
72.8873
 20
11.0564
 30
0.0
 10
74.163
 20
14.6626
 30
0.0
 10
74.163
 20
14.6626
 30
0.0
 10
74.1632
 20
9.2197
 30
0.0
 10
74.1657
 20
3.7741
 30
0.0
 10
74.1657
 20
-1.6687
 30
0.0
 10
74.1657
 20
-1.6687
 30
0.0
 10
72.9066
 20
1.1401
 30
0.0
 10
71.3756
 20
3.2022
 30
0.0
 10
68.8756
 20
4.969
 30
0.0
  0
SPLINE
  5
55
330
1F
100
AcDbEntity
  8
layer 1
 62
     7
100
AcDbSpline
210
0.0
220
0.0
230
1.0
 70
    11
 71
     3
 72
    36
 73
    32
 74
     0
 42
0.0000000001
 43
0.0000000001
 12
1.0
 22
0.0
 32
0.0
 13
1.0
 23
0.0
 33
0.0
 40
0.0
 40
0.0
 40
0.0
 40
0.0
 40
0.1111111111111111
 40
0.1111111111111111
 40
0.1111111111111111
 40
0.1111111111111111
 40
0.2222222222222222
 40
0.2222222222222222
 40
0.2222222222222222
 40
0.2222222222222222
 40
0.3333333333333333
 40
0.3333333333333333
 40
0.3333333333333333
 40
0.3333333333333333
 40
0.4444444444444444
 40
0.4444444444444444
 40
0.4444444444444444
 40
0.4444444444444444
 40
0.5555555555555556
 40
0.5555555555555556
 40
0.5555555555555556
 40
0.5555555555555556
 40
0.6666666666666666
 40
0.6666666666666666
 40
0.6666666666666666
 40
0.6666666666666666
 40
0.7777777777777778
 40
0.7777777777777778
 40
0.7777777777777778
 40
0.7777777777777778
 40
1.0
 40
1.0
 40
1.0
 40
1.0
 10
65.0226
 20
47.9478
 30
0.0
 10
64.8722
 20
49.3709
 30
0.0
 10
65.6426
 20
51.1162
 30
0.0
 10
67.6596
 20
51.6584
 30
0.0
 10
67.6596
 20
51.6584
 30
0.0
 10
67.9497
 20
51.6584
 30
0.0
 10
67.9949
 20
51.8385
 30
0.0
 10
67.8638
 20
52.4642
 30
0.0
 10
67.8638
 20
52.4642
 30
0.0
 10
67.0637
 20
56.6691
 30
0.0
 10
62.5982
 20
56.7225
 30
0.0
 10
60.6109
 20
53.5729
 30
0.0
 10
60.6109
 20
53.5729
 30
0.0
 10
58.4471
 20
58.7073
 30
0.0
 10
62.3804
 20
63.4625
 30
0.0
 10
67.0471
 20
63.5375
 30
0.0
 10
67.0471
 20
63.5375
 30
0.0
 10
67.9766
 20
63.5375
 30
0.0
 10
67.9922
 20
63.5188
 30
0.0
 10
67.9949
 20
62.6088
 30
0.0
 10
67.9949
 20
62.6088
 30
0.0
 10
68.1132
 20
59.0886
 30
0.0
 10
71.6011
 20
58.1703
 30
0.0
 10
74.1788
 20
60.3129
 30
0.0
 10
74.1788
 20
60.3129
 30
0.0
 10
74.1788
 20
60.3129
 30
0.0
 10
74.2595
 20
30.1614
 30
0.0
 10
74.2595
 20
30.1614
 30
0.0
 10
74.2595
 20
30.1614
 30
0.0
 10
71.5021
 20
39.1081
 30
0.0
 10
65.9224
 20
42.2741
 30
0.0
 10
65.0226
 20
47.9478
 30
0.0
  0
SPLINE
  5
56
330
1F
100
AcDbEntity
  8
layer 1
 62
     7
100
AcDbSpline
210
0.0
220
0.0
230
1.0
 70
    11
 71
     3
 72
    36
 73
    32
 74
     0
 42
0.0000000001
 43
0.0000000001
 12
1.0
 22
0.0
 32
0.0
 13
1.0
 23
0.0
 33
0.0
 40
0.0
 40
0.0
 40
0.0
 40
0.0
 40
0.1111111111111111
 40
0.1111111111111111
 40
0.1111111111111111
 40
0.1111111111111111
 40
0.2222222222222222
 40
0.2222222222222222
 40
0.2222222222222222
 40
0.2222222222222222
 40
0.3333333333333333
 40
0.3333333333333333
 40
0.3333333333333333
 40
0.3333333333333333
 40
0.4444444444444444
 40
0.4444444444444444
 40
0.4444444444444444
 40
0.4444444444444444
 40
0.5555555555555556
 40
0.5555555555555556
 40
0.5555555555555556
 40
0.5555555555555556
 40
0.6666666666666666
 40
0.6666666666666666
 40
0.6666666666666666
 40
0.6666666666666666
 40
0.7777777777777778
 40
0.7777777777777778
 40
0.7777777777777778
 40
0.7777777777777778
 40
1.0
 40
1.0
 40
1.0
 40
1.0
 10
28.5823
 20
48.6002
 30
0.0
 10
27.3311
 20
48.1033
 30
0.0
 10
26.1688
 20
47.9664
 30
0.0
 10
24.8605
 20
47.91
 30
0.0
 10
24.8605
 20
47.91
 30
0.0
 10
23.3333
 20
47.8722
 30
0.0
 10
22.2458
 20
47.1581
 30
0.0
 10
21.5632
 20
45.7351
 30
0.0
 10
21.5632
 20
45.7351
 30
0.0
 10
20.943
 20
43.9685
 30
0.0
 10
19.8103
 20
44.1081
 30
0.0
 10
18.8164
 20
44.9913
 30
0.0
 10
18.8164
 20
44.9913
 30
0.0
 10
17.8205
 20
44.1083
 30
0.0
 10
16.6874
 20
43.9685
 30
0.0
 10
16.0695
 20
45.7351
 30
0.0
 10
16.0695
 20
45.7351
 30
0.0
 10
15.3848
 20
47.1581
 30
0.0
 10
14.3001
 20
47.8722
 30
0.0
 10
12.7693
 20
47.91
 30
0.0
 10
12.7693
 20
47.91
 30
0.0
 10
11.4647
 20
47.9666
 30
0.0
 10
10.2993
 20
48.1031
 30
0.0
 10
9.0476
 20
48.6002
 30
0.0
 10
9.0476
 20
48.6002
 30
0.0
 10
13.9723
 20
42.7334
 30
0.0
 10
17.4684
 20
37.1317
 30
0.0
 10
18.8164
 20
30.435
 30
0.0
 10
18.8164
 20
30.435
 30
0.0
 10
20.1617
 20
37.1317
 30
0.0
 10
23.6577
 20
42.7332
 30
0.0
 10
28.5823
 20
48.6002
 30
0.0
  0
SPLINE
  5
57
330
1F
100
AcDbEntity
  8
layer 1
 62
     7
100
AcDbSpline
210
0.0
220
0.0
230
1.0
 70
    11
 71
     3
 72
    28
 73
    24
 74
     0
 42
0.0000000001
 43
0.0000000001
 12
1.0
 22
0.0
 32
0.0
 13
1.0
 23
0.0
 33
0.0
 40
0.0
 40
0.0
 40
0.0
 40
0.0
 40
0.1428571428571428
 40
0.1428571428571428
 40
0.1428571428571428
 40
0.1428571428571428
 40
0.2857142857142857
 40
0.2857142857142857
 40
0.2857142857142857
 40
0.2857142857142857
 40
0.4285714285714285
 40
0.4285714285714285
 40
0.4285714285714285
 40
0.4285714285714285
 40
0.5714285714285714
 40
0.5714285714285714
 40
0.5714285714285714
 40
0.5714285714285714
 40
0.7142857142857143
 40
0.7142857142857143
 40
0.7142857142857143
 40
0.7142857142857143
 40
1.0
 40
1.0
 40
1.0
 40
1.0
 10
45.8966
 20
40.8616
 30
0.0
 10
44.4303
 20
40.0643
 30
0.0
 10
43.496
 20
41.3096
 30
0.0
 10
43.4823
 20
43.0956
 30
0.0
 10
43.4823
 20
43.0956
 30
0.0
 10
43.7189
 20
47.6903
 30
0.0
 10
46.1082
 20
51.3979
 30
0.0
 10
48.7938
 20
54.7249
 30
0.0
 10
48.7938
 20
54.7249
 30
0.0
 10
51.393
 20
57.9448
 30
0.0
 10
54.2552
 20
60.8201
 30
0.0
 10
56.4274
 20
63.2583
 30
0.0
 10
56.4274
 20
63.2583
 30
0.0
 10
53.4173
 20
53.56
 30
0.0
 10
55.7538
 20
46.8707
 30
0.0
 10
60.8475
 20
40.9955
 30
0.0
 10
60.8475
 20
40.9955
 30
0.0
 10
55.5469
 20
42.0377
 30
0.0
 10
50.4774
 20
41.3125
 30
0.0
 10
45.8455
 20
38.9018
 30
0.0
 10
45.8455
 20
38.9018
 30
0.0
 10
45.9825
 20
39.5623
 30
0.0
 10
46.146
 20
40.0504
 30
0.0
 10
45.8966
 20
40.8616
 30
0.0
  0
SPLINE
  5
58
330
1F
100
AcDbEntity
  8
layer 1
 62
     7
100
AcDbSpline
210
0.0
220
0.0
230
1.0
 70
    11
 71
     3
 72
    20
 73
    16
 74
     0
 42
0.0000000001
 43
0.0000000001
 12
1.0
 22
0.0
 32
0.0
 13
1.0
 23
0.0
 33
0.0
 40
0.0
 40
0.0
 40
0.0
 40
0.0
 40
0.2
 40
0.2
 40
0.2
 40
0.2
 40
0.4
 40
0.4
 40
0.4
 40
0.4
 40
0.6
 40
0.6
 40
0.6
 40
0.6
 40
1.0
 40
1.0
 40
1.0
 40
1.0
 10
21.2924
 20
52.3728
 30
0.0
 10
20.2745
 20
53.2321
 30
0.0
 10
19.6165
 20
53.4443
 30
0.0
 10
18.8164
 20
55.9279
 30
0.0
 10
18.8164
 20
55.9279
 30
0.0
 10
18.0163
 20
53.4443
 30
0.0
 10
17.3556
 20
53.2319
 30
0.0
 10
16.3382
 20
52.3728
 30
0.0
 10
16.3382
 20
52.3728
 30
0.0
 10
17.2299
 20
51.7769
 30
0.0
 10
18.0031
 20
51.1594
 30
0.0
 10
18.8164
 20
49.8032
 30
0.0
 10
18.8164
 20
49.8032
 30
0.0
 10
19.6276
 20
51.1596
 30
0.0
 10
20.4007
 20
51.7767
 30
0.0
 10
21.2924
 20
52.3728
 30
0.0
  0
SPLINE
  5
59
330
1F
100
AcDbEntity
  8
layer 1
 62
     7
100
AcDbSpline
210
0.0
220
0.0
230
1.0
 70
    11
 71
     3
 72
    68
 73
    64
 74
     0
 42
0.0000000001
 43
0.0000000001
 12
1.0
 22
0.0
 32
0.0
 13
1.0
 23
0.0
 33
0.0
 40
0.0
 40
0.0
 40
0.0
 40
0.0
 40
0.0588235294117647
 40
0.0588235294117647
 40
0.0588235294117647
 40
0.0588235294117647
 40
0.1176470588235294
 40
0.1176470588235294
 40
0.1176470588235294
 40
0.1176470588235294
 40
0.1764705882352941
 40
0.1764705882352941
 40
0.1764705882352941
 40
0.1764705882352941
 40
0.2352941176470588
 40
0.2352941176470588
 40
0.2352941176470588
 40
0.2352941176470588
 40
0.2941176470588235
 40
0.2941176470588235
 40
0.2941176470588235
 40
0.2941176470588235
 40
0.3529411764705883
 40
0.3529411764705883
 40
0.3529411764705883
 40
0.3529411764705883
 40
0.4117647058823529
 40
0.4117647058823529
 40
0.4117647058823529
 40
0.4117647058823529
 40
0.4705882352941176
 40
0.4705882352941176
 40
0.4705882352941176
 40
0.4705882352941176
 40
0.5294117647058824
 40
0.5294117647058824
 40
0.5294117647058824
 40
0.5294117647058824
 40
0.5882352941176471
 40
0.5882352941176471
 40
0.5882352941176471
 40
0.5882352941176471
 40
0.6470588235294118
 40
0.6470588235294118
 40
0.6470588235294118
 40
0.6470588235294118
 40
0.7058823529411765
 40
0.7058823529411765
 40
0.7058823529411765
 40
0.7058823529411765
 40
0.7647058823529411
 40
0.7647058823529411
 40
0.7647058823529411
 40
0.7647058823529411
 40
0.8235294117647058
 40
0.8235294117647058
 40
0.8235294117647058
 40
0.8235294117647058
 40
0.8823529411764706
 40
0.8823529411764706
 40
0.8823529411764706
 40
0.8823529411764706
 40
1.0
 40
1.0
 40
1.0
 40
1.0
 10
24.8689
 20
58.3367
 30
0.0
 10
25.2931
 20
57.2574
 30
0.0
 10
25.9322
 20
57.3082
 30
0.0
 10
27.1296
 20
57.3887
 30
0.0
 10
27.1296
 20
57.3887
 30
0.0
 10
31.1469
 20
57.9127
 30
0.0
 10
34.5812
 20
62.5627
 30
0.0
 10
32.4653
 20
67.3237
 30
0.0
 10
32.4653
 20
67.3237
 30
0.0
 10
31.0768
 20
64.1714
 30
0.0
 10
25.9213
 20
64.3354
 30
0.0
 10
25.2799
 20
68.1725
 30
0.0
 10
25.2799
 20
68.1725
 30
0.0
 10
25.1454
 20
68.8572
 30
0.0
 10
25.207
 20
69.0051
 30
0.0
 10
25.7095
 20
69.1982
 30
0.0
 10
25.7095
 20
69.1982
 30
0.0
 10
26.9846
 20
69.6947
 30
0.0
 10
28.1499
 20
71.4645
 30
0.0
 10
28.1499
 20
72.9088
 30
0.0
 10
28.1499
 20
72.9088
 30
0.0
 10
28.1499
 20
73.9887
 30
0.0
 10
26.4367
 20
77.2318
 30
0.0
 10
23.8165
 20
81.1067
 30
0.0
 10
23.8165
 20
81.1067
 30
0.0
 10
21.263
 20
84.9089
 30
0.0
 10
19.815
 20
87.8198
 30
0.0
 10
18.8164
 20
91.3827
 30
0.0
 10
18.8164
 20
91.3827
 30
0.0
 10
17.8148
 20
87.82
 30
0.0
 10
16.3706
 20
84.9087
 30
0.0
 10
13.8141
 20
81.1067
 30
0.0
 10
13.8141
 20
81.1067
 30
0.0
 10
11.1931
 20
77.232
 30
0.0
 10
9.48
 20
73.9887
 30
0.0
 10
9.48
 20
72.9088
 30
0.0
 10
9.48
 20
72.9088
 30
0.0
 10
9.4802
 20
71.4645
 30
0.0
 10
10.6458
 20
69.6945
 30
0.0
 10
11.9238
 20
69.1982
 30
0.0
 10
11.9238
 20
69.1982
 30
0.0
 10
12.4258
 20
69.0051
 30
0.0
 10
12.4873
 20
68.8572
 30
0.0
 10
12.3533
 20
68.1725
 30
0.0
 10
12.3533
 20
68.1725
 30
0.0
 10
11.7087
 20
64.3356
 30
0.0
 10
6.5531
 20
64.1712
 30
0.0
 10
5.1651
 20
67.3237
 30
0.0
 10
5.1651
 20
67.3237
 30
0.0
 10
3.0496
 20
62.5628
 30
0.0
 10
6.4864
 20
57.9125
 30
0.0
 10
10.503
 20
57.3887
 30
0.0
 10
10.503
 20
57.3887
 30
0.0
 10
11.7011
 20
57.3082
 30
0.0
 10
12.3369
 20
57.2574
 30
0.0
 10
12.7617
 20
58.3365
 30
0.0
 10
12.7617
 20
58.3365
 30
0.0
 10
14.5393
 20
61.5722
 30
0.0
 10
17.9734
 20
60.5919
 30
0.0
 10
18.8164
 20
58.0947
 30
0.0
 10
18.8164
 20
58.0947
 30
0.0
 10
19.6597
 20
60.5919
 30
0.0
 10
23.0913
 20
61.5722
 30
0.0
 10
24.8689
 20
58.3367
 30
0.0
  0
SPLINE
  5
5A
330
1F
100
AcDbEntity
  8
layer 1
 62
     7
100
AcDbSpline
210
0.0
220
0.0
230
1.0
 70
    11
 71
     3
 72
    28
 73
    24
 74
     0
 42
0.0000000001
 43
0.0000000001
 12
1.0
 22
0.0
 32
0.0
 13
1.0
 23
0.0
 33
0.0
 40
0.0
 40
0.0
 40
0.0
 40
0.0
 40
0.1428571428571428
 40
0.1428571428571428
 40
0.1428571428571428
 40
0.1428571428571428
 40
0.2857142857142857
 40
0.2857142857142857
 40
0.2857142857142857
 40
0.2857142857142857
 40
0.4285714285714285
 40
0.4285714285714285
 40
0.4285714285714285
 40
0.4285714285714285
 40
0.5714285714285714
 40
0.5714285714285714
 40
0.5714285714285714
 40
0.5714285714285714
 40
0.7142857142857143
 40
0.7142857142857143
 40
0.7142857142857143
 40
0.7142857142857143
 40
1.0
 40
1.0
 40
1.0
 40
1.0
 10
32.4386
 20
79.7801
 30
0.0
 10
37.5157
 20
78.4348
 30
0.0
 10
42.7495
 20
79.45
 30
0.0
 10
47.4534
 20
82.1028
 30
0.0
 10
47.4534
 20
82.1028
 30
0.0
 10
47.3704
 20
81.0827
 30
0.0
 10
47.1152
 20
81.2277
 30
0.0
 10
47.5236
 20
80.411
 30
0.0
 10
47.5236
 20
80.411
 30
0.0
 10
49.4704
 20
80.2125
 30
0.0
 10
50.2841
 20
77.7556
 30
0.0
 10
49.7013
 20
75.7016
 30
0.0
 10
49.7013
 20
75.7016
 30
0.0
 10
48.7155
 20
72.2161
 30
0.0
 10
47.8913
 20
70.6857
 30
0.0
 10
44.5244
 20
66.4459
 30
0.0
 10
44.5244
 20
66.4459
 30
0.0
 10
41.8607
 20
63.0948
 30
0.0
 10
37.0461
 20
57.5309
 30
0.0
 10
36.9169
 20
57.6601
 30
0.0
 10
36.9169
 20
57.6601
 30
0.0
 10
39.6047
 20
66.1345
 30
0.0
 10
38.1336
 20
72.8229
 30
0.0
 10
32.4386
 20
79.7801
 30
0.0
  0
SPLINE
  5
5B
330
1F
100
AcDbEntity
  8
layer 1
 62
     7
100
AcDbSpline
210
0.0
220
0.0
230
1.0
 70
    11
 71
     3
 72
    16
 73
    12
 74
     0
 42
0.0000000001
 43
0.0000000001
 12
1.0
 22
0.0
 32
0.0
 13
1.0
 23
0.0
 33
0.0
 40
0.0
 40
0.0
 40
0.0
 40
0.0
 40
0.25
 40
0.25
 40
0.25
 40
0.25
 40
0.5
 40
0.5
 40
0.5
 40
0.5
 40
1.0
 40
1.0
 40
1.0
 40
1.0
 10
71.6739
 20
68.2393
 30
0.0
 10
72.6135
 20
68.7122
 30
0.0
 10
73.5451
 20
69.7192
 30
0.0
 10
74.1788
 20
71.0349
 30
0.0
 10
74.1788
 20
71.0349
 30
0.0
 10
74.1788
 20
71.0349
 30
0.0
 10
74.179
 20
66.0246
 30
0.0
 10
74.179
 20
66.0246
 30
0.0
 10
74.179
 20
66.0246
 30
0.0
 10
73.4002
 20
67.1224
 30
0.0
 10
72.595
 20
67.6783
 30
0.0
 10
71.6739
 20
68.2393
 30
0.0
  0
SPLINE
  5
5C
330
1F
100
AcDbEntity
  8
layer 1
 62
     7
100
AcDbSpline
210
0.0
220
0.0
230
1.0
 70
    11
 71
     3
 72
    68
 73
    64
 74
     0
 42
0.0000000001
 43
0.0000000001
 12
1.0
 22
0.0
 32
0.0
 13
1.0
 23
0.0
 33
0.0
 40
0.0
 40
0.0
 40
0.0
 40
0.0
 40
0.0588235294117647
 40
0.0588235294117647
 40
0.0588235294117647
 40
0.0588235294117647
 40
0.1176470588235294
 40
0.1176470588235294
 40
0.1176470588235294
 40
0.1176470588235294
 40
0.1764705882352941
 40
0.1764705882352941
 40
0.1764705882352941
 40
0.1764705882352941
 40
0.2352941176470588
 40
0.2352941176470588
 40
0.2352941176470588
 40
0.2352941176470588
 40
0.2941176470588235
 40
0.2941176470588235
 40
0.2941176470588235
 40
0.2941176470588235
 40
0.3529411764705883
 40
0.3529411764705883
 40
0.3529411764705883
 40
0.3529411764705883
 40
0.4117647058823529
 40
0.4117647058823529
 40
0.4117647058823529
 40
0.4117647058823529
 40
0.4705882352941176
 40
0.4705882352941176
 40
0.4705882352941176
 40
0.4705882352941176
 40
0.5294117647058824
 40
0.5294117647058824
 40
0.5294117647058824
 40
0.5294117647058824
 40
0.5882352941176471
 40
0.5882352941176471
 40
0.5882352941176471
 40
0.5882352941176471
 40
0.6470588235294118
 40
0.6470588235294118
 40
0.6470588235294118
 40
0.6470588235294118
 40
0.7058823529411765
 40
0.7058823529411765
 40
0.7058823529411765
 40
0.7058823529411765
 40
0.7647058823529411
 40
0.7647058823529411
 40
0.7647058823529411
 40
0.7647058823529411
 40
0.8235294117647058
 40
0.8235294117647058
 40
0.8235294117647058
 40
0.8235294117647058
 40
0.8823529411764706
 40
0.8823529411764706
 40
0.8823529411764706
 40
0.8823529411764706
 40
1.0
 40
1.0
 40
1.0
 40
1.0
 10
54.9021
 20
83.2844
 30
0.0
 10
54.4727
 20
84.7906
 30
0.0
 10
52.6116
 20
85.3116
 30
0.0
 10
51.6775
 20
85.3116
 30
0.0
 10
51.6775
 20
85.3116
 30
0.0
 10
56.5299
 20
89.8897
 30
0.0
 10
59.2251
 20
98.7887
 30
0.0
 10
56.6961
 20
104.1586
 30
0.0
 10
56.6961
 20
104.1586
 30
0.0
 10
53.981
 20
109.8889
 30
0.0
 10
46.7687
 20
111.5455
 30
0.0
 10
41.6696
 20
107.6122
 30
0.0
 10
41.6696
 20
107.6122
 30
0.0
 10
35.2548
 20
103.0741
 30
0.0
 10
29.2668
 20
105.5548
 30
0.0
 10
29.0655
 20
112.3916
 30
0.0
 10
29.0655
 20
112.3916
 30
0.0
 10
30.7036
 20
109.6985
 30
0.0
 10
35.3111
 20
108.7367
 30
0.0
 10
37.2957
 20
112.7568
 30
0.0
 10
37.2957
 20
112.7568
 30
0.0
 10
37.5405
 20
113.3446
 30
0.0
 10
37.5239
 20
113.6077
 30
0.0
 10
37.2043
 20
114.2312
 30
0.0
 10
37.2043
 20
114.2312
 30
0.0
 10
36.6379
 20
115.3236
 30
0.0
 10
36.708
 20
116.7629
 30
0.0
 10
37.3789
 20
117.7561
 30
0.0
 10
37.3789
 20
117.7561
 30
0.0
 10
39.3526
 20
120.8818
 30
0.0
 10
46.6292
 20
122.5789
 30
0.0
 10
49.6798
 20
120.2239
 30
0.0
 10
49.6798
 20
120.2239
 30
0.0
 10
45.6602
 20
119.7491
 30
0.0
 10
44.1271
 20
118.8463
 30
0.0
 10
44.2851
 20
115.7372
 30
0.0
 10
44.2851
 20
115.7372
 30
0.0
 10
44.5375
 20
112.3649
 30
0.0
 10
47.6011
 20
111.7957
 30
0.0
 10
50.0015
 20
112.802
 30
0.0
 10
50.0015
 20
112.802
 30
0.0
 10
54.5668
 20
114.9159
 30
0.0
 10
60.0279
 20
112.5126
 30
0.0
 10
62.456
 20
111.1268
 30
0.0
 10
62.456
 20
111.1268
 30
0.0
 10
60.0123
 20
111.1964
 30
0.0
 10
57.8428
 20
109.2523
 30
0.0
 10
57.8502
 20
108.2184
 30
0.0
 10
57.8502
 20
108.2184
 30
0.0
 10
57.8532
 20
107.8186
 30
0.0
 10
58.1515
 20
107.615
 30
0.0
 10
59.2279
 20
107.2734
 30
0.0
 10
59.2279
 20
107.2734
 30
0.0
 10
65.8285
 20
105.1012
 30
0.0
 10
67.9063
 20
99.3415
 30
0.0
 10
67.6623
 20
94.3474
 30
0.0
 10
67.6623
 20
94.3474
 30
0.0
 10
66.8217
 20
82.3687
 30
0.0
 10
58.8629
 20
71.0645
 30
0.0
 10
50.9633
 20
66.0108
 30
0.0
 10
50.9633
 20
66.0108
 30
0.0
 10
53.8978
 20
70.2644
 30
0.0
 10
56.3064
 20
77.5995
 30
0.0
 10
54.9021
 20
83.2844
 30
0.0
  0
SPLINE
  5
5D
330
1F
100
AcDbEntity
  8
layer 1
 62
     7
100
AcDbSpline
210
0.0
220
0.0
230
1.0
 70
    11
 71
     3
 72
    24
 73
    20
 74
     0
 42
0.0000000001
 43
0.0000000001
 12
1.0
 22
0.0
 32
0.0
 13
1.0
 23
0.0
 33
0.0
 40
0.0
 40
0.0
 40
0.0
 40
0.0
 40
0.1666666666666667
 40
0.1666666666666667
 40
0.1666666666666667
 40
0.1666666666666667
 40
0.3333333333333333
 40
0.3333333333333333
 40
0.3333333333333333
 40
0.3333333333333333
 40
0.5
 40
0.5
 40
0.5
 40
0.5
 40
0.6666666666666666
 40
0.6666666666666666
 40
0.6666666666666666
 40
0.6666666666666666
 40
1.0
 40
1.0
 40
1.0
 40
1.0
 10
74.1521
 20
88.9018
 30
0.0
 10
74.1981
 20
84.6592
 30
0.0
 10
74.1981
 20
77.847
 30
0.0
 10
74.163
 20
74.8184
 30
0.0
 10
74.163
 20
74.8184
 30
0.0
 10
72.9547
 20
76.2036
 30
0.0
 10
72.0658
 20
75.7739
 30
0.0
 10
71.4912
 20
74.7991
 30
0.0
 10
71.4912
 20
74.7991
 30
0.0
 10
70.8306
 20
73.6794
 30
0.0
 10
69.6091
 20
72.9466
 30
0.0
 10
68.3628
 20
72.9254
 30
0.0
 10
68.3628
 20
72.9254
 30
0.0
 10
67.6087
 20
72.9117
 30
0.0
 10
65.2399
 20
72.3959
 30
0.0
 10
64.0589
 20
71.985
 30
0.0
 10
64.0589
 20
71.985
 30
0.0
 10
69.695
 20
77.7825
 30
0.0
 10
72.5387
 20
83.3113
 30
0.0
 10
74.1521
 20
88.9018
 30
0.0
  0
SPLINE
  5
5E
330
1F
100
AcDbEntity
  8
layer 1
 62
     7
100
AcDbSpline
210
0.0
220
0.0
230
1.0
 70
    11
 71
     3
 72
    48
 73
    44
 74
     0
 42
0.0000000001
 43
0.0000000001
 12
1.0
 22
0.0
 32
0.0
 13
1.0
 23
0.0
 33
0.0
 40
0.0
 40
0.0
 40
0.0
 40
0.0
 40
0.0833333333333333
 40
0.0833333333333333
 40
0.0833333333333333
 40
0.0833333333333333
 40
0.1666666666666667
 40
0.1666666666666667
 40
0.1666666666666667
 40
0.1666666666666667
 40
0.25
 40
0.25
 40
0.25
 40
0.25
 40
0.3333333333333333
 40
0.3333333333333333
 40
0.3333333333333333
 40
0.3333333333333333
 40
0.4166666666666667
 40
0.4166666666666667
 40
0.4166666666666667
 40
0.4166666666666667
 40
0.5
 40
0.5
 40
0.5
 40
0.5
 40
0.5833333333333334
 40
0.5833333333333334
 40
0.5833333333333334
 40
0.5833333333333334
 40
0.6666666666666666
 40
0.6666666666666666
 40
0.6666666666666666
 40
0.6666666666666666
 40
0.75
 40
0.75
 40
0.75
 40
0.75
 40
0.8333333333333334
 40
0.8333333333333334
 40
0.8333333333333334
 40
0.8333333333333334
 40
1.0
 40
1.0
 40
1.0
 40
1.0
 10
28.9423
 20
87.9595
 30
0.0
 10
26.7271
 20
88.9961
 30
0.0
 10
24.2378
 20
92.5966
 30
0.0
 10
23.338
 20
96.0687
 30
0.0
 10
23.338
 20
96.0687
 30
0.0
 10
22.5435
 20
100.3218
 30
0.0
 10
22.8631
 20
102.9371
 30
0.0
 10
23.7382
 20
105.2461
 30
0.0
 10
23.7382
 20
105.2461
 30
0.0
 10
25.7041
 20
100.8991
 30
0.0
 10
30.1666
 20
102.3488
 30
0.0
 10
32.4517
 20
97.6903
 30
0.0
 10
32.4517
 20
97.6903
 30
0.0
 10
32.9109
 20
96.5438
 30
0.0
 10
33.0695
 20
96.4927
 30
0.0
 10
33.7885
 20
97.2579
 30
0.0
 10
33.7885
 20
97.2579
 30
0.0
 10
34.8445
 20
98.6975
 30
0.0
 10
35.0802
 20
99.9751
 30
0.0
 10
35.0802
 20
101.6187
 30
0.0
 10
35.0802
 20
101.6187
 30
0.0
 10
38.0128
 20
100.0371
 30
0.0
 10
40.6901
 20
99.586
 30
0.0
 10
43.6487
 20
101.3987
 30
0.0
 10
43.6487
 20
101.3987
 30
0.0
 10
43.5497
 20
97.2875
 30
0.0
 10
48.3718
 20
96.6996
 30
0.0
 10
50.1122
 20
99.1963
 30
0.0
 10
50.1122
 20
99.1963
 30
0.0
 10
51.127
 20
94.8197
 30
0.0
 10
49.1775
 20
90.1908
 30
0.0
 10
45.7913
 20
87.5029
 30
0.0
 10
45.7913
 20
87.5029
 30
0.0
 10
46.3317
 20
90.2603
 30
0.0
 10
45.5232
 20
92.4008
 30
0.0
 10
43.5497
 20
93.2895
 30
0.0
 10
43.5497
 20
93.2895
 30
0.0
 10
41.5652
 20
94.1675
 30
0.0
 10
39.6988
 20
93.528
 30
0.0
 10
38.7454
 20
91.6486
 30
0.0
 10
38.7454
 20
91.6486
 30
0.0
 10
36.6833
 20
87.7387
 30
0.0
 10
33.7005
 20
85.9831
 30
0.0
 10
28.9423
 20
87.9595
 30
0.0
  0
SPLINE
  5
5F
330
1F
100
AcDbEntity
  8
layer 1
 62
     7
100
AcDbSpline
210
0.0
220
0.0
230
1.0
 70
    11
 71
     3
 72
    16
 73
    12
 74
     0
 42
0.0000000001
 43
0.0000000001
 12
1.0
 22
0.0
 32
0.0
 13
1.0
 23
0.0
 33
0.0
 40
0.0
 40
0.0
 40
0.0
 40
0.0
 40
0.25
 40
0.25
 40
0.25
 40
0.25
 40
0.5
 40
0.5
 40
0.5
 40
0.5
 40
1.0
 40
1.0
 40
1.0
 40
1.0
 10
69.2488
 20
112.4343
 30
0.0
 10
71.4561
 20
114.172
 30
0.0
 10
72.8528
 20
116.2555
 30
0.0
 10
74.1657
 20
119.0938
 30
0.0
 10
74.1657
 20
119.0938
 30
0.0
 10
74.1657
 20
119.0938
 30
0.0
 10
74.1733
 20
103.9979
 30
0.0
 10
74.1733
 20
103.9979
 30
0.0
 10
74.1733
 20
103.9979
 30
0.0
 10
72.7532
 20
107.8157
 30
0.0
 10
71.0911
 20
110.2539
 30
0.0
 10
69.2488
 20
112.4343
 30
0.0
  0
SPLINE
  5
60
330
1F
100
AcDbEntity
  8
layer 1
 62
     7
100
AcDbSpline
210
0.0
220
0.0
230
1.0
 70
    11
 71
     3
 72
    20
 73
    16
 74
     0
 42
0.0000000001
 43
0.0000000001
 12
1.0
 22
0.0
 32
0.0
 13
1.0
 23
0.0
 33
0.0
 40
0.0
 40
0.0
 40
0.0
 40
0.0
 40
0.2
 40
0.2
 40
0.2
 40
0.2
 40
0.4
 40
0.4
 40
0.4
 40
0.4
 40
0.6
 40
0.6
 40
0.6
 40
0.6
 40
1.0
 40
1.0
 40
1.0
 40
1.0
 10
24.563
 20
115.8501
 30
0.0
 10
22.2589
 20
117.8401
 30
0.0
 10
20.3039
 20
119.5743
 30
0.0
 10
18.8164
 20
123.0244
 30
0.0
 10
18.8164
 20
123.0244
 30
0.0
 10
17.3289
 20
119.5745
 30
0.0
 10
15.3739
 20
117.8401
 30
0.0
 10
13.0676
 20
115.8501
 30
0.0
 10
13.0676
 20
115.8501
 30
0.0
 10
16.0214
 20
112.4103
 30
0.0
 10
17.7694
 20
109.1884
 30
0.0
 10
18.8164
 20
105.1121
 30
0.0
 10
18.8164
 20
105.1121
 30
0.0
 10
19.8612
 20
109.1886
 30
0.0
 10
21.6092
 20
112.4103
 30
0.0
 10
24.563
 20
115.8501
 30
0.0
  0
SPLINE
  5
61
330
1F
100
AcDbEntity
  8
layer 1
 62
     7
100
AcDbSpline
210
0.0
220
0.0
230
1.0
 70
    11
 71
     3
 72
    20
 73
    16
 74
     0
 42
0.0000000001
 43
0.0000000001
 12
1.0
 22
0.0
 32
0.0
 13
1.0
 23
0.0
 33
0.0
 40
0.0
 40
0.0
 40
0.0
 40
0.0
 40
0.2
 40
0.2
 40
0.2
 40
0.2
 40
0.4
 40
0.4
 40
0.4
 40
0.4
 40
0.6
 40
0.6
 40
0.6
 40
0.6
 40
1.0
 40
1.0
 40
1.0
 40
1.0
 10
54.1186
 20
120.1437
 30
0.0
 10
54.7495
 20
121.2715
 30
0.0
 10
54.3817
 20
122.3562
 30
0.0
 10
52.0321
 20
123.4225
 30
0.0
 10
52.0321
 20
123.4225
 30
0.0
 10
52.0321
 20
123.4225
 30
0.0
 10
70.0387
 20
123.4252
 30
0.0
 10
70.0387
 20
123.4252
 30
0.0
 10
70.0387
 20
123.4252
 30
0.0
 10
69.4723
 20
120.3395
 30
0.0
 10
67.8554
 20
117.2811
 30
0.0
 10
65.3313
 20
116.0432
 30
0.0
 10
65.3313
 20
116.0432
 30
0.0
 10
62.9042
 20
117.6895
 30
0.0
 10
58.5431
 20
119.4052
 30
0.0
 10
54.1186
 20
120.1437
 30
0.0
  0
SPLINE
  5
62
330
1F
100
AcDbEntity
  8
layer 1
 62
     7
100
AcDbSpline
210
0.0
220
0.0
230
1.0
 70
    11
 71
     3
 72
    16
 73
    12
 74
     0
 42
0.0000000001
 43
0.0000000001
 12
1.0
 22
0.0
 32
0.0
 13
1.0
 23
0.0
 33
0.0
 40
0.0
 40
0.0
 40
0.0
 40
0.0
 40
0.25
 40
0.25
 40
0.25
 40
0.25
 40
0.5
 40
0.5
 40
0.5
 40
0.5
 40
1.0
 40
1.0
 40
1.0
 40
1.0
 10
24.251
 20
123.5861
 30
0.0
 10
27.5752
 20
123.4864
 30
0.0
 10
29.9493
 20
123.4864
 30
0.0
 10
33.2145
 20
123.4225
 30
0.0
 10
33.2145
 20
123.4225
 30
0.0
 10
30.9992
 20
122.3369
 30
0.0
 10
29.4634
 20
121.1719
 30
0.0
 10
27.7931
 20
119.7571
 30
0.0
 10
27.7931
 20
119.7571
 30
0.0
 10
25.8463
 20
121.1397
 30
0.0
 10
25.062
 20
121.9238
 30
0.0
 10
24.251
 20
123.5861
 30
0.0
  0
SPLINE
  5
63
330
1F
100
AcDbEntity
  8
layer 1
 62
     7
100
AcDbSpline
210
0.0
220
0.0
230
1.0
 70
    11
 71
     3
 72
    68
 73
    64
 74
     0
 42
0.0000000001
 43
0.0000000001
 12
1.0
 22
0.0
 32
0.0
 13
1.0
 23
0.0
 33
0.0
 40
0.0
 40
0.0
 40
0.0
 40
0.0
 40
0.0588235294117647
 40
0.0588235294117647
 40
0.0588235294117647
 40
0.0588235294117647
 40
0.1176470588235294
 40
0.1176470588235294
 40
0.1176470588235294
 40
0.1176470588235294
 40
0.1764705882352941
 40
0.1764705882352941
 40
0.1764705882352941
 40
0.1764705882352941
 40
0.2352941176470588
 40
0.2352941176470588
 40
0.2352941176470588
 40
0.2352941176470588
 40
0.2941176470588235
 40
0.2941176470588235
 40
0.2941176470588235
 40
0.2941176470588235
 40
0.3529411764705883
 40
0.3529411764705883
 40
0.3529411764705883
 40
0.3529411764705883
 40
0.4117647058823529
 40
0.4117647058823529
 40
0.4117647058823529
 40
0.4117647058823529
 40
0.4705882352941176
 40
0.4705882352941176
 40
0.4705882352941176
 40
0.4705882352941176
 40
0.5294117647058824
 40
0.5294117647058824
 40
0.5294117647058824
 40
0.5294117647058824
 40
0.5882352941176471
 40
0.5882352941176471
 40
0.5882352941176471
 40
0.5882352941176471
 40
0.6470588235294118
 40
0.6470588235294118
 40
0.6470588235294118
 40
0.6470588235294118
 40
0.7058823529411765
 40
0.7058823529411765
 40
0.7058823529411765
 40
0.7058823529411765
 40
0.7647058823529411
 40
0.7647058823529411
 40
0.7647058823529411
 40
0.7647058823529411
 40
0.8235294117647058
 40
0.8235294117647058
 40
0.8235294117647058
 40
0.8235294117647058
 40
0.8823529411764706
 40
0.8823529411764706
 40
0.8823529411764706
 40
0.8823529411764706
 40
1.0
 40
1.0
 40
1.0
 40
1.0
 10
-17.6076
 20
-49.0752
 30
0.0
 10
-17.178
 20
-47.5684
 30
0.0
 10
-15.32
 20
-47.0501
 30
0.0
 10
-14.383
 20
-47.0482
 30
0.0
 10
-14.383
 20
-47.0482
 30
0.0
 10
-19.2346
 20
-42.4693
 30
0.0
 10
-21.9336
 20
-33.5737
 30
0.0
 10
-19.401
 20
-28.2037
 30
0.0
 10
-19.401
 20
-28.2037
 30
0.0
 10
-16.6865
 20
-22.4734
 30
0.0
 10
-9.4771
 20
-20.8162
 30
0.0
 10
-4.378
 20
-24.7503
 30
0.0
 10
-4.378
 20
-24.7503
 30
0.0
 10
2.0368
 20
-29.2857
 30
0.0
 10
8.0275
 20
-26.807
 30
0.0
 10
8.2263
 20
-19.968
 30
0.0
 10
8.2263
 20
-19.968
 30
0.0
 10
6.5909
 20
-22.6611
 30
0.0
 10
1.9804
 20
-23.625
 30
0.0
 10
-0.0039
 20
-19.6058
 30
0.0
 10
-0.0039
 20
-19.6058
 30
0.0
 10
-0.2479
 20
-19.0146
 30
0.0
 10
-0.2323
 20
-18.7519
 30
0.0
 10
0.0902
 20
-18.1313
 30
0.0
 10
0.0902
 20
-18.1313
 30
0.0
 10
0.6566
 20
-17.0382
 30
0.0
 10
0.5843
 20
-15.5996
 30
0.0
 10
-0.0844
 20
-14.6029
 30
0.0
 10
-0.0844
 20
-14.6029
 30
0.0
 10
-2.0579
 20
-11.4771
 30
0.0
 10
-9.3376
 20
-9.7834
 30
0.0
 10
-12.3875
 20
-12.1378
 30
0.0
 10
-12.3875
 20
-12.1378
 30
0.0
 10
-8.3655
 20
-12.6105
 30
0.0
 10
-6.8347
 20
-13.5154
 30
0.0
 10
-6.9908
 20
-16.6224
 30
0.0
 10
-6.9908
 20
-16.6224
 30
0.0
 10
-7.2432
 20
-19.9974
 30
0.0
 10
-10.3068
 20
-20.5639
 30
0.0
 10
-12.71
 20
-19.5596
 30
0.0
 10
-12.71
 20
-19.5596
 30
0.0
 10
-17.275
 20
-17.4466
 30
0.0
 10
-22.7364
 20
-19.8497
 30
0.0
 10
-25.1609
 20
-21.2355
 30
0.0
 10
-25.1609
 20
-21.2355
 30
0.0
 10
-22.7206
 20
-21.1654
 30
0.0
 10
-20.5505
 20
-23.1094
 30
0.0
 10
-20.5559
 20
-24.1433
 30
0.0
 10
-20.5559
 20
-24.1433
 30
0.0
 10
-20.5587
 20
-24.5404
 30
0.0
 10
-20.857
 20
-24.7446
 30
0.0
 10
-21.9363
 20
-25.0884
 30
0.0
 10
-21.9363
 20
-25.0884
 30
0.0
 10
-28.5338
 20
-27.2606
 30
0.0
 10
-30.6119
 20
-33.0175
 30
0.0
 10
-30.3699
 20
-38.015
 30
0.0
 10
-30.3699
 20
-38.015
 30
0.0
 10
-29.5272
 20
-49.9936
 30
0.0
 10
-21.5684
 20
-61.2951
 30
0.0
 10
-13.6688
 20
-66.349
 30
0.0
 10
-13.6688
 20
-66.349
 30
0.0
 10
-16.6033
 20
-62.0981
 30
0.0
 10
-19.0148
 20
-54.7593
 30
0.0
 10
-17.6076
 20
-49.0752
 30
0.0
  0
SPLINE
  5
64
330
1F
100
AcDbEntity
  8
layer 1
 62
     7
100
AcDbSpline
210
0.0
220
0.0
230
1.0
 70
    11
 71
     3
 72
    48
 73
    44
 74
     0
 42
0.0000000001
 43
0.0000000001
 12
1.0
 22
0.0
 32
0.0
 13
1.0
 23
0.0
 33
0.0
 40
0.0
 40
0.0
 40
0.0
 40
0.0
 40
0.0833333333333333
 40
0.0833333333333333
 40
0.0833333333333333
 40
0.0833333333333333
 40
0.1666666666666667
 40
0.1666666666666667
 40
0.1666666666666667
 40
0.1666666666666667
 40
0.25
 40
0.25
 40
0.25
 40
0.25
 40
0.3333333333333333
 40
0.3333333333333333
 40
0.3333333333333333
 40
0.3333333333333333
 40
0.4166666666666667
 40
0.4166666666666667
 40
0.4166666666666667
 40
0.4166666666666667
 40
0.5
 40
0.5
 40
0.5
 40
0.5
 40
0.5833333333333334
 40
0.5833333333333334
 40
0.5833333333333334
 40
0.5833333333333334
 40
0.6666666666666666
 40
0.6666666666666666
 40
0.6666666666666666
 40
0.6666666666666666
 40
0.75
 40
0.75
 40
0.75
 40
0.75
 40
0.8333333333333334
 40
0.8333333333333334
 40
0.8333333333333334
 40
0.8333333333333334
 40
1.0
 40
1.0
 40
1.0
 40
1.0
 10
8.2423
 20
-44.2929
 30
0.0
 10
10.4576
 20
-43.2563
 30
0.0
 10
12.9466
 20
-39.6531
 30
0.0
 10
13.8464
 20
-36.1837
 30
0.0
 10
13.8464
 20
-36.1837
 30
0.0
 10
14.6411
 20
-31.9273
 30
0.0
 10
14.3213
 20
-29.3153
 30
0.0
 10
13.4464
 20
-27.0055
 30
0.0
 10
13.4464
 20
-27.0055
 30
0.0
 10
11.4805
 20
-31.3533
 30
0.0
 10
7.0178
 20
-29.903
 30
0.0
 10
4.7328
 20
-34.5622
 30
0.0
 10
4.7328
 20
-34.5622
 30
0.0
 10
4.2737
 20
-35.7081
 30
0.0
 10
4.1155
 20
-35.7595
 30
0.0
 10
3.3959
 20
-34.9939
 30
0.0
 10
3.3959
 20
-34.9939
 30
0.0
 10
2.3401
 20
-33.5551
 30
0.0
 10
2.1042
 20
-32.2738
 30
0.0
 10
2.1042
 20
-30.631
 30
0.0
 10
2.1042
 20
-30.631
 30
0.0
 10
-0.8309
 20
-32.2126
 30
0.0
 10
-3.5049
 20
-32.6635
 30
0.0
 10
-6.4641
 20
-30.851
 30
0.0
 10
-6.4641
 20
-30.851
 30
0.0
 10
-6.3651
 20
-34.9622
 30
0.0
 10
-11.1874
 20
-35.5528
 30
0.0
 10
-12.9272
 20
-33.0526
 30
0.0
 10
-12.9272
 20
-33.0526
 30
0.0
 10
-13.9451
 20
-37.432
 30
0.0
 10
-11.9929
 20
-42.0617
 30
0.0
 10
-8.6069
 20
-44.7468
 30
0.0
 10
-8.6069
 20
-44.7468
 30
0.0
 10
-9.1465
 20
-41.9915
 30
0.0
 10
-8.3388
 20
-39.8516
 30
0.0
 10
-6.3651
 20
-38.9629
 30
0.0
 10
-6.3651
 20
-38.9629
 30
0.0
 10
-4.3806
 20
-38.0851
 30
0.0
 10
-2.5144
 20
-38.7209
 30
0.0
 10
-1.561
 20
-40.6038
 30
0.0
 10
-1.561
 20
-40.6038
 30
0.0
 10
0.5013
 20
-44.5129
 30
0.0
 10
3.4845
 20
-46.2693
 30
0.0
 10
8.2423
 20
-44.2929
 30
0.0
  0
SPLINE
  5
65
330
1F
100
AcDbEntity
  8
layer 1
 62
     7
100
AcDbSpline
210
0.0
220
0.0
230
1.0
 70
    11
 71
     3
 72
    16
 73
    12
 74
     0
 42
0.0000000001
 43
0.0000000001
 12
1.0
 22
0.0
 32
0.0
 13
1.0
 23
0.0
 33
0.0
 40
0.0
 40
0.0
 40
0.0
 40
0.0
 40
0.25
 40
0.25
 40
0.25
 40
0.25
 40
0.5
 40
0.5
 40
0.5
 40
0.5
 40
1.0
 40
1.0
 40
1.0
 40
1.0
 10
69.1658
 20
-19.772
 30
0.0
 10
71.5372
 20
-22.7739
 30
0.0
 10
73.1772
 20
-25.859
 30
0.0
 10
74.4531
 20
-29.4652
 30
0.0
 10
74.4531
 20
-29.4652
 30
0.0
 10
74.4531
 20
-24.0221
 30
0.0
 10
74.4531
 20
-18.5773
 30
0.0
 10
74.4559
 20
-13.1345
 30
0.0
 10
74.4559
 20
-13.1345
 30
0.0
 10
73.1967
 20
-15.9431
 30
0.0
 10
71.6658
 20
-18.0054
 30
0.0
 10
69.1658
 20
-19.772
 30
0.0
  0
SPLINE
  5
66
330
1F
100
AcDbEntity
  8
layer 1
 62
     7
100
AcDbSpline
210
0.0
220
0.0
230
1.0
 70
    11
 71
     3
 72
    20
 73
    16
 74
     0
 42
0.0000000001
 43
0.0000000001
 12
1.0
 22
0.0
 32
0.0
 13
1.0
 23
0.0
 33
0.0
 40
0.0
 40
0.0
 40
0.0
 40
0.0
 40
0.2
 40
0.2
 40
0.2
 40
0.2
 40
0.4
 40
0.4
 40
0.4
 40
0.4
 40
0.6
 40
0.6
 40
0.6
 40
0.6
 40
1.0
 40
1.0
 40
1.0
 40
1.0
 10
24.3239
 20
-16.4209
 30
0.0
 10
22.0334
 20
-18.9156
 30
0.0
 10
19.6597
 20
-23.1685
 30
0.0
 10
18.7653
 20
-26.9816
 30
0.0
 10
18.7653
 20
-26.9816
 30
0.0
 10
17.8686
 20
-23.1685
 30
0.0
 10
15.9809
 20
-19.2778
 30
0.0
 10
13.3254
 20
-16.4209
 30
0.0
 10
13.3254
 20
-16.4209
 30
0.0
 10
15.6937
 20
-14.5224
 30
0.0
 10
17.968
 20
-11.8401
 30
0.0
 10
18.7653
 20
-8.9023
 30
0.0
 10
18.7653
 20
-8.9023
 30
0.0
 10
19.5629
 20
-11.8401
 30
0.0
 10
21.9557
 20
-14.5224
 30
0.0
 10
24.3239
 20
-16.4209
 30
0.0
  0
SPLINE
  5
67
330
1F
100
AcDbEntity
  8
layer 1
 62
     7
100
AcDbSpline
210
0.0
220
0.0
230
1.0
 70
    11
 71
     3
 72
    36
 73
    32
 74
     0
 42
0.0000000001
 43
0.0000000001
 12
1.0
 22
0.0
 32
0.0
 13
1.0
 23
0.0
 33
0.0
 40
0.0
 40
0.0
 40
0.0
 40
0.0
 40
0.1111111111111111
 40
0.1111111111111111
 40
0.1111111111111111
 40
0.1111111111111111
 40
0.2222222222222222
 40
0.2222222222222222
 40
0.2222222222222222
 40
0.2222222222222222
 40
0.3333333333333333
 40
0.3333333333333333
 40
0.3333333333333333
 40
0.3333333333333333
 40
0.4444444444444444
 40
0.4444444444444444
 40
0.4444444444444444
 40
0.4444444444444444
 40
0.5555555555555556
 40
0.5555555555555556
 40
0.5555555555555556
 40
0.5555555555555556
 40
0.6666666666666666
 40
0.6666666666666666
 40
0.6666666666666666
 40
0.6666666666666666
 40
0.7777777777777778
 40
0.7777777777777778
 40
0.7777777777777778
 40
0.7777777777777778
 40
1.0
 40
1.0
 40
1.0
 40
1.0
 10
64.7087
 20
-84.3664
 30
0.0
 10
64.5554
 20
-82.9428
 30
0.0
 10
65.3285
 20
-81.2002
 30
0.0
 10
67.3455
 20
-80.6552
 30
0.0
 10
67.3455
 20
-80.6552
 30
0.0
 10
67.6329
 20
-80.655
 30
0.0
 10
67.6781
 20
-80.4777
 30
0.0
 10
67.5495
 20
-79.8522
 30
0.0
 10
67.5495
 20
-79.8522
 30
0.0
 10
66.7469
 20
-75.6445
 30
0.0
 10
62.2841
 20
-75.5911
 30
0.0
 10
60.2941
 20
-78.7407
 30
0.0
 10
60.2941
 20
-78.7407
 30
0.0
 10
58.1303
 20
-73.6065
 30
0.0
 10
62.0634
 20
-68.8539
 30
0.0
 10
66.7301
 20
-68.7788
 30
0.0
 10
66.7301
 20
-68.7788
 30
0.0
 10
67.6598
 20
-68.7788
 30
0.0
 10
67.6781
 20
-68.7946
 30
0.0
 10
67.6781
 20
-69.7056
 30
0.0
 10
67.6781
 20
-69.7056
 30
0.0
 10
67.7991
 20
-73.2256
 30
0.0
 10
71.2842
 20
-74.1441
 30
0.0
 10
73.8647
 20
-72.0007
 30
0.0
 10
73.8647
 20
-72.0007
 30
0.0
 10
73.8647
 20
-72.0007
 30
0.0
 10
73.9454
 20
-102.1528
 30
0.0
 10
73.9454
 20
-102.1528
 30
0.0
 10
73.9454
 20
-102.1528
 30
0.0
 10
71.1852
 20
-93.2057
 30
0.0
 10
65.6083
 20
-90.0401
 30
0.0
 10
64.7087
 20
-84.3664
 30
0.0
  0
SPLINE
  5
68
330
1F
100
AcDbEntity
  8
layer 1
 62
     7
100
AcDbSpline
210
0.0
220
0.0
230
1.0
 70
    11
 71
     3
 72
    28
 73
    24
 74
     0
 42
0.0000000001
 43
0.0000000001
 12
1.0
 22
0.0
 32
0.0
 13
1.0
 23
0.0
 33
0.0
 40
0.0
 40
0.0
 40
0.0
 40
0.0
 40
0.1428571428571428
 40
0.1428571428571428
 40
0.1428571428571428
 40
0.1428571428571428
 40
0.2857142857142857
 40
0.2857142857142857
 40
0.2857142857142857
 40
0.2857142857142857
 40
0.4285714285714285
 40
0.4285714285714285
 40
0.4285714285714285
 40
0.4285714285714285
 40
0.5714285714285714
 40
0.5714285714285714
 40
0.5714285714285714
 40
0.5714285714285714
 40
0.7142857142857143
 40
0.7142857142857143
 40
0.7142857142857143
 40
0.7142857142857143
 40
1.0
 40
1.0
 40
1.0
 40
1.0
 10
-10.0112
 20
-52.3967
 30
0.0
 10
-11.4773
 20
-51.5994
 30
0.0
 10
-12.4116
 20
-52.8449
 30
0.0
 10
-12.4253
 20
-54.6309
 30
0.0
 10
-12.4253
 20
-54.6309
 30
0.0
 10
-12.1889
 20
-59.2275
 30
0.0
 10
-9.7994
 20
-62.9332
 30
0.0
 10
-7.1138
 20
-66.2602
 30
0.0
 10
-7.1138
 20
-66.2602
 30
0.0
 10
-4.5148
 20
-69.4793
 30
0.0
 10
-1.6551
 20
-72.3554
 30
0.0
 10
0.5198
 20
-74.7936
 30
0.0
 10
0.5198
 20
-74.7936
 30
0.0
 10
-2.493
 20
-65.0944
 30
0.0
 10
-0.1538
 20
-58.406
 30
0.0
 10
4.9397
 20
-52.5335
 30
0.0
 10
4.9397
 20
-52.5335
 30
0.0
 10
-0.3607
 20
-53.5729
 30
0.0
 10
-5.4304
 20
-52.8478
 30
0.0
 10
-10.0621
 20
-50.4363
 30
0.0
 10
-10.0621
 20
-50.4363
 30
0.0
 10
-9.9251
 20
-51.0996
 30
0.0
 10
-9.7616
 20
-51.5857
 30
0.0
 10
-10.0112
 20
-52.3967
 30
0.0
  0
SPLINE
  5
69
330
1F
100
AcDbEntity
  8
layer 1
 62
     7
100
AcDbSpline
210
0.0
220
0.0
230
1.0
 70
    11
 71
     3
 72
    20
 73
    16
 74
     0
 42
0.0000000001
 43
0.0000000001
 12
1.0
 22
0.0
 32
0.0
 13
1.0
 23
0.0
 33
0.0
 40
0.0
 40
0.0
 40
0.0
 40
0.0
 40
0.2
 40
0.2
 40
0.2
 40
0.2
 40
0.4
 40
0.4
 40
0.4
 40
0.4
 40
0.6
 40
0.6
 40
0.6
 40
0.6
 40
1.0
 40
1.0
 40
1.0
 40
1.0
 10
21.2121
 20
-80.0186
 30
0.0
 10
20.3205
 20
-80.6152
 30
0.0
 10
19.6274
 20
-81.313
 30
0.0
 10
18.7895
 20
-82.6822
 30
0.0
 10
18.7895
 20
-82.6822
 30
0.0
 10
17.9543
 20
-81.3397
 30
0.0
 10
17.1005
 20
-80.6421
 30
0.0
 10
16.209
 20
-80.0455
 30
0.0
 10
16.209
 20
-80.0455
 30
0.0
 10
17.2272
 20
-79.1862
 30
0.0
 10
18.3248
 20
-78.6899
 30
0.0
 10
18.83
 20
-76.4393
 30
0.0
 10
18.83
 20
-76.4393
 30
0.0
 10
19.5307
 20
-78.784
 30
0.0
 10
20.1938
 20
-79.1573
 30
0.0
 10
21.2121
 20
-80.0186
 30
0.0
  0
SPLINE
  5
6A
330
1F
100
AcDbEntity
  8
layer 1
 62
     7
100
AcDbSpline
210
0.0
220
0.0
230
1.0
 70
    11
 71
     3
 72
    28
 73
    24
 74
     0
 42
0.0000000001
 43
0.0000000001
 12
1.0
 22
0.0
 32
0.0
 13
1.0
 23
0.0
 33
0.0
 40
0.0
 40
0.0
 40
0.0
 40
0.0
 40
0.1428571428571428
 40
0.1428571428571428
 40
0.1428571428571428
 40
0.1428571428571428
 40
0.2857142857142857
 40
0.2857142857142857
 40
0.2857142857142857
 40
0.2857142857142857
 40
0.4285714285714285
 40
0.4285714285714285
 40
0.4285714285714285
 40
0.4285714285714285
 40
0.5714285714285714
 40
0.5714285714285714
 40
0.5714285714285714
 40
0.5714285714285714
 40
0.7142857142857143
 40
0.7142857142857143
 40
0.7142857142857143
 40
0.7142857142857143
 40
1.0
 40
1.0
 40
1.0
 40
1.0
 10
-23.2065
 20
-91.318
 30
0.0
 10
-18.1259
 20
-89.97
 30
0.0
 10
-12.8927
 20
-90.9853
 30
0.0
 10
-8.1882
 20
-93.6408
 30
0.0
 10
-8.1882
 20
-93.6408
 30
0.0
 10
-8.2714
 20
-92.6178
 30
0.0
 10
-8.5265
 20
-92.7622
 30
0.0
 10
-8.1208
 20
-91.9464
 30
0.0
 10
-8.1208
 20
-91.9464
 30
0.0
 10
-6.1713
 20
-91.7476
 30
0.0
 10
-5.3609
 20
-89.2909
 30
0.0
 10
-5.9433
 20
-87.2364
 30
0.0
 10
-5.9433
 20
-87.2364
 30
0.0
 10
-6.9289
 20
-83.7512
 30
0.0
 10
-7.7531
 20
-82.221
 30
0.0
 10
-11.1207
 20
-77.9812
 30
0.0
 10
-11.1207
 20
-77.9812
 30
0.0
 10
-13.7815
 20
-74.6299
 30
0.0
 10
-18.5982
 20
-69.0663
 30
0.0
 10
-18.7247
 20
-69.1949
 30
0.0
 10
-18.7247
 20
-69.1949
 30
0.0
 10
-16.0369
 20
-77.669
 30
0.0
 10
-17.5086
 20
-84.3582
 30
0.0
 10
-23.2065
 20
-91.318
 30
0.0
  0
SPLINE
  5
6B
330
1F
100
AcDbEntity
  8
layer 1
 62
     7
100
AcDbSpline
210
0.0
220
0.0
230
1.0
 70
    11
 71
     3
 72
    16
 73
    12
 74
     0
 42
0.0000000001
 43
0.0000000001
 12
1.0
 22
0.0
 32
0.0
 13
1.0
 23
0.0
 33
0.0
 40
0.0
 40
0.0
 40
0.0
 40
0.0
 40
0.25
 40
0.25
 40
0.25
 40
0.25
 40
0.5
 40
0.5
 40
0.5
 40
0.5
 40
1.0
 40
1.0
 40
1.0
 40
1.0
 10
71.8885
 20
-64.1842
 30
0.0
 10
72.8283
 20
-63.7121
 30
0.0
 10
73.7575
 20
-62.7023
 30
0.0
 10
74.3939
 20
-61.3894
 30
0.0
 10
74.3939
 20
-61.3894
 30
0.0
 10
74.3939
 20
-61.3894
 30
0.0
 10
74.3941
 20
-66.397
 30
0.0
 10
74.3941
 20
-66.397
 30
0.0
 10
74.3941
 20
-66.397
 30
0.0
 10
73.6125
 20
-65.3013
 30
0.0
 10
72.8095
 20
-64.746
 30
0.0
 10
71.8885
 20
-64.1842
 30
0.0
  0
SPLINE
  5
6C
330
1F
100
AcDbEntity
  8
layer 1
 62
     7
100
AcDbSpline
210
0.0
220
0.0
230
1.0
 70
    11
 71
     3
 72
    28
 73
    24
 74
     0
 42
0.0000000001
 43
0.0000000001
 12
1.0
 22
0.0
 32
0.0
 13
1.0
 23
0.0
 33
0.0
 40
0.0
 40
0.0
 40
0.0
 40
0.0
 40
0.1428571428571428
 40
0.1428571428571428
 40
0.1428571428571428
 40
0.1428571428571428
 40
0.2857142857142857
 40
0.2857142857142857
 40
0.2857142857142857
 40
0.2857142857142857
 40
0.4285714285714285
 40
0.4285714285714285
 40
0.4285714285714285
 40
0.4285714285714285
 40
0.5714285714285714
 40
0.5714285714285714
 40
0.5714285714285714
 40
0.5714285714285714
 40
0.7142857142857143
 40
0.7142857142857143
 40
0.7142857142857143
 40
0.7142857142857143
 40
1.0
 40
1.0
 40
1.0
 40
1.0
 10
-0.8116
 20
-94.8382
 30
0.0
 10
-1.2413
 20
-96.3442
 30
0.0
 10
-3.1021
 20
-96.8654
 30
0.0
 10
-4.0398
 20
-96.8654
 30
0.0
 10
-4.0398
 20
-96.8654
 30
0.0
 10
-1.4131
 20
-99.3414
 30
0.0
 10
0.5171
 20
-102.9558
 30
0.0
 10
1.3949
 20
-106.7172
 30
0.0
 10
1.3949
 20
-106.7172
 30
0.0
 10
1.3949
 20
-106.7172
 30
0.0
 10
11.9665
 20
-106.7254
 30
0.0
 10
11.9665
 20
-106.7254
 30
0.0
 10
11.9665
 20
-106.7254
 30
0.0
 10
11.9665
 20
-106.4491
 30
0.0
 10
11.9616
 20
-106.172
 30
0.0
 10
11.9478
 20
-105.8985
 30
0.0
 10
11.9478
 20
-105.8985
 30
0.0
 10
11.1072
 20
-93.9198
 30
0.0
 10
3.1484
 20
-82.6183
 30
0.0
 10
-4.7539
 20
-77.5646
 30
0.0
 10
-4.7539
 20
-77.5646
 30
0.0
 10
-1.8188
 20
-81.8153
 30
0.0
 10
0.5927
 20
-89.1535
 30
0.0
 10
-0.8116
 20
-94.8382
 30
0.0
  0
SPLINE
  5
6D
330
1F
100
AcDbEntity
  8
layer 1
 62
     7
100
AcDbSpline
210
0.0
220
0.0
230
1.0
 70
    11
 71
     3
 72
    24
 73
    20
 74
     0
 42
0.0000000001
 43
0.0000000001
 12
1.0
 22
0.0
 32
0.0
 13
1.0
 23
0.0
 33
0.0
 40
0.0
 40
0.0
 40
0.0
 40
0.0
 40
0.1666666666666667
 40
0.1666666666666667
 40
0.1666666666666667
 40
0.1666666666666667
 40
0.3333333333333333
 40
0.3333333333333333
 40
0.3333333333333333
 40
0.3333333333333333
 40
0.5
 40
0.5
 40
0.5
 40
0.5
 40
0.6666666666666666
 40
0.6666666666666666
 40
0.6666666666666666
 40
0.6666666666666666
 40
1.0
 40
1.0
 40
1.0
 40
1.0
 10
74.3674
 20
-43.5196
 30
0.0
 10
74.4126
 20
-47.765
 30
0.0
 10
74.4126
 20
-54.5744
 30
0.0
 10
74.3775
 20
-57.6059
 30
0.0
 10
74.3775
 20
-57.6059
 30
0.0
 10
73.1671
 20
-56.2201
 30
0.0
 10
72.2809
 20
-56.6498
 30
0.0
 10
71.7063
 20
-57.6217
 30
0.0
 10
71.7063
 20
-57.6217
 30
0.0
 10
71.0457
 20
-58.7413
 30
0.0
 10
69.8207
 20
-59.475
 30
0.0
 10
68.5779
 20
-59.4962
 30
0.0
 10
68.5779
 20
-59.4962
 30
0.0
 10
67.8205
 20
-59.5093
 30
0.0
 10
65.455
 20
-60.0276
 30
0.0
 10
64.2707
 20
-60.436
 30
0.0
 10
64.2707
 20
-60.436
 30
0.0
 10
69.9095
 20
-54.641
 30
0.0
 10
72.7532
 20
-49.1125
 30
0.0
 10
74.3674
 20
-43.5196
 30
0.0
  0
SPLINE
  5
6E
330
1F
100
AcDbEntity
  8
layer 1
 62
     7
100
AcDbSpline
210
0.0
220
0.0
230
1.0
 70
    11
 71
     3
 72
    28
 73
    24
 74
     0
 42
0.0000000001
 43
0.0000000001
 12
1.0
 22
0.0
 32
0.0
 13
1.0
 23
0.0
 33
0.0
 40
0.0
 40
0.0
 40
0.0
 40
0.0
 40
0.1428571428571428
 40
0.1428571428571428
 40
0.1428571428571428
 40
0.1428571428571428
 40
0.2857142857142857
 40
0.2857142857142857
 40
0.2857142857142857
 40
0.2857142857142857
 40
0.4285714285714285
 40
0.4285714285714285
 40
0.4285714285714285
 40
0.4285714285714285
 40
0.5714285714285714
 40
0.5714285714285714
 40
0.5714285714285714
 40
0.5714285714285714
 40
0.7142857142857143
 40
0.7142857142857143
 40
0.7142857142857143
 40
0.7142857142857143
 40
1.0
 40
1.0
 40
1.0
 40
1.0
 10
-26.7749
 20
-99.2362
 30
0.0
 10
-28.8666
 20
-100.2136
 30
0.0
 10
-31.1996
 20
-103.4788
 30
0.0
 10
-32.2123
 20
-106.7605
 30
0.0
 10
-32.2123
 20
-106.7605
 30
0.0
 10
-32.2123
 20
-106.7605
 30
0.0
 10
-5.4144
 20
-106.7901
 30
0.0
 10
-5.4144
 20
-106.7901
 30
0.0
 10
-5.4144
 20
-106.7901
 30
0.0
 10
-5.7905
 20
-103.659
 30
0.0
 10
-7.4844
 20
-100.7161
 30
0.0
 10
-9.9253
 20
-98.7799
 30
0.0
 10
-9.9253
 20
-98.7799
 30
0.0
 10
-9.3828
 20
-101.5349
 30
0.0
 10
-10.194
 20
-103.6748
 30
0.0
 10
-12.1648
 20
-104.5635
 30
0.0
 10
-12.1648
 20
-104.5635
 30
0.0
 10
-14.1521
 20
-105.4421
 30
0.0
 10
-16.0184
 20
-104.8055
 30
0.0
 10
-16.9712
 20
-102.9234
 30
0.0
 10
-16.9712
 20
-102.9234
 30
0.0
 10
-19.0306
 20
-99.0135
 30
0.0
 10
-22.0168
 20
-97.26
 30
0.0
 10
-26.7749
 20
-99.2362
 30
0.0
  0
SPLINE
  5
6F
330
1F
100
AcDbEntity
  8
layer 1
 62
     7
100
AcDbSpline
210
0.0
220
0.0
230
1.0
 70
    11
 71
     3
 72
    68
 73
    64
 74
     0
 42
0.0000000001
 43
0.0000000001
 12
1.0
 22
0.0
 32
0.0
 13
1.0
 23
0.0
 33
0.0
 40
0.0
 40
0.0
 40
0.0
 40
0.0
 40
0.0588235294117647
 40
0.0588235294117647
 40
0.0588235294117647
 40
0.0588235294117647
 40
0.1176470588235294
 40
0.1176470588235294
 40
0.1176470588235294
 40
0.1176470588235294
 40
0.1764705882352941
 40
0.1764705882352941
 40
0.1764705882352941
 40
0.1764705882352941
 40
0.2352941176470588
 40
0.2352941176470588
 40
0.2352941176470588
 40
0.2352941176470588
 40
0.2941176470588235
 40
0.2941176470588235
 40
0.2941176470588235
 40
0.2941176470588235
 40
0.3529411764705883
 40
0.3529411764705883
 40
0.3529411764705883
 40
0.3529411764705883
 40
0.4117647058823529
 40
0.4117647058823529
 40
0.4117647058823529
 40
0.4117647058823529
 40
0.4705882352941176
 40
0.4705882352941176
 40
0.4705882352941176
 40
0.4705882352941176
 40
0.5294117647058824
 40
0.5294117647058824
 40
0.5294117647058824
 40
0.5294117647058824
 40
0.5882352941176471
 40
0.5882352941176471
 40
0.5882352941176471
 40
0.5882352941176471
 40
0.6470588235294118
 40
0.6470588235294118
 40
0.6470588235294118
 40
0.6470588235294118
 40
0.7058823529411765
 40
0.7058823529411765
 40
0.7058823529411765
 40
0.7058823529411765
 40
0.7647058823529411
 40
0.7647058823529411
 40
0.7647058823529411
 40
0.7647058823529411
 40
0.8235294117647058
 40
0.8235294117647058
 40
0.8235294117647058
 40
0.8235294117647058
 40
0.8823529411764706
 40
0.8823529411764706
 40
0.8823529411764706
 40
0.8823529411764706
 40
1.0
 40
1.0
 40
1.0
 40
1.0
 10
54.8725
 20
-49.0752
 30
0.0
 10
54.443
 20
-47.5684
 30
0.0
 10
52.5849
 20
-47.0501
 30
0.0
 10
51.6479
 20
-47.0482
 30
0.0
 10
51.6479
 20
-47.0482
 30
0.0
 10
56.5005
 20
-42.4693
 30
0.0
 10
59.1955
 20
-33.5737
 30
0.0
 10
56.6667
 20
-28.2037
 30
0.0
 10
56.6667
 20
-28.2037
 30
0.0
 10
53.9522
 20
-22.4734
 30
0.0
 10
46.742
 20
-20.8162
 30
0.0
 10
41.6429
 20
-24.7503
 30
0.0
 10
41.6429
 20
-24.7503
 30
0.0
 10
35.2252
 20
-29.2857
 30
0.0
 10
29.2374
 20
-26.807
 30
0.0
 10
29.0386
 20
-19.968
 30
0.0
 10
29.0386
 20
-19.968
 30
0.0
 10
30.674
 20
-22.6611
 30
0.0
 10
35.2815
 20
-23.625
 30
0.0
 10
37.2688
 20
-19.6058
 30
0.0
 10
37.2688
 20
-19.6058
 30
0.0
 10
37.513
 20
-19.0146
 30
0.0
 10
37.4943
 20
-18.7519
 30
0.0
 10
37.1747
 20
-18.1313
 30
0.0
 10
37.1747
 20
-18.1313
 30
0.0
 10
36.6083
 20
-17.0382
 30
0.0
 10
36.6811
 20
-15.5996
 30
0.0
 10
37.3493
 20
-14.6029
 30
0.0
 10
37.3493
 20
-14.6029
 30
0.0
 10
39.323
 20
-11.4771
 30
0.0
 10
46.6023
 20
-9.7834
 30
0.0
 10
49.6531
 20
-12.1378
 30
0.0
 10
49.6531
 20
-12.1378
 30
0.0
 10
45.6306
 20
-12.6105
 30
0.0
 10
44.0975
 20
-13.5154
 30
0.0
 10
44.2557
 20
-16.6224
 30
0.0
 10
44.2557
 20
-16.6224
 30
0.0
 10
44.5078
 20
-19.9974
 30
0.0
 10
47.5717
 20
-20.5639
 30
0.0
 10
49.9748
 20
-19.5596
 30
0.0
 10
49.9748
 20
-19.5596
 30
0.0
 10
54.5371
 20
-17.4466
 30
0.0
 10
59.9985
 20
-19.8497
 30
0.0
 10
62.4264
 20
-21.2355
 30
0.0
 10
62.4264
 20
-21.2355
 30
0.0
 10
59.9855
 20
-21.1654
 30
0.0
 10
57.816
 20
-23.1094
 30
0.0
 10
57.8208
 20
-24.1433
 30
0.0
 10
57.8208
 20
-24.1433
 30
0.0
 10
57.8236
 20
-24.5404
 30
0.0
 10
58.1219
 20
-24.7446
 30
0.0
 10
59.201
 20
-25.0884
 30
0.0
 10
59.201
 20
-25.0884
 30
0.0
 10
65.7989
 20
-27.2606
 30
0.0
 10
67.8768
 20
-33.0175
 30
0.0
 10
67.6327
 20
-38.015
 30
0.0
 10
67.6327
 20
-38.015
 30
0.0
 10
66.7921
 20
-49.9936
 30
0.0
 10
58.8333
 20
-61.2951
 30
0.0
 10
50.9337
 20
-66.349
 30
0.0
 10
50.9337
 20
-66.349
 30
0.0
 10
53.8684
 20
-62.0981
 30
0.0
 10
56.2797
 20
-54.7593
 30
0.0
 10
54.8725
 20
-49.0752
 30
0.0
  0
SPLINE
  5
70
330
1F
100
AcDbEntity
  8
layer 1
 62
     7
100
AcDbSpline
210
0.0
220
0.0
230
1.0
 70
    11
 71
     3
 72
    48
 73
    44
 74
     0
 42
0.0000000001
 43
0.0000000001
 12
1.0
 22
0.0
 32
0.0
 13
1.0
 23
0.0
 33
0.0
 40
0.0
 40
0.0
 40
0.0
 40
0.0
 40
0.0833333333333333
 40
0.0833333333333333
 40
0.0833333333333333
 40
0.0833333333333333
 40
0.1666666666666667
 40
0.1666666666666667
 40
0.1666666666666667
 40
0.1666666666666667
 40
0.25
 40
0.25
 40
0.25
 40
0.25
 40
0.3333333333333333
 40
0.3333333333333333
 40
0.3333333333333333
 40
0.3333333333333333
 40
0.4166666666666667
 40
0.4166666666666667
 40
0.4166666666666667
 40
0.4166666666666667
 40
0.5
 40
0.5
 40
0.5
 40
0.5
 40
0.5833333333333334
 40
0.5833333333333334
 40
0.5833333333333334
 40
0.5833333333333334
 40
0.6666666666666666
 40
0.6666666666666666
 40
0.6666666666666666
 40
0.6666666666666666
 40
0.75
 40
0.75
 40
0.75
 40
0.75
 40
0.8333333333333334
 40
0.8333333333333334
 40
0.8333333333333334
 40
0.8333333333333334
 40
1.0
 40
1.0
 40
1.0
 40
1.0
 10
29.0228
 20
-44.2929
 30
0.0
 10
26.8075
 20
-43.2563
 30
0.0
 10
24.3183
 20
-39.6531
 30
0.0
 10
23.4192
 20
-36.1837
 30
0.0
 10
23.4192
 20
-36.1837
 30
0.0
 10
22.624
 20
-31.9273
 30
0.0
 10
22.9434
 20
-29.3153
 30
0.0
 10
23.8192
 20
-27.0055
 30
0.0
 10
23.8192
 20
-27.0055
 30
0.0
 10
25.7845
 20
-31.3533
 30
0.0
 10
30.2471
 20
-29.903
 30
0.0
 10
32.5319
 20
-34.5622
 30
0.0
 10
32.5319
 20
-34.5622
 30
0.0
 10
32.9914
 20
-35.7081
 30
0.0
 10
33.15
 20
-35.7595
 30
0.0
 10
33.8696
 20
-34.9939
 30
0.0
 10
33.8696
 20
-34.9939
 30
0.0
 10
34.9247
 20
-33.5551
 30
0.0
 10
35.1613
 20
-32.2738
 30
0.0
 10
35.1613
 20
-30.631
 30
0.0
 10
35.1613
 20
-30.631
 30
0.0
 10
38.0931
 20
-32.2126
 30
0.0
 10
40.7705
 20
-32.6635
 30
0.0
 10
43.729
 20
-30.851
 30
0.0
 10
43.729
 20
-30.851
 30
0.0
 10
43.6302
 20
-34.9622
 30
0.0
 10
48.4528
 20
-35.5528
 30
0.0
 10
50.1927
 20
-33.0526
 30
0.0
 10
50.1927
 20
-33.0526
 30
0.0
 10
51.2075
 20
-37.432
 30
0.0
 10
49.2578
 20
-42.0617
 30
0.0
 10
45.8724
 20
-44.7468
 30
0.0
 10
45.8724
 20
-44.7468
 30
0.0
 10
46.4119
 20
-41.9915
 30
0.0
 10
45.6037
 20
-39.8516
 30
0.0
 10
43.63
 20
-38.9629
 30
0.0
 10
43.63
 20
-38.9629
 30
0.0
 10
41.6456
 20
-38.0851
 30
0.0
 10
39.7793
 20
-38.7209
 30
0.0
 10
38.8265
 20
-40.6038
 30
0.0
 10
38.8265
 20
-40.6038
 30
0.0
 10
36.7644
 20
-44.5129
 30
0.0
 10
33.7809
 20
-46.2693
 30
0.0
 10
29.0228
 20
-44.2929
 30
0.0
  0
SPLINE
  5
71
330
1F
100
AcDbEntity
  8
layer 1
 62
     7
100
AcDbSpline
210
0.0
220
0.0
230
1.0
 70
    11
 71
     3
 72
    16
 73
    12
 74
     0
 42
0.0000000001
 43
0.0000000001
 12
1.0
 22
0.0
 32
0.0
 13
1.0
 23
0.0
 33
0.0
 40
0.0
 40
0.0
 40
0.0
 40
0.0
 40
0.25
 40
0.25
 40
0.25
 40
0.25
 40
0.5
 40
0.5
 40
0.5
 40
0.5
 40
1.0
 40
1.0
 40
1.0
 40
1.0
 10
-31.2725
 20
-19.5384
 30
0.0
 10
-33.6433
 20
-22.5373
 30
0.0
 10
-35.2841
 20
-25.626
 30
0.0
 10
-36.5593
 20
-29.2321
 30
0.0
 10
-36.5593
 20
-29.2321
 30
0.0
 10
-36.5593
 20
-23.7864
 30
0.0
 10
-36.562
 20
-18.3437
 30
0.0
 10
-36.562
 20
-12.8981
 30
0.0
 10
-36.562
 20
-12.8981
 30
0.0
 10
-35.3027
 20
-15.7095
 30
0.0
 10
-33.7727
 20
-17.7718
 30
0.0
 10
-31.2725
 20
-19.5384
 30
0.0
  0
SPLINE
  5
72
330
1F
100
AcDbEntity
  8
layer 1
 62
     7
100
AcDbSpline
210
0.0
220
0.0
230
1.0
 70
    11
 71
     3
 72
    36
 73
    32
 74
     0
 42
0.0000000001
 43
0.0000000001
 12
1.0
 22
0.0
 32
0.0
 13
1.0
 23
0.0
 33
0.0
 40
0.0
 40
0.0
 40
0.0
 40
0.0
 40
0.1111111111111111
 40
0.1111111111111111
 40
0.1111111111111111
 40
0.1111111111111111
 40
0.2222222222222222
 40
0.2222222222222222
 40
0.2222222222222222
 40
0.2222222222222222
 40
0.3333333333333333
 40
0.3333333333333333
 40
0.3333333333333333
 40
0.3333333333333333
 40
0.4444444444444444
 40
0.4444444444444444
 40
0.4444444444444444
 40
0.4444444444444444
 40
0.5555555555555556
 40
0.5555555555555556
 40
0.5555555555555556
 40
0.5555555555555556
 40
0.6666666666666666
 40
0.6666666666666666
 40
0.6666666666666666
 40
0.6666666666666666
 40
0.7777777777777778
 40
0.7777777777777778
 40
0.7777777777777778
 40
0.7777777777777778
 40
1.0
 40
1.0
 40
1.0
 40
1.0
 10
-27.709
 20
-84.3664
 30
0.0
 10
-27.5564
 20
-82.9428
 30
0.0
 10
-28.3269
 20
-81.2002
 30
0.0
 10
-30.346
 20
-80.6552
 30
0.0
 10
-30.346
 20
-80.6552
 30
0.0
 10
-30.6332
 20
-80.655
 30
0.0
 10
-30.6794
 20
-80.4777
 30
0.0
 10
-30.55
 20
-79.8522
 30
0.0
 10
-30.55
 20
-79.8522
 30
0.0
 10
-29.7472
 20
-75.6445
 30
0.0
 10
-25.2846
 20
-75.5911
 30
0.0
 10
-23.2946
 20
-78.7407
 30
0.0
 10
-23.2946
 20
-78.7407
 30
0.0
 10
-21.1306
 20
-73.6065
 30
0.0
 10
-25.0647
 20
-68.8539
 30
0.0
 10
-29.7314
 20
-68.7788
 30
0.0
 10
-29.7314
 20
-68.7788
 30
0.0
 10
-30.6601
 20
-68.7788
 30
0.0
 10
-30.6764
 20
-68.7946
 30
0.0
 10
-30.6794
 20
-69.7056
 30
0.0
 10
-30.6794
 20
-69.7056
 30
0.0
 10
-30.7996
 20
-73.2256
 30
0.0
 10
-34.2853
 20
-74.1441
 30
0.0
 10
-36.863
 20
-72.0007
 30
0.0
 10
-36.863
 20
-72.0007
 30
0.0
 10
-36.863
 20
-72.0007
 30
0.0
 10
-36.9463
 20
-102.1528
 30
0.0
 10
-36.9463
 20
-102.1528
 30
0.0
 10
-36.9463
 20
-102.1528
 30
0.0
 10
-34.1858
 20
-93.2057
 30
0.0
 10
-28.6061
 20
-90.0401
 30
0.0
 10
-27.709
 20
-84.3664
 30
0.0
  0
SPLINE
  5
73
330
1F
100
AcDbEntity
  8
layer 1
 62
     7
100
AcDbSpline
210
0.0
220
0.0
230
1.0
 70
    11
 71
     3
 72
    36
 73
    32
 74
     0
 42
0.0000000001
 43
0.0000000001
 12
1.0
 22
0.0
 32
0.0
 13
1.0
 23
0.0
 33
0.0
 40
0.0
 40
0.0
 40
0.0
 40
0.0
 40
0.1111111111111111
 40
0.1111111111111111
 40
0.1111111111111111
 40
0.1111111111111111
 40
0.2222222222222222
 40
0.2222222222222222
 40
0.2222222222222222
 40
0.2222222222222222
 40
0.3333333333333333
 40
0.3333333333333333
 40
0.3333333333333333
 40
0.3333333333333333
 40
0.4444444444444444
 40
0.4444444444444444
 40
0.4444444444444444
 40
0.4444444444444444
 40
0.5555555555555556
 40
0.5555555555555556
 40
0.5555555555555556
 40
0.5555555555555556
 40
0.6666666666666666
 40
0.6666666666666666
 40
0.6666666666666666
 40
0.6666666666666666
 40
0.7777777777777778
 40
0.7777777777777778
 40
0.7777777777777778
 40
0.7777777777777778
 40
1.0
 40
1.0
 40
1.0
 40
1.0
 10
8.9967
 20
-83.8804
 30
0.0
 10
10.2481
 20
-84.3767
 30
0.0
 10
11.4137
 20
-84.5135
 30
0.0
 10
12.7184
 20
-84.5706
 30
0.0
 10
12.7184
 20
-84.5706
 30
0.0
 10
14.2492
 20
-84.6076
 30
0.0
 10
15.334
 20
-85.3246
 30
0.0
 10
16.0185
 20
-86.7475
 30
0.0
 10
16.0185
 20
-86.7475
 30
0.0
 10
16.636
 20
-88.5148
 30
0.0
 10
17.7694
 20
-88.3725
 30
0.0
 10
18.7653
 20
-87.492
 30
0.0
 10
18.7653
 20
-87.492
 30
0.0
 10
19.7587
 20
-88.3725
 30
0.0
 10
20.8922
 20
-88.5148
 30
0.0
 10
21.5122
 20
-86.7475
 30
0.0
 10
21.5122
 20
-86.7475
 30
0.0
 10
22.1944
 20
-85.3246
 30
0.0
 10
23.2816
 20
-84.6076
 30
0.0
 10
24.8097
 20
-84.5706
 30
0.0
 10
24.8097
 20
-84.5706
 30
0.0
 10
26.1172
 20
-84.5135
 30
0.0
 10
27.2802
 20
-84.3767
 30
0.0
 10
28.5314
 20
-83.8804
 30
0.0
 10
28.5314
 20
-83.8804
 30
0.0
 10
23.6069
 20
-89.7472
 30
0.0
 10
20.1106
 20
-95.351
 30
0.0
 10
18.7653
 20
-102.045
 30
0.0
 10
18.7653
 20
-102.045
 30
0.0
 10
17.4175
 20
-95.351
 30
0.0
 10
13.9213
 20
-89.7474
 30
0.0
 10
8.9967
 20
-83.8804
 30
0.0
  0
SPLINE
  5
74
330
1F
100
AcDbEntity
  8
layer 1
 62
     7
100
AcDbSpline
210
0.0
220
0.0
230
1.0
 70
    11
 71
     3
 72
    28
 73
    24
 74
     0
 42
0.0000000001
 43
0.0000000001
 12
1.0
 22
0.0
 32
0.0
 13
1.0
 23
0.0
 33
0.0
 40
0.0
 40
0.0
 40
0.0
 40
0.0
 40
0.1428571428571428
 40
0.1428571428571428
 40
0.1428571428571428
 40
0.1428571428571428
 40
0.2857142857142857
 40
0.2857142857142857
 40
0.2857142857142857
 40
0.2857142857142857
 40
0.4285714285714285
 40
0.4285714285714285
 40
0.4285714285714285
 40
0.4285714285714285
 40
0.5714285714285714
 40
0.5714285714285714
 40
0.5714285714285714
 40
0.5714285714285714
 40
0.7142857142857143
 40
0.7142857142857143
 40
0.7142857142857143
 40
0.7142857142857143
 40
1.0
 40
1.0
 40
1.0
 40
1.0
 10
47.2767
 20
-52.3967
 30
0.0
 10
48.7424
 20
-51.5994
 30
0.0
 10
49.6771
 20
-52.8449
 30
0.0
 10
49.6902
 20
-54.6309
 30
0.0
 10
49.6902
 20
-54.6309
 30
0.0
 10
49.4544
 20
-59.2275
 30
0.0
 10
47.0643
 20
-62.9332
 30
0.0
 10
44.3794
 20
-66.2602
 30
0.0
 10
44.3794
 20
-66.2602
 30
0.0
 10
41.7797
 20
-69.4793
 30
0.0
 10
38.9173
 20
-72.3554
 30
0.0
 10
36.7451
 20
-74.7936
 30
0.0
 10
36.7451
 20
-74.7936
 30
0.0
 10
39.7552
 20
-65.0944
 30
0.0
 10
37.4195
 20
-58.406
 30
0.0
 10
32.3258
 20
-52.5335
 30
0.0
 10
32.3258
 20
-52.5335
 30
0.0
 10
37.6264
 20
-53.5729
 30
0.0
 10
42.6959
 20
-52.8478
 30
0.0
 10
47.3276
 20
-50.4363
 30
0.0
 10
47.3276
 20
-50.4363
 30
0.0
 10
47.191
 20
-51.0996
 30
0.0
 10
47.0238
 20
-51.5857
 30
0.0
 10
47.2767
 20
-52.3967
 30
0.0
  0
SPLINE
  5
75
330
1F
100
AcDbEntity
  8
layer 1
 62
     7
100
AcDbSpline
210
0.0
220
0.0
230
1.0
 70
    11
 71
     3
 72
    68
 73
    64
 74
     0
 42
0.0000000001
 43
0.0000000001
 12
1.0
 22
0.0
 32
0.0
 13
1.0
 23
0.0
 33
0.0
 40
0.0
 40
0.0
 40
0.0
 40
0.0
 40
0.0588235294117647
 40
0.0588235294117647
 40
0.0588235294117647
 40
0.0588235294117647
 40
0.1176470588235294
 40
0.1176470588235294
 40
0.1176470588235294
 40
0.1176470588235294
 40
0.1764705882352941
 40
0.1764705882352941
 40
0.1764705882352941
 40
0.1764705882352941
 40
0.2352941176470588
 40
0.2352941176470588
 40
0.2352941176470588
 40
0.2352941176470588
 40
0.2941176470588235
 40
0.2941176470588235
 40
0.2941176470588235
 40
0.2941176470588235
 40
0.3529411764705883
 40
0.3529411764705883
 40
0.3529411764705883
 40
0.3529411764705883
 40
0.4117647058823529
 40
0.4117647058823529
 40
0.4117647058823529
 40
0.4117647058823529
 40
0.4705882352941176
 40
0.4705882352941176
 40
0.4705882352941176
 40
0.4705882352941176
 40
0.5294117647058824
 40
0.5294117647058824
 40
0.5294117647058824
 40
0.5294117647058824
 40
0.5882352941176471
 40
0.5882352941176471
 40
0.5882352941176471
 40
0.5882352941176471
 40
0.6470588235294118
 40
0.6470588235294118
 40
0.6470588235294118
 40
0.6470588235294118
 40
0.7058823529411765
 40
0.7058823529411765
 40
0.7058823529411765
 40
0.7058823529411765
 40
0.7647058823529411
 40
0.7647058823529411
 40
0.7647058823529411
 40
0.7647058823529411
 40
0.8235294117647058
 40
0.8235294117647058
 40
0.8235294117647058
 40
0.8235294117647058
 40
0.8823529411764706
 40
0.8823529411764706
 40
0.8823529411764706
 40
0.8823529411764706
 40
1.0
 40
1.0
 40
1.0
 40
1.0
 10
12.9762
 20
-74.1708
 30
0.0
 10
12.5522
 20
-75.2472
 30
0.0
 10
11.9127
 20
-75.1965
 30
0.0
 10
10.7153
 20
-75.1161
 30
0.0
 10
10.7153
 20
-75.1161
 30
0.0
 10
6.6982
 20
-74.595
 30
0.0
 10
3.2639
 20
-69.9413
 30
0.0
 10
5.3797
 20
-65.1803
 30
0.0
 10
5.3797
 20
-65.1803
 30
0.0
 10
6.7682
 20
-68.3326
 30
0.0
 10
11.9238
 20
-68.1719
 30
0.0
 10
12.5651
 20
-64.3348
 30
0.0
 10
12.5651
 20
-64.3348
 30
0.0
 10
12.6999
 20
-63.6501
 30
0.0
 10
12.638
 20
-63.5024
 30
0.0
 10
12.1354
 20
-63.3066
 30
0.0
 10
12.1354
 20
-63.3066
 30
0.0
 10
10.8605
 20
-62.8122
 30
0.0
 10
9.6953
 20
-61.0402
 30
0.0
 10
9.6953
 20
-59.5979
 30
0.0
 10
9.6953
 20
-59.5979
 30
0.0
 10
9.6953
 20
-58.5186
 30
0.0
 10
11.4082
 20
-55.2749
 30
0.0
 10
14.0286
 20
-51.3979
 30
0.0
 10
14.0286
 20
-51.3979
 30
0.0
 10
16.5824
 20
-47.5981
 30
0.0
 10
17.9117
 20
-44.6071
 30
0.0
 10
18.9105
 20
-41.0438
 30
0.0
 10
18.9105
 20
-41.0438
 30
0.0
 10
19.9093
 20
-44.6071
 30
0.0
 10
21.4746
 20
-47.5981
 30
0.0
 10
24.0309
 20
-51.3979
 30
0.0
 10
24.0309
 20
-51.3979
 30
0.0
 10
26.652
 20
-55.2749
 30
0.0
 10
28.365
 20
-58.5188
 30
0.0
 10
28.365
 20
-59.5979
 30
0.0
 10
28.365
 20
-59.5979
 30
0.0
 10
28.3652
 20
-61.04
 30
0.0
 10
27.1998
 20
-62.8122
 30
0.0
 10
25.9213
 20
-63.3066
 30
0.0
 10
25.9213
 20
-63.3066
 30
0.0
 10
25.4196
 20
-63.5024
 30
0.0
 10
25.3576
 20
-63.6501
 30
0.0
 10
25.4917
 20
-64.3348
 30
0.0
 10
25.4917
 20
-64.3348
 30
0.0
 10
26.1366
 20
-68.1719
 30
0.0
 10
31.2919
 20
-68.3328
 30
0.0
 10
32.6798
 20
-65.1803
 30
0.0
 10
32.6798
 20
-65.1803
 30
0.0
 10
34.7957
 20
-69.9413
 30
0.0
 10
31.3585
 20
-74.595
 30
0.0
 10
27.3422
 20
-75.1161
 30
0.0
 10
27.3422
 20
-75.1161
 30
0.0
 10
26.144
 20
-75.1963
 30
0.0
 10
25.5082
 20
-75.2474
 30
0.0
 10
25.0833
 20
-74.1708
 30
0.0
 10
25.0833
 20
-74.1708
 30
0.0
 10
23.3058
 20
-70.9326
 30
0.0
 10
19.7133
 20
-71.7133
 30
0.0
 10
18.87
 20
-74.2108
 30
0.0
 10
18.87
 20
-74.2108
 30
0.0
 10
18.0272
 20
-71.7133
 30
0.0
 10
14.7537
 20
-70.9326
 30
0.0
 10
12.9762
 20
-74.1708
 30
0.0
  0
SPLINE
  5
76
330
1F
100
AcDbEntity
  8
layer 1
 62
     7
100
AcDbSpline
210
0.0
220
0.0
230
1.0
 70
    11
 71
     3
 72
    28
 73
    24
 74
     0
 42
0.0000000001
 43
0.0000000001
 12
1.0
 22
0.0
 32
0.0
 13
1.0
 23
0.0
 33
0.0
 40
0.0
 40
0.0
 40
0.0
 40
0.0
 40
0.1428571428571428
 40
0.1428571428571428
 40
0.1428571428571428
 40
0.1428571428571428
 40
0.2857142857142857
 40
0.2857142857142857
 40
0.2857142857142857
 40
0.2857142857142857
 40
0.4285714285714285
 40
0.4285714285714285
 40
0.4285714285714285
 40
0.4285714285714285
 40
0.5714285714285714
 40
0.5714285714285714
 40
0.5714285714285714
 40
0.5714285714285714
 40
0.7142857142857143
 40
0.7142857142857143
 40
0.7142857142857143
 40
0.7142857142857143
 40
1.0
 40
1.0
 40
1.0
 40
1.0
 10
60.7349
 20
-91.052
 30
0.0
 10
55.657
 20
-89.7067
 30
0.0
 10
50.4236
 20
-90.7194
 30
0.0
 10
45.719
 20
-93.3748
 30
0.0
 10
45.719
 20
-93.3748
 30
0.0
 10
45.8024
 20
-92.3518
 30
0.0
 10
46.0573
 20
-92.4997
 30
0.0
 10
45.6489
 20
-91.6831
 30
0.0
 10
45.6489
 20
-91.6831
 30
0.0
 10
43.7023
 20
-91.4844
 30
0.0
 10
42.889
 20
-89.0276
 30
0.0
 10
43.4712
 20
-86.971
 30
0.0
 10
43.4712
 20
-86.971
 30
0.0
 10
44.457
 20
-83.485
 30
0.0
 10
45.2812
 20
-81.9578
 30
0.0
 10
48.6489
 20
-77.715
 30
0.0
 10
48.6489
 20
-77.715
 30
0.0
 10
51.3125
 20
-74.3639
 30
0.0
 10
56.127
 20
-68.803
 30
0.0
 10
56.2556
 20
-68.9295
 30
0.0
 10
56.2556
 20
-68.9295
 30
0.0
 10
53.5679
 20
-77.4037
 30
0.0
 10
55.0395
 20
-84.0922
 30
0.0
 10
60.7349
 20
-91.052
 30
0.0
  0
SPLINE
  5
77
330
1F
100
AcDbEntity
  8
layer 1
 62
     7
100
AcDbSpline
210
0.0
220
0.0
230
1.0
 70
    11
 71
     3
 72
    16
 73
    12
 74
     0
 42
0.0000000001
 43
0.0000000001
 12
1.0
 22
0.0
 32
0.0
 13
1.0
 23
0.0
 33
0.0
 40
0.0
 40
0.0
 40
0.0
 40
0.0
 40
0.25
 40
0.25
 40
0.25
 40
0.25
 40
0.5
 40
0.5
 40
0.5
 40
0.5
 40
1.0
 40
1.0
 40
1.0
 40
1.0
 10
-33.9519
 20
-64.1842
 30
0.0
 10
-34.8896
 20
-63.7121
 30
0.0
 10
-35.821
 20
-62.7023
 30
0.0
 10
-36.4548
 20
-61.3894
 30
0.0
 10
-36.4548
 20
-61.3894
 30
0.0
 10
-36.4548
 20
-61.3894
 30
0.0
 10
-36.4548
 20
-66.397
 30
0.0
 10
-36.4548
 20
-66.397
 30
0.0
 10
-36.4548
 20
-66.397
 30
0.0
 10
-35.676
 20
-65.3013
 30
0.0
 10
-34.8703
 20
-64.746
 30
0.0
 10
-33.9519
 20
-64.1842
 30
0.0
  0
SPLINE
  5
78
330
1F
100
AcDbEntity
  8
layer 1
 62
     7
100
AcDbSpline
210
0.0
220
0.0
230
1.0
 70
    11
 71
     3
 72
    28
 73
    24
 74
     0
 42
0.0000000001
 43
0.0000000001
 12
1.0
 22
0.0
 32
0.0
 13
1.0
 23
0.0
 33
0.0
 40
0.0
 40
0.0
 40
0.0
 40
0.0
 40
0.1428571428571428
 40
0.1428571428571428
 40
0.1428571428571428
 40
0.1428571428571428
 40
0.2857142857142857
 40
0.2857142857142857
 40
0.2857142857142857
 40
0.2857142857142857
 40
0.4285714285714285
 40
0.4285714285714285
 40
0.4285714285714285
 40
0.4285714285714285
 40
0.5714285714285714
 40
0.5714285714285714
 40
0.5714285714285714
 40
0.5714285714285714
 40
0.7142857142857143
 40
0.7142857142857143
 40
0.7142857142857143
 40
0.7142857142857143
 40
1.0
 40
1.0
 40
1.0
 40
1.0
 10
38.4987
 20
-94.8382
 30
0.0
 10
38.9284
 20
-96.3442
 30
0.0
 10
40.7863
 20
-96.8654
 30
0.0
 10
41.7232
 20
-96.8654
 30
0.0
 10
41.7232
 20
-96.8654
 30
0.0
 10
39.1112
 20
-99.3303
 30
0.0
 10
37.1239
 20
-103.0444
 30
0.0
 10
36.2406
 20
-106.7874
 30
0.0
 10
36.2406
 20
-106.7874
 30
0.0
 10
36.2406
 20
-106.7874
 30
0.0
 10
25.7199
 20
-106.7901
 30
0.0
 10
25.7199
 20
-106.7901
 30
0.0
 10
25.7199
 20
-106.7901
 30
0.0
 10
25.7173
 20
-106.4918
 30
0.0
 10
25.7226
 20
-106.1941
 30
0.0
 10
25.7391
 20
-105.8985
 30
0.0
 10
25.7391
 20
-105.8985
 30
0.0
 10
26.5792
 20
-93.9226
 30
0.0
 10
34.5378
 20
-82.6183
 30
0.0
 10
42.4381
 20
-77.5646
 30
0.0
 10
42.4381
 20
-77.5646
 30
0.0
 10
39.5028
 20
-81.8153
 30
0.0
 10
37.0915
 20
-89.1535
 30
0.0
 10
38.4987
 20
-94.8382
 30
0.0
  0
SPLINE
  5
79
330
1F
100
AcDbEntity
  8
layer 1
 62
     7
100
AcDbSpline
210
0.0
220
0.0
230
1.0
 70
    11
 71
     3
 72
    24
 73
    20
 74
     0
 42
0.0000000001
 43
0.0000000001
 12
1.0
 22
0.0
 32
0.0
 13
1.0
 23
0.0
 33
0.0
 40
0.0
 40
0.0
 40
0.0
 40
0.0
 40
0.1666666666666667
 40
0.1666666666666667
 40
0.1666666666666667
 40
0.1666666666666667
 40
0.3333333333333333
 40
0.3333333333333333
 40
0.3333333333333333
 40
0.3333333333333333
 40
0.5
 40
0.5
 40
0.5
 40
0.5
 40
0.6666666666666666
 40
0.6666666666666666
 40
0.6666666666666666
 40
0.6666666666666666
 40
1.0
 40
1.0
 40
1.0
 40
1.0
 10
-36.5489
 20
-43.3986
 30
0.0
 10
-36.5971
 20
-47.644
 30
0.0
 10
-36.5971
 20
-54.4534
 30
0.0
 10
-36.5593
 20
-57.4849
 30
0.0
 10
-36.5593
 20
-57.4849
 30
0.0
 10
-35.3516
 20
-56.0997
 30
0.0
 10
-34.4626
 20
-56.5294
 30
0.0
 10
-33.888
 20
-57.5015
 30
0.0
 10
-33.888
 20
-57.5015
 30
0.0
 10
-33.2302
 20
-58.6211
 30
0.0
 10
-32.0053
 20
-59.354
 30
0.0
 10
-30.7624
 20
-59.3752
 30
0.0
 10
-30.7624
 20
-59.3752
 30
0.0
 10
-30.005
 20
-59.389
 30
0.0
 10
-27.6369
 20
-59.9074
 30
0.0
 10
-26.4551
 20
-60.315
 30
0.0
 10
-26.4551
 20
-60.315
 30
0.0
 10
-32.0911
 20
-54.5208
 30
0.0
 10
-34.935
 20
-48.992
 30
0.0
 10
-36.5489
 20
-43.3986
 30
0.0
  0
SPLINE
  5
7A
330
1F
100
AcDbEntity
  8
layer 1
 62
     7
100
AcDbSpline
210
0.0
220
0.0
230
1.0
 70
    11
 71
     3
 72
    28
 73
    24
 74
     0
 42
0.0000000001
 43
0.0000000001
 12
1.0
 22
0.0
 32
0.0
 13
1.0
 23
0.0
 33
0.0
 40
0.0
 40
0.0
 40
0.0
 40
0.0
 40
0.1428571428571428
 40
0.1428571428571428
 40
0.1428571428571428
 40
0.1428571428571428
 40
0.2857142857142857
 40
0.2857142857142857
 40
0.2857142857142857
 40
0.2857142857142857
 40
0.4285714285714285
 40
0.4285714285714285
 40
0.4285714285714285
 40
0.4285714285714285
 40
0.5714285714285714
 40
0.5714285714285714
 40
0.5714285714285714
 40
0.5714285714285714
 40
0.7142857142857143
 40
0.7142857142857143
 40
0.7142857142857143
 40
0.7142857142857143
 40
1.0
 40
1.0
 40
1.0
 40
1.0
 10
64.4591
 20
-99.5131
 30
0.0
 10
66.4973
 20
-100.4638
 30
0.0
 10
68.7628
 20
-103.5867
 30
0.0
 10
69.8158
 20
-106.7817
 30
0.0
 10
69.8158
 20
-106.7817
 30
0.0
 10
69.8158
 20
-106.7817
 30
0.0
 10
43.1441
 20
-106.7282
 30
0.0
 10
43.1441
 20
-106.7282
 30
0.0
 10
43.1441
 20
-106.7282
 30
0.0
 10
43.6006
 20
-103.7235
 30
0.0
 10
45.26
 20
-100.9203
 30
0.0
 10
47.6095
 20
-99.0568
 30
0.0
 10
47.6095
 20
-99.0568
 30
0.0
 10
47.07
 20
-101.8118
 30
0.0
 10
47.8782
 20
-103.9519
 30
0.0
 10
49.8517
 20
-104.8406
 30
0.0
 10
49.8517
 20
-104.8406
 30
0.0
 10
51.8357
 20
-105.7184
 30
0.0
 10
53.7018
 20
-105.0818
 30
0.0
 10
54.6552
 20
-103.2025
 30
0.0
 10
54.6552
 20
-103.2025
 30
0.0
 10
56.7148
 20
-99.2906
 30
0.0
 10
59.7008
 20
-97.5369
 30
0.0
 10
64.4591
 20
-99.5131
 30
0.0
  0
ENDSEC
  0
SECTION
  2
OBJECTS
  0
DICTIONARY
  5
C
330
0
100
AcDbDictionary
281
     1
  3
ACAD_GROUP
350
D
  3
ACAD_LAYOUT
350
1A
  3
ACAD_MATERIAL
350
3B
  3
ACAD_MLEADERSTYLE
350
9D
  3
ACAD_MLINESTYLE
350
17
  3
ACAD_PLOTSETTINGS
350
19
  3
ACAD_PLOTSTYLENAME
350
E
  3
ACAD_TABLESTYLE
350
9C
  3
ACAD_VISUALSTYLE
350
2A
  0
DICTIONARY
  5
D
102
{ACAD_REACTORS
330
C
102
}
330
C
100
AcDbDictionary
281
     1
  0
DICTIONARY
  5
1A
102
{ACAD_REACTORS
330
C
102
}
330
C
100
AcDbDictionary
281
     1
  3
Layout1
350
1E
  3
Layout2
350
26
  3
Model
350
22
  0
DICTIONARY
  5
3B
102
{ACAD_REACTORS
330
C
102
}
330
C
100
AcDbDictionary
281
     1
  3
ByBlock
350
3D
  3
ByLayer
350
3C
  3
Global
350
3E
  0
DICTIONARY
  5
9D
102
{ACAD_REACTORS
330
C
102
}
330
C
100
AcDbDictionary
281
     1
  0
DICTIONARY
  5
17
102
{ACAD_REACTORS
330
C
102
}
330
C
100
AcDbDictionary
281
     1
  3
Standard
350
18
  0
DICTIONARY
  5
19
102
{ACAD_REACTORS
330
C
102
}
330
C
100
AcDbDictionary
281
     1
  0
ACDBDICTIONARYWDFLT
  5
E
102
{ACAD_REACTORS
330
C
102
}
330
C
100
AcDbDictionary
281
     1
  3
Normal
350
F
100
AcDbDictionaryWithDefault
340
F
  0
DICTIONARY
  5
9C
102
{ACAD_REACTORS
330
C
102
}
330
C
100
AcDbDictionary
281
     1
  0
DICTIONARY
  5
2A
102
{ACAD_REACTORS
330
C
102
}
330
C
100
AcDbDictionary
281
     1
  3
2dWireframe
350
2F
  3
3D Hidden
350
31
  3
3dWireframe
350
30
  3
Basic
350
32
  3
Brighten
350
36
  3
ColorChange
350
3A
  3
Conceptual
350
34
  3
Dim
350
35
  3
Facepattern
350
39
  3
Flat
350
2B
  3
FlatWithEdges
350
2C
  3
Gouraud
350
2D
  3
GouraudWithEdges
350
2E
  3
Linepattern
350
38
  3
Realistic
350
33
  3
Thicken
350
37
  0
LAYOUT
  5
1E
102
{ACAD_REACTORS
330
1A
102
}
330
1A
100
AcDbPlotSettings
  1

  2
none_device
  4

  6

 40
0.0
 41
0.0
 42
0.0
 43
0.0
 44
0.0
 45
0.0
 46
0.0
 47
0.0
 48
0.0
 49
0.0
140
0.0
141
0.0
142
1.0
143
1.0
 70
   688
 72
     0
 73
     0
 74
     5
  7

 75
    16
 76
     0
 77
     2
 78
   300
147
1.0
148
0.0
149
0.0
100
AcDbLayout
  1
Layout1
 70
     1
 71
     1
 10
0.0
 20
0.0
 11
12.0
 21
9.0
 12
0.0
 22
0.0
 32
0.0
 14
1.000000000000000E+20
 24
1.000000000000000E+20
 34
1.000000000000000E+20
 15
-1.000000000000000E+20
 25
-1.000000000000000E+20
 35
-1.000000000000000E+20
146
0.0
 13
0.0
 23
0.0
 33
0.0
 16
1.0
 26
0.0
 36
0.0
 17
0.0
 27
1.0
 37
0.0
 76
     0
330
1B
  0
LAYOUT
  5
26
102
{ACAD_REACTORS
330
1A
102
}
330
1A
100
AcDbPlotSettings
  1

  2
none_device
  4

  6

 40
0.0
 41
0.0
 42
0.0
 43
0.0
 44
0.0
 45
0.0
 46
0.0
 47
0.0
 48
0.0
 49
0.0
140
0.0
141
0.0
142
1.0
143
1.0
 70
   688
 72
     0
 73
     0
 74
     5
  7

 75
    16
 76
     0
 77
     2
 78
   300
147
1.0
148
0.0
149
0.0
100
AcDbLayout
  1
Layout2
 70
     1
 71
     2
 10
0.0
 20
0.0
 11
0.0
 21
0.0
 12
0.0
 22
0.0
 32
0.0
 14
0.0
 24
0.0
 34
0.0
 15
0.0
 25
0.0
 35
0.0
146
0.0
 13
0.0
 23
0.0
 33
0.0
 16
1.0
 26
0.0
 36
0.0
 17
0.0
 27
1.0
 37
0.0
 76
     0
330
23
  0
LAYOUT
  5
22
102
{ACAD_REACTORS
330
1A
102
}
330
1A
100
AcDbPlotSettings
  1

  2
none_device
  4

  6

 40
0.0
 41
0.0
 42
0.0
 43
0.0
 44
0.0
 45
0.0
 46
0.0
 47
0.0
 48
0.0
 49
0.0
140
0.0
141
0.0
142
1.0
143
1.0
 70
  1712
 72
     0
 73
     0
 74
     0
  7

 75
     0
 76
     0
 77
     2
 78
   300
147
1.0
148
0.0
149
0.0
100
AcDbLayout
  1
Model
 70
     1
 71
     0
 10
0.0
 20
0.0
 11
12.0
 21
9.0
 12
0.0
 22
0.0
 32
0.0
 14
-43.8581
 24
-115.0788
 34
0.0
 15
83.1873
 25
131.8643
 35
0.0
146
0.0
 13
0.0
 23
0.0
 33
0.0
 16
1.0
 26
0.0
 36
0.0
 17
0.0
 27
1.0
 37
0.0
 76
     0
330
1F
331
29
  0
MATERIAL
  5
3D
102
{ACAD_REACTORS
330
3B
102
}
330
3B
100
AcDbMaterial
  1
ByBlock
 72
     1
 94
      127
  0
MATERIAL
  5
3C
102
{ACAD_REACTORS
330
3B
102
}
330
3B
100
AcDbMaterial
  1
ByLayer
 72
     1
 94
      127
  0
MATERIAL
  5
3E
102
{ACAD_REACTORS
330
3B
102
}
330
3B
100
AcDbMaterial
  1
Global
 72
     1
 94
      127
  0
MLINESTYLE
  5
18
102
{ACAD_REACTORS
330
17
102
}
330
17
100
AcDbMlineStyle
  2
Standard
 70
     0
  3

 62
   256
 51
90.0
 52
90.0
 71
     2
 49
0.5
 62
   256
  6
BYLAYER
 49
-0.5
 62
   256
  6
BYLAYER
  0
ACDBPLACEHOLDER
  5
F
102
{ACAD_REACTORS
330
E
102
}
330
E
  0
VISUALSTYLE
  5
2F
102
{ACAD_REACTORS
330
2A
102
}
102
{ACAD_XDICTIONARY
360
84
102
}
330
2A
100
AcDbVisualStyle
  2
2dWireframe
 70
     4
 71
     0
 72
     2
 73
     0
 90
        0
 40
-0.6
 41
-30.0
 62
     5
 63
     7
421
 16777215
 74
     1
 91
        4
 64
     7
 65
   257
 75
     1
175
     1
 42
1.0
 92
        0
 66
   257
 43
1.0
 76
     1
 77
     6
 78
     2
 67
     7
 79
     5
170
     0
171
     0
290
     0
174
     0
 93
        1
 44
0.0
173
     0
291
     0
 45
0.0
  0
VISUALSTYLE
  5
31
102
{ACAD_REACTORS
330
2A
102
}
102
{ACAD_XDICTIONARY
360
88
102
}
330
2A
100
AcDbVisualStyle
  2
3D Hidden
 70
     6
 71
     1
 72
     2
 73
     2
 90
        0
 40
-0.6
 41
-30.0
 62
     5
 63
     7
421
 16777215
 74
     2
 91
        2
 64
     7
 65
   257
 75
     2
175
     1
 42
40.0
 92
        0
 66
   257
 43
1.0
 76
     1
 77
     6
 78
     2
 67
     7
 79
     3
170
     0
171
     0
290
     0
174
     0
 93
        1
 44
0.0
173
     0
291
     0
 45
0.0
  0
VISUALSTYLE
  5
30
102
{ACAD_REACTORS
330
2A
102
}
102
{ACAD_XDICTIONARY
360
86
102
}
330
2A
100
AcDbVisualStyle
  2
3dWireframe
 70
     5
 71
     0
 72
     2
 73
     0
 90
        0
 40
-0.6
 41
-30.0
 62
     5
 63
     7
421
 16777215
 74
     1
 91
        4
 64
     7
 65
   257
 75
     1
175
     1
 42
1.0
 92
        0
 66
   257
 43
1.0
 76
     1
 77
     6
 78
     2
 67
     7
 79
     5
170
     0
171
     0
290
     0
174
     0
 93
        1
 44
0.0
173
     0
291
     0
 45
0.0
  0
VISUALSTYLE
  5
32
102
{ACAD_REACTORS
330
2A
102
}
102
{ACAD_XDICTIONARY
360
8A
102
}
330
2A
100
AcDbVisualStyle
  2
Basic
 70
     7
 71
     1
 72
     0
 73
     1
 90
        0
 40
-0.6
 41
-30.0
 62
     5
 63
     7
421
 16777215
 74
     0
 91
        4
 64
     7
 65
   257
 75
     1
175
     1
 42
1.0
 92
        8
 66
     7
 43
1.0
 76
     1
 77
     6
 78
     2
 67
     7
 79
     5
170
     0
171
     0
290
     0
174
     0
 93
        1
 44
0.0
173
     0
291
     1
 45
0.0
  0
VISUALSTYLE
  5
36
102
{ACAD_REACTORS
330
2A
102
}
102
{ACAD_XDICTIONARY
360
92
102
}
330
2A
100
AcDbVisualStyle
  2
Brighten
 70
    12
 71
     2
 72
     2
 73
     0
 90
        0
 40
-0.6
 41
-30.0
 62
     5
 63
     7
421
 16777215
 74
     1
 91
        4
 64
     7
 65
   257
 75
     1
175
     1
 42
1.0
 92
        8
 66
     7
 43
1.0
 76
     1
 77
     6
 78
     2
 67
     7
 79
     5
170
     0
171
     0
290
     0
174
     0
 93
        1
 44
50.0
173
     0
291
     1
 45
0.0
  0
VISUALSTYLE
  5
3A
102
{ACAD_REACTORS
330
2A
102
}
102
{ACAD_XDICTIONARY
360
9A
102
}
330
2A
100
AcDbVisualStyle
  2
ColorChange
 70
    16
 71
     2
 72
     2
 73
     3
 90
        0
 40
-0.6
 41
-30.0
 62
     5
 63
     8
421
  8421504
 74
     1
 91
        4
 64
     7
 65
   257
 75
     1
175
     1
 42
1.0
 92
        8
 66
     8
424
  8421504
 43
1.0
 76
     1
 77
     6
 78
     2
 67
     7
 79
     5
170
     0
171
     0
290
     0
174
     0
 93
        1
 44
0.0
173
     0
291
     1
 45
0.0
  0
VISUALSTYLE
  5
34
102
{ACAD_REACTORS
330
2A
102
}
102
{ACAD_XDICTIONARY
360
8E
102
}
330
2A
100
AcDbVisualStyle
  2
Conceptual
 70
     9
 71
     3
 72
     2
 73
     0
 90
        0
 40
-0.6
 41
-30.0
 62
     5
 63
     7
421
 16777215
 74
     2
 91
        2
 64
     7
 65
   257
 75
     1
175
     1
 42
40.0
 92
        8
 66
     7
 43
1.0
 76
     1
 77
     6
 78
     2
 67
     7
 79
     3
170
     0
171
     0
290
     0
174
     0
 93
        1
 44
0.0
173
     0
291
     0
 45
0.0
  0
VISUALSTYLE
  5
35
102
{ACAD_REACTORS
330
2A
102
}
102
{ACAD_XDICTIONARY
360
90
102
}
330
2A
100
AcDbVisualStyle
  2
Dim
 70
    11
 71
     2
 72
     2
 73
     0
 90
        0
 40
-0.6
 41
-30.0
 62
     5
 63
     7
421
 16777215
 74
     1
 91
        4
 64
     7
 65
   257
 75
     1
175
     1
 42
1.0
 92
        8
 66
     7
 43
1.0
 76
     1
 77
     6
 78
     2
 67
     7
 79
     5
170
     0
171
     0
290
     0
174
     0
 93
        1
 44
-50.0
173
     0
291
     1
 45
0.0
  0
VISUALSTYLE
  5
39
102
{ACAD_REACTORS
330
2A
102
}
102
{ACAD_XDICTIONARY
360
98
102
}
330
2A
100
AcDbVisualStyle
  2
Facepattern
 70
    15
 71
     2
 72
     2
 73
     0
 90
        0
 40
-0.6
 41
-30.0
 62
     5
 63
     7
421
 16777215
 74
     1
 91
        4
 64
     7
 65
   257
 75
     1
175
     1
 42
1.0
 92
        8
 66
     7
 43
1.0
 76
     1
 77
     6
 78
     2
 67
     7
 79
     5
170
     0
171
     0
290
     0
174
     0
 93
        1
 44
0.0
173
     0
291
     1
 45
0.0
  0
VISUALSTYLE
  5
2B
102
{ACAD_REACTORS
330
2A
102
}
102
{ACAD_XDICTIONARY
360
7C
102
}
330
2A
100
AcDbVisualStyle
  2
Flat
 70
     0
 71
     2
 72
     1
 73
     1
 90
        2
 40
-0.6
 41
30.0
 62
     5
 63
     7
421
 16777215
 74
     0
 91
        4
 64
     7
 65
   257
 75
     1
175
     1
 42
1.0
 92
        8
 66
     7
 43
1.0
 76
     1
 77
     6
 78
     2
 67
     7
 79
     5
170
     0
171
     0
290
     0
174
     0
 93
       13
 44
0.0
173
     0
291
     1
 45
0.0
  0
VISUALSTYLE
  5
2C
102
{ACAD_REACTORS
330
2A
102
}
102
{ACAD_XDICTIONARY
360
7E
102
}
330
2A
100
AcDbVisualStyle
  2
FlatWithEdges
 70
     1
 71
     2
 72
     1
 73
     1
 90
        2
 40
-0.6
 41
30.0
 62
     5
 63
     7
421
 16777215
 74
     1
 91
        4
 64
     7
 65
   257
 75
     1
175
     1
 42
1.0
 92
        0
 66
   257
 43
1.0
 76
     1
 77
     6
 78
     2
 67
     7
 79
     5
170
     0
171
     0
290
     0
174
     0
 93
       13
 44
0.0
173
     0
291
     1
 45
0.0
  0
VISUALSTYLE
  5
2D
102
{ACAD_REACTORS
330
2A
102
}
102
{ACAD_XDICTIONARY
360
80
102
}
330
2A
100
AcDbVisualStyle
  2
Gouraud
 70
     2
 71
     2
 72
     2
 73
     1
 90
        2
 40
-0.6
 41
30.0
 62
     5
 63
     7
421
 16777215
 74
     0
 91
        4
 64
     7
 65
   257
 75
     1
175
     1
 42
1.0
 92
        0
 66
     7
 43
1.0
 76
     1
 77
     6
 78
     2
 67
     7
 79
     5
170
     0
171
     0
290
     0
174
     0
 93
       13
 44
0.0
173
     0
291
     1
 45
0.0
  0
VISUALSTYLE
  5
2E
102
{ACAD_REACTORS
330
2A
102
}
102
{ACAD_XDICTIONARY
360
82
102
}
330
2A
100
AcDbVisualStyle
  2
GouraudWithEdges
 70
     3
 71
     2
 72
     2
 73
     1
 90
        2
 40
-0.6
 41
30.0
 62
     5
 63
     7
421
 16777215
 74
     1
 91
        4
 64
     7
 65
   257
 75
     1
175
     1
 42
1.0
 92
        0
 66
   257
 43
1.0
 76
     1
 77
     6
 78
     2
 67
     7
 79
     5
170
     0
171
     0
290
     0
174
     0
 93
       13
 44
0.0
173
     0
291
     1
 45
0.0
  0
VISUALSTYLE
  5
38
102
{ACAD_REACTORS
330
2A
102
}
102
{ACAD_XDICTIONARY
360
96
102
}
330
2A
100
AcDbVisualStyle
  2
Linepattern
 70
    14
 71
     2
 72
     2
 73
     0
 90
        0
 40
-0.6
 41
-30.0
 62
     5
 63
     7
421
 16777215
 74
     1
 91
        4
 64
     7
 65
   257
 75
     7
175
     7
 42
1.0
 92
        8
 66
     7
 43
1.0
 76
     1
 77
     6
 78
     2
 67
     7
 79
     5
170
     0
171
     0
290
     0
174
     0
 93
        1
 44
0.0
173
     0
291
     1
 45
0.0
  0
VISUALSTYLE
  5
33
102
{ACAD_REACTORS
330
2A
102
}
102
{ACAD_XDICTIONARY
360
8C
102
}
330
2A
100
AcDbVisualStyle
  2
Realistic
 70
     8
 71
     2
 72
     2
 73
     0
 90
        0
 40
-0.6
 41
-30.0
 62
     5
 63
     7
421
 16777215
 74
     1
 91
        0
 64
     7
 65
   257
 75
     1
175
     1
 42
1.0
 92
        8
 66
     8
424
  7895160
 43
1.0
 76
     1
 77
     6
 78
     2
 67
     7
 79
     5
170
     0
171
     0
290
     0
174
     0
 93
       13
 44
0.0
173
     0
291
     0
 45
0.0
  0
VISUALSTYLE
  5
37
102
{ACAD_REACTORS
330
2A
102
}
102
{ACAD_XDICTIONARY
360
94
102
}
330
2A
100
AcDbVisualStyle
  2
Thicken
 70
    13
 71
     2
 72
     2
 73
     0
 90
        0
 40
-0.6
 41
-30.0
 62
     5
 63
     7
421
 16777215
 74
     1
 91
        4
 64
     7
 65
   257
 75
     1
175
     1
 42
1.0
 92
       12
 66
     7
 43
1.0
 76
     1
 77
     6
 78
     2
 67
     7
 79
     5
170
     0
171
     0
290
     0
174
     0
 93
        1
 44
0.0
173
     0
291
     1
 45
0.0
  0
DICTIONARY
  5
84
330
2F
100
AcDbDictionary
280
     1
281
     1
  3
ACAD_XREC_ROUNDTRIP
360
85
  0
DICTIONARY
  5
88
330
31
100
AcDbDictionary
280
     1
281
     1
  3
ACAD_XREC_ROUNDTRIP
360
89
  0
DICTIONARY
  5
86
330
30
100
AcDbDictionary
280
     1
281
     1
  3
ACAD_XREC_ROUNDTRIP
360
87
  0
DICTIONARY
  5
8A
330
32
100
AcDbDictionary
280
     1
281
     1
  3
ACAD_XREC_ROUNDTRIP
360
8B
  0
DICTIONARY
  5
92
330
36
100
AcDbDictionary
280
     1
281
     1
  3
ACAD_XREC_ROUNDTRIP
360
93
  0
DICTIONARY
  5
9A
330
3A
100
AcDbDictionary
280
     1
281
     1
  3
ACAD_XREC_ROUNDTRIP
360
9B
  0
DICTIONARY
  5
8E
330
34
100
AcDbDictionary
280
     1
281
     1
  3
ACAD_XREC_ROUNDTRIP
360
8F
  0
DICTIONARY
  5
90
330
35
100
AcDbDictionary
280
     1
281
     1
  3
ACAD_XREC_ROUNDTRIP
360
91
  0
DICTIONARY
  5
98
330
39
100
AcDbDictionary
280
     1
281
     1
  3
ACAD_XREC_ROUNDTRIP
360
99
  0
DICTIONARY
  5
7C
330
2B
100
AcDbDictionary
280
     1
281
     1
  3
ACAD_XREC_ROUNDTRIP
360
7D
  0
DICTIONARY
  5
7E
330
2C
100
AcDbDictionary
280
     1
281
     1
  3
ACAD_XREC_ROUNDTRIP
360
7F
  0
DICTIONARY
  5
80
330
2D
100
AcDbDictionary
280
     1
281
     1
  3
ACAD_XREC_ROUNDTRIP
360
81
  0
DICTIONARY
  5
82
330
2E
100
AcDbDictionary
280
     1
281
     1
  3
ACAD_XREC_ROUNDTRIP
360
83
  0
DICTIONARY
  5
96
330
38
100
AcDbDictionary
280
     1
281
     1
  3
ACAD_XREC_ROUNDTRIP
360
97
  0
DICTIONARY
  5
8C
330
33
100
AcDbDictionary
280
     1
281
     1
  3
ACAD_XREC_ROUNDTRIP
360
8D
  0
DICTIONARY
  5
94
330
37
100
AcDbDictionary
280
     1
281
     1
  3
ACAD_XREC_ROUNDTRIP
360
95
  0
XRECORD
  5
85
102
{ACAD_REACTORS
330
84
102
}
330
84
100
AcDbXrecord
280
     1
102
RTVSPropertyOp0
 70
     1
102
RTVSPropertyOp1
 70
     1
102
RTVSPropertyOp2
 70
     1
102
RTVSPropertyOp3
 70
     1
102
RTVSPropertyOp4
 70
     1
102
RTVSPropertyOp5
 70
     1
102
RTVSPropertyOp6
 70
     1
102
RTVSPropertyOp7
 70
     1
102
RTVSPropertyOp8
 70
     1
102
RTVSPropertyOp9
 70
     1
102
RTVSPropertyOp10
 70
     1
102
RTVSPropertyOp11
 70
     1
102
RTVSPropertyOp12
 70
     1
102
RTVSPropertyOp13
 70
     1
102
RTVSPropertyOp14
 70
     1
102
RTVSPropertyOp15
 70
     1
102
RTVSPropertyOp16
 70
     1
102
RTVSPropertyOp17
 70
     1
102
RTVSPropertyOp18
 70
     1
102
RTVSPropertyOp19
 70
     1
102
RTVSPropertyOp20
 70
     1
102
RTVSPropertyOp21
 70
     1
102
RTVSPropertyOp22
 70
     1
102
RTVSPropertyOp23
 70
     1
102
RTVSPropertyOp24
 70
     1
102
RTVSPropertyOp25
 70
     1
102
RTVSPropertyOp26
 70
     1
102
RTVSPropertyOp27
 70
     1
102
RTVSPropertyOp28
 70
     1
102
RTVSPropertyOp29
 70
     1
102
RTVSPropertyOp30
 70
     1
102
RTVSPropertyOp31
 70
     1
102
RTVSPropertyOp32
 70
     1
  0
XRECORD
  5
89
102
{ACAD_REACTORS
330
88
102
}
330
88
100
AcDbXrecord
280
     1
102
RTVSPropertyOp0
 70
     1
102
RTVSPropertyOp1
 70
     1
102
RTVSPropertyOp2
 70
     1
102
RTVSPropertyOp3
 70
     1
102
RTVSPropertyOp4
 70
     1
102
RTVSPropertyOp5
 70
     1
102
RTVSPropertyOp6
 70
     1
102
RTVSPropertyOp7
 70
     1
102
RTVSPropertyOp8
 70
     1
102
RTVSPropertyOp9
 70
     1
102
RTVSPropertyOp10
 70
     1
102
RTVSPropertyOp11
 70
     1
102
RTVSPropertyOp12
 70
     1
102
RTVSPropertyOp13
 70
     1
102
RTVSPropertyOp14
 70
     1
102
RTVSPropertyOp15
 70
     1
102
RTVSPropertyOp16
 70
     1
102
RTVSPropertyOp17
 70
     1
102
RTVSPropertyOp18
 70
     1
102
RTVSPropertyOp19
 70
     1
102
RTVSPropertyOp20
 70
     1
102
RTVSPropertyOp21
 70
     1
102
RTVSPropertyOp22
 70
     1
102
RTVSPropertyOp23
 70
     1
102
RTVSPropertyOp24
 70
     1
102
RTVSPropertyOp25
 70
     1
102
RTVSPropertyOp26
 70
     1
102
RTVSPropertyOp27
 70
     1
102
RTVSPropertyOp28
 70
     1
102
RTVSPropertyOp29
 70
     1
102
RTVSPropertyOp30
 70
     1
102
RTVSPropertyOp31
 70
     1
102
RTVSPropertyOp32
 70
     1
  0
XRECORD
  5
87
102
{ACAD_REACTORS
330
86
102
}
330
86
100
AcDbXrecord
280
     1
102
RTVSPropertyOp0
 70
     1
102
RTVSPropertyOp1
 70
     1
102
RTVSPropertyOp2
 70
     1
102
RTVSPropertyOp3
 70
     1
102
RTVSPropertyOp4
 70
     1
102
RTVSPropertyOp5
 70
     1
102
RTVSPropertyOp6
 70
     1
102
RTVSPropertyOp7
 70
     1
102
RTVSPropertyOp8
 70
     1
102
RTVSPropertyOp9
 70
     1
102
RTVSPropertyOp10
 70
     1
102
RTVSPropertyOp11
 70
     1
102
RTVSPropertyOp12
 70
     1
102
RTVSPropertyOp13
 70
     1
102
RTVSPropertyOp14
 70
     1
102
RTVSPropertyOp15
 70
     1
102
RTVSPropertyOp16
 70
     1
102
RTVSPropertyOp17
 70
     1
102
RTVSPropertyOp18
 70
     1
102
RTVSPropertyOp19
 70
     1
102
RTVSPropertyOp20
 70
     1
102
RTVSPropertyOp21
 70
     1
102
RTVSPropertyOp22
 70
     1
102
RTVSPropertyOp23
 70
     1
102
RTVSPropertyOp24
 70
     1
102
RTVSPropertyOp25
 70
     1
102
RTVSPropertyOp26
 70
     1
102
RTVSPropertyOp27
 70
     1
102
RTVSPropertyOp28
 70
     1
102
RTVSPropertyOp29
 70
     1
102
RTVSPropertyOp30
 70
     1
102
RTVSPropertyOp31
 70
     1
102
RTVSPropertyOp32
 70
     1
  0
XRECORD
  5
8B
102
{ACAD_REACTORS
330
8A
102
}
330
8A
100
AcDbXrecord
280
     1
102
RTVSPropertyOp0
 70
     1
102
RTVSPropertyOp1
 70
     1
102
RTVSPropertyOp2
 70
     1
102
RTVSPropertyOp3
 70
     1
102
RTVSPropertyOp4
 70
     1
102
RTVSPropertyOp5
 70
     1
102
RTVSPropertyOp6
 70
     1
102
RTVSPropertyOp7
 70
     1
102
RTVSPropertyOp8
 70
     1
102
RTVSPropertyOp9
 70
     1
102
RTVSPropertyOp10
 70
     1
102
RTVSPropertyOp11
 70
     1
102
RTVSPropertyOp12
 70
     1
102
RTVSPropertyOp13
 70
     1
102
RTVSPropertyOp14
 70
     1
102
RTVSPropertyOp15
 70
     1
102
RTVSPropertyOp16
 70
     1
102
RTVSPropertyOp17
 70
     1
102
RTVSPropertyOp18
 70
     1
102
RTVSPropertyOp19
 70
     1
102
RTVSPropertyOp20
 70
     1
102
RTVSPropertyOp21
 70
     1
102
RTVSPropertyOp22
 70
     1
102
RTVSPropertyOp23
 70
     1
102
RTVSPropertyOp24
 70
     1
102
RTVSPropertyOp25
 70
     1
102
RTVSPropertyOp26
 70
     1
102
RTVSPropertyOp27
 70
     1
102
RTVSPropertyOp28
 70
     1
102
RTVSPropertyOp29
 70
     1
102
RTVSPropertyOp30
 70
     1
102
RTVSPropertyOp31
 70
     1
102
RTVSPropertyOp32
 70
     1
  0
XRECORD
  5
93
102
{ACAD_REACTORS
330
92
102
}
330
92
100
AcDbXrecord
280
     1
102
RTVSPropertyOp0
 70
     1
102
RTVSPropertyOp1
 70
     1
102
RTVSPropertyOp2
 70
     1
102
RTVSPropertyOp3
 70
     1
102
RTVSPropertyOp4
 70
     1
102
RTVSPropertyOp5
 70
     1
102
RTVSPropertyOp6
 70
     1
102
RTVSPropertyOp7
 70
     1
102
RTVSPropertyOp8
 70
     1
102
RTVSPropertyOp9
 70
     1
102
RTVSPropertyOp10
 70
     1
102
RTVSPropertyOp11
 70
     1
102
RTVSPropertyOp12
 70
     1
102
RTVSPropertyOp13
 70
     1
102
RTVSPropertyOp14
 70
     1
102
RTVSPropertyOp15
 70
     1
102
RTVSPropertyOp16
 70
     1
102
RTVSPropertyOp17
 70
     1
102
RTVSPropertyOp18
 70
     1
102
RTVSPropertyOp19
 70
     1
102
RTVSPropertyOp20
 70
     1
102
RTVSPropertyOp21
 70
     1
102
RTVSPropertyOp22
 70
     1
102
RTVSPropertyOp23
 70
     1
102
RTVSPropertyOp24
 70
     1
102
RTVSPropertyOp25
 70
     1
102
RTVSPropertyOp26
 70
     1
102
RTVSPropertyOp27
 70
     1
102
RTVSPropertyOp28
 70
     1
102
RTVSPropertyOp29
 70
     1
102
RTVSPropertyOp30
 70
     1
102
RTVSPropertyOp31
 70
     1
102
RTVSPropertyOp32
 70
     1
  0
XRECORD
  5
9B
102
{ACAD_REACTORS
330
9A
102
}
330
9A
100
AcDbXrecord
280
     1
102
RTVSPropertyOp0
 70
     1
102
RTVSPropertyOp1
 70
     1
102
RTVSPropertyOp2
 70
     1
102
RTVSPropertyOp3
 70
     1
102
RTVSPropertyOp4
 70
     1
102
RTVSPropertyOp5
 70
     1
102
RTVSPropertyOp6
 70
     1
102
RTVSPropertyOp7
 70
     1
102
RTVSPropertyOp8
 70
     1
102
RTVSPropertyOp9
 70
     1
102
RTVSPropertyOp10
 70
     1
102
RTVSPropertyOp11
 70
     1
102
RTVSPropertyOp12
 70
     1
102
RTVSPropertyOp13
 70
     1
102
RTVSPropertyOp14
 70
     1
102
RTVSPropertyOp15
 70
     1
102
RTVSPropertyOp16
 70
     1
102
RTVSPropertyOp17
 70
     1
102
RTVSPropertyOp18
 70
     1
102
RTVSPropertyOp19
 70
     1
102
RTVSPropertyOp20
 70
     1
102
RTVSPropertyOp21
 70
     1
102
RTVSPropertyOp22
 70
     1
102
RTVSPropertyOp23
 70
     1
102
RTVSPropertyOp24
 70
     1
102
RTVSPropertyOp25
 70
     1
102
RTVSPropertyOp26
 70
     1
102
RTVSPropertyOp27
 70
     1
102
RTVSPropertyOp28
 70
     1
102
RTVSPropertyOp29
 70
     1
102
RTVSPropertyOp30
 70
     1
102
RTVSPropertyOp31
 70
     1
102
RTVSPropertyOp32
 70
     1
  0
XRECORD
  5
8F
102
{ACAD_REACTORS
330
8E
102
}
330
8E
100
AcDbXrecord
280
     1
102
RTVSPropertyOp0
 70
     1
102
RTVSPropertyOp1
 70
     1
102
RTVSPropertyOp2
 70
     1
102
RTVSPropertyOp3
 70
     1
102
RTVSPropertyOp4
 70
     1
102
RTVSPropertyOp5
 70
     1
102
RTVSPropertyOp6
 70
     1
102
RTVSPropertyOp7
 70
     1
102
RTVSPropertyOp8
 70
     1
102
RTVSPropertyOp9
 70
     1
102
RTVSPropertyOp10
 70
     1
102
RTVSPropertyOp11
 70
     1
102
RTVSPropertyOp12
 70
     1
102
RTVSPropertyOp13
 70
     1
102
RTVSPropertyOp14
 70
     1
102
RTVSPropertyOp15
 70
     1
102
RTVSPropertyOp16
 70
     1
102
RTVSPropertyOp17
 70
     1
102
RTVSPropertyOp18
 70
     1
102
RTVSPropertyOp19
 70
     1
102
RTVSPropertyOp20
 70
     1
102
RTVSPropertyOp21
 70
     1
102
RTVSPropertyOp22
 70
     1
102
RTVSPropertyOp23
 70
     1
102
RTVSPropertyOp24
 70
     1
102
RTVSPropertyOp25
 70
     1
102
RTVSPropertyOp26
 70
     1
102
RTVSPropertyOp27
 70
     1
102
RTVSPropertyOp28
 70
     1
102
RTVSPropertyOp29
 70
     1
102
RTVSPropertyOp30
 70
     1
102
RTVSPropertyOp31
 70
     1
102
RTVSPropertyOp32
 70
     1
  0
XRECORD
  5
91
102
{ACAD_REACTORS
330
90
102
}
330
90
100
AcDbXrecord
280
     1
102
RTVSPropertyOp0
 70
     1
102
RTVSPropertyOp1
 70
     1
102
RTVSPropertyOp2
 70
     1
102
RTVSPropertyOp3
 70
     1
102
RTVSPropertyOp4
 70
     1
102
RTVSPropertyOp5
 70
     1
102
RTVSPropertyOp6
 70
     1
102
RTVSPropertyOp7
 70
     1
102
RTVSPropertyOp8
 70
     1
102
RTVSPropertyOp9
 70
     1
102
RTVSPropertyOp10
 70
     1
102
RTVSPropertyOp11
 70
     1
102
RTVSPropertyOp12
 70
     1
102
RTVSPropertyOp13
 70
     1
102
RTVSPropertyOp14
 70
     1
102
RTVSPropertyOp15
 70
     1
102
RTVSPropertyOp16
 70
     1
102
RTVSPropertyOp17
 70
     1
102
RTVSPropertyOp18
 70
     1
102
RTVSPropertyOp19
 70
     1
102
RTVSPropertyOp20
 70
     1
102
RTVSPropertyOp21
 70
     1
102
RTVSPropertyOp22
 70
     1
102
RTVSPropertyOp23
 70
     1
102
RTVSPropertyOp24
 70
     1
102
RTVSPropertyOp25
 70
     1
102
RTVSPropertyOp26
 70
     1
102
RTVSPropertyOp27
 70
     1
102
RTVSPropertyOp28
 70
     1
102
RTVSPropertyOp29
 70
     1
102
RTVSPropertyOp30
 70
     1
102
RTVSPropertyOp31
 70
     1
102
RTVSPropertyOp32
 70
     1
  0
XRECORD
  5
99
102
{ACAD_REACTORS
330
98
102
}
330
98
100
AcDbXrecord
280
     1
102
RTVSPropertyOp0
 70
     1
102
RTVSPropertyOp1
 70
     1
102
RTVSPropertyOp2
 70
     1
102
RTVSPropertyOp3
 70
     1
102
RTVSPropertyOp4
 70
     1
102
RTVSPropertyOp5
 70
     1
102
RTVSPropertyOp6
 70
     1
102
RTVSPropertyOp7
 70
     1
102
RTVSPropertyOp8
 70
     1
102
RTVSPropertyOp9
 70
     1
102
RTVSPropertyOp10
 70
     1
102
RTVSPropertyOp11
 70
     1
102
RTVSPropertyOp12
 70
     1
102
RTVSPropertyOp13
 70
     1
102
RTVSPropertyOp14
 70
     1
102
RTVSPropertyOp15
 70
     1
102
RTVSPropertyOp16
 70
     1
102
RTVSPropertyOp17
 70
     1
102
RTVSPropertyOp18
 70
     1
102
RTVSPropertyOp19
 70
     1
102
RTVSPropertyOp20
 70
     1
102
RTVSPropertyOp21
 70
     1
102
RTVSPropertyOp22
 70
     1
102
RTVSPropertyOp23
 70
     1
102
RTVSPropertyOp24
 70
     1
102
RTVSPropertyOp25
 70
     1
102
RTVSPropertyOp26
 70
     1
102
RTVSPropertyOp27
 70
     1
102
RTVSPropertyOp28
 70
     1
102
RTVSPropertyOp29
 70
     1
102
RTVSPropertyOp30
 70
     1
102
RTVSPropertyOp31
 70
     1
102
RTVSPropertyOp32
 70
     1
  0
XRECORD
  5
7D
102
{ACAD_REACTORS
330
7C
102
}
330
7C
100
AcDbXrecord
280
     1
102
RTVSPropertyOp0
 70
     1
102
RTVSPropertyOp1
 70
     1
102
RTVSPropertyOp2
 70
     1
102
RTVSPropertyOp3
 70
     1
102
RTVSPropertyOp4
 70
     1
102
RTVSPropertyOp5
 70
     1
102
RTVSPropertyOp6
 70
     1
102
RTVSPropertyOp7
 70
     1
102
RTVSPropertyOp8
 70
     1
102
RTVSPropertyOp9
 70
     1
102
RTVSPropertyOp10
 70
     1
102
RTVSPropertyOp11
 70
     1
102
RTVSPropertyOp12
 70
     1
102
RTVSPropertyOp13
 70
     1
102
RTVSPropertyOp14
 70
     1
102
RTVSPropertyOp15
 70
     1
102
RTVSPropertyOp16
 70
     1
102
RTVSPropertyOp17
 70
     1
102
RTVSPropertyOp18
 70
     1
102
RTVSPropertyOp19
 70
     1
102
RTVSPropertyOp20
 70
     1
102
RTVSPropertyOp21
 70
     1
102
RTVSPropertyOp22
 70
     1
102
RTVSPropertyOp23
 70
     1
102
RTVSPropertyOp24
 70
     1
102
RTVSPropertyOp25
 70
     1
102
RTVSPropertyOp26
 70
     1
102
RTVSPropertyOp27
 70
     1
102
RTVSPropertyOp28
 70
     1
102
RTVSPropertyOp29
 70
     1
102
RTVSPropertyOp30
 70
     1
102
RTVSPropertyOp31
 70
     1
102
RTVSPropertyOp32
 70
     1
  0
XRECORD
  5
7F
102
{ACAD_REACTORS
330
7E
102
}
330
7E
100
AcDbXrecord
280
     1
102
RTVSPropertyOp0
 70
     1
102
RTVSPropertyOp1
 70
     1
102
RTVSPropertyOp2
 70
     1
102
RTVSPropertyOp3
 70
     1
102
RTVSPropertyOp4
 70
     1
102
RTVSPropertyOp5
 70
     1
102
RTVSPropertyOp6
 70
     1
102
RTVSPropertyOp7
 70
     1
102
RTVSPropertyOp8
 70
     1
102
RTVSPropertyOp9
 70
     1
102
RTVSPropertyOp10
 70
     1
102
RTVSPropertyOp11
 70
     1
102
RTVSPropertyOp12
 70
     1
102
RTVSPropertyOp13
 70
     1
102
RTVSPropertyOp14
 70
     1
102
RTVSPropertyOp15
 70
     1
102
RTVSPropertyOp16
 70
     1
102
RTVSPropertyOp17
 70
     1
102
RTVSPropertyOp18
 70
     1
102
RTVSPropertyOp19
 70
     1
102
RTVSPropertyOp20
 70
     1
102
RTVSPropertyOp21
 70
     1
102
RTVSPropertyOp22
 70
     1
102
RTVSPropertyOp23
 70
     1
102
RTVSPropertyOp24
 70
     1
102
RTVSPropertyOp25
 70
     1
102
RTVSPropertyOp26
 70
     1
102
RTVSPropertyOp27
 70
     1
102
RTVSPropertyOp28
 70
     1
102
RTVSPropertyOp29
 70
     1
102
RTVSPropertyOp30
 70
     1
102
RTVSPropertyOp31
 70
     1
102
RTVSPropertyOp32
 70
     1
  0
XRECORD
  5
81
102
{ACAD_REACTORS
330
80
102
}
330
80
100
AcDbXrecord
280
     1
102
RTVSPropertyOp0
 70
     1
102
RTVSPropertyOp1
 70
     1
102
RTVSPropertyOp2
 70
     1
102
RTVSPropertyOp3
 70
     1
102
RTVSPropertyOp4
 70
     1
102
RTVSPropertyOp5
 70
     1
102
RTVSPropertyOp6
 70
     1
102
RTVSPropertyOp7
 70
     1
102
RTVSPropertyOp8
 70
     1
102
RTVSPropertyOp9
 70
     1
102
RTVSPropertyOp10
 70
     1
102
RTVSPropertyOp11
 70
     1
102
RTVSPropertyOp12
 70
     1
102
RTVSPropertyOp13
 70
     1
102
RTVSPropertyOp14
 70
     1
102
RTVSPropertyOp15
 70
     1
102
RTVSPropertyOp16
 70
     1
102
RTVSPropertyOp17
 70
     1
102
RTVSPropertyOp18
 70
     1
102
RTVSPropertyOp19
 70
     1
102
RTVSPropertyOp20
 70
     1
102
RTVSPropertyOp21
 70
     1
102
RTVSPropertyOp22
 70
     1
102
RTVSPropertyOp23
 70
     1
102
RTVSPropertyOp24
 70
     1
102
RTVSPropertyOp25
 70
     1
102
RTVSPropertyOp26
 70
     1
102
RTVSPropertyOp27
 70
     1
102
RTVSPropertyOp28
 70
     1
102
RTVSPropertyOp29
 70
     1
102
RTVSPropertyOp30
 70
     1
102
RTVSPropertyOp31
 70
     1
102
RTVSPropertyOp32
 70
     1
  0
XRECORD
  5
83
102
{ACAD_REACTORS
330
82
102
}
330
82
100
AcDbXrecord
280
     1
102
RTVSPropertyOp0
 70
     1
102
RTVSPropertyOp1
 70
     1
102
RTVSPropertyOp2
 70
     1
102
RTVSPropertyOp3
 70
     1
102
RTVSPropertyOp4
 70
     1
102
RTVSPropertyOp5
 70
     1
102
RTVSPropertyOp6
 70
     1
102
RTVSPropertyOp7
 70
     1
102
RTVSPropertyOp8
 70
     1
102
RTVSPropertyOp9
 70
     1
102
RTVSPropertyOp10
 70
     1
102
RTVSPropertyOp11
 70
     1
102
RTVSPropertyOp12
 70
     1
102
RTVSPropertyOp13
 70
     1
102
RTVSPropertyOp14
 70
     1
102
RTVSPropertyOp15
 70
     1
102
RTVSPropertyOp16
 70
     1
102
RTVSPropertyOp17
 70
     1
102
RTVSPropertyOp18
 70
     1
102
RTVSPropertyOp19
 70
     1
102
RTVSPropertyOp20
 70
     1
102
RTVSPropertyOp21
 70
     1
102
RTVSPropertyOp22
 70
     1
102
RTVSPropertyOp23
 70
     1
102
RTVSPropertyOp24
 70
     1
102
RTVSPropertyOp25
 70
     1
102
RTVSPropertyOp26
 70
     1
102
RTVSPropertyOp27
 70
     1
102
RTVSPropertyOp28
 70
     1
102
RTVSPropertyOp29
 70
     1
102
RTVSPropertyOp30
 70
     1
102
RTVSPropertyOp31
 70
     1
102
RTVSPropertyOp32
 70
     1
  0
XRECORD
  5
97
102
{ACAD_REACTORS
330
96
102
}
330
96
100
AcDbXrecord
280
     1
102
RTVSPropertyOp0
 70
     1
102
RTVSPropertyOp1
 70
     1
102
RTVSPropertyOp2
 70
     1
102
RTVSPropertyOp3
 70
     1
102
RTVSPropertyOp4
 70
     1
102
RTVSPropertyOp5
 70
     1
102
RTVSPropertyOp6
 70
     1
102
RTVSPropertyOp7
 70
     1
102
RTVSPropertyOp8
 70
     1
102
RTVSPropertyOp9
 70
     1
102
RTVSPropertyOp10
 70
     1
102
RTVSPropertyOp11
 70
     1
102
RTVSPropertyOp12
 70
     1
102
RTVSPropertyOp13
 70
     1
102
RTVSPropertyOp14
 70
     1
102
RTVSPropertyOp15
 70
     1
102
RTVSPropertyOp16
 70
     1
102
RTVSPropertyOp17
 70
     1
102
RTVSPropertyOp18
 70
     1
102
RTVSPropertyOp19
 70
     1
102
RTVSPropertyOp20
 70
     1
102
RTVSPropertyOp21
 70
     1
102
RTVSPropertyOp22
 70
     1
102
RTVSPropertyOp23
 70
     1
102
RTVSPropertyOp24
 70
     1
102
RTVSPropertyOp25
 70
     1
102
RTVSPropertyOp26
 70
     1
102
RTVSPropertyOp27
 70
     1
102
RTVSPropertyOp28
 70
     1
102
RTVSPropertyOp29
 70
     1
102
RTVSPropertyOp30
 70
     1
102
RTVSPropertyOp31
 70
     1
102
RTVSPropertyOp32
 70
     1
  0
XRECORD
  5
8D
102
{ACAD_REACTORS
330
8C
102
}
330
8C
100
AcDbXrecord
280
     1
102
RTVSPropertyOp0
 70
     1
102
RTVSPropertyOp1
 70
     1
102
RTVSPropertyOp2
 70
     1
102
RTVSPropertyOp3
 70
     1
102
RTVSPropertyOp4
 70
     1
102
RTVSPropertyOp5
 70
     1
102
RTVSPropertyOp6
 70
     1
102
RTVSPropertyOp7
 70
     1
102
RTVSPropertyOp8
 70
     1
102
RTVSPropertyOp9
 70
     1
102
RTVSPropertyOp10
 70
     1
102
RTVSPropertyOp11
 70
     1
102
RTVSPropertyOp12
 70
     1
102
RTVSPropertyOp13
 70
     1
102
RTVSPropertyOp14
 70
     1
102
RTVSPropertyOp15
 70
     1
102
RTVSPropertyOp16
 70
     1
102
RTVSPropertyOp17
 70
     1
102
RTVSPropertyOp18
 70
     1
102
RTVSPropertyOp19
 70
     1
102
RTVSPropertyOp20
 70
     1
102
RTVSPropertyOp21
 70
     1
102
RTVSPropertyOp22
 70
     1
102
RTVSPropertyOp23
 70
     1
102
RTVSPropertyOp24
 70
     1
102
RTVSPropertyOp25
 70
     1
102
RTVSPropertyOp26
 70
     1
102
RTVSPropertyOp27
 70
     1
102
RTVSPropertyOp28
 70
     1
102
RTVSPropertyOp29
 70
     1
102
RTVSPropertyOp30
 70
     1
102
RTVSPropertyOp31
 70
     1
102
RTVSPropertyOp32
 70
     1
  0
XRECORD
  5
95
102
{ACAD_REACTORS
330
94
102
}
330
94
100
AcDbXrecord
280
     1
102
RTVSPropertyOp0
 70
     1
102
RTVSPropertyOp1
 70
     1
102
RTVSPropertyOp2
 70
     1
102
RTVSPropertyOp3
 70
     1
102
RTVSPropertyOp4
 70
     1
102
RTVSPropertyOp5
 70
     1
102
RTVSPropertyOp6
 70
     1
102
RTVSPropertyOp7
 70
     1
102
RTVSPropertyOp8
 70
     1
102
RTVSPropertyOp9
 70
     1
102
RTVSPropertyOp10
 70
     1
102
RTVSPropertyOp11
 70
     1
102
RTVSPropertyOp12
 70
     1
102
RTVSPropertyOp13
 70
     1
102
RTVSPropertyOp14
 70
     1
102
RTVSPropertyOp15
 70
     1
102
RTVSPropertyOp16
 70
     1
102
RTVSPropertyOp17
 70
     1
102
RTVSPropertyOp18
 70
     1
102
RTVSPropertyOp19
 70
     1
102
RTVSPropertyOp20
 70
     1
102
RTVSPropertyOp21
 70
     1
102
RTVSPropertyOp22
 70
     1
102
RTVSPropertyOp23
 70
     1
102
RTVSPropertyOp24
 70
     1
102
RTVSPropertyOp25
 70
     1
102
RTVSPropertyOp26
 70
     1
102
RTVSPropertyOp27
 70
     1
102
RTVSPropertyOp28
 70
     1
102
RTVSPropertyOp29
 70
     1
102
RTVSPropertyOp30
 70
     1
102
RTVSPropertyOp31
 70
     1
102
RTVSPropertyOp32
 70
     1
  0
ENDSEC
  0
EOF
