  0
SECTION
  2
HEADER
  9
$ACADVER
  1
AC1021
  9
$ACADMAINTVER
 70
    25
  9
$DWGCODEPAGE
  3
ANSI_1256
  9
$INSBASE
 10
0.0
 20
0.0
 30
0.0
  9
$EXTMIN
 10
-187.3954
 20
-115.0147
 30
0.0
  9
$EXTMAX
 10
-86.1543
 20
131.745
 30
0.0
  9
$LIMMIN
 10
0.0
 20
0.0
  9
$LIMMAX
 10
12.0
 20
9.0
  9
$ORTHOMODE
 70
     0
  9
$REGENMODE
 70
     1
  9
$FILLMODE
 70
     1
  9
$QTEXTMODE
 70
     0
  9
$MIRRTEXT
 70
     1
  9
$LTSCALE
 40
1.0
  9
$ATTMODE
 70
     1
  9
$TEXTSIZE
 40
0.2
  9
$TRACEWID
 40
0.05
  9
$TEXTSTYLE
  7
Standard
  9
$CLAYER
  8
0
  9
$CELTYPE
  6
ByLayer
  9
$CECOLOR
 62
   256
  9
$CELTSCALE
 40
1.0
  9
$DISPSILH
 70
     0
  9
$DIMSCALE
 40
1.0
  9
$DIMASZ
 40
0.18
  9
$DIMEXO
 40
0.0625
  9
$DIMDLI
 40
0.38
  9
$DIMRND
 40
0.0
  9
$DIMDLE
 40
0.0
  9
$DIMEXE
 40
0.18
  9
$DIMTP
 40
0.0
  9
$DIMTM
 40
0.0
  9
$DIMTXT
 40
0.18
  9
$DIMCEN
 40
0.09
  9
$DIMTSZ
 40
0.0
  9
$DIMTOL
 70
     0
  9
$DIMLIM
 70
     0
  9
$DIMTIH
 70
     1
  9
$DIMTOH
 70
     1
  9
$DIMSE1
 70
     0
  9
$DIMSE2
 70
     0
  9
$DIMTAD
 70
     0
  9
$DIMZIN
 70
     0
  9
$DIMBLK
  1

  9
$DIMASO
 70
     1
  9
$DIMSHO
 70
     1
  9
$DIMPOST
  1

  9
$DIMAPOST
  1

  9
$DIMALT
 70
     0
  9
$DIMALTD
 70
     2
  9
$DIMALTF
 40
25.4
  9
$DIMLFAC
 40
1.0
  9
$DIMTOFL
 70
     0
  9
$DIMTVP
 40
0.0
  9
$DIMTIX
 70
     0
  9
$DIMSOXD
 70
     0
  9
$DIMSAH
 70
     0
  9
$DIMBLK1
  1

  9
$DIMBLK2
  1

  9
$DIMSTYLE
  2
Standard
  9
$DIMCLRD
 70
     0
  9
$DIMCLRE
 70
     0
  9
$DIMCLRT
 70
     0
  9
$DIMTFAC
 40
1.0
  9
$DIMGAP
 40
0.09
  9
$DIMJUST
 70
     0
  9
$DIMSD1
 70
     0
  9
$DIMSD2
 70
     0
  9
$DIMTOLJ
 70
     1
  9
$DIMTZIN
 70
     0
  9
$DIMALTZ
 70
     0
  9
$DIMALTTZ
 70
     0
  9
$DIMUPT
 70
     0
  9
$DIMDEC
 70
     4
  9
$DIMTDEC
 70
     4
  9
$DIMALTU
 70
     2
  9
$DIMALTTD
 70
     2
  9
$DIMTXSTY
  7
Standard
  9
$DIMAUNIT
 70
     0
  9
$DIMADEC
 70
     0
  9
$DIMALTRND
 40
0.0
  9
$DIMAZIN
 70
     0
  9
$DIMDSEP
 70
    46
  9
$DIMATFIT
 70
     3
  9
$DIMFRAC
 70
     0
  9
$DIMLDRBLK
  1

  9
$DIMLUNIT
 70
     2
  9
$DIMLWD
 70
    -2
  9
$DIMLWE
 70
    -2
  9
$DIMTMOVE
 70
     0
  9
$DIMFXL
 40
1.0
  9
$DIMFXLON
 70
     0
  9
$DIMJOGANG
 40
0.7853981633974483
  9
$DIMTFILL
 70
     0
  9
$DIMTFILLCLR
 70
     0
  9
$DIMARCSYM
 70
     0
  9
$DIMLTYPE
  6

  9
$DIMLTEX1
  6

  9
$DIMLTEX2
  6

  9
$LUNITS
 70
     2
  9
$LUPREC
 70
     4
  9
$SKETCHINC
 40
0.1
  9
$FILLETRAD
 40
0.5
  9
$AUNITS
 70
     0
  9
$AUPREC
 70
     0
  9
$MENU
  1
.
  9
$ELEVATION
 40
0.0
  9
$PELEVATION
 40
0.0
  9
$THICKNESS
 40
0.0
  9
$LIMCHECK
 70
     0
  9
$CHAMFERA
 40
0.5
  9
$CHAMFERB
 40
0.5
  9
$CHAMFERC
 40
1.0
  9
$CHAMFERD
 40
0.0
  9
$SKPOLY
 70
     0
  9
$TDCREATE
 40
2458492.94106206
  9
$TDUCREATE
 40
2458492.774395394
  9
$TDUPDATE
 40
2458492.941062187
  9
$TDUUPDATE
 40
2458492.774395521
  9
$TDINDWG
 40
0.0000000116
  9
$TDUSRTIMER
 40
0.0000000116
  9
$USRTIMER
 70
     1
  9
$ANGBASE
 50
0.0
  9
$ANGDIR
 70
     0
  9
$PDMODE
 70
     0
  9
$PDSIZE
 40
0.0
  9
$PLINEWID
 40
0.0
  9
$SPLFRAME
 70
     0
  9
$SPLINETYPE
 70
     6
  9
$SPLINESEGS
 70
     8
  9
$HANDSEED
  5
B8
  9
$SURFTAB1
 70
     6
  9
$SURFTAB2
 70
     6
  9
$SURFTYPE
 70
     6
  9
$SURFU
 70
     6
  9
$SURFV
 70
     6
  9
$UCSBASE
  2

  9
$UCSNAME
  2

  9
$UCSORG
 10
0.0
 20
0.0
 30
0.0
  9
$UCSXDIR
 10
1.0
 20
0.0
 30
0.0
  9
$UCSYDIR
 10
0.0
 20
1.0
 30
0.0
  9
$UCSORTHOREF
  2

  9
$UCSORTHOVIEW
 70
     0
  9
$UCSORGTOP
 10
0.0
 20
0.0
 30
0.0
  9
$UCSORGBOTTOM
 10
0.0
 20
0.0
 30
0.0
  9
$UCSORGLEFT
 10
0.0
 20
0.0
 30
0.0
  9
$UCSORGRIGHT
 10
0.0
 20
0.0
 30
0.0
  9
$UCSORGFRONT
 10
0.0
 20
0.0
 30
0.0
  9
$UCSORGBACK
 10
0.0
 20
0.0
 30
0.0
  9
$PUCSBASE
  2

  9
$PUCSNAME
  2

  9
$PUCSORG
 10
0.0
 20
0.0
 30
0.0
  9
$PUCSXDIR
 10
1.0
 20
0.0
 30
0.0
  9
$PUCSYDIR
 10
0.0
 20
1.0
 30
0.0
  9
$PUCSORTHOREF
  2

  9
$PUCSORTHOVIEW
 70
     0
  9
$PUCSORGTOP
 10
0.0
 20
0.0
 30
0.0
  9
$PUCSORGBOTTOM
 10
0.0
 20
0.0
 30
0.0
  9
$PUCSORGLEFT
 10
0.0
 20
0.0
 30
0.0
  9
$PUCSORGRIGHT
 10
0.0
 20
0.0
 30
0.0
  9
$PUCSORGFRONT
 10
0.0
 20
0.0
 30
0.0
  9
$PUCSORGBACK
 10
0.0
 20
0.0
 30
0.0
  9
$USERI1
 70
     0
  9
$USERI2
 70
     0
  9
$USERI3
 70
     0
  9
$USERI4
 70
     0
  9
$USERI5
 70
     0
  9
$USERR1
 40
0.0
  9
$USERR2
 40
0.0
  9
$USERR3
 40
0.0
  9
$USERR4
 40
0.0
  9
$USERR5
 40
0.0
  9
$WORLDVIEW
 70
     1
  9
$SHADEDGE
 70
     3
  9
$SHADEDIF
 70
    70
  9
$TILEMODE
 70
     1
  9
$MAXACTVP
 70
    64
  9
$PINSBASE
 10
0.0
 20
0.0
 30
0.0
  9
$PLIMCHECK
 70
     0
  9
$PEXTMIN
 10
1.000000000000000E+20
 20
1.000000000000000E+20
 30
1.000000000000000E+20
  9
$PEXTMAX
 10
-1.000000000000000E+20
 20
-1.000000000000000E+20
 30
-1.000000000000000E+20
  9
$PLIMMIN
 10
0.0
 20
0.0
  9
$PLIMMAX
 10
12.0
 20
9.0
  9
$UNITMODE
 70
     0
  9
$VISRETAIN
 70
     1
  9
$PLINEGEN
 70
     0
  9
$PSLTSCALE
 70
     1
  9
$TREEDEPTH
 70
  3020
  9
$CMLSTYLE
  2
Standard
  9
$CMLJUST
 70
     0
  9
$CMLSCALE
 40
1.0
  9
$PROXYGRAPHICS
 70
     1
  9
$MEASUREMENT
 70
     0
  9
$CELWEIGHT
370
    -1
  9
$ENDCAPS
280
     0
  9
$JOINSTYLE
280
     0
  9
$LWDISPLAY
290
     0
  9
$INSUNITS
 70
     4
  9
$HYPERLINKBASE
  1

  9
$STYLESHEET
  1

  9
$XEDIT
290
     1
  9
$CEPSNTYPE
380
     0
  9
$PSTYLEMODE
290
     1
  9
$FINGERPRINTGUID
  2
{34A3AEC0-567C-49BC-9289-AA0F79F5B5E0}
  9
$VERSIONGUID
  2
{FAEB1C32-E019-11D5-929B-00C0DF256EC4}
  9
$EXTNAMES
290
     1
  9
$PSVPSCALE
 40
0.0
  9
$OLESTARTUP
290
     0
  9
$SORTENTS
280
   127
  9
$INDEXCTL
280
     0
  9
$HIDETEXT
280
     1
  9
$XCLIPFRAME
290
     0
  9
$HALOGAP
280
     0
  9
$OBSCOLOR
 70
   257
  9
$OBSLTYPE
280
     0
  9
$INTERSECTIONDISPLAY
280
     0
  9
$INTERSECTIONCOLOR
 70
   257
  9
$DIMASSOC
280
     2
  9
$PROJECTNAME
  1

  9
$CAMERADISPLAY
290
     0
  9
$LENSLENGTH
 40
50.0
  9
$CAMERAHEIGHT
 40
0.0
  9
$STEPSPERSEC
 40
2.0
  9
$STEPSIZE
 40
6.0
  9
$3DDWFPREC
 40
2.0
  9
$PSOLWIDTH
 40
0.25
  9
$PSOLHEIGHT
 40
4.0
  9
$LOFTANG1
 40
1.570796326794897
  9
$LOFTANG2
 40
1.570796326794897
  9
$LOFTMAG1
 40
0.0
  9
$LOFTMAG2
 40
0.0
  9
$LOFTPARAM
 70
     7
  9
$LOFTNORMALS
280
     1
  9
$LATITUDE
 40
37.795
  9
$LONGITUDE
 40
-122.394
  9
$NORTHDIRECTION
 40
0.0
  9
$TIMEZONE
 70
 -8000
  9
$LIGHTGLYPHDISPLAY
280
     1
  9
$TILEMODELIGHTSYNCH
280
     1
  9
$SOLIDHIST
280
     1
  9
$SHOWHIST
280
     1
  9
$DWFFRAME
280
     2
  9
$DGNFRAME
280
     2
  9
$REALWORLDSCALE
290
     1
  9
$INTERFERECOLOR
 62
   256
  9
$CSHADOW
280
     0
  9
$SHADOWPLANELOCATION
 40
0.0
  0
ENDSEC
  0
SECTION
  2
CLASSES
  0
CLASS
  1
ACDBDICTIONARYWDFLT
  2
AcDbDictionaryWithDefault
  3
ObjectDBX Classes
 90
        0
 91
        4
280
     0
281
     0
  0
CLASS
  1
VISUALSTYLE
  2
AcDbVisualStyle
  3
ObjectDBX Classes
 90
     4095
 91
        4
280
     0
281
     0
  0
CLASS
  1
MATERIAL
  2
AcDbMaterial
  3
ObjectDBX Classes
 90
     1153
 91
        4
280
     0
281
     0
  0
ENDSEC
  0
SECTION
  2
TABLES
  0
TABLE
  2
VPORT
  5
8
330
0
100
AcDbSymbolTable
 70
     1
  0
VPORT
  5
29
330
8
100
AcDbSymbolTableRecord
100
AcDbViewportTableRecord
  2
*Active
 70
     0
 10
0.0
 20
0.0
 11
1.0
 21
1.0
 12
10.42990654205607
 22
4.5
 13
0.0
 23
0.0
 14
0.5
 24
0.5
 15
0.5
 25
0.5
 16
0.0
 26
0.0
 36
1.0
 17
0.0
 27
0.0
 37
0.0
 40
9.0
 41
1.972972972850329
 42
50.0
 43
0.0
 44
0.0
 50
0.0
 51
0.0
 71
     0
 72
   100
 73
     1
 74
     3
 75
     0
 76
     0
 77
     0
 78
     0
281
     0
 65
     1
110
0.0
120
0.0
130
0.0
111
1.0
121
0.0
131
0.0
112
0.0
122
1.0
132
0.0
 79
     0
146
0.0
 60
     3
 61
     5
292
     1
282
     1
141
0.0
142
0.0
 63
   250
  0
ENDTAB
  0
TABLE
  2
LTYPE
  5
5
330
0
100
AcDbSymbolTable
 70
     1
  0
LTYPE
  5
14
330
5
100
AcDbSymbolTableRecord
100
AcDbLinetypeTableRecord
  2
ByBlock
 70
     0
  3

 72
    65
 73
     0
 40
0.0
  0
LTYPE
  5
15
330
5
100
AcDbSymbolTableRecord
100
AcDbLinetypeTableRecord
  2
ByLayer
 70
     0
  3

 72
    65
 73
     0
 40
0.0
  0
LTYPE
  5
16
330
5
100
AcDbSymbolTableRecord
100
AcDbLinetypeTableRecord
  2
Continuous
 70
     0
  3
Solid line
 72
    65
 73
     0
 40
0.0
  0
ENDTAB
  0
TABLE
  2
LAYER
  5
2
330
0
100
AcDbSymbolTable
 70
     3
  0
LAYER
  5
10
330
2
100
AcDbSymbolTableRecord
100
AcDbLayerTableRecord
  2
0
 70
     0
 62
     7
  6
Continuous
370
    -3
390
F
347
3E
  0
LAYER
  5
40
330
2
100
AcDbSymbolTableRecord
100
AcDbLayerTableRecord
  2
layer 1
 70
     0
 62
     7
  6
Continuous
370
    -3
390
F
347
3E
  0
LAYER
  5
95
330
2
100
AcDbSymbolTableRecord
100
AcDbLayerTableRecord
  2
Master Guides
 70
     0
 62
     7
  6
Continuous
370
    -3
390
F
347
3E
  0
ENDTAB
  0
TABLE
  2
STYLE
  5
3
330
0
100
AcDbSymbolTable
 70
     1
  0
STYLE
  5
11
330
3
100
AcDbSymbolTableRecord
100
AcDbTextStyleTableRecord
  2
Standard
 70
     0
 40
0.0
 41
1.0
 50
0.0
 71
     0
 42
0.2
  3
txt
  4

  0
ENDTAB
  0
TABLE
  2
VIEW
  5
6
330
0
100
AcDbSymbolTable
 70
     0
  0
ENDTAB
  0
TABLE
  2
UCS
  5
7
330
0
100
AcDbSymbolTable
 70
     0
  0
ENDTAB
  0
TABLE
  2
APPID
  5
9
330
0
100
AcDbSymbolTable
 70
     2
  0
APPID
  5
12
330
9
100
AcDbSymbolTableRecord
100
AcDbRegAppTableRecord
  2
ACAD
 70
     0
  0
APPID
  5
3F
330
9
100
AcDbSymbolTableRecord
100
AcDbRegAppTableRecord
  2
ODA
 70
     0
  0
ENDTAB
  0
TABLE
  2
DIMSTYLE
  5
A
330
0
100
AcDbSymbolTable
 70
     1
100
AcDbDimStyleTable
  0
DIMSTYLE
105
27
330
A
100
AcDbSymbolTableRecord
100
AcDbDimStyleTableRecord
  2
Standard
 70
     0
178
     0
340
11
  0
ENDTAB
  0
TABLE
  2
BLOCK_RECORD
  5
1
330
0
100
AcDbSymbolTable
 70
     1
  0
BLOCK_RECORD
  5
1F
330
1
100
AcDbSymbolTableRecord
100
AcDbBlockTableRecord
  2
*Model_Space
340
22
 70
     0
280
     1
281
     0
  0
BLOCK_RECORD
  5
1B
330
1
100
AcDbSymbolTableRecord
100
AcDbBlockTableRecord
  2
*Paper_Space
340
1E
 70
     0
280
     1
281
     0
  0
BLOCK_RECORD
  5
23
330
1
100
AcDbSymbolTableRecord
100
AcDbBlockTableRecord
  2
*Paper_Space0
340
26
 70
     0
280
     1
281
     0
  0
ENDTAB
  0
ENDSEC
  0
SECTION
  2
BLOCKS
  0
BLOCK
  5
20
330
1F
100
AcDbEntity
  8
0
100
AcDbBlockBegin
  2
*Model_Space
 70
     0
 10
0.0
 20
0.0
 30
0.0
  3
*Model_Space
  1

  0
ENDBLK
  5
21
330
1F
100
AcDbEntity
  8
0
100
AcDbBlockEnd
  0
BLOCK
  5
1C
330
1B
100
AcDbEntity
 67
     1
  8
0
100
AcDbBlockBegin
  2
*Paper_Space
 70
     0
 10
0.0
 20
0.0
 30
0.0
  3
*Paper_Space
  1

  0
ENDBLK
  5
1D
330
1B
100
AcDbEntity
 67
     1
  8
0
100
AcDbBlockEnd
  0
BLOCK
  5
24
330
23
100
AcDbEntity
  8
0
100
AcDbBlockBegin
  2
*Paper_Space0
 70
     0
 10
0.0
 20
0.0
 30
0.0
  3
*Paper_Space0
  1

  0
ENDBLK
  5
25
330
23
100
AcDbEntity
  8
0
100
AcDbBlockEnd
  0
ENDSEC
  0
SECTION
  2
ENTITIES
  0
LWPOLYLINE
  5
41
330
1F
100
AcDbEntity
  8
layer 1
100
AcDbPolyline
 90
        5
 70
     1
 43
0.0
 10
-187.3954
 20
-115.0147
 10
-86.1544
 20
-115.0147
 10
-86.1544
 20
131.7449
 10
-187.3954
 20
131.7449
 10
-187.3954
 20
-115.0147
  0
SPLINE
  5
42
330
1F
100
AcDbEntity
  8
layer 1
 62
     7
100
AcDbSpline
210
0.0
220
0.0
230
1.0
 70
    11
 71
     3
 72
    32
 73
    28
 74
     0
 42
0.0000000001
 43
0.0000000001
 12
1.0
 22
0.0
 32
0.0
 13
1.0
 23
0.0
 33
0.0
 40
0.0
 40
0.0
 40
0.0
 40
0.0
 40
0.125
 40
0.125
 40
0.125
 40
0.125
 40
0.25
 40
0.25
 40
0.25
 40
0.25
 40
0.375
 40
0.375
 40
0.375
 40
0.375
 40
0.5
 40
0.5
 40
0.5
 40
0.5
 40
0.625
 40
0.625
 40
0.625
 40
0.625
 40
0.75
 40
0.75
 40
0.75
 40
0.75
 40
1.0
 40
1.0
 40
1.0
 40
1.0
 10
-178.8665
 20
16.538
 30
0.0
 10
-174.4252
 20
11.9029
 30
0.0
 10
-168.2728
 20
12.5347
 30
0.0
 10
-167.0958
 20
17.8329
 30
0.0
 10
-167.0958
 20
17.8329
 30
0.0
 10
-166.4531
 20
19.7118
 30
0.0
 10
-165.3494
 20
19.8068
 30
0.0
 10
-164.8549
 20
18.026
 30
0.0
 10
-164.8549
 20
18.026
 30
0.0
 10
-163.4139
 20
9.0411
 30
0.0
 10
-154.692
 20
11.0422
 30
0.0
 10
-154.6168
 20
9.0411
 30
0.0
 10
-154.6168
 20
9.0411
 30
0.0
 10
-154.692
 20
7.0398
 30
0.0
 10
-163.4138
 20
9.0411
 30
0.0
 10
-164.8549
 20
0.0562
 30
0.0
 10
-164.8549
 20
0.0562
 30
0.0
 10
-165.3494
 20
-1.7247
 30
0.0
 10
-166.4531
 20
-1.6296
 30
0.0
 10
-167.0958
 20
0.2493
 30
0.0
 10
-167.0958
 20
0.2493
 30
0.0
 10
-168.2727
 20
5.5474
 30
0.0
 10
-174.4252
 20
6.1792
 30
0.0
 10
-178.8665
 20
1.5442
 30
0.0
 10
-178.8665
 20
1.5442
 30
0.0
 10
-178.8665
 20
1.5442
 30
0.0
 10
-178.8665
 20
16.538
 30
0.0
 10
-178.8665
 20
16.538
 30
0.0
  0
SPLINE
  5
43
330
1F
100
AcDbEntity
  8
layer 1
 62
     7
100
AcDbSpline
210
0.0
220
0.0
230
1.0
 70
    11
 71
     3
 72
    20
 73
    16
 74
     0
 42
0.0000000001
 43
0.0000000001
 12
1.0
 22
0.0
 32
0.0
 13
1.0
 23
0.0
 33
0.0
 40
0.0
 40
0.0
 40
0.0
 40
0.0
 40
0.2
 40
0.2
 40
0.2
 40
0.2
 40
0.4
 40
0.4
 40
0.4
 40
0.4
 40
0.6
 40
0.6
 40
0.6
 40
0.6
 40
1.0
 40
1.0
 40
1.0
 40
1.0
 10
-178.9072
 20
18.8514
 30
0.0
 10
-178.9072
 20
18.8514
 30
0.0
 10
-178.9072
 20
36.6051
 30
0.0
 10
-178.9072
 20
36.6051
 30
0.0
 10
-178.9072
 20
36.6051
 30
0.0
 10
-177.1139
 20
35.1758
 30
0.0
 10
-175.9188
 20
34.7265
 30
0.0
 10
-174.4483
 20
35.3657
 30
0.0
 10
-174.4483
 20
35.3657
 30
0.0
 10
-173.3471
 20
26.7158
 30
0.0
 10
-171.0255
 20
27.668
 30
0.0
 10
-170.589
 20
21.938
 30
0.0
 10
-170.589
 20
21.938
 30
0.0
 10
-171.0409
 20
15.3633
 30
0.0
 10
-175.389
 20
15.0198
 30
0.0
 10
-178.9072
 20
18.8514
 30
0.0
  0
SPLINE
  5
44
330
1F
100
AcDbEntity
  8
layer 1
 62
     7
100
AcDbSpline
210
0.0
220
0.0
230
1.0
 70
    11
 71
     3
 72
    20
 73
    16
 74
     0
 42
0.0000000001
 43
0.0000000001
 12
1.0
 22
0.0
 32
0.0
 13
1.0
 23
0.0
 33
0.0
 40
0.0
 40
0.0
 40
0.0
 40
0.0
 40
0.2
 40
0.2
 40
0.2
 40
0.2
 40
0.4
 40
0.4
 40
0.4
 40
0.4
 40
0.6
 40
0.6
 40
0.6
 40
0.6
 40
1.0
 40
1.0
 40
1.0
 40
1.0
 10
-164.4126
 20
25.6899
 30
0.0
 10
-161.5852
 20
24.8821
 30
0.0
 10
-158.6434
 20
26.6449
 30
0.0
 10
-159.2994
 20
30.1448
 30
0.0
 10
-159.2994
 20
30.1448
 30
0.0
 10
-158.0334
 20
29.711
 30
0.0
 10
-156.0536
 20
29.9326
 30
0.0
 10
-154.2033
 20
31.6858
 30
0.0
 10
-154.2033
 20
31.6858
 30
0.0
 10
-152.0969
 20
30.3514
 30
0.0
 10
-153.7807
 20
27.1446
 30
0.0
 10
-154.7601
 20
25.7938
 30
0.0
 10
-154.7601
 20
25.7938
 30
0.0
 10
-157.3478
 20
22.3513
 30
0.0
 10
-165.0788
 20
21.1612
 30
0.0
 10
-164.4126
 20
25.6899
 30
0.0
  0
SPLINE
  5
45
330
1F
100
AcDbEntity
  8
layer 1
 62
     7
100
AcDbSpline
210
0.0
220
0.0
230
1.0
 70
    11
 71
     3
 72
    20
 73
    16
 74
     0
 42
0.0000000001
 43
0.0000000001
 12
1.0
 22
0.0
 32
0.0
 13
1.0
 23
0.0
 33
0.0
 40
0.0
 40
0.0
 40
0.0
 40
0.0
 40
0.2
 40
0.2
 40
0.2
 40
0.2
 40
0.4
 40
0.4
 40
0.4
 40
0.4
 40
0.6
 40
0.6
 40
0.6
 40
0.6
 40
1.0
 40
1.0
 40
1.0
 40
1.0
 10
-142.7141
 20
56.0848
 30
0.0
 10
-141.9247
 20
60.0196
 30
0.0
 10
-138.43
 20
61.6252
 30
0.0
 10
-136.2979
 20
58.4816
 30
0.0
 10
-136.2979
 20
58.4816
 30
0.0
 10
-134.1659
 20
61.6251
 30
0.0
 10
-130.6712
 20
60.0196
 30
0.0
 10
-129.8818
 20
56.0848
 30
0.0
 10
-129.8818
 20
56.0848
 30
0.0
 10
-128.7035
 20
45.6213
 30
0.0
 10
-135.2036
 20
37.7236
 30
0.0
 10
-136.2979
 20
27.9431
 30
0.0
 10
-136.2979
 20
27.9431
 30
0.0
 10
-137.3923
 20
37.7236
 30
0.0
 10
-143.8923
 20
45.6213
 30
0.0
 10
-142.7141
 20
56.0848
 30
0.0
  0
SPLINE
  5
46
330
1F
100
AcDbEntity
  8
layer 1
 62
     7
100
AcDbSpline
210
0.0
220
0.0
230
1.0
 70
    11
 71
     3
 72
    24
 73
    20
 74
     0
 42
0.0000000001
 43
0.0000000001
 12
1.0
 22
0.0
 32
0.0
 13
1.0
 23
0.0
 33
0.0
 40
0.0
 40
0.0
 40
0.0
 40
0.0
 40
0.1666666666666667
 40
0.1666666666666667
 40
0.1666666666666667
 40
0.1666666666666667
 40
0.3333333333333333
 40
0.3333333333333333
 40
0.3333333333333333
 40
0.3333333333333333
 40
0.5
 40
0.5
 40
0.5
 40
0.5
 40
0.6666666666666666
 40
0.6666666666666666
 40
0.6666666666666666
 40
0.6666666666666666
 40
1.0
 40
1.0
 40
1.0
 40
1.0
 10
-171.0628
 20
47.1893
 30
0.0
 10
-170.1646
 20
48.092
 30
0.0
 10
-169.7236
 20
48.0996
 30
0.0
 10
-169.5189
 20
46.6773
 30
0.0
 10
-169.5189
 20
46.6773
 30
0.0
 10
-170.6246
 20
39.8826
 30
0.0
 10
-168.1409
 20
32.706
 30
0.0
 10
-162.7733
 20
31.2061
 30
0.0
 10
-162.7733
 20
31.2061
 30
0.0
 10
-160.9187
 20
30.5028
 30
0.0
 10
-160.8279
 20
30.2647
 30
0.0
 10
-162.1148
 20
29.4801
 30
0.0
 10
-162.1148
 20
29.4801
 30
0.0
 10
-171.7789
 20
25.4903
 30
0.0
 10
-175.3711
 20
42.9297
 30
0.0
 10
-171.0628
 20
47.1894
 30
0.0
 10
-171.0628
 20
47.1894
 30
0.0
 10
-171.0628
 20
47.1894
 30
0.0
 10
-171.0628
 20
47.1893
 30
0.0
 10
-171.0628
 20
47.1893
 30
0.0
  0
SPLINE
  5
47
330
1F
100
AcDbEntity
  8
layer 1
 62
     7
100
AcDbSpline
210
0.0
220
0.0
230
1.0
 70
    11
 71
     3
 72
    20
 73
    16
 74
     0
 42
0.0000000001
 43
0.0000000001
 12
1.0
 22
0.0
 32
0.0
 13
1.0
 23
0.0
 33
0.0
 40
0.0
 40
0.0
 40
0.0
 40
0.0
 40
0.2
 40
0.2
 40
0.2
 40
0.2
 40
0.4
 40
0.4
 40
0.4
 40
0.4
 40
0.6
 40
0.6
 40
0.6
 40
0.6
 40
1.0
 40
1.0
 40
1.0
 40
1.0
 10
-153.5758
 20
32.8397
 30
0.0
 10
-151.2277
 20
35.957
 30
0.0
 10
-150.3747
 20
39.3468
 30
0.0
 10
-151.4099
 20
44.4906
 30
0.0
 10
-151.4099
 20
44.4906
 30
0.0
 10
-145.8931
 20
44.6027
 30
0.0
 10
-141.2455
 20
38.6886
 30
0.0
 10
-140.3021
 20
33.6622
 30
0.0
 10
-140.3021
 20
33.6622
 30
0.0
 10
-144.5278
 20
35.4292
 30
0.0
 10
-148.9185
 20
34.7728
 30
0.0
 10
-150.8688
 20
30.1547
 30
0.0
 10
-150.8688
 20
30.1547
 30
0.0
 10
-151.245
 20
31.2205
 30
0.0
 10
-152.4726
 20
32.5908
 30
0.0
 10
-153.5758
 20
32.8397
 30
0.0
  0
SPLINE
  5
48
330
1F
100
AcDbEntity
  8
layer 1
 62
     7
100
AcDbSpline
210
0.0
220
0.0
230
1.0
 70
    11
 71
     3
 72
    28
 73
    24
 74
     0
 42
0.0000000001
 43
0.0000000001
 12
1.0
 22
0.0
 32
0.0
 13
1.0
 23
0.0
 33
0.0
 40
0.0
 40
0.0
 40
0.0
 40
0.0
 40
0.1428571428571428
 40
0.1428571428571428
 40
0.1428571428571428
 40
0.1428571428571428
 40
0.2857142857142857
 40
0.2857142857142857
 40
0.2857142857142857
 40
0.2857142857142857
 40
0.4285714285714285
 40
0.4285714285714285
 40
0.4285714285714285
 40
0.4285714285714285
 40
0.5714285714285714
 40
0.5714285714285714
 40
0.5714285714285714
 40
0.5714285714285714
 40
0.7142857142857143
 40
0.7142857142857143
 40
0.7142857142857143
 40
0.7142857142857143
 40
1.0
 40
1.0
 40
1.0
 40
1.0
 10
-162.5986
 20
37.3469
 30
0.0
 10
-164.8012
 20
38.745
 30
0.0
 10
-167.6923
 20
44.3153
 30
0.0
 10
-166.3528
 20
49.1017
 30
0.0
 10
-166.3528
 20
49.1017
 30
0.0
 10
-165.0612
 20
46.2745
 30
0.0
 10
-161.7991
 20
46.2724
 30
0.0
 10
-161.1571
 20
47.1186
 30
0.0
 10
-161.1571
 20
47.1186
 30
0.0
 10
-160.9723
 20
45.9504
 30
0.0
 10
-159.7258
 20
43.4415
 30
0.0
 10
-159.4601
 20
43.4415
 30
0.0
 10
-159.4601
 20
43.4415
 30
0.0
 10
-158.5202
 20
47.2912
 30
0.0
 10
-154.2051
 20
46.9029
 30
0.0
 10
-153.8241
 20
43.9404
 30
0.0
 10
-153.8241
 20
43.9404
 30
0.0
 10
-153.1257
 20
38.9127
 30
0.0
 10
-158.002
 20
34.6539
 30
0.0
 10
-162.5986
 20
37.347
 30
0.0
 10
-162.5986
 20
37.347
 30
0.0
 10
-162.5986
 20
37.347
 30
0.0
 10
-162.5986
 20
37.3469
 30
0.0
 10
-162.5986
 20
37.3469
 30
0.0
  0
SPLINE
  5
49
330
1F
100
AcDbEntity
  8
layer 1
 62
     7
100
AcDbSpline
210
0.0
220
0.0
230
1.0
 70
    11
 71
     3
 72
    24
 73
    20
 74
     0
 42
0.0000000001
 43
0.0000000001
 12
1.0
 22
0.0
 32
0.0
 13
1.0
 23
0.0
 33
0.0
 40
0.0
 40
0.0
 40
0.0
 40
0.0
 40
0.1666666666666667
 40
0.1666666666666667
 40
0.1666666666666667
 40
0.1666666666666667
 40
0.3333333333333333
 40
0.3333333333333333
 40
0.3333333333333333
 40
0.3333333333333333
 40
0.5
 40
0.5
 40
0.5
 40
0.5
 40
0.6666666666666666
 40
0.6666666666666666
 40
0.6666666666666666
 40
0.6666666666666666
 40
1.0
 40
1.0
 40
1.0
 40
1.0
 10
-178.9072
 20
60.7091
 30
0.0
 10
-177.2215
 20
56.52
 30
0.0
 10
-174.0623
 20
55.3957
 30
0.0
 10
-170.3237
 20
56.1965
 30
0.0
 10
-170.3237
 20
56.1965
 30
0.0
 10
-168.8014
 20
56.6194
 30
0.0
 10
-168.1285
 20
55.6565
 30
0.0
 10
-169.1775
 20
54.341
 30
0.0
 10
-169.1775
 20
54.341
 30
0.0
 10
-175.4827
 20
50.3568
 30
0.0
 10
-172.9051
 20
44.3574
 30
0.0
 10
-175.2423
 20
39.5292
 30
0.0
 10
-175.2423
 20
39.5292
 30
0.0
 10
-175.7889
 20
37.3146
 30
0.0
 10
-178.9072
 20
37.3496
 30
0.0
 10
-178.9072
 20
38.3108
 30
0.0
 10
-178.9072
 20
38.3108
 30
0.0
 10
-178.9072
 20
38.3108
 30
0.0
 10
-178.9072
 20
60.7091
 30
0.0
 10
-178.9072
 20
60.7091
 30
0.0
  0
SPLINE
  5
4A
330
1F
100
AcDbEntity
  8
layer 1
 62
     7
100
AcDbSpline
210
0.0
220
0.0
230
1.0
 70
    11
 71
     3
 72
    20
 73
    16
 74
     0
 42
0.0000000001
 43
0.0000000001
 12
1.0
 22
0.0
 32
0.0
 13
1.0
 23
0.0
 33
0.0
 40
0.0
 40
0.0
 40
0.0
 40
0.0
 40
0.2
 40
0.2
 40
0.2
 40
0.2
 40
0.4
 40
0.4
 40
0.4
 40
0.4
 40
0.6
 40
0.6
 40
0.6
 40
0.6
 40
1.0
 40
1.0
 40
1.0
 40
1.0
 10
-163.1329
 20
54.4228
 30
0.0
 10
-162.1189
 20
58.6119
 30
0.0
 10
-154.6959
 20
60.0933
 30
0.0
 10
-153.1579
 20
55.2782
 30
0.0
 10
-153.1579
 20
55.2782
 30
0.0
 10
-152.8547
 20
54.0703
 30
0.0
 10
-153.3886
 20
53.7796
 30
0.0
 10
-154.958
 20
54.2975
 30
0.0
 10
-154.958
 20
54.2975
 30
0.0
 10
-159.6029
 20
55.0944
 30
0.0
 10
-160.643
 20
51.5878
 30
0.0
 10
-161.2707
 20
49.564
 30
0.0
 10
-161.2707
 20
49.564
 30
0.0
 10
-162.7075
 20
50.7471
 30
0.0
 10
-163.507
 20
52.761
 30
0.0
 10
-163.1329
 20
54.4228
 30
0.0
  0
SPLINE
  5
4B
330
1F
100
AcDbEntity
  8
layer 1
 62
     7
100
AcDbSpline
210
0.0
220
0.0
230
1.0
 70
    11
 71
     3
 72
    44
 73
    40
 74
     0
 42
0.0000000001
 43
0.0000000001
 12
1.0
 22
0.0
 32
0.0
 13
1.0
 23
0.0
 33
0.0
 40
0.0
 40
0.0
 40
0.0
 40
0.0
 40
0.0909090909090909
 40
0.0909090909090909
 40
0.0909090909090909
 40
0.0909090909090909
 40
0.1818181818181818
 40
0.1818181818181818
 40
0.1818181818181818
 40
0.1818181818181818
 40
0.2727272727272727
 40
0.2727272727272727
 40
0.2727272727272727
 40
0.2727272727272727
 40
0.3636363636363636
 40
0.3636363636363636
 40
0.3636363636363636
 40
0.3636363636363636
 40
0.4545454545454545
 40
0.4545454545454545
 40
0.4545454545454545
 40
0.4545454545454545
 40
0.5454545454545454
 40
0.5454545454545454
 40
0.5454545454545454
 40
0.5454545454545454
 40
0.6363636363636364
 40
0.6363636363636364
 40
0.6363636363636364
 40
0.6363636363636364
 40
0.7272727272727273
 40
0.7272727272727273
 40
0.7272727272727273
 40
0.7272727272727273
 40
0.8181818181818182
 40
0.8181818181818182
 40
0.8181818181818182
 40
0.8181818181818182
 40
1.0
 40
1.0
 40
1.0
 40
1.0
 10
-146.6897
 20
60.3937
 30
0.0
 10
-146.6897
 20
58.165
 30
0.0
 10
-147.6242
 20
57.2144
 30
0.0
 10
-148.8326
 20
58.214
 30
0.0
 10
-148.8326
 20
58.214
 30
0.0
 10
-150.44
 20
59.5437
 30
0.0
 10
-151.9634
 20
64.2135
 30
0.0
 10
-151.9913
 20
67.8963
 30
0.0
 10
-151.9913
 20
67.8963
 30
0.0
 10
-152.0344
 20
73.5989
 30
0.0
 10
-148.3663
 20
76.7284
 30
0.0
 10
-145.1711
 20
73.715
 30
0.0
 10
-145.1711
 20
73.715
 30
0.0
 10
-142.1059
 20
70.6602
 30
0.0
 10
-137.8176
 20
72.2782
 30
0.0
 10
-136.2979
 20
75.7622
 30
0.0
 10
-136.2979
 20
75.7622
 30
0.0
 10
-134.7783
 20
72.2782
 30
0.0
 10
-130.4899
 20
70.6603
 30
0.0
 10
-127.4247
 20
73.715
 30
0.0
 10
-127.4247
 20
73.715
 30
0.0
 10
-124.2296
 20
76.7284
 30
0.0
 10
-120.5615
 20
73.5989
 30
0.0
 10
-120.6046
 20
67.8963
 30
0.0
 10
-120.6046
 20
67.8963
 30
0.0
 10
-120.6323
 20
64.2135
 30
0.0
 10
-122.1559
 20
59.5437
 30
0.0
 10
-123.7632
 20
58.214
 30
0.0
 10
-123.7632
 20
58.214
 30
0.0
 10
-124.9716
 20
57.2144
 30
0.0
 10
-125.9062
 20
58.165
 30
0.0
 10
-125.9062
 20
60.3937
 30
0.0
 10
-125.9062
 20
60.3937
 30
0.0
 10
-126.0332
 20
67.2733
 30
0.0
 10
-134.1441
 20
65.0369
 30
0.0
 10
-136.2979
 20
60.1519
 30
0.0
 10
-136.2979
 20
60.1519
 30
0.0
 10
-138.4517
 20
65.0369
 30
0.0
 10
-146.5627
 20
67.2733
 30
0.0
 10
-146.6897
 20
60.3937
 30
0.0
  0
SPLINE
  5
4C
330
1F
100
AcDbEntity
  8
layer 1
 62
     7
100
AcDbSpline
210
0.0
220
0.0
230
1.0
 70
    11
 71
     3
 72
    24
 73
    20
 74
     0
 42
0.0000000001
 43
0.0000000001
 12
1.0
 22
0.0
 32
0.0
 13
1.0
 23
0.0
 33
0.0
 40
0.0
 40
0.0
 40
0.0
 40
0.0
 40
0.1666666666666667
 40
0.1666666666666667
 40
0.1666666666666667
 40
0.1666666666666667
 40
0.3333333333333333
 40
0.3333333333333333
 40
0.3333333333333333
 40
0.3333333333333333
 40
0.5
 40
0.5
 40
0.5
 40
0.5
 40
0.6666666666666666
 40
0.6666666666666666
 40
0.6666666666666666
 40
0.6666666666666666
 40
1.0
 40
1.0
 40
1.0
 40
1.0
 10
-170.2909
 20
58.9987
 30
0.0
 10
-172.922
 20
60.1663
 30
0.0
 10
-174.2155
 20
62.9392
 30
0.0
 10
-173.1186
 20
65.0603
 30
0.0
 10
-173.1186
 20
65.0603
 30
0.0
 10
-172.0653
 20
66.9645
 30
0.0
 10
-169.068
 20
67.2091
 30
0.0
 10
-166.9852
 20
65.8203
 30
0.0
 10
-166.9852
 20
65.8203
 30
0.0
 10
-167.3092
 20
64.8321
 30
0.0
 10
-167.1328
 20
63.9254
 30
0.0
 10
-166.6894
 20
63.1995
 30
0.0
 10
-166.6894
 20
63.1995
 30
0.0
 10
-163.4322
 20
66.8888
 30
0.0
 10
-157.6584
 20
62.4364
 30
0.0
 10
-153.9922
 20
59.1438
 30
0.0
 10
-153.9922
 20
59.1438
 30
0.0
 10
-163.1606
 20
61.1937
 30
0.0
 10
-165.0464
 20
57.1707
 30
0.0
 10
-170.2909
 20
58.9987
 30
0.0
  0
SPLINE
  5
4D
330
1F
100
AcDbEntity
  8
layer 1
 62
     7
100
AcDbSpline
210
0.0
220
0.0
230
1.0
 70
    11
 71
     3
 72
    20
 73
    16
 74
     0
 42
0.0000000001
 43
0.0000000001
 12
1.0
 22
0.0
 32
0.0
 13
1.0
 23
0.0
 33
0.0
 40
0.0
 40
0.0
 40
0.0
 40
0.0
 40
0.2
 40
0.2
 40
0.2
 40
0.2
 40
0.4
 40
0.4
 40
0.4
 40
0.4
 40
0.6
 40
0.6
 40
0.6
 40
0.6
 40
1.0
 40
1.0
 40
1.0
 40
1.0
 10
-178.9072
 20
74.7743
 30
0.0
 10
-171.8254
 20
81.9744
 30
0.0
 10
-163.5169
 20
76.4119
 30
0.0
 10
-160.3323
 20
69.3454
 30
0.0
 10
-160.3323
 20
69.3454
 30
0.0
 10
-163.7093
 20
70.7668
 30
0.0
 10
-166.6262
 20
69.4987
 30
0.0
 10
-166.7675
 20
67.0961
 30
0.0
 10
-166.7675
 20
67.0961
 30
0.0
 10
-170.565
 20
72.0061
 30
0.0
 10
-178.0539
 20
69.0998
 30
0.0
 10
-178.9072
 20
63.2508
 30
0.0
 10
-178.9072
 20
63.2508
 30
0.0
 10
-178.9072
 20
63.2508
 30
0.0
 10
-178.9072
 20
74.7743
 30
0.0
 10
-178.9072
 20
74.7743
 30
0.0
  0
SPLINE
  5
4E
330
1F
100
AcDbEntity
  8
layer 1
 62
     7
100
AcDbSpline
210
0.0
220
0.0
230
1.0
 70
    11
 71
     3
 72
    48
 73
    44
 74
     0
 42
0.0000000001
 43
0.0000000001
 12
1.0
 22
0.0
 32
0.0
 13
1.0
 23
0.0
 33
0.0
 40
0.0
 40
0.0
 40
0.0
 40
0.0
 40
0.0833333333333333
 40
0.0833333333333333
 40
0.0833333333333333
 40
0.0833333333333333
 40
0.1666666666666667
 40
0.1666666666666667
 40
0.1666666666666667
 40
0.1666666666666667
 40
0.25
 40
0.25
 40
0.25
 40
0.25
 40
0.3333333333333333
 40
0.3333333333333333
 40
0.3333333333333333
 40
0.3333333333333333
 40
0.4166666666666667
 40
0.4166666666666667
 40
0.4166666666666667
 40
0.4166666666666667
 40
0.5
 40
0.5
 40
0.5
 40
0.5
 40
0.5833333333333334
 40
0.5833333333333334
 40
0.5833333333333334
 40
0.5833333333333334
 40
0.6666666666666666
 40
0.6666666666666666
 40
0.6666666666666666
 40
0.6666666666666666
 40
0.75
 40
0.75
 40
0.75
 40
0.75
 40
0.8333333333333334
 40
0.8333333333333334
 40
0.8333333333333334
 40
0.8333333333333334
 40
1.0
 40
1.0
 40
1.0
 40
1.0
 10
-166.4488
 20
83.8256
 30
0.0
 10
-167.9775
 20
87.9511
 30
0.0
 10
-166.8225
 20
92.3756
 30
0.0
 10
-163.9972
 20
93.2168
 30
0.0
 10
-163.9972
 20
93.2168
 30
0.0
 10
-162.7923
 20
93.5755
 30
0.0
 10
-162.3591
 20
93.0315
 30
0.0
 10
-162.8131
 20
91.7294
 30
0.0
 10
-162.8131
 20
91.7294
 30
0.0
 10
-164.1381
 20
85.447
 30
0.0
 10
-159.2404
 20
81.2901
 30
0.0
 10
-154.4588
 20
80.9507
 30
0.0
 10
-154.4588
 20
80.9507
 30
0.0
 10
-152.1525
 20
80.7927
 30
0.0
 10
-151.4485
 20
80.8812
 30
0.0
 10
-150.0327
 20
81.5075
 30
0.0
 10
-150.0327
 20
81.5075
 30
0.0
 10
-147.4918
 20
82.6592
 30
0.0
 10
-146.4107
 20
82.0877
 30
0.0
 10
-147.274
 20
79.859
 30
0.0
 10
-147.274
 20
79.859
 30
0.0
 10
-147.7243
 20
78.7129
 30
0.0
 10
-147.7635
 20
78.2143
 30
0.0
 10
-147.4567
 20
77.5408
 30
0.0
 10
-147.4567
 20
77.5408
 30
0.0
 10
-146.9332
 20
76.3919
 30
0.0
 10
-147.3701
 20
76.2092
 30
0.0
 10
-149.144
 20
76.835
 30
0.0
 10
-149.144
 20
76.835
 30
0.0
 10
-151.5963
 20
77.8461
 30
0.0
 10
-154.6971
 20
77.6889
 30
0.0
 10
-155.6062
 20
74.5599
 30
0.0
 10
-155.6062
 20
74.5599
 30
0.0
 10
-155.9448
 20
73.5421
 30
0.0
 10
-156.2028
 20
73.3175
 30
0.0
 10
-157.1391
 20
73.2252
 30
0.0
 10
-157.1391
 20
73.2252
 30
0.0
 10
-160.2955
 20
73.7937
 30
0.0
 10
-165.0814
 20
80.3103
 30
0.0
 10
-166.4489
 20
83.8256
 30
0.0
 10
-166.4489
 20
83.8256
 30
0.0
 10
-166.4489
 20
83.8256
 30
0.0
 10
-166.4488
 20
83.8256
 30
0.0
 10
-166.4488
 20
83.8256
 30
0.0
  0
SPLINE
  5
4F
330
1F
100
AcDbEntity
  8
layer 1
 62
     7
100
AcDbSpline
210
0.0
220
0.0
230
1.0
 70
    11
 71
     3
 72
    24
 73
    20
 74
     0
 42
0.0000000001
 43
0.0000000001
 12
1.0
 22
0.0
 32
0.0
 13
1.0
 23
0.0
 33
0.0
 40
0.0
 40
0.0
 40
0.0
 40
0.0
 40
0.1666666666666667
 40
0.1666666666666667
 40
0.1666666666666667
 40
0.1666666666666667
 40
0.3333333333333333
 40
0.3333333333333333
 40
0.3333333333333333
 40
0.3333333333333333
 40
0.5
 40
0.5
 40
0.5
 40
0.5
 40
0.6666666666666666
 40
0.6666666666666666
 40
0.6666666666666666
 40
0.6666666666666666
 40
1.0
 40
1.0
 40
1.0
 40
1.0
 10
-178.975
 20
77.7872
 30
0.0
 10
-178.975
 20
77.7872
 30
0.0
 10
-178.975
 20
85.611
 30
0.0
 10
-178.975
 20
85.611
 30
0.0
 10
-178.975
 20
85.611
 30
0.0
 10
-177.3925
 20
89.9352
 30
0.0
 10
-174.0687
 20
89.7859
 30
0.0
 10
-170.2916
 20
83.652
 30
0.0
 10
-170.2916
 20
83.652
 30
0.0
 10
-169.6041
 20
82.3227
 30
0.0
 10
-170.057
 20
81.7965
 30
0.0
 10
-171.4656
 20
82.2874
 30
0.0
 10
-171.4656
 20
82.2874
 30
0.0
 10
-174.0137
 20
83.1526
 30
0.0
 10
-176.7867
 20
81.284
 30
0.0
 10
-178.975
 20
77.787
 30
0.0
 10
-178.975
 20
77.787
 30
0.0
 10
-178.975
 20
77.787
 30
0.0
 10
-178.975
 20
77.7872
 30
0.0
 10
-178.975
 20
77.7872
 30
0.0
  0
SPLINE
  5
50
330
1F
100
AcDbEntity
  8
layer 1
 62
     7
100
AcDbSpline
210
0.0
220
0.0
230
1.0
 70
    11
 71
     3
 72
    36
 73
    32
 74
     0
 42
0.0000000001
 43
0.0000000001
 12
1.0
 22
0.0
 32
0.0
 13
1.0
 23
0.0
 33
0.0
 40
0.0
 40
0.0
 40
0.0
 40
0.0
 40
0.1111111111111111
 40
0.1111111111111111
 40
0.1111111111111111
 40
0.1111111111111111
 40
0.2222222222222222
 40
0.2222222222222222
 40
0.2222222222222222
 40
0.2222222222222222
 40
0.3333333333333333
 40
0.3333333333333333
 40
0.3333333333333333
 40
0.3333333333333333
 40
0.4444444444444444
 40
0.4444444444444444
 40
0.4444444444444444
 40
0.4444444444444444
 40
0.5555555555555556
 40
0.5555555555555556
 40
0.5555555555555556
 40
0.5555555555555556
 40
0.6666666666666666
 40
0.6666666666666666
 40
0.6666666666666666
 40
0.6666666666666666
 40
0.7777777777777778
 40
0.7777777777777778
 40
0.7777777777777778
 40
0.7777777777777778
 40
1.0
 40
1.0
 40
1.0
 40
1.0
 10
-178.975
 20
114.8803
 30
0.0
 10
-178.2371
 20
112.4166
 30
0.0
 10
-177.0645
 20
111.9112
 30
0.0
 10
-175.3652
 20
111.0954
 30
0.0
 10
-175.3652
 20
111.0954
 30
0.0
 10
-173.7664
 20
110.6607
 30
0.0
 10
-174.6653
 20
109.4704
 30
0.0
 10
-174.8748
 20
108.9622
 30
0.0
 10
-174.8748
 20
108.9622
 30
0.0
 10
-176.663
 20
103.4226
 30
0.0
 10
-173.8122
 20
101.2806
 30
0.0
 10
-171.9518
 20
97.2623
 30
0.0
 10
-171.9518
 20
97.2623
 30
0.0
 10
-171.3448
 20
95.5282
 30
0.0
 10
-171.4041
 20
93.4433
 30
0.0
 10
-172.0821
 20
92.6944
 30
0.0
 10
-172.0821
 20
92.6944
 30
0.0
 10
-172.5189
 20
92.2116
 30
0.0
 10
-172.9811
 20
92.1113
 30
0.0
 10
-174.0926
 20
92.258
 30
0.0
 10
-174.0926
 20
92.258
 30
0.0
 10
-175.5252
 20
92.4471
 30
0.0
 10
-175.5429
 20
92.4356
 30
0.0
 10
-176.5104
 20
90.6845
 30
0.0
 10
-176.5104
 20
90.6845
 30
0.0
 10
-177.0464
 20
89.7144
 30
0.0
 10
-178.7975
 20
89.0768
 30
0.0
 10
-178.9751
 20
88.9669
 30
0.0
 10
-178.9751
 20
88.9669
 30
0.0
 10
-178.9751
 20
88.9669
 30
0.0
 10
-178.975
 20
114.8803
 30
0.0
 10
-178.975
 20
114.8803
 30
0.0
  0
SPLINE
  5
51
330
1F
100
AcDbEntity
  8
layer 1
 62
     7
100
AcDbSpline
210
0.0
220
0.0
230
1.0
 70
    11
 71
     3
 72
    36
 73
    32
 74
     0
 42
0.0000000001
 43
0.0000000001
 12
1.0
 22
0.0
 32
0.0
 13
1.0
 23
0.0
 33
0.0
 40
0.0
 40
0.0
 40
0.0
 40
0.0
 40
0.1111111111111111
 40
0.1111111111111111
 40
0.1111111111111111
 40
0.1111111111111111
 40
0.2222222222222222
 40
0.2222222222222222
 40
0.2222222222222222
 40
0.2222222222222222
 40
0.3333333333333333
 40
0.3333333333333333
 40
0.3333333333333333
 40
0.3333333333333333
 40
0.4444444444444444
 40
0.4444444444444444
 40
0.4444444444444444
 40
0.4444444444444444
 40
0.5555555555555556
 40
0.5555555555555556
 40
0.5555555555555556
 40
0.5555555555555556
 40
0.6666666666666666
 40
0.6666666666666666
 40
0.6666666666666666
 40
0.6666666666666666
 40
0.7777777777777778
 40
0.7777777777777778
 40
0.7777777777777778
 40
0.7777777777777778
 40
1.0
 40
1.0
 40
1.0
 40
1.0
 10
-152.3008
 20
89.0113
 30
0.0
 10
-160.1704
 20
94.8223
 30
0.0
 10
-152.4283
 20
101.2704
 30
0.0
 10
-150.353
 20
107.3496
 30
0.0
 10
-150.353
 20
107.3496
 30
0.0
 10
-149.0114
 20
110.9249
 30
0.0
 10
-151.6933
 20
113.2127
 30
0.0
 10
-152.1025
 20
116.1163
 30
0.0
 10
-152.1025
 20
116.1163
 30
0.0
 10
-146.911
 20
114.7731
 30
0.0
 10
-144.256
 20
110.4337
 30
0.0
 10
-143.3438
 20
106.4056
 30
0.0
 10
-143.3438
 20
106.4056
 30
0.0
 10
-141.6282
 20
99.5214
 30
0.0
 10
-145.5905
 20
97.3422
 30
0.0
 10
-149.5018
 20
95.4036
 30
0.0
 10
-149.5018
 20
95.4036
 30
0.0
 10
-149.0524
 20
92.8475
 30
0.0
 10
-146.2464
 20
93.069
 30
0.0
 10
-142.7561
 20
93.9729
 30
0.0
 10
-142.7561
 20
93.9729
 30
0.0
 10
-141.8655
 20
94.2035
 30
0.0
 10
-141.7946
 20
94.1446
 30
0.0
 10
-141.7946
 20
93.1729
 30
0.0
 10
-141.7946
 20
93.1729
 30
0.0
 10
-141.7946
 20
90.2064
 30
0.0
 10
-148.7564
 20
87.1977
 30
0.0
 10
-152.3008
 20
89.0115
 30
0.0
 10
-152.3008
 20
89.0115
 30
0.0
 10
-152.3008
 20
89.0115
 30
0.0
 10
-152.3008
 20
89.0113
 30
0.0
 10
-152.3008
 20
89.0113
 30
0.0
  0
SPLINE
  5
52
330
1F
100
AcDbEntity
  8
layer 1
 62
     7
100
AcDbSpline
210
0.0
220
0.0
230
1.0
 70
    11
 71
     3
 72
    44
 73
    40
 74
     0
 42
0.0000000001
 43
0.0000000001
 12
1.0
 22
0.0
 32
0.0
 13
1.0
 23
0.0
 33
0.0
 40
0.0
 40
0.0
 40
0.0
 40
0.0
 40
0.0909090909090909
 40
0.0909090909090909
 40
0.0909090909090909
 40
0.0909090909090909
 40
0.1818181818181818
 40
0.1818181818181818
 40
0.1818181818181818
 40
0.1818181818181818
 40
0.2727272727272727
 40
0.2727272727272727
 40
0.2727272727272727
 40
0.2727272727272727
 40
0.3636363636363636
 40
0.3636363636363636
 40
0.3636363636363636
 40
0.3636363636363636
 40
0.4545454545454545
 40
0.4545454545454545
 40
0.4545454545454545
 40
0.4545454545454545
 40
0.5454545454545454
 40
0.5454545454545454
 40
0.5454545454545454
 40
0.5454545454545454
 40
0.6363636363636364
 40
0.6363636363636364
 40
0.6363636363636364
 40
0.6363636363636364
 40
0.7272727272727273
 40
0.7272727272727273
 40
0.7272727272727273
 40
0.7272727272727273
 40
0.8181818181818182
 40
0.8181818181818182
 40
0.8181818181818182
 40
0.8181818181818182
 40
1.0
 40
1.0
 40
1.0
 40
1.0
 10
-157.6149
 20
90.6717
 30
0.0
 10
-161.3117
 20
94.0973
 30
0.0
 10
-163.3617
 20
96.9714
 30
0.0
 10
-167.5139
 20
93.4875
 30
0.0
 10
-167.5139
 20
93.4875
 30
0.0
 10
-168.6146
 20
92.6217
 30
0.0
 10
-168.9342
 20
92.7388
 30
0.0
 10
-169.2373
 20
94.1183
 30
0.0
 10
-169.2373
 20
94.1183
 30
0.0
 10
-169.4054
 20
94.8836
 30
0.0
 10
-169.2358
 20
95.4775
 30
0.0
 10
-168.5574
 20
96.5029
 30
0.0
 10
-168.5574
 20
96.5029
 30
0.0
 10
-165.8183
 20
99.519
 30
0.0
 10
-168.0632
 20
101.0003
 30
0.0
 10
-167.9285
 20
102.2967
 30
0.0
 10
-167.9285
 20
102.2967
 30
0.0
 10
-165.7802
 20
100.1578
 30
0.0
 10
-162.0866
 20
99.3533
 30
0.0
 10
-159.0732
 20
102.1487
 30
0.0
 10
-159.0732
 20
102.1487
 30
0.0
 10
-158.5607
 20
101.3756
 30
0.0
 10
-158.5712
 20
100.5574
 30
0.0
 10
-158.963
 20
99.0289
 30
0.0
 10
-158.963
 20
99.0289
 30
0.0
 10
-159.5333
 20
96.8033
 30
0.0
 10
-159.1465
 20
95.2011
 30
0.0
 10
-157.5145
 20
93.029
 30
0.0
 10
-157.5145
 20
93.029
 30
0.0
 10
-156.7508
 20
92.0126
 30
0.0
 10
-156.1762
 20
91.0307
 30
0.0
 10
-156.2375
 20
90.8468
 30
0.0
 10
-156.2375
 20
90.8468
 30
0.0
 10
-156.4056
 20
90.3428
 30
0.0
 10
-156.934
 20
90.2755
 30
0.0
 10
-157.6152
 20
90.6715
 30
0.0
 10
-157.6152
 20
90.6715
 30
0.0
 10
-157.6152
 20
90.6715
 30
0.0
 10
-157.6149
 20
90.6717
 30
0.0
 10
-157.6149
 20
90.6717
 30
0.0
  0
SPLINE
  5
53
330
1F
100
AcDbEntity
  8
layer 1
 62
     7
100
AcDbSpline
210
0.0
220
0.0
230
1.0
 70
    11
 71
     3
 72
    40
 73
    36
 74
     0
 42
0.0000000001
 43
0.0000000001
 12
1.0
 22
0.0
 32
0.0
 13
1.0
 23
0.0
 33
0.0
 40
0.0
 40
0.0
 40
0.0
 40
0.0
 40
0.1
 40
0.1
 40
0.1
 40
0.1
 40
0.2
 40
0.2
 40
0.2
 40
0.2
 40
0.3
 40
0.3
 40
0.3
 40
0.3
 40
0.4
 40
0.4
 40
0.4
 40
0.4
 40
0.5
 40
0.5
 40
0.5
 40
0.5
 40
0.6
 40
0.6
 40
0.6
 40
0.6
 40
0.7
 40
0.7
 40
0.7
 40
0.7
 40
0.8
 40
0.8
 40
0.8
 40
0.8
 40
1.0
 40
1.0
 40
1.0
 40
1.0
 10
-168.6051
 20
104.4014
 30
0.0
 10
-168.8996
 20
104.9711
 30
0.0
 10
-170.67
 20
107.4894
 30
0.0
 10
-171.342
 20
108.0255
 30
0.0
 10
-171.342
 20
108.0255
 30
0.0
 10
-172.9932
 20
109.343
 30
0.0
 10
-173.1953
 20
110.2283
 30
0.0
 10
-170.9863
 20
110.7314
 30
0.0
 10
-170.9863
 20
110.7314
 30
0.0
 10
-169.5938
 20
110.9726
 30
0.0
 10
-168.5441
 20
112.0998
 30
0.0
 10
-168.2722
 20
113.4702
 30
0.0
 10
-168.2722
 20
113.4702
 30
0.0
 10
-162.6744
 20
110.4055
 30
0.0
 10
-157.4767
 20
113.1832
 30
0.0
 10
-157.1433
 20
116.371
 30
0.0
 10
-157.1433
 20
116.371
 30
0.0
 10
-156.9955
 20
117.6583
 30
0.0
 10
-155.8563
 20
117.7342
 30
0.0
 10
-155.2856
 20
117.0936
 30
0.0
 10
-155.2856
 20
117.0936
 30
0.0
 10
-154.1735
 20
116.365
 30
0.0
 10
-153.6581
 20
114.6573
 30
0.0
 10
-154.1382
 20
112.0602
 30
0.0
 10
-154.1382
 20
112.0602
 30
0.0
 10
-157.0265
 20
103.4691
 30
0.0
 10
-164.7763
 20
102.405
 30
0.0
 10
-167.5572
 20
108.2003
 30
0.0
 10
-167.5572
 20
108.2003
 30
0.0
 10
-168.5784
 20
107.048
 30
0.0
 10
-168.7562
 20
106.7027
 30
0.0
 10
-168.6052
 20
104.4014
 30
0.0
 10
-168.6052
 20
104.4014
 30
0.0
 10
-168.6052
 20
104.4014
 30
0.0
 10
-168.6051
 20
104.4014
 30
0.0
 10
-168.6051
 20
104.4014
 30
0.0
  0
SPLINE
  5
54
330
1F
100
AcDbEntity
  8
layer 1
 62
     7
100
AcDbSpline
210
0.0
220
0.0
230
1.0
 70
    11
 71
     3
 72
    28
 73
    24
 74
     0
 42
0.0000000001
 43
0.0000000001
 12
1.0
 22
0.0
 32
0.0
 13
1.0
 23
0.0
 33
0.0
 40
0.0
 40
0.0
 40
0.0
 40
0.0
 40
0.1428571428571428
 40
0.1428571428571428
 40
0.1428571428571428
 40
0.1428571428571428
 40
0.2857142857142857
 40
0.2857142857142857
 40
0.2857142857142857
 40
0.2857142857142857
 40
0.4285714285714285
 40
0.4285714285714285
 40
0.4285714285714285
 40
0.4285714285714285
 40
0.5714285714285714
 40
0.5714285714285714
 40
0.5714285714285714
 40
0.5714285714285714
 40
0.7142857142857143
 40
0.7142857142857143
 40
0.7142857142857143
 40
0.7142857142857143
 40
1.0
 40
1.0
 40
1.0
 40
1.0
 10
-168.1252
 20
114.5951
 30
0.0
 10
-168.1177
 20
117.098
 30
0.0
 10
-169.3499
 20
118.4557
 30
0.0
 10
-171.3785
 20
118.6155
 30
0.0
 10
-171.3785
 20
118.6155
 30
0.0
 10
-172.892
 20
118.6155
 30
0.0
 10
-172.9469
 20
119.3754
 30
0.0
 10
-171.5291
 20
120.6998
 30
0.0
 10
-171.5291
 20
120.6998
 30
0.0
 10
-169.8983
 20
122.2232
 30
0.0
 10
-166.1498
 20
122.7887
 30
0.0
 10
-164.6115
 20
121.6047
 30
0.0
 10
-164.6115
 20
121.6047
 30
0.0
 10
-163.1432
 20
120.4747
 30
0.0
 10
-162.5256
 20
118.2238
 30
0.0
 10
-163.2916
 20
116.7046
 30
0.0
 10
-163.2916
 20
116.7046
 30
0.0
 10
-163.9343
 20
115.4297
 30
0.0
 10
-165.9671
 20
114.5716
 30
0.0
 10
-168.1252
 20
114.595
 30
0.0
 10
-168.1252
 20
114.595
 30
0.0
 10
-168.1252
 20
114.595
 30
0.0
 10
-168.1252
 20
114.5951
 30
0.0
 10
-168.1252
 20
114.5951
 30
0.0
  0
SPLINE
  5
55
330
1F
100
AcDbEntity
  8
layer 1
 62
     7
100
AcDbSpline
210
0.0
220
0.0
230
1.0
 70
    11
 71
     3
 72
    16
 73
    12
 74
     0
 42
0.0000000001
 43
0.0000000001
 12
1.0
 22
0.0
 32
0.0
 13
1.0
 23
0.0
 33
0.0
 40
0.0
 40
0.0
 40
0.0
 40
0.0
 40
0.25
 40
0.25
 40
0.25
 40
0.25
 40
0.5
 40
0.5
 40
0.5
 40
0.5
 40
1.0
 40
1.0
 40
1.0
 40
1.0
 10
-178.9072
 20
125.496
 30
0.0
 10
-178.9072
 20
125.496
 30
0.0
 10
-169.1749
 20
125.496
 30
0.0
 10
-169.1749
 20
125.496
 30
0.0
 10
-169.1749
 20
125.496
 30
0.0
 10
-174.4132
 20
124.5874
 30
0.0
 10
-178.9072
 20
119.9953
 30
0.0
 10
-178.9072
 20
116.975
 30
0.0
 10
-178.9072
 20
116.975
 30
0.0
 10
-178.9072
 20
116.975
 30
0.0
 10
-178.9072
 20
125.496
 30
0.0
 10
-178.9072
 20
125.496
 30
0.0
  0
SPLINE
  5
56
330
1F
100
AcDbEntity
  8
layer 1
 62
     7
100
AcDbSpline
210
0.0
220
0.0
230
1.0
 70
    11
 71
     3
 72
    20
 73
    16
 74
     0
 42
0.0000000001
 43
0.0000000001
 12
1.0
 22
0.0
 32
0.0
 13
1.0
 23
0.0
 33
0.0
 40
0.0
 40
0.0
 40
0.0
 40
0.0
 40
0.2
 40
0.2
 40
0.2
 40
0.2
 40
0.4
 40
0.4
 40
0.4
 40
0.4
 40
0.6
 40
0.6
 40
0.6
 40
0.6
 40
1.0
 40
1.0
 40
1.0
 40
1.0
 10
-151.7595
 20
120.9495
 30
0.0
 10
-153.4722
 20
121.1755
 30
0.0
 10
-158.0238
 20
124.0759
 30
0.0
 10
-163.3841
 20
125.4961
 30
0.0
 10
-163.3841
 20
125.4961
 30
0.0
 10
-163.3841
 20
125.4961
 30
0.0
 10
-144.9775
 20
125.4961
 30
0.0
 10
-144.9775
 20
125.4961
 30
0.0
 10
-144.9775
 20
125.4961
 30
0.0
 10
-142.6615
 20
121.2313
 30
0.0
 10
-147.2633
 20
120.0399
 30
0.0
 10
-151.7594
 20
120.9495
 30
0.0
 10
-151.7594
 20
120.9495
 30
0.0
 10
-151.7594
 20
120.9495
 30
0.0
 10
-151.7595
 20
120.9495
 30
0.0
 10
-151.7595
 20
120.9495
 30
0.0
  0
SPLINE
  5
57
330
1F
100
AcDbEntity
  8
layer 1
 62
     7
100
AcDbSpline
210
0.0
220
0.0
230
1.0
 70
    11
 71
     3
 72
    32
 73
    28
 74
     0
 42
0.0000000001
 43
0.0000000001
 12
1.0
 22
0.0
 32
0.0
 13
1.0
 23
0.0
 33
0.0
 40
0.0
 40
0.0
 40
0.0
 40
0.0
 40
0.125
 40
0.125
 40
0.125
 40
0.125
 40
0.25
 40
0.25
 40
0.25
 40
0.25
 40
0.375
 40
0.375
 40
0.375
 40
0.375
 40
0.5
 40
0.5
 40
0.5
 40
0.5
 40
0.625
 40
0.625
 40
0.625
 40
0.625
 40
0.75
 40
0.75
 40
0.75
 40
0.75
 40
1.0
 40
1.0
 40
1.0
 40
1.0
 10
-93.6888
 20
16.538
 30
0.0
 10
-98.1301
 20
11.9029
 30
0.0
 10
-104.2824
 20
12.5347
 30
0.0
 10
-105.4595
 20
17.8329
 30
0.0
 10
-105.4595
 20
17.8329
 30
0.0
 10
-106.1021
 20
19.7118
 30
0.0
 10
-107.2059
 20
19.8068
 30
0.0
 10
-107.7004
 20
18.026
 30
0.0
 10
-107.7004
 20
18.026
 30
0.0
 10
-109.1413
 20
9.0411
 30
0.0
 10
-117.8632
 20
11.0422
 30
0.0
 10
-117.9384
 20
9.0411
 30
0.0
 10
-117.9384
 20
9.0411
 30
0.0
 10
-117.8632
 20
7.0398
 30
0.0
 10
-109.1415
 20
9.0411
 30
0.0
 10
-107.7004
 20
0.0562
 30
0.0
 10
-107.7004
 20
0.0562
 30
0.0
 10
-107.2059
 20
-1.7247
 30
0.0
 10
-106.1021
 20
-1.6296
 30
0.0
 10
-105.4595
 20
0.2493
 30
0.0
 10
-105.4595
 20
0.2493
 30
0.0
 10
-104.2826
 20
5.5474
 30
0.0
 10
-98.1301
 20
6.1792
 30
0.0
 10
-93.6888
 20
1.5442
 30
0.0
 10
-93.6888
 20
1.5442
 30
0.0
 10
-93.6888
 20
1.5442
 30
0.0
 10
-93.6888
 20
16.538
 30
0.0
 10
-93.6888
 20
16.538
 30
0.0
  0
SPLINE
  5
58
330
1F
100
AcDbEntity
  8
layer 1
 62
     7
100
AcDbSpline
210
0.0
220
0.0
230
1.0
 70
    11
 71
     3
 72
    20
 73
    16
 74
     0
 42
0.0000000001
 43
0.0000000001
 12
1.0
 22
0.0
 32
0.0
 13
1.0
 23
0.0
 33
0.0
 40
0.0
 40
0.0
 40
0.0
 40
0.0
 40
0.2
 40
0.2
 40
0.2
 40
0.2
 40
0.4
 40
0.4
 40
0.4
 40
0.4
 40
0.6
 40
0.6
 40
0.6
 40
0.6
 40
1.0
 40
1.0
 40
1.0
 40
1.0
 10
-93.6888
 20
18.8514
 30
0.0
 10
-93.6888
 20
18.8514
 30
0.0
 10
-93.6888
 20
36.6051
 30
0.0
 10
-93.6888
 20
36.6051
 30
0.0
 10
-93.6888
 20
36.6051
 30
0.0
 10
-95.482
 20
35.1758
 30
0.0
 10
-96.6772
 20
34.7265
 30
0.0
 10
-98.1476
 20
35.3657
 30
0.0
 10
-98.1476
 20
35.3657
 30
0.0
 10
-99.2488
 20
26.7158
 30
0.0
 10
-101.5704
 20
27.668
 30
0.0
 10
-102.0069
 20
21.938
 30
0.0
 10
-102.0069
 20
21.938
 30
0.0
 10
-101.5551
 20
15.3633
 30
0.0
 10
-97.207
 20
15.0198
 30
0.0
 10
-93.6888
 20
18.8514
 30
0.0
  0
SPLINE
  5
59
330
1F
100
AcDbEntity
  8
layer 1
 62
     7
100
AcDbSpline
210
0.0
220
0.0
230
1.0
 70
    11
 71
     3
 72
    20
 73
    16
 74
     0
 42
0.0000000001
 43
0.0000000001
 12
1.0
 22
0.0
 32
0.0
 13
1.0
 23
0.0
 33
0.0
 40
0.0
 40
0.0
 40
0.0
 40
0.0
 40
0.2
 40
0.2
 40
0.2
 40
0.2
 40
0.4
 40
0.4
 40
0.4
 40
0.4
 40
0.6
 40
0.6
 40
0.6
 40
0.6
 40
1.0
 40
1.0
 40
1.0
 40
1.0
 10
-108.1832
 20
25.6899
 30
0.0
 10
-111.0106
 20
24.8821
 30
0.0
 10
-113.9524
 20
26.6449
 30
0.0
 10
-113.2964
 20
30.1448
 30
0.0
 10
-113.2964
 20
30.1448
 30
0.0
 10
-114.5624
 20
29.711
 30
0.0
 10
-116.5423
 20
29.9326
 30
0.0
 10
-118.3925
 20
31.6858
 30
0.0
 10
-118.3925
 20
31.6858
 30
0.0
 10
-120.499
 20
30.3514
 30
0.0
 10
-118.8151
 20
27.1446
 30
0.0
 10
-117.8358
 20
25.7938
 30
0.0
 10
-117.8358
 20
25.7938
 30
0.0
 10
-115.248
 20
22.3513
 30
0.0
 10
-107.5171
 20
21.1612
 30
0.0
 10
-108.1832
 20
25.6899
 30
0.0
  0
SPLINE
  5
5A
330
1F
100
AcDbEntity
  8
layer 1
 62
     7
100
AcDbSpline
210
0.0
220
0.0
230
1.0
 70
    11
 71
     3
 72
    24
 73
    20
 74
     0
 42
0.0000000001
 43
0.0000000001
 12
1.0
 22
0.0
 32
0.0
 13
1.0
 23
0.0
 33
0.0
 40
0.0
 40
0.0
 40
0.0
 40
0.0
 40
0.1666666666666667
 40
0.1666666666666667
 40
0.1666666666666667
 40
0.1666666666666667
 40
0.3333333333333333
 40
0.3333333333333333
 40
0.3333333333333333
 40
0.3333333333333333
 40
0.5
 40
0.5
 40
0.5
 40
0.5
 40
0.6666666666666666
 40
0.6666666666666666
 40
0.6666666666666666
 40
0.6666666666666666
 40
1.0
 40
1.0
 40
1.0
 40
1.0
 10
-101.5331
 20
47.1893
 30
0.0
 10
-102.4313
 20
48.092
 30
0.0
 10
-102.8723
 20
48.0996
 30
0.0
 10
-103.077
 20
46.6773
 30
0.0
 10
-103.077
 20
46.6773
 30
0.0
 10
-101.9713
 20
39.8826
 30
0.0
 10
-104.4549
 20
32.706
 30
0.0
 10
-109.8226
 20
31.2061
 30
0.0
 10
-109.8226
 20
31.2061
 30
0.0
 10
-111.6772
 20
30.5028
 30
0.0
 10
-111.7679
 20
30.2647
 30
0.0
 10
-110.4811
 20
29.4801
 30
0.0
 10
-110.4811
 20
29.4801
 30
0.0
 10
-100.8169
 20
25.4903
 30
0.0
 10
-97.2247
 20
42.9297
 30
0.0
 10
-101.5331
 20
47.1894
 30
0.0
 10
-101.5331
 20
47.1894
 30
0.0
 10
-101.5331
 20
47.1894
 30
0.0
 10
-101.5331
 20
47.1893
 30
0.0
 10
-101.5331
 20
47.1893
 30
0.0
  0
SPLINE
  5
5B
330
1F
100
AcDbEntity
  8
layer 1
 62
     7
100
AcDbSpline
210
0.0
220
0.0
230
1.0
 70
    11
 71
     3
 72
    20
 73
    16
 74
     0
 42
0.0000000001
 43
0.0000000001
 12
1.0
 22
0.0
 32
0.0
 13
1.0
 23
0.0
 33
0.0
 40
0.0
 40
0.0
 40
0.0
 40
0.0
 40
0.2
 40
0.2
 40
0.2
 40
0.2
 40
0.4
 40
0.4
 40
0.4
 40
0.4
 40
0.6
 40
0.6
 40
0.6
 40
0.6
 40
1.0
 40
1.0
 40
1.0
 40
1.0
 10
-119.0202
 20
32.8397
 30
0.0
 10
-121.3683
 20
35.957
 30
0.0
 10
-122.2213
 20
39.3468
 30
0.0
 10
-121.186
 20
44.4906
 30
0.0
 10
-121.186
 20
44.4906
 30
0.0
 10
-126.7029
 20
44.6027
 30
0.0
 10
-131.3505
 20
38.6886
 30
0.0
 10
-132.2939
 20
33.6622
 30
0.0
 10
-132.2939
 20
33.6622
 30
0.0
 10
-128.0681
 20
35.4292
 30
0.0
 10
-123.6774
 20
34.7728
 30
0.0
 10
-121.7272
 20
30.1547
 30
0.0
 10
-121.7272
 20
30.1547
 30
0.0
 10
-121.3509
 20
31.2205
 30
0.0
 10
-120.1234
 20
32.5908
 30
0.0
 10
-119.0202
 20
32.8397
 30
0.0
  0
SPLINE
  5
5C
330
1F
100
AcDbEntity
  8
layer 1
 62
     7
100
AcDbSpline
210
0.0
220
0.0
230
1.0
 70
    11
 71
     3
 72
    28
 73
    24
 74
     0
 42
0.0000000001
 43
0.0000000001
 12
1.0
 22
0.0
 32
0.0
 13
1.0
 23
0.0
 33
0.0
 40
0.0
 40
0.0
 40
0.0
 40
0.0
 40
0.1428571428571428
 40
0.1428571428571428
 40
0.1428571428571428
 40
0.1428571428571428
 40
0.2857142857142857
 40
0.2857142857142857
 40
0.2857142857142857
 40
0.2857142857142857
 40
0.4285714285714285
 40
0.4285714285714285
 40
0.4285714285714285
 40
0.4285714285714285
 40
0.5714285714285714
 40
0.5714285714285714
 40
0.5714285714285714
 40
0.5714285714285714
 40
0.7142857142857143
 40
0.7142857142857143
 40
0.7142857142857143
 40
0.7142857142857143
 40
1.0
 40
1.0
 40
1.0
 40
1.0
 10
-109.9973
 20
37.3469
 30
0.0
 10
-107.7946
 20
38.745
 30
0.0
 10
-104.9035
 20
44.3153
 30
0.0
 10
-106.243
 20
49.1017
 30
0.0
 10
-106.243
 20
49.1017
 30
0.0
 10
-107.5346
 20
46.2745
 30
0.0
 10
-110.7968
 20
46.2724
 30
0.0
 10
-111.4388
 20
47.1186
 30
0.0
 10
-111.4388
 20
47.1186
 30
0.0
 10
-111.6235
 20
45.9504
 30
0.0
 10
-112.8701
 20
43.4415
 30
0.0
 10
-113.1357
 20
43.4415
 30
0.0
 10
-113.1357
 20
43.4415
 30
0.0
 10
-114.0757
 20
47.2912
 30
0.0
 10
-118.3908
 20
46.9029
 30
0.0
 10
-118.7718
 20
43.9404
 30
0.0
 10
-118.7718
 20
43.9404
 30
0.0
 10
-119.4702
 20
38.9127
 30
0.0
 10
-114.5938
 20
34.6539
 30
0.0
 10
-109.9973
 20
37.347
 30
0.0
 10
-109.9973
 20
37.347
 30
0.0
 10
-109.9973
 20
37.347
 30
0.0
 10
-109.9973
 20
37.3469
 30
0.0
 10
-109.9973
 20
37.3469
 30
0.0
  0
SPLINE
  5
5D
330
1F
100
AcDbEntity
  8
layer 1
 62
     7
100
AcDbSpline
210
0.0
220
0.0
230
1.0
 70
    11
 71
     3
 72
    24
 73
    20
 74
     0
 42
0.0000000001
 43
0.0000000001
 12
1.0
 22
0.0
 32
0.0
 13
1.0
 23
0.0
 33
0.0
 40
0.0
 40
0.0
 40
0.0
 40
0.0
 40
0.1666666666666667
 40
0.1666666666666667
 40
0.1666666666666667
 40
0.1666666666666667
 40
0.3333333333333333
 40
0.3333333333333333
 40
0.3333333333333333
 40
0.3333333333333333
 40
0.5
 40
0.5
 40
0.5
 40
0.5
 40
0.6666666666666666
 40
0.6666666666666666
 40
0.6666666666666666
 40
0.6666666666666666
 40
1.0
 40
1.0
 40
1.0
 40
1.0
 10
-93.6888
 20
60.7091
 30
0.0
 10
-95.3745
 20
56.52
 30
0.0
 10
-98.5336
 20
55.3957
 30
0.0
 10
-102.2723
 20
56.1965
 30
0.0
 10
-102.2723
 20
56.1965
 30
0.0
 10
-103.7945
 20
56.6194
 30
0.0
 10
-104.4674
 20
55.6565
 30
0.0
 10
-103.4184
 20
54.341
 30
0.0
 10
-103.4184
 20
54.341
 30
0.0
 10
-97.1133
 20
50.3568
 30
0.0
 10
-99.6909
 20
44.3574
 30
0.0
 10
-97.3537
 20
39.5292
 30
0.0
 10
-97.3537
 20
39.5292
 30
0.0
 10
-96.8071
 20
37.3146
 30
0.0
 10
-93.6888
 20
37.3496
 30
0.0
 10
-93.6888
 20
38.3108
 30
0.0
 10
-93.6888
 20
38.3108
 30
0.0
 10
-93.6888
 20
38.3108
 30
0.0
 10
-93.6888
 20
60.7091
 30
0.0
 10
-93.6888
 20
60.7091
 30
0.0
  0
SPLINE
  5
5E
330
1F
100
AcDbEntity
  8
layer 1
 62
     7
100
AcDbSpline
210
0.0
220
0.0
230
1.0
 70
    11
 71
     3
 72
    20
 73
    16
 74
     0
 42
0.0000000001
 43
0.0000000001
 12
1.0
 22
0.0
 32
0.0
 13
1.0
 23
0.0
 33
0.0
 40
0.0
 40
0.0
 40
0.0
 40
0.0
 40
0.2
 40
0.2
 40
0.2
 40
0.2
 40
0.4
 40
0.4
 40
0.4
 40
0.4
 40
0.6
 40
0.6
 40
0.6
 40
0.6
 40
1.0
 40
1.0
 40
1.0
 40
1.0
 10
-109.4631
 20
54.4228
 30
0.0
 10
-110.4771
 20
58.6119
 30
0.0
 10
-117.9001
 20
60.0933
 30
0.0
 10
-119.4381
 20
55.2782
 30
0.0
 10
-119.4381
 20
55.2782
 30
0.0
 10
-119.7412
 20
54.0703
 30
0.0
 10
-119.2073
 20
53.7796
 30
0.0
 10
-117.6379
 20
54.2975
 30
0.0
 10
-117.6379
 20
54.2975
 30
0.0
 10
-112.9931
 20
55.0944
 30
0.0
 10
-111.953
 20
51.5878
 30
0.0
 10
-111.3252
 20
49.564
 30
0.0
 10
-111.3252
 20
49.564
 30
0.0
 10
-109.8885
 20
50.7471
 30
0.0
 10
-109.089
 20
52.761
 30
0.0
 10
-109.4631
 20
54.4228
 30
0.0
  0
SPLINE
  5
5F
330
1F
100
AcDbEntity
  8
layer 1
 62
     7
100
AcDbSpline
210
0.0
220
0.0
230
1.0
 70
    11
 71
     3
 72
    24
 73
    20
 74
     0
 42
0.0000000001
 43
0.0000000001
 12
1.0
 22
0.0
 32
0.0
 13
1.0
 23
0.0
 33
0.0
 40
0.0
 40
0.0
 40
0.0
 40
0.0
 40
0.1666666666666667
 40
0.1666666666666667
 40
0.1666666666666667
 40
0.1666666666666667
 40
0.3333333333333333
 40
0.3333333333333333
 40
0.3333333333333333
 40
0.3333333333333333
 40
0.5
 40
0.5
 40
0.5
 40
0.5
 40
0.6666666666666666
 40
0.6666666666666666
 40
0.6666666666666666
 40
0.6666666666666666
 40
1.0
 40
1.0
 40
1.0
 40
1.0
 10
-102.3051
 20
58.9987
 30
0.0
 10
-99.674
 20
60.1663
 30
0.0
 10
-98.3805
 20
62.9392
 30
0.0
 10
-99.4773
 20
65.0603
 30
0.0
 10
-99.4773
 20
65.0603
 30
0.0
 10
-100.5307
 20
66.9645
 30
0.0
 10
-103.528
 20
67.2091
 30
0.0
 10
-105.6108
 20
65.8203
 30
0.0
 10
-105.6108
 20
65.8203
 30
0.0
 10
-105.2868
 20
64.8321
 30
0.0
 10
-105.4632
 20
63.9254
 30
0.0
 10
-105.9066
 20
63.1995
 30
0.0
 10
-105.9066
 20
63.1995
 30
0.0
 10
-109.1638
 20
66.8888
 30
0.0
 10
-114.9376
 20
62.4364
 30
0.0
 10
-118.6038
 20
59.1438
 30
0.0
 10
-118.6038
 20
59.1438
 30
0.0
 10
-109.4354
 20
61.1937
 30
0.0
 10
-107.5496
 20
57.1707
 30
0.0
 10
-102.3051
 20
58.9987
 30
0.0
  0
SPLINE
  5
60
330
1F
100
AcDbEntity
  8
layer 1
 62
     7
100
AcDbSpline
210
0.0
220
0.0
230
1.0
 70
    11
 71
     3
 72
    20
 73
    16
 74
     0
 42
0.0000000001
 43
0.0000000001
 12
1.0
 22
0.0
 32
0.0
 13
1.0
 23
0.0
 33
0.0
 40
0.0
 40
0.0
 40
0.0
 40
0.0
 40
0.2
 40
0.2
 40
0.2
 40
0.2
 40
0.4
 40
0.4
 40
0.4
 40
0.4
 40
0.6
 40
0.6
 40
0.6
 40
0.6
 40
1.0
 40
1.0
 40
1.0
 40
1.0
 10
-93.6888
 20
74.7743
 30
0.0
 10
-100.7705
 20
81.9744
 30
0.0
 10
-109.0791
 20
76.4119
 30
0.0
 10
-112.2636
 20
69.3454
 30
0.0
 10
-112.2636
 20
69.3454
 30
0.0
 10
-108.8867
 20
70.7668
 30
0.0
 10
-105.9697
 20
69.4987
 30
0.0
 10
-105.8285
 20
67.0961
 30
0.0
 10
-105.8285
 20
67.0961
 30
0.0
 10
-102.031
 20
72.0061
 30
0.0
 10
-94.542
 20
69.0998
 30
0.0
 10
-93.6888
 20
63.2508
 30
0.0
 10
-93.6888
 20
63.2508
 30
0.0
 10
-93.6888
 20
63.2508
 30
0.0
 10
-93.6888
 20
74.7743
 30
0.0
 10
-93.6888
 20
74.7743
 30
0.0
  0
SPLINE
  5
61
330
1F
100
AcDbEntity
  8
layer 1
 62
     7
100
AcDbSpline
210
0.0
220
0.0
230
1.0
 70
    11
 71
     3
 72
    48
 73
    44
 74
     0
 42
0.0000000001
 43
0.0000000001
 12
1.0
 22
0.0
 32
0.0
 13
1.0
 23
0.0
 33
0.0
 40
0.0
 40
0.0
 40
0.0
 40
0.0
 40
0.0833333333333333
 40
0.0833333333333333
 40
0.0833333333333333
 40
0.0833333333333333
 40
0.1666666666666667
 40
0.1666666666666667
 40
0.1666666666666667
 40
0.1666666666666667
 40
0.25
 40
0.25
 40
0.25
 40
0.25
 40
0.3333333333333333
 40
0.3333333333333333
 40
0.3333333333333333
 40
0.3333333333333333
 40
0.4166666666666667
 40
0.4166666666666667
 40
0.4166666666666667
 40
0.4166666666666667
 40
0.5
 40
0.5
 40
0.5
 40
0.5
 40
0.5833333333333334
 40
0.5833333333333334
 40
0.5833333333333334
 40
0.5833333333333334
 40
0.6666666666666666
 40
0.6666666666666666
 40
0.6666666666666666
 40
0.6666666666666666
 40
0.75
 40
0.75
 40
0.75
 40
0.75
 40
0.8333333333333334
 40
0.8333333333333334
 40
0.8333333333333334
 40
0.8333333333333334
 40
1.0
 40
1.0
 40
1.0
 40
1.0
 10
-106.1471
 20
83.8256
 30
0.0
 10
-104.6184
 20
87.9511
 30
0.0
 10
-105.7734
 20
92.3756
 30
0.0
 10
-108.5986
 20
93.2168
 30
0.0
 10
-108.5986
 20
93.2168
 30
0.0
 10
-109.8035
 20
93.5755
 30
0.0
 10
-110.2367
 20
93.0315
 30
0.0
 10
-109.7828
 20
91.7294
 30
0.0
 10
-109.7828
 20
91.7294
 30
0.0
 10
-108.4577
 20
85.447
 30
0.0
 10
-113.3555
 20
81.2901
 30
0.0
 10
-118.1371
 20
80.9507
 30
0.0
 10
-118.1371
 20
80.9507
 30
0.0
 10
-120.4433
 20
80.7927
 30
0.0
 10
-121.1473
 20
80.8812
 30
0.0
 10
-122.5632
 20
81.5075
 30
0.0
 10
-122.5632
 20
81.5075
 30
0.0
 10
-125.104
 20
82.6592
 30
0.0
 10
-126.1851
 20
82.0877
 30
0.0
 10
-125.3218
 20
79.859
 30
0.0
 10
-125.3218
 20
79.859
 30
0.0
 10
-124.8716
 20
78.7129
 30
0.0
 10
-124.8323
 20
78.2143
 30
0.0
 10
-125.1392
 20
77.5408
 30
0.0
 10
-125.1392
 20
77.5408
 30
0.0
 10
-125.6626
 20
76.3919
 30
0.0
 10
-125.2257
 20
76.2092
 30
0.0
 10
-123.4519
 20
76.835
 30
0.0
 10
-123.4519
 20
76.835
 30
0.0
 10
-120.9996
 20
77.8461
 30
0.0
 10
-117.8988
 20
77.6889
 30
0.0
 10
-116.9896
 20
74.5599
 30
0.0
 10
-116.9896
 20
74.5599
 30
0.0
 10
-116.651
 20
73.5421
 30
0.0
 10
-116.3931
 20
73.3175
 30
0.0
 10
-115.4568
 20
73.2252
 30
0.0
 10
-115.4568
 20
73.2252
 30
0.0
 10
-112.3004
 20
73.7937
 30
0.0
 10
-107.5144
 20
80.3103
 30
0.0
 10
-106.1469
 20
83.8256
 30
0.0
 10
-106.1469
 20
83.8256
 30
0.0
 10
-106.1469
 20
83.8256
 30
0.0
 10
-106.1471
 20
83.8256
 30
0.0
 10
-106.1471
 20
83.8256
 30
0.0
  0
SPLINE
  5
62
330
1F
100
AcDbEntity
  8
layer 1
 62
     7
100
AcDbSpline
210
0.0
220
0.0
230
1.0
 70
    11
 71
     3
 72
    20
 73
    16
 74
     0
 42
0.0000000001
 43
0.0000000001
 12
1.0
 22
0.0
 32
0.0
 13
1.0
 23
0.0
 33
0.0
 40
0.0
 40
0.0
 40
0.0
 40
0.0
 40
0.2
 40
0.2
 40
0.2
 40
0.2
 40
0.4
 40
0.4
 40
0.4
 40
0.4
 40
0.6
 40
0.6
 40
0.6
 40
0.6
 40
1.0
 40
1.0
 40
1.0
 40
1.0
 10
-130.1075
 20
82.5997
 30
0.0
 10
-131.4919
 20
91.3347
 30
0.0
 10
-134.9867
 20
91.2204
 30
0.0
 10
-136.2979
 20
98.81
 30
0.0
 10
-136.2979
 20
98.81
 30
0.0
 10
-137.6091
 20
91.2204
 30
0.0
 10
-141.104
 20
91.3347
 30
0.0
 10
-142.4884
 20
82.5997
 30
0.0
 10
-142.4884
 20
82.5997
 30
0.0
 10
-143.3183
 20
76.8808
 30
0.0
 10
-137.8433
 20
73.6575
 30
0.0
 10
-136.2979
 20
78.1842
 30
0.0
 10
-136.2979
 20
78.1842
 30
0.0
 10
-134.7526
 20
73.6574
 30
0.0
 10
-129.2776
 20
76.8808
 30
0.0
 10
-130.1075
 20
82.5997
 30
0.0
  0
SPLINE
  5
63
330
1F
100
AcDbEntity
  8
layer 1
 62
     7
100
AcDbSpline
210
0.0
220
0.0
230
1.0
 70
    11
 71
     3
 72
    24
 73
    20
 74
     0
 42
0.0000000001
 43
0.0000000001
 12
1.0
 22
0.0
 32
0.0
 13
1.0
 23
0.0
 33
0.0
 40
0.0
 40
0.0
 40
0.0
 40
0.0
 40
0.1666666666666667
 40
0.1666666666666667
 40
0.1666666666666667
 40
0.1666666666666667
 40
0.3333333333333333
 40
0.3333333333333333
 40
0.3333333333333333
 40
0.3333333333333333
 40
0.5
 40
0.5
 40
0.5
 40
0.5
 40
0.6666666666666666
 40
0.6666666666666666
 40
0.6666666666666666
 40
0.6666666666666666
 40
1.0
 40
1.0
 40
1.0
 40
1.0
 10
-93.621
 20
77.7872
 30
0.0
 10
-93.621
 20
77.7872
 30
0.0
 10
-93.621
 20
85.611
 30
0.0
 10
-93.621
 20
85.611
 30
0.0
 10
-93.621
 20
85.611
 30
0.0
 10
-95.2035
 20
89.9352
 30
0.0
 10
-98.5273
 20
89.7859
 30
0.0
 10
-102.3044
 20
83.652
 30
0.0
 10
-102.3044
 20
83.652
 30
0.0
 10
-102.9919
 20
82.3227
 30
0.0
 10
-102.539
 20
81.7965
 30
0.0
 10
-101.1304
 20
82.2874
 30
0.0
 10
-101.1304
 20
82.2874
 30
0.0
 10
-98.5823
 20
83.1526
 30
0.0
 10
-95.8092
 20
81.284
 30
0.0
 10
-93.621
 20
77.787
 30
0.0
 10
-93.621
 20
77.787
 30
0.0
 10
-93.621
 20
77.787
 30
0.0
 10
-93.621
 20
77.7872
 30
0.0
 10
-93.621
 20
77.7872
 30
0.0
  0
SPLINE
  5
64
330
1F
100
AcDbEntity
  8
layer 1
 62
     7
100
AcDbSpline
210
0.0
220
0.0
230
1.0
 70
    11
 71
     3
 72
    36
 73
    32
 74
     0
 42
0.0000000001
 43
0.0000000001
 12
1.0
 22
0.0
 32
0.0
 13
1.0
 23
0.0
 33
0.0
 40
0.0
 40
0.0
 40
0.0
 40
0.0
 40
0.1111111111111111
 40
0.1111111111111111
 40
0.1111111111111111
 40
0.1111111111111111
 40
0.2222222222222222
 40
0.2222222222222222
 40
0.2222222222222222
 40
0.2222222222222222
 40
0.3333333333333333
 40
0.3333333333333333
 40
0.3333333333333333
 40
0.3333333333333333
 40
0.4444444444444444
 40
0.4444444444444444
 40
0.4444444444444444
 40
0.4444444444444444
 40
0.5555555555555556
 40
0.5555555555555556
 40
0.5555555555555556
 40
0.5555555555555556
 40
0.6666666666666666
 40
0.6666666666666666
 40
0.6666666666666666
 40
0.6666666666666666
 40
0.7777777777777778
 40
0.7777777777777778
 40
0.7777777777777778
 40
0.7777777777777778
 40
1.0
 40
1.0
 40
1.0
 40
1.0
 10
-93.621
 20
114.8803
 30
0.0
 10
-94.3589
 20
112.4166
 30
0.0
 10
-95.5315
 20
111.9112
 30
0.0
 10
-97.2308
 20
111.0954
 30
0.0
 10
-97.2308
 20
111.0954
 30
0.0
 10
-98.8295
 20
110.6607
 30
0.0
 10
-97.9306
 20
109.4704
 30
0.0
 10
-97.7212
 20
108.9622
 30
0.0
 10
-97.7212
 20
108.9622
 30
0.0
 10
-95.9329
 20
103.4226
 30
0.0
 10
-98.7838
 20
101.2806
 30
0.0
 10
-100.6442
 20
97.2623
 30
0.0
 10
-100.6442
 20
97.2623
 30
0.0
 10
-101.2512
 20
95.5282
 30
0.0
 10
-101.1918
 20
93.4433
 30
0.0
 10
-100.5139
 20
92.6944
 30
0.0
 10
-100.5139
 20
92.6944
 30
0.0
 10
-100.077
 20
92.2116
 30
0.0
 10
-99.6149
 20
92.1113
 30
0.0
 10
-98.5034
 20
92.258
 30
0.0
 10
-98.5034
 20
92.258
 30
0.0
 10
-97.0707
 20
92.4471
 30
0.0
 10
-97.053
 20
92.4356
 30
0.0
 10
-96.0856
 20
90.6845
 30
0.0
 10
-96.0856
 20
90.6845
 30
0.0
 10
-95.5496
 20
89.7144
 30
0.0
 10
-93.7984
 20
89.0768
 30
0.0
 10
-93.6208
 20
88.9669
 30
0.0
 10
-93.6208
 20
88.9669
 30
0.0
 10
-93.6208
 20
88.9669
 30
0.0
 10
-93.621
 20
114.8803
 30
0.0
 10
-93.621
 20
114.8803
 30
0.0
  0
SPLINE
  5
65
330
1F
100
AcDbEntity
  8
layer 1
 62
     7
100
AcDbSpline
210
0.0
220
0.0
230
1.0
 70
    11
 71
     3
 72
    36
 73
    32
 74
     0
 42
0.0000000001
 43
0.0000000001
 12
1.0
 22
0.0
 32
0.0
 13
1.0
 23
0.0
 33
0.0
 40
0.0
 40
0.0
 40
0.0
 40
0.0
 40
0.1111111111111111
 40
0.1111111111111111
 40
0.1111111111111111
 40
0.1111111111111111
 40
0.2222222222222222
 40
0.2222222222222222
 40
0.2222222222222222
 40
0.2222222222222222
 40
0.3333333333333333
 40
0.3333333333333333
 40
0.3333333333333333
 40
0.3333333333333333
 40
0.4444444444444444
 40
0.4444444444444444
 40
0.4444444444444444
 40
0.4444444444444444
 40
0.5555555555555556
 40
0.5555555555555556
 40
0.5555555555555556
 40
0.5555555555555556
 40
0.6666666666666666
 40
0.6666666666666666
 40
0.6666666666666666
 40
0.6666666666666666
 40
0.7777777777777778
 40
0.7777777777777778
 40
0.7777777777777778
 40
0.7777777777777778
 40
1.0
 40
1.0
 40
1.0
 40
1.0
 10
-120.2951
 20
89.0113
 30
0.0
 10
-112.4254
 20
94.8223
 30
0.0
 10
-120.1675
 20
101.2704
 30
0.0
 10
-122.2428
 20
107.3496
 30
0.0
 10
-122.2428
 20
107.3496
 30
0.0
 10
-123.5844
 20
110.9249
 30
0.0
 10
-120.9026
 20
113.2127
 30
0.0
 10
-120.4933
 20
116.1163
 30
0.0
 10
-120.4933
 20
116.1163
 30
0.0
 10
-125.6848
 20
114.7731
 30
0.0
 10
-128.3398
 20
110.4337
 30
0.0
 10
-129.2521
 20
106.4056
 30
0.0
 10
-129.2521
 20
106.4056
 30
0.0
 10
-130.9676
 20
99.5214
 30
0.0
 10
-127.0054
 20
97.3422
 30
0.0
 10
-123.094
 20
95.4036
 30
0.0
 10
-123.094
 20
95.4036
 30
0.0
 10
-123.5434
 20
92.8475
 30
0.0
 10
-126.3494
 20
93.069
 30
0.0
 10
-129.8397
 20
93.9729
 30
0.0
 10
-129.8397
 20
93.9729
 30
0.0
 10
-130.7303
 20
94.2035
 30
0.0
 10
-130.8013
 20
94.1446
 30
0.0
 10
-130.8013
 20
93.1729
 30
0.0
 10
-130.8013
 20
93.1729
 30
0.0
 10
-130.8013
 20
90.2064
 30
0.0
 10
-123.8395
 20
87.1977
 30
0.0
 10
-120.2951
 20
89.0115
 30
0.0
 10
-120.2951
 20
89.0115
 30
0.0
 10
-120.2951
 20
89.0115
 30
0.0
 10
-120.2951
 20
89.0113
 30
0.0
 10
-120.2951
 20
89.0113
 30
0.0
  0
SPLINE
  5
66
330
1F
100
AcDbEntity
  8
layer 1
 62
     7
100
AcDbSpline
210
0.0
220
0.0
230
1.0
 70
    11
 71
     3
 72
    44
 73
    40
 74
     0
 42
0.0000000001
 43
0.0000000001
 12
1.0
 22
0.0
 32
0.0
 13
1.0
 23
0.0
 33
0.0
 40
0.0
 40
0.0
 40
0.0
 40
0.0
 40
0.0909090909090909
 40
0.0909090909090909
 40
0.0909090909090909
 40
0.0909090909090909
 40
0.1818181818181818
 40
0.1818181818181818
 40
0.1818181818181818
 40
0.1818181818181818
 40
0.2727272727272727
 40
0.2727272727272727
 40
0.2727272727272727
 40
0.2727272727272727
 40
0.3636363636363636
 40
0.3636363636363636
 40
0.3636363636363636
 40
0.3636363636363636
 40
0.4545454545454545
 40
0.4545454545454545
 40
0.4545454545454545
 40
0.4545454545454545
 40
0.5454545454545454
 40
0.5454545454545454
 40
0.5454545454545454
 40
0.5454545454545454
 40
0.6363636363636364
 40
0.6363636363636364
 40
0.6363636363636364
 40
0.6363636363636364
 40
0.7272727272727273
 40
0.7272727272727273
 40
0.7272727272727273
 40
0.7272727272727273
 40
0.8181818181818182
 40
0.8181818181818182
 40
0.8181818181818182
 40
0.8181818181818182
 40
1.0
 40
1.0
 40
1.0
 40
1.0
 10
-114.981
 20
90.6717
 30
0.0
 10
-111.2843
 20
94.0973
 30
0.0
 10
-109.2342
 20
96.9714
 30
0.0
 10
-105.0821
 20
93.4875
 30
0.0
 10
-105.0821
 20
93.4875
 30
0.0
 10
-103.9814
 20
92.6217
 30
0.0
 10
-103.6617
 20
92.7388
 30
0.0
 10
-103.3587
 20
94.1183
 30
0.0
 10
-103.3587
 20
94.1183
 30
0.0
 10
-103.1906
 20
94.8836
 30
0.0
 10
-103.3602
 20
95.4775
 30
0.0
 10
-104.0386
 20
96.5029
 30
0.0
 10
-104.0386
 20
96.5029
 30
0.0
 10
-106.7777
 20
99.519
 30
0.0
 10
-104.5327
 20
101.0003
 30
0.0
 10
-104.6675
 20
102.2967
 30
0.0
 10
-104.6675
 20
102.2967
 30
0.0
 10
-106.8158
 20
100.1578
 30
0.0
 10
-110.5093
 20
99.3533
 30
0.0
 10
-113.5228
 20
102.1487
 30
0.0
 10
-113.5228
 20
102.1487
 30
0.0
 10
-114.0352
 20
101.3756
 30
0.0
 10
-114.0248
 20
100.5574
 30
0.0
 10
-113.633
 20
99.0289
 30
0.0
 10
-113.633
 20
99.0289
 30
0.0
 10
-113.0626
 20
96.8033
 30
0.0
 10
-113.4494
 20
95.2011
 30
0.0
 10
-115.0815
 20
93.029
 30
0.0
 10
-115.0815
 20
93.029
 30
0.0
 10
-115.8452
 20
92.0126
 30
0.0
 10
-116.4198
 20
91.0307
 30
0.0
 10
-116.3584
 20
90.8468
 30
0.0
 10
-116.3584
 20
90.8468
 30
0.0
 10
-116.1904
 20
90.3428
 30
0.0
 10
-115.662
 20
90.2755
 30
0.0
 10
-114.9808
 20
90.6715
 30
0.0
 10
-114.9808
 20
90.6715
 30
0.0
 10
-114.9808
 20
90.6715
 30
0.0
 10
-114.981
 20
90.6717
 30
0.0
 10
-114.981
 20
90.6717
 30
0.0
  0
SPLINE
  5
67
330
1F
100
AcDbEntity
  8
layer 1
 62
     7
100
AcDbSpline
210
0.0
220
0.0
230
1.0
 70
    11
 71
     3
 72
    36
 73
    32
 74
     0
 42
0.0000000001
 43
0.0000000001
 12
1.0
 22
0.0
 32
0.0
 13
1.0
 23
0.0
 33
0.0
 40
0.0
 40
0.0
 40
0.0
 40
0.0
 40
0.1111111111111111
 40
0.1111111111111111
 40
0.1111111111111111
 40
0.1111111111111111
 40
0.2222222222222222
 40
0.2222222222222222
 40
0.2222222222222222
 40
0.2222222222222222
 40
0.3333333333333333
 40
0.3333333333333333
 40
0.3333333333333333
 40
0.3333333333333333
 40
0.4444444444444444
 40
0.4444444444444444
 40
0.4444444444444444
 40
0.4444444444444444
 40
0.5555555555555556
 40
0.5555555555555556
 40
0.5555555555555556
 40
0.5555555555555556
 40
0.6666666666666666
 40
0.6666666666666666
 40
0.6666666666666666
 40
0.6666666666666666
 40
0.7777777777777778
 40
0.7777777777777778
 40
0.7777777777777778
 40
0.7777777777777778
 40
1.0
 40
1.0
 40
1.0
 40
1.0
 10
-128.7951
 20
114.5221
 30
0.0
 10
-127.0099
 20
115.995
 30
0.0
 10
-128.1958
 20
117.2513
 30
0.0
 10
-129.5731
 20
118.07
 30
0.0
 10
-129.5731
 20
118.07
 30
0.0
 10
-133.8793
 20
120.0483
 30
0.0
 10
-131.3091
 20
124.5646
 30
0.0
 10
-129.7524
 20
125.496
 30
0.0
 10
-129.7524
 20
125.496
 30
0.0
 10
-129.7524
 20
125.496
 30
0.0
 10
-142.8436
 20
125.496
 30
0.0
 10
-142.8436
 20
125.496
 30
0.0
 10
-142.8436
 20
125.496
 30
0.0
 10
-141.2869
 20
124.5645
 30
0.0
 10
-138.7167
 20
120.0483
 30
0.0
 10
-143.0229
 20
118.07
 30
0.0
 10
-143.0229
 20
118.07
 30
0.0
 10
-144.4002
 20
117.2513
 30
0.0
 10
-145.5861
 20
115.995
 30
0.0
 10
-143.8009
 20
114.5221
 30
0.0
 10
-143.8009
 20
114.5221
 30
0.0
 10
-141.1359
 20
112.8405
 30
0.0
 10
-138.5537
 20
110.7038
 30
0.0
 10
-136.2981
 20
103.1978
 30
0.0
 10
-136.2981
 20
103.1978
 30
0.0
 10
-134.0422
 20
110.7038
 30
0.0
 10
-131.46
 20
112.8407
 30
0.0
 10
-128.7952
 20
114.5221
 30
0.0
 10
-128.7952
 20
114.5221
 30
0.0
 10
-128.7952
 20
114.5221
 30
0.0
 10
-128.7951
 20
114.5221
 30
0.0
 10
-128.7951
 20
114.5221
 30
0.0
  0
SPLINE
  5
68
330
1F
100
AcDbEntity
  8
layer 1
 62
     7
100
AcDbSpline
210
0.0
220
0.0
230
1.0
 70
    11
 71
     3
 72
    40
 73
    36
 74
     0
 42
0.0000000001
 43
0.0000000001
 12
1.0
 22
0.0
 32
0.0
 13
1.0
 23
0.0
 33
0.0
 40
0.0
 40
0.0
 40
0.0
 40
0.0
 40
0.1
 40
0.1
 40
0.1
 40
0.1
 40
0.2
 40
0.2
 40
0.2
 40
0.2
 40
0.3
 40
0.3
 40
0.3
 40
0.3
 40
0.4
 40
0.4
 40
0.4
 40
0.4
 40
0.5
 40
0.5
 40
0.5
 40
0.5
 40
0.6
 40
0.6
 40
0.6
 40
0.6
 40
0.7
 40
0.7
 40
0.7
 40
0.7
 40
0.8
 40
0.8
 40
0.8
 40
0.8
 40
1.0
 40
1.0
 40
1.0
 40
1.0
 10
-103.9908
 20
104.4014
 30
0.0
 10
-103.6962
 20
104.9711
 30
0.0
 10
-101.9258
 20
107.4894
 30
0.0
 10
-101.2538
 20
108.0255
 30
0.0
 10
-101.2538
 20
108.0255
 30
0.0
 10
-99.6026
 20
109.343
 30
0.0
 10
-99.4005
 20
110.2283
 30
0.0
 10
-101.6096
 20
110.7314
 30
0.0
 10
-101.6096
 20
110.7314
 30
0.0
 10
-103.002
 20
110.9726
 30
0.0
 10
-104.0517
 20
112.0998
 30
0.0
 10
-104.3237
 20
113.4702
 30
0.0
 10
-104.3237
 20
113.4702
 30
0.0
 10
-109.9214
 20
110.4055
 30
0.0
 10
-115.1191
 20
113.1832
 30
0.0
 10
-115.4526
 20
116.371
 30
0.0
 10
-115.4526
 20
116.371
 30
0.0
 10
-115.6003
 20
117.6583
 30
0.0
 10
-116.7396
 20
117.7342
 30
0.0
 10
-117.3102
 20
117.0936
 30
0.0
 10
-117.3102
 20
117.0936
 30
0.0
 10
-118.4224
 20
116.365
 30
0.0
 10
-118.9378
 20
114.6573
 30
0.0
 10
-118.4577
 20
112.0602
 30
0.0
 10
-118.4577
 20
112.0602
 30
0.0
 10
-115.5694
 20
103.4691
 30
0.0
 10
-107.8196
 20
102.405
 30
0.0
 10
-105.0386
 20
108.2003
 30
0.0
 10
-105.0386
 20
108.2003
 30
0.0
 10
-104.0175
 20
107.048
 30
0.0
 10
-103.8396
 20
106.7027
 30
0.0
 10
-103.9906
 20
104.4014
 30
0.0
 10
-103.9906
 20
104.4014
 30
0.0
 10
-103.9906
 20
104.4014
 30
0.0
 10
-103.9908
 20
104.4014
 30
0.0
 10
-103.9908
 20
104.4014
 30
0.0
  0
SPLINE
  5
69
330
1F
100
AcDbEntity
  8
layer 1
 62
     7
100
AcDbSpline
210
0.0
220
0.0
230
1.0
 70
    11
 71
     3
 72
    28
 73
    24
 74
     0
 42
0.0000000001
 43
0.0000000001
 12
1.0
 22
0.0
 32
0.0
 13
1.0
 23
0.0
 33
0.0
 40
0.0
 40
0.0
 40
0.0
 40
0.0
 40
0.1428571428571428
 40
0.1428571428571428
 40
0.1428571428571428
 40
0.1428571428571428
 40
0.2857142857142857
 40
0.2857142857142857
 40
0.2857142857142857
 40
0.2857142857142857
 40
0.4285714285714285
 40
0.4285714285714285
 40
0.4285714285714285
 40
0.4285714285714285
 40
0.5714285714285714
 40
0.5714285714285714
 40
0.5714285714285714
 40
0.5714285714285714
 40
0.7142857142857143
 40
0.7142857142857143
 40
0.7142857142857143
 40
0.7142857142857143
 40
1.0
 40
1.0
 40
1.0
 40
1.0
 10
-104.4706
 20
114.5951
 30
0.0
 10
-104.4781
 20
117.098
 30
0.0
 10
-103.246
 20
118.4557
 30
0.0
 10
-101.2173
 20
118.6155
 30
0.0
 10
-101.2173
 20
118.6155
 30
0.0
 10
-99.7038
 20
118.6155
 30
0.0
 10
-99.649
 20
119.3754
 30
0.0
 10
-101.0667
 20
120.6998
 30
0.0
 10
-101.0667
 20
120.6998
 30
0.0
 10
-102.6976
 20
122.2232
 30
0.0
 10
-106.446
 20
122.7887
 30
0.0
 10
-107.9844
 20
121.6047
 30
0.0
 10
-107.9844
 20
121.6047
 30
0.0
 10
-109.4527
 20
120.4747
 30
0.0
 10
-110.0702
 20
118.2238
 30
0.0
 10
-109.3043
 20
116.7046
 30
0.0
 10
-109.3043
 20
116.7046
 30
0.0
 10
-108.6615
 20
115.4297
 30
0.0
 10
-106.6288
 20
114.5716
 30
0.0
 10
-104.4706
 20
114.595
 30
0.0
 10
-104.4706
 20
114.595
 30
0.0
 10
-104.4706
 20
114.595
 30
0.0
 10
-104.4706
 20
114.5951
 30
0.0
 10
-104.4706
 20
114.5951
 30
0.0
  0
SPLINE
  5
6A
330
1F
100
AcDbEntity
  8
layer 1
 62
     7
100
AcDbSpline
210
0.0
220
0.0
230
1.0
 70
    11
 71
     3
 72
    16
 73
    12
 74
     0
 42
0.0000000001
 43
0.0000000001
 12
1.0
 22
0.0
 32
0.0
 13
1.0
 23
0.0
 33
0.0
 40
0.0
 40
0.0
 40
0.0
 40
0.0
 40
0.25
 40
0.25
 40
0.25
 40
0.25
 40
0.5
 40
0.5
 40
0.5
 40
0.5
 40
1.0
 40
1.0
 40
1.0
 40
1.0
 10
-93.6888
 20
125.496
 30
0.0
 10
-93.6888
 20
125.496
 30
0.0
 10
-103.4211
 20
125.496
 30
0.0
 10
-103.4211
 20
125.496
 30
0.0
 10
-103.4211
 20
125.496
 30
0.0
 10
-98.1828
 20
124.5874
 30
0.0
 10
-93.6888
 20
119.9953
 30
0.0
 10
-93.6888
 20
116.975
 30
0.0
 10
-93.6888
 20
116.975
 30
0.0
 10
-93.6888
 20
116.975
 30
0.0
 10
-93.6888
 20
125.496
 30
0.0
 10
-93.6888
 20
125.496
 30
0.0
  0
SPLINE
  5
6B
330
1F
100
AcDbEntity
  8
layer 1
 62
     7
100
AcDbSpline
210
0.0
220
0.0
230
1.0
 70
    11
 71
     3
 72
    20
 73
    16
 74
     0
 42
0.0000000001
 43
0.0000000001
 12
1.0
 22
0.0
 32
0.0
 13
1.0
 23
0.0
 33
0.0
 40
0.0
 40
0.0
 40
0.0
 40
0.0
 40
0.2
 40
0.2
 40
0.2
 40
0.2
 40
0.4
 40
0.4
 40
0.4
 40
0.4
 40
0.6
 40
0.6
 40
0.6
 40
0.6
 40
1.0
 40
1.0
 40
1.0
 40
1.0
 10
-120.8364
 20
120.9495
 30
0.0
 10
-119.1237
 20
121.1755
 30
0.0
 10
-114.572
 20
124.0759
 30
0.0
 10
-109.2118
 20
125.4961
 30
0.0
 10
-109.2118
 20
125.4961
 30
0.0
 10
-109.2118
 20
125.4961
 30
0.0
 10
-127.6183
 20
125.4961
 30
0.0
 10
-127.6183
 20
125.4961
 30
0.0
 10
-127.6183
 20
125.4961
 30
0.0
 10
-129.9344
 20
121.2313
 30
0.0
 10
-125.3325
 20
120.0399
 30
0.0
 10
-120.8365
 20
120.9495
 30
0.0
 10
-120.8365
 20
120.9495
 30
0.0
 10
-120.8365
 20
120.9495
 30
0.0
 10
-120.8364
 20
120.9495
 30
0.0
 10
-120.8364
 20
120.9495
 30
0.0
  0
SPLINE
  5
6C
330
1F
100
AcDbEntity
  8
layer 1
 62
     7
100
AcDbSpline
210
0.0
220
0.0
230
1.0
 70
    11
 71
     3
 72
    20
 73
    16
 74
     0
 42
0.0000000001
 43
0.0000000001
 12
1.0
 22
0.0
 32
0.0
 13
1.0
 23
0.0
 33
0.0
 40
0.0
 40
0.0
 40
0.0
 40
0.0
 40
0.2
 40
0.2
 40
0.2
 40
0.2
 40
0.4
 40
0.4
 40
0.4
 40
0.4
 40
0.6
 40
0.6
 40
0.6
 40
0.6
 40
1.0
 40
1.0
 40
1.0
 40
1.0
 10
-178.9072
 20
-0.7693
 30
0.0
 10
-178.9072
 20
-0.7693
 30
0.0
 10
-178.9072
 20
-18.5231
 30
0.0
 10
-178.9072
 20
-18.5231
 30
0.0
 10
-178.9072
 20
-18.5231
 30
0.0
 10
-177.1139
 20
-17.0937
 30
0.0
 10
-175.9188
 20
-16.6444
 30
0.0
 10
-174.4483
 20
-17.2836
 30
0.0
 10
-174.4483
 20
-17.2836
 30
0.0
 10
-173.3471
 20
-8.6337
 30
0.0
 10
-171.0255
 20
-9.586
 30
0.0
 10
-170.589
 20
-3.856
 30
0.0
 10
-170.589
 20
-3.856
 30
0.0
 10
-171.0409
 20
2.7188
 30
0.0
 10
-175.389
 20
3.0622
 30
0.0
 10
-178.9072
 20
-0.7693
 30
0.0
  0
SPLINE
  5
6D
330
1F
100
AcDbEntity
  8
layer 1
 62
     7
100
AcDbSpline
210
0.0
220
0.0
230
1.0
 70
    11
 71
     3
 72
    20
 73
    16
 74
     0
 42
0.0000000001
 43
0.0000000001
 12
1.0
 22
0.0
 32
0.0
 13
1.0
 23
0.0
 33
0.0
 40
0.0
 40
0.0
 40
0.0
 40
0.0
 40
0.2
 40
0.2
 40
0.2
 40
0.2
 40
0.4
 40
0.4
 40
0.4
 40
0.4
 40
0.6
 40
0.6
 40
0.6
 40
0.6
 40
1.0
 40
1.0
 40
1.0
 40
1.0
 10
-164.4126
 20
-7.6078
 30
0.0
 10
-161.5852
 20
-6.8
 30
0.0
 10
-158.6434
 20
-8.5629
 30
0.0
 10
-159.2994
 20
-12.0628
 30
0.0
 10
-159.2994
 20
-12.0628
 30
0.0
 10
-158.0334
 20
-11.6289
 30
0.0
 10
-156.0536
 20
-11.8505
 30
0.0
 10
-154.2033
 20
-13.6038
 30
0.0
 10
-154.2033
 20
-13.6038
 30
0.0
 10
-152.0969
 20
-12.2693
 30
0.0
 10
-153.7807
 20
-9.0626
 30
0.0
 10
-154.7601
 20
-7.7117
 30
0.0
 10
-154.7601
 20
-7.7117
 30
0.0
 10
-157.3478
 20
-4.2692
 30
0.0
 10
-165.0788
 20
-3.0792
 30
0.0
 10
-164.4126
 20
-7.6078
 30
0.0
  0
SPLINE
  5
6E
330
1F
100
AcDbEntity
  8
layer 1
 62
     7
100
AcDbSpline
210
0.0
220
0.0
230
1.0
 70
    11
 71
     3
 72
    20
 73
    16
 74
     0
 42
0.0000000001
 43
0.0000000001
 12
1.0
 22
0.0
 32
0.0
 13
1.0
 23
0.0
 33
0.0
 40
0.0
 40
0.0
 40
0.0
 40
0.0
 40
0.2
 40
0.2
 40
0.2
 40
0.2
 40
0.4
 40
0.4
 40
0.4
 40
0.4
 40
0.6
 40
0.6
 40
0.6
 40
0.6
 40
1.0
 40
1.0
 40
1.0
 40
1.0
 10
-142.7141
 20
-38.0028
 30
0.0
 10
-141.9247
 20
-41.9375
 30
0.0
 10
-138.43
 20
-43.5432
 30
0.0
 10
-136.2979
 20
-40.3996
 30
0.0
 10
-136.2979
 20
-40.3996
 30
0.0
 10
-134.1659
 20
-43.543
 30
0.0
 10
-130.6712
 20
-41.9375
 30
0.0
 10
-129.8818
 20
-38.0028
 30
0.0
 10
-129.8818
 20
-38.0028
 30
0.0
 10
-128.7035
 20
-27.5393
 30
0.0
 10
-135.2036
 20
-19.6416
 30
0.0
 10
-136.2979
 20
-9.861
 30
0.0
 10
-136.2979
 20
-9.861
 30
0.0
 10
-137.3923
 20
-19.6416
 30
0.0
 10
-143.8923
 20
-27.5393
 30
0.0
 10
-142.7141
 20
-38.0028
 30
0.0
  0
SPLINE
  5
6F
330
1F
100
AcDbEntity
  8
layer 1
 62
     7
100
AcDbSpline
210
0.0
220
0.0
230
1.0
 70
    11
 71
     3
 72
    24
 73
    20
 74
     0
 42
0.0000000001
 43
0.0000000001
 12
1.0
 22
0.0
 32
0.0
 13
1.0
 23
0.0
 33
0.0
 40
0.0
 40
0.0
 40
0.0
 40
0.0
 40
0.1666666666666667
 40
0.1666666666666667
 40
0.1666666666666667
 40
0.1666666666666667
 40
0.3333333333333333
 40
0.3333333333333333
 40
0.3333333333333333
 40
0.3333333333333333
 40
0.5
 40
0.5
 40
0.5
 40
0.5
 40
0.6666666666666666
 40
0.6666666666666666
 40
0.6666666666666666
 40
0.6666666666666666
 40
1.0
 40
1.0
 40
1.0
 40
1.0
 10
-171.0628
 20
-29.1072
 30
0.0
 10
-170.1646
 20
-30.0099
 30
0.0
 10
-169.7236
 20
-30.0176
 30
0.0
 10
-169.5189
 20
-28.5953
 30
0.0
 10
-169.5189
 20
-28.5953
 30
0.0
 10
-170.6246
 20
-21.8005
 30
0.0
 10
-168.1409
 20
-14.624
 30
0.0
 10
-162.7733
 20
-13.1241
 30
0.0
 10
-162.7733
 20
-13.1241
 30
0.0
 10
-160.9187
 20
-12.4208
 30
0.0
 10
-160.8279
 20
-12.1826
 30
0.0
 10
-162.1148
 20
-11.398
 30
0.0
 10
-162.1148
 20
-11.398
 30
0.0
 10
-171.7789
 20
-7.4083
 30
0.0
 10
-175.3711
 20
-24.8476
 30
0.0
 10
-171.0628
 20
-29.1074
 30
0.0
 10
-171.0628
 20
-29.1074
 30
0.0
 10
-171.0628
 20
-29.1074
 30
0.0
 10
-171.0628
 20
-29.1072
 30
0.0
 10
-171.0628
 20
-29.1072
 30
0.0
  0
SPLINE
  5
70
330
1F
100
AcDbEntity
  8
layer 1
 62
     7
100
AcDbSpline
210
0.0
220
0.0
230
1.0
 70
    11
 71
     3
 72
    20
 73
    16
 74
     0
 42
0.0000000001
 43
0.0000000001
 12
1.0
 22
0.0
 32
0.0
 13
1.0
 23
0.0
 33
0.0
 40
0.0
 40
0.0
 40
0.0
 40
0.0
 40
0.2
 40
0.2
 40
0.2
 40
0.2
 40
0.4
 40
0.4
 40
0.4
 40
0.4
 40
0.6
 40
0.6
 40
0.6
 40
0.6
 40
1.0
 40
1.0
 40
1.0
 40
1.0
 10
-153.5758
 20
-14.7577
 30
0.0
 10
-151.2277
 20
-17.875
 30
0.0
 10
-150.3747
 20
-21.2648
 30
0.0
 10
-151.4099
 20
-26.4086
 30
0.0
 10
-151.4099
 20
-26.4086
 30
0.0
 10
-145.8931
 20
-26.5206
 30
0.0
 10
-141.2455
 20
-20.6065
 30
0.0
 10
-140.3021
 20
-15.5802
 30
0.0
 10
-140.3021
 20
-15.5802
 30
0.0
 10
-144.5278
 20
-17.3472
 30
0.0
 10
-148.9185
 20
-16.6908
 30
0.0
 10
-150.8688
 20
-12.0727
 30
0.0
 10
-150.8688
 20
-12.0727
 30
0.0
 10
-151.245
 20
-13.1385
 30
0.0
 10
-152.4726
 20
-14.5087
 30
0.0
 10
-153.5758
 20
-14.7577
 30
0.0
  0
SPLINE
  5
71
330
1F
100
AcDbEntity
  8
layer 1
 62
     7
100
AcDbSpline
210
0.0
220
0.0
230
1.0
 70
    11
 71
     3
 72
    28
 73
    24
 74
     0
 42
0.0000000001
 43
0.0000000001
 12
1.0
 22
0.0
 32
0.0
 13
1.0
 23
0.0
 33
0.0
 40
0.0
 40
0.0
 40
0.0
 40
0.0
 40
0.1428571428571428
 40
0.1428571428571428
 40
0.1428571428571428
 40
0.1428571428571428
 40
0.2857142857142857
 40
0.2857142857142857
 40
0.2857142857142857
 40
0.2857142857142857
 40
0.4285714285714285
 40
0.4285714285714285
 40
0.4285714285714285
 40
0.4285714285714285
 40
0.5714285714285714
 40
0.5714285714285714
 40
0.5714285714285714
 40
0.5714285714285714
 40
0.7142857142857143
 40
0.7142857142857143
 40
0.7142857142857143
 40
0.7142857142857143
 40
1.0
 40
1.0
 40
1.0
 40
1.0
 10
-162.5986
 20
-19.2648
 30
0.0
 10
-164.8012
 20
-20.663
 30
0.0
 10
-167.6923
 20
-26.2332
 30
0.0
 10
-166.3528
 20
-31.0197
 30
0.0
 10
-166.3528
 20
-31.0197
 30
0.0
 10
-165.0612
 20
-28.1925
 30
0.0
 10
-161.7991
 20
-28.1904
 30
0.0
 10
-161.1571
 20
-29.0365
 30
0.0
 10
-161.1571
 20
-29.0365
 30
0.0
 10
-160.9723
 20
-27.8683
 30
0.0
 10
-159.7258
 20
-25.3594
 30
0.0
 10
-159.4601
 20
-25.3594
 30
0.0
 10
-159.4601
 20
-25.3594
 30
0.0
 10
-158.5202
 20
-29.2091
 30
0.0
 10
-154.2051
 20
-28.8208
 30
0.0
 10
-153.8241
 20
-25.8583
 30
0.0
 10
-153.8241
 20
-25.8583
 30
0.0
 10
-153.1257
 20
-20.8307
 30
0.0
 10
-158.002
 20
-16.5719
 30
0.0
 10
-162.5986
 20
-19.2649
 30
0.0
 10
-162.5986
 20
-19.2649
 30
0.0
 10
-162.5986
 20
-19.2649
 30
0.0
 10
-162.5986
 20
-19.2648
 30
0.0
 10
-162.5986
 20
-19.2648
 30
0.0
  0
SPLINE
  5
72
330
1F
100
AcDbEntity
  8
layer 1
 62
     7
100
AcDbSpline
210
0.0
220
0.0
230
1.0
 70
    11
 71
     3
 72
    24
 73
    20
 74
     0
 42
0.0000000001
 43
0.0000000001
 12
1.0
 22
0.0
 32
0.0
 13
1.0
 23
0.0
 33
0.0
 40
0.0
 40
0.0
 40
0.0
 40
0.0
 40
0.1666666666666667
 40
0.1666666666666667
 40
0.1666666666666667
 40
0.1666666666666667
 40
0.3333333333333333
 40
0.3333333333333333
 40
0.3333333333333333
 40
0.3333333333333333
 40
0.5
 40
0.5
 40
0.5
 40
0.5
 40
0.6666666666666666
 40
0.6666666666666666
 40
0.6666666666666666
 40
0.6666666666666666
 40
1.0
 40
1.0
 40
1.0
 40
1.0
 10
-178.9072
 20
-42.6271
 30
0.0
 10
-177.2215
 20
-38.4379
 30
0.0
 10
-174.0623
 20
-37.3136
 30
0.0
 10
-170.3237
 20
-38.1144
 30
0.0
 10
-170.3237
 20
-38.1144
 30
0.0
 10
-168.8014
 20
-38.5373
 30
0.0
 10
-168.1285
 20
-37.5745
 30
0.0
 10
-169.1775
 20
-36.2589
 30
0.0
 10
-169.1775
 20
-36.2589
 30
0.0
 10
-175.4827
 20
-32.2747
 30
0.0
 10
-172.9051
 20
-26.2754
 30
0.0
 10
-175.2423
 20
-21.4471
 30
0.0
 10
-175.2423
 20
-21.4471
 30
0.0
 10
-175.7889
 20
-19.2326
 30
0.0
 10
-178.9072
 20
-19.2676
 30
0.0
 10
-178.9072
 20
-20.2287
 30
0.0
 10
-178.9072
 20
-20.2287
 30
0.0
 10
-178.9072
 20
-20.2287
 30
0.0
 10
-178.9072
 20
-42.6271
 30
0.0
 10
-178.9072
 20
-42.6271
 30
0.0
  0
SPLINE
  5
73
330
1F
100
AcDbEntity
  8
layer 1
 62
     7
100
AcDbSpline
210
0.0
220
0.0
230
1.0
 70
    11
 71
     3
 72
    20
 73
    16
 74
     0
 42
0.0000000001
 43
0.0000000001
 12
1.0
 22
0.0
 32
0.0
 13
1.0
 23
0.0
 33
0.0
 40
0.0
 40
0.0
 40
0.0
 40
0.0
 40
0.2
 40
0.2
 40
0.2
 40
0.2
 40
0.4
 40
0.4
 40
0.4
 40
0.4
 40
0.6
 40
0.6
 40
0.6
 40
0.6
 40
1.0
 40
1.0
 40
1.0
 40
1.0
 10
-163.1329
 20
-36.3407
 30
0.0
 10
-162.1189
 20
-40.5299
 30
0.0
 10
-154.6959
 20
-42.0113
 30
0.0
 10
-153.1579
 20
-37.1961
 30
0.0
 10
-153.1579
 20
-37.1961
 30
0.0
 10
-152.8547
 20
-35.9883
 30
0.0
 10
-153.3886
 20
-35.6975
 30
0.0
 10
-154.958
 20
-36.2154
 30
0.0
 10
-154.958
 20
-36.2154
 30
0.0
 10
-159.6029
 20
-37.0123
 30
0.0
 10
-160.643
 20
-33.5057
 30
0.0
 10
-161.2707
 20
-31.482
 30
0.0
 10
-161.2707
 20
-31.482
 30
0.0
 10
-162.7075
 20
-32.6651
 30
0.0
 10
-163.507
 20
-34.6789
 30
0.0
 10
-163.1329
 20
-36.3407
 30
0.0
  0
SPLINE
  5
74
330
1F
100
AcDbEntity
  8
layer 1
 62
     7
100
AcDbSpline
210
0.0
220
0.0
230
1.0
 70
    11
 71
     3
 72
    44
 73
    40
 74
     0
 42
0.0000000001
 43
0.0000000001
 12
1.0
 22
0.0
 32
0.0
 13
1.0
 23
0.0
 33
0.0
 40
0.0
 40
0.0
 40
0.0
 40
0.0
 40
0.0909090909090909
 40
0.0909090909090909
 40
0.0909090909090909
 40
0.0909090909090909
 40
0.1818181818181818
 40
0.1818181818181818
 40
0.1818181818181818
 40
0.1818181818181818
 40
0.2727272727272727
 40
0.2727272727272727
 40
0.2727272727272727
 40
0.2727272727272727
 40
0.3636363636363636
 40
0.3636363636363636
 40
0.3636363636363636
 40
0.3636363636363636
 40
0.4545454545454545
 40
0.4545454545454545
 40
0.4545454545454545
 40
0.4545454545454545
 40
0.5454545454545454
 40
0.5454545454545454
 40
0.5454545454545454
 40
0.5454545454545454
 40
0.6363636363636364
 40
0.6363636363636364
 40
0.6363636363636364
 40
0.6363636363636364
 40
0.7272727272727273
 40
0.7272727272727273
 40
0.7272727272727273
 40
0.7272727272727273
 40
0.8181818181818182
 40
0.8181818181818182
 40
0.8181818181818182
 40
0.8181818181818182
 40
1.0
 40
1.0
 40
1.0
 40
1.0
 10
-146.6897
 20
-42.3115
 30
0.0
 10
-146.6897
 20
-40.0828
 30
0.0
 10
-147.6242
 20
-39.1323
 30
0.0
 10
-148.8326
 20
-40.1318
 30
0.0
 10
-148.8326
 20
-40.1318
 30
0.0
 10
-150.44
 20
-41.4615
 30
0.0
 10
-151.9634
 20
-46.1313
 30
0.0
 10
-151.9913
 20
-49.8141
 30
0.0
 10
-151.9913
 20
-49.8141
 30
0.0
 10
-152.0344
 20
-55.5168
 30
0.0
 10
-148.3663
 20
-58.6462
 30
0.0
 10
-145.1711
 20
-55.6328
 30
0.0
 10
-145.1711
 20
-55.6328
 30
0.0
 10
-142.1059
 20
-52.578
 30
0.0
 10
-137.8176
 20
-54.1961
 30
0.0
 10
-136.2979
 20
-57.6801
 30
0.0
 10
-136.2979
 20
-57.6801
 30
0.0
 10
-134.7783
 20
-54.1961
 30
0.0
 10
-130.4899
 20
-52.5781
 30
0.0
 10
-127.4247
 20
-55.6328
 30
0.0
 10
-127.4247
 20
-55.6328
 30
0.0
 10
-124.2296
 20
-58.6462
 30
0.0
 10
-120.5615
 20
-55.5168
 30
0.0
 10
-120.6046
 20
-49.8141
 30
0.0
 10
-120.6046
 20
-49.8141
 30
0.0
 10
-120.6323
 20
-46.1313
 30
0.0
 10
-122.1559
 20
-41.4615
 30
0.0
 10
-123.7632
 20
-40.1318
 30
0.0
 10
-123.7632
 20
-40.1318
 30
0.0
 10
-124.9716
 20
-39.1323
 30
0.0
 10
-125.9062
 20
-40.0828
 30
0.0
 10
-125.9062
 20
-42.3115
 30
0.0
 10
-125.9062
 20
-42.3115
 30
0.0
 10
-126.0332
 20
-49.1911
 30
0.0
 10
-134.1441
 20
-46.9548
 30
0.0
 10
-136.2979
 20
-42.0697
 30
0.0
 10
-136.2979
 20
-42.0697
 30
0.0
 10
-138.4517
 20
-46.9548
 30
0.0
 10
-146.5627
 20
-49.1911
 30
0.0
 10
-146.6897
 20
-42.3115
 30
0.0
  0
SPLINE
  5
75
330
1F
100
AcDbEntity
  8
layer 1
 62
     7
100
AcDbSpline
210
0.0
220
0.0
230
1.0
 70
    11
 71
     3
 72
    24
 73
    20
 74
     0
 42
0.0000000001
 43
0.0000000001
 12
1.0
 22
0.0
 32
0.0
 13
1.0
 23
0.0
 33
0.0
 40
0.0
 40
0.0
 40
0.0
 40
0.0
 40
0.1666666666666667
 40
0.1666666666666667
 40
0.1666666666666667
 40
0.1666666666666667
 40
0.3333333333333333
 40
0.3333333333333333
 40
0.3333333333333333
 40
0.3333333333333333
 40
0.5
 40
0.5
 40
0.5
 40
0.5
 40
0.6666666666666666
 40
0.6666666666666666
 40
0.6666666666666666
 40
0.6666666666666666
 40
1.0
 40
1.0
 40
1.0
 40
1.0
 10
-170.2909
 20
-40.9167
 30
0.0
 10
-172.922
 20
-42.0842
 30
0.0
 10
-174.2155
 20
-44.8571
 30
0.0
 10
-173.1186
 20
-46.9783
 30
0.0
 10
-173.1186
 20
-46.9783
 30
0.0
 10
-172.0653
 20
-48.8824
 30
0.0
 10
-169.068
 20
-49.127
 30
0.0
 10
-166.9852
 20
-47.7383
 30
0.0
 10
-166.9852
 20
-47.7383
 30
0.0
 10
-167.3092
 20
-46.7501
 30
0.0
 10
-167.1328
 20
-45.8434
 30
0.0
 10
-166.6894
 20
-45.1175
 30
0.0
 10
-166.6894
 20
-45.1175
 30
0.0
 10
-163.4322
 20
-48.8067
 30
0.0
 10
-157.6584
 20
-44.3543
 30
0.0
 10
-153.9922
 20
-41.0618
 30
0.0
 10
-153.9922
 20
-41.0618
 30
0.0
 10
-163.1606
 20
-43.1117
 30
0.0
 10
-165.0464
 20
-39.0887
 30
0.0
 10
-170.2909
 20
-40.9167
 30
0.0
  0
SPLINE
  5
76
330
1F
100
AcDbEntity
  8
layer 1
 62
     7
100
AcDbSpline
210
0.0
220
0.0
230
1.0
 70
    11
 71
     3
 72
    20
 73
    16
 74
     0
 42
0.0000000001
 43
0.0000000001
 12
1.0
 22
0.0
 32
0.0
 13
1.0
 23
0.0
 33
0.0
 40
0.0
 40
0.0
 40
0.0
 40
0.0
 40
0.2
 40
0.2
 40
0.2
 40
0.2
 40
0.4
 40
0.4
 40
0.4
 40
0.4
 40
0.6
 40
0.6
 40
0.6
 40
0.6
 40
1.0
 40
1.0
 40
1.0
 40
1.0
 10
-178.9072
 20
-56.6922
 30
0.0
 10
-171.8254
 20
-63.8923
 30
0.0
 10
-163.5169
 20
-58.3298
 30
0.0
 10
-160.3323
 20
-51.2634
 30
0.0
 10
-160.3323
 20
-51.2634
 30
0.0
 10
-163.7093
 20
-52.6848
 30
0.0
 10
-166.6262
 20
-51.4167
 30
0.0
 10
-166.7675
 20
-49.0141
 30
0.0
 10
-166.7675
 20
-49.0141
 30
0.0
 10
-170.565
 20
-53.9241
 30
0.0
 10
-178.0539
 20
-51.0177
 30
0.0
 10
-178.9072
 20
-45.1687
 30
0.0
 10
-178.9072
 20
-45.1687
 30
0.0
 10
-178.9072
 20
-45.1687
 30
0.0
 10
-178.9072
 20
-56.6922
 30
0.0
 10
-178.9072
 20
-56.6922
 30
0.0
  0
SPLINE
  5
77
330
1F
100
AcDbEntity
  8
layer 1
 62
     7
100
AcDbSpline
210
0.0
220
0.0
230
1.0
 70
    11
 71
     3
 72
    48
 73
    44
 74
     0
 42
0.0000000001
 43
0.0000000001
 12
1.0
 22
0.0
 32
0.0
 13
1.0
 23
0.0
 33
0.0
 40
0.0
 40
0.0
 40
0.0
 40
0.0
 40
0.0833333333333333
 40
0.0833333333333333
 40
0.0833333333333333
 40
0.0833333333333333
 40
0.1666666666666667
 40
0.1666666666666667
 40
0.1666666666666667
 40
0.1666666666666667
 40
0.25
 40
0.25
 40
0.25
 40
0.25
 40
0.3333333333333333
 40
0.3333333333333333
 40
0.3333333333333333
 40
0.3333333333333333
 40
0.4166666666666667
 40
0.4166666666666667
 40
0.4166666666666667
 40
0.4166666666666667
 40
0.5
 40
0.5
 40
0.5
 40
0.5
 40
0.5833333333333334
 40
0.5833333333333334
 40
0.5833333333333334
 40
0.5833333333333334
 40
0.6666666666666666
 40
0.6666666666666666
 40
0.6666666666666666
 40
0.6666666666666666
 40
0.75
 40
0.75
 40
0.75
 40
0.75
 40
0.8333333333333334
 40
0.8333333333333334
 40
0.8333333333333334
 40
0.8333333333333334
 40
1.0
 40
1.0
 40
1.0
 40
1.0
 10
-166.4488
 20
-65.7436
 30
0.0
 10
-167.9775
 20
-69.8691
 30
0.0
 10
-166.8225
 20
-74.2936
 30
0.0
 10
-163.9972
 20
-75.1347
 30
0.0
 10
-163.9972
 20
-75.1347
 30
0.0
 10
-162.7923
 20
-75.4935
 30
0.0
 10
-162.3591
 20
-74.9494
 30
0.0
 10
-162.8131
 20
-73.6474
 30
0.0
 10
-162.8131
 20
-73.6474
 30
0.0
 10
-164.1381
 20
-67.3649
 30
0.0
 10
-159.2404
 20
-63.208
 30
0.0
 10
-154.4588
 20
-62.8687
 30
0.0
 10
-154.4588
 20
-62.8687
 30
0.0
 10
-152.1525
 20
-62.7106
 30
0.0
 10
-151.4485
 20
-62.7992
 30
0.0
 10
-150.0327
 20
-63.4254
 30
0.0
 10
-150.0327
 20
-63.4254
 30
0.0
 10
-147.4918
 20
-64.5771
 30
0.0
 10
-146.4107
 20
-64.0057
 30
0.0
 10
-147.274
 20
-61.777
 30
0.0
 10
-147.274
 20
-61.777
 30
0.0
 10
-147.7243
 20
-60.6308
 30
0.0
 10
-147.7635
 20
-60.1322
 30
0.0
 10
-147.4567
 20
-59.4588
 30
0.0
 10
-147.4567
 20
-59.4588
 30
0.0
 10
-146.9332
 20
-58.3099
 30
0.0
 10
-147.3701
 20
-58.1271
 30
0.0
 10
-149.144
 20
-58.753
 30
0.0
 10
-149.144
 20
-58.753
 30
0.0
 10
-151.5963
 20
-59.7641
 30
0.0
 10
-154.6971
 20
-59.6068
 30
0.0
 10
-155.6062
 20
-56.4779
 30
0.0
 10
-155.6062
 20
-56.4779
 30
0.0
 10
-155.9448
 20
-55.4601
 30
0.0
 10
-156.2028
 20
-55.2354
 30
0.0
 10
-157.1391
 20
-55.1432
 30
0.0
 10
-157.1391
 20
-55.1432
 30
0.0
 10
-160.2955
 20
-55.7117
 30
0.0
 10
-165.0814
 20
-62.2283
 30
0.0
 10
-166.4489
 20
-65.7436
 30
0.0
 10
-166.4489
 20
-65.7436
 30
0.0
 10
-166.4489
 20
-65.7436
 30
0.0
 10
-166.4488
 20
-65.7436
 30
0.0
 10
-166.4488
 20
-65.7436
 30
0.0
  0
SPLINE
  5
78
330
1F
100
AcDbEntity
  8
layer 1
 62
     7
100
AcDbSpline
210
0.0
220
0.0
230
1.0
 70
    11
 71
     3
 72
    24
 73
    20
 74
     0
 42
0.0000000001
 43
0.0000000001
 12
1.0
 22
0.0
 32
0.0
 13
1.0
 23
0.0
 33
0.0
 40
0.0
 40
0.0
 40
0.0
 40
0.0
 40
0.1666666666666667
 40
0.1666666666666667
 40
0.1666666666666667
 40
0.1666666666666667
 40
0.3333333333333333
 40
0.3333333333333333
 40
0.3333333333333333
 40
0.3333333333333333
 40
0.5
 40
0.5
 40
0.5
 40
0.5
 40
0.6666666666666666
 40
0.6666666666666666
 40
0.6666666666666666
 40
0.6666666666666666
 40
1.0
 40
1.0
 40
1.0
 40
1.0
 10
-178.975
 20
-59.7051
 30
0.0
 10
-178.975
 20
-59.7051
 30
0.0
 10
-178.975
 20
-67.5289
 30
0.0
 10
-178.975
 20
-67.5289
 30
0.0
 10
-178.975
 20
-67.5289
 30
0.0
 10
-177.3925
 20
-71.8532
 30
0.0
 10
-174.0687
 20
-71.7038
 30
0.0
 10
-170.2916
 20
-65.57
 30
0.0
 10
-170.2916
 20
-65.57
 30
0.0
 10
-169.6041
 20
-64.2407
 30
0.0
 10
-170.057
 20
-63.7144
 30
0.0
 10
-171.4656
 20
-64.2054
 30
0.0
 10
-171.4656
 20
-64.2054
 30
0.0
 10
-174.0137
 20
-65.0706
 30
0.0
 10
-176.7867
 20
-63.202
 30
0.0
 10
-178.975
 20
-59.705
 30
0.0
 10
-178.975
 20
-59.705
 30
0.0
 10
-178.975
 20
-59.705
 30
0.0
 10
-178.975
 20
-59.7051
 30
0.0
 10
-178.975
 20
-59.7051
 30
0.0
  0
SPLINE
  5
79
330
1F
100
AcDbEntity
  8
layer 1
 62
     7
100
AcDbSpline
210
0.0
220
0.0
230
1.0
 70
    11
 71
     3
 72
    36
 73
    32
 74
     0
 42
0.0000000001
 43
0.0000000001
 12
1.0
 22
0.0
 32
0.0
 13
1.0
 23
0.0
 33
0.0
 40
0.0
 40
0.0
 40
0.0
 40
0.0
 40
0.1111111111111111
 40
0.1111111111111111
 40
0.1111111111111111
 40
0.1111111111111111
 40
0.2222222222222222
 40
0.2222222222222222
 40
0.2222222222222222
 40
0.2222222222222222
 40
0.3333333333333333
 40
0.3333333333333333
 40
0.3333333333333333
 40
0.3333333333333333
 40
0.4444444444444444
 40
0.4444444444444444
 40
0.4444444444444444
 40
0.4444444444444444
 40
0.5555555555555556
 40
0.5555555555555556
 40
0.5555555555555556
 40
0.5555555555555556
 40
0.6666666666666666
 40
0.6666666666666666
 40
0.6666666666666666
 40
0.6666666666666666
 40
0.7777777777777778
 40
0.7777777777777778
 40
0.7777777777777778
 40
0.7777777777777778
 40
1.0
 40
1.0
 40
1.0
 40
1.0
 10
-178.975
 20
-96.7982
 30
0.0
 10
-178.2371
 20
-94.3345
 30
0.0
 10
-177.0645
 20
-93.8292
 30
0.0
 10
-175.3652
 20
-93.0133
 30
0.0
 10
-175.3652
 20
-93.0133
 30
0.0
 10
-173.7664
 20
-92.5787
 30
0.0
 10
-174.6653
 20
-91.3884
 30
0.0
 10
-174.8748
 20
-90.8801
 30
0.0
 10
-174.8748
 20
-90.8801
 30
0.0
 10
-176.663
 20
-85.3405
 30
0.0
 10
-173.8122
 20
-83.1985
 30
0.0
 10
-171.9518
 20
-79.1802
 30
0.0
 10
-171.9518
 20
-79.1802
 30
0.0
 10
-171.3448
 20
-77.4462
 30
0.0
 10
-171.4041
 20
-75.3612
 30
0.0
 10
-172.0821
 20
-74.6123
 30
0.0
 10
-172.0821
 20
-74.6123
 30
0.0
 10
-172.5189
 20
-74.1296
 30
0.0
 10
-172.9811
 20
-74.0293
 30
0.0
 10
-174.0926
 20
-74.176
 30
0.0
 10
-174.0926
 20
-74.176
 30
0.0
 10
-175.5252
 20
-74.3651
 30
0.0
 10
-175.5429
 20
-74.3536
 30
0.0
 10
-176.5104
 20
-72.6025
 30
0.0
 10
-176.5104
 20
-72.6025
 30
0.0
 10
-177.0464
 20
-71.6323
 30
0.0
 10
-178.7975
 20
-70.9947
 30
0.0
 10
-178.9751
 20
-70.8849
 30
0.0
 10
-178.9751
 20
-70.8849
 30
0.0
 10
-178.9751
 20
-70.8849
 30
0.0
 10
-178.975
 20
-96.7982
 30
0.0
 10
-178.975
 20
-96.7982
 30
0.0
  0
SPLINE
  5
7A
330
1F
100
AcDbEntity
  8
layer 1
 62
     7
100
AcDbSpline
210
0.0
220
0.0
230
1.0
 70
    11
 71
     3
 72
    36
 73
    32
 74
     0
 42
0.0000000001
 43
0.0000000001
 12
1.0
 22
0.0
 32
0.0
 13
1.0
 23
0.0
 33
0.0
 40
0.0
 40
0.0
 40
0.0
 40
0.0
 40
0.1111111111111111
 40
0.1111111111111111
 40
0.1111111111111111
 40
0.1111111111111111
 40
0.2222222222222222
 40
0.2222222222222222
 40
0.2222222222222222
 40
0.2222222222222222
 40
0.3333333333333333
 40
0.3333333333333333
 40
0.3333333333333333
 40
0.3333333333333333
 40
0.4444444444444444
 40
0.4444444444444444
 40
0.4444444444444444
 40
0.4444444444444444
 40
0.5555555555555556
 40
0.5555555555555556
 40
0.5555555555555556
 40
0.5555555555555556
 40
0.6666666666666666
 40
0.6666666666666666
 40
0.6666666666666666
 40
0.6666666666666666
 40
0.7777777777777778
 40
0.7777777777777778
 40
0.7777777777777778
 40
0.7777777777777778
 40
1.0
 40
1.0
 40
1.0
 40
1.0
 10
-152.3008
 20
-70.9293
 30
0.0
 10
-160.1704
 20
-76.7402
 30
0.0
 10
-152.4283
 20
-83.1883
 30
0.0
 10
-150.353
 20
-89.2675
 30
0.0
 10
-150.353
 20
-89.2675
 30
0.0
 10
-149.0114
 20
-92.8428
 30
0.0
 10
-151.6933
 20
-95.1306
 30
0.0
 10
-152.1025
 20
-98.0342
 30
0.0
 10
-152.1025
 20
-98.0342
 30
0.0
 10
-146.911
 20
-96.691
 30
0.0
 10
-144.256
 20
-92.3516
 30
0.0
 10
-143.3438
 20
-88.3236
 30
0.0
 10
-143.3438
 20
-88.3236
 30
0.0
 10
-141.6282
 20
-81.4393
 30
0.0
 10
-145.5905
 20
-79.2602
 30
0.0
 10
-149.5018
 20
-77.3215
 30
0.0
 10
-149.5018
 20
-77.3215
 30
0.0
 10
-149.0524
 20
-74.7655
 30
0.0
 10
-146.2464
 20
-74.987
 30
0.0
 10
-142.7561
 20
-75.8909
 30
0.0
 10
-142.7561
 20
-75.8909
 30
0.0
 10
-141.8655
 20
-76.1215
 30
0.0
 10
-141.7946
 20
-76.0625
 30
0.0
 10
-141.7946
 20
-75.0908
 30
0.0
 10
-141.7946
 20
-75.0908
 30
0.0
 10
-141.7946
 20
-72.1243
 30
0.0
 10
-148.7564
 20
-69.1157
 30
0.0
 10
-152.3008
 20
-70.9294
 30
0.0
 10
-152.3008
 20
-70.9294
 30
0.0
 10
-152.3008
 20
-70.9294
 30
0.0
 10
-152.3008
 20
-70.9293
 30
0.0
 10
-152.3008
 20
-70.9293
 30
0.0
  0
SPLINE
  5
7B
330
1F
100
AcDbEntity
  8
layer 1
 62
     7
100
AcDbSpline
210
0.0
220
0.0
230
1.0
 70
    11
 71
     3
 72
    44
 73
    40
 74
     0
 42
0.0000000001
 43
0.0000000001
 12
1.0
 22
0.0
 32
0.0
 13
1.0
 23
0.0
 33
0.0
 40
0.0
 40
0.0
 40
0.0
 40
0.0
 40
0.0909090909090909
 40
0.0909090909090909
 40
0.0909090909090909
 40
0.0909090909090909
 40
0.1818181818181818
 40
0.1818181818181818
 40
0.1818181818181818
 40
0.1818181818181818
 40
0.2727272727272727
 40
0.2727272727272727
 40
0.2727272727272727
 40
0.2727272727272727
 40
0.3636363636363636
 40
0.3636363636363636
 40
0.3636363636363636
 40
0.3636363636363636
 40
0.4545454545454545
 40
0.4545454545454545
 40
0.4545454545454545
 40
0.4545454545454545
 40
0.5454545454545454
 40
0.5454545454545454
 40
0.5454545454545454
 40
0.5454545454545454
 40
0.6363636363636364
 40
0.6363636363636364
 40
0.6363636363636364
 40
0.6363636363636364
 40
0.7272727272727273
 40
0.7272727272727273
 40
0.7272727272727273
 40
0.7272727272727273
 40
0.8181818181818182
 40
0.8181818181818182
 40
0.8181818181818182
 40
0.8181818181818182
 40
1.0
 40
1.0
 40
1.0
 40
1.0
 10
-157.6149
 20
-72.5896
 30
0.0
 10
-161.3117
 20
-76.0152
 30
0.0
 10
-163.3617
 20
-78.8894
 30
0.0
 10
-167.5139
 20
-75.4055
 30
0.0
 10
-167.5139
 20
-75.4055
 30
0.0
 10
-168.6146
 20
-74.5396
 30
0.0
 10
-168.9342
 20
-74.6567
 30
0.0
 10
-169.2373
 20
-76.0362
 30
0.0
 10
-169.2373
 20
-76.0362
 30
0.0
 10
-169.4054
 20
-76.8015
 30
0.0
 10
-169.2358
 20
-77.3954
 30
0.0
 10
-168.5574
 20
-78.4209
 30
0.0
 10
-168.5574
 20
-78.4209
 30
0.0
 10
-165.8183
 20
-81.437
 30
0.0
 10
-168.0632
 20
-82.9182
 30
0.0
 10
-167.9285
 20
-84.2146
 30
0.0
 10
-167.9285
 20
-84.2146
 30
0.0
 10
-165.7802
 20
-82.0758
 30
0.0
 10
-162.0866
 20
-81.2712
 30
0.0
 10
-159.0732
 20
-84.0666
 30
0.0
 10
-159.0732
 20
-84.0666
 30
0.0
 10
-158.5607
 20
-83.2935
 30
0.0
 10
-158.5712
 20
-82.4754
 30
0.0
 10
-158.963
 20
-80.9468
 30
0.0
 10
-158.963
 20
-80.9468
 30
0.0
 10
-159.5333
 20
-78.7213
 30
0.0
 10
-159.1465
 20
-77.1191
 30
0.0
 10
-157.5145
 20
-74.9469
 30
0.0
 10
-157.5145
 20
-74.9469
 30
0.0
 10
-156.7508
 20
-73.9306
 30
0.0
 10
-156.1762
 20
-72.9487
 30
0.0
 10
-156.2375
 20
-72.7647
 30
0.0
 10
-156.2375
 20
-72.7647
 30
0.0
 10
-156.4056
 20
-72.2607
 30
0.0
 10
-156.934
 20
-72.1934
 30
0.0
 10
-157.6152
 20
-72.5895
 30
0.0
 10
-157.6152
 20
-72.5895
 30
0.0
 10
-157.6152
 20
-72.5895
 30
0.0
 10
-157.6149
 20
-72.5896
 30
0.0
 10
-157.6149
 20
-72.5896
 30
0.0
  0
SPLINE
  5
7C
330
1F
100
AcDbEntity
  8
layer 1
 62
     7
100
AcDbSpline
210
0.0
220
0.0
230
1.0
 70
    11
 71
     3
 72
    40
 73
    36
 74
     0
 42
0.0000000001
 43
0.0000000001
 12
1.0
 22
0.0
 32
0.0
 13
1.0
 23
0.0
 33
0.0
 40
0.0
 40
0.0
 40
0.0
 40
0.0
 40
0.1
 40
0.1
 40
0.1
 40
0.1
 40
0.2
 40
0.2
 40
0.2
 40
0.2
 40
0.3
 40
0.3
 40
0.3
 40
0.3
 40
0.4
 40
0.4
 40
0.4
 40
0.4
 40
0.5
 40
0.5
 40
0.5
 40
0.5
 40
0.6
 40
0.6
 40
0.6
 40
0.6
 40
0.7
 40
0.7
 40
0.7
 40
0.7
 40
0.8
 40
0.8
 40
0.8
 40
0.8
 40
1.0
 40
1.0
 40
1.0
 40
1.0
 10
-168.6051
 20
-86.3194
 30
0.0
 10
-168.8996
 20
-86.8891
 30
0.0
 10
-170.67
 20
-89.4073
 30
0.0
 10
-171.342
 20
-89.9435
 30
0.0
 10
-171.342
 20
-89.9435
 30
0.0
 10
-172.9932
 20
-91.261
 30
0.0
 10
-173.1953
 20
-92.1463
 30
0.0
 10
-170.9863
 20
-92.6494
 30
0.0
 10
-170.9863
 20
-92.6494
 30
0.0
 10
-169.5938
 20
-92.8905
 30
0.0
 10
-168.5441
 20
-94.0178
 30
0.0
 10
-168.2722
 20
-95.3882
 30
0.0
 10
-168.2722
 20
-95.3882
 30
0.0
 10
-162.6744
 20
-92.3235
 30
0.0
 10
-157.4767
 20
-95.1011
 30
0.0
 10
-157.1433
 20
-98.289
 30
0.0
 10
-157.1433
 20
-98.289
 30
0.0
 10
-156.9955
 20
-99.5763
 30
0.0
 10
-155.8563
 20
-99.6521
 30
0.0
 10
-155.2856
 20
-99.0116
 30
0.0
 10
-155.2856
 20
-99.0116
 30
0.0
 10
-154.1735
 20
-98.2829
 30
0.0
 10
-153.6581
 20
-96.5753
 30
0.0
 10
-154.1382
 20
-93.9781
 30
0.0
 10
-154.1382
 20
-93.9781
 30
0.0
 10
-157.0265
 20
-85.3871
 30
0.0
 10
-164.7763
 20
-84.323
 30
0.0
 10
-167.5572
 20
-90.1183
 30
0.0
 10
-167.5572
 20
-90.1183
 30
0.0
 10
-168.5784
 20
-88.9659
 30
0.0
 10
-168.7562
 20
-88.6206
 30
0.0
 10
-168.6052
 20
-86.3194
 30
0.0
 10
-168.6052
 20
-86.3194
 30
0.0
 10
-168.6052
 20
-86.3194
 30
0.0
 10
-168.6051
 20
-86.3194
 30
0.0
 10
-168.6051
 20
-86.3194
 30
0.0
  0
SPLINE
  5
7D
330
1F
100
AcDbEntity
  8
layer 1
 62
     7
100
AcDbSpline
210
0.0
220
0.0
230
1.0
 70
    11
 71
     3
 72
    28
 73
    24
 74
     0
 42
0.0000000001
 43
0.0000000001
 12
1.0
 22
0.0
 32
0.0
 13
1.0
 23
0.0
 33
0.0
 40
0.0
 40
0.0
 40
0.0
 40
0.0
 40
0.1428571428571428
 40
0.1428571428571428
 40
0.1428571428571428
 40
0.1428571428571428
 40
0.2857142857142857
 40
0.2857142857142857
 40
0.2857142857142857
 40
0.2857142857142857
 40
0.4285714285714285
 40
0.4285714285714285
 40
0.4285714285714285
 40
0.4285714285714285
 40
0.5714285714285714
 40
0.5714285714285714
 40
0.5714285714285714
 40
0.5714285714285714
 40
0.7142857142857143
 40
0.7142857142857143
 40
0.7142857142857143
 40
0.7142857142857143
 40
1.0
 40
1.0
 40
1.0
 40
1.0
 10
-168.1252
 20
-96.513
 30
0.0
 10
-168.1177
 20
-99.016
 30
0.0
 10
-169.3499
 20
-100.3737
 30
0.0
 10
-171.3785
 20
-100.5334
 30
0.0
 10
-171.3785
 20
-100.5334
 30
0.0
 10
-172.892
 20
-100.5334
 30
0.0
 10
-172.9469
 20
-101.2933
 30
0.0
 10
-171.5291
 20
-102.6177
 30
0.0
 10
-171.5291
 20
-102.6177
 30
0.0
 10
-169.8983
 20
-104.1411
 30
0.0
 10
-166.1498
 20
-104.7066
 30
0.0
 10
-164.6115
 20
-103.5227
 30
0.0
 10
-164.6115
 20
-103.5227
 30
0.0
 10
-163.1432
 20
-102.3927
 30
0.0
 10
-162.5256
 20
-100.1417
 30
0.0
 10
-163.2916
 20
-98.6226
 30
0.0
 10
-163.2916
 20
-98.6226
 30
0.0
 10
-163.9343
 20
-97.3477
 30
0.0
 10
-165.9671
 20
-96.4895
 30
0.0
 10
-168.1252
 20
-96.5129
 30
0.0
 10
-168.1252
 20
-96.5129
 30
0.0
 10
-168.1252
 20
-96.5129
 30
0.0
 10
-168.1252
 20
-96.513
 30
0.0
 10
-168.1252
 20
-96.513
 30
0.0
  0
SPLINE
  5
7E
330
1F
100
AcDbEntity
  8
layer 1
 62
     7
100
AcDbSpline
210
0.0
220
0.0
230
1.0
 70
    11
 71
     3
 72
    16
 73
    12
 74
     0
 42
0.0000000001
 43
0.0000000001
 12
1.0
 22
0.0
 32
0.0
 13
1.0
 23
0.0
 33
0.0
 40
0.0
 40
0.0
 40
0.0
 40
0.0
 40
0.25
 40
0.25
 40
0.25
 40
0.25
 40
0.5
 40
0.5
 40
0.5
 40
0.5
 40
1.0
 40
1.0
 40
1.0
 40
1.0
 10
-178.9072
 20
-107.414
 30
0.0
 10
-178.9072
 20
-107.414
 30
0.0
 10
-169.1749
 20
-107.414
 30
0.0
 10
-169.1749
 20
-107.414
 30
0.0
 10
-169.1749
 20
-107.414
 30
0.0
 10
-174.4132
 20
-106.5053
 30
0.0
 10
-178.9072
 20
-101.9131
 30
0.0
 10
-178.9072
 20
-98.8929
 30
0.0
 10
-178.9072
 20
-98.8929
 30
0.0
 10
-178.9072
 20
-98.8929
 30
0.0
 10
-178.9072
 20
-107.414
 30
0.0
 10
-178.9072
 20
-107.414
 30
0.0
  0
SPLINE
  5
7F
330
1F
100
AcDbEntity
  8
layer 1
 62
     7
100
AcDbSpline
210
0.0
220
0.0
230
1.0
 70
    11
 71
     3
 72
    20
 73
    16
 74
     0
 42
0.0000000001
 43
0.0000000001
 12
1.0
 22
0.0
 32
0.0
 13
1.0
 23
0.0
 33
0.0
 40
0.0
 40
0.0
 40
0.0
 40
0.0
 40
0.2
 40
0.2
 40
0.2
 40
0.2
 40
0.4
 40
0.4
 40
0.4
 40
0.4
 40
0.6
 40
0.6
 40
0.6
 40
0.6
 40
1.0
 40
1.0
 40
1.0
 40
1.0
 10
-151.7595
 20
-102.8675
 30
0.0
 10
-153.4722
 20
-103.0935
 30
0.0
 10
-158.0238
 20
-105.9939
 30
0.0
 10
-163.3841
 20
-107.4141
 30
0.0
 10
-163.3841
 20
-107.4141
 30
0.0
 10
-163.3841
 20
-107.4141
 30
0.0
 10
-144.9775
 20
-107.4141
 30
0.0
 10
-144.9775
 20
-107.4141
 30
0.0
 10
-144.9775
 20
-107.4141
 30
0.0
 10
-142.6615
 20
-103.1492
 30
0.0
 10
-147.2633
 20
-101.9579
 30
0.0
 10
-151.7594
 20
-102.8675
 30
0.0
 10
-151.7594
 20
-102.8675
 30
0.0
 10
-151.7594
 20
-102.8675
 30
0.0
 10
-151.7595
 20
-102.8675
 30
0.0
 10
-151.7595
 20
-102.8675
 30
0.0
  0
SPLINE
  5
80
330
1F
100
AcDbEntity
  8
layer 1
 62
     7
100
AcDbSpline
210
0.0
220
0.0
230
1.0
 70
    11
 71
     3
 72
   180
 73
   176
 74
     0
 42
0.0000000001
 43
0.0000000001
 12
1.0
 22
0.0
 32
0.0
 13
1.0
 23
0.0
 33
0.0
 40
0.0
 40
0.0
 40
0.0
 40
0.0
 40
0.0222222222222222
 40
0.0222222222222222
 40
0.0222222222222222
 40
0.0222222222222222
 40
0.0444444444444444
 40
0.0444444444444444
 40
0.0444444444444444
 40
0.0444444444444444
 40
0.0666666666666667
 40
0.0666666666666667
 40
0.0666666666666667
 40
0.0666666666666667
 40
0.0888888888888889
 40
0.0888888888888889
 40
0.0888888888888889
 40
0.0888888888888889
 40
0.1111111111111111
 40
0.1111111111111111
 40
0.1111111111111111
 40
0.1111111111111111
 40
0.1333333333333333
 40
0.1333333333333333
 40
0.1333333333333333
 40
0.1333333333333333
 40
0.1555555555555556
 40
0.1555555555555556
 40
0.1555555555555556
 40
0.1555555555555556
 40
0.1777777777777778
 40
0.1777777777777778
 40
0.1777777777777778
 40
0.1777777777777778
 40
0.2
 40
0.2
 40
0.2
 40
0.2
 40
0.2222222222222222
 40
0.2222222222222222
 40
0.2222222222222222
 40
0.2222222222222222
 40
0.2444444444444444
 40
0.2444444444444444
 40
0.2444444444444444
 40
0.2444444444444444
 40
0.2666666666666667
 40
0.2666666666666667
 40
0.2666666666666667
 40
0.2666666666666667
 40
0.2888888888888889
 40
0.2888888888888889
 40
0.2888888888888889
 40
0.2888888888888889
 40
0.3111111111111111
 40
0.3111111111111111
 40
0.3111111111111111
 40
0.3111111111111111
 40
0.3333333333333333
 40
0.3333333333333333
 40
0.3333333333333333
 40
0.3333333333333333
 40
0.3555555555555556
 40
0.3555555555555556
 40
0.3555555555555556
 40
0.3555555555555556
 40
0.3777777777777778
 40
0.3777777777777778
 40
0.3777777777777778
 40
0.3777777777777778
 40
0.4
 40
0.4
 40
0.4
 40
0.4
 40
0.4222222222222222
 40
0.4222222222222222
 40
0.4222222222222222
 40
0.4222222222222222
 40
0.4444444444444444
 40
0.4444444444444444
 40
0.4444444444444444
 40
0.4444444444444444
 40
0.4666666666666667
 40
0.4666666666666667
 40
0.4666666666666667
 40
0.4666666666666667
 40
0.4888888888888889
 40
0.4888888888888889
 40
0.4888888888888889
 40
0.4888888888888889
 40
0.5111111111111111
 40
0.5111111111111111
 40
0.5111111111111111
 40
0.5111111111111111
 40
0.5333333333333333
 40
0.5333333333333333
 40
0.5333333333333333
 40
0.5333333333333333
 40
0.5555555555555556
 40
0.5555555555555556
 40
0.5555555555555556
 40
0.5555555555555556
 40
0.5777777777777777
 40
0.5777777777777777
 40
0.5777777777777777
 40
0.5777777777777777
 40
0.6
 40
0.6
 40
0.6
 40
0.6
 40
0.6222222222222222
 40
0.6222222222222222
 40
0.6222222222222222
 40
0.6222222222222222
 40
0.6444444444444445
 40
0.6444444444444445
 40
0.6444444444444445
 40
0.6444444444444445
 40
0.6666666666666666
 40
0.6666666666666666
 40
0.6666666666666666
 40
0.6666666666666666
 40
0.6888888888888889
 40
0.6888888888888889
 40
0.6888888888888889
 40
0.6888888888888889
 40
0.7111111111111111
 40
0.7111111111111111
 40
0.7111111111111111
 40
0.7111111111111111
 40
0.7333333333333333
 40
0.7333333333333333
 40
0.7333333333333333
 40
0.7333333333333333
 40
0.7555555555555555
 40
0.7555555555555555
 40
0.7555555555555555
 40
0.7555555555555555
 40
0.7777777777777778
 40
0.7777777777777778
 40
0.7777777777777778
 40
0.7777777777777778
 40
0.8
 40
0.8
 40
0.8
 40
0.8
 40
0.8222222222222222
 40
0.8222222222222222
 40
0.8222222222222222
 40
0.8222222222222222
 40
0.8444444444444444
 40
0.8444444444444444
 40
0.8444444444444444
 40
0.8444444444444444
 40
0.8666666666666667
 40
0.8666666666666667
 40
0.8666666666666667
 40
0.8666666666666667
 40
0.8888888888888888
 40
0.8888888888888888
 40
0.8888888888888888
 40
0.8888888888888888
 40
0.9111111111111111
 40
0.9111111111111111
 40
0.9111111111111111
 40
0.9111111111111111
 40
0.9333333333333333
 40
0.9333333333333333
 40
0.9333333333333333
 40
0.9333333333333333
 40
0.9555555555555556
 40
0.9555555555555556
 40
0.9555555555555556
 40
0.9555555555555556
 40
1.0
 40
1.0
 40
1.0
 40
1.0
 10
-124.6128
 20
6.9596
 30
0.0
 10
-121.467
 20
6.4761
 30
0.0
 10
-119.7231
 20
5.7506
 30
0.0
 10
-117.6597
 20
3.1456
 30
0.0
 10
-117.6597
 20
3.1456
 30
0.0
 10
-115.3145
 20
-0.8612
 30
0.0
 10
-111.8145
 20
0.6073
 30
0.0
 10
-110.6369
 20
-1.101
 30
0.0
 10
-110.6369
 20
-1.101
 30
0.0
 10
-109.962
 20
-2.1222
 30
0.0
 10
-110.4585
 20
-2.3518
 30
0.0
 10
-111.3415
 20
-2.5025
 30
0.0
 10
-111.3415
 20
-2.5025
 30
0.0
 10
-119.1306
 20
-2.062
 30
0.0
 10
-122.0118
 20
-3.676
 30
0.0
 10
-122.2809
 20
-8.052
 30
0.0
 10
-122.2809
 20
-8.052
 30
0.0
 10
-122.6287
 20
-7.4009
 30
0.0
 10
-123.2961
 20
-6.6586
 30
0.0
 10
-124.2921
 20
-6.6262
 30
0.0
 10
-124.2921
 20
-6.6262
 30
0.0
 10
-123.6118
 20
-9.9646
 30
0.0
 10
-126.0254
 20
-12.6569
 30
0.0
 10
-130.5824
 20
-11.0407
 30
0.0
 10
-130.5824
 20
-11.0407
 30
0.0
 10
-136.2868
 20
-8.6806
 30
0.0
 10
-135.3404
 20
0.1783
 30
0.0
 10
-131.4725
 20
0.864
 30
0.0
 10
-131.4725
 20
0.864
 30
0.0
 10
-131.2814
 20
-0.8005
 30
0.0
 10
-130.8463
 20
-2.5333
 30
0.0
 10
-129.0639
 20
-3.3473
 30
0.0
 10
-129.0639
 20
-3.3473
 30
0.0
 10
-123.399
 20
-4.8704
 30
0.0
 10
-122.3256
 20
1.4259
 30
0.0
 10
-125.1037
 20
4.0856
 30
0.0
 10
-125.1037
 20
4.0856
 30
0.0
 10
-128.8854
 20
8.0155
 30
0.0
 10
-135.0623
 20
5.996
 30
0.0
 10
-136.2981
 20
-0.2721
 30
0.0
 10
-136.2981
 20
-0.2721
 30
0.0
 10
-137.5338
 20
5.996
 30
0.0
 10
-143.7107
 20
8.0155
 30
0.0
 10
-147.4924
 20
4.0856
 30
0.0
 10
-147.4924
 20
4.0856
 30
0.0
 10
-150.2705
 20
1.4259
 30
0.0
 10
-149.1971
 20
-4.8704
 30
0.0
 10
-143.5322
 20
-3.3473
 30
0.0
 10
-143.5322
 20
-3.3473
 30
0.0
 10
-141.7498
 20
-2.5333
 30
0.0
 10
-141.3147
 20
-0.8005
 30
0.0
 10
-141.1236
 20
0.864
 30
0.0
 10
-141.1236
 20
0.864
 30
0.0
 10
-137.2559
 20
0.1782
 30
0.0
 10
-136.3093
 20
-8.6808
 30
0.0
 10
-142.0137
 20
-11.0407
 30
0.0
 10
-142.0137
 20
-11.0407
 30
0.0
 10
-146.5707
 20
-12.6569
 30
0.0
 10
-148.9842
 20
-9.9646
 30
0.0
 10
-148.304
 20
-6.6262
 30
0.0
 10
-148.304
 20
-6.6262
 30
0.0
 10
-149.3
 20
-6.6587
 30
0.0
 10
-149.9674
 20
-7.401
 30
0.0
 10
-150.3152
 20
-8.052
 30
0.0
 10
-150.3152
 20
-8.052
 30
0.0
 10
-150.5843
 20
-3.6761
 30
0.0
 10
-153.4655
 20
-2.062
 30
0.0
 10
-161.2546
 20
-2.5025
 30
0.0
 10
-161.2546
 20
-2.5025
 30
0.0
 10
-162.1376
 20
-2.3518
 30
0.0
 10
-162.6341
 20
-2.1223
 30
0.0
 10
-161.9592
 20
-1.101
 30
0.0
 10
-161.9592
 20
-1.101
 30
0.0
 10
-160.7816
 20
0.6073
 30
0.0
 10
-157.2818
 20
-0.8612
 30
0.0
 10
-154.9364
 20
3.1456
 30
0.0
 10
-154.9364
 20
3.1456
 30
0.0
 10
-152.8728
 20
5.7506
 30
0.0
 10
-151.1291
 20
6.4761
 30
0.0
 10
-147.9833
 20
6.9596
 30
0.0
 10
-147.9833
 20
6.9596
 30
0.0
 10
-148.3496
 20
7.5901
 30
0.0
 10
-149.2496
 20
9.041
 30
0.0
 10
-150.9035
 20
9.041
 30
0.0
 10
-150.9035
 20
9.041
 30
0.0
 10
-149.2497
 20
9.041
 30
0.0
 10
-148.3496
 20
10.4918
 30
0.0
 10
-147.9833
 20
11.1223
 30
0.0
 10
-147.9833
 20
11.1223
 30
0.0
 10
-151.1291
 20
11.6059
 30
0.0
 10
-152.873
 20
12.3314
 30
0.0
 10
-154.9364
 20
14.9363
 30
0.0
 10
-154.9364
 20
14.9363
 30
0.0
 10
-157.2816
 20
18.9431
 30
0.0
 10
-160.7816
 20
17.4746
 30
0.0
 10
-161.9592
 20
19.183
 30
0.0
 10
-161.9592
 20
19.183
 30
0.0
 10
-162.6341
 20
20.2041
 30
0.0
 10
-162.1376
 20
20.4338
 30
0.0
 10
-161.2546
 20
20.5844
 30
0.0
 10
-161.2546
 20
20.5844
 30
0.0
 10
-153.4655
 20
20.1439
 30
0.0
 10
-150.5843
 20
21.7579
 30
0.0
 10
-150.3152
 20
26.1339
 30
0.0
 10
-150.3152
 20
26.1339
 30
0.0
 10
-149.9674
 20
25.4828
 30
0.0
 10
-149.3
 20
24.7407
 30
0.0
 10
-148.304
 20
24.7081
 30
0.0
 10
-148.304
 20
24.7081
 30
0.0
 10
-148.9843
 20
28.0465
 30
0.0
 10
-146.5707
 20
30.7388
 30
0.0
 10
-142.0137
 20
29.1226
 30
0.0
 10
-142.0137
 20
29.1226
 30
0.0
 10
-136.3093
 20
26.7626
 30
0.0
 10
-137.2557
 20
17.9036
 30
0.0
 10
-141.1236
 20
17.2179
 30
0.0
 10
-141.1236
 20
17.2179
 30
0.0
 10
-141.3147
 20
18.8824
 30
0.0
 10
-141.7498
 20
20.6152
 30
0.0
 10
-143.5322
 20
21.4292
 30
0.0
 10
-143.5322
 20
21.4292
 30
0.0
 10
-149.1971
 20
22.9523
 30
0.0
 10
-150.2705
 20
16.656
 30
0.0
 10
-147.4924
 20
13.9963
 30
0.0
 10
-147.4924
 20
13.9963
 30
0.0
 10
-143.7107
 20
10.0664
 30
0.0
 10
-137.5338
 20
12.086
 30
0.0
 10
-136.2981
 20
18.354
 30
0.0
 10
-136.2981
 20
18.354
 30
0.0
 10
-135.0623
 20
12.086
 30
0.0
 10
-128.8854
 20
10.0664
 30
0.0
 10
-125.1037
 20
13.9963
 30
0.0
 10
-125.1037
 20
13.9963
 30
0.0
 10
-122.3256
 20
16.656
 30
0.0
 10
-123.399
 20
22.9523
 30
0.0
 10
-129.0639
 20
21.4292
 30
0.0
 10
-129.0639
 20
21.4292
 30
0.0
 10
-130.8463
 20
20.6152
 30
0.0
 10
-131.2814
 20
18.8824
 30
0.0
 10
-131.4725
 20
17.2179
 30
0.0
 10
-131.4725
 20
17.2179
 30
0.0
 10
-135.3402
 20
17.9037
 30
0.0
 10
-136.2868
 20
26.7627
 30
0.0
 10
-130.5824
 20
29.1226
 30
0.0
 10
-130.5824
 20
29.1226
 30
0.0
 10
-126.0254
 20
30.7388
 30
0.0
 10
-123.6119
 20
28.0465
 30
0.0
 10
-124.2921
 20
24.7081
 30
0.0
 10
-124.2921
 20
24.7081
 30
0.0
 10
-123.2961
 20
24.7407
 30
0.0
 10
-122.6287
 20
25.4829
 30
0.0
 10
-122.2809
 20
26.1339
 30
0.0
 10
-122.2809
 20
26.1339
 30
0.0
 10
-122.0118
 20
21.758
 30
0.0
 10
-119.1306
 20
20.1439
 30
0.0
 10
-111.3415
 20
20.5844
 30
0.0
 10
-111.3415
 20
20.5844
 30
0.0
 10
-110.4585
 20
20.4338
 30
0.0
 10
-109.962
 20
20.2042
 30
0.0
 10
-110.6369
 20
19.183
 30
0.0
 10
-110.6369
 20
19.183
 30
0.0
 10
-111.8145
 20
17.4746
 30
0.0
 10
-115.3143
 20
18.9431
 30
0.0
 10
-117.6597
 20
14.9363
 30
0.0
 10
-117.6597
 20
14.9363
 30
0.0
 10
-119.7233
 20
12.3314
 30
0.0
 10
-121.467
 20
11.6059
 30
0.0
 10
-124.6128
 20
11.1223
 30
0.0
 10
-124.6128
 20
11.1223
 30
0.0
 10
-124.2465
 20
10.4918
 30
0.0
 10
-123.3465
 20
9.041
 30
0.0
 10
-121.6926
 20
9.041
 30
0.0
 10
-121.6926
 20
9.041
 30
0.0
 10
-123.3464
 20
9.041
 30
0.0
 10
-124.2465
 20
7.5901
 30
0.0
 10
-124.6128
 20
6.9596
 30
0.0
  0
SPLINE
  5
81
330
1F
100
AcDbEntity
  8
layer 1
 62
     7
100
AcDbSpline
210
0.0
220
0.0
230
1.0
 70
    11
 71
     3
 72
    20
 73
    16
 74
     0
 42
0.0000000001
 43
0.0000000001
 12
1.0
 22
0.0
 32
0.0
 13
1.0
 23
0.0
 33
0.0
 40
0.0
 40
0.0
 40
0.0
 40
0.0
 40
0.2
 40
0.2
 40
0.2
 40
0.2
 40
0.4
 40
0.4
 40
0.4
 40
0.4
 40
0.6
 40
0.6
 40
0.6
 40
0.6
 40
1.0
 40
1.0
 40
1.0
 40
1.0
 10
-93.6888
 20
-0.7693
 30
0.0
 10
-93.6888
 20
-0.7693
 30
0.0
 10
-93.6888
 20
-18.5231
 30
0.0
 10
-93.6888
 20
-18.5231
 30
0.0
 10
-93.6888
 20
-18.5231
 30
0.0
 10
-95.482
 20
-17.0937
 30
0.0
 10
-96.6772
 20
-16.6444
 30
0.0
 10
-98.1476
 20
-17.2836
 30
0.0
 10
-98.1476
 20
-17.2836
 30
0.0
 10
-99.2488
 20
-8.6337
 30
0.0
 10
-101.5704
 20
-9.586
 30
0.0
 10
-102.0069
 20
-3.856
 30
0.0
 10
-102.0069
 20
-3.856
 30
0.0
 10
-101.5551
 20
2.7188
 30
0.0
 10
-97.207
 20
3.0622
 30
0.0
 10
-93.6888
 20
-0.7693
 30
0.0
  0
SPLINE
  5
82
330
1F
100
AcDbEntity
  8
layer 1
 62
     7
100
AcDbSpline
210
0.0
220
0.0
230
1.0
 70
    11
 71
     3
 72
    20
 73
    16
 74
     0
 42
0.0000000001
 43
0.0000000001
 12
1.0
 22
0.0
 32
0.0
 13
1.0
 23
0.0
 33
0.0
 40
0.0
 40
0.0
 40
0.0
 40
0.0
 40
0.2
 40
0.2
 40
0.2
 40
0.2
 40
0.4
 40
0.4
 40
0.4
 40
0.4
 40
0.6
 40
0.6
 40
0.6
 40
0.6
 40
1.0
 40
1.0
 40
1.0
 40
1.0
 10
-108.1832
 20
-7.6078
 30
0.0
 10
-111.0106
 20
-6.8
 30
0.0
 10
-113.9524
 20
-8.5629
 30
0.0
 10
-113.2964
 20
-12.0628
 30
0.0
 10
-113.2964
 20
-12.0628
 30
0.0
 10
-114.5624
 20
-11.6289
 30
0.0
 10
-116.5423
 20
-11.8505
 30
0.0
 10
-118.3925
 20
-13.6038
 30
0.0
 10
-118.3925
 20
-13.6038
 30
0.0
 10
-120.499
 20
-12.2693
 30
0.0
 10
-118.8151
 20
-9.0626
 30
0.0
 10
-117.8358
 20
-7.7117
 30
0.0
 10
-117.8358
 20
-7.7117
 30
0.0
 10
-115.248
 20
-4.2692
 30
0.0
 10
-107.5171
 20
-3.0792
 30
0.0
 10
-108.1832
 20
-7.6078
 30
0.0
  0
SPLINE
  5
83
330
1F
100
AcDbEntity
  8
layer 1
 62
     7
100
AcDbSpline
210
0.0
220
0.0
230
1.0
 70
    11
 71
     3
 72
    24
 73
    20
 74
     0
 42
0.0000000001
 43
0.0000000001
 12
1.0
 22
0.0
 32
0.0
 13
1.0
 23
0.0
 33
0.0
 40
0.0
 40
0.0
 40
0.0
 40
0.0
 40
0.1666666666666667
 40
0.1666666666666667
 40
0.1666666666666667
 40
0.1666666666666667
 40
0.3333333333333333
 40
0.3333333333333333
 40
0.3333333333333333
 40
0.3333333333333333
 40
0.5
 40
0.5
 40
0.5
 40
0.5
 40
0.6666666666666666
 40
0.6666666666666666
 40
0.6666666666666666
 40
0.6666666666666666
 40
1.0
 40
1.0
 40
1.0
 40
1.0
 10
-101.5331
 20
-29.1072
 30
0.0
 10
-102.4313
 20
-30.0099
 30
0.0
 10
-102.8723
 20
-30.0176
 30
0.0
 10
-103.077
 20
-28.5953
 30
0.0
 10
-103.077
 20
-28.5953
 30
0.0
 10
-101.9713
 20
-21.8005
 30
0.0
 10
-104.4549
 20
-14.624
 30
0.0
 10
-109.8226
 20
-13.1241
 30
0.0
 10
-109.8226
 20
-13.1241
 30
0.0
 10
-111.6772
 20
-12.4208
 30
0.0
 10
-111.7679
 20
-12.1826
 30
0.0
 10
-110.4811
 20
-11.398
 30
0.0
 10
-110.4811
 20
-11.398
 30
0.0
 10
-100.8169
 20
-7.4083
 30
0.0
 10
-97.2247
 20
-24.8476
 30
0.0
 10
-101.5331
 20
-29.1074
 30
0.0
 10
-101.5331
 20
-29.1074
 30
0.0
 10
-101.5331
 20
-29.1074
 30
0.0
 10
-101.5331
 20
-29.1072
 30
0.0
 10
-101.5331
 20
-29.1072
 30
0.0
  0
SPLINE
  5
84
330
1F
100
AcDbEntity
  8
layer 1
 62
     7
100
AcDbSpline
210
0.0
220
0.0
230
1.0
 70
    11
 71
     3
 72
    20
 73
    16
 74
     0
 42
0.0000000001
 43
0.0000000001
 12
1.0
 22
0.0
 32
0.0
 13
1.0
 23
0.0
 33
0.0
 40
0.0
 40
0.0
 40
0.0
 40
0.0
 40
0.2
 40
0.2
 40
0.2
 40
0.2
 40
0.4
 40
0.4
 40
0.4
 40
0.4
 40
0.6
 40
0.6
 40
0.6
 40
0.6
 40
1.0
 40
1.0
 40
1.0
 40
1.0
 10
-119.0202
 20
-14.7577
 30
0.0
 10
-121.3683
 20
-17.875
 30
0.0
 10
-122.2213
 20
-21.2648
 30
0.0
 10
-121.186
 20
-26.4086
 30
0.0
 10
-121.186
 20
-26.4086
 30
0.0
 10
-126.7029
 20
-26.5206
 30
0.0
 10
-131.3505
 20
-20.6065
 30
0.0
 10
-132.2939
 20
-15.5802
 30
0.0
 10
-132.2939
 20
-15.5802
 30
0.0
 10
-128.0681
 20
-17.3472
 30
0.0
 10
-123.6774
 20
-16.6908
 30
0.0
 10
-121.7272
 20
-12.0727
 30
0.0
 10
-121.7272
 20
-12.0727
 30
0.0
 10
-121.3509
 20
-13.1385
 30
0.0
 10
-120.1234
 20
-14.5087
 30
0.0
 10
-119.0202
 20
-14.7577
 30
0.0
  0
SPLINE
  5
85
330
1F
100
AcDbEntity
  8
layer 1
 62
     7
100
AcDbSpline
210
0.0
220
0.0
230
1.0
 70
    11
 71
     3
 72
    28
 73
    24
 74
     0
 42
0.0000000001
 43
0.0000000001
 12
1.0
 22
0.0
 32
0.0
 13
1.0
 23
0.0
 33
0.0
 40
0.0
 40
0.0
 40
0.0
 40
0.0
 40
0.1428571428571428
 40
0.1428571428571428
 40
0.1428571428571428
 40
0.1428571428571428
 40
0.2857142857142857
 40
0.2857142857142857
 40
0.2857142857142857
 40
0.2857142857142857
 40
0.4285714285714285
 40
0.4285714285714285
 40
0.4285714285714285
 40
0.4285714285714285
 40
0.5714285714285714
 40
0.5714285714285714
 40
0.5714285714285714
 40
0.5714285714285714
 40
0.7142857142857143
 40
0.7142857142857143
 40
0.7142857142857143
 40
0.7142857142857143
 40
1.0
 40
1.0
 40
1.0
 40
1.0
 10
-109.9973
 20
-19.2648
 30
0.0
 10
-107.7946
 20
-20.663
 30
0.0
 10
-104.9035
 20
-26.2332
 30
0.0
 10
-106.243
 20
-31.0197
 30
0.0
 10
-106.243
 20
-31.0197
 30
0.0
 10
-107.5346
 20
-28.1925
 30
0.0
 10
-110.7968
 20
-28.1904
 30
0.0
 10
-111.4388
 20
-29.0365
 30
0.0
 10
-111.4388
 20
-29.0365
 30
0.0
 10
-111.6235
 20
-27.8683
 30
0.0
 10
-112.8701
 20
-25.3594
 30
0.0
 10
-113.1357
 20
-25.3594
 30
0.0
 10
-113.1357
 20
-25.3594
 30
0.0
 10
-114.0757
 20
-29.2091
 30
0.0
 10
-118.3908
 20
-28.8208
 30
0.0
 10
-118.7718
 20
-25.8583
 30
0.0
 10
-118.7718
 20
-25.8583
 30
0.0
 10
-119.4702
 20
-20.8307
 30
0.0
 10
-114.5938
 20
-16.5719
 30
0.0
 10
-109.9973
 20
-19.2649
 30
0.0
 10
-109.9973
 20
-19.2649
 30
0.0
 10
-109.9973
 20
-19.2649
 30
0.0
 10
-109.9973
 20
-19.2648
 30
0.0
 10
-109.9973
 20
-19.2648
 30
0.0
  0
SPLINE
  5
86
330
1F
100
AcDbEntity
  8
layer 1
 62
     7
100
AcDbSpline
210
0.0
220
0.0
230
1.0
 70
    11
 71
     3
 72
    24
 73
    20
 74
     0
 42
0.0000000001
 43
0.0000000001
 12
1.0
 22
0.0
 32
0.0
 13
1.0
 23
0.0
 33
0.0
 40
0.0
 40
0.0
 40
0.0
 40
0.0
 40
0.1666666666666667
 40
0.1666666666666667
 40
0.1666666666666667
 40
0.1666666666666667
 40
0.3333333333333333
 40
0.3333333333333333
 40
0.3333333333333333
 40
0.3333333333333333
 40
0.5
 40
0.5
 40
0.5
 40
0.5
 40
0.6666666666666666
 40
0.6666666666666666
 40
0.6666666666666666
 40
0.6666666666666666
 40
1.0
 40
1.0
 40
1.0
 40
1.0
 10
-93.6888
 20
-42.6271
 30
0.0
 10
-95.3745
 20
-38.4379
 30
0.0
 10
-98.5336
 20
-37.3136
 30
0.0
 10
-102.2723
 20
-38.1144
 30
0.0
 10
-102.2723
 20
-38.1144
 30
0.0
 10
-103.7945
 20
-38.5373
 30
0.0
 10
-104.4674
 20
-37.5745
 30
0.0
 10
-103.4184
 20
-36.2589
 30
0.0
 10
-103.4184
 20
-36.2589
 30
0.0
 10
-97.1133
 20
-32.2747
 30
0.0
 10
-99.6909
 20
-26.2754
 30
0.0
 10
-97.3537
 20
-21.4471
 30
0.0
 10
-97.3537
 20
-21.4471
 30
0.0
 10
-96.8071
 20
-19.2326
 30
0.0
 10
-93.6888
 20
-19.2676
 30
0.0
 10
-93.6888
 20
-20.2287
 30
0.0
 10
-93.6888
 20
-20.2287
 30
0.0
 10
-93.6888
 20
-20.2287
 30
0.0
 10
-93.6888
 20
-42.6271
 30
0.0
 10
-93.6888
 20
-42.6271
 30
0.0
  0
SPLINE
  5
87
330
1F
100
AcDbEntity
  8
layer 1
 62
     7
100
AcDbSpline
210
0.0
220
0.0
230
1.0
 70
    11
 71
     3
 72
    20
 73
    16
 74
     0
 42
0.0000000001
 43
0.0000000001
 12
1.0
 22
0.0
 32
0.0
 13
1.0
 23
0.0
 33
0.0
 40
0.0
 40
0.0
 40
0.0
 40
0.0
 40
0.2
 40
0.2
 40
0.2
 40
0.2
 40
0.4
 40
0.4
 40
0.4
 40
0.4
 40
0.6
 40
0.6
 40
0.6
 40
0.6
 40
1.0
 40
1.0
 40
1.0
 40
1.0
 10
-109.4631
 20
-36.3407
 30
0.0
 10
-110.4771
 20
-40.5299
 30
0.0
 10
-117.9001
 20
-42.0113
 30
0.0
 10
-119.4381
 20
-37.1961
 30
0.0
 10
-119.4381
 20
-37.1961
 30
0.0
 10
-119.7412
 20
-35.9883
 30
0.0
 10
-119.2073
 20
-35.6975
 30
0.0
 10
-117.6379
 20
-36.2154
 30
0.0
 10
-117.6379
 20
-36.2154
 30
0.0
 10
-112.9931
 20
-37.0123
 30
0.0
 10
-111.953
 20
-33.5057
 30
0.0
 10
-111.3252
 20
-31.482
 30
0.0
 10
-111.3252
 20
-31.482
 30
0.0
 10
-109.8885
 20
-32.6651
 30
0.0
 10
-109.089
 20
-34.6789
 30
0.0
 10
-109.4631
 20
-36.3407
 30
0.0
  0
SPLINE
  5
88
330
1F
100
AcDbEntity
  8
layer 1
 62
     7
100
AcDbSpline
210
0.0
220
0.0
230
1.0
 70
    11
 71
     3
 72
    24
 73
    20
 74
     0
 42
0.0000000001
 43
0.0000000001
 12
1.0
 22
0.0
 32
0.0
 13
1.0
 23
0.0
 33
0.0
 40
0.0
 40
0.0
 40
0.0
 40
0.0
 40
0.1666666666666667
 40
0.1666666666666667
 40
0.1666666666666667
 40
0.1666666666666667
 40
0.3333333333333333
 40
0.3333333333333333
 40
0.3333333333333333
 40
0.3333333333333333
 40
0.5
 40
0.5
 40
0.5
 40
0.5
 40
0.6666666666666666
 40
0.6666666666666666
 40
0.6666666666666666
 40
0.6666666666666666
 40
1.0
 40
1.0
 40
1.0
 40
1.0
 10
-102.3051
 20
-40.9167
 30
0.0
 10
-99.674
 20
-42.0842
 30
0.0
 10
-98.3805
 20
-44.8571
 30
0.0
 10
-99.4773
 20
-46.9783
 30
0.0
 10
-99.4773
 20
-46.9783
 30
0.0
 10
-100.5307
 20
-48.8824
 30
0.0
 10
-103.528
 20
-49.127
 30
0.0
 10
-105.6108
 20
-47.7383
 30
0.0
 10
-105.6108
 20
-47.7383
 30
0.0
 10
-105.2868
 20
-46.7501
 30
0.0
 10
-105.4632
 20
-45.8434
 30
0.0
 10
-105.9066
 20
-45.1175
 30
0.0
 10
-105.9066
 20
-45.1175
 30
0.0
 10
-109.1638
 20
-48.8067
 30
0.0
 10
-114.9376
 20
-44.3543
 30
0.0
 10
-118.6038
 20
-41.0618
 30
0.0
 10
-118.6038
 20
-41.0618
 30
0.0
 10
-109.4354
 20
-43.1117
 30
0.0
 10
-107.5496
 20
-39.0887
 30
0.0
 10
-102.3051
 20
-40.9167
 30
0.0
  0
SPLINE
  5
89
330
1F
100
AcDbEntity
  8
layer 1
 62
     7
100
AcDbSpline
210
0.0
220
0.0
230
1.0
 70
    11
 71
     3
 72
    20
 73
    16
 74
     0
 42
0.0000000001
 43
0.0000000001
 12
1.0
 22
0.0
 32
0.0
 13
1.0
 23
0.0
 33
0.0
 40
0.0
 40
0.0
 40
0.0
 40
0.0
 40
0.2
 40
0.2
 40
0.2
 40
0.2
 40
0.4
 40
0.4
 40
0.4
 40
0.4
 40
0.6
 40
0.6
 40
0.6
 40
0.6
 40
1.0
 40
1.0
 40
1.0
 40
1.0
 10
-93.6888
 20
-56.6922
 30
0.0
 10
-100.7705
 20
-63.8923
 30
0.0
 10
-109.0791
 20
-58.3298
 30
0.0
 10
-112.2636
 20
-51.2634
 30
0.0
 10
-112.2636
 20
-51.2634
 30
0.0
 10
-108.8867
 20
-52.6848
 30
0.0
 10
-105.9697
 20
-51.4167
 30
0.0
 10
-105.8285
 20
-49.0141
 30
0.0
 10
-105.8285
 20
-49.0141
 30
0.0
 10
-102.031
 20
-53.9241
 30
0.0
 10
-94.542
 20
-51.0177
 30
0.0
 10
-93.6888
 20
-45.1687
 30
0.0
 10
-93.6888
 20
-45.1687
 30
0.0
 10
-93.6888
 20
-45.1687
 30
0.0
 10
-93.6888
 20
-56.6922
 30
0.0
 10
-93.6888
 20
-56.6922
 30
0.0
  0
SPLINE
  5
8A
330
1F
100
AcDbEntity
  8
layer 1
 62
     7
100
AcDbSpline
210
0.0
220
0.0
230
1.0
 70
    11
 71
     3
 72
    48
 73
    44
 74
     0
 42
0.0000000001
 43
0.0000000001
 12
1.0
 22
0.0
 32
0.0
 13
1.0
 23
0.0
 33
0.0
 40
0.0
 40
0.0
 40
0.0
 40
0.0
 40
0.0833333333333333
 40
0.0833333333333333
 40
0.0833333333333333
 40
0.0833333333333333
 40
0.1666666666666667
 40
0.1666666666666667
 40
0.1666666666666667
 40
0.1666666666666667
 40
0.25
 40
0.25
 40
0.25
 40
0.25
 40
0.3333333333333333
 40
0.3333333333333333
 40
0.3333333333333333
 40
0.3333333333333333
 40
0.4166666666666667
 40
0.4166666666666667
 40
0.4166666666666667
 40
0.4166666666666667
 40
0.5
 40
0.5
 40
0.5
 40
0.5
 40
0.5833333333333334
 40
0.5833333333333334
 40
0.5833333333333334
 40
0.5833333333333334
 40
0.6666666666666666
 40
0.6666666666666666
 40
0.6666666666666666
 40
0.6666666666666666
 40
0.75
 40
0.75
 40
0.75
 40
0.75
 40
0.8333333333333334
 40
0.8333333333333334
 40
0.8333333333333334
 40
0.8333333333333334
 40
1.0
 40
1.0
 40
1.0
 40
1.0
 10
-106.1471
 20
-65.7436
 30
0.0
 10
-104.6184
 20
-69.8691
 30
0.0
 10
-105.7734
 20
-74.2936
 30
0.0
 10
-108.5986
 20
-75.1347
 30
0.0
 10
-108.5986
 20
-75.1347
 30
0.0
 10
-109.8035
 20
-75.4935
 30
0.0
 10
-110.2367
 20
-74.9494
 30
0.0
 10
-109.7828
 20
-73.6474
 30
0.0
 10
-109.7828
 20
-73.6474
 30
0.0
 10
-108.4577
 20
-67.3649
 30
0.0
 10
-113.3555
 20
-63.208
 30
0.0
 10
-118.1371
 20
-62.8687
 30
0.0
 10
-118.1371
 20
-62.8687
 30
0.0
 10
-120.4433
 20
-62.7106
 30
0.0
 10
-121.1473
 20
-62.7992
 30
0.0
 10
-122.5632
 20
-63.4254
 30
0.0
 10
-122.5632
 20
-63.4254
 30
0.0
 10
-125.104
 20
-64.5771
 30
0.0
 10
-126.1851
 20
-64.0057
 30
0.0
 10
-125.3218
 20
-61.777
 30
0.0
 10
-125.3218
 20
-61.777
 30
0.0
 10
-124.8716
 20
-60.6308
 30
0.0
 10
-124.8323
 20
-60.1322
 30
0.0
 10
-125.1392
 20
-59.4588
 30
0.0
 10
-125.1392
 20
-59.4588
 30
0.0
 10
-125.6626
 20
-58.3099
 30
0.0
 10
-125.2257
 20
-58.1271
 30
0.0
 10
-123.4519
 20
-58.753
 30
0.0
 10
-123.4519
 20
-58.753
 30
0.0
 10
-120.9996
 20
-59.7641
 30
0.0
 10
-117.8988
 20
-59.6068
 30
0.0
 10
-116.9896
 20
-56.4779
 30
0.0
 10
-116.9896
 20
-56.4779
 30
0.0
 10
-116.651
 20
-55.4601
 30
0.0
 10
-116.3931
 20
-55.2354
 30
0.0
 10
-115.4568
 20
-55.1432
 30
0.0
 10
-115.4568
 20
-55.1432
 30
0.0
 10
-112.3004
 20
-55.7117
 30
0.0
 10
-107.5144
 20
-62.2283
 30
0.0
 10
-106.1469
 20
-65.7436
 30
0.0
 10
-106.1469
 20
-65.7436
 30
0.0
 10
-106.1469
 20
-65.7436
 30
0.0
 10
-106.1471
 20
-65.7436
 30
0.0
 10
-106.1471
 20
-65.7436
 30
0.0
  0
SPLINE
  5
8B
330
1F
100
AcDbEntity
  8
layer 1
 62
     7
100
AcDbSpline
210
0.0
220
0.0
230
1.0
 70
    11
 71
     3
 72
    20
 73
    16
 74
     0
 42
0.0000000001
 43
0.0000000001
 12
1.0
 22
0.0
 32
0.0
 13
1.0
 23
0.0
 33
0.0
 40
0.0
 40
0.0
 40
0.0
 40
0.0
 40
0.2
 40
0.2
 40
0.2
 40
0.2
 40
0.4
 40
0.4
 40
0.4
 40
0.4
 40
0.6
 40
0.6
 40
0.6
 40
0.6
 40
1.0
 40
1.0
 40
1.0
 40
1.0
 10
-130.1075
 20
-64.5176
 30
0.0
 10
-131.4919
 20
-73.2526
 30
0.0
 10
-134.9867
 20
-73.1383
 30
0.0
 10
-136.2979
 20
-80.728
 30
0.0
 10
-136.2979
 20
-80.728
 30
0.0
 10
-137.6091
 20
-73.1383
 30
0.0
 10
-141.104
 20
-73.2526
 30
0.0
 10
-142.4884
 20
-64.5176
 30
0.0
 10
-142.4884
 20
-64.5176
 30
0.0
 10
-143.3183
 20
-58.7987
 30
0.0
 10
-137.8433
 20
-55.5754
 30
0.0
 10
-136.2979
 20
-60.1021
 30
0.0
 10
-136.2979
 20
-60.1021
 30
0.0
 10
-134.7526
 20
-55.5753
 30
0.0
 10
-129.2776
 20
-58.7987
 30
0.0
 10
-130.1075
 20
-64.5176
 30
0.0
  0
SPLINE
  5
8C
330
1F
100
AcDbEntity
  8
layer 1
 62
     7
100
AcDbSpline
210
0.0
220
0.0
230
1.0
 70
    11
 71
     3
 72
    24
 73
    20
 74
     0
 42
0.0000000001
 43
0.0000000001
 12
1.0
 22
0.0
 32
0.0
 13
1.0
 23
0.0
 33
0.0
 40
0.0
 40
0.0
 40
0.0
 40
0.0
 40
0.1666666666666667
 40
0.1666666666666667
 40
0.1666666666666667
 40
0.1666666666666667
 40
0.3333333333333333
 40
0.3333333333333333
 40
0.3333333333333333
 40
0.3333333333333333
 40
0.5
 40
0.5
 40
0.5
 40
0.5
 40
0.6666666666666666
 40
0.6666666666666666
 40
0.6666666666666666
 40
0.6666666666666666
 40
1.0
 40
1.0
 40
1.0
 40
1.0
 10
-93.621
 20
-59.7051
 30
0.0
 10
-93.621
 20
-59.7051
 30
0.0
 10
-93.621
 20
-67.5289
 30
0.0
 10
-93.621
 20
-67.5289
 30
0.0
 10
-93.621
 20
-67.5289
 30
0.0
 10
-95.2035
 20
-71.8532
 30
0.0
 10
-98.5273
 20
-71.7038
 30
0.0
 10
-102.3044
 20
-65.57
 30
0.0
 10
-102.3044
 20
-65.57
 30
0.0
 10
-102.9919
 20
-64.2407
 30
0.0
 10
-102.539
 20
-63.7144
 30
0.0
 10
-101.1304
 20
-64.2054
 30
0.0
 10
-101.1304
 20
-64.2054
 30
0.0
 10
-98.5823
 20
-65.0706
 30
0.0
 10
-95.8092
 20
-63.202
 30
0.0
 10
-93.621
 20
-59.705
 30
0.0
 10
-93.621
 20
-59.705
 30
0.0
 10
-93.621
 20
-59.705
 30
0.0
 10
-93.621
 20
-59.7051
 30
0.0
 10
-93.621
 20
-59.7051
 30
0.0
  0
SPLINE
  5
8D
330
1F
100
AcDbEntity
  8
layer 1
 62
     7
100
AcDbSpline
210
0.0
220
0.0
230
1.0
 70
    11
 71
     3
 72
    36
 73
    32
 74
     0
 42
0.0000000001
 43
0.0000000001
 12
1.0
 22
0.0
 32
0.0
 13
1.0
 23
0.0
 33
0.0
 40
0.0
 40
0.0
 40
0.0
 40
0.0
 40
0.1111111111111111
 40
0.1111111111111111
 40
0.1111111111111111
 40
0.1111111111111111
 40
0.2222222222222222
 40
0.2222222222222222
 40
0.2222222222222222
 40
0.2222222222222222
 40
0.3333333333333333
 40
0.3333333333333333
 40
0.3333333333333333
 40
0.3333333333333333
 40
0.4444444444444444
 40
0.4444444444444444
 40
0.4444444444444444
 40
0.4444444444444444
 40
0.5555555555555556
 40
0.5555555555555556
 40
0.5555555555555556
 40
0.5555555555555556
 40
0.6666666666666666
 40
0.6666666666666666
 40
0.6666666666666666
 40
0.6666666666666666
 40
0.7777777777777778
 40
0.7777777777777778
 40
0.7777777777777778
 40
0.7777777777777778
 40
1.0
 40
1.0
 40
1.0
 40
1.0
 10
-93.621
 20
-96.7982
 30
0.0
 10
-94.3589
 20
-94.3345
 30
0.0
 10
-95.5315
 20
-93.8292
 30
0.0
 10
-97.2308
 20
-93.0133
 30
0.0
 10
-97.2308
 20
-93.0133
 30
0.0
 10
-98.8295
 20
-92.5787
 30
0.0
 10
-97.9306
 20
-91.3884
 30
0.0
 10
-97.7212
 20
-90.8801
 30
0.0
 10
-97.7212
 20
-90.8801
 30
0.0
 10
-95.9329
 20
-85.3405
 30
0.0
 10
-98.7838
 20
-83.1985
 30
0.0
 10
-100.6442
 20
-79.1802
 30
0.0
 10
-100.6442
 20
-79.1802
 30
0.0
 10
-101.2512
 20
-77.4462
 30
0.0
 10
-101.1918
 20
-75.3612
 30
0.0
 10
-100.5139
 20
-74.6123
 30
0.0
 10
-100.5139
 20
-74.6123
 30
0.0
 10
-100.077
 20
-74.1296
 30
0.0
 10
-99.6149
 20
-74.0293
 30
0.0
 10
-98.5034
 20
-74.176
 30
0.0
 10
-98.5034
 20
-74.176
 30
0.0
 10
-97.0707
 20
-74.3651
 30
0.0
 10
-97.053
 20
-74.3536
 30
0.0
 10
-96.0856
 20
-72.6025
 30
0.0
 10
-96.0856
 20
-72.6025
 30
0.0
 10
-95.5496
 20
-71.6323
 30
0.0
 10
-93.7984
 20
-70.9947
 30
0.0
 10
-93.6208
 20
-70.8849
 30
0.0
 10
-93.6208
 20
-70.8849
 30
0.0
 10
-93.6208
 20
-70.8849
 30
0.0
 10
-93.621
 20
-96.7982
 30
0.0
 10
-93.621
 20
-96.7982
 30
0.0
  0
SPLINE
  5
8E
330
1F
100
AcDbEntity
  8
layer 1
 62
     7
100
AcDbSpline
210
0.0
220
0.0
230
1.0
 70
    11
 71
     3
 72
    36
 73
    32
 74
     0
 42
0.0000000001
 43
0.0000000001
 12
1.0
 22
0.0
 32
0.0
 13
1.0
 23
0.0
 33
0.0
 40
0.0
 40
0.0
 40
0.0
 40
0.0
 40
0.1111111111111111
 40
0.1111111111111111
 40
0.1111111111111111
 40
0.1111111111111111
 40
0.2222222222222222
 40
0.2222222222222222
 40
0.2222222222222222
 40
0.2222222222222222
 40
0.3333333333333333
 40
0.3333333333333333
 40
0.3333333333333333
 40
0.3333333333333333
 40
0.4444444444444444
 40
0.4444444444444444
 40
0.4444444444444444
 40
0.4444444444444444
 40
0.5555555555555556
 40
0.5555555555555556
 40
0.5555555555555556
 40
0.5555555555555556
 40
0.6666666666666666
 40
0.6666666666666666
 40
0.6666666666666666
 40
0.6666666666666666
 40
0.7777777777777778
 40
0.7777777777777778
 40
0.7777777777777778
 40
0.7777777777777778
 40
1.0
 40
1.0
 40
1.0
 40
1.0
 10
-120.2951
 20
-70.9293
 30
0.0
 10
-112.4254
 20
-76.7402
 30
0.0
 10
-120.1675
 20
-83.1883
 30
0.0
 10
-122.2428
 20
-89.2675
 30
0.0
 10
-122.2428
 20
-89.2675
 30
0.0
 10
-123.5844
 20
-92.8428
 30
0.0
 10
-120.9026
 20
-95.1306
 30
0.0
 10
-120.4933
 20
-98.0342
 30
0.0
 10
-120.4933
 20
-98.0342
 30
0.0
 10
-125.6848
 20
-96.691
 30
0.0
 10
-128.3398
 20
-92.3516
 30
0.0
 10
-129.2521
 20
-88.3236
 30
0.0
 10
-129.2521
 20
-88.3236
 30
0.0
 10
-130.9676
 20
-81.4393
 30
0.0
 10
-127.0054
 20
-79.2602
 30
0.0
 10
-123.094
 20
-77.3215
 30
0.0
 10
-123.094
 20
-77.3215
 30
0.0
 10
-123.5434
 20
-74.7655
 30
0.0
 10
-126.3494
 20
-74.987
 30
0.0
 10
-129.8397
 20
-75.8909
 30
0.0
 10
-129.8397
 20
-75.8909
 30
0.0
 10
-130.7303
 20
-76.1215
 30
0.0
 10
-130.8013
 20
-76.0625
 30
0.0
 10
-130.8013
 20
-75.0908
 30
0.0
 10
-130.8013
 20
-75.0908
 30
0.0
 10
-130.8013
 20
-72.1243
 30
0.0
 10
-123.8395
 20
-69.1157
 30
0.0
 10
-120.2951
 20
-70.9294
 30
0.0
 10
-120.2951
 20
-70.9294
 30
0.0
 10
-120.2951
 20
-70.9294
 30
0.0
 10
-120.2951
 20
-70.9293
 30
0.0
 10
-120.2951
 20
-70.9293
 30
0.0
  0
SPLINE
  5
8F
330
1F
100
AcDbEntity
  8
layer 1
 62
     7
100
AcDbSpline
210
0.0
220
0.0
230
1.0
 70
    11
 71
     3
 72
    44
 73
    40
 74
     0
 42
0.0000000001
 43
0.0000000001
 12
1.0
 22
0.0
 32
0.0
 13
1.0
 23
0.0
 33
0.0
 40
0.0
 40
0.0
 40
0.0
 40
0.0
 40
0.0909090909090909
 40
0.0909090909090909
 40
0.0909090909090909
 40
0.0909090909090909
 40
0.1818181818181818
 40
0.1818181818181818
 40
0.1818181818181818
 40
0.1818181818181818
 40
0.2727272727272727
 40
0.2727272727272727
 40
0.2727272727272727
 40
0.2727272727272727
 40
0.3636363636363636
 40
0.3636363636363636
 40
0.3636363636363636
 40
0.3636363636363636
 40
0.4545454545454545
 40
0.4545454545454545
 40
0.4545454545454545
 40
0.4545454545454545
 40
0.5454545454545454
 40
0.5454545454545454
 40
0.5454545454545454
 40
0.5454545454545454
 40
0.6363636363636364
 40
0.6363636363636364
 40
0.6363636363636364
 40
0.6363636363636364
 40
0.7272727272727273
 40
0.7272727272727273
 40
0.7272727272727273
 40
0.7272727272727273
 40
0.8181818181818182
 40
0.8181818181818182
 40
0.8181818181818182
 40
0.8181818181818182
 40
1.0
 40
1.0
 40
1.0
 40
1.0
 10
-114.981
 20
-72.5896
 30
0.0
 10
-111.2843
 20
-76.0152
 30
0.0
 10
-109.2342
 20
-78.8894
 30
0.0
 10
-105.0821
 20
-75.4055
 30
0.0
 10
-105.0821
 20
-75.4055
 30
0.0
 10
-103.9814
 20
-74.5396
 30
0.0
 10
-103.6617
 20
-74.6567
 30
0.0
 10
-103.3587
 20
-76.0362
 30
0.0
 10
-103.3587
 20
-76.0362
 30
0.0
 10
-103.1906
 20
-76.8015
 30
0.0
 10
-103.3602
 20
-77.3954
 30
0.0
 10
-104.0386
 20
-78.4209
 30
0.0
 10
-104.0386
 20
-78.4209
 30
0.0
 10
-106.7777
 20
-81.437
 30
0.0
 10
-104.5327
 20
-82.9182
 30
0.0
 10
-104.6675
 20
-84.2146
 30
0.0
 10
-104.6675
 20
-84.2146
 30
0.0
 10
-106.8158
 20
-82.0758
 30
0.0
 10
-110.5093
 20
-81.2712
 30
0.0
 10
-113.5228
 20
-84.0666
 30
0.0
 10
-113.5228
 20
-84.0666
 30
0.0
 10
-114.0352
 20
-83.2935
 30
0.0
 10
-114.0248
 20
-82.4754
 30
0.0
 10
-113.633
 20
-80.9468
 30
0.0
 10
-113.633
 20
-80.9468
 30
0.0
 10
-113.0626
 20
-78.7213
 30
0.0
 10
-113.4494
 20
-77.1191
 30
0.0
 10
-115.0815
 20
-74.9469
 30
0.0
 10
-115.0815
 20
-74.9469
 30
0.0
 10
-115.8452
 20
-73.9306
 30
0.0
 10
-116.4198
 20
-72.9487
 30
0.0
 10
-116.3584
 20
-72.7647
 30
0.0
 10
-116.3584
 20
-72.7647
 30
0.0
 10
-116.1904
 20
-72.2607
 30
0.0
 10
-115.662
 20
-72.1934
 30
0.0
 10
-114.9808
 20
-72.5895
 30
0.0
 10
-114.9808
 20
-72.5895
 30
0.0
 10
-114.9808
 20
-72.5895
 30
0.0
 10
-114.981
 20
-72.5896
 30
0.0
 10
-114.981
 20
-72.5896
 30
0.0
  0
SPLINE
  5
90
330
1F
100
AcDbEntity
  8
layer 1
 62
     7
100
AcDbSpline
210
0.0
220
0.0
230
1.0
 70
    11
 71
     3
 72
    36
 73
    32
 74
     0
 42
0.0000000001
 43
0.0000000001
 12
1.0
 22
0.0
 32
0.0
 13
1.0
 23
0.0
 33
0.0
 40
0.0
 40
0.0
 40
0.0
 40
0.0
 40
0.1111111111111111
 40
0.1111111111111111
 40
0.1111111111111111
 40
0.1111111111111111
 40
0.2222222222222222
 40
0.2222222222222222
 40
0.2222222222222222
 40
0.2222222222222222
 40
0.3333333333333333
 40
0.3333333333333333
 40
0.3333333333333333
 40
0.3333333333333333
 40
0.4444444444444444
 40
0.4444444444444444
 40
0.4444444444444444
 40
0.4444444444444444
 40
0.5555555555555556
 40
0.5555555555555556
 40
0.5555555555555556
 40
0.5555555555555556
 40
0.6666666666666666
 40
0.6666666666666666
 40
0.6666666666666666
 40
0.6666666666666666
 40
0.7777777777777778
 40
0.7777777777777778
 40
0.7777777777777778
 40
0.7777777777777778
 40
1.0
 40
1.0
 40
1.0
 40
1.0
 10
-128.7951
 20
-96.4401
 30
0.0
 10
-127.0099
 20
-97.9129
 30
0.0
 10
-128.1958
 20
-99.1693
 30
0.0
 10
-129.5731
 20
-99.9879
 30
0.0
 10
-129.5731
 20
-99.9879
 30
0.0
 10
-133.8793
 20
-101.9662
 30
0.0
 10
-131.3091
 20
-106.4826
 30
0.0
 10
-129.7524
 20
-107.414
 30
0.0
 10
-129.7524
 20
-107.414
 30
0.0
 10
-129.7524
 20
-107.414
 30
0.0
 10
-142.8436
 20
-107.414
 30
0.0
 10
-142.8436
 20
-107.414
 30
0.0
 10
-142.8436
 20
-107.414
 30
0.0
 10
-141.2869
 20
-106.4824
 30
0.0
 10
-138.7167
 20
-101.9662
 30
0.0
 10
-143.0229
 20
-99.9879
 30
0.0
 10
-143.0229
 20
-99.9879
 30
0.0
 10
-144.4002
 20
-99.1693
 30
0.0
 10
-145.5861
 20
-97.9129
 30
0.0
 10
-143.8009
 20
-96.4401
 30
0.0
 10
-143.8009
 20
-96.4401
 30
0.0
 10
-141.1359
 20
-94.7585
 30
0.0
 10
-138.5537
 20
-92.6217
 30
0.0
 10
-136.2981
 20
-85.1157
 30
0.0
 10
-136.2981
 20
-85.1157
 30
0.0
 10
-134.0422
 20
-92.6217
 30
0.0
 10
-131.46
 20
-94.7586
 30
0.0
 10
-128.7952
 20
-96.4401
 30
0.0
 10
-128.7952
 20
-96.4401
 30
0.0
 10
-128.7952
 20
-96.4401
 30
0.0
 10
-128.7951
 20
-96.4401
 30
0.0
 10
-128.7951
 20
-96.4401
 30
0.0
  0
SPLINE
  5
91
330
1F
100
AcDbEntity
  8
layer 1
 62
     7
100
AcDbSpline
210
0.0
220
0.0
230
1.0
 70
    11
 71
     3
 72
    40
 73
    36
 74
     0
 42
0.0000000001
 43
0.0000000001
 12
1.0
 22
0.0
 32
0.0
 13
1.0
 23
0.0
 33
0.0
 40
0.0
 40
0.0
 40
0.0
 40
0.0
 40
0.1
 40
0.1
 40
0.1
 40
0.1
 40
0.2
 40
0.2
 40
0.2
 40
0.2
 40
0.3
 40
0.3
 40
0.3
 40
0.3
 40
0.4
 40
0.4
 40
0.4
 40
0.4
 40
0.5
 40
0.5
 40
0.5
 40
0.5
 40
0.6
 40
0.6
 40
0.6
 40
0.6
 40
0.7
 40
0.7
 40
0.7
 40
0.7
 40
0.8
 40
0.8
 40
0.8
 40
0.8
 40
1.0
 40
1.0
 40
1.0
 40
1.0
 10
-103.9908
 20
-86.3194
 30
0.0
 10
-103.6962
 20
-86.8891
 30
0.0
 10
-101.9258
 20
-89.4073
 30
0.0
 10
-101.2538
 20
-89.9435
 30
0.0
 10
-101.2538
 20
-89.9435
 30
0.0
 10
-99.6026
 20
-91.261
 30
0.0
 10
-99.4005
 20
-92.1463
 30
0.0
 10
-101.6096
 20
-92.6494
 30
0.0
 10
-101.6096
 20
-92.6494
 30
0.0
 10
-103.002
 20
-92.8905
 30
0.0
 10
-104.0517
 20
-94.0178
 30
0.0
 10
-104.3237
 20
-95.3882
 30
0.0
 10
-104.3237
 20
-95.3882
 30
0.0
 10
-109.9214
 20
-92.3235
 30
0.0
 10
-115.1191
 20
-95.1011
 30
0.0
 10
-115.4526
 20
-98.289
 30
0.0
 10
-115.4526
 20
-98.289
 30
0.0
 10
-115.6003
 20
-99.5763
 30
0.0
 10
-116.7396
 20
-99.6521
 30
0.0
 10
-117.3102
 20
-99.0116
 30
0.0
 10
-117.3102
 20
-99.0116
 30
0.0
 10
-118.4224
 20
-98.2829
 30
0.0
 10
-118.9378
 20
-96.5753
 30
0.0
 10
-118.4577
 20
-93.9781
 30
0.0
 10
-118.4577
 20
-93.9781
 30
0.0
 10
-115.5694
 20
-85.3871
 30
0.0
 10
-107.8196
 20
-84.323
 30
0.0
 10
-105.0386
 20
-90.1183
 30
0.0
 10
-105.0386
 20
-90.1183
 30
0.0
 10
-104.0175
 20
-88.9659
 30
0.0
 10
-103.8396
 20
-88.6206
 30
0.0
 10
-103.9906
 20
-86.3194
 30
0.0
 10
-103.9906
 20
-86.3194
 30
0.0
 10
-103.9906
 20
-86.3194
 30
0.0
 10
-103.9908
 20
-86.3194
 30
0.0
 10
-103.9908
 20
-86.3194
 30
0.0
  0
SPLINE
  5
92
330
1F
100
AcDbEntity
  8
layer 1
 62
     7
100
AcDbSpline
210
0.0
220
0.0
230
1.0
 70
    11
 71
     3
 72
    28
 73
    24
 74
     0
 42
0.0000000001
 43
0.0000000001
 12
1.0
 22
0.0
 32
0.0
 13
1.0
 23
0.0
 33
0.0
 40
0.0
 40
0.0
 40
0.0
 40
0.0
 40
0.1428571428571428
 40
0.1428571428571428
 40
0.1428571428571428
 40
0.1428571428571428
 40
0.2857142857142857
 40
0.2857142857142857
 40
0.2857142857142857
 40
0.2857142857142857
 40
0.4285714285714285
 40
0.4285714285714285
 40
0.4285714285714285
 40
0.4285714285714285
 40
0.5714285714285714
 40
0.5714285714285714
 40
0.5714285714285714
 40
0.5714285714285714
 40
0.7142857142857143
 40
0.7142857142857143
 40
0.7142857142857143
 40
0.7142857142857143
 40
1.0
 40
1.0
 40
1.0
 40
1.0
 10
-104.4706
 20
-96.513
 30
0.0
 10
-104.4781
 20
-99.016
 30
0.0
 10
-103.246
 20
-100.3737
 30
0.0
 10
-101.2173
 20
-100.5334
 30
0.0
 10
-101.2173
 20
-100.5334
 30
0.0
 10
-99.7038
 20
-100.5334
 30
0.0
 10
-99.649
 20
-101.2933
 30
0.0
 10
-101.0667
 20
-102.6177
 30
0.0
 10
-101.0667
 20
-102.6177
 30
0.0
 10
-102.6976
 20
-104.1411
 30
0.0
 10
-106.446
 20
-104.7066
 30
0.0
 10
-107.9844
 20
-103.5227
 30
0.0
 10
-107.9844
 20
-103.5227
 30
0.0
 10
-109.4527
 20
-102.3927
 30
0.0
 10
-110.0702
 20
-100.1417
 30
0.0
 10
-109.3043
 20
-98.6226
 30
0.0
 10
-109.3043
 20
-98.6226
 30
0.0
 10
-108.6615
 20
-97.3477
 30
0.0
 10
-106.6288
 20
-96.4895
 30
0.0
 10
-104.4706
 20
-96.5129
 30
0.0
 10
-104.4706
 20
-96.5129
 30
0.0
 10
-104.4706
 20
-96.5129
 30
0.0
 10
-104.4706
 20
-96.513
 30
0.0
 10
-104.4706
 20
-96.513
 30
0.0
  0
SPLINE
  5
93
330
1F
100
AcDbEntity
  8
layer 1
 62
     7
100
AcDbSpline
210
0.0
220
0.0
230
1.0
 70
    11
 71
     3
 72
    16
 73
    12
 74
     0
 42
0.0000000001
 43
0.0000000001
 12
1.0
 22
0.0
 32
0.0
 13
1.0
 23
0.0
 33
0.0
 40
0.0
 40
0.0
 40
0.0
 40
0.0
 40
0.25
 40
0.25
 40
0.25
 40
0.25
 40
0.5
 40
0.5
 40
0.5
 40
0.5
 40
1.0
 40
1.0
 40
1.0
 40
1.0
 10
-93.6888
 20
-107.414
 30
0.0
 10
-93.6888
 20
-107.414
 30
0.0
 10
-103.4211
 20
-107.414
 30
0.0
 10
-103.4211
 20
-107.414
 30
0.0
 10
-103.4211
 20
-107.414
 30
0.0
 10
-98.1828
 20
-106.5053
 30
0.0
 10
-93.6888
 20
-101.9131
 30
0.0
 10
-93.6888
 20
-98.8929
 30
0.0
 10
-93.6888
 20
-98.8929
 30
0.0
 10
-93.6888
 20
-98.8929
 30
0.0
 10
-93.6888
 20
-107.414
 30
0.0
 10
-93.6888
 20
-107.414
 30
0.0
  0
SPLINE
  5
94
330
1F
100
AcDbEntity
  8
layer 1
 62
     7
100
AcDbSpline
210
0.0
220
0.0
230
1.0
 70
    11
 71
     3
 72
    20
 73
    16
 74
     0
 42
0.0000000001
 43
0.0000000001
 12
1.0
 22
0.0
 32
0.0
 13
1.0
 23
0.0
 33
0.0
 40
0.0
 40
0.0
 40
0.0
 40
0.0
 40
0.2
 40
0.2
 40
0.2
 40
0.2
 40
0.4
 40
0.4
 40
0.4
 40
0.4
 40
0.6
 40
0.6
 40
0.6
 40
0.6
 40
1.0
 40
1.0
 40
1.0
 40
1.0
 10
-120.8364
 20
-102.8675
 30
0.0
 10
-119.1237
 20
-103.0935
 30
0.0
 10
-114.572
 20
-105.9939
 30
0.0
 10
-109.2118
 20
-107.4141
 30
0.0
 10
-109.2118
 20
-107.4141
 30
0.0
 10
-109.2118
 20
-107.4141
 30
0.0
 10
-127.6183
 20
-107.4141
 30
0.0
 10
-127.6183
 20
-107.4141
 30
0.0
 10
-127.6183
 20
-107.4141
 30
0.0
 10
-129.9344
 20
-103.1492
 30
0.0
 10
-125.3325
 20
-101.9579
 30
0.0
 10
-120.8365
 20
-102.8675
 30
0.0
 10
-120.8365
 20
-102.8675
 30
0.0
 10
-120.8365
 20
-102.8675
 30
0.0
 10
-120.8364
 20
-102.8675
 30
0.0
 10
-120.8364
 20
-102.8675
 30
0.0
  0
ENDSEC
  0
SECTION
  2
OBJECTS
  0
DICTIONARY
  5
C
330
0
100
AcDbDictionary
281
     1
  3
ACAD_GROUP
350
D
  3
ACAD_LAYOUT
350
1A
  3
ACAD_MATERIAL
350
3B
  3
ACAD_MLEADERSTYLE
350
B7
  3
ACAD_MLINESTYLE
350
17
  3
ACAD_PLOTSETTINGS
350
19
  3
ACAD_PLOTSTYLENAME
350
E
  3
ACAD_TABLESTYLE
350
B6
  3
ACAD_VISUALSTYLE
350
2A
  0
DICTIONARY
  5
D
102
{ACAD_REACTORS
330
C
102
}
330
C
100
AcDbDictionary
281
     1
  0
DICTIONARY
  5
1A
102
{ACAD_REACTORS
330
C
102
}
330
C
100
AcDbDictionary
281
     1
  3
Layout1
350
1E
  3
Layout2
350
26
  3
Model
350
22
  0
DICTIONARY
  5
3B
102
{ACAD_REACTORS
330
C
102
}
330
C
100
AcDbDictionary
281
     1
  3
ByBlock
350
3D
  3
ByLayer
350
3C
  3
Global
350
3E
  0
DICTIONARY
  5
B7
102
{ACAD_REACTORS
330
C
102
}
330
C
100
AcDbDictionary
281
     1
  0
DICTIONARY
  5
17
102
{ACAD_REACTORS
330
C
102
}
330
C
100
AcDbDictionary
281
     1
  3
Standard
350
18
  0
DICTIONARY
  5
19
102
{ACAD_REACTORS
330
C
102
}
330
C
100
AcDbDictionary
281
     1
  0
ACDBDICTIONARYWDFLT
  5
E
102
{ACAD_REACTORS
330
C
102
}
330
C
100
AcDbDictionary
281
     1
  3
Normal
350
F
100
AcDbDictionaryWithDefault
340
F
  0
DICTIONARY
  5
B6
102
{ACAD_REACTORS
330
C
102
}
330
C
100
AcDbDictionary
281
     1
  0
DICTIONARY
  5
2A
102
{ACAD_REACTORS
330
C
102
}
330
C
100
AcDbDictionary
281
     1
  3
2dWireframe
350
2F
  3
3D Hidden
350
31
  3
3dWireframe
350
30
  3
Basic
350
32
  3
Brighten
350
36
  3
ColorChange
350
3A
  3
Conceptual
350
34
  3
Dim
350
35
  3
Facepattern
350
39
  3
Flat
350
2B
  3
FlatWithEdges
350
2C
  3
Gouraud
350
2D
  3
GouraudWithEdges
350
2E
  3
Linepattern
350
38
  3
Realistic
350
33
  3
Thicken
350
37
  0
LAYOUT
  5
1E
102
{ACAD_REACTORS
330
1A
102
}
330
1A
100
AcDbPlotSettings
  1

  2
none_device
  4

  6

 40
0.0
 41
0.0
 42
0.0
 43
0.0
 44
0.0
 45
0.0
 46
0.0
 47
0.0
 48
0.0
 49
0.0
140
0.0
141
0.0
142
1.0
143
1.0
 70
   688
 72
     0
 73
     0
 74
     5
  7

 75
    16
 76
     0
 77
     2
 78
   300
147
1.0
148
0.0
149
0.0
100
AcDbLayout
  1
Layout1
 70
     1
 71
     1
 10
0.0
 20
0.0
 11
12.0
 21
9.0
 12
0.0
 22
0.0
 32
0.0
 14
1.000000000000000E+20
 24
1.000000000000000E+20
 34
1.000000000000000E+20
 15
-1.000000000000000E+20
 25
-1.000000000000000E+20
 35
-1.000000000000000E+20
146
0.0
 13
0.0
 23
0.0
 33
0.0
 16
1.0
 26
0.0
 36
0.0
 17
0.0
 27
1.0
 37
0.0
 76
     0
330
1B
  0
LAYOUT
  5
26
102
{ACAD_REACTORS
330
1A
102
}
330
1A
100
AcDbPlotSettings
  1

  2
none_device
  4

  6

 40
0.0
 41
0.0
 42
0.0
 43
0.0
 44
0.0
 45
0.0
 46
0.0
 47
0.0
 48
0.0
 49
0.0
140
0.0
141
0.0
142
1.0
143
1.0
 70
   688
 72
     0
 73
     0
 74
     5
  7

 75
    16
 76
     0
 77
     2
 78
   300
147
1.0
148
0.0
149
0.0
100
AcDbLayout
  1
Layout2
 70
     1
 71
     2
 10
0.0
 20
0.0
 11
0.0
 21
0.0
 12
0.0
 22
0.0
 32
0.0
 14
0.0
 24
0.0
 34
0.0
 15
0.0
 25
0.0
 35
0.0
146
0.0
 13
0.0
 23
0.0
 33
0.0
 16
1.0
 26
0.0
 36
0.0
 17
0.0
 27
1.0
 37
0.0
 76
     0
330
23
  0
LAYOUT
  5
22
102
{ACAD_REACTORS
330
1A
102
}
330
1A
100
AcDbPlotSettings
  1

  2
none_device
  4

  6

 40
0.0
 41
0.0
 42
0.0
 43
0.0
 44
0.0
 45
0.0
 46
0.0
 47
0.0
 48
0.0
 49
0.0
140
0.0
141
0.0
142
1.0
143
1.0
 70
  1712
 72
     0
 73
     0
 74
     0
  7

 75
     0
 76
     0
 77
     2
 78
   300
147
1.0
148
0.0
149
0.0
100
AcDbLayout
  1
Model
 70
     1
 71
     0
 10
0.0
 20
0.0
 11
12.0
 21
9.0
 12
0.0
 22
0.0
 32
0.0
 14
-187.3954
 24
-115.0147
 34
0.0
 15
-86.1543
 25
131.745
 35
0.0
146
0.0
 13
0.0
 23
0.0
 33
0.0
 16
1.0
 26
0.0
 36
0.0
 17
0.0
 27
1.0
 37
0.0
 76
     0
330
1F
331
29
  0
MATERIAL
  5
3D
102
{ACAD_REACTORS
330
3B
102
}
330
3B
100
AcDbMaterial
  1
ByBlock
 72
     1
 94
      127
  0
MATERIAL
  5
3C
102
{ACAD_REACTORS
330
3B
102
}
330
3B
100
AcDbMaterial
  1
ByLayer
 72
     1
 94
      127
  0
MATERIAL
  5
3E
102
{ACAD_REACTORS
330
3B
102
}
330
3B
100
AcDbMaterial
  1
Global
 72
     1
 94
      127
  0
MLINESTYLE
  5
18
102
{ACAD_REACTORS
330
17
102
}
330
17
100
AcDbMlineStyle
  2
Standard
 70
     0
  3

 62
   256
 51
90.0
 52
90.0
 71
     2
 49
0.5
 62
   256
  6
BYLAYER
 49
-0.5
 62
   256
  6
BYLAYER
  0
ACDBPLACEHOLDER
  5
F
102
{ACAD_REACTORS
330
E
102
}
330
E
  0
VISUALSTYLE
  5
2F
102
{ACAD_REACTORS
330
2A
102
}
102
{ACAD_XDICTIONARY
360
9E
102
}
330
2A
100
AcDbVisualStyle
  2
2dWireframe
 70
     4
 71
     0
 72
     2
 73
     0
 90
        0
 40
-0.6
 41
-30.0
 62
     5
 63
     7
421
 16777215
 74
     1
 91
        4
 64
     7
 65
   257
 75
     1
175
     1
 42
1.0
 92
        0
 66
   257
 43
1.0
 76
     1
 77
     6
 78
     2
 67
     7
 79
     5
170
     0
171
     0
290
     0
174
     0
 93
        1
 44
0.0
173
     0
291
     0
 45
0.0
  0
VISUALSTYLE
  5
31
102
{ACAD_REACTORS
330
2A
102
}
102
{ACAD_XDICTIONARY
360
A2
102
}
330
2A
100
AcDbVisualStyle
  2
3D Hidden
 70
     6
 71
     1
 72
     2
 73
     2
 90
        0
 40
-0.6
 41
-30.0
 62
     5
 63
     7
421
 16777215
 74
     2
 91
        2
 64
     7
 65
   257
 75
     2
175
     1
 42
40.0
 92
        0
 66
   257
 43
1.0
 76
     1
 77
     6
 78
     2
 67
     7
 79
     3
170
     0
171
     0
290
     0
174
     0
 93
        1
 44
0.0
173
     0
291
     0
 45
0.0
  0
VISUALSTYLE
  5
30
102
{ACAD_REACTORS
330
2A
102
}
102
{ACAD_XDICTIONARY
360
A0
102
}
330
2A
100
AcDbVisualStyle
  2
3dWireframe
 70
     5
 71
     0
 72
     2
 73
     0
 90
        0
 40
-0.6
 41
-30.0
 62
     5
 63
     7
421
 16777215
 74
     1
 91
        4
 64
     7
 65
   257
 75
     1
175
     1
 42
1.0
 92
        0
 66
   257
 43
1.0
 76
     1
 77
     6
 78
     2
 67
     7
 79
     5
170
     0
171
     0
290
     0
174
     0
 93
        1
 44
0.0
173
     0
291
     0
 45
0.0
  0
VISUALSTYLE
  5
32
102
{ACAD_REACTORS
330
2A
102
}
102
{ACAD_XDICTIONARY
360
A4
102
}
330
2A
100
AcDbVisualStyle
  2
Basic
 70
     7
 71
     1
 72
     0
 73
     1
 90
        0
 40
-0.6
 41
-30.0
 62
     5
 63
     7
421
 16777215
 74
     0
 91
        4
 64
     7
 65
   257
 75
     1
175
     1
 42
1.0
 92
        8
 66
     7
 43
1.0
 76
     1
 77
     6
 78
     2
 67
     7
 79
     5
170
     0
171
     0
290
     0
174
     0
 93
        1
 44
0.0
173
     0
291
     1
 45
0.0
  0
VISUALSTYLE
  5
36
102
{ACAD_REACTORS
330
2A
102
}
102
{ACAD_XDICTIONARY
360
AC
102
}
330
2A
100
AcDbVisualStyle
  2
Brighten
 70
    12
 71
     2
 72
     2
 73
     0
 90
        0
 40
-0.6
 41
-30.0
 62
     5
 63
     7
421
 16777215
 74
     1
 91
        4
 64
     7
 65
   257
 75
     1
175
     1
 42
1.0
 92
        8
 66
     7
 43
1.0
 76
     1
 77
     6
 78
     2
 67
     7
 79
     5
170
     0
171
     0
290
     0
174
     0
 93
        1
 44
50.0
173
     0
291
     1
 45
0.0
  0
VISUALSTYLE
  5
3A
102
{ACAD_REACTORS
330
2A
102
}
102
{ACAD_XDICTIONARY
360
B4
102
}
330
2A
100
AcDbVisualStyle
  2
ColorChange
 70
    16
 71
     2
 72
     2
 73
     3
 90
        0
 40
-0.6
 41
-30.0
 62
     5
 63
     8
421
  8421504
 74
     1
 91
        4
 64
     7
 65
   257
 75
     1
175
     1
 42
1.0
 92
        8
 66
     8
424
  8421504
 43
1.0
 76
     1
 77
     6
 78
     2
 67
     7
 79
     5
170
     0
171
     0
290
     0
174
     0
 93
        1
 44
0.0
173
     0
291
     1
 45
0.0
  0
VISUALSTYLE
  5
34
102
{ACAD_REACTORS
330
2A
102
}
102
{ACAD_XDICTIONARY
360
A8
102
}
330
2A
100
AcDbVisualStyle
  2
Conceptual
 70
     9
 71
     3
 72
     2
 73
     0
 90
        0
 40
-0.6
 41
-30.0
 62
     5
 63
     7
421
 16777215
 74
     2
 91
        2
 64
     7
 65
   257
 75
     1
175
     1
 42
40.0
 92
        8
 66
     7
 43
1.0
 76
     1
 77
     6
 78
     2
 67
     7
 79
     3
170
     0
171
     0
290
     0
174
     0
 93
        1
 44
0.0
173
     0
291
     0
 45
0.0
  0
VISUALSTYLE
  5
35
102
{ACAD_REACTORS
330
2A
102
}
102
{ACAD_XDICTIONARY
360
AA
102
}
330
2A
100
AcDbVisualStyle
  2
Dim
 70
    11
 71
     2
 72
     2
 73
     0
 90
        0
 40
-0.6
 41
-30.0
 62
     5
 63
     7
421
 16777215
 74
     1
 91
        4
 64
     7
 65
   257
 75
     1
175
     1
 42
1.0
 92
        8
 66
     7
 43
1.0
 76
     1
 77
     6
 78
     2
 67
     7
 79
     5
170
     0
171
     0
290
     0
174
     0
 93
        1
 44
-50.0
173
     0
291
     1
 45
0.0
  0
VISUALSTYLE
  5
39
102
{ACAD_REACTORS
330
2A
102
}
102
{ACAD_XDICTIONARY
360
B2
102
}
330
2A
100
AcDbVisualStyle
  2
Facepattern
 70
    15
 71
     2
 72
     2
 73
     0
 90
        0
 40
-0.6
 41
-30.0
 62
     5
 63
     7
421
 16777215
 74
     1
 91
        4
 64
     7
 65
   257
 75
     1
175
     1
 42
1.0
 92
        8
 66
     7
 43
1.0
 76
     1
 77
     6
 78
     2
 67
     7
 79
     5
170
     0
171
     0
290
     0
174
     0
 93
        1
 44
0.0
173
     0
291
     1
 45
0.0
  0
VISUALSTYLE
  5
2B
102
{ACAD_REACTORS
330
2A
102
}
102
{ACAD_XDICTIONARY
360
96
102
}
330
2A
100
AcDbVisualStyle
  2
Flat
 70
     0
 71
     2
 72
     1
 73
     1
 90
        2
 40
-0.6
 41
30.0
 62
     5
 63
     7
421
 16777215
 74
     0
 91
        4
 64
     7
 65
   257
 75
     1
175
     1
 42
1.0
 92
        8
 66
     7
 43
1.0
 76
     1
 77
     6
 78
     2
 67
     7
 79
     5
170
     0
171
     0
290
     0
174
     0
 93
       13
 44
0.0
173
     0
291
     1
 45
0.0
  0
VISUALSTYLE
  5
2C
102
{ACAD_REACTORS
330
2A
102
}
102
{ACAD_XDICTIONARY
360
98
102
}
330
2A
100
AcDbVisualStyle
  2
FlatWithEdges
 70
     1
 71
     2
 72
     1
 73
     1
 90
        2
 40
-0.6
 41
30.0
 62
     5
 63
     7
421
 16777215
 74
     1
 91
        4
 64
     7
 65
   257
 75
     1
175
     1
 42
1.0
 92
        0
 66
   257
 43
1.0
 76
     1
 77
     6
 78
     2
 67
     7
 79
     5
170
     0
171
     0
290
     0
174
     0
 93
       13
 44
0.0
173
     0
291
     1
 45
0.0
  0
VISUALSTYLE
  5
2D
102
{ACAD_REACTORS
330
2A
102
}
102
{ACAD_XDICTIONARY
360
9A
102
}
330
2A
100
AcDbVisualStyle
  2
Gouraud
 70
     2
 71
     2
 72
     2
 73
     1
 90
        2
 40
-0.6
 41
30.0
 62
     5
 63
     7
421
 16777215
 74
     0
 91
        4
 64
     7
 65
   257
 75
     1
175
     1
 42
1.0
 92
        0
 66
     7
 43
1.0
 76
     1
 77
     6
 78
     2
 67
     7
 79
     5
170
     0
171
     0
290
     0
174
     0
 93
       13
 44
0.0
173
     0
291
     1
 45
0.0
  0
VISUALSTYLE
  5
2E
102
{ACAD_REACTORS
330
2A
102
}
102
{ACAD_XDICTIONARY
360
9C
102
}
330
2A
100
AcDbVisualStyle
  2
GouraudWithEdges
 70
     3
 71
     2
 72
     2
 73
     1
 90
        2
 40
-0.6
 41
30.0
 62
     5
 63
     7
421
 16777215
 74
     1
 91
        4
 64
     7
 65
   257
 75
     1
175
     1
 42
1.0
 92
        0
 66
   257
 43
1.0
 76
     1
 77
     6
 78
     2
 67
     7
 79
     5
170
     0
171
     0
290
     0
174
     0
 93
       13
 44
0.0
173
     0
291
     1
 45
0.0
  0
VISUALSTYLE
  5
38
102
{ACAD_REACTORS
330
2A
102
}
102
{ACAD_XDICTIONARY
360
B0
102
}
330
2A
100
AcDbVisualStyle
  2
Linepattern
 70
    14
 71
     2
 72
     2
 73
     0
 90
        0
 40
-0.6
 41
-30.0
 62
     5
 63
     7
421
 16777215
 74
     1
 91
        4
 64
     7
 65
   257
 75
     7
175
     7
 42
1.0
 92
        8
 66
     7
 43
1.0
 76
     1
 77
     6
 78
     2
 67
     7
 79
     5
170
     0
171
     0
290
     0
174
     0
 93
        1
 44
0.0
173
     0
291
     1
 45
0.0
  0
VISUALSTYLE
  5
33
102
{ACAD_REACTORS
330
2A
102
}
102
{ACAD_XDICTIONARY
360
A6
102
}
330
2A
100
AcDbVisualStyle
  2
Realistic
 70
     8
 71
     2
 72
     2
 73
     0
 90
        0
 40
-0.6
 41
-30.0
 62
     5
 63
     7
421
 16777215
 74
     1
 91
        0
 64
     7
 65
   257
 75
     1
175
     1
 42
1.0
 92
        8
 66
     8
424
  7895160
 43
1.0
 76
     1
 77
     6
 78
     2
 67
     7
 79
     5
170
     0
171
     0
290
     0
174
     0
 93
       13
 44
0.0
173
     0
291
     0
 45
0.0
  0
VISUALSTYLE
  5
37
102
{ACAD_REACTORS
330
2A
102
}
102
{ACAD_XDICTIONARY
360
AE
102
}
330
2A
100
AcDbVisualStyle
  2
Thicken
 70
    13
 71
     2
 72
     2
 73
     0
 90
        0
 40
-0.6
 41
-30.0
 62
     5
 63
     7
421
 16777215
 74
     1
 91
        4
 64
     7
 65
   257
 75
     1
175
     1
 42
1.0
 92
       12
 66
     7
 43
1.0
 76
     1
 77
     6
 78
     2
 67
     7
 79
     5
170
     0
171
     0
290
     0
174
     0
 93
        1
 44
0.0
173
     0
291
     1
 45
0.0
  0
DICTIONARY
  5
9E
330
2F
100
AcDbDictionary
280
     1
281
     1
  3
ACAD_XREC_ROUNDTRIP
360
9F
  0
DICTIONARY
  5
A2
330
31
100
AcDbDictionary
280
     1
281
     1
  3
ACAD_XREC_ROUNDTRIP
360
A3
  0
DICTIONARY
  5
A0
330
30
100
AcDbDictionary
280
     1
281
     1
  3
ACAD_XREC_ROUNDTRIP
360
A1
  0
DICTIONARY
  5
A4
330
32
100
AcDbDictionary
280
     1
281
     1
  3
ACAD_XREC_ROUNDTRIP
360
A5
  0
DICTIONARY
  5
AC
330
36
100
AcDbDictionary
280
     1
281
     1
  3
ACAD_XREC_ROUNDTRIP
360
AD
  0
DICTIONARY
  5
B4
330
3A
100
AcDbDictionary
280
     1
281
     1
  3
ACAD_XREC_ROUNDTRIP
360
B5
  0
DICTIONARY
  5
A8
330
34
100
AcDbDictionary
280
     1
281
     1
  3
ACAD_XREC_ROUNDTRIP
360
A9
  0
DICTIONARY
  5
AA
330
35
100
AcDbDictionary
280
     1
281
     1
  3
ACAD_XREC_ROUNDTRIP
360
AB
  0
DICTIONARY
  5
B2
330
39
100
AcDbDictionary
280
     1
281
     1
  3
ACAD_XREC_ROUNDTRIP
360
B3
  0
DICTIONARY
  5
96
330
2B
100
AcDbDictionary
280
     1
281
     1
  3
ACAD_XREC_ROUNDTRIP
360
97
  0
DICTIONARY
  5
98
330
2C
100
AcDbDictionary
280
     1
281
     1
  3
ACAD_XREC_ROUNDTRIP
360
99
  0
DICTIONARY
  5
9A
330
2D
100
AcDbDictionary
280
     1
281
     1
  3
ACAD_XREC_ROUNDTRIP
360
9B
  0
DICTIONARY
  5
9C
330
2E
100
AcDbDictionary
280
     1
281
     1
  3
ACAD_XREC_ROUNDTRIP
360
9D
  0
DICTIONARY
  5
B0
330
38
100
AcDbDictionary
280
     1
281
     1
  3
ACAD_XREC_ROUNDTRIP
360
B1
  0
DICTIONARY
  5
A6
330
33
100
AcDbDictionary
280
     1
281
     1
  3
ACAD_XREC_ROUNDTRIP
360
A7
  0
DICTIONARY
  5
AE
330
37
100
AcDbDictionary
280
     1
281
     1
  3
ACAD_XREC_ROUNDTRIP
360
AF
  0
XRECORD
  5
9F
102
{ACAD_REACTORS
330
9E
102
}
330
9E
100
AcDbXrecord
280
     1
102
RTVSPropertyOp0
 70
     1
102
RTVSPropertyOp1
 70
     1
102
RTVSPropertyOp2
 70
     1
102
RTVSPropertyOp3
 70
     1
102
RTVSPropertyOp4
 70
     1
102
RTVSPropertyOp5
 70
     1
102
RTVSPropertyOp6
 70
     1
102
RTVSPropertyOp7
 70
     1
102
RTVSPropertyOp8
 70
     1
102
RTVSPropertyOp9
 70
     1
102
RTVSPropertyOp10
 70
     1
102
RTVSPropertyOp11
 70
     1
102
RTVSPropertyOp12
 70
     1
102
RTVSPropertyOp13
 70
     1
102
RTVSPropertyOp14
 70
     1
102
RTVSPropertyOp15
 70
     1
102
RTVSPropertyOp16
 70
     1
102
RTVSPropertyOp17
 70
     1
102
RTVSPropertyOp18
 70
     1
102
RTVSPropertyOp19
 70
     1
102
RTVSPropertyOp20
 70
     1
102
RTVSPropertyOp21
 70
     1
102
RTVSPropertyOp22
 70
     1
102
RTVSPropertyOp23
 70
     1
102
RTVSPropertyOp24
 70
     1
102
RTVSPropertyOp25
 70
     1
102
RTVSPropertyOp26
 70
     1
102
RTVSPropertyOp27
 70
     1
102
RTVSPropertyOp28
 70
     1
102
RTVSPropertyOp29
 70
     1
102
RTVSPropertyOp30
 70
     1
102
RTVSPropertyOp31
 70
     1
102
RTVSPropertyOp32
 70
     1
  0
XRECORD
  5
A3
102
{ACAD_REACTORS
330
A2
102
}
330
A2
100
AcDbXrecord
280
     1
102
RTVSPropertyOp0
 70
     1
102
RTVSPropertyOp1
 70
     1
102
RTVSPropertyOp2
 70
     1
102
RTVSPropertyOp3
 70
     1
102
RTVSPropertyOp4
 70
     1
102
RTVSPropertyOp5
 70
     1
102
RTVSPropertyOp6
 70
     1
102
RTVSPropertyOp7
 70
     1
102
RTVSPropertyOp8
 70
     1
102
RTVSPropertyOp9
 70
     1
102
RTVSPropertyOp10
 70
     1
102
RTVSPropertyOp11
 70
     1
102
RTVSPropertyOp12
 70
     1
102
RTVSPropertyOp13
 70
     1
102
RTVSPropertyOp14
 70
     1
102
RTVSPropertyOp15
 70
     1
102
RTVSPropertyOp16
 70
     1
102
RTVSPropertyOp17
 70
     1
102
RTVSPropertyOp18
 70
     1
102
RTVSPropertyOp19
 70
     1
102
RTVSPropertyOp20
 70
     1
102
RTVSPropertyOp21
 70
     1
102
RTVSPropertyOp22
 70
     1
102
RTVSPropertyOp23
 70
     1
102
RTVSPropertyOp24
 70
     1
102
RTVSPropertyOp25
 70
     1
102
RTVSPropertyOp26
 70
     1
102
RTVSPropertyOp27
 70
     1
102
RTVSPropertyOp28
 70
     1
102
RTVSPropertyOp29
 70
     1
102
RTVSPropertyOp30
 70
     1
102
RTVSPropertyOp31
 70
     1
102
RTVSPropertyOp32
 70
     1
  0
XRECORD
  5
A1
102
{ACAD_REACTORS
330
A0
102
}
330
A0
100
AcDbXrecord
280
     1
102
RTVSPropertyOp0
 70
     1
102
RTVSPropertyOp1
 70
     1
102
RTVSPropertyOp2
 70
     1
102
RTVSPropertyOp3
 70
     1
102
RTVSPropertyOp4
 70
     1
102
RTVSPropertyOp5
 70
     1
102
RTVSPropertyOp6
 70
     1
102
RTVSPropertyOp7
 70
     1
102
RTVSPropertyOp8
 70
     1
102
RTVSPropertyOp9
 70
     1
102
RTVSPropertyOp10
 70
     1
102
RTVSPropertyOp11
 70
     1
102
RTVSPropertyOp12
 70
     1
102
RTVSPropertyOp13
 70
     1
102
RTVSPropertyOp14
 70
     1
102
RTVSPropertyOp15
 70
     1
102
RTVSPropertyOp16
 70
     1
102
RTVSPropertyOp17
 70
     1
102
RTVSPropertyOp18
 70
     1
102
RTVSPropertyOp19
 70
     1
102
RTVSPropertyOp20
 70
     1
102
RTVSPropertyOp21
 70
     1
102
RTVSPropertyOp22
 70
     1
102
RTVSPropertyOp23
 70
     1
102
RTVSPropertyOp24
 70
     1
102
RTVSPropertyOp25
 70
     1
102
RTVSPropertyOp26
 70
     1
102
RTVSPropertyOp27
 70
     1
102
RTVSPropertyOp28
 70
     1
102
RTVSPropertyOp29
 70
     1
102
RTVSPropertyOp30
 70
     1
102
RTVSPropertyOp31
 70
     1
102
RTVSPropertyOp32
 70
     1
  0
XRECORD
  5
A5
102
{ACAD_REACTORS
330
A4
102
}
330
A4
100
AcDbXrecord
280
     1
102
RTVSPropertyOp0
 70
     1
102
RTVSPropertyOp1
 70
     1
102
RTVSPropertyOp2
 70
     1
102
RTVSPropertyOp3
 70
     1
102
RTVSPropertyOp4
 70
     1
102
RTVSPropertyOp5
 70
     1
102
RTVSPropertyOp6
 70
     1
102
RTVSPropertyOp7
 70
     1
102
RTVSPropertyOp8
 70
     1
102
RTVSPropertyOp9
 70
     1
102
RTVSPropertyOp10
 70
     1
102
RTVSPropertyOp11
 70
     1
102
RTVSPropertyOp12
 70
     1
102
RTVSPropertyOp13
 70
     1
102
RTVSPropertyOp14
 70
     1
102
RTVSPropertyOp15
 70
     1
102
RTVSPropertyOp16
 70
     1
102
RTVSPropertyOp17
 70
     1
102
RTVSPropertyOp18
 70
     1
102
RTVSPropertyOp19
 70
     1
102
RTVSPropertyOp20
 70
     1
102
RTVSPropertyOp21
 70
     1
102
RTVSPropertyOp22
 70
     1
102
RTVSPropertyOp23
 70
     1
102
RTVSPropertyOp24
 70
     1
102
RTVSPropertyOp25
 70
     1
102
RTVSPropertyOp26
 70
     1
102
RTVSPropertyOp27
 70
     1
102
RTVSPropertyOp28
 70
     1
102
RTVSPropertyOp29
 70
     1
102
RTVSPropertyOp30
 70
     1
102
RTVSPropertyOp31
 70
     1
102
RTVSPropertyOp32
 70
     1
  0
XRECORD
  5
AD
102
{ACAD_REACTORS
330
AC
102
}
330
AC
100
AcDbXrecord
280
     1
102
RTVSPropertyOp0
 70
     1
102
RTVSPropertyOp1
 70
     1
102
RTVSPropertyOp2
 70
     1
102
RTVSPropertyOp3
 70
     1
102
RTVSPropertyOp4
 70
     1
102
RTVSPropertyOp5
 70
     1
102
RTVSPropertyOp6
 70
     1
102
RTVSPropertyOp7
 70
     1
102
RTVSPropertyOp8
 70
     1
102
RTVSPropertyOp9
 70
     1
102
RTVSPropertyOp10
 70
     1
102
RTVSPropertyOp11
 70
     1
102
RTVSPropertyOp12
 70
     1
102
RTVSPropertyOp13
 70
     1
102
RTVSPropertyOp14
 70
     1
102
RTVSPropertyOp15
 70
     1
102
RTVSPropertyOp16
 70
     1
102
RTVSPropertyOp17
 70
     1
102
RTVSPropertyOp18
 70
     1
102
RTVSPropertyOp19
 70
     1
102
RTVSPropertyOp20
 70
     1
102
RTVSPropertyOp21
 70
     1
102
RTVSPropertyOp22
 70
     1
102
RTVSPropertyOp23
 70
     1
102
RTVSPropertyOp24
 70
     1
102
RTVSPropertyOp25
 70
     1
102
RTVSPropertyOp26
 70
     1
102
RTVSPropertyOp27
 70
     1
102
RTVSPropertyOp28
 70
     1
102
RTVSPropertyOp29
 70
     1
102
RTVSPropertyOp30
 70
     1
102
RTVSPropertyOp31
 70
     1
102
RTVSPropertyOp32
 70
     1
  0
XRECORD
  5
B5
102
{ACAD_REACTORS
330
B4
102
}
330
B4
100
AcDbXrecord
280
     1
102
RTVSPropertyOp0
 70
     1
102
RTVSPropertyOp1
 70
     1
102
RTVSPropertyOp2
 70
     1
102
RTVSPropertyOp3
 70
     1
102
RTVSPropertyOp4
 70
     1
102
RTVSPropertyOp5
 70
     1
102
RTVSPropertyOp6
 70
     1
102
RTVSPropertyOp7
 70
     1
102
RTVSPropertyOp8
 70
     1
102
RTVSPropertyOp9
 70
     1
102
RTVSPropertyOp10
 70
     1
102
RTVSPropertyOp11
 70
     1
102
RTVSPropertyOp12
 70
     1
102
RTVSPropertyOp13
 70
     1
102
RTVSPropertyOp14
 70
     1
102
RTVSPropertyOp15
 70
     1
102
RTVSPropertyOp16
 70
     1
102
RTVSPropertyOp17
 70
     1
102
RTVSPropertyOp18
 70
     1
102
RTVSPropertyOp19
 70
     1
102
RTVSPropertyOp20
 70
     1
102
RTVSPropertyOp21
 70
     1
102
RTVSPropertyOp22
 70
     1
102
RTVSPropertyOp23
 70
     1
102
RTVSPropertyOp24
 70
     1
102
RTVSPropertyOp25
 70
     1
102
RTVSPropertyOp26
 70
     1
102
RTVSPropertyOp27
 70
     1
102
RTVSPropertyOp28
 70
     1
102
RTVSPropertyOp29
 70
     1
102
RTVSPropertyOp30
 70
     1
102
RTVSPropertyOp31
 70
     1
102
RTVSPropertyOp32
 70
     1
  0
XRECORD
  5
A9
102
{ACAD_REACTORS
330
A8
102
}
330
A8
100
AcDbXrecord
280
     1
102
RTVSPropertyOp0
 70
     1
102
RTVSPropertyOp1
 70
     1
102
RTVSPropertyOp2
 70
     1
102
RTVSPropertyOp3
 70
     1
102
RTVSPropertyOp4
 70
     1
102
RTVSPropertyOp5
 70
     1
102
RTVSPropertyOp6
 70
     1
102
RTVSPropertyOp7
 70
     1
102
RTVSPropertyOp8
 70
     1
102
RTVSPropertyOp9
 70
     1
102
RTVSPropertyOp10
 70
     1
102
RTVSPropertyOp11
 70
     1
102
RTVSPropertyOp12
 70
     1
102
RTVSPropertyOp13
 70
     1
102
RTVSPropertyOp14
 70
     1
102
RTVSPropertyOp15
 70
     1
102
RTVSPropertyOp16
 70
     1
102
RTVSPropertyOp17
 70
     1
102
RTVSPropertyOp18
 70
     1
102
RTVSPropertyOp19
 70
     1
102
RTVSPropertyOp20
 70
     1
102
RTVSPropertyOp21
 70
     1
102
RTVSPropertyOp22
 70
     1
102
RTVSPropertyOp23
 70
     1
102
RTVSPropertyOp24
 70
     1
102
RTVSPropertyOp25
 70
     1
102
RTVSPropertyOp26
 70
     1
102
RTVSPropertyOp27
 70
     1
102
RTVSPropertyOp28
 70
     1
102
RTVSPropertyOp29
 70
     1
102
RTVSPropertyOp30
 70
     1
102
RTVSPropertyOp31
 70
     1
102
RTVSPropertyOp32
 70
     1
  0
XRECORD
  5
AB
102
{ACAD_REACTORS
330
AA
102
}
330
AA
100
AcDbXrecord
280
     1
102
RTVSPropertyOp0
 70
     1
102
RTVSPropertyOp1
 70
     1
102
RTVSPropertyOp2
 70
     1
102
RTVSPropertyOp3
 70
     1
102
RTVSPropertyOp4
 70
     1
102
RTVSPropertyOp5
 70
     1
102
RTVSPropertyOp6
 70
     1
102
RTVSPropertyOp7
 70
     1
102
RTVSPropertyOp8
 70
     1
102
RTVSPropertyOp9
 70
     1
102
RTVSPropertyOp10
 70
     1
102
RTVSPropertyOp11
 70
     1
102
RTVSPropertyOp12
 70
     1
102
RTVSPropertyOp13
 70
     1
102
RTVSPropertyOp14
 70
     1
102
RTVSPropertyOp15
 70
     1
102
RTVSPropertyOp16
 70
     1
102
RTVSPropertyOp17
 70
     1
102
RTVSPropertyOp18
 70
     1
102
RTVSPropertyOp19
 70
     1
102
RTVSPropertyOp20
 70
     1
102
RTVSPropertyOp21
 70
     1
102
RTVSPropertyOp22
 70
     1
102
RTVSPropertyOp23
 70
     1
102
RTVSPropertyOp24
 70
     1
102
RTVSPropertyOp25
 70
     1
102
RTVSPropertyOp26
 70
     1
102
RTVSPropertyOp27
 70
     1
102
RTVSPropertyOp28
 70
     1
102
RTVSPropertyOp29
 70
     1
102
RTVSPropertyOp30
 70
     1
102
RTVSPropertyOp31
 70
     1
102
RTVSPropertyOp32
 70
     1
  0
XRECORD
  5
B3
102
{ACAD_REACTORS
330
B2
102
}
330
B2
100
AcDbXrecord
280
     1
102
RTVSPropertyOp0
 70
     1
102
RTVSPropertyOp1
 70
     1
102
RTVSPropertyOp2
 70
     1
102
RTVSPropertyOp3
 70
     1
102
RTVSPropertyOp4
 70
     1
102
RTVSPropertyOp5
 70
     1
102
RTVSPropertyOp6
 70
     1
102
RTVSPropertyOp7
 70
     1
102
RTVSPropertyOp8
 70
     1
102
RTVSPropertyOp9
 70
     1
102
RTVSPropertyOp10
 70
     1
102
RTVSPropertyOp11
 70
     1
102
RTVSPropertyOp12
 70
     1
102
RTVSPropertyOp13
 70
     1
102
RTVSPropertyOp14
 70
     1
102
RTVSPropertyOp15
 70
     1
102
RTVSPropertyOp16
 70
     1
102
RTVSPropertyOp17
 70
     1
102
RTVSPropertyOp18
 70
     1
102
RTVSPropertyOp19
 70
     1
102
RTVSPropertyOp20
 70
     1
102
RTVSPropertyOp21
 70
     1
102
RTVSPropertyOp22
 70
     1
102
RTVSPropertyOp23
 70
     1
102
RTVSPropertyOp24
 70
     1
102
RTVSPropertyOp25
 70
     1
102
RTVSPropertyOp26
 70
     1
102
RTVSPropertyOp27
 70
     1
102
RTVSPropertyOp28
 70
     1
102
RTVSPropertyOp29
 70
     1
102
RTVSPropertyOp30
 70
     1
102
RTVSPropertyOp31
 70
     1
102
RTVSPropertyOp32
 70
     1
  0
XRECORD
  5
97
102
{ACAD_REACTORS
330
96
102
}
330
96
100
AcDbXrecord
280
     1
102
RTVSPropertyOp0
 70
     1
102
RTVSPropertyOp1
 70
     1
102
RTVSPropertyOp2
 70
     1
102
RTVSPropertyOp3
 70
     1
102
RTVSPropertyOp4
 70
     1
102
RTVSPropertyOp5
 70
     1
102
RTVSPropertyOp6
 70
     1
102
RTVSPropertyOp7
 70
     1
102
RTVSPropertyOp8
 70
     1
102
RTVSPropertyOp9
 70
     1
102
RTVSPropertyOp10
 70
     1
102
RTVSPropertyOp11
 70
     1
102
RTVSPropertyOp12
 70
     1
102
RTVSPropertyOp13
 70
     1
102
RTVSPropertyOp14
 70
     1
102
RTVSPropertyOp15
 70
     1
102
RTVSPropertyOp16
 70
     1
102
RTVSPropertyOp17
 70
     1
102
RTVSPropertyOp18
 70
     1
102
RTVSPropertyOp19
 70
     1
102
RTVSPropertyOp20
 70
     1
102
RTVSPropertyOp21
 70
     1
102
RTVSPropertyOp22
 70
     1
102
RTVSPropertyOp23
 70
     1
102
RTVSPropertyOp24
 70
     1
102
RTVSPropertyOp25
 70
     1
102
RTVSPropertyOp26
 70
     1
102
RTVSPropertyOp27
 70
     1
102
RTVSPropertyOp28
 70
     1
102
RTVSPropertyOp29
 70
     1
102
RTVSPropertyOp30
 70
     1
102
RTVSPropertyOp31
 70
     1
102
RTVSPropertyOp32
 70
     1
  0
XRECORD
  5
99
102
{ACAD_REACTORS
330
98
102
}
330
98
100
AcDbXrecord
280
     1
102
RTVSPropertyOp0
 70
     1
102
RTVSPropertyOp1
 70
     1
102
RTVSPropertyOp2
 70
     1
102
RTVSPropertyOp3
 70
     1
102
RTVSPropertyOp4
 70
     1
102
RTVSPropertyOp5
 70
     1
102
RTVSPropertyOp6
 70
     1
102
RTVSPropertyOp7
 70
     1
102
RTVSPropertyOp8
 70
     1
102
RTVSPropertyOp9
 70
     1
102
RTVSPropertyOp10
 70
     1
102
RTVSPropertyOp11
 70
     1
102
RTVSPropertyOp12
 70
     1
102
RTVSPropertyOp13
 70
     1
102
RTVSPropertyOp14
 70
     1
102
RTVSPropertyOp15
 70
     1
102
RTVSPropertyOp16
 70
     1
102
RTVSPropertyOp17
 70
     1
102
RTVSPropertyOp18
 70
     1
102
RTVSPropertyOp19
 70
     1
102
RTVSPropertyOp20
 70
     1
102
RTVSPropertyOp21
 70
     1
102
RTVSPropertyOp22
 70
     1
102
RTVSPropertyOp23
 70
     1
102
RTVSPropertyOp24
 70
     1
102
RTVSPropertyOp25
 70
     1
102
RTVSPropertyOp26
 70
     1
102
RTVSPropertyOp27
 70
     1
102
RTVSPropertyOp28
 70
     1
102
RTVSPropertyOp29
 70
     1
102
RTVSPropertyOp30
 70
     1
102
RTVSPropertyOp31
 70
     1
102
RTVSPropertyOp32
 70
     1
  0
XRECORD
  5
9B
102
{ACAD_REACTORS
330
9A
102
}
330
9A
100
AcDbXrecord
280
     1
102
RTVSPropertyOp0
 70
     1
102
RTVSPropertyOp1
 70
     1
102
RTVSPropertyOp2
 70
     1
102
RTVSPropertyOp3
 70
     1
102
RTVSPropertyOp4
 70
     1
102
RTVSPropertyOp5
 70
     1
102
RTVSPropertyOp6
 70
     1
102
RTVSPropertyOp7
 70
     1
102
RTVSPropertyOp8
 70
     1
102
RTVSPropertyOp9
 70
     1
102
RTVSPropertyOp10
 70
     1
102
RTVSPropertyOp11
 70
     1
102
RTVSPropertyOp12
 70
     1
102
RTVSPropertyOp13
 70
     1
102
RTVSPropertyOp14
 70
     1
102
RTVSPropertyOp15
 70
     1
102
RTVSPropertyOp16
 70
     1
102
RTVSPropertyOp17
 70
     1
102
RTVSPropertyOp18
 70
     1
102
RTVSPropertyOp19
 70
     1
102
RTVSPropertyOp20
 70
     1
102
RTVSPropertyOp21
 70
     1
102
RTVSPropertyOp22
 70
     1
102
RTVSPropertyOp23
 70
     1
102
RTVSPropertyOp24
 70
     1
102
RTVSPropertyOp25
 70
     1
102
RTVSPropertyOp26
 70
     1
102
RTVSPropertyOp27
 70
     1
102
RTVSPropertyOp28
 70
     1
102
RTVSPropertyOp29
 70
     1
102
RTVSPropertyOp30
 70
     1
102
RTVSPropertyOp31
 70
     1
102
RTVSPropertyOp32
 70
     1
  0
XRECORD
  5
9D
102
{ACAD_REACTORS
330
9C
102
}
330
9C
100
AcDbXrecord
280
     1
102
RTVSPropertyOp0
 70
     1
102
RTVSPropertyOp1
 70
     1
102
RTVSPropertyOp2
 70
     1
102
RTVSPropertyOp3
 70
     1
102
RTVSPropertyOp4
 70
     1
102
RTVSPropertyOp5
 70
     1
102
RTVSPropertyOp6
 70
     1
102
RTVSPropertyOp7
 70
     1
102
RTVSPropertyOp8
 70
     1
102
RTVSPropertyOp9
 70
     1
102
RTVSPropertyOp10
 70
     1
102
RTVSPropertyOp11
 70
     1
102
RTVSPropertyOp12
 70
     1
102
RTVSPropertyOp13
 70
     1
102
RTVSPropertyOp14
 70
     1
102
RTVSPropertyOp15
 70
     1
102
RTVSPropertyOp16
 70
     1
102
RTVSPropertyOp17
 70
     1
102
RTVSPropertyOp18
 70
     1
102
RTVSPropertyOp19
 70
     1
102
RTVSPropertyOp20
 70
     1
102
RTVSPropertyOp21
 70
     1
102
RTVSPropertyOp22
 70
     1
102
RTVSPropertyOp23
 70
     1
102
RTVSPropertyOp24
 70
     1
102
RTVSPropertyOp25
 70
     1
102
RTVSPropertyOp26
 70
     1
102
RTVSPropertyOp27
 70
     1
102
RTVSPropertyOp28
 70
     1
102
RTVSPropertyOp29
 70
     1
102
RTVSPropertyOp30
 70
     1
102
RTVSPropertyOp31
 70
     1
102
RTVSPropertyOp32
 70
     1
  0
XRECORD
  5
B1
102
{ACAD_REACTORS
330
B0
102
}
330
B0
100
AcDbXrecord
280
     1
102
RTVSPropertyOp0
 70
     1
102
RTVSPropertyOp1
 70
     1
102
RTVSPropertyOp2
 70
     1
102
RTVSPropertyOp3
 70
     1
102
RTVSPropertyOp4
 70
     1
102
RTVSPropertyOp5
 70
     1
102
RTVSPropertyOp6
 70
     1
102
RTVSPropertyOp7
 70
     1
102
RTVSPropertyOp8
 70
     1
102
RTVSPropertyOp9
 70
     1
102
RTVSPropertyOp10
 70
     1
102
RTVSPropertyOp11
 70
     1
102
RTVSPropertyOp12
 70
     1
102
RTVSPropertyOp13
 70
     1
102
RTVSPropertyOp14
 70
     1
102
RTVSPropertyOp15
 70
     1
102
RTVSPropertyOp16
 70
     1
102
RTVSPropertyOp17
 70
     1
102
RTVSPropertyOp18
 70
     1
102
RTVSPropertyOp19
 70
     1
102
RTVSPropertyOp20
 70
     1
102
RTVSPropertyOp21
 70
     1
102
RTVSPropertyOp22
 70
     1
102
RTVSPropertyOp23
 70
     1
102
RTVSPropertyOp24
 70
     1
102
RTVSPropertyOp25
 70
     1
102
RTVSPropertyOp26
 70
     1
102
RTVSPropertyOp27
 70
     1
102
RTVSPropertyOp28
 70
     1
102
RTVSPropertyOp29
 70
     1
102
RTVSPropertyOp30
 70
     1
102
RTVSPropertyOp31
 70
     1
102
RTVSPropertyOp32
 70
     1
  0
XRECORD
  5
A7
102
{ACAD_REACTORS
330
A6
102
}
330
A6
100
AcDbXrecord
280
     1
102
RTVSPropertyOp0
 70
     1
102
RTVSPropertyOp1
 70
     1
102
RTVSPropertyOp2
 70
     1
102
RTVSPropertyOp3
 70
     1
102
RTVSPropertyOp4
 70
     1
102
RTVSPropertyOp5
 70
     1
102
RTVSPropertyOp6
 70
     1
102
RTVSPropertyOp7
 70
     1
102
RTVSPropertyOp8
 70
     1
102
RTVSPropertyOp9
 70
     1
102
RTVSPropertyOp10
 70
     1
102
RTVSPropertyOp11
 70
     1
102
RTVSPropertyOp12
 70
     1
102
RTVSPropertyOp13
 70
     1
102
RTVSPropertyOp14
 70
     1
102
RTVSPropertyOp15
 70
     1
102
RTVSPropertyOp16
 70
     1
102
RTVSPropertyOp17
 70
     1
102
RTVSPropertyOp18
 70
     1
102
RTVSPropertyOp19
 70
     1
102
RTVSPropertyOp20
 70
     1
102
RTVSPropertyOp21
 70
     1
102
RTVSPropertyOp22
 70
     1
102
RTVSPropertyOp23
 70
     1
102
RTVSPropertyOp24
 70
     1
102
RTVSPropertyOp25
 70
     1
102
RTVSPropertyOp26
 70
     1
102
RTVSPropertyOp27
 70
     1
102
RTVSPropertyOp28
 70
     1
102
RTVSPropertyOp29
 70
     1
102
RTVSPropertyOp30
 70
     1
102
RTVSPropertyOp31
 70
     1
102
RTVSPropertyOp32
 70
     1
  0
XRECORD
  5
AF
102
{ACAD_REACTORS
330
AE
102
}
330
AE
100
AcDbXrecord
280
     1
102
RTVSPropertyOp0
 70
     1
102
RTVSPropertyOp1
 70
     1
102
RTVSPropertyOp2
 70
     1
102
RTVSPropertyOp3
 70
     1
102
RTVSPropertyOp4
 70
     1
102
RTVSPropertyOp5
 70
     1
102
RTVSPropertyOp6
 70
     1
102
RTVSPropertyOp7
 70
     1
102
RTVSPropertyOp8
 70
     1
102
RTVSPropertyOp9
 70
     1
102
RTVSPropertyOp10
 70
     1
102
RTVSPropertyOp11
 70
     1
102
RTVSPropertyOp12
 70
     1
102
RTVSPropertyOp13
 70
     1
102
RTVSPropertyOp14
 70
     1
102
RTVSPropertyOp15
 70
     1
102
RTVSPropertyOp16
 70
     1
102
RTVSPropertyOp17
 70
     1
102
RTVSPropertyOp18
 70
     1
102
RTVSPropertyOp19
 70
     1
102
RTVSPropertyOp20
 70
     1
102
RTVSPropertyOp21
 70
     1
102
RTVSPropertyOp22
 70
     1
102
RTVSPropertyOp23
 70
     1
102
RTVSPropertyOp24
 70
     1
102
RTVSPropertyOp25
 70
     1
102
RTVSPropertyOp26
 70
     1
102
RTVSPropertyOp27
 70
     1
102
RTVSPropertyOp28
 70
     1
102
RTVSPropertyOp29
 70
     1
102
RTVSPropertyOp30
 70
     1
102
RTVSPropertyOp31
 70
     1
102
RTVSPropertyOp32
 70
     1
  0
ENDSEC
  0
EOF
