  0
SECTION
  2
HEADER
  9
$ACADVER
  1
AC1021
  9
$ACADMAINTVER
 70
    25
  9
$DWGCODEPAGE
  3
ANSI_1256
  9
$INSBASE
 10
0.0
 20
0.0
 30
0.0
  9
$EXTMIN
 10
-187.2536
 20
-115.1462
 30
0.0
  9
$EXTMAX
 10
2.7755
 20
131.858
 30
0.0
  9
$LIMMIN
 10
0.0
 20
0.0
  9
$LIMMAX
 10
12.0
 20
9.0
  9
$ORTHOMODE
 70
     0
  9
$REGENMODE
 70
     1
  9
$FILLMODE
 70
     1
  9
$QTEXTMODE
 70
     0
  9
$MIRRTEXT
 70
     1
  9
$LTSCALE
 40
1.0
  9
$ATTMODE
 70
     1
  9
$TEXTSIZE
 40
0.2
  9
$TRACEWID
 40
0.05
  9
$TEXTSTYLE
  7
Standard
  9
$CLAYER
  8
0
  9
$CELTYPE
  6
ByLayer
  9
$CECOLOR
 62
   256
  9
$CELTSCALE
 40
1.0
  9
$DISPSILH
 70
     0
  9
$DIMSCALE
 40
1.0
  9
$DIMASZ
 40
0.18
  9
$DIMEXO
 40
0.0625
  9
$DIMDLI
 40
0.38
  9
$DIMRND
 40
0.0
  9
$DIMDLE
 40
0.0
  9
$DIMEXE
 40
0.18
  9
$DIMTP
 40
0.0
  9
$DIMTM
 40
0.0
  9
$DIMTXT
 40
0.18
  9
$DIMCEN
 40
0.09
  9
$DIMTSZ
 40
0.0
  9
$DIMTOL
 70
     0
  9
$DIMLIM
 70
     0
  9
$DIMTIH
 70
     1
  9
$DIMTOH
 70
     1
  9
$DIMSE1
 70
     0
  9
$DIMSE2
 70
     0
  9
$DIMTAD
 70
     0
  9
$DIMZIN
 70
     0
  9
$DIMBLK
  1

  9
$DIMASO
 70
     1
  9
$DIMSHO
 70
     1
  9
$DIMPOST
  1

  9
$DIMAPOST
  1

  9
$DIMALT
 70
     0
  9
$DIMALTD
 70
     2
  9
$DIMALTF
 40
25.4
  9
$DIMLFAC
 40
1.0
  9
$DIMTOFL
 70
     0
  9
$DIMTVP
 40
0.0
  9
$DIMTIX
 70
     0
  9
$DIMSOXD
 70
     0
  9
$DIMSAH
 70
     0
  9
$DIMBLK1
  1

  9
$DIMBLK2
  1

  9
$DIMSTYLE
  2
Standard
  9
$DIMCLRD
 70
     0
  9
$DIMCLRE
 70
     0
  9
$DIMCLRT
 70
     0
  9
$DIMTFAC
 40
1.0
  9
$DIMGAP
 40
0.09
  9
$DIMJUST
 70
     0
  9
$DIMSD1
 70
     0
  9
$DIMSD2
 70
     0
  9
$DIMTOLJ
 70
     1
  9
$DIMTZIN
 70
     0
  9
$DIMALTZ
 70
     0
  9
$DIMALTTZ
 70
     0
  9
$DIMUPT
 70
     0
  9
$DIMDEC
 70
     4
  9
$DIMTDEC
 70
     4
  9
$DIMALTU
 70
     2
  9
$DIMALTTD
 70
     2
  9
$DIMTXSTY
  7
Standard
  9
$DIMAUNIT
 70
     0
  9
$DIMADEC
 70
     0
  9
$DIMALTRND
 40
0.0
  9
$DIMAZIN
 70
     0
  9
$DIMDSEP
 70
    46
  9
$DIMATFIT
 70
     3
  9
$DIMFRAC
 70
     0
  9
$DIMLDRBLK
  1

  9
$DIMLUNIT
 70
     2
  9
$DIMLWD
 70
    -2
  9
$DIMLWE
 70
    -2
  9
$DIMTMOVE
 70
     0
  9
$DIMFXL
 40
1.0
  9
$DIMFXLON
 70
     0
  9
$DIMJOGANG
 40
0.7853981633974483
  9
$DIMTFILL
 70
     0
  9
$DIMTFILLCLR
 70
     0
  9
$DIMARCSYM
 70
     0
  9
$DIMLTYPE
  6

  9
$DIMLTEX1
  6

  9
$DIMLTEX2
  6

  9
$LUNITS
 70
     2
  9
$LUPREC
 70
     4
  9
$SKETCHINC
 40
0.1
  9
$FILLETRAD
 40
0.5
  9
$AUNITS
 70
     0
  9
$AUPREC
 70
     0
  9
$MENU
  1
.
  9
$ELEVATION
 40
0.0
  9
$PELEVATION
 40
0.0
  9
$THICKNESS
 40
0.0
  9
$LIMCHECK
 70
     0
  9
$CHAMFERA
 40
0.5
  9
$CHAMFERB
 40
0.5
  9
$CHAMFERC
 40
1.0
  9
$CHAMFERD
 40
0.0
  9
$SKPOLY
 70
     0
  9
$TDCREATE
 40
2458492.386049734
  9
$TDUCREATE
 40
2458492.219383067
  9
$TDUPDATE
 40
2458492.38604993
  9
$TDUUPDATE
 40
2458492.219383264
  9
$TDINDWG
 40
0.0000000116
  9
$TDUSRTIMER
 40
0.0000000116
  9
$USRTIMER
 70
     1
  9
$ANGBASE
 50
0.0
  9
$ANGDIR
 70
     0
  9
$PDMODE
 70
     0
  9
$PDSIZE
 40
0.0
  9
$PLINEWID
 40
0.0
  9
$SPLFRAME
 70
     0
  9
$SPLINETYPE
 70
     6
  9
$SPLINESEGS
 70
     8
  9
$HANDSEED
  5
E0
  9
$SURFTAB1
 70
     6
  9
$SURFTAB2
 70
     6
  9
$SURFTYPE
 70
     6
  9
$SURFU
 70
     6
  9
$SURFV
 70
     6
  9
$UCSBASE
  2

  9
$UCSNAME
  2

  9
$UCSORG
 10
0.0
 20
0.0
 30
0.0
  9
$UCSXDIR
 10
1.0
 20
0.0
 30
0.0
  9
$UCSYDIR
 10
0.0
 20
1.0
 30
0.0
  9
$UCSORTHOREF
  2

  9
$UCSORTHOVIEW
 70
     0
  9
$UCSORGTOP
 10
0.0
 20
0.0
 30
0.0
  9
$UCSORGBOTTOM
 10
0.0
 20
0.0
 30
0.0
  9
$UCSORGLEFT
 10
0.0
 20
0.0
 30
0.0
  9
$UCSORGRIGHT
 10
0.0
 20
0.0
 30
0.0
  9
$UCSORGFRONT
 10
0.0
 20
0.0
 30
0.0
  9
$UCSORGBACK
 10
0.0
 20
0.0
 30
0.0
  9
$PUCSBASE
  2

  9
$PUCSNAME
  2

  9
$PUCSORG
 10
0.0
 20
0.0
 30
0.0
  9
$PUCSXDIR
 10
1.0
 20
0.0
 30
0.0
  9
$PUCSYDIR
 10
0.0
 20
1.0
 30
0.0
  9
$PUCSORTHOREF
  2

  9
$PUCSORTHOVIEW
 70
     0
  9
$PUCSORGTOP
 10
0.0
 20
0.0
 30
0.0
  9
$PUCSORGBOTTOM
 10
0.0
 20
0.0
 30
0.0
  9
$PUCSORGLEFT
 10
0.0
 20
0.0
 30
0.0
  9
$PUCSORGRIGHT
 10
0.0
 20
0.0
 30
0.0
  9
$PUCSORGFRONT
 10
0.0
 20
0.0
 30
0.0
  9
$PUCSORGBACK
 10
0.0
 20
0.0
 30
0.0
  9
$USERI1
 70
     0
  9
$USERI2
 70
     0
  9
$USERI3
 70
     0
  9
$USERI4
 70
     0
  9
$USERI5
 70
     0
  9
$USERR1
 40
0.0
  9
$USERR2
 40
0.0
  9
$USERR3
 40
0.0
  9
$USERR4
 40
0.0
  9
$USERR5
 40
0.0
  9
$WORLDVIEW
 70
     1
  9
$SHADEDGE
 70
     3
  9
$SHADEDIF
 70
    70
  9
$TILEMODE
 70
     1
  9
$MAXACTVP
 70
    64
  9
$PINSBASE
 10
0.0
 20
0.0
 30
0.0
  9
$PLIMCHECK
 70
     0
  9
$PEXTMIN
 10
1.000000000000000E+20
 20
1.000000000000000E+20
 30
1.000000000000000E+20
  9
$PEXTMAX
 10
-1.000000000000000E+20
 20
-1.000000000000000E+20
 30
-1.000000000000000E+20
  9
$PLIMMIN
 10
0.0
 20
0.0
  9
$PLIMMAX
 10
12.0
 20
9.0
  9
$UNITMODE
 70
     0
  9
$VISRETAIN
 70
     1
  9
$PLINEGEN
 70
     0
  9
$PSLTSCALE
 70
     1
  9
$TREEDEPTH
 70
  3020
  9
$CMLSTYLE
  2
Standard
  9
$CMLJUST
 70
     0
  9
$CMLSCALE
 40
1.0
  9
$PROXYGRAPHICS
 70
     1
  9
$MEASUREMENT
 70
     0
  9
$CELWEIGHT
370
    -1
  9
$ENDCAPS
280
     0
  9
$JOINSTYLE
280
     0
  9
$LWDISPLAY
290
     0
  9
$INSUNITS
 70
     4
  9
$HYPERLINKBASE
  1

  9
$STYLESHEET
  1

  9
$XEDIT
290
     1
  9
$CEPSNTYPE
380
     0
  9
$PSTYLEMODE
290
     1
  9
$FINGERPRINTGUID
  2
{D3C9A978-DDDA-4343-BDC3-B6099325AB59}
  9
$VERSIONGUID
  2
{FAEB1C32-E019-11D5-929B-00C0DF256EC4}
  9
$EXTNAMES
290
     1
  9
$PSVPSCALE
 40
0.0
  9
$OLESTARTUP
290
     0
  9
$SORTENTS
280
   127
  9
$INDEXCTL
280
     0
  9
$HIDETEXT
280
     1
  9
$XCLIPFRAME
290
     0
  9
$HALOGAP
280
     0
  9
$OBSCOLOR
 70
   257
  9
$OBSLTYPE
280
     0
  9
$INTERSECTIONDISPLAY
280
     0
  9
$INTERSECTIONCOLOR
 70
   257
  9
$DIMASSOC
280
     2
  9
$PROJECTNAME
  1

  9
$CAMERADISPLAY
290
     0
  9
$LENSLENGTH
 40
50.0
  9
$CAMERAHEIGHT
 40
0.0
  9
$STEPSPERSEC
 40
2.0
  9
$STEPSIZE
 40
6.0
  9
$3DDWFPREC
 40
2.0
  9
$PSOLWIDTH
 40
0.25
  9
$PSOLHEIGHT
 40
4.0
  9
$LOFTANG1
 40
1.570796326794897
  9
$LOFTANG2
 40
1.570796326794897
  9
$LOFTMAG1
 40
0.0
  9
$LOFTMAG2
 40
0.0
  9
$LOFTPARAM
 70
     7
  9
$LOFTNORMALS
280
     1
  9
$LATITUDE
 40
37.795
  9
$LONGITUDE
 40
-122.394
  9
$NORTHDIRECTION
 40
0.0
  9
$TIMEZONE
 70
 -8000
  9
$LIGHTGLYPHDISPLAY
280
     1
  9
$TILEMODELIGHTSYNCH
280
     1
  9
$SOLIDHIST
280
     1
  9
$SHOWHIST
280
     1
  9
$DWFFRAME
280
     2
  9
$DGNFRAME
280
     2
  9
$REALWORLDSCALE
290
     1
  9
$INTERFERECOLOR
 62
   256
  9
$CSHADOW
280
     0
  9
$SHADOWPLANELOCATION
 40
0.0
  0
ENDSEC
  0
SECTION
  2
CLASSES
  0
CLASS
  1
ACDBDICTIONARYWDFLT
  2
AcDbDictionaryWithDefault
  3
ObjectDBX Classes
 90
        0
 91
        4
280
     0
281
     0
  0
CLASS
  1
VISUALSTYLE
  2
AcDbVisualStyle
  3
ObjectDBX Classes
 90
     4095
 91
        4
280
     0
281
     0
  0
CLASS
  1
MATERIAL
  2
AcDbMaterial
  3
ObjectDBX Classes
 90
     1153
 91
        4
280
     0
281
     0
  0
ENDSEC
  0
SECTION
  2
TABLES
  0
TABLE
  2
VPORT
  5
8
330
0
100
AcDbSymbolTable
 70
     1
  0
VPORT
  5
29
330
8
100
AcDbSymbolTableRecord
100
AcDbViewportTableRecord
  2
*Active
 70
     0
 10
0.0
 20
0.0
 11
1.0
 21
1.0
 12
10.42990654205607
 22
4.5
 13
0.0
 23
0.0
 14
0.5
 24
0.5
 15
0.5
 25
0.5
 16
0.0
 26
0.0
 36
1.0
 17
0.0
 27
0.0
 37
0.0
 40
9.0
 41
1.972972972850329
 42
50.0
 43
0.0
 44
0.0
 50
0.0
 51
0.0
 71
     0
 72
   100
 73
     1
 74
     3
 75
     0
 76
     0
 77
     0
 78
     0
281
     0
 65
     1
110
0.0
120
0.0
130
0.0
111
1.0
121
0.0
131
0.0
112
0.0
122
1.0
132
0.0
 79
     0
146
0.0
 60
     3
 61
     5
292
     1
282
     1
141
0.0
142
0.0
 63
   250
  0
ENDTAB
  0
TABLE
  2
LTYPE
  5
5
330
0
100
AcDbSymbolTable
 70
     1
  0
LTYPE
  5
14
330
5
100
AcDbSymbolTableRecord
100
AcDbLinetypeTableRecord
  2
ByBlock
 70
     0
  3

 72
    65
 73
     0
 40
0.0
  0
LTYPE
  5
15
330
5
100
AcDbSymbolTableRecord
100
AcDbLinetypeTableRecord
  2
ByLayer
 70
     0
  3

 72
    65
 73
     0
 40
0.0
  0
LTYPE
  5
16
330
5
100
AcDbSymbolTableRecord
100
AcDbLinetypeTableRecord
  2
Continuous
 70
     0
  3
Solid line
 72
    65
 73
     0
 40
0.0
  0
ENDTAB
  0
TABLE
  2
LAYER
  5
2
330
0
100
AcDbSymbolTable
 70
     2
  0
LAYER
  5
10
330
2
100
AcDbSymbolTableRecord
100
AcDbLayerTableRecord
  2
0
 70
     0
 62
     7
  6
Continuous
370
    -3
390
F
347
3E
  0
LAYER
  5
40
330
2
100
AcDbSymbolTableRecord
100
AcDbLayerTableRecord
  2
layer 1
 70
     0
 62
     7
  6
Continuous
370
    -3
390
F
347
3E
  0
ENDTAB
  0
TABLE
  2
STYLE
  5
3
330
0
100
AcDbSymbolTable
 70
     1
  0
STYLE
  5
11
330
3
100
AcDbSymbolTableRecord
100
AcDbTextStyleTableRecord
  2
Standard
 70
     0
 40
0.0
 41
1.0
 50
0.0
 71
     0
 42
0.2
  3
txt
  4

  0
ENDTAB
  0
TABLE
  2
VIEW
  5
6
330
0
100
AcDbSymbolTable
 70
     0
  0
ENDTAB
  0
TABLE
  2
UCS
  5
7
330
0
100
AcDbSymbolTable
 70
     0
  0
ENDTAB
  0
TABLE
  2
APPID
  5
9
330
0
100
AcDbSymbolTable
 70
     2
  0
APPID
  5
12
330
9
100
AcDbSymbolTableRecord
100
AcDbRegAppTableRecord
  2
ACAD
 70
     0
  0
APPID
  5
3F
330
9
100
AcDbSymbolTableRecord
100
AcDbRegAppTableRecord
  2
ODA
 70
     0
  0
ENDTAB
  0
TABLE
  2
DIMSTYLE
  5
A
330
0
100
AcDbSymbolTable
 70
     1
100
AcDbDimStyleTable
  0
DIMSTYLE
105
27
330
A
100
AcDbSymbolTableRecord
100
AcDbDimStyleTableRecord
  2
Standard
 70
     0
178
     0
340
11
  0
ENDTAB
  0
TABLE
  2
BLOCK_RECORD
  5
1
330
0
100
AcDbSymbolTable
 70
     1
  0
BLOCK_RECORD
  5
1F
330
1
100
AcDbSymbolTableRecord
100
AcDbBlockTableRecord
  2
*Model_Space
340
22
 70
     0
280
     1
281
     0
  0
BLOCK_RECORD
  5
1B
330
1
100
AcDbSymbolTableRecord
100
AcDbBlockTableRecord
  2
*Paper_Space
340
1E
 70
     0
280
     1
281
     0
  0
BLOCK_RECORD
  5
23
330
1
100
AcDbSymbolTableRecord
100
AcDbBlockTableRecord
  2
*Paper_Space0
340
26
 70
     0
280
     1
281
     0
  0
ENDTAB
  0
ENDSEC
  0
SECTION
  2
BLOCKS
  0
BLOCK
  5
20
330
1F
100
AcDbEntity
  8
0
100
AcDbBlockBegin
  2
*Model_Space
 70
     0
 10
0.0
 20
0.0
 30
0.0
  3
*Model_Space
  1

  0
ENDBLK
  5
21
330
1F
100
AcDbEntity
  8
0
100
AcDbBlockEnd
  0
BLOCK
  5
1C
330
1B
100
AcDbEntity
 67
     1
  8
0
100
AcDbBlockBegin
  2
*Paper_Space
 70
     0
 10
0.0
 20
0.0
 30
0.0
  3
*Paper_Space
  1

  0
ENDBLK
  5
1D
330
1B
100
AcDbEntity
 67
     1
  8
0
100
AcDbBlockEnd
  0
BLOCK
  5
24
330
23
100
AcDbEntity
  8
0
100
AcDbBlockBegin
  2
*Paper_Space0
 70
     0
 10
0.0
 20
0.0
 30
0.0
  3
*Paper_Space0
  1

  0
ENDBLK
  5
25
330
23
100
AcDbEntity
  8
0
100
AcDbBlockEnd
  0
ENDSEC
  0
SECTION
  2
ENTITIES
  0
SPLINE
  5
41
330
1F
100
AcDbEntity
  8
layer 1
100
AcDbSpline
210
0.0
220
0.0
230
1.0
 70
    11
 71
     3
 72
    20
 73
    16
 74
     0
 42
0.0000000001
 43
0.0000000001
 12
1.0
 22
0.0
 32
0.0
 13
1.0
 23
0.0
 33
0.0
 40
0.0
 40
0.0
 40
0.0
 40
0.0
 40
0.2
 40
0.2
 40
0.2
 40
0.2
 40
0.4
 40
0.4
 40
0.4
 40
0.4
 40
0.6
 40
0.6
 40
0.6
 40
0.6
 40
1.0
 40
1.0
 40
1.0
 40
1.0
 10
-187.2536
 20
131.858
 30
0.0
 10
-187.2536
 20
131.858
 30
0.0
 10
2.7755
 20
131.858
 30
0.0
 10
2.7755
 20
131.858
 30
0.0
 10
2.7755
 20
131.858
 30
0.0
 10
2.7755
 20
131.858
 30
0.0
 10
2.7755
 20
-115.1462
 30
0.0
 10
2.7755
 20
-115.1462
 30
0.0
 10
2.7755
 20
-115.1462
 30
0.0
 10
2.7755
 20
-115.1462
 30
0.0
 10
-187.2536
 20
-115.1462
 30
0.0
 10
-187.2536
 20
-115.1462
 30
0.0
 10
-187.2536
 20
-115.1462
 30
0.0
 10
-187.2536
 20
-115.1462
 30
0.0
 10
-187.2536
 20
131.858
 30
0.0
 10
-187.2536
 20
131.858
 30
0.0
  0
SPLINE
  5
42
330
1F
100
AcDbEntity
  8
layer 1
 62
     7
100
AcDbSpline
210
0.0
220
0.0
230
1.0
 70
    11
 71
     3
 72
    16
 73
    12
 74
     0
 42
0.0000000001
 43
0.0000000001
 12
1.0
 22
0.0
 32
0.0
 13
1.0
 23
0.0
 33
0.0
 40
0.0
 40
0.0
 40
0.0
 40
0.0
 40
0.25
 40
0.25
 40
0.25
 40
0.25
 40
0.5
 40
0.5
 40
0.5
 40
0.5
 40
1.0
 40
1.0
 40
1.0
 40
1.0
 10
-77.5681
 20
122.6089
 30
0.0
 10
-77.3761
 20
120.1928
 30
0.0
 10
-78.0019
 20
118.6422
 30
0.0
 10
-79.2157
 20
116.5948
 30
0.0
 10
-79.2157
 20
116.5948
 30
0.0
 10
-71.8556
 20
118.215
 30
0.0
 10
-70.6628
 20
120.9154
 30
0.0
 10
-70.2963
 20
122.6089
 30
0.0
 10
-70.2963
 20
122.6089
 30
0.0
 10
-70.2963
 20
122.6089
 30
0.0
 10
-77.5681
 20
122.6089
 30
0.0
 10
-77.5681
 20
122.6089
 30
0.0
  0
SPLINE
  5
43
330
1F
100
AcDbEntity
  8
layer 1
 62
     7
100
AcDbSpline
210
0.0
220
0.0
230
1.0
 70
    11
 71
     3
 72
    20
 73
    16
 74
     0
 42
0.0000000001
 43
0.0000000001
 12
1.0
 22
0.0
 32
0.0
 13
1.0
 23
0.0
 33
0.0
 40
0.0
 40
0.0
 40
0.0
 40
0.0
 40
0.2
 40
0.2
 40
0.2
 40
0.2
 40
0.4
 40
0.4
 40
0.4
 40
0.4
 40
0.6
 40
0.6
 40
0.6
 40
0.6
 40
1.0
 40
1.0
 40
1.0
 40
1.0
 10
-64.0165
 20
122.6089
 30
0.0
 10
-64.5143
 20
120.7451
 30
0.0
 10
-66.5218
 20
118.4351
 30
0.0
 10
-68.6365
 20
117.4947
 30
0.0
 10
-68.6365
 20
117.4947
 30
0.0
 10
-66.2227
 20
117.3729
 30
0.0
 10
-63.1598
 20
116.8541
 30
0.0
 10
-61.6552
 20
115.237
 30
0.0
 10
-61.6552
 20
115.237
 30
0.0
 10
-62.2473
 20
118.3494
 30
0.0
 10
-61.353
 20
120.403
 30
0.0
 10
-58.3353
 20
122.6089
 30
0.0
 10
-58.3353
 20
122.6089
 30
0.0
 10
-58.3353
 20
122.6089
 30
0.0
 10
-64.0165
 20
122.6089
 30
0.0
 10
-64.0165
 20
122.6089
 30
0.0
  0
SPLINE
  5
44
330
1F
100
AcDbEntity
  8
layer 1
 62
     7
100
AcDbSpline
210
0.0
220
0.0
230
1.0
 70
    11
 71
     3
 72
    12
 73
     8
 74
     0
 42
0.0000000001
 43
0.0000000001
 12
1.0
 22
0.0
 32
0.0
 13
1.0
 23
0.0
 33
0.0
 40
0.0
 40
0.0
 40
0.0
 40
0.0
 40
0.3333333333333333
 40
0.3333333333333333
 40
0.3333333333333333
 40
0.3333333333333333
 40
1.0
 40
1.0
 40
1.0
 40
1.0
 10
-43.0659
 20
122.6089
 30
0.0
 10
-39.4438
 20
120.7358
 30
0.0
 10
-31.7424
 20
120.653
 30
0.0
 10
-29.0872
 20
122.6089
 30
0.0
 10
-29.0872
 20
122.6089
 30
0.0
 10
-29.0872
 20
122.6089
 30
0.0
 10
-43.0659
 20
122.6089
 30
0.0
 10
-43.0659
 20
122.6089
 30
0.0
  0
SPLINE
  5
45
330
1F
100
AcDbEntity
  8
layer 1
 62
     7
100
AcDbSpline
210
0.0
220
0.0
230
1.0
 70
    11
 71
     3
 72
    36
 73
    32
 74
     0
 42
0.0000000001
 43
0.0000000001
 12
1.0
 22
0.0
 32
0.0
 13
1.0
 23
0.0
 33
0.0
 40
0.0
 40
0.0
 40
0.0
 40
0.0
 40
0.1111111111111111
 40
0.1111111111111111
 40
0.1111111111111111
 40
0.1111111111111111
 40
0.2222222222222222
 40
0.2222222222222222
 40
0.2222222222222222
 40
0.2222222222222222
 40
0.3333333333333333
 40
0.3333333333333333
 40
0.3333333333333333
 40
0.3333333333333333
 40
0.4444444444444444
 40
0.4444444444444444
 40
0.4444444444444444
 40
0.4444444444444444
 40
0.5555555555555556
 40
0.5555555555555556
 40
0.5555555555555556
 40
0.5555555555555556
 40
0.6666666666666666
 40
0.6666666666666666
 40
0.6666666666666666
 40
0.6666666666666666
 40
0.7777777777777778
 40
0.7777777777777778
 40
0.7777777777777778
 40
0.7777777777777778
 40
1.0
 40
1.0
 40
1.0
 40
1.0
 10
-6.9469
 20
117.7908
 30
0.0
 10
-10.1808
 20
115.9449
 30
0.0
 10
-14.154
 20
116.7775
 30
0.0
 10
-14.5047
 20
120.1616
 30
0.0
 10
-14.5047
 20
120.1616
 30
0.0
 10
-20.6897
 20
119.4116
 30
0.0
 10
-18.8627
 20
115.762
 30
0.0
 10
-22.631
 20
114.648
 30
0.0
 10
-22.631
 20
114.648
 30
0.0
 10
-17.8769
 20
110.9924
 30
0.0
 10
-22.1303
 20
107.7059
 30
0.0
 10
-24.2691
 20
107.9136
 30
0.0
 10
-24.2691
 20
107.9136
 30
0.0
 10
-28.959
 20
106.1867
 30
0.0
 10
-28.8678
 20
98.3414
 30
0.0
 10
-24.8214
 20
94.6918
 30
0.0
 10
-24.8214
 20
94.6918
 30
0.0
 10
-23.6075
 20
99.8702
 30
0.0
 10
-17.1871
 20
105.5882
 30
0.0
 10
-13.0953
 20
99.3514
 30
0.0
 10
-13.0953
 20
99.3514
 30
0.0
 10
-10.3153
 20
103.9166
 30
0.0
 10
-8.6919
 20
108.2677
 30
0.0
 10
-9.8239
 20
113.1405
 30
0.0
 10
-9.8239
 20
113.1405
 30
0.0
 10
-8.2982
 20
112.6312
 30
0.0
 10
-7.5569
 20
112.2585
 30
0.0
 10
-6.9469
 20
111.4257
 30
0.0
 10
-6.9469
 20
111.4257
 30
0.0
 10
-6.9469
 20
111.4257
 30
0.0
 10
-6.9469
 20
117.7908
 30
0.0
 10
-6.9469
 20
117.7908
 30
0.0
  0
SPLINE
  5
46
330
1F
100
AcDbEntity
  8
layer 1
 62
     7
100
AcDbSpline
210
0.0
220
0.0
230
1.0
 70
    11
 71
     3
 72
    24
 73
    20
 74
     0
 42
0.0000000001
 43
0.0000000001
 12
1.0
 22
0.0
 32
0.0
 13
1.0
 23
0.0
 33
0.0
 40
0.0
 40
0.0
 40
0.0
 40
0.0
 40
0.1666666666666667
 40
0.1666666666666667
 40
0.1666666666666667
 40
0.1666666666666667
 40
0.3333333333333333
 40
0.3333333333333333
 40
0.3333333333333333
 40
0.3333333333333333
 40
0.5
 40
0.5
 40
0.5
 40
0.5
 40
0.6666666666666666
 40
0.6666666666666666
 40
0.6666666666666666
 40
0.6666666666666666
 40
1.0
 40
1.0
 40
1.0
 40
1.0
 10
-37.8111
 20
117.7203
 30
0.0
 10
-36.0599
 20
116.7354
 30
0.0
 10
-33.2774
 20
110.6142
 30
0.0
 10
-38.715
 20
105.3718
 30
0.0
 10
-38.715
 20
105.3718
 30
0.0
 10
-36.0176
 20
105.4148
 30
0.0
 10
-33.8781
 20
104.2485
 30
0.0
 10
-32.1206
 20
102.4332
 30
0.0
 10
-32.1206
 20
102.4332
 30
0.0
 10
-33.079
 20
104.6885
 30
0.0
 10
-32.3008
 20
114.791
 30
0.0
 10
-24.9861
 20
114.8464
 30
0.0
 10
-24.9861
 20
114.8464
 30
0.0
 10
-26.9484
 20
116.0027
 30
0.0
 10
-27.425
 20
117.1743
 30
0.0
 10
-27.339
 20
118.8952
 30
0.0
 10
-27.339
 20
118.8952
 30
0.0
 10
-30.2535
 20
117.4276
 30
0.0
 10
-33.646
 20
116.6464
 30
0.0
 10
-37.8111
 20
117.7203
 30
0.0
  0
SPLINE
  5
47
330
1F
100
AcDbEntity
  8
layer 1
 62
     7
100
AcDbSpline
210
0.0
220
0.0
230
1.0
 70
    11
 71
     3
 72
    24
 73
    20
 74
     0
 42
0.0000000001
 43
0.0000000001
 12
1.0
 22
0.0
 32
0.0
 13
1.0
 23
0.0
 33
0.0
 40
0.0
 40
0.0
 40
0.0
 40
0.0
 40
0.1666666666666667
 40
0.1666666666666667
 40
0.1666666666666667
 40
0.1666666666666667
 40
0.3333333333333333
 40
0.3333333333333333
 40
0.3333333333333333
 40
0.3333333333333333
 40
0.5
 40
0.5
 40
0.5
 40
0.5
 40
0.6666666666666666
 40
0.6666666666666666
 40
0.6666666666666666
 40
0.6666666666666666
 40
1.0
 40
1.0
 40
1.0
 40
1.0
 10
-52.7727
 20
119.2861
 30
0.0
 10
-55.6161
 20
119.1796
 30
0.0
 10
-59.3853
 20
116.2839
 30
0.0
 10
-56.9987
 20
111.3345
 30
0.0
 10
-56.9987
 20
111.3345
 30
0.0
 10
-53.914
 20
105.7102
 30
0.0
 10
-50.7925
 20
104.0532
 30
0.0
 10
-45.1259
 20
105.6617
 30
0.0
 10
-45.1259
 20
105.6617
 30
0.0
 10
-36.9879
 20
109.1862
 30
0.0
 10
-41.0031
 20
114.8887
 30
0.0
 10
-42.4895
 20
114.456
 30
0.0
 10
-42.4895
 20
114.456
 30
0.0
 10
-39.5602
 20
107.7918
 30
0.0
 10
-48.9374
 20
108.0817
 30
0.0
 10
-49.2418
 20
112.5398
 30
0.0
 10
-49.2418
 20
112.5398
 30
0.0
 10
-54.503
 20
109.9003
 30
0.0
 10
-56.9159
 20
115.7651
 30
0.0
 10
-52.7727
 20
119.2861
 30
0.0
  0
SPLINE
  5
48
330
1F
100
AcDbEntity
  8
layer 1
 62
     7
100
AcDbSpline
210
0.0
220
0.0
230
1.0
 70
    11
 71
     3
 72
    24
 73
    20
 74
     0
 42
0.0000000001
 43
0.0000000001
 12
1.0
 22
0.0
 32
0.0
 13
1.0
 23
0.0
 33
0.0
 40
0.0
 40
0.0
 40
0.0
 40
0.0
 40
0.1666666666666667
 40
0.1666666666666667
 40
0.1666666666666667
 40
0.1666666666666667
 40
0.3333333333333333
 40
0.3333333333333333
 40
0.3333333333333333
 40
0.3333333333333333
 40
0.5
 40
0.5
 40
0.5
 40
0.5
 40
0.6666666666666666
 40
0.6666666666666666
 40
0.6666666666666666
 40
0.6666666666666666
 40
1.0
 40
1.0
 40
1.0
 40
1.0
 10
-55.6075
 20
105.5
 30
0.0
 10
-55.3232
 20
103.5346
 30
0.0
 10
-55.4731
 20
97.4134
 30
0.0
 10
-59.6415
 20
94.9084
 30
0.0
 10
-59.6415
 20
94.9084
 30
0.0
 10
-60.0835
 20
90.1518
 30
0.0
 10
-60.2454
 20
86.9568
 30
0.0
 10
-60.4258
 20
84.6437
 30
0.0
 10
-60.4258
 20
84.6437
 30
0.0
 10
-58.7658
 20
86.3523
 30
0.0
 10
-56.8245
 20
90.3221
 30
0.0
 10
-54.1241
 20
92.2601
 30
0.0
 10
-54.1241
 20
92.2601
 30
0.0
 10
-54.7162
 20
95.3723
 30
0.0
 10
-52.6501
 20
100.4561
 30
0.0
 10
-49.6324
 20
102.662
 30
0.0
 10
-49.6324
 20
102.662
 30
0.0
 10
-51.668
 20
103.1533
 30
0.0
 10
-54.6678
 20
104.4228
 30
0.0
 10
-55.6075
 20
105.5
 30
0.0
  0
SPLINE
  5
49
330
1F
100
AcDbEntity
  8
layer 1
 62
     7
100
AcDbSpline
210
0.0
220
0.0
230
1.0
 70
    11
 71
     3
 72
    28
 73
    24
 74
     0
 42
0.0000000001
 43
0.0000000001
 12
1.0
 22
0.0
 32
0.0
 13
1.0
 23
0.0
 33
0.0
 40
0.0
 40
0.0
 40
0.0
 40
0.0
 40
0.1428571428571428
 40
0.1428571428571428
 40
0.1428571428571428
 40
0.1428571428571428
 40
0.2857142857142857
 40
0.2857142857142857
 40
0.2857142857142857
 40
0.2857142857142857
 40
0.4285714285714285
 40
0.4285714285714285
 40
0.4285714285714285
 40
0.4285714285714285
 40
0.5714285714285714
 40
0.5714285714285714
 40
0.5714285714285714
 40
0.5714285714285714
 40
0.7142857142857143
 40
0.7142857142857143
 40
0.7142857142857143
 40
0.7142857142857143
 40
1.0
 40
1.0
 40
1.0
 40
1.0
 10
-92.1814
 20
117.9252
 30
0.0
 10
-89.0871
 20
118.1541
 30
0.0
 10
-86.6733
 20
116.6894
 30
0.0
 10
-86.1578
 20
114.059
 30
0.0
 10
-86.1578
 20
114.059
 30
0.0
 10
-83.93
 20
116.177
 30
0.0
 10
-83.4637
 20
121.6144
 30
0.0
 10
-84.1565
 20
122.6089
 30
0.0
 10
-84.1565
 20
122.6089
 30
0.0
 10
-84.1565
 20
122.6089
 30
0.0
 10
-100.3194
 20
122.6089
 30
0.0
 10
-100.3194
 20
122.6089
 30
0.0
 10
-100.3194
 20
122.6089
 30
0.0
 10
-101.0153
 20
121.6146
 30
0.0
 10
-100.5483
 20
116.1767
 30
0.0
 10
-98.3205
 20
114.059
 30
0.0
 10
-98.3205
 20
114.059
 30
0.0
 10
-97.8048
 20
116.6894
 30
0.0
 10
-95.3879
 20
118.1539
 30
0.0
 10
-92.297
 20
117.9252
 30
0.0
 10
-92.297
 20
117.9252
 30
0.0
 10
-92.297
 20
117.9252
 30
0.0
 10
-92.1814
 20
117.9252
 30
0.0
 10
-92.1814
 20
117.9252
 30
0.0
  0
SPLINE
  5
4A
330
1F
100
AcDbEntity
  8
layer 1
 62
     7
100
AcDbSpline
210
0.0
220
0.0
230
1.0
 70
    11
 71
     3
 72
    44
 73
    40
 74
     0
 42
0.0000000001
 43
0.0000000001
 12
1.0
 22
0.0
 32
0.0
 13
1.0
 23
0.0
 33
0.0
 40
0.0
 40
0.0
 40
0.0
 40
0.0
 40
0.0909090909090909
 40
0.0909090909090909
 40
0.0909090909090909
 40
0.0909090909090909
 40
0.1818181818181818
 40
0.1818181818181818
 40
0.1818181818181818
 40
0.1818181818181818
 40
0.2727272727272727
 40
0.2727272727272727
 40
0.2727272727272727
 40
0.2727272727272727
 40
0.3636363636363636
 40
0.3636363636363636
 40
0.3636363636363636
 40
0.3636363636363636
 40
0.4545454545454545
 40
0.4545454545454545
 40
0.4545454545454545
 40
0.4545454545454545
 40
0.5454545454545454
 40
0.5454545454545454
 40
0.5454545454545454
 40
0.5454545454545454
 40
0.6363636363636364
 40
0.6363636363636364
 40
0.6363636363636364
 40
0.6363636363636364
 40
0.7272727272727273
 40
0.7272727272727273
 40
0.7272727272727273
 40
0.7272727272727273
 40
0.8181818181818182
 40
0.8181818181818182
 40
0.8181818181818182
 40
0.8181818181818182
 40
1.0
 40
1.0
 40
1.0
 40
1.0
 10
-73.3266
 20
63.3909
 30
0.0
 10
-84.9829
 20
66.5945
 30
0.0
 10
-92.1814
 20
55.3842
 30
0.0
 10
-84.8212
 20
52.0758
 30
0.0
 10
-84.8212
 20
52.0758
 30
0.0
 10
-86.9906
 20
56.5464
 30
0.0
 10
-81.7059
 20
61.2731
 30
0.0
 10
-77.6017
 20
56.0402
 30
0.0
 10
-77.6017
 20
56.0402
 30
0.0
 10
-73.9342
 20
51.365
 30
0.0
 10
-77.6533
 20
46.5805
 30
0.0
 10
-81.8005
 20
45.8086
 30
0.0
 10
-81.8005
 20
45.8086
 30
0.0
 10
-80.467
 20
44.4417
 30
0.0
 10
-79.6187
 20
41.9176
 30
0.0
 10
-79.1914
 20
39.4985
 30
0.0
 10
-79.1914
 20
39.4985
 30
0.0
 10
-77.2877
 20
40.9874
 30
0.0
 10
-74.9014
 20
41.8326
 30
0.0
 10
-72.7929
 20
41.8873
 30
0.0
 10
-72.7929
 20
41.8873
 30
0.0
 10
-73.7172
 20
42.8215
 30
0.0
 10
-76.6527
 20
49.156
 30
0.0
 10
-70.0496
 20
52.4453
 30
0.0
 10
-70.0496
 20
52.4453
 30
0.0
 10
-65.4266
 20
54.7491
 30
0.0
 10
-59.525
 20
47.6427
 30
0.0
 10
-66.6803
 20
44.6337
 30
0.0
 10
-66.6803
 20
44.6337
 30
0.0
 10
-62.2013
 20
41.3264
 30
0.0
 10
-53.9866
 20
52.2775
 30
0.0
 10
-66.5187
 20
60.3451
 30
0.0
 10
-66.5187
 20
60.3451
 30
0.0
 10
-68.4598
 20
55.8387
 30
0.0
 10
-71.1174
 20
55.4386
 30
0.0
 10
-72.5212
 20
56.0152
 30
0.0
 10
-72.5212
 20
56.0152
 30
0.0
 10
-74.2911
 20
56.7417
 30
0.0
 10
-75.0108
 20
59.5577
 30
0.0
 10
-73.3266
 20
63.3909
 30
0.0
  0
SPLINE
  5
4B
330
1F
100
AcDbEntity
  8
layer 1
 62
     7
100
AcDbSpline
210
0.0
220
0.0
230
1.0
 70
    11
 71
     3
 72
    44
 73
    40
 74
     0
 42
0.0000000001
 43
0.0000000001
 12
1.0
 22
0.0
 32
0.0
 13
1.0
 23
0.0
 33
0.0
 40
0.0
 40
0.0
 40
0.0
 40
0.0
 40
0.0909090909090909
 40
0.0909090909090909
 40
0.0909090909090909
 40
0.0909090909090909
 40
0.1818181818181818
 40
0.1818181818181818
 40
0.1818181818181818
 40
0.1818181818181818
 40
0.2727272727272727
 40
0.2727272727272727
 40
0.2727272727272727
 40
0.2727272727272727
 40
0.3636363636363636
 40
0.3636363636363636
 40
0.3636363636363636
 40
0.3636363636363636
 40
0.4545454545454545
 40
0.4545454545454545
 40
0.4545454545454545
 40
0.4545454545454545
 40
0.5454545454545454
 40
0.5454545454545454
 40
0.5454545454545454
 40
0.5454545454545454
 40
0.6363636363636364
 40
0.6363636363636364
 40
0.6363636363636364
 40
0.6363636363636364
 40
0.7272727272727273
 40
0.7272727272727273
 40
0.7272727272727273
 40
0.7272727272727273
 40
0.8181818181818182
 40
0.8181818181818182
 40
0.8181818181818182
 40
0.8181818181818182
 40
1.0
 40
1.0
 40
1.0
 40
1.0
 10
-40.1001
 20
34.0336
 30
0.0
 10
-46.0749
 20
44.5423
 30
0.0
 10
-59.0946
 20
41.7044
 30
0.0
 10
-56.2271
 20
34.1616
 30
0.0
 10
-56.2271
 20
34.1616
 30
0.0
 10
-54.6029
 20
38.8573
 30
0.0
 10
-47.5211
 20
38.4642
 30
0.0
 10
-48.3209
 20
31.8603
 30
0.0
 10
-48.3209
 20
31.8603
 30
0.0
 10
-49.0317
 20
25.9627
 30
0.0
 10
-55.046
 20
25.2087
 30
0.0
 10
-58.5244
 20
27.5944
 30
0.0
 10
-58.5244
 20
27.5944
 30
0.0
 10
-58.5454
 20
25.6846
 30
0.0
 10
-59.7327
 20
23.3011
 30
0.0
 10
-61.1428
 20
21.2905
 30
0.0
 10
-61.1428
 20
21.2905
 30
0.0
 10
-58.7438
 20
20.9945
 30
0.0
 10
-56.4558
 20
19.9055
 30
0.0
 10
-54.9273
 20
18.4524
 30
0.0
 10
-54.9273
 20
18.4524
 30
0.0
 10
-54.9239
 20
19.768
 30
0.0
 10
-52.5197
 20
26.3227
 30
0.0
 10
-45.522
 20
23.9791
 30
0.0
 10
-45.522
 20
23.9791
 30
0.0
 10
-40.6249
 20
22.3372
 30
0.0
 10
-41.4796
 20
13.1406
 30
0.0
 10
-48.6654
 20
16.0723
 30
0.0
 10
-48.6654
 20
16.0723
 30
0.0
 10
-47.8382
 20
10.5653
 30
0.0
 10
-34.2811
 20
12.5024
 30
0.0
 10
-37.4394
 20
27.0672
 30
0.0
 10
-37.4394
 20
27.0672
 30
0.0
 10
-41.9982
 20
25.2541
 30
0.0
 10
-44.1582
 20
26.85
 30
0.0
 10
-44.7439
 20
28.2505
 30
0.0
 10
-44.7439
 20
28.2505
 30
0.0
 10
-45.4828
 20
30.0144
 30
0.0
 10
-43.9995
 20
32.5133
 30
0.0
 10
-40.1001
 20
34.0336
 30
0.0
  0
SPLINE
  5
4C
330
1F
100
AcDbEntity
  8
layer 1
 62
     7
100
AcDbSpline
210
0.0
220
0.0
230
1.0
 70
    11
 71
     3
 72
    20
 73
    16
 74
     0
 42
0.0000000001
 43
0.0000000001
 12
1.0
 22
0.0
 32
0.0
 13
1.0
 23
0.0
 33
0.0
 40
0.0
 40
0.0
 40
0.0
 40
0.0
 40
0.2
 40
0.2
 40
0.2
 40
0.2
 40
0.4
 40
0.4
 40
0.4
 40
0.4
 40
0.6
 40
0.6
 40
0.6
 40
0.6
 40
1.0
 40
1.0
 40
1.0
 40
1.0
 10
-105.8179
 20
66.1094
 30
0.0
 10
-99.2789
 20
70.2105
 30
0.0
 10
-92.2423
 20
79.8467
 30
0.0
 10
-92.2117
 20
86.2701
 30
0.0
 10
-92.2117
 20
86.2701
 30
0.0
 10
-92.1814
 20
79.8469
 30
0.0
 10
-85.1448
 20
70.2105
 30
0.0
 10
-78.6057
 20
66.1094
 30
0.0
 10
-78.6057
 20
66.1094
 30
0.0
 10
-84.0799
 20
67.2781
 30
0.0
 10
-88.6387
 20
64.9103
 30
0.0
 10
-92.2117
 20
58.5938
 30
0.0
 10
-92.2117
 20
58.5938
 30
0.0
 10
-95.7847
 20
64.9103
 30
0.0
 10
-100.3435
 20
67.2781
 30
0.0
 10
-105.8179
 20
66.1094
 30
0.0
  0
SPLINE
  5
4D
330
1F
100
AcDbEntity
  8
layer 1
 62
     7
100
AcDbSpline
210
0.0
220
0.0
230
1.0
 70
    11
 71
     3
 72
    20
 73
    16
 74
     0
 42
0.0000000001
 43
0.0000000001
 12
1.0
 22
0.0
 32
0.0
 13
1.0
 23
0.0
 33
0.0
 40
0.0
 40
0.0
 40
0.0
 40
0.0
 40
0.2
 40
0.2
 40
0.2
 40
0.2
 40
0.4
 40
0.4
 40
0.4
 40
0.4
 40
0.6
 40
0.6
 40
0.6
 40
0.6
 40
1.0
 40
1.0
 40
1.0
 40
1.0
 10
-60.8888
 20
58.8743
 30
0.0
 10
-53.3649
 20
57.1503
 30
0.0
 10
-41.5772
 20
58.9906
 30
0.0
 10
-37.012
 20
63.5098
 30
0.0
 10
-37.012
 20
63.5098
 30
0.0
 10
-41.5343
 20
58.9445
 30
0.0
 10
-43.3715
 20
47.1569
 30
0.0
 10
-41.6474
 20
39.636
 30
0.0
 10
-41.6474
 20
39.636
 30
0.0
 10
-44.6923
 20
44.3315
 30
0.0
 10
-49.5904
 20
45.8821
 30
0.0
 10
-56.584
 20
43.9409
 30
0.0
 10
-56.584
 20
43.9409
 30
0.0
 10
-54.6427
 20
50.9347
 30
0.0
 10
-56.1934
 20
55.8292
 30
0.0
 10
-60.8888
 20
58.8743
 30
0.0
  0
SPLINE
  5
4E
330
1F
100
AcDbEntity
  8
layer 1
 62
     7
100
AcDbSpline
210
0.0
220
0.0
230
1.0
 70
    11
 71
     3
 72
    36
 73
    32
 74
     0
 42
0.0000000001
 43
0.0000000001
 12
1.0
 22
0.0
 32
0.0
 13
1.0
 23
0.0
 33
0.0
 40
0.0
 40
0.0
 40
0.0
 40
0.0
 40
0.1111111111111111
 40
0.1111111111111111
 40
0.1111111111111111
 40
0.1111111111111111
 40
0.2222222222222222
 40
0.2222222222222222
 40
0.2222222222222222
 40
0.2222222222222222
 40
0.3333333333333333
 40
0.3333333333333333
 40
0.3333333333333333
 40
0.3333333333333333
 40
0.4444444444444444
 40
0.4444444444444444
 40
0.4444444444444444
 40
0.4444444444444444
 40
0.5555555555555556
 40
0.5555555555555556
 40
0.5555555555555556
 40
0.5555555555555556
 40
0.6666666666666666
 40
0.6666666666666666
 40
0.6666666666666666
 40
0.6666666666666666
 40
0.7777777777777778
 40
0.7777777777777778
 40
0.7777777777777778
 40
0.7777777777777778
 40
1.0
 40
1.0
 40
1.0
 40
1.0
 10
-98.6383
 20
40.6787
 30
0.0
 10
-99.9529
 20
38.9549
 30
0.0
 10
-99.9624
 20
35.7052
 30
0.0
 10
-95.5653
 20
34.4849
 30
0.0
 10
-95.5653
 20
34.4849
 30
0.0
 10
-102.8645
 20
32.6603
 30
0.0
 10
-103.7799
 20
42.4887
 30
0.0
 10
-99.9319
 20
45.6282
 30
0.0
 10
-99.9319
 20
45.6282
 30
0.0
 10
-97.2955
 20
45.7415
 30
0.0
 10
-93.3711
 20
48.106
 30
0.0
 10
-92.157
 20
52.165
 30
0.0
 10
-92.157
 20
52.165
 30
0.0
 10
-90.9425
 20
48.106
 30
0.0
 10
-87.0209
 20
45.7415
 30
0.0
 10
-84.3822
 20
45.6282
 30
0.0
 10
-84.3822
 20
45.6282
 30
0.0
 10
-80.5341
 20
42.4887
 30
0.0
 10
-81.4529
 20
32.6601
 30
0.0
 10
-88.7481
 20
34.4849
 30
0.0
 10
-88.7481
 20
34.4849
 30
0.0
 10
-84.3518
 20
35.7052
 30
0.0
 10
-84.3605
 20
38.9547
 30
0.0
 10
-85.6757
 20
40.6787
 30
0.0
 10
-85.6757
 20
40.6787
 30
0.0
 10
-86.9882
 20
42.3942
 30
0.0
 10
-90.3745
 20
42.2996
 30
0.0
 10
-92.157
 20
39.8156
 30
0.0
 10
-92.157
 20
39.8156
 30
0.0
 10
-93.9389
 20
42.2996
 30
0.0
 10
-97.3261
 20
42.3942
 30
0.0
 10
-98.6383
 20
40.6787
 30
0.0
  0
SPLINE
  5
4F
330
1F
100
AcDbEntity
  8
layer 1
 62
     7
100
AcDbSpline
210
0.0
220
0.0
230
1.0
 70
    11
 71
     3
 72
    36
 73
    32
 74
     0
 42
0.0000000001
 43
0.0000000001
 12
1.0
 22
0.0
 32
0.0
 13
1.0
 23
0.0
 33
0.0
 40
0.0
 40
0.0
 40
0.0
 40
0.0
 40
0.1111111111111111
 40
0.1111111111111111
 40
0.1111111111111111
 40
0.1111111111111111
 40
0.2222222222222222
 40
0.2222222222222222
 40
0.2222222222222222
 40
0.2222222222222222
 40
0.3333333333333333
 40
0.3333333333333333
 40
0.3333333333333333
 40
0.3333333333333333
 40
0.4444444444444444
 40
0.4444444444444444
 40
0.4444444444444444
 40
0.4444444444444444
 40
0.5555555555555556
 40
0.5555555555555556
 40
0.5555555555555556
 40
0.5555555555555556
 40
0.6666666666666666
 40
0.6666666666666666
 40
0.6666666666666666
 40
0.6666666666666666
 40
0.7777777777777778
 40
0.7777777777777778
 40
0.7777777777777778
 40
0.7777777777777778
 40
1.0
 40
1.0
 40
1.0
 40
1.0
 10
-73.9951
 20
35.9435
 30
0.0
 10
-76.1434
 20
35.6536
 30
0.0
 10
-78.45
 20
33.3649
 30
0.0
 10
-76.2043
 20
29.3887
 30
0.0
 10
-76.2043
 20
29.3887
 30
0.0
 10
-82.6552
 20
33.2577
 30
0.0
 10
-76.3535
 20
40.8592
 30
0.0
 10
-71.4103
 20
40.3555
 30
0.0
 10
-71.4103
 20
40.3555
 30
0.0
 10
-69.4668
 20
38.5705
 30
0.0
 10
-65.0205
 20
37.4722
 30
0.0
 10
-61.2921
 20
39.4797
 30
0.0
 10
-61.2921
 20
39.4797
 30
0.0
 10
-63.3026
 20
35.7544
 30
0.0
 10
-62.2013
 20
31.3049
 30
0.0
 10
-60.4163
 20
29.3614
 30
0.0
 10
-60.4163
 20
29.3614
 30
0.0
 10
-59.9125
 20
24.4213
 30
0.0
 10
-67.514
 20
18.1205
 30
0.0
 10
-71.3831
 20
24.5675
 30
0.0
 10
-71.3831
 20
24.5675
 30
0.0
 10
-67.41
 20
22.3217
 30
0.0
 10
-65.1182
 20
24.629
 30
0.0
 10
-64.8314
 20
26.7773
 30
0.0
 10
-64.8314
 20
26.7773
 30
0.0
 10
-64.5449
 20
28.9192
 30
0.0
 10
-67.007
 20
31.244
 30
0.0
 10
-70.0253
 20
30.7502
 30
0.0
 10
-70.0253
 20
30.7502
 30
0.0
 10
-69.5277
 20
33.7648
 30
0.0
 10
-71.8556
 20
36.23
 30
0.0
 10
-73.9951
 20
35.9435
 30
0.0
  0
SPLINE
  5
50
330
1F
100
AcDbEntity
  8
layer 1
 62
     7
100
AcDbSpline
210
0.0
220
0.0
230
1.0
 70
    11
 71
     3
 72
    36
 73
    32
 74
     0
 42
0.0000000001
 43
0.0000000001
 12
1.0
 22
0.0
 32
0.0
 13
1.0
 23
0.0
 33
0.0
 40
0.0
 40
0.0
 40
0.0
 40
0.0
 40
0.1111111111111111
 40
0.1111111111111111
 40
0.1111111111111111
 40
0.1111111111111111
 40
0.2222222222222222
 40
0.2222222222222222
 40
0.2222222222222222
 40
0.2222222222222222
 40
0.3333333333333333
 40
0.3333333333333333
 40
0.3333333333333333
 40
0.3333333333333333
 40
0.4444444444444444
 40
0.4444444444444444
 40
0.4444444444444444
 40
0.4444444444444444
 40
0.5555555555555556
 40
0.5555555555555556
 40
0.5555555555555556
 40
0.5555555555555556
 40
0.6666666666666666
 40
0.6666666666666666
 40
0.6666666666666666
 40
0.6666666666666666
 40
0.7777777777777778
 40
0.7777777777777778
 40
0.7777777777777778
 40
0.7777777777777778
 40
1.0
 40
1.0
 40
1.0
 40
1.0
 10
-60.1265
 20
14.7913
 30
0.0
 10
-61.8505
 20
16.106
 30
0.0
 10
-65.1002
 20
16.1184
 30
0.0
 10
-66.3234
 20
11.7181
 30
0.0
 10
-66.3234
 20
11.7181
 30
0.0
 10
-68.1482
 20
19.0173
 30
0.0
 10
-58.3165
 20
19.9358
 30
0.0
 10
-55.1801
 20
16.0849
 30
0.0
 10
-55.1801
 20
16.0849
 30
0.0
 10
-55.067
 20
13.4486
 30
0.0
 10
-52.6992
 20
9.5277
 30
0.0
 10
-48.6444
 20
8.3101
 30
0.0
 10
-48.6444
 20
8.3101
 30
0.0
 10
-52.6992
 20
7.0953
 30
0.0
 10
-55.067
 20
3.1746
 30
0.0
 10
-55.1801
 20
0.5383
 30
0.0
 10
-55.1801
 20
0.5383
 30
0.0
 10
-58.3165
 20
-3.3128
 30
0.0
 10
-68.1482
 20
-2.3943
 30
0.0
 10
-66.3234
 20
4.9018
 30
0.0
 10
-66.3234
 20
4.9018
 30
0.0
 10
-65.1002
 20
0.5046
 30
0.0
 10
-61.8505
 20
0.5139
 30
0.0
 10
-60.1265
 20
1.8319
 30
0.0
 10
-60.1265
 20
1.8319
 30
0.0
 10
-58.411
 20
3.1412
 30
0.0
 10
-58.5087
 20
6.5282
 30
0.0
 10
-60.9929
 20
8.3101
 30
0.0
 10
-60.9929
 20
8.3101
 30
0.0
 10
-58.5087
 20
10.095
 30
0.0
 10
-58.411
 20
13.482
 30
0.0
 10
-60.1265
 20
14.7913
 30
0.0
  0
SPLINE
  5
51
330
1F
100
AcDbEntity
  8
layer 1
 62
     7
100
AcDbSpline
210
0.0
220
0.0
230
1.0
 70
    11
 71
     3
 72
    20
 73
    16
 74
     0
 42
0.0000000001
 43
0.0000000001
 12
1.0
 22
0.0
 32
0.0
 13
1.0
 23
0.0
 33
0.0
 40
0.0
 40
0.0
 40
0.0
 40
0.0
 40
0.2
 40
0.2
 40
0.2
 40
0.2
 40
0.4
 40
0.4
 40
0.4
 40
0.4
 40
0.6
 40
0.6
 40
0.6
 40
0.6
 40
1.0
 40
1.0
 40
1.0
 40
1.0
 10
-34.049
 20
21.9163
 30
0.0
 10
-29.9482
 20
15.3772
 30
0.0
 10
-20.3117
 20
8.3404
 30
0.0
 10
-13.8883
 20
8.3101
 30
0.0
 10
-13.8883
 20
8.3101
 30
0.0
 10
-20.3117
 20
8.2795
 30
0.0
 10
-29.9482
 20
1.246
 30
0.0
 10
-34.0493
 20
-5.2931
 30
0.0
 10
-34.0493
 20
-5.2931
 30
0.0
 10
-32.8806
 20
0.1813
 30
0.0
 10
-35.2452
 20
4.7371
 30
0.0
 10
-41.5646
 20
8.3101
 30
0.0
 10
-41.5646
 20
8.3101
 30
0.0
 10
-35.245
 20
11.8862
 30
0.0
 10
-32.8806
 20
16.4419
 30
0.0
 10
-34.049
 20
21.9163
 30
0.0
  0
SPLINE
  5
52
330
1F
100
AcDbEntity
  8
layer 1
 62
     7
100
AcDbSpline
210
0.0
220
0.0
230
1.0
 70
    11
 71
     3
 72
    52
 73
    48
 74
     0
 42
0.0000000001
 43
0.0000000001
 12
1.0
 22
0.0
 32
0.0
 13
1.0
 23
0.0
 33
0.0
 40
0.0
 40
0.0
 40
0.0
 40
0.0
 40
0.0769230769230769
 40
0.0769230769230769
 40
0.0769230769230769
 40
0.0769230769230769
 40
0.1538461538461539
 40
0.1538461538461539
 40
0.1538461538461539
 40
0.1538461538461539
 40
0.2307692307692308
 40
0.2307692307692308
 40
0.2307692307692308
 40
0.2307692307692308
 40
0.3076923076923077
 40
0.3076923076923077
 40
0.3076923076923077
 40
0.3076923076923077
 40
0.3846153846153846
 40
0.3846153846153846
 40
0.3846153846153846
 40
0.3846153846153846
 40
0.4615384615384616
 40
0.4615384615384616
 40
0.4615384615384616
 40
0.4615384615384616
 40
0.5384615384615384
 40
0.5384615384615384
 40
0.5384615384615384
 40
0.5384615384615384
 40
0.6153846153846154
 40
0.6153846153846154
 40
0.6153846153846154
 40
0.6153846153846154
 40
0.6923076923076923
 40
0.6923076923076923
 40
0.6923076923076923
 40
0.6923076923076923
 40
0.7692307692307693
 40
0.7692307692307693
 40
0.7692307692307693
 40
0.7692307692307693
 40
0.8461538461538461
 40
0.8461538461538461
 40
0.8461538461538461
 40
0.8461538461538461
 40
1.0
 40
1.0
 40
1.0
 40
1.0
 10
-73.6437
 20
113.168
 30
0.0
 10
-76.1184
 20
113.1562
 30
0.0
 10
-91.2565
 20
110.0557
 30
0.0
 10
-89.7769
 20
90.8836
 30
0.0
 10
-89.7769
 20
90.8836
 30
0.0
 10
-87.2475
 20
98.2407
 30
0.0
 10
-81.5749
 20
96.4557
 30
0.0
 10
-81.2513
 20
93.8741
 30
0.0
 10
-81.2513
 20
93.8741
 30
0.0
 10
-80.4639
 20
87.5544
 30
0.0
 10
-91.1987
 20
89.0925
 30
0.0
 10
-85.9718
 20
77.0792
 30
0.0
 10
-85.9718
 20
77.0792
 30
0.0
 10
-86.1421
 20
83.1489
 30
0.0
 10
-83.7683
 20
88.2599
 30
0.0
 10
-78.9688
 20
85.3337
 30
0.0
 10
-78.9688
 20
85.3337
 30
0.0
 10
-75.3739
 20
78.5963
 30
0.0
 10
-88.4004
 20
77.3846
 30
0.0
 10
-77.9252
 20
67.7818
 30
0.0
 10
-77.9252
 20
67.7818
 30
0.0
 10
-81.5505
 20
76.4754
 30
0.0
 10
-77.5189
 20
82.3581
 30
0.0
 10
-72.8235
 20
77.8454
 30
0.0
 10
-72.8235
 20
77.8454
 30
0.0
 10
-70.33
 20
82.4956
 30
0.0
 10
-66.6015
 20
77.5947
 30
0.0
 10
-63.9862
 20
85.3304
 30
0.0
 10
-63.9862
 20
85.3304
 30
0.0
 10
-65.9087
 20
84.2135
 30
0.0
 10
-69.7356
 20
81.3238
 30
0.0
 10
-71.6087
 20
85.1258
 30
0.0
 10
-71.6087
 20
85.1258
 30
0.0
 10
-72.6461
 20
91.5705
 30
0.0
 10
-64.7767
 20
89.59
 30
0.0
 10
-63.4247
 20
93.0749
 30
0.0
 10
-63.4247
 20
93.0749
 30
0.0
 10
-69.9332
 20
90.3956
 30
0.0
 10
-76.8971
 20
99.0766
 30
0.0
 10
-72.0908
 20
104.258
 30
0.0
 10
-72.0908
 20
104.258
 30
0.0
 10
-67.7208
 20
108.9692
 30
0.0
 10
-61.3076
 20
103.9104
 30
0.0
 10
-62.8972
 20
99.1742
 30
0.0
 10
-62.8972
 20
99.1742
 30
0.0
 10
-58.076
 20
104.3712
 30
0.0
 10
-63.4309
 20
115.2518
 30
0.0
 10
-73.6437
 20
113.168
 30
0.0
  0
SPLINE
  5
53
330
1F
100
AcDbEntity
  8
layer 1
 62
     7
100
AcDbSpline
210
0.0
220
0.0
230
1.0
 70
    11
 71
     3
 72
    28
 73
    24
 74
     0
 42
0.0000000001
 43
0.0000000001
 12
1.0
 22
0.0
 32
0.0
 13
1.0
 23
0.0
 33
0.0
 40
0.0
 40
0.0
 40
0.0
 40
0.0
 40
0.1428571428571428
 40
0.1428571428571428
 40
0.1428571428571428
 40
0.1428571428571428
 40
0.2857142857142857
 40
0.2857142857142857
 40
0.2857142857142857
 40
0.2857142857142857
 40
0.4285714285714285
 40
0.4285714285714285
 40
0.4285714285714285
 40
0.4285714285714285
 40
0.5714285714285714
 40
0.5714285714285714
 40
0.5714285714285714
 40
0.5714285714285714
 40
0.7142857142857143
 40
0.7142857142857143
 40
0.7142857142857143
 40
0.7142857142857143
 40
1.0
 40
1.0
 40
1.0
 40
1.0
 10
-63.4433
 20
77.2291
 30
0.0
 10
-64.993
 20
74.5038
 30
0.0
 10
-70.5589
 20
70.6166
 30
0.0
 10
-72.5759
 20
75.541
 30
0.0
 10
-72.5759
 20
75.541
 30
0.0
 10
-74.2725
 20
70.83
 30
0.0
 10
-73.6288
 20
66.6069
 30
0.0
 10
-72.3321
 20
65.054
 30
0.0
 10
-72.3321
 20
65.054
 30
0.0
 10
-70.6964
 20
68.0108
 30
0.0
 10
-67.2054
 20
69.8746
 30
0.0
 10
-66.4915
 20
69.6153
 30
0.0
 10
-66.4915
 20
69.6153
 30
0.0
 10
-65.6429
 20
69.3106
 30
0.0
 10
-65.3963
 20
65.5172
 30
0.0
 10
-65.9884
 20
62.6003
 30
0.0
 10
-65.9884
 20
62.6003
 30
0.0
 10
-61.3897
 20
63.2536
 30
0.0
 10
-58.9666
 20
68.0223
 30
0.0
 10
-58.5884
 20
69.6948
 30
0.0
 10
-58.5884
 20
69.6948
 30
0.0
 10
-63.8002
 20
68.2577
 30
0.0
 10
-64.7433
 20
73.7804
 30
0.0
 10
-63.4433
 20
77.2291
 30
0.0
  0
SPLINE
  5
54
330
1F
100
AcDbEntity
  8
layer 1
 62
     7
100
AcDbSpline
210
0.0
220
0.0
230
1.0
 70
    11
 71
     3
 72
    28
 73
    24
 74
     0
 42
0.0000000001
 43
0.0000000001
 12
1.0
 22
0.0
 32
0.0
 13
1.0
 23
0.0
 33
0.0
 40
0.0
 40
0.0
 40
0.0
 40
0.0
 40
0.1428571428571428
 40
0.1428571428571428
 40
0.1428571428571428
 40
0.1428571428571428
 40
0.2857142857142857
 40
0.2857142857142857
 40
0.2857142857142857
 40
0.2857142857142857
 40
0.4285714285714285
 40
0.4285714285714285
 40
0.4285714285714285
 40
0.4285714285714285
 40
0.5714285714285714
 40
0.5714285714285714
 40
0.5714285714285714
 40
0.5714285714285714
 40
0.7142857142857143
 40
0.7142857142857143
 40
0.7142857142857143
 40
0.7142857142857143
 40
1.0
 40
1.0
 40
1.0
 40
1.0
 10
-22.9388
 20
36.7278
 30
0.0
 10
-25.9626
 20
35.9005
 30
0.0
 10
-32.6423
 20
37.0878
 30
0.0
 10
-30.5888
 20
41.9943
 30
0.0
 10
-30.5888
 20
41.9943
 30
0.0
 10
-35.1201
 20
39.8648
 30
0.0
 10
-37.6526
 20
36.4222
 30
0.0
 10
-37.8331
 20
34.4085
 30
0.0
 10
-37.8331
 20
34.4085
 30
0.0
 10
-34.5858
 20
35.342
 30
0.0
 10
-30.7996
 20
34.1888
 30
0.0
 10
-30.476
 20
33.5022
 30
0.0
 10
-30.476
 20
33.5022
 30
0.0
 10
-30.0941
 20
32.6875
 30
0.0
 10
-32.6002
 20
29.8315
 30
0.0
 10
-35.0802
 20
28.1865
 30
0.0
 10
-35.0802
 20
28.1865
 30
0.0
 10
-31.3666
 20
25.3947
 30
0.0
 10
-26.2806
 20
27.0546
 30
0.0
 10
-24.8307
 20
27.9671
 30
0.0
 10
-24.8307
 20
27.9671
 30
0.0
 10
-29.5332
 20
30.6371
 30
0.0
 10
-26.2954
 20
35.2107
 30
0.0
 10
-22.9388
 20
36.7278
 30
0.0
  0
SPLINE
  5
55
330
1F
100
AcDbEntity
  8
layer 1
 62
     7
100
AcDbSpline
210
0.0
220
0.0
230
1.0
 70
    11
 71
     3
 72
    52
 73
    48
 74
     0
 42
0.0000000001
 43
0.0000000001
 12
1.0
 22
0.0
 32
0.0
 13
1.0
 23
0.0
 33
0.0
 40
0.0
 40
0.0
 40
0.0
 40
0.0
 40
0.0769230769230769
 40
0.0769230769230769
 40
0.0769230769230769
 40
0.0769230769230769
 40
0.1538461538461539
 40
0.1538461538461539
 40
0.1538461538461539
 40
0.1538461538461539
 40
0.2307692307692308
 40
0.2307692307692308
 40
0.2307692307692308
 40
0.2307692307692308
 40
0.3076923076923077
 40
0.3076923076923077
 40
0.3076923076923077
 40
0.3076923076923077
 40
0.3846153846153846
 40
0.3846153846153846
 40
0.3846153846153846
 40
0.3846153846153846
 40
0.4615384615384616
 40
0.4615384615384616
 40
0.4615384615384616
 40
0.4615384615384616
 40
0.5384615384615384
 40
0.5384615384615384
 40
0.5384615384615384
 40
0.5384615384615384
 40
0.6153846153846154
 40
0.6153846153846154
 40
0.6153846153846154
 40
0.6153846153846154
 40
0.6923076923076923
 40
0.6923076923076923
 40
0.6923076923076923
 40
0.6923076923076923
 40
0.7692307692307693
 40
0.7692307692307693
 40
0.7692307692307693
 40
0.7692307692307693
 40
0.8461538461538461
 40
0.8461538461538461
 40
0.8461538461538461
 40
0.8461538461538461
 40
1.0
 40
1.0
 40
1.0
 40
1.0
 10
-30.998
 20
95.6989
 30
0.0
 10
-29.2582
 20
93.9412
 30
0.0
 10
-20.7453
 20
81.0459
 30
0.0
 10
-35.3491
 20
68.5356
 30
0.0
 10
-35.3491
 20
68.5356
 30
0.0
 10
-31.9346
 20
75.5263
 30
0.0
 10
-37.2073
 20
78.2752
 30
0.0
 10
-39.2611
 20
76.6769
 30
0.0
 10
-39.2611
 20
76.6769
 30
0.0
 10
-44.2862
 20
72.768
 30
0.0
 10
-35.6115
 20
66.2617
 30
0.0
 10
-47.7992
 20
61.4653
 30
0.0
 10
-47.7992
 20
61.4653
 30
0.0
 10
-43.3863
 20
65.6335
 30
0.0
 10
-41.4521
 20
70.9275
 30
0.0
 10
-46.9141
 20
72.2516
 30
0.0
 10
-46.9141
 20
72.2516
 30
0.0
 10
-54.2218
 20
70.0309
 30
0.0
 10
-45.8672
 20
59.964
 30
0.0
 10
-60.0625
 20
60.5802
 30
0.0
 10
-60.0625
 20
60.5802
 30
0.0
 10
-51.3534
 20
64.1628
 30
0.0
 10
-50.0449
 20
71.1719
 30
0.0
 10
-56.5559
 20
71.3032
 30
0.0
 10
-56.5559
 20
71.3032
 30
0.0
 10
-55.0302
 20
76.3527
 30
0.0
 10
-61.1335
 20
75.5261
 30
0.0
 10
-57.5145
 20
82.8433
 30
0.0
 10
-57.5145
 20
82.8433
 30
0.0
 10
-56.941
 20
80.6952
 30
0.0
 10
-56.2787
 20
75.9473
 30
0.0
 10
-52.2657
 20
77.3111
 30
0.0
 10
-52.2657
 20
77.3111
 30
0.0
 10
-46.9781
 20
81.135
 30
0.0
 10
-53.9412
 20
85.3001
 30
0.0
 10
-52.4337
 20
88.7176
 30
0.0
 10
-52.4337
 20
88.7176
 30
0.0
 10
-49.7239
 20
82.2208
 30
0.0
 10
-38.6628
 20
83.4354
 30
0.0
 10
-38.397
 20
90.4964
 30
0.0
 10
-38.397
 20
90.4964
 30
0.0
 10
-38.1564
 20
96.9167
 30
0.0
 10
-46.2673
 20
97.8775
 30
0.0
 10
-48.4912
 20
93.4046
 30
0.0
 10
-48.4912
 20
93.4046
 30
0.0
 10
-48.2288
 20
100.4866
 30
0.0
 10
-36.7465
 20
104.3953
 30
0.0
 10
-30.998
 20
95.6989
 30
0.0
  0
SPLINE
  5
56
330
1F
100
AcDbEntity
  8
layer 1
 62
     7
100
AcDbSpline
210
0.0
220
0.0
230
1.0
 70
    11
 71
     3
 72
    52
 73
    48
 74
     0
 42
0.0000000001
 43
0.0000000001
 12
1.0
 22
0.0
 32
0.0
 13
1.0
 23
0.0
 33
0.0
 40
0.0
 40
0.0
 40
0.0
 40
0.0
 40
0.0769230769230769
 40
0.0769230769230769
 40
0.0769230769230769
 40
0.0769230769230769
 40
0.1538461538461539
 40
0.1538461538461539
 40
0.1538461538461539
 40
0.1538461538461539
 40
0.2307692307692308
 40
0.2307692307692308
 40
0.2307692307692308
 40
0.2307692307692308
 40
0.3076923076923077
 40
0.3076923076923077
 40
0.3076923076923077
 40
0.3076923076923077
 40
0.3846153846153846
 40
0.3846153846153846
 40
0.3846153846153846
 40
0.3846153846153846
 40
0.4615384615384616
 40
0.4615384615384616
 40
0.4615384615384616
 40
0.4615384615384616
 40
0.5384615384615384
 40
0.5384615384615384
 40
0.5384615384615384
 40
0.5384615384615384
 40
0.6153846153846154
 40
0.6153846153846154
 40
0.6153846153846154
 40
0.6153846153846154
 40
0.6923076923076923
 40
0.6923076923076923
 40
0.6923076923076923
 40
0.6923076923076923
 40
0.7692307692307693
 40
0.7692307692307693
 40
0.7692307692307693
 40
0.7692307692307693
 40
0.8461538461538461
 40
0.8461538461538461
 40
0.8461538461538461
 40
0.8461538461538461
 40
1.0
 40
1.0
 40
1.0
 40
1.0
 10
-6.9039
 20
70.836
 30
0.0
 10
-11.4259
 20
73.4569
 30
0.0
 10
-21.8037
 20
76.7799
 30
0.0
 10
-31.9315
 20
64.9595
 30
0.0
 10
-31.9315
 20
64.9595
 30
0.0
 10
-24.9376
 20
68.3739
 30
0.0
 10
-22.1912
 20
63.101
 30
0.0
 10
-23.7871
 20
61.0475
 30
0.0
 10
-23.7871
 20
61.0475
 30
0.0
 10
-27.6991
 20
56.0214
 30
0.0
 10
-34.2016
 20
64.6971
 30
0.0
 10
-39.0018
 20
52.5093
 30
0.0
 10
-39.0018
 20
52.5093
 30
0.0
 10
-34.8302
 20
56.9213
 30
0.0
 10
-29.5365
 20
58.8562
 30
0.0
 10
-28.2115
 20
53.3944
 30
0.0
 10
-28.2115
 20
53.3944
 30
0.0
 10
-30.4333
 20
46.0861
 30
0.0
 10
-40.5031
 20
54.4413
 30
0.0
 10
-39.8868
 20
40.2461
 30
0.0
 10
-39.8868
 20
40.2461
 30
0.0
 10
-36.3012
 20
48.9576
 30
0.0
 10
-29.2918
 20
50.2667
 30
0.0
 10
-29.1607
 20
43.7518
 30
0.0
 10
-29.1607
 20
43.7518
 30
0.0
 10
-24.1104
 20
45.2805
 30
0.0
 10
-24.9409
 20
39.175
 30
0.0
 10
-17.6207
 20
42.7965
 30
0.0
 10
-17.6207
 20
42.7965
 30
0.0
 10
-19.7719
 20
43.3676
 30
0.0
 10
-24.5167
 20
44.0299
 30
0.0
 10
-23.1529
 20
48.042
 30
0.0
 10
-23.1529
 20
48.042
 30
0.0
 10
-19.3321
 20
53.3335
 30
0.0
 10
-15.1639
 20
46.3671
 30
0.0
 10
-11.7495
 20
47.8739
 30
0.0
 10
-11.7495
 20
47.8739
 30
0.0
 10
-18.2431
 20
50.584
 30
0.0
 10
-17.0286
 20
61.6451
 30
0.0
 10
-9.9676
 20
61.9106
 30
0.0
 10
-9.9676
 20
61.9106
 30
0.0
 10
-8.8106
 20
61.9535
 30
0.0
 10
-7.8288
 20
61.7279
 30
0.0
 10
-7.0259
 20
61.3098
 30
0.0
 10
-7.0259
 20
61.3098
 30
0.0
 10
-7.0259
 20
61.3098
 30
0.0
 10
-6.9039
 20
70.836
 30
0.0
 10
-6.9039
 20
70.836
 30
0.0
  0
SPLINE
  5
57
330
1F
100
AcDbEntity
  8
layer 1
 62
     7
100
AcDbSpline
210
0.0
220
0.0
230
1.0
 70
    11
 71
     3
 72
    40
 73
    36
 74
     0
 42
0.0000000001
 43
0.0000000001
 12
1.0
 22
0.0
 32
0.0
 13
1.0
 23
0.0
 33
0.0
 40
0.0
 40
0.0
 40
0.0
 40
0.0
 40
0.1
 40
0.1
 40
0.1
 40
0.1
 40
0.2
 40
0.2
 40
0.2
 40
0.2
 40
0.3
 40
0.3
 40
0.3
 40
0.3
 40
0.4
 40
0.4
 40
0.4
 40
0.4
 40
0.5
 40
0.5
 40
0.5
 40
0.5
 40
0.6
 40
0.6
 40
0.6
 40
0.6
 40
0.7
 40
0.7
 40
0.7
 40
0.7
 40
0.8
 40
0.8
 40
0.8
 40
0.8
 40
1.0
 40
1.0
 40
1.0
 40
1.0
 10
-6.9469
 20
19.0049
 30
0.0
 10
-13.1352
 20
20.1125
 30
0.0
 10
-11.7346
 20
8.3101
 30
0.0
 10
-23.3114
 20
14.7366
 30
0.0
 10
-23.3114
 20
14.7366
 30
0.0
 10
-17.2418
 20
14.5624
 30
0.0
 10
-12.1308
 20
16.9363
 30
0.0
 10
-15.057
 20
21.7356
 30
0.0
 10
-15.057
 20
21.7356
 30
0.0
 10
-21.7944
 20
25.3338
 30
0.0
 10
-23.0059
 20
12.3071
 30
0.0
 10
-32.6086
 20
22.7825
 30
0.0
 10
-32.6086
 20
22.7825
 30
0.0
 10
-23.9151
 20
19.1548
 30
0.0
 10
-18.0323
 20
23.1855
 30
0.0
 10
-22.5451
 20
27.8849
 30
0.0
 10
-22.5451
 20
27.8849
 30
0.0
 10
-17.8948
 20
30.3745
 30
0.0
 10
-22.7991
 20
34.106
 30
0.0
 10
-15.0632
 20
36.7213
 30
0.0
 10
-15.0632
 20
36.7213
 30
0.0
 10
-16.1801
 20
34.796
 30
0.0
 10
-19.0666
 20
30.9697
 30
0.0
 10
-15.2647
 20
29.0988
 30
0.0
 10
-15.2647
 20
29.0988
 30
0.0
 10
-8.8233
 20
28.0616
 30
0.0
 10
-10.8004
 20
35.9308
 30
0.0
 10
-7.3189
 20
37.2831
 30
0.0
 10
-7.3189
 20
37.2831
 30
0.0
 10
-8.1428
 20
35.2756
 30
0.0
 10
-7.8897
 20
33.225
 30
0.0
 10
-6.9681
 20
31.4947
 30
0.0
 10
-6.9681
 20
31.4947
 30
0.0
 10
-6.9681
 20
31.4947
 30
0.0
 10
-6.9469
 20
19.0049
 30
0.0
 10
-6.9469
 20
19.0049
 30
0.0
  0
SPLINE
  5
58
330
1F
100
AcDbEntity
  8
layer 1
 62
     7
100
AcDbSpline
210
0.0
220
0.0
230
1.0
 70
    11
 71
     3
 72
    16
 73
    12
 74
     0
 42
0.0000000001
 43
0.0000000001
 12
1.0
 22
0.0
 32
0.0
 13
1.0
 23
0.0
 33
0.0
 40
0.0
 40
0.0
 40
0.0
 40
0.0
 40
0.25
 40
0.25
 40
0.25
 40
0.25
 40
0.5
 40
0.5
 40
0.5
 40
0.5
 40
1.0
 40
1.0
 40
1.0
 40
1.0
 10
-9.7754
 20
10.8762
 30
0.0
 10
-8.7497
 20
11.2301
 30
0.0
 10
-7.6359
 20
11.6971
 30
0.0
 10
-6.9407
 20
12.1485
 30
0.0
 10
-6.9407
 20
12.1485
 30
0.0
 10
-6.9407
 20
12.1485
 30
0.0
 10
-6.9196
 20
10.8151
 30
0.0
 10
-6.9196
 20
10.8151
 30
0.0
 10
-6.9196
 20
10.8151
 30
0.0
 10
-7.7312
 20
10.8277
 30
0.0
 10
-8.8693
 20
10.8058
 30
0.0
 10
-9.7754
 20
10.8762
 30
0.0
  0
SPLINE
  5
59
330
1F
100
AcDbEntity
  8
layer 1
 62
     7
100
AcDbSpline
210
0.0
220
0.0
230
1.0
 70
    11
 71
     3
 72
    16
 73
    12
 74
     0
 42
0.0000000001
 43
0.0000000001
 12
1.0
 22
0.0
 32
0.0
 13
1.0
 23
0.0
 33
0.0
 40
0.0
 40
0.0
 40
0.0
 40
0.0
 40
0.25
 40
0.25
 40
0.25
 40
0.25
 40
0.5
 40
0.5
 40
0.5
 40
0.5
 40
1.0
 40
1.0
 40
1.0
 40
1.0
 10
-16.006
 20
39.9312
 30
0.0
 10
-12.5705
 20
40.2578
 30
0.0
 10
-8.7686
 20
40.2062
 30
0.0
 10
-6.9469
 20
41.2341
 30
0.0
 10
-6.9469
 20
41.2341
 30
0.0
 10
-6.9469
 20
41.2341
 30
0.0
 10
-6.9469
 20
47.6241
 30
0.0
 10
-6.9469
 20
47.6241
 30
0.0
 10
-6.9469
 20
47.6241
 30
0.0
 10
-9.0489
 20
44.4628
 30
0.0
 10
-13.5953
 20
41.9154
 30
0.0
 10
-16.006
 20
39.9312
 30
0.0
  0
SPLINE
  5
5A
330
1F
100
AcDbEntity
  8
layer 1
 62
     7
100
AcDbSpline
210
0.0
220
0.0
230
1.0
 70
    11
 71
     3
 72
    24
 73
    20
 74
     0
 42
0.0000000001
 43
0.0000000001
 12
1.0
 22
0.0
 32
0.0
 13
1.0
 23
0.0
 33
0.0
 40
0.0
 40
0.0
 40
0.0
 40
0.0
 40
0.1666666666666667
 40
0.1666666666666667
 40
0.1666666666666667
 40
0.1666666666666667
 40
0.3333333333333333
 40
0.3333333333333333
 40
0.3333333333333333
 40
0.3333333333333333
 40
0.5
 40
0.5
 40
0.5
 40
0.5
 40
0.6666666666666666
 40
0.6666666666666666
 40
0.6666666666666666
 40
0.6666666666666666
 40
1.0
 40
1.0
 40
1.0
 40
1.0
 10
-13.5282
 20
94.7622
 30
0.0
 10
-19.5516
 20
96.2542
 30
0.0
 10
-21.6999
 20
90.1939
 30
0.0
 10
-21.9873
 20
87.5668
 30
0.0
 10
-21.9873
 20
87.5668
 30
0.0
 10
-17.6995
 20
89.12
 30
0.0
 10
-10.8276
 20
84.8906
 30
0.0
 10
-12.8267
 20
78.6383
 30
0.0
 10
-12.8267
 20
78.6383
 30
0.0
 10
-10.9253
 20
78.9501
 30
0.0
 10
-8.7077
 20
79.5874
 30
0.0
 10
-6.9469
 20
81.4613
 30
0.0
 10
-6.9469
 20
81.4613
 30
0.0
 10
-6.9469
 20
81.4613
 30
0.0
 10
-6.9469
 20
87.1975
 30
0.0
 10
-6.9469
 20
87.1975
 30
0.0
 10
-6.9469
 20
87.1975
 30
0.0
 10
-8.9818
 20
86.5937
 30
0.0
 10
-14.8311
 20
90.594
 30
0.0
 10
-13.5282
 20
94.7622
 30
0.0
  0
SPLINE
  5
5B
330
1F
100
AcDbEntity
  8
layer 1
 62
     7
100
AcDbSpline
210
0.0
220
0.0
230
1.0
 70
    11
 71
     3
 72
    12
 73
     8
 74
     0
 42
0.0000000001
 43
0.0000000001
 12
1.0
 22
0.0
 32
0.0
 13
1.0
 23
0.0
 33
0.0
 40
0.0
 40
0.0
 40
0.0
 40
0.0
 40
0.3333333333333333
 40
0.3333333333333333
 40
0.3333333333333333
 40
0.3333333333333333
 40
1.0
 40
1.0
 40
1.0
 40
1.0
 10
-23.0457
 20
77.5737
 30
0.0
 10
-21.8562
 20
77.8664
 30
0.0
 10
-19.5735
 20
79.4656
 30
0.0
 10
-19.5978
 20
81.299
 30
0.0
 10
-19.5978
 20
81.299
 30
0.0
 10
-21.139
 20
81.3482
 30
0.0
 10
-22.7771
 20
78.6961
 30
0.0
 10
-23.0457
 20
77.5737
 30
0.0
  0
SPLINE
  5
5C
330
1F
100
AcDbEntity
  8
layer 1
 62
     7
100
AcDbSpline
210
0.0
220
0.0
230
1.0
 70
    11
 71
     3
 72
    16
 73
    12
 74
     0
 42
0.0000000001
 43
0.0000000001
 12
1.0
 22
0.0
 32
0.0
 13
1.0
 23
0.0
 33
0.0
 40
0.0
 40
0.0
 40
0.0
 40
0.0
 40
0.25
 40
0.25
 40
0.25
 40
0.25
 40
0.5
 40
0.5
 40
0.5
 40
0.5
 40
1.0
 40
1.0
 40
1.0
 40
1.0
 10
-6.9469
 20
91.0329
 30
0.0
 10
-6.9469
 20
93.142
 30
0.0
 10
-6.9218
 20
96.483
 30
0.0
 10
-6.9469
 20
98.3204
 30
0.0
 10
-6.9469
 20
98.3204
 30
0.0
 10
-7.9812
 20
97.5447
 30
0.0
 10
-10.2364
 20
92.6507
 30
0.0
 10
-10.5137
 20
90.4751
 30
0.0
 10
-10.5137
 20
90.4751
 30
0.0
 10
-9.1131
 20
90.2822
 30
0.0
 10
-8.0936
 20
90.5728
 30
0.0
 10
-6.9469
 20
91.0329
 30
0.0
  0
SPLINE
  5
5D
330
1F
100
AcDbEntity
  8
layer 1
 62
     7
100
AcDbSpline
210
0.0
220
0.0
230
1.0
 70
    11
 71
     3
 72
    20
 73
    16
 74
     0
 42
0.0000000001
 43
0.0000000001
 12
1.0
 22
0.0
 32
0.0
 13
1.0
 23
0.0
 33
0.0
 40
0.0
 40
0.0
 40
0.0
 40
0.0
 40
0.2
 40
0.2
 40
0.2
 40
0.2
 40
0.4
 40
0.4
 40
0.4
 40
0.4
 40
0.6
 40
0.6
 40
0.6
 40
0.6
 40
1.0
 40
1.0
 40
1.0
 40
1.0
 10
-94.5826
 20
8.3101
 30
0.0
 10
-94.5826
 20
7.0616
 30
0.0
 10
-93.5695
 20
6.0486
 30
0.0
 10
-92.322
 20
6.0486
 30
0.0
 10
-92.322
 20
6.0486
 30
0.0
 10
-91.0705
 20
6.0486
 30
0.0
 10
-90.0605
 20
7.0616
 30
0.0
 10
-90.0605
 20
8.3101
 30
0.0
 10
-90.0605
 20
8.3101
 30
0.0
 10
-90.0605
 20
9.5614
 30
0.0
 10
-91.0705
 20
10.5713
 30
0.0
 10
-92.322
 20
10.5713
 30
0.0
 10
-92.322
 20
10.5713
 30
0.0
 10
-93.5693
 20
10.5713
 30
0.0
 10
-94.5826
 20
9.5614
 30
0.0
 10
-94.5826
 20
8.3101
 30
0.0
  0
SPLINE
  5
5E
330
1F
100
AcDbEntity
  8
layer 1
 62
     7
100
AcDbSpline
210
0.0
220
0.0
230
1.0
 70
    11
 71
     3
 72
    20
 73
    16
 74
     0
 42
0.0000000001
 43
0.0000000001
 12
1.0
 22
0.0
 32
0.0
 13
1.0
 23
0.0
 33
0.0
 40
0.0
 40
0.0
 40
0.0
 40
0.0
 40
0.2
 40
0.2
 40
0.2
 40
0.2
 40
0.4
 40
0.4
 40
0.4
 40
0.4
 40
0.6
 40
0.6
 40
0.6
 40
0.6
 40
1.0
 40
1.0
 40
1.0
 40
1.0
 10
-87.6405
 20
30.198
 30
0.0
 10
-85.9288
 20
29.9294
 30
0.0
 10
-83.9152
 20
30.4721
 30
0.0
 10
-82.2795
 20
31.9243
 30
0.0
 10
-82.2795
 20
31.9243
 30
0.0
 10
-82.0746
 20
29.7675
 30
0.0
 10
-81.7155
 20
28.4677
 30
0.0
 10
-79.9852
 20
26.8803
 30
0.0
 10
-79.9852
 20
26.8803
 30
0.0
 10
-81.8771
 20
26.6828
 30
0.0
 10
-83.9792
 20
26.1945
 30
0.0
 10
-85.1479
 20
25.2329
 30
0.0
 10
-85.1479
 20
25.2329
 30
0.0
 10
-85.8859
 20
27.6648
 30
0.0
 10
-86.2648
 20
29.1387
 30
0.0
 10
-87.6405
 20
30.198
 30
0.0
  0
SPLINE
  5
5F
330
1F
100
AcDbEntity
  8
layer 1
 62
     7
100
AcDbSpline
210
0.0
220
0.0
230
1.0
 70
    11
 71
     3
 72
    20
 73
    16
 74
     0
 42
0.0000000001
 43
0.0000000001
 12
1.0
 22
0.0
 32
0.0
 13
1.0
 23
0.0
 33
0.0
 40
0.0
 40
0.0
 40
0.0
 40
0.0
 40
0.2
 40
0.2
 40
0.2
 40
0.2
 40
0.4
 40
0.4
 40
0.4
 40
0.4
 40
0.6
 40
0.6
 40
0.6
 40
0.6
 40
1.0
 40
1.0
 40
1.0
 40
1.0
 10
-73.6625
 20
20.7172
 30
0.0
 10
-72.643
 20
19.3165
 30
0.0
 10
-70.8339
 20
18.2791
 30
0.0
 10
-68.6489
 20
18.1478
 30
0.0
 10
-68.6489
 20
18.1478
 30
0.0
 10
-70.0308
 20
16.4755
 30
0.0
 10
-70.6964
 20
15.3037
 30
0.0
 10
-70.5957
 20
12.957
 30
0.0
 10
-70.5957
 20
12.957
 30
0.0
 10
-72.0695
 20
14.1563
 30
0.0
 10
-73.9038
 20
15.2975
 30
0.0
 10
-75.4076
 20
15.4443
 30
0.0
 10
-75.4076
 20
15.4443
 30
0.0
 10
-74.2116
 20
17.687
 30
0.0
 10
-73.4366
 20
18.9963
 30
0.0
 10
-73.6625
 20
20.7172
 30
0.0
  0
SPLINE
  5
60
330
1F
100
AcDbEntity
  8
layer 1
 62
     7
100
AcDbSpline
210
0.0
220
0.0
230
1.0
 70
    11
 71
     3
 72
    16
 73
    12
 74
     0
 42
0.0000000001
 43
0.0000000001
 12
1.0
 22
0.0
 32
0.0
 13
1.0
 23
0.0
 33
0.0
 40
0.0
 40
0.0
 40
0.0
 40
0.0
 40
0.25
 40
0.25
 40
0.25
 40
0.25
 40
0.5
 40
0.5
 40
0.5
 40
0.5
 40
1.0
 40
1.0
 40
1.0
 40
1.0
 10
-85.1479
 20
21.6326
 30
0.0
 10
-81.4099
 20
23.0943
 30
0.0
 10
-77.3267
 20
20.3539
 30
0.0
 10
-78.2516
 20
15.0139
 30
0.0
 10
-78.2516
 20
15.0139
 30
0.0
 10
-79.2711
 20
16.7255
 30
0.0
 10
-81.1599
 20
17.7541
 30
0.0
 10
-83.0638
 20
17.501
 30
0.0
 10
-83.0638
 20
17.501
 30
0.0
 10
-82.9535
 20
18.9994
 30
0.0
 10
-83.5518
 20
20.653
 30
0.0
 10
-85.1479
 20
21.6326
 30
0.0
  0
SPLINE
  5
61
330
1F
100
AcDbEntity
  8
layer 1
 62
     7
100
AcDbSpline
210
0.0
220
0.0
230
1.0
 70
    11
 71
     3
 72
    16
 73
    12
 74
     0
 42
0.0000000001
 43
0.0000000001
 12
1.0
 22
0.0
 32
0.0
 13
1.0
 23
0.0
 33
0.0
 40
0.0
 40
0.0
 40
0.0
 40
0.0
 40
0.25
 40
0.25
 40
0.25
 40
0.25
 40
0.5
 40
0.5
 40
0.5
 40
0.5
 40
1.0
 40
1.0
 40
1.0
 40
1.0
 10
-78.0291
 20
12.7041
 30
0.0
 10
-74.3553
 20
11.0956
 30
0.0
 10
-73.403
 20
6.272
 30
0.0
 10
-77.8338
 20
3.1505
 30
0.0
 10
-77.8338
 20
3.1505
 30
0.0
 10
-77.3424
 20
5.0816
 30
0.0
 10
-77.9556
 20
7.1444
 30
0.0
 10
-79.4812
 20
8.3101
 30
0.0
 10
-79.4812
 20
8.3101
 30
0.0
 10
-78.34
 20
9.2928
 30
0.0
 10
-77.5955
 20
10.8855
 30
0.0
 10
-78.0291
 20
12.7041
 30
0.0
  0
SPLINE
  5
62
330
1F
100
AcDbEntity
  8
layer 1
 62
     7
100
AcDbSpline
210
0.0
220
0.0
230
1.0
 70
    11
 71
     3
 72
    16
 73
    12
 74
     0
 42
0.0000000001
 43
0.0000000001
 12
1.0
 22
0.0
 32
0.0
 13
1.0
 23
0.0
 33
0.0
 40
0.0
 40
0.0
 40
0.0
 40
0.0
 40
0.25
 40
0.25
 40
0.25
 40
0.25
 40
0.5
 40
0.5
 40
0.5
 40
0.5
 40
1.0
 40
1.0
 40
1.0
 40
1.0
 10
-96.5754
 20
22.6911
 30
0.0
 10
-94.9639
 20
26.3679
 30
0.0
 10
-90.1433
 20
27.3203
 30
0.0
 10
-87.0209
 20
22.8864
 30
0.0
 10
-87.0209
 20
22.8864
 30
0.0
 10
-88.9496
 20
23.3777
 30
0.0
 10
-91.0127
 20
22.7677
 30
0.0
 10
-92.1814
 20
21.242
 30
0.0
 10
-92.1814
 20
21.242
 30
0.0
 10
-93.1641
 20
22.3833
 30
0.0
 10
-94.7537
 20
23.1277
 30
0.0
 10
-96.5754
 20
22.6911
 30
0.0
  0
SPLINE
  5
63
330
1F
100
AcDbEntity
  8
layer 1
 62
     7
100
AcDbSpline
210
0.0
220
0.0
230
1.0
 70
    11
 71
     3
 72
    16
 73
    12
 74
     0
 42
0.0000000001
 43
0.0000000001
 12
1.0
 22
0.0
 32
0.0
 13
1.0
 23
0.0
 33
0.0
 40
0.0
 40
0.0
 40
0.0
 40
0.0
 40
0.25
 40
0.25
 40
0.25
 40
0.25
 40
0.5
 40
0.5
 40
0.5
 40
0.5
 40
1.0
 40
1.0
 40
1.0
 40
1.0
 10
-86.8201
 20
20.1555
 30
0.0
 10
-87.2444
 20
17.3668
 30
0.0
 10
-87.571
 20
16.1246
 30
0.0
 10
-88.3553
 20
13.0515
 30
0.0
 10
-88.3553
 20
13.0515
 30
0.0
 10
-89.2153
 20
13.7141
 30
0.0
 10
-90.2315
 20
14.4795
 30
0.0
 10
-91.2868
 20
14.4919
 30
0.0
 10
-91.2868
 20
14.4919
 30
0.0
 10
-89.8714
 20
16.7472
 30
0.0
 10
-88.4709
 20
18.5111
 30
0.0
 10
-86.8201
 20
20.1555
 30
0.0
  0
SPLINE
  5
64
330
1F
100
AcDbEntity
  8
layer 1
 62
     7
100
AcDbSpline
210
0.0
220
0.0
230
1.0
 70
    11
 71
     3
 72
    16
 73
    12
 74
     0
 42
0.0000000001
 43
0.0000000001
 12
1.0
 22
0.0
 32
0.0
 13
1.0
 23
0.0
 33
0.0
 40
0.0
 40
0.0
 40
0.0
 40
0.0
 40
0.25
 40
0.25
 40
0.25
 40
0.25
 40
0.5
 40
0.5
 40
0.5
 40
0.5
 40
1.0
 40
1.0
 40
1.0
 40
1.0
 10
-80.1039
 20
13.079
 30
0.0
 10
-82.3769
 20
11.4072
 30
0.0
 10
-83.4847
 20
10.7604
 30
0.0
 10
-86.2125
 20
9.1395
 30
0.0
 10
-86.2125
 20
9.1395
 30
0.0
 10
-86.3531
 20
10.2168
 30
0.0
 10
-86.5305
 20
11.4807
 30
0.0
 10
-87.2687
 20
12.2338
 30
0.0
 10
-87.2687
 20
12.2338
 30
0.0
 10
-84.672
 20
12.8259
 30
0.0
 10
-82.4349
 20
13.0852
 30
0.0
 10
-80.1039
 20
13.079
 30
0.0
  0
SPLINE
  5
65
330
1F
100
AcDbEntity
  8
layer 1
 62
     7
100
AcDbSpline
210
0.0
220
0.0
230
1.0
 70
    11
 71
     3
 72
    16
 73
    12
 74
     0
 42
0.0000000001
 43
0.0000000001
 12
1.0
 22
0.0
 32
0.0
 13
1.0
 23
0.0
 33
0.0
 40
0.0
 40
0.0
 40
0.0
 40
0.0
 40
0.25
 40
0.25
 40
0.25
 40
0.25
 40
0.5
 40
0.5
 40
0.5
 40
0.5
 40
1.0
 40
1.0
 40
1.0
 40
1.0
 10
-106.91
 20
122.6089
 30
0.0
 10
-107.1029
 20
120.1928
 30
0.0
 10
-106.4774
 20
118.6422
 30
0.0
 10
-105.2626
 20
116.5948
 30
0.0
 10
-105.2626
 20
116.5948
 30
0.0
 10
-112.6227
 20
118.215
 30
0.0
 10
-113.8156
 20
120.9154
 30
0.0
 10
-114.1818
 20
122.6089
 30
0.0
 10
-114.1818
 20
122.6089
 30
0.0
 10
-114.1818
 20
122.6089
 30
0.0
 10
-106.91
 20
122.6089
 30
0.0
 10
-106.91
 20
122.6089
 30
0.0
  0
SPLINE
  5
66
330
1F
100
AcDbEntity
  8
layer 1
 62
     7
100
AcDbSpline
210
0.0
220
0.0
230
1.0
 70
    11
 71
     3
 72
    20
 73
    16
 74
     0
 42
0.0000000001
 43
0.0000000001
 12
1.0
 22
0.0
 32
0.0
 13
1.0
 23
0.0
 33
0.0
 40
0.0
 40
0.0
 40
0.0
 40
0.0
 40
0.2
 40
0.2
 40
0.2
 40
0.2
 40
0.4
 40
0.4
 40
0.4
 40
0.4
 40
0.6
 40
0.6
 40
0.6
 40
0.6
 40
1.0
 40
1.0
 40
1.0
 40
1.0
 10
-120.4616
 20
122.6089
 30
0.0
 10
-119.9607
 20
120.7451
 30
0.0
 10
-117.9532
 20
118.4351
 30
0.0
 10
-115.8419
 20
117.4947
 30
0.0
 10
-115.8419
 20
117.4947
 30
0.0
 10
-118.2555
 20
117.3729
 30
0.0
 10
-121.3161
 20
116.8541
 30
0.0
 10
-122.8238
 20
115.237
 30
0.0
 10
-122.8238
 20
115.237
 30
0.0
 10
-122.2317
 20
118.3494
 30
0.0
 10
-123.1223
 20
120.403
 30
0.0
 10
-126.1437
 20
122.6089
 30
0.0
 10
-126.1437
 20
122.6089
 30
0.0
 10
-126.1437
 20
122.6089
 30
0.0
 10
-120.4616
 20
122.6089
 30
0.0
 10
-120.4616
 20
122.6089
 30
0.0
  0
SPLINE
  5
67
330
1F
100
AcDbEntity
  8
layer 1
 62
     7
100
AcDbSpline
210
0.0
220
0.0
230
1.0
 70
    11
 71
     3
 72
    12
 73
     8
 74
     0
 42
0.0000000001
 43
0.0000000001
 12
1.0
 22
0.0
 32
0.0
 13
1.0
 23
0.0
 33
0.0
 40
0.0
 40
0.0
 40
0.0
 40
0.0
 40
0.3333333333333333
 40
0.3333333333333333
 40
0.3333333333333333
 40
0.3333333333333333
 40
1.0
 40
1.0
 40
1.0
 40
1.0
 10
-141.4091
 20
122.6089
 30
0.0
 10
-145.0344
 20
120.7358
 30
0.0
 10
-152.7335
 20
120.653
 30
0.0
 10
-155.3878
 20
122.6089
 30
0.0
 10
-155.3878
 20
122.6089
 30
0.0
 10
-155.3878
 20
122.6089
 30
0.0
 10
-141.4091
 20
122.6089
 30
0.0
 10
-141.4091
 20
122.6089
 30
0.0
  0
SPLINE
  5
68
330
1F
100
AcDbEntity
  8
layer 1
 62
     7
100
AcDbSpline
210
0.0
220
0.0
230
1.0
 70
    11
 71
     3
 72
    36
 73
    32
 74
     0
 42
0.0000000001
 43
0.0000000001
 12
1.0
 22
0.0
 32
0.0
 13
1.0
 23
0.0
 33
0.0
 40
0.0
 40
0.0
 40
0.0
 40
0.0
 40
0.1111111111111111
 40
0.1111111111111111
 40
0.1111111111111111
 40
0.1111111111111111
 40
0.2222222222222222
 40
0.2222222222222222
 40
0.2222222222222222
 40
0.2222222222222222
 40
0.3333333333333333
 40
0.3333333333333333
 40
0.3333333333333333
 40
0.3333333333333333
 40
0.4444444444444444
 40
0.4444444444444444
 40
0.4444444444444444
 40
0.4444444444444444
 40
0.5555555555555556
 40
0.5555555555555556
 40
0.5555555555555556
 40
0.5555555555555556
 40
0.6666666666666666
 40
0.6666666666666666
 40
0.6666666666666666
 40
0.6666666666666666
 40
0.7777777777777778
 40
0.7777777777777778
 40
0.7777777777777778
 40
0.7777777777777778
 40
1.0
 40
1.0
 40
1.0
 40
1.0
 10
-177.5321
 20
117.7908
 30
0.0
 10
-174.2973
 20
115.9449
 30
0.0
 10
-170.3244
 20
116.7775
 30
0.0
 10
-169.9705
 20
120.1616
 30
0.0
 10
-169.9705
 20
120.1616
 30
0.0
 10
-163.7853
 20
119.4116
 30
0.0
 10
-165.6132
 20
115.762
 30
0.0
 10
-161.848
 20
114.648
 30
0.0
 10
-161.848
 20
114.648
 30
0.0
 10
-166.599
 20
110.9924
 30
0.0
 10
-162.3449
 20
107.7059
 30
0.0
 10
-160.2061
 20
107.9136
 30
0.0
 10
-160.2061
 20
107.9136
 30
0.0
 10
-155.516
 20
106.1867
 30
0.0
 10
-155.6105
 20
98.3414
 30
0.0
 10
-159.6539
 20
94.6918
 30
0.0
 10
-159.6539
 20
94.6918
 30
0.0
 10
-160.8715
 20
99.8702
 30
0.0
 10
-167.2912
 20
105.5882
 30
0.0
 10
-171.3806
 20
99.3514
 30
0.0
 10
-171.3806
 20
99.3514
 30
0.0
 10
-174.1598
 20
103.9166
 30
0.0
 10
-175.7831
 20
108.2677
 30
0.0
 10
-174.6511
 20
113.1405
 30
0.0
 10
-174.6511
 20
113.1405
 30
0.0
 10
-176.1799
 20
112.6312
 30
0.0
 10
-176.9212
 20
112.2585
 30
0.0
 10
-177.5321
 20
111.4257
 30
0.0
 10
-177.5321
 20
111.4257
 30
0.0
 10
-177.5321
 20
111.4257
 30
0.0
 10
-177.5321
 20
117.7908
 30
0.0
 10
-177.5321
 20
117.7908
 30
0.0
  0
SPLINE
  5
69
330
1F
100
AcDbEntity
  8
layer 1
 62
     7
100
AcDbSpline
210
0.0
220
0.0
230
1.0
 70
    11
 71
     3
 72
    24
 73
    20
 74
     0
 42
0.0000000001
 43
0.0000000001
 12
1.0
 22
0.0
 32
0.0
 13
1.0
 23
0.0
 33
0.0
 40
0.0
 40
0.0
 40
0.0
 40
0.0
 40
0.1666666666666667
 40
0.1666666666666667
 40
0.1666666666666667
 40
0.1666666666666667
 40
0.3333333333333333
 40
0.3333333333333333
 40
0.3333333333333333
 40
0.3333333333333333
 40
0.5
 40
0.5
 40
0.5
 40
0.5
 40
0.6666666666666666
 40
0.6666666666666666
 40
0.6666666666666666
 40
0.6666666666666666
 40
1.0
 40
1.0
 40
1.0
 40
1.0
 10
-146.667
 20
117.7203
 30
0.0
 10
-148.4152
 20
116.7354
 30
0.0
 10
-151.1985
 20
110.6142
 30
0.0
 10
-145.7609
 20
105.3718
 30
0.0
 10
-145.7609
 20
105.3718
 30
0.0
 10
-148.4581
 20
105.4148
 30
0.0
 10
-150.6002
 20
104.2485
 30
0.0
 10
-152.3546
 20
102.4332
 30
0.0
 10
-152.3546
 20
102.4332
 30
0.0
 10
-151.4
 20
104.6885
 30
0.0
 10
-152.1781
 20
114.791
 30
0.0
 10
-159.492
 20
114.8464
 30
0.0
 10
-159.492
 20
114.8464
 30
0.0
 10
-157.5297
 20
116.0027
 30
0.0
 10
-157.054
 20
117.1743
 30
0.0
 10
-157.1393
 20
118.8952
 30
0.0
 10
-157.1393
 20
118.8952
 30
0.0
 10
-154.2255
 20
117.4276
 30
0.0
 10
-150.8321
 20
116.6464
 30
0.0
 10
-146.667
 20
117.7203
 30
0.0
  0
SPLINE
  5
6A
330
1F
100
AcDbEntity
  8
layer 1
 62
     7
100
AcDbSpline
210
0.0
220
0.0
230
1.0
 70
    11
 71
     3
 72
    24
 73
    20
 74
     0
 42
0.0000000001
 43
0.0000000001
 12
1.0
 22
0.0
 32
0.0
 13
1.0
 23
0.0
 33
0.0
 40
0.0
 40
0.0
 40
0.0
 40
0.0
 40
0.1666666666666667
 40
0.1666666666666667
 40
0.1666666666666667
 40
0.1666666666666667
 40
0.3333333333333333
 40
0.3333333333333333
 40
0.3333333333333333
 40
0.3333333333333333
 40
0.5
 40
0.5
 40
0.5
 40
0.5
 40
0.6666666666666666
 40
0.6666666666666666
 40
0.6666666666666666
 40
0.6666666666666666
 40
1.0
 40
1.0
 40
1.0
 40
1.0
 10
-131.7062
 20
119.2861
 30
0.0
 10
-128.8591
 20
119.1796
 30
0.0
 10
-125.0939
 20
116.2839
 30
0.0
 10
-127.4771
 20
111.3345
 30
0.0
 10
-127.4771
 20
111.3345
 30
0.0
 10
-130.565
 20
105.7102
 30
0.0
 10
-133.6834
 20
104.0532
 30
0.0
 10
-139.35
 20
105.6617
 30
0.0
 10
-139.35
 20
105.6617
 30
0.0
 10
-147.488
 20
109.1862
 30
0.0
 10
-143.4753
 20
114.8887
 30
0.0
 10
-141.9895
 20
114.456
 30
0.0
 10
-141.9895
 20
114.456
 30
0.0
 10
-144.9157
 20
107.7918
 30
0.0
 10
-135.5419
 20
108.0817
 30
0.0
 10
-135.2363
 20
112.5398
 30
0.0
 10
-135.2363
 20
112.5398
 30
0.0
 10
-129.976
 20
109.9003
 30
0.0
 10
-127.5591
 20
115.7651
 30
0.0
 10
-131.7062
 20
119.2861
 30
0.0
  0
SPLINE
  5
6B
330
1F
100
AcDbEntity
  8
layer 1
 62
     7
100
AcDbSpline
210
0.0
220
0.0
230
1.0
 70
    11
 71
     3
 72
    24
 73
    20
 74
     0
 42
0.0000000001
 43
0.0000000001
 12
1.0
 22
0.0
 32
0.0
 13
1.0
 23
0.0
 33
0.0
 40
0.0
 40
0.0
 40
0.0
 40
0.0
 40
0.1666666666666667
 40
0.1666666666666667
 40
0.1666666666666667
 40
0.1666666666666667
 40
0.3333333333333333
 40
0.3333333333333333
 40
0.3333333333333333
 40
0.3333333333333333
 40
0.5
 40
0.5
 40
0.5
 40
0.5
 40
0.6666666666666666
 40
0.6666666666666666
 40
0.6666666666666666
 40
0.6666666666666666
 40
1.0
 40
1.0
 40
1.0
 40
1.0
 10
-128.8715
 20
105.5
 30
0.0
 10
-129.1518
 20
103.5346
 30
0.0
 10
-129.0028
 20
97.4134
 30
0.0
 10
-124.8377
 20
94.9084
 30
0.0
 10
-124.8377
 20
94.9084
 30
0.0
 10
-124.3946
 20
90.1518
 30
0.0
 10
-124.2299
 20
86.9568
 30
0.0
 10
-124.0534
 20
84.6437
 30
0.0
 10
-124.0534
 20
84.6437
 30
0.0
 10
-125.7101
 20
86.3523
 30
0.0
 10
-127.6505
 20
90.3221
 30
0.0
 10
-130.3511
 20
92.2601
 30
0.0
 10
-130.3511
 20
92.2601
 30
0.0
 10
-129.759
 20
95.3723
 30
0.0
 10
-131.8249
 20
100.4561
 30
0.0
 10
-134.8457
 20
102.662
 30
0.0
 10
-134.8457
 20
102.662
 30
0.0
 10
-132.8107
 20
103.1533
 30
0.0
 10
-129.8081
 20
104.4228
 30
0.0
 10
-128.8715
 20
105.5
 30
0.0
  0
SPLINE
  5
6C
330
1F
100
AcDbEntity
  8
layer 1
 62
     7
100
AcDbSpline
210
0.0
220
0.0
230
1.0
 70
    11
 71
     3
 72
    44
 73
    40
 74
     0
 42
0.0000000001
 43
0.0000000001
 12
1.0
 22
0.0
 32
0.0
 13
1.0
 23
0.0
 33
0.0
 40
0.0
 40
0.0
 40
0.0
 40
0.0
 40
0.0909090909090909
 40
0.0909090909090909
 40
0.0909090909090909
 40
0.0909090909090909
 40
0.1818181818181818
 40
0.1818181818181818
 40
0.1818181818181818
 40
0.1818181818181818
 40
0.2727272727272727
 40
0.2727272727272727
 40
0.2727272727272727
 40
0.2727272727272727
 40
0.3636363636363636
 40
0.3636363636363636
 40
0.3636363636363636
 40
0.3636363636363636
 40
0.4545454545454545
 40
0.4545454545454545
 40
0.4545454545454545
 40
0.4545454545454545
 40
0.5454545454545454
 40
0.5454545454545454
 40
0.5454545454545454
 40
0.5454545454545454
 40
0.6363636363636364
 40
0.6363636363636364
 40
0.6363636363636364
 40
0.6363636363636364
 40
0.7272727272727273
 40
0.7272727272727273
 40
0.7272727272727273
 40
0.7272727272727273
 40
0.8181818181818182
 40
0.8181818181818182
 40
0.8181818181818182
 40
0.8181818181818182
 40
1.0
 40
1.0
 40
1.0
 40
1.0
 10
-111.1518
 20
63.3909
 30
0.0
 10
-99.4952
 20
66.5945
 30
0.0
 10
-92.297
 20
55.3842
 30
0.0
 10
-99.6571
 20
52.0758
 30
0.0
 10
-99.6571
 20
52.0758
 30
0.0
 10
-97.4846
 20
56.5464
 30
0.0
 10
-102.7731
 20
61.2731
 30
0.0
 10
-106.8764
 20
56.0402
 30
0.0
 10
-106.8764
 20
56.0402
 30
0.0
 10
-110.5417
 20
51.365
 30
0.0
 10
-106.8217
 20
46.5805
 30
0.0
 10
-102.6754
 20
45.8086
 30
0.0
 10
-102.6754
 20
45.8086
 30
0.0
 10
-104.0111
 20
44.4417
 30
0.0
 10
-104.8572
 20
41.9176
 30
0.0
 10
-105.2836
 20
39.4985
 30
0.0
 10
-105.2836
 20
39.4985
 30
0.0
 10
-107.1882
 20
40.9874
 30
0.0
 10
-109.5769
 20
41.8326
 30
0.0
 10
-111.6861
 20
41.8873
 30
0.0
 10
-111.6861
 20
41.8873
 30
0.0
 10
-110.7581
 20
42.8215
 30
0.0
 10
-107.8223
 20
49.156
 30
0.0
 10
-114.4287
 20
52.4453
 30
0.0
 10
-114.4287
 20
52.4453
 30
0.0
 10
-119.0484
 20
54.7491
 30
0.0
 10
-124.9533
 20
47.6427
 30
0.0
 10
-117.7947
 20
44.6337
 30
0.0
 10
-117.7947
 20
44.6337
 30
0.0
 10
-122.2738
 20
41.3264
 30
0.0
 10
-130.4917
 20
52.2775
 30
0.0
 10
-117.9594
 20
60.3451
 30
0.0
 10
-117.9594
 20
60.3451
 30
0.0
 10
-116.019
 20
55.8387
 30
0.0
 10
-113.3607
 20
55.4386
 30
0.0
 10
-111.9571
 20
56.0152
 30
0.0
 10
-111.9571
 20
56.0152
 30
0.0
 10
-110.1876
 20
56.7417
 30
0.0
 10
-109.4676
 20
59.5577
 30
0.0
 10
-111.1518
 20
63.3909
 30
0.0
  0
SPLINE
  5
6D
330
1F
100
AcDbEntity
  8
layer 1
 62
     7
100
AcDbSpline
210
0.0
220
0.0
230
1.0
 70
    11
 71
     3
 72
    44
 73
    40
 74
     0
 42
0.0000000001
 43
0.0000000001
 12
1.0
 22
0.0
 32
0.0
 13
1.0
 23
0.0
 33
0.0
 40
0.0
 40
0.0
 40
0.0
 40
0.0
 40
0.0909090909090909
 40
0.0909090909090909
 40
0.0909090909090909
 40
0.0909090909090909
 40
0.1818181818181818
 40
0.1818181818181818
 40
0.1818181818181818
 40
0.1818181818181818
 40
0.2727272727272727
 40
0.2727272727272727
 40
0.2727272727272727
 40
0.2727272727272727
 40
0.3636363636363636
 40
0.3636363636363636
 40
0.3636363636363636
 40
0.3636363636363636
 40
0.4545454545454545
 40
0.4545454545454545
 40
0.4545454545454545
 40
0.4545454545454545
 40
0.5454545454545454
 40
0.5454545454545454
 40
0.5454545454545454
 40
0.5454545454545454
 40
0.6363636363636364
 40
0.6363636363636364
 40
0.6363636363636364
 40
0.6363636363636364
 40
0.7272727272727273
 40
0.7272727272727273
 40
0.7272727272727273
 40
0.7272727272727273
 40
0.8181818181818182
 40
0.8181818181818182
 40
0.8181818181818182
 40
0.8181818181818182
 40
1.0
 40
1.0
 40
1.0
 40
1.0
 10
-144.3752
 20
34.0336
 30
0.0
 10
-138.4008
 20
44.5423
 30
0.0
 10
-125.3835
 20
41.7044
 30
0.0
 10
-128.2488
 20
34.1616
 30
0.0
 10
-128.2488
 20
34.1616
 30
0.0
 10
-129.8752
 20
38.8573
 30
0.0
 10
-136.9541
 20
38.4642
 30
0.0
 10
-136.1581
 20
31.8603
 30
0.0
 10
-136.1581
 20
31.8603
 30
0.0
 10
-135.4442
 20
25.9627
 30
0.0
 10
-129.4299
 20
25.2087
 30
0.0
 10
-125.9508
 20
27.5944
 30
0.0
 10
-125.9508
 20
27.5944
 30
0.0
 10
-125.9296
 20
25.6846
 30
0.0
 10
-124.7431
 20
23.3011
 30
0.0
 10
-123.3362
 20
21.2905
 30
0.0
 10
-123.3362
 20
21.2905
 30
0.0
 10
-125.7343
 20
20.9945
 30
0.0
 10
-128.0201
 20
19.9055
 30
0.0
 10
-129.552
 20
18.4524
 30
0.0
 10
-129.552
 20
18.4524
 30
0.0
 10
-129.5551
 20
19.768
 30
0.0
 10
-131.9593
 20
26.3227
 30
0.0
 10
-138.9563
 20
23.9791
 30
0.0
 10
-138.9563
 20
23.9791
 30
0.0
 10
-143.8502
 20
22.3372
 30
0.0
 10
-142.9994
 20
13.1406
 30
0.0
 10
-135.8129
 20
16.0723
 30
0.0
 10
-135.8129
 20
16.0723
 30
0.0
 10
-136.6402
 20
10.5653
 30
0.0
 10
-150.1948
 20
12.5024
 30
0.0
 10
-147.0396
 20
27.0672
 30
0.0
 10
-147.0396
 20
27.0672
 30
0.0
 10
-142.4808
 20
25.2541
 30
0.0
 10
-140.317
 20
26.85
 30
0.0
 10
-139.7311
 20
28.2505
 30
0.0
 10
-139.7311
 20
28.2505
 30
0.0
 10
-138.9929
 20
30.0144
 30
0.0
 10
-140.4756
 20
32.5133
 30
0.0
 10
-144.3752
 20
34.0336
 30
0.0
  0
SPLINE
  5
6E
330
1F
100
AcDbEntity
  8
layer 1
 62
     7
100
AcDbSpline
210
0.0
220
0.0
230
1.0
 70
    11
 71
     3
 72
    20
 73
    16
 74
     0
 42
0.0000000001
 43
0.0000000001
 12
1.0
 22
0.0
 32
0.0
 13
1.0
 23
0.0
 33
0.0
 40
0.0
 40
0.0
 40
0.0
 40
0.0
 40
0.2
 40
0.2
 40
0.2
 40
0.2
 40
0.4
 40
0.4
 40
0.4
 40
0.4
 40
0.6
 40
0.6
 40
0.6
 40
0.6
 40
1.0
 40
1.0
 40
1.0
 40
1.0
 10
-123.5893
 20
58.8743
 30
0.0
 10
-131.111
 20
57.1503
 30
0.0
 10
-142.8987
 20
58.9906
 30
0.0
 10
-147.463
 20
63.5098
 30
0.0
 10
-147.463
 20
63.5098
 30
0.0
 10
-142.941
 20
58.9445
 30
0.0
 10
-141.1044
 20
47.1569
 30
0.0
 10
-142.8285
 20
39.636
 30
0.0
 10
-142.8285
 20
39.636
 30
0.0
 10
-139.7827
 20
44.3315
 30
0.0
 10
-134.8886
 20
45.8821
 30
0.0
 10
-127.895
 20
43.9409
 30
0.0
 10
-127.895
 20
43.9409
 30
0.0
 10
-129.8323
 20
50.9347
 30
0.0
 10
-128.2856
 20
55.8292
 30
0.0
 10
-123.5893
 20
58.8743
 30
0.0
  0
SPLINE
  5
6F
330
1F
100
AcDbEntity
  8
layer 1
 62
     7
100
AcDbSpline
210
0.0
220
0.0
230
1.0
 70
    11
 71
     3
 72
    36
 73
    32
 74
     0
 42
0.0000000001
 43
0.0000000001
 12
1.0
 22
0.0
 32
0.0
 13
1.0
 23
0.0
 33
0.0
 40
0.0
 40
0.0
 40
0.0
 40
0.0
 40
0.1111111111111111
 40
0.1111111111111111
 40
0.1111111111111111
 40
0.1111111111111111
 40
0.2222222222222222
 40
0.2222222222222222
 40
0.2222222222222222
 40
0.2222222222222222
 40
0.3333333333333333
 40
0.3333333333333333
 40
0.3333333333333333
 40
0.3333333333333333
 40
0.4444444444444444
 40
0.4444444444444444
 40
0.4444444444444444
 40
0.4444444444444444
 40
0.5555555555555556
 40
0.5555555555555556
 40
0.5555555555555556
 40
0.5555555555555556
 40
0.6666666666666666
 40
0.6666666666666666
 40
0.6666666666666666
 40
0.6666666666666666
 40
0.7777777777777778
 40
0.7777777777777778
 40
0.7777777777777778
 40
0.7777777777777778
 40
1.0
 40
1.0
 40
1.0
 40
1.0
 10
-110.4837
 20
35.9435
 30
0.0
 10
-108.3325
 20
35.6536
 30
0.0
 10
-106.029
 20
33.3649
 30
0.0
 10
-108.2747
 20
29.3887
 30
0.0
 10
-108.2747
 20
29.3887
 30
0.0
 10
-101.824
 20
33.2577
 30
0.0
 10
-108.1248
 20
40.8592
 30
0.0
 10
-113.0647
 20
40.3555
 30
0.0
 10
-113.0647
 20
40.3555
 30
0.0
 10
-115.0122
 20
38.5705
 30
0.0
 10
-119.4578
 20
37.4722
 30
0.0
 10
-123.1832
 20
39.4797
 30
0.0
 10
-123.1832
 20
39.4797
 30
0.0
 10
-121.1755
 20
35.7544
 30
0.0
 10
-122.2738
 20
31.3049
 30
0.0
 10
-124.0618
 20
29.3614
 30
0.0
 10
-124.0618
 20
29.3614
 30
0.0
 10
-124.5627
 20
24.4213
 30
0.0
 10
-116.9652
 20
18.1205
 30
0.0
 10
-113.0921
 20
24.5675
 30
0.0
 10
-113.0921
 20
24.5675
 30
0.0
 10
-117.0682
 20
22.3217
 30
0.0
 10
-119.3602
 20
24.629
 30
0.0
 10
-119.6467
 20
26.7773
 30
0.0
 10
-119.6467
 20
26.7773
 30
0.0
 10
-119.9335
 20
28.9192
 30
0.0
 10
-117.4714
 20
31.244
 30
0.0
 10
-114.4537
 20
30.7502
 30
0.0
 10
-114.4537
 20
30.7502
 30
0.0
 10
-114.9473
 20
33.7648
 30
0.0
 10
-112.6227
 20
36.23
 30
0.0
 10
-110.4837
 20
35.9435
 30
0.0
  0
SPLINE
  5
70
330
1F
100
AcDbEntity
  8
layer 1
 62
     7
100
AcDbSpline
210
0.0
220
0.0
230
1.0
 70
    11
 71
     3
 72
    36
 73
    32
 74
     0
 42
0.0000000001
 43
0.0000000001
 12
1.0
 22
0.0
 32
0.0
 13
1.0
 23
0.0
 33
0.0
 40
0.0
 40
0.0
 40
0.0
 40
0.0
 40
0.1111111111111111
 40
0.1111111111111111
 40
0.1111111111111111
 40
0.1111111111111111
 40
0.2222222222222222
 40
0.2222222222222222
 40
0.2222222222222222
 40
0.2222222222222222
 40
0.3333333333333333
 40
0.3333333333333333
 40
0.3333333333333333
 40
0.3333333333333333
 40
0.4444444444444444
 40
0.4444444444444444
 40
0.4444444444444444
 40
0.4444444444444444
 40
0.5555555555555556
 40
0.5555555555555556
 40
0.5555555555555556
 40
0.5555555555555556
 40
0.6666666666666666
 40
0.6666666666666666
 40
0.6666666666666666
 40
0.6666666666666666
 40
0.7777777777777778
 40
0.7777777777777778
 40
0.7777777777777778
 40
0.7777777777777778
 40
1.0
 40
1.0
 40
1.0
 40
1.0
 10
-124.3494
 20
14.7913
 30
0.0
 10
-122.6254
 20
16.106
 30
0.0
 10
-119.375
 20
16.1184
 30
0.0
 10
-118.1547
 20
11.7181
 30
0.0
 10
-118.1547
 20
11.7181
 30
0.0
 10
-116.3299
 20
19.0173
 30
0.0
 10
-126.1585
 20
19.9358
 30
0.0
 10
-129.2989
 20
16.0849
 30
0.0
 10
-129.2989
 20
16.0849
 30
0.0
 10
-129.4113
 20
13.4486
 30
0.0
 10
-131.7758
 20
9.5277
 30
0.0
 10
-135.8348
 20
8.3101
 30
0.0
 10
-135.8348
 20
8.3101
 30
0.0
 10
-131.7758
 20
7.0953
 30
0.0
 10
-129.4113
 20
3.1746
 30
0.0
 10
-129.2989
 20
0.5383
 30
0.0
 10
-129.2989
 20
0.5383
 30
0.0
 10
-126.1585
 20
-3.3128
 30
0.0
 10
-116.3299
 20
-2.3943
 30
0.0
 10
-118.1547
 20
4.9018
 30
0.0
 10
-118.1547
 20
4.9018
 30
0.0
 10
-119.375
 20
0.5046
 30
0.0
 10
-122.6254
 20
0.5139
 30
0.0
 10
-124.3494
 20
1.8319
 30
0.0
 10
-124.3494
 20
1.8319
 30
0.0
 10
-126.064
 20
3.1412
 30
0.0
 10
-125.9694
 20
6.5282
 30
0.0
 10
-123.4854
 20
8.3101
 30
0.0
 10
-123.4854
 20
8.3101
 30
0.0
 10
-125.9694
 20
10.095
 30
0.0
 10
-126.064
 20
13.482
 30
0.0
 10
-124.3494
 20
14.7913
 30
0.0
  0
SPLINE
  5
71
330
1F
100
AcDbEntity
  8
layer 1
 62
     7
100
AcDbSpline
210
0.0
220
0.0
230
1.0
 70
    11
 71
     3
 72
    20
 73
    16
 74
     0
 42
0.0000000001
 43
0.0000000001
 12
1.0
 22
0.0
 32
0.0
 13
1.0
 23
0.0
 33
0.0
 40
0.0
 40
0.0
 40
0.0
 40
0.0
 40
0.2
 40
0.2
 40
0.2
 40
0.2
 40
0.4
 40
0.4
 40
0.4
 40
0.4
 40
0.6
 40
0.6
 40
0.6
 40
0.6
 40
1.0
 40
1.0
 40
1.0
 40
1.0
 10
-150.4291
 20
21.9163
 30
0.0
 10
-154.5302
 20
15.3772
 30
0.0
 10
-164.1633
 20
8.3404
 30
0.0
 10
-170.5899
 20
8.3101
 30
0.0
 10
-170.5899
 20
8.3101
 30
0.0
 10
-164.1633
 20
8.2795
 30
0.0
 10
-154.5302
 20
1.246
 30
0.0
 10
-150.4291
 20
-5.2931
 30
0.0
 10
-150.4291
 20
-5.2931
 30
0.0
 10
-151.5978
 20
0.1813
 30
0.0
 10
-149.23
 20
4.7371
 30
0.0
 10
-142.9135
 20
8.3101
 30
0.0
 10
-142.9135
 20
8.3101
 30
0.0
 10
-149.23
 20
11.8862
 30
0.0
 10
-151.5978
 20
16.4419
 30
0.0
 10
-150.4291
 20
21.9163
 30
0.0
  0
SPLINE
  5
72
330
1F
100
AcDbEntity
  8
layer 1
 62
     7
100
AcDbSpline
210
0.0
220
0.0
230
1.0
 70
    11
 71
     3
 72
    52
 73
    48
 74
     0
 42
0.0000000001
 43
0.0000000001
 12
1.0
 22
0.0
 32
0.0
 13
1.0
 23
0.0
 33
0.0
 40
0.0
 40
0.0
 40
0.0
 40
0.0
 40
0.0769230769230769
 40
0.0769230769230769
 40
0.0769230769230769
 40
0.0769230769230769
 40
0.1538461538461539
 40
0.1538461538461539
 40
0.1538461538461539
 40
0.1538461538461539
 40
0.2307692307692308
 40
0.2307692307692308
 40
0.2307692307692308
 40
0.2307692307692308
 40
0.3076923076923077
 40
0.3076923076923077
 40
0.3076923076923077
 40
0.3076923076923077
 40
0.3846153846153846
 40
0.3846153846153846
 40
0.3846153846153846
 40
0.3846153846153846
 40
0.4615384615384616
 40
0.4615384615384616
 40
0.4615384615384616
 40
0.4615384615384616
 40
0.5384615384615384
 40
0.5384615384615384
 40
0.5384615384615384
 40
0.5384615384615384
 40
0.6153846153846154
 40
0.6153846153846154
 40
0.6153846153846154
 40
0.6153846153846154
 40
0.6923076923076923
 40
0.6923076923076923
 40
0.6923076923076923
 40
0.6923076923076923
 40
0.7692307692307693
 40
0.7692307692307693
 40
0.7692307692307693
 40
0.7692307692307693
 40
0.8461538461538461
 40
0.8461538461538461
 40
0.8461538461538461
 40
0.8461538461538461
 40
1.0
 40
1.0
 40
1.0
 40
1.0
 10
-110.8313
 20
113.168
 30
0.0
 10
-108.3597
 20
113.1562
 30
0.0
 10
-93.2219
 20
110.0557
 30
0.0
 10
-94.7021
 20
90.8836
 30
0.0
 10
-94.7021
 20
90.8836
 30
0.0
 10
-97.2315
 20
98.2407
 30
0.0
 10
-102.9044
 20
96.4557
 30
0.0
 10
-103.2245
 20
93.8741
 30
0.0
 10
-103.2245
 20
93.8741
 30
0.0
 10
-104.0142
 20
87.5544
 30
0.0
 10
-93.2797
 20
89.0925
 30
0.0
 10
-98.5041
 20
77.0792
 30
0.0
 10
-98.5041
 20
77.0792
 30
0.0
 10
-98.3329
 20
83.1489
 30
0.0
 10
-100.7069
 20
88.2599
 30
0.0
 10
-105.5071
 20
85.3337
 30
0.0
 10
-105.5071
 20
85.3337
 30
0.0
 10
-109.1042
 20
78.5963
 30
0.0
 10
-96.0777
 20
77.3846
 30
0.0
 10
-106.55
 20
67.7818
 30
0.0
 10
-106.55
 20
67.7818
 30
0.0
 10
-102.9254
 20
76.4754
 30
0.0
 10
-106.9561
 20
82.3581
 30
0.0
 10
-111.6555
 20
77.8454
 30
0.0
 10
-111.6555
 20
77.8454
 30
0.0
 10
-114.145
 20
82.4956
 30
0.0
 10
-117.8766
 20
77.5947
 30
0.0
 10
-120.4919
 20
85.3304
 30
0.0
 10
-120.4919
 20
85.3304
 30
0.0
 10
-118.5666
 20
84.2135
 30
0.0
 10
-114.7403
 20
81.3238
 30
0.0
 10
-112.8694
 20
85.1258
 30
0.0
 10
-112.8694
 20
85.1258
 30
0.0
 10
-111.832
 20
91.5705
 30
0.0
 10
-119.7014
 20
89.59
 30
0.0
 10
-121.0537
 20
93.0749
 30
0.0
 10
-121.0537
 20
93.0749
 30
0.0
 10
-114.545
 20
90.3956
 30
0.0
 10
-107.5819
 20
99.0766
 30
0.0
 10
-112.3876
 20
104.258
 30
0.0
 10
-112.3876
 20
104.258
 30
0.0
 10
-116.7542
 20
108.9692
 30
0.0
 10
-123.1683
 20
103.9104
 30
0.0
 10
-121.5787
 20
99.1742
 30
0.0
 10
-121.5787
 20
99.1742
 30
0.0
 10
-126.3999
 20
104.3712
 30
0.0
 10
-121.0475
 20
115.2518
 30
0.0
 10
-110.8313
 20
113.168
 30
0.0
  0
SPLINE
  5
73
330
1F
100
AcDbEntity
  8
layer 1
 62
     7
100
AcDbSpline
210
0.0
220
0.0
230
1.0
 70
    11
 71
     3
 72
    28
 73
    24
 74
     0
 42
0.0000000001
 43
0.0000000001
 12
1.0
 22
0.0
 32
0.0
 13
1.0
 23
0.0
 33
0.0
 40
0.0
 40
0.0
 40
0.0
 40
0.0
 40
0.1428571428571428
 40
0.1428571428571428
 40
0.1428571428571428
 40
0.1428571428571428
 40
0.2857142857142857
 40
0.2857142857142857
 40
0.2857142857142857
 40
0.2857142857142857
 40
0.4285714285714285
 40
0.4285714285714285
 40
0.4285714285714285
 40
0.4285714285714285
 40
0.5714285714285714
 40
0.5714285714285714
 40
0.5714285714285714
 40
0.5714285714285714
 40
0.7142857142857143
 40
0.7142857142857143
 40
0.7142857142857143
 40
0.7142857142857143
 40
1.0
 40
1.0
 40
1.0
 40
1.0
 10
-121.0349
 20
77.2291
 30
0.0
 10
-119.482
 20
74.5038
 30
0.0
 10
-113.9194
 20
70.6166
 30
0.0
 10
-111.8993
 20
75.541
 30
0.0
 10
-111.8993
 20
75.541
 30
0.0
 10
-110.2025
 20
70.83
 30
0.0
 10
-110.8462
 20
66.6069
 30
0.0
 10
-112.1438
 20
65.054
 30
0.0
 10
-112.1438
 20
65.054
 30
0.0
 10
-113.7788
 20
68.0108
 30
0.0
 10
-117.273
 20
69.8746
 30
0.0
 10
-117.9838
 20
69.6153
 30
0.0
 10
-117.9838
 20
69.6153
 30
0.0
 10
-118.8321
 20
69.3106
 30
0.0
 10
-119.0796
 20
65.5172
 30
0.0
 10
-118.4906
 20
62.6003
 30
0.0
 10
-118.4906
 20
62.6003
 30
0.0
 10
-123.0886
 20
63.2536
 30
0.0
 10
-125.5117
 20
68.0223
 30
0.0
 10
-125.8897
 20
69.6948
 30
0.0
 10
-125.8897
 20
69.6948
 30
0.0
 10
-120.6779
 20
68.2577
 30
0.0
 10
-119.7351
 20
73.7804
 30
0.0
 10
-121.0349
 20
77.2291
 30
0.0
  0
SPLINE
  5
74
330
1F
100
AcDbEntity
  8
layer 1
 62
     7
100
AcDbSpline
210
0.0
220
0.0
230
1.0
 70
    11
 71
     3
 72
    28
 73
    24
 74
     0
 42
0.0000000001
 43
0.0000000001
 12
1.0
 22
0.0
 32
0.0
 13
1.0
 23
0.0
 33
0.0
 40
0.0
 40
0.0
 40
0.0
 40
0.0
 40
0.1428571428571428
 40
0.1428571428571428
 40
0.1428571428571428
 40
0.1428571428571428
 40
0.2857142857142857
 40
0.2857142857142857
 40
0.2857142857142857
 40
0.2857142857142857
 40
0.4285714285714285
 40
0.4285714285714285
 40
0.4285714285714285
 40
0.4285714285714285
 40
0.5714285714285714
 40
0.5714285714285714
 40
0.5714285714285714
 40
0.5714285714285714
 40
0.7142857142857143
 40
0.7142857142857143
 40
0.7142857142857143
 40
0.7142857142857143
 40
1.0
 40
1.0
 40
1.0
 40
1.0
 10
-161.5396
 20
36.7278
 30
0.0
 10
-158.5157
 20
35.9005
 30
0.0
 10
-151.8327
 20
37.0878
 30
0.0
 10
-153.8865
 20
41.9943
 30
0.0
 10
-153.8865
 20
41.9943
 30
0.0
 10
-149.358
 20
39.8648
 30
0.0
 10
-146.8255
 20
36.4222
 30
0.0
 10
-146.6459
 20
34.4085
 30
0.0
 10
-146.6459
 20
34.4085
 30
0.0
 10
-149.8923
 20
35.342
 30
0.0
 10
-153.6794
 20
34.1888
 30
0.0
 10
-153.9999
 20
33.5022
 30
0.0
 10
-153.9999
 20
33.5022
 30
0.0
 10
-154.384
 20
32.6875
 30
0.0
 10
-151.8757
 20
29.8315
 30
0.0
 10
-149.3948
 20
28.1865
 30
0.0
 10
-149.3948
 20
28.1865
 30
0.0
 10
-153.1084
 20
25.3947
 30
0.0
 10
-158.1953
 20
27.0546
 30
0.0
 10
-159.6443
 20
27.9671
 30
0.0
 10
-159.6443
 20
27.9671
 30
0.0
 10
-154.9458
 20
30.6371
 30
0.0
 10
-158.1829
 20
35.2107
 30
0.0
 10
-161.5396
 20
36.7278
 30
0.0
  0
SPLINE
  5
75
330
1F
100
AcDbEntity
  8
layer 1
 62
     7
100
AcDbSpline
210
0.0
220
0.0
230
1.0
 70
    11
 71
     3
 72
    52
 73
    48
 74
     0
 42
0.0000000001
 43
0.0000000001
 12
1.0
 22
0.0
 32
0.0
 13
1.0
 23
0.0
 33
0.0
 40
0.0
 40
0.0
 40
0.0
 40
0.0
 40
0.0769230769230769
 40
0.0769230769230769
 40
0.0769230769230769
 40
0.0769230769230769
 40
0.1538461538461539
 40
0.1538461538461539
 40
0.1538461538461539
 40
0.1538461538461539
 40
0.2307692307692308
 40
0.2307692307692308
 40
0.2307692307692308
 40
0.2307692307692308
 40
0.3076923076923077
 40
0.3076923076923077
 40
0.3076923076923077
 40
0.3076923076923077
 40
0.3846153846153846
 40
0.3846153846153846
 40
0.3846153846153846
 40
0.3846153846153846
 40
0.4615384615384616
 40
0.4615384615384616
 40
0.4615384615384616
 40
0.4615384615384616
 40
0.5384615384615384
 40
0.5384615384615384
 40
0.5384615384615384
 40
0.5384615384615384
 40
0.6153846153846154
 40
0.6153846153846154
 40
0.6153846153846154
 40
0.6153846153846154
 40
0.6923076923076923
 40
0.6923076923076923
 40
0.6923076923076923
 40
0.6923076923076923
 40
0.7692307692307693
 40
0.7692307692307693
 40
0.7692307692307693
 40
0.7692307692307693
 40
0.8461538461538461
 40
0.8461538461538461
 40
0.8461538461538461
 40
0.8461538461538461
 40
1.0
 40
1.0
 40
1.0
 40
1.0
 10
-153.481
 20
95.6989
 30
0.0
 10
-155.2168
 20
93.9412
 30
0.0
 10
-163.7337
 20
81.0459
 30
0.0
 10
-149.1262
 20
68.5356
 30
0.0
 10
-149.1262
 20
68.5356
 30
0.0
 10
-152.5406
 20
75.5263
 30
0.0
 10
-147.2677
 20
78.2752
 30
0.0
 10
-145.2148
 20
76.6769
 30
0.0
 10
-145.2148
 20
76.6769
 30
0.0
 10
-140.1888
 20
72.768
 30
0.0
 10
-148.8667
 20
66.2617
 30
0.0
 10
-136.6767
 20
61.4653
 30
0.0
 10
-136.6767
 20
61.4653
 30
0.0
 10
-141.0887
 20
65.6335
 30
0.0
 10
-143.0269
 20
70.9275
 30
0.0
 10
-137.5618
 20
72.2516
 30
0.0
 10
-137.5618
 20
72.2516
 30
0.0
 10
-130.2565
 20
70.0309
 30
0.0
 10
-138.6109
 20
59.964
 30
0.0
 10
-124.4134
 20
60.5802
 30
0.0
 10
-124.4134
 20
60.5802
 30
0.0
 10
-133.125
 20
64.1628
 30
0.0
 10
-134.434
 20
71.1719
 30
0.0
 10
-127.9224
 20
71.3032
 30
0.0
 10
-127.9224
 20
71.3032
 30
0.0
 10
-129.4479
 20
76.3527
 30
0.0
 10
-123.3424
 20
75.5261
 30
0.0
 10
-126.9639
 20
82.8433
 30
0.0
 10
-126.9639
 20
82.8433
 30
0.0
 10
-127.5349
 20
80.6952
 30
0.0
 10
-128.1997
 20
75.9473
 30
0.0
 10
-132.2093
 20
77.3111
 30
0.0
 10
-132.2093
 20
77.3111
 30
0.0
 10
-137.5009
 20
81.135
 30
0.0
 10
-130.5378
 20
85.3001
 30
0.0
 10
-132.0446
 20
88.7176
 30
0.0
 10
-132.0446
 20
88.7176
 30
0.0
 10
-134.7545
 20
82.2208
 30
0.0
 10
-145.8125
 20
83.4354
 30
0.0
 10
-146.0811
 20
90.4964
 30
0.0
 10
-146.0811
 20
90.4964
 30
0.0
 10
-146.3226
 20
96.9167
 30
0.0
 10
-138.2119
 20
97.8775
 30
0.0
 10
-135.9869
 20
93.4046
 30
0.0
 10
-135.9869
 20
93.4046
 30
0.0
 10
-136.2496
 20
100.4866
 30
0.0
 10
-147.7318
 20
104.3953
 30
0.0
 10
-153.481
 20
95.6989
 30
0.0
  0
SPLINE
  5
76
330
1F
100
AcDbEntity
  8
layer 1
 62
     7
100
AcDbSpline
210
0.0
220
0.0
230
1.0
 70
    11
 71
     3
 72
    52
 73
    48
 74
     0
 42
0.0000000001
 43
0.0000000001
 12
1.0
 22
0.0
 32
0.0
 13
1.0
 23
0.0
 33
0.0
 40
0.0
 40
0.0
 40
0.0
 40
0.0
 40
0.0769230769230769
 40
0.0769230769230769
 40
0.0769230769230769
 40
0.0769230769230769
 40
0.1538461538461539
 40
0.1538461538461539
 40
0.1538461538461539
 40
0.1538461538461539
 40
0.2307692307692308
 40
0.2307692307692308
 40
0.2307692307692308
 40
0.2307692307692308
 40
0.3076923076923077
 40
0.3076923076923077
 40
0.3076923076923077
 40
0.3076923076923077
 40
0.3846153846153846
 40
0.3846153846153846
 40
0.3846153846153846
 40
0.3846153846153846
 40
0.4615384615384616
 40
0.4615384615384616
 40
0.4615384615384616
 40
0.4615384615384616
 40
0.5384615384615384
 40
0.5384615384615384
 40
0.5384615384615384
 40
0.5384615384615384
 40
0.6153846153846154
 40
0.6153846153846154
 40
0.6153846153846154
 40
0.6153846153846154
 40
0.6923076923076923
 40
0.6923076923076923
 40
0.6923076923076923
 40
0.6923076923076923
 40
0.7692307692307693
 40
0.7692307692307693
 40
0.7692307692307693
 40
0.7692307692307693
 40
0.8461538461538461
 40
0.8461538461538461
 40
0.8461538461538461
 40
0.8461538461538461
 40
1.0
 40
1.0
 40
1.0
 40
1.0
 10
-177.5711
 20
70.836
 30
0.0
 10
-173.0522
 20
73.4569
 30
0.0
 10
-162.6744
 20
76.7799
 30
0.0
 10
-152.5468
 20
64.9595
 30
0.0
 10
-152.5468
 20
64.9595
 30
0.0
 10
-159.538
 20
68.3739
 30
0.0
 10
-162.2871
 20
63.101
 30
0.0
 10
-160.6879
 20
61.0475
 30
0.0
 10
-160.6879
 20
61.0475
 30
0.0
 10
-156.779
 20
56.0214
 30
0.0
 10
-150.2736
 20
64.6971
 30
0.0
 10
-145.4772
 20
52.5093
 30
0.0
 10
-145.4772
 20
52.5093
 30
0.0
 10
-149.6448
 20
56.9213
 30
0.0
 10
-154.9394
 20
58.8562
 30
0.0
 10
-156.2635
 20
53.3944
 30
0.0
 10
-156.2635
 20
53.3944
 30
0.0
 10
-154.0419
 20
46.0861
 30
0.0
 10
-143.9759
 20
54.4413
 30
0.0
 10
-144.5922
 20
40.2461
 30
0.0
 10
-144.5922
 20
40.2461
 30
0.0
 10
-148.1747
 20
48.9576
 30
0.0
 10
-155.1832
 20
50.2667
 30
0.0
 10
-155.3176
 20
43.7518
 30
0.0
 10
-155.3176
 20
43.7518
 30
0.0
 10
-160.3677
 20
45.2805
 30
0.0
 10
-159.538
 20
39.175
 30
0.0
 10
-166.8583
 20
42.7965
 30
0.0
 10
-166.8583
 20
42.7965
 30
0.0
 10
-164.7071
 20
43.3676
 30
0.0
 10
-159.9592
 20
44.0299
 30
0.0
 10
-161.323
 20
48.042
 30
0.0
 10
-161.323
 20
48.042
 30
0.0
 10
-165.146
 20
53.3335
 30
0.0
 10
-169.3111
 20
46.3671
 30
0.0
 10
-172.7289
 20
47.8739
 30
0.0
 10
-172.7289
 20
47.8739
 30
0.0
 10
-166.2328
 20
50.584
 30
0.0
 10
-167.4473
 20
61.6451
 30
0.0
 10
-174.5105
 20
61.9106
 30
0.0
 10
-174.5105
 20
61.9106
 30
0.0
 10
-175.6675
 20
61.9535
 30
0.0
 10
-176.6471
 20
61.7279
 30
0.0
 10
-177.4493
 20
61.3098
 30
0.0
 10
-177.4493
 20
61.3098
 30
0.0
 10
-177.4493
 20
61.3098
 30
0.0
 10
-177.5711
 20
70.836
 30
0.0
 10
-177.5711
 20
70.836
 30
0.0
  0
SPLINE
  5
77
330
1F
100
AcDbEntity
  8
layer 1
 62
     7
100
AcDbSpline
210
0.0
220
0.0
230
1.0
 70
    11
 71
     3
 72
    40
 73
    36
 74
     0
 42
0.0000000001
 43
0.0000000001
 12
1.0
 22
0.0
 32
0.0
 13
1.0
 23
0.0
 33
0.0
 40
0.0
 40
0.0
 40
0.0
 40
0.0
 40
0.1
 40
0.1
 40
0.1
 40
0.1
 40
0.2
 40
0.2
 40
0.2
 40
0.2
 40
0.3
 40
0.3
 40
0.3
 40
0.3
 40
0.4
 40
0.4
 40
0.4
 40
0.4
 40
0.5
 40
0.5
 40
0.5
 40
0.5
 40
0.6
 40
0.6
 40
0.6
 40
0.6
 40
0.7
 40
0.7
 40
0.7
 40
0.7
 40
0.8
 40
0.8
 40
0.8
 40
0.8
 40
1.0
 40
1.0
 40
1.0
 40
1.0
 10
-177.5321
 20
19.0049
 30
0.0
 10
-171.3407
 20
20.1125
 30
0.0
 10
-172.7413
 20
8.3101
 30
0.0
 10
-161.1645
 20
14.7366
 30
0.0
 10
-161.1645
 20
14.7366
 30
0.0
 10
-167.2334
 20
14.5624
 30
0.0
 10
-172.3445
 20
16.9363
 30
0.0
 10
-169.4183
 20
21.7356
 30
0.0
 10
-169.4183
 20
21.7356
 30
0.0
 10
-162.6808
 20
25.3338
 30
0.0
 10
-161.4691
 20
12.3071
 30
0.0
 10
-151.8664
 20
22.7825
 30
0.0
 10
-151.8664
 20
22.7825
 30
0.0
 10
-160.56
 20
19.1548
 30
0.0
 10
-166.4427
 20
23.1855
 30
0.0
 10
-161.9333
 20
27.8849
 30
0.0
 10
-161.9333
 20
27.8849
 30
0.0
 10
-166.5833
 20
30.3745
 30
0.0
 10
-161.6802
 20
34.106
 30
0.0
 10
-169.4152
 20
36.7213
 30
0.0
 10
-169.4152
 20
36.7213
 30
0.0
 10
-168.2981
 20
34.796
 30
0.0
 10
-165.4117
 20
30.9697
 30
0.0
 10
-169.2103
 20
29.0988
 30
0.0
 10
-169.2103
 20
29.0988
 30
0.0
 10
-175.6551
 20
28.0616
 30
0.0
 10
-173.6779
 20
35.9308
 30
0.0
 10
-177.1595
 20
37.2831
 30
0.0
 10
-177.1595
 20
37.2831
 30
0.0
 10
-176.3331
 20
35.2756
 30
0.0
 10
-176.5893
 20
33.225
 30
0.0
 10
-177.5071
 20
31.4947
 30
0.0
 10
-177.5071
 20
31.4947
 30
0.0
 10
-177.5071
 20
31.4947
 30
0.0
 10
-177.5321
 20
19.0049
 30
0.0
 10
-177.5321
 20
19.0049
 30
0.0
  0
SPLINE
  5
78
330
1F
100
AcDbEntity
  8
layer 1
 62
     7
100
AcDbSpline
210
0.0
220
0.0
230
1.0
 70
    11
 71
     3
 72
    16
 73
    12
 74
     0
 42
0.0000000001
 43
0.0000000001
 12
1.0
 22
0.0
 32
0.0
 13
1.0
 23
0.0
 33
0.0
 40
0.0
 40
0.0
 40
0.0
 40
0.0
 40
0.25
 40
0.25
 40
0.25
 40
0.25
 40
0.5
 40
0.5
 40
0.5
 40
0.5
 40
1.0
 40
1.0
 40
1.0
 40
1.0
 10
-174.7036
 20
10.8762
 30
0.0
 10
-175.7284
 20
11.2301
 30
0.0
 10
-176.8424
 20
11.6971
 30
0.0
 10
-177.5352
 20
12.1485
 30
0.0
 10
-177.5352
 20
12.1485
 30
0.0
 10
-177.5352
 20
12.1485
 30
0.0
 10
-177.5563
 20
10.8151
 30
0.0
 10
-177.5563
 20
10.8151
 30
0.0
 10
-177.5563
 20
10.8151
 30
0.0
 10
-176.7478
 20
10.8277
 30
0.0
 10
-175.6097
 20
10.8058
 30
0.0
 10
-174.7036
 20
10.8762
 30
0.0
  0
SPLINE
  5
79
330
1F
100
AcDbEntity
  8
layer 1
 62
     7
100
AcDbSpline
210
0.0
220
0.0
230
1.0
 70
    11
 71
     3
 72
    16
 73
    12
 74
     0
 42
0.0000000001
 43
0.0000000001
 12
1.0
 22
0.0
 32
0.0
 13
1.0
 23
0.0
 33
0.0
 40
0.0
 40
0.0
 40
0.0
 40
0.0
 40
0.25
 40
0.25
 40
0.25
 40
0.25
 40
0.5
 40
0.5
 40
0.5
 40
0.5
 40
1.0
 40
1.0
 40
1.0
 40
1.0
 10
-168.4723
 20
39.9312
 30
0.0
 10
-171.9054
 20
40.2578
 30
0.0
 10
-175.7104
 20
40.2062
 30
0.0
 10
-177.5321
 20
41.2341
 30
0.0
 10
-177.5321
 20
41.2341
 30
0.0
 10
-177.5321
 20
41.2341
 30
0.0
 10
-177.5321
 20
47.6241
 30
0.0
 10
-177.5321
 20
47.6241
 30
0.0
 10
-177.5321
 20
47.6241
 30
0.0
 10
-175.4292
 20
44.4628
 30
0.0
 10
-170.8797
 20
41.9154
 30
0.0
 10
-168.4723
 20
39.9312
 30
0.0
  0
SPLINE
  5
7A
330
1F
100
AcDbEntity
  8
layer 1
 62
     7
100
AcDbSpline
210
0.0
220
0.0
230
1.0
 70
    11
 71
     3
 72
    24
 73
    20
 74
     0
 42
0.0000000001
 43
0.0000000001
 12
1.0
 22
0.0
 32
0.0
 13
1.0
 23
0.0
 33
0.0
 40
0.0
 40
0.0
 40
0.0
 40
0.0
 40
0.1666666666666667
 40
0.1666666666666667
 40
0.1666666666666667
 40
0.1666666666666667
 40
0.3333333333333333
 40
0.3333333333333333
 40
0.3333333333333333
 40
0.3333333333333333
 40
0.5
 40
0.5
 40
0.5
 40
0.5
 40
0.6666666666666666
 40
0.6666666666666666
 40
0.6666666666666666
 40
0.6666666666666666
 40
1.0
 40
1.0
 40
1.0
 40
1.0
 10
-170.9501
 20
94.7622
 30
0.0
 10
-164.9266
 20
96.2542
 30
0.0
 10
-162.7754
 20
90.1939
 30
0.0
 10
-162.4917
 20
87.5668
 30
0.0
 10
-162.4917
 20
87.5668
 30
0.0
 10
-166.7786
 20
89.12
 30
0.0
 10
-173.6474
 20
84.8906
 30
0.0
 10
-171.6485
 20
78.6383
 30
0.0
 10
-171.6485
 20
78.6383
 30
0.0
 10
-173.5528
 20
78.9501
 30
0.0
 10
-175.7713
 20
79.5874
 30
0.0
 10
-177.5321
 20
81.4613
 30
0.0
 10
-177.5321
 20
81.4613
 30
0.0
 10
-177.5321
 20
81.4613
 30
0.0
 10
-177.5321
 20
87.1975
 30
0.0
 10
-177.5321
 20
87.1975
 30
0.0
 10
-177.5321
 20
87.1975
 30
0.0
 10
-175.4963
 20
86.5937
 30
0.0
 10
-169.6439
 20
90.594
 30
0.0
 10
-170.9501
 20
94.7622
 30
0.0
  0
SPLINE
  5
7B
330
1F
100
AcDbEntity
  8
layer 1
 62
     7
100
AcDbSpline
210
0.0
220
0.0
230
1.0
 70
    11
 71
     3
 72
    12
 73
     8
 74
     0
 42
0.0000000001
 43
0.0000000001
 12
1.0
 22
0.0
 32
0.0
 13
1.0
 23
0.0
 33
0.0
 40
0.0
 40
0.0
 40
0.0
 40
0.0
 40
0.3333333333333333
 40
0.3333333333333333
 40
0.3333333333333333
 40
0.3333333333333333
 40
1.0
 40
1.0
 40
1.0
 40
1.0
 10
-161.4293
 20
77.5737
 30
0.0
 10
-162.623
 20
77.8664
 30
0.0
 10
-164.9024
 20
79.4656
 30
0.0
 10
-164.8805
 20
81.299
 30
0.0
 10
-164.8805
 20
81.299
 30
0.0
 10
-163.34
 20
81.3482
 30
0.0
 10
-161.6981
 20
78.6961
 30
0.0
 10
-161.4293
 20
77.5737
 30
0.0
  0
SPLINE
  5
7C
330
1F
100
AcDbEntity
  8
layer 1
 62
     7
100
AcDbSpline
210
0.0
220
0.0
230
1.0
 70
    11
 71
     3
 72
    16
 73
    12
 74
     0
 42
0.0000000001
 43
0.0000000001
 12
1.0
 22
0.0
 32
0.0
 13
1.0
 23
0.0
 33
0.0
 40
0.0
 40
0.0
 40
0.0
 40
0.0
 40
0.25
 40
0.25
 40
0.25
 40
0.25
 40
0.5
 40
0.5
 40
0.5
 40
0.5
 40
1.0
 40
1.0
 40
1.0
 40
1.0
 10
-177.5321
 20
91.0329
 30
0.0
 10
-177.5321
 20
93.142
 30
0.0
 10
-177.5532
 20
96.483
 30
0.0
 10
-177.5321
 20
98.3204
 30
0.0
 10
-177.5321
 20
98.3204
 30
0.0
 10
-176.497
 20
97.5447
 30
0.0
 10
-174.2395
 20
92.6507
 30
0.0
 10
-173.9645
 20
90.4751
 30
0.0
 10
-173.9645
 20
90.4751
 30
0.0
 10
-175.3621
 20
90.2822
 30
0.0
 10
-176.3814
 20
90.5728
 30
0.0
 10
-177.5321
 20
91.0329
 30
0.0
  0
SPLINE
  5
7D
330
1F
100
AcDbEntity
  8
layer 1
 62
     7
100
AcDbSpline
210
0.0
220
0.0
230
1.0
 70
    11
 71
     3
 72
    20
 73
    16
 74
     0
 42
0.0000000001
 43
0.0000000001
 12
1.0
 22
0.0
 32
0.0
 13
1.0
 23
0.0
 33
0.0
 40
0.0
 40
0.0
 40
0.0
 40
0.0
 40
0.2
 40
0.2
 40
0.2
 40
0.2
 40
0.4
 40
0.4
 40
0.4
 40
0.4
 40
0.6
 40
0.6
 40
0.6
 40
0.6
 40
1.0
 40
1.0
 40
1.0
 40
1.0
 10
-96.8347
 20
30.198
 30
0.0
 10
-98.5493
 20
29.9294
 30
0.0
 10
-100.5607
 20
30.4721
 30
0.0
 10
-102.1989
 20
31.9243
 30
0.0
 10
-102.1989
 20
31.9243
 30
0.0
 10
-102.4004
 20
29.7675
 30
0.0
 10
-102.7604
 20
28.4677
 30
0.0
 10
-104.4907
 20
26.8803
 30
0.0
 10
-104.4907
 20
26.8803
 30
0.0
 10
-102.6019
 20
26.6828
 30
0.0
 10
-100.4992
 20
26.1945
 30
0.0
 10
-99.3305
 20
25.2329
 30
0.0
 10
-99.3305
 20
25.2329
 30
0.0
 10
-98.5891
 20
27.6648
 30
0.0
 10
-98.2111
 20
29.1387
 30
0.0
 10
-96.8347
 20
30.198
 30
0.0
  0
SPLINE
  5
7E
330
1F
100
AcDbEntity
  8
layer 1
 62
     7
100
AcDbSpline
210
0.0
220
0.0
230
1.0
 70
    11
 71
     3
 72
    20
 73
    16
 74
     0
 42
0.0000000001
 43
0.0000000001
 12
1.0
 22
0.0
 32
0.0
 13
1.0
 23
0.0
 33
0.0
 40
0.0
 40
0.0
 40
0.0
 40
0.0
 40
0.2
 40
0.2
 40
0.2
 40
0.2
 40
0.4
 40
0.4
 40
0.4
 40
0.4
 40
0.6
 40
0.6
 40
0.6
 40
0.6
 40
1.0
 40
1.0
 40
1.0
 40
1.0
 10
-110.8158
 20
20.7172
 30
0.0
 10
-111.8353
 20
19.3165
 30
0.0
 10
-113.642
 20
18.2791
 30
0.0
 10
-115.8261
 20
18.1478
 30
0.0
 10
-115.8261
 20
18.1478
 30
0.0
 10
-114.4442
 20
16.4755
 30
0.0
 10
-113.7819
 20
15.3037
 30
0.0
 10
-113.8796
 20
12.957
 30
0.0
 10
-113.8796
 20
12.957
 30
0.0
 10
-112.4062
 20
14.1563
 30
0.0
 10
-110.572
 20
15.2975
 30
0.0
 10
-109.0677
 20
15.4443
 30
0.0
 10
-109.0677
 20
15.4443
 30
0.0
 10
-110.2636
 20
17.687
 30
0.0
 10
-111.0393
 20
18.9963
 30
0.0
 10
-110.8158
 20
20.7172
 30
0.0
  0
SPLINE
  5
7F
330
1F
100
AcDbEntity
  8
layer 1
 62
     7
100
AcDbSpline
210
0.0
220
0.0
230
1.0
 70
    11
 71
     3
 72
    16
 73
    12
 74
     0
 42
0.0000000001
 43
0.0000000001
 12
1.0
 22
0.0
 32
0.0
 13
1.0
 23
0.0
 33
0.0
 40
0.0
 40
0.0
 40
0.0
 40
0.0
 40
0.25
 40
0.25
 40
0.25
 40
0.25
 40
0.5
 40
0.5
 40
0.5
 40
0.5
 40
1.0
 40
1.0
 40
1.0
 40
1.0
 10
-99.3305
 20
21.6326
 30
0.0
 10
-103.0682
 20
23.0943
 30
0.0
 10
-107.1514
 20
20.3539
 30
0.0
 10
-106.2243
 20
15.0139
 30
0.0
 10
-106.2243
 20
15.0139
 30
0.0
 10
-105.2079
 20
16.7255
 30
0.0
 10
-103.316
 20
17.7541
 30
0.0
 10
-101.4115
 20
17.501
 30
0.0
 10
-101.4115
 20
17.501
 30
0.0
 10
-101.5215
 20
18.9994
 30
0.0
 10
-100.9263
 20
20.653
 30
0.0
 10
-99.3305
 20
21.6326
 30
0.0
  0
SPLINE
  5
80
330
1F
100
AcDbEntity
  8
layer 1
 62
     7
100
AcDbSpline
210
0.0
220
0.0
230
1.0
 70
    11
 71
     3
 72
    16
 73
    12
 74
     0
 42
0.0000000001
 43
0.0000000001
 12
1.0
 22
0.0
 32
0.0
 13
1.0
 23
0.0
 33
0.0
 40
0.0
 40
0.0
 40
0.0
 40
0.0
 40
0.25
 40
0.25
 40
0.25
 40
0.25
 40
0.5
 40
0.5
 40
0.5
 40
0.5
 40
1.0
 40
1.0
 40
1.0
 40
1.0
 10
-106.4468
 20
12.7041
 30
0.0
 10
-110.1237
 20
11.0956
 30
0.0
 10
-111.0729
 20
6.272
 30
0.0
 10
-106.6421
 20
3.1505
 30
0.0
 10
-106.6421
 20
3.1505
 30
0.0
 10
-107.1335
 20
5.0816
 30
0.0
 10
-106.5225
 20
7.1444
 30
0.0
 10
-104.9969
 20
8.3101
 30
0.0
 10
-104.9969
 20
8.3101
 30
0.0
 10
-106.135
 20
9.2928
 30
0.0
 10
-106.8828
 20
10.8855
 30
0.0
 10
-106.4468
 20
12.7041
 30
0.0
  0
SPLINE
  5
81
330
1F
100
AcDbEntity
  8
layer 1
 62
     7
100
AcDbSpline
210
0.0
220
0.0
230
1.0
 70
    11
 71
     3
 72
    16
 73
    12
 74
     0
 42
0.0000000001
 43
0.0000000001
 12
1.0
 22
0.0
 32
0.0
 13
1.0
 23
0.0
 33
0.0
 40
0.0
 40
0.0
 40
0.0
 40
0.0
 40
0.25
 40
0.25
 40
0.25
 40
0.25
 40
0.5
 40
0.5
 40
0.5
 40
0.5
 40
1.0
 40
1.0
 40
1.0
 40
1.0
 10
-97.6587
 20
20.1555
 30
0.0
 10
-97.2315
 20
17.3668
 30
0.0
 10
-96.908
 20
16.1246
 30
0.0
 10
-96.1237
 20
13.0515
 30
0.0
 10
-96.1237
 20
13.0515
 30
0.0
 10
-95.263
 20
13.7141
 30
0.0
 10
-94.2444
 20
14.4795
 30
0.0
 10
-93.1913
 20
14.4919
 30
0.0
 10
-93.1913
 20
14.4919
 30
0.0
 10
-94.6069
 20
16.7472
 30
0.0
 10
-96.0044
 20
18.5111
 30
0.0
 10
-97.6587
 20
20.1555
 30
0.0
  0
SPLINE
  5
82
330
1F
100
AcDbEntity
  8
layer 1
 62
     7
100
AcDbSpline
210
0.0
220
0.0
230
1.0
 70
    11
 71
     3
 72
    16
 73
    12
 74
     0
 42
0.0000000001
 43
0.0000000001
 12
1.0
 22
0.0
 32
0.0
 13
1.0
 23
0.0
 33
0.0
 40
0.0
 40
0.0
 40
0.0
 40
0.0
 40
0.25
 40
0.25
 40
0.25
 40
0.25
 40
0.5
 40
0.5
 40
0.5
 40
0.5
 40
1.0
 40
1.0
 40
1.0
 40
1.0
 10
-104.3713
 20
13.079
 30
0.0
 10
-102.1012
 20
11.4072
 30
0.0
 10
-100.9905
 20
10.7604
 30
0.0
 10
-98.2627
 20
9.1395
 30
0.0
 10
-98.2627
 20
9.1395
 30
0.0
 10
-98.1221
 20
10.2168
 30
0.0
 10
-97.9454
 20
11.4807
 30
0.0
 10
-97.2096
 20
12.2338
 30
0.0
 10
-97.2096
 20
12.2338
 30
0.0
 10
-99.8039
 20
12.8259
 30
0.0
 10
-102.0403
 20
13.0852
 30
0.0
 10
-104.3713
 20
13.079
 30
0.0
  0
SPLINE
  5
83
330
1F
100
AcDbEntity
  8
layer 1
 62
     7
100
AcDbSpline
210
0.0
220
0.0
230
1.0
 70
    11
 71
     3
 72
    16
 73
    12
 74
     0
 42
0.0000000001
 43
0.0000000001
 12
1.0
 22
0.0
 32
0.0
 13
1.0
 23
0.0
 33
0.0
 40
0.0
 40
0.0
 40
0.0
 40
0.0
 40
0.25
 40
0.25
 40
0.25
 40
0.25
 40
0.5
 40
0.5
 40
0.5
 40
0.5
 40
1.0
 40
1.0
 40
1.0
 40
1.0
 10
-77.5681
 20
-105.8975
 30
0.0
 10
-77.3761
 20
-103.4806
 30
0.0
 10
-78.0019
 20
-101.9308
 30
0.0
 10
-79.2157
 20
-99.8835
 30
0.0
 10
-79.2157
 20
-99.8835
 30
0.0
 10
-71.8556
 20
-101.5035
 30
0.0
 10
-70.6628
 20
-104.204
 30
0.0
 10
-70.2963
 20
-105.8975
 30
0.0
 10
-70.2963
 20
-105.8975
 30
0.0
 10
-70.2963
 20
-105.8975
 30
0.0
 10
-77.5681
 20
-105.8975
 30
0.0
 10
-77.5681
 20
-105.8975
 30
0.0
  0
SPLINE
  5
84
330
1F
100
AcDbEntity
  8
layer 1
 62
     7
100
AcDbSpline
210
0.0
220
0.0
230
1.0
 70
    11
 71
     3
 72
    20
 73
    16
 74
     0
 42
0.0000000001
 43
0.0000000001
 12
1.0
 22
0.0
 32
0.0
 13
1.0
 23
0.0
 33
0.0
 40
0.0
 40
0.0
 40
0.0
 40
0.0
 40
0.2
 40
0.2
 40
0.2
 40
0.2
 40
0.4
 40
0.4
 40
0.4
 40
0.4
 40
0.6
 40
0.6
 40
0.6
 40
0.6
 40
1.0
 40
1.0
 40
1.0
 40
1.0
 10
-64.0165
 20
-105.8975
 30
0.0
 10
-64.5143
 20
-104.0329
 30
0.0
 10
-66.5218
 20
-101.7231
 30
0.0
 10
-68.6365
 20
-100.7834
 30
0.0
 10
-68.6365
 20
-100.7834
 30
0.0
 10
-66.2227
 20
-100.6614
 30
0.0
 10
-63.1598
 20
-100.1428
 30
0.0
 10
-61.6552
 20
-98.5257
 30
0.0
 10
-61.6552
 20
-98.5257
 30
0.0
 10
-62.2473
 20
-101.6379
 30
0.0
 10
-61.353
 20
-103.6916
 30
0.0
 10
-58.3353
 20
-105.8975
 30
0.0
 10
-58.3353
 20
-105.8975
 30
0.0
 10
-58.3353
 20
-105.8975
 30
0.0
 10
-64.0165
 20
-105.8975
 30
0.0
 10
-64.0165
 20
-105.8975
 30
0.0
  0
SPLINE
  5
85
330
1F
100
AcDbEntity
  8
layer 1
 62
     7
100
AcDbSpline
210
0.0
220
0.0
230
1.0
 70
    11
 71
     3
 72
    12
 73
     8
 74
     0
 42
0.0000000001
 43
0.0000000001
 12
1.0
 22
0.0
 32
0.0
 13
1.0
 23
0.0
 33
0.0
 40
0.0
 40
0.0
 40
0.0
 40
0.0
 40
0.3333333333333333
 40
0.3333333333333333
 40
0.3333333333333333
 40
0.3333333333333333
 40
1.0
 40
1.0
 40
1.0
 40
1.0
 10
-43.0659
 20
-105.8975
 30
0.0
 10
-39.4438
 20
-104.0244
 30
0.0
 10
-31.7424
 20
-103.9416
 30
0.0
 10
-29.0872
 20
-105.8975
 30
0.0
 10
-29.0872
 20
-105.8975
 30
0.0
 10
-29.0872
 20
-105.8975
 30
0.0
 10
-43.0659
 20
-105.8975
 30
0.0
 10
-43.0659
 20
-105.8975
 30
0.0
  0
SPLINE
  5
86
330
1F
100
AcDbEntity
  8
layer 1
 62
     7
100
AcDbSpline
210
0.0
220
0.0
230
1.0
 70
    11
 71
     3
 72
    36
 73
    32
 74
     0
 42
0.0000000001
 43
0.0000000001
 12
1.0
 22
0.0
 32
0.0
 13
1.0
 23
0.0
 33
0.0
 40
0.0
 40
0.0
 40
0.0
 40
0.0
 40
0.1111111111111111
 40
0.1111111111111111
 40
0.1111111111111111
 40
0.1111111111111111
 40
0.2222222222222222
 40
0.2222222222222222
 40
0.2222222222222222
 40
0.2222222222222222
 40
0.3333333333333333
 40
0.3333333333333333
 40
0.3333333333333333
 40
0.3333333333333333
 40
0.4444444444444444
 40
0.4444444444444444
 40
0.4444444444444444
 40
0.4444444444444444
 40
0.5555555555555556
 40
0.5555555555555556
 40
0.5555555555555556
 40
0.5555555555555556
 40
0.6666666666666666
 40
0.6666666666666666
 40
0.6666666666666666
 40
0.6666666666666666
 40
0.7777777777777778
 40
0.7777777777777778
 40
0.7777777777777778
 40
0.7777777777777778
 40
1.0
 40
1.0
 40
1.0
 40
1.0
 10
-6.9469
 20
-101.0794
 30
0.0
 10
-10.1808
 20
-99.2336
 30
0.0
 10
-14.154
 20
-100.0662
 30
0.0
 10
-14.5047
 20
-103.4503
 30
0.0
 10
-14.5047
 20
-103.4503
 30
0.0
 10
-20.6897
 20
-102.6994
 30
0.0
 10
-18.8627
 20
-99.0507
 30
0.0
 10
-22.631
 20
-97.9369
 30
0.0
 10
-22.631
 20
-97.9369
 30
0.0
 10
-17.8769
 20
-94.2808
 30
0.0
 10
-22.1303
 20
-90.9946
 30
0.0
 10
-24.2691
 20
-91.2025
 30
0.0
 10
-24.2691
 20
-91.2025
 30
0.0
 10
-28.959
 20
-89.4754
 30
0.0
 10
-28.8678
 20
-81.6301
 30
0.0
 10
-24.8214
 20
-77.9805
 30
0.0
 10
-24.8214
 20
-77.9805
 30
0.0
 10
-23.6075
 20
-83.1588
 30
0.0
 10
-17.1871
 20
-88.8768
 30
0.0
 10
-13.0953
 20
-82.6402
 30
0.0
 10
-13.0953
 20
-82.6402
 30
0.0
 10
-10.3153
 20
-87.2044
 30
0.0
 10
-8.6919
 20
-91.5564
 30
0.0
 10
-9.8239
 20
-96.4292
 30
0.0
 10
-9.8239
 20
-96.4292
 30
0.0
 10
-8.2982
 20
-95.9199
 30
0.0
 10
-7.5569
 20
-95.5472
 30
0.0
 10
-6.9469
 20
-94.7144
 30
0.0
 10
-6.9469
 20
-94.7144
 30
0.0
 10
-6.9469
 20
-94.7144
 30
0.0
 10
-6.9469
 20
-101.0794
 30
0.0
 10
-6.9469
 20
-101.0794
 30
0.0
  0
SPLINE
  5
87
330
1F
100
AcDbEntity
  8
layer 1
 62
     7
100
AcDbSpline
210
0.0
220
0.0
230
1.0
 70
    11
 71
     3
 72
    24
 73
    20
 74
     0
 42
0.0000000001
 43
0.0000000001
 12
1.0
 22
0.0
 32
0.0
 13
1.0
 23
0.0
 33
0.0
 40
0.0
 40
0.0
 40
0.0
 40
0.0
 40
0.1666666666666667
 40
0.1666666666666667
 40
0.1666666666666667
 40
0.1666666666666667
 40
0.3333333333333333
 40
0.3333333333333333
 40
0.3333333333333333
 40
0.3333333333333333
 40
0.5
 40
0.5
 40
0.5
 40
0.5
 40
0.6666666666666666
 40
0.6666666666666666
 40
0.6666666666666666
 40
0.6666666666666666
 40
1.0
 40
1.0
 40
1.0
 40
1.0
 10
-37.8111
 20
-101.009
 30
0.0
 10
-36.0599
 20
-100.0241
 30
0.0
 10
-33.2774
 20
-93.9029
 30
0.0
 10
-38.715
 20
-88.6605
 30
0.0
 10
-38.715
 20
-88.6605
 30
0.0
 10
-36.0176
 20
-88.7028
 30
0.0
 10
-33.8781
 20
-87.5372
 30
0.0
 10
-32.1206
 20
-85.7219
 30
0.0
 10
-32.1206
 20
-85.7219
 30
0.0
 10
-33.079
 20
-87.9769
 30
0.0
 10
-32.3008
 20
-98.0797
 30
0.0
 10
-24.9861
 20
-98.1353
 30
0.0
 10
-24.9861
 20
-98.1353
 30
0.0
 10
-26.9484
 20
-99.2914
 30
0.0
 10
-27.425
 20
-100.463
 30
0.0
 10
-27.339
 20
-102.1839
 30
0.0
 10
-27.339
 20
-102.1839
 30
0.0
 10
-30.2535
 20
-100.7161
 30
0.0
 10
-33.646
 20
-99.9351
 30
0.0
 10
-37.8111
 20
-101.009
 30
0.0
  0
SPLINE
  5
88
330
1F
100
AcDbEntity
  8
layer 1
 62
     7
100
AcDbSpline
210
0.0
220
0.0
230
1.0
 70
    11
 71
     3
 72
    24
 73
    20
 74
     0
 42
0.0000000001
 43
0.0000000001
 12
1.0
 22
0.0
 32
0.0
 13
1.0
 23
0.0
 33
0.0
 40
0.0
 40
0.0
 40
0.0
 40
0.0
 40
0.1666666666666667
 40
0.1666666666666667
 40
0.1666666666666667
 40
0.1666666666666667
 40
0.3333333333333333
 40
0.3333333333333333
 40
0.3333333333333333
 40
0.3333333333333333
 40
0.5
 40
0.5
 40
0.5
 40
0.5
 40
0.6666666666666666
 40
0.6666666666666666
 40
0.6666666666666666
 40
0.6666666666666666
 40
1.0
 40
1.0
 40
1.0
 40
1.0
 10
-52.7727
 20
-102.5745
 30
0.0
 10
-55.6161
 20
-102.4682
 30
0.0
 10
-59.3853
 20
-99.5717
 30
0.0
 10
-56.9987
 20
-94.6232
 30
0.0
 10
-56.9987
 20
-94.6232
 30
0.0
 10
-53.914
 20
-88.9988
 30
0.0
 10
-50.7925
 20
-87.3419
 30
0.0
 10
-45.1259
 20
-88.9503
 30
0.0
 10
-45.1259
 20
-88.9503
 30
0.0
 10
-36.9879
 20
-92.4749
 30
0.0
 10
-41.0031
 20
-98.1774
 30
0.0
 10
-42.4895
 20
-97.7447
 30
0.0
 10
-42.4895
 20
-97.7447
 30
0.0
 10
-39.5602
 20
-91.0798
 30
0.0
 10
-48.9374
 20
-91.3697
 30
0.0
 10
-49.2418
 20
-95.8284
 30
0.0
 10
-49.2418
 20
-95.8284
 30
0.0
 10
-54.503
 20
-93.189
 30
0.0
 10
-56.9159
 20
-99.0531
 30
0.0
 10
-52.7727
 20
-102.5745
 30
0.0
  0
SPLINE
  5
89
330
1F
100
AcDbEntity
  8
layer 1
 62
     7
100
AcDbSpline
210
0.0
220
0.0
230
1.0
 70
    11
 71
     3
 72
    24
 73
    20
 74
     0
 42
0.0000000001
 43
0.0000000001
 12
1.0
 22
0.0
 32
0.0
 13
1.0
 23
0.0
 33
0.0
 40
0.0
 40
0.0
 40
0.0
 40
0.0
 40
0.1666666666666667
 40
0.1666666666666667
 40
0.1666666666666667
 40
0.1666666666666667
 40
0.3333333333333333
 40
0.3333333333333333
 40
0.3333333333333333
 40
0.3333333333333333
 40
0.5
 40
0.5
 40
0.5
 40
0.5
 40
0.6666666666666666
 40
0.6666666666666666
 40
0.6666666666666666
 40
0.6666666666666666
 40
1.0
 40
1.0
 40
1.0
 40
1.0
 10
-55.6075
 20
-88.7887
 30
0.0
 10
-55.3232
 20
-86.8233
 30
0.0
 10
-55.4731
 20
-80.7021
 30
0.0
 10
-59.6415
 20
-78.197
 30
0.0
 10
-59.6415
 20
-78.197
 30
0.0
 10
-60.0835
 20
-73.4396
 30
0.0
 10
-60.2454
 20
-70.2455
 30
0.0
 10
-60.4258
 20
-67.9326
 30
0.0
 10
-60.4258
 20
-67.9326
 30
0.0
 10
-58.7658
 20
-69.641
 30
0.0
 10
-56.8245
 20
-73.6108
 30
0.0
 10
-54.1241
 20
-75.5487
 30
0.0
 10
-54.1241
 20
-75.5487
 30
0.0
 10
-54.7162
 20
-78.6609
 30
0.0
 10
-52.6501
 20
-83.7447
 30
0.0
 10
-49.6324
 20
-85.9506
 30
0.0
 10
-49.6324
 20
-85.9506
 30
0.0
 10
-51.668
 20
-86.442
 30
0.0
 10
-54.6678
 20
-87.7114
 30
0.0
 10
-55.6075
 20
-88.7887
 30
0.0
  0
SPLINE
  5
8A
330
1F
100
AcDbEntity
  8
layer 1
 62
     7
100
AcDbSpline
210
0.0
220
0.0
230
1.0
 70
    11
 71
     3
 72
    28
 73
    24
 74
     0
 42
0.0000000001
 43
0.0000000001
 12
1.0
 22
0.0
 32
0.0
 13
1.0
 23
0.0
 33
0.0
 40
0.0
 40
0.0
 40
0.0
 40
0.0
 40
0.1428571428571428
 40
0.1428571428571428
 40
0.1428571428571428
 40
0.1428571428571428
 40
0.2857142857142857
 40
0.2857142857142857
 40
0.2857142857142857
 40
0.2857142857142857
 40
0.4285714285714285
 40
0.4285714285714285
 40
0.4285714285714285
 40
0.4285714285714285
 40
0.5714285714285714
 40
0.5714285714285714
 40
0.5714285714285714
 40
0.5714285714285714
 40
0.7142857142857143
 40
0.7142857142857143
 40
0.7142857142857143
 40
0.7142857142857143
 40
1.0
 40
1.0
 40
1.0
 40
1.0
 10
-92.1814
 20
-101.2138
 30
0.0
 10
-89.0871
 20
-101.4426
 30
0.0
 10
-86.6733
 20
-99.978
 30
0.0
 10
-86.1578
 20
-97.3479
 30
0.0
 10
-86.1578
 20
-97.3479
 30
0.0
 10
-83.93
 20
-99.4654
 30
0.0
 10
-83.4637
 20
-104.9031
 30
0.0
 10
-84.1565
 20
-105.8975
 30
0.0
 10
-84.1565
 20
-105.8975
 30
0.0
 10
-84.1565
 20
-105.8975
 30
0.0
 10
-100.3194
 20
-105.8975
 30
0.0
 10
-100.3194
 20
-105.8975
 30
0.0
 10
-100.3194
 20
-105.8975
 30
0.0
 10
-101.0153
 20
-104.9031
 30
0.0
 10
-100.5483
 20
-99.4654
 30
0.0
 10
-98.3205
 20
-97.3479
 30
0.0
 10
-98.3205
 20
-97.3479
 30
0.0
 10
-97.8048
 20
-99.978
 30
0.0
 10
-95.3879
 20
-101.4426
 30
0.0
 10
-92.297
 20
-101.2138
 30
0.0
 10
-92.297
 20
-101.2138
 30
0.0
 10
-92.297
 20
-101.2138
 30
0.0
 10
-92.1814
 20
-101.2138
 30
0.0
 10
-92.1814
 20
-101.2138
 30
0.0
  0
SPLINE
  5
8B
330
1F
100
AcDbEntity
  8
layer 1
 62
     7
100
AcDbSpline
210
0.0
220
0.0
230
1.0
 70
    11
 71
     3
 72
    44
 73
    40
 74
     0
 42
0.0000000001
 43
0.0000000001
 12
1.0
 22
0.0
 32
0.0
 13
1.0
 23
0.0
 33
0.0
 40
0.0
 40
0.0
 40
0.0
 40
0.0
 40
0.0909090909090909
 40
0.0909090909090909
 40
0.0909090909090909
 40
0.0909090909090909
 40
0.1818181818181818
 40
0.1818181818181818
 40
0.1818181818181818
 40
0.1818181818181818
 40
0.2727272727272727
 40
0.2727272727272727
 40
0.2727272727272727
 40
0.2727272727272727
 40
0.3636363636363636
 40
0.3636363636363636
 40
0.3636363636363636
 40
0.3636363636363636
 40
0.4545454545454545
 40
0.4545454545454545
 40
0.4545454545454545
 40
0.4545454545454545
 40
0.5454545454545454
 40
0.5454545454545454
 40
0.5454545454545454
 40
0.5454545454545454
 40
0.6363636363636364
 40
0.6363636363636364
 40
0.6363636363636364
 40
0.6363636363636364
 40
0.7272727272727273
 40
0.7272727272727273
 40
0.7272727272727273
 40
0.7272727272727273
 40
0.8181818181818182
 40
0.8181818181818182
 40
0.8181818181818182
 40
0.8181818181818182
 40
1.0
 40
1.0
 40
1.0
 40
1.0
 10
-73.3266
 20
-46.6795
 30
0.0
 10
-84.9829
 20
-49.8832
 30
0.0
 10
-92.1814
 20
-38.6728
 30
0.0
 10
-84.8212
 20
-35.3644
 30
0.0
 10
-84.8212
 20
-35.3644
 30
0.0
 10
-86.9906
 20
-39.8351
 30
0.0
 10
-81.7059
 20
-44.562
 30
0.0
 10
-77.6017
 20
-39.328
 30
0.0
 10
-77.6017
 20
-39.328
 30
0.0
 10
-73.9342
 20
-34.6536
 30
0.0
 10
-77.6533
 20
-29.8692
 30
0.0
 10
-81.8005
 20
-29.0973
 30
0.0
 10
-81.8005
 20
-29.0973
 30
0.0
 10
-80.467
 20
-27.7304
 30
0.0
 10
-79.6187
 20
-25.2063
 30
0.0
 10
-79.1914
 20
-22.7872
 30
0.0
 10
-79.1914
 20
-22.7872
 30
0.0
 10
-77.2877
 20
-24.2761
 30
0.0
 10
-74.9014
 20
-25.1213
 30
0.0
 10
-72.7929
 20
-25.176
 30
0.0
 10
-72.7929
 20
-25.176
 30
0.0
 10
-73.7172
 20
-26.1102
 30
0.0
 10
-76.6527
 20
-32.4446
 30
0.0
 10
-70.0496
 20
-35.734
 30
0.0
 10
-70.0496
 20
-35.734
 30
0.0
 10
-65.4266
 20
-38.0375
 30
0.0
 10
-59.525
 20
-30.9307
 30
0.0
 10
-66.6803
 20
-27.9224
 30
0.0
 10
-66.6803
 20
-27.9224
 30
0.0
 10
-62.2013
 20
-24.6142
 30
0.0
 10
-53.9866
 20
-35.5662
 30
0.0
 10
-66.5187
 20
-43.634
 30
0.0
 10
-66.5187
 20
-43.634
 30
0.0
 10
-68.4598
 20
-39.1274
 30
0.0
 10
-71.1174
 20
-38.7275
 30
0.0
 10
-72.5212
 20
-39.3039
 30
0.0
 10
-72.5212
 20
-39.3039
 30
0.0
 10
-74.2911
 20
-40.0304
 30
0.0
 10
-75.0108
 20
-42.8466
 30
0.0
 10
-73.3266
 20
-46.6795
 30
0.0
  0
SPLINE
  5
8C
330
1F
100
AcDbEntity
  8
layer 1
 62
     7
100
AcDbSpline
210
0.0
220
0.0
230
1.0
 70
    11
 71
     3
 72
    44
 73
    40
 74
     0
 42
0.0000000001
 43
0.0000000001
 12
1.0
 22
0.0
 32
0.0
 13
1.0
 23
0.0
 33
0.0
 40
0.0
 40
0.0
 40
0.0
 40
0.0
 40
0.0909090909090909
 40
0.0909090909090909
 40
0.0909090909090909
 40
0.0909090909090909
 40
0.1818181818181818
 40
0.1818181818181818
 40
0.1818181818181818
 40
0.1818181818181818
 40
0.2727272727272727
 40
0.2727272727272727
 40
0.2727272727272727
 40
0.2727272727272727
 40
0.3636363636363636
 40
0.3636363636363636
 40
0.3636363636363636
 40
0.3636363636363636
 40
0.4545454545454545
 40
0.4545454545454545
 40
0.4545454545454545
 40
0.4545454545454545
 40
0.5454545454545454
 40
0.5454545454545454
 40
0.5454545454545454
 40
0.5454545454545454
 40
0.6363636363636364
 40
0.6363636363636364
 40
0.6363636363636364
 40
0.6363636363636364
 40
0.7272727272727273
 40
0.7272727272727273
 40
0.7272727272727273
 40
0.7272727272727273
 40
0.8181818181818182
 40
0.8181818181818182
 40
0.8181818181818182
 40
0.8181818181818182
 40
1.0
 40
1.0
 40
1.0
 40
1.0
 10
-40.1001
 20
-17.3221
 30
0.0
 10
-46.0749
 20
-27.8309
 30
0.0
 10
-59.0946
 20
-24.9931
 30
0.0
 10
-56.2271
 20
-17.4503
 30
0.0
 10
-56.2271
 20
-17.4503
 30
0.0
 10
-54.6029
 20
-22.1457
 30
0.0
 10
-47.5211
 20
-21.752
 30
0.0
 10
-48.3209
 20
-15.1489
 30
0.0
 10
-48.3209
 20
-15.1489
 30
0.0
 10
-49.0317
 20
-9.2505
 30
0.0
 10
-55.046
 20
-8.4974
 30
0.0
 10
-58.5244
 20
-10.8831
 30
0.0
 10
-58.5244
 20
-10.8831
 30
0.0
 10
-58.5454
 20
-8.9733
 30
0.0
 10
-59.7327
 20
-6.5898
 30
0.0
 10
-61.1428
 20
-4.5792
 30
0.0
 10
-61.1428
 20
-4.5792
 30
0.0
 10
-58.7438
 20
-4.2831
 30
0.0
 10
-56.4558
 20
-3.1941
 30
0.0
 10
-54.9273
 20
-1.7411
 30
0.0
 10
-54.9273
 20
-1.7411
 30
0.0
 10
-54.9239
 20
-3.0566
 30
0.0
 10
-52.5197
 20
-9.6105
 30
0.0
 10
-45.522
 20
-7.2671
 30
0.0
 10
-45.522
 20
-7.2671
 30
0.0
 10
-40.6249
 20
-5.6259
 30
0.0
 10
-41.4796
 20
3.5714
 30
0.0
 10
-48.6654
 20
0.639
 30
0.0
 10
-48.6654
 20
0.639
 30
0.0
 10
-47.8382
 20
6.1462
 30
0.0
 10
-34.2811
 20
4.2089
 30
0.0
 10
-37.4394
 20
-10.3559
 30
0.0
 10
-37.4394
 20
-10.3559
 30
0.0
 10
-41.9982
 20
-8.5428
 30
0.0
 10
-44.1582
 20
-10.1386
 30
0.0
 10
-44.7439
 20
-11.5392
 30
0.0
 10
-44.7439
 20
-11.5392
 30
0.0
 10
-45.4828
 20
-13.3031
 30
0.0
 10
-43.9995
 20
-15.8019
 30
0.0
 10
-40.1001
 20
-17.3221
 30
0.0
  0
SPLINE
  5
8D
330
1F
100
AcDbEntity
  8
layer 1
 62
     7
100
AcDbSpline
210
0.0
220
0.0
230
1.0
 70
    11
 71
     3
 72
    20
 73
    16
 74
     0
 42
0.0000000001
 43
0.0000000001
 12
1.0
 22
0.0
 32
0.0
 13
1.0
 23
0.0
 33
0.0
 40
0.0
 40
0.0
 40
0.0
 40
0.0
 40
0.2
 40
0.2
 40
0.2
 40
0.2
 40
0.4
 40
0.4
 40
0.4
 40
0.4
 40
0.6
 40
0.6
 40
0.6
 40
0.6
 40
1.0
 40
1.0
 40
1.0
 40
1.0
 10
-105.8179
 20
-49.398
 30
0.0
 10
-99.2789
 20
-53.4991
 30
0.0
 10
-92.2423
 20
-63.1353
 30
0.0
 10
-92.2117
 20
-69.5588
 30
0.0
 10
-92.2117
 20
-69.5588
 30
0.0
 10
-92.1814
 20
-63.1353
 30
0.0
 10
-85.1448
 20
-53.4991
 30
0.0
 10
-78.6057
 20
-49.398
 30
0.0
 10
-78.6057
 20
-49.398
 30
0.0
 10
-84.0799
 20
-50.5665
 30
0.0
 10
-88.6387
 20
-48.199
 30
0.0
 10
-92.2117
 20
-41.8825
 30
0.0
 10
-92.2117
 20
-41.8825
 30
0.0
 10
-95.7847
 20
-48.199
 30
0.0
 10
-100.3435
 20
-50.5667
 30
0.0
 10
-105.8179
 20
-49.398
 30
0.0
  0
SPLINE
  5
8E
330
1F
100
AcDbEntity
  8
layer 1
 62
     7
100
AcDbSpline
210
0.0
220
0.0
230
1.0
 70
    11
 71
     3
 72
    20
 73
    16
 74
     0
 42
0.0000000001
 43
0.0000000001
 12
1.0
 22
0.0
 32
0.0
 13
1.0
 23
0.0
 33
0.0
 40
0.0
 40
0.0
 40
0.0
 40
0.0
 40
0.2
 40
0.2
 40
0.2
 40
0.2
 40
0.4
 40
0.4
 40
0.4
 40
0.4
 40
0.6
 40
0.6
 40
0.6
 40
0.6
 40
1.0
 40
1.0
 40
1.0
 40
1.0
 10
-60.8888
 20
-42.163
 30
0.0
 10
-53.3649
 20
-40.4389
 30
0.0
 10
-41.5772
 20
-42.2793
 30
0.0
 10
-37.012
 20
-46.7984
 30
0.0
 10
-37.012
 20
-46.7984
 30
0.0
 10
-41.5343
 20
-42.2332
 30
0.0
 10
-43.3715
 20
-30.4456
 30
0.0
 10
-41.6474
 20
-22.9238
 30
0.0
 10
-41.6474
 20
-22.9238
 30
0.0
 10
-44.6923
 20
-27.6201
 30
0.0
 10
-49.5904
 20
-29.1699
 30
0.0
 10
-56.584
 20
-27.2295
 30
0.0
 10
-56.584
 20
-27.2295
 30
0.0
 10
-54.6427
 20
-34.2232
 30
0.0
 10
-56.1934
 20
-39.1179
 30
0.0
 10
-60.8888
 20
-42.163
 30
0.0
  0
SPLINE
  5
8F
330
1F
100
AcDbEntity
  8
layer 1
 62
     7
100
AcDbSpline
210
0.0
220
0.0
230
1.0
 70
    11
 71
     3
 72
    36
 73
    32
 74
     0
 42
0.0000000001
 43
0.0000000001
 12
1.0
 22
0.0
 32
0.0
 13
1.0
 23
0.0
 33
0.0
 40
0.0
 40
0.0
 40
0.0
 40
0.0
 40
0.1111111111111111
 40
0.1111111111111111
 40
0.1111111111111111
 40
0.1111111111111111
 40
0.2222222222222222
 40
0.2222222222222222
 40
0.2222222222222222
 40
0.2222222222222222
 40
0.3333333333333333
 40
0.3333333333333333
 40
0.3333333333333333
 40
0.3333333333333333
 40
0.4444444444444444
 40
0.4444444444444444
 40
0.4444444444444444
 40
0.4444444444444444
 40
0.5555555555555556
 40
0.5555555555555556
 40
0.5555555555555556
 40
0.5555555555555556
 40
0.6666666666666666
 40
0.6666666666666666
 40
0.6666666666666666
 40
0.6666666666666666
 40
0.7777777777777778
 40
0.7777777777777778
 40
0.7777777777777778
 40
0.7777777777777778
 40
1.0
 40
1.0
 40
1.0
 40
1.0
 10
-98.6383
 20
-23.9674
 30
0.0
 10
-99.9529
 20
-22.2434
 30
0.0
 10
-99.9624
 20
-18.9939
 30
0.0
 10
-95.5653
 20
-17.7736
 30
0.0
 10
-95.5653
 20
-17.7736
 30
0.0
 10
-102.8645
 20
-15.9487
 30
0.0
 10
-103.7799
 20
-25.7774
 30
0.0
 10
-99.9319
 20
-28.9168
 30
0.0
 10
-99.9319
 20
-28.9168
 30
0.0
 10
-97.2955
 20
-29.0302
 30
0.0
 10
-93.3711
 20
-31.3946
 30
0.0
 10
-92.157
 20
-35.4528
 30
0.0
 10
-92.157
 20
-35.4528
 30
0.0
 10
-90.9425
 20
-31.3946
 30
0.0
 10
-87.0209
 20
-29.0302
 30
0.0
 10
-84.3822
 20
-28.9168
 30
0.0
 10
-84.3822
 20
-28.9168
 30
0.0
 10
-80.5341
 20
-25.7774
 30
0.0
 10
-81.4529
 20
-15.949
 30
0.0
 10
-88.7481
 20
-17.7736
 30
0.0
 10
-88.7481
 20
-17.7736
 30
0.0
 10
-84.3518
 20
-18.9939
 30
0.0
 10
-84.3605
 20
-22.2434
 30
0.0
 10
-85.6757
 20
-23.9674
 30
0.0
 10
-85.6757
 20
-23.9674
 30
0.0
 10
-86.9882
 20
-25.6828
 30
0.0
 10
-90.3745
 20
-25.5883
 30
0.0
 10
-92.157
 20
-23.1043
 30
0.0
 10
-92.157
 20
-23.1043
 30
0.0
 10
-93.9389
 20
-25.5883
 30
0.0
 10
-97.3261
 20
-25.6828
 30
0.0
 10
-98.6383
 20
-23.9674
 30
0.0
  0
SPLINE
  5
90
330
1F
100
AcDbEntity
  8
layer 1
 62
     7
100
AcDbSpline
210
0.0
220
0.0
230
1.0
 70
    11
 71
     3
 72
    36
 73
    32
 74
     0
 42
0.0000000001
 43
0.0000000001
 12
1.0
 22
0.0
 32
0.0
 13
1.0
 23
0.0
 33
0.0
 40
0.0
 40
0.0
 40
0.0
 40
0.0
 40
0.1111111111111111
 40
0.1111111111111111
 40
0.1111111111111111
 40
0.1111111111111111
 40
0.2222222222222222
 40
0.2222222222222222
 40
0.2222222222222222
 40
0.2222222222222222
 40
0.3333333333333333
 40
0.3333333333333333
 40
0.3333333333333333
 40
0.3333333333333333
 40
0.4444444444444444
 40
0.4444444444444444
 40
0.4444444444444444
 40
0.4444444444444444
 40
0.5555555555555556
 40
0.5555555555555556
 40
0.5555555555555556
 40
0.5555555555555556
 40
0.6666666666666666
 40
0.6666666666666666
 40
0.6666666666666666
 40
0.6666666666666666
 40
0.7777777777777778
 40
0.7777777777777778
 40
0.7777777777777778
 40
0.7777777777777778
 40
1.0
 40
1.0
 40
1.0
 40
1.0
 10
-73.9951
 20
-19.2321
 30
0.0
 10
-76.1434
 20
-18.9423
 30
0.0
 10
-78.45
 20
-16.6536
 30
0.0
 10
-76.2043
 20
-12.6773
 30
0.0
 10
-76.2043
 20
-12.6773
 30
0.0
 10
-82.6552
 20
-16.5464
 30
0.0
 10
-76.3535
 20
-24.1479
 30
0.0
 10
-71.4103
 20
-23.6441
 30
0.0
 10
-71.4103
 20
-23.6441
 30
0.0
 10
-69.4668
 20
-21.8592
 30
0.0
 10
-65.0205
 20
-20.7609
 30
0.0
 10
-61.2921
 20
-22.7684
 30
0.0
 10
-61.2921
 20
-22.7684
 30
0.0
 10
-63.3026
 20
-19.043
 30
0.0
 10
-62.2013
 20
-14.5936
 30
0.0
 10
-60.4163
 20
-12.6501
 30
0.0
 10
-60.4163
 20
-12.6501
 30
0.0
 10
-59.9125
 20
-7.71
 30
0.0
 10
-67.514
 20
-1.4083
 30
0.0
 10
-71.3831
 20
-7.8561
 30
0.0
 10
-71.3831
 20
-7.8561
 30
0.0
 10
-67.41
 20
-5.6102
 30
0.0
 10
-65.1182
 20
-7.917
 30
0.0
 10
-64.8314
 20
-10.0651
 30
0.0
 10
-64.8314
 20
-10.0651
 30
0.0
 10
-64.5449
 20
-12.2079
 30
0.0
 10
-67.007
 20
-14.5327
 30
0.0
 10
-70.0253
 20
-14.0382
 30
0.0
 10
-70.0253
 20
-14.0382
 30
0.0
 10
-69.5277
 20
-17.0535
 30
0.0
 10
-71.8556
 20
-19.5189
 30
0.0
 10
-73.9951
 20
-19.2321
 30
0.0
  0
SPLINE
  5
91
330
1F
100
AcDbEntity
  8
layer 1
 62
     7
100
AcDbSpline
210
0.0
220
0.0
230
1.0
 70
    11
 71
     3
 72
    52
 73
    48
 74
     0
 42
0.0000000001
 43
0.0000000001
 12
1.0
 22
0.0
 32
0.0
 13
1.0
 23
0.0
 33
0.0
 40
0.0
 40
0.0
 40
0.0
 40
0.0
 40
0.0769230769230769
 40
0.0769230769230769
 40
0.0769230769230769
 40
0.0769230769230769
 40
0.1538461538461539
 40
0.1538461538461539
 40
0.1538461538461539
 40
0.1538461538461539
 40
0.2307692307692308
 40
0.2307692307692308
 40
0.2307692307692308
 40
0.2307692307692308
 40
0.3076923076923077
 40
0.3076923076923077
 40
0.3076923076923077
 40
0.3076923076923077
 40
0.3846153846153846
 40
0.3846153846153846
 40
0.3846153846153846
 40
0.3846153846153846
 40
0.4615384615384616
 40
0.4615384615384616
 40
0.4615384615384616
 40
0.4615384615384616
 40
0.5384615384615384
 40
0.5384615384615384
 40
0.5384615384615384
 40
0.5384615384615384
 40
0.6153846153846154
 40
0.6153846153846154
 40
0.6153846153846154
 40
0.6153846153846154
 40
0.6923076923076923
 40
0.6923076923076923
 40
0.6923076923076923
 40
0.6923076923076923
 40
0.7692307692307693
 40
0.7692307692307693
 40
0.7692307692307693
 40
0.7692307692307693
 40
0.8461538461538461
 40
0.8461538461538461
 40
0.8461538461538461
 40
0.8461538461538461
 40
1.0
 40
1.0
 40
1.0
 40
1.0
 10
-73.6437
 20
-96.4564
 30
0.0
 10
-76.1184
 20
-96.4447
 30
0.0
 10
-91.2565
 20
-93.3444
 30
0.0
 10
-89.7769
 20
-74.1723
 30
0.0
 10
-89.7769
 20
-74.1723
 30
0.0
 10
-87.2475
 20
-81.5293
 30
0.0
 10
-81.5749
 20
-79.7444
 30
0.0
 10
-81.2513
 20
-77.1627
 30
0.0
 10
-81.2513
 20
-77.1627
 30
0.0
 10
-80.4639
 20
-70.8431
 30
0.0
 10
-91.1987
 20
-72.3812
 30
0.0
 10
-85.9718
 20
-60.3679
 30
0.0
 10
-85.9718
 20
-60.3679
 30
0.0
 10
-86.1421
 20
-66.4373
 30
0.0
 10
-83.7683
 20
-71.5477
 30
0.0
 10
-78.9688
 20
-68.6215
 30
0.0
 10
-78.9688
 20
-68.6215
 30
0.0
 10
-75.3739
 20
-61.884
 30
0.0
 10
-88.4004
 20
-60.6733
 30
0.0
 10
-77.9252
 20
-51.0705
 30
0.0
 10
-77.9252
 20
-51.0705
 30
0.0
 10
-81.5505
 20
-59.7641
 30
0.0
 10
-77.5189
 20
-65.6468
 30
0.0
 10
-72.8235
 20
-61.1334
 30
0.0
 10
-72.8235
 20
-61.1334
 30
0.0
 10
-70.33
 20
-65.7843
 30
0.0
 10
-66.6015
 20
-60.8834
 30
0.0
 10
-63.9862
 20
-68.6184
 30
0.0
 10
-63.9862
 20
-68.6184
 30
0.0
 10
-65.9087
 20
-67.5022
 30
0.0
 10
-69.7356
 20
-64.6127
 30
0.0
 10
-71.6087
 20
-68.4145
 30
0.0
 10
-71.6087
 20
-68.4145
 30
0.0
 10
-72.6461
 20
-74.859
 30
0.0
 10
-64.7767
 20
-72.8787
 30
0.0
 10
-63.4247
 20
-76.3636
 30
0.0
 10
-63.4247
 20
-76.3636
 30
0.0
 10
-69.9332
 20
-73.6843
 30
0.0
 10
-76.8971
 20
-82.3652
 30
0.0
 10
-72.0908
 20
-87.5467
 30
0.0
 10
-72.0908
 20
-87.5467
 30
0.0
 10
-67.7208
 20
-92.2579
 30
0.0
 10
-61.3076
 20
-87.1991
 30
0.0
 10
-62.8972
 20
-82.4629
 30
0.0
 10
-62.8972
 20
-82.4629
 30
0.0
 10
-58.076
 20
-87.6592
 30
0.0
 10
-63.4309
 20
-98.5407
 30
0.0
 10
-73.6437
 20
-96.4564
 30
0.0
  0
SPLINE
  5
92
330
1F
100
AcDbEntity
  8
layer 1
 62
     7
100
AcDbSpline
210
0.0
220
0.0
230
1.0
 70
    11
 71
     3
 72
    28
 73
    24
 74
     0
 42
0.0000000001
 43
0.0000000001
 12
1.0
 22
0.0
 32
0.0
 13
1.0
 23
0.0
 33
0.0
 40
0.0
 40
0.0
 40
0.0
 40
0.0
 40
0.1428571428571428
 40
0.1428571428571428
 40
0.1428571428571428
 40
0.1428571428571428
 40
0.2857142857142857
 40
0.2857142857142857
 40
0.2857142857142857
 40
0.2857142857142857
 40
0.4285714285714285
 40
0.4285714285714285
 40
0.4285714285714285
 40
0.4285714285714285
 40
0.5714285714285714
 40
0.5714285714285714
 40
0.5714285714285714
 40
0.5714285714285714
 40
0.7142857142857143
 40
0.7142857142857143
 40
0.7142857142857143
 40
0.7142857142857143
 40
1.0
 40
1.0
 40
1.0
 40
1.0
 10
-63.4433
 20
-60.5169
 30
0.0
 10
-64.993
 20
-57.7924
 30
0.0
 10
-70.5589
 20
-53.9077
 30
0.0
 10
-72.5759
 20
-58.8296
 30
0.0
 10
-72.5759
 20
-58.8296
 30
0.0
 10
-74.2725
 20
-54.1185
 30
0.0
 10
-73.6288
 20
-49.8956
 30
0.0
 10
-72.3321
 20
-48.3418
 30
0.0
 10
-72.3321
 20
-48.3418
 30
0.0
 10
-70.6964
 20
-51.2992
 30
0.0
 10
-67.2054
 20
-53.1632
 30
0.0
 10
-66.4915
 20
-52.9039
 30
0.0
 10
-66.4915
 20
-52.9039
 30
0.0
 10
-65.6429
 20
-52.5992
 30
0.0
 10
-65.3963
 20
-48.8059
 30
0.0
 10
-65.9884
 20
-45.889
 30
0.0
 10
-65.9884
 20
-45.889
 30
0.0
 10
-61.3897
 20
-46.542
 30
0.0
 10
-58.9666
 20
-51.3112
 30
0.0
 10
-58.5884
 20
-52.9834
 30
0.0
 10
-58.5884
 20
-52.9834
 30
0.0
 10
-63.8002
 20
-51.5461
 30
0.0
 10
-64.7433
 20
-57.069
 30
0.0
 10
-63.4433
 20
-60.5169
 30
0.0
  0
SPLINE
  5
93
330
1F
100
AcDbEntity
  8
layer 1
 62
     7
100
AcDbSpline
210
0.0
220
0.0
230
1.0
 70
    11
 71
     3
 72
    28
 73
    24
 74
     0
 42
0.0000000001
 43
0.0000000001
 12
1.0
 22
0.0
 32
0.0
 13
1.0
 23
0.0
 33
0.0
 40
0.0
 40
0.0
 40
0.0
 40
0.0
 40
0.1428571428571428
 40
0.1428571428571428
 40
0.1428571428571428
 40
0.1428571428571428
 40
0.2857142857142857
 40
0.2857142857142857
 40
0.2857142857142857
 40
0.2857142857142857
 40
0.4285714285714285
 40
0.4285714285714285
 40
0.4285714285714285
 40
0.4285714285714285
 40
0.5714285714285714
 40
0.5714285714285714
 40
0.5714285714285714
 40
0.5714285714285714
 40
0.7142857142857143
 40
0.7142857142857143
 40
0.7142857142857143
 40
0.7142857142857143
 40
1.0
 40
1.0
 40
1.0
 40
1.0
 10
-22.9388
 20
-20.0164
 30
0.0
 10
-25.9626
 20
-19.1892
 30
0.0
 10
-32.6423
 20
-20.3765
 30
0.0
 10
-30.5888
 20
-25.2829
 30
0.0
 10
-30.5888
 20
-25.2829
 30
0.0
 10
-35.1201
 20
-23.1528
 30
0.0
 10
-37.6526
 20
-19.7109
 30
0.0
 10
-37.8331
 20
-17.6972
 30
0.0
 10
-37.8331
 20
-17.6972
 30
0.0
 10
-34.5858
 20
-18.6305
 30
0.0
 10
-30.7996
 20
-17.4775
 30
0.0
 10
-30.476
 20
-16.7908
 30
0.0
 10
-30.476
 20
-16.7908
 30
0.0
 10
-30.0941
 20
-15.9762
 30
0.0
 10
-32.6002
 20
-13.1202
 30
0.0
 10
-35.0802
 20
-11.4752
 30
0.0
 10
-35.0802
 20
-11.4752
 30
0.0
 10
-31.3666
 20
-8.6834
 30
0.0
 10
-26.2806
 20
-10.3432
 30
0.0
 10
-24.8307
 20
-11.2558
 30
0.0
 10
-24.8307
 20
-11.2558
 30
0.0
 10
-29.5332
 20
-13.9255
 30
0.0
 10
-26.2954
 20
-18.4994
 30
0.0
 10
-22.9388
 20
-20.0164
 30
0.0
  0
SPLINE
  5
94
330
1F
100
AcDbEntity
  8
layer 1
 62
     7
100
AcDbSpline
210
0.0
220
0.0
230
1.0
 70
    11
 71
     3
 72
    52
 73
    48
 74
     0
 42
0.0000000001
 43
0.0000000001
 12
1.0
 22
0.0
 32
0.0
 13
1.0
 23
0.0
 33
0.0
 40
0.0
 40
0.0
 40
0.0
 40
0.0
 40
0.0769230769230769
 40
0.0769230769230769
 40
0.0769230769230769
 40
0.0769230769230769
 40
0.1538461538461539
 40
0.1538461538461539
 40
0.1538461538461539
 40
0.1538461538461539
 40
0.2307692307692308
 40
0.2307692307692308
 40
0.2307692307692308
 40
0.2307692307692308
 40
0.3076923076923077
 40
0.3076923076923077
 40
0.3076923076923077
 40
0.3076923076923077
 40
0.3846153846153846
 40
0.3846153846153846
 40
0.3846153846153846
 40
0.3846153846153846
 40
0.4615384615384616
 40
0.4615384615384616
 40
0.4615384615384616
 40
0.4615384615384616
 40
0.5384615384615384
 40
0.5384615384615384
 40
0.5384615384615384
 40
0.5384615384615384
 40
0.6153846153846154
 40
0.6153846153846154
 40
0.6153846153846154
 40
0.6153846153846154
 40
0.6923076923076923
 40
0.6923076923076923
 40
0.6923076923076923
 40
0.6923076923076923
 40
0.7692307692307693
 40
0.7692307692307693
 40
0.7692307692307693
 40
0.7692307692307693
 40
0.8461538461538461
 40
0.8461538461538461
 40
0.8461538461538461
 40
0.8461538461538461
 40
1.0
 40
1.0
 40
1.0
 40
1.0
 10
-30.998
 20
-78.9875
 30
0.0
 10
-29.2582
 20
-77.2298
 30
0.0
 10
-20.7453
 20
-64.3346
 30
0.0
 10
-35.3491
 20
-51.8236
 30
0.0
 10
-35.3491
 20
-51.8236
 30
0.0
 10
-31.9346
 20
-58.8148
 30
0.0
 10
-37.2073
 20
-61.5638
 30
0.0
 10
-39.2611
 20
-59.9647
 30
0.0
 10
-39.2611
 20
-59.9647
 30
0.0
 10
-44.2862
 20
-56.0558
 30
0.0
 10
-35.6115
 20
-49.5504
 30
0.0
 10
-47.7992
 20
-44.754
 30
0.0
 10
-47.7992
 20
-44.754
 30
0.0
 10
-43.3863
 20
-48.9222
 30
0.0
 10
-41.4521
 20
-54.2161
 30
0.0
 10
-46.9141
 20
-55.5403
 30
0.0
 10
-46.9141
 20
-55.5403
 30
0.0
 10
-54.2218
 20
-53.3193
 30
0.0
 10
-45.8672
 20
-43.2527
 30
0.0
 10
-60.0625
 20
-43.8689
 30
0.0
 10
-60.0625
 20
-43.8689
 30
0.0
 10
-51.3534
 20
-47.4514
 30
0.0
 10
-50.0449
 20
-54.4599
 30
0.0
 10
-56.5559
 20
-54.5912
 30
0.0
 10
-56.5559
 20
-54.5912
 30
0.0
 10
-55.0302
 20
-59.6414
 30
0.0
 10
-61.1335
 20
-58.8148
 30
0.0
 10
-57.5145
 20
-66.132
 30
0.0
 10
-57.5145
 20
-66.132
 30
0.0
 10
-56.941
 20
-63.9839
 30
0.0
 10
-56.2787
 20
-59.2359
 30
0.0
 10
-52.2657
 20
-60.5997
 30
0.0
 10
-52.2657
 20
-60.5997
 30
0.0
 10
-46.9781
 20
-64.4227
 30
0.0
 10
-53.9412
 20
-68.5878
 30
0.0
 10
-52.4337
 20
-72.0054
 30
0.0
 10
-52.4337
 20
-72.0054
 30
0.0
 10
-49.7239
 20
-65.5093
 30
0.0
 10
-38.6628
 20
-66.7241
 30
0.0
 10
-38.397
 20
-73.785
 30
0.0
 10
-38.397
 20
-73.785
 30
0.0
 10
-38.1564
 20
-80.2054
 30
0.0
 10
-46.2673
 20
-81.1662
 30
0.0
 10
-48.4912
 20
-76.6924
 30
0.0
 10
-48.4912
 20
-76.6924
 30
0.0
 10
-48.2288
 20
-83.7751
 30
0.0
 10
-36.7465
 20
-87.684
 30
0.0
 10
-30.998
 20
-78.9875
 30
0.0
  0
SPLINE
  5
95
330
1F
100
AcDbEntity
  8
layer 1
 62
     7
100
AcDbSpline
210
0.0
220
0.0
230
1.0
 70
    11
 71
     3
 72
    52
 73
    48
 74
     0
 42
0.0000000001
 43
0.0000000001
 12
1.0
 22
0.0
 32
0.0
 13
1.0
 23
0.0
 33
0.0
 40
0.0
 40
0.0
 40
0.0
 40
0.0
 40
0.0769230769230769
 40
0.0769230769230769
 40
0.0769230769230769
 40
0.0769230769230769
 40
0.1538461538461539
 40
0.1538461538461539
 40
0.1538461538461539
 40
0.1538461538461539
 40
0.2307692307692308
 40
0.2307692307692308
 40
0.2307692307692308
 40
0.2307692307692308
 40
0.3076923076923077
 40
0.3076923076923077
 40
0.3076923076923077
 40
0.3076923076923077
 40
0.3846153846153846
 40
0.3846153846153846
 40
0.3846153846153846
 40
0.3846153846153846
 40
0.4615384615384616
 40
0.4615384615384616
 40
0.4615384615384616
 40
0.4615384615384616
 40
0.5384615384615384
 40
0.5384615384615384
 40
0.5384615384615384
 40
0.5384615384615384
 40
0.6153846153846154
 40
0.6153846153846154
 40
0.6153846153846154
 40
0.6153846153846154
 40
0.6923076923076923
 40
0.6923076923076923
 40
0.6923076923076923
 40
0.6923076923076923
 40
0.7692307692307693
 40
0.7692307692307693
 40
0.7692307692307693
 40
0.7692307692307693
 40
0.8461538461538461
 40
0.8461538461538461
 40
0.8461538461538461
 40
0.8461538461538461
 40
1.0
 40
1.0
 40
1.0
 40
1.0
 10
-6.9039
 20
-54.1247
 30
0.0
 10
-11.4259
 20
-56.7455
 30
0.0
 10
-21.8037
 20
-60.0685
 30
0.0
 10
-31.9315
 20
-48.2475
 30
0.0
 10
-31.9315
 20
-48.2475
 30
0.0
 10
-24.9376
 20
-51.6619
 30
0.0
 10
-22.1912
 20
-46.389
 30
0.0
 10
-23.7871
 20
-44.3361
 30
0.0
 10
-23.7871
 20
-44.3361
 30
0.0
 10
-27.6991
 20
-39.3101
 30
0.0
 10
-34.2016
 20
-47.9848
 30
0.0
 10
-39.0018
 20
-35.798
 30
0.0
 10
-39.0018
 20
-35.798
 30
0.0
 10
-34.8302
 20
-40.21
 30
0.0
 10
-29.5365
 20
-42.1451
 30
0.0
 10
-28.2115
 20
-36.683
 30
0.0
 10
-28.2115
 20
-36.683
 30
0.0
 10
-30.4333
 20
-29.3745
 30
0.0
 10
-40.5031
 20
-37.73
 30
0.0
 10
-39.8868
 20
-23.5347
 30
0.0
 10
-39.8868
 20
-23.5347
 30
0.0
 10
-36.3012
 20
-32.246
 30
0.0
 10
-29.2918
 20
-33.5553
 30
0.0
 10
-29.1607
 20
-27.0404
 30
0.0
 10
-29.1607
 20
-27.0404
 30
0.0
 10
-24.1104
 20
-28.5692
 30
0.0
 10
-24.9409
 20
-22.4637
 30
0.0
 10
-17.6207
 20
-26.0852
 30
0.0
 10
-17.6207
 20
-26.0852
 30
0.0
 10
-19.7719
 20
-26.6562
 30
0.0
 10
-24.5167
 20
-27.3179
 30
0.0
 10
-23.1529
 20
-31.3306
 30
0.0
 10
-23.1529
 20
-31.3306
 30
0.0
 10
-19.3321
 20
-36.6222
 30
0.0
 10
-15.1639
 20
-29.6557
 30
0.0
 10
-11.7495
 20
-31.1628
 30
0.0
 10
-11.7495
 20
-31.1628
 30
0.0
 10
-18.2431
 20
-33.8724
 30
0.0
 10
-17.0286
 20
-44.9338
 30
0.0
 10
-9.9676
 20
-45.1993
 30
0.0
 10
-9.9676
 20
-45.1993
 30
0.0
 10
-8.8106
 20
-45.2422
 30
0.0
 10
-7.8288
 20
-45.0166
 30
0.0
 10
-7.0259
 20
-44.5979
 30
0.0
 10
-7.0259
 20
-44.5979
 30
0.0
 10
-7.0259
 20
-44.5979
 30
0.0
 10
-6.9039
 20
-54.1247
 30
0.0
 10
-6.9039
 20
-54.1247
 30
0.0
  0
SPLINE
  5
96
330
1F
100
AcDbEntity
  8
layer 1
 62
     7
100
AcDbSpline
210
0.0
220
0.0
230
1.0
 70
    11
 71
     3
 72
    40
 73
    36
 74
     0
 42
0.0000000001
 43
0.0000000001
 12
1.0
 22
0.0
 32
0.0
 13
1.0
 23
0.0
 33
0.0
 40
0.0
 40
0.0
 40
0.0
 40
0.0
 40
0.1
 40
0.1
 40
0.1
 40
0.1
 40
0.2
 40
0.2
 40
0.2
 40
0.2
 40
0.3
 40
0.3
 40
0.3
 40
0.3
 40
0.4
 40
0.4
 40
0.4
 40
0.4
 40
0.5
 40
0.5
 40
0.5
 40
0.5
 40
0.6
 40
0.6
 40
0.6
 40
0.6
 40
0.7
 40
0.7
 40
0.7
 40
0.7
 40
0.8
 40
0.8
 40
0.8
 40
0.8
 40
1.0
 40
1.0
 40
1.0
 40
1.0
 10
-6.9469
 20
-2.2934
 30
0.0
 10
-13.1352
 20
-3.4012
 30
0.0
 10
-11.7346
 20
8.4013
 30
0.0
 10
-23.3114
 20
1.9756
 30
0.0
 10
-23.3114
 20
1.9756
 30
0.0
 10
-17.2418
 20
2.149
 30
0.0
 10
-12.1308
 20
-0.225
 30
0.0
 10
-15.057
 20
-5.0245
 30
0.0
 10
-15.057
 20
-5.0245
 30
0.0
 10
-21.7944
 20
-8.6223
 30
0.0
 10
-23.0059
 20
4.4042
 30
0.0
 10
-32.6086
 20
-6.0712
 30
0.0
 10
-32.6086
 20
-6.0712
 30
0.0
 10
-23.9151
 20
-2.4435
 30
0.0
 10
-18.0323
 20
-6.4742
 30
0.0
 10
-22.5451
 20
-11.1729
 30
0.0
 10
-22.5451
 20
-11.1729
 30
0.0
 10
-17.8948
 20
-13.6631
 30
0.0
 10
-22.7991
 20
-17.3947
 30
0.0
 10
-15.0632
 20
-20.01
 30
0.0
 10
-15.0632
 20
-20.01
 30
0.0
 10
-16.1801
 20
-18.0847
 30
0.0
 10
-19.0666
 20
-14.2617
 30
0.0
 10
-15.2647
 20
-12.3875
 30
0.0
 10
-15.2647
 20
-12.3875
 30
0.0
 10
-8.8233
 20
-11.3501
 30
0.0
 10
-10.8004
 20
-19.2195
 30
0.0
 10
-7.3189
 20
-20.5718
 30
0.0
 10
-7.3189
 20
-20.5718
 30
0.0
 10
-8.1428
 20
-18.5634
 30
0.0
 10
-7.8897
 20
-16.513
 30
0.0
 10
-6.9681
 20
-14.7834
 30
0.0
 10
-6.9681
 20
-14.7834
 30
0.0
 10
-6.9681
 20
-14.7834
 30
0.0
 10
-6.9469
 20
-2.2934
 30
0.0
 10
-6.9469
 20
-2.2934
 30
0.0
  0
SPLINE
  5
97
330
1F
100
AcDbEntity
  8
layer 1
 62
     7
100
AcDbSpline
210
0.0
220
0.0
230
1.0
 70
    11
 71
     3
 72
    16
 73
    12
 74
     0
 42
0.0000000001
 43
0.0000000001
 12
1.0
 22
0.0
 32
0.0
 13
1.0
 23
0.0
 33
0.0
 40
0.0
 40
0.0
 40
0.0
 40
0.0
 40
0.25
 40
0.25
 40
0.25
 40
0.25
 40
0.5
 40
0.5
 40
0.5
 40
0.5
 40
1.0
 40
1.0
 40
1.0
 40
1.0
 10
-9.7754
 20
5.8353
 30
0.0
 10
-8.7497
 20
5.4813
 30
0.0
 10
-7.6359
 20
5.0143
 30
0.0
 10
-6.9407
 20
4.5628
 30
0.0
 10
-6.9407
 20
4.5628
 30
0.0
 10
-6.9407
 20
4.5628
 30
0.0
 10
-6.9196
 20
5.8962
 30
0.0
 10
-6.9196
 20
5.8962
 30
0.0
 10
-6.9196
 20
5.8962
 30
0.0
 10
-7.7312
 20
5.8845
 30
0.0
 10
-8.8693
 20
5.9055
 30
0.0
 10
-9.7754
 20
5.8353
 30
0.0
  0
SPLINE
  5
98
330
1F
100
AcDbEntity
  8
layer 1
 62
     7
100
AcDbSpline
210
0.0
220
0.0
230
1.0
 70
    11
 71
     3
 72
    16
 73
    12
 74
     0
 42
0.0000000001
 43
0.0000000001
 12
1.0
 22
0.0
 32
0.0
 13
1.0
 23
0.0
 33
0.0
 40
0.0
 40
0.0
 40
0.0
 40
0.0
 40
0.25
 40
0.25
 40
0.25
 40
0.25
 40
0.5
 40
0.5
 40
0.5
 40
0.5
 40
1.0
 40
1.0
 40
1.0
 40
1.0
 10
-16.006
 20
-23.2199
 30
0.0
 10
-12.5705
 20
-23.5465
 30
0.0
 10
-8.7686
 20
-23.4949
 30
0.0
 10
-6.9469
 20
-24.5228
 30
0.0
 10
-6.9469
 20
-24.5228
 30
0.0
 10
-6.9469
 20
-24.5228
 30
0.0
 10
-6.9469
 20
-30.9128
 30
0.0
 10
-6.9469
 20
-30.9128
 30
0.0
 10
-6.9469
 20
-30.9128
 30
0.0
 10
-9.0489
 20
-27.7514
 30
0.0
 10
-13.5953
 20
-25.2032
 30
0.0
 10
-16.006
 20
-23.2199
 30
0.0
  0
SPLINE
  5
99
330
1F
100
AcDbEntity
  8
layer 1
 62
     7
100
AcDbSpline
210
0.0
220
0.0
230
1.0
 70
    11
 71
     3
 72
    24
 73
    20
 74
     0
 42
0.0000000001
 43
0.0000000001
 12
1.0
 22
0.0
 32
0.0
 13
1.0
 23
0.0
 33
0.0
 40
0.0
 40
0.0
 40
0.0
 40
0.0
 40
0.1666666666666667
 40
0.1666666666666667
 40
0.1666666666666667
 40
0.1666666666666667
 40
0.3333333333333333
 40
0.3333333333333333
 40
0.3333333333333333
 40
0.3333333333333333
 40
0.5
 40
0.5
 40
0.5
 40
0.5
 40
0.6666666666666666
 40
0.6666666666666666
 40
0.6666666666666666
 40
0.6666666666666666
 40
1.0
 40
1.0
 40
1.0
 40
1.0
 10
-13.5282
 20
-78.0509
 30
0.0
 10
-19.5516
 20
-79.5429
 30
0.0
 10
-21.6999
 20
-73.4826
 30
0.0
 10
-21.9873
 20
-70.8557
 30
0.0
 10
-21.9873
 20
-70.8557
 30
0.0
 10
-17.6995
 20
-72.4086
 30
0.0
 10
-10.8276
 20
-68.1793
 30
0.0
 10
-12.8267
 20
-61.927
 30
0.0
 10
-12.8267
 20
-61.927
 30
0.0
 10
-10.9253
 20
-62.2388
 30
0.0
 10
-8.7077
 20
-62.876
 30
0.0
 10
-6.9469
 20
-64.7493
 30
0.0
 10
-6.9469
 20
-64.7493
 30
0.0
 10
-6.9469
 20
-64.7493
 30
0.0
 10
-6.9469
 20
-70.4862
 30
0.0
 10
-6.9469
 20
-70.4862
 30
0.0
 10
-6.9469
 20
-70.4862
 30
0.0
 10
-8.9818
 20
-69.8823
 30
0.0
 10
-14.8311
 20
-73.8827
 30
0.0
 10
-13.5282
 20
-78.0509
 30
0.0
  0
SPLINE
  5
9A
330
1F
100
AcDbEntity
  8
layer 1
 62
     7
100
AcDbSpline
210
0.0
220
0.0
230
1.0
 70
    11
 71
     3
 72
    12
 73
     8
 74
     0
 42
0.0000000001
 43
0.0000000001
 12
1.0
 22
0.0
 32
0.0
 13
1.0
 23
0.0
 33
0.0
 40
0.0
 40
0.0
 40
0.0
 40
0.0
 40
0.3333333333333333
 40
0.3333333333333333
 40
0.3333333333333333
 40
0.3333333333333333
 40
1.0
 40
1.0
 40
1.0
 40
1.0
 10
-23.0457
 20
-60.8624
 30
0.0
 10
-21.8562
 20
-61.1553
 30
0.0
 10
-19.5735
 20
-62.7543
 30
0.0
 10
-19.5978
 20
-64.5877
 30
0.0
 10
-19.5978
 20
-64.5877
 30
0.0
 10
-21.139
 20
-64.6369
 30
0.0
 10
-22.7771
 20
-61.9848
 30
0.0
 10
-23.0457
 20
-60.8624
 30
0.0
  0
SPLINE
  5
9B
330
1F
100
AcDbEntity
  8
layer 1
 62
     7
100
AcDbSpline
210
0.0
220
0.0
230
1.0
 70
    11
 71
     3
 72
    16
 73
    12
 74
     0
 42
0.0000000001
 43
0.0000000001
 12
1.0
 22
0.0
 32
0.0
 13
1.0
 23
0.0
 33
0.0
 40
0.0
 40
0.0
 40
0.0
 40
0.0
 40
0.25
 40
0.25
 40
0.25
 40
0.25
 40
0.5
 40
0.5
 40
0.5
 40
0.5
 40
1.0
 40
1.0
 40
1.0
 40
1.0
 10
-6.9469
 20
-74.3216
 30
0.0
 10
-6.9469
 20
-76.43
 30
0.0
 10
-6.9218
 20
-79.7718
 30
0.0
 10
-6.9469
 20
-81.6082
 30
0.0
 10
-6.9469
 20
-81.6082
 30
0.0
 10
-7.9812
 20
-80.8334
 30
0.0
 10
-10.2364
 20
-75.9393
 30
0.0
 10
-10.5137
 20
-73.7631
 30
0.0
 10
-10.5137
 20
-73.7631
 30
0.0
 10
-9.1131
 20
-73.5709
 30
0.0
 10
-8.0936
 20
-73.8608
 30
0.0
 10
-6.9469
 20
-74.3216
 30
0.0
  0
SPLINE
  5
9C
330
1F
100
AcDbEntity
  8
layer 1
 62
     7
100
AcDbSpline
210
0.0
220
0.0
230
1.0
 70
    11
 71
     3
 72
    20
 73
    16
 74
     0
 42
0.0000000001
 43
0.0000000001
 12
1.0
 22
0.0
 32
0.0
 13
1.0
 23
0.0
 33
0.0
 40
0.0
 40
0.0
 40
0.0
 40
0.0
 40
0.2
 40
0.2
 40
0.2
 40
0.2
 40
0.4
 40
0.4
 40
0.4
 40
0.4
 40
0.6
 40
0.6
 40
0.6
 40
0.6
 40
1.0
 40
1.0
 40
1.0
 40
1.0
 10
-94.5826
 20
8.4015
 30
0.0
 10
-94.5826
 20
9.6497
 30
0.0
 10
-93.5695
 20
10.6627
 30
0.0
 10
-92.322
 20
10.6627
 30
0.0
 10
-92.322
 20
10.6627
 30
0.0
 10
-91.0705
 20
10.6627
 30
0.0
 10
-90.0605
 20
9.6497
 30
0.0
 10
-90.0605
 20
8.4013
 30
0.0
 10
-90.0605
 20
8.4013
 30
0.0
 10
-90.0605
 20
7.1509
 30
0.0
 10
-91.0705
 20
6.1407
 30
0.0
 10
-92.322
 20
6.1407
 30
0.0
 10
-92.322
 20
6.1407
 30
0.0
 10
-93.5693
 20
6.1407
 30
0.0
 10
-94.5826
 20
7.1506
 30
0.0
 10
-94.5826
 20
8.4015
 30
0.0
  0
SPLINE
  5
9D
330
1F
100
AcDbEntity
  8
layer 1
 62
     7
100
AcDbSpline
210
0.0
220
0.0
230
1.0
 70
    11
 71
     3
 72
    20
 73
    16
 74
     0
 42
0.0000000001
 43
0.0000000001
 12
1.0
 22
0.0
 32
0.0
 13
1.0
 23
0.0
 33
0.0
 40
0.0
 40
0.0
 40
0.0
 40
0.0
 40
0.2
 40
0.2
 40
0.2
 40
0.2
 40
0.4
 40
0.4
 40
0.4
 40
0.4
 40
0.6
 40
0.6
 40
0.6
 40
0.6
 40
1.0
 40
1.0
 40
1.0
 40
1.0
 10
-87.6405
 20
-13.4858
 30
0.0
 10
-85.9288
 20
-13.2178
 30
0.0
 10
-83.9152
 20
-13.7608
 30
0.0
 10
-82.2795
 20
-15.2129
 30
0.0
 10
-82.2795
 20
-15.2129
 30
0.0
 10
-82.0746
 20
-13.0562
 30
0.0
 10
-81.7155
 20
-11.7564
 30
0.0
 10
-79.9852
 20
-10.1692
 30
0.0
 10
-79.9852
 20
-10.1692
 30
0.0
 10
-81.8771
 20
-9.9706
 30
0.0
 10
-83.9792
 20
-9.4825
 30
0.0
 10
-85.1479
 20
-8.5215
 30
0.0
 10
-85.1479
 20
-8.5215
 30
0.0
 10
-85.8859
 20
-10.9533
 30
0.0
 10
-86.2648
 20
-12.4273
 30
0.0
 10
-87.6405
 20
-13.4858
 30
0.0
  0
SPLINE
  5
9E
330
1F
100
AcDbEntity
  8
layer 1
 62
     7
100
AcDbSpline
210
0.0
220
0.0
230
1.0
 70
    11
 71
     3
 72
    20
 73
    16
 74
     0
 42
0.0000000001
 43
0.0000000001
 12
1.0
 22
0.0
 32
0.0
 13
1.0
 23
0.0
 33
0.0
 40
0.0
 40
0.0
 40
0.0
 40
0.0
 40
0.2
 40
0.2
 40
0.2
 40
0.2
 40
0.4
 40
0.4
 40
0.4
 40
0.4
 40
0.6
 40
0.6
 40
0.6
 40
0.6
 40
1.0
 40
1.0
 40
1.0
 40
1.0
 10
-73.6625
 20
-4.0057
 30
0.0
 10
-72.643
 20
-2.6051
 30
0.0
 10
-70.8339
 20
-1.5677
 30
0.0
 10
-68.6489
 20
-1.4366
 30
0.0
 10
-68.6489
 20
-1.4366
 30
0.0
 10
-70.0308
 20
0.236
 30
0.0
 10
-70.6964
 20
1.4076
 30
0.0
 10
-70.5957
 20
3.7543
 30
0.0
 10
-70.5957
 20
3.7543
 30
0.0
 10
-72.0695
 20
2.5553
 30
0.0
 10
-73.9038
 20
1.4138
 30
0.0
 10
-75.4076
 20
1.267
 30
0.0
 10
-75.4076
 20
1.267
 30
0.0
 10
-74.2116
 20
-0.9756
 30
0.0
 10
-73.4366
 20
-2.2849
 30
0.0
 10
-73.6625
 20
-4.0057
 30
0.0
  0
SPLINE
  5
9F
330
1F
100
AcDbEntity
  8
layer 1
 62
     7
100
AcDbSpline
210
0.0
220
0.0
230
1.0
 70
    11
 71
     3
 72
    16
 73
    12
 74
     0
 42
0.0000000001
 43
0.0000000001
 12
1.0
 22
0.0
 32
0.0
 13
1.0
 23
0.0
 33
0.0
 40
0.0
 40
0.0
 40
0.0
 40
0.0
 40
0.25
 40
0.25
 40
0.25
 40
0.25
 40
0.5
 40
0.5
 40
0.5
 40
0.5
 40
1.0
 40
1.0
 40
1.0
 40
1.0
 10
-85.1479
 20
-4.9213
 30
0.0
 10
-81.4099
 20
-6.3827
 30
0.0
 10
-77.3267
 20
-3.6425
 30
0.0
 10
-78.2516
 20
1.6975
 30
0.0
 10
-78.2516
 20
1.6975
 30
0.0
 10
-79.2711
 20
-0.014
 30
0.0
 10
-81.1599
 20
-1.0427
 30
0.0
 10
-83.0638
 20
-0.789
 30
0.0
 10
-83.0638
 20
-0.789
 30
0.0
 10
-82.9535
 20
-2.2872
 30
0.0
 10
-83.5518
 20
-3.9417
 30
0.0
 10
-85.1479
 20
-4.9213
 30
0.0
  0
SPLINE
  5
A0
330
1F
100
AcDbEntity
  8
layer 1
 62
     7
100
AcDbSpline
210
0.0
220
0.0
230
1.0
 70
    11
 71
     3
 72
    16
 73
    12
 74
     0
 42
0.0000000001
 43
0.0000000001
 12
1.0
 22
0.0
 32
0.0
 13
1.0
 23
0.0
 33
0.0
 40
0.0
 40
0.0
 40
0.0
 40
0.0
 40
0.25
 40
0.25
 40
0.25
 40
0.25
 40
0.5
 40
0.5
 40
0.5
 40
0.5
 40
1.0
 40
1.0
 40
1.0
 40
1.0
 10
-96.5754
 20
-5.9797
 30
0.0
 10
-94.9639
 20
-9.6566
 30
0.0
 10
-90.1433
 20
-10.609
 30
0.0
 10
-87.0209
 20
-6.175
 30
0.0
 10
-87.0209
 20
-6.175
 30
0.0
 10
-88.9496
 20
-6.6664
 30
0.0
 10
-91.0127
 20
-6.0563
 30
0.0
 10
-92.1814
 20
-4.5307
 30
0.0
 10
-92.1814
 20
-4.5307
 30
0.0
 10
-93.1641
 20
-5.6711
 30
0.0
 10
-94.7537
 20
-6.4164
 30
0.0
 10
-96.5754
 20
-5.9797
 30
0.0
  0
SPLINE
  5
A1
330
1F
100
AcDbEntity
  8
layer 1
 62
     7
100
AcDbSpline
210
0.0
220
0.0
230
1.0
 70
    11
 71
     3
 72
    16
 73
    12
 74
     0
 42
0.0000000001
 43
0.0000000001
 12
1.0
 22
0.0
 32
0.0
 13
1.0
 23
0.0
 33
0.0
 40
0.0
 40
0.0
 40
0.0
 40
0.0
 40
0.25
 40
0.25
 40
0.25
 40
0.25
 40
0.5
 40
0.5
 40
0.5
 40
0.5
 40
1.0
 40
1.0
 40
1.0
 40
1.0
 10
-86.8201
 20
-3.4441
 30
0.0
 10
-87.2444
 20
-0.6554
 30
0.0
 10
-87.571
 20
0.5866
 30
0.0
 10
-88.3553
 20
3.6598
 30
0.0
 10
-88.3553
 20
3.6598
 30
0.0
 10
-89.2153
 20
2.9973
 30
0.0
 10
-90.2315
 20
2.2318
 30
0.0
 10
-91.2868
 20
2.2192
 30
0.0
 10
-91.2868
 20
2.2192
 30
0.0
 10
-89.8714
 20
-0.0359
 30
0.0
 10
-88.4709
 20
-1.7989
 30
0.0
 10
-86.8201
 20
-3.4441
 30
0.0
  0
SPLINE
  5
A2
330
1F
100
AcDbEntity
  8
layer 1
 62
     7
100
AcDbSpline
210
0.0
220
0.0
230
1.0
 70
    11
 71
     3
 72
    16
 73
    12
 74
     0
 42
0.0000000001
 43
0.0000000001
 12
1.0
 22
0.0
 32
0.0
 13
1.0
 23
0.0
 33
0.0
 40
0.0
 40
0.0
 40
0.0
 40
0.0
 40
0.25
 40
0.25
 40
0.25
 40
0.25
 40
0.5
 40
0.5
 40
0.5
 40
0.5
 40
1.0
 40
1.0
 40
1.0
 40
1.0
 10
-80.1039
 20
3.6323
 30
0.0
 10
-82.3769
 20
5.3041
 30
0.0
 10
-83.4847
 20
5.9509
 30
0.0
 10
-86.2125
 20
7.5718
 30
0.0
 10
-86.2125
 20
7.5718
 30
0.0
 10
-86.3531
 20
6.4945
 30
0.0
 10
-86.5305
 20
5.2315
 30
0.0
 10
-87.2687
 20
4.4775
 30
0.0
 10
-87.2687
 20
4.4775
 30
0.0
 10
-84.672
 20
3.8854
 30
0.0
 10
-82.4349
 20
3.6261
 30
0.0
 10
-80.1039
 20
3.6323
 30
0.0
  0
SPLINE
  5
A3
330
1F
100
AcDbEntity
  8
layer 1
 62
     7
100
AcDbSpline
210
0.0
220
0.0
230
1.0
 70
    11
 71
     3
 72
    16
 73
    12
 74
     0
 42
0.0000000001
 43
0.0000000001
 12
1.0
 22
0.0
 32
0.0
 13
1.0
 23
0.0
 33
0.0
 40
0.0
 40
0.0
 40
0.0
 40
0.0
 40
0.25
 40
0.25
 40
0.25
 40
0.25
 40
0.5
 40
0.5
 40
0.5
 40
0.5
 40
1.0
 40
1.0
 40
1.0
 40
1.0
 10
-106.91
 20
-105.8975
 30
0.0
 10
-107.1029
 20
-103.4806
 30
0.0
 10
-106.4774
 20
-101.9308
 30
0.0
 10
-105.2626
 20
-99.8835
 30
0.0
 10
-105.2626
 20
-99.8835
 30
0.0
 10
-112.6227
 20
-101.5035
 30
0.0
 10
-113.8156
 20
-104.204
 30
0.0
 10
-114.1818
 20
-105.8975
 30
0.0
 10
-114.1818
 20
-105.8975
 30
0.0
 10
-114.1818
 20
-105.8975
 30
0.0
 10
-106.91
 20
-105.8975
 30
0.0
 10
-106.91
 20
-105.8975
 30
0.0
  0
SPLINE
  5
A4
330
1F
100
AcDbEntity
  8
layer 1
 62
     7
100
AcDbSpline
210
0.0
220
0.0
230
1.0
 70
    11
 71
     3
 72
    20
 73
    16
 74
     0
 42
0.0000000001
 43
0.0000000001
 12
1.0
 22
0.0
 32
0.0
 13
1.0
 23
0.0
 33
0.0
 40
0.0
 40
0.0
 40
0.0
 40
0.0
 40
0.2
 40
0.2
 40
0.2
 40
0.2
 40
0.4
 40
0.4
 40
0.4
 40
0.4
 40
0.6
 40
0.6
 40
0.6
 40
0.6
 40
1.0
 40
1.0
 40
1.0
 40
1.0
 10
-120.4616
 20
-105.8975
 30
0.0
 10
-119.9607
 20
-104.0329
 30
0.0
 10
-117.9532
 20
-101.7231
 30
0.0
 10
-115.8419
 20
-100.7834
 30
0.0
 10
-115.8419
 20
-100.7834
 30
0.0
 10
-118.2555
 20
-100.6614
 30
0.0
 10
-121.3161
 20
-100.1428
 30
0.0
 10
-122.8238
 20
-98.5257
 30
0.0
 10
-122.8238
 20
-98.5257
 30
0.0
 10
-122.2317
 20
-101.6379
 30
0.0
 10
-123.1223
 20
-103.6916
 30
0.0
 10
-126.1437
 20
-105.8975
 30
0.0
 10
-126.1437
 20
-105.8975
 30
0.0
 10
-126.1437
 20
-105.8975
 30
0.0
 10
-120.4616
 20
-105.8975
 30
0.0
 10
-120.4616
 20
-105.8975
 30
0.0
  0
SPLINE
  5
A5
330
1F
100
AcDbEntity
  8
layer 1
 62
     7
100
AcDbSpline
210
0.0
220
0.0
230
1.0
 70
    11
 71
     3
 72
    12
 73
     8
 74
     0
 42
0.0000000001
 43
0.0000000001
 12
1.0
 22
0.0
 32
0.0
 13
1.0
 23
0.0
 33
0.0
 40
0.0
 40
0.0
 40
0.0
 40
0.0
 40
0.3333333333333333
 40
0.3333333333333333
 40
0.3333333333333333
 40
0.3333333333333333
 40
1.0
 40
1.0
 40
1.0
 40
1.0
 10
-141.4091
 20
-105.8975
 30
0.0
 10
-145.0344
 20
-104.0244
 30
0.0
 10
-152.7335
 20
-103.9416
 30
0.0
 10
-155.3878
 20
-105.8975
 30
0.0
 10
-155.3878
 20
-105.8975
 30
0.0
 10
-155.3878
 20
-105.8975
 30
0.0
 10
-141.4091
 20
-105.8975
 30
0.0
 10
-141.4091
 20
-105.8975
 30
0.0
  0
SPLINE
  5
A6
330
1F
100
AcDbEntity
  8
layer 1
 62
     7
100
AcDbSpline
210
0.0
220
0.0
230
1.0
 70
    11
 71
     3
 72
    36
 73
    32
 74
     0
 42
0.0000000001
 43
0.0000000001
 12
1.0
 22
0.0
 32
0.0
 13
1.0
 23
0.0
 33
0.0
 40
0.0
 40
0.0
 40
0.0
 40
0.0
 40
0.1111111111111111
 40
0.1111111111111111
 40
0.1111111111111111
 40
0.1111111111111111
 40
0.2222222222222222
 40
0.2222222222222222
 40
0.2222222222222222
 40
0.2222222222222222
 40
0.3333333333333333
 40
0.3333333333333333
 40
0.3333333333333333
 40
0.3333333333333333
 40
0.4444444444444444
 40
0.4444444444444444
 40
0.4444444444444444
 40
0.4444444444444444
 40
0.5555555555555556
 40
0.5555555555555556
 40
0.5555555555555556
 40
0.5555555555555556
 40
0.6666666666666666
 40
0.6666666666666666
 40
0.6666666666666666
 40
0.6666666666666666
 40
0.7777777777777778
 40
0.7777777777777778
 40
0.7777777777777778
 40
0.7777777777777778
 40
1.0
 40
1.0
 40
1.0
 40
1.0
 10
-177.5321
 20
-101.0794
 30
0.0
 10
-174.2973
 20
-99.2336
 30
0.0
 10
-170.3244
 20
-100.0662
 30
0.0
 10
-169.9705
 20
-103.4503
 30
0.0
 10
-169.9705
 20
-103.4503
 30
0.0
 10
-163.7853
 20
-102.6994
 30
0.0
 10
-165.6132
 20
-99.0507
 30
0.0
 10
-161.848
 20
-97.9369
 30
0.0
 10
-161.848
 20
-97.9369
 30
0.0
 10
-166.599
 20
-94.2808
 30
0.0
 10
-162.3449
 20
-90.9946
 30
0.0
 10
-160.2061
 20
-91.2025
 30
0.0
 10
-160.2061
 20
-91.2025
 30
0.0
 10
-155.516
 20
-89.4754
 30
0.0
 10
-155.6105
 20
-81.6301
 30
0.0
 10
-159.6539
 20
-77.9805
 30
0.0
 10
-159.6539
 20
-77.9805
 30
0.0
 10
-160.8715
 20
-83.1588
 30
0.0
 10
-167.2912
 20
-88.8768
 30
0.0
 10
-171.3806
 20
-82.6402
 30
0.0
 10
-171.3806
 20
-82.6402
 30
0.0
 10
-174.1598
 20
-87.2044
 30
0.0
 10
-175.7831
 20
-91.5564
 30
0.0
 10
-174.6511
 20
-96.4292
 30
0.0
 10
-174.6511
 20
-96.4292
 30
0.0
 10
-176.1799
 20
-95.9199
 30
0.0
 10
-176.9212
 20
-95.5472
 30
0.0
 10
-177.5321
 20
-94.7144
 30
0.0
 10
-177.5321
 20
-94.7144
 30
0.0
 10
-177.5321
 20
-94.7144
 30
0.0
 10
-177.5321
 20
-101.0794
 30
0.0
 10
-177.5321
 20
-101.0794
 30
0.0
  0
SPLINE
  5
A7
330
1F
100
AcDbEntity
  8
layer 1
 62
     7
100
AcDbSpline
210
0.0
220
0.0
230
1.0
 70
    11
 71
     3
 72
    24
 73
    20
 74
     0
 42
0.0000000001
 43
0.0000000001
 12
1.0
 22
0.0
 32
0.0
 13
1.0
 23
0.0
 33
0.0
 40
0.0
 40
0.0
 40
0.0
 40
0.0
 40
0.1666666666666667
 40
0.1666666666666667
 40
0.1666666666666667
 40
0.1666666666666667
 40
0.3333333333333333
 40
0.3333333333333333
 40
0.3333333333333333
 40
0.3333333333333333
 40
0.5
 40
0.5
 40
0.5
 40
0.5
 40
0.6666666666666666
 40
0.6666666666666666
 40
0.6666666666666666
 40
0.6666666666666666
 40
1.0
 40
1.0
 40
1.0
 40
1.0
 10
-146.667
 20
-101.009
 30
0.0
 10
-148.4152
 20
-100.0241
 30
0.0
 10
-151.1985
 20
-93.9029
 30
0.0
 10
-145.7609
 20
-88.6605
 30
0.0
 10
-145.7609
 20
-88.6605
 30
0.0
 10
-148.4581
 20
-88.7028
 30
0.0
 10
-150.6002
 20
-87.5372
 30
0.0
 10
-152.3546
 20
-85.7219
 30
0.0
 10
-152.3546
 20
-85.7219
 30
0.0
 10
-151.4
 20
-87.9769
 30
0.0
 10
-152.1781
 20
-98.0797
 30
0.0
 10
-159.492
 20
-98.1353
 30
0.0
 10
-159.492
 20
-98.1353
 30
0.0
 10
-157.5297
 20
-99.2914
 30
0.0
 10
-157.054
 20
-100.463
 30
0.0
 10
-157.1393
 20
-102.1839
 30
0.0
 10
-157.1393
 20
-102.1839
 30
0.0
 10
-154.2255
 20
-100.7161
 30
0.0
 10
-150.8321
 20
-99.9351
 30
0.0
 10
-146.667
 20
-101.009
 30
0.0
  0
SPLINE
  5
A8
330
1F
100
AcDbEntity
  8
layer 1
 62
     7
100
AcDbSpline
210
0.0
220
0.0
230
1.0
 70
    11
 71
     3
 72
    24
 73
    20
 74
     0
 42
0.0000000001
 43
0.0000000001
 12
1.0
 22
0.0
 32
0.0
 13
1.0
 23
0.0
 33
0.0
 40
0.0
 40
0.0
 40
0.0
 40
0.0
 40
0.1666666666666667
 40
0.1666666666666667
 40
0.1666666666666667
 40
0.1666666666666667
 40
0.3333333333333333
 40
0.3333333333333333
 40
0.3333333333333333
 40
0.3333333333333333
 40
0.5
 40
0.5
 40
0.5
 40
0.5
 40
0.6666666666666666
 40
0.6666666666666666
 40
0.6666666666666666
 40
0.6666666666666666
 40
1.0
 40
1.0
 40
1.0
 40
1.0
 10
-131.7062
 20
-102.5745
 30
0.0
 10
-128.8591
 20
-102.4682
 30
0.0
 10
-125.0939
 20
-99.5717
 30
0.0
 10
-127.4771
 20
-94.6232
 30
0.0
 10
-127.4771
 20
-94.6232
 30
0.0
 10
-130.565
 20
-88.9988
 30
0.0
 10
-133.6834
 20
-87.3419
 30
0.0
 10
-139.35
 20
-88.9503
 30
0.0
 10
-139.35
 20
-88.9503
 30
0.0
 10
-147.488
 20
-92.4749
 30
0.0
 10
-143.4753
 20
-98.1774
 30
0.0
 10
-141.9895
 20
-97.7447
 30
0.0
 10
-141.9895
 20
-97.7447
 30
0.0
 10
-144.9157
 20
-91.0798
 30
0.0
 10
-135.5419
 20
-91.3697
 30
0.0
 10
-135.2363
 20
-95.8284
 30
0.0
 10
-135.2363
 20
-95.8284
 30
0.0
 10
-129.976
 20
-93.189
 30
0.0
 10
-127.5591
 20
-99.0531
 30
0.0
 10
-131.7062
 20
-102.5745
 30
0.0
  0
SPLINE
  5
A9
330
1F
100
AcDbEntity
  8
layer 1
 62
     7
100
AcDbSpline
210
0.0
220
0.0
230
1.0
 70
    11
 71
     3
 72
    24
 73
    20
 74
     0
 42
0.0000000001
 43
0.0000000001
 12
1.0
 22
0.0
 32
0.0
 13
1.0
 23
0.0
 33
0.0
 40
0.0
 40
0.0
 40
0.0
 40
0.0
 40
0.1666666666666667
 40
0.1666666666666667
 40
0.1666666666666667
 40
0.1666666666666667
 40
0.3333333333333333
 40
0.3333333333333333
 40
0.3333333333333333
 40
0.3333333333333333
 40
0.5
 40
0.5
 40
0.5
 40
0.5
 40
0.6666666666666666
 40
0.6666666666666666
 40
0.6666666666666666
 40
0.6666666666666666
 40
1.0
 40
1.0
 40
1.0
 40
1.0
 10
-128.8715
 20
-88.7887
 30
0.0
 10
-129.1518
 20
-86.8233
 30
0.0
 10
-129.0028
 20
-80.7021
 30
0.0
 10
-124.8377
 20
-78.197
 30
0.0
 10
-124.8377
 20
-78.197
 30
0.0
 10
-124.3946
 20
-73.4396
 30
0.0
 10
-124.2299
 20
-70.2455
 30
0.0
 10
-124.0534
 20
-67.9326
 30
0.0
 10
-124.0534
 20
-67.9326
 30
0.0
 10
-125.7101
 20
-69.641
 30
0.0
 10
-127.6505
 20
-73.6108
 30
0.0
 10
-130.3511
 20
-75.5487
 30
0.0
 10
-130.3511
 20
-75.5487
 30
0.0
 10
-129.759
 20
-78.6609
 30
0.0
 10
-131.8249
 20
-83.7447
 30
0.0
 10
-134.8457
 20
-85.9506
 30
0.0
 10
-134.8457
 20
-85.9506
 30
0.0
 10
-132.8107
 20
-86.442
 30
0.0
 10
-129.8081
 20
-87.7114
 30
0.0
 10
-128.8715
 20
-88.7887
 30
0.0
  0
SPLINE
  5
AA
330
1F
100
AcDbEntity
  8
layer 1
 62
     7
100
AcDbSpline
210
0.0
220
0.0
230
1.0
 70
    11
 71
     3
 72
    44
 73
    40
 74
     0
 42
0.0000000001
 43
0.0000000001
 12
1.0
 22
0.0
 32
0.0
 13
1.0
 23
0.0
 33
0.0
 40
0.0
 40
0.0
 40
0.0
 40
0.0
 40
0.0909090909090909
 40
0.0909090909090909
 40
0.0909090909090909
 40
0.0909090909090909
 40
0.1818181818181818
 40
0.1818181818181818
 40
0.1818181818181818
 40
0.1818181818181818
 40
0.2727272727272727
 40
0.2727272727272727
 40
0.2727272727272727
 40
0.2727272727272727
 40
0.3636363636363636
 40
0.3636363636363636
 40
0.3636363636363636
 40
0.3636363636363636
 40
0.4545454545454545
 40
0.4545454545454545
 40
0.4545454545454545
 40
0.4545454545454545
 40
0.5454545454545454
 40
0.5454545454545454
 40
0.5454545454545454
 40
0.5454545454545454
 40
0.6363636363636364
 40
0.6363636363636364
 40
0.6363636363636364
 40
0.6363636363636364
 40
0.7272727272727273
 40
0.7272727272727273
 40
0.7272727272727273
 40
0.7272727272727273
 40
0.8181818181818182
 40
0.8181818181818182
 40
0.8181818181818182
 40
0.8181818181818182
 40
1.0
 40
1.0
 40
1.0
 40
1.0
 10
-111.1518
 20
-46.6795
 30
0.0
 10
-99.4952
 20
-49.8832
 30
0.0
 10
-92.297
 20
-38.6728
 30
0.0
 10
-99.6571
 20
-35.3644
 30
0.0
 10
-99.6571
 20
-35.3644
 30
0.0
 10
-97.4846
 20
-39.8351
 30
0.0
 10
-102.7731
 20
-44.562
 30
0.0
 10
-106.8764
 20
-39.328
 30
0.0
 10
-106.8764
 20
-39.328
 30
0.0
 10
-110.5417
 20
-34.6536
 30
0.0
 10
-106.8217
 20
-29.8692
 30
0.0
 10
-102.6754
 20
-29.0973
 30
0.0
 10
-102.6754
 20
-29.0973
 30
0.0
 10
-104.0111
 20
-27.7304
 30
0.0
 10
-104.8572
 20
-25.2063
 30
0.0
 10
-105.2836
 20
-22.7872
 30
0.0
 10
-105.2836
 20
-22.7872
 30
0.0
 10
-107.1882
 20
-24.2761
 30
0.0
 10
-109.5769
 20
-25.1213
 30
0.0
 10
-111.6861
 20
-25.176
 30
0.0
 10
-111.6861
 20
-25.176
 30
0.0
 10
-110.7581
 20
-26.1102
 30
0.0
 10
-107.8223
 20
-32.4446
 30
0.0
 10
-114.4287
 20
-35.734
 30
0.0
 10
-114.4287
 20
-35.734
 30
0.0
 10
-119.0484
 20
-38.0375
 30
0.0
 10
-124.9533
 20
-30.9307
 30
0.0
 10
-117.7947
 20
-27.9224
 30
0.0
 10
-117.7947
 20
-27.9224
 30
0.0
 10
-122.2738
 20
-24.6142
 30
0.0
 10
-130.4917
 20
-35.5662
 30
0.0
 10
-117.9594
 20
-43.634
 30
0.0
 10
-117.9594
 20
-43.634
 30
0.0
 10
-116.019
 20
-39.1274
 30
0.0
 10
-113.3607
 20
-38.7275
 30
0.0
 10
-111.9571
 20
-39.3039
 30
0.0
 10
-111.9571
 20
-39.3039
 30
0.0
 10
-110.1876
 20
-40.0304
 30
0.0
 10
-109.4676
 20
-42.8466
 30
0.0
 10
-111.1518
 20
-46.6795
 30
0.0
  0
SPLINE
  5
AB
330
1F
100
AcDbEntity
  8
layer 1
 62
     7
100
AcDbSpline
210
0.0
220
0.0
230
1.0
 70
    11
 71
     3
 72
    44
 73
    40
 74
     0
 42
0.0000000001
 43
0.0000000001
 12
1.0
 22
0.0
 32
0.0
 13
1.0
 23
0.0
 33
0.0
 40
0.0
 40
0.0
 40
0.0
 40
0.0
 40
0.0909090909090909
 40
0.0909090909090909
 40
0.0909090909090909
 40
0.0909090909090909
 40
0.1818181818181818
 40
0.1818181818181818
 40
0.1818181818181818
 40
0.1818181818181818
 40
0.2727272727272727
 40
0.2727272727272727
 40
0.2727272727272727
 40
0.2727272727272727
 40
0.3636363636363636
 40
0.3636363636363636
 40
0.3636363636363636
 40
0.3636363636363636
 40
0.4545454545454545
 40
0.4545454545454545
 40
0.4545454545454545
 40
0.4545454545454545
 40
0.5454545454545454
 40
0.5454545454545454
 40
0.5454545454545454
 40
0.5454545454545454
 40
0.6363636363636364
 40
0.6363636363636364
 40
0.6363636363636364
 40
0.6363636363636364
 40
0.7272727272727273
 40
0.7272727272727273
 40
0.7272727272727273
 40
0.7272727272727273
 40
0.8181818181818182
 40
0.8181818181818182
 40
0.8181818181818182
 40
0.8181818181818182
 40
1.0
 40
1.0
 40
1.0
 40
1.0
 10
-144.3752
 20
-17.3221
 30
0.0
 10
-138.4008
 20
-27.8309
 30
0.0
 10
-125.3835
 20
-24.9931
 30
0.0
 10
-128.2488
 20
-17.4503
 30
0.0
 10
-128.2488
 20
-17.4503
 30
0.0
 10
-129.8752
 20
-22.1457
 30
0.0
 10
-136.9541
 20
-21.752
 30
0.0
 10
-136.1581
 20
-15.1489
 30
0.0
 10
-136.1581
 20
-15.1489
 30
0.0
 10
-135.4442
 20
-9.2505
 30
0.0
 10
-129.4299
 20
-8.4974
 30
0.0
 10
-125.9508
 20
-10.8831
 30
0.0
 10
-125.9508
 20
-10.8831
 30
0.0
 10
-125.9296
 20
-8.9733
 30
0.0
 10
-124.7431
 20
-6.5898
 30
0.0
 10
-123.3362
 20
-4.5792
 30
0.0
 10
-123.3362
 20
-4.5792
 30
0.0
 10
-125.7343
 20
-4.2831
 30
0.0
 10
-128.0201
 20
-3.1941
 30
0.0
 10
-129.552
 20
-1.7411
 30
0.0
 10
-129.552
 20
-1.7411
 30
0.0
 10
-129.5551
 20
-3.0566
 30
0.0
 10
-131.9593
 20
-9.6105
 30
0.0
 10
-138.9563
 20
-7.2671
 30
0.0
 10
-138.9563
 20
-7.2671
 30
0.0
 10
-143.8502
 20
-5.6259
 30
0.0
 10
-142.9994
 20
3.5714
 30
0.0
 10
-135.8129
 20
0.639
 30
0.0
 10
-135.8129
 20
0.639
 30
0.0
 10
-136.6402
 20
6.1462
 30
0.0
 10
-150.1948
 20
4.2089
 30
0.0
 10
-147.0396
 20
-10.3559
 30
0.0
 10
-147.0396
 20
-10.3559
 30
0.0
 10
-142.4808
 20
-8.5428
 30
0.0
 10
-140.317
 20
-10.1386
 30
0.0
 10
-139.7311
 20
-11.5392
 30
0.0
 10
-139.7311
 20
-11.5392
 30
0.0
 10
-138.9929
 20
-13.3031
 30
0.0
 10
-140.4756
 20
-15.8019
 30
0.0
 10
-144.3752
 20
-17.3221
 30
0.0
  0
SPLINE
  5
AC
330
1F
100
AcDbEntity
  8
layer 1
 62
     7
100
AcDbSpline
210
0.0
220
0.0
230
1.0
 70
    11
 71
     3
 72
    20
 73
    16
 74
     0
 42
0.0000000001
 43
0.0000000001
 12
1.0
 22
0.0
 32
0.0
 13
1.0
 23
0.0
 33
0.0
 40
0.0
 40
0.0
 40
0.0
 40
0.0
 40
0.2
 40
0.2
 40
0.2
 40
0.2
 40
0.4
 40
0.4
 40
0.4
 40
0.4
 40
0.6
 40
0.6
 40
0.6
 40
0.6
 40
1.0
 40
1.0
 40
1.0
 40
1.0
 10
-123.5893
 20
-42.163
 30
0.0
 10
-131.111
 20
-40.4389
 30
0.0
 10
-142.8987
 20
-42.2793
 30
0.0
 10
-147.463
 20
-46.7984
 30
0.0
 10
-147.463
 20
-46.7984
 30
0.0
 10
-142.941
 20
-42.2332
 30
0.0
 10
-141.1044
 20
-30.4456
 30
0.0
 10
-142.8285
 20
-22.9238
 30
0.0
 10
-142.8285
 20
-22.9238
 30
0.0
 10
-139.7827
 20
-27.6201
 30
0.0
 10
-134.8886
 20
-29.1699
 30
0.0
 10
-127.895
 20
-27.2295
 30
0.0
 10
-127.895
 20
-27.2295
 30
0.0
 10
-129.8323
 20
-34.2232
 30
0.0
 10
-128.2856
 20
-39.1179
 30
0.0
 10
-123.5893
 20
-42.163
 30
0.0
  0
SPLINE
  5
AD
330
1F
100
AcDbEntity
  8
layer 1
 62
     7
100
AcDbSpline
210
0.0
220
0.0
230
1.0
 70
    11
 71
     3
 72
    36
 73
    32
 74
     0
 42
0.0000000001
 43
0.0000000001
 12
1.0
 22
0.0
 32
0.0
 13
1.0
 23
0.0
 33
0.0
 40
0.0
 40
0.0
 40
0.0
 40
0.0
 40
0.1111111111111111
 40
0.1111111111111111
 40
0.1111111111111111
 40
0.1111111111111111
 40
0.2222222222222222
 40
0.2222222222222222
 40
0.2222222222222222
 40
0.2222222222222222
 40
0.3333333333333333
 40
0.3333333333333333
 40
0.3333333333333333
 40
0.3333333333333333
 40
0.4444444444444444
 40
0.4444444444444444
 40
0.4444444444444444
 40
0.4444444444444444
 40
0.5555555555555556
 40
0.5555555555555556
 40
0.5555555555555556
 40
0.5555555555555556
 40
0.6666666666666666
 40
0.6666666666666666
 40
0.6666666666666666
 40
0.6666666666666666
 40
0.7777777777777778
 40
0.7777777777777778
 40
0.7777777777777778
 40
0.7777777777777778
 40
1.0
 40
1.0
 40
1.0
 40
1.0
 10
-110.4837
 20
-19.2321
 30
0.0
 10
-108.3325
 20
-18.9423
 30
0.0
 10
-106.029
 20
-16.6536
 30
0.0
 10
-108.2747
 20
-12.6773
 30
0.0
 10
-108.2747
 20
-12.6773
 30
0.0
 10
-101.824
 20
-16.5464
 30
0.0
 10
-108.1248
 20
-24.1479
 30
0.0
 10
-113.0647
 20
-23.6441
 30
0.0
 10
-113.0647
 20
-23.6441
 30
0.0
 10
-115.0122
 20
-21.8592
 30
0.0
 10
-119.4578
 20
-20.7609
 30
0.0
 10
-123.1832
 20
-22.7684
 30
0.0
 10
-123.1832
 20
-22.7684
 30
0.0
 10
-121.1755
 20
-19.043
 30
0.0
 10
-122.2738
 20
-14.5936
 30
0.0
 10
-124.0618
 20
-12.6501
 30
0.0
 10
-124.0618
 20
-12.6501
 30
0.0
 10
-124.5627
 20
-7.71
 30
0.0
 10
-116.9652
 20
-1.4083
 30
0.0
 10
-113.0921
 20
-7.8561
 30
0.0
 10
-113.0921
 20
-7.8561
 30
0.0
 10
-117.0682
 20
-5.6102
 30
0.0
 10
-119.3602
 20
-7.917
 30
0.0
 10
-119.6467
 20
-10.0651
 30
0.0
 10
-119.6467
 20
-10.0651
 30
0.0
 10
-119.9335
 20
-12.2079
 30
0.0
 10
-117.4714
 20
-14.5327
 30
0.0
 10
-114.4537
 20
-14.0382
 30
0.0
 10
-114.4537
 20
-14.0382
 30
0.0
 10
-114.9473
 20
-17.0535
 30
0.0
 10
-112.6227
 20
-19.5189
 30
0.0
 10
-110.4837
 20
-19.2321
 30
0.0
  0
SPLINE
  5
AE
330
1F
100
AcDbEntity
  8
layer 1
 62
     7
100
AcDbSpline
210
0.0
220
0.0
230
1.0
 70
    11
 71
     3
 72
    52
 73
    48
 74
     0
 42
0.0000000001
 43
0.0000000001
 12
1.0
 22
0.0
 32
0.0
 13
1.0
 23
0.0
 33
0.0
 40
0.0
 40
0.0
 40
0.0
 40
0.0
 40
0.0769230769230769
 40
0.0769230769230769
 40
0.0769230769230769
 40
0.0769230769230769
 40
0.1538461538461539
 40
0.1538461538461539
 40
0.1538461538461539
 40
0.1538461538461539
 40
0.2307692307692308
 40
0.2307692307692308
 40
0.2307692307692308
 40
0.2307692307692308
 40
0.3076923076923077
 40
0.3076923076923077
 40
0.3076923076923077
 40
0.3076923076923077
 40
0.3846153846153846
 40
0.3846153846153846
 40
0.3846153846153846
 40
0.3846153846153846
 40
0.4615384615384616
 40
0.4615384615384616
 40
0.4615384615384616
 40
0.4615384615384616
 40
0.5384615384615384
 40
0.5384615384615384
 40
0.5384615384615384
 40
0.5384615384615384
 40
0.6153846153846154
 40
0.6153846153846154
 40
0.6153846153846154
 40
0.6153846153846154
 40
0.6923076923076923
 40
0.6923076923076923
 40
0.6923076923076923
 40
0.6923076923076923
 40
0.7692307692307693
 40
0.7692307692307693
 40
0.7692307692307693
 40
0.7692307692307693
 40
0.8461538461538461
 40
0.8461538461538461
 40
0.8461538461538461
 40
0.8461538461538461
 40
1.0
 40
1.0
 40
1.0
 40
1.0
 10
-110.8313
 20
-96.4564
 30
0.0
 10
-108.3597
 20
-96.4447
 30
0.0
 10
-93.2219
 20
-93.3444
 30
0.0
 10
-94.7021
 20
-74.1723
 30
0.0
 10
-94.7021
 20
-74.1723
 30
0.0
 10
-97.2315
 20
-81.5293
 30
0.0
 10
-102.9044
 20
-79.7444
 30
0.0
 10
-103.2245
 20
-77.1627
 30
0.0
 10
-103.2245
 20
-77.1627
 30
0.0
 10
-104.0142
 20
-70.8431
 30
0.0
 10
-93.2797
 20
-72.3812
 30
0.0
 10
-98.5041
 20
-60.3679
 30
0.0
 10
-98.5041
 20
-60.3679
 30
0.0
 10
-98.3329
 20
-66.4373
 30
0.0
 10
-100.7069
 20
-71.5477
 30
0.0
 10
-105.5071
 20
-68.6215
 30
0.0
 10
-105.5071
 20
-68.6215
 30
0.0
 10
-109.1042
 20
-61.884
 30
0.0
 10
-96.0777
 20
-60.6733
 30
0.0
 10
-106.55
 20
-51.0705
 30
0.0
 10
-106.55
 20
-51.0705
 30
0.0
 10
-102.9254
 20
-59.7641
 30
0.0
 10
-106.9561
 20
-65.6468
 30
0.0
 10
-111.6555
 20
-61.1334
 30
0.0
 10
-111.6555
 20
-61.1334
 30
0.0
 10
-114.145
 20
-65.7843
 30
0.0
 10
-117.8766
 20
-60.8834
 30
0.0
 10
-120.4919
 20
-68.6184
 30
0.0
 10
-120.4919
 20
-68.6184
 30
0.0
 10
-118.5666
 20
-67.5022
 30
0.0
 10
-114.7403
 20
-64.6127
 30
0.0
 10
-112.8694
 20
-68.4145
 30
0.0
 10
-112.8694
 20
-68.4145
 30
0.0
 10
-111.832
 20
-74.859
 30
0.0
 10
-119.7014
 20
-72.8787
 30
0.0
 10
-121.0537
 20
-76.3636
 30
0.0
 10
-121.0537
 20
-76.3636
 30
0.0
 10
-114.545
 20
-73.6843
 30
0.0
 10
-107.5819
 20
-82.3652
 30
0.0
 10
-112.3876
 20
-87.5467
 30
0.0
 10
-112.3876
 20
-87.5467
 30
0.0
 10
-116.7542
 20
-92.2579
 30
0.0
 10
-123.1683
 20
-87.1991
 30
0.0
 10
-121.5787
 20
-82.4629
 30
0.0
 10
-121.5787
 20
-82.4629
 30
0.0
 10
-126.3999
 20
-87.6592
 30
0.0
 10
-121.0475
 20
-98.5407
 30
0.0
 10
-110.8313
 20
-96.4564
 30
0.0
  0
SPLINE
  5
AF
330
1F
100
AcDbEntity
  8
layer 1
 62
     7
100
AcDbSpline
210
0.0
220
0.0
230
1.0
 70
    11
 71
     3
 72
    28
 73
    24
 74
     0
 42
0.0000000001
 43
0.0000000001
 12
1.0
 22
0.0
 32
0.0
 13
1.0
 23
0.0
 33
0.0
 40
0.0
 40
0.0
 40
0.0
 40
0.0
 40
0.1428571428571428
 40
0.1428571428571428
 40
0.1428571428571428
 40
0.1428571428571428
 40
0.2857142857142857
 40
0.2857142857142857
 40
0.2857142857142857
 40
0.2857142857142857
 40
0.4285714285714285
 40
0.4285714285714285
 40
0.4285714285714285
 40
0.4285714285714285
 40
0.5714285714285714
 40
0.5714285714285714
 40
0.5714285714285714
 40
0.5714285714285714
 40
0.7142857142857143
 40
0.7142857142857143
 40
0.7142857142857143
 40
0.7142857142857143
 40
1.0
 40
1.0
 40
1.0
 40
1.0
 10
-121.0349
 20
-60.5169
 30
0.0
 10
-119.482
 20
-57.7924
 30
0.0
 10
-113.9194
 20
-53.9077
 30
0.0
 10
-111.8993
 20
-58.8296
 30
0.0
 10
-111.8993
 20
-58.8296
 30
0.0
 10
-110.2025
 20
-54.1185
 30
0.0
 10
-110.8462
 20
-49.8956
 30
0.0
 10
-112.1438
 20
-48.3418
 30
0.0
 10
-112.1438
 20
-48.3418
 30
0.0
 10
-113.7788
 20
-51.2992
 30
0.0
 10
-117.273
 20
-53.1632
 30
0.0
 10
-117.9838
 20
-52.9039
 30
0.0
 10
-117.9838
 20
-52.9039
 30
0.0
 10
-118.8321
 20
-52.5992
 30
0.0
 10
-119.0796
 20
-48.8059
 30
0.0
 10
-118.4906
 20
-45.889
 30
0.0
 10
-118.4906
 20
-45.889
 30
0.0
 10
-123.0886
 20
-46.542
 30
0.0
 10
-125.5117
 20
-51.3112
 30
0.0
 10
-125.8897
 20
-52.9834
 30
0.0
 10
-125.8897
 20
-52.9834
 30
0.0
 10
-120.6779
 20
-51.5461
 30
0.0
 10
-119.7351
 20
-57.069
 30
0.0
 10
-121.0349
 20
-60.5169
 30
0.0
  0
SPLINE
  5
B0
330
1F
100
AcDbEntity
  8
layer 1
 62
     7
100
AcDbSpline
210
0.0
220
0.0
230
1.0
 70
    11
 71
     3
 72
    28
 73
    24
 74
     0
 42
0.0000000001
 43
0.0000000001
 12
1.0
 22
0.0
 32
0.0
 13
1.0
 23
0.0
 33
0.0
 40
0.0
 40
0.0
 40
0.0
 40
0.0
 40
0.1428571428571428
 40
0.1428571428571428
 40
0.1428571428571428
 40
0.1428571428571428
 40
0.2857142857142857
 40
0.2857142857142857
 40
0.2857142857142857
 40
0.2857142857142857
 40
0.4285714285714285
 40
0.4285714285714285
 40
0.4285714285714285
 40
0.4285714285714285
 40
0.5714285714285714
 40
0.5714285714285714
 40
0.5714285714285714
 40
0.5714285714285714
 40
0.7142857142857143
 40
0.7142857142857143
 40
0.7142857142857143
 40
0.7142857142857143
 40
1.0
 40
1.0
 40
1.0
 40
1.0
 10
-161.5396
 20
-20.0164
 30
0.0
 10
-158.5157
 20
-19.1892
 30
0.0
 10
-151.8327
 20
-20.3765
 30
0.0
 10
-153.8865
 20
-25.2829
 30
0.0
 10
-153.8865
 20
-25.2829
 30
0.0
 10
-149.358
 20
-23.1528
 30
0.0
 10
-146.8255
 20
-19.7109
 30
0.0
 10
-146.6459
 20
-17.6972
 30
0.0
 10
-146.6459
 20
-17.6972
 30
0.0
 10
-149.8923
 20
-18.6305
 30
0.0
 10
-153.6794
 20
-17.4775
 30
0.0
 10
-153.9999
 20
-16.7908
 30
0.0
 10
-153.9999
 20
-16.7908
 30
0.0
 10
-154.384
 20
-15.9762
 30
0.0
 10
-151.8757
 20
-13.1202
 30
0.0
 10
-149.3948
 20
-11.4752
 30
0.0
 10
-149.3948
 20
-11.4752
 30
0.0
 10
-153.1084
 20
-8.6834
 30
0.0
 10
-158.1953
 20
-10.3432
 30
0.0
 10
-159.6443
 20
-11.2558
 30
0.0
 10
-159.6443
 20
-11.2558
 30
0.0
 10
-154.9458
 20
-13.9255
 30
0.0
 10
-158.1829
 20
-18.4994
 30
0.0
 10
-161.5396
 20
-20.0164
 30
0.0
  0
SPLINE
  5
B1
330
1F
100
AcDbEntity
  8
layer 1
 62
     7
100
AcDbSpline
210
0.0
220
0.0
230
1.0
 70
    11
 71
     3
 72
    52
 73
    48
 74
     0
 42
0.0000000001
 43
0.0000000001
 12
1.0
 22
0.0
 32
0.0
 13
1.0
 23
0.0
 33
0.0
 40
0.0
 40
0.0
 40
0.0
 40
0.0
 40
0.0769230769230769
 40
0.0769230769230769
 40
0.0769230769230769
 40
0.0769230769230769
 40
0.1538461538461539
 40
0.1538461538461539
 40
0.1538461538461539
 40
0.1538461538461539
 40
0.2307692307692308
 40
0.2307692307692308
 40
0.2307692307692308
 40
0.2307692307692308
 40
0.3076923076923077
 40
0.3076923076923077
 40
0.3076923076923077
 40
0.3076923076923077
 40
0.3846153846153846
 40
0.3846153846153846
 40
0.3846153846153846
 40
0.3846153846153846
 40
0.4615384615384616
 40
0.4615384615384616
 40
0.4615384615384616
 40
0.4615384615384616
 40
0.5384615384615384
 40
0.5384615384615384
 40
0.5384615384615384
 40
0.5384615384615384
 40
0.6153846153846154
 40
0.6153846153846154
 40
0.6153846153846154
 40
0.6153846153846154
 40
0.6923076923076923
 40
0.6923076923076923
 40
0.6923076923076923
 40
0.6923076923076923
 40
0.7692307692307693
 40
0.7692307692307693
 40
0.7692307692307693
 40
0.7692307692307693
 40
0.8461538461538461
 40
0.8461538461538461
 40
0.8461538461538461
 40
0.8461538461538461
 40
1.0
 40
1.0
 40
1.0
 40
1.0
 10
-153.481
 20
-78.9875
 30
0.0
 10
-155.2168
 20
-77.2298
 30
0.0
 10
-163.7337
 20
-64.3346
 30
0.0
 10
-149.1262
 20
-51.8236
 30
0.0
 10
-149.1262
 20
-51.8236
 30
0.0
 10
-152.5406
 20
-58.8148
 30
0.0
 10
-147.2677
 20
-61.5638
 30
0.0
 10
-145.2148
 20
-59.9647
 30
0.0
 10
-145.2148
 20
-59.9647
 30
0.0
 10
-140.1888
 20
-56.0558
 30
0.0
 10
-148.8667
 20
-49.5504
 30
0.0
 10
-136.6767
 20
-44.754
 30
0.0
 10
-136.6767
 20
-44.754
 30
0.0
 10
-141.0887
 20
-48.9222
 30
0.0
 10
-143.0269
 20
-54.2161
 30
0.0
 10
-137.5618
 20
-55.5403
 30
0.0
 10
-137.5618
 20
-55.5403
 30
0.0
 10
-130.2565
 20
-53.3193
 30
0.0
 10
-138.6109
 20
-43.2527
 30
0.0
 10
-124.4134
 20
-43.8689
 30
0.0
 10
-124.4134
 20
-43.8689
 30
0.0
 10
-133.125
 20
-47.4514
 30
0.0
 10
-134.434
 20
-54.4599
 30
0.0
 10
-127.9224
 20
-54.5912
 30
0.0
 10
-127.9224
 20
-54.5912
 30
0.0
 10
-129.4479
 20
-59.6414
 30
0.0
 10
-123.3424
 20
-58.8148
 30
0.0
 10
-126.9639
 20
-66.132
 30
0.0
 10
-126.9639
 20
-66.132
 30
0.0
 10
-127.5349
 20
-63.9839
 30
0.0
 10
-128.1997
 20
-59.2359
 30
0.0
 10
-132.2093
 20
-60.5997
 30
0.0
 10
-132.2093
 20
-60.5997
 30
0.0
 10
-137.5009
 20
-64.4227
 30
0.0
 10
-130.5378
 20
-68.5878
 30
0.0
 10
-132.0446
 20
-72.0054
 30
0.0
 10
-132.0446
 20
-72.0054
 30
0.0
 10
-134.7545
 20
-65.5093
 30
0.0
 10
-145.8125
 20
-66.7241
 30
0.0
 10
-146.0811
 20
-73.785
 30
0.0
 10
-146.0811
 20
-73.785
 30
0.0
 10
-146.3226
 20
-80.2054
 30
0.0
 10
-138.2119
 20
-81.1662
 30
0.0
 10
-135.9869
 20
-76.6924
 30
0.0
 10
-135.9869
 20
-76.6924
 30
0.0
 10
-136.2496
 20
-83.7751
 30
0.0
 10
-147.7318
 20
-87.684
 30
0.0
 10
-153.481
 20
-78.9875
 30
0.0
  0
SPLINE
  5
B2
330
1F
100
AcDbEntity
  8
layer 1
 62
     7
100
AcDbSpline
210
0.0
220
0.0
230
1.0
 70
    11
 71
     3
 72
    52
 73
    48
 74
     0
 42
0.0000000001
 43
0.0000000001
 12
1.0
 22
0.0
 32
0.0
 13
1.0
 23
0.0
 33
0.0
 40
0.0
 40
0.0
 40
0.0
 40
0.0
 40
0.0769230769230769
 40
0.0769230769230769
 40
0.0769230769230769
 40
0.0769230769230769
 40
0.1538461538461539
 40
0.1538461538461539
 40
0.1538461538461539
 40
0.1538461538461539
 40
0.2307692307692308
 40
0.2307692307692308
 40
0.2307692307692308
 40
0.2307692307692308
 40
0.3076923076923077
 40
0.3076923076923077
 40
0.3076923076923077
 40
0.3076923076923077
 40
0.3846153846153846
 40
0.3846153846153846
 40
0.3846153846153846
 40
0.3846153846153846
 40
0.4615384615384616
 40
0.4615384615384616
 40
0.4615384615384616
 40
0.4615384615384616
 40
0.5384615384615384
 40
0.5384615384615384
 40
0.5384615384615384
 40
0.5384615384615384
 40
0.6153846153846154
 40
0.6153846153846154
 40
0.6153846153846154
 40
0.6153846153846154
 40
0.6923076923076923
 40
0.6923076923076923
 40
0.6923076923076923
 40
0.6923076923076923
 40
0.7692307692307693
 40
0.7692307692307693
 40
0.7692307692307693
 40
0.7692307692307693
 40
0.8461538461538461
 40
0.8461538461538461
 40
0.8461538461538461
 40
0.8461538461538461
 40
1.0
 40
1.0
 40
1.0
 40
1.0
 10
-177.5711
 20
-54.1247
 30
0.0
 10
-173.0522
 20
-56.7455
 30
0.0
 10
-162.6744
 20
-60.0685
 30
0.0
 10
-152.5468
 20
-48.2475
 30
0.0
 10
-152.5468
 20
-48.2475
 30
0.0
 10
-159.538
 20
-51.6619
 30
0.0
 10
-162.2871
 20
-46.389
 30
0.0
 10
-160.6879
 20
-44.3361
 30
0.0
 10
-160.6879
 20
-44.3361
 30
0.0
 10
-156.779
 20
-39.3101
 30
0.0
 10
-150.2736
 20
-47.9848
 30
0.0
 10
-145.4772
 20
-35.798
 30
0.0
 10
-145.4772
 20
-35.798
 30
0.0
 10
-149.6448
 20
-40.21
 30
0.0
 10
-154.9394
 20
-42.1451
 30
0.0
 10
-156.2635
 20
-36.683
 30
0.0
 10
-156.2635
 20
-36.683
 30
0.0
 10
-154.0419
 20
-29.3745
 30
0.0
 10
-143.9759
 20
-37.73
 30
0.0
 10
-144.5922
 20
-23.5347
 30
0.0
 10
-144.5922
 20
-23.5347
 30
0.0
 10
-148.1747
 20
-32.246
 30
0.0
 10
-155.1832
 20
-33.5553
 30
0.0
 10
-155.3176
 20
-27.0404
 30
0.0
 10
-155.3176
 20
-27.0404
 30
0.0
 10
-160.3677
 20
-28.5692
 30
0.0
 10
-159.538
 20
-22.4637
 30
0.0
 10
-166.8583
 20
-26.0852
 30
0.0
 10
-166.8583
 20
-26.0852
 30
0.0
 10
-164.7071
 20
-26.6562
 30
0.0
 10
-159.9592
 20
-27.3179
 30
0.0
 10
-161.323
 20
-31.3306
 30
0.0
 10
-161.323
 20
-31.3306
 30
0.0
 10
-165.146
 20
-36.6222
 30
0.0
 10
-169.3111
 20
-29.6557
 30
0.0
 10
-172.7289
 20
-31.1628
 30
0.0
 10
-172.7289
 20
-31.1628
 30
0.0
 10
-166.2328
 20
-33.8724
 30
0.0
 10
-167.4473
 20
-44.9338
 30
0.0
 10
-174.5105
 20
-45.1993
 30
0.0
 10
-174.5105
 20
-45.1993
 30
0.0
 10
-175.6675
 20
-45.2422
 30
0.0
 10
-176.6471
 20
-45.0166
 30
0.0
 10
-177.4493
 20
-44.5979
 30
0.0
 10
-177.4493
 20
-44.5979
 30
0.0
 10
-177.4493
 20
-44.5979
 30
0.0
 10
-177.5711
 20
-54.1247
 30
0.0
 10
-177.5711
 20
-54.1247
 30
0.0
  0
SPLINE
  5
B3
330
1F
100
AcDbEntity
  8
layer 1
 62
     7
100
AcDbSpline
210
0.0
220
0.0
230
1.0
 70
    11
 71
     3
 72
    40
 73
    36
 74
     0
 42
0.0000000001
 43
0.0000000001
 12
1.0
 22
0.0
 32
0.0
 13
1.0
 23
0.0
 33
0.0
 40
0.0
 40
0.0
 40
0.0
 40
0.0
 40
0.1
 40
0.1
 40
0.1
 40
0.1
 40
0.2
 40
0.2
 40
0.2
 40
0.2
 40
0.3
 40
0.3
 40
0.3
 40
0.3
 40
0.4
 40
0.4
 40
0.4
 40
0.4
 40
0.5
 40
0.5
 40
0.5
 40
0.5
 40
0.6
 40
0.6
 40
0.6
 40
0.6
 40
0.7
 40
0.7
 40
0.7
 40
0.7
 40
0.8
 40
0.8
 40
0.8
 40
0.8
 40
1.0
 40
1.0
 40
1.0
 40
1.0
 10
-177.5321
 20
-2.2934
 30
0.0
 10
-171.3407
 20
-3.4012
 30
0.0
 10
-172.7413
 20
8.4013
 30
0.0
 10
-161.1645
 20
1.9756
 30
0.0
 10
-161.1645
 20
1.9756
 30
0.0
 10
-167.2334
 20
2.149
 30
0.0
 10
-172.3445
 20
-0.225
 30
0.0
 10
-169.4183
 20
-5.0245
 30
0.0
 10
-169.4183
 20
-5.0245
 30
0.0
 10
-162.6808
 20
-8.6223
 30
0.0
 10
-161.4691
 20
4.4042
 30
0.0
 10
-151.8664
 20
-6.0712
 30
0.0
 10
-151.8664
 20
-6.0712
 30
0.0
 10
-160.56
 20
-2.4435
 30
0.0
 10
-166.4427
 20
-6.4742
 30
0.0
 10
-161.9333
 20
-11.1729
 30
0.0
 10
-161.9333
 20
-11.1729
 30
0.0
 10
-166.5833
 20
-13.6631
 30
0.0
 10
-161.6802
 20
-17.3947
 30
0.0
 10
-169.4152
 20
-20.01
 30
0.0
 10
-169.4152
 20
-20.01
 30
0.0
 10
-168.2981
 20
-18.0847
 30
0.0
 10
-165.4117
 20
-14.2617
 30
0.0
 10
-169.2103
 20
-12.3875
 30
0.0
 10
-169.2103
 20
-12.3875
 30
0.0
 10
-175.6551
 20
-11.3501
 30
0.0
 10
-173.6779
 20
-19.2195
 30
0.0
 10
-177.1595
 20
-20.5718
 30
0.0
 10
-177.1595
 20
-20.5718
 30
0.0
 10
-176.3331
 20
-18.5634
 30
0.0
 10
-176.5893
 20
-16.513
 30
0.0
 10
-177.5071
 20
-14.7834
 30
0.0
 10
-177.5071
 20
-14.7834
 30
0.0
 10
-177.5071
 20
-14.7834
 30
0.0
 10
-177.5321
 20
-2.2934
 30
0.0
 10
-177.5321
 20
-2.2934
 30
0.0
  0
SPLINE
  5
B4
330
1F
100
AcDbEntity
  8
layer 1
 62
     7
100
AcDbSpline
210
0.0
220
0.0
230
1.0
 70
    11
 71
     3
 72
    16
 73
    12
 74
     0
 42
0.0000000001
 43
0.0000000001
 12
1.0
 22
0.0
 32
0.0
 13
1.0
 23
0.0
 33
0.0
 40
0.0
 40
0.0
 40
0.0
 40
0.0
 40
0.25
 40
0.25
 40
0.25
 40
0.25
 40
0.5
 40
0.5
 40
0.5
 40
0.5
 40
1.0
 40
1.0
 40
1.0
 40
1.0
 10
-174.7036
 20
5.8353
 30
0.0
 10
-175.7284
 20
5.4813
 30
0.0
 10
-176.8424
 20
5.0143
 30
0.0
 10
-177.5352
 20
4.5628
 30
0.0
 10
-177.5352
 20
4.5628
 30
0.0
 10
-177.5352
 20
4.5628
 30
0.0
 10
-177.5563
 20
5.8962
 30
0.0
 10
-177.5563
 20
5.8962
 30
0.0
 10
-177.5563
 20
5.8962
 30
0.0
 10
-176.7478
 20
5.8845
 30
0.0
 10
-175.6097
 20
5.9055
 30
0.0
 10
-174.7036
 20
5.8353
 30
0.0
  0
SPLINE
  5
B5
330
1F
100
AcDbEntity
  8
layer 1
 62
     7
100
AcDbSpline
210
0.0
220
0.0
230
1.0
 70
    11
 71
     3
 72
    16
 73
    12
 74
     0
 42
0.0000000001
 43
0.0000000001
 12
1.0
 22
0.0
 32
0.0
 13
1.0
 23
0.0
 33
0.0
 40
0.0
 40
0.0
 40
0.0
 40
0.0
 40
0.25
 40
0.25
 40
0.25
 40
0.25
 40
0.5
 40
0.5
 40
0.5
 40
0.5
 40
1.0
 40
1.0
 40
1.0
 40
1.0
 10
-168.4723
 20
-23.2199
 30
0.0
 10
-171.9054
 20
-23.5465
 30
0.0
 10
-175.7104
 20
-23.4949
 30
0.0
 10
-177.5321
 20
-24.5228
 30
0.0
 10
-177.5321
 20
-24.5228
 30
0.0
 10
-177.5321
 20
-24.5228
 30
0.0
 10
-177.5321
 20
-30.9128
 30
0.0
 10
-177.5321
 20
-30.9128
 30
0.0
 10
-177.5321
 20
-30.9128
 30
0.0
 10
-175.4292
 20
-27.7514
 30
0.0
 10
-170.8797
 20
-25.2032
 30
0.0
 10
-168.4723
 20
-23.2199
 30
0.0
  0
SPLINE
  5
B6
330
1F
100
AcDbEntity
  8
layer 1
 62
     7
100
AcDbSpline
210
0.0
220
0.0
230
1.0
 70
    11
 71
     3
 72
    24
 73
    20
 74
     0
 42
0.0000000001
 43
0.0000000001
 12
1.0
 22
0.0
 32
0.0
 13
1.0
 23
0.0
 33
0.0
 40
0.0
 40
0.0
 40
0.0
 40
0.0
 40
0.1666666666666667
 40
0.1666666666666667
 40
0.1666666666666667
 40
0.1666666666666667
 40
0.3333333333333333
 40
0.3333333333333333
 40
0.3333333333333333
 40
0.3333333333333333
 40
0.5
 40
0.5
 40
0.5
 40
0.5
 40
0.6666666666666666
 40
0.6666666666666666
 40
0.6666666666666666
 40
0.6666666666666666
 40
1.0
 40
1.0
 40
1.0
 40
1.0
 10
-170.9501
 20
-78.0509
 30
0.0
 10
-164.9266
 20
-79.5429
 30
0.0
 10
-162.7754
 20
-73.4826
 30
0.0
 10
-162.4917
 20
-70.8557
 30
0.0
 10
-162.4917
 20
-70.8557
 30
0.0
 10
-166.7786
 20
-72.4086
 30
0.0
 10
-173.6474
 20
-68.1793
 30
0.0
 10
-171.6485
 20
-61.927
 30
0.0
 10
-171.6485
 20
-61.927
 30
0.0
 10
-173.5528
 20
-62.2388
 30
0.0
 10
-175.7713
 20
-62.876
 30
0.0
 10
-177.5321
 20
-64.7493
 30
0.0
 10
-177.5321
 20
-64.7493
 30
0.0
 10
-177.5321
 20
-64.7493
 30
0.0
 10
-177.5321
 20
-70.4862
 30
0.0
 10
-177.5321
 20
-70.4862
 30
0.0
 10
-177.5321
 20
-70.4862
 30
0.0
 10
-175.4963
 20
-69.8823
 30
0.0
 10
-169.6439
 20
-73.8827
 30
0.0
 10
-170.9501
 20
-78.0509
 30
0.0
  0
SPLINE
  5
B7
330
1F
100
AcDbEntity
  8
layer 1
 62
     7
100
AcDbSpline
210
0.0
220
0.0
230
1.0
 70
    11
 71
     3
 72
    12
 73
     8
 74
     0
 42
0.0000000001
 43
0.0000000001
 12
1.0
 22
0.0
 32
0.0
 13
1.0
 23
0.0
 33
0.0
 40
0.0
 40
0.0
 40
0.0
 40
0.0
 40
0.3333333333333333
 40
0.3333333333333333
 40
0.3333333333333333
 40
0.3333333333333333
 40
1.0
 40
1.0
 40
1.0
 40
1.0
 10
-161.4293
 20
-60.8624
 30
0.0
 10
-162.623
 20
-61.1553
 30
0.0
 10
-164.9024
 20
-62.7543
 30
0.0
 10
-164.8805
 20
-64.5877
 30
0.0
 10
-164.8805
 20
-64.5877
 30
0.0
 10
-163.34
 20
-64.6369
 30
0.0
 10
-161.6981
 20
-61.9848
 30
0.0
 10
-161.4293
 20
-60.8624
 30
0.0
  0
SPLINE
  5
B8
330
1F
100
AcDbEntity
  8
layer 1
 62
     7
100
AcDbSpline
210
0.0
220
0.0
230
1.0
 70
    11
 71
     3
 72
    16
 73
    12
 74
     0
 42
0.0000000001
 43
0.0000000001
 12
1.0
 22
0.0
 32
0.0
 13
1.0
 23
0.0
 33
0.0
 40
0.0
 40
0.0
 40
0.0
 40
0.0
 40
0.25
 40
0.25
 40
0.25
 40
0.25
 40
0.5
 40
0.5
 40
0.5
 40
0.5
 40
1.0
 40
1.0
 40
1.0
 40
1.0
 10
-177.5321
 20
-74.3216
 30
0.0
 10
-177.5321
 20
-76.43
 30
0.0
 10
-177.5532
 20
-79.7718
 30
0.0
 10
-177.5321
 20
-81.6082
 30
0.0
 10
-177.5321
 20
-81.6082
 30
0.0
 10
-176.497
 20
-80.8334
 30
0.0
 10
-174.2395
 20
-75.9393
 30
0.0
 10
-173.9645
 20
-73.7631
 30
0.0
 10
-173.9645
 20
-73.7631
 30
0.0
 10
-175.3621
 20
-73.5709
 30
0.0
 10
-176.3814
 20
-73.8608
 30
0.0
 10
-177.5321
 20
-74.3216
 30
0.0
  0
SPLINE
  5
B9
330
1F
100
AcDbEntity
  8
layer 1
 62
     7
100
AcDbSpline
210
0.0
220
0.0
230
1.0
 70
    11
 71
     3
 72
    20
 73
    16
 74
     0
 42
0.0000000001
 43
0.0000000001
 12
1.0
 22
0.0
 32
0.0
 13
1.0
 23
0.0
 33
0.0
 40
0.0
 40
0.0
 40
0.0
 40
0.0
 40
0.2
 40
0.2
 40
0.2
 40
0.2
 40
0.4
 40
0.4
 40
0.4
 40
0.4
 40
0.6
 40
0.6
 40
0.6
 40
0.6
 40
1.0
 40
1.0
 40
1.0
 40
1.0
 10
-96.8347
 20
-13.4858
 30
0.0
 10
-98.5493
 20
-13.2178
 30
0.0
 10
-100.5607
 20
-13.7608
 30
0.0
 10
-102.1989
 20
-15.2129
 30
0.0
 10
-102.1989
 20
-15.2129
 30
0.0
 10
-102.4004
 20
-13.0562
 30
0.0
 10
-102.7604
 20
-11.7564
 30
0.0
 10
-104.4907
 20
-10.1692
 30
0.0
 10
-104.4907
 20
-10.1692
 30
0.0
 10
-102.6019
 20
-9.9706
 30
0.0
 10
-100.4992
 20
-9.4825
 30
0.0
 10
-99.3305
 20
-8.5215
 30
0.0
 10
-99.3305
 20
-8.5215
 30
0.0
 10
-98.5891
 20
-10.9533
 30
0.0
 10
-98.2111
 20
-12.4273
 30
0.0
 10
-96.8347
 20
-13.4858
 30
0.0
  0
SPLINE
  5
BA
330
1F
100
AcDbEntity
  8
layer 1
 62
     7
100
AcDbSpline
210
0.0
220
0.0
230
1.0
 70
    11
 71
     3
 72
    20
 73
    16
 74
     0
 42
0.0000000001
 43
0.0000000001
 12
1.0
 22
0.0
 32
0.0
 13
1.0
 23
0.0
 33
0.0
 40
0.0
 40
0.0
 40
0.0
 40
0.0
 40
0.2
 40
0.2
 40
0.2
 40
0.2
 40
0.4
 40
0.4
 40
0.4
 40
0.4
 40
0.6
 40
0.6
 40
0.6
 40
0.6
 40
1.0
 40
1.0
 40
1.0
 40
1.0
 10
-110.8158
 20
-4.0057
 30
0.0
 10
-111.8353
 20
-2.6051
 30
0.0
 10
-113.642
 20
-1.5677
 30
0.0
 10
-115.8261
 20
-1.4366
 30
0.0
 10
-115.8261
 20
-1.4366
 30
0.0
 10
-114.4442
 20
0.236
 30
0.0
 10
-113.7819
 20
1.4076
 30
0.0
 10
-113.8796
 20
3.7543
 30
0.0
 10
-113.8796
 20
3.7543
 30
0.0
 10
-112.4062
 20
2.5553
 30
0.0
 10
-110.572
 20
1.4138
 30
0.0
 10
-109.0677
 20
1.267
 30
0.0
 10
-109.0677
 20
1.267
 30
0.0
 10
-110.2636
 20
-0.9756
 30
0.0
 10
-111.0393
 20
-2.2849
 30
0.0
 10
-110.8158
 20
-4.0057
 30
0.0
  0
SPLINE
  5
BB
330
1F
100
AcDbEntity
  8
layer 1
 62
     7
100
AcDbSpline
210
0.0
220
0.0
230
1.0
 70
    11
 71
     3
 72
    16
 73
    12
 74
     0
 42
0.0000000001
 43
0.0000000001
 12
1.0
 22
0.0
 32
0.0
 13
1.0
 23
0.0
 33
0.0
 40
0.0
 40
0.0
 40
0.0
 40
0.0
 40
0.25
 40
0.25
 40
0.25
 40
0.25
 40
0.5
 40
0.5
 40
0.5
 40
0.5
 40
1.0
 40
1.0
 40
1.0
 40
1.0
 10
-99.3305
 20
-4.9213
 30
0.0
 10
-103.0682
 20
-6.3827
 30
0.0
 10
-107.1514
 20
-3.6425
 30
0.0
 10
-106.2243
 20
1.6975
 30
0.0
 10
-106.2243
 20
1.6975
 30
0.0
 10
-105.2079
 20
-0.014
 30
0.0
 10
-103.316
 20
-1.0427
 30
0.0
 10
-101.4115
 20
-0.789
 30
0.0
 10
-101.4115
 20
-0.789
 30
0.0
 10
-101.5215
 20
-2.2872
 30
0.0
 10
-100.9263
 20
-3.9417
 30
0.0
 10
-99.3305
 20
-4.9213
 30
0.0
  0
SPLINE
  5
BC
330
1F
100
AcDbEntity
  8
layer 1
 62
     7
100
AcDbSpline
210
0.0
220
0.0
230
1.0
 70
    11
 71
     3
 72
    16
 73
    12
 74
     0
 42
0.0000000001
 43
0.0000000001
 12
1.0
 22
0.0
 32
0.0
 13
1.0
 23
0.0
 33
0.0
 40
0.0
 40
0.0
 40
0.0
 40
0.0
 40
0.25
 40
0.25
 40
0.25
 40
0.25
 40
0.5
 40
0.5
 40
0.5
 40
0.5
 40
1.0
 40
1.0
 40
1.0
 40
1.0
 10
-97.6587
 20
-3.4441
 30
0.0
 10
-97.2315
 20
-0.6554
 30
0.0
 10
-96.908
 20
0.5866
 30
0.0
 10
-96.1237
 20
3.6598
 30
0.0
 10
-96.1237
 20
3.6598
 30
0.0
 10
-95.263
 20
2.9973
 30
0.0
 10
-94.2444
 20
2.2318
 30
0.0
 10
-93.1913
 20
2.2192
 30
0.0
 10
-93.1913
 20
2.2192
 30
0.0
 10
-94.6069
 20
-0.0359
 30
0.0
 10
-96.0044
 20
-1.7989
 30
0.0
 10
-97.6587
 20
-3.4441
 30
0.0
  0
SPLINE
  5
BD
330
1F
100
AcDbEntity
  8
layer 1
 62
     7
100
AcDbSpline
210
0.0
220
0.0
230
1.0
 70
    11
 71
     3
 72
    16
 73
    12
 74
     0
 42
0.0000000001
 43
0.0000000001
 12
1.0
 22
0.0
 32
0.0
 13
1.0
 23
0.0
 33
0.0
 40
0.0
 40
0.0
 40
0.0
 40
0.0
 40
0.25
 40
0.25
 40
0.25
 40
0.25
 40
0.5
 40
0.5
 40
0.5
 40
0.5
 40
1.0
 40
1.0
 40
1.0
 40
1.0
 10
-104.3713
 20
3.6323
 30
0.0
 10
-102.1012
 20
5.3041
 30
0.0
 10
-100.9905
 20
5.9509
 30
0.0
 10
-98.2627
 20
7.5718
 30
0.0
 10
-98.2627
 20
7.5718
 30
0.0
 10
-98.1221
 20
6.4945
 30
0.0
 10
-97.9454
 20
5.2315
 30
0.0
 10
-97.2096
 20
4.4775
 30
0.0
 10
-97.2096
 20
4.4775
 30
0.0
 10
-99.8039
 20
3.8854
 30
0.0
 10
-102.0403
 20
3.6261
 30
0.0
 10
-104.3713
 20
3.6323
 30
0.0
  0
ENDSEC
  0
SECTION
  2
OBJECTS
  0
DICTIONARY
  5
C
330
0
100
AcDbDictionary
281
     1
  3
ACAD_GROUP
350
D
  3
ACAD_LAYOUT
350
1A
  3
ACAD_MATERIAL
350
3B
  3
ACAD_MLEADERSTYLE
350
DF
  3
ACAD_MLINESTYLE
350
17
  3
ACAD_PLOTSETTINGS
350
19
  3
ACAD_PLOTSTYLENAME
350
E
  3
ACAD_TABLESTYLE
350
DE
  3
ACAD_VISUALSTYLE
350
2A
  0
DICTIONARY
  5
D
102
{ACAD_REACTORS
330
C
102
}
330
C
100
AcDbDictionary
281
     1
  0
DICTIONARY
  5
1A
102
{ACAD_REACTORS
330
C
102
}
330
C
100
AcDbDictionary
281
     1
  3
Layout1
350
1E
  3
Layout2
350
26
  3
Model
350
22
  0
DICTIONARY
  5
3B
102
{ACAD_REACTORS
330
C
102
}
330
C
100
AcDbDictionary
281
     1
  3
ByBlock
350
3D
  3
ByLayer
350
3C
  3
Global
350
3E
  0
DICTIONARY
  5
DF
102
{ACAD_REACTORS
330
C
102
}
330
C
100
AcDbDictionary
281
     1
  0
DICTIONARY
  5
17
102
{ACAD_REACTORS
330
C
102
}
330
C
100
AcDbDictionary
281
     1
  3
Standard
350
18
  0
DICTIONARY
  5
19
102
{ACAD_REACTORS
330
C
102
}
330
C
100
AcDbDictionary
281
     1
  0
ACDBDICTIONARYWDFLT
  5
E
102
{ACAD_REACTORS
330
C
102
}
330
C
100
AcDbDictionary
281
     1
  3
Normal
350
F
100
AcDbDictionaryWithDefault
340
F
  0
DICTIONARY
  5
DE
102
{ACAD_REACTORS
330
C
102
}
330
C
100
AcDbDictionary
281
     1
  0
DICTIONARY
  5
2A
102
{ACAD_REACTORS
330
C
102
}
330
C
100
AcDbDictionary
281
     1
  3
2dWireframe
350
2F
  3
3D Hidden
350
31
  3
3dWireframe
350
30
  3
Basic
350
32
  3
Brighten
350
36
  3
ColorChange
350
3A
  3
Conceptual
350
34
  3
Dim
350
35
  3
Facepattern
350
39
  3
Flat
350
2B
  3
FlatWithEdges
350
2C
  3
Gouraud
350
2D
  3
GouraudWithEdges
350
2E
  3
Linepattern
350
38
  3
Realistic
350
33
  3
Thicken
350
37
  0
LAYOUT
  5
1E
102
{ACAD_REACTORS
330
1A
102
}
330
1A
100
AcDbPlotSettings
  1

  2
none_device
  4

  6

 40
0.0
 41
0.0
 42
0.0
 43
0.0
 44
0.0
 45
0.0
 46
0.0
 47
0.0
 48
0.0
 49
0.0
140
0.0
141
0.0
142
1.0
143
1.0
 70
   688
 72
     0
 73
     0
 74
     5
  7

 75
    16
 76
     0
 77
     2
 78
   300
147
1.0
148
0.0
149
0.0
100
AcDbLayout
  1
Layout1
 70
     1
 71
     1
 10
0.0
 20
0.0
 11
12.0
 21
9.0
 12
0.0
 22
0.0
 32
0.0
 14
1.000000000000000E+20
 24
1.000000000000000E+20
 34
1.000000000000000E+20
 15
-1.000000000000000E+20
 25
-1.000000000000000E+20
 35
-1.000000000000000E+20
146
0.0
 13
0.0
 23
0.0
 33
0.0
 16
1.0
 26
0.0
 36
0.0
 17
0.0
 27
1.0
 37
0.0
 76
     0
330
1B
  0
LAYOUT
  5
26
102
{ACAD_REACTORS
330
1A
102
}
330
1A
100
AcDbPlotSettings
  1

  2
none_device
  4

  6

 40
0.0
 41
0.0
 42
0.0
 43
0.0
 44
0.0
 45
0.0
 46
0.0
 47
0.0
 48
0.0
 49
0.0
140
0.0
141
0.0
142
1.0
143
1.0
 70
   688
 72
     0
 73
     0
 74
     5
  7

 75
    16
 76
     0
 77
     2
 78
   300
147
1.0
148
0.0
149
0.0
100
AcDbLayout
  1
Layout2
 70
     1
 71
     2
 10
0.0
 20
0.0
 11
0.0
 21
0.0
 12
0.0
 22
0.0
 32
0.0
 14
0.0
 24
0.0
 34
0.0
 15
0.0
 25
0.0
 35
0.0
146
0.0
 13
0.0
 23
0.0
 33
0.0
 16
1.0
 26
0.0
 36
0.0
 17
0.0
 27
1.0
 37
0.0
 76
     0
330
23
  0
LAYOUT
  5
22
102
{ACAD_REACTORS
330
1A
102
}
330
1A
100
AcDbPlotSettings
  1

  2
none_device
  4

  6

 40
0.0
 41
0.0
 42
0.0
 43
0.0
 44
0.0
 45
0.0
 46
0.0
 47
0.0
 48
0.0
 49
0.0
140
0.0
141
0.0
142
1.0
143
1.0
 70
  1712
 72
     0
 73
     0
 74
     0
  7

 75
     0
 76
     0
 77
     2
 78
   300
147
1.0
148
0.0
149
0.0
100
AcDbLayout
  1
Model
 70
     1
 71
     0
 10
0.0
 20
0.0
 11
12.0
 21
9.0
 12
0.0
 22
0.0
 32
0.0
 14
-187.2536
 24
-115.1462
 34
0.0
 15
2.7755
 25
131.858
 35
0.0
146
0.0
 13
0.0
 23
0.0
 33
0.0
 16
1.0
 26
0.0
 36
0.0
 17
0.0
 27
1.0
 37
0.0
 76
     0
330
1F
331
29
  0
MATERIAL
  5
3D
102
{ACAD_REACTORS
330
3B
102
}
330
3B
100
AcDbMaterial
  1
ByBlock
 72
     1
 94
      127
  0
MATERIAL
  5
3C
102
{ACAD_REACTORS
330
3B
102
}
330
3B
100
AcDbMaterial
  1
ByLayer
 72
     1
 94
      127
  0
MATERIAL
  5
3E
102
{ACAD_REACTORS
330
3B
102
}
330
3B
100
AcDbMaterial
  1
Global
 72
     1
 94
      127
  0
MLINESTYLE
  5
18
102
{ACAD_REACTORS
330
17
102
}
330
17
100
AcDbMlineStyle
  2
Standard
 70
     0
  3

 62
   256
 51
90.0
 52
90.0
 71
     2
 49
0.5
 62
   256
  6
BYLAYER
 49
-0.5
 62
   256
  6
BYLAYER
  0
ACDBPLACEHOLDER
  5
F
102
{ACAD_REACTORS
330
E
102
}
330
E
  0
VISUALSTYLE
  5
2F
102
{ACAD_REACTORS
330
2A
102
}
102
{ACAD_XDICTIONARY
360
C6
102
}
330
2A
100
AcDbVisualStyle
  2
2dWireframe
 70
     4
 71
     0
 72
     2
 73
     0
 90
        0
 40
-0.6
 41
-30.0
 62
     5
 63
     7
421
 16777215
 74
     1
 91
        4
 64
     7
 65
   257
 75
     1
175
     1
 42
1.0
 92
        0
 66
   257
 43
1.0
 76
     1
 77
     6
 78
     2
 67
     7
 79
     5
170
     0
171
     0
290
     0
174
     0
 93
        1
 44
0.0
173
     0
291
     0
 45
0.0
  0
VISUALSTYLE
  5
31
102
{ACAD_REACTORS
330
2A
102
}
102
{ACAD_XDICTIONARY
360
CA
102
}
330
2A
100
AcDbVisualStyle
  2
3D Hidden
 70
     6
 71
     1
 72
     2
 73
     2
 90
        0
 40
-0.6
 41
-30.0
 62
     5
 63
     7
421
 16777215
 74
     2
 91
        2
 64
     7
 65
   257
 75
     2
175
     1
 42
40.0
 92
        0
 66
   257
 43
1.0
 76
     1
 77
     6
 78
     2
 67
     7
 79
     3
170
     0
171
     0
290
     0
174
     0
 93
        1
 44
0.0
173
     0
291
     0
 45
0.0
  0
VISUALSTYLE
  5
30
102
{ACAD_REACTORS
330
2A
102
}
102
{ACAD_XDICTIONARY
360
C8
102
}
330
2A
100
AcDbVisualStyle
  2
3dWireframe
 70
     5
 71
     0
 72
     2
 73
     0
 90
        0
 40
-0.6
 41
-30.0
 62
     5
 63
     7
421
 16777215
 74
     1
 91
        4
 64
     7
 65
   257
 75
     1
175
     1
 42
1.0
 92
        0
 66
   257
 43
1.0
 76
     1
 77
     6
 78
     2
 67
     7
 79
     5
170
     0
171
     0
290
     0
174
     0
 93
        1
 44
0.0
173
     0
291
     0
 45
0.0
  0
VISUALSTYLE
  5
32
102
{ACAD_REACTORS
330
2A
102
}
102
{ACAD_XDICTIONARY
360
CC
102
}
330
2A
100
AcDbVisualStyle
  2
Basic
 70
     7
 71
     1
 72
     0
 73
     1
 90
        0
 40
-0.6
 41
-30.0
 62
     5
 63
     7
421
 16777215
 74
     0
 91
        4
 64
     7
 65
   257
 75
     1
175
     1
 42
1.0
 92
        8
 66
     7
 43
1.0
 76
     1
 77
     6
 78
     2
 67
     7
 79
     5
170
     0
171
     0
290
     0
174
     0
 93
        1
 44
0.0
173
     0
291
     1
 45
0.0
  0
VISUALSTYLE
  5
36
102
{ACAD_REACTORS
330
2A
102
}
102
{ACAD_XDICTIONARY
360
D4
102
}
330
2A
100
AcDbVisualStyle
  2
Brighten
 70
    12
 71
     2
 72
     2
 73
     0
 90
        0
 40
-0.6
 41
-30.0
 62
     5
 63
     7
421
 16777215
 74
     1
 91
        4
 64
     7
 65
   257
 75
     1
175
     1
 42
1.0
 92
        8
 66
     7
 43
1.0
 76
     1
 77
     6
 78
     2
 67
     7
 79
     5
170
     0
171
     0
290
     0
174
     0
 93
        1
 44
50.0
173
     0
291
     1
 45
0.0
  0
VISUALSTYLE
  5
3A
102
{ACAD_REACTORS
330
2A
102
}
102
{ACAD_XDICTIONARY
360
DC
102
}
330
2A
100
AcDbVisualStyle
  2
ColorChange
 70
    16
 71
     2
 72
     2
 73
     3
 90
        0
 40
-0.6
 41
-30.0
 62
     5
 63
     8
421
  8421504
 74
     1
 91
        4
 64
     7
 65
   257
 75
     1
175
     1
 42
1.0
 92
        8
 66
     8
424
  8421504
 43
1.0
 76
     1
 77
     6
 78
     2
 67
     7
 79
     5
170
     0
171
     0
290
     0
174
     0
 93
        1
 44
0.0
173
     0
291
     1
 45
0.0
  0
VISUALSTYLE
  5
34
102
{ACAD_REACTORS
330
2A
102
}
102
{ACAD_XDICTIONARY
360
D0
102
}
330
2A
100
AcDbVisualStyle
  2
Conceptual
 70
     9
 71
     3
 72
     2
 73
     0
 90
        0
 40
-0.6
 41
-30.0
 62
     5
 63
     7
421
 16777215
 74
     2
 91
        2
 64
     7
 65
   257
 75
     1
175
     1
 42
40.0
 92
        8
 66
     7
 43
1.0
 76
     1
 77
     6
 78
     2
 67
     7
 79
     3
170
     0
171
     0
290
     0
174
     0
 93
        1
 44
0.0
173
     0
291
     0
 45
0.0
  0
VISUALSTYLE
  5
35
102
{ACAD_REACTORS
330
2A
102
}
102
{ACAD_XDICTIONARY
360
D2
102
}
330
2A
100
AcDbVisualStyle
  2
Dim
 70
    11
 71
     2
 72
     2
 73
     0
 90
        0
 40
-0.6
 41
-30.0
 62
     5
 63
     7
421
 16777215
 74
     1
 91
        4
 64
     7
 65
   257
 75
     1
175
     1
 42
1.0
 92
        8
 66
     7
 43
1.0
 76
     1
 77
     6
 78
     2
 67
     7
 79
     5
170
     0
171
     0
290
     0
174
     0
 93
        1
 44
-50.0
173
     0
291
     1
 45
0.0
  0
VISUALSTYLE
  5
39
102
{ACAD_REACTORS
330
2A
102
}
102
{ACAD_XDICTIONARY
360
DA
102
}
330
2A
100
AcDbVisualStyle
  2
Facepattern
 70
    15
 71
     2
 72
     2
 73
     0
 90
        0
 40
-0.6
 41
-30.0
 62
     5
 63
     7
421
 16777215
 74
     1
 91
        4
 64
     7
 65
   257
 75
     1
175
     1
 42
1.0
 92
        8
 66
     7
 43
1.0
 76
     1
 77
     6
 78
     2
 67
     7
 79
     5
170
     0
171
     0
290
     0
174
     0
 93
        1
 44
0.0
173
     0
291
     1
 45
0.0
  0
VISUALSTYLE
  5
2B
102
{ACAD_REACTORS
330
2A
102
}
102
{ACAD_XDICTIONARY
360
BE
102
}
330
2A
100
AcDbVisualStyle
  2
Flat
 70
     0
 71
     2
 72
     1
 73
     1
 90
        2
 40
-0.6
 41
30.0
 62
     5
 63
     7
421
 16777215
 74
     0
 91
        4
 64
     7
 65
   257
 75
     1
175
     1
 42
1.0
 92
        8
 66
     7
 43
1.0
 76
     1
 77
     6
 78
     2
 67
     7
 79
     5
170
     0
171
     0
290
     0
174
     0
 93
       13
 44
0.0
173
     0
291
     1
 45
0.0
  0
VISUALSTYLE
  5
2C
102
{ACAD_REACTORS
330
2A
102
}
102
{ACAD_XDICTIONARY
360
C0
102
}
330
2A
100
AcDbVisualStyle
  2
FlatWithEdges
 70
     1
 71
     2
 72
     1
 73
     1
 90
        2
 40
-0.6
 41
30.0
 62
     5
 63
     7
421
 16777215
 74
     1
 91
        4
 64
     7
 65
   257
 75
     1
175
     1
 42
1.0
 92
        0
 66
   257
 43
1.0
 76
     1
 77
     6
 78
     2
 67
     7
 79
     5
170
     0
171
     0
290
     0
174
     0
 93
       13
 44
0.0
173
     0
291
     1
 45
0.0
  0
VISUALSTYLE
  5
2D
102
{ACAD_REACTORS
330
2A
102
}
102
{ACAD_XDICTIONARY
360
C2
102
}
330
2A
100
AcDbVisualStyle
  2
Gouraud
 70
     2
 71
     2
 72
     2
 73
     1
 90
        2
 40
-0.6
 41
30.0
 62
     5
 63
     7
421
 16777215
 74
     0
 91
        4
 64
     7
 65
   257
 75
     1
175
     1
 42
1.0
 92
        0
 66
     7
 43
1.0
 76
     1
 77
     6
 78
     2
 67
     7
 79
     5
170
     0
171
     0
290
     0
174
     0
 93
       13
 44
0.0
173
     0
291
     1
 45
0.0
  0
VISUALSTYLE
  5
2E
102
{ACAD_REACTORS
330
2A
102
}
102
{ACAD_XDICTIONARY
360
C4
102
}
330
2A
100
AcDbVisualStyle
  2
GouraudWithEdges
 70
     3
 71
     2
 72
     2
 73
     1
 90
        2
 40
-0.6
 41
30.0
 62
     5
 63
     7
421
 16777215
 74
     1
 91
        4
 64
     7
 65
   257
 75
     1
175
     1
 42
1.0
 92
        0
 66
   257
 43
1.0
 76
     1
 77
     6
 78
     2
 67
     7
 79
     5
170
     0
171
     0
290
     0
174
     0
 93
       13
 44
0.0
173
     0
291
     1
 45
0.0
  0
VISUALSTYLE
  5
38
102
{ACAD_REACTORS
330
2A
102
}
102
{ACAD_XDICTIONARY
360
D8
102
}
330
2A
100
AcDbVisualStyle
  2
Linepattern
 70
    14
 71
     2
 72
     2
 73
     0
 90
        0
 40
-0.6
 41
-30.0
 62
     5
 63
     7
421
 16777215
 74
     1
 91
        4
 64
     7
 65
   257
 75
     7
175
     7
 42
1.0
 92
        8
 66
     7
 43
1.0
 76
     1
 77
     6
 78
     2
 67
     7
 79
     5
170
     0
171
     0
290
     0
174
     0
 93
        1
 44
0.0
173
     0
291
     1
 45
0.0
  0
VISUALSTYLE
  5
33
102
{ACAD_REACTORS
330
2A
102
}
102
{ACAD_XDICTIONARY
360
CE
102
}
330
2A
100
AcDbVisualStyle
  2
Realistic
 70
     8
 71
     2
 72
     2
 73
     0
 90
        0
 40
-0.6
 41
-30.0
 62
     5
 63
     7
421
 16777215
 74
     1
 91
        0
 64
     7
 65
   257
 75
     1
175
     1
 42
1.0
 92
        8
 66
     8
424
  7895160
 43
1.0
 76
     1
 77
     6
 78
     2
 67
     7
 79
     5
170
     0
171
     0
290
     0
174
     0
 93
       13
 44
0.0
173
     0
291
     0
 45
0.0
  0
VISUALSTYLE
  5
37
102
{ACAD_REACTORS
330
2A
102
}
102
{ACAD_XDICTIONARY
360
D6
102
}
330
2A
100
AcDbVisualStyle
  2
Thicken
 70
    13
 71
     2
 72
     2
 73
     0
 90
        0
 40
-0.6
 41
-30.0
 62
     5
 63
     7
421
 16777215
 74
     1
 91
        4
 64
     7
 65
   257
 75
     1
175
     1
 42
1.0
 92
       12
 66
     7
 43
1.0
 76
     1
 77
     6
 78
     2
 67
     7
 79
     5
170
     0
171
     0
290
     0
174
     0
 93
        1
 44
0.0
173
     0
291
     1
 45
0.0
  0
DICTIONARY
  5
C6
330
2F
100
AcDbDictionary
280
     1
281
     1
  3
ACAD_XREC_ROUNDTRIP
360
C7
  0
DICTIONARY
  5
CA
330
31
100
AcDbDictionary
280
     1
281
     1
  3
ACAD_XREC_ROUNDTRIP
360
CB
  0
DICTIONARY
  5
C8
330
30
100
AcDbDictionary
280
     1
281
     1
  3
ACAD_XREC_ROUNDTRIP
360
C9
  0
DICTIONARY
  5
CC
330
32
100
AcDbDictionary
280
     1
281
     1
  3
ACAD_XREC_ROUNDTRIP
360
CD
  0
DICTIONARY
  5
D4
330
36
100
AcDbDictionary
280
     1
281
     1
  3
ACAD_XREC_ROUNDTRIP
360
D5
  0
DICTIONARY
  5
DC
330
3A
100
AcDbDictionary
280
     1
281
     1
  3
ACAD_XREC_ROUNDTRIP
360
DD
  0
DICTIONARY
  5
D0
330
34
100
AcDbDictionary
280
     1
281
     1
  3
ACAD_XREC_ROUNDTRIP
360
D1
  0
DICTIONARY
  5
D2
330
35
100
AcDbDictionary
280
     1
281
     1
  3
ACAD_XREC_ROUNDTRIP
360
D3
  0
DICTIONARY
  5
DA
330
39
100
AcDbDictionary
280
     1
281
     1
  3
ACAD_XREC_ROUNDTRIP
360
DB
  0
DICTIONARY
  5
BE
330
2B
100
AcDbDictionary
280
     1
281
     1
  3
ACAD_XREC_ROUNDTRIP
360
BF
  0
DICTIONARY
  5
C0
330
2C
100
AcDbDictionary
280
     1
281
     1
  3
ACAD_XREC_ROUNDTRIP
360
C1
  0
DICTIONARY
  5
C2
330
2D
100
AcDbDictionary
280
     1
281
     1
  3
ACAD_XREC_ROUNDTRIP
360
C3
  0
DICTIONARY
  5
C4
330
2E
100
AcDbDictionary
280
     1
281
     1
  3
ACAD_XREC_ROUNDTRIP
360
C5
  0
DICTIONARY
  5
D8
330
38
100
AcDbDictionary
280
     1
281
     1
  3
ACAD_XREC_ROUNDTRIP
360
D9
  0
DICTIONARY
  5
CE
330
33
100
AcDbDictionary
280
     1
281
     1
  3
ACAD_XREC_ROUNDTRIP
360
CF
  0
DICTIONARY
  5
D6
330
37
100
AcDbDictionary
280
     1
281
     1
  3
ACAD_XREC_ROUNDTRIP
360
D7
  0
XRECORD
  5
C7
102
{ACAD_REACTORS
330
C6
102
}
330
C6
100
AcDbXrecord
280
     1
102
RTVSPropertyOp0
 70
     1
102
RTVSPropertyOp1
 70
     1
102
RTVSPropertyOp2
 70
     1
102
RTVSPropertyOp3
 70
     1
102
RTVSPropertyOp4
 70
     1
102
RTVSPropertyOp5
 70
     1
102
RTVSPropertyOp6
 70
     1
102
RTVSPropertyOp7
 70
     1
102
RTVSPropertyOp8
 70
     1
102
RTVSPropertyOp9
 70
     1
102
RTVSPropertyOp10
 70
     1
102
RTVSPropertyOp11
 70
     1
102
RTVSPropertyOp12
 70
     1
102
RTVSPropertyOp13
 70
     1
102
RTVSPropertyOp14
 70
     1
102
RTVSPropertyOp15
 70
     1
102
RTVSPropertyOp16
 70
     1
102
RTVSPropertyOp17
 70
     1
102
RTVSPropertyOp18
 70
     1
102
RTVSPropertyOp19
 70
     1
102
RTVSPropertyOp20
 70
     1
102
RTVSPropertyOp21
 70
     1
102
RTVSPropertyOp22
 70
     1
102
RTVSPropertyOp23
 70
     1
102
RTVSPropertyOp24
 70
     1
102
RTVSPropertyOp25
 70
     1
102
RTVSPropertyOp26
 70
     1
102
RTVSPropertyOp27
 70
     1
102
RTVSPropertyOp28
 70
     1
102
RTVSPropertyOp29
 70
     1
102
RTVSPropertyOp30
 70
     1
102
RTVSPropertyOp31
 70
     1
102
RTVSPropertyOp32
 70
     1
  0
XRECORD
  5
CB
102
{ACAD_REACTORS
330
CA
102
}
330
CA
100
AcDbXrecord
280
     1
102
RTVSPropertyOp0
 70
     1
102
RTVSPropertyOp1
 70
     1
102
RTVSPropertyOp2
 70
     1
102
RTVSPropertyOp3
 70
     1
102
RTVSPropertyOp4
 70
     1
102
RTVSPropertyOp5
 70
     1
102
RTVSPropertyOp6
 70
     1
102
RTVSPropertyOp7
 70
     1
102
RTVSPropertyOp8
 70
     1
102
RTVSPropertyOp9
 70
     1
102
RTVSPropertyOp10
 70
     1
102
RTVSPropertyOp11
 70
     1
102
RTVSPropertyOp12
 70
     1
102
RTVSPropertyOp13
 70
     1
102
RTVSPropertyOp14
 70
     1
102
RTVSPropertyOp15
 70
     1
102
RTVSPropertyOp16
 70
     1
102
RTVSPropertyOp17
 70
     1
102
RTVSPropertyOp18
 70
     1
102
RTVSPropertyOp19
 70
     1
102
RTVSPropertyOp20
 70
     1
102
RTVSPropertyOp21
 70
     1
102
RTVSPropertyOp22
 70
     1
102
RTVSPropertyOp23
 70
     1
102
RTVSPropertyOp24
 70
     1
102
RTVSPropertyOp25
 70
     1
102
RTVSPropertyOp26
 70
     1
102
RTVSPropertyOp27
 70
     1
102
RTVSPropertyOp28
 70
     1
102
RTVSPropertyOp29
 70
     1
102
RTVSPropertyOp30
 70
     1
102
RTVSPropertyOp31
 70
     1
102
RTVSPropertyOp32
 70
     1
  0
XRECORD
  5
C9
102
{ACAD_REACTORS
330
C8
102
}
330
C8
100
AcDbXrecord
280
     1
102
RTVSPropertyOp0
 70
     1
102
RTVSPropertyOp1
 70
     1
102
RTVSPropertyOp2
 70
     1
102
RTVSPropertyOp3
 70
     1
102
RTVSPropertyOp4
 70
     1
102
RTVSPropertyOp5
 70
     1
102
RTVSPropertyOp6
 70
     1
102
RTVSPropertyOp7
 70
     1
102
RTVSPropertyOp8
 70
     1
102
RTVSPropertyOp9
 70
     1
102
RTVSPropertyOp10
 70
     1
102
RTVSPropertyOp11
 70
     1
102
RTVSPropertyOp12
 70
     1
102
RTVSPropertyOp13
 70
     1
102
RTVSPropertyOp14
 70
     1
102
RTVSPropertyOp15
 70
     1
102
RTVSPropertyOp16
 70
     1
102
RTVSPropertyOp17
 70
     1
102
RTVSPropertyOp18
 70
     1
102
RTVSPropertyOp19
 70
     1
102
RTVSPropertyOp20
 70
     1
102
RTVSPropertyOp21
 70
     1
102
RTVSPropertyOp22
 70
     1
102
RTVSPropertyOp23
 70
     1
102
RTVSPropertyOp24
 70
     1
102
RTVSPropertyOp25
 70
     1
102
RTVSPropertyOp26
 70
     1
102
RTVSPropertyOp27
 70
     1
102
RTVSPropertyOp28
 70
     1
102
RTVSPropertyOp29
 70
     1
102
RTVSPropertyOp30
 70
     1
102
RTVSPropertyOp31
 70
     1
102
RTVSPropertyOp32
 70
     1
  0
XRECORD
  5
CD
102
{ACAD_REACTORS
330
CC
102
}
330
CC
100
AcDbXrecord
280
     1
102
RTVSPropertyOp0
 70
     1
102
RTVSPropertyOp1
 70
     1
102
RTVSPropertyOp2
 70
     1
102
RTVSPropertyOp3
 70
     1
102
RTVSPropertyOp4
 70
     1
102
RTVSPropertyOp5
 70
     1
102
RTVSPropertyOp6
 70
     1
102
RTVSPropertyOp7
 70
     1
102
RTVSPropertyOp8
 70
     1
102
RTVSPropertyOp9
 70
     1
102
RTVSPropertyOp10
 70
     1
102
RTVSPropertyOp11
 70
     1
102
RTVSPropertyOp12
 70
     1
102
RTVSPropertyOp13
 70
     1
102
RTVSPropertyOp14
 70
     1
102
RTVSPropertyOp15
 70
     1
102
RTVSPropertyOp16
 70
     1
102
RTVSPropertyOp17
 70
     1
102
RTVSPropertyOp18
 70
     1
102
RTVSPropertyOp19
 70
     1
102
RTVSPropertyOp20
 70
     1
102
RTVSPropertyOp21
 70
     1
102
RTVSPropertyOp22
 70
     1
102
RTVSPropertyOp23
 70
     1
102
RTVSPropertyOp24
 70
     1
102
RTVSPropertyOp25
 70
     1
102
RTVSPropertyOp26
 70
     1
102
RTVSPropertyOp27
 70
     1
102
RTVSPropertyOp28
 70
     1
102
RTVSPropertyOp29
 70
     1
102
RTVSPropertyOp30
 70
     1
102
RTVSPropertyOp31
 70
     1
102
RTVSPropertyOp32
 70
     1
  0
XRECORD
  5
D5
102
{ACAD_REACTORS
330
D4
102
}
330
D4
100
AcDbXrecord
280
     1
102
RTVSPropertyOp0
 70
     1
102
RTVSPropertyOp1
 70
     1
102
RTVSPropertyOp2
 70
     1
102
RTVSPropertyOp3
 70
     1
102
RTVSPropertyOp4
 70
     1
102
RTVSPropertyOp5
 70
     1
102
RTVSPropertyOp6
 70
     1
102
RTVSPropertyOp7
 70
     1
102
RTVSPropertyOp8
 70
     1
102
RTVSPropertyOp9
 70
     1
102
RTVSPropertyOp10
 70
     1
102
RTVSPropertyOp11
 70
     1
102
RTVSPropertyOp12
 70
     1
102
RTVSPropertyOp13
 70
     1
102
RTVSPropertyOp14
 70
     1
102
RTVSPropertyOp15
 70
     1
102
RTVSPropertyOp16
 70
     1
102
RTVSPropertyOp17
 70
     1
102
RTVSPropertyOp18
 70
     1
102
RTVSPropertyOp19
 70
     1
102
RTVSPropertyOp20
 70
     1
102
RTVSPropertyOp21
 70
     1
102
RTVSPropertyOp22
 70
     1
102
RTVSPropertyOp23
 70
     1
102
RTVSPropertyOp24
 70
     1
102
RTVSPropertyOp25
 70
     1
102
RTVSPropertyOp26
 70
     1
102
RTVSPropertyOp27
 70
     1
102
RTVSPropertyOp28
 70
     1
102
RTVSPropertyOp29
 70
     1
102
RTVSPropertyOp30
 70
     1
102
RTVSPropertyOp31
 70
     1
102
RTVSPropertyOp32
 70
     1
  0
XRECORD
  5
DD
102
{ACAD_REACTORS
330
DC
102
}
330
DC
100
AcDbXrecord
280
     1
102
RTVSPropertyOp0
 70
     1
102
RTVSPropertyOp1
 70
     1
102
RTVSPropertyOp2
 70
     1
102
RTVSPropertyOp3
 70
     1
102
RTVSPropertyOp4
 70
     1
102
RTVSPropertyOp5
 70
     1
102
RTVSPropertyOp6
 70
     1
102
RTVSPropertyOp7
 70
     1
102
RTVSPropertyOp8
 70
     1
102
RTVSPropertyOp9
 70
     1
102
RTVSPropertyOp10
 70
     1
102
RTVSPropertyOp11
 70
     1
102
RTVSPropertyOp12
 70
     1
102
RTVSPropertyOp13
 70
     1
102
RTVSPropertyOp14
 70
     1
102
RTVSPropertyOp15
 70
     1
102
RTVSPropertyOp16
 70
     1
102
RTVSPropertyOp17
 70
     1
102
RTVSPropertyOp18
 70
     1
102
RTVSPropertyOp19
 70
     1
102
RTVSPropertyOp20
 70
     1
102
RTVSPropertyOp21
 70
     1
102
RTVSPropertyOp22
 70
     1
102
RTVSPropertyOp23
 70
     1
102
RTVSPropertyOp24
 70
     1
102
RTVSPropertyOp25
 70
     1
102
RTVSPropertyOp26
 70
     1
102
RTVSPropertyOp27
 70
     1
102
RTVSPropertyOp28
 70
     1
102
RTVSPropertyOp29
 70
     1
102
RTVSPropertyOp30
 70
     1
102
RTVSPropertyOp31
 70
     1
102
RTVSPropertyOp32
 70
     1
  0
XRECORD
  5
D1
102
{ACAD_REACTORS
330
D0
102
}
330
D0
100
AcDbXrecord
280
     1
102
RTVSPropertyOp0
 70
     1
102
RTVSPropertyOp1
 70
     1
102
RTVSPropertyOp2
 70
     1
102
RTVSPropertyOp3
 70
     1
102
RTVSPropertyOp4
 70
     1
102
RTVSPropertyOp5
 70
     1
102
RTVSPropertyOp6
 70
     1
102
RTVSPropertyOp7
 70
     1
102
RTVSPropertyOp8
 70
     1
102
RTVSPropertyOp9
 70
     1
102
RTVSPropertyOp10
 70
     1
102
RTVSPropertyOp11
 70
     1
102
RTVSPropertyOp12
 70
     1
102
RTVSPropertyOp13
 70
     1
102
RTVSPropertyOp14
 70
     1
102
RTVSPropertyOp15
 70
     1
102
RTVSPropertyOp16
 70
     1
102
RTVSPropertyOp17
 70
     1
102
RTVSPropertyOp18
 70
     1
102
RTVSPropertyOp19
 70
     1
102
RTVSPropertyOp20
 70
     1
102
RTVSPropertyOp21
 70
     1
102
RTVSPropertyOp22
 70
     1
102
RTVSPropertyOp23
 70
     1
102
RTVSPropertyOp24
 70
     1
102
RTVSPropertyOp25
 70
     1
102
RTVSPropertyOp26
 70
     1
102
RTVSPropertyOp27
 70
     1
102
RTVSPropertyOp28
 70
     1
102
RTVSPropertyOp29
 70
     1
102
RTVSPropertyOp30
 70
     1
102
RTVSPropertyOp31
 70
     1
102
RTVSPropertyOp32
 70
     1
  0
XRECORD
  5
D3
102
{ACAD_REACTORS
330
D2
102
}
330
D2
100
AcDbXrecord
280
     1
102
RTVSPropertyOp0
 70
     1
102
RTVSPropertyOp1
 70
     1
102
RTVSPropertyOp2
 70
     1
102
RTVSPropertyOp3
 70
     1
102
RTVSPropertyOp4
 70
     1
102
RTVSPropertyOp5
 70
     1
102
RTVSPropertyOp6
 70
     1
102
RTVSPropertyOp7
 70
     1
102
RTVSPropertyOp8
 70
     1
102
RTVSPropertyOp9
 70
     1
102
RTVSPropertyOp10
 70
     1
102
RTVSPropertyOp11
 70
     1
102
RTVSPropertyOp12
 70
     1
102
RTVSPropertyOp13
 70
     1
102
RTVSPropertyOp14
 70
     1
102
RTVSPropertyOp15
 70
     1
102
RTVSPropertyOp16
 70
     1
102
RTVSPropertyOp17
 70
     1
102
RTVSPropertyOp18
 70
     1
102
RTVSPropertyOp19
 70
     1
102
RTVSPropertyOp20
 70
     1
102
RTVSPropertyOp21
 70
     1
102
RTVSPropertyOp22
 70
     1
102
RTVSPropertyOp23
 70
     1
102
RTVSPropertyOp24
 70
     1
102
RTVSPropertyOp25
 70
     1
102
RTVSPropertyOp26
 70
     1
102
RTVSPropertyOp27
 70
     1
102
RTVSPropertyOp28
 70
     1
102
RTVSPropertyOp29
 70
     1
102
RTVSPropertyOp30
 70
     1
102
RTVSPropertyOp31
 70
     1
102
RTVSPropertyOp32
 70
     1
  0
XRECORD
  5
DB
102
{ACAD_REACTORS
330
DA
102
}
330
DA
100
AcDbXrecord
280
     1
102
RTVSPropertyOp0
 70
     1
102
RTVSPropertyOp1
 70
     1
102
RTVSPropertyOp2
 70
     1
102
RTVSPropertyOp3
 70
     1
102
RTVSPropertyOp4
 70
     1
102
RTVSPropertyOp5
 70
     1
102
RTVSPropertyOp6
 70
     1
102
RTVSPropertyOp7
 70
     1
102
RTVSPropertyOp8
 70
     1
102
RTVSPropertyOp9
 70
     1
102
RTVSPropertyOp10
 70
     1
102
RTVSPropertyOp11
 70
     1
102
RTVSPropertyOp12
 70
     1
102
RTVSPropertyOp13
 70
     1
102
RTVSPropertyOp14
 70
     1
102
RTVSPropertyOp15
 70
     1
102
RTVSPropertyOp16
 70
     1
102
RTVSPropertyOp17
 70
     1
102
RTVSPropertyOp18
 70
     1
102
RTVSPropertyOp19
 70
     1
102
RTVSPropertyOp20
 70
     1
102
RTVSPropertyOp21
 70
     1
102
RTVSPropertyOp22
 70
     1
102
RTVSPropertyOp23
 70
     1
102
RTVSPropertyOp24
 70
     1
102
RTVSPropertyOp25
 70
     1
102
RTVSPropertyOp26
 70
     1
102
RTVSPropertyOp27
 70
     1
102
RTVSPropertyOp28
 70
     1
102
RTVSPropertyOp29
 70
     1
102
RTVSPropertyOp30
 70
     1
102
RTVSPropertyOp31
 70
     1
102
RTVSPropertyOp32
 70
     1
  0
XRECORD
  5
BF
102
{ACAD_REACTORS
330
BE
102
}
330
BE
100
AcDbXrecord
280
     1
102
RTVSPropertyOp0
 70
     1
102
RTVSPropertyOp1
 70
     1
102
RTVSPropertyOp2
 70
     1
102
RTVSPropertyOp3
 70
     1
102
RTVSPropertyOp4
 70
     1
102
RTVSPropertyOp5
 70
     1
102
RTVSPropertyOp6
 70
     1
102
RTVSPropertyOp7
 70
     1
102
RTVSPropertyOp8
 70
     1
102
RTVSPropertyOp9
 70
     1
102
RTVSPropertyOp10
 70
     1
102
RTVSPropertyOp11
 70
     1
102
RTVSPropertyOp12
 70
     1
102
RTVSPropertyOp13
 70
     1
102
RTVSPropertyOp14
 70
     1
102
RTVSPropertyOp15
 70
     1
102
RTVSPropertyOp16
 70
     1
102
RTVSPropertyOp17
 70
     1
102
RTVSPropertyOp18
 70
     1
102
RTVSPropertyOp19
 70
     1
102
RTVSPropertyOp20
 70
     1
102
RTVSPropertyOp21
 70
     1
102
RTVSPropertyOp22
 70
     1
102
RTVSPropertyOp23
 70
     1
102
RTVSPropertyOp24
 70
     1
102
RTVSPropertyOp25
 70
     1
102
RTVSPropertyOp26
 70
     1
102
RTVSPropertyOp27
 70
     1
102
RTVSPropertyOp28
 70
     1
102
RTVSPropertyOp29
 70
     1
102
RTVSPropertyOp30
 70
     1
102
RTVSPropertyOp31
 70
     1
102
RTVSPropertyOp32
 70
     1
  0
XRECORD
  5
C1
102
{ACAD_REACTORS
330
C0
102
}
330
C0
100
AcDbXrecord
280
     1
102
RTVSPropertyOp0
 70
     1
102
RTVSPropertyOp1
 70
     1
102
RTVSPropertyOp2
 70
     1
102
RTVSPropertyOp3
 70
     1
102
RTVSPropertyOp4
 70
     1
102
RTVSPropertyOp5
 70
     1
102
RTVSPropertyOp6
 70
     1
102
RTVSPropertyOp7
 70
     1
102
RTVSPropertyOp8
 70
     1
102
RTVSPropertyOp9
 70
     1
102
RTVSPropertyOp10
 70
     1
102
RTVSPropertyOp11
 70
     1
102
RTVSPropertyOp12
 70
     1
102
RTVSPropertyOp13
 70
     1
102
RTVSPropertyOp14
 70
     1
102
RTVSPropertyOp15
 70
     1
102
RTVSPropertyOp16
 70
     1
102
RTVSPropertyOp17
 70
     1
102
RTVSPropertyOp18
 70
     1
102
RTVSPropertyOp19
 70
     1
102
RTVSPropertyOp20
 70
     1
102
RTVSPropertyOp21
 70
     1
102
RTVSPropertyOp22
 70
     1
102
RTVSPropertyOp23
 70
     1
102
RTVSPropertyOp24
 70
     1
102
RTVSPropertyOp25
 70
     1
102
RTVSPropertyOp26
 70
     1
102
RTVSPropertyOp27
 70
     1
102
RTVSPropertyOp28
 70
     1
102
RTVSPropertyOp29
 70
     1
102
RTVSPropertyOp30
 70
     1
102
RTVSPropertyOp31
 70
     1
102
RTVSPropertyOp32
 70
     1
  0
XRECORD
  5
C3
102
{ACAD_REACTORS
330
C2
102
}
330
C2
100
AcDbXrecord
280
     1
102
RTVSPropertyOp0
 70
     1
102
RTVSPropertyOp1
 70
     1
102
RTVSPropertyOp2
 70
     1
102
RTVSPropertyOp3
 70
     1
102
RTVSPropertyOp4
 70
     1
102
RTVSPropertyOp5
 70
     1
102
RTVSPropertyOp6
 70
     1
102
RTVSPropertyOp7
 70
     1
102
RTVSPropertyOp8
 70
     1
102
RTVSPropertyOp9
 70
     1
102
RTVSPropertyOp10
 70
     1
102
RTVSPropertyOp11
 70
     1
102
RTVSPropertyOp12
 70
     1
102
RTVSPropertyOp13
 70
     1
102
RTVSPropertyOp14
 70
     1
102
RTVSPropertyOp15
 70
     1
102
RTVSPropertyOp16
 70
     1
102
RTVSPropertyOp17
 70
     1
102
RTVSPropertyOp18
 70
     1
102
RTVSPropertyOp19
 70
     1
102
RTVSPropertyOp20
 70
     1
102
RTVSPropertyOp21
 70
     1
102
RTVSPropertyOp22
 70
     1
102
RTVSPropertyOp23
 70
     1
102
RTVSPropertyOp24
 70
     1
102
RTVSPropertyOp25
 70
     1
102
RTVSPropertyOp26
 70
     1
102
RTVSPropertyOp27
 70
     1
102
RTVSPropertyOp28
 70
     1
102
RTVSPropertyOp29
 70
     1
102
RTVSPropertyOp30
 70
     1
102
RTVSPropertyOp31
 70
     1
102
RTVSPropertyOp32
 70
     1
  0
XRECORD
  5
C5
102
{ACAD_REACTORS
330
C4
102
}
330
C4
100
AcDbXrecord
280
     1
102
RTVSPropertyOp0
 70
     1
102
RTVSPropertyOp1
 70
     1
102
RTVSPropertyOp2
 70
     1
102
RTVSPropertyOp3
 70
     1
102
RTVSPropertyOp4
 70
     1
102
RTVSPropertyOp5
 70
     1
102
RTVSPropertyOp6
 70
     1
102
RTVSPropertyOp7
 70
     1
102
RTVSPropertyOp8
 70
     1
102
RTVSPropertyOp9
 70
     1
102
RTVSPropertyOp10
 70
     1
102
RTVSPropertyOp11
 70
     1
102
RTVSPropertyOp12
 70
     1
102
RTVSPropertyOp13
 70
     1
102
RTVSPropertyOp14
 70
     1
102
RTVSPropertyOp15
 70
     1
102
RTVSPropertyOp16
 70
     1
102
RTVSPropertyOp17
 70
     1
102
RTVSPropertyOp18
 70
     1
102
RTVSPropertyOp19
 70
     1
102
RTVSPropertyOp20
 70
     1
102
RTVSPropertyOp21
 70
     1
102
RTVSPropertyOp22
 70
     1
102
RTVSPropertyOp23
 70
     1
102
RTVSPropertyOp24
 70
     1
102
RTVSPropertyOp25
 70
     1
102
RTVSPropertyOp26
 70
     1
102
RTVSPropertyOp27
 70
     1
102
RTVSPropertyOp28
 70
     1
102
RTVSPropertyOp29
 70
     1
102
RTVSPropertyOp30
 70
     1
102
RTVSPropertyOp31
 70
     1
102
RTVSPropertyOp32
 70
     1
  0
XRECORD
  5
D9
102
{ACAD_REACTORS
330
D8
102
}
330
D8
100
AcDbXrecord
280
     1
102
RTVSPropertyOp0
 70
     1
102
RTVSPropertyOp1
 70
     1
102
RTVSPropertyOp2
 70
     1
102
RTVSPropertyOp3
 70
     1
102
RTVSPropertyOp4
 70
     1
102
RTVSPropertyOp5
 70
     1
102
RTVSPropertyOp6
 70
     1
102
RTVSPropertyOp7
 70
     1
102
RTVSPropertyOp8
 70
     1
102
RTVSPropertyOp9
 70
     1
102
RTVSPropertyOp10
 70
     1
102
RTVSPropertyOp11
 70
     1
102
RTVSPropertyOp12
 70
     1
102
RTVSPropertyOp13
 70
     1
102
RTVSPropertyOp14
 70
     1
102
RTVSPropertyOp15
 70
     1
102
RTVSPropertyOp16
 70
     1
102
RTVSPropertyOp17
 70
     1
102
RTVSPropertyOp18
 70
     1
102
RTVSPropertyOp19
 70
     1
102
RTVSPropertyOp20
 70
     1
102
RTVSPropertyOp21
 70
     1
102
RTVSPropertyOp22
 70
     1
102
RTVSPropertyOp23
 70
     1
102
RTVSPropertyOp24
 70
     1
102
RTVSPropertyOp25
 70
     1
102
RTVSPropertyOp26
 70
     1
102
RTVSPropertyOp27
 70
     1
102
RTVSPropertyOp28
 70
     1
102
RTVSPropertyOp29
 70
     1
102
RTVSPropertyOp30
 70
     1
102
RTVSPropertyOp31
 70
     1
102
RTVSPropertyOp32
 70
     1
  0
XRECORD
  5
CF
102
{ACAD_REACTORS
330
CE
102
}
330
CE
100
AcDbXrecord
280
     1
102
RTVSPropertyOp0
 70
     1
102
RTVSPropertyOp1
 70
     1
102
RTVSPropertyOp2
 70
     1
102
RTVSPropertyOp3
 70
     1
102
RTVSPropertyOp4
 70
     1
102
RTVSPropertyOp5
 70
     1
102
RTVSPropertyOp6
 70
     1
102
RTVSPropertyOp7
 70
     1
102
RTVSPropertyOp8
 70
     1
102
RTVSPropertyOp9
 70
     1
102
RTVSPropertyOp10
 70
     1
102
RTVSPropertyOp11
 70
     1
102
RTVSPropertyOp12
 70
     1
102
RTVSPropertyOp13
 70
     1
102
RTVSPropertyOp14
 70
     1
102
RTVSPropertyOp15
 70
     1
102
RTVSPropertyOp16
 70
     1
102
RTVSPropertyOp17
 70
     1
102
RTVSPropertyOp18
 70
     1
102
RTVSPropertyOp19
 70
     1
102
RTVSPropertyOp20
 70
     1
102
RTVSPropertyOp21
 70
     1
102
RTVSPropertyOp22
 70
     1
102
RTVSPropertyOp23
 70
     1
102
RTVSPropertyOp24
 70
     1
102
RTVSPropertyOp25
 70
     1
102
RTVSPropertyOp26
 70
     1
102
RTVSPropertyOp27
 70
     1
102
RTVSPropertyOp28
 70
     1
102
RTVSPropertyOp29
 70
     1
102
RTVSPropertyOp30
 70
     1
102
RTVSPropertyOp31
 70
     1
102
RTVSPropertyOp32
 70
     1
  0
XRECORD
  5
D7
102
{ACAD_REACTORS
330
D6
102
}
330
D6
100
AcDbXrecord
280
     1
102
RTVSPropertyOp0
 70
     1
102
RTVSPropertyOp1
 70
     1
102
RTVSPropertyOp2
 70
     1
102
RTVSPropertyOp3
 70
     1
102
RTVSPropertyOp4
 70
     1
102
RTVSPropertyOp5
 70
     1
102
RTVSPropertyOp6
 70
     1
102
RTVSPropertyOp7
 70
     1
102
RTVSPropertyOp8
 70
     1
102
RTVSPropertyOp9
 70
     1
102
RTVSPropertyOp10
 70
     1
102
RTVSPropertyOp11
 70
     1
102
RTVSPropertyOp12
 70
     1
102
RTVSPropertyOp13
 70
     1
102
RTVSPropertyOp14
 70
     1
102
RTVSPropertyOp15
 70
     1
102
RTVSPropertyOp16
 70
     1
102
RTVSPropertyOp17
 70
     1
102
RTVSPropertyOp18
 70
     1
102
RTVSPropertyOp19
 70
     1
102
RTVSPropertyOp20
 70
     1
102
RTVSPropertyOp21
 70
     1
102
RTVSPropertyOp22
 70
     1
102
RTVSPropertyOp23
 70
     1
102
RTVSPropertyOp24
 70
     1
102
RTVSPropertyOp25
 70
     1
102
RTVSPropertyOp26
 70
     1
102
RTVSPropertyOp27
 70
     1
102
RTVSPropertyOp28
 70
     1
102
RTVSPropertyOp29
 70
     1
102
RTVSPropertyOp30
 70
     1
102
RTVSPropertyOp31
 70
     1
102
RTVSPropertyOp32
 70
     1
  0
ENDSEC
  0
EOF
