  0
SECTION
  2
HEADER
  9
$ACADVER
  1
AC1021
  9
$ACADMAINTVER
 70
    25
  9
$DWGCODEPAGE
  3
ANSI_1256
  9
$INSBASE
 10
0.0
 20
0.0
 30
0.0
  9
$EXTMIN
 10
-28.3468
 20
-114.6912
 30
0.0
  9
$EXTMAX
 10
56.2367
 20
131.7753
 30
0.0
  9
$LIMMIN
 10
0.0
 20
0.0
  9
$LIMMAX
 10
12.0
 20
9.0
  9
$ORTHOMODE
 70
     0
  9
$REGENMODE
 70
     1
  9
$FILLMODE
 70
     1
  9
$QTEXTMODE
 70
     0
  9
$MIRRTEXT
 70
     1
  9
$LTSCALE
 40
1.0
  9
$ATTMODE
 70
     1
  9
$TEXTSIZE
 40
0.2
  9
$TRACEWID
 40
0.05
  9
$TEXTSTYLE
  7
Standard
  9
$CLAYER
  8
0
  9
$CELTYPE
  6
ByLayer
  9
$CECOLOR
 62
   256
  9
$CELTSCALE
 40
1.0
  9
$DISPSILH
 70
     0
  9
$DIMSCALE
 40
1.0
  9
$DIMASZ
 40
0.18
  9
$DIMEXO
 40
0.0625
  9
$DIMDLI
 40
0.38
  9
$DIMRND
 40
0.0
  9
$DIMDLE
 40
0.0
  9
$DIMEXE
 40
0.18
  9
$DIMTP
 40
0.0
  9
$DIMTM
 40
0.0
  9
$DIMTXT
 40
0.18
  9
$DIMCEN
 40
0.09
  9
$DIMTSZ
 40
0.0
  9
$DIMTOL
 70
     0
  9
$DIMLIM
 70
     0
  9
$DIMTIH
 70
     1
  9
$DIMTOH
 70
     1
  9
$DIMSE1
 70
     0
  9
$DIMSE2
 70
     0
  9
$DIMTAD
 70
     0
  9
$DIMZIN
 70
     0
  9
$DIMBLK
  1

  9
$DIMASO
 70
     1
  9
$DIMSHO
 70
     1
  9
$DIMPOST
  1

  9
$DIMAPOST
  1

  9
$DIMALT
 70
     0
  9
$DIMALTD
 70
     2
  9
$DIMALTF
 40
25.4
  9
$DIMLFAC
 40
1.0
  9
$DIMTOFL
 70
     0
  9
$DIMTVP
 40
0.0
  9
$DIMTIX
 70
     0
  9
$DIMSOXD
 70
     0
  9
$DIMSAH
 70
     0
  9
$DIMBLK1
  1

  9
$DIMBLK2
  1

  9
$DIMSTYLE
  2
Standard
  9
$DIMCLRD
 70
     0
  9
$DIMCLRE
 70
     0
  9
$DIMCLRT
 70
     0
  9
$DIMTFAC
 40
1.0
  9
$DIMGAP
 40
0.09
  9
$DIMJUST
 70
     0
  9
$DIMSD1
 70
     0
  9
$DIMSD2
 70
     0
  9
$DIMTOLJ
 70
     1
  9
$DIMTZIN
 70
     0
  9
$DIMALTZ
 70
     0
  9
$DIMALTTZ
 70
     0
  9
$DIMUPT
 70
     0
  9
$DIMDEC
 70
     4
  9
$DIMTDEC
 70
     4
  9
$DIMALTU
 70
     2
  9
$DIMALTTD
 70
     2
  9
$DIMTXSTY
  7
Standard
  9
$DIMAUNIT
 70
     0
  9
$DIMADEC
 70
     0
  9
$DIMALTRND
 40
0.0
  9
$DIMAZIN
 70
     0
  9
$DIMDSEP
 70
    46
  9
$DIMATFIT
 70
     3
  9
$DIMFRAC
 70
     0
  9
$DIMLDRBLK
  1

  9
$DIMLUNIT
 70
     2
  9
$DIMLWD
 70
    -2
  9
$DIMLWE
 70
    -2
  9
$DIMTMOVE
 70
     0
  9
$DIMFXL
 40
1.0
  9
$DIMFXLON
 70
     0
  9
$DIMJOGANG
 40
0.7853981633974483
  9
$DIMTFILL
 70
     0
  9
$DIMTFILLCLR
 70
     0
  9
$DIMARCSYM
 70
     0
  9
$DIMLTYPE
  6

  9
$DIMLTEX1
  6

  9
$DIMLTEX2
  6

  9
$LUNITS
 70
     2
  9
$LUPREC
 70
     4
  9
$SKETCHINC
 40
0.1
  9
$FILLETRAD
 40
0.5
  9
$AUNITS
 70
     0
  9
$AUPREC
 70
     0
  9
$MENU
  1
.
  9
$ELEVATION
 40
0.0
  9
$PELEVATION
 40
0.0
  9
$THICKNESS
 40
0.0
  9
$LIMCHECK
 70
     0
  9
$CHAMFERA
 40
0.5
  9
$CHAMFERB
 40
0.5
  9
$CHAMFERC
 40
1.0
  9
$CHAMFERD
 40
0.0
  9
$SKPOLY
 70
     0
  9
$TDCREATE
 40
2458492.923762037
  9
$TDUCREATE
 40
2458492.75709537
  9
$TDUPDATE
 40
2458492.923762084
  9
$TDUUPDATE
 40
2458492.757095417
  9
$TDINDWG
 40
0.0000000116
  9
$TDUSRTIMER
 40
0.0000000116
  9
$USRTIMER
 70
     1
  9
$ANGBASE
 50
0.0
  9
$ANGDIR
 70
     0
  9
$PDMODE
 70
     0
  9
$PDSIZE
 40
0.0
  9
$PLINEWID
 40
0.0
  9
$SPLFRAME
 70
     0
  9
$SPLINETYPE
 70
     6
  9
$SPLINESEGS
 70
     8
  9
$HANDSEED
  5
8A
  9
$SURFTAB1
 70
     6
  9
$SURFTAB2
 70
     6
  9
$SURFTYPE
 70
     6
  9
$SURFU
 70
     6
  9
$SURFV
 70
     6
  9
$UCSBASE
  2

  9
$UCSNAME
  2

  9
$UCSORG
 10
0.0
 20
0.0
 30
0.0
  9
$UCSXDIR
 10
1.0
 20
0.0
 30
0.0
  9
$UCSYDIR
 10
0.0
 20
1.0
 30
0.0
  9
$UCSORTHOREF
  2

  9
$UCSORTHOVIEW
 70
     0
  9
$UCSORGTOP
 10
0.0
 20
0.0
 30
0.0
  9
$UCSORGBOTTOM
 10
0.0
 20
0.0
 30
0.0
  9
$UCSORGLEFT
 10
0.0
 20
0.0
 30
0.0
  9
$UCSORGRIGHT
 10
0.0
 20
0.0
 30
0.0
  9
$UCSORGFRONT
 10
0.0
 20
0.0
 30
0.0
  9
$UCSORGBACK
 10
0.0
 20
0.0
 30
0.0
  9
$PUCSBASE
  2

  9
$PUCSNAME
  2

  9
$PUCSORG
 10
0.0
 20
0.0
 30
0.0
  9
$PUCSXDIR
 10
1.0
 20
0.0
 30
0.0
  9
$PUCSYDIR
 10
0.0
 20
1.0
 30
0.0
  9
$PUCSORTHOREF
  2

  9
$PUCSORTHOVIEW
 70
     0
  9
$PUCSORGTOP
 10
0.0
 20
0.0
 30
0.0
  9
$PUCSORGBOTTOM
 10
0.0
 20
0.0
 30
0.0
  9
$PUCSORGLEFT
 10
0.0
 20
0.0
 30
0.0
  9
$PUCSORGRIGHT
 10
0.0
 20
0.0
 30
0.0
  9
$PUCSORGFRONT
 10
0.0
 20
0.0
 30
0.0
  9
$PUCSORGBACK
 10
0.0
 20
0.0
 30
0.0
  9
$USERI1
 70
     0
  9
$USERI2
 70
     0
  9
$USERI3
 70
     0
  9
$USERI4
 70
     0
  9
$USERI5
 70
     0
  9
$USERR1
 40
0.0
  9
$USERR2
 40
0.0
  9
$USERR3
 40
0.0
  9
$USERR4
 40
0.0
  9
$USERR5
 40
0.0
  9
$WORLDVIEW
 70
     1
  9
$SHADEDGE
 70
     3
  9
$SHADEDIF
 70
    70
  9
$TILEMODE
 70
     1
  9
$MAXACTVP
 70
    64
  9
$PINSBASE
 10
0.0
 20
0.0
 30
0.0
  9
$PLIMCHECK
 70
     0
  9
$PEXTMIN
 10
1.000000000000000E+20
 20
1.000000000000000E+20
 30
1.000000000000000E+20
  9
$PEXTMAX
 10
-1.000000000000000E+20
 20
-1.000000000000000E+20
 30
-1.000000000000000E+20
  9
$PLIMMIN
 10
0.0
 20
0.0
  9
$PLIMMAX
 10
12.0
 20
9.0
  9
$UNITMODE
 70
     0
  9
$VISRETAIN
 70
     1
  9
$PLINEGEN
 70
     0
  9
$PSLTSCALE
 70
     1
  9
$TREEDEPTH
 70
  3020
  9
$CMLSTYLE
  2
Standard
  9
$CMLJUST
 70
     0
  9
$CMLSCALE
 40
1.0
  9
$PROXYGRAPHICS
 70
     1
  9
$MEASUREMENT
 70
     0
  9
$CELWEIGHT
370
    -1
  9
$ENDCAPS
280
     0
  9
$JOINSTYLE
280
     0
  9
$LWDISPLAY
290
     0
  9
$INSUNITS
 70
     4
  9
$HYPERLINKBASE
  1

  9
$STYLESHEET
  1

  9
$XEDIT
290
     1
  9
$CEPSNTYPE
380
     0
  9
$PSTYLEMODE
290
     1
  9
$FINGERPRINTGUID
  2
{E111730F-6924-4566-9DD3-8A99CDBF0AF3}
  9
$VERSIONGUID
  2
{FAEB1C32-E019-11D5-929B-00C0DF256EC4}
  9
$EXTNAMES
290
     1
  9
$PSVPSCALE
 40
0.0
  9
$OLESTARTUP
290
     0
  9
$SORTENTS
280
   127
  9
$INDEXCTL
280
     0
  9
$HIDETEXT
280
     1
  9
$XCLIPFRAME
290
     0
  9
$HALOGAP
280
     0
  9
$OBSCOLOR
 70
   257
  9
$OBSLTYPE
280
     0
  9
$INTERSECTIONDISPLAY
280
     0
  9
$INTERSECTIONCOLOR
 70
   257
  9
$DIMASSOC
280
     2
  9
$PROJECTNAME
  1

  9
$CAMERADISPLAY
290
     0
  9
$LENSLENGTH
 40
50.0
  9
$CAMERAHEIGHT
 40
0.0
  9
$STEPSPERSEC
 40
2.0
  9
$STEPSIZE
 40
6.0
  9
$3DDWFPREC
 40
2.0
  9
$PSOLWIDTH
 40
0.25
  9
$PSOLHEIGHT
 40
4.0
  9
$LOFTANG1
 40
1.570796326794897
  9
$LOFTANG2
 40
1.570796326794897
  9
$LOFTMAG1
 40
0.0
  9
$LOFTMAG2
 40
0.0
  9
$LOFTPARAM
 70
     7
  9
$LOFTNORMALS
280
     1
  9
$LATITUDE
 40
37.795
  9
$LONGITUDE
 40
-122.394
  9
$NORTHDIRECTION
 40
0.0
  9
$TIMEZONE
 70
 -8000
  9
$LIGHTGLYPHDISPLAY
280
     1
  9
$TILEMODELIGHTSYNCH
280
     1
  9
$SOLIDHIST
280
     1
  9
$SHOWHIST
280
     1
  9
$DWFFRAME
280
     2
  9
$DGNFRAME
280
     2
  9
$REALWORLDSCALE
290
     1
  9
$INTERFERECOLOR
 62
   256
  9
$CSHADOW
280
     0
  9
$SHADOWPLANELOCATION
 40
0.0
  0
ENDSEC
  0
SECTION
  2
CLASSES
  0
CLASS
  1
ACDBDICTIONARYWDFLT
  2
AcDbDictionaryWithDefault
  3
ObjectDBX Classes
 90
        0
 91
        4
280
     0
281
     0
  0
CLASS
  1
VISUALSTYLE
  2
AcDbVisualStyle
  3
ObjectDBX Classes
 90
     4095
 91
        4
280
     0
281
     0
  0
CLASS
  1
MATERIAL
  2
AcDbMaterial
  3
ObjectDBX Classes
 90
     1153
 91
        4
280
     0
281
     0
  0
ENDSEC
  0
SECTION
  2
TABLES
  0
TABLE
  2
VPORT
  5
8
330
0
100
AcDbSymbolTable
 70
     1
  0
VPORT
  5
29
330
8
100
AcDbSymbolTableRecord
100
AcDbViewportTableRecord
  2
*Active
 70
     0
 10
0.0
 20
0.0
 11
1.0
 21
1.0
 12
10.42990654205607
 22
4.5
 13
0.0
 23
0.0
 14
0.5
 24
0.5
 15
0.5
 25
0.5
 16
0.0
 26
0.0
 36
1.0
 17
0.0
 27
0.0
 37
0.0
 40
9.0
 41
1.972972972850329
 42
50.0
 43
0.0
 44
0.0
 50
0.0
 51
0.0
 71
     0
 72
   100
 73
     1
 74
     3
 75
     0
 76
     0
 77
     0
 78
     0
281
     0
 65
     1
110
0.0
120
0.0
130
0.0
111
1.0
121
0.0
131
0.0
112
0.0
122
1.0
132
0.0
 79
     0
146
0.0
 60
     3
 61
     5
292
     1
282
     1
141
0.0
142
0.0
 63
   250
  0
ENDTAB
  0
TABLE
  2
LTYPE
  5
5
330
0
100
AcDbSymbolTable
 70
     1
  0
LTYPE
  5
14
330
5
100
AcDbSymbolTableRecord
100
AcDbLinetypeTableRecord
  2
ByBlock
 70
     0
  3

 72
    65
 73
     0
 40
0.0
  0
LTYPE
  5
15
330
5
100
AcDbSymbolTableRecord
100
AcDbLinetypeTableRecord
  2
ByLayer
 70
     0
  3

 72
    65
 73
     0
 40
0.0
  0
LTYPE
  5
16
330
5
100
AcDbSymbolTableRecord
100
AcDbLinetypeTableRecord
  2
Continuous
 70
     0
  3
Solid line
 72
    65
 73
     0
 40
0.0
  0
ENDTAB
  0
TABLE
  2
LAYER
  5
2
330
0
100
AcDbSymbolTable
 70
     2
  0
LAYER
  5
10
330
2
100
AcDbSymbolTableRecord
100
AcDbLayerTableRecord
  2
0
 70
     0
 62
     7
  6
Continuous
370
    -3
390
F
347
3E
  0
LAYER
  5
40
330
2
100
AcDbSymbolTableRecord
100
AcDbLayerTableRecord
  2
layer 1
 70
     0
 62
     7
  6
Continuous
370
    -3
390
F
347
3E
  0
ENDTAB
  0
TABLE
  2
STYLE
  5
3
330
0
100
AcDbSymbolTable
 70
     1
  0
STYLE
  5
11
330
3
100
AcDbSymbolTableRecord
100
AcDbTextStyleTableRecord
  2
Standard
 70
     0
 40
0.0
 41
1.0
 50
0.0
 71
     0
 42
0.2
  3
txt
  4

  0
ENDTAB
  0
TABLE
  2
VIEW
  5
6
330
0
100
AcDbSymbolTable
 70
     0
  0
ENDTAB
  0
TABLE
  2
UCS
  5
7
330
0
100
AcDbSymbolTable
 70
     0
  0
ENDTAB
  0
TABLE
  2
APPID
  5
9
330
0
100
AcDbSymbolTable
 70
     2
  0
APPID
  5
12
330
9
100
AcDbSymbolTableRecord
100
AcDbRegAppTableRecord
  2
ACAD
 70
     0
  0
APPID
  5
3F
330
9
100
AcDbSymbolTableRecord
100
AcDbRegAppTableRecord
  2
ODA
 70
     0
  0
ENDTAB
  0
TABLE
  2
DIMSTYLE
  5
A
330
0
100
AcDbSymbolTable
 70
     1
100
AcDbDimStyleTable
  0
DIMSTYLE
105
27
330
A
100
AcDbSymbolTableRecord
100
AcDbDimStyleTableRecord
  2
Standard
 70
     0
178
     0
340
11
  0
ENDTAB
  0
TABLE
  2
BLOCK_RECORD
  5
1
330
0
100
AcDbSymbolTable
 70
     1
  0
BLOCK_RECORD
  5
1F
330
1
100
AcDbSymbolTableRecord
100
AcDbBlockTableRecord
  2
*Model_Space
340
22
 70
     0
280
     1
281
     0
  0
BLOCK_RECORD
  5
1B
330
1
100
AcDbSymbolTableRecord
100
AcDbBlockTableRecord
  2
*Paper_Space
340
1E
 70
     0
280
     1
281
     0
  0
BLOCK_RECORD
  5
23
330
1
100
AcDbSymbolTableRecord
100
AcDbBlockTableRecord
  2
*Paper_Space0
340
26
 70
     0
280
     1
281
     0
  0
ENDTAB
  0
ENDSEC
  0
SECTION
  2
BLOCKS
  0
BLOCK
  5
20
330
1F
100
AcDbEntity
  8
0
100
AcDbBlockBegin
  2
*Model_Space
 70
     0
 10
0.0
 20
0.0
 30
0.0
  3
*Model_Space
  1

  0
ENDBLK
  5
21
330
1F
100
AcDbEntity
  8
0
100
AcDbBlockEnd
  0
BLOCK
  5
1C
330
1B
100
AcDbEntity
 67
     1
  8
0
100
AcDbBlockBegin
  2
*Paper_Space
 70
     0
 10
0.0
 20
0.0
 30
0.0
  3
*Paper_Space
  1

  0
ENDBLK
  5
1D
330
1B
100
AcDbEntity
 67
     1
  8
0
100
AcDbBlockEnd
  0
BLOCK
  5
24
330
23
100
AcDbEntity
  8
0
100
AcDbBlockBegin
  2
*Paper_Space0
 70
     0
 10
0.0
 20
0.0
 30
0.0
  3
*Paper_Space0
  1

  0
ENDBLK
  5
25
330
23
100
AcDbEntity
  8
0
100
AcDbBlockEnd
  0
ENDSEC
  0
SECTION
  2
ENTITIES
  0
SPLINE
  5
41
330
1F
100
AcDbEntity
  8
layer 1
 62
   250
100
AcDbSpline
210
0.0
220
0.0
230
1.0
 70
    11
 71
     3
 72
    20
 73
    16
 74
     0
 42
0.0000000001
 43
0.0000000001
 12
1.0
 22
0.0
 32
0.0
 13
1.0
 23
0.0
 33
0.0
 40
0.0
 40
0.0
 40
0.0
 40
0.0
 40
0.2
 40
0.2
 40
0.2
 40
0.2
 40
0.4
 40
0.4
 40
0.4
 40
0.4
 40
0.6
 40
0.6
 40
0.6
 40
0.6
 40
1.0
 40
1.0
 40
1.0
 40
1.0
 10
-28.3468
 20
131.7753
 30
0.0
 10
-28.3468
 20
131.7753
 30
0.0
 10
56.2367
 20
131.7753
 30
0.0
 10
56.2367
 20
131.7753
 30
0.0
 10
56.2367
 20
131.7753
 30
0.0
 10
56.2367
 20
131.7753
 30
0.0
 10
56.2367
 20
-114.6912
 30
0.0
 10
56.2367
 20
-114.6912
 30
0.0
 10
56.2367
 20
-114.6912
 30
0.0
 10
56.2367
 20
-114.6912
 30
0.0
 10
-28.3468
 20
-114.6912
 30
0.0
 10
-28.3468
 20
-114.6912
 30
0.0
 10
-28.3468
 20
-114.6912
 30
0.0
 10
-28.3468
 20
-114.6912
 30
0.0
 10
-28.3468
 20
131.7753
 30
0.0
 10
-28.3468
 20
131.7753
 30
0.0
  0
SPLINE
  5
42
330
1F
100
AcDbEntity
  8
layer 1
 62
     7
100
AcDbSpline
210
0.0
220
0.0
230
1.0
 70
    11
 71
     3
 72
    16
 73
    12
 74
     0
 42
0.0000000001
 43
0.0000000001
 12
1.0
 22
0.0
 32
0.0
 13
1.0
 23
0.0
 33
0.0
 40
0.0
 40
0.0
 40
0.0
 40
0.0
 40
0.25
 40
0.25
 40
0.25
 40
0.25
 40
0.5
 40
0.5
 40
0.5
 40
0.5
 40
1.0
 40
1.0
 40
1.0
 40
1.0
 10
-20.548
 20
127.6676
 30
0.0
 10
-18.9085
 20
123.247
 30
0.0
 10
-19.7194
 20
118.1108
 30
0.0
 10
-24.0246
 20
115.1268
 30
0.0
 10
-24.0246
 20
115.1268
 30
0.0
 10
-24.1039
 20
119.3071
 30
0.0
 10
-24.1834
 20
123.4873
 30
0.0
 10
-24.2629
 20
127.6676
 30
0.0
 10
-24.2629
 20
127.6676
 30
0.0
 10
-24.2629
 20
127.6676
 30
0.0
 10
-20.548
 20
127.6676
 30
0.0
 10
-20.548
 20
127.6676
 30
0.0
  0
SPLINE
  5
43
330
1F
100
AcDbEntity
  8
layer 1
 62
     7
100
AcDbSpline
210
0.0
220
0.0
230
1.0
 70
    11
 71
     3
 72
    20
 73
    16
 74
     0
 42
0.0000000001
 43
0.0000000001
 12
1.0
 22
0.0
 32
0.0
 13
1.0
 23
0.0
 33
0.0
 40
0.0
 40
0.0
 40
0.0
 40
0.0
 40
0.2
 40
0.2
 40
0.2
 40
0.2
 40
0.4
 40
0.4
 40
0.4
 40
0.4
 40
0.6
 40
0.6
 40
0.6
 40
0.6
 40
1.0
 40
1.0
 40
1.0
 40
1.0
 10
1.5317
 20
127.6676
 30
0.0
 10
0.5769
 20
126.1219
 30
0.0
 10
-0.8951
 20
125.0629
 30
0.0
 10
-2.8516
 20
124.3687
 30
0.0
 10
-2.8516
 20
124.3687
 30
0.0
 10
-5.9258
 20
123.2778
 30
0.0
 10
-8.9129
 20
123.627
 30
0.0
 10
-11.835
 20
125.0461
 30
0.0
 10
-11.835
 20
125.0461
 30
0.0
 10
-13.3845
 20
125.4508
 30
0.0
 10
-14.576
 20
126.4189
 30
0.0
 10
-15.5882
 20
127.6676
 30
0.0
 10
-15.5882
 20
127.6676
 30
0.0
 10
-15.5882
 20
127.6676
 30
0.0
 10
1.5317
 20
127.6676
 30
0.0
 10
1.5317
 20
127.6676
 30
0.0
  0
SPLINE
  5
44
330
1F
100
AcDbEntity
  8
layer 1
 62
     7
100
AcDbSpline
210
0.0
220
0.0
230
1.0
 70
    11
 71
     3
 72
    24
 73
    20
 74
     0
 42
0.0000000001
 43
0.0000000001
 12
1.0
 22
0.0
 32
0.0
 13
1.0
 23
0.0
 33
0.0
 40
0.0
 40
0.0
 40
0.0
 40
0.0
 40
0.1666666666666667
 40
0.1666666666666667
 40
0.1666666666666667
 40
0.1666666666666667
 40
0.3333333333333333
 40
0.3333333333333333
 40
0.3333333333333333
 40
0.3333333333333333
 40
0.5
 40
0.5
 40
0.5
 40
0.5
 40
0.6666666666666666
 40
0.6666666666666666
 40
0.6666666666666666
 40
0.6666666666666666
 40
1.0
 40
1.0
 40
1.0
 40
1.0
 10
51.4251
 20
118.6907
 30
0.0
 10
51.425
 20
119.9442
 30
0.0
 10
51.425
 20
121.1975
 30
0.0
 10
51.4251
 20
122.4508
 30
0.0
 10
51.4251
 20
122.4508
 30
0.0
 10
47.6924
 20
122.8595
 30
0.0
 10
45.6964
 20
125.0094
 30
0.0
 10
45.1292
 20
127.6676
 30
0.0
 10
45.1292
 20
127.6676
 30
0.0
 10
45.1292
 20
127.6676
 30
0.0
 10
40.624
 20
127.6676
 30
0.0
 10
40.624
 20
127.6676
 30
0.0
 10
40.624
 20
127.6676
 30
0.0
 10
40.9585
 20
127.0246
 30
0.0
 10
41.2596
 20
126.3356
 30
0.0
 10
41.5237
 20
125.5959
 30
0.0
 10
41.5237
 20
125.5959
 30
0.0
 10
44.529
 20
122.7865
 30
0.0
 10
47.561
 20
120.0231
 30
0.0
 10
51.4251
 20
118.6907
 30
0.0
  0
SPLINE
  5
45
330
1F
100
AcDbEntity
  8
layer 1
 62
     7
100
AcDbSpline
210
0.0
220
0.0
230
1.0
 70
    11
 71
     3
 72
    68
 73
    64
 74
     0
 42
0.0000000001
 43
0.0000000001
 12
1.0
 22
0.0
 32
0.0
 13
1.0
 23
0.0
 33
0.0
 40
0.0
 40
0.0
 40
0.0
 40
0.0
 40
0.0588235294117647
 40
0.0588235294117647
 40
0.0588235294117647
 40
0.0588235294117647
 40
0.1176470588235294
 40
0.1176470588235294
 40
0.1176470588235294
 40
0.1176470588235294
 40
0.1764705882352941
 40
0.1764705882352941
 40
0.1764705882352941
 40
0.1764705882352941
 40
0.2352941176470588
 40
0.2352941176470588
 40
0.2352941176470588
 40
0.2352941176470588
 40
0.2941176470588235
 40
0.2941176470588235
 40
0.2941176470588235
 40
0.2941176470588235
 40
0.3529411764705883
 40
0.3529411764705883
 40
0.3529411764705883
 40
0.3529411764705883
 40
0.4117647058823529
 40
0.4117647058823529
 40
0.4117647058823529
 40
0.4117647058823529
 40
0.4705882352941176
 40
0.4705882352941176
 40
0.4705882352941176
 40
0.4705882352941176
 40
0.5294117647058824
 40
0.5294117647058824
 40
0.5294117647058824
 40
0.5294117647058824
 40
0.5882352941176471
 40
0.5882352941176471
 40
0.5882352941176471
 40
0.5882352941176471
 40
0.6470588235294118
 40
0.6470588235294118
 40
0.6470588235294118
 40
0.6470588235294118
 40
0.7058823529411765
 40
0.7058823529411765
 40
0.7058823529411765
 40
0.7058823529411765
 40
0.7647058823529411
 40
0.7647058823529411
 40
0.7647058823529411
 40
0.7647058823529411
 40
0.8235294117647058
 40
0.8235294117647058
 40
0.8235294117647058
 40
0.8235294117647058
 40
0.8823529411764706
 40
0.8823529411764706
 40
0.8823529411764706
 40
0.8823529411764706
 40
1.0
 40
1.0
 40
1.0
 40
1.0
 10
50.4461
 20
49.5588
 30
0.0
 10
46.3959
 20
53.215
 30
0.0
 10
41.0489
 20
54.9822
 30
0.0
 10
36.3544
 20
50.9475
 30
0.0
 10
36.3544
 20
50.9475
 30
0.0
 10
34.5874
 20
49.4288
 30
0.0
 10
32.4797
 20
47.1829
 30
0.0
 10
31.6405
 20
44.6713
 30
0.0
 10
31.6405
 20
44.6713
 30
0.0
 10
30.3515
 20
40.8133
 30
0.0
 10
32.0566
 20
36.217
 30
0.0
 10
35.5239
 20
34.6406
 30
0.0
 10
35.5239
 20
34.6406
 30
0.0
 10
37.6328
 20
33.6819
 30
0.0
 10
39.9655
 20
33.9254
 30
0.0
 10
41.6153
 20
35.7493
 30
0.0
 10
41.6153
 20
35.7493
 30
0.0
 10
42.8592
 20
37.125
 30
0.0
 10
43.3401
 20
38.8962
 30
0.0
 10
42.6554
 20
40.2365
 30
0.0
 10
42.6554
 20
40.2365
 30
0.0
 10
41.8308
 20
41.8511
 30
0.0
 10
40.3881
 20
41.8341
 30
0.0
 10
38.8913
 20
42.0572
 30
0.0
 10
38.8913
 20
42.0572
 30
0.0
 10
37.6335
 20
42.2447
 30
0.0
 10
36.5765
 20
42.6972
 30
0.0
 10
37.6221
 20
44.7387
 30
0.0
 10
37.6221
 20
44.7387
 30
0.0
 10
40.1582
 20
49.6907
 30
0.0
 10
48.0636
 20
46.6273
 30
0.0
 10
48.7522
 20
41.3427
 30
0.0
 10
48.7522
 20
41.3427
 30
0.0
 10
49.3817
 20
36.5133
 30
0.0
 10
47.5792
 20
33.2285
 30
0.0
 10
43.6538
 20
30.7752
 30
0.0
 10
43.6538
 20
30.7752
 30
0.0
 10
41.7377
 20
29.5779
 30
0.0
 10
39.5814
 20
29.0008
 30
0.0
 10
37.1048
 20
29.2497
 30
0.0
 10
37.1048
 20
29.2497
 30
0.0
 10
32.7853
 20
29.6836
 30
0.0
 10
29.4265
 20
31.988
 30
0.0
 10
27.5244
 20
35.476
 30
0.0
 10
27.5244
 20
35.476
 30
0.0
 10
23.5852
 20
42.6997
 30
0.0
 10
26.3061
 20
51.8827
 30
0.0
 10
33.5616
 20
55.6877
 30
0.0
 10
33.5616
 20
55.6877
 30
0.0
 10
39.5165
 20
58.8104
 30
0.0
 10
44.7056
 20
57.9279
 30
0.0
 10
50.4488
 20
56.0536
 30
0.0
 10
50.4488
 20
56.0536
 30
0.0
 10
52.8298
 20
55.2767
 30
0.0
 10
52.2489
 20
55.4274
 30
0.0
 10
52.0402
 20
52.9283
 30
0.0
 10
52.0402
 20
52.9283
 30
0.0
 10
51.9502
 20
51.8503
 30
0.0
 10
51.8601
 20
50.7723
 30
0.0
 10
51.77
 20
49.6945
 30
0.0
 10
51.77
 20
49.6945
 30
0.0
 10
51.6039
 20
47.7033
 30
0.0
 10
51.6352
 20
48.4855
 30
0.0
 10
50.4461
 20
49.5588
 30
0.0
  0
SPLINE
  5
46
330
1F
100
AcDbEntity
  8
layer 1
 62
     7
100
AcDbSpline
210
0.0
220
0.0
230
1.0
 70
    11
 71
     3
 72
    20
 73
    16
 74
     0
 42
0.0000000001
 43
0.0000000001
 12
1.0
 22
0.0
 32
0.0
 13
1.0
 23
0.0
 33
0.0
 40
0.0
 40
0.0
 40
0.0
 40
0.0
 40
0.2
 40
0.2
 40
0.2
 40
0.2
 40
0.4
 40
0.4
 40
0.4
 40
0.4
 40
0.6
 40
0.6
 40
0.6
 40
0.6
 40
1.0
 40
1.0
 40
1.0
 40
1.0
 10
51.7821
 20
34.4372
 30
0.0
 10
51.8573
 20
33.4545
 30
0.0
 10
51.9325
 20
32.4719
 30
0.0
 10
52.0077
 20
31.4893
 30
0.0
 10
52.0077
 20
31.4893
 30
0.0
 10
50.2286
 20
30.1191
 30
0.0
 10
49.2766
 20
27.6109
 30
0.0
 10
48.7003
 20
24.5852
 30
0.0
 10
48.7003
 20
24.5852
 30
0.0
 10
45.5885
 20
24.9975
 30
0.0
 10
44.2375
 20
25.9549
 30
0.0
 10
43.1378
 20
26.9901
 30
0.0
 10
43.1378
 20
26.9901
 30
0.0
 10
46.5204
 20
28.1279
 30
0.0
 10
49.4018
 20
30.6102
 30
0.0
 10
51.7821
 20
34.4372
 30
0.0
  0
SPLINE
  5
47
330
1F
100
AcDbEntity
  8
layer 1
 62
     7
100
AcDbSpline
210
0.0
220
0.0
230
1.0
 70
    11
 71
     3
 72
    36
 73
    32
 74
     0
 42
0.0000000001
 43
0.0000000001
 12
1.0
 22
0.0
 32
0.0
 13
1.0
 23
0.0
 33
0.0
 40
0.0
 40
0.0
 40
0.0
 40
0.0
 40
0.1111111111111111
 40
0.1111111111111111
 40
0.1111111111111111
 40
0.1111111111111111
 40
0.2222222222222222
 40
0.2222222222222222
 40
0.2222222222222222
 40
0.2222222222222222
 40
0.3333333333333333
 40
0.3333333333333333
 40
0.3333333333333333
 40
0.3333333333333333
 40
0.4444444444444444
 40
0.4444444444444444
 40
0.4444444444444444
 40
0.4444444444444444
 40
0.5555555555555556
 40
0.5555555555555556
 40
0.5555555555555556
 40
0.5555555555555556
 40
0.6666666666666666
 40
0.6666666666666666
 40
0.6666666666666666
 40
0.6666666666666666
 40
0.7777777777777778
 40
0.7777777777777778
 40
0.7777777777777778
 40
0.7777777777777778
 40
1.0
 40
1.0
 40
1.0
 40
1.0
 10
52.1908
 20
105.5659
 30
0.0
 10
52.1491
 20
103.3295
 30
0.0
 10
52.1073
 20
101.0934
 30
0.0
 10
52.0658
 20
98.8573
 30
0.0
 10
52.0658
 20
98.8573
 30
0.0
 10
47.6436
 20
101.0291
 30
0.0
 10
39.8239
 20
107.3338
 30
0.0
 10
41.6039
 20
113.2873
 30
0.0
 10
41.6039
 20
113.2873
 30
0.0
 10
42.4452
 20
116.1019
 30
0.0
 10
44.5926
 20
118.1764
 30
0.0
 10
47.6417
 20
117.5451
 30
0.0
 10
47.6417
 20
117.5451
 30
0.0
 10
48.9112
 20
117.2821
 30
0.0
 10
50.2154
 20
116.4504
 30
0.0
 10
51.5658
 20
114.8546
 30
0.0
 10
51.5658
 20
114.8546
 30
0.0
 10
51.7198
 20
113.2471
 30
0.0
 10
51.2615
 20
112.4301
 30
0.0
 10
50.1906
 20
112.4035
 30
0.0
 10
50.1906
 20
112.4035
 30
0.0
 10
49.6906
 20
112.9527
 30
0.0
 10
49.1906
 20
113.3066
 30
0.0
 10
48.6906
 20
113.5283
 30
0.0
 10
48.6906
 20
113.5283
 30
0.0
 10
46.2432
 20
114.6124
 30
0.0
 10
44.9112
 20
113.1868
 30
0.0
 10
44.7762
 20
110.6141
 30
0.0
 10
44.7762
 20
110.6141
 30
0.0
 10
44.5513
 20
106.3322
 30
0.0
 10
48.6106
 20
104.945
 30
0.0
 10
52.1908
 20
105.5659
 30
0.0
  0
SPLINE
  5
48
330
1F
100
AcDbEntity
  8
layer 1
 62
     7
100
AcDbSpline
210
0.0
220
0.0
230
1.0
 70
    11
 71
     3
 72
    56
 73
    52
 74
     0
 42
0.0000000001
 43
0.0000000001
 12
1.0
 22
0.0
 32
0.0
 13
1.0
 23
0.0
 33
0.0
 40
0.0
 40
0.0
 40
0.0
 40
0.0
 40
0.0714285714285714
 40
0.0714285714285714
 40
0.0714285714285714
 40
0.0714285714285714
 40
0.1428571428571428
 40
0.1428571428571428
 40
0.1428571428571428
 40
0.1428571428571428
 40
0.2142857142857143
 40
0.2142857142857143
 40
0.2142857142857143
 40
0.2142857142857143
 40
0.2857142857142857
 40
0.2857142857142857
 40
0.2857142857142857
 40
0.2857142857142857
 40
0.3571428571428572
 40
0.3571428571428572
 40
0.3571428571428572
 40
0.3571428571428572
 40
0.4285714285714285
 40
0.4285714285714285
 40
0.4285714285714285
 40
0.4285714285714285
 40
0.5
 40
0.5
 40
0.5
 40
0.5
 40
0.5714285714285714
 40
0.5714285714285714
 40
0.5714285714285714
 40
0.5714285714285714
 40
0.6428571428571429
 40
0.6428571428571429
 40
0.6428571428571429
 40
0.6428571428571429
 40
0.7142857142857143
 40
0.7142857142857143
 40
0.7142857142857143
 40
0.7142857142857143
 40
0.7857142857142857
 40
0.7857142857142857
 40
0.7857142857142857
 40
0.7857142857142857
 40
0.8571428571428571
 40
0.8571428571428571
 40
0.8571428571428571
 40
0.8571428571428571
 40
1.0
 40
1.0
 40
1.0
 40
1.0
 10
45.3153
 20
95.3741
 30
0.0
 10
45.1069
 20
96.6641
 30
0.0
 10
44.8985
 20
97.9541
 30
0.0
 10
44.6901
 20
99.2443
 30
0.0
 10
44.6901
 20
99.2443
 30
0.0
 10
40.478
 20
102.022
 30
0.0
 10
37.951
 20
105.4518
 30
0.0
 10
36.1895
 20
109.1781
 30
0.0
 10
36.1895
 20
109.1781
 30
0.0
 10
33.7071
 20
105.9858
 30
0.0
 10
30.7139
 20
104.6495
 30
0.0
 10
27.426
 20
104.3877
 30
0.0
 10
27.426
 20
104.3877
 30
0.0
 10
25.1287
 20
104.2049
 30
0.0
 10
23.0227
 20
103.5039
 30
0.0
 10
21.1435
 20
102.3942
 30
0.0
 10
21.1435
 20
102.3942
 30
0.0
 10
18.4937
 20
100.8297
 30
0.0
 10
15.8115
 20
98.3111
 30
0.0
 10
15.2492
 20
95.0677
 30
0.0
 10
15.2492
 20
95.0677
 30
0.0
 10
14.3065
 20
89.632
 30
0.0
 10
18.8292
 20
85.4659
 30
0.0
 10
23.8761
 20
86.1608
 30
0.0
 10
23.8761
 20
86.1608
 30
0.0
 10
25.5221
 20
86.3874
 30
0.0
 10
27.1679
 20
87.1696
 30
0.0
 10
28.8139
 20
88.9235
 30
0.0
 10
28.8139
 20
88.9235
 30
0.0
 10
29.4731
 20
91.0467
 30
0.0
 10
29.4057
 20
92.5199
 30
0.0
 10
28.6113
 20
93.343
 30
0.0
 10
28.6113
 20
93.343
 30
0.0
 10
25.7395
 20
96.3189
 30
0.0
 10
25.5325
 20
92.8942
 30
0.0
 10
25.1215
 20
91.1256
 30
0.0
 10
25.1215
 20
91.1256
 30
0.0
 10
24.3654
 20
87.8724
 30
0.0
 10
21.8748
 20
89.1568
 30
0.0
 10
20.4638
 20
91.1414
 30
0.0
 10
20.4638
 20
91.1414
 30
0.0
 10
17.9938
 20
94.6159
 30
0.0
 10
22.3187
 20
99.3048
 30
0.0
 10
25.6118
 20
99.9498
 30
0.0
 10
25.6118
 20
99.9498
 30
0.0
 10
30.3883
 20
100.8855
 30
0.0
 10
34.1131
 20
98.3453
 30
0.0
 10
35.4393
 20
93.4389
 30
0.0
 10
35.4393
 20
93.4389
 30
0.0
 10
38.7315
 20
96.7147
 30
0.0
 10
42.0233
 20
96.5289
 30
0.0
 10
45.3153
 20
95.3741
 30
0.0
  0
SPLINE
  5
49
330
1F
100
AcDbEntity
  8
layer 1
 62
     7
100
AcDbSpline
210
0.0
220
0.0
230
1.0
 70
    11
 71
     3
 72
    68
 73
    64
 74
     0
 42
0.0000000001
 43
0.0000000001
 12
1.0
 22
0.0
 32
0.0
 13
1.0
 23
0.0
 33
0.0
 40
0.0
 40
0.0
 40
0.0
 40
0.0
 40
0.0588235294117647
 40
0.0588235294117647
 40
0.0588235294117647
 40
0.0588235294117647
 40
0.1176470588235294
 40
0.1176470588235294
 40
0.1176470588235294
 40
0.1176470588235294
 40
0.1764705882352941
 40
0.1764705882352941
 40
0.1764705882352941
 40
0.1764705882352941
 40
0.2352941176470588
 40
0.2352941176470588
 40
0.2352941176470588
 40
0.2352941176470588
 40
0.2941176470588235
 40
0.2941176470588235
 40
0.2941176470588235
 40
0.2941176470588235
 40
0.3529411764705883
 40
0.3529411764705883
 40
0.3529411764705883
 40
0.3529411764705883
 40
0.4117647058823529
 40
0.4117647058823529
 40
0.4117647058823529
 40
0.4117647058823529
 40
0.4705882352941176
 40
0.4705882352941176
 40
0.4705882352941176
 40
0.4705882352941176
 40
0.5294117647058824
 40
0.5294117647058824
 40
0.5294117647058824
 40
0.5294117647058824
 40
0.5882352941176471
 40
0.5882352941176471
 40
0.5882352941176471
 40
0.5882352941176471
 40
0.6470588235294118
 40
0.6470588235294118
 40
0.6470588235294118
 40
0.6470588235294118
 40
0.7058823529411765
 40
0.7058823529411765
 40
0.7058823529411765
 40
0.7058823529411765
 40
0.7647058823529411
 40
0.7647058823529411
 40
0.7647058823529411
 40
0.7647058823529411
 40
0.8235294117647058
 40
0.8235294117647058
 40
0.8235294117647058
 40
0.8235294117647058
 40
0.8823529411764706
 40
0.8823529411764706
 40
0.8823529411764706
 40
0.8823529411764706
 40
1.0
 40
1.0
 40
1.0
 40
1.0
 10
10.6837
 20
37.4985
 30
0.0
 10
8.9364
 20
36.9619
 30
0.0
 10
8.5331
 20
35.5291
 30
0.0
 10
8.585
 20
33.7166
 30
0.0
 10
8.585
 20
33.7166
 30
0.0
 10
8.8005
 20
26.1919
 30
0.0
 10
24.2915
 20
25.6726
 30
0.0
 10
24.0985
 20
35.8473
 30
0.0
 10
24.0985
 20
35.8473
 30
0.0
 10
24.0721
 20
37.2443
 30
0.0
 10
23.6834
 20
38.5879
 30
0.0
 10
23.0572
 20
39.8964
 30
0.0
 10
23.0572
 20
39.8964
 30
0.0
 10
22.1478
 20
43.3614
 30
0.0
 10
20.1255
 20
44.8167
 30
0.0
 10
17.9442
 20
45.9847
 30
0.0
 10
17.9442
 20
45.9847
 30
0.0
 10
11.6947
 20
48.2323
 30
0.0
 10
8.6657
 20
52.2698
 30
0.0
 10
6.5385
 20
56.8085
 30
0.0
 10
6.5385
 20
56.8085
 30
0.0
 10
3.9057
 20
55.2924
 30
0.0
 10
1.5896
 20
55.2472
 30
0.0
 10
-0.4099
 20
56.6731
 30
0.0
 10
-0.4099
 20
56.6731
 30
0.0
 10
-1.3886
 20
57.903
 30
0.0
 10
-3.1271
 20
58.784
 30
0.0
 10
-1.0655
 20
61.4085
 30
0.0
 10
-1.0655
 20
61.4085
 30
0.0
 10
-0.5848
 20
61.7692
 30
0.0
 10
-0.104
 20
62.13
 30
0.0
 10
0.3767
 20
62.4909
 30
0.0
 10
0.3767
 20
62.4909
 30
0.0
 10
0.4266
 20
63.6289
 30
0.0
 10
-0.284
 20
63.8699
 30
0.0
 10
-1.3478
 20
63.6942
 30
0.0
 10
-1.3478
 20
63.6942
 30
0.0
 10
-3.6107
 20
63.3209
 30
0.0
 10
-4.0197
 20
62.798
 30
0.0
 10
-4.4428
 20
60.4518
 30
0.0
 10
-4.4428
 20
60.4518
 30
0.0
 10
-5.3171
 20
55.6024
 30
0.0
 10
-1.8546
 20
52.5168
 30
0.0
 10
0.2024
 20
48.7178
 30
0.0
 10
0.2024
 20
48.7178
 30
0.0
 10
1.6937
 20
45.9638
 30
0.0
 10
2.6826
 20
42.979
 30
0.0
 10
2.8675
 20
39.6257
 30
0.0
 10
2.8675
 20
39.6257
 30
0.0
 10
7.5864
 20
43.6248
 30
0.0
 10
12.5176
 20
45.7618
 30
0.0
 10
18.2063
 20
41.2494
 30
0.0
 10
18.2063
 20
41.2494
 30
0.0
 10
20.6765
 20
38.2729
 30
0.0
 10
21.632
 20
35.2964
 30
0.0
 10
19.2552
 20
32.3197
 30
0.0
 10
19.2552
 20
32.3197
 30
0.0
 10
14.6577
 20
30.9416
 30
0.0
 10
13.4321
 20
32.1733
 30
0.0
 10
13.2298
 20
34.1969
 30
0.0
 10
13.2298
 20
34.1969
 30
0.0
 10
13.075
 20
35.7489
 30
0.0
 10
13.1229
 20
38.2476
 30
0.0
 10
10.6837
 20
37.4985
 30
0.0
  0
SPLINE
  5
4A
330
1F
100
AcDbEntity
  8
layer 1
 62
     7
100
AcDbSpline
210
0.0
220
0.0
230
1.0
 70
    11
 71
     3
 72
    20
 73
    16
 74
     0
 42
0.0000000001
 43
0.0000000001
 12
1.0
 22
0.0
 32
0.0
 13
1.0
 23
0.0
 33
0.0
 40
0.0
 40
0.0
 40
0.0
 40
0.0
 40
0.2
 40
0.2
 40
0.2
 40
0.2
 40
0.4
 40
0.4
 40
0.4
 40
0.4
 40
0.6
 40
0.6
 40
0.6
 40
0.6
 40
1.0
 40
1.0
 40
1.0
 40
1.0
 10
1.9589
 20
33.7404
 30
0.0
 10
2.9277
 20
29.1874
 30
0.0
 10
6.4603
 20
25.3902
 30
0.0
 10
12.8993
 20
22.4499
 30
0.0
 10
12.8993
 20
22.4499
 30
0.0
 10
10.962
 20
21.215
 30
0.0
 10
9.0246
 20
19.9802
 30
0.0
 10
7.0873
 20
18.7452
 30
0.0
 10
7.0873
 20
18.7452
 30
0.0
 10
5.728
 20
23.9118
 30
0.0
 10
2.0242
 20
27.2637
 30
0.0
 10
-4.0242
 20
28.8008
 30
0.0
 10
-4.0242
 20
28.8008
 30
0.0
 10
-2.0298
 20
30.4475
 30
0.0
 10
-0.0354
 20
32.094
 30
0.0
 10
1.9589
 20
33.7404
 30
0.0
  0
SPLINE
  5
4B
330
1F
100
AcDbEntity
  8
layer 1
 62
     7
100
AcDbSpline
210
0.0
220
0.0
230
1.0
 70
    11
 71
     3
 72
    12
 73
     8
 74
     0
 42
0.0000000001
 43
0.0000000001
 12
1.0
 22
0.0
 32
0.0
 13
1.0
 23
0.0
 33
0.0
 40
0.0
 40
0.0
 40
0.0
 40
0.0
 40
0.3333333333333333
 40
0.3333333333333333
 40
0.3333333333333333
 40
0.3333333333333333
 40
1.0
 40
1.0
 40
1.0
 40
1.0
 10
-24.3664
 20
16.4519
 30
0.0
 10
-18.9146
 20
11.8722
 30
0.0
 10
-17.6994
 20
2.8417
 30
0.0
 10
-24.0246
 20
-1.5425
 30
0.0
 10
-24.0246
 20
-1.5425
 30
0.0
 10
-24.1385
 20
4.4557
 30
0.0
 10
-24.2525
 20
10.4538
 30
0.0
 10
-24.3664
 20
16.4519
 30
0.0
  0
SPLINE
  5
4C
330
1F
100
AcDbEntity
  8
layer 1
 62
     7
100
AcDbSpline
210
0.0
220
0.0
230
1.0
 70
    11
 71
     3
 72
    52
 73
    48
 74
     0
 42
0.0000000001
 43
0.0000000001
 12
1.0
 22
0.0
 32
0.0
 13
1.0
 23
0.0
 33
0.0
 40
0.0
 40
0.0
 40
0.0
 40
0.0
 40
0.0769230769230769
 40
0.0769230769230769
 40
0.0769230769230769
 40
0.0769230769230769
 40
0.1538461538461539
 40
0.1538461538461539
 40
0.1538461538461539
 40
0.1538461538461539
 40
0.2307692307692308
 40
0.2307692307692308
 40
0.2307692307692308
 40
0.2307692307692308
 40
0.3076923076923077
 40
0.3076923076923077
 40
0.3076923076923077
 40
0.3076923076923077
 40
0.3846153846153846
 40
0.3846153846153846
 40
0.3846153846153846
 40
0.3846153846153846
 40
0.4615384615384616
 40
0.4615384615384616
 40
0.4615384615384616
 40
0.4615384615384616
 40
0.5384615384615384
 40
0.5384615384615384
 40
0.5384615384615384
 40
0.5384615384615384
 40
0.6153846153846154
 40
0.6153846153846154
 40
0.6153846153846154
 40
0.6153846153846154
 40
0.6923076923076923
 40
0.6923076923076923
 40
0.6923076923076923
 40
0.6923076923076923
 40
0.7692307692307693
 40
0.7692307692307693
 40
0.7692307692307693
 40
0.7692307692307693
 40
0.8461538461538461
 40
0.8461538461538461
 40
0.8461538461538461
 40
0.8461538461538461
 40
1.0
 40
1.0
 40
1.0
 40
1.0
 10
-23.8693
 20
53.2499
 30
0.0
 10
-18.0577
 20
54.8424
 30
0.0
 10
-12.1602
 20
54.5735
 30
0.0
 10
-6.0739
 20
50.2101
 30
0.0
 10
-6.0739
 20
50.2101
 30
0.0
 10
-3.9032
 20
47.9806
 30
0.0
 10
-2.5831
 20
45.5425
 30
0.0
 10
-2.3583
 20
42.8227
 30
0.0
 10
-2.3583
 20
42.8227
 30
0.0
 10
-1.7016
 20
34.8733
 30
0.0
 10
-7.8803
 20
29.2169
 30
0.0
 10
-15.4154
 20
30.3972
 30
0.0
 10
-15.4154
 20
30.3972
 30
0.0
 10
-19.533
 20
31.0422
 30
0.0
 10
-21.079
 20
32.4845
 30
0.0
 10
-23.6239
 20
36.025
 30
0.0
 10
-23.6239
 20
36.025
 30
0.0
 10
-23.7704
 20
37.905
 30
0.0
 10
-23.8136
 20
39.7493
 30
0.0
 10
-23.1329
 20
41.3444
 30
0.0
 10
-23.1329
 20
41.3444
 30
0.0
 10
-20.8334
 20
43.566
 30
0.0
 10
-18.6353
 20
44.9496
 30
0.0
 10
-16.8558
 20
44.1634
 30
0.0
 10
-16.8558
 20
44.1634
 30
0.0
 10
-13.7362
 20
42.785
 30
0.0
 10
-13.2194
 20
41.3971
 30
0.0
 10
-15.6796
 20
40.8927
 30
0.0
 10
-15.6796
 20
40.8927
 30
0.0
 10
-18.826
 20
40.2476
 30
0.0
 10
-18.908
 20
37.2326
 30
0.0
 10
-16.8351
 20
35.4573
 30
0.0
 10
-16.8351
 20
35.4573
 30
0.0
 10
-15.1116
 20
33.9812
 30
0.0
 10
-12.3837
 20
34.3393
 30
0.0
 10
-8.6511
 20
36.5315
 30
0.0
 10
-8.6511
 20
36.5315
 30
0.0
 10
-7.1515
 20
41.3857
 30
0.0
 10
-8.4252
 20
45.0613
 30
0.0
 10
-11.5965
 20
47.9303
 30
0.0
 10
-11.5965
 20
47.9303
 30
0.0
 10
-15.9513
 20
51.5421
 30
0.0
 10
-20.0372
 20
49.8846
 30
0.0
 10
-24.1147
 20
48.0571
 30
0.0
 10
-24.1147
 20
48.0571
 30
0.0
 10
-24.0329
 20
49.7879
 30
0.0
 10
-23.9511
 20
51.5188
 30
0.0
 10
-23.8693
 20
53.2499
 30
0.0
  0
SPLINE
  5
4D
330
1F
100
AcDbEntity
  8
layer 1
 62
     7
100
AcDbSpline
210
0.0
220
0.0
230
1.0
 70
    11
 71
     3
 72
    32
 73
    28
 74
     0
 42
0.0000000001
 43
0.0000000001
 12
1.0
 22
0.0
 32
0.0
 13
1.0
 23
0.0
 33
0.0
 40
0.0
 40
0.0
 40
0.0
 40
0.0
 40
0.125
 40
0.125
 40
0.125
 40
0.125
 40
0.25
 40
0.25
 40
0.25
 40
0.25
 40
0.375
 40
0.375
 40
0.375
 40
0.375
 40
0.5
 40
0.5
 40
0.5
 40
0.5
 40
0.625
 40
0.625
 40
0.625
 40
0.625
 40
0.75
 40
0.75
 40
0.75
 40
0.75
 40
1.0
 40
1.0
 40
1.0
 40
1.0
 10
-23.4158
 20
95.3901
 30
0.0
 10
-21.1483
 20
94.935
 30
0.0
 10
-18.8807
 20
94.4799
 30
0.0
 10
-16.6132
 20
94.0249
 30
0.0
 10
-16.6132
 20
94.0249
 30
0.0
 10
-20.6244
 20
89.807
 30
0.0
 10
-22.5769
 20
84.2818
 30
0.0
 10
-22.471
 20
77.4491
 30
0.0
 10
-22.471
 20
77.4491
 30
0.0
 10
-19.2428
 20
68.8037
 30
0.0
 10
-13.3769
 20
66.0216
 30
0.0
 10
-6.0312
 20
66.5287
 30
0.0
 10
-6.0312
 20
66.5287
 30
0.0
 10
-7.9874
 20
64.6157
 30
0.0
 10
-9.31
 20
61.8854
 30
0.0
 10
-9.9995
 20
58.3383
 30
0.0
 10
-9.9995
 20
58.3383
 30
0.0
 10
-13.6527
 20
59.1183
 30
0.0
 10
-17.306
 20
59.8983
 30
0.0
 10
-20.9594
 20
60.6784
 30
0.0
 10
-20.9594
 20
60.6784
 30
0.0
 10
-20.1298
 20
65.299
 30
0.0
 10
-21.2005
 20
68.9392
 30
0.0
 10
-24.1717
 20
71.5989
 30
0.0
 10
-24.1717
 20
71.5989
 30
0.0
 10
-23.9197
 20
79.5293
 30
0.0
 10
-23.6676
 20
87.4596
 30
0.0
 10
-23.4158
 20
95.3901
 30
0.0
  0
SPLINE
  5
4E
330
1F
100
AcDbEntity
  8
layer 1
 62
     7
100
AcDbSpline
210
0.0
220
0.0
230
1.0
 70
    11
 71
     3
 72
    52
 73
    48
 74
     0
 42
0.0000000001
 43
0.0000000001
 12
1.0
 22
0.0
 32
0.0
 13
1.0
 23
0.0
 33
0.0
 40
0.0
 40
0.0
 40
0.0
 40
0.0
 40
0.0769230769230769
 40
0.0769230769230769
 40
0.0769230769230769
 40
0.0769230769230769
 40
0.1538461538461539
 40
0.1538461538461539
 40
0.1538461538461539
 40
0.1538461538461539
 40
0.2307692307692308
 40
0.2307692307692308
 40
0.2307692307692308
 40
0.2307692307692308
 40
0.3076923076923077
 40
0.3076923076923077
 40
0.3076923076923077
 40
0.3076923076923077
 40
0.3846153846153846
 40
0.3846153846153846
 40
0.3846153846153846
 40
0.3846153846153846
 40
0.4615384615384616
 40
0.4615384615384616
 40
0.4615384615384616
 40
0.4615384615384616
 40
0.5384615384615384
 40
0.5384615384615384
 40
0.5384615384615384
 40
0.5384615384615384
 40
0.6153846153846154
 40
0.6153846153846154
 40
0.6153846153846154
 40
0.6153846153846154
 40
0.6923076923076923
 40
0.6923076923076923
 40
0.6923076923076923
 40
0.6923076923076923
 40
0.7692307692307693
 40
0.7692307692307693
 40
0.7692307692307693
 40
0.7692307692307693
 40
0.8461538461538461
 40
0.8461538461538461
 40
0.8461538461538461
 40
0.8461538461538461
 40
1.0
 40
1.0
 40
1.0
 40
1.0
 10
42.0144
 20
61.3754
 30
0.0
 10
41.3337
 20
63.6312
 30
0.0
 10
40.6528
 20
65.887
 30
0.0
 10
39.9719
 20
68.1428
 30
0.0
 10
39.9719
 20
68.1428
 30
0.0
 10
45.622
 20
69.0772
 30
0.0
 10
48.6585
 20
72.2595
 30
0.0
 10
50.5069
 20
76.4634
 30
0.0
 10
50.5069
 20
76.4634
 30
0.0
 10
51.8031
 20
82.8698
 30
0.0
 10
47.3085
 20
87.2833
 30
0.0
 10
41.1259
 20
87.2339
 30
0.0
 10
41.1259
 20
87.2339
 30
0.0
 10
39.2904
 20
87.2193
 30
0.0
 10
38.1732
 20
86.0027
 30
0.0
 10
37.6307
 20
84.4856
 30
0.0
 10
37.6307
 20
84.4856
 30
0.0
 10
36.5948
 20
81.5897
 30
0.0
 10
37.6537
 20
77.5992
 30
0.0
 10
39.8083
 20
78.7876
 30
0.0
 10
39.8083
 20
78.7876
 30
0.0
 10
40.6074
 20
79.2282
 30
0.0
 10
41.4898
 20
80.0285
 30
0.0
 10
42.2581
 20
80.4491
 30
0.0
 10
42.2581
 20
80.4491
 30
0.0
 10
45.8421
 20
82.4114
 30
0.0
 10
46.6141
 20
76.9241
 30
0.0
 10
43.2203
 20
75.0978
 30
0.0
 10
43.2203
 20
75.0978
 30
0.0
 10
38.7103
 20
72.6708
 30
0.0
 10
33.5131
 20
75.961
 30
0.0
 10
32.4764
 20
81.0184
 30
0.0
 10
32.4764
 20
81.0184
 30
0.0
 10
31.4385
 20
86.0825
 30
0.0
 10
33.986
 20
89.4411
 30
0.0
 10
38.6231
 20
91.021
 30
0.0
 10
38.6231
 20
91.021
 30
0.0
 10
42.4295
 20
92.3178
 30
0.0
 10
46.8208
 20
91.2003
 30
0.0
 10
51.7968
 20
87.6682
 30
0.0
 10
51.7968
 20
87.6682
 30
0.0
 10
51.9401
 20
81.8624
 30
0.0
 10
52.0835
 20
76.0565
 30
0.0
 10
52.2268
 20
70.2507
 30
0.0
 10
52.2268
 20
70.2507
 30
0.0
 10
49.8619
 20
66.9858
 30
0.0
 10
46.5964
 20
63.9865
 30
0.0
 10
42.0144
 20
61.3754
 30
0.0
  0
SPLINE
  5
4F
330
1F
100
AcDbEntity
  8
layer 1
 62
     7
100
AcDbSpline
210
0.0
220
0.0
230
1.0
 70
    11
 71
     3
 72
    60
 73
    56
 74
     0
 42
0.0000000001
 43
0.0000000001
 12
1.0
 22
0.0
 32
0.0
 13
1.0
 23
0.0
 33
0.0
 40
0.0
 40
0.0
 40
0.0
 40
0.0
 40
0.0666666666666667
 40
0.0666666666666667
 40
0.0666666666666667
 40
0.0666666666666667
 40
0.1333333333333333
 40
0.1333333333333333
 40
0.1333333333333333
 40
0.1333333333333333
 40
0.2
 40
0.2
 40
0.2
 40
0.2
 40
0.2666666666666667
 40
0.2666666666666667
 40
0.2666666666666667
 40
0.2666666666666667
 40
0.3333333333333333
 40
0.3333333333333333
 40
0.3333333333333333
 40
0.3333333333333333
 40
0.4
 40
0.4
 40
0.4
 40
0.4
 40
0.4666666666666667
 40
0.4666666666666667
 40
0.4666666666666667
 40
0.4666666666666667
 40
0.5333333333333333
 40
0.5333333333333333
 40
0.5333333333333333
 40
0.5333333333333333
 40
0.6
 40
0.6
 40
0.6
 40
0.6
 40
0.6666666666666666
 40
0.6666666666666666
 40
0.6666666666666666
 40
0.6666666666666666
 40
0.7333333333333333
 40
0.7333333333333333
 40
0.7333333333333333
 40
0.7333333333333333
 40
0.8
 40
0.8
 40
0.8
 40
0.8
 40
0.8666666666666667
 40
0.8666666666666667
 40
0.8666666666666667
 40
0.8666666666666667
 40
1.0
 40
1.0
 40
1.0
 40
1.0
 10
18.0176
 20
75.4057
 30
0.0
 10
17.9976
 20
77.3794
 30
0.0
 10
18.2746
 20
79.3529
 30
0.0
 10
19.2047
 20
81.3268
 30
0.0
 10
19.2047
 20
81.3268
 30
0.0
 10
20.1822
 20
81.0804
 30
0.0
 10
21.1435
 20
80.8414
 30
0.0
 10
22.0481
 20
80.5003
 30
0.0
 10
22.0481
 20
80.5003
 30
0.0
 10
25.6052
 20
79.1589
 30
0.0
 10
28.6109
 20
77.1832
 30
0.0
 10
30.9074
 20
74.0717
 30
0.0
 10
30.9074
 20
74.0717
 30
0.0
 10
33.7183
 20
70.2635
 30
0.0
 10
35.4312
 20
65.593
 30
0.0
 10
34.111
 20
61.4106
 30
0.0
 10
34.111
 20
61.4106
 30
0.0
 10
32.6691
 20
56.8427
 30
0.0
 10
27.586
 20
53.2223
 30
0.0
 10
22.9635
 20
53.4087
 30
0.0
 10
22.9635
 20
53.4087
 30
0.0
 10
17.5193
 20
53.628
 30
0.0
 10
11.9863
 20
56.5285
 30
0.0
 10
11.8826
 20
62.7669
 30
0.0
 10
11.8826
 20
62.7669
 30
0.0
 10
11.8607
 20
64.0981
 30
0.0
 10
12.2366
 20
65.2951
 30
0.0
 10
12.9557
 20
66.4208
 30
0.0
 10
12.9557
 20
66.4208
 30
0.0
 10
13.2824
 20
66.9326
 30
0.0
 10
13.6802
 20
67.4297
 30
0.0
 10
14.1434
 20
67.9181
 30
0.0
 10
14.1434
 20
67.9181
 30
0.0
 10
16.2301
 20
70.1169
 30
0.0
 10
18.836
 20
69.9589
 30
0.0
 10
21.2276
 20
68.4907
 30
0.0
 10
21.2276
 20
68.4907
 30
0.0
 10
23.2215
 20
67.2666
 30
0.0
 10
23.9851
 20
65.423
 30
0.0
 10
19.4806
 20
65.0358
 30
0.0
 10
19.4806
 20
65.0358
 30
0.0
 10
17.4957
 20
64.8651
 30
0.0
 10
15.4478
 20
64.1419
 30
0.0
 10
16.1368
 20
61.5321
 30
0.0
 10
16.1368
 20
61.5321
 30
0.0
 10
17.19
 20
57.5435
 30
0.0
 10
19.6586
 20
57.1102
 30
0.0
 10
23.181
 20
58.0785
 30
0.0
 10
23.181
 20
58.0785
 30
0.0
 10
25.9879
 20
58.8503
 30
0.0
 10
27.5971
 20
60.7807
 30
0.0
 10
28.0087
 20
63.8697
 30
0.0
 10
28.0087
 20
63.8697
 30
0.0
 10
28.7769
 20
73.0481
 30
0.0
 10
24.5358
 20
75.7081
 30
0.0
 10
18.0176
 20
75.4057
 30
0.0
  0
SPLINE
  5
50
330
1F
100
AcDbEntity
  8
layer 1
 62
     7
100
AcDbSpline
210
0.0
220
0.0
230
1.0
 70
    11
 71
     3
 72
    64
 73
    60
 74
     0
 42
0.0000000001
 43
0.0000000001
 12
1.0
 22
0.0
 32
0.0
 13
1.0
 23
0.0
 33
0.0
 40
0.0
 40
0.0
 40
0.0
 40
0.0
 40
0.0625
 40
0.0625
 40
0.0625
 40
0.0625
 40
0.125
 40
0.125
 40
0.125
 40
0.125
 40
0.1875
 40
0.1875
 40
0.1875
 40
0.1875
 40
0.25
 40
0.25
 40
0.25
 40
0.25
 40
0.3125
 40
0.3125
 40
0.3125
 40
0.3125
 40
0.375
 40
0.375
 40
0.375
 40
0.375
 40
0.4375
 40
0.4375
 40
0.4375
 40
0.4375
 40
0.5
 40
0.5
 40
0.5
 40
0.5
 40
0.5625
 40
0.5625
 40
0.5625
 40
0.5625
 40
0.625
 40
0.625
 40
0.625
 40
0.625
 40
0.6875
 40
0.6875
 40
0.6875
 40
0.6875
 40
0.75
 40
0.75
 40
0.75
 40
0.75
 40
0.8125
 40
0.8125
 40
0.8125
 40
0.8125
 40
0.875
 40
0.875
 40
0.875
 40
0.875
 40
1.0
 40
1.0
 40
1.0
 40
1.0
 10
2.749
 20
68.9143
 30
0.0
 10
4.3056
 20
67.8554
 30
0.0
 10
5.8622
 20
66.7966
 30
0.0
 10
7.4186
 20
65.738
 30
0.0
 10
7.4186
 20
65.738
 30
0.0
 10
10.2267
 20
69.4229
 30
0.0
 10
11.602
 20
73.1081
 30
0.0
 10
11.7846
 20
76.7931
 30
0.0
 10
11.7846
 20
76.7931
 30
0.0
 10
12.1629
 20
84.4334
 30
0.0
 10
8.8086
 20
89.4948
 30
0.0
 10
1.7628
 20
91.739
 30
0.0
 10
1.7628
 20
91.739
 30
0.0
 10
-2.6265
 20
93.1371
 30
0.0
 10
-6.5358
 20
93.0571
 30
0.0
 10
-10.7316
 20
91.2581
 30
0.0
 10
-10.7316
 20
91.2581
 30
0.0
 10
-16.5139
 20
88.7787
 30
0.0
 10
-18.5661
 20
84.8278
 30
0.0
 10
-17.7817
 20
80.5645
 30
0.0
 10
-17.7817
 20
80.5645
 30
0.0
 10
-16.991
 20
76.2659
 30
0.0
 10
-14.6035
 20
74.0801
 30
0.0
 10
-10.8278
 20
72.3753
 30
0.0
 10
-10.8278
 20
72.3753
 30
0.0
 10
-8.6919
 20
71.411
 30
0.0
 10
-6.3973
 20
71.1289
 30
0.0
 10
-3.7571
 20
72.3335
 30
0.0
 10
-3.7571
 20
72.3335
 30
0.0
 10
-1.103
 20
73.5444
 30
0.0
 10
0.093
 20
74.9661
 30
0.0
 10
0.6641
 20
77.9783
 30
0.0
 10
0.6641
 20
77.9783
 30
0.0
 10
0.9304
 20
79.3817
 30
0.0
 10
0.6992
 20
80.4919
 30
0.0
 10
-0.0293
 20
81.3086
 30
0.0
 10
-0.0293
 20
81.3086
 30
0.0
 10
-1.3479
 20
82.7872
 30
0.0
 10
-4.0131
 20
83.3894
 30
0.0
 10
-5.0924
 20
81.2997
 30
0.0
 10
-5.0924
 20
81.2997
 30
0.0
 10
-5.9289
 20
79.6795
 30
0.0
 10
-4.7986
 20
76.6068
 30
0.0
 10
-8.0134
 20
76.7778
 30
0.0
 10
-8.0134
 20
76.7778
 30
0.0
 10
-9.1277
 20
76.8372
 30
0.0
 10
-10.3348
 20
77.524
 30
0.0
 10
-11.1741
 20
78.4767
 30
0.0
 10
-11.1741
 20
78.4767
 30
0.0
 10
-13.7144
 20
81.3605
 30
0.0
 10
-12.6008
 20
84.4178
 30
0.0
 10
-9.7013
 20
86.4094
 30
0.0
 10
-9.7013
 20
86.4094
 30
0.0
 10
-5.6677
 20
89.1803
 30
0.0
 10
0.2207
 20
88.901
 30
0.0
 10
3.7219
 20
85.596
 30
0.0
 10
3.7219
 20
85.596
 30
0.0
 10
9.6062
 20
80.0412
 30
0.0
 10
6.397
 20
73.2728
 30
0.0
 10
2.749
 20
68.9143
 30
0.0
  0
SPLINE
  5
51
330
1F
100
AcDbEntity
  8
layer 1
 62
     7
100
AcDbSpline
210
0.0
220
0.0
230
1.0
 70
    11
 71
     3
 72
    44
 73
    40
 74
     0
 42
0.0000000001
 43
0.0000000001
 12
1.0
 22
0.0
 32
0.0
 13
1.0
 23
0.0
 33
0.0
 40
0.0
 40
0.0
 40
0.0
 40
0.0
 40
0.0909090909090909
 40
0.0909090909090909
 40
0.0909090909090909
 40
0.0909090909090909
 40
0.1818181818181818
 40
0.1818181818181818
 40
0.1818181818181818
 40
0.1818181818181818
 40
0.2727272727272727
 40
0.2727272727272727
 40
0.2727272727272727
 40
0.2727272727272727
 40
0.3636363636363636
 40
0.3636363636363636
 40
0.3636363636363636
 40
0.3636363636363636
 40
0.4545454545454545
 40
0.4545454545454545
 40
0.4545454545454545
 40
0.4545454545454545
 40
0.5454545454545454
 40
0.5454545454545454
 40
0.5454545454545454
 40
0.5454545454545454
 40
0.6363636363636364
 40
0.6363636363636364
 40
0.6363636363636364
 40
0.6363636363636364
 40
0.7272727272727273
 40
0.7272727272727273
 40
0.7272727272727273
 40
0.7272727272727273
 40
0.8181818181818182
 40
0.8181818181818182
 40
0.8181818181818182
 40
0.8181818181818182
 40
1.0
 40
1.0
 40
1.0
 40
1.0
 10
7.7298
 20
94.3472
 30
0.0
 10
8.2879
 20
98.7428
 30
0.0
 10
10.6835
 20
102.3482
 30
0.0
 10
14.9168
 20
105.1636
 30
0.0
 10
14.9168
 20
105.1636
 30
0.0
 10
12.9704
 20
106.0906
 30
0.0
 10
11.024
 20
107.0177
 30
0.0
 10
9.0775
 20
107.9449
 30
0.0
 10
9.0775
 20
107.9449
 30
0.0
 10
8.0836
 20
104.6097
 30
0.0
 10
6.3506
 20
103.0182
 30
0.0
 10
4.303
 20
102.1688
 30
0.0
 10
4.303
 20
102.1688
 30
0.0
 10
1.0441
 20
100.8168
 30
0.0
 10
-4.8728
 20
101.0661
 30
0.0
 10
-5.0633
 20
105.7736
 30
0.0
 10
-5.0633
 20
105.7736
 30
0.0
 10
-5.177
 20
108.5866
 30
0.0
 10
-3.9531
 20
109.3077
 30
0.0
 10
-1.5497
 20
108.4401
 30
0.0
 10
-1.5497
 20
108.4401
 30
0.0
 10
-0.5839
 20
108.0914
 30
0.0
 10
0.1045
 20
107.409
 30
0.0
 10
0.3933
 20
106.2452
 30
0.0
 10
0.3933
 20
106.2452
 30
0.0
 10
6.5669
 20
108.5352
 30
0.0
 10
1.9262
 20
112.564
 30
0.0
 10
-1.4036
 20
113.0842
 30
0.0
 10
-1.4036
 20
113.0842
 30
0.0
 10
-4.6469
 20
113.5909
 30
0.0
 10
-7.9235
 20
112.0194
 30
0.0
 10
-9.1894
 20
109.4901
 30
0.0
 10
-9.1894
 20
109.4901
 30
0.0
 10
-7.7121
 20
105.6786
 30
0.0
 10
-7.5753
 20
101.867
 30
0.0
 10
-10.3872
 20
98.0556
 30
0.0
 10
-10.3872
 20
98.0556
 30
0.0
 10
-4.6941
 20
98.2475
 30
0.0
 10
1.1145
 20
97.9632
 30
0.0
 10
7.7298
 20
94.3472
 30
0.0
  0
SPLINE
  5
52
330
1F
100
AcDbEntity
  8
layer 1
 62
     7
100
AcDbSpline
210
0.0
220
0.0
230
1.0
 70
    11
 71
     3
 72
    48
 73
    44
 74
     0
 42
0.0000000001
 43
0.0000000001
 12
1.0
 22
0.0
 32
0.0
 13
1.0
 23
0.0
 33
0.0
 40
0.0
 40
0.0
 40
0.0
 40
0.0
 40
0.0833333333333333
 40
0.0833333333333333
 40
0.0833333333333333
 40
0.0833333333333333
 40
0.1666666666666667
 40
0.1666666666666667
 40
0.1666666666666667
 40
0.1666666666666667
 40
0.25
 40
0.25
 40
0.25
 40
0.25
 40
0.3333333333333333
 40
0.3333333333333333
 40
0.3333333333333333
 40
0.3333333333333333
 40
0.4166666666666667
 40
0.4166666666666667
 40
0.4166666666666667
 40
0.4166666666666667
 40
0.5
 40
0.5
 40
0.5
 40
0.5
 40
0.5833333333333334
 40
0.5833333333333334
 40
0.5833333333333334
 40
0.5833333333333334
 40
0.6666666666666666
 40
0.6666666666666666
 40
0.6666666666666666
 40
0.6666666666666666
 40
0.75
 40
0.75
 40
0.75
 40
0.75
 40
0.8333333333333334
 40
0.8333333333333334
 40
0.8333333333333334
 40
0.8333333333333334
 40
1.0
 40
1.0
 40
1.0
 40
1.0
 10
35.6299
 20
127.6676
 30
0.0
 10
36.1518
 20
126.7289
 30
0.0
 10
36.5833
 20
125.7088
 30
0.0
 10
36.908
 20
124.6096
 30
0.0
 10
36.908
 20
124.6096
 30
0.0
 10
38.9683
 20
117.6323
 30
0.0
 10
35.0414
 20
109.9362
 30
0.0
 10
28.116
 20
108.0477
 30
0.0
 10
28.116
 20
108.0477
 30
0.0
 10
18.9485
 20
105.5482
 30
0.0
 10
4.9391
 20
114.3547
 30
0.0
 10
13.6012
 20
124.1479
 30
0.0
 10
13.6012
 20
124.1479
 30
0.0
 10
15.4014
 20
126.1832
 30
0.0
 10
18.0893
 20
127.0132
 30
0.0
 10
21.8716
 20
126.3572
 30
0.0
 10
21.8716
 20
126.3572
 30
0.0
 10
24.3477
 20
125.9277
 30
0.0
 10
26.3624
 20
125.0771
 30
0.0
 10
26.9727
 20
122.2221
 30
0.0
 10
26.9727
 20
122.2221
 30
0.0
 10
27.7346
 20
118.6574
 30
0.0
 10
24.6601
 20
115.8647
 30
0.0
 10
22.3674
 20
119.2894
 30
0.0
 10
22.3674
 20
119.2894
 30
0.0
 10
18.8596
 20
124.529
 30
0.0
 10
15.0537
 20
117.767
 30
0.0
 10
19.7082
 20
113.044
 30
0.0
 10
19.7082
 20
113.044
 30
0.0
 10
22.5905
 20
111.7993
 30
0.0
 10
25.1015
 20
111.8575
 30
0.0
 10
27.3616
 20
112.7963
 30
0.0
 10
27.3616
 20
112.7963
 30
0.0
 10
31.7021
 20
114.5995
 30
0.0
 10
33.1341
 20
117.4175
 30
0.0
 10
32.3257
 20
122.2375
 30
0.0
 10
32.3257
 20
122.2375
 30
0.0
 10
31.9433
 20
124.5179
 30
0.0
 10
30.9762
 20
126.3138
 30
0.0
 10
29.6372
 20
127.6676
 30
0.0
 10
29.6372
 20
127.6676
 30
0.0
 10
29.6372
 20
127.6676
 30
0.0
 10
35.6299
 20
127.6676
 30
0.0
 10
35.6299
 20
127.6676
 30
0.0
  0
SPLINE
  5
53
330
1F
100
AcDbEntity
  8
layer 1
 62
     7
100
AcDbSpline
210
0.0
220
0.0
230
1.0
 70
    11
 71
     3
 72
    64
 73
    60
 74
     0
 42
0.0000000001
 43
0.0000000001
 12
1.0
 22
0.0
 32
0.0
 13
1.0
 23
0.0
 33
0.0
 40
0.0
 40
0.0
 40
0.0
 40
0.0
 40
0.0625
 40
0.0625
 40
0.0625
 40
0.0625
 40
0.125
 40
0.125
 40
0.125
 40
0.125
 40
0.1875
 40
0.1875
 40
0.1875
 40
0.1875
 40
0.25
 40
0.25
 40
0.25
 40
0.25
 40
0.3125
 40
0.3125
 40
0.3125
 40
0.3125
 40
0.375
 40
0.375
 40
0.375
 40
0.375
 40
0.4375
 40
0.4375
 40
0.4375
 40
0.4375
 40
0.5
 40
0.5
 40
0.5
 40
0.5
 40
0.5625
 40
0.5625
 40
0.5625
 40
0.5625
 40
0.625
 40
0.625
 40
0.625
 40
0.625
 40
0.6875
 40
0.6875
 40
0.6875
 40
0.6875
 40
0.75
 40
0.75
 40
0.75
 40
0.75
 40
0.8125
 40
0.8125
 40
0.8125
 40
0.8125
 40
0.875
 40
0.875
 40
0.875
 40
0.875
 40
1.0
 40
1.0
 40
1.0
 40
1.0
 10
-11.8748
 20
104.0565
 30
0.0
 10
-10.6679
 20
103.2246
 30
0.0
 10
-10.895
 20
100.8401
 30
0.0
 10
-12.4076
 20
99.382
 30
0.0
 10
-12.4076
 20
99.382
 30
0.0
 10
-15.6626
 20
96.2443
 30
0.0
 10
-19.8495
 20
97.7998
 30
0.0
 10
-23.1142
 20
100.0643
 30
0.0
 10
-23.1142
 20
100.0643
 30
0.0
 10
-23.3137
 20
102.9488
 30
0.0
 10
-23.5133
 20
105.8331
 30
0.0
 10
-23.7131
 20
108.7175
 30
0.0
 10
-23.7131
 20
108.7175
 30
0.0
 10
-20.0926
 20
111.9781
 30
0.0
 10
-16.3704
 20
115.0549
 30
0.0
 10
-13.6813
 20
119.9974
 30
0.0
 10
-13.6813
 20
119.9974
 30
0.0
 10
-10.092
 20
119.8009
 30
0.0
 10
-6.6106
 20
119.7077
 30
0.0
 10
-3.4079
 20
120.3281
 30
0.0
 10
-3.4079
 20
120.3281
 30
0.0
 10
1.1173
 20
121.2044
 30
0.0
 10
3.5658
 20
123.3264
 30
0.0
 10
5.789
 20
125.9414
 30
0.0
 10
5.789
 20
125.9414
 30
0.0
 10
6.2945
 20
126.5362
 30
0.0
 10
6.7665
 20
127.1123
 30
0.0
 10
7.2218
 20
127.6676
 30
0.0
 10
7.2218
 20
127.6676
 30
0.0
 10
7.2218
 20
127.6676
 30
0.0
 10
11.3137
 20
127.6676
 30
0.0
 10
11.3137
 20
127.6676
 30
0.0
 10
11.3137
 20
127.6676
 30
0.0
 10
8.1003
 20
125.0102
 30
0.0
 10
6.3944
 20
121.1631
 30
0.0
 10
5.7834
 20
116.2889
 30
0.0
 10
5.7834
 20
116.2889
 30
0.0
 10
-4.141
 20
118.9771
 30
0.0
 10
-9.9304
 20
116.6077
 30
0.0
 10
-11.585
 20
109.1811
 30
0.0
 10
-11.585
 20
109.1811
 30
0.0
 10
-13.0373
 20
109.5207
 30
0.0
 10
-14.9055
 20
109.6552
 30
0.0
 10
-16.5251
 20
109.1999
 30
0.0
 10
-16.5251
 20
109.1999
 30
0.0
 10
-19.3195
 20
108.4143
 30
0.0
 10
-21.5869
 20
105.0423
 30
0.0
 10
-18.8141
 20
102.8465
 30
0.0
 10
-18.8141
 20
102.8465
 30
0.0
 10
-18.0617
 20
102.2506
 30
0.0
 10
-17.1379
 20
101.9496
 30
0.0
 10
-16.4963
 20
102.6445
 30
0.0
 10
-16.4963
 20
102.6445
 30
0.0
 10
-16.0867
 20
103.0883
 30
0.0
 10
-15.7834
 20
103.8445
 30
0.0
 10
-15.1159
 20
104.2476
 30
0.0
 10
-15.1159
 20
104.2476
 30
0.0
 10
-14.2577
 20
104.7658
 30
0.0
 10
-13.1095
 20
104.9075
 30
0.0
 10
-11.8748
 20
104.0565
 30
0.0
  0
SPLINE
  5
54
330
1F
100
AcDbEntity
  8
layer 1
 62
     7
100
AcDbSpline
210
0.0
220
0.0
230
1.0
 70
    11
 71
     3
 72
    64
 73
    60
 74
     0
 42
0.0000000001
 43
0.0000000001
 12
1.0
 22
0.0
 32
0.0
 13
1.0
 23
0.0
 33
0.0
 40
0.0
 40
0.0
 40
0.0
 40
0.0
 40
0.0625
 40
0.0625
 40
0.0625
 40
0.0625
 40
0.125
 40
0.125
 40
0.125
 40
0.125
 40
0.1875
 40
0.1875
 40
0.1875
 40
0.1875
 40
0.25
 40
0.25
 40
0.25
 40
0.25
 40
0.3125
 40
0.3125
 40
0.3125
 40
0.3125
 40
0.375
 40
0.375
 40
0.375
 40
0.375
 40
0.4375
 40
0.4375
 40
0.4375
 40
0.4375
 40
0.5
 40
0.5
 40
0.5
 40
0.5
 40
0.5625
 40
0.5625
 40
0.5625
 40
0.5625
 40
0.625
 40
0.625
 40
0.625
 40
0.625
 40
0.6875
 40
0.6875
 40
0.6875
 40
0.6875
 40
0.75
 40
0.75
 40
0.75
 40
0.75
 40
0.8125
 40
0.8125
 40
0.8125
 40
0.8125
 40
0.875
 40
0.875
 40
0.875
 40
0.875
 40
1.0
 40
1.0
 40
1.0
 40
1.0
 10
-24.252
 20
29.3561
 30
0.0
 10
-20.8298
 20
27.1616
 30
0.0
 10
-17.2298
 20
25.371
 30
0.0
 10
-12.3845
 20
26.4077
 30
0.0
 10
-12.3845
 20
26.4077
 30
0.0
 10
-13.4747
 20
24.7523
 30
0.0
 10
-14.164
 20
22.9088
 30
0.0
 10
-14.3483
 20
20.8285
 30
0.0
 10
-14.3483
 20
20.8285
 30
0.0
 10
-14.7689
 20
16.0796
 30
0.0
 10
-13.4732
 20
13.6374
 30
0.0
 10
-8.9091
 20
12.1908
 30
0.0
 10
-8.9091
 20
12.1908
 30
0.0
 10
-5.8633
 20
11.2256
 30
0.0
 10
-2.5776
 20
11.6141
 30
0.0
 10
-2.2081
 20
15.0806
 30
0.0
 10
-2.2081
 20
15.0806
 30
0.0
 10
-2.0657
 20
16.417
 30
0.0
 10
-2.5525
 20
17.3812
 30
0.0
 10
-3.3739
 20
18.1295
 30
0.0
 10
-3.3739
 20
18.1295
 30
0.0
 10
-4.0456
 20
18.1847
 30
0.0
 10
-4.6012
 20
18.0597
 30
0.0
 10
-5.0402
 20
17.7545
 30
0.0
 10
-5.0402
 20
17.7545
 30
0.0
 10
-6.1286
 20
16.9976
 30
0.0
 10
-6.6921
 20
14.1062
 30
0.0
 10
-8.9554
 20
17.0622
 30
0.0
 10
-8.9554
 20
17.0622
 30
0.0
 10
-9.4728
 20
17.7381
 30
0.0
 10
-9.5106
 20
18.7236
 30
0.0
 10
-8.9116
 20
20.1197
 30
0.0
 10
-8.9116
 20
20.1197
 30
0.0
 10
-7.5011
 20
23.4066
 30
0.0
 10
-5.1932
 20
23.7949
 30
0.0
 10
-1.9534
 20
22.3211
 30
0.0
 10
-1.9534
 20
22.3211
 30
0.0
 10
1.5802
 20
20.7135
 30
0.0
 10
3.2534
 20
18.8799
 30
0.0
 10
2.7229
 20
14.614
 30
0.0
 10
2.7229
 20
14.614
 30
0.0
 10
2.2691
 20
10.9646
 30
0.0
 10
0.3625
 20
8.8399
 30
0.0
 10
-2.8516
 20
7.6994
 30
0.0
 10
-2.8516
 20
7.6994
 30
0.0
 10
-5.9258
 20
6.6083
 30
0.0
 10
-8.9129
 20
6.9577
 30
0.0
 10
-11.835
 20
8.3768
 30
0.0
 10
-11.835
 20
8.3768
 30
0.0
 10
-16.5963
 20
9.62
 30
0.0
 10
-17.9789
 20
16.1812
 30
0.0
 10
-21.1549
 20
19.8659
 30
0.0
 10
-21.1549
 20
19.8659
 30
0.0
 10
-22.1008
 20
20.9633
 30
0.0
 10
-23.1372
 20
22.0078
 30
0.0
 10
-24.252
 20
23.0056
 30
0.0
 10
-24.252
 20
23.0056
 30
0.0
 10
-24.252
 20
25.1226
 30
0.0
 10
-24.252
 20
27.2394
 30
0.0
 10
-24.252
 20
29.3561
 30
0.0
  0
SPLINE
  5
55
330
1F
100
AcDbEntity
  8
layer 1
 62
     7
100
AcDbSpline
210
0.0
220
0.0
230
1.0
 70
    11
 71
     3
 72
    48
 73
    44
 74
     0
 42
0.0000000001
 43
0.0000000001
 12
1.0
 22
0.0
 32
0.0
 13
1.0
 23
0.0
 33
0.0
 40
0.0
 40
0.0
 40
0.0
 40
0.0
 40
0.0833333333333333
 40
0.0833333333333333
 40
0.0833333333333333
 40
0.0833333333333333
 40
0.1666666666666667
 40
0.1666666666666667
 40
0.1666666666666667
 40
0.1666666666666667
 40
0.25
 40
0.25
 40
0.25
 40
0.25
 40
0.3333333333333333
 40
0.3333333333333333
 40
0.3333333333333333
 40
0.3333333333333333
 40
0.4166666666666667
 40
0.4166666666666667
 40
0.4166666666666667
 40
0.4166666666666667
 40
0.5
 40
0.5
 40
0.5
 40
0.5
 40
0.5833333333333334
 40
0.5833333333333334
 40
0.5833333333333334
 40
0.5833333333333334
 40
0.6666666666666666
 40
0.6666666666666666
 40
0.6666666666666666
 40
0.6666666666666666
 40
0.75
 40
0.75
 40
0.75
 40
0.75
 40
0.8333333333333334
 40
0.8333333333333334
 40
0.8333333333333334
 40
0.8333333333333334
 40
1.0
 40
1.0
 40
1.0
 40
1.0
 10
51.4251
 20
2.0214
 30
0.0
 10
51.425
 20
3.2749
 30
0.0
 10
51.425
 20
4.5282
 30
0.0
 10
51.4251
 20
5.7815
 30
0.0
 10
51.4251
 20
5.7815
 30
0.0
 10
43.1659
 20
6.686
 30
0.0
 10
43.4074
 20
16.1138
 30
0.0
 10
48.8226
 20
20.7143
 30
0.0
 10
48.8226
 20
20.7143
 30
0.0
 10
44.2302
 20
21.1607
 30
0.0
 10
40.6779
 20
22.8148
 30
0.0
 10
37.5923
 20
25.0104
 30
0.0
 10
37.5923
 20
25.0104
 30
0.0
 10
35.6076
 20
26.4227
 30
0.0
 10
34.2949
 20
27.8517
 30
0.0
 10
31.9157
 20
28.6248
 30
0.0
 10
31.9157
 20
28.6248
 30
0.0
 10
29.2649
 20
29.4863
 30
0.0
 10
25.9722
 20
29.6301
 30
0.0
 10
24.7977
 20
27.4078
 30
0.0
 10
24.7977
 20
27.4078
 30
0.0
 10
24.3188
 20
26.5017
 30
0.0
 10
24.3423
 20
25.4077
 30
0.0
 10
26.0248
 20
24.2595
 30
0.0
 10
26.0248
 20
24.2595
 30
0.0
 10
26.4692
 20
24.9134
 30
0.0
 10
26.8486
 20
25.5207
 30
0.0
 10
27.2352
 20
25.9772
 30
0.0
 10
27.2352
 20
25.9772
 30
0.0
 10
28.6402
 20
27.6351
 30
0.0
 10
31.1234
 20
26.3269
 30
0.0
 10
31.6602
 20
24.5112
 30
0.0
 10
31.6602
 20
24.5112
 30
0.0
 10
32.0741
 20
23.1107
 30
0.0
 10
31.9242
 20
21.08
 30
0.0
 10
31.4381
 20
18.6732
 30
0.0
 10
31.4381
 20
18.6732
 30
0.0
 10
35.8773
 20
16.9065
 30
0.0
 10
39.6383
 20
14.2068
 30
0.0
 10
41.5237
 20
8.9265
 30
0.0
 10
41.5237
 20
8.9265
 30
0.0
 10
44.529
 20
6.117
 30
0.0
 10
47.561
 20
3.3539
 30
0.0
 10
51.4251
 20
2.0214
 30
0.0
  0
SPLINE
  5
56
330
1F
100
AcDbEntity
  8
layer 1
 62
     7
100
AcDbSpline
210
0.0
220
0.0
230
1.0
 70
    11
 71
     3
 72
    48
 73
    44
 74
     0
 42
0.0000000001
 43
0.0000000001
 12
1.0
 22
0.0
 32
0.0
 13
1.0
 23
0.0
 33
0.0
 40
0.0
 40
0.0
 40
0.0
 40
0.0
 40
0.0833333333333333
 40
0.0833333333333333
 40
0.0833333333333333
 40
0.0833333333333333
 40
0.1666666666666667
 40
0.1666666666666667
 40
0.1666666666666667
 40
0.1666666666666667
 40
0.25
 40
0.25
 40
0.25
 40
0.25
 40
0.3333333333333333
 40
0.3333333333333333
 40
0.3333333333333333
 40
0.3333333333333333
 40
0.4166666666666667
 40
0.4166666666666667
 40
0.4166666666666667
 40
0.4166666666666667
 40
0.5
 40
0.5
 40
0.5
 40
0.5
 40
0.5833333333333334
 40
0.5833333333333334
 40
0.5833333333333334
 40
0.5833333333333334
 40
0.6666666666666666
 40
0.6666666666666666
 40
0.6666666666666666
 40
0.6666666666666666
 40
0.75
 40
0.75
 40
0.75
 40
0.75
 40
0.8333333333333334
 40
0.8333333333333334
 40
0.8333333333333334
 40
0.8333333333333334
 40
1.0
 40
1.0
 40
1.0
 40
1.0
 10
49.8428
 20
-110.5835
 30
0.0
 10
43.2251
 20
-108.7086
 30
0.0
 10
43.7795
 20
-100.2392
 30
0.0
 10
48.8226
 20
-95.955
 30
0.0
 10
48.8226
 20
-95.955
 30
0.0
 10
44.2302
 20
-95.5086
 30
0.0
 10
40.6779
 20
-93.8547
 30
0.0
 10
37.5923
 20
-91.6589
 30
0.0
 10
37.5923
 20
-91.6589
 30
0.0
 10
35.6076
 20
-90.2466
 30
0.0
 10
34.2949
 20
-88.8175
 30
0.0
 10
31.9157
 20
-88.0445
 30
0.0
 10
31.9157
 20
-88.0445
 30
0.0
 10
29.2649
 20
-87.183
 30
0.0
 10
25.9722
 20
-87.0393
 30
0.0
 10
24.7977
 20
-89.2614
 30
0.0
 10
24.7977
 20
-89.2614
 30
0.0
 10
24.3188
 20
-90.1676
 30
0.0
 10
24.3423
 20
-91.2616
 30
0.0
 10
26.0248
 20
-92.4098
 30
0.0
 10
26.0248
 20
-92.4098
 30
0.0
 10
26.4692
 20
-91.7559
 30
0.0
 10
26.8486
 20
-91.1485
 30
0.0
 10
27.2352
 20
-90.6921
 30
0.0
 10
27.2352
 20
-90.6921
 30
0.0
 10
28.6402
 20
-89.0342
 30
0.0
 10
31.1234
 20
-90.3426
 30
0.0
 10
31.6602
 20
-92.1581
 30
0.0
 10
31.6602
 20
-92.1581
 30
0.0
 10
32.0741
 20
-93.5585
 30
0.0
 10
31.9242
 20
-95.5892
 30
0.0
 10
31.4381
 20
-97.9961
 30
0.0
 10
31.4381
 20
-97.9961
 30
0.0
 10
35.8773
 20
-99.7627
 30
0.0
 10
39.6383
 20
-102.4624
 30
0.0
 10
41.5237
 20
-107.7428
 30
0.0
 10
41.5237
 20
-107.7428
 30
0.0
 10
42.5629
 20
-108.7142
 30
0.0
 10
43.6055
 20
-109.6803
 30
0.0
 10
44.6843
 20
-110.5835
 30
0.0
 10
44.6843
 20
-110.5835
 30
0.0
 10
44.6843
 20
-110.5835
 30
0.0
 10
49.8428
 20
-110.5835
 30
0.0
 10
49.8428
 20
-110.5835
 30
0.0
  0
SPLINE
  5
57
330
1F
100
AcDbEntity
  8
layer 1
 62
     7
100
AcDbSpline
210
0.0
220
0.0
230
1.0
 70
    11
 71
     3
 72
    64
 73
    60
 74
     0
 42
0.0000000001
 43
0.0000000001
 12
1.0
 22
0.0
 32
0.0
 13
1.0
 23
0.0
 33
0.0
 40
0.0
 40
0.0
 40
0.0
 40
0.0
 40
0.0625
 40
0.0625
 40
0.0625
 40
0.0625
 40
0.125
 40
0.125
 40
0.125
 40
0.125
 40
0.1875
 40
0.1875
 40
0.1875
 40
0.1875
 40
0.25
 40
0.25
 40
0.25
 40
0.25
 40
0.3125
 40
0.3125
 40
0.3125
 40
0.3125
 40
0.375
 40
0.375
 40
0.375
 40
0.375
 40
0.4375
 40
0.4375
 40
0.4375
 40
0.4375
 40
0.5
 40
0.5
 40
0.5
 40
0.5
 40
0.5625
 40
0.5625
 40
0.5625
 40
0.5625
 40
0.625
 40
0.625
 40
0.625
 40
0.625
 40
0.6875
 40
0.6875
 40
0.6875
 40
0.6875
 40
0.75
 40
0.75
 40
0.75
 40
0.75
 40
0.8125
 40
0.8125
 40
0.8125
 40
0.8125
 40
0.875
 40
0.875
 40
0.875
 40
0.875
 40
1.0
 40
1.0
 40
1.0
 40
1.0
 10
-24.252
 20
-87.3132
 30
0.0
 10
-20.8298
 20
-89.5077
 30
0.0
 10
-17.2298
 20
-91.2983
 30
0.0
 10
-12.3845
 20
-90.2616
 30
0.0
 10
-12.3845
 20
-90.2616
 30
0.0
 10
-13.4747
 20
-91.917
 30
0.0
 10
-14.164
 20
-93.7605
 30
0.0
 10
-14.3483
 20
-95.8408
 30
0.0
 10
-14.3483
 20
-95.8408
 30
0.0
 10
-14.7689
 20
-100.5897
 30
0.0
 10
-13.4732
 20
-103.0319
 30
0.0
 10
-8.9091
 20
-104.4784
 30
0.0
 10
-8.9091
 20
-104.4784
 30
0.0
 10
-5.8633
 20
-105.4437
 30
0.0
 10
-2.5776
 20
-105.0554
 30
0.0
 10
-2.2081
 20
-101.5887
 30
0.0
 10
-2.2081
 20
-101.5887
 30
0.0
 10
-2.0657
 20
-100.2522
 30
0.0
 10
-2.5525
 20
-99.2881
 30
0.0
 10
-3.3739
 20
-98.54
 30
0.0
 10
-3.3739
 20
-98.54
 30
0.0
 10
-4.0456
 20
-98.4846
 30
0.0
 10
-4.6012
 20
-98.6095
 30
0.0
 10
-5.0402
 20
-98.9149
 30
0.0
 10
-5.0402
 20
-98.9149
 30
0.0
 10
-6.1286
 20
-99.6717
 30
0.0
 10
-6.6921
 20
-102.5631
 30
0.0
 10
-8.9554
 20
-99.6071
 30
0.0
 10
-8.9554
 20
-99.6071
 30
0.0
 10
-9.4728
 20
-98.9311
 30
0.0
 10
-9.5106
 20
-97.9457
 30
0.0
 10
-8.9116
 20
-96.5496
 30
0.0
 10
-8.9116
 20
-96.5496
 30
0.0
 10
-7.5011
 20
-93.2627
 30
0.0
 10
-5.1932
 20
-92.8744
 30
0.0
 10
-1.9534
 20
-94.3481
 30
0.0
 10
-1.9534
 20
-94.3481
 30
0.0
 10
1.5802
 20
-95.9558
 30
0.0
 10
3.2534
 20
-97.7895
 30
0.0
 10
2.7229
 20
-102.0552
 30
0.0
 10
2.7229
 20
-102.0552
 30
0.0
 10
2.2691
 20
-105.7047
 30
0.0
 10
0.3625
 20
-107.8296
 30
0.0
 10
-2.8516
 20
-108.97
 30
0.0
 10
-2.8516
 20
-108.97
 30
0.0
 10
-5.9258
 20
-110.0609
 30
0.0
 10
-8.9129
 20
-109.7116
 30
0.0
 10
-11.835
 20
-108.2925
 30
0.0
 10
-11.835
 20
-108.2925
 30
0.0
 10
-16.5963
 20
-107.0492
 30
0.0
 10
-17.9789
 20
-100.4881
 30
0.0
 10
-21.1549
 20
-96.8034
 30
0.0
 10
-21.1549
 20
-96.8034
 30
0.0
 10
-22.1008
 20
-95.7059
 30
0.0
 10
-23.1372
 20
-94.6615
 30
0.0
 10
-24.252
 20
-93.6636
 30
0.0
 10
-24.252
 20
-93.6636
 30
0.0
 10
-24.252
 20
-91.5468
 30
0.0
 10
-24.252
 20
-89.43
 30
0.0
 10
-24.252
 20
-87.3132
 30
0.0
  0
SPLINE
  5
58
330
1F
100
AcDbEntity
  8
layer 1
 62
     7
100
AcDbSpline
210
0.0
220
0.0
230
1.0
 70
    11
 71
     3
 72
   104
 73
   100
 74
     0
 42
0.0000000001
 43
0.0000000001
 12
1.0
 22
0.0
 32
0.0
 13
1.0
 23
0.0
 33
0.0
 40
0.0
 40
0.0
 40
0.0
 40
0.0
 40
0.0384615384615385
 40
0.0384615384615385
 40
0.0384615384615385
 40
0.0384615384615385
 40
0.0769230769230769
 40
0.0769230769230769
 40
0.0769230769230769
 40
0.0769230769230769
 40
0.1153846153846154
 40
0.1153846153846154
 40
0.1153846153846154
 40
0.1153846153846154
 40
0.1538461538461539
 40
0.1538461538461539
 40
0.1538461538461539
 40
0.1538461538461539
 40
0.1923076923076923
 40
0.1923076923076923
 40
0.1923076923076923
 40
0.1923076923076923
 40
0.2307692307692308
 40
0.2307692307692308
 40
0.2307692307692308
 40
0.2307692307692308
 40
0.2692307692307692
 40
0.2692307692307692
 40
0.2692307692307692
 40
0.2692307692307692
 40
0.3076923076923077
 40
0.3076923076923077
 40
0.3076923076923077
 40
0.3076923076923077
 40
0.3461538461538461
 40
0.3461538461538461
 40
0.3461538461538461
 40
0.3461538461538461
 40
0.3846153846153846
 40
0.3846153846153846
 40
0.3846153846153846
 40
0.3846153846153846
 40
0.4230769230769231
 40
0.4230769230769231
 40
0.4230769230769231
 40
0.4230769230769231
 40
0.4615384615384616
 40
0.4615384615384616
 40
0.4615384615384616
 40
0.4615384615384616
 40
0.5
 40
0.5
 40
0.5
 40
0.5
 40
0.5384615384615384
 40
0.5384615384615384
 40
0.5384615384615384
 40
0.5384615384615384
 40
0.5769230769230769
 40
0.5769230769230769
 40
0.5769230769230769
 40
0.5769230769230769
 40
0.6153846153846154
 40
0.6153846153846154
 40
0.6153846153846154
 40
0.6153846153846154
 40
0.6538461538461539
 40
0.6538461538461539
 40
0.6538461538461539
 40
0.6538461538461539
 40
0.6923076923076923
 40
0.6923076923076923
 40
0.6923076923076923
 40
0.6923076923076923
 40
0.7307692307692307
 40
0.7307692307692307
 40
0.7307692307692307
 40
0.7307692307692307
 40
0.7692307692307693
 40
0.7692307692307693
 40
0.7692307692307693
 40
0.7692307692307693
 40
0.8076923076923077
 40
0.8076923076923077
 40
0.8076923076923077
 40
0.8076923076923077
 40
0.8461538461538461
 40
0.8461538461538461
 40
0.8461538461538461
 40
0.8461538461538461
 40
0.8846153846153846
 40
0.8846153846153846
 40
0.8846153846153846
 40
0.8846153846153846
 40
0.9230769230769231
 40
0.9230769230769231
 40
0.9230769230769231
 40
0.9230769230769231
 40
1.0
 40
1.0
 40
1.0
 40
1.0
 10
-11.8748
 20
-12.6127
 30
0.0
 10
-10.6679
 20
-13.4447
 30
0.0
 10
-10.895
 20
-15.8292
 30
0.0
 10
-12.4076
 20
-17.2873
 30
0.0
 10
-12.4076
 20
-17.2873
 30
0.0
 10
-15.6626
 20
-20.4249
 30
0.0
 10
-19.8495
 20
-18.8695
 30
0.0
 10
-23.1142
 20
-16.6049
 30
0.0
 10
-23.1142
 20
-16.6049
 30
0.0
 10
-23.3137
 20
-13.7206
 30
0.0
 10
-23.5133
 20
-10.8362
 30
0.0
 10
-23.7131
 20
-7.9517
 30
0.0
 10
-23.7131
 20
-7.9517
 30
0.0
 10
-20.3691
 20
-4.1919
 30
0.0
 10
-17.0252
 20
-0.4319
 30
0.0
 10
-13.6813
 20
3.3281
 30
0.0
 10
-13.6813
 20
3.3281
 30
0.0
 10
-10.092
 20
3.1314
 30
0.0
 10
-6.6106
 20
3.0384
 30
0.0
 10
-3.4079
 20
3.6588
 30
0.0
 10
-3.4079
 20
3.6588
 30
0.0
 10
1.1173
 20
4.535
 30
0.0
 10
3.5658
 20
6.6571
 30
0.0
 10
5.789
 20
9.2722
 30
0.0
 10
5.789
 20
9.2722
 30
0.0
 10
9.1803
 20
13.2612
 30
0.0
 10
11.0649
 20
16.424
 30
0.0
 10
16.4704
 20
17.9282
 30
0.0
 10
16.4704
 20
17.9282
 30
0.0
 10
21.2056
 20
19.246
 30
0.0
 10
26.6615
 20
18.6928
 30
0.0
 10
30.5043
 20
16.3323
 30
0.0
 10
30.5043
 20
16.3323
 30
0.0
 10
33.4475
 20
14.5243
 30
0.0
 10
35.7999
 20
11.6924
 30
0.0
 10
36.908
 20
7.9403
 30
0.0
 10
36.908
 20
7.9403
 30
0.0
 10
38.9683
 20
0.9631
 30
0.0
 10
35.0414
 20
-6.7331
 30
0.0
 10
28.116
 20
-8.6215
 30
0.0
 10
28.116
 20
-8.6215
 30
0.0
 10
18.9485
 20
-11.1211
 30
0.0
 10
4.9391
 20
-2.3145
 30
0.0
 10
13.6012
 20
7.4786
 30
0.0
 10
13.6012
 20
7.4786
 30
0.0
 10
15.4014
 20
9.514
 30
0.0
 10
18.0893
 20
10.3439
 30
0.0
 10
21.8716
 20
9.688
 30
0.0
 10
21.8716
 20
9.688
 30
0.0
 10
24.3477
 20
9.2585
 30
0.0
 10
26.3624
 20
8.4079
 30
0.0
 10
26.9727
 20
5.5528
 30
0.0
 10
26.9727
 20
5.5528
 30
0.0
 10
27.7346
 20
1.9882
 30
0.0
 10
24.6601
 20
-0.8046
 30
0.0
 10
22.3674
 20
2.6201
 30
0.0
 10
22.3674
 20
2.6201
 30
0.0
 10
18.8596
 20
7.8597
 30
0.0
 10
15.0537
 20
1.0977
 30
0.0
 10
19.7082
 20
-3.6252
 30
0.0
 10
19.7082
 20
-3.6252
 30
0.0
 10
22.5905
 20
-4.87
 30
0.0
 10
25.1015
 20
-4.812
 30
0.0
 10
27.3616
 20
-3.8731
 30
0.0
 10
27.3616
 20
-3.8731
 30
0.0
 10
31.7021
 20
-2.07
 30
0.0
 10
33.1341
 20
0.7482
 30
0.0
 10
32.3257
 20
5.568
 30
0.0
 10
32.3257
 20
5.568
 30
0.0
 10
30.6479
 20
15.5721
 30
0.0
 10
17.7462
 20
16.2786
 30
0.0
 10
11.3528
 20
11.0309
 30
0.0
 10
11.3528
 20
11.0309
 30
0.0
 10
8.114
 20
8.3725
 30
0.0
 10
6.3968
 20
4.5137
 30
0.0
 10
5.7834
 20
-0.3803
 30
0.0
 10
5.7834
 20
-0.3803
 30
0.0
 10
-4.141
 20
2.3078
 30
0.0
 10
-9.9304
 20
-0.0616
 30
0.0
 10
-11.585
 20
-7.4882
 30
0.0
 10
-11.585
 20
-7.4882
 30
0.0
 10
-13.0373
 20
-7.1486
 30
0.0
 10
-14.9055
 20
-7.0141
 30
0.0
 10
-16.5251
 20
-7.4695
 30
0.0
 10
-16.5251
 20
-7.4695
 30
0.0
 10
-19.3195
 20
-8.255
 30
0.0
 10
-21.5869
 20
-11.627
 30
0.0
 10
-18.8141
 20
-13.8229
 30
0.0
 10
-18.8141
 20
-13.8229
 30
0.0
 10
-18.0617
 20
-14.4187
 30
0.0
 10
-17.1379
 20
-14.7196
 30
0.0
 10
-16.4963
 20
-14.0247
 30
0.0
 10
-16.4963
 20
-14.0247
 30
0.0
 10
-16.0867
 20
-13.5812
 30
0.0
 10
-15.7834
 20
-12.8248
 30
0.0
 10
-15.1159
 20
-12.4217
 30
0.0
 10
-15.1159
 20
-12.4217
 30
0.0
 10
-14.2577
 20
-11.9034
 30
0.0
 10
-13.1095
 20
-11.7618
 30
0.0
 10
-11.8748
 20
-12.6127
 30
0.0
  0
SPLINE
  5
59
330
1F
100
AcDbEntity
  8
layer 1
 62
     7
100
AcDbSpline
210
0.0
220
0.0
230
1.0
 70
    11
 71
     3
 72
    44
 73
    40
 74
     0
 42
0.0000000001
 43
0.0000000001
 12
1.0
 22
0.0
 32
0.0
 13
1.0
 23
0.0
 33
0.0
 40
0.0
 40
0.0
 40
0.0
 40
0.0
 40
0.0909090909090909
 40
0.0909090909090909
 40
0.0909090909090909
 40
0.0909090909090909
 40
0.1818181818181818
 40
0.1818181818181818
 40
0.1818181818181818
 40
0.1818181818181818
 40
0.2727272727272727
 40
0.2727272727272727
 40
0.2727272727272727
 40
0.2727272727272727
 40
0.3636363636363636
 40
0.3636363636363636
 40
0.3636363636363636
 40
0.3636363636363636
 40
0.4545454545454545
 40
0.4545454545454545
 40
0.4545454545454545
 40
0.4545454545454545
 40
0.5454545454545454
 40
0.5454545454545454
 40
0.5454545454545454
 40
0.5454545454545454
 40
0.6363636363636364
 40
0.6363636363636364
 40
0.6363636363636364
 40
0.6363636363636364
 40
0.7272727272727273
 40
0.7272727272727273
 40
0.7272727272727273
 40
0.7272727272727273
 40
0.8181818181818182
 40
0.8181818181818182
 40
0.8181818181818182
 40
0.8181818181818182
 40
1.0
 40
1.0
 40
1.0
 40
1.0
 10
7.7298
 20
-22.3221
 30
0.0
 10
8.2879
 20
-17.9265
 30
0.0
 10
10.6835
 20
-14.321
 30
0.0
 10
14.9168
 20
-11.5058
 30
0.0
 10
14.9168
 20
-11.5058
 30
0.0
 10
12.9704
 20
-10.5787
 30
0.0
 10
11.024
 20
-9.6516
 30
0.0
 10
9.0775
 20
-8.7243
 30
0.0
 10
9.0775
 20
-8.7243
 30
0.0
 10
8.0836
 20
-12.0596
 30
0.0
 10
6.3506
 20
-13.6511
 30
0.0
 10
4.303
 20
-14.5007
 30
0.0
 10
4.303
 20
-14.5007
 30
0.0
 10
1.0441
 20
-15.8525
 30
0.0
 10
-4.8728
 20
-15.6031
 30
0.0
 10
-5.0633
 20
-10.8959
 30
0.0
 10
-5.0633
 20
-10.8959
 30
0.0
 10
-5.177
 20
-8.0826
 30
0.0
 10
-3.9531
 20
-7.3618
 30
0.0
 10
-1.5497
 20
-8.2294
 30
0.0
 10
-1.5497
 20
-8.2294
 30
0.0
 10
-0.5839
 20
-8.5781
 30
0.0
 10
0.1045
 20
-9.2603
 30
0.0
 10
0.3933
 20
-10.424
 30
0.0
 10
0.3933
 20
-10.424
 30
0.0
 10
6.5669
 20
-8.1342
 30
0.0
 10
1.9262
 20
-4.1053
 30
0.0
 10
-1.4036
 20
-3.5851
 30
0.0
 10
-1.4036
 20
-3.5851
 30
0.0
 10
-4.6469
 20
-3.0784
 30
0.0
 10
-7.9235
 20
-4.65
 30
0.0
 10
-9.1894
 20
-7.1792
 30
0.0
 10
-9.1894
 20
-7.1792
 30
0.0
 10
-7.7121
 20
-10.9907
 30
0.0
 10
-7.5753
 20
-14.8023
 30
0.0
 10
-10.3872
 20
-18.6137
 30
0.0
 10
-10.3872
 20
-18.6137
 30
0.0
 10
-4.6941
 20
-18.4218
 30
0.0
 10
1.1145
 20
-18.7061
 30
0.0
 10
7.7298
 20
-22.3221
 30
0.0
  0
SPLINE
  5
5A
330
1F
100
AcDbEntity
  8
layer 1
 62
     7
100
AcDbSpline
210
0.0
220
0.0
230
1.0
 70
    11
 71
     3
 72
    64
 73
    60
 74
     0
 42
0.0000000001
 43
0.0000000001
 12
1.0
 22
0.0
 32
0.0
 13
1.0
 23
0.0
 33
0.0
 40
0.0
 40
0.0
 40
0.0
 40
0.0
 40
0.0625
 40
0.0625
 40
0.0625
 40
0.0625
 40
0.125
 40
0.125
 40
0.125
 40
0.125
 40
0.1875
 40
0.1875
 40
0.1875
 40
0.1875
 40
0.25
 40
0.25
 40
0.25
 40
0.25
 40
0.3125
 40
0.3125
 40
0.3125
 40
0.3125
 40
0.375
 40
0.375
 40
0.375
 40
0.375
 40
0.4375
 40
0.4375
 40
0.4375
 40
0.4375
 40
0.5
 40
0.5
 40
0.5
 40
0.5
 40
0.5625
 40
0.5625
 40
0.5625
 40
0.5625
 40
0.625
 40
0.625
 40
0.625
 40
0.625
 40
0.6875
 40
0.6875
 40
0.6875
 40
0.6875
 40
0.75
 40
0.75
 40
0.75
 40
0.75
 40
0.8125
 40
0.8125
 40
0.8125
 40
0.8125
 40
0.875
 40
0.875
 40
0.875
 40
0.875
 40
1.0
 40
1.0
 40
1.0
 40
1.0
 10
2.749
 20
-47.755
 30
0.0
 10
4.3056
 20
-48.8138
 30
0.0
 10
5.8622
 20
-49.8726
 30
0.0
 10
7.4186
 20
-50.9313
 30
0.0
 10
7.4186
 20
-50.9313
 30
0.0
 10
10.2267
 20
-47.2463
 30
0.0
 10
11.602
 20
-43.5612
 30
0.0
 10
11.7846
 20
-39.8762
 30
0.0
 10
11.7846
 20
-39.8762
 30
0.0
 10
12.1629
 20
-32.2359
 30
0.0
 10
8.8086
 20
-27.1746
 30
0.0
 10
1.7628
 20
-24.9302
 30
0.0
 10
1.7628
 20
-24.9302
 30
0.0
 10
-2.6265
 20
-23.5321
 30
0.0
 10
-6.5358
 20
-23.6121
 30
0.0
 10
-10.7316
 20
-25.4112
 30
0.0
 10
-10.7316
 20
-25.4112
 30
0.0
 10
-16.5139
 20
-27.8906
 30
0.0
 10
-18.5661
 20
-31.8414
 30
0.0
 10
-17.7817
 20
-36.1048
 30
0.0
 10
-17.7817
 20
-36.1048
 30
0.0
 10
-16.991
 20
-40.4034
 30
0.0
 10
-14.6035
 20
-42.5891
 30
0.0
 10
-10.8278
 20
-44.294
 30
0.0
 10
-10.8278
 20
-44.294
 30
0.0
 10
-8.6919
 20
-45.2583
 30
0.0
 10
-6.3973
 20
-45.5403
 30
0.0
 10
-3.7571
 20
-44.3358
 30
0.0
 10
-3.7571
 20
-44.3358
 30
0.0
 10
-1.103
 20
-43.1249
 30
0.0
 10
0.093
 20
-41.7032
 30
0.0
 10
0.6641
 20
-38.6911
 30
0.0
 10
0.6641
 20
-38.6911
 30
0.0
 10
0.9304
 20
-37.2876
 30
0.0
 10
0.6992
 20
-36.1774
 30
0.0
 10
-0.0293
 20
-35.3606
 30
0.0
 10
-0.0293
 20
-35.3606
 30
0.0
 10
-1.3479
 20
-33.8821
 30
0.0
 10
-4.0131
 20
-33.2799
 30
0.0
 10
-5.0924
 20
-35.3696
 30
0.0
 10
-5.0924
 20
-35.3696
 30
0.0
 10
-5.9289
 20
-36.9899
 30
0.0
 10
-4.7986
 20
-40.0625
 30
0.0
 10
-8.0134
 20
-39.8914
 30
0.0
 10
-8.0134
 20
-39.8914
 30
0.0
 10
-9.1277
 20
-39.8321
 30
0.0
 10
-10.3348
 20
-39.1453
 30
0.0
 10
-11.1741
 20
-38.1925
 30
0.0
 10
-11.1741
 20
-38.1925
 30
0.0
 10
-13.7144
 20
-35.3088
 30
0.0
 10
-12.6008
 20
-32.2514
 30
0.0
 10
-9.7013
 20
-30.2599
 30
0.0
 10
-9.7013
 20
-30.2599
 30
0.0
 10
-5.6677
 20
-27.4891
 30
0.0
 10
0.2207
 20
-27.7684
 30
0.0
 10
3.7219
 20
-31.0733
 30
0.0
 10
3.7219
 20
-31.0733
 30
0.0
 10
9.6062
 20
-36.628
 30
0.0
 10
6.397
 20
-43.3964
 30
0.0
 10
2.749
 20
-47.755
 30
0.0
  0
SPLINE
  5
5B
330
1F
100
AcDbEntity
  8
layer 1
 62
     7
100
AcDbSpline
210
0.0
220
0.0
230
1.0
 70
    11
 71
     3
 72
    60
 73
    56
 74
     0
 42
0.0000000001
 43
0.0000000001
 12
1.0
 22
0.0
 32
0.0
 13
1.0
 23
0.0
 33
0.0
 40
0.0
 40
0.0
 40
0.0
 40
0.0
 40
0.0666666666666667
 40
0.0666666666666667
 40
0.0666666666666667
 40
0.0666666666666667
 40
0.1333333333333333
 40
0.1333333333333333
 40
0.1333333333333333
 40
0.1333333333333333
 40
0.2
 40
0.2
 40
0.2
 40
0.2
 40
0.2666666666666667
 40
0.2666666666666667
 40
0.2666666666666667
 40
0.2666666666666667
 40
0.3333333333333333
 40
0.3333333333333333
 40
0.3333333333333333
 40
0.3333333333333333
 40
0.4
 40
0.4
 40
0.4
 40
0.4
 40
0.4666666666666667
 40
0.4666666666666667
 40
0.4666666666666667
 40
0.4666666666666667
 40
0.5333333333333333
 40
0.5333333333333333
 40
0.5333333333333333
 40
0.5333333333333333
 40
0.6
 40
0.6
 40
0.6
 40
0.6
 40
0.6666666666666666
 40
0.6666666666666666
 40
0.6666666666666666
 40
0.6666666666666666
 40
0.7333333333333333
 40
0.7333333333333333
 40
0.7333333333333333
 40
0.7333333333333333
 40
0.8
 40
0.8
 40
0.8
 40
0.8
 40
0.8666666666666667
 40
0.8666666666666667
 40
0.8666666666666667
 40
0.8666666666666667
 40
1.0
 40
1.0
 40
1.0
 40
1.0
 10
18.0176
 20
-41.2636
 30
0.0
 10
17.9976
 20
-39.29
 30
0.0
 10
18.2746
 20
-37.3163
 30
0.0
 10
19.2047
 20
-35.3425
 30
0.0
 10
19.2047
 20
-35.3425
 30
0.0
 10
20.1822
 20
-35.5889
 30
0.0
 10
21.1435
 20
-35.8278
 30
0.0
 10
22.0481
 20
-36.1689
 30
0.0
 10
22.0481
 20
-36.1689
 30
0.0
 10
25.6052
 20
-37.5104
 30
0.0
 10
28.6109
 20
-39.486
 30
0.0
 10
30.9074
 20
-42.5976
 30
0.0
 10
30.9074
 20
-42.5976
 30
0.0
 10
33.7183
 20
-46.4058
 30
0.0
 10
35.4312
 20
-51.0762
 30
0.0
 10
34.111
 20
-55.2586
 30
0.0
 10
34.111
 20
-55.2586
 30
0.0
 10
32.6691
 20
-59.8266
 30
0.0
 10
27.586
 20
-63.447
 30
0.0
 10
22.9635
 20
-63.2607
 30
0.0
 10
22.9635
 20
-63.2607
 30
0.0
 10
17.5193
 20
-63.0412
 30
0.0
 10
11.9863
 20
-60.1408
 30
0.0
 10
11.8826
 20
-53.9024
 30
0.0
 10
11.8826
 20
-53.9024
 30
0.0
 10
11.8607
 20
-52.5713
 30
0.0
 10
12.2366
 20
-51.3744
 30
0.0
 10
12.9557
 20
-50.2484
 30
0.0
 10
12.9557
 20
-50.2484
 30
0.0
 10
13.2824
 20
-49.7366
 30
0.0
 10
13.6802
 20
-49.2395
 30
0.0
 10
14.1434
 20
-48.7514
 30
0.0
 10
14.1434
 20
-48.7514
 30
0.0
 10
16.2301
 20
-46.5524
 30
0.0
 10
18.836
 20
-46.7106
 30
0.0
 10
21.2276
 20
-48.1786
 30
0.0
 10
21.2276
 20
-48.1786
 30
0.0
 10
23.2215
 20
-49.4026
 30
0.0
 10
23.9851
 20
-51.2463
 30
0.0
 10
19.4806
 20
-51.6335
 30
0.0
 10
19.4806
 20
-51.6335
 30
0.0
 10
17.4957
 20
-51.8042
 30
0.0
 10
15.4478
 20
-52.5274
 30
0.0
 10
16.1368
 20
-55.1372
 30
0.0
 10
16.1368
 20
-55.1372
 30
0.0
 10
17.19
 20
-59.1257
 30
0.0
 10
19.6586
 20
-59.559
 30
0.0
 10
23.181
 20
-58.5908
 30
0.0
 10
23.181
 20
-58.5908
 30
0.0
 10
25.9879
 20
-57.819
 30
0.0
 10
27.5971
 20
-55.8886
 30
0.0
 10
28.0087
 20
-52.7996
 30
0.0
 10
28.0087
 20
-52.7996
 30
0.0
 10
28.7769
 20
-43.6212
 30
0.0
 10
24.5358
 20
-40.9612
 30
0.0
 10
18.0176
 20
-41.2636
 30
0.0
  0
SPLINE
  5
5C
330
1F
100
AcDbEntity
  8
layer 1
 62
     7
100
AcDbSpline
210
0.0
220
0.0
230
1.0
 70
    11
 71
     3
 72
    52
 73
    48
 74
     0
 42
0.0000000001
 43
0.0000000001
 12
1.0
 22
0.0
 32
0.0
 13
1.0
 23
0.0
 33
0.0
 40
0.0
 40
0.0
 40
0.0
 40
0.0
 40
0.0769230769230769
 40
0.0769230769230769
 40
0.0769230769230769
 40
0.0769230769230769
 40
0.1538461538461539
 40
0.1538461538461539
 40
0.1538461538461539
 40
0.1538461538461539
 40
0.2307692307692308
 40
0.2307692307692308
 40
0.2307692307692308
 40
0.2307692307692308
 40
0.3076923076923077
 40
0.3076923076923077
 40
0.3076923076923077
 40
0.3076923076923077
 40
0.3846153846153846
 40
0.3846153846153846
 40
0.3846153846153846
 40
0.3846153846153846
 40
0.4615384615384616
 40
0.4615384615384616
 40
0.4615384615384616
 40
0.4615384615384616
 40
0.5384615384615384
 40
0.5384615384615384
 40
0.5384615384615384
 40
0.5384615384615384
 40
0.6153846153846154
 40
0.6153846153846154
 40
0.6153846153846154
 40
0.6153846153846154
 40
0.6923076923076923
 40
0.6923076923076923
 40
0.6923076923076923
 40
0.6923076923076923
 40
0.7692307692307693
 40
0.7692307692307693
 40
0.7692307692307693
 40
0.7692307692307693
 40
0.8461538461538461
 40
0.8461538461538461
 40
0.8461538461538461
 40
0.8461538461538461
 40
1.0
 40
1.0
 40
1.0
 40
1.0
 10
42.0144
 20
-55.2938
 30
0.0
 10
41.3337
 20
-53.038
 30
0.0
 10
40.6528
 20
-50.7822
 30
0.0
 10
39.9719
 20
-48.5264
 30
0.0
 10
39.9719
 20
-48.5264
 30
0.0
 10
45.622
 20
-47.5921
 30
0.0
 10
48.6585
 20
-44.4098
 30
0.0
 10
50.5069
 20
-40.2059
 30
0.0
 10
50.5069
 20
-40.2059
 30
0.0
 10
51.8031
 20
-33.7996
 30
0.0
 10
47.3085
 20
-29.386
 30
0.0
 10
41.1259
 20
-29.4354
 30
0.0
 10
41.1259
 20
-29.4354
 30
0.0
 10
39.2904
 20
-29.45
 30
0.0
 10
38.1732
 20
-30.6666
 30
0.0
 10
37.6307
 20
-32.1837
 30
0.0
 10
37.6307
 20
-32.1837
 30
0.0
 10
36.5948
 20
-35.0797
 30
0.0
 10
37.6537
 20
-39.0701
 30
0.0
 10
39.8083
 20
-37.8817
 30
0.0
 10
39.8083
 20
-37.8817
 30
0.0
 10
40.6074
 20
-37.4411
 30
0.0
 10
41.4898
 20
-36.6408
 30
0.0
 10
42.2581
 20
-36.2202
 30
0.0
 10
42.2581
 20
-36.2202
 30
0.0
 10
45.8421
 20
-34.2579
 30
0.0
 10
46.6141
 20
-39.7452
 30
0.0
 10
43.2203
 20
-41.5715
 30
0.0
 10
43.2203
 20
-41.5715
 30
0.0
 10
38.7103
 20
-43.9985
 30
0.0
 10
33.5131
 20
-40.7083
 30
0.0
 10
32.4764
 20
-35.6508
 30
0.0
 10
32.4764
 20
-35.6508
 30
0.0
 10
31.4385
 20
-30.5868
 30
0.0
 10
33.986
 20
-27.2282
 30
0.0
 10
38.6231
 20
-25.6483
 30
0.0
 10
38.6231
 20
-25.6483
 30
0.0
 10
42.4295
 20
-24.3515
 30
0.0
 10
46.8208
 20
-25.4692
 30
0.0
 10
51.7968
 20
-29.0011
 30
0.0
 10
51.7968
 20
-29.0011
 30
0.0
 10
51.9401
 20
-34.807
 30
0.0
 10
52.0835
 20
-40.6128
 30
0.0
 10
52.2268
 20
-46.4185
 30
0.0
 10
52.2268
 20
-46.4185
 30
0.0
 10
49.8619
 20
-49.6834
 30
0.0
 10
46.5964
 20
-52.6827
 30
0.0
 10
42.0144
 20
-55.2938
 30
0.0
  0
SPLINE
  5
5D
330
1F
100
AcDbEntity
  8
layer 1
 62
     7
100
AcDbSpline
210
0.0
220
0.0
230
1.0
 70
    11
 71
     3
 72
    32
 73
    28
 74
     0
 42
0.0000000001
 43
0.0000000001
 12
1.0
 22
0.0
 32
0.0
 13
1.0
 23
0.0
 33
0.0
 40
0.0
 40
0.0
 40
0.0
 40
0.0
 40
0.125
 40
0.125
 40
0.125
 40
0.125
 40
0.25
 40
0.25
 40
0.25
 40
0.25
 40
0.375
 40
0.375
 40
0.375
 40
0.375
 40
0.5
 40
0.5
 40
0.5
 40
0.5
 40
0.625
 40
0.625
 40
0.625
 40
0.625
 40
0.75
 40
0.75
 40
0.75
 40
0.75
 40
1.0
 40
1.0
 40
1.0
 40
1.0
 10
-23.4158
 20
-21.2793
 30
0.0
 10
-21.1483
 20
-21.7343
 30
0.0
 10
-18.8807
 20
-22.1894
 30
0.0
 10
-16.6132
 20
-22.6444
 30
0.0
 10
-16.6132
 20
-22.6444
 30
0.0
 10
-20.6244
 20
-26.8623
 30
0.0
 10
-22.5769
 20
-32.3876
 30
0.0
 10
-22.471
 20
-39.2201
 30
0.0
 10
-22.471
 20
-39.2201
 30
0.0
 10
-19.2428
 20
-47.8656
 30
0.0
 10
-13.3769
 20
-50.6477
 30
0.0
 10
-6.0312
 20
-50.1405
 30
0.0
 10
-6.0312
 20
-50.1405
 30
0.0
 10
-7.9874
 20
-52.0536
 30
0.0
 10
-9.31
 20
-54.7839
 30
0.0
 10
-9.9995
 20
-58.331
 30
0.0
 10
-9.9995
 20
-58.331
 30
0.0
 10
-13.6527
 20
-57.551
 30
0.0
 10
-17.306
 20
-56.7709
 30
0.0
 10
-20.9594
 20
-55.9909
 30
0.0
 10
-20.9594
 20
-55.9909
 30
0.0
 10
-20.1298
 20
-51.3702
 30
0.0
 10
-21.2005
 20
-47.73
 30
0.0
 10
-24.1717
 20
-45.0703
 30
0.0
 10
-24.1717
 20
-45.0703
 30
0.0
 10
-23.9197
 20
-37.14
 30
0.0
 10
-23.6676
 20
-29.2097
 30
0.0
 10
-23.4158
 20
-21.2793
 30
0.0
  0
SPLINE
  5
5E
330
1F
100
AcDbEntity
  8
layer 1
 62
     7
100
AcDbSpline
210
0.0
220
0.0
230
1.0
 70
    11
 71
     3
 72
    52
 73
    48
 74
     0
 42
0.0000000001
 43
0.0000000001
 12
1.0
 22
0.0
 32
0.0
 13
1.0
 23
0.0
 33
0.0
 40
0.0
 40
0.0
 40
0.0
 40
0.0
 40
0.0769230769230769
 40
0.0769230769230769
 40
0.0769230769230769
 40
0.0769230769230769
 40
0.1538461538461539
 40
0.1538461538461539
 40
0.1538461538461539
 40
0.1538461538461539
 40
0.2307692307692308
 40
0.2307692307692308
 40
0.2307692307692308
 40
0.2307692307692308
 40
0.3076923076923077
 40
0.3076923076923077
 40
0.3076923076923077
 40
0.3076923076923077
 40
0.3846153846153846
 40
0.3846153846153846
 40
0.3846153846153846
 40
0.3846153846153846
 40
0.4615384615384616
 40
0.4615384615384616
 40
0.4615384615384616
 40
0.4615384615384616
 40
0.5384615384615384
 40
0.5384615384615384
 40
0.5384615384615384
 40
0.5384615384615384
 40
0.6153846153846154
 40
0.6153846153846154
 40
0.6153846153846154
 40
0.6153846153846154
 40
0.6923076923076923
 40
0.6923076923076923
 40
0.6923076923076923
 40
0.6923076923076923
 40
0.7692307692307693
 40
0.7692307692307693
 40
0.7692307692307693
 40
0.7692307692307693
 40
0.8461538461538461
 40
0.8461538461538461
 40
0.8461538461538461
 40
0.8461538461538461
 40
1.0
 40
1.0
 40
1.0
 40
1.0
 10
-23.8693
 20
-63.4195
 30
0.0
 10
-18.0577
 20
-61.8271
 30
0.0
 10
-12.1602
 20
-62.0958
 30
0.0
 10
-6.0739
 20
-66.4592
 30
0.0
 10
-6.0739
 20
-66.4592
 30
0.0
 10
-3.9032
 20
-68.6887
 30
0.0
 10
-2.5831
 20
-71.1268
 30
0.0
 10
-2.3583
 20
-73.8466
 30
0.0
 10
-2.3583
 20
-73.8466
 30
0.0
 10
-1.7016
 20
-81.796
 30
0.0
 10
-7.8803
 20
-87.4523
 30
0.0
 10
-15.4154
 20
-86.272
 30
0.0
 10
-15.4154
 20
-86.272
 30
0.0
 10
-19.533
 20
-85.6272
 30
0.0
 10
-21.079
 20
-84.1848
 30
0.0
 10
-23.6239
 20
-80.6444
 30
0.0
 10
-23.6239
 20
-80.6444
 30
0.0
 10
-23.7704
 20
-78.7643
 30
0.0
 10
-23.8136
 20
-76.92
 30
0.0
 10
-23.1329
 20
-75.3249
 30
0.0
 10
-23.1329
 20
-75.3249
 30
0.0
 10
-20.8334
 20
-73.1034
 30
0.0
 10
-18.6353
 20
-71.7197
 30
0.0
 10
-16.8558
 20
-72.5059
 30
0.0
 10
-16.8558
 20
-72.5059
 30
0.0
 10
-13.7362
 20
-73.8843
 30
0.0
 10
-13.2194
 20
-75.2722
 30
0.0
 10
-15.6796
 20
-75.7765
 30
0.0
 10
-15.6796
 20
-75.7765
 30
0.0
 10
-18.826
 20
-76.4219
 30
0.0
 10
-18.908
 20
-79.4369
 30
0.0
 10
-16.8351
 20
-81.2119
 30
0.0
 10
-16.8351
 20
-81.2119
 30
0.0
 10
-15.1116
 20
-82.688
 30
0.0
 10
-12.3837
 20
-82.3299
 30
0.0
 10
-8.6511
 20
-80.1377
 30
0.0
 10
-8.6511
 20
-80.1377
 30
0.0
 10
-7.1515
 20
-75.2836
 30
0.0
 10
-8.4252
 20
-71.608
 30
0.0
 10
-11.5965
 20
-68.7389
 30
0.0
 10
-11.5965
 20
-68.7389
 30
0.0
 10
-15.9513
 20
-65.1272
 30
0.0
 10
-20.0372
 20
-66.7847
 30
0.0
 10
-24.1147
 20
-68.6122
 30
0.0
 10
-24.1147
 20
-68.6122
 30
0.0
 10
-24.0329
 20
-66.8814
 30
0.0
 10
-23.9511
 20
-65.1505
 30
0.0
 10
-23.8693
 20
-63.4195
 30
0.0
  0
SPLINE
  5
5F
330
1F
100
AcDbEntity
  8
layer 1
 62
     7
100
AcDbSpline
210
0.0
220
0.0
230
1.0
 70
    11
 71
     3
 72
    16
 73
    12
 74
     0
 42
0.0000000001
 43
0.0000000001
 12
1.0
 22
0.0
 32
0.0
 13
1.0
 23
0.0
 33
0.0
 40
0.0
 40
0.0
 40
0.0
 40
0.0
 40
0.25
 40
0.25
 40
0.25
 40
0.25
 40
0.5
 40
0.5
 40
0.5
 40
0.5
 40
1.0
 40
1.0
 40
1.0
 40
1.0
 10
-24.3664
 20
-100.2175
 30
0.0
 10
-21.291
 20
-102.8009
 30
0.0
 10
-19.5642
 20
-106.8005
 30
0.0
 10
-19.7782
 20
-110.5835
 30
0.0
 10
-19.7782
 20
-110.5835
 30
0.0
 10
-19.7782
 20
-110.5835
 30
0.0
 10
-24.1695
 20
-110.5835
 30
0.0
 10
-24.1695
 20
-110.5835
 30
0.0
 10
-24.1695
 20
-110.5835
 30
0.0
 10
-24.2351
 20
-107.1281
 30
0.0
 10
-24.3008
 20
-103.6728
 30
0.0
 10
-24.3664
 20
-100.2175
 30
0.0
  0
SPLINE
  5
60
330
1F
100
AcDbEntity
  8
layer 1
 62
     7
100
AcDbSpline
210
0.0
220
0.0
230
1.0
 70
    11
 71
     3
 72
    20
 73
    16
 74
     0
 42
0.0000000001
 43
0.0000000001
 12
1.0
 22
0.0
 32
0.0
 13
1.0
 23
0.0
 33
0.0
 40
0.0
 40
0.0
 40
0.0
 40
0.0
 40
0.2
 40
0.2
 40
0.2
 40
0.2
 40
0.4
 40
0.4
 40
0.4
 40
0.4
 40
0.6
 40
0.6
 40
0.6
 40
0.6
 40
1.0
 40
1.0
 40
1.0
 40
1.0
 10
1.9589
 20
-82.9288
 30
0.0
 10
2.9277
 20
-87.4819
 30
0.0
 10
6.4603
 20
-91.2791
 30
0.0
 10
12.8993
 20
-94.2194
 30
0.0
 10
12.8993
 20
-94.2194
 30
0.0
 10
10.962
 20
-95.4542
 30
0.0
 10
9.0246
 20
-96.6891
 30
0.0
 10
7.0873
 20
-97.924
 30
0.0
 10
7.0873
 20
-97.924
 30
0.0
 10
5.728
 20
-92.7575
 30
0.0
 10
2.0242
 20
-89.4055
 30
0.0
 10
-4.0242
 20
-87.8685
 30
0.0
 10
-4.0242
 20
-87.8685
 30
0.0
 10
-2.0298
 20
-86.222
 30
0.0
 10
-0.0354
 20
-84.5753
 30
0.0
 10
1.9589
 20
-82.9288
 30
0.0
  0
SPLINE
  5
61
330
1F
100
AcDbEntity
  8
layer 1
 62
     7
100
AcDbSpline
210
0.0
220
0.0
230
1.0
 70
    11
 71
     3
 72
    68
 73
    64
 74
     0
 42
0.0000000001
 43
0.0000000001
 12
1.0
 22
0.0
 32
0.0
 13
1.0
 23
0.0
 33
0.0
 40
0.0
 40
0.0
 40
0.0
 40
0.0
 40
0.0588235294117647
 40
0.0588235294117647
 40
0.0588235294117647
 40
0.0588235294117647
 40
0.1176470588235294
 40
0.1176470588235294
 40
0.1176470588235294
 40
0.1176470588235294
 40
0.1764705882352941
 40
0.1764705882352941
 40
0.1764705882352941
 40
0.1764705882352941
 40
0.2352941176470588
 40
0.2352941176470588
 40
0.2352941176470588
 40
0.2352941176470588
 40
0.2941176470588235
 40
0.2941176470588235
 40
0.2941176470588235
 40
0.2941176470588235
 40
0.3529411764705883
 40
0.3529411764705883
 40
0.3529411764705883
 40
0.3529411764705883
 40
0.4117647058823529
 40
0.4117647058823529
 40
0.4117647058823529
 40
0.4117647058823529
 40
0.4705882352941176
 40
0.4705882352941176
 40
0.4705882352941176
 40
0.4705882352941176
 40
0.5294117647058824
 40
0.5294117647058824
 40
0.5294117647058824
 40
0.5294117647058824
 40
0.5882352941176471
 40
0.5882352941176471
 40
0.5882352941176471
 40
0.5882352941176471
 40
0.6470588235294118
 40
0.6470588235294118
 40
0.6470588235294118
 40
0.6470588235294118
 40
0.7058823529411765
 40
0.7058823529411765
 40
0.7058823529411765
 40
0.7058823529411765
 40
0.7647058823529411
 40
0.7647058823529411
 40
0.7647058823529411
 40
0.7647058823529411
 40
0.8235294117647058
 40
0.8235294117647058
 40
0.8235294117647058
 40
0.8235294117647058
 40
0.8823529411764706
 40
0.8823529411764706
 40
0.8823529411764706
 40
0.8823529411764706
 40
1.0
 40
1.0
 40
1.0
 40
1.0
 10
10.6837
 20
-79.1708
 30
0.0
 10
8.9364
 20
-79.7076
 30
0.0
 10
8.5331
 20
-81.1402
 30
0.0
 10
8.585
 20
-82.9528
 30
0.0
 10
8.585
 20
-82.9528
 30
0.0
 10
8.8005
 20
-90.4774
 30
0.0
 10
24.2915
 20
-90.9968
 30
0.0
 10
24.0985
 20
-80.8219
 30
0.0
 10
24.0985
 20
-80.8219
 30
0.0
 10
24.0721
 20
-79.425
 30
0.0
 10
23.6834
 20
-78.0814
 30
0.0
 10
23.0572
 20
-76.7729
 30
0.0
 10
23.0572
 20
-76.7729
 30
0.0
 10
22.1478
 20
-73.3079
 30
0.0
 10
20.1255
 20
-71.8526
 30
0.0
 10
17.9442
 20
-70.6845
 30
0.0
 10
17.9442
 20
-70.6845
 30
0.0
 10
11.6947
 20
-68.437
 30
0.0
 10
8.6657
 20
-64.3995
 30
0.0
 10
6.5385
 20
-59.8608
 30
0.0
 10
6.5385
 20
-59.8608
 30
0.0
 10
3.9057
 20
-61.3769
 30
0.0
 10
1.5896
 20
-61.422
 30
0.0
 10
-0.4099
 20
-59.9962
 30
0.0
 10
-0.4099
 20
-59.9962
 30
0.0
 10
-1.3886
 20
-58.7663
 30
0.0
 10
-3.1271
 20
-57.8853
 30
0.0
 10
-1.0655
 20
-55.2608
 30
0.0
 10
-1.0655
 20
-55.2608
 30
0.0
 10
-0.5848
 20
-54.9
 30
0.0
 10
-0.104
 20
-54.5393
 30
0.0
 10
0.3767
 20
-54.1785
 30
0.0
 10
0.3767
 20
-54.1785
 30
0.0
 10
0.4266
 20
-53.0404
 30
0.0
 10
-0.284
 20
-52.7996
 30
0.0
 10
-1.3478
 20
-52.9751
 30
0.0
 10
-1.3478
 20
-52.9751
 30
0.0
 10
-3.6107
 20
-53.3484
 30
0.0
 10
-4.0197
 20
-53.8713
 30
0.0
 10
-4.4428
 20
-56.2175
 30
0.0
 10
-4.4428
 20
-56.2175
 30
0.0
 10
-5.3171
 20
-61.0669
 30
0.0
 10
-1.8546
 20
-64.1526
 30
0.0
 10
0.2024
 20
-67.9515
 30
0.0
 10
0.2024
 20
-67.9515
 30
0.0
 10
1.6937
 20
-70.7057
 30
0.0
 10
2.6826
 20
-73.6903
 30
0.0
 10
2.8675
 20
-77.0436
 30
0.0
 10
2.8675
 20
-77.0436
 30
0.0
 10
7.5864
 20
-73.0444
 30
0.0
 10
12.5176
 20
-70.9075
 30
0.0
 10
18.2063
 20
-75.4199
 30
0.0
 10
18.2063
 20
-75.4199
 30
0.0
 10
20.6765
 20
-78.3964
 30
0.0
 10
21.632
 20
-81.3729
 30
0.0
 10
19.2552
 20
-84.3496
 30
0.0
 10
19.2552
 20
-84.3496
 30
0.0
 10
14.6577
 20
-85.7277
 30
0.0
 10
13.4321
 20
-84.4962
 30
0.0
 10
13.2298
 20
-82.4724
 30
0.0
 10
13.2298
 20
-82.4724
 30
0.0
 10
13.075
 20
-80.9204
 30
0.0
 10
13.1229
 20
-78.4217
 30
0.0
 10
10.6837
 20
-79.1708
 30
0.0
  0
SPLINE
  5
62
330
1F
100
AcDbEntity
  8
layer 1
 62
     7
100
AcDbSpline
210
0.0
220
0.0
230
1.0
 70
    11
 71
     3
 72
    56
 73
    52
 74
     0
 42
0.0000000001
 43
0.0000000001
 12
1.0
 22
0.0
 32
0.0
 13
1.0
 23
0.0
 33
0.0
 40
0.0
 40
0.0
 40
0.0
 40
0.0
 40
0.0714285714285714
 40
0.0714285714285714
 40
0.0714285714285714
 40
0.0714285714285714
 40
0.1428571428571428
 40
0.1428571428571428
 40
0.1428571428571428
 40
0.1428571428571428
 40
0.2142857142857143
 40
0.2142857142857143
 40
0.2142857142857143
 40
0.2142857142857143
 40
0.2857142857142857
 40
0.2857142857142857
 40
0.2857142857142857
 40
0.2857142857142857
 40
0.3571428571428572
 40
0.3571428571428572
 40
0.3571428571428572
 40
0.3571428571428572
 40
0.4285714285714285
 40
0.4285714285714285
 40
0.4285714285714285
 40
0.4285714285714285
 40
0.5
 40
0.5
 40
0.5
 40
0.5
 40
0.5714285714285714
 40
0.5714285714285714
 40
0.5714285714285714
 40
0.5714285714285714
 40
0.6428571428571429
 40
0.6428571428571429
 40
0.6428571428571429
 40
0.6428571428571429
 40
0.7142857142857143
 40
0.7142857142857143
 40
0.7142857142857143
 40
0.7142857142857143
 40
0.7857142857142857
 40
0.7857142857142857
 40
0.7857142857142857
 40
0.7857142857142857
 40
0.8571428571428571
 40
0.8571428571428571
 40
0.8571428571428571
 40
0.8571428571428571
 40
1.0
 40
1.0
 40
1.0
 40
1.0
 10
45.3153
 20
-21.2953
 30
0.0
 10
45.1069
 20
-20.0052
 30
0.0
 10
44.8985
 20
-18.7151
 30
0.0
 10
44.6901
 20
-17.425
 30
0.0
 10
44.6901
 20
-17.425
 30
0.0
 10
40.478
 20
-14.6473
 30
0.0
 10
37.951
 20
-11.2174
 30
0.0
 10
36.1895
 20
-7.4912
 30
0.0
 10
36.1895
 20
-7.4912
 30
0.0
 10
33.7071
 20
-10.6835
 30
0.0
 10
30.7139
 20
-12.0198
 30
0.0
 10
27.426
 20
-12.2816
 30
0.0
 10
27.426
 20
-12.2816
 30
0.0
 10
25.1287
 20
-12.4643
 30
0.0
 10
23.0227
 20
-13.1654
 30
0.0
 10
21.1435
 20
-14.2751
 30
0.0
 10
21.1435
 20
-14.2751
 30
0.0
 10
18.4937
 20
-15.8396
 30
0.0
 10
15.8115
 20
-18.3582
 30
0.0
 10
15.2492
 20
-21.6016
 30
0.0
 10
15.2492
 20
-21.6016
 30
0.0
 10
14.3065
 20
-27.0373
 30
0.0
 10
18.8292
 20
-31.2035
 30
0.0
 10
23.8761
 20
-30.5086
 30
0.0
 10
23.8761
 20
-30.5086
 30
0.0
 10
25.5221
 20
-30.2819
 30
0.0
 10
27.1679
 20
-29.4997
 30
0.0
 10
28.8139
 20
-27.7458
 30
0.0
 10
28.8139
 20
-27.7458
 30
0.0
 10
29.4731
 20
-25.6225
 30
0.0
 10
29.4057
 20
-24.1494
 30
0.0
 10
28.6113
 20
-23.3262
 30
0.0
 10
28.6113
 20
-23.3262
 30
0.0
 10
25.7395
 20
-20.3504
 30
0.0
 10
25.5325
 20
-23.7751
 30
0.0
 10
25.1215
 20
-25.5437
 30
0.0
 10
25.1215
 20
-25.5437
 30
0.0
 10
24.3654
 20
-28.7968
 30
0.0
 10
21.8748
 20
-27.5126
 30
0.0
 10
20.4638
 20
-25.5278
 30
0.0
 10
20.4638
 20
-25.5278
 30
0.0
 10
17.9938
 20
-22.0534
 30
0.0
 10
22.3187
 20
-17.3646
 30
0.0
 10
25.6118
 20
-16.7195
 30
0.0
 10
25.6118
 20
-16.7195
 30
0.0
 10
30.3883
 20
-15.7838
 30
0.0
 10
34.1131
 20
-18.324
 30
0.0
 10
35.4393
 20
-23.2304
 30
0.0
 10
35.4393
 20
-23.2304
 30
0.0
 10
38.7315
 20
-19.9548
 30
0.0
 10
42.0233
 20
-20.1403
 30
0.0
 10
45.3153
 20
-21.2953
 30
0.0
  0
SPLINE
  5
63
330
1F
100
AcDbEntity
  8
layer 1
 62
     7
100
AcDbSpline
210
0.0
220
0.0
230
1.0
 70
    11
 71
     3
 72
    36
 73
    32
 74
     0
 42
0.0000000001
 43
0.0000000001
 12
1.0
 22
0.0
 32
0.0
 13
1.0
 23
0.0
 33
0.0
 40
0.0
 40
0.0
 40
0.0
 40
0.0
 40
0.1111111111111111
 40
0.1111111111111111
 40
0.1111111111111111
 40
0.1111111111111111
 40
0.2222222222222222
 40
0.2222222222222222
 40
0.2222222222222222
 40
0.2222222222222222
 40
0.3333333333333333
 40
0.3333333333333333
 40
0.3333333333333333
 40
0.3333333333333333
 40
0.4444444444444444
 40
0.4444444444444444
 40
0.4444444444444444
 40
0.4444444444444444
 40
0.5555555555555556
 40
0.5555555555555556
 40
0.5555555555555556
 40
0.5555555555555556
 40
0.6666666666666666
 40
0.6666666666666666
 40
0.6666666666666666
 40
0.6666666666666666
 40
0.7777777777777778
 40
0.7777777777777778
 40
0.7777777777777778
 40
0.7777777777777778
 40
1.0
 40
1.0
 40
1.0
 40
1.0
 10
52.1908
 20
-11.1034
 30
0.0
 10
52.1491
 20
-13.3397
 30
0.0
 10
52.1073
 20
-15.5759
 30
0.0
 10
52.0658
 20
-17.812
 30
0.0
 10
52.0658
 20
-17.812
 30
0.0
 10
47.6436
 20
-15.6403
 30
0.0
 10
39.8239
 20
-9.3355
 30
0.0
 10
41.6039
 20
-3.382
 30
0.0
 10
41.6039
 20
-3.382
 30
0.0
 10
42.4452
 20
-0.5674
 30
0.0
 10
44.5926
 20
1.5069
 30
0.0
 10
47.6417
 20
0.8758
 30
0.0
 10
47.6417
 20
0.8758
 30
0.0
 10
48.9112
 20
0.6129
 30
0.0
 10
50.2154
 20
-0.2189
 30
0.0
 10
51.5658
 20
-1.8146
 30
0.0
 10
51.5658
 20
-1.8146
 30
0.0
 10
51.7198
 20
-3.4221
 30
0.0
 10
51.2615
 20
-4.2392
 30
0.0
 10
50.1906
 20
-4.2658
 30
0.0
 10
50.1906
 20
-4.2658
 30
0.0
 10
49.6906
 20
-3.7166
 30
0.0
 10
49.1906
 20
-3.3626
 30
0.0
 10
48.6906
 20
-3.141
 30
0.0
 10
48.6906
 20
-3.141
 30
0.0
 10
46.2432
 20
-2.0569
 30
0.0
 10
44.9112
 20
-3.4824
 30
0.0
 10
44.7762
 20
-6.0552
 30
0.0
 10
44.7762
 20
-6.0552
 30
0.0
 10
44.5513
 20
-10.3371
 30
0.0
 10
48.6106
 20
-11.7243
 30
0.0
 10
52.1908
 20
-11.1034
 30
0.0
  0
SPLINE
  5
64
330
1F
100
AcDbEntity
  8
layer 1
 62
     7
100
AcDbSpline
210
0.0
220
0.0
230
1.0
 70
    11
 71
     3
 72
    20
 73
    16
 74
     0
 42
0.0000000001
 43
0.0000000001
 12
1.0
 22
0.0
 32
0.0
 13
1.0
 23
0.0
 33
0.0
 40
0.0
 40
0.0
 40
0.0
 40
0.0
 40
0.2
 40
0.2
 40
0.2
 40
0.2
 40
0.4
 40
0.4
 40
0.4
 40
0.4
 40
0.6
 40
0.6
 40
0.6
 40
0.6
 40
1.0
 40
1.0
 40
1.0
 40
1.0
 10
51.7821
 20
-82.2321
 30
0.0
 10
51.8573
 20
-83.2147
 30
0.0
 10
51.9325
 20
-84.1974
 30
0.0
 10
52.0077
 20
-85.18
 30
0.0
 10
52.0077
 20
-85.18
 30
0.0
 10
50.2286
 20
-86.5502
 30
0.0
 10
49.2766
 20
-89.0583
 30
0.0
 10
48.7003
 20
-92.0841
 30
0.0
 10
48.7003
 20
-92.0841
 30
0.0
 10
45.5885
 20
-91.6718
 30
0.0
 10
44.2375
 20
-90.7144
 30
0.0
 10
43.1378
 20
-89.6792
 30
0.0
 10
43.1378
 20
-89.6792
 30
0.0
 10
46.5204
 20
-88.5414
 30
0.0
 10
49.4018
 20
-86.059
 30
0.0
 10
51.7821
 20
-82.2321
 30
0.0
  0
SPLINE
  5
65
330
1F
100
AcDbEntity
  8
layer 1
 62
     7
100
AcDbSpline
210
0.0
220
0.0
230
1.0
 70
    11
 71
     3
 72
    68
 73
    64
 74
     0
 42
0.0000000001
 43
0.0000000001
 12
1.0
 22
0.0
 32
0.0
 13
1.0
 23
0.0
 33
0.0
 40
0.0
 40
0.0
 40
0.0
 40
0.0
 40
0.0588235294117647
 40
0.0588235294117647
 40
0.0588235294117647
 40
0.0588235294117647
 40
0.1176470588235294
 40
0.1176470588235294
 40
0.1176470588235294
 40
0.1176470588235294
 40
0.1764705882352941
 40
0.1764705882352941
 40
0.1764705882352941
 40
0.1764705882352941
 40
0.2352941176470588
 40
0.2352941176470588
 40
0.2352941176470588
 40
0.2352941176470588
 40
0.2941176470588235
 40
0.2941176470588235
 40
0.2941176470588235
 40
0.2941176470588235
 40
0.3529411764705883
 40
0.3529411764705883
 40
0.3529411764705883
 40
0.3529411764705883
 40
0.4117647058823529
 40
0.4117647058823529
 40
0.4117647058823529
 40
0.4117647058823529
 40
0.4705882352941176
 40
0.4705882352941176
 40
0.4705882352941176
 40
0.4705882352941176
 40
0.5294117647058824
 40
0.5294117647058824
 40
0.5294117647058824
 40
0.5294117647058824
 40
0.5882352941176471
 40
0.5882352941176471
 40
0.5882352941176471
 40
0.5882352941176471
 40
0.6470588235294118
 40
0.6470588235294118
 40
0.6470588235294118
 40
0.6470588235294118
 40
0.7058823529411765
 40
0.7058823529411765
 40
0.7058823529411765
 40
0.7058823529411765
 40
0.7647058823529411
 40
0.7647058823529411
 40
0.7647058823529411
 40
0.7647058823529411
 40
0.8235294117647058
 40
0.8235294117647058
 40
0.8235294117647058
 40
0.8235294117647058
 40
0.8823529411764706
 40
0.8823529411764706
 40
0.8823529411764706
 40
0.8823529411764706
 40
1.0
 40
1.0
 40
1.0
 40
1.0
 10
50.4461
 20
-67.1104
 30
0.0
 10
46.3959
 20
-63.4542
 30
0.0
 10
41.0489
 20
-61.6871
 30
0.0
 10
36.3544
 20
-65.7218
 30
0.0
 10
36.3544
 20
-65.7218
 30
0.0
 10
34.5874
 20
-67.2405
 30
0.0
 10
32.4797
 20
-69.4864
 30
0.0
 10
31.6405
 20
-71.998
 30
0.0
 10
31.6405
 20
-71.998
 30
0.0
 10
30.3515
 20
-75.856
 30
0.0
 10
32.0566
 20
-80.4522
 30
0.0
 10
35.5239
 20
-82.0287
 30
0.0
 10
35.5239
 20
-82.0287
 30
0.0
 10
37.6328
 20
-82.9873
 30
0.0
 10
39.9655
 20
-82.7439
 30
0.0
 10
41.6153
 20
-80.9199
 30
0.0
 10
41.6153
 20
-80.9199
 30
0.0
 10
42.8592
 20
-79.5443
 30
0.0
 10
43.3401
 20
-77.7732
 30
0.0
 10
42.6554
 20
-76.4328
 30
0.0
 10
42.6554
 20
-76.4328
 30
0.0
 10
41.8308
 20
-74.8182
 30
0.0
 10
40.3881
 20
-74.8352
 30
0.0
 10
38.8913
 20
-74.6121
 30
0.0
 10
38.8913
 20
-74.6121
 30
0.0
 10
37.6335
 20
-74.4245
 30
0.0
 10
36.5765
 20
-73.9721
 30
0.0
 10
37.6221
 20
-71.9306
 30
0.0
 10
37.6221
 20
-71.9306
 30
0.0
 10
40.1582
 20
-66.9786
 30
0.0
 10
48.0636
 20
-70.042
 30
0.0
 10
48.7522
 20
-75.3265
 30
0.0
 10
48.7522
 20
-75.3265
 30
0.0
 10
49.3817
 20
-80.1559
 30
0.0
 10
47.5792
 20
-83.4408
 30
0.0
 10
43.6538
 20
-85.8941
 30
0.0
 10
43.6538
 20
-85.8941
 30
0.0
 10
41.7377
 20
-87.0914
 30
0.0
 10
39.5814
 20
-87.6685
 30
0.0
 10
37.1048
 20
-87.4198
 30
0.0
 10
37.1048
 20
-87.4198
 30
0.0
 10
32.7853
 20
-86.9856
 30
0.0
 10
29.4265
 20
-84.6812
 30
0.0
 10
27.5244
 20
-81.1934
 30
0.0
 10
27.5244
 20
-81.1934
 30
0.0
 10
23.5852
 20
-73.9696
 30
0.0
 10
26.3061
 20
-64.7866
 30
0.0
 10
33.5616
 20
-60.9816
 30
0.0
 10
33.5616
 20
-60.9816
 30
0.0
 10
39.5165
 20
-57.8588
 30
0.0
 10
44.7056
 20
-58.7413
 30
0.0
 10
50.4488
 20
-60.6157
 30
0.0
 10
50.4488
 20
-60.6157
 30
0.0
 10
52.8298
 20
-61.3926
 30
0.0
 10
52.2489
 20
-61.2419
 30
0.0
 10
52.0402
 20
-63.7411
 30
0.0
 10
52.0402
 20
-63.7411
 30
0.0
 10
51.9502
 20
-64.8189
 30
0.0
 10
51.8601
 20
-65.8969
 30
0.0
 10
51.77
 20
-66.9748
 30
0.0
 10
51.77
 20
-66.9748
 30
0.0
 10
51.6039
 20
-68.966
 30
0.0
 10
51.6352
 20
-68.1838
 30
0.0
 10
50.4461
 20
-67.1104
 30
0.0
  0
SPLINE
  5
66
330
1F
100
AcDbEntity
  8
layer 1
 62
     7
100
AcDbSpline
210
0.0
220
0.0
230
1.0
 70
    11
 71
     3
 72
    20
 73
    16
 74
     0
 42
0.0000000001
 43
0.0000000001
 12
1.0
 22
0.0
 32
0.0
 13
1.0
 23
0.0
 33
0.0
 40
0.0
 40
0.0
 40
0.0
 40
0.0
 40
0.2
 40
0.2
 40
0.2
 40
0.2
 40
0.4
 40
0.4
 40
0.4
 40
0.4
 40
0.6
 40
0.6
 40
0.6
 40
0.6
 40
1.0
 40
1.0
 40
1.0
 40
1.0
 10
12.5146
 20
-110.5835
 30
0.0
 10
12.8274
 20
-110.1222
 30
0.0
 10
13.1882
 20
-109.6575
 30
0.0
 10
13.6012
 20
-109.1907
 30
0.0
 10
13.6012
 20
-109.1907
 30
0.0
 10
15.4014
 20
-107.1553
 30
0.0
 10
18.0893
 20
-106.3254
 30
0.0
 10
21.8716
 20
-106.9813
 30
0.0
 10
21.8716
 20
-106.9813
 30
0.0
 10
24.1864
 20
-107.3829
 30
0.0
 10
26.0977
 20
-108.1525
 30
0.0
 10
26.8356
 20
-110.5835
 30
0.0
 10
26.8356
 20
-110.5835
 30
0.0
 10
26.8356
 20
-110.5835
 30
0.0
 10
12.5146
 20
-110.5835
 30
0.0
 10
12.5146
 20
-110.5835
 30
0.0
  0
SPLINE
  5
67
330
1F
100
AcDbEntity
  8
layer 1
 62
     7
100
AcDbSpline
210
0.0
220
0.0
230
1.0
 70
    11
 71
     3
 72
    40
 73
    36
 74
     0
 42
0.0000000001
 43
0.0000000001
 12
1.0
 22
0.0
 32
0.0
 13
1.0
 23
0.0
 33
0.0
 40
0.0
 40
0.0
 40
0.0
 40
0.0
 40
0.1
 40
0.1
 40
0.1
 40
0.1
 40
0.2
 40
0.2
 40
0.2
 40
0.2
 40
0.3
 40
0.3
 40
0.3
 40
0.3
 40
0.4
 40
0.4
 40
0.4
 40
0.4
 40
0.5
 40
0.5
 40
0.5
 40
0.5
 40
0.6
 40
0.6
 40
0.6
 40
0.6
 40
0.7
 40
0.7
 40
0.7
 40
0.7
 40
0.8
 40
0.8
 40
0.8
 40
0.8
 40
1.0
 40
1.0
 40
1.0
 40
1.0
 10
2.4484
 20
-110.5835
 30
0.0
 10
3.7239
 20
-109.6699
 30
0.0
 10
4.7798
 20
-108.5843
 30
0.0
 10
5.789
 20
-107.3971
 30
0.0
 10
5.789
 20
-107.3971
 30
0.0
 10
9.1803
 20
-103.408
 30
0.0
 10
11.0649
 20
-100.2453
 30
0.0
 10
16.4704
 20
-98.7411
 30
0.0
 10
16.4704
 20
-98.7411
 30
0.0
 10
21.2056
 20
-97.4233
 30
0.0
 10
26.6615
 20
-97.9764
 30
0.0
 10
30.5043
 20
-100.337
 30
0.0
 10
30.5043
 20
-100.337
 30
0.0
 10
33.4475
 20
-102.145
 30
0.0
 10
35.7999
 20
-104.9769
 30
0.0
 10
36.908
 20
-108.7291
 30
0.0
 10
36.908
 20
-108.7291
 30
0.0
 10
37.0893
 20
-109.343
 30
0.0
 10
37.2233
 20
-109.9628
 30
0.0
 10
37.3139
 20
-110.5835
 30
0.0
 10
37.3139
 20
-110.5835
 30
0.0
 10
37.3139
 20
-110.5835
 30
0.0
 10
32.2262
 20
-110.5835
 30
0.0
 10
32.2262
 20
-110.5835
 30
0.0
 10
32.2262
 20
-110.5835
 30
0.0
 10
30.196
 20
-101.0751
 30
0.0
 10
17.634
 20
-100.4828
 30
0.0
 10
11.3528
 20
-105.6384
 30
0.0
 10
11.3528
 20
-105.6384
 30
0.0
 10
9.7116
 20
-106.9856
 30
0.0
 10
8.4613
 20
-108.6412
 30
0.0
 10
7.547
 20
-110.5835
 30
0.0
 10
7.547
 20
-110.5835
 30
0.0
 10
7.547
 20
-110.5835
 30
0.0
 10
2.4484
 20
-110.5835
 30
0.0
 10
2.4484
 20
-110.5835
 30
0.0
  0
ENDSEC
  0
SECTION
  2
OBJECTS
  0
DICTIONARY
  5
C
330
0
100
AcDbDictionary
281
     1
  3
ACAD_GROUP
350
D
  3
ACAD_LAYOUT
350
1A
  3
ACAD_MATERIAL
350
3B
  3
ACAD_MLEADERSTYLE
350
89
  3
ACAD_MLINESTYLE
350
17
  3
ACAD_PLOTSETTINGS
350
19
  3
ACAD_PLOTSTYLENAME
350
E
  3
ACAD_TABLESTYLE
350
88
  3
ACAD_VISUALSTYLE
350
2A
  0
DICTIONARY
  5
D
102
{ACAD_REACTORS
330
C
102
}
330
C
100
AcDbDictionary
281
     1
  0
DICTIONARY
  5
1A
102
{ACAD_REACTORS
330
C
102
}
330
C
100
AcDbDictionary
281
     1
  3
Layout1
350
1E
  3
Layout2
350
26
  3
Model
350
22
  0
DICTIONARY
  5
3B
102
{ACAD_REACTORS
330
C
102
}
330
C
100
AcDbDictionary
281
     1
  3
ByBlock
350
3D
  3
ByLayer
350
3C
  3
Global
350
3E
  0
DICTIONARY
  5
89
102
{ACAD_REACTORS
330
C
102
}
330
C
100
AcDbDictionary
281
     1
  0
DICTIONARY
  5
17
102
{ACAD_REACTORS
330
C
102
}
330
C
100
AcDbDictionary
281
     1
  3
Standard
350
18
  0
DICTIONARY
  5
19
102
{ACAD_REACTORS
330
C
102
}
330
C
100
AcDbDictionary
281
     1
  0
ACDBDICTIONARYWDFLT
  5
E
102
{ACAD_REACTORS
330
C
102
}
330
C
100
AcDbDictionary
281
     1
  3
Normal
350
F
100
AcDbDictionaryWithDefault
340
F
  0
DICTIONARY
  5
88
102
{ACAD_REACTORS
330
C
102
}
330
C
100
AcDbDictionary
281
     1
  0
DICTIONARY
  5
2A
102
{ACAD_REACTORS
330
C
102
}
330
C
100
AcDbDictionary
281
     1
  3
2dWireframe
350
2F
  3
3D Hidden
350
31
  3
3dWireframe
350
30
  3
Basic
350
32
  3
Brighten
350
36
  3
ColorChange
350
3A
  3
Conceptual
350
34
  3
Dim
350
35
  3
Facepattern
350
39
  3
Flat
350
2B
  3
FlatWithEdges
350
2C
  3
Gouraud
350
2D
  3
GouraudWithEdges
350
2E
  3
Linepattern
350
38
  3
Realistic
350
33
  3
Thicken
350
37
  0
LAYOUT
  5
1E
102
{ACAD_REACTORS
330
1A
102
}
330
1A
100
AcDbPlotSettings
  1

  2
none_device
  4

  6

 40
0.0
 41
0.0
 42
0.0
 43
0.0
 44
0.0
 45
0.0
 46
0.0
 47
0.0
 48
0.0
 49
0.0
140
0.0
141
0.0
142
1.0
143
1.0
 70
   688
 72
     0
 73
     0
 74
     5
  7

 75
    16
 76
     0
 77
     2
 78
   300
147
1.0
148
0.0
149
0.0
100
AcDbLayout
  1
Layout1
 70
     1
 71
     1
 10
0.0
 20
0.0
 11
12.0
 21
9.0
 12
0.0
 22
0.0
 32
0.0
 14
1.000000000000000E+20
 24
1.000000000000000E+20
 34
1.000000000000000E+20
 15
-1.000000000000000E+20
 25
-1.000000000000000E+20
 35
-1.000000000000000E+20
146
0.0
 13
0.0
 23
0.0
 33
0.0
 16
1.0
 26
0.0
 36
0.0
 17
0.0
 27
1.0
 37
0.0
 76
     0
330
1B
  0
LAYOUT
  5
26
102
{ACAD_REACTORS
330
1A
102
}
330
1A
100
AcDbPlotSettings
  1

  2
none_device
  4

  6

 40
0.0
 41
0.0
 42
0.0
 43
0.0
 44
0.0
 45
0.0
 46
0.0
 47
0.0
 48
0.0
 49
0.0
140
0.0
141
0.0
142
1.0
143
1.0
 70
   688
 72
     0
 73
     0
 74
     5
  7

 75
    16
 76
     0
 77
     2
 78
   300
147
1.0
148
0.0
149
0.0
100
AcDbLayout
  1
Layout2
 70
     1
 71
     2
 10
0.0
 20
0.0
 11
0.0
 21
0.0
 12
0.0
 22
0.0
 32
0.0
 14
0.0
 24
0.0
 34
0.0
 15
0.0
 25
0.0
 35
0.0
146
0.0
 13
0.0
 23
0.0
 33
0.0
 16
1.0
 26
0.0
 36
0.0
 17
0.0
 27
1.0
 37
0.0
 76
     0
330
23
  0
LAYOUT
  5
22
102
{ACAD_REACTORS
330
1A
102
}
330
1A
100
AcDbPlotSettings
  1

  2
none_device
  4

  6

 40
0.0
 41
0.0
 42
0.0
 43
0.0
 44
0.0
 45
0.0
 46
0.0
 47
0.0
 48
0.0
 49
0.0
140
0.0
141
0.0
142
1.0
143
1.0
 70
  1712
 72
     0
 73
     0
 74
     0
  7

 75
     0
 76
     0
 77
     2
 78
   300
147
1.0
148
0.0
149
0.0
100
AcDbLayout
  1
Model
 70
     1
 71
     0
 10
0.0
 20
0.0
 11
12.0
 21
9.0
 12
0.0
 22
0.0
 32
0.0
 14
-28.3468
 24
-114.6912
 34
0.0
 15
56.2367
 25
131.7753
 35
0.0
146
0.0
 13
0.0
 23
0.0
 33
0.0
 16
1.0
 26
0.0
 36
0.0
 17
0.0
 27
1.0
 37
0.0
 76
     0
330
1F
331
29
  0
MATERIAL
  5
3D
102
{ACAD_REACTORS
330
3B
102
}
330
3B
100
AcDbMaterial
  1
ByBlock
 72
     1
 94
      127
  0
MATERIAL
  5
3C
102
{ACAD_REACTORS
330
3B
102
}
330
3B
100
AcDbMaterial
  1
ByLayer
 72
     1
 94
      127
  0
MATERIAL
  5
3E
102
{ACAD_REACTORS
330
3B
102
}
330
3B
100
AcDbMaterial
  1
Global
 72
     1
 94
      127
  0
MLINESTYLE
  5
18
102
{ACAD_REACTORS
330
17
102
}
330
17
100
AcDbMlineStyle
  2
Standard
 70
     0
  3

 62
   256
 51
90.0
 52
90.0
 71
     2
 49
0.5
 62
   256
  6
BYLAYER
 49
-0.5
 62
   256
  6
BYLAYER
  0
ACDBPLACEHOLDER
  5
F
102
{ACAD_REACTORS
330
E
102
}
330
E
  0
VISUALSTYLE
  5
2F
102
{ACAD_REACTORS
330
2A
102
}
102
{ACAD_XDICTIONARY
360
70
102
}
330
2A
100
AcDbVisualStyle
  2
2dWireframe
 70
     4
 71
     0
 72
     2
 73
     0
 90
        0
 40
-0.6
 41
-30.0
 62
     5
 63
     7
421
 16777215
 74
     1
 91
        4
 64
     7
 65
   257
 75
     1
175
     1
 42
1.0
 92
        0
 66
   257
 43
1.0
 76
     1
 77
     6
 78
     2
 67
     7
 79
     5
170
     0
171
     0
290
     0
174
     0
 93
        1
 44
0.0
173
     0
291
     0
 45
0.0
  0
VISUALSTYLE
  5
31
102
{ACAD_REACTORS
330
2A
102
}
102
{ACAD_XDICTIONARY
360
74
102
}
330
2A
100
AcDbVisualStyle
  2
3D Hidden
 70
     6
 71
     1
 72
     2
 73
     2
 90
        0
 40
-0.6
 41
-30.0
 62
     5
 63
     7
421
 16777215
 74
     2
 91
        2
 64
     7
 65
   257
 75
     2
175
     1
 42
40.0
 92
        0
 66
   257
 43
1.0
 76
     1
 77
     6
 78
     2
 67
     7
 79
     3
170
     0
171
     0
290
     0
174
     0
 93
        1
 44
0.0
173
     0
291
     0
 45
0.0
  0
VISUALSTYLE
  5
30
102
{ACAD_REACTORS
330
2A
102
}
102
{ACAD_XDICTIONARY
360
72
102
}
330
2A
100
AcDbVisualStyle
  2
3dWireframe
 70
     5
 71
     0
 72
     2
 73
     0
 90
        0
 40
-0.6
 41
-30.0
 62
     5
 63
     7
421
 16777215
 74
     1
 91
        4
 64
     7
 65
   257
 75
     1
175
     1
 42
1.0
 92
        0
 66
   257
 43
1.0
 76
     1
 77
     6
 78
     2
 67
     7
 79
     5
170
     0
171
     0
290
     0
174
     0
 93
        1
 44
0.0
173
     0
291
     0
 45
0.0
  0
VISUALSTYLE
  5
32
102
{ACAD_REACTORS
330
2A
102
}
102
{ACAD_XDICTIONARY
360
76
102
}
330
2A
100
AcDbVisualStyle
  2
Basic
 70
     7
 71
     1
 72
     0
 73
     1
 90
        0
 40
-0.6
 41
-30.0
 62
     5
 63
     7
421
 16777215
 74
     0
 91
        4
 64
     7
 65
   257
 75
     1
175
     1
 42
1.0
 92
        8
 66
     7
 43
1.0
 76
     1
 77
     6
 78
     2
 67
     7
 79
     5
170
     0
171
     0
290
     0
174
     0
 93
        1
 44
0.0
173
     0
291
     1
 45
0.0
  0
VISUALSTYLE
  5
36
102
{ACAD_REACTORS
330
2A
102
}
102
{ACAD_XDICTIONARY
360
7E
102
}
330
2A
100
AcDbVisualStyle
  2
Brighten
 70
    12
 71
     2
 72
     2
 73
     0
 90
        0
 40
-0.6
 41
-30.0
 62
     5
 63
     7
421
 16777215
 74
     1
 91
        4
 64
     7
 65
   257
 75
     1
175
     1
 42
1.0
 92
        8
 66
     7
 43
1.0
 76
     1
 77
     6
 78
     2
 67
     7
 79
     5
170
     0
171
     0
290
     0
174
     0
 93
        1
 44
50.0
173
     0
291
     1
 45
0.0
  0
VISUALSTYLE
  5
3A
102
{ACAD_REACTORS
330
2A
102
}
102
{ACAD_XDICTIONARY
360
86
102
}
330
2A
100
AcDbVisualStyle
  2
ColorChange
 70
    16
 71
     2
 72
     2
 73
     3
 90
        0
 40
-0.6
 41
-30.0
 62
     5
 63
     8
421
  8421504
 74
     1
 91
        4
 64
     7
 65
   257
 75
     1
175
     1
 42
1.0
 92
        8
 66
     8
424
  8421504
 43
1.0
 76
     1
 77
     6
 78
     2
 67
     7
 79
     5
170
     0
171
     0
290
     0
174
     0
 93
        1
 44
0.0
173
     0
291
     1
 45
0.0
  0
VISUALSTYLE
  5
34
102
{ACAD_REACTORS
330
2A
102
}
102
{ACAD_XDICTIONARY
360
7A
102
}
330
2A
100
AcDbVisualStyle
  2
Conceptual
 70
     9
 71
     3
 72
     2
 73
     0
 90
        0
 40
-0.6
 41
-30.0
 62
     5
 63
     7
421
 16777215
 74
     2
 91
        2
 64
     7
 65
   257
 75
     1
175
     1
 42
40.0
 92
        8
 66
     7
 43
1.0
 76
     1
 77
     6
 78
     2
 67
     7
 79
     3
170
     0
171
     0
290
     0
174
     0
 93
        1
 44
0.0
173
     0
291
     0
 45
0.0
  0
VISUALSTYLE
  5
35
102
{ACAD_REACTORS
330
2A
102
}
102
{ACAD_XDICTIONARY
360
7C
102
}
330
2A
100
AcDbVisualStyle
  2
Dim
 70
    11
 71
     2
 72
     2
 73
     0
 90
        0
 40
-0.6
 41
-30.0
 62
     5
 63
     7
421
 16777215
 74
     1
 91
        4
 64
     7
 65
   257
 75
     1
175
     1
 42
1.0
 92
        8
 66
     7
 43
1.0
 76
     1
 77
     6
 78
     2
 67
     7
 79
     5
170
     0
171
     0
290
     0
174
     0
 93
        1
 44
-50.0
173
     0
291
     1
 45
0.0
  0
VISUALSTYLE
  5
39
102
{ACAD_REACTORS
330
2A
102
}
102
{ACAD_XDICTIONARY
360
84
102
}
330
2A
100
AcDbVisualStyle
  2
Facepattern
 70
    15
 71
     2
 72
     2
 73
     0
 90
        0
 40
-0.6
 41
-30.0
 62
     5
 63
     7
421
 16777215
 74
     1
 91
        4
 64
     7
 65
   257
 75
     1
175
     1
 42
1.0
 92
        8
 66
     7
 43
1.0
 76
     1
 77
     6
 78
     2
 67
     7
 79
     5
170
     0
171
     0
290
     0
174
     0
 93
        1
 44
0.0
173
     0
291
     1
 45
0.0
  0
VISUALSTYLE
  5
2B
102
{ACAD_REACTORS
330
2A
102
}
102
{ACAD_XDICTIONARY
360
68
102
}
330
2A
100
AcDbVisualStyle
  2
Flat
 70
     0
 71
     2
 72
     1
 73
     1
 90
        2
 40
-0.6
 41
30.0
 62
     5
 63
     7
421
 16777215
 74
     0
 91
        4
 64
     7
 65
   257
 75
     1
175
     1
 42
1.0
 92
        8
 66
     7
 43
1.0
 76
     1
 77
     6
 78
     2
 67
     7
 79
     5
170
     0
171
     0
290
     0
174
     0
 93
       13
 44
0.0
173
     0
291
     1
 45
0.0
  0
VISUALSTYLE
  5
2C
102
{ACAD_REACTORS
330
2A
102
}
102
{ACAD_XDICTIONARY
360
6A
102
}
330
2A
100
AcDbVisualStyle
  2
FlatWithEdges
 70
     1
 71
     2
 72
     1
 73
     1
 90
        2
 40
-0.6
 41
30.0
 62
     5
 63
     7
421
 16777215
 74
     1
 91
        4
 64
     7
 65
   257
 75
     1
175
     1
 42
1.0
 92
        0
 66
   257
 43
1.0
 76
     1
 77
     6
 78
     2
 67
     7
 79
     5
170
     0
171
     0
290
     0
174
     0
 93
       13
 44
0.0
173
     0
291
     1
 45
0.0
  0
VISUALSTYLE
  5
2D
102
{ACAD_REACTORS
330
2A
102
}
102
{ACAD_XDICTIONARY
360
6C
102
}
330
2A
100
AcDbVisualStyle
  2
Gouraud
 70
     2
 71
     2
 72
     2
 73
     1
 90
        2
 40
-0.6
 41
30.0
 62
     5
 63
     7
421
 16777215
 74
     0
 91
        4
 64
     7
 65
   257
 75
     1
175
     1
 42
1.0
 92
        0
 66
     7
 43
1.0
 76
     1
 77
     6
 78
     2
 67
     7
 79
     5
170
     0
171
     0
290
     0
174
     0
 93
       13
 44
0.0
173
     0
291
     1
 45
0.0
  0
VISUALSTYLE
  5
2E
102
{ACAD_REACTORS
330
2A
102
}
102
{ACAD_XDICTIONARY
360
6E
102
}
330
2A
100
AcDbVisualStyle
  2
GouraudWithEdges
 70
     3
 71
     2
 72
     2
 73
     1
 90
        2
 40
-0.6
 41
30.0
 62
     5
 63
     7
421
 16777215
 74
     1
 91
        4
 64
     7
 65
   257
 75
     1
175
     1
 42
1.0
 92
        0
 66
   257
 43
1.0
 76
     1
 77
     6
 78
     2
 67
     7
 79
     5
170
     0
171
     0
290
     0
174
     0
 93
       13
 44
0.0
173
     0
291
     1
 45
0.0
  0
VISUALSTYLE
  5
38
102
{ACAD_REACTORS
330
2A
102
}
102
{ACAD_XDICTIONARY
360
82
102
}
330
2A
100
AcDbVisualStyle
  2
Linepattern
 70
    14
 71
     2
 72
     2
 73
     0
 90
        0
 40
-0.6
 41
-30.0
 62
     5
 63
     7
421
 16777215
 74
     1
 91
        4
 64
     7
 65
   257
 75
     7
175
     7
 42
1.0
 92
        8
 66
     7
 43
1.0
 76
     1
 77
     6
 78
     2
 67
     7
 79
     5
170
     0
171
     0
290
     0
174
     0
 93
        1
 44
0.0
173
     0
291
     1
 45
0.0
  0
VISUALSTYLE
  5
33
102
{ACAD_REACTORS
330
2A
102
}
102
{ACAD_XDICTIONARY
360
78
102
}
330
2A
100
AcDbVisualStyle
  2
Realistic
 70
     8
 71
     2
 72
     2
 73
     0
 90
        0
 40
-0.6
 41
-30.0
 62
     5
 63
     7
421
 16777215
 74
     1
 91
        0
 64
     7
 65
   257
 75
     1
175
     1
 42
1.0
 92
        8
 66
     8
424
  7895160
 43
1.0
 76
     1
 77
     6
 78
     2
 67
     7
 79
     5
170
     0
171
     0
290
     0
174
     0
 93
       13
 44
0.0
173
     0
291
     0
 45
0.0
  0
VISUALSTYLE
  5
37
102
{ACAD_REACTORS
330
2A
102
}
102
{ACAD_XDICTIONARY
360
80
102
}
330
2A
100
AcDbVisualStyle
  2
Thicken
 70
    13
 71
     2
 72
     2
 73
     0
 90
        0
 40
-0.6
 41
-30.0
 62
     5
 63
     7
421
 16777215
 74
     1
 91
        4
 64
     7
 65
   257
 75
     1
175
     1
 42
1.0
 92
       12
 66
     7
 43
1.0
 76
     1
 77
     6
 78
     2
 67
     7
 79
     5
170
     0
171
     0
290
     0
174
     0
 93
        1
 44
0.0
173
     0
291
     1
 45
0.0
  0
DICTIONARY
  5
70
330
2F
100
AcDbDictionary
280
     1
281
     1
  3
ACAD_XREC_ROUNDTRIP
360
71
  0
DICTIONARY
  5
74
330
31
100
AcDbDictionary
280
     1
281
     1
  3
ACAD_XREC_ROUNDTRIP
360
75
  0
DICTIONARY
  5
72
330
30
100
AcDbDictionary
280
     1
281
     1
  3
ACAD_XREC_ROUNDTRIP
360
73
  0
DICTIONARY
  5
76
330
32
100
AcDbDictionary
280
     1
281
     1
  3
ACAD_XREC_ROUNDTRIP
360
77
  0
DICTIONARY
  5
7E
330
36
100
AcDbDictionary
280
     1
281
     1
  3
ACAD_XREC_ROUNDTRIP
360
7F
  0
DICTIONARY
  5
86
330
3A
100
AcDbDictionary
280
     1
281
     1
  3
ACAD_XREC_ROUNDTRIP
360
87
  0
DICTIONARY
  5
7A
330
34
100
AcDbDictionary
280
     1
281
     1
  3
ACAD_XREC_ROUNDTRIP
360
7B
  0
DICTIONARY
  5
7C
330
35
100
AcDbDictionary
280
     1
281
     1
  3
ACAD_XREC_ROUNDTRIP
360
7D
  0
DICTIONARY
  5
84
330
39
100
AcDbDictionary
280
     1
281
     1
  3
ACAD_XREC_ROUNDTRIP
360
85
  0
DICTIONARY
  5
68
330
2B
100
AcDbDictionary
280
     1
281
     1
  3
ACAD_XREC_ROUNDTRIP
360
69
  0
DICTIONARY
  5
6A
330
2C
100
AcDbDictionary
280
     1
281
     1
  3
ACAD_XREC_ROUNDTRIP
360
6B
  0
DICTIONARY
  5
6C
330
2D
100
AcDbDictionary
280
     1
281
     1
  3
ACAD_XREC_ROUNDTRIP
360
6D
  0
DICTIONARY
  5
6E
330
2E
100
AcDbDictionary
280
     1
281
     1
  3
ACAD_XREC_ROUNDTRIP
360
6F
  0
DICTIONARY
  5
82
330
38
100
AcDbDictionary
280
     1
281
     1
  3
ACAD_XREC_ROUNDTRIP
360
83
  0
DICTIONARY
  5
78
330
33
100
AcDbDictionary
280
     1
281
     1
  3
ACAD_XREC_ROUNDTRIP
360
79
  0
DICTIONARY
  5
80
330
37
100
AcDbDictionary
280
     1
281
     1
  3
ACAD_XREC_ROUNDTRIP
360
81
  0
XRECORD
  5
71
102
{ACAD_REACTORS
330
70
102
}
330
70
100
AcDbXrecord
280
     1
102
RTVSPropertyOp0
 70
     1
102
RTVSPropertyOp1
 70
     1
102
RTVSPropertyOp2
 70
     1
102
RTVSPropertyOp3
 70
     1
102
RTVSPropertyOp4
 70
     1
102
RTVSPropertyOp5
 70
     1
102
RTVSPropertyOp6
 70
     1
102
RTVSPropertyOp7
 70
     1
102
RTVSPropertyOp8
 70
     1
102
RTVSPropertyOp9
 70
     1
102
RTVSPropertyOp10
 70
     1
102
RTVSPropertyOp11
 70
     1
102
RTVSPropertyOp12
 70
     1
102
RTVSPropertyOp13
 70
     1
102
RTVSPropertyOp14
 70
     1
102
RTVSPropertyOp15
 70
     1
102
RTVSPropertyOp16
 70
     1
102
RTVSPropertyOp17
 70
     1
102
RTVSPropertyOp18
 70
     1
102
RTVSPropertyOp19
 70
     1
102
RTVSPropertyOp20
 70
     1
102
RTVSPropertyOp21
 70
     1
102
RTVSPropertyOp22
 70
     1
102
RTVSPropertyOp23
 70
     1
102
RTVSPropertyOp24
 70
     1
102
RTVSPropertyOp25
 70
     1
102
RTVSPropertyOp26
 70
     1
102
RTVSPropertyOp27
 70
     1
102
RTVSPropertyOp28
 70
     1
102
RTVSPropertyOp29
 70
     1
102
RTVSPropertyOp30
 70
     1
102
RTVSPropertyOp31
 70
     1
102
RTVSPropertyOp32
 70
     1
  0
XRECORD
  5
75
102
{ACAD_REACTORS
330
74
102
}
330
74
100
AcDbXrecord
280
     1
102
RTVSPropertyOp0
 70
     1
102
RTVSPropertyOp1
 70
     1
102
RTVSPropertyOp2
 70
     1
102
RTVSPropertyOp3
 70
     1
102
RTVSPropertyOp4
 70
     1
102
RTVSPropertyOp5
 70
     1
102
RTVSPropertyOp6
 70
     1
102
RTVSPropertyOp7
 70
     1
102
RTVSPropertyOp8
 70
     1
102
RTVSPropertyOp9
 70
     1
102
RTVSPropertyOp10
 70
     1
102
RTVSPropertyOp11
 70
     1
102
RTVSPropertyOp12
 70
     1
102
RTVSPropertyOp13
 70
     1
102
RTVSPropertyOp14
 70
     1
102
RTVSPropertyOp15
 70
     1
102
RTVSPropertyOp16
 70
     1
102
RTVSPropertyOp17
 70
     1
102
RTVSPropertyOp18
 70
     1
102
RTVSPropertyOp19
 70
     1
102
RTVSPropertyOp20
 70
     1
102
RTVSPropertyOp21
 70
     1
102
RTVSPropertyOp22
 70
     1
102
RTVSPropertyOp23
 70
     1
102
RTVSPropertyOp24
 70
     1
102
RTVSPropertyOp25
 70
     1
102
RTVSPropertyOp26
 70
     1
102
RTVSPropertyOp27
 70
     1
102
RTVSPropertyOp28
 70
     1
102
RTVSPropertyOp29
 70
     1
102
RTVSPropertyOp30
 70
     1
102
RTVSPropertyOp31
 70
     1
102
RTVSPropertyOp32
 70
     1
  0
XRECORD
  5
73
102
{ACAD_REACTORS
330
72
102
}
330
72
100
AcDbXrecord
280
     1
102
RTVSPropertyOp0
 70
     1
102
RTVSPropertyOp1
 70
     1
102
RTVSPropertyOp2
 70
     1
102
RTVSPropertyOp3
 70
     1
102
RTVSPropertyOp4
 70
     1
102
RTVSPropertyOp5
 70
     1
102
RTVSPropertyOp6
 70
     1
102
RTVSPropertyOp7
 70
     1
102
RTVSPropertyOp8
 70
     1
102
RTVSPropertyOp9
 70
     1
102
RTVSPropertyOp10
 70
     1
102
RTVSPropertyOp11
 70
     1
102
RTVSPropertyOp12
 70
     1
102
RTVSPropertyOp13
 70
     1
102
RTVSPropertyOp14
 70
     1
102
RTVSPropertyOp15
 70
     1
102
RTVSPropertyOp16
 70
     1
102
RTVSPropertyOp17
 70
     1
102
RTVSPropertyOp18
 70
     1
102
RTVSPropertyOp19
 70
     1
102
RTVSPropertyOp20
 70
     1
102
RTVSPropertyOp21
 70
     1
102
RTVSPropertyOp22
 70
     1
102
RTVSPropertyOp23
 70
     1
102
RTVSPropertyOp24
 70
     1
102
RTVSPropertyOp25
 70
     1
102
RTVSPropertyOp26
 70
     1
102
RTVSPropertyOp27
 70
     1
102
RTVSPropertyOp28
 70
     1
102
RTVSPropertyOp29
 70
     1
102
RTVSPropertyOp30
 70
     1
102
RTVSPropertyOp31
 70
     1
102
RTVSPropertyOp32
 70
     1
  0
XRECORD
  5
77
102
{ACAD_REACTORS
330
76
102
}
330
76
100
AcDbXrecord
280
     1
102
RTVSPropertyOp0
 70
     1
102
RTVSPropertyOp1
 70
     1
102
RTVSPropertyOp2
 70
     1
102
RTVSPropertyOp3
 70
     1
102
RTVSPropertyOp4
 70
     1
102
RTVSPropertyOp5
 70
     1
102
RTVSPropertyOp6
 70
     1
102
RTVSPropertyOp7
 70
     1
102
RTVSPropertyOp8
 70
     1
102
RTVSPropertyOp9
 70
     1
102
RTVSPropertyOp10
 70
     1
102
RTVSPropertyOp11
 70
     1
102
RTVSPropertyOp12
 70
     1
102
RTVSPropertyOp13
 70
     1
102
RTVSPropertyOp14
 70
     1
102
RTVSPropertyOp15
 70
     1
102
RTVSPropertyOp16
 70
     1
102
RTVSPropertyOp17
 70
     1
102
RTVSPropertyOp18
 70
     1
102
RTVSPropertyOp19
 70
     1
102
RTVSPropertyOp20
 70
     1
102
RTVSPropertyOp21
 70
     1
102
RTVSPropertyOp22
 70
     1
102
RTVSPropertyOp23
 70
     1
102
RTVSPropertyOp24
 70
     1
102
RTVSPropertyOp25
 70
     1
102
RTVSPropertyOp26
 70
     1
102
RTVSPropertyOp27
 70
     1
102
RTVSPropertyOp28
 70
     1
102
RTVSPropertyOp29
 70
     1
102
RTVSPropertyOp30
 70
     1
102
RTVSPropertyOp31
 70
     1
102
RTVSPropertyOp32
 70
     1
  0
XRECORD
  5
7F
102
{ACAD_REACTORS
330
7E
102
}
330
7E
100
AcDbXrecord
280
     1
102
RTVSPropertyOp0
 70
     1
102
RTVSPropertyOp1
 70
     1
102
RTVSPropertyOp2
 70
     1
102
RTVSPropertyOp3
 70
     1
102
RTVSPropertyOp4
 70
     1
102
RTVSPropertyOp5
 70
     1
102
RTVSPropertyOp6
 70
     1
102
RTVSPropertyOp7
 70
     1
102
RTVSPropertyOp8
 70
     1
102
RTVSPropertyOp9
 70
     1
102
RTVSPropertyOp10
 70
     1
102
RTVSPropertyOp11
 70
     1
102
RTVSPropertyOp12
 70
     1
102
RTVSPropertyOp13
 70
     1
102
RTVSPropertyOp14
 70
     1
102
RTVSPropertyOp15
 70
     1
102
RTVSPropertyOp16
 70
     1
102
RTVSPropertyOp17
 70
     1
102
RTVSPropertyOp18
 70
     1
102
RTVSPropertyOp19
 70
     1
102
RTVSPropertyOp20
 70
     1
102
RTVSPropertyOp21
 70
     1
102
RTVSPropertyOp22
 70
     1
102
RTVSPropertyOp23
 70
     1
102
RTVSPropertyOp24
 70
     1
102
RTVSPropertyOp25
 70
     1
102
RTVSPropertyOp26
 70
     1
102
RTVSPropertyOp27
 70
     1
102
RTVSPropertyOp28
 70
     1
102
RTVSPropertyOp29
 70
     1
102
RTVSPropertyOp30
 70
     1
102
RTVSPropertyOp31
 70
     1
102
RTVSPropertyOp32
 70
     1
  0
XRECORD
  5
87
102
{ACAD_REACTORS
330
86
102
}
330
86
100
AcDbXrecord
280
     1
102
RTVSPropertyOp0
 70
     1
102
RTVSPropertyOp1
 70
     1
102
RTVSPropertyOp2
 70
     1
102
RTVSPropertyOp3
 70
     1
102
RTVSPropertyOp4
 70
     1
102
RTVSPropertyOp5
 70
     1
102
RTVSPropertyOp6
 70
     1
102
RTVSPropertyOp7
 70
     1
102
RTVSPropertyOp8
 70
     1
102
RTVSPropertyOp9
 70
     1
102
RTVSPropertyOp10
 70
     1
102
RTVSPropertyOp11
 70
     1
102
RTVSPropertyOp12
 70
     1
102
RTVSPropertyOp13
 70
     1
102
RTVSPropertyOp14
 70
     1
102
RTVSPropertyOp15
 70
     1
102
RTVSPropertyOp16
 70
     1
102
RTVSPropertyOp17
 70
     1
102
RTVSPropertyOp18
 70
     1
102
RTVSPropertyOp19
 70
     1
102
RTVSPropertyOp20
 70
     1
102
RTVSPropertyOp21
 70
     1
102
RTVSPropertyOp22
 70
     1
102
RTVSPropertyOp23
 70
     1
102
RTVSPropertyOp24
 70
     1
102
RTVSPropertyOp25
 70
     1
102
RTVSPropertyOp26
 70
     1
102
RTVSPropertyOp27
 70
     1
102
RTVSPropertyOp28
 70
     1
102
RTVSPropertyOp29
 70
     1
102
RTVSPropertyOp30
 70
     1
102
RTVSPropertyOp31
 70
     1
102
RTVSPropertyOp32
 70
     1
  0
XRECORD
  5
7B
102
{ACAD_REACTORS
330
7A
102
}
330
7A
100
AcDbXrecord
280
     1
102
RTVSPropertyOp0
 70
     1
102
RTVSPropertyOp1
 70
     1
102
RTVSPropertyOp2
 70
     1
102
RTVSPropertyOp3
 70
     1
102
RTVSPropertyOp4
 70
     1
102
RTVSPropertyOp5
 70
     1
102
RTVSPropertyOp6
 70
     1
102
RTVSPropertyOp7
 70
     1
102
RTVSPropertyOp8
 70
     1
102
RTVSPropertyOp9
 70
     1
102
RTVSPropertyOp10
 70
     1
102
RTVSPropertyOp11
 70
     1
102
RTVSPropertyOp12
 70
     1
102
RTVSPropertyOp13
 70
     1
102
RTVSPropertyOp14
 70
     1
102
RTVSPropertyOp15
 70
     1
102
RTVSPropertyOp16
 70
     1
102
RTVSPropertyOp17
 70
     1
102
RTVSPropertyOp18
 70
     1
102
RTVSPropertyOp19
 70
     1
102
RTVSPropertyOp20
 70
     1
102
RTVSPropertyOp21
 70
     1
102
RTVSPropertyOp22
 70
     1
102
RTVSPropertyOp23
 70
     1
102
RTVSPropertyOp24
 70
     1
102
RTVSPropertyOp25
 70
     1
102
RTVSPropertyOp26
 70
     1
102
RTVSPropertyOp27
 70
     1
102
RTVSPropertyOp28
 70
     1
102
RTVSPropertyOp29
 70
     1
102
RTVSPropertyOp30
 70
     1
102
RTVSPropertyOp31
 70
     1
102
RTVSPropertyOp32
 70
     1
  0
XRECORD
  5
7D
102
{ACAD_REACTORS
330
7C
102
}
330
7C
100
AcDbXrecord
280
     1
102
RTVSPropertyOp0
 70
     1
102
RTVSPropertyOp1
 70
     1
102
RTVSPropertyOp2
 70
     1
102
RTVSPropertyOp3
 70
     1
102
RTVSPropertyOp4
 70
     1
102
RTVSPropertyOp5
 70
     1
102
RTVSPropertyOp6
 70
     1
102
RTVSPropertyOp7
 70
     1
102
RTVSPropertyOp8
 70
     1
102
RTVSPropertyOp9
 70
     1
102
RTVSPropertyOp10
 70
     1
102
RTVSPropertyOp11
 70
     1
102
RTVSPropertyOp12
 70
     1
102
RTVSPropertyOp13
 70
     1
102
RTVSPropertyOp14
 70
     1
102
RTVSPropertyOp15
 70
     1
102
RTVSPropertyOp16
 70
     1
102
RTVSPropertyOp17
 70
     1
102
RTVSPropertyOp18
 70
     1
102
RTVSPropertyOp19
 70
     1
102
RTVSPropertyOp20
 70
     1
102
RTVSPropertyOp21
 70
     1
102
RTVSPropertyOp22
 70
     1
102
RTVSPropertyOp23
 70
     1
102
RTVSPropertyOp24
 70
     1
102
RTVSPropertyOp25
 70
     1
102
RTVSPropertyOp26
 70
     1
102
RTVSPropertyOp27
 70
     1
102
RTVSPropertyOp28
 70
     1
102
RTVSPropertyOp29
 70
     1
102
RTVSPropertyOp30
 70
     1
102
RTVSPropertyOp31
 70
     1
102
RTVSPropertyOp32
 70
     1
  0
XRECORD
  5
85
102
{ACAD_REACTORS
330
84
102
}
330
84
100
AcDbXrecord
280
     1
102
RTVSPropertyOp0
 70
     1
102
RTVSPropertyOp1
 70
     1
102
RTVSPropertyOp2
 70
     1
102
RTVSPropertyOp3
 70
     1
102
RTVSPropertyOp4
 70
     1
102
RTVSPropertyOp5
 70
     1
102
RTVSPropertyOp6
 70
     1
102
RTVSPropertyOp7
 70
     1
102
RTVSPropertyOp8
 70
     1
102
RTVSPropertyOp9
 70
     1
102
RTVSPropertyOp10
 70
     1
102
RTVSPropertyOp11
 70
     1
102
RTVSPropertyOp12
 70
     1
102
RTVSPropertyOp13
 70
     1
102
RTVSPropertyOp14
 70
     1
102
RTVSPropertyOp15
 70
     1
102
RTVSPropertyOp16
 70
     1
102
RTVSPropertyOp17
 70
     1
102
RTVSPropertyOp18
 70
     1
102
RTVSPropertyOp19
 70
     1
102
RTVSPropertyOp20
 70
     1
102
RTVSPropertyOp21
 70
     1
102
RTVSPropertyOp22
 70
     1
102
RTVSPropertyOp23
 70
     1
102
RTVSPropertyOp24
 70
     1
102
RTVSPropertyOp25
 70
     1
102
RTVSPropertyOp26
 70
     1
102
RTVSPropertyOp27
 70
     1
102
RTVSPropertyOp28
 70
     1
102
RTVSPropertyOp29
 70
     1
102
RTVSPropertyOp30
 70
     1
102
RTVSPropertyOp31
 70
     1
102
RTVSPropertyOp32
 70
     1
  0
XRECORD
  5
69
102
{ACAD_REACTORS
330
68
102
}
330
68
100
AcDbXrecord
280
     1
102
RTVSPropertyOp0
 70
     1
102
RTVSPropertyOp1
 70
     1
102
RTVSPropertyOp2
 70
     1
102
RTVSPropertyOp3
 70
     1
102
RTVSPropertyOp4
 70
     1
102
RTVSPropertyOp5
 70
     1
102
RTVSPropertyOp6
 70
     1
102
RTVSPropertyOp7
 70
     1
102
RTVSPropertyOp8
 70
     1
102
RTVSPropertyOp9
 70
     1
102
RTVSPropertyOp10
 70
     1
102
RTVSPropertyOp11
 70
     1
102
RTVSPropertyOp12
 70
     1
102
RTVSPropertyOp13
 70
     1
102
RTVSPropertyOp14
 70
     1
102
RTVSPropertyOp15
 70
     1
102
RTVSPropertyOp16
 70
     1
102
RTVSPropertyOp17
 70
     1
102
RTVSPropertyOp18
 70
     1
102
RTVSPropertyOp19
 70
     1
102
RTVSPropertyOp20
 70
     1
102
RTVSPropertyOp21
 70
     1
102
RTVSPropertyOp22
 70
     1
102
RTVSPropertyOp23
 70
     1
102
RTVSPropertyOp24
 70
     1
102
RTVSPropertyOp25
 70
     1
102
RTVSPropertyOp26
 70
     1
102
RTVSPropertyOp27
 70
     1
102
RTVSPropertyOp28
 70
     1
102
RTVSPropertyOp29
 70
     1
102
RTVSPropertyOp30
 70
     1
102
RTVSPropertyOp31
 70
     1
102
RTVSPropertyOp32
 70
     1
  0
XRECORD
  5
6B
102
{ACAD_REACTORS
330
6A
102
}
330
6A
100
AcDbXrecord
280
     1
102
RTVSPropertyOp0
 70
     1
102
RTVSPropertyOp1
 70
     1
102
RTVSPropertyOp2
 70
     1
102
RTVSPropertyOp3
 70
     1
102
RTVSPropertyOp4
 70
     1
102
RTVSPropertyOp5
 70
     1
102
RTVSPropertyOp6
 70
     1
102
RTVSPropertyOp7
 70
     1
102
RTVSPropertyOp8
 70
     1
102
RTVSPropertyOp9
 70
     1
102
RTVSPropertyOp10
 70
     1
102
RTVSPropertyOp11
 70
     1
102
RTVSPropertyOp12
 70
     1
102
RTVSPropertyOp13
 70
     1
102
RTVSPropertyOp14
 70
     1
102
RTVSPropertyOp15
 70
     1
102
RTVSPropertyOp16
 70
     1
102
RTVSPropertyOp17
 70
     1
102
RTVSPropertyOp18
 70
     1
102
RTVSPropertyOp19
 70
     1
102
RTVSPropertyOp20
 70
     1
102
RTVSPropertyOp21
 70
     1
102
RTVSPropertyOp22
 70
     1
102
RTVSPropertyOp23
 70
     1
102
RTVSPropertyOp24
 70
     1
102
RTVSPropertyOp25
 70
     1
102
RTVSPropertyOp26
 70
     1
102
RTVSPropertyOp27
 70
     1
102
RTVSPropertyOp28
 70
     1
102
RTVSPropertyOp29
 70
     1
102
RTVSPropertyOp30
 70
     1
102
RTVSPropertyOp31
 70
     1
102
RTVSPropertyOp32
 70
     1
  0
XRECORD
  5
6D
102
{ACAD_REACTORS
330
6C
102
}
330
6C
100
AcDbXrecord
280
     1
102
RTVSPropertyOp0
 70
     1
102
RTVSPropertyOp1
 70
     1
102
RTVSPropertyOp2
 70
     1
102
RTVSPropertyOp3
 70
     1
102
RTVSPropertyOp4
 70
     1
102
RTVSPropertyOp5
 70
     1
102
RTVSPropertyOp6
 70
     1
102
RTVSPropertyOp7
 70
     1
102
RTVSPropertyOp8
 70
     1
102
RTVSPropertyOp9
 70
     1
102
RTVSPropertyOp10
 70
     1
102
RTVSPropertyOp11
 70
     1
102
RTVSPropertyOp12
 70
     1
102
RTVSPropertyOp13
 70
     1
102
RTVSPropertyOp14
 70
     1
102
RTVSPropertyOp15
 70
     1
102
RTVSPropertyOp16
 70
     1
102
RTVSPropertyOp17
 70
     1
102
RTVSPropertyOp18
 70
     1
102
RTVSPropertyOp19
 70
     1
102
RTVSPropertyOp20
 70
     1
102
RTVSPropertyOp21
 70
     1
102
RTVSPropertyOp22
 70
     1
102
RTVSPropertyOp23
 70
     1
102
RTVSPropertyOp24
 70
     1
102
RTVSPropertyOp25
 70
     1
102
RTVSPropertyOp26
 70
     1
102
RTVSPropertyOp27
 70
     1
102
RTVSPropertyOp28
 70
     1
102
RTVSPropertyOp29
 70
     1
102
RTVSPropertyOp30
 70
     1
102
RTVSPropertyOp31
 70
     1
102
RTVSPropertyOp32
 70
     1
  0
XRECORD
  5
6F
102
{ACAD_REACTORS
330
6E
102
}
330
6E
100
AcDbXrecord
280
     1
102
RTVSPropertyOp0
 70
     1
102
RTVSPropertyOp1
 70
     1
102
RTVSPropertyOp2
 70
     1
102
RTVSPropertyOp3
 70
     1
102
RTVSPropertyOp4
 70
     1
102
RTVSPropertyOp5
 70
     1
102
RTVSPropertyOp6
 70
     1
102
RTVSPropertyOp7
 70
     1
102
RTVSPropertyOp8
 70
     1
102
RTVSPropertyOp9
 70
     1
102
RTVSPropertyOp10
 70
     1
102
RTVSPropertyOp11
 70
     1
102
RTVSPropertyOp12
 70
     1
102
RTVSPropertyOp13
 70
     1
102
RTVSPropertyOp14
 70
     1
102
RTVSPropertyOp15
 70
     1
102
RTVSPropertyOp16
 70
     1
102
RTVSPropertyOp17
 70
     1
102
RTVSPropertyOp18
 70
     1
102
RTVSPropertyOp19
 70
     1
102
RTVSPropertyOp20
 70
     1
102
RTVSPropertyOp21
 70
     1
102
RTVSPropertyOp22
 70
     1
102
RTVSPropertyOp23
 70
     1
102
RTVSPropertyOp24
 70
     1
102
RTVSPropertyOp25
 70
     1
102
RTVSPropertyOp26
 70
     1
102
RTVSPropertyOp27
 70
     1
102
RTVSPropertyOp28
 70
     1
102
RTVSPropertyOp29
 70
     1
102
RTVSPropertyOp30
 70
     1
102
RTVSPropertyOp31
 70
     1
102
RTVSPropertyOp32
 70
     1
  0
XRECORD
  5
83
102
{ACAD_REACTORS
330
82
102
}
330
82
100
AcDbXrecord
280
     1
102
RTVSPropertyOp0
 70
     1
102
RTVSPropertyOp1
 70
     1
102
RTVSPropertyOp2
 70
     1
102
RTVSPropertyOp3
 70
     1
102
RTVSPropertyOp4
 70
     1
102
RTVSPropertyOp5
 70
     1
102
RTVSPropertyOp6
 70
     1
102
RTVSPropertyOp7
 70
     1
102
RTVSPropertyOp8
 70
     1
102
RTVSPropertyOp9
 70
     1
102
RTVSPropertyOp10
 70
     1
102
RTVSPropertyOp11
 70
     1
102
RTVSPropertyOp12
 70
     1
102
RTVSPropertyOp13
 70
     1
102
RTVSPropertyOp14
 70
     1
102
RTVSPropertyOp15
 70
     1
102
RTVSPropertyOp16
 70
     1
102
RTVSPropertyOp17
 70
     1
102
RTVSPropertyOp18
 70
     1
102
RTVSPropertyOp19
 70
     1
102
RTVSPropertyOp20
 70
     1
102
RTVSPropertyOp21
 70
     1
102
RTVSPropertyOp22
 70
     1
102
RTVSPropertyOp23
 70
     1
102
RTVSPropertyOp24
 70
     1
102
RTVSPropertyOp25
 70
     1
102
RTVSPropertyOp26
 70
     1
102
RTVSPropertyOp27
 70
     1
102
RTVSPropertyOp28
 70
     1
102
RTVSPropertyOp29
 70
     1
102
RTVSPropertyOp30
 70
     1
102
RTVSPropertyOp31
 70
     1
102
RTVSPropertyOp32
 70
     1
  0
XRECORD
  5
79
102
{ACAD_REACTORS
330
78
102
}
330
78
100
AcDbXrecord
280
     1
102
RTVSPropertyOp0
 70
     1
102
RTVSPropertyOp1
 70
     1
102
RTVSPropertyOp2
 70
     1
102
RTVSPropertyOp3
 70
     1
102
RTVSPropertyOp4
 70
     1
102
RTVSPropertyOp5
 70
     1
102
RTVSPropertyOp6
 70
     1
102
RTVSPropertyOp7
 70
     1
102
RTVSPropertyOp8
 70
     1
102
RTVSPropertyOp9
 70
     1
102
RTVSPropertyOp10
 70
     1
102
RTVSPropertyOp11
 70
     1
102
RTVSPropertyOp12
 70
     1
102
RTVSPropertyOp13
 70
     1
102
RTVSPropertyOp14
 70
     1
102
RTVSPropertyOp15
 70
     1
102
RTVSPropertyOp16
 70
     1
102
RTVSPropertyOp17
 70
     1
102
RTVSPropertyOp18
 70
     1
102
RTVSPropertyOp19
 70
     1
102
RTVSPropertyOp20
 70
     1
102
RTVSPropertyOp21
 70
     1
102
RTVSPropertyOp22
 70
     1
102
RTVSPropertyOp23
 70
     1
102
RTVSPropertyOp24
 70
     1
102
RTVSPropertyOp25
 70
     1
102
RTVSPropertyOp26
 70
     1
102
RTVSPropertyOp27
 70
     1
102
RTVSPropertyOp28
 70
     1
102
RTVSPropertyOp29
 70
     1
102
RTVSPropertyOp30
 70
     1
102
RTVSPropertyOp31
 70
     1
102
RTVSPropertyOp32
 70
     1
  0
XRECORD
  5
81
102
{ACAD_REACTORS
330
80
102
}
330
80
100
AcDbXrecord
280
     1
102
RTVSPropertyOp0
 70
     1
102
RTVSPropertyOp1
 70
     1
102
RTVSPropertyOp2
 70
     1
102
RTVSPropertyOp3
 70
     1
102
RTVSPropertyOp4
 70
     1
102
RTVSPropertyOp5
 70
     1
102
RTVSPropertyOp6
 70
     1
102
RTVSPropertyOp7
 70
     1
102
RTVSPropertyOp8
 70
     1
102
RTVSPropertyOp9
 70
     1
102
RTVSPropertyOp10
 70
     1
102
RTVSPropertyOp11
 70
     1
102
RTVSPropertyOp12
 70
     1
102
RTVSPropertyOp13
 70
     1
102
RTVSPropertyOp14
 70
     1
102
RTVSPropertyOp15
 70
     1
102
RTVSPropertyOp16
 70
     1
102
RTVSPropertyOp17
 70
     1
102
RTVSPropertyOp18
 70
     1
102
RTVSPropertyOp19
 70
     1
102
RTVSPropertyOp20
 70
     1
102
RTVSPropertyOp21
 70
     1
102
RTVSPropertyOp22
 70
     1
102
RTVSPropertyOp23
 70
     1
102
RTVSPropertyOp24
 70
     1
102
RTVSPropertyOp25
 70
     1
102
RTVSPropertyOp26
 70
     1
102
RTVSPropertyOp27
 70
     1
102
RTVSPropertyOp28
 70
     1
102
RTVSPropertyOp29
 70
     1
102
RTVSPropertyOp30
 70
     1
102
RTVSPropertyOp31
 70
     1
102
RTVSPropertyOp32
 70
     1
  0
ENDSEC
  0
EOF
