  0
SECTION
  2
HEADER
  9
$ACADVER
  1
AC1021
  9
$ACADMAINTVER
 70
    25
  9
$DWGCODEPAGE
  3
ANSI_1256
  9
$INSBASE
 10
0.0
 20
0.0
 30
0.0
  9
$EXTMIN
 10
-85.1346
 20
-106.4953
 30
0.0
  9
$EXTMAX
 10
-17.0023
 20
131.777
 30
0.0
  9
$LIMMIN
 10
0.0
 20
0.0
  9
$LIMMAX
 10
12.0
 20
9.0
  9
$ORTHOMODE
 70
     0
  9
$REGENMODE
 70
     1
  9
$FILLMODE
 70
     1
  9
$QTEXTMODE
 70
     0
  9
$MIRRTEXT
 70
     1
  9
$LTSCALE
 40
1.0
  9
$ATTMODE
 70
     1
  9
$TEXTSIZE
 40
0.2
  9
$TRACEWID
 40
0.05
  9
$TEXTSTYLE
  7
Standard
  9
$CLAYER
  8
0
  9
$CELTYPE
  6
ByLayer
  9
$CECOLOR
 62
   256
  9
$CELTSCALE
 40
1.0
  9
$DISPSILH
 70
     0
  9
$DIMSCALE
 40
1.0
  9
$DIMASZ
 40
0.18
  9
$DIMEXO
 40
0.0625
  9
$DIMDLI
 40
0.38
  9
$DIMRND
 40
0.0
  9
$DIMDLE
 40
0.0
  9
$DIMEXE
 40
0.18
  9
$DIMTP
 40
0.0
  9
$DIMTM
 40
0.0
  9
$DIMTXT
 40
0.18
  9
$DIMCEN
 40
0.09
  9
$DIMTSZ
 40
0.0
  9
$DIMTOL
 70
     0
  9
$DIMLIM
 70
     0
  9
$DIMTIH
 70
     1
  9
$DIMTOH
 70
     1
  9
$DIMSE1
 70
     0
  9
$DIMSE2
 70
     0
  9
$DIMTAD
 70
     0
  9
$DIMZIN
 70
     0
  9
$DIMBLK
  1

  9
$DIMASO
 70
     1
  9
$DIMSHO
 70
     1
  9
$DIMPOST
  1

  9
$DIMAPOST
  1

  9
$DIMALT
 70
     0
  9
$DIMALTD
 70
     2
  9
$DIMALTF
 40
25.4
  9
$DIMLFAC
 40
1.0
  9
$DIMTOFL
 70
     0
  9
$DIMTVP
 40
0.0
  9
$DIMTIX
 70
     0
  9
$DIMSOXD
 70
     0
  9
$DIMSAH
 70
     0
  9
$DIMBLK1
  1

  9
$DIMBLK2
  1

  9
$DIMSTYLE
  2
Standard
  9
$DIMCLRD
 70
     0
  9
$DIMCLRE
 70
     0
  9
$DIMCLRT
 70
     0
  9
$DIMTFAC
 40
1.0
  9
$DIMGAP
 40
0.09
  9
$DIMJUST
 70
     0
  9
$DIMSD1
 70
     0
  9
$DIMSD2
 70
     0
  9
$DIMTOLJ
 70
     1
  9
$DIMTZIN
 70
     0
  9
$DIMALTZ
 70
     0
  9
$DIMALTTZ
 70
     0
  9
$DIMUPT
 70
     0
  9
$DIMDEC
 70
     4
  9
$DIMTDEC
 70
     4
  9
$DIMALTU
 70
     2
  9
$DIMALTTD
 70
     2
  9
$DIMTXSTY
  7
Standard
  9
$DIMAUNIT
 70
     0
  9
$DIMADEC
 70
     0
  9
$DIMALTRND
 40
0.0
  9
$DIMAZIN
 70
     0
  9
$DIMDSEP
 70
    46
  9
$DIMATFIT
 70
     3
  9
$DIMFRAC
 70
     0
  9
$DIMLDRBLK
  1

  9
$DIMLUNIT
 70
     2
  9
$DIMLWD
 70
    -2
  9
$DIMLWE
 70
    -2
  9
$DIMTMOVE
 70
     0
  9
$DIMFXL
 40
1.0
  9
$DIMFXLON
 70
     0
  9
$DIMJOGANG
 40
0.7853981633974483
  9
$DIMTFILL
 70
     0
  9
$DIMTFILLCLR
 70
     0
  9
$DIMARCSYM
 70
     0
  9
$DIMLTYPE
  6

  9
$DIMLTEX1
  6

  9
$DIMLTEX2
  6

  9
$LUNITS
 70
     2
  9
$LUPREC
 70
     4
  9
$SKETCHINC
 40
0.1
  9
$FILLETRAD
 40
0.5
  9
$AUNITS
 70
     0
  9
$AUPREC
 70
     0
  9
$MENU
  1
.
  9
$ELEVATION
 40
0.0
  9
$PELEVATION
 40
0.0
  9
$THICKNESS
 40
0.0
  9
$LIMCHECK
 70
     0
  9
$CHAMFERA
 40
0.5
  9
$CHAMFERB
 40
0.5
  9
$CHAMFERC
 40
1.0
  9
$CHAMFERD
 40
0.0
  9
$SKPOLY
 70
     0
  9
$TDCREATE
 40
2458492.921678137
  9
$TDUCREATE
 40
2458492.75501147
  9
$TDUPDATE
 40
2458492.921678218
  9
$TDUUPDATE
 40
2458492.755011551
  9
$TDINDWG
 40
0.0000000116
  9
$TDUSRTIMER
 40
0.0000000116
  9
$USRTIMER
 70
     1
  9
$ANGBASE
 50
0.0
  9
$ANGDIR
 70
     0
  9
$PDMODE
 70
     0
  9
$PDSIZE
 40
0.0
  9
$PLINEWID
 40
0.0
  9
$SPLFRAME
 70
     0
  9
$SPLINETYPE
 70
     6
  9
$SPLINESEGS
 70
     8
  9
$HANDSEED
  5
7E
  9
$SURFTAB1
 70
     6
  9
$SURFTAB2
 70
     6
  9
$SURFTYPE
 70
     6
  9
$SURFU
 70
     6
  9
$SURFV
 70
     6
  9
$UCSBASE
  2

  9
$UCSNAME
  2

  9
$UCSORG
 10
0.0
 20
0.0
 30
0.0
  9
$UCSXDIR
 10
1.0
 20
0.0
 30
0.0
  9
$UCSYDIR
 10
0.0
 20
1.0
 30
0.0
  9
$UCSORTHOREF
  2

  9
$UCSORTHOVIEW
 70
     0
  9
$UCSORGTOP
 10
0.0
 20
0.0
 30
0.0
  9
$UCSORGBOTTOM
 10
0.0
 20
0.0
 30
0.0
  9
$UCSORGLEFT
 10
0.0
 20
0.0
 30
0.0
  9
$UCSORGRIGHT
 10
0.0
 20
0.0
 30
0.0
  9
$UCSORGFRONT
 10
0.0
 20
0.0
 30
0.0
  9
$UCSORGBACK
 10
0.0
 20
0.0
 30
0.0
  9
$PUCSBASE
  2

  9
$PUCSNAME
  2

  9
$PUCSORG
 10
0.0
 20
0.0
 30
0.0
  9
$PUCSXDIR
 10
1.0
 20
0.0
 30
0.0
  9
$PUCSYDIR
 10
0.0
 20
1.0
 30
0.0
  9
$PUCSORTHOREF
  2

  9
$PUCSORTHOVIEW
 70
     0
  9
$PUCSORGTOP
 10
0.0
 20
0.0
 30
0.0
  9
$PUCSORGBOTTOM
 10
0.0
 20
0.0
 30
0.0
  9
$PUCSORGLEFT
 10
0.0
 20
0.0
 30
0.0
  9
$PUCSORGRIGHT
 10
0.0
 20
0.0
 30
0.0
  9
$PUCSORGFRONT
 10
0.0
 20
0.0
 30
0.0
  9
$PUCSORGBACK
 10
0.0
 20
0.0
 30
0.0
  9
$USERI1
 70
     0
  9
$USERI2
 70
     0
  9
$USERI3
 70
     0
  9
$USERI4
 70
     0
  9
$USERI5
 70
     0
  9
$USERR1
 40
0.0
  9
$USERR2
 40
0.0
  9
$USERR3
 40
0.0
  9
$USERR4
 40
0.0
  9
$USERR5
 40
0.0
  9
$WORLDVIEW
 70
     1
  9
$SHADEDGE
 70
     3
  9
$SHADEDIF
 70
    70
  9
$TILEMODE
 70
     1
  9
$MAXACTVP
 70
    64
  9
$PINSBASE
 10
0.0
 20
0.0
 30
0.0
  9
$PLIMCHECK
 70
     0
  9
$PEXTMIN
 10
1.000000000000000E+20
 20
1.000000000000000E+20
 30
1.000000000000000E+20
  9
$PEXTMAX
 10
-1.000000000000000E+20
 20
-1.000000000000000E+20
 30
-1.000000000000000E+20
  9
$PLIMMIN
 10
0.0
 20
0.0
  9
$PLIMMAX
 10
12.0
 20
9.0
  9
$UNITMODE
 70
     0
  9
$VISRETAIN
 70
     1
  9
$PLINEGEN
 70
     0
  9
$PSLTSCALE
 70
     1
  9
$TREEDEPTH
 70
  3020
  9
$CMLSTYLE
  2
Standard
  9
$CMLJUST
 70
     0
  9
$CMLSCALE
 40
1.0
  9
$PROXYGRAPHICS
 70
     1
  9
$MEASUREMENT
 70
     0
  9
$CELWEIGHT
370
    -1
  9
$ENDCAPS
280
     0
  9
$JOINSTYLE
280
     0
  9
$LWDISPLAY
290
     0
  9
$INSUNITS
 70
     4
  9
$HYPERLINKBASE
  1

  9
$STYLESHEET
  1

  9
$XEDIT
290
     1
  9
$CEPSNTYPE
380
     0
  9
$PSTYLEMODE
290
     1
  9
$FINGERPRINTGUID
  2
{5D91AC48-D2C4-473A-A9A5-C002537B6CDF}
  9
$VERSIONGUID
  2
{FAEB1C32-E019-11D5-929B-00C0DF256EC4}
  9
$EXTNAMES
290
     1
  9
$PSVPSCALE
 40
0.0
  9
$OLESTARTUP
290
     0
  9
$SORTENTS
280
   127
  9
$INDEXCTL
280
     0
  9
$HIDETEXT
280
     1
  9
$XCLIPFRAME
290
     0
  9
$HALOGAP
280
     0
  9
$OBSCOLOR
 70
   257
  9
$OBSLTYPE
280
     0
  9
$INTERSECTIONDISPLAY
280
     0
  9
$INTERSECTIONCOLOR
 70
   257
  9
$DIMASSOC
280
     2
  9
$PROJECTNAME
  1

  9
$CAMERADISPLAY
290
     0
  9
$LENSLENGTH
 40
50.0
  9
$CAMERAHEIGHT
 40
0.0
  9
$STEPSPERSEC
 40
2.0
  9
$STEPSIZE
 40
6.0
  9
$3DDWFPREC
 40
2.0
  9
$PSOLWIDTH
 40
0.25
  9
$PSOLHEIGHT
 40
4.0
  9
$LOFTANG1
 40
1.570796326794897
  9
$LOFTANG2
 40
1.570796326794897
  9
$LOFTMAG1
 40
0.0
  9
$LOFTMAG2
 40
0.0
  9
$LOFTPARAM
 70
     7
  9
$LOFTNORMALS
280
     1
  9
$LATITUDE
 40
37.795
  9
$LONGITUDE
 40
-122.394
  9
$NORTHDIRECTION
 40
0.0
  9
$TIMEZONE
 70
 -8000
  9
$LIGHTGLYPHDISPLAY
280
     1
  9
$TILEMODELIGHTSYNCH
280
     1
  9
$SOLIDHIST
280
     1
  9
$SHOWHIST
280
     1
  9
$DWFFRAME
280
     2
  9
$DGNFRAME
280
     2
  9
$REALWORLDSCALE
290
     1
  9
$INTERFERECOLOR
 62
   256
  9
$CSHADOW
280
     0
  9
$SHADOWPLANELOCATION
 40
0.0
  0
ENDSEC
  0
SECTION
  2
CLASSES
  0
CLASS
  1
ACDBDICTIONARYWDFLT
  2
AcDbDictionaryWithDefault
  3
ObjectDBX Classes
 90
        0
 91
        4
280
     0
281
     0
  0
CLASS
  1
VISUALSTYLE
  2
AcDbVisualStyle
  3
ObjectDBX Classes
 90
     4095
 91
        4
280
     0
281
     0
  0
CLASS
  1
MATERIAL
  2
AcDbMaterial
  3
ObjectDBX Classes
 90
     1153
 91
        4
280
     0
281
     0
  0
ENDSEC
  0
SECTION
  2
TABLES
  0
TABLE
  2
VPORT
  5
8
330
0
100
AcDbSymbolTable
 70
     1
  0
VPORT
  5
29
330
8
100
AcDbSymbolTableRecord
100
AcDbViewportTableRecord
  2
*Active
 70
     0
 10
0.0
 20
0.0
 11
1.0
 21
1.0
 12
10.42990654205607
 22
4.5
 13
0.0
 23
0.0
 14
0.5
 24
0.5
 15
0.5
 25
0.5
 16
0.0
 26
0.0
 36
1.0
 17
0.0
 27
0.0
 37
0.0
 40
9.0
 41
1.972972972850329
 42
50.0
 43
0.0
 44
0.0
 50
0.0
 51
0.0
 71
     0
 72
   100
 73
     1
 74
     3
 75
     0
 76
     0
 77
     0
 78
     0
281
     0
 65
     1
110
0.0
120
0.0
130
0.0
111
1.0
121
0.0
131
0.0
112
0.0
122
1.0
132
0.0
 79
     0
146
0.0
 60
     3
 61
     5
292
     1
282
     1
141
0.0
142
0.0
 63
   250
  0
ENDTAB
  0
TABLE
  2
LTYPE
  5
5
330
0
100
AcDbSymbolTable
 70
     1
  0
LTYPE
  5
14
330
5
100
AcDbSymbolTableRecord
100
AcDbLinetypeTableRecord
  2
ByBlock
 70
     0
  3

 72
    65
 73
     0
 40
0.0
  0
LTYPE
  5
15
330
5
100
AcDbSymbolTableRecord
100
AcDbLinetypeTableRecord
  2
ByLayer
 70
     0
  3

 72
    65
 73
     0
 40
0.0
  0
LTYPE
  5
16
330
5
100
AcDbSymbolTableRecord
100
AcDbLinetypeTableRecord
  2
Continuous
 70
     0
  3
Solid line
 72
    65
 73
     0
 40
0.0
  0
ENDTAB
  0
TABLE
  2
LAYER
  5
2
330
0
100
AcDbSymbolTable
 70
     2
  0
LAYER
  5
10
330
2
100
AcDbSymbolTableRecord
100
AcDbLayerTableRecord
  2
0
 70
     0
 62
     7
  6
Continuous
370
    -3
390
F
347
3E
  0
LAYER
  5
40
330
2
100
AcDbSymbolTableRecord
100
AcDbLayerTableRecord
  2
layer 1
 70
     0
 62
     7
  6
Continuous
370
    -3
390
F
347
3E
  0
ENDTAB
  0
TABLE
  2
STYLE
  5
3
330
0
100
AcDbSymbolTable
 70
     1
  0
STYLE
  5
11
330
3
100
AcDbSymbolTableRecord
100
AcDbTextStyleTableRecord
  2
Standard
 70
     0
 40
0.0
 41
1.0
 50
0.0
 71
     0
 42
0.2
  3
txt
  4

  0
ENDTAB
  0
TABLE
  2
VIEW
  5
6
330
0
100
AcDbSymbolTable
 70
     0
  0
ENDTAB
  0
TABLE
  2
UCS
  5
7
330
0
100
AcDbSymbolTable
 70
     0
  0
ENDTAB
  0
TABLE
  2
APPID
  5
9
330
0
100
AcDbSymbolTable
 70
     2
  0
APPID
  5
12
330
9
100
AcDbSymbolTableRecord
100
AcDbRegAppTableRecord
  2
ACAD
 70
     0
  0
APPID
  5
3F
330
9
100
AcDbSymbolTableRecord
100
AcDbRegAppTableRecord
  2
ODA
 70
     0
  0
ENDTAB
  0
TABLE
  2
DIMSTYLE
  5
A
330
0
100
AcDbSymbolTable
 70
     1
100
AcDbDimStyleTable
  0
DIMSTYLE
105
27
330
A
100
AcDbSymbolTableRecord
100
AcDbDimStyleTableRecord
  2
Standard
 70
     0
178
     0
340
11
  0
ENDTAB
  0
TABLE
  2
BLOCK_RECORD
  5
1
330
0
100
AcDbSymbolTable
 70
     1
  0
BLOCK_RECORD
  5
1F
330
1
100
AcDbSymbolTableRecord
100
AcDbBlockTableRecord
  2
*Model_Space
340
22
 70
     0
280
     1
281
     0
  0
BLOCK_RECORD
  5
1B
330
1
100
AcDbSymbolTableRecord
100
AcDbBlockTableRecord
  2
*Paper_Space
340
1E
 70
     0
280
     1
281
     0
  0
BLOCK_RECORD
  5
23
330
1
100
AcDbSymbolTableRecord
100
AcDbBlockTableRecord
  2
*Paper_Space0
340
26
 70
     0
280
     1
281
     0
  0
ENDTAB
  0
ENDSEC
  0
SECTION
  2
BLOCKS
  0
BLOCK
  5
20
330
1F
100
AcDbEntity
  8
0
100
AcDbBlockBegin
  2
*Model_Space
 70
     0
 10
0.0
 20
0.0
 30
0.0
  3
*Model_Space
  1

  0
ENDBLK
  5
21
330
1F
100
AcDbEntity
  8
0
100
AcDbBlockEnd
  0
BLOCK
  5
1C
330
1B
100
AcDbEntity
 67
     1
  8
0
100
AcDbBlockBegin
  2
*Paper_Space
 70
     0
 10
0.0
 20
0.0
 30
0.0
  3
*Paper_Space
  1

  0
ENDBLK
  5
1D
330
1B
100
AcDbEntity
 67
     1
  8
0
100
AcDbBlockEnd
  0
BLOCK
  5
24
330
23
100
AcDbEntity
  8
0
100
AcDbBlockBegin
  2
*Paper_Space0
 70
     0
 10
0.0
 20
0.0
 30
0.0
  3
*Paper_Space0
  1

  0
ENDBLK
  5
25
330
23
100
AcDbEntity
  8
0
100
AcDbBlockEnd
  0
ENDSEC
  0
SECTION
  2
ENTITIES
  0
SPLINE
  5
41
330
1F
100
AcDbEntity
  8
layer 1
 62
   250
370
     9
100
AcDbSpline
210
0.0
220
0.0
230
1.0
 70
    11
 71
     3
 72
    20
 73
    16
 74
     0
 42
0.0000000001
 43
0.0000000001
 12
1.0
 22
0.0
 32
0.0
 13
1.0
 23
0.0
 33
0.0
 40
0.0
 40
0.0
 40
0.0
 40
0.0
 40
0.2
 40
0.2
 40
0.2
 40
0.2
 40
0.4
 40
0.4
 40
0.4
 40
0.4
 40
0.6
 40
0.6
 40
0.6
 40
0.6
 40
1.0
 40
1.0
 40
1.0
 40
1.0
 10
-17.0404
 20
131.7389
 30
0.0
 10
-17.0404
 20
131.7389
 30
0.0
 10
-85.0965
 20
131.7389
 30
0.0
 10
-85.0965
 20
131.7389
 30
0.0
 10
-85.0965
 20
131.7389
 30
0.0
 10
-85.0965
 20
131.7389
 30
0.0
 10
-85.0965
 20
-106.4572
 30
0.0
 10
-85.0965
 20
-106.4572
 30
0.0
 10
-85.0965
 20
-106.4572
 30
0.0
 10
-85.0965
 20
-106.4572
 30
0.0
 10
-17.0404
 20
-106.4572
 30
0.0
 10
-17.0404
 20
-106.4572
 30
0.0
 10
-17.0404
 20
-106.4572
 30
0.0
 10
-17.0404
 20
-106.4572
 30
0.0
 10
-17.0404
 20
131.7389
 30
0.0
 10
-17.0404
 20
131.7389
 30
0.0
  0
SPLINE
  5
42
330
1F
100
AcDbEntity
  8
layer 1
 62
     7
370
     9
100
AcDbSpline
210
0.0
220
0.0
230
1.0
 70
    11
 71
     3
 72
    48
 73
    44
 74
     0
 42
0.0000000001
 43
0.0000000001
 12
1.0
 22
0.0
 32
0.0
 13
1.0
 23
0.0
 33
0.0
 40
0.0
 40
0.0
 40
0.0
 40
0.0
 40
0.0833333333333333
 40
0.0833333333333333
 40
0.0833333333333333
 40
0.0833333333333333
 40
0.1666666666666667
 40
0.1666666666666667
 40
0.1666666666666667
 40
0.1666666666666667
 40
0.25
 40
0.25
 40
0.25
 40
0.25
 40
0.3333333333333333
 40
0.3333333333333333
 40
0.3333333333333333
 40
0.3333333333333333
 40
0.4166666666666667
 40
0.4166666666666667
 40
0.4166666666666667
 40
0.4166666666666667
 40
0.5
 40
0.5
 40
0.5
 40
0.5
 40
0.5833333333333334
 40
0.5833333333333334
 40
0.5833333333333334
 40
0.5833333333333334
 40
0.6666666666666666
 40
0.6666666666666666
 40
0.6666666666666666
 40
0.6666666666666666
 40
0.75
 40
0.75
 40
0.75
 40
0.75
 40
0.8333333333333334
 40
0.8333333333333334
 40
0.8333333333333334
 40
0.8333333333333334
 40
1.0
 40
1.0
 40
1.0
 40
1.0
 10
-32.0084
 20
-100.805
 30
0.0
 10
-33.8057
 20
-96.1926
 30
0.0
 10
-28.2071
 20
-94.9639
 30
0.0
 10
-25.5002
 20
-96.8748
 30
0.0
 10
-25.5002
 20
-96.8748
 30
0.0
 10
-25.202
 20
-96.4583
 30
0.0
 10
-25.0261
 20
-96.19
 30
0.0
 10
-25.0261
 20
-96.19
 30
0.0
 10
-25.0261
 20
-96.19
 30
0.0
 10
-25.0261
 20
-96.19
 30
0.0
 10
-23.7853
 20
-95.315
 30
0.0
 10
-23.7118
 20
-94.717
 30
0.0
 10
-23.7118
 20
-94.717
 30
0.0
 10
-23.6142
 20
-93.9194
 30
0.0
 10
-24.7573
 20
-92.6067
 30
0.0
 10
-25.9031
 20
-92.4814
 30
0.0
 10
-25.9031
 20
-92.4814
 30
0.0
 10
-25.9031
 20
-92.4814
 30
0.0
 10
-26.0792
 20
-94.1553
 30
0.0
 10
-28.7096
 20
-93.8678
 30
0.0
 10
-28.7096
 20
-93.8678
 30
0.0
 10
-32.2144
 20
-93.4844
 30
0.0
 10
-32.3515
 20
-90.9738
 30
0.0
 10
-33.4378
 20
-88.9616
 30
0.0
 10
-33.4378
 20
-88.9616
 30
0.0
 10
-41.4927
 20
-93.1807
 30
0.0
 10
-52.9158
 20
-93.2068
 30
0.0
 10
-66.5562
 20
-85.7829
 30
0.0
 10
-66.5562
 20
-85.7829
 30
0.0
 10
-65.783
 20
-88.0779
 30
0.0
 10
-62.9713
 20
-90.6977
 30
0.0
 10
-58.0847
 20
-93.1958
 30
0.0
 10
-58.0847
 20
-93.1958
 30
0.0
 10
-57.8485
 20
-93.156
 30
0.0
 10
-57.6116
 20
-93.1027
 30
0.0
 10
-57.374
 20
-93.0317
 30
0.0
 10
-57.374
 20
-93.0317
 30
0.0
 10
-57.374
 20
-93.0317
 30
0.0
 10
-57.4502
 20
-93.1827
 30
0.0
 10
-57.5953
 20
-93.4421
 30
0.0
 10
-57.5953
 20
-93.4421
 30
0.0
 10
-51.8264
 20
-96.3012
 30
0.0
 10
-43.3188
 20
-98.9808
 30
0.0
 10
-32.0084
 20
-100.805
 30
0.0
  0
SPLINE
  5
43
330
1F
100
AcDbEntity
  8
layer 1
 62
     7
370
     9
100
AcDbSpline
210
0.0
220
0.0
230
1.0
 70
    11
 71
     3
 72
    88
 73
    84
 74
     0
 42
0.0000000001
 43
0.0000000001
 12
1.0
 22
0.0
 32
0.0
 13
1.0
 23
0.0
 33
0.0
 40
0.0
 40
0.0
 40
0.0
 40
0.0
 40
0.0454545454545455
 40
0.0454545454545455
 40
0.0454545454545455
 40
0.0454545454545455
 40
0.0909090909090909
 40
0.0909090909090909
 40
0.0909090909090909
 40
0.0909090909090909
 40
0.1363636363636364
 40
0.1363636363636364
 40
0.1363636363636364
 40
0.1363636363636364
 40
0.1818181818181818
 40
0.1818181818181818
 40
0.1818181818181818
 40
0.1818181818181818
 40
0.2272727272727273
 40
0.2272727272727273
 40
0.2272727272727273
 40
0.2272727272727273
 40
0.2727272727272727
 40
0.2727272727272727
 40
0.2727272727272727
 40
0.2727272727272727
 40
0.3181818181818182
 40
0.3181818181818182
 40
0.3181818181818182
 40
0.3181818181818182
 40
0.3636363636363636
 40
0.3636363636363636
 40
0.3636363636363636
 40
0.3636363636363636
 40
0.4090909090909091
 40
0.4090909090909091
 40
0.4090909090909091
 40
0.4090909090909091
 40
0.4545454545454545
 40
0.4545454545454545
 40
0.4545454545454545
 40
0.4545454545454545
 40
0.5
 40
0.5
 40
0.5
 40
0.5
 40
0.5454545454545454
 40
0.5454545454545454
 40
0.5454545454545454
 40
0.5454545454545454
 40
0.5909090909090909
 40
0.5909090909090909
 40
0.5909090909090909
 40
0.5909090909090909
 40
0.6363636363636364
 40
0.6363636363636364
 40
0.6363636363636364
 40
0.6363636363636364
 40
0.6818181818181818
 40
0.6818181818181818
 40
0.6818181818181818
 40
0.6818181818181818
 40
0.7272727272727273
 40
0.7272727272727273
 40
0.7272727272727273
 40
0.7272727272727273
 40
0.7727272727272727
 40
0.7727272727272727
 40
0.7727272727272727
 40
0.7727272727272727
 40
0.8181818181818182
 40
0.8181818181818182
 40
0.8181818181818182
 40
0.8181818181818182
 40
0.8636363636363636
 40
0.8636363636363636
 40
0.8636363636363636
 40
0.8636363636363636
 40
0.9090909090909091
 40
0.9090909090909091
 40
0.9090909090909091
 40
0.9090909090909091
 40
1.0
 40
1.0
 40
1.0
 40
1.0
 10
-32.2402
 20
128.3362
 30
0.0
 10
-32.2402
 20
128.3362
 30
0.0
 10
-37.7707
 20
128.3362
 30
0.0
 10
-37.7707
 20
128.3362
 30
0.0
 10
-37.7707
 20
128.3362
 30
0.0
 10
-39.2687
 20
127.5257
 30
0.0
 10
-41.2704
 20
126.1682
 30
0.0
 10
-44.0995
 20
124.0378
 30
0.0
 10
-44.0995
 20
124.0378
 30
0.0
 10
-40.5954
 20
123.647
 30
0.0
 10
-37.3237
 20
126.0062
 30
0.0
 10
-33.3148
 20
125.2788
 30
0.0
 10
-33.3148
 20
125.2788
 30
0.0
 10
-29.3012
 20
124.5513
 30
0.0
 10
-28.5477
 20
120.4833
 30
0.0
 10
-23.7442
 20
115.7268
 30
0.0
 10
-23.7442
 20
115.7268
 30
0.0
 10
-27.3874
 20
116.2581
 30
0.0
 10
-30.9974
 20
113.7422
 30
0.0
 10
-37.4816
 20
116.7396
 30
0.0
 10
-37.4816
 20
116.7396
 30
0.0
 10
-41.6717
 20
118.3054
 30
0.0
 10
-39.4492
 20
120.5281
 30
0.0
 10
-45.4575
 20
122.8479
 30
0.0
 10
-45.4575
 20
122.8479
 30
0.0
 10
-47.8833
 20
121.2266
 30
0.0
 10
-50.2934
 20
119.493
 30
0.0
 10
-51.3642
 20
116.826
 30
0.0
 10
-51.3642
 20
116.826
 30
0.0
 10
-52.0825
 20
114.3793
 30
0.0
 10
-54.7618
 20
110.7266
 30
0.0
 10
-56.831
 20
109.1761
 30
0.0
 10
-56.831
 20
109.1761
 30
0.0
 10
-56.894
 20
108.1028
 30
0.0
 10
-48.1093
 20
113.7782
 30
0.0
 10
-46.0077
 20
113.4513
 30
0.0
 10
-46.0077
 20
113.4513
 30
0.0
 10
-41.3612
 20
113.4713
 30
0.0
 10
-38.3154
 20
109.7275
 30
0.0
 10
-31.8202
 20
107.1202
 30
0.0
 10
-31.8202
 20
107.1202
 30
0.0
 10
-41.1815
 20
106.4666
 30
0.0
 10
-45.8581
 20
103.7564
 30
0.0
 10
-48.8843
 20
103.5526
 30
0.0
 10
-48.8843
 20
103.5526
 30
0.0
 10
-51.8023
 20
103.3569
 30
0.0
 10
-52.3903
 20
105.0764
 30
0.0
 10
-58.143
 20
107.1334
 30
0.0
 10
-58.143
 20
107.1334
 30
0.0
 10
-58.8455
 20
105.8532
 30
0.0
 10
-61.8607
 20
101.2684
 30
0.0
 10
-64.1627
 20
99.4095
 30
0.0
 10
-64.1627
 20
99.4095
 30
0.0
 10
-61.8476
 20
97.4269
 30
0.0
 10
-59.3853
 20
95.5191
 30
0.0
 10
-56.7727
 20
93.6676
 30
0.0
 10
-56.7727
 20
93.6676
 30
0.0
 10
-54.6211
 20
92.4436
 30
0.0
 10
-52.4003
 20
90.9402
 30
0.0
 10
-50.1652
 20
89.201
 30
0.0
 10
-50.1652
 20
89.201
 30
0.0
 10
-38.7207
 20
86.5679
 30
0.0
 10
-31.6207
 20
84.8097
 30
0.0
 10
-26.3121
 20
105.0961
 30
0.0
 10
-26.3121
 20
105.0961
 30
0.0
 10
-23.3789
 20
101.3818
 30
0.0
 10
-21.2785
 20
97.4989
 30
0.0
 10
-24.5279
 20
92.487
 30
0.0
 10
-24.5279
 20
92.487
 30
0.0
 10
-23.1543
 20
93.0779
 30
0.0
 10
-21.7836
 20
93.3745
 30
0.0
 10
-20.4433
 20
93.3934
 30
0.0
 10
-20.4433
 20
93.3934
 30
0.0
 10
-20.4433
 20
93.3934
 30
0.0
 10
-20.4433
 20
126.5091
 30
0.0
 10
-20.4433
 20
126.5091
 30
0.0
 10
-20.4433
 20
126.5091
 30
0.0
 10
-21.3329
 20
126.039
 30
0.0
 10
-22.1868
 20
125.7506
 30
0.0
 10
-23.0321
 20
125.7897
 30
0.0
 10
-23.0321
 20
125.7897
 30
0.0
 10
-28.5312
 20
125.8066
 30
0.0
 10
-30.6808
 20
127.2898
 30
0.0
 10
-32.2402
 20
128.3362
 30
0.0
  0
SPLINE
  5
44
330
1F
100
AcDbEntity
  8
layer 1
 62
     7
370
     9
100
AcDbSpline
210
0.0
220
0.0
230
1.0
 70
    11
 71
     3
 72
    20
 73
    16
 74
     0
 42
0.0000000001
 43
0.0000000001
 12
1.0
 22
0.0
 32
0.0
 13
1.0
 23
0.0
 33
0.0
 40
0.0
 40
0.0
 40
0.0
 40
0.0
 40
0.2
 40
0.2
 40
0.2
 40
0.2
 40
0.4
 40
0.4
 40
0.4
 40
0.4
 40
0.6
 40
0.6
 40
0.6
 40
0.6
 40
1.0
 40
1.0
 40
1.0
 40
1.0
 10
-41.1406
 20
128.3362
 30
0.0
 10
-41.1406
 20
128.3362
 30
0.0
 10
-45.5609
 20
128.3362
 30
0.0
 10
-45.5609
 20
128.3362
 30
0.0
 10
-45.5609
 20
128.3362
 30
0.0
 10
-46.2794
 20
127.1066
 30
0.0
 10
-46.9139
 20
125.5628
 30
0.0
 10
-47.3442
 20
123.5433
 30
0.0
 10
-47.3442
 20
123.5433
 30
0.0
 10
-46.27
 20
124.3313
 30
0.0
 10
-45.4802
 20
125.2832
 30
0.0
 10
-44.1465
 20
126.3336
 30
0.0
 10
-44.1465
 20
126.3336
 30
0.0
 10
-43.2592
 20
126.9219
 30
0.0
 10
-42.2159
 20
127.6292
 30
0.0
 10
-41.1406
 20
128.3362
 30
0.0
  0
SPLINE
  5
45
330
1F
100
AcDbEntity
  8
layer 1
 62
     7
370
     9
100
AcDbSpline
210
0.0
220
0.0
230
1.0
 70
    11
 71
     3
 72
    20
 73
    16
 74
     0
 42
0.0000000001
 43
0.0000000001
 12
1.0
 22
0.0
 32
0.0
 13
1.0
 23
0.0
 33
0.0
 40
0.0
 40
0.0
 40
0.0
 40
0.0
 40
0.2
 40
0.2
 40
0.2
 40
0.2
 40
0.4
 40
0.4
 40
0.4
 40
0.4
 40
0.6
 40
0.6
 40
0.6
 40
0.6
 40
1.0
 40
1.0
 40
1.0
 40
1.0
 10
-49.009
 20
128.3362
 30
0.0
 10
-49.009
 20
128.3362
 30
0.0
 10
-53.1453
 20
128.3362
 30
0.0
 10
-53.1453
 20
128.3362
 30
0.0
 10
-53.1453
 20
128.3362
 30
0.0
 10
-52.8828
 20
125.8288
 30
0.0
 10
-52.4565
 20
122.5554
 30
0.0
 10
-50.8483
 20
120.345
 30
0.0
 10
-50.8483
 20
120.345
 30
0.0
 10
-49.7929
 20
121.8055
 30
0.0
 10
-49.0057
 20
122.6881
 30
0.0
 10
-48.334
 20
123.0169
 30
0.0
 10
-48.334
 20
123.0169
 30
0.0
 10
-48.3255
 20
124.4755
 30
0.0
 10
-48.6344
 20
126.3632
 30
0.0
 10
-49.009
 20
128.3362
 30
0.0
  0
SPLINE
  5
46
330
1F
100
AcDbEntity
  8
layer 1
 62
     7
370
     9
100
AcDbSpline
210
0.0
220
0.0
230
1.0
 70
    11
 71
     3
 72
    72
 73
    68
 74
     0
 42
0.0000000001
 43
0.0000000001
 12
1.0
 22
0.0
 32
0.0
 13
1.0
 23
0.0
 33
0.0
 40
0.0
 40
0.0
 40
0.0
 40
0.0
 40
0.0555555555555556
 40
0.0555555555555556
 40
0.0555555555555556
 40
0.0555555555555556
 40
0.1111111111111111
 40
0.1111111111111111
 40
0.1111111111111111
 40
0.1111111111111111
 40
0.1666666666666667
 40
0.1666666666666667
 40
0.1666666666666667
 40
0.1666666666666667
 40
0.2222222222222222
 40
0.2222222222222222
 40
0.2222222222222222
 40
0.2222222222222222
 40
0.2777777777777778
 40
0.2777777777777778
 40
0.2777777777777778
 40
0.2777777777777778
 40
0.3333333333333333
 40
0.3333333333333333
 40
0.3333333333333333
 40
0.3333333333333333
 40
0.3888888888888889
 40
0.3888888888888889
 40
0.3888888888888889
 40
0.3888888888888889
 40
0.4444444444444444
 40
0.4444444444444444
 40
0.4444444444444444
 40
0.4444444444444444
 40
0.5
 40
0.5
 40
0.5
 40
0.5
 40
0.5555555555555556
 40
0.5555555555555556
 40
0.5555555555555556
 40
0.5555555555555556
 40
0.6111111111111112
 40
0.6111111111111112
 40
0.6111111111111112
 40
0.6111111111111112
 40
0.6666666666666666
 40
0.6666666666666666
 40
0.6666666666666666
 40
0.6666666666666666
 40
0.7222222222222222
 40
0.7222222222222222
 40
0.7222222222222222
 40
0.7222222222222222
 40
0.7777777777777778
 40
0.7777777777777778
 40
0.7777777777777778
 40
0.7777777777777778
 40
0.8333333333333334
 40
0.8333333333333334
 40
0.8333333333333334
 40
0.8333333333333334
 40
0.8888888888888888
 40
0.8888888888888888
 40
0.8888888888888888
 40
0.8888888888888888
 40
1.0
 40
1.0
 40
1.0
 40
1.0
 10
-61.8635
 20
128.3362
 30
0.0
 10
-61.8635
 20
128.3362
 30
0.0
 10
-70.8293
 20
128.3362
 30
0.0
 10
-70.8293
 20
128.3362
 30
0.0
 10
-70.8293
 20
128.3362
 30
0.0
 10
-69.9709
 20
127.8929
 30
0.0
 10
-69.2289
 20
127.2322
 30
0.0
 10
-68.6253
 20
126.3814
 30
0.0
 10
-68.6253
 20
126.3814
 30
0.0
 10
-70.0143
 20
125.4272
 30
0.0
 10
-71.5881
 20
124.9558
 30
0.0
 10
-74.4811
 20
125.8178
 30
0.0
 10
-74.4811
 20
125.8178
 30
0.0
 10
-73.8459
 20
121.3656
 30
0.0
 10
-75.0783
 20
119.6986
 30
0.0
 10
-77.2036
 20
118.8464
 30
0.0
 10
-77.2036
 20
118.8464
 30
0.0
 10
-76.5549
 20
121.7413
 30
0.0
 10
-76.1485
 20
124.6712
 30
0.0
 10
-79.683
 20
126.3086
 30
0.0
 10
-79.683
 20
126.3086
 30
0.0
 10
-80.3809
 20
126.6225
 30
0.0
 10
-81.0504
 20
126.9355
 30
0.0
 10
-81.6938
 20
127.2481
 30
0.0
 10
-81.6938
 20
127.2481
 30
0.0
 10
-81.6938
 20
127.2481
 30
0.0
 10
-81.6938
 20
120.8719
 30
0.0
 10
-81.6938
 20
120.8719
 30
0.0
 10
-81.6938
 20
120.8719
 30
0.0
 10
-77.7038
 20
113.4417
 30
0.0
 10
-72.603
 20
107.0656
 30
0.0
 10
-66.3349
 20
101.3318
 30
0.0
 10
-66.3349
 20
101.3318
 30
0.0
 10
-65.4486
 20
102.0574
 30
0.0
 10
-64.5326
 20
102.9329
 30
0.0
 10
-63.6117
 20
103.8831
 30
0.0
 10
-63.6117
 20
103.8831
 30
0.0
 10
-65.0402
 20
108.1089
 30
0.0
 10
-67.2844
 20
107.5587
 30
0.0
 10
-69.8178
 20
111.6606
 30
0.0
 10
-69.8178
 20
111.6606
 30
0.0
 10
-72.3552
 20
115.7726
 30
0.0
 10
-67.9444
 20
118.5498
 30
0.0
 10
-66.1631
 20
124.6303
 30
0.0
 10
-66.1631
 20
124.6303
 30
0.0
 10
-67.3691
 20
121.2162
 30
0.0
 10
-62.5195
 20
118.208
 30
0.0
 10
-61.6593
 20
113.7415
 30
0.0
 10
-61.6593
 20
113.7415
 30
0.0
 10
-60.8026
 20
109.2801
 30
0.0
 10
-63.5838
 20
112.1395
 30
0.0
 10
-62.2406
 20
104.9237
 30
0.0
 10
-62.2406
 20
104.9237
 30
0.0
 10
-60.7506
 20
106.4616
 30
0.0
 10
-60.613
 20
107.1593
 30
0.0
 10
-59.2096
 20
108.7802
 30
0.0
 10
-59.2096
 20
108.7802
 30
0.0
 10
-57.718
 20
110.5013
 30
0.0
 10
-56.309
 20
112.1277
 30
0.0
 10
-55.1594
 20
113.2288
 30
0.0
 10
-55.1594
 20
113.2288
 30
0.0
 10
-53.0734
 20
115.2187
 30
0.0
 10
-53.2558
 20
117.6365
 30
0.0
 10
-52.1144
 20
119.7091
 30
0.0
 10
-52.1144
 20
119.7091
 30
0.0
 10
-54.7181
 20
123.0759
 30
0.0
 10
-60.0624
 20
123.5828
 30
0.0
 10
-61.8635
 20
128.3362
 30
0.0
  0
SPLINE
  5
47
330
1F
100
AcDbEntity
  8
layer 1
 62
     7
370
     9
100
AcDbSpline
210
0.0
220
0.0
230
1.0
 70
    11
 71
     3
 72
    24
 73
    20
 74
     0
 42
0.0000000001
 43
0.0000000001
 12
1.0
 22
0.0
 32
0.0
 13
1.0
 23
0.0
 33
0.0
 40
0.0
 40
0.0
 40
0.0
 40
0.0
 40
0.1666666666666667
 40
0.1666666666666667
 40
0.1666666666666667
 40
0.1666666666666667
 40
0.3333333333333333
 40
0.3333333333333333
 40
0.3333333333333333
 40
0.3333333333333333
 40
0.5
 40
0.5
 40
0.5
 40
0.5
 40
0.6666666666666666
 40
0.6666666666666666
 40
0.6666666666666666
 40
0.6666666666666666
 40
1.0
 40
1.0
 40
1.0
 40
1.0
 10
-81.6938
 20
114.5827
 30
0.0
 10
-81.6938
 20
114.5827
 30
0.0
 10
-81.6938
 20
99.3607
 30
0.0
 10
-81.6938
 20
99.3607
 30
0.0
 10
-81.6938
 20
99.3607
 30
0.0
 10
-81.1126
 20
99.4757
 30
0.0
 10
-80.6236
 20
99.709
 30
0.0
 10
-80.3692
 20
100.0382
 30
0.0
 10
-80.3692
 20
100.0382
 30
0.0
 10
-79.8467
 20
100.715
 30
0.0
 10
-80.2261
 20
102.8372
 30
0.0
 10
-80.2261
 20
102.8372
 30
0.0
 10
-80.2261
 20
102.8372
 30
0.0
 10
-80.2261
 20
102.8372
 30
0.0
 10
-79.238
 20
107.732
 30
0.0
 10
-79.6318
 20
111.2271
 30
0.0
 10
-79.6318
 20
111.2271
 30
0.0
 10
-80.3581
 20
112.3216
 30
0.0
 10
-81.0453
 20
113.4396
 30
0.0
 10
-81.6938
 20
114.5827
 30
0.0
  0
SPLINE
  5
48
330
1F
100
AcDbEntity
  8
layer 1
 62
     7
370
     9
100
AcDbSpline
210
0.0
220
0.0
230
1.0
 70
    11
 71
     3
 72
    16
 73
    12
 74
     0
 42
0.0000000001
 43
0.0000000001
 12
1.0
 22
0.0
 32
0.0
 13
1.0
 23
0.0
 33
0.0
 40
0.0
 40
0.0
 40
0.0
 40
0.0
 40
0.25
 40
0.25
 40
0.25
 40
0.25
 40
0.5
 40
0.5
 40
0.5
 40
0.5
 40
1.0
 40
1.0
 40
1.0
 40
1.0
 10
-81.6938
 20
98.4008
 30
0.0
 10
-81.6938
 20
98.4008
 30
0.0
 10
-81.6938
 20
98.3753
 30
0.0
 10
-81.6938
 20
98.3753
 30
0.0
 10
-81.6938
 20
98.3753
 30
0.0
 10
-81.6938
 20
98.3753
 30
0.0
 10
-81.5894
 20
98.4581
 30
0.0
 10
-81.5894
 20
98.4581
 30
0.0
 10
-81.5894
 20
98.4581
 30
0.0
 10
-81.5894
 20
98.4581
 30
0.0
 10
-81.6229
 20
98.4345
 30
0.0
 10
-81.6938
 20
98.4008
 30
0.0
  0
SPLINE
  5
49
330
1F
100
AcDbEntity
  8
layer 1
 62
     7
370
     9
100
AcDbSpline
210
0.0
220
0.0
230
1.0
 70
    11
 71
     3
 72
    16
 73
    12
 74
     0
 42
0.0000000001
 43
0.0000000001
 12
1.0
 22
0.0
 32
0.0
 13
1.0
 23
0.0
 33
0.0
 40
0.0
 40
0.0
 40
0.0
 40
0.0
 40
0.25
 40
0.25
 40
0.25
 40
0.25
 40
0.5
 40
0.5
 40
0.5
 40
0.5
 40
1.0
 40
1.0
 40
1.0
 40
1.0
 10
-81.6938
 20
90.7231
 30
0.0
 10
-81.6938
 20
90.7231
 30
0.0
 10
-81.6938
 20
85.2371
 30
0.0
 10
-81.6938
 20
85.2371
 30
0.0
 10
-81.6938
 20
85.2371
 30
0.0
 10
-80.9137
 20
85.4319
 30
0.0
 10
-80.137
 20
85.5917
 30
0.0
 10
-79.3665
 20
85.7185
 30
0.0
 10
-79.3665
 20
85.7185
 30
0.0
 10
-80.1407
 20
87.5711
 30
0.0
 10
-81.1469
 20
89.2441
 30
0.0
 10
-81.6938
 20
90.7231
 30
0.0
  0
SPLINE
  5
4A
330
1F
100
AcDbEntity
  8
layer 1
 62
     7
370
     9
100
AcDbSpline
210
0.0
220
0.0
230
1.0
 70
    11
 71
     3
 72
    52
 73
    48
 74
     0
 42
0.0000000001
 43
0.0000000001
 12
1.0
 22
0.0
 32
0.0
 13
1.0
 23
0.0
 33
0.0
 40
0.0
 40
0.0
 40
0.0
 40
0.0
 40
0.0769230769230769
 40
0.0769230769230769
 40
0.0769230769230769
 40
0.0769230769230769
 40
0.1538461538461539
 40
0.1538461538461539
 40
0.1538461538461539
 40
0.1538461538461539
 40
0.2307692307692308
 40
0.2307692307692308
 40
0.2307692307692308
 40
0.2307692307692308
 40
0.3076923076923077
 40
0.3076923076923077
 40
0.3076923076923077
 40
0.3076923076923077
 40
0.3846153846153846
 40
0.3846153846153846
 40
0.3846153846153846
 40
0.3846153846153846
 40
0.4615384615384616
 40
0.4615384615384616
 40
0.4615384615384616
 40
0.4615384615384616
 40
0.5384615384615384
 40
0.5384615384615384
 40
0.5384615384615384
 40
0.5384615384615384
 40
0.6153846153846154
 40
0.6153846153846154
 40
0.6153846153846154
 40
0.6153846153846154
 40
0.6923076923076923
 40
0.6923076923076923
 40
0.6923076923076923
 40
0.6923076923076923
 40
0.7692307692307693
 40
0.7692307692307693
 40
0.7692307692307693
 40
0.7692307692307693
 40
0.8461538461538461
 40
0.8461538461538461
 40
0.8461538461538461
 40
0.8461538461538461
 40
1.0
 40
1.0
 40
1.0
 40
1.0
 10
-81.6938
 20
81.4181
 30
0.0
 10
-81.6938
 20
81.4181
 30
0.0
 10
-81.6938
 20
65.8821
 30
0.0
 10
-81.6938
 20
65.8821
 30
0.0
 10
-81.6938
 20
65.8821
 30
0.0
 10
-78.5229
 20
64.6892
 30
0.0
 10
-74.8653
 20
65.2937
 30
0.0
 10
-73.2816
 20
69.444
 30
0.0
 10
-73.2816
 20
69.444
 30
0.0
 10
-74.5857
 20
69.3357
 30
0.0
 10
-75.5319
 20
69.3879
 30
0.0
 10
-76.1699
 20
69.6154
 30
0.0
 10
-76.1699
 20
69.6154
 30
0.0
 10
-78.4974
 20
70.4451
 30
0.0
 10
-78.0248
 20
74.108
 30
0.0
 10
-74.7052
 20
74.6506
 30
0.0
 10
-74.7052
 20
74.6506
 30
0.0
 10
-69.0451
 20
75.5766
 30
0.0
 10
-67.3036
 20
63.0236
 30
0.0
 10
-79.5998
 20
62.5069
 30
0.0
 10
-79.5998
 20
62.5069
 30
0.0
 10
-80.3262
 20
62.5545
 30
0.0
 10
-81.0248
 20
62.66
 30
0.0
 10
-81.6938
 20
62.8162
 30
0.0
 10
-81.6938
 20
62.8162
 30
0.0
 10
-81.6938
 20
62.8162
 30
0.0
 10
-81.6938
 20
39.6011
 30
0.0
 10
-81.6938
 20
39.6011
 30
0.0
 10
-81.6938
 20
39.6011
 30
0.0
 10
-80.0716
 20
37.3362
 30
0.0
 10
-80.514
 20
34.9787
 30
0.0
 10
-79.6518
 20
35.0014
 30
0.0
 10
-79.6518
 20
35.0014
 30
0.0
 10
-78.5919
 20
34.6267
 30
0.0
 10
-77.4687
 20
34.1837
 30
0.0
 10
-76.4786
 20
33.7549
 30
0.0
 10
-76.4786
 20
33.7549
 30
0.0
 10
-77.8577
 20
39.5012
 30
0.0
 10
-76.9207
 20
46.1901
 30
0.0
 10
-72.6115
 20
53.1939
 30
0.0
 10
-72.6115
 20
53.1939
 30
0.0
 10
-68.2866
 20
60.2204
 30
0.0
 10
-62.8171
 20
68.4057
 30
0.0
 10
-63.8925
 20
74.5805
 30
0.0
 10
-63.8925
 20
74.5805
 30
0.0
 10
-65.3014
 20
82.6621
 30
0.0
 10
-75.185
 20
84.2877
 30
0.0
 10
-81.6938
 20
81.4181
 30
0.0
  0
SPLINE
  5
4B
330
1F
100
AcDbEntity
  8
layer 1
 62
     7
370
     9
100
AcDbSpline
210
0.0
220
0.0
230
1.0
 70
    11
 71
     3
 72
    44
 73
    40
 74
     0
 42
0.0000000001
 43
0.0000000001
 12
1.0
 22
0.0
 32
0.0
 13
1.0
 23
0.0
 33
0.0
 40
0.0
 40
0.0
 40
0.0
 40
0.0
 40
0.0909090909090909
 40
0.0909090909090909
 40
0.0909090909090909
 40
0.0909090909090909
 40
0.1818181818181818
 40
0.1818181818181818
 40
0.1818181818181818
 40
0.1818181818181818
 40
0.2727272727272727
 40
0.2727272727272727
 40
0.2727272727272727
 40
0.2727272727272727
 40
0.3636363636363636
 40
0.3636363636363636
 40
0.3636363636363636
 40
0.3636363636363636
 40
0.4545454545454545
 40
0.4545454545454545
 40
0.4545454545454545
 40
0.4545454545454545
 40
0.5454545454545454
 40
0.5454545454545454
 40
0.5454545454545454
 40
0.5454545454545454
 40
0.6363636363636364
 40
0.6363636363636364
 40
0.6363636363636364
 40
0.6363636363636364
 40
0.7272727272727273
 40
0.7272727272727273
 40
0.7272727272727273
 40
0.7272727272727273
 40
0.8181818181818182
 40
0.8181818181818182
 40
0.8181818181818182
 40
0.8181818181818182
 40
1.0
 40
1.0
 40
1.0
 40
1.0
 10
-81.6938
 20
34.8955
 30
0.0
 10
-81.6938
 20
34.8955
 30
0.0
 10
-81.6938
 20
6.8355
 30
0.0
 10
-81.6938
 20
6.8355
 30
0.0
 10
-81.6938
 20
6.8355
 30
0.0
 10
-80.6257
 20
6.9492
 30
0.0
 10
-79.5066
 20
6.8938
 30
0.0
 10
-78.3477
 20
6.658
 30
0.0
 10
-78.3477
 20
6.658
 30
0.0
 10
-82.136
 20
10.8946
 30
0.0
 10
-80.8709
 20
15.1321
 30
0.0
 10
-78.7632
 20
19.3677
 30
0.0
 10
-78.7632
 20
19.3677
 30
0.0
 10
-68.5321
 20
-6.1277
 30
0.0
 10
-31.031
 20
13.2042
 30
0.0
 10
-23.1445
 20
30.3642
 30
0.0
 10
-23.1445
 20
30.3642
 30
0.0
 10
-22.852
 20
33.7042
 30
0.0
 10
-23.0159
 20
37.2346
 30
0.0
 10
-23.5815
 20
40.9387
 30
0.0
 10
-23.5815
 20
40.9387
 30
0.0
 10
-25.8428
 20
29.0366
 30
0.0
 10
-31.3413
 20
21.3049
 30
0.0
 10
-40.0702
 20
17.7464
 30
0.0
 10
-40.0702
 20
17.7464
 30
0.0
 10
-55.0641
 20
11.636
 30
0.0
 10
-71.3343
 20
18.8789
 30
0.0
 10
-75.8505
 20
31.6214
 30
0.0
 10
-75.8505
 20
31.6214
 30
0.0
 10
-77.5379
 20
32.831
 30
0.0
 10
-79.5585
 20
33.7641
 30
0.0
 10
-79.5585
 20
33.7641
 30
0.0
 10
-79.5585
 20
33.7641
 30
0.0
 10
-79.5585
 20
33.7641
 30
0.0
 10
-80.557
 20
34.8097
 30
0.0
 10
-81.1305
 20
34.7949
 30
0.0
 10
-81.1305
 20
34.7949
 30
0.0
 10
-81.3257
 20
34.8287
 30
0.0
 10
-81.5116
 20
34.8623
 30
0.0
 10
-81.6938
 20
34.8955
 30
0.0
  0
SPLINE
  5
4C
330
1F
100
AcDbEntity
  8
layer 1
 62
     7
370
     9
100
AcDbSpline
210
0.0
220
0.0
230
1.0
 70
    11
 71
     3
 72
    52
 73
    48
 74
     0
 42
0.0000000001
 43
0.0000000001
 12
1.0
 22
0.0
 32
0.0
 13
1.0
 23
0.0
 33
0.0
 40
0.0
 40
0.0
 40
0.0
 40
0.0
 40
0.0769230769230769
 40
0.0769230769230769
 40
0.0769230769230769
 40
0.0769230769230769
 40
0.1538461538461539
 40
0.1538461538461539
 40
0.1538461538461539
 40
0.1538461538461539
 40
0.2307692307692308
 40
0.2307692307692308
 40
0.2307692307692308
 40
0.2307692307692308
 40
0.3076923076923077
 40
0.3076923076923077
 40
0.3076923076923077
 40
0.3076923076923077
 40
0.3846153846153846
 40
0.3846153846153846
 40
0.3846153846153846
 40
0.3846153846153846
 40
0.4615384615384616
 40
0.4615384615384616
 40
0.4615384615384616
 40
0.4615384615384616
 40
0.5384615384615384
 40
0.5384615384615384
 40
0.5384615384615384
 40
0.5384615384615384
 40
0.6153846153846154
 40
0.6153846153846154
 40
0.6153846153846154
 40
0.6153846153846154
 40
0.6923076923076923
 40
0.6923076923076923
 40
0.6923076923076923
 40
0.6923076923076923
 40
0.7692307692307693
 40
0.7692307692307693
 40
0.7692307692307693
 40
0.7692307692307693
 40
0.8461538461538461
 40
0.8461538461538461
 40
0.8461538461538461
 40
0.8461538461538461
 40
1.0
 40
1.0
 40
1.0
 40
1.0
 10
-81.6938
 20
0.864
 30
0.0
 10
-81.6938
 20
0.864
 30
0.0
 10
-81.6938
 20
-8.6981
 30
0.0
 10
-81.6938
 20
-8.6981
 30
0.0
 10
-81.6938
 20
-8.6981
 30
0.0
 10
-79.7963
 20
-10.5365
 30
0.0
 10
-77.2863
 20
-11.7572
 30
0.0
 10
-78.1368
 20
-15.7405
 30
0.0
 10
-78.1368
 20
-15.7405
 30
0.0
 10
-78.8116
 20
-18.9023
 30
0.0
 10
-80.8212
 20
-18.4649
 30
0.0
 10
-80.8212
 20
-18.4649
 30
0.0
 10
-80.8212
 20
-18.4649
 30
0.0
 10
-81.1153
 20
-19.8424
 30
0.0
 10
-80.0307
 20
-21.6722
 30
0.0
 10
-79.0676
 20
-21.8646
 30
0.0
 10
-79.0676
 20
-21.8646
 30
0.0
 10
-78.3459
 20
-22.0087
 30
0.0
 10
-76.8546
 20
-20.9047
 30
0.0
 10
-76.8546
 20
-20.9047
 30
0.0
 10
-76.8546
 20
-20.9047
 30
0.0
 10
-76.8546
 20
-20.9047
 30
0.0
 10
-72.4847
 20
-19.7366
 30
0.0
 10
-69.9638
 20
-18.0261
 30
0.0
 10
-69.9638
 20
-18.0261
 30
0.0
 10
-64.6253
 20
-10.7765
 30
0.0
 10
-56.8013
 20
-3.6818
 30
0.0
 10
-45.0652
 20
3.1929
 30
0.0
 10
-45.0652
 20
3.1929
 30
0.0
 10
-33.6602
 20
8.1698
 30
0.0
 10
-27.2001
 20
15.0441
 30
0.0
 10
-24.5063
 20
23.4557
 30
0.0
 10
-24.5063
 20
23.4557
 30
0.0
 10
-33.4423
 20
13.118
 30
0.0
 10
-51.7341
 20
1.2476
 30
0.0
 10
-69.4935
 20
0.4962
 30
0.0
 10
-69.4935
 20
0.4962
 30
0.0
 10
-75.8107
 20
-1.4299
 30
0.0
 10
-76.2401
 20
-6.0528
 30
0.0
 10
-75.8107
 20
-11.444
 30
0.0
 10
-75.8107
 20
-11.444
 30
0.0
 10
-79.1844
 20
-9.5188
 30
0.0
 10
-80.4495
 20
-6.0528
 30
0.0
 10
-78.3477
 20
0.8806
 30
0.0
 10
-78.3477
 20
0.8806
 30
0.0
 10
-79.5856
 20
0.7865
 30
0.0
 10
-80.6963
 20
0.7849
 30
0.0
 10
-81.6938
 20
0.864
 30
0.0
  0
SPLINE
  5
4D
330
1F
100
AcDbEntity
  8
layer 1
 62
     7
370
     9
100
AcDbSpline
210
0.0
220
0.0
230
1.0
 70
    11
 71
     3
 72
    16
 73
    12
 74
     0
 42
0.0000000001
 43
0.0000000001
 12
1.0
 22
0.0
 32
0.0
 13
1.0
 23
0.0
 33
0.0
 40
0.0
 40
0.0
 40
0.0
 40
0.0
 40
0.25
 40
0.25
 40
0.25
 40
0.25
 40
0.5
 40
0.5
 40
0.5
 40
0.5
 40
1.0
 40
1.0
 40
1.0
 40
1.0
 10
-81.6938
 20
-20.1054
 30
0.0
 10
-81.6938
 20
-20.1054
 30
0.0
 10
-81.6938
 20
-21.0995
 30
0.0
 10
-81.6938
 20
-21.0995
 30
0.0
 10
-81.6938
 20
-21.0995
 30
0.0
 10
-81.3775
 20
-21.2382
 30
0.0
 10
-81.0633
 20
-21.3815
 30
0.0
 10
-80.7526
 20
-21.528
 30
0.0
 10
-80.7526
 20
-21.528
 30
0.0
 10
-80.7526
 20
-21.528
 30
0.0
 10
-81.2819
 20
-21.2421
 30
0.0
 10
-81.6938
 20
-20.1054
 30
0.0
  0
SPLINE
  5
4E
330
1F
100
AcDbEntity
  8
layer 1
 62
     7
370
     9
100
AcDbSpline
210
0.0
220
0.0
230
1.0
 70
    11
 71
     3
 72
    24
 73
    20
 74
     0
 42
0.0000000001
 43
0.0000000001
 12
1.0
 22
0.0
 32
0.0
 13
1.0
 23
0.0
 33
0.0
 40
0.0
 40
0.0
 40
0.0
 40
0.0
 40
0.1666666666666667
 40
0.1666666666666667
 40
0.1666666666666667
 40
0.1666666666666667
 40
0.3333333333333333
 40
0.3333333333333333
 40
0.3333333333333333
 40
0.3333333333333333
 40
0.5
 40
0.5
 40
0.5
 40
0.5
 40
0.6666666666666666
 40
0.6666666666666666
 40
0.6666666666666666
 40
0.6666666666666666
 40
1.0
 40
1.0
 40
1.0
 40
1.0
 10
-81.6938
 20
-28.5639
 30
0.0
 10
-81.6938
 20
-28.5639
 30
0.0
 10
-81.6938
 20
-47.2306
 30
0.0
 10
-81.6938
 20
-47.2306
 30
0.0
 10
-81.6938
 20
-47.2306
 30
0.0
 10
-81.5627
 20
-47.112
 30
0.0
 10
-81.4298
 20
-46.995
 30
0.0
 10
-81.2932
 20
-46.8804
 30
0.0
 10
-81.2932
 20
-46.8804
 30
0.0
 10
-79.8279
 20
-38.2583
 30
0.0
 10
-77.5255
 20
-29.7309
 30
0.0
 10
-72.2629
 20
-21.3931
 30
0.0
 10
-72.2629
 20
-21.3931
 30
0.0
 10
-73.7653
 20
-21.7795
 30
0.0
 10
-75.5697
 20
-22.1642
 30
0.0
 10
-77.2431
 20
-22.4488
 30
0.0
 10
-77.2431
 20
-22.4488
 30
0.0
 10
-78.4389
 20
-22.21
 30
0.0
 10
-78.264
 20
-25.9705
 30
0.0
 10
-81.6938
 20
-28.5639
 30
0.0
  0
SPLINE
  5
4F
330
1F
100
AcDbEntity
  8
layer 1
 62
     7
370
     9
100
AcDbSpline
210
0.0
220
0.0
230
1.0
 70
    11
 71
     3
 72
    40
 73
    36
 74
     0
 42
0.0000000001
 43
0.0000000001
 12
1.0
 22
0.0
 32
0.0
 13
1.0
 23
0.0
 33
0.0
 40
0.0
 40
0.0
 40
0.0
 40
0.0
 40
0.1
 40
0.1
 40
0.1
 40
0.1
 40
0.2
 40
0.2
 40
0.2
 40
0.2
 40
0.3
 40
0.3
 40
0.3
 40
0.3
 40
0.4
 40
0.4
 40
0.4
 40
0.4
 40
0.5
 40
0.5
 40
0.5
 40
0.5
 40
0.6
 40
0.6
 40
0.6
 40
0.6
 40
0.7
 40
0.7
 40
0.7
 40
0.7
 40
0.8
 40
0.8
 40
0.8
 40
0.8
 40
1.0
 40
1.0
 40
1.0
 40
1.0
 10
-81.6938
 20
-52.4678
 30
0.0
 10
-81.6938
 20
-52.4678
 30
0.0
 10
-81.6938
 20
-74.5663
 30
0.0
 10
-81.6938
 20
-74.5663
 30
0.0
 10
-81.6938
 20
-74.5663
 30
0.0
 10
-79.7723
 20
-81.7196
 30
0.0
 10
-77.2326
 20
-88.8879
 30
0.0
 10
-76.6581
 20
-94.3843
 30
0.0
 10
-76.6581
 20
-94.3843
 30
0.0
 10
-75.9946
 20
-96.3707
 30
0.0
 10
-75.3031
 20
-97.9088
 30
0.0
 10
-75.3031
 20
-97.9088
 30
0.0
 10
-75.3031
 20
-97.9088
 30
0.0
 10
-75.3031
 20
-97.9088
 30
0.0
 10
-75.2009
 20
-100.1082
 30
0.0
 10
-74.5273
 20
-100.664
 30
0.0
 10
-74.5273
 20
-100.664
 30
0.0
 10
-73.6285
 20
-101.4056
 30
0.0
 10
-71.1326
 20
-101.0318
 30
0.0
 10
-70.0858
 20
-99.7288
 30
0.0
 10
-70.0858
 20
-99.7288
 30
0.0
 10
-70.0858
 20
-99.7288
 30
0.0
 10
-71.9944
 20
-98.2082
 30
0.0
 10
-69.5918
 20
-95.2172
 30
0.0
 10
-69.5918
 20
-95.2172
 30
0.0
 10
-68.1007
 20
-93.361
 30
0.0
 10
-66.6149
 20
-92.7584
 30
0.0
 10
-65.119
 20
-92.6677
 30
0.0
 10
-65.119
 20
-92.6677
 30
0.0
 10
-76.8552
 20
-83.3578
 30
0.0
 10
-80.6107
 20
-68.9866
 30
0.0
 10
-80.561
 20
-51.5023
 30
0.0
 10
-80.561
 20
-51.5023
 30
0.0
 10
-81.0095
 20
-51.8005
 30
0.0
 10
-81.3803
 20
-52.1209
 30
0.0
 10
-81.6938
 20
-52.4678
 30
0.0
  0
SPLINE
  5
50
330
1F
100
AcDbEntity
  8
layer 1
 62
     7
370
     9
100
AcDbSpline
210
0.0
220
0.0
230
1.0
 70
    11
 71
     3
 72
    12
 73
     8
 74
     0
 42
0.0000000001
 43
0.0000000001
 12
1.0
 22
0.0
 32
0.0
 13
1.0
 23
0.0
 33
0.0
 40
0.0
 40
0.0
 40
0.0
 40
0.0
 40
0.3333333333333333
 40
0.3333333333333333
 40
0.3333333333333333
 40
0.3333333333333333
 40
1.0
 40
1.0
 40
1.0
 40
1.0
 10
-81.6938
 20
-88.0746
 30
0.0
 10
-81.6938
 20
-88.0746
 30
0.0
 10
-81.6938
 20
-99.945
 30
0.0
 10
-81.6938
 20
-99.945
 30
0.0
 10
-81.6938
 20
-99.945
 30
0.0
 10
-79.5344
 20
-97.5964
 30
0.0
 10
-80.3622
 20
-92.6771
 30
0.0
 10
-81.6938
 20
-88.0746
 30
0.0
  0
SPLINE
  5
51
330
1F
100
AcDbEntity
  8
layer 1
 62
     7
370
     9
100
AcDbSpline
210
0.0
220
0.0
230
1.0
 70
    11
 71
     3
 72
    24
 73
    20
 74
     0
 42
0.0000000001
 43
0.0000000001
 12
1.0
 22
0.0
 32
0.0
 13
1.0
 23
0.0
 33
0.0
 40
0.0
 40
0.0
 40
0.0
 40
0.0
 40
0.1666666666666667
 40
0.1666666666666667
 40
0.1666666666666667
 40
0.1666666666666667
 40
0.3333333333333333
 40
0.3333333333333333
 40
0.3333333333333333
 40
0.3333333333333333
 40
0.5
 40
0.5
 40
0.5
 40
0.5
 40
0.6666666666666666
 40
0.6666666666666666
 40
0.6666666666666666
 40
0.6666666666666666
 40
1.0
 40
1.0
 40
1.0
 40
1.0
 10
-79.5306
 20
-103.0543
 30
0.0
 10
-79.5306
 20
-103.0543
 30
0.0
 10
-77.6494
 20
-103.0543
 30
0.0
 10
-77.6494
 20
-103.0543
 30
0.0
 10
-77.6494
 20
-103.0543
 30
0.0
 10
-76.7682
 20
-101.1319
 30
0.0
 10
-75.769
 20
-99.9709
 30
0.0
 10
-76.4325
 20
-99.4235
 30
0.0
 10
-76.4325
 20
-99.4235
 30
0.0
 10
-76.5371
 20
-99.2388
 30
0.0
 10
-76.6415
 20
-99.0518
 30
0.0
 10
-76.7459
 20
-98.8632
 30
0.0
 10
-76.7459
 20
-98.8632
 30
0.0
 10
-76.9101
 20
-99.7015
 30
0.0
 10
-77.1777
 20
-100.4575
 30
0.0
 10
-77.5663
 20
-101.12
 30
0.0
 10
-77.5663
 20
-101.12
 30
0.0
 10
-78.0506
 20
-101.9459
 30
0.0
 10
-78.73
 20
-102.5855
 30
0.0
 10
-79.5306
 20
-103.0543
 30
0.0
  0
SPLINE
  5
52
330
1F
100
AcDbEntity
  8
layer 1
 62
     7
370
     9
100
AcDbSpline
210
0.0
220
0.0
230
1.0
 70
    11
 71
     3
 72
    28
 73
    24
 74
     0
 42
0.0000000001
 43
0.0000000001
 12
1.0
 22
0.0
 32
0.0
 13
1.0
 23
0.0
 33
0.0
 40
0.0
 40
0.0
 40
0.0
 40
0.0
 40
0.1428571428571428
 40
0.1428571428571428
 40
0.1428571428571428
 40
0.1428571428571428
 40
0.2857142857142857
 40
0.2857142857142857
 40
0.2857142857142857
 40
0.2857142857142857
 40
0.4285714285714285
 40
0.4285714285714285
 40
0.4285714285714285
 40
0.4285714285714285
 40
0.5714285714285714
 40
0.5714285714285714
 40
0.5714285714285714
 40
0.5714285714285714
 40
0.7142857142857143
 40
0.7142857142857143
 40
0.7142857142857143
 40
0.7142857142857143
 40
1.0
 40
1.0
 40
1.0
 40
1.0
 10
-70.8206
 20
-103.0543
 30
0.0
 10
-70.8206
 20
-103.0543
 30
0.0
 10
-38.2018
 20
-103.0543
 30
0.0
 10
-38.2018
 20
-103.0543
 30
0.0
 10
-38.2018
 20
-103.0543
 30
0.0
 10
-46.8637
 20
-101.765
 30
0.0
 10
-53.8842
 20
-99.496
 30
0.0
 10
-59.5322
 20
-96.3726
 30
0.0
 10
-59.5322
 20
-96.3726
 30
0.0
 10
-60.7514
 20
-97.9555
 30
0.0
 10
-62.4221
 20
-99.6916
 30
0.0
 10
-64.3734
 20
-100.582
 30
0.0
 10
-64.3734
 20
-100.582
 30
0.0
 10
-68.5011
 20
-102.4631
 30
0.0
 10
-69.4039
 20
-101.0312
 30
0.0
 10
-69.4039
 20
-101.0312
 30
0.0
 10
-69.4039
 20
-101.0312
 30
0.0
 10
-71.7986
 20
-102.4409
 30
0.0
 10
-72.9547
 20
-101.9615
 30
0.0
 10
-72.9547
 20
-101.9615
 30
0.0
 10
-72.9547
 20
-101.9615
 30
0.0
 10
-72.2361
 20
-102.3055
 30
0.0
 10
-71.5187
 20
-102.6727
 30
0.0
 10
-70.8206
 20
-103.0543
 30
0.0
  0
SPLINE
  5
53
330
1F
100
AcDbEntity
  8
layer 1
 62
     7
370
     9
100
AcDbSpline
210
0.0
220
0.0
230
1.0
 70
    11
 71
     3
 72
    28
 73
    24
 74
     0
 42
0.0000000001
 43
0.0000000001
 12
1.0
 22
0.0
 32
0.0
 13
1.0
 23
0.0
 33
0.0
 40
0.0
 40
0.0
 40
0.0
 40
0.0
 40
0.1428571428571428
 40
0.1428571428571428
 40
0.1428571428571428
 40
0.1428571428571428
 40
0.2857142857142857
 40
0.2857142857142857
 40
0.2857142857142857
 40
0.2857142857142857
 40
0.4285714285714285
 40
0.4285714285714285
 40
0.4285714285714285
 40
0.4285714285714285
 40
0.5714285714285714
 40
0.5714285714285714
 40
0.5714285714285714
 40
0.5714285714285714
 40
0.7142857142857143
 40
0.7142857142857143
 40
0.7142857142857143
 40
0.7142857142857143
 40
1.0
 40
1.0
 40
1.0
 40
1.0
 10
-26.1032
 20
-103.0543
 30
0.0
 10
-26.1032
 20
-103.0543
 30
0.0
 10
-20.4433
 20
-103.0543
 30
0.0
 10
-20.4433
 20
-103.0543
 30
0.0
 10
-20.4433
 20
-103.0543
 30
0.0
 10
-20.4433
 20
-103.0543
 30
0.0
 10
-20.4433
 20
-95.518
 30
0.0
 10
-20.4433
 20
-95.518
 30
0.0
 10
-20.4433
 20
-95.518
 30
0.0
 10
-22.2496
 20
-95.9132
 30
0.0
 10
-23.6427
 20
-95.602
 30
0.0
 10
-23.7265
 20
-96.2848
 30
0.0
 10
-23.7265
 20
-96.2848
 30
0.0
 10
-23.9967
 20
-96.794
 30
0.0
 10
-24.2861
 20
-97.3163
 30
0.0
 10
-24.5812
 20
-97.8294
 30
0.0
 10
-24.5812
 20
-97.8294
 30
0.0
 10
-24.5247
 20
-97.9196
 30
0.0
 10
-24.472
 20
-98.0125
 30
0.0
 10
-24.4252
 20
-98.1094
 30
0.0
 10
-24.4252
 20
-98.1094
 30
0.0
 10
-23.9743
 20
-100.5784
 30
0.0
 10
-24.7255
 20
-102.1676
 30
0.0
 10
-26.1032
 20
-103.0543
 30
0.0
  0
SPLINE
  5
54
330
1F
100
AcDbEntity
  8
layer 1
 62
     7
370
     9
100
AcDbSpline
210
0.0
220
0.0
230
1.0
 70
    11
 71
     3
 72
    24
 73
    20
 74
     0
 42
0.0000000001
 43
0.0000000001
 12
1.0
 22
0.0
 32
0.0
 13
1.0
 23
0.0
 33
0.0
 40
0.0
 40
0.0
 40
0.0
 40
0.0
 40
0.1666666666666667
 40
0.1666666666666667
 40
0.1666666666666667
 40
0.1666666666666667
 40
0.3333333333333333
 40
0.3333333333333333
 40
0.3333333333333333
 40
0.3333333333333333
 40
0.5
 40
0.5
 40
0.5
 40
0.5
 40
0.6666666666666666
 40
0.6666666666666666
 40
0.6666666666666666
 40
0.6666666666666666
 40
1.0
 40
1.0
 40
1.0
 40
1.0
 10
-20.4433
 20
-89.7714
 30
0.0
 10
-20.4433
 20
-89.7714
 30
0.0
 10
-20.4433
 20
-88.2972
 30
0.0
 10
-20.4433
 20
-88.2972
 30
0.0
 10
-20.4433
 20
-88.2972
 30
0.0
 10
-21.6269
 20
-89.0898
 30
0.0
 10
-22.8856
 20
-89.8264
 30
0.0
 10
-22.9869
 20
-90.6532
 30
0.0
 10
-22.9869
 20
-90.6532
 30
0.0
 10
-23.1336
 20
-91.8494
 30
0.0
 10
-22.9959
 20
-92.573
 30
0.0
 10
-22.9959
 20
-92.573
 30
0.0
 10
-22.9959
 20
-92.573
 30
0.0
 10
-22.9959
 20
-92.573
 30
0.0
 10
-22.4569
 20
-91.1907
 30
0.0
 10
-20.5031
 20
-89.8128
 30
0.0
 10
-20.5031
 20
-89.8128
 30
0.0
 10
-20.4835
 20
-89.7989
 30
0.0
 10
-20.4635
 20
-89.785
 30
0.0
 10
-20.4433
 20
-89.7714
 30
0.0
  0
SPLINE
  5
55
330
1F
100
AcDbEntity
  8
layer 1
 62
     7
370
     9
100
AcDbSpline
210
0.0
220
0.0
230
1.0
 70
    11
 71
     3
 72
    56
 73
    52
 74
     0
 42
0.0000000001
 43
0.0000000001
 12
1.0
 22
0.0
 32
0.0
 13
1.0
 23
0.0
 33
0.0
 40
0.0
 40
0.0
 40
0.0
 40
0.0
 40
0.0714285714285714
 40
0.0714285714285714
 40
0.0714285714285714
 40
0.0714285714285714
 40
0.1428571428571428
 40
0.1428571428571428
 40
0.1428571428571428
 40
0.1428571428571428
 40
0.2142857142857143
 40
0.2142857142857143
 40
0.2142857142857143
 40
0.2142857142857143
 40
0.2857142857142857
 40
0.2857142857142857
 40
0.2857142857142857
 40
0.2857142857142857
 40
0.3571428571428572
 40
0.3571428571428572
 40
0.3571428571428572
 40
0.3571428571428572
 40
0.4285714285714285
 40
0.4285714285714285
 40
0.4285714285714285
 40
0.4285714285714285
 40
0.5
 40
0.5
 40
0.5
 40
0.5
 40
0.5714285714285714
 40
0.5714285714285714
 40
0.5714285714285714
 40
0.5714285714285714
 40
0.6428571428571429
 40
0.6428571428571429
 40
0.6428571428571429
 40
0.6428571428571429
 40
0.7142857142857143
 40
0.7142857142857143
 40
0.7142857142857143
 40
0.7142857142857143
 40
0.7857142857142857
 40
0.7857142857142857
 40
0.7857142857142857
 40
0.7857142857142857
 40
0.8571428571428571
 40
0.8571428571428571
 40
0.8571428571428571
 40
0.8571428571428571
 40
1.0
 40
1.0
 40
1.0
 40
1.0
 10
-20.4433
 20
-82.4551
 30
0.0
 10
-20.4433
 20
-82.4551
 30
0.0
 10
-20.4433
 20
-23.2435
 30
0.0
 10
-20.4433
 20
-23.2435
 30
0.0
 10
-20.4433
 20
-23.2435
 30
0.0
 10
-21.6452
 20
-25.2835
 30
0.0
 10
-23.7829
 20
-26.8817
 30
0.0
 10
-26.9483
 20
-28.0079
 30
0.0
 10
-26.9483
 20
-28.0079
 30
0.0
 10
-35.3742
 20
-31.474
 30
0.0
 10
-42.5352
 20
-21.0748
 30
0.0
 10
-35.7956
 20
-18.7624
 30
0.0
 10
-35.7956
 20
-18.7624
 30
0.0
 10
-30.7495
 20
-17.6068
 30
0.0
 10
-30.7495
 20
-22.9999
 30
0.0
 10
-32.4298
 20
-24.5419
 30
0.0
 10
-32.4298
 20
-24.5419
 30
0.0
 10
-31.172
 20
-27.6207
 30
0.0
 10
-23.1602
 20
-26.0808
 30
0.0
 10
-22.7457
 20
-20.6896
 30
0.0
 10
-22.7457
 20
-20.6896
 30
0.0
 10
-26.1356
 20
-5.9393
 30
0.0
 10
-36.835
 20
-5.9192
 30
0.0
 10
-41.9623
 20
-13.5295
 30
0.0
 10
-41.9623
 20
-13.5295
 30
0.0
 10
-49.366
 20
-24.5178
 30
0.0
 10
-41.6183
 20
-33.1534
 30
0.0
 10
-32.9504
 20
-40.8561
 30
0.0
 10
-32.9504
 20
-40.8561
 30
0.0
 10
-15.7726
 20
-56.122
 30
0.0
 10
-17.6065
 20
-78.4682
 30
0.0
 10
-31.2309
 20
-87.6479
 30
0.0
 10
-31.2309
 20
-87.6479
 30
0.0
 10
-29.986
 20
-87.8039
 30
0.0
 10
-28.6085
 20
-88.1422
 30
0.0
 10
-27.5259
 20
-88.8435
 30
0.0
 10
-27.5259
 20
-88.8435
 30
0.0
 10
-24.9011
 20
-90.5458
 30
0.0
 10
-25.3988
 20
-91.6018
 30
0.0
 10
-25.3988
 20
-91.6018
 30
0.0
 10
-25.3988
 20
-91.6018
 30
0.0
 10
-23.6909
 20
-92.4713
 30
0.0
 10
-23.5409
 20
-93.3214
 30
0.0
 10
-23.5409
 20
-93.3214
 30
0.0
 10
-23.5409
 20
-93.3214
 30
0.0
 10
-23.781
 20
-91.3496
 30
0.0
 10
-23.8375
 20
-89.2735
 30
0.0
 10
-23.6508
 20
-87.7517
 30
0.0
 10
-23.6508
 20
-87.7517
 30
0.0
 10
-23.309
 20
-84.9638
 30
0.0
 10
-21.7746
 20
-83.3488
 30
0.0
 10
-20.4433
 20
-82.4551
 30
0.0
  0
SPLINE
  5
56
330
1F
100
AcDbEntity
  8
layer 1
 62
     7
370
     9
100
AcDbSpline
210
0.0
220
0.0
230
1.0
 70
    11
 71
     3
 72
    36
 73
    32
 74
     0
 42
0.0000000001
 43
0.0000000001
 12
1.0
 22
0.0
 32
0.0
 13
1.0
 23
0.0
 33
0.0
 40
0.0
 40
0.0
 40
0.0
 40
0.0
 40
0.1111111111111111
 40
0.1111111111111111
 40
0.1111111111111111
 40
0.1111111111111111
 40
0.2222222222222222
 40
0.2222222222222222
 40
0.2222222222222222
 40
0.2222222222222222
 40
0.3333333333333333
 40
0.3333333333333333
 40
0.3333333333333333
 40
0.3333333333333333
 40
0.4444444444444444
 40
0.4444444444444444
 40
0.4444444444444444
 40
0.4444444444444444
 40
0.5555555555555556
 40
0.5555555555555556
 40
0.5555555555555556
 40
0.5555555555555556
 40
0.6666666666666666
 40
0.6666666666666666
 40
0.6666666666666666
 40
0.6666666666666666
 40
0.7777777777777778
 40
0.7777777777777778
 40
0.7777777777777778
 40
0.7777777777777778
 40
1.0
 40
1.0
 40
1.0
 40
1.0
 10
-20.4433
 20
-12.7186
 30
0.0
 10
-20.4433
 20
-12.7186
 30
0.0
 10
-20.4433
 20
-8.9571
 30
0.0
 10
-20.4433
 20
-8.9571
 30
0.0
 10
-20.4433
 20
-8.9571
 30
0.0
 10
-22.1798
 20
-6.4884
 30
0.0
 10
-22.5075
 20
-6.9786
 30
0.0
 10
-23.2749
 20
-5.7884
 30
0.0
 10
-23.2749
 20
-5.7884
 30
0.0
 10
-24.5218
 20
-3.854
 30
0.0
 10
-21.5111
 20
0.6105
 30
0.0
 10
-22.5417
 20
2.2094
 30
0.0
 10
-22.5417
 20
2.2094
 30
0.0
 10
-23.3396
 20
3.447
 30
0.0
 10
-24.0346
 20
4.0185
 30
0.0
 10
-24.0346
 20
4.0185
 30
0.0
 10
-24.0346
 20
4.0185
 30
0.0
 10
-24.0346
 20
4.0185
 30
0.0
 10
-23.4597
 20
2.2992
 30
0.0
 10
-24.2161
 20
-0.5225
 30
0.0
 10
-24.2161
 20
-0.5225
 30
0.0
 10
-24.6373
 20
-2.0893
 30
0.0
 10
-26.0991
 20
-3.879
 30
0.0
 10
-27.134
 20
-5.9873
 30
0.0
 10
-27.134
 20
-5.9873
 30
0.0
 10
-24.6304
 20
-7.4551
 30
0.0
 10
-22.2908
 20
-9.457
 30
0.0
 10
-20.6301
 20
-12.2155
 30
0.0
 10
-20.6301
 20
-12.2155
 30
0.0
 10
-20.5654
 20
-12.3845
 30
0.0
 10
-20.5036
 20
-12.5518
 30
0.0
 10
-20.4433
 20
-12.7186
 30
0.0
  0
SPLINE
  5
57
330
1F
100
AcDbEntity
  8
layer 1
 62
     7
370
     9
100
AcDbSpline
210
0.0
220
0.0
230
1.0
 70
    11
 71
     3
 72
    20
 73
    16
 74
     0
 42
0.0000000001
 43
0.0000000001
 12
1.0
 22
0.0
 32
0.0
 13
1.0
 23
0.0
 33
0.0
 40
0.0
 40
0.0
 40
0.0
 40
0.0
 40
0.2
 40
0.2
 40
0.2
 40
0.2
 40
0.4
 40
0.4
 40
0.4
 40
0.4
 40
0.6
 40
0.6
 40
0.6
 40
0.6
 40
1.0
 40
1.0
 40
1.0
 40
1.0
 10
-20.4433
 20
1.1314
 30
0.0
 10
-20.4433
 20
1.1314
 30
0.0
 10
-20.4433
 20
4.395
 30
0.0
 10
-20.4433
 20
4.395
 30
0.0
 10
-20.4433
 20
4.395
 30
0.0
 10
-20.9376
 20
4.6736
 30
0.0
 10
-21.0192
 20
4.9862
 30
0.0
 10
-21.0192
 20
4.9862
 30
0.0
 10
-21.0192
 20
4.9862
 30
0.0
 10
-23.3027
 20
4.4668
 30
0.0
 10
-24.1085
 20
5.1473
 30
0.0
 10
-24.1085
 20
5.1473
 30
0.0
 10
-24.1085
 20
5.1473
 30
0.0
 10
-22.7455
 20
3.8649
 30
0.0
 10
-21.4366
 20
2.4389
 30
0.0
 10
-20.4433
 20
1.1314
 30
0.0
  0
SPLINE
  5
58
330
1F
100
AcDbEntity
  8
layer 1
 62
     7
370
     9
100
AcDbSpline
210
0.0
220
0.0
230
1.0
 70
    11
 71
     3
 72
    28
 73
    24
 74
     0
 42
0.0000000001
 43
0.0000000001
 12
1.0
 22
0.0
 32
0.0
 13
1.0
 23
0.0
 33
0.0
 40
0.0
 40
0.0
 40
0.0
 40
0.0
 40
0.1428571428571428
 40
0.1428571428571428
 40
0.1428571428571428
 40
0.1428571428571428
 40
0.2857142857142857
 40
0.2857142857142857
 40
0.2857142857142857
 40
0.2857142857142857
 40
0.4285714285714285
 40
0.4285714285714285
 40
0.4285714285714285
 40
0.4285714285714285
 40
0.5714285714285714
 40
0.5714285714285714
 40
0.5714285714285714
 40
0.5714285714285714
 40
0.7142857142857143
 40
0.7142857142857143
 40
0.7142857142857143
 40
0.7142857142857143
 40
1.0
 40
1.0
 40
1.0
 40
1.0
 10
-20.4433
 20
9.1146
 30
0.0
 10
-20.4433
 20
9.1146
 30
0.0
 10
-20.4433
 20
26.2845
 30
0.0
 10
-20.4433
 20
26.2845
 30
0.0
 10
-20.4433
 20
26.2845
 30
0.0
 10
-21.3015
 20
22.6771
 30
0.0
 10
-22.7575
 20
19.1888
 30
0.0
 10
-24.9169
 20
15.8979
 30
0.0
 10
-24.9169
 20
15.8979
 30
0.0
 10
-25.4107
 20
12.9547
 30
0.0
 10
-24.9576
 20
9.0026
 30
0.0
 10
-24.9576
 20
9.0026
 30
0.0
 10
-24.9576
 20
9.0026
 30
0.0
 10
-24.9576
 20
9.0026
 30
0.0
 10
-25.4382
 20
7.2104
 30
0.0
 10
-25.0394
 20
6.5915
 30
0.0
 10
-25.0394
 20
6.5915
 30
0.0
 10
-24.5073
 20
5.7662
 30
0.0
 10
-22.4075
 20
5.4279
 30
0.0
 10
-21.2335
 20
6.2065
 30
0.0
 10
-21.2335
 20
6.2065
 30
0.0
 10
-21.2335
 20
6.2065
 30
0.0
 10
-22.1378
 20
7.5584
 30
0.0
 10
-20.4433
 20
9.1146
 30
0.0
  0
SPLINE
  5
59
330
1F
100
AcDbEntity
  8
layer 1
 62
     7
370
     9
100
AcDbSpline
210
0.0
220
0.0
230
1.0
 70
    11
 71
     3
 72
    28
 73
    24
 74
     0
 42
0.0000000001
 43
0.0000000001
 12
1.0
 22
0.0
 32
0.0
 13
1.0
 23
0.0
 33
0.0
 40
0.0
 40
0.0
 40
0.0
 40
0.0
 40
0.1428571428571428
 40
0.1428571428571428
 40
0.1428571428571428
 40
0.1428571428571428
 40
0.2857142857142857
 40
0.2857142857142857
 40
0.2857142857142857
 40
0.2857142857142857
 40
0.4285714285714285
 40
0.4285714285714285
 40
0.4285714285714285
 40
0.4285714285714285
 40
0.5714285714285714
 40
0.5714285714285714
 40
0.5714285714285714
 40
0.5714285714285714
 40
0.7142857142857143
 40
0.7142857142857143
 40
0.7142857142857143
 40
0.7142857142857143
 40
1.0
 40
1.0
 40
1.0
 40
1.0
 10
-20.4433
 20
43.8034
 30
0.0
 10
-20.4433
 20
43.8034
 30
0.0
 10
-20.4433
 20
87.5844
 30
0.0
 10
-20.4433
 20
87.5844
 30
0.0
 10
-20.4433
 20
87.5844
 30
0.0
 10
-21.313
 20
87.3973
 30
0.0
 10
-22.297
 20
87.2688
 30
0.0
 10
-23.4196
 20
87.2067
 30
0.0
 10
-23.4196
 20
87.2067
 30
0.0
 10
-19.8591
 20
80.4742
 30
0.0
 10
-20.8692
 20
77.1123
 30
0.0
 10
-23.7691
 20
74.5375
 30
0.0
 10
-23.7691
 20
74.5375
 30
0.0
 10
-24.3922
 20
79.5228
 30
0.0
 10
-25.421
 20
84.425
 30
0.0
 10
-31.9919
 20
85.0119
 30
0.0
 10
-31.9919
 20
85.0119
 30
0.0
 10
-38.3881
 20
85.5107
 30
0.0
 10
-43.6825
 20
86.3739
 30
0.0
 10
-48.1255
 20
87.5505
 30
0.0
 10
-48.1255
 20
87.5505
 30
0.0
 10
-35.9735
 20
77.3593
 30
0.0
 10
-23.8726
 20
60.5771
 30
0.0
 10
-20.4433
 20
43.8034
 30
0.0
  0
SPLINE
  5
5A
330
1F
100
AcDbEntity
  8
layer 1
 62
     7
370
     9
100
AcDbSpline
210
0.0
220
0.0
230
1.0
 70
    11
 71
     3
 72
   136
 73
   132
 74
     0
 42
0.0000000001
 43
0.0000000001
 12
1.0
 22
0.0
 32
0.0
 13
1.0
 23
0.0
 33
0.0
 40
0.0
 40
0.0
 40
0.0
 40
0.0
 40
0.0294117647058824
 40
0.0294117647058824
 40
0.0294117647058824
 40
0.0294117647058824
 40
0.0588235294117647
 40
0.0588235294117647
 40
0.0588235294117647
 40
0.0588235294117647
 40
0.0882352941176471
 40
0.0882352941176471
 40
0.0882352941176471
 40
0.0882352941176471
 40
0.1176470588235294
 40
0.1176470588235294
 40
0.1176470588235294
 40
0.1176470588235294
 40
0.1470588235294118
 40
0.1470588235294118
 40
0.1470588235294118
 40
0.1470588235294118
 40
0.1764705882352941
 40
0.1764705882352941
 40
0.1764705882352941
 40
0.1764705882352941
 40
0.2058823529411765
 40
0.2058823529411765
 40
0.2058823529411765
 40
0.2058823529411765
 40
0.2352941176470588
 40
0.2352941176470588
 40
0.2352941176470588
 40
0.2352941176470588
 40
0.2647058823529412
 40
0.2647058823529412
 40
0.2647058823529412
 40
0.2647058823529412
 40
0.2941176470588235
 40
0.2941176470588235
 40
0.2941176470588235
 40
0.2941176470588235
 40
0.3235294117647059
 40
0.3235294117647059
 40
0.3235294117647059
 40
0.3235294117647059
 40
0.3529411764705883
 40
0.3529411764705883
 40
0.3529411764705883
 40
0.3529411764705883
 40
0.3823529411764706
 40
0.3823529411764706
 40
0.3823529411764706
 40
0.3823529411764706
 40
0.4117647058823529
 40
0.4117647058823529
 40
0.4117647058823529
 40
0.4117647058823529
 40
0.4411764705882353
 40
0.4411764705882353
 40
0.4411764705882353
 40
0.4411764705882353
 40
0.4705882352941176
 40
0.4705882352941176
 40
0.4705882352941176
 40
0.4705882352941176
 40
0.5
 40
0.5
 40
0.5
 40
0.5
 40
0.5294117647058824
 40
0.5294117647058824
 40
0.5294117647058824
 40
0.5294117647058824
 40
0.5588235294117647
 40
0.5588235294117647
 40
0.5588235294117647
 40
0.5588235294117647
 40
0.5882352941176471
 40
0.5882352941176471
 40
0.5882352941176471
 40
0.5882352941176471
 40
0.6176470588235294
 40
0.6176470588235294
 40
0.6176470588235294
 40
0.6176470588235294
 40
0.6470588235294118
 40
0.6470588235294118
 40
0.6470588235294118
 40
0.6470588235294118
 40
0.6764705882352942
 40
0.6764705882352942
 40
0.6764705882352942
 40
0.6764705882352942
 40
0.7058823529411765
 40
0.7058823529411765
 40
0.7058823529411765
 40
0.7058823529411765
 40
0.7352941176470589
 40
0.7352941176470589
 40
0.7352941176470589
 40
0.7352941176470589
 40
0.7647058823529411
 40
0.7647058823529411
 40
0.7647058823529411
 40
0.7647058823529411
 40
0.7941176470588235
 40
0.7941176470588235
 40
0.7941176470588235
 40
0.7941176470588235
 40
0.8235294117647058
 40
0.8235294117647058
 40
0.8235294117647058
 40
0.8235294117647058
 40
0.8529411764705882
 40
0.8529411764705882
 40
0.8529411764705882
 40
0.8529411764705882
 40
0.8823529411764706
 40
0.8823529411764706
 40
0.8823529411764706
 40
0.8823529411764706
 40
0.9117647058823529
 40
0.9117647058823529
 40
0.9117647058823529
 40
0.9117647058823529
 40
0.9411764705882353
 40
0.9411764705882353
 40
0.9411764705882353
 40
0.9411764705882353
 40
1.0
 40
1.0
 40
1.0
 40
1.0
 10
-25.6771
 20
-56.6572
 30
0.0
 10
-32.878
 20
-47.9109
 30
0.0
 10
-44.1445
 20
-39.55
 30
0.0
 10
-55.8225
 20
-34.7631
 30
0.0
 10
-55.8225
 20
-34.7631
 30
0.0
 10
-61.0601
 20
-31.7495
 30
0.0
 10
-60.4943
 20
-27.5393
 30
0.0
 10
-59.0054
 20
-22.8202
 30
0.0
 10
-59.0054
 20
-22.8202
 30
0.0
 10
-62.4086
 20
-23.8444
 30
0.0
 10
-64.2479
 20
-26.6755
 30
0.0
 10
-63.7964
 20
-33.2889
 30
0.0
 10
-63.7964
 20
-33.2889
 30
0.0
 10
-68.2235
 20
-31.9096
 30
0.0
 10
-71.0852
 20
-32.3331
 30
0.0
 10
-72.9857
 20
-33.7072
 30
0.0
 10
-72.9857
 20
-33.7072
 30
0.0
 10
-71.2829
 20
-36.6298
 30
0.0
 10
-68.5178
 20
-38.3503
 30
0.0
 10
-64.9819
 20
-38.4406
 30
0.0
 10
-64.9819
 20
-38.4406
 30
0.0
 10
-69.229
 20
-41.4409
 30
0.0
 10
-68.9703
 20
-45.4789
 30
0.0
 10
-67.9602
 20
-49.6884
 30
0.0
 10
-67.9602
 20
-49.6884
 30
0.0
 10
-56.6188
 20
-31.8928
 30
0.0
 10
-33.8613
 20
-46.4672
 30
0.0
 10
-24.3762
 20
-61.8462
 30
0.0
 10
-24.3762
 20
-61.8462
 30
0.0
 10
-24.1907
 20
-63.0191
 30
0.0
 10
-24.0695
 20
-64.1937
 30
0.0
 10
-23.9968
 20
-65.3685
 30
0.0
 10
-23.9968
 20
-65.3685
 30
0.0
 10
-34.3219
 20
-44.4335
 30
0.0
 10
-54.7292
 20
-45.0946
 30
0.0
 10
-61.3463
 20
-54.7836
 30
0.0
 10
-61.3463
 20
-54.7836
 30
0.0
 10
-63.4398
 20
-57.8488
 30
0.0
 10
-63.9419
 20
-61.6847
 30
0.0
 10
-63.2063
 20
-65.2613
 30
0.0
 10
-63.2063
 20
-65.2613
 30
0.0
 10
-63.2526
 20
-65.9884
 30
0.0
 10
-63.2851
 20
-66.7371
 30
0.0
 10
-63.2993
 20
-67.4529
 30
0.0
 10
-63.2993
 20
-67.4529
 30
0.0
 10
-62.9747
 20
-68.3531
 30
0.0
 10
-65.9355
 20
-68.6501
 30
0.0
 10
-67.5305
 20
-71.6496
 30
0.0
 10
-67.5305
 20
-71.6496
 30
0.0
 10
-68.9121
 20
-74.2503
 30
0.0
 10
-67.4053
 20
-79.4186
 30
0.0
 10
-67.4053
 20
-79.4186
 30
0.0
 10
-67.4053
 20
-79.4186
 30
0.0
 10
-64.0629
 20
-72.799
 30
0.0
 10
-61.2246
 20
-78.2318
 30
0.0
 10
-62.6382
 20
-68.7914
 30
0.0
 10
-62.6382
 20
-68.7914
 30
0.0
 10
-62.7315
 20
-68.5326
 30
0.0
 10
-62.6235
 20
-68.1043
 30
0.0
 10
-62.4863
 20
-67.7285
 30
0.0
 10
-62.4863
 20
-67.7285
 30
0.0
 10
-61.5796
 20
-70.102
 30
0.0
 10
-60.1104
 20
-72.2308
 30
0.0
 10
-58.1973
 20
-73.7644
 30
0.0
 10
-58.1973
 20
-73.7644
 30
0.0
 10
-49.7925
 20
-80.503
 30
0.0
 10
-36.0664
 20
-74.6473
 30
0.0
 10
-38.0077
 20
-65.9474
 30
0.0
 10
-38.0077
 20
-65.9474
 30
0.0
 10
-39.1213
 20
-60.9534
 30
0.0
 10
-42.5553
 20
-58.2659
 30
0.0
 10
-47.1038
 20
-58.9663
 30
0.0
 10
-47.1038
 20
-58.9663
 30
0.0
 10
-52.8943
 20
-59.858
 30
0.0
 10
-52.3926
 20
-66.5553
 30
0.0
 10
-47.137
 20
-66.9074
 30
0.0
 10
-47.137
 20
-66.9074
 30
0.0
 10
-44.5718
 20
-67.0801
 30
0.0
 10
-43.6035
 20
-64.2679
 30
0.0
 10
-44.2226
 20
-62.2856
 30
0.0
 10
-44.2226
 20
-62.2856
 30
0.0
 10
-42.7499
 20
-64.0192
 30
0.0
 10
-41.0825
 20
-65.7418
 30
0.0
 10
-41.224
 20
-67.5356
 30
0.0
 10
-41.224
 20
-67.5356
 30
0.0
 10
-41.7878
 20
-74.6423
 30
0.0
 10
-53.111
 20
-73.8217
 30
0.0
 10
-56.1759
 20
-70.5933
 30
0.0
 10
-56.1759
 20
-70.5933
 30
0.0
 10
-66.0725
 20
-60.1679
 30
0.0
 10
-53.111
 20
-47.343
 30
0.0
 10
-39.5837
 20
-54.5841
 30
0.0
 10
-39.5837
 20
-54.5841
 30
0.0
 10
-6.7305
 20
-67.07
 30
0.0
 10
-37.6015
 20
-103.6923
 30
0.0
 10
-67.8071
 20
-80.7769
 30
0.0
 10
-67.8071
 20
-80.7769
 30
0.0
 10
-83.4009
 20
-59.2068
 30
0.0
 10
-79.5998
 20
-34.1687
 30
0.0
 10
-62.7609
 20
-14.9111
 30
0.0
 10
-62.7609
 20
-14.9111
 30
0.0
 10
-53.2545
 20
-3.8877
 30
0.0
 10
-40.9179
 20
0.4792
 30
0.0
 10
-32.1299
 20
7.871
 30
0.0
 10
-32.1299
 20
7.871
 30
0.0
 10
-30.2028
 20
9.4917
 30
0.0
 10
-28.5305
 20
11.1968
 30
0.0
 10
-27.0796
 20
12.9686
 30
0.0
 10
-27.0796
 20
12.9686
 30
0.0
 10
-26.8875
 20
11.4567
 30
0.0
 10
-26.5909
 20
9.691
 30
0.0
 10
-26.2519
 20
8.075
 30
0.0
 10
-26.2519
 20
8.075
 30
0.0
 10
-25.5867
 20
7.0429
 30
0.0
 10
-29.2037
 20
5.818
 30
0.0
 10
-30.3336
 20
1.607
 30
0.0
 10
-30.3336
 20
1.607
 30
0.0
 10
-30.8494
 20
-0.3184
 30
0.0
 10
-30.1548
 20
-2.9056
 30
0.0
 10
-29.3828
 20
-4.9208
 30
0.0
 10
-29.3828
 20
-4.9208
 30
0.0
 10
-39.7751
 20
-1.2192
 30
0.0
 10
-51.7833
 20
-13.3522
 30
0.0
 10
-49.3721
 20
-25.1077
 30
0.0
 10
-49.3721
 20
-25.1077
 30
0.0
 10
-48.122
 20
-31.2043
 30
0.0
 10
-42.7729
 20
-37.9136
 30
0.0
 10
-33.6878
 20
-44.9551
 30
0.0
 10
-33.6878
 20
-44.9551
 30
0.0
 10
-29.5396
 20
-48.751
 30
0.0
 10
-27.0886
 20
-52.677
 30
0.0
 10
-25.6771
 20
-56.6572
 30
0.0
  0
SPLINE
  5
5B
330
1F
100
AcDbEntity
  8
layer 1
 62
     7
370
     9
100
AcDbSpline
210
0.0
220
0.0
230
1.0
 70
    11
 71
     3
 72
    96
 73
    92
 74
     0
 42
0.0000000001
 43
0.0000000001
 12
1.0
 22
0.0
 32
0.0
 13
1.0
 23
0.0
 33
0.0
 40
0.0
 40
0.0
 40
0.0
 40
0.0
 40
0.0416666666666667
 40
0.0416666666666667
 40
0.0416666666666667
 40
0.0416666666666667
 40
0.0833333333333333
 40
0.0833333333333333
 40
0.0833333333333333
 40
0.0833333333333333
 40
0.125
 40
0.125
 40
0.125
 40
0.125
 40
0.1666666666666667
 40
0.1666666666666667
 40
0.1666666666666667
 40
0.1666666666666667
 40
0.2083333333333333
 40
0.2083333333333333
 40
0.2083333333333333
 40
0.2083333333333333
 40
0.25
 40
0.25
 40
0.25
 40
0.25
 40
0.2916666666666667
 40
0.2916666666666667
 40
0.2916666666666667
 40
0.2916666666666667
 40
0.3333333333333333
 40
0.3333333333333333
 40
0.3333333333333333
 40
0.3333333333333333
 40
0.375
 40
0.375
 40
0.375
 40
0.375
 40
0.4166666666666667
 40
0.4166666666666667
 40
0.4166666666666667
 40
0.4166666666666667
 40
0.4583333333333333
 40
0.4583333333333333
 40
0.4583333333333333
 40
0.4583333333333333
 40
0.5
 40
0.5
 40
0.5
 40
0.5
 40
0.5416666666666666
 40
0.5416666666666666
 40
0.5416666666666666
 40
0.5416666666666666
 40
0.5833333333333334
 40
0.5833333333333334
 40
0.5833333333333334
 40
0.5833333333333334
 40
0.625
 40
0.625
 40
0.625
 40
0.625
 40
0.6666666666666666
 40
0.6666666666666666
 40
0.6666666666666666
 40
0.6666666666666666
 40
0.7083333333333334
 40
0.7083333333333334
 40
0.7083333333333334
 40
0.7083333333333334
 40
0.75
 40
0.75
 40
0.75
 40
0.75
 40
0.7916666666666666
 40
0.7916666666666666
 40
0.7916666666666666
 40
0.7916666666666666
 40
0.8333333333333334
 40
0.8333333333333334
 40
0.8333333333333334
 40
0.8333333333333334
 40
0.875
 40
0.875
 40
0.875
 40
0.875
 40
0.9166666666666666
 40
0.9166666666666666
 40
0.9166666666666666
 40
0.9166666666666666
 40
1.0
 40
1.0
 40
1.0
 40
1.0
 10
-76.6005
 20
86.0289
 30
0.0
 10
-65.9037
 20
86.6687
 30
0.0
 10
-57.2921
 20
80.4781
 30
0.0
 10
-60.1083
 20
68.2151
 30
0.0
 10
-60.1083
 20
68.2151
 30
0.0
 10
-62.8482
 20
56.2849
 30
0.0
 10
-80.28
 20
48.7317
 30
0.0
 10
-72.4449
 20
31.6962
 30
0.0
 10
-72.4449
 20
31.6962
 30
0.0
 10
-71.1919
 20
57.9392
 30
0.0
 10
-41.3003
 20
54.1591
 30
0.0
 10
-39.1694
 20
39.0135
 30
0.0
 10
-39.1694
 20
39.0135
 30
0.0
 10
-37.8743
 20
24.8121
 30
0.0
 10
-56.7358
 20
21.8857
 30
0.0
 10
-58.4932
 20
33.3625
 30
0.0
 10
-58.4932
 20
33.3625
 30
0.0
 10
-59.0661
 20
37.1045
 30
0.0
 10
-56.862
 20
40.2656
 30
0.0
 10
-50.5468
 20
37.858
 30
0.0
 10
-50.5468
 20
37.858
 30
0.0
 10
-50.5468
 20
35.5494
 30
0.0
 10
-48.8674
 20
32.8499
 30
0.0
 10
-51.7978
 20
31.3089
 30
0.0
 10
-51.7978
 20
31.3089
 30
0.0
 10
-49.2748
 20
28.6142
 30
0.0
 10
-45.4796
 20
29.7699
 30
0.0
 10
-43.8002
 20
31.6962
 30
0.0
 10
-43.8002
 20
31.6962
 30
0.0
 10
-38.9195
 20
42.3934
 30
0.0
 10
-49.637
 20
50.09
 30
0.0
 10
-59.4804
 20
47.6513
 30
0.0
 10
-59.4804
 20
47.6513
 30
0.0
 10
-67.2373
 20
45.7291
 30
0.0
 10
-72.0255
 20
32.2167
 30
0.0
 10
-66.9685
 20
25.9919
 30
0.0
 10
-66.9685
 20
25.9919
 30
0.0
 10
-60.0202
 20
17.4385
 30
0.0
 10
-48.5013
 20
17.3923
 30
0.0
 10
-39.4695
 20
22.0372
 30
0.0
 10
-39.4695
 20
22.0372
 30
0.0
 10
-31.5561
 20
26.1072
 30
0.0
 10
-24.8817
 20
34.8734
 30
0.0
 10
-28.2133
 20
53.6495
 30
0.0
 10
-28.2133
 20
53.6495
 30
0.0
 10
-31.1986
 20
60.5816
 30
0.0
 10
-34.9376
 20
67.7432
 30
0.0
 10
-42.2294
 20
75.8209
 30
0.0
 10
-42.2294
 20
75.8209
 30
0.0
 10
-53.0177
 20
66.5209
 30
0.0
 10
-40.7682
 20
57.6389
 30
0.0
 10
-40.7682
 20
57.6389
 30
0.0
 10
-40.7682
 20
57.6389
 30
0.0
 10
-40.7682
 20
57.6389
 30
0.0
 10
-45.01
 20
58.7671
 30
0.0
 10
-45.01
 20
58.7671
 30
0.0
 10
-45.01
 20
58.7671
 30
0.0
 10
-44.5598
 20
52.7521
 30
0.0
 10
-40.2703
 20
51.3313
 30
0.0
 10
-40.2703
 20
51.3313
 30
0.0
 10
-40.2703
 20
51.3313
 30
0.0
 10
-53.5821
 20
53.3372
 30
0.0
 10
-52.9776
 20
62.126
 30
0.0
 10
-52.8449
 20
63.2437
 30
0.0
 10
-52.8449
 20
63.2437
 30
0.0
 10
-53.4727
 20
57.6978
 30
0.0
 10
-56.2034
 20
55.4336
 30
0.0
 10
-56.2034
 20
55.4336
 30
0.0
 10
-56.2034
 20
55.4336
 30
0.0
 10
-60.1159
 20
73.4235
 30
0.0
 10
-49.2935
 20
76.7476
 30
0.0
 10
-43.5752
 20
77.2794
 30
0.0
 10
-43.5752
 20
77.2794
 30
0.0
 10
-47.946
 20
81.9123
 30
0.0
 10
-53.5068
 20
86.8517
 30
0.0
 10
-60.7665
 20
92.2219
 30
0.0
 10
-60.7665
 20
92.2219
 30
0.0
 10
-67.3361
 20
97.0831
 30
0.0
 10
-72.8531
 20
102.1769
 30
0.0
 10
-77.2403
 20
107.8843
 30
0.0
 10
-77.2403
 20
107.8843
 30
0.0
 10
-77.6152
 20
106.0194
 30
0.0
 10
-78.195
 20
103.7136
 30
0.0
 10
-78.8192
 20
101.6356
 30
0.0
 10
-78.8192
 20
101.6356
 30
0.0
 10
-79.6912
 20
100.5066
 30
0.0
 10
-75.6248
 20
98.7317
 30
0.0
 10
-74.7321
 20
93.7454
 30
0.0
 10
-74.7321
 20
93.7454
 30
0.0
 10
-74.3093
 20
91.3792
 30
0.0
 10
-75.4664
 20
88.3165
 30
0.0
 10
-76.6005
 20
86.0289
 30
0.0
  0
ENDSEC
  0
SECTION
  2
OBJECTS
  0
DICTIONARY
  5
C
330
0
100
AcDbDictionary
281
     1
  3
ACAD_GROUP
350
D
  3
ACAD_LAYOUT
350
1A
  3
ACAD_MATERIAL
350
3B
  3
ACAD_MLEADERSTYLE
350
7D
  3
ACAD_MLINESTYLE
350
17
  3
ACAD_PLOTSETTINGS
350
19
  3
ACAD_PLOTSTYLENAME
350
E
  3
ACAD_TABLESTYLE
350
7C
  3
ACAD_VISUALSTYLE
350
2A
  0
DICTIONARY
  5
D
102
{ACAD_REACTORS
330
C
102
}
330
C
100
AcDbDictionary
281
     1
  0
DICTIONARY
  5
1A
102
{ACAD_REACTORS
330
C
102
}
330
C
100
AcDbDictionary
281
     1
  3
Layout1
350
1E
  3
Layout2
350
26
  3
Model
350
22
  0
DICTIONARY
  5
3B
102
{ACAD_REACTORS
330
C
102
}
330
C
100
AcDbDictionary
281
     1
  3
ByBlock
350
3D
  3
ByLayer
350
3C
  3
Global
350
3E
  0
DICTIONARY
  5
7D
102
{ACAD_REACTORS
330
C
102
}
330
C
100
AcDbDictionary
281
     1
  0
DICTIONARY
  5
17
102
{ACAD_REACTORS
330
C
102
}
330
C
100
AcDbDictionary
281
     1
  3
Standard
350
18
  0
DICTIONARY
  5
19
102
{ACAD_REACTORS
330
C
102
}
330
C
100
AcDbDictionary
281
     1
  0
ACDBDICTIONARYWDFLT
  5
E
102
{ACAD_REACTORS
330
C
102
}
330
C
100
AcDbDictionary
281
     1
  3
Normal
350
F
100
AcDbDictionaryWithDefault
340
F
  0
DICTIONARY
  5
7C
102
{ACAD_REACTORS
330
C
102
}
330
C
100
AcDbDictionary
281
     1
  0
DICTIONARY
  5
2A
102
{ACAD_REACTORS
330
C
102
}
330
C
100
AcDbDictionary
281
     1
  3
2dWireframe
350
2F
  3
3D Hidden
350
31
  3
3dWireframe
350
30
  3
Basic
350
32
  3
Brighten
350
36
  3
ColorChange
350
3A
  3
Conceptual
350
34
  3
Dim
350
35
  3
Facepattern
350
39
  3
Flat
350
2B
  3
FlatWithEdges
350
2C
  3
Gouraud
350
2D
  3
GouraudWithEdges
350
2E
  3
Linepattern
350
38
  3
Realistic
350
33
  3
Thicken
350
37
  0
LAYOUT
  5
1E
102
{ACAD_REACTORS
330
1A
102
}
330
1A
100
AcDbPlotSettings
  1

  2
none_device
  4

  6

 40
0.0
 41
0.0
 42
0.0
 43
0.0
 44
0.0
 45
0.0
 46
0.0
 47
0.0
 48
0.0
 49
0.0
140
0.0
141
0.0
142
1.0
143
1.0
 70
   688
 72
     0
 73
     0
 74
     5
  7

 75
    16
 76
     0
 77
     2
 78
   300
147
1.0
148
0.0
149
0.0
100
AcDbLayout
  1
Layout1
 70
     1
 71
     1
 10
0.0
 20
0.0
 11
12.0
 21
9.0
 12
0.0
 22
0.0
 32
0.0
 14
1.000000000000000E+20
 24
1.000000000000000E+20
 34
1.000000000000000E+20
 15
-1.000000000000000E+20
 25
-1.000000000000000E+20
 35
-1.000000000000000E+20
146
0.0
 13
0.0
 23
0.0
 33
0.0
 16
1.0
 26
0.0
 36
0.0
 17
0.0
 27
1.0
 37
0.0
 76
     0
330
1B
  0
LAYOUT
  5
26
102
{ACAD_REACTORS
330
1A
102
}
330
1A
100
AcDbPlotSettings
  1

  2
none_device
  4

  6

 40
0.0
 41
0.0
 42
0.0
 43
0.0
 44
0.0
 45
0.0
 46
0.0
 47
0.0
 48
0.0
 49
0.0
140
0.0
141
0.0
142
1.0
143
1.0
 70
   688
 72
     0
 73
     0
 74
     5
  7

 75
    16
 76
     0
 77
     2
 78
   300
147
1.0
148
0.0
149
0.0
100
AcDbLayout
  1
Layout2
 70
     1
 71
     2
 10
0.0
 20
0.0
 11
0.0
 21
0.0
 12
0.0
 22
0.0
 32
0.0
 14
0.0
 24
0.0
 34
0.0
 15
0.0
 25
0.0
 35
0.0
146
0.0
 13
0.0
 23
0.0
 33
0.0
 16
1.0
 26
0.0
 36
0.0
 17
0.0
 27
1.0
 37
0.0
 76
     0
330
23
  0
LAYOUT
  5
22
102
{ACAD_REACTORS
330
1A
102
}
330
1A
100
AcDbPlotSettings
  1

  2
none_device
  4

  6

 40
0.0
 41
0.0
 42
0.0
 43
0.0
 44
0.0
 45
0.0
 46
0.0
 47
0.0
 48
0.0
 49
0.0
140
0.0
141
0.0
142
1.0
143
1.0
 70
  1712
 72
     0
 73
     0
 74
     0
  7

 75
     0
 76
     0
 77
     2
 78
   300
147
1.0
148
0.0
149
0.0
100
AcDbLayout
  1
Model
 70
     1
 71
     0
 10
0.0
 20
0.0
 11
12.0
 21
9.0
 12
0.0
 22
0.0
 32
0.0
 14
-85.1346
 24
-106.4953
 34
0.0
 15
-17.0023
 25
131.777
 35
0.0
146
0.0
 13
0.0
 23
0.0
 33
0.0
 16
1.0
 26
0.0
 36
0.0
 17
0.0
 27
1.0
 37
0.0
 76
     0
330
1F
331
29
  0
MATERIAL
  5
3D
102
{ACAD_REACTORS
330
3B
102
}
330
3B
100
AcDbMaterial
  1
ByBlock
 72
     1
 94
      127
  0
MATERIAL
  5
3C
102
{ACAD_REACTORS
330
3B
102
}
330
3B
100
AcDbMaterial
  1
ByLayer
 72
     1
 94
      127
  0
MATERIAL
  5
3E
102
{ACAD_REACTORS
330
3B
102
}
330
3B
100
AcDbMaterial
  1
Global
 72
     1
 94
      127
  0
MLINESTYLE
  5
18
102
{ACAD_REACTORS
330
17
102
}
330
17
100
AcDbMlineStyle
  2
Standard
 70
     0
  3

 62
   256
 51
90.0
 52
90.0
 71
     2
 49
0.5
 62
   256
  6
BYLAYER
 49
-0.5
 62
   256
  6
BYLAYER
  0
ACDBPLACEHOLDER
  5
F
102
{ACAD_REACTORS
330
E
102
}
330
E
  0
VISUALSTYLE
  5
2F
102
{ACAD_REACTORS
330
2A
102
}
102
{ACAD_XDICTIONARY
360
64
102
}
330
2A
100
AcDbVisualStyle
  2
2dWireframe
 70
     4
 71
     0
 72
     2
 73
     0
 90
        0
 40
-0.6
 41
-30.0
 62
     5
 63
     7
421
 16777215
 74
     1
 91
        4
 64
     7
 65
   257
 75
     1
175
     1
 42
1.0
 92
        0
 66
   257
 43
1.0
 76
     1
 77
     6
 78
     2
 67
     7
 79
     5
170
     0
171
     0
290
     0
174
     0
 93
        1
 44
0.0
173
     0
291
     0
 45
0.0
  0
VISUALSTYLE
  5
31
102
{ACAD_REACTORS
330
2A
102
}
102
{ACAD_XDICTIONARY
360
68
102
}
330
2A
100
AcDbVisualStyle
  2
3D Hidden
 70
     6
 71
     1
 72
     2
 73
     2
 90
        0
 40
-0.6
 41
-30.0
 62
     5
 63
     7
421
 16777215
 74
     2
 91
        2
 64
     7
 65
   257
 75
     2
175
     1
 42
40.0
 92
        0
 66
   257
 43
1.0
 76
     1
 77
     6
 78
     2
 67
     7
 79
     3
170
     0
171
     0
290
     0
174
     0
 93
        1
 44
0.0
173
     0
291
     0
 45
0.0
  0
VISUALSTYLE
  5
30
102
{ACAD_REACTORS
330
2A
102
}
102
{ACAD_XDICTIONARY
360
66
102
}
330
2A
100
AcDbVisualStyle
  2
3dWireframe
 70
     5
 71
     0
 72
     2
 73
     0
 90
        0
 40
-0.6
 41
-30.0
 62
     5
 63
     7
421
 16777215
 74
     1
 91
        4
 64
     7
 65
   257
 75
     1
175
     1
 42
1.0
 92
        0
 66
   257
 43
1.0
 76
     1
 77
     6
 78
     2
 67
     7
 79
     5
170
     0
171
     0
290
     0
174
     0
 93
        1
 44
0.0
173
     0
291
     0
 45
0.0
  0
VISUALSTYLE
  5
32
102
{ACAD_REACTORS
330
2A
102
}
102
{ACAD_XDICTIONARY
360
6A
102
}
330
2A
100
AcDbVisualStyle
  2
Basic
 70
     7
 71
     1
 72
     0
 73
     1
 90
        0
 40
-0.6
 41
-30.0
 62
     5
 63
     7
421
 16777215
 74
     0
 91
        4
 64
     7
 65
   257
 75
     1
175
     1
 42
1.0
 92
        8
 66
     7
 43
1.0
 76
     1
 77
     6
 78
     2
 67
     7
 79
     5
170
     0
171
     0
290
     0
174
     0
 93
        1
 44
0.0
173
     0
291
     1
 45
0.0
  0
VISUALSTYLE
  5
36
102
{ACAD_REACTORS
330
2A
102
}
102
{ACAD_XDICTIONARY
360
72
102
}
330
2A
100
AcDbVisualStyle
  2
Brighten
 70
    12
 71
     2
 72
     2
 73
     0
 90
        0
 40
-0.6
 41
-30.0
 62
     5
 63
     7
421
 16777215
 74
     1
 91
        4
 64
     7
 65
   257
 75
     1
175
     1
 42
1.0
 92
        8
 66
     7
 43
1.0
 76
     1
 77
     6
 78
     2
 67
     7
 79
     5
170
     0
171
     0
290
     0
174
     0
 93
        1
 44
50.0
173
     0
291
     1
 45
0.0
  0
VISUALSTYLE
  5
3A
102
{ACAD_REACTORS
330
2A
102
}
102
{ACAD_XDICTIONARY
360
7A
102
}
330
2A
100
AcDbVisualStyle
  2
ColorChange
 70
    16
 71
     2
 72
     2
 73
     3
 90
        0
 40
-0.6
 41
-30.0
 62
     5
 63
     8
421
  8421504
 74
     1
 91
        4
 64
     7
 65
   257
 75
     1
175
     1
 42
1.0
 92
        8
 66
     8
424
  8421504
 43
1.0
 76
     1
 77
     6
 78
     2
 67
     7
 79
     5
170
     0
171
     0
290
     0
174
     0
 93
        1
 44
0.0
173
     0
291
     1
 45
0.0
  0
VISUALSTYLE
  5
34
102
{ACAD_REACTORS
330
2A
102
}
102
{ACAD_XDICTIONARY
360
6E
102
}
330
2A
100
AcDbVisualStyle
  2
Conceptual
 70
     9
 71
     3
 72
     2
 73
     0
 90
        0
 40
-0.6
 41
-30.0
 62
     5
 63
     7
421
 16777215
 74
     2
 91
        2
 64
     7
 65
   257
 75
     1
175
     1
 42
40.0
 92
        8
 66
     7
 43
1.0
 76
     1
 77
     6
 78
     2
 67
     7
 79
     3
170
     0
171
     0
290
     0
174
     0
 93
        1
 44
0.0
173
     0
291
     0
 45
0.0
  0
VISUALSTYLE
  5
35
102
{ACAD_REACTORS
330
2A
102
}
102
{ACAD_XDICTIONARY
360
70
102
}
330
2A
100
AcDbVisualStyle
  2
Dim
 70
    11
 71
     2
 72
     2
 73
     0
 90
        0
 40
-0.6
 41
-30.0
 62
     5
 63
     7
421
 16777215
 74
     1
 91
        4
 64
     7
 65
   257
 75
     1
175
     1
 42
1.0
 92
        8
 66
     7
 43
1.0
 76
     1
 77
     6
 78
     2
 67
     7
 79
     5
170
     0
171
     0
290
     0
174
     0
 93
        1
 44
-50.0
173
     0
291
     1
 45
0.0
  0
VISUALSTYLE
  5
39
102
{ACAD_REACTORS
330
2A
102
}
102
{ACAD_XDICTIONARY
360
78
102
}
330
2A
100
AcDbVisualStyle
  2
Facepattern
 70
    15
 71
     2
 72
     2
 73
     0
 90
        0
 40
-0.6
 41
-30.0
 62
     5
 63
     7
421
 16777215
 74
     1
 91
        4
 64
     7
 65
   257
 75
     1
175
     1
 42
1.0
 92
        8
 66
     7
 43
1.0
 76
     1
 77
     6
 78
     2
 67
     7
 79
     5
170
     0
171
     0
290
     0
174
     0
 93
        1
 44
0.0
173
     0
291
     1
 45
0.0
  0
VISUALSTYLE
  5
2B
102
{ACAD_REACTORS
330
2A
102
}
102
{ACAD_XDICTIONARY
360
5C
102
}
330
2A
100
AcDbVisualStyle
  2
Flat
 70
     0
 71
     2
 72
     1
 73
     1
 90
        2
 40
-0.6
 41
30.0
 62
     5
 63
     7
421
 16777215
 74
     0
 91
        4
 64
     7
 65
   257
 75
     1
175
     1
 42
1.0
 92
        8
 66
     7
 43
1.0
 76
     1
 77
     6
 78
     2
 67
     7
 79
     5
170
     0
171
     0
290
     0
174
     0
 93
       13
 44
0.0
173
     0
291
     1
 45
0.0
  0
VISUALSTYLE
  5
2C
102
{ACAD_REACTORS
330
2A
102
}
102
{ACAD_XDICTIONARY
360
5E
102
}
330
2A
100
AcDbVisualStyle
  2
FlatWithEdges
 70
     1
 71
     2
 72
     1
 73
     1
 90
        2
 40
-0.6
 41
30.0
 62
     5
 63
     7
421
 16777215
 74
     1
 91
        4
 64
     7
 65
   257
 75
     1
175
     1
 42
1.0
 92
        0
 66
   257
 43
1.0
 76
     1
 77
     6
 78
     2
 67
     7
 79
     5
170
     0
171
     0
290
     0
174
     0
 93
       13
 44
0.0
173
     0
291
     1
 45
0.0
  0
VISUALSTYLE
  5
2D
102
{ACAD_REACTORS
330
2A
102
}
102
{ACAD_XDICTIONARY
360
60
102
}
330
2A
100
AcDbVisualStyle
  2
Gouraud
 70
     2
 71
     2
 72
     2
 73
     1
 90
        2
 40
-0.6
 41
30.0
 62
     5
 63
     7
421
 16777215
 74
     0
 91
        4
 64
     7
 65
   257
 75
     1
175
     1
 42
1.0
 92
        0
 66
     7
 43
1.0
 76
     1
 77
     6
 78
     2
 67
     7
 79
     5
170
     0
171
     0
290
     0
174
     0
 93
       13
 44
0.0
173
     0
291
     1
 45
0.0
  0
VISUALSTYLE
  5
2E
102
{ACAD_REACTORS
330
2A
102
}
102
{ACAD_XDICTIONARY
360
62
102
}
330
2A
100
AcDbVisualStyle
  2
GouraudWithEdges
 70
     3
 71
     2
 72
     2
 73
     1
 90
        2
 40
-0.6
 41
30.0
 62
     5
 63
     7
421
 16777215
 74
     1
 91
        4
 64
     7
 65
   257
 75
     1
175
     1
 42
1.0
 92
        0
 66
   257
 43
1.0
 76
     1
 77
     6
 78
     2
 67
     7
 79
     5
170
     0
171
     0
290
     0
174
     0
 93
       13
 44
0.0
173
     0
291
     1
 45
0.0
  0
VISUALSTYLE
  5
38
102
{ACAD_REACTORS
330
2A
102
}
102
{ACAD_XDICTIONARY
360
76
102
}
330
2A
100
AcDbVisualStyle
  2
Linepattern
 70
    14
 71
     2
 72
     2
 73
     0
 90
        0
 40
-0.6
 41
-30.0
 62
     5
 63
     7
421
 16777215
 74
     1
 91
        4
 64
     7
 65
   257
 75
     7
175
     7
 42
1.0
 92
        8
 66
     7
 43
1.0
 76
     1
 77
     6
 78
     2
 67
     7
 79
     5
170
     0
171
     0
290
     0
174
     0
 93
        1
 44
0.0
173
     0
291
     1
 45
0.0
  0
VISUALSTYLE
  5
33
102
{ACAD_REACTORS
330
2A
102
}
102
{ACAD_XDICTIONARY
360
6C
102
}
330
2A
100
AcDbVisualStyle
  2
Realistic
 70
     8
 71
     2
 72
     2
 73
     0
 90
        0
 40
-0.6
 41
-30.0
 62
     5
 63
     7
421
 16777215
 74
     1
 91
        0
 64
     7
 65
   257
 75
     1
175
     1
 42
1.0
 92
        8
 66
     8
424
  7895160
 43
1.0
 76
     1
 77
     6
 78
     2
 67
     7
 79
     5
170
     0
171
     0
290
     0
174
     0
 93
       13
 44
0.0
173
     0
291
     0
 45
0.0
  0
VISUALSTYLE
  5
37
102
{ACAD_REACTORS
330
2A
102
}
102
{ACAD_XDICTIONARY
360
74
102
}
330
2A
100
AcDbVisualStyle
  2
Thicken
 70
    13
 71
     2
 72
     2
 73
     0
 90
        0
 40
-0.6
 41
-30.0
 62
     5
 63
     7
421
 16777215
 74
     1
 91
        4
 64
     7
 65
   257
 75
     1
175
     1
 42
1.0
 92
       12
 66
     7
 43
1.0
 76
     1
 77
     6
 78
     2
 67
     7
 79
     5
170
     0
171
     0
290
     0
174
     0
 93
        1
 44
0.0
173
     0
291
     1
 45
0.0
  0
DICTIONARY
  5
64
330
2F
100
AcDbDictionary
280
     1
281
     1
  3
ACAD_XREC_ROUNDTRIP
360
65
  0
DICTIONARY
  5
68
330
31
100
AcDbDictionary
280
     1
281
     1
  3
ACAD_XREC_ROUNDTRIP
360
69
  0
DICTIONARY
  5
66
330
30
100
AcDbDictionary
280
     1
281
     1
  3
ACAD_XREC_ROUNDTRIP
360
67
  0
DICTIONARY
  5
6A
330
32
100
AcDbDictionary
280
     1
281
     1
  3
ACAD_XREC_ROUNDTRIP
360
6B
  0
DICTIONARY
  5
72
330
36
100
AcDbDictionary
280
     1
281
     1
  3
ACAD_XREC_ROUNDTRIP
360
73
  0
DICTIONARY
  5
7A
330
3A
100
AcDbDictionary
280
     1
281
     1
  3
ACAD_XREC_ROUNDTRIP
360
7B
  0
DICTIONARY
  5
6E
330
34
100
AcDbDictionary
280
     1
281
     1
  3
ACAD_XREC_ROUNDTRIP
360
6F
  0
DICTIONARY
  5
70
330
35
100
AcDbDictionary
280
     1
281
     1
  3
ACAD_XREC_ROUNDTRIP
360
71
  0
DICTIONARY
  5
78
330
39
100
AcDbDictionary
280
     1
281
     1
  3
ACAD_XREC_ROUNDTRIP
360
79
  0
DICTIONARY
  5
5C
330
2B
100
AcDbDictionary
280
     1
281
     1
  3
ACAD_XREC_ROUNDTRIP
360
5D
  0
DICTIONARY
  5
5E
330
2C
100
AcDbDictionary
280
     1
281
     1
  3
ACAD_XREC_ROUNDTRIP
360
5F
  0
DICTIONARY
  5
60
330
2D
100
AcDbDictionary
280
     1
281
     1
  3
ACAD_XREC_ROUNDTRIP
360
61
  0
DICTIONARY
  5
62
330
2E
100
AcDbDictionary
280
     1
281
     1
  3
ACAD_XREC_ROUNDTRIP
360
63
  0
DICTIONARY
  5
76
330
38
100
AcDbDictionary
280
     1
281
     1
  3
ACAD_XREC_ROUNDTRIP
360
77
  0
DICTIONARY
  5
6C
330
33
100
AcDbDictionary
280
     1
281
     1
  3
ACAD_XREC_ROUNDTRIP
360
6D
  0
DICTIONARY
  5
74
330
37
100
AcDbDictionary
280
     1
281
     1
  3
ACAD_XREC_ROUNDTRIP
360
75
  0
XRECORD
  5
65
102
{ACAD_REACTORS
330
64
102
}
330
64
100
AcDbXrecord
280
     1
102
RTVSPropertyOp0
 70
     1
102
RTVSPropertyOp1
 70
     1
102
RTVSPropertyOp2
 70
     1
102
RTVSPropertyOp3
 70
     1
102
RTVSPropertyOp4
 70
     1
102
RTVSPropertyOp5
 70
     1
102
RTVSPropertyOp6
 70
     1
102
RTVSPropertyOp7
 70
     1
102
RTVSPropertyOp8
 70
     1
102
RTVSPropertyOp9
 70
     1
102
RTVSPropertyOp10
 70
     1
102
RTVSPropertyOp11
 70
     1
102
RTVSPropertyOp12
 70
     1
102
RTVSPropertyOp13
 70
     1
102
RTVSPropertyOp14
 70
     1
102
RTVSPropertyOp15
 70
     1
102
RTVSPropertyOp16
 70
     1
102
RTVSPropertyOp17
 70
     1
102
RTVSPropertyOp18
 70
     1
102
RTVSPropertyOp19
 70
     1
102
RTVSPropertyOp20
 70
     1
102
RTVSPropertyOp21
 70
     1
102
RTVSPropertyOp22
 70
     1
102
RTVSPropertyOp23
 70
     1
102
RTVSPropertyOp24
 70
     1
102
RTVSPropertyOp25
 70
     1
102
RTVSPropertyOp26
 70
     1
102
RTVSPropertyOp27
 70
     1
102
RTVSPropertyOp28
 70
     1
102
RTVSPropertyOp29
 70
     1
102
RTVSPropertyOp30
 70
     1
102
RTVSPropertyOp31
 70
     1
102
RTVSPropertyOp32
 70
     1
  0
XRECORD
  5
69
102
{ACAD_REACTORS
330
68
102
}
330
68
100
AcDbXrecord
280
     1
102
RTVSPropertyOp0
 70
     1
102
RTVSPropertyOp1
 70
     1
102
RTVSPropertyOp2
 70
     1
102
RTVSPropertyOp3
 70
     1
102
RTVSPropertyOp4
 70
     1
102
RTVSPropertyOp5
 70
     1
102
RTVSPropertyOp6
 70
     1
102
RTVSPropertyOp7
 70
     1
102
RTVSPropertyOp8
 70
     1
102
RTVSPropertyOp9
 70
     1
102
RTVSPropertyOp10
 70
     1
102
RTVSPropertyOp11
 70
     1
102
RTVSPropertyOp12
 70
     1
102
RTVSPropertyOp13
 70
     1
102
RTVSPropertyOp14
 70
     1
102
RTVSPropertyOp15
 70
     1
102
RTVSPropertyOp16
 70
     1
102
RTVSPropertyOp17
 70
     1
102
RTVSPropertyOp18
 70
     1
102
RTVSPropertyOp19
 70
     1
102
RTVSPropertyOp20
 70
     1
102
RTVSPropertyOp21
 70
     1
102
RTVSPropertyOp22
 70
     1
102
RTVSPropertyOp23
 70
     1
102
RTVSPropertyOp24
 70
     1
102
RTVSPropertyOp25
 70
     1
102
RTVSPropertyOp26
 70
     1
102
RTVSPropertyOp27
 70
     1
102
RTVSPropertyOp28
 70
     1
102
RTVSPropertyOp29
 70
     1
102
RTVSPropertyOp30
 70
     1
102
RTVSPropertyOp31
 70
     1
102
RTVSPropertyOp32
 70
     1
  0
XRECORD
  5
67
102
{ACAD_REACTORS
330
66
102
}
330
66
100
AcDbXrecord
280
     1
102
RTVSPropertyOp0
 70
     1
102
RTVSPropertyOp1
 70
     1
102
RTVSPropertyOp2
 70
     1
102
RTVSPropertyOp3
 70
     1
102
RTVSPropertyOp4
 70
     1
102
RTVSPropertyOp5
 70
     1
102
RTVSPropertyOp6
 70
     1
102
RTVSPropertyOp7
 70
     1
102
RTVSPropertyOp8
 70
     1
102
RTVSPropertyOp9
 70
     1
102
RTVSPropertyOp10
 70
     1
102
RTVSPropertyOp11
 70
     1
102
RTVSPropertyOp12
 70
     1
102
RTVSPropertyOp13
 70
     1
102
RTVSPropertyOp14
 70
     1
102
RTVSPropertyOp15
 70
     1
102
RTVSPropertyOp16
 70
     1
102
RTVSPropertyOp17
 70
     1
102
RTVSPropertyOp18
 70
     1
102
RTVSPropertyOp19
 70
     1
102
RTVSPropertyOp20
 70
     1
102
RTVSPropertyOp21
 70
     1
102
RTVSPropertyOp22
 70
     1
102
RTVSPropertyOp23
 70
     1
102
RTVSPropertyOp24
 70
     1
102
RTVSPropertyOp25
 70
     1
102
RTVSPropertyOp26
 70
     1
102
RTVSPropertyOp27
 70
     1
102
RTVSPropertyOp28
 70
     1
102
RTVSPropertyOp29
 70
     1
102
RTVSPropertyOp30
 70
     1
102
RTVSPropertyOp31
 70
     1
102
RTVSPropertyOp32
 70
     1
  0
XRECORD
  5
6B
102
{ACAD_REACTORS
330
6A
102
}
330
6A
100
AcDbXrecord
280
     1
102
RTVSPropertyOp0
 70
     1
102
RTVSPropertyOp1
 70
     1
102
RTVSPropertyOp2
 70
     1
102
RTVSPropertyOp3
 70
     1
102
RTVSPropertyOp4
 70
     1
102
RTVSPropertyOp5
 70
     1
102
RTVSPropertyOp6
 70
     1
102
RTVSPropertyOp7
 70
     1
102
RTVSPropertyOp8
 70
     1
102
RTVSPropertyOp9
 70
     1
102
RTVSPropertyOp10
 70
     1
102
RTVSPropertyOp11
 70
     1
102
RTVSPropertyOp12
 70
     1
102
RTVSPropertyOp13
 70
     1
102
RTVSPropertyOp14
 70
     1
102
RTVSPropertyOp15
 70
     1
102
RTVSPropertyOp16
 70
     1
102
RTVSPropertyOp17
 70
     1
102
RTVSPropertyOp18
 70
     1
102
RTVSPropertyOp19
 70
     1
102
RTVSPropertyOp20
 70
     1
102
RTVSPropertyOp21
 70
     1
102
RTVSPropertyOp22
 70
     1
102
RTVSPropertyOp23
 70
     1
102
RTVSPropertyOp24
 70
     1
102
RTVSPropertyOp25
 70
     1
102
RTVSPropertyOp26
 70
     1
102
RTVSPropertyOp27
 70
     1
102
RTVSPropertyOp28
 70
     1
102
RTVSPropertyOp29
 70
     1
102
RTVSPropertyOp30
 70
     1
102
RTVSPropertyOp31
 70
     1
102
RTVSPropertyOp32
 70
     1
  0
XRECORD
  5
73
102
{ACAD_REACTORS
330
72
102
}
330
72
100
AcDbXrecord
280
     1
102
RTVSPropertyOp0
 70
     1
102
RTVSPropertyOp1
 70
     1
102
RTVSPropertyOp2
 70
     1
102
RTVSPropertyOp3
 70
     1
102
RTVSPropertyOp4
 70
     1
102
RTVSPropertyOp5
 70
     1
102
RTVSPropertyOp6
 70
     1
102
RTVSPropertyOp7
 70
     1
102
RTVSPropertyOp8
 70
     1
102
RTVSPropertyOp9
 70
     1
102
RTVSPropertyOp10
 70
     1
102
RTVSPropertyOp11
 70
     1
102
RTVSPropertyOp12
 70
     1
102
RTVSPropertyOp13
 70
     1
102
RTVSPropertyOp14
 70
     1
102
RTVSPropertyOp15
 70
     1
102
RTVSPropertyOp16
 70
     1
102
RTVSPropertyOp17
 70
     1
102
RTVSPropertyOp18
 70
     1
102
RTVSPropertyOp19
 70
     1
102
RTVSPropertyOp20
 70
     1
102
RTVSPropertyOp21
 70
     1
102
RTVSPropertyOp22
 70
     1
102
RTVSPropertyOp23
 70
     1
102
RTVSPropertyOp24
 70
     1
102
RTVSPropertyOp25
 70
     1
102
RTVSPropertyOp26
 70
     1
102
RTVSPropertyOp27
 70
     1
102
RTVSPropertyOp28
 70
     1
102
RTVSPropertyOp29
 70
     1
102
RTVSPropertyOp30
 70
     1
102
RTVSPropertyOp31
 70
     1
102
RTVSPropertyOp32
 70
     1
  0
XRECORD
  5
7B
102
{ACAD_REACTORS
330
7A
102
}
330
7A
100
AcDbXrecord
280
     1
102
RTVSPropertyOp0
 70
     1
102
RTVSPropertyOp1
 70
     1
102
RTVSPropertyOp2
 70
     1
102
RTVSPropertyOp3
 70
     1
102
RTVSPropertyOp4
 70
     1
102
RTVSPropertyOp5
 70
     1
102
RTVSPropertyOp6
 70
     1
102
RTVSPropertyOp7
 70
     1
102
RTVSPropertyOp8
 70
     1
102
RTVSPropertyOp9
 70
     1
102
RTVSPropertyOp10
 70
     1
102
RTVSPropertyOp11
 70
     1
102
RTVSPropertyOp12
 70
     1
102
RTVSPropertyOp13
 70
     1
102
RTVSPropertyOp14
 70
     1
102
RTVSPropertyOp15
 70
     1
102
RTVSPropertyOp16
 70
     1
102
RTVSPropertyOp17
 70
     1
102
RTVSPropertyOp18
 70
     1
102
RTVSPropertyOp19
 70
     1
102
RTVSPropertyOp20
 70
     1
102
RTVSPropertyOp21
 70
     1
102
RTVSPropertyOp22
 70
     1
102
RTVSPropertyOp23
 70
     1
102
RTVSPropertyOp24
 70
     1
102
RTVSPropertyOp25
 70
     1
102
RTVSPropertyOp26
 70
     1
102
RTVSPropertyOp27
 70
     1
102
RTVSPropertyOp28
 70
     1
102
RTVSPropertyOp29
 70
     1
102
RTVSPropertyOp30
 70
     1
102
RTVSPropertyOp31
 70
     1
102
RTVSPropertyOp32
 70
     1
  0
XRECORD
  5
6F
102
{ACAD_REACTORS
330
6E
102
}
330
6E
100
AcDbXrecord
280
     1
102
RTVSPropertyOp0
 70
     1
102
RTVSPropertyOp1
 70
     1
102
RTVSPropertyOp2
 70
     1
102
RTVSPropertyOp3
 70
     1
102
RTVSPropertyOp4
 70
     1
102
RTVSPropertyOp5
 70
     1
102
RTVSPropertyOp6
 70
     1
102
RTVSPropertyOp7
 70
     1
102
RTVSPropertyOp8
 70
     1
102
RTVSPropertyOp9
 70
     1
102
RTVSPropertyOp10
 70
     1
102
RTVSPropertyOp11
 70
     1
102
RTVSPropertyOp12
 70
     1
102
RTVSPropertyOp13
 70
     1
102
RTVSPropertyOp14
 70
     1
102
RTVSPropertyOp15
 70
     1
102
RTVSPropertyOp16
 70
     1
102
RTVSPropertyOp17
 70
     1
102
RTVSPropertyOp18
 70
     1
102
RTVSPropertyOp19
 70
     1
102
RTVSPropertyOp20
 70
     1
102
RTVSPropertyOp21
 70
     1
102
RTVSPropertyOp22
 70
     1
102
RTVSPropertyOp23
 70
     1
102
RTVSPropertyOp24
 70
     1
102
RTVSPropertyOp25
 70
     1
102
RTVSPropertyOp26
 70
     1
102
RTVSPropertyOp27
 70
     1
102
RTVSPropertyOp28
 70
     1
102
RTVSPropertyOp29
 70
     1
102
RTVSPropertyOp30
 70
     1
102
RTVSPropertyOp31
 70
     1
102
RTVSPropertyOp32
 70
     1
  0
XRECORD
  5
71
102
{ACAD_REACTORS
330
70
102
}
330
70
100
AcDbXrecord
280
     1
102
RTVSPropertyOp0
 70
     1
102
RTVSPropertyOp1
 70
     1
102
RTVSPropertyOp2
 70
     1
102
RTVSPropertyOp3
 70
     1
102
RTVSPropertyOp4
 70
     1
102
RTVSPropertyOp5
 70
     1
102
RTVSPropertyOp6
 70
     1
102
RTVSPropertyOp7
 70
     1
102
RTVSPropertyOp8
 70
     1
102
RTVSPropertyOp9
 70
     1
102
RTVSPropertyOp10
 70
     1
102
RTVSPropertyOp11
 70
     1
102
RTVSPropertyOp12
 70
     1
102
RTVSPropertyOp13
 70
     1
102
RTVSPropertyOp14
 70
     1
102
RTVSPropertyOp15
 70
     1
102
RTVSPropertyOp16
 70
     1
102
RTVSPropertyOp17
 70
     1
102
RTVSPropertyOp18
 70
     1
102
RTVSPropertyOp19
 70
     1
102
RTVSPropertyOp20
 70
     1
102
RTVSPropertyOp21
 70
     1
102
RTVSPropertyOp22
 70
     1
102
RTVSPropertyOp23
 70
     1
102
RTVSPropertyOp24
 70
     1
102
RTVSPropertyOp25
 70
     1
102
RTVSPropertyOp26
 70
     1
102
RTVSPropertyOp27
 70
     1
102
RTVSPropertyOp28
 70
     1
102
RTVSPropertyOp29
 70
     1
102
RTVSPropertyOp30
 70
     1
102
RTVSPropertyOp31
 70
     1
102
RTVSPropertyOp32
 70
     1
  0
XRECORD
  5
79
102
{ACAD_REACTORS
330
78
102
}
330
78
100
AcDbXrecord
280
     1
102
RTVSPropertyOp0
 70
     1
102
RTVSPropertyOp1
 70
     1
102
RTVSPropertyOp2
 70
     1
102
RTVSPropertyOp3
 70
     1
102
RTVSPropertyOp4
 70
     1
102
RTVSPropertyOp5
 70
     1
102
RTVSPropertyOp6
 70
     1
102
RTVSPropertyOp7
 70
     1
102
RTVSPropertyOp8
 70
     1
102
RTVSPropertyOp9
 70
     1
102
RTVSPropertyOp10
 70
     1
102
RTVSPropertyOp11
 70
     1
102
RTVSPropertyOp12
 70
     1
102
RTVSPropertyOp13
 70
     1
102
RTVSPropertyOp14
 70
     1
102
RTVSPropertyOp15
 70
     1
102
RTVSPropertyOp16
 70
     1
102
RTVSPropertyOp17
 70
     1
102
RTVSPropertyOp18
 70
     1
102
RTVSPropertyOp19
 70
     1
102
RTVSPropertyOp20
 70
     1
102
RTVSPropertyOp21
 70
     1
102
RTVSPropertyOp22
 70
     1
102
RTVSPropertyOp23
 70
     1
102
RTVSPropertyOp24
 70
     1
102
RTVSPropertyOp25
 70
     1
102
RTVSPropertyOp26
 70
     1
102
RTVSPropertyOp27
 70
     1
102
RTVSPropertyOp28
 70
     1
102
RTVSPropertyOp29
 70
     1
102
RTVSPropertyOp30
 70
     1
102
RTVSPropertyOp31
 70
     1
102
RTVSPropertyOp32
 70
     1
  0
XRECORD
  5
5D
102
{ACAD_REACTORS
330
5C
102
}
330
5C
100
AcDbXrecord
280
     1
102
RTVSPropertyOp0
 70
     1
102
RTVSPropertyOp1
 70
     1
102
RTVSPropertyOp2
 70
     1
102
RTVSPropertyOp3
 70
     1
102
RTVSPropertyOp4
 70
     1
102
RTVSPropertyOp5
 70
     1
102
RTVSPropertyOp6
 70
     1
102
RTVSPropertyOp7
 70
     1
102
RTVSPropertyOp8
 70
     1
102
RTVSPropertyOp9
 70
     1
102
RTVSPropertyOp10
 70
     1
102
RTVSPropertyOp11
 70
     1
102
RTVSPropertyOp12
 70
     1
102
RTVSPropertyOp13
 70
     1
102
RTVSPropertyOp14
 70
     1
102
RTVSPropertyOp15
 70
     1
102
RTVSPropertyOp16
 70
     1
102
RTVSPropertyOp17
 70
     1
102
RTVSPropertyOp18
 70
     1
102
RTVSPropertyOp19
 70
     1
102
RTVSPropertyOp20
 70
     1
102
RTVSPropertyOp21
 70
     1
102
RTVSPropertyOp22
 70
     1
102
RTVSPropertyOp23
 70
     1
102
RTVSPropertyOp24
 70
     1
102
RTVSPropertyOp25
 70
     1
102
RTVSPropertyOp26
 70
     1
102
RTVSPropertyOp27
 70
     1
102
RTVSPropertyOp28
 70
     1
102
RTVSPropertyOp29
 70
     1
102
RTVSPropertyOp30
 70
     1
102
RTVSPropertyOp31
 70
     1
102
RTVSPropertyOp32
 70
     1
  0
XRECORD
  5
5F
102
{ACAD_REACTORS
330
5E
102
}
330
5E
100
AcDbXrecord
280
     1
102
RTVSPropertyOp0
 70
     1
102
RTVSPropertyOp1
 70
     1
102
RTVSPropertyOp2
 70
     1
102
RTVSPropertyOp3
 70
     1
102
RTVSPropertyOp4
 70
     1
102
RTVSPropertyOp5
 70
     1
102
RTVSPropertyOp6
 70
     1
102
RTVSPropertyOp7
 70
     1
102
RTVSPropertyOp8
 70
     1
102
RTVSPropertyOp9
 70
     1
102
RTVSPropertyOp10
 70
     1
102
RTVSPropertyOp11
 70
     1
102
RTVSPropertyOp12
 70
     1
102
RTVSPropertyOp13
 70
     1
102
RTVSPropertyOp14
 70
     1
102
RTVSPropertyOp15
 70
     1
102
RTVSPropertyOp16
 70
     1
102
RTVSPropertyOp17
 70
     1
102
RTVSPropertyOp18
 70
     1
102
RTVSPropertyOp19
 70
     1
102
RTVSPropertyOp20
 70
     1
102
RTVSPropertyOp21
 70
     1
102
RTVSPropertyOp22
 70
     1
102
RTVSPropertyOp23
 70
     1
102
RTVSPropertyOp24
 70
     1
102
RTVSPropertyOp25
 70
     1
102
RTVSPropertyOp26
 70
     1
102
RTVSPropertyOp27
 70
     1
102
RTVSPropertyOp28
 70
     1
102
RTVSPropertyOp29
 70
     1
102
RTVSPropertyOp30
 70
     1
102
RTVSPropertyOp31
 70
     1
102
RTVSPropertyOp32
 70
     1
  0
XRECORD
  5
61
102
{ACAD_REACTORS
330
60
102
}
330
60
100
AcDbXrecord
280
     1
102
RTVSPropertyOp0
 70
     1
102
RTVSPropertyOp1
 70
     1
102
RTVSPropertyOp2
 70
     1
102
RTVSPropertyOp3
 70
     1
102
RTVSPropertyOp4
 70
     1
102
RTVSPropertyOp5
 70
     1
102
RTVSPropertyOp6
 70
     1
102
RTVSPropertyOp7
 70
     1
102
RTVSPropertyOp8
 70
     1
102
RTVSPropertyOp9
 70
     1
102
RTVSPropertyOp10
 70
     1
102
RTVSPropertyOp11
 70
     1
102
RTVSPropertyOp12
 70
     1
102
RTVSPropertyOp13
 70
     1
102
RTVSPropertyOp14
 70
     1
102
RTVSPropertyOp15
 70
     1
102
RTVSPropertyOp16
 70
     1
102
RTVSPropertyOp17
 70
     1
102
RTVSPropertyOp18
 70
     1
102
RTVSPropertyOp19
 70
     1
102
RTVSPropertyOp20
 70
     1
102
RTVSPropertyOp21
 70
     1
102
RTVSPropertyOp22
 70
     1
102
RTVSPropertyOp23
 70
     1
102
RTVSPropertyOp24
 70
     1
102
RTVSPropertyOp25
 70
     1
102
RTVSPropertyOp26
 70
     1
102
RTVSPropertyOp27
 70
     1
102
RTVSPropertyOp28
 70
     1
102
RTVSPropertyOp29
 70
     1
102
RTVSPropertyOp30
 70
     1
102
RTVSPropertyOp31
 70
     1
102
RTVSPropertyOp32
 70
     1
  0
XRECORD
  5
63
102
{ACAD_REACTORS
330
62
102
}
330
62
100
AcDbXrecord
280
     1
102
RTVSPropertyOp0
 70
     1
102
RTVSPropertyOp1
 70
     1
102
RTVSPropertyOp2
 70
     1
102
RTVSPropertyOp3
 70
     1
102
RTVSPropertyOp4
 70
     1
102
RTVSPropertyOp5
 70
     1
102
RTVSPropertyOp6
 70
     1
102
RTVSPropertyOp7
 70
     1
102
RTVSPropertyOp8
 70
     1
102
RTVSPropertyOp9
 70
     1
102
RTVSPropertyOp10
 70
     1
102
RTVSPropertyOp11
 70
     1
102
RTVSPropertyOp12
 70
     1
102
RTVSPropertyOp13
 70
     1
102
RTVSPropertyOp14
 70
     1
102
RTVSPropertyOp15
 70
     1
102
RTVSPropertyOp16
 70
     1
102
RTVSPropertyOp17
 70
     1
102
RTVSPropertyOp18
 70
     1
102
RTVSPropertyOp19
 70
     1
102
RTVSPropertyOp20
 70
     1
102
RTVSPropertyOp21
 70
     1
102
RTVSPropertyOp22
 70
     1
102
RTVSPropertyOp23
 70
     1
102
RTVSPropertyOp24
 70
     1
102
RTVSPropertyOp25
 70
     1
102
RTVSPropertyOp26
 70
     1
102
RTVSPropertyOp27
 70
     1
102
RTVSPropertyOp28
 70
     1
102
RTVSPropertyOp29
 70
     1
102
RTVSPropertyOp30
 70
     1
102
RTVSPropertyOp31
 70
     1
102
RTVSPropertyOp32
 70
     1
  0
XRECORD
  5
77
102
{ACAD_REACTORS
330
76
102
}
330
76
100
AcDbXrecord
280
     1
102
RTVSPropertyOp0
 70
     1
102
RTVSPropertyOp1
 70
     1
102
RTVSPropertyOp2
 70
     1
102
RTVSPropertyOp3
 70
     1
102
RTVSPropertyOp4
 70
     1
102
RTVSPropertyOp5
 70
     1
102
RTVSPropertyOp6
 70
     1
102
RTVSPropertyOp7
 70
     1
102
RTVSPropertyOp8
 70
     1
102
RTVSPropertyOp9
 70
     1
102
RTVSPropertyOp10
 70
     1
102
RTVSPropertyOp11
 70
     1
102
RTVSPropertyOp12
 70
     1
102
RTVSPropertyOp13
 70
     1
102
RTVSPropertyOp14
 70
     1
102
RTVSPropertyOp15
 70
     1
102
RTVSPropertyOp16
 70
     1
102
RTVSPropertyOp17
 70
     1
102
RTVSPropertyOp18
 70
     1
102
RTVSPropertyOp19
 70
     1
102
RTVSPropertyOp20
 70
     1
102
RTVSPropertyOp21
 70
     1
102
RTVSPropertyOp22
 70
     1
102
RTVSPropertyOp23
 70
     1
102
RTVSPropertyOp24
 70
     1
102
RTVSPropertyOp25
 70
     1
102
RTVSPropertyOp26
 70
     1
102
RTVSPropertyOp27
 70
     1
102
RTVSPropertyOp28
 70
     1
102
RTVSPropertyOp29
 70
     1
102
RTVSPropertyOp30
 70
     1
102
RTVSPropertyOp31
 70
     1
102
RTVSPropertyOp32
 70
     1
  0
XRECORD
  5
6D
102
{ACAD_REACTORS
330
6C
102
}
330
6C
100
AcDbXrecord
280
     1
102
RTVSPropertyOp0
 70
     1
102
RTVSPropertyOp1
 70
     1
102
RTVSPropertyOp2
 70
     1
102
RTVSPropertyOp3
 70
     1
102
RTVSPropertyOp4
 70
     1
102
RTVSPropertyOp5
 70
     1
102
RTVSPropertyOp6
 70
     1
102
RTVSPropertyOp7
 70
     1
102
RTVSPropertyOp8
 70
     1
102
RTVSPropertyOp9
 70
     1
102
RTVSPropertyOp10
 70
     1
102
RTVSPropertyOp11
 70
     1
102
RTVSPropertyOp12
 70
     1
102
RTVSPropertyOp13
 70
     1
102
RTVSPropertyOp14
 70
     1
102
RTVSPropertyOp15
 70
     1
102
RTVSPropertyOp16
 70
     1
102
RTVSPropertyOp17
 70
     1
102
RTVSPropertyOp18
 70
     1
102
RTVSPropertyOp19
 70
     1
102
RTVSPropertyOp20
 70
     1
102
RTVSPropertyOp21
 70
     1
102
RTVSPropertyOp22
 70
     1
102
RTVSPropertyOp23
 70
     1
102
RTVSPropertyOp24
 70
     1
102
RTVSPropertyOp25
 70
     1
102
RTVSPropertyOp26
 70
     1
102
RTVSPropertyOp27
 70
     1
102
RTVSPropertyOp28
 70
     1
102
RTVSPropertyOp29
 70
     1
102
RTVSPropertyOp30
 70
     1
102
RTVSPropertyOp31
 70
     1
102
RTVSPropertyOp32
 70
     1
  0
XRECORD
  5
75
102
{ACAD_REACTORS
330
74
102
}
330
74
100
AcDbXrecord
280
     1
102
RTVSPropertyOp0
 70
     1
102
RTVSPropertyOp1
 70
     1
102
RTVSPropertyOp2
 70
     1
102
RTVSPropertyOp3
 70
     1
102
RTVSPropertyOp4
 70
     1
102
RTVSPropertyOp5
 70
     1
102
RTVSPropertyOp6
 70
     1
102
RTVSPropertyOp7
 70
     1
102
RTVSPropertyOp8
 70
     1
102
RTVSPropertyOp9
 70
     1
102
RTVSPropertyOp10
 70
     1
102
RTVSPropertyOp11
 70
     1
102
RTVSPropertyOp12
 70
     1
102
RTVSPropertyOp13
 70
     1
102
RTVSPropertyOp14
 70
     1
102
RTVSPropertyOp15
 70
     1
102
RTVSPropertyOp16
 70
     1
102
RTVSPropertyOp17
 70
     1
102
RTVSPropertyOp18
 70
     1
102
RTVSPropertyOp19
 70
     1
102
RTVSPropertyOp20
 70
     1
102
RTVSPropertyOp21
 70
     1
102
RTVSPropertyOp22
 70
     1
102
RTVSPropertyOp23
 70
     1
102
RTVSPropertyOp24
 70
     1
102
RTVSPropertyOp25
 70
     1
102
RTVSPropertyOp26
 70
     1
102
RTVSPropertyOp27
 70
     1
102
RTVSPropertyOp28
 70
     1
102
RTVSPropertyOp29
 70
     1
102
RTVSPropertyOp30
 70
     1
102
RTVSPropertyOp31
 70
     1
102
RTVSPropertyOp32
 70
     1
  0
ENDSEC
  0
EOF
