  0
SECTION
  2
HEADER
  9
$ACADVER
  1
AC1021
  9
$ACADMAINTVER
 70
    25
  9
$DWGCODEPAGE
  3
ANSI_1256
  9
$INSBASE
 10
0.0
 20
0.0
 30
0.0
  9
$EXTMIN
 10
128.098
 20
-106.5467
 30
0.0
  9
$EXTMAX
 10
196.1885
 20
131.7702
 30
0.0
  9
$LIMMIN
 10
0.0
 20
0.0
  9
$LIMMAX
 10
12.0
 20
9.0
  9
$ORTHOMODE
 70
     0
  9
$REGENMODE
 70
     1
  9
$FILLMODE
 70
     1
  9
$QTEXTMODE
 70
     0
  9
$MIRRTEXT
 70
     1
  9
$LTSCALE
 40
1.0
  9
$ATTMODE
 70
     1
  9
$TEXTSIZE
 40
0.2
  9
$TRACEWID
 40
0.05
  9
$TEXTSTYLE
  7
Standard
  9
$CLAYER
  8
0
  9
$CELTYPE
  6
ByLayer
  9
$CECOLOR
 62
   256
  9
$CELTSCALE
 40
1.0
  9
$DISPSILH
 70
     0
  9
$DIMSCALE
 40
1.0
  9
$DIMASZ
 40
0.18
  9
$DIMEXO
 40
0.0625
  9
$DIMDLI
 40
0.38
  9
$DIMRND
 40
0.0
  9
$DIMDLE
 40
0.0
  9
$DIMEXE
 40
0.18
  9
$DIMTP
 40
0.0
  9
$DIMTM
 40
0.0
  9
$DIMTXT
 40
0.18
  9
$DIMCEN
 40
0.09
  9
$DIMTSZ
 40
0.0
  9
$DIMTOL
 70
     0
  9
$DIMLIM
 70
     0
  9
$DIMTIH
 70
     1
  9
$DIMTOH
 70
     1
  9
$DIMSE1
 70
     0
  9
$DIMSE2
 70
     0
  9
$DIMTAD
 70
     0
  9
$DIMZIN
 70
     0
  9
$DIMBLK
  1

  9
$DIMASO
 70
     1
  9
$DIMSHO
 70
     1
  9
$DIMPOST
  1

  9
$DIMAPOST
  1

  9
$DIMALT
 70
     0
  9
$DIMALTD
 70
     2
  9
$DIMALTF
 40
25.4
  9
$DIMLFAC
 40
1.0
  9
$DIMTOFL
 70
     0
  9
$DIMTVP
 40
0.0
  9
$DIMTIX
 70
     0
  9
$DIMSOXD
 70
     0
  9
$DIMSAH
 70
     0
  9
$DIMBLK1
  1

  9
$DIMBLK2
  1

  9
$DIMSTYLE
  2
Standard
  9
$DIMCLRD
 70
     0
  9
$DIMCLRE
 70
     0
  9
$DIMCLRT
 70
     0
  9
$DIMTFAC
 40
1.0
  9
$DIMGAP
 40
0.09
  9
$DIMJUST
 70
     0
  9
$DIMSD1
 70
     0
  9
$DIMSD2
 70
     0
  9
$DIMTOLJ
 70
     1
  9
$DIMTZIN
 70
     0
  9
$DIMALTZ
 70
     0
  9
$DIMALTTZ
 70
     0
  9
$DIMUPT
 70
     0
  9
$DIMDEC
 70
     4
  9
$DIMTDEC
 70
     4
  9
$DIMALTU
 70
     2
  9
$DIMALTTD
 70
     2
  9
$DIMTXSTY
  7
Standard
  9
$DIMAUNIT
 70
     0
  9
$DIMADEC
 70
     0
  9
$DIMALTRND
 40
0.0
  9
$DIMAZIN
 70
     0
  9
$DIMDSEP
 70
    46
  9
$DIMATFIT
 70
     3
  9
$DIMFRAC
 70
     0
  9
$DIMLDRBLK
  1

  9
$DIMLUNIT
 70
     2
  9
$DIMLWD
 70
    -2
  9
$DIMLWE
 70
    -2
  9
$DIMTMOVE
 70
     0
  9
$DIMFXL
 40
1.0
  9
$DIMFXLON
 70
     0
  9
$DIMJOGANG
 40
0.7853981633974483
  9
$DIMTFILL
 70
     0
  9
$DIMTFILLCLR
 70
     0
  9
$DIMARCSYM
 70
     0
  9
$DIMLTYPE
  6

  9
$DIMLTEX1
  6

  9
$DIMLTEX2
  6

  9
$LUNITS
 70
     2
  9
$LUPREC
 70
     4
  9
$SKETCHINC
 40
0.1
  9
$FILLETRAD
 40
0.5
  9
$AUNITS
 70
     0
  9
$AUPREC
 70
     0
  9
$MENU
  1
.
  9
$ELEVATION
 40
0.0
  9
$PELEVATION
 40
0.0
  9
$THICKNESS
 40
0.0
  9
$LIMCHECK
 70
     0
  9
$CHAMFERA
 40
0.5
  9
$CHAMFERB
 40
0.5
  9
$CHAMFERC
 40
1.0
  9
$CHAMFERD
 40
0.0
  9
$SKPOLY
 70
     0
  9
$TDCREATE
 40
2458492.920072048
  9
$TDUCREATE
 40
2458492.753405382
  9
$TDUPDATE
 40
2458492.920072153
  9
$TDUUPDATE
 40
2458492.753405486
  9
$TDINDWG
 40
0.0000000116
  9
$TDUSRTIMER
 40
0.0000000116
  9
$USRTIMER
 70
     1
  9
$ANGBASE
 50
0.0
  9
$ANGDIR
 70
     0
  9
$PDMODE
 70
     0
  9
$PDSIZE
 40
0.0
  9
$PLINEWID
 40
0.0
  9
$SPLFRAME
 70
     0
  9
$SPLINETYPE
 70
     6
  9
$SPLINESEGS
 70
     8
  9
$HANDSEED
  5
8F
  9
$SURFTAB1
 70
     6
  9
$SURFTAB2
 70
     6
  9
$SURFTYPE
 70
     6
  9
$SURFU
 70
     6
  9
$SURFV
 70
     6
  9
$UCSBASE
  2

  9
$UCSNAME
  2

  9
$UCSORG
 10
0.0
 20
0.0
 30
0.0
  9
$UCSXDIR
 10
1.0
 20
0.0
 30
0.0
  9
$UCSYDIR
 10
0.0
 20
1.0
 30
0.0
  9
$UCSORTHOREF
  2

  9
$UCSORTHOVIEW
 70
     0
  9
$UCSORGTOP
 10
0.0
 20
0.0
 30
0.0
  9
$UCSORGBOTTOM
 10
0.0
 20
0.0
 30
0.0
  9
$UCSORGLEFT
 10
0.0
 20
0.0
 30
0.0
  9
$UCSORGRIGHT
 10
0.0
 20
0.0
 30
0.0
  9
$UCSORGFRONT
 10
0.0
 20
0.0
 30
0.0
  9
$UCSORGBACK
 10
0.0
 20
0.0
 30
0.0
  9
$PUCSBASE
  2

  9
$PUCSNAME
  2

  9
$PUCSORG
 10
0.0
 20
0.0
 30
0.0
  9
$PUCSXDIR
 10
1.0
 20
0.0
 30
0.0
  9
$PUCSYDIR
 10
0.0
 20
1.0
 30
0.0
  9
$PUCSORTHOREF
  2

  9
$PUCSORTHOVIEW
 70
     0
  9
$PUCSORGTOP
 10
0.0
 20
0.0
 30
0.0
  9
$PUCSORGBOTTOM
 10
0.0
 20
0.0
 30
0.0
  9
$PUCSORGLEFT
 10
0.0
 20
0.0
 30
0.0
  9
$PUCSORGRIGHT
 10
0.0
 20
0.0
 30
0.0
  9
$PUCSORGFRONT
 10
0.0
 20
0.0
 30
0.0
  9
$PUCSORGBACK
 10
0.0
 20
0.0
 30
0.0
  9
$USERI1
 70
     0
  9
$USERI2
 70
     0
  9
$USERI3
 70
     0
  9
$USERI4
 70
     0
  9
$USERI5
 70
     0
  9
$USERR1
 40
0.0
  9
$USERR2
 40
0.0
  9
$USERR3
 40
0.0
  9
$USERR4
 40
0.0
  9
$USERR5
 40
0.0
  9
$WORLDVIEW
 70
     1
  9
$SHADEDGE
 70
     3
  9
$SHADEDIF
 70
    70
  9
$TILEMODE
 70
     1
  9
$MAXACTVP
 70
    64
  9
$PINSBASE
 10
0.0
 20
0.0
 30
0.0
  9
$PLIMCHECK
 70
     0
  9
$PEXTMIN
 10
1.000000000000000E+20
 20
1.000000000000000E+20
 30
1.000000000000000E+20
  9
$PEXTMAX
 10
-1.000000000000000E+20
 20
-1.000000000000000E+20
 30
-1.000000000000000E+20
  9
$PLIMMIN
 10
0.0
 20
0.0
  9
$PLIMMAX
 10
12.0
 20
9.0
  9
$UNITMODE
 70
     0
  9
$VISRETAIN
 70
     1
  9
$PLINEGEN
 70
     0
  9
$PSLTSCALE
 70
     1
  9
$TREEDEPTH
 70
  3020
  9
$CMLSTYLE
  2
Standard
  9
$CMLJUST
 70
     0
  9
$CMLSCALE
 40
1.0
  9
$PROXYGRAPHICS
 70
     1
  9
$MEASUREMENT
 70
     0
  9
$CELWEIGHT
370
    -1
  9
$ENDCAPS
280
     0
  9
$JOINSTYLE
280
     0
  9
$LWDISPLAY
290
     0
  9
$INSUNITS
 70
     4
  9
$HYPERLINKBASE
  1

  9
$STYLESHEET
  1

  9
$XEDIT
290
     1
  9
$CEPSNTYPE
380
     0
  9
$PSTYLEMODE
290
     1
  9
$FINGERPRINTGUID
  2
{9D27F5F9-C7C7-4192-B27C-98A1456CBB5C}
  9
$VERSIONGUID
  2
{FAEB1C32-E019-11D5-929B-00C0DF256EC4}
  9
$EXTNAMES
290
     1
  9
$PSVPSCALE
 40
0.0
  9
$OLESTARTUP
290
     0
  9
$SORTENTS
280
   127
  9
$INDEXCTL
280
     0
  9
$HIDETEXT
280
     1
  9
$XCLIPFRAME
290
     0
  9
$HALOGAP
280
     0
  9
$OBSCOLOR
 70
   257
  9
$OBSLTYPE
280
     0
  9
$INTERSECTIONDISPLAY
280
     0
  9
$INTERSECTIONCOLOR
 70
   257
  9
$DIMASSOC
280
     2
  9
$PROJECTNAME
  1

  9
$CAMERADISPLAY
290
     0
  9
$LENSLENGTH
 40
50.0
  9
$CAMERAHEIGHT
 40
0.0
  9
$STEPSPERSEC
 40
2.0
  9
$STEPSIZE
 40
6.0
  9
$3DDWFPREC
 40
2.0
  9
$PSOLWIDTH
 40
0.25
  9
$PSOLHEIGHT
 40
4.0
  9
$LOFTANG1
 40
1.570796326794897
  9
$LOFTANG2
 40
1.570796326794897
  9
$LOFTMAG1
 40
0.0
  9
$LOFTMAG2
 40
0.0
  9
$LOFTPARAM
 70
     7
  9
$LOFTNORMALS
280
     1
  9
$LATITUDE
 40
37.795
  9
$LONGITUDE
 40
-122.394
  9
$NORTHDIRECTION
 40
0.0
  9
$TIMEZONE
 70
 -8000
  9
$LIGHTGLYPHDISPLAY
280
     1
  9
$TILEMODELIGHTSYNCH
280
     1
  9
$SOLIDHIST
280
     1
  9
$SHOWHIST
280
     1
  9
$DWFFRAME
280
     2
  9
$DGNFRAME
280
     2
  9
$REALWORLDSCALE
290
     1
  9
$INTERFERECOLOR
 62
   256
  9
$CSHADOW
280
     0
  9
$SHADOWPLANELOCATION
 40
0.0
  0
ENDSEC
  0
SECTION
  2
CLASSES
  0
CLASS
  1
ACDBDICTIONARYWDFLT
  2
AcDbDictionaryWithDefault
  3
ObjectDBX Classes
 90
        0
 91
        4
280
     0
281
     0
  0
CLASS
  1
VISUALSTYLE
  2
AcDbVisualStyle
  3
ObjectDBX Classes
 90
     4095
 91
        4
280
     0
281
     0
  0
CLASS
  1
MATERIAL
  2
AcDbMaterial
  3
ObjectDBX Classes
 90
     1153
 91
        4
280
     0
281
     0
  0
ENDSEC
  0
SECTION
  2
TABLES
  0
TABLE
  2
VPORT
  5
8
330
0
100
AcDbSymbolTable
 70
     1
  0
VPORT
  5
29
330
8
100
AcDbSymbolTableRecord
100
AcDbViewportTableRecord
  2
*Active
 70
     0
 10
0.0
 20
0.0
 11
1.0
 21
1.0
 12
10.42990654205607
 22
4.5
 13
0.0
 23
0.0
 14
0.5
 24
0.5
 15
0.5
 25
0.5
 16
0.0
 26
0.0
 36
1.0
 17
0.0
 27
0.0
 37
0.0
 40
9.0
 41
1.972972972850329
 42
50.0
 43
0.0
 44
0.0
 50
0.0
 51
0.0
 71
     0
 72
   100
 73
     1
 74
     3
 75
     0
 76
     0
 77
     0
 78
     0
281
     0
 65
     1
110
0.0
120
0.0
130
0.0
111
1.0
121
0.0
131
0.0
112
0.0
122
1.0
132
0.0
 79
     0
146
0.0
 60
     3
 61
     5
292
     1
282
     1
141
0.0
142
0.0
 63
   250
  0
ENDTAB
  0
TABLE
  2
LTYPE
  5
5
330
0
100
AcDbSymbolTable
 70
     1
  0
LTYPE
  5
14
330
5
100
AcDbSymbolTableRecord
100
AcDbLinetypeTableRecord
  2
ByBlock
 70
     0
  3

 72
    65
 73
     0
 40
0.0
  0
LTYPE
  5
15
330
5
100
AcDbSymbolTableRecord
100
AcDbLinetypeTableRecord
  2
ByLayer
 70
     0
  3

 72
    65
 73
     0
 40
0.0
  0
LTYPE
  5
16
330
5
100
AcDbSymbolTableRecord
100
AcDbLinetypeTableRecord
  2
Continuous
 70
     0
  3
Solid line
 72
    65
 73
     0
 40
0.0
  0
ENDTAB
  0
TABLE
  2
LAYER
  5
2
330
0
100
AcDbSymbolTable
 70
     2
  0
LAYER
  5
10
330
2
100
AcDbSymbolTableRecord
100
AcDbLayerTableRecord
  2
0
 70
     0
 62
     7
  6
Continuous
370
    -3
390
F
347
3E
  0
LAYER
  5
40
330
2
100
AcDbSymbolTableRecord
100
AcDbLayerTableRecord
  2
layer 1
 70
     0
 62
     7
  6
Continuous
370
    -3
390
F
347
3E
  0
ENDTAB
  0
TABLE
  2
STYLE
  5
3
330
0
100
AcDbSymbolTable
 70
     1
  0
STYLE
  5
11
330
3
100
AcDbSymbolTableRecord
100
AcDbTextStyleTableRecord
  2
Standard
 70
     0
 40
0.0
 41
1.0
 50
0.0
 71
     0
 42
0.2
  3
txt
  4

  0
ENDTAB
  0
TABLE
  2
VIEW
  5
6
330
0
100
AcDbSymbolTable
 70
     0
  0
ENDTAB
  0
TABLE
  2
UCS
  5
7
330
0
100
AcDbSymbolTable
 70
     0
  0
ENDTAB
  0
TABLE
  2
APPID
  5
9
330
0
100
AcDbSymbolTable
 70
     2
  0
APPID
  5
12
330
9
100
AcDbSymbolTableRecord
100
AcDbRegAppTableRecord
  2
ACAD
 70
     0
  0
APPID
  5
3F
330
9
100
AcDbSymbolTableRecord
100
AcDbRegAppTableRecord
  2
ODA
 70
     0
  0
ENDTAB
  0
TABLE
  2
DIMSTYLE
  5
A
330
0
100
AcDbSymbolTable
 70
     1
100
AcDbDimStyleTable
  0
DIMSTYLE
105
27
330
A
100
AcDbSymbolTableRecord
100
AcDbDimStyleTableRecord
  2
Standard
 70
     0
178
     0
340
11
  0
ENDTAB
  0
TABLE
  2
BLOCK_RECORD
  5
1
330
0
100
AcDbSymbolTable
 70
     1
  0
BLOCK_RECORD
  5
1F
330
1
100
AcDbSymbolTableRecord
100
AcDbBlockTableRecord
  2
*Model_Space
340
22
 70
     0
280
     1
281
     0
  0
BLOCK_RECORD
  5
1B
330
1
100
AcDbSymbolTableRecord
100
AcDbBlockTableRecord
  2
*Paper_Space
340
1E
 70
     0
280
     1
281
     0
  0
BLOCK_RECORD
  5
23
330
1
100
AcDbSymbolTableRecord
100
AcDbBlockTableRecord
  2
*Paper_Space0
340
26
 70
     0
280
     1
281
     0
  0
ENDTAB
  0
ENDSEC
  0
SECTION
  2
BLOCKS
  0
BLOCK
  5
20
330
1F
100
AcDbEntity
  8
0
100
AcDbBlockBegin
  2
*Model_Space
 70
     0
 10
0.0
 20
0.0
 30
0.0
  3
*Model_Space
  1

  0
ENDBLK
  5
21
330
1F
100
AcDbEntity
  8
0
100
AcDbBlockEnd
  0
BLOCK
  5
1C
330
1B
100
AcDbEntity
 67
     1
  8
0
100
AcDbBlockBegin
  2
*Paper_Space
 70
     0
 10
0.0
 20
0.0
 30
0.0
  3
*Paper_Space
  1

  0
ENDBLK
  5
1D
330
1B
100
AcDbEntity
 67
     1
  8
0
100
AcDbBlockEnd
  0
BLOCK
  5
24
330
23
100
AcDbEntity
  8
0
100
AcDbBlockBegin
  2
*Paper_Space0
 70
     0
 10
0.0
 20
0.0
 30
0.0
  3
*Paper_Space0
  1

  0
ENDBLK
  5
25
330
23
100
AcDbEntity
  8
0
100
AcDbBlockEnd
  0
ENDSEC
  0
SECTION
  2
ENTITIES
  0
SPLINE
  5
41
330
1F
100
AcDbEntity
  8
layer 1
 62
   250
100
AcDbSpline
210
0.0
220
0.0
230
1.0
 70
    11
 71
     3
 72
    20
 73
    16
 74
     0
 42
0.0000000001
 43
0.0000000001
 12
1.0
 22
0.0
 32
0.0
 13
1.0
 23
0.0
 33
0.0
 40
0.0
 40
0.0
 40
0.0
 40
0.0
 40
0.2
 40
0.2
 40
0.2
 40
0.2
 40
0.4
 40
0.4
 40
0.4
 40
0.4
 40
0.6
 40
0.6
 40
0.6
 40
0.6
 40
1.0
 40
1.0
 40
1.0
 40
1.0
 10
128.098
 20
131.7702
 30
0.0
 10
128.098
 20
131.7702
 30
0.0
 10
196.1885
 20
131.7702
 30
0.0
 10
196.1885
 20
131.7702
 30
0.0
 10
196.1885
 20
131.7702
 30
0.0
 10
196.1885
 20
131.7702
 30
0.0
 10
196.1885
 20
-106.5467
 30
0.0
 10
196.1885
 20
-106.5467
 30
0.0
 10
196.1885
 20
-106.5467
 30
0.0
 10
196.1885
 20
-106.5467
 30
0.0
 10
128.098
 20
-106.5467
 30
0.0
 10
128.098
 20
-106.5467
 30
0.0
 10
128.098
 20
-106.5467
 30
0.0
 10
128.098
 20
-106.5467
 30
0.0
 10
128.098
 20
131.7702
 30
0.0
 10
128.098
 20
131.7702
 30
0.0
  0
SPLINE
  5
42
330
1F
100
AcDbEntity
  8
layer 1
 62
     7
100
AcDbSpline
210
0.0
220
0.0
230
1.0
 70
    11
 71
     3
 72
    56
 73
    52
 74
     0
 42
0.0000000001
 43
0.0000000001
 12
1.0
 22
0.0
 32
0.0
 13
1.0
 23
0.0
 33
0.0
 40
0.0
 40
0.0
 40
0.0
 40
0.0
 40
0.0714285714285714
 40
0.0714285714285714
 40
0.0714285714285714
 40
0.0714285714285714
 40
0.1428571428571428
 40
0.1428571428571428
 40
0.1428571428571428
 40
0.1428571428571428
 40
0.2142857142857143
 40
0.2142857142857143
 40
0.2142857142857143
 40
0.2142857142857143
 40
0.2857142857142857
 40
0.2857142857142857
 40
0.2857142857142857
 40
0.2857142857142857
 40
0.3571428571428572
 40
0.3571428571428572
 40
0.3571428571428572
 40
0.3571428571428572
 40
0.4285714285714285
 40
0.4285714285714285
 40
0.4285714285714285
 40
0.4285714285714285
 40
0.5
 40
0.5
 40
0.5
 40
0.5
 40
0.5714285714285714
 40
0.5714285714285714
 40
0.5714285714285714
 40
0.5714285714285714
 40
0.6428571428571429
 40
0.6428571428571429
 40
0.6428571428571429
 40
0.6428571428571429
 40
0.7142857142857143
 40
0.7142857142857143
 40
0.7142857142857143
 40
0.7142857142857143
 40
0.7857142857142857
 40
0.7857142857142857
 40
0.7857142857142857
 40
0.7857142857142857
 40
0.8571428571428571
 40
0.8571428571428571
 40
0.8571428571428571
 40
0.8571428571428571
 40
1.0
 40
1.0
 40
1.0
 40
1.0
 10
143.7499
 20
129.0621
 30
0.0
 10
143.7499
 20
129.0621
 30
0.0
 10
153.4244
 20
129.0621
 30
0.0
 10
153.4244
 20
129.0621
 30
0.0
 10
153.4244
 20
129.0621
 30
0.0
 10
151.4173
 20
123.762
 30
0.0
 10
153.4209
 20
117.5298
 30
0.0
 10
157.8637
 20
114.2762
 30
0.0
 10
157.8637
 20
114.2762
 30
0.0
 10
157.8637
 20
114.2762
 30
0.0
 10
157.8637
 20
112.5186
 30
0.0
 10
152.7325
 20
112.2666
 30
0.0
 10
152.7325
 20
112.2666
 30
0.0
 10
147.6012
 20
112.0148
 30
0.0
 10
144.6536
 20
116.3062
 30
0.0
 10
144.6536
 20
116.3062
 30
0.0
 10
144.6536
 20
116.3062
 30
0.0
 10
144.6536
 20
116.3062
 30
0.0
 10
142.0335
 20
111.0938
 30
0.0
 10
144.6536
 20
107.0395
 30
0.0
 10
144.6536
 20
107.0395
 30
0.0
 10
145.4325
 20
105.8345
 30
0.0
 10
146.5003
 20
104.8082
 30
0.0
 10
147.7719
 20
104.0625
 30
0.0
 10
147.7719
 20
104.0625
 30
0.0
 10
147.7114
 20
103.9474
 30
0.0
 10
147.6494
 20
103.8255
 30
0.0
 10
147.5855
 20
103.6969
 30
0.0
 10
147.5855
 20
103.6969
 30
0.0
 10
147.4187
 20
103.3611
 30
0.0
 10
147.2783
 20
102.9008
 30
0.0
 10
147.1705
 20
102.375
 30
0.0
 10
147.1705
 20
102.375
 30
0.0
 10
144.4178
 20
104.5948
 30
0.0
 10
141.4128
 20
107.7633
 30
0.0
 10
138.7602
 20
112.3311
 30
0.0
 10
138.7602
 20
112.3311
 30
0.0
 10
133.6788
 20
121.0809
 30
0.0
 10
131.2152
 20
128.1227
 30
0.0
 10
131.2152
 20
128.1227
 30
0.0
 10
131.2152
 20
128.1227
 30
0.0
 10
131.2152
 20
128.1227
 30
0.0
 10
135.3727
 20
125.1121
 30
0.0
 10
141.9937
 20
125.4253
 30
0.0
 10
141.9937
 20
125.4253
 30
0.0
 10
148.6147
 20
125.7383
 30
0.0
 10
149.3203
 20
127.5559
 30
0.0
 10
149.3203
 20
127.5559
 30
0.0
 10
149.3203
 20
127.5559
 30
0.0
 10
147.2765
 20
128.0149
 30
0.0
 10
145.4371
 20
128.5151
 30
0.0
 10
143.7499
 20
129.0621
 30
0.0
  0
SPLINE
  5
43
330
1F
100
AcDbEntity
  8
layer 1
 62
     7
100
AcDbSpline
210
0.0
220
0.0
230
1.0
 70
    11
 71
     3
 72
    28
 73
    24
 74
     0
 42
0.0000000001
 43
0.0000000001
 12
1.0
 22
0.0
 32
0.0
 13
1.0
 23
0.0
 33
0.0
 40
0.0
 40
0.0
 40
0.0
 40
0.0
 40
0.1428571428571428
 40
0.1428571428571428
 40
0.1428571428571428
 40
0.1428571428571428
 40
0.2857142857142857
 40
0.2857142857142857
 40
0.2857142857142857
 40
0.2857142857142857
 40
0.4285714285714285
 40
0.4285714285714285
 40
0.4285714285714285
 40
0.4285714285714285
 40
0.5714285714285714
 40
0.5714285714285714
 40
0.5714285714285714
 40
0.5714285714285714
 40
0.7142857142857143
 40
0.7142857142857143
 40
0.7142857142857143
 40
0.7142857142857143
 40
1.0
 40
1.0
 40
1.0
 40
1.0
 10
156.0474
 20
129.0621
 30
0.0
 10
156.0474
 20
129.0621
 30
0.0
 10
165.7689
 20
129.0621
 30
0.0
 10
165.7689
 20
129.0621
 30
0.0
 10
165.7689
 20
129.0621
 30
0.0
 10
163.1658
 20
127.4404
 30
0.0
 10
161.177
 20
124.8157
 30
0.0
 10
160.9206
 20
121.6756
 30
0.0
 10
160.9206
 20
121.6756
 30
0.0
 10
160.9206
 20
121.6756
 30
0.0
 10
165.9426
 20
123.5776
 30
0.0
 10
166.9253
 20
120.9489
 30
0.0
 10
166.9253
 20
120.9489
 30
0.0
 10
167.9078
 20
118.3202
 30
0.0
 10
166.8907
 20
115.2845
 30
0.0
 10
163.2133
 20
115.4619
 30
0.0
 10
163.2133
 20
115.4619
 30
0.0
 10
157.7175
 20
115.7267
 30
0.0
 10
153.5032
 20
122.7074
 30
0.0
 10
155.7636
 20
128.4144
 30
0.0
 10
155.7636
 20
128.4144
 30
0.0
 10
155.8491
 20
128.6303
 30
0.0
 10
155.9437
 20
128.8463
 30
0.0
 10
156.0474
 20
129.0621
 30
0.0
  0
SPLINE
  5
44
330
1F
100
AcDbEntity
  8
layer 1
 62
     7
100
AcDbSpline
210
0.0
220
0.0
230
1.0
 70
    11
 71
     3
 72
    76
 73
    72
 74
     0
 42
0.0000000001
 43
0.0000000001
 12
1.0
 22
0.0
 32
0.0
 13
1.0
 23
0.0
 33
0.0
 40
0.0
 40
0.0
 40
0.0
 40
0.0
 40
0.0526315789473684
 40
0.0526315789473684
 40
0.0526315789473684
 40
0.0526315789473684
 40
0.1052631578947368
 40
0.1052631578947368
 40
0.1052631578947368
 40
0.1052631578947368
 40
0.1578947368421053
 40
0.1578947368421053
 40
0.1578947368421053
 40
0.1578947368421053
 40
0.2105263157894737
 40
0.2105263157894737
 40
0.2105263157894737
 40
0.2105263157894737
 40
0.2631578947368421
 40
0.2631578947368421
 40
0.2631578947368421
 40
0.2631578947368421
 40
0.3157894736842105
 40
0.3157894736842105
 40
0.3157894736842105
 40
0.3157894736842105
 40
0.3684210526315789
 40
0.3684210526315789
 40
0.3684210526315789
 40
0.3684210526315789
 40
0.4210526315789473
 40
0.4210526315789473
 40
0.4210526315789473
 40
0.4210526315789473
 40
0.4736842105263158
 40
0.4736842105263158
 40
0.4736842105263158
 40
0.4736842105263158
 40
0.5263157894736842
 40
0.5263157894736842
 40
0.5263157894736842
 40
0.5263157894736842
 40
0.5789473684210527
 40
0.5789473684210527
 40
0.5789473684210527
 40
0.5789473684210527
 40
0.631578947368421
 40
0.631578947368421
 40
0.631578947368421
 40
0.631578947368421
 40
0.6842105263157895
 40
0.6842105263157895
 40
0.6842105263157895
 40
0.6842105263157895
 40
0.7368421052631579
 40
0.7368421052631579
 40
0.7368421052631579
 40
0.7368421052631579
 40
0.7894736842105263
 40
0.7894736842105263
 40
0.7894736842105263
 40
0.7894736842105263
 40
0.8421052631578947
 40
0.8421052631578947
 40
0.8421052631578947
 40
0.8421052631578947
 40
0.8947368421052632
 40
0.8947368421052632
 40
0.8947368421052632
 40
0.8947368421052632
 40
1.0
 40
1.0
 40
1.0
 40
1.0
 10
176.767
 20
129.0621
 30
0.0
 10
176.767
 20
129.0621
 30
0.0
 10
183.9226
 20
129.0621
 30
0.0
 10
183.9226
 20
129.0621
 30
0.0
 10
183.9226
 20
129.0621
 30
0.0
 10
187.7877
 20
122.9716
 30
0.0
 10
187.379
 20
113.8344
 30
0.0
 10
183.4405
 20
107.5488
 30
0.0
 10
183.4405
 20
107.5488
 30
0.0
 10
180.6174
 20
103.0433
 30
0.0
 10
176.2179
 20
100.8799
 30
0.0
 10
176.5464
 20
101.347
 30
0.0
 10
176.5464
 20
101.347
 30
0.0
 10
176.8745
 20
101.8138
 30
0.0
 10
179.9605
 20
104.4636
 30
0.0
 10
178.8443
 20
108.3629
 30
0.0
 10
178.8443
 20
108.3629
 30
0.0
 10
177.7281
 20
112.262
 30
0.0
 10
171.0965
 20
113.765
 30
0.0
 10
168.5358
 20
109.5178
 30
0.0
 10
168.5358
 20
109.5178
 30
0.0
 10
165.975
 20
105.2704
 30
0.0
 10
167.9447
 20
103.748
 30
0.0
 10
169.849
 20
102.9775
 30
0.0
 10
169.849
 20
102.9775
 30
0.0
 10
171.753
 20
102.2072
 30
0.0
 10
172.8038
 20
102.5677
 30
0.0
 10
172.8038
 20
102.5677
 30
0.0
 10
172.8038
 20
102.5677
 30
0.0
 10
172.8038
 20
102.5677
 30
0.0
 10
174.0513
 20
100.7674
 30
0.0
 10
168.3387
 20
98.6102
 30
0.0
 10
168.3387
 20
98.6102
 30
0.0
 10
162.6263
 20
96.4527
 30
0.0
 10
157.0455
 20
96.6827
 30
0.0
 10
153.631
 20
98.3222
 30
0.0
 10
153.631
 20
98.3222
 30
0.0
 10
152.9371
 20
98.6555
 30
0.0
 10
152.1203
 20
99.0709
 30
0.0
 10
151.2172
 20
99.5944
 30
0.0
 10
151.2172
 20
99.5944
 30
0.0
 10
150.7065
 20
100.5713
 30
0.0
 10
149.883
 20
101.3263
 30
0.0
 10
149.6423
 20
101.8081
 30
0.0
 10
149.6423
 20
101.8081
 30
0.0
 10
149.4981
 20
102.0976
 30
0.0
 10
149.3458
 20
102.7144
 30
0.0
 10
149.2118
 20
103.3747
 30
0.0
 10
149.2118
 20
103.3747
 30
0.0
 10
152.033
 20
102.308
 30
0.0
 10
155.5487
 20
102.5185
 30
0.0
 10
159.0647
 20
104.8321
 30
0.0
 10
159.0647
 20
104.8321
 30
0.0
 10
164.9601
 20
108.7113
 30
0.0
 10
160.0471
 20
113.9467
 30
0.0
 10
160.0471
 20
113.9467
 30
0.0
 10
160.0471
 20
113.9467
 30
0.0
 10
160.0471
 20
113.9467
 30
0.0
 10
162.5582
 20
112.501
 30
0.0
 10
165.506
 20
113.6417
 30
0.0
 10
165.506
 20
113.6417
 30
0.0
 10
168.4537
 20
114.7826
 30
0.0
 10
168.672
 20
115.7162
 30
0.0
 10
168.672
 20
115.7162
 30
0.0
 10
168.672
 20
115.7162
 30
0.0
 10
168.672
 20
115.7162
 30
0.0
 10
172.6025
 20
113.9886
 30
0.0
 10
176.3143
 20
116.5197
 30
0.0
 10
176.3143
 20
116.5197
 30
0.0
 10
179.6601
 20
118.8016
 30
0.0
 10
180.6099
 20
125.7377
 30
0.0
 10
176.767
 20
129.0621
 30
0.0
  0
SPLINE
  5
45
330
1F
100
AcDbEntity
  8
layer 1
 62
     7
100
AcDbSpline
210
0.0
220
0.0
230
1.0
 70
    11
 71
     3
 72
    32
 73
    28
 74
     0
 42
0.0000000001
 43
0.0000000001
 12
1.0
 22
0.0
 32
0.0
 13
1.0
 23
0.0
 33
0.0
 40
0.0
 40
0.0
 40
0.0
 40
0.0
 40
0.125
 40
0.125
 40
0.125
 40
0.125
 40
0.25
 40
0.25
 40
0.25
 40
0.25
 40
0.375
 40
0.375
 40
0.375
 40
0.375
 40
0.5
 40
0.5
 40
0.5
 40
0.5
 40
0.625
 40
0.625
 40
0.625
 40
0.625
 40
0.75
 40
0.75
 40
0.75
 40
0.75
 40
1.0
 40
1.0
 40
1.0
 40
1.0
 10
186.6386
 20
129.0621
 30
0.0
 10
186.6386
 20
129.0621
 30
0.0
 10
193.3514
 20
129.0621
 30
0.0
 10
193.3514
 20
129.0621
 30
0.0
 10
193.3514
 20
129.0621
 30
0.0
 10
193.3514
 20
129.0621
 30
0.0
 10
193.3514
 20
113.0968
 30
0.0
 10
193.3514
 20
113.0968
 30
0.0
 10
193.3514
 20
113.0968
 30
0.0
 10
191.3296
 20
112.2642
 30
0.0
 10
189.9873
 20
109.8589
 30
0.0
 10
188.8867
 20
107.1659
 30
0.0
 10
188.8867
 20
107.1659
 30
0.0
 10
187.5455
 20
103.8848
 30
0.0
 10
181.4479
 20
97.6149
 30
0.0
 10
177.9309
 20
96.2886
 30
0.0
 10
177.9309
 20
96.2886
 30
0.0
 10
174.0788
 20
94.8358
 30
0.0
 10
169.2552
 20
94.6002
 30
0.0
 10
167.2867
 20
96.0035
 30
0.0
 10
167.2867
 20
96.0035
 30
0.0
 10
167.0334
 20
96.1841
 30
0.0
 10
172.3153
 20
96.8388
 30
0.0
 10
179.4395
 20
101.2676
 30
0.0
 10
179.4395
 20
101.2676
 30
0.0
 10
189.623
 20
109.4122
 30
0.0
 10
191.1726
 20
121.0302
 30
0.0
 10
186.6386
 20
129.0621
 30
0.0
  0
SPLINE
  5
46
330
1F
100
AcDbEntity
  8
layer 1
 62
     7
100
AcDbSpline
210
0.0
220
0.0
230
1.0
 70
    11
 71
     3
 72
    56
 73
    52
 74
     0
 42
0.0000000001
 43
0.0000000001
 12
1.0
 22
0.0
 32
0.0
 13
1.0
 23
0.0
 33
0.0
 40
0.0
 40
0.0
 40
0.0
 40
0.0
 40
0.0714285714285714
 40
0.0714285714285714
 40
0.0714285714285714
 40
0.0714285714285714
 40
0.1428571428571428
 40
0.1428571428571428
 40
0.1428571428571428
 40
0.1428571428571428
 40
0.2142857142857143
 40
0.2142857142857143
 40
0.2142857142857143
 40
0.2142857142857143
 40
0.2857142857142857
 40
0.2857142857142857
 40
0.2857142857142857
 40
0.2857142857142857
 40
0.3571428571428572
 40
0.3571428571428572
 40
0.3571428571428572
 40
0.3571428571428572
 40
0.4285714285714285
 40
0.4285714285714285
 40
0.4285714285714285
 40
0.4285714285714285
 40
0.5
 40
0.5
 40
0.5
 40
0.5
 40
0.5714285714285714
 40
0.5714285714285714
 40
0.5714285714285714
 40
0.5714285714285714
 40
0.6428571428571429
 40
0.6428571428571429
 40
0.6428571428571429
 40
0.6428571428571429
 40
0.7142857142857143
 40
0.7142857142857143
 40
0.7142857142857143
 40
0.7142857142857143
 40
0.7857142857142857
 40
0.7857142857142857
 40
0.7857142857142857
 40
0.7857142857142857
 40
0.8571428571428571
 40
0.8571428571428571
 40
0.8571428571428571
 40
0.8571428571428571
 40
1.0
 40
1.0
 40
1.0
 40
1.0
 10
193.3514
 20
100.7745
 30
0.0
 10
193.3514
 20
100.7745
 30
0.0
 10
193.3514
 20
48.9135
 30
0.0
 10
193.3514
 20
48.9135
 30
0.0
 10
193.3514
 20
48.9135
 30
0.0
 10
192.6303
 20
48.6621
 30
0.0
 10
191.8587
 20
48.4991
 30
0.0
 10
191.0365
 20
48.4595
 30
0.0
 10
191.0365
 20
48.4595
 30
0.0
 10
183.8761
 20
48.1142
 30
0.0
 10
180.2186
 20
52.2961
 30
0.0
 10
178.7263
 20
56.8957
 30
0.0
 10
178.7263
 20
56.8957
 30
0.0
 10
177.2496
 20
61.4456
 30
0.0
 10
177.51
 20
67.4509
 30
0.0
 10
181.8909
 20
70.1552
 30
0.0
 10
181.8909
 20
70.1552
 30
0.0
 10
182.6581
 20
70.6287
 30
0.0
 10
184.4138
 20
72.2744
 30
0.0
 10
184.3041
 20
73.0093
 30
0.0
 10
184.3041
 20
73.0093
 30
0.0
 10
184.1943
 20
73.7442
 30
0.0
 10
188.1981
 20
72.0624
 30
0.0
 10
190.7208
 20
73.7403
 30
0.0
 10
190.7208
 20
73.7403
 30
0.0
 10
193.2437
 20
75.4181
 30
0.0
 10
191.8726
 20
79.9693
 30
0.0
 10
190.337
 20
81.349
 30
0.0
 10
190.337
 20
81.349
 30
0.0
 10
190.337
 20
81.349
 30
0.0
 10
189.7337
 20
77.5453
 30
0.0
 10
186.8268
 20
77.2557
 30
0.0
 10
186.8268
 20
77.2557
 30
0.0
 10
183.9201
 20
76.966
 30
0.0
 10
183.3718
 20
78.9151
 30
0.0
 10
182.3298
 20
79.897
 30
0.0
 10
182.3298
 20
79.897
 30
0.0
 10
181.2876
 20
80.8789
 30
0.0
 10
181.218
 20
82.32
 30
0.0
 10
177.9628
 20
86.6562
 30
0.0
 10
177.9628
 20
86.6562
 30
0.0
 10
174.7075
 20
90.9921
 30
0.0
 10
168.8331
 20
92.6282
 30
0.0
 10
169.3663
 20
92.8402
 30
0.0
 10
169.3663
 20
92.8402
 30
0.0
 10
169.8992
 20
93.0524
 30
0.0
 10
175.6556
 20
93.33
 30
0.0
 10
182.6912
 20
96.4255
 30
0.0
 10
182.6912
 20
96.4255
 30
0.0
 10
186.2544
 20
97.9931
 30
0.0
 10
189.8415
 20
99.519
 30
0.0
 10
193.3514
 20
100.7745
 30
0.0
  0
SPLINE
  5
47
330
1F
100
AcDbEntity
  8
layer 1
 62
     7
100
AcDbSpline
210
0.0
220
0.0
230
1.0
 70
    11
 71
     3
 72
    16
 73
    12
 74
     0
 42
0.0000000001
 43
0.0000000001
 12
1.0
 22
0.0
 32
0.0
 13
1.0
 23
0.0
 33
0.0
 40
0.0
 40
0.0
 40
0.0
 40
0.0
 40
0.25
 40
0.25
 40
0.25
 40
0.25
 40
0.5
 40
0.5
 40
0.5
 40
0.5
 40
1.0
 40
1.0
 40
1.0
 40
1.0
 10
193.3514
 20
47.9274
 30
0.0
 10
193.3514
 20
47.9274
 30
0.0
 10
193.3514
 20
46.1479
 30
0.0
 10
193.3514
 20
46.1479
 30
0.0
 10
193.3514
 20
46.1479
 30
0.0
 10
191.7033
 20
46.7086
 30
0.0
 10
190.559
 20
47.0653
 30
0.0
 10
191.2194
 20
47.3165
 30
0.0
 10
191.2194
 20
47.3165
 30
0.0
 10
191.698
 20
47.4987
 30
0.0
 10
192.4179
 20
47.6242
 30
0.0
 10
193.3514
 20
47.9274
 30
0.0
  0
SPLINE
  5
48
330
1F
100
AcDbEntity
  8
layer 1
 62
     7
100
AcDbSpline
210
0.0
220
0.0
230
1.0
 70
    11
 71
     3
 72
    68
 73
    64
 74
     0
 42
0.0000000001
 43
0.0000000001
 12
1.0
 22
0.0
 32
0.0
 13
1.0
 23
0.0
 33
0.0
 40
0.0
 40
0.0
 40
0.0
 40
0.0
 40
0.0588235294117647
 40
0.0588235294117647
 40
0.0588235294117647
 40
0.0588235294117647
 40
0.1176470588235294
 40
0.1176470588235294
 40
0.1176470588235294
 40
0.1176470588235294
 40
0.1764705882352941
 40
0.1764705882352941
 40
0.1764705882352941
 40
0.1764705882352941
 40
0.2352941176470588
 40
0.2352941176470588
 40
0.2352941176470588
 40
0.2352941176470588
 40
0.2941176470588235
 40
0.2941176470588235
 40
0.2941176470588235
 40
0.2941176470588235
 40
0.3529411764705883
 40
0.3529411764705883
 40
0.3529411764705883
 40
0.3529411764705883
 40
0.4117647058823529
 40
0.4117647058823529
 40
0.4117647058823529
 40
0.4117647058823529
 40
0.4705882352941176
 40
0.4705882352941176
 40
0.4705882352941176
 40
0.4705882352941176
 40
0.5294117647058824
 40
0.5294117647058824
 40
0.5294117647058824
 40
0.5294117647058824
 40
0.5882352941176471
 40
0.5882352941176471
 40
0.5882352941176471
 40
0.5882352941176471
 40
0.6470588235294118
 40
0.6470588235294118
 40
0.6470588235294118
 40
0.6470588235294118
 40
0.7058823529411765
 40
0.7058823529411765
 40
0.7058823529411765
 40
0.7058823529411765
 40
0.7647058823529411
 40
0.7647058823529411
 40
0.7647058823529411
 40
0.7647058823529411
 40
0.8235294117647058
 40
0.8235294117647058
 40
0.8235294117647058
 40
0.8235294117647058
 40
0.8823529411764706
 40
0.8823529411764706
 40
0.8823529411764706
 40
0.8823529411764706
 40
1.0
 40
1.0
 40
1.0
 40
1.0
 10
193.3514
 20
41.8205
 30
0.0
 10
193.3514
 20
41.8205
 30
0.0
 10
193.3514
 20
24.197
 30
0.0
 10
193.3514
 20
24.197
 30
0.0
 10
193.3514
 20
24.197
 30
0.0
 10
188.4671
 20
29.7561
 30
0.0
 10
180.5651
 20
32.6192
 30
0.0
 10
172.2816
 20
31.749
 30
0.0
 10
172.2816
 20
31.749
 30
0.0
 10
173.4444
 20
32.8243
 30
0.0
 10
174.808
 20
34.411
 30
0.0
 10
175.9384
 20
36.6358
 30
0.0
 10
175.9384
 20
36.6358
 30
0.0
 10
178.4689
 20
41.6165
 30
0.0
 10
179.4422
 20
49.6957
 30
0.0
 10
179.4422
 20
50.9063
 30
0.0
 10
179.4422
 20
50.9063
 30
0.0
 10
179.4422
 20
52.117
 30
0.0
 10
181.4862
 20
50.4943
 30
0.0
 10
182.7513
 20
49.1033
 30
0.0
 10
182.7513
 20
49.1033
 30
0.0
 10
184.0168
 20
47.7124
 30
0.0
 10
187.7152
 20
43.4436
 30
0.0
 10
187.618
 20
40.7127
 30
0.0
 10
187.618
 20
40.7127
 30
0.0
 10
187.5206
 20
37.9818
 30
0.0
 10
184.3087
 20
36.8181
 30
0.0
 10
183.6274
 20
37.9286
 30
0.0
 10
183.6274
 20
37.9286
 30
0.0
 10
182.9461
 20
39.0391
 30
0.0
 10
183.6274
 20
39.9941
 30
0.0
 10
183.6274
 20
39.9941
 30
0.0
 10
183.6274
 20
39.9941
 30
0.0
 10
183.6274
 20
39.9941
 30
0.0
 10
185.1846
 20
40.7418
 30
0.0
 10
185.1846
 20
38.8901
 30
0.0
 10
185.1846
 20
38.8901
 30
0.0
 10
185.1846
 20
38.8901
 30
0.0
 10
186.9367
 20
39.4731
 30
0.0
 10
185.9632
 20
40.3677
 30
0.0
 10
185.9632
 20
40.3677
 30
0.0
 10
184.9901
 20
41.2626
 30
0.0
 10
183.822
 20
41.4673
 30
0.0
 10
182.8487
 20
39.8693
 30
0.0
 10
182.8487
 20
39.8693
 30
0.0
 10
181.8754
 20
38.2713
 30
0.0
 10
182.3621
 20
35.7586
 30
0.0
 10
185.7688
 20
36.7579
 30
0.0
 10
185.7688
 20
36.7579
 30
0.0
 10
189.1752
 20
37.757
 30
0.0
 10
189.4672
 20
41.0353
 30
0.0
 10
188.2993
 20
43.5191
 30
0.0
 10
188.2993
 20
43.5191
 30
0.0
 10
187.1313
 20
46.003
 30
0.0
 10
185.6714
 20
47.7011
 30
0.0
 10
185.6714
 20
47.7011
 30
0.0
 10
185.6714
 20
47.7011
 30
0.0
 10
185.6714
 20
47.7011
 30
0.0
 10
188.4939
 20
47.5564
 30
0.0
 10
190.1485
 20
45.6934
 30
0.0
 10
190.1485
 20
45.6934
 30
0.0
 10
190.9937
 20
44.7419
 30
0.0
 10
192.1434
 20
43.1428
 30
0.0
 10
193.3514
 20
41.8205
 30
0.0
  0
SPLINE
  5
49
330
1F
100
AcDbEntity
  8
layer 1
 62
     7
100
AcDbSpline
210
0.0
220
0.0
230
1.0
 70
    11
 71
     3
 72
   136
 73
   132
 74
     0
 42
0.0000000001
 43
0.0000000001
 12
1.0
 22
0.0
 32
0.0
 13
1.0
 23
0.0
 33
0.0
 40
0.0
 40
0.0
 40
0.0
 40
0.0
 40
0.0294117647058824
 40
0.0294117647058824
 40
0.0294117647058824
 40
0.0294117647058824
 40
0.0588235294117647
 40
0.0588235294117647
 40
0.0588235294117647
 40
0.0588235294117647
 40
0.0882352941176471
 40
0.0882352941176471
 40
0.0882352941176471
 40
0.0882352941176471
 40
0.1176470588235294
 40
0.1176470588235294
 40
0.1176470588235294
 40
0.1176470588235294
 40
0.1470588235294118
 40
0.1470588235294118
 40
0.1470588235294118
 40
0.1470588235294118
 40
0.1764705882352941
 40
0.1764705882352941
 40
0.1764705882352941
 40
0.1764705882352941
 40
0.2058823529411765
 40
0.2058823529411765
 40
0.2058823529411765
 40
0.2058823529411765
 40
0.2352941176470588
 40
0.2352941176470588
 40
0.2352941176470588
 40
0.2352941176470588
 40
0.2647058823529412
 40
0.2647058823529412
 40
0.2647058823529412
 40
0.2647058823529412
 40
0.2941176470588235
 40
0.2941176470588235
 40
0.2941176470588235
 40
0.2941176470588235
 40
0.3235294117647059
 40
0.3235294117647059
 40
0.3235294117647059
 40
0.3235294117647059
 40
0.3529411764705883
 40
0.3529411764705883
 40
0.3529411764705883
 40
0.3529411764705883
 40
0.3823529411764706
 40
0.3823529411764706
 40
0.3823529411764706
 40
0.3823529411764706
 40
0.4117647058823529
 40
0.4117647058823529
 40
0.4117647058823529
 40
0.4117647058823529
 40
0.4411764705882353
 40
0.4411764705882353
 40
0.4411764705882353
 40
0.4411764705882353
 40
0.4705882352941176
 40
0.4705882352941176
 40
0.4705882352941176
 40
0.4705882352941176
 40
0.5
 40
0.5
 40
0.5
 40
0.5
 40
0.5294117647058824
 40
0.5294117647058824
 40
0.5294117647058824
 40
0.5294117647058824
 40
0.5588235294117647
 40
0.5588235294117647
 40
0.5588235294117647
 40
0.5588235294117647
 40
0.5882352941176471
 40
0.5882352941176471
 40
0.5882352941176471
 40
0.5882352941176471
 40
0.6176470588235294
 40
0.6176470588235294
 40
0.6176470588235294
 40
0.6176470588235294
 40
0.6470588235294118
 40
0.6470588235294118
 40
0.6470588235294118
 40
0.6470588235294118
 40
0.6764705882352942
 40
0.6764705882352942
 40
0.6764705882352942
 40
0.6764705882352942
 40
0.7058823529411765
 40
0.7058823529411765
 40
0.7058823529411765
 40
0.7058823529411765
 40
0.7352941176470589
 40
0.7352941176470589
 40
0.7352941176470589
 40
0.7352941176470589
 40
0.7647058823529411
 40
0.7647058823529411
 40
0.7647058823529411
 40
0.7647058823529411
 40
0.7941176470588235
 40
0.7941176470588235
 40
0.7941176470588235
 40
0.7941176470588235
 40
0.8235294117647058
 40
0.8235294117647058
 40
0.8235294117647058
 40
0.8235294117647058
 40
0.8529411764705882
 40
0.8529411764705882
 40
0.8529411764705882
 40
0.8529411764705882
 40
0.8823529411764706
 40
0.8823529411764706
 40
0.8823529411764706
 40
0.8823529411764706
 40
0.9117647058823529
 40
0.9117647058823529
 40
0.9117647058823529
 40
0.9117647058823529
 40
0.9411764705882353
 40
0.9411764705882353
 40
0.9411764705882353
 40
0.9411764705882353
 40
1.0
 40
1.0
 40
1.0
 40
1.0
 10
193.3514
 20
19.6041
 30
0.0
 10
193.3514
 20
19.6041
 30
0.0
 10
193.3514
 20
0.7372
 30
0.0
 10
193.3514
 20
0.7372
 30
0.0
 10
193.3514
 20
0.7372
 30
0.0
 10
191.2743
 20
-3.1085
 30
0.0
 10
188.1761
 20
-5.2
 30
0.0
 10
185.1944
 20
-6.0908
 30
0.0
 10
185.1944
 20
-6.0908
 30
0.0
 10
178.0114
 20
-8.237
 30
0.0
 10
169.7025
 20
-3.0304
 30
0.0
 10
169.7524
 20
3.1547
 30
0.0
 10
169.7524
 20
3.1547
 30
0.0
 10
169.7857
 20
7.2934
 30
0.0
 10
173.5936
 20
8.2269
 30
0.0
 10
176.7638
 20
6.9444
 30
0.0
 10
176.7638
 20
6.9444
 30
0.0
 10
179.9341
 20
5.6621
 30
0.0
 10
177.248
 20
0.1569
 30
0.0
 10
177.248
 20
0.1569
 30
0.0
 10
177.248
 20
0.1569
 30
0.0
 10
185.5218
 20
0.3119
 30
0.0
 10
191.4555
 20
9.4472
 30
0.0
 10
188.502
 20
15.7577
 30
0.0
 10
188.502
 20
15.7577
 30
0.0
 10
185.5486
 20
22.0678
 30
0.0
 10
175.323
 20
21.7755
 30
0.0
 10
171.9516
 20
17.7832
 30
0.0
 10
171.9516
 20
17.7832
 30
0.0
 10
168.5803
 20
13.7912
 30
0.0
 10
170.4391
 20
9.2626
 30
0.0
 10
170.4391
 20
9.2626
 30
0.0
 10
170.4391
 20
9.2626
 30
0.0
 10
170.4391
 20
9.2626
 30
0.0
 10
169.2743
 20
9.0816
 30
0.0
 10
167.6679
 20
5.8517
 30
0.0
 10
167.6679
 20
5.8517
 30
0.0
 10
166.0611
 20
2.6222
 30
0.0
 10
167.6698
 20
-0.2944
 30
0.0
 10
167.6698
 20
-0.2944
 30
0.0
 10
167.6698
 20
-0.2944
 30
0.0
 10
167.6698
 20
-0.2944
 30
0.0
 10
161.5585
 20
5.5766
 30
0.0
 10
156.3774
 20
-0.7735
 30
0.0
 10
156.3774
 20
-0.7735
 30
0.0
 10
151.1969
 20
-7.1234
 30
0.0
 10
153.2964
 20
-13.878
 30
0.0
 10
158.1101
 20
-17.0954
 30
0.0
 10
158.1101
 20
-17.0954
 30
0.0
 10
162.924
 20
-20.313
 30
0.0
 10
169.5226
 20
-17.7295
 30
0.0
 10
169.5226
 20
-17.7295
 30
0.0
 10
169.5226
 20
-17.7295
 30
0.0
 10
169.5226
 20
-17.7295
 30
0.0
 10
164.439
 20
-14.1282
 30
0.0
 10
165.1006
 20
-8.3875
 30
0.0
 10
165.1006
 20
-8.3875
 30
0.0
 10
165.7618
 20
-2.6468
 30
0.0
 10
167.9262
 20
-2.7672
 30
0.0
 10
167.9262
 20
-2.7672
 30
0.0
 10
167.9262
 20
-2.7672
 30
0.0
 10
173.1688
 20
-10.1401
 30
0.0
 10
186.0971
 20
-12.4371
 30
0.0
 10
193.3514
 20
-3.8895
 30
0.0
 10
193.3514
 20
-3.8895
 30
0.0
 10
193.3514
 20
-3.8895
 30
0.0
 10
193.3514
 20
-35.6624
 30
0.0
 10
193.3514
 20
-35.6624
 30
0.0
 10
193.3514
 20
-35.6624
 30
0.0
 10
188.6613
 20
-29.3026
 30
0.0
 10
185.5608
 20
-23.4509
 30
0.0
 10
183.6963
 20
-13.2623
 30
0.0
 10
183.6963
 20
-13.2623
 30
0.0
 10
183.6963
 20
-13.2623
 30
0.0
 10
181.4099
 20
-13.9298
 30
0.0
 10
180.5711
 20
-21.338
 30
0.0
 10
180.5711
 20
-21.338
 30
0.0
 10
179.7325
 20
-28.7464
 30
0.0
 10
183.1558
 20
-33.6173
 30
0.0
 10
183.1558
 20
-33.6173
 30
0.0
 10
183.1558
 20
-33.6173
 30
0.0
 10
183.1558
 20
-33.6173
 30
0.0
 10
174.6519
 20
-30.3711
 30
0.0
 10
164.2239
 20
-24.0706
 30
0.0
 10
164.2239
 20
-24.0706
 30
0.0
 10
153.7958
 20
-17.7702
 30
0.0
 10
149.7746
 20
-10.3686
 30
0.0
 10
147.9889
 20
-6.4252
 30
0.0
 10
147.9889
 20
-6.4252
 30
0.0
 10
146.4473
 20
-3.0209
 30
0.0
 10
146.3101
 20
2.1242
 30
0.0
 10
148.2627
 20
7.497
 30
0.0
 10
148.2627
 20
7.497
 30
0.0
 10
148.391
 20
7.7585
 30
0.0
 10
148.4959
 20
8.0289
 30
0.0
 10
148.5728
 20
8.3092
 30
0.0
 10
148.5728
 20
8.3092
 30
0.0
 10
148.8064
 20
8.8914
 30
0.0
 10
149.0651
 20
9.4752
 30
0.0
 10
149.3492
 20
10.0591
 30
0.0
 10
149.3492
 20
10.0591
 30
0.0
 10
152.3969
 20
16.3214
 30
0.0
 10
154.5286
 20
14.7986
 30
0.0
 10
154.5286
 20
14.7986
 30
0.0
 10
154.5286
 20
14.7986
 30
0.0
 10
154.5286
 20
14.7986
 30
0.0
 10
154.0131
 20
13.6441
 30
0.0
 10
154.8314
 20
11.4549
 30
0.0
 10
154.8314
 20
11.4549
 30
0.0
 10
155.6498
 20
9.2657
 30
0.0
 10
157.3901
 20
6.9509
 30
0.0
 10
162.7962
 20
9.5339
 30
0.0
 10
162.7962
 20
9.5339
 30
0.0
 10
168.2021
 20
12.1169
 30
0.0
 10
166.8046
 20
19.6611
 30
0.0
 10
162.0789
 20
21.1802
 30
0.0
 10
162.0789
 20
21.1802
 30
0.0
 10
157.3534
 20
22.6996
 30
0.0
 10
153.8788
 20
19.4181
 30
0.0
 10
153.2813
 20
19.0817
 30
0.0
 10
153.2813
 20
19.0817
 30
0.0
 10
152.6837
 20
18.7452
 30
0.0
 10
155.6494
 20
23.5338
 30
0.0
 10
161.3911
 20
26.3935
 30
0.0
 10
161.3911
 20
26.3935
 30
0.0
 10
169.9277
 20
30.6452
 30
0.0
 10
182.1788
 20
30.1772
 30
0.0
 10
189.2906
 20
24.4666
 30
0.0
 10
189.2906
 20
24.4666
 30
0.0
 10
190.9215
 20
23.1569
 30
0.0
 10
192.2976
 20
21.5028
 30
0.0
 10
193.3514
 20
19.6041
 30
0.0
  0
SPLINE
  5
4A
330
1F
100
AcDbEntity
  8
layer 1
 62
     7
100
AcDbSpline
210
0.0
220
0.0
230
1.0
 70
    11
 71
     3
 72
    60
 73
    56
 74
     0
 42
0.0000000001
 43
0.0000000001
 12
1.0
 22
0.0
 32
0.0
 13
1.0
 23
0.0
 33
0.0
 40
0.0
 40
0.0
 40
0.0
 40
0.0
 40
0.0666666666666667
 40
0.0666666666666667
 40
0.0666666666666667
 40
0.0666666666666667
 40
0.1333333333333333
 40
0.1333333333333333
 40
0.1333333333333333
 40
0.1333333333333333
 40
0.2
 40
0.2
 40
0.2
 40
0.2
 40
0.2666666666666667
 40
0.2666666666666667
 40
0.2666666666666667
 40
0.2666666666666667
 40
0.3333333333333333
 40
0.3333333333333333
 40
0.3333333333333333
 40
0.3333333333333333
 40
0.4
 40
0.4
 40
0.4
 40
0.4
 40
0.4666666666666667
 40
0.4666666666666667
 40
0.4666666666666667
 40
0.4666666666666667
 40
0.5333333333333333
 40
0.5333333333333333
 40
0.5333333333333333
 40
0.5333333333333333
 40
0.6
 40
0.6
 40
0.6
 40
0.6
 40
0.6666666666666666
 40
0.6666666666666666
 40
0.6666666666666666
 40
0.6666666666666666
 40
0.7333333333333333
 40
0.7333333333333333
 40
0.7333333333333333
 40
0.7333333333333333
 40
0.8
 40
0.8
 40
0.8
 40
0.8
 40
0.8666666666666667
 40
0.8666666666666667
 40
0.8666666666666667
 40
0.8666666666666667
 40
1.0
 40
1.0
 40
1.0
 40
1.0
 10
193.3514
 20
-40.6487
 30
0.0
 10
193.3514
 20
-40.6487
 30
0.0
 10
193.3514
 20
-49.7639
 30
0.0
 10
193.3514
 20
-49.7639
 30
0.0
 10
193.3514
 20
-49.7639
 30
0.0
 10
192.761
 20
-50.2929
 30
0.0
 10
192.146
 20
-50.8924
 30
0.0
 10
192.146
 20
-50.8924
 30
0.0
 10
192.146
 20
-50.8924
 30
0.0
 10
192.146
 20
-50.8924
 30
0.0
 10
192.0387
 20
-48.1523
 30
0.0
 10
192.563
 20
-47.2018
 30
0.0
 10
192.563
 20
-47.2018
 30
0.0
 10
193.0872
 20
-46.2515
 30
0.0
 10
192.924
 20
-43.5585
 30
0.0
 10
192.4087
 20
-42.5199
 30
0.0
 10
192.4087
 20
-42.5199
 30
0.0
 10
191.8937
 20
-41.4816
 30
0.0
 10
191.524
 20
-41.0566
 30
0.0
 10
191.524
 20
-41.0566
 30
0.0
 10
191.524
 20
-41.0566
 30
0.0
 10
191.524
 20
-41.0566
 30
0.0
 10
191.2032
 20
-43.3218
 30
0.0
 10
190.9227
 20
-43.8832
 30
0.0
 10
190.9227
 20
-43.8832
 30
0.0
 10
190.6424
 20
-44.4445
 30
0.0
 10
189.2636
 20
-45.5192
 30
0.0
 10
189.5108
 20
-46.9529
 30
0.0
 10
189.5108
 20
-46.9529
 30
0.0
 10
189.7577
 20
-48.3867
 30
0.0
 10
190.8559
 20
-49.7792
 30
0.0
 10
191.0472
 20
-51.1756
 30
0.0
 10
191.0472
 20
-51.1756
 30
0.0
 10
191.2389
 20
-52.5719
 30
0.0
 10
190.0492
 20
-52.9438
 30
0.0
 10
190.0492
 20
-52.9438
 30
0.0
 10
190.0492
 20
-52.9438
 30
0.0
 10
190.0492
 20
-52.9438
 30
0.0
 10
189.5355
 20
-51.9432
 30
0.0
 10
188.6963
 20
-50.9865
 30
0.0
 10
188.6963
 20
-50.9865
 30
0.0
 10
187.6808
 20
-48.4441
 30
0.0
 10
184.77
 20
-42.9315
 30
0.0
 10
184.8873
 20
-40.7524
 30
0.0
 10
184.8873
 20
-40.7524
 30
0.0
 10
184.9315
 20
-39.9345
 30
0.0
 10
184.8531
 20
-39.3113
 30
0.0
 10
184.7677
 20
-38.5957
 30
0.0
 10
184.7677
 20
-38.5957
 30
0.0
 10
184.7677
 20
-38.5957
 30
0.0
 10
187.4659
 20
-40.1704
 30
0.0
 10
187.4659
 20
-40.1704
 30
0.0
 10
187.4659
 20
-40.1704
 30
0.0
 10
187.4659
 20
-40.1704
 30
0.0
 10
193.3514
 20
-40.6487
 30
0.0
 10
193.3514
 20
-40.6487
 30
0.0
  0
SPLINE
  5
4B
330
1F
100
AcDbEntity
  8
layer 1
 62
     7
100
AcDbSpline
210
0.0
220
0.0
230
1.0
 70
    11
 71
     3
 72
    16
 73
    12
 74
     0
 42
0.0000000001
 43
0.0000000001
 12
1.0
 22
0.0
 32
0.0
 13
1.0
 23
0.0
 33
0.0
 40
0.0
 40
0.0
 40
0.0
 40
0.0
 40
0.25
 40
0.25
 40
0.25
 40
0.25
 40
0.5
 40
0.5
 40
0.5
 40
0.5
 40
1.0
 40
1.0
 40
1.0
 40
1.0
 10
193.3514
 20
-50.7039
 30
0.0
 10
193.3514
 20
-50.7039
 30
0.0
 10
193.3514
 20
-60.0805
 30
0.0
 10
193.3514
 20
-60.0805
 30
0.0
 10
193.3514
 20
-60.0805
 30
0.0
 10
192.0358
 20
-58.975
 30
0.0
 10
191.0844
 20
-57.1748
 30
0.0
 10
190.8791
 20
-55.7262
 30
0.0
 10
190.8791
 20
-55.7262
 30
0.0
 10
190.5764
 20
-53.5921
 30
0.0
 10
191.6964
 20
-51.8448
 30
0.0
 10
193.3514
 20
-50.7039
 30
0.0
  0
SPLINE
  5
4C
330
1F
100
AcDbEntity
  8
layer 1
 62
     7
100
AcDbSpline
210
0.0
220
0.0
230
1.0
 70
    11
 71
     3
 72
   108
 73
   104
 74
     0
 42
0.0000000001
 43
0.0000000001
 12
1.0
 22
0.0
 32
0.0
 13
1.0
 23
0.0
 33
0.0
 40
0.0
 40
0.0
 40
0.0
 40
0.0
 40
0.037037037037037
 40
0.037037037037037
 40
0.037037037037037
 40
0.037037037037037
 40
0.0740740740740741
 40
0.0740740740740741
 40
0.0740740740740741
 40
0.0740740740740741
 40
0.1111111111111111
 40
0.1111111111111111
 40
0.1111111111111111
 40
0.1111111111111111
 40
0.1481481481481481
 40
0.1481481481481481
 40
0.1481481481481481
 40
0.1481481481481481
 40
0.1851851851851852
 40
0.1851851851851852
 40
0.1851851851851852
 40
0.1851851851851852
 40
0.2222222222222222
 40
0.2222222222222222
 40
0.2222222222222222
 40
0.2222222222222222
 40
0.2592592592592592
 40
0.2592592592592592
 40
0.2592592592592592
 40
0.2592592592592592
 40
0.2962962962962963
 40
0.2962962962962963
 40
0.2962962962962963
 40
0.2962962962962963
 40
0.3333333333333333
 40
0.3333333333333333
 40
0.3333333333333333
 40
0.3333333333333333
 40
0.3703703703703703
 40
0.3703703703703703
 40
0.3703703703703703
 40
0.3703703703703703
 40
0.4074074074074074
 40
0.4074074074074074
 40
0.4074074074074074
 40
0.4074074074074074
 40
0.4444444444444444
 40
0.4444444444444444
 40
0.4444444444444444
 40
0.4444444444444444
 40
0.4814814814814815
 40
0.4814814814814815
 40
0.4814814814814815
 40
0.4814814814814815
 40
0.5185185185185185
 40
0.5185185185185185
 40
0.5185185185185185
 40
0.5185185185185185
 40
0.5555555555555556
 40
0.5555555555555556
 40
0.5555555555555556
 40
0.5555555555555556
 40
0.5925925925925926
 40
0.5925925925925926
 40
0.5925925925925926
 40
0.5925925925925926
 40
0.6296296296296297
 40
0.6296296296296297
 40
0.6296296296296297
 40
0.6296296296296297
 40
0.6666666666666666
 40
0.6666666666666666
 40
0.6666666666666666
 40
0.6666666666666666
 40
0.7037037037037037
 40
0.7037037037037037
 40
0.7037037037037037
 40
0.7037037037037037
 40
0.7407407407407407
 40
0.7407407407407407
 40
0.7407407407407407
 40
0.7407407407407407
 40
0.7777777777777778
 40
0.7777777777777778
 40
0.7777777777777778
 40
0.7777777777777778
 40
0.8148148148148148
 40
0.8148148148148148
 40
0.8148148148148148
 40
0.8148148148148148
 40
0.8518518518518519
 40
0.8518518518518519
 40
0.8518518518518519
 40
0.8518518518518519
 40
0.8888888888888888
 40
0.8888888888888888
 40
0.8888888888888888
 40
0.8888888888888888
 40
0.9259259259259259
 40
0.9259259259259259
 40
0.9259259259259259
 40
0.9259259259259259
 40
1.0
 40
1.0
 40
1.0
 40
1.0
 10
193.3514
 20
-62.1274
 30
0.0
 10
193.3514
 20
-62.1274
 30
0.0
 10
193.3514
 20
-75.8941
 30
0.0
 10
193.3514
 20
-75.8941
 30
0.0
 10
193.3514
 20
-75.8941
 30
0.0
 10
190.5308
 20
-76.3542
 30
0.0
 10
187.6798
 20
-75.9664
 30
0.0
 10
185.5304
 20
-74.1267
 30
0.0
 10
185.5304
 20
-74.1267
 30
0.0
 10
184.8615
 20
-73.5541
 30
0.0
 10
182.772
 20
-72.3891
 30
0.0
 10
182.0698
 20
-72.6783
 30
0.0
 10
182.0698
 20
-72.6783
 30
0.0
 10
181.3676
 20
-72.9674
 30
0.0
 10
182.0051
 20
-68.9066
 30
0.0
 10
179.6854
 20
-67.0551
 30
0.0
 10
179.6854
 20
-67.0551
 30
0.0
 10
177.8134
 20
-65.5606
 30
0.0
 10
174.7366
 20
-66.8468
 30
0.0
 10
173.1065
 20
-68.3171
 30
0.0
 10
173.1065
 20
-68.3171
 30
0.0
 10
168.0419
 20
-69.7334
 30
0.0
 10
163.7196
 20
-75.3731
 30
0.0
 10
163.2994
 20
-77.2479
 30
0.0
 10
163.2994
 20
-77.2479
 30
0.0
 10
162.9921
 20
-77.5975
 30
0.0
 10
162.3575
 20
-75.8206
 30
0.0
 10
162.1853
 20
-73.9805
 30
0.0
 10
162.1853
 20
-73.9805
 30
0.0
 10
162.0135
 20
-72.1407
 30
0.0
 10
163.0011
 20
-70.1863
 30
0.0
 10
163.6939
 20
-68.7515
 30
0.0
 10
163.6939
 20
-68.7515
 30
0.0
 10
164.3867
 20
-67.3167
 30
0.0
 10
165.1737
 20
-66.2379
 30
0.0
 10
164.3182
 20
-62.8615
 30
0.0
 10
164.3182
 20
-62.8615
 30
0.0
 10
163.7972
 20
-60.8047
 30
0.0
 10
164.178
 20
-57.8945
 30
0.0
 10
164.5553
 20
-55.9344
 30
0.0
 10
164.5553
 20
-55.9344
 30
0.0
 10
168.3138
 20
-55.068
 30
0.0
 10
171.122
 20
-51.541
 30
0.0
 10
169.0973
 20
-46.9594
 30
0.0
 10
169.0973
 20
-46.9594
 30
0.0
 10
169.935
 20
-46.9307
 30
0.0
 10
170.7529
 20
-46.8061
 30
0.0
 10
171.3692
 20
-46.5061
 30
0.0
 10
171.3692
 20
-46.5061
 30
0.0
 10
173.3812
 20
-45.5259
 30
0.0
 10
176.33
 20
-43.8192
 30
0.0
 10
176.33
 20
-43.8192
 30
0.0
 10
176.33
 20
-43.8192
 30
0.0
 10
176.33
 20
-43.8192
 30
0.0
 10
174.798
 20
-50.5755
 30
0.0
 10
172.8956
 20
-52.5836
 30
0.0
 10
172.8956
 20
-52.5836
 30
0.0
 10
170.9936
 20
-54.592
 30
0.0
 10
169.6292
 20
-61.2666
 30
0.0
 10
170.2076
 20
-64.1099
 30
0.0
 10
170.2076
 20
-64.1099
 30
0.0
 10
170.786
 20
-66.9533
 30
0.0
 10
171.4105
 20
-68.2117
 30
0.0
 10
171.4105
 20
-68.2117
 30
0.0
 10
171.4105
 20
-68.2117
 30
0.0
 10
171.4105
 20
-68.2117
 30
0.0
 10
173.6768
 20
-62.8707
 30
0.0
 10
174.7291
 20
-61.6674
 30
0.0
 10
174.7291
 20
-61.6674
 30
0.0
 10
175.7183
 20
-60.5363
 30
0.0
 10
179.372
 20
-58.8759
 30
0.0
 10
180.0872
 20
-55.6518
 30
0.0
 10
180.0872
 20
-55.6518
 30
0.0
 10
181.1498
 20
-55.9816
 30
0.0
 10
182.2961
 20
-56.4374
 30
0.0
 10
183.0723
 20
-57.0246
 30
0.0
 10
183.0723
 20
-57.0246
 30
0.0
 10
184.9024
 20
-58.4092
 30
0.0
 10
185.7722
 20
-58.2623
 30
0.0
 10
186.8343
 20
-58.2634
 30
0.0
 10
186.8343
 20
-58.2634
 30
0.0
 10
187.8964
 20
-58.2644
 30
0.0
 10
189.3551
 20
-58.2414
 30
0.0
 10
190.4315
 20
-58.8326
 30
0.0
 10
190.4315
 20
-58.8326
 30
0.0
 10
191.508
 20
-59.4237
 30
0.0
 10
192.4214
 20
-60.255
 30
0.0
 10
192.1254
 20
-60.3319
 30
0.0
 10
192.1254
 20
-60.3319
 30
0.0
 10
191.8296
 20
-60.4086
 30
0.0
 10
188.2999
 20
-60.574
 30
0.0
 10
186.3101
 20
-62.4368
 30
0.0
 10
186.3101
 20
-62.4368
 30
0.0
 10
184.3204
 20
-64.2996
 30
0.0
 10
182.4616
 20
-64.6759
 30
0.0
 10
184.9962
 20
-69.7801
 30
0.0
 10
184.9962
 20
-69.7801
 30
0.0
 10
187.0941
 20
-68.149
 30
0.0
 10
185.9435
 20
-63.6395
 30
0.0
 10
187.6588
 20
-62.7988
 30
0.0
 10
187.6588
 20
-62.7988
 30
0.0
 10
189.7056
 20
-61.7956
 30
0.0
 10
191.5112
 20
-61.9462
 30
0.0
 10
193.3514
 20
-62.1274
 30
0.0
  0
SPLINE
  5
4D
330
1F
100
AcDbEntity
  8
layer 1
 62
     7
100
AcDbSpline
210
0.0
220
0.0
230
1.0
 70
    11
 71
     3
 72
    72
 73
    68
 74
     0
 42
0.0000000001
 43
0.0000000001
 12
1.0
 22
0.0
 32
0.0
 13
1.0
 23
0.0
 33
0.0
 40
0.0
 40
0.0
 40
0.0
 40
0.0
 40
0.0555555555555556
 40
0.0555555555555556
 40
0.0555555555555556
 40
0.0555555555555556
 40
0.1111111111111111
 40
0.1111111111111111
 40
0.1111111111111111
 40
0.1111111111111111
 40
0.1666666666666667
 40
0.1666666666666667
 40
0.1666666666666667
 40
0.1666666666666667
 40
0.2222222222222222
 40
0.2222222222222222
 40
0.2222222222222222
 40
0.2222222222222222
 40
0.2777777777777778
 40
0.2777777777777778
 40
0.2777777777777778
 40
0.2777777777777778
 40
0.3333333333333333
 40
0.3333333333333333
 40
0.3333333333333333
 40
0.3333333333333333
 40
0.3888888888888889
 40
0.3888888888888889
 40
0.3888888888888889
 40
0.3888888888888889
 40
0.4444444444444444
 40
0.4444444444444444
 40
0.4444444444444444
 40
0.4444444444444444
 40
0.5
 40
0.5
 40
0.5
 40
0.5
 40
0.5555555555555556
 40
0.5555555555555556
 40
0.5555555555555556
 40
0.5555555555555556
 40
0.6111111111111112
 40
0.6111111111111112
 40
0.6111111111111112
 40
0.6111111111111112
 40
0.6666666666666666
 40
0.6666666666666666
 40
0.6666666666666666
 40
0.6666666666666666
 40
0.7222222222222222
 40
0.7222222222222222
 40
0.7222222222222222
 40
0.7222222222222222
 40
0.7777777777777778
 40
0.7777777777777778
 40
0.7777777777777778
 40
0.7777777777777778
 40
0.8333333333333334
 40
0.8333333333333334
 40
0.8333333333333334
 40
0.8333333333333334
 40
0.8888888888888888
 40
0.8888888888888888
 40
0.8888888888888888
 40
0.8888888888888888
 40
1.0
 40
1.0
 40
1.0
 40
1.0
 10
193.3514
 20
-77.2108
 30
0.0
 10
193.3514
 20
-77.2108
 30
0.0
 10
193.3514
 20
-89.3525
 30
0.0
 10
193.3514
 20
-89.3525
 30
0.0
 10
193.3514
 20
-89.3525
 30
0.0
 10
192.417
 20
-91.3098
 30
0.0
 10
191.8799
 20
-93.5935
 30
0.0
 10
190.4889
 20
-93.8962
 30
0.0
 10
190.4889
 20
-93.8962
 30
0.0
 10
188.2888
 20
-94.3748
 30
0.0
 10
186.0005
 20
-94.6763
 30
0.0
 10
183.7711
 20
-93.4585
 30
0.0
 10
183.7711
 20
-93.4585
 30
0.0
 10
182.4853
 20
-92.7563
 30
0.0
 10
180.1023
 20
-91.3483
 30
0.0
 10
178.2437
 20
-89.258
 30
0.0
 10
178.2437
 20
-89.258
 30
0.0
 10
178.697
 20
-89.0722
 30
0.0
 10
179.0136
 20
-88.8325
 30
0.0
 10
179.2189
 20
-88.568
 30
0.0
 10
179.2189
 20
-88.568
 30
0.0
 10
179.2189
 20
-88.568
 30
0.0
 10
178.5135
 20
-87.2184
 30
0.0
 10
176.0505
 20
-86.0698
 30
0.0
 10
176.0505
 20
-86.0698
 30
0.0
 10
173.5879
 20
-84.9213
 30
0.0
 10
170.5979
 20
-85.8259
 30
0.0
 10
170.5979
 20
-85.8259
 30
0.0
 10
170.5979
 20
-85.8259
 30
0.0
 10
171.0277
 20
-85.3232
 30
0.0
 10
180.2139
 20
-79.0195
 30
0.0
 10
182.5768
 20
-81.691
 30
0.0
 10
182.5768
 20
-81.691
 30
0.0
 10
183.1098
 20
-82.2935
 30
0.0
 10
181.2218
 20
-87.1985
 30
0.0
 10
179.8465
 20
-87.3005
 30
0.0
 10
179.8465
 20
-87.3005
 30
0.0
 10
182.3826
 20
-88.5049
 30
0.0
 10
185.1565
 20
-86.0337
 30
0.0
 10
184.1055
 20
-82.1778
 30
0.0
 10
184.1055
 20
-82.1778
 30
0.0
 10
186.602
 20
-83.4153
 30
0.0
 10
186.6007
 20
-90.5562
 30
0.0
 10
183.0316
 20
-91.813
 30
0.0
 10
183.0316
 20
-91.813
 30
0.0
 10
192.2004
 20
-93.4851
 30
0.0
 10
189.0251
 20
-77.6623
 30
0.0
 10
178.0424
 20
-79.6753
 30
0.0
 10
178.0424
 20
-79.6753
 30
0.0
 10
175.8574
 20
-80.0758
 30
0.0
 10
174.2215
 20
-80.6682
 30
0.0
 10
174.2215
 20
-80.6682
 30
0.0
 10
174.2215
 20
-80.6682
 30
0.0
 10
174.2215
 20
-80.6682
 30
0.0
 10
180.2848
 20
-75.3939
 30
0.0
 10
182.7394
 20
-75.9206
 30
0.0
 10
182.7394
 20
-75.9206
 30
0.0
 10
184.7425
 20
-76.3504
 30
0.0
 10
184.8435
 20
-80.3706
 30
0.0
 10
189.724
 20
-79.7015
 30
0.0
 10
189.724
 20
-79.7015
 30
0.0
 10
189.724
 20
-79.7015
 30
0.0
 10
186.1593
 20
-76.2432
 30
0.0
 10
186.1593
 20
-76.2432
 30
0.0
 10
186.1593
 20
-76.2432
 30
0.0
 10
188.9688
 20
-77.3382
 30
0.0
 10
191.2988
 20
-77.5093
 30
0.0
 10
193.3514
 20
-77.2108
 30
0.0
  0
SPLINE
  5
4E
330
1F
100
AcDbEntity
  8
layer 1
 62
     7
100
AcDbSpline
210
0.0
220
0.0
230
1.0
 70
    11
 71
     3
 72
    28
 73
    24
 74
     0
 42
0.0000000001
 43
0.0000000001
 12
1.0
 22
0.0
 32
0.0
 13
1.0
 23
0.0
 33
0.0
 40
0.0
 40
0.0
 40
0.0
 40
0.0
 40
0.1428571428571428
 40
0.1428571428571428
 40
0.1428571428571428
 40
0.1428571428571428
 40
0.2857142857142857
 40
0.2857142857142857
 40
0.2857142857142857
 40
0.2857142857142857
 40
0.4285714285714285
 40
0.4285714285714285
 40
0.4285714285714285
 40
0.4285714285714285
 40
0.5714285714285714
 40
0.5714285714285714
 40
0.5714285714285714
 40
0.5714285714285714
 40
0.7142857142857143
 40
0.7142857142857143
 40
0.7142857142857143
 40
0.7142857142857143
 40
1.0
 40
1.0
 40
1.0
 40
1.0
 10
193.3514
 20
-93.95
 30
0.0
 10
193.3514
 20
-93.95
 30
0.0
 10
193.3514
 20
-101.03
 30
0.0
 10
193.3514
 20
-101.03
 30
0.0
 10
193.3514
 20
-101.03
 30
0.0
 10
192.0244
 20
-99.6094
 30
0.0
 10
191.1014
 20
-99.5206
 30
0.0
 10
190.0458
 20
-99.2614
 30
0.0
 10
190.0458
 20
-99.2614
 30
0.0
 10
188.8431
 20
-98.9665
 30
0.0
 10
187.1839
 20
-98.589
 30
0.0
 10
186.144
 20
-97.6216
 30
0.0
 10
186.144
 20
-97.6216
 30
0.0
 10
185.1043
 20
-96.6543
 30
0.0
 10
184.3219
 20
-95.46
 30
0.0
 10
184.6805
 20
-95.4548
 30
0.0
 10
184.6805
 20
-95.4548
 30
0.0
 10
185.039
 20
-95.4497
 30
0.0
 10
189.0874
 20
-96.2389
 30
0.0
 10
191.9067
 20
-94.6792
 30
0.0
 10
191.9067
 20
-94.6792
 30
0.0
 10
192.4135
 20
-94.3991
 30
0.0
 10
192.9005
 20
-94.1716
 30
0.0
 10
193.3514
 20
-93.95
 30
0.0
  0
SPLINE
  5
4F
330
1F
100
AcDbEntity
  8
layer 1
 62
     7
100
AcDbSpline
210
0.0
220
0.0
230
1.0
 70
    11
 71
     3
 72
    24
 73
    20
 74
     0
 42
0.0000000001
 43
0.0000000001
 12
1.0
 22
0.0
 32
0.0
 13
1.0
 23
0.0
 33
0.0
 40
0.0
 40
0.0
 40
0.0
 40
0.0
 40
0.1666666666666667
 40
0.1666666666666667
 40
0.1666666666666667
 40
0.1666666666666667
 40
0.3333333333333333
 40
0.3333333333333333
 40
0.3333333333333333
 40
0.3333333333333333
 40
0.5
 40
0.5
 40
0.5
 40
0.5
 40
0.6666666666666666
 40
0.6666666666666666
 40
0.6666666666666666
 40
0.6666666666666666
 40
1.0
 40
1.0
 40
1.0
 40
1.0
 10
190.7382
 20
-103.8386
 30
0.0
 10
190.7382
 20
-103.8386
 30
0.0
 10
185.7782
 20
-103.8386
 30
0.0
 10
185.7782
 20
-103.8386
 30
0.0
 10
185.7782
 20
-103.8386
 30
0.0
 10
185.7768
 20
-103.3342
 30
0.0
 10
185.7623
 20
-102.7815
 30
0.0
 10
185.7556
 20
-102.2054
 30
0.0
 10
185.7556
 20
-102.2054
 30
0.0
 10
185.7332
 20
-100.2739
 30
0.0
 10
185.3413
 20
-98.3474
 30
0.0
 10
185.3413
 20
-98.3474
 30
0.0
 10
185.3413
 20
-98.3474
 30
0.0
 10
185.3413
 20
-98.3474
 30
0.0
 10
186.9688
 20
-99.5746
 30
0.0
 10
187.7676
 20
-100.9472
 30
0.0
 10
187.7676
 20
-100.9472
 30
0.0
 10
188.2637
 20
-101.8001
 30
0.0
 10
189.4684
 20
-102.9357
 30
0.0
 10
190.7382
 20
-103.8386
 30
0.0
  0
SPLINE
  5
50
330
1F
100
AcDbEntity
  8
layer 1
 62
     7
100
AcDbSpline
210
0.0
220
0.0
230
1.0
 70
    11
 71
     3
 72
    64
 73
    60
 74
     0
 42
0.0000000001
 43
0.0000000001
 12
1.0
 22
0.0
 32
0.0
 13
1.0
 23
0.0
 33
0.0
 40
0.0
 40
0.0
 40
0.0
 40
0.0
 40
0.0625
 40
0.0625
 40
0.0625
 40
0.0625
 40
0.125
 40
0.125
 40
0.125
 40
0.125
 40
0.1875
 40
0.1875
 40
0.1875
 40
0.1875
 40
0.25
 40
0.25
 40
0.25
 40
0.25
 40
0.3125
 40
0.3125
 40
0.3125
 40
0.3125
 40
0.375
 40
0.375
 40
0.375
 40
0.375
 40
0.4375
 40
0.4375
 40
0.4375
 40
0.4375
 40
0.5
 40
0.5
 40
0.5
 40
0.5
 40
0.5625
 40
0.5625
 40
0.5625
 40
0.5625
 40
0.625
 40
0.625
 40
0.625
 40
0.625
 40
0.6875
 40
0.6875
 40
0.6875
 40
0.6875
 40
0.75
 40
0.75
 40
0.75
 40
0.75
 40
0.8125
 40
0.8125
 40
0.8125
 40
0.8125
 40
0.875
 40
0.875
 40
0.875
 40
0.875
 40
1.0
 40
1.0
 40
1.0
 40
1.0
 10
183.5109
 20
-103.8386
 30
0.0
 10
183.5109
 20
-103.8386
 30
0.0
 10
171.6171
 20
-103.8386
 30
0.0
 10
171.6171
 20
-103.8386
 30
0.0
 10
171.6171
 20
-103.8386
 30
0.0
 10
171.0336
 20
-102.7746
 30
0.0
 10
170.6467
 20
-101.4297
 30
0.0
 10
170.5639
 20
-99.8836
 30
0.0
 10
170.5639
 20
-99.8836
 30
0.0
 10
170.5639
 20
-99.8836
 30
0.0
 10
169.2406
 20
-100.1754
 30
0.0
 10
169.8246
 20
-102.7155
 30
0.0
 10
169.8246
 20
-102.7155
 30
0.0
 10
169.9197
 20
-103.1291
 30
0.0
 10
170.0515
 20
-103.5018
 30
0.0
 10
170.2088
 20
-103.8386
 30
0.0
 10
170.2088
 20
-103.8386
 30
0.0
 10
170.2088
 20
-103.8386
 30
0.0
 10
168.4074
 20
-103.8386
 30
0.0
 10
168.4074
 20
-103.8386
 30
0.0
 10
168.4074
 20
-103.8386
 30
0.0
 10
168.6345
 20
-101.454
 30
0.0
 10
168.5057
 20
-98.9466
 30
0.0
 10
167.8956
 20
-96.3304
 30
0.0
 10
167.8956
 20
-96.3304
 30
0.0
 10
167.1656
 20
-93.2006
 30
0.0
 10
170.2355
 20
-89.0045
 30
0.0
 10
173.5967
 20
-89.4746
 30
0.0
 10
173.5967
 20
-89.4746
 30
0.0
 10
174.9811
 20
-89.6682
 30
0.0
 10
176.0733
 20
-89.6839
 30
0.0
 10
176.9228
 20
-89.5798
 30
0.0
 10
176.9228
 20
-89.5798
 30
0.0
 10
178.166
 20
-91.3709
 30
0.0
 10
179.036
 20
-92.1526
 30
0.0
 10
179.036
 20
-92.1526
 30
0.0
 10
179.036
 20
-92.1526
 30
0.0
 10
179.036
 20
-92.1526
 30
0.0
 10
179.0127
 20
-94.467
 30
0.0
 10
178.1216
 20
-95.0616
 30
0.0
 10
178.1216
 20
-95.0616
 30
0.0
 10
177.2304
 20
-95.6559
 30
0.0
 10
176.8101
 20
-95.8205
 30
0.0
 10
176.8101
 20
-95.8205
 30
0.0
 10
176.8101
 20
-95.8205
 30
0.0
 10
176.8101
 20
-95.8205
 30
0.0
 10
179.6378
 20
-96.889
 30
0.0
 10
180.0042
 20
-95.6682
 30
0.0
 10
180.0042
 20
-95.6682
 30
0.0
 10
180.3706
 20
-94.4473
 30
0.0
 10
180.3901
 20
-93.4956
 30
0.0
 10
180.3901
 20
-93.4956
 30
0.0
 10
180.3901
 20
-93.4956
 30
0.0
 10
183.433
 20
-93.9404
 30
0.0
 10
185.0293
 20
-98.2703
 30
0.0
 10
184.6939
 20
-101.0166
 30
0.0
 10
184.6939
 20
-101.0166
 30
0.0
 10
184.5594
 20
-102.1193
 30
0.0
 10
184.134
 20
-103.0595
 30
0.0
 10
183.5109
 20
-103.8386
 30
0.0
  0
SPLINE
  5
51
330
1F
100
AcDbEntity
  8
layer 1
 62
     7
100
AcDbSpline
210
0.0
220
0.0
230
1.0
 70
    11
 71
     3
 72
    72
 73
    68
 74
     0
 42
0.0000000001
 43
0.0000000001
 12
1.0
 22
0.0
 32
0.0
 13
1.0
 23
0.0
 33
0.0
 40
0.0
 40
0.0
 40
0.0
 40
0.0
 40
0.0555555555555556
 40
0.0555555555555556
 40
0.0555555555555556
 40
0.0555555555555556
 40
0.1111111111111111
 40
0.1111111111111111
 40
0.1111111111111111
 40
0.1111111111111111
 40
0.1666666666666667
 40
0.1666666666666667
 40
0.1666666666666667
 40
0.1666666666666667
 40
0.2222222222222222
 40
0.2222222222222222
 40
0.2222222222222222
 40
0.2222222222222222
 40
0.2777777777777778
 40
0.2777777777777778
 40
0.2777777777777778
 40
0.2777777777777778
 40
0.3333333333333333
 40
0.3333333333333333
 40
0.3333333333333333
 40
0.3333333333333333
 40
0.3888888888888889
 40
0.3888888888888889
 40
0.3888888888888889
 40
0.3888888888888889
 40
0.4444444444444444
 40
0.4444444444444444
 40
0.4444444444444444
 40
0.4444444444444444
 40
0.5
 40
0.5
 40
0.5
 40
0.5
 40
0.5555555555555556
 40
0.5555555555555556
 40
0.5555555555555556
 40
0.5555555555555556
 40
0.6111111111111112
 40
0.6111111111111112
 40
0.6111111111111112
 40
0.6111111111111112
 40
0.6666666666666666
 40
0.6666666666666666
 40
0.6666666666666666
 40
0.6666666666666666
 40
0.7222222222222222
 40
0.7222222222222222
 40
0.7222222222222222
 40
0.7222222222222222
 40
0.7777777777777778
 40
0.7777777777777778
 40
0.7777777777777778
 40
0.7777777777777778
 40
0.8333333333333334
 40
0.8333333333333334
 40
0.8333333333333334
 40
0.8333333333333334
 40
0.8888888888888888
 40
0.8888888888888888
 40
0.8888888888888888
 40
0.8888888888888888
 40
1.0
 40
1.0
 40
1.0
 40
1.0
 10
164.9978
 20
-103.8386
 30
0.0
 10
164.9978
 20
-103.8386
 30
0.0
 10
157.0518
 20
-103.8386
 30
0.0
 10
157.0518
 20
-103.8386
 30
0.0
 10
157.0518
 20
-103.8386
 30
0.0
 10
157.0197
 20
-103.8122
 30
0.0
 10
156.9883
 20
-103.7858
 30
0.0
 10
156.9558
 20
-103.7594
 30
0.0
 10
156.9558
 20
-103.7594
 30
0.0
 10
153.4051
 20
-100.8963
 30
0.0
 10
150.4838
 20
-102.4507
 30
0.0
 10
148.9078
 20
-103.8386
 30
0.0
 10
148.9078
 20
-103.8386
 30
0.0
 10
148.9078
 20
-103.8386
 30
0.0
 10
147.8037
 20
-103.8386
 30
0.0
 10
147.8037
 20
-103.8386
 30
0.0
 10
147.8037
 20
-103.8386
 30
0.0
 10
147.8006
 20
-102.8561
 30
0.0
 10
147.562
 20
-101.4886
 30
0.0
 10
146.5344
 20
-100.201
 30
0.0
 10
146.5344
 20
-100.201
 30
0.0
 10
144.639
 20
-97.8256
 30
0.0
 10
143.6544
 20
-97.8692
 30
0.0
 10
143.6544
 20
-97.8692
 30
0.0
 10
143.6544
 20
-97.8692
 30
0.0
 10
143.6544
 20
-97.8692
 30
0.0
 10
144.3564
 20
-93.8631
 30
0.0
 10
140.8815
 20
-91.1548
 30
0.0
 10
140.8815
 20
-91.1548
 30
0.0
 10
138.5662
 20
-89.3506
 30
0.0
 10
134.0617
 20
-89.3888
 30
0.0
 10
130.9351
 20
-91.2834
 30
0.0
 10
130.9351
 20
-91.2834
 30
0.0
 10
130.9351
 20
-91.2834
 30
0.0
 10
130.9351
 20
-84.2814
 30
0.0
 10
130.9351
 20
-84.2814
 30
0.0
 10
130.9351
 20
-84.2814
 30
0.0
 10
135.9908
 20
-81.6784
 30
0.0
 10
142.5143
 20
-80.9265
 30
0.0
 10
147.9582
 20
-82.3829
 30
0.0
 10
147.9582
 20
-82.3829
 30
0.0
 10
153.1663
 20
-83.7761
 30
0.0
 10
156.4536
 20
-87.2019
 30
0.0
 10
155.9044
 20
-87.0251
 30
0.0
 10
155.9044
 20
-87.0251
 30
0.0
 10
155.3555
 20
-86.8484
 30
0.0
 10
151.9244
 20
-84.738
 30
0.0
 10
148.3365
 20
-86.7561
 30
0.0
 10
148.3365
 20
-86.7561
 30
0.0
 10
144.7489
 20
-88.7745
 30
0.0
 10
144.9677
 20
-95.1692
 30
0.0
 10
149.8513
 20
-96.3916
 30
0.0
 10
149.8513
 20
-96.3916
 30
0.0
 10
154.735
 20
-97.6136
 30
0.0
 10
155.7397
 20
-95.4363
 30
0.0
 10
156.0133
 20
-93.5124
 30
0.0
 10
156.0133
 20
-93.5124
 30
0.0
 10
156.2873
 20
-91.5888
 30
0.0
 10
155.6578
 20
-90.7305
 30
0.0
 10
155.6578
 20
-90.7305
 30
0.0
 10
155.6578
 20
-90.7305
 30
0.0
 10
155.6578
 20
-90.7305
 30
0.0
 10
157.1251
 20
-89.1353
 30
0.0
 10
160.7451
 20
-93.7522
 30
0.0
 10
160.7451
 20
-93.7522
 30
0.0
 10
163.3868
 20
-97.1209
 30
0.0
 10
164.7462
 20
-100.7541
 30
0.0
 10
164.9978
 20
-103.8386
 30
0.0
  0
SPLINE
  5
52
330
1F
100
AcDbEntity
  8
layer 1
 62
     7
100
AcDbSpline
210
0.0
220
0.0
230
1.0
 70
    11
 71
     3
 72
    20
 73
    16
 74
     0
 42
0.0000000001
 43
0.0000000001
 12
1.0
 22
0.0
 32
0.0
 13
1.0
 23
0.0
 33
0.0
 40
0.0
 40
0.0
 40
0.0
 40
0.0
 40
0.2
 40
0.2
 40
0.2
 40
0.2
 40
0.4
 40
0.4
 40
0.4
 40
0.4
 40
0.6
 40
0.6
 40
0.6
 40
0.6
 40
1.0
 40
1.0
 40
1.0
 40
1.0
 10
145.4593
 20
-103.8386
 30
0.0
 10
145.4593
 20
-103.8386
 30
0.0
 10
138.2937
 20
-103.8386
 30
0.0
 10
138.2937
 20
-103.8386
 30
0.0
 10
138.2937
 20
-103.8386
 30
0.0
 10
137.9042
 20
-102.7204
 30
0.0
 10
137.8418
 20
-101.5097
 30
0.0
 10
138.9041
 20
-100.8031
 30
0.0
 10
138.9041
 20
-100.8031
 30
0.0
 10
141.2636
 20
-99.234
 30
0.0
 10
144.5437
 20
-99.3712
 30
0.0
 10
145.3175
 20
-102.7478
 30
0.0
 10
145.3175
 20
-102.7478
 30
0.0
 10
145.4003
 20
-103.1092
 30
0.0
 10
145.4459
 20
-103.4737
 30
0.0
 10
145.4593
 20
-103.8386
 30
0.0
  0
SPLINE
  5
53
330
1F
100
AcDbEntity
  8
layer 1
 62
     7
100
AcDbSpline
210
0.0
220
0.0
230
1.0
 70
    11
 71
     3
 72
    16
 73
    12
 74
     0
 42
0.0000000001
 43
0.0000000001
 12
1.0
 22
0.0
 32
0.0
 13
1.0
 23
0.0
 33
0.0
 40
0.0
 40
0.0
 40
0.0
 40
0.0
 40
0.25
 40
0.25
 40
0.25
 40
0.25
 40
0.5
 40
0.5
 40
0.5
 40
0.5
 40
1.0
 40
1.0
 40
1.0
 40
1.0
 10
131.0143
 20
-103.8386
 30
0.0
 10
131.0143
 20
-103.8386
 30
0.0
 10
130.9351
 20
-103.8386
 30
0.0
 10
130.9351
 20
-103.8386
 30
0.0
 10
130.9351
 20
-103.8386
 30
0.0
 10
130.9351
 20
-103.8386
 30
0.0
 10
130.9351
 20
-103.7697
 30
0.0
 10
130.9351
 20
-103.7697
 30
0.0
 10
130.9351
 20
-103.7697
 30
0.0
 10
130.9611
 20
-103.7929
 30
0.0
 10
130.9879
 20
-103.8156
 30
0.0
 10
131.0143
 20
-103.8386
 30
0.0
  0
SPLINE
  5
54
330
1F
100
AcDbEntity
  8
layer 1
 62
     7
100
AcDbSpline
210
0.0
220
0.0
230
1.0
 70
    11
 71
     3
 72
   124
 73
   120
 74
     0
 42
0.0000000001
 43
0.0000000001
 12
1.0
 22
0.0
 32
0.0
 13
1.0
 23
0.0
 33
0.0
 40
0.0
 40
0.0
 40
0.0
 40
0.0
 40
0.032258064516129
 40
0.032258064516129
 40
0.032258064516129
 40
0.032258064516129
 40
0.0645161290322581
 40
0.0645161290322581
 40
0.0645161290322581
 40
0.0645161290322581
 40
0.0967741935483871
 40
0.0967741935483871
 40
0.0967741935483871
 40
0.0967741935483871
 40
0.1290322580645161
 40
0.1290322580645161
 40
0.1290322580645161
 40
0.1290322580645161
 40
0.1612903225806452
 40
0.1612903225806452
 40
0.1612903225806452
 40
0.1612903225806452
 40
0.1935483870967742
 40
0.1935483870967742
 40
0.1935483870967742
 40
0.1935483870967742
 40
0.2258064516129032
 40
0.2258064516129032
 40
0.2258064516129032
 40
0.2258064516129032
 40
0.2580645161290323
 40
0.2580645161290323
 40
0.2580645161290323
 40
0.2580645161290323
 40
0.2903225806451613
 40
0.2903225806451613
 40
0.2903225806451613
 40
0.2903225806451613
 40
0.3225806451612903
 40
0.3225806451612903
 40
0.3225806451612903
 40
0.3225806451612903
 40
0.3548387096774194
 40
0.3548387096774194
 40
0.3548387096774194
 40
0.3548387096774194
 40
0.3870967741935484
 40
0.3870967741935484
 40
0.3870967741935484
 40
0.3870967741935484
 40
0.4193548387096774
 40
0.4193548387096774
 40
0.4193548387096774
 40
0.4193548387096774
 40
0.4516129032258064
 40
0.4516129032258064
 40
0.4516129032258064
 40
0.4516129032258064
 40
0.4838709677419355
 40
0.4838709677419355
 40
0.4838709677419355
 40
0.4838709677419355
 40
0.5161290322580645
 40
0.5161290322580645
 40
0.5161290322580645
 40
0.5161290322580645
 40
0.5483870967741935
 40
0.5483870967741935
 40
0.5483870967741935
 40
0.5483870967741935
 40
0.5806451612903226
 40
0.5806451612903226
 40
0.5806451612903226
 40
0.5806451612903226
 40
0.6129032258064516
 40
0.6129032258064516
 40
0.6129032258064516
 40
0.6129032258064516
 40
0.6451612903225806
 40
0.6451612903225806
 40
0.6451612903225806
 40
0.6451612903225806
 40
0.6774193548387096
 40
0.6774193548387096
 40
0.6774193548387096
 40
0.6774193548387096
 40
0.7096774193548387
 40
0.7096774193548387
 40
0.7096774193548387
 40
0.7096774193548387
 40
0.7419354838709677
 40
0.7419354838709677
 40
0.7419354838709677
 40
0.7419354838709677
 40
0.7741935483870968
 40
0.7741935483870968
 40
0.7741935483870968
 40
0.7741935483870968
 40
0.8064516129032258
 40
0.8064516129032258
 40
0.8064516129032258
 40
0.8064516129032258
 40
0.8387096774193549
 40
0.8387096774193549
 40
0.8387096774193549
 40
0.8387096774193549
 40
0.8709677419354839
 40
0.8709677419354839
 40
0.8709677419354839
 40
0.8709677419354839
 40
0.9032258064516129
 40
0.9032258064516129
 40
0.9032258064516129
 40
0.9032258064516129
 40
0.9354838709677419
 40
0.9354838709677419
 40
0.9354838709677419
 40
0.9354838709677419
 40
1.0
 40
1.0
 40
1.0
 40
1.0
 10
130.9351
 20
-81.6698
 30
0.0
 10
130.9351
 20
-81.6698
 30
0.0
 10
130.9351
 20
-48.0523
 30
0.0
 10
130.9351
 20
-48.0523
 30
0.0
 10
130.9351
 20
-48.0523
 30
0.0
 10
130.9351
 20
-48.0523
 30
0.0
 10
130.9682
 20
-48.0146
 30
0.0
 10
130.9682
 20
-48.0146
 30
0.0
 10
130.9682
 20
-48.0146
 30
0.0
 10
132.0747
 20
-46.726
 30
0.0
 10
134.0176
 20
-45.7395
 30
0.0
 10
134.0176
 20
-45.7395
 30
0.0
 10
134.0176
 20
-45.7395
 30
0.0
 10
134.0176
 20
-45.7395
 30
0.0
 10
140.1515
 20
-41.5703
 30
0.0
 10
140.1515
 20
-41.5703
 30
0.0
 10
140.1515
 20
-41.5703
 30
0.0
 10
140.1515
 20
-41.5703
 30
0.0
 10
139.9828
 20
-42.5674
 30
0.0
 10
140.1226
 20
-43.9086
 30
0.0
 10
140.1226
 20
-43.9086
 30
0.0
 10
140.2627
 20
-45.2496
 30
0.0
 10
143.4273
 20
-44.646
 30
0.0
 10
143.4273
 20
-44.646
 30
0.0
 10
143.4273
 20
-44.646
 30
0.0
 10
143.4273
 20
-44.646
 30
0.0
 10
143.0211
 20
-44.3978
 30
0.0
 10
142.2087
 20
-43.6161
 30
0.0
 10
142.2087
 20
-43.6161
 30
0.0
 10
141.3965
 20
-42.8339
 30
0.0
 10
141.832
 20
-40.4134
 30
0.0
 10
141.832
 20
-40.4134
 30
0.0
 10
141.832
 20
-40.4134
 30
0.0
 10
141.832
 20
-40.4134
 30
0.0
 10
143.0594
 20
-39.6528
 30
0.0
 10
144.9279
 20
-37.7263
 30
0.0
 10
144.9279
 20
-37.7263
 30
0.0
 10
147.8172
 20
-38.8046
 30
0.0
 10
152.1113
 20
-39.6947
 30
0.0
 10
156.7482
 20
-39.9337
 30
0.0
 10
156.7482
 20
-39.9337
 30
0.0
 10
153.4609
 20
-40.4287
 30
0.0
 10
150.4423
 20
-42.0812
 30
0.0
 10
148.5215
 20
-43.4894
 30
0.0
 10
148.5215
 20
-43.4894
 30
0.0
 10
144.9084
 20
-46.1384
 30
0.0
 10
142.8692
 20
-50.145
 30
0.0
 10
142.8057
 20
-55.8261
 30
0.0
 10
142.8057
 20
-55.8261
 30
0.0
 10
142.8057
 20
-55.8261
 30
0.0
 10
140.8051
 20
-53.5865
 30
0.0
 10
137.633
 20
-54.1808
 30
0.0
 10
137.633
 20
-54.1808
 30
0.0
 10
134.461
 20
-54.7751
 30
0.0
 10
133.6225
 20
-55.2804
 30
0.0
 10
133.6225
 20
-55.2804
 30
0.0
 10
133.6225
 20
-55.2804
 30
0.0
 10
133.6225
 20
-55.2804
 30
0.0
 10
136.2344
 20
-56.5564
 30
0.0
 10
136.7047
 20
-59.3089
 30
0.0
 10
136.7047
 20
-59.3089
 30
0.0
 10
137.175
 20
-62.0612
 30
0.0
 10
136.7856
 20
-65.0368
 30
0.0
 10
138.0603
 20
-67.0626
 30
0.0
 10
138.0603
 20
-67.0626
 30
0.0
 10
139.3349
 20
-69.0886
 30
0.0
 10
140.8524
 20
-68.6367
 30
0.0
 10
141.1654
 20
-69.0727
 30
0.0
 10
141.1654
 20
-69.0727
 30
0.0
 10
141.4788
 20
-69.5087
 30
0.0
 10
138.3702
 20
-71.0731
 30
0.0
 10
139.209
 20
-73.6273
 30
0.0
 10
139.209
 20
-73.6273
 30
0.0
 10
140.048
 20
-76.1816
 30
0.0
 10
143.3242
 20
-76.9843
 30
0.0
 10
146.9323
 20
-77.3512
 30
0.0
 10
146.9323
 20
-77.3512
 30
0.0
 10
149.5777
 20
-77.6202
 30
0.0
 10
154.4811
 20
-79.7907
 30
0.0
 10
157.7869
 20
-82.0503
 30
0.0
 10
157.7869
 20
-82.0503
 30
0.0
 10
156.8739
 20
-82.91
 30
0.0
 10
156.2791
 20
-84.7043
 30
0.0
 10
156.2791
 20
-84.7043
 30
0.0
 10
156.2791
 20
-84.7043
 30
0.0
 10
156.2791
 20
-84.7043
 30
0.0
 10
156.8113
 20
-84.4282
 30
0.0
 10
158.2048
 20
-84.0494
 30
0.0
 10
158.2048
 20
-84.0494
 30
0.0
 10
158.9284
 20
-83.8527
 30
0.0
 10
159.9568
 20
-84.2769
 30
0.0
 10
160.7788
 20
-84.7303
 30
0.0
 10
160.7788
 20
-84.7303
 30
0.0
 10
161.4201
 20
-85.5854
 30
0.0
 10
161.9892
 20
-86.52
 30
0.0
 10
162.4585
 20
-87.4688
 30
0.0
 10
162.4585
 20
-87.4688
 30
0.0
 10
162.6686
 20
-88.3652
 30
0.0
 10
163.0063
 20
-89.5683
 30
0.0
 10
163.5456
 20
-91.0442
 30
0.0
 10
163.5456
 20
-91.0442
 30
0.0
 10
163.5757
 20
-91.1259
 30
0.0
 10
163.6057
 20
-91.2059
 30
0.0
 10
163.6361
 20
-91.2855
 30
0.0
 10
163.6361
 20
-91.2855
 30
0.0
 10
163.6361
 20
-91.2855
 30
0.0
 10
163.7563
 20
-91.2846
 30
0.0
 10
163.7563
 20
-91.2846
 30
0.0
 10
163.7563
 20
-91.2846
 30
0.0
 10
163.9356
 20
-92.3579
 30
0.0
 10
163.904
 20
-93.3155
 30
0.0
 10
163.608
 20
-94.0317
 30
0.0
 10
163.608
 20
-94.0317
 30
0.0
 10
163.494
 20
-94.3076
 30
0.0
 10
161.4787
 20
-89.6929
 30
0.0
 10
155.2359
 20
-84.3842
 30
0.0
 10
155.2359
 20
-84.3842
 30
0.0
 10
146.874
 20
-78.8342
 30
0.0
 10
137.7706
 20
-78.5834
 30
0.0
 10
130.9351
 20
-81.6698
 30
0.0
  0
SPLINE
  5
55
330
1F
100
AcDbEntity
  8
layer 1
 62
     7
100
AcDbSpline
210
0.0
220
0.0
230
1.0
 70
    11
 71
     3
 72
    20
 73
    16
 74
     0
 42
0.0000000001
 43
0.0000000001
 12
1.0
 22
0.0
 32
0.0
 13
1.0
 23
0.0
 33
0.0
 40
0.0
 40
0.0
 40
0.0
 40
0.0
 40
0.2
 40
0.2
 40
0.2
 40
0.2
 40
0.4
 40
0.4
 40
0.4
 40
0.4
 40
0.6
 40
0.6
 40
0.6
 40
0.6
 40
1.0
 40
1.0
 40
1.0
 40
1.0
 10
130.9351
 20
-45.647
 30
0.0
 10
130.9351
 20
-45.647
 30
0.0
 10
130.9351
 20
-42.2157
 30
0.0
 10
130.9351
 20
-42.2157
 30
0.0
 10
130.9351
 20
-42.2157
 30
0.0
 10
133.0279
 20
-42.8161
 30
0.0
 10
135.0353
 20
-42.7924
 30
0.0
 10
135.2825
 20
-42.8391
 30
0.0
 10
135.2825
 20
-42.8391
 30
0.0
 10
135.656
 20
-42.9093
 30
0.0
 10
134.6018
 20
-44.0146
 30
0.0
 10
133.3239
 20
-44.8364
 30
0.0
 10
133.3239
 20
-44.8364
 30
0.0
 10
132.6293
 20
-45.2829
 30
0.0
 10
131.7783
 20
-45.5143
 30
0.0
 10
130.9351
 20
-45.647
 30
0.0
  0
SPLINE
  5
56
330
1F
100
AcDbEntity
  8
layer 1
 62
     7
100
AcDbSpline
210
0.0
220
0.0
230
1.0
 70
    11
 71
     3
 72
    36
 73
    32
 74
     0
 42
0.0000000001
 43
0.0000000001
 12
1.0
 22
0.0
 32
0.0
 13
1.0
 23
0.0
 33
0.0
 40
0.0
 40
0.0
 40
0.0
 40
0.0
 40
0.1111111111111111
 40
0.1111111111111111
 40
0.1111111111111111
 40
0.1111111111111111
 40
0.2222222222222222
 40
0.2222222222222222
 40
0.2222222222222222
 40
0.2222222222222222
 40
0.3333333333333333
 40
0.3333333333333333
 40
0.3333333333333333
 40
0.3333333333333333
 40
0.4444444444444444
 40
0.4444444444444444
 40
0.4444444444444444
 40
0.4444444444444444
 40
0.5555555555555556
 40
0.5555555555555556
 40
0.5555555555555556
 40
0.5555555555555556
 40
0.6666666666666666
 40
0.6666666666666666
 40
0.6666666666666666
 40
0.6666666666666666
 40
0.7777777777777778
 40
0.7777777777777778
 40
0.7777777777777778
 40
0.7777777777777778
 40
1.0
 40
1.0
 40
1.0
 40
1.0
 10
130.9351
 20
-40.6904
 30
0.0
 10
130.9351
 20
-40.6904
 30
0.0
 10
130.9351
 20
-32.3931
 30
0.0
 10
130.9351
 20
-32.3931
 30
0.0
 10
130.9351
 20
-32.3931
 30
0.0
 10
138.1035
 20
-32.1299
 30
0.0
 10
146.2012
 20
-29.535
 30
0.0
 10
152.1943
 20
-23.0342
 30
0.0
 10
152.1943
 20
-23.0342
 30
0.0
 10
152.1943
 20
-23.0342
 30
0.0
 10
155.9096
 20
-23.5263
 30
0.0
 10
159.0394
 20
-24.367
 30
0.0
 10
159.0394
 20
-24.367
 30
0.0
 10
162.1696
 20
-25.2073
 30
0.0
 10
165.6903
 20
-28.3216
 30
0.0
 10
165.6903
 20
-28.3216
 30
0.0
 10
165.6903
 20
-28.3216
 30
0.0
 10
158.1853
 20
-28.989
 30
0.0
 10
152.3063
 20
-29.3594
 30
0.0
 10
144.8049
 20
-36.1978
 30
0.0
 10
144.8049
 20
-36.1978
 30
0.0
 10
144.8049
 20
-36.1978
 30
0.0
 10
144.7682
 20
-36.1352
 30
0.0
 10
144.7682
 20
-36.1352
 30
0.0
 10
144.7682
 20
-36.1352
 30
0.0
 10
142.2145
 20
-38.877
 30
0.0
 10
138.4502
 20
-40.3045
 30
0.0
 10
136.6289
 20
-40.9194
 30
0.0
 10
136.6289
 20
-40.9194
 30
0.0
 10
134.5993
 20
-41.6046
 30
0.0
 10
132.7202
 20
-41.2937
 30
0.0
 10
130.9351
 20
-40.6904
 30
0.0
  0
SPLINE
  5
57
330
1F
100
AcDbEntity
  8
layer 1
 62
     7
100
AcDbSpline
210
0.0
220
0.0
230
1.0
 70
    11
 71
     3
 72
    24
 73
    20
 74
     0
 42
0.0000000001
 43
0.0000000001
 12
1.0
 22
0.0
 32
0.0
 13
1.0
 23
0.0
 33
0.0
 40
0.0
 40
0.0
 40
0.0
 40
0.0
 40
0.1666666666666667
 40
0.1666666666666667
 40
0.1666666666666667
 40
0.1666666666666667
 40
0.3333333333333333
 40
0.3333333333333333
 40
0.3333333333333333
 40
0.3333333333333333
 40
0.5
 40
0.5
 40
0.5
 40
0.5
 40
0.6666666666666666
 40
0.6666666666666666
 40
0.6666666666666666
 40
0.6666666666666666
 40
1.0
 40
1.0
 40
1.0
 40
1.0
 10
130.9351
 20
-18.4531
 30
0.0
 10
130.9351
 20
-18.4531
 30
0.0
 10
130.9351
 20
-12.2582
 30
0.0
 10
130.9351
 20
-12.2582
 30
0.0
 10
130.9351
 20
-12.2582
 30
0.0
 10
135.3317
 20
-11.5087
 30
0.0
 10
141.3474
 20
-12.6433
 30
0.0
 10
142.9088
 20
-16.4564
 30
0.0
 10
142.9088
 20
-16.4564
 30
0.0
 10
142.9088
 20
-16.4564
 30
0.0
 10
141.3665
 20
-16.817
 30
0.0
 10
139.5066
 20
-17.7857
 30
0.0
 10
139.5066
 20
-17.7857
 30
0.0
 10
139.3007
 20
-17.8929
 30
0.0
 10
139.1511
 20
-18.035
 30
0.0
 10
139.0476
 20
-18.203
 30
0.0
 10
139.0476
 20
-18.203
 30
0.0
 10
136.2828
 20
-18.0262
 30
0.0
 10
133.6105
 20
-18.1005
 30
0.0
 10
130.9351
 20
-18.4531
 30
0.0
  0
SPLINE
  5
58
330
1F
100
AcDbEntity
  8
layer 1
 62
     7
100
AcDbSpline
210
0.0
220
0.0
230
1.0
 70
    11
 71
     3
 72
    16
 73
    12
 74
     0
 42
0.0000000001
 43
0.0000000001
 12
1.0
 22
0.0
 32
0.0
 13
1.0
 23
0.0
 33
0.0
 40
0.0
 40
0.0
 40
0.0
 40
0.0
 40
0.25
 40
0.25
 40
0.25
 40
0.25
 40
0.5
 40
0.5
 40
0.5
 40
0.5
 40
1.0
 40
1.0
 40
1.0
 40
1.0
 10
130.9351
 20
-10.9562
 30
0.0
 10
130.9351
 20
-10.9562
 30
0.0
 10
130.9351
 20
-9.2818
 30
0.0
 10
130.9351
 20
-9.2818
 30
0.0
 10
130.9351
 20
-9.2818
 30
0.0
 10
132.2915
 20
-10.0334
 30
0.0
 10
133.285
 20
-10.8031
 30
0.0
 10
133.285
 20
-10.8031
 30
0.0
 10
133.285
 20
-10.8031
 30
0.0
 10
133.285
 20
-10.8031
 30
0.0
 10
132.3207
 20
-10.8295
 30
0.0
 10
130.9351
 20
-10.9562
 30
0.0
  0
SPLINE
  5
59
330
1F
100
AcDbEntity
  8
layer 1
 62
     7
100
AcDbSpline
210
0.0
220
0.0
230
1.0
 70
    11
 71
     3
 72
    32
 73
    28
 74
     0
 42
0.0000000001
 43
0.0000000001
 12
1.0
 22
0.0
 32
0.0
 13
1.0
 23
0.0
 33
0.0
 40
0.0
 40
0.0
 40
0.0
 40
0.0
 40
0.125
 40
0.125
 40
0.125
 40
0.125
 40
0.25
 40
0.25
 40
0.25
 40
0.25
 40
0.375
 40
0.375
 40
0.375
 40
0.375
 40
0.5
 40
0.5
 40
0.5
 40
0.5
 40
0.625
 40
0.625
 40
0.625
 40
0.625
 40
0.75
 40
0.75
 40
0.75
 40
0.75
 40
1.0
 40
1.0
 40
1.0
 40
1.0
 10
130.9351
 20
-5.5694
 30
0.0
 10
130.9351
 20
-5.5694
 30
0.0
 10
130.9351
 20
11.386
 30
0.0
 10
130.9351
 20
11.386
 30
0.0
 10
130.9351
 20
11.386
 30
0.0
 10
131.6067
 20
11.5352
 30
0.0
 10
132.3546
 20
11.7501
 30
0.0
 10
133.1854
 20
12.0424
 30
0.0
 10
133.1854
 20
12.0424
 30
0.0
 10
136.3375
 20
13.1516
 30
0.0
 10
140.0796
 20
10.4844
 30
0.0
 10
141.2613
 20
7.3592
 30
0.0
 10
141.2613
 20
7.3592
 30
0.0
 10
137.9422
 20
5.9725
 30
0.0
 10
138.0285
 20
3.4325
 30
0.0
 10
136.9684
 20
0.2134
 30
0.0
 10
136.9684
 20
0.2134
 30
0.0
 10
135.4123
 20
-4.5117
 30
0.0
 10
138.1077
 20
-10.2417
 30
0.0
 10
138.2243
 20
-10.7752
 30
0.0
 10
138.2243
 20
-10.7752
 30
0.0
 10
138.3402
 20
-11.3088
 30
0.0
 10
136.1238
 20
-10.5645
 30
0.0
 10
134.1868
 20
-9.3597
 30
0.0
 10
134.1868
 20
-9.3597
 30
0.0
 10
132.7585
 20
-8.4708
 30
0.0
 10
131.7349
 20
-6.9702
 30
0.0
 10
130.9351
 20
-5.5694
 30
0.0
  0
SPLINE
  5
5A
330
1F
100
AcDbEntity
  8
layer 1
 62
     7
100
AcDbSpline
210
0.0
220
0.0
230
1.0
 70
    11
 71
     3
 72
    16
 73
    12
 74
     0
 42
0.0000000001
 43
0.0000000001
 12
1.0
 22
0.0
 32
0.0
 13
1.0
 23
0.0
 33
0.0
 40
0.0
 40
0.0
 40
0.0
 40
0.0
 40
0.25
 40
0.25
 40
0.25
 40
0.25
 40
0.5
 40
0.5
 40
0.5
 40
0.5
 40
1.0
 40
1.0
 40
1.0
 40
1.0
 10
130.9351
 20
16.2973
 30
0.0
 10
130.9351
 20
16.2973
 30
0.0
 10
130.9351
 20
18.9528
 30
0.0
 10
130.9351
 20
18.9528
 30
0.0
 10
130.9351
 20
18.9528
 30
0.0
 10
133.4603
 20
18.1299
 30
0.0
 10
135.5072
 20
17.2147
 30
0.0
 10
135.7551
 20
17.024
 30
0.0
 10
135.7551
 20
17.024
 30
0.0
 10
135.7551
 20
17.024
 30
0.0
 10
133.26
 20
17.2614
 30
0.0
 10
130.9351
 20
16.2973
 30
0.0
  0
SPLINE
  5
5B
330
1F
100
AcDbEntity
  8
layer 1
 62
     7
100
AcDbSpline
210
0.0
220
0.0
230
1.0
 70
    11
 71
     3
 72
    32
 73
    28
 74
     0
 42
0.0000000001
 43
0.0000000001
 12
1.0
 22
0.0
 32
0.0
 13
1.0
 23
0.0
 33
0.0
 40
0.0
 40
0.0
 40
0.0
 40
0.0
 40
0.125
 40
0.125
 40
0.125
 40
0.125
 40
0.25
 40
0.25
 40
0.25
 40
0.25
 40
0.375
 40
0.375
 40
0.375
 40
0.375
 40
0.5
 40
0.5
 40
0.5
 40
0.5
 40
0.625
 40
0.625
 40
0.625
 40
0.625
 40
0.75
 40
0.75
 40
0.75
 40
0.75
 40
1.0
 40
1.0
 40
1.0
 40
1.0
 10
130.9351
 20
24.6996
 30
0.0
 10
130.9351
 20
24.6996
 30
0.0
 10
130.9351
 20
35.3237
 30
0.0
 10
130.9351
 20
35.3237
 30
0.0
 10
130.9351
 20
35.3237
 30
0.0
 10
131.2196
 20
34.884
 30
0.0
 10
131.5081
 20
34.5061
 30
0.0
 10
131.789
 20
34.2176
 30
0.0
 10
131.789
 20
34.2176
 30
0.0
 10
133.282
 20
32.6848
 30
0.0
 10
134.2394
 20
30.2098
 30
0.0
 10
134.2394
 20
30.2098
 30
0.0
 10
134.2394
 20
30.2098
 30
0.0
 10
134.2394
 20
30.2098
 30
0.0
 10
138.6375
 20
22.2176
 30
0.0
 10
138.6375
 20
22.2176
 30
0.0
 10
138.6375
 20
22.2176
 30
0.0
 10
138.6375
 20
22.2176
 30
0.0
 10
137.3661
 20
22.5871
 30
0.0
 10
135.5938
 20
22.6476
 30
0.0
 10
135.5938
 20
22.6476
 30
0.0
 10
135.1829
 20
22.6617
 30
0.0
 10
134.8806
 20
22.4648
 30
0.0
 10
134.6588
 20
22.1539
 30
0.0
 10
134.6588
 20
22.1539
 30
0.0
 10
133.1197
 20
23.3115
 30
0.0
 10
131.9078
 20
24.1084
 30
0.0
 10
130.9351
 20
24.6996
 30
0.0
  0
SPLINE
  5
5C
330
1F
100
AcDbEntity
  8
layer 1
 62
     7
100
AcDbSpline
210
0.0
220
0.0
230
1.0
 70
    11
 71
     3
 72
    28
 73
    24
 74
     0
 42
0.0000000001
 43
0.0000000001
 12
1.0
 22
0.0
 32
0.0
 13
1.0
 23
0.0
 33
0.0
 40
0.0
 40
0.0
 40
0.0
 40
0.0
 40
0.1428571428571428
 40
0.1428571428571428
 40
0.1428571428571428
 40
0.1428571428571428
 40
0.2857142857142857
 40
0.2857142857142857
 40
0.2857142857142857
 40
0.2857142857142857
 40
0.4285714285714285
 40
0.4285714285714285
 40
0.4285714285714285
 40
0.4285714285714285
 40
0.5714285714285714
 40
0.5714285714285714
 40
0.5714285714285714
 40
0.5714285714285714
 40
0.7142857142857143
 40
0.7142857142857143
 40
0.7142857142857143
 40
0.7142857142857143
 40
1.0
 40
1.0
 40
1.0
 40
1.0
 10
130.9351
 20
48.5165
 30
0.0
 10
130.9351
 20
48.5165
 30
0.0
 10
130.9351
 20
53.7449
 30
0.0
 10
130.9351
 20
53.7449
 30
0.0
 10
130.9351
 20
53.7449
 30
0.0
 10
131.9654
 20
53.6919
 30
0.0
 10
132.9831
 20
53.5549
 30
0.0
 10
133.9377
 20
53.3015
 30
0.0
 10
133.9377
 20
53.3015
 30
0.0
 10
138.1274
 20
52.1897
 30
0.0
 10
138.4755
 20
47.4457
 30
0.0
 10
137.3434
 20
45.9703
 30
0.0
 10
137.3434
 20
45.9703
 30
0.0
 10
136.2109
 20
44.4949
 30
0.0
 10
131.6922
 20
45.9546
 30
0.0
 10
131.6922
 20
45.9546
 30
0.0
 10
131.6922
 20
45.9546
 30
0.0
 10
131.6922
 20
45.9546
 30
0.0
 10
131.6536
 20
45.898
 30
0.0
 10
131.6053
 20
45.7937
 30
0.0
 10
131.6053
 20
45.7937
 30
0.0
 10
131.3145
 20
46.7582
 30
0.0
 10
131.0951
 20
47.7116
 30
0.0
 10
130.9351
 20
48.5165
 30
0.0
  0
SPLINE
  5
5D
330
1F
100
AcDbEntity
  8
layer 1
 62
     7
100
AcDbSpline
210
0.0
220
0.0
230
1.0
 70
    11
 71
     3
 72
    16
 73
    12
 74
     0
 42
0.0000000001
 43
0.0000000001
 12
1.0
 22
0.0
 32
0.0
 13
1.0
 23
0.0
 33
0.0
 40
0.0
 40
0.0
 40
0.0
 40
0.0
 40
0.25
 40
0.25
 40
0.25
 40
0.25
 40
0.5
 40
0.5
 40
0.5
 40
0.5
 40
1.0
 40
1.0
 40
1.0
 40
1.0
 10
130.9351
 20
55.0404
 30
0.0
 10
130.9351
 20
55.0404
 30
0.0
 10
130.9351
 20
55.2669
 30
0.0
 10
130.9351
 20
55.2669
 30
0.0
 10
130.9351
 20
55.2669
 30
0.0
 10
131.0436
 20
55.1833
 30
0.0
 10
131.1546
 20
55.1014
 30
0.0
 10
131.2696
 20
55.0216
 30
0.0
 10
131.2696
 20
55.0216
 30
0.0
 10
131.2696
 20
55.0216
 30
0.0
 10
130.9351
 20
55.0404
 30
0.0
 10
130.9351
 20
55.0404
 30
0.0
  0
SPLINE
  5
5E
330
1F
100
AcDbEntity
  8
layer 1
 62
     7
100
AcDbSpline
210
0.0
220
0.0
230
1.0
 70
    11
 71
     3
 72
    92
 73
    88
 74
     0
 42
0.0000000001
 43
0.0000000001
 12
1.0
 22
0.0
 32
0.0
 13
1.0
 23
0.0
 33
0.0
 40
0.0
 40
0.0
 40
0.0
 40
0.0
 40
0.0434782608695652
 40
0.0434782608695652
 40
0.0434782608695652
 40
0.0434782608695652
 40
0.0869565217391304
 40
0.0869565217391304
 40
0.0869565217391304
 40
0.0869565217391304
 40
0.1304347826086956
 40
0.1304347826086956
 40
0.1304347826086956
 40
0.1304347826086956
 40
0.1739130434782609
 40
0.1739130434782609
 40
0.1739130434782609
 40
0.1739130434782609
 40
0.2173913043478261
 40
0.2173913043478261
 40
0.2173913043478261
 40
0.2173913043478261
 40
0.2608695652173913
 40
0.2608695652173913
 40
0.2608695652173913
 40
0.2608695652173913
 40
0.3043478260869565
 40
0.3043478260869565
 40
0.3043478260869565
 40
0.3043478260869565
 40
0.3478260869565217
 40
0.3478260869565217
 40
0.3478260869565217
 40
0.3478260869565217
 40
0.391304347826087
 40
0.391304347826087
 40
0.391304347826087
 40
0.391304347826087
 40
0.4347826086956522
 40
0.4347826086956522
 40
0.4347826086956522
 40
0.4347826086956522
 40
0.4782608695652174
 40
0.4782608695652174
 40
0.4782608695652174
 40
0.4782608695652174
 40
0.5217391304347826
 40
0.5217391304347826
 40
0.5217391304347826
 40
0.5217391304347826
 40
0.5652173913043478
 40
0.5652173913043478
 40
0.5652173913043478
 40
0.5652173913043478
 40
0.6086956521739131
 40
0.6086956521739131
 40
0.6086956521739131
 40
0.6086956521739131
 40
0.6521739130434783
 40
0.6521739130434783
 40
0.6521739130434783
 40
0.6521739130434783
 40
0.6956521739130435
 40
0.6956521739130435
 40
0.6956521739130435
 40
0.6956521739130435
 40
0.7391304347826086
 40
0.7391304347826086
 40
0.7391304347826086
 40
0.7391304347826086
 40
0.782608695652174
 40
0.782608695652174
 40
0.782608695652174
 40
0.782608695652174
 40
0.8260869565217391
 40
0.8260869565217391
 40
0.8260869565217391
 40
0.8260869565217391
 40
0.8695652173913043
 40
0.8695652173913043
 40
0.8695652173913043
 40
0.8695652173913043
 40
0.9130434782608695
 40
0.9130434782608695
 40
0.9130434782608695
 40
0.9130434782608695
 40
1.0
 40
1.0
 40
1.0
 40
1.0
 10
130.9351
 20
57.5122
 30
0.0
 10
130.9351
 20
57.5122
 30
0.0
 10
130.9351
 20
66.4332
 30
0.0
 10
130.9351
 20
66.4332
 30
0.0
 10
130.9351
 20
66.4332
 30
0.0
 10
131.2365
 20
66.9119
 30
0.0
 10
131.5642
 20
67.3678
 30
0.0
 10
131.904
 20
67.7895
 30
0.0
 10
131.904
 20
67.7895
 30
0.0
 10
132.4839
 20
68.3494
 30
0.0
 10
133.1976
 20
69.0607
 30
0.0
 10
133.9597
 20
69.872
 30
0.0
 10
133.9597
 20
69.872
 30
0.0
 10
140.3907
 20
75.1822
 30
0.0
 10
149.0842
 20
72.4035
 30
0.0
 10
154.1748
 20
66.8505
 30
0.0
 10
154.1748
 20
66.8505
 30
0.0
 10
161.1352
 20
59.2575
 30
0.0
 10
158.7838
 20
48.8806
 30
0.0
 10
153.7156
 20
37.957
 30
0.0
 10
153.7156
 20
37.957
 30
0.0
 10
145.8406
 20
42.0801
 30
0.0
 10
145.0261
 20
39.382
 30
0.0
 10
141.8188
 20
36.6381
 30
0.0
 10
141.8188
 20
36.6381
 30
0.0
 10
138.5849
 20
33.8711
 30
0.0
 10
137.9619
 20
28.6479
 30
0.0
 10
137.807
 20
28.2167
 30
0.0
 10
137.807
 20
28.2167
 30
0.0
 10
137.652
 20
27.785
 30
0.0
 10
136.3892
 20
29.2242
 30
0.0
 10
135.5343
 20
30.8813
 30
0.0
 10
135.5343
 20
30.8813
 30
0.0
 10
134.6793
 20
32.5384
 30
0.0
 10
134.8626
 20
34.7013
 30
0.0
 10
134.9672
 20
36.278
 30
0.0
 10
134.9672
 20
36.278
 30
0.0
 10
135.0719
 20
37.8548
 30
0.0
 10
135.3985
 20
39.1315
 30
0.0
 10
133.326
 20
41.9868
 30
0.0
 10
133.326
 20
41.9868
 30
0.0
 10
133.2856
 20
42.0423
 30
0.0
 10
133.2458
 20
42.0995
 30
0.0
 10
133.2064
 20
42.1573
 30
0.0
 10
133.2064
 20
42.1573
 30
0.0
 10
133.4366
 20
41.99
 30
0.0
 10
133.6945
 20
41.8211
 30
0.0
 10
133.9834
 20
41.6519
 30
0.0
 10
133.9834
 20
41.6519
 30
0.0
 10
137.7163
 20
39.4669
 30
0.0
 10
140.7464
 20
40.7269
 30
0.0
 10
140.5177
 20
46.3434
 30
0.0
 10
140.5177
 20
46.3434
 30
0.0
 10
140.2891
 20
51.9597
 30
0.0
 10
136.4229
 20
53.4931
 30
0.0
 10
136.4229
 20
53.4931
 30
0.0
 10
136.4229
 20
53.4931
 30
0.0
 10
136.4229
 20
53.4931
 30
0.0
 10
136.2468
 20
53.5028
 30
0.0
 10
140.2813
 20
54.8171
 30
0.0
 10
140.2813
 20
54.8171
 30
0.0
 10
144.3155
 20
56.1313
 30
0.0
 10
145.0456
 20
61.145
 30
0.0
 10
142.9922
 20
63.7863
 30
0.0
 10
142.9922
 20
63.7863
 30
0.0
 10
140.9389
 20
66.4273
 30
0.0
 10
137.7165
 20
67.4855
 30
0.0
 10
135.6931
 20
64.1916
 30
0.0
 10
135.6931
 20
64.1916
 30
0.0
 10
133.6698
 20
60.8978
 30
0.0
 10
134.7816
 20
59.9572
 30
0.0
 10
137.0225
 20
59.1733
 30
0.0
 10
137.0225
 20
59.1733
 30
0.0
 10
139.2636
 20
58.3896
 30
0.0
 10
140.9547
 20
60.713
 30
0.0
 10
141.3521
 20
61.3503
 30
0.0
 10
141.3521
 20
61.3503
 30
0.0
 10
141.7495
 20
61.9874
 30
0.0
 10
143.0426
 20
60.2675
 30
0.0
 10
142.3274
 20
58.4392
 30
0.0
 10
142.3274
 20
58.4392
 30
0.0
 10
141.6122
 20
56.611
 30
0.0
 10
137.2628
 20
55.4242
 30
0.0
 10
135.8699
 20
55.2818
 30
0.0
 10
135.8699
 20
55.2818
 30
0.0
 10
134.8101
 20
55.1735
 30
0.0
 10
132.6142
 20
55.3834
 30
0.0
 10
130.9351
 20
57.5122
 30
0.0
  0
SPLINE
  5
5F
330
1F
100
AcDbEntity
  8
layer 1
 62
     7
100
AcDbSpline
210
0.0
220
0.0
230
1.0
 70
    11
 71
     3
 72
    20
 73
    16
 74
     0
 42
0.0000000001
 43
0.0000000001
 12
1.0
 22
0.0
 32
0.0
 13
1.0
 23
0.0
 33
0.0
 40
0.0
 40
0.0
 40
0.0
 40
0.0
 40
0.2
 40
0.2
 40
0.2
 40
0.2
 40
0.4
 40
0.4
 40
0.4
 40
0.4
 40
0.6
 40
0.6
 40
0.6
 40
0.6
 40
1.0
 40
1.0
 40
1.0
 40
1.0
 10
130.9351
 20
68.4623
 30
0.0
 10
130.9351
 20
68.4623
 30
0.0
 10
130.9351
 20
75.9854
 30
0.0
 10
130.9351
 20
75.9854
 30
0.0
 10
130.9351
 20
75.9854
 30
0.0
 10
131.1831
 20
75.4013
 30
0.0
 10
131.4597
 20
74.8678
 30
0.0
 10
131.7626
 20
74.3966
 30
0.0
 10
131.7626
 20
74.3966
 30
0.0
 10
132.2513
 20
73.6361
 30
0.0
 10
131.8246
 20
70.9702
 30
0.0
 10
131.2996
 20
68.9044
 30
0.0
 10
131.2996
 20
68.9044
 30
0.0
 10
131.1769
 20
68.7605
 30
0.0
 10
131.0555
 20
68.6134
 30
0.0
 10
130.9351
 20
68.4623
 30
0.0
  0
SPLINE
  5
60
330
1F
100
AcDbEntity
  8
layer 1
 62
     7
100
AcDbSpline
210
0.0
220
0.0
230
1.0
 70
    11
 71
     3
 72
    24
 73
    20
 74
     0
 42
0.0000000001
 43
0.0000000001
 12
1.0
 22
0.0
 32
0.0
 13
1.0
 23
0.0
 33
0.0
 40
0.0
 40
0.0
 40
0.0
 40
0.0
 40
0.1666666666666667
 40
0.1666666666666667
 40
0.1666666666666667
 40
0.1666666666666667
 40
0.3333333333333333
 40
0.3333333333333333
 40
0.3333333333333333
 40
0.3333333333333333
 40
0.5
 40
0.5
 40
0.5
 40
0.5
 40
0.6666666666666666
 40
0.6666666666666666
 40
0.6666666666666666
 40
0.6666666666666666
 40
1.0
 40
1.0
 40
1.0
 40
1.0
 10
130.9351
 20
91.3356
 30
0.0
 10
130.9351
 20
91.3356
 30
0.0
 10
130.9351
 20
101.4574
 30
0.0
 10
130.9351
 20
101.4574
 30
0.0
 10
130.9351
 20
101.4574
 30
0.0
 10
133.8133
 20
105.4575
 30
0.0
 10
134.3406
 20
109.2319
 30
0.0
 10
135.0571
 20
113.7275
 30
0.0
 10
135.0571
 20
113.7275
 30
0.0
 10
135.0571
 20
113.7275
 30
0.0
 10
137.6493
 20
110.7247
 30
0.0
 10
138.2413
 20
108.1503
 30
0.0
 10
138.2413
 20
108.1503
 30
0.0
 10
138.8336
 20
105.5758
 30
0.0
 10
139.0872
 20
102.5451
 30
0.0
 10
139.0872
 20
102.5451
 30
0.0
 10
139.0872
 20
102.5451
 30
0.0
 10
134.9135
 20
99.4306
 30
0.0
 10
132.3324
 20
95.4195
 30
0.0
 10
130.9351
 20
91.3356
 30
0.0
  0
SPLINE
  5
61
330
1F
100
AcDbEntity
  8
layer 1
 62
     7
100
AcDbSpline
210
0.0
220
0.0
230
1.0
 70
    11
 71
     3
 72
    28
 73
    24
 74
     0
 42
0.0000000001
 43
0.0000000001
 12
1.0
 22
0.0
 32
0.0
 13
1.0
 23
0.0
 33
0.0
 40
0.0
 40
0.0
 40
0.0
 40
0.0
 40
0.1428571428571428
 40
0.1428571428571428
 40
0.1428571428571428
 40
0.1428571428571428
 40
0.2857142857142857
 40
0.2857142857142857
 40
0.2857142857142857
 40
0.2857142857142857
 40
0.4285714285714285
 40
0.4285714285714285
 40
0.4285714285714285
 40
0.4285714285714285
 40
0.5714285714285714
 40
0.5714285714285714
 40
0.5714285714285714
 40
0.5714285714285714
 40
0.7142857142857143
 40
0.7142857142857143
 40
0.7142857142857143
 40
0.7142857142857143
 40
1.0
 40
1.0
 40
1.0
 40
1.0
 10
141.7968
 20
1.9918
 30
0.0
 10
142.9427
 20
-8.6797
 30
0.0
 10
150.0271
 20
-16.4399
 30
0.0
 10
156.6317
 20
-21.7915
 30
0.0
 10
156.6317
 20
-21.7915
 30
0.0
 10
155.2001
 20
-21.3633
 30
0.0
 10
153.816
 20
-20.9691
 30
0.0
 10
152.4716
 20
-20.6102
 30
0.0
 10
152.4716
 20
-20.6102
 30
0.0
 10
152.4716
 20
-20.6102
 30
0.0
 10
153.4782
 20
-19.3675
 30
0.0
 10
153.4782
 20
-19.3675
 30
0.0
 10
153.4782
 20
-19.3675
 30
0.0
 10
148.0149
 20
-17.6021
 30
0.0
 10
143.7467
 20
-13.4712
 30
0.0
 10
141.7907
 20
-11.4288
 30
0.0
 10
141.7907
 20
-11.4288
 30
0.0
 10
139.0319
 20
-8.546
 30
0.0
 10
138.725
 20
-5.0471
 30
0.0
 10
138.7368
 20
-1.6169
 30
0.0
 10
138.7368
 20
-1.6169
 30
0.0
 10
138.7416
 20
-0.2768
 30
0.0
 10
140.0911
 20
0.8434
 30
0.0
 10
141.7968
 20
1.9918
 30
0.0
  0
SPLINE
  5
62
330
1F
100
AcDbEntity
  8
layer 1
 62
     7
100
AcDbSpline
210
0.0
220
0.0
230
1.0
 70
    11
 71
     3
 72
    16
 73
    12
 74
     0
 42
0.0000000001
 43
0.0000000001
 12
1.0
 22
0.0
 32
0.0
 13
1.0
 23
0.0
 33
0.0
 40
0.0
 40
0.0
 40
0.0
 40
0.0
 40
0.25
 40
0.25
 40
0.25
 40
0.25
 40
0.5
 40
0.5
 40
0.5
 40
0.5
 40
1.0
 40
1.0
 40
1.0
 40
1.0
 10
149.5109
 20
-19.8632
 30
0.0
 10
147.4009
 20
-19.365
 30
0.0
 10
145.3858
 20
-18.967
 30
0.0
 10
143.4348
 20
-18.6766
 30
0.0
 10
143.4348
 20
-18.6766
 30
0.0
 10
144.52
 20
-18.2308
 30
0.0
 10
145.567
 20
-17.9968
 30
0.0
 10
145.567
 20
-17.9968
 30
0.0
 10
145.567
 20
-17.9968
 30
0.0
 10
145.567
 20
-17.9968
 30
0.0
 10
146.8344
 20
-18.8147
 30
0.0
 10
149.5109
 20
-19.8632
 30
0.0
  0
SPLINE
  5
63
330
1F
100
AcDbEntity
  8
layer 1
 62
     7
100
AcDbSpline
210
0.0
220
0.0
230
1.0
 70
    11
 71
     3
 72
    64
 73
    60
 74
     0
 42
0.0000000001
 43
0.0000000001
 12
1.0
 22
0.0
 32
0.0
 13
1.0
 23
0.0
 33
0.0
 40
0.0
 40
0.0
 40
0.0
 40
0.0
 40
0.0625
 40
0.0625
 40
0.0625
 40
0.0625
 40
0.125
 40
0.125
 40
0.125
 40
0.125
 40
0.1875
 40
0.1875
 40
0.1875
 40
0.1875
 40
0.25
 40
0.25
 40
0.25
 40
0.25
 40
0.3125
 40
0.3125
 40
0.3125
 40
0.3125
 40
0.375
 40
0.375
 40
0.375
 40
0.375
 40
0.4375
 40
0.4375
 40
0.4375
 40
0.4375
 40
0.5
 40
0.5
 40
0.5
 40
0.5
 40
0.5625
 40
0.5625
 40
0.5625
 40
0.5625
 40
0.625
 40
0.625
 40
0.625
 40
0.625
 40
0.6875
 40
0.6875
 40
0.6875
 40
0.6875
 40
0.75
 40
0.75
 40
0.75
 40
0.75
 40
0.8125
 40
0.8125
 40
0.8125
 40
0.8125
 40
0.875
 40
0.875
 40
0.875
 40
0.875
 40
1.0
 40
1.0
 40
1.0
 40
1.0
 10
187.2505
 20
-49.7346
 30
0.0
 10
187.1902
 20
-49.6987
 30
0.0
 10
187.1293
 20
-49.6642
 30
0.0
 10
187.0677
 20
-49.6317
 30
0.0
 10
187.0677
 20
-49.6317
 30
0.0
 10
185.3107
 20
-48.7051
 30
0.0
 10
183.9165
 20
-50.2713
 30
0.0
 10
184.3971
 20
-51.5324
 30
0.0
 10
184.3971
 20
-51.5324
 30
0.0
 10
185.2074
 20
-53.6594
 30
0.0
 10
187.9111
 20
-52.3798
 30
0.0
 10
187.0306
 20
-51.0655
 30
0.0
 10
187.0306
 20
-51.0655
 30
0.0
 10
187.0306
 20
-51.0655
 30
0.0
 10
186.4009
 20
-50.6858
 30
0.0
 10
186.2502
 20
-51.2138
 30
0.0
 10
186.2502
 20
-51.2138
 30
0.0
 10
186.2031
 20
-51.3788
 30
0.0
 10
186.1126
 20
-51.492
 30
0.0
 10
186.011
 20
-51.5687
 30
0.0
 10
186.011
 20
-51.5687
 30
0.0
 10
185.7391
 20
-51.7729
 30
0.0
 10
185.1609
 20
-51.6571
 30
0.0
 10
185.1554
 20
-51.2159
 30
0.0
 10
185.1554
 20
-51.2159
 30
0.0
 10
185.1255
 20
-48.8788
 30
0.0
 10
188.655
 20
-50.4223
 30
0.0
 10
189.1733
 20
-52.8742
 30
0.0
 10
189.1733
 20
-52.8742
 30
0.0
 10
189.2983
 20
-53.4654
 30
0.0
 10
189.5185
 20
-54.1833
 30
0.0
 10
189.7353
 20
-54.9561
 30
0.0
 10
189.7353
 20
-54.9561
 30
0.0
 10
190.1832
 20
-56.5516
 30
0.0
 10
190.9355
 20
-58.0688
 30
0.0
 10
190.9355
 20
-58.0688
 30
0.0
 10
190.9355
 20
-58.0688
 30
0.0
 10
190.9355
 20
-58.0688
 30
0.0
 10
189.3145
 20
-57.3814
 30
0.0
 10
188.3477
 20
-56.4056
 30
0.0
 10
188.3477
 20
-56.4056
 30
0.0
 10
187.3811
 20
-55.4298
 30
0.0
 10
184.7314
 20
-54.2187
 30
0.0
 10
183.0984
 20
-54.0098
 30
0.0
 10
183.0984
 20
-54.0098
 30
0.0
 10
182.4145
 20
-53.9223
 30
0.0
 10
181.296
 20
-54.0794
 30
0.0
 10
180.2271
 20
-54.2918
 30
0.0
 10
180.2271
 20
-54.2918
 30
0.0
 10
180.3003
 20
-50.8352
 30
0.0
 10
178.7812
 20
-47.0776
 30
0.0
 10
179.1987
 20
-43.7833
 30
0.0
 10
179.1987
 20
-43.7833
 30
0.0
 10
179.645
 20
-40.2591
 30
0.0
 10
182.7936
 20
-40.06
 30
0.0
 10
182.7936
 20
-40.06
 30
0.0
 10
182.7936
 20
-40.06
 30
0.0
 10
182.7936
 20
-40.06
 30
0.0
 10
184.6992
 20
-46.1898
 30
0.0
 10
187.2505
 20
-49.7346
 30
0.0
  0
SPLINE
  5
64
330
1F
100
AcDbEntity
  8
layer 1
 62
     7
100
AcDbSpline
210
0.0
220
0.0
230
1.0
 70
    11
 71
     3
 72
    28
 73
    24
 74
     0
 42
0.0000000001
 43
0.0000000001
 12
1.0
 22
0.0
 32
0.0
 13
1.0
 23
0.0
 33
0.0
 40
0.0
 40
0.0
 40
0.0
 40
0.0
 40
0.1428571428571428
 40
0.1428571428571428
 40
0.1428571428571428
 40
0.1428571428571428
 40
0.2857142857142857
 40
0.2857142857142857
 40
0.2857142857142857
 40
0.2857142857142857
 40
0.4285714285714285
 40
0.4285714285714285
 40
0.4285714285714285
 40
0.4285714285714285
 40
0.5714285714285714
 40
0.5714285714285714
 40
0.5714285714285714
 40
0.5714285714285714
 40
0.7142857142857143
 40
0.7142857142857143
 40
0.7142857142857143
 40
0.7142857142857143
 40
1.0
 40
1.0
 40
1.0
 40
1.0
 10
167.8271
 20
-44.8052
 30
0.0
 10
167.4306
 20
-44.2666
 30
0.0
 10
166.9693
 20
-43.7186
 30
0.0
 10
166.4349
 20
-43.1624
 30
0.0
 10
166.4349
 20
-43.1624
 30
0.0
 10
164.6559
 20
-41.3119
 30
0.0
 10
162.6867
 20
-40.3439
 30
0.0
 10
160.698
 20
-39.9712
 30
0.0
 10
160.698
 20
-39.9712
 30
0.0
 10
161.3394
 20
-39.9494
 30
0.0
 10
161.9817
 20
-39.9138
 30
0.0
 10
162.6221
 20
-39.8623
 30
0.0
 10
162.6221
 20
-39.8623
 30
0.0
 10
171.7312
 20
-39.1303
 30
0.0
 10
180.4318
 20
-36.0652
 30
0.0
 10
180.6405
 20
-36.187
 30
0.0
 10
180.6405
 20
-36.187
 30
0.0
 10
180.6405
 20
-36.187
 30
0.0
 10
181.4412
 20
-36.6545
 30
0.0
 10
181.4412
 20
-36.6545
 30
0.0
 10
181.4412
 20
-36.6545
 30
0.0
 10
179.033
 20
-41.5392
 30
0.0
 10
173.4755
 20
-44.2601
 30
0.0
 10
167.8271
 20
-44.8052
 30
0.0
  0
SPLINE
  5
65
330
1F
100
AcDbEntity
  8
layer 1
 62
     7
100
AcDbSpline
210
0.0
220
0.0
230
1.0
 70
    11
 71
     3
 72
    32
 73
    28
 74
     0
 42
0.0000000001
 43
0.0000000001
 12
1.0
 22
0.0
 32
0.0
 13
1.0
 23
0.0
 33
0.0
 40
0.0
 40
0.0
 40
0.0
 40
0.0
 40
0.125
 40
0.125
 40
0.125
 40
0.125
 40
0.25
 40
0.25
 40
0.25
 40
0.25
 40
0.375
 40
0.375
 40
0.375
 40
0.375
 40
0.5
 40
0.5
 40
0.5
 40
0.5
 40
0.625
 40
0.625
 40
0.625
 40
0.625
 40
0.75
 40
0.75
 40
0.75
 40
0.75
 40
1.0
 40
1.0
 40
1.0
 40
1.0
 10
174.6672
 20
-69.5457
 30
0.0
 10
175.6822
 20
-69.7978
 30
0.0
 10
176.7309
 20
-70.3431
 30
0.0
 10
177.1968
 20
-71.4902
 30
0.0
 10
177.1968
 20
-71.4902
 30
0.0
 10
178.2357
 20
-74.0481
 30
0.0
 10
176.44
 20
-75.0484
 30
0.0
 10
175.7331
 20
-76.2459
 30
0.0
 10
175.7331
 20
-76.2459
 30
0.0
 10
175.0259
 20
-77.4435
 30
0.0
 10
173.6116
 20
-77.8787
 30
0.0
 10
170.142
 20
-81.9472
 30
0.0
 10
170.142
 20
-81.9472
 30
0.0
 10
166.6726
 20
-86.0157
 30
0.0
 10
166.5639
 20
-91.7591
 30
0.0
 10
166.2153
 20
-91.3311
 30
0.0
 10
166.2153
 20
-91.3311
 30
0.0
 10
166.0406
 20
-91.1164
 30
0.0
 10
165.5097
 20
-89.7153
 30
0.0
 10
164.4061
 20
-87.6688
 30
0.0
 10
164.4061
 20
-87.6688
 30
0.0
 10
163.9926
 20
-84.486
 30
0.0
 10
164.4078
 20
-81.4869
 30
0.0
 10
164.6953
 20
-79.8255
 30
0.0
 10
164.6953
 20
-79.8255
 30
0.0
 10
165.1871
 20
-76.9856
 30
0.0
 10
170.6725
 20
-70.2379
 30
0.0
 10
174.6672
 20
-69.5457
 30
0.0
  0
SPLINE
  5
66
330
1F
100
AcDbEntity
  8
layer 1
 62
     7
100
AcDbSpline
210
0.0
220
0.0
230
1.0
 70
    11
 71
     3
 72
    76
 73
    72
 74
     0
 42
0.0000000001
 43
0.0000000001
 12
1.0
 22
0.0
 32
0.0
 13
1.0
 23
0.0
 33
0.0
 40
0.0
 40
0.0
 40
0.0
 40
0.0
 40
0.0526315789473684
 40
0.0526315789473684
 40
0.0526315789473684
 40
0.0526315789473684
 40
0.1052631578947368
 40
0.1052631578947368
 40
0.1052631578947368
 40
0.1052631578947368
 40
0.1578947368421053
 40
0.1578947368421053
 40
0.1578947368421053
 40
0.1578947368421053
 40
0.2105263157894737
 40
0.2105263157894737
 40
0.2105263157894737
 40
0.2105263157894737
 40
0.2631578947368421
 40
0.2631578947368421
 40
0.2631578947368421
 40
0.2631578947368421
 40
0.3157894736842105
 40
0.3157894736842105
 40
0.3157894736842105
 40
0.3157894736842105
 40
0.3684210526315789
 40
0.3684210526315789
 40
0.3684210526315789
 40
0.3684210526315789
 40
0.4210526315789473
 40
0.4210526315789473
 40
0.4210526315789473
 40
0.4210526315789473
 40
0.4736842105263158
 40
0.4736842105263158
 40
0.4736842105263158
 40
0.4736842105263158
 40
0.5263157894736842
 40
0.5263157894736842
 40
0.5263157894736842
 40
0.5263157894736842
 40
0.5789473684210527
 40
0.5789473684210527
 40
0.5789473684210527
 40
0.5789473684210527
 40
0.631578947368421
 40
0.631578947368421
 40
0.631578947368421
 40
0.631578947368421
 40
0.6842105263157895
 40
0.6842105263157895
 40
0.6842105263157895
 40
0.6842105263157895
 40
0.7368421052631579
 40
0.7368421052631579
 40
0.7368421052631579
 40
0.7368421052631579
 40
0.7894736842105263
 40
0.7894736842105263
 40
0.7894736842105263
 40
0.7894736842105263
 40
0.8421052631578947
 40
0.8421052631578947
 40
0.8421052631578947
 40
0.8421052631578947
 40
0.8947368421052632
 40
0.8947368421052632
 40
0.8947368421052632
 40
0.8947368421052632
 40
1.0
 40
1.0
 40
1.0
 40
1.0
 10
161.3136
 20
-82.7971
 30
0.0
 10
160.6866
 20
-81.9497
 30
0.0
 10
159.9878
 20
-81.0745
 30
0.0
 10
159.2093
 20
-80.1881
 30
0.0
 10
159.2093
 20
-80.1881
 30
0.0
 10
149.7076
 20
-69.3696
 30
0.0
 10
140.7186
 20
-58.0719
 30
0.0
 10
146.5573
 20
-48.1359
 30
0.0
 10
146.5573
 20
-48.1359
 30
0.0
 10
150.0026
 20
-42.2729
 30
0.0
 10
157.2912
 20
-38.9326
 30
0.0
 10
164.2132
 20
-43.4148
 30
0.0
 10
164.2132
 20
-43.4148
 30
0.0
 10
169.5626
 20
-46.8786
 30
0.0
 10
168.1902
 20
-51.7561
 30
0.0
 10
165.0273
 20
-53.8498
 30
0.0
 10
165.0273
 20
-53.8498
 30
0.0
 10
165.0273
 20
-53.8498
 30
0.0
 10
165.0382
 20
-53.8102
 30
0.0
 10
165.0382
 20
-53.8102
 30
0.0
 10
165.0382
 20
-53.8102
 30
0.0
 10
165.0382
 20
-53.8102
 30
0.0
 10
164.9619
 20
-53.8925
 30
0.0
 10
164.9619
 20
-53.8925
 30
0.0
 10
164.9619
 20
-53.8925
 30
0.0
 10
162.853
 20
-55.2523
 30
0.0
 10
159.9762
 20
-55.3818
 30
0.0
 10
157.7561
 20
-53.0621
 30
0.0
 10
157.7561
 20
-53.0621
 30
0.0
 10
156.5783
 20
-51.8313
 30
0.0
 10
157.5885
 20
-50.0676
 30
0.0
 10
158.0282
 20
-50.5229
 30
0.0
 10
158.0282
 20
-50.5229
 30
0.0
 10
158.4677
 20
-50.9785
 30
0.0
 10
160.2689
 20
-52.5989
 30
0.0
 10
161.9587
 20
-51.5904
 30
0.0
 10
161.9587
 20
-51.5904
 30
0.0
 10
163.6486
 20
-50.5815
 30
0.0
 10
164.3877
 20
-49.63
 30
0.0
 10
162.1399
 20
-47.2709
 30
0.0
 10
162.1399
 20
-47.2709
 30
0.0
 10
159.8924
 20
-44.9118
 30
0.0
 10
157.4498
 20
-46.306
 30
0.0
 10
156.2483
 20
-48.8019
 30
0.0
 10
156.2483
 20
-48.8019
 30
0.0
 10
155.0469
 20
-51.2978
 30
0.0
 10
156.4124
 20
-54.3918
 30
0.0
 10
160.0816
 20
-55.6858
 30
0.0
 10
160.0816
 20
-55.6858
 30
0.0
 10
161.0457
 20
-56.0258
 30
0.0
 10
162.041
 20
-56.1664
 30
0.0
 10
163.0105
 20
-56.1349
 30
0.0
 10
163.0105
 20
-56.1349
 30
0.0
 10
161.7301
 20
-57.6839
 30
0.0
 10
160.2431
 20
-59.66
 30
0.0
 10
159.8334
 20
-60.9254
 30
0.0
 10
159.8334
 20
-60.9254
 30
0.0
 10
159.0752
 20
-63.2669
 30
0.0
 10
159.1376
 20
-67.637
 30
0.0
 10
159.9513
 20
-69.5803
 30
0.0
 10
159.9513
 20
-69.5803
 30
0.0
 10
160.7654
 20
-71.5235
 30
0.0
 10
160.7241
 20
-74.1615
 30
0.0
 10
160.7241
 20
-74.1615
 30
0.0
 10
160.7241
 20
-74.1615
 30
0.0
 10
160.7241
 20
-74.1615
 30
0.0
 10
161.8093
 20
-83.1294
 30
0.0
 10
161.8093
 20
-83.1294
 30
0.0
 10
161.8093
 20
-83.1294
 30
0.0
 10
161.8093
 20
-83.1294
 30
0.0
 10
161.6333
 20
-82.9978
 30
0.0
 10
161.3136
 20
-82.7971
 30
0.0
  0
SPLINE
  5
67
330
1F
100
AcDbEntity
  8
layer 1
 62
     7
100
AcDbSpline
210
0.0
220
0.0
230
1.0
 70
    11
 71
     3
 72
    24
 73
    20
 74
     0
 42
0.0000000001
 43
0.0000000001
 12
1.0
 22
0.0
 32
0.0
 13
1.0
 23
0.0
 33
0.0
 40
0.0
 40
0.0
 40
0.0
 40
0.0
 40
0.1666666666666667
 40
0.1666666666666667
 40
0.1666666666666667
 40
0.1666666666666667
 40
0.3333333333333333
 40
0.3333333333333333
 40
0.3333333333333333
 40
0.3333333333333333
 40
0.5
 40
0.5
 40
0.5
 40
0.5
 40
0.6666666666666666
 40
0.6666666666666666
 40
0.6666666666666666
 40
0.6666666666666666
 40
1.0
 40
1.0
 40
1.0
 40
1.0
 10
153.4929
 20
37.4788
 30
0.0
 10
151.7564
 20
33.7869
 30
0.0
 10
149.721
 20
30.0366
 30
0.0
 10
147.6406
 20
26.3137
 30
0.0
 10
147.6406
 20
26.3137
 30
0.0
 10
145.7512
 20
22.9327
 30
0.0
 10
144.551
 20
19.7923
 30
0.0
 10
143.7736
 20
17.2861
 30
0.0
 10
143.7736
 20
17.2861
 30
0.0
 10
141.4836
 20
20.5381
 30
0.0
 10
140.5093
 20
24.3303
 30
0.0
 10
140.0821
 20
26.2922
 30
0.0
 10
140.0821
 20
26.2922
 30
0.0
 10
139.3854
 20
29.4921
 30
0.0
 10
140.7299
 20
32.1357
 30
0.0
 10
142.2734
 20
34.5997
 30
0.0
 10
142.2734
 20
34.5997
 30
0.0
 10
143.7449
 20
36.9492
 30
0.0
 10
150.3954
 20
35.0904
 30
0.0
 10
153.4929
 20
37.4788
 30
0.0
  0
SPLINE
  5
68
330
1F
100
AcDbEntity
  8
layer 1
 62
     7
100
AcDbSpline
210
0.0
220
0.0
230
1.0
 70
    11
 71
     3
 72
    20
 73
    16
 74
     0
 42
0.0000000001
 43
0.0000000001
 12
1.0
 22
0.0
 32
0.0
 13
1.0
 23
0.0
 33
0.0
 40
0.0
 40
0.0
 40
0.0
 40
0.0
 40
0.2
 40
0.2
 40
0.2
 40
0.2
 40
0.4
 40
0.4
 40
0.4
 40
0.4
 40
0.6
 40
0.6
 40
0.6
 40
0.6
 40
1.0
 40
1.0
 40
1.0
 40
1.0
 10
143.2406
 20
15.4372
 30
0.0
 10
142.6641
 20
13.2769
 30
0.0
 10
142.4458
 20
11.8655
 30
0.0
 10
142.3138
 20
11.6066
 30
0.0
 10
142.3138
 20
11.6066
 30
0.0
 10
142.0451
 20
11.0801
 30
0.0
 10
140.7051
 20
16.4871
 30
0.0
 10
136.6861
 20
20.4497
 30
0.0
 10
136.6861
 20
20.4497
 30
0.0
 10
138.0526
 20
20.5695
 30
0.0
 10
139.8617
 20
20.0254
 30
0.0
 10
139.8617
 20
20.0254
 30
0.0
 10
139.8617
 20
20.0254
 30
0.0
 10
139.8617
 20
20.0254
 30
0.0
 10
140.7395
 20
18.2481
 30
0.0
 10
143.2406
 20
15.4372
 30
0.0
  0
SPLINE
  5
69
330
1F
100
AcDbEntity
  8
layer 1
 62
     7
100
AcDbSpline
210
0.0
220
0.0
230
1.0
 70
    11
 71
     3
 72
    24
 73
    20
 74
     0
 42
0.0000000001
 43
0.0000000001
 12
1.0
 22
0.0
 32
0.0
 13
1.0
 23
0.0
 33
0.0
 40
0.0
 40
0.0
 40
0.0
 40
0.0
 40
0.1666666666666667
 40
0.1666666666666667
 40
0.1666666666666667
 40
0.1666666666666667
 40
0.3333333333333333
 40
0.3333333333333333
 40
0.3333333333333333
 40
0.3333333333333333
 40
0.5
 40
0.5
 40
0.5
 40
0.5
 40
0.6666666666666666
 40
0.6666666666666666
 40
0.6666666666666666
 40
0.6666666666666666
 40
1.0
 40
1.0
 40
1.0
 40
1.0
 10
138.4956
 20
75.6343
 30
0.0
 10
140.2772
 20
76.9775
 30
0.0
 10
142.2235
 20
78.2919
 30
0.0
 10
143.8726
 20
79.4912
 30
0.0
 10
143.8726
 20
79.4912
 30
0.0
 10
146.7689
 20
81.5975
 30
0.0
 10
148.5317
 20
83.2443
 30
0.0
 10
148.7773
 20
84.9684
 30
0.0
 10
148.7773
 20
84.9684
 30
0.0
 10
149.3927
 20
89.2918
 30
0.0
 10
146.3702
 20
92.7478
 30
0.0
 10
142.6371
 20
93.9409
 30
0.0
 10
142.6371
 20
93.9409
 30
0.0
 10
143.063
 20
87.8889
 30
0.0
 10
142.0599
 20
82.6055
 30
0.0
 10
139.1048
 20
76.7329
 30
0.0
 10
139.1048
 20
76.7329
 30
0.0
 10
138.9217
 20
76.3694
 30
0.0
 10
138.7171
 20
76.0024
 30
0.0
 10
138.4956
 20
75.6343
 30
0.0
  0
SPLINE
  5
6A
330
1F
100
AcDbEntity
  8
layer 1
 62
     7
100
AcDbSpline
210
0.0
220
0.0
230
1.0
 70
    11
 71
     3
 72
    28
 73
    24
 74
     0
 42
0.0000000001
 43
0.0000000001
 12
1.0
 22
0.0
 32
0.0
 13
1.0
 23
0.0
 33
0.0
 40
0.0
 40
0.0
 40
0.0
 40
0.0
 40
0.1428571428571428
 40
0.1428571428571428
 40
0.1428571428571428
 40
0.1428571428571428
 40
0.2857142857142857
 40
0.2857142857142857
 40
0.2857142857142857
 40
0.2857142857142857
 40
0.4285714285714285
 40
0.4285714285714285
 40
0.4285714285714285
 40
0.4285714285714285
 40
0.5714285714285714
 40
0.5714285714285714
 40
0.5714285714285714
 40
0.5714285714285714
 40
0.7142857142857143
 40
0.7142857142857143
 40
0.7142857142857143
 40
0.7142857142857143
 40
1.0
 40
1.0
 40
1.0
 40
1.0
 10
142.5464
 20
95.0231
 30
0.0
 10
143.0506
 20
94.9953
 30
0.0
 10
144.8881
 20
94.8499
 30
0.0
 10
145.6873
 20
94.1772
 30
0.0
 10
145.6873
 20
94.1772
 30
0.0
 10
146.618
 20
93.3935
 30
0.0
 10
147.9433
 20
92.1011
 30
0.0
 10
147.9433
 20
92.1011
 30
0.0
 10
147.9433
 20
92.1011
 30
0.0
 10
147.9433
 20
92.1011
 30
0.0
 10
148.0939
 20
95.8963
 30
0.0
 10
147.3684
 20
97.2127
 30
0.0
 10
147.3684
 20
97.2127
 30
0.0
 10
147.1118
 20
97.6786
 30
0.0
 10
146.9744
 20
98.447
 30
0.0
 10
146.9358
 20
99.3089
 30
0.0
 10
146.9358
 20
99.3089
 30
0.0
 10
144.374
 20
101.4147
 30
0.0
 10
142.2158
 20
103.7866
 30
0.0
 10
140.4098
 20
106.0748
 30
0.0
 10
140.4098
 20
106.0748
 30
0.0
 10
141.4826
 20
101.99
 30
0.0
 10
142.2229
 20
98.38
 30
0.0
 10
142.5464
 20
95.0231
 30
0.0
  0
SPLINE
  5
6B
330
1F
100
AcDbEntity
  8
layer 1
 62
     7
100
AcDbSpline
210
0.0
220
0.0
230
1.0
 70
    11
 71
     3
 72
    24
 73
    20
 74
     0
 42
0.0000000001
 43
0.0000000001
 12
1.0
 22
0.0
 32
0.0
 13
1.0
 23
0.0
 33
0.0
 40
0.0
 40
0.0
 40
0.0
 40
0.0
 40
0.1666666666666667
 40
0.1666666666666667
 40
0.1666666666666667
 40
0.1666666666666667
 40
0.3333333333333333
 40
0.3333333333333333
 40
0.3333333333333333
 40
0.3333333333333333
 40
0.5
 40
0.5
 40
0.5
 40
0.5
 40
0.6666666666666666
 40
0.6666666666666666
 40
0.6666666666666666
 40
0.6666666666666666
 40
1.0
 40
1.0
 40
1.0
 40
1.0
 10
151.2428
 20
96.3031
 30
0.0
 10
150.6648
 20
94.7545
 30
0.0
 10
149.6745
 20
93.2334
 30
0.0
 10
149.4646
 20
91.7085
 30
0.0
 10
149.4646
 20
91.7085
 30
0.0
 10
149.1985
 20
89.7749
 30
0.0
 10
150.8456
 20
89.2588
 30
0.0
 10
150.8456
 20
89.2588
 30
0.0
 10
150.8456
 20
89.2588
 30
0.0
 10
150.8456
 20
89.2588
 30
0.0
 10
152.5433
 20
92.5616
 30
0.0
 10
154.9772
 20
93.8437
 30
0.0
 10
154.9772
 20
93.8437
 30
0.0
 10
155.269
 20
93.9975
 30
0.0
 10
155.5535
 20
94.1014
 30
0.0
 10
155.8273
 20
94.1625
 30
0.0
 10
155.8273
 20
94.1625
 30
0.0
 10
154.1974
 20
94.7489
 30
0.0
 10
152.6709
 20
95.4746
 30
0.0
 10
151.2428
 20
96.3031
 30
0.0
  0
SPLINE
  5
6C
330
1F
100
AcDbEntity
  8
layer 1
 62
     7
100
AcDbSpline
210
0.0
220
0.0
230
1.0
 70
    11
 71
     3
 72
   208
 73
   204
 74
     0
 42
0.0000000001
 43
0.0000000001
 12
1.0
 22
0.0
 32
0.0
 13
1.0
 23
0.0
 33
0.0
 40
0.0
 40
0.0
 40
0.0
 40
0.0
 40
0.0192307692307692
 40
0.0192307692307692
 40
0.0192307692307692
 40
0.0192307692307692
 40
0.0384615384615385
 40
0.0384615384615385
 40
0.0384615384615385
 40
0.0384615384615385
 40
0.0576923076923077
 40
0.0576923076923077
 40
0.0576923076923077
 40
0.0576923076923077
 40
0.0769230769230769
 40
0.0769230769230769
 40
0.0769230769230769
 40
0.0769230769230769
 40
0.0961538461538462
 40
0.0961538461538462
 40
0.0961538461538462
 40
0.0961538461538462
 40
0.1153846153846154
 40
0.1153846153846154
 40
0.1153846153846154
 40
0.1153846153846154
 40
0.1346153846153846
 40
0.1346153846153846
 40
0.1346153846153846
 40
0.1346153846153846
 40
0.1538461538461539
 40
0.1538461538461539
 40
0.1538461538461539
 40
0.1538461538461539
 40
0.1730769230769231
 40
0.1730769230769231
 40
0.1730769230769231
 40
0.1730769230769231
 40
0.1923076923076923
 40
0.1923076923076923
 40
0.1923076923076923
 40
0.1923076923076923
 40
0.2115384615384615
 40
0.2115384615384615
 40
0.2115384615384615
 40
0.2115384615384615
 40
0.2307692307692308
 40
0.2307692307692308
 40
0.2307692307692308
 40
0.2307692307692308
 40
0.25
 40
0.25
 40
0.25
 40
0.25
 40
0.2692307692307692
 40
0.2692307692307692
 40
0.2692307692307692
 40
0.2692307692307692
 40
0.2884615384615384
 40
0.2884615384615384
 40
0.2884615384615384
 40
0.2884615384615384
 40
0.3076923076923077
 40
0.3076923076923077
 40
0.3076923076923077
 40
0.3076923076923077
 40
0.3269230769230769
 40
0.3269230769230769
 40
0.3269230769230769
 40
0.3269230769230769
 40
0.3461538461538461
 40
0.3461538461538461
 40
0.3461538461538461
 40
0.3461538461538461
 40
0.3653846153846154
 40
0.3653846153846154
 40
0.3653846153846154
 40
0.3653846153846154
 40
0.3846153846153846
 40
0.3846153846153846
 40
0.3846153846153846
 40
0.3846153846153846
 40
0.4038461538461539
 40
0.4038461538461539
 40
0.4038461538461539
 40
0.4038461538461539
 40
0.4230769230769231
 40
0.4230769230769231
 40
0.4230769230769231
 40
0.4230769230769231
 40
0.4423076923076923
 40
0.4423076923076923
 40
0.4423076923076923
 40
0.4423076923076923
 40
0.4615384615384616
 40
0.4615384615384616
 40
0.4615384615384616
 40
0.4615384615384616
 40
0.4807692307692308
 40
0.4807692307692308
 40
0.4807692307692308
 40
0.4807692307692308
 40
0.5
 40
0.5
 40
0.5
 40
0.5
 40
0.5192307692307693
 40
0.5192307692307693
 40
0.5192307692307693
 40
0.5192307692307693
 40
0.5384615384615384
 40
0.5384615384615384
 40
0.5384615384615384
 40
0.5384615384615384
 40
0.5576923076923077
 40
0.5576923076923077
 40
0.5576923076923077
 40
0.5576923076923077
 40
0.5769230769230769
 40
0.5769230769230769
 40
0.5769230769230769
 40
0.5769230769230769
 40
0.5961538461538461
 40
0.5961538461538461
 40
0.5961538461538461
 40
0.5961538461538461
 40
0.6153846153846154
 40
0.6153846153846154
 40
0.6153846153846154
 40
0.6153846153846154
 40
0.6346153846153846
 40
0.6346153846153846
 40
0.6346153846153846
 40
0.6346153846153846
 40
0.6538461538461539
 40
0.6538461538461539
 40
0.6538461538461539
 40
0.6538461538461539
 40
0.6730769230769231
 40
0.6730769230769231
 40
0.6730769230769231
 40
0.6730769230769231
 40
0.6923076923076923
 40
0.6923076923076923
 40
0.6923076923076923
 40
0.6923076923076923
 40
0.7115384615384616
 40
0.7115384615384616
 40
0.7115384615384616
 40
0.7115384615384616
 40
0.7307692307692307
 40
0.7307692307692307
 40
0.7307692307692307
 40
0.7307692307692307
 40
0.75
 40
0.75
 40
0.75
 40
0.75
 40
0.7692307692307693
 40
0.7692307692307693
 40
0.7692307692307693
 40
0.7692307692307693
 40
0.7884615384615384
 40
0.7884615384615384
 40
0.7884615384615384
 40
0.7884615384615384
 40
0.8076923076923077
 40
0.8076923076923077
 40
0.8076923076923077
 40
0.8076923076923077
 40
0.8269230769230769
 40
0.8269230769230769
 40
0.8269230769230769
 40
0.8269230769230769
 40
0.8461538461538461
 40
0.8461538461538461
 40
0.8461538461538461
 40
0.8461538461538461
 40
0.8653846153846154
 40
0.8653846153846154
 40
0.8653846153846154
 40
0.8653846153846154
 40
0.8846153846153846
 40
0.8846153846153846
 40
0.8846153846153846
 40
0.8846153846153846
 40
0.9038461538461539
 40
0.9038461538461539
 40
0.9038461538461539
 40
0.9038461538461539
 40
0.9230769230769231
 40
0.9230769230769231
 40
0.9230769230769231
 40
0.9230769230769231
 40
0.9423076923076923
 40
0.9423076923076923
 40
0.9423076923076923
 40
0.9423076923076923
 40
0.9615384615384616
 40
0.9615384615384616
 40
0.9615384615384616
 40
0.9615384615384616
 40
1.0
 40
1.0
 40
1.0
 40
1.0
 10
158.2308
 20
93.4237
 30
0.0
 10
158.7599
 20
92.8218
 30
0.0
 10
158.9667
 20
91.9752
 30
0.0
 10
158.6747
 20
91.2097
 30
0.0
 10
158.6747
 20
91.2097
 30
0.0
 10
157.5508
 20
88.2641
 30
0.0
 10
153.8072
 20
90.0387
 30
0.0
 10
155.0279
 20
91.8581
 30
0.0
 10
155.0279
 20
91.8581
 30
0.0
 10
155.0279
 20
91.8581
 30
0.0
 10
155.8998
 20
92.3842
 30
0.0
 10
156.1082
 20
91.6522
 30
0.0
 10
156.1082
 20
91.6522
 30
0.0
 10
156.1736
 20
91.4234
 30
0.0
 10
156.2984
 20
91.2669
 30
0.0
 10
156.4396
 20
91.1607
 30
0.0
 10
156.4396
 20
91.1607
 30
0.0
 10
156.8156
 20
90.8771
 30
0.0
 10
157.6167
 20
91.0369
 30
0.0
 10
157.6249
 20
91.6484
 30
0.0
 10
157.6249
 20
91.6484
 30
0.0
 10
157.6676
 20
94.8857
 30
0.0
 10
152.7785
 20
92.7504
 30
0.0
 10
152.0589
 20
89.3545
 30
0.0
 10
152.0589
 20
89.3545
 30
0.0
 10
151.8853
 20
88.5356
 30
0.0
 10
151.5796
 20
87.542
 30
0.0
 10
151.2788
 20
86.4719
 30
0.0
 10
151.2788
 20
86.4719
 30
0.0
 10
150.6577
 20
84.2618
 30
0.0
 10
149.6146
 20
82.1614
 30
0.0
 10
149.6146
 20
82.1614
 30
0.0
 10
149.6146
 20
82.1614
 30
0.0
 10
149.6146
 20
82.1614
 30
0.0
 10
151.8601
 20
83.1125
 30
0.0
 10
153.1994
 20
84.4631
 30
0.0
 10
153.1994
 20
84.4631
 30
0.0
 10
154.5391
 20
85.8139
 30
0.0
 10
158.2098
 20
87.4896
 30
0.0
 10
160.4715
 20
87.7779
 30
0.0
 10
160.4715
 20
87.7779
 30
0.0
 10
162.7332
 20
88.0663
 30
0.0
 10
168.425
 20
86.4195
 30
0.0
 10
168.425
 20
86.4195
 30
0.0
 10
168.425
 20
86.4195
 30
0.0
 10
168.425
 20
86.4195
 30
0.0
 10
163.0411
 20
85.5189
 30
0.0
 10
160.5054
 20
83.6025
 30
0.0
 10
160.5054
 20
83.6025
 30
0.0
 10
157.97
 20
81.6859
 30
0.0
 10
156.765
 20
81.8903
 30
0.0
 10
155.2943
 20
81.8893
 30
0.0
 10
155.2943
 20
81.8893
 30
0.0
 10
153.8231
 20
81.8886
 30
0.0
 10
151.8032
 20
81.9211
 30
0.0
 10
150.312
 20
81.1035
 30
0.0
 10
150.312
 20
81.1035
 30
0.0
 10
148.8208
 20
80.2854
 30
0.0
 10
147.5549
 20
79.1349
 30
0.0
 10
147.9648
 20
79.0284
 30
0.0
 10
147.9648
 20
79.0284
 30
0.0
 10
148.3744
 20
78.9216
 30
0.0
 10
153.2629
 20
78.6903
 30
0.0
 10
156.0171
 20
76.1092
 30
0.0
 10
156.0171
 20
76.1092
 30
0.0
 10
158.7715
 20
73.528
 30
0.0
 10
161.3455
 20
73.0052
 30
0.0
 10
157.8315
 20
65.938
 30
0.0
 10
157.8315
 20
65.938
 30
0.0
 10
154.9269
 20
68.1984
 30
0.0
 10
156.524
 20
74.4427
 30
0.0
 10
154.149
 20
75.6089
 30
0.0
 10
154.149
 20
75.6089
 30
0.0
 10
151.7719
 20
76.7758
 30
0.0
 10
149.2394
 20
77.764
 30
0.0
 10
146.3059
 20
76.9932
 30
0.0
 10
146.3059
 20
76.9932
 30
0.0
 10
144.5451
 20
76.5303
 30
0.0
 10
140.7458
 20
75.315
 30
0.0
 10
137.758
 20
73.217
 30
0.0
 10
137.758
 20
73.217
 30
0.0
 10
142.4366
 20
74.6335
 30
0.0
 10
147.3733
 20
73.3422
 30
0.0
 10
150.6715
 20
71.8318
 30
0.0
 10
150.6715
 20
71.8318
 30
0.0
 10
155.5901
 20
69.5793
 30
0.0
 10
159.0157
 20
65.3654
 30
0.0
 10
160.5595
 20
58.7239
 30
0.0
 10
160.5595
 20
58.7239
 30
0.0
 10
160.5595
 20
58.7239
 30
0.0
 10
162.3244
 20
61.8196
 30
0.0
 10
166.1946
 20
61.8707
 30
0.0
 10
166.1946
 20
61.8707
 30
0.0
 10
170.0651
 20
61.9218
 30
0.0
 10
171.178
 20
61.5273
 30
0.0
 10
171.178
 20
61.5273
 30
0.0
 10
171.178
 20
61.5273
 30
0.0
 10
171.178
 20
61.5273
 30
0.0
 10
168.4479
 20
59.4169
 30
0.0
 10
168.6086
 20
56.0812
 30
0.0
 10
168.6086
 20
56.0812
 30
0.0
 10
168.7694
 20
52.7455
 30
0.0
 10
169.9952
 20
49.3507
 30
0.0
 10
169.0259
 20
46.6765
 30
0.0
 10
169.0259
 20
46.6765
 30
0.0
 10
168.0565
 20
44.0026
 30
0.0
 10
166.1619
 20
44.1743
 30
0.0
 10
165.9074
 20
43.5896
 30
0.0
 10
165.9074
 20
43.5896
 30
0.0
 10
165.653
 20
43.0049
 30
0.0
 10
169.7
 20
41.9049
 30
0.0
 10
169.3776
 20
38.7141
 30
0.0
 10
169.3776
 20
38.7141
 30
0.0
 10
169.0554
 20
35.5236
 30
0.0
 10
165.4243
 20
33.8114
 30
0.0
 10
161.2919
 20
32.531
 30
0.0
 10
161.2919
 20
32.531
 30
0.0
 10
157.1594
 20
31.2506
 30
0.0
 10
149.0207
 20
24.8374
 30
0.0
 10
147.1466
 20
20.9815
 30
0.0
 10
147.1466
 20
20.9815
 30
0.0
 10
145.0938
 20
16.7582
 30
0.0
 10
144.4737
 20
11.3617
 30
0.0
 10
146.0671
 20
9.0567
 30
0.0
 10
146.0671
 20
9.0567
 30
0.0
 10
146.2722
 20
8.7604
 30
0.0
 10
147.4401
 20
14.6425
 30
0.0
 10
153.3817
 20
22.3336
 30
0.0
 10
153.3817
 20
22.3336
 30
0.0
 10
158.7007
 20
27.7236
 30
0.0
 10
164.9261
 20
30.6712
 30
0.0
 10
171.0196
 20
31.5881
 30
0.0
 10
171.0196
 20
31.5881
 30
0.0
 10
171.418
 20
32.234
 30
0.0
 10
171.8951
 20
33.1023
 30
0.0
 10
172.4343
 20
34.2591
 30
0.0
 10
172.4343
 20
34.2591
 30
0.0
 10
174.0891
 20
37.8087
 30
0.0
 10
173.213
 20
39.2264
 30
0.0
 10
173.0185
 20
42.2399
 30
0.0
 10
173.0185
 20
42.2399
 30
0.0
 10
172.8237
 20
45.2534
 30
0.0
 10
176.7156
 20
48.9744
 30
0.0
 10
177.1476
 20
50.0309
 30
0.0
 10
177.1476
 20
50.0309
 30
0.0
 10
179.6622
 20
56.1838
 30
0.0
 10
172.9526
 20
61.909
 30
0.0
 10
179.5473
 20
70.1314
 30
0.0
 10
179.5473
 20
70.1314
 30
0.0
 10
179.5473
 20
70.1314
 30
0.0
 10
175.0406
 20
67.7166
 30
0.0
 10
175.0406
 20
67.7166
 30
0.0
 10
175.0406
 20
67.7166
 30
0.0
 10
175.6565
 20
72.4661
 30
0.0
 10
179.8157
 20
71.4868
 30
0.0
 10
180.7924
 20
73.2482
 30
0.0
 10
180.7924
 20
73.2482
 30
0.0
 10
181.9894
 20
75.4063
 30
0.0
 10
178.1877
 20
82.4937
 30
0.0
 10
178.1877
 20
82.4937
 30
0.0
 10
178.1877
 20
82.4937
 30
0.0
 10
178.1877
 20
82.4937
 30
0.0
 10
178.3597
 20
80.8035
 30
0.0
 10
178.1877
 20
78.6501
 30
0.0
 10
178.1877
 20
78.6501
 30
0.0
 10
177.3232
 20
67.8267
 30
0.0
 10
160.2113
 20
69.0791
 30
0.0
 10
164.3789
 20
77.2195
 30
0.0
 10
164.3789
 20
77.2195
 30
0.0
 10
164.7175
 20
73.5412
 30
0.0
 10
172.0572
 20
71.6326
 30
0.0
 10
173.9958
 20
73.6401
 30
0.0
 10
173.9958
 20
73.6401
 30
0.0
 10
169.7519
 20
73.6856
 30
0.0
 10
167.9528
 20
76.9438
 30
0.0
 10
169.8682
 20
78.9972
 30
0.0
 10
169.8682
 20
78.9972
 30
0.0
 10
169.6055
 20
77.6821
 30
0.0
 10
174.1429
 20
74.6034
 30
0.0
 10
174.9048
 20
74.9417
 30
0.0
 10
174.9048
 20
74.9417
 30
0.0
 10
178.282
 20
76.4414
 30
0.0
 10
174.256
 20
86.7287
 30
0.0
 10
173.8542
 20
87.2652
 30
0.0
 10
173.8542
 20
87.2652
 30
0.0
 10
173.8542
 20
87.2652
 30
0.0
 10
173.9854
 20
84.2234
 30
0.0
 10
172.1469
 20
82.2236
 30
0.0
 10
172.1469
 20
82.2236
 30
0.0
 10
170.3086
 20
80.2238
 30
0.0
 10
168.7328
 20
79.9236
 30
0.0
 10
168.7328
 20
79.9236
 30
0.0
 10
168.7328
 20
79.9236
 30
0.0
 10
168.0762
 20
80.7193
 30
0.0
 10
167.9218
 20
82.4092
 30
0.0
 10
169.3028
 20
85.4314
 30
0.0
 10
169.3028
 20
85.4314
 30
0.0
 10
170.684
 20
88.4537
 30
0.0
 10
167.1907
 20
92.4495
 30
0.0
 10
163.7789
 20
92.602
 30
0.0
 10
163.7789
 20
92.602
 30
0.0
 10
161.8179
 20
92.6896
 30
0.0
 10
159.9708
 20
92.977
 30
0.0
 10
158.2308
 20
93.4237
 30
0.0
  0
ENDSEC
  0
SECTION
  2
OBJECTS
  0
DICTIONARY
  5
C
330
0
100
AcDbDictionary
281
     1
  3
ACAD_GROUP
350
D
  3
ACAD_LAYOUT
350
1A
  3
ACAD_MATERIAL
350
3B
  3
ACAD_MLEADERSTYLE
350
8E
  3
ACAD_MLINESTYLE
350
17
  3
ACAD_PLOTSETTINGS
350
19
  3
ACAD_PLOTSTYLENAME
350
E
  3
ACAD_TABLESTYLE
350
8D
  3
ACAD_VISUALSTYLE
350
2A
  0
DICTIONARY
  5
D
102
{ACAD_REACTORS
330
C
102
}
330
C
100
AcDbDictionary
281
     1
  0
DICTIONARY
  5
1A
102
{ACAD_REACTORS
330
C
102
}
330
C
100
AcDbDictionary
281
     1
  3
Layout1
350
1E
  3
Layout2
350
26
  3
Model
350
22
  0
DICTIONARY
  5
3B
102
{ACAD_REACTORS
330
C
102
}
330
C
100
AcDbDictionary
281
     1
  3
ByBlock
350
3D
  3
ByLayer
350
3C
  3
Global
350
3E
  0
DICTIONARY
  5
8E
102
{ACAD_REACTORS
330
C
102
}
330
C
100
AcDbDictionary
281
     1
  0
DICTIONARY
  5
17
102
{ACAD_REACTORS
330
C
102
}
330
C
100
AcDbDictionary
281
     1
  3
Standard
350
18
  0
DICTIONARY
  5
19
102
{ACAD_REACTORS
330
C
102
}
330
C
100
AcDbDictionary
281
     1
  0
ACDBDICTIONARYWDFLT
  5
E
102
{ACAD_REACTORS
330
C
102
}
330
C
100
AcDbDictionary
281
     1
  3
Normal
350
F
100
AcDbDictionaryWithDefault
340
F
  0
DICTIONARY
  5
8D
102
{ACAD_REACTORS
330
C
102
}
330
C
100
AcDbDictionary
281
     1
  0
DICTIONARY
  5
2A
102
{ACAD_REACTORS
330
C
102
}
330
C
100
AcDbDictionary
281
     1
  3
2dWireframe
350
2F
  3
3D Hidden
350
31
  3
3dWireframe
350
30
  3
Basic
350
32
  3
Brighten
350
36
  3
ColorChange
350
3A
  3
Conceptual
350
34
  3
Dim
350
35
  3
Facepattern
350
39
  3
Flat
350
2B
  3
FlatWithEdges
350
2C
  3
Gouraud
350
2D
  3
GouraudWithEdges
350
2E
  3
Linepattern
350
38
  3
Realistic
350
33
  3
Thicken
350
37
  0
LAYOUT
  5
1E
102
{ACAD_REACTORS
330
1A
102
}
330
1A
100
AcDbPlotSettings
  1

  2
none_device
  4

  6

 40
0.0
 41
0.0
 42
0.0
 43
0.0
 44
0.0
 45
0.0
 46
0.0
 47
0.0
 48
0.0
 49
0.0
140
0.0
141
0.0
142
1.0
143
1.0
 70
   688
 72
     0
 73
     0
 74
     5
  7

 75
    16
 76
     0
 77
     2
 78
   300
147
1.0
148
0.0
149
0.0
100
AcDbLayout
  1
Layout1
 70
     1
 71
     1
 10
0.0
 20
0.0
 11
12.0
 21
9.0
 12
0.0
 22
0.0
 32
0.0
 14
1.000000000000000E+20
 24
1.000000000000000E+20
 34
1.000000000000000E+20
 15
-1.000000000000000E+20
 25
-1.000000000000000E+20
 35
-1.000000000000000E+20
146
0.0
 13
0.0
 23
0.0
 33
0.0
 16
1.0
 26
0.0
 36
0.0
 17
0.0
 27
1.0
 37
0.0
 76
     0
330
1B
  0
LAYOUT
  5
26
102
{ACAD_REACTORS
330
1A
102
}
330
1A
100
AcDbPlotSettings
  1

  2
none_device
  4

  6

 40
0.0
 41
0.0
 42
0.0
 43
0.0
 44
0.0
 45
0.0
 46
0.0
 47
0.0
 48
0.0
 49
0.0
140
0.0
141
0.0
142
1.0
143
1.0
 70
   688
 72
     0
 73
     0
 74
     5
  7

 75
    16
 76
     0
 77
     2
 78
   300
147
1.0
148
0.0
149
0.0
100
AcDbLayout
  1
Layout2
 70
     1
 71
     2
 10
0.0
 20
0.0
 11
0.0
 21
0.0
 12
0.0
 22
0.0
 32
0.0
 14
0.0
 24
0.0
 34
0.0
 15
0.0
 25
0.0
 35
0.0
146
0.0
 13
0.0
 23
0.0
 33
0.0
 16
1.0
 26
0.0
 36
0.0
 17
0.0
 27
1.0
 37
0.0
 76
     0
330
23
  0
LAYOUT
  5
22
102
{ACAD_REACTORS
330
1A
102
}
330
1A
100
AcDbPlotSettings
  1

  2
none_device
  4

  6

 40
0.0
 41
0.0
 42
0.0
 43
0.0
 44
0.0
 45
0.0
 46
0.0
 47
0.0
 48
0.0
 49
0.0
140
0.0
141
0.0
142
1.0
143
1.0
 70
  1712
 72
     0
 73
     0
 74
     0
  7

 75
     0
 76
     0
 77
     2
 78
   300
147
1.0
148
0.0
149
0.0
100
AcDbLayout
  1
Model
 70
     1
 71
     0
 10
0.0
 20
0.0
 11
12.0
 21
9.0
 12
0.0
 22
0.0
 32
0.0
 14
128.098
 24
-106.5467
 34
0.0
 15
196.1885
 25
131.7702
 35
0.0
146
0.0
 13
0.0
 23
0.0
 33
0.0
 16
1.0
 26
0.0
 36
0.0
 17
0.0
 27
1.0
 37
0.0
 76
     0
330
1F
331
29
  0
MATERIAL
  5
3D
102
{ACAD_REACTORS
330
3B
102
}
330
3B
100
AcDbMaterial
  1
ByBlock
 72
     1
 94
      127
  0
MATERIAL
  5
3C
102
{ACAD_REACTORS
330
3B
102
}
330
3B
100
AcDbMaterial
  1
ByLayer
 72
     1
 94
      127
  0
MATERIAL
  5
3E
102
{ACAD_REACTORS
330
3B
102
}
330
3B
100
AcDbMaterial
  1
Global
 72
     1
 94
      127
  0
MLINESTYLE
  5
18
102
{ACAD_REACTORS
330
17
102
}
330
17
100
AcDbMlineStyle
  2
Standard
 70
     0
  3

 62
   256
 51
90.0
 52
90.0
 71
     2
 49
0.5
 62
   256
  6
BYLAYER
 49
-0.5
 62
   256
  6
BYLAYER
  0
ACDBPLACEHOLDER
  5
F
102
{ACAD_REACTORS
330
E
102
}
330
E
  0
VISUALSTYLE
  5
2F
102
{ACAD_REACTORS
330
2A
102
}
102
{ACAD_XDICTIONARY
360
75
102
}
330
2A
100
AcDbVisualStyle
  2
2dWireframe
 70
     4
 71
     0
 72
     2
 73
     0
 90
        0
 40
-0.6
 41
-30.0
 62
     5
 63
     7
421
 16777215
 74
     1
 91
        4
 64
     7
 65
   257
 75
     1
175
     1
 42
1.0
 92
        0
 66
   257
 43
1.0
 76
     1
 77
     6
 78
     2
 67
     7
 79
     5
170
     0
171
     0
290
     0
174
     0
 93
        1
 44
0.0
173
     0
291
     0
 45
0.0
  0
VISUALSTYLE
  5
31
102
{ACAD_REACTORS
330
2A
102
}
102
{ACAD_XDICTIONARY
360
79
102
}
330
2A
100
AcDbVisualStyle
  2
3D Hidden
 70
     6
 71
     1
 72
     2
 73
     2
 90
        0
 40
-0.6
 41
-30.0
 62
     5
 63
     7
421
 16777215
 74
     2
 91
        2
 64
     7
 65
   257
 75
     2
175
     1
 42
40.0
 92
        0
 66
   257
 43
1.0
 76
     1
 77
     6
 78
     2
 67
     7
 79
     3
170
     0
171
     0
290
     0
174
     0
 93
        1
 44
0.0
173
     0
291
     0
 45
0.0
  0
VISUALSTYLE
  5
30
102
{ACAD_REACTORS
330
2A
102
}
102
{ACAD_XDICTIONARY
360
77
102
}
330
2A
100
AcDbVisualStyle
  2
3dWireframe
 70
     5
 71
     0
 72
     2
 73
     0
 90
        0
 40
-0.6
 41
-30.0
 62
     5
 63
     7
421
 16777215
 74
     1
 91
        4
 64
     7
 65
   257
 75
     1
175
     1
 42
1.0
 92
        0
 66
   257
 43
1.0
 76
     1
 77
     6
 78
     2
 67
     7
 79
     5
170
     0
171
     0
290
     0
174
     0
 93
        1
 44
0.0
173
     0
291
     0
 45
0.0
  0
VISUALSTYLE
  5
32
102
{ACAD_REACTORS
330
2A
102
}
102
{ACAD_XDICTIONARY
360
7B
102
}
330
2A
100
AcDbVisualStyle
  2
Basic
 70
     7
 71
     1
 72
     0
 73
     1
 90
        0
 40
-0.6
 41
-30.0
 62
     5
 63
     7
421
 16777215
 74
     0
 91
        4
 64
     7
 65
   257
 75
     1
175
     1
 42
1.0
 92
        8
 66
     7
 43
1.0
 76
     1
 77
     6
 78
     2
 67
     7
 79
     5
170
     0
171
     0
290
     0
174
     0
 93
        1
 44
0.0
173
     0
291
     1
 45
0.0
  0
VISUALSTYLE
  5
36
102
{ACAD_REACTORS
330
2A
102
}
102
{ACAD_XDICTIONARY
360
83
102
}
330
2A
100
AcDbVisualStyle
  2
Brighten
 70
    12
 71
     2
 72
     2
 73
     0
 90
        0
 40
-0.6
 41
-30.0
 62
     5
 63
     7
421
 16777215
 74
     1
 91
        4
 64
     7
 65
   257
 75
     1
175
     1
 42
1.0
 92
        8
 66
     7
 43
1.0
 76
     1
 77
     6
 78
     2
 67
     7
 79
     5
170
     0
171
     0
290
     0
174
     0
 93
        1
 44
50.0
173
     0
291
     1
 45
0.0
  0
VISUALSTYLE
  5
3A
102
{ACAD_REACTORS
330
2A
102
}
102
{ACAD_XDICTIONARY
360
8B
102
}
330
2A
100
AcDbVisualStyle
  2
ColorChange
 70
    16
 71
     2
 72
     2
 73
     3
 90
        0
 40
-0.6
 41
-30.0
 62
     5
 63
     8
421
  8421504
 74
     1
 91
        4
 64
     7
 65
   257
 75
     1
175
     1
 42
1.0
 92
        8
 66
     8
424
  8421504
 43
1.0
 76
     1
 77
     6
 78
     2
 67
     7
 79
     5
170
     0
171
     0
290
     0
174
     0
 93
        1
 44
0.0
173
     0
291
     1
 45
0.0
  0
VISUALSTYLE
  5
34
102
{ACAD_REACTORS
330
2A
102
}
102
{ACAD_XDICTIONARY
360
7F
102
}
330
2A
100
AcDbVisualStyle
  2
Conceptual
 70
     9
 71
     3
 72
     2
 73
     0
 90
        0
 40
-0.6
 41
-30.0
 62
     5
 63
     7
421
 16777215
 74
     2
 91
        2
 64
     7
 65
   257
 75
     1
175
     1
 42
40.0
 92
        8
 66
     7
 43
1.0
 76
     1
 77
     6
 78
     2
 67
     7
 79
     3
170
     0
171
     0
290
     0
174
     0
 93
        1
 44
0.0
173
     0
291
     0
 45
0.0
  0
VISUALSTYLE
  5
35
102
{ACAD_REACTORS
330
2A
102
}
102
{ACAD_XDICTIONARY
360
81
102
}
330
2A
100
AcDbVisualStyle
  2
Dim
 70
    11
 71
     2
 72
     2
 73
     0
 90
        0
 40
-0.6
 41
-30.0
 62
     5
 63
     7
421
 16777215
 74
     1
 91
        4
 64
     7
 65
   257
 75
     1
175
     1
 42
1.0
 92
        8
 66
     7
 43
1.0
 76
     1
 77
     6
 78
     2
 67
     7
 79
     5
170
     0
171
     0
290
     0
174
     0
 93
        1
 44
-50.0
173
     0
291
     1
 45
0.0
  0
VISUALSTYLE
  5
39
102
{ACAD_REACTORS
330
2A
102
}
102
{ACAD_XDICTIONARY
360
89
102
}
330
2A
100
AcDbVisualStyle
  2
Facepattern
 70
    15
 71
     2
 72
     2
 73
     0
 90
        0
 40
-0.6
 41
-30.0
 62
     5
 63
     7
421
 16777215
 74
     1
 91
        4
 64
     7
 65
   257
 75
     1
175
     1
 42
1.0
 92
        8
 66
     7
 43
1.0
 76
     1
 77
     6
 78
     2
 67
     7
 79
     5
170
     0
171
     0
290
     0
174
     0
 93
        1
 44
0.0
173
     0
291
     1
 45
0.0
  0
VISUALSTYLE
  5
2B
102
{ACAD_REACTORS
330
2A
102
}
102
{ACAD_XDICTIONARY
360
6D
102
}
330
2A
100
AcDbVisualStyle
  2
Flat
 70
     0
 71
     2
 72
     1
 73
     1
 90
        2
 40
-0.6
 41
30.0
 62
     5
 63
     7
421
 16777215
 74
     0
 91
        4
 64
     7
 65
   257
 75
     1
175
     1
 42
1.0
 92
        8
 66
     7
 43
1.0
 76
     1
 77
     6
 78
     2
 67
     7
 79
     5
170
     0
171
     0
290
     0
174
     0
 93
       13
 44
0.0
173
     0
291
     1
 45
0.0
  0
VISUALSTYLE
  5
2C
102
{ACAD_REACTORS
330
2A
102
}
102
{ACAD_XDICTIONARY
360
6F
102
}
330
2A
100
AcDbVisualStyle
  2
FlatWithEdges
 70
     1
 71
     2
 72
     1
 73
     1
 90
        2
 40
-0.6
 41
30.0
 62
     5
 63
     7
421
 16777215
 74
     1
 91
        4
 64
     7
 65
   257
 75
     1
175
     1
 42
1.0
 92
        0
 66
   257
 43
1.0
 76
     1
 77
     6
 78
     2
 67
     7
 79
     5
170
     0
171
     0
290
     0
174
     0
 93
       13
 44
0.0
173
     0
291
     1
 45
0.0
  0
VISUALSTYLE
  5
2D
102
{ACAD_REACTORS
330
2A
102
}
102
{ACAD_XDICTIONARY
360
71
102
}
330
2A
100
AcDbVisualStyle
  2
Gouraud
 70
     2
 71
     2
 72
     2
 73
     1
 90
        2
 40
-0.6
 41
30.0
 62
     5
 63
     7
421
 16777215
 74
     0
 91
        4
 64
     7
 65
   257
 75
     1
175
     1
 42
1.0
 92
        0
 66
     7
 43
1.0
 76
     1
 77
     6
 78
     2
 67
     7
 79
     5
170
     0
171
     0
290
     0
174
     0
 93
       13
 44
0.0
173
     0
291
     1
 45
0.0
  0
VISUALSTYLE
  5
2E
102
{ACAD_REACTORS
330
2A
102
}
102
{ACAD_XDICTIONARY
360
73
102
}
330
2A
100
AcDbVisualStyle
  2
GouraudWithEdges
 70
     3
 71
     2
 72
     2
 73
     1
 90
        2
 40
-0.6
 41
30.0
 62
     5
 63
     7
421
 16777215
 74
     1
 91
        4
 64
     7
 65
   257
 75
     1
175
     1
 42
1.0
 92
        0
 66
   257
 43
1.0
 76
     1
 77
     6
 78
     2
 67
     7
 79
     5
170
     0
171
     0
290
     0
174
     0
 93
       13
 44
0.0
173
     0
291
     1
 45
0.0
  0
VISUALSTYLE
  5
38
102
{ACAD_REACTORS
330
2A
102
}
102
{ACAD_XDICTIONARY
360
87
102
}
330
2A
100
AcDbVisualStyle
  2
Linepattern
 70
    14
 71
     2
 72
     2
 73
     0
 90
        0
 40
-0.6
 41
-30.0
 62
     5
 63
     7
421
 16777215
 74
     1
 91
        4
 64
     7
 65
   257
 75
     7
175
     7
 42
1.0
 92
        8
 66
     7
 43
1.0
 76
     1
 77
     6
 78
     2
 67
     7
 79
     5
170
     0
171
     0
290
     0
174
     0
 93
        1
 44
0.0
173
     0
291
     1
 45
0.0
  0
VISUALSTYLE
  5
33
102
{ACAD_REACTORS
330
2A
102
}
102
{ACAD_XDICTIONARY
360
7D
102
}
330
2A
100
AcDbVisualStyle
  2
Realistic
 70
     8
 71
     2
 72
     2
 73
     0
 90
        0
 40
-0.6
 41
-30.0
 62
     5
 63
     7
421
 16777215
 74
     1
 91
        0
 64
     7
 65
   257
 75
     1
175
     1
 42
1.0
 92
        8
 66
     8
424
  7895160
 43
1.0
 76
     1
 77
     6
 78
     2
 67
     7
 79
     5
170
     0
171
     0
290
     0
174
     0
 93
       13
 44
0.0
173
     0
291
     0
 45
0.0
  0
VISUALSTYLE
  5
37
102
{ACAD_REACTORS
330
2A
102
}
102
{ACAD_XDICTIONARY
360
85
102
}
330
2A
100
AcDbVisualStyle
  2
Thicken
 70
    13
 71
     2
 72
     2
 73
     0
 90
        0
 40
-0.6
 41
-30.0
 62
     5
 63
     7
421
 16777215
 74
     1
 91
        4
 64
     7
 65
   257
 75
     1
175
     1
 42
1.0
 92
       12
 66
     7
 43
1.0
 76
     1
 77
     6
 78
     2
 67
     7
 79
     5
170
     0
171
     0
290
     0
174
     0
 93
        1
 44
0.0
173
     0
291
     1
 45
0.0
  0
DICTIONARY
  5
75
330
2F
100
AcDbDictionary
280
     1
281
     1
  3
ACAD_XREC_ROUNDTRIP
360
76
  0
DICTIONARY
  5
79
330
31
100
AcDbDictionary
280
     1
281
     1
  3
ACAD_XREC_ROUNDTRIP
360
7A
  0
DICTIONARY
  5
77
330
30
100
AcDbDictionary
280
     1
281
     1
  3
ACAD_XREC_ROUNDTRIP
360
78
  0
DICTIONARY
  5
7B
330
32
100
AcDbDictionary
280
     1
281
     1
  3
ACAD_XREC_ROUNDTRIP
360
7C
  0
DICTIONARY
  5
83
330
36
100
AcDbDictionary
280
     1
281
     1
  3
ACAD_XREC_ROUNDTRIP
360
84
  0
DICTIONARY
  5
8B
330
3A
100
AcDbDictionary
280
     1
281
     1
  3
ACAD_XREC_ROUNDTRIP
360
8C
  0
DICTIONARY
  5
7F
330
34
100
AcDbDictionary
280
     1
281
     1
  3
ACAD_XREC_ROUNDTRIP
360
80
  0
DICTIONARY
  5
81
330
35
100
AcDbDictionary
280
     1
281
     1
  3
ACAD_XREC_ROUNDTRIP
360
82
  0
DICTIONARY
  5
89
330
39
100
AcDbDictionary
280
     1
281
     1
  3
ACAD_XREC_ROUNDTRIP
360
8A
  0
DICTIONARY
  5
6D
330
2B
100
AcDbDictionary
280
     1
281
     1
  3
ACAD_XREC_ROUNDTRIP
360
6E
  0
DICTIONARY
  5
6F
330
2C
100
AcDbDictionary
280
     1
281
     1
  3
ACAD_XREC_ROUNDTRIP
360
70
  0
DICTIONARY
  5
71
330
2D
100
AcDbDictionary
280
     1
281
     1
  3
ACAD_XREC_ROUNDTRIP
360
72
  0
DICTIONARY
  5
73
330
2E
100
AcDbDictionary
280
     1
281
     1
  3
ACAD_XREC_ROUNDTRIP
360
74
  0
DICTIONARY
  5
87
330
38
100
AcDbDictionary
280
     1
281
     1
  3
ACAD_XREC_ROUNDTRIP
360
88
  0
DICTIONARY
  5
7D
330
33
100
AcDbDictionary
280
     1
281
     1
  3
ACAD_XREC_ROUNDTRIP
360
7E
  0
DICTIONARY
  5
85
330
37
100
AcDbDictionary
280
     1
281
     1
  3
ACAD_XREC_ROUNDTRIP
360
86
  0
XRECORD
  5
76
102
{ACAD_REACTORS
330
75
102
}
330
75
100
AcDbXrecord
280
     1
102
RTVSPropertyOp0
 70
     1
102
RTVSPropertyOp1
 70
     1
102
RTVSPropertyOp2
 70
     1
102
RTVSPropertyOp3
 70
     1
102
RTVSPropertyOp4
 70
     1
102
RTVSPropertyOp5
 70
     1
102
RTVSPropertyOp6
 70
     1
102
RTVSPropertyOp7
 70
     1
102
RTVSPropertyOp8
 70
     1
102
RTVSPropertyOp9
 70
     1
102
RTVSPropertyOp10
 70
     1
102
RTVSPropertyOp11
 70
     1
102
RTVSPropertyOp12
 70
     1
102
RTVSPropertyOp13
 70
     1
102
RTVSPropertyOp14
 70
     1
102
RTVSPropertyOp15
 70
     1
102
RTVSPropertyOp16
 70
     1
102
RTVSPropertyOp17
 70
     1
102
RTVSPropertyOp18
 70
     1
102
RTVSPropertyOp19
 70
     1
102
RTVSPropertyOp20
 70
     1
102
RTVSPropertyOp21
 70
     1
102
RTVSPropertyOp22
 70
     1
102
RTVSPropertyOp23
 70
     1
102
RTVSPropertyOp24
 70
     1
102
RTVSPropertyOp25
 70
     1
102
RTVSPropertyOp26
 70
     1
102
RTVSPropertyOp27
 70
     1
102
RTVSPropertyOp28
 70
     1
102
RTVSPropertyOp29
 70
     1
102
RTVSPropertyOp30
 70
     1
102
RTVSPropertyOp31
 70
     1
102
RTVSPropertyOp32
 70
     1
  0
XRECORD
  5
7A
102
{ACAD_REACTORS
330
79
102
}
330
79
100
AcDbXrecord
280
     1
102
RTVSPropertyOp0
 70
     1
102
RTVSPropertyOp1
 70
     1
102
RTVSPropertyOp2
 70
     1
102
RTVSPropertyOp3
 70
     1
102
RTVSPropertyOp4
 70
     1
102
RTVSPropertyOp5
 70
     1
102
RTVSPropertyOp6
 70
     1
102
RTVSPropertyOp7
 70
     1
102
RTVSPropertyOp8
 70
     1
102
RTVSPropertyOp9
 70
     1
102
RTVSPropertyOp10
 70
     1
102
RTVSPropertyOp11
 70
     1
102
RTVSPropertyOp12
 70
     1
102
RTVSPropertyOp13
 70
     1
102
RTVSPropertyOp14
 70
     1
102
RTVSPropertyOp15
 70
     1
102
RTVSPropertyOp16
 70
     1
102
RTVSPropertyOp17
 70
     1
102
RTVSPropertyOp18
 70
     1
102
RTVSPropertyOp19
 70
     1
102
RTVSPropertyOp20
 70
     1
102
RTVSPropertyOp21
 70
     1
102
RTVSPropertyOp22
 70
     1
102
RTVSPropertyOp23
 70
     1
102
RTVSPropertyOp24
 70
     1
102
RTVSPropertyOp25
 70
     1
102
RTVSPropertyOp26
 70
     1
102
RTVSPropertyOp27
 70
     1
102
RTVSPropertyOp28
 70
     1
102
RTVSPropertyOp29
 70
     1
102
RTVSPropertyOp30
 70
     1
102
RTVSPropertyOp31
 70
     1
102
RTVSPropertyOp32
 70
     1
  0
XRECORD
  5
78
102
{ACAD_REACTORS
330
77
102
}
330
77
100
AcDbXrecord
280
     1
102
RTVSPropertyOp0
 70
     1
102
RTVSPropertyOp1
 70
     1
102
RTVSPropertyOp2
 70
     1
102
RTVSPropertyOp3
 70
     1
102
RTVSPropertyOp4
 70
     1
102
RTVSPropertyOp5
 70
     1
102
RTVSPropertyOp6
 70
     1
102
RTVSPropertyOp7
 70
     1
102
RTVSPropertyOp8
 70
     1
102
RTVSPropertyOp9
 70
     1
102
RTVSPropertyOp10
 70
     1
102
RTVSPropertyOp11
 70
     1
102
RTVSPropertyOp12
 70
     1
102
RTVSPropertyOp13
 70
     1
102
RTVSPropertyOp14
 70
     1
102
RTVSPropertyOp15
 70
     1
102
RTVSPropertyOp16
 70
     1
102
RTVSPropertyOp17
 70
     1
102
RTVSPropertyOp18
 70
     1
102
RTVSPropertyOp19
 70
     1
102
RTVSPropertyOp20
 70
     1
102
RTVSPropertyOp21
 70
     1
102
RTVSPropertyOp22
 70
     1
102
RTVSPropertyOp23
 70
     1
102
RTVSPropertyOp24
 70
     1
102
RTVSPropertyOp25
 70
     1
102
RTVSPropertyOp26
 70
     1
102
RTVSPropertyOp27
 70
     1
102
RTVSPropertyOp28
 70
     1
102
RTVSPropertyOp29
 70
     1
102
RTVSPropertyOp30
 70
     1
102
RTVSPropertyOp31
 70
     1
102
RTVSPropertyOp32
 70
     1
  0
XRECORD
  5
7C
102
{ACAD_REACTORS
330
7B
102
}
330
7B
100
AcDbXrecord
280
     1
102
RTVSPropertyOp0
 70
     1
102
RTVSPropertyOp1
 70
     1
102
RTVSPropertyOp2
 70
     1
102
RTVSPropertyOp3
 70
     1
102
RTVSPropertyOp4
 70
     1
102
RTVSPropertyOp5
 70
     1
102
RTVSPropertyOp6
 70
     1
102
RTVSPropertyOp7
 70
     1
102
RTVSPropertyOp8
 70
     1
102
RTVSPropertyOp9
 70
     1
102
RTVSPropertyOp10
 70
     1
102
RTVSPropertyOp11
 70
     1
102
RTVSPropertyOp12
 70
     1
102
RTVSPropertyOp13
 70
     1
102
RTVSPropertyOp14
 70
     1
102
RTVSPropertyOp15
 70
     1
102
RTVSPropertyOp16
 70
     1
102
RTVSPropertyOp17
 70
     1
102
RTVSPropertyOp18
 70
     1
102
RTVSPropertyOp19
 70
     1
102
RTVSPropertyOp20
 70
     1
102
RTVSPropertyOp21
 70
     1
102
RTVSPropertyOp22
 70
     1
102
RTVSPropertyOp23
 70
     1
102
RTVSPropertyOp24
 70
     1
102
RTVSPropertyOp25
 70
     1
102
RTVSPropertyOp26
 70
     1
102
RTVSPropertyOp27
 70
     1
102
RTVSPropertyOp28
 70
     1
102
RTVSPropertyOp29
 70
     1
102
RTVSPropertyOp30
 70
     1
102
RTVSPropertyOp31
 70
     1
102
RTVSPropertyOp32
 70
     1
  0
XRECORD
  5
84
102
{ACAD_REACTORS
330
83
102
}
330
83
100
AcDbXrecord
280
     1
102
RTVSPropertyOp0
 70
     1
102
RTVSPropertyOp1
 70
     1
102
RTVSPropertyOp2
 70
     1
102
RTVSPropertyOp3
 70
     1
102
RTVSPropertyOp4
 70
     1
102
RTVSPropertyOp5
 70
     1
102
RTVSPropertyOp6
 70
     1
102
RTVSPropertyOp7
 70
     1
102
RTVSPropertyOp8
 70
     1
102
RTVSPropertyOp9
 70
     1
102
RTVSPropertyOp10
 70
     1
102
RTVSPropertyOp11
 70
     1
102
RTVSPropertyOp12
 70
     1
102
RTVSPropertyOp13
 70
     1
102
RTVSPropertyOp14
 70
     1
102
RTVSPropertyOp15
 70
     1
102
RTVSPropertyOp16
 70
     1
102
RTVSPropertyOp17
 70
     1
102
RTVSPropertyOp18
 70
     1
102
RTVSPropertyOp19
 70
     1
102
RTVSPropertyOp20
 70
     1
102
RTVSPropertyOp21
 70
     1
102
RTVSPropertyOp22
 70
     1
102
RTVSPropertyOp23
 70
     1
102
RTVSPropertyOp24
 70
     1
102
RTVSPropertyOp25
 70
     1
102
RTVSPropertyOp26
 70
     1
102
RTVSPropertyOp27
 70
     1
102
RTVSPropertyOp28
 70
     1
102
RTVSPropertyOp29
 70
     1
102
RTVSPropertyOp30
 70
     1
102
RTVSPropertyOp31
 70
     1
102
RTVSPropertyOp32
 70
     1
  0
XRECORD
  5
8C
102
{ACAD_REACTORS
330
8B
102
}
330
8B
100
AcDbXrecord
280
     1
102
RTVSPropertyOp0
 70
     1
102
RTVSPropertyOp1
 70
     1
102
RTVSPropertyOp2
 70
     1
102
RTVSPropertyOp3
 70
     1
102
RTVSPropertyOp4
 70
     1
102
RTVSPropertyOp5
 70
     1
102
RTVSPropertyOp6
 70
     1
102
RTVSPropertyOp7
 70
     1
102
RTVSPropertyOp8
 70
     1
102
RTVSPropertyOp9
 70
     1
102
RTVSPropertyOp10
 70
     1
102
RTVSPropertyOp11
 70
     1
102
RTVSPropertyOp12
 70
     1
102
RTVSPropertyOp13
 70
     1
102
RTVSPropertyOp14
 70
     1
102
RTVSPropertyOp15
 70
     1
102
RTVSPropertyOp16
 70
     1
102
RTVSPropertyOp17
 70
     1
102
RTVSPropertyOp18
 70
     1
102
RTVSPropertyOp19
 70
     1
102
RTVSPropertyOp20
 70
     1
102
RTVSPropertyOp21
 70
     1
102
RTVSPropertyOp22
 70
     1
102
RTVSPropertyOp23
 70
     1
102
RTVSPropertyOp24
 70
     1
102
RTVSPropertyOp25
 70
     1
102
RTVSPropertyOp26
 70
     1
102
RTVSPropertyOp27
 70
     1
102
RTVSPropertyOp28
 70
     1
102
RTVSPropertyOp29
 70
     1
102
RTVSPropertyOp30
 70
     1
102
RTVSPropertyOp31
 70
     1
102
RTVSPropertyOp32
 70
     1
  0
XRECORD
  5
80
102
{ACAD_REACTORS
330
7F
102
}
330
7F
100
AcDbXrecord
280
     1
102
RTVSPropertyOp0
 70
     1
102
RTVSPropertyOp1
 70
     1
102
RTVSPropertyOp2
 70
     1
102
RTVSPropertyOp3
 70
     1
102
RTVSPropertyOp4
 70
     1
102
RTVSPropertyOp5
 70
     1
102
RTVSPropertyOp6
 70
     1
102
RTVSPropertyOp7
 70
     1
102
RTVSPropertyOp8
 70
     1
102
RTVSPropertyOp9
 70
     1
102
RTVSPropertyOp10
 70
     1
102
RTVSPropertyOp11
 70
     1
102
RTVSPropertyOp12
 70
     1
102
RTVSPropertyOp13
 70
     1
102
RTVSPropertyOp14
 70
     1
102
RTVSPropertyOp15
 70
     1
102
RTVSPropertyOp16
 70
     1
102
RTVSPropertyOp17
 70
     1
102
RTVSPropertyOp18
 70
     1
102
RTVSPropertyOp19
 70
     1
102
RTVSPropertyOp20
 70
     1
102
RTVSPropertyOp21
 70
     1
102
RTVSPropertyOp22
 70
     1
102
RTVSPropertyOp23
 70
     1
102
RTVSPropertyOp24
 70
     1
102
RTVSPropertyOp25
 70
     1
102
RTVSPropertyOp26
 70
     1
102
RTVSPropertyOp27
 70
     1
102
RTVSPropertyOp28
 70
     1
102
RTVSPropertyOp29
 70
     1
102
RTVSPropertyOp30
 70
     1
102
RTVSPropertyOp31
 70
     1
102
RTVSPropertyOp32
 70
     1
  0
XRECORD
  5
82
102
{ACAD_REACTORS
330
81
102
}
330
81
100
AcDbXrecord
280
     1
102
RTVSPropertyOp0
 70
     1
102
RTVSPropertyOp1
 70
     1
102
RTVSPropertyOp2
 70
     1
102
RTVSPropertyOp3
 70
     1
102
RTVSPropertyOp4
 70
     1
102
RTVSPropertyOp5
 70
     1
102
RTVSPropertyOp6
 70
     1
102
RTVSPropertyOp7
 70
     1
102
RTVSPropertyOp8
 70
     1
102
RTVSPropertyOp9
 70
     1
102
RTVSPropertyOp10
 70
     1
102
RTVSPropertyOp11
 70
     1
102
RTVSPropertyOp12
 70
     1
102
RTVSPropertyOp13
 70
     1
102
RTVSPropertyOp14
 70
     1
102
RTVSPropertyOp15
 70
     1
102
RTVSPropertyOp16
 70
     1
102
RTVSPropertyOp17
 70
     1
102
RTVSPropertyOp18
 70
     1
102
RTVSPropertyOp19
 70
     1
102
RTVSPropertyOp20
 70
     1
102
RTVSPropertyOp21
 70
     1
102
RTVSPropertyOp22
 70
     1
102
RTVSPropertyOp23
 70
     1
102
RTVSPropertyOp24
 70
     1
102
RTVSPropertyOp25
 70
     1
102
RTVSPropertyOp26
 70
     1
102
RTVSPropertyOp27
 70
     1
102
RTVSPropertyOp28
 70
     1
102
RTVSPropertyOp29
 70
     1
102
RTVSPropertyOp30
 70
     1
102
RTVSPropertyOp31
 70
     1
102
RTVSPropertyOp32
 70
     1
  0
XRECORD
  5
8A
102
{ACAD_REACTORS
330
89
102
}
330
89
100
AcDbXrecord
280
     1
102
RTVSPropertyOp0
 70
     1
102
RTVSPropertyOp1
 70
     1
102
RTVSPropertyOp2
 70
     1
102
RTVSPropertyOp3
 70
     1
102
RTVSPropertyOp4
 70
     1
102
RTVSPropertyOp5
 70
     1
102
RTVSPropertyOp6
 70
     1
102
RTVSPropertyOp7
 70
     1
102
RTVSPropertyOp8
 70
     1
102
RTVSPropertyOp9
 70
     1
102
RTVSPropertyOp10
 70
     1
102
RTVSPropertyOp11
 70
     1
102
RTVSPropertyOp12
 70
     1
102
RTVSPropertyOp13
 70
     1
102
RTVSPropertyOp14
 70
     1
102
RTVSPropertyOp15
 70
     1
102
RTVSPropertyOp16
 70
     1
102
RTVSPropertyOp17
 70
     1
102
RTVSPropertyOp18
 70
     1
102
RTVSPropertyOp19
 70
     1
102
RTVSPropertyOp20
 70
     1
102
RTVSPropertyOp21
 70
     1
102
RTVSPropertyOp22
 70
     1
102
RTVSPropertyOp23
 70
     1
102
RTVSPropertyOp24
 70
     1
102
RTVSPropertyOp25
 70
     1
102
RTVSPropertyOp26
 70
     1
102
RTVSPropertyOp27
 70
     1
102
RTVSPropertyOp28
 70
     1
102
RTVSPropertyOp29
 70
     1
102
RTVSPropertyOp30
 70
     1
102
RTVSPropertyOp31
 70
     1
102
RTVSPropertyOp32
 70
     1
  0
XRECORD
  5
6E
102
{ACAD_REACTORS
330
6D
102
}
330
6D
100
AcDbXrecord
280
     1
102
RTVSPropertyOp0
 70
     1
102
RTVSPropertyOp1
 70
     1
102
RTVSPropertyOp2
 70
     1
102
RTVSPropertyOp3
 70
     1
102
RTVSPropertyOp4
 70
     1
102
RTVSPropertyOp5
 70
     1
102
RTVSPropertyOp6
 70
     1
102
RTVSPropertyOp7
 70
     1
102
RTVSPropertyOp8
 70
     1
102
RTVSPropertyOp9
 70
     1
102
RTVSPropertyOp10
 70
     1
102
RTVSPropertyOp11
 70
     1
102
RTVSPropertyOp12
 70
     1
102
RTVSPropertyOp13
 70
     1
102
RTVSPropertyOp14
 70
     1
102
RTVSPropertyOp15
 70
     1
102
RTVSPropertyOp16
 70
     1
102
RTVSPropertyOp17
 70
     1
102
RTVSPropertyOp18
 70
     1
102
RTVSPropertyOp19
 70
     1
102
RTVSPropertyOp20
 70
     1
102
RTVSPropertyOp21
 70
     1
102
RTVSPropertyOp22
 70
     1
102
RTVSPropertyOp23
 70
     1
102
RTVSPropertyOp24
 70
     1
102
RTVSPropertyOp25
 70
     1
102
RTVSPropertyOp26
 70
     1
102
RTVSPropertyOp27
 70
     1
102
RTVSPropertyOp28
 70
     1
102
RTVSPropertyOp29
 70
     1
102
RTVSPropertyOp30
 70
     1
102
RTVSPropertyOp31
 70
     1
102
RTVSPropertyOp32
 70
     1
  0
XRECORD
  5
70
102
{ACAD_REACTORS
330
6F
102
}
330
6F
100
AcDbXrecord
280
     1
102
RTVSPropertyOp0
 70
     1
102
RTVSPropertyOp1
 70
     1
102
RTVSPropertyOp2
 70
     1
102
RTVSPropertyOp3
 70
     1
102
RTVSPropertyOp4
 70
     1
102
RTVSPropertyOp5
 70
     1
102
RTVSPropertyOp6
 70
     1
102
RTVSPropertyOp7
 70
     1
102
RTVSPropertyOp8
 70
     1
102
RTVSPropertyOp9
 70
     1
102
RTVSPropertyOp10
 70
     1
102
RTVSPropertyOp11
 70
     1
102
RTVSPropertyOp12
 70
     1
102
RTVSPropertyOp13
 70
     1
102
RTVSPropertyOp14
 70
     1
102
RTVSPropertyOp15
 70
     1
102
RTVSPropertyOp16
 70
     1
102
RTVSPropertyOp17
 70
     1
102
RTVSPropertyOp18
 70
     1
102
RTVSPropertyOp19
 70
     1
102
RTVSPropertyOp20
 70
     1
102
RTVSPropertyOp21
 70
     1
102
RTVSPropertyOp22
 70
     1
102
RTVSPropertyOp23
 70
     1
102
RTVSPropertyOp24
 70
     1
102
RTVSPropertyOp25
 70
     1
102
RTVSPropertyOp26
 70
     1
102
RTVSPropertyOp27
 70
     1
102
RTVSPropertyOp28
 70
     1
102
RTVSPropertyOp29
 70
     1
102
RTVSPropertyOp30
 70
     1
102
RTVSPropertyOp31
 70
     1
102
RTVSPropertyOp32
 70
     1
  0
XRECORD
  5
72
102
{ACAD_REACTORS
330
71
102
}
330
71
100
AcDbXrecord
280
     1
102
RTVSPropertyOp0
 70
     1
102
RTVSPropertyOp1
 70
     1
102
RTVSPropertyOp2
 70
     1
102
RTVSPropertyOp3
 70
     1
102
RTVSPropertyOp4
 70
     1
102
RTVSPropertyOp5
 70
     1
102
RTVSPropertyOp6
 70
     1
102
RTVSPropertyOp7
 70
     1
102
RTVSPropertyOp8
 70
     1
102
RTVSPropertyOp9
 70
     1
102
RTVSPropertyOp10
 70
     1
102
RTVSPropertyOp11
 70
     1
102
RTVSPropertyOp12
 70
     1
102
RTVSPropertyOp13
 70
     1
102
RTVSPropertyOp14
 70
     1
102
RTVSPropertyOp15
 70
     1
102
RTVSPropertyOp16
 70
     1
102
RTVSPropertyOp17
 70
     1
102
RTVSPropertyOp18
 70
     1
102
RTVSPropertyOp19
 70
     1
102
RTVSPropertyOp20
 70
     1
102
RTVSPropertyOp21
 70
     1
102
RTVSPropertyOp22
 70
     1
102
RTVSPropertyOp23
 70
     1
102
RTVSPropertyOp24
 70
     1
102
RTVSPropertyOp25
 70
     1
102
RTVSPropertyOp26
 70
     1
102
RTVSPropertyOp27
 70
     1
102
RTVSPropertyOp28
 70
     1
102
RTVSPropertyOp29
 70
     1
102
RTVSPropertyOp30
 70
     1
102
RTVSPropertyOp31
 70
     1
102
RTVSPropertyOp32
 70
     1
  0
XRECORD
  5
74
102
{ACAD_REACTORS
330
73
102
}
330
73
100
AcDbXrecord
280
     1
102
RTVSPropertyOp0
 70
     1
102
RTVSPropertyOp1
 70
     1
102
RTVSPropertyOp2
 70
     1
102
RTVSPropertyOp3
 70
     1
102
RTVSPropertyOp4
 70
     1
102
RTVSPropertyOp5
 70
     1
102
RTVSPropertyOp6
 70
     1
102
RTVSPropertyOp7
 70
     1
102
RTVSPropertyOp8
 70
     1
102
RTVSPropertyOp9
 70
     1
102
RTVSPropertyOp10
 70
     1
102
RTVSPropertyOp11
 70
     1
102
RTVSPropertyOp12
 70
     1
102
RTVSPropertyOp13
 70
     1
102
RTVSPropertyOp14
 70
     1
102
RTVSPropertyOp15
 70
     1
102
RTVSPropertyOp16
 70
     1
102
RTVSPropertyOp17
 70
     1
102
RTVSPropertyOp18
 70
     1
102
RTVSPropertyOp19
 70
     1
102
RTVSPropertyOp20
 70
     1
102
RTVSPropertyOp21
 70
     1
102
RTVSPropertyOp22
 70
     1
102
RTVSPropertyOp23
 70
     1
102
RTVSPropertyOp24
 70
     1
102
RTVSPropertyOp25
 70
     1
102
RTVSPropertyOp26
 70
     1
102
RTVSPropertyOp27
 70
     1
102
RTVSPropertyOp28
 70
     1
102
RTVSPropertyOp29
 70
     1
102
RTVSPropertyOp30
 70
     1
102
RTVSPropertyOp31
 70
     1
102
RTVSPropertyOp32
 70
     1
  0
XRECORD
  5
88
102
{ACAD_REACTORS
330
87
102
}
330
87
100
AcDbXrecord
280
     1
102
RTVSPropertyOp0
 70
     1
102
RTVSPropertyOp1
 70
     1
102
RTVSPropertyOp2
 70
     1
102
RTVSPropertyOp3
 70
     1
102
RTVSPropertyOp4
 70
     1
102
RTVSPropertyOp5
 70
     1
102
RTVSPropertyOp6
 70
     1
102
RTVSPropertyOp7
 70
     1
102
RTVSPropertyOp8
 70
     1
102
RTVSPropertyOp9
 70
     1
102
RTVSPropertyOp10
 70
     1
102
RTVSPropertyOp11
 70
     1
102
RTVSPropertyOp12
 70
     1
102
RTVSPropertyOp13
 70
     1
102
RTVSPropertyOp14
 70
     1
102
RTVSPropertyOp15
 70
     1
102
RTVSPropertyOp16
 70
     1
102
RTVSPropertyOp17
 70
     1
102
RTVSPropertyOp18
 70
     1
102
RTVSPropertyOp19
 70
     1
102
RTVSPropertyOp20
 70
     1
102
RTVSPropertyOp21
 70
     1
102
RTVSPropertyOp22
 70
     1
102
RTVSPropertyOp23
 70
     1
102
RTVSPropertyOp24
 70
     1
102
RTVSPropertyOp25
 70
     1
102
RTVSPropertyOp26
 70
     1
102
RTVSPropertyOp27
 70
     1
102
RTVSPropertyOp28
 70
     1
102
RTVSPropertyOp29
 70
     1
102
RTVSPropertyOp30
 70
     1
102
RTVSPropertyOp31
 70
     1
102
RTVSPropertyOp32
 70
     1
  0
XRECORD
  5
7E
102
{ACAD_REACTORS
330
7D
102
}
330
7D
100
AcDbXrecord
280
     1
102
RTVSPropertyOp0
 70
     1
102
RTVSPropertyOp1
 70
     1
102
RTVSPropertyOp2
 70
     1
102
RTVSPropertyOp3
 70
     1
102
RTVSPropertyOp4
 70
     1
102
RTVSPropertyOp5
 70
     1
102
RTVSPropertyOp6
 70
     1
102
RTVSPropertyOp7
 70
     1
102
RTVSPropertyOp8
 70
     1
102
RTVSPropertyOp9
 70
     1
102
RTVSPropertyOp10
 70
     1
102
RTVSPropertyOp11
 70
     1
102
RTVSPropertyOp12
 70
     1
102
RTVSPropertyOp13
 70
     1
102
RTVSPropertyOp14
 70
     1
102
RTVSPropertyOp15
 70
     1
102
RTVSPropertyOp16
 70
     1
102
RTVSPropertyOp17
 70
     1
102
RTVSPropertyOp18
 70
     1
102
RTVSPropertyOp19
 70
     1
102
RTVSPropertyOp20
 70
     1
102
RTVSPropertyOp21
 70
     1
102
RTVSPropertyOp22
 70
     1
102
RTVSPropertyOp23
 70
     1
102
RTVSPropertyOp24
 70
     1
102
RTVSPropertyOp25
 70
     1
102
RTVSPropertyOp26
 70
     1
102
RTVSPropertyOp27
 70
     1
102
RTVSPropertyOp28
 70
     1
102
RTVSPropertyOp29
 70
     1
102
RTVSPropertyOp30
 70
     1
102
RTVSPropertyOp31
 70
     1
102
RTVSPropertyOp32
 70
     1
  0
XRECORD
  5
86
102
{ACAD_REACTORS
330
85
102
}
330
85
100
AcDbXrecord
280
     1
102
RTVSPropertyOp0
 70
     1
102
RTVSPropertyOp1
 70
     1
102
RTVSPropertyOp2
 70
     1
102
RTVSPropertyOp3
 70
     1
102
RTVSPropertyOp4
 70
     1
102
RTVSPropertyOp5
 70
     1
102
RTVSPropertyOp6
 70
     1
102
RTVSPropertyOp7
 70
     1
102
RTVSPropertyOp8
 70
     1
102
RTVSPropertyOp9
 70
     1
102
RTVSPropertyOp10
 70
     1
102
RTVSPropertyOp11
 70
     1
102
RTVSPropertyOp12
 70
     1
102
RTVSPropertyOp13
 70
     1
102
RTVSPropertyOp14
 70
     1
102
RTVSPropertyOp15
 70
     1
102
RTVSPropertyOp16
 70
     1
102
RTVSPropertyOp17
 70
     1
102
RTVSPropertyOp18
 70
     1
102
RTVSPropertyOp19
 70
     1
102
RTVSPropertyOp20
 70
     1
102
RTVSPropertyOp21
 70
     1
102
RTVSPropertyOp22
 70
     1
102
RTVSPropertyOp23
 70
     1
102
RTVSPropertyOp24
 70
     1
102
RTVSPropertyOp25
 70
     1
102
RTVSPropertyOp26
 70
     1
102
RTVSPropertyOp27
 70
     1
102
RTVSPropertyOp28
 70
     1
102
RTVSPropertyOp29
 70
     1
102
RTVSPropertyOp30
 70
     1
102
RTVSPropertyOp31
 70
     1
102
RTVSPropertyOp32
 70
     1
  0
ENDSEC
  0
EOF
