  0
SECTION
  2
HEADER
  9
$ACADVER
  1
AC1021
  9
$ACADMAINTVER
 70
    25
  9
$DWGCODEPAGE
  3
ANSI_1256
  9
$INSBASE
 10
0.0
 20
0.0
 30
0.0
  9
$EXTMIN
 10
-55.9214
 20
-114.7846
 30
0.0
  9
$EXTMAX
 10
75.4302
 20
131.8682
 30
0.0
  9
$LIMMIN
 10
0.0
 20
0.0
  9
$LIMMAX
 10
12.0
 20
9.0
  9
$ORTHOMODE
 70
     0
  9
$REGENMODE
 70
     1
  9
$FILLMODE
 70
     1
  9
$QTEXTMODE
 70
     0
  9
$MIRRTEXT
 70
     1
  9
$LTSCALE
 40
1.0
  9
$ATTMODE
 70
     1
  9
$TEXTSIZE
 40
0.2
  9
$TRACEWID
 40
0.05
  9
$TEXTSTYLE
  7
Standard
  9
$CLAYER
  8
0
  9
$CELTYPE
  6
ByLayer
  9
$CECOLOR
 62
   256
  9
$CELTSCALE
 40
1.0
  9
$DISPSILH
 70
     0
  9
$DIMSCALE
 40
1.0
  9
$DIMASZ
 40
0.18
  9
$DIMEXO
 40
0.0625
  9
$DIMDLI
 40
0.38
  9
$DIMRND
 40
0.0
  9
$DIMDLE
 40
0.0
  9
$DIMEXE
 40
0.18
  9
$DIMTP
 40
0.0
  9
$DIMTM
 40
0.0
  9
$DIMTXT
 40
0.18
  9
$DIMCEN
 40
0.09
  9
$DIMTSZ
 40
0.0
  9
$DIMTOL
 70
     0
  9
$DIMLIM
 70
     0
  9
$DIMTIH
 70
     1
  9
$DIMTOH
 70
     1
  9
$DIMSE1
 70
     0
  9
$DIMSE2
 70
     0
  9
$DIMTAD
 70
     0
  9
$DIMZIN
 70
     0
  9
$DIMBLK
  1

  9
$DIMASO
 70
     1
  9
$DIMSHO
 70
     1
  9
$DIMPOST
  1

  9
$DIMAPOST
  1

  9
$DIMALT
 70
     0
  9
$DIMALTD
 70
     2
  9
$DIMALTF
 40
25.4
  9
$DIMLFAC
 40
1.0
  9
$DIMTOFL
 70
     0
  9
$DIMTVP
 40
0.0
  9
$DIMTIX
 70
     0
  9
$DIMSOXD
 70
     0
  9
$DIMSAH
 70
     0
  9
$DIMBLK1
  1

  9
$DIMBLK2
  1

  9
$DIMSTYLE
  2
Standard
  9
$DIMCLRD
 70
     0
  9
$DIMCLRE
 70
     0
  9
$DIMCLRT
 70
     0
  9
$DIMTFAC
 40
1.0
  9
$DIMGAP
 40
0.09
  9
$DIMJUST
 70
     0
  9
$DIMSD1
 70
     0
  9
$DIMSD2
 70
     0
  9
$DIMTOLJ
 70
     1
  9
$DIMTZIN
 70
     0
  9
$DIMALTZ
 70
     0
  9
$DIMALTTZ
 70
     0
  9
$DIMUPT
 70
     0
  9
$DIMDEC
 70
     4
  9
$DIMTDEC
 70
     4
  9
$DIMALTU
 70
     2
  9
$DIMALTTD
 70
     2
  9
$DIMTXSTY
  7
Standard
  9
$DIMAUNIT
 70
     0
  9
$DIMADEC
 70
     0
  9
$DIMALTRND
 40
0.0
  9
$DIMAZIN
 70
     0
  9
$DIMDSEP
 70
    46
  9
$DIMATFIT
 70
     3
  9
$DIMFRAC
 70
     0
  9
$DIMLDRBLK
  1

  9
$DIMLUNIT
 70
     2
  9
$DIMLWD
 70
    -2
  9
$DIMLWE
 70
    -2
  9
$DIMTMOVE
 70
     0
  9
$DIMFXL
 40
1.0
  9
$DIMFXLON
 70
     0
  9
$DIMJOGANG
 40
0.7853981633974483
  9
$DIMTFILL
 70
     0
  9
$DIMTFILLCLR
 70
     0
  9
$DIMARCSYM
 70
     0
  9
$DIMLTYPE
  6

  9
$DIMLTEX1
  6

  9
$DIMLTEX2
  6

  9
$LUNITS
 70
     2
  9
$LUPREC
 70
     4
  9
$SKETCHINC
 40
0.1
  9
$FILLETRAD
 40
0.5
  9
$AUNITS
 70
     0
  9
$AUPREC
 70
     0
  9
$MENU
  1
.
  9
$ELEVATION
 40
0.0
  9
$PELEVATION
 40
0.0
  9
$THICKNESS
 40
0.0
  9
$LIMCHECK
 70
     0
  9
$CHAMFERA
 40
0.5
  9
$CHAMFERB
 40
0.5
  9
$CHAMFERC
 40
1.0
  9
$CHAMFERD
 40
0.0
  9
$SKPOLY
 70
     0
  9
$TDCREATE
 40
2458492.384819039
  9
$TDUCREATE
 40
2458492.218152373
  9
$TDUPDATE
 40
2458492.384819178
  9
$TDUUPDATE
 40
2458492.218152511
  9
$TDINDWG
 40
0.0000000116
  9
$TDUSRTIMER
 40
0.0000000116
  9
$USRTIMER
 70
     1
  9
$ANGBASE
 50
0.0
  9
$ANGDIR
 70
     0
  9
$PDMODE
 70
     0
  9
$PDSIZE
 40
0.0
  9
$PLINEWID
 40
0.0
  9
$SPLFRAME
 70
     0
  9
$SPLINETYPE
 70
     6
  9
$SPLINESEGS
 70
     8
  9
$HANDSEED
  5
B9
  9
$SURFTAB1
 70
     6
  9
$SURFTAB2
 70
     6
  9
$SURFTYPE
 70
     6
  9
$SURFU
 70
     6
  9
$SURFV
 70
     6
  9
$UCSBASE
  2

  9
$UCSNAME
  2

  9
$UCSORG
 10
0.0
 20
0.0
 30
0.0
  9
$UCSXDIR
 10
1.0
 20
0.0
 30
0.0
  9
$UCSYDIR
 10
0.0
 20
1.0
 30
0.0
  9
$UCSORTHOREF
  2

  9
$UCSORTHOVIEW
 70
     0
  9
$UCSORGTOP
 10
0.0
 20
0.0
 30
0.0
  9
$UCSORGBOTTOM
 10
0.0
 20
0.0
 30
0.0
  9
$UCSORGLEFT
 10
0.0
 20
0.0
 30
0.0
  9
$UCSORGRIGHT
 10
0.0
 20
0.0
 30
0.0
  9
$UCSORGFRONT
 10
0.0
 20
0.0
 30
0.0
  9
$UCSORGBACK
 10
0.0
 20
0.0
 30
0.0
  9
$PUCSBASE
  2

  9
$PUCSNAME
  2

  9
$PUCSORG
 10
0.0
 20
0.0
 30
0.0
  9
$PUCSXDIR
 10
1.0
 20
0.0
 30
0.0
  9
$PUCSYDIR
 10
0.0
 20
1.0
 30
0.0
  9
$PUCSORTHOREF
  2

  9
$PUCSORTHOVIEW
 70
     0
  9
$PUCSORGTOP
 10
0.0
 20
0.0
 30
0.0
  9
$PUCSORGBOTTOM
 10
0.0
 20
0.0
 30
0.0
  9
$PUCSORGLEFT
 10
0.0
 20
0.0
 30
0.0
  9
$PUCSORGRIGHT
 10
0.0
 20
0.0
 30
0.0
  9
$PUCSORGFRONT
 10
0.0
 20
0.0
 30
0.0
  9
$PUCSORGBACK
 10
0.0
 20
0.0
 30
0.0
  9
$USERI1
 70
     0
  9
$USERI2
 70
     0
  9
$USERI3
 70
     0
  9
$USERI4
 70
     0
  9
$USERI5
 70
     0
  9
$USERR1
 40
0.0
  9
$USERR2
 40
0.0
  9
$USERR3
 40
0.0
  9
$USERR4
 40
0.0
  9
$USERR5
 40
0.0
  9
$WORLDVIEW
 70
     1
  9
$SHADEDGE
 70
     3
  9
$SHADEDIF
 70
    70
  9
$TILEMODE
 70
     1
  9
$MAXACTVP
 70
    64
  9
$PINSBASE
 10
0.0
 20
0.0
 30
0.0
  9
$PLIMCHECK
 70
     0
  9
$PEXTMIN
 10
1.000000000000000E+20
 20
1.000000000000000E+20
 30
1.000000000000000E+20
  9
$PEXTMAX
 10
-1.000000000000000E+20
 20
-1.000000000000000E+20
 30
-1.000000000000000E+20
  9
$PLIMMIN
 10
0.0
 20
0.0
  9
$PLIMMAX
 10
12.0
 20
9.0
  9
$UNITMODE
 70
     0
  9
$VISRETAIN
 70
     1
  9
$PLINEGEN
 70
     0
  9
$PSLTSCALE
 70
     1
  9
$TREEDEPTH
 70
  3020
  9
$CMLSTYLE
  2
Standard
  9
$CMLJUST
 70
     0
  9
$CMLSCALE
 40
1.0
  9
$PROXYGRAPHICS
 70
     1
  9
$MEASUREMENT
 70
     0
  9
$CELWEIGHT
370
    -1
  9
$ENDCAPS
280
     0
  9
$JOINSTYLE
280
     0
  9
$LWDISPLAY
290
     0
  9
$INSUNITS
 70
     4
  9
$HYPERLINKBASE
  1

  9
$STYLESHEET
  1

  9
$XEDIT
290
     1
  9
$CEPSNTYPE
380
     0
  9
$PSTYLEMODE
290
     1
  9
$FINGERPRINTGUID
  2
{E49379BD-0D9D-40A6-911A-500FAF79F4D6}
  9
$VERSIONGUID
  2
{FAEB1C32-E019-11D5-929B-00C0DF256EC4}
  9
$EXTNAMES
290
     1
  9
$PSVPSCALE
 40
0.0
  9
$OLESTARTUP
290
     0
  9
$SORTENTS
280
   127
  9
$INDEXCTL
280
     0
  9
$HIDETEXT
280
     1
  9
$XCLIPFRAME
290
     0
  9
$HALOGAP
280
     0
  9
$OBSCOLOR
 70
   257
  9
$OBSLTYPE
280
     0
  9
$INTERSECTIONDISPLAY
280
     0
  9
$INTERSECTIONCOLOR
 70
   257
  9
$DIMASSOC
280
     2
  9
$PROJECTNAME
  1

  9
$CAMERADISPLAY
290
     0
  9
$LENSLENGTH
 40
50.0
  9
$CAMERAHEIGHT
 40
0.0
  9
$STEPSPERSEC
 40
2.0
  9
$STEPSIZE
 40
6.0
  9
$3DDWFPREC
 40
2.0
  9
$PSOLWIDTH
 40
0.25
  9
$PSOLHEIGHT
 40
4.0
  9
$LOFTANG1
 40
1.570796326794897
  9
$LOFTANG2
 40
1.570796326794897
  9
$LOFTMAG1
 40
0.0
  9
$LOFTMAG2
 40
0.0
  9
$LOFTPARAM
 70
     7
  9
$LOFTNORMALS
280
     1
  9
$LATITUDE
 40
37.795
  9
$LONGITUDE
 40
-122.394
  9
$NORTHDIRECTION
 40
0.0
  9
$TIMEZONE
 70
 -8000
  9
$LIGHTGLYPHDISPLAY
280
     1
  9
$TILEMODELIGHTSYNCH
280
     1
  9
$SOLIDHIST
280
     1
  9
$SHOWHIST
280
     1
  9
$DWFFRAME
280
     2
  9
$DGNFRAME
280
     2
  9
$REALWORLDSCALE
290
     1
  9
$INTERFERECOLOR
 62
   256
  9
$CSHADOW
280
     0
  9
$SHADOWPLANELOCATION
 40
0.0
  0
ENDSEC
  0
SECTION
  2
CLASSES
  0
CLASS
  1
ACDBDICTIONARYWDFLT
  2
AcDbDictionaryWithDefault
  3
ObjectDBX Classes
 90
        0
 91
        4
280
     0
281
     0
  0
CLASS
  1
VISUALSTYLE
  2
AcDbVisualStyle
  3
ObjectDBX Classes
 90
     4095
 91
        4
280
     0
281
     0
  0
CLASS
  1
MATERIAL
  2
AcDbMaterial
  3
ObjectDBX Classes
 90
     1153
 91
        4
280
     0
281
     0
  0
ENDSEC
  0
SECTION
  2
TABLES
  0
TABLE
  2
VPORT
  5
8
330
0
100
AcDbSymbolTable
 70
     1
  0
VPORT
  5
29
330
8
100
AcDbSymbolTableRecord
100
AcDbViewportTableRecord
  2
*Active
 70
     0
 10
0.0
 20
0.0
 11
1.0
 21
1.0
 12
10.42990654205607
 22
4.5
 13
0.0
 23
0.0
 14
0.5
 24
0.5
 15
0.5
 25
0.5
 16
0.0
 26
0.0
 36
1.0
 17
0.0
 27
0.0
 37
0.0
 40
9.0
 41
1.972972972850329
 42
50.0
 43
0.0
 44
0.0
 50
0.0
 51
0.0
 71
     0
 72
   100
 73
     1
 74
     3
 75
     0
 76
     0
 77
     0
 78
     0
281
     0
 65
     1
110
0.0
120
0.0
130
0.0
111
1.0
121
0.0
131
0.0
112
0.0
122
1.0
132
0.0
 79
     0
146
0.0
 60
     3
 61
     5
292
     1
282
     1
141
0.0
142
0.0
 63
   250
  0
ENDTAB
  0
TABLE
  2
LTYPE
  5
5
330
0
100
AcDbSymbolTable
 70
     1
  0
LTYPE
  5
14
330
5
100
AcDbSymbolTableRecord
100
AcDbLinetypeTableRecord
  2
ByBlock
 70
     0
  3

 72
    65
 73
     0
 40
0.0
  0
LTYPE
  5
15
330
5
100
AcDbSymbolTableRecord
100
AcDbLinetypeTableRecord
  2
ByLayer
 70
     0
  3

 72
    65
 73
     0
 40
0.0
  0
LTYPE
  5
16
330
5
100
AcDbSymbolTableRecord
100
AcDbLinetypeTableRecord
  2
Continuous
 70
     0
  3
Solid line
 72
    65
 73
     0
 40
0.0
  0
ENDTAB
  0
TABLE
  2
LAYER
  5
2
330
0
100
AcDbSymbolTable
 70
     2
  0
LAYER
  5
10
330
2
100
AcDbSymbolTableRecord
100
AcDbLayerTableRecord
  2
0
 70
     0
 62
     7
  6
Continuous
370
    -3
390
F
347
3E
  0
LAYER
  5
40
330
2
100
AcDbSymbolTableRecord
100
AcDbLayerTableRecord
  2
layer 1
 70
     0
 62
     7
  6
Continuous
370
    -3
390
F
347
3E
  0
ENDTAB
  0
TABLE
  2
STYLE
  5
3
330
0
100
AcDbSymbolTable
 70
     1
  0
STYLE
  5
11
330
3
100
AcDbSymbolTableRecord
100
AcDbTextStyleTableRecord
  2
Standard
 70
     0
 40
0.0
 41
1.0
 50
0.0
 71
     0
 42
0.2
  3
txt
  4

  0
ENDTAB
  0
TABLE
  2
VIEW
  5
6
330
0
100
AcDbSymbolTable
 70
     0
  0
ENDTAB
  0
TABLE
  2
UCS
  5
7
330
0
100
AcDbSymbolTable
 70
     0
  0
ENDTAB
  0
TABLE
  2
APPID
  5
9
330
0
100
AcDbSymbolTable
 70
     2
  0
APPID
  5
12
330
9
100
AcDbSymbolTableRecord
100
AcDbRegAppTableRecord
  2
ACAD
 70
     0
  0
APPID
  5
3F
330
9
100
AcDbSymbolTableRecord
100
AcDbRegAppTableRecord
  2
ODA
 70
     0
  0
ENDTAB
  0
TABLE
  2
DIMSTYLE
  5
A
330
0
100
AcDbSymbolTable
 70
     1
100
AcDbDimStyleTable
  0
DIMSTYLE
105
27
330
A
100
AcDbSymbolTableRecord
100
AcDbDimStyleTableRecord
  2
Standard
 70
     0
178
     0
340
11
  0
ENDTAB
  0
TABLE
  2
BLOCK_RECORD
  5
1
330
0
100
AcDbSymbolTable
 70
     1
  0
BLOCK_RECORD
  5
1F
330
1
100
AcDbSymbolTableRecord
100
AcDbBlockTableRecord
  2
*Model_Space
340
22
 70
     0
280
     1
281
     0
  0
BLOCK_RECORD
  5
1B
330
1
100
AcDbSymbolTableRecord
100
AcDbBlockTableRecord
  2
*Paper_Space
340
1E
 70
     0
280
     1
281
     0
  0
BLOCK_RECORD
  5
23
330
1
100
AcDbSymbolTableRecord
100
AcDbBlockTableRecord
  2
*Paper_Space0
340
26
 70
     0
280
     1
281
     0
  0
ENDTAB
  0
ENDSEC
  0
SECTION
  2
BLOCKS
  0
BLOCK
  5
20
330
1F
100
AcDbEntity
  8
0
100
AcDbBlockBegin
  2
*Model_Space
 70
     0
 10
0.0
 20
0.0
 30
0.0
  3
*Model_Space
  1

  0
ENDBLK
  5
21
330
1F
100
AcDbEntity
  8
0
100
AcDbBlockEnd
  0
BLOCK
  5
1C
330
1B
100
AcDbEntity
 67
     1
  8
0
100
AcDbBlockBegin
  2
*Paper_Space
 70
     0
 10
0.0
 20
0.0
 30
0.0
  3
*Paper_Space
  1

  0
ENDBLK
  5
1D
330
1B
100
AcDbEntity
 67
     1
  8
0
100
AcDbBlockEnd
  0
BLOCK
  5
24
330
23
100
AcDbEntity
  8
0
100
AcDbBlockBegin
  2
*Paper_Space0
 70
     0
 10
0.0
 20
0.0
 30
0.0
  3
*Paper_Space0
  1

  0
ENDBLK
  5
25
330
23
100
AcDbEntity
  8
0
100
AcDbBlockEnd
  0
ENDSEC
  0
SECTION
  2
ENTITIES
  0
LWPOLYLINE
  5
41
330
1F
100
AcDbEntity
  8
layer 1
100
AcDbPolyline
 90
        5
 70
     1
 43
0.0
 10
-55.9214
 20
-114.7846
 10
75.4302
 20
-114.7846
 10
75.4302
 20
131.8682
 10
-55.9214
 20
131.8682
 10
-55.9214
 20
-114.7846
  0
SPLINE
  5
42
330
1F
100
AcDbEntity
  8
layer 1
 62
     7
100
AcDbSpline
210
0.0
220
0.0
230
1.0
 70
    11
 71
     3
 72
    28
 73
    24
 74
     0
 42
0.0000000001
 43
0.0000000001
 12
1.0
 22
0.0
 32
0.0
 13
1.0
 23
0.0
 33
0.0
 40
0.0
 40
0.0
 40
0.0
 40
0.0
 40
0.1428571428571428
 40
0.1428571428571428
 40
0.1428571428571428
 40
0.1428571428571428
 40
0.2857142857142857
 40
0.2857142857142857
 40
0.2857142857142857
 40
0.2857142857142857
 40
0.4285714285714285
 40
0.4285714285714285
 40
0.4285714285714285
 40
0.4285714285714285
 40
0.5714285714285714
 40
0.5714285714285714
 40
0.5714285714285714
 40
0.5714285714285714
 40
0.7142857142857143
 40
0.7142857142857143
 40
0.7142857142857143
 40
0.7142857142857143
 40
1.0
 40
1.0
 40
1.0
 40
1.0
 10
54.5109
 20
52.9275
 30
0.0
 10
54.5109
 20
52.9275
 30
0.0
 10
69.4545
 20
52.9275
 30
0.0
 10
69.4545
 20
52.9275
 30
0.0
 10
69.4545
 20
52.9275
 30
0.0
 10
69.4545
 20
52.9275
 30
0.0
 10
69.4687
 20
78.2661
 30
0.0
 10
69.4687
 20
78.2661
 30
0.0
 10
69.4687
 20
78.2661
 30
0.0
 10
69.4687
 20
78.2661
 30
0.0
 10
56.3007
 20
78.2661
 30
0.0
 10
56.3007
 20
78.2661
 30
0.0
 10
56.3007
 20
78.2661
 30
0.0
 10
56.3007
 20
78.2661
 30
0.0
 10
51.5974
 20
73.4209
 30
0.0
 10
51.5974
 20
73.4209
 30
0.0
 10
51.5974
 20
73.4209
 30
0.0
 10
51.5974
 20
73.4209
 30
0.0
 10
54.5109
 20
70.3409
 30
0.0
 10
54.5109
 20
70.3409
 30
0.0
 10
54.5109
 20
70.3409
 30
0.0
 10
54.5109
 20
70.3409
 30
0.0
 10
54.5109
 20
52.9275
 30
0.0
 10
54.5109
 20
52.9275
 30
0.0
  0
SPLINE
  5
43
330
1F
100
AcDbEntity
  8
layer 1
 62
     7
100
AcDbSpline
210
0.0
220
0.0
230
1.0
 70
    11
 71
     3
 72
    52
 73
    48
 74
     0
 42
0.0000000001
 43
0.0000000001
 12
1.0
 22
0.0
 32
0.0
 13
1.0
 23
0.0
 33
0.0
 40
0.0
 40
0.0
 40
0.0
 40
0.0
 40
0.0769230769230769
 40
0.0769230769230769
 40
0.0769230769230769
 40
0.0769230769230769
 40
0.1538461538461539
 40
0.1538461538461539
 40
0.1538461538461539
 40
0.1538461538461539
 40
0.2307692307692308
 40
0.2307692307692308
 40
0.2307692307692308
 40
0.2307692307692308
 40
0.3076923076923077
 40
0.3076923076923077
 40
0.3076923076923077
 40
0.3076923076923077
 40
0.3846153846153846
 40
0.3846153846153846
 40
0.3846153846153846
 40
0.3846153846153846
 40
0.4615384615384616
 40
0.4615384615384616
 40
0.4615384615384616
 40
0.4615384615384616
 40
0.5384615384615384
 40
0.5384615384615384
 40
0.5384615384615384
 40
0.5384615384615384
 40
0.6153846153846154
 40
0.6153846153846154
 40
0.6153846153846154
 40
0.6153846153846154
 40
0.6923076923076923
 40
0.6923076923076923
 40
0.6923076923076923
 40
0.6923076923076923
 40
0.7692307692307693
 40
0.7692307692307693
 40
0.7692307692307693
 40
0.7692307692307693
 40
0.8461538461538461
 40
0.8461538461538461
 40
0.8461538461538461
 40
0.8461538461538461
 40
1.0
 40
1.0
 40
1.0
 40
1.0
 10
12.5032
 20
71.7297
 30
0.0
 10
12.5032
 20
71.7297
 30
0.0
 10
6.946
 20
71.7297
 30
0.0
 10
6.946
 20
71.7297
 30
0.0
 10
6.946
 20
71.7297
 30
0.0
 10
6.946
 20
71.7297
 30
0.0
 10
6.9453
 20
82.2771
 30
0.0
 10
6.9453
 20
82.2771
 30
0.0
 10
6.9453
 20
82.2771
 30
0.0
 10
6.9453
 20
82.2771
 30
0.0
 10
-3.6045
 20
82.2801
 30
0.0
 10
-3.6045
 20
82.2801
 30
0.0
 10
-3.6045
 20
82.2801
 30
0.0
 10
-3.6045
 20
82.2801
 30
0.0
 10
-3.6045
 20
87.8373
 30
0.0
 10
-3.6045
 20
87.8373
 30
0.0
 10
-3.6045
 20
87.8373
 30
0.0
 10
-3.6045
 20
87.8373
 30
0.0
 10
6.9495
 20
87.834
 30
0.0
 10
6.9495
 20
87.834
 30
0.0
 10
6.9495
 20
87.834
 30
0.0
 10
6.9495
 20
87.834
 30
0.0
 10
6.9457
 20
98.3877
 30
0.0
 10
6.9457
 20
98.3877
 30
0.0
 10
6.9457
 20
98.3877
 30
0.0
 10
6.9457
 20
98.3877
 30
0.0
 10
12.5029
 20
98.3877
 30
0.0
 10
12.5029
 20
98.3877
 30
0.0
 10
12.5029
 20
98.3877
 30
0.0
 10
12.5029
 20
98.3877
 30
0.0
 10
12.5062
 20
87.8425
 30
0.0
 10
12.5062
 20
87.8425
 30
0.0
 10
12.5062
 20
87.8425
 30
0.0
 10
12.5062
 20
87.8425
 30
0.0
 10
23.0533
 20
87.8372
 30
0.0
 10
23.0533
 20
87.8372
 30
0.0
 10
23.0533
 20
87.8372
 30
0.0
 10
23.0533
 20
87.8372
 30
0.0
 10
23.0533
 20
82.28
 30
0.0
 10
23.0533
 20
82.28
 30
0.0
 10
23.0533
 20
82.28
 30
0.0
 10
23.0533
 20
82.28
 30
0.0
 10
12.502
 20
82.277
 30
0.0
 10
12.502
 20
82.277
 30
0.0
 10
12.502
 20
82.277
 30
0.0
 10
12.502
 20
82.277
 30
0.0
 10
12.5032
 20
71.7297
 30
0.0
 10
12.5032
 20
71.7297
 30
0.0
  0
SPLINE
  5
44
330
1F
100
AcDbEntity
  8
layer 1
 62
     7
100
AcDbSpline
210
0.0
220
0.0
230
1.0
 70
    11
 71
     3
 72
    20
 73
    16
 74
     0
 42
0.0000000001
 43
0.0000000001
 12
1.0
 22
0.0
 32
0.0
 13
1.0
 23
0.0
 33
0.0
 40
0.0
 40
0.0
 40
0.0
 40
0.0
 40
0.2
 40
0.2
 40
0.2
 40
0.2
 40
0.4
 40
0.4
 40
0.4
 40
0.4
 40
0.6
 40
0.6
 40
0.6
 40
0.6
 40
1.0
 40
1.0
 40
1.0
 40
1.0
 10
2.7799
 20
98.259
 30
0.0
 10
2.7799
 20
98.259
 30
0.0
 10
2.7799
 20
91.9046
 30
0.0
 10
2.7799
 20
91.9046
 30
0.0
 10
2.7799
 20
91.9046
 30
0.0
 10
2.7799
 20
91.9046
 30
0.0
 10
-3.6044
 20
91.9046
 30
0.0
 10
-3.6044
 20
91.9046
 30
0.0
 10
-3.6044
 20
91.9046
 30
0.0
 10
-3.6044
 20
91.9046
 30
0.0
 10
-3.6044
 20
98.259
 30
0.0
 10
-3.6044
 20
98.259
 30
0.0
 10
-3.6044
 20
98.259
 30
0.0
 10
-3.6044
 20
98.259
 30
0.0
 10
2.7799
 20
98.259
 30
0.0
 10
2.7799
 20
98.259
 30
0.0
  0
SPLINE
  5
45
330
1F
100
AcDbEntity
  8
layer 1
 62
     7
100
AcDbSpline
210
0.0
220
0.0
230
1.0
 70
    11
 71
     3
 72
    20
 73
    16
 74
     0
 42
0.0000000001
 43
0.0000000001
 12
1.0
 22
0.0
 32
0.0
 13
1.0
 23
0.0
 33
0.0
 40
0.0
 40
0.0
 40
0.0
 40
0.0
 40
0.2
 40
0.2
 40
0.2
 40
0.2
 40
0.4
 40
0.4
 40
0.4
 40
0.4
 40
0.6
 40
0.6
 40
0.6
 40
0.6
 40
1.0
 40
1.0
 40
1.0
 40
1.0
 10
23.0562
 20
98.2394
 30
0.0
 10
23.0562
 20
98.2394
 30
0.0
 10
23.0562
 20
91.8849
 30
0.0
 10
23.0562
 20
91.8849
 30
0.0
 10
23.0562
 20
91.8849
 30
0.0
 10
23.0562
 20
91.8849
 30
0.0
 10
16.6719
 20
91.8849
 30
0.0
 10
16.6719
 20
91.8849
 30
0.0
 10
16.6719
 20
91.8849
 30
0.0
 10
16.6719
 20
91.8849
 30
0.0
 10
16.6719
 20
98.2394
 30
0.0
 10
16.6719
 20
98.2394
 30
0.0
 10
16.6719
 20
98.2394
 30
0.0
 10
16.6719
 20
98.2394
 30
0.0
 10
23.0562
 20
98.2394
 30
0.0
 10
23.0562
 20
98.2394
 30
0.0
  0
SPLINE
  5
46
330
1F
100
AcDbEntity
  8
layer 1
 62
     7
100
AcDbSpline
210
0.0
220
0.0
230
1.0
 70
    11
 71
     3
 72
    20
 73
    16
 74
     0
 42
0.0000000001
 43
0.0000000001
 12
1.0
 22
0.0
 32
0.0
 13
1.0
 23
0.0
 33
0.0
 40
0.0
 40
0.0
 40
0.0
 40
0.0
 40
0.2
 40
0.2
 40
0.2
 40
0.2
 40
0.4
 40
0.4
 40
0.4
 40
0.4
 40
0.6
 40
0.6
 40
0.6
 40
0.6
 40
1.0
 40
1.0
 40
1.0
 40
1.0
 10
2.7799
 20
77.9521
 30
0.0
 10
2.7799
 20
77.9521
 30
0.0
 10
2.7799
 20
71.5977
 30
0.0
 10
2.7799
 20
71.5977
 30
0.0
 10
2.7799
 20
71.5977
 30
0.0
 10
2.7799
 20
71.5977
 30
0.0
 10
-3.6044
 20
71.5977
 30
0.0
 10
-3.6044
 20
71.5977
 30
0.0
 10
-3.6044
 20
71.5977
 30
0.0
 10
-3.6044
 20
71.5977
 30
0.0
 10
-3.6044
 20
77.9521
 30
0.0
 10
-3.6044
 20
77.9521
 30
0.0
 10
-3.6044
 20
77.9521
 30
0.0
 10
-3.6044
 20
77.9521
 30
0.0
 10
2.7799
 20
77.9521
 30
0.0
 10
2.7799
 20
77.9521
 30
0.0
  0
SPLINE
  5
47
330
1F
100
AcDbEntity
  8
layer 1
 62
     7
100
AcDbSpline
210
0.0
220
0.0
230
1.0
 70
    11
 71
     3
 72
    20
 73
    16
 74
     0
 42
0.0000000001
 43
0.0000000001
 12
1.0
 22
0.0
 32
0.0
 13
1.0
 23
0.0
 33
0.0
 40
0.0
 40
0.0
 40
0.0
 40
0.0
 40
0.2
 40
0.2
 40
0.2
 40
0.2
 40
0.4
 40
0.4
 40
0.4
 40
0.4
 40
0.6
 40
0.6
 40
0.6
 40
0.6
 40
1.0
 40
1.0
 40
1.0
 40
1.0
 10
23.0562
 20
77.9325
 30
0.0
 10
23.0562
 20
77.9325
 30
0.0
 10
23.0562
 20
71.578
 30
0.0
 10
23.0562
 20
71.578
 30
0.0
 10
23.0562
 20
71.578
 30
0.0
 10
23.0562
 20
71.578
 30
0.0
 10
16.6719
 20
71.578
 30
0.0
 10
16.6719
 20
71.578
 30
0.0
 10
16.6719
 20
71.578
 30
0.0
 10
16.6719
 20
71.578
 30
0.0
 10
16.6719
 20
77.9325
 30
0.0
 10
16.6719
 20
77.9325
 30
0.0
 10
16.6719
 20
77.9325
 30
0.0
 10
16.6719
 20
77.9325
 30
0.0
 10
23.0562
 20
77.9325
 30
0.0
 10
23.0562
 20
77.9325
 30
0.0
  0
SPLINE
  5
48
330
1F
100
AcDbEntity
  8
layer 1
 62
     7
100
AcDbSpline
210
0.0
220
0.0
230
1.0
 70
    11
 71
     3
 72
    44
 73
    40
 74
     0
 42
0.0000000001
 43
0.0000000001
 12
1.0
 22
0.0
 32
0.0
 13
1.0
 23
0.0
 33
0.0
 40
0.0
 40
0.0
 40
0.0
 40
0.0
 40
0.0909090909090909
 40
0.0909090909090909
 40
0.0909090909090909
 40
0.0909090909090909
 40
0.1818181818181818
 40
0.1818181818181818
 40
0.1818181818181818
 40
0.1818181818181818
 40
0.2727272727272727
 40
0.2727272727272727
 40
0.2727272727272727
 40
0.2727272727272727
 40
0.3636363636363636
 40
0.3636363636363636
 40
0.3636363636363636
 40
0.3636363636363636
 40
0.4545454545454545
 40
0.4545454545454545
 40
0.4545454545454545
 40
0.4545454545454545
 40
0.5454545454545454
 40
0.5454545454545454
 40
0.5454545454545454
 40
0.5454545454545454
 40
0.6363636363636364
 40
0.6363636363636364
 40
0.6363636363636364
 40
0.6363636363636364
 40
0.7272727272727273
 40
0.7272727272727273
 40
0.7272727272727273
 40
0.7272727272727273
 40
0.8181818181818182
 40
0.8181818181818182
 40
0.8181818181818182
 40
0.8181818181818182
 40
1.0
 40
1.0
 40
1.0
 40
1.0
 10
-8.0746
 20
87.8373
 30
0.0
 10
-8.0746
 20
87.8373
 30
0.0
 10
-8.0746
 20
82.2801
 30
0.0
 10
-8.0746
 20
82.2801
 30
0.0
 10
-8.0746
 20
82.2801
 30
0.0
 10
-8.0746
 20
82.2801
 30
0.0
 10
-23.1619
 20
82.2801
 30
0.0
 10
-23.1619
 20
82.2801
 30
0.0
 10
-23.1619
 20
82.2801
 30
0.0
 10
-23.1619
 20
82.2801
 30
0.0
 10
-28.9888
 20
76.3681
 30
0.0
 10
-28.9888
 20
76.3681
 30
0.0
 10
-28.9888
 20
76.3681
 30
0.0
 10
-28.9888
 20
76.3681
 30
0.0
 10
-35.0741
 20
82.2801
 30
0.0
 10
-35.0741
 20
82.2801
 30
0.0
 10
-35.0741
 20
82.2801
 30
0.0
 10
-35.0741
 20
82.2801
 30
0.0
 10
-50.0344
 20
82.2801
 30
0.0
 10
-50.0344
 20
82.2801
 30
0.0
 10
-50.0344
 20
82.2801
 30
0.0
 10
-50.0344
 20
82.2801
 30
0.0
 10
-50.0344
 20
87.8373
 30
0.0
 10
-50.0344
 20
87.8373
 30
0.0
 10
-50.0344
 20
87.8373
 30
0.0
 10
-45.0308
 20
87.8373
 30
0.0
 10
-40.0272
 20
87.8373
 30
0.0
 10
-35.0236
 20
87.8373
 30
0.0
 10
-35.0236
 20
87.8373
 30
0.0
 10
-35.0236
 20
87.8373
 30
0.0
 10
-28.9888
 20
93.8126
 30
0.0
 10
-28.9888
 20
93.8126
 30
0.0
 10
-28.9888
 20
93.8126
 30
0.0
 10
-28.9888
 20
93.8126
 30
0.0
 10
-23.2125
 20
87.8373
 30
0.0
 10
-23.2125
 20
87.8373
 30
0.0
 10
-23.2125
 20
87.8373
 30
0.0
 10
-18.1665
 20
87.8373
 30
0.0
 10
-13.1206
 20
87.8373
 30
0.0
 10
-8.0746
 20
87.8373
 30
0.0
  0
SPLINE
  5
49
330
1F
100
AcDbEntity
  8
layer 1
 62
     7
100
AcDbSpline
210
0.0
220
0.0
230
1.0
 70
    11
 71
     3
 72
    24
 73
    20
 74
     0
 42
0.0000000001
 43
0.0000000001
 12
1.0
 22
0.0
 32
0.0
 13
1.0
 23
0.0
 33
0.0
 40
0.0
 40
0.0
 40
0.0
 40
0.0
 40
0.1666666666666667
 40
0.1666666666666667
 40
0.1666666666666667
 40
0.1666666666666667
 40
0.3333333333333333
 40
0.3333333333333333
 40
0.3333333333333333
 40
0.3333333333333333
 40
0.5
 40
0.5
 40
0.5
 40
0.5
 40
0.6666666666666666
 40
0.6666666666666666
 40
0.6666666666666666
 40
0.6666666666666666
 40
1.0
 40
1.0
 40
1.0
 40
1.0
 10
-30.6657
 20
117.1161
 30
0.0
 10
-30.6657
 20
117.1161
 30
0.0
 10
-26.9734
 20
117.1161
 30
0.0
 10
-26.9734
 20
117.1161
 30
0.0
 10
-26.9734
 20
117.1161
 30
0.0
 10
-26.9734
 20
117.1161
 30
0.0
 10
-26.9734
 20
102.1418
 30
0.0
 10
-26.9734
 20
102.1418
 30
0.0
 10
-26.9734
 20
102.1418
 30
0.0
 10
-26.9734
 20
102.1418
 30
0.0
 10
-28.9059
 20
99.6108
 30
0.0
 10
-28.9059
 20
99.6108
 30
0.0
 10
-28.9059
 20
99.6108
 30
0.0
 10
-28.9059
 20
99.6108
 30
0.0
 10
-30.6657
 20
102.1418
 30
0.0
 10
-30.6657
 20
102.1418
 30
0.0
 10
-30.6657
 20
102.1418
 30
0.0
 10
-30.6657
 20
102.1418
 30
0.0
 10
-30.6657
 20
117.1161
 30
0.0
 10
-30.6657
 20
117.1161
 30
0.0
  0
SPLINE
  5
4A
330
1F
100
AcDbEntity
  8
layer 1
 62
     7
100
AcDbSpline
210
0.0
220
0.0
230
1.0
 70
    11
 71
     3
 72
    44
 73
    40
 74
     0
 42
0.0000000001
 43
0.0000000001
 12
1.0
 22
0.0
 32
0.0
 13
1.0
 23
0.0
 33
0.0
 40
0.0
 40
0.0
 40
0.0
 40
0.0
 40
0.0909090909090909
 40
0.0909090909090909
 40
0.0909090909090909
 40
0.0909090909090909
 40
0.1818181818181818
 40
0.1818181818181818
 40
0.1818181818181818
 40
0.1818181818181818
 40
0.2727272727272727
 40
0.2727272727272727
 40
0.2727272727272727
 40
0.2727272727272727
 40
0.3636363636363636
 40
0.3636363636363636
 40
0.3636363636363636
 40
0.3636363636363636
 40
0.4545454545454545
 40
0.4545454545454545
 40
0.4545454545454545
 40
0.4545454545454545
 40
0.5454545454545454
 40
0.5454545454545454
 40
0.5454545454545454
 40
0.5454545454545454
 40
0.6363636363636364
 40
0.6363636363636364
 40
0.6363636363636364
 40
0.6363636363636364
 40
0.7272727272727273
 40
0.7272727272727273
 40
0.7272727272727273
 40
0.7272727272727273
 40
0.8181818181818182
 40
0.8181818181818182
 40
0.8181818181818182
 40
0.8181818181818182
 40
1.0
 40
1.0
 40
1.0
 40
1.0
 10
-22.841
 20
117.1161
 30
0.0
 10
-22.841
 20
117.1161
 30
0.0
 10
-5.4345
 20
117.1161
 30
0.0
 10
-5.4345
 20
117.1161
 30
0.0
 10
-5.4345
 20
117.1161
 30
0.0
 10
-5.4345
 20
117.1161
 30
0.0
 10
-2.0633
 20
120.1128
 30
0.0
 10
-2.0633
 20
120.1128
 30
0.0
 10
-2.0633
 20
120.1128
 30
0.0
 10
-2.0633
 20
120.1128
 30
0.0
 10
2.6193
 20
115.4095
 30
0.0
 10
2.6193
 20
115.4095
 30
0.0
 10
2.6193
 20
115.4095
 30
0.0
 10
2.6193
 20
115.4095
 30
0.0
 10
2.5361
 20
102.5994
 30
0.0
 10
2.5361
 20
102.5994
 30
0.0
 10
2.5361
 20
102.5994
 30
0.0
 10
2.5361
 20
102.5994
 30
0.0
 10
-7.8456
 20
102.4825
 30
0.0
 10
-7.8456
 20
102.4825
 30
0.0
 10
-7.8456
 20
102.4825
 30
0.0
 10
-7.8456
 20
102.4825
 30
0.0
 10
-7.8831
 20
91.7775
 30
0.0
 10
-7.8831
 20
91.7775
 30
0.0
 10
-7.8831
 20
91.7775
 30
0.0
 10
-7.8831
 20
91.7775
 30
0.0
 10
-21.0512
 20
91.7775
 30
0.0
 10
-21.0512
 20
91.7775
 30
0.0
 10
-21.0512
 20
91.7775
 30
0.0
 10
-21.0512
 20
91.7775
 30
0.0
 10
-25.7544
 20
96.6227
 30
0.0
 10
-25.7544
 20
96.6227
 30
0.0
 10
-25.7544
 20
96.6227
 30
0.0
 10
-25.7544
 20
96.6227
 30
0.0
 10
-22.841
 20
99.7028
 30
0.0
 10
-22.841
 20
99.7028
 30
0.0
 10
-22.841
 20
99.7028
 30
0.0
 10
-22.841
 20
99.7028
 30
0.0
 10
-22.841
 20
117.1161
 30
0.0
 10
-22.841
 20
117.1161
 30
0.0
  0
SPLINE
  5
4B
330
1F
100
AcDbEntity
  8
layer 1
 62
     7
100
AcDbSpline
210
0.0
220
0.0
230
1.0
 70
    11
 71
     3
 72
    24
 73
    20
 74
     0
 42
0.0000000001
 43
0.0000000001
 12
1.0
 22
0.0
 32
0.0
 13
1.0
 23
0.0
 33
0.0
 40
0.0
 40
0.0
 40
0.0
 40
0.0
 40
0.1666666666666667
 40
0.1666666666666667
 40
0.1666666666666667
 40
0.1666666666666667
 40
0.3333333333333333
 40
0.3333333333333333
 40
0.3333333333333333
 40
0.3333333333333333
 40
0.5
 40
0.5
 40
0.5
 40
0.5
 40
0.6666666666666666
 40
0.6666666666666666
 40
0.6666666666666666
 40
0.6666666666666666
 40
1.0
 40
1.0
 40
1.0
 40
1.0
 10
-22.9154
 20
121.2928
 30
0.0
 10
-22.9154
 20
121.2928
 30
0.0
 10
-22.9154
 20
124.9852
 30
0.0
 10
-22.9154
 20
124.9852
 30
0.0
 10
-22.9154
 20
124.9852
 30
0.0
 10
-22.9154
 20
124.9852
 30
0.0
 10
-7.941
 20
124.9852
 30
0.0
 10
-7.941
 20
124.9852
 30
0.0
 10
-7.941
 20
124.9852
 30
0.0
 10
-7.941
 20
124.9852
 30
0.0
 10
-5.41
 20
123.0526
 30
0.0
 10
-5.41
 20
123.0526
 30
0.0
 10
-5.41
 20
123.0526
 30
0.0
 10
-5.41
 20
123.0526
 30
0.0
 10
-7.941
 20
121.2928
 30
0.0
 10
-7.941
 20
121.2928
 30
0.0
 10
-7.941
 20
121.2928
 30
0.0
 10
-7.941
 20
121.2928
 30
0.0
 10
-22.9154
 20
121.2928
 30
0.0
 10
-22.9154
 20
121.2928
 30
0.0
  0
SPLINE
  5
4C
330
1F
100
AcDbEntity
  8
layer 1
 62
     7
100
AcDbSpline
210
0.0
220
0.0
230
1.0
 70
    11
 71
     3
 72
    20
 73
    16
 74
     0
 42
0.0000000001
 43
0.0000000001
 12
1.0
 22
0.0
 32
0.0
 13
1.0
 23
0.0
 33
0.0
 40
0.0
 40
0.0
 40
0.0
 40
0.0
 40
0.2
 40
0.2
 40
0.2
 40
0.2
 40
0.4
 40
0.4
 40
0.4
 40
0.4
 40
0.6
 40
0.6
 40
0.6
 40
0.6
 40
1.0
 40
1.0
 40
1.0
 40
1.0
 10
-26.8448
 20
124.9852
 30
0.0
 10
-26.8448
 20
124.9852
 30
0.0
 10
-26.8448
 20
121.2928
 30
0.0
 10
-26.8448
 20
121.2928
 30
0.0
 10
-26.8448
 20
121.2928
 30
0.0
 10
-26.8448
 20
121.2928
 30
0.0
 10
-30.748
 20
121.2928
 30
0.0
 10
-30.748
 20
121.2928
 30
0.0
 10
-30.748
 20
121.2928
 30
0.0
 10
-30.748
 20
121.2928
 30
0.0
 10
-30.748
 20
124.9852
 30
0.0
 10
-30.748
 20
124.9852
 30
0.0
 10
-30.748
 20
124.9852
 30
0.0
 10
-30.748
 20
124.9852
 30
0.0
 10
-26.8448
 20
124.9852
 30
0.0
 10
-26.8448
 20
124.9852
 30
0.0
  0
SPLINE
  5
4D
330
1F
100
AcDbEntity
  8
layer 1
 62
     7
100
AcDbSpline
210
0.0
220
0.0
230
1.0
 70
    11
 71
     3
 72
    20
 73
    16
 74
     0
 42
0.0000000001
 43
0.0000000001
 12
1.0
 22
0.0
 32
0.0
 13
1.0
 23
0.0
 33
0.0
 40
0.0
 40
0.0
 40
0.0
 40
0.0
 40
0.2
 40
0.2
 40
0.2
 40
0.2
 40
0.4
 40
0.4
 40
0.4
 40
0.4
 40
0.6
 40
0.6
 40
0.6
 40
0.6
 40
1.0
 40
1.0
 40
1.0
 40
1.0
 10
-34.9609
 20
124.9852
 30
0.0
 10
-34.9609
 20
124.9852
 30
0.0
 10
-34.9609
 20
121.2928
 30
0.0
 10
-34.9609
 20
121.2928
 30
0.0
 10
-34.9609
 20
121.2928
 30
0.0
 10
-34.9609
 20
121.2928
 30
0.0
 10
-49.9353
 20
121.2928
 30
0.0
 10
-49.9353
 20
121.2928
 30
0.0
 10
-49.9353
 20
121.2928
 30
0.0
 10
-49.9353
 20
121.2928
 30
0.0
 10
-49.9353
 20
124.9852
 30
0.0
 10
-49.9353
 20
124.9852
 30
0.0
 10
-49.9353
 20
124.9852
 30
0.0
 10
-49.9353
 20
124.9852
 30
0.0
 10
-34.9609
 20
124.9852
 30
0.0
 10
-34.9609
 20
124.9852
 30
0.0
  0
SPLINE
  5
4E
330
1F
100
AcDbEntity
  8
layer 1
 62
     7
100
AcDbSpline
210
0.0
220
0.0
230
1.0
 70
    11
 71
     3
 72
    28
 73
    24
 74
     0
 42
0.0000000001
 43
0.0000000001
 12
1.0
 22
0.0
 32
0.0
 13
1.0
 23
0.0
 33
0.0
 40
0.0
 40
0.0
 40
0.0
 40
0.0
 40
0.1428571428571428
 40
0.1428571428571428
 40
0.1428571428571428
 40
0.1428571428571428
 40
0.2857142857142857
 40
0.2857142857142857
 40
0.2857142857142857
 40
0.2857142857142857
 40
0.4285714285714285
 40
0.4285714285714285
 40
0.4285714285714285
 40
0.4285714285714285
 40
0.5714285714285714
 40
0.5714285714285714
 40
0.5714285714285714
 40
0.5714285714285714
 40
0.7142857142857143
 40
0.7142857142857143
 40
0.7142857142857143
 40
0.7142857142857143
 40
1.0
 40
1.0
 40
1.0
 40
1.0
 10
-34.9647
 20
117.1161
 30
0.0
 10
-34.9647
 20
117.1161
 30
0.0
 10
-50.0345
 20
117.1161
 30
0.0
 10
-50.0345
 20
117.1161
 30
0.0
 10
-50.0345
 20
117.1161
 30
0.0
 10
-50.0345
 20
117.1161
 30
0.0
 10
-49.9226
 20
91.7775
 30
0.0
 10
-49.9226
 20
91.7775
 30
0.0
 10
-49.9226
 20
91.7775
 30
0.0
 10
-49.9226
 20
91.7775
 30
0.0
 10
-36.7545
 20
91.7775
 30
0.0
 10
-36.7545
 20
91.7775
 30
0.0
 10
-36.7545
 20
91.7775
 30
0.0
 10
-36.7545
 20
91.7775
 30
0.0
 10
-32.0513
 20
96.6227
 30
0.0
 10
-32.0513
 20
96.6227
 30
0.0
 10
-32.0513
 20
96.6227
 30
0.0
 10
-32.0513
 20
96.6227
 30
0.0
 10
-34.9647
 20
99.7028
 30
0.0
 10
-34.9647
 20
99.7028
 30
0.0
 10
-34.9647
 20
99.7028
 30
0.0
 10
-34.9647
 20
99.7028
 30
0.0
 10
-34.9647
 20
117.1161
 30
0.0
 10
-34.9647
 20
117.1161
 30
0.0
  0
SPLINE
  5
4F
330
1F
100
AcDbEntity
  8
layer 1
 62
     7
100
AcDbSpline
210
0.0
220
0.0
230
1.0
 70
    11
 71
     3
 72
    36
 73
    32
 74
     0
 42
0.0000000001
 43
0.0000000001
 12
1.0
 22
0.0
 32
0.0
 13
1.0
 23
0.0
 33
0.0
 40
0.0
 40
0.0
 40
0.0
 40
0.0
 40
0.1111111111111111
 40
0.1111111111111111
 40
0.1111111111111111
 40
0.1111111111111111
 40
0.2222222222222222
 40
0.2222222222222222
 40
0.2222222222222222
 40
0.2222222222222222
 40
0.3333333333333333
 40
0.3333333333333333
 40
0.3333333333333333
 40
0.3333333333333333
 40
0.4444444444444444
 40
0.4444444444444444
 40
0.4444444444444444
 40
0.4444444444444444
 40
0.5555555555555556
 40
0.5555555555555556
 40
0.5555555555555556
 40
0.5555555555555556
 40
0.6666666666666666
 40
0.6666666666666666
 40
0.6666666666666666
 40
0.6666666666666666
 40
0.7777777777777778
 40
0.7777777777777778
 40
0.7777777777777778
 40
0.7777777777777778
 40
1.0
 40
1.0
 40
1.0
 40
1.0
 10
12.4935
 20
102.5881
 30
0.0
 10
12.4935
 20
102.5881
 30
0.0
 10
12.4054
 20
117.1161
 30
0.0
 10
12.4054
 20
117.1161
 30
0.0
 10
12.4054
 20
117.1161
 30
0.0
 10
12.4054
 20
117.1161
 30
0.0
 10
18.6113
 20
123.085
 30
0.0
 10
18.6113
 20
123.085
 30
0.0
 10
18.6113
 20
123.085
 30
0.0
 10
18.6113
 20
123.085
 30
0.0
 10
16.0734
 20
125.0175
 30
0.0
 10
16.0734
 20
125.0175
 30
0.0
 10
16.0734
 20
125.0175
 30
0.0
 10
11.9068
 20
125.0175
 30
0.0
 10
7.7402
 20
125.0175
 30
0.0
 10
3.5735
 20
125.0175
 30
0.0
 10
3.5735
 20
125.0175
 30
0.0
 10
3.5735
 20
125.0175
 30
0.0
 10
1.0356
 20
123.085
 30
0.0
 10
1.0356
 20
123.085
 30
0.0
 10
1.0356
 20
123.085
 30
0.0
 10
1.0356
 20
123.085
 30
0.0
 10
7.2415
 20
117.1161
 30
0.0
 10
7.2415
 20
117.1161
 30
0.0
 10
7.2415
 20
117.1161
 30
0.0
 10
7.2415
 20
117.1161
 30
0.0
 10
7.1534
 20
102.588
 30
0.0
 10
7.1534
 20
102.588
 30
0.0
 10
7.1534
 20
102.588
 30
0.0
 10
7.1534
 20
102.588
 30
0.0
 10
12.4935
 20
102.5881
 30
0.0
 10
12.4935
 20
102.5881
 30
0.0
  0
SPLINE
  5
50
330
1F
100
AcDbEntity
  8
layer 1
 62
     7
100
AcDbSpline
210
0.0
220
0.0
230
1.0
 70
    11
 71
     3
 72
    44
 73
    40
 74
     0
 42
0.0000000001
 43
0.0000000001
 12
1.0
 22
0.0
 32
0.0
 13
1.0
 23
0.0
 33
0.0
 40
0.0
 40
0.0
 40
0.0
 40
0.0
 40
0.0909090909090909
 40
0.0909090909090909
 40
0.0909090909090909
 40
0.0909090909090909
 40
0.1818181818181818
 40
0.1818181818181818
 40
0.1818181818181818
 40
0.1818181818181818
 40
0.2727272727272727
 40
0.2727272727272727
 40
0.2727272727272727
 40
0.2727272727272727
 40
0.3636363636363636
 40
0.3636363636363636
 40
0.3636363636363636
 40
0.3636363636363636
 40
0.4545454545454545
 40
0.4545454545454545
 40
0.4545454545454545
 40
0.4545454545454545
 40
0.5454545454545454
 40
0.5454545454545454
 40
0.5454545454545454
 40
0.5454545454545454
 40
0.6363636363636364
 40
0.6363636363636364
 40
0.6363636363636364
 40
0.6363636363636364
 40
0.7272727272727273
 40
0.7272727272727273
 40
0.7272727272727273
 40
0.7272727272727273
 40
0.8181818181818182
 40
0.8181818181818182
 40
0.8181818181818182
 40
0.8181818181818182
 40
1.0
 40
1.0
 40
1.0
 40
1.0
 10
69.3516
 20
87.8373
 30
0.0
 10
69.3516
 20
87.8373
 30
0.0
 10
69.3516
 20
82.2801
 30
0.0
 10
69.3516
 20
82.2801
 30
0.0
 10
69.3516
 20
82.2801
 30
0.0
 10
69.3516
 20
82.2801
 30
0.0
 10
54.4374
 20
82.2801
 30
0.0
 10
54.4374
 20
82.2801
 30
0.0
 10
54.4374
 20
82.2801
 30
0.0
 10
54.4374
 20
82.2801
 30
0.0
 10
48.4375
 20
76.4047
 30
0.0
 10
48.4375
 20
76.4047
 30
0.0
 10
48.4375
 20
76.4047
 30
0.0
 10
48.4375
 20
76.4047
 30
0.0
 10
42.6617
 20
82.2801
 30
0.0
 10
42.6617
 20
82.2801
 30
0.0
 10
42.6617
 20
82.2801
 30
0.0
 10
42.6617
 20
82.2801
 30
0.0
 10
27.8729
 20
82.2801
 30
0.0
 10
27.8729
 20
82.2801
 30
0.0
 10
27.8729
 20
82.2801
 30
0.0
 10
27.8729
 20
82.2801
 30
0.0
 10
27.8729
 20
87.8373
 30
0.0
 10
27.8729
 20
87.8373
 30
0.0
 10
27.8729
 20
87.8373
 30
0.0
 10
32.8192
 20
87.8373
 30
0.0
 10
37.7654
 20
87.8373
 30
0.0
 10
42.7117
 20
87.8373
 30
0.0
 10
42.7117
 20
87.8373
 30
0.0
 10
42.7117
 20
87.8373
 30
0.0
 10
48.4375
 20
93.8127
 30
0.0
 10
48.4375
 20
93.8127
 30
0.0
 10
48.4375
 20
93.8127
 30
0.0
 10
48.4375
 20
93.8127
 30
0.0
 10
54.3875
 20
87.8373
 30
0.0
 10
54.3875
 20
87.8373
 30
0.0
 10
54.3875
 20
87.8373
 30
0.0
 10
59.3755
 20
87.8373
 30
0.0
 10
64.3636
 20
87.8373
 30
0.0
 10
69.3516
 20
87.8373
 30
0.0
  0
SPLINE
  5
51
330
1F
100
AcDbEntity
  8
layer 1
 62
     7
100
AcDbSpline
210
0.0
220
0.0
230
1.0
 70
    11
 71
     3
 72
    24
 73
    20
 74
     0
 42
0.0000000001
 43
0.0000000001
 12
1.0
 22
0.0
 32
0.0
 13
1.0
 23
0.0
 33
0.0
 40
0.0
 40
0.0
 40
0.0
 40
0.0
 40
0.1666666666666667
 40
0.1666666666666667
 40
0.1666666666666667
 40
0.1666666666666667
 40
0.3333333333333333
 40
0.3333333333333333
 40
0.3333333333333333
 40
0.3333333333333333
 40
0.5
 40
0.5
 40
0.5
 40
0.5
 40
0.6666666666666666
 40
0.6666666666666666
 40
0.6666666666666666
 40
0.6666666666666666
 40
1.0
 40
1.0
 40
1.0
 40
1.0
 10
46.7605
 20
117.1161
 30
0.0
 10
46.7605
 20
117.1161
 30
0.0
 10
50.4529
 20
117.1161
 30
0.0
 10
50.4529
 20
117.1161
 30
0.0
 10
50.4529
 20
117.1161
 30
0.0
 10
50.4529
 20
117.1161
 30
0.0
 10
50.4529
 20
102.1418
 30
0.0
 10
50.4529
 20
102.1418
 30
0.0
 10
50.4529
 20
102.1418
 30
0.0
 10
50.4529
 20
102.1418
 30
0.0
 10
48.5203
 20
99.6108
 30
0.0
 10
48.5203
 20
99.6108
 30
0.0
 10
48.5203
 20
99.6108
 30
0.0
 10
48.5203
 20
99.6108
 30
0.0
 10
46.7605
 20
102.1418
 30
0.0
 10
46.7605
 20
102.1418
 30
0.0
 10
46.7605
 20
102.1418
 30
0.0
 10
46.7605
 20
102.1418
 30
0.0
 10
46.7605
 20
117.1161
 30
0.0
 10
46.7605
 20
117.1161
 30
0.0
  0
SPLINE
  5
52
330
1F
100
AcDbEntity
  8
layer 1
 62
     7
100
AcDbSpline
210
0.0
220
0.0
230
1.0
 70
    11
 71
     3
 72
    28
 73
    24
 74
     0
 42
0.0000000001
 43
0.0000000001
 12
1.0
 22
0.0
 32
0.0
 13
1.0
 23
0.0
 33
0.0
 40
0.0
 40
0.0
 40
0.0
 40
0.0
 40
0.1428571428571428
 40
0.1428571428571428
 40
0.1428571428571428
 40
0.1428571428571428
 40
0.2857142857142857
 40
0.2857142857142857
 40
0.2857142857142857
 40
0.2857142857142857
 40
0.4285714285714285
 40
0.4285714285714285
 40
0.4285714285714285
 40
0.4285714285714285
 40
0.5714285714285714
 40
0.5714285714285714
 40
0.5714285714285714
 40
0.5714285714285714
 40
0.7142857142857143
 40
0.7142857142857143
 40
0.7142857142857143
 40
0.7142857142857143
 40
1.0
 40
1.0
 40
1.0
 40
1.0
 10
54.5853
 20
117.1161
 30
0.0
 10
54.5853
 20
117.1161
 30
0.0
 10
69.4543
 20
117.1161
 30
0.0
 10
69.4543
 20
117.1161
 30
0.0
 10
69.4543
 20
117.1161
 30
0.0
 10
69.4543
 20
117.1161
 30
0.0
 10
69.543
 20
91.7775
 30
0.0
 10
69.543
 20
91.7775
 30
0.0
 10
69.543
 20
91.7775
 30
0.0
 10
69.543
 20
91.7775
 30
0.0
 10
56.3749
 20
91.7775
 30
0.0
 10
56.3749
 20
91.7775
 30
0.0
 10
56.3749
 20
91.7775
 30
0.0
 10
56.3749
 20
91.7775
 30
0.0
 10
51.6717
 20
96.6227
 30
0.0
 10
51.6717
 20
96.6227
 30
0.0
 10
51.6717
 20
96.6227
 30
0.0
 10
51.6717
 20
96.6227
 30
0.0
 10
54.5851
 20
99.7028
 30
0.0
 10
54.5851
 20
99.7028
 30
0.0
 10
54.5851
 20
99.7028
 30
0.0
 10
54.5851
 20
99.7028
 30
0.0
 10
54.5853
 20
117.1161
 30
0.0
 10
54.5853
 20
117.1161
 30
0.0
  0
SPLINE
  5
53
330
1F
100
AcDbEntity
  8
layer 1
 62
     7
100
AcDbSpline
210
0.0
220
0.0
230
1.0
 70
    11
 71
     3
 72
    20
 73
    16
 74
     0
 42
0.0000000001
 43
0.0000000001
 12
1.0
 22
0.0
 32
0.0
 13
1.0
 23
0.0
 33
0.0
 40
0.0
 40
0.0
 40
0.0
 40
0.0
 40
0.2
 40
0.2
 40
0.2
 40
0.2
 40
0.4
 40
0.4
 40
0.4
 40
0.4
 40
0.6
 40
0.6
 40
0.6
 40
0.6
 40
1.0
 40
1.0
 40
1.0
 40
1.0
 10
54.5109
 20
121.2928
 30
0.0
 10
54.5109
 20
121.2928
 30
0.0
 10
54.5109
 20
124.9852
 30
0.0
 10
54.5109
 20
124.9852
 30
0.0
 10
54.5109
 20
124.9852
 30
0.0
 10
54.5109
 20
124.9852
 30
0.0
 10
69.4852
 20
124.9852
 30
0.0
 10
69.4852
 20
124.9852
 30
0.0
 10
69.4852
 20
124.9852
 30
0.0
 10
69.4852
 20
124.9852
 30
0.0
 10
69.4852
 20
121.2928
 30
0.0
 10
69.4852
 20
121.2928
 30
0.0
 10
69.4852
 20
121.2928
 30
0.0
 10
69.4852
 20
121.2928
 30
0.0
 10
54.5109
 20
121.2928
 30
0.0
 10
54.5109
 20
121.2928
 30
0.0
  0
SPLINE
  5
54
330
1F
100
AcDbEntity
  8
layer 1
 62
     7
100
AcDbSpline
210
0.0
220
0.0
230
1.0
 70
    11
 71
     3
 72
    20
 73
    16
 74
     0
 42
0.0000000001
 43
0.0000000001
 12
1.0
 22
0.0
 32
0.0
 13
1.0
 23
0.0
 33
0.0
 40
0.0
 40
0.0
 40
0.0
 40
0.0
 40
0.2
 40
0.2
 40
0.2
 40
0.2
 40
0.4
 40
0.4
 40
0.4
 40
0.4
 40
0.6
 40
0.6
 40
0.6
 40
0.6
 40
1.0
 40
1.0
 40
1.0
 40
1.0
 10
50.5814
 20
124.9852
 30
0.0
 10
50.5814
 20
124.9852
 30
0.0
 10
50.5814
 20
121.2928
 30
0.0
 10
50.5814
 20
121.2928
 30
0.0
 10
50.5814
 20
121.2928
 30
0.0
 10
50.5814
 20
121.2928
 30
0.0
 10
46.6783
 20
121.2928
 30
0.0
 10
46.6783
 20
121.2928
 30
0.0
 10
46.6783
 20
121.2928
 30
0.0
 10
46.6783
 20
121.2928
 30
0.0
 10
46.6783
 20
124.9852
 30
0.0
 10
46.6783
 20
124.9852
 30
0.0
 10
46.6783
 20
124.9852
 30
0.0
 10
46.6783
 20
124.9852
 30
0.0
 10
50.5814
 20
124.9852
 30
0.0
 10
50.5814
 20
124.9852
 30
0.0
  0
SPLINE
  5
55
330
1F
100
AcDbEntity
  8
layer 1
 62
     7
100
AcDbSpline
210
0.0
220
0.0
230
1.0
 70
    11
 71
     3
 72
    24
 73
    20
 74
     0
 42
0.0000000001
 43
0.0000000001
 12
1.0
 22
0.0
 32
0.0
 13
1.0
 23
0.0
 33
0.0
 40
0.0
 40
0.0
 40
0.0
 40
0.0
 40
0.1666666666666667
 40
0.1666666666666667
 40
0.1666666666666667
 40
0.1666666666666667
 40
0.3333333333333333
 40
0.3333333333333333
 40
0.3333333333333333
 40
0.3333333333333333
 40
0.5
 40
0.5
 40
0.5
 40
0.5
 40
0.6666666666666666
 40
0.6666666666666666
 40
0.6666666666666666
 40
0.6666666666666666
 40
1.0
 40
1.0
 40
1.0
 40
1.0
 10
42.4652
 20
124.9852
 30
0.0
 10
42.4652
 20
124.9852
 30
0.0
 10
42.4652
 20
121.2928
 30
0.0
 10
42.4652
 20
121.2928
 30
0.0
 10
42.4652
 20
121.2928
 30
0.0
 10
42.4652
 20
121.2928
 30
0.0
 10
27.4908
 20
121.2928
 30
0.0
 10
27.4908
 20
121.2928
 30
0.0
 10
27.4908
 20
121.2928
 30
0.0
 10
27.4908
 20
121.2928
 30
0.0
 10
24.9598
 20
123.2253
 30
0.0
 10
24.9598
 20
123.2253
 30
0.0
 10
24.9598
 20
123.2253
 30
0.0
 10
24.9598
 20
123.2253
 30
0.0
 10
27.4908
 20
124.9852
 30
0.0
 10
27.4908
 20
124.9852
 30
0.0
 10
27.4908
 20
124.9852
 30
0.0
 10
27.4908
 20
124.9852
 30
0.0
 10
42.4652
 20
124.9852
 30
0.0
 10
42.4652
 20
124.9852
 30
0.0
  0
SPLINE
  5
56
330
1F
100
AcDbEntity
  8
layer 1
 62
     7
100
AcDbSpline
210
0.0
220
0.0
230
1.0
 70
    11
 71
     3
 72
    44
 73
    40
 74
     0
 42
0.0000000001
 43
0.0000000001
 12
1.0
 22
0.0
 32
0.0
 13
1.0
 23
0.0
 33
0.0
 40
0.0
 40
0.0
 40
0.0
 40
0.0
 40
0.0909090909090909
 40
0.0909090909090909
 40
0.0909090909090909
 40
0.0909090909090909
 40
0.1818181818181818
 40
0.1818181818181818
 40
0.1818181818181818
 40
0.1818181818181818
 40
0.2727272727272727
 40
0.2727272727272727
 40
0.2727272727272727
 40
0.2727272727272727
 40
0.3636363636363636
 40
0.3636363636363636
 40
0.3636363636363636
 40
0.3636363636363636
 40
0.4545454545454545
 40
0.4545454545454545
 40
0.4545454545454545
 40
0.4545454545454545
 40
0.5454545454545454
 40
0.5454545454545454
 40
0.5454545454545454
 40
0.5454545454545454
 40
0.6363636363636364
 40
0.6363636363636364
 40
0.6363636363636364
 40
0.6363636363636364
 40
0.7272727272727273
 40
0.7272727272727273
 40
0.7272727272727273
 40
0.7272727272727273
 40
0.8181818181818182
 40
0.8181818181818182
 40
0.8181818181818182
 40
0.8181818181818182
 40
1.0
 40
1.0
 40
1.0
 40
1.0
 10
42.4616
 20
117.1161
 30
0.0
 10
42.4616
 20
117.1161
 30
0.0
 10
25.0551
 20
117.1161
 30
0.0
 10
25.0551
 20
117.1161
 30
0.0
 10
25.0551
 20
117.1161
 30
0.0
 10
25.0551
 20
117.1161
 30
0.0
 10
21.6838
 20
120.1128
 30
0.0
 10
21.6838
 20
120.1128
 30
0.0
 10
21.6838
 20
120.1128
 30
0.0
 10
21.6838
 20
120.1128
 30
0.0
 10
17.0013
 20
115.4095
 30
0.0
 10
17.0013
 20
115.4095
 30
0.0
 10
17.0013
 20
115.4095
 30
0.0
 10
17.0013
 20
115.4095
 30
0.0
 10
17.0845
 20
102.5994
 30
0.0
 10
17.0845
 20
102.5994
 30
0.0
 10
17.0845
 20
102.5994
 30
0.0
 10
17.0845
 20
102.5994
 30
0.0
 10
27.4661
 20
102.4825
 30
0.0
 10
27.4661
 20
102.4825
 30
0.0
 10
27.4661
 20
102.4825
 30
0.0
 10
27.4661
 20
102.4825
 30
0.0
 10
27.5037
 20
91.7775
 30
0.0
 10
27.5037
 20
91.7775
 30
0.0
 10
27.5037
 20
91.7775
 30
0.0
 10
27.5037
 20
91.7775
 30
0.0
 10
40.6717
 20
91.7775
 30
0.0
 10
40.6717
 20
91.7775
 30
0.0
 10
40.6717
 20
91.7775
 30
0.0
 10
40.6717
 20
91.7775
 30
0.0
 10
45.375
 20
96.6227
 30
0.0
 10
45.375
 20
96.6227
 30
0.0
 10
45.375
 20
96.6227
 30
0.0
 10
45.375
 20
96.6227
 30
0.0
 10
42.4616
 20
99.7028
 30
0.0
 10
42.4616
 20
99.7028
 30
0.0
 10
42.4616
 20
99.7028
 30
0.0
 10
42.4616
 20
99.7028
 30
0.0
 10
42.4616
 20
117.1161
 30
0.0
 10
42.4616
 20
117.1161
 30
0.0
  0
SPLINE
  5
57
330
1F
100
AcDbEntity
  8
layer 1
 62
     7
100
AcDbSpline
210
0.0
220
0.0
230
1.0
 70
    11
 71
     3
 72
    24
 73
    20
 74
     0
 42
0.0000000001
 43
0.0000000001
 12
1.0
 22
0.0
 32
0.0
 13
1.0
 23
0.0
 33
0.0
 40
0.0
 40
0.0
 40
0.0
 40
0.0
 40
0.1666666666666667
 40
0.1666666666666667
 40
0.1666666666666667
 40
0.1666666666666667
 40
0.3333333333333333
 40
0.3333333333333333
 40
0.3333333333333333
 40
0.3333333333333333
 40
0.5
 40
0.5
 40
0.5
 40
0.5
 40
0.6666666666666666
 40
0.6666666666666666
 40
0.6666666666666666
 40
0.6666666666666666
 40
1.0
 40
1.0
 40
1.0
 40
1.0
 10
-30.7401
 20
52.9275
 30
0.0
 10
-30.7401
 20
52.9275
 30
0.0
 10
-27.0478
 20
52.9275
 30
0.0
 10
-27.0478
 20
52.9275
 30
0.0
 10
-27.0478
 20
52.9275
 30
0.0
 10
-27.0478
 20
52.9275
 30
0.0
 10
-27.0478
 20
67.9019
 30
0.0
 10
-27.0478
 20
67.9019
 30
0.0
 10
-27.0478
 20
67.9019
 30
0.0
 10
-27.0478
 20
67.9019
 30
0.0
 10
-28.9803
 20
70.4329
 30
0.0
 10
-28.9803
 20
70.4329
 30
0.0
 10
-28.9803
 20
70.4329
 30
0.0
 10
-28.9803
 20
70.4329
 30
0.0
 10
-30.7401
 20
67.9019
 30
0.0
 10
-30.7401
 20
67.9019
 30
0.0
 10
-30.7401
 20
67.9019
 30
0.0
 10
-30.7401
 20
67.9019
 30
0.0
 10
-30.7401
 20
52.9275
 30
0.0
 10
-30.7401
 20
52.9275
 30
0.0
  0
SPLINE
  5
58
330
1F
100
AcDbEntity
  8
layer 1
 62
     7
100
AcDbSpline
210
0.0
220
0.0
230
1.0
 70
    11
 71
     3
 72
    44
 73
    40
 74
     0
 42
0.0000000001
 43
0.0000000001
 12
1.0
 22
0.0
 32
0.0
 13
1.0
 23
0.0
 33
0.0
 40
0.0
 40
0.0
 40
0.0
 40
0.0
 40
0.0909090909090909
 40
0.0909090909090909
 40
0.0909090909090909
 40
0.0909090909090909
 40
0.1818181818181818
 40
0.1818181818181818
 40
0.1818181818181818
 40
0.1818181818181818
 40
0.2727272727272727
 40
0.2727272727272727
 40
0.2727272727272727
 40
0.2727272727272727
 40
0.3636363636363636
 40
0.3636363636363636
 40
0.3636363636363636
 40
0.3636363636363636
 40
0.4545454545454545
 40
0.4545454545454545
 40
0.4545454545454545
 40
0.4545454545454545
 40
0.5454545454545454
 40
0.5454545454545454
 40
0.5454545454545454
 40
0.5454545454545454
 40
0.6363636363636364
 40
0.6363636363636364
 40
0.6363636363636364
 40
0.6363636363636364
 40
0.7272727272727273
 40
0.7272727272727273
 40
0.7272727272727273
 40
0.7272727272727273
 40
0.8181818181818182
 40
0.8181818181818182
 40
0.8181818181818182
 40
0.8181818181818182
 40
1.0
 40
1.0
 40
1.0
 40
1.0
 10
-22.9154
 20
52.9275
 30
0.0
 10
-22.9154
 20
52.9275
 30
0.0
 10
-5.5089
 20
52.9275
 30
0.0
 10
-5.5089
 20
52.9275
 30
0.0
 10
-5.5089
 20
52.9275
 30
0.0
 10
-5.5089
 20
52.9275
 30
0.0
 10
-2.1377
 20
49.9308
 30
0.0
 10
-2.1377
 20
49.9308
 30
0.0
 10
-2.1377
 20
49.9308
 30
0.0
 10
-2.1377
 20
49.9308
 30
0.0
 10
2.5449
 20
54.6341
 30
0.0
 10
2.5449
 20
54.6341
 30
0.0
 10
2.5449
 20
54.6341
 30
0.0
 10
2.5449
 20
54.6341
 30
0.0
 10
2.4616
 20
67.4442
 30
0.0
 10
2.4616
 20
67.4442
 30
0.0
 10
2.4616
 20
67.4442
 30
0.0
 10
2.4616
 20
67.4442
 30
0.0
 10
-7.92
 20
67.5612
 30
0.0
 10
-7.92
 20
67.5612
 30
0.0
 10
-7.92
 20
67.5612
 30
0.0
 10
-7.92
 20
67.5612
 30
0.0
 10
-7.9575
 20
78.2661
 30
0.0
 10
-7.9575
 20
78.2661
 30
0.0
 10
-7.9575
 20
78.2661
 30
0.0
 10
-7.9575
 20
78.2661
 30
0.0
 10
-21.1256
 20
78.2661
 30
0.0
 10
-21.1256
 20
78.2661
 30
0.0
 10
-21.1256
 20
78.2661
 30
0.0
 10
-21.1256
 20
78.2661
 30
0.0
 10
-25.8289
 20
73.4209
 30
0.0
 10
-25.8289
 20
73.4209
 30
0.0
 10
-25.8289
 20
73.4209
 30
0.0
 10
-25.8289
 20
73.4209
 30
0.0
 10
-22.9154
 20
70.3409
 30
0.0
 10
-22.9154
 20
70.3409
 30
0.0
 10
-22.9154
 20
70.3409
 30
0.0
 10
-22.9154
 20
70.3409
 30
0.0
 10
-22.9154
 20
52.9275
 30
0.0
 10
-22.9154
 20
52.9275
 30
0.0
  0
SPLINE
  5
59
330
1F
100
AcDbEntity
  8
layer 1
 62
     7
100
AcDbSpline
210
0.0
220
0.0
230
1.0
 70
    11
 71
     3
 72
    28
 73
    24
 74
     0
 42
0.0000000001
 43
0.0000000001
 12
1.0
 22
0.0
 32
0.0
 13
1.0
 23
0.0
 33
0.0
 40
0.0
 40
0.0
 40
0.0
 40
0.0
 40
0.1428571428571428
 40
0.1428571428571428
 40
0.1428571428571428
 40
0.1428571428571428
 40
0.2857142857142857
 40
0.2857142857142857
 40
0.2857142857142857
 40
0.2857142857142857
 40
0.4285714285714285
 40
0.4285714285714285
 40
0.4285714285714285
 40
0.4285714285714285
 40
0.5714285714285714
 40
0.5714285714285714
 40
0.5714285714285714
 40
0.5714285714285714
 40
0.7142857142857143
 40
0.7142857142857143
 40
0.7142857142857143
 40
0.7142857142857143
 40
1.0
 40
1.0
 40
1.0
 40
1.0
 10
-35.0391
 20
52.9275
 30
0.0
 10
-35.0391
 20
52.9275
 30
0.0
 10
-50.0344
 20
52.9275
 30
0.0
 10
-50.0344
 20
52.9275
 30
0.0
 10
-50.0344
 20
52.9275
 30
0.0
 10
-50.0344
 20
52.9275
 30
0.0
 10
-49.997
 20
78.2661
 30
0.0
 10
-49.997
 20
78.2661
 30
0.0
 10
-49.997
 20
78.2661
 30
0.0
 10
-49.997
 20
78.2661
 30
0.0
 10
-36.8289
 20
78.2661
 30
0.0
 10
-36.8289
 20
78.2661
 30
0.0
 10
-36.8289
 20
78.2661
 30
0.0
 10
-36.8289
 20
78.2661
 30
0.0
 10
-32.1257
 20
73.4209
 30
0.0
 10
-32.1257
 20
73.4209
 30
0.0
 10
-32.1257
 20
73.4209
 30
0.0
 10
-32.1257
 20
73.4209
 30
0.0
 10
-35.0391
 20
70.3409
 30
0.0
 10
-35.0391
 20
70.3409
 30
0.0
 10
-35.0391
 20
70.3409
 30
0.0
 10
-35.0391
 20
70.3409
 30
0.0
 10
-35.0391
 20
52.9275
 30
0.0
 10
-35.0391
 20
52.9275
 30
0.0
  0
SPLINE
  5
5A
330
1F
100
AcDbEntity
  8
layer 1
 62
     7
100
AcDbSpline
210
0.0
220
0.0
230
1.0
 70
    11
 71
     3
 72
    24
 73
    20
 74
     0
 42
0.0000000001
 43
0.0000000001
 12
1.0
 22
0.0
 32
0.0
 13
1.0
 23
0.0
 33
0.0
 40
0.0
 40
0.0
 40
0.0
 40
0.0
 40
0.1666666666666667
 40
0.1666666666666667
 40
0.1666666666666667
 40
0.1666666666666667
 40
0.3333333333333333
 40
0.3333333333333333
 40
0.3333333333333333
 40
0.3333333333333333
 40
0.5
 40
0.5
 40
0.5
 40
0.5
 40
0.6666666666666666
 40
0.6666666666666666
 40
0.6666666666666666
 40
0.6666666666666666
 40
1.0
 40
1.0
 40
1.0
 40
1.0
 10
46.686
 20
52.9275
 30
0.0
 10
46.686
 20
52.9275
 30
0.0
 10
50.3783
 20
52.9275
 30
0.0
 10
50.3783
 20
52.9275
 30
0.0
 10
50.3783
 20
52.9275
 30
0.0
 10
50.3783
 20
52.9275
 30
0.0
 10
50.3783
 20
67.9019
 30
0.0
 10
50.3783
 20
67.9019
 30
0.0
 10
50.3783
 20
67.9019
 30
0.0
 10
50.3783
 20
67.9019
 30
0.0
 10
48.4458
 20
70.4329
 30
0.0
 10
48.4458
 20
70.4329
 30
0.0
 10
48.4458
 20
70.4329
 30
0.0
 10
48.4458
 20
70.4329
 30
0.0
 10
46.686
 20
67.9019
 30
0.0
 10
46.686
 20
67.9019
 30
0.0
 10
46.686
 20
67.9019
 30
0.0
 10
46.686
 20
67.9019
 30
0.0
 10
46.686
 20
52.9275
 30
0.0
 10
46.686
 20
52.9275
 30
0.0
  0
SPLINE
  5
5B
330
1F
100
AcDbEntity
  8
layer 1
 62
     7
100
AcDbSpline
210
0.0
220
0.0
230
1.0
 70
    11
 71
     3
 72
    44
 73
    40
 74
     0
 42
0.0000000001
 43
0.0000000001
 12
1.0
 22
0.0
 32
0.0
 13
1.0
 23
0.0
 33
0.0
 40
0.0
 40
0.0
 40
0.0
 40
0.0
 40
0.0909090909090909
 40
0.0909090909090909
 40
0.0909090909090909
 40
0.0909090909090909
 40
0.1818181818181818
 40
0.1818181818181818
 40
0.1818181818181818
 40
0.1818181818181818
 40
0.2727272727272727
 40
0.2727272727272727
 40
0.2727272727272727
 40
0.2727272727272727
 40
0.3636363636363636
 40
0.3636363636363636
 40
0.3636363636363636
 40
0.3636363636363636
 40
0.4545454545454545
 40
0.4545454545454545
 40
0.4545454545454545
 40
0.4545454545454545
 40
0.5454545454545454
 40
0.5454545454545454
 40
0.5454545454545454
 40
0.5454545454545454
 40
0.6363636363636364
 40
0.6363636363636364
 40
0.6363636363636364
 40
0.6363636363636364
 40
0.7272727272727273
 40
0.7272727272727273
 40
0.7272727272727273
 40
0.7272727272727273
 40
0.8181818181818182
 40
0.8181818181818182
 40
0.8181818181818182
 40
0.8181818181818182
 40
1.0
 40
1.0
 40
1.0
 40
1.0
 10
42.3871
 20
52.9275
 30
0.0
 10
42.3871
 20
52.9275
 30
0.0
 10
24.9807
 20
52.9275
 30
0.0
 10
24.9807
 20
52.9275
 30
0.0
 10
24.9807
 20
52.9275
 30
0.0
 10
24.9807
 20
52.9275
 30
0.0
 10
21.6094
 20
49.9308
 30
0.0
 10
21.6094
 20
49.9308
 30
0.0
 10
21.6094
 20
49.9308
 30
0.0
 10
21.6094
 20
49.9308
 30
0.0
 10
16.9269
 20
54.6341
 30
0.0
 10
16.9269
 20
54.6341
 30
0.0
 10
16.9269
 20
54.6341
 30
0.0
 10
16.9269
 20
54.6341
 30
0.0
 10
17.0101
 20
67.4442
 30
0.0
 10
17.0101
 20
67.4442
 30
0.0
 10
17.0101
 20
67.4442
 30
0.0
 10
17.0101
 20
67.4442
 30
0.0
 10
27.3917
 20
67.5612
 30
0.0
 10
27.3917
 20
67.5612
 30
0.0
 10
27.3917
 20
67.5612
 30
0.0
 10
27.3917
 20
67.5612
 30
0.0
 10
27.4292
 20
78.2661
 30
0.0
 10
27.4292
 20
78.2661
 30
0.0
 10
27.4292
 20
78.2661
 30
0.0
 10
27.4292
 20
78.2661
 30
0.0
 10
40.5973
 20
78.2661
 30
0.0
 10
40.5973
 20
78.2661
 30
0.0
 10
40.5973
 20
78.2661
 30
0.0
 10
40.5973
 20
78.2661
 30
0.0
 10
45.3006
 20
73.4209
 30
0.0
 10
45.3006
 20
73.4209
 30
0.0
 10
45.3006
 20
73.4209
 30
0.0
 10
45.3006
 20
73.4209
 30
0.0
 10
42.3871
 20
70.3409
 30
0.0
 10
42.3871
 20
70.3409
 30
0.0
 10
42.3871
 20
70.3409
 30
0.0
 10
42.3871
 20
70.3409
 30
0.0
 10
42.3871
 20
52.9275
 30
0.0
 10
42.3871
 20
52.9275
 30
0.0
  0
SPLINE
  5
5C
330
1F
100
AcDbEntity
  8
layer 1
 62
     7
100
AcDbSpline
210
0.0
220
0.0
230
1.0
 70
    11
 71
     3
 72
    24
 73
    20
 74
     0
 42
0.0000000001
 43
0.0000000001
 12
1.0
 22
0.0
 32
0.0
 13
1.0
 23
0.0
 33
0.0
 40
0.0
 40
0.0
 40
0.0
 40
0.0
 40
0.1666666666666667
 40
0.1666666666666667
 40
0.1666666666666667
 40
0.1666666666666667
 40
0.3333333333333333
 40
0.3333333333333333
 40
0.3333333333333333
 40
0.3333333333333333
 40
0.5
 40
0.5
 40
0.5
 40
0.5
 40
0.6666666666666666
 40
0.6666666666666666
 40
0.6666666666666666
 40
0.6666666666666666
 40
1.0
 40
1.0
 40
1.0
 40
1.0
 10
-22.9154
 20
44.9276
 30
0.0
 10
-22.9154
 20
44.9276
 30
0.0
 10
-22.9154
 20
48.6199
 30
0.0
 10
-22.9154
 20
48.6199
 30
0.0
 10
-22.9154
 20
48.6199
 30
0.0
 10
-22.9154
 20
48.6199
 30
0.0
 10
-7.941
 20
48.6199
 30
0.0
 10
-7.941
 20
48.6199
 30
0.0
 10
-7.941
 20
48.6199
 30
0.0
 10
-7.941
 20
48.6199
 30
0.0
 10
-5.41
 20
46.6874
 30
0.0
 10
-5.41
 20
46.6874
 30
0.0
 10
-5.41
 20
46.6874
 30
0.0
 10
-5.41
 20
46.6874
 30
0.0
 10
-7.941
 20
44.9276
 30
0.0
 10
-7.941
 20
44.9276
 30
0.0
 10
-7.941
 20
44.9276
 30
0.0
 10
-7.941
 20
44.9276
 30
0.0
 10
-22.9154
 20
44.9276
 30
0.0
 10
-22.9154
 20
44.9276
 30
0.0
  0
SPLINE
  5
5D
330
1F
100
AcDbEntity
  8
layer 1
 62
     7
100
AcDbSpline
210
0.0
220
0.0
230
1.0
 70
    11
 71
     3
 72
    20
 73
    16
 74
     0
 42
0.0000000001
 43
0.0000000001
 12
1.0
 22
0.0
 32
0.0
 13
1.0
 23
0.0
 33
0.0
 40
0.0
 40
0.0
 40
0.0
 40
0.0
 40
0.2
 40
0.2
 40
0.2
 40
0.2
 40
0.4
 40
0.4
 40
0.4
 40
0.4
 40
0.6
 40
0.6
 40
0.6
 40
0.6
 40
1.0
 40
1.0
 40
1.0
 40
1.0
 10
-26.8448
 20
48.6199
 30
0.0
 10
-26.8448
 20
48.6199
 30
0.0
 10
-26.8448
 20
44.9276
 30
0.0
 10
-26.8448
 20
44.9276
 30
0.0
 10
-26.8448
 20
44.9276
 30
0.0
 10
-26.8448
 20
44.9276
 30
0.0
 10
-30.748
 20
44.9276
 30
0.0
 10
-30.748
 20
44.9276
 30
0.0
 10
-30.748
 20
44.9276
 30
0.0
 10
-30.748
 20
44.9276
 30
0.0
 10
-30.748
 20
48.6199
 30
0.0
 10
-30.748
 20
48.6199
 30
0.0
 10
-30.748
 20
48.6199
 30
0.0
 10
-30.748
 20
48.6199
 30
0.0
 10
-26.8448
 20
48.6199
 30
0.0
 10
-26.8448
 20
48.6199
 30
0.0
  0
SPLINE
  5
5E
330
1F
100
AcDbEntity
  8
layer 1
 62
     7
100
AcDbSpline
210
0.0
220
0.0
230
1.0
 70
    11
 71
     3
 72
    20
 73
    16
 74
     0
 42
0.0000000001
 43
0.0000000001
 12
1.0
 22
0.0
 32
0.0
 13
1.0
 23
0.0
 33
0.0
 40
0.0
 40
0.0
 40
0.0
 40
0.0
 40
0.2
 40
0.2
 40
0.2
 40
0.2
 40
0.4
 40
0.4
 40
0.4
 40
0.4
 40
0.6
 40
0.6
 40
0.6
 40
0.6
 40
1.0
 40
1.0
 40
1.0
 40
1.0
 10
-34.9609
 20
48.6199
 30
0.0
 10
-34.9609
 20
48.6199
 30
0.0
 10
-34.9609
 20
44.9276
 30
0.0
 10
-34.9609
 20
44.9276
 30
0.0
 10
-34.9609
 20
44.9276
 30
0.0
 10
-34.9609
 20
44.9276
 30
0.0
 10
-49.9353
 20
44.9276
 30
0.0
 10
-49.9353
 20
44.9276
 30
0.0
 10
-49.9353
 20
44.9276
 30
0.0
 10
-49.9353
 20
44.9276
 30
0.0
 10
-49.9353
 20
48.6199
 30
0.0
 10
-49.9353
 20
48.6199
 30
0.0
 10
-49.9353
 20
48.6199
 30
0.0
 10
-49.9353
 20
48.6199
 30
0.0
 10
-34.9609
 20
48.6199
 30
0.0
 10
-34.9609
 20
48.6199
 30
0.0
  0
SPLINE
  5
5F
330
1F
100
AcDbEntity
  8
layer 1
 62
     7
100
AcDbSpline
210
0.0
220
0.0
230
1.0
 70
    11
 71
     3
 72
    20
 73
    16
 74
     0
 42
0.0000000001
 43
0.0000000001
 12
1.0
 22
0.0
 32
0.0
 13
1.0
 23
0.0
 33
0.0
 40
0.0
 40
0.0
 40
0.0
 40
0.0
 40
0.2
 40
0.2
 40
0.2
 40
0.2
 40
0.4
 40
0.4
 40
0.4
 40
0.4
 40
0.6
 40
0.6
 40
0.6
 40
0.6
 40
1.0
 40
1.0
 40
1.0
 40
1.0
 10
54.5109
 20
44.9276
 30
0.0
 10
54.5109
 20
44.9276
 30
0.0
 10
54.5109
 20
48.6199
 30
0.0
 10
54.5109
 20
48.6199
 30
0.0
 10
54.5109
 20
48.6199
 30
0.0
 10
54.5109
 20
48.6199
 30
0.0
 10
69.4852
 20
48.6199
 30
0.0
 10
69.4852
 20
48.6199
 30
0.0
 10
69.4852
 20
48.6199
 30
0.0
 10
69.4852
 20
48.6199
 30
0.0
 10
69.4852
 20
44.9276
 30
0.0
 10
69.4852
 20
44.9276
 30
0.0
 10
69.4852
 20
44.9276
 30
0.0
 10
69.4852
 20
44.9276
 30
0.0
 10
54.5109
 20
44.9276
 30
0.0
 10
54.5109
 20
44.9276
 30
0.0
  0
SPLINE
  5
60
330
1F
100
AcDbEntity
  8
layer 1
 62
     7
100
AcDbSpline
210
0.0
220
0.0
230
1.0
 70
    11
 71
     3
 72
    20
 73
    16
 74
     0
 42
0.0000000001
 43
0.0000000001
 12
1.0
 22
0.0
 32
0.0
 13
1.0
 23
0.0
 33
0.0
 40
0.0
 40
0.0
 40
0.0
 40
0.0
 40
0.2
 40
0.2
 40
0.2
 40
0.2
 40
0.4
 40
0.4
 40
0.4
 40
0.4
 40
0.6
 40
0.6
 40
0.6
 40
0.6
 40
1.0
 40
1.0
 40
1.0
 40
1.0
 10
50.5814
 20
48.6199
 30
0.0
 10
50.5814
 20
48.6199
 30
0.0
 10
50.5814
 20
44.9276
 30
0.0
 10
50.5814
 20
44.9276
 30
0.0
 10
50.5814
 20
44.9276
 30
0.0
 10
50.5814
 20
44.9276
 30
0.0
 10
46.6783
 20
44.9276
 30
0.0
 10
46.6783
 20
44.9276
 30
0.0
 10
46.6783
 20
44.9276
 30
0.0
 10
46.6783
 20
44.9276
 30
0.0
 10
46.6783
 20
48.6199
 30
0.0
 10
46.6783
 20
48.6199
 30
0.0
 10
46.6783
 20
48.6199
 30
0.0
 10
46.6783
 20
48.6199
 30
0.0
 10
50.5814
 20
48.6199
 30
0.0
 10
50.5814
 20
48.6199
 30
0.0
  0
SPLINE
  5
61
330
1F
100
AcDbEntity
  8
layer 1
 62
     7
100
AcDbSpline
210
0.0
220
0.0
230
1.0
 70
    11
 71
     3
 72
    24
 73
    20
 74
     0
 42
0.0000000001
 43
0.0000000001
 12
1.0
 22
0.0
 32
0.0
 13
1.0
 23
0.0
 33
0.0
 40
0.0
 40
0.0
 40
0.0
 40
0.0
 40
0.1666666666666667
 40
0.1666666666666667
 40
0.1666666666666667
 40
0.1666666666666667
 40
0.3333333333333333
 40
0.3333333333333333
 40
0.3333333333333333
 40
0.3333333333333333
 40
0.5
 40
0.5
 40
0.5
 40
0.5
 40
0.6666666666666666
 40
0.6666666666666666
 40
0.6666666666666666
 40
0.6666666666666666
 40
1.0
 40
1.0
 40
1.0
 40
1.0
 10
42.4652
 20
48.6199
 30
0.0
 10
42.4652
 20
48.6199
 30
0.0
 10
42.4652
 20
44.9276
 30
0.0
 10
42.4652
 20
44.9276
 30
0.0
 10
42.4652
 20
44.9276
 30
0.0
 10
42.4652
 20
44.9276
 30
0.0
 10
27.4908
 20
44.9276
 30
0.0
 10
27.4908
 20
44.9276
 30
0.0
 10
27.4908
 20
44.9276
 30
0.0
 10
27.4908
 20
44.9276
 30
0.0
 10
24.9598
 20
46.8601
 30
0.0
 10
24.9598
 20
46.8601
 30
0.0
 10
24.9598
 20
46.8601
 30
0.0
 10
24.9598
 20
46.8601
 30
0.0
 10
27.4908
 20
48.6199
 30
0.0
 10
27.4908
 20
48.6199
 30
0.0
 10
27.4908
 20
48.6199
 30
0.0
 10
27.4908
 20
48.6199
 30
0.0
 10
42.4652
 20
48.6199
 30
0.0
 10
42.4652
 20
48.6199
 30
0.0
  0
SPLINE
  5
62
330
1F
100
AcDbEntity
  8
layer 1
 62
     7
100
AcDbSpline
210
0.0
220
0.0
230
1.0
 70
    11
 71
     3
 72
    24
 73
    20
 74
     0
 42
0.0000000001
 43
0.0000000001
 12
1.0
 22
0.0
 32
0.0
 13
1.0
 23
0.0
 33
0.0
 40
0.0
 40
0.0
 40
0.0
 40
0.0
 40
0.1666666666666667
 40
0.1666666666666667
 40
0.1666666666666667
 40
0.1666666666666667
 40
0.3333333333333333
 40
0.3333333333333333
 40
0.3333333333333333
 40
0.3333333333333333
 40
0.5
 40
0.5
 40
0.5
 40
0.5
 40
0.6666666666666666
 40
0.6666666666666666
 40
0.6666666666666666
 40
0.6666666666666666
 40
1.0
 40
1.0
 40
1.0
 40
1.0
 10
-22.9154
 20
-31.436
 30
0.0
 10
-22.9154
 20
-31.436
 30
0.0
 10
-22.9154
 20
-27.7436
 30
0.0
 10
-22.9154
 20
-27.7436
 30
0.0
 10
-22.9154
 20
-27.7436
 30
0.0
 10
-22.9154
 20
-27.7436
 30
0.0
 10
-7.941
 20
-27.7436
 30
0.0
 10
-7.941
 20
-27.7436
 30
0.0
 10
-7.941
 20
-27.7436
 30
0.0
 10
-7.941
 20
-27.7436
 30
0.0
 10
-5.41
 20
-29.6762
 30
0.0
 10
-5.41
 20
-29.6762
 30
0.0
 10
-5.41
 20
-29.6762
 30
0.0
 10
-5.41
 20
-29.6762
 30
0.0
 10
-7.941
 20
-31.436
 30
0.0
 10
-7.941
 20
-31.436
 30
0.0
 10
-7.941
 20
-31.436
 30
0.0
 10
-7.941
 20
-31.436
 30
0.0
 10
-22.9154
 20
-31.436
 30
0.0
 10
-22.9154
 20
-31.436
 30
0.0
  0
SPLINE
  5
63
330
1F
100
AcDbEntity
  8
layer 1
 62
     7
100
AcDbSpline
210
0.0
220
0.0
230
1.0
 70
    11
 71
     3
 72
    20
 73
    16
 74
     0
 42
0.0000000001
 43
0.0000000001
 12
1.0
 22
0.0
 32
0.0
 13
1.0
 23
0.0
 33
0.0
 40
0.0
 40
0.0
 40
0.0
 40
0.0
 40
0.2
 40
0.2
 40
0.2
 40
0.2
 40
0.4
 40
0.4
 40
0.4
 40
0.4
 40
0.6
 40
0.6
 40
0.6
 40
0.6
 40
1.0
 40
1.0
 40
1.0
 40
1.0
 10
-26.8448
 20
-27.7436
 30
0.0
 10
-26.8448
 20
-27.7436
 30
0.0
 10
-26.8448
 20
-31.436
 30
0.0
 10
-26.8448
 20
-31.436
 30
0.0
 10
-26.8448
 20
-31.436
 30
0.0
 10
-26.8448
 20
-31.436
 30
0.0
 10
-30.748
 20
-31.436
 30
0.0
 10
-30.748
 20
-31.436
 30
0.0
 10
-30.748
 20
-31.436
 30
0.0
 10
-30.748
 20
-31.436
 30
0.0
 10
-30.748
 20
-27.7436
 30
0.0
 10
-30.748
 20
-27.7436
 30
0.0
 10
-30.748
 20
-27.7436
 30
0.0
 10
-30.748
 20
-27.7436
 30
0.0
 10
-26.8448
 20
-27.7436
 30
0.0
 10
-26.8448
 20
-27.7436
 30
0.0
  0
SPLINE
  5
64
330
1F
100
AcDbEntity
  8
layer 1
 62
     7
100
AcDbSpline
210
0.0
220
0.0
230
1.0
 70
    11
 71
     3
 72
    20
 73
    16
 74
     0
 42
0.0000000001
 43
0.0000000001
 12
1.0
 22
0.0
 32
0.0
 13
1.0
 23
0.0
 33
0.0
 40
0.0
 40
0.0
 40
0.0
 40
0.0
 40
0.2
 40
0.2
 40
0.2
 40
0.2
 40
0.4
 40
0.4
 40
0.4
 40
0.4
 40
0.6
 40
0.6
 40
0.6
 40
0.6
 40
1.0
 40
1.0
 40
1.0
 40
1.0
 10
-34.9609
 20
-27.7436
 30
0.0
 10
-34.9609
 20
-27.7436
 30
0.0
 10
-34.9609
 20
-31.436
 30
0.0
 10
-34.9609
 20
-31.436
 30
0.0
 10
-34.9609
 20
-31.436
 30
0.0
 10
-34.9609
 20
-31.436
 30
0.0
 10
-49.9353
 20
-31.436
 30
0.0
 10
-49.9353
 20
-31.436
 30
0.0
 10
-49.9353
 20
-31.436
 30
0.0
 10
-49.9353
 20
-31.436
 30
0.0
 10
-49.9353
 20
-27.7436
 30
0.0
 10
-49.9353
 20
-27.7436
 30
0.0
 10
-49.9353
 20
-27.7436
 30
0.0
 10
-49.9353
 20
-27.7436
 30
0.0
 10
-34.9609
 20
-27.7436
 30
0.0
 10
-34.9609
 20
-27.7436
 30
0.0
  0
SPLINE
  5
65
330
1F
100
AcDbEntity
  8
layer 1
 62
     7
100
AcDbSpline
210
0.0
220
0.0
230
1.0
 70
    11
 71
     3
 72
    20
 73
    16
 74
     0
 42
0.0000000001
 43
0.0000000001
 12
1.0
 22
0.0
 32
0.0
 13
1.0
 23
0.0
 33
0.0
 40
0.0
 40
0.0
 40
0.0
 40
0.0
 40
0.2
 40
0.2
 40
0.2
 40
0.2
 40
0.4
 40
0.4
 40
0.4
 40
0.4
 40
0.6
 40
0.6
 40
0.6
 40
0.6
 40
1.0
 40
1.0
 40
1.0
 40
1.0
 10
54.5109
 20
-31.436
 30
0.0
 10
54.5109
 20
-31.436
 30
0.0
 10
54.5109
 20
-27.7436
 30
0.0
 10
54.5109
 20
-27.7436
 30
0.0
 10
54.5109
 20
-27.7436
 30
0.0
 10
54.5109
 20
-27.7436
 30
0.0
 10
69.4852
 20
-27.7436
 30
0.0
 10
69.4852
 20
-27.7436
 30
0.0
 10
69.4852
 20
-27.7436
 30
0.0
 10
69.4852
 20
-27.7436
 30
0.0
 10
69.4852
 20
-31.436
 30
0.0
 10
69.4852
 20
-31.436
 30
0.0
 10
69.4852
 20
-31.436
 30
0.0
 10
69.4852
 20
-31.436
 30
0.0
 10
54.5109
 20
-31.436
 30
0.0
 10
54.5109
 20
-31.436
 30
0.0
  0
SPLINE
  5
66
330
1F
100
AcDbEntity
  8
layer 1
 62
     7
100
AcDbSpline
210
0.0
220
0.0
230
1.0
 70
    11
 71
     3
 72
    20
 73
    16
 74
     0
 42
0.0000000001
 43
0.0000000001
 12
1.0
 22
0.0
 32
0.0
 13
1.0
 23
0.0
 33
0.0
 40
0.0
 40
0.0
 40
0.0
 40
0.0
 40
0.2
 40
0.2
 40
0.2
 40
0.2
 40
0.4
 40
0.4
 40
0.4
 40
0.4
 40
0.6
 40
0.6
 40
0.6
 40
0.6
 40
1.0
 40
1.0
 40
1.0
 40
1.0
 10
50.5814
 20
-27.7436
 30
0.0
 10
50.5814
 20
-27.7436
 30
0.0
 10
50.5814
 20
-31.436
 30
0.0
 10
50.5814
 20
-31.436
 30
0.0
 10
50.5814
 20
-31.436
 30
0.0
 10
50.5814
 20
-31.436
 30
0.0
 10
46.6783
 20
-31.436
 30
0.0
 10
46.6783
 20
-31.436
 30
0.0
 10
46.6783
 20
-31.436
 30
0.0
 10
46.6783
 20
-31.436
 30
0.0
 10
46.6783
 20
-27.7436
 30
0.0
 10
46.6783
 20
-27.7436
 30
0.0
 10
46.6783
 20
-27.7436
 30
0.0
 10
46.6783
 20
-27.7436
 30
0.0
 10
50.5814
 20
-27.7436
 30
0.0
 10
50.5814
 20
-27.7436
 30
0.0
  0
SPLINE
  5
67
330
1F
100
AcDbEntity
  8
layer 1
 62
     7
100
AcDbSpline
210
0.0
220
0.0
230
1.0
 70
    11
 71
     3
 72
    24
 73
    20
 74
     0
 42
0.0000000001
 43
0.0000000001
 12
1.0
 22
0.0
 32
0.0
 13
1.0
 23
0.0
 33
0.0
 40
0.0
 40
0.0
 40
0.0
 40
0.0
 40
0.1666666666666667
 40
0.1666666666666667
 40
0.1666666666666667
 40
0.1666666666666667
 40
0.3333333333333333
 40
0.3333333333333333
 40
0.3333333333333333
 40
0.3333333333333333
 40
0.5
 40
0.5
 40
0.5
 40
0.5
 40
0.6666666666666666
 40
0.6666666666666666
 40
0.6666666666666666
 40
0.6666666666666666
 40
1.0
 40
1.0
 40
1.0
 40
1.0
 10
42.4652
 20
-27.7436
 30
0.0
 10
42.4652
 20
-27.7436
 30
0.0
 10
42.4652
 20
-31.436
 30
0.0
 10
42.4652
 20
-31.436
 30
0.0
 10
42.4652
 20
-31.436
 30
0.0
 10
42.4652
 20
-31.436
 30
0.0
 10
27.4908
 20
-31.436
 30
0.0
 10
27.4908
 20
-31.436
 30
0.0
 10
27.4908
 20
-31.436
 30
0.0
 10
27.4908
 20
-31.436
 30
0.0
 10
24.9598
 20
-29.5035
 30
0.0
 10
24.9598
 20
-29.5035
 30
0.0
 10
24.9598
 20
-29.5035
 30
0.0
 10
24.9598
 20
-29.5035
 30
0.0
 10
27.4908
 20
-27.7436
 30
0.0
 10
27.4908
 20
-27.7436
 30
0.0
 10
27.4908
 20
-27.7436
 30
0.0
 10
27.4908
 20
-27.7436
 30
0.0
 10
42.4652
 20
-27.7436
 30
0.0
 10
42.4652
 20
-27.7436
 30
0.0
  0
SPLINE
  5
68
330
1F
100
AcDbEntity
  8
layer 1
 62
     7
100
AcDbSpline
210
0.0
220
0.0
230
1.0
 70
    11
 71
     3
 72
    24
 73
    20
 74
     0
 42
0.0000000001
 43
0.0000000001
 12
1.0
 22
0.0
 32
0.0
 13
1.0
 23
0.0
 33
0.0
 40
0.0
 40
0.0
 40
0.0
 40
0.0
 40
0.1666666666666667
 40
0.1666666666666667
 40
0.1666666666666667
 40
0.1666666666666667
 40
0.3333333333333333
 40
0.3333333333333333
 40
0.3333333333333333
 40
0.3333333333333333
 40
0.5
 40
0.5
 40
0.5
 40
0.5
 40
0.6666666666666666
 40
0.6666666666666666
 40
0.6666666666666666
 40
0.6666666666666666
 40
1.0
 40
1.0
 40
1.0
 40
1.0
 10
-22.9154
 20
-107.9249
 30
0.0
 10
-22.9154
 20
-107.9249
 30
0.0
 10
-22.9154
 20
-104.2326
 30
0.0
 10
-22.9154
 20
-104.2326
 30
0.0
 10
-22.9154
 20
-104.2326
 30
0.0
 10
-22.9154
 20
-104.2326
 30
0.0
 10
-7.941
 20
-104.2326
 30
0.0
 10
-7.941
 20
-104.2326
 30
0.0
 10
-7.941
 20
-104.2326
 30
0.0
 10
-7.941
 20
-104.2326
 30
0.0
 10
-5.41
 20
-106.1651
 30
0.0
 10
-5.41
 20
-106.1651
 30
0.0
 10
-5.41
 20
-106.1651
 30
0.0
 10
-5.41
 20
-106.1651
 30
0.0
 10
-7.941
 20
-107.9249
 30
0.0
 10
-7.941
 20
-107.9249
 30
0.0
 10
-7.941
 20
-107.9249
 30
0.0
 10
-7.941
 20
-107.9249
 30
0.0
 10
-22.9154
 20
-107.9249
 30
0.0
 10
-22.9154
 20
-107.9249
 30
0.0
  0
SPLINE
  5
69
330
1F
100
AcDbEntity
  8
layer 1
 62
     7
100
AcDbSpline
210
0.0
220
0.0
230
1.0
 70
    11
 71
     3
 72
    20
 73
    16
 74
     0
 42
0.0000000001
 43
0.0000000001
 12
1.0
 22
0.0
 32
0.0
 13
1.0
 23
0.0
 33
0.0
 40
0.0
 40
0.0
 40
0.0
 40
0.0
 40
0.2
 40
0.2
 40
0.2
 40
0.2
 40
0.4
 40
0.4
 40
0.4
 40
0.4
 40
0.6
 40
0.6
 40
0.6
 40
0.6
 40
1.0
 40
1.0
 40
1.0
 40
1.0
 10
-26.8448
 20
-104.2326
 30
0.0
 10
-26.8448
 20
-104.2326
 30
0.0
 10
-26.8448
 20
-107.9249
 30
0.0
 10
-26.8448
 20
-107.9249
 30
0.0
 10
-26.8448
 20
-107.9249
 30
0.0
 10
-26.8448
 20
-107.9249
 30
0.0
 10
-30.748
 20
-107.9249
 30
0.0
 10
-30.748
 20
-107.9249
 30
0.0
 10
-30.748
 20
-107.9249
 30
0.0
 10
-30.748
 20
-107.9249
 30
0.0
 10
-30.748
 20
-104.2326
 30
0.0
 10
-30.748
 20
-104.2326
 30
0.0
 10
-30.748
 20
-104.2326
 30
0.0
 10
-30.748
 20
-104.2326
 30
0.0
 10
-26.8448
 20
-104.2326
 30
0.0
 10
-26.8448
 20
-104.2326
 30
0.0
  0
SPLINE
  5
6A
330
1F
100
AcDbEntity
  8
layer 1
 62
     7
100
AcDbSpline
210
0.0
220
0.0
230
1.0
 70
    11
 71
     3
 72
    20
 73
    16
 74
     0
 42
0.0000000001
 43
0.0000000001
 12
1.0
 22
0.0
 32
0.0
 13
1.0
 23
0.0
 33
0.0
 40
0.0
 40
0.0
 40
0.0
 40
0.0
 40
0.2
 40
0.2
 40
0.2
 40
0.2
 40
0.4
 40
0.4
 40
0.4
 40
0.4
 40
0.6
 40
0.6
 40
0.6
 40
0.6
 40
1.0
 40
1.0
 40
1.0
 40
1.0
 10
-34.9609
 20
-104.2326
 30
0.0
 10
-34.9609
 20
-104.2326
 30
0.0
 10
-34.9609
 20
-107.9249
 30
0.0
 10
-34.9609
 20
-107.9249
 30
0.0
 10
-34.9609
 20
-107.9249
 30
0.0
 10
-34.9609
 20
-107.9249
 30
0.0
 10
-49.9353
 20
-107.9249
 30
0.0
 10
-49.9353
 20
-107.9249
 30
0.0
 10
-49.9353
 20
-107.9249
 30
0.0
 10
-49.9353
 20
-107.9249
 30
0.0
 10
-49.9353
 20
-104.2326
 30
0.0
 10
-49.9353
 20
-104.2326
 30
0.0
 10
-49.9353
 20
-104.2326
 30
0.0
 10
-49.9353
 20
-104.2326
 30
0.0
 10
-34.9609
 20
-104.2326
 30
0.0
 10
-34.9609
 20
-104.2326
 30
0.0
  0
SPLINE
  5
6B
330
1F
100
AcDbEntity
  8
layer 1
 62
     7
100
AcDbSpline
210
0.0
220
0.0
230
1.0
 70
    11
 71
     3
 72
    20
 73
    16
 74
     0
 42
0.0000000001
 43
0.0000000001
 12
1.0
 22
0.0
 32
0.0
 13
1.0
 23
0.0
 33
0.0
 40
0.0
 40
0.0
 40
0.0
 40
0.0
 40
0.2
 40
0.2
 40
0.2
 40
0.2
 40
0.4
 40
0.4
 40
0.4
 40
0.4
 40
0.6
 40
0.6
 40
0.6
 40
0.6
 40
1.0
 40
1.0
 40
1.0
 40
1.0
 10
54.5109
 20
-107.9249
 30
0.0
 10
54.5109
 20
-107.9249
 30
0.0
 10
54.5109
 20
-104.2326
 30
0.0
 10
54.5109
 20
-104.2326
 30
0.0
 10
54.5109
 20
-104.2326
 30
0.0
 10
54.5109
 20
-104.2326
 30
0.0
 10
69.4852
 20
-104.2326
 30
0.0
 10
69.4852
 20
-104.2326
 30
0.0
 10
69.4852
 20
-104.2326
 30
0.0
 10
69.4852
 20
-104.2326
 30
0.0
 10
69.4852
 20
-107.9249
 30
0.0
 10
69.4852
 20
-107.9249
 30
0.0
 10
69.4852
 20
-107.9249
 30
0.0
 10
69.4852
 20
-107.9249
 30
0.0
 10
54.5109
 20
-107.9249
 30
0.0
 10
54.5109
 20
-107.9249
 30
0.0
  0
SPLINE
  5
6C
330
1F
100
AcDbEntity
  8
layer 1
 62
     7
100
AcDbSpline
210
0.0
220
0.0
230
1.0
 70
    11
 71
     3
 72
    20
 73
    16
 74
     0
 42
0.0000000001
 43
0.0000000001
 12
1.0
 22
0.0
 32
0.0
 13
1.0
 23
0.0
 33
0.0
 40
0.0
 40
0.0
 40
0.0
 40
0.0
 40
0.2
 40
0.2
 40
0.2
 40
0.2
 40
0.4
 40
0.4
 40
0.4
 40
0.4
 40
0.6
 40
0.6
 40
0.6
 40
0.6
 40
1.0
 40
1.0
 40
1.0
 40
1.0
 10
50.5814
 20
-104.2326
 30
0.0
 10
50.5814
 20
-104.2326
 30
0.0
 10
50.5814
 20
-107.9249
 30
0.0
 10
50.5814
 20
-107.9249
 30
0.0
 10
50.5814
 20
-107.9249
 30
0.0
 10
50.5814
 20
-107.9249
 30
0.0
 10
46.6783
 20
-107.9249
 30
0.0
 10
46.6783
 20
-107.9249
 30
0.0
 10
46.6783
 20
-107.9249
 30
0.0
 10
46.6783
 20
-107.9249
 30
0.0
 10
46.6783
 20
-104.2326
 30
0.0
 10
46.6783
 20
-104.2326
 30
0.0
 10
46.6783
 20
-104.2326
 30
0.0
 10
46.6783
 20
-104.2326
 30
0.0
 10
50.5814
 20
-104.2326
 30
0.0
 10
50.5814
 20
-104.2326
 30
0.0
  0
SPLINE
  5
6D
330
1F
100
AcDbEntity
  8
layer 1
 62
     7
100
AcDbSpline
210
0.0
220
0.0
230
1.0
 70
    11
 71
     3
 72
    24
 73
    20
 74
     0
 42
0.0000000001
 43
0.0000000001
 12
1.0
 22
0.0
 32
0.0
 13
1.0
 23
0.0
 33
0.0
 40
0.0
 40
0.0
 40
0.0
 40
0.0
 40
0.1666666666666667
 40
0.1666666666666667
 40
0.1666666666666667
 40
0.1666666666666667
 40
0.3333333333333333
 40
0.3333333333333333
 40
0.3333333333333333
 40
0.3333333333333333
 40
0.5
 40
0.5
 40
0.5
 40
0.5
 40
0.6666666666666666
 40
0.6666666666666666
 40
0.6666666666666666
 40
0.6666666666666666
 40
1.0
 40
1.0
 40
1.0
 40
1.0
 10
42.4652
 20
-104.2326
 30
0.0
 10
42.4652
 20
-104.2326
 30
0.0
 10
42.4652
 20
-107.9249
 30
0.0
 10
42.4652
 20
-107.9249
 30
0.0
 10
42.4652
 20
-107.9249
 30
0.0
 10
42.4652
 20
-107.9249
 30
0.0
 10
27.4908
 20
-107.9249
 30
0.0
 10
27.4908
 20
-107.9249
 30
0.0
 10
27.4908
 20
-107.9249
 30
0.0
 10
27.4908
 20
-107.9249
 30
0.0
 10
24.9598
 20
-105.9924
 30
0.0
 10
24.9598
 20
-105.9924
 30
0.0
 10
24.9598
 20
-105.9924
 30
0.0
 10
24.9598
 20
-105.9924
 30
0.0
 10
27.4908
 20
-104.2326
 30
0.0
 10
27.4908
 20
-104.2326
 30
0.0
 10
27.4908
 20
-104.2326
 30
0.0
 10
27.4908
 20
-104.2326
 30
0.0
 10
42.4652
 20
-104.2326
 30
0.0
 10
42.4652
 20
-104.2326
 30
0.0
  0
SPLINE
  5
6E
330
1F
100
AcDbEntity
  8
layer 1
 62
     7
100
AcDbSpline
210
0.0
220
0.0
230
1.0
 70
    11
 71
     3
 72
    24
 73
    20
 74
     0
 42
0.0000000001
 43
0.0000000001
 12
1.0
 22
0.0
 32
0.0
 13
1.0
 23
0.0
 33
0.0
 40
0.0
 40
0.0
 40
0.0
 40
0.0
 40
0.1666666666666667
 40
0.1666666666666667
 40
0.1666666666666667
 40
0.1666666666666667
 40
0.3333333333333333
 40
0.3333333333333333
 40
0.3333333333333333
 40
0.3333333333333333
 40
0.5
 40
0.5
 40
0.5
 40
0.5
 40
0.6666666666666666
 40
0.6666666666666666
 40
0.6666666666666666
 40
0.6666666666666666
 40
1.0
 40
1.0
 40
1.0
 40
1.0
 10
-30.7401
 20
-23.5555
 30
0.0
 10
-30.7401
 20
-23.5555
 30
0.0
 10
-27.0478
 20
-23.5555
 30
0.0
 10
-27.0478
 20
-23.5555
 30
0.0
 10
-27.0478
 20
-23.5555
 30
0.0
 10
-27.0478
 20
-23.5555
 30
0.0
 10
-27.0478
 20
-8.5811
 30
0.0
 10
-27.0478
 20
-8.5811
 30
0.0
 10
-27.0478
 20
-8.5811
 30
0.0
 10
-27.0478
 20
-8.5811
 30
0.0
 10
-28.9803
 20
-6.0501
 30
0.0
 10
-28.9803
 20
-6.0501
 30
0.0
 10
-28.9803
 20
-6.0501
 30
0.0
 10
-28.9803
 20
-6.0501
 30
0.0
 10
-30.7401
 20
-8.5811
 30
0.0
 10
-30.7401
 20
-8.5811
 30
0.0
 10
-30.7401
 20
-8.5811
 30
0.0
 10
-30.7401
 20
-8.5811
 30
0.0
 10
-30.7401
 20
-23.5555
 30
0.0
 10
-30.7401
 20
-23.5555
 30
0.0
  0
SPLINE
  5
6F
330
1F
100
AcDbEntity
  8
layer 1
 62
     7
100
AcDbSpline
210
0.0
220
0.0
230
1.0
 70
    11
 71
     3
 72
    44
 73
    40
 74
     0
 42
0.0000000001
 43
0.0000000001
 12
1.0
 22
0.0
 32
0.0
 13
1.0
 23
0.0
 33
0.0
 40
0.0
 40
0.0
 40
0.0
 40
0.0
 40
0.0909090909090909
 40
0.0909090909090909
 40
0.0909090909090909
 40
0.0909090909090909
 40
0.1818181818181818
 40
0.1818181818181818
 40
0.1818181818181818
 40
0.1818181818181818
 40
0.2727272727272727
 40
0.2727272727272727
 40
0.2727272727272727
 40
0.2727272727272727
 40
0.3636363636363636
 40
0.3636363636363636
 40
0.3636363636363636
 40
0.3636363636363636
 40
0.4545454545454545
 40
0.4545454545454545
 40
0.4545454545454545
 40
0.4545454545454545
 40
0.5454545454545454
 40
0.5454545454545454
 40
0.5454545454545454
 40
0.5454545454545454
 40
0.6363636363636364
 40
0.6363636363636364
 40
0.6363636363636364
 40
0.6363636363636364
 40
0.7272727272727273
 40
0.7272727272727273
 40
0.7272727272727273
 40
0.7272727272727273
 40
0.8181818181818182
 40
0.8181818181818182
 40
0.8181818181818182
 40
0.8181818181818182
 40
1.0
 40
1.0
 40
1.0
 40
1.0
 10
-22.9154
 20
-23.5555
 30
0.0
 10
-22.9154
 20
-23.5555
 30
0.0
 10
-5.5089
 20
-23.5555
 30
0.0
 10
-5.5089
 20
-23.5555
 30
0.0
 10
-5.5089
 20
-23.5555
 30
0.0
 10
-5.5089
 20
-23.5555
 30
0.0
 10
-2.1377
 20
-26.5522
 30
0.0
 10
-2.1377
 20
-26.5522
 30
0.0
 10
-2.1377
 20
-26.5522
 30
0.0
 10
-2.1377
 20
-26.5522
 30
0.0
 10
2.5449
 20
-21.8489
 30
0.0
 10
2.5449
 20
-21.8489
 30
0.0
 10
2.5449
 20
-21.8489
 30
0.0
 10
2.5449
 20
-21.8489
 30
0.0
 10
2.4616
 20
-9.0388
 30
0.0
 10
2.4616
 20
-9.0388
 30
0.0
 10
2.4616
 20
-9.0388
 30
0.0
 10
2.4616
 20
-9.0388
 30
0.0
 10
-7.92
 20
-8.9218
 30
0.0
 10
-7.92
 20
-8.9218
 30
0.0
 10
-7.92
 20
-8.9218
 30
0.0
 10
-7.92
 20
-8.9218
 30
0.0
 10
-7.9575
 20
1.7831
 30
0.0
 10
-7.9575
 20
1.7831
 30
0.0
 10
-7.9575
 20
1.7831
 30
0.0
 10
-7.9575
 20
1.7831
 30
0.0
 10
-21.1256
 20
1.7831
 30
0.0
 10
-21.1256
 20
1.7831
 30
0.0
 10
-21.1256
 20
1.7831
 30
0.0
 10
-21.1256
 20
1.7831
 30
0.0
 10
-25.8289
 20
-3.0621
 30
0.0
 10
-25.8289
 20
-3.0621
 30
0.0
 10
-25.8289
 20
-3.0621
 30
0.0
 10
-25.8289
 20
-3.0621
 30
0.0
 10
-22.9154
 20
-6.1421
 30
0.0
 10
-22.9154
 20
-6.1421
 30
0.0
 10
-22.9154
 20
-6.1421
 30
0.0
 10
-22.9154
 20
-6.1421
 30
0.0
 10
-22.9154
 20
-23.5555
 30
0.0
 10
-22.9154
 20
-23.5555
 30
0.0
  0
SPLINE
  5
70
330
1F
100
AcDbEntity
  8
layer 1
 62
     7
100
AcDbSpline
210
0.0
220
0.0
230
1.0
 70
    11
 71
     3
 72
    28
 73
    24
 74
     0
 42
0.0000000001
 43
0.0000000001
 12
1.0
 22
0.0
 32
0.0
 13
1.0
 23
0.0
 33
0.0
 40
0.0
 40
0.0
 40
0.0
 40
0.0
 40
0.1428571428571428
 40
0.1428571428571428
 40
0.1428571428571428
 40
0.1428571428571428
 40
0.2857142857142857
 40
0.2857142857142857
 40
0.2857142857142857
 40
0.2857142857142857
 40
0.4285714285714285
 40
0.4285714285714285
 40
0.4285714285714285
 40
0.4285714285714285
 40
0.5714285714285714
 40
0.5714285714285714
 40
0.5714285714285714
 40
0.5714285714285714
 40
0.7142857142857143
 40
0.7142857142857143
 40
0.7142857142857143
 40
0.7142857142857143
 40
1.0
 40
1.0
 40
1.0
 40
1.0
 10
-35.0391
 20
-23.5555
 30
0.0
 10
-35.0391
 20
-23.5555
 30
0.0
 10
-50.0344
 20
-23.5555
 30
0.0
 10
-50.0344
 20
-23.5555
 30
0.0
 10
-50.0344
 20
-23.5555
 30
0.0
 10
-50.0344
 20
-23.5555
 30
0.0
 10
-49.997
 20
1.7831
 30
0.0
 10
-49.997
 20
1.7831
 30
0.0
 10
-49.997
 20
1.7831
 30
0.0
 10
-49.997
 20
1.7831
 30
0.0
 10
-36.8289
 20
1.7831
 30
0.0
 10
-36.8289
 20
1.7831
 30
0.0
 10
-36.8289
 20
1.7831
 30
0.0
 10
-36.8289
 20
1.7831
 30
0.0
 10
-32.1257
 20
-3.0621
 30
0.0
 10
-32.1257
 20
-3.0621
 30
0.0
 10
-32.1257
 20
-3.0621
 30
0.0
 10
-32.1257
 20
-3.0621
 30
0.0
 10
-35.0391
 20
-6.1421
 30
0.0
 10
-35.0391
 20
-6.1421
 30
0.0
 10
-35.0391
 20
-6.1421
 30
0.0
 10
-35.0391
 20
-6.1421
 30
0.0
 10
-35.0391
 20
-23.5555
 30
0.0
 10
-35.0391
 20
-23.5555
 30
0.0
  0
SPLINE
  5
71
330
1F
100
AcDbEntity
  8
layer 1
 62
     7
100
AcDbSpline
210
0.0
220
0.0
230
1.0
 70
    11
 71
     3
 72
    24
 73
    20
 74
     0
 42
0.0000000001
 43
0.0000000001
 12
1.0
 22
0.0
 32
0.0
 13
1.0
 23
0.0
 33
0.0
 40
0.0
 40
0.0
 40
0.0
 40
0.0
 40
0.1666666666666667
 40
0.1666666666666667
 40
0.1666666666666667
 40
0.1666666666666667
 40
0.3333333333333333
 40
0.3333333333333333
 40
0.3333333333333333
 40
0.3333333333333333
 40
0.5
 40
0.5
 40
0.5
 40
0.5
 40
0.6666666666666666
 40
0.6666666666666666
 40
0.6666666666666666
 40
0.6666666666666666
 40
1.0
 40
1.0
 40
1.0
 40
1.0
 10
46.686
 20
-23.5555
 30
0.0
 10
46.686
 20
-23.5555
 30
0.0
 10
50.3783
 20
-23.5555
 30
0.0
 10
50.3783
 20
-23.5555
 30
0.0
 10
50.3783
 20
-23.5555
 30
0.0
 10
50.3783
 20
-23.5555
 30
0.0
 10
50.3783
 20
-8.5811
 30
0.0
 10
50.3783
 20
-8.5811
 30
0.0
 10
50.3783
 20
-8.5811
 30
0.0
 10
50.3783
 20
-8.5811
 30
0.0
 10
48.4458
 20
-6.0501
 30
0.0
 10
48.4458
 20
-6.0501
 30
0.0
 10
48.4458
 20
-6.0501
 30
0.0
 10
48.4458
 20
-6.0501
 30
0.0
 10
46.686
 20
-8.5811
 30
0.0
 10
46.686
 20
-8.5811
 30
0.0
 10
46.686
 20
-8.5811
 30
0.0
 10
46.686
 20
-8.5811
 30
0.0
 10
46.686
 20
-23.5555
 30
0.0
 10
46.686
 20
-23.5555
 30
0.0
  0
SPLINE
  5
72
330
1F
100
AcDbEntity
  8
layer 1
 62
     7
100
AcDbSpline
210
0.0
220
0.0
230
1.0
 70
    11
 71
     3
 72
    28
 73
    24
 74
     0
 42
0.0000000001
 43
0.0000000001
 12
1.0
 22
0.0
 32
0.0
 13
1.0
 23
0.0
 33
0.0
 40
0.0
 40
0.0
 40
0.0
 40
0.0
 40
0.1428571428571428
 40
0.1428571428571428
 40
0.1428571428571428
 40
0.1428571428571428
 40
0.2857142857142857
 40
0.2857142857142857
 40
0.2857142857142857
 40
0.2857142857142857
 40
0.4285714285714285
 40
0.4285714285714285
 40
0.4285714285714285
 40
0.4285714285714285
 40
0.5714285714285714
 40
0.5714285714285714
 40
0.5714285714285714
 40
0.5714285714285714
 40
0.7142857142857143
 40
0.7142857142857143
 40
0.7142857142857143
 40
0.7142857142857143
 40
1.0
 40
1.0
 40
1.0
 40
1.0
 10
54.5109
 20
-23.5555
 30
0.0
 10
54.5109
 20
-23.5555
 30
0.0
 10
69.4545
 20
-23.5555
 30
0.0
 10
69.4545
 20
-23.5555
 30
0.0
 10
69.4545
 20
-23.5555
 30
0.0
 10
69.4545
 20
-23.5555
 30
0.0
 10
69.4687
 20
1.7831
 30
0.0
 10
69.4687
 20
1.7831
 30
0.0
 10
69.4687
 20
1.7831
 30
0.0
 10
69.4687
 20
1.7831
 30
0.0
 10
56.3007
 20
1.7831
 30
0.0
 10
56.3007
 20
1.7831
 30
0.0
 10
56.3007
 20
1.7831
 30
0.0
 10
56.3007
 20
1.7831
 30
0.0
 10
51.5974
 20
-3.0621
 30
0.0
 10
51.5974
 20
-3.0621
 30
0.0
 10
51.5974
 20
-3.0621
 30
0.0
 10
51.5974
 20
-3.0621
 30
0.0
 10
54.5109
 20
-6.1421
 30
0.0
 10
54.5109
 20
-6.1421
 30
0.0
 10
54.5109
 20
-6.1421
 30
0.0
 10
54.5109
 20
-6.1421
 30
0.0
 10
54.5109
 20
-23.5555
 30
0.0
 10
54.5109
 20
-23.5555
 30
0.0
  0
SPLINE
  5
73
330
1F
100
AcDbEntity
  8
layer 1
 62
     7
100
AcDbSpline
210
0.0
220
0.0
230
1.0
 70
    11
 71
     3
 72
    44
 73
    40
 74
     0
 42
0.0000000001
 43
0.0000000001
 12
1.0
 22
0.0
 32
0.0
 13
1.0
 23
0.0
 33
0.0
 40
0.0
 40
0.0
 40
0.0
 40
0.0
 40
0.0909090909090909
 40
0.0909090909090909
 40
0.0909090909090909
 40
0.0909090909090909
 40
0.1818181818181818
 40
0.1818181818181818
 40
0.1818181818181818
 40
0.1818181818181818
 40
0.2727272727272727
 40
0.2727272727272727
 40
0.2727272727272727
 40
0.2727272727272727
 40
0.3636363636363636
 40
0.3636363636363636
 40
0.3636363636363636
 40
0.3636363636363636
 40
0.4545454545454545
 40
0.4545454545454545
 40
0.4545454545454545
 40
0.4545454545454545
 40
0.5454545454545454
 40
0.5454545454545454
 40
0.5454545454545454
 40
0.5454545454545454
 40
0.6363636363636364
 40
0.6363636363636364
 40
0.6363636363636364
 40
0.6363636363636364
 40
0.7272727272727273
 40
0.7272727272727273
 40
0.7272727272727273
 40
0.7272727272727273
 40
0.8181818181818182
 40
0.8181818181818182
 40
0.8181818181818182
 40
0.8181818181818182
 40
1.0
 40
1.0
 40
1.0
 40
1.0
 10
42.3871
 20
-23.5555
 30
0.0
 10
42.3871
 20
-23.5555
 30
0.0
 10
24.9807
 20
-23.5555
 30
0.0
 10
24.9807
 20
-23.5555
 30
0.0
 10
24.9807
 20
-23.5555
 30
0.0
 10
24.9807
 20
-23.5555
 30
0.0
 10
21.6094
 20
-26.5522
 30
0.0
 10
21.6094
 20
-26.5522
 30
0.0
 10
21.6094
 20
-26.5522
 30
0.0
 10
21.6094
 20
-26.5522
 30
0.0
 10
16.9269
 20
-21.8489
 30
0.0
 10
16.9269
 20
-21.8489
 30
0.0
 10
16.9269
 20
-21.8489
 30
0.0
 10
16.9269
 20
-21.8489
 30
0.0
 10
17.0101
 20
-9.0388
 30
0.0
 10
17.0101
 20
-9.0388
 30
0.0
 10
17.0101
 20
-9.0388
 30
0.0
 10
17.0101
 20
-9.0388
 30
0.0
 10
27.3917
 20
-8.9218
 30
0.0
 10
27.3917
 20
-8.9218
 30
0.0
 10
27.3917
 20
-8.9218
 30
0.0
 10
27.3917
 20
-8.9218
 30
0.0
 10
27.4292
 20
1.7831
 30
0.0
 10
27.4292
 20
1.7831
 30
0.0
 10
27.4292
 20
1.7831
 30
0.0
 10
27.4292
 20
1.7831
 30
0.0
 10
40.5973
 20
1.7831
 30
0.0
 10
40.5973
 20
1.7831
 30
0.0
 10
40.5973
 20
1.7831
 30
0.0
 10
40.5973
 20
1.7831
 30
0.0
 10
45.3006
 20
-3.0621
 30
0.0
 10
45.3006
 20
-3.0621
 30
0.0
 10
45.3006
 20
-3.0621
 30
0.0
 10
45.3006
 20
-3.0621
 30
0.0
 10
42.3871
 20
-6.1421
 30
0.0
 10
42.3871
 20
-6.1421
 30
0.0
 10
42.3871
 20
-6.1421
 30
0.0
 10
42.3871
 20
-6.1421
 30
0.0
 10
42.3871
 20
-23.5555
 30
0.0
 10
42.3871
 20
-23.5555
 30
0.0
  0
SPLINE
  5
74
330
1F
100
AcDbEntity
  8
layer 1
 62
     7
100
AcDbSpline
210
0.0
220
0.0
230
1.0
 70
    11
 71
     3
 72
    24
 73
    20
 74
     0
 42
0.0000000001
 43
0.0000000001
 12
1.0
 22
0.0
 32
0.0
 13
1.0
 23
0.0
 33
0.0
 40
0.0
 40
0.0
 40
0.0
 40
0.0
 40
0.1666666666666667
 40
0.1666666666666667
 40
0.1666666666666667
 40
0.1666666666666667
 40
0.3333333333333333
 40
0.3333333333333333
 40
0.3333333333333333
 40
0.3333333333333333
 40
0.5
 40
0.5
 40
0.5
 40
0.5
 40
0.6666666666666666
 40
0.6666666666666666
 40
0.6666666666666666
 40
0.6666666666666666
 40
1.0
 40
1.0
 40
1.0
 40
1.0
 10
-30.7401
 20
-99.9192
 30
0.0
 10
-30.7401
 20
-99.9192
 30
0.0
 10
-27.0478
 20
-99.9192
 30
0.0
 10
-27.0478
 20
-99.9192
 30
0.0
 10
-27.0478
 20
-99.9192
 30
0.0
 10
-27.0478
 20
-99.9192
 30
0.0
 10
-27.0478
 20
-84.9448
 30
0.0
 10
-27.0478
 20
-84.9448
 30
0.0
 10
-27.0478
 20
-84.9448
 30
0.0
 10
-27.0478
 20
-84.9448
 30
0.0
 10
-28.9803
 20
-82.4138
 30
0.0
 10
-28.9803
 20
-82.4138
 30
0.0
 10
-28.9803
 20
-82.4138
 30
0.0
 10
-28.9803
 20
-82.4138
 30
0.0
 10
-30.7401
 20
-84.9448
 30
0.0
 10
-30.7401
 20
-84.9448
 30
0.0
 10
-30.7401
 20
-84.9448
 30
0.0
 10
-30.7401
 20
-84.9448
 30
0.0
 10
-30.7401
 20
-99.9192
 30
0.0
 10
-30.7401
 20
-99.9192
 30
0.0
  0
SPLINE
  5
75
330
1F
100
AcDbEntity
  8
layer 1
 62
     7
100
AcDbSpline
210
0.0
220
0.0
230
1.0
 70
    11
 71
     3
 72
    44
 73
    40
 74
     0
 42
0.0000000001
 43
0.0000000001
 12
1.0
 22
0.0
 32
0.0
 13
1.0
 23
0.0
 33
0.0
 40
0.0
 40
0.0
 40
0.0
 40
0.0
 40
0.0909090909090909
 40
0.0909090909090909
 40
0.0909090909090909
 40
0.0909090909090909
 40
0.1818181818181818
 40
0.1818181818181818
 40
0.1818181818181818
 40
0.1818181818181818
 40
0.2727272727272727
 40
0.2727272727272727
 40
0.2727272727272727
 40
0.2727272727272727
 40
0.3636363636363636
 40
0.3636363636363636
 40
0.3636363636363636
 40
0.3636363636363636
 40
0.4545454545454545
 40
0.4545454545454545
 40
0.4545454545454545
 40
0.4545454545454545
 40
0.5454545454545454
 40
0.5454545454545454
 40
0.5454545454545454
 40
0.5454545454545454
 40
0.6363636363636364
 40
0.6363636363636364
 40
0.6363636363636364
 40
0.6363636363636364
 40
0.7272727272727273
 40
0.7272727272727273
 40
0.7272727272727273
 40
0.7272727272727273
 40
0.8181818181818182
 40
0.8181818181818182
 40
0.8181818181818182
 40
0.8181818181818182
 40
1.0
 40
1.0
 40
1.0
 40
1.0
 10
-22.9154
 20
-99.9192
 30
0.0
 10
-22.9154
 20
-99.9192
 30
0.0
 10
-5.5089
 20
-99.9192
 30
0.0
 10
-5.5089
 20
-99.9192
 30
0.0
 10
-5.5089
 20
-99.9192
 30
0.0
 10
-5.5089
 20
-99.9192
 30
0.0
 10
-2.1377
 20
-102.9158
 30
0.0
 10
-2.1377
 20
-102.9158
 30
0.0
 10
-2.1377
 20
-102.9158
 30
0.0
 10
-2.1377
 20
-102.9158
 30
0.0
 10
2.5449
 20
-98.2126
 30
0.0
 10
2.5449
 20
-98.2126
 30
0.0
 10
2.5449
 20
-98.2126
 30
0.0
 10
2.5449
 20
-98.2126
 30
0.0
 10
2.4616
 20
-85.4025
 30
0.0
 10
2.4616
 20
-85.4025
 30
0.0
 10
2.4616
 20
-85.4025
 30
0.0
 10
2.4616
 20
-85.4025
 30
0.0
 10
-7.92
 20
-85.2855
 30
0.0
 10
-7.92
 20
-85.2855
 30
0.0
 10
-7.92
 20
-85.2855
 30
0.0
 10
-7.92
 20
-85.2855
 30
0.0
 10
-7.9575
 20
-74.5806
 30
0.0
 10
-7.9575
 20
-74.5806
 30
0.0
 10
-7.9575
 20
-74.5806
 30
0.0
 10
-7.9575
 20
-74.5806
 30
0.0
 10
-21.1256
 20
-74.5806
 30
0.0
 10
-21.1256
 20
-74.5806
 30
0.0
 10
-21.1256
 20
-74.5806
 30
0.0
 10
-21.1256
 20
-74.5806
 30
0.0
 10
-25.8289
 20
-79.4258
 30
0.0
 10
-25.8289
 20
-79.4258
 30
0.0
 10
-25.8289
 20
-79.4258
 30
0.0
 10
-25.8289
 20
-79.4258
 30
0.0
 10
-22.9154
 20
-82.5058
 30
0.0
 10
-22.9154
 20
-82.5058
 30
0.0
 10
-22.9154
 20
-82.5058
 30
0.0
 10
-22.9154
 20
-82.5058
 30
0.0
 10
-22.9154
 20
-99.9192
 30
0.0
 10
-22.9154
 20
-99.9192
 30
0.0
  0
SPLINE
  5
76
330
1F
100
AcDbEntity
  8
layer 1
 62
     7
100
AcDbSpline
210
0.0
220
0.0
230
1.0
 70
    11
 71
     3
 72
    28
 73
    24
 74
     0
 42
0.0000000001
 43
0.0000000001
 12
1.0
 22
0.0
 32
0.0
 13
1.0
 23
0.0
 33
0.0
 40
0.0
 40
0.0
 40
0.0
 40
0.0
 40
0.1428571428571428
 40
0.1428571428571428
 40
0.1428571428571428
 40
0.1428571428571428
 40
0.2857142857142857
 40
0.2857142857142857
 40
0.2857142857142857
 40
0.2857142857142857
 40
0.4285714285714285
 40
0.4285714285714285
 40
0.4285714285714285
 40
0.4285714285714285
 40
0.5714285714285714
 40
0.5714285714285714
 40
0.5714285714285714
 40
0.5714285714285714
 40
0.7142857142857143
 40
0.7142857142857143
 40
0.7142857142857143
 40
0.7142857142857143
 40
1.0
 40
1.0
 40
1.0
 40
1.0
 10
-35.0391
 20
-99.9192
 30
0.0
 10
-35.0391
 20
-99.9192
 30
0.0
 10
-50.0344
 20
-99.9192
 30
0.0
 10
-50.0344
 20
-99.9192
 30
0.0
 10
-50.0344
 20
-99.9192
 30
0.0
 10
-50.0344
 20
-99.9192
 30
0.0
 10
-49.997
 20
-74.5806
 30
0.0
 10
-49.997
 20
-74.5806
 30
0.0
 10
-49.997
 20
-74.5806
 30
0.0
 10
-49.997
 20
-74.5806
 30
0.0
 10
-36.8289
 20
-74.5806
 30
0.0
 10
-36.8289
 20
-74.5806
 30
0.0
 10
-36.8289
 20
-74.5806
 30
0.0
 10
-36.8289
 20
-74.5806
 30
0.0
 10
-32.1257
 20
-79.4258
 30
0.0
 10
-32.1257
 20
-79.4258
 30
0.0
 10
-32.1257
 20
-79.4258
 30
0.0
 10
-32.1257
 20
-79.4258
 30
0.0
 10
-35.0391
 20
-82.5058
 30
0.0
 10
-35.0391
 20
-82.5058
 30
0.0
 10
-35.0391
 20
-82.5058
 30
0.0
 10
-35.0391
 20
-82.5058
 30
0.0
 10
-35.0391
 20
-99.9192
 30
0.0
 10
-35.0391
 20
-99.9192
 30
0.0
  0
SPLINE
  5
77
330
1F
100
AcDbEntity
  8
layer 1
 62
     7
100
AcDbSpline
210
0.0
220
0.0
230
1.0
 70
    11
 71
     3
 72
    24
 73
    20
 74
     0
 42
0.0000000001
 43
0.0000000001
 12
1.0
 22
0.0
 32
0.0
 13
1.0
 23
0.0
 33
0.0
 40
0.0
 40
0.0
 40
0.0
 40
0.0
 40
0.1666666666666667
 40
0.1666666666666667
 40
0.1666666666666667
 40
0.1666666666666667
 40
0.3333333333333333
 40
0.3333333333333333
 40
0.3333333333333333
 40
0.3333333333333333
 40
0.5
 40
0.5
 40
0.5
 40
0.5
 40
0.6666666666666666
 40
0.6666666666666666
 40
0.6666666666666666
 40
0.6666666666666666
 40
1.0
 40
1.0
 40
1.0
 40
1.0
 10
46.686
 20
-99.9192
 30
0.0
 10
46.686
 20
-99.9192
 30
0.0
 10
50.3783
 20
-99.9192
 30
0.0
 10
50.3783
 20
-99.9192
 30
0.0
 10
50.3783
 20
-99.9192
 30
0.0
 10
50.3783
 20
-99.9192
 30
0.0
 10
50.3783
 20
-84.9448
 30
0.0
 10
50.3783
 20
-84.9448
 30
0.0
 10
50.3783
 20
-84.9448
 30
0.0
 10
50.3783
 20
-84.9448
 30
0.0
 10
48.4458
 20
-82.4138
 30
0.0
 10
48.4458
 20
-82.4138
 30
0.0
 10
48.4458
 20
-82.4138
 30
0.0
 10
48.4458
 20
-82.4138
 30
0.0
 10
46.686
 20
-84.9448
 30
0.0
 10
46.686
 20
-84.9448
 30
0.0
 10
46.686
 20
-84.9448
 30
0.0
 10
46.686
 20
-84.9448
 30
0.0
 10
46.686
 20
-99.9192
 30
0.0
 10
46.686
 20
-99.9192
 30
0.0
  0
SPLINE
  5
78
330
1F
100
AcDbEntity
  8
layer 1
 62
     7
100
AcDbSpline
210
0.0
220
0.0
230
1.0
 70
    11
 71
     3
 72
    28
 73
    24
 74
     0
 42
0.0000000001
 43
0.0000000001
 12
1.0
 22
0.0
 32
0.0
 13
1.0
 23
0.0
 33
0.0
 40
0.0
 40
0.0
 40
0.0
 40
0.0
 40
0.1428571428571428
 40
0.1428571428571428
 40
0.1428571428571428
 40
0.1428571428571428
 40
0.2857142857142857
 40
0.2857142857142857
 40
0.2857142857142857
 40
0.2857142857142857
 40
0.4285714285714285
 40
0.4285714285714285
 40
0.4285714285714285
 40
0.4285714285714285
 40
0.5714285714285714
 40
0.5714285714285714
 40
0.5714285714285714
 40
0.5714285714285714
 40
0.7142857142857143
 40
0.7142857142857143
 40
0.7142857142857143
 40
0.7142857142857143
 40
1.0
 40
1.0
 40
1.0
 40
1.0
 10
54.5109
 20
-99.9192
 30
0.0
 10
54.5109
 20
-99.9192
 30
0.0
 10
69.4545
 20
-99.9192
 30
0.0
 10
69.4545
 20
-99.9192
 30
0.0
 10
69.4545
 20
-99.9192
 30
0.0
 10
69.4545
 20
-99.9192
 30
0.0
 10
69.4687
 20
-74.5806
 30
0.0
 10
69.4687
 20
-74.5806
 30
0.0
 10
69.4687
 20
-74.5806
 30
0.0
 10
69.4687
 20
-74.5806
 30
0.0
 10
56.3007
 20
-74.5806
 30
0.0
 10
56.3007
 20
-74.5806
 30
0.0
 10
56.3007
 20
-74.5806
 30
0.0
 10
56.3007
 20
-74.5806
 30
0.0
 10
51.5974
 20
-79.4258
 30
0.0
 10
51.5974
 20
-79.4258
 30
0.0
 10
51.5974
 20
-79.4258
 30
0.0
 10
51.5974
 20
-79.4258
 30
0.0
 10
54.5109
 20
-82.5058
 30
0.0
 10
54.5109
 20
-82.5058
 30
0.0
 10
54.5109
 20
-82.5058
 30
0.0
 10
54.5109
 20
-82.5058
 30
0.0
 10
54.5109
 20
-99.9192
 30
0.0
 10
54.5109
 20
-99.9192
 30
0.0
  0
SPLINE
  5
79
330
1F
100
AcDbEntity
  8
layer 1
 62
     7
100
AcDbSpline
210
0.0
220
0.0
230
1.0
 70
    11
 71
     3
 72
    44
 73
    40
 74
     0
 42
0.0000000001
 43
0.0000000001
 12
1.0
 22
0.0
 32
0.0
 13
1.0
 23
0.0
 33
0.0
 40
0.0
 40
0.0
 40
0.0
 40
0.0
 40
0.0909090909090909
 40
0.0909090909090909
 40
0.0909090909090909
 40
0.0909090909090909
 40
0.1818181818181818
 40
0.1818181818181818
 40
0.1818181818181818
 40
0.1818181818181818
 40
0.2727272727272727
 40
0.2727272727272727
 40
0.2727272727272727
 40
0.2727272727272727
 40
0.3636363636363636
 40
0.3636363636363636
 40
0.3636363636363636
 40
0.3636363636363636
 40
0.4545454545454545
 40
0.4545454545454545
 40
0.4545454545454545
 40
0.4545454545454545
 40
0.5454545454545454
 40
0.5454545454545454
 40
0.5454545454545454
 40
0.5454545454545454
 40
0.6363636363636364
 40
0.6363636363636364
 40
0.6363636363636364
 40
0.6363636363636364
 40
0.7272727272727273
 40
0.7272727272727273
 40
0.7272727272727273
 40
0.7272727272727273
 40
0.8181818181818182
 40
0.8181818181818182
 40
0.8181818181818182
 40
0.8181818181818182
 40
1.0
 40
1.0
 40
1.0
 40
1.0
 10
42.3871
 20
-99.9192
 30
0.0
 10
42.3871
 20
-99.9192
 30
0.0
 10
24.9807
 20
-99.9192
 30
0.0
 10
24.9807
 20
-99.9192
 30
0.0
 10
24.9807
 20
-99.9192
 30
0.0
 10
24.9807
 20
-99.9192
 30
0.0
 10
21.6094
 20
-102.9158
 30
0.0
 10
21.6094
 20
-102.9158
 30
0.0
 10
21.6094
 20
-102.9158
 30
0.0
 10
21.6094
 20
-102.9158
 30
0.0
 10
16.9269
 20
-98.2126
 30
0.0
 10
16.9269
 20
-98.2126
 30
0.0
 10
16.9269
 20
-98.2126
 30
0.0
 10
16.9269
 20
-98.2126
 30
0.0
 10
17.0101
 20
-85.4025
 30
0.0
 10
17.0101
 20
-85.4025
 30
0.0
 10
17.0101
 20
-85.4025
 30
0.0
 10
17.0101
 20
-85.4025
 30
0.0
 10
27.3917
 20
-85.2855
 30
0.0
 10
27.3917
 20
-85.2855
 30
0.0
 10
27.3917
 20
-85.2855
 30
0.0
 10
27.3917
 20
-85.2855
 30
0.0
 10
27.4292
 20
-74.5806
 30
0.0
 10
27.4292
 20
-74.5806
 30
0.0
 10
27.4292
 20
-74.5806
 30
0.0
 10
27.4292
 20
-74.5806
 30
0.0
 10
40.5973
 20
-74.5806
 30
0.0
 10
40.5973
 20
-74.5806
 30
0.0
 10
40.5973
 20
-74.5806
 30
0.0
 10
40.5973
 20
-74.5806
 30
0.0
 10
45.3006
 20
-79.4258
 30
0.0
 10
45.3006
 20
-79.4258
 30
0.0
 10
45.3006
 20
-79.4258
 30
0.0
 10
45.3006
 20
-79.4258
 30
0.0
 10
42.3871
 20
-82.5058
 30
0.0
 10
42.3871
 20
-82.5058
 30
0.0
 10
42.3871
 20
-82.5058
 30
0.0
 10
42.3871
 20
-82.5058
 30
0.0
 10
42.3871
 20
-99.9192
 30
0.0
 10
42.3871
 20
-99.9192
 30
0.0
  0
SPLINE
  5
7A
330
1F
100
AcDbEntity
  8
layer 1
 62
     7
100
AcDbSpline
210
0.0
220
0.0
230
1.0
 70
    11
 71
     3
 72
    24
 73
    20
 74
     0
 42
0.0000000001
 43
0.0000000001
 12
1.0
 22
0.0
 32
0.0
 13
1.0
 23
0.0
 33
0.0
 40
0.0
 40
0.0
 40
0.0
 40
0.0
 40
0.1666666666666667
 40
0.1666666666666667
 40
0.1666666666666667
 40
0.1666666666666667
 40
0.3333333333333333
 40
0.3333333333333333
 40
0.3333333333333333
 40
0.3333333333333333
 40
0.5
 40
0.5
 40
0.5
 40
0.5
 40
0.6666666666666666
 40
0.6666666666666666
 40
0.6666666666666666
 40
0.6666666666666666
 40
1.0
 40
1.0
 40
1.0
 40
1.0
 10
-30.6657
 20
40.8721
 30
0.0
 10
-30.6657
 20
40.8721
 30
0.0
 10
-26.9734
 20
40.8721
 30
0.0
 10
-26.9734
 20
40.8721
 30
0.0
 10
-26.9734
 20
40.8721
 30
0.0
 10
-26.9734
 20
40.8721
 30
0.0
 10
-26.9734
 20
25.8977
 30
0.0
 10
-26.9734
 20
25.8977
 30
0.0
 10
-26.9734
 20
25.8977
 30
0.0
 10
-26.9734
 20
25.8977
 30
0.0
 10
-28.9059
 20
23.3667
 30
0.0
 10
-28.9059
 20
23.3667
 30
0.0
 10
-28.9059
 20
23.3667
 30
0.0
 10
-28.9059
 20
23.3667
 30
0.0
 10
-30.6657
 20
25.8977
 30
0.0
 10
-30.6657
 20
25.8977
 30
0.0
 10
-30.6657
 20
25.8977
 30
0.0
 10
-30.6657
 20
25.8977
 30
0.0
 10
-30.6657
 20
40.8721
 30
0.0
 10
-30.6657
 20
40.8721
 30
0.0
  0
SPLINE
  5
7B
330
1F
100
AcDbEntity
  8
layer 1
 62
     7
100
AcDbSpline
210
0.0
220
0.0
230
1.0
 70
    11
 71
     3
 72
    44
 73
    40
 74
     0
 42
0.0000000001
 43
0.0000000001
 12
1.0
 22
0.0
 32
0.0
 13
1.0
 23
0.0
 33
0.0
 40
0.0
 40
0.0
 40
0.0
 40
0.0
 40
0.0909090909090909
 40
0.0909090909090909
 40
0.0909090909090909
 40
0.0909090909090909
 40
0.1818181818181818
 40
0.1818181818181818
 40
0.1818181818181818
 40
0.1818181818181818
 40
0.2727272727272727
 40
0.2727272727272727
 40
0.2727272727272727
 40
0.2727272727272727
 40
0.3636363636363636
 40
0.3636363636363636
 40
0.3636363636363636
 40
0.3636363636363636
 40
0.4545454545454545
 40
0.4545454545454545
 40
0.4545454545454545
 40
0.4545454545454545
 40
0.5454545454545454
 40
0.5454545454545454
 40
0.5454545454545454
 40
0.5454545454545454
 40
0.6363636363636364
 40
0.6363636363636364
 40
0.6363636363636364
 40
0.6363636363636364
 40
0.7272727272727273
 40
0.7272727272727273
 40
0.7272727272727273
 40
0.7272727272727273
 40
0.8181818181818182
 40
0.8181818181818182
 40
0.8181818181818182
 40
0.8181818181818182
 40
1.0
 40
1.0
 40
1.0
 40
1.0
 10
-22.841
 20
40.8721
 30
0.0
 10
-22.841
 20
40.8721
 30
0.0
 10
-5.4345
 20
40.8721
 30
0.0
 10
-5.4345
 20
40.8721
 30
0.0
 10
-5.4345
 20
40.8721
 30
0.0
 10
-5.4345
 20
40.8721
 30
0.0
 10
-2.0633
 20
43.8688
 30
0.0
 10
-2.0633
 20
43.8688
 30
0.0
 10
-2.0633
 20
43.8688
 30
0.0
 10
-2.0633
 20
43.8688
 30
0.0
 10
2.6193
 20
39.1655
 30
0.0
 10
2.6193
 20
39.1655
 30
0.0
 10
2.6193
 20
39.1655
 30
0.0
 10
2.6193
 20
39.1655
 30
0.0
 10
2.5361
 20
26.3554
 30
0.0
 10
2.5361
 20
26.3554
 30
0.0
 10
2.5361
 20
26.3554
 30
0.0
 10
2.5361
 20
26.3554
 30
0.0
 10
-7.8456
 20
26.2384
 30
0.0
 10
-7.8456
 20
26.2384
 30
0.0
 10
-7.8456
 20
26.2384
 30
0.0
 10
-7.8456
 20
26.2384
 30
0.0
 10
-7.8831
 20
15.5335
 30
0.0
 10
-7.8831
 20
15.5335
 30
0.0
 10
-7.8831
 20
15.5335
 30
0.0
 10
-7.8831
 20
15.5335
 30
0.0
 10
-21.0512
 20
15.5335
 30
0.0
 10
-21.0512
 20
15.5335
 30
0.0
 10
-21.0512
 20
15.5335
 30
0.0
 10
-21.0512
 20
15.5335
 30
0.0
 10
-25.7544
 20
20.3787
 30
0.0
 10
-25.7544
 20
20.3787
 30
0.0
 10
-25.7544
 20
20.3787
 30
0.0
 10
-25.7544
 20
20.3787
 30
0.0
 10
-22.841
 20
23.4587
 30
0.0
 10
-22.841
 20
23.4587
 30
0.0
 10
-22.841
 20
23.4587
 30
0.0
 10
-22.841
 20
23.4587
 30
0.0
 10
-22.841
 20
40.8721
 30
0.0
 10
-22.841
 20
40.8721
 30
0.0
  0
SPLINE
  5
7C
330
1F
100
AcDbEntity
  8
layer 1
 62
     7
100
AcDbSpline
210
0.0
220
0.0
230
1.0
 70
    11
 71
     3
 72
    28
 73
    24
 74
     0
 42
0.0000000001
 43
0.0000000001
 12
1.0
 22
0.0
 32
0.0
 13
1.0
 23
0.0
 33
0.0
 40
0.0
 40
0.0
 40
0.0
 40
0.0
 40
0.1428571428571428
 40
0.1428571428571428
 40
0.1428571428571428
 40
0.1428571428571428
 40
0.2857142857142857
 40
0.2857142857142857
 40
0.2857142857142857
 40
0.2857142857142857
 40
0.4285714285714285
 40
0.4285714285714285
 40
0.4285714285714285
 40
0.4285714285714285
 40
0.5714285714285714
 40
0.5714285714285714
 40
0.5714285714285714
 40
0.5714285714285714
 40
0.7142857142857143
 40
0.7142857142857143
 40
0.7142857142857143
 40
0.7142857142857143
 40
1.0
 40
1.0
 40
1.0
 40
1.0
 10
-34.9647
 20
40.8721
 30
0.0
 10
-34.9647
 20
40.8721
 30
0.0
 10
-50.0345
 20
40.8721
 30
0.0
 10
-50.0345
 20
40.8721
 30
0.0
 10
-50.0345
 20
40.8721
 30
0.0
 10
-50.0345
 20
40.8721
 30
0.0
 10
-49.9226
 20
15.5335
 30
0.0
 10
-49.9226
 20
15.5335
 30
0.0
 10
-49.9226
 20
15.5335
 30
0.0
 10
-49.9226
 20
15.5335
 30
0.0
 10
-36.7545
 20
15.5335
 30
0.0
 10
-36.7545
 20
15.5335
 30
0.0
 10
-36.7545
 20
15.5335
 30
0.0
 10
-36.7545
 20
15.5335
 30
0.0
 10
-32.0513
 20
20.3787
 30
0.0
 10
-32.0513
 20
20.3787
 30
0.0
 10
-32.0513
 20
20.3787
 30
0.0
 10
-32.0513
 20
20.3787
 30
0.0
 10
-34.9647
 20
23.4587
 30
0.0
 10
-34.9647
 20
23.4587
 30
0.0
 10
-34.9647
 20
23.4587
 30
0.0
 10
-34.9647
 20
23.4587
 30
0.0
 10
-34.9647
 20
40.8721
 30
0.0
 10
-34.9647
 20
40.8721
 30
0.0
  0
SPLINE
  5
7D
330
1F
100
AcDbEntity
  8
layer 1
 62
     7
100
AcDbSpline
210
0.0
220
0.0
230
1.0
 70
    11
 71
     3
 72
    24
 73
    20
 74
     0
 42
0.0000000001
 43
0.0000000001
 12
1.0
 22
0.0
 32
0.0
 13
1.0
 23
0.0
 33
0.0
 40
0.0
 40
0.0
 40
0.0
 40
0.0
 40
0.1666666666666667
 40
0.1666666666666667
 40
0.1666666666666667
 40
0.1666666666666667
 40
0.3333333333333333
 40
0.3333333333333333
 40
0.3333333333333333
 40
0.3333333333333333
 40
0.5
 40
0.5
 40
0.5
 40
0.5
 40
0.6666666666666666
 40
0.6666666666666666
 40
0.6666666666666666
 40
0.6666666666666666
 40
1.0
 40
1.0
 40
1.0
 40
1.0
 10
46.7605
 20
40.8721
 30
0.0
 10
46.7605
 20
40.8721
 30
0.0
 10
50.4529
 20
40.8721
 30
0.0
 10
50.4529
 20
40.8721
 30
0.0
 10
50.4529
 20
40.8721
 30
0.0
 10
50.4529
 20
40.8721
 30
0.0
 10
50.4529
 20
25.8977
 30
0.0
 10
50.4529
 20
25.8977
 30
0.0
 10
50.4529
 20
25.8977
 30
0.0
 10
50.4529
 20
25.8977
 30
0.0
 10
48.5203
 20
23.3667
 30
0.0
 10
48.5203
 20
23.3667
 30
0.0
 10
48.5203
 20
23.3667
 30
0.0
 10
48.5203
 20
23.3667
 30
0.0
 10
46.7605
 20
25.8977
 30
0.0
 10
46.7605
 20
25.8977
 30
0.0
 10
46.7605
 20
25.8977
 30
0.0
 10
46.7605
 20
25.8977
 30
0.0
 10
46.7605
 20
40.8721
 30
0.0
 10
46.7605
 20
40.8721
 30
0.0
  0
SPLINE
  5
7E
330
1F
100
AcDbEntity
  8
layer 1
 62
     7
100
AcDbSpline
210
0.0
220
0.0
230
1.0
 70
    11
 71
     3
 72
    28
 73
    24
 74
     0
 42
0.0000000001
 43
0.0000000001
 12
1.0
 22
0.0
 32
0.0
 13
1.0
 23
0.0
 33
0.0
 40
0.0
 40
0.0
 40
0.0
 40
0.0
 40
0.1428571428571428
 40
0.1428571428571428
 40
0.1428571428571428
 40
0.1428571428571428
 40
0.2857142857142857
 40
0.2857142857142857
 40
0.2857142857142857
 40
0.2857142857142857
 40
0.4285714285714285
 40
0.4285714285714285
 40
0.4285714285714285
 40
0.4285714285714285
 40
0.5714285714285714
 40
0.5714285714285714
 40
0.5714285714285714
 40
0.5714285714285714
 40
0.7142857142857143
 40
0.7142857142857143
 40
0.7142857142857143
 40
0.7142857142857143
 40
1.0
 40
1.0
 40
1.0
 40
1.0
 10
54.5853
 20
40.8721
 30
0.0
 10
54.5853
 20
40.8721
 30
0.0
 10
69.4543
 20
40.8721
 30
0.0
 10
69.4543
 20
40.8721
 30
0.0
 10
69.4543
 20
40.8721
 30
0.0
 10
69.4543
 20
40.8721
 30
0.0
 10
69.543
 20
15.5335
 30
0.0
 10
69.543
 20
15.5335
 30
0.0
 10
69.543
 20
15.5335
 30
0.0
 10
69.543
 20
15.5335
 30
0.0
 10
56.3749
 20
15.5335
 30
0.0
 10
56.3749
 20
15.5335
 30
0.0
 10
56.3749
 20
15.5335
 30
0.0
 10
56.3749
 20
15.5335
 30
0.0
 10
51.6717
 20
20.3787
 30
0.0
 10
51.6717
 20
20.3787
 30
0.0
 10
51.6717
 20
20.3787
 30
0.0
 10
51.6717
 20
20.3787
 30
0.0
 10
54.5851
 20
23.4587
 30
0.0
 10
54.5851
 20
23.4587
 30
0.0
 10
54.5851
 20
23.4587
 30
0.0
 10
54.5851
 20
23.4587
 30
0.0
 10
54.5853
 20
40.8721
 30
0.0
 10
54.5853
 20
40.8721
 30
0.0
  0
SPLINE
  5
7F
330
1F
100
AcDbEntity
  8
layer 1
 62
     7
100
AcDbSpline
210
0.0
220
0.0
230
1.0
 70
    11
 71
     3
 72
    44
 73
    40
 74
     0
 42
0.0000000001
 43
0.0000000001
 12
1.0
 22
0.0
 32
0.0
 13
1.0
 23
0.0
 33
0.0
 40
0.0
 40
0.0
 40
0.0
 40
0.0
 40
0.0909090909090909
 40
0.0909090909090909
 40
0.0909090909090909
 40
0.0909090909090909
 40
0.1818181818181818
 40
0.1818181818181818
 40
0.1818181818181818
 40
0.1818181818181818
 40
0.2727272727272727
 40
0.2727272727272727
 40
0.2727272727272727
 40
0.2727272727272727
 40
0.3636363636363636
 40
0.3636363636363636
 40
0.3636363636363636
 40
0.3636363636363636
 40
0.4545454545454545
 40
0.4545454545454545
 40
0.4545454545454545
 40
0.4545454545454545
 40
0.5454545454545454
 40
0.5454545454545454
 40
0.5454545454545454
 40
0.5454545454545454
 40
0.6363636363636364
 40
0.6363636363636364
 40
0.6363636363636364
 40
0.6363636363636364
 40
0.7272727272727273
 40
0.7272727272727273
 40
0.7272727272727273
 40
0.7272727272727273
 40
0.8181818181818182
 40
0.8181818181818182
 40
0.8181818181818182
 40
0.8181818181818182
 40
1.0
 40
1.0
 40
1.0
 40
1.0
 10
42.4616
 20
40.8721
 30
0.0
 10
42.4616
 20
40.8721
 30
0.0
 10
25.0551
 20
40.8721
 30
0.0
 10
25.0551
 20
40.8721
 30
0.0
 10
25.0551
 20
40.8721
 30
0.0
 10
25.0551
 20
40.8721
 30
0.0
 10
21.6838
 20
43.8688
 30
0.0
 10
21.6838
 20
43.8688
 30
0.0
 10
21.6838
 20
43.8688
 30
0.0
 10
21.6838
 20
43.8688
 30
0.0
 10
17.0013
 20
39.1655
 30
0.0
 10
17.0013
 20
39.1655
 30
0.0
 10
17.0013
 20
39.1655
 30
0.0
 10
17.0013
 20
39.1655
 30
0.0
 10
17.0845
 20
26.3554
 30
0.0
 10
17.0845
 20
26.3554
 30
0.0
 10
17.0845
 20
26.3554
 30
0.0
 10
17.0845
 20
26.3554
 30
0.0
 10
27.4661
 20
26.2384
 30
0.0
 10
27.4661
 20
26.2384
 30
0.0
 10
27.4661
 20
26.2384
 30
0.0
 10
27.4661
 20
26.2384
 30
0.0
 10
27.5037
 20
15.5335
 30
0.0
 10
27.5037
 20
15.5335
 30
0.0
 10
27.5037
 20
15.5335
 30
0.0
 10
27.5037
 20
15.5335
 30
0.0
 10
40.6717
 20
15.5335
 30
0.0
 10
40.6717
 20
15.5335
 30
0.0
 10
40.6717
 20
15.5335
 30
0.0
 10
40.6717
 20
15.5335
 30
0.0
 10
45.375
 20
20.3787
 30
0.0
 10
45.375
 20
20.3787
 30
0.0
 10
45.375
 20
20.3787
 30
0.0
 10
45.375
 20
20.3787
 30
0.0
 10
42.4616
 20
23.4587
 30
0.0
 10
42.4616
 20
23.4587
 30
0.0
 10
42.4616
 20
23.4587
 30
0.0
 10
42.4616
 20
23.4587
 30
0.0
 10
42.4616
 20
40.8721
 30
0.0
 10
42.4616
 20
40.8721
 30
0.0
  0
SPLINE
  5
80
330
1F
100
AcDbEntity
  8
layer 1
 62
     7
100
AcDbSpline
210
0.0
220
0.0
230
1.0
 70
    11
 71
     3
 72
    24
 73
    20
 74
     0
 42
0.0000000001
 43
0.0000000001
 12
1.0
 22
0.0
 32
0.0
 13
1.0
 23
0.0
 33
0.0
 40
0.0
 40
0.0
 40
0.0
 40
0.0
 40
0.1666666666666667
 40
0.1666666666666667
 40
0.1666666666666667
 40
0.1666666666666667
 40
0.3333333333333333
 40
0.3333333333333333
 40
0.3333333333333333
 40
0.3333333333333333
 40
0.5
 40
0.5
 40
0.5
 40
0.5
 40
0.6666666666666666
 40
0.6666666666666666
 40
0.6666666666666666
 40
0.6666666666666666
 40
1.0
 40
1.0
 40
1.0
 40
1.0
 10
-30.7401
 20
-35.6111
 30
0.0
 10
-30.7401
 20
-35.6111
 30
0.0
 10
-27.0478
 20
-35.6111
 30
0.0
 10
-27.0478
 20
-35.6111
 30
0.0
 10
-27.0478
 20
-35.6111
 30
0.0
 10
-27.0478
 20
-35.6111
 30
0.0
 10
-27.0478
 20
-50.5854
 30
0.0
 10
-27.0478
 20
-50.5854
 30
0.0
 10
-27.0478
 20
-50.5854
 30
0.0
 10
-27.0478
 20
-50.5854
 30
0.0
 10
-28.9803
 20
-53.1165
 30
0.0
 10
-28.9803
 20
-53.1165
 30
0.0
 10
-28.9803
 20
-53.1165
 30
0.0
 10
-28.9803
 20
-53.1165
 30
0.0
 10
-30.7401
 20
-50.5854
 30
0.0
 10
-30.7401
 20
-50.5854
 30
0.0
 10
-30.7401
 20
-50.5854
 30
0.0
 10
-30.7401
 20
-50.5854
 30
0.0
 10
-30.7401
 20
-35.6111
 30
0.0
 10
-30.7401
 20
-35.6111
 30
0.0
  0
SPLINE
  5
81
330
1F
100
AcDbEntity
  8
layer 1
 62
     7
100
AcDbSpline
210
0.0
220
0.0
230
1.0
 70
    11
 71
     3
 72
    44
 73
    40
 74
     0
 42
0.0000000001
 43
0.0000000001
 12
1.0
 22
0.0
 32
0.0
 13
1.0
 23
0.0
 33
0.0
 40
0.0
 40
0.0
 40
0.0
 40
0.0
 40
0.0909090909090909
 40
0.0909090909090909
 40
0.0909090909090909
 40
0.0909090909090909
 40
0.1818181818181818
 40
0.1818181818181818
 40
0.1818181818181818
 40
0.1818181818181818
 40
0.2727272727272727
 40
0.2727272727272727
 40
0.2727272727272727
 40
0.2727272727272727
 40
0.3636363636363636
 40
0.3636363636363636
 40
0.3636363636363636
 40
0.3636363636363636
 40
0.4545454545454545
 40
0.4545454545454545
 40
0.4545454545454545
 40
0.4545454545454545
 40
0.5454545454545454
 40
0.5454545454545454
 40
0.5454545454545454
 40
0.5454545454545454
 40
0.6363636363636364
 40
0.6363636363636364
 40
0.6363636363636364
 40
0.6363636363636364
 40
0.7272727272727273
 40
0.7272727272727273
 40
0.7272727272727273
 40
0.7272727272727273
 40
0.8181818181818182
 40
0.8181818181818182
 40
0.8181818181818182
 40
0.8181818181818182
 40
1.0
 40
1.0
 40
1.0
 40
1.0
 10
-22.9154
 20
-35.6111
 30
0.0
 10
-22.9154
 20
-35.6111
 30
0.0
 10
-5.5089
 20
-35.6111
 30
0.0
 10
-5.5089
 20
-35.6111
 30
0.0
 10
-5.5089
 20
-35.6111
 30
0.0
 10
-5.5089
 20
-35.6111
 30
0.0
 10
-2.1377
 20
-32.6144
 30
0.0
 10
-2.1377
 20
-32.6144
 30
0.0
 10
-2.1377
 20
-32.6144
 30
0.0
 10
-2.1377
 20
-32.6144
 30
0.0
 10
2.5449
 20
-37.3177
 30
0.0
 10
2.5449
 20
-37.3177
 30
0.0
 10
2.5449
 20
-37.3177
 30
0.0
 10
2.5449
 20
-37.3177
 30
0.0
 10
2.4616
 20
-50.1278
 30
0.0
 10
2.4616
 20
-50.1278
 30
0.0
 10
2.4616
 20
-50.1278
 30
0.0
 10
2.4616
 20
-50.1278
 30
0.0
 10
-7.92
 20
-50.2448
 30
0.0
 10
-7.92
 20
-50.2448
 30
0.0
 10
-7.92
 20
-50.2448
 30
0.0
 10
-7.92
 20
-50.2448
 30
0.0
 10
-7.9575
 20
-60.9497
 30
0.0
 10
-7.9575
 20
-60.9497
 30
0.0
 10
-7.9575
 20
-60.9497
 30
0.0
 10
-7.9575
 20
-60.9497
 30
0.0
 10
-21.1256
 20
-60.9497
 30
0.0
 10
-21.1256
 20
-60.9497
 30
0.0
 10
-21.1256
 20
-60.9497
 30
0.0
 10
-21.1256
 20
-60.9497
 30
0.0
 10
-25.8289
 20
-56.1045
 30
0.0
 10
-25.8289
 20
-56.1045
 30
0.0
 10
-25.8289
 20
-56.1045
 30
0.0
 10
-25.8289
 20
-56.1045
 30
0.0
 10
-22.9154
 20
-53.0244
 30
0.0
 10
-22.9154
 20
-53.0244
 30
0.0
 10
-22.9154
 20
-53.0244
 30
0.0
 10
-22.9154
 20
-53.0244
 30
0.0
 10
-22.9154
 20
-35.6111
 30
0.0
 10
-22.9154
 20
-35.6111
 30
0.0
  0
SPLINE
  5
82
330
1F
100
AcDbEntity
  8
layer 1
 62
     7
100
AcDbSpline
210
0.0
220
0.0
230
1.0
 70
    11
 71
     3
 72
    28
 73
    24
 74
     0
 42
0.0000000001
 43
0.0000000001
 12
1.0
 22
0.0
 32
0.0
 13
1.0
 23
0.0
 33
0.0
 40
0.0
 40
0.0
 40
0.0
 40
0.0
 40
0.1428571428571428
 40
0.1428571428571428
 40
0.1428571428571428
 40
0.1428571428571428
 40
0.2857142857142857
 40
0.2857142857142857
 40
0.2857142857142857
 40
0.2857142857142857
 40
0.4285714285714285
 40
0.4285714285714285
 40
0.4285714285714285
 40
0.4285714285714285
 40
0.5714285714285714
 40
0.5714285714285714
 40
0.5714285714285714
 40
0.5714285714285714
 40
0.7142857142857143
 40
0.7142857142857143
 40
0.7142857142857143
 40
0.7142857142857143
 40
1.0
 40
1.0
 40
1.0
 40
1.0
 10
-35.0391
 20
-35.6111
 30
0.0
 10
-35.0391
 20
-35.6111
 30
0.0
 10
-50.0344
 20
-35.6111
 30
0.0
 10
-50.0344
 20
-35.6111
 30
0.0
 10
-50.0344
 20
-35.6111
 30
0.0
 10
-50.0344
 20
-35.6111
 30
0.0
 10
-49.997
 20
-60.9497
 30
0.0
 10
-49.997
 20
-60.9497
 30
0.0
 10
-49.997
 20
-60.9497
 30
0.0
 10
-49.997
 20
-60.9497
 30
0.0
 10
-36.8289
 20
-60.9497
 30
0.0
 10
-36.8289
 20
-60.9497
 30
0.0
 10
-36.8289
 20
-60.9497
 30
0.0
 10
-36.8289
 20
-60.9497
 30
0.0
 10
-32.1257
 20
-56.1045
 30
0.0
 10
-32.1257
 20
-56.1045
 30
0.0
 10
-32.1257
 20
-56.1045
 30
0.0
 10
-32.1257
 20
-56.1045
 30
0.0
 10
-35.0391
 20
-53.0244
 30
0.0
 10
-35.0391
 20
-53.0244
 30
0.0
 10
-35.0391
 20
-53.0244
 30
0.0
 10
-35.0391
 20
-53.0244
 30
0.0
 10
-35.0391
 20
-35.6111
 30
0.0
 10
-35.0391
 20
-35.6111
 30
0.0
  0
SPLINE
  5
83
330
1F
100
AcDbEntity
  8
layer 1
 62
     7
100
AcDbSpline
210
0.0
220
0.0
230
1.0
 70
    11
 71
     3
 72
    24
 73
    20
 74
     0
 42
0.0000000001
 43
0.0000000001
 12
1.0
 22
0.0
 32
0.0
 13
1.0
 23
0.0
 33
0.0
 40
0.0
 40
0.0
 40
0.0
 40
0.0
 40
0.1666666666666667
 40
0.1666666666666667
 40
0.1666666666666667
 40
0.1666666666666667
 40
0.3333333333333333
 40
0.3333333333333333
 40
0.3333333333333333
 40
0.3333333333333333
 40
0.5
 40
0.5
 40
0.5
 40
0.5
 40
0.6666666666666666
 40
0.6666666666666666
 40
0.6666666666666666
 40
0.6666666666666666
 40
1.0
 40
1.0
 40
1.0
 40
1.0
 10
46.686
 20
-35.6111
 30
0.0
 10
46.686
 20
-35.6111
 30
0.0
 10
50.3783
 20
-35.6111
 30
0.0
 10
50.3783
 20
-35.6111
 30
0.0
 10
50.3783
 20
-35.6111
 30
0.0
 10
50.3783
 20
-35.6111
 30
0.0
 10
50.3783
 20
-50.5854
 30
0.0
 10
50.3783
 20
-50.5854
 30
0.0
 10
50.3783
 20
-50.5854
 30
0.0
 10
50.3783
 20
-50.5854
 30
0.0
 10
48.4458
 20
-53.1165
 30
0.0
 10
48.4458
 20
-53.1165
 30
0.0
 10
48.4458
 20
-53.1165
 30
0.0
 10
48.4458
 20
-53.1165
 30
0.0
 10
46.686
 20
-50.5854
 30
0.0
 10
46.686
 20
-50.5854
 30
0.0
 10
46.686
 20
-50.5854
 30
0.0
 10
46.686
 20
-50.5854
 30
0.0
 10
46.686
 20
-35.6111
 30
0.0
 10
46.686
 20
-35.6111
 30
0.0
  0
SPLINE
  5
84
330
1F
100
AcDbEntity
  8
layer 1
 62
     7
100
AcDbSpline
210
0.0
220
0.0
230
1.0
 70
    11
 71
     3
 72
    28
 73
    24
 74
     0
 42
0.0000000001
 43
0.0000000001
 12
1.0
 22
0.0
 32
0.0
 13
1.0
 23
0.0
 33
0.0
 40
0.0
 40
0.0
 40
0.0
 40
0.0
 40
0.1428571428571428
 40
0.1428571428571428
 40
0.1428571428571428
 40
0.1428571428571428
 40
0.2857142857142857
 40
0.2857142857142857
 40
0.2857142857142857
 40
0.2857142857142857
 40
0.4285714285714285
 40
0.4285714285714285
 40
0.4285714285714285
 40
0.4285714285714285
 40
0.5714285714285714
 40
0.5714285714285714
 40
0.5714285714285714
 40
0.5714285714285714
 40
0.7142857142857143
 40
0.7142857142857143
 40
0.7142857142857143
 40
0.7142857142857143
 40
1.0
 40
1.0
 40
1.0
 40
1.0
 10
54.5109
 20
-35.6111
 30
0.0
 10
54.5109
 20
-35.6111
 30
0.0
 10
69.4545
 20
-35.6111
 30
0.0
 10
69.4545
 20
-35.6111
 30
0.0
 10
69.4545
 20
-35.6111
 30
0.0
 10
69.4545
 20
-35.6111
 30
0.0
 10
69.4687
 20
-60.9497
 30
0.0
 10
69.4687
 20
-60.9497
 30
0.0
 10
69.4687
 20
-60.9497
 30
0.0
 10
69.4687
 20
-60.9497
 30
0.0
 10
56.3007
 20
-60.9497
 30
0.0
 10
56.3007
 20
-60.9497
 30
0.0
 10
56.3007
 20
-60.9497
 30
0.0
 10
56.3007
 20
-60.9497
 30
0.0
 10
51.5974
 20
-56.1045
 30
0.0
 10
51.5974
 20
-56.1045
 30
0.0
 10
51.5974
 20
-56.1045
 30
0.0
 10
51.5974
 20
-56.1045
 30
0.0
 10
54.5109
 20
-53.0244
 30
0.0
 10
54.5109
 20
-53.0244
 30
0.0
 10
54.5109
 20
-53.0244
 30
0.0
 10
54.5109
 20
-53.0244
 30
0.0
 10
54.5109
 20
-35.6111
 30
0.0
 10
54.5109
 20
-35.6111
 30
0.0
  0
SPLINE
  5
85
330
1F
100
AcDbEntity
  8
layer 1
 62
     7
100
AcDbSpline
210
0.0
220
0.0
230
1.0
 70
    11
 71
     3
 72
    44
 73
    40
 74
     0
 42
0.0000000001
 43
0.0000000001
 12
1.0
 22
0.0
 32
0.0
 13
1.0
 23
0.0
 33
0.0
 40
0.0
 40
0.0
 40
0.0
 40
0.0
 40
0.0909090909090909
 40
0.0909090909090909
 40
0.0909090909090909
 40
0.0909090909090909
 40
0.1818181818181818
 40
0.1818181818181818
 40
0.1818181818181818
 40
0.1818181818181818
 40
0.2727272727272727
 40
0.2727272727272727
 40
0.2727272727272727
 40
0.2727272727272727
 40
0.3636363636363636
 40
0.3636363636363636
 40
0.3636363636363636
 40
0.3636363636363636
 40
0.4545454545454545
 40
0.4545454545454545
 40
0.4545454545454545
 40
0.4545454545454545
 40
0.5454545454545454
 40
0.5454545454545454
 40
0.5454545454545454
 40
0.5454545454545454
 40
0.6363636363636364
 40
0.6363636363636364
 40
0.6363636363636364
 40
0.6363636363636364
 40
0.7272727272727273
 40
0.7272727272727273
 40
0.7272727272727273
 40
0.7272727272727273
 40
0.8181818181818182
 40
0.8181818181818182
 40
0.8181818181818182
 40
0.8181818181818182
 40
1.0
 40
1.0
 40
1.0
 40
1.0
 10
42.3871
 20
-35.6111
 30
0.0
 10
42.3871
 20
-35.6111
 30
0.0
 10
24.9807
 20
-35.6111
 30
0.0
 10
24.9807
 20
-35.6111
 30
0.0
 10
24.9807
 20
-35.6111
 30
0.0
 10
24.9807
 20
-35.6111
 30
0.0
 10
21.6094
 20
-32.6144
 30
0.0
 10
21.6094
 20
-32.6144
 30
0.0
 10
21.6094
 20
-32.6144
 30
0.0
 10
21.6094
 20
-32.6144
 30
0.0
 10
16.9269
 20
-37.3177
 30
0.0
 10
16.9269
 20
-37.3177
 30
0.0
 10
16.9269
 20
-37.3177
 30
0.0
 10
16.9269
 20
-37.3177
 30
0.0
 10
17.0101
 20
-50.1278
 30
0.0
 10
17.0101
 20
-50.1278
 30
0.0
 10
17.0101
 20
-50.1278
 30
0.0
 10
17.0101
 20
-50.1278
 30
0.0
 10
27.3917
 20
-50.2448
 30
0.0
 10
27.3917
 20
-50.2448
 30
0.0
 10
27.3917
 20
-50.2448
 30
0.0
 10
27.3917
 20
-50.2448
 30
0.0
 10
27.4292
 20
-60.9497
 30
0.0
 10
27.4292
 20
-60.9497
 30
0.0
 10
27.4292
 20
-60.9497
 30
0.0
 10
27.4292
 20
-60.9497
 30
0.0
 10
40.5973
 20
-60.9497
 30
0.0
 10
40.5973
 20
-60.9497
 30
0.0
 10
40.5973
 20
-60.9497
 30
0.0
 10
40.5973
 20
-60.9497
 30
0.0
 10
45.3006
 20
-56.1045
 30
0.0
 10
45.3006
 20
-56.1045
 30
0.0
 10
45.3006
 20
-56.1045
 30
0.0
 10
45.3006
 20
-56.1045
 30
0.0
 10
42.3871
 20
-53.0244
 30
0.0
 10
42.3871
 20
-53.0244
 30
0.0
 10
42.3871
 20
-53.0244
 30
0.0
 10
42.3871
 20
-53.0244
 30
0.0
 10
42.3871
 20
-35.6111
 30
0.0
 10
42.3871
 20
-35.6111
 30
0.0
  0
SPLINE
  5
86
330
1F
100
AcDbEntity
  8
layer 1
 62
     7
100
AcDbSpline
210
0.0
220
0.0
230
1.0
 70
    11
 71
     3
 72
    52
 73
    48
 74
     0
 42
0.0000000001
 43
0.0000000001
 12
1.0
 22
0.0
 32
0.0
 13
1.0
 23
0.0
 33
0.0
 40
0.0
 40
0.0
 40
0.0
 40
0.0
 40
0.0769230769230769
 40
0.0769230769230769
 40
0.0769230769230769
 40
0.0769230769230769
 40
0.1538461538461539
 40
0.1538461538461539
 40
0.1538461538461539
 40
0.1538461538461539
 40
0.2307692307692308
 40
0.2307692307692308
 40
0.2307692307692308
 40
0.2307692307692308
 40
0.3076923076923077
 40
0.3076923076923077
 40
0.3076923076923077
 40
0.3076923076923077
 40
0.3846153846153846
 40
0.3846153846153846
 40
0.3846153846153846
 40
0.3846153846153846
 40
0.4615384615384616
 40
0.4615384615384616
 40
0.4615384615384616
 40
0.4615384615384616
 40
0.5384615384615384
 40
0.5384615384615384
 40
0.5384615384615384
 40
0.5384615384615384
 40
0.6153846153846154
 40
0.6153846153846154
 40
0.6153846153846154
 40
0.6153846153846154
 40
0.6923076923076923
 40
0.6923076923076923
 40
0.6923076923076923
 40
0.6923076923076923
 40
0.7692307692307693
 40
0.7692307692307693
 40
0.7692307692307693
 40
0.7692307692307693
 40
0.8461538461538461
 40
0.8461538461538461
 40
0.8461538461538461
 40
0.8461538461538461
 40
1.0
 40
1.0
 40
1.0
 40
1.0
 10
12.5032
 20
-4.6338
 30
0.0
 10
12.5032
 20
-4.6338
 30
0.0
 10
6.946
 20
-4.6338
 30
0.0
 10
6.946
 20
-4.6338
 30
0.0
 10
6.946
 20
-4.6338
 30
0.0
 10
6.946
 20
-4.6338
 30
0.0
 10
6.9453
 20
5.9136
 30
0.0
 10
6.9453
 20
5.9136
 30
0.0
 10
6.9453
 20
5.9136
 30
0.0
 10
6.9453
 20
5.9136
 30
0.0
 10
-3.6045
 20
5.9166
 30
0.0
 10
-3.6045
 20
5.9166
 30
0.0
 10
-3.6045
 20
5.9166
 30
0.0
 10
-3.6045
 20
5.9166
 30
0.0
 10
-3.6045
 20
11.4738
 30
0.0
 10
-3.6045
 20
11.4738
 30
0.0
 10
-3.6045
 20
11.4738
 30
0.0
 10
-3.6045
 20
11.4738
 30
0.0
 10
6.9495
 20
11.4705
 30
0.0
 10
6.9495
 20
11.4705
 30
0.0
 10
6.9495
 20
11.4705
 30
0.0
 10
6.9495
 20
11.4705
 30
0.0
 10
6.9457
 20
22.0242
 30
0.0
 10
6.9457
 20
22.0242
 30
0.0
 10
6.9457
 20
22.0242
 30
0.0
 10
6.9457
 20
22.0242
 30
0.0
 10
12.5029
 20
22.0242
 30
0.0
 10
12.5029
 20
22.0242
 30
0.0
 10
12.5029
 20
22.0242
 30
0.0
 10
12.5029
 20
22.0242
 30
0.0
 10
12.5062
 20
11.479
 30
0.0
 10
12.5062
 20
11.479
 30
0.0
 10
12.5062
 20
11.479
 30
0.0
 10
12.5062
 20
11.479
 30
0.0
 10
23.0533
 20
11.4736
 30
0.0
 10
23.0533
 20
11.4736
 30
0.0
 10
23.0533
 20
11.4736
 30
0.0
 10
23.0533
 20
11.4736
 30
0.0
 10
23.0533
 20
5.9164
 30
0.0
 10
23.0533
 20
5.9164
 30
0.0
 10
23.0533
 20
5.9164
 30
0.0
 10
23.0533
 20
5.9164
 30
0.0
 10
12.502
 20
5.9135
 30
0.0
 10
12.502
 20
5.9135
 30
0.0
 10
12.502
 20
5.9135
 30
0.0
 10
12.502
 20
5.9135
 30
0.0
 10
12.5032
 20
-4.6338
 30
0.0
 10
12.5032
 20
-4.6338
 30
0.0
  0
SPLINE
  5
87
330
1F
100
AcDbEntity
  8
layer 1
 62
     7
100
AcDbSpline
210
0.0
220
0.0
230
1.0
 70
    11
 71
     3
 72
    20
 73
    16
 74
     0
 42
0.0000000001
 43
0.0000000001
 12
1.0
 22
0.0
 32
0.0
 13
1.0
 23
0.0
 33
0.0
 40
0.0
 40
0.0
 40
0.0
 40
0.0
 40
0.2
 40
0.2
 40
0.2
 40
0.2
 40
0.4
 40
0.4
 40
0.4
 40
0.4
 40
0.6
 40
0.6
 40
0.6
 40
0.6
 40
1.0
 40
1.0
 40
1.0
 40
1.0
 10
2.7799
 20
21.8953
 30
0.0
 10
2.7799
 20
21.8953
 30
0.0
 10
2.7799
 20
15.5409
 30
0.0
 10
2.7799
 20
15.5409
 30
0.0
 10
2.7799
 20
15.5409
 30
0.0
 10
2.7799
 20
15.5409
 30
0.0
 10
-3.6044
 20
15.5409
 30
0.0
 10
-3.6044
 20
15.5409
 30
0.0
 10
-3.6044
 20
15.5409
 30
0.0
 10
-3.6044
 20
15.5409
 30
0.0
 10
-3.6044
 20
21.8953
 30
0.0
 10
-3.6044
 20
21.8953
 30
0.0
 10
-3.6044
 20
21.8953
 30
0.0
 10
-3.6044
 20
21.8953
 30
0.0
 10
2.7799
 20
21.8953
 30
0.0
 10
2.7799
 20
21.8953
 30
0.0
  0
SPLINE
  5
88
330
1F
100
AcDbEntity
  8
layer 1
 62
     7
100
AcDbSpline
210
0.0
220
0.0
230
1.0
 70
    11
 71
     3
 72
    20
 73
    16
 74
     0
 42
0.0000000001
 43
0.0000000001
 12
1.0
 22
0.0
 32
0.0
 13
1.0
 23
0.0
 33
0.0
 40
0.0
 40
0.0
 40
0.0
 40
0.0
 40
0.2
 40
0.2
 40
0.2
 40
0.2
 40
0.4
 40
0.4
 40
0.4
 40
0.4
 40
0.6
 40
0.6
 40
0.6
 40
0.6
 40
1.0
 40
1.0
 40
1.0
 40
1.0
 10
23.0562
 20
21.8757
 30
0.0
 10
23.0562
 20
21.8757
 30
0.0
 10
23.0562
 20
15.5213
 30
0.0
 10
23.0562
 20
15.5213
 30
0.0
 10
23.0562
 20
15.5213
 30
0.0
 10
23.0562
 20
15.5213
 30
0.0
 10
16.6719
 20
15.5213
 30
0.0
 10
16.6719
 20
15.5213
 30
0.0
 10
16.6719
 20
15.5213
 30
0.0
 10
16.6719
 20
15.5213
 30
0.0
 10
16.6719
 20
21.8757
 30
0.0
 10
16.6719
 20
21.8757
 30
0.0
 10
16.6719
 20
21.8757
 30
0.0
 10
16.6719
 20
21.8757
 30
0.0
 10
23.0562
 20
21.8757
 30
0.0
 10
23.0562
 20
21.8757
 30
0.0
  0
SPLINE
  5
89
330
1F
100
AcDbEntity
  8
layer 1
 62
     7
100
AcDbSpline
210
0.0
220
0.0
230
1.0
 70
    11
 71
     3
 72
    20
 73
    16
 74
     0
 42
0.0000000001
 43
0.0000000001
 12
1.0
 22
0.0
 32
0.0
 13
1.0
 23
0.0
 33
0.0
 40
0.0
 40
0.0
 40
0.0
 40
0.0
 40
0.2
 40
0.2
 40
0.2
 40
0.2
 40
0.4
 40
0.4
 40
0.4
 40
0.4
 40
0.6
 40
0.6
 40
0.6
 40
0.6
 40
1.0
 40
1.0
 40
1.0
 40
1.0
 10
2.7799
 20
1.5886
 30
0.0
 10
2.7799
 20
1.5886
 30
0.0
 10
2.7799
 20
-4.7659
 30
0.0
 10
2.7799
 20
-4.7659
 30
0.0
 10
2.7799
 20
-4.7659
 30
0.0
 10
2.7799
 20
-4.7659
 30
0.0
 10
-3.6044
 20
-4.7659
 30
0.0
 10
-3.6044
 20
-4.7659
 30
0.0
 10
-3.6044
 20
-4.7659
 30
0.0
 10
-3.6044
 20
-4.7659
 30
0.0
 10
-3.6044
 20
1.5886
 30
0.0
 10
-3.6044
 20
1.5886
 30
0.0
 10
-3.6044
 20
1.5886
 30
0.0
 10
-3.6044
 20
1.5886
 30
0.0
 10
2.7799
 20
1.5886
 30
0.0
 10
2.7799
 20
1.5886
 30
0.0
  0
SPLINE
  5
8A
330
1F
100
AcDbEntity
  8
layer 1
 62
     7
100
AcDbSpline
210
0.0
220
0.0
230
1.0
 70
    11
 71
     3
 72
    20
 73
    16
 74
     0
 42
0.0000000001
 43
0.0000000001
 12
1.0
 22
0.0
 32
0.0
 13
1.0
 23
0.0
 33
0.0
 40
0.0
 40
0.0
 40
0.0
 40
0.0
 40
0.2
 40
0.2
 40
0.2
 40
0.2
 40
0.4
 40
0.4
 40
0.4
 40
0.4
 40
0.6
 40
0.6
 40
0.6
 40
0.6
 40
1.0
 40
1.0
 40
1.0
 40
1.0
 10
23.0562
 20
1.5689
 30
0.0
 10
23.0562
 20
1.5689
 30
0.0
 10
23.0562
 20
-4.7855
 30
0.0
 10
23.0562
 20
-4.7855
 30
0.0
 10
23.0562
 20
-4.7855
 30
0.0
 10
23.0562
 20
-4.7855
 30
0.0
 10
16.6719
 20
-4.7855
 30
0.0
 10
16.6719
 20
-4.7855
 30
0.0
 10
16.6719
 20
-4.7855
 30
0.0
 10
16.6719
 20
-4.7855
 30
0.0
 10
16.6719
 20
1.5689
 30
0.0
 10
16.6719
 20
1.5689
 30
0.0
 10
16.6719
 20
1.5689
 30
0.0
 10
16.6719
 20
1.5689
 30
0.0
 10
23.0562
 20
1.5689
 30
0.0
 10
23.0562
 20
1.5689
 30
0.0
  0
SPLINE
  5
8B
330
1F
100
AcDbEntity
  8
layer 1
 62
     7
100
AcDbSpline
210
0.0
220
0.0
230
1.0
 70
    11
 71
     3
 72
    44
 73
    40
 74
     0
 42
0.0000000001
 43
0.0000000001
 12
1.0
 22
0.0
 32
0.0
 13
1.0
 23
0.0
 33
0.0
 40
0.0
 40
0.0
 40
0.0
 40
0.0
 40
0.0909090909090909
 40
0.0909090909090909
 40
0.0909090909090909
 40
0.0909090909090909
 40
0.1818181818181818
 40
0.1818181818181818
 40
0.1818181818181818
 40
0.1818181818181818
 40
0.2727272727272727
 40
0.2727272727272727
 40
0.2727272727272727
 40
0.2727272727272727
 40
0.3636363636363636
 40
0.3636363636363636
 40
0.3636363636363636
 40
0.3636363636363636
 40
0.4545454545454545
 40
0.4545454545454545
 40
0.4545454545454545
 40
0.4545454545454545
 40
0.5454545454545454
 40
0.5454545454545454
 40
0.5454545454545454
 40
0.5454545454545454
 40
0.6363636363636364
 40
0.6363636363636364
 40
0.6363636363636364
 40
0.6363636363636364
 40
0.7272727272727273
 40
0.7272727272727273
 40
0.7272727272727273
 40
0.7272727272727273
 40
0.8181818181818182
 40
0.8181818181818182
 40
0.8181818181818182
 40
0.8181818181818182
 40
1.0
 40
1.0
 40
1.0
 40
1.0
 10
-8.0746
 20
11.4738
 30
0.0
 10
-8.0746
 20
11.4738
 30
0.0
 10
-8.0746
 20
5.9166
 30
0.0
 10
-8.0746
 20
5.9166
 30
0.0
 10
-8.0746
 20
5.9166
 30
0.0
 10
-8.0746
 20
5.9166
 30
0.0
 10
-23.1619
 20
5.9166
 30
0.0
 10
-23.1619
 20
5.9166
 30
0.0
 10
-23.1619
 20
5.9166
 30
0.0
 10
-23.1619
 20
5.9166
 30
0.0
 10
-28.9888
 20
0.0412
 30
0.0
 10
-28.9888
 20
0.0412
 30
0.0
 10
-28.9888
 20
0.0412
 30
0.0
 10
-28.9888
 20
0.0412
 30
0.0
 10
-35.0741
 20
5.9166
 30
0.0
 10
-35.0741
 20
5.9166
 30
0.0
 10
-35.0741
 20
5.9166
 30
0.0
 10
-35.0741
 20
5.9166
 30
0.0
 10
-50.0344
 20
5.9166
 30
0.0
 10
-50.0344
 20
5.9166
 30
0.0
 10
-50.0344
 20
5.9166
 30
0.0
 10
-50.0344
 20
5.9166
 30
0.0
 10
-50.0344
 20
11.4738
 30
0.0
 10
-50.0344
 20
11.4738
 30
0.0
 10
-50.0344
 20
11.4738
 30
0.0
 10
-45.0308
 20
11.4738
 30
0.0
 10
-40.0272
 20
11.4738
 30
0.0
 10
-35.0236
 20
11.4738
 30
0.0
 10
-35.0236
 20
11.4738
 30
0.0
 10
-35.0236
 20
11.4738
 30
0.0
 10
-28.9888
 20
17.4491
 30
0.0
 10
-28.9888
 20
17.4491
 30
0.0
 10
-28.9888
 20
17.4491
 30
0.0
 10
-28.9888
 20
17.4491
 30
0.0
 10
-23.2125
 20
11.4738
 30
0.0
 10
-23.2125
 20
11.4738
 30
0.0
 10
-23.2125
 20
11.4738
 30
0.0
 10
-18.1665
 20
11.4738
 30
0.0
 10
-13.1206
 20
11.4738
 30
0.0
 10
-8.0746
 20
11.4738
 30
0.0
  0
SPLINE
  5
8C
330
1F
100
AcDbEntity
  8
layer 1
 62
     7
100
AcDbSpline
210
0.0
220
0.0
230
1.0
 70
    11
 71
     3
 72
    48
 73
    44
 74
     0
 42
0.0000000001
 43
0.0000000001
 12
1.0
 22
0.0
 32
0.0
 13
1.0
 23
0.0
 33
0.0
 40
0.0
 40
0.0
 40
0.0
 40
0.0
 40
0.0833333333333333
 40
0.0833333333333333
 40
0.0833333333333333
 40
0.0833333333333333
 40
0.1666666666666667
 40
0.1666666666666667
 40
0.1666666666666667
 40
0.1666666666666667
 40
0.25
 40
0.25
 40
0.25
 40
0.25
 40
0.3333333333333333
 40
0.3333333333333333
 40
0.3333333333333333
 40
0.3333333333333333
 40
0.4166666666666667
 40
0.4166666666666667
 40
0.4166666666666667
 40
0.4166666666666667
 40
0.5
 40
0.5
 40
0.5
 40
0.5
 40
0.5833333333333334
 40
0.5833333333333334
 40
0.5833333333333334
 40
0.5833333333333334
 40
0.6666666666666666
 40
0.6666666666666666
 40
0.6666666666666666
 40
0.6666666666666666
 40
0.75
 40
0.75
 40
0.75
 40
0.75
 40
0.8333333333333334
 40
0.8333333333333334
 40
0.8333333333333334
 40
0.8333333333333334
 40
1.0
 40
1.0
 40
1.0
 40
1.0
 10
69.4545
 20
11.4738
 30
0.0
 10
69.4545
 20
11.4738
 30
0.0
 10
69.4545
 20
5.9166
 30
0.0
 10
69.4545
 20
5.9166
 30
0.0
 10
69.4545
 20
5.9166
 30
0.0
 10
69.4545
 20
5.9166
 30
0.0
 10
54.5033
 20
5.9166
 30
0.0
 10
54.5033
 20
5.9166
 30
0.0
 10
54.5033
 20
5.9166
 30
0.0
 10
54.5033
 20
5.9166
 30
0.0
 10
48.4885
 20
0.0412
 30
0.0
 10
48.4885
 20
0.0412
 30
0.0
 10
48.4885
 20
0.0412
 30
0.0
 10
48.4885
 20
0.0412
 30
0.0
 10
42.6985
 20
5.9166
 30
0.0
 10
42.6985
 20
5.9166
 30
0.0
 10
42.6985
 20
5.9166
 30
0.0
 10
42.6985
 20
5.9166
 30
0.0
 10
27.8731
 20
5.9166
 30
0.0
 10
27.8731
 20
5.9166
 30
0.0
 10
27.8731
 20
5.9166
 30
0.0
 10
27.8731
 20
5.9166
 30
0.0
 10
27.8731
 20
11.4738
 30
0.0
 10
27.8731
 20
11.4738
 30
0.0
 10
27.8731
 20
11.4738
 30
0.0
 10
32.8316
 20
11.4738
 30
0.0
 10
37.7902
 20
11.4738
 30
0.0
 10
42.7485
 20
11.4738
 30
0.0
 10
42.7485
 20
11.4738
 30
0.0
 10
42.7485
 20
11.4738
 30
0.0
 10
48.4885
 20
17.4491
 30
0.0
 10
48.4885
 20
17.4491
 30
0.0
 10
48.4885
 20
17.4491
 30
0.0
 10
48.4885
 20
17.4491
 30
0.0
 10
54.4532
 20
11.4738
 30
0.0
 10
54.4532
 20
11.4738
 30
0.0
 10
54.4532
 20
11.4738
 30
0.0
 10
59.4537
 20
11.4738
 30
0.0
 10
64.4542
 20
11.4738
 30
0.0
 10
69.4546
 20
11.4738
 30
0.0
 10
69.4546
 20
11.4738
 30
0.0
 10
69.4546
 20
11.4738
 30
0.0
 10
69.4545
 20
11.4738
 30
0.0
 10
69.4545
 20
11.4738
 30
0.0
  0
SPLINE
  5
8D
330
1F
100
AcDbEntity
  8
layer 1
 62
     7
100
AcDbSpline
210
0.0
220
0.0
230
1.0
 70
    11
 71
     3
 72
    52
 73
    48
 74
     0
 42
0.0000000001
 43
0.0000000001
 12
1.0
 22
0.0
 32
0.0
 13
1.0
 23
0.0
 33
0.0
 40
0.0
 40
0.0
 40
0.0
 40
0.0
 40
0.0769230769230769
 40
0.0769230769230769
 40
0.0769230769230769
 40
0.0769230769230769
 40
0.1538461538461539
 40
0.1538461538461539
 40
0.1538461538461539
 40
0.1538461538461539
 40
0.2307692307692308
 40
0.2307692307692308
 40
0.2307692307692308
 40
0.2307692307692308
 40
0.3076923076923077
 40
0.3076923076923077
 40
0.3076923076923077
 40
0.3076923076923077
 40
0.3846153846153846
 40
0.3846153846153846
 40
0.3846153846153846
 40
0.3846153846153846
 40
0.4615384615384616
 40
0.4615384615384616
 40
0.4615384615384616
 40
0.4615384615384616
 40
0.5384615384615384
 40
0.5384615384615384
 40
0.5384615384615384
 40
0.5384615384615384
 40
0.6153846153846154
 40
0.6153846153846154
 40
0.6153846153846154
 40
0.6153846153846154
 40
0.6923076923076923
 40
0.6923076923076923
 40
0.6923076923076923
 40
0.6923076923076923
 40
0.7692307692307693
 40
0.7692307692307693
 40
0.7692307692307693
 40
0.7692307692307693
 40
0.8461538461538461
 40
0.8461538461538461
 40
0.8461538461538461
 40
0.8461538461538461
 40
1.0
 40
1.0
 40
1.0
 40
1.0
 10
12.5032
 20
-80.9975
 30
0.0
 10
12.5032
 20
-80.9975
 30
0.0
 10
6.946
 20
-80.9975
 30
0.0
 10
6.946
 20
-80.9975
 30
0.0
 10
6.946
 20
-80.9975
 30
0.0
 10
6.946
 20
-80.9975
 30
0.0
 10
6.9453
 20
-70.4501
 30
0.0
 10
6.9453
 20
-70.4501
 30
0.0
 10
6.9453
 20
-70.4501
 30
0.0
 10
6.9453
 20
-70.4501
 30
0.0
 10
-3.6045
 20
-70.4471
 30
0.0
 10
-3.6045
 20
-70.4471
 30
0.0
 10
-3.6045
 20
-70.4471
 30
0.0
 10
-3.6045
 20
-70.4471
 30
0.0
 10
-3.6045
 20
-64.8899
 30
0.0
 10
-3.6045
 20
-64.8899
 30
0.0
 10
-3.6045
 20
-64.8899
 30
0.0
 10
-3.6045
 20
-64.8899
 30
0.0
 10
6.9495
 20
-64.8932
 30
0.0
 10
6.9495
 20
-64.8932
 30
0.0
 10
6.9495
 20
-64.8932
 30
0.0
 10
6.9495
 20
-64.8932
 30
0.0
 10
6.9457
 20
-54.3395
 30
0.0
 10
6.9457
 20
-54.3395
 30
0.0
 10
6.9457
 20
-54.3395
 30
0.0
 10
6.9457
 20
-54.3395
 30
0.0
 10
12.5029
 20
-54.3395
 30
0.0
 10
12.5029
 20
-54.3395
 30
0.0
 10
12.5029
 20
-54.3395
 30
0.0
 10
12.5029
 20
-54.3395
 30
0.0
 10
12.5062
 20
-64.8847
 30
0.0
 10
12.5062
 20
-64.8847
 30
0.0
 10
12.5062
 20
-64.8847
 30
0.0
 10
12.5062
 20
-64.8847
 30
0.0
 10
23.0533
 20
-64.8901
 30
0.0
 10
23.0533
 20
-64.8901
 30
0.0
 10
23.0533
 20
-64.8901
 30
0.0
 10
23.0533
 20
-64.8901
 30
0.0
 10
23.0533
 20
-70.4472
 30
0.0
 10
23.0533
 20
-70.4472
 30
0.0
 10
23.0533
 20
-70.4472
 30
0.0
 10
23.0533
 20
-70.4472
 30
0.0
 10
12.502
 20
-70.4502
 30
0.0
 10
12.502
 20
-70.4502
 30
0.0
 10
12.502
 20
-70.4502
 30
0.0
 10
12.502
 20
-70.4502
 30
0.0
 10
12.5032
 20
-80.9975
 30
0.0
 10
12.5032
 20
-80.9975
 30
0.0
  0
SPLINE
  5
8E
330
1F
100
AcDbEntity
  8
layer 1
 62
     7
100
AcDbSpline
210
0.0
220
0.0
230
1.0
 70
    11
 71
     3
 72
    20
 73
    16
 74
     0
 42
0.0000000001
 43
0.0000000001
 12
1.0
 22
0.0
 32
0.0
 13
1.0
 23
0.0
 33
0.0
 40
0.0
 40
0.0
 40
0.0
 40
0.0
 40
0.2
 40
0.2
 40
0.2
 40
0.2
 40
0.4
 40
0.4
 40
0.4
 40
0.4
 40
0.6
 40
0.6
 40
0.6
 40
0.6
 40
1.0
 40
1.0
 40
1.0
 40
1.0
 10
2.7799
 20
-54.4682
 30
0.0
 10
2.7799
 20
-54.4682
 30
0.0
 10
2.7799
 20
-60.8227
 30
0.0
 10
2.7799
 20
-60.8227
 30
0.0
 10
2.7799
 20
-60.8227
 30
0.0
 10
2.7799
 20
-60.8227
 30
0.0
 10
-3.6044
 20
-60.8227
 30
0.0
 10
-3.6044
 20
-60.8227
 30
0.0
 10
-3.6044
 20
-60.8227
 30
0.0
 10
-3.6044
 20
-60.8227
 30
0.0
 10
-3.6044
 20
-54.4682
 30
0.0
 10
-3.6044
 20
-54.4682
 30
0.0
 10
-3.6044
 20
-54.4682
 30
0.0
 10
-3.6044
 20
-54.4682
 30
0.0
 10
2.7799
 20
-54.4682
 30
0.0
 10
2.7799
 20
-54.4682
 30
0.0
  0
SPLINE
  5
8F
330
1F
100
AcDbEntity
  8
layer 1
 62
     7
100
AcDbSpline
210
0.0
220
0.0
230
1.0
 70
    11
 71
     3
 72
    20
 73
    16
 74
     0
 42
0.0000000001
 43
0.0000000001
 12
1.0
 22
0.0
 32
0.0
 13
1.0
 23
0.0
 33
0.0
 40
0.0
 40
0.0
 40
0.0
 40
0.0
 40
0.2
 40
0.2
 40
0.2
 40
0.2
 40
0.4
 40
0.4
 40
0.4
 40
0.4
 40
0.6
 40
0.6
 40
0.6
 40
0.6
 40
1.0
 40
1.0
 40
1.0
 40
1.0
 10
23.0562
 20
-54.4878
 30
0.0
 10
23.0562
 20
-54.4878
 30
0.0
 10
23.0562
 20
-60.8423
 30
0.0
 10
23.0562
 20
-60.8423
 30
0.0
 10
23.0562
 20
-60.8423
 30
0.0
 10
23.0562
 20
-60.8423
 30
0.0
 10
16.6719
 20
-60.8423
 30
0.0
 10
16.6719
 20
-60.8423
 30
0.0
 10
16.6719
 20
-60.8423
 30
0.0
 10
16.6719
 20
-60.8423
 30
0.0
 10
16.6719
 20
-54.4878
 30
0.0
 10
16.6719
 20
-54.4878
 30
0.0
 10
16.6719
 20
-54.4878
 30
0.0
 10
16.6719
 20
-54.4878
 30
0.0
 10
23.0562
 20
-54.4878
 30
0.0
 10
23.0562
 20
-54.4878
 30
0.0
  0
SPLINE
  5
90
330
1F
100
AcDbEntity
  8
layer 1
 62
     7
100
AcDbSpline
210
0.0
220
0.0
230
1.0
 70
    11
 71
     3
 72
    20
 73
    16
 74
     0
 42
0.0000000001
 43
0.0000000001
 12
1.0
 22
0.0
 32
0.0
 13
1.0
 23
0.0
 33
0.0
 40
0.0
 40
0.0
 40
0.0
 40
0.0
 40
0.2
 40
0.2
 40
0.2
 40
0.2
 40
0.4
 40
0.4
 40
0.4
 40
0.4
 40
0.6
 40
0.6
 40
0.6
 40
0.6
 40
1.0
 40
1.0
 40
1.0
 40
1.0
 10
2.7799
 20
-74.775
 30
0.0
 10
2.7799
 20
-74.775
 30
0.0
 10
2.7799
 20
-81.1294
 30
0.0
 10
2.7799
 20
-81.1294
 30
0.0
 10
2.7799
 20
-81.1294
 30
0.0
 10
2.7799
 20
-81.1294
 30
0.0
 10
-3.6044
 20
-81.1294
 30
0.0
 10
-3.6044
 20
-81.1294
 30
0.0
 10
-3.6044
 20
-81.1294
 30
0.0
 10
-3.6044
 20
-81.1294
 30
0.0
 10
-3.6044
 20
-74.775
 30
0.0
 10
-3.6044
 20
-74.775
 30
0.0
 10
-3.6044
 20
-74.775
 30
0.0
 10
-3.6044
 20
-74.775
 30
0.0
 10
2.7799
 20
-74.775
 30
0.0
 10
2.7799
 20
-74.775
 30
0.0
  0
SPLINE
  5
91
330
1F
100
AcDbEntity
  8
layer 1
 62
     7
100
AcDbSpline
210
0.0
220
0.0
230
1.0
 70
    11
 71
     3
 72
    20
 73
    16
 74
     0
 42
0.0000000001
 43
0.0000000001
 12
1.0
 22
0.0
 32
0.0
 13
1.0
 23
0.0
 33
0.0
 40
0.0
 40
0.0
 40
0.0
 40
0.0
 40
0.2
 40
0.2
 40
0.2
 40
0.2
 40
0.4
 40
0.4
 40
0.4
 40
0.4
 40
0.6
 40
0.6
 40
0.6
 40
0.6
 40
1.0
 40
1.0
 40
1.0
 40
1.0
 10
23.0562
 20
-74.7946
 30
0.0
 10
23.0562
 20
-74.7946
 30
0.0
 10
23.0562
 20
-81.149
 30
0.0
 10
23.0562
 20
-81.149
 30
0.0
 10
23.0562
 20
-81.149
 30
0.0
 10
23.0562
 20
-81.149
 30
0.0
 10
16.6719
 20
-81.149
 30
0.0
 10
16.6719
 20
-81.149
 30
0.0
 10
16.6719
 20
-81.149
 30
0.0
 10
16.6719
 20
-81.149
 30
0.0
 10
16.6719
 20
-74.7946
 30
0.0
 10
16.6719
 20
-74.7946
 30
0.0
 10
16.6719
 20
-74.7946
 30
0.0
 10
16.6719
 20
-74.7946
 30
0.0
 10
23.0562
 20
-74.7946
 30
0.0
 10
23.0562
 20
-74.7946
 30
0.0
  0
SPLINE
  5
92
330
1F
100
AcDbEntity
  8
layer 1
 62
     7
100
AcDbSpline
210
0.0
220
0.0
230
1.0
 70
    11
 71
     3
 72
    44
 73
    40
 74
     0
 42
0.0000000001
 43
0.0000000001
 12
1.0
 22
0.0
 32
0.0
 13
1.0
 23
0.0
 33
0.0
 40
0.0
 40
0.0
 40
0.0
 40
0.0
 40
0.0909090909090909
 40
0.0909090909090909
 40
0.0909090909090909
 40
0.0909090909090909
 40
0.1818181818181818
 40
0.1818181818181818
 40
0.1818181818181818
 40
0.1818181818181818
 40
0.2727272727272727
 40
0.2727272727272727
 40
0.2727272727272727
 40
0.2727272727272727
 40
0.3636363636363636
 40
0.3636363636363636
 40
0.3636363636363636
 40
0.3636363636363636
 40
0.4545454545454545
 40
0.4545454545454545
 40
0.4545454545454545
 40
0.4545454545454545
 40
0.5454545454545454
 40
0.5454545454545454
 40
0.5454545454545454
 40
0.5454545454545454
 40
0.6363636363636364
 40
0.6363636363636364
 40
0.6363636363636364
 40
0.6363636363636364
 40
0.7272727272727273
 40
0.7272727272727273
 40
0.7272727272727273
 40
0.7272727272727273
 40
0.8181818181818182
 40
0.8181818181818182
 40
0.8181818181818182
 40
0.8181818181818182
 40
1.0
 40
1.0
 40
1.0
 40
1.0
 10
-8.0746
 20
-64.8899
 30
0.0
 10
-8.0746
 20
-64.8899
 30
0.0
 10
-8.0746
 20
-70.4471
 30
0.0
 10
-8.0746
 20
-70.4471
 30
0.0
 10
-8.0746
 20
-70.4471
 30
0.0
 10
-8.0746
 20
-70.4471
 30
0.0
 10
-23.1619
 20
-70.4471
 30
0.0
 10
-23.1619
 20
-70.4471
 30
0.0
 10
-23.1619
 20
-70.4471
 30
0.0
 10
-23.1619
 20
-70.4471
 30
0.0
 10
-28.9888
 20
-76.3225
 30
0.0
 10
-28.9888
 20
-76.3225
 30
0.0
 10
-28.9888
 20
-76.3225
 30
0.0
 10
-28.9888
 20
-76.3225
 30
0.0
 10
-35.0741
 20
-70.4471
 30
0.0
 10
-35.0741
 20
-70.4471
 30
0.0
 10
-35.0741
 20
-70.4471
 30
0.0
 10
-35.0741
 20
-70.4471
 30
0.0
 10
-50.0344
 20
-70.4471
 30
0.0
 10
-50.0344
 20
-70.4471
 30
0.0
 10
-50.0344
 20
-70.4471
 30
0.0
 10
-50.0344
 20
-70.4471
 30
0.0
 10
-50.0344
 20
-64.8899
 30
0.0
 10
-50.0344
 20
-64.8899
 30
0.0
 10
-50.0344
 20
-64.8899
 30
0.0
 10
-45.0308
 20
-64.8899
 30
0.0
 10
-40.0272
 20
-64.8899
 30
0.0
 10
-35.0236
 20
-64.8899
 30
0.0
 10
-35.0236
 20
-64.8899
 30
0.0
 10
-35.0236
 20
-64.8899
 30
0.0
 10
-28.9888
 20
-58.9146
 30
0.0
 10
-28.9888
 20
-58.9146
 30
0.0
 10
-28.9888
 20
-58.9146
 30
0.0
 10
-28.9888
 20
-58.9146
 30
0.0
 10
-23.2125
 20
-64.8899
 30
0.0
 10
-23.2125
 20
-64.8899
 30
0.0
 10
-23.2125
 20
-64.8899
 30
0.0
 10
-18.1665
 20
-64.8899
 30
0.0
 10
-13.1206
 20
-64.8899
 30
0.0
 10
-8.0746
 20
-64.8899
 30
0.0
  0
SPLINE
  5
93
330
1F
100
AcDbEntity
  8
layer 1
 62
     7
100
AcDbSpline
210
0.0
220
0.0
230
1.0
 70
    11
 71
     3
 72
    48
 73
    44
 74
     0
 42
0.0000000001
 43
0.0000000001
 12
1.0
 22
0.0
 32
0.0
 13
1.0
 23
0.0
 33
0.0
 40
0.0
 40
0.0
 40
0.0
 40
0.0
 40
0.0833333333333333
 40
0.0833333333333333
 40
0.0833333333333333
 40
0.0833333333333333
 40
0.1666666666666667
 40
0.1666666666666667
 40
0.1666666666666667
 40
0.1666666666666667
 40
0.25
 40
0.25
 40
0.25
 40
0.25
 40
0.3333333333333333
 40
0.3333333333333333
 40
0.3333333333333333
 40
0.3333333333333333
 40
0.4166666666666667
 40
0.4166666666666667
 40
0.4166666666666667
 40
0.4166666666666667
 40
0.5
 40
0.5
 40
0.5
 40
0.5
 40
0.5833333333333334
 40
0.5833333333333334
 40
0.5833333333333334
 40
0.5833333333333334
 40
0.6666666666666666
 40
0.6666666666666666
 40
0.6666666666666666
 40
0.6666666666666666
 40
0.75
 40
0.75
 40
0.75
 40
0.75
 40
0.8333333333333334
 40
0.8333333333333334
 40
0.8333333333333334
 40
0.8333333333333334
 40
1.0
 40
1.0
 40
1.0
 40
1.0
 10
69.4545
 20
-64.8899
 30
0.0
 10
69.4545
 20
-64.8899
 30
0.0
 10
69.4545
 20
-70.4471
 30
0.0
 10
69.4545
 20
-70.4471
 30
0.0
 10
69.4545
 20
-70.4471
 30
0.0
 10
69.4545
 20
-70.4471
 30
0.0
 10
54.5033
 20
-70.4471
 30
0.0
 10
54.5033
 20
-70.4471
 30
0.0
 10
54.5033
 20
-70.4471
 30
0.0
 10
54.5033
 20
-70.4471
 30
0.0
 10
48.4885
 20
-76.3225
 30
0.0
 10
48.4885
 20
-76.3225
 30
0.0
 10
48.4885
 20
-76.3225
 30
0.0
 10
48.4885
 20
-76.3225
 30
0.0
 10
42.6985
 20
-70.4471
 30
0.0
 10
42.6985
 20
-70.4471
 30
0.0
 10
42.6985
 20
-70.4471
 30
0.0
 10
42.6985
 20
-70.4471
 30
0.0
 10
27.8731
 20
-70.4471
 30
0.0
 10
27.8731
 20
-70.4471
 30
0.0
 10
27.8731
 20
-70.4471
 30
0.0
 10
27.8731
 20
-70.4471
 30
0.0
 10
27.8731
 20
-64.8899
 30
0.0
 10
27.8731
 20
-64.8899
 30
0.0
 10
27.8731
 20
-64.8899
 30
0.0
 10
32.8316
 20
-64.8899
 30
0.0
 10
37.7902
 20
-64.8899
 30
0.0
 10
42.7485
 20
-64.8899
 30
0.0
 10
42.7485
 20
-64.8899
 30
0.0
 10
42.7485
 20
-64.8899
 30
0.0
 10
48.4885
 20
-58.9146
 30
0.0
 10
48.4885
 20
-58.9146
 30
0.0
 10
48.4885
 20
-58.9146
 30
0.0
 10
48.4885
 20
-58.9146
 30
0.0
 10
54.4532
 20
-64.8899
 30
0.0
 10
54.4532
 20
-64.8899
 30
0.0
 10
54.4532
 20
-64.8899
 30
0.0
 10
59.4537
 20
-64.8899
 30
0.0
 10
64.4542
 20
-64.8899
 30
0.0
 10
69.4546
 20
-64.8899
 30
0.0
 10
69.4546
 20
-64.8899
 30
0.0
 10
69.4546
 20
-64.8899
 30
0.0
 10
69.4545
 20
-64.8899
 30
0.0
 10
69.4545
 20
-64.8899
 30
0.0
  0
SPLINE
  5
94
330
1F
100
AcDbEntity
  8
layer 1
 62
     7
100
AcDbSpline
210
0.0
220
0.0
230
1.0
 70
    11
 71
     3
 72
    48
 73
    44
 74
     0
 42
0.0000000001
 43
0.0000000001
 12
1.0
 22
0.0
 32
0.0
 13
1.0
 23
0.0
 33
0.0
 40
0.0
 40
0.0
 40
0.0
 40
0.0
 40
0.0833333333333333
 40
0.0833333333333333
 40
0.0833333333333333
 40
0.0833333333333333
 40
0.1666666666666667
 40
0.1666666666666667
 40
0.1666666666666667
 40
0.1666666666666667
 40
0.25
 40
0.25
 40
0.25
 40
0.25
 40
0.3333333333333333
 40
0.3333333333333333
 40
0.3333333333333333
 40
0.3333333333333333
 40
0.4166666666666667
 40
0.4166666666666667
 40
0.4166666666666667
 40
0.4166666666666667
 40
0.5
 40
0.5
 40
0.5
 40
0.5
 40
0.5833333333333334
 40
0.5833333333333334
 40
0.5833333333333334
 40
0.5833333333333334
 40
0.6666666666666666
 40
0.6666666666666666
 40
0.6666666666666666
 40
0.6666666666666666
 40
0.75
 40
0.75
 40
0.75
 40
0.75
 40
0.8333333333333334
 40
0.8333333333333334
 40
0.8333333333333334
 40
0.8333333333333334
 40
1.0
 40
1.0
 40
1.0
 40
1.0
 10
7.0822
 20
67.4871
 30
0.0
 10
7.0822
 20
67.4871
 30
0.0
 10
12.6393
 20
67.4871
 30
0.0
 10
12.6393
 20
67.4871
 30
0.0
 10
12.6393
 20
67.4871
 30
0.0
 10
12.6393
 20
67.4871
 30
0.0
 10
12.6393
 20
52.5728
 30
0.0
 10
12.6393
 20
52.5728
 30
0.0
 10
12.6393
 20
52.5728
 30
0.0
 10
12.6393
 20
52.5728
 30
0.0
 10
18.5148
 20
46.5729
 30
0.0
 10
18.5148
 20
46.5729
 30
0.0
 10
18.5148
 20
46.5729
 30
0.0
 10
18.5148
 20
46.5729
 30
0.0
 10
12.6393
 20
40.7972
 30
0.0
 10
12.6393
 20
40.7972
 30
0.0
 10
12.6393
 20
40.7972
 30
0.0
 10
12.6393
 20
40.7972
 30
0.0
 10
12.6393
 20
26.0084
 30
0.0
 10
12.6393
 20
26.0084
 30
0.0
 10
12.6393
 20
26.0084
 30
0.0
 10
12.6393
 20
26.0084
 30
0.0
 10
7.0822
 20
26.0084
 30
0.0
 10
7.0822
 20
26.0084
 30
0.0
 10
7.0822
 20
26.0084
 30
0.0
 10
7.0822
 20
30.9547
 30
0.0
 10
7.0822
 20
35.9008
 30
0.0
 10
7.0822
 20
40.8471
 30
0.0
 10
7.0822
 20
40.8471
 30
0.0
 10
7.0822
 20
40.8471
 30
0.0
 10
1.1069
 20
46.5729
 30
0.0
 10
1.1069
 20
46.5729
 30
0.0
 10
1.1069
 20
46.5729
 30
0.0
 10
1.1069
 20
46.5729
 30
0.0
 10
7.0822
 20
52.5228
 30
0.0
 10
7.0822
 20
52.5228
 30
0.0
 10
7.0822
 20
52.5228
 30
0.0
 10
7.0822
 20
57.5108
 30
0.0
 10
7.0822
 20
62.4989
 30
0.0
 10
7.0822
 20
67.4869
 30
0.0
 10
7.0822
 20
67.4869
 30
0.0
 10
7.0822
 20
67.4869
 30
0.0
 10
7.0822
 20
67.4871
 30
0.0
 10
7.0822
 20
67.4871
 30
0.0
  0
SPLINE
  5
95
330
1F
100
AcDbEntity
  8
layer 1
 62
     7
100
AcDbSpline
210
0.0
220
0.0
230
1.0
 70
    11
 71
     3
 72
    36
 73
    32
 74
     0
 42
0.0000000001
 43
0.0000000001
 12
1.0
 22
0.0
 32
0.0
 13
1.0
 23
0.0
 33
0.0
 40
0.0
 40
0.0
 40
0.0
 40
0.0
 40
0.1111111111111111
 40
0.1111111111111111
 40
0.1111111111111111
 40
0.1111111111111111
 40
0.2222222222222222
 40
0.2222222222222222
 40
0.2222222222222222
 40
0.2222222222222222
 40
0.3333333333333333
 40
0.3333333333333333
 40
0.3333333333333333
 40
0.3333333333333333
 40
0.4444444444444444
 40
0.4444444444444444
 40
0.4444444444444444
 40
0.4444444444444444
 40
0.5555555555555556
 40
0.5555555555555556
 40
0.5555555555555556
 40
0.5555555555555556
 40
0.6666666666666666
 40
0.6666666666666666
 40
0.6666666666666666
 40
0.6666666666666666
 40
0.7777777777777778
 40
0.7777777777777778
 40
0.7777777777777778
 40
0.7777777777777778
 40
1.0
 40
1.0
 40
1.0
 40
1.0
 10
7.0822
 20
-85.2401
 30
0.0
 10
7.0822
 20
-85.2401
 30
0.0
 10
12.6393
 20
-85.2401
 30
0.0
 10
12.6393
 20
-85.2401
 30
0.0
 10
12.6393
 20
-85.2401
 30
0.0
 10
12.6393
 20
-85.2401
 30
0.0
 10
12.6393
 20
-100.1544
 30
0.0
 10
12.6393
 20
-100.1544
 30
0.0
 10
12.6393
 20
-100.1544
 30
0.0
 10
12.6393
 20
-100.1544
 30
0.0
 10
18.5148
 20
-106.1543
 30
0.0
 10
18.5148
 20
-106.1543
 30
0.0
 10
18.5148
 20
-106.1543
 30
0.0
 10
18.5148
 20
-106.1543
 30
0.0
 10
16.8245
 20
-107.934
 30
0.0
 10
16.8245
 20
-107.934
 30
0.0
 10
16.8245
 20
-107.934
 30
0.0
 10
16.8245
 20
-107.934
 30
0.0
 10
3.1931
 20
-107.934
 30
0.0
 10
3.1931
 20
-107.934
 30
0.0
 10
3.1931
 20
-107.934
 30
0.0
 10
3.1931
 20
-107.934
 30
0.0
 10
1.1069
 20
-106.1543
 30
0.0
 10
1.1069
 20
-106.1543
 30
0.0
 10
1.1069
 20
-106.1543
 30
0.0
 10
1.1069
 20
-106.1543
 30
0.0
 10
7.0822
 20
-100.2043
 30
0.0
 10
7.0822
 20
-100.2043
 30
0.0
 10
7.0822
 20
-100.2043
 30
0.0
 10
7.0822
 20
-95.2162
 30
0.0
 10
7.0822
 20
-90.2282
 30
0.0
 10
7.0822
 20
-85.2401
 30
0.0
  0
SPLINE
  5
96
330
1F
100
AcDbEntity
  8
layer 1
 62
     7
100
AcDbSpline
210
0.0
220
0.0
230
1.0
 70
    11
 71
     3
 72
    44
 73
    40
 74
     0
 42
0.0000000001
 43
0.0000000001
 12
1.0
 22
0.0
 32
0.0
 13
1.0
 23
0.0
 33
0.0
 40
0.0
 40
0.0
 40
0.0
 40
0.0
 40
0.0909090909090909
 40
0.0909090909090909
 40
0.0909090909090909
 40
0.0909090909090909
 40
0.1818181818181818
 40
0.1818181818181818
 40
0.1818181818181818
 40
0.1818181818181818
 40
0.2727272727272727
 40
0.2727272727272727
 40
0.2727272727272727
 40
0.2727272727272727
 40
0.3636363636363636
 40
0.3636363636363636
 40
0.3636363636363636
 40
0.3636363636363636
 40
0.4545454545454545
 40
0.4545454545454545
 40
0.4545454545454545
 40
0.4545454545454545
 40
0.5454545454545454
 40
0.5454545454545454
 40
0.5454545454545454
 40
0.5454545454545454
 40
0.6363636363636364
 40
0.6363636363636364
 40
0.6363636363636364
 40
0.6363636363636364
 40
0.7272727272727273
 40
0.7272727272727273
 40
0.7272727272727273
 40
0.7272727272727273
 40
0.8181818181818182
 40
0.8181818181818182
 40
0.8181818181818182
 40
0.8181818181818182
 40
1.0
 40
1.0
 40
1.0
 40
1.0
 10
7.0993
 20
-9.0631
 30
0.0
 10
7.0993
 20
-9.0631
 30
0.0
 10
12.6565
 20
-9.0631
 30
0.0
 10
12.6565
 20
-9.0631
 30
0.0
 10
12.6565
 20
-9.0631
 30
0.0
 10
12.6565
 20
-9.0631
 30
0.0
 10
12.6565
 20
-23.9774
 30
0.0
 10
12.6565
 20
-23.9774
 30
0.0
 10
12.6565
 20
-23.9774
 30
0.0
 10
12.6565
 20
-23.9774
 30
0.0
 10
18.5319
 20
-29.9773
 30
0.0
 10
18.5319
 20
-29.9773
 30
0.0
 10
18.5319
 20
-29.9773
 30
0.0
 10
18.5319
 20
-29.9773
 30
0.0
 10
12.6565
 20
-35.753
 30
0.0
 10
12.6565
 20
-35.753
 30
0.0
 10
12.6565
 20
-35.753
 30
0.0
 10
12.6565
 20
-35.753
 30
0.0
 10
12.6565
 20
-50.5418
 30
0.0
 10
12.6565
 20
-50.5418
 30
0.0
 10
12.6565
 20
-50.5418
 30
0.0
 10
12.6565
 20
-50.5418
 30
0.0
 10
7.0993
 20
-50.5418
 30
0.0
 10
7.0993
 20
-50.5418
 30
0.0
 10
7.0993
 20
-50.5418
 30
0.0
 10
7.0993
 20
-45.5955
 30
0.0
 10
7.0993
 20
-40.6494
 30
0.0
 10
7.0993
 20
-35.7031
 30
0.0
 10
7.0993
 20
-35.7031
 30
0.0
 10
7.0993
 20
-35.7031
 30
0.0
 10
1.124
 20
-29.9773
 30
0.0
 10
1.124
 20
-29.9773
 30
0.0
 10
1.124
 20
-29.9773
 30
0.0
 10
1.124
 20
-29.9773
 30
0.0
 10
7.0993
 20
-24.0273
 30
0.0
 10
7.0993
 20
-24.0273
 30
0.0
 10
7.0993
 20
-24.0273
 30
0.0
 10
7.0993
 20
-19.0392
 30
0.0
 10
7.0993
 20
-14.0512
 30
0.0
 10
7.0993
 20
-9.0631
 30
0.0
  0
ENDSEC
  0
SECTION
  2
OBJECTS
  0
DICTIONARY
  5
C
330
0
100
AcDbDictionary
281
     1
  3
ACAD_GROUP
350
D
  3
ACAD_LAYOUT
350
1A
  3
ACAD_MATERIAL
350
3B
  3
ACAD_MLEADERSTYLE
350
B8
  3
ACAD_MLINESTYLE
350
17
  3
ACAD_PLOTSETTINGS
350
19
  3
ACAD_PLOTSTYLENAME
350
E
  3
ACAD_TABLESTYLE
350
B7
  3
ACAD_VISUALSTYLE
350
2A
  0
DICTIONARY
  5
D
102
{ACAD_REACTORS
330
C
102
}
330
C
100
AcDbDictionary
281
     1
  0
DICTIONARY
  5
1A
102
{ACAD_REACTORS
330
C
102
}
330
C
100
AcDbDictionary
281
     1
  3
Layout1
350
1E
  3
Layout2
350
26
  3
Model
350
22
  0
DICTIONARY
  5
3B
102
{ACAD_REACTORS
330
C
102
}
330
C
100
AcDbDictionary
281
     1
  3
ByBlock
350
3D
  3
ByLayer
350
3C
  3
Global
350
3E
  0
DICTIONARY
  5
B8
102
{ACAD_REACTORS
330
C
102
}
330
C
100
AcDbDictionary
281
     1
  0
DICTIONARY
  5
17
102
{ACAD_REACTORS
330
C
102
}
330
C
100
AcDbDictionary
281
     1
  3
Standard
350
18
  0
DICTIONARY
  5
19
102
{ACAD_REACTORS
330
C
102
}
330
C
100
AcDbDictionary
281
     1
  0
ACDBDICTIONARYWDFLT
  5
E
102
{ACAD_REACTORS
330
C
102
}
330
C
100
AcDbDictionary
281
     1
  3
Normal
350
F
100
AcDbDictionaryWithDefault
340
F
  0
DICTIONARY
  5
B7
102
{ACAD_REACTORS
330
C
102
}
330
C
100
AcDbDictionary
281
     1
  0
DICTIONARY
  5
2A
102
{ACAD_REACTORS
330
C
102
}
330
C
100
AcDbDictionary
281
     1
  3
2dWireframe
350
2F
  3
3D Hidden
350
31
  3
3dWireframe
350
30
  3
Basic
350
32
  3
Brighten
350
36
  3
ColorChange
350
3A
  3
Conceptual
350
34
  3
Dim
350
35
  3
Facepattern
350
39
  3
Flat
350
2B
  3
FlatWithEdges
350
2C
  3
Gouraud
350
2D
  3
GouraudWithEdges
350
2E
  3
Linepattern
350
38
  3
Realistic
350
33
  3
Thicken
350
37
  0
LAYOUT
  5
1E
102
{ACAD_REACTORS
330
1A
102
}
330
1A
100
AcDbPlotSettings
  1

  2
none_device
  4

  6

 40
0.0
 41
0.0
 42
0.0
 43
0.0
 44
0.0
 45
0.0
 46
0.0
 47
0.0
 48
0.0
 49
0.0
140
0.0
141
0.0
142
1.0
143
1.0
 70
   688
 72
     0
 73
     0
 74
     5
  7

 75
    16
 76
     0
 77
     2
 78
   300
147
1.0
148
0.0
149
0.0
100
AcDbLayout
  1
Layout1
 70
     1
 71
     1
 10
0.0
 20
0.0
 11
12.0
 21
9.0
 12
0.0
 22
0.0
 32
0.0
 14
1.000000000000000E+20
 24
1.000000000000000E+20
 34
1.000000000000000E+20
 15
-1.000000000000000E+20
 25
-1.000000000000000E+20
 35
-1.000000000000000E+20
146
0.0
 13
0.0
 23
0.0
 33
0.0
 16
1.0
 26
0.0
 36
0.0
 17
0.0
 27
1.0
 37
0.0
 76
     0
330
1B
  0
LAYOUT
  5
26
102
{ACAD_REACTORS
330
1A
102
}
330
1A
100
AcDbPlotSettings
  1

  2
none_device
  4

  6

 40
0.0
 41
0.0
 42
0.0
 43
0.0
 44
0.0
 45
0.0
 46
0.0
 47
0.0
 48
0.0
 49
0.0
140
0.0
141
0.0
142
1.0
143
1.0
 70
   688
 72
     0
 73
     0
 74
     5
  7

 75
    16
 76
     0
 77
     2
 78
   300
147
1.0
148
0.0
149
0.0
100
AcDbLayout
  1
Layout2
 70
     1
 71
     2
 10
0.0
 20
0.0
 11
0.0
 21
0.0
 12
0.0
 22
0.0
 32
0.0
 14
0.0
 24
0.0
 34
0.0
 15
0.0
 25
0.0
 35
0.0
146
0.0
 13
0.0
 23
0.0
 33
0.0
 16
1.0
 26
0.0
 36
0.0
 17
0.0
 27
1.0
 37
0.0
 76
     0
330
23
  0
LAYOUT
  5
22
102
{ACAD_REACTORS
330
1A
102
}
330
1A
100
AcDbPlotSettings
  1

  2
none_device
  4

  6

 40
0.0
 41
0.0
 42
0.0
 43
0.0
 44
0.0
 45
0.0
 46
0.0
 47
0.0
 48
0.0
 49
0.0
140
0.0
141
0.0
142
1.0
143
1.0
 70
  1712
 72
     0
 73
     0
 74
     0
  7

 75
     0
 76
     0
 77
     2
 78
   300
147
1.0
148
0.0
149
0.0
100
AcDbLayout
  1
Model
 70
     1
 71
     0
 10
0.0
 20
0.0
 11
12.0
 21
9.0
 12
0.0
 22
0.0
 32
0.0
 14
-55.9214
 24
-114.7846
 34
0.0
 15
75.4302
 25
131.8682
 35
0.0
146
0.0
 13
0.0
 23
0.0
 33
0.0
 16
1.0
 26
0.0
 36
0.0
 17
0.0
 27
1.0
 37
0.0
 76
     0
330
1F
331
29
  0
MATERIAL
  5
3D
102
{ACAD_REACTORS
330
3B
102
}
330
3B
100
AcDbMaterial
  1
ByBlock
 72
     1
 94
      127
  0
MATERIAL
  5
3C
102
{ACAD_REACTORS
330
3B
102
}
330
3B
100
AcDbMaterial
  1
ByLayer
 72
     1
 94
      127
  0
MATERIAL
  5
3E
102
{ACAD_REACTORS
330
3B
102
}
330
3B
100
AcDbMaterial
  1
Global
 72
     1
 94
      127
  0
MLINESTYLE
  5
18
102
{ACAD_REACTORS
330
17
102
}
330
17
100
AcDbMlineStyle
  2
Standard
 70
     0
  3

 62
   256
 51
90.0
 52
90.0
 71
     2
 49
0.5
 62
   256
  6
BYLAYER
 49
-0.5
 62
   256
  6
BYLAYER
  0
ACDBPLACEHOLDER
  5
F
102
{ACAD_REACTORS
330
E
102
}
330
E
  0
VISUALSTYLE
  5
2F
102
{ACAD_REACTORS
330
2A
102
}
102
{ACAD_XDICTIONARY
360
9F
102
}
330
2A
100
AcDbVisualStyle
  2
2dWireframe
 70
     4
 71
     0
 72
     2
 73
     0
 90
        0
 40
-0.6
 41
-30.0
 62
     5
 63
     7
421
 16777215
 74
     1
 91
        4
 64
     7
 65
   257
 75
     1
175
     1
 42
1.0
 92
        0
 66
   257
 43
1.0
 76
     1
 77
     6
 78
     2
 67
     7
 79
     5
170
     0
171
     0
290
     0
174
     0
 93
        1
 44
0.0
173
     0
291
     0
 45
0.0
  0
VISUALSTYLE
  5
31
102
{ACAD_REACTORS
330
2A
102
}
102
{ACAD_XDICTIONARY
360
A3
102
}
330
2A
100
AcDbVisualStyle
  2
3D Hidden
 70
     6
 71
     1
 72
     2
 73
     2
 90
        0
 40
-0.6
 41
-30.0
 62
     5
 63
     7
421
 16777215
 74
     2
 91
        2
 64
     7
 65
   257
 75
     2
175
     1
 42
40.0
 92
        0
 66
   257
 43
1.0
 76
     1
 77
     6
 78
     2
 67
     7
 79
     3
170
     0
171
     0
290
     0
174
     0
 93
        1
 44
0.0
173
     0
291
     0
 45
0.0
  0
VISUALSTYLE
  5
30
102
{ACAD_REACTORS
330
2A
102
}
102
{ACAD_XDICTIONARY
360
A1
102
}
330
2A
100
AcDbVisualStyle
  2
3dWireframe
 70
     5
 71
     0
 72
     2
 73
     0
 90
        0
 40
-0.6
 41
-30.0
 62
     5
 63
     7
421
 16777215
 74
     1
 91
        4
 64
     7
 65
   257
 75
     1
175
     1
 42
1.0
 92
        0
 66
   257
 43
1.0
 76
     1
 77
     6
 78
     2
 67
     7
 79
     5
170
     0
171
     0
290
     0
174
     0
 93
        1
 44
0.0
173
     0
291
     0
 45
0.0
  0
VISUALSTYLE
  5
32
102
{ACAD_REACTORS
330
2A
102
}
102
{ACAD_XDICTIONARY
360
A5
102
}
330
2A
100
AcDbVisualStyle
  2
Basic
 70
     7
 71
     1
 72
     0
 73
     1
 90
        0
 40
-0.6
 41
-30.0
 62
     5
 63
     7
421
 16777215
 74
     0
 91
        4
 64
     7
 65
   257
 75
     1
175
     1
 42
1.0
 92
        8
 66
     7
 43
1.0
 76
     1
 77
     6
 78
     2
 67
     7
 79
     5
170
     0
171
     0
290
     0
174
     0
 93
        1
 44
0.0
173
     0
291
     1
 45
0.0
  0
VISUALSTYLE
  5
36
102
{ACAD_REACTORS
330
2A
102
}
102
{ACAD_XDICTIONARY
360
AD
102
}
330
2A
100
AcDbVisualStyle
  2
Brighten
 70
    12
 71
     2
 72
     2
 73
     0
 90
        0
 40
-0.6
 41
-30.0
 62
     5
 63
     7
421
 16777215
 74
     1
 91
        4
 64
     7
 65
   257
 75
     1
175
     1
 42
1.0
 92
        8
 66
     7
 43
1.0
 76
     1
 77
     6
 78
     2
 67
     7
 79
     5
170
     0
171
     0
290
     0
174
     0
 93
        1
 44
50.0
173
     0
291
     1
 45
0.0
  0
VISUALSTYLE
  5
3A
102
{ACAD_REACTORS
330
2A
102
}
102
{ACAD_XDICTIONARY
360
B5
102
}
330
2A
100
AcDbVisualStyle
  2
ColorChange
 70
    16
 71
     2
 72
     2
 73
     3
 90
        0
 40
-0.6
 41
-30.0
 62
     5
 63
     8
421
  8421504
 74
     1
 91
        4
 64
     7
 65
   257
 75
     1
175
     1
 42
1.0
 92
        8
 66
     8
424
  8421504
 43
1.0
 76
     1
 77
     6
 78
     2
 67
     7
 79
     5
170
     0
171
     0
290
     0
174
     0
 93
        1
 44
0.0
173
     0
291
     1
 45
0.0
  0
VISUALSTYLE
  5
34
102
{ACAD_REACTORS
330
2A
102
}
102
{ACAD_XDICTIONARY
360
A9
102
}
330
2A
100
AcDbVisualStyle
  2
Conceptual
 70
     9
 71
     3
 72
     2
 73
     0
 90
        0
 40
-0.6
 41
-30.0
 62
     5
 63
     7
421
 16777215
 74
     2
 91
        2
 64
     7
 65
   257
 75
     1
175
     1
 42
40.0
 92
        8
 66
     7
 43
1.0
 76
     1
 77
     6
 78
     2
 67
     7
 79
     3
170
     0
171
     0
290
     0
174
     0
 93
        1
 44
0.0
173
     0
291
     0
 45
0.0
  0
VISUALSTYLE
  5
35
102
{ACAD_REACTORS
330
2A
102
}
102
{ACAD_XDICTIONARY
360
AB
102
}
330
2A
100
AcDbVisualStyle
  2
Dim
 70
    11
 71
     2
 72
     2
 73
     0
 90
        0
 40
-0.6
 41
-30.0
 62
     5
 63
     7
421
 16777215
 74
     1
 91
        4
 64
     7
 65
   257
 75
     1
175
     1
 42
1.0
 92
        8
 66
     7
 43
1.0
 76
     1
 77
     6
 78
     2
 67
     7
 79
     5
170
     0
171
     0
290
     0
174
     0
 93
        1
 44
-50.0
173
     0
291
     1
 45
0.0
  0
VISUALSTYLE
  5
39
102
{ACAD_REACTORS
330
2A
102
}
102
{ACAD_XDICTIONARY
360
B3
102
}
330
2A
100
AcDbVisualStyle
  2
Facepattern
 70
    15
 71
     2
 72
     2
 73
     0
 90
        0
 40
-0.6
 41
-30.0
 62
     5
 63
     7
421
 16777215
 74
     1
 91
        4
 64
     7
 65
   257
 75
     1
175
     1
 42
1.0
 92
        8
 66
     7
 43
1.0
 76
     1
 77
     6
 78
     2
 67
     7
 79
     5
170
     0
171
     0
290
     0
174
     0
 93
        1
 44
0.0
173
     0
291
     1
 45
0.0
  0
VISUALSTYLE
  5
2B
102
{ACAD_REACTORS
330
2A
102
}
102
{ACAD_XDICTIONARY
360
97
102
}
330
2A
100
AcDbVisualStyle
  2
Flat
 70
     0
 71
     2
 72
     1
 73
     1
 90
        2
 40
-0.6
 41
30.0
 62
     5
 63
     7
421
 16777215
 74
     0
 91
        4
 64
     7
 65
   257
 75
     1
175
     1
 42
1.0
 92
        8
 66
     7
 43
1.0
 76
     1
 77
     6
 78
     2
 67
     7
 79
     5
170
     0
171
     0
290
     0
174
     0
 93
       13
 44
0.0
173
     0
291
     1
 45
0.0
  0
VISUALSTYLE
  5
2C
102
{ACAD_REACTORS
330
2A
102
}
102
{ACAD_XDICTIONARY
360
99
102
}
330
2A
100
AcDbVisualStyle
  2
FlatWithEdges
 70
     1
 71
     2
 72
     1
 73
     1
 90
        2
 40
-0.6
 41
30.0
 62
     5
 63
     7
421
 16777215
 74
     1
 91
        4
 64
     7
 65
   257
 75
     1
175
     1
 42
1.0
 92
        0
 66
   257
 43
1.0
 76
     1
 77
     6
 78
     2
 67
     7
 79
     5
170
     0
171
     0
290
     0
174
     0
 93
       13
 44
0.0
173
     0
291
     1
 45
0.0
  0
VISUALSTYLE
  5
2D
102
{ACAD_REACTORS
330
2A
102
}
102
{ACAD_XDICTIONARY
360
9B
102
}
330
2A
100
AcDbVisualStyle
  2
Gouraud
 70
     2
 71
     2
 72
     2
 73
     1
 90
        2
 40
-0.6
 41
30.0
 62
     5
 63
     7
421
 16777215
 74
     0
 91
        4
 64
     7
 65
   257
 75
     1
175
     1
 42
1.0
 92
        0
 66
     7
 43
1.0
 76
     1
 77
     6
 78
     2
 67
     7
 79
     5
170
     0
171
     0
290
     0
174
     0
 93
       13
 44
0.0
173
     0
291
     1
 45
0.0
  0
VISUALSTYLE
  5
2E
102
{ACAD_REACTORS
330
2A
102
}
102
{ACAD_XDICTIONARY
360
9D
102
}
330
2A
100
AcDbVisualStyle
  2
GouraudWithEdges
 70
     3
 71
     2
 72
     2
 73
     1
 90
        2
 40
-0.6
 41
30.0
 62
     5
 63
     7
421
 16777215
 74
     1
 91
        4
 64
     7
 65
   257
 75
     1
175
     1
 42
1.0
 92
        0
 66
   257
 43
1.0
 76
     1
 77
     6
 78
     2
 67
     7
 79
     5
170
     0
171
     0
290
     0
174
     0
 93
       13
 44
0.0
173
     0
291
     1
 45
0.0
  0
VISUALSTYLE
  5
38
102
{ACAD_REACTORS
330
2A
102
}
102
{ACAD_XDICTIONARY
360
B1
102
}
330
2A
100
AcDbVisualStyle
  2
Linepattern
 70
    14
 71
     2
 72
     2
 73
     0
 90
        0
 40
-0.6
 41
-30.0
 62
     5
 63
     7
421
 16777215
 74
     1
 91
        4
 64
     7
 65
   257
 75
     7
175
     7
 42
1.0
 92
        8
 66
     7
 43
1.0
 76
     1
 77
     6
 78
     2
 67
     7
 79
     5
170
     0
171
     0
290
     0
174
     0
 93
        1
 44
0.0
173
     0
291
     1
 45
0.0
  0
VISUALSTYLE
  5
33
102
{ACAD_REACTORS
330
2A
102
}
102
{ACAD_XDICTIONARY
360
A7
102
}
330
2A
100
AcDbVisualStyle
  2
Realistic
 70
     8
 71
     2
 72
     2
 73
     0
 90
        0
 40
-0.6
 41
-30.0
 62
     5
 63
     7
421
 16777215
 74
     1
 91
        0
 64
     7
 65
   257
 75
     1
175
     1
 42
1.0
 92
        8
 66
     8
424
  7895160
 43
1.0
 76
     1
 77
     6
 78
     2
 67
     7
 79
     5
170
     0
171
     0
290
     0
174
     0
 93
       13
 44
0.0
173
     0
291
     0
 45
0.0
  0
VISUALSTYLE
  5
37
102
{ACAD_REACTORS
330
2A
102
}
102
{ACAD_XDICTIONARY
360
AF
102
}
330
2A
100
AcDbVisualStyle
  2
Thicken
 70
    13
 71
     2
 72
     2
 73
     0
 90
        0
 40
-0.6
 41
-30.0
 62
     5
 63
     7
421
 16777215
 74
     1
 91
        4
 64
     7
 65
   257
 75
     1
175
     1
 42
1.0
 92
       12
 66
     7
 43
1.0
 76
     1
 77
     6
 78
     2
 67
     7
 79
     5
170
     0
171
     0
290
     0
174
     0
 93
        1
 44
0.0
173
     0
291
     1
 45
0.0
  0
DICTIONARY
  5
9F
330
2F
100
AcDbDictionary
280
     1
281
     1
  3
ACAD_XREC_ROUNDTRIP
360
A0
  0
DICTIONARY
  5
A3
330
31
100
AcDbDictionary
280
     1
281
     1
  3
ACAD_XREC_ROUNDTRIP
360
A4
  0
DICTIONARY
  5
A1
330
30
100
AcDbDictionary
280
     1
281
     1
  3
ACAD_XREC_ROUNDTRIP
360
A2
  0
DICTIONARY
  5
A5
330
32
100
AcDbDictionary
280
     1
281
     1
  3
ACAD_XREC_ROUNDTRIP
360
A6
  0
DICTIONARY
  5
AD
330
36
100
AcDbDictionary
280
     1
281
     1
  3
ACAD_XREC_ROUNDTRIP
360
AE
  0
DICTIONARY
  5
B5
330
3A
100
AcDbDictionary
280
     1
281
     1
  3
ACAD_XREC_ROUNDTRIP
360
B6
  0
DICTIONARY
  5
A9
330
34
100
AcDbDictionary
280
     1
281
     1
  3
ACAD_XREC_ROUNDTRIP
360
AA
  0
DICTIONARY
  5
AB
330
35
100
AcDbDictionary
280
     1
281
     1
  3
ACAD_XREC_ROUNDTRIP
360
AC
  0
DICTIONARY
  5
B3
330
39
100
AcDbDictionary
280
     1
281
     1
  3
ACAD_XREC_ROUNDTRIP
360
B4
  0
DICTIONARY
  5
97
330
2B
100
AcDbDictionary
280
     1
281
     1
  3
ACAD_XREC_ROUNDTRIP
360
98
  0
DICTIONARY
  5
99
330
2C
100
AcDbDictionary
280
     1
281
     1
  3
ACAD_XREC_ROUNDTRIP
360
9A
  0
DICTIONARY
  5
9B
330
2D
100
AcDbDictionary
280
     1
281
     1
  3
ACAD_XREC_ROUNDTRIP
360
9C
  0
DICTIONARY
  5
9D
330
2E
100
AcDbDictionary
280
     1
281
     1
  3
ACAD_XREC_ROUNDTRIP
360
9E
  0
DICTIONARY
  5
B1
330
38
100
AcDbDictionary
280
     1
281
     1
  3
ACAD_XREC_ROUNDTRIP
360
B2
  0
DICTIONARY
  5
A7
330
33
100
AcDbDictionary
280
     1
281
     1
  3
ACAD_XREC_ROUNDTRIP
360
A8
  0
DICTIONARY
  5
AF
330
37
100
AcDbDictionary
280
     1
281
     1
  3
ACAD_XREC_ROUNDTRIP
360
B0
  0
XRECORD
  5
A0
102
{ACAD_REACTORS
330
9F
102
}
330
9F
100
AcDbXrecord
280
     1
102
RTVSPropertyOp0
 70
     1
102
RTVSPropertyOp1
 70
     1
102
RTVSPropertyOp2
 70
     1
102
RTVSPropertyOp3
 70
     1
102
RTVSPropertyOp4
 70
     1
102
RTVSPropertyOp5
 70
     1
102
RTVSPropertyOp6
 70
     1
102
RTVSPropertyOp7
 70
     1
102
RTVSPropertyOp8
 70
     1
102
RTVSPropertyOp9
 70
     1
102
RTVSPropertyOp10
 70
     1
102
RTVSPropertyOp11
 70
     1
102
RTVSPropertyOp12
 70
     1
102
RTVSPropertyOp13
 70
     1
102
RTVSPropertyOp14
 70
     1
102
RTVSPropertyOp15
 70
     1
102
RTVSPropertyOp16
 70
     1
102
RTVSPropertyOp17
 70
     1
102
RTVSPropertyOp18
 70
     1
102
RTVSPropertyOp19
 70
     1
102
RTVSPropertyOp20
 70
     1
102
RTVSPropertyOp21
 70
     1
102
RTVSPropertyOp22
 70
     1
102
RTVSPropertyOp23
 70
     1
102
RTVSPropertyOp24
 70
     1
102
RTVSPropertyOp25
 70
     1
102
RTVSPropertyOp26
 70
     1
102
RTVSPropertyOp27
 70
     1
102
RTVSPropertyOp28
 70
     1
102
RTVSPropertyOp29
 70
     1
102
RTVSPropertyOp30
 70
     1
102
RTVSPropertyOp31
 70
     1
102
RTVSPropertyOp32
 70
     1
  0
XRECORD
  5
A4
102
{ACAD_REACTORS
330
A3
102
}
330
A3
100
AcDbXrecord
280
     1
102
RTVSPropertyOp0
 70
     1
102
RTVSPropertyOp1
 70
     1
102
RTVSPropertyOp2
 70
     1
102
RTVSPropertyOp3
 70
     1
102
RTVSPropertyOp4
 70
     1
102
RTVSPropertyOp5
 70
     1
102
RTVSPropertyOp6
 70
     1
102
RTVSPropertyOp7
 70
     1
102
RTVSPropertyOp8
 70
     1
102
RTVSPropertyOp9
 70
     1
102
RTVSPropertyOp10
 70
     1
102
RTVSPropertyOp11
 70
     1
102
RTVSPropertyOp12
 70
     1
102
RTVSPropertyOp13
 70
     1
102
RTVSPropertyOp14
 70
     1
102
RTVSPropertyOp15
 70
     1
102
RTVSPropertyOp16
 70
     1
102
RTVSPropertyOp17
 70
     1
102
RTVSPropertyOp18
 70
     1
102
RTVSPropertyOp19
 70
     1
102
RTVSPropertyOp20
 70
     1
102
RTVSPropertyOp21
 70
     1
102
RTVSPropertyOp22
 70
     1
102
RTVSPropertyOp23
 70
     1
102
RTVSPropertyOp24
 70
     1
102
RTVSPropertyOp25
 70
     1
102
RTVSPropertyOp26
 70
     1
102
RTVSPropertyOp27
 70
     1
102
RTVSPropertyOp28
 70
     1
102
RTVSPropertyOp29
 70
     1
102
RTVSPropertyOp30
 70
     1
102
RTVSPropertyOp31
 70
     1
102
RTVSPropertyOp32
 70
     1
  0
XRECORD
  5
A2
102
{ACAD_REACTORS
330
A1
102
}
330
A1
100
AcDbXrecord
280
     1
102
RTVSPropertyOp0
 70
     1
102
RTVSPropertyOp1
 70
     1
102
RTVSPropertyOp2
 70
     1
102
RTVSPropertyOp3
 70
     1
102
RTVSPropertyOp4
 70
     1
102
RTVSPropertyOp5
 70
     1
102
RTVSPropertyOp6
 70
     1
102
RTVSPropertyOp7
 70
     1
102
RTVSPropertyOp8
 70
     1
102
RTVSPropertyOp9
 70
     1
102
RTVSPropertyOp10
 70
     1
102
RTVSPropertyOp11
 70
     1
102
RTVSPropertyOp12
 70
     1
102
RTVSPropertyOp13
 70
     1
102
RTVSPropertyOp14
 70
     1
102
RTVSPropertyOp15
 70
     1
102
RTVSPropertyOp16
 70
     1
102
RTVSPropertyOp17
 70
     1
102
RTVSPropertyOp18
 70
     1
102
RTVSPropertyOp19
 70
     1
102
RTVSPropertyOp20
 70
     1
102
RTVSPropertyOp21
 70
     1
102
RTVSPropertyOp22
 70
     1
102
RTVSPropertyOp23
 70
     1
102
RTVSPropertyOp24
 70
     1
102
RTVSPropertyOp25
 70
     1
102
RTVSPropertyOp26
 70
     1
102
RTVSPropertyOp27
 70
     1
102
RTVSPropertyOp28
 70
     1
102
RTVSPropertyOp29
 70
     1
102
RTVSPropertyOp30
 70
     1
102
RTVSPropertyOp31
 70
     1
102
RTVSPropertyOp32
 70
     1
  0
XRECORD
  5
A6
102
{ACAD_REACTORS
330
A5
102
}
330
A5
100
AcDbXrecord
280
     1
102
RTVSPropertyOp0
 70
     1
102
RTVSPropertyOp1
 70
     1
102
RTVSPropertyOp2
 70
     1
102
RTVSPropertyOp3
 70
     1
102
RTVSPropertyOp4
 70
     1
102
RTVSPropertyOp5
 70
     1
102
RTVSPropertyOp6
 70
     1
102
RTVSPropertyOp7
 70
     1
102
RTVSPropertyOp8
 70
     1
102
RTVSPropertyOp9
 70
     1
102
RTVSPropertyOp10
 70
     1
102
RTVSPropertyOp11
 70
     1
102
RTVSPropertyOp12
 70
     1
102
RTVSPropertyOp13
 70
     1
102
RTVSPropertyOp14
 70
     1
102
RTVSPropertyOp15
 70
     1
102
RTVSPropertyOp16
 70
     1
102
RTVSPropertyOp17
 70
     1
102
RTVSPropertyOp18
 70
     1
102
RTVSPropertyOp19
 70
     1
102
RTVSPropertyOp20
 70
     1
102
RTVSPropertyOp21
 70
     1
102
RTVSPropertyOp22
 70
     1
102
RTVSPropertyOp23
 70
     1
102
RTVSPropertyOp24
 70
     1
102
RTVSPropertyOp25
 70
     1
102
RTVSPropertyOp26
 70
     1
102
RTVSPropertyOp27
 70
     1
102
RTVSPropertyOp28
 70
     1
102
RTVSPropertyOp29
 70
     1
102
RTVSPropertyOp30
 70
     1
102
RTVSPropertyOp31
 70
     1
102
RTVSPropertyOp32
 70
     1
  0
XRECORD
  5
AE
102
{ACAD_REACTORS
330
AD
102
}
330
AD
100
AcDbXrecord
280
     1
102
RTVSPropertyOp0
 70
     1
102
RTVSPropertyOp1
 70
     1
102
RTVSPropertyOp2
 70
     1
102
RTVSPropertyOp3
 70
     1
102
RTVSPropertyOp4
 70
     1
102
RTVSPropertyOp5
 70
     1
102
RTVSPropertyOp6
 70
     1
102
RTVSPropertyOp7
 70
     1
102
RTVSPropertyOp8
 70
     1
102
RTVSPropertyOp9
 70
     1
102
RTVSPropertyOp10
 70
     1
102
RTVSPropertyOp11
 70
     1
102
RTVSPropertyOp12
 70
     1
102
RTVSPropertyOp13
 70
     1
102
RTVSPropertyOp14
 70
     1
102
RTVSPropertyOp15
 70
     1
102
RTVSPropertyOp16
 70
     1
102
RTVSPropertyOp17
 70
     1
102
RTVSPropertyOp18
 70
     1
102
RTVSPropertyOp19
 70
     1
102
RTVSPropertyOp20
 70
     1
102
RTVSPropertyOp21
 70
     1
102
RTVSPropertyOp22
 70
     1
102
RTVSPropertyOp23
 70
     1
102
RTVSPropertyOp24
 70
     1
102
RTVSPropertyOp25
 70
     1
102
RTVSPropertyOp26
 70
     1
102
RTVSPropertyOp27
 70
     1
102
RTVSPropertyOp28
 70
     1
102
RTVSPropertyOp29
 70
     1
102
RTVSPropertyOp30
 70
     1
102
RTVSPropertyOp31
 70
     1
102
RTVSPropertyOp32
 70
     1
  0
XRECORD
  5
B6
102
{ACAD_REACTORS
330
B5
102
}
330
B5
100
AcDbXrecord
280
     1
102
RTVSPropertyOp0
 70
     1
102
RTVSPropertyOp1
 70
     1
102
RTVSPropertyOp2
 70
     1
102
RTVSPropertyOp3
 70
     1
102
RTVSPropertyOp4
 70
     1
102
RTVSPropertyOp5
 70
     1
102
RTVSPropertyOp6
 70
     1
102
RTVSPropertyOp7
 70
     1
102
RTVSPropertyOp8
 70
     1
102
RTVSPropertyOp9
 70
     1
102
RTVSPropertyOp10
 70
     1
102
RTVSPropertyOp11
 70
     1
102
RTVSPropertyOp12
 70
     1
102
RTVSPropertyOp13
 70
     1
102
RTVSPropertyOp14
 70
     1
102
RTVSPropertyOp15
 70
     1
102
RTVSPropertyOp16
 70
     1
102
RTVSPropertyOp17
 70
     1
102
RTVSPropertyOp18
 70
     1
102
RTVSPropertyOp19
 70
     1
102
RTVSPropertyOp20
 70
     1
102
RTVSPropertyOp21
 70
     1
102
RTVSPropertyOp22
 70
     1
102
RTVSPropertyOp23
 70
     1
102
RTVSPropertyOp24
 70
     1
102
RTVSPropertyOp25
 70
     1
102
RTVSPropertyOp26
 70
     1
102
RTVSPropertyOp27
 70
     1
102
RTVSPropertyOp28
 70
     1
102
RTVSPropertyOp29
 70
     1
102
RTVSPropertyOp30
 70
     1
102
RTVSPropertyOp31
 70
     1
102
RTVSPropertyOp32
 70
     1
  0
XRECORD
  5
AA
102
{ACAD_REACTORS
330
A9
102
}
330
A9
100
AcDbXrecord
280
     1
102
RTVSPropertyOp0
 70
     1
102
RTVSPropertyOp1
 70
     1
102
RTVSPropertyOp2
 70
     1
102
RTVSPropertyOp3
 70
     1
102
RTVSPropertyOp4
 70
     1
102
RTVSPropertyOp5
 70
     1
102
RTVSPropertyOp6
 70
     1
102
RTVSPropertyOp7
 70
     1
102
RTVSPropertyOp8
 70
     1
102
RTVSPropertyOp9
 70
     1
102
RTVSPropertyOp10
 70
     1
102
RTVSPropertyOp11
 70
     1
102
RTVSPropertyOp12
 70
     1
102
RTVSPropertyOp13
 70
     1
102
RTVSPropertyOp14
 70
     1
102
RTVSPropertyOp15
 70
     1
102
RTVSPropertyOp16
 70
     1
102
RTVSPropertyOp17
 70
     1
102
RTVSPropertyOp18
 70
     1
102
RTVSPropertyOp19
 70
     1
102
RTVSPropertyOp20
 70
     1
102
RTVSPropertyOp21
 70
     1
102
RTVSPropertyOp22
 70
     1
102
RTVSPropertyOp23
 70
     1
102
RTVSPropertyOp24
 70
     1
102
RTVSPropertyOp25
 70
     1
102
RTVSPropertyOp26
 70
     1
102
RTVSPropertyOp27
 70
     1
102
RTVSPropertyOp28
 70
     1
102
RTVSPropertyOp29
 70
     1
102
RTVSPropertyOp30
 70
     1
102
RTVSPropertyOp31
 70
     1
102
RTVSPropertyOp32
 70
     1
  0
XRECORD
  5
AC
102
{ACAD_REACTORS
330
AB
102
}
330
AB
100
AcDbXrecord
280
     1
102
RTVSPropertyOp0
 70
     1
102
RTVSPropertyOp1
 70
     1
102
RTVSPropertyOp2
 70
     1
102
RTVSPropertyOp3
 70
     1
102
RTVSPropertyOp4
 70
     1
102
RTVSPropertyOp5
 70
     1
102
RTVSPropertyOp6
 70
     1
102
RTVSPropertyOp7
 70
     1
102
RTVSPropertyOp8
 70
     1
102
RTVSPropertyOp9
 70
     1
102
RTVSPropertyOp10
 70
     1
102
RTVSPropertyOp11
 70
     1
102
RTVSPropertyOp12
 70
     1
102
RTVSPropertyOp13
 70
     1
102
RTVSPropertyOp14
 70
     1
102
RTVSPropertyOp15
 70
     1
102
RTVSPropertyOp16
 70
     1
102
RTVSPropertyOp17
 70
     1
102
RTVSPropertyOp18
 70
     1
102
RTVSPropertyOp19
 70
     1
102
RTVSPropertyOp20
 70
     1
102
RTVSPropertyOp21
 70
     1
102
RTVSPropertyOp22
 70
     1
102
RTVSPropertyOp23
 70
     1
102
RTVSPropertyOp24
 70
     1
102
RTVSPropertyOp25
 70
     1
102
RTVSPropertyOp26
 70
     1
102
RTVSPropertyOp27
 70
     1
102
RTVSPropertyOp28
 70
     1
102
RTVSPropertyOp29
 70
     1
102
RTVSPropertyOp30
 70
     1
102
RTVSPropertyOp31
 70
     1
102
RTVSPropertyOp32
 70
     1
  0
XRECORD
  5
B4
102
{ACAD_REACTORS
330
B3
102
}
330
B3
100
AcDbXrecord
280
     1
102
RTVSPropertyOp0
 70
     1
102
RTVSPropertyOp1
 70
     1
102
RTVSPropertyOp2
 70
     1
102
RTVSPropertyOp3
 70
     1
102
RTVSPropertyOp4
 70
     1
102
RTVSPropertyOp5
 70
     1
102
RTVSPropertyOp6
 70
     1
102
RTVSPropertyOp7
 70
     1
102
RTVSPropertyOp8
 70
     1
102
RTVSPropertyOp9
 70
     1
102
RTVSPropertyOp10
 70
     1
102
RTVSPropertyOp11
 70
     1
102
RTVSPropertyOp12
 70
     1
102
RTVSPropertyOp13
 70
     1
102
RTVSPropertyOp14
 70
     1
102
RTVSPropertyOp15
 70
     1
102
RTVSPropertyOp16
 70
     1
102
RTVSPropertyOp17
 70
     1
102
RTVSPropertyOp18
 70
     1
102
RTVSPropertyOp19
 70
     1
102
RTVSPropertyOp20
 70
     1
102
RTVSPropertyOp21
 70
     1
102
RTVSPropertyOp22
 70
     1
102
RTVSPropertyOp23
 70
     1
102
RTVSPropertyOp24
 70
     1
102
RTVSPropertyOp25
 70
     1
102
RTVSPropertyOp26
 70
     1
102
RTVSPropertyOp27
 70
     1
102
RTVSPropertyOp28
 70
     1
102
RTVSPropertyOp29
 70
     1
102
RTVSPropertyOp30
 70
     1
102
RTVSPropertyOp31
 70
     1
102
RTVSPropertyOp32
 70
     1
  0
XRECORD
  5
98
102
{ACAD_REACTORS
330
97
102
}
330
97
100
AcDbXrecord
280
     1
102
RTVSPropertyOp0
 70
     1
102
RTVSPropertyOp1
 70
     1
102
RTVSPropertyOp2
 70
     1
102
RTVSPropertyOp3
 70
     1
102
RTVSPropertyOp4
 70
     1
102
RTVSPropertyOp5
 70
     1
102
RTVSPropertyOp6
 70
     1
102
RTVSPropertyOp7
 70
     1
102
RTVSPropertyOp8
 70
     1
102
RTVSPropertyOp9
 70
     1
102
RTVSPropertyOp10
 70
     1
102
RTVSPropertyOp11
 70
     1
102
RTVSPropertyOp12
 70
     1
102
RTVSPropertyOp13
 70
     1
102
RTVSPropertyOp14
 70
     1
102
RTVSPropertyOp15
 70
     1
102
RTVSPropertyOp16
 70
     1
102
RTVSPropertyOp17
 70
     1
102
RTVSPropertyOp18
 70
     1
102
RTVSPropertyOp19
 70
     1
102
RTVSPropertyOp20
 70
     1
102
RTVSPropertyOp21
 70
     1
102
RTVSPropertyOp22
 70
     1
102
RTVSPropertyOp23
 70
     1
102
RTVSPropertyOp24
 70
     1
102
RTVSPropertyOp25
 70
     1
102
RTVSPropertyOp26
 70
     1
102
RTVSPropertyOp27
 70
     1
102
RTVSPropertyOp28
 70
     1
102
RTVSPropertyOp29
 70
     1
102
RTVSPropertyOp30
 70
     1
102
RTVSPropertyOp31
 70
     1
102
RTVSPropertyOp32
 70
     1
  0
XRECORD
  5
9A
102
{ACAD_REACTORS
330
99
102
}
330
99
100
AcDbXrecord
280
     1
102
RTVSPropertyOp0
 70
     1
102
RTVSPropertyOp1
 70
     1
102
RTVSPropertyOp2
 70
     1
102
RTVSPropertyOp3
 70
     1
102
RTVSPropertyOp4
 70
     1
102
RTVSPropertyOp5
 70
     1
102
RTVSPropertyOp6
 70
     1
102
RTVSPropertyOp7
 70
     1
102
RTVSPropertyOp8
 70
     1
102
RTVSPropertyOp9
 70
     1
102
RTVSPropertyOp10
 70
     1
102
RTVSPropertyOp11
 70
     1
102
RTVSPropertyOp12
 70
     1
102
RTVSPropertyOp13
 70
     1
102
RTVSPropertyOp14
 70
     1
102
RTVSPropertyOp15
 70
     1
102
RTVSPropertyOp16
 70
     1
102
RTVSPropertyOp17
 70
     1
102
RTVSPropertyOp18
 70
     1
102
RTVSPropertyOp19
 70
     1
102
RTVSPropertyOp20
 70
     1
102
RTVSPropertyOp21
 70
     1
102
RTVSPropertyOp22
 70
     1
102
RTVSPropertyOp23
 70
     1
102
RTVSPropertyOp24
 70
     1
102
RTVSPropertyOp25
 70
     1
102
RTVSPropertyOp26
 70
     1
102
RTVSPropertyOp27
 70
     1
102
RTVSPropertyOp28
 70
     1
102
RTVSPropertyOp29
 70
     1
102
RTVSPropertyOp30
 70
     1
102
RTVSPropertyOp31
 70
     1
102
RTVSPropertyOp32
 70
     1
  0
XRECORD
  5
9C
102
{ACAD_REACTORS
330
9B
102
}
330
9B
100
AcDbXrecord
280
     1
102
RTVSPropertyOp0
 70
     1
102
RTVSPropertyOp1
 70
     1
102
RTVSPropertyOp2
 70
     1
102
RTVSPropertyOp3
 70
     1
102
RTVSPropertyOp4
 70
     1
102
RTVSPropertyOp5
 70
     1
102
RTVSPropertyOp6
 70
     1
102
RTVSPropertyOp7
 70
     1
102
RTVSPropertyOp8
 70
     1
102
RTVSPropertyOp9
 70
     1
102
RTVSPropertyOp10
 70
     1
102
RTVSPropertyOp11
 70
     1
102
RTVSPropertyOp12
 70
     1
102
RTVSPropertyOp13
 70
     1
102
RTVSPropertyOp14
 70
     1
102
RTVSPropertyOp15
 70
     1
102
RTVSPropertyOp16
 70
     1
102
RTVSPropertyOp17
 70
     1
102
RTVSPropertyOp18
 70
     1
102
RTVSPropertyOp19
 70
     1
102
RTVSPropertyOp20
 70
     1
102
RTVSPropertyOp21
 70
     1
102
RTVSPropertyOp22
 70
     1
102
RTVSPropertyOp23
 70
     1
102
RTVSPropertyOp24
 70
     1
102
RTVSPropertyOp25
 70
     1
102
RTVSPropertyOp26
 70
     1
102
RTVSPropertyOp27
 70
     1
102
RTVSPropertyOp28
 70
     1
102
RTVSPropertyOp29
 70
     1
102
RTVSPropertyOp30
 70
     1
102
RTVSPropertyOp31
 70
     1
102
RTVSPropertyOp32
 70
     1
  0
XRECORD
  5
9E
102
{ACAD_REACTORS
330
9D
102
}
330
9D
100
AcDbXrecord
280
     1
102
RTVSPropertyOp0
 70
     1
102
RTVSPropertyOp1
 70
     1
102
RTVSPropertyOp2
 70
     1
102
RTVSPropertyOp3
 70
     1
102
RTVSPropertyOp4
 70
     1
102
RTVSPropertyOp5
 70
     1
102
RTVSPropertyOp6
 70
     1
102
RTVSPropertyOp7
 70
     1
102
RTVSPropertyOp8
 70
     1
102
RTVSPropertyOp9
 70
     1
102
RTVSPropertyOp10
 70
     1
102
RTVSPropertyOp11
 70
     1
102
RTVSPropertyOp12
 70
     1
102
RTVSPropertyOp13
 70
     1
102
RTVSPropertyOp14
 70
     1
102
RTVSPropertyOp15
 70
     1
102
RTVSPropertyOp16
 70
     1
102
RTVSPropertyOp17
 70
     1
102
RTVSPropertyOp18
 70
     1
102
RTVSPropertyOp19
 70
     1
102
RTVSPropertyOp20
 70
     1
102
RTVSPropertyOp21
 70
     1
102
RTVSPropertyOp22
 70
     1
102
RTVSPropertyOp23
 70
     1
102
RTVSPropertyOp24
 70
     1
102
RTVSPropertyOp25
 70
     1
102
RTVSPropertyOp26
 70
     1
102
RTVSPropertyOp27
 70
     1
102
RTVSPropertyOp28
 70
     1
102
RTVSPropertyOp29
 70
     1
102
RTVSPropertyOp30
 70
     1
102
RTVSPropertyOp31
 70
     1
102
RTVSPropertyOp32
 70
     1
  0
XRECORD
  5
B2
102
{ACAD_REACTORS
330
B1
102
}
330
B1
100
AcDbXrecord
280
     1
102
RTVSPropertyOp0
 70
     1
102
RTVSPropertyOp1
 70
     1
102
RTVSPropertyOp2
 70
     1
102
RTVSPropertyOp3
 70
     1
102
RTVSPropertyOp4
 70
     1
102
RTVSPropertyOp5
 70
     1
102
RTVSPropertyOp6
 70
     1
102
RTVSPropertyOp7
 70
     1
102
RTVSPropertyOp8
 70
     1
102
RTVSPropertyOp9
 70
     1
102
RTVSPropertyOp10
 70
     1
102
RTVSPropertyOp11
 70
     1
102
RTVSPropertyOp12
 70
     1
102
RTVSPropertyOp13
 70
     1
102
RTVSPropertyOp14
 70
     1
102
RTVSPropertyOp15
 70
     1
102
RTVSPropertyOp16
 70
     1
102
RTVSPropertyOp17
 70
     1
102
RTVSPropertyOp18
 70
     1
102
RTVSPropertyOp19
 70
     1
102
RTVSPropertyOp20
 70
     1
102
RTVSPropertyOp21
 70
     1
102
RTVSPropertyOp22
 70
     1
102
RTVSPropertyOp23
 70
     1
102
RTVSPropertyOp24
 70
     1
102
RTVSPropertyOp25
 70
     1
102
RTVSPropertyOp26
 70
     1
102
RTVSPropertyOp27
 70
     1
102
RTVSPropertyOp28
 70
     1
102
RTVSPropertyOp29
 70
     1
102
RTVSPropertyOp30
 70
     1
102
RTVSPropertyOp31
 70
     1
102
RTVSPropertyOp32
 70
     1
  0
XRECORD
  5
A8
102
{ACAD_REACTORS
330
A7
102
}
330
A7
100
AcDbXrecord
280
     1
102
RTVSPropertyOp0
 70
     1
102
RTVSPropertyOp1
 70
     1
102
RTVSPropertyOp2
 70
     1
102
RTVSPropertyOp3
 70
     1
102
RTVSPropertyOp4
 70
     1
102
RTVSPropertyOp5
 70
     1
102
RTVSPropertyOp6
 70
     1
102
RTVSPropertyOp7
 70
     1
102
RTVSPropertyOp8
 70
     1
102
RTVSPropertyOp9
 70
     1
102
RTVSPropertyOp10
 70
     1
102
RTVSPropertyOp11
 70
     1
102
RTVSPropertyOp12
 70
     1
102
RTVSPropertyOp13
 70
     1
102
RTVSPropertyOp14
 70
     1
102
RTVSPropertyOp15
 70
     1
102
RTVSPropertyOp16
 70
     1
102
RTVSPropertyOp17
 70
     1
102
RTVSPropertyOp18
 70
     1
102
RTVSPropertyOp19
 70
     1
102
RTVSPropertyOp20
 70
     1
102
RTVSPropertyOp21
 70
     1
102
RTVSPropertyOp22
 70
     1
102
RTVSPropertyOp23
 70
     1
102
RTVSPropertyOp24
 70
     1
102
RTVSPropertyOp25
 70
     1
102
RTVSPropertyOp26
 70
     1
102
RTVSPropertyOp27
 70
     1
102
RTVSPropertyOp28
 70
     1
102
RTVSPropertyOp29
 70
     1
102
RTVSPropertyOp30
 70
     1
102
RTVSPropertyOp31
 70
     1
102
RTVSPropertyOp32
 70
     1
  0
XRECORD
  5
B0
102
{ACAD_REACTORS
330
AF
102
}
330
AF
100
AcDbXrecord
280
     1
102
RTVSPropertyOp0
 70
     1
102
RTVSPropertyOp1
 70
     1
102
RTVSPropertyOp2
 70
     1
102
RTVSPropertyOp3
 70
     1
102
RTVSPropertyOp4
 70
     1
102
RTVSPropertyOp5
 70
     1
102
RTVSPropertyOp6
 70
     1
102
RTVSPropertyOp7
 70
     1
102
RTVSPropertyOp8
 70
     1
102
RTVSPropertyOp9
 70
     1
102
RTVSPropertyOp10
 70
     1
102
RTVSPropertyOp11
 70
     1
102
RTVSPropertyOp12
 70
     1
102
RTVSPropertyOp13
 70
     1
102
RTVSPropertyOp14
 70
     1
102
RTVSPropertyOp15
 70
     1
102
RTVSPropertyOp16
 70
     1
102
RTVSPropertyOp17
 70
     1
102
RTVSPropertyOp18
 70
     1
102
RTVSPropertyOp19
 70
     1
102
RTVSPropertyOp20
 70
     1
102
RTVSPropertyOp21
 70
     1
102
RTVSPropertyOp22
 70
     1
102
RTVSPropertyOp23
 70
     1
102
RTVSPropertyOp24
 70
     1
102
RTVSPropertyOp25
 70
     1
102
RTVSPropertyOp26
 70
     1
102
RTVSPropertyOp27
 70
     1
102
RTVSPropertyOp28
 70
     1
102
RTVSPropertyOp29
 70
     1
102
RTVSPropertyOp30
 70
     1
102
RTVSPropertyOp31
 70
     1
102
RTVSPropertyOp32
 70
     1
  0
ENDSEC
  0
EOF
