  0
SECTION
  2
HEADER
  9
$ACADVER
  1
AC1021
  9
$ACADMAINTVER
 70
    25
  9
$DWGCODEPAGE
  3
ANSI_1256
  9
$INSBASE
 10
0.0
 20
0.0
 30
0.0
  9
$EXTMIN
 10
-187.567
 20
-106.5821
 30
0.0
  9
$EXTMAX
 10
-96.2095
 20
131.7419
 30
0.0
  9
$LIMMIN
 10
0.0
 20
0.0
  9
$LIMMAX
 10
12.0
 20
9.0
  9
$ORTHOMODE
 70
     0
  9
$REGENMODE
 70
     1
  9
$FILLMODE
 70
     1
  9
$QTEXTMODE
 70
     0
  9
$MIRRTEXT
 70
     1
  9
$LTSCALE
 40
1.0
  9
$ATTMODE
 70
     1
  9
$TEXTSIZE
 40
0.2
  9
$TRACEWID
 40
0.05
  9
$TEXTSTYLE
  7
Standard
  9
$CLAYER
  8
0
  9
$CELTYPE
  6
ByLayer
  9
$CECOLOR
 62
   256
  9
$CELTSCALE
 40
1.0
  9
$DISPSILH
 70
     0
  9
$DIMSCALE
 40
1.0
  9
$DIMASZ
 40
0.18
  9
$DIMEXO
 40
0.0625
  9
$DIMDLI
 40
0.38
  9
$DIMRND
 40
0.0
  9
$DIMDLE
 40
0.0
  9
$DIMEXE
 40
0.18
  9
$DIMTP
 40
0.0
  9
$DIMTM
 40
0.0
  9
$DIMTXT
 40
0.18
  9
$DIMCEN
 40
0.09
  9
$DIMTSZ
 40
0.0
  9
$DIMTOL
 70
     0
  9
$DIMLIM
 70
     0
  9
$DIMTIH
 70
     1
  9
$DIMTOH
 70
     1
  9
$DIMSE1
 70
     0
  9
$DIMSE2
 70
     0
  9
$DIMTAD
 70
     0
  9
$DIMZIN
 70
     0
  9
$DIMBLK
  1

  9
$DIMASO
 70
     1
  9
$DIMSHO
 70
     1
  9
$DIMPOST
  1

  9
$DIMAPOST
  1

  9
$DIMALT
 70
     0
  9
$DIMALTD
 70
     2
  9
$DIMALTF
 40
25.4
  9
$DIMLFAC
 40
1.0
  9
$DIMTOFL
 70
     0
  9
$DIMTVP
 40
0.0
  9
$DIMTIX
 70
     0
  9
$DIMSOXD
 70
     0
  9
$DIMSAH
 70
     0
  9
$DIMBLK1
  1

  9
$DIMBLK2
  1

  9
$DIMSTYLE
  2
Standard
  9
$DIMCLRD
 70
     0
  9
$DIMCLRE
 70
     0
  9
$DIMCLRT
 70
     0
  9
$DIMTFAC
 40
1.0
  9
$DIMGAP
 40
0.09
  9
$DIMJUST
 70
     0
  9
$DIMSD1
 70
     0
  9
$DIMSD2
 70
     0
  9
$DIMTOLJ
 70
     1
  9
$DIMTZIN
 70
     0
  9
$DIMALTZ
 70
     0
  9
$DIMALTTZ
 70
     0
  9
$DIMUPT
 70
     0
  9
$DIMDEC
 70
     4
  9
$DIMTDEC
 70
     4
  9
$DIMALTU
 70
     2
  9
$DIMALTTD
 70
     2
  9
$DIMTXSTY
  7
Standard
  9
$DIMAUNIT
 70
     0
  9
$DIMADEC
 70
     0
  9
$DIMALTRND
 40
0.0
  9
$DIMAZIN
 70
     0
  9
$DIMDSEP
 70
    46
  9
$DIMATFIT
 70
     3
  9
$DIMFRAC
 70
     0
  9
$DIMLDRBLK
  1

  9
$DIMLUNIT
 70
     2
  9
$DIMLWD
 70
    -2
  9
$DIMLWE
 70
    -2
  9
$DIMTMOVE
 70
     0
  9
$DIMFXL
 40
1.0
  9
$DIMFXLON
 70
     0
  9
$DIMJOGANG
 40
0.7853981633974483
  9
$DIMTFILL
 70
     0
  9
$DIMTFILLCLR
 70
     0
  9
$DIMARCSYM
 70
     0
  9
$DIMLTYPE
  6

  9
$DIMLTEX1
  6

  9
$DIMLTEX2
  6

  9
$LUNITS
 70
     2
  9
$LUPREC
 70
     4
  9
$SKETCHINC
 40
0.1
  9
$FILLETRAD
 40
0.5
  9
$AUNITS
 70
     0
  9
$AUPREC
 70
     0
  9
$MENU
  1
.
  9
$ELEVATION
 40
0.0
  9
$PELEVATION
 40
0.0
  9
$THICKNESS
 40
0.0
  9
$LIMCHECK
 70
     0
  9
$CHAMFERA
 40
0.5
  9
$CHAMFERB
 40
0.5
  9
$CHAMFERC
 40
1.0
  9
$CHAMFERD
 40
0.0
  9
$SKPOLY
 70
     0
  9
$TDCREATE
 40
2458492.917612199
  9
$TDUCREATE
 40
2458492.750945532
  9
$TDUPDATE
 40
2458492.917612315
  9
$TDUUPDATE
 40
2458492.750945648
  9
$TDINDWG
 40
0.0000000116
  9
$TDUSRTIMER
 40
0.0000000116
  9
$USRTIMER
 70
     1
  9
$ANGBASE
 50
0.0
  9
$ANGDIR
 70
     0
  9
$PDMODE
 70
     0
  9
$PDSIZE
 40
0.0
  9
$PLINEWID
 40
0.0
  9
$SPLFRAME
 70
     0
  9
$SPLINETYPE
 70
     6
  9
$SPLINESEGS
 70
     8
  9
$HANDSEED
  5
93
  9
$SURFTAB1
 70
     6
  9
$SURFTAB2
 70
     6
  9
$SURFTYPE
 70
     6
  9
$SURFU
 70
     6
  9
$SURFV
 70
     6
  9
$UCSBASE
  2

  9
$UCSNAME
  2

  9
$UCSORG
 10
0.0
 20
0.0
 30
0.0
  9
$UCSXDIR
 10
1.0
 20
0.0
 30
0.0
  9
$UCSYDIR
 10
0.0
 20
1.0
 30
0.0
  9
$UCSORTHOREF
  2

  9
$UCSORTHOVIEW
 70
     0
  9
$UCSORGTOP
 10
0.0
 20
0.0
 30
0.0
  9
$UCSORGBOTTOM
 10
0.0
 20
0.0
 30
0.0
  9
$UCSORGLEFT
 10
0.0
 20
0.0
 30
0.0
  9
$UCSORGRIGHT
 10
0.0
 20
0.0
 30
0.0
  9
$UCSORGFRONT
 10
0.0
 20
0.0
 30
0.0
  9
$UCSORGBACK
 10
0.0
 20
0.0
 30
0.0
  9
$PUCSBASE
  2

  9
$PUCSNAME
  2

  9
$PUCSORG
 10
0.0
 20
0.0
 30
0.0
  9
$PUCSXDIR
 10
1.0
 20
0.0
 30
0.0
  9
$PUCSYDIR
 10
0.0
 20
1.0
 30
0.0
  9
$PUCSORTHOREF
  2

  9
$PUCSORTHOVIEW
 70
     0
  9
$PUCSORGTOP
 10
0.0
 20
0.0
 30
0.0
  9
$PUCSORGBOTTOM
 10
0.0
 20
0.0
 30
0.0
  9
$PUCSORGLEFT
 10
0.0
 20
0.0
 30
0.0
  9
$PUCSORGRIGHT
 10
0.0
 20
0.0
 30
0.0
  9
$PUCSORGFRONT
 10
0.0
 20
0.0
 30
0.0
  9
$PUCSORGBACK
 10
0.0
 20
0.0
 30
0.0
  9
$USERI1
 70
     0
  9
$USERI2
 70
     0
  9
$USERI3
 70
     0
  9
$USERI4
 70
     0
  9
$USERI5
 70
     0
  9
$USERR1
 40
0.0
  9
$USERR2
 40
0.0
  9
$USERR3
 40
0.0
  9
$USERR4
 40
0.0
  9
$USERR5
 40
0.0
  9
$WORLDVIEW
 70
     1
  9
$SHADEDGE
 70
     3
  9
$SHADEDIF
 70
    70
  9
$TILEMODE
 70
     1
  9
$MAXACTVP
 70
    64
  9
$PINSBASE
 10
0.0
 20
0.0
 30
0.0
  9
$PLIMCHECK
 70
     0
  9
$PEXTMIN
 10
1.000000000000000E+20
 20
1.000000000000000E+20
 30
1.000000000000000E+20
  9
$PEXTMAX
 10
-1.000000000000000E+20
 20
-1.000000000000000E+20
 30
-1.000000000000000E+20
  9
$PLIMMIN
 10
0.0
 20
0.0
  9
$PLIMMAX
 10
12.0
 20
9.0
  9
$UNITMODE
 70
     0
  9
$VISRETAIN
 70
     1
  9
$PLINEGEN
 70
     0
  9
$PSLTSCALE
 70
     1
  9
$TREEDEPTH
 70
  3020
  9
$CMLSTYLE
  2
Standard
  9
$CMLJUST
 70
     0
  9
$CMLSCALE
 40
1.0
  9
$PROXYGRAPHICS
 70
     1
  9
$MEASUREMENT
 70
     0
  9
$CELWEIGHT
370
    -1
  9
$ENDCAPS
280
     0
  9
$JOINSTYLE
280
     0
  9
$LWDISPLAY
290
     0
  9
$INSUNITS
 70
     4
  9
$HYPERLINKBASE
  1

  9
$STYLESHEET
  1

  9
$XEDIT
290
     1
  9
$CEPSNTYPE
380
     0
  9
$PSTYLEMODE
290
     1
  9
$FINGERPRINTGUID
  2
{8116CF8A-15EF-40D4-9A5F-59AF5A714B90}
  9
$VERSIONGUID
  2
{FAEB1C32-E019-11D5-929B-00C0DF256EC4}
  9
$EXTNAMES
290
     1
  9
$PSVPSCALE
 40
0.0
  9
$OLESTARTUP
290
     0
  9
$SORTENTS
280
   127
  9
$INDEXCTL
280
     0
  9
$HIDETEXT
280
     1
  9
$XCLIPFRAME
290
     0
  9
$HALOGAP
280
     0
  9
$OBSCOLOR
 70
   257
  9
$OBSLTYPE
280
     0
  9
$INTERSECTIONDISPLAY
280
     0
  9
$INTERSECTIONCOLOR
 70
   257
  9
$DIMASSOC
280
     2
  9
$PROJECTNAME
  1

  9
$CAMERADISPLAY
290
     0
  9
$LENSLENGTH
 40
50.0
  9
$CAMERAHEIGHT
 40
0.0
  9
$STEPSPERSEC
 40
2.0
  9
$STEPSIZE
 40
6.0
  9
$3DDWFPREC
 40
2.0
  9
$PSOLWIDTH
 40
0.25
  9
$PSOLHEIGHT
 40
4.0
  9
$LOFTANG1
 40
1.570796326794897
  9
$LOFTANG2
 40
1.570796326794897
  9
$LOFTMAG1
 40
0.0
  9
$LOFTMAG2
 40
0.0
  9
$LOFTPARAM
 70
     7
  9
$LOFTNORMALS
280
     1
  9
$LATITUDE
 40
37.795
  9
$LONGITUDE
 40
-122.394
  9
$NORTHDIRECTION
 40
0.0
  9
$TIMEZONE
 70
 -8000
  9
$LIGHTGLYPHDISPLAY
280
     1
  9
$TILEMODELIGHTSYNCH
280
     1
  9
$SOLIDHIST
280
     1
  9
$SHOWHIST
280
     1
  9
$DWFFRAME
280
     2
  9
$DGNFRAME
280
     2
  9
$REALWORLDSCALE
290
     1
  9
$INTERFERECOLOR
 62
   256
  9
$CSHADOW
280
     0
  9
$SHADOWPLANELOCATION
 40
0.0
  0
ENDSEC
  0
SECTION
  2
CLASSES
  0
CLASS
  1
ACDBDICTIONARYWDFLT
  2
AcDbDictionaryWithDefault
  3
ObjectDBX Classes
 90
        0
 91
        4
280
     0
281
     0
  0
CLASS
  1
VISUALSTYLE
  2
AcDbVisualStyle
  3
ObjectDBX Classes
 90
     4095
 91
        4
280
     0
281
     0
  0
CLASS
  1
MATERIAL
  2
AcDbMaterial
  3
ObjectDBX Classes
 90
     1153
 91
        4
280
     0
281
     0
  0
ENDSEC
  0
SECTION
  2
TABLES
  0
TABLE
  2
VPORT
  5
8
330
0
100
AcDbSymbolTable
 70
     1
  0
VPORT
  5
29
330
8
100
AcDbSymbolTableRecord
100
AcDbViewportTableRecord
  2
*Active
 70
     0
 10
0.0
 20
0.0
 11
1.0
 21
1.0
 12
10.42990654205607
 22
4.5
 13
0.0
 23
0.0
 14
0.5
 24
0.5
 15
0.5
 25
0.5
 16
0.0
 26
0.0
 36
1.0
 17
0.0
 27
0.0
 37
0.0
 40
9.0
 41
1.972972972850329
 42
50.0
 43
0.0
 44
0.0
 50
0.0
 51
0.0
 71
     0
 72
   100
 73
     1
 74
     3
 75
     0
 76
     0
 77
     0
 78
     0
281
     0
 65
     1
110
0.0
120
0.0
130
0.0
111
1.0
121
0.0
131
0.0
112
0.0
122
1.0
132
0.0
 79
     0
146
0.0
 60
     3
 61
     5
292
     1
282
     1
141
0.0
142
0.0
 63
   250
  0
ENDTAB
  0
TABLE
  2
LTYPE
  5
5
330
0
100
AcDbSymbolTable
 70
     1
  0
LTYPE
  5
14
330
5
100
AcDbSymbolTableRecord
100
AcDbLinetypeTableRecord
  2
ByBlock
 70
     0
  3

 72
    65
 73
     0
 40
0.0
  0
LTYPE
  5
15
330
5
100
AcDbSymbolTableRecord
100
AcDbLinetypeTableRecord
  2
ByLayer
 70
     0
  3

 72
    65
 73
     0
 40
0.0
  0
LTYPE
  5
16
330
5
100
AcDbSymbolTableRecord
100
AcDbLinetypeTableRecord
  2
Continuous
 70
     0
  3
Solid line
 72
    65
 73
     0
 40
0.0
  0
ENDTAB
  0
TABLE
  2
LAYER
  5
2
330
0
100
AcDbSymbolTable
 70
     2
  0
LAYER
  5
10
330
2
100
AcDbSymbolTableRecord
100
AcDbLayerTableRecord
  2
0
 70
     0
 62
     7
  6
Continuous
370
    -3
390
F
347
3E
  0
LAYER
  5
40
330
2
100
AcDbSymbolTableRecord
100
AcDbLayerTableRecord
  2
layer 1
 70
     0
 62
     7
  6
Continuous
370
    -3
390
F
347
3E
  0
ENDTAB
  0
TABLE
  2
STYLE
  5
3
330
0
100
AcDbSymbolTable
 70
     1
  0
STYLE
  5
11
330
3
100
AcDbSymbolTableRecord
100
AcDbTextStyleTableRecord
  2
Standard
 70
     0
 40
0.0
 41
1.0
 50
0.0
 71
     0
 42
0.2
  3
txt
  4

  0
ENDTAB
  0
TABLE
  2
VIEW
  5
6
330
0
100
AcDbSymbolTable
 70
     0
  0
ENDTAB
  0
TABLE
  2
UCS
  5
7
330
0
100
AcDbSymbolTable
 70
     0
  0
ENDTAB
  0
TABLE
  2
APPID
  5
9
330
0
100
AcDbSymbolTable
 70
     2
  0
APPID
  5
12
330
9
100
AcDbSymbolTableRecord
100
AcDbRegAppTableRecord
  2
ACAD
 70
     0
  0
APPID
  5
3F
330
9
100
AcDbSymbolTableRecord
100
AcDbRegAppTableRecord
  2
ODA
 70
     0
  0
ENDTAB
  0
TABLE
  2
DIMSTYLE
  5
A
330
0
100
AcDbSymbolTable
 70
     1
100
AcDbDimStyleTable
  0
DIMSTYLE
105
27
330
A
100
AcDbSymbolTableRecord
100
AcDbDimStyleTableRecord
  2
Standard
 70
     0
178
     0
340
11
  0
ENDTAB
  0
TABLE
  2
BLOCK_RECORD
  5
1
330
0
100
AcDbSymbolTable
 70
     1
  0
BLOCK_RECORD
  5
1F
330
1
100
AcDbSymbolTableRecord
100
AcDbBlockTableRecord
  2
*Model_Space
340
22
 70
     0
280
     1
281
     0
  0
BLOCK_RECORD
  5
1B
330
1
100
AcDbSymbolTableRecord
100
AcDbBlockTableRecord
  2
*Paper_Space
340
1E
 70
     0
280
     1
281
     0
  0
BLOCK_RECORD
  5
23
330
1
100
AcDbSymbolTableRecord
100
AcDbBlockTableRecord
  2
*Paper_Space0
340
26
 70
     0
280
     1
281
     0
  0
ENDTAB
  0
ENDSEC
  0
SECTION
  2
BLOCKS
  0
BLOCK
  5
20
330
1F
100
AcDbEntity
  8
0
100
AcDbBlockBegin
  2
*Model_Space
 70
     0
 10
0.0
 20
0.0
 30
0.0
  3
*Model_Space
  1

  0
ENDBLK
  5
21
330
1F
100
AcDbEntity
  8
0
100
AcDbBlockEnd
  0
BLOCK
  5
1C
330
1B
100
AcDbEntity
 67
     1
  8
0
100
AcDbBlockBegin
  2
*Paper_Space
 70
     0
 10
0.0
 20
0.0
 30
0.0
  3
*Paper_Space
  1

  0
ENDBLK
  5
1D
330
1B
100
AcDbEntity
 67
     1
  8
0
100
AcDbBlockEnd
  0
BLOCK
  5
24
330
23
100
AcDbEntity
  8
0
100
AcDbBlockBegin
  2
*Paper_Space0
 70
     0
 10
0.0
 20
0.0
 30
0.0
  3
*Paper_Space0
  1

  0
ENDBLK
  5
25
330
23
100
AcDbEntity
  8
0
100
AcDbBlockEnd
  0
ENDSEC
  0
SECTION
  2
ENTITIES
  0
SPLINE
  5
41
330
1F
100
AcDbEntity
  8
layer 1
 62
   250
100
AcDbSpline
210
0.0
220
0.0
230
1.0
 70
    11
 71
     3
 72
    20
 73
    16
 74
     0
 42
0.0000000001
 43
0.0000000001
 12
1.0
 22
0.0
 32
0.0
 13
1.0
 23
0.0
 33
0.0
 40
0.0
 40
0.0
 40
0.0
 40
0.0
 40
0.2
 40
0.2
 40
0.2
 40
0.2
 40
0.4
 40
0.4
 40
0.4
 40
0.4
 40
0.6
 40
0.6
 40
0.6
 40
0.6
 40
1.0
 40
1.0
 40
1.0
 40
1.0
 10
-187.567
 20
131.7419
 30
0.0
 10
-187.567
 20
131.7419
 30
0.0
 10
-96.2095
 20
131.7419
 30
0.0
 10
-96.2095
 20
131.7419
 30
0.0
 10
-96.2095
 20
131.7419
 30
0.0
 10
-96.2095
 20
131.7419
 30
0.0
 10
-96.2095
 20
-106.5821
 30
0.0
 10
-96.2095
 20
-106.5821
 30
0.0
 10
-96.2095
 20
-106.5821
 30
0.0
 10
-96.2095
 20
-106.5821
 30
0.0
 10
-187.567
 20
-106.5821
 30
0.0
 10
-187.567
 20
-106.5821
 30
0.0
 10
-187.567
 20
-106.5821
 30
0.0
 10
-187.567
 20
-106.5821
 30
0.0
 10
-187.567
 20
131.7419
 30
0.0
 10
-187.567
 20
131.7419
 30
0.0
  0
SPLINE
  5
42
330
1F
100
AcDbEntity
  8
layer 1
 62
     7
100
AcDbSpline
210
0.0
220
0.0
230
1.0
 70
    11
 71
     3
 72
    28
 73
    24
 74
     0
 42
0.0000000001
 43
0.0000000001
 12
1.0
 22
0.0
 32
0.0
 13
1.0
 23
0.0
 33
0.0
 40
0.0
 40
0.0
 40
0.0
 40
0.0
 40
0.1428571428571428
 40
0.1428571428571428
 40
0.1428571428571428
 40
0.1428571428571428
 40
0.2857142857142857
 40
0.2857142857142857
 40
0.2857142857142857
 40
0.2857142857142857
 40
0.4285714285714285
 40
0.4285714285714285
 40
0.4285714285714285
 40
0.4285714285714285
 40
0.5714285714285714
 40
0.5714285714285714
 40
0.5714285714285714
 40
0.5714285714285714
 40
0.7142857142857143
 40
0.7142857142857143
 40
0.7142857142857143
 40
0.7142857142857143
 40
1.0
 40
1.0
 40
1.0
 40
1.0
 10
-141.6578
 20
119.8172
 30
0.0
 10
-141.4381
 20
117.6601
 30
0.0
 10
-141.1534
 20
116.3293
 30
0.0
 10
-140.4702
 20
114.2959
 30
0.0
 10
-140.4702
 20
114.2959
 30
0.0
 10
-140.2587
 20
113.0382
 30
0.0
 10
-140.7519
 20
112.1422
 30
0.0
 10
-141.4485
 20
111.4512
 30
0.0
 10
-141.4485
 20
111.4512
 30
0.0
 10
-141.8478
 20
111.0562
 30
0.0
 10
-143.0695
 20
110.0895
 30
0.0
 10
-144.1654
 20
109.372
 30
0.0
 10
-144.1654
 20
109.372
 30
0.0
 10
-146.5318
 20
107.8219
 30
0.0
 10
-146.327
 20
108.906
 30
0.0
 10
-146.1392
 20
111.4481
 30
0.0
 10
-146.1392
 20
111.4481
 30
0.0
 10
-145.9175
 20
114.4507
 30
0.0
 10
-144.5631
 20
117.5631
 30
0.0
 10
-143.4396
 20
120.0004
 30
0.0
 10
-143.4396
 20
120.0004
 30
0.0
 10
-142.2718
 20
122.5377
 30
0.0
 10
-141.955
 20
122.7379
 30
0.0
 10
-141.6578
 20
119.8172
 30
0.0
  0
SPLINE
  5
43
330
1F
100
AcDbEntity
  8
layer 1
 62
     7
100
AcDbSpline
210
0.0
220
0.0
230
1.0
 70
    11
 71
     3
 72
    24
 73
    20
 74
     0
 42
0.0000000001
 43
0.0000000001
 12
1.0
 22
0.0
 32
0.0
 13
1.0
 23
0.0
 33
0.0
 40
0.0
 40
0.0
 40
0.0
 40
0.0
 40
0.1666666666666667
 40
0.1666666666666667
 40
0.1666666666666667
 40
0.1666666666666667
 40
0.3333333333333333
 40
0.3333333333333333
 40
0.3333333333333333
 40
0.3333333333333333
 40
0.5
 40
0.5
 40
0.5
 40
0.5
 40
0.6666666666666666
 40
0.6666666666666666
 40
0.6666666666666666
 40
0.6666666666666666
 40
1.0
 40
1.0
 40
1.0
 40
1.0
 10
-184.5879
 20
128.812
 30
0.0
 10
-184.5879
 20
128.812
 30
0.0
 10
-177.0363
 20
128.812
 30
0.0
 10
-177.0363
 20
128.812
 30
0.0
 10
-177.0363
 20
128.812
 30
0.0
 10
-175.8967
 20
126.3696
 30
0.0
 10
-175.382
 20
116.8141
 30
0.0
 10
-175.8723
 20
111.2948
 30
0.0
 10
-175.8723
 20
111.2948
 30
0.0
 10
-175.9943
 20
108.6643
 30
0.0
 10
-176.1372
 20
106.0379
 30
0.0
 10
-178.8817
 20
108.0626
 30
0.0
 10
-178.8817
 20
108.0626
 30
0.0
 10
-178.8817
 20
108.0626
 30
0.0
 10
-184.5879
 20
113.1599
 30
0.0
 10
-184.5879
 20
113.1599
 30
0.0
 10
-184.5879
 20
113.1599
 30
0.0
 10
-184.5879
 20
113.1599
 30
0.0
 10
-184.5879
 20
128.812
 30
0.0
 10
-184.5879
 20
128.812
 30
0.0
  0
SPLINE
  5
44
330
1F
100
AcDbEntity
  8
layer 1
 62
     7
100
AcDbSpline
210
0.0
220
0.0
230
1.0
 70
    11
 71
     3
 72
    32
 73
    28
 74
     0
 42
0.0000000001
 43
0.0000000001
 12
1.0
 22
0.0
 32
0.0
 13
1.0
 23
0.0
 33
0.0
 40
0.0
 40
0.0
 40
0.0
 40
0.0
 40
0.125
 40
0.125
 40
0.125
 40
0.125
 40
0.25
 40
0.25
 40
0.25
 40
0.25
 40
0.375
 40
0.375
 40
0.375
 40
0.375
 40
0.5
 40
0.5
 40
0.5
 40
0.5
 40
0.625
 40
0.625
 40
0.625
 40
0.625
 40
0.75
 40
0.75
 40
0.75
 40
0.75
 40
1.0
 40
1.0
 40
1.0
 40
1.0
 10
-173.491
 20
128.812
 30
0.0
 10
-173.491
 20
128.812
 30
0.0
 10
-154.2453
 20
128.812
 30
0.0
 10
-154.2453
 20
128.812
 30
0.0
 10
-154.2453
 20
128.812
 30
0.0
 10
-153.7784
 20
125.2368
 30
0.0
 10
-153.7103
 20
121.3044
 30
0.0
 10
-154.0488
 20
117.7799
 30
0.0
 10
-154.0488
 20
117.7799
 30
0.0
 10
-154.7748
 20
110.217
 30
0.0
 10
-156.8937
 20
106.0553
 30
0.0
 10
-159.8798
 20
98.623
 30
0.0
 10
-159.8798
 20
98.623
 30
0.0
 10
-160.397
 20
97.3364
 30
0.0
 10
-160.9443
 20
95.2798
 30
0.0
 10
-162.1629
 20
94.8114
 30
0.0
 10
-162.1629
 20
94.8114
 30
0.0
 10
-165.2458
 20
93.6259
 30
0.0
 10
-169.3477
 20
98.7836
 30
0.0
 10
-170.726
 20
101.2547
 30
0.0
 10
-170.726
 20
101.2547
 30
0.0
 10
-172.2034
 20
103.9048
 30
0.0
 10
-173.2822
 20
108.5798
 30
0.0
 10
-172.6385
 20
113.2355
 30
0.0
 10
-172.6385
 20
113.2355
 30
0.0
 10
-172.4813
 20
115.5033
 30
0.0
 10
-172.2034
 20
122.9443
 30
0.0
 10
-173.491
 20
128.812
 30
0.0
  0
SPLINE
  5
45
330
1F
100
AcDbEntity
  8
layer 1
 62
     7
100
AcDbSpline
210
0.0
220
0.0
230
1.0
 70
    11
 71
     3
 72
    20
 73
    16
 74
     0
 42
0.0000000001
 43
0.0000000001
 12
1.0
 22
0.0
 32
0.0
 13
1.0
 23
0.0
 33
0.0
 40
0.0
 40
0.0
 40
0.0
 40
0.0
 40
0.2
 40
0.2
 40
0.2
 40
0.2
 40
0.4
 40
0.4
 40
0.4
 40
0.4
 40
0.6
 40
0.6
 40
0.6
 40
0.6
 40
1.0
 40
1.0
 40
1.0
 40
1.0
 10
-151.341
 20
128.812
 30
0.0
 10
-151.341
 20
128.812
 30
0.0
 10
-142.7088
 20
128.812
 30
0.0
 10
-142.7088
 20
128.812
 30
0.0
 10
-142.7088
 20
128.812
 30
0.0
 10
-143.8747
 20
126.1958
 30
0.0
 10
-144.876
 20
121.748
 30
0.0
 10
-146.4835
 20
118.8801
 30
0.0
 10
-146.4835
 20
118.8801
 30
0.0
 10
-148.5401
 20
115.2112
 30
0.0
 10
-149.769
 20
118.2478
 30
0.0
 10
-150.4472
 20
121.393
 30
0.0
 10
-150.4472
 20
121.393
 30
0.0
 10
-150.9424
 20
123.6913
 30
0.0
 10
-151.144
 20
126.6632
 30
0.0
 10
-151.341
 20
128.812
 30
0.0
  0
SPLINE
  5
46
330
1F
100
AcDbEntity
  8
layer 1
 62
     7
100
AcDbSpline
210
0.0
220
0.0
230
1.0
 70
    11
 71
     3
 72
    20
 73
    16
 74
     0
 42
0.0000000001
 43
0.0000000001
 12
1.0
 22
0.0
 32
0.0
 13
1.0
 23
0.0
 33
0.0
 40
0.0
 40
0.0
 40
0.0
 40
0.0
 40
0.2
 40
0.2
 40
0.2
 40
0.2
 40
0.4
 40
0.4
 40
0.4
 40
0.4
 40
0.6
 40
0.6
 40
0.6
 40
0.6
 40
1.0
 40
1.0
 40
1.0
 40
1.0
 10
-140.1503
 20
128.812
 30
0.0
 10
-140.1503
 20
128.812
 30
0.0
 10
-132.8892
 20
128.812
 30
0.0
 10
-132.8892
 20
128.812
 30
0.0
 10
-132.8892
 20
128.812
 30
0.0
 10
-133.1997
 20
125.8875
 30
0.0
 10
-134.2779
 20
122.3409
 30
0.0
 10
-135.573
 20
119.9825
 30
0.0
 10
-135.573
 20
119.9825
 30
0.0
 10
-136.6158
 20
118.0839
 30
0.0
 10
-137.7042
 20
117.0191
 30
0.0
 10
-138.8953
 20
119.7701
 30
0.0
 10
-138.8953
 20
119.7701
 30
0.0
 10
-139.9523
 20
122.211
 30
0.0
 10
-139.9219
 20
126.6164
 30
0.0
 10
-140.1503
 20
128.812
 30
0.0
  0
SPLINE
  5
47
330
1F
100
AcDbEntity
  8
layer 1
 62
     7
100
AcDbSpline
210
0.0
220
0.0
230
1.0
 70
    11
 71
     3
 72
    20
 73
    16
 74
     0
 42
0.0000000001
 43
0.0000000001
 12
1.0
 22
0.0
 32
0.0
 13
1.0
 23
0.0
 33
0.0
 40
0.0
 40
0.0
 40
0.0
 40
0.0
 40
0.2
 40
0.2
 40
0.2
 40
0.2
 40
0.4
 40
0.4
 40
0.4
 40
0.4
 40
0.6
 40
0.6
 40
0.6
 40
0.6
 40
1.0
 40
1.0
 40
1.0
 40
1.0
 10
-130.0349
 20
128.812
 30
0.0
 10
-130.0349
 20
128.812
 30
0.0
 10
-123.5181
 20
128.812
 30
0.0
 10
-123.5181
 20
128.812
 30
0.0
 10
-123.5181
 20
128.812
 30
0.0
 10
-125.0293
 20
127.6326
 30
0.0
 10
-126.1421
 20
125.6385
 30
0.0
 10
-127.8385
 20
124.5332
 30
0.0
 10
-127.8385
 20
124.5332
 30
0.0
 10
-129.3598
 20
123.5421
 30
0.0
 10
-130.4453
 20
123.1116
 30
0.0
 10
-130.4948
 20
125.2592
 30
0.0
 10
-130.4948
 20
125.2592
 30
0.0
 10
-130.5221
 20
126.429
 30
0.0
 10
-130.2978
 20
127.6859
 30
0.0
 10
-130.0349
 20
128.812
 30
0.0
  0
SPLINE
  5
48
330
1F
100
AcDbEntity
  8
layer 1
 62
     7
100
AcDbSpline
210
0.0
220
0.0
230
1.0
 70
    11
 71
     3
 72
    28
 73
    24
 74
     0
 42
0.0000000001
 43
0.0000000001
 12
1.0
 22
0.0
 32
0.0
 13
1.0
 23
0.0
 33
0.0
 40
0.0
 40
0.0
 40
0.0
 40
0.0
 40
0.1428571428571428
 40
0.1428571428571428
 40
0.1428571428571428
 40
0.1428571428571428
 40
0.2857142857142857
 40
0.2857142857142857
 40
0.2857142857142857
 40
0.2857142857142857
 40
0.4285714285714285
 40
0.4285714285714285
 40
0.4285714285714285
 40
0.4285714285714285
 40
0.5714285714285714
 40
0.5714285714285714
 40
0.5714285714285714
 40
0.5714285714285714
 40
0.7142857142857143
 40
0.7142857142857143
 40
0.7142857142857143
 40
0.7142857142857143
 40
1.0
 40
1.0
 40
1.0
 40
1.0
 10
-118.5128
 20
128.812
 30
0.0
 10
-118.5128
 20
128.812
 30
0.0
 10
-111.0617
 20
128.812
 30
0.0
 10
-111.0617
 20
128.812
 30
0.0
 10
-111.0617
 20
128.812
 30
0.0
 10
-111.2687
 20
125.8561
 30
0.0
 10
-112.7695
 20
115.4338
 30
0.0
 10
-113.4764
 20
114.0523
 30
0.0
 10
-113.4764
 20
114.0523
 30
0.0
 10
-114.672
 20
111.7154
 30
0.0
 10
-120.5615
 20
107.7398
 30
0.0
 10
-123.1813
 20
106.7007
 30
0.0
 10
-123.1813
 20
106.7007
 30
0.0
 10
-125.3536
 20
107.8275
 30
0.0
 10
-124.9154
 20
113.9656
 30
0.0
 10
-125.5458
 20
116.2308
 30
0.0
 10
-125.5458
 20
116.2308
 30
0.0
 10
-125.9038
 20
117.5179
 30
0.0
 10
-126.7769
 20
119.1718
 30
0.0
 10
-126.9326
 20
120.5873
 30
0.0
 10
-126.9326
 20
120.5873
 30
0.0
 10
-124.2384
 20
123.4827
 30
0.0
 10
-121.378
 20
126.1219
 30
0.0
 10
-118.5128
 20
128.812
 30
0.0
  0
SPLINE
  5
49
330
1F
100
AcDbEntity
  8
layer 1
 62
     7
100
AcDbSpline
210
0.0
220
0.0
230
1.0
 70
    11
 71
     3
 72
    24
 73
    20
 74
     0
 42
0.0000000001
 43
0.0000000001
 12
1.0
 22
0.0
 32
0.0
 13
1.0
 23
0.0
 33
0.0
 40
0.0
 40
0.0
 40
0.0
 40
0.0
 40
0.1666666666666667
 40
0.1666666666666667
 40
0.1666666666666667
 40
0.1666666666666667
 40
0.3333333333333333
 40
0.3333333333333333
 40
0.3333333333333333
 40
0.3333333333333333
 40
0.5
 40
0.5
 40
0.5
 40
0.5
 40
0.6666666666666666
 40
0.6666666666666666
 40
0.6666666666666666
 40
0.6666666666666666
 40
1.0
 40
1.0
 40
1.0
 40
1.0
 10
-107.953
 20
128.812
 30
0.0
 10
-107.953
 20
128.812
 30
0.0
 10
-99.1887
 20
128.812
 30
0.0
 10
-99.1887
 20
128.812
 30
0.0
 10
-99.1887
 20
128.812
 30
0.0
 10
-99.1887
 20
128.812
 30
0.0
 10
-99.1887
 20
122.8557
 30
0.0
 10
-99.1887
 20
122.8557
 30
0.0
 10
-99.1887
 20
122.8557
 30
0.0
 10
-102.7395
 20
122.8047
 30
0.0
 10
-105.449
 20
121.3356
 30
0.0
 10
-107.9093
 20
118.6503
 30
0.0
 10
-107.9093
 20
118.6503
 30
0.0
 10
-110.0767
 20
116.2844
 30
0.0
 10
-109.6322
 20
118.0554
 30
0.0
 10
-109.2884
 20
119.8333
 30
0.0
 10
-109.2884
 20
119.8333
 30
0.0
 10
-108.7415
 20
122.6587
 30
0.0
 10
-108.5766
 20
126.3662
 30
0.0
 10
-107.953
 20
128.812
 30
0.0
  0
SPLINE
  5
4A
330
1F
100
AcDbEntity
  8
layer 1
 62
     7
100
AcDbSpline
210
0.0
220
0.0
230
1.0
 70
    11
 71
     3
 72
    32
 73
    28
 74
     0
 42
0.0000000001
 43
0.0000000001
 12
1.0
 22
0.0
 32
0.0
 13
1.0
 23
0.0
 33
0.0
 40
0.0
 40
0.0
 40
0.0
 40
0.0
 40
0.125
 40
0.125
 40
0.125
 40
0.125
 40
0.25
 40
0.25
 40
0.25
 40
0.25
 40
0.375
 40
0.375
 40
0.375
 40
0.375
 40
0.5
 40
0.5
 40
0.5
 40
0.5
 40
0.625
 40
0.625
 40
0.625
 40
0.625
 40
0.75
 40
0.75
 40
0.75
 40
0.75
 40
1.0
 40
1.0
 40
1.0
 40
1.0
 10
-99.1887
 20
119.1274
 30
0.0
 10
-99.1887
 20
119.1274
 30
0.0
 10
-99.1887
 20
107.3453
 30
0.0
 10
-99.1887
 20
107.3453
 30
0.0
 10
-99.1887
 20
107.3453
 30
0.0
 10
-104.1314
 20
106.6548
 30
0.0
 10
-108.5628
 20
106.9551
 30
0.0
 10
-113.558
 20
107.1765
 30
0.0
 10
-113.558
 20
107.1765
 30
0.0
 10
-114.3173
 20
108.2427
 30
0.0
 10
-114.1848
 20
108.7993
 30
0.0
 10
-113.4117
 20
109.9792
 30
0.0
 10
-113.4117
 20
109.9792
 30
0.0
 10
-112.9223
 20
110.7247
 30
0.0
 10
-111.4872
 20
111.0751
 30
0.0
 10
-110.1592
 20
112.0355
 30
0.0
 10
-110.1592
 20
112.0355
 30
0.0
 10
-108.6546
 20
113.1247
 30
0.0
 10
-107.2207
 20
114.8316
 30
0.0
 10
-106.2296
 20
115.766
 30
0.0
 10
-106.2296
 20
115.766
 30
0.0
 10
-104.7486
 20
117.1623
 30
0.0
 10
-103.1971
 20
118.3673
 30
0.0
 10
-101.1542
 20
118.9615
 30
0.0
 10
-101.1542
 20
118.9615
 30
0.0
 10
-100.4079
 20
119.1788
 30
0.0
 10
-99.6964
 20
119.1759
 30
0.0
 10
-99.1887
 20
119.1274
 30
0.0
  0
SPLINE
  5
4B
330
1F
100
AcDbEntity
  8
layer 1
 62
     7
100
AcDbSpline
210
0.0
220
0.0
230
1.0
 70
    11
 71
     3
 72
    36
 73
    32
 74
     0
 42
0.0000000001
 43
0.0000000001
 12
1.0
 22
0.0
 32
0.0
 13
1.0
 23
0.0
 33
0.0
 40
0.0
 40
0.0
 40
0.0
 40
0.0
 40
0.1111111111111111
 40
0.1111111111111111
 40
0.1111111111111111
 40
0.1111111111111111
 40
0.2222222222222222
 40
0.2222222222222222
 40
0.2222222222222222
 40
0.2222222222222222
 40
0.3333333333333333
 40
0.3333333333333333
 40
0.3333333333333333
 40
0.3333333333333333
 40
0.4444444444444444
 40
0.4444444444444444
 40
0.4444444444444444
 40
0.4444444444444444
 40
0.5555555555555556
 40
0.5555555555555556
 40
0.5555555555555556
 40
0.5555555555555556
 40
0.6666666666666666
 40
0.6666666666666666
 40
0.6666666666666666
 40
0.6666666666666666
 40
0.7777777777777778
 40
0.7777777777777778
 40
0.7777777777777778
 40
0.7777777777777778
 40
1.0
 40
1.0
 40
1.0
 40
1.0
 10
-99.1887
 20
103.5943
 30
0.0
 10
-99.1887
 20
103.5943
 30
0.0
 10
-99.1887
 20
88.3058
 30
0.0
 10
-99.1887
 20
88.3058
 30
0.0
 10
-99.1887
 20
88.3058
 30
0.0
 10
-102.2576
 20
86.4254
 30
0.0
 10
-115.8461
 20
76.9798
 30
0.0
 10
-118.6956
 20
75.3218
 30
0.0
 10
-118.6956
 20
75.3218
 30
0.0
 10
-119.4718
 20
74.8706
 30
0.0
 10
-121.2428
 20
73.2592
 30
0.0
 10
-122.8841
 20
72.051
 30
0.0
 10
-122.8841
 20
72.051
 30
0.0
 10
-128.5715
 20
67.8635
 30
0.0
 10
-124.5875
 20
74.5526
 30
0.0
 10
-123.5886
 20
76.9238
 30
0.0
 10
-123.5886
 20
76.9238
 30
0.0
 10
-120.6737
 20
83.8435
 30
0.0
 10
-121.1214
 20
90.9998
 30
0.0
 10
-122.8544
 20
98.101
 30
0.0
 10
-122.8544
 20
98.101
 30
0.0
 10
-123.2069
 20
99.5441
 30
0.0
 10
-123.127
 20
101.5592
 30
0.0
 10
-122.0393
 20
102.1053
 30
0.0
 10
-122.0393
 20
102.1053
 30
0.0
 10
-120.7674
 20
102.8359
 30
0.0
 10
-117.2718
 20
102.5235
 30
0.0
 10
-113.3446
 20
102.7135
 30
0.0
 10
-113.3446
 20
102.7135
 30
0.0
 10
-107.8083
 20
102.9813
 30
0.0
 10
-101.4157
 20
103.5231
 30
0.0
 10
-99.1887
 20
103.5943
 30
0.0
  0
SPLINE
  5
4C
330
1F
100
AcDbEntity
  8
layer 1
 62
     7
100
AcDbSpline
210
0.0
220
0.0
230
1.0
 70
    11
 71
     3
 72
    28
 73
    24
 74
     0
 42
0.0000000001
 43
0.0000000001
 12
1.0
 22
0.0
 32
0.0
 13
1.0
 23
0.0
 33
0.0
 40
0.0
 40
0.0
 40
0.0
 40
0.0
 40
0.1428571428571428
 40
0.1428571428571428
 40
0.1428571428571428
 40
0.1428571428571428
 40
0.2857142857142857
 40
0.2857142857142857
 40
0.2857142857142857
 40
0.2857142857142857
 40
0.4285714285714285
 40
0.4285714285714285
 40
0.4285714285714285
 40
0.4285714285714285
 40
0.5714285714285714
 40
0.5714285714285714
 40
0.5714285714285714
 40
0.5714285714285714
 40
0.7142857142857143
 40
0.7142857142857143
 40
0.7142857142857143
 40
0.7142857142857143
 40
1.0
 40
1.0
 40
1.0
 40
1.0
 10
-99.1887
 20
82.5931
 30
0.0
 10
-99.1887
 20
82.5931
 30
0.0
 10
-99.1887
 20
70.2448
 30
0.0
 10
-99.1887
 20
70.2448
 30
0.0
 10
-99.1887
 20
70.2448
 30
0.0
 10
-103.9774
 20
70.1519
 30
0.0
 10
-106.4947
 20
71.1734
 30
0.0
 10
-108.9907
 20
73.4529
 30
0.0
 10
-108.9907
 20
73.4529
 30
0.0
 10
-109.4837
 20
73.9041
 30
0.0
 10
-109.8731
 20
73.8602
 30
0.0
 10
-109.9692
 20
74.7887
 30
0.0
 10
-109.9692
 20
74.7887
 30
0.0
 10
-109.2442
 20
75.9609
 30
0.0
 10
-107.7907
 20
76.6483
 30
0.0
 10
-106.316
 20
77.7495
 30
0.0
 10
-106.316
 20
77.7495
 30
0.0
 10
-104.6988
 20
78.9577
 30
0.0
 10
-102.9288
 20
80.4131
 30
0.0
 10
-101.3394
 20
81.4638
 30
0.0
 10
-101.3394
 20
81.4638
 30
0.0
 10
-100.1607
 20
82.2437
 30
0.0
 10
-99.5264
 20
82.6539
 30
0.0
 10
-99.1887
 20
82.5931
 30
0.0
  0
SPLINE
  5
4D
330
1F
100
AcDbEntity
  8
layer 1
 62
     7
100
AcDbSpline
210
0.0
220
0.0
230
1.0
 70
    11
 71
     3
 72
    28
 73
    24
 74
     0
 42
0.0000000001
 43
0.0000000001
 12
1.0
 22
0.0
 32
0.0
 13
1.0
 23
0.0
 33
0.0
 40
0.0
 40
0.0
 40
0.0
 40
0.0
 40
0.1428571428571428
 40
0.1428571428571428
 40
0.1428571428571428
 40
0.1428571428571428
 40
0.2857142857142857
 40
0.2857142857142857
 40
0.2857142857142857
 40
0.2857142857142857
 40
0.4285714285714285
 40
0.4285714285714285
 40
0.4285714285714285
 40
0.4285714285714285
 40
0.5714285714285714
 40
0.5714285714285714
 40
0.5714285714285714
 40
0.5714285714285714
 40
0.7142857142857143
 40
0.7142857142857143
 40
0.7142857142857143
 40
0.7142857142857143
 40
1.0
 40
1.0
 40
1.0
 40
1.0
 10
-99.1887
 20
61.7674
 30
0.0
 10
-99.1887
 20
61.7674
 30
0.0
 10
-99.1887
 20
51.0735
 30
0.0
 10
-99.1887
 20
51.0735
 30
0.0
 10
-99.1887
 20
51.0735
 30
0.0
 10
-101.6463
 20
50.1401
 30
0.0
 10
-105.0704
 20
47.3048
 30
0.0
 10
-107.8272
 20
44.3556
 30
0.0
 10
-107.8272
 20
44.3556
 30
0.0
 10
-111.3075
 20
40.6338
 30
0.0
 10
-112.6253
 20
37.2332
 30
0.0
 10
-114.6995
 20
32.5231
 30
0.0
 10
-114.6995
 20
32.5231
 30
0.0
 10
-116.1129
 20
33.1173
 30
0.0
 10
-121.7006
 20
37.8884
 30
0.0
 10
-121.9575
 20
39.3738
 30
0.0
 10
-121.9575
 20
39.3738
 30
0.0
 10
-118.6835
 20
44.5092
 30
0.0
 10
-113.6186
 20
51.2744
 30
0.0
 10
-109.236
 20
55.3011
 30
0.0
 10
-109.236
 20
55.3011
 30
0.0
 10
-107.6234
 20
56.7836
 30
0.0
 10
-101.5654
 20
61.3601
 30
0.0
 10
-99.1887
 20
61.7674
 30
0.0
  0
SPLINE
  5
4E
330
1F
100
AcDbEntity
  8
layer 1
 62
     7
100
AcDbSpline
210
0.0
220
0.0
230
1.0
 70
    11
 71
     3
 72
    24
 73
    20
 74
     0
 42
0.0000000001
 43
0.0000000001
 12
1.0
 22
0.0
 32
0.0
 13
1.0
 23
0.0
 33
0.0
 40
0.0
 40
0.0
 40
0.0
 40
0.0
 40
0.1666666666666667
 40
0.1666666666666667
 40
0.1666666666666667
 40
0.1666666666666667
 40
0.3333333333333333
 40
0.3333333333333333
 40
0.3333333333333333
 40
0.3333333333333333
 40
0.5
 40
0.5
 40
0.5
 40
0.5
 40
0.6666666666666666
 40
0.6666666666666666
 40
0.6666666666666666
 40
0.6666666666666666
 40
1.0
 40
1.0
 40
1.0
 40
1.0
 10
-99.1887
 20
46.2341
 30
0.0
 10
-99.1887
 20
46.2341
 30
0.0
 10
-99.1887
 20
25.9977
 30
0.0
 10
-99.1887
 20
25.9977
 30
0.0
 10
-99.1887
 20
25.9977
 30
0.0
 10
-103.6705
 20
26.6948
 30
0.0
 10
-108.2311
 20
28.3136
 30
0.0
 10
-111.5188
 20
30.4762
 30
0.0
 10
-111.5188
 20
30.4762
 30
0.0
 10
-111.4114
 20
31.6462
 30
0.0
 10
-110.7401
 20
32.3367
 30
0.0
 10
-110.3777
 20
33.2349
 30
0.0
 10
-110.3777
 20
33.2349
 30
0.0
 10
-108.5394
 20
37.7754
 30
0.0
 10
-106.2375
 20
41.2205
 30
0.0
 10
-102.7113
 20
43.9126
 30
0.0
 10
-102.7113
 20
43.9126
 30
0.0
 10
-101.7593
 20
44.6393
 30
0.0
 10
-100.5518
 20
45.8898
 30
0.0
 10
-99.1887
 20
46.2341
 30
0.0
  0
SPLINE
  5
4F
330
1F
100
AcDbEntity
  8
layer 1
 62
     7
100
AcDbSpline
210
0.0
220
0.0
230
1.0
 70
    11
 71
     3
 72
    28
 73
    24
 74
     0
 42
0.0000000001
 43
0.0000000001
 12
1.0
 22
0.0
 32
0.0
 13
1.0
 23
0.0
 33
0.0
 40
0.0
 40
0.0
 40
0.0
 40
0.0
 40
0.1428571428571428
 40
0.1428571428571428
 40
0.1428571428571428
 40
0.1428571428571428
 40
0.2857142857142857
 40
0.2857142857142857
 40
0.2857142857142857
 40
0.2857142857142857
 40
0.4285714285714285
 40
0.4285714285714285
 40
0.4285714285714285
 40
0.4285714285714285
 40
0.5714285714285714
 40
0.5714285714285714
 40
0.5714285714285714
 40
0.5714285714285714
 40
0.7142857142857143
 40
0.7142857142857143
 40
0.7142857142857143
 40
0.7142857142857143
 40
1.0
 40
1.0
 40
1.0
 40
1.0
 10
-99.1887
 20
22.1617
 30
0.0
 10
-99.1887
 20
22.1617
 30
0.0
 10
-99.1887
 20
6.4517
 30
0.0
 10
-99.1887
 20
6.4517
 30
0.0
 10
-99.1887
 20
6.4517
 30
0.0
 10
-105.4809
 20
6.4179
 30
0.0
 10
-111.7798
 20
5.8893
 30
0.0
 10
-117.9348
 20
5.3987
 30
0.0
 10
-117.9348
 20
5.3987
 30
0.0
 10
-119.0718
 20
5.3082
 30
0.0
 10
-119.1592
 20
6.1513
 30
0.0
 10
-118.5874
 20
8.7642
 30
0.0
 10
-118.5874
 20
8.7642
 30
0.0
 10
-117.7224
 20
12.7219
 30
0.0
 10
-116.3322
 20
15.6703
 30
0.0
 10
-115.026
 20
19.1761
 30
0.0
 10
-115.026
 20
19.1761
 30
0.0
 10
-114.3736
 20
21.4596
 30
0.0
 10
-113.7205
 20
23.7439
 30
0.0
 10
-113.0686
 20
26.0274
 30
0.0
 10
-113.0686
 20
26.0274
 30
0.0
 10
-108.1652
 20
23.9187
 30
0.0
 10
-104.4318
 20
22.7064
 30
0.0
 10
-99.1887
 20
22.1617
 30
0.0
  0
SPLINE
  5
50
330
1F
100
AcDbEntity
  8
layer 1
 62
     7
100
AcDbSpline
210
0.0
220
0.0
230
1.0
 70
    11
 71
     3
 72
    16
 73
    12
 74
     0
 42
0.0000000001
 43
0.0000000001
 12
1.0
 22
0.0
 32
0.0
 13
1.0
 23
0.0
 33
0.0
 40
0.0
 40
0.0
 40
0.0
 40
0.0
 40
0.25
 40
0.25
 40
0.25
 40
0.25
 40
0.5
 40
0.5
 40
0.5
 40
0.5
 40
1.0
 40
1.0
 40
1.0
 40
1.0
 10
-99.1887
 20
-0.0812
 30
0.0
 10
-99.1887
 20
-0.0812
 30
0.0
 10
-99.1887
 20
-8.3288
 30
0.0
 10
-99.1887
 20
-8.3288
 30
0.0
 10
-99.1887
 20
-8.3288
 30
0.0
 10
-103.918
 20
-7.1238
 30
0.0
 10
-108.748
 20
-6.1344
 30
0.0
 10
-113.4443
 20
-4.9376
 30
0.0
 10
-113.4443
 20
-4.9376
 30
0.0
 10
-110.7288
 20
-2.802
 30
0.0
 10
-100.8003
 20
-0.0496
 30
0.0
 10
-99.1887
 20
-0.0812
 30
0.0
  0
SPLINE
  5
51
330
1F
100
AcDbEntity
  8
layer 1
 62
     7
100
AcDbSpline
210
0.0
220
0.0
230
1.0
 70
    11
 71
     3
 72
    28
 73
    24
 74
     0
 42
0.0000000001
 43
0.0000000001
 12
1.0
 22
0.0
 32
0.0
 13
1.0
 23
0.0
 33
0.0
 40
0.0
 40
0.0
 40
0.0
 40
0.0
 40
0.1428571428571428
 40
0.1428571428571428
 40
0.1428571428571428
 40
0.1428571428571428
 40
0.2857142857142857
 40
0.2857142857142857
 40
0.2857142857142857
 40
0.2857142857142857
 40
0.4285714285714285
 40
0.4285714285714285
 40
0.4285714285714285
 40
0.4285714285714285
 40
0.5714285714285714
 40
0.5714285714285714
 40
0.5714285714285714
 40
0.5714285714285714
 40
0.7142857142857143
 40
0.7142857142857143
 40
0.7142857142857143
 40
0.7142857142857143
 40
1.0
 40
1.0
 40
1.0
 40
1.0
 10
-99.1887
 20
-12.0207
 30
0.0
 10
-99.1887
 20
-12.0207
 30
0.0
 10
-99.1887
 20
-16.8592
 30
0.0
 10
-99.1887
 20
-16.8592
 30
0.0
 10
-99.1887
 20
-16.8592
 30
0.0
 10
-106.4708
 20
-16.8676
 30
0.0
 10
-114.8135
 20
-22.0922
 30
0.0
 10
-119.3475
 20
-25.5805
 30
0.0
 10
-119.3475
 20
-25.5805
 30
0.0
 10
-120.6351
 20
-26.5709
 30
0.0
 10
-124.5672
 20
-31.0013
 30
0.0
 10
-126.1986
 20
-29.9402
 30
0.0
 10
-126.1986
 20
-29.9402
 30
0.0
 10
-126.653
 20
-27.8573
 30
0.0
 10
-126.0972
 20
-25.2072
 30
0.0
 10
-125.7095
 20
-23.4452
 30
0.0
 10
-125.7095
 20
-23.4452
 30
0.0
 10
-124.0889
 20
-16.0904
 30
0.0
 10
-121.3254
 20
-11.2039
 30
0.0
 10
-116.5369
 20
-7.3727
 30
0.0
 10
-116.5369
 20
-7.3727
 30
0.0
 10
-110.6626
 20
-8.0717
 30
0.0
 10
-104.8007
 20
-10.2485
 30
0.0
 10
-99.1887
 20
-12.0207
 30
0.0
  0
SPLINE
  5
52
330
1F
100
AcDbEntity
  8
layer 1
 62
     7
100
AcDbSpline
210
0.0
220
0.0
230
1.0
 70
    11
 71
     3
 72
    48
 73
    44
 74
     0
 42
0.0000000001
 43
0.0000000001
 12
1.0
 22
0.0
 32
0.0
 13
1.0
 23
0.0
 33
0.0
 40
0.0
 40
0.0
 40
0.0
 40
0.0
 40
0.0833333333333333
 40
0.0833333333333333
 40
0.0833333333333333
 40
0.0833333333333333
 40
0.1666666666666667
 40
0.1666666666666667
 40
0.1666666666666667
 40
0.1666666666666667
 40
0.25
 40
0.25
 40
0.25
 40
0.25
 40
0.3333333333333333
 40
0.3333333333333333
 40
0.3333333333333333
 40
0.3333333333333333
 40
0.4166666666666667
 40
0.4166666666666667
 40
0.4166666666666667
 40
0.4166666666666667
 40
0.5
 40
0.5
 40
0.5
 40
0.5
 40
0.5833333333333334
 40
0.5833333333333334
 40
0.5833333333333334
 40
0.5833333333333334
 40
0.6666666666666666
 40
0.6666666666666666
 40
0.6666666666666666
 40
0.6666666666666666
 40
0.75
 40
0.75
 40
0.75
 40
0.75
 40
0.8333333333333334
 40
0.8333333333333334
 40
0.8333333333333334
 40
0.8333333333333334
 40
1.0
 40
1.0
 40
1.0
 40
1.0
 10
-99.1887
 20
-22.041
 30
0.0
 10
-99.1887
 20
-22.041
 30
0.0
 10
-99.1887
 20
-31.2814
 30
0.0
 10
-99.1887
 20
-31.2814
 30
0.0
 10
-99.1887
 20
-31.2814
 30
0.0
 10
-101.9353
 20
-31.3937
 30
0.0
 10
-104.4076
 20
-32.9222
 30
0.0
 10
-106.5442
 20
-33.8559
 30
0.0
 10
-106.5442
 20
-33.8559
 30
0.0
 10
-111.6827
 20
-36.102
 30
0.0
 10
-115.99
 20
-38.8015
 30
0.0
 10
-120.0011
 20
-42.2198
 30
0.0
 10
-120.0011
 20
-42.2198
 30
0.0
 10
-121.5224
 20
-43.8508
 30
0.0
 10
-123.0454
 20
-45.4824
 30
0.0
 10
-124.5672
 20
-47.1136
 30
0.0
 10
-124.5672
 20
-47.1136
 30
0.0
 10
-126.6523
 20
-46.6896
 30
0.0
 10
-128.4556
 20
-45.6758
 30
0.0
 10
-130.7652
 20
-45.2446
 30
0.0
 10
-130.7652
 20
-45.2446
 30
0.0
 10
-131.9787
 20
-45.0191
 30
0.0
 10
-133.3829
 20
-45.1348
 30
0.0
 10
-134.5925
 20
-45.0215
 30
0.0
 10
-134.5925
 20
-45.0215
 30
0.0
 10
-136.4311
 20
-44.8486
 30
0.0
 10
-137.3607
 20
-44.0326
 30
0.0
 10
-135.5284
 20
-42.3973
 30
0.0
 10
-135.5284
 20
-42.3973
 30
0.0
 10
-132.9879
 20
-40.1282
 30
0.0
 10
-128.4744
 20
-38.5874
 30
0.0
 10
-125.8898
 20
-36.5812
 30
0.0
 10
-125.8898
 20
-36.5812
 30
0.0
 10
-121.1851
 20
-32.9314
 30
0.0
 10
-116.3486
 20
-29.556
 30
0.0
 10
-111.0299
 20
-26.8263
 30
0.0
 10
-111.0299
 20
-26.8263
 30
0.0
 10
-108.4003
 20
-25.4764
 30
0.0
 10
-104.7935
 20
-24.1154
 30
0.0
 10
-101.8566
 20
-22.9471
 30
0.0
 10
-101.8566
 20
-22.9471
 30
0.0
 10
-100.7105
 20
-22.4905
 30
0.0
 10
-99.7442
 20
-22.1284
 30
0.0
 10
-99.1887
 20
-22.041
 30
0.0
  0
SPLINE
  5
53
330
1F
100
AcDbEntity
  8
layer 1
 62
     7
100
AcDbSpline
210
0.0
220
0.0
230
1.0
 70
    11
 71
     3
 72
    40
 73
    36
 74
     0
 42
0.0000000001
 43
0.0000000001
 12
1.0
 22
0.0
 32
0.0
 13
1.0
 23
0.0
 33
0.0
 40
0.0
 40
0.0
 40
0.0
 40
0.0
 40
0.1
 40
0.1
 40
0.1
 40
0.1
 40
0.2
 40
0.2
 40
0.2
 40
0.2
 40
0.3
 40
0.3
 40
0.3
 40
0.3
 40
0.4
 40
0.4
 40
0.4
 40
0.4
 40
0.5
 40
0.5
 40
0.5
 40
0.5
 40
0.6
 40
0.6
 40
0.6
 40
0.6
 40
0.7
 40
0.7
 40
0.7
 40
0.7
 40
0.8
 40
0.8
 40
0.8
 40
0.8
 40
1.0
 40
1.0
 40
1.0
 40
1.0
 10
-99.1887
 20
-34.1408
 30
0.0
 10
-99.1887
 20
-34.1408
 30
0.0
 10
-99.1887
 20
-40.5394
 30
0.0
 10
-99.1887
 20
-40.5394
 30
0.0
 10
-99.1887
 20
-40.5394
 30
0.0
 10
-102.951
 20
-40.8069
 30
0.0
 10
-108.5162
 20
-46.6599
 30
0.0
 10
-110.2145
 20
-49.2489
 30
0.0
 10
-110.2145
 20
-49.2489
 30
0.0
 10
-110.8123
 20
-50.1982
 30
0.0
 10
-111.4099
 20
-51.1471
 30
0.0
 10
-112.0082
 20
-52.0967
 30
0.0
 10
-112.0082
 20
-52.0967
 30
0.0
 10
-114.974
 20
-51.7563
 30
0.0
 10
-117.4676
 20
-50.0896
 30
0.0
 10
-120.082
 20
-49.2489
 30
0.0
 10
-120.082
 20
-49.2489
 30
0.0
 10
-120.0549
 20
-49.1009
 30
0.0
 10
-120.0279
 20
-48.9524
 30
0.0
 10
-120.0011
 20
-48.8039
 30
0.0
 10
-120.0011
 20
-48.8039
 30
0.0
 10
-117.8527
 20
-46.8176
 30
0.0
 10
-115.7051
 20
-44.8296
 30
0.0
 10
-113.558
 20
-42.8423
 30
0.0
 10
-113.558
 20
-42.8423
 30
0.0
 10
-110.8551
 20
-40.7642
 30
0.0
 10
-107.9991
 20
-38.6499
 30
0.0
 10
-104.9948
 20
-36.9697
 30
0.0
 10
-104.9948
 20
-36.9697
 30
0.0
 10
-103.0923
 20
-36.0209
 30
0.0
 10
-101.189
 20
-35.072
 30
0.0
 10
-99.286
 20
-34.1229
 30
0.0
 10
-99.286
 20
-34.1229
 30
0.0
 10
-99.2539
 20
-34.1284
 30
0.0
 10
-99.2213
 20
-34.1345
 30
0.0
 10
-99.1887
 20
-34.1408
 30
0.0
  0
SPLINE
  5
54
330
1F
100
AcDbEntity
  8
layer 1
 62
     7
100
AcDbSpline
210
0.0
220
0.0
230
1.0
 70
    11
 71
     3
 72
    16
 73
    12
 74
     0
 42
0.0000000001
 43
0.0000000001
 12
1.0
 22
0.0
 32
0.0
 13
1.0
 23
0.0
 33
0.0
 40
0.0
 40
0.0
 40
0.0
 40
0.0
 40
0.25
 40
0.25
 40
0.25
 40
0.25
 40
0.5
 40
0.5
 40
0.5
 40
0.5
 40
1.0
 40
1.0
 40
1.0
 40
1.0
 10
-99.1887
 20
-45.6249
 30
0.0
 10
-99.1887
 20
-45.6249
 30
0.0
 10
-99.1887
 20
-52.3193
 30
0.0
 10
-99.1887
 20
-52.3193
 30
0.0
 10
-99.1887
 20
-52.3193
 30
0.0
 10
-100.7952
 20
-52.6274
 30
0.0
 10
-104.391
 20
-53.0661
 30
0.0
 10
-105.5656
 20
-52.7196
 30
0.0
 10
-105.5656
 20
-52.7196
 30
0.0
 10
-105.5656
 20
-51.1836
 30
0.0
 10
-100.3676
 20
-45.2113
 30
0.0
 10
-99.1887
 20
-45.6249
 30
0.0
  0
SPLINE
  5
55
330
1F
100
AcDbEntity
  8
layer 1
 62
     7
100
AcDbSpline
210
0.0
220
0.0
230
1.0
 70
    11
 71
     3
 72
    28
 73
    24
 74
     0
 42
0.0000000001
 43
0.0000000001
 12
1.0
 22
0.0
 32
0.0
 13
1.0
 23
0.0
 33
0.0
 40
0.0
 40
0.0
 40
0.0
 40
0.0
 40
0.1428571428571428
 40
0.1428571428571428
 40
0.1428571428571428
 40
0.1428571428571428
 40
0.2857142857142857
 40
0.2857142857142857
 40
0.2857142857142857
 40
0.2857142857142857
 40
0.4285714285714285
 40
0.4285714285714285
 40
0.4285714285714285
 40
0.4285714285714285
 40
0.5714285714285714
 40
0.5714285714285714
 40
0.5714285714285714
 40
0.5714285714285714
 40
0.7142857142857143
 40
0.7142857142857143
 40
0.7142857142857143
 40
0.7142857142857143
 40
1.0
 40
1.0
 40
1.0
 40
1.0
 10
-99.1887
 20
-56.1669
 30
0.0
 10
-99.1887
 20
-56.1669
 30
0.0
 10
-99.1887
 20
-77.1954
 30
0.0
 10
-99.1887
 20
-77.1954
 30
0.0
 10
-99.1887
 20
-77.1954
 30
0.0
 10
-104.596
 20
-77.7418
 30
0.0
 10
-108.0969
 20
-88.0322
 30
0.0
 10
-110.335
 20
-95.7482
 30
0.0
 10
-110.335
 20
-95.7482
 30
0.0
 10
-111.3894
 20
-99.384
 30
0.0
 10
-112.5691
 20
-102.4484
 30
0.0
 10
-112.7895
 20
-103.6524
 30
0.0
 10
-112.7895
 20
-103.6524
 30
0.0
 10
-112.7895
 20
-103.6524
 30
0.0
 10
-117.8329
 20
-103.6524
 30
0.0
 10
-117.8329
 20
-103.6524
 30
0.0
 10
-117.8329
 20
-103.6524
 30
0.0
 10
-119.8895
 20
-97.3325
 30
0.0
 10
-112.8344
 20
-62.5578
 30
0.0
 10
-108.1169
 20
-56.5921
 30
0.0
 10
-108.1169
 20
-56.5921
 30
0.0
 10
-106.0775
 20
-56.0894
 30
0.0
 10
-101.683
 20
-56.4129
 30
0.0
 10
-99.1887
 20
-56.1669
 30
0.0
  0
SPLINE
  5
56
330
1F
100
AcDbEntity
  8
layer 1
 62
     7
100
AcDbSpline
210
0.0
220
0.0
230
1.0
 70
    11
 71
     3
 72
    24
 73
    20
 74
     0
 42
0.0000000001
 43
0.0000000001
 12
1.0
 22
0.0
 32
0.0
 13
1.0
 23
0.0
 33
0.0
 40
0.0
 40
0.0
 40
0.0
 40
0.0
 40
0.1666666666666667
 40
0.1666666666666667
 40
0.1666666666666667
 40
0.1666666666666667
 40
0.3333333333333333
 40
0.3333333333333333
 40
0.3333333333333333
 40
0.3333333333333333
 40
0.5
 40
0.5
 40
0.5
 40
0.5
 40
0.6666666666666666
 40
0.6666666666666666
 40
0.6666666666666666
 40
0.6666666666666666
 40
1.0
 40
1.0
 40
1.0
 40
1.0
 10
-99.1887
 20
-94.3635
 30
0.0
 10
-99.1887
 20
-94.3635
 30
0.0
 10
-99.1887
 20
-103.6524
 30
0.0
 10
-99.1887
 20
-103.6524
 30
0.0
 10
-99.1887
 20
-103.6524
 30
0.0
 10
-99.1887
 20
-103.6524
 30
0.0
 10
-108.1876
 20
-103.6524
 30
0.0
 10
-108.1876
 20
-103.6524
 30
0.0
 10
-108.1876
 20
-103.6524
 30
0.0
 10
-108.2214
 20
-102.0836
 30
0.0
 10
-106.0465
 20
-92.8282
 30
0.0
 10
-102.2274
 20
-85.8607
 30
0.0
 10
-102.2274
 20
-85.8607
 30
0.0
 10
-100.7081
 20
-83.2971
 30
0.0
 10
-99.3188
 20
-84.9724
 30
0.0
 10
-99.3043
 20
-86.0461
 30
0.0
 10
-99.3043
 20
-86.0461
 30
0.0
 10
-99.3043
 20
-86.0461
 30
0.0
 10
-99.1887
 20
-94.3635
 30
0.0
 10
-99.1887
 20
-94.3635
 30
0.0
  0
SPLINE
  5
57
330
1F
100
AcDbEntity
  8
layer 1
 62
     7
100
AcDbSpline
210
0.0
220
0.0
230
1.0
 70
    11
 71
     3
 72
    36
 73
    32
 74
     0
 42
0.0000000001
 43
0.0000000001
 12
1.0
 22
0.0
 32
0.0
 13
1.0
 23
0.0
 33
0.0
 40
0.0
 40
0.0
 40
0.0
 40
0.0
 40
0.1111111111111111
 40
0.1111111111111111
 40
0.1111111111111111
 40
0.1111111111111111
 40
0.2222222222222222
 40
0.2222222222222222
 40
0.2222222222222222
 40
0.2222222222222222
 40
0.3333333333333333
 40
0.3333333333333333
 40
0.3333333333333333
 40
0.3333333333333333
 40
0.4444444444444444
 40
0.4444444444444444
 40
0.4444444444444444
 40
0.4444444444444444
 40
0.5555555555555556
 40
0.5555555555555556
 40
0.5555555555555556
 40
0.5555555555555556
 40
0.6666666666666666
 40
0.6666666666666666
 40
0.6666666666666666
 40
0.6666666666666666
 40
0.7777777777777778
 40
0.7777777777777778
 40
0.7777777777777778
 40
0.7777777777777778
 40
1.0
 40
1.0
 40
1.0
 40
1.0
 10
-123.9214
 20
-103.6524
 30
0.0
 10
-123.9214
 20
-103.6524
 30
0.0
 10
-124.9769
 20
-103.6524
 30
0.0
 10
-124.9769
 20
-103.6524
 30
0.0
 10
-124.9769
 20
-103.6524
 30
0.0
 10
-129.4037
 20
-86.4394
 30
0.0
 10
-132.9418
 20
-82.7761
 30
0.0
 10
-134.2719
 20
-80.3032
 30
0.0
 10
-134.2719
 20
-80.3032
 30
0.0
 10
-134.1838
 20
-79.2433
 30
0.0
 10
-132.1888
 20
-76.226
 30
0.0
 10
-131.6627
 20
-74.8756
 30
0.0
 10
-131.6627
 20
-74.8756
 30
0.0
 10
-128.8257
 20
-67.581
 30
0.0
 10
-127.1885
 20
-60.0118
 30
0.0
 10
-123.4254
 20
-53.033
 30
0.0
 10
-123.4254
 20
-53.033
 30
0.0
 10
-122.0089
 20
-53.8015
 30
0.0
 10
-120.5516
 20
-54.6335
 30
0.0
 10
-118.8139
 20
-55.0961
 30
0.0
 10
-118.8139
 20
-55.0961
 30
0.0
 10
-116.724
 20
-55.6536
 30
0.0
 10
-114.073
 20
-56.0773
 30
0.0
 10
-113.9462
 20
-55.8808
 30
0.0
 10
-113.9462
 20
-55.8808
 30
0.0
 10
-113.931
 20
-55.9453
 30
0.0
 10
-118.6391
 20
-66.4624
 30
0.0
 10
-121.4403
 20
-78.3782
 30
0.0
 10
-121.4403
 20
-78.3782
 30
0.0
 10
-123.7429
 20
-88.1725
 30
0.0
 10
-124.3057
 20
-99.1872
 30
0.0
 10
-123.9214
 20
-103.6524
 30
0.0
  0
SPLINE
  5
58
330
1F
100
AcDbEntity
  8
layer 1
 62
     7
100
AcDbSpline
210
0.0
220
0.0
230
1.0
 70
    11
 71
     3
 72
    20
 73
    16
 74
     0
 42
0.0000000001
 43
0.0000000001
 12
1.0
 22
0.0
 32
0.0
 13
1.0
 23
0.0
 33
0.0
 40
0.0
 40
0.0
 40
0.0
 40
0.0
 40
0.2
 40
0.2
 40
0.2
 40
0.2
 40
0.4
 40
0.4
 40
0.4
 40
0.4
 40
0.6
 40
0.6
 40
0.6
 40
0.6
 40
1.0
 40
1.0
 40
1.0
 40
1.0
 10
-130.9318
 20
-103.6524
 30
0.0
 10
-130.9318
 20
-103.6524
 30
0.0
 10
-149.5756
 20
-103.6524
 30
0.0
 10
-149.5756
 20
-103.6524
 30
0.0
 10
-149.5756
 20
-103.6524
 30
0.0
 10
-148.1716
 20
-101.8651
 30
0.0
 10
-146.2029
 20
-98.9869
 30
0.0
 10
-144.5247
 20
-95.2419
 30
0.0
 10
-144.5247
 20
-95.2419
 30
0.0
 10
-142.3396
 20
-90.3686
 30
0.0
 10
-140.5798
 20
-85.7878
 30
0.0
 10
-139.9808
 20
-85.3747
 30
0.0
 10
-139.9808
 20
-85.3747
 30
0.0
 10
-136.8375
 20
-85.3375
 30
0.0
 10
-131.4084
 20
-99.9369
 30
0.0
 10
-130.9318
 20
-103.6524
 30
0.0
  0
SPLINE
  5
59
330
1F
100
AcDbEntity
  8
layer 1
 62
     7
100
AcDbSpline
210
0.0
220
0.0
230
1.0
 70
    11
 71
     3
 72
    32
 73
    28
 74
     0
 42
0.0000000001
 43
0.0000000001
 12
1.0
 22
0.0
 32
0.0
 13
1.0
 23
0.0
 33
0.0
 40
0.0
 40
0.0
 40
0.0
 40
0.0
 40
0.125
 40
0.125
 40
0.125
 40
0.125
 40
0.25
 40
0.25
 40
0.25
 40
0.25
 40
0.375
 40
0.375
 40
0.375
 40
0.375
 40
0.5
 40
0.5
 40
0.5
 40
0.5
 40
0.625
 40
0.625
 40
0.625
 40
0.625
 40
0.75
 40
0.75
 40
0.75
 40
0.75
 40
1.0
 40
1.0
 40
1.0
 40
1.0
 10
-153.2035
 20
-103.6524
 30
0.0
 10
-153.2035
 20
-103.6524
 30
0.0
 10
-162.1069
 20
-103.6524
 30
0.0
 10
-162.1069
 20
-103.6524
 30
0.0
 10
-162.1069
 20
-103.6524
 30
0.0
 10
-162.1257
 20
-103.5807
 30
0.0
 10
-162.1443
 20
-103.5093
 30
0.0
 10
-162.1629
 20
-103.4373
 30
0.0
 10
-162.1629
 20
-103.4373
 30
0.0
 10
-161.723
 20
-103.0469
 30
0.0
 10
-161.8983
 20
-102.6662
 30
0.0
 10
-161.5921
 20
-102.1031
 30
0.0
 10
-161.5921
 20
-102.1031
 30
0.0
 10
-160.0264
 20
-99.2215
 30
0.0
 10
-158.7694
 20
-94.0158
 30
0.0
 10
-157.2307
 20
-91.7391
 30
0.0
 10
-157.2307
 20
-91.7391
 30
0.0
 10
-156.5419
 20
-90.7192
 30
0.0
 10
-151.2261
 20
-87.5025
 30
0.0
 10
-149.6872
 20
-87.2693
 30
0.0
 10
-149.6872
 20
-87.2693
 30
0.0
 10
-149.2629
 20
-87.2055
 30
0.0
 10
-149.3339
 20
-88.6409
 30
0.0
 10
-149.36
 20
-89.3428
 30
0.0
 10
-149.36
 20
-89.3428
 30
0.0
 10
-149.4317
 20
-91.2033
 30
0.0
 10
-151.4062
 20
-100.5415
 30
0.0
 10
-153.2035
 20
-103.6524
 30
0.0
  0
SPLINE
  5
5A
330
1F
100
AcDbEntity
  8
layer 1
 62
     7
100
AcDbSpline
210
0.0
220
0.0
230
1.0
 70
    11
 71
     3
 72
    24
 73
    20
 74
     0
 42
0.0000000001
 43
0.0000000001
 12
1.0
 22
0.0
 32
0.0
 13
1.0
 23
0.0
 33
0.0
 40
0.0
 40
0.0
 40
0.0
 40
0.0
 40
0.1666666666666667
 40
0.1666666666666667
 40
0.1666666666666667
 40
0.1666666666666667
 40
0.3333333333333333
 40
0.3333333333333333
 40
0.3333333333333333
 40
0.3333333333333333
 40
0.5
 40
0.5
 40
0.5
 40
0.5
 40
0.6666666666666666
 40
0.6666666666666666
 40
0.6666666666666666
 40
0.6666666666666666
 40
1.0
 40
1.0
 40
1.0
 40
1.0
 10
-170.5141
 20
-103.6524
 30
0.0
 10
-170.5141
 20
-103.6524
 30
0.0
 10
-176.022
 20
-103.6524
 30
0.0
 10
-176.022
 20
-103.6524
 30
0.0
 10
-176.022
 20
-103.6524
 30
0.0
 10
-175.938
 20
-99.9618
 30
0.0
 10
-174.7786
 20
-91.5824
 30
0.0
 10
-173.0861
 20
-85.048
 30
0.0
 10
-173.0861
 20
-85.048
 30
0.0
 10
-172.0663
 20
-81.1094
 30
0.0
 10
-170.5503
 20
-78.1718
 30
0.0
 10
-169.7472
 20
-76.4761
 30
0.0
 10
-169.7472
 20
-76.4761
 30
0.0
 10
-167.6327
 20
-72.009
 30
0.0
 10
-164.0502
 20
-68.6315
 30
0.0
 10
-161.4291
 20
-64.7313
 30
0.0
 10
-161.4291
 20
-64.7313
 30
0.0
 10
-159.3465
 20
-70.2521
 30
0.0
 10
-166.2592
 20
-98.0271
 30
0.0
 10
-170.5141
 20
-103.6524
 30
0.0
  0
SPLINE
  5
5B
330
1F
100
AcDbEntity
  8
layer 1
 62
     7
100
AcDbSpline
210
0.0
220
0.0
230
1.0
 70
    11
 71
     3
 72
    36
 73
    32
 74
     0
 42
0.0000000001
 43
0.0000000001
 12
1.0
 22
0.0
 32
0.0
 13
1.0
 23
0.0
 33
0.0
 40
0.0
 40
0.0
 40
0.0
 40
0.0
 40
0.1111111111111111
 40
0.1111111111111111
 40
0.1111111111111111
 40
0.1111111111111111
 40
0.2222222222222222
 40
0.2222222222222222
 40
0.2222222222222222
 40
0.2222222222222222
 40
0.3333333333333333
 40
0.3333333333333333
 40
0.3333333333333333
 40
0.3333333333333333
 40
0.4444444444444444
 40
0.4444444444444444
 40
0.4444444444444444
 40
0.4444444444444444
 40
0.5555555555555556
 40
0.5555555555555556
 40
0.5555555555555556
 40
0.5555555555555556
 40
0.6666666666666666
 40
0.6666666666666666
 40
0.6666666666666666
 40
0.6666666666666666
 40
0.7777777777777778
 40
0.7777777777777778
 40
0.7777777777777778
 40
0.7777777777777778
 40
1.0
 40
1.0
 40
1.0
 40
1.0
 10
-184.5879
 20
-79.5977
 30
0.0
 10
-184.5879
 20
-79.5977
 30
0.0
 10
-184.5879
 20
-68.8582
 30
0.0
 10
-184.5879
 20
-68.8582
 30
0.0
 10
-184.5879
 20
-68.8582
 30
0.0
 10
-183.4536
 20
-59.4367
 30
0.0
 10
-180.944
 20
-49.951
 30
0.0
 10
-177.7399
 20
-41.5078
 30
0.0
 10
-177.7399
 20
-41.5078
 30
0.0
 10
-176.7464
 20
-38.8911
 30
0.0
 10
-173.4461
 20
-31.4733
 30
0.0
 10
-170.0742
 20
-32.4326
 30
0.0
 10
-170.0742
 20
-32.4326
 30
0.0
 10
-169.938
 20
-32.4915
 30
0.0
 10
-169.8023
 20
-32.5502
 30
0.0
 10
-169.6659
 20
-32.6103
 30
0.0
 10
-169.6659
 20
-32.6103
 30
0.0
 10
-170.6988
 20
-35.635
 30
0.0
 10
-171.7324
 20
-38.6608
 30
0.0
 10
-172.765
 20
-41.6858
 30
0.0
 10
-172.765
 20
-41.6858
 30
0.0
 10
-174.6451
 20
-46.7633
 30
0.0
 10
-175.5351
 20
-51.8475
 30
0.0
 10
-177.4137
 20
-56.99
 30
0.0
 10
-177.4137
 20
-56.99
 30
0.0
 10
-179.0434
 20
-61.4528
 30
0.0
 10
-179.9307
 20
-64.6258
 30
0.0
 10
-181.171
 20
-68.983
 30
0.0
 10
-181.171
 20
-68.983
 30
0.0
 10
-182.2459
 20
-72.7597
 30
0.0
 10
-183.8447
 20
-77.523
 30
0.0
 10
-184.5879
 20
-79.5977
 30
0.0
  0
SPLINE
  5
5C
330
1F
100
AcDbEntity
  8
layer 1
 62
     7
100
AcDbSpline
210
0.0
220
0.0
230
1.0
 70
    11
 71
     3
 72
    16
 73
    12
 74
     0
 42
0.0000000001
 43
0.0000000001
 12
1.0
 22
0.0
 32
0.0
 13
1.0
 23
0.0
 33
0.0
 40
0.0
 40
0.0
 40
0.0
 40
0.0
 40
0.25
 40
0.25
 40
0.25
 40
0.25
 40
0.5
 40
0.5
 40
0.5
 40
0.5
 40
1.0
 40
1.0
 40
1.0
 40
1.0
 10
-184.5879
 20
-24.0807
 30
0.0
 10
-184.5879
 20
-24.0807
 30
0.0
 10
-184.5879
 20
20.3475
 30
0.0
 10
-184.5879
 20
20.3475
 30
0.0
 10
-184.5879
 20
20.3475
 30
0.0
 10
-182.4214
 20
12.0328
 30
0.0
 10
-176.941
 20
-2.6538
 30
0.0
 10
-178.0661
 20
-9.6539
 30
0.0
 10
-178.0661
 20
-9.6539
 30
0.0
 10
-179.041
 20
-15.7232
 30
0.0
 10
-182.3014
 20
-19.3658
 30
0.0
 10
-184.5879
 20
-24.0807
 30
0.0
  0
SPLINE
  5
5D
330
1F
100
AcDbEntity
  8
layer 1
 62
     7
100
AcDbSpline
210
0.0
220
0.0
230
1.0
 70
    11
 71
     3
 72
    40
 73
    36
 74
     0
 42
0.0000000001
 43
0.0000000001
 12
1.0
 22
0.0
 32
0.0
 13
1.0
 23
0.0
 33
0.0
 40
0.0
 40
0.0
 40
0.0
 40
0.0
 40
0.1
 40
0.1
 40
0.1
 40
0.1
 40
0.2
 40
0.2
 40
0.2
 40
0.2
 40
0.3
 40
0.3
 40
0.3
 40
0.3
 40
0.4
 40
0.4
 40
0.4
 40
0.4
 40
0.5
 40
0.5
 40
0.5
 40
0.5
 40
0.6
 40
0.6
 40
0.6
 40
0.6
 40
0.7
 40
0.7
 40
0.7
 40
0.7
 40
0.8
 40
0.8
 40
0.8
 40
0.8
 40
1.0
 40
1.0
 40
1.0
 40
1.0
 10
-184.5879
 20
35.7502
 30
0.0
 10
-184.5879
 20
35.7502
 30
0.0
 10
-184.5879
 20
75.2837
 30
0.0
 10
-184.5879
 20
75.2837
 30
0.0
 10
-184.5879
 20
75.2837
 30
0.0
 10
-183.2928
 20
74.9563
 30
0.0
 10
-182.1532
 20
74.2163
 30
0.0
 10
-181.0293
 20
73.3135
 30
0.0
 10
-181.0293
 20
73.3135
 30
0.0
 10
-173.5376
 20
67.2968
 30
0.0
 10
-171.8661
 20
58.2979
 30
0.0
 10
-169.9928
 20
48.7175
 30
0.0
 10
-169.9928
 20
48.7175
 30
0.0
 10
-169.3841
 20
45.6094
 30
0.0
 10
-169.8359
 20
40.2666
 30
0.0
 10
-170.345
 20
34.7883
 30
0.0
 10
-170.345
 20
34.7883
 30
0.0
 10
-170.5433
 20
32.6612
 30
0.0
 10
-170.7251
 20
30.4921
 30
0.0
 10
-170.9477
 20
28.5024
 30
0.0
 10
-170.9477
 20
28.5024
 30
0.0
 10
-171.3012
 20
25.3504
 30
0.0
 10
-172.0573
 20
16.4896
 30
0.0
 10
-173.3276
 20
11.7969
 30
0.0
 10
-173.3276
 20
11.7969
 30
0.0
 10
-174.1951
 20
8.5884
 30
0.0
 10
-175.3356
 20
7.7369
 30
0.0
 10
-176.3115
 20
11.6825
 30
0.0
 10
-176.3115
 20
11.6825
 30
0.0
 10
-177.3099
 20
15.7165
 30
0.0
 10
-178.1815
 20
19.5329
 30
0.0
 10
-179.4396
 20
23.1881
 30
0.0
 10
-179.4396
 20
23.1881
 30
0.0
 10
-180.8649
 20
27.3319
 30
0.0
 10
-182.7198
 20
31.3005
 30
0.0
 10
-184.5879
 20
35.7502
 30
0.0
  0
SPLINE
  5
5E
330
1F
100
AcDbEntity
  8
layer 1
 62
     7
100
AcDbSpline
210
0.0
220
0.0
230
1.0
 70
    11
 71
     3
 72
    16
 73
    12
 74
     0
 42
0.0000000001
 43
0.0000000001
 12
1.0
 22
0.0
 32
0.0
 13
1.0
 23
0.0
 33
0.0
 40
0.0
 40
0.0
 40
0.0
 40
0.0
 40
0.25
 40
0.25
 40
0.25
 40
0.25
 40
0.5
 40
0.5
 40
0.5
 40
0.5
 40
1.0
 40
1.0
 40
1.0
 40
1.0
 10
-184.5879
 20
78.0506
 30
0.0
 10
-184.5879
 20
78.0506
 30
0.0
 10
-184.5879
 20
89.5024
 30
0.0
 10
-184.5879
 20
89.5024
 30
0.0
 10
-184.5879
 20
89.5024
 30
0.0
 10
-180.8755
 20
88.1795
 30
0.0
 10
-174.7195
 20
79.0543
 30
0.0
 10
-175.7828
 20
74.966
 30
0.0
 10
-175.7828
 20
74.966
 30
0.0
 10
-178.0364
 20
76.4467
 30
0.0
 10
-181.8574
 20
77.1087
 30
0.0
 10
-184.5879
 20
78.0506
 30
0.0
  0
SPLINE
  5
5F
330
1F
100
AcDbEntity
  8
layer 1
 62
     7
100
AcDbSpline
210
0.0
220
0.0
230
1.0
 70
    11
 71
     3
 72
    24
 73
    20
 74
     0
 42
0.0000000001
 43
0.0000000001
 12
1.0
 22
0.0
 32
0.0
 13
1.0
 23
0.0
 33
0.0
 40
0.0
 40
0.0
 40
0.0
 40
0.0
 40
0.1666666666666667
 40
0.1666666666666667
 40
0.1666666666666667
 40
0.1666666666666667
 40
0.3333333333333333
 40
0.3333333333333333
 40
0.3333333333333333
 40
0.3333333333333333
 40
0.5
 40
0.5
 40
0.5
 40
0.5
 40
0.6666666666666666
 40
0.6666666666666666
 40
0.6666666666666666
 40
0.6666666666666666
 40
1.0
 40
1.0
 40
1.0
 40
1.0
 10
-184.5879
 20
92.4134
 30
0.0
 10
-184.5879
 20
92.4134
 30
0.0
 10
-184.5879
 20
103.8891
 30
0.0
 10
-184.5879
 20
103.8891
 30
0.0
 10
-184.5879
 20
103.8891
 30
0.0
 10
-183.1469
 20
102.3175
 30
0.0
 10
-180.9764
 20
99.3536
 30
0.0
 10
-180.2678
 20
97.3893
 30
0.0
 10
-180.2678
 20
97.3893
 30
0.0
 10
-179.5934
 20
95.5208
 30
0.0
 10
-179.2226
 20
93.2365
 30
0.0
 10
-178.7701
 20
91.2103
 30
0.0
 10
-178.7701
 20
91.2103
 30
0.0
 10
-178.1858
 20
88.5977
 30
0.0
 10
-177.4079
 20
87.1534
 30
0.0
 10
-180.2733
 20
89.1489
 30
0.0
 10
-180.2733
 20
89.1489
 30
0.0
 10
-181.7732
 20
90.1941
 30
0.0
 10
-183.7962
 20
91.6988
 30
0.0
 10
-184.5879
 20
92.4134
 30
0.0
  0
SPLINE
  5
60
330
1F
100
AcDbEntity
  8
layer 1
 62
     7
100
AcDbSpline
210
0.0
220
0.0
230
1.0
 70
    11
 71
     3
 72
    40
 73
    36
 74
     0
 42
0.0000000001
 43
0.0000000001
 12
1.0
 22
0.0
 32
0.0
 13
1.0
 23
0.0
 33
0.0
 40
0.0
 40
0.0
 40
0.0
 40
0.0
 40
0.1
 40
0.1
 40
0.1
 40
0.1
 40
0.2
 40
0.2
 40
0.2
 40
0.2
 40
0.3
 40
0.3
 40
0.3
 40
0.3
 40
0.4
 40
0.4
 40
0.4
 40
0.4
 40
0.5
 40
0.5
 40
0.5
 40
0.5
 40
0.6
 40
0.6
 40
0.6
 40
0.6
 40
0.7
 40
0.7
 40
0.7
 40
0.7
 40
0.8
 40
0.8
 40
0.8
 40
0.8
 40
1.0
 40
1.0
 40
1.0
 40
1.0
 10
-184.5879
 20
107.0816
 30
0.0
 10
-184.5879
 20
107.0816
 30
0.0
 10
-184.5879
 20
109.7612
 30
0.0
 10
-184.5879
 20
109.7612
 30
0.0
 10
-184.5879
 20
109.7612
 30
0.0
 10
-182.6679
 20
108.5474
 30
0.0
 10
-177.5953
 20
103.5245
 30
0.0
 10
-176.826
 20
102.6616
 30
0.0
 10
-176.826
 20
102.6616
 30
0.0
 10
-176.6073
 20
102.4153
 30
0.0
 10
-175.6464
 20
99.8493
 30
0.0
 10
-173.5123
 20
97.1126
 30
0.0
 10
-173.5123
 20
97.1126
 30
0.0
 10
-170.7668
 20
93.5936
 30
0.0
 10
-166.7278
 20
89.7281
 30
0.0
 10
-166.6486
 20
89.4698
 30
0.0
 10
-166.6486
 20
89.4698
 30
0.0
 10
-166.6486
 20
86.8313
 30
0.0
 10
-166.7452
 20
84.274
 30
0.0
 10
-166.8934
 20
81.6394
 30
0.0
 10
-166.8934
 20
81.6394
 30
0.0
 10
-167.0532
 20
80.6722
 30
0.0
 10
-168.5519
 20
69.2588
 30
0.0
 10
-170.6447
 20
70.606
 30
0.0
 10
-170.6447
 20
70.606
 30
0.0
 10
-172.1742
 20
76.1867
 30
0.0
 10
-173.6728
 20
82.1404
 30
0.0
 10
-175.4986
 20
87.6314
 30
0.0
 10
-175.4986
 20
87.6314
 30
0.0
 10
-176.8019
 20
91.5544
 30
0.0
 10
-177.7133
 20
95.4541
 30
0.0
 10
-179.0446
 20
99.4362
 30
0.0
 10
-179.0446
 20
99.4362
 30
0.0
 10
-180.74
 20
102.4363
 30
0.0
 10
-182.3973
 20
104.6487
 30
0.0
 10
-184.5879
 20
107.0816
 30
0.0
  0
SPLINE
  5
61
330
1F
100
AcDbEntity
  8
layer 1
 62
     7
100
AcDbSpline
210
0.0
220
0.0
230
1.0
 70
    11
 71
     3
 72
    28
 73
    24
 74
     0
 42
0.0000000001
 43
0.0000000001
 12
1.0
 22
0.0
 32
0.0
 13
1.0
 23
0.0
 33
0.0
 40
0.0
 40
0.0
 40
0.0
 40
0.0
 40
0.1428571428571428
 40
0.1428571428571428
 40
0.1428571428571428
 40
0.1428571428571428
 40
0.2857142857142857
 40
0.2857142857142857
 40
0.2857142857142857
 40
0.2857142857142857
 40
0.4285714285714285
 40
0.4285714285714285
 40
0.4285714285714285
 40
0.4285714285714285
 40
0.5714285714285714
 40
0.5714285714285714
 40
0.5714285714285714
 40
0.5714285714285714
 40
0.7142857142857143
 40
0.7142857142857143
 40
0.7142857142857143
 40
0.7142857142857143
 40
1.0
 40
1.0
 40
1.0
 40
1.0
 10
-150.1338
 20
115.9739
 30
0.0
 10
-149.4052
 20
114.3097
 30
0.0
 10
-149.2873
 20
111.7767
 30
0.0
 10
-149.1963
 20
110.5579
 30
0.0
 10
-149.1963
 20
110.5579
 30
0.0
 10
-149.4655
 20
108.784
 30
0.0
 10
-151.3632
 20
104.2703
 30
0.0
 10
-152.7848
 20
104.0627
 30
0.0
 10
-152.7848
 20
104.0627
 30
0.0
 10
-152.8932
 20
104.1515
 30
0.0
 10
-153.0024
 20
104.2409
 30
0.0
 10
-153.111
 20
104.3295
 30
0.0
 10
-153.111
 20
104.3295
 30
0.0
 10
-153.5055
 20
105.9481
 30
0.0
 10
-153.2363
 20
107.4018
 30
0.0
 10
-152.8314
 20
108.7947
 30
0.0
 10
-152.8314
 20
108.7947
 30
0.0
 10
-152.1361
 20
111.1881
 30
0.0
 10
-151.4489
 20
113.4067
 30
0.0
 10
-151.6095
 20
115.8846
 30
0.0
 10
-151.6095
 20
115.8846
 30
0.0
 10
-151.7594
 20
118.2154
 30
0.0
 10
-150.882
 20
117.6826
 30
0.0
 10
-150.1338
 20
115.9739
 30
0.0
  0
SPLINE
  5
62
330
1F
100
AcDbEntity
  8
layer 1
 62
     7
100
AcDbSpline
210
0.0
220
0.0
230
1.0
 70
    11
 71
     3
 72
    40
 73
    36
 74
     0
 42
0.0000000001
 43
0.0000000001
 12
1.0
 22
0.0
 32
0.0
 13
1.0
 23
0.0
 33
0.0
 40
0.0
 40
0.0
 40
0.0
 40
0.0
 40
0.1
 40
0.1
 40
0.1
 40
0.1
 40
0.2
 40
0.2
 40
0.2
 40
0.2
 40
0.3
 40
0.3
 40
0.3
 40
0.3
 40
0.4
 40
0.4
 40
0.4
 40
0.4
 40
0.5
 40
0.5
 40
0.5
 40
0.5
 40
0.6
 40
0.6
 40
0.6
 40
0.6
 40
0.7
 40
0.7
 40
0.7
 40
0.7
 40
0.8
 40
0.8
 40
0.8
 40
0.8
 40
1.0
 40
1.0
 40
1.0
 40
1.0
 10
-128.6236
 20
114.9017
 30
0.0
 10
-128.0036
 20
112.2837
 30
0.0
 10
-128.3291
 20
109.118
 30
0.0
 10
-127.8298
 20
105.8421
 30
0.0
 10
-127.8298
 20
105.8421
 30
0.0
 10
-127.698
 20
104.977
 30
0.0
 10
-127.4522
 20
103.3949
 30
0.0
 10
-127.7479
 20
102.4607
 30
0.0
 10
-127.7479
 20
102.4607
 30
0.0
 10
-128.2668
 20
100.8245
 30
0.0
 10
-130.4267
 20
99.4514
 30
0.0
 10
-131.499
 20
98.279
 30
0.0
 10
-131.499
 20
98.279
 30
0.0
 10
-134.5824
 20
94.9082
 30
0.0
 10
-134.651
 20
93.8939
 30
0.0
 10
-138.5949
 20
91.2492
 30
0.0
 10
-138.5949
 20
91.2492
 30
0.0
 10
-139.5409
 20
90.6152
 30
0.0
 10
-140.9002
 20
89.8771
 30
0.0
 10
-142.2638
 20
89.7368
 30
0.0
 10
-142.2638
 20
89.7368
 30
0.0
 10
-142.2914
 20
89.767
 30
0.0
 10
-142.3189
 20
89.7957
 30
0.0
 10
-142.3459
 20
89.8264
 30
0.0
 10
-142.3459
 20
89.8264
 30
0.0
 10
-142.2341
 20
93.1616
 30
0.0
 10
-140.6179
 20
100.9833
 30
0.0
 10
-139.2463
 20
103.9733
 30
0.0
 10
-139.2463
 20
103.9733
 30
0.0
 10
-137.3884
 20
108.0276
 30
0.0
 10
-134.6684
 20
111.5077
 30
0.0
 10
-132.1871
 20
115.0383
 30
0.0
 10
-132.1871
 20
115.0383
 30
0.0
 10
-130.5404
 20
117.3815
 30
0.0
 10
-129.6082
 20
119.0634
 30
0.0
 10
-128.6236
 20
114.9017
 30
0.0
  0
SPLINE
  5
63
330
1F
100
AcDbEntity
  8
layer 1
 62
     7
100
AcDbSpline
210
0.0
220
0.0
230
1.0
 70
    11
 71
     3
 72
    44
 73
    40
 74
     0
 42
0.0000000001
 43
0.0000000001
 12
1.0
 22
0.0
 32
0.0
 13
1.0
 23
0.0
 33
0.0
 40
0.0
 40
0.0
 40
0.0
 40
0.0
 40
0.0909090909090909
 40
0.0909090909090909
 40
0.0909090909090909
 40
0.0909090909090909
 40
0.1818181818181818
 40
0.1818181818181818
 40
0.1818181818181818
 40
0.1818181818181818
 40
0.2727272727272727
 40
0.2727272727272727
 40
0.2727272727272727
 40
0.2727272727272727
 40
0.3636363636363636
 40
0.3636363636363636
 40
0.3636363636363636
 40
0.3636363636363636
 40
0.4545454545454545
 40
0.4545454545454545
 40
0.4545454545454545
 40
0.4545454545454545
 40
0.5454545454545454
 40
0.5454545454545454
 40
0.5454545454545454
 40
0.5454545454545454
 40
0.6363636363636364
 40
0.6363636363636364
 40
0.6363636363636364
 40
0.6363636363636364
 40
0.7272727272727273
 40
0.7272727272727273
 40
0.7272727272727273
 40
0.7272727272727273
 40
0.8181818181818182
 40
0.8181818181818182
 40
0.8181818181818182
 40
0.8181818181818182
 40
1.0
 40
1.0
 40
1.0
 40
1.0
 10
-144.8277
 20
103.0416
 30
0.0
 10
-146.8217
 20
99.8942
 30
0.0
 10
-148.1388
 20
95.8841
 30
0.0
 10
-149.7502
 20
91.5592
 30
0.0
 10
-149.7502
 20
91.5592
 30
0.0
 10
-152.8264
 20
83.3027
 30
0.0
 10
-155.7237
 20
73.8942
 30
0.0
 10
-157.6774
 20
67.1363
 30
0.0
 10
-157.6774
 20
67.1363
 30
0.0
 10
-158.9293
 20
62.8065
 30
0.0
 10
-160.0831
 20
57.6279
 30
0.0
 10
-162.3543
 20
54.0828
 30
0.0
 10
-162.3543
 20
54.0828
 30
0.0
 10
-164.6514
 20
50.4986
 30
0.0
 10
-165.3931
 20
51.7437
 30
0.0
 10
-165.4976
 20
55.7487
 30
0.0
 10
-165.4976
 20
55.7487
 30
0.0
 10
-165.6065
 20
59.9324
 30
0.0
 10
-164.5763
 20
65.6121
 30
0.0
 10
-164.0391
 20
68.293
 30
0.0
 10
-164.0391
 20
68.293
 30
0.0
 10
-163.1156
 20
72.9053
 30
0.0
 10
-163.0649
 20
77.589
 30
0.0
 10
-161.7558
 20
81.8176
 30
0.0
 10
-161.7558
 20
81.8176
 30
0.0
 10
-160.6507
 20
85.3839
 30
0.0
 10
-157.3737
 20
93.6327
 30
0.0
 10
-155.0681
 20
96.4998
 30
0.0
 10
-155.0681
 20
96.4998
 30
0.0
 10
-152.8148
 20
99.3
 30
0.0
 10
-149.6263
 20
101.1808
 30
0.0
 10
-146.8642
 20
103.467
 30
0.0
 10
-146.8642
 20
103.467
 30
0.0
 10
-146.4958
 20
103.7722
 30
0.0
 10
-145.5834
 20
104.6827
 30
0.0
 10
-144.8755
 20
104.9594
 30
0.0
 10
-144.8755
 20
104.9594
 30
0.0
 10
-144.1676
 20
105.2361
 30
0.0
 10
-143.6635
 20
104.879
 30
0.0
 10
-144.8277
 20
103.0416
 30
0.0
  0
SPLINE
  5
64
330
1F
100
AcDbEntity
  8
layer 1
 62
     7
100
AcDbSpline
210
0.0
220
0.0
230
1.0
 70
    11
 71
     3
 72
    48
 73
    44
 74
     0
 42
0.0000000001
 43
0.0000000001
 12
1.0
 22
0.0
 32
0.0
 13
1.0
 23
0.0
 33
0.0
 40
0.0
 40
0.0
 40
0.0
 40
0.0
 40
0.0833333333333333
 40
0.0833333333333333
 40
0.0833333333333333
 40
0.0833333333333333
 40
0.1666666666666667
 40
0.1666666666666667
 40
0.1666666666666667
 40
0.1666666666666667
 40
0.25
 40
0.25
 40
0.25
 40
0.25
 40
0.3333333333333333
 40
0.3333333333333333
 40
0.3333333333333333
 40
0.3333333333333333
 40
0.4166666666666667
 40
0.4166666666666667
 40
0.4166666666666667
 40
0.4166666666666667
 40
0.5
 40
0.5
 40
0.5
 40
0.5
 40
0.5833333333333334
 40
0.5833333333333334
 40
0.5833333333333334
 40
0.5833333333333334
 40
0.6666666666666666
 40
0.6666666666666666
 40
0.6666666666666666
 40
0.6666666666666666
 40
0.75
 40
0.75
 40
0.75
 40
0.75
 40
0.8333333333333334
 40
0.8333333333333334
 40
0.8333333333333334
 40
0.8333333333333334
 40
1.0
 40
1.0
 40
1.0
 40
1.0
 10
-125.7746
 20
91.218
 30
0.0
 10
-125.6595
 20
87.1722
 30
0.0
 10
-126.9534
 20
81.269
 30
0.0
 10
-127.4215
 20
79.8602
 30
0.0
 10
-127.4215
 20
79.8602
 30
0.0
 10
-128.8385
 20
75.5964
 30
0.0
 10
-130.8425
 20
71.828
 30
0.0
 10
-132.8858
 20
68.293
 30
0.0
 10
-132.8858
 20
68.293
 30
0.0
 10
-133.6347
 20
66.9958
 30
0.0
 10
-134.3299
 20
65.2955
 30
0.0
 10
-135.4142
 20
64.3781
 30
0.0
 10
-135.4142
 20
64.3781
 30
0.0
 10
-137.5425
 20
62.5747
 30
0.0
 10
-139.8226
 20
61.2328
 30
0.0
 10
-142.3459
 20
59.84
 30
0.0
 10
-142.3459
 20
59.84
 30
0.0
 10
-144.4916
 20
58.6552
 30
0.0
 10
-148.3505
 20
56.3859
 30
0.0
 10
-151.4801
 20
57.4369
 30
0.0
 10
-151.4801
 20
57.4369
 30
0.0
 10
-152.7414
 20
60.8637
 30
0.0
 10
-150.1155
 20
66.5153
 30
0.0
 10
-149.1149
 20
69.2718
 30
0.0
 10
-149.1149
 20
69.2718
 30
0.0
 10
-148.1907
 20
72.089
 30
0.0
 10
-147.2662
 20
74.9075
 30
0.0
 10
-146.3418
 20
77.7249
 30
0.0
 10
-146.3418
 20
77.7249
 30
0.0
 10
-145.594
 20
78.8956
 30
0.0
 10
-143.8923
 20
79.4543
 30
0.0
 10
-142.7532
 20
80.2161
 30
0.0
 10
-142.7532
 20
80.2161
 30
0.0
 10
-140.2973
 20
81.8596
 30
0.0
 10
-137.8411
 20
83.757
 30
0.0
 10
-135.7401
 20
85.8221
 30
0.0
 10
-135.7401
 20
85.8221
 30
0.0
 10
-133.6722
 20
87.8528
 30
0.0
 10
-132.0772
 20
90.386
 30
0.0
 10
-130.2024
 20
92.6261
 30
0.0
 10
-130.2024
 20
92.6261
 30
0.0
 10
-127.8085
 20
95.4889
 30
0.0
 10
-125.9277
 20
96.6261
 30
0.0
 10
-125.7746
 20
91.218
 30
0.0
  0
SPLINE
  5
65
330
1F
100
AcDbEntity
  8
layer 1
 62
     7
100
AcDbSpline
210
0.0
220
0.0
230
1.0
 70
    11
 71
     3
 72
    48
 73
    44
 74
     0
 42
0.0000000001
 43
0.0000000001
 12
1.0
 22
0.0
 32
0.0
 13
1.0
 23
0.0
 33
0.0
 40
0.0
 40
0.0
 40
0.0
 40
0.0
 40
0.0833333333333333
 40
0.0833333333333333
 40
0.0833333333333333
 40
0.0833333333333333
 40
0.1666666666666667
 40
0.1666666666666667
 40
0.1666666666666667
 40
0.1666666666666667
 40
0.25
 40
0.25
 40
0.25
 40
0.25
 40
0.3333333333333333
 40
0.3333333333333333
 40
0.3333333333333333
 40
0.3333333333333333
 40
0.4166666666666667
 40
0.4166666666666667
 40
0.4166666666666667
 40
0.4166666666666667
 40
0.5
 40
0.5
 40
0.5
 40
0.5
 40
0.5833333333333334
 40
0.5833333333333334
 40
0.5833333333333334
 40
0.5833333333333334
 40
0.6666666666666666
 40
0.6666666666666666
 40
0.6666666666666666
 40
0.6666666666666666
 40
0.75
 40
0.75
 40
0.75
 40
0.75
 40
0.8333333333333334
 40
0.8333333333333334
 40
0.8333333333333334
 40
0.8333333333333334
 40
1.0
 40
1.0
 40
1.0
 40
1.0
 10
-113.3571
 20
70.9957
 30
0.0
 10
-109.9376
 20
70.5725
 30
0.0
 10
-107.8489
 20
69.2728
 30
0.0
 10
-105.5656
 20
67.3142
 30
0.0
 10
-105.5656
 20
67.3142
 30
0.0
 10
-105.5656
 20
67.2247
 30
0.0
 10
-105.5656
 20
67.1363
 30
0.0
 10
-105.5656
 20
67.047
 30
0.0
 10
-105.5656
 20
67.047
 30
0.0
 10
-105.6197
 20
66.9878
 30
0.0
 10
-105.6742
 20
66.9286
 30
0.0
 10
-105.7281
 20
66.8695
 30
0.0
 10
-105.7281
 20
66.8695
 30
0.0
 10
-107.7436
 20
66.8053
 30
0.0
 10
-111.0243
 20
63.5736
 30
0.0
 10
-112.416
 20
62.4202
 30
0.0
 10
-112.416
 20
62.4202
 30
0.0
 10
-118.2516
 20
57.5842
 30
0.0
 10
-123.4503
 20
51.9308
 30
0.0
 10
-127.993
 20
45.6923
 30
0.0
 10
-127.993
 20
45.6923
 30
0.0
 10
-129.0891
 20
45.9504
 30
0.0
 10
-129.8919
 20
47.0622
 30
0.0
 10
-130.7652
 20
47.6491
 30
0.0
 10
-130.7652
 20
47.6491
 30
0.0
 10
-132.9336
 20
49.107
 30
0.0
 10
-138.5867
 20
50.3588
 30
0.0
 10
-138.8388
 20
53.5227
 30
0.0
 10
-138.8388
 20
53.5227
 30
0.0
 10
-137.3831
 20
54.8465
 30
0.0
 10
-135.624
 20
55.8557
 30
0.0
 10
-134.1089
 20
57.1706
 30
0.0
 10
-134.1089
 20
57.1706
 30
0.0
 10
-131.3613
 20
59.5541
 30
0.0
 10
-129.7379
 20
63.2515
 30
0.0
 10
-126.7691
 20
65.4457
 30
0.0
 10
-126.7691
 20
65.4457
 30
0.0
 10
-124.4202
 20
67.1819
 30
0.0
 10
-121.738
 20
68.2938
 30
0.0
 10
-119.1358
 20
69.6589
 30
0.0
 10
-119.1358
 20
69.6589
 30
0.0
 10
-116.6612
 20
70.9564
 30
0.0
 10
-116.2537
 20
71.3543
 30
0.0
 10
-113.3571
 20
70.9957
 30
0.0
  0
SPLINE
  5
66
330
1F
100
AcDbEntity
  8
layer 1
 62
     7
100
AcDbSpline
210
0.0
220
0.0
230
1.0
 70
    11
 71
     3
 72
    28
 73
    24
 74
     0
 42
0.0000000001
 43
0.0000000001
 12
1.0
 22
0.0
 32
0.0
 13
1.0
 23
0.0
 33
0.0
 40
0.0
 40
0.0
 40
0.0
 40
0.0
 40
0.1428571428571428
 40
0.1428571428571428
 40
0.1428571428571428
 40
0.1428571428571428
 40
0.2857142857142857
 40
0.2857142857142857
 40
0.2857142857142857
 40
0.2857142857142857
 40
0.4285714285714285
 40
0.4285714285714285
 40
0.4285714285714285
 40
0.4285714285714285
 40
0.5714285714285714
 40
0.5714285714285714
 40
0.5714285714285714
 40
0.5714285714285714
 40
0.7142857142857143
 40
0.7142857142857143
 40
0.7142857142857143
 40
0.7142857142857143
 40
1.0
 40
1.0
 40
1.0
 40
1.0
 10
-145.1348
 20
46.3965
 30
0.0
 10
-145.2082
 20
44.3919
 30
0.0
 10
-145.4837
 20
41.9779
 30
0.0
 10
-145.5262
 20
41.7771
 30
0.0
 10
-145.5262
 20
41.7771
 30
0.0
 10
-145.7843
 20
40.5561
 30
0.0
 10
-146.7254
 20
39.424
 30
0.0
 10
-147.3208
 20
38.4848
 30
0.0
 10
-147.3208
 20
38.4848
 30
0.0
 10
-147.8261
 20
37.6875
 30
0.0
 10
-148.8407
 20
35.7975
 30
0.0
 10
-149.9305
 20
36.5274
 30
0.0
 10
-149.9305
 20
36.5274
 30
0.0
 10
-150.3852
 20
38.4326
 30
0.0
 10
-148.1767
 20
41.0911
 30
0.0
 10
-147.9176
 20
44.6101
 30
0.0
 10
-147.9176
 20
44.6101
 30
0.0
 10
-147.7052
 20
47.4888
 30
0.0
 10
-148.8474
 20
49.5203
 30
0.0
 10
-146.4557
 20
49.0087
 30
0.0
 10
-146.4557
 20
49.0087
 30
0.0
 10
-144.7755
 20
48.6482
 30
0.0
 10
-145.0677
 20
48.2339
 30
0.0
 10
-145.1348
 20
46.3965
 30
0.0
  0
SPLINE
  5
67
330
1F
100
AcDbEntity
  8
layer 1
 62
     7
100
AcDbSpline
210
0.0
220
0.0
230
1.0
 70
    11
 71
     3
 72
    32
 73
    28
 74
     0
 42
0.0000000001
 43
0.0000000001
 12
1.0
 22
0.0
 32
0.0
 13
1.0
 23
0.0
 33
0.0
 40
0.0
 40
0.0
 40
0.0
 40
0.0
 40
0.125
 40
0.125
 40
0.125
 40
0.125
 40
0.25
 40
0.25
 40
0.25
 40
0.25
 40
0.375
 40
0.375
 40
0.375
 40
0.375
 40
0.5
 40
0.5
 40
0.5
 40
0.5
 40
0.625
 40
0.625
 40
0.625
 40
0.625
 40
0.75
 40
0.75
 40
0.75
 40
0.75
 40
1.0
 40
1.0
 40
1.0
 40
1.0
 10
-150.1102
 20
45.8098
 30
0.0
 10
-150.842
 20
40.6761
 30
0.0
 10
-153.5611
 20
35.4788
 30
0.0
 10
-154.0828
 20
30.201
 30
0.0
 10
-154.0828
 20
30.201
 30
0.0
 10
-154.7101
 20
23.8525
 30
0.0
 10
-153.0224
 20
15.5376
 30
0.0
 10
-157.1887
 20
12.1463
 30
0.0
 10
-157.1887
 20
12.1463
 30
0.0
 10
-157.2969
 20
12.1463
 30
0.0
 10
-157.406
 20
12.1463
 30
0.0
 10
-157.5147
 20
12.1463
 30
0.0
 10
-157.5147
 20
12.1463
 30
0.0
 10
-159.591
 20
16.4712
 30
0.0
 10
-159.6526
 20
23.8173
 30
0.0
 10
-158.4114
 20
29.3197
 30
0.0
 10
-158.4114
 20
29.3197
 30
0.0
 10
-157.4867
 20
33.4225
 30
0.0
 10
-156.6585
 20
37.4688
 30
0.0
 10
-155.3328
 20
41.3792
 30
0.0
 10
-155.3328
 20
41.3792
 30
0.0
 10
-154.1531
 20
44.8571
 30
0.0
 10
-153.7953
 20
46.1228
 30
0.0
 10
-152.4886
 20
47.378
 30
0.0
 10
-152.4886
 20
47.378
 30
0.0
 10
-150.4175
 20
49.3653
 30
0.0
 10
-149.7659
 20
48.2262
 30
0.0
 10
-150.1102
 20
45.8098
 30
0.0
  0
SPLINE
  5
68
330
1F
100
AcDbEntity
  8
layer 1
 62
     7
100
AcDbSpline
210
0.0
220
0.0
230
1.0
 70
    11
 71
     3
 72
    36
 73
    32
 74
     0
 42
0.0000000001
 43
0.0000000001
 12
1.0
 22
0.0
 32
0.0
 13
1.0
 23
0.0
 33
0.0
 40
0.0
 40
0.0
 40
0.0
 40
0.0
 40
0.1111111111111111
 40
0.1111111111111111
 40
0.1111111111111111
 40
0.1111111111111111
 40
0.2222222222222222
 40
0.2222222222222222
 40
0.2222222222222222
 40
0.2222222222222222
 40
0.3333333333333333
 40
0.3333333333333333
 40
0.3333333333333333
 40
0.3333333333333333
 40
0.4444444444444444
 40
0.4444444444444444
 40
0.4444444444444444
 40
0.4444444444444444
 40
0.5555555555555556
 40
0.5555555555555556
 40
0.5555555555555556
 40
0.5555555555555556
 40
0.6666666666666666
 40
0.6666666666666666
 40
0.6666666666666666
 40
0.6666666666666666
 40
0.7777777777777778
 40
0.7777777777777778
 40
0.7777777777777778
 40
0.7777777777777778
 40
1.0
 40
1.0
 40
1.0
 40
1.0
 10
-139.4291
 20
46.4588
 30
0.0
 10
-136.2957
 20
44.9909
 30
0.0
 10
-132.2851
 20
41.5098
 30
0.0
 10
-132.1438
 20
39.4723
 30
0.0
 10
-132.1438
 20
39.4723
 30
0.0
 10
-135.1409
 20
37.8109
 30
0.0
 10
-138.753
 20
27.9186
 30
0.0
 10
-142.1871
 20
20.0969
 30
0.0
 10
-142.1871
 20
20.0969
 30
0.0
 10
-144.5358
 20
14.7471
 30
0.0
 10
-147.6409
 20
8.5701
 30
0.0
 10
-150.9697
 20
4.008
 30
0.0
 10
-150.9697
 20
4.008
 30
0.0
 10
-152.4833
 20
1.9348
 30
0.0
 10
-154.0418
 20
-0.1421
 30
0.0
 10
-155.5976
 20
-0.6691
 30
0.0
 10
-155.5976
 20
-0.6691
 30
0.0
 10
-157.0818
 20
-0.1817
 30
0.0
 10
-151.418
 20
17.4546
 30
0.0
 10
-151.3982
 20
19.7104
 30
0.0
 10
-151.3982
 20
19.7104
 30
0.0
 10
-151.364
 20
23.5703
 30
0.0
 10
-151.4359
 20
28.3047
 30
0.0
 10
-150.1744
 20
31.188
 30
0.0
 10
-150.1744
 20
31.188
 30
0.0
 10
-148.7815
 20
34.3738
 30
0.0
 10
-145.8543
 20
35.6075
 30
0.0
 10
-144.4658
 20
38.1284
 30
0.0
 10
-144.4658
 20
38.1284
 30
0.0
 10
-142.6861
 20
41.3606
 30
0.0
 10
-144.9088
 20
49.0273
 30
0.0
 10
-139.4291
 20
46.4588
 30
0.0
  0
SPLINE
  5
69
330
1F
100
AcDbEntity
  8
layer 1
 62
     7
100
AcDbSpline
210
0.0
220
0.0
230
1.0
 70
    11
 71
     3
 72
    44
 73
    40
 74
     0
 42
0.0000000001
 43
0.0000000001
 12
1.0
 22
0.0
 32
0.0
 13
1.0
 23
0.0
 33
0.0
 40
0.0
 40
0.0
 40
0.0
 40
0.0
 40
0.0909090909090909
 40
0.0909090909090909
 40
0.0909090909090909
 40
0.0909090909090909
 40
0.1818181818181818
 40
0.1818181818181818
 40
0.1818181818181818
 40
0.1818181818181818
 40
0.2727272727272727
 40
0.2727272727272727
 40
0.2727272727272727
 40
0.2727272727272727
 40
0.3636363636363636
 40
0.3636363636363636
 40
0.3636363636363636
 40
0.3636363636363636
 40
0.4545454545454545
 40
0.4545454545454545
 40
0.4545454545454545
 40
0.4545454545454545
 40
0.5454545454545454
 40
0.5454545454545454
 40
0.5454545454545454
 40
0.5454545454545454
 40
0.6363636363636364
 40
0.6363636363636364
 40
0.6363636363636364
 40
0.6363636363636364
 40
0.7272727272727273
 40
0.7272727272727273
 40
0.7272727272727273
 40
0.7272727272727273
 40
0.8181818181818182
 40
0.8181818181818182
 40
0.8181818181818182
 40
0.8181818181818182
 40
1.0
 40
1.0
 40
1.0
 40
1.0
 10
-125.1382
 20
34.3919
 30
0.0
 10
-123.6227
 20
33.1977
 30
0.0
 10
-121.9877
 20
31.4717
 30
0.0
 10
-120.2447
 20
30.2096
 30
0.0
 10
-120.2447
 20
30.2096
 30
0.0
 10
-118.9132
 20
29.3492
 30
0.0
 10
-117.5811
 20
28.4896
 30
0.0
 10
-116.2489
 20
27.6291
 30
0.0
 10
-116.2489
 20
27.6291
 30
0.0
 10
-116.8018
 20
25.5086
 30
0.0
 10
-118.0423
 20
22.1332
 30
0.0
 10
-118.7775
 20
20.0655
 30
0.0
 10
-118.7775
 20
20.0655
 30
0.0
 10
-120.5373
 20
15.1136
 30
0.0
 10
-123.0309
 20
7.6396
 30
0.0
 10
-126.5248
 20
4.673
 30
0.0
 10
-126.5248
 20
4.673
 30
0.0
 10
-129.8618
 20
1.8382
 30
0.0
 10
-134.0942
 20
0.3094
 30
0.0
 10
-138.3496
 20
-1.5562
 30
0.0
 10
-138.3496
 20
-1.5562
 30
0.0
 10
-140.3849
 20
-2.4481
 30
0.0
 10
-144.8598
 20
-4.8849
 30
0.0
 10
-146.9951
 20
-5.0267
 30
0.0
 10
-146.9951
 20
-5.0267
 30
0.0
 10
-146.9951
 20
-4.9376
 30
0.0
 10
-146.9951
 20
-4.848
 30
0.0
 10
-146.9951
 20
-4.7599
 30
0.0
 10
-146.9951
 20
-4.7599
 30
0.0
 10
-144.5582
 20
0.0875
 30
0.0
 10
-140.9077
 20
4.29
 30
0.0
 10
-137.9416
 20
8.6768
 30
0.0
 10
-137.9416
 20
8.6768
 30
0.0
 10
-134.94
 20
13.1157
 30
0.0
 10
-133.7202
 20
16.7996
 30
0.0
 10
-131.7438
 20
21.6672
 30
0.0
 10
-131.7438
 20
21.6672
 30
0.0
 10
-129.9257
 20
26.1481
 30
0.0
 10
-127.55
 20
30.4453
 30
0.0
 10
-125.1382
 20
34.3919
 30
0.0
  0
SPLINE
  5
6A
330
1F
100
AcDbEntity
  8
layer 1
 62
     7
100
AcDbSpline
210
0.0
220
0.0
230
1.0
 70
    11
 71
     3
 72
    32
 73
    28
 74
     0
 42
0.0000000001
 43
0.0000000001
 12
1.0
 22
0.0
 32
0.0
 13
1.0
 23
0.0
 33
0.0
 40
0.0
 40
0.0
 40
0.0
 40
0.0
 40
0.125
 40
0.125
 40
0.125
 40
0.125
 40
0.25
 40
0.25
 40
0.25
 40
0.25
 40
0.375
 40
0.375
 40
0.375
 40
0.375
 40
0.5
 40
0.5
 40
0.5
 40
0.5
 40
0.625
 40
0.625
 40
0.625
 40
0.625
 40
0.75
 40
0.75
 40
0.75
 40
0.75
 40
1.0
 40
1.0
 40
1.0
 40
1.0
 10
-162.4888
 20
6.0687
 30
0.0
 10
-162.117
 20
3.6546
 30
0.0
 10
-162.0919
 20
0.4265
 30
0.0
 10
-162.3263
 20
-1.2887
 30
0.0
 10
-162.3263
 20
-1.2887
 30
0.0
 10
-162.9111
 20
-5.5689
 30
0.0
 10
-162.3075
 20
-10.6443
 30
0.0
 10
-163.1417
 20
-14.8142
 30
0.0
 10
-163.1417
 20
-14.8142
 30
0.0
 10
-163.5876
 20
-17.0427
 30
0.0
 10
-164.79
 20
-18.9141
 30
0.0
 10
-165.5882
 20
-20.8647
 30
0.0
 10
-165.5882
 20
-20.8647
 30
0.0
 10
-168.5012
 20
-28.4321
 30
0.0
 10
-170.0024
 20
-24.3895
 30
0.0
 10
-169.8069
 20
-18.0512
 30
0.0
 10
-169.8069
 20
-18.0512
 30
0.0
 10
-169.6166
 20
-11.8995
 30
0.0
 10
-168.1195
 20
-4.51
 30
0.0
 10
-166.8118
 20
0.9355
 30
0.0
 10
-166.8118
 20
0.9355
 30
0.0
 10
-166.3789
 20
2.7354
 30
0.0
 10
-166.0708
 20
4.7821
 30
0.0
 10
-165.4836
 20
6.5014
 30
0.0
 10
-165.4836
 20
6.5014
 30
0.0
 10
-164.226
 20
10.1853
 30
0.0
 10
-163.0622
 20
9.7949
 30
0.0
 10
-162.4888
 20
6.0687
 30
0.0
  0
SPLINE
  5
6B
330
1F
100
AcDbEntity
  8
layer 1
 62
     7
100
AcDbSpline
210
0.0
220
0.0
230
1.0
 70
    11
 71
     3
 72
    24
 73
    20
 74
     0
 42
0.0000000001
 43
0.0000000001
 12
1.0
 22
0.0
 32
0.0
 13
1.0
 23
0.0
 33
0.0
 40
0.0
 40
0.0
 40
0.0
 40
0.0
 40
0.1666666666666667
 40
0.1666666666666667
 40
0.1666666666666667
 40
0.1666666666666667
 40
0.3333333333333333
 40
0.3333333333333333
 40
0.3333333333333333
 40
0.3333333333333333
 40
0.5
 40
0.5
 40
0.5
 40
0.5
 40
0.6666666666666666
 40
0.6666666666666666
 40
0.6666666666666666
 40
0.6666666666666666
 40
1.0
 40
1.0
 40
1.0
 40
1.0
 10
-99.5863
 20
2.8313
 30
0.0
 10
-106.3592
 20
1.8711
 30
0.0
 10
-112.5992
 20
-0.1281
 30
0.0
 10
-118.1268
 20
-4.0961
 30
0.0
 10
-118.1268
 20
-4.0961
 30
0.0
 10
-119.523
 20
-4.1012
 30
0.0
 10
-127.4966
 20
-2.2776
 30
0.0
 10
-128.156
 20
-1.3787
 30
0.0
 10
-128.156
 20
-1.3787
 30
0.0
 10
-128.156
 20
-1.3486
 30
0.0
 10
-128.156
 20
-1.3186
 30
0.0
 10
-128.156
 20
-1.2887
 30
0.0
 10
-128.156
 20
-1.2887
 30
0.0
 10
-127.1431
 20
0.1858
 30
0.0
 10
-122.837
 20
1.7424
 30
0.0
 10
-116.528
 20
2.7175
 30
0.0
 10
-116.528
 20
2.7175
 30
0.0
 10
-109.3765
 20
3.8231
 30
0.0
 10
-100.8814
 20
3.7903
 30
0.0
 10
-99.5863
 20
2.8313
 30
0.0
  0
SPLINE
  5
6C
330
1F
100
AcDbEntity
  8
layer 1
 62
     7
100
AcDbSpline
210
0.0
220
0.0
230
1.0
 70
    11
 71
     3
 72
    40
 73
    36
 74
     0
 42
0.0000000001
 43
0.0000000001
 12
1.0
 22
0.0
 32
0.0
 13
1.0
 23
0.0
 33
0.0
 40
0.0
 40
0.0
 40
0.0
 40
0.0
 40
0.1
 40
0.1
 40
0.1
 40
0.1
 40
0.2
 40
0.2
 40
0.2
 40
0.2
 40
0.3
 40
0.3
 40
0.3
 40
0.3
 40
0.4
 40
0.4
 40
0.4
 40
0.4
 40
0.5
 40
0.5
 40
0.5
 40
0.5
 40
0.6
 40
0.6
 40
0.6
 40
0.6
 40
0.7
 40
0.7
 40
0.7
 40
0.7
 40
0.8
 40
0.8
 40
0.8
 40
0.8
 40
1.0
 40
1.0
 40
1.0
 40
1.0
 10
-120.5714
 20
-6.8061
 30
0.0
 10
-124.1729
 20
-8.7936
 30
0.0
 10
-128.19
 20
-17.364
 30
0.0
 10
-129.3786
 20
-21.1319
 30
0.0
 10
-129.3786
 20
-21.1319
 30
0.0
 10
-130.3094
 20
-24.0795
 30
0.0
 10
-131.3
 20
-26.6414
 30
0.0
 10
-132.3148
 20
-29.2287
 30
0.0
 10
-132.3148
 20
-29.2287
 30
0.0
 10
-132.5323
 20
-29.9998
 30
0.0
 10
-132.7499
 20
-30.7712
 30
0.0
 10
-132.9676
 20
-31.5424
 30
0.0
 10
-132.9676
 20
-31.5424
 30
0.0
 10
-134.7939
 20
-35.2007
 30
0.0
 10
-139.0372
 20
-37.2773
 30
0.0
 10
-142.2638
 20
-39.4614
 30
0.0
 10
-142.2638
 20
-39.4614
 30
0.0
 10
-143.655
 20
-40.4028
 30
0.0
 10
-150.5737
 20
-44.9612
 30
0.0
 10
-152.2957
 20
-44.1774
 30
0.0
 10
-152.2957
 20
-44.1774
 30
0.0
 10
-152.329
 20
-42.1037
 30
0.0
 10
-148.5869
 20
-31.2196
 30
0.0
 10
-147.7286
 20
-28.3392
 30
0.0
 10
-147.7286
 20
-28.3392
 30
0.0
 10
-146.6631
 20
-24.7659
 30
0.0
 10
-144.8419
 20
-18.8571
 30
0.0
 10
-145.7548
 20
-13.4614
 30
0.0
 10
-145.7548
 20
-13.4614
 30
0.0
 10
-142.9908
 20
-10.7278
 30
0.0
 10
-138.423
 20
-8.0191
 30
0.0
 10
-134.191
 20
-6.2725
 30
0.0
 10
-134.191
 20
-6.2725
 30
0.0
 10
-132.493
 20
-5.5716
 30
0.0
 10
-123.7024
 20
-5.6068
 30
0.0
 10
-120.5714
 20
-6.8061
 30
0.0
  0
SPLINE
  5
6D
330
1F
100
AcDbEntity
  8
layer 1
 62
     7
100
AcDbSpline
210
0.0
220
0.0
230
1.0
 70
    11
 71
     3
 72
    32
 73
    28
 74
     0
 42
0.0000000001
 43
0.0000000001
 12
1.0
 22
0.0
 32
0.0
 13
1.0
 23
0.0
 33
0.0
 40
0.0
 40
0.0
 40
0.0
 40
0.0
 40
0.125
 40
0.125
 40
0.125
 40
0.125
 40
0.25
 40
0.25
 40
0.25
 40
0.25
 40
0.375
 40
0.375
 40
0.375
 40
0.375
 40
0.5
 40
0.5
 40
0.5
 40
0.5
 40
0.625
 40
0.625
 40
0.625
 40
0.625
 40
0.75
 40
0.75
 40
0.75
 40
0.75
 40
1.0
 40
1.0
 40
1.0
 40
1.0
 10
-149.7456
 20
-20.9876
 30
0.0
 10
-150.7077
 20
-30.5059
 30
0.0
 10
-156.2732
 20
-43.0854
 30
0.0
 10
-160.1244
 20
-48.4488
 30
0.0
 10
-160.1244
 20
-48.4488
 30
0.0
 10
-161.413
 20
-50.2429
 30
0.0
 10
-163.1371
 20
-52.8645
 30
0.0
 10
-164.9361
 20
-54.0543
 30
0.0
 10
-164.9361
 20
-54.0543
 30
0.0
 10
-164.9633
 20
-54.0543
 30
0.0
 10
-164.9901
 20
-54.0543
 30
0.0
 10
-165.0174
 20
-54.0543
 30
0.0
 10
-165.0174
 20
-54.0543
 30
0.0
 10
-165.0447
 20
-53.9652
 30
0.0
 10
-165.0715
 20
-53.8761
 30
0.0
 10
-165.0993
 20
-53.7868
 30
0.0
 10
-165.0993
 20
-53.7868
 30
0.0
 10
-161.1017
 20
-42.0441
 30
0.0
 10
-159.0297
 20
-36.1025
 30
0.0
 10
-155.0681
 20
-24.1567
 30
0.0
 10
-155.0681
 20
-24.1567
 30
0.0
 10
-153.9276
 20
-23.1796
 30
0.0
 10
-152.8218
 20
-22.2126
 30
0.0
 10
-151.8068
 20
-21.0728
 30
0.0
 10
-151.8068
 20
-21.0728
 30
0.0
 10
-150.1012
 20
-19.1584
 30
0.0
 10
-149.3209
 20
-16.7863
 30
0.0
 10
-149.7456
 20
-20.9876
 30
0.0
  0
SPLINE
  5
6E
330
1F
100
AcDbEntity
  8
layer 1
 62
     7
100
AcDbSpline
210
0.0
220
0.0
230
1.0
 70
    11
 71
     3
 72
    36
 73
    32
 74
     0
 42
0.0000000001
 43
0.0000000001
 12
1.0
 22
0.0
 32
0.0
 13
1.0
 23
0.0
 33
0.0
 40
0.0
 40
0.0
 40
0.0
 40
0.0
 40
0.1111111111111111
 40
0.1111111111111111
 40
0.1111111111111111
 40
0.1111111111111111
 40
0.2222222222222222
 40
0.2222222222222222
 40
0.2222222222222222
 40
0.2222222222222222
 40
0.3333333333333333
 40
0.3333333333333333
 40
0.3333333333333333
 40
0.3333333333333333
 40
0.4444444444444444
 40
0.4444444444444444
 40
0.4444444444444444
 40
0.4444444444444444
 40
0.5555555555555556
 40
0.5555555555555556
 40
0.5555555555555556
 40
0.5555555555555556
 40
0.6666666666666666
 40
0.6666666666666666
 40
0.6666666666666666
 40
0.6666666666666666
 40
0.7777777777777778
 40
0.7777777777777778
 40
0.7777777777777778
 40
0.7777777777777778
 40
1.0
 40
1.0
 40
1.0
 40
1.0
 10
-127.585
 20
-51.2746
 30
0.0
 10
-127.585
 20
-51.3927
 30
0.0
 10
-127.585
 20
-51.7106
 30
0.0
 10
-127.585
 20
-51.8297
 30
0.0
 10
-127.585
 20
-51.8297
 30
0.0
 10
-130.1556
 20
-53.8957
 30
0.0
 10
-134.3569
 20
-64.4316
 30
0.0
 10
-135.7401
 20
-68.2908
 30
0.0
 10
-135.7401
 20
-68.2908
 30
0.0
 10
-136.5062
 20
-70.4278
 30
0.0
 10
-137.1016
 20
-74.0996
 30
0.0
 10
-139.41
 20
-74.4302
 30
0.0
 10
-139.41
 20
-74.4302
 30
0.0
 10
-141.018
 20
-72.1928
 30
0.0
 10
-146.7334
 20
-68.527
 30
0.0
 10
-149.359
 20
-67.312
 30
0.0
 10
-149.359
 20
-67.312
 30
0.0
 10
-150.6826
 20
-66.7002
 30
0.0
 10
-152.7889
 20
-66.3994
 30
0.0
 10
-153.7632
 20
-65.3544
 30
0.0
 10
-153.7632
 20
-65.3544
 30
0.0
 10
-153.7644
 20
-62.9849
 30
0.0
 10
-154.0889
 20
-59.5009
 30
0.0
 10
-153.845
 20
-57.4357
 30
0.0
 10
-153.845
 20
-57.4357
 30
0.0
 10
-151.5566
 20
-55.9124
 30
0.0
 10
-148.9892
 20
-51.6621
 30
0.0
 10
-146.8307
 20
-50.7615
 30
0.0
 10
-146.8307
 20
-50.7615
 30
0.0
 10
-143.669
 20
-49.4425
 30
0.0
 10
-130.8169
 20
-49.3863
 30
0.0
 10
-127.585
 20
-51.2746
 30
0.0
  0
SPLINE
  5
6F
330
1F
100
AcDbEntity
  8
layer 1
 62
     7
100
AcDbSpline
210
0.0
220
0.0
230
1.0
 70
    11
 71
     3
 72
    28
 73
    24
 74
     0
 42
0.0000000001
 43
0.0000000001
 12
1.0
 22
0.0
 32
0.0
 13
1.0
 23
0.0
 33
0.0
 40
0.0
 40
0.0
 40
0.0
 40
0.0
 40
0.1428571428571428
 40
0.1428571428571428
 40
0.1428571428571428
 40
0.1428571428571428
 40
0.2857142857142857
 40
0.2857142857142857
 40
0.2857142857142857
 40
0.2857142857142857
 40
0.4285714285714285
 40
0.4285714285714285
 40
0.4285714285714285
 40
0.4285714285714285
 40
0.5714285714285714
 40
0.5714285714285714
 40
0.5714285714285714
 40
0.5714285714285714
 40
0.7142857142857143
 40
0.7142857142857143
 40
0.7142857142857143
 40
0.7142857142857143
 40
1.0
 40
1.0
 40
1.0
 40
1.0
 10
-150.6553
 20
-71.3291
 30
0.0
 10
-147.944
 20
-72.8514
 30
0.0
 10
-143.7359
 20
-76.3388
 30
0.0
 10
-143.5691
 20
-77.545
 30
0.0
 10
-143.5691
 20
-77.545
 30
0.0
 10
-143.6231
 20
-77.545
 30
0.0
 10
-143.6777
 20
-77.545
 30
0.0
 10
-143.7325
 20
-77.545
 30
0.0
 10
-143.7325
 20
-77.545
 30
0.0
 10
-146.8022
 20
-79.0666
 30
0.0
 10
-151.3495
 20
-79.8365
 30
0.0
 10
-154.8236
 20
-80.6589
 30
0.0
 10
-154.8236
 20
-80.6589
 30
0.0
 10
-154.9322
 20
-80.5116
 30
0.0
 10
-155.0411
 20
-80.3621
 30
0.0
 10
-155.1495
 20
-80.2141
 30
0.0
 10
-155.1495
 20
-80.2141
 30
0.0
 10
-154.7393
 20
-77.7031
 30
0.0
 10
-154.7007
 20
-75.0705
 30
0.0
 10
-154.4515
 20
-73.0047
 30
0.0
 10
-154.4515
 20
-73.0047
 30
0.0
 10
-153.9114
 20
-68.5315
 30
0.0
 10
-153.1784
 20
-69.9104
 30
0.0
 10
-150.6553
 20
-71.3291
 30
0.0
  0
SPLINE
  5
70
330
1F
100
AcDbEntity
  8
layer 1
 62
     7
100
AcDbSpline
210
0.0
220
0.0
230
1.0
 70
    11
 71
     3
 72
    20
 73
    16
 74
     0
 42
0.0000000001
 43
0.0000000001
 12
1.0
 22
0.0
 32
0.0
 13
1.0
 23
0.0
 33
0.0
 40
0.0
 40
0.0
 40
0.0
 40
0.0
 40
0.2
 40
0.2
 40
0.2
 40
0.2
 40
0.4
 40
0.4
 40
0.4
 40
0.4
 40
0.6
 40
0.6
 40
0.6
 40
0.6
 40
1.0
 40
1.0
 40
1.0
 40
1.0
 10
-144.3298
 20
-85.4911
 30
0.0
 10
-143.9191
 20
-85.3703
 30
0.0
 10
-145.0322
 20
-96.5167
 30
0.0
 10
-148.6255
 20
-95.7851
 30
0.0
 10
-148.6255
 20
-95.7851
 30
0.0
 10
-148.6796
 20
-95.6661
 30
0.0
 10
-148.7342
 20
-95.548
 30
0.0
 10
-148.7888
 20
-95.4295
 30
0.0
 10
-148.7888
 20
-95.4295
 30
0.0
 10
-148.3843
 20
-93.342
 30
0.0
 10
-147.5504
 20
-88.42
 30
0.0
 10
-147.4022
 20
-86.7096
 30
0.0
 10
-147.4022
 20
-86.7096
 30
0.0
 10
-146.8681
 20
-86.4971
 30
0.0
 10
-144.3786
 20
-85.4531
 30
0.0
 10
-144.3298
 20
-85.4911
 30
0.0
  0
ENDSEC
  0
SECTION
  2
OBJECTS
  0
DICTIONARY
  5
C
330
0
100
AcDbDictionary
281
     1
  3
ACAD_GROUP
350
D
  3
ACAD_LAYOUT
350
1A
  3
ACAD_MATERIAL
350
3B
  3
ACAD_MLEADERSTYLE
350
92
  3
ACAD_MLINESTYLE
350
17
  3
ACAD_PLOTSETTINGS
350
19
  3
ACAD_PLOTSTYLENAME
350
E
  3
ACAD_TABLESTYLE
350
91
  3
ACAD_VISUALSTYLE
350
2A
  0
DICTIONARY
  5
D
102
{ACAD_REACTORS
330
C
102
}
330
C
100
AcDbDictionary
281
     1
  0
DICTIONARY
  5
1A
102
{ACAD_REACTORS
330
C
102
}
330
C
100
AcDbDictionary
281
     1
  3
Layout1
350
1E
  3
Layout2
350
26
  3
Model
350
22
  0
DICTIONARY
  5
3B
102
{ACAD_REACTORS
330
C
102
}
330
C
100
AcDbDictionary
281
     1
  3
ByBlock
350
3D
  3
ByLayer
350
3C
  3
Global
350
3E
  0
DICTIONARY
  5
92
102
{ACAD_REACTORS
330
C
102
}
330
C
100
AcDbDictionary
281
     1
  0
DICTIONARY
  5
17
102
{ACAD_REACTORS
330
C
102
}
330
C
100
AcDbDictionary
281
     1
  3
Standard
350
18
  0
DICTIONARY
  5
19
102
{ACAD_REACTORS
330
C
102
}
330
C
100
AcDbDictionary
281
     1
  0
ACDBDICTIONARYWDFLT
  5
E
102
{ACAD_REACTORS
330
C
102
}
330
C
100
AcDbDictionary
281
     1
  3
Normal
350
F
100
AcDbDictionaryWithDefault
340
F
  0
DICTIONARY
  5
91
102
{ACAD_REACTORS
330
C
102
}
330
C
100
AcDbDictionary
281
     1
  0
DICTIONARY
  5
2A
102
{ACAD_REACTORS
330
C
102
}
330
C
100
AcDbDictionary
281
     1
  3
2dWireframe
350
2F
  3
3D Hidden
350
31
  3
3dWireframe
350
30
  3
Basic
350
32
  3
Brighten
350
36
  3
ColorChange
350
3A
  3
Conceptual
350
34
  3
Dim
350
35
  3
Facepattern
350
39
  3
Flat
350
2B
  3
FlatWithEdges
350
2C
  3
Gouraud
350
2D
  3
GouraudWithEdges
350
2E
  3
Linepattern
350
38
  3
Realistic
350
33
  3
Thicken
350
37
  0
LAYOUT
  5
1E
102
{ACAD_REACTORS
330
1A
102
}
330
1A
100
AcDbPlotSettings
  1

  2
none_device
  4

  6

 40
0.0
 41
0.0
 42
0.0
 43
0.0
 44
0.0
 45
0.0
 46
0.0
 47
0.0
 48
0.0
 49
0.0
140
0.0
141
0.0
142
1.0
143
1.0
 70
   688
 72
     0
 73
     0
 74
     5
  7

 75
    16
 76
     0
 77
     2
 78
   300
147
1.0
148
0.0
149
0.0
100
AcDbLayout
  1
Layout1
 70
     1
 71
     1
 10
0.0
 20
0.0
 11
12.0
 21
9.0
 12
0.0
 22
0.0
 32
0.0
 14
1.000000000000000E+20
 24
1.000000000000000E+20
 34
1.000000000000000E+20
 15
-1.000000000000000E+20
 25
-1.000000000000000E+20
 35
-1.000000000000000E+20
146
0.0
 13
0.0
 23
0.0
 33
0.0
 16
1.0
 26
0.0
 36
0.0
 17
0.0
 27
1.0
 37
0.0
 76
     0
330
1B
  0
LAYOUT
  5
26
102
{ACAD_REACTORS
330
1A
102
}
330
1A
100
AcDbPlotSettings
  1

  2
none_device
  4

  6

 40
0.0
 41
0.0
 42
0.0
 43
0.0
 44
0.0
 45
0.0
 46
0.0
 47
0.0
 48
0.0
 49
0.0
140
0.0
141
0.0
142
1.0
143
1.0
 70
   688
 72
     0
 73
     0
 74
     5
  7

 75
    16
 76
     0
 77
     2
 78
   300
147
1.0
148
0.0
149
0.0
100
AcDbLayout
  1
Layout2
 70
     1
 71
     2
 10
0.0
 20
0.0
 11
0.0
 21
0.0
 12
0.0
 22
0.0
 32
0.0
 14
0.0
 24
0.0
 34
0.0
 15
0.0
 25
0.0
 35
0.0
146
0.0
 13
0.0
 23
0.0
 33
0.0
 16
1.0
 26
0.0
 36
0.0
 17
0.0
 27
1.0
 37
0.0
 76
     0
330
23
  0
LAYOUT
  5
22
102
{ACAD_REACTORS
330
1A
102
}
330
1A
100
AcDbPlotSettings
  1

  2
none_device
  4

  6

 40
0.0
 41
0.0
 42
0.0
 43
0.0
 44
0.0
 45
0.0
 46
0.0
 47
0.0
 48
0.0
 49
0.0
140
0.0
141
0.0
142
1.0
143
1.0
 70
  1712
 72
     0
 73
     0
 74
     0
  7

 75
     0
 76
     0
 77
     2
 78
   300
147
1.0
148
0.0
149
0.0
100
AcDbLayout
  1
Model
 70
     1
 71
     0
 10
0.0
 20
0.0
 11
12.0
 21
9.0
 12
0.0
 22
0.0
 32
0.0
 14
-187.567
 24
-106.5821
 34
0.0
 15
-96.2095
 25
131.7419
 35
0.0
146
0.0
 13
0.0
 23
0.0
 33
0.0
 16
1.0
 26
0.0
 36
0.0
 17
0.0
 27
1.0
 37
0.0
 76
     0
330
1F
331
29
  0
MATERIAL
  5
3D
102
{ACAD_REACTORS
330
3B
102
}
330
3B
100
AcDbMaterial
  1
ByBlock
 72
     1
 94
      127
  0
MATERIAL
  5
3C
102
{ACAD_REACTORS
330
3B
102
}
330
3B
100
AcDbMaterial
  1
ByLayer
 72
     1
 94
      127
  0
MATERIAL
  5
3E
102
{ACAD_REACTORS
330
3B
102
}
330
3B
100
AcDbMaterial
  1
Global
 72
     1
 94
      127
  0
MLINESTYLE
  5
18
102
{ACAD_REACTORS
330
17
102
}
330
17
100
AcDbMlineStyle
  2
Standard
 70
     0
  3

 62
   256
 51
90.0
 52
90.0
 71
     2
 49
0.5
 62
   256
  6
BYLAYER
 49
-0.5
 62
   256
  6
BYLAYER
  0
ACDBPLACEHOLDER
  5
F
102
{ACAD_REACTORS
330
E
102
}
330
E
  0
VISUALSTYLE
  5
2F
102
{ACAD_REACTORS
330
2A
102
}
102
{ACAD_XDICTIONARY
360
79
102
}
330
2A
100
AcDbVisualStyle
  2
2dWireframe
 70
     4
 71
     0
 72
     2
 73
     0
 90
        0
 40
-0.6
 41
-30.0
 62
     5
 63
     7
421
 16777215
 74
     1
 91
        4
 64
     7
 65
   257
 75
     1
175
     1
 42
1.0
 92
        0
 66
   257
 43
1.0
 76
     1
 77
     6
 78
     2
 67
     7
 79
     5
170
     0
171
     0
290
     0
174
     0
 93
        1
 44
0.0
173
     0
291
     0
 45
0.0
  0
VISUALSTYLE
  5
31
102
{ACAD_REACTORS
330
2A
102
}
102
{ACAD_XDICTIONARY
360
7D
102
}
330
2A
100
AcDbVisualStyle
  2
3D Hidden
 70
     6
 71
     1
 72
     2
 73
     2
 90
        0
 40
-0.6
 41
-30.0
 62
     5
 63
     7
421
 16777215
 74
     2
 91
        2
 64
     7
 65
   257
 75
     2
175
     1
 42
40.0
 92
        0
 66
   257
 43
1.0
 76
     1
 77
     6
 78
     2
 67
     7
 79
     3
170
     0
171
     0
290
     0
174
     0
 93
        1
 44
0.0
173
     0
291
     0
 45
0.0
  0
VISUALSTYLE
  5
30
102
{ACAD_REACTORS
330
2A
102
}
102
{ACAD_XDICTIONARY
360
7B
102
}
330
2A
100
AcDbVisualStyle
  2
3dWireframe
 70
     5
 71
     0
 72
     2
 73
     0
 90
        0
 40
-0.6
 41
-30.0
 62
     5
 63
     7
421
 16777215
 74
     1
 91
        4
 64
     7
 65
   257
 75
     1
175
     1
 42
1.0
 92
        0
 66
   257
 43
1.0
 76
     1
 77
     6
 78
     2
 67
     7
 79
     5
170
     0
171
     0
290
     0
174
     0
 93
        1
 44
0.0
173
     0
291
     0
 45
0.0
  0
VISUALSTYLE
  5
32
102
{ACAD_REACTORS
330
2A
102
}
102
{ACAD_XDICTIONARY
360
7F
102
}
330
2A
100
AcDbVisualStyle
  2
Basic
 70
     7
 71
     1
 72
     0
 73
     1
 90
        0
 40
-0.6
 41
-30.0
 62
     5
 63
     7
421
 16777215
 74
     0
 91
        4
 64
     7
 65
   257
 75
     1
175
     1
 42
1.0
 92
        8
 66
     7
 43
1.0
 76
     1
 77
     6
 78
     2
 67
     7
 79
     5
170
     0
171
     0
290
     0
174
     0
 93
        1
 44
0.0
173
     0
291
     1
 45
0.0
  0
VISUALSTYLE
  5
36
102
{ACAD_REACTORS
330
2A
102
}
102
{ACAD_XDICTIONARY
360
87
102
}
330
2A
100
AcDbVisualStyle
  2
Brighten
 70
    12
 71
     2
 72
     2
 73
     0
 90
        0
 40
-0.6
 41
-30.0
 62
     5
 63
     7
421
 16777215
 74
     1
 91
        4
 64
     7
 65
   257
 75
     1
175
     1
 42
1.0
 92
        8
 66
     7
 43
1.0
 76
     1
 77
     6
 78
     2
 67
     7
 79
     5
170
     0
171
     0
290
     0
174
     0
 93
        1
 44
50.0
173
     0
291
     1
 45
0.0
  0
VISUALSTYLE
  5
3A
102
{ACAD_REACTORS
330
2A
102
}
102
{ACAD_XDICTIONARY
360
8F
102
}
330
2A
100
AcDbVisualStyle
  2
ColorChange
 70
    16
 71
     2
 72
     2
 73
     3
 90
        0
 40
-0.6
 41
-30.0
 62
     5
 63
     8
421
  8421504
 74
     1
 91
        4
 64
     7
 65
   257
 75
     1
175
     1
 42
1.0
 92
        8
 66
     8
424
  8421504
 43
1.0
 76
     1
 77
     6
 78
     2
 67
     7
 79
     5
170
     0
171
     0
290
     0
174
     0
 93
        1
 44
0.0
173
     0
291
     1
 45
0.0
  0
VISUALSTYLE
  5
34
102
{ACAD_REACTORS
330
2A
102
}
102
{ACAD_XDICTIONARY
360
83
102
}
330
2A
100
AcDbVisualStyle
  2
Conceptual
 70
     9
 71
     3
 72
     2
 73
     0
 90
        0
 40
-0.6
 41
-30.0
 62
     5
 63
     7
421
 16777215
 74
     2
 91
        2
 64
     7
 65
   257
 75
     1
175
     1
 42
40.0
 92
        8
 66
     7
 43
1.0
 76
     1
 77
     6
 78
     2
 67
     7
 79
     3
170
     0
171
     0
290
     0
174
     0
 93
        1
 44
0.0
173
     0
291
     0
 45
0.0
  0
VISUALSTYLE
  5
35
102
{ACAD_REACTORS
330
2A
102
}
102
{ACAD_XDICTIONARY
360
85
102
}
330
2A
100
AcDbVisualStyle
  2
Dim
 70
    11
 71
     2
 72
     2
 73
     0
 90
        0
 40
-0.6
 41
-30.0
 62
     5
 63
     7
421
 16777215
 74
     1
 91
        4
 64
     7
 65
   257
 75
     1
175
     1
 42
1.0
 92
        8
 66
     7
 43
1.0
 76
     1
 77
     6
 78
     2
 67
     7
 79
     5
170
     0
171
     0
290
     0
174
     0
 93
        1
 44
-50.0
173
     0
291
     1
 45
0.0
  0
VISUALSTYLE
  5
39
102
{ACAD_REACTORS
330
2A
102
}
102
{ACAD_XDICTIONARY
360
8D
102
}
330
2A
100
AcDbVisualStyle
  2
Facepattern
 70
    15
 71
     2
 72
     2
 73
     0
 90
        0
 40
-0.6
 41
-30.0
 62
     5
 63
     7
421
 16777215
 74
     1
 91
        4
 64
     7
 65
   257
 75
     1
175
     1
 42
1.0
 92
        8
 66
     7
 43
1.0
 76
     1
 77
     6
 78
     2
 67
     7
 79
     5
170
     0
171
     0
290
     0
174
     0
 93
        1
 44
0.0
173
     0
291
     1
 45
0.0
  0
VISUALSTYLE
  5
2B
102
{ACAD_REACTORS
330
2A
102
}
102
{ACAD_XDICTIONARY
360
71
102
}
330
2A
100
AcDbVisualStyle
  2
Flat
 70
     0
 71
     2
 72
     1
 73
     1
 90
        2
 40
-0.6
 41
30.0
 62
     5
 63
     7
421
 16777215
 74
     0
 91
        4
 64
     7
 65
   257
 75
     1
175
     1
 42
1.0
 92
        8
 66
     7
 43
1.0
 76
     1
 77
     6
 78
     2
 67
     7
 79
     5
170
     0
171
     0
290
     0
174
     0
 93
       13
 44
0.0
173
     0
291
     1
 45
0.0
  0
VISUALSTYLE
  5
2C
102
{ACAD_REACTORS
330
2A
102
}
102
{ACAD_XDICTIONARY
360
73
102
}
330
2A
100
AcDbVisualStyle
  2
FlatWithEdges
 70
     1
 71
     2
 72
     1
 73
     1
 90
        2
 40
-0.6
 41
30.0
 62
     5
 63
     7
421
 16777215
 74
     1
 91
        4
 64
     7
 65
   257
 75
     1
175
     1
 42
1.0
 92
        0
 66
   257
 43
1.0
 76
     1
 77
     6
 78
     2
 67
     7
 79
     5
170
     0
171
     0
290
     0
174
     0
 93
       13
 44
0.0
173
     0
291
     1
 45
0.0
  0
VISUALSTYLE
  5
2D
102
{ACAD_REACTORS
330
2A
102
}
102
{ACAD_XDICTIONARY
360
75
102
}
330
2A
100
AcDbVisualStyle
  2
Gouraud
 70
     2
 71
     2
 72
     2
 73
     1
 90
        2
 40
-0.6
 41
30.0
 62
     5
 63
     7
421
 16777215
 74
     0
 91
        4
 64
     7
 65
   257
 75
     1
175
     1
 42
1.0
 92
        0
 66
     7
 43
1.0
 76
     1
 77
     6
 78
     2
 67
     7
 79
     5
170
     0
171
     0
290
     0
174
     0
 93
       13
 44
0.0
173
     0
291
     1
 45
0.0
  0
VISUALSTYLE
  5
2E
102
{ACAD_REACTORS
330
2A
102
}
102
{ACAD_XDICTIONARY
360
77
102
}
330
2A
100
AcDbVisualStyle
  2
GouraudWithEdges
 70
     3
 71
     2
 72
     2
 73
     1
 90
        2
 40
-0.6
 41
30.0
 62
     5
 63
     7
421
 16777215
 74
     1
 91
        4
 64
     7
 65
   257
 75
     1
175
     1
 42
1.0
 92
        0
 66
   257
 43
1.0
 76
     1
 77
     6
 78
     2
 67
     7
 79
     5
170
     0
171
     0
290
     0
174
     0
 93
       13
 44
0.0
173
     0
291
     1
 45
0.0
  0
VISUALSTYLE
  5
38
102
{ACAD_REACTORS
330
2A
102
}
102
{ACAD_XDICTIONARY
360
8B
102
}
330
2A
100
AcDbVisualStyle
  2
Linepattern
 70
    14
 71
     2
 72
     2
 73
     0
 90
        0
 40
-0.6
 41
-30.0
 62
     5
 63
     7
421
 16777215
 74
     1
 91
        4
 64
     7
 65
   257
 75
     7
175
     7
 42
1.0
 92
        8
 66
     7
 43
1.0
 76
     1
 77
     6
 78
     2
 67
     7
 79
     5
170
     0
171
     0
290
     0
174
     0
 93
        1
 44
0.0
173
     0
291
     1
 45
0.0
  0
VISUALSTYLE
  5
33
102
{ACAD_REACTORS
330
2A
102
}
102
{ACAD_XDICTIONARY
360
81
102
}
330
2A
100
AcDbVisualStyle
  2
Realistic
 70
     8
 71
     2
 72
     2
 73
     0
 90
        0
 40
-0.6
 41
-30.0
 62
     5
 63
     7
421
 16777215
 74
     1
 91
        0
 64
     7
 65
   257
 75
     1
175
     1
 42
1.0
 92
        8
 66
     8
424
  7895160
 43
1.0
 76
     1
 77
     6
 78
     2
 67
     7
 79
     5
170
     0
171
     0
290
     0
174
     0
 93
       13
 44
0.0
173
     0
291
     0
 45
0.0
  0
VISUALSTYLE
  5
37
102
{ACAD_REACTORS
330
2A
102
}
102
{ACAD_XDICTIONARY
360
89
102
}
330
2A
100
AcDbVisualStyle
  2
Thicken
 70
    13
 71
     2
 72
     2
 73
     0
 90
        0
 40
-0.6
 41
-30.0
 62
     5
 63
     7
421
 16777215
 74
     1
 91
        4
 64
     7
 65
   257
 75
     1
175
     1
 42
1.0
 92
       12
 66
     7
 43
1.0
 76
     1
 77
     6
 78
     2
 67
     7
 79
     5
170
     0
171
     0
290
     0
174
     0
 93
        1
 44
0.0
173
     0
291
     1
 45
0.0
  0
DICTIONARY
  5
79
330
2F
100
AcDbDictionary
280
     1
281
     1
  3
ACAD_XREC_ROUNDTRIP
360
7A
  0
DICTIONARY
  5
7D
330
31
100
AcDbDictionary
280
     1
281
     1
  3
ACAD_XREC_ROUNDTRIP
360
7E
  0
DICTIONARY
  5
7B
330
30
100
AcDbDictionary
280
     1
281
     1
  3
ACAD_XREC_ROUNDTRIP
360
7C
  0
DICTIONARY
  5
7F
330
32
100
AcDbDictionary
280
     1
281
     1
  3
ACAD_XREC_ROUNDTRIP
360
80
  0
DICTIONARY
  5
87
330
36
100
AcDbDictionary
280
     1
281
     1
  3
ACAD_XREC_ROUNDTRIP
360
88
  0
DICTIONARY
  5
8F
330
3A
100
AcDbDictionary
280
     1
281
     1
  3
ACAD_XREC_ROUNDTRIP
360
90
  0
DICTIONARY
  5
83
330
34
100
AcDbDictionary
280
     1
281
     1
  3
ACAD_XREC_ROUNDTRIP
360
84
  0
DICTIONARY
  5
85
330
35
100
AcDbDictionary
280
     1
281
     1
  3
ACAD_XREC_ROUNDTRIP
360
86
  0
DICTIONARY
  5
8D
330
39
100
AcDbDictionary
280
     1
281
     1
  3
ACAD_XREC_ROUNDTRIP
360
8E
  0
DICTIONARY
  5
71
330
2B
100
AcDbDictionary
280
     1
281
     1
  3
ACAD_XREC_ROUNDTRIP
360
72
  0
DICTIONARY
  5
73
330
2C
100
AcDbDictionary
280
     1
281
     1
  3
ACAD_XREC_ROUNDTRIP
360
74
  0
DICTIONARY
  5
75
330
2D
100
AcDbDictionary
280
     1
281
     1
  3
ACAD_XREC_ROUNDTRIP
360
76
  0
DICTIONARY
  5
77
330
2E
100
AcDbDictionary
280
     1
281
     1
  3
ACAD_XREC_ROUNDTRIP
360
78
  0
DICTIONARY
  5
8B
330
38
100
AcDbDictionary
280
     1
281
     1
  3
ACAD_XREC_ROUNDTRIP
360
8C
  0
DICTIONARY
  5
81
330
33
100
AcDbDictionary
280
     1
281
     1
  3
ACAD_XREC_ROUNDTRIP
360
82
  0
DICTIONARY
  5
89
330
37
100
AcDbDictionary
280
     1
281
     1
  3
ACAD_XREC_ROUNDTRIP
360
8A
  0
XRECORD
  5
7A
102
{ACAD_REACTORS
330
79
102
}
330
79
100
AcDbXrecord
280
     1
102
RTVSPropertyOp0
 70
     1
102
RTVSPropertyOp1
 70
     1
102
RTVSPropertyOp2
 70
     1
102
RTVSPropertyOp3
 70
     1
102
RTVSPropertyOp4
 70
     1
102
RTVSPropertyOp5
 70
     1
102
RTVSPropertyOp6
 70
     1
102
RTVSPropertyOp7
 70
     1
102
RTVSPropertyOp8
 70
     1
102
RTVSPropertyOp9
 70
     1
102
RTVSPropertyOp10
 70
     1
102
RTVSPropertyOp11
 70
     1
102
RTVSPropertyOp12
 70
     1
102
RTVSPropertyOp13
 70
     1
102
RTVSPropertyOp14
 70
     1
102
RTVSPropertyOp15
 70
     1
102
RTVSPropertyOp16
 70
     1
102
RTVSPropertyOp17
 70
     1
102
RTVSPropertyOp18
 70
     1
102
RTVSPropertyOp19
 70
     1
102
RTVSPropertyOp20
 70
     1
102
RTVSPropertyOp21
 70
     1
102
RTVSPropertyOp22
 70
     1
102
RTVSPropertyOp23
 70
     1
102
RTVSPropertyOp24
 70
     1
102
RTVSPropertyOp25
 70
     1
102
RTVSPropertyOp26
 70
     1
102
RTVSPropertyOp27
 70
     1
102
RTVSPropertyOp28
 70
     1
102
RTVSPropertyOp29
 70
     1
102
RTVSPropertyOp30
 70
     1
102
RTVSPropertyOp31
 70
     1
102
RTVSPropertyOp32
 70
     1
  0
XRECORD
  5
7E
102
{ACAD_REACTORS
330
7D
102
}
330
7D
100
AcDbXrecord
280
     1
102
RTVSPropertyOp0
 70
     1
102
RTVSPropertyOp1
 70
     1
102
RTVSPropertyOp2
 70
     1
102
RTVSPropertyOp3
 70
     1
102
RTVSPropertyOp4
 70
     1
102
RTVSPropertyOp5
 70
     1
102
RTVSPropertyOp6
 70
     1
102
RTVSPropertyOp7
 70
     1
102
RTVSPropertyOp8
 70
     1
102
RTVSPropertyOp9
 70
     1
102
RTVSPropertyOp10
 70
     1
102
RTVSPropertyOp11
 70
     1
102
RTVSPropertyOp12
 70
     1
102
RTVSPropertyOp13
 70
     1
102
RTVSPropertyOp14
 70
     1
102
RTVSPropertyOp15
 70
     1
102
RTVSPropertyOp16
 70
     1
102
RTVSPropertyOp17
 70
     1
102
RTVSPropertyOp18
 70
     1
102
RTVSPropertyOp19
 70
     1
102
RTVSPropertyOp20
 70
     1
102
RTVSPropertyOp21
 70
     1
102
RTVSPropertyOp22
 70
     1
102
RTVSPropertyOp23
 70
     1
102
RTVSPropertyOp24
 70
     1
102
RTVSPropertyOp25
 70
     1
102
RTVSPropertyOp26
 70
     1
102
RTVSPropertyOp27
 70
     1
102
RTVSPropertyOp28
 70
     1
102
RTVSPropertyOp29
 70
     1
102
RTVSPropertyOp30
 70
     1
102
RTVSPropertyOp31
 70
     1
102
RTVSPropertyOp32
 70
     1
  0
XRECORD
  5
7C
102
{ACAD_REACTORS
330
7B
102
}
330
7B
100
AcDbXrecord
280
     1
102
RTVSPropertyOp0
 70
     1
102
RTVSPropertyOp1
 70
     1
102
RTVSPropertyOp2
 70
     1
102
RTVSPropertyOp3
 70
     1
102
RTVSPropertyOp4
 70
     1
102
RTVSPropertyOp5
 70
     1
102
RTVSPropertyOp6
 70
     1
102
RTVSPropertyOp7
 70
     1
102
RTVSPropertyOp8
 70
     1
102
RTVSPropertyOp9
 70
     1
102
RTVSPropertyOp10
 70
     1
102
RTVSPropertyOp11
 70
     1
102
RTVSPropertyOp12
 70
     1
102
RTVSPropertyOp13
 70
     1
102
RTVSPropertyOp14
 70
     1
102
RTVSPropertyOp15
 70
     1
102
RTVSPropertyOp16
 70
     1
102
RTVSPropertyOp17
 70
     1
102
RTVSPropertyOp18
 70
     1
102
RTVSPropertyOp19
 70
     1
102
RTVSPropertyOp20
 70
     1
102
RTVSPropertyOp21
 70
     1
102
RTVSPropertyOp22
 70
     1
102
RTVSPropertyOp23
 70
     1
102
RTVSPropertyOp24
 70
     1
102
RTVSPropertyOp25
 70
     1
102
RTVSPropertyOp26
 70
     1
102
RTVSPropertyOp27
 70
     1
102
RTVSPropertyOp28
 70
     1
102
RTVSPropertyOp29
 70
     1
102
RTVSPropertyOp30
 70
     1
102
RTVSPropertyOp31
 70
     1
102
RTVSPropertyOp32
 70
     1
  0
XRECORD
  5
80
102
{ACAD_REACTORS
330
7F
102
}
330
7F
100
AcDbXrecord
280
     1
102
RTVSPropertyOp0
 70
     1
102
RTVSPropertyOp1
 70
     1
102
RTVSPropertyOp2
 70
     1
102
RTVSPropertyOp3
 70
     1
102
RTVSPropertyOp4
 70
     1
102
RTVSPropertyOp5
 70
     1
102
RTVSPropertyOp6
 70
     1
102
RTVSPropertyOp7
 70
     1
102
RTVSPropertyOp8
 70
     1
102
RTVSPropertyOp9
 70
     1
102
RTVSPropertyOp10
 70
     1
102
RTVSPropertyOp11
 70
     1
102
RTVSPropertyOp12
 70
     1
102
RTVSPropertyOp13
 70
     1
102
RTVSPropertyOp14
 70
     1
102
RTVSPropertyOp15
 70
     1
102
RTVSPropertyOp16
 70
     1
102
RTVSPropertyOp17
 70
     1
102
RTVSPropertyOp18
 70
     1
102
RTVSPropertyOp19
 70
     1
102
RTVSPropertyOp20
 70
     1
102
RTVSPropertyOp21
 70
     1
102
RTVSPropertyOp22
 70
     1
102
RTVSPropertyOp23
 70
     1
102
RTVSPropertyOp24
 70
     1
102
RTVSPropertyOp25
 70
     1
102
RTVSPropertyOp26
 70
     1
102
RTVSPropertyOp27
 70
     1
102
RTVSPropertyOp28
 70
     1
102
RTVSPropertyOp29
 70
     1
102
RTVSPropertyOp30
 70
     1
102
RTVSPropertyOp31
 70
     1
102
RTVSPropertyOp32
 70
     1
  0
XRECORD
  5
88
102
{ACAD_REACTORS
330
87
102
}
330
87
100
AcDbXrecord
280
     1
102
RTVSPropertyOp0
 70
     1
102
RTVSPropertyOp1
 70
     1
102
RTVSPropertyOp2
 70
     1
102
RTVSPropertyOp3
 70
     1
102
RTVSPropertyOp4
 70
     1
102
RTVSPropertyOp5
 70
     1
102
RTVSPropertyOp6
 70
     1
102
RTVSPropertyOp7
 70
     1
102
RTVSPropertyOp8
 70
     1
102
RTVSPropertyOp9
 70
     1
102
RTVSPropertyOp10
 70
     1
102
RTVSPropertyOp11
 70
     1
102
RTVSPropertyOp12
 70
     1
102
RTVSPropertyOp13
 70
     1
102
RTVSPropertyOp14
 70
     1
102
RTVSPropertyOp15
 70
     1
102
RTVSPropertyOp16
 70
     1
102
RTVSPropertyOp17
 70
     1
102
RTVSPropertyOp18
 70
     1
102
RTVSPropertyOp19
 70
     1
102
RTVSPropertyOp20
 70
     1
102
RTVSPropertyOp21
 70
     1
102
RTVSPropertyOp22
 70
     1
102
RTVSPropertyOp23
 70
     1
102
RTVSPropertyOp24
 70
     1
102
RTVSPropertyOp25
 70
     1
102
RTVSPropertyOp26
 70
     1
102
RTVSPropertyOp27
 70
     1
102
RTVSPropertyOp28
 70
     1
102
RTVSPropertyOp29
 70
     1
102
RTVSPropertyOp30
 70
     1
102
RTVSPropertyOp31
 70
     1
102
RTVSPropertyOp32
 70
     1
  0
XRECORD
  5
90
102
{ACAD_REACTORS
330
8F
102
}
330
8F
100
AcDbXrecord
280
     1
102
RTVSPropertyOp0
 70
     1
102
RTVSPropertyOp1
 70
     1
102
RTVSPropertyOp2
 70
     1
102
RTVSPropertyOp3
 70
     1
102
RTVSPropertyOp4
 70
     1
102
RTVSPropertyOp5
 70
     1
102
RTVSPropertyOp6
 70
     1
102
RTVSPropertyOp7
 70
     1
102
RTVSPropertyOp8
 70
     1
102
RTVSPropertyOp9
 70
     1
102
RTVSPropertyOp10
 70
     1
102
RTVSPropertyOp11
 70
     1
102
RTVSPropertyOp12
 70
     1
102
RTVSPropertyOp13
 70
     1
102
RTVSPropertyOp14
 70
     1
102
RTVSPropertyOp15
 70
     1
102
RTVSPropertyOp16
 70
     1
102
RTVSPropertyOp17
 70
     1
102
RTVSPropertyOp18
 70
     1
102
RTVSPropertyOp19
 70
     1
102
RTVSPropertyOp20
 70
     1
102
RTVSPropertyOp21
 70
     1
102
RTVSPropertyOp22
 70
     1
102
RTVSPropertyOp23
 70
     1
102
RTVSPropertyOp24
 70
     1
102
RTVSPropertyOp25
 70
     1
102
RTVSPropertyOp26
 70
     1
102
RTVSPropertyOp27
 70
     1
102
RTVSPropertyOp28
 70
     1
102
RTVSPropertyOp29
 70
     1
102
RTVSPropertyOp30
 70
     1
102
RTVSPropertyOp31
 70
     1
102
RTVSPropertyOp32
 70
     1
  0
XRECORD
  5
84
102
{ACAD_REACTORS
330
83
102
}
330
83
100
AcDbXrecord
280
     1
102
RTVSPropertyOp0
 70
     1
102
RTVSPropertyOp1
 70
     1
102
RTVSPropertyOp2
 70
     1
102
RTVSPropertyOp3
 70
     1
102
RTVSPropertyOp4
 70
     1
102
RTVSPropertyOp5
 70
     1
102
RTVSPropertyOp6
 70
     1
102
RTVSPropertyOp7
 70
     1
102
RTVSPropertyOp8
 70
     1
102
RTVSPropertyOp9
 70
     1
102
RTVSPropertyOp10
 70
     1
102
RTVSPropertyOp11
 70
     1
102
RTVSPropertyOp12
 70
     1
102
RTVSPropertyOp13
 70
     1
102
RTVSPropertyOp14
 70
     1
102
RTVSPropertyOp15
 70
     1
102
RTVSPropertyOp16
 70
     1
102
RTVSPropertyOp17
 70
     1
102
RTVSPropertyOp18
 70
     1
102
RTVSPropertyOp19
 70
     1
102
RTVSPropertyOp20
 70
     1
102
RTVSPropertyOp21
 70
     1
102
RTVSPropertyOp22
 70
     1
102
RTVSPropertyOp23
 70
     1
102
RTVSPropertyOp24
 70
     1
102
RTVSPropertyOp25
 70
     1
102
RTVSPropertyOp26
 70
     1
102
RTVSPropertyOp27
 70
     1
102
RTVSPropertyOp28
 70
     1
102
RTVSPropertyOp29
 70
     1
102
RTVSPropertyOp30
 70
     1
102
RTVSPropertyOp31
 70
     1
102
RTVSPropertyOp32
 70
     1
  0
XRECORD
  5
86
102
{ACAD_REACTORS
330
85
102
}
330
85
100
AcDbXrecord
280
     1
102
RTVSPropertyOp0
 70
     1
102
RTVSPropertyOp1
 70
     1
102
RTVSPropertyOp2
 70
     1
102
RTVSPropertyOp3
 70
     1
102
RTVSPropertyOp4
 70
     1
102
RTVSPropertyOp5
 70
     1
102
RTVSPropertyOp6
 70
     1
102
RTVSPropertyOp7
 70
     1
102
RTVSPropertyOp8
 70
     1
102
RTVSPropertyOp9
 70
     1
102
RTVSPropertyOp10
 70
     1
102
RTVSPropertyOp11
 70
     1
102
RTVSPropertyOp12
 70
     1
102
RTVSPropertyOp13
 70
     1
102
RTVSPropertyOp14
 70
     1
102
RTVSPropertyOp15
 70
     1
102
RTVSPropertyOp16
 70
     1
102
RTVSPropertyOp17
 70
     1
102
RTVSPropertyOp18
 70
     1
102
RTVSPropertyOp19
 70
     1
102
RTVSPropertyOp20
 70
     1
102
RTVSPropertyOp21
 70
     1
102
RTVSPropertyOp22
 70
     1
102
RTVSPropertyOp23
 70
     1
102
RTVSPropertyOp24
 70
     1
102
RTVSPropertyOp25
 70
     1
102
RTVSPropertyOp26
 70
     1
102
RTVSPropertyOp27
 70
     1
102
RTVSPropertyOp28
 70
     1
102
RTVSPropertyOp29
 70
     1
102
RTVSPropertyOp30
 70
     1
102
RTVSPropertyOp31
 70
     1
102
RTVSPropertyOp32
 70
     1
  0
XRECORD
  5
8E
102
{ACAD_REACTORS
330
8D
102
}
330
8D
100
AcDbXrecord
280
     1
102
RTVSPropertyOp0
 70
     1
102
RTVSPropertyOp1
 70
     1
102
RTVSPropertyOp2
 70
     1
102
RTVSPropertyOp3
 70
     1
102
RTVSPropertyOp4
 70
     1
102
RTVSPropertyOp5
 70
     1
102
RTVSPropertyOp6
 70
     1
102
RTVSPropertyOp7
 70
     1
102
RTVSPropertyOp8
 70
     1
102
RTVSPropertyOp9
 70
     1
102
RTVSPropertyOp10
 70
     1
102
RTVSPropertyOp11
 70
     1
102
RTVSPropertyOp12
 70
     1
102
RTVSPropertyOp13
 70
     1
102
RTVSPropertyOp14
 70
     1
102
RTVSPropertyOp15
 70
     1
102
RTVSPropertyOp16
 70
     1
102
RTVSPropertyOp17
 70
     1
102
RTVSPropertyOp18
 70
     1
102
RTVSPropertyOp19
 70
     1
102
RTVSPropertyOp20
 70
     1
102
RTVSPropertyOp21
 70
     1
102
RTVSPropertyOp22
 70
     1
102
RTVSPropertyOp23
 70
     1
102
RTVSPropertyOp24
 70
     1
102
RTVSPropertyOp25
 70
     1
102
RTVSPropertyOp26
 70
     1
102
RTVSPropertyOp27
 70
     1
102
RTVSPropertyOp28
 70
     1
102
RTVSPropertyOp29
 70
     1
102
RTVSPropertyOp30
 70
     1
102
RTVSPropertyOp31
 70
     1
102
RTVSPropertyOp32
 70
     1
  0
XRECORD
  5
72
102
{ACAD_REACTORS
330
71
102
}
330
71
100
AcDbXrecord
280
     1
102
RTVSPropertyOp0
 70
     1
102
RTVSPropertyOp1
 70
     1
102
RTVSPropertyOp2
 70
     1
102
RTVSPropertyOp3
 70
     1
102
RTVSPropertyOp4
 70
     1
102
RTVSPropertyOp5
 70
     1
102
RTVSPropertyOp6
 70
     1
102
RTVSPropertyOp7
 70
     1
102
RTVSPropertyOp8
 70
     1
102
RTVSPropertyOp9
 70
     1
102
RTVSPropertyOp10
 70
     1
102
RTVSPropertyOp11
 70
     1
102
RTVSPropertyOp12
 70
     1
102
RTVSPropertyOp13
 70
     1
102
RTVSPropertyOp14
 70
     1
102
RTVSPropertyOp15
 70
     1
102
RTVSPropertyOp16
 70
     1
102
RTVSPropertyOp17
 70
     1
102
RTVSPropertyOp18
 70
     1
102
RTVSPropertyOp19
 70
     1
102
RTVSPropertyOp20
 70
     1
102
RTVSPropertyOp21
 70
     1
102
RTVSPropertyOp22
 70
     1
102
RTVSPropertyOp23
 70
     1
102
RTVSPropertyOp24
 70
     1
102
RTVSPropertyOp25
 70
     1
102
RTVSPropertyOp26
 70
     1
102
RTVSPropertyOp27
 70
     1
102
RTVSPropertyOp28
 70
     1
102
RTVSPropertyOp29
 70
     1
102
RTVSPropertyOp30
 70
     1
102
RTVSPropertyOp31
 70
     1
102
RTVSPropertyOp32
 70
     1
  0
XRECORD
  5
74
102
{ACAD_REACTORS
330
73
102
}
330
73
100
AcDbXrecord
280
     1
102
RTVSPropertyOp0
 70
     1
102
RTVSPropertyOp1
 70
     1
102
RTVSPropertyOp2
 70
     1
102
RTVSPropertyOp3
 70
     1
102
RTVSPropertyOp4
 70
     1
102
RTVSPropertyOp5
 70
     1
102
RTVSPropertyOp6
 70
     1
102
RTVSPropertyOp7
 70
     1
102
RTVSPropertyOp8
 70
     1
102
RTVSPropertyOp9
 70
     1
102
RTVSPropertyOp10
 70
     1
102
RTVSPropertyOp11
 70
     1
102
RTVSPropertyOp12
 70
     1
102
RTVSPropertyOp13
 70
     1
102
RTVSPropertyOp14
 70
     1
102
RTVSPropertyOp15
 70
     1
102
RTVSPropertyOp16
 70
     1
102
RTVSPropertyOp17
 70
     1
102
RTVSPropertyOp18
 70
     1
102
RTVSPropertyOp19
 70
     1
102
RTVSPropertyOp20
 70
     1
102
RTVSPropertyOp21
 70
     1
102
RTVSPropertyOp22
 70
     1
102
RTVSPropertyOp23
 70
     1
102
RTVSPropertyOp24
 70
     1
102
RTVSPropertyOp25
 70
     1
102
RTVSPropertyOp26
 70
     1
102
RTVSPropertyOp27
 70
     1
102
RTVSPropertyOp28
 70
     1
102
RTVSPropertyOp29
 70
     1
102
RTVSPropertyOp30
 70
     1
102
RTVSPropertyOp31
 70
     1
102
RTVSPropertyOp32
 70
     1
  0
XRECORD
  5
76
102
{ACAD_REACTORS
330
75
102
}
330
75
100
AcDbXrecord
280
     1
102
RTVSPropertyOp0
 70
     1
102
RTVSPropertyOp1
 70
     1
102
RTVSPropertyOp2
 70
     1
102
RTVSPropertyOp3
 70
     1
102
RTVSPropertyOp4
 70
     1
102
RTVSPropertyOp5
 70
     1
102
RTVSPropertyOp6
 70
     1
102
RTVSPropertyOp7
 70
     1
102
RTVSPropertyOp8
 70
     1
102
RTVSPropertyOp9
 70
     1
102
RTVSPropertyOp10
 70
     1
102
RTVSPropertyOp11
 70
     1
102
RTVSPropertyOp12
 70
     1
102
RTVSPropertyOp13
 70
     1
102
RTVSPropertyOp14
 70
     1
102
RTVSPropertyOp15
 70
     1
102
RTVSPropertyOp16
 70
     1
102
RTVSPropertyOp17
 70
     1
102
RTVSPropertyOp18
 70
     1
102
RTVSPropertyOp19
 70
     1
102
RTVSPropertyOp20
 70
     1
102
RTVSPropertyOp21
 70
     1
102
RTVSPropertyOp22
 70
     1
102
RTVSPropertyOp23
 70
     1
102
RTVSPropertyOp24
 70
     1
102
RTVSPropertyOp25
 70
     1
102
RTVSPropertyOp26
 70
     1
102
RTVSPropertyOp27
 70
     1
102
RTVSPropertyOp28
 70
     1
102
RTVSPropertyOp29
 70
     1
102
RTVSPropertyOp30
 70
     1
102
RTVSPropertyOp31
 70
     1
102
RTVSPropertyOp32
 70
     1
  0
XRECORD
  5
78
102
{ACAD_REACTORS
330
77
102
}
330
77
100
AcDbXrecord
280
     1
102
RTVSPropertyOp0
 70
     1
102
RTVSPropertyOp1
 70
     1
102
RTVSPropertyOp2
 70
     1
102
RTVSPropertyOp3
 70
     1
102
RTVSPropertyOp4
 70
     1
102
RTVSPropertyOp5
 70
     1
102
RTVSPropertyOp6
 70
     1
102
RTVSPropertyOp7
 70
     1
102
RTVSPropertyOp8
 70
     1
102
RTVSPropertyOp9
 70
     1
102
RTVSPropertyOp10
 70
     1
102
RTVSPropertyOp11
 70
     1
102
RTVSPropertyOp12
 70
     1
102
RTVSPropertyOp13
 70
     1
102
RTVSPropertyOp14
 70
     1
102
RTVSPropertyOp15
 70
     1
102
RTVSPropertyOp16
 70
     1
102
RTVSPropertyOp17
 70
     1
102
RTVSPropertyOp18
 70
     1
102
RTVSPropertyOp19
 70
     1
102
RTVSPropertyOp20
 70
     1
102
RTVSPropertyOp21
 70
     1
102
RTVSPropertyOp22
 70
     1
102
RTVSPropertyOp23
 70
     1
102
RTVSPropertyOp24
 70
     1
102
RTVSPropertyOp25
 70
     1
102
RTVSPropertyOp26
 70
     1
102
RTVSPropertyOp27
 70
     1
102
RTVSPropertyOp28
 70
     1
102
RTVSPropertyOp29
 70
     1
102
RTVSPropertyOp30
 70
     1
102
RTVSPropertyOp31
 70
     1
102
RTVSPropertyOp32
 70
     1
  0
XRECORD
  5
8C
102
{ACAD_REACTORS
330
8B
102
}
330
8B
100
AcDbXrecord
280
     1
102
RTVSPropertyOp0
 70
     1
102
RTVSPropertyOp1
 70
     1
102
RTVSPropertyOp2
 70
     1
102
RTVSPropertyOp3
 70
     1
102
RTVSPropertyOp4
 70
     1
102
RTVSPropertyOp5
 70
     1
102
RTVSPropertyOp6
 70
     1
102
RTVSPropertyOp7
 70
     1
102
RTVSPropertyOp8
 70
     1
102
RTVSPropertyOp9
 70
     1
102
RTVSPropertyOp10
 70
     1
102
RTVSPropertyOp11
 70
     1
102
RTVSPropertyOp12
 70
     1
102
RTVSPropertyOp13
 70
     1
102
RTVSPropertyOp14
 70
     1
102
RTVSPropertyOp15
 70
     1
102
RTVSPropertyOp16
 70
     1
102
RTVSPropertyOp17
 70
     1
102
RTVSPropertyOp18
 70
     1
102
RTVSPropertyOp19
 70
     1
102
RTVSPropertyOp20
 70
     1
102
RTVSPropertyOp21
 70
     1
102
RTVSPropertyOp22
 70
     1
102
RTVSPropertyOp23
 70
     1
102
RTVSPropertyOp24
 70
     1
102
RTVSPropertyOp25
 70
     1
102
RTVSPropertyOp26
 70
     1
102
RTVSPropertyOp27
 70
     1
102
RTVSPropertyOp28
 70
     1
102
RTVSPropertyOp29
 70
     1
102
RTVSPropertyOp30
 70
     1
102
RTVSPropertyOp31
 70
     1
102
RTVSPropertyOp32
 70
     1
  0
XRECORD
  5
82
102
{ACAD_REACTORS
330
81
102
}
330
81
100
AcDbXrecord
280
     1
102
RTVSPropertyOp0
 70
     1
102
RTVSPropertyOp1
 70
     1
102
RTVSPropertyOp2
 70
     1
102
RTVSPropertyOp3
 70
     1
102
RTVSPropertyOp4
 70
     1
102
RTVSPropertyOp5
 70
     1
102
RTVSPropertyOp6
 70
     1
102
RTVSPropertyOp7
 70
     1
102
RTVSPropertyOp8
 70
     1
102
RTVSPropertyOp9
 70
     1
102
RTVSPropertyOp10
 70
     1
102
RTVSPropertyOp11
 70
     1
102
RTVSPropertyOp12
 70
     1
102
RTVSPropertyOp13
 70
     1
102
RTVSPropertyOp14
 70
     1
102
RTVSPropertyOp15
 70
     1
102
RTVSPropertyOp16
 70
     1
102
RTVSPropertyOp17
 70
     1
102
RTVSPropertyOp18
 70
     1
102
RTVSPropertyOp19
 70
     1
102
RTVSPropertyOp20
 70
     1
102
RTVSPropertyOp21
 70
     1
102
RTVSPropertyOp22
 70
     1
102
RTVSPropertyOp23
 70
     1
102
RTVSPropertyOp24
 70
     1
102
RTVSPropertyOp25
 70
     1
102
RTVSPropertyOp26
 70
     1
102
RTVSPropertyOp27
 70
     1
102
RTVSPropertyOp28
 70
     1
102
RTVSPropertyOp29
 70
     1
102
RTVSPropertyOp30
 70
     1
102
RTVSPropertyOp31
 70
     1
102
RTVSPropertyOp32
 70
     1
  0
XRECORD
  5
8A
102
{ACAD_REACTORS
330
89
102
}
330
89
100
AcDbXrecord
280
     1
102
RTVSPropertyOp0
 70
     1
102
RTVSPropertyOp1
 70
     1
102
RTVSPropertyOp2
 70
     1
102
RTVSPropertyOp3
 70
     1
102
RTVSPropertyOp4
 70
     1
102
RTVSPropertyOp5
 70
     1
102
RTVSPropertyOp6
 70
     1
102
RTVSPropertyOp7
 70
     1
102
RTVSPropertyOp8
 70
     1
102
RTVSPropertyOp9
 70
     1
102
RTVSPropertyOp10
 70
     1
102
RTVSPropertyOp11
 70
     1
102
RTVSPropertyOp12
 70
     1
102
RTVSPropertyOp13
 70
     1
102
RTVSPropertyOp14
 70
     1
102
RTVSPropertyOp15
 70
     1
102
RTVSPropertyOp16
 70
     1
102
RTVSPropertyOp17
 70
     1
102
RTVSPropertyOp18
 70
     1
102
RTVSPropertyOp19
 70
     1
102
RTVSPropertyOp20
 70
     1
102
RTVSPropertyOp21
 70
     1
102
RTVSPropertyOp22
 70
     1
102
RTVSPropertyOp23
 70
     1
102
RTVSPropertyOp24
 70
     1
102
RTVSPropertyOp25
 70
     1
102
RTVSPropertyOp26
 70
     1
102
RTVSPropertyOp27
 70
     1
102
RTVSPropertyOp28
 70
     1
102
RTVSPropertyOp29
 70
     1
102
RTVSPropertyOp30
 70
     1
102
RTVSPropertyOp31
 70
     1
102
RTVSPropertyOp32
 70
     1
  0
ENDSEC
  0
EOF
