  0
SECTION
  2
HEADER
  9
$ACADVER
  1
AC1021
  9
$ACADMAINTVER
 70
    25
  9
$DWGCODEPAGE
  3
ANSI_1256
  9
$INSBASE
 10
0.0
 20
0.0
 30
0.0
  9
$EXTMIN
 10
108.3304
 20
-114.6738
 30
0.0
  9
$EXTMAX
 10
196.4246
 20
131.7436
 30
0.0
  9
$LIMMIN
 10
0.0
 20
0.0
  9
$LIMMAX
 10
12.0
 20
9.0
  9
$ORTHOMODE
 70
     0
  9
$REGENMODE
 70
     1
  9
$FILLMODE
 70
     1
  9
$QTEXTMODE
 70
     0
  9
$MIRRTEXT
 70
     1
  9
$LTSCALE
 40
1.0
  9
$ATTMODE
 70
     1
  9
$TEXTSIZE
 40
0.2
  9
$TRACEWID
 40
0.05
  9
$TEXTSTYLE
  7
Standard
  9
$CLAYER
  8
0
  9
$CELTYPE
  6
ByLayer
  9
$CECOLOR
 62
   256
  9
$CELTSCALE
 40
1.0
  9
$DISPSILH
 70
     0
  9
$DIMSCALE
 40
1.0
  9
$DIMASZ
 40
0.18
  9
$DIMEXO
 40
0.0625
  9
$DIMDLI
 40
0.38
  9
$DIMRND
 40
0.0
  9
$DIMDLE
 40
0.0
  9
$DIMEXE
 40
0.18
  9
$DIMTP
 40
0.0
  9
$DIMTM
 40
0.0
  9
$DIMTXT
 40
0.18
  9
$DIMCEN
 40
0.09
  9
$DIMTSZ
 40
0.0
  9
$DIMTOL
 70
     0
  9
$DIMLIM
 70
     0
  9
$DIMTIH
 70
     1
  9
$DIMTOH
 70
     1
  9
$DIMSE1
 70
     0
  9
$DIMSE2
 70
     0
  9
$DIMTAD
 70
     0
  9
$DIMZIN
 70
     0
  9
$DIMBLK
  1

  9
$DIMASO
 70
     1
  9
$DIMSHO
 70
     1
  9
$DIMPOST
  1

  9
$DIMAPOST
  1

  9
$DIMALT
 70
     0
  9
$DIMALTD
 70
     2
  9
$DIMALTF
 40
25.4
  9
$DIMLFAC
 40
1.0
  9
$DIMTOFL
 70
     0
  9
$DIMTVP
 40
0.0
  9
$DIMTIX
 70
     0
  9
$DIMSOXD
 70
     0
  9
$DIMSAH
 70
     0
  9
$DIMBLK1
  1

  9
$DIMBLK2
  1

  9
$DIMSTYLE
  2
Standard
  9
$DIMCLRD
 70
     0
  9
$DIMCLRE
 70
     0
  9
$DIMCLRT
 70
     0
  9
$DIMTFAC
 40
1.0
  9
$DIMGAP
 40
0.09
  9
$DIMJUST
 70
     0
  9
$DIMSD1
 70
     0
  9
$DIMSD2
 70
     0
  9
$DIMTOLJ
 70
     1
  9
$DIMTZIN
 70
     0
  9
$DIMALTZ
 70
     0
  9
$DIMALTTZ
 70
     0
  9
$DIMUPT
 70
     0
  9
$DIMDEC
 70
     4
  9
$DIMTDEC
 70
     4
  9
$DIMALTU
 70
     2
  9
$DIMALTTD
 70
     2
  9
$DIMTXSTY
  7
Standard
  9
$DIMAUNIT
 70
     0
  9
$DIMADEC
 70
     0
  9
$DIMALTRND
 40
0.0
  9
$DIMAZIN
 70
     0
  9
$DIMDSEP
 70
    46
  9
$DIMATFIT
 70
     3
  9
$DIMFRAC
 70
     0
  9
$DIMLDRBLK
  1

  9
$DIMLUNIT
 70
     2
  9
$DIMLWD
 70
    -2
  9
$DIMLWE
 70
    -2
  9
$DIMTMOVE
 70
     0
  9
$DIMFXL
 40
1.0
  9
$DIMFXLON
 70
     0
  9
$DIMJOGANG
 40
0.7853981633974483
  9
$DIMTFILL
 70
     0
  9
$DIMTFILLCLR
 70
     0
  9
$DIMARCSYM
 70
     0
  9
$DIMLTYPE
  6

  9
$DIMLTEX1
  6

  9
$DIMLTEX2
  6

  9
$LUNITS
 70
     2
  9
$LUPREC
 70
     4
  9
$SKETCHINC
 40
0.1
  9
$FILLETRAD
 40
0.5
  9
$AUNITS
 70
     0
  9
$AUPREC
 70
     0
  9
$MENU
  1
.
  9
$ELEVATION
 40
0.0
  9
$PELEVATION
 40
0.0
  9
$THICKNESS
 40
0.0
  9
$LIMCHECK
 70
     0
  9
$CHAMFERA
 40
0.5
  9
$CHAMFERB
 40
0.5
  9
$CHAMFERC
 40
1.0
  9
$CHAMFERD
 40
0.0
  9
$SKPOLY
 70
     0
  9
$TDCREATE
 40
2458492.40854
  9
$TDUCREATE
 40
2458492.241873333
  9
$TDUPDATE
 40
2458492.408540197
  9
$TDUUPDATE
 40
2458492.24187353
  9
$TDINDWG
 40
0.0000000116
  9
$TDUSRTIMER
 40
0.0000000116
  9
$USRTIMER
 70
     1
  9
$ANGBASE
 50
0.0
  9
$ANGDIR
 70
     0
  9
$PDMODE
 70
     0
  9
$PDSIZE
 40
0.0
  9
$PLINEWID
 40
0.0
  9
$SPLFRAME
 70
     0
  9
$SPLINETYPE
 70
     6
  9
$SPLINESEGS
 70
     8
  9
$HANDSEED
  5
DC
  9
$SURFTAB1
 70
     6
  9
$SURFTAB2
 70
     6
  9
$SURFTYPE
 70
     6
  9
$SURFU
 70
     6
  9
$SURFV
 70
     6
  9
$UCSBASE
  2

  9
$UCSNAME
  2

  9
$UCSORG
 10
0.0
 20
0.0
 30
0.0
  9
$UCSXDIR
 10
1.0
 20
0.0
 30
0.0
  9
$UCSYDIR
 10
0.0
 20
1.0
 30
0.0
  9
$UCSORTHOREF
  2

  9
$UCSORTHOVIEW
 70
     0
  9
$UCSORGTOP
 10
0.0
 20
0.0
 30
0.0
  9
$UCSORGBOTTOM
 10
0.0
 20
0.0
 30
0.0
  9
$UCSORGLEFT
 10
0.0
 20
0.0
 30
0.0
  9
$UCSORGRIGHT
 10
0.0
 20
0.0
 30
0.0
  9
$UCSORGFRONT
 10
0.0
 20
0.0
 30
0.0
  9
$UCSORGBACK
 10
0.0
 20
0.0
 30
0.0
  9
$PUCSBASE
  2

  9
$PUCSNAME
  2

  9
$PUCSORG
 10
0.0
 20
0.0
 30
0.0
  9
$PUCSXDIR
 10
1.0
 20
0.0
 30
0.0
  9
$PUCSYDIR
 10
0.0
 20
1.0
 30
0.0
  9
$PUCSORTHOREF
  2

  9
$PUCSORTHOVIEW
 70
     0
  9
$PUCSORGTOP
 10
0.0
 20
0.0
 30
0.0
  9
$PUCSORGBOTTOM
 10
0.0
 20
0.0
 30
0.0
  9
$PUCSORGLEFT
 10
0.0
 20
0.0
 30
0.0
  9
$PUCSORGRIGHT
 10
0.0
 20
0.0
 30
0.0
  9
$PUCSORGFRONT
 10
0.0
 20
0.0
 30
0.0
  9
$PUCSORGBACK
 10
0.0
 20
0.0
 30
0.0
  9
$USERI1
 70
     0
  9
$USERI2
 70
     0
  9
$USERI3
 70
     0
  9
$USERI4
 70
     0
  9
$USERI5
 70
     0
  9
$USERR1
 40
0.0
  9
$USERR2
 40
0.0
  9
$USERR3
 40
0.0
  9
$USERR4
 40
0.0
  9
$USERR5
 40
0.0
  9
$WORLDVIEW
 70
     1
  9
$SHADEDGE
 70
     3
  9
$SHADEDIF
 70
    70
  9
$TILEMODE
 70
     1
  9
$MAXACTVP
 70
    64
  9
$PINSBASE
 10
0.0
 20
0.0
 30
0.0
  9
$PLIMCHECK
 70
     0
  9
$PEXTMIN
 10
1.000000000000000E+20
 20
1.000000000000000E+20
 30
1.000000000000000E+20
  9
$PEXTMAX
 10
-1.000000000000000E+20
 20
-1.000000000000000E+20
 30
-1.000000000000000E+20
  9
$PLIMMIN
 10
0.0
 20
0.0
  9
$PLIMMAX
 10
12.0
 20
9.0
  9
$UNITMODE
 70
     0
  9
$VISRETAIN
 70
     1
  9
$PLINEGEN
 70
     0
  9
$PSLTSCALE
 70
     1
  9
$TREEDEPTH
 70
  3020
  9
$CMLSTYLE
  2
Standard
  9
$CMLJUST
 70
     0
  9
$CMLSCALE
 40
1.0
  9
$PROXYGRAPHICS
 70
     1
  9
$MEASUREMENT
 70
     0
  9
$CELWEIGHT
370
    -1
  9
$ENDCAPS
280
     0
  9
$JOINSTYLE
280
     0
  9
$LWDISPLAY
290
     0
  9
$INSUNITS
 70
     4
  9
$HYPERLINKBASE
  1

  9
$STYLESHEET
  1

  9
$XEDIT
290
     1
  9
$CEPSNTYPE
380
     0
  9
$PSTYLEMODE
290
     1
  9
$FINGERPRINTGUID
  2
{487ECF19-1F0E-46DD-9032-ED56C22CCFD9}
  9
$VERSIONGUID
  2
{FAEB1C32-E019-11D5-929B-00C0DF256EC4}
  9
$EXTNAMES
290
     1
  9
$PSVPSCALE
 40
0.0
  9
$OLESTARTUP
290
     0
  9
$SORTENTS
280
   127
  9
$INDEXCTL
280
     0
  9
$HIDETEXT
280
     1
  9
$XCLIPFRAME
290
     0
  9
$HALOGAP
280
     0
  9
$OBSCOLOR
 70
   257
  9
$OBSLTYPE
280
     0
  9
$INTERSECTIONDISPLAY
280
     0
  9
$INTERSECTIONCOLOR
 70
   257
  9
$DIMASSOC
280
     2
  9
$PROJECTNAME
  1

  9
$CAMERADISPLAY
290
     0
  9
$LENSLENGTH
 40
50.0
  9
$CAMERAHEIGHT
 40
0.0
  9
$STEPSPERSEC
 40
2.0
  9
$STEPSIZE
 40
6.0
  9
$3DDWFPREC
 40
2.0
  9
$PSOLWIDTH
 40
0.25
  9
$PSOLHEIGHT
 40
4.0
  9
$LOFTANG1
 40
1.570796326794897
  9
$LOFTANG2
 40
1.570796326794897
  9
$LOFTMAG1
 40
0.0
  9
$LOFTMAG2
 40
0.0
  9
$LOFTPARAM
 70
     7
  9
$LOFTNORMALS
280
     1
  9
$LATITUDE
 40
37.795
  9
$LONGITUDE
 40
-122.394
  9
$NORTHDIRECTION
 40
0.0
  9
$TIMEZONE
 70
 -8000
  9
$LIGHTGLYPHDISPLAY
280
     1
  9
$TILEMODELIGHTSYNCH
280
     1
  9
$SOLIDHIST
280
     1
  9
$SHOWHIST
280
     1
  9
$DWFFRAME
280
     2
  9
$DGNFRAME
280
     2
  9
$REALWORLDSCALE
290
     1
  9
$INTERFERECOLOR
 62
   256
  9
$CSHADOW
280
     0
  9
$SHADOWPLANELOCATION
 40
0.0
  0
ENDSEC
  0
SECTION
  2
CLASSES
  0
CLASS
  1
ACDBDICTIONARYWDFLT
  2
AcDbDictionaryWithDefault
  3
ObjectDBX Classes
 90
        0
 91
        4
280
     0
281
     0
  0
CLASS
  1
VISUALSTYLE
  2
AcDbVisualStyle
  3
ObjectDBX Classes
 90
     4095
 91
        4
280
     0
281
     0
  0
CLASS
  1
MATERIAL
  2
AcDbMaterial
  3
ObjectDBX Classes
 90
     1153
 91
        4
280
     0
281
     0
  0
ENDSEC
  0
SECTION
  2
TABLES
  0
TABLE
  2
VPORT
  5
8
330
0
100
AcDbSymbolTable
 70
     1
  0
VPORT
  5
29
330
8
100
AcDbSymbolTableRecord
100
AcDbViewportTableRecord
  2
*Active
 70
     0
 10
0.0
 20
0.0
 11
1.0
 21
1.0
 12
10.42990654205607
 22
4.5
 13
0.0
 23
0.0
 14
0.5
 24
0.5
 15
0.5
 25
0.5
 16
0.0
 26
0.0
 36
1.0
 17
0.0
 27
0.0
 37
0.0
 40
9.0
 41
1.972972972850329
 42
50.0
 43
0.0
 44
0.0
 50
0.0
 51
0.0
 71
     0
 72
   100
 73
     1
 74
     3
 75
     0
 76
     0
 77
     0
 78
     0
281
     0
 65
     1
110
0.0
120
0.0
130
0.0
111
1.0
121
0.0
131
0.0
112
0.0
122
1.0
132
0.0
 79
     0
146
0.0
 60
     3
 61
     5
292
     1
282
     1
141
0.0
142
0.0
 63
   250
  0
ENDTAB
  0
TABLE
  2
LTYPE
  5
5
330
0
100
AcDbSymbolTable
 70
     1
  0
LTYPE
  5
14
330
5
100
AcDbSymbolTableRecord
100
AcDbLinetypeTableRecord
  2
ByBlock
 70
     0
  3

 72
    65
 73
     0
 40
0.0
  0
LTYPE
  5
15
330
5
100
AcDbSymbolTableRecord
100
AcDbLinetypeTableRecord
  2
ByLayer
 70
     0
  3

 72
    65
 73
     0
 40
0.0
  0
LTYPE
  5
16
330
5
100
AcDbSymbolTableRecord
100
AcDbLinetypeTableRecord
  2
Continuous
 70
     0
  3
Solid line
 72
    65
 73
     0
 40
0.0
  0
ENDTAB
  0
TABLE
  2
LAYER
  5
2
330
0
100
AcDbSymbolTable
 70
     2
  0
LAYER
  5
10
330
2
100
AcDbSymbolTableRecord
100
AcDbLayerTableRecord
  2
0
 70
     0
 62
     7
  6
Continuous
370
    -3
390
F
347
3E
  0
LAYER
  5
40
330
2
100
AcDbSymbolTableRecord
100
AcDbLayerTableRecord
  2
layer 1
 70
     0
 62
     7
  6
Continuous
370
    -3
390
F
347
3E
  0
ENDTAB
  0
TABLE
  2
STYLE
  5
3
330
0
100
AcDbSymbolTable
 70
     1
  0
STYLE
  5
11
330
3
100
AcDbSymbolTableRecord
100
AcDbTextStyleTableRecord
  2
Standard
 70
     0
 40
0.0
 41
1.0
 50
0.0
 71
     0
 42
0.2
  3
txt
  4

  0
ENDTAB
  0
TABLE
  2
VIEW
  5
6
330
0
100
AcDbSymbolTable
 70
     0
  0
ENDTAB
  0
TABLE
  2
UCS
  5
7
330
0
100
AcDbSymbolTable
 70
     0
  0
ENDTAB
  0
TABLE
  2
APPID
  5
9
330
0
100
AcDbSymbolTable
 70
     2
  0
APPID
  5
12
330
9
100
AcDbSymbolTableRecord
100
AcDbRegAppTableRecord
  2
ACAD
 70
     0
  0
APPID
  5
3F
330
9
100
AcDbSymbolTableRecord
100
AcDbRegAppTableRecord
  2
ODA
 70
     0
  0
ENDTAB
  0
TABLE
  2
DIMSTYLE
  5
A
330
0
100
AcDbSymbolTable
 70
     1
100
AcDbDimStyleTable
  0
DIMSTYLE
105
27
330
A
100
AcDbSymbolTableRecord
100
AcDbDimStyleTableRecord
  2
Standard
 70
     0
178
     0
340
11
  0
ENDTAB
  0
TABLE
  2
BLOCK_RECORD
  5
1
330
0
100
AcDbSymbolTable
 70
     1
  0
BLOCK_RECORD
  5
1F
330
1
100
AcDbSymbolTableRecord
100
AcDbBlockTableRecord
  2
*Model_Space
340
22
 70
     0
280
     1
281
     0
  0
BLOCK_RECORD
  5
1B
330
1
100
AcDbSymbolTableRecord
100
AcDbBlockTableRecord
  2
*Paper_Space
340
1E
 70
     0
280
     1
281
     0
  0
BLOCK_RECORD
  5
23
330
1
100
AcDbSymbolTableRecord
100
AcDbBlockTableRecord
  2
*Paper_Space0
340
26
 70
     0
280
     1
281
     0
  0
ENDTAB
  0
ENDSEC
  0
SECTION
  2
BLOCKS
  0
BLOCK
  5
20
330
1F
100
AcDbEntity
  8
0
100
AcDbBlockBegin
  2
*Model_Space
 70
     0
 10
0.0
 20
0.0
 30
0.0
  3
*Model_Space
  1

  0
ENDBLK
  5
21
330
1F
100
AcDbEntity
  8
0
100
AcDbBlockEnd
  0
BLOCK
  5
1C
330
1B
100
AcDbEntity
 67
     1
  8
0
100
AcDbBlockBegin
  2
*Paper_Space
 70
     0
 10
0.0
 20
0.0
 30
0.0
  3
*Paper_Space
  1

  0
ENDBLK
  5
1D
330
1B
100
AcDbEntity
 67
     1
  8
0
100
AcDbBlockEnd
  0
BLOCK
  5
24
330
23
100
AcDbEntity
  8
0
100
AcDbBlockBegin
  2
*Paper_Space0
 70
     0
 10
0.0
 20
0.0
 30
0.0
  3
*Paper_Space0
  1

  0
ENDBLK
  5
25
330
23
100
AcDbEntity
  8
0
100
AcDbBlockEnd
  0
ENDSEC
  0
SECTION
  2
ENTITIES
  0
LWPOLYLINE
  5
41
330
1F
100
AcDbEntity
  8
layer 1
100
AcDbPolyline
 90
        5
 70
     1
 43
0.0
 10
108.3304
 20
-114.6738
 10
196.4246
 20
-114.6738
 10
196.4246
 20
131.7436
 10
108.3304
 20
131.7436
 10
108.3304
 20
-114.6738
  0
SPLINE
  5
42
330
1F
100
AcDbEntity
  8
layer 1
 62
     7
100
AcDbSpline
210
0.0
220
0.0
230
1.0
 70
    11
 71
     3
 72
    16
 73
    12
 74
     0
 42
0.0000000001
 43
0.0000000001
 12
1.0
 22
0.0
 32
0.0
 13
1.0
 23
0.0
 33
0.0
 40
0.0
 40
0.0
 40
0.0
 40
0.0
 40
0.25
 40
0.25
 40
0.25
 40
0.25
 40
0.5
 40
0.5
 40
0.5
 40
0.5
 40
1.0
 40
1.0
 40
1.0
 40
1.0
 10
192.0343
 20
73.7707
 30
0.0
 10
192.0343
 20
73.7707
 30
0.0
 10
192.0324
 20
60.7295
 30
0.0
 10
192.0324
 20
60.7295
 30
0.0
 10
192.0324
 20
60.7295
 30
0.0
 10
190.9934
 20
64.2869
 30
0.0
 10
188.5325
 20
66.5222
 30
0.0
 10
185.3956
 20
67.2501
 30
0.0
 10
185.3956
 20
67.2501
 30
0.0
 10
188.5344
 20
67.978
 30
0.0
 10
190.9954
 20
70.2134
 30
0.0
 10
192.0343
 20
73.7707
 30
0.0
  0
SPLINE
  5
43
330
1F
100
AcDbEntity
  8
layer 1
 62
     7
100
AcDbSpline
210
0.0
220
0.0
230
1.0
 70
    11
 71
     3
 72
    24
 73
    20
 74
     0
 42
0.0000000001
 43
0.0000000001
 12
1.0
 22
0.0
 32
0.0
 13
1.0
 23
0.0
 33
0.0
 40
0.0
 40
0.0
 40
0.0
 40
0.0
 40
0.1666666666666667
 40
0.1666666666666667
 40
0.1666666666666667
 40
0.1666666666666667
 40
0.3333333333333333
 40
0.3333333333333333
 40
0.3333333333333333
 40
0.3333333333333333
 40
0.5
 40
0.5
 40
0.5
 40
0.5
 40
0.6666666666666666
 40
0.6666666666666666
 40
0.6666666666666666
 40
0.6666666666666666
 40
1.0
 40
1.0
 40
1.0
 40
1.0
 10
171.722
 20
61.3632
 30
0.0
 10
167.7407
 20
64.4388
 30
0.0
 10
164.5698
 20
66.1329
 30
0.0
 10
158.9958
 20
67.2501
 30
0.0
 10
158.9958
 20
67.2501
 30
0.0
 10
164.5718
 20
68.3675
 30
0.0
 10
167.7428
 20
70.0615
 30
0.0
 10
171.7241
 20
73.1371
 30
0.0
 10
171.7241
 20
73.1371
 30
0.0
 10
173.4933
 20
70.6008
 30
0.0
 10
176.4207
 20
68.0433
 30
0.0
 10
179.186
 20
67.2191
 30
0.0
 10
179.186
 20
67.2191
 30
0.0
 10
176.3877
 20
66.3948
 30
0.0
 10
173.4912
 20
63.8992
 30
0.0
 10
171.722
 20
61.363
 30
0.0
 10
171.722
 20
61.363
 30
0.0
 10
171.722
 20
61.363
 30
0.0
 10
171.722
 20
61.3632
 30
0.0
 10
171.722
 20
61.3632
 30
0.0
  0
SPLINE
  5
44
330
1F
100
AcDbEntity
  8
layer 1
 62
     7
100
AcDbSpline
210
0.0
220
0.0
230
1.0
 70
    11
 71
     3
 72
    68
 73
    64
 74
     0
 42
0.0000000001
 43
0.0000000001
 12
1.0
 22
0.0
 32
0.0
 13
1.0
 23
0.0
 33
0.0
 40
0.0
 40
0.0
 40
0.0
 40
0.0
 40
0.0588235294117647
 40
0.0588235294117647
 40
0.0588235294117647
 40
0.0588235294117647
 40
0.1176470588235294
 40
0.1176470588235294
 40
0.1176470588235294
 40
0.1176470588235294
 40
0.1764705882352941
 40
0.1764705882352941
 40
0.1764705882352941
 40
0.1764705882352941
 40
0.2352941176470588
 40
0.2352941176470588
 40
0.2352941176470588
 40
0.2352941176470588
 40
0.2941176470588235
 40
0.2941176470588235
 40
0.2941176470588235
 40
0.2941176470588235
 40
0.3529411764705883
 40
0.3529411764705883
 40
0.3529411764705883
 40
0.3529411764705883
 40
0.4117647058823529
 40
0.4117647058823529
 40
0.4117647058823529
 40
0.4117647058823529
 40
0.4705882352941176
 40
0.4705882352941176
 40
0.4705882352941176
 40
0.4705882352941176
 40
0.5294117647058824
 40
0.5294117647058824
 40
0.5294117647058824
 40
0.5294117647058824
 40
0.5882352941176471
 40
0.5882352941176471
 40
0.5882352941176471
 40
0.5882352941176471
 40
0.6470588235294118
 40
0.6470588235294118
 40
0.6470588235294118
 40
0.6470588235294118
 40
0.7058823529411765
 40
0.7058823529411765
 40
0.7058823529411765
 40
0.7058823529411765
 40
0.7647058823529411
 40
0.7647058823529411
 40
0.7647058823529411
 40
0.7647058823529411
 40
0.8235294117647058
 40
0.8235294117647058
 40
0.8235294117647058
 40
0.8235294117647058
 40
0.8823529411764706
 40
0.8823529411764706
 40
0.8823529411764706
 40
0.8823529411764706
 40
1.0
 40
1.0
 40
1.0
 40
1.0
 10
136.123
 20
103.6364
 30
0.0
 10
136.123
 20
103.6364
 30
0.0
 10
133.2211
 20
103.7506
 30
0.0
 10
133.2211
 20
103.7506
 30
0.0
 10
133.2211
 20
103.7506
 30
0.0
 10
128.0715
 20
104.1456
 30
0.0
 10
124.3367
 20
101.9119
 30
0.0
 10
126.1991
 20
98.8272
 30
0.0
 10
126.1991
 20
98.8272
 30
0.0
 10
127.4991
 20
97.1744
 30
0.0
 10
130.0901
 20
98.155
 30
0.0
 10
128.9026
 20
99.8504
 30
0.0
 10
128.9026
 20
99.8504
 30
0.0
 10
128.4701
 20
100.4679
 30
0.0
 10
128.4848
 20
100.564
 30
0.0
 10
129.0585
 20
100.871
 30
0.0
 10
129.0585
 20
100.871
 30
0.0
 10
129.4069
 20
101.0575
 30
0.0
 10
130.3029
 20
101.21
 30
0.0
 10
131.0499
 20
101.21
 30
0.0
 10
131.0499
 20
101.21
 30
0.0
 10
133.0702
 20
101.2246
 30
0.0
 10
133.3326
 20
99.6626
 30
0.0
 10
134.959
 20
98.9453
 30
0.0
 10
134.959
 20
98.9453
 30
0.0
 10
136.0632
 20
98.5351
 30
0.0
 10
139.207
 20
98.0396
 30
0.0
 10
139.082
 20
96.8595
 30
0.0
 10
139.082
 20
96.8595
 30
0.0
 10
139.207
 20
95.6794
 30
0.0
 10
136.0633
 20
95.1839
 30
0.0
 10
134.959
 20
94.7737
 30
0.0
 10
134.959
 20
94.7737
 30
0.0
 10
133.3326
 20
94.0565
 30
0.0
 10
133.0701
 20
92.4944
 30
0.0
 10
131.0499
 20
92.5091
 30
0.0
 10
131.0499
 20
92.5091
 30
0.0
 10
130.303
 20
92.5091
 30
0.0
 10
129.4069
 20
92.6616
 30
0.0
 10
129.0585
 20
92.848
 30
0.0
 10
129.0585
 20
92.848
 30
0.0
 10
128.4848
 20
93.1551
 30
0.0
 10
128.4701
 20
93.2512
 30
0.0
 10
128.9026
 20
93.8687
 30
0.0
 10
128.9026
 20
93.8687
 30
0.0
 10
130.0901
 20
95.564
 30
0.0
 10
127.4991
 20
96.5447
 30
0.0
 10
126.1991
 20
94.8919
 30
0.0
 10
126.1991
 20
94.8919
 30
0.0
 10
124.3368
 20
91.8071
 30
0.0
 10
128.0715
 20
89.5735
 30
0.0
 10
133.2211
 20
89.9684
 30
0.0
 10
133.2211
 20
89.9684
 30
0.0
 10
133.2211
 20
89.9684
 30
0.0
 10
136.123
 20
90.0826
 30
0.0
 10
136.123
 20
90.0826
 30
0.0
 10
136.123
 20
90.0826
 30
0.0
 10
138.5956
 20
93.5078
 30
0.0
 10
141.6342
 20
96.1539
 30
0.0
 10
145.6174
 20
96.8595
 30
0.0
 10
145.6174
 20
96.8595
 30
0.0
 10
141.5585
 20
97.5652
 30
0.0
 10
138.5956
 20
100.8919
 30
0.0
 10
136.123
 20
103.6364
 30
0.0
  0
SPLINE
  5
45
330
1F
100
AcDbEntity
  8
layer 1
 62
     7
100
AcDbSpline
210
0.0
220
0.0
230
1.0
 70
    11
 71
     3
 72
    28
 73
    24
 74
     0
 42
0.0000000001
 43
0.0000000001
 12
1.0
 22
0.0
 32
0.0
 13
1.0
 23
0.0
 33
0.0
 40
0.0
 40
0.0
 40
0.0
 40
0.0
 40
0.1428571428571428
 40
0.1428571428571428
 40
0.1428571428571428
 40
0.1428571428571428
 40
0.2857142857142857
 40
0.2857142857142857
 40
0.2857142857142857
 40
0.2857142857142857
 40
0.4285714285714285
 40
0.4285714285714285
 40
0.4285714285714285
 40
0.4285714285714285
 40
0.5714285714285714
 40
0.5714285714285714
 40
0.5714285714285714
 40
0.5714285714285714
 40
0.7142857142857143
 40
0.7142857142857143
 40
0.7142857142857143
 40
0.7142857142857143
 40
1.0
 40
1.0
 40
1.0
 40
1.0
 10
118.0766
 20
102.0055
 30
0.0
 10
118.6536
 20
102.7009
 30
0.0
 10
118.6197
 20
104.1028
 30
0.0
 10
116.578
 20
106.907
 30
0.0
 10
116.578
 20
106.907
 30
0.0
 10
115.1786
 20
108.954
 30
0.0
 10
113.7375
 20
111.2901
 30
0.0
 10
112.7377
 20
113.8641
 30
0.0
 10
112.7377
 20
113.8641
 30
0.0
 10
112.9279
 20
110.171
 30
0.0
 10
112.7418
 20
106.4769
 30
0.0
 10
112.7377
 20
102.7807
 30
0.0
 10
112.7377
 20
102.7807
 30
0.0
 10
113.39
 20
103.8417
 30
0.0
 10
114.6019
 20
104.3251
 30
0.0
 10
115.5776
 20
104.2635
 30
0.0
 10
115.5776
 20
104.2635
 30
0.0
 10
116.1559
 20
104.1501
 30
0.0
 10
116.4607
 20
104.0355
 30
0.0
 10
116.2795
 20
103.3136
 30
0.0
 10
116.2795
 20
103.3136
 30
0.0
 10
115.7101
 20
101.9
 30
0.0
 10
117.3022
 20
101.1414
 30
0.0
 10
118.0766
 20
102.0055
 30
0.0
  0
SPLINE
  5
46
330
1F
100
AcDbEntity
  8
layer 1
 62
     7
100
AcDbSpline
210
0.0
220
0.0
230
1.0
 70
    11
 71
     3
 72
    16
 73
    12
 74
     0
 42
0.0000000001
 43
0.0000000001
 12
1.0
 22
0.0
 32
0.0
 13
1.0
 23
0.0
 33
0.0
 40
0.0
 40
0.0
 40
0.0
 40
0.0
 40
0.25
 40
0.25
 40
0.25
 40
0.25
 40
0.5
 40
0.5
 40
0.5
 40
0.5
 40
1.0
 40
1.0
 40
1.0
 40
1.0
 10
124.6518
 20
111.0774
 30
0.0
 10
123.169
 20
109.8907
 30
0.0
 10
121.3773
 20
109.4549
 30
0.0
 10
119.4134
 20
109.9194
 30
0.0
 10
119.4134
 20
109.9194
 30
0.0
 10
120.4831
 20
108.0162
 30
0.0
 10
121.214
 20
107.0986
 30
0.0
 10
121.9671
 20
104.2843
 30
0.0
 10
121.9671
 20
104.2843
 30
0.0
 10
122.3102
 20
106.7745
 30
0.0
 10
123.5522
 20
109.5575
 30
0.0
 10
124.6518
 20
111.0774
 30
0.0
  0
SPLINE
  5
47
330
1F
100
AcDbEntity
  8
layer 1
 62
     7
100
AcDbSpline
210
0.0
220
0.0
230
1.0
 70
    11
 71
     3
 72
    20
 73
    16
 74
     0
 42
0.0000000001
 43
0.0000000001
 12
1.0
 22
0.0
 32
0.0
 13
1.0
 23
0.0
 33
0.0
 40
0.0
 40
0.0
 40
0.0
 40
0.0
 40
0.2
 40
0.2
 40
0.2
 40
0.2
 40
0.4
 40
0.4
 40
0.4
 40
0.4
 40
0.6
 40
0.6
 40
0.6
 40
0.6
 40
1.0
 40
1.0
 40
1.0
 40
1.0
 10
133.927
 20
107.4041
 30
0.0
 10
132.4255
 20
109.4784
 30
0.0
 10
131.8294
 20
111.0634
 30
0.0
 10
130.8994
 20
113.9124
 30
0.0
 10
130.8994
 20
113.9124
 30
0.0
 10
129.0012
 20
111.7341
 30
0.0
 10
127.663
 20
109.6127
 30
0.0
 10
126.3107
 20
106.5826
 30
0.0
 10
126.3107
 20
106.5826
 30
0.0
 10
129.181
 20
107.7546
 30
0.0
 10
130.9477
 20
107.9308
 30
0.0
 10
133.9269
 20
107.4041
 30
0.0
 10
133.9269
 20
107.4041
 30
0.0
 10
133.9269
 20
107.4041
 30
0.0
 10
133.927
 20
107.4041
 30
0.0
 10
133.927
 20
107.4041
 30
0.0
  0
SPLINE
  5
48
330
1F
100
AcDbEntity
  8
layer 1
 62
     7
100
AcDbSpline
210
0.0
220
0.0
230
1.0
 70
    11
 71
     3
 72
   136
 73
   132
 74
     0
 42
0.0000000001
 43
0.0000000001
 12
1.0
 22
0.0
 32
0.0
 13
1.0
 23
0.0
 33
0.0
 40
0.0
 40
0.0
 40
0.0
 40
0.0
 40
0.0294117647058824
 40
0.0294117647058824
 40
0.0294117647058824
 40
0.0294117647058824
 40
0.0588235294117647
 40
0.0588235294117647
 40
0.0588235294117647
 40
0.0588235294117647
 40
0.0882352941176471
 40
0.0882352941176471
 40
0.0882352941176471
 40
0.0882352941176471
 40
0.1176470588235294
 40
0.1176470588235294
 40
0.1176470588235294
 40
0.1176470588235294
 40
0.1470588235294118
 40
0.1470588235294118
 40
0.1470588235294118
 40
0.1470588235294118
 40
0.1764705882352941
 40
0.1764705882352941
 40
0.1764705882352941
 40
0.1764705882352941
 40
0.2058823529411765
 40
0.2058823529411765
 40
0.2058823529411765
 40
0.2058823529411765
 40
0.2352941176470588
 40
0.2352941176470588
 40
0.2352941176470588
 40
0.2352941176470588
 40
0.2647058823529412
 40
0.2647058823529412
 40
0.2647058823529412
 40
0.2647058823529412
 40
0.2941176470588235
 40
0.2941176470588235
 40
0.2941176470588235
 40
0.2941176470588235
 40
0.3235294117647059
 40
0.3235294117647059
 40
0.3235294117647059
 40
0.3235294117647059
 40
0.3529411764705883
 40
0.3529411764705883
 40
0.3529411764705883
 40
0.3529411764705883
 40
0.3823529411764706
 40
0.3823529411764706
 40
0.3823529411764706
 40
0.3823529411764706
 40
0.4117647058823529
 40
0.4117647058823529
 40
0.4117647058823529
 40
0.4117647058823529
 40
0.4411764705882353
 40
0.4411764705882353
 40
0.4411764705882353
 40
0.4411764705882353
 40
0.4705882352941176
 40
0.4705882352941176
 40
0.4705882352941176
 40
0.4705882352941176
 40
0.5
 40
0.5
 40
0.5
 40
0.5
 40
0.5294117647058824
 40
0.5294117647058824
 40
0.5294117647058824
 40
0.5294117647058824
 40
0.5588235294117647
 40
0.5588235294117647
 40
0.5588235294117647
 40
0.5588235294117647
 40
0.5882352941176471
 40
0.5882352941176471
 40
0.5882352941176471
 40
0.5882352941176471
 40
0.6176470588235294
 40
0.6176470588235294
 40
0.6176470588235294
 40
0.6176470588235294
 40
0.6470588235294118
 40
0.6470588235294118
 40
0.6470588235294118
 40
0.6470588235294118
 40
0.6764705882352942
 40
0.6764705882352942
 40
0.6764705882352942
 40
0.6764705882352942
 40
0.7058823529411765
 40
0.7058823529411765
 40
0.7058823529411765
 40
0.7058823529411765
 40
0.7352941176470589
 40
0.7352941176470589
 40
0.7352941176470589
 40
0.7352941176470589
 40
0.7647058823529411
 40
0.7647058823529411
 40
0.7647058823529411
 40
0.7647058823529411
 40
0.7941176470588235
 40
0.7941176470588235
 40
0.7941176470588235
 40
0.7941176470588235
 40
0.8235294117647058
 40
0.8235294117647058
 40
0.8235294117647058
 40
0.8235294117647058
 40
0.8529411764705882
 40
0.8529411764705882
 40
0.8529411764705882
 40
0.8529411764705882
 40
0.8823529411764706
 40
0.8823529411764706
 40
0.8823529411764706
 40
0.8823529411764706
 40
0.9117647058823529
 40
0.9117647058823529
 40
0.9117647058823529
 40
0.9117647058823529
 40
0.9411764705882353
 40
0.9411764705882353
 40
0.9411764705882353
 40
0.9411764705882353
 40
1.0
 40
1.0
 40
1.0
 40
1.0
 10
150.0921
 20
117.6412
 30
0.0
 10
148.5734
 20
118.5911
 30
0.0
 10
146.7149
 20
118.5924
 30
0.0
 10
144.9456
 20
117.113
 30
0.0
 10
144.9456
 20
117.113
 30
0.0
 10
143.4962
 20
115.8247
 30
0.0
 10
143.2678
 20
113.0871
 30
0.0
 10
144.6946
 20
111.1912
 30
0.0
 10
144.6946
 20
111.1912
 30
0.0
 10
145.1915
 20
112.1919
 30
0.0
 10
146.2281
 20
113.3651
 30
0.0
 10
147.2102
 20
112.1992
 30
0.0
 10
147.2102
 20
112.1992
 30
0.0
 10
148.0802
 20
110.5736
 30
0.0
 10
146.5201
 20
108.3995
 30
0.0
 10
143.7359
 20
107.3579
 30
0.0
 10
143.7359
 20
107.3579
 30
0.0
 10
143.7359
 20
107.3579
 30
0.0
 10
143.7359
 20
107.3579
 30
0.0
 10
143.7359
 20
107.3579
 30
0.0
 10
143.7359
 20
107.3579
 30
0.0
 10
142.7833
 20
107.0014
 30
0.0
 10
141.2206
 20
106.7099
 30
0.0
 10
140.2631
 20
106.7099
 30
0.0
 10
140.2631
 20
106.7099
 30
0.0
 10
138.6477
 20
106.7099
 30
0.0
 10
138.4756
 20
106.7857
 30
0.0
 10
137.8741
 20
107.7614
 30
0.0
 10
137.8741
 20
107.7614
 30
0.0
 10
137.5175
 20
108.3396
 30
0.0
 10
137.126
 20
109.2131
 30
0.0
 10
137.0038
 20
109.7025
 30
0.0
 10
137.0038
 20
109.7025
 30
0.0
 10
136.8037
 20
110.5045
 30
0.0
 10
136.866
 20
110.5922
 30
0.0
 10
137.636
 20
110.5922
 30
0.0
 10
137.636
 20
110.5922
 30
0.0
 10
139.6704
 20
110.6378
 30
0.0
 10
142.1794
 20
112.2842
 30
0.0
 10
141.9311
 20
114.6303
 30
0.0
 10
141.9311
 20
114.6303
 30
0.0
 10
141.7391
 20
116.266
 30
0.0
 10
139.7412
 20
118.54
 30
0.0
 10
137.2601
 20
117.4776
 30
0.0
 10
137.2601
 20
117.4776
 30
0.0
 10
136.5128
 20
117.017
 30
0.0
 10
136.4647
 20
116.4155
 30
0.0
 10
137.287
 20
116.4155
 30
0.0
 10
137.287
 20
116.4155
 30
0.0
 10
138.4723
 20
116.249
 30
0.0
 10
139.1673
 20
115.5848
 30
0.0
 10
138.4746
 20
114.6423
 30
0.0
 10
138.4746
 20
114.6423
 30
0.0
 10
137.5493
 20
113.5333
 30
0.0
 10
135.4255
 20
115.069
 30
0.0
 10
134.3435
 20
117.1754
 30
0.0
 10
134.3435
 20
117.1754
 30
0.0
 10
138.5158
 20
120.7035
 30
0.0
 10
144.5052
 20
123.2724
 30
0.0
 10
152.3796
 20
123.4763
 30
0.0
 10
152.3796
 20
123.4763
 30
0.0
 10
160.2541
 20
123.2724
 30
0.0
 10
166.2435
 20
120.7035
 30
0.0
 10
170.4158
 20
117.1754
 30
0.0
 10
170.4158
 20
117.1754
 30
0.0
 10
169.3336
 20
115.069
 30
0.0
 10
167.2098
 20
113.5333
 30
0.0
 10
166.2847
 20
114.6423
 30
0.0
 10
166.2847
 20
114.6423
 30
0.0
 10
165.592
 20
115.5848
 30
0.0
 10
166.287
 20
116.249
 30
0.0
 10
167.4722
 20
116.4155
 30
0.0
 10
167.4722
 20
116.4155
 30
0.0
 10
168.2945
 20
116.4155
 30
0.0
 10
168.2465
 20
117.0169
 30
0.0
 10
167.4991
 20
117.4776
 30
0.0
 10
167.4991
 20
117.4776
 30
0.0
 10
165.018
 20
118.54
 30
0.0
 10
163.0201
 20
116.2661
 30
0.0
 10
162.8282
 20
114.6303
 30
0.0
 10
162.8282
 20
114.6303
 30
0.0
 10
162.5799
 20
112.2842
 30
0.0
 10
165.0888
 20
110.6378
 30
0.0
 10
167.1233
 20
110.5922
 30
0.0
 10
167.1233
 20
110.5922
 30
0.0
 10
167.8933
 20
110.5922
 30
0.0
 10
167.9556
 20
110.5045
 30
0.0
 10
167.7554
 20
109.7025
 30
0.0
 10
167.7554
 20
109.7025
 30
0.0
 10
167.6333
 20
109.2131
 30
0.0
 10
167.2416
 20
108.3396
 30
0.0
 10
166.8852
 20
107.7614
 30
0.0
 10
166.8852
 20
107.7614
 30
0.0
 10
166.2837
 20
106.7857
 30
0.0
 10
166.1115
 20
106.7099
 30
0.0
 10
164.4962
 20
106.7099
 30
0.0
 10
164.4962
 20
106.7099
 30
0.0
 10
163.5387
 20
106.7099
 30
0.0
 10
161.9759
 20
107.0015
 30
0.0
 10
161.0234
 20
107.3579
 30
0.0
 10
161.0234
 20
107.3579
 30
0.0
 10
161.0234
 20
107.3579
 30
0.0
 10
161.0234
 20
107.3579
 30
0.0
 10
161.0234
 20
107.3579
 30
0.0
 10
161.0234
 20
107.3579
 30
0.0
 10
158.2392
 20
108.3995
 30
0.0
 10
156.6791
 20
110.5736
 30
0.0
 10
157.5491
 20
112.1992
 30
0.0
 10
157.5491
 20
112.1992
 30
0.0
 10
158.5312
 20
113.3651
 30
0.0
 10
159.5677
 20
112.1919
 30
0.0
 10
160.0647
 20
111.1912
 30
0.0
 10
160.0647
 20
111.1912
 30
0.0
 10
161.4915
 20
113.0871
 30
0.0
 10
161.2631
 20
115.8247
 30
0.0
 10
159.8136
 20
117.113
 30
0.0
 10
159.8136
 20
117.113
 30
0.0
 10
158.0444
 20
118.5924
 30
0.0
 10
156.1857
 20
118.5911
 30
0.0
 10
154.6672
 20
117.6412
 30
0.0
 10
154.6672
 20
117.6412
 30
0.0
 10
154.643
 20
119.85
 30
0.0
 10
153.5323
 20
121.8673
 30
0.0
 10
152.3798
 20
121.8503
 30
0.0
 10
152.3798
 20
121.8503
 30
0.0
 10
151.2272
 20
121.8673
 30
0.0
 10
150.1166
 20
119.85
 30
0.0
 10
150.0923
 20
117.6412
 30
0.0
 10
150.0923
 20
117.6412
 30
0.0
 10
150.0923
 20
117.6412
 30
0.0
 10
150.0921
 20
117.6412
 30
0.0
 10
150.0921
 20
117.6412
 30
0.0
  0
SPLINE
  5
49
330
1F
100
AcDbEntity
  8
layer 1
 62
     7
100
AcDbSpline
210
0.0
220
0.0
230
1.0
 70
    11
 71
     3
 72
    32
 73
    28
 74
     0
 42
0.0000000001
 43
0.0000000001
 12
1.0
 22
0.0
 32
0.0
 13
1.0
 23
0.0
 33
0.0
 40
0.0
 40
0.0
 40
0.0
 40
0.0
 40
0.125
 40
0.125
 40
0.125
 40
0.125
 40
0.25
 40
0.25
 40
0.25
 40
0.25
 40
0.375
 40
0.375
 40
0.375
 40
0.375
 40
0.5
 40
0.5
 40
0.5
 40
0.5
 40
0.625
 40
0.625
 40
0.625
 40
0.625
 40
0.75
 40
0.75
 40
0.75
 40
0.75
 40
1.0
 40
1.0
 40
1.0
 40
1.0
 10
129.7343
 20
117.8447
 30
0.0
 10
128.0135
 20
121.949
 30
0.0
 10
124.3168
 20
123.9919
 30
0.0
 10
121.0671
 20
123.1952
 30
0.0
 10
121.0671
 20
123.1952
 30
0.0
 10
116.8967
 20
122.8459
 30
0.0
 10
114.3711
 20
117.9222
 30
0.0
 10
116.2857
 20
115.9234
 30
0.0
 10
116.2857
 20
115.9234
 30
0.0
 10
118.578
 20
113.8112
 30
0.0
 10
120.5443
 20
117.1065
 30
0.0
 10
119.0582
 20
118.6801
 30
0.0
 10
119.0582
 20
118.6801
 30
0.0
 10
118.1561
 20
119.5822
 30
0.0
 10
118.242
 20
119.8681
 30
0.0
 10
119.5446
 20
120.298
 30
0.0
 10
119.5446
 20
120.298
 30
0.0
 10
125.0276
 20
121.1873
 30
0.0
 10
126.4655
 20
116.2184
 30
0.0
 10
125.7882
 20
112.8419
 30
0.0
 10
125.7882
 20
112.8419
 30
0.0
 10
126.9419
 20
114.9949
 30
0.0
 10
128.313
 20
116.4202
 30
0.0
 10
129.7344
 20
117.8446
 30
0.0
 10
129.7344
 20
117.8446
 30
0.0
 10
129.7344
 20
117.8446
 30
0.0
 10
129.7343
 20
117.8447
 30
0.0
 10
129.7343
 20
117.8447
 30
0.0
  0
SPLINE
  5
4A
330
1F
100
AcDbEntity
  8
layer 1
 62
     7
100
AcDbSpline
210
0.0
220
0.0
230
1.0
 70
    11
 71
     3
 72
    16
 73
    12
 74
     0
 42
0.0000000001
 43
0.0000000001
 12
1.0
 22
0.0
 32
0.0
 13
1.0
 23
0.0
 33
0.0
 40
0.0
 40
0.0
 40
0.0
 40
0.0
 40
0.25
 40
0.25
 40
0.25
 40
0.25
 40
0.5
 40
0.5
 40
0.5
 40
0.5
 40
1.0
 40
1.0
 40
1.0
 40
1.0
 10
119.3754
 20
126.488
 30
0.0
 10
116.4693
 20
126.488
 30
0.0
 10
114.8924
 20
126.488
 30
0.0
 10
112.7377
 20
126.488
 30
0.0
 10
112.7377
 20
126.488
 30
0.0
 10
112.7377
 20
124.3654
 30
0.0
 10
112.7377
 20
122.1312
 30
0.0
 10
112.7377
 20
119.9483
 30
0.0
 10
112.7377
 20
119.9483
 30
0.0
 10
113.7766
 20
123.5057
 30
0.0
 10
116.2375
 20
125.741
 30
0.0
 10
119.3754
 20
126.488
 30
0.0
  0
SPLINE
  5
4B
330
1F
100
AcDbEntity
  8
layer 1
 62
     7
100
AcDbSpline
210
0.0
220
0.0
230
1.0
 70
    11
 71
     3
 72
    16
 73
    12
 74
     0
 42
0.0000000001
 43
0.0000000001
 12
1.0
 22
0.0
 32
0.0
 13
1.0
 23
0.0
 33
0.0
 40
0.0
 40
0.0
 40
0.0
 40
0.0
 40
0.25
 40
0.25
 40
0.25
 40
0.25
 40
0.5
 40
0.5
 40
0.5
 40
0.5
 40
1.0
 40
1.0
 40
1.0
 40
1.0
 10
145.7752
 20
126.488
 30
0.0
 10
140.5339
 20
126.488
 30
0.0
 10
132.2294
 20
126.488
 30
0.0
 10
125.5695
 20
126.488
 30
0.0
 10
125.5695
 20
126.488
 30
0.0
 10
128.3513
 20
125.6756
 30
0.0
 10
131.2787
 20
123.1181
 30
0.0
 10
133.0479
 20
120.5818
 30
0.0
 10
133.0479
 20
120.5818
 30
0.0
 10
137.0292
 20
123.6574
 30
0.0
 10
140.2001
 20
125.3516
 30
0.0
 10
145.7752
 20
126.488
 30
0.0
  0
SPLINE
  5
4C
330
1F
100
AcDbEntity
  8
layer 1
 62
     7
100
AcDbSpline
210
0.0
220
0.0
230
1.0
 70
    11
 71
     3
 72
    68
 73
    64
 74
     0
 42
0.0000000001
 43
0.0000000001
 12
1.0
 22
0.0
 32
0.0
 13
1.0
 23
0.0
 33
0.0
 40
0.0
 40
0.0
 40
0.0
 40
0.0
 40
0.0588235294117647
 40
0.0588235294117647
 40
0.0588235294117647
 40
0.0588235294117647
 40
0.1176470588235294
 40
0.1176470588235294
 40
0.1176470588235294
 40
0.1176470588235294
 40
0.1764705882352941
 40
0.1764705882352941
 40
0.1764705882352941
 40
0.1764705882352941
 40
0.2352941176470588
 40
0.2352941176470588
 40
0.2352941176470588
 40
0.2352941176470588
 40
0.2941176470588235
 40
0.2941176470588235
 40
0.2941176470588235
 40
0.2941176470588235
 40
0.3529411764705883
 40
0.3529411764705883
 40
0.3529411764705883
 40
0.3529411764705883
 40
0.4117647058823529
 40
0.4117647058823529
 40
0.4117647058823529
 40
0.4117647058823529
 40
0.4705882352941176
 40
0.4705882352941176
 40
0.4705882352941176
 40
0.4705882352941176
 40
0.5294117647058824
 40
0.5294117647058824
 40
0.5294117647058824
 40
0.5294117647058824
 40
0.5882352941176471
 40
0.5882352941176471
 40
0.5882352941176471
 40
0.5882352941176471
 40
0.6470588235294118
 40
0.6470588235294118
 40
0.6470588235294118
 40
0.6470588235294118
 40
0.7058823529411765
 40
0.7058823529411765
 40
0.7058823529411765
 40
0.7058823529411765
 40
0.7647058823529411
 40
0.7647058823529411
 40
0.7647058823529411
 40
0.7647058823529411
 40
0.8235294117647058
 40
0.8235294117647058
 40
0.8235294117647058
 40
0.8235294117647058
 40
0.8823529411764706
 40
0.8823529411764706
 40
0.8823529411764706
 40
0.8823529411764706
 40
1.0
 40
1.0
 40
1.0
 40
1.0
 10
169.7999
 20
98.9453
 30
0.0
 10
171.4262
 20
99.6626
 30
0.0
 10
171.6888
 20
101.2246
 30
0.0
 10
173.709
 20
101.21
 30
0.0
 10
173.709
 20
101.21
 30
0.0
 10
174.4559
 20
101.21
 30
0.0
 10
175.352
 20
101.0575
 30
0.0
 10
175.7004
 20
100.871
 30
0.0
 10
175.7004
 20
100.871
 30
0.0
 10
176.2741
 20
100.564
 30
0.0
 10
176.2888
 20
100.4679
 30
0.0
 10
175.8563
 20
99.8504
 30
0.0
 10
175.8563
 20
99.8504
 30
0.0
 10
174.6688
 20
98.155
 30
0.0
 10
177.2598
 20
97.1744
 30
0.0
 10
178.5598
 20
98.8272
 30
0.0
 10
178.5598
 20
98.8272
 30
0.0
 10
180.4221
 20
101.9119
 30
0.0
 10
176.6874
 20
104.1456
 30
0.0
 10
171.5378
 20
103.7506
 30
0.0
 10
171.5378
 20
103.7506
 30
0.0
 10
171.5378
 20
103.7506
 30
0.0
 10
168.6359
 20
103.6364
 30
0.0
 10
168.6359
 20
103.6364
 30
0.0
 10
168.6359
 20
103.6364
 30
0.0
 10
166.4659
 20
100.2868
 30
0.0
 10
162.8978
 20
97.187
 30
0.0
 10
159.1415
 20
96.8595
 30
0.0
 10
159.1415
 20
96.8595
 30
0.0
 10
162.8978
 20
96.3052
 30
0.0
 10
166.0876
 20
93.5835
 30
0.0
 10
168.6359
 20
90.0826
 30
0.0
 10
168.6359
 20
90.0826
 30
0.0
 10
168.6359
 20
90.0826
 30
0.0
 10
171.5378
 20
89.9684
 30
0.0
 10
171.5378
 20
89.9684
 30
0.0
 10
171.5378
 20
89.9684
 30
0.0
 10
176.6874
 20
89.5735
 30
0.0
 10
180.4222
 20
91.8071
 30
0.0
 10
178.5598
 20
94.8919
 30
0.0
 10
178.5598
 20
94.8919
 30
0.0
 10
177.2598
 20
96.5447
 30
0.0
 10
174.6688
 20
95.564
 30
0.0
 10
175.8563
 20
93.8687
 30
0.0
 10
175.8563
 20
93.8687
 30
0.0
 10
176.2888
 20
93.2512
 30
0.0
 10
176.2741
 20
93.1551
 30
0.0
 10
175.7004
 20
92.848
 30
0.0
 10
175.7004
 20
92.848
 30
0.0
 10
175.352
 20
92.6616
 30
0.0
 10
174.456
 20
92.5091
 30
0.0
 10
173.709
 20
92.5091
 30
0.0
 10
173.709
 20
92.5091
 30
0.0
 10
171.6887
 20
92.4944
 30
0.0
 10
171.4262
 20
94.0565
 30
0.0
 10
169.7999
 20
94.7737
 30
0.0
 10
169.7999
 20
94.7737
 30
0.0
 10
168.6957
 20
95.184
 30
0.0
 10
165.5519
 20
95.6794
 30
0.0
 10
165.6769
 20
96.8595
 30
0.0
 10
165.6769
 20
96.8595
 30
0.0
 10
165.5519
 20
98.0396
 30
0.0
 10
168.6956
 20
98.5352
 30
0.0
 10
169.7999
 20
98.9453
 30
0.0
  0
SPLINE
  5
4D
330
1F
100
AcDbEntity
  8
layer 1
 62
     7
100
AcDbSpline
210
0.0
220
0.0
230
1.0
 70
    11
 71
     3
 72
    20
 73
    16
 74
     0
 42
0.0000000001
 43
0.0000000001
 12
1.0
 22
0.0
 32
0.0
 13
1.0
 23
0.0
 33
0.0
 40
0.0
 40
0.0
 40
0.0
 40
0.0
 40
0.2
 40
0.2
 40
0.2
 40
0.2
 40
0.4
 40
0.4
 40
0.4
 40
0.4
 40
0.6
 40
0.6
 40
0.6
 40
0.6
 40
1.0
 40
1.0
 40
1.0
 40
1.0
 10
152.3795
 20
99.1617
 30
0.0
 10
151.7209
 20
98.1108
 30
0.0
 10
150.1974
 20
97.1293
 30
0.0
 10
148.3732
 20
96.8595
 30
0.0
 10
148.3732
 20
96.8595
 30
0.0
 10
150.1975
 20
96.5898
 30
0.0
 10
151.7211
 20
95.6083
 30
0.0
 10
152.3796
 20
94.5573
 30
0.0
 10
152.3796
 20
94.5573
 30
0.0
 10
153.0382
 20
95.6083
 30
0.0
 10
154.5618
 20
96.5898
 30
0.0
 10
156.386
 20
96.8595
 30
0.0
 10
156.386
 20
96.8595
 30
0.0
 10
154.5616
 20
97.1293
 30
0.0
 10
153.0381
 20
98.1108
 30
0.0
 10
152.3795
 20
99.1617
 30
0.0
  0
SPLINE
  5
4E
330
1F
100
AcDbEntity
  8
layer 1
 62
     7
100
AcDbSpline
210
0.0
220
0.0
230
1.0
 70
    11
 71
     3
 72
    56
 73
    52
 74
     0
 42
0.0000000001
 43
0.0000000001
 12
1.0
 22
0.0
 32
0.0
 13
1.0
 23
0.0
 33
0.0
 40
0.0
 40
0.0
 40
0.0
 40
0.0
 40
0.0714285714285714
 40
0.0714285714285714
 40
0.0714285714285714
 40
0.0714285714285714
 40
0.1428571428571428
 40
0.1428571428571428
 40
0.1428571428571428
 40
0.1428571428571428
 40
0.2142857142857143
 40
0.2142857142857143
 40
0.2142857142857143
 40
0.2142857142857143
 40
0.2857142857142857
 40
0.2857142857142857
 40
0.2857142857142857
 40
0.2857142857142857
 40
0.3571428571428572
 40
0.3571428571428572
 40
0.3571428571428572
 40
0.3571428571428572
 40
0.4285714285714285
 40
0.4285714285714285
 40
0.4285714285714285
 40
0.4285714285714285
 40
0.5
 40
0.5
 40
0.5
 40
0.5
 40
0.5714285714285714
 40
0.5714285714285714
 40
0.5714285714285714
 40
0.5714285714285714
 40
0.6428571428571429
 40
0.6428571428571429
 40
0.6428571428571429
 40
0.6428571428571429
 40
0.7142857142857143
 40
0.7142857142857143
 40
0.7142857142857143
 40
0.7142857142857143
 40
0.7857142857142857
 40
0.7857142857142857
 40
0.7857142857142857
 40
0.7857142857142857
 40
0.8571428571428571
 40
0.8571428571428571
 40
0.8571428571428571
 40
0.8571428571428571
 40
1.0
 40
1.0
 40
1.0
 40
1.0
 10
155.4304
 20
104.6266
 30
0.0
 10
157.3061
 20
104.2532
 30
0.0
 10
158.3738
 20
102.3425
 30
0.0
 10
156.8299
 20
102.1223
 30
0.0
 10
156.8299
 20
102.1223
 30
0.0
 10
155.9979
 20
102.0035
 30
0.0
 10
155.7005
 20
101.0758
 30
0.0
 10
156.2733
 20
100.3857
 30
0.0
 10
156.2733
 20
100.3857
 30
0.0
 10
157.609
 20
99.0262
 30
0.0
 10
162.0383
 20
100.4668
 30
0.0
 10
163.4421
 20
103.0919
 30
0.0
 10
163.4421
 20
103.0919
 30
0.0
 10
159.0033
 20
103.5274
 30
0.0
 10
153.9587
 20
105.303
 30
0.0
 10
153.3866
 20
110.2777
 30
0.0
 10
153.3866
 20
110.2777
 30
0.0
 10
153.2244
 20
111.9722
 30
0.0
 10
152.9301
 20
112.6129
 30
0.0
 10
152.3794
 20
112.6507
 30
0.0
 10
152.3794
 20
112.6507
 30
0.0
 10
151.8287
 20
112.6129
 30
0.0
 10
151.5343
 20
111.9722
 30
0.0
 10
151.3722
 20
110.2777
 30
0.0
 10
151.3722
 20
110.2777
 30
0.0
 10
150.8001
 20
105.303
 30
0.0
 10
145.7556
 20
103.5274
 30
0.0
 10
141.3166
 20
103.0919
 30
0.0
 10
141.3166
 20
103.0919
 30
0.0
 10
142.7205
 20
100.4668
 30
0.0
 10
147.1497
 20
99.0261
 30
0.0
 10
148.4855
 20
100.3857
 30
0.0
 10
148.4855
 20
100.3857
 30
0.0
 10
149.0583
 20
101.0758
 30
0.0
 10
148.7609
 20
102.0035
 30
0.0
 10
147.9289
 20
102.1223
 30
0.0
 10
147.9289
 20
102.1223
 30
0.0
 10
146.3851
 20
102.3425
 30
0.0
 10
147.4528
 20
104.2532
 30
0.0
 10
149.3284
 20
104.6266
 30
0.0
 10
149.3284
 20
104.6266
 30
0.0
 10
150.7421
 20
104.6804
 30
0.0
 10
151.6102
 20
104.2859
 30
0.0
 10
152.3793
 20
103.2838
 30
0.0
 10
152.3793
 20
103.2838
 30
0.0
 10
153.1484
 20
104.2859
 30
0.0
 10
154.0164
 20
104.6803
 30
0.0
 10
155.4302
 20
104.6266
 30
0.0
 10
155.4302
 20
104.6266
 30
0.0
 10
155.4302
 20
104.6266
 30
0.0
 10
155.4304
 20
104.6266
 30
0.0
 10
155.4304
 20
104.6266
 30
0.0
  0
SPLINE
  5
4F
330
1F
100
AcDbEntity
  8
layer 1
 62
     7
100
AcDbSpline
210
0.0
220
0.0
230
1.0
 70
    11
 71
     3
 72
    28
 73
    24
 74
     0
 42
0.0000000001
 43
0.0000000001
 12
1.0
 22
0.0
 32
0.0
 13
1.0
 23
0.0
 33
0.0
 40
0.0
 40
0.0
 40
0.0
 40
0.0
 40
0.1428571428571428
 40
0.1428571428571428
 40
0.1428571428571428
 40
0.1428571428571428
 40
0.2857142857142857
 40
0.2857142857142857
 40
0.2857142857142857
 40
0.2857142857142857
 40
0.4285714285714285
 40
0.4285714285714285
 40
0.4285714285714285
 40
0.4285714285714285
 40
0.5714285714285714
 40
0.5714285714285714
 40
0.5714285714285714
 40
0.5714285714285714
 40
0.7142857142857143
 40
0.7142857142857143
 40
0.7142857142857143
 40
0.7142857142857143
 40
1.0
 40
1.0
 40
1.0
 40
1.0
 10
186.6823
 20
102.0055
 30
0.0
 10
186.1053
 20
102.7009
 30
0.0
 10
186.1392
 20
104.1028
 30
0.0
 10
188.1809
 20
106.907
 30
0.0
 10
188.1809
 20
106.907
 30
0.0
 10
189.5803
 20
108.954
 30
0.0
 10
191.0214
 20
111.2901
 30
0.0
 10
192.0212
 20
113.8641
 30
0.0
 10
192.0212
 20
113.8641
 30
0.0
 10
191.831
 20
110.171
 30
0.0
 10
192.0171
 20
106.4769
 30
0.0
 10
192.0212
 20
102.7807
 30
0.0
 10
192.0212
 20
102.7807
 30
0.0
 10
191.3689
 20
103.8417
 30
0.0
 10
190.157
 20
104.3251
 30
0.0
 10
189.1813
 20
104.2635
 30
0.0
 10
189.1813
 20
104.2635
 30
0.0
 10
188.603
 20
104.1501
 30
0.0
 10
188.2982
 20
104.0355
 30
0.0
 10
188.4794
 20
103.3136
 30
0.0
 10
188.4794
 20
103.3136
 30
0.0
 10
189.0488
 20
101.9
 30
0.0
 10
187.4567
 20
101.1414
 30
0.0
 10
186.6823
 20
102.0055
 30
0.0
  0
SPLINE
  5
50
330
1F
100
AcDbEntity
  8
layer 1
 62
     7
100
AcDbSpline
210
0.0
220
0.0
230
1.0
 70
    11
 71
     3
 72
    16
 73
    12
 74
     0
 42
0.0000000001
 43
0.0000000001
 12
1.0
 22
0.0
 32
0.0
 13
1.0
 23
0.0
 33
0.0
 40
0.0
 40
0.0
 40
0.0
 40
0.0
 40
0.25
 40
0.25
 40
0.25
 40
0.25
 40
0.5
 40
0.5
 40
0.5
 40
0.5
 40
1.0
 40
1.0
 40
1.0
 40
1.0
 10
180.1071
 20
111.0774
 30
0.0
 10
181.6656
 20
109.8151
 30
0.0
 10
183.4573
 20
109.3792
 30
0.0
 10
185.3455
 20
109.9194
 30
0.0
 10
185.3455
 20
109.9194
 30
0.0
 10
184.2758
 20
108.0162
 30
0.0
 10
183.5449
 20
107.0986
 30
0.0
 10
182.7918
 20
104.2843
 30
0.0
 10
182.7918
 20
104.2843
 30
0.0
 10
182.4487
 20
106.7745
 30
0.0
 10
181.2067
 20
109.5575
 30
0.0
 10
180.1071
 20
111.0774
 30
0.0
  0
SPLINE
  5
51
330
1F
100
AcDbEntity
  8
layer 1
 62
     7
100
AcDbSpline
210
0.0
220
0.0
230
1.0
 70
    11
 71
     3
 72
    20
 73
    16
 74
     0
 42
0.0000000001
 43
0.0000000001
 12
1.0
 22
0.0
 32
0.0
 13
1.0
 23
0.0
 33
0.0
 40
0.0
 40
0.0
 40
0.0
 40
0.0
 40
0.2
 40
0.2
 40
0.2
 40
0.2
 40
0.4
 40
0.4
 40
0.4
 40
0.4
 40
0.6
 40
0.6
 40
0.6
 40
0.6
 40
1.0
 40
1.0
 40
1.0
 40
1.0
 10
170.8319
 20
107.4041
 30
0.0
 10
172.636
 20
109.7053
 30
0.0
 10
173.0052
 20
110.8366
 30
0.0
 10
173.8595
 20
113.9124
 30
0.0
 10
173.8595
 20
113.9124
 30
0.0
 10
175.7577
 20
111.7341
 30
0.0
 10
177.0959
 20
109.6127
 30
0.0
 10
178.4482
 20
106.5826
 30
0.0
 10
178.4482
 20
106.5826
 30
0.0
 10
175.5348
 20
107.7807
 30
0.0
 10
173.6665
 20
107.9634
 30
0.0
 10
170.832
 20
107.4041
 30
0.0
 10
170.832
 20
107.4041
 30
0.0
 10
170.832
 20
107.4041
 30
0.0
 10
170.8319
 20
107.4041
 30
0.0
 10
170.8319
 20
107.4041
 30
0.0
  0
SPLINE
  5
52
330
1F
100
AcDbEntity
  8
layer 1
 62
     7
100
AcDbSpline
210
0.0
220
0.0
230
1.0
 70
    11
 71
     3
 72
    32
 73
    28
 74
     0
 42
0.0000000001
 43
0.0000000001
 12
1.0
 22
0.0
 32
0.0
 13
1.0
 23
0.0
 33
0.0
 40
0.0
 40
0.0
 40
0.0
 40
0.0
 40
0.125
 40
0.125
 40
0.125
 40
0.125
 40
0.25
 40
0.25
 40
0.25
 40
0.25
 40
0.375
 40
0.375
 40
0.375
 40
0.375
 40
0.5
 40
0.5
 40
0.5
 40
0.5
 40
0.625
 40
0.625
 40
0.625
 40
0.625
 40
0.75
 40
0.75
 40
0.75
 40
0.75
 40
1.0
 40
1.0
 40
1.0
 40
1.0
 10
175.0246
 20
117.8447
 30
0.0
 10
176.7454
 20
121.949
 30
0.0
 10
180.4421
 20
123.9919
 30
0.0
 10
183.6918
 20
123.1952
 30
0.0
 10
183.6918
 20
123.1952
 30
0.0
 10
187.8622
 20
122.8459
 30
0.0
 10
190.3878
 20
117.9222
 30
0.0
 10
188.4732
 20
115.9234
 30
0.0
 10
188.4732
 20
115.9234
 30
0.0
 10
186.1809
 20
113.8112
 30
0.0
 10
184.2146
 20
117.1065
 30
0.0
 10
185.7007
 20
118.6801
 30
0.0
 10
185.7007
 20
118.6801
 30
0.0
 10
186.6028
 20
119.5822
 30
0.0
 10
186.5169
 20
119.8681
 30
0.0
 10
185.2143
 20
120.298
 30
0.0
 10
185.2143
 20
120.298
 30
0.0
 10
179.7313
 20
121.1873
 30
0.0
 10
178.2934
 20
116.2184
 30
0.0
 10
178.9707
 20
112.8419
 30
0.0
 10
178.9707
 20
112.8419
 30
0.0
 10
177.817
 20
114.9949
 30
0.0
 10
176.4459
 20
116.4202
 30
0.0
 10
175.0245
 20
117.8446
 30
0.0
 10
175.0245
 20
117.8446
 30
0.0
 10
175.0245
 20
117.8446
 30
0.0
 10
175.0246
 20
117.8447
 30
0.0
 10
175.0246
 20
117.8447
 30
0.0
  0
SPLINE
  5
53
330
1F
100
AcDbEntity
  8
layer 1
 62
     7
100
AcDbSpline
210
0.0
220
0.0
230
1.0
 70
    11
 71
     3
 72
    16
 73
    12
 74
     0
 42
0.0000000001
 43
0.0000000001
 12
1.0
 22
0.0
 32
0.0
 13
1.0
 23
0.0
 33
0.0
 40
0.0
 40
0.0
 40
0.0
 40
0.0
 40
0.25
 40
0.25
 40
0.25
 40
0.25
 40
0.5
 40
0.5
 40
0.5
 40
0.5
 40
1.0
 40
1.0
 40
1.0
 40
1.0
 10
185.3835
 20
126.488
 30
0.0
 10
188.2896
 20
126.488
 30
0.0
 10
189.8665
 20
126.488
 30
0.0
 10
192.0212
 20
126.488
 30
0.0
 10
192.0212
 20
126.488
 30
0.0
 10
192.0212
 20
124.3654
 30
0.0
 10
192.0212
 20
122.1312
 30
0.0
 10
192.0212
 20
119.9483
 30
0.0
 10
192.0212
 20
119.9483
 30
0.0
 10
190.9823
 20
123.5057
 30
0.0
 10
188.5213
 20
125.741
 30
0.0
 10
185.3835
 20
126.488
 30
0.0
  0
SPLINE
  5
54
330
1F
100
AcDbEntity
  8
layer 1
 62
     7
100
AcDbSpline
210
0.0
220
0.0
230
1.0
 70
    11
 71
     3
 72
    16
 73
    12
 74
     0
 42
0.0000000001
 43
0.0000000001
 12
1.0
 22
0.0
 32
0.0
 13
1.0
 23
0.0
 33
0.0
 40
0.0
 40
0.0
 40
0.0
 40
0.0
 40
0.25
 40
0.25
 40
0.25
 40
0.25
 40
0.5
 40
0.5
 40
0.5
 40
0.5
 40
1.0
 40
1.0
 40
1.0
 40
1.0
 10
158.9837
 20
126.488
 30
0.0
 10
164.225
 20
126.488
 30
0.0
 10
172.5295
 20
126.488
 30
0.0
 10
179.1894
 20
126.488
 30
0.0
 10
179.1894
 20
126.488
 30
0.0
 10
176.4076
 20
125.6756
 30
0.0
 10
173.4802
 20
123.1181
 30
0.0
 10
171.711
 20
120.5818
 30
0.0
 10
171.711
 20
120.5818
 30
0.0
 10
167.7297
 20
123.6574
 30
0.0
 10
164.5588
 20
125.3516
 30
0.0
 10
158.9837
 20
126.488
 30
0.0
  0
SPLINE
  5
55
330
1F
100
AcDbEntity
  8
layer 1
 62
     7
100
AcDbSpline
210
0.0
220
0.0
230
1.0
 70
    11
 71
     3
 72
    20
 73
    16
 74
     0
 42
0.0000000001
 43
0.0000000001
 12
1.0
 22
0.0
 32
0.0
 13
1.0
 23
0.0
 33
0.0
 40
0.0
 40
0.0
 40
0.0
 40
0.0
 40
0.2
 40
0.2
 40
0.2
 40
0.2
 40
0.4
 40
0.4
 40
0.4
 40
0.4
 40
0.6
 40
0.6
 40
0.6
 40
0.6
 40
1.0
 40
1.0
 40
1.0
 40
1.0
 10
112.7377
 20
93.9487
 30
0.0
 10
113.9828
 20
96.0103
 30
0.0
 10
118.3755
 20
97.176
 30
0.0
 10
120.6758
 20
95.1083
 30
0.0
 10
120.6758
 20
95.1083
 30
0.0
 10
120.6758
 20
95.1083
 30
0.0
 10
120.6758
 20
98.6107
 30
0.0
 10
120.6758
 20
98.6107
 30
0.0
 10
120.6758
 20
98.6107
 30
0.0
 10
118.3755
 20
96.5431
 30
0.0
 10
113.9828
 20
97.7087
 30
0.0
 10
112.7377
 20
99.7703
 30
0.0
 10
112.7377
 20
99.7703
 30
0.0
 10
112.7377
 20
99.7703
 30
0.0
 10
112.7377
 20
93.9487
 30
0.0
 10
112.7377
 20
93.9487
 30
0.0
  0
SPLINE
  5
56
330
1F
100
AcDbEntity
  8
layer 1
 62
     7
100
AcDbSpline
210
0.0
220
0.0
230
1.0
 70
    11
 71
     3
 72
    28
 73
    24
 74
     0
 42
0.0000000001
 43
0.0000000001
 12
1.0
 22
0.0
 32
0.0
 13
1.0
 23
0.0
 33
0.0
 40
0.0
 40
0.0
 40
0.0
 40
0.0
 40
0.1428571428571428
 40
0.1428571428571428
 40
0.1428571428571428
 40
0.1428571428571428
 40
0.2857142857142857
 40
0.2857142857142857
 40
0.2857142857142857
 40
0.2857142857142857
 40
0.4285714285714285
 40
0.4285714285714285
 40
0.4285714285714285
 40
0.4285714285714285
 40
0.5714285714285714
 40
0.5714285714285714
 40
0.5714285714285714
 40
0.5714285714285714
 40
0.7142857142857143
 40
0.7142857142857143
 40
0.7142857142857143
 40
0.7142857142857143
 40
1.0
 40
1.0
 40
1.0
 40
1.0
 10
118.0766
 20
91.7134
 30
0.0
 10
118.6536
 20
91.018
 30
0.0
 10
118.6197
 20
89.6162
 30
0.0
 10
116.578
 20
86.8119
 30
0.0
 10
116.578
 20
86.8119
 30
0.0
 10
115.1786
 20
84.7649
 30
0.0
 10
113.7375
 20
82.4288
 30
0.0
 10
112.7377
 20
79.8548
 30
0.0
 10
112.7377
 20
79.8548
 30
0.0
 10
112.9279
 20
83.5479
 30
0.0
 10
112.7418
 20
87.2421
 30
0.0
 10
112.7377
 20
90.9382
 30
0.0
 10
112.7377
 20
90.9382
 30
0.0
 10
113.39
 20
89.8772
 30
0.0
 10
114.6019
 20
89.3939
 30
0.0
 10
115.5776
 20
89.4554
 30
0.0
 10
115.5776
 20
89.4554
 30
0.0
 10
116.1559
 20
89.5688
 30
0.0
 10
116.4607
 20
89.6834
 30
0.0
 10
116.2795
 20
90.4053
 30
0.0
 10
116.2795
 20
90.4053
 30
0.0
 10
115.7101
 20
91.819
 30
0.0
 10
117.3022
 20
92.5776
 30
0.0
 10
118.0766
 20
91.7134
 30
0.0
  0
SPLINE
  5
57
330
1F
100
AcDbEntity
  8
layer 1
 62
     7
100
AcDbSpline
210
0.0
220
0.0
230
1.0
 70
    11
 71
     3
 72
    16
 73
    12
 74
     0
 42
0.0000000001
 43
0.0000000001
 12
1.0
 22
0.0
 32
0.0
 13
1.0
 23
0.0
 33
0.0
 40
0.0
 40
0.0
 40
0.0
 40
0.0
 40
0.25
 40
0.25
 40
0.25
 40
0.25
 40
0.5
 40
0.5
 40
0.5
 40
0.5
 40
1.0
 40
1.0
 40
1.0
 40
1.0
 10
124.6518
 20
82.6417
 30
0.0
 10
123.2445
 20
84.1309
 30
0.0
 10
121.3016
 20
84.5668
 30
0.0
 10
119.4134
 20
83.7996
 30
0.0
 10
119.4134
 20
83.7996
 30
0.0
 10
120.4831
 20
85.7029
 30
0.0
 10
121.214
 20
86.6204
 30
0.0
 10
121.9671
 20
89.4347
 30
0.0
 10
121.9671
 20
89.4347
 30
0.0
 10
122.3102
 20
86.9446
 30
0.0
 10
123.5522
 20
84.1616
 30
0.0
 10
124.6518
 20
82.6417
 30
0.0
  0
SPLINE
  5
58
330
1F
100
AcDbEntity
  8
layer 1
 62
     7
100
AcDbSpline
210
0.0
220
0.0
230
1.0
 70
    11
 71
     3
 72
    20
 73
    16
 74
     0
 42
0.0000000001
 43
0.0000000001
 12
1.0
 22
0.0
 32
0.0
 13
1.0
 23
0.0
 33
0.0
 40
0.0
 40
0.0
 40
0.0
 40
0.0
 40
0.2
 40
0.2
 40
0.2
 40
0.2
 40
0.4
 40
0.4
 40
0.4
 40
0.4
 40
0.6
 40
0.6
 40
0.6
 40
0.6
 40
1.0
 40
1.0
 40
1.0
 40
1.0
 10
133.927
 20
86.315
 30
0.0
 10
132.3498
 20
84.3162
 30
0.0
 10
131.1486
 20
82.5799
 30
0.0
 10
130.8994
 20
79.8066
 30
0.0
 10
130.8994
 20
79.8066
 30
0.0
 10
129.0012
 20
81.9849
 30
0.0
 10
127.663
 20
84.1063
 30
0.0
 10
126.3107
 20
87.1364
 30
0.0
 10
126.3107
 20
87.1364
 30
0.0
 10
129.0167
 20
85.7179
 30
0.0
 10
131.0298
 20
85.7882
 30
0.0
 10
133.9269
 20
86.315
 30
0.0
 10
133.9269
 20
86.315
 30
0.0
 10
133.9269
 20
86.315
 30
0.0
 10
133.927
 20
86.315
 30
0.0
 10
133.927
 20
86.315
 30
0.0
  0
SPLINE
  5
59
330
1F
100
AcDbEntity
  8
layer 1
 62
     7
100
AcDbSpline
210
0.0
220
0.0
230
1.0
 70
    11
 71
     3
 72
   136
 73
   132
 74
     0
 42
0.0000000001
 43
0.0000000001
 12
1.0
 22
0.0
 32
0.0
 13
1.0
 23
0.0
 33
0.0
 40
0.0
 40
0.0
 40
0.0
 40
0.0
 40
0.0294117647058824
 40
0.0294117647058824
 40
0.0294117647058824
 40
0.0294117647058824
 40
0.0588235294117647
 40
0.0588235294117647
 40
0.0588235294117647
 40
0.0588235294117647
 40
0.0882352941176471
 40
0.0882352941176471
 40
0.0882352941176471
 40
0.0882352941176471
 40
0.1176470588235294
 40
0.1176470588235294
 40
0.1176470588235294
 40
0.1176470588235294
 40
0.1470588235294118
 40
0.1470588235294118
 40
0.1470588235294118
 40
0.1470588235294118
 40
0.1764705882352941
 40
0.1764705882352941
 40
0.1764705882352941
 40
0.1764705882352941
 40
0.2058823529411765
 40
0.2058823529411765
 40
0.2058823529411765
 40
0.2058823529411765
 40
0.2352941176470588
 40
0.2352941176470588
 40
0.2352941176470588
 40
0.2352941176470588
 40
0.2647058823529412
 40
0.2647058823529412
 40
0.2647058823529412
 40
0.2647058823529412
 40
0.2941176470588235
 40
0.2941176470588235
 40
0.2941176470588235
 40
0.2941176470588235
 40
0.3235294117647059
 40
0.3235294117647059
 40
0.3235294117647059
 40
0.3235294117647059
 40
0.3529411764705883
 40
0.3529411764705883
 40
0.3529411764705883
 40
0.3529411764705883
 40
0.3823529411764706
 40
0.3823529411764706
 40
0.3823529411764706
 40
0.3823529411764706
 40
0.4117647058823529
 40
0.4117647058823529
 40
0.4117647058823529
 40
0.4117647058823529
 40
0.4411764705882353
 40
0.4411764705882353
 40
0.4411764705882353
 40
0.4411764705882353
 40
0.4705882352941176
 40
0.4705882352941176
 40
0.4705882352941176
 40
0.4705882352941176
 40
0.5
 40
0.5
 40
0.5
 40
0.5
 40
0.5294117647058824
 40
0.5294117647058824
 40
0.5294117647058824
 40
0.5294117647058824
 40
0.5588235294117647
 40
0.5588235294117647
 40
0.5588235294117647
 40
0.5588235294117647
 40
0.5882352941176471
 40
0.5882352941176471
 40
0.5882352941176471
 40
0.5882352941176471
 40
0.6176470588235294
 40
0.6176470588235294
 40
0.6176470588235294
 40
0.6176470588235294
 40
0.6470588235294118
 40
0.6470588235294118
 40
0.6470588235294118
 40
0.6470588235294118
 40
0.6764705882352942
 40
0.6764705882352942
 40
0.6764705882352942
 40
0.6764705882352942
 40
0.7058823529411765
 40
0.7058823529411765
 40
0.7058823529411765
 40
0.7058823529411765
 40
0.7352941176470589
 40
0.7352941176470589
 40
0.7352941176470589
 40
0.7352941176470589
 40
0.7647058823529411
 40
0.7647058823529411
 40
0.7647058823529411
 40
0.7647058823529411
 40
0.7941176470588235
 40
0.7941176470588235
 40
0.7941176470588235
 40
0.7941176470588235
 40
0.8235294117647058
 40
0.8235294117647058
 40
0.8235294117647058
 40
0.8235294117647058
 40
0.8529411764705882
 40
0.8529411764705882
 40
0.8529411764705882
 40
0.8529411764705882
 40
0.8823529411764706
 40
0.8823529411764706
 40
0.8823529411764706
 40
0.8823529411764706
 40
0.9117647058823529
 40
0.9117647058823529
 40
0.9117647058823529
 40
0.9117647058823529
 40
0.9411764705882353
 40
0.9411764705882353
 40
0.9411764705882353
 40
0.9411764705882353
 40
1.0
 40
1.0
 40
1.0
 40
1.0
 10
150.0921
 20
76.0778
 30
0.0
 10
148.5734
 20
75.128
 30
0.0
 10
146.7149
 20
75.1266
 30
0.0
 10
144.9456
 20
76.606
 30
0.0
 10
144.9456
 20
76.606
 30
0.0
 10
143.4962
 20
77.8943
 30
0.0
 10
143.2678
 20
80.632
 30
0.0
 10
144.6946
 20
82.5278
 30
0.0
 10
144.6946
 20
82.5278
 30
0.0
 10
145.1915
 20
81.5271
 30
0.0
 10
146.2281
 20
80.3539
 30
0.0
 10
147.2102
 20
81.5198
 30
0.0
 10
147.2102
 20
81.5198
 30
0.0
 10
148.0802
 20
83.1455
 30
0.0
 10
146.5201
 20
85.3195
 30
0.0
 10
143.7359
 20
86.3612
 30
0.0
 10
143.7359
 20
86.3612
 30
0.0
 10
143.7359
 20
86.3612
 30
0.0
 10
143.7359
 20
86.3612
 30
0.0
 10
143.7359
 20
86.3612
 30
0.0
 10
143.7359
 20
86.3612
 30
0.0
 10
142.7833
 20
86.7176
 30
0.0
 10
141.2206
 20
87.0091
 30
0.0
 10
140.2631
 20
87.0091
 30
0.0
 10
140.2631
 20
87.0091
 30
0.0
 10
138.6477
 20
87.0091
 30
0.0
 10
138.4756
 20
86.9333
 30
0.0
 10
137.8741
 20
85.9577
 30
0.0
 10
137.8741
 20
85.9577
 30
0.0
 10
137.5175
 20
85.3794
 30
0.0
 10
137.126
 20
84.5059
 30
0.0
 10
137.0038
 20
84.0166
 30
0.0
 10
137.0038
 20
84.0166
 30
0.0
 10
136.8037
 20
83.2145
 30
0.0
 10
136.866
 20
83.1269
 30
0.0
 10
137.636
 20
83.1269
 30
0.0
 10
137.636
 20
83.1269
 30
0.0
 10
139.6704
 20
83.0813
 30
0.0
 10
142.1794
 20
81.4348
 30
0.0
 10
141.9311
 20
79.0887
 30
0.0
 10
141.9311
 20
79.0887
 30
0.0
 10
141.7391
 20
77.453
 30
0.0
 10
139.7412
 20
75.1791
 30
0.0
 10
137.2601
 20
76.2414
 30
0.0
 10
137.2601
 20
76.2414
 30
0.0
 10
136.5128
 20
76.702
 30
0.0
 10
136.4647
 20
77.3035
 30
0.0
 10
137.287
 20
77.3035
 30
0.0
 10
137.287
 20
77.3035
 30
0.0
 10
138.4723
 20
77.47
 30
0.0
 10
139.1673
 20
78.1342
 30
0.0
 10
138.4746
 20
79.0767
 30
0.0
 10
138.4746
 20
79.0767
 30
0.0
 10
137.5493
 20
80.1858
 30
0.0
 10
135.4255
 20
78.65
 30
0.0
 10
134.3435
 20
76.5437
 30
0.0
 10
134.3435
 20
76.5437
 30
0.0
 10
138.5158
 20
73.0155
 30
0.0
 10
144.5052
 20
70.4467
 30
0.0
 10
152.3796
 20
70.2427
 30
0.0
 10
152.3796
 20
70.2427
 30
0.0
 10
160.2541
 20
70.4467
 30
0.0
 10
166.2435
 20
73.0155
 30
0.0
 10
170.4158
 20
76.5437
 30
0.0
 10
170.4158
 20
76.5437
 30
0.0
 10
169.3336
 20
78.65
 30
0.0
 10
167.2098
 20
80.1858
 30
0.0
 10
166.2847
 20
79.0767
 30
0.0
 10
166.2847
 20
79.0767
 30
0.0
 10
165.592
 20
78.1342
 30
0.0
 10
166.287
 20
77.47
 30
0.0
 10
167.4722
 20
77.3035
 30
0.0
 10
167.4722
 20
77.3035
 30
0.0
 10
168.2945
 20
77.3035
 30
0.0
 10
168.2465
 20
76.7021
 30
0.0
 10
167.4991
 20
76.2414
 30
0.0
 10
167.4991
 20
76.2414
 30
0.0
 10
165.018
 20
75.1791
 30
0.0
 10
163.0201
 20
77.4529
 30
0.0
 10
162.8282
 20
79.0887
 30
0.0
 10
162.8282
 20
79.0887
 30
0.0
 10
162.5799
 20
81.4348
 30
0.0
 10
165.0888
 20
83.0813
 30
0.0
 10
167.1233
 20
83.1269
 30
0.0
 10
167.1233
 20
83.1269
 30
0.0
 10
167.8933
 20
83.1269
 30
0.0
 10
167.9556
 20
83.2145
 30
0.0
 10
167.7554
 20
84.0166
 30
0.0
 10
167.7554
 20
84.0166
 30
0.0
 10
167.6333
 20
84.5059
 30
0.0
 10
167.2416
 20
85.3794
 30
0.0
 10
166.8852
 20
85.9577
 30
0.0
 10
166.8852
 20
85.9577
 30
0.0
 10
166.2837
 20
86.9333
 30
0.0
 10
166.1115
 20
87.0091
 30
0.0
 10
164.4962
 20
87.0091
 30
0.0
 10
164.4962
 20
87.0091
 30
0.0
 10
163.5387
 20
87.0091
 30
0.0
 10
161.9759
 20
86.7175
 30
0.0
 10
161.0234
 20
86.3612
 30
0.0
 10
161.0234
 20
86.3612
 30
0.0
 10
161.0234
 20
86.3612
 30
0.0
 10
161.0234
 20
86.3612
 30
0.0
 10
161.0234
 20
86.3612
 30
0.0
 10
161.0234
 20
86.3612
 30
0.0
 10
158.2392
 20
85.3195
 30
0.0
 10
156.6791
 20
83.1455
 30
0.0
 10
157.5491
 20
81.5198
 30
0.0
 10
157.5491
 20
81.5198
 30
0.0
 10
158.5312
 20
80.3539
 30
0.0
 10
159.5677
 20
81.5271
 30
0.0
 10
160.0647
 20
82.5278
 30
0.0
 10
160.0647
 20
82.5278
 30
0.0
 10
161.4915
 20
80.632
 30
0.0
 10
161.2631
 20
77.8943
 30
0.0
 10
159.8136
 20
76.606
 30
0.0
 10
159.8136
 20
76.606
 30
0.0
 10
158.0444
 20
75.1266
 30
0.0
 10
156.1857
 20
75.128
 30
0.0
 10
154.6672
 20
76.0778
 30
0.0
 10
154.6672
 20
76.0778
 30
0.0
 10
154.643
 20
73.869
 30
0.0
 10
153.5323
 20
71.8517
 30
0.0
 10
152.3798
 20
71.8687
 30
0.0
 10
152.3798
 20
71.8687
 30
0.0
 10
151.2272
 20
71.8517
 30
0.0
 10
150.1166
 20
73.869
 30
0.0
 10
150.0923
 20
76.0778
 30
0.0
 10
150.0923
 20
76.0778
 30
0.0
 10
150.0923
 20
76.0778
 30
0.0
 10
150.0921
 20
76.0778
 30
0.0
 10
150.0921
 20
76.0778
 30
0.0
  0
SPLINE
  5
5A
330
1F
100
AcDbEntity
  8
layer 1
 62
     7
100
AcDbSpline
210
0.0
220
0.0
230
1.0
 70
    11
 71
     3
 72
    32
 73
    28
 74
     0
 42
0.0000000001
 43
0.0000000001
 12
1.0
 22
0.0
 32
0.0
 13
1.0
 23
0.0
 33
0.0
 40
0.0
 40
0.0
 40
0.0
 40
0.0
 40
0.125
 40
0.125
 40
0.125
 40
0.125
 40
0.25
 40
0.25
 40
0.25
 40
0.25
 40
0.375
 40
0.375
 40
0.375
 40
0.375
 40
0.5
 40
0.5
 40
0.5
 40
0.5
 40
0.625
 40
0.625
 40
0.625
 40
0.625
 40
0.75
 40
0.75
 40
0.75
 40
0.75
 40
1.0
 40
1.0
 40
1.0
 40
1.0
 10
129.7343
 20
75.8743
 30
0.0
 10
128.0135
 20
71.77
 30
0.0
 10
124.3168
 20
69.7272
 30
0.0
 10
121.0671
 20
70.5238
 30
0.0
 10
121.0671
 20
70.5238
 30
0.0
 10
116.8967
 20
70.8732
 30
0.0
 10
114.3711
 20
75.7968
 30
0.0
 10
116.2857
 20
77.7957
 30
0.0
 10
116.2857
 20
77.7957
 30
0.0
 10
118.578
 20
79.9078
 30
0.0
 10
120.5443
 20
76.6125
 30
0.0
 10
119.0582
 20
75.039
 30
0.0
 10
119.0582
 20
75.039
 30
0.0
 10
118.1561
 20
74.1368
 30
0.0
 10
118.242
 20
73.8509
 30
0.0
 10
119.5446
 20
73.421
 30
0.0
 10
119.5446
 20
73.421
 30
0.0
 10
125.0276
 20
72.5317
 30
0.0
 10
126.4655
 20
77.5006
 30
0.0
 10
125.7882
 20
80.8771
 30
0.0
 10
125.7882
 20
80.8771
 30
0.0
 10
126.9419
 20
78.7241
 30
0.0
 10
128.313
 20
77.2989
 30
0.0
 10
129.7344
 20
75.8745
 30
0.0
 10
129.7344
 20
75.8745
 30
0.0
 10
129.7344
 20
75.8745
 30
0.0
 10
129.7343
 20
75.8743
 30
0.0
 10
129.7343
 20
75.8743
 30
0.0
  0
SPLINE
  5
5B
330
1F
100
AcDbEntity
  8
layer 1
 62
     7
100
AcDbSpline
210
0.0
220
0.0
230
1.0
 70
    11
 71
     3
 72
    16
 73
    12
 74
     0
 42
0.0000000001
 43
0.0000000001
 12
1.0
 22
0.0
 32
0.0
 13
1.0
 23
0.0
 33
0.0
 40
0.0
 40
0.0
 40
0.0
 40
0.0
 40
0.25
 40
0.25
 40
0.25
 40
0.25
 40
0.5
 40
0.5
 40
0.5
 40
0.5
 40
1.0
 40
1.0
 40
1.0
 40
1.0
 10
112.7377
 20
73.7707
 30
0.0
 10
112.7377
 20
73.7707
 30
0.0
 10
112.7396
 20
60.7295
 30
0.0
 10
112.7396
 20
60.7295
 30
0.0
 10
112.7396
 20
60.7295
 30
0.0
 10
113.7786
 20
64.2869
 30
0.0
 10
116.2395
 20
66.5222
 30
0.0
 10
119.3764
 20
67.2501
 30
0.0
 10
119.3764
 20
67.2501
 30
0.0
 10
116.2375
 20
67.978
 30
0.0
 10
113.7766
 20
70.2134
 30
0.0
 10
112.7377
 20
73.7707
 30
0.0
  0
SPLINE
  5
5C
330
1F
100
AcDbEntity
  8
layer 1
 62
     7
100
AcDbSpline
210
0.0
220
0.0
230
1.0
 70
    11
 71
     3
 72
    20
 73
    16
 74
     0
 42
0.0000000001
 43
0.0000000001
 12
1.0
 22
0.0
 32
0.0
 13
1.0
 23
0.0
 33
0.0
 40
0.0
 40
0.0
 40
0.0
 40
0.0
 40
0.2
 40
0.2
 40
0.2
 40
0.2
 40
0.4
 40
0.4
 40
0.4
 40
0.4
 40
0.6
 40
0.6
 40
0.6
 40
0.6
 40
1.0
 40
1.0
 40
1.0
 40
1.0
 10
192.0212
 20
93.9487
 30
0.0
 10
190.7761
 20
96.0103
 30
0.0
 10
186.3834
 20
97.176
 30
0.0
 10
184.0831
 20
95.1083
 30
0.0
 10
184.0831
 20
95.1083
 30
0.0
 10
184.0831
 20
95.1083
 30
0.0
 10
184.0831
 20
98.6107
 30
0.0
 10
184.0831
 20
98.6107
 30
0.0
 10
184.0831
 20
98.6107
 30
0.0
 10
186.3834
 20
96.5431
 30
0.0
 10
190.7761
 20
97.7087
 30
0.0
 10
192.0212
 20
99.7703
 30
0.0
 10
192.0212
 20
99.7703
 30
0.0
 10
192.0212
 20
99.7703
 30
0.0
 10
192.0212
 20
93.9487
 30
0.0
 10
192.0212
 20
93.9487
 30
0.0
  0
SPLINE
  5
5D
330
1F
100
AcDbEntity
  8
layer 1
 62
     7
100
AcDbSpline
210
0.0
220
0.0
230
1.0
 70
    11
 71
     3
 72
    56
 73
    52
 74
     0
 42
0.0000000001
 43
0.0000000001
 12
1.0
 22
0.0
 32
0.0
 13
1.0
 23
0.0
 33
0.0
 40
0.0
 40
0.0
 40
0.0
 40
0.0
 40
0.0714285714285714
 40
0.0714285714285714
 40
0.0714285714285714
 40
0.0714285714285714
 40
0.1428571428571428
 40
0.1428571428571428
 40
0.1428571428571428
 40
0.1428571428571428
 40
0.2142857142857143
 40
0.2142857142857143
 40
0.2142857142857143
 40
0.2142857142857143
 40
0.2857142857142857
 40
0.2857142857142857
 40
0.2857142857142857
 40
0.2857142857142857
 40
0.3571428571428572
 40
0.3571428571428572
 40
0.3571428571428572
 40
0.3571428571428572
 40
0.4285714285714285
 40
0.4285714285714285
 40
0.4285714285714285
 40
0.4285714285714285
 40
0.5
 40
0.5
 40
0.5
 40
0.5
 40
0.5714285714285714
 40
0.5714285714285714
 40
0.5714285714285714
 40
0.5714285714285714
 40
0.6428571428571429
 40
0.6428571428571429
 40
0.6428571428571429
 40
0.6428571428571429
 40
0.7142857142857143
 40
0.7142857142857143
 40
0.7142857142857143
 40
0.7142857142857143
 40
0.7857142857142857
 40
0.7857142857142857
 40
0.7857142857142857
 40
0.7857142857142857
 40
0.8571428571428571
 40
0.8571428571428571
 40
0.8571428571428571
 40
0.8571428571428571
 40
1.0
 40
1.0
 40
1.0
 40
1.0
 10
155.4304
 20
89.0925
 30
0.0
 10
157.3061
 20
89.4659
 30
0.0
 10
158.3738
 20
91.3766
 30
0.0
 10
156.8299
 20
91.5968
 30
0.0
 10
156.8299
 20
91.5968
 30
0.0
 10
155.9979
 20
91.7155
 30
0.0
 10
155.7005
 20
92.6432
 30
0.0
 10
156.2733
 20
93.3333
 30
0.0
 10
156.2733
 20
93.3333
 30
0.0
 10
157.609
 20
94.6928
 30
0.0
 10
162.0383
 20
93.2523
 30
0.0
 10
163.4421
 20
90.6271
 30
0.0
 10
163.4421
 20
90.6271
 30
0.0
 10
159.0033
 20
90.1916
 30
0.0
 10
153.9587
 20
88.416
 30
0.0
 10
153.3866
 20
83.4414
 30
0.0
 10
153.3866
 20
83.4414
 30
0.0
 10
153.2244
 20
81.7469
 30
0.0
 10
152.9301
 20
81.1061
 30
0.0
 10
152.3794
 20
81.0684
 30
0.0
 10
152.3794
 20
81.0684
 30
0.0
 10
151.8287
 20
81.1061
 30
0.0
 10
151.5343
 20
81.7469
 30
0.0
 10
151.3722
 20
83.4414
 30
0.0
 10
151.3722
 20
83.4414
 30
0.0
 10
150.8001
 20
88.416
 30
0.0
 10
145.7556
 20
90.1916
 30
0.0
 10
141.3166
 20
90.6271
 30
0.0
 10
141.3166
 20
90.6271
 30
0.0
 10
142.7205
 20
93.2523
 30
0.0
 10
147.1497
 20
94.6928
 30
0.0
 10
148.4855
 20
93.3333
 30
0.0
 10
148.4855
 20
93.3333
 30
0.0
 10
149.0583
 20
92.6432
 30
0.0
 10
148.7609
 20
91.7155
 30
0.0
 10
147.9289
 20
91.5968
 30
0.0
 10
147.9289
 20
91.5968
 30
0.0
 10
146.3851
 20
91.3766
 30
0.0
 10
147.4528
 20
89.4659
 30
0.0
 10
149.3284
 20
89.0925
 30
0.0
 10
149.3284
 20
89.0925
 30
0.0
 10
150.7421
 20
89.0387
 30
0.0
 10
151.6102
 20
89.4331
 30
0.0
 10
152.3793
 20
90.4353
 30
0.0
 10
152.3793
 20
90.4353
 30
0.0
 10
153.1484
 20
89.4331
 30
0.0
 10
154.0164
 20
89.0388
 30
0.0
 10
155.4302
 20
89.0925
 30
0.0
 10
155.4302
 20
89.0925
 30
0.0
 10
155.4302
 20
89.0925
 30
0.0
 10
155.4304
 20
89.0925
 30
0.0
 10
155.4304
 20
89.0925
 30
0.0
  0
SPLINE
  5
5E
330
1F
100
AcDbEntity
  8
layer 1
 62
     7
100
AcDbSpline
210
0.0
220
0.0
230
1.0
 70
    11
 71
     3
 72
    28
 73
    24
 74
     0
 42
0.0000000001
 43
0.0000000001
 12
1.0
 22
0.0
 32
0.0
 13
1.0
 23
0.0
 33
0.0
 40
0.0
 40
0.0
 40
0.0
 40
0.0
 40
0.1428571428571428
 40
0.1428571428571428
 40
0.1428571428571428
 40
0.1428571428571428
 40
0.2857142857142857
 40
0.2857142857142857
 40
0.2857142857142857
 40
0.2857142857142857
 40
0.4285714285714285
 40
0.4285714285714285
 40
0.4285714285714285
 40
0.4285714285714285
 40
0.5714285714285714
 40
0.5714285714285714
 40
0.5714285714285714
 40
0.5714285714285714
 40
0.7142857142857143
 40
0.7142857142857143
 40
0.7142857142857143
 40
0.7142857142857143
 40
1.0
 40
1.0
 40
1.0
 40
1.0
 10
186.6823
 20
91.7134
 30
0.0
 10
186.1053
 20
91.018
 30
0.0
 10
186.1392
 20
89.6162
 30
0.0
 10
188.1809
 20
86.8119
 30
0.0
 10
188.1809
 20
86.8119
 30
0.0
 10
189.5803
 20
84.7649
 30
0.0
 10
191.0214
 20
82.4288
 30
0.0
 10
192.0212
 20
79.8548
 30
0.0
 10
192.0212
 20
79.8548
 30
0.0
 10
191.831
 20
83.5479
 30
0.0
 10
192.0171
 20
87.2421
 30
0.0
 10
192.0212
 20
90.9382
 30
0.0
 10
192.0212
 20
90.9382
 30
0.0
 10
191.3689
 20
89.8772
 30
0.0
 10
190.157
 20
89.3939
 30
0.0
 10
189.1813
 20
89.4554
 30
0.0
 10
189.1813
 20
89.4554
 30
0.0
 10
188.603
 20
89.5688
 30
0.0
 10
188.2982
 20
89.6834
 30
0.0
 10
188.4794
 20
90.4053
 30
0.0
 10
188.4794
 20
90.4053
 30
0.0
 10
189.0488
 20
91.819
 30
0.0
 10
187.4567
 20
92.5776
 30
0.0
 10
186.6823
 20
91.7134
 30
0.0
  0
SPLINE
  5
5F
330
1F
100
AcDbEntity
  8
layer 1
 62
     7
100
AcDbSpline
210
0.0
220
0.0
230
1.0
 70
    11
 71
     3
 72
    16
 73
    12
 74
     0
 42
0.0000000001
 43
0.0000000001
 12
1.0
 22
0.0
 32
0.0
 13
1.0
 23
0.0
 33
0.0
 40
0.0
 40
0.0
 40
0.0
 40
0.0
 40
0.25
 40
0.25
 40
0.25
 40
0.25
 40
0.5
 40
0.5
 40
0.5
 40
0.5
 40
1.0
 40
1.0
 40
1.0
 40
1.0
 10
180.1071
 20
82.6417
 30
0.0
 10
181.8925
 20
84.2821
 30
0.0
 10
183.3816
 20
84.2642
 30
0.0
 10
185.3455
 20
83.7996
 30
0.0
 10
185.3455
 20
83.7996
 30
0.0
 10
184.2758
 20
85.7029
 30
0.0
 10
183.5449
 20
86.6204
 30
0.0
 10
182.7918
 20
89.4347
 30
0.0
 10
182.7918
 20
89.4347
 30
0.0
 10
182.4487
 20
86.9446
 30
0.0
 10
181.2067
 20
84.1616
 30
0.0
 10
180.1071
 20
82.6417
 30
0.0
  0
SPLINE
  5
60
330
1F
100
AcDbEntity
  8
layer 1
 62
     7
100
AcDbSpline
210
0.0
220
0.0
230
1.0
 70
    11
 71
     3
 72
    20
 73
    16
 74
     0
 42
0.0000000001
 43
0.0000000001
 12
1.0
 22
0.0
 32
0.0
 13
1.0
 23
0.0
 33
0.0
 40
0.0
 40
0.0
 40
0.0
 40
0.0
 40
0.2
 40
0.2
 40
0.2
 40
0.2
 40
0.4
 40
0.4
 40
0.4
 40
0.4
 40
0.6
 40
0.6
 40
0.6
 40
0.6
 40
1.0
 40
1.0
 40
1.0
 40
1.0
 10
170.8319
 20
86.315
 30
0.0
 10
172.1822
 20
83.938
 30
0.0
 10
172.8539
 20
82.353
 30
0.0
 10
173.8595
 20
79.8066
 30
0.0
 10
173.8595
 20
79.8066
 30
0.0
 10
175.7577
 20
81.9849
 30
0.0
 10
177.0959
 20
84.1063
 30
0.0
 10
178.4482
 20
87.1364
 30
0.0
 10
178.4482
 20
87.1364
 30
0.0
 10
175.7813
 20
86.2604
 30
0.0
 10
174.0577
 20
86.0973
 30
0.0
 10
170.832
 20
86.315
 30
0.0
 10
170.832
 20
86.315
 30
0.0
 10
170.832
 20
86.315
 30
0.0
 10
170.8319
 20
86.315
 30
0.0
 10
170.8319
 20
86.315
 30
0.0
  0
SPLINE
  5
61
330
1F
100
AcDbEntity
  8
layer 1
 62
     7
100
AcDbSpline
210
0.0
220
0.0
230
1.0
 70
    11
 71
     3
 72
    32
 73
    28
 74
     0
 42
0.0000000001
 43
0.0000000001
 12
1.0
 22
0.0
 32
0.0
 13
1.0
 23
0.0
 33
0.0
 40
0.0
 40
0.0
 40
0.0
 40
0.0
 40
0.125
 40
0.125
 40
0.125
 40
0.125
 40
0.25
 40
0.25
 40
0.25
 40
0.25
 40
0.375
 40
0.375
 40
0.375
 40
0.375
 40
0.5
 40
0.5
 40
0.5
 40
0.5
 40
0.625
 40
0.625
 40
0.625
 40
0.625
 40
0.75
 40
0.75
 40
0.75
 40
0.75
 40
1.0
 40
1.0
 40
1.0
 40
1.0
 10
175.0246
 20
75.8743
 30
0.0
 10
176.7454
 20
71.77
 30
0.0
 10
180.4421
 20
69.7272
 30
0.0
 10
183.6918
 20
70.5238
 30
0.0
 10
183.6918
 20
70.5238
 30
0.0
 10
187.8622
 20
70.8732
 30
0.0
 10
190.3878
 20
75.7968
 30
0.0
 10
188.4732
 20
77.7957
 30
0.0
 10
188.4732
 20
77.7957
 30
0.0
 10
186.1809
 20
79.9078
 30
0.0
 10
184.2146
 20
76.6125
 30
0.0
 10
185.7007
 20
75.039
 30
0.0
 10
185.7007
 20
75.039
 30
0.0
 10
186.6028
 20
74.1368
 30
0.0
 10
186.5169
 20
73.8509
 30
0.0
 10
185.2143
 20
73.421
 30
0.0
 10
185.2143
 20
73.421
 30
0.0
 10
179.7313
 20
72.5317
 30
0.0
 10
178.2934
 20
77.5006
 30
0.0
 10
178.9707
 20
80.8771
 30
0.0
 10
178.9707
 20
80.8771
 30
0.0
 10
177.817
 20
78.7241
 30
0.0
 10
176.4459
 20
77.2989
 30
0.0
 10
175.0245
 20
75.8745
 30
0.0
 10
175.0245
 20
75.8745
 30
0.0
 10
175.0245
 20
75.8745
 30
0.0
 10
175.0246
 20
75.8743
 30
0.0
 10
175.0246
 20
75.8743
 30
0.0
  0
SPLINE
  5
62
330
1F
100
AcDbEntity
  8
layer 1
 62
     7
100
AcDbSpline
210
0.0
220
0.0
230
1.0
 70
    11
 71
     3
 72
    24
 73
    20
 74
     0
 42
0.0000000001
 43
0.0000000001
 12
1.0
 22
0.0
 32
0.0
 13
1.0
 23
0.0
 33
0.0
 40
0.0
 40
0.0
 40
0.0
 40
0.0
 40
0.1666666666666667
 40
0.1666666666666667
 40
0.1666666666666667
 40
0.1666666666666667
 40
0.3333333333333333
 40
0.3333333333333333
 40
0.3333333333333333
 40
0.3333333333333333
 40
0.5
 40
0.5
 40
0.5
 40
0.5
 40
0.6666666666666666
 40
0.6666666666666666
 40
0.6666666666666666
 40
0.6666666666666666
 40
1.0
 40
1.0
 40
1.0
 40
1.0
 10
133.0499
 20
61.3632
 30
0.0
 10
137.0312
 20
64.4388
 30
0.0
 10
140.2022
 20
66.1329
 30
0.0
 10
145.7761
 20
67.2501
 30
0.0
 10
145.7761
 20
67.2501
 30
0.0
 10
140.2001
 20
68.3675
 30
0.0
 10
137.0292
 20
70.0615
 30
0.0
 10
133.0479
 20
73.1371
 30
0.0
 10
133.0479
 20
73.1371
 30
0.0
 10
131.2787
 20
70.6008
 30
0.0
 10
128.3513
 20
68.0433
 30
0.0
 10
125.586
 20
67.2191
 30
0.0
 10
125.586
 20
67.2191
 30
0.0
 10
128.3843
 20
66.3948
 30
0.0
 10
131.2807
 20
63.8992
 30
0.0
 10
133.0499
 20
61.363
 30
0.0
 10
133.0499
 20
61.363
 30
0.0
 10
133.0499
 20
61.363
 30
0.0
 10
133.0499
 20
61.3632
 30
0.0
 10
133.0499
 20
61.3632
 30
0.0
  0
SPLINE
  5
63
330
1F
100
AcDbEntity
  8
layer 1
 62
     7
100
AcDbSpline
210
0.0
220
0.0
230
1.0
 70
    11
 71
     3
 72
    16
 73
    12
 74
     0
 42
0.0000000001
 43
0.0000000001
 12
1.0
 22
0.0
 32
0.0
 13
1.0
 23
0.0
 33
0.0
 40
0.0
 40
0.0
 40
0.0
 40
0.0
 40
0.25
 40
0.25
 40
0.25
 40
0.25
 40
0.5
 40
0.5
 40
0.5
 40
0.5
 40
1.0
 40
1.0
 40
1.0
 40
1.0
 10
192.0343
 20
14.6498
 30
0.0
 10
192.0343
 20
14.6498
 30
0.0
 10
192.0324
 20
1.6086
 30
0.0
 10
192.0324
 20
1.6086
 30
0.0
 10
192.0324
 20
1.6086
 30
0.0
 10
190.9934
 20
5.1659
 30
0.0
 10
188.5325
 20
7.4013
 30
0.0
 10
185.3956
 20
8.1292
 30
0.0
 10
185.3956
 20
8.1292
 30
0.0
 10
188.5344
 20
8.8571
 30
0.0
 10
190.9954
 20
11.0924
 30
0.0
 10
192.0343
 20
14.6498
 30
0.0
  0
SPLINE
  5
64
330
1F
100
AcDbEntity
  8
layer 1
 62
     7
100
AcDbSpline
210
0.0
220
0.0
230
1.0
 70
    11
 71
     3
 72
    24
 73
    20
 74
     0
 42
0.0000000001
 43
0.0000000001
 12
1.0
 22
0.0
 32
0.0
 13
1.0
 23
0.0
 33
0.0
 40
0.0
 40
0.0
 40
0.0
 40
0.0
 40
0.1666666666666667
 40
0.1666666666666667
 40
0.1666666666666667
 40
0.1666666666666667
 40
0.3333333333333333
 40
0.3333333333333333
 40
0.3333333333333333
 40
0.3333333333333333
 40
0.5
 40
0.5
 40
0.5
 40
0.5
 40
0.6666666666666666
 40
0.6666666666666666
 40
0.6666666666666666
 40
0.6666666666666666
 40
1.0
 40
1.0
 40
1.0
 40
1.0
 10
171.722
 20
2.2421
 30
0.0
 10
167.7407
 20
5.3177
 30
0.0
 10
164.5698
 20
7.0118
 30
0.0
 10
158.9958
 20
8.129
 30
0.0
 10
158.9958
 20
8.129
 30
0.0
 10
164.5718
 20
9.2464
 30
0.0
 10
167.7428
 20
10.9404
 30
0.0
 10
171.7241
 20
14.016
 30
0.0
 10
171.7241
 20
14.016
 30
0.0
 10
173.4933
 20
11.4798
 30
0.0
 10
176.4207
 20
8.9222
 30
0.0
 10
179.186
 20
8.098
 30
0.0
 10
179.186
 20
8.098
 30
0.0
 10
176.3877
 20
7.2737
 30
0.0
 10
173.4912
 20
4.7781
 30
0.0
 10
171.722
 20
2.242
 30
0.0
 10
171.722
 20
2.242
 30
0.0
 10
171.722
 20
2.242
 30
0.0
 10
171.722
 20
2.2421
 30
0.0
 10
171.722
 20
2.2421
 30
0.0
  0
SPLINE
  5
65
330
1F
100
AcDbEntity
  8
layer 1
 62
     7
100
AcDbSpline
210
0.0
220
0.0
230
1.0
 70
    11
 71
     3
 72
    68
 73
    64
 74
     0
 42
0.0000000001
 43
0.0000000001
 12
1.0
 22
0.0
 32
0.0
 13
1.0
 23
0.0
 33
0.0
 40
0.0
 40
0.0
 40
0.0
 40
0.0
 40
0.0588235294117647
 40
0.0588235294117647
 40
0.0588235294117647
 40
0.0588235294117647
 40
0.1176470588235294
 40
0.1176470588235294
 40
0.1176470588235294
 40
0.1176470588235294
 40
0.1764705882352941
 40
0.1764705882352941
 40
0.1764705882352941
 40
0.1764705882352941
 40
0.2352941176470588
 40
0.2352941176470588
 40
0.2352941176470588
 40
0.2352941176470588
 40
0.2941176470588235
 40
0.2941176470588235
 40
0.2941176470588235
 40
0.2941176470588235
 40
0.3529411764705883
 40
0.3529411764705883
 40
0.3529411764705883
 40
0.3529411764705883
 40
0.4117647058823529
 40
0.4117647058823529
 40
0.4117647058823529
 40
0.4117647058823529
 40
0.4705882352941176
 40
0.4705882352941176
 40
0.4705882352941176
 40
0.4705882352941176
 40
0.5294117647058824
 40
0.5294117647058824
 40
0.5294117647058824
 40
0.5294117647058824
 40
0.5882352941176471
 40
0.5882352941176471
 40
0.5882352941176471
 40
0.5882352941176471
 40
0.6470588235294118
 40
0.6470588235294118
 40
0.6470588235294118
 40
0.6470588235294118
 40
0.7058823529411765
 40
0.7058823529411765
 40
0.7058823529411765
 40
0.7058823529411765
 40
0.7647058823529411
 40
0.7647058823529411
 40
0.7647058823529411
 40
0.7647058823529411
 40
0.8235294117647058
 40
0.8235294117647058
 40
0.8235294117647058
 40
0.8235294117647058
 40
0.8823529411764706
 40
0.8823529411764706
 40
0.8823529411764706
 40
0.8823529411764706
 40
1.0
 40
1.0
 40
1.0
 40
1.0
 10
136.123
 20
44.5154
 30
0.0
 10
136.123
 20
44.5154
 30
0.0
 10
133.2211
 20
44.6296
 30
0.0
 10
133.2211
 20
44.6296
 30
0.0
 10
133.2211
 20
44.6296
 30
0.0
 10
128.0715
 20
45.0246
 30
0.0
 10
124.3367
 20
42.791
 30
0.0
 10
126.1991
 20
39.7062
 30
0.0
 10
126.1991
 20
39.7062
 30
0.0
 10
127.4991
 20
38.0534
 30
0.0
 10
130.0901
 20
39.0341
 30
0.0
 10
128.9026
 20
40.7294
 30
0.0
 10
128.9026
 20
40.7294
 30
0.0
 10
128.4701
 20
41.3469
 30
0.0
 10
128.4848
 20
41.443
 30
0.0
 10
129.0585
 20
41.7501
 30
0.0
 10
129.0585
 20
41.7501
 30
0.0
 10
129.4069
 20
41.9365
 30
0.0
 10
130.3029
 20
42.089
 30
0.0
 10
131.0499
 20
42.089
 30
0.0
 10
131.0499
 20
42.089
 30
0.0
 10
133.0702
 20
42.1037
 30
0.0
 10
133.3326
 20
40.5416
 30
0.0
 10
134.959
 20
39.8243
 30
0.0
 10
134.959
 20
39.8243
 30
0.0
 10
136.0632
 20
39.4141
 30
0.0
 10
139.207
 20
38.9186
 30
0.0
 10
139.082
 20
37.7386
 30
0.0
 10
139.082
 20
37.7386
 30
0.0
 10
139.207
 20
36.5585
 30
0.0
 10
136.0633
 20
36.0629
 30
0.0
 10
134.959
 20
35.6528
 30
0.0
 10
134.959
 20
35.6528
 30
0.0
 10
133.3326
 20
34.9355
 30
0.0
 10
133.0701
 20
33.3734
 30
0.0
 10
131.0499
 20
33.3881
 30
0.0
 10
131.0499
 20
33.3881
 30
0.0
 10
130.303
 20
33.3881
 30
0.0
 10
129.4069
 20
33.5406
 30
0.0
 10
129.0585
 20
33.7271
 30
0.0
 10
129.0585
 20
33.7271
 30
0.0
 10
128.4848
 20
34.0341
 30
0.0
 10
128.4701
 20
34.1302
 30
0.0
 10
128.9026
 20
34.7477
 30
0.0
 10
128.9026
 20
34.7477
 30
0.0
 10
130.0901
 20
36.443
 30
0.0
 10
127.4991
 20
37.4237
 30
0.0
 10
126.1991
 20
35.7709
 30
0.0
 10
126.1991
 20
35.7709
 30
0.0
 10
124.3368
 20
32.6861
 30
0.0
 10
128.0715
 20
30.4525
 30
0.0
 10
133.2211
 20
30.8475
 30
0.0
 10
133.2211
 20
30.8475
 30
0.0
 10
133.2211
 20
30.8475
 30
0.0
 10
136.123
 20
30.9617
 30
0.0
 10
136.123
 20
30.9617
 30
0.0
 10
136.123
 20
30.9617
 30
0.0
 10
138.5956
 20
34.3869
 30
0.0
 10
141.6342
 20
37.0329
 30
0.0
 10
145.6174
 20
37.7386
 30
0.0
 10
145.6174
 20
37.7386
 30
0.0
 10
141.5585
 20
38.4442
 30
0.0
 10
138.5956
 20
41.771
 30
0.0
 10
136.123
 20
44.5154
 30
0.0
  0
SPLINE
  5
66
330
1F
100
AcDbEntity
  8
layer 1
 62
     7
100
AcDbSpline
210
0.0
220
0.0
230
1.0
 70
    11
 71
     3
 72
    28
 73
    24
 74
     0
 42
0.0000000001
 43
0.0000000001
 12
1.0
 22
0.0
 32
0.0
 13
1.0
 23
0.0
 33
0.0
 40
0.0
 40
0.0
 40
0.0
 40
0.0
 40
0.1428571428571428
 40
0.1428571428571428
 40
0.1428571428571428
 40
0.1428571428571428
 40
0.2857142857142857
 40
0.2857142857142857
 40
0.2857142857142857
 40
0.2857142857142857
 40
0.4285714285714285
 40
0.4285714285714285
 40
0.4285714285714285
 40
0.4285714285714285
 40
0.5714285714285714
 40
0.5714285714285714
 40
0.5714285714285714
 40
0.5714285714285714
 40
0.7142857142857143
 40
0.7142857142857143
 40
0.7142857142857143
 40
0.7142857142857143
 40
1.0
 40
1.0
 40
1.0
 40
1.0
 10
118.0766
 20
42.8845
 30
0.0
 10
118.6536
 20
43.5799
 30
0.0
 10
118.6197
 20
44.9818
 30
0.0
 10
116.578
 20
47.7861
 30
0.0
 10
116.578
 20
47.7861
 30
0.0
 10
115.1786
 20
49.8331
 30
0.0
 10
113.7375
 20
52.1692
 30
0.0
 10
112.7377
 20
54.7432
 30
0.0
 10
112.7377
 20
54.7432
 30
0.0
 10
112.9279
 20
51.0501
 30
0.0
 10
112.7418
 20
47.3559
 30
0.0
 10
112.7377
 20
43.6598
 30
0.0
 10
112.7377
 20
43.6598
 30
0.0
 10
113.39
 20
44.7207
 30
0.0
 10
114.6019
 20
45.2041
 30
0.0
 10
115.5776
 20
45.1426
 30
0.0
 10
115.5776
 20
45.1426
 30
0.0
 10
116.1559
 20
45.0291
 30
0.0
 10
116.4607
 20
44.9145
 30
0.0
 10
116.2795
 20
44.1926
 30
0.0
 10
116.2795
 20
44.1926
 30
0.0
 10
115.7101
 20
42.779
 30
0.0
 10
117.3022
 20
42.0204
 30
0.0
 10
118.0766
 20
42.8845
 30
0.0
  0
SPLINE
  5
67
330
1F
100
AcDbEntity
  8
layer 1
 62
     7
100
AcDbSpline
210
0.0
220
0.0
230
1.0
 70
    11
 71
     3
 72
    16
 73
    12
 74
     0
 42
0.0000000001
 43
0.0000000001
 12
1.0
 22
0.0
 32
0.0
 13
1.0
 23
0.0
 33
0.0
 40
0.0
 40
0.0
 40
0.0
 40
0.0
 40
0.25
 40
0.25
 40
0.25
 40
0.25
 40
0.5
 40
0.5
 40
0.5
 40
0.5
 40
1.0
 40
1.0
 40
1.0
 40
1.0
 10
124.6518
 20
51.9564
 30
0.0
 10
123.169
 20
50.7697
 30
0.0
 10
121.3773
 20
50.3339
 30
0.0
 10
119.4134
 20
50.7984
 30
0.0
 10
119.4134
 20
50.7984
 30
0.0
 10
120.4831
 20
48.8952
 30
0.0
 10
121.214
 20
47.9777
 30
0.0
 10
121.9671
 20
45.1634
 30
0.0
 10
121.9671
 20
45.1634
 30
0.0
 10
122.3102
 20
47.6535
 30
0.0
 10
123.5522
 20
50.4365
 30
0.0
 10
124.6518
 20
51.9564
 30
0.0
  0
SPLINE
  5
68
330
1F
100
AcDbEntity
  8
layer 1
 62
     7
100
AcDbSpline
210
0.0
220
0.0
230
1.0
 70
    11
 71
     3
 72
    20
 73
    16
 74
     0
 42
0.0000000001
 43
0.0000000001
 12
1.0
 22
0.0
 32
0.0
 13
1.0
 23
0.0
 33
0.0
 40
0.0
 40
0.0
 40
0.0
 40
0.0
 40
0.2
 40
0.2
 40
0.2
 40
0.2
 40
0.4
 40
0.4
 40
0.4
 40
0.4
 40
0.6
 40
0.6
 40
0.6
 40
0.6
 40
1.0
 40
1.0
 40
1.0
 40
1.0
 10
133.927
 20
48.283
 30
0.0
 10
132.4255
 20
50.3573
 30
0.0
 10
131.8294
 20
51.9423
 30
0.0
 10
130.8994
 20
54.7914
 30
0.0
 10
130.8994
 20
54.7914
 30
0.0
 10
129.0012
 20
52.613
 30
0.0
 10
127.663
 20
50.4917
 30
0.0
 10
126.3107
 20
47.4615
 30
0.0
 10
126.3107
 20
47.4615
 30
0.0
 10
129.181
 20
48.6336
 30
0.0
 10
130.9477
 20
48.8098
 30
0.0
 10
133.9269
 20
48.283
 30
0.0
 10
133.9269
 20
48.283
 30
0.0
 10
133.9269
 20
48.283
 30
0.0
 10
133.927
 20
48.283
 30
0.0
 10
133.927
 20
48.283
 30
0.0
  0
SPLINE
  5
69
330
1F
100
AcDbEntity
  8
layer 1
 62
     7
100
AcDbSpline
210
0.0
220
0.0
230
1.0
 70
    11
 71
     3
 72
   136
 73
   132
 74
     0
 42
0.0000000001
 43
0.0000000001
 12
1.0
 22
0.0
 32
0.0
 13
1.0
 23
0.0
 33
0.0
 40
0.0
 40
0.0
 40
0.0
 40
0.0
 40
0.0294117647058824
 40
0.0294117647058824
 40
0.0294117647058824
 40
0.0294117647058824
 40
0.0588235294117647
 40
0.0588235294117647
 40
0.0588235294117647
 40
0.0588235294117647
 40
0.0882352941176471
 40
0.0882352941176471
 40
0.0882352941176471
 40
0.0882352941176471
 40
0.1176470588235294
 40
0.1176470588235294
 40
0.1176470588235294
 40
0.1176470588235294
 40
0.1470588235294118
 40
0.1470588235294118
 40
0.1470588235294118
 40
0.1470588235294118
 40
0.1764705882352941
 40
0.1764705882352941
 40
0.1764705882352941
 40
0.1764705882352941
 40
0.2058823529411765
 40
0.2058823529411765
 40
0.2058823529411765
 40
0.2058823529411765
 40
0.2352941176470588
 40
0.2352941176470588
 40
0.2352941176470588
 40
0.2352941176470588
 40
0.2647058823529412
 40
0.2647058823529412
 40
0.2647058823529412
 40
0.2647058823529412
 40
0.2941176470588235
 40
0.2941176470588235
 40
0.2941176470588235
 40
0.2941176470588235
 40
0.3235294117647059
 40
0.3235294117647059
 40
0.3235294117647059
 40
0.3235294117647059
 40
0.3529411764705883
 40
0.3529411764705883
 40
0.3529411764705883
 40
0.3529411764705883
 40
0.3823529411764706
 40
0.3823529411764706
 40
0.3823529411764706
 40
0.3823529411764706
 40
0.4117647058823529
 40
0.4117647058823529
 40
0.4117647058823529
 40
0.4117647058823529
 40
0.4411764705882353
 40
0.4411764705882353
 40
0.4411764705882353
 40
0.4411764705882353
 40
0.4705882352941176
 40
0.4705882352941176
 40
0.4705882352941176
 40
0.4705882352941176
 40
0.5
 40
0.5
 40
0.5
 40
0.5
 40
0.5294117647058824
 40
0.5294117647058824
 40
0.5294117647058824
 40
0.5294117647058824
 40
0.5588235294117647
 40
0.5588235294117647
 40
0.5588235294117647
 40
0.5588235294117647
 40
0.5882352941176471
 40
0.5882352941176471
 40
0.5882352941176471
 40
0.5882352941176471
 40
0.6176470588235294
 40
0.6176470588235294
 40
0.6176470588235294
 40
0.6176470588235294
 40
0.6470588235294118
 40
0.6470588235294118
 40
0.6470588235294118
 40
0.6470588235294118
 40
0.6764705882352942
 40
0.6764705882352942
 40
0.6764705882352942
 40
0.6764705882352942
 40
0.7058823529411765
 40
0.7058823529411765
 40
0.7058823529411765
 40
0.7058823529411765
 40
0.7352941176470589
 40
0.7352941176470589
 40
0.7352941176470589
 40
0.7352941176470589
 40
0.7647058823529411
 40
0.7647058823529411
 40
0.7647058823529411
 40
0.7647058823529411
 40
0.7941176470588235
 40
0.7941176470588235
 40
0.7941176470588235
 40
0.7941176470588235
 40
0.8235294117647058
 40
0.8235294117647058
 40
0.8235294117647058
 40
0.8235294117647058
 40
0.8529411764705882
 40
0.8529411764705882
 40
0.8529411764705882
 40
0.8529411764705882
 40
0.8823529411764706
 40
0.8823529411764706
 40
0.8823529411764706
 40
0.8823529411764706
 40
0.9117647058823529
 40
0.9117647058823529
 40
0.9117647058823529
 40
0.9117647058823529
 40
0.9411764705882353
 40
0.9411764705882353
 40
0.9411764705882353
 40
0.9411764705882353
 40
1.0
 40
1.0
 40
1.0
 40
1.0
 10
150.0921
 20
58.5203
 30
0.0
 10
148.5734
 20
59.4701
 30
0.0
 10
146.7149
 20
59.4714
 30
0.0
 10
144.9456
 20
57.992
 30
0.0
 10
144.9456
 20
57.992
 30
0.0
 10
143.4962
 20
56.7037
 30
0.0
 10
143.2678
 20
53.9661
 30
0.0
 10
144.6946
 20
52.0702
 30
0.0
 10
144.6946
 20
52.0702
 30
0.0
 10
145.1915
 20
53.0709
 30
0.0
 10
146.2281
 20
54.2442
 30
0.0
 10
147.2102
 20
53.0783
 30
0.0
 10
147.2102
 20
53.0783
 30
0.0
 10
148.0802
 20
51.4526
 30
0.0
 10
146.5201
 20
49.2786
 30
0.0
 10
143.7359
 20
48.2369
 30
0.0
 10
143.7359
 20
48.2369
 30
0.0
 10
143.7359
 20
48.2369
 30
0.0
 10
143.7359
 20
48.2369
 30
0.0
 10
143.7359
 20
48.2369
 30
0.0
 10
143.7359
 20
48.2369
 30
0.0
 10
142.7833
 20
47.8805
 30
0.0
 10
141.2206
 20
47.589
 30
0.0
 10
140.2631
 20
47.589
 30
0.0
 10
140.2631
 20
47.589
 30
0.0
 10
138.6477
 20
47.589
 30
0.0
 10
138.4756
 20
47.6648
 30
0.0
 10
137.8741
 20
48.6404
 30
0.0
 10
137.8741
 20
48.6404
 30
0.0
 10
137.5175
 20
49.2186
 30
0.0
 10
137.126
 20
50.0922
 30
0.0
 10
137.0038
 20
50.5815
 30
0.0
 10
137.0038
 20
50.5815
 30
0.0
 10
136.8037
 20
51.3835
 30
0.0
 10
136.866
 20
51.4712
 30
0.0
 10
137.636
 20
51.4712
 30
0.0
 10
137.636
 20
51.4712
 30
0.0
 10
139.6704
 20
51.5168
 30
0.0
 10
142.1794
 20
53.1633
 30
0.0
 10
141.9311
 20
55.5094
 30
0.0
 10
141.9311
 20
55.5094
 30
0.0
 10
141.7391
 20
57.145
 30
0.0
 10
139.7412
 20
59.419
 30
0.0
 10
137.2601
 20
58.3567
 30
0.0
 10
137.2601
 20
58.3567
 30
0.0
 10
136.5128
 20
57.896
 30
0.0
 10
136.4647
 20
57.2946
 30
0.0
 10
137.287
 20
57.2946
 30
0.0
 10
137.287
 20
57.2946
 30
0.0
 10
138.4723
 20
57.128
 30
0.0
 10
139.1673
 20
56.4638
 30
0.0
 10
138.4746
 20
55.5213
 30
0.0
 10
138.4746
 20
55.5213
 30
0.0
 10
137.5493
 20
54.4123
 30
0.0
 10
135.4255
 20
55.9481
 30
0.0
 10
134.3435
 20
58.0544
 30
0.0
 10
134.3435
 20
58.0544
 30
0.0
 10
138.5158
 20
61.5825
 30
0.0
 10
144.5052
 20
64.1514
 30
0.0
 10
152.3796
 20
64.3554
 30
0.0
 10
152.3796
 20
64.3554
 30
0.0
 10
160.2541
 20
64.1514
 30
0.0
 10
166.2435
 20
61.5825
 30
0.0
 10
170.4158
 20
58.0544
 30
0.0
 10
170.4158
 20
58.0544
 30
0.0
 10
169.3336
 20
55.9481
 30
0.0
 10
167.2098
 20
54.4123
 30
0.0
 10
166.2847
 20
55.5213
 30
0.0
 10
166.2847
 20
55.5213
 30
0.0
 10
165.592
 20
56.4638
 30
0.0
 10
166.287
 20
57.128
 30
0.0
 10
167.4722
 20
57.2946
 30
0.0
 10
167.4722
 20
57.2946
 30
0.0
 10
168.2945
 20
57.2946
 30
0.0
 10
168.2465
 20
57.8959
 30
0.0
 10
167.4991
 20
58.3567
 30
0.0
 10
167.4991
 20
58.3567
 30
0.0
 10
165.018
 20
59.419
 30
0.0
 10
163.0201
 20
57.1452
 30
0.0
 10
162.8282
 20
55.5094
 30
0.0
 10
162.8282
 20
55.5094
 30
0.0
 10
162.5799
 20
53.1633
 30
0.0
 10
165.0888
 20
51.5168
 30
0.0
 10
167.1233
 20
51.4712
 30
0.0
 10
167.1233
 20
51.4712
 30
0.0
 10
167.8933
 20
51.4712
 30
0.0
 10
167.9556
 20
51.3835
 30
0.0
 10
167.7554
 20
50.5815
 30
0.0
 10
167.7554
 20
50.5815
 30
0.0
 10
167.6333
 20
50.0922
 30
0.0
 10
167.2416
 20
49.2186
 30
0.0
 10
166.8852
 20
48.6404
 30
0.0
 10
166.8852
 20
48.6404
 30
0.0
 10
166.2837
 20
47.6648
 30
0.0
 10
166.1115
 20
47.589
 30
0.0
 10
164.4962
 20
47.589
 30
0.0
 10
164.4962
 20
47.589
 30
0.0
 10
163.5387
 20
47.589
 30
0.0
 10
161.9759
 20
47.8806
 30
0.0
 10
161.0234
 20
48.2369
 30
0.0
 10
161.0234
 20
48.2369
 30
0.0
 10
161.0234
 20
48.2369
 30
0.0
 10
161.0234
 20
48.2369
 30
0.0
 10
161.0234
 20
48.2369
 30
0.0
 10
161.0234
 20
48.2369
 30
0.0
 10
158.2392
 20
49.2786
 30
0.0
 10
156.6791
 20
51.4526
 30
0.0
 10
157.5491
 20
53.0783
 30
0.0
 10
157.5491
 20
53.0783
 30
0.0
 10
158.5312
 20
54.2442
 30
0.0
 10
159.5677
 20
53.0709
 30
0.0
 10
160.0647
 20
52.0702
 30
0.0
 10
160.0647
 20
52.0702
 30
0.0
 10
161.4915
 20
53.9661
 30
0.0
 10
161.2631
 20
56.7037
 30
0.0
 10
159.8136
 20
57.992
 30
0.0
 10
159.8136
 20
57.992
 30
0.0
 10
158.0444
 20
59.4714
 30
0.0
 10
156.1857
 20
59.4701
 30
0.0
 10
154.6672
 20
58.5203
 30
0.0
 10
154.6672
 20
58.5203
 30
0.0
 10
154.643
 20
60.7291
 30
0.0
 10
153.5323
 20
62.7464
 30
0.0
 10
152.3798
 20
62.7294
 30
0.0
 10
152.3798
 20
62.7294
 30
0.0
 10
151.2272
 20
62.7464
 30
0.0
 10
150.1166
 20
60.7291
 30
0.0
 10
150.0923
 20
58.5203
 30
0.0
 10
150.0923
 20
58.5203
 30
0.0
 10
150.0923
 20
58.5203
 30
0.0
 10
150.0921
 20
58.5203
 30
0.0
 10
150.0921
 20
58.5203
 30
0.0
  0
SPLINE
  5
6A
330
1F
100
AcDbEntity
  8
layer 1
 62
     7
100
AcDbSpline
210
0.0
220
0.0
230
1.0
 70
    11
 71
     3
 72
    32
 73
    28
 74
     0
 42
0.0000000001
 43
0.0000000001
 12
1.0
 22
0.0
 32
0.0
 13
1.0
 23
0.0
 33
0.0
 40
0.0
 40
0.0
 40
0.0
 40
0.0
 40
0.125
 40
0.125
 40
0.125
 40
0.125
 40
0.25
 40
0.25
 40
0.25
 40
0.25
 40
0.375
 40
0.375
 40
0.375
 40
0.375
 40
0.5
 40
0.5
 40
0.5
 40
0.5
 40
0.625
 40
0.625
 40
0.625
 40
0.625
 40
0.75
 40
0.75
 40
0.75
 40
0.75
 40
1.0
 40
1.0
 40
1.0
 40
1.0
 10
129.7343
 20
58.7237
 30
0.0
 10
128.0135
 20
62.828
 30
0.0
 10
124.3168
 20
64.8709
 30
0.0
 10
121.0671
 20
64.0743
 30
0.0
 10
121.0671
 20
64.0743
 30
0.0
 10
116.8967
 20
63.7249
 30
0.0
 10
114.3711
 20
58.8013
 30
0.0
 10
116.2857
 20
56.8024
 30
0.0
 10
116.2857
 20
56.8024
 30
0.0
 10
118.578
 20
54.6902
 30
0.0
 10
120.5443
 20
57.9856
 30
0.0
 10
119.0582
 20
59.5591
 30
0.0
 10
119.0582
 20
59.5591
 30
0.0
 10
118.1561
 20
60.4613
 30
0.0
 10
118.242
 20
60.7471
 30
0.0
 10
119.5446
 20
61.1771
 30
0.0
 10
119.5446
 20
61.1771
 30
0.0
 10
125.0276
 20
62.0664
 30
0.0
 10
126.4655
 20
57.0975
 30
0.0
 10
125.7882
 20
53.7209
 30
0.0
 10
125.7882
 20
53.7209
 30
0.0
 10
126.9419
 20
55.874
 30
0.0
 10
128.313
 20
57.2992
 30
0.0
 10
129.7344
 20
58.7236
 30
0.0
 10
129.7344
 20
58.7236
 30
0.0
 10
129.7344
 20
58.7236
 30
0.0
 10
129.7343
 20
58.7237
 30
0.0
 10
129.7343
 20
58.7237
 30
0.0
  0
SPLINE
  5
6B
330
1F
100
AcDbEntity
  8
layer 1
 62
     7
100
AcDbSpline
210
0.0
220
0.0
230
1.0
 70
    11
 71
     3
 72
    68
 73
    64
 74
     0
 42
0.0000000001
 43
0.0000000001
 12
1.0
 22
0.0
 32
0.0
 13
1.0
 23
0.0
 33
0.0
 40
0.0
 40
0.0
 40
0.0
 40
0.0
 40
0.0588235294117647
 40
0.0588235294117647
 40
0.0588235294117647
 40
0.0588235294117647
 40
0.1176470588235294
 40
0.1176470588235294
 40
0.1176470588235294
 40
0.1176470588235294
 40
0.1764705882352941
 40
0.1764705882352941
 40
0.1764705882352941
 40
0.1764705882352941
 40
0.2352941176470588
 40
0.2352941176470588
 40
0.2352941176470588
 40
0.2352941176470588
 40
0.2941176470588235
 40
0.2941176470588235
 40
0.2941176470588235
 40
0.2941176470588235
 40
0.3529411764705883
 40
0.3529411764705883
 40
0.3529411764705883
 40
0.3529411764705883
 40
0.4117647058823529
 40
0.4117647058823529
 40
0.4117647058823529
 40
0.4117647058823529
 40
0.4705882352941176
 40
0.4705882352941176
 40
0.4705882352941176
 40
0.4705882352941176
 40
0.5294117647058824
 40
0.5294117647058824
 40
0.5294117647058824
 40
0.5294117647058824
 40
0.5882352941176471
 40
0.5882352941176471
 40
0.5882352941176471
 40
0.5882352941176471
 40
0.6470588235294118
 40
0.6470588235294118
 40
0.6470588235294118
 40
0.6470588235294118
 40
0.7058823529411765
 40
0.7058823529411765
 40
0.7058823529411765
 40
0.7058823529411765
 40
0.7647058823529411
 40
0.7647058823529411
 40
0.7647058823529411
 40
0.7647058823529411
 40
0.8235294117647058
 40
0.8235294117647058
 40
0.8235294117647058
 40
0.8235294117647058
 40
0.8823529411764706
 40
0.8823529411764706
 40
0.8823529411764706
 40
0.8823529411764706
 40
1.0
 40
1.0
 40
1.0
 40
1.0
 10
169.7999
 20
39.8243
 30
0.0
 10
171.4262
 20
40.5416
 30
0.0
 10
171.6888
 20
42.1037
 30
0.0
 10
173.709
 20
42.089
 30
0.0
 10
173.709
 20
42.089
 30
0.0
 10
174.4559
 20
42.089
 30
0.0
 10
175.352
 20
41.9365
 30
0.0
 10
175.7004
 20
41.7501
 30
0.0
 10
175.7004
 20
41.7501
 30
0.0
 10
176.2741
 20
41.443
 30
0.0
 10
176.2888
 20
41.3469
 30
0.0
 10
175.8563
 20
40.7294
 30
0.0
 10
175.8563
 20
40.7294
 30
0.0
 10
174.6688
 20
39.0341
 30
0.0
 10
177.2598
 20
38.0534
 30
0.0
 10
178.5598
 20
39.7062
 30
0.0
 10
178.5598
 20
39.7062
 30
0.0
 10
180.4221
 20
42.791
 30
0.0
 10
176.6874
 20
45.0246
 30
0.0
 10
171.5378
 20
44.6296
 30
0.0
 10
171.5378
 20
44.6296
 30
0.0
 10
171.5378
 20
44.6296
 30
0.0
 10
168.6359
 20
44.5154
 30
0.0
 10
168.6359
 20
44.5154
 30
0.0
 10
168.6359
 20
44.5154
 30
0.0
 10
166.4659
 20
41.1658
 30
0.0
 10
162.8978
 20
38.066
 30
0.0
 10
159.1415
 20
37.7386
 30
0.0
 10
159.1415
 20
37.7386
 30
0.0
 10
162.8978
 20
37.1843
 30
0.0
 10
166.0876
 20
34.4626
 30
0.0
 10
168.6359
 20
30.9617
 30
0.0
 10
168.6359
 20
30.9617
 30
0.0
 10
168.6359
 20
30.9617
 30
0.0
 10
171.5378
 20
30.8475
 30
0.0
 10
171.5378
 20
30.8475
 30
0.0
 10
171.5378
 20
30.8475
 30
0.0
 10
176.6874
 20
30.4525
 30
0.0
 10
180.4222
 20
32.6861
 30
0.0
 10
178.5598
 20
35.7709
 30
0.0
 10
178.5598
 20
35.7709
 30
0.0
 10
177.2598
 20
37.4237
 30
0.0
 10
174.6688
 20
36.443
 30
0.0
 10
175.8563
 20
34.7477
 30
0.0
 10
175.8563
 20
34.7477
 30
0.0
 10
176.2888
 20
34.1302
 30
0.0
 10
176.2741
 20
34.0341
 30
0.0
 10
175.7004
 20
33.7271
 30
0.0
 10
175.7004
 20
33.7271
 30
0.0
 10
175.352
 20
33.5406
 30
0.0
 10
174.456
 20
33.3881
 30
0.0
 10
173.709
 20
33.3881
 30
0.0
 10
173.709
 20
33.3881
 30
0.0
 10
171.6887
 20
33.3734
 30
0.0
 10
171.4262
 20
34.9355
 30
0.0
 10
169.7999
 20
35.6528
 30
0.0
 10
169.7999
 20
35.6528
 30
0.0
 10
168.6957
 20
36.063
 30
0.0
 10
165.5519
 20
36.5585
 30
0.0
 10
165.6769
 20
37.7386
 30
0.0
 10
165.6769
 20
37.7386
 30
0.0
 10
165.5519
 20
38.9186
 30
0.0
 10
168.6956
 20
39.4142
 30
0.0
 10
169.7999
 20
39.8243
 30
0.0
  0
SPLINE
  5
6C
330
1F
100
AcDbEntity
  8
layer 1
 62
     7
100
AcDbSpline
210
0.0
220
0.0
230
1.0
 70
    11
 71
     3
 72
    20
 73
    16
 74
     0
 42
0.0000000001
 43
0.0000000001
 12
1.0
 22
0.0
 32
0.0
 13
1.0
 23
0.0
 33
0.0
 40
0.0
 40
0.0
 40
0.0
 40
0.0
 40
0.2
 40
0.2
 40
0.2
 40
0.2
 40
0.4
 40
0.4
 40
0.4
 40
0.4
 40
0.6
 40
0.6
 40
0.6
 40
0.6
 40
1.0
 40
1.0
 40
1.0
 40
1.0
 10
152.3795
 20
40.0406
 30
0.0
 10
151.7209
 20
38.9897
 30
0.0
 10
150.1974
 20
38.0082
 30
0.0
 10
148.3732
 20
37.7384
 30
0.0
 10
148.3732
 20
37.7384
 30
0.0
 10
150.1975
 20
37.4687
 30
0.0
 10
151.7211
 20
36.4872
 30
0.0
 10
152.3796
 20
35.4362
 30
0.0
 10
152.3796
 20
35.4362
 30
0.0
 10
153.0382
 20
36.4872
 30
0.0
 10
154.5618
 20
37.4687
 30
0.0
 10
156.386
 20
37.7384
 30
0.0
 10
156.386
 20
37.7384
 30
0.0
 10
154.5616
 20
38.0082
 30
0.0
 10
153.0381
 20
38.9897
 30
0.0
 10
152.3795
 20
40.0406
 30
0.0
  0
SPLINE
  5
6D
330
1F
100
AcDbEntity
  8
layer 1
 62
     7
100
AcDbSpline
210
0.0
220
0.0
230
1.0
 70
    11
 71
     3
 72
    56
 73
    52
 74
     0
 42
0.0000000001
 43
0.0000000001
 12
1.0
 22
0.0
 32
0.0
 13
1.0
 23
0.0
 33
0.0
 40
0.0
 40
0.0
 40
0.0
 40
0.0
 40
0.0714285714285714
 40
0.0714285714285714
 40
0.0714285714285714
 40
0.0714285714285714
 40
0.1428571428571428
 40
0.1428571428571428
 40
0.1428571428571428
 40
0.1428571428571428
 40
0.2142857142857143
 40
0.2142857142857143
 40
0.2142857142857143
 40
0.2142857142857143
 40
0.2857142857142857
 40
0.2857142857142857
 40
0.2857142857142857
 40
0.2857142857142857
 40
0.3571428571428572
 40
0.3571428571428572
 40
0.3571428571428572
 40
0.3571428571428572
 40
0.4285714285714285
 40
0.4285714285714285
 40
0.4285714285714285
 40
0.4285714285714285
 40
0.5
 40
0.5
 40
0.5
 40
0.5
 40
0.5714285714285714
 40
0.5714285714285714
 40
0.5714285714285714
 40
0.5714285714285714
 40
0.6428571428571429
 40
0.6428571428571429
 40
0.6428571428571429
 40
0.6428571428571429
 40
0.7142857142857143
 40
0.7142857142857143
 40
0.7142857142857143
 40
0.7142857142857143
 40
0.7857142857142857
 40
0.7857142857142857
 40
0.7857142857142857
 40
0.7857142857142857
 40
0.8571428571428571
 40
0.8571428571428571
 40
0.8571428571428571
 40
0.8571428571428571
 40
1.0
 40
1.0
 40
1.0
 40
1.0
 10
155.4304
 20
45.5055
 30
0.0
 10
157.3061
 20
45.1321
 30
0.0
 10
158.3738
 20
43.2214
 30
0.0
 10
156.8299
 20
43.0012
 30
0.0
 10
156.8299
 20
43.0012
 30
0.0
 10
155.9979
 20
42.8824
 30
0.0
 10
155.7005
 20
41.9547
 30
0.0
 10
156.2733
 20
41.2646
 30
0.0
 10
156.2733
 20
41.2646
 30
0.0
 10
157.609
 20
39.9052
 30
0.0
 10
162.0383
 20
41.3457
 30
0.0
 10
163.4421
 20
43.9708
 30
0.0
 10
163.4421
 20
43.9708
 30
0.0
 10
159.0033
 20
44.4064
 30
0.0
 10
153.9587
 20
46.1819
 30
0.0
 10
153.3866
 20
51.1566
 30
0.0
 10
153.3866
 20
51.1566
 30
0.0
 10
153.2244
 20
52.8511
 30
0.0
 10
152.9301
 20
53.4918
 30
0.0
 10
152.3794
 20
53.5296
 30
0.0
 10
152.3794
 20
53.5296
 30
0.0
 10
151.8287
 20
53.4918
 30
0.0
 10
151.5343
 20
52.8511
 30
0.0
 10
151.3722
 20
51.1566
 30
0.0
 10
151.3722
 20
51.1566
 30
0.0
 10
150.8001
 20
46.1819
 30
0.0
 10
145.7556
 20
44.4064
 30
0.0
 10
141.3166
 20
43.9708
 30
0.0
 10
141.3166
 20
43.9708
 30
0.0
 10
142.7205
 20
41.3457
 30
0.0
 10
147.1497
 20
39.905
 30
0.0
 10
148.4855
 20
41.2646
 30
0.0
 10
148.4855
 20
41.2646
 30
0.0
 10
149.0583
 20
41.9547
 30
0.0
 10
148.7609
 20
42.8824
 30
0.0
 10
147.9289
 20
43.0012
 30
0.0
 10
147.9289
 20
43.0012
 30
0.0
 10
146.3851
 20
43.2214
 30
0.0
 10
147.4528
 20
45.1321
 30
0.0
 10
149.3284
 20
45.5055
 30
0.0
 10
149.3284
 20
45.5055
 30
0.0
 10
150.7421
 20
45.5593
 30
0.0
 10
151.6102
 20
45.1648
 30
0.0
 10
152.3793
 20
44.1627
 30
0.0
 10
152.3793
 20
44.1627
 30
0.0
 10
153.1484
 20
45.1648
 30
0.0
 10
154.0164
 20
45.5592
 30
0.0
 10
155.4302
 20
45.5055
 30
0.0
 10
155.4302
 20
45.5055
 30
0.0
 10
155.4302
 20
45.5055
 30
0.0
 10
155.4304
 20
45.5055
 30
0.0
 10
155.4304
 20
45.5055
 30
0.0
  0
SPLINE
  5
6E
330
1F
100
AcDbEntity
  8
layer 1
 62
     7
100
AcDbSpline
210
0.0
220
0.0
230
1.0
 70
    11
 71
     3
 72
    28
 73
    24
 74
     0
 42
0.0000000001
 43
0.0000000001
 12
1.0
 22
0.0
 32
0.0
 13
1.0
 23
0.0
 33
0.0
 40
0.0
 40
0.0
 40
0.0
 40
0.0
 40
0.1428571428571428
 40
0.1428571428571428
 40
0.1428571428571428
 40
0.1428571428571428
 40
0.2857142857142857
 40
0.2857142857142857
 40
0.2857142857142857
 40
0.2857142857142857
 40
0.4285714285714285
 40
0.4285714285714285
 40
0.4285714285714285
 40
0.4285714285714285
 40
0.5714285714285714
 40
0.5714285714285714
 40
0.5714285714285714
 40
0.5714285714285714
 40
0.7142857142857143
 40
0.7142857142857143
 40
0.7142857142857143
 40
0.7142857142857143
 40
1.0
 40
1.0
 40
1.0
 40
1.0
 10
186.6823
 20
42.8845
 30
0.0
 10
186.1053
 20
43.5799
 30
0.0
 10
186.1392
 20
44.9818
 30
0.0
 10
188.1809
 20
47.7861
 30
0.0
 10
188.1809
 20
47.7861
 30
0.0
 10
189.5803
 20
49.8331
 30
0.0
 10
191.0214
 20
52.1692
 30
0.0
 10
192.0212
 20
54.7432
 30
0.0
 10
192.0212
 20
54.7432
 30
0.0
 10
191.831
 20
51.0501
 30
0.0
 10
192.0171
 20
47.3559
 30
0.0
 10
192.0212
 20
43.6598
 30
0.0
 10
192.0212
 20
43.6598
 30
0.0
 10
191.3689
 20
44.7207
 30
0.0
 10
190.157
 20
45.2041
 30
0.0
 10
189.1813
 20
45.1426
 30
0.0
 10
189.1813
 20
45.1426
 30
0.0
 10
188.603
 20
45.0291
 30
0.0
 10
188.2982
 20
44.9145
 30
0.0
 10
188.4794
 20
44.1926
 30
0.0
 10
188.4794
 20
44.1926
 30
0.0
 10
189.0488
 20
42.779
 30
0.0
 10
187.4567
 20
42.0204
 30
0.0
 10
186.6823
 20
42.8845
 30
0.0
  0
SPLINE
  5
6F
330
1F
100
AcDbEntity
  8
layer 1
 62
     7
100
AcDbSpline
210
0.0
220
0.0
230
1.0
 70
    11
 71
     3
 72
    16
 73
    12
 74
     0
 42
0.0000000001
 43
0.0000000001
 12
1.0
 22
0.0
 32
0.0
 13
1.0
 23
0.0
 33
0.0
 40
0.0
 40
0.0
 40
0.0
 40
0.0
 40
0.25
 40
0.25
 40
0.25
 40
0.25
 40
0.5
 40
0.5
 40
0.5
 40
0.5
 40
1.0
 40
1.0
 40
1.0
 40
1.0
 10
180.1071
 20
51.9564
 30
0.0
 10
181.6656
 20
50.6941
 30
0.0
 10
183.4573
 20
50.2582
 30
0.0
 10
185.3455
 20
50.7984
 30
0.0
 10
185.3455
 20
50.7984
 30
0.0
 10
184.2758
 20
48.8952
 30
0.0
 10
183.5449
 20
47.9777
 30
0.0
 10
182.7918
 20
45.1634
 30
0.0
 10
182.7918
 20
45.1634
 30
0.0
 10
182.4487
 20
47.6535
 30
0.0
 10
181.2067
 20
50.4365
 30
0.0
 10
180.1071
 20
51.9564
 30
0.0
  0
SPLINE
  5
70
330
1F
100
AcDbEntity
  8
layer 1
 62
     7
100
AcDbSpline
210
0.0
220
0.0
230
1.0
 70
    11
 71
     3
 72
    20
 73
    16
 74
     0
 42
0.0000000001
 43
0.0000000001
 12
1.0
 22
0.0
 32
0.0
 13
1.0
 23
0.0
 33
0.0
 40
0.0
 40
0.0
 40
0.0
 40
0.0
 40
0.2
 40
0.2
 40
0.2
 40
0.2
 40
0.4
 40
0.4
 40
0.4
 40
0.4
 40
0.6
 40
0.6
 40
0.6
 40
0.6
 40
1.0
 40
1.0
 40
1.0
 40
1.0
 10
170.8319
 20
48.283
 30
0.0
 10
172.636
 20
50.5842
 30
0.0
 10
173.0052
 20
51.7155
 30
0.0
 10
173.8595
 20
54.7914
 30
0.0
 10
173.8595
 20
54.7914
 30
0.0
 10
175.7577
 20
52.613
 30
0.0
 10
177.0959
 20
50.4917
 30
0.0
 10
178.4482
 20
47.4615
 30
0.0
 10
178.4482
 20
47.4615
 30
0.0
 10
175.5348
 20
48.6596
 30
0.0
 10
173.6665
 20
48.8423
 30
0.0
 10
170.832
 20
48.283
 30
0.0
 10
170.832
 20
48.283
 30
0.0
 10
170.832
 20
48.283
 30
0.0
 10
170.8319
 20
48.283
 30
0.0
 10
170.8319
 20
48.283
 30
0.0
  0
SPLINE
  5
71
330
1F
100
AcDbEntity
  8
layer 1
 62
     7
100
AcDbSpline
210
0.0
220
0.0
230
1.0
 70
    11
 71
     3
 72
    32
 73
    28
 74
     0
 42
0.0000000001
 43
0.0000000001
 12
1.0
 22
0.0
 32
0.0
 13
1.0
 23
0.0
 33
0.0
 40
0.0
 40
0.0
 40
0.0
 40
0.0
 40
0.125
 40
0.125
 40
0.125
 40
0.125
 40
0.25
 40
0.25
 40
0.25
 40
0.25
 40
0.375
 40
0.375
 40
0.375
 40
0.375
 40
0.5
 40
0.5
 40
0.5
 40
0.5
 40
0.625
 40
0.625
 40
0.625
 40
0.625
 40
0.75
 40
0.75
 40
0.75
 40
0.75
 40
1.0
 40
1.0
 40
1.0
 40
1.0
 10
175.0246
 20
58.7237
 30
0.0
 10
176.7454
 20
62.828
 30
0.0
 10
180.4421
 20
64.8709
 30
0.0
 10
183.6918
 20
64.0743
 30
0.0
 10
183.6918
 20
64.0743
 30
0.0
 10
187.8622
 20
63.7249
 30
0.0
 10
190.3878
 20
58.8013
 30
0.0
 10
188.4732
 20
56.8024
 30
0.0
 10
188.4732
 20
56.8024
 30
0.0
 10
186.1809
 20
54.6902
 30
0.0
 10
184.2146
 20
57.9856
 30
0.0
 10
185.7007
 20
59.5591
 30
0.0
 10
185.7007
 20
59.5591
 30
0.0
 10
186.6028
 20
60.4613
 30
0.0
 10
186.5169
 20
60.7471
 30
0.0
 10
185.2143
 20
61.1771
 30
0.0
 10
185.2143
 20
61.1771
 30
0.0
 10
179.7313
 20
62.0664
 30
0.0
 10
178.2934
 20
57.0975
 30
0.0
 10
178.9707
 20
53.7209
 30
0.0
 10
178.9707
 20
53.7209
 30
0.0
 10
177.817
 20
55.874
 30
0.0
 10
176.4459
 20
57.2992
 30
0.0
 10
175.0245
 20
58.7236
 30
0.0
 10
175.0245
 20
58.7236
 30
0.0
 10
175.0245
 20
58.7236
 30
0.0
 10
175.0246
 20
58.7237
 30
0.0
 10
175.0246
 20
58.7237
 30
0.0
  0
SPLINE
  5
72
330
1F
100
AcDbEntity
  8
layer 1
 62
     7
100
AcDbSpline
210
0.0
220
0.0
230
1.0
 70
    11
 71
     3
 72
    20
 73
    16
 74
     0
 42
0.0000000001
 43
0.0000000001
 12
1.0
 22
0.0
 32
0.0
 13
1.0
 23
0.0
 33
0.0
 40
0.0
 40
0.0
 40
0.0
 40
0.0
 40
0.2
 40
0.2
 40
0.2
 40
0.2
 40
0.4
 40
0.4
 40
0.4
 40
0.4
 40
0.6
 40
0.6
 40
0.6
 40
0.6
 40
1.0
 40
1.0
 40
1.0
 40
1.0
 10
112.7377
 20
34.8277
 30
0.0
 10
113.9828
 20
36.8892
 30
0.0
 10
118.3755
 20
38.0549
 30
0.0
 10
120.6758
 20
35.9872
 30
0.0
 10
120.6758
 20
35.9872
 30
0.0
 10
120.6758
 20
35.9872
 30
0.0
 10
120.6758
 20
39.4897
 30
0.0
 10
120.6758
 20
39.4897
 30
0.0
 10
120.6758
 20
39.4897
 30
0.0
 10
118.3755
 20
37.422
 30
0.0
 10
113.9828
 20
38.5876
 30
0.0
 10
112.7377
 20
40.6492
 30
0.0
 10
112.7377
 20
40.6492
 30
0.0
 10
112.7377
 20
40.6492
 30
0.0
 10
112.7377
 20
34.8277
 30
0.0
 10
112.7377
 20
34.8277
 30
0.0
  0
SPLINE
  5
73
330
1F
100
AcDbEntity
  8
layer 1
 62
     7
100
AcDbSpline
210
0.0
220
0.0
230
1.0
 70
    11
 71
     3
 72
    28
 73
    24
 74
     0
 42
0.0000000001
 43
0.0000000001
 12
1.0
 22
0.0
 32
0.0
 13
1.0
 23
0.0
 33
0.0
 40
0.0
 40
0.0
 40
0.0
 40
0.0
 40
0.1428571428571428
 40
0.1428571428571428
 40
0.1428571428571428
 40
0.1428571428571428
 40
0.2857142857142857
 40
0.2857142857142857
 40
0.2857142857142857
 40
0.2857142857142857
 40
0.4285714285714285
 40
0.4285714285714285
 40
0.4285714285714285
 40
0.4285714285714285
 40
0.5714285714285714
 40
0.5714285714285714
 40
0.5714285714285714
 40
0.5714285714285714
 40
0.7142857142857143
 40
0.7142857142857143
 40
0.7142857142857143
 40
0.7142857142857143
 40
1.0
 40
1.0
 40
1.0
 40
1.0
 10
118.0766
 20
32.5925
 30
0.0
 10
118.6536
 20
31.8971
 30
0.0
 10
118.6197
 20
30.4952
 30
0.0
 10
116.578
 20
27.6909
 30
0.0
 10
116.578
 20
27.6909
 30
0.0
 10
115.1786
 20
25.6439
 30
0.0
 10
113.7375
 20
23.3078
 30
0.0
 10
112.7377
 20
20.7338
 30
0.0
 10
112.7377
 20
20.7338
 30
0.0
 10
112.9279
 20
24.4269
 30
0.0
 10
112.7418
 20
28.1211
 30
0.0
 10
112.7377
 20
31.8172
 30
0.0
 10
112.7377
 20
31.8172
 30
0.0
 10
113.39
 20
30.7563
 30
0.0
 10
114.6019
 20
30.2729
 30
0.0
 10
115.5776
 20
30.3344
 30
0.0
 10
115.5776
 20
30.3344
 30
0.0
 10
116.1559
 20
30.4479
 30
0.0
 10
116.4607
 20
30.5625
 30
0.0
 10
116.2795
 20
31.2844
 30
0.0
 10
116.2795
 20
31.2844
 30
0.0
 10
115.7101
 20
32.698
 30
0.0
 10
117.3022
 20
33.4566
 30
0.0
 10
118.0766
 20
32.5925
 30
0.0
  0
SPLINE
  5
74
330
1F
100
AcDbEntity
  8
layer 1
 62
     7
100
AcDbSpline
210
0.0
220
0.0
230
1.0
 70
    11
 71
     3
 72
    16
 73
    12
 74
     0
 42
0.0000000001
 43
0.0000000001
 12
1.0
 22
0.0
 32
0.0
 13
1.0
 23
0.0
 33
0.0
 40
0.0
 40
0.0
 40
0.0
 40
0.0
 40
0.25
 40
0.25
 40
0.25
 40
0.25
 40
0.5
 40
0.5
 40
0.5
 40
0.5
 40
1.0
 40
1.0
 40
1.0
 40
1.0
 10
124.6518
 20
23.5206
 30
0.0
 10
123.2445
 20
25.0098
 30
0.0
 10
121.3016
 20
25.4457
 30
0.0
 10
119.4134
 20
24.6786
 30
0.0
 10
119.4134
 20
24.6786
 30
0.0
 10
120.4831
 20
26.5818
 30
0.0
 10
121.214
 20
27.4993
 30
0.0
 10
121.9671
 20
30.3136
 30
0.0
 10
121.9671
 20
30.3136
 30
0.0
 10
122.3102
 20
27.8235
 30
0.0
 10
123.5522
 20
25.0405
 30
0.0
 10
124.6518
 20
23.5206
 30
0.0
  0
SPLINE
  5
75
330
1F
100
AcDbEntity
  8
layer 1
 62
     7
100
AcDbSpline
210
0.0
220
0.0
230
1.0
 70
    11
 71
     3
 72
    20
 73
    16
 74
     0
 42
0.0000000001
 43
0.0000000001
 12
1.0
 22
0.0
 32
0.0
 13
1.0
 23
0.0
 33
0.0
 40
0.0
 40
0.0
 40
0.0
 40
0.0
 40
0.2
 40
0.2
 40
0.2
 40
0.2
 40
0.4
 40
0.4
 40
0.4
 40
0.4
 40
0.6
 40
0.6
 40
0.6
 40
0.6
 40
1.0
 40
1.0
 40
1.0
 40
1.0
 10
133.927
 20
27.194
 30
0.0
 10
132.3498
 20
25.1953
 30
0.0
 10
131.1486
 20
23.459
 30
0.0
 10
130.8994
 20
20.6856
 30
0.0
 10
130.8994
 20
20.6856
 30
0.0
 10
129.0012
 20
22.864
 30
0.0
 10
127.663
 20
24.9853
 30
0.0
 10
126.3107
 20
28.0155
 30
0.0
 10
126.3107
 20
28.0155
 30
0.0
 10
129.0167
 20
26.5969
 30
0.0
 10
131.0298
 20
26.6672
 30
0.0
 10
133.9269
 20
27.194
 30
0.0
 10
133.9269
 20
27.194
 30
0.0
 10
133.9269
 20
27.194
 30
0.0
 10
133.927
 20
27.194
 30
0.0
 10
133.927
 20
27.194
 30
0.0
  0
SPLINE
  5
76
330
1F
100
AcDbEntity
  8
layer 1
 62
     7
100
AcDbSpline
210
0.0
220
0.0
230
1.0
 70
    11
 71
     3
 72
   136
 73
   132
 74
     0
 42
0.0000000001
 43
0.0000000001
 12
1.0
 22
0.0
 32
0.0
 13
1.0
 23
0.0
 33
0.0
 40
0.0
 40
0.0
 40
0.0
 40
0.0
 40
0.0294117647058824
 40
0.0294117647058824
 40
0.0294117647058824
 40
0.0294117647058824
 40
0.0588235294117647
 40
0.0588235294117647
 40
0.0588235294117647
 40
0.0588235294117647
 40
0.0882352941176471
 40
0.0882352941176471
 40
0.0882352941176471
 40
0.0882352941176471
 40
0.1176470588235294
 40
0.1176470588235294
 40
0.1176470588235294
 40
0.1176470588235294
 40
0.1470588235294118
 40
0.1470588235294118
 40
0.1470588235294118
 40
0.1470588235294118
 40
0.1764705882352941
 40
0.1764705882352941
 40
0.1764705882352941
 40
0.1764705882352941
 40
0.2058823529411765
 40
0.2058823529411765
 40
0.2058823529411765
 40
0.2058823529411765
 40
0.2352941176470588
 40
0.2352941176470588
 40
0.2352941176470588
 40
0.2352941176470588
 40
0.2647058823529412
 40
0.2647058823529412
 40
0.2647058823529412
 40
0.2647058823529412
 40
0.2941176470588235
 40
0.2941176470588235
 40
0.2941176470588235
 40
0.2941176470588235
 40
0.3235294117647059
 40
0.3235294117647059
 40
0.3235294117647059
 40
0.3235294117647059
 40
0.3529411764705883
 40
0.3529411764705883
 40
0.3529411764705883
 40
0.3529411764705883
 40
0.3823529411764706
 40
0.3823529411764706
 40
0.3823529411764706
 40
0.3823529411764706
 40
0.4117647058823529
 40
0.4117647058823529
 40
0.4117647058823529
 40
0.4117647058823529
 40
0.4411764705882353
 40
0.4411764705882353
 40
0.4411764705882353
 40
0.4411764705882353
 40
0.4705882352941176
 40
0.4705882352941176
 40
0.4705882352941176
 40
0.4705882352941176
 40
0.5
 40
0.5
 40
0.5
 40
0.5
 40
0.5294117647058824
 40
0.5294117647058824
 40
0.5294117647058824
 40
0.5294117647058824
 40
0.5588235294117647
 40
0.5588235294117647
 40
0.5588235294117647
 40
0.5588235294117647
 40
0.5882352941176471
 40
0.5882352941176471
 40
0.5882352941176471
 40
0.5882352941176471
 40
0.6176470588235294
 40
0.6176470588235294
 40
0.6176470588235294
 40
0.6176470588235294
 40
0.6470588235294118
 40
0.6470588235294118
 40
0.6470588235294118
 40
0.6470588235294118
 40
0.6764705882352942
 40
0.6764705882352942
 40
0.6764705882352942
 40
0.6764705882352942
 40
0.7058823529411765
 40
0.7058823529411765
 40
0.7058823529411765
 40
0.7058823529411765
 40
0.7352941176470589
 40
0.7352941176470589
 40
0.7352941176470589
 40
0.7352941176470589
 40
0.7647058823529411
 40
0.7647058823529411
 40
0.7647058823529411
 40
0.7647058823529411
 40
0.7941176470588235
 40
0.7941176470588235
 40
0.7941176470588235
 40
0.7941176470588235
 40
0.8235294117647058
 40
0.8235294117647058
 40
0.8235294117647058
 40
0.8235294117647058
 40
0.8529411764705882
 40
0.8529411764705882
 40
0.8529411764705882
 40
0.8529411764705882
 40
0.8823529411764706
 40
0.8823529411764706
 40
0.8823529411764706
 40
0.8823529411764706
 40
0.9117647058823529
 40
0.9117647058823529
 40
0.9117647058823529
 40
0.9117647058823529
 40
0.9411764705882353
 40
0.9411764705882353
 40
0.9411764705882353
 40
0.9411764705882353
 40
1.0
 40
1.0
 40
1.0
 40
1.0
 10
150.0921
 20
16.9569
 30
0.0
 10
148.5734
 20
16.007
 30
0.0
 10
146.7149
 20
16.0057
 30
0.0
 10
144.9456
 20
17.4851
 30
0.0
 10
144.9456
 20
17.4851
 30
0.0
 10
143.4962
 20
18.7734
 30
0.0
 10
143.2678
 20
21.511
 30
0.0
 10
144.6946
 20
23.4069
 30
0.0
 10
144.6946
 20
23.4069
 30
0.0
 10
145.1915
 20
22.4062
 30
0.0
 10
146.2281
 20
21.2329
 30
0.0
 10
147.2102
 20
22.3988
 30
0.0
 10
147.2102
 20
22.3988
 30
0.0
 10
148.0802
 20
24.0245
 30
0.0
 10
146.5201
 20
26.1986
 30
0.0
 10
143.7359
 20
27.2402
 30
0.0
 10
143.7359
 20
27.2402
 30
0.0
 10
143.7359
 20
27.2402
 30
0.0
 10
143.7359
 20
27.2402
 30
0.0
 10
143.7359
 20
27.2402
 30
0.0
 10
143.7359
 20
27.2402
 30
0.0
 10
142.7833
 20
27.5967
 30
0.0
 10
141.2206
 20
27.8882
 30
0.0
 10
140.2631
 20
27.8882
 30
0.0
 10
140.2631
 20
27.8882
 30
0.0
 10
138.6477
 20
27.8882
 30
0.0
 10
138.4756
 20
27.8124
 30
0.0
 10
137.8741
 20
26.8367
 30
0.0
 10
137.8741
 20
26.8367
 30
0.0
 10
137.5175
 20
26.2585
 30
0.0
 10
137.126
 20
25.3849
 30
0.0
 10
137.0038
 20
24.8956
 30
0.0
 10
137.0038
 20
24.8956
 30
0.0
 10
136.8037
 20
24.0936
 30
0.0
 10
136.866
 20
24.0059
 30
0.0
 10
137.636
 20
24.0059
 30
0.0
 10
137.636
 20
24.0059
 30
0.0
 10
139.6704
 20
23.9603
 30
0.0
 10
142.1794
 20
22.3139
 30
0.0
 10
141.9311
 20
19.9678
 30
0.0
 10
141.9311
 20
19.9678
 30
0.0
 10
141.7391
 20
18.3321
 30
0.0
 10
139.7412
 20
16.0581
 30
0.0
 10
137.2601
 20
17.1205
 30
0.0
 10
137.2601
 20
17.1205
 30
0.0
 10
136.5128
 20
17.5811
 30
0.0
 10
136.4647
 20
18.1825
 30
0.0
 10
137.287
 20
18.1825
 30
0.0
 10
137.287
 20
18.1825
 30
0.0
 10
138.4723
 20
18.3491
 30
0.0
 10
139.1673
 20
19.0133
 30
0.0
 10
138.4746
 20
19.9558
 30
0.0
 10
138.4746
 20
19.9558
 30
0.0
 10
137.5493
 20
21.0648
 30
0.0
 10
135.4255
 20
19.529
 30
0.0
 10
134.3435
 20
17.4227
 30
0.0
 10
134.3435
 20
17.4227
 30
0.0
 10
138.5158
 20
13.8946
 30
0.0
 10
144.5052
 20
11.3257
 30
0.0
 10
152.3796
 20
11.1217
 30
0.0
 10
152.3796
 20
11.1217
 30
0.0
 10
160.2541
 20
11.3257
 30
0.0
 10
166.2435
 20
13.8946
 30
0.0
 10
170.4158
 20
17.4227
 30
0.0
 10
170.4158
 20
17.4227
 30
0.0
 10
169.3336
 20
19.529
 30
0.0
 10
167.2098
 20
21.0648
 30
0.0
 10
166.2847
 20
19.9558
 30
0.0
 10
166.2847
 20
19.9558
 30
0.0
 10
165.592
 20
19.0133
 30
0.0
 10
166.287
 20
18.3491
 30
0.0
 10
167.4722
 20
18.1825
 30
0.0
 10
167.4722
 20
18.1825
 30
0.0
 10
168.2945
 20
18.1825
 30
0.0
 10
168.2465
 20
17.5812
 30
0.0
 10
167.4991
 20
17.1205
 30
0.0
 10
167.4991
 20
17.1205
 30
0.0
 10
165.018
 20
16.0581
 30
0.0
 10
163.0201
 20
18.332
 30
0.0
 10
162.8282
 20
19.9678
 30
0.0
 10
162.8282
 20
19.9678
 30
0.0
 10
162.5799
 20
22.3139
 30
0.0
 10
165.0888
 20
23.9603
 30
0.0
 10
167.1233
 20
24.0059
 30
0.0
 10
167.1233
 20
24.0059
 30
0.0
 10
167.8933
 20
24.0059
 30
0.0
 10
167.9556
 20
24.0936
 30
0.0
 10
167.7554
 20
24.8956
 30
0.0
 10
167.7554
 20
24.8956
 30
0.0
 10
167.6333
 20
25.3849
 30
0.0
 10
167.2416
 20
26.2585
 30
0.0
 10
166.8852
 20
26.8367
 30
0.0
 10
166.8852
 20
26.8367
 30
0.0
 10
166.2837
 20
27.8124
 30
0.0
 10
166.1115
 20
27.8882
 30
0.0
 10
164.4962
 20
27.8882
 30
0.0
 10
164.4962
 20
27.8882
 30
0.0
 10
163.5387
 20
27.8882
 30
0.0
 10
161.9759
 20
27.5965
 30
0.0
 10
161.0234
 20
27.2402
 30
0.0
 10
161.0234
 20
27.2402
 30
0.0
 10
161.0234
 20
27.2402
 30
0.0
 10
161.0234
 20
27.2402
 30
0.0
 10
161.0234
 20
27.2402
 30
0.0
 10
161.0234
 20
27.2402
 30
0.0
 10
158.2392
 20
26.1986
 30
0.0
 10
156.6791
 20
24.0245
 30
0.0
 10
157.5491
 20
22.3988
 30
0.0
 10
157.5491
 20
22.3988
 30
0.0
 10
158.5312
 20
21.2329
 30
0.0
 10
159.5677
 20
22.4062
 30
0.0
 10
160.0647
 20
23.4069
 30
0.0
 10
160.0647
 20
23.4069
 30
0.0
 10
161.4915
 20
21.511
 30
0.0
 10
161.2631
 20
18.7734
 30
0.0
 10
159.8136
 20
17.4851
 30
0.0
 10
159.8136
 20
17.4851
 30
0.0
 10
158.0444
 20
16.0057
 30
0.0
 10
156.1857
 20
16.007
 30
0.0
 10
154.6672
 20
16.9569
 30
0.0
 10
154.6672
 20
16.9569
 30
0.0
 10
154.643
 20
14.7481
 30
0.0
 10
153.5323
 20
12.7308
 30
0.0
 10
152.3798
 20
12.7478
 30
0.0
 10
152.3798
 20
12.7478
 30
0.0
 10
151.2272
 20
12.7308
 30
0.0
 10
150.1166
 20
14.7481
 30
0.0
 10
150.0923
 20
16.9569
 30
0.0
 10
150.0923
 20
16.9569
 30
0.0
 10
150.0923
 20
16.9569
 30
0.0
 10
150.0921
 20
16.9569
 30
0.0
 10
150.0921
 20
16.9569
 30
0.0
  0
SPLINE
  5
77
330
1F
100
AcDbEntity
  8
layer 1
 62
     7
100
AcDbSpline
210
0.0
220
0.0
230
1.0
 70
    11
 71
     3
 72
    32
 73
    28
 74
     0
 42
0.0000000001
 43
0.0000000001
 12
1.0
 22
0.0
 32
0.0
 13
1.0
 23
0.0
 33
0.0
 40
0.0
 40
0.0
 40
0.0
 40
0.0
 40
0.125
 40
0.125
 40
0.125
 40
0.125
 40
0.25
 40
0.25
 40
0.25
 40
0.25
 40
0.375
 40
0.375
 40
0.375
 40
0.375
 40
0.5
 40
0.5
 40
0.5
 40
0.5
 40
0.625
 40
0.625
 40
0.625
 40
0.625
 40
0.75
 40
0.75
 40
0.75
 40
0.75
 40
1.0
 40
1.0
 40
1.0
 40
1.0
 10
129.7343
 20
16.7534
 30
0.0
 10
128.0135
 20
12.6491
 30
0.0
 10
124.3168
 20
10.6062
 30
0.0
 10
121.0671
 20
11.4029
 30
0.0
 10
121.0671
 20
11.4029
 30
0.0
 10
116.8967
 20
11.7522
 30
0.0
 10
114.3711
 20
16.6759
 30
0.0
 10
116.2857
 20
18.6747
 30
0.0
 10
116.2857
 20
18.6747
 30
0.0
 10
118.578
 20
20.7869
 30
0.0
 10
120.5443
 20
17.4916
 30
0.0
 10
119.0582
 20
15.918
 30
0.0
 10
119.0582
 20
15.918
 30
0.0
 10
118.1561
 20
15.0158
 30
0.0
 10
118.242
 20
14.73
 30
0.0
 10
119.5446
 20
14.3
 30
0.0
 10
119.5446
 20
14.3
 30
0.0
 10
125.0276
 20
13.4107
 30
0.0
 10
126.4655
 20
18.3796
 30
0.0
 10
125.7882
 20
21.7562
 30
0.0
 10
125.7882
 20
21.7562
 30
0.0
 10
126.9419
 20
19.6031
 30
0.0
 10
128.313
 20
18.1779
 30
0.0
 10
129.7344
 20
16.7535
 30
0.0
 10
129.7344
 20
16.7535
 30
0.0
 10
129.7344
 20
16.7535
 30
0.0
 10
129.7343
 20
16.7534
 30
0.0
 10
129.7343
 20
16.7534
 30
0.0
  0
SPLINE
  5
78
330
1F
100
AcDbEntity
  8
layer 1
 62
     7
100
AcDbSpline
210
0.0
220
0.0
230
1.0
 70
    11
 71
     3
 72
    16
 73
    12
 74
     0
 42
0.0000000001
 43
0.0000000001
 12
1.0
 22
0.0
 32
0.0
 13
1.0
 23
0.0
 33
0.0
 40
0.0
 40
0.0
 40
0.0
 40
0.0
 40
0.25
 40
0.25
 40
0.25
 40
0.25
 40
0.5
 40
0.5
 40
0.5
 40
0.5
 40
1.0
 40
1.0
 40
1.0
 40
1.0
 10
112.7377
 20
14.6498
 30
0.0
 10
112.7377
 20
14.6498
 30
0.0
 10
112.7396
 20
1.6086
 30
0.0
 10
112.7396
 20
1.6086
 30
0.0
 10
112.7396
 20
1.6086
 30
0.0
 10
113.7786
 20
5.1659
 30
0.0
 10
116.2395
 20
7.4013
 30
0.0
 10
119.3764
 20
8.1292
 30
0.0
 10
119.3764
 20
8.1292
 30
0.0
 10
116.2375
 20
8.8571
 30
0.0
 10
113.7766
 20
11.0924
 30
0.0
 10
112.7377
 20
14.6498
 30
0.0
  0
SPLINE
  5
79
330
1F
100
AcDbEntity
  8
layer 1
 62
     7
100
AcDbSpline
210
0.0
220
0.0
230
1.0
 70
    11
 71
     3
 72
    20
 73
    16
 74
     0
 42
0.0000000001
 43
0.0000000001
 12
1.0
 22
0.0
 32
0.0
 13
1.0
 23
0.0
 33
0.0
 40
0.0
 40
0.0
 40
0.0
 40
0.0
 40
0.2
 40
0.2
 40
0.2
 40
0.2
 40
0.4
 40
0.4
 40
0.4
 40
0.4
 40
0.6
 40
0.6
 40
0.6
 40
0.6
 40
1.0
 40
1.0
 40
1.0
 40
1.0
 10
192.0212
 20
34.8277
 30
0.0
 10
190.7761
 20
36.8892
 30
0.0
 10
186.3834
 20
38.0549
 30
0.0
 10
184.0831
 20
35.9872
 30
0.0
 10
184.0831
 20
35.9872
 30
0.0
 10
184.0831
 20
35.9872
 30
0.0
 10
184.0831
 20
39.4897
 30
0.0
 10
184.0831
 20
39.4897
 30
0.0
 10
184.0831
 20
39.4897
 30
0.0
 10
186.3834
 20
37.422
 30
0.0
 10
190.7761
 20
38.5876
 30
0.0
 10
192.0212
 20
40.6492
 30
0.0
 10
192.0212
 20
40.6492
 30
0.0
 10
192.0212
 20
40.6492
 30
0.0
 10
192.0212
 20
34.8277
 30
0.0
 10
192.0212
 20
34.8277
 30
0.0
  0
SPLINE
  5
7A
330
1F
100
AcDbEntity
  8
layer 1
 62
     7
100
AcDbSpline
210
0.0
220
0.0
230
1.0
 70
    11
 71
     3
 72
    56
 73
    52
 74
     0
 42
0.0000000001
 43
0.0000000001
 12
1.0
 22
0.0
 32
0.0
 13
1.0
 23
0.0
 33
0.0
 40
0.0
 40
0.0
 40
0.0
 40
0.0
 40
0.0714285714285714
 40
0.0714285714285714
 40
0.0714285714285714
 40
0.0714285714285714
 40
0.1428571428571428
 40
0.1428571428571428
 40
0.1428571428571428
 40
0.1428571428571428
 40
0.2142857142857143
 40
0.2142857142857143
 40
0.2142857142857143
 40
0.2142857142857143
 40
0.2857142857142857
 40
0.2857142857142857
 40
0.2857142857142857
 40
0.2857142857142857
 40
0.3571428571428572
 40
0.3571428571428572
 40
0.3571428571428572
 40
0.3571428571428572
 40
0.4285714285714285
 40
0.4285714285714285
 40
0.4285714285714285
 40
0.4285714285714285
 40
0.5
 40
0.5
 40
0.5
 40
0.5
 40
0.5714285714285714
 40
0.5714285714285714
 40
0.5714285714285714
 40
0.5714285714285714
 40
0.6428571428571429
 40
0.6428571428571429
 40
0.6428571428571429
 40
0.6428571428571429
 40
0.7142857142857143
 40
0.7142857142857143
 40
0.7142857142857143
 40
0.7142857142857143
 40
0.7857142857142857
 40
0.7857142857142857
 40
0.7857142857142857
 40
0.7857142857142857
 40
0.8571428571428571
 40
0.8571428571428571
 40
0.8571428571428571
 40
0.8571428571428571
 40
1.0
 40
1.0
 40
1.0
 40
1.0
 10
155.4304
 20
29.9715
 30
0.0
 10
157.3061
 20
30.3449
 30
0.0
 10
158.3738
 20
32.2556
 30
0.0
 10
156.8299
 20
32.4758
 30
0.0
 10
156.8299
 20
32.4758
 30
0.0
 10
155.9979
 20
32.5945
 30
0.0
 10
155.7005
 20
33.5223
 30
0.0
 10
156.2733
 20
34.2124
 30
0.0
 10
156.2733
 20
34.2124
 30
0.0
 10
157.609
 20
35.5718
 30
0.0
 10
162.0383
 20
34.1313
 30
0.0
 10
163.4421
 20
31.5062
 30
0.0
 10
163.4421
 20
31.5062
 30
0.0
 10
159.0033
 20
31.0706
 30
0.0
 10
153.9587
 20
29.2951
 30
0.0
 10
153.3866
 20
24.3204
 30
0.0
 10
153.3866
 20
24.3204
 30
0.0
 10
153.2244
 20
22.6259
 30
0.0
 10
152.9301
 20
21.9852
 30
0.0
 10
152.3794
 20
21.9474
 30
0.0
 10
152.3794
 20
21.9474
 30
0.0
 10
151.8287
 20
21.9852
 30
0.0
 10
151.5343
 20
22.6259
 30
0.0
 10
151.3722
 20
24.3204
 30
0.0
 10
151.3722
 20
24.3204
 30
0.0
 10
150.8001
 20
29.2951
 30
0.0
 10
145.7556
 20
31.0706
 30
0.0
 10
141.3166
 20
31.5062
 30
0.0
 10
141.3166
 20
31.5062
 30
0.0
 10
142.7205
 20
34.1313
 30
0.0
 10
147.1497
 20
35.5718
 30
0.0
 10
148.4855
 20
34.2124
 30
0.0
 10
148.4855
 20
34.2124
 30
0.0
 10
149.0583
 20
33.5223
 30
0.0
 10
148.7609
 20
32.5945
 30
0.0
 10
147.9289
 20
32.4758
 30
0.0
 10
147.9289
 20
32.4758
 30
0.0
 10
146.3851
 20
32.2556
 30
0.0
 10
147.4528
 20
30.3449
 30
0.0
 10
149.3284
 20
29.9715
 30
0.0
 10
149.3284
 20
29.9715
 30
0.0
 10
150.7421
 20
29.9177
 30
0.0
 10
151.6102
 20
30.3122
 30
0.0
 10
152.3793
 20
31.3143
 30
0.0
 10
152.3793
 20
31.3143
 30
0.0
 10
153.1484
 20
30.3122
 30
0.0
 10
154.0164
 20
29.9178
 30
0.0
 10
155.4302
 20
29.9715
 30
0.0
 10
155.4302
 20
29.9715
 30
0.0
 10
155.4302
 20
29.9715
 30
0.0
 10
155.4304
 20
29.9715
 30
0.0
 10
155.4304
 20
29.9715
 30
0.0
  0
SPLINE
  5
7B
330
1F
100
AcDbEntity
  8
layer 1
 62
     7
100
AcDbSpline
210
0.0
220
0.0
230
1.0
 70
    11
 71
     3
 72
    28
 73
    24
 74
     0
 42
0.0000000001
 43
0.0000000001
 12
1.0
 22
0.0
 32
0.0
 13
1.0
 23
0.0
 33
0.0
 40
0.0
 40
0.0
 40
0.0
 40
0.0
 40
0.1428571428571428
 40
0.1428571428571428
 40
0.1428571428571428
 40
0.1428571428571428
 40
0.2857142857142857
 40
0.2857142857142857
 40
0.2857142857142857
 40
0.2857142857142857
 40
0.4285714285714285
 40
0.4285714285714285
 40
0.4285714285714285
 40
0.4285714285714285
 40
0.5714285714285714
 40
0.5714285714285714
 40
0.5714285714285714
 40
0.5714285714285714
 40
0.7142857142857143
 40
0.7142857142857143
 40
0.7142857142857143
 40
0.7142857142857143
 40
1.0
 40
1.0
 40
1.0
 40
1.0
 10
186.6823
 20
32.5925
 30
0.0
 10
186.1053
 20
31.8971
 30
0.0
 10
186.1392
 20
30.4952
 30
0.0
 10
188.1809
 20
27.6909
 30
0.0
 10
188.1809
 20
27.6909
 30
0.0
 10
189.5803
 20
25.6439
 30
0.0
 10
191.0214
 20
23.3078
 30
0.0
 10
192.0212
 20
20.7338
 30
0.0
 10
192.0212
 20
20.7338
 30
0.0
 10
191.831
 20
24.4269
 30
0.0
 10
192.0171
 20
28.1211
 30
0.0
 10
192.0212
 20
31.8172
 30
0.0
 10
192.0212
 20
31.8172
 30
0.0
 10
191.3689
 20
30.7563
 30
0.0
 10
190.157
 20
30.2729
 30
0.0
 10
189.1813
 20
30.3344
 30
0.0
 10
189.1813
 20
30.3344
 30
0.0
 10
188.603
 20
30.4479
 30
0.0
 10
188.2982
 20
30.5625
 30
0.0
 10
188.4794
 20
31.2844
 30
0.0
 10
188.4794
 20
31.2844
 30
0.0
 10
189.0488
 20
32.698
 30
0.0
 10
187.4567
 20
33.4566
 30
0.0
 10
186.6823
 20
32.5925
 30
0.0
  0
SPLINE
  5
7C
330
1F
100
AcDbEntity
  8
layer 1
 62
     7
100
AcDbSpline
210
0.0
220
0.0
230
1.0
 70
    11
 71
     3
 72
    16
 73
    12
 74
     0
 42
0.0000000001
 43
0.0000000001
 12
1.0
 22
0.0
 32
0.0
 13
1.0
 23
0.0
 33
0.0
 40
0.0
 40
0.0
 40
0.0
 40
0.0
 40
0.25
 40
0.25
 40
0.25
 40
0.25
 40
0.5
 40
0.5
 40
0.5
 40
0.5
 40
1.0
 40
1.0
 40
1.0
 40
1.0
 10
180.1071
 20
23.5206
 30
0.0
 10
181.8925
 20
25.1611
 30
0.0
 10
183.3816
 20
25.1431
 30
0.0
 10
185.3455
 20
24.6786
 30
0.0
 10
185.3455
 20
24.6786
 30
0.0
 10
184.2758
 20
26.5818
 30
0.0
 10
183.5449
 20
27.4993
 30
0.0
 10
182.7918
 20
30.3136
 30
0.0
 10
182.7918
 20
30.3136
 30
0.0
 10
182.4487
 20
27.8235
 30
0.0
 10
181.2067
 20
25.0405
 30
0.0
 10
180.1071
 20
23.5206
 30
0.0
  0
SPLINE
  5
7D
330
1F
100
AcDbEntity
  8
layer 1
 62
     7
100
AcDbSpline
210
0.0
220
0.0
230
1.0
 70
    11
 71
     3
 72
    20
 73
    16
 74
     0
 42
0.0000000001
 43
0.0000000001
 12
1.0
 22
0.0
 32
0.0
 13
1.0
 23
0.0
 33
0.0
 40
0.0
 40
0.0
 40
0.0
 40
0.0
 40
0.2
 40
0.2
 40
0.2
 40
0.2
 40
0.4
 40
0.4
 40
0.4
 40
0.4
 40
0.6
 40
0.6
 40
0.6
 40
0.6
 40
1.0
 40
1.0
 40
1.0
 40
1.0
 10
170.8319
 20
27.194
 30
0.0
 10
172.1822
 20
24.8171
 30
0.0
 10
172.8539
 20
23.232
 30
0.0
 10
173.8595
 20
20.6856
 30
0.0
 10
173.8595
 20
20.6856
 30
0.0
 10
175.7577
 20
22.864
 30
0.0
 10
177.0959
 20
24.9853
 30
0.0
 10
178.4482
 20
28.0155
 30
0.0
 10
178.4482
 20
28.0155
 30
0.0
 10
175.7813
 20
27.1395
 30
0.0
 10
174.0577
 20
26.9764
 30
0.0
 10
170.832
 20
27.194
 30
0.0
 10
170.832
 20
27.194
 30
0.0
 10
170.832
 20
27.194
 30
0.0
 10
170.8319
 20
27.194
 30
0.0
 10
170.8319
 20
27.194
 30
0.0
  0
SPLINE
  5
7E
330
1F
100
AcDbEntity
  8
layer 1
 62
     7
100
AcDbSpline
210
0.0
220
0.0
230
1.0
 70
    11
 71
     3
 72
    32
 73
    28
 74
     0
 42
0.0000000001
 43
0.0000000001
 12
1.0
 22
0.0
 32
0.0
 13
1.0
 23
0.0
 33
0.0
 40
0.0
 40
0.0
 40
0.0
 40
0.0
 40
0.125
 40
0.125
 40
0.125
 40
0.125
 40
0.25
 40
0.25
 40
0.25
 40
0.25
 40
0.375
 40
0.375
 40
0.375
 40
0.375
 40
0.5
 40
0.5
 40
0.5
 40
0.5
 40
0.625
 40
0.625
 40
0.625
 40
0.625
 40
0.75
 40
0.75
 40
0.75
 40
0.75
 40
1.0
 40
1.0
 40
1.0
 40
1.0
 10
175.0246
 20
16.7534
 30
0.0
 10
176.7454
 20
12.6491
 30
0.0
 10
180.4421
 20
10.6062
 30
0.0
 10
183.6918
 20
11.4029
 30
0.0
 10
183.6918
 20
11.4029
 30
0.0
 10
187.8622
 20
11.7522
 30
0.0
 10
190.3878
 20
16.6759
 30
0.0
 10
188.4732
 20
18.6747
 30
0.0
 10
188.4732
 20
18.6747
 30
0.0
 10
186.1809
 20
20.7869
 30
0.0
 10
184.2146
 20
17.4916
 30
0.0
 10
185.7007
 20
15.918
 30
0.0
 10
185.7007
 20
15.918
 30
0.0
 10
186.6028
 20
15.0158
 30
0.0
 10
186.5169
 20
14.73
 30
0.0
 10
185.2143
 20
14.3
 30
0.0
 10
185.2143
 20
14.3
 30
0.0
 10
179.7313
 20
13.4107
 30
0.0
 10
178.2934
 20
18.3796
 30
0.0
 10
178.9707
 20
21.7562
 30
0.0
 10
178.9707
 20
21.7562
 30
0.0
 10
177.817
 20
19.6031
 30
0.0
 10
176.4459
 20
18.1779
 30
0.0
 10
175.0245
 20
16.7535
 30
0.0
 10
175.0245
 20
16.7535
 30
0.0
 10
175.0245
 20
16.7535
 30
0.0
 10
175.0246
 20
16.7534
 30
0.0
 10
175.0246
 20
16.7534
 30
0.0
  0
SPLINE
  5
7F
330
1F
100
AcDbEntity
  8
layer 1
 62
     7
100
AcDbSpline
210
0.0
220
0.0
230
1.0
 70
    11
 71
     3
 72
    24
 73
    20
 74
     0
 42
0.0000000001
 43
0.0000000001
 12
1.0
 22
0.0
 32
0.0
 13
1.0
 23
0.0
 33
0.0
 40
0.0
 40
0.0
 40
0.0
 40
0.0
 40
0.1666666666666667
 40
0.1666666666666667
 40
0.1666666666666667
 40
0.1666666666666667
 40
0.3333333333333333
 40
0.3333333333333333
 40
0.3333333333333333
 40
0.3333333333333333
 40
0.5
 40
0.5
 40
0.5
 40
0.5
 40
0.6666666666666666
 40
0.6666666666666666
 40
0.6666666666666666
 40
0.6666666666666666
 40
1.0
 40
1.0
 40
1.0
 40
1.0
 10
133.0499
 20
2.2421
 30
0.0
 10
137.0312
 20
5.3177
 30
0.0
 10
140.2022
 20
7.0118
 30
0.0
 10
145.7761
 20
8.129
 30
0.0
 10
145.7761
 20
8.129
 30
0.0
 10
140.2001
 20
9.2464
 30
0.0
 10
137.0292
 20
10.9404
 30
0.0
 10
133.0479
 20
14.016
 30
0.0
 10
133.0479
 20
14.016
 30
0.0
 10
131.2787
 20
11.4798
 30
0.0
 10
128.3513
 20
8.9222
 30
0.0
 10
125.586
 20
8.098
 30
0.0
 10
125.586
 20
8.098
 30
0.0
 10
128.3843
 20
7.2737
 30
0.0
 10
131.2807
 20
4.7781
 30
0.0
 10
133.0499
 20
2.242
 30
0.0
 10
133.0499
 20
2.242
 30
0.0
 10
133.0499
 20
2.242
 30
0.0
 10
133.0499
 20
2.2421
 30
0.0
 10
133.0499
 20
2.2421
 30
0.0
  0
SPLINE
  5
80
330
1F
100
AcDbEntity
  8
layer 1
 62
     7
100
AcDbSpline
210
0.0
220
0.0
230
1.0
 70
    11
 71
     3
 72
    16
 73
    12
 74
     0
 42
0.0000000001
 43
0.0000000001
 12
1.0
 22
0.0
 32
0.0
 13
1.0
 23
0.0
 33
0.0
 40
0.0
 40
0.0
 40
0.0
 40
0.0
 40
0.25
 40
0.25
 40
0.25
 40
0.25
 40
0.5
 40
0.5
 40
0.5
 40
0.5
 40
1.0
 40
1.0
 40
1.0
 40
1.0
 10
192.0343
 20
-57.5496
 30
0.0
 10
192.0343
 20
-57.5496
 30
0.0
 10
192.0324
 20
-44.5084
 30
0.0
 10
192.0324
 20
-44.5084
 30
0.0
 10
192.0324
 20
-44.5084
 30
0.0
 10
190.9934
 20
-48.0657
 30
0.0
 10
188.5325
 20
-50.3011
 30
0.0
 10
185.3956
 20
-51.029
 30
0.0
 10
185.3956
 20
-51.029
 30
0.0
 10
188.5344
 20
-51.7569
 30
0.0
 10
190.9954
 20
-53.9922
 30
0.0
 10
192.0343
 20
-57.5496
 30
0.0
  0
SPLINE
  5
81
330
1F
100
AcDbEntity
  8
layer 1
 62
     7
100
AcDbSpline
210
0.0
220
0.0
230
1.0
 70
    11
 71
     3
 72
    24
 73
    20
 74
     0
 42
0.0000000001
 43
0.0000000001
 12
1.0
 22
0.0
 32
0.0
 13
1.0
 23
0.0
 33
0.0
 40
0.0
 40
0.0
 40
0.0
 40
0.0
 40
0.1666666666666667
 40
0.1666666666666667
 40
0.1666666666666667
 40
0.1666666666666667
 40
0.3333333333333333
 40
0.3333333333333333
 40
0.3333333333333333
 40
0.3333333333333333
 40
0.5
 40
0.5
 40
0.5
 40
0.5
 40
0.6666666666666666
 40
0.6666666666666666
 40
0.6666666666666666
 40
0.6666666666666666
 40
1.0
 40
1.0
 40
1.0
 40
1.0
 10
171.722
 20
-45.142
 30
0.0
 10
167.7407
 20
-48.2176
 30
0.0
 10
164.5698
 20
-49.9117
 30
0.0
 10
158.9958
 20
-51.029
 30
0.0
 10
158.9958
 20
-51.029
 30
0.0
 10
164.5718
 20
-52.1463
 30
0.0
 10
167.7428
 20
-53.8403
 30
0.0
 10
171.7241
 20
-56.9159
 30
0.0
 10
171.7241
 20
-56.9159
 30
0.0
 10
173.4933
 20
-54.3797
 30
0.0
 10
176.4207
 20
-51.8222
 30
0.0
 10
179.186
 20
-50.9979
 30
0.0
 10
179.186
 20
-50.9979
 30
0.0
 10
176.3877
 20
-50.1736
 30
0.0
 10
173.4912
 20
-47.678
 30
0.0
 10
171.722
 20
-45.1419
 30
0.0
 10
171.722
 20
-45.1419
 30
0.0
 10
171.722
 20
-45.1419
 30
0.0
 10
171.722
 20
-45.142
 30
0.0
 10
171.722
 20
-45.142
 30
0.0
  0
SPLINE
  5
82
330
1F
100
AcDbEntity
  8
layer 1
 62
     7
100
AcDbSpline
210
0.0
220
0.0
230
1.0
 70
    11
 71
     3
 72
    68
 73
    64
 74
     0
 42
0.0000000001
 43
0.0000000001
 12
1.0
 22
0.0
 32
0.0
 13
1.0
 23
0.0
 33
0.0
 40
0.0
 40
0.0
 40
0.0
 40
0.0
 40
0.0588235294117647
 40
0.0588235294117647
 40
0.0588235294117647
 40
0.0588235294117647
 40
0.1176470588235294
 40
0.1176470588235294
 40
0.1176470588235294
 40
0.1176470588235294
 40
0.1764705882352941
 40
0.1764705882352941
 40
0.1764705882352941
 40
0.1764705882352941
 40
0.2352941176470588
 40
0.2352941176470588
 40
0.2352941176470588
 40
0.2352941176470588
 40
0.2941176470588235
 40
0.2941176470588235
 40
0.2941176470588235
 40
0.2941176470588235
 40
0.3529411764705883
 40
0.3529411764705883
 40
0.3529411764705883
 40
0.3529411764705883
 40
0.4117647058823529
 40
0.4117647058823529
 40
0.4117647058823529
 40
0.4117647058823529
 40
0.4705882352941176
 40
0.4705882352941176
 40
0.4705882352941176
 40
0.4705882352941176
 40
0.5294117647058824
 40
0.5294117647058824
 40
0.5294117647058824
 40
0.5294117647058824
 40
0.5882352941176471
 40
0.5882352941176471
 40
0.5882352941176471
 40
0.5882352941176471
 40
0.6470588235294118
 40
0.6470588235294118
 40
0.6470588235294118
 40
0.6470588235294118
 40
0.7058823529411765
 40
0.7058823529411765
 40
0.7058823529411765
 40
0.7058823529411765
 40
0.7647058823529411
 40
0.7647058823529411
 40
0.7647058823529411
 40
0.7647058823529411
 40
0.8235294117647058
 40
0.8235294117647058
 40
0.8235294117647058
 40
0.8235294117647058
 40
0.8823529411764706
 40
0.8823529411764706
 40
0.8823529411764706
 40
0.8823529411764706
 40
1.0
 40
1.0
 40
1.0
 40
1.0
 10
136.123
 20
-87.4152
 30
0.0
 10
136.123
 20
-87.4152
 30
0.0
 10
133.2211
 20
-87.5294
 30
0.0
 10
133.2211
 20
-87.5294
 30
0.0
 10
133.2211
 20
-87.5294
 30
0.0
 10
128.0715
 20
-87.9244
 30
0.0
 10
124.3367
 20
-85.6908
 30
0.0
 10
126.1991
 20
-82.606
 30
0.0
 10
126.1991
 20
-82.606
 30
0.0
 10
127.4991
 20
-80.9532
 30
0.0
 10
130.0901
 20
-81.9339
 30
0.0
 10
128.9026
 20
-83.6292
 30
0.0
 10
128.9026
 20
-83.6292
 30
0.0
 10
128.4701
 20
-84.2467
 30
0.0
 10
128.4848
 20
-84.3428
 30
0.0
 10
129.0585
 20
-84.6498
 30
0.0
 10
129.0585
 20
-84.6498
 30
0.0
 10
129.4069
 20
-84.8363
 30
0.0
 10
130.3029
 20
-84.9888
 30
0.0
 10
131.0499
 20
-84.9888
 30
0.0
 10
131.0499
 20
-84.9888
 30
0.0
 10
133.0702
 20
-85.0035
 30
0.0
 10
133.3326
 20
-83.4414
 30
0.0
 10
134.959
 20
-82.7241
 30
0.0
 10
134.959
 20
-82.7241
 30
0.0
 10
136.0632
 20
-82.3139
 30
0.0
 10
139.207
 20
-81.8184
 30
0.0
 10
139.082
 20
-80.6384
 30
0.0
 10
139.082
 20
-80.6384
 30
0.0
 10
139.207
 20
-79.4583
 30
0.0
 10
136.0633
 20
-78.9627
 30
0.0
 10
134.959
 20
-78.5526
 30
0.0
 10
134.959
 20
-78.5526
 30
0.0
 10
133.3326
 20
-77.8353
 30
0.0
 10
133.0701
 20
-76.2732
 30
0.0
 10
131.0499
 20
-76.2879
 30
0.0
 10
131.0499
 20
-76.2879
 30
0.0
 10
130.303
 20
-76.2879
 30
0.0
 10
129.4069
 20
-76.4404
 30
0.0
 10
129.0585
 20
-76.6269
 30
0.0
 10
129.0585
 20
-76.6269
 30
0.0
 10
128.4848
 20
-76.9339
 30
0.0
 10
128.4701
 20
-77.03
 30
0.0
 10
128.9026
 20
-77.6475
 30
0.0
 10
128.9026
 20
-77.6475
 30
0.0
 10
130.0901
 20
-79.3428
 30
0.0
 10
127.4991
 20
-80.3235
 30
0.0
 10
126.1991
 20
-78.6707
 30
0.0
 10
126.1991
 20
-78.6707
 30
0.0
 10
124.3368
 20
-75.5859
 30
0.0
 10
128.0715
 20
-73.3523
 30
0.0
 10
133.2211
 20
-73.7473
 30
0.0
 10
133.2211
 20
-73.7473
 30
0.0
 10
133.2211
 20
-73.7473
 30
0.0
 10
136.123
 20
-73.8615
 30
0.0
 10
136.123
 20
-73.8615
 30
0.0
 10
136.123
 20
-73.8615
 30
0.0
 10
138.5956
 20
-77.2867
 30
0.0
 10
141.6342
 20
-79.9327
 30
0.0
 10
145.6174
 20
-80.6384
 30
0.0
 10
145.6174
 20
-80.6384
 30
0.0
 10
141.5585
 20
-81.344
 30
0.0
 10
138.5956
 20
-84.6708
 30
0.0
 10
136.123
 20
-87.4152
 30
0.0
  0
SPLINE
  5
83
330
1F
100
AcDbEntity
  8
layer 1
 62
     7
100
AcDbSpline
210
0.0
220
0.0
230
1.0
 70
    11
 71
     3
 72
    28
 73
    24
 74
     0
 42
0.0000000001
 43
0.0000000001
 12
1.0
 22
0.0
 32
0.0
 13
1.0
 23
0.0
 33
0.0
 40
0.0
 40
0.0
 40
0.0
 40
0.0
 40
0.1428571428571428
 40
0.1428571428571428
 40
0.1428571428571428
 40
0.1428571428571428
 40
0.2857142857142857
 40
0.2857142857142857
 40
0.2857142857142857
 40
0.2857142857142857
 40
0.4285714285714285
 40
0.4285714285714285
 40
0.4285714285714285
 40
0.4285714285714285
 40
0.5714285714285714
 40
0.5714285714285714
 40
0.5714285714285714
 40
0.5714285714285714
 40
0.7142857142857143
 40
0.7142857142857143
 40
0.7142857142857143
 40
0.7142857142857143
 40
1.0
 40
1.0
 40
1.0
 40
1.0
 10
118.0766
 20
-85.7843
 30
0.0
 10
118.6536
 20
-86.4797
 30
0.0
 10
118.6197
 20
-87.8816
 30
0.0
 10
116.578
 20
-90.6859
 30
0.0
 10
116.578
 20
-90.6859
 30
0.0
 10
115.1786
 20
-92.7329
 30
0.0
 10
113.7375
 20
-95.0689
 30
0.0
 10
112.7377
 20
-97.643
 30
0.0
 10
112.7377
 20
-97.643
 30
0.0
 10
112.9279
 20
-93.9499
 30
0.0
 10
112.7418
 20
-90.2557
 30
0.0
 10
112.7377
 20
-86.5595
 30
0.0
 10
112.7377
 20
-86.5595
 30
0.0
 10
113.39
 20
-87.6205
 30
0.0
 10
114.6019
 20
-88.1039
 30
0.0
 10
115.5776
 20
-88.0424
 30
0.0
 10
115.5776
 20
-88.0424
 30
0.0
 10
116.1559
 20
-87.9289
 30
0.0
 10
116.4607
 20
-87.8143
 30
0.0
 10
116.2795
 20
-87.0924
 30
0.0
 10
116.2795
 20
-87.0924
 30
0.0
 10
115.7101
 20
-85.6788
 30
0.0
 10
117.3022
 20
-84.9202
 30
0.0
 10
118.0766
 20
-85.7843
 30
0.0
  0
SPLINE
  5
84
330
1F
100
AcDbEntity
  8
layer 1
 62
     7
100
AcDbSpline
210
0.0
220
0.0
230
1.0
 70
    11
 71
     3
 72
    16
 73
    12
 74
     0
 42
0.0000000001
 43
0.0000000001
 12
1.0
 22
0.0
 32
0.0
 13
1.0
 23
0.0
 33
0.0
 40
0.0
 40
0.0
 40
0.0
 40
0.0
 40
0.25
 40
0.25
 40
0.25
 40
0.25
 40
0.5
 40
0.5
 40
0.5
 40
0.5
 40
1.0
 40
1.0
 40
1.0
 40
1.0
 10
124.6518
 20
-94.8562
 30
0.0
 10
123.169
 20
-93.6695
 30
0.0
 10
121.3773
 20
-93.2337
 30
0.0
 10
119.4134
 20
-93.6982
 30
0.0
 10
119.4134
 20
-93.6982
 30
0.0
 10
120.4831
 20
-91.795
 30
0.0
 10
121.214
 20
-90.8775
 30
0.0
 10
121.9671
 20
-88.0632
 30
0.0
 10
121.9671
 20
-88.0632
 30
0.0
 10
122.3102
 20
-90.5533
 30
0.0
 10
123.5522
 20
-93.3363
 30
0.0
 10
124.6518
 20
-94.8562
 30
0.0
  0
SPLINE
  5
85
330
1F
100
AcDbEntity
  8
layer 1
 62
     7
100
AcDbSpline
210
0.0
220
0.0
230
1.0
 70
    11
 71
     3
 72
    20
 73
    16
 74
     0
 42
0.0000000001
 43
0.0000000001
 12
1.0
 22
0.0
 32
0.0
 13
1.0
 23
0.0
 33
0.0
 40
0.0
 40
0.0
 40
0.0
 40
0.0
 40
0.2
 40
0.2
 40
0.2
 40
0.2
 40
0.4
 40
0.4
 40
0.4
 40
0.4
 40
0.6
 40
0.6
 40
0.6
 40
0.6
 40
1.0
 40
1.0
 40
1.0
 40
1.0
 10
133.927
 20
-91.1829
 30
0.0
 10
132.4255
 20
-93.2572
 30
0.0
 10
131.8294
 20
-94.8422
 30
0.0
 10
130.8994
 20
-97.6913
 30
0.0
 10
130.8994
 20
-97.6913
 30
0.0
 10
129.0012
 20
-95.5129
 30
0.0
 10
127.663
 20
-93.3916
 30
0.0
 10
126.3107
 20
-90.3615
 30
0.0
 10
126.3107
 20
-90.3615
 30
0.0
 10
129.181
 20
-91.5335
 30
0.0
 10
130.9477
 20
-91.7097
 30
0.0
 10
133.9269
 20
-91.1829
 30
0.0
 10
133.9269
 20
-91.1829
 30
0.0
 10
133.9269
 20
-91.1829
 30
0.0
 10
133.927
 20
-91.1829
 30
0.0
 10
133.927
 20
-91.1829
 30
0.0
  0
SPLINE
  5
86
330
1F
100
AcDbEntity
  8
layer 1
 62
     7
100
AcDbSpline
210
0.0
220
0.0
230
1.0
 70
    11
 71
     3
 72
   136
 73
   132
 74
     0
 42
0.0000000001
 43
0.0000000001
 12
1.0
 22
0.0
 32
0.0
 13
1.0
 23
0.0
 33
0.0
 40
0.0
 40
0.0
 40
0.0
 40
0.0
 40
0.0294117647058824
 40
0.0294117647058824
 40
0.0294117647058824
 40
0.0294117647058824
 40
0.0588235294117647
 40
0.0588235294117647
 40
0.0588235294117647
 40
0.0588235294117647
 40
0.0882352941176471
 40
0.0882352941176471
 40
0.0882352941176471
 40
0.0882352941176471
 40
0.1176470588235294
 40
0.1176470588235294
 40
0.1176470588235294
 40
0.1176470588235294
 40
0.1470588235294118
 40
0.1470588235294118
 40
0.1470588235294118
 40
0.1470588235294118
 40
0.1764705882352941
 40
0.1764705882352941
 40
0.1764705882352941
 40
0.1764705882352941
 40
0.2058823529411765
 40
0.2058823529411765
 40
0.2058823529411765
 40
0.2058823529411765
 40
0.2352941176470588
 40
0.2352941176470588
 40
0.2352941176470588
 40
0.2352941176470588
 40
0.2647058823529412
 40
0.2647058823529412
 40
0.2647058823529412
 40
0.2647058823529412
 40
0.2941176470588235
 40
0.2941176470588235
 40
0.2941176470588235
 40
0.2941176470588235
 40
0.3235294117647059
 40
0.3235294117647059
 40
0.3235294117647059
 40
0.3235294117647059
 40
0.3529411764705883
 40
0.3529411764705883
 40
0.3529411764705883
 40
0.3529411764705883
 40
0.3823529411764706
 40
0.3823529411764706
 40
0.3823529411764706
 40
0.3823529411764706
 40
0.4117647058823529
 40
0.4117647058823529
 40
0.4117647058823529
 40
0.4117647058823529
 40
0.4411764705882353
 40
0.4411764705882353
 40
0.4411764705882353
 40
0.4411764705882353
 40
0.4705882352941176
 40
0.4705882352941176
 40
0.4705882352941176
 40
0.4705882352941176
 40
0.5
 40
0.5
 40
0.5
 40
0.5
 40
0.5294117647058824
 40
0.5294117647058824
 40
0.5294117647058824
 40
0.5294117647058824
 40
0.5588235294117647
 40
0.5588235294117647
 40
0.5588235294117647
 40
0.5588235294117647
 40
0.5882352941176471
 40
0.5882352941176471
 40
0.5882352941176471
 40
0.5882352941176471
 40
0.6176470588235294
 40
0.6176470588235294
 40
0.6176470588235294
 40
0.6176470588235294
 40
0.6470588235294118
 40
0.6470588235294118
 40
0.6470588235294118
 40
0.6470588235294118
 40
0.6764705882352942
 40
0.6764705882352942
 40
0.6764705882352942
 40
0.6764705882352942
 40
0.7058823529411765
 40
0.7058823529411765
 40
0.7058823529411765
 40
0.7058823529411765
 40
0.7352941176470589
 40
0.7352941176470589
 40
0.7352941176470589
 40
0.7352941176470589
 40
0.7647058823529411
 40
0.7647058823529411
 40
0.7647058823529411
 40
0.7647058823529411
 40
0.7941176470588235
 40
0.7941176470588235
 40
0.7941176470588235
 40
0.7941176470588235
 40
0.8235294117647058
 40
0.8235294117647058
 40
0.8235294117647058
 40
0.8235294117647058
 40
0.8529411764705882
 40
0.8529411764705882
 40
0.8529411764705882
 40
0.8529411764705882
 40
0.8823529411764706
 40
0.8823529411764706
 40
0.8823529411764706
 40
0.8823529411764706
 40
0.9117647058823529
 40
0.9117647058823529
 40
0.9117647058823529
 40
0.9117647058823529
 40
0.9411764705882353
 40
0.9411764705882353
 40
0.9411764705882353
 40
0.9411764705882353
 40
1.0
 40
1.0
 40
1.0
 40
1.0
 10
150.0921
 20
-101.4201
 30
0.0
 10
148.5734
 20
-102.3699
 30
0.0
 10
146.7149
 20
-102.3712
 30
0.0
 10
144.9456
 20
-100.8918
 30
0.0
 10
144.9456
 20
-100.8918
 30
0.0
 10
143.4962
 20
-99.6035
 30
0.0
 10
143.2678
 20
-96.8659
 30
0.0
 10
144.6946
 20
-94.97
 30
0.0
 10
144.6946
 20
-94.97
 30
0.0
 10
145.1915
 20
-95.9707
 30
0.0
 10
146.2281
 20
-97.144
 30
0.0
 10
147.2102
 20
-95.9781
 30
0.0
 10
147.2102
 20
-95.9781
 30
0.0
 10
148.0802
 20
-94.3524
 30
0.0
 10
146.5201
 20
-92.1784
 30
0.0
 10
143.7359
 20
-91.1367
 30
0.0
 10
143.7359
 20
-91.1367
 30
0.0
 10
143.7359
 20
-91.1367
 30
0.0
 10
143.7359
 20
-91.1367
 30
0.0
 10
143.7359
 20
-91.1367
 30
0.0
 10
143.7359
 20
-91.1367
 30
0.0
 10
142.7833
 20
-90.7803
 30
0.0
 10
141.2206
 20
-90.4888
 30
0.0
 10
140.2631
 20
-90.4888
 30
0.0
 10
140.2631
 20
-90.4888
 30
0.0
 10
138.6477
 20
-90.4888
 30
0.0
 10
138.4756
 20
-90.5646
 30
0.0
 10
137.8741
 20
-91.5402
 30
0.0
 10
137.8741
 20
-91.5402
 30
0.0
 10
137.5175
 20
-92.1184
 30
0.0
 10
137.126
 20
-92.992
 30
0.0
 10
137.0038
 20
-93.4813
 30
0.0
 10
137.0038
 20
-93.4813
 30
0.0
 10
136.8037
 20
-94.2833
 30
0.0
 10
136.866
 20
-94.371
 30
0.0
 10
137.636
 20
-94.371
 30
0.0
 10
137.636
 20
-94.371
 30
0.0
 10
139.6704
 20
-94.4166
 30
0.0
 10
142.1794
 20
-96.063
 30
0.0
 10
141.9311
 20
-98.4091
 30
0.0
 10
141.9311
 20
-98.4091
 30
0.0
 10
141.7391
 20
-100.0448
 30
0.0
 10
139.7412
 20
-102.3188
 30
0.0
 10
137.2601
 20
-101.2565
 30
0.0
 10
137.2601
 20
-101.2565
 30
0.0
 10
136.5128
 20
-100.7958
 30
0.0
 10
136.4647
 20
-100.1944
 30
0.0
 10
137.287
 20
-100.1944
 30
0.0
 10
137.287
 20
-100.1944
 30
0.0
 10
138.4723
 20
-100.0278
 30
0.0
 10
139.1673
 20
-99.3636
 30
0.0
 10
138.4746
 20
-98.4211
 30
0.0
 10
138.4746
 20
-98.4211
 30
0.0
 10
137.5493
 20
-97.3121
 30
0.0
 10
135.4255
 20
-98.8479
 30
0.0
 10
134.3435
 20
-100.9542
 30
0.0
 10
134.3435
 20
-100.9542
 30
0.0
 10
138.5158
 20
-104.4823
 30
0.0
 10
144.5052
 20
-107.0512
 30
0.0
 10
152.3796
 20
-107.2552
 30
0.0
 10
152.3796
 20
-107.2552
 30
0.0
 10
160.2541
 20
-107.0512
 30
0.0
 10
166.2435
 20
-104.4823
 30
0.0
 10
170.4158
 20
-100.9542
 30
0.0
 10
170.4158
 20
-100.9542
 30
0.0
 10
169.3336
 20
-98.8479
 30
0.0
 10
167.2098
 20
-97.3121
 30
0.0
 10
166.2847
 20
-98.4211
 30
0.0
 10
166.2847
 20
-98.4211
 30
0.0
 10
165.592
 20
-99.3636
 30
0.0
 10
166.287
 20
-100.0278
 30
0.0
 10
167.4722
 20
-100.1944
 30
0.0
 10
167.4722
 20
-100.1944
 30
0.0
 10
168.2945
 20
-100.1944
 30
0.0
 10
168.2465
 20
-100.7957
 30
0.0
 10
167.4991
 20
-101.2565
 30
0.0
 10
167.4991
 20
-101.2565
 30
0.0
 10
165.018
 20
-102.3188
 30
0.0
 10
163.0201
 20
-100.045
 30
0.0
 10
162.8282
 20
-98.4091
 30
0.0
 10
162.8282
 20
-98.4091
 30
0.0
 10
162.5799
 20
-96.063
 30
0.0
 10
165.0888
 20
-94.4166
 30
0.0
 10
167.1233
 20
-94.371
 30
0.0
 10
167.1233
 20
-94.371
 30
0.0
 10
167.8933
 20
-94.371
 30
0.0
 10
167.9556
 20
-94.2833
 30
0.0
 10
167.7554
 20
-93.4813
 30
0.0
 10
167.7554
 20
-93.4813
 30
0.0
 10
167.6333
 20
-92.992
 30
0.0
 10
167.2416
 20
-92.1184
 30
0.0
 10
166.8852
 20
-91.5402
 30
0.0
 10
166.8852
 20
-91.5402
 30
0.0
 10
166.2837
 20
-90.5646
 30
0.0
 10
166.1115
 20
-90.4888
 30
0.0
 10
164.4962
 20
-90.4888
 30
0.0
 10
164.4962
 20
-90.4888
 30
0.0
 10
163.5387
 20
-90.4888
 30
0.0
 10
161.9759
 20
-90.7804
 30
0.0
 10
161.0234
 20
-91.1367
 30
0.0
 10
161.0234
 20
-91.1367
 30
0.0
 10
161.0234
 20
-91.1367
 30
0.0
 10
161.0234
 20
-91.1367
 30
0.0
 10
161.0234
 20
-91.1367
 30
0.0
 10
161.0234
 20
-91.1367
 30
0.0
 10
158.2392
 20
-92.1784
 30
0.0
 10
156.6791
 20
-94.3524
 30
0.0
 10
157.5491
 20
-95.9781
 30
0.0
 10
157.5491
 20
-95.9781
 30
0.0
 10
158.5312
 20
-97.144
 30
0.0
 10
159.5677
 20
-95.9707
 30
0.0
 10
160.0647
 20
-94.97
 30
0.0
 10
160.0647
 20
-94.97
 30
0.0
 10
161.4915
 20
-96.8659
 30
0.0
 10
161.2631
 20
-99.6035
 30
0.0
 10
159.8136
 20
-100.8918
 30
0.0
 10
159.8136
 20
-100.8918
 30
0.0
 10
158.0444
 20
-102.3712
 30
0.0
 10
156.1857
 20
-102.3699
 30
0.0
 10
154.6672
 20
-101.4201
 30
0.0
 10
154.6672
 20
-101.4201
 30
0.0
 10
154.643
 20
-103.6288
 30
0.0
 10
153.5323
 20
-105.6461
 30
0.0
 10
152.3798
 20
-105.6292
 30
0.0
 10
152.3798
 20
-105.6292
 30
0.0
 10
151.2272
 20
-105.6461
 30
0.0
 10
150.1166
 20
-103.6288
 30
0.0
 10
150.0923
 20
-101.4201
 30
0.0
 10
150.0923
 20
-101.4201
 30
0.0
 10
150.0923
 20
-101.4201
 30
0.0
 10
150.0921
 20
-101.4201
 30
0.0
 10
150.0921
 20
-101.4201
 30
0.0
  0
SPLINE
  5
87
330
1F
100
AcDbEntity
  8
layer 1
 62
     7
100
AcDbSpline
210
0.0
220
0.0
230
1.0
 70
    11
 71
     3
 72
    32
 73
    28
 74
     0
 42
0.0000000001
 43
0.0000000001
 12
1.0
 22
0.0
 32
0.0
 13
1.0
 23
0.0
 33
0.0
 40
0.0
 40
0.0
 40
0.0
 40
0.0
 40
0.125
 40
0.125
 40
0.125
 40
0.125
 40
0.25
 40
0.25
 40
0.25
 40
0.25
 40
0.375
 40
0.375
 40
0.375
 40
0.375
 40
0.5
 40
0.5
 40
0.5
 40
0.5
 40
0.625
 40
0.625
 40
0.625
 40
0.625
 40
0.75
 40
0.75
 40
0.75
 40
0.75
 40
1.0
 40
1.0
 40
1.0
 40
1.0
 10
129.7343
 20
-101.6235
 30
0.0
 10
128.0135
 20
-105.7278
 30
0.0
 10
124.3168
 20
-107.7707
 30
0.0
 10
121.0671
 20
-106.9741
 30
0.0
 10
121.0671
 20
-106.9741
 30
0.0
 10
116.8967
 20
-106.6247
 30
0.0
 10
114.3711
 20
-101.7011
 30
0.0
 10
116.2857
 20
-99.7022
 30
0.0
 10
116.2857
 20
-99.7022
 30
0.0
 10
118.578
 20
-97.59
 30
0.0
 10
120.5443
 20
-100.8854
 30
0.0
 10
119.0582
 20
-102.4589
 30
0.0
 10
119.0582
 20
-102.4589
 30
0.0
 10
118.1561
 20
-103.3611
 30
0.0
 10
118.242
 20
-103.6469
 30
0.0
 10
119.5446
 20
-104.0769
 30
0.0
 10
119.5446
 20
-104.0769
 30
0.0
 10
125.0276
 20
-104.9662
 30
0.0
 10
126.4655
 20
-99.9973
 30
0.0
 10
125.7882
 20
-96.6207
 30
0.0
 10
125.7882
 20
-96.6207
 30
0.0
 10
126.9419
 20
-98.7738
 30
0.0
 10
128.313
 20
-100.199
 30
0.0
 10
129.7344
 20
-101.6234
 30
0.0
 10
129.7344
 20
-101.6234
 30
0.0
 10
129.7344
 20
-101.6234
 30
0.0
 10
129.7343
 20
-101.6235
 30
0.0
 10
129.7343
 20
-101.6235
 30
0.0
  0
SPLINE
  5
88
330
1F
100
AcDbEntity
  8
layer 1
 62
     7
100
AcDbSpline
210
0.0
220
0.0
230
1.0
 70
    11
 71
     3
 72
    16
 73
    12
 74
     0
 42
0.0000000001
 43
0.0000000001
 12
1.0
 22
0.0
 32
0.0
 13
1.0
 23
0.0
 33
0.0
 40
0.0
 40
0.0
 40
0.0
 40
0.0
 40
0.25
 40
0.25
 40
0.25
 40
0.25
 40
0.5
 40
0.5
 40
0.5
 40
0.5
 40
1.0
 40
1.0
 40
1.0
 40
1.0
 10
119.3754
 20
-110.2668
 30
0.0
 10
116.4693
 20
-110.2668
 30
0.0
 10
114.8924
 20
-110.2668
 30
0.0
 10
112.7377
 20
-110.2668
 30
0.0
 10
112.7377
 20
-110.2668
 30
0.0
 10
112.7377
 20
-108.1442
 30
0.0
 10
112.7377
 20
-105.91
 30
0.0
 10
112.7377
 20
-103.7272
 30
0.0
 10
112.7377
 20
-103.7272
 30
0.0
 10
113.7766
 20
-107.2845
 30
0.0
 10
116.2375
 20
-109.5198
 30
0.0
 10
119.3754
 20
-110.2668
 30
0.0
  0
SPLINE
  5
89
330
1F
100
AcDbEntity
  8
layer 1
 62
     7
100
AcDbSpline
210
0.0
220
0.0
230
1.0
 70
    11
 71
     3
 72
    16
 73
    12
 74
     0
 42
0.0000000001
 43
0.0000000001
 12
1.0
 22
0.0
 32
0.0
 13
1.0
 23
0.0
 33
0.0
 40
0.0
 40
0.0
 40
0.0
 40
0.0
 40
0.25
 40
0.25
 40
0.25
 40
0.25
 40
0.5
 40
0.5
 40
0.5
 40
0.5
 40
1.0
 40
1.0
 40
1.0
 40
1.0
 10
145.7752
 20
-110.2668
 30
0.0
 10
140.5339
 20
-110.2668
 30
0.0
 10
132.2294
 20
-110.2668
 30
0.0
 10
125.5695
 20
-110.2668
 30
0.0
 10
125.5695
 20
-110.2668
 30
0.0
 10
128.3513
 20
-109.4544
 30
0.0
 10
131.2787
 20
-106.8969
 30
0.0
 10
133.0479
 20
-104.3607
 30
0.0
 10
133.0479
 20
-104.3607
 30
0.0
 10
137.0292
 20
-107.4363
 30
0.0
 10
140.2001
 20
-109.1304
 30
0.0
 10
145.7752
 20
-110.2668
 30
0.0
  0
SPLINE
  5
8A
330
1F
100
AcDbEntity
  8
layer 1
 62
     7
100
AcDbSpline
210
0.0
220
0.0
230
1.0
 70
    11
 71
     3
 72
    68
 73
    64
 74
     0
 42
0.0000000001
 43
0.0000000001
 12
1.0
 22
0.0
 32
0.0
 13
1.0
 23
0.0
 33
0.0
 40
0.0
 40
0.0
 40
0.0
 40
0.0
 40
0.0588235294117647
 40
0.0588235294117647
 40
0.0588235294117647
 40
0.0588235294117647
 40
0.1176470588235294
 40
0.1176470588235294
 40
0.1176470588235294
 40
0.1176470588235294
 40
0.1764705882352941
 40
0.1764705882352941
 40
0.1764705882352941
 40
0.1764705882352941
 40
0.2352941176470588
 40
0.2352941176470588
 40
0.2352941176470588
 40
0.2352941176470588
 40
0.2941176470588235
 40
0.2941176470588235
 40
0.2941176470588235
 40
0.2941176470588235
 40
0.3529411764705883
 40
0.3529411764705883
 40
0.3529411764705883
 40
0.3529411764705883
 40
0.4117647058823529
 40
0.4117647058823529
 40
0.4117647058823529
 40
0.4117647058823529
 40
0.4705882352941176
 40
0.4705882352941176
 40
0.4705882352941176
 40
0.4705882352941176
 40
0.5294117647058824
 40
0.5294117647058824
 40
0.5294117647058824
 40
0.5294117647058824
 40
0.5882352941176471
 40
0.5882352941176471
 40
0.5882352941176471
 40
0.5882352941176471
 40
0.6470588235294118
 40
0.6470588235294118
 40
0.6470588235294118
 40
0.6470588235294118
 40
0.7058823529411765
 40
0.7058823529411765
 40
0.7058823529411765
 40
0.7058823529411765
 40
0.7647058823529411
 40
0.7647058823529411
 40
0.7647058823529411
 40
0.7647058823529411
 40
0.8235294117647058
 40
0.8235294117647058
 40
0.8235294117647058
 40
0.8235294117647058
 40
0.8823529411764706
 40
0.8823529411764706
 40
0.8823529411764706
 40
0.8823529411764706
 40
1.0
 40
1.0
 40
1.0
 40
1.0
 10
169.7999
 20
-82.7241
 30
0.0
 10
171.4262
 20
-83.4414
 30
0.0
 10
171.6888
 20
-85.0035
 30
0.0
 10
173.709
 20
-84.9888
 30
0.0
 10
173.709
 20
-84.9888
 30
0.0
 10
174.4559
 20
-84.9888
 30
0.0
 10
175.352
 20
-84.8363
 30
0.0
 10
175.7004
 20
-84.6498
 30
0.0
 10
175.7004
 20
-84.6498
 30
0.0
 10
176.2741
 20
-84.3428
 30
0.0
 10
176.2888
 20
-84.2467
 30
0.0
 10
175.8563
 20
-83.6292
 30
0.0
 10
175.8563
 20
-83.6292
 30
0.0
 10
174.6688
 20
-81.9339
 30
0.0
 10
177.2598
 20
-80.9532
 30
0.0
 10
178.5598
 20
-82.606
 30
0.0
 10
178.5598
 20
-82.606
 30
0.0
 10
180.4221
 20
-85.6908
 30
0.0
 10
176.6874
 20
-87.9244
 30
0.0
 10
171.5378
 20
-87.5294
 30
0.0
 10
171.5378
 20
-87.5294
 30
0.0
 10
171.5378
 20
-87.5294
 30
0.0
 10
168.6359
 20
-87.4152
 30
0.0
 10
168.6359
 20
-87.4152
 30
0.0
 10
168.6359
 20
-87.4152
 30
0.0
 10
166.4659
 20
-84.0656
 30
0.0
 10
162.8978
 20
-80.9658
 30
0.0
 10
159.1415
 20
-80.6384
 30
0.0
 10
159.1415
 20
-80.6384
 30
0.0
 10
162.8978
 20
-80.0841
 30
0.0
 10
166.0876
 20
-77.3623
 30
0.0
 10
168.6359
 20
-73.8615
 30
0.0
 10
168.6359
 20
-73.8615
 30
0.0
 10
168.6359
 20
-73.8615
 30
0.0
 10
171.5378
 20
-73.7473
 30
0.0
 10
171.5378
 20
-73.7473
 30
0.0
 10
171.5378
 20
-73.7473
 30
0.0
 10
176.6874
 20
-73.3523
 30
0.0
 10
180.4222
 20
-75.5859
 30
0.0
 10
178.5598
 20
-78.6707
 30
0.0
 10
178.5598
 20
-78.6707
 30
0.0
 10
177.2598
 20
-80.3235
 30
0.0
 10
174.6688
 20
-79.3428
 30
0.0
 10
175.8563
 20
-77.6475
 30
0.0
 10
175.8563
 20
-77.6475
 30
0.0
 10
176.2888
 20
-77.03
 30
0.0
 10
176.2741
 20
-76.9339
 30
0.0
 10
175.7004
 20
-76.6269
 30
0.0
 10
175.7004
 20
-76.6269
 30
0.0
 10
175.352
 20
-76.4404
 30
0.0
 10
174.456
 20
-76.2879
 30
0.0
 10
173.709
 20
-76.2879
 30
0.0
 10
173.709
 20
-76.2879
 30
0.0
 10
171.6887
 20
-76.2732
 30
0.0
 10
171.4262
 20
-77.8353
 30
0.0
 10
169.7999
 20
-78.5526
 30
0.0
 10
169.7999
 20
-78.5526
 30
0.0
 10
168.6957
 20
-78.9628
 30
0.0
 10
165.5519
 20
-79.4583
 30
0.0
 10
165.6769
 20
-80.6384
 30
0.0
 10
165.6769
 20
-80.6384
 30
0.0
 10
165.5519
 20
-81.8184
 30
0.0
 10
168.6956
 20
-82.314
 30
0.0
 10
169.7999
 20
-82.7241
 30
0.0
  0
SPLINE
  5
8B
330
1F
100
AcDbEntity
  8
layer 1
 62
     7
100
AcDbSpline
210
0.0
220
0.0
230
1.0
 70
    11
 71
     3
 72
    20
 73
    16
 74
     0
 42
0.0000000001
 43
0.0000000001
 12
1.0
 22
0.0
 32
0.0
 13
1.0
 23
0.0
 33
0.0
 40
0.0
 40
0.0
 40
0.0
 40
0.0
 40
0.2
 40
0.2
 40
0.2
 40
0.2
 40
0.4
 40
0.4
 40
0.4
 40
0.4
 40
0.6
 40
0.6
 40
0.6
 40
0.6
 40
1.0
 40
1.0
 40
1.0
 40
1.0
 10
152.3795
 20
-82.9404
 30
0.0
 10
151.7209
 20
-81.8895
 30
0.0
 10
150.1974
 20
-80.908
 30
0.0
 10
148.3732
 20
-80.6382
 30
0.0
 10
148.3732
 20
-80.6382
 30
0.0
 10
150.1975
 20
-80.3685
 30
0.0
 10
151.7211
 20
-79.387
 30
0.0
 10
152.3796
 20
-78.336
 30
0.0
 10
152.3796
 20
-78.336
 30
0.0
 10
153.0382
 20
-79.387
 30
0.0
 10
154.5618
 20
-80.3685
 30
0.0
 10
156.386
 20
-80.6382
 30
0.0
 10
156.386
 20
-80.6382
 30
0.0
 10
154.5616
 20
-80.908
 30
0.0
 10
153.0381
 20
-81.8895
 30
0.0
 10
152.3795
 20
-82.9404
 30
0.0
  0
SPLINE
  5
8C
330
1F
100
AcDbEntity
  8
layer 1
 62
     7
100
AcDbSpline
210
0.0
220
0.0
230
1.0
 70
    11
 71
     3
 72
    56
 73
    52
 74
     0
 42
0.0000000001
 43
0.0000000001
 12
1.0
 22
0.0
 32
0.0
 13
1.0
 23
0.0
 33
0.0
 40
0.0
 40
0.0
 40
0.0
 40
0.0
 40
0.0714285714285714
 40
0.0714285714285714
 40
0.0714285714285714
 40
0.0714285714285714
 40
0.1428571428571428
 40
0.1428571428571428
 40
0.1428571428571428
 40
0.1428571428571428
 40
0.2142857142857143
 40
0.2142857142857143
 40
0.2142857142857143
 40
0.2142857142857143
 40
0.2857142857142857
 40
0.2857142857142857
 40
0.2857142857142857
 40
0.2857142857142857
 40
0.3571428571428572
 40
0.3571428571428572
 40
0.3571428571428572
 40
0.3571428571428572
 40
0.4285714285714285
 40
0.4285714285714285
 40
0.4285714285714285
 40
0.4285714285714285
 40
0.5
 40
0.5
 40
0.5
 40
0.5
 40
0.5714285714285714
 40
0.5714285714285714
 40
0.5714285714285714
 40
0.5714285714285714
 40
0.6428571428571429
 40
0.6428571428571429
 40
0.6428571428571429
 40
0.6428571428571429
 40
0.7142857142857143
 40
0.7142857142857143
 40
0.7142857142857143
 40
0.7142857142857143
 40
0.7857142857142857
 40
0.7857142857142857
 40
0.7857142857142857
 40
0.7857142857142857
 40
0.8571428571428571
 40
0.8571428571428571
 40
0.8571428571428571
 40
0.8571428571428571
 40
1.0
 40
1.0
 40
1.0
 40
1.0
 10
155.4304
 20
-88.4054
 30
0.0
 10
157.3061
 20
-88.032
 30
0.0
 10
158.3738
 20
-86.1213
 30
0.0
 10
156.8299
 20
-85.9011
 30
0.0
 10
156.8299
 20
-85.9011
 30
0.0
 10
155.9979
 20
-85.7824
 30
0.0
 10
155.7005
 20
-84.8547
 30
0.0
 10
156.2733
 20
-84.1645
 30
0.0
 10
156.2733
 20
-84.1645
 30
0.0
 10
157.609
 20
-82.8051
 30
0.0
 10
162.0383
 20
-84.2456
 30
0.0
 10
163.4421
 20
-86.8707
 30
0.0
 10
163.4421
 20
-86.8707
 30
0.0
 10
159.0033
 20
-87.3063
 30
0.0
 10
153.9587
 20
-89.0818
 30
0.0
 10
153.3866
 20
-94.0565
 30
0.0
 10
153.3866
 20
-94.0565
 30
0.0
 10
153.2244
 20
-95.751
 30
0.0
 10
152.9301
 20
-96.3917
 30
0.0
 10
152.3794
 20
-96.4295
 30
0.0
 10
152.3794
 20
-96.4295
 30
0.0
 10
151.8287
 20
-96.3917
 30
0.0
 10
151.5343
 20
-95.751
 30
0.0
 10
151.3722
 20
-94.0565
 30
0.0
 10
151.3722
 20
-94.0565
 30
0.0
 10
150.8001
 20
-89.0818
 30
0.0
 10
145.7556
 20
-87.3063
 30
0.0
 10
141.3166
 20
-86.8707
 30
0.0
 10
141.3166
 20
-86.8707
 30
0.0
 10
142.7205
 20
-84.2456
 30
0.0
 10
147.1497
 20
-82.805
 30
0.0
 10
148.4855
 20
-84.1645
 30
0.0
 10
148.4855
 20
-84.1645
 30
0.0
 10
149.0583
 20
-84.8547
 30
0.0
 10
148.7609
 20
-85.7824
 30
0.0
 10
147.9289
 20
-85.9011
 30
0.0
 10
147.9289
 20
-85.9011
 30
0.0
 10
146.3851
 20
-86.1213
 30
0.0
 10
147.4528
 20
-88.032
 30
0.0
 10
149.3284
 20
-88.4054
 30
0.0
 10
149.3284
 20
-88.4054
 30
0.0
 10
150.7421
 20
-88.4592
 30
0.0
 10
151.6102
 20
-88.0648
 30
0.0
 10
152.3793
 20
-87.0626
 30
0.0
 10
152.3793
 20
-87.0626
 30
0.0
 10
153.1484
 20
-88.0648
 30
0.0
 10
154.0164
 20
-88.4591
 30
0.0
 10
155.4302
 20
-88.4054
 30
0.0
 10
155.4302
 20
-88.4054
 30
0.0
 10
155.4302
 20
-88.4054
 30
0.0
 10
155.4304
 20
-88.4054
 30
0.0
 10
155.4304
 20
-88.4054
 30
0.0
  0
SPLINE
  5
8D
330
1F
100
AcDbEntity
  8
layer 1
 62
     7
100
AcDbSpline
210
0.0
220
0.0
230
1.0
 70
    11
 71
     3
 72
    28
 73
    24
 74
     0
 42
0.0000000001
 43
0.0000000001
 12
1.0
 22
0.0
 32
0.0
 13
1.0
 23
0.0
 33
0.0
 40
0.0
 40
0.0
 40
0.0
 40
0.0
 40
0.1428571428571428
 40
0.1428571428571428
 40
0.1428571428571428
 40
0.1428571428571428
 40
0.2857142857142857
 40
0.2857142857142857
 40
0.2857142857142857
 40
0.2857142857142857
 40
0.4285714285714285
 40
0.4285714285714285
 40
0.4285714285714285
 40
0.4285714285714285
 40
0.5714285714285714
 40
0.5714285714285714
 40
0.5714285714285714
 40
0.5714285714285714
 40
0.7142857142857143
 40
0.7142857142857143
 40
0.7142857142857143
 40
0.7142857142857143
 40
1.0
 40
1.0
 40
1.0
 40
1.0
 10
186.6823
 20
-85.7843
 30
0.0
 10
186.1053
 20
-86.4797
 30
0.0
 10
186.1392
 20
-87.8816
 30
0.0
 10
188.1809
 20
-90.6859
 30
0.0
 10
188.1809
 20
-90.6859
 30
0.0
 10
189.5803
 20
-92.7329
 30
0.0
 10
191.0214
 20
-95.0689
 30
0.0
 10
192.0212
 20
-97.643
 30
0.0
 10
192.0212
 20
-97.643
 30
0.0
 10
191.831
 20
-93.9499
 30
0.0
 10
192.0171
 20
-90.2557
 30
0.0
 10
192.0212
 20
-86.5595
 30
0.0
 10
192.0212
 20
-86.5595
 30
0.0
 10
191.3689
 20
-87.6205
 30
0.0
 10
190.157
 20
-88.1039
 30
0.0
 10
189.1813
 20
-88.0424
 30
0.0
 10
189.1813
 20
-88.0424
 30
0.0
 10
188.603
 20
-87.9289
 30
0.0
 10
188.2982
 20
-87.8143
 30
0.0
 10
188.4794
 20
-87.0924
 30
0.0
 10
188.4794
 20
-87.0924
 30
0.0
 10
189.0488
 20
-85.6788
 30
0.0
 10
187.4567
 20
-84.9202
 30
0.0
 10
186.6823
 20
-85.7843
 30
0.0
  0
SPLINE
  5
8E
330
1F
100
AcDbEntity
  8
layer 1
 62
     7
100
AcDbSpline
210
0.0
220
0.0
230
1.0
 70
    11
 71
     3
 72
    16
 73
    12
 74
     0
 42
0.0000000001
 43
0.0000000001
 12
1.0
 22
0.0
 32
0.0
 13
1.0
 23
0.0
 33
0.0
 40
0.0
 40
0.0
 40
0.0
 40
0.0
 40
0.25
 40
0.25
 40
0.25
 40
0.25
 40
0.5
 40
0.5
 40
0.5
 40
0.5
 40
1.0
 40
1.0
 40
1.0
 40
1.0
 10
180.1071
 20
-94.8562
 30
0.0
 10
181.6656
 20
-93.5939
 30
0.0
 10
183.4573
 20
-93.158
 30
0.0
 10
185.3455
 20
-93.6982
 30
0.0
 10
185.3455
 20
-93.6982
 30
0.0
 10
184.2758
 20
-91.795
 30
0.0
 10
183.5449
 20
-90.8775
 30
0.0
 10
182.7918
 20
-88.0632
 30
0.0
 10
182.7918
 20
-88.0632
 30
0.0
 10
182.4487
 20
-90.5533
 30
0.0
 10
181.2067
 20
-93.3363
 30
0.0
 10
180.1071
 20
-94.8562
 30
0.0
  0
SPLINE
  5
8F
330
1F
100
AcDbEntity
  8
layer 1
 62
     7
100
AcDbSpline
210
0.0
220
0.0
230
1.0
 70
    11
 71
     3
 72
    20
 73
    16
 74
     0
 42
0.0000000001
 43
0.0000000001
 12
1.0
 22
0.0
 32
0.0
 13
1.0
 23
0.0
 33
0.0
 40
0.0
 40
0.0
 40
0.0
 40
0.0
 40
0.2
 40
0.2
 40
0.2
 40
0.2
 40
0.4
 40
0.4
 40
0.4
 40
0.4
 40
0.6
 40
0.6
 40
0.6
 40
0.6
 40
1.0
 40
1.0
 40
1.0
 40
1.0
 10
170.8319
 20
-91.1829
 30
0.0
 10
172.636
 20
-93.4841
 30
0.0
 10
173.0052
 20
-94.6154
 30
0.0
 10
173.8595
 20
-97.6913
 30
0.0
 10
173.8595
 20
-97.6913
 30
0.0
 10
175.7577
 20
-95.5129
 30
0.0
 10
177.0959
 20
-93.3916
 30
0.0
 10
178.4482
 20
-90.3615
 30
0.0
 10
178.4482
 20
-90.3615
 30
0.0
 10
175.5348
 20
-91.5595
 30
0.0
 10
173.6665
 20
-91.7422
 30
0.0
 10
170.832
 20
-91.1829
 30
0.0
 10
170.832
 20
-91.1829
 30
0.0
 10
170.832
 20
-91.1829
 30
0.0
 10
170.8319
 20
-91.1829
 30
0.0
 10
170.8319
 20
-91.1829
 30
0.0
  0
SPLINE
  5
90
330
1F
100
AcDbEntity
  8
layer 1
 62
     7
100
AcDbSpline
210
0.0
220
0.0
230
1.0
 70
    11
 71
     3
 72
    32
 73
    28
 74
     0
 42
0.0000000001
 43
0.0000000001
 12
1.0
 22
0.0
 32
0.0
 13
1.0
 23
0.0
 33
0.0
 40
0.0
 40
0.0
 40
0.0
 40
0.0
 40
0.125
 40
0.125
 40
0.125
 40
0.125
 40
0.25
 40
0.25
 40
0.25
 40
0.25
 40
0.375
 40
0.375
 40
0.375
 40
0.375
 40
0.5
 40
0.5
 40
0.5
 40
0.5
 40
0.625
 40
0.625
 40
0.625
 40
0.625
 40
0.75
 40
0.75
 40
0.75
 40
0.75
 40
1.0
 40
1.0
 40
1.0
 40
1.0
 10
175.0246
 20
-101.6235
 30
0.0
 10
176.7454
 20
-105.7278
 30
0.0
 10
180.4421
 20
-107.7707
 30
0.0
 10
183.6918
 20
-106.9741
 30
0.0
 10
183.6918
 20
-106.9741
 30
0.0
 10
187.8622
 20
-106.6247
 30
0.0
 10
190.3878
 20
-101.7011
 30
0.0
 10
188.4732
 20
-99.7022
 30
0.0
 10
188.4732
 20
-99.7022
 30
0.0
 10
186.1809
 20
-97.59
 30
0.0
 10
184.2146
 20
-100.8854
 30
0.0
 10
185.7007
 20
-102.4589
 30
0.0
 10
185.7007
 20
-102.4589
 30
0.0
 10
186.6028
 20
-103.3611
 30
0.0
 10
186.5169
 20
-103.6469
 30
0.0
 10
185.2143
 20
-104.0769
 30
0.0
 10
185.2143
 20
-104.0769
 30
0.0
 10
179.7313
 20
-104.9662
 30
0.0
 10
178.2934
 20
-99.9973
 30
0.0
 10
178.9707
 20
-96.6207
 30
0.0
 10
178.9707
 20
-96.6207
 30
0.0
 10
177.817
 20
-98.7738
 30
0.0
 10
176.4459
 20
-100.199
 30
0.0
 10
175.0245
 20
-101.6234
 30
0.0
 10
175.0245
 20
-101.6234
 30
0.0
 10
175.0245
 20
-101.6234
 30
0.0
 10
175.0246
 20
-101.6235
 30
0.0
 10
175.0246
 20
-101.6235
 30
0.0
  0
SPLINE
  5
91
330
1F
100
AcDbEntity
  8
layer 1
 62
     7
100
AcDbSpline
210
0.0
220
0.0
230
1.0
 70
    11
 71
     3
 72
    16
 73
    12
 74
     0
 42
0.0000000001
 43
0.0000000001
 12
1.0
 22
0.0
 32
0.0
 13
1.0
 23
0.0
 33
0.0
 40
0.0
 40
0.0
 40
0.0
 40
0.0
 40
0.25
 40
0.25
 40
0.25
 40
0.25
 40
0.5
 40
0.5
 40
0.5
 40
0.5
 40
1.0
 40
1.0
 40
1.0
 40
1.0
 10
185.3835
 20
-110.2668
 30
0.0
 10
188.2896
 20
-110.2668
 30
0.0
 10
189.8665
 20
-110.2668
 30
0.0
 10
192.0212
 20
-110.2668
 30
0.0
 10
192.0212
 20
-110.2668
 30
0.0
 10
192.0212
 20
-108.1442
 30
0.0
 10
192.0212
 20
-105.91
 30
0.0
 10
192.0212
 20
-103.7272
 30
0.0
 10
192.0212
 20
-103.7272
 30
0.0
 10
190.9823
 20
-107.2845
 30
0.0
 10
188.5213
 20
-109.5198
 30
0.0
 10
185.3835
 20
-110.2668
 30
0.0
  0
SPLINE
  5
92
330
1F
100
AcDbEntity
  8
layer 1
 62
     7
100
AcDbSpline
210
0.0
220
0.0
230
1.0
 70
    11
 71
     3
 72
    16
 73
    12
 74
     0
 42
0.0000000001
 43
0.0000000001
 12
1.0
 22
0.0
 32
0.0
 13
1.0
 23
0.0
 33
0.0
 40
0.0
 40
0.0
 40
0.0
 40
0.0
 40
0.25
 40
0.25
 40
0.25
 40
0.25
 40
0.5
 40
0.5
 40
0.5
 40
0.5
 40
1.0
 40
1.0
 40
1.0
 40
1.0
 10
158.9837
 20
-110.2668
 30
0.0
 10
164.225
 20
-110.2668
 30
0.0
 10
172.5295
 20
-110.2668
 30
0.0
 10
179.1894
 20
-110.2668
 30
0.0
 10
179.1894
 20
-110.2668
 30
0.0
 10
176.4076
 20
-109.4544
 30
0.0
 10
173.4802
 20
-106.8969
 30
0.0
 10
171.711
 20
-104.3607
 30
0.0
 10
171.711
 20
-104.3607
 30
0.0
 10
167.7297
 20
-107.4363
 30
0.0
 10
164.5588
 20
-109.1304
 30
0.0
 10
158.9837
 20
-110.2668
 30
0.0
  0
SPLINE
  5
93
330
1F
100
AcDbEntity
  8
layer 1
 62
     7
100
AcDbSpline
210
0.0
220
0.0
230
1.0
 70
    11
 71
     3
 72
    20
 73
    16
 74
     0
 42
0.0000000001
 43
0.0000000001
 12
1.0
 22
0.0
 32
0.0
 13
1.0
 23
0.0
 33
0.0
 40
0.0
 40
0.0
 40
0.0
 40
0.0
 40
0.2
 40
0.2
 40
0.2
 40
0.2
 40
0.4
 40
0.4
 40
0.4
 40
0.4
 40
0.6
 40
0.6
 40
0.6
 40
0.6
 40
1.0
 40
1.0
 40
1.0
 40
1.0
 10
112.7377
 20
-77.7276
 30
0.0
 10
113.9828
 20
-79.7892
 30
0.0
 10
118.3755
 20
-80.9548
 30
0.0
 10
120.6758
 20
-78.8871
 30
0.0
 10
120.6758
 20
-78.8871
 30
0.0
 10
120.6758
 20
-78.8871
 30
0.0
 10
120.6758
 20
-82.3896
 30
0.0
 10
120.6758
 20
-82.3896
 30
0.0
 10
120.6758
 20
-82.3896
 30
0.0
 10
118.3755
 20
-80.3219
 30
0.0
 10
113.9828
 20
-81.4876
 30
0.0
 10
112.7377
 20
-83.5491
 30
0.0
 10
112.7377
 20
-83.5491
 30
0.0
 10
112.7377
 20
-83.5491
 30
0.0
 10
112.7377
 20
-77.7276
 30
0.0
 10
112.7377
 20
-77.7276
 30
0.0
  0
SPLINE
  5
94
330
1F
100
AcDbEntity
  8
layer 1
 62
     7
100
AcDbSpline
210
0.0
220
0.0
230
1.0
 70
    11
 71
     3
 72
    28
 73
    24
 74
     0
 42
0.0000000001
 43
0.0000000001
 12
1.0
 22
0.0
 32
0.0
 13
1.0
 23
0.0
 33
0.0
 40
0.0
 40
0.0
 40
0.0
 40
0.0
 40
0.1428571428571428
 40
0.1428571428571428
 40
0.1428571428571428
 40
0.1428571428571428
 40
0.2857142857142857
 40
0.2857142857142857
 40
0.2857142857142857
 40
0.2857142857142857
 40
0.4285714285714285
 40
0.4285714285714285
 40
0.4285714285714285
 40
0.4285714285714285
 40
0.5714285714285714
 40
0.5714285714285714
 40
0.5714285714285714
 40
0.5714285714285714
 40
0.7142857142857143
 40
0.7142857142857143
 40
0.7142857142857143
 40
0.7142857142857143
 40
1.0
 40
1.0
 40
1.0
 40
1.0
 10
118.0766
 20
-75.4923
 30
0.0
 10
118.6536
 20
-74.7969
 30
0.0
 10
118.6197
 20
-73.395
 30
0.0
 10
116.578
 20
-70.5907
 30
0.0
 10
116.578
 20
-70.5907
 30
0.0
 10
115.1786
 20
-68.5437
 30
0.0
 10
113.7375
 20
-66.2076
 30
0.0
 10
112.7377
 20
-63.6336
 30
0.0
 10
112.7377
 20
-63.6336
 30
0.0
 10
112.9279
 20
-67.3267
 30
0.0
 10
112.7418
 20
-71.0209
 30
0.0
 10
112.7377
 20
-74.717
 30
0.0
 10
112.7377
 20
-74.717
 30
0.0
 10
113.39
 20
-73.6561
 30
0.0
 10
114.6019
 20
-73.1727
 30
0.0
 10
115.5776
 20
-73.2342
 30
0.0
 10
115.5776
 20
-73.2342
 30
0.0
 10
116.1559
 20
-73.3477
 30
0.0
 10
116.4607
 20
-73.4622
 30
0.0
 10
116.2795
 20
-74.1842
 30
0.0
 10
116.2795
 20
-74.1842
 30
0.0
 10
115.7101
 20
-75.5978
 30
0.0
 10
117.3022
 20
-76.3564
 30
0.0
 10
118.0766
 20
-75.4923
 30
0.0
  0
SPLINE
  5
95
330
1F
100
AcDbEntity
  8
layer 1
 62
     7
100
AcDbSpline
210
0.0
220
0.0
230
1.0
 70
    11
 71
     3
 72
    16
 73
    12
 74
     0
 42
0.0000000001
 43
0.0000000001
 12
1.0
 22
0.0
 32
0.0
 13
1.0
 23
0.0
 33
0.0
 40
0.0
 40
0.0
 40
0.0
 40
0.0
 40
0.25
 40
0.25
 40
0.25
 40
0.25
 40
0.5
 40
0.5
 40
0.5
 40
0.5
 40
1.0
 40
1.0
 40
1.0
 40
1.0
 10
124.6518
 20
-66.4205
 30
0.0
 10
123.2445
 20
-67.9097
 30
0.0
 10
121.3016
 20
-68.3456
 30
0.0
 10
119.4134
 20
-67.5785
 30
0.0
 10
119.4134
 20
-67.5785
 30
0.0
 10
120.4831
 20
-69.4817
 30
0.0
 10
121.214
 20
-70.3992
 30
0.0
 10
121.9671
 20
-73.2135
 30
0.0
 10
121.9671
 20
-73.2135
 30
0.0
 10
122.3102
 20
-70.7234
 30
0.0
 10
123.5522
 20
-67.9404
 30
0.0
 10
124.6518
 20
-66.4205
 30
0.0
  0
SPLINE
  5
96
330
1F
100
AcDbEntity
  8
layer 1
 62
     7
100
AcDbSpline
210
0.0
220
0.0
230
1.0
 70
    11
 71
     3
 72
    20
 73
    16
 74
     0
 42
0.0000000001
 43
0.0000000001
 12
1.0
 22
0.0
 32
0.0
 13
1.0
 23
0.0
 33
0.0
 40
0.0
 40
0.0
 40
0.0
 40
0.0
 40
0.2
 40
0.2
 40
0.2
 40
0.2
 40
0.4
 40
0.4
 40
0.4
 40
0.4
 40
0.6
 40
0.6
 40
0.6
 40
0.6
 40
1.0
 40
1.0
 40
1.0
 40
1.0
 10
133.927
 20
-70.0938
 30
0.0
 10
132.3498
 20
-68.0951
 30
0.0
 10
131.1486
 20
-66.3588
 30
0.0
 10
130.8994
 20
-63.5854
 30
0.0
 10
130.8994
 20
-63.5854
 30
0.0
 10
129.0012
 20
-65.7638
 30
0.0
 10
127.663
 20
-67.8851
 30
0.0
 10
126.3107
 20
-70.9152
 30
0.0
 10
126.3107
 20
-70.9152
 30
0.0
 10
129.0167
 20
-69.4967
 30
0.0
 10
131.0298
 20
-69.567
 30
0.0
 10
133.9269
 20
-70.0938
 30
0.0
 10
133.9269
 20
-70.0938
 30
0.0
 10
133.9269
 20
-70.0938
 30
0.0
 10
133.927
 20
-70.0938
 30
0.0
 10
133.927
 20
-70.0938
 30
0.0
  0
SPLINE
  5
97
330
1F
100
AcDbEntity
  8
layer 1
 62
     7
100
AcDbSpline
210
0.0
220
0.0
230
1.0
 70
    11
 71
     3
 72
   136
 73
   132
 74
     0
 42
0.0000000001
 43
0.0000000001
 12
1.0
 22
0.0
 32
0.0
 13
1.0
 23
0.0
 33
0.0
 40
0.0
 40
0.0
 40
0.0
 40
0.0
 40
0.0294117647058824
 40
0.0294117647058824
 40
0.0294117647058824
 40
0.0294117647058824
 40
0.0588235294117647
 40
0.0588235294117647
 40
0.0588235294117647
 40
0.0588235294117647
 40
0.0882352941176471
 40
0.0882352941176471
 40
0.0882352941176471
 40
0.0882352941176471
 40
0.1176470588235294
 40
0.1176470588235294
 40
0.1176470588235294
 40
0.1176470588235294
 40
0.1470588235294118
 40
0.1470588235294118
 40
0.1470588235294118
 40
0.1470588235294118
 40
0.1764705882352941
 40
0.1764705882352941
 40
0.1764705882352941
 40
0.1764705882352941
 40
0.2058823529411765
 40
0.2058823529411765
 40
0.2058823529411765
 40
0.2058823529411765
 40
0.2352941176470588
 40
0.2352941176470588
 40
0.2352941176470588
 40
0.2352941176470588
 40
0.2647058823529412
 40
0.2647058823529412
 40
0.2647058823529412
 40
0.2647058823529412
 40
0.2941176470588235
 40
0.2941176470588235
 40
0.2941176470588235
 40
0.2941176470588235
 40
0.3235294117647059
 40
0.3235294117647059
 40
0.3235294117647059
 40
0.3235294117647059
 40
0.3529411764705883
 40
0.3529411764705883
 40
0.3529411764705883
 40
0.3529411764705883
 40
0.3823529411764706
 40
0.3823529411764706
 40
0.3823529411764706
 40
0.3823529411764706
 40
0.4117647058823529
 40
0.4117647058823529
 40
0.4117647058823529
 40
0.4117647058823529
 40
0.4411764705882353
 40
0.4411764705882353
 40
0.4411764705882353
 40
0.4411764705882353
 40
0.4705882352941176
 40
0.4705882352941176
 40
0.4705882352941176
 40
0.4705882352941176
 40
0.5
 40
0.5
 40
0.5
 40
0.5
 40
0.5294117647058824
 40
0.5294117647058824
 40
0.5294117647058824
 40
0.5294117647058824
 40
0.5588235294117647
 40
0.5588235294117647
 40
0.5588235294117647
 40
0.5588235294117647
 40
0.5882352941176471
 40
0.5882352941176471
 40
0.5882352941176471
 40
0.5882352941176471
 40
0.6176470588235294
 40
0.6176470588235294
 40
0.6176470588235294
 40
0.6176470588235294
 40
0.6470588235294118
 40
0.6470588235294118
 40
0.6470588235294118
 40
0.6470588235294118
 40
0.6764705882352942
 40
0.6764705882352942
 40
0.6764705882352942
 40
0.6764705882352942
 40
0.7058823529411765
 40
0.7058823529411765
 40
0.7058823529411765
 40
0.7058823529411765
 40
0.7352941176470589
 40
0.7352941176470589
 40
0.7352941176470589
 40
0.7352941176470589
 40
0.7647058823529411
 40
0.7647058823529411
 40
0.7647058823529411
 40
0.7647058823529411
 40
0.7941176470588235
 40
0.7941176470588235
 40
0.7941176470588235
 40
0.7941176470588235
 40
0.8235294117647058
 40
0.8235294117647058
 40
0.8235294117647058
 40
0.8235294117647058
 40
0.8529411764705882
 40
0.8529411764705882
 40
0.8529411764705882
 40
0.8529411764705882
 40
0.8823529411764706
 40
0.8823529411764706
 40
0.8823529411764706
 40
0.8823529411764706
 40
0.9117647058823529
 40
0.9117647058823529
 40
0.9117647058823529
 40
0.9117647058823529
 40
0.9411764705882353
 40
0.9411764705882353
 40
0.9411764705882353
 40
0.9411764705882353
 40
1.0
 40
1.0
 40
1.0
 40
1.0
 10
150.0921
 20
-59.8566
 30
0.0
 10
148.5734
 20
-58.9068
 30
0.0
 10
146.7149
 20
-58.9055
 30
0.0
 10
144.9456
 20
-60.3849
 30
0.0
 10
144.9456
 20
-60.3849
 30
0.0
 10
143.4962
 20
-61.6732
 30
0.0
 10
143.2678
 20
-64.4108
 30
0.0
 10
144.6946
 20
-66.3067
 30
0.0
 10
144.6946
 20
-66.3067
 30
0.0
 10
145.1915
 20
-65.306
 30
0.0
 10
146.2281
 20
-64.1327
 30
0.0
 10
147.2102
 20
-65.2986
 30
0.0
 10
147.2102
 20
-65.2986
 30
0.0
 10
148.0802
 20
-66.9243
 30
0.0
 10
146.5201
 20
-69.0984
 30
0.0
 10
143.7359
 20
-70.14
 30
0.0
 10
143.7359
 20
-70.14
 30
0.0
 10
143.7359
 20
-70.14
 30
0.0
 10
143.7359
 20
-70.14
 30
0.0
 10
143.7359
 20
-70.14
 30
0.0
 10
143.7359
 20
-70.14
 30
0.0
 10
142.7833
 20
-70.4965
 30
0.0
 10
141.2206
 20
-70.788
 30
0.0
 10
140.2631
 20
-70.788
 30
0.0
 10
140.2631
 20
-70.788
 30
0.0
 10
138.6477
 20
-70.788
 30
0.0
 10
138.4756
 20
-70.7121
 30
0.0
 10
137.8741
 20
-69.7365
 30
0.0
 10
137.8741
 20
-69.7365
 30
0.0
 10
137.5175
 20
-69.1583
 30
0.0
 10
137.126
 20
-68.2847
 30
0.0
 10
137.0038
 20
-67.7954
 30
0.0
 10
137.0038
 20
-67.7954
 30
0.0
 10
136.8037
 20
-66.9934
 30
0.0
 10
136.866
 20
-66.9057
 30
0.0
 10
137.636
 20
-66.9057
 30
0.0
 10
137.636
 20
-66.9057
 30
0.0
 10
139.6704
 20
-66.8601
 30
0.0
 10
142.1794
 20
-65.2137
 30
0.0
 10
141.9311
 20
-62.8676
 30
0.0
 10
141.9311
 20
-62.8676
 30
0.0
 10
141.7391
 20
-61.2319
 30
0.0
 10
139.7412
 20
-58.9579
 30
0.0
 10
137.2601
 20
-60.0203
 30
0.0
 10
137.2601
 20
-60.0203
 30
0.0
 10
136.5128
 20
-60.4809
 30
0.0
 10
136.4647
 20
-61.0823
 30
0.0
 10
137.287
 20
-61.0823
 30
0.0
 10
137.287
 20
-61.0823
 30
0.0
 10
138.4723
 20
-61.2489
 30
0.0
 10
139.1673
 20
-61.9131
 30
0.0
 10
138.4746
 20
-62.8556
 30
0.0
 10
138.4746
 20
-62.8556
 30
0.0
 10
137.5493
 20
-63.9646
 30
0.0
 10
135.4255
 20
-62.4288
 30
0.0
 10
134.3435
 20
-60.3225
 30
0.0
 10
134.3435
 20
-60.3225
 30
0.0
 10
138.5158
 20
-56.7944
 30
0.0
 10
144.5052
 20
-54.2255
 30
0.0
 10
152.3796
 20
-54.0215
 30
0.0
 10
152.3796
 20
-54.0215
 30
0.0
 10
160.2541
 20
-54.2255
 30
0.0
 10
166.2435
 20
-56.7944
 30
0.0
 10
170.4158
 20
-60.3225
 30
0.0
 10
170.4158
 20
-60.3225
 30
0.0
 10
169.3336
 20
-62.4288
 30
0.0
 10
167.2098
 20
-63.9646
 30
0.0
 10
166.2847
 20
-62.8556
 30
0.0
 10
166.2847
 20
-62.8556
 30
0.0
 10
165.592
 20
-61.9131
 30
0.0
 10
166.287
 20
-61.2489
 30
0.0
 10
167.4722
 20
-61.0823
 30
0.0
 10
167.4722
 20
-61.0823
 30
0.0
 10
168.2945
 20
-61.0823
 30
0.0
 10
168.2465
 20
-60.481
 30
0.0
 10
167.4991
 20
-60.0203
 30
0.0
 10
167.4991
 20
-60.0203
 30
0.0
 10
165.018
 20
-58.9579
 30
0.0
 10
163.0201
 20
-61.2318
 30
0.0
 10
162.8282
 20
-62.8676
 30
0.0
 10
162.8282
 20
-62.8676
 30
0.0
 10
162.5799
 20
-65.2137
 30
0.0
 10
165.0888
 20
-66.8601
 30
0.0
 10
167.1233
 20
-66.9057
 30
0.0
 10
167.1233
 20
-66.9057
 30
0.0
 10
167.8933
 20
-66.9057
 30
0.0
 10
167.9556
 20
-66.9934
 30
0.0
 10
167.7554
 20
-67.7954
 30
0.0
 10
167.7554
 20
-67.7954
 30
0.0
 10
167.6333
 20
-68.2847
 30
0.0
 10
167.2416
 20
-69.1583
 30
0.0
 10
166.8852
 20
-69.7365
 30
0.0
 10
166.8852
 20
-69.7365
 30
0.0
 10
166.2837
 20
-70.7121
 30
0.0
 10
166.1115
 20
-70.788
 30
0.0
 10
164.4962
 20
-70.788
 30
0.0
 10
164.4962
 20
-70.788
 30
0.0
 10
163.5387
 20
-70.788
 30
0.0
 10
161.9759
 20
-70.4963
 30
0.0
 10
161.0234
 20
-70.14
 30
0.0
 10
161.0234
 20
-70.14
 30
0.0
 10
161.0234
 20
-70.14
 30
0.0
 10
161.0234
 20
-70.14
 30
0.0
 10
161.0234
 20
-70.14
 30
0.0
 10
161.0234
 20
-70.14
 30
0.0
 10
158.2392
 20
-69.0984
 30
0.0
 10
156.6791
 20
-66.9243
 30
0.0
 10
157.5491
 20
-65.2986
 30
0.0
 10
157.5491
 20
-65.2986
 30
0.0
 10
158.5312
 20
-64.1327
 30
0.0
 10
159.5677
 20
-65.306
 30
0.0
 10
160.0647
 20
-66.3067
 30
0.0
 10
160.0647
 20
-66.3067
 30
0.0
 10
161.4915
 20
-64.4108
 30
0.0
 10
161.2631
 20
-61.6732
 30
0.0
 10
159.8136
 20
-60.3849
 30
0.0
 10
159.8136
 20
-60.3849
 30
0.0
 10
158.0444
 20
-58.9055
 30
0.0
 10
156.1857
 20
-58.9068
 30
0.0
 10
154.6672
 20
-59.8566
 30
0.0
 10
154.6672
 20
-59.8566
 30
0.0
 10
154.643
 20
-57.6479
 30
0.0
 10
153.5323
 20
-55.6306
 30
0.0
 10
152.3798
 20
-55.6476
 30
0.0
 10
152.3798
 20
-55.6476
 30
0.0
 10
151.2272
 20
-55.6306
 30
0.0
 10
150.1166
 20
-57.6479
 30
0.0
 10
150.0923
 20
-59.8566
 30
0.0
 10
150.0923
 20
-59.8566
 30
0.0
 10
150.0923
 20
-59.8566
 30
0.0
 10
150.0921
 20
-59.8566
 30
0.0
 10
150.0921
 20
-59.8566
 30
0.0
  0
SPLINE
  5
98
330
1F
100
AcDbEntity
  8
layer 1
 62
     7
100
AcDbSpline
210
0.0
220
0.0
230
1.0
 70
    11
 71
     3
 72
    32
 73
    28
 74
     0
 42
0.0000000001
 43
0.0000000001
 12
1.0
 22
0.0
 32
0.0
 13
1.0
 23
0.0
 33
0.0
 40
0.0
 40
0.0
 40
0.0
 40
0.0
 40
0.125
 40
0.125
 40
0.125
 40
0.125
 40
0.25
 40
0.25
 40
0.25
 40
0.25
 40
0.375
 40
0.375
 40
0.375
 40
0.375
 40
0.5
 40
0.5
 40
0.5
 40
0.5
 40
0.625
 40
0.625
 40
0.625
 40
0.625
 40
0.75
 40
0.75
 40
0.75
 40
0.75
 40
1.0
 40
1.0
 40
1.0
 40
1.0
 10
129.7343
 20
-59.6532
 30
0.0
 10
128.0135
 20
-55.5489
 30
0.0
 10
124.3168
 20
-53.506
 30
0.0
 10
121.0671
 20
-54.3026
 30
0.0
 10
121.0671
 20
-54.3026
 30
0.0
 10
116.8967
 20
-54.652
 30
0.0
 10
114.3711
 20
-59.5757
 30
0.0
 10
116.2857
 20
-61.5745
 30
0.0
 10
116.2857
 20
-61.5745
 30
0.0
 10
118.578
 20
-63.6867
 30
0.0
 10
120.5443
 20
-60.3914
 30
0.0
 10
119.0582
 20
-58.8178
 30
0.0
 10
119.0582
 20
-58.8178
 30
0.0
 10
118.1561
 20
-57.9156
 30
0.0
 10
118.242
 20
-57.6298
 30
0.0
 10
119.5446
 20
-57.1998
 30
0.0
 10
119.5446
 20
-57.1998
 30
0.0
 10
125.0276
 20
-56.3105
 30
0.0
 10
126.4655
 20
-61.2794
 30
0.0
 10
125.7882
 20
-64.656
 30
0.0
 10
125.7882
 20
-64.656
 30
0.0
 10
126.9419
 20
-62.5029
 30
0.0
 10
128.313
 20
-61.0777
 30
0.0
 10
129.7344
 20
-59.6533
 30
0.0
 10
129.7344
 20
-59.6533
 30
0.0
 10
129.7344
 20
-59.6533
 30
0.0
 10
129.7343
 20
-59.6532
 30
0.0
 10
129.7343
 20
-59.6532
 30
0.0
  0
SPLINE
  5
99
330
1F
100
AcDbEntity
  8
layer 1
 62
     7
100
AcDbSpline
210
0.0
220
0.0
230
1.0
 70
    11
 71
     3
 72
    16
 73
    12
 74
     0
 42
0.0000000001
 43
0.0000000001
 12
1.0
 22
0.0
 32
0.0
 13
1.0
 23
0.0
 33
0.0
 40
0.0
 40
0.0
 40
0.0
 40
0.0
 40
0.25
 40
0.25
 40
0.25
 40
0.25
 40
0.5
 40
0.5
 40
0.5
 40
0.5
 40
1.0
 40
1.0
 40
1.0
 40
1.0
 10
112.7377
 20
-57.5496
 30
0.0
 10
112.7377
 20
-57.5496
 30
0.0
 10
112.7396
 20
-44.5084
 30
0.0
 10
112.7396
 20
-44.5084
 30
0.0
 10
112.7396
 20
-44.5084
 30
0.0
 10
113.7786
 20
-48.0657
 30
0.0
 10
116.2395
 20
-50.3011
 30
0.0
 10
119.3764
 20
-51.029
 30
0.0
 10
119.3764
 20
-51.029
 30
0.0
 10
116.2375
 20
-51.7569
 30
0.0
 10
113.7766
 20
-53.9922
 30
0.0
 10
112.7377
 20
-57.5496
 30
0.0
  0
SPLINE
  5
9A
330
1F
100
AcDbEntity
  8
layer 1
 62
     7
100
AcDbSpline
210
0.0
220
0.0
230
1.0
 70
    11
 71
     3
 72
    20
 73
    16
 74
     0
 42
0.0000000001
 43
0.0000000001
 12
1.0
 22
0.0
 32
0.0
 13
1.0
 23
0.0
 33
0.0
 40
0.0
 40
0.0
 40
0.0
 40
0.0
 40
0.2
 40
0.2
 40
0.2
 40
0.2
 40
0.4
 40
0.4
 40
0.4
 40
0.4
 40
0.6
 40
0.6
 40
0.6
 40
0.6
 40
1.0
 40
1.0
 40
1.0
 40
1.0
 10
192.0212
 20
-77.7276
 30
0.0
 10
190.7761
 20
-79.7892
 30
0.0
 10
186.3834
 20
-80.9548
 30
0.0
 10
184.0831
 20
-78.8871
 30
0.0
 10
184.0831
 20
-78.8871
 30
0.0
 10
184.0831
 20
-78.8871
 30
0.0
 10
184.0831
 20
-82.3896
 30
0.0
 10
184.0831
 20
-82.3896
 30
0.0
 10
184.0831
 20
-82.3896
 30
0.0
 10
186.3834
 20
-80.3219
 30
0.0
 10
190.7761
 20
-81.4876
 30
0.0
 10
192.0212
 20
-83.5491
 30
0.0
 10
192.0212
 20
-83.5491
 30
0.0
 10
192.0212
 20
-83.5491
 30
0.0
 10
192.0212
 20
-77.7276
 30
0.0
 10
192.0212
 20
-77.7276
 30
0.0
  0
SPLINE
  5
9B
330
1F
100
AcDbEntity
  8
layer 1
 62
     7
100
AcDbSpline
210
0.0
220
0.0
230
1.0
 70
    11
 71
     3
 72
    56
 73
    52
 74
     0
 42
0.0000000001
 43
0.0000000001
 12
1.0
 22
0.0
 32
0.0
 13
1.0
 23
0.0
 33
0.0
 40
0.0
 40
0.0
 40
0.0
 40
0.0
 40
0.0714285714285714
 40
0.0714285714285714
 40
0.0714285714285714
 40
0.0714285714285714
 40
0.1428571428571428
 40
0.1428571428571428
 40
0.1428571428571428
 40
0.1428571428571428
 40
0.2142857142857143
 40
0.2142857142857143
 40
0.2142857142857143
 40
0.2142857142857143
 40
0.2857142857142857
 40
0.2857142857142857
 40
0.2857142857142857
 40
0.2857142857142857
 40
0.3571428571428572
 40
0.3571428571428572
 40
0.3571428571428572
 40
0.3571428571428572
 40
0.4285714285714285
 40
0.4285714285714285
 40
0.4285714285714285
 40
0.4285714285714285
 40
0.5
 40
0.5
 40
0.5
 40
0.5
 40
0.5714285714285714
 40
0.5714285714285714
 40
0.5714285714285714
 40
0.5714285714285714
 40
0.6428571428571429
 40
0.6428571428571429
 40
0.6428571428571429
 40
0.6428571428571429
 40
0.7142857142857143
 40
0.7142857142857143
 40
0.7142857142857143
 40
0.7142857142857143
 40
0.7857142857142857
 40
0.7857142857142857
 40
0.7857142857142857
 40
0.7857142857142857
 40
0.8571428571428571
 40
0.8571428571428571
 40
0.8571428571428571
 40
0.8571428571428571
 40
1.0
 40
1.0
 40
1.0
 40
1.0
 10
155.4304
 20
-72.8713
 30
0.0
 10
157.3061
 20
-73.2447
 30
0.0
 10
158.3738
 20
-75.1554
 30
0.0
 10
156.8299
 20
-75.3756
 30
0.0
 10
156.8299
 20
-75.3756
 30
0.0
 10
155.9979
 20
-75.4943
 30
0.0
 10
155.7005
 20
-76.422
 30
0.0
 10
156.2733
 20
-77.1122
 30
0.0
 10
156.2733
 20
-77.1122
 30
0.0
 10
157.609
 20
-78.4716
 30
0.0
 10
162.0383
 20
-77.0311
 30
0.0
 10
163.4421
 20
-74.406
 30
0.0
 10
163.4421
 20
-74.406
 30
0.0
 10
159.0033
 20
-73.9704
 30
0.0
 10
153.9587
 20
-72.1949
 30
0.0
 10
153.3866
 20
-67.2202
 30
0.0
 10
153.3866
 20
-67.2202
 30
0.0
 10
153.2244
 20
-65.5257
 30
0.0
 10
152.9301
 20
-64.885
 30
0.0
 10
152.3794
 20
-64.8472
 30
0.0
 10
152.3794
 20
-64.8472
 30
0.0
 10
151.8287
 20
-64.885
 30
0.0
 10
151.5343
 20
-65.5257
 30
0.0
 10
151.3722
 20
-67.2202
 30
0.0
 10
151.3722
 20
-67.2202
 30
0.0
 10
150.8001
 20
-72.1949
 30
0.0
 10
145.7556
 20
-73.9704
 30
0.0
 10
141.3166
 20
-74.406
 30
0.0
 10
141.3166
 20
-74.406
 30
0.0
 10
142.7205
 20
-77.0311
 30
0.0
 10
147.1497
 20
-78.4716
 30
0.0
 10
148.4855
 20
-77.1122
 30
0.0
 10
148.4855
 20
-77.1122
 30
0.0
 10
149.0583
 20
-76.422
 30
0.0
 10
148.7609
 20
-75.4943
 30
0.0
 10
147.9289
 20
-75.3756
 30
0.0
 10
147.9289
 20
-75.3756
 30
0.0
 10
146.3851
 20
-75.1554
 30
0.0
 10
147.4528
 20
-73.2447
 30
0.0
 10
149.3284
 20
-72.8713
 30
0.0
 10
149.3284
 20
-72.8713
 30
0.0
 10
150.7421
 20
-72.8175
 30
0.0
 10
151.6102
 20
-73.2119
 30
0.0
 10
152.3793
 20
-74.2141
 30
0.0
 10
152.3793
 20
-74.2141
 30
0.0
 10
153.1484
 20
-73.2119
 30
0.0
 10
154.0164
 20
-72.8176
 30
0.0
 10
155.4302
 20
-72.8713
 30
0.0
 10
155.4302
 20
-72.8713
 30
0.0
 10
155.4302
 20
-72.8713
 30
0.0
 10
155.4304
 20
-72.8713
 30
0.0
 10
155.4304
 20
-72.8713
 30
0.0
  0
SPLINE
  5
9C
330
1F
100
AcDbEntity
  8
layer 1
 62
     7
100
AcDbSpline
210
0.0
220
0.0
230
1.0
 70
    11
 71
     3
 72
    28
 73
    24
 74
     0
 42
0.0000000001
 43
0.0000000001
 12
1.0
 22
0.0
 32
0.0
 13
1.0
 23
0.0
 33
0.0
 40
0.0
 40
0.0
 40
0.0
 40
0.0
 40
0.1428571428571428
 40
0.1428571428571428
 40
0.1428571428571428
 40
0.1428571428571428
 40
0.2857142857142857
 40
0.2857142857142857
 40
0.2857142857142857
 40
0.2857142857142857
 40
0.4285714285714285
 40
0.4285714285714285
 40
0.4285714285714285
 40
0.4285714285714285
 40
0.5714285714285714
 40
0.5714285714285714
 40
0.5714285714285714
 40
0.5714285714285714
 40
0.7142857142857143
 40
0.7142857142857143
 40
0.7142857142857143
 40
0.7142857142857143
 40
1.0
 40
1.0
 40
1.0
 40
1.0
 10
186.6823
 20
-75.4923
 30
0.0
 10
186.1053
 20
-74.7969
 30
0.0
 10
186.1392
 20
-73.395
 30
0.0
 10
188.1809
 20
-70.5907
 30
0.0
 10
188.1809
 20
-70.5907
 30
0.0
 10
189.5803
 20
-68.5437
 30
0.0
 10
191.0214
 20
-66.2076
 30
0.0
 10
192.0212
 20
-63.6336
 30
0.0
 10
192.0212
 20
-63.6336
 30
0.0
 10
191.831
 20
-67.3267
 30
0.0
 10
192.0171
 20
-71.0209
 30
0.0
 10
192.0212
 20
-74.717
 30
0.0
 10
192.0212
 20
-74.717
 30
0.0
 10
191.3689
 20
-73.6561
 30
0.0
 10
190.157
 20
-73.1727
 30
0.0
 10
189.1813
 20
-73.2342
 30
0.0
 10
189.1813
 20
-73.2342
 30
0.0
 10
188.603
 20
-73.3477
 30
0.0
 10
188.2982
 20
-73.4622
 30
0.0
 10
188.4794
 20
-74.1842
 30
0.0
 10
188.4794
 20
-74.1842
 30
0.0
 10
189.0488
 20
-75.5978
 30
0.0
 10
187.4567
 20
-76.3564
 30
0.0
 10
186.6823
 20
-75.4923
 30
0.0
  0
SPLINE
  5
9D
330
1F
100
AcDbEntity
  8
layer 1
 62
     7
100
AcDbSpline
210
0.0
220
0.0
230
1.0
 70
    11
 71
     3
 72
    16
 73
    12
 74
     0
 42
0.0000000001
 43
0.0000000001
 12
1.0
 22
0.0
 32
0.0
 13
1.0
 23
0.0
 33
0.0
 40
0.0
 40
0.0
 40
0.0
 40
0.0
 40
0.25
 40
0.25
 40
0.25
 40
0.25
 40
0.5
 40
0.5
 40
0.5
 40
0.5
 40
1.0
 40
1.0
 40
1.0
 40
1.0
 10
180.1071
 20
-66.4205
 30
0.0
 10
181.8925
 20
-68.061
 30
0.0
 10
183.3816
 20
-68.043
 30
0.0
 10
185.3455
 20
-67.5785
 30
0.0
 10
185.3455
 20
-67.5785
 30
0.0
 10
184.2758
 20
-69.4817
 30
0.0
 10
183.5449
 20
-70.3992
 30
0.0
 10
182.7918
 20
-73.2135
 30
0.0
 10
182.7918
 20
-73.2135
 30
0.0
 10
182.4487
 20
-70.7234
 30
0.0
 10
181.2067
 20
-67.9404
 30
0.0
 10
180.1071
 20
-66.4205
 30
0.0
  0
SPLINE
  5
9E
330
1F
100
AcDbEntity
  8
layer 1
 62
     7
100
AcDbSpline
210
0.0
220
0.0
230
1.0
 70
    11
 71
     3
 72
    20
 73
    16
 74
     0
 42
0.0000000001
 43
0.0000000001
 12
1.0
 22
0.0
 32
0.0
 13
1.0
 23
0.0
 33
0.0
 40
0.0
 40
0.0
 40
0.0
 40
0.0
 40
0.2
 40
0.2
 40
0.2
 40
0.2
 40
0.4
 40
0.4
 40
0.4
 40
0.4
 40
0.6
 40
0.6
 40
0.6
 40
0.6
 40
1.0
 40
1.0
 40
1.0
 40
1.0
 10
170.8319
 20
-70.0938
 30
0.0
 10
172.1822
 20
-67.7169
 30
0.0
 10
172.8539
 20
-66.1318
 30
0.0
 10
173.8595
 20
-63.5854
 30
0.0
 10
173.8595
 20
-63.5854
 30
0.0
 10
175.7577
 20
-65.7638
 30
0.0
 10
177.0959
 20
-67.8851
 30
0.0
 10
178.4482
 20
-70.9152
 30
0.0
 10
178.4482
 20
-70.9152
 30
0.0
 10
175.7813
 20
-70.0393
 30
0.0
 10
174.0577
 20
-69.8762
 30
0.0
 10
170.832
 20
-70.0938
 30
0.0
 10
170.832
 20
-70.0938
 30
0.0
 10
170.832
 20
-70.0938
 30
0.0
 10
170.8319
 20
-70.0938
 30
0.0
 10
170.8319
 20
-70.0938
 30
0.0
  0
SPLINE
  5
9F
330
1F
100
AcDbEntity
  8
layer 1
 62
     7
100
AcDbSpline
210
0.0
220
0.0
230
1.0
 70
    11
 71
     3
 72
    32
 73
    28
 74
     0
 42
0.0000000001
 43
0.0000000001
 12
1.0
 22
0.0
 32
0.0
 13
1.0
 23
0.0
 33
0.0
 40
0.0
 40
0.0
 40
0.0
 40
0.0
 40
0.125
 40
0.125
 40
0.125
 40
0.125
 40
0.25
 40
0.25
 40
0.25
 40
0.25
 40
0.375
 40
0.375
 40
0.375
 40
0.375
 40
0.5
 40
0.5
 40
0.5
 40
0.5
 40
0.625
 40
0.625
 40
0.625
 40
0.625
 40
0.75
 40
0.75
 40
0.75
 40
0.75
 40
1.0
 40
1.0
 40
1.0
 40
1.0
 10
175.0246
 20
-59.6532
 30
0.0
 10
176.7454
 20
-55.5489
 30
0.0
 10
180.4421
 20
-53.506
 30
0.0
 10
183.6918
 20
-54.3026
 30
0.0
 10
183.6918
 20
-54.3026
 30
0.0
 10
187.8622
 20
-54.652
 30
0.0
 10
190.3878
 20
-59.5757
 30
0.0
 10
188.4732
 20
-61.5745
 30
0.0
 10
188.4732
 20
-61.5745
 30
0.0
 10
186.1809
 20
-63.6867
 30
0.0
 10
184.2146
 20
-60.3914
 30
0.0
 10
185.7007
 20
-58.8178
 30
0.0
 10
185.7007
 20
-58.8178
 30
0.0
 10
186.6028
 20
-57.9156
 30
0.0
 10
186.5169
 20
-57.6298
 30
0.0
 10
185.2143
 20
-57.1998
 30
0.0
 10
185.2143
 20
-57.1998
 30
0.0
 10
179.7313
 20
-56.3105
 30
0.0
 10
178.2934
 20
-61.2794
 30
0.0
 10
178.9707
 20
-64.656
 30
0.0
 10
178.9707
 20
-64.656
 30
0.0
 10
177.817
 20
-62.5029
 30
0.0
 10
176.4459
 20
-61.0777
 30
0.0
 10
175.0245
 20
-59.6533
 30
0.0
 10
175.0245
 20
-59.6533
 30
0.0
 10
175.0245
 20
-59.6533
 30
0.0
 10
175.0246
 20
-59.6532
 30
0.0
 10
175.0246
 20
-59.6532
 30
0.0
  0
SPLINE
  5
A0
330
1F
100
AcDbEntity
  8
layer 1
 62
     7
100
AcDbSpline
210
0.0
220
0.0
230
1.0
 70
    11
 71
     3
 72
    24
 73
    20
 74
     0
 42
0.0000000001
 43
0.0000000001
 12
1.0
 22
0.0
 32
0.0
 13
1.0
 23
0.0
 33
0.0
 40
0.0
 40
0.0
 40
0.0
 40
0.0
 40
0.1666666666666667
 40
0.1666666666666667
 40
0.1666666666666667
 40
0.1666666666666667
 40
0.3333333333333333
 40
0.3333333333333333
 40
0.3333333333333333
 40
0.3333333333333333
 40
0.5
 40
0.5
 40
0.5
 40
0.5
 40
0.6666666666666666
 40
0.6666666666666666
 40
0.6666666666666666
 40
0.6666666666666666
 40
1.0
 40
1.0
 40
1.0
 40
1.0
 10
133.0499
 20
-45.142
 30
0.0
 10
137.0312
 20
-48.2176
 30
0.0
 10
140.2022
 20
-49.9117
 30
0.0
 10
145.7761
 20
-51.029
 30
0.0
 10
145.7761
 20
-51.029
 30
0.0
 10
140.2001
 20
-52.1463
 30
0.0
 10
137.0292
 20
-53.8403
 30
0.0
 10
133.0479
 20
-56.9159
 30
0.0
 10
133.0479
 20
-56.9159
 30
0.0
 10
131.2787
 20
-54.3797
 30
0.0
 10
128.3513
 20
-51.8222
 30
0.0
 10
125.586
 20
-50.9979
 30
0.0
 10
125.586
 20
-50.9979
 30
0.0
 10
128.3843
 20
-50.1736
 30
0.0
 10
131.2807
 20
-47.678
 30
0.0
 10
133.0499
 20
-45.1419
 30
0.0
 10
133.0499
 20
-45.1419
 30
0.0
 10
133.0499
 20
-45.1419
 30
0.0
 10
133.0499
 20
-45.142
 30
0.0
 10
133.0499
 20
-45.142
 30
0.0
  0
SPLINE
  5
A1
330
1F
100
AcDbEntity
  8
layer 1
 62
     7
100
AcDbSpline
210
0.0
220
0.0
230
1.0
 70
    11
 71
     3
 72
    68
 73
    64
 74
     0
 42
0.0000000001
 43
0.0000000001
 12
1.0
 22
0.0
 32
0.0
 13
1.0
 23
0.0
 33
0.0
 40
0.0
 40
0.0
 40
0.0
 40
0.0
 40
0.0588235294117647
 40
0.0588235294117647
 40
0.0588235294117647
 40
0.0588235294117647
 40
0.1176470588235294
 40
0.1176470588235294
 40
0.1176470588235294
 40
0.1176470588235294
 40
0.1764705882352941
 40
0.1764705882352941
 40
0.1764705882352941
 40
0.1764705882352941
 40
0.2352941176470588
 40
0.2352941176470588
 40
0.2352941176470588
 40
0.2352941176470588
 40
0.2941176470588235
 40
0.2941176470588235
 40
0.2941176470588235
 40
0.2941176470588235
 40
0.3529411764705883
 40
0.3529411764705883
 40
0.3529411764705883
 40
0.3529411764705883
 40
0.4117647058823529
 40
0.4117647058823529
 40
0.4117647058823529
 40
0.4117647058823529
 40
0.4705882352941176
 40
0.4705882352941176
 40
0.4705882352941176
 40
0.4705882352941176
 40
0.5294117647058824
 40
0.5294117647058824
 40
0.5294117647058824
 40
0.5294117647058824
 40
0.5882352941176471
 40
0.5882352941176471
 40
0.5882352941176471
 40
0.5882352941176471
 40
0.6470588235294118
 40
0.6470588235294118
 40
0.6470588235294118
 40
0.6470588235294118
 40
0.7058823529411765
 40
0.7058823529411765
 40
0.7058823529411765
 40
0.7058823529411765
 40
0.7647058823529411
 40
0.7647058823529411
 40
0.7647058823529411
 40
0.7647058823529411
 40
0.8235294117647058
 40
0.8235294117647058
 40
0.8235294117647058
 40
0.8235294117647058
 40
0.8823529411764706
 40
0.8823529411764706
 40
0.8823529411764706
 40
0.8823529411764706
 40
1.0
 40
1.0
 40
1.0
 40
1.0
 10
136.123
 20
-28.2942
 30
0.0
 10
136.123
 20
-28.2942
 30
0.0
 10
133.2211
 20
-28.4084
 30
0.0
 10
133.2211
 20
-28.4084
 30
0.0
 10
133.2211
 20
-28.4084
 30
0.0
 10
128.0715
 20
-28.8033
 30
0.0
 10
124.3367
 20
-26.5697
 30
0.0
 10
126.1991
 20
-23.4849
 30
0.0
 10
126.1991
 20
-23.4849
 30
0.0
 10
127.4991
 20
-21.8321
 30
0.0
 10
130.0901
 20
-22.8128
 30
0.0
 10
128.9026
 20
-24.5081
 30
0.0
 10
128.9026
 20
-24.5081
 30
0.0
 10
128.4701
 20
-25.1256
 30
0.0
 10
128.4848
 20
-25.2217
 30
0.0
 10
129.0585
 20
-25.5288
 30
0.0
 10
129.0585
 20
-25.5288
 30
0.0
 10
129.4069
 20
-25.7152
 30
0.0
 10
130.3029
 20
-25.8677
 30
0.0
 10
131.0499
 20
-25.8677
 30
0.0
 10
131.0499
 20
-25.8677
 30
0.0
 10
133.0702
 20
-25.8824
 30
0.0
 10
133.3326
 20
-24.3203
 30
0.0
 10
134.959
 20
-23.603
 30
0.0
 10
134.959
 20
-23.603
 30
0.0
 10
136.0632
 20
-23.1928
 30
0.0
 10
139.207
 20
-22.6974
 30
0.0
 10
139.082
 20
-21.5173
 30
0.0
 10
139.082
 20
-21.5173
 30
0.0
 10
139.207
 20
-20.3372
 30
0.0
 10
136.0633
 20
-19.8416
 30
0.0
 10
134.959
 20
-19.4315
 30
0.0
 10
134.959
 20
-19.4315
 30
0.0
 10
133.3326
 20
-18.7142
 30
0.0
 10
133.0701
 20
-17.1522
 30
0.0
 10
131.0499
 20
-17.1668
 30
0.0
 10
131.0499
 20
-17.1668
 30
0.0
 10
130.303
 20
-17.1668
 30
0.0
 10
129.4069
 20
-17.3193
 30
0.0
 10
129.0585
 20
-17.5058
 30
0.0
 10
129.0585
 20
-17.5058
 30
0.0
 10
128.4848
 20
-17.8128
 30
0.0
 10
128.4701
 20
-17.9089
 30
0.0
 10
128.9026
 20
-18.5264
 30
0.0
 10
128.9026
 20
-18.5264
 30
0.0
 10
130.0901
 20
-20.2218
 30
0.0
 10
127.4991
 20
-21.2024
 30
0.0
 10
126.1991
 20
-19.5496
 30
0.0
 10
126.1991
 20
-19.5496
 30
0.0
 10
124.3368
 20
-16.4648
 30
0.0
 10
128.0715
 20
-14.2312
 30
0.0
 10
133.2211
 20
-14.6262
 30
0.0
 10
133.2211
 20
-14.6262
 30
0.0
 10
133.2211
 20
-14.6262
 30
0.0
 10
136.123
 20
-14.7404
 30
0.0
 10
136.123
 20
-14.7404
 30
0.0
 10
136.123
 20
-14.7404
 30
0.0
 10
138.5956
 20
-18.1656
 30
0.0
 10
141.6342
 20
-20.8116
 30
0.0
 10
145.6174
 20
-21.5173
 30
0.0
 10
145.6174
 20
-21.5173
 30
0.0
 10
141.5585
 20
-22.2229
 30
0.0
 10
138.5956
 20
-25.5497
 30
0.0
 10
136.123
 20
-28.2942
 30
0.0
  0
SPLINE
  5
A2
330
1F
100
AcDbEntity
  8
layer 1
 62
     7
100
AcDbSpline
210
0.0
220
0.0
230
1.0
 70
    11
 71
     3
 72
    28
 73
    24
 74
     0
 42
0.0000000001
 43
0.0000000001
 12
1.0
 22
0.0
 32
0.0
 13
1.0
 23
0.0
 33
0.0
 40
0.0
 40
0.0
 40
0.0
 40
0.0
 40
0.1428571428571428
 40
0.1428571428571428
 40
0.1428571428571428
 40
0.1428571428571428
 40
0.2857142857142857
 40
0.2857142857142857
 40
0.2857142857142857
 40
0.2857142857142857
 40
0.4285714285714285
 40
0.4285714285714285
 40
0.4285714285714285
 40
0.4285714285714285
 40
0.5714285714285714
 40
0.5714285714285714
 40
0.5714285714285714
 40
0.5714285714285714
 40
0.7142857142857143
 40
0.7142857142857143
 40
0.7142857142857143
 40
0.7142857142857143
 40
1.0
 40
1.0
 40
1.0
 40
1.0
 10
118.0766
 20
-26.6634
 30
0.0
 10
118.6536
 20
-27.3587
 30
0.0
 10
118.6197
 20
-28.7606
 30
0.0
 10
116.578
 20
-31.5649
 30
0.0
 10
116.578
 20
-31.5649
 30
0.0
 10
115.1786
 20
-33.6119
 30
0.0
 10
113.7375
 20
-35.948
 30
0.0
 10
112.7377
 20
-38.522
 30
0.0
 10
112.7377
 20
-38.522
 30
0.0
 10
112.9279
 20
-34.8289
 30
0.0
 10
112.7418
 20
-31.1347
 30
0.0
 10
112.7377
 20
-27.4386
 30
0.0
 10
112.7377
 20
-27.4386
 30
0.0
 10
113.39
 20
-28.4996
 30
0.0
 10
114.6019
 20
-28.9829
 30
0.0
 10
115.5776
 20
-28.9214
 30
0.0
 10
115.5776
 20
-28.9214
 30
0.0
 10
116.1559
 20
-28.808
 30
0.0
 10
116.4607
 20
-28.6934
 30
0.0
 10
116.2795
 20
-27.9715
 30
0.0
 10
116.2795
 20
-27.9715
 30
0.0
 10
115.7101
 20
-26.5578
 30
0.0
 10
117.3022
 20
-25.7992
 30
0.0
 10
118.0766
 20
-26.6634
 30
0.0
  0
SPLINE
  5
A3
330
1F
100
AcDbEntity
  8
layer 1
 62
     7
100
AcDbSpline
210
0.0
220
0.0
230
1.0
 70
    11
 71
     3
 72
    16
 73
    12
 74
     0
 42
0.0000000001
 43
0.0000000001
 12
1.0
 22
0.0
 32
0.0
 13
1.0
 23
0.0
 33
0.0
 40
0.0
 40
0.0
 40
0.0
 40
0.0
 40
0.25
 40
0.25
 40
0.25
 40
0.25
 40
0.5
 40
0.5
 40
0.5
 40
0.5
 40
1.0
 40
1.0
 40
1.0
 40
1.0
 10
124.6518
 20
-35.7352
 30
0.0
 10
123.169
 20
-34.5485
 30
0.0
 10
121.3773
 20
-34.1128
 30
0.0
 10
119.4134
 20
-34.5773
 30
0.0
 10
119.4134
 20
-34.5773
 30
0.0
 10
120.4831
 20
-32.6741
 30
0.0
 10
121.214
 20
-31.7565
 30
0.0
 10
121.9671
 20
-28.9422
 30
0.0
 10
121.9671
 20
-28.9422
 30
0.0
 10
122.3102
 20
-31.4324
 30
0.0
 10
123.5522
 20
-34.2153
 30
0.0
 10
124.6518
 20
-35.7352
 30
0.0
  0
SPLINE
  5
A4
330
1F
100
AcDbEntity
  8
layer 1
 62
     7
100
AcDbSpline
210
0.0
220
0.0
230
1.0
 70
    11
 71
     3
 72
    20
 73
    16
 74
     0
 42
0.0000000001
 43
0.0000000001
 12
1.0
 22
0.0
 32
0.0
 13
1.0
 23
0.0
 33
0.0
 40
0.0
 40
0.0
 40
0.0
 40
0.0
 40
0.2
 40
0.2
 40
0.2
 40
0.2
 40
0.4
 40
0.4
 40
0.4
 40
0.4
 40
0.6
 40
0.6
 40
0.6
 40
0.6
 40
1.0
 40
1.0
 40
1.0
 40
1.0
 10
133.927
 20
-32.0618
 30
0.0
 10
132.4255
 20
-34.1361
 30
0.0
 10
131.8294
 20
-35.7212
 30
0.0
 10
130.8994
 20
-38.5702
 30
0.0
 10
130.8994
 20
-38.5702
 30
0.0
 10
129.0012
 20
-36.3918
 30
0.0
 10
127.663
 20
-34.2705
 30
0.0
 10
126.3107
 20
-31.2404
 30
0.0
 10
126.3107
 20
-31.2404
 30
0.0
 10
129.181
 20
-32.4124
 30
0.0
 10
130.9477
 20
-32.5886
 30
0.0
 10
133.9269
 20
-32.0618
 30
0.0
 10
133.9269
 20
-32.0618
 30
0.0
 10
133.9269
 20
-32.0618
 30
0.0
 10
133.927
 20
-32.0618
 30
0.0
 10
133.927
 20
-32.0618
 30
0.0
  0
SPLINE
  5
A5
330
1F
100
AcDbEntity
  8
layer 1
 62
     7
100
AcDbSpline
210
0.0
220
0.0
230
1.0
 70
    11
 71
     3
 72
   136
 73
   132
 74
     0
 42
0.0000000001
 43
0.0000000001
 12
1.0
 22
0.0
 32
0.0
 13
1.0
 23
0.0
 33
0.0
 40
0.0
 40
0.0
 40
0.0
 40
0.0
 40
0.0294117647058824
 40
0.0294117647058824
 40
0.0294117647058824
 40
0.0294117647058824
 40
0.0588235294117647
 40
0.0588235294117647
 40
0.0588235294117647
 40
0.0588235294117647
 40
0.0882352941176471
 40
0.0882352941176471
 40
0.0882352941176471
 40
0.0882352941176471
 40
0.1176470588235294
 40
0.1176470588235294
 40
0.1176470588235294
 40
0.1176470588235294
 40
0.1470588235294118
 40
0.1470588235294118
 40
0.1470588235294118
 40
0.1470588235294118
 40
0.1764705882352941
 40
0.1764705882352941
 40
0.1764705882352941
 40
0.1764705882352941
 40
0.2058823529411765
 40
0.2058823529411765
 40
0.2058823529411765
 40
0.2058823529411765
 40
0.2352941176470588
 40
0.2352941176470588
 40
0.2352941176470588
 40
0.2352941176470588
 40
0.2647058823529412
 40
0.2647058823529412
 40
0.2647058823529412
 40
0.2647058823529412
 40
0.2941176470588235
 40
0.2941176470588235
 40
0.2941176470588235
 40
0.2941176470588235
 40
0.3235294117647059
 40
0.3235294117647059
 40
0.3235294117647059
 40
0.3235294117647059
 40
0.3529411764705883
 40
0.3529411764705883
 40
0.3529411764705883
 40
0.3529411764705883
 40
0.3823529411764706
 40
0.3823529411764706
 40
0.3823529411764706
 40
0.3823529411764706
 40
0.4117647058823529
 40
0.4117647058823529
 40
0.4117647058823529
 40
0.4117647058823529
 40
0.4411764705882353
 40
0.4411764705882353
 40
0.4411764705882353
 40
0.4411764705882353
 40
0.4705882352941176
 40
0.4705882352941176
 40
0.4705882352941176
 40
0.4705882352941176
 40
0.5
 40
0.5
 40
0.5
 40
0.5
 40
0.5294117647058824
 40
0.5294117647058824
 40
0.5294117647058824
 40
0.5294117647058824
 40
0.5588235294117647
 40
0.5588235294117647
 40
0.5588235294117647
 40
0.5588235294117647
 40
0.5882352941176471
 40
0.5882352941176471
 40
0.5882352941176471
 40
0.5882352941176471
 40
0.6176470588235294
 40
0.6176470588235294
 40
0.6176470588235294
 40
0.6176470588235294
 40
0.6470588235294118
 40
0.6470588235294118
 40
0.6470588235294118
 40
0.6470588235294118
 40
0.6764705882352942
 40
0.6764705882352942
 40
0.6764705882352942
 40
0.6764705882352942
 40
0.7058823529411765
 40
0.7058823529411765
 40
0.7058823529411765
 40
0.7058823529411765
 40
0.7352941176470589
 40
0.7352941176470589
 40
0.7352941176470589
 40
0.7352941176470589
 40
0.7647058823529411
 40
0.7647058823529411
 40
0.7647058823529411
 40
0.7647058823529411
 40
0.7941176470588235
 40
0.7941176470588235
 40
0.7941176470588235
 40
0.7941176470588235
 40
0.8235294117647058
 40
0.8235294117647058
 40
0.8235294117647058
 40
0.8235294117647058
 40
0.8529411764705882
 40
0.8529411764705882
 40
0.8529411764705882
 40
0.8529411764705882
 40
0.8823529411764706
 40
0.8823529411764706
 40
0.8823529411764706
 40
0.8823529411764706
 40
0.9117647058823529
 40
0.9117647058823529
 40
0.9117647058823529
 40
0.9117647058823529
 40
0.9411764705882353
 40
0.9411764705882353
 40
0.9411764705882353
 40
0.9411764705882353
 40
1.0
 40
1.0
 40
1.0
 40
1.0
 10
150.0921
 20
-42.299
 30
0.0
 10
148.5734
 20
-43.2488
 30
0.0
 10
146.7149
 20
-43.2502
 30
0.0
 10
144.9456
 20
-41.7707
 30
0.0
 10
144.9456
 20
-41.7707
 30
0.0
 10
143.4962
 20
-40.4825
 30
0.0
 10
143.2678
 20
-37.7448
 30
0.0
 10
144.6946
 20
-35.8489
 30
0.0
 10
144.6946
 20
-35.8489
 30
0.0
 10
145.1915
 20
-36.8496
 30
0.0
 10
146.2281
 20
-38.0229
 30
0.0
 10
147.2102
 20
-36.857
 30
0.0
 10
147.2102
 20
-36.857
 30
0.0
 10
148.0802
 20
-35.2313
 30
0.0
 10
146.5201
 20
-33.0573
 30
0.0
 10
143.7359
 20
-32.0156
 30
0.0
 10
143.7359
 20
-32.0156
 30
0.0
 10
143.7359
 20
-32.0156
 30
0.0
 10
143.7359
 20
-32.0156
 30
0.0
 10
143.7359
 20
-32.0156
 30
0.0
 10
143.7359
 20
-32.0156
 30
0.0
 10
142.7833
 20
-31.6592
 30
0.0
 10
141.2206
 20
-31.3677
 30
0.0
 10
140.2631
 20
-31.3677
 30
0.0
 10
140.2631
 20
-31.3677
 30
0.0
 10
138.6477
 20
-31.3677
 30
0.0
 10
138.4756
 20
-31.4435
 30
0.0
 10
137.8741
 20
-32.4191
 30
0.0
 10
137.8741
 20
-32.4191
 30
0.0
 10
137.5175
 20
-32.9974
 30
0.0
 10
137.126
 20
-33.8709
 30
0.0
 10
137.0038
 20
-34.3602
 30
0.0
 10
137.0038
 20
-34.3602
 30
0.0
 10
136.8037
 20
-35.1622
 30
0.0
 10
136.866
 20
-35.2499
 30
0.0
 10
137.636
 20
-35.2499
 30
0.0
 10
137.636
 20
-35.2499
 30
0.0
 10
139.6704
 20
-35.2955
 30
0.0
 10
142.1794
 20
-36.942
 30
0.0
 10
141.9311
 20
-39.2881
 30
0.0
 10
141.9311
 20
-39.2881
 30
0.0
 10
141.7391
 20
-40.9237
 30
0.0
 10
139.7412
 20
-43.1977
 30
0.0
 10
137.2601
 20
-42.1354
 30
0.0
 10
137.2601
 20
-42.1354
 30
0.0
 10
136.5128
 20
-41.6748
 30
0.0
 10
136.4647
 20
-41.0733
 30
0.0
 10
137.287
 20
-41.0733
 30
0.0
 10
137.287
 20
-41.0733
 30
0.0
 10
138.4723
 20
-40.9068
 30
0.0
 10
139.1673
 20
-40.2425
 30
0.0
 10
138.4746
 20
-39.3
 30
0.0
 10
138.4746
 20
-39.3
 30
0.0
 10
137.5493
 20
-38.191
 30
0.0
 10
135.4255
 20
-39.7268
 30
0.0
 10
134.3435
 20
-41.8331
 30
0.0
 10
134.3435
 20
-41.8331
 30
0.0
 10
138.5158
 20
-45.3612
 30
0.0
 10
144.5052
 20
-47.9301
 30
0.0
 10
152.3796
 20
-48.1341
 30
0.0
 10
152.3796
 20
-48.1341
 30
0.0
 10
160.2541
 20
-47.9301
 30
0.0
 10
166.2435
 20
-45.3612
 30
0.0
 10
170.4158
 20
-41.8331
 30
0.0
 10
170.4158
 20
-41.8331
 30
0.0
 10
169.3336
 20
-39.7268
 30
0.0
 10
167.2098
 20
-38.191
 30
0.0
 10
166.2847
 20
-39.3
 30
0.0
 10
166.2847
 20
-39.3
 30
0.0
 10
165.592
 20
-40.2425
 30
0.0
 10
166.287
 20
-40.9068
 30
0.0
 10
167.4722
 20
-41.0733
 30
0.0
 10
167.4722
 20
-41.0733
 30
0.0
 10
168.2945
 20
-41.0733
 30
0.0
 10
168.2465
 20
-41.6746
 30
0.0
 10
167.4991
 20
-42.1354
 30
0.0
 10
167.4991
 20
-42.1354
 30
0.0
 10
165.018
 20
-43.1977
 30
0.0
 10
163.0201
 20
-40.9239
 30
0.0
 10
162.8282
 20
-39.2881
 30
0.0
 10
162.8282
 20
-39.2881
 30
0.0
 10
162.5799
 20
-36.942
 30
0.0
 10
165.0888
 20
-35.2955
 30
0.0
 10
167.1233
 20
-35.2499
 30
0.0
 10
167.1233
 20
-35.2499
 30
0.0
 10
167.8933
 20
-35.2499
 30
0.0
 10
167.9556
 20
-35.1622
 30
0.0
 10
167.7554
 20
-34.3602
 30
0.0
 10
167.7554
 20
-34.3602
 30
0.0
 10
167.6333
 20
-33.8709
 30
0.0
 10
167.2416
 20
-32.9974
 30
0.0
 10
166.8852
 20
-32.4191
 30
0.0
 10
166.8852
 20
-32.4191
 30
0.0
 10
166.2837
 20
-31.4435
 30
0.0
 10
166.1115
 20
-31.3677
 30
0.0
 10
164.4962
 20
-31.3677
 30
0.0
 10
164.4962
 20
-31.3677
 30
0.0
 10
163.5387
 20
-31.3677
 30
0.0
 10
161.9759
 20
-31.6593
 30
0.0
 10
161.0234
 20
-32.0156
 30
0.0
 10
161.0234
 20
-32.0156
 30
0.0
 10
161.0234
 20
-32.0156
 30
0.0
 10
161.0234
 20
-32.0156
 30
0.0
 10
161.0234
 20
-32.0156
 30
0.0
 10
161.0234
 20
-32.0156
 30
0.0
 10
158.2392
 20
-33.0573
 30
0.0
 10
156.6791
 20
-35.2313
 30
0.0
 10
157.5491
 20
-36.857
 30
0.0
 10
157.5491
 20
-36.857
 30
0.0
 10
158.5312
 20
-38.0229
 30
0.0
 10
159.5677
 20
-36.8496
 30
0.0
 10
160.0647
 20
-35.8489
 30
0.0
 10
160.0647
 20
-35.8489
 30
0.0
 10
161.4915
 20
-37.7448
 30
0.0
 10
161.2631
 20
-40.4825
 30
0.0
 10
159.8136
 20
-41.7707
 30
0.0
 10
159.8136
 20
-41.7707
 30
0.0
 10
158.0444
 20
-43.2502
 30
0.0
 10
156.1857
 20
-43.2488
 30
0.0
 10
154.6672
 20
-42.299
 30
0.0
 10
154.6672
 20
-42.299
 30
0.0
 10
154.643
 20
-44.5078
 30
0.0
 10
153.5323
 20
-46.5251
 30
0.0
 10
152.3798
 20
-46.5081
 30
0.0
 10
152.3798
 20
-46.5081
 30
0.0
 10
151.2272
 20
-46.5251
 30
0.0
 10
150.1166
 20
-44.5078
 30
0.0
 10
150.0923
 20
-42.299
 30
0.0
 10
150.0923
 20
-42.299
 30
0.0
 10
150.0923
 20
-42.299
 30
0.0
 10
150.0921
 20
-42.299
 30
0.0
 10
150.0921
 20
-42.299
 30
0.0
  0
SPLINE
  5
A6
330
1F
100
AcDbEntity
  8
layer 1
 62
     7
100
AcDbSpline
210
0.0
220
0.0
230
1.0
 70
    11
 71
     3
 72
    32
 73
    28
 74
     0
 42
0.0000000001
 43
0.0000000001
 12
1.0
 22
0.0
 32
0.0
 13
1.0
 23
0.0
 33
0.0
 40
0.0
 40
0.0
 40
0.0
 40
0.0
 40
0.125
 40
0.125
 40
0.125
 40
0.125
 40
0.25
 40
0.25
 40
0.25
 40
0.25
 40
0.375
 40
0.375
 40
0.375
 40
0.375
 40
0.5
 40
0.5
 40
0.5
 40
0.5
 40
0.625
 40
0.625
 40
0.625
 40
0.625
 40
0.75
 40
0.75
 40
0.75
 40
0.75
 40
1.0
 40
1.0
 40
1.0
 40
1.0
 10
129.7343
 20
-42.5024
 30
0.0
 10
128.0135
 20
-46.6067
 30
0.0
 10
124.3168
 20
-48.6496
 30
0.0
 10
121.0671
 20
-47.853
 30
0.0
 10
121.0671
 20
-47.853
 30
0.0
 10
116.8967
 20
-47.5036
 30
0.0
 10
114.3711
 20
-42.58
 30
0.0
 10
116.2857
 20
-40.5811
 30
0.0
 10
116.2857
 20
-40.5811
 30
0.0
 10
118.578
 20
-38.4689
 30
0.0
 10
120.5443
 20
-41.7643
 30
0.0
 10
119.0582
 20
-43.3378
 30
0.0
 10
119.0582
 20
-43.3378
 30
0.0
 10
118.1561
 20
-44.24
 30
0.0
 10
118.242
 20
-44.5259
 30
0.0
 10
119.5446
 20
-44.9558
 30
0.0
 10
119.5446
 20
-44.9558
 30
0.0
 10
125.0276
 20
-45.8451
 30
0.0
 10
126.4655
 20
-40.8762
 30
0.0
 10
125.7882
 20
-37.4997
 30
0.0
 10
125.7882
 20
-37.4997
 30
0.0
 10
126.9419
 20
-39.6527
 30
0.0
 10
128.313
 20
-41.0779
 30
0.0
 10
129.7344
 20
-42.5023
 30
0.0
 10
129.7344
 20
-42.5023
 30
0.0
 10
129.7344
 20
-42.5023
 30
0.0
 10
129.7343
 20
-42.5024
 30
0.0
 10
129.7343
 20
-42.5024
 30
0.0
  0
SPLINE
  5
A7
330
1F
100
AcDbEntity
  8
layer 1
 62
     7
100
AcDbSpline
210
0.0
220
0.0
230
1.0
 70
    11
 71
     3
 72
    68
 73
    64
 74
     0
 42
0.0000000001
 43
0.0000000001
 12
1.0
 22
0.0
 32
0.0
 13
1.0
 23
0.0
 33
0.0
 40
0.0
 40
0.0
 40
0.0
 40
0.0
 40
0.0588235294117647
 40
0.0588235294117647
 40
0.0588235294117647
 40
0.0588235294117647
 40
0.1176470588235294
 40
0.1176470588235294
 40
0.1176470588235294
 40
0.1176470588235294
 40
0.1764705882352941
 40
0.1764705882352941
 40
0.1764705882352941
 40
0.1764705882352941
 40
0.2352941176470588
 40
0.2352941176470588
 40
0.2352941176470588
 40
0.2352941176470588
 40
0.2941176470588235
 40
0.2941176470588235
 40
0.2941176470588235
 40
0.2941176470588235
 40
0.3529411764705883
 40
0.3529411764705883
 40
0.3529411764705883
 40
0.3529411764705883
 40
0.4117647058823529
 40
0.4117647058823529
 40
0.4117647058823529
 40
0.4117647058823529
 40
0.4705882352941176
 40
0.4705882352941176
 40
0.4705882352941176
 40
0.4705882352941176
 40
0.5294117647058824
 40
0.5294117647058824
 40
0.5294117647058824
 40
0.5294117647058824
 40
0.5882352941176471
 40
0.5882352941176471
 40
0.5882352941176471
 40
0.5882352941176471
 40
0.6470588235294118
 40
0.6470588235294118
 40
0.6470588235294118
 40
0.6470588235294118
 40
0.7058823529411765
 40
0.7058823529411765
 40
0.7058823529411765
 40
0.7058823529411765
 40
0.7647058823529411
 40
0.7647058823529411
 40
0.7647058823529411
 40
0.7647058823529411
 40
0.8235294117647058
 40
0.8235294117647058
 40
0.8235294117647058
 40
0.8235294117647058
 40
0.8823529411764706
 40
0.8823529411764706
 40
0.8823529411764706
 40
0.8823529411764706
 40
1.0
 40
1.0
 40
1.0
 40
1.0
 10
169.7999
 20
-23.6032
 30
0.0
 10
171.4262
 20
-24.3204
 30
0.0
 10
171.6888
 20
-25.8825
 30
0.0
 10
173.709
 20
-25.8678
 30
0.0
 10
173.709
 20
-25.8678
 30
0.0
 10
174.4559
 20
-25.8678
 30
0.0
 10
175.352
 20
-25.7154
 30
0.0
 10
175.7004
 20
-25.5289
 30
0.0
 10
175.7004
 20
-25.5289
 30
0.0
 10
176.2741
 20
-25.2219
 30
0.0
 10
176.2888
 20
-25.1257
 30
0.0
 10
175.8563
 20
-24.5083
 30
0.0
 10
175.8563
 20
-24.5083
 30
0.0
 10
174.6688
 20
-22.8129
 30
0.0
 10
177.2598
 20
-21.8323
 30
0.0
 10
178.5598
 20
-23.4851
 30
0.0
 10
178.5598
 20
-23.4851
 30
0.0
 10
180.4221
 20
-26.5698
 30
0.0
 10
176.6874
 20
-28.8034
 30
0.0
 10
171.5378
 20
-28.4085
 30
0.0
 10
171.5378
 20
-28.4085
 30
0.0
 10
171.5378
 20
-28.4085
 30
0.0
 10
168.6359
 20
-28.2943
 30
0.0
 10
168.6359
 20
-28.2943
 30
0.0
 10
168.6359
 20
-28.2943
 30
0.0
 10
166.4659
 20
-24.9447
 30
0.0
 10
162.8978
 20
-21.8448
 30
0.0
 10
159.1415
 20
-21.5174
 30
0.0
 10
159.1415
 20
-21.5174
 30
0.0
 10
162.8978
 20
-20.9631
 30
0.0
 10
166.0876
 20
-18.2414
 30
0.0
 10
168.6359
 20
-14.7405
 30
0.0
 10
168.6359
 20
-14.7405
 30
0.0
 10
168.6359
 20
-14.7405
 30
0.0
 10
171.5378
 20
-14.6263
 30
0.0
 10
171.5378
 20
-14.6263
 30
0.0
 10
171.5378
 20
-14.6263
 30
0.0
 10
176.6874
 20
-14.2314
 30
0.0
 10
180.4222
 20
-16.465
 30
0.0
 10
178.5598
 20
-19.5497
 30
0.0
 10
178.5598
 20
-19.5497
 30
0.0
 10
177.2598
 20
-21.2025
 30
0.0
 10
174.6688
 20
-20.2219
 30
0.0
 10
175.8563
 20
-18.5265
 30
0.0
 10
175.8563
 20
-18.5265
 30
0.0
 10
176.2888
 20
-17.909
 30
0.0
 10
176.2741
 20
-17.8129
 30
0.0
 10
175.7004
 20
-17.5059
 30
0.0
 10
175.7004
 20
-17.5059
 30
0.0
 10
175.352
 20
-17.3194
 30
0.0
 10
174.456
 20
-17.167
 30
0.0
 10
173.709
 20
-17.167
 30
0.0
 10
173.709
 20
-17.167
 30
0.0
 10
171.6887
 20
-17.1523
 30
0.0
 10
171.4262
 20
-18.7144
 30
0.0
 10
169.7999
 20
-19.4316
 30
0.0
 10
169.7999
 20
-19.4316
 30
0.0
 10
168.6957
 20
-19.8419
 30
0.0
 10
165.5519
 20
-20.3373
 30
0.0
 10
165.6769
 20
-21.5174
 30
0.0
 10
165.6769
 20
-21.5174
 30
0.0
 10
165.5519
 20
-22.6975
 30
0.0
 10
168.6956
 20
-23.1931
 30
0.0
 10
169.7999
 20
-23.6032
 30
0.0
  0
SPLINE
  5
A8
330
1F
100
AcDbEntity
  8
layer 1
 62
     7
100
AcDbSpline
210
0.0
220
0.0
230
1.0
 70
    11
 71
     3
 72
    20
 73
    16
 74
     0
 42
0.0000000001
 43
0.0000000001
 12
1.0
 22
0.0
 32
0.0
 13
1.0
 23
0.0
 33
0.0
 40
0.0
 40
0.0
 40
0.0
 40
0.0
 40
0.2
 40
0.2
 40
0.2
 40
0.2
 40
0.4
 40
0.4
 40
0.4
 40
0.4
 40
0.6
 40
0.6
 40
0.6
 40
0.6
 40
1.0
 40
1.0
 40
1.0
 40
1.0
 10
152.3795
 20
-23.8195
 30
0.0
 10
151.7209
 20
-22.7685
 30
0.0
 10
150.1974
 20
-21.787
 30
0.0
 10
148.3732
 20
-21.5173
 30
0.0
 10
148.3732
 20
-21.5173
 30
0.0
 10
150.1975
 20
-21.2475
 30
0.0
 10
151.7211
 20
-20.266
 30
0.0
 10
152.3796
 20
-19.2151
 30
0.0
 10
152.3796
 20
-19.2151
 30
0.0
 10
153.0382
 20
-20.266
 30
0.0
 10
154.5618
 20
-21.2475
 30
0.0
 10
156.386
 20
-21.5173
 30
0.0
 10
156.386
 20
-21.5173
 30
0.0
 10
154.5616
 20
-21.787
 30
0.0
 10
153.0381
 20
-22.7685
 30
0.0
 10
152.3795
 20
-23.8195
 30
0.0
  0
SPLINE
  5
A9
330
1F
100
AcDbEntity
  8
layer 1
 62
     7
100
AcDbSpline
210
0.0
220
0.0
230
1.0
 70
    11
 71
     3
 72
    56
 73
    52
 74
     0
 42
0.0000000001
 43
0.0000000001
 12
1.0
 22
0.0
 32
0.0
 13
1.0
 23
0.0
 33
0.0
 40
0.0
 40
0.0
 40
0.0
 40
0.0
 40
0.0714285714285714
 40
0.0714285714285714
 40
0.0714285714285714
 40
0.0714285714285714
 40
0.1428571428571428
 40
0.1428571428571428
 40
0.1428571428571428
 40
0.1428571428571428
 40
0.2142857142857143
 40
0.2142857142857143
 40
0.2142857142857143
 40
0.2142857142857143
 40
0.2857142857142857
 40
0.2857142857142857
 40
0.2857142857142857
 40
0.2857142857142857
 40
0.3571428571428572
 40
0.3571428571428572
 40
0.3571428571428572
 40
0.3571428571428572
 40
0.4285714285714285
 40
0.4285714285714285
 40
0.4285714285714285
 40
0.4285714285714285
 40
0.5
 40
0.5
 40
0.5
 40
0.5
 40
0.5714285714285714
 40
0.5714285714285714
 40
0.5714285714285714
 40
0.5714285714285714
 40
0.6428571428571429
 40
0.6428571428571429
 40
0.6428571428571429
 40
0.6428571428571429
 40
0.7142857142857143
 40
0.7142857142857143
 40
0.7142857142857143
 40
0.7142857142857143
 40
0.7857142857142857
 40
0.7857142857142857
 40
0.7857142857142857
 40
0.7857142857142857
 40
0.8571428571428571
 40
0.8571428571428571
 40
0.8571428571428571
 40
0.8571428571428571
 40
1.0
 40
1.0
 40
1.0
 40
1.0
 10
155.4304
 20
-29.2843
 30
0.0
 10
157.3061
 20
-28.9109
 30
0.0
 10
158.3738
 20
-27.0002
 30
0.0
 10
156.8299
 20
-26.78
 30
0.0
 10
156.8299
 20
-26.78
 30
0.0
 10
155.9979
 20
-26.6613
 30
0.0
 10
155.7005
 20
-25.7336
 30
0.0
 10
156.2733
 20
-25.0435
 30
0.0
 10
156.2733
 20
-25.0435
 30
0.0
 10
157.609
 20
-23.684
 30
0.0
 10
162.0383
 20
-25.1245
 30
0.0
 10
163.4421
 20
-27.7497
 30
0.0
 10
163.4421
 20
-27.7497
 30
0.0
 10
159.0033
 20
-28.1852
 30
0.0
 10
153.9587
 20
-29.9608
 30
0.0
 10
153.3866
 20
-34.9354
 30
0.0
 10
153.3866
 20
-34.9354
 30
0.0
 10
153.2244
 20
-36.6299
 30
0.0
 10
152.9301
 20
-37.2706
 30
0.0
 10
152.3794
 20
-37.3084
 30
0.0
 10
152.3794
 20
-37.3084
 30
0.0
 10
151.8287
 20
-37.2706
 30
0.0
 10
151.5343
 20
-36.6299
 30
0.0
 10
151.3722
 20
-34.9354
 30
0.0
 10
151.3722
 20
-34.9354
 30
0.0
 10
150.8001
 20
-29.9608
 30
0.0
 10
145.7556
 20
-28.1852
 30
0.0
 10
141.3166
 20
-27.7497
 30
0.0
 10
141.3166
 20
-27.7497
 30
0.0
 10
142.7205
 20
-25.1245
 30
0.0
 10
147.1497
 20
-23.6839
 30
0.0
 10
148.4855
 20
-25.0435
 30
0.0
 10
148.4855
 20
-25.0435
 30
0.0
 10
149.0583
 20
-25.7336
 30
0.0
 10
148.7609
 20
-26.6613
 30
0.0
 10
147.9289
 20
-26.78
 30
0.0
 10
147.9289
 20
-26.78
 30
0.0
 10
146.3851
 20
-27.0002
 30
0.0
 10
147.4528
 20
-28.9109
 30
0.0
 10
149.3284
 20
-29.2843
 30
0.0
 10
149.3284
 20
-29.2843
 30
0.0
 10
150.7421
 20
-29.3381
 30
0.0
 10
151.6102
 20
-28.9437
 30
0.0
 10
152.3793
 20
-27.9415
 30
0.0
 10
152.3793
 20
-27.9415
 30
0.0
 10
153.1484
 20
-28.9437
 30
0.0
 10
154.0164
 20
-29.338
 30
0.0
 10
155.4302
 20
-29.2843
 30
0.0
 10
155.4302
 20
-29.2843
 30
0.0
 10
155.4302
 20
-29.2843
 30
0.0
 10
155.4304
 20
-29.2843
 30
0.0
 10
155.4304
 20
-29.2843
 30
0.0
  0
SPLINE
  5
AA
330
1F
100
AcDbEntity
  8
layer 1
 62
     7
100
AcDbSpline
210
0.0
220
0.0
230
1.0
 70
    11
 71
     3
 72
    28
 73
    24
 74
     0
 42
0.0000000001
 43
0.0000000001
 12
1.0
 22
0.0
 32
0.0
 13
1.0
 23
0.0
 33
0.0
 40
0.0
 40
0.0
 40
0.0
 40
0.0
 40
0.1428571428571428
 40
0.1428571428571428
 40
0.1428571428571428
 40
0.1428571428571428
 40
0.2857142857142857
 40
0.2857142857142857
 40
0.2857142857142857
 40
0.2857142857142857
 40
0.4285714285714285
 40
0.4285714285714285
 40
0.4285714285714285
 40
0.4285714285714285
 40
0.5714285714285714
 40
0.5714285714285714
 40
0.5714285714285714
 40
0.5714285714285714
 40
0.7142857142857143
 40
0.7142857142857143
 40
0.7142857142857143
 40
0.7142857142857143
 40
1.0
 40
1.0
 40
1.0
 40
1.0
 10
186.6823
 20
-26.6634
 30
0.0
 10
186.1053
 20
-27.3587
 30
0.0
 10
186.1392
 20
-28.7606
 30
0.0
 10
188.1809
 20
-31.5649
 30
0.0
 10
188.1809
 20
-31.5649
 30
0.0
 10
189.5803
 20
-33.6119
 30
0.0
 10
191.0214
 20
-35.948
 30
0.0
 10
192.0212
 20
-38.522
 30
0.0
 10
192.0212
 20
-38.522
 30
0.0
 10
191.831
 20
-34.8289
 30
0.0
 10
192.0171
 20
-31.1347
 30
0.0
 10
192.0212
 20
-27.4386
 30
0.0
 10
192.0212
 20
-27.4386
 30
0.0
 10
191.3689
 20
-28.4996
 30
0.0
 10
190.157
 20
-28.9829
 30
0.0
 10
189.1813
 20
-28.9214
 30
0.0
 10
189.1813
 20
-28.9214
 30
0.0
 10
188.603
 20
-28.808
 30
0.0
 10
188.2982
 20
-28.6934
 30
0.0
 10
188.4794
 20
-27.9715
 30
0.0
 10
188.4794
 20
-27.9715
 30
0.0
 10
189.0488
 20
-26.5578
 30
0.0
 10
187.4567
 20
-25.7992
 30
0.0
 10
186.6823
 20
-26.6634
 30
0.0
  0
SPLINE
  5
AB
330
1F
100
AcDbEntity
  8
layer 1
 62
     7
100
AcDbSpline
210
0.0
220
0.0
230
1.0
 70
    11
 71
     3
 72
    16
 73
    12
 74
     0
 42
0.0000000001
 43
0.0000000001
 12
1.0
 22
0.0
 32
0.0
 13
1.0
 23
0.0
 33
0.0
 40
0.0
 40
0.0
 40
0.0
 40
0.0
 40
0.25
 40
0.25
 40
0.25
 40
0.25
 40
0.5
 40
0.5
 40
0.5
 40
0.5
 40
1.0
 40
1.0
 40
1.0
 40
1.0
 10
180.1071
 20
-35.7352
 30
0.0
 10
181.6656
 20
-34.473
 30
0.0
 10
183.4573
 20
-34.0371
 30
0.0
 10
185.3455
 20
-34.5773
 30
0.0
 10
185.3455
 20
-34.5773
 30
0.0
 10
184.2758
 20
-32.6741
 30
0.0
 10
183.5449
 20
-31.7565
 30
0.0
 10
182.7918
 20
-28.9422
 30
0.0
 10
182.7918
 20
-28.9422
 30
0.0
 10
182.4487
 20
-31.4324
 30
0.0
 10
181.2067
 20
-34.2153
 30
0.0
 10
180.1071
 20
-35.7352
 30
0.0
  0
SPLINE
  5
AC
330
1F
100
AcDbEntity
  8
layer 1
 62
     7
100
AcDbSpline
210
0.0
220
0.0
230
1.0
 70
    11
 71
     3
 72
    20
 73
    16
 74
     0
 42
0.0000000001
 43
0.0000000001
 12
1.0
 22
0.0
 32
0.0
 13
1.0
 23
0.0
 33
0.0
 40
0.0
 40
0.0
 40
0.0
 40
0.0
 40
0.2
 40
0.2
 40
0.2
 40
0.2
 40
0.4
 40
0.4
 40
0.4
 40
0.4
 40
0.6
 40
0.6
 40
0.6
 40
0.6
 40
1.0
 40
1.0
 40
1.0
 40
1.0
 10
170.8319
 20
-32.0618
 30
0.0
 10
172.636
 20
-34.3631
 30
0.0
 10
173.0052
 20
-35.4943
 30
0.0
 10
173.8595
 20
-38.5702
 30
0.0
 10
173.8595
 20
-38.5702
 30
0.0
 10
175.7577
 20
-36.3918
 30
0.0
 10
177.0959
 20
-34.2705
 30
0.0
 10
178.4482
 20
-31.2404
 30
0.0
 10
178.4482
 20
-31.2404
 30
0.0
 10
175.5348
 20
-32.4384
 30
0.0
 10
173.6665
 20
-32.6211
 30
0.0
 10
170.832
 20
-32.0618
 30
0.0
 10
170.832
 20
-32.0618
 30
0.0
 10
170.832
 20
-32.0618
 30
0.0
 10
170.8319
 20
-32.0618
 30
0.0
 10
170.8319
 20
-32.0618
 30
0.0
  0
SPLINE
  5
AD
330
1F
100
AcDbEntity
  8
layer 1
 62
     7
100
AcDbSpline
210
0.0
220
0.0
230
1.0
 70
    11
 71
     3
 72
    32
 73
    28
 74
     0
 42
0.0000000001
 43
0.0000000001
 12
1.0
 22
0.0
 32
0.0
 13
1.0
 23
0.0
 33
0.0
 40
0.0
 40
0.0
 40
0.0
 40
0.0
 40
0.125
 40
0.125
 40
0.125
 40
0.125
 40
0.25
 40
0.25
 40
0.25
 40
0.25
 40
0.375
 40
0.375
 40
0.375
 40
0.375
 40
0.5
 40
0.5
 40
0.5
 40
0.5
 40
0.625
 40
0.625
 40
0.625
 40
0.625
 40
0.75
 40
0.75
 40
0.75
 40
0.75
 40
1.0
 40
1.0
 40
1.0
 40
1.0
 10
175.0246
 20
-42.5024
 30
0.0
 10
176.7454
 20
-46.6067
 30
0.0
 10
180.4421
 20
-48.6496
 30
0.0
 10
183.6918
 20
-47.853
 30
0.0
 10
183.6918
 20
-47.853
 30
0.0
 10
187.8622
 20
-47.5036
 30
0.0
 10
190.3878
 20
-42.58
 30
0.0
 10
188.4732
 20
-40.5811
 30
0.0
 10
188.4732
 20
-40.5811
 30
0.0
 10
186.1809
 20
-38.4689
 30
0.0
 10
184.2146
 20
-41.7643
 30
0.0
 10
185.7007
 20
-43.3378
 30
0.0
 10
185.7007
 20
-43.3378
 30
0.0
 10
186.6028
 20
-44.24
 30
0.0
 10
186.5169
 20
-44.5259
 30
0.0
 10
185.2143
 20
-44.9558
 30
0.0
 10
185.2143
 20
-44.9558
 30
0.0
 10
179.7313
 20
-45.8451
 30
0.0
 10
178.2934
 20
-40.8762
 30
0.0
 10
178.9707
 20
-37.4997
 30
0.0
 10
178.9707
 20
-37.4997
 30
0.0
 10
177.817
 20
-39.6527
 30
0.0
 10
176.4459
 20
-41.0779
 30
0.0
 10
175.0245
 20
-42.5023
 30
0.0
 10
175.0245
 20
-42.5023
 30
0.0
 10
175.0245
 20
-42.5023
 30
0.0
 10
175.0246
 20
-42.5024
 30
0.0
 10
175.0246
 20
-42.5024
 30
0.0
  0
SPLINE
  5
AE
330
1F
100
AcDbEntity
  8
layer 1
 62
     7
100
AcDbSpline
210
0.0
220
0.0
230
1.0
 70
    11
 71
     3
 72
    20
 73
    16
 74
     0
 42
0.0000000001
 43
0.0000000001
 12
1.0
 22
0.0
 32
0.0
 13
1.0
 23
0.0
 33
0.0
 40
0.0
 40
0.0
 40
0.0
 40
0.0
 40
0.2
 40
0.2
 40
0.2
 40
0.2
 40
0.4
 40
0.4
 40
0.4
 40
0.4
 40
0.6
 40
0.6
 40
0.6
 40
0.6
 40
1.0
 40
1.0
 40
1.0
 40
1.0
 10
112.7377
 20
-18.6065
 30
0.0
 10
113.9828
 20
-20.6681
 30
0.0
 10
118.3755
 20
-21.8337
 30
0.0
 10
120.6758
 20
-19.766
 30
0.0
 10
120.6758
 20
-19.766
 30
0.0
 10
120.6758
 20
-19.766
 30
0.0
 10
120.6758
 20
-23.2685
 30
0.0
 10
120.6758
 20
-23.2685
 30
0.0
 10
120.6758
 20
-23.2685
 30
0.0
 10
118.3755
 20
-21.2008
 30
0.0
 10
113.9828
 20
-22.3665
 30
0.0
 10
112.7377
 20
-24.428
 30
0.0
 10
112.7377
 20
-24.428
 30
0.0
 10
112.7377
 20
-24.428
 30
0.0
 10
112.7377
 20
-18.6065
 30
0.0
 10
112.7377
 20
-18.6065
 30
0.0
  0
SPLINE
  5
AF
330
1F
100
AcDbEntity
  8
layer 1
 62
     7
100
AcDbSpline
210
0.0
220
0.0
230
1.0
 70
    11
 71
     3
 72
    28
 73
    24
 74
     0
 42
0.0000000001
 43
0.0000000001
 12
1.0
 22
0.0
 32
0.0
 13
1.0
 23
0.0
 33
0.0
 40
0.0
 40
0.0
 40
0.0
 40
0.0
 40
0.1428571428571428
 40
0.1428571428571428
 40
0.1428571428571428
 40
0.1428571428571428
 40
0.2857142857142857
 40
0.2857142857142857
 40
0.2857142857142857
 40
0.2857142857142857
 40
0.4285714285714285
 40
0.4285714285714285
 40
0.4285714285714285
 40
0.4285714285714285
 40
0.5714285714285714
 40
0.5714285714285714
 40
0.5714285714285714
 40
0.5714285714285714
 40
0.7142857142857143
 40
0.7142857142857143
 40
0.7142857142857143
 40
0.7142857142857143
 40
1.0
 40
1.0
 40
1.0
 40
1.0
 10
118.0766
 20
-16.3713
 30
0.0
 10
118.6536
 20
-15.6759
 30
0.0
 10
118.6197
 20
-14.274
 30
0.0
 10
116.578
 20
-11.4698
 30
0.0
 10
116.578
 20
-11.4698
 30
0.0
 10
115.1786
 20
-9.4228
 30
0.0
 10
113.7375
 20
-7.0867
 30
0.0
 10
112.7377
 20
-4.5127
 30
0.0
 10
112.7377
 20
-4.5127
 30
0.0
 10
112.9279
 20
-8.2057
 30
0.0
 10
112.7418
 20
-11.8999
 30
0.0
 10
112.7377
 20
-15.5961
 30
0.0
 10
112.7377
 20
-15.5961
 30
0.0
 10
113.39
 20
-14.5351
 30
0.0
 10
114.6019
 20
-14.0517
 30
0.0
 10
115.5776
 20
-14.1132
 30
0.0
 10
115.5776
 20
-14.1132
 30
0.0
 10
116.1559
 20
-14.2267
 30
0.0
 10
116.4607
 20
-14.3413
 30
0.0
 10
116.2795
 20
-15.0632
 30
0.0
 10
116.2795
 20
-15.0632
 30
0.0
 10
115.7101
 20
-16.4768
 30
0.0
 10
117.3022
 20
-17.2354
 30
0.0
 10
118.0766
 20
-16.3713
 30
0.0
  0
SPLINE
  5
B0
330
1F
100
AcDbEntity
  8
layer 1
 62
     7
100
AcDbSpline
210
0.0
220
0.0
230
1.0
 70
    11
 71
     3
 72
    16
 73
    12
 74
     0
 42
0.0000000001
 43
0.0000000001
 12
1.0
 22
0.0
 32
0.0
 13
1.0
 23
0.0
 33
0.0
 40
0.0
 40
0.0
 40
0.0
 40
0.0
 40
0.25
 40
0.25
 40
0.25
 40
0.25
 40
0.5
 40
0.5
 40
0.5
 40
0.5
 40
1.0
 40
1.0
 40
1.0
 40
1.0
 10
124.6518
 20
-7.2994
 30
0.0
 10
123.2445
 20
-8.7886
 30
0.0
 10
121.3016
 20
-9.2245
 30
0.0
 10
119.4134
 20
-8.4574
 30
0.0
 10
119.4134
 20
-8.4574
 30
0.0
 10
120.4831
 20
-10.3606
 30
0.0
 10
121.214
 20
-11.2782
 30
0.0
 10
121.9671
 20
-14.0925
 30
0.0
 10
121.9671
 20
-14.0925
 30
0.0
 10
122.3102
 20
-11.6023
 30
0.0
 10
123.5522
 20
-8.8193
 30
0.0
 10
124.6518
 20
-7.2994
 30
0.0
  0
SPLINE
  5
B1
330
1F
100
AcDbEntity
  8
layer 1
 62
     7
100
AcDbSpline
210
0.0
220
0.0
230
1.0
 70
    11
 71
     3
 72
    20
 73
    16
 74
     0
 42
0.0000000001
 43
0.0000000001
 12
1.0
 22
0.0
 32
0.0
 13
1.0
 23
0.0
 33
0.0
 40
0.0
 40
0.0
 40
0.0
 40
0.0
 40
0.2
 40
0.2
 40
0.2
 40
0.2
 40
0.4
 40
0.4
 40
0.4
 40
0.4
 40
0.6
 40
0.6
 40
0.6
 40
0.6
 40
1.0
 40
1.0
 40
1.0
 40
1.0
 10
133.927
 20
-10.9728
 30
0.0
 10
132.3498
 20
-8.9741
 30
0.0
 10
131.1486
 20
-7.2378
 30
0.0
 10
130.8994
 20
-4.4645
 30
0.0
 10
130.8994
 20
-4.4645
 30
0.0
 10
129.0012
 20
-6.6428
 30
0.0
 10
127.663
 20
-8.7642
 30
0.0
 10
126.3107
 20
-11.7943
 30
0.0
 10
126.3107
 20
-11.7943
 30
0.0
 10
129.0167
 20
-10.3758
 30
0.0
 10
131.0298
 20
-10.4461
 30
0.0
 10
133.9269
 20
-10.9728
 30
0.0
 10
133.9269
 20
-10.9728
 30
0.0
 10
133.9269
 20
-10.9728
 30
0.0
 10
133.927
 20
-10.9728
 30
0.0
 10
133.927
 20
-10.9728
 30
0.0
  0
SPLINE
  5
B2
330
1F
100
AcDbEntity
  8
layer 1
 62
     7
100
AcDbSpline
210
0.0
220
0.0
230
1.0
 70
    11
 71
     3
 72
   136
 73
   132
 74
     0
 42
0.0000000001
 43
0.0000000001
 12
1.0
 22
0.0
 32
0.0
 13
1.0
 23
0.0
 33
0.0
 40
0.0
 40
0.0
 40
0.0
 40
0.0
 40
0.0294117647058824
 40
0.0294117647058824
 40
0.0294117647058824
 40
0.0294117647058824
 40
0.0588235294117647
 40
0.0588235294117647
 40
0.0588235294117647
 40
0.0588235294117647
 40
0.0882352941176471
 40
0.0882352941176471
 40
0.0882352941176471
 40
0.0882352941176471
 40
0.1176470588235294
 40
0.1176470588235294
 40
0.1176470588235294
 40
0.1176470588235294
 40
0.1470588235294118
 40
0.1470588235294118
 40
0.1470588235294118
 40
0.1470588235294118
 40
0.1764705882352941
 40
0.1764705882352941
 40
0.1764705882352941
 40
0.1764705882352941
 40
0.2058823529411765
 40
0.2058823529411765
 40
0.2058823529411765
 40
0.2058823529411765
 40
0.2352941176470588
 40
0.2352941176470588
 40
0.2352941176470588
 40
0.2352941176470588
 40
0.2647058823529412
 40
0.2647058823529412
 40
0.2647058823529412
 40
0.2647058823529412
 40
0.2941176470588235
 40
0.2941176470588235
 40
0.2941176470588235
 40
0.2941176470588235
 40
0.3235294117647059
 40
0.3235294117647059
 40
0.3235294117647059
 40
0.3235294117647059
 40
0.3529411764705883
 40
0.3529411764705883
 40
0.3529411764705883
 40
0.3529411764705883
 40
0.3823529411764706
 40
0.3823529411764706
 40
0.3823529411764706
 40
0.3823529411764706
 40
0.4117647058823529
 40
0.4117647058823529
 40
0.4117647058823529
 40
0.4117647058823529
 40
0.4411764705882353
 40
0.4411764705882353
 40
0.4411764705882353
 40
0.4411764705882353
 40
0.4705882352941176
 40
0.4705882352941176
 40
0.4705882352941176
 40
0.4705882352941176
 40
0.5
 40
0.5
 40
0.5
 40
0.5
 40
0.5294117647058824
 40
0.5294117647058824
 40
0.5294117647058824
 40
0.5294117647058824
 40
0.5588235294117647
 40
0.5588235294117647
 40
0.5588235294117647
 40
0.5588235294117647
 40
0.5882352941176471
 40
0.5882352941176471
 40
0.5882352941176471
 40
0.5882352941176471
 40
0.6176470588235294
 40
0.6176470588235294
 40
0.6176470588235294
 40
0.6176470588235294
 40
0.6470588235294118
 40
0.6470588235294118
 40
0.6470588235294118
 40
0.6470588235294118
 40
0.6764705882352942
 40
0.6764705882352942
 40
0.6764705882352942
 40
0.6764705882352942
 40
0.7058823529411765
 40
0.7058823529411765
 40
0.7058823529411765
 40
0.7058823529411765
 40
0.7352941176470589
 40
0.7352941176470589
 40
0.7352941176470589
 40
0.7352941176470589
 40
0.7647058823529411
 40
0.7647058823529411
 40
0.7647058823529411
 40
0.7647058823529411
 40
0.7941176470588235
 40
0.7941176470588235
 40
0.7941176470588235
 40
0.7941176470588235
 40
0.8235294117647058
 40
0.8235294117647058
 40
0.8235294117647058
 40
0.8235294117647058
 40
0.8529411764705882
 40
0.8529411764705882
 40
0.8529411764705882
 40
0.8529411764705882
 40
0.8823529411764706
 40
0.8823529411764706
 40
0.8823529411764706
 40
0.8823529411764706
 40
0.9117647058823529
 40
0.9117647058823529
 40
0.9117647058823529
 40
0.9117647058823529
 40
0.9411764705882353
 40
0.9411764705882353
 40
0.9411764705882353
 40
0.9411764705882353
 40
1.0
 40
1.0
 40
1.0
 40
1.0
 10
150.0921
 20
-0.7356
 30
0.0
 10
148.5734
 20
0.2143
 30
0.0
 10
146.7149
 20
0.2156
 30
0.0
 10
144.9456
 20
-1.2638
 30
0.0
 10
144.9456
 20
-1.2638
 30
0.0
 10
143.4962
 20
-2.5521
 30
0.0
 10
143.2678
 20
-5.2897
 30
0.0
 10
144.6946
 20
-7.1856
 30
0.0
 10
144.6946
 20
-7.1856
 30
0.0
 10
145.1915
 20
-6.1849
 30
0.0
 10
146.2281
 20
-5.0117
 30
0.0
 10
147.2102
 20
-6.1776
 30
0.0
 10
147.2102
 20
-6.1776
 30
0.0
 10
148.0802
 20
-7.8032
 30
0.0
 10
146.5201
 20
-9.9773
 30
0.0
 10
143.7359
 20
-11.0189
 30
0.0
 10
143.7359
 20
-11.0189
 30
0.0
 10
143.7359
 20
-11.0189
 30
0.0
 10
143.7359
 20
-11.0189
 30
0.0
 10
143.7359
 20
-11.0189
 30
0.0
 10
143.7359
 20
-11.0189
 30
0.0
 10
142.7833
 20
-11.3754
 30
0.0
 10
141.2206
 20
-11.6669
 30
0.0
 10
140.2631
 20
-11.6669
 30
0.0
 10
140.2631
 20
-11.6669
 30
0.0
 10
138.6477
 20
-11.6669
 30
0.0
 10
138.4756
 20
-11.5911
 30
0.0
 10
137.8741
 20
-10.6154
 30
0.0
 10
137.8741
 20
-10.6154
 30
0.0
 10
137.5175
 20
-10.0372
 30
0.0
 10
137.126
 20
-9.1637
 30
0.0
 10
137.0038
 20
-8.6743
 30
0.0
 10
137.0038
 20
-8.6743
 30
0.0
 10
136.8037
 20
-7.8723
 30
0.0
 10
136.866
 20
-7.7846
 30
0.0
 10
137.636
 20
-7.7846
 30
0.0
 10
137.636
 20
-7.7846
 30
0.0
 10
139.6704
 20
-7.739
 30
0.0
 10
142.1794
 20
-6.0926
 30
0.0
 10
141.9311
 20
-3.7465
 30
0.0
 10
141.9311
 20
-3.7465
 30
0.0
 10
141.7391
 20
-2.1108
 30
0.0
 10
139.7412
 20
0.1632
 30
0.0
 10
137.2601
 20
-0.8992
 30
0.0
 10
137.2601
 20
-0.8992
 30
0.0
 10
136.5128
 20
-1.3598
 30
0.0
 10
136.4647
 20
-1.9613
 30
0.0
 10
137.287
 20
-1.9613
 30
0.0
 10
137.287
 20
-1.9613
 30
0.0
 10
138.4723
 20
-2.1278
 30
0.0
 10
139.1673
 20
-2.792
 30
0.0
 10
138.4746
 20
-3.7345
 30
0.0
 10
138.4746
 20
-3.7345
 30
0.0
 10
137.5493
 20
-4.8435
 30
0.0
 10
135.4255
 20
-3.3078
 30
0.0
 10
134.3435
 20
-1.2014
 30
0.0
 10
134.3435
 20
-1.2014
 30
0.0
 10
138.5158
 20
2.3267
 30
0.0
 10
144.5052
 20
4.8956
 30
0.0
 10
152.3796
 20
5.0995
 30
0.0
 10
152.3796
 20
5.0995
 30
0.0
 10
160.2541
 20
4.8956
 30
0.0
 10
166.2435
 20
2.3267
 30
0.0
 10
170.4158
 20
-1.2014
 30
0.0
 10
170.4158
 20
-1.2014
 30
0.0
 10
169.3336
 20
-3.3078
 30
0.0
 10
167.2098
 20
-4.8435
 30
0.0
 10
166.2847
 20
-3.7345
 30
0.0
 10
166.2847
 20
-3.7345
 30
0.0
 10
165.592
 20
-2.792
 30
0.0
 10
166.287
 20
-2.1278
 30
0.0
 10
167.4722
 20
-1.9613
 30
0.0
 10
167.4722
 20
-1.9613
 30
0.0
 10
168.2945
 20
-1.9613
 30
0.0
 10
168.2465
 20
-1.3599
 30
0.0
 10
167.4991
 20
-0.8992
 30
0.0
 10
167.4991
 20
-0.8992
 30
0.0
 10
165.018
 20
0.1632
 30
0.0
 10
163.0201
 20
-2.1107
 30
0.0
 10
162.8282
 20
-3.7465
 30
0.0
 10
162.8282
 20
-3.7465
 30
0.0
 10
162.5799
 20
-6.0926
 30
0.0
 10
165.0888
 20
-7.739
 30
0.0
 10
167.1233
 20
-7.7846
 30
0.0
 10
167.1233
 20
-7.7846
 30
0.0
 10
167.8933
 20
-7.7846
 30
0.0
 10
167.9556
 20
-7.8723
 30
0.0
 10
167.7554
 20
-8.6743
 30
0.0
 10
167.7554
 20
-8.6743
 30
0.0
 10
167.6333
 20
-9.1637
 30
0.0
 10
167.2416
 20
-10.0372
 30
0.0
 10
166.8852
 20
-10.6154
 30
0.0
 10
166.8852
 20
-10.6154
 30
0.0
 10
166.2837
 20
-11.5911
 30
0.0
 10
166.1115
 20
-11.6669
 30
0.0
 10
164.4962
 20
-11.6669
 30
0.0
 10
164.4962
 20
-11.6669
 30
0.0
 10
163.5387
 20
-11.6669
 30
0.0
 10
161.9759
 20
-11.3752
 30
0.0
 10
161.0234
 20
-11.0189
 30
0.0
 10
161.0234
 20
-11.0189
 30
0.0
 10
161.0234
 20
-11.0189
 30
0.0
 10
161.0234
 20
-11.0189
 30
0.0
 10
161.0234
 20
-11.0189
 30
0.0
 10
161.0234
 20
-11.0189
 30
0.0
 10
158.2392
 20
-9.9773
 30
0.0
 10
156.6791
 20
-7.8032
 30
0.0
 10
157.5491
 20
-6.1776
 30
0.0
 10
157.5491
 20
-6.1776
 30
0.0
 10
158.5312
 20
-5.0117
 30
0.0
 10
159.5677
 20
-6.1849
 30
0.0
 10
160.0647
 20
-7.1856
 30
0.0
 10
160.0647
 20
-7.1856
 30
0.0
 10
161.4915
 20
-5.2897
 30
0.0
 10
161.2631
 20
-2.5521
 30
0.0
 10
159.8136
 20
-1.2638
 30
0.0
 10
159.8136
 20
-1.2638
 30
0.0
 10
158.0444
 20
0.2156
 30
0.0
 10
156.1857
 20
0.2143
 30
0.0
 10
154.6672
 20
-0.7356
 30
0.0
 10
154.6672
 20
-0.7356
 30
0.0
 10
154.643
 20
1.4732
 30
0.0
 10
153.5323
 20
3.4905
 30
0.0
 10
152.3798
 20
3.4735
 30
0.0
 10
152.3798
 20
3.4735
 30
0.0
 10
151.2272
 20
3.4905
 30
0.0
 10
150.1166
 20
1.4732
 30
0.0
 10
150.0923
 20
-0.7356
 30
0.0
 10
150.0923
 20
-0.7356
 30
0.0
 10
150.0923
 20
-0.7356
 30
0.0
 10
150.0921
 20
-0.7356
 30
0.0
 10
150.0921
 20
-0.7356
 30
0.0
  0
SPLINE
  5
B3
330
1F
100
AcDbEntity
  8
layer 1
 62
     7
100
AcDbSpline
210
0.0
220
0.0
230
1.0
 70
    11
 71
     3
 72
    32
 73
    28
 74
     0
 42
0.0000000001
 43
0.0000000001
 12
1.0
 22
0.0
 32
0.0
 13
1.0
 23
0.0
 33
0.0
 40
0.0
 40
0.0
 40
0.0
 40
0.0
 40
0.125
 40
0.125
 40
0.125
 40
0.125
 40
0.25
 40
0.25
 40
0.25
 40
0.25
 40
0.375
 40
0.375
 40
0.375
 40
0.375
 40
0.5
 40
0.5
 40
0.5
 40
0.5
 40
0.625
 40
0.625
 40
0.625
 40
0.625
 40
0.75
 40
0.75
 40
0.75
 40
0.75
 40
1.0
 40
1.0
 40
1.0
 40
1.0
 10
129.7343
 20
-0.5321
 30
0.0
 10
128.0135
 20
3.5722
 30
0.0
 10
124.3168
 20
5.6151
 30
0.0
 10
121.0671
 20
4.8184
 30
0.0
 10
121.0671
 20
4.8184
 30
0.0
 10
116.8967
 20
4.4691
 30
0.0
 10
114.3711
 20
-0.4546
 30
0.0
 10
116.2857
 20
-2.4534
 30
0.0
 10
116.2857
 20
-2.4534
 30
0.0
 10
118.578
 20
-4.5656
 30
0.0
 10
120.5443
 20
-1.2703
 30
0.0
 10
119.0582
 20
0.3033
 30
0.0
 10
119.0582
 20
0.3033
 30
0.0
 10
118.1561
 20
1.2054
 30
0.0
 10
118.242
 20
1.4913
 30
0.0
 10
119.5446
 20
1.9212
 30
0.0
 10
119.5446
 20
1.9212
 30
0.0
 10
125.0276
 20
2.8105
 30
0.0
 10
126.4655
 20
-2.1584
 30
0.0
 10
125.7882
 20
-5.5349
 30
0.0
 10
125.7882
 20
-5.5349
 30
0.0
 10
126.9419
 20
-3.3819
 30
0.0
 10
128.313
 20
-1.9566
 30
0.0
 10
129.7344
 20
-0.5322
 30
0.0
 10
129.7344
 20
-0.5322
 30
0.0
 10
129.7344
 20
-0.5322
 30
0.0
 10
129.7343
 20
-0.5321
 30
0.0
 10
129.7343
 20
-0.5321
 30
0.0
  0
SPLINE
  5
B4
330
1F
100
AcDbEntity
  8
layer 1
 62
     7
100
AcDbSpline
210
0.0
220
0.0
230
1.0
 70
    11
 71
     3
 72
    20
 73
    16
 74
     0
 42
0.0000000001
 43
0.0000000001
 12
1.0
 22
0.0
 32
0.0
 13
1.0
 23
0.0
 33
0.0
 40
0.0
 40
0.0
 40
0.0
 40
0.0
 40
0.2
 40
0.2
 40
0.2
 40
0.2
 40
0.4
 40
0.4
 40
0.4
 40
0.4
 40
0.6
 40
0.6
 40
0.6
 40
0.6
 40
1.0
 40
1.0
 40
1.0
 40
1.0
 10
192.0212
 20
-18.6065
 30
0.0
 10
190.7761
 20
-20.6681
 30
0.0
 10
186.3834
 20
-21.8337
 30
0.0
 10
184.0831
 20
-19.766
 30
0.0
 10
184.0831
 20
-19.766
 30
0.0
 10
184.0831
 20
-19.766
 30
0.0
 10
184.0831
 20
-23.2685
 30
0.0
 10
184.0831
 20
-23.2685
 30
0.0
 10
184.0831
 20
-23.2685
 30
0.0
 10
186.3834
 20
-21.2008
 30
0.0
 10
190.7761
 20
-22.3665
 30
0.0
 10
192.0212
 20
-24.428
 30
0.0
 10
192.0212
 20
-24.428
 30
0.0
 10
192.0212
 20
-24.428
 30
0.0
 10
192.0212
 20
-18.6065
 30
0.0
 10
192.0212
 20
-18.6065
 30
0.0
  0
SPLINE
  5
B5
330
1F
100
AcDbEntity
  8
layer 1
 62
     7
100
AcDbSpline
210
0.0
220
0.0
230
1.0
 70
    11
 71
     3
 72
    56
 73
    52
 74
     0
 42
0.0000000001
 43
0.0000000001
 12
1.0
 22
0.0
 32
0.0
 13
1.0
 23
0.0
 33
0.0
 40
0.0
 40
0.0
 40
0.0
 40
0.0
 40
0.0714285714285714
 40
0.0714285714285714
 40
0.0714285714285714
 40
0.0714285714285714
 40
0.1428571428571428
 40
0.1428571428571428
 40
0.1428571428571428
 40
0.1428571428571428
 40
0.2142857142857143
 40
0.2142857142857143
 40
0.2142857142857143
 40
0.2142857142857143
 40
0.2857142857142857
 40
0.2857142857142857
 40
0.2857142857142857
 40
0.2857142857142857
 40
0.3571428571428572
 40
0.3571428571428572
 40
0.3571428571428572
 40
0.3571428571428572
 40
0.4285714285714285
 40
0.4285714285714285
 40
0.4285714285714285
 40
0.4285714285714285
 40
0.5
 40
0.5
 40
0.5
 40
0.5
 40
0.5714285714285714
 40
0.5714285714285714
 40
0.5714285714285714
 40
0.5714285714285714
 40
0.6428571428571429
 40
0.6428571428571429
 40
0.6428571428571429
 40
0.6428571428571429
 40
0.7142857142857143
 40
0.7142857142857143
 40
0.7142857142857143
 40
0.7142857142857143
 40
0.7857142857142857
 40
0.7857142857142857
 40
0.7857142857142857
 40
0.7857142857142857
 40
0.8571428571428571
 40
0.8571428571428571
 40
0.8571428571428571
 40
0.8571428571428571
 40
1.0
 40
1.0
 40
1.0
 40
1.0
 10
155.4304
 20
-13.7503
 30
0.0
 10
157.3061
 20
-14.1238
 30
0.0
 10
158.3738
 20
-16.0344
 30
0.0
 10
156.8299
 20
-16.2547
 30
0.0
 10
156.8299
 20
-16.2547
 30
0.0
 10
155.9979
 20
-16.3734
 30
0.0
 10
155.7005
 20
-17.3011
 30
0.0
 10
156.2733
 20
-17.9912
 30
0.0
 10
156.2733
 20
-17.9912
 30
0.0
 10
157.609
 20
-19.3507
 30
0.0
 10
162.0383
 20
-17.9101
 30
0.0
 10
163.4421
 20
-15.285
 30
0.0
 10
163.4421
 20
-15.285
 30
0.0
 10
159.0033
 20
-14.8495
 30
0.0
 10
153.9587
 20
-13.0739
 30
0.0
 10
153.3866
 20
-8.0992
 30
0.0
 10
153.3866
 20
-8.0992
 30
0.0
 10
153.2244
 20
-6.4047
 30
0.0
 10
152.9301
 20
-5.764
 30
0.0
 10
152.3794
 20
-5.7262
 30
0.0
 10
152.3794
 20
-5.7262
 30
0.0
 10
151.8287
 20
-5.764
 30
0.0
 10
151.5343
 20
-6.4047
 30
0.0
 10
151.3722
 20
-8.0992
 30
0.0
 10
151.3722
 20
-8.0992
 30
0.0
 10
150.8001
 20
-13.0739
 30
0.0
 10
145.7556
 20
-14.8495
 30
0.0
 10
141.3166
 20
-15.285
 30
0.0
 10
141.3166
 20
-15.285
 30
0.0
 10
142.7205
 20
-17.9101
 30
0.0
 10
147.1497
 20
-19.3507
 30
0.0
 10
148.4855
 20
-17.9912
 30
0.0
 10
148.4855
 20
-17.9912
 30
0.0
 10
149.0583
 20
-17.3011
 30
0.0
 10
148.7609
 20
-16.3734
 30
0.0
 10
147.9289
 20
-16.2547
 30
0.0
 10
147.9289
 20
-16.2547
 30
0.0
 10
146.3851
 20
-16.0344
 30
0.0
 10
147.4528
 20
-14.1238
 30
0.0
 10
149.3284
 20
-13.7503
 30
0.0
 10
149.3284
 20
-13.7503
 30
0.0
 10
150.7421
 20
-13.6965
 30
0.0
 10
151.6102
 20
-14.091
 30
0.0
 10
152.3793
 20
-15.0932
 30
0.0
 10
152.3793
 20
-15.0932
 30
0.0
 10
153.1484
 20
-14.091
 30
0.0
 10
154.0164
 20
-13.6967
 30
0.0
 10
155.4302
 20
-13.7503
 30
0.0
 10
155.4302
 20
-13.7503
 30
0.0
 10
155.4302
 20
-13.7503
 30
0.0
 10
155.4304
 20
-13.7503
 30
0.0
 10
155.4304
 20
-13.7503
 30
0.0
  0
SPLINE
  5
B6
330
1F
100
AcDbEntity
  8
layer 1
 62
     7
100
AcDbSpline
210
0.0
220
0.0
230
1.0
 70
    11
 71
     3
 72
    28
 73
    24
 74
     0
 42
0.0000000001
 43
0.0000000001
 12
1.0
 22
0.0
 32
0.0
 13
1.0
 23
0.0
 33
0.0
 40
0.0
 40
0.0
 40
0.0
 40
0.0
 40
0.1428571428571428
 40
0.1428571428571428
 40
0.1428571428571428
 40
0.1428571428571428
 40
0.2857142857142857
 40
0.2857142857142857
 40
0.2857142857142857
 40
0.2857142857142857
 40
0.4285714285714285
 40
0.4285714285714285
 40
0.4285714285714285
 40
0.4285714285714285
 40
0.5714285714285714
 40
0.5714285714285714
 40
0.5714285714285714
 40
0.5714285714285714
 40
0.7142857142857143
 40
0.7142857142857143
 40
0.7142857142857143
 40
0.7142857142857143
 40
1.0
 40
1.0
 40
1.0
 40
1.0
 10
186.6823
 20
-16.3713
 30
0.0
 10
186.1053
 20
-15.6759
 30
0.0
 10
186.1392
 20
-14.274
 30
0.0
 10
188.1809
 20
-11.4698
 30
0.0
 10
188.1809
 20
-11.4698
 30
0.0
 10
189.5803
 20
-9.4228
 30
0.0
 10
191.0214
 20
-7.0867
 30
0.0
 10
192.0212
 20
-4.5127
 30
0.0
 10
192.0212
 20
-4.5127
 30
0.0
 10
191.831
 20
-8.2057
 30
0.0
 10
192.0171
 20
-11.8999
 30
0.0
 10
192.0212
 20
-15.5961
 30
0.0
 10
192.0212
 20
-15.5961
 30
0.0
 10
191.3689
 20
-14.5351
 30
0.0
 10
190.157
 20
-14.0517
 30
0.0
 10
189.1813
 20
-14.1132
 30
0.0
 10
189.1813
 20
-14.1132
 30
0.0
 10
188.603
 20
-14.2267
 30
0.0
 10
188.2982
 20
-14.3413
 30
0.0
 10
188.4794
 20
-15.0632
 30
0.0
 10
188.4794
 20
-15.0632
 30
0.0
 10
189.0488
 20
-16.4768
 30
0.0
 10
187.4567
 20
-17.2354
 30
0.0
 10
186.6823
 20
-16.3713
 30
0.0
  0
SPLINE
  5
B7
330
1F
100
AcDbEntity
  8
layer 1
 62
     7
100
AcDbSpline
210
0.0
220
0.0
230
1.0
 70
    11
 71
     3
 72
    16
 73
    12
 74
     0
 42
0.0000000001
 43
0.0000000001
 12
1.0
 22
0.0
 32
0.0
 13
1.0
 23
0.0
 33
0.0
 40
0.0
 40
0.0
 40
0.0
 40
0.0
 40
0.25
 40
0.25
 40
0.25
 40
0.25
 40
0.5
 40
0.5
 40
0.5
 40
0.5
 40
1.0
 40
1.0
 40
1.0
 40
1.0
 10
180.1071
 20
-7.2994
 30
0.0
 10
181.8925
 20
-8.9399
 30
0.0
 10
183.3816
 20
-8.9219
 30
0.0
 10
185.3455
 20
-8.4574
 30
0.0
 10
185.3455
 20
-8.4574
 30
0.0
 10
184.2758
 20
-10.3606
 30
0.0
 10
183.5449
 20
-11.2782
 30
0.0
 10
182.7918
 20
-14.0925
 30
0.0
 10
182.7918
 20
-14.0925
 30
0.0
 10
182.4487
 20
-11.6023
 30
0.0
 10
181.2067
 20
-8.8193
 30
0.0
 10
180.1071
 20
-7.2994
 30
0.0
  0
SPLINE
  5
B8
330
1F
100
AcDbEntity
  8
layer 1
 62
     7
100
AcDbSpline
210
0.0
220
0.0
230
1.0
 70
    11
 71
     3
 72
    20
 73
    16
 74
     0
 42
0.0000000001
 43
0.0000000001
 12
1.0
 22
0.0
 32
0.0
 13
1.0
 23
0.0
 33
0.0
 40
0.0
 40
0.0
 40
0.0
 40
0.0
 40
0.2
 40
0.2
 40
0.2
 40
0.2
 40
0.4
 40
0.4
 40
0.4
 40
0.4
 40
0.6
 40
0.6
 40
0.6
 40
0.6
 40
1.0
 40
1.0
 40
1.0
 40
1.0
 10
170.8319
 20
-10.9728
 30
0.0
 10
172.1822
 20
-8.5959
 30
0.0
 10
172.8539
 20
-7.0109
 30
0.0
 10
173.8595
 20
-4.4645
 30
0.0
 10
173.8595
 20
-4.4645
 30
0.0
 10
175.7577
 20
-6.6428
 30
0.0
 10
177.0959
 20
-8.7642
 30
0.0
 10
178.4482
 20
-11.7943
 30
0.0
 10
178.4482
 20
-11.7943
 30
0.0
 10
175.7813
 20
-10.9183
 30
0.0
 10
174.0577
 20
-10.7552
 30
0.0
 10
170.832
 20
-10.9728
 30
0.0
 10
170.832
 20
-10.9728
 30
0.0
 10
170.832
 20
-10.9728
 30
0.0
 10
170.8319
 20
-10.9728
 30
0.0
 10
170.8319
 20
-10.9728
 30
0.0
  0
SPLINE
  5
B9
330
1F
100
AcDbEntity
  8
layer 1
 62
     7
100
AcDbSpline
210
0.0
220
0.0
230
1.0
 70
    11
 71
     3
 72
    32
 73
    28
 74
     0
 42
0.0000000001
 43
0.0000000001
 12
1.0
 22
0.0
 32
0.0
 13
1.0
 23
0.0
 33
0.0
 40
0.0
 40
0.0
 40
0.0
 40
0.0
 40
0.125
 40
0.125
 40
0.125
 40
0.125
 40
0.25
 40
0.25
 40
0.25
 40
0.25
 40
0.375
 40
0.375
 40
0.375
 40
0.375
 40
0.5
 40
0.5
 40
0.5
 40
0.5
 40
0.625
 40
0.625
 40
0.625
 40
0.625
 40
0.75
 40
0.75
 40
0.75
 40
0.75
 40
1.0
 40
1.0
 40
1.0
 40
1.0
 10
175.0246
 20
-0.5321
 30
0.0
 10
176.7454
 20
3.5722
 30
0.0
 10
180.4421
 20
5.6151
 30
0.0
 10
183.6918
 20
4.8184
 30
0.0
 10
183.6918
 20
4.8184
 30
0.0
 10
187.8622
 20
4.4691
 30
0.0
 10
190.3878
 20
-0.4546
 30
0.0
 10
188.4732
 20
-2.4534
 30
0.0
 10
188.4732
 20
-2.4534
 30
0.0
 10
186.1809
 20
-4.5656
 30
0.0
 10
184.2146
 20
-1.2703
 30
0.0
 10
185.7007
 20
0.3033
 30
0.0
 10
185.7007
 20
0.3033
 30
0.0
 10
186.6028
 20
1.2054
 30
0.0
 10
186.5169
 20
1.4913
 30
0.0
 10
185.2143
 20
1.9212
 30
0.0
 10
185.2143
 20
1.9212
 30
0.0
 10
179.7313
 20
2.8105
 30
0.0
 10
178.2934
 20
-2.1584
 30
0.0
 10
178.9707
 20
-5.5349
 30
0.0
 10
178.9707
 20
-5.5349
 30
0.0
 10
177.817
 20
-3.3819
 30
0.0
 10
176.4459
 20
-1.9566
 30
0.0
 10
175.0245
 20
-0.5322
 30
0.0
 10
175.0245
 20
-0.5322
 30
0.0
 10
175.0245
 20
-0.5322
 30
0.0
 10
175.0246
 20
-0.5321
 30
0.0
 10
175.0246
 20
-0.5321
 30
0.0
  0
ENDSEC
  0
SECTION
  2
OBJECTS
  0
DICTIONARY
  5
C
330
0
100
AcDbDictionary
281
     1
  3
ACAD_GROUP
350
D
  3
ACAD_LAYOUT
350
1A
  3
ACAD_MATERIAL
350
3B
  3
ACAD_MLEADERSTYLE
350
DB
  3
ACAD_MLINESTYLE
350
17
  3
ACAD_PLOTSETTINGS
350
19
  3
ACAD_PLOTSTYLENAME
350
E
  3
ACAD_TABLESTYLE
350
DA
  3
ACAD_VISUALSTYLE
350
2A
  0
DICTIONARY
  5
D
102
{ACAD_REACTORS
330
C
102
}
330
C
100
AcDbDictionary
281
     1
  0
DICTIONARY
  5
1A
102
{ACAD_REACTORS
330
C
102
}
330
C
100
AcDbDictionary
281
     1
  3
Layout1
350
1E
  3
Layout2
350
26
  3
Model
350
22
  0
DICTIONARY
  5
3B
102
{ACAD_REACTORS
330
C
102
}
330
C
100
AcDbDictionary
281
     1
  3
ByBlock
350
3D
  3
ByLayer
350
3C
  3
Global
350
3E
  0
DICTIONARY
  5
DB
102
{ACAD_REACTORS
330
C
102
}
330
C
100
AcDbDictionary
281
     1
  0
DICTIONARY
  5
17
102
{ACAD_REACTORS
330
C
102
}
330
C
100
AcDbDictionary
281
     1
  3
Standard
350
18
  0
DICTIONARY
  5
19
102
{ACAD_REACTORS
330
C
102
}
330
C
100
AcDbDictionary
281
     1
  0
ACDBDICTIONARYWDFLT
  5
E
102
{ACAD_REACTORS
330
C
102
}
330
C
100
AcDbDictionary
281
     1
  3
Normal
350
F
100
AcDbDictionaryWithDefault
340
F
  0
DICTIONARY
  5
DA
102
{ACAD_REACTORS
330
C
102
}
330
C
100
AcDbDictionary
281
     1
  0
DICTIONARY
  5
2A
102
{ACAD_REACTORS
330
C
102
}
330
C
100
AcDbDictionary
281
     1
  3
2dWireframe
350
2F
  3
3D Hidden
350
31
  3
3dWireframe
350
30
  3
Basic
350
32
  3
Brighten
350
36
  3
ColorChange
350
3A
  3
Conceptual
350
34
  3
Dim
350
35
  3
Facepattern
350
39
  3
Flat
350
2B
  3
FlatWithEdges
350
2C
  3
Gouraud
350
2D
  3
GouraudWithEdges
350
2E
  3
Linepattern
350
38
  3
Realistic
350
33
  3
Thicken
350
37
  0
LAYOUT
  5
1E
102
{ACAD_REACTORS
330
1A
102
}
330
1A
100
AcDbPlotSettings
  1

  2
none_device
  4

  6

 40
0.0
 41
0.0
 42
0.0
 43
0.0
 44
0.0
 45
0.0
 46
0.0
 47
0.0
 48
0.0
 49
0.0
140
0.0
141
0.0
142
1.0
143
1.0
 70
   688
 72
     0
 73
     0
 74
     5
  7

 75
    16
 76
     0
 77
     2
 78
   300
147
1.0
148
0.0
149
0.0
100
AcDbLayout
  1
Layout1
 70
     1
 71
     1
 10
0.0
 20
0.0
 11
12.0
 21
9.0
 12
0.0
 22
0.0
 32
0.0
 14
1.000000000000000E+20
 24
1.000000000000000E+20
 34
1.000000000000000E+20
 15
-1.000000000000000E+20
 25
-1.000000000000000E+20
 35
-1.000000000000000E+20
146
0.0
 13
0.0
 23
0.0
 33
0.0
 16
1.0
 26
0.0
 36
0.0
 17
0.0
 27
1.0
 37
0.0
 76
     0
330
1B
  0
LAYOUT
  5
26
102
{ACAD_REACTORS
330
1A
102
}
330
1A
100
AcDbPlotSettings
  1

  2
none_device
  4

  6

 40
0.0
 41
0.0
 42
0.0
 43
0.0
 44
0.0
 45
0.0
 46
0.0
 47
0.0
 48
0.0
 49
0.0
140
0.0
141
0.0
142
1.0
143
1.0
 70
   688
 72
     0
 73
     0
 74
     5
  7

 75
    16
 76
     0
 77
     2
 78
   300
147
1.0
148
0.0
149
0.0
100
AcDbLayout
  1
Layout2
 70
     1
 71
     2
 10
0.0
 20
0.0
 11
0.0
 21
0.0
 12
0.0
 22
0.0
 32
0.0
 14
0.0
 24
0.0
 34
0.0
 15
0.0
 25
0.0
 35
0.0
146
0.0
 13
0.0
 23
0.0
 33
0.0
 16
1.0
 26
0.0
 36
0.0
 17
0.0
 27
1.0
 37
0.0
 76
     0
330
23
  0
LAYOUT
  5
22
102
{ACAD_REACTORS
330
1A
102
}
330
1A
100
AcDbPlotSettings
  1

  2
none_device
  4

  6

 40
0.0
 41
0.0
 42
0.0
 43
0.0
 44
0.0
 45
0.0
 46
0.0
 47
0.0
 48
0.0
 49
0.0
140
0.0
141
0.0
142
1.0
143
1.0
 70
  1712
 72
     0
 73
     0
 74
     0
  7

 75
     0
 76
     0
 77
     2
 78
   300
147
1.0
148
0.0
149
0.0
100
AcDbLayout
  1
Model
 70
     1
 71
     0
 10
0.0
 20
0.0
 11
12.0
 21
9.0
 12
0.0
 22
0.0
 32
0.0
 14
108.3304
 24
-114.6738
 34
0.0
 15
196.4246
 25
131.7436
 35
0.0
146
0.0
 13
0.0
 23
0.0
 33
0.0
 16
1.0
 26
0.0
 36
0.0
 17
0.0
 27
1.0
 37
0.0
 76
     0
330
1F
331
29
  0
MATERIAL
  5
3D
102
{ACAD_REACTORS
330
3B
102
}
330
3B
100
AcDbMaterial
  1
ByBlock
 72
     1
 94
      127
  0
MATERIAL
  5
3C
102
{ACAD_REACTORS
330
3B
102
}
330
3B
100
AcDbMaterial
  1
ByLayer
 72
     1
 94
      127
  0
MATERIAL
  5
3E
102
{ACAD_REACTORS
330
3B
102
}
330
3B
100
AcDbMaterial
  1
Global
 72
     1
 94
      127
  0
MLINESTYLE
  5
18
102
{ACAD_REACTORS
330
17
102
}
330
17
100
AcDbMlineStyle
  2
Standard
 70
     0
  3

 62
   256
 51
90.0
 52
90.0
 71
     2
 49
0.5
 62
   256
  6
BYLAYER
 49
-0.5
 62
   256
  6
BYLAYER
  0
ACDBPLACEHOLDER
  5
F
102
{ACAD_REACTORS
330
E
102
}
330
E
  0
VISUALSTYLE
  5
2F
102
{ACAD_REACTORS
330
2A
102
}
102
{ACAD_XDICTIONARY
360
C2
102
}
330
2A
100
AcDbVisualStyle
  2
2dWireframe
 70
     4
 71
     0
 72
     2
 73
     0
 90
        0
 40
-0.6
 41
-30.0
 62
     5
 63
     7
421
 16777215
 74
     1
 91
        4
 64
     7
 65
   257
 75
     1
175
     1
 42
1.0
 92
        0
 66
   257
 43
1.0
 76
     1
 77
     6
 78
     2
 67
     7
 79
     5
170
     0
171
     0
290
     0
174
     0
 93
        1
 44
0.0
173
     0
291
     0
 45
0.0
  0
VISUALSTYLE
  5
31
102
{ACAD_REACTORS
330
2A
102
}
102
{ACAD_XDICTIONARY
360
C6
102
}
330
2A
100
AcDbVisualStyle
  2
3D Hidden
 70
     6
 71
     1
 72
     2
 73
     2
 90
        0
 40
-0.6
 41
-30.0
 62
     5
 63
     7
421
 16777215
 74
     2
 91
        2
 64
     7
 65
   257
 75
     2
175
     1
 42
40.0
 92
        0
 66
   257
 43
1.0
 76
     1
 77
     6
 78
     2
 67
     7
 79
     3
170
     0
171
     0
290
     0
174
     0
 93
        1
 44
0.0
173
     0
291
     0
 45
0.0
  0
VISUALSTYLE
  5
30
102
{ACAD_REACTORS
330
2A
102
}
102
{ACAD_XDICTIONARY
360
C4
102
}
330
2A
100
AcDbVisualStyle
  2
3dWireframe
 70
     5
 71
     0
 72
     2
 73
     0
 90
        0
 40
-0.6
 41
-30.0
 62
     5
 63
     7
421
 16777215
 74
     1
 91
        4
 64
     7
 65
   257
 75
     1
175
     1
 42
1.0
 92
        0
 66
   257
 43
1.0
 76
     1
 77
     6
 78
     2
 67
     7
 79
     5
170
     0
171
     0
290
     0
174
     0
 93
        1
 44
0.0
173
     0
291
     0
 45
0.0
  0
VISUALSTYLE
  5
32
102
{ACAD_REACTORS
330
2A
102
}
102
{ACAD_XDICTIONARY
360
C8
102
}
330
2A
100
AcDbVisualStyle
  2
Basic
 70
     7
 71
     1
 72
     0
 73
     1
 90
        0
 40
-0.6
 41
-30.0
 62
     5
 63
     7
421
 16777215
 74
     0
 91
        4
 64
     7
 65
   257
 75
     1
175
     1
 42
1.0
 92
        8
 66
     7
 43
1.0
 76
     1
 77
     6
 78
     2
 67
     7
 79
     5
170
     0
171
     0
290
     0
174
     0
 93
        1
 44
0.0
173
     0
291
     1
 45
0.0
  0
VISUALSTYLE
  5
36
102
{ACAD_REACTORS
330
2A
102
}
102
{ACAD_XDICTIONARY
360
D0
102
}
330
2A
100
AcDbVisualStyle
  2
Brighten
 70
    12
 71
     2
 72
     2
 73
     0
 90
        0
 40
-0.6
 41
-30.0
 62
     5
 63
     7
421
 16777215
 74
     1
 91
        4
 64
     7
 65
   257
 75
     1
175
     1
 42
1.0
 92
        8
 66
     7
 43
1.0
 76
     1
 77
     6
 78
     2
 67
     7
 79
     5
170
     0
171
     0
290
     0
174
     0
 93
        1
 44
50.0
173
     0
291
     1
 45
0.0
  0
VISUALSTYLE
  5
3A
102
{ACAD_REACTORS
330
2A
102
}
102
{ACAD_XDICTIONARY
360
D8
102
}
330
2A
100
AcDbVisualStyle
  2
ColorChange
 70
    16
 71
     2
 72
     2
 73
     3
 90
        0
 40
-0.6
 41
-30.0
 62
     5
 63
     8
421
  8421504
 74
     1
 91
        4
 64
     7
 65
   257
 75
     1
175
     1
 42
1.0
 92
        8
 66
     8
424
  8421504
 43
1.0
 76
     1
 77
     6
 78
     2
 67
     7
 79
     5
170
     0
171
     0
290
     0
174
     0
 93
        1
 44
0.0
173
     0
291
     1
 45
0.0
  0
VISUALSTYLE
  5
34
102
{ACAD_REACTORS
330
2A
102
}
102
{ACAD_XDICTIONARY
360
CC
102
}
330
2A
100
AcDbVisualStyle
  2
Conceptual
 70
     9
 71
     3
 72
     2
 73
     0
 90
        0
 40
-0.6
 41
-30.0
 62
     5
 63
     7
421
 16777215
 74
     2
 91
        2
 64
     7
 65
   257
 75
     1
175
     1
 42
40.0
 92
        8
 66
     7
 43
1.0
 76
     1
 77
     6
 78
     2
 67
     7
 79
     3
170
     0
171
     0
290
     0
174
     0
 93
        1
 44
0.0
173
     0
291
     0
 45
0.0
  0
VISUALSTYLE
  5
35
102
{ACAD_REACTORS
330
2A
102
}
102
{ACAD_XDICTIONARY
360
CE
102
}
330
2A
100
AcDbVisualStyle
  2
Dim
 70
    11
 71
     2
 72
     2
 73
     0
 90
        0
 40
-0.6
 41
-30.0
 62
     5
 63
     7
421
 16777215
 74
     1
 91
        4
 64
     7
 65
   257
 75
     1
175
     1
 42
1.0
 92
        8
 66
     7
 43
1.0
 76
     1
 77
     6
 78
     2
 67
     7
 79
     5
170
     0
171
     0
290
     0
174
     0
 93
        1
 44
-50.0
173
     0
291
     1
 45
0.0
  0
VISUALSTYLE
  5
39
102
{ACAD_REACTORS
330
2A
102
}
102
{ACAD_XDICTIONARY
360
D6
102
}
330
2A
100
AcDbVisualStyle
  2
Facepattern
 70
    15
 71
     2
 72
     2
 73
     0
 90
        0
 40
-0.6
 41
-30.0
 62
     5
 63
     7
421
 16777215
 74
     1
 91
        4
 64
     7
 65
   257
 75
     1
175
     1
 42
1.0
 92
        8
 66
     7
 43
1.0
 76
     1
 77
     6
 78
     2
 67
     7
 79
     5
170
     0
171
     0
290
     0
174
     0
 93
        1
 44
0.0
173
     0
291
     1
 45
0.0
  0
VISUALSTYLE
  5
2B
102
{ACAD_REACTORS
330
2A
102
}
102
{ACAD_XDICTIONARY
360
BA
102
}
330
2A
100
AcDbVisualStyle
  2
Flat
 70
     0
 71
     2
 72
     1
 73
     1
 90
        2
 40
-0.6
 41
30.0
 62
     5
 63
     7
421
 16777215
 74
     0
 91
        4
 64
     7
 65
   257
 75
     1
175
     1
 42
1.0
 92
        8
 66
     7
 43
1.0
 76
     1
 77
     6
 78
     2
 67
     7
 79
     5
170
     0
171
     0
290
     0
174
     0
 93
       13
 44
0.0
173
     0
291
     1
 45
0.0
  0
VISUALSTYLE
  5
2C
102
{ACAD_REACTORS
330
2A
102
}
102
{ACAD_XDICTIONARY
360
BC
102
}
330
2A
100
AcDbVisualStyle
  2
FlatWithEdges
 70
     1
 71
     2
 72
     1
 73
     1
 90
        2
 40
-0.6
 41
30.0
 62
     5
 63
     7
421
 16777215
 74
     1
 91
        4
 64
     7
 65
   257
 75
     1
175
     1
 42
1.0
 92
        0
 66
   257
 43
1.0
 76
     1
 77
     6
 78
     2
 67
     7
 79
     5
170
     0
171
     0
290
     0
174
     0
 93
       13
 44
0.0
173
     0
291
     1
 45
0.0
  0
VISUALSTYLE
  5
2D
102
{ACAD_REACTORS
330
2A
102
}
102
{ACAD_XDICTIONARY
360
BE
102
}
330
2A
100
AcDbVisualStyle
  2
Gouraud
 70
     2
 71
     2
 72
     2
 73
     1
 90
        2
 40
-0.6
 41
30.0
 62
     5
 63
     7
421
 16777215
 74
     0
 91
        4
 64
     7
 65
   257
 75
     1
175
     1
 42
1.0
 92
        0
 66
     7
 43
1.0
 76
     1
 77
     6
 78
     2
 67
     7
 79
     5
170
     0
171
     0
290
     0
174
     0
 93
       13
 44
0.0
173
     0
291
     1
 45
0.0
  0
VISUALSTYLE
  5
2E
102
{ACAD_REACTORS
330
2A
102
}
102
{ACAD_XDICTIONARY
360
C0
102
}
330
2A
100
AcDbVisualStyle
  2
GouraudWithEdges
 70
     3
 71
     2
 72
     2
 73
     1
 90
        2
 40
-0.6
 41
30.0
 62
     5
 63
     7
421
 16777215
 74
     1
 91
        4
 64
     7
 65
   257
 75
     1
175
     1
 42
1.0
 92
        0
 66
   257
 43
1.0
 76
     1
 77
     6
 78
     2
 67
     7
 79
     5
170
     0
171
     0
290
     0
174
     0
 93
       13
 44
0.0
173
     0
291
     1
 45
0.0
  0
VISUALSTYLE
  5
38
102
{ACAD_REACTORS
330
2A
102
}
102
{ACAD_XDICTIONARY
360
D4
102
}
330
2A
100
AcDbVisualStyle
  2
Linepattern
 70
    14
 71
     2
 72
     2
 73
     0
 90
        0
 40
-0.6
 41
-30.0
 62
     5
 63
     7
421
 16777215
 74
     1
 91
        4
 64
     7
 65
   257
 75
     7
175
     7
 42
1.0
 92
        8
 66
     7
 43
1.0
 76
     1
 77
     6
 78
     2
 67
     7
 79
     5
170
     0
171
     0
290
     0
174
     0
 93
        1
 44
0.0
173
     0
291
     1
 45
0.0
  0
VISUALSTYLE
  5
33
102
{ACAD_REACTORS
330
2A
102
}
102
{ACAD_XDICTIONARY
360
CA
102
}
330
2A
100
AcDbVisualStyle
  2
Realistic
 70
     8
 71
     2
 72
     2
 73
     0
 90
        0
 40
-0.6
 41
-30.0
 62
     5
 63
     7
421
 16777215
 74
     1
 91
        0
 64
     7
 65
   257
 75
     1
175
     1
 42
1.0
 92
        8
 66
     8
424
  7895160
 43
1.0
 76
     1
 77
     6
 78
     2
 67
     7
 79
     5
170
     0
171
     0
290
     0
174
     0
 93
       13
 44
0.0
173
     0
291
     0
 45
0.0
  0
VISUALSTYLE
  5
37
102
{ACAD_REACTORS
330
2A
102
}
102
{ACAD_XDICTIONARY
360
D2
102
}
330
2A
100
AcDbVisualStyle
  2
Thicken
 70
    13
 71
     2
 72
     2
 73
     0
 90
        0
 40
-0.6
 41
-30.0
 62
     5
 63
     7
421
 16777215
 74
     1
 91
        4
 64
     7
 65
   257
 75
     1
175
     1
 42
1.0
 92
       12
 66
     7
 43
1.0
 76
     1
 77
     6
 78
     2
 67
     7
 79
     5
170
     0
171
     0
290
     0
174
     0
 93
        1
 44
0.0
173
     0
291
     1
 45
0.0
  0
DICTIONARY
  5
C2
330
2F
100
AcDbDictionary
280
     1
281
     1
  3
ACAD_XREC_ROUNDTRIP
360
C3
  0
DICTIONARY
  5
C6
330
31
100
AcDbDictionary
280
     1
281
     1
  3
ACAD_XREC_ROUNDTRIP
360
C7
  0
DICTIONARY
  5
C4
330
30
100
AcDbDictionary
280
     1
281
     1
  3
ACAD_XREC_ROUNDTRIP
360
C5
  0
DICTIONARY
  5
C8
330
32
100
AcDbDictionary
280
     1
281
     1
  3
ACAD_XREC_ROUNDTRIP
360
C9
  0
DICTIONARY
  5
D0
330
36
100
AcDbDictionary
280
     1
281
     1
  3
ACAD_XREC_ROUNDTRIP
360
D1
  0
DICTIONARY
  5
D8
330
3A
100
AcDbDictionary
280
     1
281
     1
  3
ACAD_XREC_ROUNDTRIP
360
D9
  0
DICTIONARY
  5
CC
330
34
100
AcDbDictionary
280
     1
281
     1
  3
ACAD_XREC_ROUNDTRIP
360
CD
  0
DICTIONARY
  5
CE
330
35
100
AcDbDictionary
280
     1
281
     1
  3
ACAD_XREC_ROUNDTRIP
360
CF
  0
DICTIONARY
  5
D6
330
39
100
AcDbDictionary
280
     1
281
     1
  3
ACAD_XREC_ROUNDTRIP
360
D7
  0
DICTIONARY
  5
BA
330
2B
100
AcDbDictionary
280
     1
281
     1
  3
ACAD_XREC_ROUNDTRIP
360
BB
  0
DICTIONARY
  5
BC
330
2C
100
AcDbDictionary
280
     1
281
     1
  3
ACAD_XREC_ROUNDTRIP
360
BD
  0
DICTIONARY
  5
BE
330
2D
100
AcDbDictionary
280
     1
281
     1
  3
ACAD_XREC_ROUNDTRIP
360
BF
  0
DICTIONARY
  5
C0
330
2E
100
AcDbDictionary
280
     1
281
     1
  3
ACAD_XREC_ROUNDTRIP
360
C1
  0
DICTIONARY
  5
D4
330
38
100
AcDbDictionary
280
     1
281
     1
  3
ACAD_XREC_ROUNDTRIP
360
D5
  0
DICTIONARY
  5
CA
330
33
100
AcDbDictionary
280
     1
281
     1
  3
ACAD_XREC_ROUNDTRIP
360
CB
  0
DICTIONARY
  5
D2
330
37
100
AcDbDictionary
280
     1
281
     1
  3
ACAD_XREC_ROUNDTRIP
360
D3
  0
XRECORD
  5
C3
102
{ACAD_REACTORS
330
C2
102
}
330
C2
100
AcDbXrecord
280
     1
102
RTVSPropertyOp0
 70
     1
102
RTVSPropertyOp1
 70
     1
102
RTVSPropertyOp2
 70
     1
102
RTVSPropertyOp3
 70
     1
102
RTVSPropertyOp4
 70
     1
102
RTVSPropertyOp5
 70
     1
102
RTVSPropertyOp6
 70
     1
102
RTVSPropertyOp7
 70
     1
102
RTVSPropertyOp8
 70
     1
102
RTVSPropertyOp9
 70
     1
102
RTVSPropertyOp10
 70
     1
102
RTVSPropertyOp11
 70
     1
102
RTVSPropertyOp12
 70
     1
102
RTVSPropertyOp13
 70
     1
102
RTVSPropertyOp14
 70
     1
102
RTVSPropertyOp15
 70
     1
102
RTVSPropertyOp16
 70
     1
102
RTVSPropertyOp17
 70
     1
102
RTVSPropertyOp18
 70
     1
102
RTVSPropertyOp19
 70
     1
102
RTVSPropertyOp20
 70
     1
102
RTVSPropertyOp21
 70
     1
102
RTVSPropertyOp22
 70
     1
102
RTVSPropertyOp23
 70
     1
102
RTVSPropertyOp24
 70
     1
102
RTVSPropertyOp25
 70
     1
102
RTVSPropertyOp26
 70
     1
102
RTVSPropertyOp27
 70
     1
102
RTVSPropertyOp28
 70
     1
102
RTVSPropertyOp29
 70
     1
102
RTVSPropertyOp30
 70
     1
102
RTVSPropertyOp31
 70
     1
102
RTVSPropertyOp32
 70
     1
  0
XRECORD
  5
C7
102
{ACAD_REACTORS
330
C6
102
}
330
C6
100
AcDbXrecord
280
     1
102
RTVSPropertyOp0
 70
     1
102
RTVSPropertyOp1
 70
     1
102
RTVSPropertyOp2
 70
     1
102
RTVSPropertyOp3
 70
     1
102
RTVSPropertyOp4
 70
     1
102
RTVSPropertyOp5
 70
     1
102
RTVSPropertyOp6
 70
     1
102
RTVSPropertyOp7
 70
     1
102
RTVSPropertyOp8
 70
     1
102
RTVSPropertyOp9
 70
     1
102
RTVSPropertyOp10
 70
     1
102
RTVSPropertyOp11
 70
     1
102
RTVSPropertyOp12
 70
     1
102
RTVSPropertyOp13
 70
     1
102
RTVSPropertyOp14
 70
     1
102
RTVSPropertyOp15
 70
     1
102
RTVSPropertyOp16
 70
     1
102
RTVSPropertyOp17
 70
     1
102
RTVSPropertyOp18
 70
     1
102
RTVSPropertyOp19
 70
     1
102
RTVSPropertyOp20
 70
     1
102
RTVSPropertyOp21
 70
     1
102
RTVSPropertyOp22
 70
     1
102
RTVSPropertyOp23
 70
     1
102
RTVSPropertyOp24
 70
     1
102
RTVSPropertyOp25
 70
     1
102
RTVSPropertyOp26
 70
     1
102
RTVSPropertyOp27
 70
     1
102
RTVSPropertyOp28
 70
     1
102
RTVSPropertyOp29
 70
     1
102
RTVSPropertyOp30
 70
     1
102
RTVSPropertyOp31
 70
     1
102
RTVSPropertyOp32
 70
     1
  0
XRECORD
  5
C5
102
{ACAD_REACTORS
330
C4
102
}
330
C4
100
AcDbXrecord
280
     1
102
RTVSPropertyOp0
 70
     1
102
RTVSPropertyOp1
 70
     1
102
RTVSPropertyOp2
 70
     1
102
RTVSPropertyOp3
 70
     1
102
RTVSPropertyOp4
 70
     1
102
RTVSPropertyOp5
 70
     1
102
RTVSPropertyOp6
 70
     1
102
RTVSPropertyOp7
 70
     1
102
RTVSPropertyOp8
 70
     1
102
RTVSPropertyOp9
 70
     1
102
RTVSPropertyOp10
 70
     1
102
RTVSPropertyOp11
 70
     1
102
RTVSPropertyOp12
 70
     1
102
RTVSPropertyOp13
 70
     1
102
RTVSPropertyOp14
 70
     1
102
RTVSPropertyOp15
 70
     1
102
RTVSPropertyOp16
 70
     1
102
RTVSPropertyOp17
 70
     1
102
RTVSPropertyOp18
 70
     1
102
RTVSPropertyOp19
 70
     1
102
RTVSPropertyOp20
 70
     1
102
RTVSPropertyOp21
 70
     1
102
RTVSPropertyOp22
 70
     1
102
RTVSPropertyOp23
 70
     1
102
RTVSPropertyOp24
 70
     1
102
RTVSPropertyOp25
 70
     1
102
RTVSPropertyOp26
 70
     1
102
RTVSPropertyOp27
 70
     1
102
RTVSPropertyOp28
 70
     1
102
RTVSPropertyOp29
 70
     1
102
RTVSPropertyOp30
 70
     1
102
RTVSPropertyOp31
 70
     1
102
RTVSPropertyOp32
 70
     1
  0
XRECORD
  5
C9
102
{ACAD_REACTORS
330
C8
102
}
330
C8
100
AcDbXrecord
280
     1
102
RTVSPropertyOp0
 70
     1
102
RTVSPropertyOp1
 70
     1
102
RTVSPropertyOp2
 70
     1
102
RTVSPropertyOp3
 70
     1
102
RTVSPropertyOp4
 70
     1
102
RTVSPropertyOp5
 70
     1
102
RTVSPropertyOp6
 70
     1
102
RTVSPropertyOp7
 70
     1
102
RTVSPropertyOp8
 70
     1
102
RTVSPropertyOp9
 70
     1
102
RTVSPropertyOp10
 70
     1
102
RTVSPropertyOp11
 70
     1
102
RTVSPropertyOp12
 70
     1
102
RTVSPropertyOp13
 70
     1
102
RTVSPropertyOp14
 70
     1
102
RTVSPropertyOp15
 70
     1
102
RTVSPropertyOp16
 70
     1
102
RTVSPropertyOp17
 70
     1
102
RTVSPropertyOp18
 70
     1
102
RTVSPropertyOp19
 70
     1
102
RTVSPropertyOp20
 70
     1
102
RTVSPropertyOp21
 70
     1
102
RTVSPropertyOp22
 70
     1
102
RTVSPropertyOp23
 70
     1
102
RTVSPropertyOp24
 70
     1
102
RTVSPropertyOp25
 70
     1
102
RTVSPropertyOp26
 70
     1
102
RTVSPropertyOp27
 70
     1
102
RTVSPropertyOp28
 70
     1
102
RTVSPropertyOp29
 70
     1
102
RTVSPropertyOp30
 70
     1
102
RTVSPropertyOp31
 70
     1
102
RTVSPropertyOp32
 70
     1
  0
XRECORD
  5
D1
102
{ACAD_REACTORS
330
D0
102
}
330
D0
100
AcDbXrecord
280
     1
102
RTVSPropertyOp0
 70
     1
102
RTVSPropertyOp1
 70
     1
102
RTVSPropertyOp2
 70
     1
102
RTVSPropertyOp3
 70
     1
102
RTVSPropertyOp4
 70
     1
102
RTVSPropertyOp5
 70
     1
102
RTVSPropertyOp6
 70
     1
102
RTVSPropertyOp7
 70
     1
102
RTVSPropertyOp8
 70
     1
102
RTVSPropertyOp9
 70
     1
102
RTVSPropertyOp10
 70
     1
102
RTVSPropertyOp11
 70
     1
102
RTVSPropertyOp12
 70
     1
102
RTVSPropertyOp13
 70
     1
102
RTVSPropertyOp14
 70
     1
102
RTVSPropertyOp15
 70
     1
102
RTVSPropertyOp16
 70
     1
102
RTVSPropertyOp17
 70
     1
102
RTVSPropertyOp18
 70
     1
102
RTVSPropertyOp19
 70
     1
102
RTVSPropertyOp20
 70
     1
102
RTVSPropertyOp21
 70
     1
102
RTVSPropertyOp22
 70
     1
102
RTVSPropertyOp23
 70
     1
102
RTVSPropertyOp24
 70
     1
102
RTVSPropertyOp25
 70
     1
102
RTVSPropertyOp26
 70
     1
102
RTVSPropertyOp27
 70
     1
102
RTVSPropertyOp28
 70
     1
102
RTVSPropertyOp29
 70
     1
102
RTVSPropertyOp30
 70
     1
102
RTVSPropertyOp31
 70
     1
102
RTVSPropertyOp32
 70
     1
  0
XRECORD
  5
D9
102
{ACAD_REACTORS
330
D8
102
}
330
D8
100
AcDbXrecord
280
     1
102
RTVSPropertyOp0
 70
     1
102
RTVSPropertyOp1
 70
     1
102
RTVSPropertyOp2
 70
     1
102
RTVSPropertyOp3
 70
     1
102
RTVSPropertyOp4
 70
     1
102
RTVSPropertyOp5
 70
     1
102
RTVSPropertyOp6
 70
     1
102
RTVSPropertyOp7
 70
     1
102
RTVSPropertyOp8
 70
     1
102
RTVSPropertyOp9
 70
     1
102
RTVSPropertyOp10
 70
     1
102
RTVSPropertyOp11
 70
     1
102
RTVSPropertyOp12
 70
     1
102
RTVSPropertyOp13
 70
     1
102
RTVSPropertyOp14
 70
     1
102
RTVSPropertyOp15
 70
     1
102
RTVSPropertyOp16
 70
     1
102
RTVSPropertyOp17
 70
     1
102
RTVSPropertyOp18
 70
     1
102
RTVSPropertyOp19
 70
     1
102
RTVSPropertyOp20
 70
     1
102
RTVSPropertyOp21
 70
     1
102
RTVSPropertyOp22
 70
     1
102
RTVSPropertyOp23
 70
     1
102
RTVSPropertyOp24
 70
     1
102
RTVSPropertyOp25
 70
     1
102
RTVSPropertyOp26
 70
     1
102
RTVSPropertyOp27
 70
     1
102
RTVSPropertyOp28
 70
     1
102
RTVSPropertyOp29
 70
     1
102
RTVSPropertyOp30
 70
     1
102
RTVSPropertyOp31
 70
     1
102
RTVSPropertyOp32
 70
     1
  0
XRECORD
  5
CD
102
{ACAD_REACTORS
330
CC
102
}
330
CC
100
AcDbXrecord
280
     1
102
RTVSPropertyOp0
 70
     1
102
RTVSPropertyOp1
 70
     1
102
RTVSPropertyOp2
 70
     1
102
RTVSPropertyOp3
 70
     1
102
RTVSPropertyOp4
 70
     1
102
RTVSPropertyOp5
 70
     1
102
RTVSPropertyOp6
 70
     1
102
RTVSPropertyOp7
 70
     1
102
RTVSPropertyOp8
 70
     1
102
RTVSPropertyOp9
 70
     1
102
RTVSPropertyOp10
 70
     1
102
RTVSPropertyOp11
 70
     1
102
RTVSPropertyOp12
 70
     1
102
RTVSPropertyOp13
 70
     1
102
RTVSPropertyOp14
 70
     1
102
RTVSPropertyOp15
 70
     1
102
RTVSPropertyOp16
 70
     1
102
RTVSPropertyOp17
 70
     1
102
RTVSPropertyOp18
 70
     1
102
RTVSPropertyOp19
 70
     1
102
RTVSPropertyOp20
 70
     1
102
RTVSPropertyOp21
 70
     1
102
RTVSPropertyOp22
 70
     1
102
RTVSPropertyOp23
 70
     1
102
RTVSPropertyOp24
 70
     1
102
RTVSPropertyOp25
 70
     1
102
RTVSPropertyOp26
 70
     1
102
RTVSPropertyOp27
 70
     1
102
RTVSPropertyOp28
 70
     1
102
RTVSPropertyOp29
 70
     1
102
RTVSPropertyOp30
 70
     1
102
RTVSPropertyOp31
 70
     1
102
RTVSPropertyOp32
 70
     1
  0
XRECORD
  5
CF
102
{ACAD_REACTORS
330
CE
102
}
330
CE
100
AcDbXrecord
280
     1
102
RTVSPropertyOp0
 70
     1
102
RTVSPropertyOp1
 70
     1
102
RTVSPropertyOp2
 70
     1
102
RTVSPropertyOp3
 70
     1
102
RTVSPropertyOp4
 70
     1
102
RTVSPropertyOp5
 70
     1
102
RTVSPropertyOp6
 70
     1
102
RTVSPropertyOp7
 70
     1
102
RTVSPropertyOp8
 70
     1
102
RTVSPropertyOp9
 70
     1
102
RTVSPropertyOp10
 70
     1
102
RTVSPropertyOp11
 70
     1
102
RTVSPropertyOp12
 70
     1
102
RTVSPropertyOp13
 70
     1
102
RTVSPropertyOp14
 70
     1
102
RTVSPropertyOp15
 70
     1
102
RTVSPropertyOp16
 70
     1
102
RTVSPropertyOp17
 70
     1
102
RTVSPropertyOp18
 70
     1
102
RTVSPropertyOp19
 70
     1
102
RTVSPropertyOp20
 70
     1
102
RTVSPropertyOp21
 70
     1
102
RTVSPropertyOp22
 70
     1
102
RTVSPropertyOp23
 70
     1
102
RTVSPropertyOp24
 70
     1
102
RTVSPropertyOp25
 70
     1
102
RTVSPropertyOp26
 70
     1
102
RTVSPropertyOp27
 70
     1
102
RTVSPropertyOp28
 70
     1
102
RTVSPropertyOp29
 70
     1
102
RTVSPropertyOp30
 70
     1
102
RTVSPropertyOp31
 70
     1
102
RTVSPropertyOp32
 70
     1
  0
XRECORD
  5
D7
102
{ACAD_REACTORS
330
D6
102
}
330
D6
100
AcDbXrecord
280
     1
102
RTVSPropertyOp0
 70
     1
102
RTVSPropertyOp1
 70
     1
102
RTVSPropertyOp2
 70
     1
102
RTVSPropertyOp3
 70
     1
102
RTVSPropertyOp4
 70
     1
102
RTVSPropertyOp5
 70
     1
102
RTVSPropertyOp6
 70
     1
102
RTVSPropertyOp7
 70
     1
102
RTVSPropertyOp8
 70
     1
102
RTVSPropertyOp9
 70
     1
102
RTVSPropertyOp10
 70
     1
102
RTVSPropertyOp11
 70
     1
102
RTVSPropertyOp12
 70
     1
102
RTVSPropertyOp13
 70
     1
102
RTVSPropertyOp14
 70
     1
102
RTVSPropertyOp15
 70
     1
102
RTVSPropertyOp16
 70
     1
102
RTVSPropertyOp17
 70
     1
102
RTVSPropertyOp18
 70
     1
102
RTVSPropertyOp19
 70
     1
102
RTVSPropertyOp20
 70
     1
102
RTVSPropertyOp21
 70
     1
102
RTVSPropertyOp22
 70
     1
102
RTVSPropertyOp23
 70
     1
102
RTVSPropertyOp24
 70
     1
102
RTVSPropertyOp25
 70
     1
102
RTVSPropertyOp26
 70
     1
102
RTVSPropertyOp27
 70
     1
102
RTVSPropertyOp28
 70
     1
102
RTVSPropertyOp29
 70
     1
102
RTVSPropertyOp30
 70
     1
102
RTVSPropertyOp31
 70
     1
102
RTVSPropertyOp32
 70
     1
  0
XRECORD
  5
BB
102
{ACAD_REACTORS
330
BA
102
}
330
BA
100
AcDbXrecord
280
     1
102
RTVSPropertyOp0
 70
     1
102
RTVSPropertyOp1
 70
     1
102
RTVSPropertyOp2
 70
     1
102
RTVSPropertyOp3
 70
     1
102
RTVSPropertyOp4
 70
     1
102
RTVSPropertyOp5
 70
     1
102
RTVSPropertyOp6
 70
     1
102
RTVSPropertyOp7
 70
     1
102
RTVSPropertyOp8
 70
     1
102
RTVSPropertyOp9
 70
     1
102
RTVSPropertyOp10
 70
     1
102
RTVSPropertyOp11
 70
     1
102
RTVSPropertyOp12
 70
     1
102
RTVSPropertyOp13
 70
     1
102
RTVSPropertyOp14
 70
     1
102
RTVSPropertyOp15
 70
     1
102
RTVSPropertyOp16
 70
     1
102
RTVSPropertyOp17
 70
     1
102
RTVSPropertyOp18
 70
     1
102
RTVSPropertyOp19
 70
     1
102
RTVSPropertyOp20
 70
     1
102
RTVSPropertyOp21
 70
     1
102
RTVSPropertyOp22
 70
     1
102
RTVSPropertyOp23
 70
     1
102
RTVSPropertyOp24
 70
     1
102
RTVSPropertyOp25
 70
     1
102
RTVSPropertyOp26
 70
     1
102
RTVSPropertyOp27
 70
     1
102
RTVSPropertyOp28
 70
     1
102
RTVSPropertyOp29
 70
     1
102
RTVSPropertyOp30
 70
     1
102
RTVSPropertyOp31
 70
     1
102
RTVSPropertyOp32
 70
     1
  0
XRECORD
  5
BD
102
{ACAD_REACTORS
330
BC
102
}
330
BC
100
AcDbXrecord
280
     1
102
RTVSPropertyOp0
 70
     1
102
RTVSPropertyOp1
 70
     1
102
RTVSPropertyOp2
 70
     1
102
RTVSPropertyOp3
 70
     1
102
RTVSPropertyOp4
 70
     1
102
RTVSPropertyOp5
 70
     1
102
RTVSPropertyOp6
 70
     1
102
RTVSPropertyOp7
 70
     1
102
RTVSPropertyOp8
 70
     1
102
RTVSPropertyOp9
 70
     1
102
RTVSPropertyOp10
 70
     1
102
RTVSPropertyOp11
 70
     1
102
RTVSPropertyOp12
 70
     1
102
RTVSPropertyOp13
 70
     1
102
RTVSPropertyOp14
 70
     1
102
RTVSPropertyOp15
 70
     1
102
RTVSPropertyOp16
 70
     1
102
RTVSPropertyOp17
 70
     1
102
RTVSPropertyOp18
 70
     1
102
RTVSPropertyOp19
 70
     1
102
RTVSPropertyOp20
 70
     1
102
RTVSPropertyOp21
 70
     1
102
RTVSPropertyOp22
 70
     1
102
RTVSPropertyOp23
 70
     1
102
RTVSPropertyOp24
 70
     1
102
RTVSPropertyOp25
 70
     1
102
RTVSPropertyOp26
 70
     1
102
RTVSPropertyOp27
 70
     1
102
RTVSPropertyOp28
 70
     1
102
RTVSPropertyOp29
 70
     1
102
RTVSPropertyOp30
 70
     1
102
RTVSPropertyOp31
 70
     1
102
RTVSPropertyOp32
 70
     1
  0
XRECORD
  5
BF
102
{ACAD_REACTORS
330
BE
102
}
330
BE
100
AcDbXrecord
280
     1
102
RTVSPropertyOp0
 70
     1
102
RTVSPropertyOp1
 70
     1
102
RTVSPropertyOp2
 70
     1
102
RTVSPropertyOp3
 70
     1
102
RTVSPropertyOp4
 70
     1
102
RTVSPropertyOp5
 70
     1
102
RTVSPropertyOp6
 70
     1
102
RTVSPropertyOp7
 70
     1
102
RTVSPropertyOp8
 70
     1
102
RTVSPropertyOp9
 70
     1
102
RTVSPropertyOp10
 70
     1
102
RTVSPropertyOp11
 70
     1
102
RTVSPropertyOp12
 70
     1
102
RTVSPropertyOp13
 70
     1
102
RTVSPropertyOp14
 70
     1
102
RTVSPropertyOp15
 70
     1
102
RTVSPropertyOp16
 70
     1
102
RTVSPropertyOp17
 70
     1
102
RTVSPropertyOp18
 70
     1
102
RTVSPropertyOp19
 70
     1
102
RTVSPropertyOp20
 70
     1
102
RTVSPropertyOp21
 70
     1
102
RTVSPropertyOp22
 70
     1
102
RTVSPropertyOp23
 70
     1
102
RTVSPropertyOp24
 70
     1
102
RTVSPropertyOp25
 70
     1
102
RTVSPropertyOp26
 70
     1
102
RTVSPropertyOp27
 70
     1
102
RTVSPropertyOp28
 70
     1
102
RTVSPropertyOp29
 70
     1
102
RTVSPropertyOp30
 70
     1
102
RTVSPropertyOp31
 70
     1
102
RTVSPropertyOp32
 70
     1
  0
XRECORD
  5
C1
102
{ACAD_REACTORS
330
C0
102
}
330
C0
100
AcDbXrecord
280
     1
102
RTVSPropertyOp0
 70
     1
102
RTVSPropertyOp1
 70
     1
102
RTVSPropertyOp2
 70
     1
102
RTVSPropertyOp3
 70
     1
102
RTVSPropertyOp4
 70
     1
102
RTVSPropertyOp5
 70
     1
102
RTVSPropertyOp6
 70
     1
102
RTVSPropertyOp7
 70
     1
102
RTVSPropertyOp8
 70
     1
102
RTVSPropertyOp9
 70
     1
102
RTVSPropertyOp10
 70
     1
102
RTVSPropertyOp11
 70
     1
102
RTVSPropertyOp12
 70
     1
102
RTVSPropertyOp13
 70
     1
102
RTVSPropertyOp14
 70
     1
102
RTVSPropertyOp15
 70
     1
102
RTVSPropertyOp16
 70
     1
102
RTVSPropertyOp17
 70
     1
102
RTVSPropertyOp18
 70
     1
102
RTVSPropertyOp19
 70
     1
102
RTVSPropertyOp20
 70
     1
102
RTVSPropertyOp21
 70
     1
102
RTVSPropertyOp22
 70
     1
102
RTVSPropertyOp23
 70
     1
102
RTVSPropertyOp24
 70
     1
102
RTVSPropertyOp25
 70
     1
102
RTVSPropertyOp26
 70
     1
102
RTVSPropertyOp27
 70
     1
102
RTVSPropertyOp28
 70
     1
102
RTVSPropertyOp29
 70
     1
102
RTVSPropertyOp30
 70
     1
102
RTVSPropertyOp31
 70
     1
102
RTVSPropertyOp32
 70
     1
  0
XRECORD
  5
D5
102
{ACAD_REACTORS
330
D4
102
}
330
D4
100
AcDbXrecord
280
     1
102
RTVSPropertyOp0
 70
     1
102
RTVSPropertyOp1
 70
     1
102
RTVSPropertyOp2
 70
     1
102
RTVSPropertyOp3
 70
     1
102
RTVSPropertyOp4
 70
     1
102
RTVSPropertyOp5
 70
     1
102
RTVSPropertyOp6
 70
     1
102
RTVSPropertyOp7
 70
     1
102
RTVSPropertyOp8
 70
     1
102
RTVSPropertyOp9
 70
     1
102
RTVSPropertyOp10
 70
     1
102
RTVSPropertyOp11
 70
     1
102
RTVSPropertyOp12
 70
     1
102
RTVSPropertyOp13
 70
     1
102
RTVSPropertyOp14
 70
     1
102
RTVSPropertyOp15
 70
     1
102
RTVSPropertyOp16
 70
     1
102
RTVSPropertyOp17
 70
     1
102
RTVSPropertyOp18
 70
     1
102
RTVSPropertyOp19
 70
     1
102
RTVSPropertyOp20
 70
     1
102
RTVSPropertyOp21
 70
     1
102
RTVSPropertyOp22
 70
     1
102
RTVSPropertyOp23
 70
     1
102
RTVSPropertyOp24
 70
     1
102
RTVSPropertyOp25
 70
     1
102
RTVSPropertyOp26
 70
     1
102
RTVSPropertyOp27
 70
     1
102
RTVSPropertyOp28
 70
     1
102
RTVSPropertyOp29
 70
     1
102
RTVSPropertyOp30
 70
     1
102
RTVSPropertyOp31
 70
     1
102
RTVSPropertyOp32
 70
     1
  0
XRECORD
  5
CB
102
{ACAD_REACTORS
330
CA
102
}
330
CA
100
AcDbXrecord
280
     1
102
RTVSPropertyOp0
 70
     1
102
RTVSPropertyOp1
 70
     1
102
RTVSPropertyOp2
 70
     1
102
RTVSPropertyOp3
 70
     1
102
RTVSPropertyOp4
 70
     1
102
RTVSPropertyOp5
 70
     1
102
RTVSPropertyOp6
 70
     1
102
RTVSPropertyOp7
 70
     1
102
RTVSPropertyOp8
 70
     1
102
RTVSPropertyOp9
 70
     1
102
RTVSPropertyOp10
 70
     1
102
RTVSPropertyOp11
 70
     1
102
RTVSPropertyOp12
 70
     1
102
RTVSPropertyOp13
 70
     1
102
RTVSPropertyOp14
 70
     1
102
RTVSPropertyOp15
 70
     1
102
RTVSPropertyOp16
 70
     1
102
RTVSPropertyOp17
 70
     1
102
RTVSPropertyOp18
 70
     1
102
RTVSPropertyOp19
 70
     1
102
RTVSPropertyOp20
 70
     1
102
RTVSPropertyOp21
 70
     1
102
RTVSPropertyOp22
 70
     1
102
RTVSPropertyOp23
 70
     1
102
RTVSPropertyOp24
 70
     1
102
RTVSPropertyOp25
 70
     1
102
RTVSPropertyOp26
 70
     1
102
RTVSPropertyOp27
 70
     1
102
RTVSPropertyOp28
 70
     1
102
RTVSPropertyOp29
 70
     1
102
RTVSPropertyOp30
 70
     1
102
RTVSPropertyOp31
 70
     1
102
RTVSPropertyOp32
 70
     1
  0
XRECORD
  5
D3
102
{ACAD_REACTORS
330
D2
102
}
330
D2
100
AcDbXrecord
280
     1
102
RTVSPropertyOp0
 70
     1
102
RTVSPropertyOp1
 70
     1
102
RTVSPropertyOp2
 70
     1
102
RTVSPropertyOp3
 70
     1
102
RTVSPropertyOp4
 70
     1
102
RTVSPropertyOp5
 70
     1
102
RTVSPropertyOp6
 70
     1
102
RTVSPropertyOp7
 70
     1
102
RTVSPropertyOp8
 70
     1
102
RTVSPropertyOp9
 70
     1
102
RTVSPropertyOp10
 70
     1
102
RTVSPropertyOp11
 70
     1
102
RTVSPropertyOp12
 70
     1
102
RTVSPropertyOp13
 70
     1
102
RTVSPropertyOp14
 70
     1
102
RTVSPropertyOp15
 70
     1
102
RTVSPropertyOp16
 70
     1
102
RTVSPropertyOp17
 70
     1
102
RTVSPropertyOp18
 70
     1
102
RTVSPropertyOp19
 70
     1
102
RTVSPropertyOp20
 70
     1
102
RTVSPropertyOp21
 70
     1
102
RTVSPropertyOp22
 70
     1
102
RTVSPropertyOp23
 70
     1
102
RTVSPropertyOp24
 70
     1
102
RTVSPropertyOp25
 70
     1
102
RTVSPropertyOp26
 70
     1
102
RTVSPropertyOp27
 70
     1
102
RTVSPropertyOp28
 70
     1
102
RTVSPropertyOp29
 70
     1
102
RTVSPropertyOp30
 70
     1
102
RTVSPropertyOp31
 70
     1
102
RTVSPropertyOp32
 70
     1
  0
ENDSEC
  0
EOF
