  0
SECTION
  2
HEADER
  9
$ACADVER
  1
AC1021
  9
$ACADMAINTVER
 70
    25
  9
$DWGCODEPAGE
  3
ANSI_1256
  9
$INSBASE
 10
0.0
 20
0.0
 30
0.0
  9
$EXTMIN
 10
-28.2138
 20
-114.9291
 30
0.0
  9
$EXTMAX
 10
72.7267
 20
131.7711
 30
0.0
  9
$LIMMIN
 10
0.0
 20
0.0
  9
$LIMMAX
 10
12.0
 20
9.0
  9
$ORTHOMODE
 70
     0
  9
$REGENMODE
 70
     1
  9
$FILLMODE
 70
     1
  9
$QTEXTMODE
 70
     0
  9
$MIRRTEXT
 70
     1
  9
$LTSCALE
 40
1.0
  9
$ATTMODE
 70
     1
  9
$TEXTSIZE
 40
0.2
  9
$TRACEWID
 40
0.05
  9
$TEXTSTYLE
  7
Standard
  9
$CLAYER
  8
0
  9
$CELTYPE
  6
ByLayer
  9
$CECOLOR
 62
   256
  9
$CELTSCALE
 40
1.0
  9
$DISPSILH
 70
     0
  9
$DIMSCALE
 40
1.0
  9
$DIMASZ
 40
0.18
  9
$DIMEXO
 40
0.0625
  9
$DIMDLI
 40
0.38
  9
$DIMRND
 40
0.0
  9
$DIMDLE
 40
0.0
  9
$DIMEXE
 40
0.18
  9
$DIMTP
 40
0.0
  9
$DIMTM
 40
0.0
  9
$DIMTXT
 40
0.18
  9
$DIMCEN
 40
0.09
  9
$DIMTSZ
 40
0.0
  9
$DIMTOL
 70
     0
  9
$DIMLIM
 70
     0
  9
$DIMTIH
 70
     1
  9
$DIMTOH
 70
     1
  9
$DIMSE1
 70
     0
  9
$DIMSE2
 70
     0
  9
$DIMTAD
 70
     0
  9
$DIMZIN
 70
     0
  9
$DIMBLK
  1

  9
$DIMASO
 70
     1
  9
$DIMSHO
 70
     1
  9
$DIMPOST
  1

  9
$DIMAPOST
  1

  9
$DIMALT
 70
     0
  9
$DIMALTD
 70
     2
  9
$DIMALTF
 40
25.4
  9
$DIMLFAC
 40
1.0
  9
$DIMTOFL
 70
     0
  9
$DIMTVP
 40
0.0
  9
$DIMTIX
 70
     0
  9
$DIMSOXD
 70
     0
  9
$DIMSAH
 70
     0
  9
$DIMBLK1
  1

  9
$DIMBLK2
  1

  9
$DIMSTYLE
  2
Standard
  9
$DIMCLRD
 70
     0
  9
$DIMCLRE
 70
     0
  9
$DIMCLRT
 70
     0
  9
$DIMTFAC
 40
1.0
  9
$DIMGAP
 40
0.09
  9
$DIMJUST
 70
     0
  9
$DIMSD1
 70
     0
  9
$DIMSD2
 70
     0
  9
$DIMTOLJ
 70
     1
  9
$DIMTZIN
 70
     0
  9
$DIMALTZ
 70
     0
  9
$DIMALTTZ
 70
     0
  9
$DIMUPT
 70
     0
  9
$DIMDEC
 70
     4
  9
$DIMTDEC
 70
     4
  9
$DIMALTU
 70
     2
  9
$DIMALTTD
 70
     2
  9
$DIMTXSTY
  7
Standard
  9
$DIMAUNIT
 70
     0
  9
$DIMADEC
 70
     0
  9
$DIMALTRND
 40
0.0
  9
$DIMAZIN
 70
     0
  9
$DIMDSEP
 70
    46
  9
$DIMATFIT
 70
     3
  9
$DIMFRAC
 70
     0
  9
$DIMLDRBLK
  1

  9
$DIMLUNIT
 70
     2
  9
$DIMLWD
 70
    -2
  9
$DIMLWE
 70
    -2
  9
$DIMTMOVE
 70
     0
  9
$DIMFXL
 40
1.0
  9
$DIMFXLON
 70
     0
  9
$DIMJOGANG
 40
0.7853981633974483
  9
$DIMTFILL
 70
     0
  9
$DIMTFILLCLR
 70
     0
  9
$DIMARCSYM
 70
     0
  9
$DIMLTYPE
  6

  9
$DIMLTEX1
  6

  9
$DIMLTEX2
  6

  9
$LUNITS
 70
     2
  9
$LUPREC
 70
     4
  9
$SKETCHINC
 40
0.1
  9
$FILLETRAD
 40
0.5
  9
$AUNITS
 70
     0
  9
$AUPREC
 70
     0
  9
$MENU
  1
.
  9
$ELEVATION
 40
0.0
  9
$PELEVATION
 40
0.0
  9
$THICKNESS
 40
0.0
  9
$LIMCHECK
 70
     0
  9
$CHAMFERA
 40
0.5
  9
$CHAMFERB
 40
0.5
  9
$CHAMFERC
 40
1.0
  9
$CHAMFERD
 40
0.0
  9
$SKPOLY
 70
     0
  9
$TDCREATE
 40
2458492.407888102
  9
$TDUCREATE
 40
2458492.241221435
  9
$TDUPDATE
 40
2458492.407888241
  9
$TDUUPDATE
 40
2458492.241221574
  9
$TDINDWG
 40
0.0000000116
  9
$TDUSRTIMER
 40
0.0000000116
  9
$USRTIMER
 70
     1
  9
$ANGBASE
 50
0.0
  9
$ANGDIR
 70
     0
  9
$PDMODE
 70
     0
  9
$PDSIZE
 40
0.0
  9
$PLINEWID
 40
0.0
  9
$SPLFRAME
 70
     0
  9
$SPLINETYPE
 70
     6
  9
$SPLINESEGS
 70
     8
  9
$HANDSEED
  5
A5
  9
$SURFTAB1
 70
     6
  9
$SURFTAB2
 70
     6
  9
$SURFTYPE
 70
     6
  9
$SURFU
 70
     6
  9
$SURFV
 70
     6
  9
$UCSBASE
  2

  9
$UCSNAME
  2

  9
$UCSORG
 10
0.0
 20
0.0
 30
0.0
  9
$UCSXDIR
 10
1.0
 20
0.0
 30
0.0
  9
$UCSYDIR
 10
0.0
 20
1.0
 30
0.0
  9
$UCSORTHOREF
  2

  9
$UCSORTHOVIEW
 70
     0
  9
$UCSORGTOP
 10
0.0
 20
0.0
 30
0.0
  9
$UCSORGBOTTOM
 10
0.0
 20
0.0
 30
0.0
  9
$UCSORGLEFT
 10
0.0
 20
0.0
 30
0.0
  9
$UCSORGRIGHT
 10
0.0
 20
0.0
 30
0.0
  9
$UCSORGFRONT
 10
0.0
 20
0.0
 30
0.0
  9
$UCSORGBACK
 10
0.0
 20
0.0
 30
0.0
  9
$PUCSBASE
  2

  9
$PUCSNAME
  2

  9
$PUCSORG
 10
0.0
 20
0.0
 30
0.0
  9
$PUCSXDIR
 10
1.0
 20
0.0
 30
0.0
  9
$PUCSYDIR
 10
0.0
 20
1.0
 30
0.0
  9
$PUCSORTHOREF
  2

  9
$PUCSORTHOVIEW
 70
     0
  9
$PUCSORGTOP
 10
0.0
 20
0.0
 30
0.0
  9
$PUCSORGBOTTOM
 10
0.0
 20
0.0
 30
0.0
  9
$PUCSORGLEFT
 10
0.0
 20
0.0
 30
0.0
  9
$PUCSORGRIGHT
 10
0.0
 20
0.0
 30
0.0
  9
$PUCSORGFRONT
 10
0.0
 20
0.0
 30
0.0
  9
$PUCSORGBACK
 10
0.0
 20
0.0
 30
0.0
  9
$USERI1
 70
     0
  9
$USERI2
 70
     0
  9
$USERI3
 70
     0
  9
$USERI4
 70
     0
  9
$USERI5
 70
     0
  9
$USERR1
 40
0.0
  9
$USERR2
 40
0.0
  9
$USERR3
 40
0.0
  9
$USERR4
 40
0.0
  9
$USERR5
 40
0.0
  9
$WORLDVIEW
 70
     1
  9
$SHADEDGE
 70
     3
  9
$SHADEDIF
 70
    70
  9
$TILEMODE
 70
     1
  9
$MAXACTVP
 70
    64
  9
$PINSBASE
 10
0.0
 20
0.0
 30
0.0
  9
$PLIMCHECK
 70
     0
  9
$PEXTMIN
 10
1.000000000000000E+20
 20
1.000000000000000E+20
 30
1.000000000000000E+20
  9
$PEXTMAX
 10
-1.000000000000000E+20
 20
-1.000000000000000E+20
 30
-1.000000000000000E+20
  9
$PLIMMIN
 10
0.0
 20
0.0
  9
$PLIMMAX
 10
12.0
 20
9.0
  9
$UNITMODE
 70
     0
  9
$VISRETAIN
 70
     1
  9
$PLINEGEN
 70
     0
  9
$PSLTSCALE
 70
     1
  9
$TREEDEPTH
 70
  3020
  9
$CMLSTYLE
  2
Standard
  9
$CMLJUST
 70
     0
  9
$CMLSCALE
 40
1.0
  9
$PROXYGRAPHICS
 70
     1
  9
$MEASUREMENT
 70
     0
  9
$CELWEIGHT
370
    -1
  9
$ENDCAPS
280
     0
  9
$JOINSTYLE
280
     0
  9
$LWDISPLAY
290
     0
  9
$INSUNITS
 70
     4
  9
$HYPERLINKBASE
  1

  9
$STYLESHEET
  1

  9
$XEDIT
290
     1
  9
$CEPSNTYPE
380
     0
  9
$PSTYLEMODE
290
     1
  9
$FINGERPRINTGUID
  2
{A27089AB-2F5A-4EB3-A121-C38CDC0B4846}
  9
$VERSIONGUID
  2
{FAEB1C32-E019-11D5-929B-00C0DF256EC4}
  9
$EXTNAMES
290
     1
  9
$PSVPSCALE
 40
0.0
  9
$OLESTARTUP
290
     0
  9
$SORTENTS
280
   127
  9
$INDEXCTL
280
     0
  9
$HIDETEXT
280
     1
  9
$XCLIPFRAME
290
     0
  9
$HALOGAP
280
     0
  9
$OBSCOLOR
 70
   257
  9
$OBSLTYPE
280
     0
  9
$INTERSECTIONDISPLAY
280
     0
  9
$INTERSECTIONCOLOR
 70
   257
  9
$DIMASSOC
280
     2
  9
$PROJECTNAME
  1

  9
$CAMERADISPLAY
290
     0
  9
$LENSLENGTH
 40
50.0
  9
$CAMERAHEIGHT
 40
0.0
  9
$STEPSPERSEC
 40
2.0
  9
$STEPSIZE
 40
6.0
  9
$3DDWFPREC
 40
2.0
  9
$PSOLWIDTH
 40
0.25
  9
$PSOLHEIGHT
 40
4.0
  9
$LOFTANG1
 40
1.570796326794897
  9
$LOFTANG2
 40
1.570796326794897
  9
$LOFTMAG1
 40
0.0
  9
$LOFTMAG2
 40
0.0
  9
$LOFTPARAM
 70
     7
  9
$LOFTNORMALS
280
     1
  9
$LATITUDE
 40
37.795
  9
$LONGITUDE
 40
-122.394
  9
$NORTHDIRECTION
 40
0.0
  9
$TIMEZONE
 70
 -8000
  9
$LIGHTGLYPHDISPLAY
280
     1
  9
$TILEMODELIGHTSYNCH
280
     1
  9
$SOLIDHIST
280
     1
  9
$SHOWHIST
280
     1
  9
$DWFFRAME
280
     2
  9
$DGNFRAME
280
     2
  9
$REALWORLDSCALE
290
     1
  9
$INTERFERECOLOR
 62
   256
  9
$CSHADOW
280
     0
  9
$SHADOWPLANELOCATION
 40
0.0
  0
ENDSEC
  0
SECTION
  2
CLASSES
  0
CLASS
  1
ACDBDICTIONARYWDFLT
  2
AcDbDictionaryWithDefault
  3
ObjectDBX Classes
 90
        0
 91
        4
280
     0
281
     0
  0
CLASS
  1
VISUALSTYLE
  2
AcDbVisualStyle
  3
ObjectDBX Classes
 90
     4095
 91
        4
280
     0
281
     0
  0
CLASS
  1
MATERIAL
  2
AcDbMaterial
  3
ObjectDBX Classes
 90
     1153
 91
        4
280
     0
281
     0
  0
ENDSEC
  0
SECTION
  2
TABLES
  0
TABLE
  2
VPORT
  5
8
330
0
100
AcDbSymbolTable
 70
     1
  0
VPORT
  5
29
330
8
100
AcDbSymbolTableRecord
100
AcDbViewportTableRecord
  2
*Active
 70
     0
 10
0.0
 20
0.0
 11
1.0
 21
1.0
 12
10.42990654205607
 22
4.5
 13
0.0
 23
0.0
 14
0.5
 24
0.5
 15
0.5
 25
0.5
 16
0.0
 26
0.0
 36
1.0
 17
0.0
 27
0.0
 37
0.0
 40
9.0
 41
1.972972972850329
 42
50.0
 43
0.0
 44
0.0
 50
0.0
 51
0.0
 71
     0
 72
   100
 73
     1
 74
     3
 75
     0
 76
     0
 77
     0
 78
     0
281
     0
 65
     1
110
0.0
120
0.0
130
0.0
111
1.0
121
0.0
131
0.0
112
0.0
122
1.0
132
0.0
 79
     0
146
0.0
 60
     3
 61
     5
292
     1
282
     1
141
0.0
142
0.0
 63
   250
  0
ENDTAB
  0
TABLE
  2
LTYPE
  5
5
330
0
100
AcDbSymbolTable
 70
     1
  0
LTYPE
  5
14
330
5
100
AcDbSymbolTableRecord
100
AcDbLinetypeTableRecord
  2
ByBlock
 70
     0
  3

 72
    65
 73
     0
 40
0.0
  0
LTYPE
  5
15
330
5
100
AcDbSymbolTableRecord
100
AcDbLinetypeTableRecord
  2
ByLayer
 70
     0
  3

 72
    65
 73
     0
 40
0.0
  0
LTYPE
  5
16
330
5
100
AcDbSymbolTableRecord
100
AcDbLinetypeTableRecord
  2
Continuous
 70
     0
  3
Solid line
 72
    65
 73
     0
 40
0.0
  0
ENDTAB
  0
TABLE
  2
LAYER
  5
2
330
0
100
AcDbSymbolTable
 70
     3
  0
LAYER
  5
10
330
2
100
AcDbSymbolTableRecord
100
AcDbLayerTableRecord
  2
0
 70
     0
 62
     7
  6
Continuous
370
    -3
390
F
347
3E
  0
LAYER
  5
40
330
2
100
AcDbSymbolTableRecord
100
AcDbLayerTableRecord
  2
layer 1
 70
     0
 62
     7
  6
Continuous
370
    -3
390
F
347
3E
  0
LAYER
  5
82
330
2
100
AcDbSymbolTableRecord
100
AcDbLayerTableRecord
  2
Master Guides
 70
     0
 62
     7
  6
Continuous
370
    -3
390
F
347
3E
  0
ENDTAB
  0
TABLE
  2
STYLE
  5
3
330
0
100
AcDbSymbolTable
 70
     1
  0
STYLE
  5
11
330
3
100
AcDbSymbolTableRecord
100
AcDbTextStyleTableRecord
  2
Standard
 70
     0
 40
0.0
 41
1.0
 50
0.0
 71
     0
 42
0.2
  3
txt
  4

  0
ENDTAB
  0
TABLE
  2
VIEW
  5
6
330
0
100
AcDbSymbolTable
 70
     0
  0
ENDTAB
  0
TABLE
  2
UCS
  5
7
330
0
100
AcDbSymbolTable
 70
     0
  0
ENDTAB
  0
TABLE
  2
APPID
  5
9
330
0
100
AcDbSymbolTable
 70
     2
  0
APPID
  5
12
330
9
100
AcDbSymbolTableRecord
100
AcDbRegAppTableRecord
  2
ACAD
 70
     0
  0
APPID
  5
3F
330
9
100
AcDbSymbolTableRecord
100
AcDbRegAppTableRecord
  2
ODA
 70
     0
  0
ENDTAB
  0
TABLE
  2
DIMSTYLE
  5
A
330
0
100
AcDbSymbolTable
 70
     1
100
AcDbDimStyleTable
  0
DIMSTYLE
105
27
330
A
100
AcDbSymbolTableRecord
100
AcDbDimStyleTableRecord
  2
Standard
 70
     0
178
     0
340
11
  0
ENDTAB
  0
TABLE
  2
BLOCK_RECORD
  5
1
330
0
100
AcDbSymbolTable
 70
     1
  0
BLOCK_RECORD
  5
1F
330
1
100
AcDbSymbolTableRecord
100
AcDbBlockTableRecord
  2
*Model_Space
340
22
 70
     0
280
     1
281
     0
  0
BLOCK_RECORD
  5
1B
330
1
100
AcDbSymbolTableRecord
100
AcDbBlockTableRecord
  2
*Paper_Space
340
1E
 70
     0
280
     1
281
     0
  0
BLOCK_RECORD
  5
23
330
1
100
AcDbSymbolTableRecord
100
AcDbBlockTableRecord
  2
*Paper_Space0
340
26
 70
     0
280
     1
281
     0
  0
ENDTAB
  0
ENDSEC
  0
SECTION
  2
BLOCKS
  0
BLOCK
  5
20
330
1F
100
AcDbEntity
  8
0
100
AcDbBlockBegin
  2
*Model_Space
 70
     0
 10
0.0
 20
0.0
 30
0.0
  3
*Model_Space
  1

  0
ENDBLK
  5
21
330
1F
100
AcDbEntity
  8
0
100
AcDbBlockEnd
  0
BLOCK
  5
1C
330
1B
100
AcDbEntity
 67
     1
  8
0
100
AcDbBlockBegin
  2
*Paper_Space
 70
     0
 10
0.0
 20
0.0
 30
0.0
  3
*Paper_Space
  1

  0
ENDBLK
  5
1D
330
1B
100
AcDbEntity
 67
     1
  8
0
100
AcDbBlockEnd
  0
BLOCK
  5
24
330
23
100
AcDbEntity
  8
0
100
AcDbBlockBegin
  2
*Paper_Space0
 70
     0
 10
0.0
 20
0.0
 30
0.0
  3
*Paper_Space0
  1

  0
ENDBLK
  5
25
330
23
100
AcDbEntity
  8
0
100
AcDbBlockEnd
  0
ENDSEC
  0
SECTION
  2
ENTITIES
  0
SPLINE
  5
41
330
1F
100
AcDbEntity
  8
layer 1
100
AcDbSpline
210
0.0
220
0.0
230
1.0
 70
    11
 71
     3
 72
    20
 73
    16
 74
     0
 42
0.0000000001
 43
0.0000000001
 12
1.0
 22
0.0
 32
0.0
 13
1.0
 23
0.0
 33
0.0
 40
0.0
 40
0.0
 40
0.0
 40
0.0
 40
0.2
 40
0.2
 40
0.2
 40
0.2
 40
0.4
 40
0.4
 40
0.4
 40
0.4
 40
0.6
 40
0.6
 40
0.6
 40
0.6
 40
1.0
 40
1.0
 40
1.0
 40
1.0
 10
72.7267
 20
-114.9291
 30
0.0
 10
72.7267
 20
-114.9291
 30
0.0
 10
72.7267
 20
131.7711
 30
0.0
 10
72.7267
 20
131.7711
 30
0.0
 10
72.7267
 20
131.7711
 30
0.0
 10
72.7267
 20
131.7711
 30
0.0
 10
-28.2138
 20
131.7711
 30
0.0
 10
-28.2138
 20
131.7711
 30
0.0
 10
-28.2138
 20
131.7711
 30
0.0
 10
-28.2138
 20
131.7711
 30
0.0
 10
-28.2138
 20
-114.9291
 30
0.0
 10
-28.2138
 20
-114.9291
 30
0.0
 10
-28.2138
 20
-114.9291
 30
0.0
 10
-28.2138
 20
-114.9291
 30
0.0
 10
72.7267
 20
-114.9291
 30
0.0
 10
72.7267
 20
-114.9291
 30
0.0
  0
SPLINE
  5
42
330
1F
100
AcDbEntity
  8
layer 1
 62
     7
100
AcDbSpline
210
0.0
220
0.0
230
1.0
 70
    11
 71
     3
 72
    40
 73
    36
 74
     0
 42
0.0000000001
 43
0.0000000001
 12
1.0
 22
0.0
 32
0.0
 13
1.0
 23
0.0
 33
0.0
 40
0.0
 40
0.0
 40
0.0
 40
0.0
 40
0.1
 40
0.1
 40
0.1
 40
0.1
 40
0.2
 40
0.2
 40
0.2
 40
0.2
 40
0.3
 40
0.3
 40
0.3
 40
0.3
 40
0.4
 40
0.4
 40
0.4
 40
0.4
 40
0.5
 40
0.5
 40
0.5
 40
0.5
 40
0.6
 40
0.6
 40
0.6
 40
0.6
 40
0.7
 40
0.7
 40
0.7
 40
0.7
 40
0.8
 40
0.8
 40
0.8
 40
0.8
 40
1.0
 40
1.0
 40
1.0
 40
1.0
 10
55.8145
 20
59.6804
 30
0.0
 10
50.7912
 20
58.5765
 30
0.0
 10
50.5063
 20
63.6338
 30
0.0
 10
52.0232
 20
67.0551
 30
0.0
 10
52.0232
 20
67.0551
 30
0.0
 10
43.0653
 20
65.8582
 30
0.0
 10
38.0683
 20
72.1081
 30
0.0
 10
36.7527
 20
76.7742
 30
0.0
 10
36.7527
 20
76.7742
 30
0.0
 10
26.7375
 20
82.2481
 30
0.0
 10
35.6124
 20
90.2073
 30
0.0
 10
38.4312
 20
94.5418
 30
0.0
 10
38.4312
 20
94.5418
 30
0.0
 10
38.4312
 20
94.5418
 30
0.0
 10
30.7067
 20
89.5806
 30
0.0
 10
26.7935
 20
72.645
 30
0.0
 10
26.7935
 20
72.645
 30
0.0
 10
36.7474
 20
71.4512
 30
0.0
 10
46.649
 20
63.241
 30
0.0
 10
50.1259
 20
57.9225
 30
0.0
 10
50.1259
 20
57.9225
 30
0.0
 10
53.1557
 20
57.3026
 30
0.0
 10
56.5889
 20
57.5748
 30
0.0
 10
58.3575
 20
59.625
 30
0.0
 10
58.3575
 20
59.625
 30
0.0
 10
60.9884
 20
63.8208
 30
0.0
 10
56.1126
 20
65.4224
 30
0.0
 10
55.0576
 20
63.1606
 30
0.0
 10
55.0576
 20
63.1606
 30
0.0
 10
54.9916
 20
63.1175
 30
0.0
 10
54.1656
 20
61.882
 30
0.0
 10
55.8143
 20
59.6802
 30
0.0
 10
55.8143
 20
59.6802
 30
0.0
 10
55.8143
 20
59.6802
 30
0.0
 10
55.8145
 20
59.6804
 30
0.0
 10
55.8145
 20
59.6804
 30
0.0
  0
SPLINE
  5
43
330
1F
100
AcDbEntity
  8
layer 1
 62
     7
100
AcDbSpline
210
0.0
220
0.0
230
1.0
 70
    11
 71
     3
 72
    24
 73
    20
 74
     0
 42
0.0000000001
 43
0.0000000001
 12
1.0
 22
0.0
 32
0.0
 13
1.0
 23
0.0
 33
0.0
 40
0.0
 40
0.0
 40
0.0
 40
0.0
 40
0.1666666666666667
 40
0.1666666666666667
 40
0.1666666666666667
 40
0.1666666666666667
 40
0.3333333333333333
 40
0.3333333333333333
 40
0.3333333333333333
 40
0.3333333333333333
 40
0.5
 40
0.5
 40
0.5
 40
0.5
 40
0.6666666666666666
 40
0.6666666666666666
 40
0.6666666666666666
 40
0.6666666666666666
 40
1.0
 40
1.0
 40
1.0
 40
1.0
 10
65.2799
 20
44.7073
 30
0.0
 10
65.2799
 20
44.7073
 30
0.0
 10
65.2799
 20
79.8743
 30
0.0
 10
65.2799
 20
79.8743
 30
0.0
 10
65.2799
 20
79.8743
 30
0.0
 10
64.7018
 20
76.2908
 30
0.0
 10
62.4361
 20
71.8895
 30
0.0
 10
58.9228
 20
69.6963
 30
0.0
 10
58.9228
 20
69.6963
 30
0.0
 10
62.7755
 20
68.9706
 30
0.0
 10
69.1388
 20
60.8867
 30
0.0
 10
57.6594
 20
54.9494
 30
0.0
 10
57.6594
 20
54.9494
 30
0.0
 10
61.252
 20
53.3897
 30
0.0
 10
64.4496
 20
48.314
 30
0.0
 10
65.2797
 20
44.7073
 30
0.0
 10
65.2797
 20
44.7073
 30
0.0
 10
65.2797
 20
44.7073
 30
0.0
 10
65.2799
 20
44.7073
 30
0.0
 10
65.2799
 20
44.7073
 30
0.0
  0
SPLINE
  5
44
330
1F
100
AcDbEntity
  8
layer 1
 62
     7
100
AcDbSpline
210
0.0
220
0.0
230
1.0
 70
    11
 71
     3
 72
    40
 73
    36
 74
     0
 42
0.0000000001
 43
0.0000000001
 12
1.0
 22
0.0
 32
0.0
 13
1.0
 23
0.0
 33
0.0
 40
0.0
 40
0.0
 40
0.0
 40
0.0
 40
0.1
 40
0.1
 40
0.1
 40
0.1
 40
0.2
 40
0.2
 40
0.2
 40
0.2
 40
0.3
 40
0.3
 40
0.3
 40
0.3
 40
0.4
 40
0.4
 40
0.4
 40
0.4
 40
0.5
 40
0.5
 40
0.5
 40
0.5
 40
0.6
 40
0.6
 40
0.6
 40
0.6
 40
0.7
 40
0.7
 40
0.7
 40
0.7
 40
0.8
 40
0.8
 40
0.8
 40
0.8
 40
1.0
 40
1.0
 40
1.0
 40
1.0
 10
-12.9415
 20
59.6804
 30
0.0
 10
-7.9182
 20
58.5765
 30
0.0
 10
-7.6334
 20
63.6338
 30
0.0
 10
-9.1502
 20
67.0551
 30
0.0
 10
-9.1502
 20
67.0551
 30
0.0
 10
-0.1924
 20
65.8582
 30
0.0
 10
4.8047
 20
72.1081
 30
0.0
 10
6.1203
 20
76.7742
 30
0.0
 10
6.1203
 20
76.7742
 30
0.0
 10
16.1354
 20
82.2481
 30
0.0
 10
7.2606
 20
90.2073
 30
0.0
 10
4.4418
 20
94.5418
 30
0.0
 10
4.4418
 20
94.5418
 30
0.0
 10
4.4418
 20
94.5418
 30
0.0
 10
12.1662
 20
89.5806
 30
0.0
 10
16.0795
 20
72.645
 30
0.0
 10
16.0795
 20
72.645
 30
0.0
 10
6.1256
 20
71.4512
 30
0.0
 10
-3.776
 20
63.241
 30
0.0
 10
-7.2529
 20
57.9225
 30
0.0
 10
-7.2529
 20
57.9225
 30
0.0
 10
-10.2827
 20
57.3026
 30
0.0
 10
-13.7159
 20
57.5748
 30
0.0
 10
-15.4845
 20
59.625
 30
0.0
 10
-15.4845
 20
59.625
 30
0.0
 10
-18.1155
 20
63.8208
 30
0.0
 10
-13.2396
 20
65.4224
 30
0.0
 10
-12.1847
 20
63.1606
 30
0.0
 10
-12.1847
 20
63.1606
 30
0.0
 10
-12.1186
 20
63.1175
 30
0.0
 10
-11.2926
 20
61.882
 30
0.0
 10
-12.9413
 20
59.6802
 30
0.0
 10
-12.9413
 20
59.6802
 30
0.0
 10
-12.9413
 20
59.6802
 30
0.0
 10
-12.9415
 20
59.6804
 30
0.0
 10
-12.9415
 20
59.6804
 30
0.0
  0
SPLINE
  5
45
330
1F
100
AcDbEntity
  8
layer 1
 62
     7
100
AcDbSpline
210
0.0
220
0.0
230
1.0
 70
    11
 71
     3
 72
    24
 73
    20
 74
     0
 42
0.0000000001
 43
0.0000000001
 12
1.0
 22
0.0
 32
0.0
 13
1.0
 23
0.0
 33
0.0
 40
0.0
 40
0.0
 40
0.0
 40
0.0
 40
0.1666666666666667
 40
0.1666666666666667
 40
0.1666666666666667
 40
0.1666666666666667
 40
0.3333333333333333
 40
0.3333333333333333
 40
0.3333333333333333
 40
0.3333333333333333
 40
0.5
 40
0.5
 40
0.5
 40
0.5
 40
0.6666666666666666
 40
0.6666666666666666
 40
0.6666666666666666
 40
0.6666666666666666
 40
1.0
 40
1.0
 40
1.0
 40
1.0
 10
-22.4071
 20
44.7073
 30
0.0
 10
-22.4071
 20
44.7073
 30
0.0
 10
-22.4071
 20
79.8743
 30
0.0
 10
-22.4071
 20
79.8743
 30
0.0
 10
-22.4071
 20
79.8743
 30
0.0
 10
-21.8291
 20
76.2908
 30
0.0
 10
-19.5634
 20
71.8895
 30
0.0
 10
-16.05
 20
69.6963
 30
0.0
 10
-16.05
 20
69.6963
 30
0.0
 10
-19.9027
 20
68.9706
 30
0.0
 10
-26.266
 20
60.8867
 30
0.0
 10
-14.7866
 20
54.9494
 30
0.0
 10
-14.7866
 20
54.9494
 30
0.0
 10
-18.3793
 20
53.3897
 30
0.0
 10
-21.5768
 20
48.314
 30
0.0
 10
-22.4069
 20
44.7073
 30
0.0
 10
-22.4069
 20
44.7073
 30
0.0
 10
-22.4069
 20
44.7073
 30
0.0
 10
-22.4071
 20
44.7073
 30
0.0
 10
-22.4071
 20
44.7073
 30
0.0
  0
SPLINE
  5
46
330
1F
100
AcDbEntity
  8
layer 1
 62
     7
100
AcDbSpline
210
0.0
220
0.0
230
1.0
 70
    11
 71
     3
 72
    40
 73
    36
 74
     0
 42
0.0000000001
 43
0.0000000001
 12
1.0
 22
0.0
 32
0.0
 13
1.0
 23
0.0
 33
0.0
 40
0.0
 40
0.0
 40
0.0
 40
0.0
 40
0.1
 40
0.1
 40
0.1
 40
0.1
 40
0.2
 40
0.2
 40
0.2
 40
0.2
 40
0.3
 40
0.3
 40
0.3
 40
0.3
 40
0.4
 40
0.4
 40
0.4
 40
0.4
 40
0.5
 40
0.5
 40
0.5
 40
0.5
 40
0.6
 40
0.6
 40
0.6
 40
0.6
 40
0.7
 40
0.7
 40
0.7
 40
0.7
 40
0.8
 40
0.8
 40
0.8
 40
0.8
 40
1.0
 40
1.0
 40
1.0
 40
1.0
 10
55.8145
 20
-43.1912
 30
0.0
 10
50.7912
 20
-42.0874
 30
0.0
 10
50.5063
 20
-47.1446
 30
0.0
 10
52.0232
 20
-50.566
 30
0.0
 10
52.0232
 20
-50.566
 30
0.0
 10
43.0653
 20
-49.369
 30
0.0
 10
38.0683
 20
-55.6189
 30
0.0
 10
36.7527
 20
-60.285
 30
0.0
 10
36.7527
 20
-60.285
 30
0.0
 10
26.7375
 20
-65.759
 30
0.0
 10
35.6124
 20
-73.7182
 30
0.0
 10
38.4312
 20
-78.0527
 30
0.0
 10
38.4312
 20
-78.0527
 30
0.0
 10
38.4312
 20
-78.0527
 30
0.0
 10
30.7067
 20
-73.0915
 30
0.0
 10
26.7935
 20
-56.1559
 30
0.0
 10
26.7935
 20
-56.1559
 30
0.0
 10
36.7474
 20
-54.962
 30
0.0
 10
46.649
 20
-46.7519
 30
0.0
 10
50.1259
 20
-41.4334
 30
0.0
 10
50.1259
 20
-41.4334
 30
0.0
 10
53.1557
 20
-40.8135
 30
0.0
 10
56.5889
 20
-41.0856
 30
0.0
 10
58.3575
 20
-43.1359
 30
0.0
 10
58.3575
 20
-43.1359
 30
0.0
 10
60.9884
 20
-47.3316
 30
0.0
 10
56.1126
 20
-48.9332
 30
0.0
 10
55.0576
 20
-46.6714
 30
0.0
 10
55.0576
 20
-46.6714
 30
0.0
 10
54.9916
 20
-46.6283
 30
0.0
 10
54.1656
 20
-45.3928
 30
0.0
 10
55.8143
 20
-43.191
 30
0.0
 10
55.8143
 20
-43.191
 30
0.0
 10
55.8143
 20
-43.191
 30
0.0
 10
55.8145
 20
-43.1912
 30
0.0
 10
55.8145
 20
-43.1912
 30
0.0
  0
SPLINE
  5
47
330
1F
100
AcDbEntity
  8
layer 1
 62
     7
100
AcDbSpline
210
0.0
220
0.0
230
1.0
 70
    11
 71
     3
 72
    24
 73
    20
 74
     0
 42
0.0000000001
 43
0.0000000001
 12
1.0
 22
0.0
 32
0.0
 13
1.0
 23
0.0
 33
0.0
 40
0.0
 40
0.0
 40
0.0
 40
0.0
 40
0.1666666666666667
 40
0.1666666666666667
 40
0.1666666666666667
 40
0.1666666666666667
 40
0.3333333333333333
 40
0.3333333333333333
 40
0.3333333333333333
 40
0.3333333333333333
 40
0.5
 40
0.5
 40
0.5
 40
0.5
 40
0.6666666666666666
 40
0.6666666666666666
 40
0.6666666666666666
 40
0.6666666666666666
 40
1.0
 40
1.0
 40
1.0
 40
1.0
 10
65.2799
 20
-28.2182
 30
0.0
 10
65.2799
 20
-28.2182
 30
0.0
 10
65.2799
 20
-63.3851
 30
0.0
 10
65.2799
 20
-63.3851
 30
0.0
 10
65.2799
 20
-63.3851
 30
0.0
 10
64.7018
 20
-59.8017
 30
0.0
 10
62.4361
 20
-55.4004
 30
0.0
 10
58.9228
 20
-53.2071
 30
0.0
 10
58.9228
 20
-53.2071
 30
0.0
 10
62.7755
 20
-52.4814
 30
0.0
 10
69.1388
 20
-44.3975
 30
0.0
 10
57.6594
 20
-38.4603
 30
0.0
 10
57.6594
 20
-38.4603
 30
0.0
 10
61.252
 20
-36.9006
 30
0.0
 10
64.4496
 20
-31.8248
 30
0.0
 10
65.2797
 20
-28.2182
 30
0.0
 10
65.2797
 20
-28.2182
 30
0.0
 10
65.2797
 20
-28.2182
 30
0.0
 10
65.2799
 20
-28.2182
 30
0.0
 10
65.2799
 20
-28.2182
 30
0.0
  0
SPLINE
  5
48
330
1F
100
AcDbEntity
  8
layer 1
 62
     7
100
AcDbSpline
210
0.0
220
0.0
230
1.0
 70
    11
 71
     3
 72
    36
 73
    32
 74
     0
 42
0.0000000001
 43
0.0000000001
 12
1.0
 22
0.0
 32
0.0
 13
1.0
 23
0.0
 33
0.0
 40
0.0
 40
0.0
 40
0.0
 40
0.0
 40
0.1111111111111111
 40
0.1111111111111111
 40
0.1111111111111111
 40
0.1111111111111111
 40
0.2222222222222222
 40
0.2222222222222222
 40
0.2222222222222222
 40
0.2222222222222222
 40
0.3333333333333333
 40
0.3333333333333333
 40
0.3333333333333333
 40
0.3333333333333333
 40
0.4444444444444444
 40
0.4444444444444444
 40
0.4444444444444444
 40
0.4444444444444444
 40
0.5555555555555556
 40
0.5555555555555556
 40
0.5555555555555556
 40
0.5555555555555556
 40
0.6666666666666666
 40
0.6666666666666666
 40
0.6666666666666666
 40
0.6666666666666666
 40
0.7777777777777778
 40
0.7777777777777778
 40
0.7777777777777778
 40
0.7777777777777778
 40
1.0
 40
1.0
 40
1.0
 40
1.0
 10
45.4534
 20
-79.4536
 30
0.0
 10
55.2225
 20
-80.484
 30
0.0
 10
59.6949
 20
-70.9504
 30
0.0
 10
59.5782
 20
-67.703
 30
0.0
 10
59.5782
 20
-67.703
 30
0.0
 10
59.6742
 20
-61.1962
 30
0.0
 10
57.1698
 20
-58.5476
 30
0.0
 10
54.0378
 20
-57.0144
 30
0.0
 10
54.0378
 20
-57.0144
 30
0.0
 10
44.3106
 20
-53.5379
 30
0.0
 10
43.4197
 20
-62.0426
 30
0.0
 10
44.2167
 20
-63.5747
 30
0.0
 10
44.2167
 20
-63.5747
 30
0.0
 10
45.5977
 20
-67.6689
 30
0.0
 10
49.6791
 20
-65.6608
 30
0.0
 10
46.7984
 20
-63.7668
 30
0.0
 10
46.7984
 20
-63.7668
 30
0.0
 10
53.4103
 20
-57.7598
 30
0.0
 10
58.5984
 20
-68.1858
 30
0.0
 10
53.7066
 20
-72.7529
 30
0.0
 10
53.7066
 20
-72.7529
 30
0.0
 10
53.1015
 20
-73.7071
 30
0.0
 10
47.3984
 20
-78.0061
 30
0.0
 10
39.8709
 20
-72.7924
 30
0.0
 10
39.8709
 20
-72.7924
 30
0.0
 10
41.7626
 20
-75.7314
 30
0.0
 10
43.3624
 20
-77.8997
 30
0.0
 10
45.4534
 20
-79.4534
 30
0.0
 10
45.4534
 20
-79.4534
 30
0.0
 10
45.4534
 20
-79.4534
 30
0.0
 10
45.4534
 20
-79.4536
 30
0.0
 10
45.4534
 20
-79.4536
 30
0.0
  0
SPLINE
  5
49
330
1F
100
AcDbEntity
  8
layer 1
 62
     7
100
AcDbSpline
210
0.0
220
0.0
230
1.0
 70
    11
 71
     3
 72
    36
 73
    32
 74
     0
 42
0.0000000001
 43
0.0000000001
 12
1.0
 22
0.0
 32
0.0
 13
1.0
 23
0.0
 33
0.0
 40
0.0
 40
0.0
 40
0.0
 40
0.0
 40
0.1111111111111111
 40
0.1111111111111111
 40
0.1111111111111111
 40
0.1111111111111111
 40
0.2222222222222222
 40
0.2222222222222222
 40
0.2222222222222222
 40
0.2222222222222222
 40
0.3333333333333333
 40
0.3333333333333333
 40
0.3333333333333333
 40
0.3333333333333333
 40
0.4444444444444444
 40
0.4444444444444444
 40
0.4444444444444444
 40
0.4444444444444444
 40
0.5555555555555556
 40
0.5555555555555556
 40
0.5555555555555556
 40
0.5555555555555556
 40
0.6666666666666666
 40
0.6666666666666666
 40
0.6666666666666666
 40
0.6666666666666666
 40
0.7777777777777778
 40
0.7777777777777778
 40
0.7777777777777778
 40
0.7777777777777778
 40
1.0
 40
1.0
 40
1.0
 40
1.0
 10
35.3243
 20
-66.9056
 30
0.0
 10
35.1382
 20
-65.449
 30
0.0
 10
36.4456
 20
-64.7297
 30
0.0
 10
36.7129
 20
-66.4804
 30
0.0
 10
36.7129
 20
-66.4804
 30
0.0
 10
39.6621
 20
-74.5701
 30
0.0
 10
48.1165
 20
-77.6069
 30
0.0
 10
53.5626
 20
-72.6278
 30
0.0
 10
53.5626
 20
-72.6278
 30
0.0
 10
58.4543
 20
-68.0605
 30
0.0
 10
53.2663
 20
-57.6347
 30
0.0
 10
46.6544
 20
-63.6417
 30
0.0
 10
46.6544
 20
-63.6417
 30
0.0
 10
49.5352
 20
-65.5355
 30
0.0
 10
45.4538
 20
-67.5437
 30
0.0
 10
44.0727
 20
-63.4496
 30
0.0
 10
44.0727
 20
-63.4496
 30
0.0
 10
43.2757
 20
-61.9176
 30
0.0
 10
44.1666
 20
-53.4128
 30
0.0
 10
53.8938
 20
-56.8893
 30
0.0
 10
53.8938
 20
-56.8893
 30
0.0
 10
57.0259
 20
-58.4224
 30
0.0
 10
59.5301
 20
-61.0711
 30
0.0
 10
59.4342
 20
-67.578
 30
0.0
 10
59.4342
 20
-67.578
 30
0.0
 10
59.5509
 20
-70.8252
 30
0.0
 10
55.0785
 20
-80.3589
 30
0.0
 10
45.3094
 20
-79.3283
 30
0.0
 10
45.3094
 20
-79.3283
 30
0.0
 10
41.1133
 20
-76.6404
 30
0.0
 10
38.1515
 20
-73.1745
 30
0.0
 10
35.3243
 20
-66.9056
 30
0.0
  0
SPLINE
  5
4A
330
1F
100
AcDbEntity
  8
layer 1
 62
     7
100
AcDbSpline
210
0.0
220
0.0
230
1.0
 70
    11
 71
     3
 72
    36
 73
    32
 74
     0
 42
0.0000000001
 43
0.0000000001
 12
1.0
 22
0.0
 32
0.0
 13
1.0
 23
0.0
 33
0.0
 40
0.0
 40
0.0
 40
0.0
 40
0.0
 40
0.1111111111111111
 40
0.1111111111111111
 40
0.1111111111111111
 40
0.1111111111111111
 40
0.2222222222222222
 40
0.2222222222222222
 40
0.2222222222222222
 40
0.2222222222222222
 40
0.3333333333333333
 40
0.3333333333333333
 40
0.3333333333333333
 40
0.3333333333333333
 40
0.4444444444444444
 40
0.4444444444444444
 40
0.4444444444444444
 40
0.4444444444444444
 40
0.5555555555555556
 40
0.5555555555555556
 40
0.5555555555555556
 40
0.5555555555555556
 40
0.6666666666666666
 40
0.6666666666666666
 40
0.6666666666666666
 40
0.6666666666666666
 40
0.7777777777777778
 40
0.7777777777777778
 40
0.7777777777777778
 40
0.7777777777777778
 40
1.0
 40
1.0
 40
1.0
 40
1.0
 10
7.3915
 20
-67.0161
 30
0.0
 10
7.5775
 20
-65.5595
 30
0.0
 10
6.2701
 20
-64.8402
 30
0.0
 10
6.0028
 20
-66.5908
 30
0.0
 10
6.0028
 20
-66.5908
 30
0.0
 10
3.0537
 20
-74.6806
 30
0.0
 10
-5.4008
 20
-77.7174
 30
0.0
 10
-10.8469
 20
-72.7383
 30
0.0
 10
-10.8469
 20
-72.7383
 30
0.0
 10
-15.7385
 20
-68.171
 30
0.0
 10
-10.5506
 20
-57.7452
 30
0.0
 10
-3.9387
 20
-63.7521
 30
0.0
 10
-3.9387
 20
-63.7521
 30
0.0
 10
-6.8194
 20
-65.646
 30
0.0
 10
-2.738
 20
-67.6541
 30
0.0
 10
-1.357
 20
-63.5601
 30
0.0
 10
-1.357
 20
-63.5601
 30
0.0
 10
-0.56
 20
-62.028
 30
0.0
 10
-1.4509
 20
-53.5233
 30
0.0
 10
-11.1781
 20
-56.9998
 30
0.0
 10
-11.1781
 20
-56.9998
 30
0.0
 10
-14.3101
 20
-58.5328
 30
0.0
 10
-16.8143
 20
-61.1815
 30
0.0
 10
-16.7184
 20
-67.6884
 30
0.0
 10
-16.7184
 20
-67.6884
 30
0.0
 10
-16.8351
 20
-70.9356
 30
0.0
 10
-12.3627
 20
-80.4694
 30
0.0
 10
-2.5937
 20
-79.4388
 30
0.0
 10
-2.5937
 20
-79.4388
 30
0.0
 10
1.6025
 20
-76.7509
 30
0.0
 10
4.5643
 20
-73.2849
 30
0.0
 10
7.3915
 20
-67.0161
 30
0.0
  0
SPLINE
  5
4B
330
1F
100
AcDbEntity
  8
layer 1
 62
     7
100
AcDbSpline
210
0.0
220
0.0
230
1.0
 70
    11
 71
     3
 72
    40
 73
    36
 74
     0
 42
0.0000000001
 43
0.0000000001
 12
1.0
 22
0.0
 32
0.0
 13
1.0
 23
0.0
 33
0.0
 40
0.0
 40
0.0
 40
0.0
 40
0.0
 40
0.1
 40
0.1
 40
0.1
 40
0.1
 40
0.2
 40
0.2
 40
0.2
 40
0.2
 40
0.3
 40
0.3
 40
0.3
 40
0.3
 40
0.4
 40
0.4
 40
0.4
 40
0.4
 40
0.5
 40
0.5
 40
0.5
 40
0.5
 40
0.6
 40
0.6
 40
0.6
 40
0.6
 40
0.7
 40
0.7
 40
0.7
 40
0.7
 40
0.8
 40
0.8
 40
0.8
 40
0.8
 40
1.0
 40
1.0
 40
1.0
 40
1.0
 10
35.3243
 20
83.4077
 30
0.0
 10
35.1382
 20
81.951
 30
0.0
 10
36.4456
 20
81.2318
 30
0.0
 10
36.7129
 20
82.9824
 30
0.0
 10
36.7129
 20
82.9824
 30
0.0
 10
39.6621
 20
91.0721
 30
0.0
 10
48.1165
 20
94.1089
 30
0.0
 10
53.5626
 20
89.1298
 30
0.0
 10
53.5626
 20
89.1298
 30
0.0
 10
58.4543
 20
84.5625
 30
0.0
 10
53.2663
 20
74.1367
 30
0.0
 10
46.6544
 20
80.1437
 30
0.0
 10
46.6544
 20
80.1437
 30
0.0
 10
49.5352
 20
82.0375
 30
0.0
 10
45.4538
 20
84.0457
 30
0.0
 10
44.0727
 20
79.9516
 30
0.0
 10
44.0727
 20
79.9516
 30
0.0
 10
43.2757
 20
78.4196
 30
0.0
 10
44.1666
 20
69.9149
 30
0.0
 10
53.8938
 20
73.3914
 30
0.0
 10
53.8938
 20
73.3914
 30
0.0
 10
57.0259
 20
74.9244
 30
0.0
 10
59.5301
 20
77.5731
 30
0.0
 10
59.4342
 20
84.08
 30
0.0
 10
59.4342
 20
84.08
 30
0.0
 10
59.5509
 20
87.3272
 30
0.0
 10
55.0785
 20
96.8609
 30
0.0
 10
45.3094
 20
95.8305
 30
0.0
 10
45.3094
 20
95.8305
 30
0.0
 10
41.1133
 20
93.1426
 30
0.0
 10
38.1515
 20
89.6767
 30
0.0
 10
35.3243
 20
83.4079
 30
0.0
 10
35.3243
 20
83.4079
 30
0.0
 10
35.3243
 20
83.4079
 30
0.0
 10
35.3243
 20
83.4077
 30
0.0
 10
35.3243
 20
83.4077
 30
0.0
  0
SPLINE
  5
4C
330
1F
100
AcDbEntity
  8
layer 1
 62
     7
100
AcDbSpline
210
0.0
220
0.0
230
1.0
 70
    11
 71
     3
 72
    28
 73
    24
 74
     0
 42
0.0000000001
 43
0.0000000001
 12
1.0
 22
0.0
 32
0.0
 13
1.0
 23
0.0
 33
0.0
 40
0.0
 40
0.0
 40
0.0
 40
0.0
 40
0.1428571428571428
 40
0.1428571428571428
 40
0.1428571428571428
 40
0.1428571428571428
 40
0.2857142857142857
 40
0.2857142857142857
 40
0.2857142857142857
 40
0.2857142857142857
 40
0.4285714285714285
 40
0.4285714285714285
 40
0.4285714285714285
 40
0.4285714285714285
 40
0.5714285714285714
 40
0.5714285714285714
 40
0.5714285714285714
 40
0.5714285714285714
 40
0.7142857142857143
 40
0.7142857142857143
 40
0.7142857142857143
 40
0.7142857142857143
 40
1.0
 40
1.0
 40
1.0
 40
1.0
 10
16.8487
 20
-44.4022
 30
0.0
 10
13.8818
 20
-47.0532
 30
0.0
 10
10.3926
 20
-44.0772
 30
0.0
 10
12.0139
 20
-40.6485
 30
0.0
 10
12.0139
 20
-40.6485
 30
0.0
 10
13.4181
 20
-42.004
 30
0.0
 10
16.4832
 20
-40.5803
 30
0.0
 10
16.1598
 20
-37.0874
 30
0.0
 10
16.1598
 20
-37.0874
 30
0.0
 10
15.9804
 20
-32.5326
 30
0.0
 10
15.2745
 20
-31.1691
 30
0.0
 10
13.5001
 20
-25.9554
 30
0.0
 10
13.5001
 20
-25.9554
 30
0.0
 10
14.4099
 20
-36.8815
 30
0.0
 10
9.017
 20
-42.4246
 30
0.0
 10
1.7952
 20
-41.8211
 30
0.0
 10
1.7952
 20
-41.8211
 30
0.0
 10
5.1939
 20
-45.9736
 30
0.0
 10
11.7661
 20
-49.4275
 30
0.0
 10
16.7259
 20
-49.8933
 30
0.0
 10
16.7259
 20
-49.8933
 30
0.0
 10
16.8444
 20
-48.4945
 30
0.0
 10
16.8403
 20
-46.4567
 30
0.0
 10
16.8487
 20
-44.4022
 30
0.0
  0
SPLINE
  5
4D
330
1F
100
AcDbEntity
  8
layer 1
 62
     7
100
AcDbSpline
210
0.0
220
0.0
230
1.0
 70
    11
 71
     3
 72
    40
 73
    36
 74
     0
 42
0.0000000001
 43
0.0000000001
 12
1.0
 22
0.0
 32
0.0
 13
1.0
 23
0.0
 33
0.0
 40
0.0
 40
0.0
 40
0.0
 40
0.0
 40
0.1
 40
0.1
 40
0.1
 40
0.1
 40
0.2
 40
0.2
 40
0.2
 40
0.2
 40
0.3
 40
0.3
 40
0.3
 40
0.3
 40
0.4
 40
0.4
 40
0.4
 40
0.4
 40
0.5
 40
0.5
 40
0.5
 40
0.5
 40
0.6
 40
0.6
 40
0.6
 40
0.6
 40
0.7
 40
0.7
 40
0.7
 40
0.7
 40
0.8
 40
0.8
 40
0.8
 40
0.8
 40
1.0
 40
1.0
 40
1.0
 40
1.0
 10
-12.9415
 20
-43.1912
 30
0.0
 10
-7.9182
 20
-42.0874
 30
0.0
 10
-7.6334
 20
-47.1446
 30
0.0
 10
-9.1502
 20
-50.566
 30
0.0
 10
-9.1502
 20
-50.566
 30
0.0
 10
-0.1924
 20
-49.369
 30
0.0
 10
4.8047
 20
-55.6189
 30
0.0
 10
6.1203
 20
-60.285
 30
0.0
 10
6.1203
 20
-60.285
 30
0.0
 10
16.1354
 20
-65.759
 30
0.0
 10
7.2606
 20
-73.7182
 30
0.0
 10
4.4418
 20
-78.0527
 30
0.0
 10
4.4418
 20
-78.0527
 30
0.0
 10
4.4418
 20
-78.0527
 30
0.0
 10
12.1662
 20
-73.0915
 30
0.0
 10
16.0795
 20
-56.1559
 30
0.0
 10
16.0795
 20
-56.1559
 30
0.0
 10
6.1256
 20
-54.962
 30
0.0
 10
-3.776
 20
-46.7519
 30
0.0
 10
-7.2529
 20
-41.4334
 30
0.0
 10
-7.2529
 20
-41.4334
 30
0.0
 10
-10.2827
 20
-40.8135
 30
0.0
 10
-13.7159
 20
-41.0856
 30
0.0
 10
-15.4845
 20
-43.1359
 30
0.0
 10
-15.4845
 20
-43.1359
 30
0.0
 10
-18.1155
 20
-47.3316
 30
0.0
 10
-13.2396
 20
-48.9332
 30
0.0
 10
-12.1847
 20
-46.6714
 30
0.0
 10
-12.1847
 20
-46.6714
 30
0.0
 10
-12.1186
 20
-46.6283
 30
0.0
 10
-11.2926
 20
-45.3928
 30
0.0
 10
-12.9413
 20
-43.191
 30
0.0
 10
-12.9413
 20
-43.191
 30
0.0
 10
-12.9413
 20
-43.191
 30
0.0
 10
-12.9415
 20
-43.1912
 30
0.0
 10
-12.9415
 20
-43.1912
 30
0.0
  0
SPLINE
  5
4E
330
1F
100
AcDbEntity
  8
layer 1
 62
     7
100
AcDbSpline
210
0.0
220
0.0
230
1.0
 70
    11
 71
     3
 72
    84
 73
    80
 74
     0
 42
0.0000000001
 43
0.0000000001
 12
1.0
 22
0.0
 32
0.0
 13
1.0
 23
0.0
 33
0.0
 40
0.0
 40
0.0
 40
0.0
 40
0.0
 40
0.0476190476190476
 40
0.0476190476190476
 40
0.0476190476190476
 40
0.0476190476190476
 40
0.0952380952380952
 40
0.0952380952380952
 40
0.0952380952380952
 40
0.0952380952380952
 40
0.1428571428571428
 40
0.1428571428571428
 40
0.1428571428571428
 40
0.1428571428571428
 40
0.1904761904761905
 40
0.1904761904761905
 40
0.1904761904761905
 40
0.1904761904761905
 40
0.2380952380952381
 40
0.2380952380952381
 40
0.2380952380952381
 40
0.2380952380952381
 40
0.2857142857142857
 40
0.2857142857142857
 40
0.2857142857142857
 40
0.2857142857142857
 40
0.3333333333333333
 40
0.3333333333333333
 40
0.3333333333333333
 40
0.3333333333333333
 40
0.3809523809523809
 40
0.3809523809523809
 40
0.3809523809523809
 40
0.3809523809523809
 40
0.4285714285714285
 40
0.4285714285714285
 40
0.4285714285714285
 40
0.4285714285714285
 40
0.4761904761904762
 40
0.4761904761904762
 40
0.4761904761904762
 40
0.4761904761904762
 40
0.5238095238095238
 40
0.5238095238095238
 40
0.5238095238095238
 40
0.5238095238095238
 40
0.5714285714285714
 40
0.5714285714285714
 40
0.5714285714285714
 40
0.5714285714285714
 40
0.6190476190476191
 40
0.6190476190476191
 40
0.6190476190476191
 40
0.6190476190476191
 40
0.6666666666666666
 40
0.6666666666666666
 40
0.6666666666666666
 40
0.6666666666666666
 40
0.7142857142857143
 40
0.7142857142857143
 40
0.7142857142857143
 40
0.7142857142857143
 40
0.7619047619047619
 40
0.7619047619047619
 40
0.7619047619047619
 40
0.7619047619047619
 40
0.8095238095238095
 40
0.8095238095238095
 40
0.8095238095238095
 40
0.8095238095238095
 40
0.8571428571428571
 40
0.8571428571428571
 40
0.8571428571428571
 40
0.8571428571428571
 40
0.9047619047619048
 40
0.9047619047619048
 40
0.9047619047619048
 40
0.9047619047619048
 40
1.0
 40
1.0
 40
1.0
 40
1.0
 10
13.7534
 20
6.9371
 30
0.0
 10
12.6371
 20
7.0203
 30
0.0
 10
10.0977
 20
5.6649
 30
0.0
 10
9.7373
 20
4.1522
 30
0.0
 10
9.7373
 20
4.1522
 30
0.0
 10
8.05
 20
8.1648
 30
0.0
 10
1.7663
 20
7.407
 30
0.0
 10
1.7891
 20
3.4791
 30
0.0
 10
1.7891
 20
3.4791
 30
0.0
 10
2.9978
 20
3.604
 30
0.0
 10
4.0587
 20
3.1609
 30
0.0
 10
4.6609
 20
1.836
 30
0.0
 10
4.6609
 20
1.836
 30
0.0
 10
6.221
 20
-2.3855
 30
0.0
 10
2.2573
 20
-6.4856
 30
0.0
 10
-2.055
 20
-7.0693
 30
0.0
 10
-2.055
 20
-7.0693
 30
0.0
 10
-5.3351
 20
-7.5133
 30
0.0
 10
-8.7265
 20
-6.0048
 30
0.0
 10
-11.8297
 20
-0.9918
 30
0.0
 10
-11.8297
 20
-0.9918
 30
0.0
 10
-13.1233
 20
1.5438
 30
0.0
 10
-13.1058
 20
4.8342
 30
0.0
 10
-12.6894
 20
5.8854
 30
0.0
 10
-12.6894
 20
5.8854
 30
0.0
 10
-12.0596
 20
6.4471
 30
0.0
 10
-8.9028
 20
5.3047
 30
0.0
 10
-10.9404
 20
2.8183
 30
0.0
 10
-10.9404
 20
2.8183
 30
0.0
 10
-8.2578
 20
1.3558
 30
0.0
 10
-5.8111
 20
3.4656
 30
0.0
 10
-6.2356
 20
5.527
 30
0.0
 10
-6.2356
 20
5.527
 30
0.0
 10
-4.9934
 20
5.5597
 30
0.0
 10
-1.9562
 20
6.0791
 30
0.0
 10
-0.0188
 20
8.2437
 30
0.0
 10
-0.0188
 20
8.2437
 30
0.0
 10
-1.9562
 20
10.4085
 30
0.0
 10
-4.9934
 20
10.9277
 30
0.0
 10
-6.2356
 20
10.9604
 30
0.0
 10
-6.2356
 20
10.9604
 30
0.0
 10
-5.8113
 20
13.0218
 30
0.0
 10
-8.2578
 20
15.1316
 30
0.0
 10
-10.9404
 20
13.6692
 30
0.0
 10
-10.9404
 20
13.6692
 30
0.0
 10
-8.9026
 20
11.1827
 30
0.0
 10
-12.0596
 20
10.0403
 30
0.0
 10
-12.6894
 20
10.602
 30
0.0
 10
-12.6894
 20
10.602
 30
0.0
 10
-13.1058
 20
11.6532
 30
0.0
 10
-13.1233
 20
14.9434
 30
0.0
 10
-11.8297
 20
17.4792
 30
0.0
 10
-11.8297
 20
17.4792
 30
0.0
 10
-8.7267
 20
22.4924
 30
0.0
 10
-5.3353
 20
24.0007
 30
0.0
 10
-2.055
 20
23.5567
 30
0.0
 10
-2.055
 20
23.5567
 30
0.0
 10
2.2573
 20
22.973
 30
0.0
 10
6.221
 20
18.8729
 30
0.0
 10
4.6609
 20
14.6514
 30
0.0
 10
4.6609
 20
14.6514
 30
0.0
 10
4.0587
 20
13.3265
 30
0.0
 10
2.9978
 20
12.8835
 30
0.0
 10
1.7891
 20
13.0083
 30
0.0
 10
1.7891
 20
13.0083
 30
0.0
 10
1.7665
 20
9.0804
 30
0.0
 10
8.05
 20
8.3226
 30
0.0
 10
9.7373
 20
12.3352
 30
0.0
 10
9.7373
 20
12.3352
 30
0.0
 10
10.0977
 20
10.8225
 30
0.0
 10
12.6371
 20
9.467
 30
0.0
 10
13.7534
 20
9.5503
 30
0.0
 10
13.7534
 20
9.5503
 30
0.0
 10
13.7612
 20
8.6793
 30
0.0
 10
13.7571
 20
7.8083
 30
0.0
 10
13.7534
 20
6.9373
 30
0.0
 10
13.7534
 20
6.9373
 30
0.0
 10
13.7534
 20
6.9373
 30
0.0
 10
13.7534
 20
6.9371
 30
0.0
 10
13.7534
 20
6.9371
 30
0.0
  0
SPLINE
  5
4F
330
1F
100
AcDbEntity
  8
layer 1
 62
     7
100
AcDbSpline
210
0.0
220
0.0
230
1.0
 70
    11
 71
     3
 72
    20
 73
    16
 74
     0
 42
0.0000000001
 43
0.0000000001
 12
1.0
 22
0.0
 32
0.0
 13
1.0
 23
0.0
 33
0.0
 40
0.0
 40
0.0
 40
0.0
 40
0.0
 40
0.2
 40
0.2
 40
0.2
 40
0.2
 40
0.4
 40
0.4
 40
0.4
 40
0.4
 40
0.6
 40
0.6
 40
0.6
 40
0.6
 40
1.0
 40
1.0
 40
1.0
 40
1.0
 10
6.5497
 20
-6.29
 30
0.0
 10
5.0124
 20
-8.3925
 30
0.0
 10
3.5271
 20
-9.7936
 30
0.0
 10
0.8713
 20
-10.2037
 30
0.0
 10
0.8713
 20
-10.2037
 30
0.0
 10
9.1427
 20
-15.2849
 30
0.0
 10
7.1896
 20
-18.6279
 30
0.0
 10
6.0272
 20
-20.3041
 30
0.0
 10
6.0272
 20
-20.3041
 30
0.0
 10
7.1622
 20
-20.406
 30
0.0
 10
8.4039
 20
-20.2284
 30
0.0
 10
9.8386
 20
-22.137
 30
0.0
 10
9.8386
 20
-22.137
 30
0.0
 10
11.5401
 20
-16.5411
 30
0.0
 10
6.3675
 20
-11.1766
 30
0.0
 10
6.5497
 20
-6.29
 30
0.0
  0
SPLINE
  5
50
330
1F
100
AcDbEntity
  8
layer 1
 62
     7
100
AcDbSpline
210
0.0
220
0.0
230
1.0
 70
    11
 71
     3
 72
    36
 73
    32
 74
     0
 42
0.0000000001
 43
0.0000000001
 12
1.0
 22
0.0
 32
0.0
 13
1.0
 23
0.0
 33
0.0
 40
0.0
 40
0.0
 40
0.0
 40
0.0
 40
0.1111111111111111
 40
0.1111111111111111
 40
0.1111111111111111
 40
0.1111111111111111
 40
0.2222222222222222
 40
0.2222222222222222
 40
0.2222222222222222
 40
0.2222222222222222
 40
0.3333333333333333
 40
0.3333333333333333
 40
0.3333333333333333
 40
0.3333333333333333
 40
0.4444444444444444
 40
0.4444444444444444
 40
0.4444444444444444
 40
0.4444444444444444
 40
0.5555555555555556
 40
0.5555555555555556
 40
0.5555555555555556
 40
0.5555555555555556
 40
0.6666666666666666
 40
0.6666666666666666
 40
0.6666666666666666
 40
0.6666666666666666
 40
0.7777777777777778
 40
0.7777777777777778
 40
0.7777777777777778
 40
0.7777777777777778
 40
1.0
 40
1.0
 40
1.0
 40
1.0
 10
3.7223
 20
-27.381
 30
0.0
 10
9.5898
 20
-26.986
 30
0.0
 10
6.8575
 20
-35.3046
 30
0.0
 10
1.6405
 20
-33.1924
 30
0.0
 10
1.6405
 20
-33.1924
 30
0.0
 10
-3.0092
 20
-30.9947
 30
0.0
 10
-2.9975
 20
-25.2081
 30
0.0
 10
0.5328
 20
-21.7563
 30
0.0
 10
0.5328
 20
-21.7563
 30
0.0
 10
-2.5697
 20
-21.5895
 30
0.0
 10
-3.8171
 20
-17.6761
 30
0.0
 10
-1.755
 20
-16.3081
 30
0.0
 10
-1.755
 20
-16.3081
 30
0.0
 10
-0.1787
 20
-18.8946
 30
0.0
 10
2.3204
 20
-16.5705
 30
0.0
 10
0.0668
 20
-14.3998
 30
0.0
 10
0.0668
 20
-14.3998
 30
0.0
 10
-6.6644
 20
-11.1487
 30
0.0
 10
-9.7516
 20
-8.7318
 30
0.0
 10
-14.1424
 20
-3.864
 30
0.0
 10
-14.1424
 20
-3.864
 30
0.0
 10
-13.3571
 20
-14.3977
 30
0.0
 10
-8.9201
 20
-29.2575
 30
0.0
 10
-1.8524
 20
-37.763
 30
0.0
 10
-1.8524
 20
-37.763
 30
0.0
 10
3.1114
 20
-38.7176
 30
0.0
 10
7.2991
 20
-36.8994
 30
0.0
 10
9.1972
 20
-32.463
 30
0.0
 10
9.1972
 20
-32.463
 30
0.0
 10
11.595
 20
-26.3649
 30
0.0
 10
4.9504
 20
-23.5999
 30
0.0
 10
3.7223
 20
-27.381
 30
0.0
  0
SPLINE
  5
51
330
1F
100
AcDbEntity
  8
layer 1
 62
     7
100
AcDbSpline
210
0.0
220
0.0
230
1.0
 70
    11
 71
     3
 72
    20
 73
    16
 74
     0
 42
0.0000000001
 43
0.0000000001
 12
1.0
 22
0.0
 32
0.0
 13
1.0
 23
0.0
 33
0.0
 40
0.0
 40
0.0
 40
0.0
 40
0.0
 40
0.2
 40
0.2
 40
0.2
 40
0.2
 40
0.4
 40
0.4
 40
0.4
 40
0.4
 40
0.6
 40
0.6
 40
0.6
 40
0.6
 40
1.0
 40
1.0
 40
1.0
 40
1.0
 10
-22.4071
 20
-70.4075
 30
0.0
 10
-22.4071
 20
-72.5469
 30
0.0
 10
-22.4071
 20
-94.0224
 30
0.0
 10
-22.4071
 20
-96.0598
 30
0.0
 10
-22.4071
 20
-96.0598
 30
0.0
 10
-19.9686
 20
-88.8358
 30
0.0
 10
-14.8011
 20
-86.5093
 30
0.0
 10
-7.0764
 20
-84.5552
 30
0.0
 10
-7.0764
 20
-84.5552
 30
0.0
 10
-17.7009
 20
-82.3721
 30
0.0
 10
-19.9099
 20
-76.3291
 30
0.0
 10
-22.4071
 20
-70.4073
 30
0.0
 10
-22.4071
 20
-70.4073
 30
0.0
 10
-22.4071
 20
-70.4073
 30
0.0
 10
-22.4071
 20
-70.4075
 30
0.0
 10
-22.4071
 20
-70.4075
 30
0.0
  0
SPLINE
  5
52
330
1F
100
AcDbEntity
  8
layer 1
 62
     7
100
AcDbSpline
210
0.0
220
0.0
230
1.0
 70
    11
 71
     3
 72
    16
 73
    12
 74
     0
 42
0.0000000001
 43
0.0000000001
 12
1.0
 22
0.0
 32
0.0
 13
1.0
 23
0.0
 33
0.0
 40
0.0
 40
0.0
 40
0.0
 40
0.0
 40
0.25
 40
0.25
 40
0.25
 40
0.25
 40
0.5
 40
0.5
 40
0.5
 40
0.5
 40
1.0
 40
1.0
 40
1.0
 40
1.0
 10
-16.0687
 20
-24.33
 30
0.0
 10
-16.5203
 20
-26.2979
 30
0.0
 10
-17.1665
 20
-27.7514
 30
0.0
 10
-15.8279
 20
-32.218
 30
0.0
 10
-15.8279
 20
-32.218
 30
0.0
 10
-13.2073
 20
-36.3442
 30
0.0
 10
-11.7582
 20
-35.6232
 30
0.0
 10
-10.4892
 20
-36.0732
 30
0.0
 10
-10.4892
 20
-36.0732
 30
0.0
 10
-12.7469
 20
-32.704
 30
0.0
 10
-14.7804
 20
-28.4759
 30
0.0
 10
-16.0687
 20
-24.33
 30
0.0
  0
SPLINE
  5
53
330
1F
100
AcDbEntity
  8
layer 1
 62
     7
100
AcDbSpline
210
0.0
220
0.0
230
1.0
 70
    11
 71
     3
 72
    24
 73
    20
 74
     0
 42
0.0000000001
 43
0.0000000001
 12
1.0
 22
0.0
 32
0.0
 13
1.0
 23
0.0
 33
0.0
 40
0.0
 40
0.0
 40
0.0
 40
0.0
 40
0.1666666666666667
 40
0.1666666666666667
 40
0.1666666666666667
 40
0.1666666666666667
 40
0.3333333333333333
 40
0.3333333333333333
 40
0.3333333333333333
 40
0.3333333333333333
 40
0.5
 40
0.5
 40
0.5
 40
0.5
 40
0.6666666666666666
 40
0.6666666666666666
 40
0.6666666666666666
 40
0.6666666666666666
 40
1.0
 40
1.0
 40
1.0
 40
1.0
 10
-22.4071
 20
-28.2182
 30
0.0
 10
-22.4071
 20
-28.2182
 30
0.0
 10
-22.4071
 20
-63.3851
 30
0.0
 10
-22.4071
 20
-63.3851
 30
0.0
 10
-22.4071
 20
-63.3851
 30
0.0
 10
-21.8291
 20
-59.8017
 30
0.0
 10
-19.5634
 20
-55.4004
 30
0.0
 10
-16.05
 20
-53.2071
 30
0.0
 10
-16.05
 20
-53.2071
 30
0.0
 10
-19.9027
 20
-52.4814
 30
0.0
 10
-26.266
 20
-44.3975
 30
0.0
 10
-14.7866
 20
-38.4603
 30
0.0
 10
-14.7866
 20
-38.4603
 30
0.0
 10
-18.3793
 20
-36.9006
 30
0.0
 10
-21.5768
 20
-31.8248
 30
0.0
 10
-22.4069
 20
-28.2182
 30
0.0
 10
-22.4069
 20
-28.2182
 30
0.0
 10
-22.4069
 20
-28.2182
 30
0.0
 10
-22.4071
 20
-28.2182
 30
0.0
 10
-22.4071
 20
-28.2182
 30
0.0
  0
SPLINE
  5
54
330
1F
100
AcDbEntity
  8
layer 1
 62
     7
100
AcDbSpline
210
0.0
220
0.0
230
1.0
 70
    11
 71
     3
 72
    40
 73
    36
 74
     0
 42
0.0000000001
 43
0.0000000001
 12
1.0
 22
0.0
 32
0.0
 13
1.0
 23
0.0
 33
0.0
 40
0.0
 40
0.0
 40
0.0
 40
0.0
 40
0.1
 40
0.1
 40
0.1
 40
0.1
 40
0.2
 40
0.2
 40
0.2
 40
0.2
 40
0.3
 40
0.3
 40
0.3
 40
0.3
 40
0.4
 40
0.4
 40
0.4
 40
0.4
 40
0.5
 40
0.5
 40
0.5
 40
0.5
 40
0.6
 40
0.6
 40
0.6
 40
0.6
 40
0.7
 40
0.7
 40
0.7
 40
0.7
 40
0.8
 40
0.8
 40
0.8
 40
0.8
 40
1.0
 40
1.0
 40
1.0
 40
1.0
 10
-22.4071
 20
-98.8373
 30
0.0
 10
-22.4071
 20
-100.9767
 30
0.0
 10
-22.4071
 20
-106.8296
 30
0.0
 10
-22.4071
 20
-108.867
 30
0.0
 10
-22.4071
 20
-108.867
 30
0.0
 10
-20.6432
 20
-108.867
 30
0.0
 10
1.516
 20
-108.867
 30
0.0
 10
3.5783
 20
-108.867
 30
0.0
 10
3.5783
 20
-108.867
 30
0.0
 10
3.643
 20
-108.4863
 30
0.0
 10
3.6093
 20
-107.9588
 30
0.0
 10
3.2606
 20
-107.4409
 30
0.0
 10
3.2606
 20
-107.4409
 30
0.0
 10
-5.0536
 20
-105.9021
 30
0.0
 10
-10.0807
 20
-96.2937
 30
0.0
 10
-7.0741
 20
-87.6688
 30
0.0
 10
-7.0741
 20
-87.6688
 30
0.0
 10
-12.4535
 20
-90.2242
 30
0.0
 10
-14.0686
 20
-91.3588
 30
0.0
 10
-15.5949
 20
-92.7956
 30
0.0
 10
-15.5949
 20
-92.7956
 30
0.0
 10
-17.9189
 20
-94.7447
 30
0.0
 10
-14.8196
 20
-97.7675
 30
0.0
 10
-14.2416
 20
-93.7974
 30
0.0
 10
-14.2416
 20
-93.7974
 30
0.0
 10
-4.3209
 20
-94.7284
 30
0.0
 10
-10.9133
 20
-109.2857
 30
0.0
 10
-20.2522
 20
-102.3475
 30
0.0
 10
-20.2522
 20
-102.3475
 30
0.0
 10
-21.3046
 20
-101.5657
 30
0.0
 10
-21.9399
 20
-100.5577
 30
0.0
 10
-22.4073
 20
-98.8373
 30
0.0
 10
-22.4073
 20
-98.8373
 30
0.0
 10
-22.4073
 20
-98.8373
 30
0.0
 10
-22.4071
 20
-98.8373
 30
0.0
 10
-22.4071
 20
-98.8373
 30
0.0
  0
SPLINE
  5
55
330
1F
100
AcDbEntity
  8
layer 1
 62
     7
100
AcDbSpline
210
0.0
220
0.0
230
1.0
 70
    11
 71
     3
 72
    32
 73
    28
 74
     0
 42
0.0000000001
 43
0.0000000001
 12
1.0
 22
0.0
 32
0.0
 13
1.0
 23
0.0
 33
0.0
 40
0.0
 40
0.0
 40
0.0
 40
0.0
 40
0.125
 40
0.125
 40
0.125
 40
0.125
 40
0.25
 40
0.25
 40
0.25
 40
0.25
 40
0.375
 40
0.375
 40
0.375
 40
0.375
 40
0.5
 40
0.5
 40
0.5
 40
0.5
 40
0.625
 40
0.625
 40
0.625
 40
0.625
 40
0.75
 40
0.75
 40
0.75
 40
0.75
 40
1.0
 40
1.0
 40
1.0
 40
1.0
 10
9.2461
 20
-108.8672
 30
0.0
 10
9.1814
 20
-108.4865
 30
0.0
 10
9.2152
 20
-107.959
 30
0.0
 10
9.5639
 20
-107.4411
 30
0.0
 10
9.5639
 20
-107.4411
 30
0.0
 10
13.8189
 20
-106.8058
 30
0.0
 10
18.1452
 20
-103.1178
 30
0.0
 10
20.0222
 20
-97.3781
 30
0.0
 10
20.0222
 20
-97.3781
 30
0.0
 10
20.0222
 20
-97.3781
 30
0.0
 10
22.8377
 20
-97.3781
 30
0.0
 10
22.8377
 20
-97.3781
 30
0.0
 10
22.8377
 20
-97.3781
 30
0.0
 10
24.7148
 20
-103.118
 30
0.0
 10
29.0411
 20
-106.8058
 30
0.0
 10
33.296
 20
-107.4411
 30
0.0
 10
33.296
 20
-107.4411
 30
0.0
 10
33.6446
 20
-107.959
 30
0.0
 10
33.6785
 20
-108.4865
 30
0.0
 10
33.6138
 20
-108.8672
 30
0.0
 10
33.6138
 20
-108.8672
 30
0.0
 10
25.1034
 20
-108.8672
 30
0.0
 10
18.1052
 20
-108.8672
 30
0.0
 10
9.2463
 20
-108.8672
 30
0.0
 10
9.2463
 20
-108.8672
 30
0.0
 10
9.2463
 20
-108.8672
 30
0.0
 10
9.2461
 20
-108.8672
 30
0.0
 10
9.2461
 20
-108.8672
 30
0.0
  0
SPLINE
  5
56
330
1F
100
AcDbEntity
  8
layer 1
 62
     7
100
AcDbSpline
210
0.0
220
0.0
230
1.0
 70
    11
 71
     3
 72
    20
 73
    16
 74
     0
 42
0.0000000001
 43
0.0000000001
 12
1.0
 22
0.0
 32
0.0
 13
1.0
 23
0.0
 33
0.0
 40
0.0
 40
0.0
 40
0.0
 40
0.0
 40
0.2
 40
0.2
 40
0.2
 40
0.2
 40
0.4
 40
0.4
 40
0.4
 40
0.4
 40
0.6
 40
0.6
 40
0.6
 40
0.6
 40
1.0
 40
1.0
 40
1.0
 40
1.0
 10
7.3915
 20
-67.0309
 30
0.0
 10
7.5775
 20
-65.5743
 30
0.0
 10
6.2701
 20
-64.855
 30
0.0
 10
6.0028
 20
-66.6056
 30
0.0
 10
6.0028
 20
-66.6056
 30
0.0
 10
5.2935
 20
-68.8425
 30
0.0
 10
5.1131
 20
-69.326
 30
0.0
 10
3.7842
 20
-71.5945
 30
0.0
 10
3.7842
 20
-71.5945
 30
0.0
 10
5.0691
 20
-70.8232
 30
0.0
 10
7.0503
 20
-68.886
 30
0.0
 10
7.3917
 20
-67.0309
 30
0.0
 10
7.3917
 20
-67.0309
 30
0.0
 10
7.3917
 20
-67.0309
 30
0.0
 10
7.3915
 20
-67.0309
 30
0.0
 10
7.3915
 20
-67.0309
 30
0.0
  0
SPLINE
  5
57
330
1F
100
AcDbEntity
  8
layer 1
 62
     7
100
AcDbSpline
210
0.0
220
0.0
230
1.0
 70
    11
 71
     3
 72
    20
 73
    16
 74
     0
 42
0.0000000001
 43
0.0000000001
 12
1.0
 22
0.0
 32
0.0
 13
1.0
 23
0.0
 33
0.0
 40
0.0
 40
0.0
 40
0.0
 40
0.0
 40
0.2
 40
0.2
 40
0.2
 40
0.2
 40
0.4
 40
0.4
 40
0.4
 40
0.4
 40
0.6
 40
0.6
 40
0.6
 40
0.6
 40
1.0
 40
1.0
 40
1.0
 40
1.0
 10
-8.5543
 20
-69.3377
 30
0.0
 10
-9.097
 20
-68.0595
 30
0.0
 10
-8.0651
 20
-67.6806
 30
0.0
 10
-7.1656
 20
-68.9124
 30
0.0
 10
-7.1656
 20
-68.9124
 30
0.0
 10
-5.3375
 20
-70.7926
 30
0.0
 10
-3.1467
 20
-70.2547
 30
0.0
 10
-1.4612
 20
-70.1885
 30
0.0
 10
-1.4612
 20
-70.1885
 30
0.0
 10
-3.1514
 20
-72.2545
 30
0.0
 10
-7.7269
 20
-71.3062
 30
0.0
 10
-8.5545
 20
-69.3377
 30
0.0
 10
-8.5545
 20
-69.3377
 30
0.0
 10
-8.5545
 20
-69.3377
 30
0.0
 10
-8.5543
 20
-69.3377
 30
0.0
 10
-8.5543
 20
-69.3377
 30
0.0
  0
SPLINE
  5
58
330
1F
100
AcDbEntity
  8
layer 1
 62
     7
100
AcDbSpline
210
0.0
220
0.0
230
1.0
 70
    11
 71
     3
 72
    16
 73
    12
 74
     0
 42
0.0000000001
 43
0.0000000001
 12
1.0
 22
0.0
 32
0.0
 13
1.0
 23
0.0
 33
0.0
 40
0.0
 40
0.0
 40
0.0
 40
0.0
 40
0.25
 40
0.25
 40
0.25
 40
0.25
 40
0.5
 40
0.5
 40
0.5
 40
0.5
 40
1.0
 40
1.0
 40
1.0
 40
1.0
 10
-22.4071
 20
-16.0316
 30
0.0
 10
-22.4071
 20
-16.0316
 30
0.0
 10
-20.8378
 20
-16.956
 30
0.0
 10
-20.808
 20
-19.5401
 30
0.0
 10
-20.808
 20
-19.5401
 30
0.0
 10
-20.6473
 20
-22.4534
 30
0.0
 10
-22.4071
 20
-23.1625
 30
0.0
 10
-22.4071
 20
-23.1625
 30
0.0
 10
-22.4071
 20
-23.1625
 30
0.0
 10
-22.403
 20
-20.6885
 30
0.0
 10
-22.3629
 20
-17.3474
 30
0.0
 10
-22.4071
 20
-16.0316
 30
0.0
  0
SPLINE
  5
59
330
1F
100
AcDbEntity
  8
layer 1
 62
     7
100
AcDbSpline
210
0.0
220
0.0
230
1.0
 70
    11
 71
     3
 72
    32
 73
    28
 74
     0
 42
0.0000000001
 43
0.0000000001
 12
1.0
 22
0.0
 32
0.0
 13
1.0
 23
0.0
 33
0.0
 40
0.0
 40
0.0
 40
0.0
 40
0.0
 40
0.125
 40
0.125
 40
0.125
 40
0.125
 40
0.25
 40
0.25
 40
0.25
 40
0.25
 40
0.375
 40
0.375
 40
0.375
 40
0.375
 40
0.5
 40
0.5
 40
0.5
 40
0.5
 40
0.625
 40
0.625
 40
0.625
 40
0.625
 40
0.75
 40
0.75
 40
0.75
 40
0.75
 40
1.0
 40
1.0
 40
1.0
 40
1.0
 10
10.8931
 20
-89.8804
 30
0.0
 10
12.4678
 20
-90.2207
 30
0.0
 10
13.5574
 20
-91.9018
 30
0.0
 10
13.7053
 20
-92.5486
 30
0.0
 10
13.7053
 20
-92.5486
 30
0.0
 10
14.5407
 20
-96.2014
 30
0.0
 10
12.957
 20
-99.2396
 30
0.0
 10
10.5405
 20
-100.5855
 30
0.0
 10
10.5405
 20
-100.5855
 30
0.0
 10
3.7811
 20
-104.3508
 30
0.0
 10
-0.5964
 20
-99.5374
 30
0.0
 10
-1.168
 20
-98.8641
 30
0.0
 10
-1.168
 20
-98.8641
 30
0.0
 10
-5.5229
 20
-93.3362
 30
0.0
 10
-3.5307
 20
-83.8806
 30
0.0
 10
2.9442
 20
-84.3111
 30
0.0
 10
2.9442
 20
-84.3111
 30
0.0
 10
-4.9256
 20
-94.6769
 30
0.0
 10
8.6013
 20
-101.4125
 30
0.0
 10
10.4507
 20
-92.4675
 30
0.0
 10
10.4507
 20
-92.4675
 30
0.0
 10
7.5483
 20
-91.847
 30
0.0
 10
7.9529
 20
-89.3261
 30
0.0
 10
10.8931
 20
-89.8802
 30
0.0
 10
10.8931
 20
-89.8802
 30
0.0
 10
10.8931
 20
-89.8802
 30
0.0
 10
10.8931
 20
-89.8804
 30
0.0
 10
10.8931
 20
-89.8804
 30
0.0
  0
SPLINE
  5
5A
330
1F
100
AcDbEntity
  8
layer 1
 62
     7
100
AcDbSpline
210
0.0
220
0.0
230
1.0
 70
    11
 71
     3
 72
    96
 73
    92
 74
     0
 42
0.0000000001
 43
0.0000000001
 12
1.0
 22
0.0
 32
0.0
 13
1.0
 23
0.0
 33
0.0
 40
0.0
 40
0.0
 40
0.0
 40
0.0
 40
0.0416666666666667
 40
0.0416666666666667
 40
0.0416666666666667
 40
0.0416666666666667
 40
0.0833333333333333
 40
0.0833333333333333
 40
0.0833333333333333
 40
0.0833333333333333
 40
0.125
 40
0.125
 40
0.125
 40
0.125
 40
0.1666666666666667
 40
0.1666666666666667
 40
0.1666666666666667
 40
0.1666666666666667
 40
0.2083333333333333
 40
0.2083333333333333
 40
0.2083333333333333
 40
0.2083333333333333
 40
0.25
 40
0.25
 40
0.25
 40
0.25
 40
0.2916666666666667
 40
0.2916666666666667
 40
0.2916666666666667
 40
0.2916666666666667
 40
0.3333333333333333
 40
0.3333333333333333
 40
0.3333333333333333
 40
0.3333333333333333
 40
0.375
 40
0.375
 40
0.375
 40
0.375
 40
0.4166666666666667
 40
0.4166666666666667
 40
0.4166666666666667
 40
0.4166666666666667
 40
0.4583333333333333
 40
0.4583333333333333
 40
0.4583333333333333
 40
0.4583333333333333
 40
0.5
 40
0.5
 40
0.5
 40
0.5
 40
0.5416666666666666
 40
0.5416666666666666
 40
0.5416666666666666
 40
0.5416666666666666
 40
0.5833333333333334
 40
0.5833333333333334
 40
0.5833333333333334
 40
0.5833333333333334
 40
0.625
 40
0.625
 40
0.625
 40
0.625
 40
0.6666666666666666
 40
0.6666666666666666
 40
0.6666666666666666
 40
0.6666666666666666
 40
0.7083333333333334
 40
0.7083333333333334
 40
0.7083333333333334
 40
0.7083333333333334
 40
0.75
 40
0.75
 40
0.75
 40
0.75
 40
0.7916666666666666
 40
0.7916666666666666
 40
0.7916666666666666
 40
0.7916666666666666
 40
0.8333333333333334
 40
0.8333333333333334
 40
0.8333333333333334
 40
0.8333333333333334
 40
0.875
 40
0.875
 40
0.875
 40
0.875
 40
0.9166666666666666
 40
0.9166666666666666
 40
0.9166666666666666
 40
0.9166666666666666
 40
1.0
 40
1.0
 40
1.0
 40
1.0
 10
22.7518
 20
-0.245
 30
0.0
 10
23.1658
 20
-4.157
 30
0.0
 10
28.7151
 20
-3.6177
 30
0.0
 10
28.922
 20
-0.7818
 30
0.0
 10
28.922
 20
-0.7818
 30
0.0
 10
24.9133
 20
-1.4321
 30
0.0
 10
26.098
 20
4.3285
 30
0.0
 10
29.5655
 20
2.04
 30
0.0
 10
29.5655
 20
2.04
 30
0.0
 10
31.8832
 20
0.4764
 30
0.0
 10
32.6592
 20
-4.1749
 30
0.0
 10
31.6553
 20
-8.8705
 30
0.0
 10
31.6553
 20
-8.8705
 30
0.0
 10
31.6553
 20
-8.8705
 30
0.0
 10
31.1238
 20
-11.357
 30
0.0
 10
31.1238
 20
-11.357
 30
0.0
 10
31.1238
 20
-11.357
 30
0.0
 10
27.7899
 20
-7.6358
 30
0.0
 10
23.9916
 20
-10.1914
 30
0.0
 10
23.8788
 20
-12.6469
 30
0.0
 10
23.8788
 20
-12.6469
 30
0.0
 10
23.8835
 20
-14.6052
 30
0.0
 10
25.0218
 20
-15.9761
 30
0.0
 10
26.8675
 20
-15.9617
 30
0.0
 10
26.8675
 20
-15.9617
 30
0.0
 10
25.7387
 20
-12.5493
 30
0.0
 10
29.6037
 20
-12.6523
 30
0.0
 10
28.8501
 20
-15.3509
 30
0.0
 10
28.8501
 20
-15.3509
 30
0.0
 10
28.6376
 20
-16.5015
 30
0.0
 10
27.9559
 20
-18.2747
 30
0.0
 10
26.7851
 20
-20.7803
 30
0.0
 10
26.7851
 20
-20.7803
 30
0.0
 10
23.2786
 20
-28.2842
 30
0.0
 10
22.1373
 20
-33.2236
 30
0.0
 10
22.2536
 20
-42.1365
 30
0.0
 10
22.2536
 20
-42.1365
 30
0.0
 10
22.3092
 20
-46.3977
 30
0.0
 10
22.3431
 20
-47.558
 30
0.0
 10
22.3772
 20
-49.8446
 30
0.0
 10
22.3772
 20
-49.8446
 30
0.0
 10
21.7456
 20
-49.8563
 30
0.0
 10
21.1142
 20
-49.8498
 30
0.0
 10
20.4828
 20
-49.8446
 30
0.0
 10
20.4828
 20
-49.8446
 30
0.0
 10
20.5169
 20
-47.5582
 30
0.0
 10
20.5508
 20
-46.3977
 30
0.0
 10
20.6063
 20
-42.1365
 30
0.0
 10
20.6063
 20
-42.1365
 30
0.0
 10
20.7226
 20
-33.2236
 30
0.0
 10
19.5813
 20
-28.2842
 30
0.0
 10
16.0748
 20
-20.7803
 30
0.0
 10
16.0748
 20
-20.7803
 30
0.0
 10
14.904
 20
-18.2747
 30
0.0
 10
14.2223
 20
-16.5015
 30
0.0
 10
14.0098
 20
-15.3509
 30
0.0
 10
14.0098
 20
-15.3509
 30
0.0
 10
13.2562
 20
-12.6521
 30
0.0
 10
17.1214
 20
-12.5491
 30
0.0
 10
15.9924
 20
-15.9617
 30
0.0
 10
15.9924
 20
-15.9617
 30
0.0
 10
17.8381
 20
-15.9761
 30
0.0
 10
18.9764
 20
-14.6052
 30
0.0
 10
18.9811
 20
-12.6469
 30
0.0
 10
18.9811
 20
-12.6469
 30
0.0
 10
18.8683
 20
-10.1914
 30
0.0
 10
15.0702
 20
-7.6358
 30
0.0
 10
11.7361
 20
-11.357
 30
0.0
 10
11.7361
 20
-11.357
 30
0.0
 10
11.7361
 20
-11.357
 30
0.0
 10
11.2046
 20
-8.8705
 30
0.0
 10
11.2046
 20
-8.8705
 30
0.0
 10
11.2046
 20
-8.8705
 30
0.0
 10
10.2007
 20
-4.1749
 30
0.0
 10
10.9767
 20
0.4764
 30
0.0
 10
13.2944
 20
2.04
 30
0.0
 10
13.2944
 20
2.04
 30
0.0
 10
16.762
 20
4.3285
 30
0.0
 10
17.9466
 20
-1.4321
 30
0.0
 10
13.9379
 20
-0.7818
 30
0.0
 10
13.9379
 20
-0.7818
 30
0.0
 10
14.1448
 20
-3.6179
 30
0.0
 10
19.6941
 20
-4.1572
 30
0.0
 10
20.1081
 20
-0.245
 30
0.0
 10
20.1081
 20
-0.245
 30
0.0
 10
20.9895
 20
-0.2256
 30
0.0
 10
21.8706
 20
-0.2361
 30
0.0
 10
22.752
 20
-0.245
 30
0.0
 10
22.752
 20
-0.245
 30
0.0
 10
22.752
 20
-0.245
 30
0.0
 10
22.7518
 20
-0.245
 30
0.0
 10
22.7518
 20
-0.245
 30
0.0
  0
SPLINE
  5
5B
330
1F
100
AcDbEntity
  8
layer 1
 62
     7
100
AcDbSpline
210
0.0
220
0.0
230
1.0
 70
    11
 71
     3
 72
    28
 73
    24
 74
     0
 42
0.0000000001
 43
0.0000000001
 12
1.0
 22
0.0
 32
0.0
 13
1.0
 23
0.0
 33
0.0
 40
0.0
 40
0.0
 40
0.0
 40
0.0
 40
0.1428571428571428
 40
0.1428571428571428
 40
0.1428571428571428
 40
0.1428571428571428
 40
0.2857142857142857
 40
0.2857142857142857
 40
0.2857142857142857
 40
0.2857142857142857
 40
0.4285714285714285
 40
0.4285714285714285
 40
0.4285714285714285
 40
0.4285714285714285
 40
0.5714285714285714
 40
0.5714285714285714
 40
0.5714285714285714
 40
0.5714285714285714
 40
0.7142857142857143
 40
0.7142857142857143
 40
0.7142857142857143
 40
0.7142857142857143
 40
1.0
 40
1.0
 40
1.0
 40
1.0
 10
26.0111
 20
-44.4022
 30
0.0
 10
28.9779
 20
-47.0532
 30
0.0
 10
32.4671
 20
-44.0772
 30
0.0
 10
30.8458
 20
-40.6485
 30
0.0
 10
30.8458
 20
-40.6485
 30
0.0
 10
29.4416
 20
-42.004
 30
0.0
 10
26.3765
 20
-40.5803
 30
0.0
 10
26.6999
 20
-37.0874
 30
0.0
 10
26.6999
 20
-37.0874
 30
0.0
 10
26.8794
 20
-32.5326
 30
0.0
 10
27.5852
 20
-31.1691
 30
0.0
 10
29.3596
 20
-25.9554
 30
0.0
 10
29.3596
 20
-25.9554
 30
0.0
 10
28.4498
 20
-36.8815
 30
0.0
 10
33.8427
 20
-42.4246
 30
0.0
 10
41.0646
 20
-41.8211
 30
0.0
 10
41.0646
 20
-41.8211
 30
0.0
 10
37.6658
 20
-45.9736
 30
0.0
 10
31.0936
 20
-49.4275
 30
0.0
 10
26.1338
 20
-49.8933
 30
0.0
 10
26.1338
 20
-49.8933
 30
0.0
 10
26.0154
 20
-48.4945
 30
0.0
 10
26.0194
 20
-46.4567
 30
0.0
 10
26.0111
 20
-44.4022
 30
0.0
  0
SPLINE
  5
5C
330
1F
100
AcDbEntity
  8
layer 1
 62
     7
100
AcDbSpline
210
0.0
220
0.0
230
1.0
 70
    11
 71
     3
 72
    84
 73
    80
 74
     0
 42
0.0000000001
 43
0.0000000001
 12
1.0
 22
0.0
 32
0.0
 13
1.0
 23
0.0
 33
0.0
 40
0.0
 40
0.0
 40
0.0
 40
0.0
 40
0.0476190476190476
 40
0.0476190476190476
 40
0.0476190476190476
 40
0.0476190476190476
 40
0.0952380952380952
 40
0.0952380952380952
 40
0.0952380952380952
 40
0.0952380952380952
 40
0.1428571428571428
 40
0.1428571428571428
 40
0.1428571428571428
 40
0.1428571428571428
 40
0.1904761904761905
 40
0.1904761904761905
 40
0.1904761904761905
 40
0.1904761904761905
 40
0.2380952380952381
 40
0.2380952380952381
 40
0.2380952380952381
 40
0.2380952380952381
 40
0.2857142857142857
 40
0.2857142857142857
 40
0.2857142857142857
 40
0.2857142857142857
 40
0.3333333333333333
 40
0.3333333333333333
 40
0.3333333333333333
 40
0.3333333333333333
 40
0.3809523809523809
 40
0.3809523809523809
 40
0.3809523809523809
 40
0.3809523809523809
 40
0.4285714285714285
 40
0.4285714285714285
 40
0.4285714285714285
 40
0.4285714285714285
 40
0.4761904761904762
 40
0.4761904761904762
 40
0.4761904761904762
 40
0.4761904761904762
 40
0.5238095238095238
 40
0.5238095238095238
 40
0.5238095238095238
 40
0.5238095238095238
 40
0.5714285714285714
 40
0.5714285714285714
 40
0.5714285714285714
 40
0.5714285714285714
 40
0.6190476190476191
 40
0.6190476190476191
 40
0.6190476190476191
 40
0.6190476190476191
 40
0.6666666666666666
 40
0.6666666666666666
 40
0.6666666666666666
 40
0.6666666666666666
 40
0.7142857142857143
 40
0.7142857142857143
 40
0.7142857142857143
 40
0.7142857142857143
 40
0.7619047619047619
 40
0.7619047619047619
 40
0.7619047619047619
 40
0.7619047619047619
 40
0.8095238095238095
 40
0.8095238095238095
 40
0.8095238095238095
 40
0.8095238095238095
 40
0.8571428571428571
 40
0.8571428571428571
 40
0.8571428571428571
 40
0.8571428571428571
 40
0.9047619047619048
 40
0.9047619047619048
 40
0.9047619047619048
 40
0.9047619047619048
 40
1.0
 40
1.0
 40
1.0
 40
1.0
 10
49.0953
 20
5.527
 30
0.0
 10
48.671
 20
3.4656
 30
0.0
 10
51.1175
 20
1.3558
 30
0.0
 10
53.8001
 20
2.8183
 30
0.0
 10
53.8001
 20
2.8183
 30
0.0
 10
51.7623
 20
5.3047
 30
0.0
 10
54.9193
 20
6.4471
 30
0.0
 10
55.5492
 20
5.8854
 30
0.0
 10
55.5492
 20
5.8854
 30
0.0
 10
55.9655
 20
4.8342
 30
0.0
 10
55.983
 20
1.544
 30
0.0
 10
54.6894
 20
-0.9918
 30
0.0
 10
54.6894
 20
-0.9918
 30
0.0
 10
51.5864
 20
-6.005
 30
0.0
 10
48.195
 20
-7.5133
 30
0.0
 10
44.9147
 20
-7.0693
 30
0.0
 10
44.9147
 20
-7.0693
 30
0.0
 10
40.6024
 20
-6.4856
 30
0.0
 10
36.6387
 20
-2.3855
 30
0.0
 10
38.1988
 20
1.836
 30
0.0
 10
38.1988
 20
1.836
 30
0.0
 10
38.801
 20
3.1609
 30
0.0
 10
39.8619
 20
3.604
 30
0.0
 10
41.0706
 20
3.4791
 30
0.0
 10
41.0706
 20
3.4791
 30
0.0
 10
41.0932
 20
7.407
 30
0.0
 10
34.8098
 20
8.1648
 30
0.0
 10
33.1225
 20
4.1522
 30
0.0
 10
33.1225
 20
4.1522
 30
0.0
 10
32.7621
 20
5.6649
 30
0.0
 10
30.2226
 20
7.0204
 30
0.0
 10
29.1063
 20
6.9371
 30
0.0
 10
29.1063
 20
6.9371
 30
0.0
 10
29.1063
 20
6.9371
 30
0.0
 10
29.1011
 20
8.2437
 30
0.0
 10
29.1011
 20
8.2437
 30
0.0
 10
29.1011
 20
8.2437
 30
0.0
 10
29.1011
 20
8.2437
 30
0.0
 10
29.1063
 20
9.5503
 30
0.0
 10
29.1063
 20
9.5503
 30
0.0
 10
29.1063
 20
9.5503
 30
0.0
 10
30.2226
 20
9.4672
 30
0.0
 10
32.7621
 20
10.8225
 30
0.0
 10
33.1225
 20
12.3352
 30
0.0
 10
33.1225
 20
12.3352
 30
0.0
 10
34.8098
 20
8.3226
 30
0.0
 10
41.0934
 20
9.0804
 30
0.0
 10
41.0706
 20
13.0083
 30
0.0
 10
41.0706
 20
13.0083
 30
0.0
 10
39.8619
 20
12.8835
 30
0.0
 10
38.801
 20
13.3265
 30
0.0
 10
38.1988
 20
14.6514
 30
0.0
 10
38.1988
 20
14.6514
 30
0.0
 10
36.6387
 20
18.8729
 30
0.0
 10
40.6024
 20
22.973
 30
0.0
 10
44.9147
 20
23.5567
 30
0.0
 10
44.9147
 20
23.5567
 30
0.0
 10
48.1948
 20
24.0007
 30
0.0
 10
51.5862
 20
22.4922
 30
0.0
 10
54.6894
 20
17.4792
 30
0.0
 10
54.6894
 20
17.4792
 30
0.0
 10
55.983
 20
14.9436
 30
0.0
 10
55.9655
 20
11.6532
 30
0.0
 10
55.5492
 20
10.602
 30
0.0
 10
55.5492
 20
10.602
 30
0.0
 10
54.9193
 20
10.0403
 30
0.0
 10
51.7625
 20
11.1827
 30
0.0
 10
53.8001
 20
13.6692
 30
0.0
 10
53.8001
 20
13.6692
 30
0.0
 10
51.1175
 20
15.1316
 30
0.0
 10
48.6708
 20
13.0218
 30
0.0
 10
49.0953
 20
10.9604
 30
0.0
 10
49.0953
 20
10.9604
 30
0.0
 10
47.8531
 20
10.9277
 30
0.0
 10
44.8159
 20
10.4083
 30
0.0
 10
42.8785
 20
8.2437
 30
0.0
 10
42.8785
 20
8.2437
 30
0.0
 10
44.8159
 20
6.0789
 30
0.0
 10
47.8531
 20
5.5597
 30
0.0
 10
49.0953
 20
5.527
 30
0.0
  0
SPLINE
  5
5D
330
1F
100
AcDbEntity
  8
layer 1
 62
     7
100
AcDbSpline
210
0.0
220
0.0
230
1.0
 70
    11
 71
     3
 72
    20
 73
    16
 74
     0
 42
0.0000000001
 43
0.0000000001
 12
1.0
 22
0.0
 32
0.0
 13
1.0
 23
0.0
 33
0.0
 40
0.0
 40
0.0
 40
0.0
 40
0.0
 40
0.2
 40
0.2
 40
0.2
 40
0.2
 40
0.4
 40
0.4
 40
0.4
 40
0.4
 40
0.6
 40
0.6
 40
0.6
 40
0.6
 40
1.0
 40
1.0
 40
1.0
 40
1.0
 10
36.3099
 20
-6.29
 30
0.0
 10
37.8472
 20
-8.3925
 30
0.0
 10
39.3324
 20
-9.7936
 30
0.0
 10
41.9882
 20
-10.2037
 30
0.0
 10
41.9882
 20
-10.2037
 30
0.0
 10
33.7168
 20
-15.2849
 30
0.0
 10
35.6699
 20
-18.6279
 30
0.0
 10
36.8324
 20
-20.3041
 30
0.0
 10
36.8324
 20
-20.3041
 30
0.0
 10
35.6974
 20
-20.406
 30
0.0
 10
34.4556
 20
-20.2284
 30
0.0
 10
33.021
 20
-22.137
 30
0.0
 10
33.021
 20
-22.137
 30
0.0
 10
31.3194
 20
-16.5411
 30
0.0
 10
36.492
 20
-11.1766
 30
0.0
 10
36.3099
 20
-6.29
 30
0.0
  0
SPLINE
  5
5E
330
1F
100
AcDbEntity
  8
layer 1
 62
     7
100
AcDbSpline
210
0.0
220
0.0
230
1.0
 70
    11
 71
     3
 72
    36
 73
    32
 74
     0
 42
0.0000000001
 43
0.0000000001
 12
1.0
 22
0.0
 32
0.0
 13
1.0
 23
0.0
 33
0.0
 40
0.0
 40
0.0
 40
0.0
 40
0.0
 40
0.1111111111111111
 40
0.1111111111111111
 40
0.1111111111111111
 40
0.1111111111111111
 40
0.2222222222222222
 40
0.2222222222222222
 40
0.2222222222222222
 40
0.2222222222222222
 40
0.3333333333333333
 40
0.3333333333333333
 40
0.3333333333333333
 40
0.3333333333333333
 40
0.4444444444444444
 40
0.4444444444444444
 40
0.4444444444444444
 40
0.4444444444444444
 40
0.5555555555555556
 40
0.5555555555555556
 40
0.5555555555555556
 40
0.5555555555555556
 40
0.6666666666666666
 40
0.6666666666666666
 40
0.6666666666666666
 40
0.6666666666666666
 40
0.7777777777777778
 40
0.7777777777777778
 40
0.7777777777777778
 40
0.7777777777777778
 40
1.0
 40
1.0
 40
1.0
 40
1.0
 10
39.1374
 20
-27.381
 30
0.0
 10
33.2699
 20
-26.986
 30
0.0
 10
36.0022
 20
-35.3046
 30
0.0
 10
41.2192
 20
-33.1924
 30
0.0
 10
41.2192
 20
-33.1924
 30
0.0
 10
45.8689
 20
-30.9947
 30
0.0
 10
45.8572
 20
-25.2081
 30
0.0
 10
42.327
 20
-21.7563
 30
0.0
 10
42.327
 20
-21.7563
 30
0.0
 10
45.4294
 20
-21.5895
 30
0.0
 10
46.6768
 20
-17.6761
 30
0.0
 10
44.6147
 20
-16.3081
 30
0.0
 10
44.6147
 20
-16.3081
 30
0.0
 10
43.0384
 20
-18.8946
 30
0.0
 10
40.5393
 20
-16.5705
 30
0.0
 10
42.793
 20
-14.3998
 30
0.0
 10
42.793
 20
-14.3998
 30
0.0
 10
49.5241
 20
-11.1487
 30
0.0
 10
52.6113
 20
-8.7318
 30
0.0
 10
57.0021
 20
-3.864
 30
0.0
 10
57.0021
 20
-3.864
 30
0.0
 10
56.2168
 20
-14.3977
 30
0.0
 10
51.7799
 20
-29.2575
 30
0.0
 10
44.7121
 20
-37.763
 30
0.0
 10
44.7121
 20
-37.763
 30
0.0
 10
39.7484
 20
-38.7176
 30
0.0
 10
35.5606
 20
-36.8994
 30
0.0
 10
33.6625
 20
-32.463
 30
0.0
 10
33.6625
 20
-32.463
 30
0.0
 10
31.2647
 20
-26.3649
 30
0.0
 10
37.9093
 20
-23.5999
 30
0.0
 10
39.1374
 20
-27.381
 30
0.0
  0
SPLINE
  5
5F
330
1F
100
AcDbEntity
  8
layer 1
 62
     7
100
AcDbSpline
210
0.0
220
0.0
230
1.0
 70
    11
 71
     3
 72
    24
 73
    20
 74
     0
 42
0.0000000001
 43
0.0000000001
 12
1.0
 22
0.0
 32
0.0
 13
1.0
 23
0.0
 33
0.0
 40
0.0
 40
0.0
 40
0.0
 40
0.0
 40
0.1666666666666667
 40
0.1666666666666667
 40
0.1666666666666667
 40
0.1666666666666667
 40
0.3333333333333333
 40
0.3333333333333333
 40
0.3333333333333333
 40
0.3333333333333333
 40
0.5
 40
0.5
 40
0.5
 40
0.5
 40
0.6666666666666666
 40
0.6666666666666666
 40
0.6666666666666666
 40
0.6666666666666666
 40
1.0
 40
1.0
 40
1.0
 40
1.0
 10
65.2666
 20
-14.6743
 30
0.0
 10
65.2666
 20
-14.6743
 30
0.0
 10
63.1868
 20
-14.5929
 30
0.0
 10
61.4077
 20
-14.7647
 30
0.0
 10
61.4077
 20
-14.7647
 30
0.0
 10
63.6148
 20
1.3186
 30
0.0
 10
63.3364
 20
13.1291
 30
0.0
 10
61.4077
 20
31.2519
 30
0.0
 10
61.4077
 20
31.2519
 30
0.0
 10
63.1868
 20
31.0801
 30
0.0
 10
65.2666
 20
31.1615
 30
0.0
 10
65.2666
 20
31.1615
 30
0.0
 10
65.2666
 20
31.1615
 30
0.0
 10
65.2666
 20
31.1615
 30
0.0
 10
65.2666
 20
8.2435
 30
0.0
 10
65.2666
 20
8.2435
 30
0.0
 10
65.2666
 20
8.2435
 30
0.0
 10
65.2666
 20
8.2435
 30
0.0
 10
65.2666
 20
-14.6743
 30
0.0
 10
65.2666
 20
-14.6743
 30
0.0
  0
SPLINE
  5
60
330
1F
100
AcDbEntity
  8
layer 1
 62
     7
100
AcDbSpline
210
0.0
220
0.0
230
1.0
 70
    11
 71
     3
 72
    20
 73
    16
 74
     0
 42
0.0000000001
 43
0.0000000001
 12
1.0
 22
0.0
 32
0.0
 13
1.0
 23
0.0
 33
0.0
 40
0.0
 40
0.0
 40
0.0
 40
0.0
 40
0.2
 40
0.2
 40
0.2
 40
0.2
 40
0.4
 40
0.4
 40
0.4
 40
0.4
 40
0.6
 40
0.6
 40
0.6
 40
0.6
 40
1.0
 40
1.0
 40
1.0
 40
1.0
 10
65.2666
 20
-70.4075
 30
0.0
 10
65.2666
 20
-72.5469
 30
0.0
 10
65.2666
 20
-94.0224
 30
0.0
 10
65.2666
 20
-96.0598
 30
0.0
 10
65.2666
 20
-96.0598
 30
0.0
 10
62.8281
 20
-88.8358
 30
0.0
 10
57.6606
 20
-86.5093
 30
0.0
 10
49.9359
 20
-84.5552
 30
0.0
 10
49.9359
 20
-84.5552
 30
0.0
 10
60.5604
 20
-82.3721
 30
0.0
 10
62.7695
 20
-76.3291
 30
0.0
 10
65.2666
 20
-70.4073
 30
0.0
 10
65.2666
 20
-70.4073
 30
0.0
 10
65.2666
 20
-70.4073
 30
0.0
 10
65.2666
 20
-70.4075
 30
0.0
 10
65.2666
 20
-70.4075
 30
0.0
  0
SPLINE
  5
61
330
1F
100
AcDbEntity
  8
layer 1
 62
     7
100
AcDbSpline
210
0.0
220
0.0
230
1.0
 70
    11
 71
     3
 72
    36
 73
    32
 74
     0
 42
0.0000000001
 43
0.0000000001
 12
1.0
 22
0.0
 32
0.0
 13
1.0
 23
0.0
 33
0.0
 40
0.0
 40
0.0
 40
0.0
 40
0.0
 40
0.1111111111111111
 40
0.1111111111111111
 40
0.1111111111111111
 40
0.1111111111111111
 40
0.2222222222222222
 40
0.2222222222222222
 40
0.2222222222222222
 40
0.2222222222222222
 40
0.3333333333333333
 40
0.3333333333333333
 40
0.3333333333333333
 40
0.3333333333333333
 40
0.4444444444444444
 40
0.4444444444444444
 40
0.4444444444444444
 40
0.4444444444444444
 40
0.5555555555555556
 40
0.5555555555555556
 40
0.5555555555555556
 40
0.5555555555555556
 40
0.6666666666666666
 40
0.6666666666666666
 40
0.6666666666666666
 40
0.6666666666666666
 40
0.7777777777777778
 40
0.7777777777777778
 40
0.7777777777777778
 40
0.7777777777777778
 40
1.0
 40
1.0
 40
1.0
 40
1.0
 10
22.8564
 20
12.3594
 30
0.0
 10
23.142
 20
11.112
 30
0.0
 10
24.4502
 20
9.5944
 30
0.0
 10
25.8379
 20
9.7181
 30
0.0
 10
25.8379
 20
9.7181
 30
0.0
 10
25.8379
 20
8.735
 30
0.0
 10
25.8379
 20
7.7522
 30
0.0
 10
25.8379
 20
6.7691
 30
0.0
 10
25.8379
 20
6.7691
 30
0.0
 10
24.4502
 20
6.8928
 30
0.0
 10
23.142
 20
5.3752
 30
0.0
 10
22.8564
 20
4.1278
 30
0.0
 10
22.8564
 20
4.1278
 30
0.0
 10
21.9053
 20
4.1263
 30
0.0
 10
20.9544
 20
4.1272
 30
0.0
 10
20.0033
 20
4.1278
 30
0.0
 10
20.0033
 20
4.1278
 30
0.0
 10
19.7177
 20
5.3752
 30
0.0
 10
18.4095
 20
6.8928
 30
0.0
 10
17.0218
 20
6.7691
 30
0.0
 10
17.0218
 20
6.7691
 30
0.0
 10
17.0218
 20
7.7522
 30
0.0
 10
17.0218
 20
8.735
 30
0.0
 10
17.0218
 20
9.7181
 30
0.0
 10
17.0218
 20
9.7181
 30
0.0
 10
18.4095
 20
9.5944
 30
0.0
 10
19.7177
 20
11.112
 30
0.0
 10
20.0033
 20
12.3594
 30
0.0
 10
20.0033
 20
12.3594
 30
0.0
 10
20.9544
 20
12.361
 30
0.0
 10
21.9053
 20
12.36
 30
0.0
 10
22.8564
 20
12.3594
 30
0.0
  0
SPLINE
  5
62
330
1F
100
AcDbEntity
  8
layer 1
 62
     7
100
AcDbSpline
210
0.0
220
0.0
230
1.0
 70
    11
 71
     3
 72
    16
 73
    12
 74
     0
 42
0.0000000001
 43
0.0000000001
 12
1.0
 22
0.0
 32
0.0
 13
1.0
 23
0.0
 33
0.0
 40
0.0
 40
0.0
 40
0.0
 40
0.0
 40
0.25
 40
0.25
 40
0.25
 40
0.25
 40
0.5
 40
0.5
 40
0.5
 40
0.5
 40
1.0
 40
1.0
 40
1.0
 40
1.0
 10
58.9285
 20
-24.33
 30
0.0
 10
59.38
 20
-26.2979
 30
0.0
 10
60.0262
 20
-27.7514
 30
0.0
 10
58.6877
 20
-32.218
 30
0.0
 10
58.6877
 20
-32.218
 30
0.0
 10
56.067
 20
-36.3442
 30
0.0
 10
54.6179
 20
-35.6232
 30
0.0
 10
53.3489
 20
-36.0732
 30
0.0
 10
53.3489
 20
-36.0732
 30
0.0
 10
55.6066
 20
-32.704
 30
0.0
 10
57.6401
 20
-28.4759
 30
0.0
 10
58.9285
 20
-24.33
 30
0.0
  0
SPLINE
  5
63
330
1F
100
AcDbEntity
  8
layer 1
 62
     7
100
AcDbSpline
210
0.0
220
0.0
230
1.0
 70
    11
 71
     3
 72
    40
 73
    36
 74
     0
 42
0.0000000001
 43
0.0000000001
 12
1.0
 22
0.0
 32
0.0
 13
1.0
 23
0.0
 33
0.0
 40
0.0
 40
0.0
 40
0.0
 40
0.0
 40
0.1
 40
0.1
 40
0.1
 40
0.1
 40
0.2
 40
0.2
 40
0.2
 40
0.2
 40
0.3
 40
0.3
 40
0.3
 40
0.3
 40
0.4
 40
0.4
 40
0.4
 40
0.4
 40
0.5
 40
0.5
 40
0.5
 40
0.5
 40
0.6
 40
0.6
 40
0.6
 40
0.6
 40
0.7
 40
0.7
 40
0.7
 40
0.7
 40
0.8
 40
0.8
 40
0.8
 40
0.8
 40
1.0
 40
1.0
 40
1.0
 40
1.0
 10
65.2666
 20
-98.8373
 30
0.0
 10
65.2666
 20
-100.9767
 30
0.0
 10
65.2666
 20
-106.8296
 30
0.0
 10
65.2666
 20
-108.867
 30
0.0
 10
65.2666
 20
-108.867
 30
0.0
 10
63.5028
 20
-108.867
 30
0.0
 10
41.3435
 20
-108.867
 30
0.0
 10
39.2812
 20
-108.867
 30
0.0
 10
39.2812
 20
-108.867
 30
0.0
 10
39.2165
 20
-108.4863
 30
0.0
 10
39.2502
 20
-107.9588
 30
0.0
 10
39.5989
 20
-107.4409
 30
0.0
 10
39.5989
 20
-107.4409
 30
0.0
 10
47.9131
 20
-105.9021
 30
0.0
 10
52.9402
 20
-96.2937
 30
0.0
 10
49.9336
 20
-87.6688
 30
0.0
 10
49.9336
 20
-87.6688
 30
0.0
 10
55.3131
 20
-90.2242
 30
0.0
 10
56.9281
 20
-91.3588
 30
0.0
 10
58.4545
 20
-92.7956
 30
0.0
 10
58.4545
 20
-92.7956
 30
0.0
 10
60.7784
 20
-94.7447
 30
0.0
 10
57.6791
 20
-97.7675
 30
0.0
 10
57.1011
 20
-93.7974
 30
0.0
 10
57.1011
 20
-93.7974
 30
0.0
 10
47.1804
 20
-94.7284
 30
0.0
 10
53.7728
 20
-109.2857
 30
0.0
 10
63.1118
 20
-102.3475
 30
0.0
 10
63.1118
 20
-102.3475
 30
0.0
 10
64.1642
 20
-101.5657
 30
0.0
 10
64.7995
 20
-100.5577
 30
0.0
 10
65.2668
 20
-98.8373
 30
0.0
 10
65.2668
 20
-98.8373
 30
0.0
 10
65.2668
 20
-98.8373
 30
0.0
 10
65.2666
 20
-98.8373
 30
0.0
 10
65.2666
 20
-98.8373
 30
0.0
  0
SPLINE
  5
64
330
1F
100
AcDbEntity
  8
layer 1
 62
     7
100
AcDbSpline
210
0.0
220
0.0
230
1.0
 70
    11
 71
     3
 72
    48
 73
    44
 74
     0
 42
0.0000000001
 43
0.0000000001
 12
1.0
 22
0.0
 32
0.0
 13
1.0
 23
0.0
 33
0.0
 40
0.0
 40
0.0
 40
0.0
 40
0.0
 40
0.0833333333333333
 40
0.0833333333333333
 40
0.0833333333333333
 40
0.0833333333333333
 40
0.1666666666666667
 40
0.1666666666666667
 40
0.1666666666666667
 40
0.1666666666666667
 40
0.25
 40
0.25
 40
0.25
 40
0.25
 40
0.3333333333333333
 40
0.3333333333333333
 40
0.3333333333333333
 40
0.3333333333333333
 40
0.4166666666666667
 40
0.4166666666666667
 40
0.4166666666666667
 40
0.4166666666666667
 40
0.5
 40
0.5
 40
0.5
 40
0.5
 40
0.5833333333333334
 40
0.5833333333333334
 40
0.5833333333333334
 40
0.5833333333333334
 40
0.6666666666666666
 40
0.6666666666666666
 40
0.6666666666666666
 40
0.6666666666666666
 40
0.75
 40
0.75
 40
0.75
 40
0.75
 40
0.8333333333333334
 40
0.8333333333333334
 40
0.8333333333333334
 40
0.8333333333333334
 40
1.0
 40
1.0
 40
1.0
 40
1.0
 10
24.7372
 20
-76.5235
 30
0.0
 10
25.9228
 20
-76.7604
 30
0.0
 10
28.0974
 20
-76.23
 30
0.0
 10
28.5158
 20
-74.3356
 30
0.0
 10
28.5158
 20
-74.3356
 30
0.0
 10
29.8063
 20
-76.109
 30
0.0
 10
35.8174
 20
-80.3416
 30
0.0
 10
35.3017
 20
-82.3914
 30
0.0
 10
35.3017
 20
-82.3914
 30
0.0
 10
29.0411
 20
-82.1076
 30
0.0
 10
24.3247
 20
-86.0462
 30
0.0
 10
22.8377
 20
-91.8137
 30
0.0
 10
22.8377
 20
-91.8137
 30
0.0
 10
22.8377
 20
-91.8137
 30
0.0
 10
21.43
 20
-91.8129
 30
0.0
 10
21.43
 20
-91.8129
 30
0.0
 10
21.43
 20
-91.8129
 30
0.0
 10
21.43
 20
-91.8129
 30
0.0
 10
20.0222
 20
-91.8137
 30
0.0
 10
20.0222
 20
-91.8137
 30
0.0
 10
20.0222
 20
-91.8137
 30
0.0
 10
18.5352
 20
-86.046
 30
0.0
 10
13.8189
 20
-82.1074
 30
0.0
 10
7.5582
 20
-82.3914
 30
0.0
 10
7.5582
 20
-82.3914
 30
0.0
 10
7.0426
 20
-80.3416
 30
0.0
 10
13.0536
 20
-76.109
 30
0.0
 10
14.3441
 20
-74.3356
 30
0.0
 10
14.3441
 20
-74.3356
 30
0.0
 10
14.7626
 20
-76.2298
 30
0.0
 10
16.9369
 20
-76.7602
 30
0.0
 10
18.1228
 20
-76.5235
 30
0.0
 10
18.1228
 20
-76.5235
 30
0.0
 10
18.3145
 20
-79.2557
 30
0.0
 10
18.6147
 20
-81.5785
 30
0.0
 10
21.4302
 20
-84.0577
 30
0.0
 10
21.4302
 20
-84.0577
 30
0.0
 10
24.2454
 20
-81.5785
 30
0.0
 10
24.5459
 20
-79.2557
 30
0.0
 10
24.7376
 20
-76.5235
 30
0.0
 10
24.7376
 20
-76.5235
 30
0.0
 10
24.7376
 20
-76.5235
 30
0.0
 10
24.7372
 20
-76.5235
 30
0.0
 10
24.7372
 20
-76.5235
 30
0.0
  0
SPLINE
  5
65
330
1F
100
AcDbEntity
  8
layer 1
 62
     7
100
AcDbSpline
210
0.0
220
0.0
230
1.0
 70
    11
 71
     3
 72
    20
 73
    16
 74
     0
 42
0.0000000001
 43
0.0000000001
 12
1.0
 22
0.0
 32
0.0
 13
1.0
 23
0.0
 33
0.0
 40
0.0
 40
0.0
 40
0.0
 40
0.0
 40
0.2
 40
0.2
 40
0.2
 40
0.2
 40
0.4
 40
0.4
 40
0.4
 40
0.4
 40
0.6
 40
0.6
 40
0.6
 40
0.6
 40
1.0
 40
1.0
 40
1.0
 40
1.0
 10
35.4682
 20
-67.0309
 30
0.0
 10
35.2822
 20
-65.5743
 30
0.0
 10
36.5896
 20
-64.855
 30
0.0
 10
36.8569
 20
-66.6056
 30
0.0
 10
36.8569
 20
-66.6056
 30
0.0
 10
37.5662
 20
-68.8425
 30
0.0
 10
37.7466
 20
-69.326
 30
0.0
 10
39.0755
 20
-71.5945
 30
0.0
 10
39.0755
 20
-71.5945
 30
0.0
 10
37.7907
 20
-70.8232
 30
0.0
 10
35.8094
 20
-68.886
 30
0.0
 10
35.4681
 20
-67.0309
 30
0.0
 10
35.4681
 20
-67.0309
 30
0.0
 10
35.4681
 20
-67.0309
 30
0.0
 10
35.4682
 20
-67.0309
 30
0.0
 10
35.4682
 20
-67.0309
 30
0.0
  0
SPLINE
  5
66
330
1F
100
AcDbEntity
  8
layer 1
 62
     7
100
AcDbSpline
210
0.0
220
0.0
230
1.0
 70
    11
 71
     3
 72
    20
 73
    16
 74
     0
 42
0.0000000001
 43
0.0000000001
 12
1.0
 22
0.0
 32
0.0
 13
1.0
 23
0.0
 33
0.0
 40
0.0
 40
0.0
 40
0.0
 40
0.0
 40
0.2
 40
0.2
 40
0.2
 40
0.2
 40
0.4
 40
0.4
 40
0.4
 40
0.4
 40
0.6
 40
0.6
 40
0.6
 40
0.6
 40
1.0
 40
1.0
 40
1.0
 40
1.0
 10
51.414
 20
-69.3377
 30
0.0
 10
51.9567
 20
-68.0595
 30
0.0
 10
50.9248
 20
-67.6806
 30
0.0
 10
50.0253
 20
-68.9124
 30
0.0
 10
50.0253
 20
-68.9124
 30
0.0
 10
48.1972
 20
-70.7926
 30
0.0
 10
46.0065
 20
-70.2547
 30
0.0
 10
44.3209
 20
-70.1885
 30
0.0
 10
44.3209
 20
-70.1885
 30
0.0
 10
46.0111
 20
-72.2545
 30
0.0
 10
50.5866
 20
-71.3062
 30
0.0
 10
51.4142
 20
-69.3377
 30
0.0
 10
51.4142
 20
-69.3377
 30
0.0
 10
51.4142
 20
-69.3377
 30
0.0
 10
51.414
 20
-69.3377
 30
0.0
 10
51.414
 20
-69.3377
 30
0.0
  0
SPLINE
  5
67
330
1F
100
AcDbEntity
  8
layer 1
 62
     7
100
AcDbSpline
210
0.0
220
0.0
230
1.0
 70
    11
 71
     3
 72
    16
 73
    12
 74
     0
 42
0.0000000001
 43
0.0000000001
 12
1.0
 22
0.0
 32
0.0
 13
1.0
 23
0.0
 33
0.0
 40
0.0
 40
0.0
 40
0.0
 40
0.0
 40
0.25
 40
0.25
 40
0.25
 40
0.25
 40
0.5
 40
0.5
 40
0.5
 40
0.5
 40
1.0
 40
1.0
 40
1.0
 40
1.0
 10
65.2666
 20
-16.0316
 30
0.0
 10
65.2666
 20
-16.0316
 30
0.0
 10
63.6974
 20
-16.956
 30
0.0
 10
63.6676
 20
-19.5401
 30
0.0
 10
63.6676
 20
-19.5401
 30
0.0
 10
63.5068
 20
-22.4534
 30
0.0
 10
65.2666
 20
-23.1625
 30
0.0
 10
65.2666
 20
-23.1625
 30
0.0
 10
65.2666
 20
-23.1625
 30
0.0
 10
65.2625
 20
-20.6885
 30
0.0
 10
65.2224
 20
-17.3474
 30
0.0
 10
65.2666
 20
-16.0316
 30
0.0
  0
SPLINE
  5
68
330
1F
100
AcDbEntity
  8
layer 1
 62
     7
100
AcDbSpline
210
0.0
220
0.0
230
1.0
 70
    11
 71
     3
 72
    40
 73
    36
 74
     0
 42
0.0000000001
 43
0.0000000001
 12
1.0
 22
0.0
 32
0.0
 13
1.0
 23
0.0
 33
0.0
 40
0.0
 40
0.0
 40
0.0
 40
0.0
 40
0.1
 40
0.1
 40
0.1
 40
0.1
 40
0.2
 40
0.2
 40
0.2
 40
0.2
 40
0.3
 40
0.3
 40
0.3
 40
0.3
 40
0.4
 40
0.4
 40
0.4
 40
0.4
 40
0.5
 40
0.5
 40
0.5
 40
0.5
 40
0.6
 40
0.6
 40
0.6
 40
0.6
 40
0.7
 40
0.7
 40
0.7
 40
0.7
 40
0.8
 40
0.8
 40
0.8
 40
0.8
 40
1.0
 40
1.0
 40
1.0
 40
1.0
 10
23.1829
 20
-60.3027
 30
0.0
 10
23.4625
 20
-64.9583
 30
0.0
 10
24.8835
 20
-67.9465
 30
0.0
 10
24.7685
 20
-70.013
 30
0.0
 10
24.7685
 20
-70.013
 30
0.0
 10
24.676
 20
-72.2711
 30
0.0
 10
23.4449
 20
-71.9533
 30
0.0
 10
22.9803
 20
-71.4599
 30
0.0
 10
22.9803
 20
-71.4599
 30
0.0
 10
22.5552
 20
-71.0085
 30
0.0
 10
22.9684
 20
-70.4564
 30
0.0
 10
21.43
 20
-70.6395
 30
0.0
 10
21.43
 20
-70.6395
 30
0.0
 10
19.8915
 20
-70.4566
 30
0.0
 10
20.3047
 20
-71.0085
 30
0.0
 10
19.8796
 20
-71.4599
 30
0.0
 10
19.8796
 20
-71.4599
 30
0.0
 10
19.415
 20
-71.9533
 30
0.0
 10
18.1837
 20
-72.2711
 30
0.0
 10
18.0914
 20
-70.013
 30
0.0
 10
18.0914
 20
-70.013
 30
0.0
 10
17.9766
 20
-67.9465
 30
0.0
 10
19.3974
 20
-64.9583
 30
0.0
 10
19.677
 20
-60.3027
 30
0.0
 10
19.677
 20
-60.3027
 30
0.0
 10
19.7427
 20
-57.4091
 30
0.0
 10
20.7559
 20
-57.3561
 30
0.0
 10
21.4302
 20
-57.3115
 30
0.0
 10
21.4302
 20
-57.3115
 30
0.0
 10
22.1044
 20
-57.3559
 30
0.0
 10
23.1177
 20
-57.4089
 30
0.0
 10
23.1833
 20
-60.3027
 30
0.0
 10
23.1833
 20
-60.3027
 30
0.0
 10
23.1833
 20
-60.3027
 30
0.0
 10
23.1829
 20
-60.3027
 30
0.0
 10
23.1829
 20
-60.3027
 30
0.0
  0
SPLINE
  5
69
330
1F
100
AcDbEntity
  8
layer 1
 62
     7
100
AcDbSpline
210
0.0
220
0.0
230
1.0
 70
    11
 71
     3
 72
    32
 73
    28
 74
     0
 42
0.0000000001
 43
0.0000000001
 12
1.0
 22
0.0
 32
0.0
 13
1.0
 23
0.0
 33
0.0
 40
0.0
 40
0.0
 40
0.0
 40
0.0
 40
0.125
 40
0.125
 40
0.125
 40
0.125
 40
0.25
 40
0.25
 40
0.25
 40
0.25
 40
0.375
 40
0.375
 40
0.375
 40
0.375
 40
0.5
 40
0.5
 40
0.5
 40
0.5
 40
0.625
 40
0.625
 40
0.625
 40
0.625
 40
0.75
 40
0.75
 40
0.75
 40
0.75
 40
1.0
 40
1.0
 40
1.0
 40
1.0
 10
31.9664
 20
-89.8804
 30
0.0
 10
30.3917
 20
-90.2207
 30
0.0
 10
29.3021
 20
-91.9018
 30
0.0
 10
29.1542
 20
-92.5486
 30
0.0
 10
29.1542
 20
-92.5486
 30
0.0
 10
28.3189
 20
-96.2014
 30
0.0
 10
29.9025
 20
-99.2396
 30
0.0
 10
32.319
 20
-100.5855
 30
0.0
 10
32.319
 20
-100.5855
 30
0.0
 10
39.0784
 20
-104.3508
 30
0.0
 10
43.4559
 20
-99.5374
 30
0.0
 10
44.0275
 20
-98.8641
 30
0.0
 10
44.0275
 20
-98.8641
 30
0.0
 10
48.3824
 20
-93.3362
 30
0.0
 10
46.3903
 20
-83.8806
 30
0.0
 10
39.9153
 20
-84.3111
 30
0.0
 10
39.9153
 20
-84.3111
 30
0.0
 10
47.7851
 20
-94.6769
 30
0.0
 10
34.2582
 20
-101.4125
 30
0.0
 10
32.4088
 20
-92.4675
 30
0.0
 10
32.4088
 20
-92.4675
 30
0.0
 10
35.3112
 20
-91.847
 30
0.0
 10
34.9066
 20
-89.3261
 30
0.0
 10
31.9664
 20
-89.8802
 30
0.0
 10
31.9664
 20
-89.8802
 30
0.0
 10
31.9664
 20
-89.8802
 30
0.0
 10
31.9664
 20
-89.8804
 30
0.0
 10
31.9664
 20
-89.8804
 30
0.0
  0
SPLINE
  5
6A
330
1F
100
AcDbEntity
  8
layer 1
 62
     7
100
AcDbSpline
210
0.0
220
0.0
230
1.0
 70
    11
 71
     3
 72
    96
 73
    92
 74
     0
 42
0.0000000001
 43
0.0000000001
 12
1.0
 22
0.0
 32
0.0
 13
1.0
 23
0.0
 33
0.0
 40
0.0
 40
0.0
 40
0.0
 40
0.0
 40
0.0416666666666667
 40
0.0416666666666667
 40
0.0416666666666667
 40
0.0416666666666667
 40
0.0833333333333333
 40
0.0833333333333333
 40
0.0833333333333333
 40
0.0833333333333333
 40
0.125
 40
0.125
 40
0.125
 40
0.125
 40
0.1666666666666667
 40
0.1666666666666667
 40
0.1666666666666667
 40
0.1666666666666667
 40
0.2083333333333333
 40
0.2083333333333333
 40
0.2083333333333333
 40
0.2083333333333333
 40
0.25
 40
0.25
 40
0.25
 40
0.25
 40
0.2916666666666667
 40
0.2916666666666667
 40
0.2916666666666667
 40
0.2916666666666667
 40
0.3333333333333333
 40
0.3333333333333333
 40
0.3333333333333333
 40
0.3333333333333333
 40
0.375
 40
0.375
 40
0.375
 40
0.375
 40
0.4166666666666667
 40
0.4166666666666667
 40
0.4166666666666667
 40
0.4166666666666667
 40
0.4583333333333333
 40
0.4583333333333333
 40
0.4583333333333333
 40
0.4583333333333333
 40
0.5
 40
0.5
 40
0.5
 40
0.5
 40
0.5416666666666666
 40
0.5416666666666666
 40
0.5416666666666666
 40
0.5416666666666666
 40
0.5833333333333334
 40
0.5833333333333334
 40
0.5833333333333334
 40
0.5833333333333334
 40
0.625
 40
0.625
 40
0.625
 40
0.625
 40
0.6666666666666666
 40
0.6666666666666666
 40
0.6666666666666666
 40
0.6666666666666666
 40
0.7083333333333334
 40
0.7083333333333334
 40
0.7083333333333334
 40
0.7083333333333334
 40
0.75
 40
0.75
 40
0.75
 40
0.75
 40
0.7916666666666666
 40
0.7916666666666666
 40
0.7916666666666666
 40
0.7916666666666666
 40
0.8333333333333334
 40
0.8333333333333334
 40
0.8333333333333334
 40
0.8333333333333334
 40
0.875
 40
0.875
 40
0.875
 40
0.875
 40
0.9166666666666666
 40
0.9166666666666666
 40
0.9166666666666666
 40
0.9166666666666666
 40
1.0
 40
1.0
 40
1.0
 40
1.0
 10
20.4826
 20
66.3318
 30
0.0
 10
20.5167
 20
64.0454
 30
0.0
 10
20.5506
 20
62.8849
 30
0.0
 10
20.6061
 20
58.6237
 30
0.0
 10
20.6061
 20
58.6237
 30
0.0
 10
20.7224
 20
49.7108
 30
0.0
 10
19.5811
 20
44.7714
 30
0.0
 10
16.0746
 20
37.2675
 30
0.0
 10
16.0746
 20
37.2675
 30
0.0
 10
14.9038
 20
34.7619
 30
0.0
 10
14.2221
 20
32.9887
 30
0.0
 10
14.0096
 20
31.8381
 30
0.0
 10
14.0096
 20
31.8381
 30
0.0
 10
13.256
 20
29.1393
 30
0.0
 10
17.1212
 20
29.0363
 30
0.0
 10
15.9922
 20
32.4489
 30
0.0
 10
15.9922
 20
32.4489
 30
0.0
 10
17.8379
 20
32.4633
 30
0.0
 10
18.9762
 20
31.0924
 30
0.0
 10
18.9809
 20
29.1341
 30
0.0
 10
18.9809
 20
29.1341
 30
0.0
 10
18.8681
 20
26.6786
 30
0.0
 10
15.07
 20
24.123
 30
0.0
 10
11.7359
 20
27.8442
 30
0.0
 10
11.7359
 20
27.8442
 30
0.0
 10
11.7359
 20
27.8442
 30
0.0
 10
11.2044
 20
25.3578
 30
0.0
 10
11.2044
 20
25.3578
 30
0.0
 10
11.2044
 20
25.3578
 30
0.0
 10
10.2005
 20
20.6621
 30
0.0
 10
10.9765
 20
16.0108
 30
0.0
 10
13.2942
 20
14.4472
 30
0.0
 10
13.2942
 20
14.4472
 30
0.0
 10
16.7618
 20
12.1587
 30
0.0
 10
17.9464
 20
17.9193
 30
0.0
 10
13.9377
 20
17.269
 30
0.0
 10
13.9377
 20
17.269
 30
0.0
 10
14.1446
 20
20.1051
 30
0.0
 10
19.6939
 20
20.6444
 30
0.0
 10
20.1079
 20
16.7323
 30
0.0
 10
20.1079
 20
16.7323
 30
0.0
 10
20.9893
 20
16.7128
 30
0.0
 10
21.8704
 20
16.7233
 30
0.0
 10
22.7518
 20
16.7323
 30
0.0
 10
22.7518
 20
16.7323
 30
0.0
 10
23.1658
 20
20.6442
 30
0.0
 10
28.7151
 20
20.1049
 30
0.0
 10
28.922
 20
17.269
 30
0.0
 10
28.922
 20
17.269
 30
0.0
 10
24.9133
 20
17.9193
 30
0.0
 10
26.098
 20
12.1587
 30
0.0
 10
29.5655
 20
14.4472
 30
0.0
 10
29.5655
 20
14.4472
 30
0.0
 10
31.8832
 20
16.0108
 30
0.0
 10
32.6592
 20
20.6621
 30
0.0
 10
31.6553
 20
25.3578
 30
0.0
 10
31.6553
 20
25.3578
 30
0.0
 10
31.6553
 20
25.3578
 30
0.0
 10
31.1238
 20
27.8442
 30
0.0
 10
31.1238
 20
27.8442
 30
0.0
 10
31.1238
 20
27.8442
 30
0.0
 10
27.7899
 20
24.123
 30
0.0
 10
23.9916
 20
26.6786
 30
0.0
 10
23.8788
 20
29.1341
 30
0.0
 10
23.8788
 20
29.1341
 30
0.0
 10
23.8835
 20
31.0924
 30
0.0
 10
25.0218
 20
32.4633
 30
0.0
 10
26.8675
 20
32.4489
 30
0.0
 10
26.8675
 20
32.4489
 30
0.0
 10
25.7387
 20
29.0365
 30
0.0
 10
29.6037
 20
29.1395
 30
0.0
 10
28.8501
 20
31.8381
 30
0.0
 10
28.8501
 20
31.8381
 30
0.0
 10
28.6376
 20
32.9887
 30
0.0
 10
27.9559
 20
34.7619
 30
0.0
 10
26.7851
 20
37.2675
 30
0.0
 10
26.7851
 20
37.2675
 30
0.0
 10
23.2786
 20
44.7714
 30
0.0
 10
22.1373
 20
49.7108
 30
0.0
 10
22.2536
 20
58.6237
 30
0.0
 10
22.2536
 20
58.6237
 30
0.0
 10
22.3092
 20
62.8849
 30
0.0
 10
22.3431
 20
64.0452
 30
0.0
 10
22.3772
 20
66.3318
 30
0.0
 10
22.3772
 20
66.3318
 30
0.0
 10
21.7456
 20
66.3435
 30
0.0
 10
21.1142
 20
66.337
 30
0.0
 10
20.4828
 20
66.3318
 30
0.0
 10
20.4828
 20
66.3318
 30
0.0
 10
20.4828
 20
66.3318
 30
0.0
 10
20.4826
 20
66.3318
 30
0.0
 10
20.4826
 20
66.3318
 30
0.0
  0
SPLINE
  5
6B
330
1F
100
AcDbEntity
  8
layer 1
 62
     7
100
AcDbSpline
210
0.0
220
0.0
230
1.0
 70
    11
 71
     3
 72
    28
 73
    24
 74
     0
 42
0.0000000001
 43
0.0000000001
 12
1.0
 22
0.0
 32
0.0
 13
1.0
 23
0.0
 33
0.0
 40
0.0
 40
0.0
 40
0.0
 40
0.0
 40
0.1428571428571428
 40
0.1428571428571428
 40
0.1428571428571428
 40
0.1428571428571428
 40
0.2857142857142857
 40
0.2857142857142857
 40
0.2857142857142857
 40
0.2857142857142857
 40
0.4285714285714285
 40
0.4285714285714285
 40
0.4285714285714285
 40
0.4285714285714285
 40
0.5714285714285714
 40
0.5714285714285714
 40
0.5714285714285714
 40
0.5714285714285714
 40
0.7142857142857143
 40
0.7142857142857143
 40
0.7142857142857143
 40
0.7142857142857143
 40
1.0
 40
1.0
 40
1.0
 40
1.0
 10
16.8487
 20
60.8896
 30
0.0
 10
13.8818
 20
63.5407
 30
0.0
 10
10.3926
 20
60.5646
 30
0.0
 10
12.0139
 20
57.1359
 30
0.0
 10
12.0139
 20
57.1359
 30
0.0
 10
13.4181
 20
58.4914
 30
0.0
 10
16.4832
 20
57.0677
 30
0.0
 10
16.1598
 20
53.5748
 30
0.0
 10
16.1598
 20
53.5748
 30
0.0
 10
15.9804
 20
49.02
 30
0.0
 10
15.2745
 20
47.6565
 30
0.0
 10
13.5001
 20
42.4428
 30
0.0
 10
13.5001
 20
42.4428
 30
0.0
 10
14.4099
 20
53.3689
 30
0.0
 10
9.017
 20
58.912
 30
0.0
 10
1.7952
 20
58.3085
 30
0.0
 10
1.7952
 20
58.3085
 30
0.0
 10
5.1939
 20
62.461
 30
0.0
 10
11.7661
 20
65.9149
 30
0.0
 10
16.7259
 20
66.3807
 30
0.0
 10
16.7259
 20
66.3807
 30
0.0
 10
16.8444
 20
64.9819
 30
0.0
 10
16.8403
 20
62.9441
 30
0.0
 10
16.8487
 20
60.8896
 30
0.0
  0
SPLINE
  5
6C
330
1F
100
AcDbEntity
  8
layer 1
 62
     7
100
AcDbSpline
210
0.0
220
0.0
230
1.0
 70
    11
 71
     3
 72
    20
 73
    16
 74
     0
 42
0.0000000001
 43
0.0000000001
 12
1.0
 22
0.0
 32
0.0
 13
1.0
 23
0.0
 33
0.0
 40
0.0
 40
0.0
 40
0.0
 40
0.0
 40
0.2
 40
0.2
 40
0.2
 40
0.2
 40
0.4
 40
0.4
 40
0.4
 40
0.4
 40
0.6
 40
0.6
 40
0.6
 40
0.6
 40
1.0
 40
1.0
 40
1.0
 40
1.0
 10
6.5497
 20
22.7774
 30
0.0
 10
5.0124
 20
24.8799
 30
0.0
 10
3.5271
 20
26.281
 30
0.0
 10
0.8713
 20
26.6911
 30
0.0
 10
0.8713
 20
26.6911
 30
0.0
 10
9.1427
 20
31.7723
 30
0.0
 10
7.1896
 20
35.1153
 30
0.0
 10
6.0272
 20
36.7915
 30
0.0
 10
6.0272
 20
36.7915
 30
0.0
 10
7.1622
 20
36.8934
 30
0.0
 10
8.4039
 20
36.7158
 30
0.0
 10
9.8386
 20
38.6244
 30
0.0
 10
9.8386
 20
38.6244
 30
0.0
 10
11.5401
 20
33.0285
 30
0.0
 10
6.3675
 20
27.664
 30
0.0
 10
6.5497
 20
22.7774
 30
0.0
  0
SPLINE
  5
6D
330
1F
100
AcDbEntity
  8
layer 1
 62
     7
100
AcDbSpline
210
0.0
220
0.0
230
1.0
 70
    11
 71
     3
 72
    36
 73
    32
 74
     0
 42
0.0000000001
 43
0.0000000001
 12
1.0
 22
0.0
 32
0.0
 13
1.0
 23
0.0
 33
0.0
 40
0.0
 40
0.0
 40
0.0
 40
0.0
 40
0.1111111111111111
 40
0.1111111111111111
 40
0.1111111111111111
 40
0.1111111111111111
 40
0.2222222222222222
 40
0.2222222222222222
 40
0.2222222222222222
 40
0.2222222222222222
 40
0.3333333333333333
 40
0.3333333333333333
 40
0.3333333333333333
 40
0.3333333333333333
 40
0.4444444444444444
 40
0.4444444444444444
 40
0.4444444444444444
 40
0.4444444444444444
 40
0.5555555555555556
 40
0.5555555555555556
 40
0.5555555555555556
 40
0.5555555555555556
 40
0.6666666666666666
 40
0.6666666666666666
 40
0.6666666666666666
 40
0.6666666666666666
 40
0.7777777777777778
 40
0.7777777777777778
 40
0.7777777777777778
 40
0.7777777777777778
 40
1.0
 40
1.0
 40
1.0
 40
1.0
 10
3.7223
 20
43.8685
 30
0.0
 10
9.5898
 20
43.4734
 30
0.0
 10
6.8575
 20
51.792
 30
0.0
 10
1.6405
 20
49.6798
 30
0.0
 10
1.6405
 20
49.6798
 30
0.0
 10
-3.0092
 20
47.4821
 30
0.0
 10
-2.9975
 20
41.6955
 30
0.0
 10
0.5328
 20
38.2437
 30
0.0
 10
0.5328
 20
38.2437
 30
0.0
 10
-2.5697
 20
38.0769
 30
0.0
 10
-3.8171
 20
34.1635
 30
0.0
 10
-1.755
 20
32.7955
 30
0.0
 10
-1.755
 20
32.7955
 30
0.0
 10
-0.1787
 20
35.382
 30
0.0
 10
2.3204
 20
33.0579
 30
0.0
 10
0.0668
 20
30.8872
 30
0.0
 10
0.0668
 20
30.8872
 30
0.0
 10
-6.6644
 20
27.6361
 30
0.0
 10
-9.7516
 20
25.2192
 30
0.0
 10
-14.1424
 20
20.3514
 30
0.0
 10
-14.1424
 20
20.3514
 30
0.0
 10
-13.3571
 20
30.8851
 30
0.0
 10
-8.9201
 20
45.7449
 30
0.0
 10
-1.8524
 20
54.2504
 30
0.0
 10
-1.8524
 20
54.2504
 30
0.0
 10
3.1114
 20
55.205
 30
0.0
 10
7.2991
 20
53.3868
 30
0.0
 10
9.1972
 20
48.9504
 30
0.0
 10
9.1972
 20
48.9504
 30
0.0
 10
11.595
 20
42.8523
 30
0.0
 10
4.9504
 20
40.0873
 30
0.0
 10
3.7223
 20
43.8685
 30
0.0
  0
SPLINE
  5
6E
330
1F
100
AcDbEntity
  8
layer 1
 62
     7
100
AcDbSpline
210
0.0
220
0.0
230
1.0
 70
    11
 71
     3
 72
    20
 73
    16
 74
     0
 42
0.0000000001
 43
0.0000000001
 12
1.0
 22
0.0
 32
0.0
 13
1.0
 23
0.0
 33
0.0
 40
0.0
 40
0.0
 40
0.0
 40
0.0
 40
0.2
 40
0.2
 40
0.2
 40
0.2
 40
0.4
 40
0.4
 40
0.4
 40
0.4
 40
0.6
 40
0.6
 40
0.6
 40
0.6
 40
1.0
 40
1.0
 40
1.0
 40
1.0
 10
-18.5482
 20
31.2519
 30
0.0
 10
-20.3272
 20
31.0801
 30
0.0
 10
-22.4071
 20
31.1615
 30
0.0
 10
-22.4071
 20
31.1615
 30
0.0
 10
-22.4071
 20
31.1615
 30
0.0
 10
-22.4071
 20
31.1615
 30
0.0
 10
-22.4071
 20
-14.6743
 30
0.0
 10
-22.4071
 20
-14.6743
 30
0.0
 10
-22.4071
 20
-14.6743
 30
0.0
 10
-22.4071
 20
-14.6743
 30
0.0
 10
-20.3272
 20
-14.5929
 30
0.0
 10
-18.5482
 20
-14.7647
 30
0.0
 10
-18.5482
 20
-14.7647
 30
0.0
 10
-21.0216
 20
-0.6789
 30
0.0
 10
-21.5421
 20
15.6592
 30
0.0
 10
-18.5482
 20
31.2519
 30
0.0
  0
SPLINE
  5
6F
330
1F
100
AcDbEntity
  8
layer 1
 62
     7
100
AcDbSpline
210
0.0
220
0.0
230
1.0
 70
    11
 71
     3
 72
    20
 73
    16
 74
     0
 42
0.0000000001
 43
0.0000000001
 12
1.0
 22
0.0
 32
0.0
 13
1.0
 23
0.0
 33
0.0
 40
0.0
 40
0.0
 40
0.0
 40
0.0
 40
0.2
 40
0.2
 40
0.2
 40
0.2
 40
0.4
 40
0.4
 40
0.4
 40
0.4
 40
0.6
 40
0.6
 40
0.6
 40
0.6
 40
1.0
 40
1.0
 40
1.0
 40
1.0
 10
-22.4071
 20
86.8949
 30
0.0
 10
-22.4071
 20
89.0344
 30
0.0
 10
-22.4071
 20
110.5098
 30
0.0
 10
-22.4071
 20
112.5472
 30
0.0
 10
-22.4071
 20
112.5472
 30
0.0
 10
-19.9686
 20
105.3232
 30
0.0
 10
-14.8011
 20
102.9967
 30
0.0
 10
-7.0764
 20
101.0427
 30
0.0
 10
-7.0764
 20
101.0427
 30
0.0
 10
-17.7009
 20
98.8595
 30
0.0
 10
-19.9099
 20
92.8165
 30
0.0
 10
-22.4071
 20
86.8947
 30
0.0
 10
-22.4071
 20
86.8947
 30
0.0
 10
-22.4071
 20
86.8947
 30
0.0
 10
-22.4071
 20
86.8949
 30
0.0
 10
-22.4071
 20
86.8949
 30
0.0
  0
SPLINE
  5
70
330
1F
100
AcDbEntity
  8
layer 1
 62
     7
100
AcDbSpline
210
0.0
220
0.0
230
1.0
 70
    11
 71
     3
 72
    16
 73
    12
 74
     0
 42
0.0000000001
 43
0.0000000001
 12
1.0
 22
0.0
 32
0.0
 13
1.0
 23
0.0
 33
0.0
 40
0.0
 40
0.0
 40
0.0
 40
0.0
 40
0.25
 40
0.25
 40
0.25
 40
0.25
 40
0.5
 40
0.5
 40
0.5
 40
0.5
 40
1.0
 40
1.0
 40
1.0
 40
1.0
 10
-16.0687
 20
40.8174
 30
0.0
 10
-16.5203
 20
42.7853
 30
0.0
 10
-17.1665
 20
44.2388
 30
0.0
 10
-15.8279
 20
48.7054
 30
0.0
 10
-15.8279
 20
48.7054
 30
0.0
 10
-13.2073
 20
52.8316
 30
0.0
 10
-11.7582
 20
52.1106
 30
0.0
 10
-10.4892
 20
52.5606
 30
0.0
 10
-10.4892
 20
52.5606
 30
0.0
 10
-12.7469
 20
49.1914
 30
0.0
 10
-14.7804
 20
44.9633
 30
0.0
 10
-16.0687
 20
40.8174
 30
0.0
  0
SPLINE
  5
71
330
1F
100
AcDbEntity
  8
layer 1
 62
     7
100
AcDbSpline
210
0.0
220
0.0
230
1.0
 70
    11
 71
     3
 72
    40
 73
    36
 74
     0
 42
0.0000000001
 43
0.0000000001
 12
1.0
 22
0.0
 32
0.0
 13
1.0
 23
0.0
 33
0.0
 40
0.0
 40
0.0
 40
0.0
 40
0.0
 40
0.1
 40
0.1
 40
0.1
 40
0.1
 40
0.2
 40
0.2
 40
0.2
 40
0.2
 40
0.3
 40
0.3
 40
0.3
 40
0.3
 40
0.4
 40
0.4
 40
0.4
 40
0.4
 40
0.5
 40
0.5
 40
0.5
 40
0.5
 40
0.6
 40
0.6
 40
0.6
 40
0.6
 40
0.7
 40
0.7
 40
0.7
 40
0.7
 40
0.8
 40
0.8
 40
0.8
 40
0.8
 40
1.0
 40
1.0
 40
1.0
 40
1.0
 10
-22.4071
 20
115.3247
 30
0.0
 10
-22.4071
 20
117.4641
 30
0.0
 10
-22.4071
 20
123.317
 30
0.0
 10
-22.4071
 20
125.3544
 30
0.0
 10
-22.4071
 20
125.3544
 30
0.0
 10
-20.6432
 20
125.3544
 30
0.0
 10
1.516
 20
125.3544
 30
0.0
 10
3.5783
 20
125.3544
 30
0.0
 10
3.5783
 20
125.3544
 30
0.0
 10
3.643
 20
124.9737
 30
0.0
 10
3.6093
 20
124.4462
 30
0.0
 10
3.2606
 20
123.9284
 30
0.0
 10
3.2606
 20
123.9284
 30
0.0
 10
-5.0536
 20
122.3895
 30
0.0
 10
-10.0807
 20
112.7811
 30
0.0
 10
-7.0741
 20
104.1562
 30
0.0
 10
-7.0741
 20
104.1562
 30
0.0
 10
-12.4535
 20
106.7116
 30
0.0
 10
-14.0686
 20
107.8462
 30
0.0
 10
-15.5949
 20
109.283
 30
0.0
 10
-15.5949
 20
109.283
 30
0.0
 10
-17.9189
 20
111.2322
 30
0.0
 10
-14.8196
 20
114.2549
 30
0.0
 10
-14.2416
 20
110.2848
 30
0.0
 10
-14.2416
 20
110.2848
 30
0.0
 10
-4.3209
 20
111.2158
 30
0.0
 10
-10.9133
 20
125.7731
 30
0.0
 10
-20.2522
 20
118.8349
 30
0.0
 10
-20.2522
 20
118.8349
 30
0.0
 10
-21.3046
 20
118.0531
 30
0.0
 10
-21.9399
 20
117.0451
 30
0.0
 10
-22.4073
 20
115.3247
 30
0.0
 10
-22.4073
 20
115.3247
 30
0.0
 10
-22.4073
 20
115.3247
 30
0.0
 10
-22.4071
 20
115.3247
 30
0.0
 10
-22.4071
 20
115.3247
 30
0.0
  0
SPLINE
  5
72
330
1F
100
AcDbEntity
  8
layer 1
 62
     7
100
AcDbSpline
210
0.0
220
0.0
230
1.0
 70
    11
 71
     3
 72
    28
 73
    24
 74
     0
 42
0.0000000001
 43
0.0000000001
 12
1.0
 22
0.0
 32
0.0
 13
1.0
 23
0.0
 33
0.0
 40
0.0
 40
0.0
 40
0.0
 40
0.0
 40
0.1428571428571428
 40
0.1428571428571428
 40
0.1428571428571428
 40
0.1428571428571428
 40
0.2857142857142857
 40
0.2857142857142857
 40
0.2857142857142857
 40
0.2857142857142857
 40
0.4285714285714285
 40
0.4285714285714285
 40
0.4285714285714285
 40
0.4285714285714285
 40
0.5714285714285714
 40
0.5714285714285714
 40
0.5714285714285714
 40
0.5714285714285714
 40
0.7142857142857143
 40
0.7142857142857143
 40
0.7142857142857143
 40
0.7142857142857143
 40
1.0
 40
1.0
 40
1.0
 40
1.0
 10
20.022
 20
113.8655
 30
0.0
 10
18.145
 20
119.6054
 30
0.0
 10
13.8187
 20
123.2932
 30
0.0
 10
9.5637
 20
123.9285
 30
0.0
 10
9.5637
 20
123.9285
 30
0.0
 10
9.2152
 20
124.4464
 30
0.0
 10
9.1813
 20
124.9739
 30
0.0
 10
9.2459
 20
125.3546
 30
0.0
 10
9.2459
 20
125.3546
 30
0.0
 10
9.2459
 20
125.3546
 30
0.0
 10
33.6134
 20
125.3546
 30
0.0
 10
33.6134
 20
125.3546
 30
0.0
 10
33.6134
 20
125.3546
 30
0.0
 10
33.6781
 20
124.9739
 30
0.0
 10
33.6444
 20
124.4464
 30
0.0
 10
33.2957
 20
123.9285
 30
0.0
 10
33.2957
 20
123.9285
 30
0.0
 10
29.0407
 20
123.2932
 30
0.0
 10
24.7144
 20
119.6052
 30
0.0
 10
22.8373
 20
113.8655
 30
0.0
 10
22.8373
 20
113.8655
 30
0.0
 10
22.8373
 20
113.8655
 30
0.0
 10
20.022
 20
113.8655
 30
0.0
 10
20.022
 20
113.8655
 30
0.0
  0
SPLINE
  5
73
330
1F
100
AcDbEntity
  8
layer 1
 62
     7
100
AcDbSpline
210
0.0
220
0.0
230
1.0
 70
    11
 71
     3
 72
    40
 73
    36
 74
     0
 42
0.0000000001
 43
0.0000000001
 12
1.0
 22
0.0
 32
0.0
 13
1.0
 23
0.0
 33
0.0
 40
0.0
 40
0.0
 40
0.0
 40
0.0
 40
0.1
 40
0.1
 40
0.1
 40
0.1
 40
0.2
 40
0.2
 40
0.2
 40
0.2
 40
0.3
 40
0.3
 40
0.3
 40
0.3
 40
0.4
 40
0.4
 40
0.4
 40
0.4
 40
0.5
 40
0.5
 40
0.5
 40
0.5
 40
0.6
 40
0.6
 40
0.6
 40
0.6
 40
0.7
 40
0.7
 40
0.7
 40
0.7
 40
0.8
 40
0.8
 40
0.8
 40
0.8
 40
1.0
 40
1.0
 40
1.0
 40
1.0
 10
7.3915
 20
83.5183
 30
0.0
 10
7.5775
 20
82.0617
 30
0.0
 10
6.2701
 20
81.3424
 30
0.0
 10
6.0028
 20
83.093
 30
0.0
 10
6.0028
 20
83.093
 30
0.0
 10
3.0537
 20
91.1828
 30
0.0
 10
-5.4008
 20
94.2196
 30
0.0
 10
-10.8469
 20
89.2405
 30
0.0
 10
-10.8469
 20
89.2405
 30
0.0
 10
-15.7385
 20
84.6732
 30
0.0
 10
-10.5506
 20
74.2474
 30
0.0
 10
-3.9387
 20
80.2544
 30
0.0
 10
-3.9387
 20
80.2544
 30
0.0
 10
-6.8194
 20
82.1482
 30
0.0
 10
-2.738
 20
84.1563
 30
0.0
 10
-1.357
 20
80.0623
 30
0.0
 10
-1.357
 20
80.0623
 30
0.0
 10
-0.56
 20
78.5302
 30
0.0
 10
-1.4509
 20
70.0255
 30
0.0
 10
-11.1781
 20
73.502
 30
0.0
 10
-11.1781
 20
73.502
 30
0.0
 10
-14.3101
 20
75.035
 30
0.0
 10
-16.8143
 20
77.6838
 30
0.0
 10
-16.7184
 20
84.1906
 30
0.0
 10
-16.7184
 20
84.1906
 30
0.0
 10
-16.8351
 20
87.4378
 30
0.0
 10
-12.3627
 20
96.9716
 30
0.0
 10
-2.5937
 20
95.9412
 30
0.0
 10
-2.5937
 20
95.9412
 30
0.0
 10
1.6025
 20
93.2533
 30
0.0
 10
4.5643
 20
89.7873
 30
0.0
 10
7.3915
 20
83.5185
 30
0.0
 10
7.3915
 20
83.5185
 30
0.0
 10
7.3915
 20
83.5185
 30
0.0
 10
7.3915
 20
83.5183
 30
0.0
 10
7.3915
 20
83.5183
 30
0.0
  0
SPLINE
  5
74
330
1F
100
AcDbEntity
  8
layer 1
 62
     7
100
AcDbSpline
210
0.0
220
0.0
230
1.0
 70
    11
 71
     3
 72
    20
 73
    16
 74
     0
 42
0.0000000001
 43
0.0000000001
 12
1.0
 22
0.0
 32
0.0
 13
1.0
 23
0.0
 33
0.0
 40
0.0
 40
0.0
 40
0.0
 40
0.0
 40
0.2
 40
0.2
 40
0.2
 40
0.2
 40
0.4
 40
0.4
 40
0.4
 40
0.4
 40
0.6
 40
0.6
 40
0.6
 40
0.6
 40
1.0
 40
1.0
 40
1.0
 40
1.0
 10
-8.5543
 20
85.8251
 30
0.0
 10
-9.097
 20
84.5469
 30
0.0
 10
-8.0651
 20
84.168
 30
0.0
 10
-7.1656
 20
85.3999
 30
0.0
 10
-7.1656
 20
85.3999
 30
0.0
 10
-5.3375
 20
87.28
 30
0.0
 10
-3.1467
 20
86.7421
 30
0.0
 10
-1.4612
 20
86.6759
 30
0.0
 10
-1.4612
 20
86.6759
 30
0.0
 10
-3.1514
 20
88.7419
 30
0.0
 10
-7.7269
 20
87.7936
 30
0.0
 10
-8.5545
 20
85.8251
 30
0.0
 10
-8.5545
 20
85.8251
 30
0.0
 10
-8.5545
 20
85.8251
 30
0.0
 10
-8.5543
 20
85.8251
 30
0.0
 10
-8.5543
 20
85.8251
 30
0.0
  0
SPLINE
  5
75
330
1F
100
AcDbEntity
  8
layer 1
 62
     7
100
AcDbSpline
210
0.0
220
0.0
230
1.0
 70
    11
 71
     3
 72
    16
 73
    12
 74
     0
 42
0.0000000001
 43
0.0000000001
 12
1.0
 22
0.0
 32
0.0
 13
1.0
 23
0.0
 33
0.0
 40
0.0
 40
0.0
 40
0.0
 40
0.0
 40
0.25
 40
0.25
 40
0.25
 40
0.25
 40
0.5
 40
0.5
 40
0.5
 40
0.5
 40
1.0
 40
1.0
 40
1.0
 40
1.0
 10
-22.4071
 20
32.519
 30
0.0
 10
-22.4071
 20
32.519
 30
0.0
 10
-20.8378
 20
33.4434
 30
0.0
 10
-20.808
 20
36.0275
 30
0.0
 10
-20.808
 20
36.0275
 30
0.0
 10
-20.6473
 20
38.9408
 30
0.0
 10
-22.4071
 20
39.6499
 30
0.0
 10
-22.4071
 20
39.6499
 30
0.0
 10
-22.4071
 20
39.6499
 30
0.0
 10
-22.403
 20
37.1759
 30
0.0
 10
-22.3629
 20
33.8348
 30
0.0
 10
-22.4071
 20
32.519
 30
0.0
  0
SPLINE
  5
76
330
1F
100
AcDbEntity
  8
layer 1
 62
     7
100
AcDbSpline
210
0.0
220
0.0
230
1.0
 70
    11
 71
     3
 72
    40
 73
    36
 74
     0
 42
0.0000000001
 43
0.0000000001
 12
1.0
 22
0.0
 32
0.0
 13
1.0
 23
0.0
 33
0.0
 40
0.0
 40
0.0
 40
0.0
 40
0.0
 40
0.1
 40
0.1
 40
0.1
 40
0.1
 40
0.2
 40
0.2
 40
0.2
 40
0.2
 40
0.3
 40
0.3
 40
0.3
 40
0.3
 40
0.4
 40
0.4
 40
0.4
 40
0.4
 40
0.5
 40
0.5
 40
0.5
 40
0.5
 40
0.6
 40
0.6
 40
0.6
 40
0.6
 40
0.7
 40
0.7
 40
0.7
 40
0.7
 40
0.8
 40
0.8
 40
0.8
 40
0.8
 40
1.0
 40
1.0
 40
1.0
 40
1.0
 10
19.6768
 20
76.7901
 30
0.0
 10
19.3972
 20
81.4457
 30
0.0
 10
17.9762
 20
84.434
 30
0.0
 10
18.0912
 20
86.5004
 30
0.0
 10
18.0912
 20
86.5004
 30
0.0
 10
18.1837
 20
88.7585
 30
0.0
 10
19.4148
 20
88.4407
 30
0.0
 10
19.8794
 20
87.9473
 30
0.0
 10
19.8794
 20
87.9473
 30
0.0
 10
20.3045
 20
87.4959
 30
0.0
 10
19.8913
 20
86.9438
 30
0.0
 10
21.4298
 20
87.1269
 30
0.0
 10
21.4298
 20
87.1269
 30
0.0
 10
22.9682
 20
86.944
 30
0.0
 10
22.555
 20
87.4959
 30
0.0
 10
22.9801
 20
87.9473
 30
0.0
 10
22.9801
 20
87.9473
 30
0.0
 10
23.4448
 20
88.4407
 30
0.0
 10
24.676
 20
88.7585
 30
0.0
 10
24.7683
 20
86.5004
 30
0.0
 10
24.7683
 20
86.5004
 30
0.0
 10
24.8831
 20
84.434
 30
0.0
 10
23.4623
 20
81.4457
 30
0.0
 10
23.1827
 20
76.7901
 30
0.0
 10
23.1827
 20
76.7901
 30
0.0
 10
23.1171
 20
73.8965
 30
0.0
 10
22.1038
 20
73.8435
 30
0.0
 10
21.4296
 20
73.7989
 30
0.0
 10
21.4296
 20
73.7989
 30
0.0
 10
20.7553
 20
73.8433
 30
0.0
 10
19.7421
 20
73.8963
 30
0.0
 10
19.6764
 20
76.7901
 30
0.0
 10
19.6764
 20
76.7901
 30
0.0
 10
19.6764
 20
76.7901
 30
0.0
 10
19.6768
 20
76.7901
 30
0.0
 10
19.6768
 20
76.7901
 30
0.0
  0
SPLINE
  5
77
330
1F
100
AcDbEntity
  8
layer 1
 62
     7
100
AcDbSpline
210
0.0
220
0.0
230
1.0
 70
    11
 71
     3
 72
    32
 73
    28
 74
     0
 42
0.0000000001
 43
0.0000000001
 12
1.0
 22
0.0
 32
0.0
 13
1.0
 23
0.0
 33
0.0
 40
0.0
 40
0.0
 40
0.0
 40
0.0
 40
0.125
 40
0.125
 40
0.125
 40
0.125
 40
0.25
 40
0.25
 40
0.25
 40
0.25
 40
0.375
 40
0.375
 40
0.375
 40
0.375
 40
0.5
 40
0.5
 40
0.5
 40
0.5
 40
0.625
 40
0.625
 40
0.625
 40
0.625
 40
0.75
 40
0.75
 40
0.75
 40
0.75
 40
1.0
 40
1.0
 40
1.0
 40
1.0
 10
10.8931
 20
106.3678
 30
0.0
 10
12.4678
 20
106.7081
 30
0.0
 10
13.5574
 20
108.3892
 30
0.0
 10
13.7053
 20
109.036
 30
0.0
 10
13.7053
 20
109.036
 30
0.0
 10
14.5407
 20
112.6888
 30
0.0
 10
12.957
 20
115.727
 30
0.0
 10
10.5405
 20
117.0729
 30
0.0
 10
10.5405
 20
117.0729
 30
0.0
 10
3.7811
 20
120.8382
 30
0.0
 10
-0.5964
 20
116.0248
 30
0.0
 10
-1.168
 20
115.3515
 30
0.0
 10
-1.168
 20
115.3515
 30
0.0
 10
-5.5229
 20
109.8236
 30
0.0
 10
-3.5307
 20
100.368
 30
0.0
 10
2.9442
 20
100.7986
 30
0.0
 10
2.9442
 20
100.7986
 30
0.0
 10
-4.9256
 20
111.1644
 30
0.0
 10
8.6013
 20
117.8999
 30
0.0
 10
10.4507
 20
108.9549
 30
0.0
 10
10.4507
 20
108.9549
 30
0.0
 10
7.5483
 20
108.3344
 30
0.0
 10
7.9529
 20
105.8135
 30
0.0
 10
10.8931
 20
106.3676
 30
0.0
 10
10.8931
 20
106.3676
 30
0.0
 10
10.8931
 20
106.3676
 30
0.0
 10
10.8931
 20
106.3678
 30
0.0
 10
10.8931
 20
106.3678
 30
0.0
  0
SPLINE
  5
78
330
1F
100
AcDbEntity
  8
layer 1
 62
     7
100
AcDbSpline
210
0.0
220
0.0
230
1.0
 70
    11
 71
     3
 72
    28
 73
    24
 74
     0
 42
0.0000000001
 43
0.0000000001
 12
1.0
 22
0.0
 32
0.0
 13
1.0
 23
0.0
 33
0.0
 40
0.0
 40
0.0
 40
0.0
 40
0.0
 40
0.1428571428571428
 40
0.1428571428571428
 40
0.1428571428571428
 40
0.1428571428571428
 40
0.2857142857142857
 40
0.2857142857142857
 40
0.2857142857142857
 40
0.2857142857142857
 40
0.4285714285714285
 40
0.4285714285714285
 40
0.4285714285714285
 40
0.4285714285714285
 40
0.5714285714285714
 40
0.5714285714285714
 40
0.5714285714285714
 40
0.5714285714285714
 40
0.7142857142857143
 40
0.7142857142857143
 40
0.7142857142857143
 40
0.7142857142857143
 40
1.0
 40
1.0
 40
1.0
 40
1.0
 10
26.0111
 20
60.8896
 30
0.0
 10
28.9779
 20
63.5407
 30
0.0
 10
32.4671
 20
60.5646
 30
0.0
 10
30.8458
 20
57.1359
 30
0.0
 10
30.8458
 20
57.1359
 30
0.0
 10
29.4416
 20
58.4914
 30
0.0
 10
26.3765
 20
57.0677
 30
0.0
 10
26.6999
 20
53.5748
 30
0.0
 10
26.6999
 20
53.5748
 30
0.0
 10
26.8794
 20
49.02
 30
0.0
 10
27.5852
 20
47.6565
 30
0.0
 10
29.3596
 20
42.4428
 30
0.0
 10
29.3596
 20
42.4428
 30
0.0
 10
28.4498
 20
53.3689
 30
0.0
 10
33.8427
 20
58.912
 30
0.0
 10
41.0646
 20
58.3085
 30
0.0
 10
41.0646
 20
58.3085
 30
0.0
 10
37.6658
 20
62.461
 30
0.0
 10
31.0936
 20
65.9149
 30
0.0
 10
26.1338
 20
66.3807
 30
0.0
 10
26.1338
 20
66.3807
 30
0.0
 10
26.0154
 20
64.9819
 30
0.0
 10
26.0194
 20
62.9441
 30
0.0
 10
26.0111
 20
60.8896
 30
0.0
  0
SPLINE
  5
79
330
1F
100
AcDbEntity
  8
layer 1
 62
     7
100
AcDbSpline
210
0.0
220
0.0
230
1.0
 70
    11
 71
     3
 72
    20
 73
    16
 74
     0
 42
0.0000000001
 43
0.0000000001
 12
1.0
 22
0.0
 32
0.0
 13
1.0
 23
0.0
 33
0.0
 40
0.0
 40
0.0
 40
0.0
 40
0.0
 40
0.2
 40
0.2
 40
0.2
 40
0.2
 40
0.4
 40
0.4
 40
0.4
 40
0.4
 40
0.6
 40
0.6
 40
0.6
 40
0.6
 40
1.0
 40
1.0
 40
1.0
 40
1.0
 10
36.3099
 20
22.7774
 30
0.0
 10
37.8472
 20
24.8799
 30
0.0
 10
39.3324
 20
26.281
 30
0.0
 10
41.9882
 20
26.6911
 30
0.0
 10
41.9882
 20
26.6911
 30
0.0
 10
33.7168
 20
31.7723
 30
0.0
 10
35.6699
 20
35.1153
 30
0.0
 10
36.8324
 20
36.7915
 30
0.0
 10
36.8324
 20
36.7915
 30
0.0
 10
35.6974
 20
36.8934
 30
0.0
 10
34.4556
 20
36.7158
 30
0.0
 10
33.021
 20
38.6244
 30
0.0
 10
33.021
 20
38.6244
 30
0.0
 10
31.3194
 20
33.0285
 30
0.0
 10
36.492
 20
27.664
 30
0.0
 10
36.3099
 20
22.7774
 30
0.0
  0
SPLINE
  5
7A
330
1F
100
AcDbEntity
  8
layer 1
 62
     7
100
AcDbSpline
210
0.0
220
0.0
230
1.0
 70
    11
 71
     3
 72
    36
 73
    32
 74
     0
 42
0.0000000001
 43
0.0000000001
 12
1.0
 22
0.0
 32
0.0
 13
1.0
 23
0.0
 33
0.0
 40
0.0
 40
0.0
 40
0.0
 40
0.0
 40
0.1111111111111111
 40
0.1111111111111111
 40
0.1111111111111111
 40
0.1111111111111111
 40
0.2222222222222222
 40
0.2222222222222222
 40
0.2222222222222222
 40
0.2222222222222222
 40
0.3333333333333333
 40
0.3333333333333333
 40
0.3333333333333333
 40
0.3333333333333333
 40
0.4444444444444444
 40
0.4444444444444444
 40
0.4444444444444444
 40
0.4444444444444444
 40
0.5555555555555556
 40
0.5555555555555556
 40
0.5555555555555556
 40
0.5555555555555556
 40
0.6666666666666666
 40
0.6666666666666666
 40
0.6666666666666666
 40
0.6666666666666666
 40
0.7777777777777778
 40
0.7777777777777778
 40
0.7777777777777778
 40
0.7777777777777778
 40
1.0
 40
1.0
 40
1.0
 40
1.0
 10
39.1374
 20
43.8685
 30
0.0
 10
33.2699
 20
43.4734
 30
0.0
 10
36.0022
 20
51.792
 30
0.0
 10
41.2192
 20
49.6798
 30
0.0
 10
41.2192
 20
49.6798
 30
0.0
 10
45.8689
 20
47.4821
 30
0.0
 10
45.8572
 20
41.6955
 30
0.0
 10
42.327
 20
38.2437
 30
0.0
 10
42.327
 20
38.2437
 30
0.0
 10
45.4294
 20
38.0769
 30
0.0
 10
46.6768
 20
34.1635
 30
0.0
 10
44.6147
 20
32.7955
 30
0.0
 10
44.6147
 20
32.7955
 30
0.0
 10
43.0384
 20
35.382
 30
0.0
 10
40.5393
 20
33.0579
 30
0.0
 10
42.793
 20
30.8872
 30
0.0
 10
42.793
 20
30.8872
 30
0.0
 10
49.5241
 20
27.6361
 30
0.0
 10
52.6113
 20
25.2192
 30
0.0
 10
57.0021
 20
20.3514
 30
0.0
 10
57.0021
 20
20.3514
 30
0.0
 10
56.2168
 20
30.8851
 30
0.0
 10
51.7799
 20
45.7449
 30
0.0
 10
44.7121
 20
54.2504
 30
0.0
 10
44.7121
 20
54.2504
 30
0.0
 10
39.7484
 20
55.205
 30
0.0
 10
35.5606
 20
53.3868
 30
0.0
 10
33.6625
 20
48.9504
 30
0.0
 10
33.6625
 20
48.9504
 30
0.0
 10
31.2647
 20
42.8523
 30
0.0
 10
37.9093
 20
40.0873
 30
0.0
 10
39.1374
 20
43.8685
 30
0.0
  0
SPLINE
  5
7B
330
1F
100
AcDbEntity
  8
layer 1
 62
     7
100
AcDbSpline
210
0.0
220
0.0
230
1.0
 70
    11
 71
     3
 72
    20
 73
    16
 74
     0
 42
0.0000000001
 43
0.0000000001
 12
1.0
 22
0.0
 32
0.0
 13
1.0
 23
0.0
 33
0.0
 40
0.0
 40
0.0
 40
0.0
 40
0.0
 40
0.2
 40
0.2
 40
0.2
 40
0.2
 40
0.4
 40
0.4
 40
0.4
 40
0.4
 40
0.6
 40
0.6
 40
0.6
 40
0.6
 40
1.0
 40
1.0
 40
1.0
 40
1.0
 10
65.2666
 20
86.8949
 30
0.0
 10
65.2666
 20
89.0344
 30
0.0
 10
65.2666
 20
110.5098
 30
0.0
 10
65.2666
 20
112.5472
 30
0.0
 10
65.2666
 20
112.5472
 30
0.0
 10
62.8281
 20
105.3232
 30
0.0
 10
57.6606
 20
102.9967
 30
0.0
 10
49.9359
 20
101.0427
 30
0.0
 10
49.9359
 20
101.0427
 30
0.0
 10
60.5604
 20
98.8595
 30
0.0
 10
62.7695
 20
92.8165
 30
0.0
 10
65.2666
 20
86.8947
 30
0.0
 10
65.2666
 20
86.8947
 30
0.0
 10
65.2666
 20
86.8947
 30
0.0
 10
65.2666
 20
86.8949
 30
0.0
 10
65.2666
 20
86.8949
 30
0.0
  0
SPLINE
  5
7C
330
1F
100
AcDbEntity
  8
layer 1
 62
     7
100
AcDbSpline
210
0.0
220
0.0
230
1.0
 70
    11
 71
     3
 72
    16
 73
    12
 74
     0
 42
0.0000000001
 43
0.0000000001
 12
1.0
 22
0.0
 32
0.0
 13
1.0
 23
0.0
 33
0.0
 40
0.0
 40
0.0
 40
0.0
 40
0.0
 40
0.25
 40
0.25
 40
0.25
 40
0.25
 40
0.5
 40
0.5
 40
0.5
 40
0.5
 40
1.0
 40
1.0
 40
1.0
 40
1.0
 10
58.9285
 20
40.8174
 30
0.0
 10
59.38
 20
42.7853
 30
0.0
 10
60.0262
 20
44.2388
 30
0.0
 10
58.6877
 20
48.7054
 30
0.0
 10
58.6877
 20
48.7054
 30
0.0
 10
56.067
 20
52.8316
 30
0.0
 10
54.6179
 20
52.1106
 30
0.0
 10
53.3489
 20
52.5606
 30
0.0
 10
53.3489
 20
52.5606
 30
0.0
 10
55.6066
 20
49.1914
 30
0.0
 10
57.6401
 20
44.9633
 30
0.0
 10
58.9285
 20
40.8174
 30
0.0
  0
SPLINE
  5
7D
330
1F
100
AcDbEntity
  8
layer 1
 62
     7
100
AcDbSpline
210
0.0
220
0.0
230
1.0
 70
    11
 71
     3
 72
    40
 73
    36
 74
     0
 42
0.0000000001
 43
0.0000000001
 12
1.0
 22
0.0
 32
0.0
 13
1.0
 23
0.0
 33
0.0
 40
0.0
 40
0.0
 40
0.0
 40
0.0
 40
0.1
 40
0.1
 40
0.1
 40
0.1
 40
0.2
 40
0.2
 40
0.2
 40
0.2
 40
0.3
 40
0.3
 40
0.3
 40
0.3
 40
0.4
 40
0.4
 40
0.4
 40
0.4
 40
0.5
 40
0.5
 40
0.5
 40
0.5
 40
0.6
 40
0.6
 40
0.6
 40
0.6
 40
0.7
 40
0.7
 40
0.7
 40
0.7
 40
0.8
 40
0.8
 40
0.8
 40
0.8
 40
1.0
 40
1.0
 40
1.0
 40
1.0
 10
65.2666
 20
115.3247
 30
0.0
 10
65.2666
 20
117.4641
 30
0.0
 10
65.2666
 20
123.317
 30
0.0
 10
65.2666
 20
125.3544
 30
0.0
 10
65.2666
 20
125.3544
 30
0.0
 10
63.5028
 20
125.3544
 30
0.0
 10
41.3435
 20
125.3544
 30
0.0
 10
39.2812
 20
125.3544
 30
0.0
 10
39.2812
 20
125.3544
 30
0.0
 10
39.2165
 20
124.9737
 30
0.0
 10
39.2502
 20
124.4462
 30
0.0
 10
39.5989
 20
123.9284
 30
0.0
 10
39.5989
 20
123.9284
 30
0.0
 10
47.9131
 20
122.3895
 30
0.0
 10
52.9402
 20
112.7811
 30
0.0
 10
49.9336
 20
104.1562
 30
0.0
 10
49.9336
 20
104.1562
 30
0.0
 10
55.3131
 20
106.7116
 30
0.0
 10
56.9281
 20
107.8462
 30
0.0
 10
58.4545
 20
109.283
 30
0.0
 10
58.4545
 20
109.283
 30
0.0
 10
60.7784
 20
111.2322
 30
0.0
 10
57.6791
 20
114.2549
 30
0.0
 10
57.1011
 20
110.2848
 30
0.0
 10
57.1011
 20
110.2848
 30
0.0
 10
47.1804
 20
111.2158
 30
0.0
 10
53.7728
 20
125.7731
 30
0.0
 10
63.1118
 20
118.8349
 30
0.0
 10
63.1118
 20
118.8349
 30
0.0
 10
64.1642
 20
118.0531
 30
0.0
 10
64.7995
 20
117.0451
 30
0.0
 10
65.2668
 20
115.3247
 30
0.0
 10
65.2668
 20
115.3247
 30
0.0
 10
65.2668
 20
115.3247
 30
0.0
 10
65.2666
 20
115.3247
 30
0.0
 10
65.2666
 20
115.3247
 30
0.0
  0
SPLINE
  5
7E
330
1F
100
AcDbEntity
  8
layer 1
 62
     7
100
AcDbSpline
210
0.0
220
0.0
230
1.0
 70
    11
 71
     3
 72
    44
 73
    40
 74
     0
 42
0.0000000001
 43
0.0000000001
 12
1.0
 22
0.0
 32
0.0
 13
1.0
 23
0.0
 33
0.0
 40
0.0
 40
0.0
 40
0.0
 40
0.0
 40
0.0909090909090909
 40
0.0909090909090909
 40
0.0909090909090909
 40
0.0909090909090909
 40
0.1818181818181818
 40
0.1818181818181818
 40
0.1818181818181818
 40
0.1818181818181818
 40
0.2727272727272727
 40
0.2727272727272727
 40
0.2727272727272727
 40
0.2727272727272727
 40
0.3636363636363636
 40
0.3636363636363636
 40
0.3636363636363636
 40
0.3636363636363636
 40
0.4545454545454545
 40
0.4545454545454545
 40
0.4545454545454545
 40
0.4545454545454545
 40
0.5454545454545454
 40
0.5454545454545454
 40
0.5454545454545454
 40
0.5454545454545454
 40
0.6363636363636364
 40
0.6363636363636364
 40
0.6363636363636364
 40
0.6363636363636364
 40
0.7272727272727273
 40
0.7272727272727273
 40
0.7272727272727273
 40
0.7272727272727273
 40
0.8181818181818182
 40
0.8181818181818182
 40
0.8181818181818182
 40
0.8181818181818182
 40
1.0
 40
1.0
 40
1.0
 40
1.0
 10
24.7372
 20
93.011
 30
0.0
 10
25.9228
 20
93.2478
 30
0.0
 10
28.0974
 20
92.7174
 30
0.0
 10
28.5158
 20
90.823
 30
0.0
 10
28.5158
 20
90.823
 30
0.0
 10
29.8063
 20
92.5964
 30
0.0
 10
35.8174
 20
96.829
 30
0.0
 10
35.3017
 20
98.8788
 30
0.0
 10
35.3017
 20
98.8788
 30
0.0
 10
29.0411
 20
98.595
 30
0.0
 10
24.3247
 20
102.5336
 30
0.0
 10
22.8377
 20
108.3011
 30
0.0
 10
22.8377
 20
108.3011
 30
0.0
 10
22.8377
 20
108.3011
 30
0.0
 10
20.0222
 20
108.3011
 30
0.0
 10
20.0222
 20
108.3011
 30
0.0
 10
20.0222
 20
108.3011
 30
0.0
 10
18.5352
 20
102.5334
 30
0.0
 10
13.8189
 20
98.5948
 30
0.0
 10
7.5582
 20
98.8788
 30
0.0
 10
7.5582
 20
98.8788
 30
0.0
 10
7.0426
 20
96.829
 30
0.0
 10
13.0536
 20
92.5964
 30
0.0
 10
14.3441
 20
90.823
 30
0.0
 10
14.3441
 20
90.823
 30
0.0
 10
14.7626
 20
92.7172
 30
0.0
 10
16.9369
 20
93.2477
 30
0.0
 10
18.1228
 20
93.011
 30
0.0
 10
18.1228
 20
93.011
 30
0.0
 10
18.3145
 20
95.7431
 30
0.0
 10
18.6147
 20
98.0659
 30
0.0
 10
21.4302
 20
100.5451
 30
0.0
 10
21.4302
 20
100.5451
 30
0.0
 10
24.2454
 20
98.0659
 30
0.0
 10
24.5459
 20
95.7431
 30
0.0
 10
24.7376
 20
93.011
 30
0.0
 10
24.7376
 20
93.011
 30
0.0
 10
24.7376
 20
93.011
 30
0.0
 10
24.7372
 20
93.011
 30
0.0
 10
24.7372
 20
93.011
 30
0.0
  0
SPLINE
  5
7F
330
1F
100
AcDbEntity
  8
layer 1
 62
     7
100
AcDbSpline
210
0.0
220
0.0
230
1.0
 70
    11
 71
     3
 72
    20
 73
    16
 74
     0
 42
0.0000000001
 43
0.0000000001
 12
1.0
 22
0.0
 32
0.0
 13
1.0
 23
0.0
 33
0.0
 40
0.0
 40
0.0
 40
0.0
 40
0.0
 40
0.2
 40
0.2
 40
0.2
 40
0.2
 40
0.4
 40
0.4
 40
0.4
 40
0.4
 40
0.6
 40
0.6
 40
0.6
 40
0.6
 40
1.0
 40
1.0
 40
1.0
 40
1.0
 10
51.414
 20
85.8251
 30
0.0
 10
51.9567
 20
84.5469
 30
0.0
 10
50.9248
 20
84.168
 30
0.0
 10
50.0253
 20
85.3999
 30
0.0
 10
50.0253
 20
85.3999
 30
0.0
 10
48.1972
 20
87.28
 30
0.0
 10
46.0065
 20
86.7421
 30
0.0
 10
44.3209
 20
86.6759
 30
0.0
 10
44.3209
 20
86.6759
 30
0.0
 10
46.0111
 20
88.7419
 30
0.0
 10
50.5866
 20
87.7936
 30
0.0
 10
51.4142
 20
85.8251
 30
0.0
 10
51.4142
 20
85.8251
 30
0.0
 10
51.4142
 20
85.8251
 30
0.0
 10
51.414
 20
85.8251
 30
0.0
 10
51.414
 20
85.8251
 30
0.0
  0
SPLINE
  5
80
330
1F
100
AcDbEntity
  8
layer 1
 62
     7
100
AcDbSpline
210
0.0
220
0.0
230
1.0
 70
    11
 71
     3
 72
    16
 73
    12
 74
     0
 42
0.0000000001
 43
0.0000000001
 12
1.0
 22
0.0
 32
0.0
 13
1.0
 23
0.0
 33
0.0
 40
0.0
 40
0.0
 40
0.0
 40
0.0
 40
0.25
 40
0.25
 40
0.25
 40
0.25
 40
0.5
 40
0.5
 40
0.5
 40
0.5
 40
1.0
 40
1.0
 40
1.0
 40
1.0
 10
65.2666
 20
32.519
 30
0.0
 10
65.2666
 20
32.519
 30
0.0
 10
63.6974
 20
33.4434
 30
0.0
 10
63.6676
 20
36.0275
 30
0.0
 10
63.6676
 20
36.0275
 30
0.0
 10
63.5068
 20
38.9408
 30
0.0
 10
65.2666
 20
39.6499
 30
0.0
 10
65.2666
 20
39.6499
 30
0.0
 10
65.2666
 20
39.6499
 30
0.0
 10
65.2625
 20
37.1759
 30
0.0
 10
65.2224
 20
33.8348
 30
0.0
 10
65.2666
 20
32.519
 30
0.0
  0
SPLINE
  5
81
330
1F
100
AcDbEntity
  8
layer 1
 62
     7
100
AcDbSpline
210
0.0
220
0.0
230
1.0
 70
    11
 71
     3
 72
    32
 73
    28
 74
     0
 42
0.0000000001
 43
0.0000000001
 12
1.0
 22
0.0
 32
0.0
 13
1.0
 23
0.0
 33
0.0
 40
0.0
 40
0.0
 40
0.0
 40
0.0
 40
0.125
 40
0.125
 40
0.125
 40
0.125
 40
0.25
 40
0.25
 40
0.25
 40
0.25
 40
0.375
 40
0.375
 40
0.375
 40
0.375
 40
0.5
 40
0.5
 40
0.5
 40
0.5
 40
0.625
 40
0.625
 40
0.625
 40
0.625
 40
0.75
 40
0.75
 40
0.75
 40
0.75
 40
1.0
 40
1.0
 40
1.0
 40
1.0
 10
31.9664
 20
106.3678
 30
0.0
 10
30.3917
 20
106.7081
 30
0.0
 10
29.3021
 20
108.3892
 30
0.0
 10
29.1542
 20
109.036
 30
0.0
 10
29.1542
 20
109.036
 30
0.0
 10
28.3189
 20
112.6888
 30
0.0
 10
29.9025
 20
115.727
 30
0.0
 10
32.319
 20
117.0729
 30
0.0
 10
32.319
 20
117.0729
 30
0.0
 10
39.0784
 20
120.8382
 30
0.0
 10
43.4559
 20
116.0248
 30
0.0
 10
44.0275
 20
115.3515
 30
0.0
 10
44.0275
 20
115.3515
 30
0.0
 10
48.3824
 20
109.8236
 30
0.0
 10
46.3903
 20
100.368
 30
0.0
 10
39.9153
 20
100.7986
 30
0.0
 10
39.9153
 20
100.7986
 30
0.0
 10
47.7851
 20
111.1644
 30
0.0
 10
34.2582
 20
117.8999
 30
0.0
 10
32.4088
 20
108.9549
 30
0.0
 10
32.4088
 20
108.9549
 30
0.0
 10
35.3112
 20
108.3344
 30
0.0
 10
34.9066
 20
105.8135
 30
0.0
 10
31.9664
 20
106.3676
 30
0.0
 10
31.9664
 20
106.3676
 30
0.0
 10
31.9664
 20
106.3676
 30
0.0
 10
31.9664
 20
106.3678
 30
0.0
 10
31.9664
 20
106.3678
 30
0.0
  0
ENDSEC
  0
SECTION
  2
OBJECTS
  0
DICTIONARY
  5
C
330
0
100
AcDbDictionary
281
     1
  3
ACAD_GROUP
350
D
  3
ACAD_LAYOUT
350
1A
  3
ACAD_MATERIAL
350
3B
  3
ACAD_MLEADERSTYLE
350
A4
  3
ACAD_MLINESTYLE
350
17
  3
ACAD_PLOTSETTINGS
350
19
  3
ACAD_PLOTSTYLENAME
350
E
  3
ACAD_TABLESTYLE
350
A3
  3
ACAD_VISUALSTYLE
350
2A
  0
DICTIONARY
  5
D
102
{ACAD_REACTORS
330
C
102
}
330
C
100
AcDbDictionary
281
     1
  0
DICTIONARY
  5
1A
102
{ACAD_REACTORS
330
C
102
}
330
C
100
AcDbDictionary
281
     1
  3
Layout1
350
1E
  3
Layout2
350
26
  3
Model
350
22
  0
DICTIONARY
  5
3B
102
{ACAD_REACTORS
330
C
102
}
330
C
100
AcDbDictionary
281
     1
  3
ByBlock
350
3D
  3
ByLayer
350
3C
  3
Global
350
3E
  0
DICTIONARY
  5
A4
102
{ACAD_REACTORS
330
C
102
}
330
C
100
AcDbDictionary
281
     1
  0
DICTIONARY
  5
17
102
{ACAD_REACTORS
330
C
102
}
330
C
100
AcDbDictionary
281
     1
  3
Standard
350
18
  0
DICTIONARY
  5
19
102
{ACAD_REACTORS
330
C
102
}
330
C
100
AcDbDictionary
281
     1
  0
ACDBDICTIONARYWDFLT
  5
E
102
{ACAD_REACTORS
330
C
102
}
330
C
100
AcDbDictionary
281
     1
  3
Normal
350
F
100
AcDbDictionaryWithDefault
340
F
  0
DICTIONARY
  5
A3
102
{ACAD_REACTORS
330
C
102
}
330
C
100
AcDbDictionary
281
     1
  0
DICTIONARY
  5
2A
102
{ACAD_REACTORS
330
C
102
}
330
C
100
AcDbDictionary
281
     1
  3
2dWireframe
350
2F
  3
3D Hidden
350
31
  3
3dWireframe
350
30
  3
Basic
350
32
  3
Brighten
350
36
  3
ColorChange
350
3A
  3
Conceptual
350
34
  3
Dim
350
35
  3
Facepattern
350
39
  3
Flat
350
2B
  3
FlatWithEdges
350
2C
  3
Gouraud
350
2D
  3
GouraudWithEdges
350
2E
  3
Linepattern
350
38
  3
Realistic
350
33
  3
Thicken
350
37
  0
LAYOUT
  5
1E
102
{ACAD_REACTORS
330
1A
102
}
330
1A
100
AcDbPlotSettings
  1

  2
none_device
  4

  6

 40
0.0
 41
0.0
 42
0.0
 43
0.0
 44
0.0
 45
0.0
 46
0.0
 47
0.0
 48
0.0
 49
0.0
140
0.0
141
0.0
142
1.0
143
1.0
 70
   688
 72
     0
 73
     0
 74
     5
  7

 75
    16
 76
     0
 77
     2
 78
   300
147
1.0
148
0.0
149
0.0
100
AcDbLayout
  1
Layout1
 70
     1
 71
     1
 10
0.0
 20
0.0
 11
12.0
 21
9.0
 12
0.0
 22
0.0
 32
0.0
 14
1.000000000000000E+20
 24
1.000000000000000E+20
 34
1.000000000000000E+20
 15
-1.000000000000000E+20
 25
-1.000000000000000E+20
 35
-1.000000000000000E+20
146
0.0
 13
0.0
 23
0.0
 33
0.0
 16
1.0
 26
0.0
 36
0.0
 17
0.0
 27
1.0
 37
0.0
 76
     0
330
1B
  0
LAYOUT
  5
26
102
{ACAD_REACTORS
330
1A
102
}
330
1A
100
AcDbPlotSettings
  1

  2
none_device
  4

  6

 40
0.0
 41
0.0
 42
0.0
 43
0.0
 44
0.0
 45
0.0
 46
0.0
 47
0.0
 48
0.0
 49
0.0
140
0.0
141
0.0
142
1.0
143
1.0
 70
   688
 72
     0
 73
     0
 74
     5
  7

 75
    16
 76
     0
 77
     2
 78
   300
147
1.0
148
0.0
149
0.0
100
AcDbLayout
  1
Layout2
 70
     1
 71
     2
 10
0.0
 20
0.0
 11
0.0
 21
0.0
 12
0.0
 22
0.0
 32
0.0
 14
0.0
 24
0.0
 34
0.0
 15
0.0
 25
0.0
 35
0.0
146
0.0
 13
0.0
 23
0.0
 33
0.0
 16
1.0
 26
0.0
 36
0.0
 17
0.0
 27
1.0
 37
0.0
 76
     0
330
23
  0
LAYOUT
  5
22
102
{ACAD_REACTORS
330
1A
102
}
330
1A
100
AcDbPlotSettings
  1

  2
none_device
  4

  6

 40
0.0
 41
0.0
 42
0.0
 43
0.0
 44
0.0
 45
0.0
 46
0.0
 47
0.0
 48
0.0
 49
0.0
140
0.0
141
0.0
142
1.0
143
1.0
 70
  1712
 72
     0
 73
     0
 74
     0
  7

 75
     0
 76
     0
 77
     2
 78
   300
147
1.0
148
0.0
149
0.0
100
AcDbLayout
  1
Model
 70
     1
 71
     0
 10
0.0
 20
0.0
 11
12.0
 21
9.0
 12
0.0
 22
0.0
 32
0.0
 14
-28.2138
 24
-114.9291
 34
0.0
 15
72.7267
 25
131.7711
 35
0.0
146
0.0
 13
0.0
 23
0.0
 33
0.0
 16
1.0
 26
0.0
 36
0.0
 17
0.0
 27
1.0
 37
0.0
 76
     0
330
1F
331
29
  0
MATERIAL
  5
3D
102
{ACAD_REACTORS
330
3B
102
}
330
3B
100
AcDbMaterial
  1
ByBlock
 72
     1
 94
      127
  0
MATERIAL
  5
3C
102
{ACAD_REACTORS
330
3B
102
}
330
3B
100
AcDbMaterial
  1
ByLayer
 72
     1
 94
      127
  0
MATERIAL
  5
3E
102
{ACAD_REACTORS
330
3B
102
}
330
3B
100
AcDbMaterial
  1
Global
 72
     1
 94
      127
  0
MLINESTYLE
  5
18
102
{ACAD_REACTORS
330
17
102
}
330
17
100
AcDbMlineStyle
  2
Standard
 70
     0
  3

 62
   256
 51
90.0
 52
90.0
 71
     2
 49
0.5
 62
   256
  6
BYLAYER
 49
-0.5
 62
   256
  6
BYLAYER
  0
ACDBPLACEHOLDER
  5
F
102
{ACAD_REACTORS
330
E
102
}
330
E
  0
VISUALSTYLE
  5
2F
102
{ACAD_REACTORS
330
2A
102
}
102
{ACAD_XDICTIONARY
360
8B
102
}
330
2A
100
AcDbVisualStyle
  2
2dWireframe
 70
     4
 71
     0
 72
     2
 73
     0
 90
        0
 40
-0.6
 41
-30.0
 62
     5
 63
     7
421
 16777215
 74
     1
 91
        4
 64
     7
 65
   257
 75
     1
175
     1
 42
1.0
 92
        0
 66
   257
 43
1.0
 76
     1
 77
     6
 78
     2
 67
     7
 79
     5
170
     0
171
     0
290
     0
174
     0
 93
        1
 44
0.0
173
     0
291
     0
 45
0.0
  0
VISUALSTYLE
  5
31
102
{ACAD_REACTORS
330
2A
102
}
102
{ACAD_XDICTIONARY
360
8F
102
}
330
2A
100
AcDbVisualStyle
  2
3D Hidden
 70
     6
 71
     1
 72
     2
 73
     2
 90
        0
 40
-0.6
 41
-30.0
 62
     5
 63
     7
421
 16777215
 74
     2
 91
        2
 64
     7
 65
   257
 75
     2
175
     1
 42
40.0
 92
        0
 66
   257
 43
1.0
 76
     1
 77
     6
 78
     2
 67
     7
 79
     3
170
     0
171
     0
290
     0
174
     0
 93
        1
 44
0.0
173
     0
291
     0
 45
0.0
  0
VISUALSTYLE
  5
30
102
{ACAD_REACTORS
330
2A
102
}
102
{ACAD_XDICTIONARY
360
8D
102
}
330
2A
100
AcDbVisualStyle
  2
3dWireframe
 70
     5
 71
     0
 72
     2
 73
     0
 90
        0
 40
-0.6
 41
-30.0
 62
     5
 63
     7
421
 16777215
 74
     1
 91
        4
 64
     7
 65
   257
 75
     1
175
     1
 42
1.0
 92
        0
 66
   257
 43
1.0
 76
     1
 77
     6
 78
     2
 67
     7
 79
     5
170
     0
171
     0
290
     0
174
     0
 93
        1
 44
0.0
173
     0
291
     0
 45
0.0
  0
VISUALSTYLE
  5
32
102
{ACAD_REACTORS
330
2A
102
}
102
{ACAD_XDICTIONARY
360
91
102
}
330
2A
100
AcDbVisualStyle
  2
Basic
 70
     7
 71
     1
 72
     0
 73
     1
 90
        0
 40
-0.6
 41
-30.0
 62
     5
 63
     7
421
 16777215
 74
     0
 91
        4
 64
     7
 65
   257
 75
     1
175
     1
 42
1.0
 92
        8
 66
     7
 43
1.0
 76
     1
 77
     6
 78
     2
 67
     7
 79
     5
170
     0
171
     0
290
     0
174
     0
 93
        1
 44
0.0
173
     0
291
     1
 45
0.0
  0
VISUALSTYLE
  5
36
102
{ACAD_REACTORS
330
2A
102
}
102
{ACAD_XDICTIONARY
360
99
102
}
330
2A
100
AcDbVisualStyle
  2
Brighten
 70
    12
 71
     2
 72
     2
 73
     0
 90
        0
 40
-0.6
 41
-30.0
 62
     5
 63
     7
421
 16777215
 74
     1
 91
        4
 64
     7
 65
   257
 75
     1
175
     1
 42
1.0
 92
        8
 66
     7
 43
1.0
 76
     1
 77
     6
 78
     2
 67
     7
 79
     5
170
     0
171
     0
290
     0
174
     0
 93
        1
 44
50.0
173
     0
291
     1
 45
0.0
  0
VISUALSTYLE
  5
3A
102
{ACAD_REACTORS
330
2A
102
}
102
{ACAD_XDICTIONARY
360
A1
102
}
330
2A
100
AcDbVisualStyle
  2
ColorChange
 70
    16
 71
     2
 72
     2
 73
     3
 90
        0
 40
-0.6
 41
-30.0
 62
     5
 63
     8
421
  8421504
 74
     1
 91
        4
 64
     7
 65
   257
 75
     1
175
     1
 42
1.0
 92
        8
 66
     8
424
  8421504
 43
1.0
 76
     1
 77
     6
 78
     2
 67
     7
 79
     5
170
     0
171
     0
290
     0
174
     0
 93
        1
 44
0.0
173
     0
291
     1
 45
0.0
  0
VISUALSTYLE
  5
34
102
{ACAD_REACTORS
330
2A
102
}
102
{ACAD_XDICTIONARY
360
95
102
}
330
2A
100
AcDbVisualStyle
  2
Conceptual
 70
     9
 71
     3
 72
     2
 73
     0
 90
        0
 40
-0.6
 41
-30.0
 62
     5
 63
     7
421
 16777215
 74
     2
 91
        2
 64
     7
 65
   257
 75
     1
175
     1
 42
40.0
 92
        8
 66
     7
 43
1.0
 76
     1
 77
     6
 78
     2
 67
     7
 79
     3
170
     0
171
     0
290
     0
174
     0
 93
        1
 44
0.0
173
     0
291
     0
 45
0.0
  0
VISUALSTYLE
  5
35
102
{ACAD_REACTORS
330
2A
102
}
102
{ACAD_XDICTIONARY
360
97
102
}
330
2A
100
AcDbVisualStyle
  2
Dim
 70
    11
 71
     2
 72
     2
 73
     0
 90
        0
 40
-0.6
 41
-30.0
 62
     5
 63
     7
421
 16777215
 74
     1
 91
        4
 64
     7
 65
   257
 75
     1
175
     1
 42
1.0
 92
        8
 66
     7
 43
1.0
 76
     1
 77
     6
 78
     2
 67
     7
 79
     5
170
     0
171
     0
290
     0
174
     0
 93
        1
 44
-50.0
173
     0
291
     1
 45
0.0
  0
VISUALSTYLE
  5
39
102
{ACAD_REACTORS
330
2A
102
}
102
{ACAD_XDICTIONARY
360
9F
102
}
330
2A
100
AcDbVisualStyle
  2
Facepattern
 70
    15
 71
     2
 72
     2
 73
     0
 90
        0
 40
-0.6
 41
-30.0
 62
     5
 63
     7
421
 16777215
 74
     1
 91
        4
 64
     7
 65
   257
 75
     1
175
     1
 42
1.0
 92
        8
 66
     7
 43
1.0
 76
     1
 77
     6
 78
     2
 67
     7
 79
     5
170
     0
171
     0
290
     0
174
     0
 93
        1
 44
0.0
173
     0
291
     1
 45
0.0
  0
VISUALSTYLE
  5
2B
102
{ACAD_REACTORS
330
2A
102
}
102
{ACAD_XDICTIONARY
360
83
102
}
330
2A
100
AcDbVisualStyle
  2
Flat
 70
     0
 71
     2
 72
     1
 73
     1
 90
        2
 40
-0.6
 41
30.0
 62
     5
 63
     7
421
 16777215
 74
     0
 91
        4
 64
     7
 65
   257
 75
     1
175
     1
 42
1.0
 92
        8
 66
     7
 43
1.0
 76
     1
 77
     6
 78
     2
 67
     7
 79
     5
170
     0
171
     0
290
     0
174
     0
 93
       13
 44
0.0
173
     0
291
     1
 45
0.0
  0
VISUALSTYLE
  5
2C
102
{ACAD_REACTORS
330
2A
102
}
102
{ACAD_XDICTIONARY
360
85
102
}
330
2A
100
AcDbVisualStyle
  2
FlatWithEdges
 70
     1
 71
     2
 72
     1
 73
     1
 90
        2
 40
-0.6
 41
30.0
 62
     5
 63
     7
421
 16777215
 74
     1
 91
        4
 64
     7
 65
   257
 75
     1
175
     1
 42
1.0
 92
        0
 66
   257
 43
1.0
 76
     1
 77
     6
 78
     2
 67
     7
 79
     5
170
     0
171
     0
290
     0
174
     0
 93
       13
 44
0.0
173
     0
291
     1
 45
0.0
  0
VISUALSTYLE
  5
2D
102
{ACAD_REACTORS
330
2A
102
}
102
{ACAD_XDICTIONARY
360
87
102
}
330
2A
100
AcDbVisualStyle
  2
Gouraud
 70
     2
 71
     2
 72
     2
 73
     1
 90
        2
 40
-0.6
 41
30.0
 62
     5
 63
     7
421
 16777215
 74
     0
 91
        4
 64
     7
 65
   257
 75
     1
175
     1
 42
1.0
 92
        0
 66
     7
 43
1.0
 76
     1
 77
     6
 78
     2
 67
     7
 79
     5
170
     0
171
     0
290
     0
174
     0
 93
       13
 44
0.0
173
     0
291
     1
 45
0.0
  0
VISUALSTYLE
  5
2E
102
{ACAD_REACTORS
330
2A
102
}
102
{ACAD_XDICTIONARY
360
89
102
}
330
2A
100
AcDbVisualStyle
  2
GouraudWithEdges
 70
     3
 71
     2
 72
     2
 73
     1
 90
        2
 40
-0.6
 41
30.0
 62
     5
 63
     7
421
 16777215
 74
     1
 91
        4
 64
     7
 65
   257
 75
     1
175
     1
 42
1.0
 92
        0
 66
   257
 43
1.0
 76
     1
 77
     6
 78
     2
 67
     7
 79
     5
170
     0
171
     0
290
     0
174
     0
 93
       13
 44
0.0
173
     0
291
     1
 45
0.0
  0
VISUALSTYLE
  5
38
102
{ACAD_REACTORS
330
2A
102
}
102
{ACAD_XDICTIONARY
360
9D
102
}
330
2A
100
AcDbVisualStyle
  2
Linepattern
 70
    14
 71
     2
 72
     2
 73
     0
 90
        0
 40
-0.6
 41
-30.0
 62
     5
 63
     7
421
 16777215
 74
     1
 91
        4
 64
     7
 65
   257
 75
     7
175
     7
 42
1.0
 92
        8
 66
     7
 43
1.0
 76
     1
 77
     6
 78
     2
 67
     7
 79
     5
170
     0
171
     0
290
     0
174
     0
 93
        1
 44
0.0
173
     0
291
     1
 45
0.0
  0
VISUALSTYLE
  5
33
102
{ACAD_REACTORS
330
2A
102
}
102
{ACAD_XDICTIONARY
360
93
102
}
330
2A
100
AcDbVisualStyle
  2
Realistic
 70
     8
 71
     2
 72
     2
 73
     0
 90
        0
 40
-0.6
 41
-30.0
 62
     5
 63
     7
421
 16777215
 74
     1
 91
        0
 64
     7
 65
   257
 75
     1
175
     1
 42
1.0
 92
        8
 66
     8
424
  7895160
 43
1.0
 76
     1
 77
     6
 78
     2
 67
     7
 79
     5
170
     0
171
     0
290
     0
174
     0
 93
       13
 44
0.0
173
     0
291
     0
 45
0.0
  0
VISUALSTYLE
  5
37
102
{ACAD_REACTORS
330
2A
102
}
102
{ACAD_XDICTIONARY
360
9B
102
}
330
2A
100
AcDbVisualStyle
  2
Thicken
 70
    13
 71
     2
 72
     2
 73
     0
 90
        0
 40
-0.6
 41
-30.0
 62
     5
 63
     7
421
 16777215
 74
     1
 91
        4
 64
     7
 65
   257
 75
     1
175
     1
 42
1.0
 92
       12
 66
     7
 43
1.0
 76
     1
 77
     6
 78
     2
 67
     7
 79
     5
170
     0
171
     0
290
     0
174
     0
 93
        1
 44
0.0
173
     0
291
     1
 45
0.0
  0
DICTIONARY
  5
8B
330
2F
100
AcDbDictionary
280
     1
281
     1
  3
ACAD_XREC_ROUNDTRIP
360
8C
  0
DICTIONARY
  5
8F
330
31
100
AcDbDictionary
280
     1
281
     1
  3
ACAD_XREC_ROUNDTRIP
360
90
  0
DICTIONARY
  5
8D
330
30
100
AcDbDictionary
280
     1
281
     1
  3
ACAD_XREC_ROUNDTRIP
360
8E
  0
DICTIONARY
  5
91
330
32
100
AcDbDictionary
280
     1
281
     1
  3
ACAD_XREC_ROUNDTRIP
360
92
  0
DICTIONARY
  5
99
330
36
100
AcDbDictionary
280
     1
281
     1
  3
ACAD_XREC_ROUNDTRIP
360
9A
  0
DICTIONARY
  5
A1
330
3A
100
AcDbDictionary
280
     1
281
     1
  3
ACAD_XREC_ROUNDTRIP
360
A2
  0
DICTIONARY
  5
95
330
34
100
AcDbDictionary
280
     1
281
     1
  3
ACAD_XREC_ROUNDTRIP
360
96
  0
DICTIONARY
  5
97
330
35
100
AcDbDictionary
280
     1
281
     1
  3
ACAD_XREC_ROUNDTRIP
360
98
  0
DICTIONARY
  5
9F
330
39
100
AcDbDictionary
280
     1
281
     1
  3
ACAD_XREC_ROUNDTRIP
360
A0
  0
DICTIONARY
  5
83
330
2B
100
AcDbDictionary
280
     1
281
     1
  3
ACAD_XREC_ROUNDTRIP
360
84
  0
DICTIONARY
  5
85
330
2C
100
AcDbDictionary
280
     1
281
     1
  3
ACAD_XREC_ROUNDTRIP
360
86
  0
DICTIONARY
  5
87
330
2D
100
AcDbDictionary
280
     1
281
     1
  3
ACAD_XREC_ROUNDTRIP
360
88
  0
DICTIONARY
  5
89
330
2E
100
AcDbDictionary
280
     1
281
     1
  3
ACAD_XREC_ROUNDTRIP
360
8A
  0
DICTIONARY
  5
9D
330
38
100
AcDbDictionary
280
     1
281
     1
  3
ACAD_XREC_ROUNDTRIP
360
9E
  0
DICTIONARY
  5
93
330
33
100
AcDbDictionary
280
     1
281
     1
  3
ACAD_XREC_ROUNDTRIP
360
94
  0
DICTIONARY
  5
9B
330
37
100
AcDbDictionary
280
     1
281
     1
  3
ACAD_XREC_ROUNDTRIP
360
9C
  0
XRECORD
  5
8C
102
{ACAD_REACTORS
330
8B
102
}
330
8B
100
AcDbXrecord
280
     1
102
RTVSPropertyOp0
 70
     1
102
RTVSPropertyOp1
 70
     1
102
RTVSPropertyOp2
 70
     1
102
RTVSPropertyOp3
 70
     1
102
RTVSPropertyOp4
 70
     1
102
RTVSPropertyOp5
 70
     1
102
RTVSPropertyOp6
 70
     1
102
RTVSPropertyOp7
 70
     1
102
RTVSPropertyOp8
 70
     1
102
RTVSPropertyOp9
 70
     1
102
RTVSPropertyOp10
 70
     1
102
RTVSPropertyOp11
 70
     1
102
RTVSPropertyOp12
 70
     1
102
RTVSPropertyOp13
 70
     1
102
RTVSPropertyOp14
 70
     1
102
RTVSPropertyOp15
 70
     1
102
RTVSPropertyOp16
 70
     1
102
RTVSPropertyOp17
 70
     1
102
RTVSPropertyOp18
 70
     1
102
RTVSPropertyOp19
 70
     1
102
RTVSPropertyOp20
 70
     1
102
RTVSPropertyOp21
 70
     1
102
RTVSPropertyOp22
 70
     1
102
RTVSPropertyOp23
 70
     1
102
RTVSPropertyOp24
 70
     1
102
RTVSPropertyOp25
 70
     1
102
RTVSPropertyOp26
 70
     1
102
RTVSPropertyOp27
 70
     1
102
RTVSPropertyOp28
 70
     1
102
RTVSPropertyOp29
 70
     1
102
RTVSPropertyOp30
 70
     1
102
RTVSPropertyOp31
 70
     1
102
RTVSPropertyOp32
 70
     1
  0
XRECORD
  5
90
102
{ACAD_REACTORS
330
8F
102
}
330
8F
100
AcDbXrecord
280
     1
102
RTVSPropertyOp0
 70
     1
102
RTVSPropertyOp1
 70
     1
102
RTVSPropertyOp2
 70
     1
102
RTVSPropertyOp3
 70
     1
102
RTVSPropertyOp4
 70
     1
102
RTVSPropertyOp5
 70
     1
102
RTVSPropertyOp6
 70
     1
102
RTVSPropertyOp7
 70
     1
102
RTVSPropertyOp8
 70
     1
102
RTVSPropertyOp9
 70
     1
102
RTVSPropertyOp10
 70
     1
102
RTVSPropertyOp11
 70
     1
102
RTVSPropertyOp12
 70
     1
102
RTVSPropertyOp13
 70
     1
102
RTVSPropertyOp14
 70
     1
102
RTVSPropertyOp15
 70
     1
102
RTVSPropertyOp16
 70
     1
102
RTVSPropertyOp17
 70
     1
102
RTVSPropertyOp18
 70
     1
102
RTVSPropertyOp19
 70
     1
102
RTVSPropertyOp20
 70
     1
102
RTVSPropertyOp21
 70
     1
102
RTVSPropertyOp22
 70
     1
102
RTVSPropertyOp23
 70
     1
102
RTVSPropertyOp24
 70
     1
102
RTVSPropertyOp25
 70
     1
102
RTVSPropertyOp26
 70
     1
102
RTVSPropertyOp27
 70
     1
102
RTVSPropertyOp28
 70
     1
102
RTVSPropertyOp29
 70
     1
102
RTVSPropertyOp30
 70
     1
102
RTVSPropertyOp31
 70
     1
102
RTVSPropertyOp32
 70
     1
  0
XRECORD
  5
8E
102
{ACAD_REACTORS
330
8D
102
}
330
8D
100
AcDbXrecord
280
     1
102
RTVSPropertyOp0
 70
     1
102
RTVSPropertyOp1
 70
     1
102
RTVSPropertyOp2
 70
     1
102
RTVSPropertyOp3
 70
     1
102
RTVSPropertyOp4
 70
     1
102
RTVSPropertyOp5
 70
     1
102
RTVSPropertyOp6
 70
     1
102
RTVSPropertyOp7
 70
     1
102
RTVSPropertyOp8
 70
     1
102
RTVSPropertyOp9
 70
     1
102
RTVSPropertyOp10
 70
     1
102
RTVSPropertyOp11
 70
     1
102
RTVSPropertyOp12
 70
     1
102
RTVSPropertyOp13
 70
     1
102
RTVSPropertyOp14
 70
     1
102
RTVSPropertyOp15
 70
     1
102
RTVSPropertyOp16
 70
     1
102
RTVSPropertyOp17
 70
     1
102
RTVSPropertyOp18
 70
     1
102
RTVSPropertyOp19
 70
     1
102
RTVSPropertyOp20
 70
     1
102
RTVSPropertyOp21
 70
     1
102
RTVSPropertyOp22
 70
     1
102
RTVSPropertyOp23
 70
     1
102
RTVSPropertyOp24
 70
     1
102
RTVSPropertyOp25
 70
     1
102
RTVSPropertyOp26
 70
     1
102
RTVSPropertyOp27
 70
     1
102
RTVSPropertyOp28
 70
     1
102
RTVSPropertyOp29
 70
     1
102
RTVSPropertyOp30
 70
     1
102
RTVSPropertyOp31
 70
     1
102
RTVSPropertyOp32
 70
     1
  0
XRECORD
  5
92
102
{ACAD_REACTORS
330
91
102
}
330
91
100
AcDbXrecord
280
     1
102
RTVSPropertyOp0
 70
     1
102
RTVSPropertyOp1
 70
     1
102
RTVSPropertyOp2
 70
     1
102
RTVSPropertyOp3
 70
     1
102
RTVSPropertyOp4
 70
     1
102
RTVSPropertyOp5
 70
     1
102
RTVSPropertyOp6
 70
     1
102
RTVSPropertyOp7
 70
     1
102
RTVSPropertyOp8
 70
     1
102
RTVSPropertyOp9
 70
     1
102
RTVSPropertyOp10
 70
     1
102
RTVSPropertyOp11
 70
     1
102
RTVSPropertyOp12
 70
     1
102
RTVSPropertyOp13
 70
     1
102
RTVSPropertyOp14
 70
     1
102
RTVSPropertyOp15
 70
     1
102
RTVSPropertyOp16
 70
     1
102
RTVSPropertyOp17
 70
     1
102
RTVSPropertyOp18
 70
     1
102
RTVSPropertyOp19
 70
     1
102
RTVSPropertyOp20
 70
     1
102
RTVSPropertyOp21
 70
     1
102
RTVSPropertyOp22
 70
     1
102
RTVSPropertyOp23
 70
     1
102
RTVSPropertyOp24
 70
     1
102
RTVSPropertyOp25
 70
     1
102
RTVSPropertyOp26
 70
     1
102
RTVSPropertyOp27
 70
     1
102
RTVSPropertyOp28
 70
     1
102
RTVSPropertyOp29
 70
     1
102
RTVSPropertyOp30
 70
     1
102
RTVSPropertyOp31
 70
     1
102
RTVSPropertyOp32
 70
     1
  0
XRECORD
  5
9A
102
{ACAD_REACTORS
330
99
102
}
330
99
100
AcDbXrecord
280
     1
102
RTVSPropertyOp0
 70
     1
102
RTVSPropertyOp1
 70
     1
102
RTVSPropertyOp2
 70
     1
102
RTVSPropertyOp3
 70
     1
102
RTVSPropertyOp4
 70
     1
102
RTVSPropertyOp5
 70
     1
102
RTVSPropertyOp6
 70
     1
102
RTVSPropertyOp7
 70
     1
102
RTVSPropertyOp8
 70
     1
102
RTVSPropertyOp9
 70
     1
102
RTVSPropertyOp10
 70
     1
102
RTVSPropertyOp11
 70
     1
102
RTVSPropertyOp12
 70
     1
102
RTVSPropertyOp13
 70
     1
102
RTVSPropertyOp14
 70
     1
102
RTVSPropertyOp15
 70
     1
102
RTVSPropertyOp16
 70
     1
102
RTVSPropertyOp17
 70
     1
102
RTVSPropertyOp18
 70
     1
102
RTVSPropertyOp19
 70
     1
102
RTVSPropertyOp20
 70
     1
102
RTVSPropertyOp21
 70
     1
102
RTVSPropertyOp22
 70
     1
102
RTVSPropertyOp23
 70
     1
102
RTVSPropertyOp24
 70
     1
102
RTVSPropertyOp25
 70
     1
102
RTVSPropertyOp26
 70
     1
102
RTVSPropertyOp27
 70
     1
102
RTVSPropertyOp28
 70
     1
102
RTVSPropertyOp29
 70
     1
102
RTVSPropertyOp30
 70
     1
102
RTVSPropertyOp31
 70
     1
102
RTVSPropertyOp32
 70
     1
  0
XRECORD
  5
A2
102
{ACAD_REACTORS
330
A1
102
}
330
A1
100
AcDbXrecord
280
     1
102
RTVSPropertyOp0
 70
     1
102
RTVSPropertyOp1
 70
     1
102
RTVSPropertyOp2
 70
     1
102
RTVSPropertyOp3
 70
     1
102
RTVSPropertyOp4
 70
     1
102
RTVSPropertyOp5
 70
     1
102
RTVSPropertyOp6
 70
     1
102
RTVSPropertyOp7
 70
     1
102
RTVSPropertyOp8
 70
     1
102
RTVSPropertyOp9
 70
     1
102
RTVSPropertyOp10
 70
     1
102
RTVSPropertyOp11
 70
     1
102
RTVSPropertyOp12
 70
     1
102
RTVSPropertyOp13
 70
     1
102
RTVSPropertyOp14
 70
     1
102
RTVSPropertyOp15
 70
     1
102
RTVSPropertyOp16
 70
     1
102
RTVSPropertyOp17
 70
     1
102
RTVSPropertyOp18
 70
     1
102
RTVSPropertyOp19
 70
     1
102
RTVSPropertyOp20
 70
     1
102
RTVSPropertyOp21
 70
     1
102
RTVSPropertyOp22
 70
     1
102
RTVSPropertyOp23
 70
     1
102
RTVSPropertyOp24
 70
     1
102
RTVSPropertyOp25
 70
     1
102
RTVSPropertyOp26
 70
     1
102
RTVSPropertyOp27
 70
     1
102
RTVSPropertyOp28
 70
     1
102
RTVSPropertyOp29
 70
     1
102
RTVSPropertyOp30
 70
     1
102
RTVSPropertyOp31
 70
     1
102
RTVSPropertyOp32
 70
     1
  0
XRECORD
  5
96
102
{ACAD_REACTORS
330
95
102
}
330
95
100
AcDbXrecord
280
     1
102
RTVSPropertyOp0
 70
     1
102
RTVSPropertyOp1
 70
     1
102
RTVSPropertyOp2
 70
     1
102
RTVSPropertyOp3
 70
     1
102
RTVSPropertyOp4
 70
     1
102
RTVSPropertyOp5
 70
     1
102
RTVSPropertyOp6
 70
     1
102
RTVSPropertyOp7
 70
     1
102
RTVSPropertyOp8
 70
     1
102
RTVSPropertyOp9
 70
     1
102
RTVSPropertyOp10
 70
     1
102
RTVSPropertyOp11
 70
     1
102
RTVSPropertyOp12
 70
     1
102
RTVSPropertyOp13
 70
     1
102
RTVSPropertyOp14
 70
     1
102
RTVSPropertyOp15
 70
     1
102
RTVSPropertyOp16
 70
     1
102
RTVSPropertyOp17
 70
     1
102
RTVSPropertyOp18
 70
     1
102
RTVSPropertyOp19
 70
     1
102
RTVSPropertyOp20
 70
     1
102
RTVSPropertyOp21
 70
     1
102
RTVSPropertyOp22
 70
     1
102
RTVSPropertyOp23
 70
     1
102
RTVSPropertyOp24
 70
     1
102
RTVSPropertyOp25
 70
     1
102
RTVSPropertyOp26
 70
     1
102
RTVSPropertyOp27
 70
     1
102
RTVSPropertyOp28
 70
     1
102
RTVSPropertyOp29
 70
     1
102
RTVSPropertyOp30
 70
     1
102
RTVSPropertyOp31
 70
     1
102
RTVSPropertyOp32
 70
     1
  0
XRECORD
  5
98
102
{ACAD_REACTORS
330
97
102
}
330
97
100
AcDbXrecord
280
     1
102
RTVSPropertyOp0
 70
     1
102
RTVSPropertyOp1
 70
     1
102
RTVSPropertyOp2
 70
     1
102
RTVSPropertyOp3
 70
     1
102
RTVSPropertyOp4
 70
     1
102
RTVSPropertyOp5
 70
     1
102
RTVSPropertyOp6
 70
     1
102
RTVSPropertyOp7
 70
     1
102
RTVSPropertyOp8
 70
     1
102
RTVSPropertyOp9
 70
     1
102
RTVSPropertyOp10
 70
     1
102
RTVSPropertyOp11
 70
     1
102
RTVSPropertyOp12
 70
     1
102
RTVSPropertyOp13
 70
     1
102
RTVSPropertyOp14
 70
     1
102
RTVSPropertyOp15
 70
     1
102
RTVSPropertyOp16
 70
     1
102
RTVSPropertyOp17
 70
     1
102
RTVSPropertyOp18
 70
     1
102
RTVSPropertyOp19
 70
     1
102
RTVSPropertyOp20
 70
     1
102
RTVSPropertyOp21
 70
     1
102
RTVSPropertyOp22
 70
     1
102
RTVSPropertyOp23
 70
     1
102
RTVSPropertyOp24
 70
     1
102
RTVSPropertyOp25
 70
     1
102
RTVSPropertyOp26
 70
     1
102
RTVSPropertyOp27
 70
     1
102
RTVSPropertyOp28
 70
     1
102
RTVSPropertyOp29
 70
     1
102
RTVSPropertyOp30
 70
     1
102
RTVSPropertyOp31
 70
     1
102
RTVSPropertyOp32
 70
     1
  0
XRECORD
  5
A0
102
{ACAD_REACTORS
330
9F
102
}
330
9F
100
AcDbXrecord
280
     1
102
RTVSPropertyOp0
 70
     1
102
RTVSPropertyOp1
 70
     1
102
RTVSPropertyOp2
 70
     1
102
RTVSPropertyOp3
 70
     1
102
RTVSPropertyOp4
 70
     1
102
RTVSPropertyOp5
 70
     1
102
RTVSPropertyOp6
 70
     1
102
RTVSPropertyOp7
 70
     1
102
RTVSPropertyOp8
 70
     1
102
RTVSPropertyOp9
 70
     1
102
RTVSPropertyOp10
 70
     1
102
RTVSPropertyOp11
 70
     1
102
RTVSPropertyOp12
 70
     1
102
RTVSPropertyOp13
 70
     1
102
RTVSPropertyOp14
 70
     1
102
RTVSPropertyOp15
 70
     1
102
RTVSPropertyOp16
 70
     1
102
RTVSPropertyOp17
 70
     1
102
RTVSPropertyOp18
 70
     1
102
RTVSPropertyOp19
 70
     1
102
RTVSPropertyOp20
 70
     1
102
RTVSPropertyOp21
 70
     1
102
RTVSPropertyOp22
 70
     1
102
RTVSPropertyOp23
 70
     1
102
RTVSPropertyOp24
 70
     1
102
RTVSPropertyOp25
 70
     1
102
RTVSPropertyOp26
 70
     1
102
RTVSPropertyOp27
 70
     1
102
RTVSPropertyOp28
 70
     1
102
RTVSPropertyOp29
 70
     1
102
RTVSPropertyOp30
 70
     1
102
RTVSPropertyOp31
 70
     1
102
RTVSPropertyOp32
 70
     1
  0
XRECORD
  5
84
102
{ACAD_REACTORS
330
83
102
}
330
83
100
AcDbXrecord
280
     1
102
RTVSPropertyOp0
 70
     1
102
RTVSPropertyOp1
 70
     1
102
RTVSPropertyOp2
 70
     1
102
RTVSPropertyOp3
 70
     1
102
RTVSPropertyOp4
 70
     1
102
RTVSPropertyOp5
 70
     1
102
RTVSPropertyOp6
 70
     1
102
RTVSPropertyOp7
 70
     1
102
RTVSPropertyOp8
 70
     1
102
RTVSPropertyOp9
 70
     1
102
RTVSPropertyOp10
 70
     1
102
RTVSPropertyOp11
 70
     1
102
RTVSPropertyOp12
 70
     1
102
RTVSPropertyOp13
 70
     1
102
RTVSPropertyOp14
 70
     1
102
RTVSPropertyOp15
 70
     1
102
RTVSPropertyOp16
 70
     1
102
RTVSPropertyOp17
 70
     1
102
RTVSPropertyOp18
 70
     1
102
RTVSPropertyOp19
 70
     1
102
RTVSPropertyOp20
 70
     1
102
RTVSPropertyOp21
 70
     1
102
RTVSPropertyOp22
 70
     1
102
RTVSPropertyOp23
 70
     1
102
RTVSPropertyOp24
 70
     1
102
RTVSPropertyOp25
 70
     1
102
RTVSPropertyOp26
 70
     1
102
RTVSPropertyOp27
 70
     1
102
RTVSPropertyOp28
 70
     1
102
RTVSPropertyOp29
 70
     1
102
RTVSPropertyOp30
 70
     1
102
RTVSPropertyOp31
 70
     1
102
RTVSPropertyOp32
 70
     1
  0
XRECORD
  5
86
102
{ACAD_REACTORS
330
85
102
}
330
85
100
AcDbXrecord
280
     1
102
RTVSPropertyOp0
 70
     1
102
RTVSPropertyOp1
 70
     1
102
RTVSPropertyOp2
 70
     1
102
RTVSPropertyOp3
 70
     1
102
RTVSPropertyOp4
 70
     1
102
RTVSPropertyOp5
 70
     1
102
RTVSPropertyOp6
 70
     1
102
RTVSPropertyOp7
 70
     1
102
RTVSPropertyOp8
 70
     1
102
RTVSPropertyOp9
 70
     1
102
RTVSPropertyOp10
 70
     1
102
RTVSPropertyOp11
 70
     1
102
RTVSPropertyOp12
 70
     1
102
RTVSPropertyOp13
 70
     1
102
RTVSPropertyOp14
 70
     1
102
RTVSPropertyOp15
 70
     1
102
RTVSPropertyOp16
 70
     1
102
RTVSPropertyOp17
 70
     1
102
RTVSPropertyOp18
 70
     1
102
RTVSPropertyOp19
 70
     1
102
RTVSPropertyOp20
 70
     1
102
RTVSPropertyOp21
 70
     1
102
RTVSPropertyOp22
 70
     1
102
RTVSPropertyOp23
 70
     1
102
RTVSPropertyOp24
 70
     1
102
RTVSPropertyOp25
 70
     1
102
RTVSPropertyOp26
 70
     1
102
RTVSPropertyOp27
 70
     1
102
RTVSPropertyOp28
 70
     1
102
RTVSPropertyOp29
 70
     1
102
RTVSPropertyOp30
 70
     1
102
RTVSPropertyOp31
 70
     1
102
RTVSPropertyOp32
 70
     1
  0
XRECORD
  5
88
102
{ACAD_REACTORS
330
87
102
}
330
87
100
AcDbXrecord
280
     1
102
RTVSPropertyOp0
 70
     1
102
RTVSPropertyOp1
 70
     1
102
RTVSPropertyOp2
 70
     1
102
RTVSPropertyOp3
 70
     1
102
RTVSPropertyOp4
 70
     1
102
RTVSPropertyOp5
 70
     1
102
RTVSPropertyOp6
 70
     1
102
RTVSPropertyOp7
 70
     1
102
RTVSPropertyOp8
 70
     1
102
RTVSPropertyOp9
 70
     1
102
RTVSPropertyOp10
 70
     1
102
RTVSPropertyOp11
 70
     1
102
RTVSPropertyOp12
 70
     1
102
RTVSPropertyOp13
 70
     1
102
RTVSPropertyOp14
 70
     1
102
RTVSPropertyOp15
 70
     1
102
RTVSPropertyOp16
 70
     1
102
RTVSPropertyOp17
 70
     1
102
RTVSPropertyOp18
 70
     1
102
RTVSPropertyOp19
 70
     1
102
RTVSPropertyOp20
 70
     1
102
RTVSPropertyOp21
 70
     1
102
RTVSPropertyOp22
 70
     1
102
RTVSPropertyOp23
 70
     1
102
RTVSPropertyOp24
 70
     1
102
RTVSPropertyOp25
 70
     1
102
RTVSPropertyOp26
 70
     1
102
RTVSPropertyOp27
 70
     1
102
RTVSPropertyOp28
 70
     1
102
RTVSPropertyOp29
 70
     1
102
RTVSPropertyOp30
 70
     1
102
RTVSPropertyOp31
 70
     1
102
RTVSPropertyOp32
 70
     1
  0
XRECORD
  5
8A
102
{ACAD_REACTORS
330
89
102
}
330
89
100
AcDbXrecord
280
     1
102
RTVSPropertyOp0
 70
     1
102
RTVSPropertyOp1
 70
     1
102
RTVSPropertyOp2
 70
     1
102
RTVSPropertyOp3
 70
     1
102
RTVSPropertyOp4
 70
     1
102
RTVSPropertyOp5
 70
     1
102
RTVSPropertyOp6
 70
     1
102
RTVSPropertyOp7
 70
     1
102
RTVSPropertyOp8
 70
     1
102
RTVSPropertyOp9
 70
     1
102
RTVSPropertyOp10
 70
     1
102
RTVSPropertyOp11
 70
     1
102
RTVSPropertyOp12
 70
     1
102
RTVSPropertyOp13
 70
     1
102
RTVSPropertyOp14
 70
     1
102
RTVSPropertyOp15
 70
     1
102
RTVSPropertyOp16
 70
     1
102
RTVSPropertyOp17
 70
     1
102
RTVSPropertyOp18
 70
     1
102
RTVSPropertyOp19
 70
     1
102
RTVSPropertyOp20
 70
     1
102
RTVSPropertyOp21
 70
     1
102
RTVSPropertyOp22
 70
     1
102
RTVSPropertyOp23
 70
     1
102
RTVSPropertyOp24
 70
     1
102
RTVSPropertyOp25
 70
     1
102
RTVSPropertyOp26
 70
     1
102
RTVSPropertyOp27
 70
     1
102
RTVSPropertyOp28
 70
     1
102
RTVSPropertyOp29
 70
     1
102
RTVSPropertyOp30
 70
     1
102
RTVSPropertyOp31
 70
     1
102
RTVSPropertyOp32
 70
     1
  0
XRECORD
  5
9E
102
{ACAD_REACTORS
330
9D
102
}
330
9D
100
AcDbXrecord
280
     1
102
RTVSPropertyOp0
 70
     1
102
RTVSPropertyOp1
 70
     1
102
RTVSPropertyOp2
 70
     1
102
RTVSPropertyOp3
 70
     1
102
RTVSPropertyOp4
 70
     1
102
RTVSPropertyOp5
 70
     1
102
RTVSPropertyOp6
 70
     1
102
RTVSPropertyOp7
 70
     1
102
RTVSPropertyOp8
 70
     1
102
RTVSPropertyOp9
 70
     1
102
RTVSPropertyOp10
 70
     1
102
RTVSPropertyOp11
 70
     1
102
RTVSPropertyOp12
 70
     1
102
RTVSPropertyOp13
 70
     1
102
RTVSPropertyOp14
 70
     1
102
RTVSPropertyOp15
 70
     1
102
RTVSPropertyOp16
 70
     1
102
RTVSPropertyOp17
 70
     1
102
RTVSPropertyOp18
 70
     1
102
RTVSPropertyOp19
 70
     1
102
RTVSPropertyOp20
 70
     1
102
RTVSPropertyOp21
 70
     1
102
RTVSPropertyOp22
 70
     1
102
RTVSPropertyOp23
 70
     1
102
RTVSPropertyOp24
 70
     1
102
RTVSPropertyOp25
 70
     1
102
RTVSPropertyOp26
 70
     1
102
RTVSPropertyOp27
 70
     1
102
RTVSPropertyOp28
 70
     1
102
RTVSPropertyOp29
 70
     1
102
RTVSPropertyOp30
 70
     1
102
RTVSPropertyOp31
 70
     1
102
RTVSPropertyOp32
 70
     1
  0
XRECORD
  5
94
102
{ACAD_REACTORS
330
93
102
}
330
93
100
AcDbXrecord
280
     1
102
RTVSPropertyOp0
 70
     1
102
RTVSPropertyOp1
 70
     1
102
RTVSPropertyOp2
 70
     1
102
RTVSPropertyOp3
 70
     1
102
RTVSPropertyOp4
 70
     1
102
RTVSPropertyOp5
 70
     1
102
RTVSPropertyOp6
 70
     1
102
RTVSPropertyOp7
 70
     1
102
RTVSPropertyOp8
 70
     1
102
RTVSPropertyOp9
 70
     1
102
RTVSPropertyOp10
 70
     1
102
RTVSPropertyOp11
 70
     1
102
RTVSPropertyOp12
 70
     1
102
RTVSPropertyOp13
 70
     1
102
RTVSPropertyOp14
 70
     1
102
RTVSPropertyOp15
 70
     1
102
RTVSPropertyOp16
 70
     1
102
RTVSPropertyOp17
 70
     1
102
RTVSPropertyOp18
 70
     1
102
RTVSPropertyOp19
 70
     1
102
RTVSPropertyOp20
 70
     1
102
RTVSPropertyOp21
 70
     1
102
RTVSPropertyOp22
 70
     1
102
RTVSPropertyOp23
 70
     1
102
RTVSPropertyOp24
 70
     1
102
RTVSPropertyOp25
 70
     1
102
RTVSPropertyOp26
 70
     1
102
RTVSPropertyOp27
 70
     1
102
RTVSPropertyOp28
 70
     1
102
RTVSPropertyOp29
 70
     1
102
RTVSPropertyOp30
 70
     1
102
RTVSPropertyOp31
 70
     1
102
RTVSPropertyOp32
 70
     1
  0
XRECORD
  5
9C
102
{ACAD_REACTORS
330
9B
102
}
330
9B
100
AcDbXrecord
280
     1
102
RTVSPropertyOp0
 70
     1
102
RTVSPropertyOp1
 70
     1
102
RTVSPropertyOp2
 70
     1
102
RTVSPropertyOp3
 70
     1
102
RTVSPropertyOp4
 70
     1
102
RTVSPropertyOp5
 70
     1
102
RTVSPropertyOp6
 70
     1
102
RTVSPropertyOp7
 70
     1
102
RTVSPropertyOp8
 70
     1
102
RTVSPropertyOp9
 70
     1
102
RTVSPropertyOp10
 70
     1
102
RTVSPropertyOp11
 70
     1
102
RTVSPropertyOp12
 70
     1
102
RTVSPropertyOp13
 70
     1
102
RTVSPropertyOp14
 70
     1
102
RTVSPropertyOp15
 70
     1
102
RTVSPropertyOp16
 70
     1
102
RTVSPropertyOp17
 70
     1
102
RTVSPropertyOp18
 70
     1
102
RTVSPropertyOp19
 70
     1
102
RTVSPropertyOp20
 70
     1
102
RTVSPropertyOp21
 70
     1
102
RTVSPropertyOp22
 70
     1
102
RTVSPropertyOp23
 70
     1
102
RTVSPropertyOp24
 70
     1
102
RTVSPropertyOp25
 70
     1
102
RTVSPropertyOp26
 70
     1
102
RTVSPropertyOp27
 70
     1
102
RTVSPropertyOp28
 70
     1
102
RTVSPropertyOp29
 70
     1
102
RTVSPropertyOp30
 70
     1
102
RTVSPropertyOp31
 70
     1
102
RTVSPropertyOp32
 70
     1
  0
ENDSEC
  0
EOF
