  0
SECTION
  2
HEADER
  9
$ACADVER
  1
AC1021
  9
$ACADMAINTVER
 70
    25
  9
$DWGCODEPAGE
  3
ANSI_1256
  9
$INSBASE
 10
0.0
 20
0.0
 30
0.0
  9
$EXTMIN
 10
30.1701
 20
-115.9169
 30
0.0
  9
$EXTMAX
 10
196.6306
 20
131.7282
 30
0.0
  9
$LIMMIN
 10
0.0
 20
0.0
  9
$LIMMAX
 10
12.0
 20
9.0
  9
$ORTHOMODE
 70
     0
  9
$REGENMODE
 70
     1
  9
$FILLMODE
 70
     1
  9
$QTEXTMODE
 70
     0
  9
$MIRRTEXT
 70
     1
  9
$LTSCALE
 40
1.0
  9
$ATTMODE
 70
     1
  9
$TEXTSIZE
 40
0.2
  9
$TRACEWID
 40
0.05
  9
$TEXTSTYLE
  7
Standard
  9
$CLAYER
  8
0
  9
$CELTYPE
  6
ByLayer
  9
$CECOLOR
 62
   256
  9
$CELTSCALE
 40
1.0
  9
$DISPSILH
 70
     0
  9
$DIMSCALE
 40
1.0
  9
$DIMASZ
 40
0.18
  9
$DIMEXO
 40
0.0625
  9
$DIMDLI
 40
0.38
  9
$DIMRND
 40
0.0
  9
$DIMDLE
 40
0.0
  9
$DIMEXE
 40
0.18
  9
$DIMTP
 40
0.0
  9
$DIMTM
 40
0.0
  9
$DIMTXT
 40
0.18
  9
$DIMCEN
 40
0.09
  9
$DIMTSZ
 40
0.0
  9
$DIMTOL
 70
     0
  9
$DIMLIM
 70
     0
  9
$DIMTIH
 70
     1
  9
$DIMTOH
 70
     1
  9
$DIMSE1
 70
     0
  9
$DIMSE2
 70
     0
  9
$DIMTAD
 70
     0
  9
$DIMZIN
 70
     0
  9
$DIMBLK
  1

  9
$DIMASO
 70
     1
  9
$DIMSHO
 70
     1
  9
$DIMPOST
  1

  9
$DIMAPOST
  1

  9
$DIMALT
 70
     0
  9
$DIMALTD
 70
     2
  9
$DIMALTF
 40
25.4
  9
$DIMLFAC
 40
1.0
  9
$DIMTOFL
 70
     0
  9
$DIMTVP
 40
0.0
  9
$DIMTIX
 70
     0
  9
$DIMSOXD
 70
     0
  9
$DIMSAH
 70
     0
  9
$DIMBLK1
  1

  9
$DIMBLK2
  1

  9
$DIMSTYLE
  2
Standard
  9
$DIMCLRD
 70
     0
  9
$DIMCLRE
 70
     0
  9
$DIMCLRT
 70
     0
  9
$DIMTFAC
 40
1.0
  9
$DIMGAP
 40
0.09
  9
$DIMJUST
 70
     0
  9
$DIMSD1
 70
     0
  9
$DIMSD2
 70
     0
  9
$DIMTOLJ
 70
     1
  9
$DIMTZIN
 70
     0
  9
$DIMALTZ
 70
     0
  9
$DIMALTTZ
 70
     0
  9
$DIMUPT
 70
     0
  9
$DIMDEC
 70
     4
  9
$DIMTDEC
 70
     4
  9
$DIMALTU
 70
     2
  9
$DIMALTTD
 70
     2
  9
$DIMTXSTY
  7
Standard
  9
$DIMAUNIT
 70
     0
  9
$DIMADEC
 70
     0
  9
$DIMALTRND
 40
0.0
  9
$DIMAZIN
 70
     0
  9
$DIMDSEP
 70
    46
  9
$DIMATFIT
 70
     3
  9
$DIMFRAC
 70
     0
  9
$DIMLDRBLK
  1

  9
$DIMLUNIT
 70
     2
  9
$DIMLWD
 70
    -2
  9
$DIMLWE
 70
    -2
  9
$DIMTMOVE
 70
     0
  9
$DIMFXL
 40
1.0
  9
$DIMFXLON
 70
     0
  9
$DIMJOGANG
 40
0.7853981633974483
  9
$DIMTFILL
 70
     0
  9
$DIMTFILLCLR
 70
     0
  9
$DIMARCSYM
 70
     0
  9
$DIMLTYPE
  6

  9
$DIMLTEX1
  6

  9
$DIMLTEX2
  6

  9
$LUNITS
 70
     2
  9
$LUPREC
 70
     4
  9
$SKETCHINC
 40
0.1
  9
$FILLETRAD
 40
0.5
  9
$AUNITS
 70
     0
  9
$AUPREC
 70
     0
  9
$MENU
  1
.
  9
$ELEVATION
 40
0.0
  9
$PELEVATION
 40
0.0
  9
$THICKNESS
 40
0.0
  9
$LIMCHECK
 70
     0
  9
$CHAMFERA
 40
0.5
  9
$CHAMFERB
 40
0.5
  9
$CHAMFERC
 40
1.0
  9
$CHAMFERD
 40
0.0
  9
$SKPOLY
 70
     0
  9
$TDCREATE
 40
2458492.406547084
  9
$TDUCREATE
 40
2458492.239880417
  9
$TDUPDATE
 40
2458492.406547222
  9
$TDUUPDATE
 40
2458492.239880556
  9
$TDINDWG
 40
0.0000000116
  9
$TDUSRTIMER
 40
0.0000000116
  9
$USRTIMER
 70
     1
  9
$ANGBASE
 50
0.0
  9
$ANGDIR
 70
     0
  9
$PDMODE
 70
     0
  9
$PDSIZE
 40
0.0
  9
$PLINEWID
 40
0.0
  9
$SPLFRAME
 70
     0
  9
$SPLINETYPE
 70
     6
  9
$SPLINESEGS
 70
     8
  9
$HANDSEED
  5
B9
  9
$SURFTAB1
 70
     6
  9
$SURFTAB2
 70
     6
  9
$SURFTYPE
 70
     6
  9
$SURFU
 70
     6
  9
$SURFV
 70
     6
  9
$UCSBASE
  2

  9
$UCSNAME
  2

  9
$UCSORG
 10
0.0
 20
0.0
 30
0.0
  9
$UCSXDIR
 10
1.0
 20
0.0
 30
0.0
  9
$UCSYDIR
 10
0.0
 20
1.0
 30
0.0
  9
$UCSORTHOREF
  2

  9
$UCSORTHOVIEW
 70
     0
  9
$UCSORGTOP
 10
0.0
 20
0.0
 30
0.0
  9
$UCSORGBOTTOM
 10
0.0
 20
0.0
 30
0.0
  9
$UCSORGLEFT
 10
0.0
 20
0.0
 30
0.0
  9
$UCSORGRIGHT
 10
0.0
 20
0.0
 30
0.0
  9
$UCSORGFRONT
 10
0.0
 20
0.0
 30
0.0
  9
$UCSORGBACK
 10
0.0
 20
0.0
 30
0.0
  9
$PUCSBASE
  2

  9
$PUCSNAME
  2

  9
$PUCSORG
 10
0.0
 20
0.0
 30
0.0
  9
$PUCSXDIR
 10
1.0
 20
0.0
 30
0.0
  9
$PUCSYDIR
 10
0.0
 20
1.0
 30
0.0
  9
$PUCSORTHOREF
  2

  9
$PUCSORTHOVIEW
 70
     0
  9
$PUCSORGTOP
 10
0.0
 20
0.0
 30
0.0
  9
$PUCSORGBOTTOM
 10
0.0
 20
0.0
 30
0.0
  9
$PUCSORGLEFT
 10
0.0
 20
0.0
 30
0.0
  9
$PUCSORGRIGHT
 10
0.0
 20
0.0
 30
0.0
  9
$PUCSORGFRONT
 10
0.0
 20
0.0
 30
0.0
  9
$PUCSORGBACK
 10
0.0
 20
0.0
 30
0.0
  9
$USERI1
 70
     0
  9
$USERI2
 70
     0
  9
$USERI3
 70
     0
  9
$USERI4
 70
     0
  9
$USERI5
 70
     0
  9
$USERR1
 40
0.0
  9
$USERR2
 40
0.0
  9
$USERR3
 40
0.0
  9
$USERR4
 40
0.0
  9
$USERR5
 40
0.0
  9
$WORLDVIEW
 70
     1
  9
$SHADEDGE
 70
     3
  9
$SHADEDIF
 70
    70
  9
$TILEMODE
 70
     1
  9
$MAXACTVP
 70
    64
  9
$PINSBASE
 10
0.0
 20
0.0
 30
0.0
  9
$PLIMCHECK
 70
     0
  9
$PEXTMIN
 10
1.000000000000000E+20
 20
1.000000000000000E+20
 30
1.000000000000000E+20
  9
$PEXTMAX
 10
-1.000000000000000E+20
 20
-1.000000000000000E+20
 30
-1.000000000000000E+20
  9
$PLIMMIN
 10
0.0
 20
0.0
  9
$PLIMMAX
 10
12.0
 20
9.0
  9
$UNITMODE
 70
     0
  9
$VISRETAIN
 70
     1
  9
$PLINEGEN
 70
     0
  9
$PSLTSCALE
 70
     1
  9
$TREEDEPTH
 70
  3020
  9
$CMLSTYLE
  2
Standard
  9
$CMLJUST
 70
     0
  9
$CMLSCALE
 40
1.0
  9
$PROXYGRAPHICS
 70
     1
  9
$MEASUREMENT
 70
     0
  9
$CELWEIGHT
370
    -1
  9
$ENDCAPS
280
     0
  9
$JOINSTYLE
280
     0
  9
$LWDISPLAY
290
     0
  9
$INSUNITS
 70
     4
  9
$HYPERLINKBASE
  1

  9
$STYLESHEET
  1

  9
$XEDIT
290
     1
  9
$CEPSNTYPE
380
     0
  9
$PSTYLEMODE
290
     1
  9
$FINGERPRINTGUID
  2
{45E78EBC-6DAB-481A-B7EC-4B1542D3C678}
  9
$VERSIONGUID
  2
{FAEB1C32-E019-11D5-929B-00C0DF256EC4}
  9
$EXTNAMES
290
     1
  9
$PSVPSCALE
 40
0.0
  9
$OLESTARTUP
290
     0
  9
$SORTENTS
280
   127
  9
$INDEXCTL
280
     0
  9
$HIDETEXT
280
     1
  9
$XCLIPFRAME
290
     0
  9
$HALOGAP
280
     0
  9
$OBSCOLOR
 70
   257
  9
$OBSLTYPE
280
     0
  9
$INTERSECTIONDISPLAY
280
     0
  9
$INTERSECTIONCOLOR
 70
   257
  9
$DIMASSOC
280
     2
  9
$PROJECTNAME
  1

  9
$CAMERADISPLAY
290
     0
  9
$LENSLENGTH
 40
50.0
  9
$CAMERAHEIGHT
 40
0.0
  9
$STEPSPERSEC
 40
2.0
  9
$STEPSIZE
 40
6.0
  9
$3DDWFPREC
 40
2.0
  9
$PSOLWIDTH
 40
0.25
  9
$PSOLHEIGHT
 40
4.0
  9
$LOFTANG1
 40
1.570796326794897
  9
$LOFTANG2
 40
1.570796326794897
  9
$LOFTMAG1
 40
0.0
  9
$LOFTMAG2
 40
0.0
  9
$LOFTPARAM
 70
     7
  9
$LOFTNORMALS
280
     1
  9
$LATITUDE
 40
37.795
  9
$LONGITUDE
 40
-122.394
  9
$NORTHDIRECTION
 40
0.0
  9
$TIMEZONE
 70
 -8000
  9
$LIGHTGLYPHDISPLAY
280
     1
  9
$TILEMODELIGHTSYNCH
280
     1
  9
$SOLIDHIST
280
     1
  9
$SHOWHIST
280
     1
  9
$DWFFRAME
280
     2
  9
$DGNFRAME
280
     2
  9
$REALWORLDSCALE
290
     1
  9
$INTERFERECOLOR
 62
   256
  9
$CSHADOW
280
     0
  9
$SHADOWPLANELOCATION
 40
0.0
  0
ENDSEC
  0
SECTION
  2
CLASSES
  0
CLASS
  1
ACDBDICTIONARYWDFLT
  2
AcDbDictionaryWithDefault
  3
ObjectDBX Classes
 90
        0
 91
        4
280
     0
281
     0
  0
CLASS
  1
VISUALSTYLE
  2
AcDbVisualStyle
  3
ObjectDBX Classes
 90
     4095
 91
        4
280
     0
281
     0
  0
CLASS
  1
MATERIAL
  2
AcDbMaterial
  3
ObjectDBX Classes
 90
     1153
 91
        4
280
     0
281
     0
  0
ENDSEC
  0
SECTION
  2
TABLES
  0
TABLE
  2
VPORT
  5
8
330
0
100
AcDbSymbolTable
 70
     1
  0
VPORT
  5
29
330
8
100
AcDbSymbolTableRecord
100
AcDbViewportTableRecord
  2
*Active
 70
     0
 10
0.0
 20
0.0
 11
1.0
 21
1.0
 12
10.42990654205607
 22
4.5
 13
0.0
 23
0.0
 14
0.5
 24
0.5
 15
0.5
 25
0.5
 16
0.0
 26
0.0
 36
1.0
 17
0.0
 27
0.0
 37
0.0
 40
9.0
 41
1.972972972850329
 42
50.0
 43
0.0
 44
0.0
 50
0.0
 51
0.0
 71
     0
 72
   100
 73
     1
 74
     3
 75
     0
 76
     0
 77
     0
 78
     0
281
     0
 65
     1
110
0.0
120
0.0
130
0.0
111
1.0
121
0.0
131
0.0
112
0.0
122
1.0
132
0.0
 79
     0
146
0.0
 60
     3
 61
     5
292
     1
282
     1
141
0.0
142
0.0
 63
   250
  0
ENDTAB
  0
TABLE
  2
LTYPE
  5
5
330
0
100
AcDbSymbolTable
 70
     1
  0
LTYPE
  5
14
330
5
100
AcDbSymbolTableRecord
100
AcDbLinetypeTableRecord
  2
ByBlock
 70
     0
  3

 72
    65
 73
     0
 40
0.0
  0
LTYPE
  5
15
330
5
100
AcDbSymbolTableRecord
100
AcDbLinetypeTableRecord
  2
ByLayer
 70
     0
  3

 72
    65
 73
     0
 40
0.0
  0
LTYPE
  5
16
330
5
100
AcDbSymbolTableRecord
100
AcDbLinetypeTableRecord
  2
Continuous
 70
     0
  3
Solid line
 72
    65
 73
     0
 40
0.0
  0
ENDTAB
  0
TABLE
  2
LAYER
  5
2
330
0
100
AcDbSymbolTable
 70
     2
  0
LAYER
  5
10
330
2
100
AcDbSymbolTableRecord
100
AcDbLayerTableRecord
  2
0
 70
     0
 62
     7
  6
Continuous
370
    -3
390
F
347
3E
  0
LAYER
  5
40
330
2
100
AcDbSymbolTableRecord
100
AcDbLayerTableRecord
  2
layer 1
 70
     0
 62
     7
  6
Continuous
370
    -3
390
F
347
3E
  0
ENDTAB
  0
TABLE
  2
STYLE
  5
3
330
0
100
AcDbSymbolTable
 70
     1
  0
STYLE
  5
11
330
3
100
AcDbSymbolTableRecord
100
AcDbTextStyleTableRecord
  2
Standard
 70
     0
 40
0.0
 41
1.0
 50
0.0
 71
     0
 42
0.2
  3
txt
  4

  0
ENDTAB
  0
TABLE
  2
VIEW
  5
6
330
0
100
AcDbSymbolTable
 70
     0
  0
ENDTAB
  0
TABLE
  2
UCS
  5
7
330
0
100
AcDbSymbolTable
 70
     0
  0
ENDTAB
  0
TABLE
  2
APPID
  5
9
330
0
100
AcDbSymbolTable
 70
     2
  0
APPID
  5
12
330
9
100
AcDbSymbolTableRecord
100
AcDbRegAppTableRecord
  2
ACAD
 70
     0
  0
APPID
  5
3F
330
9
100
AcDbSymbolTableRecord
100
AcDbRegAppTableRecord
  2
ODA
 70
     0
  0
ENDTAB
  0
TABLE
  2
DIMSTYLE
  5
A
330
0
100
AcDbSymbolTable
 70
     1
100
AcDbDimStyleTable
  0
DIMSTYLE
105
27
330
A
100
AcDbSymbolTableRecord
100
AcDbDimStyleTableRecord
  2
Standard
 70
     0
178
     0
340
11
  0
ENDTAB
  0
TABLE
  2
BLOCK_RECORD
  5
1
330
0
100
AcDbSymbolTable
 70
     1
  0
BLOCK_RECORD
  5
1F
330
1
100
AcDbSymbolTableRecord
100
AcDbBlockTableRecord
  2
*Model_Space
340
22
 70
     0
280
     1
281
     0
  0
BLOCK_RECORD
  5
1B
330
1
100
AcDbSymbolTableRecord
100
AcDbBlockTableRecord
  2
*Paper_Space
340
1E
 70
     0
280
     1
281
     0
  0
BLOCK_RECORD
  5
23
330
1
100
AcDbSymbolTableRecord
100
AcDbBlockTableRecord
  2
*Paper_Space0
340
26
 70
     0
280
     1
281
     0
  0
ENDTAB
  0
ENDSEC
  0
SECTION
  2
BLOCKS
  0
BLOCK
  5
20
330
1F
100
AcDbEntity
  8
0
100
AcDbBlockBegin
  2
*Model_Space
 70
     0
 10
0.0
 20
0.0
 30
0.0
  3
*Model_Space
  1

  0
ENDBLK
  5
21
330
1F
100
AcDbEntity
  8
0
100
AcDbBlockEnd
  0
BLOCK
  5
1C
330
1B
100
AcDbEntity
 67
     1
  8
0
100
AcDbBlockBegin
  2
*Paper_Space
 70
     0
 10
0.0
 20
0.0
 30
0.0
  3
*Paper_Space
  1

  0
ENDBLK
  5
1D
330
1B
100
AcDbEntity
 67
     1
  8
0
100
AcDbBlockEnd
  0
BLOCK
  5
24
330
23
100
AcDbEntity
  8
0
100
AcDbBlockBegin
  2
*Paper_Space0
 70
     0
 10
0.0
 20
0.0
 30
0.0
  3
*Paper_Space0
  1

  0
ENDBLK
  5
25
330
23
100
AcDbEntity
  8
0
100
AcDbBlockEnd
  0
ENDSEC
  0
SECTION
  2
ENTITIES
  0
SPLINE
  5
41
330
1F
100
AcDbEntity
  8
layer 1
 62
   250
370
    25
100
AcDbSpline
210
0.0
220
0.0
230
1.0
 70
    11
 71
     3
 72
    44
 73
    40
 74
     0
 42
0.0000000001
 43
0.0000000001
 12
1.0
 22
0.0
 32
0.0
 13
1.0
 23
0.0
 33
0.0
 40
0.0
 40
0.0
 40
0.0
 40
0.0
 40
0.0909090909090909
 40
0.0909090909090909
 40
0.0909090909090909
 40
0.0909090909090909
 40
0.1818181818181818
 40
0.1818181818181818
 40
0.1818181818181818
 40
0.1818181818181818
 40
0.2727272727272727
 40
0.2727272727272727
 40
0.2727272727272727
 40
0.2727272727272727
 40
0.3636363636363636
 40
0.3636363636363636
 40
0.3636363636363636
 40
0.3636363636363636
 40
0.4545454545454545
 40
0.4545454545454545
 40
0.4545454545454545
 40
0.4545454545454545
 40
0.5454545454545454
 40
0.5454545454545454
 40
0.5454545454545454
 40
0.5454545454545454
 40
0.6363636363636364
 40
0.6363636363636364
 40
0.6363636363636364
 40
0.6363636363636364
 40
0.7272727272727273
 40
0.7272727272727273
 40
0.7272727272727273
 40
0.7272727272727273
 40
0.8181818181818182
 40
0.8181818181818182
 40
0.8181818181818182
 40
0.8181818181818182
 40
1.0
 40
1.0
 40
1.0
 40
1.0
 10
30.3024
 20
131.5959
 30
0.0
 10
30.3024
 20
131.5959
 30
0.0
 10
196.3803
 20
131.5959
 30
0.0
 10
196.3803
 20
131.5959
 30
0.0
 10
196.3803
 20
131.5959
 30
0.0
 10
196.3803
 20
131.5959
 30
0.0
 10
196.4981
 20
5.2093
 30
0.0
 10
196.4981
 20
5.2093
 30
0.0
 10
196.4981
 20
5.2093
 30
0.0
 10
193.3342
 20
6.8434
 30
0.0
 10
191.4995
 20
8.1178
 30
0.0
 10
189.1517
 20
9.689
 30
0.0
 10
189.1517
 20
9.689
 30
0.0
 10
189.1517
 20
9.689
 30
0.0
 10
189.3759
 20
22.466
 30
0.0
 10
189.3759
 20
22.466
 30
0.0
 10
189.3759
 20
22.466
 30
0.0
 10
183.1439
 20
5.2192
 30
0.0
 10
160.181
 20
6.0704
 30
0.0
 10
150.0248
 20
20.9
 30
0.0
 10
150.0248
 20
20.9
 30
0.0
 10
127.1104
 20
3.4494
 30
0.0
 10
94.4618
 20
6.0126
 30
0.0
 10
76.0517
 20
20.8775
 30
0.0
 10
76.0517
 20
20.8775
 30
0.0
 10
65.6978
 20
7.5889
 30
0.0
 10
44.3745
 20
2.8847
 30
0.0
 10
36.8113
 20
22.3181
 30
0.0
 10
36.8113
 20
22.3181
 30
0.0
 10
36.8113
 20
22.3181
 30
0.0
 10
36.8113
 20
9.6892
 30
0.0
 10
36.8113
 20
9.6892
 30
0.0
 10
36.8113
 20
9.6892
 30
0.0
 10
36.8113
 20
9.6892
 30
0.0
 10
30.3223
 20
5.3409
 30
0.0
 10
30.3223
 20
5.3409
 30
0.0
 10
30.3223
 20
5.3409
 30
0.0
 10
30.3223
 20
5.3409
 30
0.0
 10
30.3024
 20
131.5959
 30
0.0
 10
30.3024
 20
131.5959
 30
0.0
  0
SPLINE
  5
42
330
1F
100
AcDbEntity
  8
layer 1
 62
     7
370
    25
100
AcDbSpline
210
0.0
220
0.0
230
1.0
 70
    11
 71
     3
 72
    68
 73
    64
 74
     0
 42
0.0000000001
 43
0.0000000001
 12
1.0
 22
0.0
 32
0.0
 13
1.0
 23
0.0
 33
0.0
 40
0.0
 40
0.0
 40
0.0
 40
0.0
 40
0.0588235294117647
 40
0.0588235294117647
 40
0.0588235294117647
 40
0.0588235294117647
 40
0.1176470588235294
 40
0.1176470588235294
 40
0.1176470588235294
 40
0.1176470588235294
 40
0.1764705882352941
 40
0.1764705882352941
 40
0.1764705882352941
 40
0.1764705882352941
 40
0.2352941176470588
 40
0.2352941176470588
 40
0.2352941176470588
 40
0.2352941176470588
 40
0.2941176470588235
 40
0.2941176470588235
 40
0.2941176470588235
 40
0.2941176470588235
 40
0.3529411764705883
 40
0.3529411764705883
 40
0.3529411764705883
 40
0.3529411764705883
 40
0.4117647058823529
 40
0.4117647058823529
 40
0.4117647058823529
 40
0.4117647058823529
 40
0.4705882352941176
 40
0.4705882352941176
 40
0.4705882352941176
 40
0.4705882352941176
 40
0.5294117647058824
 40
0.5294117647058824
 40
0.5294117647058824
 40
0.5294117647058824
 40
0.5882352941176471
 40
0.5882352941176471
 40
0.5882352941176471
 40
0.5882352941176471
 40
0.6470588235294118
 40
0.6470588235294118
 40
0.6470588235294118
 40
0.6470588235294118
 40
0.7058823529411765
 40
0.7058823529411765
 40
0.7058823529411765
 40
0.7058823529411765
 40
0.7647058823529411
 40
0.7647058823529411
 40
0.7647058823529411
 40
0.7647058823529411
 40
0.8235294117647058
 40
0.8235294117647058
 40
0.8235294117647058
 40
0.8235294117647058
 40
0.8823529411764706
 40
0.8823529411764706
 40
0.8823529411764706
 40
0.8823529411764706
 40
1.0
 40
1.0
 40
1.0
 40
1.0
 10
81.7725
 20
79.6575
 30
0.0
 10
81.7725
 20
79.6575
 30
0.0
 10
76.1932
 20
79.8771
 30
0.0
 10
76.1932
 20
79.8771
 30
0.0
 10
76.1932
 20
79.8771
 30
0.0
 10
66.2923
 20
80.6364
 30
0.0
 10
59.1117
 20
76.342
 30
0.0
 10
62.6924
 20
70.4111
 30
0.0
 10
62.6924
 20
70.4111
 30
0.0
 10
65.1919
 20
67.2334
 30
0.0
 10
70.1735
 20
69.1188
 30
0.0
 10
67.8903
 20
72.3784
 30
0.0
 10
67.8903
 20
72.3784
 30
0.0
 10
67.0587
 20
73.5656
 30
0.0
 10
67.087
 20
73.7504
 30
0.0
 10
68.19
 20
74.3407
 30
0.0
 10
68.19
 20
74.3407
 30
0.0
 10
68.8598
 20
74.6992
 30
0.0
 10
70.5825
 20
74.9924
 30
0.0
 10
72.0187
 20
74.9924
 30
0.0
 10
72.0187
 20
74.9924
 30
0.0
 10
75.9031
 20
75.0206
 30
0.0
 10
76.4077
 20
72.0173
 30
0.0
 10
79.5346
 20
70.6382
 30
0.0
 10
79.5346
 20
70.6382
 30
0.0
 10
81.6575
 20
69.8495
 30
0.0
 10
87.7019
 20
68.8969
 30
0.0
 10
87.4617
 20
66.628
 30
0.0
 10
87.4617
 20
66.628
 30
0.0
 10
87.7019
 20
64.3591
 30
0.0
 10
81.6577
 20
63.4063
 30
0.0
 10
79.5346
 20
62.6178
 30
0.0
 10
79.5346
 20
62.6178
 30
0.0
 10
76.4077
 20
61.2388
 30
0.0
 10
75.9029
 20
58.2355
 30
0.0
 10
72.0187
 20
58.2637
 30
0.0
 10
72.0187
 20
58.2637
 30
0.0
 10
70.5828
 20
58.2637
 30
0.0
 10
68.8598
 20
58.5568
 30
0.0
 10
68.19
 20
58.9153
 30
0.0
 10
68.19
 20
58.9153
 30
0.0
 10
67.087
 20
59.5057
 30
0.0
 10
67.0587
 20
59.6904
 30
0.0
 10
67.8903
 20
60.8777
 30
0.0
 10
67.8903
 20
60.8777
 30
0.0
 10
70.1735
 20
64.1372
 30
0.0
 10
65.1919
 20
66.0226
 30
0.0
 10
62.6924
 20
62.8449
 30
0.0
 10
62.6924
 20
62.8449
 30
0.0
 10
59.1119
 20
56.914
 30
0.0
 10
66.2923
 20
52.6196
 30
0.0
 10
76.1932
 20
53.3789
 30
0.0
 10
76.1932
 20
53.3789
 30
0.0
 10
76.1932
 20
53.3789
 30
0.0
 10
81.7725
 20
53.5985
 30
0.0
 10
81.7725
 20
53.5985
 30
0.0
 10
81.7725
 20
53.5985
 30
0.0
 10
86.5265
 20
60.1839
 30
0.0
 10
92.3685
 20
65.2713
 30
0.0
 10
100.0269
 20
66.628
 30
0.0
 10
100.0269
 20
66.628
 30
0.0
 10
92.223
 20
67.9847
 30
0.0
 10
86.5265
 20
74.3809
 30
0.0
 10
81.7725
 20
79.6575
 30
0.0
  0
SPLINE
  5
43
330
1F
100
AcDbEntity
  8
layer 1
 62
     7
370
    25
100
AcDbSpline
210
0.0
220
0.0
230
1.0
 70
    11
 71
     3
 72
    28
 73
    24
 74
     0
 42
0.0000000001
 43
0.0000000001
 12
1.0
 22
0.0
 32
0.0
 13
1.0
 23
0.0
 33
0.0
 40
0.0
 40
0.0
 40
0.0
 40
0.0
 40
0.1428571428571428
 40
0.1428571428571428
 40
0.1428571428571428
 40
0.1428571428571428
 40
0.2857142857142857
 40
0.2857142857142857
 40
0.2857142857142857
 40
0.2857142857142857
 40
0.4285714285714285
 40
0.4285714285714285
 40
0.4285714285714285
 40
0.4285714285714285
 40
0.5714285714285714
 40
0.5714285714285714
 40
0.5714285714285714
 40
0.5714285714285714
 40
0.7142857142857143
 40
0.7142857142857143
 40
0.7142857142857143
 40
0.7142857142857143
 40
1.0
 40
1.0
 40
1.0
 40
1.0
 10
47.0757
 20
76.5221
 30
0.0
 10
48.1851
 20
77.8591
 30
0.0
 10
48.12
 20
80.5544
 30
0.0
 10
44.1944
 20
85.946
 30
0.0
 10
44.1944
 20
85.946
 30
0.0
 10
41.504
 20
89.8817
 30
0.0
 10
38.7332
 20
94.3731
 30
0.0
 10
36.8109
 20
99.322
 30
0.0
 10
36.8109
 20
99.322
 30
0.0
 10
37.1767
 20
92.2215
 30
0.0
 10
36.8189
 20
85.1189
 30
0.0
 10
36.8109
 20
78.0126
 30
0.0
 10
36.8109
 20
78.0126
 30
0.0
 10
38.0651
 20
80.0525
 30
0.0
 10
40.3951
 20
80.9818
 30
0.0
 10
42.2711
 20
80.8635
 30
0.0
 10
42.2711
 20
80.8635
 30
0.0
 10
43.3829
 20
80.6454
 30
0.0
 10
43.969
 20
80.4251
 30
0.0
 10
43.6205
 20
79.0371
 30
0.0
 10
43.6205
 20
79.0371
 30
0.0
 10
42.5257
 20
76.3192
 30
0.0
 10
45.5869
 20
74.8607
 30
0.0
 10
47.0757
 20
76.5221
 30
0.0
  0
SPLINE
  5
44
330
1F
100
AcDbEntity
  8
layer 1
 62
     7
370
    25
100
AcDbSpline
210
0.0
220
0.0
230
1.0
 70
    11
 71
     3
 72
    16
 73
    12
 74
     0
 42
0.0000000001
 43
0.0000000001
 12
1.0
 22
0.0
 32
0.0
 13
1.0
 23
0.0
 33
0.0
 40
0.0
 40
0.0
 40
0.0
 40
0.0
 40
0.25
 40
0.25
 40
0.25
 40
0.25
 40
0.5
 40
0.5
 40
0.5
 40
0.5
 40
1.0
 40
1.0
 40
1.0
 40
1.0
 10
59.7173
 20
93.964
 30
0.0
 10
56.8663
 20
91.6825
 30
0.0
 10
53.4215
 20
90.8446
 30
0.0
 10
49.6457
 20
91.7377
 30
0.0
 10
49.6457
 20
91.7377
 30
0.0
 10
51.7023
 20
88.0785
 30
0.0
 10
53.1077
 20
86.3144
 30
0.0
 10
54.5556
 20
80.9035
 30
0.0
 10
54.5556
 20
80.9035
 30
0.0
 10
55.2153
 20
85.6912
 30
0.0
 10
57.6031
 20
91.0418
 30
0.0
 10
59.7173
 20
93.964
 30
0.0
  0
SPLINE
  5
45
330
1F
100
AcDbEntity
  8
layer 1
 62
     7
370
    25
100
AcDbSpline
210
0.0
220
0.0
230
1.0
 70
    11
 71
     3
 72
    20
 73
    16
 74
     0
 42
0.0000000001
 43
0.0000000001
 12
1.0
 22
0.0
 32
0.0
 13
1.0
 23
0.0
 33
0.0
 40
0.0
 40
0.0
 40
0.0
 40
0.0
 40
0.2
 40
0.2
 40
0.2
 40
0.2
 40
0.4
 40
0.4
 40
0.4
 40
0.4
 40
0.6
 40
0.6
 40
0.6
 40
0.6
 40
1.0
 40
1.0
 40
1.0
 40
1.0
 10
77.5504
 20
86.9014
 30
0.0
 10
74.6635
 20
90.8895
 30
0.0
 10
73.5174
 20
93.937
 30
0.0
 10
71.7293
 20
99.4147
 30
0.0
 10
71.7293
 20
99.4147
 30
0.0
 10
68.0798
 20
95.2265
 30
0.0
 10
65.5069
 20
91.1479
 30
0.0
 10
62.907
 20
85.3221
 30
0.0
 10
62.907
 20
85.3221
 30
0.0
 10
68.4256
 20
87.5754
 30
0.0
 10
71.8222
 20
87.9142
 30
0.0
 10
77.5502
 20
86.9014
 30
0.0
 10
77.5502
 20
86.9014
 30
0.0
 10
77.5502
 20
86.9014
 30
0.0
 10
77.5504
 20
86.9014
 30
0.0
 10
77.5504
 20
86.9014
 30
0.0
  0
SPLINE
  5
46
330
1F
100
AcDbEntity
  8
layer 1
 62
     7
370
    25
100
AcDbSpline
210
0.0
220
0.0
230
1.0
 70
    11
 71
     3
 72
   136
 73
   132
 74
     0
 42
0.0000000001
 43
0.0000000001
 12
1.0
 22
0.0
 32
0.0
 13
1.0
 23
0.0
 33
0.0
 40
0.0
 40
0.0
 40
0.0
 40
0.0
 40
0.0294117647058824
 40
0.0294117647058824
 40
0.0294117647058824
 40
0.0294117647058824
 40
0.0588235294117647
 40
0.0588235294117647
 40
0.0588235294117647
 40
0.0588235294117647
 40
0.0882352941176471
 40
0.0882352941176471
 40
0.0882352941176471
 40
0.0882352941176471
 40
0.1176470588235294
 40
0.1176470588235294
 40
0.1176470588235294
 40
0.1176470588235294
 40
0.1470588235294118
 40
0.1470588235294118
 40
0.1470588235294118
 40
0.1470588235294118
 40
0.1764705882352941
 40
0.1764705882352941
 40
0.1764705882352941
 40
0.1764705882352941
 40
0.2058823529411765
 40
0.2058823529411765
 40
0.2058823529411765
 40
0.2058823529411765
 40
0.2352941176470588
 40
0.2352941176470588
 40
0.2352941176470588
 40
0.2352941176470588
 40
0.2647058823529412
 40
0.2647058823529412
 40
0.2647058823529412
 40
0.2647058823529412
 40
0.2941176470588235
 40
0.2941176470588235
 40
0.2941176470588235
 40
0.2941176470588235
 40
0.3235294117647059
 40
0.3235294117647059
 40
0.3235294117647059
 40
0.3235294117647059
 40
0.3529411764705883
 40
0.3529411764705883
 40
0.3529411764705883
 40
0.3529411764705883
 40
0.3823529411764706
 40
0.3823529411764706
 40
0.3823529411764706
 40
0.3823529411764706
 40
0.4117647058823529
 40
0.4117647058823529
 40
0.4117647058823529
 40
0.4117647058823529
 40
0.4411764705882353
 40
0.4411764705882353
 40
0.4411764705882353
 40
0.4411764705882353
 40
0.4705882352941176
 40
0.4705882352941176
 40
0.4705882352941176
 40
0.4705882352941176
 40
0.5
 40
0.5
 40
0.5
 40
0.5
 40
0.5294117647058824
 40
0.5294117647058824
 40
0.5294117647058824
 40
0.5294117647058824
 40
0.5588235294117647
 40
0.5588235294117647
 40
0.5588235294117647
 40
0.5588235294117647
 40
0.5882352941176471
 40
0.5882352941176471
 40
0.5882352941176471
 40
0.5882352941176471
 40
0.6176470588235294
 40
0.6176470588235294
 40
0.6176470588235294
 40
0.6176470588235294
 40
0.6470588235294118
 40
0.6470588235294118
 40
0.6470588235294118
 40
0.6470588235294118
 40
0.6764705882352942
 40
0.6764705882352942
 40
0.6764705882352942
 40
0.6764705882352942
 40
0.7058823529411765
 40
0.7058823529411765
 40
0.7058823529411765
 40
0.7058823529411765
 40
0.7352941176470589
 40
0.7352941176470589
 40
0.7352941176470589
 40
0.7352941176470589
 40
0.7647058823529411
 40
0.7647058823529411
 40
0.7647058823529411
 40
0.7647058823529411
 40
0.7941176470588235
 40
0.7941176470588235
 40
0.7941176470588235
 40
0.7941176470588235
 40
0.8235294117647058
 40
0.8235294117647058
 40
0.8235294117647058
 40
0.8235294117647058
 40
0.8529411764705882
 40
0.8529411764705882
 40
0.8529411764705882
 40
0.8529411764705882
 40
0.8823529411764706
 40
0.8823529411764706
 40
0.8823529411764706
 40
0.8823529411764706
 40
0.9117647058823529
 40
0.9117647058823529
 40
0.9117647058823529
 40
0.9117647058823529
 40
0.9411764705882353
 40
0.9411764705882353
 40
0.9411764705882353
 40
0.9411764705882353
 40
1.0
 40
1.0
 40
1.0
 40
1.0
 10
108.6298
 20
106.5838
 30
0.0
 10
105.71
 20
108.41
 30
0.0
 10
102.1366
 20
108.4126
 30
0.0
 10
98.735
 20
105.5682
 30
0.0
 10
98.735
 20
105.5682
 30
0.0
 10
95.9483
 20
103.0913
 30
0.0
 10
95.5091
 20
97.8278
 30
0.0
 10
98.2524
 20
94.1827
 30
0.0
 10
98.2524
 20
94.1827
 30
0.0
 10
99.2078
 20
96.1067
 30
0.0
 10
101.2007
 20
98.3624
 30
0.0
 10
103.0889
 20
96.1208
 30
0.0
 10
103.0889
 20
96.1208
 30
0.0
 10
104.7616
 20
92.9952
 30
0.0
 10
101.7621
 20
88.8153
 30
0.0
 10
96.409
 20
86.8125
 30
0.0
 10
96.409
 20
86.8125
 30
0.0
 10
96.409
 20
86.8125
 30
0.0
 10
96.409
 20
86.8125
 30
0.0
 10
96.409
 20
86.8125
 30
0.0
 10
96.409
 20
86.8125
 30
0.0
 10
94.5777
 20
86.1273
 30
0.0
 10
91.5732
 20
85.5668
 30
0.0
 10
89.7322
 20
85.5668
 30
0.0
 10
89.7322
 20
85.5668
 30
0.0
 10
86.6264
 20
85.5668
 30
0.0
 10
86.2954
 20
85.7125
 30
0.0
 10
85.139
 20
87.5883
 30
0.0
 10
85.139
 20
87.5883
 30
0.0
 10
84.4534
 20
88.7001
 30
0.0
 10
83.7007
 20
90.3796
 30
0.0
 10
83.4658
 20
91.3204
 30
0.0
 10
83.4658
 20
91.3204
 30
0.0
 10
83.081
 20
92.8624
 30
0.0
 10
83.2009
 20
93.031
 30
0.0
 10
84.6812
 20
93.031
 30
0.0
 10
84.6812
 20
93.031
 30
0.0
 10
88.5927
 20
93.1187
 30
0.0
 10
93.4166
 20
96.2842
 30
0.0
 10
92.9391
 20
100.7949
 30
0.0
 10
92.9391
 20
100.7949
 30
0.0
 10
92.57
 20
103.9397
 30
0.0
 10
88.7288
 20
108.3117
 30
0.0
 10
83.9586
 20
106.2692
 30
0.0
 10
83.9586
 20
106.2692
 30
0.0
 10
82.5217
 20
105.3836
 30
0.0
 10
82.4293
 20
104.2272
 30
0.0
 10
84.0103
 20
104.2272
 30
0.0
 10
84.0103
 20
104.2272
 30
0.0
 10
86.289
 20
103.907
 30
0.0
 10
87.6253
 20
102.63
 30
0.0
 10
86.2935
 20
100.8179
 30
0.0
 10
86.2935
 20
100.8179
 30
0.0
 10
84.5146
 20
98.6856
 30
0.0
 10
80.4313
 20
101.6384
 30
0.0
 10
78.3509
 20
105.6881
 30
0.0
 10
78.3509
 20
105.6881
 30
0.0
 10
86.3727
 20
112.4714
 30
0.0
 10
97.8882
 20
117.4105
 30
0.0
 10
113.0279
 20
117.8026
 30
0.0
 10
113.0279
 20
117.8026
 30
0.0
 10
128.1676
 20
117.4105
 30
0.0
 10
139.6831
 20
112.4714
 30
0.0
 10
147.7049
 20
105.6881
 30
0.0
 10
147.7049
 20
105.6881
 30
0.0
 10
145.6244
 20
101.6384
 30
0.0
 10
141.5411
 20
98.6856
 30
0.0
 10
139.7624
 20
100.8179
 30
0.0
 10
139.7624
 20
100.8179
 30
0.0
 10
138.4306
 20
102.63
 30
0.0
 10
139.7668
 20
103.907
 30
0.0
 10
142.0456
 20
104.2272
 30
0.0
 10
142.0456
 20
104.2272
 30
0.0
 10
143.6266
 20
104.2272
 30
0.0
 10
143.5342
 20
105.3834
 30
0.0
 10
142.0973
 20
106.2692
 30
0.0
 10
142.0973
 20
106.2692
 30
0.0
 10
137.327
 20
108.3117
 30
0.0
 10
133.4856
 20
103.9399
 30
0.0
 10
133.1168
 20
100.7949
 30
0.0
 10
133.1168
 20
100.7949
 30
0.0
 10
132.6393
 20
96.2842
 30
0.0
 10
137.4632
 20
93.1187
 30
0.0
 10
141.3746
 20
93.031
 30
0.0
 10
141.3746
 20
93.031
 30
0.0
 10
142.8552
 20
93.031
 30
0.0
 10
142.9749
 20
92.8624
 30
0.0
 10
142.59
 20
91.3204
 30
0.0
 10
142.59
 20
91.3204
 30
0.0
 10
142.3552
 20
90.3796
 30
0.0
 10
141.6022
 20
88.7001
 30
0.0
 10
140.9169
 20
87.5883
 30
0.0
 10
140.9169
 20
87.5883
 30
0.0
 10
139.7605
 20
85.7125
 30
0.0
 10
139.4295
 20
85.5668
 30
0.0
 10
136.3237
 20
85.5668
 30
0.0
 10
136.3237
 20
85.5668
 30
0.0
 10
134.4829
 20
85.5668
 30
0.0
 10
131.4782
 20
86.1275
 30
0.0
 10
129.6468
 20
86.8125
 30
0.0
 10
129.6468
 20
86.8125
 30
0.0
 10
129.6468
 20
86.8125
 30
0.0
 10
129.6468
 20
86.8125
 30
0.0
 10
129.6468
 20
86.8125
 30
0.0
 10
129.6468
 20
86.8125
 30
0.0
 10
124.2938
 20
88.8153
 30
0.0
 10
121.2942
 20
92.9952
 30
0.0
 10
122.9669
 20
96.1208
 30
0.0
 10
122.9669
 20
96.1208
 30
0.0
 10
124.8552
 20
98.3624
 30
0.0
 10
126.8481
 20
96.1067
 30
0.0
 10
127.8035
 20
94.1827
 30
0.0
 10
127.8035
 20
94.1827
 30
0.0
 10
130.5468
 20
97.8278
 30
0.0
 10
130.1076
 20
103.0913
 30
0.0
 10
127.3208
 20
105.5682
 30
0.0
 10
127.3208
 20
105.5682
 30
0.0
 10
123.9193
 20
108.4126
 30
0.0
 10
120.3456
 20
108.41
 30
0.0
 10
117.426
 20
106.5838
 30
0.0
 10
117.426
 20
106.5838
 30
0.0
 10
117.3795
 20
110.8305
 30
0.0
 10
115.2441
 20
114.709
 30
0.0
 10
113.0282
 20
114.6764
 30
0.0
 10
113.0282
 20
114.6764
 30
0.0
 10
110.8122
 20
114.709
 30
0.0
 10
108.6768
 20
110.8305
 30
0.0
 10
108.6303
 20
106.5838
 30
0.0
 10
108.6303
 20
106.5838
 30
0.0
 10
108.6303
 20
106.5838
 30
0.0
 10
108.6298
 20
106.5838
 30
0.0
 10
108.6298
 20
106.5838
 30
0.0
  0
SPLINE
  5
47
330
1F
100
AcDbEntity
  8
layer 1
 62
     7
370
    25
100
AcDbSpline
210
0.0
220
0.0
230
1.0
 70
    11
 71
     3
 72
    32
 73
    28
 74
     0
 42
0.0000000001
 43
0.0000000001
 12
1.0
 22
0.0
 32
0.0
 13
1.0
 23
0.0
 33
0.0
 40
0.0
 40
0.0
 40
0.0
 40
0.0
 40
0.125
 40
0.125
 40
0.125
 40
0.125
 40
0.25
 40
0.25
 40
0.25
 40
0.25
 40
0.375
 40
0.375
 40
0.375
 40
0.375
 40
0.5
 40
0.5
 40
0.5
 40
0.5
 40
0.625
 40
0.625
 40
0.625
 40
0.625
 40
0.75
 40
0.75
 40
0.75
 40
0.75
 40
1.0
 40
1.0
 40
1.0
 40
1.0
 10
69.4891
 20
106.975
 30
0.0
 10
66.1807
 20
114.8661
 30
0.0
 10
59.0731
 20
118.7938
 30
0.0
 10
52.8251
 20
117.2621
 30
0.0
 10
52.8251
 20
117.2621
 30
0.0
 10
44.8071
 20
116.5905
 30
0.0
 10
39.9512
 20
107.124
 30
0.0
 10
43.6323
 20
103.281
 30
0.0
 10
43.6323
 20
103.281
 30
0.0
 10
48.0396
 20
99.22
 30
0.0
 10
51.8201
 20
105.5557
 30
0.0
 10
48.9628
 20
108.5811
 30
0.0
 10
48.9628
 20
108.5811
 30
0.0
 10
47.2283
 20
110.3156
 30
0.0
 10
47.3935
 20
110.8653
 30
0.0
 10
49.898
 20
111.6919
 30
0.0
 10
49.898
 20
111.6919
 30
0.0
 10
60.4397
 20
113.4017
 30
0.0
 10
63.2044
 20
103.8483
 30
0.0
 10
61.9022
 20
97.3564
 30
0.0
 10
61.9022
 20
97.3564
 30
0.0
 10
64.1203
 20
101.4959
 30
0.0
 10
66.7564
 20
104.2362
 30
0.0
 10
69.4894
 20
106.9747
 30
0.0
 10
69.4894
 20
106.9747
 30
0.0
 10
69.4894
 20
106.9747
 30
0.0
 10
69.4891
 20
106.975
 30
0.0
 10
69.4891
 20
106.975
 30
0.0
  0
SPLINE
  5
48
330
1F
100
AcDbEntity
  8
layer 1
 62
     7
370
    25
100
AcDbSpline
210
0.0
220
0.0
230
1.0
 70
    11
 71
     3
 72
    16
 73
    12
 74
     0
 42
0.0000000001
 43
0.0000000001
 12
1.0
 22
0.0
 32
0.0
 13
1.0
 23
0.0
 33
0.0
 40
0.0
 40
0.0
 40
0.0
 40
0.0
 40
0.25
 40
0.25
 40
0.25
 40
0.25
 40
0.5
 40
0.5
 40
0.5
 40
0.5
 40
1.0
 40
1.0
 40
1.0
 40
1.0
 10
49.5726
 20
123.5929
 30
0.0
 10
43.9852
 20
123.5929
 30
0.0
 10
40.9534
 20
123.5929
 30
0.0
 10
36.8106
 20
123.5929
 30
0.0
 10
36.8106
 20
123.5929
 30
0.0
 10
36.8106
 20
119.512
 30
0.0
 10
36.8106
 20
115.2164
 30
0.0
 10
36.8106
 20
111.0195
 30
0.0
 10
36.8106
 20
111.0195
 30
0.0
 10
38.8082
 20
117.859
 30
0.0
 10
43.5397
 20
122.1568
 30
0.0
 10
49.5726
 20
123.5929
 30
0.0
  0
SPLINE
  5
49
330
1F
100
AcDbEntity
  8
layer 1
 62
     7
370
    25
100
AcDbSpline
210
0.0
220
0.0
230
1.0
 70
    11
 71
     3
 72
    16
 73
    12
 74
     0
 42
0.0000000001
 43
0.0000000001
 12
1.0
 22
0.0
 32
0.0
 13
1.0
 23
0.0
 33
0.0
 40
0.0
 40
0.0
 40
0.0
 40
0.0
 40
0.25
 40
0.25
 40
0.25
 40
0.25
 40
0.5
 40
0.5
 40
0.5
 40
0.5
 40
1.0
 40
1.0
 40
1.0
 40
1.0
 10
100.3301
 20
123.5929
 30
0.0
 10
90.2532
 20
123.5929
 30
0.0
 10
74.2864
 20
123.5929
 30
0.0
 10
61.4819
 20
123.5929
 30
0.0
 10
61.4819
 20
123.5929
 30
0.0
 10
66.8302
 20
122.031
 30
0.0
 10
72.4586
 20
117.1138
 30
0.0
 10
75.8601
 20
112.2375
 30
0.0
 10
75.8601
 20
112.2375
 30
0.0
 10
83.5147
 20
118.1508
 30
0.0
 10
89.6114
 20
121.408
 30
0.0
 10
100.3301
 20
123.5929
 30
0.0
  0
SPLINE
  5
4A
330
1F
100
AcDbEntity
  8
layer 1
 62
     7
370
    25
100
AcDbSpline
210
0.0
220
0.0
230
1.0
 70
    11
 71
     3
 72
    68
 73
    64
 74
     0
 42
0.0000000001
 43
0.0000000001
 12
1.0
 22
0.0
 32
0.0
 13
1.0
 23
0.0
 33
0.0
 40
0.0
 40
0.0
 40
0.0
 40
0.0
 40
0.0588235294117647
 40
0.0588235294117647
 40
0.0588235294117647
 40
0.0588235294117647
 40
0.1176470588235294
 40
0.1176470588235294
 40
0.1176470588235294
 40
0.1176470588235294
 40
0.1764705882352941
 40
0.1764705882352941
 40
0.1764705882352941
 40
0.1764705882352941
 40
0.2352941176470588
 40
0.2352941176470588
 40
0.2352941176470588
 40
0.2352941176470588
 40
0.2941176470588235
 40
0.2941176470588235
 40
0.2941176470588235
 40
0.2941176470588235
 40
0.3529411764705883
 40
0.3529411764705883
 40
0.3529411764705883
 40
0.3529411764705883
 40
0.4117647058823529
 40
0.4117647058823529
 40
0.4117647058823529
 40
0.4117647058823529
 40
0.4705882352941176
 40
0.4705882352941176
 40
0.4705882352941176
 40
0.4705882352941176
 40
0.5294117647058824
 40
0.5294117647058824
 40
0.5294117647058824
 40
0.5294117647058824
 40
0.5882352941176471
 40
0.5882352941176471
 40
0.5882352941176471
 40
0.5882352941176471
 40
0.6470588235294118
 40
0.6470588235294118
 40
0.6470588235294118
 40
0.6470588235294118
 40
0.7058823529411765
 40
0.7058823529411765
 40
0.7058823529411765
 40
0.7058823529411765
 40
0.7647058823529411
 40
0.7647058823529411
 40
0.7647058823529411
 40
0.7647058823529411
 40
0.8235294117647058
 40
0.8235294117647058
 40
0.8235294117647058
 40
0.8235294117647058
 40
0.8823529411764706
 40
0.8823529411764706
 40
0.8823529411764706
 40
0.8823529411764706
 40
1.0
 40
1.0
 40
1.0
 40
1.0
 10
146.521
 20
70.6384
 30
0.0
 10
149.648
 20
72.0175
 30
0.0
 10
150.1527
 20
75.0208
 30
0.0
 10
154.0369
 20
74.9926
 30
0.0
 10
154.0369
 20
74.9926
 30
0.0
 10
155.4729
 20
74.9926
 30
0.0
 10
157.1958
 20
74.6994
 30
0.0
 10
157.8656
 20
74.3409
 30
0.0
 10
157.8656
 20
74.3409
 30
0.0
 10
158.9687
 20
73.7506
 30
0.0
 10
158.9969
 20
73.5658
 30
0.0
 10
158.1654
 20
72.3786
 30
0.0
 10
158.1654
 20
72.3786
 30
0.0
 10
155.8821
 20
69.119
 30
0.0
 10
160.8637
 20
67.2336
 30
0.0
 10
163.3632
 20
70.4113
 30
0.0
 10
163.3632
 20
70.4113
 30
0.0
 10
166.9437
 20
76.3422
 30
0.0
 10
159.7633
 20
80.6367
 30
0.0
 10
149.8624
 20
79.8773
 30
0.0
 10
149.8624
 20
79.8773
 30
0.0
 10
149.8624
 20
79.8773
 30
0.0
 10
144.2832
 20
79.6578
 30
0.0
 10
144.2832
 20
79.6578
 30
0.0
 10
144.2832
 20
79.6578
 30
0.0
 10
140.111
 20
73.2176
 30
0.0
 10
133.2508
 20
67.2578
 30
0.0
 10
126.0288
 20
66.6282
 30
0.0
 10
126.0288
 20
66.6282
 30
0.0
 10
133.2508
 20
65.5626
 30
0.0
 10
139.3836
 20
60.3297
 30
0.0
 10
144.2832
 20
53.5987
 30
0.0
 10
144.2832
 20
53.5987
 30
0.0
 10
144.2832
 20
53.5987
 30
0.0
 10
149.8624
 20
53.3792
 30
0.0
 10
149.8624
 20
53.3792
 30
0.0
 10
149.8624
 20
53.3792
 30
0.0
 10
159.7633
 20
52.6198
 30
0.0
 10
166.9439
 20
56.9142
 30
0.0
 10
163.3632
 20
62.8451
 30
0.0
 10
163.3632
 20
62.8451
 30
0.0
 10
160.8637
 20
66.0229
 30
0.0
 10
155.8821
 20
64.1374
 30
0.0
 10
158.1654
 20
60.8779
 30
0.0
 10
158.1654
 20
60.8779
 30
0.0
 10
158.9969
 20
59.6907
 30
0.0
 10
158.9687
 20
59.5059
 30
0.0
 10
157.8656
 20
58.9156
 30
0.0
 10
157.8656
 20
58.9156
 30
0.0
 10
157.1958
 20
58.5571
 30
0.0
 10
155.4731
 20
58.2639
 30
0.0
 10
154.0369
 20
58.2639
 30
0.0
 10
154.0369
 20
58.2639
 30
0.0
 10
150.1525
 20
58.2357
 30
0.0
 10
149.648
 20
61.239
 30
0.0
 10
146.521
 20
62.618
 30
0.0
 10
146.521
 20
62.618
 30
0.0
 10
144.3981
 20
63.4068
 30
0.0
 10
138.3537
 20
64.3594
 30
0.0
 10
138.594
 20
66.6282
 30
0.0
 10
138.594
 20
66.6282
 30
0.0
 10
138.3537
 20
68.8971
 30
0.0
 10
144.3979
 20
69.8499
 30
0.0
 10
146.521
 20
70.6384
 30
0.0
  0
SPLINE
  5
4B
330
1F
100
AcDbEntity
  8
layer 1
 62
     7
370
    25
100
AcDbSpline
210
0.0
220
0.0
230
1.0
 70
    11
 71
     3
 72
    20
 73
    16
 74
     0
 42
0.0000000001
 43
0.0000000001
 12
1.0
 22
0.0
 32
0.0
 13
1.0
 23
0.0
 33
0.0
 40
0.0
 40
0.0
 40
0.0
 40
0.0
 40
0.2
 40
0.2
 40
0.2
 40
0.2
 40
0.4
 40
0.4
 40
0.4
 40
0.4
 40
0.6
 40
0.6
 40
0.6
 40
0.6
 40
1.0
 40
1.0
 40
1.0
 40
1.0
 10
113.0277
 20
71.0543
 30
0.0
 10
111.7615
 20
69.0337
 30
0.0
 10
108.8322
 20
67.1466
 30
0.0
 10
105.3249
 20
66.628
 30
0.0
 10
105.3249
 20
66.628
 30
0.0
 10
108.8325
 20
66.1094
 30
0.0
 10
111.7617
 20
64.2223
 30
0.0
 10
113.0279
 20
62.2017
 30
0.0
 10
113.0279
 20
62.2017
 30
0.0
 10
114.2941
 20
64.2223
 30
0.0
 10
117.2234
 20
66.1094
 30
0.0
 10
120.7307
 20
66.628
 30
0.0
 10
120.7307
 20
66.628
 30
0.0
 10
117.2231
 20
67.1466
 30
0.0
 10
114.2939
 20
69.0337
 30
0.0
 10
113.0277
 20
71.0543
 30
0.0
  0
SPLINE
  5
4C
330
1F
100
AcDbEntity
  8
layer 1
 62
     7
370
    25
100
AcDbSpline
210
0.0
220
0.0
230
1.0
 70
    11
 71
     3
 72
    56
 73
    52
 74
     0
 42
0.0000000001
 43
0.0000000001
 12
1.0
 22
0.0
 32
0.0
 13
1.0
 23
0.0
 33
0.0
 40
0.0
 40
0.0
 40
0.0
 40
0.0
 40
0.0714285714285714
 40
0.0714285714285714
 40
0.0714285714285714
 40
0.0714285714285714
 40
0.1428571428571428
 40
0.1428571428571428
 40
0.1428571428571428
 40
0.1428571428571428
 40
0.2142857142857143
 40
0.2142857142857143
 40
0.2142857142857143
 40
0.2142857142857143
 40
0.2857142857142857
 40
0.2857142857142857
 40
0.2857142857142857
 40
0.2857142857142857
 40
0.3571428571428572
 40
0.3571428571428572
 40
0.3571428571428572
 40
0.3571428571428572
 40
0.4285714285714285
 40
0.4285714285714285
 40
0.4285714285714285
 40
0.4285714285714285
 40
0.5
 40
0.5
 40
0.5
 40
0.5
 40
0.5714285714285714
 40
0.5714285714285714
 40
0.5714285714285714
 40
0.5714285714285714
 40
0.6428571428571429
 40
0.6428571428571429
 40
0.6428571428571429
 40
0.6428571428571429
 40
0.7142857142857143
 40
0.7142857142857143
 40
0.7142857142857143
 40
0.7142857142857143
 40
0.7857142857142857
 40
0.7857142857142857
 40
0.7857142857142857
 40
0.7857142857142857
 40
0.8571428571428571
 40
0.8571428571428571
 40
0.8571428571428571
 40
0.8571428571428571
 40
1.0
 40
1.0
 40
1.0
 40
1.0
 10
118.8935
 20
81.5613
 30
0.0
 10
122.4998
 20
80.8433
 30
0.0
 10
124.5526
 20
77.1698
 30
0.0
 10
121.5841
 20
76.7464
 30
0.0
 10
121.5841
 20
76.7464
 30
0.0
 10
119.9845
 20
76.5181
 30
0.0
 10
119.4128
 20
74.7345
 30
0.0
 10
120.514
 20
73.4076
 30
0.0
 10
120.514
 20
73.4076
 30
0.0
 10
123.0821
 20
70.7938
 30
0.0
 10
131.5981
 20
73.5635
 30
0.0
 10
134.2972
 20
78.6107
 30
0.0
 10
134.2972
 20
78.6107
 30
0.0
 10
125.7629
 20
79.4481
 30
0.0
 10
116.0639
 20
82.8618
 30
0.0
 10
114.9639
 20
92.4263
 30
0.0
 10
114.9639
 20
92.4263
 30
0.0
 10
114.6522
 20
95.6842
 30
0.0
 10
114.0863
 20
96.9161
 30
0.0
 10
113.0275
 20
96.9887
 30
0.0
 10
113.0275
 20
96.9887
 30
0.0
 10
111.9686
 20
96.9161
 30
0.0
 10
111.4027
 20
95.6842
 30
0.0
 10
111.091
 20
92.4263
 30
0.0
 10
111.091
 20
92.4263
 30
0.0
 10
109.991
 20
82.8618
 30
0.0
 10
100.2923
 20
79.4481
 30
0.0
 10
91.7577
 20
78.6107
 30
0.0
 10
91.7577
 20
78.6107
 30
0.0
 10
94.4568
 20
73.5635
 30
0.0
 10
102.9726
 20
70.7936
 30
0.0
 10
105.541
 20
73.4076
 30
0.0
 10
105.541
 20
73.4076
 30
0.0
 10
106.6421
 20
74.7345
 30
0.0
 10
106.0704
 20
76.5181
 30
0.0
 10
104.4708
 20
76.7464
 30
0.0
 10
104.4708
 20
76.7464
 30
0.0
 10
101.5025
 20
77.1698
 30
0.0
 10
103.5554
 20
80.8433
 30
0.0
 10
107.1614
 20
81.5613
 30
0.0
 10
107.1614
 20
81.5613
 30
0.0
 10
109.8796
 20
81.6647
 30
0.0
 10
111.5485
 20
80.9063
 30
0.0
 10
113.0272
 20
78.9795
 30
0.0
 10
113.0272
 20
78.9795
 30
0.0
 10
114.506
 20
80.9063
 30
0.0
 10
116.1749
 20
81.6645
 30
0.0
 10
118.893
 20
81.5613
 30
0.0
 10
118.893
 20
81.5613
 30
0.0
 10
118.893
 20
81.5613
 30
0.0
 10
118.8935
 20
81.5613
 30
0.0
 10
118.8935
 20
81.5613
 30
0.0
  0
SPLINE
  5
4D
330
1F
100
AcDbEntity
  8
layer 1
 62
     7
370
    25
100
AcDbSpline
210
0.0
220
0.0
230
1.0
 70
    11
 71
     3
 72
    28
 73
    24
 74
     0
 42
0.0000000001
 43
0.0000000001
 12
1.0
 22
0.0
 32
0.0
 13
1.0
 23
0.0
 33
0.0
 40
0.0
 40
0.0
 40
0.0
 40
0.0
 40
0.1428571428571428
 40
0.1428571428571428
 40
0.1428571428571428
 40
0.1428571428571428
 40
0.2857142857142857
 40
0.2857142857142857
 40
0.2857142857142857
 40
0.2857142857142857
 40
0.4285714285714285
 40
0.4285714285714285
 40
0.4285714285714285
 40
0.4285714285714285
 40
0.5714285714285714
 40
0.5714285714285714
 40
0.5714285714285714
 40
0.5714285714285714
 40
0.7142857142857143
 40
0.7142857142857143
 40
0.7142857142857143
 40
0.7142857142857143
 40
1.0
 40
1.0
 40
1.0
 40
1.0
 10
178.9799
 20
76.5221
 30
0.0
 10
177.8705
 20
77.8591
 30
0.0
 10
177.9357
 20
80.5544
 30
0.0
 10
181.8612
 20
85.946
 30
0.0
 10
181.8612
 20
85.946
 30
0.0
 10
184.5516
 20
89.8817
 30
0.0
 10
187.3224
 20
94.3731
 30
0.0
 10
189.2448
 20
99.322
 30
0.0
 10
189.2448
 20
99.322
 30
0.0
 10
188.879
 20
92.2215
 30
0.0
 10
189.2368
 20
85.1189
 30
0.0
 10
189.2448
 20
78.0126
 30
0.0
 10
189.2448
 20
78.0126
 30
0.0
 10
187.9905
 20
80.0525
 30
0.0
 10
185.6605
 20
80.9818
 30
0.0
 10
183.7845
 20
80.8635
 30
0.0
 10
183.7845
 20
80.8635
 30
0.0
 10
182.6728
 20
80.6454
 30
0.0
 10
182.0867
 20
80.4251
 30
0.0
 10
182.4351
 20
79.0371
 30
0.0
 10
182.4351
 20
79.0371
 30
0.0
 10
183.5299
 20
76.3192
 30
0.0
 10
180.4688
 20
74.8607
 30
0.0
 10
178.9799
 20
76.5221
 30
0.0
  0
SPLINE
  5
4E
330
1F
100
AcDbEntity
  8
layer 1
 62
     7
370
    25
100
AcDbSpline
210
0.0
220
0.0
230
1.0
 70
    11
 71
     3
 72
    16
 73
    12
 74
     0
 42
0.0000000001
 43
0.0000000001
 12
1.0
 22
0.0
 32
0.0
 13
1.0
 23
0.0
 33
0.0
 40
0.0
 40
0.0
 40
0.0
 40
0.0
 40
0.25
 40
0.25
 40
0.25
 40
0.25
 40
0.5
 40
0.5
 40
0.5
 40
0.5
 40
1.0
 40
1.0
 40
1.0
 40
1.0
 10
166.3381
 20
93.964
 30
0.0
 10
169.3346
 20
91.5372
 30
0.0
 10
172.7794
 20
90.6991
 30
0.0
 10
176.4097
 20
91.7377
 30
0.0
 10
176.4097
 20
91.7377
 30
0.0
 10
174.3531
 20
88.0785
 30
0.0
 10
172.9477
 20
86.3144
 30
0.0
 10
171.4998
 20
80.9035
 30
0.0
 10
171.4998
 20
80.9035
 30
0.0
 10
170.8401
 20
85.6912
 30
0.0
 10
168.4523
 20
91.0418
 30
0.0
 10
166.3381
 20
93.964
 30
0.0
  0
SPLINE
  5
4F
330
1F
100
AcDbEntity
  8
layer 1
 62
     7
370
    25
100
AcDbSpline
210
0.0
220
0.0
230
1.0
 70
    11
 71
     3
 72
    20
 73
    16
 74
     0
 42
0.0000000001
 43
0.0000000001
 12
1.0
 22
0.0
 32
0.0
 13
1.0
 23
0.0
 33
0.0
 40
0.0
 40
0.0
 40
0.0
 40
0.0
 40
0.2
 40
0.2
 40
0.2
 40
0.2
 40
0.4
 40
0.4
 40
0.4
 40
0.4
 40
0.6
 40
0.6
 40
0.6
 40
0.6
 40
1.0
 40
1.0
 40
1.0
 40
1.0
 10
148.505
 20
86.9014
 30
0.0
 10
151.9737
 20
91.3258
 30
0.0
 10
152.6835
 20
93.5009
 30
0.0
 10
154.3261
 20
99.4147
 30
0.0
 10
154.3261
 20
99.4147
 30
0.0
 10
157.9756
 20
95.2265
 30
0.0
 10
160.5485
 20
91.1479
 30
0.0
 10
163.1484
 20
85.3221
 30
0.0
 10
163.1484
 20
85.3221
 30
0.0
 10
157.5471
 20
87.6255
 30
0.0
 10
153.9549
 20
87.9767
 30
0.0
 10
148.5052
 20
86.9014
 30
0.0
 10
148.5052
 20
86.9014
 30
0.0
 10
148.5052
 20
86.9014
 30
0.0
 10
148.505
 20
86.9014
 30
0.0
 10
148.505
 20
86.9014
 30
0.0
  0
SPLINE
  5
50
330
1F
100
AcDbEntity
  8
layer 1
 62
     7
370
    25
100
AcDbSpline
210
0.0
220
0.0
230
1.0
 70
    11
 71
     3
 72
    32
 73
    28
 74
     0
 42
0.0000000001
 43
0.0000000001
 12
1.0
 22
0.0
 32
0.0
 13
1.0
 23
0.0
 33
0.0
 40
0.0
 40
0.0
 40
0.0
 40
0.0
 40
0.125
 40
0.125
 40
0.125
 40
0.125
 40
0.25
 40
0.25
 40
0.25
 40
0.25
 40
0.375
 40
0.375
 40
0.375
 40
0.375
 40
0.5
 40
0.5
 40
0.5
 40
0.5
 40
0.625
 40
0.625
 40
0.625
 40
0.625
 40
0.75
 40
0.75
 40
0.75
 40
0.75
 40
1.0
 40
1.0
 40
1.0
 40
1.0
 10
156.5663
 20
106.975
 30
0.0
 10
159.8747
 20
114.8661
 30
0.0
 10
166.9823
 20
118.7938
 30
0.0
 10
173.2303
 20
117.2621
 30
0.0
 10
173.2303
 20
117.2621
 30
0.0
 10
181.2483
 20
116.5905
 30
0.0
 10
186.1042
 20
107.124
 30
0.0
 10
182.4231
 20
103.281
 30
0.0
 10
182.4231
 20
103.281
 30
0.0
 10
178.0158
 20
99.22
 30
0.0
 10
174.2353
 20
105.5557
 30
0.0
 10
177.0926
 20
108.5811
 30
0.0
 10
177.0926
 20
108.5811
 30
0.0
 10
178.8271
 20
110.3156
 30
0.0
 10
178.6619
 20
110.8653
 30
0.0
 10
176.1574
 20
111.6919
 30
0.0
 10
176.1574
 20
111.6919
 30
0.0
 10
165.6157
 20
113.4017
 30
0.0
 10
162.851
 20
103.8483
 30
0.0
 10
164.1532
 20
97.3564
 30
0.0
 10
164.1532
 20
97.3564
 30
0.0
 10
161.9351
 20
101.4959
 30
0.0
 10
159.299
 20
104.2362
 30
0.0
 10
156.566
 20
106.9747
 30
0.0
 10
156.566
 20
106.9747
 30
0.0
 10
156.566
 20
106.9747
 30
0.0
 10
156.5663
 20
106.975
 30
0.0
 10
156.5663
 20
106.975
 30
0.0
  0
SPLINE
  5
51
330
1F
100
AcDbEntity
  8
layer 1
 62
     7
370
    25
100
AcDbSpline
210
0.0
220
0.0
230
1.0
 70
    11
 71
     3
 72
    16
 73
    12
 74
     0
 42
0.0000000001
 43
0.0000000001
 12
1.0
 22
0.0
 32
0.0
 13
1.0
 23
0.0
 33
0.0
 40
0.0
 40
0.0
 40
0.0
 40
0.0
 40
0.25
 40
0.25
 40
0.25
 40
0.25
 40
0.5
 40
0.5
 40
0.5
 40
0.5
 40
1.0
 40
1.0
 40
1.0
 40
1.0
 10
176.4828
 20
123.5929
 30
0.0
 10
182.0702
 20
123.5929
 30
0.0
 10
185.102
 20
123.5929
 30
0.0
 10
189.2448
 20
123.5929
 30
0.0
 10
189.2448
 20
123.5929
 30
0.0
 10
189.2448
 20
119.512
 30
0.0
 10
189.2448
 20
115.2164
 30
0.0
 10
189.2448
 20
111.0195
 30
0.0
 10
189.2448
 20
111.0195
 30
0.0
 10
187.2472
 20
117.859
 30
0.0
 10
182.5157
 20
122.1568
 30
0.0
 10
176.4828
 20
123.5929
 30
0.0
  0
SPLINE
  5
52
330
1F
100
AcDbEntity
  8
layer 1
 62
     7
370
    25
100
AcDbSpline
210
0.0
220
0.0
230
1.0
 70
    11
 71
     3
 72
    16
 73
    12
 74
     0
 42
0.0000000001
 43
0.0000000001
 12
1.0
 22
0.0
 32
0.0
 13
1.0
 23
0.0
 33
0.0
 40
0.0
 40
0.0
 40
0.0
 40
0.0
 40
0.25
 40
0.25
 40
0.25
 40
0.25
 40
0.5
 40
0.5
 40
0.5
 40
0.5
 40
1.0
 40
1.0
 40
1.0
 40
1.0
 10
125.7253
 20
123.5929
 30
0.0
 10
135.8022
 20
123.5929
 30
0.0
 10
151.769
 20
123.5929
 30
0.0
 10
164.5735
 20
123.5929
 30
0.0
 10
164.5735
 20
123.5929
 30
0.0
 10
159.2252
 20
122.031
 30
0.0
 10
153.5968
 20
117.1138
 30
0.0
 10
150.1953
 20
112.2375
 30
0.0
 10
150.1953
 20
112.2375
 30
0.0
 10
142.5407
 20
118.1508
 30
0.0
 10
136.444
 20
121.408
 30
0.0
 10
125.7253
 20
123.5929
 30
0.0
  0
SPLINE
  5
53
330
1F
100
AcDbEntity
  8
layer 1
 62
     7
370
    25
100
AcDbSpline
210
0.0
220
0.0
230
1.0
 70
    11
 71
     3
 72
    20
 73
    16
 74
     0
 42
0.0000000001
 43
0.0000000001
 12
1.0
 22
0.0
 32
0.0
 13
1.0
 23
0.0
 33
0.0
 40
0.0
 40
0.0
 40
0.0
 40
0.0
 40
0.2
 40
0.2
 40
0.2
 40
0.2
 40
0.4
 40
0.4
 40
0.4
 40
0.4
 40
0.6
 40
0.6
 40
0.6
 40
0.6
 40
1.0
 40
1.0
 40
1.0
 40
1.0
 10
36.8106
 20
61.0316
 30
0.0
 10
39.2046
 20
64.9953
 30
0.0
 10
47.6503
 20
67.2364
 30
0.0
 10
52.0728
 20
63.261
 30
0.0
 10
52.0728
 20
63.261
 30
0.0
 10
52.0728
 20
63.261
 30
0.0
 10
52.0728
 20
69.995
 30
0.0
 10
52.0728
 20
69.995
 30
0.0
 10
52.0728
 20
69.995
 30
0.0
 10
47.6503
 20
66.0196
 30
0.0
 10
39.2046
 20
68.2607
 30
0.0
 10
36.8106
 20
72.2244
 30
0.0
 10
36.8106
 20
72.2244
 30
0.0
 10
36.8106
 20
72.2244
 30
0.0
 10
36.8106
 20
61.0316
 30
0.0
 10
36.8106
 20
61.0316
 30
0.0
  0
SPLINE
  5
54
330
1F
100
AcDbEntity
  8
layer 1
 62
     7
370
    25
100
AcDbSpline
210
0.0
220
0.0
230
1.0
 70
    11
 71
     3
 72
    28
 73
    24
 74
     0
 42
0.0000000001
 43
0.0000000001
 12
1.0
 22
0.0
 32
0.0
 13
1.0
 23
0.0
 33
0.0
 40
0.0
 40
0.0
 40
0.0
 40
0.0
 40
0.1428571428571428
 40
0.1428571428571428
 40
0.1428571428571428
 40
0.1428571428571428
 40
0.2857142857142857
 40
0.2857142857142857
 40
0.2857142857142857
 40
0.2857142857142857
 40
0.4285714285714285
 40
0.4285714285714285
 40
0.4285714285714285
 40
0.4285714285714285
 40
0.5714285714285714
 40
0.5714285714285714
 40
0.5714285714285714
 40
0.5714285714285714
 40
0.7142857142857143
 40
0.7142857142857143
 40
0.7142857142857143
 40
0.7142857142857143
 40
1.0
 40
1.0
 40
1.0
 40
1.0
 10
47.0757
 20
56.7342
 30
0.0
 10
48.1851
 20
55.3972
 30
0.0
 10
48.12
 20
52.7019
 30
0.0
 10
44.1944
 20
47.3103
 30
0.0
 10
44.1944
 20
47.3103
 30
0.0
 10
41.504
 20
43.3746
 30
0.0
 10
38.7332
 20
38.8832
 30
0.0
 10
36.8109
 20
33.9342
 30
0.0
 10
36.8109
 20
33.9342
 30
0.0
 10
37.1767
 20
41.0347
 30
0.0
 10
36.8189
 20
48.1373
 30
0.0
 10
36.8109
 20
55.2437
 30
0.0
 10
36.8109
 20
55.2437
 30
0.0
 10
38.0651
 20
53.2038
 30
0.0
 10
40.3951
 20
52.2745
 30
0.0
 10
42.2711
 20
52.3927
 30
0.0
 10
42.2711
 20
52.3927
 30
0.0
 10
43.3829
 20
52.6109
 30
0.0
 10
43.969
 20
52.8312
 30
0.0
 10
43.6205
 20
54.2191
 30
0.0
 10
43.6205
 20
54.2191
 30
0.0
 10
42.5257
 20
56.937
 30
0.0
 10
45.5869
 20
58.3956
 30
0.0
 10
47.0757
 20
56.7342
 30
0.0
  0
SPLINE
  5
55
330
1F
100
AcDbEntity
  8
layer 1
 62
     7
370
    25
100
AcDbSpline
210
0.0
220
0.0
230
1.0
 70
    11
 71
     3
 72
    16
 73
    12
 74
     0
 42
0.0000000001
 43
0.0000000001
 12
1.0
 22
0.0
 32
0.0
 13
1.0
 23
0.0
 33
0.0
 40
0.0
 40
0.0
 40
0.0
 40
0.0
 40
0.25
 40
0.25
 40
0.25
 40
0.25
 40
0.5
 40
0.5
 40
0.5
 40
0.5
 40
1.0
 40
1.0
 40
1.0
 40
1.0
 10
59.7175
 20
39.2922
 30
0.0
 10
57.0119
 20
42.1554
 30
0.0
 10
53.2762
 20
42.9935
 30
0.0
 10
49.646
 20
41.5185
 30
0.0
 10
49.646
 20
41.5185
 30
0.0
 10
51.7025
 20
45.1777
 30
0.0
 10
53.1079
 20
46.9419
 30
0.0
 10
54.5559
 20
52.3528
 30
0.0
 10
54.5559
 20
52.3528
 30
0.0
 10
55.2155
 20
47.5651
 30
0.0
 10
57.6033
 20
42.2144
 30
0.0
 10
59.7175
 20
39.2922
 30
0.0
  0
SPLINE
  5
56
330
1F
100
AcDbEntity
  8
layer 1
 62
     7
370
    25
100
AcDbSpline
210
0.0
220
0.0
230
1.0
 70
    11
 71
     3
 72
    20
 73
    16
 74
     0
 42
0.0000000001
 43
0.0000000001
 12
1.0
 22
0.0
 32
0.0
 13
1.0
 23
0.0
 33
0.0
 40
0.0
 40
0.0
 40
0.0
 40
0.0
 40
0.2
 40
0.2
 40
0.2
 40
0.2
 40
0.4
 40
0.4
 40
0.4
 40
0.4
 40
0.6
 40
0.6
 40
0.6
 40
0.6
 40
1.0
 40
1.0
 40
1.0
 40
1.0
 10
77.5504
 20
46.3548
 30
0.0
 10
74.518
 20
42.512
 30
0.0
 10
72.2084
 20
39.1737
 30
0.0
 10
71.7293
 20
33.8416
 30
0.0
 10
71.7293
 20
33.8416
 30
0.0
 10
68.0798
 20
38.0298
 30
0.0
 10
65.5069
 20
42.1084
 30
0.0
 10
62.907
 20
47.9342
 30
0.0
 10
62.907
 20
47.9342
 30
0.0
 10
68.1096
 20
45.2069
 30
0.0
 10
71.9802
 20
45.3421
 30
0.0
 10
77.5502
 20
46.3548
 30
0.0
 10
77.5502
 20
46.3548
 30
0.0
 10
77.5502
 20
46.3548
 30
0.0
 10
77.5504
 20
46.3548
 30
0.0
 10
77.5504
 20
46.3548
 30
0.0
  0
SPLINE
  5
57
330
1F
100
AcDbEntity
  8
layer 1
 62
     7
370
    25
100
AcDbSpline
210
0.0
220
0.0
230
1.0
 70
    11
 71
     3
 72
   136
 73
   132
 74
     0
 42
0.0000000001
 43
0.0000000001
 12
1.0
 22
0.0
 32
0.0
 13
1.0
 23
0.0
 33
0.0
 40
0.0
 40
0.0
 40
0.0
 40
0.0
 40
0.0294117647058824
 40
0.0294117647058824
 40
0.0294117647058824
 40
0.0294117647058824
 40
0.0588235294117647
 40
0.0588235294117647
 40
0.0588235294117647
 40
0.0588235294117647
 40
0.0882352941176471
 40
0.0882352941176471
 40
0.0882352941176471
 40
0.0882352941176471
 40
0.1176470588235294
 40
0.1176470588235294
 40
0.1176470588235294
 40
0.1176470588235294
 40
0.1470588235294118
 40
0.1470588235294118
 40
0.1470588235294118
 40
0.1470588235294118
 40
0.1764705882352941
 40
0.1764705882352941
 40
0.1764705882352941
 40
0.1764705882352941
 40
0.2058823529411765
 40
0.2058823529411765
 40
0.2058823529411765
 40
0.2058823529411765
 40
0.2352941176470588
 40
0.2352941176470588
 40
0.2352941176470588
 40
0.2352941176470588
 40
0.2647058823529412
 40
0.2647058823529412
 40
0.2647058823529412
 40
0.2647058823529412
 40
0.2941176470588235
 40
0.2941176470588235
 40
0.2941176470588235
 40
0.2941176470588235
 40
0.3235294117647059
 40
0.3235294117647059
 40
0.3235294117647059
 40
0.3235294117647059
 40
0.3529411764705883
 40
0.3529411764705883
 40
0.3529411764705883
 40
0.3529411764705883
 40
0.3823529411764706
 40
0.3823529411764706
 40
0.3823529411764706
 40
0.3823529411764706
 40
0.4117647058823529
 40
0.4117647058823529
 40
0.4117647058823529
 40
0.4117647058823529
 40
0.4411764705882353
 40
0.4411764705882353
 40
0.4411764705882353
 40
0.4411764705882353
 40
0.4705882352941176
 40
0.4705882352941176
 40
0.4705882352941176
 40
0.4705882352941176
 40
0.5
 40
0.5
 40
0.5
 40
0.5
 40
0.5294117647058824
 40
0.5294117647058824
 40
0.5294117647058824
 40
0.5294117647058824
 40
0.5588235294117647
 40
0.5588235294117647
 40
0.5588235294117647
 40
0.5588235294117647
 40
0.5882352941176471
 40
0.5882352941176471
 40
0.5882352941176471
 40
0.5882352941176471
 40
0.6176470588235294
 40
0.6176470588235294
 40
0.6176470588235294
 40
0.6176470588235294
 40
0.6470588235294118
 40
0.6470588235294118
 40
0.6470588235294118
 40
0.6470588235294118
 40
0.6764705882352942
 40
0.6764705882352942
 40
0.6764705882352942
 40
0.6764705882352942
 40
0.7058823529411765
 40
0.7058823529411765
 40
0.7058823529411765
 40
0.7058823529411765
 40
0.7352941176470589
 40
0.7352941176470589
 40
0.7352941176470589
 40
0.7352941176470589
 40
0.7647058823529411
 40
0.7647058823529411
 40
0.7647058823529411
 40
0.7647058823529411
 40
0.7941176470588235
 40
0.7941176470588235
 40
0.7941176470588235
 40
0.7941176470588235
 40
0.8235294117647058
 40
0.8235294117647058
 40
0.8235294117647058
 40
0.8235294117647058
 40
0.8529411764705882
 40
0.8529411764705882
 40
0.8529411764705882
 40
0.8529411764705882
 40
0.8823529411764706
 40
0.8823529411764706
 40
0.8823529411764706
 40
0.8823529411764706
 40
0.9117647058823529
 40
0.9117647058823529
 40
0.9117647058823529
 40
0.9117647058823529
 40
0.9411764705882353
 40
0.9411764705882353
 40
0.9411764705882353
 40
0.9411764705882353
 40
1.0
 40
1.0
 40
1.0
 40
1.0
 10
108.6298
 20
26.6722
 30
0.0
 10
105.71
 20
24.846
 30
0.0
 10
102.1366
 20
24.8435
 30
0.0
 10
98.735
 20
27.6878
 30
0.0
 10
98.735
 20
27.6878
 30
0.0
 10
95.9483
 20
30.1648
 30
0.0
 10
95.5091
 20
35.4282
 30
0.0
 10
98.2524
 20
39.0733
 30
0.0
 10
98.2524
 20
39.0733
 30
0.0
 10
99.2078
 20
37.1494
 30
0.0
 10
101.2007
 20
34.8936
 30
0.0
 10
103.0889
 20
37.1352
 30
0.0
 10
103.0889
 20
37.1352
 30
0.0
 10
104.7616
 20
40.2608
 30
0.0
 10
101.7621
 20
44.4407
 30
0.0
 10
96.409
 20
46.4435
 30
0.0
 10
96.409
 20
46.4435
 30
0.0
 10
96.409
 20
46.4435
 30
0.0
 10
96.409
 20
46.4435
 30
0.0
 10
96.409
 20
46.4435
 30
0.0
 10
96.409
 20
46.4435
 30
0.0
 10
94.5777
 20
47.1288
 30
0.0
 10
91.5732
 20
47.6892
 30
0.0
 10
89.7322
 20
47.6892
 30
0.0
 10
89.7322
 20
47.6892
 30
0.0
 10
86.6264
 20
47.6892
 30
0.0
 10
86.2954
 20
47.5435
 30
0.0
 10
85.139
 20
45.6677
 30
0.0
 10
85.139
 20
45.6677
 30
0.0
 10
84.4534
 20
44.5559
 30
0.0
 10
83.7007
 20
42.8764
 30
0.0
 10
83.4658
 20
41.9356
 30
0.0
 10
83.4658
 20
41.9356
 30
0.0
 10
83.081
 20
40.3936
 30
0.0
 10
83.2009
 20
40.2251
 30
0.0
 10
84.6812
 20
40.2251
 30
0.0
 10
84.6812
 20
40.2251
 30
0.0
 10
88.5927
 20
40.1374
 30
0.0
 10
93.4166
 20
36.9719
 30
0.0
 10
92.9391
 20
32.4611
 30
0.0
 10
92.9391
 20
32.4611
 30
0.0
 10
92.57
 20
29.3163
 30
0.0
 10
88.7288
 20
24.9443
 30
0.0
 10
83.9586
 20
26.9868
 30
0.0
 10
83.9586
 20
26.9868
 30
0.0
 10
82.5217
 20
27.8724
 30
0.0
 10
82.4293
 20
29.0288
 30
0.0
 10
84.0103
 20
29.0288
 30
0.0
 10
84.0103
 20
29.0288
 30
0.0
 10
86.289
 20
29.349
 30
0.0
 10
87.6253
 20
30.626
 30
0.0
 10
86.2935
 20
32.4381
 30
0.0
 10
86.2935
 20
32.4381
 30
0.0
 10
84.5146
 20
34.5704
 30
0.0
 10
80.4313
 20
31.6176
 30
0.0
 10
78.3509
 20
27.5679
 30
0.0
 10
78.3509
 20
27.5679
 30
0.0
 10
86.3727
 20
20.7846
 30
0.0
 10
97.8882
 20
15.8455
 30
0.0
 10
113.0279
 20
15.4534
 30
0.0
 10
113.0279
 20
15.4534
 30
0.0
 10
128.1676
 20
15.8455
 30
0.0
 10
139.6831
 20
20.7846
 30
0.0
 10
147.7049
 20
27.5679
 30
0.0
 10
147.7049
 20
27.5679
 30
0.0
 10
145.6244
 20
31.6176
 30
0.0
 10
141.5411
 20
34.5704
 30
0.0
 10
139.7624
 20
32.4381
 30
0.0
 10
139.7624
 20
32.4381
 30
0.0
 10
138.4306
 20
30.626
 30
0.0
 10
139.7668
 20
29.349
 30
0.0
 10
142.0456
 20
29.0288
 30
0.0
 10
142.0456
 20
29.0288
 30
0.0
 10
143.6266
 20
29.0288
 30
0.0
 10
143.5342
 20
27.8726
 30
0.0
 10
142.0973
 20
26.9868
 30
0.0
 10
142.0973
 20
26.9868
 30
0.0
 10
137.327
 20
24.9443
 30
0.0
 10
133.4856
 20
29.3161
 30
0.0
 10
133.1168
 20
32.4611
 30
0.0
 10
133.1168
 20
32.4611
 30
0.0
 10
132.6393
 20
36.9719
 30
0.0
 10
137.4632
 20
40.1374
 30
0.0
 10
141.3746
 20
40.2251
 30
0.0
 10
141.3746
 20
40.2251
 30
0.0
 10
142.8552
 20
40.2251
 30
0.0
 10
142.9749
 20
40.3936
 30
0.0
 10
142.59
 20
41.9356
 30
0.0
 10
142.59
 20
41.9356
 30
0.0
 10
142.3552
 20
42.8764
 30
0.0
 10
141.6022
 20
44.5559
 30
0.0
 10
140.9169
 20
45.6677
 30
0.0
 10
140.9169
 20
45.6677
 30
0.0
 10
139.7605
 20
47.5435
 30
0.0
 10
139.4295
 20
47.6892
 30
0.0
 10
136.3237
 20
47.6892
 30
0.0
 10
136.3237
 20
47.6892
 30
0.0
 10
134.4829
 20
47.6892
 30
0.0
 10
131.4782
 20
47.1285
 30
0.0
 10
129.6468
 20
46.4435
 30
0.0
 10
129.6468
 20
46.4435
 30
0.0
 10
129.6468
 20
46.4435
 30
0.0
 10
129.6468
 20
46.4435
 30
0.0
 10
129.6468
 20
46.4435
 30
0.0
 10
129.6468
 20
46.4435
 30
0.0
 10
124.2938
 20
44.4407
 30
0.0
 10
121.2942
 20
40.2608
 30
0.0
 10
122.9669
 20
37.1352
 30
0.0
 10
122.9669
 20
37.1352
 30
0.0
 10
124.8552
 20
34.8936
 30
0.0
 10
126.8481
 20
37.1494
 30
0.0
 10
127.8035
 20
39.0733
 30
0.0
 10
127.8035
 20
39.0733
 30
0.0
 10
130.5468
 20
35.4282
 30
0.0
 10
130.1076
 20
30.1648
 30
0.0
 10
127.3208
 20
27.6878
 30
0.0
 10
127.3208
 20
27.6878
 30
0.0
 10
123.9193
 20
24.8435
 30
0.0
 10
120.3456
 20
24.846
 30
0.0
 10
117.426
 20
26.6722
 30
0.0
 10
117.426
 20
26.6722
 30
0.0
 10
117.3795
 20
22.4255
 30
0.0
 10
115.2441
 20
18.547
 30
0.0
 10
113.0282
 20
18.5797
 30
0.0
 10
113.0282
 20
18.5797
 30
0.0
 10
110.8122
 20
18.547
 30
0.0
 10
108.6768
 20
22.4255
 30
0.0
 10
108.6303
 20
26.6722
 30
0.0
 10
108.6303
 20
26.6722
 30
0.0
 10
108.6303
 20
26.6722
 30
0.0
 10
108.6298
 20
26.6722
 30
0.0
 10
108.6298
 20
26.6722
 30
0.0
  0
SPLINE
  5
58
330
1F
100
AcDbEntity
  8
layer 1
 62
     7
370
    25
100
AcDbSpline
210
0.0
220
0.0
230
1.0
 70
    11
 71
     3
 72
    32
 73
    28
 74
     0
 42
0.0000000001
 43
0.0000000001
 12
1.0
 22
0.0
 32
0.0
 13
1.0
 23
0.0
 33
0.0
 40
0.0
 40
0.0
 40
0.0
 40
0.0
 40
0.125
 40
0.125
 40
0.125
 40
0.125
 40
0.25
 40
0.25
 40
0.25
 40
0.25
 40
0.375
 40
0.375
 40
0.375
 40
0.375
 40
0.5
 40
0.5
 40
0.5
 40
0.5
 40
0.625
 40
0.625
 40
0.625
 40
0.625
 40
0.75
 40
0.75
 40
0.75
 40
0.75
 40
1.0
 40
1.0
 40
1.0
 40
1.0
 10
69.4891
 20
26.2813
 30
0.0
 10
66.1807
 20
18.3902
 30
0.0
 10
59.0731
 20
14.4625
 30
0.0
 10
52.8251
 20
15.9941
 30
0.0
 10
52.8251
 20
15.9941
 30
0.0
 10
44.8071
 20
16.6658
 30
0.0
 10
39.9512
 20
26.1322
 30
0.0
 10
43.6323
 20
29.9753
 30
0.0
 10
43.6323
 20
29.9753
 30
0.0
 10
48.0396
 20
34.0363
 30
0.0
 10
51.8201
 20
27.7005
 30
0.0
 10
48.9628
 20
24.6751
 30
0.0
 10
48.9628
 20
24.6751
 30
0.0
 10
47.2283
 20
22.9406
 30
0.0
 10
47.3935
 20
22.391
 30
0.0
 10
49.898
 20
21.5644
 30
0.0
 10
49.898
 20
21.5644
 30
0.0
 10
60.4397
 20
19.8546
 30
0.0
 10
63.2044
 20
29.408
 30
0.0
 10
61.9022
 20
35.8998
 30
0.0
 10
61.9022
 20
35.8998
 30
0.0
 10
64.1203
 20
31.7603
 30
0.0
 10
66.7564
 20
29.0201
 30
0.0
 10
69.4894
 20
26.2815
 30
0.0
 10
69.4894
 20
26.2815
 30
0.0
 10
69.4894
 20
26.2815
 30
0.0
 10
69.4891
 20
26.2813
 30
0.0
 10
69.4891
 20
26.2813
 30
0.0
  0
SPLINE
  5
59
330
1F
100
AcDbEntity
  8
layer 1
 62
     7
370
    25
100
AcDbSpline
210
0.0
220
0.0
230
1.0
 70
    11
 71
     3
 72
    20
 73
    16
 74
     0
 42
0.0000000001
 43
0.0000000001
 12
1.0
 22
0.0
 32
0.0
 13
1.0
 23
0.0
 33
0.0
 40
0.0
 40
0.0
 40
0.0
 40
0.0
 40
0.2
 40
0.2
 40
0.2
 40
0.2
 40
0.4
 40
0.4
 40
0.4
 40
0.4
 40
0.6
 40
0.6
 40
0.6
 40
0.6
 40
1.0
 40
1.0
 40
1.0
 40
1.0
 10
189.2448
 20
61.0316
 30
0.0
 10
186.8508
 20
64.9953
 30
0.0
 10
178.4051
 20
67.2364
 30
0.0
 10
173.9826
 20
63.261
 30
0.0
 10
173.9826
 20
63.261
 30
0.0
 10
173.9826
 20
63.261
 30
0.0
 10
173.9826
 20
69.995
 30
0.0
 10
173.9826
 20
69.995
 30
0.0
 10
173.9826
 20
69.995
 30
0.0
 10
178.4051
 20
66.0196
 30
0.0
 10
186.8508
 20
68.2607
 30
0.0
 10
189.2448
 20
72.2244
 30
0.0
 10
189.2448
 20
72.2244
 30
0.0
 10
189.2448
 20
72.2244
 30
0.0
 10
189.2448
 20
61.0316
 30
0.0
 10
189.2448
 20
61.0316
 30
0.0
  0
SPLINE
  5
5A
330
1F
100
AcDbEntity
  8
layer 1
 62
     7
370
    25
100
AcDbSpline
210
0.0
220
0.0
230
1.0
 70
    11
 71
     3
 72
    56
 73
    52
 74
     0
 42
0.0000000001
 43
0.0000000001
 12
1.0
 22
0.0
 32
0.0
 13
1.0
 23
0.0
 33
0.0
 40
0.0
 40
0.0
 40
0.0
 40
0.0
 40
0.0714285714285714
 40
0.0714285714285714
 40
0.0714285714285714
 40
0.0714285714285714
 40
0.1428571428571428
 40
0.1428571428571428
 40
0.1428571428571428
 40
0.1428571428571428
 40
0.2142857142857143
 40
0.2142857142857143
 40
0.2142857142857143
 40
0.2142857142857143
 40
0.2857142857142857
 40
0.2857142857142857
 40
0.2857142857142857
 40
0.2857142857142857
 40
0.3571428571428572
 40
0.3571428571428572
 40
0.3571428571428572
 40
0.3571428571428572
 40
0.4285714285714285
 40
0.4285714285714285
 40
0.4285714285714285
 40
0.4285714285714285
 40
0.5
 40
0.5
 40
0.5
 40
0.5
 40
0.5714285714285714
 40
0.5714285714285714
 40
0.5714285714285714
 40
0.5714285714285714
 40
0.6428571428571429
 40
0.6428571428571429
 40
0.6428571428571429
 40
0.6428571428571429
 40
0.7142857142857143
 40
0.7142857142857143
 40
0.7142857142857143
 40
0.7142857142857143
 40
0.7857142857142857
 40
0.7857142857142857
 40
0.7857142857142857
 40
0.7857142857142857
 40
0.8571428571428571
 40
0.8571428571428571
 40
0.8571428571428571
 40
0.8571428571428571
 40
1.0
 40
1.0
 40
1.0
 40
1.0
 10
118.8935
 20
51.695
 30
0.0
 10
122.4998
 20
52.4129
 30
0.0
 10
124.5526
 20
56.0865
 30
0.0
 10
121.5841
 20
56.5099
 30
0.0
 10
121.5841
 20
56.5099
 30
0.0
 10
119.9845
 20
56.7382
 30
0.0
 10
119.4128
 20
58.5218
 30
0.0
 10
120.514
 20
59.8487
 30
0.0
 10
120.514
 20
59.8487
 30
0.0
 10
123.0821
 20
62.4624
 30
0.0
 10
131.5981
 20
59.6928
 30
0.0
 10
134.2972
 20
54.6456
 30
0.0
 10
134.2972
 20
54.6456
 30
0.0
 10
125.7629
 20
53.8082
 30
0.0
 10
116.0639
 20
50.3944
 30
0.0
 10
114.9639
 20
40.83
 30
0.0
 10
114.9639
 20
40.83
 30
0.0
 10
114.6522
 20
37.572
 30
0.0
 10
114.0863
 20
36.3402
 30
0.0
 10
113.0275
 20
36.2675
 30
0.0
 10
113.0275
 20
36.2675
 30
0.0
 10
111.9686
 20
36.3402
 30
0.0
 10
111.4027
 20
37.572
 30
0.0
 10
111.091
 20
40.83
 30
0.0
 10
111.091
 20
40.83
 30
0.0
 10
109.991
 20
50.3944
 30
0.0
 10
100.2923
 20
53.8082
 30
0.0
 10
91.7577
 20
54.6456
 30
0.0
 10
91.7577
 20
54.6456
 30
0.0
 10
94.4568
 20
59.6928
 30
0.0
 10
102.9726
 20
62.4624
 30
0.0
 10
105.541
 20
59.8487
 30
0.0
 10
105.541
 20
59.8487
 30
0.0
 10
106.6421
 20
58.5218
 30
0.0
 10
106.0704
 20
56.7382
 30
0.0
 10
104.4708
 20
56.5099
 30
0.0
 10
104.4708
 20
56.5099
 30
0.0
 10
101.5025
 20
56.0865
 30
0.0
 10
103.5554
 20
52.4129
 30
0.0
 10
107.1614
 20
51.695
 30
0.0
 10
107.1614
 20
51.695
 30
0.0
 10
109.8796
 20
51.5915
 30
0.0
 10
111.5485
 20
52.3499
 30
0.0
 10
113.0272
 20
54.2767
 30
0.0
 10
113.0272
 20
54.2767
 30
0.0
 10
114.506
 20
52.3499
 30
0.0
 10
116.1749
 20
51.5918
 30
0.0
 10
118.893
 20
51.695
 30
0.0
 10
118.893
 20
51.695
 30
0.0
 10
118.893
 20
51.695
 30
0.0
 10
118.8935
 20
51.695
 30
0.0
 10
118.8935
 20
51.695
 30
0.0
  0
SPLINE
  5
5B
330
1F
100
AcDbEntity
  8
layer 1
 62
     7
370
    25
100
AcDbSpline
210
0.0
220
0.0
230
1.0
 70
    11
 71
     3
 72
    28
 73
    24
 74
     0
 42
0.0000000001
 43
0.0000000001
 12
1.0
 22
0.0
 32
0.0
 13
1.0
 23
0.0
 33
0.0
 40
0.0
 40
0.0
 40
0.0
 40
0.0
 40
0.1428571428571428
 40
0.1428571428571428
 40
0.1428571428571428
 40
0.1428571428571428
 40
0.2857142857142857
 40
0.2857142857142857
 40
0.2857142857142857
 40
0.2857142857142857
 40
0.4285714285714285
 40
0.4285714285714285
 40
0.4285714285714285
 40
0.4285714285714285
 40
0.5714285714285714
 40
0.5714285714285714
 40
0.5714285714285714
 40
0.5714285714285714
 40
0.7142857142857143
 40
0.7142857142857143
 40
0.7142857142857143
 40
0.7142857142857143
 40
1.0
 40
1.0
 40
1.0
 40
1.0
 10
178.9799
 20
56.7342
 30
0.0
 10
177.8705
 20
55.3972
 30
0.0
 10
177.9357
 20
52.7019
 30
0.0
 10
181.8612
 20
47.3103
 30
0.0
 10
181.8612
 20
47.3103
 30
0.0
 10
184.5516
 20
43.3746
 30
0.0
 10
187.3224
 20
38.8832
 30
0.0
 10
189.2448
 20
33.9342
 30
0.0
 10
189.2448
 20
33.9342
 30
0.0
 10
188.879
 20
41.0347
 30
0.0
 10
189.2368
 20
48.1373
 30
0.0
 10
189.2448
 20
55.2437
 30
0.0
 10
189.2448
 20
55.2437
 30
0.0
 10
187.9905
 20
53.2038
 30
0.0
 10
185.6605
 20
52.2745
 30
0.0
 10
183.7845
 20
52.3927
 30
0.0
 10
183.7845
 20
52.3927
 30
0.0
 10
182.6728
 20
52.6109
 30
0.0
 10
182.0867
 20
52.8312
 30
0.0
 10
182.4351
 20
54.2191
 30
0.0
 10
182.4351
 20
54.2191
 30
0.0
 10
183.5299
 20
56.937
 30
0.0
 10
180.4688
 20
58.3956
 30
0.0
 10
178.9799
 20
56.7342
 30
0.0
  0
SPLINE
  5
5C
330
1F
100
AcDbEntity
  8
layer 1
 62
     7
370
    25
100
AcDbSpline
210
0.0
220
0.0
230
1.0
 70
    11
 71
     3
 72
    16
 73
    12
 74
     0
 42
0.0000000001
 43
0.0000000001
 12
1.0
 22
0.0
 32
0.0
 13
1.0
 23
0.0
 33
0.0
 40
0.0
 40
0.0
 40
0.0
 40
0.0
 40
0.25
 40
0.25
 40
0.25
 40
0.25
 40
0.5
 40
0.5
 40
0.5
 40
0.5
 40
1.0
 40
1.0
 40
1.0
 40
1.0
 10
166.3381
 20
39.2922
 30
0.0
 10
169.7709
 20
42.4462
 30
0.0
 10
172.6339
 20
42.4117
 30
0.0
 10
176.4097
 20
41.5185
 30
0.0
 10
176.4097
 20
41.5185
 30
0.0
 10
174.3531
 20
45.1777
 30
0.0
 10
172.9477
 20
46.9419
 30
0.0
 10
171.4998
 20
52.3528
 30
0.0
 10
171.4998
 20
52.3528
 30
0.0
 10
170.8401
 20
47.5651
 30
0.0
 10
168.4523
 20
42.2144
 30
0.0
 10
166.3381
 20
39.2922
 30
0.0
  0
SPLINE
  5
5D
330
1F
100
AcDbEntity
  8
layer 1
 62
     7
370
    25
100
AcDbSpline
210
0.0
220
0.0
230
1.0
 70
    11
 71
     3
 72
    20
 73
    16
 74
     0
 42
0.0000000001
 43
0.0000000001
 12
1.0
 22
0.0
 32
0.0
 13
1.0
 23
0.0
 33
0.0
 40
0.0
 40
0.0
 40
0.0
 40
0.0
 40
0.2
 40
0.2
 40
0.2
 40
0.2
 40
0.4
 40
0.4
 40
0.4
 40
0.4
 40
0.6
 40
0.6
 40
0.6
 40
0.6
 40
1.0
 40
1.0
 40
1.0
 40
1.0
 10
148.505
 20
46.3548
 30
0.0
 10
151.1011
 20
41.7849
 30
0.0
 10
152.3927
 20
38.7374
 30
0.0
 10
154.3261
 20
33.8416
 30
0.0
 10
154.3261
 20
33.8416
 30
0.0
 10
157.9756
 20
38.0298
 30
0.0
 10
160.5485
 20
42.1084
 30
0.0
 10
163.1484
 20
47.9342
 30
0.0
 10
163.1484
 20
47.9342
 30
0.0
 10
158.021
 20
46.25
 30
0.0
 10
154.7072
 20
45.9364
 30
0.0
 10
148.5052
 20
46.3548
 30
0.0
 10
148.5052
 20
46.3548
 30
0.0
 10
148.5052
 20
46.3548
 30
0.0
 10
148.505
 20
46.3548
 30
0.0
 10
148.505
 20
46.3548
 30
0.0
  0
SPLINE
  5
5E
330
1F
100
AcDbEntity
  8
layer 1
 62
     7
370
    25
100
AcDbSpline
210
0.0
220
0.0
230
1.0
 70
    11
 71
     3
 72
    32
 73
    28
 74
     0
 42
0.0000000001
 43
0.0000000001
 12
1.0
 22
0.0
 32
0.0
 13
1.0
 23
0.0
 33
0.0
 40
0.0
 40
0.0
 40
0.0
 40
0.0
 40
0.125
 40
0.125
 40
0.125
 40
0.125
 40
0.25
 40
0.25
 40
0.25
 40
0.25
 40
0.375
 40
0.375
 40
0.375
 40
0.375
 40
0.5
 40
0.5
 40
0.5
 40
0.5
 40
0.625
 40
0.625
 40
0.625
 40
0.625
 40
0.75
 40
0.75
 40
0.75
 40
0.75
 40
1.0
 40
1.0
 40
1.0
 40
1.0
 10
156.5663
 20
26.2813
 30
0.0
 10
159.8747
 20
18.3902
 30
0.0
 10
166.9823
 20
14.4625
 30
0.0
 10
173.2303
 20
15.9941
 30
0.0
 10
173.2303
 20
15.9941
 30
0.0
 10
181.2483
 20
16.6658
 30
0.0
 10
186.1042
 20
26.1322
 30
0.0
 10
182.4231
 20
29.9753
 30
0.0
 10
182.4231
 20
29.9753
 30
0.0
 10
178.0158
 20
34.0363
 30
0.0
 10
174.2353
 20
27.7005
 30
0.0
 10
177.0926
 20
24.6751
 30
0.0
 10
177.0926
 20
24.6751
 30
0.0
 10
178.8271
 20
22.9406
 30
0.0
 10
178.6619
 20
22.391
 30
0.0
 10
176.1574
 20
21.5644
 30
0.0
 10
176.1574
 20
21.5644
 30
0.0
 10
165.6157
 20
19.8546
 30
0.0
 10
162.851
 20
29.408
 30
0.0
 10
164.1532
 20
35.8998
 30
0.0
 10
164.1532
 20
35.8998
 30
0.0
 10
161.9351
 20
31.7603
 30
0.0
 10
159.299
 20
29.0201
 30
0.0
 10
156.566
 20
26.2815
 30
0.0
 10
156.566
 20
26.2815
 30
0.0
 10
156.566
 20
26.2815
 30
0.0
 10
156.5663
 20
26.2813
 30
0.0
 10
156.5663
 20
26.2813
 30
0.0
  0
SPLINE
  5
5F
330
1F
100
AcDbEntity
  8
layer 1
100
AcDbSpline
210
0.0
220
0.0
230
1.0
 70
    11
 71
     3
 72
   104
 73
   100
 74
     0
 42
0.0000000001
 43
0.0000000001
 12
1.0
 22
0.0
 32
0.0
 13
1.0
 23
0.0
 33
0.0
 40
0.0
 40
0.0
 40
0.0
 40
0.0
 40
0.0384615384615385
 40
0.0384615384615385
 40
0.0384615384615385
 40
0.0384615384615385
 40
0.0769230769230769
 40
0.0769230769230769
 40
0.0769230769230769
 40
0.0769230769230769
 40
0.1153846153846154
 40
0.1153846153846154
 40
0.1153846153846154
 40
0.1153846153846154
 40
0.1538461538461539
 40
0.1538461538461539
 40
0.1538461538461539
 40
0.1538461538461539
 40
0.1923076923076923
 40
0.1923076923076923
 40
0.1923076923076923
 40
0.1923076923076923
 40
0.2307692307692308
 40
0.2307692307692308
 40
0.2307692307692308
 40
0.2307692307692308
 40
0.2692307692307692
 40
0.2692307692307692
 40
0.2692307692307692
 40
0.2692307692307692
 40
0.3076923076923077
 40
0.3076923076923077
 40
0.3076923076923077
 40
0.3076923076923077
 40
0.3461538461538461
 40
0.3461538461538461
 40
0.3461538461538461
 40
0.3461538461538461
 40
0.3846153846153846
 40
0.3846153846153846
 40
0.3846153846153846
 40
0.3846153846153846
 40
0.4230769230769231
 40
0.4230769230769231
 40
0.4230769230769231
 40
0.4230769230769231
 40
0.4615384615384616
 40
0.4615384615384616
 40
0.4615384615384616
 40
0.4615384615384616
 40
0.5
 40
0.5
 40
0.5
 40
0.5
 40
0.5384615384615384
 40
0.5384615384615384
 40
0.5384615384615384
 40
0.5384615384615384
 40
0.5769230769230769
 40
0.5769230769230769
 40
0.5769230769230769
 40
0.5769230769230769
 40
0.6153846153846154
 40
0.6153846153846154
 40
0.6153846153846154
 40
0.6153846153846154
 40
0.6538461538461539
 40
0.6538461538461539
 40
0.6538461538461539
 40
0.6538461538461539
 40
0.6923076923076923
 40
0.6923076923076923
 40
0.6923076923076923
 40
0.6923076923076923
 40
0.7307692307692307
 40
0.7307692307692307
 40
0.7307692307692307
 40
0.7307692307692307
 40
0.7692307692307693
 40
0.7692307692307693
 40
0.7692307692307693
 40
0.7692307692307693
 40
0.8076923076923077
 40
0.8076923076923077
 40
0.8076923076923077
 40
0.8076923076923077
 40
0.8461538461538461
 40
0.8461538461538461
 40
0.8461538461538461
 40
0.8461538461538461
 40
0.8846153846153846
 40
0.8846153846153846
 40
0.8846153846153846
 40
0.8846153846153846
 40
0.9230769230769231
 40
0.9230769230769231
 40
0.9230769230769231
 40
0.9230769230769231
 40
1.0
 40
1.0
 40
1.0
 40
1.0
 10
108.7245
 20
-107.1874
 30
0.0
 10
104.6672
 20
-110.3712
 30
0.0
 10
101.1573
 20
-105.0211
 30
0.0
 10
103.4497
 20
-99.9338
 30
0.0
 10
103.4497
 20
-99.9338
 30
0.0
 10
97.7963
 20
-98.6807
 30
0.0
 10
98.8071
 20
-92.1152
 30
0.0
 10
104.4846
 20
-87.819
 30
0.0
 10
104.4846
 20
-87.819
 30
0.0
 10
97.7107
 20
-87.5386
 30
0.0
 10
92.7879
 20
-81.7416
 30
0.0
 10
95.2071
 20
-74.3575
 30
0.0
 10
95.2071
 20
-74.3575
 30
0.0
 10
91.8759
 20
-73.0777
 30
0.0
 10
86.9654
 20
-68.8718
 30
0.0
 10
85.4548
 20
-67.157
 30
0.0
 10
85.4548
 20
-67.157
 30
0.0
 10
83.3021
 20
-74.5405
 30
0.0
 10
73.6834
 20
-77.6643
 30
0.0
 10
70.7819
 20
-68.0625
 30
0.0
 10
70.7819
 20
-68.0625
 30
0.0
 10
69.9141
 20
-70.3695
 30
0.0
 10
58.0695
 20
-76.2246
 30
0.0
 10
58.2608
 20
-67.8009
 30
0.0
 10
58.2608
 20
-67.8009
 30
0.0
 10
51.4342
 20
-71.6644
 30
0.0
 10
44.8558
 20
-67.7444
 30
0.0
 10
46.1608
 20
-62.3842
 30
0.0
 10
46.1608
 20
-62.3842
 30
0.0
 10
37.8729
 20
-65.4789
 30
0.0
 10
37.593
 20
-55.9783
 30
0.0
 10
37.5675
 20
-54.3489
 30
0.0
 10
37.5675
 20
-54.3489
 30
0.0
 10
37.2317
 20
-54.5443
 30
0.0
 10
36.805
 20
-54.7927
 30
0.0
 10
36.3434
 20
-55.0614
 30
0.0
 10
36.3434
 20
-55.0614
 30
0.0
 10
36.3434
 20
-55.0614
 30
0.0
 10
30.6895
 20
-46.6596
 30
0.0
 10
30.6895
 20
-46.6596
 30
0.0
 10
30.6895
 20
-46.6596
 30
0.0
 10
30.6895
 20
-46.6596
 30
0.0
 10
113.2521
 20
2.5793
 30
0.0
 10
113.2521
 20
2.5793
 30
0.0
 10
113.2521
 20
2.5793
 30
0.0
 10
113.2521
 20
2.5793
 30
0.0
 10
195.8146
 20
-46.6596
 30
0.0
 10
195.8146
 20
-46.6596
 30
0.0
 10
195.8146
 20
-46.6596
 30
0.0
 10
195.8146
 20
-46.6596
 30
0.0
 10
190.1607
 20
-55.0614
 30
0.0
 10
190.1607
 20
-55.0614
 30
0.0
 10
190.1607
 20
-55.0614
 30
0.0
 10
189.6992
 20
-54.7927
 30
0.0
 10
189.2723
 20
-54.5443
 30
0.0
 10
188.9366
 20
-54.3489
 30
0.0
 10
188.9366
 20
-54.3489
 30
0.0
 10
188.9111
 20
-55.9783
 30
0.0
 10
188.6312
 20
-65.4789
 30
0.0
 10
180.3433
 20
-62.3842
 30
0.0
 10
180.3433
 20
-62.3842
 30
0.0
 10
181.6485
 20
-67.7445
 30
0.0
 10
175.07
 20
-71.6644
 30
0.0
 10
168.2433
 20
-67.8009
 30
0.0
 10
168.2433
 20
-67.8009
 30
0.0
 10
168.4347
 20
-76.2246
 30
0.0
 10
156.59
 20
-70.3695
 30
0.0
 10
155.7223
 20
-68.0625
 30
0.0
 10
155.7223
 20
-68.0625
 30
0.0
 10
152.8208
 20
-77.6643
 30
0.0
 10
143.202
 20
-74.5405
 30
0.0
 10
141.0494
 20
-67.157
 30
0.0
 10
141.0494
 20
-67.157
 30
0.0
 10
139.5389
 20
-68.8718
 30
0.0
 10
134.6283
 20
-73.0777
 30
0.0
 10
131.2971
 20
-74.3575
 30
0.0
 10
131.2971
 20
-74.3575
 30
0.0
 10
133.7163
 20
-81.7416
 30
0.0
 10
128.7934
 20
-87.5386
 30
0.0
 10
122.0195
 20
-87.819
 30
0.0
 10
122.0195
 20
-87.819
 30
0.0
 10
127.6972
 20
-92.1152
 30
0.0
 10
128.7079
 20
-98.6807
 30
0.0
 10
123.0544
 20
-99.9338
 30
0.0
 10
123.0544
 20
-99.9338
 30
0.0
 10
125.3467
 20
-105.0211
 30
0.0
 10
121.8368
 20
-110.3712
 30
0.0
 10
117.7797
 20
-107.1874
 30
0.0
 10
117.7797
 20
-107.1874
 30
0.0
 10
119.1289
 20
-114.2776
 30
0.0
 10
115.5755
 20
-116.2104
 30
0.0
 10
113.2519
 20
-115.8821
 30
0.0
 10
113.2519
 20
-115.8821
 30
0.0
 10
110.9284
 20
-116.2105
 30
0.0
 10
107.3751
 20
-114.2778
 30
0.0
 10
108.7242
 20
-107.1874
 30
0.0
 10
108.7242
 20
-107.1874
 30
0.0
 10
108.7242
 20
-107.1874
 30
0.0
 10
108.7245
 20
-107.1874
 30
0.0
 10
108.7245
 20
-107.1874
 30
0.0
  0
SPLINE
  5
60
330
1F
100
AcDbEntity
  8
layer 1
 62
     7
100
AcDbSpline
210
0.0
220
0.0
230
1.0
 70
    11
 71
     3
 72
    32
 73
    28
 74
     0
 42
0.0000000001
 43
0.0000000001
 12
1.0
 22
0.0
 32
0.0
 13
1.0
 23
0.0
 33
0.0
 40
0.0
 40
0.0
 40
0.0
 40
0.0
 40
0.125
 40
0.125
 40
0.125
 40
0.125
 40
0.25
 40
0.25
 40
0.25
 40
0.25
 40
0.375
 40
0.375
 40
0.375
 40
0.375
 40
0.5
 40
0.5
 40
0.5
 40
0.5
 40
0.625
 40
0.625
 40
0.625
 40
0.625
 40
0.75
 40
0.75
 40
0.75
 40
0.75
 40
1.0
 40
1.0
 40
1.0
 40
1.0
 10
104.9797
 20
-67.8057
 30
0.0
 10
105.1145
 20
-67.7453
 30
0.0
 10
105.4174
 20
-67.4995
 30
0.0
 10
105.5473
 20
-67.8356
 30
0.0
 10
105.5473
 20
-67.8356
 30
0.0
 10
106.3246
 20
-74.4034
 30
0.0
 10
108.1894
 20
-78.1552
 30
0.0
 10
110.6016
 20
-81.4411
 30
0.0
 10
110.6016
 20
-81.4411
 30
0.0
 10
110.7412
 20
-81.6066
 30
0.0
 10
110.7735
 20
-81.8092
 30
0.0
 10
110.6987
 20
-81.9202
 30
0.0
 10
110.6987
 20
-81.9202
 30
0.0
 10
109.6096
 20
-84.3803
 30
0.0
 10
105.2761
 20
-85.1062
 30
0.0
 10
103.0364
 20
-83.1347
 30
0.0
 10
103.0364
 20
-83.1347
 30
0.0
 10
107.9982
 20
-82.5816
 30
0.0
 10
107.1701
 20
-74.3749
 30
0.0
 10
101.0428
 20
-76.058
 30
0.0
 10
101.0428
 20
-76.058
 30
0.0
 10
101.106
 20
-72.667
 30
0.0
 10
103.1503
 20
-69.4771
 30
0.0
 10
104.9796
 20
-67.8057
 30
0.0
 10
104.9796
 20
-67.8057
 30
0.0
 10
104.9796
 20
-67.8057
 30
0.0
 10
104.9797
 20
-67.8057
 30
0.0
 10
104.9797
 20
-67.8057
 30
0.0
  0
SPLINE
  5
61
330
1F
100
AcDbEntity
  8
layer 1
 62
     7
100
AcDbSpline
210
0.0
220
0.0
230
1.0
 70
    11
 71
     3
 72
    32
 73
    28
 74
     0
 42
0.0000000001
 43
0.0000000001
 12
1.0
 22
0.0
 32
0.0
 13
1.0
 23
0.0
 33
0.0
 40
0.0
 40
0.0
 40
0.0
 40
0.0
 40
0.125
 40
0.125
 40
0.125
 40
0.125
 40
0.25
 40
0.25
 40
0.25
 40
0.25
 40
0.375
 40
0.375
 40
0.375
 40
0.375
 40
0.5
 40
0.5
 40
0.5
 40
0.5
 40
0.625
 40
0.625
 40
0.625
 40
0.625
 40
0.75
 40
0.75
 40
0.75
 40
0.75
 40
1.0
 40
1.0
 40
1.0
 40
1.0
 10
99.4139
 20
-66.9287
 30
0.0
 10
99.7283
 20
-66.7105
 30
0.0
 10
100.0623
 20
-66.9813
 30
0.0
 10
99.9206
 20
-67.1537
 30
0.0
 10
99.9206
 20
-67.1537
 30
0.0
 10
99.1978
 20
-67.9531
 30
0.0
 10
97.7532
 20
-70.5366
 30
0.0
 10
96.9582
 20
-71.7006
 30
0.0
 10
96.9582
 20
-71.7006
 30
0.0
 10
96.7321
 20
-72.049
 30
0.0
 10
96.4472
 20
-72.0809
 30
0.0
 10
96.1406
 20
-71.948
 30
0.0
 10
96.1406
 20
-71.948
 30
0.0
 10
94.9174
 20
-71.4568
 30
0.0
 10
93.9262
 20
-70.8105
 30
0.0
 10
92.2719
 20
-69.2049
 30
0.0
 10
92.2719
 20
-69.2049
 30
0.0
 10
91.9775
 20
-68.9201
 30
0.0
 10
91.9344
 20
-68.3296
 30
0.0
 10
92.5756
 20
-68.4151
 30
0.0
 10
92.5756
 20
-68.4151
 30
0.0
 10
93.7486
 20
-68.4876
 30
0.0
 10
97.6335
 20
-68.0148
 30
0.0
 10
99.414
 20
-66.9288
 30
0.0
 10
99.414
 20
-66.9288
 30
0.0
 10
99.414
 20
-66.9288
 30
0.0
 10
99.4139
 20
-66.9287
 30
0.0
 10
99.4139
 20
-66.9287
 30
0.0
  0
SPLINE
  5
62
330
1F
100
AcDbEntity
  8
layer 1
 62
     7
100
AcDbSpline
210
0.0
220
0.0
230
1.0
 70
    11
 71
     3
 72
    32
 73
    28
 74
     0
 42
0.0000000001
 43
0.0000000001
 12
1.0
 22
0.0
 32
0.0
 13
1.0
 23
0.0
 33
0.0
 40
0.0
 40
0.0
 40
0.0
 40
0.0
 40
0.125
 40
0.125
 40
0.125
 40
0.125
 40
0.25
 40
0.25
 40
0.25
 40
0.25
 40
0.375
 40
0.375
 40
0.375
 40
0.375
 40
0.5
 40
0.5
 40
0.5
 40
0.5
 40
0.625
 40
0.625
 40
0.625
 40
0.625
 40
0.75
 40
0.75
 40
0.75
 40
0.75
 40
1.0
 40
1.0
 40
1.0
 40
1.0
 10
82.2026
 20
-52.8076
 30
0.0
 10
82.517
 20
-52.4996
 30
0.0
 10
82.9183
 20
-52.7929
 30
0.0
 10
82.6868
 20
-53.1894
 30
0.0
 10
82.6868
 20
-53.1894
 30
0.0
 10
81.695
 20
-56.2082
 30
0.0
 10
82.0215
 20
-59.2849
 30
0.0
 10
82.2801
 20
-60.4488
 30
0.0
 10
82.2801
 20
-60.4488
 30
0.0
 10
82.4126
 20
-61.3129
 30
0.0
 10
81.7466
 20
-61.2102
 30
0.0
 10
81.44
 20
-61.0774
 30
0.0
 10
81.44
 20
-61.0774
 30
0.0
 10
80.3513
 20
-60.3395
 30
0.0
 10
79.3825
 20
-59.8951
 30
0.0
 10
78.5352
 20
-59.343
 30
0.0
 10
78.5352
 20
-59.343
 30
0.0
 10
78.0838
 20
-59.0806
 30
0.0
 10
78.0856
 20
-58.4453
 30
0.0
 10
78.4354
 20
-58.06
 30
0.0
 10
78.4354
 20
-58.06
 30
0.0
 10
79.6531
 20
-56.3167
 30
0.0
 10
81.1619
 20
-53.8263
 30
0.0
 10
82.2026
 20
-52.8077
 30
0.0
 10
82.2026
 20
-52.8077
 30
0.0
 10
82.2026
 20
-52.8077
 30
0.0
 10
82.2026
 20
-52.8076
 30
0.0
 10
82.2026
 20
-52.8076
 30
0.0
  0
SPLINE
  5
63
330
1F
100
AcDbEntity
  8
layer 1
 62
     7
100
AcDbSpline
210
0.0
220
0.0
230
1.0
 70
    11
 71
     3
 72
    32
 73
    28
 74
     0
 42
0.0000000001
 43
0.0000000001
 12
1.0
 22
0.0
 32
0.0
 13
1.0
 23
0.0
 33
0.0
 40
0.0
 40
0.0
 40
0.0
 40
0.0
 40
0.125
 40
0.125
 40
0.125
 40
0.125
 40
0.25
 40
0.25
 40
0.25
 40
0.25
 40
0.375
 40
0.375
 40
0.375
 40
0.375
 40
0.5
 40
0.5
 40
0.5
 40
0.5
 40
0.625
 40
0.625
 40
0.625
 40
0.625
 40
0.75
 40
0.75
 40
0.75
 40
0.75
 40
1.0
 40
1.0
 40
1.0
 40
1.0
 10
62.5772
 20
-54.325
 30
0.0
 10
62.8916
 20
-54.1069
 30
0.0
 10
63.3739
 20
-54.108
 30
0.0
 10
63.7715
 20
-54.3613
 30
0.0
 10
63.7715
 20
-54.3613
 30
0.0
 10
64.5451
 20
-54.9585
 30
0.0
 10
64.6374
 20
-55.0615
 30
0.0
 10
65.8241
 20
-55.9018
 30
0.0
 10
65.8241
 20
-55.9018
 30
0.0
 10
65.0046
 20
-56.5064
 30
0.0
 10
62.3876
 20
-58.3312
 30
0.0
 10
61.326
 20
-58.9128
 30
0.0
 10
61.326
 20
-58.9128
 30
0.0
 10
60.2376
 20
-59.3787
 30
0.0
 10
58.3567
 20
-59.4471
 30
0.0
 10
57.2687
 20
-58.4615
 30
0.0
 10
57.2687
 20
-58.4615
 30
0.0
 10
56.7856
 20
-58.0553
 30
0.0
 10
56.8503
 20
-57.6535
 30
0.0
 10
57.3162
 20
-57.4155
 30
0.0
 10
57.3162
 20
-57.4155
 30
0.0
 10
58.7453
 20
-56.504
 30
0.0
 10
60.7968
 20
-55.411
 30
0.0
 10
62.5773
 20
-54.325
 30
0.0
 10
62.5773
 20
-54.325
 30
0.0
 10
62.5773
 20
-54.325
 30
0.0
 10
62.5772
 20
-54.325
 30
0.0
 10
62.5772
 20
-54.325
 30
0.0
  0
SPLINE
  5
64
330
1F
100
AcDbEntity
  8
layer 1
 62
     7
100
AcDbSpline
210
0.0
220
0.0
230
1.0
 70
    11
 71
     3
 72
    32
 73
    28
 74
     0
 42
0.0000000001
 43
0.0000000001
 12
1.0
 22
0.0
 32
0.0
 13
1.0
 23
0.0
 33
0.0
 40
0.0
 40
0.0
 40
0.0
 40
0.0
 40
0.125
 40
0.125
 40
0.125
 40
0.125
 40
0.25
 40
0.25
 40
0.25
 40
0.25
 40
0.375
 40
0.375
 40
0.375
 40
0.375
 40
0.5
 40
0.5
 40
0.5
 40
0.5
 40
0.625
 40
0.625
 40
0.625
 40
0.625
 40
0.75
 40
0.75
 40
0.75
 40
0.75
 40
1.0
 40
1.0
 40
1.0
 40
1.0
 10
81.5927
 20
-28.7257
 30
0.0
 10
82.0763
 20
-28.4442
 30
0.0
 10
82.6489
 20
-28.5162
 30
0.0
 10
82.4248
 20
-29.0372
 30
0.0
 10
82.4248
 20
-29.0372
 30
0.0
 10
80.3982
 20
-30.7586
 30
0.0
 10
80.5081
 20
-33.4081
 30
0.0
 10
81.9808
 20
-34.8412
 30
0.0
 10
81.9808
 20
-34.8412
 30
0.0
 10
80.4665
 20
-34.4034
 30
0.0
 10
77.829
 20
-32.8351
 30
0.0
 10
73.8241
 20
-34.5001
 30
0.0
 10
73.8241
 20
-34.5001
 30
0.0
 10
72.7357
 20
-34.966
 30
0.0
 10
72.3469
 20
-34.8504
 30
0.0
 10
69.0717
 20
-36.8285
 30
0.0
 10
69.0717
 20
-36.8285
 30
0.0
 10
68.3638
 20
-37.2194
 30
0.0
 10
68.2437
 20
-36.4618
 30
0.0
 10
68.7096
 20
-36.2238
 30
0.0
 10
68.7096
 20
-36.2238
 30
0.0
 10
70.1388
 20
-35.3123
 30
0.0
 10
79.8122
 20
-29.8116
 30
0.0
 10
81.5926
 20
-28.7257
 30
0.0
 10
81.5926
 20
-28.7257
 30
0.0
 10
81.5926
 20
-28.7257
 30
0.0
 10
81.5927
 20
-28.7257
 30
0.0
 10
81.5927
 20
-28.7257
 30
0.0
  0
SPLINE
  5
65
330
1F
100
AcDbEntity
  8
layer 1
 62
     7
100
AcDbSpline
210
0.0
220
0.0
230
1.0
 70
    11
 71
     3
 72
    28
 73
    24
 74
     0
 42
0.0000000001
 43
0.0000000001
 12
1.0
 22
0.0
 32
0.0
 13
1.0
 23
0.0
 33
0.0
 40
0.0
 40
0.0
 40
0.0
 40
0.0
 40
0.1428571428571428
 40
0.1428571428571428
 40
0.1428571428571428
 40
0.1428571428571428
 40
0.2857142857142857
 40
0.2857142857142857
 40
0.2857142857142857
 40
0.2857142857142857
 40
0.4285714285714285
 40
0.4285714285714285
 40
0.4285714285714285
 40
0.4285714285714285
 40
0.5714285714285714
 40
0.5714285714285714
 40
0.5714285714285714
 40
0.5714285714285714
 40
0.7142857142857143
 40
0.7142857142857143
 40
0.7142857142857143
 40
0.7142857142857143
 40
1.0
 40
1.0
 40
1.0
 40
1.0
 10
59.3649
 20
-41.6628
 30
0.0
 10
59.8485
 20
-41.3812
 30
0.0
 10
60.4211
 20
-41.4533
 30
0.0
 10
60.1969
 20
-41.9742
 30
0.0
 10
60.1969
 20
-41.9742
 30
0.0
 10
59.5003
 20
-43.3376
 30
0.0
 10
60.2239
 20
-44.947
 30
0.0
 10
61.2706
 20
-45.6981
 30
0.0
 10
61.2706
 20
-45.6981
 30
0.0
 10
60.6599
 20
-46.0958
 30
0.0
 10
59.557
 20
-47.0852
 30
0.0
 10
57.3936
 20
-45.681
 30
0.0
 10
57.3936
 20
-45.681
 30
0.0
 10
56.4585
 20
-44.9861
 30
0.0
 10
55.8458
 20
-44.4421
 30
0.0
 10
55.4039
 20
-43.9682
 30
0.0
 10
55.4039
 20
-43.9682
 30
0.0
 10
56.833
 20
-43.0567
 30
0.0
 10
57.5843
 20
-42.7488
 30
0.0
 10
59.3649
 20
-41.6629
 30
0.0
 10
59.3649
 20
-41.6629
 30
0.0
 10
59.3649
 20
-41.6629
 30
0.0
 10
59.3649
 20
-41.6628
 30
0.0
 10
59.3649
 20
-41.6628
 30
0.0
  0
SPLINE
  5
66
330
1F
100
AcDbEntity
  8
layer 1
 62
     7
100
AcDbSpline
210
0.0
220
0.0
230
1.0
 70
    11
 71
     3
 72
    36
 73
    32
 74
     0
 42
0.0000000001
 43
0.0000000001
 12
1.0
 22
0.0
 32
0.0
 13
1.0
 23
0.0
 33
0.0
 40
0.0
 40
0.0
 40
0.0
 40
0.0
 40
0.1111111111111111
 40
0.1111111111111111
 40
0.1111111111111111
 40
0.1111111111111111
 40
0.2222222222222222
 40
0.2222222222222222
 40
0.2222222222222222
 40
0.2222222222222222
 40
0.3333333333333333
 40
0.3333333333333333
 40
0.3333333333333333
 40
0.3333333333333333
 40
0.4444444444444444
 40
0.4444444444444444
 40
0.4444444444444444
 40
0.4444444444444444
 40
0.5555555555555556
 40
0.5555555555555556
 40
0.5555555555555556
 40
0.5555555555555556
 40
0.6666666666666666
 40
0.6666666666666666
 40
0.6666666666666666
 40
0.6666666666666666
 40
0.7777777777777778
 40
0.7777777777777778
 40
0.7777777777777778
 40
0.7777777777777778
 40
1.0
 40
1.0
 40
1.0
 40
1.0
 10
49.8851
 20
-47.18
 30
0.0
 10
50.1625
 20
-47.58
 30
0.0
 10
50.6898
 20
-47.8359
 30
0.0
 10
51.5678
 20
-48.1582
 30
0.0
 10
51.5678
 20
-48.1582
 30
0.0
 10
50.2004
 20
-48.2571
 30
0.0
 10
49.4415
 20
-48.4839
 30
0.0
 10
48.8113
 20
-49.0579
 30
0.0
 10
48.8113
 20
-49.0579
 30
0.0
 10
50.2308
 20
-53.2567
 30
0.0
 10
56.216
 20
-48.3093
 30
0.0
 10
60.8697
 20
-52.376
 30
0.0
 10
60.8697
 20
-52.376
 30
0.0
 10
58.8603
 20
-53.7883
 30
0.0
 10
47.8833
 20
-59.9328
 30
0.0
 10
44.35
 20
-52.1085
 30
0.0
 10
44.35
 20
-52.1085
 30
0.0
 10
42.5048
 20
-54.748
 30
0.0
 10
44.4279
 20
-57.2482
 30
0.0
 10
45.4286
 20
-58.5014
 30
0.0
 10
45.4286
 20
-58.5014
 30
0.0
 10
41.8812
 20
-58.9715
 30
0.0
 10
41.0038
 20
-54.7385
 30
0.0
 10
42.0799
 20
-51.7229
 30
0.0
 10
42.0799
 20
-51.7229
 30
0.0
 10
43.509
 20
-50.8114
 30
0.0
 10
48.1048
 20
-48.2661
 30
0.0
 10
49.8852
 20
-47.1801
 30
0.0
 10
49.8852
 20
-47.1801
 30
0.0
 10
49.8852
 20
-47.1801
 30
0.0
 10
49.8851
 20
-47.18
 30
0.0
 10
49.8851
 20
-47.18
 30
0.0
  0
SPLINE
  5
67
330
1F
100
AcDbEntity
  8
layer 1
 62
     7
100
AcDbSpline
210
0.0
220
0.0
230
1.0
 70
    11
 71
     3
 72
    44
 73
    40
 74
     0
 42
0.0000000001
 43
0.0000000001
 12
1.0
 22
0.0
 32
0.0
 13
1.0
 23
0.0
 33
0.0
 40
0.0
 40
0.0
 40
0.0
 40
0.0
 40
0.0909090909090909
 40
0.0909090909090909
 40
0.0909090909090909
 40
0.0909090909090909
 40
0.1818181818181818
 40
0.1818181818181818
 40
0.1818181818181818
 40
0.1818181818181818
 40
0.2727272727272727
 40
0.2727272727272727
 40
0.2727272727272727
 40
0.2727272727272727
 40
0.3636363636363636
 40
0.3636363636363636
 40
0.3636363636363636
 40
0.3636363636363636
 40
0.4545454545454545
 40
0.4545454545454545
 40
0.4545454545454545
 40
0.4545454545454545
 40
0.5454545454545454
 40
0.5454545454545454
 40
0.5454545454545454
 40
0.5454545454545454
 40
0.6363636363636364
 40
0.6363636363636364
 40
0.6363636363636364
 40
0.6363636363636364
 40
0.7272727272727273
 40
0.7272727272727273
 40
0.7272727272727273
 40
0.7272727272727273
 40
0.8181818181818182
 40
0.8181818181818182
 40
0.8181818181818182
 40
0.8181818181818182
 40
1.0
 40
1.0
 40
1.0
 40
1.0
 10
65.1302
 20
-38.3071
 30
0.0
 10
65.8628
 20
-39.3258
 30
0.0
 10
66.8504
 20
-40.0618
 30
0.0
 10
70.3609
 20
-39.338
 30
0.0
 10
70.3609
 20
-39.338
 30
0.0
 10
70.5214
 20
-41.5448
 30
0.0
 10
72.4929
 20
-42.1295
 30
0.0
 10
73.742
 20
-41.5019
 30
0.0
 10
73.742
 20
-41.5019
 30
0.0
 10
75.0569
 20
-40.8412
 30
0.0
 10
75.6042
 20
-38.7128
 30
0.0
 10
73.747
 20
-37.6051
 30
0.0
 10
73.747
 20
-37.6051
 30
0.0
 10
76.4325
 20
-35.5961
 30
0.0
 10
81.952
 20
-37.9843
 30
0.0
 10
83.8529
 20
-38.4314
 30
0.0
 10
83.8529
 20
-38.4314
 30
0.0
 10
84.6665
 20
-38.7082
 30
0.0
 10
84.8048
 20
-39.3921
 30
0.0
 10
84.2983
 20
-39.5208
 30
0.0
 10
84.2983
 20
-39.5208
 30
0.0
 10
83.783
 20
-39.8562
 30
0.0
 10
69.6406
 20
-43.8459
 30
0.0
 10
66.1262
 20
-43.8489
 30
0.0
 10
66.1262
 20
-43.8489
 30
0.0
 10
64.8451
 20
-43.9804
 30
0.0
 10
64.2439
 20
-43.5408
 30
0.0
 10
63.8227
 20
-43.0447
 30
0.0
 10
63.8227
 20
-43.0447
 30
0.0
 10
65.3498
 20
-41.603
 30
0.0
 10
65.0665
 20
-39.7104
 30
0.0
 10
63.6287
 20
-39.181
 30
0.0
 10
63.6287
 20
-39.181
 30
0.0
 10
64.5402
 20
-38.6505
 30
0.0
 10
64.0216
 20
-38.9523
 30
0.0
 10
65.1301
 20
-38.3071
 30
0.0
 10
65.1301
 20
-38.3071
 30
0.0
 10
65.1301
 20
-38.3071
 30
0.0
 10
65.1302
 20
-38.3071
 30
0.0
 10
65.1302
 20
-38.3071
 30
0.0
  0
SPLINE
  5
68
330
1F
100
AcDbEntity
  8
layer 1
 62
     7
100
AcDbSpline
210
0.0
220
0.0
230
1.0
 70
    11
 71
     3
 72
    32
 73
    28
 74
     0
 42
0.0000000001
 43
0.0000000001
 12
1.0
 22
0.0
 32
0.0
 13
1.0
 23
0.0
 33
0.0
 40
0.0
 40
0.0
 40
0.0
 40
0.0
 40
0.125
 40
0.125
 40
0.125
 40
0.125
 40
0.25
 40
0.25
 40
0.25
 40
0.25
 40
0.375
 40
0.375
 40
0.375
 40
0.375
 40
0.5
 40
0.5
 40
0.5
 40
0.5
 40
0.625
 40
0.625
 40
0.625
 40
0.625
 40
0.75
 40
0.75
 40
0.75
 40
0.75
 40
1.0
 40
1.0
 40
1.0
 40
1.0
 10
85.8309
 20
-56.231
 30
0.0
 10
85.8752
 20
-55.2842
 30
0.0
 10
86.509
 20
-55.4741
 30
0.0
 10
86.6987
 20
-55.9211
 30
0.0
 10
86.6987
 20
-55.9211
 30
0.0
 10
87.253
 20
-57.0928
 30
0.0
 10
89.9336
 20
-62.3934
 30
0.0
 10
94.7326
 20
-59.0783
 30
0.0
 10
94.7326
 20
-59.0783
 30
0.0
 10
97.2576
 20
-57.3341
 30
0.0
 10
96.1791
 20
-51.4066
 30
0.0
 10
92.3029
 20
-52.3667
 30
0.0
 10
92.3029
 20
-52.3667
 30
0.0
 10
91.3034
 20
-52.8176
 30
0.0
 10
91.0598
 20
-51.7085
 30
0.0
 10
91.7882
 20
-51.3162
 30
0.0
 10
91.7882
 20
-51.3162
 30
0.0
 10
100.2485
 20
-46.8994
 30
0.0
 10
102.8943
 20
-58.4839
 30
0.0
 10
98.1729
 20
-62.5239
 30
0.0
 10
98.1729
 20
-62.5239
 30
0.0
 10
94.807
 20
-65.404
 30
0.0
 10
85.5981
 20
-65.0826
 30
0.0
 10
85.8309
 20
-56.2309
 30
0.0
 10
85.8309
 20
-56.2309
 30
0.0
 10
85.8309
 20
-56.2309
 30
0.0
 10
85.8309
 20
-56.231
 30
0.0
 10
85.8309
 20
-56.231
 30
0.0
  0
SPLINE
  5
69
330
1F
100
AcDbEntity
  8
layer 1
 62
     7
100
AcDbSpline
210
0.0
220
0.0
230
1.0
 70
    11
 71
     3
 72
    28
 73
    24
 74
     0
 42
0.0000000001
 43
0.0000000001
 12
1.0
 22
0.0
 32
0.0
 13
1.0
 23
0.0
 33
0.0
 40
0.0
 40
0.0
 40
0.0
 40
0.0
 40
0.1428571428571428
 40
0.1428571428571428
 40
0.1428571428571428
 40
0.1428571428571428
 40
0.2857142857142857
 40
0.2857142857142857
 40
0.2857142857142857
 40
0.2857142857142857
 40
0.4285714285714285
 40
0.4285714285714285
 40
0.4285714285714285
 40
0.4285714285714285
 40
0.5714285714285714
 40
0.5714285714285714
 40
0.5714285714285714
 40
0.5714285714285714
 40
0.7142857142857143
 40
0.7142857142857143
 40
0.7142857142857143
 40
0.7142857142857143
 40
1.0
 40
1.0
 40
1.0
 40
1.0
 10
81.0682
 20
-47.2319
 30
0.0
 10
81.3826
 20
-47.0758
 30
0.0
 10
81.8924
 20
-47.3041
 30
0.0
 10
81.6609
 20
-47.7006
 30
0.0
 10
81.6609
 20
-47.7006
 30
0.0
 10
79.1407
 20
-50.8065
 30
0.0
 10
76.7941
 20
-53.699
 30
0.0
 10
74.6015
 20
-56.5644
 30
0.0
 10
74.6015
 20
-56.5644
 30
0.0
 10
73.5128
 20
-55.8266
 30
0.0
 10
73.4117
 20
-55.8809
 30
0.0
 10
72.5643
 20
-55.3288
 30
0.0
 10
72.5643
 20
-55.3288
 30
0.0
 10
72.1129
 20
-55.0665
 30
0.0
 10
72.6787
 20
-54.5612
 30
0.0
 10
73.0284
 20
-54.1759
 30
0.0
 10
73.0284
 20
-54.1759
 30
0.0
 10
75.0921
 20
-51.9338
 30
0.0
 10
79.9842
 20
-47.8818
 30
0.0
 10
81.0682
 20
-47.2318
 30
0.0
 10
81.0682
 20
-47.2318
 30
0.0
 10
81.0682
 20
-47.2318
 30
0.0
 10
81.0682
 20
-47.2319
 30
0.0
 10
81.0682
 20
-47.2319
 30
0.0
  0
SPLINE
  5
6A
330
1F
100
AcDbEntity
  8
layer 1
 62
     7
100
AcDbSpline
210
0.0
220
0.0
230
1.0
 70
    11
 71
     3
 72
    44
 73
    40
 74
     0
 42
0.0000000001
 43
0.0000000001
 12
1.0
 22
0.0
 32
0.0
 13
1.0
 23
0.0
 33
0.0
 40
0.0
 40
0.0
 40
0.0
 40
0.0
 40
0.0909090909090909
 40
0.0909090909090909
 40
0.0909090909090909
 40
0.0909090909090909
 40
0.1818181818181818
 40
0.1818181818181818
 40
0.1818181818181818
 40
0.1818181818181818
 40
0.2727272727272727
 40
0.2727272727272727
 40
0.2727272727272727
 40
0.2727272727272727
 40
0.3636363636363636
 40
0.3636363636363636
 40
0.3636363636363636
 40
0.3636363636363636
 40
0.4545454545454545
 40
0.4545454545454545
 40
0.4545454545454545
 40
0.4545454545454545
 40
0.5454545454545454
 40
0.5454545454545454
 40
0.5454545454545454
 40
0.5454545454545454
 40
0.6363636363636364
 40
0.6363636363636364
 40
0.6363636363636364
 40
0.6363636363636364
 40
0.7272727272727273
 40
0.7272727272727273
 40
0.7272727272727273
 40
0.7272727272727273
 40
0.8181818181818182
 40
0.8181818181818182
 40
0.8181818181818182
 40
0.8181818181818182
 40
1.0
 40
1.0
 40
1.0
 40
1.0
 10
102.8324
 20
-23.444
 30
0.0
 10
102.1584
 20
-23.6514
 30
0.0
 10
101.9584
 20
-23.6175
 30
0.0
 10
101.8802
 20
-22.7699
 30
0.0
 10
101.8802
 20
-22.7699
 30
0.0
 10
101.6995
 20
-19.5431
 30
0.0
 10
109.2478
 20
-19.2267
 30
0.0
 10
108.6642
 20
-25.3325
 30
0.0
 10
108.6642
 20
-25.3325
 30
0.0
 10
108.0161
 20
-28.1568
 30
0.0
 10
106.1816
 20
-29.5351
 30
0.0
 10
102.5835
 20
-32.256
 30
0.0
 10
102.5835
 20
-32.256
 30
0.0
 10
100.9363
 20
-34.1949
 30
0.0
 10
100.4957
 20
-31.9518
 30
0.0
 10
100.3943
 20
-31.4115
 30
0.0
 10
100.3943
 20
-31.4115
 30
0.0
 10
99.5854
 20
-29.8137
 30
0.0
 10
98.4279
 20
-30.476
 30
0.0
 10
96.6663
 20
-28.2083
 30
0.0
 10
96.6663
 20
-28.2083
 30
0.0
 10
97.2627
 20
-28.0595
 30
0.0
 10
98.617
 20
-26.8051
 30
0.0
 10
98.8403
 20
-26.4441
 30
0.0
 10
98.8403
 20
-26.4441
 30
0.0
 10
99.3639
 20
-29.3743
 30
0.0
 10
101.7301
 20
-27.9433
 30
0.0
 10
101.3242
 20
-31.1778
 30
0.0
 10
101.3242
 20
-31.1778
 30
0.0
 10
102.8755
 20
-31.6669
 30
0.0
 10
103.7185
 20
-29.8579
 30
0.0
 10
103.4985
 20
-29.2008
 30
0.0
 10
103.4985
 20
-29.2008
 30
0.0
 10
105.5061
 20
-28.9297
 30
0.0
 10
107.9877
 20
-22.4326
 30
0.0
 10
102.8324
 20
-23.4437
 30
0.0
 10
102.8324
 20
-23.4437
 30
0.0
 10
102.8324
 20
-23.4437
 30
0.0
 10
102.8324
 20
-23.444
 30
0.0
 10
102.8324
 20
-23.444
 30
0.0
  0
SPLINE
  5
6B
330
1F
100
AcDbEntity
  8
layer 1
 62
     7
100
AcDbSpline
210
0.0
220
0.0
230
1.0
 70
    11
 71
     3
 72
    12
 73
     8
 74
     0
 42
0.0000000001
 43
0.0000000001
 12
1.0
 22
0.0
 32
0.0
 13
1.0
 23
0.0
 33
0.0
 40
0.0
 40
0.0
 40
0.0
 40
0.0
 40
0.3333333333333333
 40
0.3333333333333333
 40
0.3333333333333333
 40
0.3333333333333333
 40
1.0
 40
1.0
 40
1.0
 40
1.0
 10
113.2522
 20
-45.0421
 30
0.0
 10
115.1614
 20
-46.1266
 30
0.0
 10
115.1793
 20
-50.0855
 30
0.0
 10
113.2522
 20
-51.3644
 30
0.0
 10
113.2522
 20
-51.3644
 30
0.0
 10
111.3249
 20
-50.0855
 30
0.0
 10
111.343
 20
-46.1266
 30
0.0
 10
113.2522
 20
-45.0421
 30
0.0
  0
SPLINE
  5
6C
330
1F
100
AcDbEntity
  8
layer 1
 62
     7
100
AcDbSpline
210
0.0
220
0.0
230
1.0
 70
    11
 71
     3
 72
    20
 73
    16
 74
     0
 42
0.0000000001
 43
0.0000000001
 12
1.0
 22
0.0
 32
0.0
 13
1.0
 23
0.0
 33
0.0
 40
0.0
 40
0.0
 40
0.0
 40
0.0
 40
0.2
 40
0.2
 40
0.2
 40
0.2
 40
0.4
 40
0.4
 40
0.4
 40
0.4
 40
0.6
 40
0.6
 40
0.6
 40
0.6
 40
1.0
 40
1.0
 40
1.0
 40
1.0
 10
111.3073
 20
-58.7674
 30
0.0
 10
112.0508
 20
-58.1846
 30
0.0
 10
112.7442
 20
-57.3174
 30
0.0
 10
113.2522
 20
-56.6013
 30
0.0
 10
113.2522
 20
-56.6013
 30
0.0
 10
113.7602
 20
-57.3174
 30
0.0
 10
114.4536
 20
-58.1846
 30
0.0
 10
115.1971
 20
-58.7674
 30
0.0
 10
115.1971
 20
-58.7674
 30
0.0
 10
114.3553
 20
-59.3338
 30
0.0
 10
113.8915
 20
-59.8016
 30
0.0
 10
113.2522
 20
-60.7718
 30
0.0
 10
113.2522
 20
-60.7718
 30
0.0
 10
112.6131
 20
-59.8016
 30
0.0
 10
112.1492
 20
-59.3338
 30
0.0
 10
111.3073
 20
-58.7674
 30
0.0
  0
SPLINE
  5
6D
330
1F
100
AcDbEntity
  8
layer 1
 62
     7
100
AcDbSpline
210
0.0
220
0.0
230
1.0
 70
    11
 71
     3
 72
    28
 73
    24
 74
     0
 42
0.0000000001
 43
0.0000000001
 12
1.0
 22
0.0
 32
0.0
 13
1.0
 23
0.0
 33
0.0
 40
0.0
 40
0.0
 40
0.0
 40
0.0
 40
0.1428571428571428
 40
0.1428571428571428
 40
0.1428571428571428
 40
0.1428571428571428
 40
0.2857142857142857
 40
0.2857142857142857
 40
0.2857142857142857
 40
0.2857142857142857
 40
0.4285714285714285
 40
0.4285714285714285
 40
0.4285714285714285
 40
0.4285714285714285
 40
0.5714285714285714
 40
0.5714285714285714
 40
0.5714285714285714
 40
0.5714285714285714
 40
0.7142857142857143
 40
0.7142857142857143
 40
0.7142857142857143
 40
0.7142857142857143
 40
1.0
 40
1.0
 40
1.0
 40
1.0
 10
108.553
 20
-67.6853
 30
0.0
 10
108.1591
 20
-67.2219
 30
0.0
 10
108.0895
 20
-66.3339
 30
0.0
 10
108.6628
 20
-66.2018
 30
0.0
 10
108.6628
 20
-66.2018
 30
0.0
 10
111.554
 20
-66.5842
 30
0.0
 10
112.4923
 20
-65.4144
 30
0.0
 10
113.2522
 20
-64.515
 30
0.0
 10
113.2522
 20
-64.515
 30
0.0
 10
114.0121
 20
-65.4144
 30
0.0
 10
114.9504
 20
-66.584
 30
0.0
 10
117.8416
 20
-66.2018
 30
0.0
 10
117.8416
 20
-66.2018
 30
0.0
 10
118.4149
 20
-66.3339
 30
0.0
 10
118.3454
 20
-67.2219
 30
0.0
 10
117.9514
 20
-67.6853
 30
0.0
 10
117.9514
 20
-67.6853
 30
0.0
 10
116.9948
 20
-68.7968
 30
0.0
 10
115.0391
 20
-70.3835
 30
0.0
 10
113.2522
 20
-70.4357
 30
0.0
 10
113.2522
 20
-70.4357
 30
0.0
 10
111.4653
 20
-70.3836
 30
0.0
 10
109.5096
 20
-68.7969
 30
0.0
 10
108.553
 20
-67.6853
 30
0.0
  0
SPLINE
  5
6E
330
1F
100
AcDbEntity
  8
layer 1
 62
     7
100
AcDbSpline
210
0.0
220
0.0
230
1.0
 70
    11
 71
     3
 72
    24
 73
    20
 74
     0
 42
0.0000000001
 43
0.0000000001
 12
1.0
 22
0.0
 32
0.0
 13
1.0
 23
0.0
 33
0.0
 40
0.0
 40
0.0
 40
0.0
 40
0.0
 40
0.1666666666666667
 40
0.1666666666666667
 40
0.1666666666666667
 40
0.1666666666666667
 40
0.3333333333333333
 40
0.3333333333333333
 40
0.3333333333333333
 40
0.3333333333333333
 40
0.5
 40
0.5
 40
0.5
 40
0.5
 40
0.6666666666666666
 40
0.6666666666666666
 40
0.6666666666666666
 40
0.6666666666666666
 40
1.0
 40
1.0
 40
1.0
 40
1.0
 10
69.3855
 20
-58.2826
 30
0.0
 10
70.2223
 20
-58.9916
 30
0.0
 10
71.4412
 20
-59.7683
 30
0.0
 10
71.995
 20
-60.1613
 30
0.0
 10
71.995
 20
-60.1613
 30
0.0
 10
71.2488
 20
-61.1317
 30
0.0
 10
69.7387
 20
-62.1856
 30
0.0
 10
68.6709
 20
-62.9041
 30
0.0
 10
68.6709
 20
-62.9041
 30
0.0
 10
67.5489
 20
-63.6048
 30
0.0
 10
66.7078
 20
-63.8407
 30
0.0
 10
65.6196
 20
-62.8551
 30
0.0
 10
65.6196
 20
-62.8551
 30
0.0
 10
65.1365
 20
-62.4489
 30
0.0
 10
65.2012
 20
-62.0471
 30
0.0
 10
65.6671
 20
-61.8091
 30
0.0
 10
65.6671
 20
-61.8091
 30
0.0
 10
67.0627
 20
-60.4616
 30
0.0
 10
68.041
 20
-59.6034
 30
0.0
 10
69.3855
 20
-58.2826
 30
0.0
  0
SPLINE
  5
6F
330
1F
100
AcDbEntity
  8
layer 1
 62
     7
100
AcDbSpline
210
0.0
220
0.0
230
1.0
 70
    11
 71
     3
 72
    24
 73
    20
 74
     0
 42
0.0000000001
 43
0.0000000001
 12
1.0
 22
0.0
 32
0.0
 13
1.0
 23
0.0
 33
0.0
 40
0.0
 40
0.0
 40
0.0
 40
0.0
 40
0.1666666666666667
 40
0.1666666666666667
 40
0.1666666666666667
 40
0.1666666666666667
 40
0.3333333333333333
 40
0.3333333333333333
 40
0.3333333333333333
 40
0.3333333333333333
 40
0.5
 40
0.5
 40
0.5
 40
0.5
 40
0.6666666666666666
 40
0.6666666666666666
 40
0.6666666666666666
 40
0.6666666666666666
 40
1.0
 40
1.0
 40
1.0
 40
1.0
 10
68.7929
 20
-47.0306
 30
0.0
 10
69.1073
 20
-46.8745
 30
0.0
 10
69.617
 20
-47.1028
 30
0.0
 10
69.3856
 20
-47.4993
 30
0.0
 10
69.3856
 20
-47.4993
 30
0.0
 10
68.341
 20
-48.0897
 30
0.0
 10
66.464
 20
-49.2382
 30
0.0
 10
65.1435
 20
-50.3597
 30
0.0
 10
65.1435
 20
-50.3597
 30
0.0
 10
64.0548
 20
-49.6219
 30
0.0
 10
63.9537
 20
-49.6762
 30
0.0
 10
63.1063
 20
-49.1241
 30
0.0
 10
63.1063
 20
-49.1241
 30
0.0
 10
62.6495
 20
-48.8583
 30
0.0
 10
63.2181
 20
-48.4489
 30
0.0
 10
63.9728
 20
-48.3066
 30
0.0
 10
63.9728
 20
-48.3066
 30
0.0
 10
66.1371
 20
-47.6073
 30
0.0
 10
67.474
 20
-47.3116
 30
0.0
 10
68.7929
 20
-47.0306
 30
0.0
  0
SPLINE
  5
70
330
1F
100
AcDbEntity
  8
layer 1
 62
     7
100
AcDbSpline
210
0.0
220
0.0
230
1.0
 70
    11
 71
     3
 72
    28
 73
    24
 74
     0
 42
0.0000000001
 43
0.0000000001
 12
1.0
 22
0.0
 32
0.0
 13
1.0
 23
0.0
 33
0.0
 40
0.0
 40
0.0
 40
0.0
 40
0.0
 40
0.1428571428571428
 40
0.1428571428571428
 40
0.1428571428571428
 40
0.1428571428571428
 40
0.2857142857142857
 40
0.2857142857142857
 40
0.2857142857142857
 40
0.2857142857142857
 40
0.4285714285714285
 40
0.4285714285714285
 40
0.4285714285714285
 40
0.4285714285714285
 40
0.5714285714285714
 40
0.5714285714285714
 40
0.5714285714285714
 40
0.5714285714285714
 40
0.7142857142857143
 40
0.7142857142857143
 40
0.7142857142857143
 40
0.7142857142857143
 40
1.0
 40
1.0
 40
1.0
 40
1.0
 10
72.3816
 20
-49.6467
 30
0.0
 10
72.696
 20
-49.4907
 30
0.0
 10
73.1051
 20
-49.8866
 30
0.0
 10
72.8737
 20
-50.2831
 30
0.0
 10
72.8737
 20
-50.2831
 30
0.0
 10
71.8627
 20
-50.9741
 30
0.0
 10
70.7571
 20
-51.9885
 30
0.0
 10
69.3359
 20
-52.9759
 30
0.0
 10
69.3359
 20
-52.9759
 30
0.0
 10
68.2472
 20
-52.238
 30
0.0
 10
69.0516
 20
-52.7284
 30
0.0
 10
68.2042
 20
-52.1763
 30
0.0
 10
68.2042
 20
-52.1763
 30
0.0
 10
67.7474
 20
-51.9105
 30
0.0
 10
68.4166
 20
-51.6352
 30
0.0
 10
69.0707
 20
-51.3588
 30
0.0
 10
69.0707
 20
-51.3588
 30
0.0
 10
70.2623
 20
-50.7601
 30
0.0
 10
71.0963
 20
-50.1291
 30
0.0
 10
72.3816
 20
-49.6469
 30
0.0
 10
72.3816
 20
-49.6469
 30
0.0
 10
72.3816
 20
-49.6469
 30
0.0
 10
72.3816
 20
-49.6467
 30
0.0
 10
72.3816
 20
-49.6467
 30
0.0
  0
SPLINE
  5
71
330
1F
100
AcDbEntity
  8
layer 1
 62
     7
100
AcDbSpline
210
0.0
220
0.0
230
1.0
 70
    11
 71
     3
 72
    20
 73
    16
 74
     0
 42
0.0000000001
 43
0.0000000001
 12
1.0
 22
0.0
 32
0.0
 13
1.0
 23
0.0
 33
0.0
 40
0.0
 40
0.0
 40
0.0
 40
0.0
 40
0.2
 40
0.2
 40
0.2
 40
0.2
 40
0.4
 40
0.4
 40
0.4
 40
0.4
 40
0.6
 40
0.6
 40
0.6
 40
0.6
 40
1.0
 40
1.0
 40
1.0
 40
1.0
 10
103.0894
 20
-50.1435
 30
0.0
 10
103.2205
 20
-50.9503
 30
0.0
 10
102.5868
 20
-51.5396
 30
0.0
 10
102.3771
 20
-50.7538
 30
0.0
 10
102.3771
 20
-50.7538
 30
0.0
 10
99.8271
 20
-44.4025
 30
0.0
 10
93.6891
 20
-44.4949
 30
0.0
 10
90.2008
 20
-46.6012
 30
0.0
 10
90.2008
 20
-46.6012
 30
0.0
 10
89.4792
 20
-47.0
 30
0.0
 10
89.0965
 20
-46.2903
 30
0.0
 10
89.6861
 20
-45.5507
 30
0.0
 10
89.6861
 20
-45.5507
 30
0.0
 10
93.566
 20
-40.7494
 30
0.0
 10
101.7157
 20
-43.0791
 30
0.0
 10
103.0894
 20
-50.1435
 30
0.0
  0
SPLINE
  5
72
330
1F
100
AcDbEntity
  8
layer 1
 62
     7
100
AcDbSpline
210
0.0
220
0.0
230
1.0
 70
    11
 71
     3
 72
    88
 73
    84
 74
     0
 42
0.0000000001
 43
0.0000000001
 12
1.0
 22
0.0
 32
0.0
 13
1.0
 23
0.0
 33
0.0
 40
0.0
 40
0.0
 40
0.0
 40
0.0
 40
0.0454545454545455
 40
0.0454545454545455
 40
0.0454545454545455
 40
0.0454545454545455
 40
0.0909090909090909
 40
0.0909090909090909
 40
0.0909090909090909
 40
0.0909090909090909
 40
0.1363636363636364
 40
0.1363636363636364
 40
0.1363636363636364
 40
0.1363636363636364
 40
0.1818181818181818
 40
0.1818181818181818
 40
0.1818181818181818
 40
0.1818181818181818
 40
0.2272727272727273
 40
0.2272727272727273
 40
0.2272727272727273
 40
0.2272727272727273
 40
0.2727272727272727
 40
0.2727272727272727
 40
0.2727272727272727
 40
0.2727272727272727
 40
0.3181818181818182
 40
0.3181818181818182
 40
0.3181818181818182
 40
0.3181818181818182
 40
0.3636363636363636
 40
0.3636363636363636
 40
0.3636363636363636
 40
0.3636363636363636
 40
0.4090909090909091
 40
0.4090909090909091
 40
0.4090909090909091
 40
0.4090909090909091
 40
0.4545454545454545
 40
0.4545454545454545
 40
0.4545454545454545
 40
0.4545454545454545
 40
0.5
 40
0.5
 40
0.5
 40
0.5
 40
0.5454545454545454
 40
0.5454545454545454
 40
0.5454545454545454
 40
0.5454545454545454
 40
0.5909090909090909
 40
0.5909090909090909
 40
0.5909090909090909
 40
0.5909090909090909
 40
0.6363636363636364
 40
0.6363636363636364
 40
0.6363636363636364
 40
0.6363636363636364
 40
0.6818181818181818
 40
0.6818181818181818
 40
0.6818181818181818
 40
0.6818181818181818
 40
0.7272727272727273
 40
0.7272727272727273
 40
0.7272727272727273
 40
0.7272727272727273
 40
0.7727272727272727
 40
0.7727272727272727
 40
0.7727272727272727
 40
0.7727272727272727
 40
0.8181818181818182
 40
0.8181818181818182
 40
0.8181818181818182
 40
0.8181818181818182
 40
0.8636363636363636
 40
0.8636363636363636
 40
0.8636363636363636
 40
0.8636363636363636
 40
0.9090909090909091
 40
0.9090909090909091
 40
0.9090909090909091
 40
0.9090909090909091
 40
1.0
 40
1.0
 40
1.0
 40
1.0
 10
103.1317
 20
-42.6492
 30
0.0
 10
102.9164
 20
-43.2167
 30
0.0
 10
102.1608
 20
-43.4391
 30
0.0
 10
101.6577
 20
-42.754
 30
0.0
 10
101.6577
 20
-42.754
 30
0.0
 10
100.4415
 20
-41.1799
 30
0.0
 10
98.2773
 20
-39.4968
 30
0.0
 10
96.6505
 20
-38.8333
 30
0.0
 10
96.6505
 20
-38.8333
 30
0.0
 10
95.6493
 20
-38.525
 30
0.0
 10
95.8443
 20
-37.9575
 30
0.0
 10
96.5045
 20
-37.9574
 30
0.0
 10
96.5045
 20
-37.9574
 30
0.0
 10
99.4967
 20
-37.5137
 30
0.0
 10
100.5589
 20
-36.1323
 30
0.0
 10
101.2325
 20
-36.1943
 30
0.0
 10
101.2325
 20
-36.1943
 30
0.0
 10
101.6145
 20
-36.2295
 30
0.0
 10
103.4963
 20
-36.3587
 30
0.0
 10
102.7939
 20
-38.188
 30
0.0
 10
102.7939
 20
-38.188
 30
0.0
 10
101.7926
 20
-36.942
 30
0.0
 10
99.567
 20
-37.9478
 30
0.0
 10
100.2722
 20
-39.5946
 30
0.0
 10
100.2722
 20
-39.5946
 30
0.0
 10
102.1916
 20
-42.7001
 30
0.0
 10
105.3097
 20
-39.1785
 30
0.0
 10
104.6525
 20
-36.7677
 30
0.0
 10
104.6525
 20
-36.7677
 30
0.0
 10
105.758
 20
-36.833
 30
0.0
 10
107.3491
 20
-37.5031
 30
0.0
 10
108.0125
 20
-39.379
 30
0.0
 10
108.0125
 20
-39.379
 30
0.0
 10
108.2938
 20
-39.4523
 30
0.0
 10
108.7679
 20
-38.3285
 30
0.0
 10
108.4575
 20
-37.351
 30
0.0
 10
108.4575
 20
-37.351
 30
0.0
 10
109.0408
 20
-37.7412
 30
0.0
 10
110.0325
 20
-37.7447
 30
0.0
 10
110.4623
 20
-36.9248
 30
0.0
 10
110.4623
 20
-36.9248
 30
0.0
 10
110.4797
 20
-37.5924
 30
0.0
 10
110.4745
 20
-38.1265
 30
0.0
 10
110.5049
 20
-38.4002
 30
0.0
 10
110.5049
 20
-38.4002
 30
0.0
 10
110.9181
 20
-38.4095
 30
0.0
 10
111.2697
 20
-38.408
 30
0.0
 10
111.6089
 20
-38.3721
 30
0.0
 10
111.6089
 20
-38.3721
 30
0.0
 10
112.3341
 20
-40.3368
 30
0.0
 10
112.2331
 20
-41.3941
 30
0.0
 10
110.0845
 20
-45.631
 30
0.0
 10
110.0845
 20
-45.631
 30
0.0
 10
107.6207
 20
-49.2477
 30
0.0
 10
109.6338
 20
-51.2926
 30
0.0
 10
110.8565
 20
-52.7288
 30
0.0
 10
110.8565
 20
-52.7288
 30
0.0
 10
111.2117
 20
-53.3729
 30
0.0
 10
110.6901
 20
-53.8547
 30
0.0
 10
110.4795
 20
-54.3732
 30
0.0
 10
110.4795
 20
-54.3732
 30
0.0
 10
110.003
 20
-55.0965
 30
0.0
 10
109.3829
 20
-56.6357
 30
0.0
 10
107.3615
 20
-58.4999
 30
0.0
 10
107.3615
 20
-58.4999
 30
0.0
 10
106.6233
 20
-59.1938
 30
0.0
 10
106.3847
 20
-58.6178
 30
0.0
 10
106.4677
 20
-58.1992
 30
0.0
 10
106.4677
 20
-58.1992
 30
0.0
 10
107.0641
 20
-55.5553
 30
0.0
 10
106.5528
 20
-51.8276
 30
0.0
 10
105.6192
 20
-49.049
 30
0.0
 10
105.6192
 20
-49.049
 30
0.0
 10
103.8549
 20
-42.1975
 30
0.0
 10
107.3961
 20
-42.6661
 30
0.0
 10
109.1427
 20
-43.1483
 30
0.0
 10
109.1427
 20
-43.1483
 30
0.0
 10
109.5902
 20
-41.4394
 30
0.0
 10
105.6934
 20
-37.4088
 30
0.0
 10
103.1319
 20
-42.6492
 30
0.0
 10
103.1319
 20
-42.6492
 30
0.0
 10
103.1319
 20
-42.6492
 30
0.0
 10
103.1317
 20
-42.6492
 30
0.0
 10
103.1317
 20
-42.6492
 30
0.0
  0
SPLINE
  5
73
330
1F
100
AcDbEntity
  8
layer 1
 62
     7
100
AcDbSpline
210
0.0
220
0.0
230
1.0
 70
    11
 71
     3
 72
    20
 73
    16
 74
     0
 42
0.0000000001
 43
0.0000000001
 12
1.0
 22
0.0
 32
0.0
 13
1.0
 23
0.0
 33
0.0
 40
0.0
 40
0.0
 40
0.0
 40
0.0
 40
0.2
 40
0.2
 40
0.2
 40
0.2
 40
0.4
 40
0.4
 40
0.4
 40
0.4
 40
0.6
 40
0.6
 40
0.6
 40
0.6
 40
1.0
 40
1.0
 40
1.0
 40
1.0
 10
109.6646
 20
-60.7903
 30
0.0
 10
109.7228
 20
-60.4013
 30
0.0
 10
110.3644
 20
-60.2448
 30
0.0
 10
110.4959
 20
-60.6222
 30
0.0
 10
110.4959
 20
-60.6222
 30
0.0
 10
110.9521
 20
-61.5754
 30
0.0
 10
110.8746
 20
-62.0915
 30
0.0
 10
111.1047
 20
-63.2553
 30
0.0
 10
111.1047
 20
-63.2553
 30
0.0
 10
110.1162
 20
-64.0557
 30
0.0
 10
108.5849
 20
-63.4872
 30
0.0
 10
107.8366
 20
-63.3226
 30
0.0
 10
107.8366
 20
-63.3226
 30
0.0
 10
108.6339
 20
-62.6088
 30
0.0
 10
109.2166
 20
-62.4402
 30
0.0
 10
109.6646
 20
-60.7903
 30
0.0
  0
SPLINE
  5
74
330
1F
100
AcDbEntity
  8
layer 1
 62
     7
100
AcDbSpline
210
0.0
220
0.0
230
1.0
 70
    11
 71
     3
 72
    24
 73
    20
 74
     0
 42
0.0000000001
 43
0.0000000001
 12
1.0
 22
0.0
 32
0.0
 13
1.0
 23
0.0
 33
0.0
 40
0.0
 40
0.0
 40
0.0
 40
0.0
 40
0.1666666666666667
 40
0.1666666666666667
 40
0.1666666666666667
 40
0.1666666666666667
 40
0.3333333333333333
 40
0.3333333333333333
 40
0.3333333333333333
 40
0.3333333333333333
 40
0.5
 40
0.5
 40
0.5
 40
0.5
 40
0.6666666666666666
 40
0.6666666666666666
 40
0.6666666666666666
 40
0.6666666666666666
 40
1.0
 40
1.0
 40
1.0
 40
1.0
 10
52.2819
 20
-60.7755
 30
0.0
 10
51.6986
 20
-58.9599
 30
0.0
 10
53.4855
 20
-58.8215
 30
0.0
 10
53.8816
 20
-59.8772
 30
0.0
 10
53.8816
 20
-59.8772
 30
0.0
 10
54.2226
 20
-61.0298
 30
0.0
 10
55.2979
 20
-61.9088
 30
0.0
 10
56.924
 20
-61.963
 30
0.0
 10
56.924
 20
-61.963
 30
0.0
 10
57.6291
 20
-61.9864
 30
0.0
 10
57.7789
 20
-62.3015
 30
0.0
 10
57.563
 20
-62.5253
 30
0.0
 10
57.563
 20
-62.5253
 30
0.0
 10
56.6304
 20
-63.5415
 30
0.0
 10
53.391
 20
-64.9765
 30
0.0
 10
50.9144
 20
-64.2119
 30
0.0
 10
50.9144
 20
-64.2119
 30
0.0
 10
51.8086
 20
-63.1181
 30
0.0
 10
52.5368
 20
-62.4052
 30
0.0
 10
52.2819
 20
-60.7755
 30
0.0
  0
SPLINE
  5
75
330
1F
100
AcDbEntity
  8
layer 1
 62
     7
100
AcDbSpline
210
0.0
220
0.0
230
1.0
 70
    11
 71
     3
 72
    28
 73
    24
 74
     0
 42
0.0000000001
 43
0.0000000001
 12
1.0
 22
0.0
 32
0.0
 13
1.0
 23
0.0
 33
0.0
 40
0.0
 40
0.0
 40
0.0
 40
0.0
 40
0.1428571428571428
 40
0.1428571428571428
 40
0.1428571428571428
 40
0.1428571428571428
 40
0.2857142857142857
 40
0.2857142857142857
 40
0.2857142857142857
 40
0.2857142857142857
 40
0.4285714285714285
 40
0.4285714285714285
 40
0.4285714285714285
 40
0.4285714285714285
 40
0.5714285714285714
 40
0.5714285714285714
 40
0.5714285714285714
 40
0.5714285714285714
 40
0.7142857142857143
 40
0.7142857142857143
 40
0.7142857142857143
 40
0.7142857142857143
 40
1.0
 40
1.0
 40
1.0
 40
1.0
 10
61.6226
 20
-64.5307
 30
0.0
 10
62.5225
 20
-64.5139
 30
0.0
 10
63.268
 20
-64.3124
 30
0.0
 10
63.4748
 20
-63.2538
 30
0.0
 10
63.4748
 20
-63.2538
 30
0.0
 10
63.8157
 20
-64.4064
 30
0.0
 10
64.6702
 20
-65.9481
 30
0.0
 10
66.2962
 20
-66.0021
 30
0.0
 10
66.2962
 20
-66.0021
 30
0.0
 10
64.6976
 20
-67.5719
 30
0.0
 10
63.964
 20
-67.8237
 30
0.0
 10
63.401
 20
-68.0792
 30
0.0
 10
63.401
 20
-68.0792
 30
0.0
 10
61.0167
 20
-68.6537
 30
0.0
 10
61.4062
 20
-67.7221
 30
0.0
 10
62.3692
 20
-65.7582
 30
0.0
 10
62.3692
 20
-65.7582
 30
0.0
 10
62.0329
 20
-65.6111
 30
0.0
 10
61.5933
 20
-65.4346
 30
0.0
 10
61.6225
 20
-64.5308
 30
0.0
 10
61.6225
 20
-64.5308
 30
0.0
 10
61.6225
 20
-64.5308
 30
0.0
 10
61.6226
 20
-64.5307
 30
0.0
 10
61.6226
 20
-64.5307
 30
0.0
  0
SPLINE
  5
76
330
1F
100
AcDbEntity
  8
layer 1
 62
     7
100
AcDbSpline
210
0.0
220
0.0
230
1.0
 70
    11
 71
     3
 72
    28
 73
    24
 74
     0
 42
0.0000000001
 43
0.0000000001
 12
1.0
 22
0.0
 32
0.0
 13
1.0
 23
0.0
 33
0.0
 40
0.0
 40
0.0
 40
0.0
 40
0.0
 40
0.1428571428571428
 40
0.1428571428571428
 40
0.1428571428571428
 40
0.1428571428571428
 40
0.2857142857142857
 40
0.2857142857142857
 40
0.2857142857142857
 40
0.2857142857142857
 40
0.4285714285714285
 40
0.4285714285714285
 40
0.4285714285714285
 40
0.4285714285714285
 40
0.5714285714285714
 40
0.5714285714285714
 40
0.5714285714285714
 40
0.5714285714285714
 40
0.7142857142857143
 40
0.7142857142857143
 40
0.7142857142857143
 40
0.7142857142857143
 40
1.0
 40
1.0
 40
1.0
 40
1.0
 10
75.0341
 20
-67.3708
 30
0.0
 10
77.0493
 20
-67.8319
 30
0.0
 10
79.1144
 20
-64.0779
 30
0.0
 10
75.2086
 20
-63.2511
 30
0.0
 10
75.2086
 20
-63.2511
 30
0.0
 10
75.4006
 20
-62.8792
 30
0.0
 10
75.7895
 20
-62.3703
 30
0.0
 10
75.845
 20
-62.0863
 30
0.0
 10
75.845
 20
-62.0863
 30
0.0
 10
77.1327
 20
-63.1441
 30
0.0
 10
79.8804
 20
-64.6227
 30
0.0
 10
82.1375
 20
-65.308
 30
0.0
 10
82.1375
 20
-65.308
 30
0.0
 10
80.681
 20
-69.1357
 30
0.0
 10
77.5226
 20
-72.8076
 30
0.0
 10
74.5185
 20
-68.125
 30
0.0
 10
74.5185
 20
-68.125
 30
0.0
 10
74.2452
 20
-67.757
 30
0.0
 10
74.3738
 20
-67.2649
 30
0.0
 10
75.0339
 20
-67.3708
 30
0.0
 10
75.0339
 20
-67.3708
 30
0.0
 10
75.0339
 20
-67.3708
 30
0.0
 10
75.0341
 20
-67.3708
 30
0.0
 10
75.0341
 20
-67.3708
 30
0.0
  0
SPLINE
  5
77
330
1F
100
AcDbEntity
  8
layer 1
 62
     7
100
AcDbSpline
210
0.0
220
0.0
230
1.0
 70
    11
 71
     3
 72
    20
 73
    16
 74
     0
 42
0.0000000001
 43
0.0000000001
 12
1.0
 22
0.0
 32
0.0
 13
1.0
 23
0.0
 33
0.0
 40
0.0
 40
0.0
 40
0.0
 40
0.0
 40
0.2
 40
0.2
 40
0.2
 40
0.2
 40
0.4
 40
0.4
 40
0.4
 40
0.4
 40
0.6
 40
0.6
 40
0.6
 40
0.6
 40
1.0
 40
1.0
 40
1.0
 40
1.0
 10
88.6934
 20
-24.5931
 30
0.0
 10
90.222
 20
-23.7034
 30
0.0
 10
90.9149
 20
-26.1553
 30
0.0
 10
89.3206
 20
-26.6891
 30
0.0
 10
89.3206
 20
-26.6891
 30
0.0
 10
87.8443
 20
-27.1613
 30
0.0
 10
87.1304
 20
-26.9382
 30
0.0
 10
85.2039
 20
-26.6242
 30
0.0
 10
85.2039
 20
-26.6242
 30
0.0
 10
86.6767
 20
-25.767
 30
0.0
 10
88.0586
 20
-24.9627
 30
0.0
 10
88.6934
 20
-24.5932
 30
0.0
 10
88.6934
 20
-24.5932
 30
0.0
 10
88.6934
 20
-24.5932
 30
0.0
 10
88.6934
 20
-24.5931
 30
0.0
 10
88.6934
 20
-24.5931
 30
0.0
  0
SPLINE
  5
78
330
1F
100
AcDbEntity
  8
layer 1
 62
     7
100
AcDbSpline
210
0.0
220
0.0
230
1.0
 70
    11
 71
     3
 72
    32
 73
    28
 74
     0
 42
0.0000000001
 43
0.0000000001
 12
1.0
 22
0.0
 32
0.0
 13
1.0
 23
0.0
 33
0.0
 40
0.0
 40
0.0
 40
0.0
 40
0.0
 40
0.125
 40
0.125
 40
0.125
 40
0.125
 40
0.25
 40
0.25
 40
0.25
 40
0.25
 40
0.375
 40
0.375
 40
0.375
 40
0.375
 40
0.5
 40
0.5
 40
0.5
 40
0.5
 40
0.625
 40
0.625
 40
0.625
 40
0.625
 40
0.75
 40
0.75
 40
0.75
 40
0.75
 40
1.0
 40
1.0
 40
1.0
 40
1.0
 10
88.0377
 20
-30.6036
 30
0.0
 10
85.8529
 20
-31.5338
 30
0.0
 10
86.831
 20
-34.4355
 30
0.0
 10
88.8265
 20
-34.7706
 30
0.0
 10
88.8265
 20
-34.7706
 30
0.0
 10
90.2152
 20
-35.0038
 30
0.0
 10
92.0257
 20
-34.1876
 30
0.0
 10
92.2236
 20
-32.0816
 30
0.0
 10
92.2236
 20
-32.0816
 30
0.0
 10
94.2402
 20
-33.5389
 30
0.0
 10
95.3263
 20
-33.8657
 30
0.0
 10
96.424
 20
-34.1749
 30
0.0
 10
96.424
 20
-34.1749
 30
0.0
 10
97.1941
 20
-34.4978
 30
0.0
 10
96.9775
 20
-34.8954
 30
0.0
 10
96.5523
 20
-35.1227
 30
0.0
 10
96.5523
 20
-35.1227
 30
0.0
 10
93.9314
 20
-36.5237
 30
0.0
 10
85.4776
 20
-36.859
 30
0.0
 10
84.0018
 20
-33.6455
 30
0.0
 10
84.0018
 20
-33.6455
 30
0.0
 10
81.7317
 20
-29.5098
 30
0.0
 10
87.3209
 20
-27.5308
 30
0.0
 10
88.0378
 20
-30.6036
 30
0.0
 10
88.0378
 20
-30.6036
 30
0.0
 10
88.0378
 20
-30.6036
 30
0.0
 10
88.0377
 20
-30.6036
 30
0.0
 10
88.0377
 20
-30.6036
 30
0.0
  0
SPLINE
  5
79
330
1F
100
AcDbEntity
  8
layer 1
 62
     7
100
AcDbSpline
210
0.0
220
0.0
230
1.0
 70
    11
 71
     3
 72
    20
 73
    16
 74
     0
 42
0.0000000001
 43
0.0000000001
 12
1.0
 22
0.0
 32
0.0
 13
1.0
 23
0.0
 33
0.0
 40
0.0
 40
0.0
 40
0.0
 40
0.0
 40
0.2
 40
0.2
 40
0.2
 40
0.2
 40
0.4
 40
0.4
 40
0.4
 40
0.4
 40
0.6
 40
0.6
 40
0.6
 40
0.6
 40
1.0
 40
1.0
 40
1.0
 40
1.0
 10
111.1965
 20
-12.1885
 30
0.0
 10
111.2925
 20
-11.2421
 30
0.0
 10
112.1759
 20
-10.9
 30
0.0
 10
113.2522
 20
-10.3092
 30
0.0
 10
113.2522
 20
-10.3092
 30
0.0
 10
114.3285
 20
-10.8999
 30
0.0
 10
115.2119
 20
-11.2421
 30
0.0
 10
115.3079
 20
-12.1885
 30
0.0
 10
115.3079
 20
-12.1885
 30
0.0
 10
115.0263
 20
-14.3811
 30
0.0
 10
113.7384
 20
-13.8557
 30
0.0
 10
113.2522
 20
-15.6293
 30
0.0
 10
113.2522
 20
-15.6293
 30
0.0
 10
112.766
 20
-13.8557
 30
0.0
 10
111.4781
 20
-14.3811
 30
0.0
 10
111.1965
 20
-12.1885
 30
0.0
  0
SPLINE
  5
7A
330
1F
100
AcDbEntity
  8
layer 1
 62
     7
100
AcDbSpline
210
0.0
220
0.0
230
1.0
 70
    11
 71
     3
 72
    40
 73
    36
 74
     0
 42
0.0000000001
 43
0.0000000001
 12
1.0
 22
0.0
 32
0.0
 13
1.0
 23
0.0
 33
0.0
 40
0.0
 40
0.0
 40
0.0
 40
0.0
 40
0.1
 40
0.1
 40
0.1
 40
0.1
 40
0.2
 40
0.2
 40
0.2
 40
0.2
 40
0.3
 40
0.3
 40
0.3
 40
0.3
 40
0.4
 40
0.4
 40
0.4
 40
0.4
 40
0.5
 40
0.5
 40
0.5
 40
0.5
 40
0.6
 40
0.6
 40
0.6
 40
0.6
 40
0.7
 40
0.7
 40
0.7
 40
0.7
 40
0.8
 40
0.8
 40
0.8
 40
0.8
 40
1.0
 40
1.0
 40
1.0
 40
1.0
 10
101.5876
 20
-17.0884
 30
0.0
 10
102.9015
 20
-17.666
 30
0.0
 10
102.6165
 20
-18.9268
 30
0.0
 10
102.8113
 20
-19.3173
 30
0.0
 10
102.8113
 20
-19.3173
 30
0.0
 10
99.8044
 20
-18.8029
 30
0.0
 10
97.5266
 20
-21.2849
 30
0.0
 10
96.5032
 20
-23.2451
 30
0.0
 10
96.5032
 20
-23.2451
 30
0.0
 10
95.8491
 20
-24.1712
 30
0.0
 10
94.7302
 20
-23.8344
 30
0.0
 10
94.6214
 20
-22.7278
 30
0.0
 10
94.6214
 20
-22.7278
 30
0.0
 10
92.8351
 20
-23.5769
 30
0.0
 10
94.0741
 20
-26.5344
 30
0.0
 10
97.0711
 20
-24.7469
 30
0.0
 10
97.0711
 20
-24.7469
 30
0.0
 10
97.5781
 20
-24.2585
 30
0.0
 10
98.5442
 20
-25.2648
 30
0.0
 10
97.3233
 20
-26.0388
 30
0.0
 10
97.3233
 20
-26.0388
 30
0.0
 10
94.434
 20
-26.6781
 30
0.0
 10
95.2625
 20
-27.4301
 30
0.0
 10
94.1681
 20
-27.7379
 30
0.0
 10
94.1681
 20
-27.7379
 30
0.0
 10
94.0684
 20
-25.0218
 30
0.0
 10
92.6311
 20
-23.5221
 30
0.0
 10
90.9741
 20
-23.2656
 30
0.0
 10
90.9741
 20
-23.2656
 30
0.0
 10
92.447
 20
-22.4084
 30
0.0
 10
100.9527
 20
-17.4579
 30
0.0
 10
101.5875
 20
-17.0884
 30
0.0
 10
101.5875
 20
-17.0884
 30
0.0
 10
101.5875
 20
-17.0884
 30
0.0
 10
101.5876
 20
-17.0884
 30
0.0
 10
101.5876
 20
-17.0884
 30
0.0
  0
SPLINE
  5
7B
330
1F
100
AcDbEntity
  8
layer 1
 62
     7
100
AcDbSpline
210
0.0
220
0.0
230
1.0
 70
    11
 71
     3
 72
    44
 73
    40
 74
     0
 42
0.0000000001
 43
0.0000000001
 12
1.0
 22
0.0
 32
0.0
 13
1.0
 23
0.0
 33
0.0
 40
0.0
 40
0.0
 40
0.0
 40
0.0
 40
0.0909090909090909
 40
0.0909090909090909
 40
0.0909090909090909
 40
0.0909090909090909
 40
0.1818181818181818
 40
0.1818181818181818
 40
0.1818181818181818
 40
0.1818181818181818
 40
0.2727272727272727
 40
0.2727272727272727
 40
0.2727272727272727
 40
0.2727272727272727
 40
0.3636363636363636
 40
0.3636363636363636
 40
0.3636363636363636
 40
0.3636363636363636
 40
0.4545454545454545
 40
0.4545454545454545
 40
0.4545454545454545
 40
0.4545454545454545
 40
0.5454545454545454
 40
0.5454545454545454
 40
0.5454545454545454
 40
0.5454545454545454
 40
0.6363636363636364
 40
0.6363636363636364
 40
0.6363636363636364
 40
0.6363636363636364
 40
0.7272727272727273
 40
0.7272727272727273
 40
0.7272727272727273
 40
0.7272727272727273
 40
0.8181818181818182
 40
0.8181818181818182
 40
0.8181818181818182
 40
0.8181818181818182
 40
1.0
 40
1.0
 40
1.0
 40
1.0
 10
108.6225
 20
-12.994
 30
0.0
 10
109.9363
 20
-13.5716
 30
0.0
 10
110.3312
 20
-14.1883
 30
0.0
 10
110.3114
 20
-14.8293
 30
0.0
 10
110.3114
 20
-14.8293
 30
0.0
 10
109.8465
 20
-15.4235
 30
0.0
 10
109.4228
 20
-14.9587
 30
0.0
 10
108.8377
 20
-14.8345
 30
0.0
 10
108.8377
 20
-14.8345
 30
0.0
 10
109.5083
 20
-16.0736
 30
0.0
 10
108.855
 20
-16.2686
 30
0.0
 10
109.872
 20
-17.0036
 30
0.0
 10
109.872
 20
-17.0036
 30
0.0
 10
109.5042
 20
-17.4646
 30
0.0
 10
109.1725
 20
-17.1277
 30
0.0
 10
108.7417
 20
-17.202
 30
0.0
 10
108.7417
 20
-17.202
 30
0.0
 10
108.7444
 20
-18.8026
 30
0.0
 10
109.9835
 20
-17.6806
 30
0.0
 10
110.8336
 20
-19.078
 30
0.0
 10
110.8336
 20
-19.078
 30
0.0
 10
111.3764
 20
-19.1622
 30
0.0
 10
111.5194
 20
-20.7768
 30
0.0
 10
110.2269
 20
-20.2626
 30
0.0
 10
110.2269
 20
-20.2626
 30
0.0
 10
108.5544
 20
-18.7906
 30
0.0
 10
106.5558
 20
-18.6837
 30
0.0
 10
105.4615
 20
-18.9916
 30
0.0
 10
105.4615
 20
-18.9916
 30
0.0
 10
104.7177
 20
-18.6014
 30
0.0
 10
104.3797
 20
-17.2534
 30
0.0
 10
104.5119
 20
-15.3865
 30
0.0
 10
104.5119
 20
-15.3865
 30
0.0
 10
105.9848
 20
-14.5294
 30
0.0
 10
107.9877
 20
-13.3637
 30
0.0
 10
108.6226
 20
-12.994
 30
0.0
 10
108.6226
 20
-12.994
 30
0.0
 10
108.6226
 20
-12.994
 30
0.0
 10
108.6225
 20
-12.994
 30
0.0
 10
108.6225
 20
-12.994
 30
0.0
  0
SPLINE
  5
7C
330
1F
100
AcDbEntity
  8
layer 1
 62
     7
100
AcDbSpline
210
0.0
220
0.0
230
1.0
 70
    11
 71
     3
 72
    32
 73
    28
 74
     0
 42
0.0000000001
 43
0.0000000001
 12
1.0
 22
0.0
 32
0.0
 13
1.0
 23
0.0
 33
0.0
 40
0.0
 40
0.0
 40
0.0
 40
0.0
 40
0.125
 40
0.125
 40
0.125
 40
0.125
 40
0.25
 40
0.25
 40
0.25
 40
0.25
 40
0.375
 40
0.375
 40
0.375
 40
0.375
 40
0.5
 40
0.5
 40
0.5
 40
0.5
 40
0.625
 40
0.625
 40
0.625
 40
0.625
 40
0.75
 40
0.75
 40
0.75
 40
0.75
 40
1.0
 40
1.0
 40
1.0
 40
1.0
 10
121.5247
 20
-67.8057
 30
0.0
 10
121.3899
 20
-67.7453
 30
0.0
 10
121.087
 20
-67.4995
 30
0.0
 10
120.9571
 20
-67.8356
 30
0.0
 10
120.9571
 20
-67.8356
 30
0.0
 10
120.1798
 20
-74.4034
 30
0.0
 10
118.315
 20
-78.1552
 30
0.0
 10
115.9028
 20
-81.4411
 30
0.0
 10
115.9028
 20
-81.4411
 30
0.0
 10
115.7632
 20
-81.6066
 30
0.0
 10
115.7309
 20
-81.8092
 30
0.0
 10
115.8057
 20
-81.9202
 30
0.0
 10
115.8057
 20
-81.9202
 30
0.0
 10
116.8948
 20
-84.3803
 30
0.0
 10
121.2283
 20
-85.1062
 30
0.0
 10
123.468
 20
-83.1347
 30
0.0
 10
123.468
 20
-83.1347
 30
0.0
 10
118.5062
 20
-82.5816
 30
0.0
 10
119.3343
 20
-74.3749
 30
0.0
 10
125.4616
 20
-76.058
 30
0.0
 10
125.4616
 20
-76.058
 30
0.0
 10
125.3984
 20
-72.667
 30
0.0
 10
123.3541
 20
-69.4771
 30
0.0
 10
121.5248
 20
-67.8057
 30
0.0
 10
121.5248
 20
-67.8057
 30
0.0
 10
121.5248
 20
-67.8057
 30
0.0
 10
121.5247
 20
-67.8057
 30
0.0
 10
121.5247
 20
-67.8057
 30
0.0
  0
SPLINE
  5
7D
330
1F
100
AcDbEntity
  8
layer 1
 62
     7
100
AcDbSpline
210
0.0
220
0.0
230
1.0
 70
    11
 71
     3
 72
    32
 73
    28
 74
     0
 42
0.0000000001
 43
0.0000000001
 12
1.0
 22
0.0
 32
0.0
 13
1.0
 23
0.0
 33
0.0
 40
0.0
 40
0.0
 40
0.0
 40
0.0
 40
0.125
 40
0.125
 40
0.125
 40
0.125
 40
0.25
 40
0.25
 40
0.25
 40
0.25
 40
0.375
 40
0.375
 40
0.375
 40
0.375
 40
0.5
 40
0.5
 40
0.5
 40
0.5
 40
0.625
 40
0.625
 40
0.625
 40
0.625
 40
0.75
 40
0.75
 40
0.75
 40
0.75
 40
1.0
 40
1.0
 40
1.0
 40
1.0
 10
127.0905
 20
-66.9287
 30
0.0
 10
126.7761
 20
-66.7105
 30
0.0
 10
126.4421
 20
-66.9813
 30
0.0
 10
126.5839
 20
-67.1537
 30
0.0
 10
126.5839
 20
-67.1537
 30
0.0
 10
127.3066
 20
-67.9531
 30
0.0
 10
128.7512
 20
-70.5366
 30
0.0
 10
129.5462
 20
-71.7006
 30
0.0
 10
129.5462
 20
-71.7006
 30
0.0
 10
129.7723
 20
-72.049
 30
0.0
 10
130.0572
 20
-72.0809
 30
0.0
 10
130.3638
 20
-71.948
 30
0.0
 10
130.3638
 20
-71.948
 30
0.0
 10
131.587
 20
-71.4568
 30
0.0
 10
132.5782
 20
-70.8105
 30
0.0
 10
134.2325
 20
-69.2049
 30
0.0
 10
134.2325
 20
-69.2049
 30
0.0
 10
134.5269
 20
-68.9201
 30
0.0
 10
134.57
 20
-68.3296
 30
0.0
 10
133.9288
 20
-68.4151
 30
0.0
 10
133.9288
 20
-68.4151
 30
0.0
 10
132.7558
 20
-68.4876
 30
0.0
 10
128.8709
 20
-68.0148
 30
0.0
 10
127.0904
 20
-66.9288
 30
0.0
 10
127.0904
 20
-66.9288
 30
0.0
 10
127.0904
 20
-66.9288
 30
0.0
 10
127.0905
 20
-66.9287
 30
0.0
 10
127.0905
 20
-66.9287
 30
0.0
  0
SPLINE
  5
7E
330
1F
100
AcDbEntity
  8
layer 1
 62
     7
100
AcDbSpline
210
0.0
220
0.0
230
1.0
 70
    11
 71
     3
 72
    32
 73
    28
 74
     0
 42
0.0000000001
 43
0.0000000001
 12
1.0
 22
0.0
 32
0.0
 13
1.0
 23
0.0
 33
0.0
 40
0.0
 40
0.0
 40
0.0
 40
0.0
 40
0.125
 40
0.125
 40
0.125
 40
0.125
 40
0.25
 40
0.25
 40
0.25
 40
0.25
 40
0.375
 40
0.375
 40
0.375
 40
0.375
 40
0.5
 40
0.5
 40
0.5
 40
0.5
 40
0.625
 40
0.625
 40
0.625
 40
0.625
 40
0.75
 40
0.75
 40
0.75
 40
0.75
 40
1.0
 40
1.0
 40
1.0
 40
1.0
 10
144.3017
 20
-52.8076
 30
0.0
 10
143.9873
 20
-52.4996
 30
0.0
 10
143.5859
 20
-52.7929
 30
0.0
 10
143.8175
 20
-53.1894
 30
0.0
 10
143.8175
 20
-53.1894
 30
0.0
 10
144.8093
 20
-56.2082
 30
0.0
 10
144.4828
 20
-59.2849
 30
0.0
 10
144.2242
 20
-60.4488
 30
0.0
 10
144.2242
 20
-60.4488
 30
0.0
 10
144.0917
 20
-61.3129
 30
0.0
 10
144.7577
 20
-61.2102
 30
0.0
 10
145.0643
 20
-61.0774
 30
0.0
 10
145.0643
 20
-61.0774
 30
0.0
 10
146.153
 20
-60.3395
 30
0.0
 10
147.1217
 20
-59.8951
 30
0.0
 10
147.9691
 20
-59.343
 30
0.0
 10
147.9691
 20
-59.343
 30
0.0
 10
148.4204
 20
-59.0806
 30
0.0
 10
148.4187
 20
-58.4453
 30
0.0
 10
148.0689
 20
-58.06
 30
0.0
 10
148.0689
 20
-58.06
 30
0.0
 10
146.8512
 20
-56.3167
 30
0.0
 10
145.3424
 20
-53.8263
 30
0.0
 10
144.3017
 20
-52.8077
 30
0.0
 10
144.3017
 20
-52.8077
 30
0.0
 10
144.3017
 20
-52.8077
 30
0.0
 10
144.3017
 20
-52.8076
 30
0.0
 10
144.3017
 20
-52.8076
 30
0.0
  0
SPLINE
  5
7F
330
1F
100
AcDbEntity
  8
layer 1
 62
     7
100
AcDbSpline
210
0.0
220
0.0
230
1.0
 70
    11
 71
     3
 72
    32
 73
    28
 74
     0
 42
0.0000000001
 43
0.0000000001
 12
1.0
 22
0.0
 32
0.0
 13
1.0
 23
0.0
 33
0.0
 40
0.0
 40
0.0
 40
0.0
 40
0.0
 40
0.125
 40
0.125
 40
0.125
 40
0.125
 40
0.25
 40
0.25
 40
0.25
 40
0.25
 40
0.375
 40
0.375
 40
0.375
 40
0.375
 40
0.5
 40
0.5
 40
0.5
 40
0.5
 40
0.625
 40
0.625
 40
0.625
 40
0.625
 40
0.75
 40
0.75
 40
0.75
 40
0.75
 40
1.0
 40
1.0
 40
1.0
 40
1.0
 10
163.9272
 20
-54.325
 30
0.0
 10
163.6128
 20
-54.1069
 30
0.0
 10
163.1305
 20
-54.108
 30
0.0
 10
162.7329
 20
-54.3613
 30
0.0
 10
162.7329
 20
-54.3613
 30
0.0
 10
161.9593
 20
-54.9585
 30
0.0
 10
161.867
 20
-55.0615
 30
0.0
 10
160.6803
 20
-55.9018
 30
0.0
 10
160.6803
 20
-55.9018
 30
0.0
 10
161.4998
 20
-56.5064
 30
0.0
 10
164.1168
 20
-58.3312
 30
0.0
 10
165.1784
 20
-58.9128
 30
0.0
 10
165.1784
 20
-58.9128
 30
0.0
 10
166.2668
 20
-59.3787
 30
0.0
 10
168.1477
 20
-59.4471
 30
0.0
 10
169.2358
 20
-58.4615
 30
0.0
 10
169.2358
 20
-58.4615
 30
0.0
 10
169.7188
 20
-58.0553
 30
0.0
 10
169.6541
 20
-57.6535
 30
0.0
 10
169.1882
 20
-57.4155
 30
0.0
 10
169.1882
 20
-57.4155
 30
0.0
 10
167.7591
 20
-56.504
 30
0.0
 10
165.7076
 20
-55.411
 30
0.0
 10
163.9271
 20
-54.325
 30
0.0
 10
163.9271
 20
-54.325
 30
0.0
 10
163.9271
 20
-54.325
 30
0.0
 10
163.9272
 20
-54.325
 30
0.0
 10
163.9272
 20
-54.325
 30
0.0
  0
SPLINE
  5
80
330
1F
100
AcDbEntity
  8
layer 1
 62
     7
100
AcDbSpline
210
0.0
220
0.0
230
1.0
 70
    11
 71
     3
 72
    32
 73
    28
 74
     0
 42
0.0000000001
 43
0.0000000001
 12
1.0
 22
0.0
 32
0.0
 13
1.0
 23
0.0
 33
0.0
 40
0.0
 40
0.0
 40
0.0
 40
0.0
 40
0.125
 40
0.125
 40
0.125
 40
0.125
 40
0.25
 40
0.25
 40
0.25
 40
0.25
 40
0.375
 40
0.375
 40
0.375
 40
0.375
 40
0.5
 40
0.5
 40
0.5
 40
0.5
 40
0.625
 40
0.625
 40
0.625
 40
0.625
 40
0.75
 40
0.75
 40
0.75
 40
0.75
 40
1.0
 40
1.0
 40
1.0
 40
1.0
 10
144.9117
 20
-28.7257
 30
0.0
 10
144.4281
 20
-28.4442
 30
0.0
 10
143.8555
 20
-28.5162
 30
0.0
 10
144.0796
 20
-29.0372
 30
0.0
 10
144.0796
 20
-29.0372
 30
0.0
 10
146.1062
 20
-30.7586
 30
0.0
 10
145.9963
 20
-33.4081
 30
0.0
 10
144.5236
 20
-34.8412
 30
0.0
 10
144.5236
 20
-34.8412
 30
0.0
 10
146.0379
 20
-34.4034
 30
0.0
 10
148.6754
 20
-32.8351
 30
0.0
 10
152.6803
 20
-34.5001
 30
0.0
 10
152.6803
 20
-34.5001
 30
0.0
 10
153.7688
 20
-34.966
 30
0.0
 10
154.1575
 20
-34.8504
 30
0.0
 10
157.4327
 20
-36.8285
 30
0.0
 10
157.4327
 20
-36.8285
 30
0.0
 10
158.1406
 20
-37.2194
 30
0.0
 10
158.2607
 20
-36.4618
 30
0.0
 10
157.7948
 20
-36.2238
 30
0.0
 10
157.7948
 20
-36.2238
 30
0.0
 10
156.3656
 20
-35.3123
 30
0.0
 10
146.6922
 20
-29.8116
 30
0.0
 10
144.9118
 20
-28.7257
 30
0.0
 10
144.9118
 20
-28.7257
 30
0.0
 10
144.9118
 20
-28.7257
 30
0.0
 10
144.9117
 20
-28.7257
 30
0.0
 10
144.9117
 20
-28.7257
 30
0.0
  0
SPLINE
  5
81
330
1F
100
AcDbEntity
  8
layer 1
 62
     7
100
AcDbSpline
210
0.0
220
0.0
230
1.0
 70
    11
 71
     3
 72
    28
 73
    24
 74
     0
 42
0.0000000001
 43
0.0000000001
 12
1.0
 22
0.0
 32
0.0
 13
1.0
 23
0.0
 33
0.0
 40
0.0
 40
0.0
 40
0.0
 40
0.0
 40
0.1428571428571428
 40
0.1428571428571428
 40
0.1428571428571428
 40
0.1428571428571428
 40
0.2857142857142857
 40
0.2857142857142857
 40
0.2857142857142857
 40
0.2857142857142857
 40
0.4285714285714285
 40
0.4285714285714285
 40
0.4285714285714285
 40
0.4285714285714285
 40
0.5714285714285714
 40
0.5714285714285714
 40
0.5714285714285714
 40
0.5714285714285714
 40
0.7142857142857143
 40
0.7142857142857143
 40
0.7142857142857143
 40
0.7142857142857143
 40
1.0
 40
1.0
 40
1.0
 40
1.0
 10
167.1395
 20
-41.6628
 30
0.0
 10
166.6559
 20
-41.3812
 30
0.0
 10
166.0833
 20
-41.4533
 30
0.0
 10
166.3075
 20
-41.9742
 30
0.0
 10
166.3075
 20
-41.9742
 30
0.0
 10
167.0041
 20
-43.3376
 30
0.0
 10
166.2805
 20
-44.947
 30
0.0
 10
165.2338
 20
-45.6981
 30
0.0
 10
165.2338
 20
-45.6981
 30
0.0
 10
165.8445
 20
-46.0958
 30
0.0
 10
166.9474
 20
-47.0852
 30
0.0
 10
169.1108
 20
-45.681
 30
0.0
 10
169.1108
 20
-45.681
 30
0.0
 10
170.0459
 20
-44.9861
 30
0.0
 10
170.6586
 20
-44.4421
 30
0.0
 10
171.1005
 20
-43.9682
 30
0.0
 10
171.1005
 20
-43.9682
 30
0.0
 10
169.6714
 20
-43.0567
 30
0.0
 10
168.9201
 20
-42.7488
 30
0.0
 10
167.1395
 20
-41.6629
 30
0.0
 10
167.1395
 20
-41.6629
 30
0.0
 10
167.1395
 20
-41.6629
 30
0.0
 10
167.1395
 20
-41.6628
 30
0.0
 10
167.1395
 20
-41.6628
 30
0.0
  0
SPLINE
  5
82
330
1F
100
AcDbEntity
  8
layer 1
 62
     7
100
AcDbSpline
210
0.0
220
0.0
230
1.0
 70
    11
 71
     3
 72
    36
 73
    32
 74
     0
 42
0.0000000001
 43
0.0000000001
 12
1.0
 22
0.0
 32
0.0
 13
1.0
 23
0.0
 33
0.0
 40
0.0
 40
0.0
 40
0.0
 40
0.0
 40
0.1111111111111111
 40
0.1111111111111111
 40
0.1111111111111111
 40
0.1111111111111111
 40
0.2222222222222222
 40
0.2222222222222222
 40
0.2222222222222222
 40
0.2222222222222222
 40
0.3333333333333333
 40
0.3333333333333333
 40
0.3333333333333333
 40
0.3333333333333333
 40
0.4444444444444444
 40
0.4444444444444444
 40
0.4444444444444444
 40
0.4444444444444444
 40
0.5555555555555556
 40
0.5555555555555556
 40
0.5555555555555556
 40
0.5555555555555556
 40
0.6666666666666666
 40
0.6666666666666666
 40
0.6666666666666666
 40
0.6666666666666666
 40
0.7777777777777778
 40
0.7777777777777778
 40
0.7777777777777778
 40
0.7777777777777778
 40
1.0
 40
1.0
 40
1.0
 40
1.0
 10
176.6193
 20
-47.18
 30
0.0
 10
176.3419
 20
-47.58
 30
0.0
 10
175.8146
 20
-47.8359
 30
0.0
 10
174.9366
 20
-48.1582
 30
0.0
 10
174.9366
 20
-48.1582
 30
0.0
 10
176.304
 20
-48.2571
 30
0.0
 10
177.0629
 20
-48.4839
 30
0.0
 10
177.6931
 20
-49.0579
 30
0.0
 10
177.6931
 20
-49.0579
 30
0.0
 10
176.2736
 20
-53.2567
 30
0.0
 10
170.2884
 20
-48.3093
 30
0.0
 10
165.6347
 20
-52.376
 30
0.0
 10
165.6347
 20
-52.376
 30
0.0
 10
167.6441
 20
-53.7883
 30
0.0
 10
178.6211
 20
-59.9328
 30
0.0
 10
182.1544
 20
-52.1085
 30
0.0
 10
182.1544
 20
-52.1085
 30
0.0
 10
183.9996
 20
-54.748
 30
0.0
 10
182.0765
 20
-57.2482
 30
0.0
 10
181.0758
 20
-58.5014
 30
0.0
 10
181.0758
 20
-58.5014
 30
0.0
 10
184.6232
 20
-58.9715
 30
0.0
 10
185.5006
 20
-54.7385
 30
0.0
 10
184.4245
 20
-51.7229
 30
0.0
 10
184.4245
 20
-51.7229
 30
0.0
 10
182.9954
 20
-50.8114
 30
0.0
 10
178.3996
 20
-48.2661
 30
0.0
 10
176.6192
 20
-47.1801
 30
0.0
 10
176.6192
 20
-47.1801
 30
0.0
 10
176.6192
 20
-47.1801
 30
0.0
 10
176.6193
 20
-47.18
 30
0.0
 10
176.6193
 20
-47.18
 30
0.0
  0
SPLINE
  5
83
330
1F
100
AcDbEntity
  8
layer 1
 62
     7
100
AcDbSpline
210
0.0
220
0.0
230
1.0
 70
    11
 71
     3
 72
    44
 73
    40
 74
     0
 42
0.0000000001
 43
0.0000000001
 12
1.0
 22
0.0
 32
0.0
 13
1.0
 23
0.0
 33
0.0
 40
0.0
 40
0.0
 40
0.0
 40
0.0
 40
0.0909090909090909
 40
0.0909090909090909
 40
0.0909090909090909
 40
0.0909090909090909
 40
0.1818181818181818
 40
0.1818181818181818
 40
0.1818181818181818
 40
0.1818181818181818
 40
0.2727272727272727
 40
0.2727272727272727
 40
0.2727272727272727
 40
0.2727272727272727
 40
0.3636363636363636
 40
0.3636363636363636
 40
0.3636363636363636
 40
0.3636363636363636
 40
0.4545454545454545
 40
0.4545454545454545
 40
0.4545454545454545
 40
0.4545454545454545
 40
0.5454545454545454
 40
0.5454545454545454
 40
0.5454545454545454
 40
0.5454545454545454
 40
0.6363636363636364
 40
0.6363636363636364
 40
0.6363636363636364
 40
0.6363636363636364
 40
0.7272727272727273
 40
0.7272727272727273
 40
0.7272727272727273
 40
0.7272727272727273
 40
0.8181818181818182
 40
0.8181818181818182
 40
0.8181818181818182
 40
0.8181818181818182
 40
1.0
 40
1.0
 40
1.0
 40
1.0
 10
161.3741
 20
-38.3071
 30
0.0
 10
160.6414
 20
-39.3258
 30
0.0
 10
159.6538
 20
-40.0618
 30
0.0
 10
156.1434
 20
-39.338
 30
0.0
 10
156.1434
 20
-39.338
 30
0.0
 10
155.9829
 20
-41.5448
 30
0.0
 10
154.0114
 20
-42.1295
 30
0.0
 10
152.7623
 20
-41.5019
 30
0.0
 10
152.7623
 20
-41.5019
 30
0.0
 10
151.4474
 20
-40.8412
 30
0.0
 10
150.9
 20
-38.7128
 30
0.0
 10
152.7573
 20
-37.6051
 30
0.0
 10
152.7573
 20
-37.6051
 30
0.0
 10
150.0718
 20
-35.5961
 30
0.0
 10
144.5523
 20
-37.9843
 30
0.0
 10
142.6514
 20
-38.4314
 30
0.0
 10
142.6514
 20
-38.4314
 30
0.0
 10
141.8378
 20
-38.7082
 30
0.0
 10
141.6995
 20
-39.3921
 30
0.0
 10
142.206
 20
-39.5208
 30
0.0
 10
142.206
 20
-39.5208
 30
0.0
 10
142.7212
 20
-39.8562
 30
0.0
 10
156.8637
 20
-43.8459
 30
0.0
 10
160.378
 20
-43.8489
 30
0.0
 10
160.378
 20
-43.8489
 30
0.0
 10
161.6591
 20
-43.9804
 30
0.0
 10
162.2604
 20
-43.5408
 30
0.0
 10
162.6816
 20
-43.0447
 30
0.0
 10
162.6816
 20
-43.0447
 30
0.0
 10
161.1545
 20
-41.603
 30
0.0
 10
161.4378
 20
-39.7104
 30
0.0
 10
162.8756
 20
-39.181
 30
0.0
 10
162.8756
 20
-39.181
 30
0.0
 10
161.9641
 20
-38.6505
 30
0.0
 10
162.4827
 20
-38.9523
 30
0.0
 10
161.3742
 20
-38.3071
 30
0.0
 10
161.3742
 20
-38.3071
 30
0.0
 10
161.3742
 20
-38.3071
 30
0.0
 10
161.3741
 20
-38.3071
 30
0.0
 10
161.3741
 20
-38.3071
 30
0.0
  0
SPLINE
  5
84
330
1F
100
AcDbEntity
  8
layer 1
 62
     7
100
AcDbSpline
210
0.0
220
0.0
230
1.0
 70
    11
 71
     3
 72
    32
 73
    28
 74
     0
 42
0.0000000001
 43
0.0000000001
 12
1.0
 22
0.0
 32
0.0
 13
1.0
 23
0.0
 33
0.0
 40
0.0
 40
0.0
 40
0.0
 40
0.0
 40
0.125
 40
0.125
 40
0.125
 40
0.125
 40
0.25
 40
0.25
 40
0.25
 40
0.25
 40
0.375
 40
0.375
 40
0.375
 40
0.375
 40
0.5
 40
0.5
 40
0.5
 40
0.5
 40
0.625
 40
0.625
 40
0.625
 40
0.625
 40
0.75
 40
0.75
 40
0.75
 40
0.75
 40
1.0
 40
1.0
 40
1.0
 40
1.0
 10
140.6735
 20
-56.231
 30
0.0
 10
140.6292
 20
-55.2842
 30
0.0
 10
139.9954
 20
-55.4741
 30
0.0
 10
139.8057
 20
-55.9211
 30
0.0
 10
139.8057
 20
-55.9211
 30
0.0
 10
139.2514
 20
-57.0928
 30
0.0
 10
136.5708
 20
-62.3934
 30
0.0
 10
131.7718
 20
-59.0783
 30
0.0
 10
131.7718
 20
-59.0783
 30
0.0
 10
129.2468
 20
-57.3341
 30
0.0
 10
130.3253
 20
-51.4066
 30
0.0
 10
134.2015
 20
-52.3667
 30
0.0
 10
134.2015
 20
-52.3667
 30
0.0
 10
135.201
 20
-52.8176
 30
0.0
 10
135.4446
 20
-51.7085
 30
0.0
 10
134.7162
 20
-51.3162
 30
0.0
 10
134.7162
 20
-51.3162
 30
0.0
 10
126.2559
 20
-46.8994
 30
0.0
 10
123.6101
 20
-58.4839
 30
0.0
 10
128.3315
 20
-62.5239
 30
0.0
 10
128.3315
 20
-62.5239
 30
0.0
 10
131.6974
 20
-65.404
 30
0.0
 10
140.9063
 20
-65.0826
 30
0.0
 10
140.6735
 20
-56.2309
 30
0.0
 10
140.6735
 20
-56.2309
 30
0.0
 10
140.6735
 20
-56.2309
 30
0.0
 10
140.6735
 20
-56.231
 30
0.0
 10
140.6735
 20
-56.231
 30
0.0
  0
SPLINE
  5
85
330
1F
100
AcDbEntity
  8
layer 1
 62
     7
100
AcDbSpline
210
0.0
220
0.0
230
1.0
 70
    11
 71
     3
 72
    28
 73
    24
 74
     0
 42
0.0000000001
 43
0.0000000001
 12
1.0
 22
0.0
 32
0.0
 13
1.0
 23
0.0
 33
0.0
 40
0.0
 40
0.0
 40
0.0
 40
0.0
 40
0.1428571428571428
 40
0.1428571428571428
 40
0.1428571428571428
 40
0.1428571428571428
 40
0.2857142857142857
 40
0.2857142857142857
 40
0.2857142857142857
 40
0.2857142857142857
 40
0.4285714285714285
 40
0.4285714285714285
 40
0.4285714285714285
 40
0.4285714285714285
 40
0.5714285714285714
 40
0.5714285714285714
 40
0.5714285714285714
 40
0.5714285714285714
 40
0.7142857142857143
 40
0.7142857142857143
 40
0.7142857142857143
 40
0.7142857142857143
 40
1.0
 40
1.0
 40
1.0
 40
1.0
 10
145.4362
 20
-47.2319
 30
0.0
 10
145.1218
 20
-47.0758
 30
0.0
 10
144.612
 20
-47.3041
 30
0.0
 10
144.8435
 20
-47.7006
 30
0.0
 10
144.8435
 20
-47.7006
 30
0.0
 10
147.3637
 20
-50.8065
 30
0.0
 10
149.7103
 20
-53.699
 30
0.0
 10
151.9029
 20
-56.5644
 30
0.0
 10
151.9029
 20
-56.5644
 30
0.0
 10
152.9916
 20
-55.8266
 30
0.0
 10
153.0928
 20
-55.8809
 30
0.0
 10
153.9401
 20
-55.3288
 30
0.0
 10
153.9401
 20
-55.3288
 30
0.0
 10
154.3915
 20
-55.0665
 30
0.0
 10
153.8257
 20
-54.5612
 30
0.0
 10
153.476
 20
-54.1759
 30
0.0
 10
153.476
 20
-54.1759
 30
0.0
 10
151.4123
 20
-51.9338
 30
0.0
 10
146.5202
 20
-47.8818
 30
0.0
 10
145.4362
 20
-47.2318
 30
0.0
 10
145.4362
 20
-47.2318
 30
0.0
 10
145.4362
 20
-47.2318
 30
0.0
 10
145.4362
 20
-47.2319
 30
0.0
 10
145.4362
 20
-47.2319
 30
0.0
  0
SPLINE
  5
86
330
1F
100
AcDbEntity
  8
layer 1
 62
     7
100
AcDbSpline
210
0.0
220
0.0
230
1.0
 70
    11
 71
     3
 72
    44
 73
    40
 74
     0
 42
0.0000000001
 43
0.0000000001
 12
1.0
 22
0.0
 32
0.0
 13
1.0
 23
0.0
 33
0.0
 40
0.0
 40
0.0
 40
0.0
 40
0.0
 40
0.0909090909090909
 40
0.0909090909090909
 40
0.0909090909090909
 40
0.0909090909090909
 40
0.1818181818181818
 40
0.1818181818181818
 40
0.1818181818181818
 40
0.1818181818181818
 40
0.2727272727272727
 40
0.2727272727272727
 40
0.2727272727272727
 40
0.2727272727272727
 40
0.3636363636363636
 40
0.3636363636363636
 40
0.3636363636363636
 40
0.3636363636363636
 40
0.4545454545454545
 40
0.4545454545454545
 40
0.4545454545454545
 40
0.4545454545454545
 40
0.5454545454545454
 40
0.5454545454545454
 40
0.5454545454545454
 40
0.5454545454545454
 40
0.6363636363636364
 40
0.6363636363636364
 40
0.6363636363636364
 40
0.6363636363636364
 40
0.7272727272727273
 40
0.7272727272727273
 40
0.7272727272727273
 40
0.7272727272727273
 40
0.8181818181818182
 40
0.8181818181818182
 40
0.8181818181818182
 40
0.8181818181818182
 40
1.0
 40
1.0
 40
1.0
 40
1.0
 10
123.672
 20
-23.444
 30
0.0
 10
124.346
 20
-23.6514
 30
0.0
 10
124.546
 20
-23.6175
 30
0.0
 10
124.6242
 20
-22.7699
 30
0.0
 10
124.6242
 20
-22.7699
 30
0.0
 10
124.8049
 20
-19.5431
 30
0.0
 10
117.2566
 20
-19.2267
 30
0.0
 10
117.8402
 20
-25.3325
 30
0.0
 10
117.8402
 20
-25.3325
 30
0.0
 10
118.4883
 20
-28.1568
 30
0.0
 10
120.3228
 20
-29.5351
 30
0.0
 10
123.9209
 20
-32.256
 30
0.0
 10
123.9209
 20
-32.256
 30
0.0
 10
125.5681
 20
-34.1949
 30
0.0
 10
126.0087
 20
-31.9518
 30
0.0
 10
126.1101
 20
-31.4115
 30
0.0
 10
126.1101
 20
-31.4115
 30
0.0
 10
126.919
 20
-29.8137
 30
0.0
 10
128.0765
 20
-30.476
 30
0.0
 10
129.8381
 20
-28.2083
 30
0.0
 10
129.8381
 20
-28.2083
 30
0.0
 10
129.2417
 20
-28.0595
 30
0.0
 10
127.8874
 20
-26.8051
 30
0.0
 10
127.6642
 20
-26.4441
 30
0.0
 10
127.6642
 20
-26.4441
 30
0.0
 10
127.1405
 20
-29.3743
 30
0.0
 10
124.7743
 20
-27.9433
 30
0.0
 10
125.1802
 20
-31.1778
 30
0.0
 10
125.1802
 20
-31.1778
 30
0.0
 10
123.6289
 20
-31.6669
 30
0.0
 10
122.7859
 20
-29.8579
 30
0.0
 10
123.0059
 20
-29.2008
 30
0.0
 10
123.0059
 20
-29.2008
 30
0.0
 10
120.9983
 20
-28.9297
 30
0.0
 10
118.5168
 20
-22.4326
 30
0.0
 10
123.672
 20
-23.4437
 30
0.0
 10
123.672
 20
-23.4437
 30
0.0
 10
123.672
 20
-23.4437
 30
0.0
 10
123.672
 20
-23.444
 30
0.0
 10
123.672
 20
-23.444
 30
0.0
  0
SPLINE
  5
87
330
1F
100
AcDbEntity
  8
layer 1
 62
     7
100
AcDbSpline
210
0.0
220
0.0
230
1.0
 70
    11
 71
     3
 72
    28
 73
    24
 74
     0
 42
0.0000000001
 43
0.0000000001
 12
1.0
 22
0.0
 32
0.0
 13
1.0
 23
0.0
 33
0.0
 40
0.0
 40
0.0
 40
0.0
 40
0.0
 40
0.1428571428571428
 40
0.1428571428571428
 40
0.1428571428571428
 40
0.1428571428571428
 40
0.2857142857142857
 40
0.2857142857142857
 40
0.2857142857142857
 40
0.2857142857142857
 40
0.4285714285714285
 40
0.4285714285714285
 40
0.4285714285714285
 40
0.4285714285714285
 40
0.5714285714285714
 40
0.5714285714285714
 40
0.5714285714285714
 40
0.5714285714285714
 40
0.7142857142857143
 40
0.7142857142857143
 40
0.7142857142857143
 40
0.7142857142857143
 40
1.0
 40
1.0
 40
1.0
 40
1.0
 10
116.2299
 20
-25.3511
 30
0.0
 10
116.6813
 20
-25.0887
 30
0.0
 10
116.6073
 20
-24.3153
 30
0.0
 10
116.0341
 20
-24.1832
 30
0.0
 10
116.0341
 20
-24.1832
 30
0.0
 10
114.0896
 20
-23.8483
 30
0.0
 10
114.4424
 20
-22.8506
 30
0.0
 10
113.2522
 20
-22.439
 30
0.0
 10
113.2522
 20
-22.439
 30
0.0
 10
112.062
 20
-22.8506
 30
0.0
 10
112.4148
 20
-23.8483
 30
0.0
 10
110.4703
 20
-24.1832
 30
0.0
 10
110.4703
 20
-24.1832
 30
0.0
 10
109.8971
 20
-24.3153
 30
0.0
 10
109.8231
 20
-25.0886
 30
0.0
 10
110.2745
 20
-25.3511
 30
0.0
 10
110.2745
 20
-25.3511
 30
0.0
 10
110.9728
 20
-26.2905
 30
0.0
 10
112.7278
 20
-27.1599
 30
0.0
 10
113.2522
 20
-28.3597
 30
0.0
 10
113.2522
 20
-28.3597
 30
0.0
 10
113.7766
 20
-27.16
 30
0.0
 10
115.5316
 20
-26.2905
 30
0.0
 10
116.2299
 20
-25.3511
 30
0.0
  0
SPLINE
  5
88
330
1F
100
AcDbEntity
  8
layer 1
 62
     7
100
AcDbSpline
210
0.0
220
0.0
230
1.0
 70
    11
 71
     3
 72
    28
 73
    24
 74
     0
 42
0.0000000001
 43
0.0000000001
 12
1.0
 22
0.0
 32
0.0
 13
1.0
 23
0.0
 33
0.0
 40
0.0
 40
0.0
 40
0.0
 40
0.0
 40
0.1428571428571428
 40
0.1428571428571428
 40
0.1428571428571428
 40
0.1428571428571428
 40
0.2857142857142857
 40
0.2857142857142857
 40
0.2857142857142857
 40
0.2857142857142857
 40
0.4285714285714285
 40
0.4285714285714285
 40
0.4285714285714285
 40
0.4285714285714285
 40
0.5714285714285714
 40
0.5714285714285714
 40
0.5714285714285714
 40
0.5714285714285714
 40
0.7142857142857143
 40
0.7142857142857143
 40
0.7142857142857143
 40
0.7142857142857143
 40
1.0
 40
1.0
 40
1.0
 40
1.0
 10
117.0046
 20
-74.3318
 30
0.0
 10
117.0255
 20
-73.6389
 30
0.0
 10
117.382
 20
-73.1238
 30
0.0
 10
116.8088
 20
-72.9918
 30
0.0
 10
116.8088
 20
-72.9918
 30
0.0
 10
114.6348
 20
-72.6281
 30
0.0
 10
114.8155
 20
-71.9748
 30
0.0
 10
113.2522
 20
-71.8214
 30
0.0
 10
113.2522
 20
-71.8214
 30
0.0
 10
111.6891
 20
-71.9748
 30
0.0
 10
111.8696
 20
-72.6281
 30
0.0
 10
109.6956
 20
-72.9918
 30
0.0
 10
109.6956
 20
-72.9918
 30
0.0
 10
109.1224
 20
-73.1238
 30
0.0
 10
109.4789
 20
-73.6389
 30
0.0
 10
109.4998
 20
-74.3318
 30
0.0
 10
109.4998
 20
-74.3318
 30
0.0
 10
109.8252
 20
-76.0172
 30
0.0
 10
112.1826
 20
-78.8663
 30
0.0
 10
113.2522
 20
-79.4348
 30
0.0
 10
113.2522
 20
-79.4348
 30
0.0
 10
114.3218
 20
-78.8663
 30
0.0
 10
116.6792
 20
-76.0172
 30
0.0
 10
117.0046
 20
-74.3318
 30
0.0
  0
SPLINE
  5
89
330
1F
100
AcDbEntity
  8
layer 1
 62
     7
100
AcDbSpline
210
0.0
220
0.0
230
1.0
 70
    11
 71
     3
 72
    20
 73
    16
 74
     0
 42
0.0000000001
 43
0.0000000001
 12
1.0
 22
0.0
 32
0.0
 13
1.0
 23
0.0
 33
0.0
 40
0.0
 40
0.0
 40
0.0
 40
0.0
 40
0.2
 40
0.2
 40
0.2
 40
0.2
 40
0.4
 40
0.4
 40
0.4
 40
0.4
 40
0.6
 40
0.6
 40
0.6
 40
0.6
 40
1.0
 40
1.0
 40
1.0
 40
1.0
 10
114.9796
 20
-109.6503
 30
0.0
 10
115.3774
 20
-107.4167
 30
0.0
 10
114.5987
 20
-103.851
 30
0.0
 10
113.2522
 20
-101.6737
 30
0.0
 10
113.2522
 20
-101.6737
 30
0.0
 10
111.9056
 20
-103.851
 30
0.0
 10
111.1269
 20
-107.4165
 30
0.0
 10
111.5248
 20
-109.6503
 30
0.0
 10
111.5248
 20
-109.6503
 30
0.0
 10
111.7406
 20
-110.8618
 30
0.0
 10
112.1936
 20
-111.6971
 30
0.0
 10
113.2522
 20
-111.7766
 30
0.0
 10
113.2522
 20
-111.7766
 30
0.0
 10
114.3108
 20
-111.6971
 30
0.0
 10
114.7638
 20
-110.8618
 30
0.0
 10
114.9796
 20
-109.6503
 30
0.0
  0
SPLINE
  5
8A
330
1F
100
AcDbEntity
  8
layer 1
 62
     7
100
AcDbSpline
210
0.0
220
0.0
230
1.0
 70
    11
 71
     3
 72
    24
 73
    20
 74
     0
 42
0.0000000001
 43
0.0000000001
 12
1.0
 22
0.0
 32
0.0
 13
1.0
 23
0.0
 33
0.0
 40
0.0
 40
0.0
 40
0.0
 40
0.0
 40
0.1666666666666667
 40
0.1666666666666667
 40
0.1666666666666667
 40
0.1666666666666667
 40
0.3333333333333333
 40
0.3333333333333333
 40
0.3333333333333333
 40
0.3333333333333333
 40
0.5
 40
0.5
 40
0.5
 40
0.5
 40
0.6666666666666666
 40
0.6666666666666666
 40
0.6666666666666666
 40
0.6666666666666666
 40
1.0
 40
1.0
 40
1.0
 40
1.0
 10
157.1188
 20
-58.2826
 30
0.0
 10
156.282
 20
-58.9916
 30
0.0
 10
155.0631
 20
-59.7683
 30
0.0
 10
154.5093
 20
-60.1613
 30
0.0
 10
154.5093
 20
-60.1613
 30
0.0
 10
155.2555
 20
-61.1317
 30
0.0
 10
156.7656
 20
-62.1856
 30
0.0
 10
157.8334
 20
-62.9041
 30
0.0
 10
157.8334
 20
-62.9041
 30
0.0
 10
158.9554
 20
-63.6048
 30
0.0
 10
159.7965
 20
-63.8407
 30
0.0
 10
160.8847
 20
-62.8551
 30
0.0
 10
160.8847
 20
-62.8551
 30
0.0
 10
161.3678
 20
-62.4489
 30
0.0
 10
161.303
 20
-62.0471
 30
0.0
 10
160.8372
 20
-61.8091
 30
0.0
 10
160.8372
 20
-61.8091
 30
0.0
 10
159.4416
 20
-60.4616
 30
0.0
 10
158.4633
 20
-59.6034
 30
0.0
 10
157.1188
 20
-58.2826
 30
0.0
  0
SPLINE
  5
8B
330
1F
100
AcDbEntity
  8
layer 1
 62
     7
100
AcDbSpline
210
0.0
220
0.0
230
1.0
 70
    11
 71
     3
 72
    24
 73
    20
 74
     0
 42
0.0000000001
 43
0.0000000001
 12
1.0
 22
0.0
 32
0.0
 13
1.0
 23
0.0
 33
0.0
 40
0.0
 40
0.0
 40
0.0
 40
0.0
 40
0.1666666666666667
 40
0.1666666666666667
 40
0.1666666666666667
 40
0.1666666666666667
 40
0.3333333333333333
 40
0.3333333333333333
 40
0.3333333333333333
 40
0.3333333333333333
 40
0.5
 40
0.5
 40
0.5
 40
0.5
 40
0.6666666666666666
 40
0.6666666666666666
 40
0.6666666666666666
 40
0.6666666666666666
 40
1.0
 40
1.0
 40
1.0
 40
1.0
 10
157.7114
 20
-47.0306
 30
0.0
 10
157.397
 20
-46.8745
 30
0.0
 10
156.8872
 20
-47.1028
 30
0.0
 10
157.1187
 20
-47.4993
 30
0.0
 10
157.1187
 20
-47.4993
 30
0.0
 10
158.1633
 20
-48.0897
 30
0.0
 10
160.0403
 20
-49.2382
 30
0.0
 10
161.3608
 20
-50.3597
 30
0.0
 10
161.3608
 20
-50.3597
 30
0.0
 10
162.4495
 20
-49.6219
 30
0.0
 10
162.5506
 20
-49.6762
 30
0.0
 10
163.398
 20
-49.1241
 30
0.0
 10
163.398
 20
-49.1241
 30
0.0
 10
163.8548
 20
-48.8583
 30
0.0
 10
163.2862
 20
-48.4489
 30
0.0
 10
162.5315
 20
-48.3066
 30
0.0
 10
162.5315
 20
-48.3066
 30
0.0
 10
160.3672
 20
-47.6073
 30
0.0
 10
159.0302
 20
-47.3116
 30
0.0
 10
157.7114
 20
-47.0306
 30
0.0
  0
SPLINE
  5
8C
330
1F
100
AcDbEntity
  8
layer 1
 62
     7
100
AcDbSpline
210
0.0
220
0.0
230
1.0
 70
    11
 71
     3
 72
    28
 73
    24
 74
     0
 42
0.0000000001
 43
0.0000000001
 12
1.0
 22
0.0
 32
0.0
 13
1.0
 23
0.0
 33
0.0
 40
0.0
 40
0.0
 40
0.0
 40
0.0
 40
0.1428571428571428
 40
0.1428571428571428
 40
0.1428571428571428
 40
0.1428571428571428
 40
0.2857142857142857
 40
0.2857142857142857
 40
0.2857142857142857
 40
0.2857142857142857
 40
0.4285714285714285
 40
0.4285714285714285
 40
0.4285714285714285
 40
0.4285714285714285
 40
0.5714285714285714
 40
0.5714285714285714
 40
0.5714285714285714
 40
0.5714285714285714
 40
0.7142857142857143
 40
0.7142857142857143
 40
0.7142857142857143
 40
0.7142857142857143
 40
1.0
 40
1.0
 40
1.0
 40
1.0
 10
154.1228
 20
-49.6467
 30
0.0
 10
153.8084
 20
-49.4907
 30
0.0
 10
153.3993
 20
-49.8866
 30
0.0
 10
153.6307
 20
-50.2831
 30
0.0
 10
153.6307
 20
-50.2831
 30
0.0
 10
154.6417
 20
-50.9741
 30
0.0
 10
155.7473
 20
-51.9885
 30
0.0
 10
157.1685
 20
-52.9759
 30
0.0
 10
157.1685
 20
-52.9759
 30
0.0
 10
158.2572
 20
-52.238
 30
0.0
 10
157.4528
 20
-52.7284
 30
0.0
 10
158.3002
 20
-52.1763
 30
0.0
 10
158.3002
 20
-52.1763
 30
0.0
 10
158.757
 20
-51.9105
 30
0.0
 10
158.0878
 20
-51.6352
 30
0.0
 10
157.4337
 20
-51.3588
 30
0.0
 10
157.4337
 20
-51.3588
 30
0.0
 10
156.2421
 20
-50.7601
 30
0.0
 10
155.4081
 20
-50.1291
 30
0.0
 10
154.1228
 20
-49.6469
 30
0.0
 10
154.1228
 20
-49.6469
 30
0.0
 10
154.1228
 20
-49.6469
 30
0.0
 10
154.1228
 20
-49.6467
 30
0.0
 10
154.1228
 20
-49.6467
 30
0.0
  0
SPLINE
  5
8D
330
1F
100
AcDbEntity
  8
layer 1
 62
     7
100
AcDbSpline
210
0.0
220
0.0
230
1.0
 70
    11
 71
     3
 72
    20
 73
    16
 74
     0
 42
0.0000000001
 43
0.0000000001
 12
1.0
 22
0.0
 32
0.0
 13
1.0
 23
0.0
 33
0.0
 40
0.0
 40
0.0
 40
0.0
 40
0.0
 40
0.2
 40
0.2
 40
0.2
 40
0.2
 40
0.4
 40
0.4
 40
0.4
 40
0.4
 40
0.6
 40
0.6
 40
0.6
 40
0.6
 40
1.0
 40
1.0
 40
1.0
 40
1.0
 10
123.415
 20
-50.1435
 30
0.0
 10
123.2839
 20
-50.9503
 30
0.0
 10
123.9176
 20
-51.5396
 30
0.0
 10
124.1273
 20
-50.7538
 30
0.0
 10
124.1273
 20
-50.7538
 30
0.0
 10
126.6773
 20
-44.4025
 30
0.0
 10
132.8154
 20
-44.4949
 30
0.0
 10
136.3036
 20
-46.6012
 30
0.0
 10
136.3036
 20
-46.6012
 30
0.0
 10
137.0252
 20
-47.0
 30
0.0
 10
137.4079
 20
-46.2903
 30
0.0
 10
136.8183
 20
-45.5507
 30
0.0
 10
136.8183
 20
-45.5507
 30
0.0
 10
132.9384
 20
-40.7494
 30
0.0
 10
124.7887
 20
-43.0791
 30
0.0
 10
123.415
 20
-50.1435
 30
0.0
  0
SPLINE
  5
8E
330
1F
100
AcDbEntity
  8
layer 1
 62
     7
100
AcDbSpline
210
0.0
220
0.0
230
1.0
 70
    11
 71
     3
 72
    88
 73
    84
 74
     0
 42
0.0000000001
 43
0.0000000001
 12
1.0
 22
0.0
 32
0.0
 13
1.0
 23
0.0
 33
0.0
 40
0.0
 40
0.0
 40
0.0
 40
0.0
 40
0.0454545454545455
 40
0.0454545454545455
 40
0.0454545454545455
 40
0.0454545454545455
 40
0.0909090909090909
 40
0.0909090909090909
 40
0.0909090909090909
 40
0.0909090909090909
 40
0.1363636363636364
 40
0.1363636363636364
 40
0.1363636363636364
 40
0.1363636363636364
 40
0.1818181818181818
 40
0.1818181818181818
 40
0.1818181818181818
 40
0.1818181818181818
 40
0.2272727272727273
 40
0.2272727272727273
 40
0.2272727272727273
 40
0.2272727272727273
 40
0.2727272727272727
 40
0.2727272727272727
 40
0.2727272727272727
 40
0.2727272727272727
 40
0.3181818181818182
 40
0.3181818181818182
 40
0.3181818181818182
 40
0.3181818181818182
 40
0.3636363636363636
 40
0.3636363636363636
 40
0.3636363636363636
 40
0.3636363636363636
 40
0.4090909090909091
 40
0.4090909090909091
 40
0.4090909090909091
 40
0.4090909090909091
 40
0.4545454545454545
 40
0.4545454545454545
 40
0.4545454545454545
 40
0.4545454545454545
 40
0.5
 40
0.5
 40
0.5
 40
0.5
 40
0.5454545454545454
 40
0.5454545454545454
 40
0.5454545454545454
 40
0.5454545454545454
 40
0.5909090909090909
 40
0.5909090909090909
 40
0.5909090909090909
 40
0.5909090909090909
 40
0.6363636363636364
 40
0.6363636363636364
 40
0.6363636363636364
 40
0.6363636363636364
 40
0.6818181818181818
 40
0.6818181818181818
 40
0.6818181818181818
 40
0.6818181818181818
 40
0.7272727272727273
 40
0.7272727272727273
 40
0.7272727272727273
 40
0.7272727272727273
 40
0.7727272727272727
 40
0.7727272727272727
 40
0.7727272727272727
 40
0.7727272727272727
 40
0.8181818181818182
 40
0.8181818181818182
 40
0.8181818181818182
 40
0.8181818181818182
 40
0.8636363636363636
 40
0.8636363636363636
 40
0.8636363636363636
 40
0.8636363636363636
 40
0.9090909090909091
 40
0.9090909090909091
 40
0.9090909090909091
 40
0.9090909090909091
 40
1.0
 40
1.0
 40
1.0
 40
1.0
 10
123.3727
 20
-42.6492
 30
0.0
 10
123.588
 20
-43.2167
 30
0.0
 10
124.3436
 20
-43.4391
 30
0.0
 10
124.8467
 20
-42.754
 30
0.0
 10
124.8467
 20
-42.754
 30
0.0
 10
126.0629
 20
-41.1799
 30
0.0
 10
128.2271
 20
-39.4968
 30
0.0
 10
129.8539
 20
-38.8333
 30
0.0
 10
129.8539
 20
-38.8333
 30
0.0
 10
130.8551
 20
-38.525
 30
0.0
 10
130.6601
 20
-37.9575
 30
0.0
 10
129.9999
 20
-37.9574
 30
0.0
 10
129.9999
 20
-37.9574
 30
0.0
 10
127.0077
 20
-37.5137
 30
0.0
 10
125.9455
 20
-36.1323
 30
0.0
 10
125.2719
 20
-36.1943
 30
0.0
 10
125.2719
 20
-36.1943
 30
0.0
 10
124.8899
 20
-36.2295
 30
0.0
 10
123.0082
 20
-36.3587
 30
0.0
 10
123.7105
 20
-38.188
 30
0.0
 10
123.7105
 20
-38.188
 30
0.0
 10
124.7118
 20
-36.942
 30
0.0
 10
126.9374
 20
-37.9478
 30
0.0
 10
126.2322
 20
-39.5946
 30
0.0
 10
126.2322
 20
-39.5946
 30
0.0
 10
124.3128
 20
-42.7001
 30
0.0
 10
121.1947
 20
-39.1785
 30
0.0
 10
121.8519
 20
-36.7677
 30
0.0
 10
121.8519
 20
-36.7677
 30
0.0
 10
120.7465
 20
-36.833
 30
0.0
 10
119.1553
 20
-37.5031
 30
0.0
 10
118.4919
 20
-39.379
 30
0.0
 10
118.4919
 20
-39.379
 30
0.0
 10
118.2106
 20
-39.4523
 30
0.0
 10
117.7365
 20
-38.3285
 30
0.0
 10
118.0469
 20
-37.351
 30
0.0
 10
118.0469
 20
-37.351
 30
0.0
 10
117.4636
 20
-37.7412
 30
0.0
 10
116.4719
 20
-37.7447
 30
0.0
 10
116.0421
 20
-36.9248
 30
0.0
 10
116.0421
 20
-36.9248
 30
0.0
 10
116.0247
 20
-37.5924
 30
0.0
 10
116.0299
 20
-38.1265
 30
0.0
 10
115.9995
 20
-38.4002
 30
0.0
 10
115.9995
 20
-38.4002
 30
0.0
 10
115.5863
 20
-38.4095
 30
0.0
 10
115.2347
 20
-38.408
 30
0.0
 10
114.8955
 20
-38.3721
 30
0.0
 10
114.8955
 20
-38.3721
 30
0.0
 10
114.1703
 20
-40.3368
 30
0.0
 10
114.2713
 20
-41.3941
 30
0.0
 10
116.4199
 20
-45.631
 30
0.0
 10
116.4199
 20
-45.631
 30
0.0
 10
118.8837
 20
-49.2477
 30
0.0
 10
116.8706
 20
-51.2926
 30
0.0
 10
115.6479
 20
-52.7288
 30
0.0
 10
115.6479
 20
-52.7288
 30
0.0
 10
115.2927
 20
-53.3729
 30
0.0
 10
115.8143
 20
-53.8547
 30
0.0
 10
116.0249
 20
-54.3732
 30
0.0
 10
116.0249
 20
-54.3732
 30
0.0
 10
116.5014
 20
-55.0965
 30
0.0
 10
117.1215
 20
-56.6357
 30
0.0
 10
119.1429
 20
-58.4999
 30
0.0
 10
119.1429
 20
-58.4999
 30
0.0
 10
119.8811
 20
-59.1938
 30
0.0
 10
120.1197
 20
-58.6178
 30
0.0
 10
120.0367
 20
-58.1992
 30
0.0
 10
120.0367
 20
-58.1992
 30
0.0
 10
119.4404
 20
-55.5553
 30
0.0
 10
119.9516
 20
-51.8276
 30
0.0
 10
120.8852
 20
-49.049
 30
0.0
 10
120.8852
 20
-49.049
 30
0.0
 10
122.6495
 20
-42.1975
 30
0.0
 10
119.1083
 20
-42.6661
 30
0.0
 10
117.3617
 20
-43.1483
 30
0.0
 10
117.3617
 20
-43.1483
 30
0.0
 10
116.9142
 20
-41.4394
 30
0.0
 10
120.811
 20
-37.4088
 30
0.0
 10
123.3725
 20
-42.6492
 30
0.0
 10
123.3725
 20
-42.6492
 30
0.0
 10
123.3725
 20
-42.6492
 30
0.0
 10
123.3727
 20
-42.6492
 30
0.0
 10
123.3727
 20
-42.6492
 30
0.0
  0
SPLINE
  5
8F
330
1F
100
AcDbEntity
  8
layer 1
 62
     7
100
AcDbSpline
210
0.0
220
0.0
230
1.0
 70
    11
 71
     3
 72
    20
 73
    16
 74
     0
 42
0.0000000001
 43
0.0000000001
 12
1.0
 22
0.0
 32
0.0
 13
1.0
 23
0.0
 33
0.0
 40
0.0
 40
0.0
 40
0.0
 40
0.0
 40
0.2
 40
0.2
 40
0.2
 40
0.2
 40
0.4
 40
0.4
 40
0.4
 40
0.4
 40
0.6
 40
0.6
 40
0.6
 40
0.6
 40
1.0
 40
1.0
 40
1.0
 40
1.0
 10
116.8398
 20
-60.7903
 30
0.0
 10
116.7816
 20
-60.4013
 30
0.0
 10
116.14
 20
-60.2448
 30
0.0
 10
116.0085
 20
-60.6222
 30
0.0
 10
116.0085
 20
-60.6222
 30
0.0
 10
115.5523
 20
-61.5754
 30
0.0
 10
115.6298
 20
-62.0915
 30
0.0
 10
115.3997
 20
-63.2553
 30
0.0
 10
115.3997
 20
-63.2553
 30
0.0
 10
116.3882
 20
-64.0557
 30
0.0
 10
117.9195
 20
-63.4872
 30
0.0
 10
118.6678
 20
-63.3226
 30
0.0
 10
118.6678
 20
-63.3226
 30
0.0
 10
117.8705
 20
-62.6088
 30
0.0
 10
117.2878
 20
-62.4402
 30
0.0
 10
116.8398
 20
-60.7903
 30
0.0
  0
SPLINE
  5
90
330
1F
100
AcDbEntity
  8
layer 1
 62
     7
100
AcDbSpline
210
0.0
220
0.0
230
1.0
 70
    11
 71
     3
 72
    24
 73
    20
 74
     0
 42
0.0000000001
 43
0.0000000001
 12
1.0
 22
0.0
 32
0.0
 13
1.0
 23
0.0
 33
0.0
 40
0.0
 40
0.0
 40
0.0
 40
0.0
 40
0.1666666666666667
 40
0.1666666666666667
 40
0.1666666666666667
 40
0.1666666666666667
 40
0.3333333333333333
 40
0.3333333333333333
 40
0.3333333333333333
 40
0.3333333333333333
 40
0.5
 40
0.5
 40
0.5
 40
0.5
 40
0.6666666666666666
 40
0.6666666666666666
 40
0.6666666666666666
 40
0.6666666666666666
 40
1.0
 40
1.0
 40
1.0
 40
1.0
 10
174.2224
 20
-60.7755
 30
0.0
 10
174.8057
 20
-58.9599
 30
0.0
 10
173.0188
 20
-58.8215
 30
0.0
 10
172.6226
 20
-59.8772
 30
0.0
 10
172.6226
 20
-59.8772
 30
0.0
 10
172.2817
 20
-61.0298
 30
0.0
 10
171.2064
 20
-61.9088
 30
0.0
 10
169.5803
 20
-61.963
 30
0.0
 10
169.5803
 20
-61.963
 30
0.0
 10
168.8752
 20
-61.9864
 30
0.0
 10
168.7254
 20
-62.3015
 30
0.0
 10
168.9412
 20
-62.5253
 30
0.0
 10
168.9412
 20
-62.5253
 30
0.0
 10
169.8739
 20
-63.5415
 30
0.0
 10
173.1132
 20
-64.9765
 30
0.0
 10
175.5899
 20
-64.2119
 30
0.0
 10
175.5899
 20
-64.2119
 30
0.0
 10
174.6956
 20
-63.1181
 30
0.0
 10
173.9675
 20
-62.4052
 30
0.0
 10
174.2224
 20
-60.7755
 30
0.0
  0
SPLINE
  5
91
330
1F
100
AcDbEntity
  8
layer 1
 62
     7
100
AcDbSpline
210
0.0
220
0.0
230
1.0
 70
    11
 71
     3
 72
    28
 73
    24
 74
     0
 42
0.0000000001
 43
0.0000000001
 12
1.0
 22
0.0
 32
0.0
 13
1.0
 23
0.0
 33
0.0
 40
0.0
 40
0.0
 40
0.0
 40
0.0
 40
0.1428571428571428
 40
0.1428571428571428
 40
0.1428571428571428
 40
0.1428571428571428
 40
0.2857142857142857
 40
0.2857142857142857
 40
0.2857142857142857
 40
0.2857142857142857
 40
0.4285714285714285
 40
0.4285714285714285
 40
0.4285714285714285
 40
0.4285714285714285
 40
0.5714285714285714
 40
0.5714285714285714
 40
0.5714285714285714
 40
0.5714285714285714
 40
0.7142857142857143
 40
0.7142857142857143
 40
0.7142857142857143
 40
0.7142857142857143
 40
1.0
 40
1.0
 40
1.0
 40
1.0
 10
164.8817
 20
-64.5307
 30
0.0
 10
163.9818
 20
-64.5139
 30
0.0
 10
163.2363
 20
-64.3124
 30
0.0
 10
163.0295
 20
-63.2538
 30
0.0
 10
163.0295
 20
-63.2538
 30
0.0
 10
162.6886
 20
-64.4064
 30
0.0
 10
161.8341
 20
-65.9481
 30
0.0
 10
160.2081
 20
-66.0021
 30
0.0
 10
160.2081
 20
-66.0021
 30
0.0
 10
161.8067
 20
-67.5719
 30
0.0
 10
162.5403
 20
-67.8237
 30
0.0
 10
163.1033
 20
-68.0792
 30
0.0
 10
163.1033
 20
-68.0792
 30
0.0
 10
165.4875
 20
-68.6537
 30
0.0
 10
165.098
 20
-67.7221
 30
0.0
 10
164.135
 20
-65.7582
 30
0.0
 10
164.135
 20
-65.7582
 30
0.0
 10
164.4714
 20
-65.6111
 30
0.0
 10
164.911
 20
-65.4346
 30
0.0
 10
164.8818
 20
-64.5308
 30
0.0
 10
164.8818
 20
-64.5308
 30
0.0
 10
164.8818
 20
-64.5308
 30
0.0
 10
164.8817
 20
-64.5307
 30
0.0
 10
164.8817
 20
-64.5307
 30
0.0
  0
SPLINE
  5
92
330
1F
100
AcDbEntity
  8
layer 1
 62
     7
100
AcDbSpline
210
0.0
220
0.0
230
1.0
 70
    11
 71
     3
 72
    28
 73
    24
 74
     0
 42
0.0000000001
 43
0.0000000001
 12
1.0
 22
0.0
 32
0.0
 13
1.0
 23
0.0
 33
0.0
 40
0.0
 40
0.0
 40
0.0
 40
0.0
 40
0.1428571428571428
 40
0.1428571428571428
 40
0.1428571428571428
 40
0.1428571428571428
 40
0.2857142857142857
 40
0.2857142857142857
 40
0.2857142857142857
 40
0.2857142857142857
 40
0.4285714285714285
 40
0.4285714285714285
 40
0.4285714285714285
 40
0.4285714285714285
 40
0.5714285714285714
 40
0.5714285714285714
 40
0.5714285714285714
 40
0.5714285714285714
 40
0.7142857142857143
 40
0.7142857142857143
 40
0.7142857142857143
 40
0.7142857142857143
 40
1.0
 40
1.0
 40
1.0
 40
1.0
 10
151.4702
 20
-67.3708
 30
0.0
 10
149.455
 20
-67.8319
 30
0.0
 10
147.3899
 20
-64.0779
 30
0.0
 10
151.2957
 20
-63.2511
 30
0.0
 10
151.2957
 20
-63.2511
 30
0.0
 10
151.1036
 20
-62.8792
 30
0.0
 10
150.7148
 20
-62.3703
 30
0.0
 10
150.6593
 20
-62.0863
 30
0.0
 10
150.6593
 20
-62.0863
 30
0.0
 10
149.3716
 20
-63.1441
 30
0.0
 10
146.6239
 20
-64.6227
 30
0.0
 10
144.3667
 20
-65.308
 30
0.0
 10
144.3667
 20
-65.308
 30
0.0
 10
145.8233
 20
-69.1357
 30
0.0
 10
148.9817
 20
-72.8076
 30
0.0
 10
151.9858
 20
-68.125
 30
0.0
 10
151.9858
 20
-68.125
 30
0.0
 10
152.259
 20
-67.757
 30
0.0
 10
152.1305
 20
-67.2649
 30
0.0
 10
151.4703
 20
-67.3708
 30
0.0
 10
151.4703
 20
-67.3708
 30
0.0
 10
151.4703
 20
-67.3708
 30
0.0
 10
151.4702
 20
-67.3708
 30
0.0
 10
151.4702
 20
-67.3708
 30
0.0
  0
SPLINE
  5
93
330
1F
100
AcDbEntity
  8
layer 1
 62
     7
100
AcDbSpline
210
0.0
220
0.0
230
1.0
 70
    11
 71
     3
 72
    20
 73
    16
 74
     0
 42
0.0000000001
 43
0.0000000001
 12
1.0
 22
0.0
 32
0.0
 13
1.0
 23
0.0
 33
0.0
 40
0.0
 40
0.0
 40
0.0
 40
0.0
 40
0.2
 40
0.2
 40
0.2
 40
0.2
 40
0.4
 40
0.4
 40
0.4
 40
0.4
 40
0.6
 40
0.6
 40
0.6
 40
0.6
 40
1.0
 40
1.0
 40
1.0
 40
1.0
 10
137.811
 20
-24.5931
 30
0.0
 10
136.2824
 20
-23.7034
 30
0.0
 10
135.5895
 20
-26.1553
 30
0.0
 10
137.1838
 20
-26.6891
 30
0.0
 10
137.1838
 20
-26.6891
 30
0.0
 10
138.6602
 20
-27.1613
 30
0.0
 10
139.374
 20
-26.9382
 30
0.0
 10
141.3005
 20
-26.6242
 30
0.0
 10
141.3005
 20
-26.6242
 30
0.0
 10
139.8277
 20
-25.767
 30
0.0
 10
138.4458
 20
-24.9627
 30
0.0
 10
137.811
 20
-24.5932
 30
0.0
 10
137.811
 20
-24.5932
 30
0.0
 10
137.811
 20
-24.5932
 30
0.0
 10
137.811
 20
-24.5931
 30
0.0
 10
137.811
 20
-24.5931
 30
0.0
  0
SPLINE
  5
94
330
1F
100
AcDbEntity
  8
layer 1
 62
     7
100
AcDbSpline
210
0.0
220
0.0
230
1.0
 70
    11
 71
     3
 72
    32
 73
    28
 74
     0
 42
0.0000000001
 43
0.0000000001
 12
1.0
 22
0.0
 32
0.0
 13
1.0
 23
0.0
 33
0.0
 40
0.0
 40
0.0
 40
0.0
 40
0.0
 40
0.125
 40
0.125
 40
0.125
 40
0.125
 40
0.25
 40
0.25
 40
0.25
 40
0.25
 40
0.375
 40
0.375
 40
0.375
 40
0.375
 40
0.5
 40
0.5
 40
0.5
 40
0.5
 40
0.625
 40
0.625
 40
0.625
 40
0.625
 40
0.75
 40
0.75
 40
0.75
 40
0.75
 40
1.0
 40
1.0
 40
1.0
 40
1.0
 10
138.4666
 20
-30.6036
 30
0.0
 10
140.6514
 20
-31.5338
 30
0.0
 10
139.6733
 20
-34.4355
 30
0.0
 10
137.6778
 20
-34.7706
 30
0.0
 10
137.6778
 20
-34.7706
 30
0.0
 10
136.2891
 20
-35.0038
 30
0.0
 10
134.4786
 20
-34.1876
 30
0.0
 10
134.2807
 20
-32.0816
 30
0.0
 10
134.2807
 20
-32.0816
 30
0.0
 10
132.264
 20
-33.5389
 30
0.0
 10
131.178
 20
-33.8657
 30
0.0
 10
130.0803
 20
-34.1749
 30
0.0
 10
130.0803
 20
-34.1749
 30
0.0
 10
129.3102
 20
-34.4978
 30
0.0
 10
129.5268
 20
-34.8954
 30
0.0
 10
129.952
 20
-35.1227
 30
0.0
 10
129.952
 20
-35.1227
 30
0.0
 10
132.5729
 20
-36.5237
 30
0.0
 10
141.0267
 20
-36.859
 30
0.0
 10
142.5025
 20
-33.6455
 30
0.0
 10
142.5025
 20
-33.6455
 30
0.0
 10
144.7726
 20
-29.5098
 30
0.0
 10
139.1834
 20
-27.5308
 30
0.0
 10
138.4665
 20
-30.6036
 30
0.0
 10
138.4665
 20
-30.6036
 30
0.0
 10
138.4665
 20
-30.6036
 30
0.0
 10
138.4666
 20
-30.6036
 30
0.0
 10
138.4666
 20
-30.6036
 30
0.0
  0
SPLINE
  5
95
330
1F
100
AcDbEntity
  8
layer 1
 62
     7
100
AcDbSpline
210
0.0
220
0.0
230
1.0
 70
    11
 71
     3
 72
    40
 73
    36
 74
     0
 42
0.0000000001
 43
0.0000000001
 12
1.0
 22
0.0
 32
0.0
 13
1.0
 23
0.0
 33
0.0
 40
0.0
 40
0.0
 40
0.0
 40
0.0
 40
0.1
 40
0.1
 40
0.1
 40
0.1
 40
0.2
 40
0.2
 40
0.2
 40
0.2
 40
0.3
 40
0.3
 40
0.3
 40
0.3
 40
0.4
 40
0.4
 40
0.4
 40
0.4
 40
0.5
 40
0.5
 40
0.5
 40
0.5
 40
0.6
 40
0.6
 40
0.6
 40
0.6
 40
0.7
 40
0.7
 40
0.7
 40
0.7
 40
0.8
 40
0.8
 40
0.8
 40
0.8
 40
1.0
 40
1.0
 40
1.0
 40
1.0
 10
124.9168
 20
-17.0884
 30
0.0
 10
123.6029
 20
-17.666
 30
0.0
 10
123.8879
 20
-18.9268
 30
0.0
 10
123.6931
 20
-19.3173
 30
0.0
 10
123.6931
 20
-19.3173
 30
0.0
 10
126.7
 20
-18.8029
 30
0.0
 10
128.9778
 20
-21.2849
 30
0.0
 10
130.0012
 20
-23.2451
 30
0.0
 10
130.0012
 20
-23.2451
 30
0.0
 10
130.6553
 20
-24.1712
 30
0.0
 10
131.7742
 20
-23.8344
 30
0.0
 10
131.883
 20
-22.7278
 30
0.0
 10
131.883
 20
-22.7278
 30
0.0
 10
133.6693
 20
-23.5769
 30
0.0
 10
132.4303
 20
-26.5344
 30
0.0
 10
129.4333
 20
-24.7469
 30
0.0
 10
129.4333
 20
-24.7469
 30
0.0
 10
128.9263
 20
-24.2585
 30
0.0
 10
127.9602
 20
-25.2648
 30
0.0
 10
129.1811
 20
-26.0388
 30
0.0
 10
129.1811
 20
-26.0388
 30
0.0
 10
132.0704
 20
-26.6781
 30
0.0
 10
131.2419
 20
-27.4301
 30
0.0
 10
132.3363
 20
-27.7379
 30
0.0
 10
132.3363
 20
-27.7379
 30
0.0
 10
132.436
 20
-25.0218
 30
0.0
 10
133.8733
 20
-23.5221
 30
0.0
 10
135.5303
 20
-23.2656
 30
0.0
 10
135.5303
 20
-23.2656
 30
0.0
 10
134.0574
 20
-22.4084
 30
0.0
 10
125.5518
 20
-17.4579
 30
0.0
 10
124.9169
 20
-17.0884
 30
0.0
 10
124.9169
 20
-17.0884
 30
0.0
 10
124.9169
 20
-17.0884
 30
0.0
 10
124.9168
 20
-17.0884
 30
0.0
 10
124.9168
 20
-17.0884
 30
0.0
  0
SPLINE
  5
96
330
1F
100
AcDbEntity
  8
layer 1
 62
     7
100
AcDbSpline
210
0.0
220
0.0
230
1.0
 70
    11
 71
     3
 72
    44
 73
    40
 74
     0
 42
0.0000000001
 43
0.0000000001
 12
1.0
 22
0.0
 32
0.0
 13
1.0
 23
0.0
 33
0.0
 40
0.0
 40
0.0
 40
0.0
 40
0.0
 40
0.0909090909090909
 40
0.0909090909090909
 40
0.0909090909090909
 40
0.0909090909090909
 40
0.1818181818181818
 40
0.1818181818181818
 40
0.1818181818181818
 40
0.1818181818181818
 40
0.2727272727272727
 40
0.2727272727272727
 40
0.2727272727272727
 40
0.2727272727272727
 40
0.3636363636363636
 40
0.3636363636363636
 40
0.3636363636363636
 40
0.3636363636363636
 40
0.4545454545454545
 40
0.4545454545454545
 40
0.4545454545454545
 40
0.4545454545454545
 40
0.5454545454545454
 40
0.5454545454545454
 40
0.5454545454545454
 40
0.5454545454545454
 40
0.6363636363636364
 40
0.6363636363636364
 40
0.6363636363636364
 40
0.6363636363636364
 40
0.7272727272727273
 40
0.7272727272727273
 40
0.7272727272727273
 40
0.7272727272727273
 40
0.8181818181818182
 40
0.8181818181818182
 40
0.8181818181818182
 40
0.8181818181818182
 40
1.0
 40
1.0
 40
1.0
 40
1.0
 10
117.8818
 20
-12.994
 30
0.0
 10
116.5679
 20
-13.5716
 30
0.0
 10
116.1731
 20
-14.1883
 30
0.0
 10
116.1928
 20
-14.8293
 30
0.0
 10
116.1928
 20
-14.8293
 30
0.0
 10
116.6578
 20
-15.4235
 30
0.0
 10
117.0815
 20
-14.9587
 30
0.0
 10
117.6666
 20
-14.8345
 30
0.0
 10
117.6666
 20
-14.8345
 30
0.0
 10
116.9959
 20
-16.0736
 30
0.0
 10
117.6493
 20
-16.2686
 30
0.0
 10
116.6323
 20
-17.0036
 30
0.0
 10
116.6323
 20
-17.0036
 30
0.0
 10
117.0
 20
-17.4646
 30
0.0
 10
117.3318
 20
-17.1277
 30
0.0
 10
117.7626
 20
-17.202
 30
0.0
 10
117.7626
 20
-17.202
 30
0.0
 10
117.7599
 20
-18.8026
 30
0.0
 10
116.5208
 20
-17.6806
 30
0.0
 10
115.6707
 20
-19.078
 30
0.0
 10
115.6707
 20
-19.078
 30
0.0
 10
115.1278
 20
-19.1622
 30
0.0
 10
114.9849
 20
-20.7768
 30
0.0
 10
116.2774
 20
-20.2626
 30
0.0
 10
116.2774
 20
-20.2626
 30
0.0
 10
117.9499
 20
-18.7906
 30
0.0
 10
119.9484
 20
-18.6837
 30
0.0
 10
121.0428
 20
-18.9916
 30
0.0
 10
121.0428
 20
-18.9916
 30
0.0
 10
121.7866
 20
-18.6014
 30
0.0
 10
122.1246
 20
-17.2534
 30
0.0
 10
121.9924
 20
-15.3865
 30
0.0
 10
121.9924
 20
-15.3865
 30
0.0
 10
120.5195
 20
-14.5294
 30
0.0
 10
118.5166
 20
-13.3637
 30
0.0
 10
117.8817
 20
-12.994
 30
0.0
 10
117.8817
 20
-12.994
 30
0.0
 10
117.8817
 20
-12.994
 30
0.0
 10
117.8818
 20
-12.994
 30
0.0
 10
117.8818
 20
-12.994
 30
0.0
  0
ENDSEC
  0
SECTION
  2
OBJECTS
  0
DICTIONARY
  5
C
330
0
100
AcDbDictionary
281
     1
  3
ACAD_GROUP
350
D
  3
ACAD_LAYOUT
350
1A
  3
ACAD_MATERIAL
350
3B
  3
ACAD_MLEADERSTYLE
350
B8
  3
ACAD_MLINESTYLE
350
17
  3
ACAD_PLOTSETTINGS
350
19
  3
ACAD_PLOTSTYLENAME
350
E
  3
ACAD_TABLESTYLE
350
B7
  3
ACAD_VISUALSTYLE
350
2A
  0
DICTIONARY
  5
D
102
{ACAD_REACTORS
330
C
102
}
330
C
100
AcDbDictionary
281
     1
  0
DICTIONARY
  5
1A
102
{ACAD_REACTORS
330
C
102
}
330
C
100
AcDbDictionary
281
     1
  3
Layout1
350
1E
  3
Layout2
350
26
  3
Model
350
22
  0
DICTIONARY
  5
3B
102
{ACAD_REACTORS
330
C
102
}
330
C
100
AcDbDictionary
281
     1
  3
ByBlock
350
3D
  3
ByLayer
350
3C
  3
Global
350
3E
  0
DICTIONARY
  5
B8
102
{ACAD_REACTORS
330
C
102
}
330
C
100
AcDbDictionary
281
     1
  0
DICTIONARY
  5
17
102
{ACAD_REACTORS
330
C
102
}
330
C
100
AcDbDictionary
281
     1
  3
Standard
350
18
  0
DICTIONARY
  5
19
102
{ACAD_REACTORS
330
C
102
}
330
C
100
AcDbDictionary
281
     1
  0
ACDBDICTIONARYWDFLT
  5
E
102
{ACAD_REACTORS
330
C
102
}
330
C
100
AcDbDictionary
281
     1
  3
Normal
350
F
100
AcDbDictionaryWithDefault
340
F
  0
DICTIONARY
  5
B7
102
{ACAD_REACTORS
330
C
102
}
330
C
100
AcDbDictionary
281
     1
  0
DICTIONARY
  5
2A
102
{ACAD_REACTORS
330
C
102
}
330
C
100
AcDbDictionary
281
     1
  3
2dWireframe
350
2F
  3
3D Hidden
350
31
  3
3dWireframe
350
30
  3
Basic
350
32
  3
Brighten
350
36
  3
ColorChange
350
3A
  3
Conceptual
350
34
  3
Dim
350
35
  3
Facepattern
350
39
  3
Flat
350
2B
  3
FlatWithEdges
350
2C
  3
Gouraud
350
2D
  3
GouraudWithEdges
350
2E
  3
Linepattern
350
38
  3
Realistic
350
33
  3
Thicken
350
37
  0
LAYOUT
  5
1E
102
{ACAD_REACTORS
330
1A
102
}
330
1A
100
AcDbPlotSettings
  1

  2
none_device
  4

  6

 40
0.0
 41
0.0
 42
0.0
 43
0.0
 44
0.0
 45
0.0
 46
0.0
 47
0.0
 48
0.0
 49
0.0
140
0.0
141
0.0
142
1.0
143
1.0
 70
   688
 72
     0
 73
     0
 74
     5
  7

 75
    16
 76
     0
 77
     2
 78
   300
147
1.0
148
0.0
149
0.0
100
AcDbLayout
  1
Layout1
 70
     1
 71
     1
 10
0.0
 20
0.0
 11
12.0
 21
9.0
 12
0.0
 22
0.0
 32
0.0
 14
1.000000000000000E+20
 24
1.000000000000000E+20
 34
1.000000000000000E+20
 15
-1.000000000000000E+20
 25
-1.000000000000000E+20
 35
-1.000000000000000E+20
146
0.0
 13
0.0
 23
0.0
 33
0.0
 16
1.0
 26
0.0
 36
0.0
 17
0.0
 27
1.0
 37
0.0
 76
     0
330
1B
  0
LAYOUT
  5
26
102
{ACAD_REACTORS
330
1A
102
}
330
1A
100
AcDbPlotSettings
  1

  2
none_device
  4

  6

 40
0.0
 41
0.0
 42
0.0
 43
0.0
 44
0.0
 45
0.0
 46
0.0
 47
0.0
 48
0.0
 49
0.0
140
0.0
141
0.0
142
1.0
143
1.0
 70
   688
 72
     0
 73
     0
 74
     5
  7

 75
    16
 76
     0
 77
     2
 78
   300
147
1.0
148
0.0
149
0.0
100
AcDbLayout
  1
Layout2
 70
     1
 71
     2
 10
0.0
 20
0.0
 11
0.0
 21
0.0
 12
0.0
 22
0.0
 32
0.0
 14
0.0
 24
0.0
 34
0.0
 15
0.0
 25
0.0
 35
0.0
146
0.0
 13
0.0
 23
0.0
 33
0.0
 16
1.0
 26
0.0
 36
0.0
 17
0.0
 27
1.0
 37
0.0
 76
     0
330
23
  0
LAYOUT
  5
22
102
{ACAD_REACTORS
330
1A
102
}
330
1A
100
AcDbPlotSettings
  1

  2
none_device
  4

  6

 40
0.0
 41
0.0
 42
0.0
 43
0.0
 44
0.0
 45
0.0
 46
0.0
 47
0.0
 48
0.0
 49
0.0
140
0.0
141
0.0
142
1.0
143
1.0
 70
  1712
 72
     0
 73
     0
 74
     0
  7

 75
     0
 76
     0
 77
     2
 78
   300
147
1.0
148
0.0
149
0.0
100
AcDbLayout
  1
Model
 70
     1
 71
     0
 10
0.0
 20
0.0
 11
12.0
 21
9.0
 12
0.0
 22
0.0
 32
0.0
 14
30.1701
 24
-115.9169
 34
0.0
 15
196.6306
 25
131.7282
 35
0.0
146
0.0
 13
0.0
 23
0.0
 33
0.0
 16
1.0
 26
0.0
 36
0.0
 17
0.0
 27
1.0
 37
0.0
 76
     0
330
1F
331
29
  0
MATERIAL
  5
3D
102
{ACAD_REACTORS
330
3B
102
}
330
3B
100
AcDbMaterial
  1
ByBlock
 72
     1
 94
      127
  0
MATERIAL
  5
3C
102
{ACAD_REACTORS
330
3B
102
}
330
3B
100
AcDbMaterial
  1
ByLayer
 72
     1
 94
      127
  0
MATERIAL
  5
3E
102
{ACAD_REACTORS
330
3B
102
}
330
3B
100
AcDbMaterial
  1
Global
 72
     1
 94
      127
  0
MLINESTYLE
  5
18
102
{ACAD_REACTORS
330
17
102
}
330
17
100
AcDbMlineStyle
  2
Standard
 70
     0
  3

 62
   256
 51
90.0
 52
90.0
 71
     2
 49
0.5
 62
   256
  6
BYLAYER
 49
-0.5
 62
   256
  6
BYLAYER
  0
ACDBPLACEHOLDER
  5
F
102
{ACAD_REACTORS
330
E
102
}
330
E
  0
VISUALSTYLE
  5
2F
102
{ACAD_REACTORS
330
2A
102
}
102
{ACAD_XDICTIONARY
360
9F
102
}
330
2A
100
AcDbVisualStyle
  2
2dWireframe
 70
     4
 71
     0
 72
     2
 73
     0
 90
        0
 40
-0.6
 41
-30.0
 62
     5
 63
     7
421
 16777215
 74
     1
 91
        4
 64
     7
 65
   257
 75
     1
175
     1
 42
1.0
 92
        0
 66
   257
 43
1.0
 76
     1
 77
     6
 78
     2
 67
     7
 79
     5
170
     0
171
     0
290
     0
174
     0
 93
        1
 44
0.0
173
     0
291
     0
 45
0.0
  0
VISUALSTYLE
  5
31
102
{ACAD_REACTORS
330
2A
102
}
102
{ACAD_XDICTIONARY
360
A3
102
}
330
2A
100
AcDbVisualStyle
  2
3D Hidden
 70
     6
 71
     1
 72
     2
 73
     2
 90
        0
 40
-0.6
 41
-30.0
 62
     5
 63
     7
421
 16777215
 74
     2
 91
        2
 64
     7
 65
   257
 75
     2
175
     1
 42
40.0
 92
        0
 66
   257
 43
1.0
 76
     1
 77
     6
 78
     2
 67
     7
 79
     3
170
     0
171
     0
290
     0
174
     0
 93
        1
 44
0.0
173
     0
291
     0
 45
0.0
  0
VISUALSTYLE
  5
30
102
{ACAD_REACTORS
330
2A
102
}
102
{ACAD_XDICTIONARY
360
A1
102
}
330
2A
100
AcDbVisualStyle
  2
3dWireframe
 70
     5
 71
     0
 72
     2
 73
     0
 90
        0
 40
-0.6
 41
-30.0
 62
     5
 63
     7
421
 16777215
 74
     1
 91
        4
 64
     7
 65
   257
 75
     1
175
     1
 42
1.0
 92
        0
 66
   257
 43
1.0
 76
     1
 77
     6
 78
     2
 67
     7
 79
     5
170
     0
171
     0
290
     0
174
     0
 93
        1
 44
0.0
173
     0
291
     0
 45
0.0
  0
VISUALSTYLE
  5
32
102
{ACAD_REACTORS
330
2A
102
}
102
{ACAD_XDICTIONARY
360
A5
102
}
330
2A
100
AcDbVisualStyle
  2
Basic
 70
     7
 71
     1
 72
     0
 73
     1
 90
        0
 40
-0.6
 41
-30.0
 62
     5
 63
     7
421
 16777215
 74
     0
 91
        4
 64
     7
 65
   257
 75
     1
175
     1
 42
1.0
 92
        8
 66
     7
 43
1.0
 76
     1
 77
     6
 78
     2
 67
     7
 79
     5
170
     0
171
     0
290
     0
174
     0
 93
        1
 44
0.0
173
     0
291
     1
 45
0.0
  0
VISUALSTYLE
  5
36
102
{ACAD_REACTORS
330
2A
102
}
102
{ACAD_XDICTIONARY
360
AD
102
}
330
2A
100
AcDbVisualStyle
  2
Brighten
 70
    12
 71
     2
 72
     2
 73
     0
 90
        0
 40
-0.6
 41
-30.0
 62
     5
 63
     7
421
 16777215
 74
     1
 91
        4
 64
     7
 65
   257
 75
     1
175
     1
 42
1.0
 92
        8
 66
     7
 43
1.0
 76
     1
 77
     6
 78
     2
 67
     7
 79
     5
170
     0
171
     0
290
     0
174
     0
 93
        1
 44
50.0
173
     0
291
     1
 45
0.0
  0
VISUALSTYLE
  5
3A
102
{ACAD_REACTORS
330
2A
102
}
102
{ACAD_XDICTIONARY
360
B5
102
}
330
2A
100
AcDbVisualStyle
  2
ColorChange
 70
    16
 71
     2
 72
     2
 73
     3
 90
        0
 40
-0.6
 41
-30.0
 62
     5
 63
     8
421
  8421504
 74
     1
 91
        4
 64
     7
 65
   257
 75
     1
175
     1
 42
1.0
 92
        8
 66
     8
424
  8421504
 43
1.0
 76
     1
 77
     6
 78
     2
 67
     7
 79
     5
170
     0
171
     0
290
     0
174
     0
 93
        1
 44
0.0
173
     0
291
     1
 45
0.0
  0
VISUALSTYLE
  5
34
102
{ACAD_REACTORS
330
2A
102
}
102
{ACAD_XDICTIONARY
360
A9
102
}
330
2A
100
AcDbVisualStyle
  2
Conceptual
 70
     9
 71
     3
 72
     2
 73
     0
 90
        0
 40
-0.6
 41
-30.0
 62
     5
 63
     7
421
 16777215
 74
     2
 91
        2
 64
     7
 65
   257
 75
     1
175
     1
 42
40.0
 92
        8
 66
     7
 43
1.0
 76
     1
 77
     6
 78
     2
 67
     7
 79
     3
170
     0
171
     0
290
     0
174
     0
 93
        1
 44
0.0
173
     0
291
     0
 45
0.0
  0
VISUALSTYLE
  5
35
102
{ACAD_REACTORS
330
2A
102
}
102
{ACAD_XDICTIONARY
360
AB
102
}
330
2A
100
AcDbVisualStyle
  2
Dim
 70
    11
 71
     2
 72
     2
 73
     0
 90
        0
 40
-0.6
 41
-30.0
 62
     5
 63
     7
421
 16777215
 74
     1
 91
        4
 64
     7
 65
   257
 75
     1
175
     1
 42
1.0
 92
        8
 66
     7
 43
1.0
 76
     1
 77
     6
 78
     2
 67
     7
 79
     5
170
     0
171
     0
290
     0
174
     0
 93
        1
 44
-50.0
173
     0
291
     1
 45
0.0
  0
VISUALSTYLE
  5
39
102
{ACAD_REACTORS
330
2A
102
}
102
{ACAD_XDICTIONARY
360
B3
102
}
330
2A
100
AcDbVisualStyle
  2
Facepattern
 70
    15
 71
     2
 72
     2
 73
     0
 90
        0
 40
-0.6
 41
-30.0
 62
     5
 63
     7
421
 16777215
 74
     1
 91
        4
 64
     7
 65
   257
 75
     1
175
     1
 42
1.0
 92
        8
 66
     7
 43
1.0
 76
     1
 77
     6
 78
     2
 67
     7
 79
     5
170
     0
171
     0
290
     0
174
     0
 93
        1
 44
0.0
173
     0
291
     1
 45
0.0
  0
VISUALSTYLE
  5
2B
102
{ACAD_REACTORS
330
2A
102
}
102
{ACAD_XDICTIONARY
360
97
102
}
330
2A
100
AcDbVisualStyle
  2
Flat
 70
     0
 71
     2
 72
     1
 73
     1
 90
        2
 40
-0.6
 41
30.0
 62
     5
 63
     7
421
 16777215
 74
     0
 91
        4
 64
     7
 65
   257
 75
     1
175
     1
 42
1.0
 92
        8
 66
     7
 43
1.0
 76
     1
 77
     6
 78
     2
 67
     7
 79
     5
170
     0
171
     0
290
     0
174
     0
 93
       13
 44
0.0
173
     0
291
     1
 45
0.0
  0
VISUALSTYLE
  5
2C
102
{ACAD_REACTORS
330
2A
102
}
102
{ACAD_XDICTIONARY
360
99
102
}
330
2A
100
AcDbVisualStyle
  2
FlatWithEdges
 70
     1
 71
     2
 72
     1
 73
     1
 90
        2
 40
-0.6
 41
30.0
 62
     5
 63
     7
421
 16777215
 74
     1
 91
        4
 64
     7
 65
   257
 75
     1
175
     1
 42
1.0
 92
        0
 66
   257
 43
1.0
 76
     1
 77
     6
 78
     2
 67
     7
 79
     5
170
     0
171
     0
290
     0
174
     0
 93
       13
 44
0.0
173
     0
291
     1
 45
0.0
  0
VISUALSTYLE
  5
2D
102
{ACAD_REACTORS
330
2A
102
}
102
{ACAD_XDICTIONARY
360
9B
102
}
330
2A
100
AcDbVisualStyle
  2
Gouraud
 70
     2
 71
     2
 72
     2
 73
     1
 90
        2
 40
-0.6
 41
30.0
 62
     5
 63
     7
421
 16777215
 74
     0
 91
        4
 64
     7
 65
   257
 75
     1
175
     1
 42
1.0
 92
        0
 66
     7
 43
1.0
 76
     1
 77
     6
 78
     2
 67
     7
 79
     5
170
     0
171
     0
290
     0
174
     0
 93
       13
 44
0.0
173
     0
291
     1
 45
0.0
  0
VISUALSTYLE
  5
2E
102
{ACAD_REACTORS
330
2A
102
}
102
{ACAD_XDICTIONARY
360
9D
102
}
330
2A
100
AcDbVisualStyle
  2
GouraudWithEdges
 70
     3
 71
     2
 72
     2
 73
     1
 90
        2
 40
-0.6
 41
30.0
 62
     5
 63
     7
421
 16777215
 74
     1
 91
        4
 64
     7
 65
   257
 75
     1
175
     1
 42
1.0
 92
        0
 66
   257
 43
1.0
 76
     1
 77
     6
 78
     2
 67
     7
 79
     5
170
     0
171
     0
290
     0
174
     0
 93
       13
 44
0.0
173
     0
291
     1
 45
0.0
  0
VISUALSTYLE
  5
38
102
{ACAD_REACTORS
330
2A
102
}
102
{ACAD_XDICTIONARY
360
B1
102
}
330
2A
100
AcDbVisualStyle
  2
Linepattern
 70
    14
 71
     2
 72
     2
 73
     0
 90
        0
 40
-0.6
 41
-30.0
 62
     5
 63
     7
421
 16777215
 74
     1
 91
        4
 64
     7
 65
   257
 75
     7
175
     7
 42
1.0
 92
        8
 66
     7
 43
1.0
 76
     1
 77
     6
 78
     2
 67
     7
 79
     5
170
     0
171
     0
290
     0
174
     0
 93
        1
 44
0.0
173
     0
291
     1
 45
0.0
  0
VISUALSTYLE
  5
33
102
{ACAD_REACTORS
330
2A
102
}
102
{ACAD_XDICTIONARY
360
A7
102
}
330
2A
100
AcDbVisualStyle
  2
Realistic
 70
     8
 71
     2
 72
     2
 73
     0
 90
        0
 40
-0.6
 41
-30.0
 62
     5
 63
     7
421
 16777215
 74
     1
 91
        0
 64
     7
 65
   257
 75
     1
175
     1
 42
1.0
 92
        8
 66
     8
424
  7895160
 43
1.0
 76
     1
 77
     6
 78
     2
 67
     7
 79
     5
170
     0
171
     0
290
     0
174
     0
 93
       13
 44
0.0
173
     0
291
     0
 45
0.0
  0
VISUALSTYLE
  5
37
102
{ACAD_REACTORS
330
2A
102
}
102
{ACAD_XDICTIONARY
360
AF
102
}
330
2A
100
AcDbVisualStyle
  2
Thicken
 70
    13
 71
     2
 72
     2
 73
     0
 90
        0
 40
-0.6
 41
-30.0
 62
     5
 63
     7
421
 16777215
 74
     1
 91
        4
 64
     7
 65
   257
 75
     1
175
     1
 42
1.0
 92
       12
 66
     7
 43
1.0
 76
     1
 77
     6
 78
     2
 67
     7
 79
     5
170
     0
171
     0
290
     0
174
     0
 93
        1
 44
0.0
173
     0
291
     1
 45
0.0
  0
DICTIONARY
  5
9F
330
2F
100
AcDbDictionary
280
     1
281
     1
  3
ACAD_XREC_ROUNDTRIP
360
A0
  0
DICTIONARY
  5
A3
330
31
100
AcDbDictionary
280
     1
281
     1
  3
ACAD_XREC_ROUNDTRIP
360
A4
  0
DICTIONARY
  5
A1
330
30
100
AcDbDictionary
280
     1
281
     1
  3
ACAD_XREC_ROUNDTRIP
360
A2
  0
DICTIONARY
  5
A5
330
32
100
AcDbDictionary
280
     1
281
     1
  3
ACAD_XREC_ROUNDTRIP
360
A6
  0
DICTIONARY
  5
AD
330
36
100
AcDbDictionary
280
     1
281
     1
  3
ACAD_XREC_ROUNDTRIP
360
AE
  0
DICTIONARY
  5
B5
330
3A
100
AcDbDictionary
280
     1
281
     1
  3
ACAD_XREC_ROUNDTRIP
360
B6
  0
DICTIONARY
  5
A9
330
34
100
AcDbDictionary
280
     1
281
     1
  3
ACAD_XREC_ROUNDTRIP
360
AA
  0
DICTIONARY
  5
AB
330
35
100
AcDbDictionary
280
     1
281
     1
  3
ACAD_XREC_ROUNDTRIP
360
AC
  0
DICTIONARY
  5
B3
330
39
100
AcDbDictionary
280
     1
281
     1
  3
ACAD_XREC_ROUNDTRIP
360
B4
  0
DICTIONARY
  5
97
330
2B
100
AcDbDictionary
280
     1
281
     1
  3
ACAD_XREC_ROUNDTRIP
360
98
  0
DICTIONARY
  5
99
330
2C
100
AcDbDictionary
280
     1
281
     1
  3
ACAD_XREC_ROUNDTRIP
360
9A
  0
DICTIONARY
  5
9B
330
2D
100
AcDbDictionary
280
     1
281
     1
  3
ACAD_XREC_ROUNDTRIP
360
9C
  0
DICTIONARY
  5
9D
330
2E
100
AcDbDictionary
280
     1
281
     1
  3
ACAD_XREC_ROUNDTRIP
360
9E
  0
DICTIONARY
  5
B1
330
38
100
AcDbDictionary
280
     1
281
     1
  3
ACAD_XREC_ROUNDTRIP
360
B2
  0
DICTIONARY
  5
A7
330
33
100
AcDbDictionary
280
     1
281
     1
  3
ACAD_XREC_ROUNDTRIP
360
A8
  0
DICTIONARY
  5
AF
330
37
100
AcDbDictionary
280
     1
281
     1
  3
ACAD_XREC_ROUNDTRIP
360
B0
  0
XRECORD
  5
A0
102
{ACAD_REACTORS
330
9F
102
}
330
9F
100
AcDbXrecord
280
     1
102
RTVSPropertyOp0
 70
     1
102
RTVSPropertyOp1
 70
     1
102
RTVSPropertyOp2
 70
     1
102
RTVSPropertyOp3
 70
     1
102
RTVSPropertyOp4
 70
     1
102
RTVSPropertyOp5
 70
     1
102
RTVSPropertyOp6
 70
     1
102
RTVSPropertyOp7
 70
     1
102
RTVSPropertyOp8
 70
     1
102
RTVSPropertyOp9
 70
     1
102
RTVSPropertyOp10
 70
     1
102
RTVSPropertyOp11
 70
     1
102
RTVSPropertyOp12
 70
     1
102
RTVSPropertyOp13
 70
     1
102
RTVSPropertyOp14
 70
     1
102
RTVSPropertyOp15
 70
     1
102
RTVSPropertyOp16
 70
     1
102
RTVSPropertyOp17
 70
     1
102
RTVSPropertyOp18
 70
     1
102
RTVSPropertyOp19
 70
     1
102
RTVSPropertyOp20
 70
     1
102
RTVSPropertyOp21
 70
     1
102
RTVSPropertyOp22
 70
     1
102
RTVSPropertyOp23
 70
     1
102
RTVSPropertyOp24
 70
     1
102
RTVSPropertyOp25
 70
     1
102
RTVSPropertyOp26
 70
     1
102
RTVSPropertyOp27
 70
     1
102
RTVSPropertyOp28
 70
     1
102
RTVSPropertyOp29
 70
     1
102
RTVSPropertyOp30
 70
     1
102
RTVSPropertyOp31
 70
     1
102
RTVSPropertyOp32
 70
     1
  0
XRECORD
  5
A4
102
{ACAD_REACTORS
330
A3
102
}
330
A3
100
AcDbXrecord
280
     1
102
RTVSPropertyOp0
 70
     1
102
RTVSPropertyOp1
 70
     1
102
RTVSPropertyOp2
 70
     1
102
RTVSPropertyOp3
 70
     1
102
RTVSPropertyOp4
 70
     1
102
RTVSPropertyOp5
 70
     1
102
RTVSPropertyOp6
 70
     1
102
RTVSPropertyOp7
 70
     1
102
RTVSPropertyOp8
 70
     1
102
RTVSPropertyOp9
 70
     1
102
RTVSPropertyOp10
 70
     1
102
RTVSPropertyOp11
 70
     1
102
RTVSPropertyOp12
 70
     1
102
RTVSPropertyOp13
 70
     1
102
RTVSPropertyOp14
 70
     1
102
RTVSPropertyOp15
 70
     1
102
RTVSPropertyOp16
 70
     1
102
RTVSPropertyOp17
 70
     1
102
RTVSPropertyOp18
 70
     1
102
RTVSPropertyOp19
 70
     1
102
RTVSPropertyOp20
 70
     1
102
RTVSPropertyOp21
 70
     1
102
RTVSPropertyOp22
 70
     1
102
RTVSPropertyOp23
 70
     1
102
RTVSPropertyOp24
 70
     1
102
RTVSPropertyOp25
 70
     1
102
RTVSPropertyOp26
 70
     1
102
RTVSPropertyOp27
 70
     1
102
RTVSPropertyOp28
 70
     1
102
RTVSPropertyOp29
 70
     1
102
RTVSPropertyOp30
 70
     1
102
RTVSPropertyOp31
 70
     1
102
RTVSPropertyOp32
 70
     1
  0
XRECORD
  5
A2
102
{ACAD_REACTORS
330
A1
102
}
330
A1
100
AcDbXrecord
280
     1
102
RTVSPropertyOp0
 70
     1
102
RTVSPropertyOp1
 70
     1
102
RTVSPropertyOp2
 70
     1
102
RTVSPropertyOp3
 70
     1
102
RTVSPropertyOp4
 70
     1
102
RTVSPropertyOp5
 70
     1
102
RTVSPropertyOp6
 70
     1
102
RTVSPropertyOp7
 70
     1
102
RTVSPropertyOp8
 70
     1
102
RTVSPropertyOp9
 70
     1
102
RTVSPropertyOp10
 70
     1
102
RTVSPropertyOp11
 70
     1
102
RTVSPropertyOp12
 70
     1
102
RTVSPropertyOp13
 70
     1
102
RTVSPropertyOp14
 70
     1
102
RTVSPropertyOp15
 70
     1
102
RTVSPropertyOp16
 70
     1
102
RTVSPropertyOp17
 70
     1
102
RTVSPropertyOp18
 70
     1
102
RTVSPropertyOp19
 70
     1
102
RTVSPropertyOp20
 70
     1
102
RTVSPropertyOp21
 70
     1
102
RTVSPropertyOp22
 70
     1
102
RTVSPropertyOp23
 70
     1
102
RTVSPropertyOp24
 70
     1
102
RTVSPropertyOp25
 70
     1
102
RTVSPropertyOp26
 70
     1
102
RTVSPropertyOp27
 70
     1
102
RTVSPropertyOp28
 70
     1
102
RTVSPropertyOp29
 70
     1
102
RTVSPropertyOp30
 70
     1
102
RTVSPropertyOp31
 70
     1
102
RTVSPropertyOp32
 70
     1
  0
XRECORD
  5
A6
102
{ACAD_REACTORS
330
A5
102
}
330
A5
100
AcDbXrecord
280
     1
102
RTVSPropertyOp0
 70
     1
102
RTVSPropertyOp1
 70
     1
102
RTVSPropertyOp2
 70
     1
102
RTVSPropertyOp3
 70
     1
102
RTVSPropertyOp4
 70
     1
102
RTVSPropertyOp5
 70
     1
102
RTVSPropertyOp6
 70
     1
102
RTVSPropertyOp7
 70
     1
102
RTVSPropertyOp8
 70
     1
102
RTVSPropertyOp9
 70
     1
102
RTVSPropertyOp10
 70
     1
102
RTVSPropertyOp11
 70
     1
102
RTVSPropertyOp12
 70
     1
102
RTVSPropertyOp13
 70
     1
102
RTVSPropertyOp14
 70
     1
102
RTVSPropertyOp15
 70
     1
102
RTVSPropertyOp16
 70
     1
102
RTVSPropertyOp17
 70
     1
102
RTVSPropertyOp18
 70
     1
102
RTVSPropertyOp19
 70
     1
102
RTVSPropertyOp20
 70
     1
102
RTVSPropertyOp21
 70
     1
102
RTVSPropertyOp22
 70
     1
102
RTVSPropertyOp23
 70
     1
102
RTVSPropertyOp24
 70
     1
102
RTVSPropertyOp25
 70
     1
102
RTVSPropertyOp26
 70
     1
102
RTVSPropertyOp27
 70
     1
102
RTVSPropertyOp28
 70
     1
102
RTVSPropertyOp29
 70
     1
102
RTVSPropertyOp30
 70
     1
102
RTVSPropertyOp31
 70
     1
102
RTVSPropertyOp32
 70
     1
  0
XRECORD
  5
AE
102
{ACAD_REACTORS
330
AD
102
}
330
AD
100
AcDbXrecord
280
     1
102
RTVSPropertyOp0
 70
     1
102
RTVSPropertyOp1
 70
     1
102
RTVSPropertyOp2
 70
     1
102
RTVSPropertyOp3
 70
     1
102
RTVSPropertyOp4
 70
     1
102
RTVSPropertyOp5
 70
     1
102
RTVSPropertyOp6
 70
     1
102
RTVSPropertyOp7
 70
     1
102
RTVSPropertyOp8
 70
     1
102
RTVSPropertyOp9
 70
     1
102
RTVSPropertyOp10
 70
     1
102
RTVSPropertyOp11
 70
     1
102
RTVSPropertyOp12
 70
     1
102
RTVSPropertyOp13
 70
     1
102
RTVSPropertyOp14
 70
     1
102
RTVSPropertyOp15
 70
     1
102
RTVSPropertyOp16
 70
     1
102
RTVSPropertyOp17
 70
     1
102
RTVSPropertyOp18
 70
     1
102
RTVSPropertyOp19
 70
     1
102
RTVSPropertyOp20
 70
     1
102
RTVSPropertyOp21
 70
     1
102
RTVSPropertyOp22
 70
     1
102
RTVSPropertyOp23
 70
     1
102
RTVSPropertyOp24
 70
     1
102
RTVSPropertyOp25
 70
     1
102
RTVSPropertyOp26
 70
     1
102
RTVSPropertyOp27
 70
     1
102
RTVSPropertyOp28
 70
     1
102
RTVSPropertyOp29
 70
     1
102
RTVSPropertyOp30
 70
     1
102
RTVSPropertyOp31
 70
     1
102
RTVSPropertyOp32
 70
     1
  0
XRECORD
  5
B6
102
{ACAD_REACTORS
330
B5
102
}
330
B5
100
AcDbXrecord
280
     1
102
RTVSPropertyOp0
 70
     1
102
RTVSPropertyOp1
 70
     1
102
RTVSPropertyOp2
 70
     1
102
RTVSPropertyOp3
 70
     1
102
RTVSPropertyOp4
 70
     1
102
RTVSPropertyOp5
 70
     1
102
RTVSPropertyOp6
 70
     1
102
RTVSPropertyOp7
 70
     1
102
RTVSPropertyOp8
 70
     1
102
RTVSPropertyOp9
 70
     1
102
RTVSPropertyOp10
 70
     1
102
RTVSPropertyOp11
 70
     1
102
RTVSPropertyOp12
 70
     1
102
RTVSPropertyOp13
 70
     1
102
RTVSPropertyOp14
 70
     1
102
RTVSPropertyOp15
 70
     1
102
RTVSPropertyOp16
 70
     1
102
RTVSPropertyOp17
 70
     1
102
RTVSPropertyOp18
 70
     1
102
RTVSPropertyOp19
 70
     1
102
RTVSPropertyOp20
 70
     1
102
RTVSPropertyOp21
 70
     1
102
RTVSPropertyOp22
 70
     1
102
RTVSPropertyOp23
 70
     1
102
RTVSPropertyOp24
 70
     1
102
RTVSPropertyOp25
 70
     1
102
RTVSPropertyOp26
 70
     1
102
RTVSPropertyOp27
 70
     1
102
RTVSPropertyOp28
 70
     1
102
RTVSPropertyOp29
 70
     1
102
RTVSPropertyOp30
 70
     1
102
RTVSPropertyOp31
 70
     1
102
RTVSPropertyOp32
 70
     1
  0
XRECORD
  5
AA
102
{ACAD_REACTORS
330
A9
102
}
330
A9
100
AcDbXrecord
280
     1
102
RTVSPropertyOp0
 70
     1
102
RTVSPropertyOp1
 70
     1
102
RTVSPropertyOp2
 70
     1
102
RTVSPropertyOp3
 70
     1
102
RTVSPropertyOp4
 70
     1
102
RTVSPropertyOp5
 70
     1
102
RTVSPropertyOp6
 70
     1
102
RTVSPropertyOp7
 70
     1
102
RTVSPropertyOp8
 70
     1
102
RTVSPropertyOp9
 70
     1
102
RTVSPropertyOp10
 70
     1
102
RTVSPropertyOp11
 70
     1
102
RTVSPropertyOp12
 70
     1
102
RTVSPropertyOp13
 70
     1
102
RTVSPropertyOp14
 70
     1
102
RTVSPropertyOp15
 70
     1
102
RTVSPropertyOp16
 70
     1
102
RTVSPropertyOp17
 70
     1
102
RTVSPropertyOp18
 70
     1
102
RTVSPropertyOp19
 70
     1
102
RTVSPropertyOp20
 70
     1
102
RTVSPropertyOp21
 70
     1
102
RTVSPropertyOp22
 70
     1
102
RTVSPropertyOp23
 70
     1
102
RTVSPropertyOp24
 70
     1
102
RTVSPropertyOp25
 70
     1
102
RTVSPropertyOp26
 70
     1
102
RTVSPropertyOp27
 70
     1
102
RTVSPropertyOp28
 70
     1
102
RTVSPropertyOp29
 70
     1
102
RTVSPropertyOp30
 70
     1
102
RTVSPropertyOp31
 70
     1
102
RTVSPropertyOp32
 70
     1
  0
XRECORD
  5
AC
102
{ACAD_REACTORS
330
AB
102
}
330
AB
100
AcDbXrecord
280
     1
102
RTVSPropertyOp0
 70
     1
102
RTVSPropertyOp1
 70
     1
102
RTVSPropertyOp2
 70
     1
102
RTVSPropertyOp3
 70
     1
102
RTVSPropertyOp4
 70
     1
102
RTVSPropertyOp5
 70
     1
102
RTVSPropertyOp6
 70
     1
102
RTVSPropertyOp7
 70
     1
102
RTVSPropertyOp8
 70
     1
102
RTVSPropertyOp9
 70
     1
102
RTVSPropertyOp10
 70
     1
102
RTVSPropertyOp11
 70
     1
102
RTVSPropertyOp12
 70
     1
102
RTVSPropertyOp13
 70
     1
102
RTVSPropertyOp14
 70
     1
102
RTVSPropertyOp15
 70
     1
102
RTVSPropertyOp16
 70
     1
102
RTVSPropertyOp17
 70
     1
102
RTVSPropertyOp18
 70
     1
102
RTVSPropertyOp19
 70
     1
102
RTVSPropertyOp20
 70
     1
102
RTVSPropertyOp21
 70
     1
102
RTVSPropertyOp22
 70
     1
102
RTVSPropertyOp23
 70
     1
102
RTVSPropertyOp24
 70
     1
102
RTVSPropertyOp25
 70
     1
102
RTVSPropertyOp26
 70
     1
102
RTVSPropertyOp27
 70
     1
102
RTVSPropertyOp28
 70
     1
102
RTVSPropertyOp29
 70
     1
102
RTVSPropertyOp30
 70
     1
102
RTVSPropertyOp31
 70
     1
102
RTVSPropertyOp32
 70
     1
  0
XRECORD
  5
B4
102
{ACAD_REACTORS
330
B3
102
}
330
B3
100
AcDbXrecord
280
     1
102
RTVSPropertyOp0
 70
     1
102
RTVSPropertyOp1
 70
     1
102
RTVSPropertyOp2
 70
     1
102
RTVSPropertyOp3
 70
     1
102
RTVSPropertyOp4
 70
     1
102
RTVSPropertyOp5
 70
     1
102
RTVSPropertyOp6
 70
     1
102
RTVSPropertyOp7
 70
     1
102
RTVSPropertyOp8
 70
     1
102
RTVSPropertyOp9
 70
     1
102
RTVSPropertyOp10
 70
     1
102
RTVSPropertyOp11
 70
     1
102
RTVSPropertyOp12
 70
     1
102
RTVSPropertyOp13
 70
     1
102
RTVSPropertyOp14
 70
     1
102
RTVSPropertyOp15
 70
     1
102
RTVSPropertyOp16
 70
     1
102
RTVSPropertyOp17
 70
     1
102
RTVSPropertyOp18
 70
     1
102
RTVSPropertyOp19
 70
     1
102
RTVSPropertyOp20
 70
     1
102
RTVSPropertyOp21
 70
     1
102
RTVSPropertyOp22
 70
     1
102
RTVSPropertyOp23
 70
     1
102
RTVSPropertyOp24
 70
     1
102
RTVSPropertyOp25
 70
     1
102
RTVSPropertyOp26
 70
     1
102
RTVSPropertyOp27
 70
     1
102
RTVSPropertyOp28
 70
     1
102
RTVSPropertyOp29
 70
     1
102
RTVSPropertyOp30
 70
     1
102
RTVSPropertyOp31
 70
     1
102
RTVSPropertyOp32
 70
     1
  0
XRECORD
  5
98
102
{ACAD_REACTORS
330
97
102
}
330
97
100
AcDbXrecord
280
     1
102
RTVSPropertyOp0
 70
     1
102
RTVSPropertyOp1
 70
     1
102
RTVSPropertyOp2
 70
     1
102
RTVSPropertyOp3
 70
     1
102
RTVSPropertyOp4
 70
     1
102
RTVSPropertyOp5
 70
     1
102
RTVSPropertyOp6
 70
     1
102
RTVSPropertyOp7
 70
     1
102
RTVSPropertyOp8
 70
     1
102
RTVSPropertyOp9
 70
     1
102
RTVSPropertyOp10
 70
     1
102
RTVSPropertyOp11
 70
     1
102
RTVSPropertyOp12
 70
     1
102
RTVSPropertyOp13
 70
     1
102
RTVSPropertyOp14
 70
     1
102
RTVSPropertyOp15
 70
     1
102
RTVSPropertyOp16
 70
     1
102
RTVSPropertyOp17
 70
     1
102
RTVSPropertyOp18
 70
     1
102
RTVSPropertyOp19
 70
     1
102
RTVSPropertyOp20
 70
     1
102
RTVSPropertyOp21
 70
     1
102
RTVSPropertyOp22
 70
     1
102
RTVSPropertyOp23
 70
     1
102
RTVSPropertyOp24
 70
     1
102
RTVSPropertyOp25
 70
     1
102
RTVSPropertyOp26
 70
     1
102
RTVSPropertyOp27
 70
     1
102
RTVSPropertyOp28
 70
     1
102
RTVSPropertyOp29
 70
     1
102
RTVSPropertyOp30
 70
     1
102
RTVSPropertyOp31
 70
     1
102
RTVSPropertyOp32
 70
     1
  0
XRECORD
  5
9A
102
{ACAD_REACTORS
330
99
102
}
330
99
100
AcDbXrecord
280
     1
102
RTVSPropertyOp0
 70
     1
102
RTVSPropertyOp1
 70
     1
102
RTVSPropertyOp2
 70
     1
102
RTVSPropertyOp3
 70
     1
102
RTVSPropertyOp4
 70
     1
102
RTVSPropertyOp5
 70
     1
102
RTVSPropertyOp6
 70
     1
102
RTVSPropertyOp7
 70
     1
102
RTVSPropertyOp8
 70
     1
102
RTVSPropertyOp9
 70
     1
102
RTVSPropertyOp10
 70
     1
102
RTVSPropertyOp11
 70
     1
102
RTVSPropertyOp12
 70
     1
102
RTVSPropertyOp13
 70
     1
102
RTVSPropertyOp14
 70
     1
102
RTVSPropertyOp15
 70
     1
102
RTVSPropertyOp16
 70
     1
102
RTVSPropertyOp17
 70
     1
102
RTVSPropertyOp18
 70
     1
102
RTVSPropertyOp19
 70
     1
102
RTVSPropertyOp20
 70
     1
102
RTVSPropertyOp21
 70
     1
102
RTVSPropertyOp22
 70
     1
102
RTVSPropertyOp23
 70
     1
102
RTVSPropertyOp24
 70
     1
102
RTVSPropertyOp25
 70
     1
102
RTVSPropertyOp26
 70
     1
102
RTVSPropertyOp27
 70
     1
102
RTVSPropertyOp28
 70
     1
102
RTVSPropertyOp29
 70
     1
102
RTVSPropertyOp30
 70
     1
102
RTVSPropertyOp31
 70
     1
102
RTVSPropertyOp32
 70
     1
  0
XRECORD
  5
9C
102
{ACAD_REACTORS
330
9B
102
}
330
9B
100
AcDbXrecord
280
     1
102
RTVSPropertyOp0
 70
     1
102
RTVSPropertyOp1
 70
     1
102
RTVSPropertyOp2
 70
     1
102
RTVSPropertyOp3
 70
     1
102
RTVSPropertyOp4
 70
     1
102
RTVSPropertyOp5
 70
     1
102
RTVSPropertyOp6
 70
     1
102
RTVSPropertyOp7
 70
     1
102
RTVSPropertyOp8
 70
     1
102
RTVSPropertyOp9
 70
     1
102
RTVSPropertyOp10
 70
     1
102
RTVSPropertyOp11
 70
     1
102
RTVSPropertyOp12
 70
     1
102
RTVSPropertyOp13
 70
     1
102
RTVSPropertyOp14
 70
     1
102
RTVSPropertyOp15
 70
     1
102
RTVSPropertyOp16
 70
     1
102
RTVSPropertyOp17
 70
     1
102
RTVSPropertyOp18
 70
     1
102
RTVSPropertyOp19
 70
     1
102
RTVSPropertyOp20
 70
     1
102
RTVSPropertyOp21
 70
     1
102
RTVSPropertyOp22
 70
     1
102
RTVSPropertyOp23
 70
     1
102
RTVSPropertyOp24
 70
     1
102
RTVSPropertyOp25
 70
     1
102
RTVSPropertyOp26
 70
     1
102
RTVSPropertyOp27
 70
     1
102
RTVSPropertyOp28
 70
     1
102
RTVSPropertyOp29
 70
     1
102
RTVSPropertyOp30
 70
     1
102
RTVSPropertyOp31
 70
     1
102
RTVSPropertyOp32
 70
     1
  0
XRECORD
  5
9E
102
{ACAD_REACTORS
330
9D
102
}
330
9D
100
AcDbXrecord
280
     1
102
RTVSPropertyOp0
 70
     1
102
RTVSPropertyOp1
 70
     1
102
RTVSPropertyOp2
 70
     1
102
RTVSPropertyOp3
 70
     1
102
RTVSPropertyOp4
 70
     1
102
RTVSPropertyOp5
 70
     1
102
RTVSPropertyOp6
 70
     1
102
RTVSPropertyOp7
 70
     1
102
RTVSPropertyOp8
 70
     1
102
RTVSPropertyOp9
 70
     1
102
RTVSPropertyOp10
 70
     1
102
RTVSPropertyOp11
 70
     1
102
RTVSPropertyOp12
 70
     1
102
RTVSPropertyOp13
 70
     1
102
RTVSPropertyOp14
 70
     1
102
RTVSPropertyOp15
 70
     1
102
RTVSPropertyOp16
 70
     1
102
RTVSPropertyOp17
 70
     1
102
RTVSPropertyOp18
 70
     1
102
RTVSPropertyOp19
 70
     1
102
RTVSPropertyOp20
 70
     1
102
RTVSPropertyOp21
 70
     1
102
RTVSPropertyOp22
 70
     1
102
RTVSPropertyOp23
 70
     1
102
RTVSPropertyOp24
 70
     1
102
RTVSPropertyOp25
 70
     1
102
RTVSPropertyOp26
 70
     1
102
RTVSPropertyOp27
 70
     1
102
RTVSPropertyOp28
 70
     1
102
RTVSPropertyOp29
 70
     1
102
RTVSPropertyOp30
 70
     1
102
RTVSPropertyOp31
 70
     1
102
RTVSPropertyOp32
 70
     1
  0
XRECORD
  5
B2
102
{ACAD_REACTORS
330
B1
102
}
330
B1
100
AcDbXrecord
280
     1
102
RTVSPropertyOp0
 70
     1
102
RTVSPropertyOp1
 70
     1
102
RTVSPropertyOp2
 70
     1
102
RTVSPropertyOp3
 70
     1
102
RTVSPropertyOp4
 70
     1
102
RTVSPropertyOp5
 70
     1
102
RTVSPropertyOp6
 70
     1
102
RTVSPropertyOp7
 70
     1
102
RTVSPropertyOp8
 70
     1
102
RTVSPropertyOp9
 70
     1
102
RTVSPropertyOp10
 70
     1
102
RTVSPropertyOp11
 70
     1
102
RTVSPropertyOp12
 70
     1
102
RTVSPropertyOp13
 70
     1
102
RTVSPropertyOp14
 70
     1
102
RTVSPropertyOp15
 70
     1
102
RTVSPropertyOp16
 70
     1
102
RTVSPropertyOp17
 70
     1
102
RTVSPropertyOp18
 70
     1
102
RTVSPropertyOp19
 70
     1
102
RTVSPropertyOp20
 70
     1
102
RTVSPropertyOp21
 70
     1
102
RTVSPropertyOp22
 70
     1
102
RTVSPropertyOp23
 70
     1
102
RTVSPropertyOp24
 70
     1
102
RTVSPropertyOp25
 70
     1
102
RTVSPropertyOp26
 70
     1
102
RTVSPropertyOp27
 70
     1
102
RTVSPropertyOp28
 70
     1
102
RTVSPropertyOp29
 70
     1
102
RTVSPropertyOp30
 70
     1
102
RTVSPropertyOp31
 70
     1
102
RTVSPropertyOp32
 70
     1
  0
XRECORD
  5
A8
102
{ACAD_REACTORS
330
A7
102
}
330
A7
100
AcDbXrecord
280
     1
102
RTVSPropertyOp0
 70
     1
102
RTVSPropertyOp1
 70
     1
102
RTVSPropertyOp2
 70
     1
102
RTVSPropertyOp3
 70
     1
102
RTVSPropertyOp4
 70
     1
102
RTVSPropertyOp5
 70
     1
102
RTVSPropertyOp6
 70
     1
102
RTVSPropertyOp7
 70
     1
102
RTVSPropertyOp8
 70
     1
102
RTVSPropertyOp9
 70
     1
102
RTVSPropertyOp10
 70
     1
102
RTVSPropertyOp11
 70
     1
102
RTVSPropertyOp12
 70
     1
102
RTVSPropertyOp13
 70
     1
102
RTVSPropertyOp14
 70
     1
102
RTVSPropertyOp15
 70
     1
102
RTVSPropertyOp16
 70
     1
102
RTVSPropertyOp17
 70
     1
102
RTVSPropertyOp18
 70
     1
102
RTVSPropertyOp19
 70
     1
102
RTVSPropertyOp20
 70
     1
102
RTVSPropertyOp21
 70
     1
102
RTVSPropertyOp22
 70
     1
102
RTVSPropertyOp23
 70
     1
102
RTVSPropertyOp24
 70
     1
102
RTVSPropertyOp25
 70
     1
102
RTVSPropertyOp26
 70
     1
102
RTVSPropertyOp27
 70
     1
102
RTVSPropertyOp28
 70
     1
102
RTVSPropertyOp29
 70
     1
102
RTVSPropertyOp30
 70
     1
102
RTVSPropertyOp31
 70
     1
102
RTVSPropertyOp32
 70
     1
  0
XRECORD
  5
B0
102
{ACAD_REACTORS
330
AF
102
}
330
AF
100
AcDbXrecord
280
     1
102
RTVSPropertyOp0
 70
     1
102
RTVSPropertyOp1
 70
     1
102
RTVSPropertyOp2
 70
     1
102
RTVSPropertyOp3
 70
     1
102
RTVSPropertyOp4
 70
     1
102
RTVSPropertyOp5
 70
     1
102
RTVSPropertyOp6
 70
     1
102
RTVSPropertyOp7
 70
     1
102
RTVSPropertyOp8
 70
     1
102
RTVSPropertyOp9
 70
     1
102
RTVSPropertyOp10
 70
     1
102
RTVSPropertyOp11
 70
     1
102
RTVSPropertyOp12
 70
     1
102
RTVSPropertyOp13
 70
     1
102
RTVSPropertyOp14
 70
     1
102
RTVSPropertyOp15
 70
     1
102
RTVSPropertyOp16
 70
     1
102
RTVSPropertyOp17
 70
     1
102
RTVSPropertyOp18
 70
     1
102
RTVSPropertyOp19
 70
     1
102
RTVSPropertyOp20
 70
     1
102
RTVSPropertyOp21
 70
     1
102
RTVSPropertyOp22
 70
     1
102
RTVSPropertyOp23
 70
     1
102
RTVSPropertyOp24
 70
     1
102
RTVSPropertyOp25
 70
     1
102
RTVSPropertyOp26
 70
     1
102
RTVSPropertyOp27
 70
     1
102
RTVSPropertyOp28
 70
     1
102
RTVSPropertyOp29
 70
     1
102
RTVSPropertyOp30
 70
     1
102
RTVSPropertyOp31
 70
     1
102
RTVSPropertyOp32
 70
     1
  0
ENDSEC
  0
EOF
