  0
SECTION
  2
HEADER
  9
$ACADVER
  1
AC1021
  9
$ACADMAINTVER
 70
    25
  9
$DWGCODEPAGE
  3
ANSI_1256
  9
$INSBASE
 10
0.0
 20
0.0
 30
0.0
  9
$EXTMIN
 10
-187.4511
 20
-129.2
 30
0.0
  9
$EXTMAX
 10
-21.9368
 20
131.8605
 30
0.0
  9
$LIMMIN
 10
0.0
 20
0.0
  9
$LIMMAX
 10
12.0
 20
9.0
  9
$ORTHOMODE
 70
     0
  9
$REGENMODE
 70
     1
  9
$FILLMODE
 70
     1
  9
$QTEXTMODE
 70
     0
  9
$MIRRTEXT
 70
     1
  9
$LTSCALE
 40
1.0
  9
$ATTMODE
 70
     1
  9
$TEXTSIZE
 40
0.2
  9
$TRACEWID
 40
0.05
  9
$TEXTSTYLE
  7
Standard
  9
$CLAYER
  8
0
  9
$CELTYPE
  6
ByLayer
  9
$CECOLOR
 62
   256
  9
$CELTSCALE
 40
1.0
  9
$DISPSILH
 70
     0
  9
$DIMSCALE
 40
1.0
  9
$DIMASZ
 40
0.18
  9
$DIMEXO
 40
0.0625
  9
$DIMDLI
 40
0.38
  9
$DIMRND
 40
0.0
  9
$DIMDLE
 40
0.0
  9
$DIMEXE
 40
0.18
  9
$DIMTP
 40
0.0
  9
$DIMTM
 40
0.0
  9
$DIMTXT
 40
0.18
  9
$DIMCEN
 40
0.09
  9
$DIMTSZ
 40
0.0
  9
$DIMTOL
 70
     0
  9
$DIMLIM
 70
     0
  9
$DIMTIH
 70
     1
  9
$DIMTOH
 70
     1
  9
$DIMSE1
 70
     0
  9
$DIMSE2
 70
     0
  9
$DIMTAD
 70
     0
  9
$DIMZIN
 70
     0
  9
$DIMBLK
  1

  9
$DIMASO
 70
     1
  9
$DIMSHO
 70
     1
  9
$DIMPOST
  1

  9
$DIMAPOST
  1

  9
$DIMALT
 70
     0
  9
$DIMALTD
 70
     2
  9
$DIMALTF
 40
25.4
  9
$DIMLFAC
 40
1.0
  9
$DIMTOFL
 70
     0
  9
$DIMTVP
 40
0.0
  9
$DIMTIX
 70
     0
  9
$DIMSOXD
 70
     0
  9
$DIMSAH
 70
     0
  9
$DIMBLK1
  1

  9
$DIMBLK2
  1

  9
$DIMSTYLE
  2
Standard
  9
$DIMCLRD
 70
     0
  9
$DIMCLRE
 70
     0
  9
$DIMCLRT
 70
     0
  9
$DIMTFAC
 40
1.0
  9
$DIMGAP
 40
0.09
  9
$DIMJUST
 70
     0
  9
$DIMSD1
 70
     0
  9
$DIMSD2
 70
     0
  9
$DIMTOLJ
 70
     1
  9
$DIMTZIN
 70
     0
  9
$DIMALTZ
 70
     0
  9
$DIMALTTZ
 70
     0
  9
$DIMUPT
 70
     0
  9
$DIMDEC
 70
     4
  9
$DIMTDEC
 70
     4
  9
$DIMALTU
 70
     2
  9
$DIMALTTD
 70
     2
  9
$DIMTXSTY
  7
Standard
  9
$DIMAUNIT
 70
     0
  9
$DIMADEC
 70
     0
  9
$DIMALTRND
 40
0.0
  9
$DIMAZIN
 70
     0
  9
$DIMDSEP
 70
    46
  9
$DIMATFIT
 70
     3
  9
$DIMFRAC
 70
     0
  9
$DIMLDRBLK
  1

  9
$DIMLUNIT
 70
     2
  9
$DIMLWD
 70
    -2
  9
$DIMLWE
 70
    -2
  9
$DIMTMOVE
 70
     0
  9
$DIMFXL
 40
1.0
  9
$DIMFXLON
 70
     0
  9
$DIMJOGANG
 40
0.7853981633974483
  9
$DIMTFILL
 70
     0
  9
$DIMTFILLCLR
 70
     0
  9
$DIMARCSYM
 70
     0
  9
$DIMLTYPE
  6

  9
$DIMLTEX1
  6

  9
$DIMLTEX2
  6

  9
$LUNITS
 70
     2
  9
$LUPREC
 70
     4
  9
$SKETCHINC
 40
0.1
  9
$FILLETRAD
 40
0.5
  9
$AUNITS
 70
     0
  9
$AUPREC
 70
     0
  9
$MENU
  1
.
  9
$ELEVATION
 40
0.0
  9
$PELEVATION
 40
0.0
  9
$THICKNESS
 40
0.0
  9
$LIMCHECK
 70
     0
  9
$CHAMFERA
 40
0.5
  9
$CHAMFERB
 40
0.5
  9
$CHAMFERC
 40
1.0
  9
$CHAMFERD
 40
0.0
  9
$SKPOLY
 70
     0
  9
$TDCREATE
 40
2458492.406325104
  9
$TDUCREATE
 40
2458492.239658438
  9
$TDUPDATE
 40
2458492.406325266
  9
$TDUUPDATE
 40
2458492.2396586
  9
$TDINDWG
 40
0.0000000116
  9
$TDUSRTIMER
 40
0.0000000116
  9
$USRTIMER
 70
     1
  9
$ANGBASE
 50
0.0
  9
$ANGDIR
 70
     0
  9
$PDMODE
 70
     0
  9
$PDSIZE
 40
0.0
  9
$PLINEWID
 40
0.0
  9
$SPLFRAME
 70
     0
  9
$SPLINETYPE
 70
     6
  9
$SPLINESEGS
 70
     8
  9
$HANDSEED
  5
A3
  9
$SURFTAB1
 70
     6
  9
$SURFTAB2
 70
     6
  9
$SURFTYPE
 70
     6
  9
$SURFU
 70
     6
  9
$SURFV
 70
     6
  9
$UCSBASE
  2

  9
$UCSNAME
  2

  9
$UCSORG
 10
0.0
 20
0.0
 30
0.0
  9
$UCSXDIR
 10
1.0
 20
0.0
 30
0.0
  9
$UCSYDIR
 10
0.0
 20
1.0
 30
0.0
  9
$UCSORTHOREF
  2

  9
$UCSORTHOVIEW
 70
     0
  9
$UCSORGTOP
 10
0.0
 20
0.0
 30
0.0
  9
$UCSORGBOTTOM
 10
0.0
 20
0.0
 30
0.0
  9
$UCSORGLEFT
 10
0.0
 20
0.0
 30
0.0
  9
$UCSORGRIGHT
 10
0.0
 20
0.0
 30
0.0
  9
$UCSORGFRONT
 10
0.0
 20
0.0
 30
0.0
  9
$UCSORGBACK
 10
0.0
 20
0.0
 30
0.0
  9
$PUCSBASE
  2

  9
$PUCSNAME
  2

  9
$PUCSORG
 10
0.0
 20
0.0
 30
0.0
  9
$PUCSXDIR
 10
1.0
 20
0.0
 30
0.0
  9
$PUCSYDIR
 10
0.0
 20
1.0
 30
0.0
  9
$PUCSORTHOREF
  2

  9
$PUCSORTHOVIEW
 70
     0
  9
$PUCSORGTOP
 10
0.0
 20
0.0
 30
0.0
  9
$PUCSORGBOTTOM
 10
0.0
 20
0.0
 30
0.0
  9
$PUCSORGLEFT
 10
0.0
 20
0.0
 30
0.0
  9
$PUCSORGRIGHT
 10
0.0
 20
0.0
 30
0.0
  9
$PUCSORGFRONT
 10
0.0
 20
0.0
 30
0.0
  9
$PUCSORGBACK
 10
0.0
 20
0.0
 30
0.0
  9
$USERI1
 70
     0
  9
$USERI2
 70
     0
  9
$USERI3
 70
     0
  9
$USERI4
 70
     0
  9
$USERI5
 70
     0
  9
$USERR1
 40
0.0
  9
$USERR2
 40
0.0
  9
$USERR3
 40
0.0
  9
$USERR4
 40
0.0
  9
$USERR5
 40
0.0
  9
$WORLDVIEW
 70
     1
  9
$SHADEDGE
 70
     3
  9
$SHADEDIF
 70
    70
  9
$TILEMODE
 70
     1
  9
$MAXACTVP
 70
    64
  9
$PINSBASE
 10
0.0
 20
0.0
 30
0.0
  9
$PLIMCHECK
 70
     0
  9
$PEXTMIN
 10
1.000000000000000E+20
 20
1.000000000000000E+20
 30
1.000000000000000E+20
  9
$PEXTMAX
 10
-1.000000000000000E+20
 20
-1.000000000000000E+20
 30
-1.000000000000000E+20
  9
$PLIMMIN
 10
0.0
 20
0.0
  9
$PLIMMAX
 10
12.0
 20
9.0
  9
$UNITMODE
 70
     0
  9
$VISRETAIN
 70
     1
  9
$PLINEGEN
 70
     0
  9
$PSLTSCALE
 70
     1
  9
$TREEDEPTH
 70
  3020
  9
$CMLSTYLE
  2
Standard
  9
$CMLJUST
 70
     0
  9
$CMLSCALE
 40
1.0
  9
$PROXYGRAPHICS
 70
     1
  9
$MEASUREMENT
 70
     0
  9
$CELWEIGHT
370
    -1
  9
$ENDCAPS
280
     0
  9
$JOINSTYLE
280
     0
  9
$LWDISPLAY
290
     0
  9
$INSUNITS
 70
     4
  9
$HYPERLINKBASE
  1

  9
$STYLESHEET
  1

  9
$XEDIT
290
     1
  9
$CEPSNTYPE
380
     0
  9
$PSTYLEMODE
290
     1
  9
$FINGERPRINTGUID
  2
{047D7BC0-F75C-4B5D-8E73-3AADDD5C8B72}
  9
$VERSIONGUID
  2
{FAEB1C32-E019-11D5-929B-00C0DF256EC4}
  9
$EXTNAMES
290
     1
  9
$PSVPSCALE
 40
0.0
  9
$OLESTARTUP
290
     0
  9
$SORTENTS
280
   127
  9
$INDEXCTL
280
     0
  9
$HIDETEXT
280
     1
  9
$XCLIPFRAME
290
     0
  9
$HALOGAP
280
     0
  9
$OBSCOLOR
 70
   257
  9
$OBSLTYPE
280
     0
  9
$INTERSECTIONDISPLAY
280
     0
  9
$INTERSECTIONCOLOR
 70
   257
  9
$DIMASSOC
280
     2
  9
$PROJECTNAME
  1

  9
$CAMERADISPLAY
290
     0
  9
$LENSLENGTH
 40
50.0
  9
$CAMERAHEIGHT
 40
0.0
  9
$STEPSPERSEC
 40
2.0
  9
$STEPSIZE
 40
6.0
  9
$3DDWFPREC
 40
2.0
  9
$PSOLWIDTH
 40
0.25
  9
$PSOLHEIGHT
 40
4.0
  9
$LOFTANG1
 40
1.570796326794897
  9
$LOFTANG2
 40
1.570796326794897
  9
$LOFTMAG1
 40
0.0
  9
$LOFTMAG2
 40
0.0
  9
$LOFTPARAM
 70
     7
  9
$LOFTNORMALS
280
     1
  9
$LATITUDE
 40
37.795
  9
$LONGITUDE
 40
-122.394
  9
$NORTHDIRECTION
 40
0.0
  9
$TIMEZONE
 70
 -8000
  9
$LIGHTGLYPHDISPLAY
280
     1
  9
$TILEMODELIGHTSYNCH
280
     1
  9
$SOLIDHIST
280
     1
  9
$SHOWHIST
280
     1
  9
$DWFFRAME
280
     2
  9
$DGNFRAME
280
     2
  9
$REALWORLDSCALE
290
     1
  9
$INTERFERECOLOR
 62
   256
  9
$CSHADOW
280
     0
  9
$SHADOWPLANELOCATION
 40
0.0
  0
ENDSEC
  0
SECTION
  2
CLASSES
  0
CLASS
  1
ACDBDICTIONARYWDFLT
  2
AcDbDictionaryWithDefault
  3
ObjectDBX Classes
 90
        0
 91
        4
280
     0
281
     0
  0
CLASS
  1
VISUALSTYLE
  2
AcDbVisualStyle
  3
ObjectDBX Classes
 90
     4095
 91
        4
280
     0
281
     0
  0
CLASS
  1
MATERIAL
  2
AcDbMaterial
  3
ObjectDBX Classes
 90
     1153
 91
        4
280
     0
281
     0
  0
ENDSEC
  0
SECTION
  2
TABLES
  0
TABLE
  2
VPORT
  5
8
330
0
100
AcDbSymbolTable
 70
     1
  0
VPORT
  5
29
330
8
100
AcDbSymbolTableRecord
100
AcDbViewportTableRecord
  2
*Active
 70
     0
 10
0.0
 20
0.0
 11
1.0
 21
1.0
 12
10.42990654205607
 22
4.5
 13
0.0
 23
0.0
 14
0.5
 24
0.5
 15
0.5
 25
0.5
 16
0.0
 26
0.0
 36
1.0
 17
0.0
 27
0.0
 37
0.0
 40
9.0
 41
1.972972972850329
 42
50.0
 43
0.0
 44
0.0
 50
0.0
 51
0.0
 71
     0
 72
   100
 73
     1
 74
     3
 75
     0
 76
     0
 77
     0
 78
     0
281
     0
 65
     1
110
0.0
120
0.0
130
0.0
111
1.0
121
0.0
131
0.0
112
0.0
122
1.0
132
0.0
 79
     0
146
0.0
 60
     3
 61
     5
292
     1
282
     1
141
0.0
142
0.0
 63
   250
  0
ENDTAB
  0
TABLE
  2
LTYPE
  5
5
330
0
100
AcDbSymbolTable
 70
     1
  0
LTYPE
  5
14
330
5
100
AcDbSymbolTableRecord
100
AcDbLinetypeTableRecord
  2
ByBlock
 70
     0
  3

 72
    65
 73
     0
 40
0.0
  0
LTYPE
  5
15
330
5
100
AcDbSymbolTableRecord
100
AcDbLinetypeTableRecord
  2
ByLayer
 70
     0
  3

 72
    65
 73
     0
 40
0.0
  0
LTYPE
  5
16
330
5
100
AcDbSymbolTableRecord
100
AcDbLinetypeTableRecord
  2
Continuous
 70
     0
  3
Solid line
 72
    65
 73
     0
 40
0.0
  0
ENDTAB
  0
TABLE
  2
LAYER
  5
2
330
0
100
AcDbSymbolTable
 70
     2
  0
LAYER
  5
10
330
2
100
AcDbSymbolTableRecord
100
AcDbLayerTableRecord
  2
0
 70
     0
 62
     7
  6
Continuous
370
    -3
390
F
347
3E
  0
LAYER
  5
40
330
2
100
AcDbSymbolTableRecord
100
AcDbLayerTableRecord
  2
layer 1
 70
     0
 62
     7
  6
Continuous
370
    -3
390
F
347
3E
  0
ENDTAB
  0
TABLE
  2
STYLE
  5
3
330
0
100
AcDbSymbolTable
 70
     1
  0
STYLE
  5
11
330
3
100
AcDbSymbolTableRecord
100
AcDbTextStyleTableRecord
  2
Standard
 70
     0
 40
0.0
 41
1.0
 50
0.0
 71
     0
 42
0.2
  3
txt
  4

  0
ENDTAB
  0
TABLE
  2
VIEW
  5
6
330
0
100
AcDbSymbolTable
 70
     0
  0
ENDTAB
  0
TABLE
  2
UCS
  5
7
330
0
100
AcDbSymbolTable
 70
     0
  0
ENDTAB
  0
TABLE
  2
APPID
  5
9
330
0
100
AcDbSymbolTable
 70
     2
  0
APPID
  5
12
330
9
100
AcDbSymbolTableRecord
100
AcDbRegAppTableRecord
  2
ACAD
 70
     0
  0
APPID
  5
3F
330
9
100
AcDbSymbolTableRecord
100
AcDbRegAppTableRecord
  2
ODA
 70
     0
  0
ENDTAB
  0
TABLE
  2
DIMSTYLE
  5
A
330
0
100
AcDbSymbolTable
 70
     1
100
AcDbDimStyleTable
  0
DIMSTYLE
105
27
330
A
100
AcDbSymbolTableRecord
100
AcDbDimStyleTableRecord
  2
Standard
 70
     0
178
     0
340
11
  0
ENDTAB
  0
TABLE
  2
BLOCK_RECORD
  5
1
330
0
100
AcDbSymbolTable
 70
     1
  0
BLOCK_RECORD
  5
1F
330
1
100
AcDbSymbolTableRecord
100
AcDbBlockTableRecord
  2
*Model_Space
340
22
 70
     0
280
     1
281
     0
  0
BLOCK_RECORD
  5
1B
330
1
100
AcDbSymbolTableRecord
100
AcDbBlockTableRecord
  2
*Paper_Space
340
1E
 70
     0
280
     1
281
     0
  0
BLOCK_RECORD
  5
23
330
1
100
AcDbSymbolTableRecord
100
AcDbBlockTableRecord
  2
*Paper_Space0
340
26
 70
     0
280
     1
281
     0
  0
ENDTAB
  0
ENDSEC
  0
SECTION
  2
BLOCKS
  0
BLOCK
  5
20
330
1F
100
AcDbEntity
  8
0
100
AcDbBlockBegin
  2
*Model_Space
 70
     0
 10
0.0
 20
0.0
 30
0.0
  3
*Model_Space
  1

  0
ENDBLK
  5
21
330
1F
100
AcDbEntity
  8
0
100
AcDbBlockEnd
  0
BLOCK
  5
1C
330
1B
100
AcDbEntity
 67
     1
  8
0
100
AcDbBlockBegin
  2
*Paper_Space
 70
     0
 10
0.0
 20
0.0
 30
0.0
  3
*Paper_Space
  1

  0
ENDBLK
  5
1D
330
1B
100
AcDbEntity
 67
     1
  8
0
100
AcDbBlockEnd
  0
BLOCK
  5
24
330
23
100
AcDbEntity
  8
0
100
AcDbBlockBegin
  2
*Paper_Space0
 70
     0
 10
0.0
 20
0.0
 30
0.0
  3
*Paper_Space0
  1

  0
ENDBLK
  5
25
330
23
100
AcDbEntity
  8
0
100
AcDbBlockEnd
  0
ENDSEC
  0
SECTION
  2
ENTITIES
  0
SPLINE
  5
41
330
1F
100
AcDbEntity
  8
layer 1
 62
   250
100
AcDbSpline
210
0.0
220
0.0
230
1.0
 70
    11
 71
     3
 72
   100
 73
    96
 74
     0
 42
0.0000000001
 43
0.0000000001
 12
1.0
 22
0.0
 32
0.0
 13
1.0
 23
0.0
 33
0.0
 40
0.0
 40
0.0
 40
0.0
 40
0.0
 40
0.04
 40
0.04
 40
0.04
 40
0.04
 40
0.08
 40
0.08
 40
0.08
 40
0.08
 40
0.12
 40
0.12
 40
0.12
 40
0.12
 40
0.16
 40
0.16
 40
0.16
 40
0.16
 40
0.2
 40
0.2
 40
0.2
 40
0.2
 40
0.24
 40
0.24
 40
0.24
 40
0.24
 40
0.28
 40
0.28
 40
0.28
 40
0.28
 40
0.32
 40
0.32
 40
0.32
 40
0.32
 40
0.36
 40
0.36
 40
0.36
 40
0.36
 40
0.4
 40
0.4
 40
0.4
 40
0.4
 40
0.44
 40
0.44
 40
0.44
 40
0.44
 40
0.48
 40
0.48
 40
0.48
 40
0.48
 40
0.52
 40
0.52
 40
0.52
 40
0.52
 40
0.56
 40
0.56
 40
0.56
 40
0.56
 40
0.6
 40
0.6
 40
0.6
 40
0.6
 40
0.64
 40
0.64
 40
0.64
 40
0.64
 40
0.68
 40
0.68
 40
0.68
 40
0.68
 40
0.72
 40
0.72
 40
0.72
 40
0.72
 40
0.76
 40
0.76
 40
0.76
 40
0.76
 40
0.8
 40
0.8
 40
0.8
 40
0.8
 40
0.84
 40
0.84
 40
0.84
 40
0.84
 40
0.88
 40
0.88
 40
0.88
 40
0.88
 40
0.92
 40
0.92
 40
0.92
 40
0.92
 40
1.0
 40
1.0
 40
1.0
 40
1.0
 10
-89.9069
 20
11.9791
 30
0.0
 10
-90.4349
 20
11.1732
 30
0.0
 10
-89.7249
 20
8.197
 30
0.0
 10
-89.5097
 20
7.6366
 30
0.0
 10
-89.5097
 20
7.6366
 30
0.0
 10
-92.2109
 20
8.117
 30
0.0
 10
-93.4714
 20
11.6016
 30
0.0
 10
-93.4986
 20
13.3271
 30
0.0
 10
-93.4986
 20
13.3271
 30
0.0
 10
-95.7282
 20
12.9201
 30
0.0
 10
-96.6022
 20
14.0908
 30
0.0
 10
-96.7952
 20
15.1194
 30
0.0
 10
-96.7952
 20
15.1194
 30
0.0
 10
-93.7395
 20
14.8409
 30
0.0
 10
-91.7749
 20
15.4025
 30
0.0
 10
-91.1669
 20
16.5435
 30
0.0
 10
-91.1669
 20
16.5435
 30
0.0
 10
-91.1695
 20
16.7996
 30
0.0
 10
-96.7299
 20
16.0479
 30
0.0
 10
-104.6519
 20
16.1094
 30
0.0
 10
-104.6519
 20
16.1094
 30
0.0
 10
-112.5739
 20
16.0479
 30
0.0
 10
-118.1346
 20
16.7998
 30
0.0
 10
-118.137
 20
16.5435
 30
0.0
 10
-118.137
 20
16.5435
 30
0.0
 10
-117.5289
 20
15.4023
 30
0.0
 10
-115.5644
 20
14.8409
 30
0.0
 10
-112.5086
 20
15.1194
 30
0.0
 10
-112.5086
 20
15.1194
 30
0.0
 10
-112.7016
 20
14.0906
 30
0.0
 10
-113.5757
 20
12.9201
 30
0.0
 10
-115.8052
 20
13.3271
 30
0.0
 10
-115.8052
 20
13.3271
 30
0.0
 10
-115.8325
 20
11.6016
 30
0.0
 10
-117.0929
 20
8.1167
 30
0.0
 10
-119.7942
 20
7.6366
 30
0.0
 10
-119.7942
 20
7.6366
 30
0.0
 10
-119.5791
 20
8.1972
 30
0.0
 10
-118.869
 20
11.1734
 30
0.0
 10
-119.397
 20
11.9791
 30
0.0
 10
-119.397
 20
11.9791
 30
0.0
 10
-121.8921
 20
16.8757
 30
0.0
 10
-129.4445
 20
10.3956
 30
0.0
 10
-129.8582
 20
10.1648
 30
0.0
 10
-129.8582
 20
10.1648
 30
0.0
 10
-140.3699
 20
2.7096
 30
0.0
 10
-152.6548
 20
5.8458
 30
0.0
 10
-158.4052
 20
15.6387
 30
0.0
 10
-158.4052
 20
15.6387
 30
0.0
 10
-163.1116
 20
0.1201
 30
0.0
 10
-180.9112
 20
5.8458
 30
0.0
 10
-182.5142
 20
12.5195
 30
0.0
 10
-182.5142
 20
12.5195
 30
0.0
 10
-182.5142
 20
12.5195
 30
0.0
 10
-182.5142
 20
5.8458
 30
0.0
 10
-182.5142
 20
5.8458
 30
0.0
 10
-182.5142
 20
5.8458
 30
0.0
 10
-182.5142
 20
5.8458
 30
0.0
 10
-187.0832
 20
3.1692
 30
0.0
 10
-187.0832
 20
3.1692
 30
0.0
 10
-187.0832
 20
3.1692
 30
0.0
 10
-187.0832
 20
3.1692
 30
0.0
 10
-187.1642
 20
131.8605
 30
0.0
 10
-187.1642
 20
131.8605
 30
0.0
 10
-187.1642
 20
131.8605
 30
0.0
 10
-187.1642
 20
131.8605
 30
0.0
 10
-21.9368
 20
131.8605
 30
0.0
 10
-21.9368
 20
131.8605
 30
0.0
 10
-21.9368
 20
131.8605
 30
0.0
 10
-21.9368
 20
131.8605
 30
0.0
 10
-22.1892
 20
3.8547
 30
0.0
 10
-22.1892
 20
3.8547
 30
0.0
 10
-22.1892
 20
3.8547
 30
0.0
 10
-22.1892
 20
3.8547
 30
0.0
 10
-26.9031
 20
6.4724
 30
0.0
 10
-26.9031
 20
6.4724
 30
0.0
 10
-26.9031
 20
6.4724
 30
0.0
 10
-26.9031
 20
6.4724
 30
0.0
 10
-26.985
 20
13.3187
 30
0.0
 10
-26.985
 20
13.3187
 30
0.0
 10
-26.985
 20
13.3187
 30
0.0
 10
-32.1248
 20
0.2966
 30
0.0
 10
-49.7527
 20
5.8458
 30
0.0
 10
-51.0799
 20
16.1692
 30
0.0
 10
-51.0799
 20
16.1692
 30
0.0
 10
-57.3439
 20
3.9735
 30
0.0
 10
-70.7989
 20
3.369
 30
0.0
 10
-78.6505
 20
9.8045
 30
0.0
 10
-78.6505
 20
9.8045
 30
0.0
 10
-82.4481
 20
12.6736
 30
0.0
 10
-88.5887
 20
15.8751
 30
0.0
 10
-89.9066
 20
11.9789
 30
0.0
 10
-89.9066
 20
11.9789
 30
0.0
 10
-89.9066
 20
11.9789
 30
0.0
 10
-89.9069
 20
11.9791
 30
0.0
 10
-89.9069
 20
11.9791
 30
0.0
  0
SPLINE
  5
42
330
1F
100
AcDbEntity
  8
layer 1
 62
     7
100
AcDbSpline
210
0.0
220
0.0
230
1.0
 70
    11
 71
     3
 72
    92
 73
    88
 74
     0
 42
0.0000000001
 43
0.0000000001
 12
1.0
 22
0.0
 32
0.0
 13
1.0
 23
0.0
 33
0.0
 40
0.0
 40
0.0
 40
0.0
 40
0.0
 40
0.0434782608695652
 40
0.0434782608695652
 40
0.0434782608695652
 40
0.0434782608695652
 40
0.0869565217391304
 40
0.0869565217391304
 40
0.0869565217391304
 40
0.0869565217391304
 40
0.1304347826086956
 40
0.1304347826086956
 40
0.1304347826086956
 40
0.1304347826086956
 40
0.1739130434782609
 40
0.1739130434782609
 40
0.1739130434782609
 40
0.1739130434782609
 40
0.2173913043478261
 40
0.2173913043478261
 40
0.2173913043478261
 40
0.2173913043478261
 40
0.2608695652173913
 40
0.2608695652173913
 40
0.2608695652173913
 40
0.2608695652173913
 40
0.3043478260869565
 40
0.3043478260869565
 40
0.3043478260869565
 40
0.3043478260869565
 40
0.3478260869565217
 40
0.3478260869565217
 40
0.3478260869565217
 40
0.3478260869565217
 40
0.391304347826087
 40
0.391304347826087
 40
0.391304347826087
 40
0.391304347826087
 40
0.4347826086956522
 40
0.4347826086956522
 40
0.4347826086956522
 40
0.4347826086956522
 40
0.4782608695652174
 40
0.4782608695652174
 40
0.4782608695652174
 40
0.4782608695652174
 40
0.5217391304347826
 40
0.5217391304347826
 40
0.5217391304347826
 40
0.5217391304347826
 40
0.5652173913043478
 40
0.5652173913043478
 40
0.5652173913043478
 40
0.5652173913043478
 40
0.6086956521739131
 40
0.6086956521739131
 40
0.6086956521739131
 40
0.6086956521739131
 40
0.6521739130434783
 40
0.6521739130434783
 40
0.6521739130434783
 40
0.6521739130434783
 40
0.6956521739130435
 40
0.6956521739130435
 40
0.6956521739130435
 40
0.6956521739130435
 40
0.7391304347826086
 40
0.7391304347826086
 40
0.7391304347826086
 40
0.7391304347826086
 40
0.782608695652174
 40
0.782608695652174
 40
0.782608695652174
 40
0.782608695652174
 40
0.8260869565217391
 40
0.8260869565217391
 40
0.8260869565217391
 40
0.8260869565217391
 40
0.8695652173913043
 40
0.8695652173913043
 40
0.8695652173913043
 40
0.8695652173913043
 40
0.9130434782608695
 40
0.9130434782608695
 40
0.9130434782608695
 40
0.9130434782608695
 40
1.0
 40
1.0
 40
1.0
 40
1.0
 10
-114.7868
 20
64.825
 30
0.0
 10
-119.501
 20
64.3261
 30
0.0
 10
-119.5411
 20
57.6388
 30
0.0
 10
-115.4336
 20
57.3895
 30
0.0
 10
-115.4336
 20
57.3895
 30
0.0
 10
-116.2173
 20
62.2203
 30
0.0
 10
-109.2754
 20
60.7927
 30
0.0
 10
-112.0332
 20
56.614
 30
0.0
 10
-112.0332
 20
56.614
 30
0.0
 10
-113.9175
 20
53.821
 30
0.0
 10
-119.6057
 20
52.5472
 30
0.0
 10
-125.1811
 20
54.0957
 30
0.0
 10
-125.1811
 20
54.0957
 30
0.0
 10
-125.1811
 20
54.0957
 30
0.0
 10
-127.4875
 20
54.7361
 30
0.0
 10
-127.4875
 20
54.7361
 30
0.0
 10
-127.4875
 20
54.7361
 30
0.0
 10
-123.0032
 20
58.7537
 30
0.0
 10
-125.581
 20
63.331
 30
0.0
 10
-129.7319
 20
63.4669
 30
0.0
 10
-129.7319
 20
63.4669
 30
0.0
 10
-132.0918
 20
63.4613
 30
0.0
 10
-133.7438
 20
62.0895
 30
0.0
 10
-133.7264
 20
59.8653
 30
0.0
 10
-133.7264
 20
59.8653
 30
0.0
 10
-129.6143
 20
61.2256
 30
0.0
 10
-129.7385
 20
56.568
 30
0.0
 10
-132.9905
 20
57.4761
 30
0.0
 10
-132.9905
 20
57.4761
 30
0.0
 10
-134.377
 20
57.7322
 30
0.0
 10
-136.5138
 20
58.5537
 30
0.0
 10
-139.5332
 20
59.9646
 30
0.0
 10
-139.5332
 20
59.9646
 30
0.0
 10
-148.576
 20
64.1902
 30
0.0
 10
-154.5273
 20
65.453
 30
0.0
 10
-165.2689
 20
65.4253
 30
0.0
 10
-165.2689
 20
65.4253
 30
0.0
 10
-171.7672
 20
65.4941
 30
0.0
 10
-173.4632
 20
65.4995
 30
0.0
 10
-174.5741
 20
65.6037
 30
0.0
 10
-174.5741
 20
65.6037
 30
0.0
 10
-174.5741
 20
65.6037
 30
0.0
 10
-174.5577
 20
67.8549
 30
0.0
 10
-174.5577
 20
67.8549
 30
0.0
 10
-174.5577
 20
67.8549
 30
0.0
 10
-171.8024
 20
67.8138
 30
0.0
 10
-170.4039
 20
67.773
 30
0.0
 10
-165.2689
 20
67.7061
 30
0.0
 10
-165.2689
 20
67.7061
 30
0.0
 10
-154.5282
 20
67.5659
 30
0.0
 10
-148.576
 20
68.9412
 30
0.0
 10
-139.5332
 20
73.1668
 30
0.0
 10
-139.5332
 20
73.1668
 30
0.0
 10
-136.5138
 20
74.5777
 30
0.0
 10
-134.377
 20
75.3992
 30
0.0
 10
-132.9905
 20
75.6553
 30
0.0
 10
-132.9905
 20
75.6553
 30
0.0
 10
-129.7382
 20
76.5634
 30
0.0
 10
-129.614
 20
71.9056
 30
0.0
 10
-133.7264
 20
73.2661
 30
0.0
 10
-133.7264
 20
73.2661
 30
0.0
 10
-133.7438
 20
71.0419
 30
0.0
 10
-132.0918
 20
69.6701
 30
0.0
 10
-129.7319
 20
69.6645
 30
0.0
 10
-129.7319
 20
69.6645
 30
0.0
 10
-125.581
 20
69.8004
 30
0.0
 10
-123.0032
 20
74.3775
 30
0.0
 10
-127.4875
 20
78.3953
 30
0.0
 10
-127.4875
 20
78.3953
 30
0.0
 10
-127.4875
 20
78.3953
 30
0.0
 10
-125.1811
 20
79.0357
 30
0.0
 10
-125.1811
 20
79.0357
 30
0.0
 10
-125.1811
 20
79.0357
 30
0.0
 10
-119.6057
 20
80.5843
 30
0.0
 10
-113.9175
 20
79.3104
 30
0.0
 10
-112.0332
 20
76.5174
 30
0.0
 10
-112.0332
 20
76.5174
 30
0.0
 10
-109.2754
 20
72.3388
 30
0.0
 10
-116.2173
 20
70.9111
 30
0.0
 10
-115.4336
 20
75.7419
 30
0.0
 10
-115.4336
 20
75.7419
 30
0.0
 10
-119.5413
 20
75.4926
 30
0.0
 10
-119.5012
 20
68.8053
 30
0.0
 10
-114.7868
 20
68.3064
 30
0.0
 10
-114.7868
 20
68.3064
 30
0.0
 10
-114.7868
 20
68.3064
 30
0.0
 10
-114.7868
 20
64.825
 30
0.0
 10
-114.7868
 20
64.825
 30
0.0
  0
SPLINE
  5
43
330
1F
100
AcDbEntity
  8
layer 1
 62
     7
100
AcDbSpline
210
0.0
220
0.0
230
1.0
 70
    11
 71
     3
 72
    92
 73
    88
 74
     0
 42
0.0000000001
 43
0.0000000001
 12
1.0
 22
0.0
 32
0.0
 13
1.0
 23
0.0
 33
0.0
 40
0.0
 40
0.0
 40
0.0
 40
0.0
 40
0.0434782608695652
 40
0.0434782608695652
 40
0.0434782608695652
 40
0.0434782608695652
 40
0.0869565217391304
 40
0.0869565217391304
 40
0.0869565217391304
 40
0.0869565217391304
 40
0.1304347826086956
 40
0.1304347826086956
 40
0.1304347826086956
 40
0.1304347826086956
 40
0.1739130434782609
 40
0.1739130434782609
 40
0.1739130434782609
 40
0.1739130434782609
 40
0.2173913043478261
 40
0.2173913043478261
 40
0.2173913043478261
 40
0.2173913043478261
 40
0.2608695652173913
 40
0.2608695652173913
 40
0.2608695652173913
 40
0.2608695652173913
 40
0.3043478260869565
 40
0.3043478260869565
 40
0.3043478260869565
 40
0.3043478260869565
 40
0.3478260869565217
 40
0.3478260869565217
 40
0.3478260869565217
 40
0.3478260869565217
 40
0.391304347826087
 40
0.391304347826087
 40
0.391304347826087
 40
0.391304347826087
 40
0.4347826086956522
 40
0.4347826086956522
 40
0.4347826086956522
 40
0.4347826086956522
 40
0.4782608695652174
 40
0.4782608695652174
 40
0.4782608695652174
 40
0.4782608695652174
 40
0.5217391304347826
 40
0.5217391304347826
 40
0.5217391304347826
 40
0.5217391304347826
 40
0.5652173913043478
 40
0.5652173913043478
 40
0.5652173913043478
 40
0.5652173913043478
 40
0.6086956521739131
 40
0.6086956521739131
 40
0.6086956521739131
 40
0.6086956521739131
 40
0.6521739130434783
 40
0.6521739130434783
 40
0.6521739130434783
 40
0.6521739130434783
 40
0.6956521739130435
 40
0.6956521739130435
 40
0.6956521739130435
 40
0.6956521739130435
 40
0.7391304347826086
 40
0.7391304347826086
 40
0.7391304347826086
 40
0.7391304347826086
 40
0.782608695652174
 40
0.782608695652174
 40
0.782608695652174
 40
0.782608695652174
 40
0.8260869565217391
 40
0.8260869565217391
 40
0.8260869565217391
 40
0.8260869565217391
 40
0.8695652173913043
 40
0.8695652173913043
 40
0.8695652173913043
 40
0.8695652173913043
 40
0.9130434782608695
 40
0.9130434782608695
 40
0.9130434782608695
 40
0.9130434782608695
 40
1.0
 40
1.0
 40
1.0
 40
1.0
 10
-94.2998
 20
64.825
 30
0.0
 10
-89.5857
 20
64.3261
 30
0.0
 10
-89.5456
 20
57.6388
 30
0.0
 10
-93.6531
 20
57.3895
 30
0.0
 10
-93.6531
 20
57.3895
 30
0.0
 10
-92.8694
 20
62.2203
 30
0.0
 10
-99.8112
 20
60.7927
 30
0.0
 10
-97.0534
 20
56.614
 30
0.0
 10
-97.0534
 20
56.614
 30
0.0
 10
-95.1692
 20
53.821
 30
0.0
 10
-89.481
 20
52.5472
 30
0.0
 10
-83.9055
 20
54.0957
 30
0.0
 10
-83.9055
 20
54.0957
 30
0.0
 10
-83.9055
 20
54.0957
 30
0.0
 10
-81.5992
 20
54.7361
 30
0.0
 10
-81.5992
 20
54.7361
 30
0.0
 10
-81.5992
 20
54.7361
 30
0.0
 10
-86.0835
 20
58.7537
 30
0.0
 10
-83.5057
 20
63.331
 30
0.0
 10
-79.3548
 20
63.4669
 30
0.0
 10
-79.3548
 20
63.4669
 30
0.0
 10
-76.9949
 20
63.4613
 30
0.0
 10
-75.3429
 20
62.0895
 30
0.0
 10
-75.3602
 20
59.8653
 30
0.0
 10
-75.3602
 20
59.8653
 30
0.0
 10
-79.4724
 20
61.2256
 30
0.0
 10
-79.3482
 20
56.568
 30
0.0
 10
-76.0962
 20
57.4761
 30
0.0
 10
-76.0962
 20
57.4761
 30
0.0
 10
-74.7097
 20
57.7322
 30
0.0
 10
-72.5728
 20
58.5537
 30
0.0
 10
-69.5535
 20
59.9646
 30
0.0
 10
-69.5535
 20
59.9646
 30
0.0
 10
-60.5107
 20
64.1902
 30
0.0
 10
-54.5594
 20
65.453
 30
0.0
 10
-43.8178
 20
65.4253
 30
0.0
 10
-43.8178
 20
65.4253
 30
0.0
 10
-37.3195
 20
65.4941
 30
0.0
 10
-35.6235
 20
65.4995
 30
0.0
 10
-34.5126
 20
65.6037
 30
0.0
 10
-34.5126
 20
65.6037
 30
0.0
 10
-34.5126
 20
65.6037
 30
0.0
 10
-34.529
 20
67.8549
 30
0.0
 10
-34.529
 20
67.8549
 30
0.0
 10
-34.529
 20
67.8549
 30
0.0
 10
-37.2842
 20
67.8138
 30
0.0
 10
-38.6828
 20
67.773
 30
0.0
 10
-43.8178
 20
67.7061
 30
0.0
 10
-43.8178
 20
67.7061
 30
0.0
 10
-54.5584
 20
67.5659
 30
0.0
 10
-60.5107
 20
68.9412
 30
0.0
 10
-69.5535
 20
73.1668
 30
0.0
 10
-69.5535
 20
73.1668
 30
0.0
 10
-72.5728
 20
74.5777
 30
0.0
 10
-74.7097
 20
75.3992
 30
0.0
 10
-76.0962
 20
75.6553
 30
0.0
 10
-76.0962
 20
75.6553
 30
0.0
 10
-79.3485
 20
76.5634
 30
0.0
 10
-79.4726
 20
71.9056
 30
0.0
 10
-75.3602
 20
73.2661
 30
0.0
 10
-75.3602
 20
73.2661
 30
0.0
 10
-75.3429
 20
71.0419
 30
0.0
 10
-76.9949
 20
69.6701
 30
0.0
 10
-79.3548
 20
69.6645
 30
0.0
 10
-79.3548
 20
69.6645
 30
0.0
 10
-83.5057
 20
69.8004
 30
0.0
 10
-86.0835
 20
74.3775
 30
0.0
 10
-81.5992
 20
78.3953
 30
0.0
 10
-81.5992
 20
78.3953
 30
0.0
 10
-81.5992
 20
78.3953
 30
0.0
 10
-83.9055
 20
79.0357
 30
0.0
 10
-83.9055
 20
79.0357
 30
0.0
 10
-83.9055
 20
79.0357
 30
0.0
 10
-89.481
 20
80.5843
 30
0.0
 10
-95.1692
 20
79.3104
 30
0.0
 10
-97.0534
 20
76.5174
 30
0.0
 10
-97.0534
 20
76.5174
 30
0.0
 10
-99.8112
 20
72.3388
 30
0.0
 10
-92.8694
 20
70.9111
 30
0.0
 10
-93.6531
 20
75.7419
 30
0.0
 10
-93.6531
 20
75.7419
 30
0.0
 10
-89.5453
 20
75.4926
 30
0.0
 10
-89.5855
 20
68.8053
 30
0.0
 10
-94.2998
 20
68.3064
 30
0.0
 10
-94.2998
 20
68.3064
 30
0.0
 10
-94.2998
 20
68.3064
 30
0.0
 10
-94.2998
 20
64.825
 30
0.0
 10
-94.2998
 20
64.825
 30
0.0
  0
SPLINE
  5
44
330
1F
100
AcDbEntity
  8
layer 1
 62
     7
100
AcDbSpline
210
0.0
220
0.0
230
1.0
 70
    11
 71
     3
 72
    32
 73
    28
 74
     0
 42
0.0000000001
 43
0.0000000001
 12
1.0
 22
0.0
 32
0.0
 13
1.0
 23
0.0
 33
0.0
 40
0.0
 40
0.0
 40
0.0
 40
0.0
 40
0.125
 40
0.125
 40
0.125
 40
0.125
 40
0.25
 40
0.25
 40
0.25
 40
0.25
 40
0.375
 40
0.375
 40
0.375
 40
0.375
 40
0.5
 40
0.5
 40
0.5
 40
0.5
 40
0.625
 40
0.625
 40
0.625
 40
0.625
 40
0.75
 40
0.75
 40
0.75
 40
0.75
 40
1.0
 40
1.0
 40
1.0
 40
1.0
 10
-167.999
 20
72.2343
 30
0.0
 10
-171.1937
 20
75.8096
 30
0.0
 10
-167.6074
 20
80.0142
 30
0.0
 10
-163.4755
 20
78.0605
 30
0.0
 10
-163.4755
 20
78.0605
 30
0.0
 10
-166.0499
 20
77.0583
 30
0.0
 10
-164.6477
 20
72.2357
 30
0.0
 10
-160.4387
 20
72.6252
 30
0.0
 10
-160.4387
 20
72.6252
 30
0.0
 10
-154.9499
 20
72.8414
 30
0.0
 10
-152.0524
 20
74.131
 30
0.0
 10
-145.7693
 20
76.2692
 30
0.0
 10
-145.7693
 20
76.2692
 30
0.0
 10
-158.936
 20
75.1729
 30
0.0
 10
-165.5532
 20
80.9188
 30
0.0
 10
-164.8258
 20
89.6219
 30
0.0
 10
-164.8258
 20
89.6219
 30
0.0
 10
-169.3282
 20
85.5261
 30
0.0
 10
-173.3021
 20
78.2333
 30
0.0
 10
-174.6163
 20
72.3822
 30
0.0
 10
-174.6163
 20
72.3822
 30
0.0
 10
-172.9307
 20
72.2394
 30
0.0
 10
-170.4751
 20
72.2444
 30
0.0
 10
-167.9992
 20
72.2343
 30
0.0
 10
-167.9992
 20
72.2343
 30
0.0
 10
-167.9992
 20
72.2343
 30
0.0
 10
-167.999
 20
72.2343
 30
0.0
 10
-167.999
 20
72.2343
 30
0.0
  0
SPLINE
  5
45
330
1F
100
AcDbEntity
  8
layer 1
 62
     7
100
AcDbSpline
210
0.0
220
0.0
230
1.0
 70
    11
 71
     3
 72
    32
 73
    28
 74
     0
 42
0.0000000001
 43
0.0000000001
 12
1.0
 22
0.0
 32
0.0
 13
1.0
 23
0.0
 33
0.0
 40
0.0
 40
0.0
 40
0.0
 40
0.0
 40
0.125
 40
0.125
 40
0.125
 40
0.125
 40
0.25
 40
0.25
 40
0.25
 40
0.25
 40
0.375
 40
0.375
 40
0.375
 40
0.375
 40
0.5
 40
0.5
 40
0.5
 40
0.5
 40
0.625
 40
0.625
 40
0.625
 40
0.625
 40
0.75
 40
0.75
 40
0.75
 40
0.75
 40
1.0
 40
1.0
 40
1.0
 40
1.0
 10
-164.4216
 20
101.321
 30
0.0
 10
-161.0031
 20
108.5758
 30
0.0
 10
-161.1921
 20
119.754
 30
0.0
 10
-167.7588
 20
122.4801
 30
0.0
 10
-167.7588
 20
122.4801
 30
0.0
 10
-174.71
 20
125.6115
 30
0.0
 10
-179.2431
 20
117.8548
 30
0.0
 10
-175.0267
 20
114.6833
 30
0.0
 10
-175.0267
 20
114.6833
 30
0.0
 10
-171.543
 20
112.279
 30
0.0
 10
-169.5689
 20
116.8723
 30
0.0
 10
-172.0766
 20
118.7002
 30
0.0
 10
-172.0766
 20
118.7002
 30
0.0
 10
-167.1045
 20
119.7505
 30
0.0
 10
-164.6455
 20
114.2673
 30
0.0
 10
-167.3372
 20
110.6479
 30
0.0
 10
-167.3372
 20
110.6479
 30
0.0
 10
-172.1471
 20
104.9428
 30
0.0
 10
-180.1036
 20
106.6653
 30
0.0
 10
-182.1867
 20
113.5364
 30
0.0
 10
-182.1867
 20
113.5364
 30
0.0
 10
-182.1867
 20
113.5364
 30
0.0
 10
-182.1629
 20
73.1614
 30
0.0
 10
-182.1629
 20
73.1614
 30
0.0
 10
-182.1629
 20
73.1614
 30
0.0
 10
-179.5988
 20
85.8024
 30
0.0
 10
-174.1257
 20
93.5577
 30
0.0
 10
-164.4216
 20
101.321
 30
0.0
  0
SPLINE
  5
46
330
1F
100
AcDbEntity
  8
layer 1
 62
     7
100
AcDbSpline
210
0.0
220
0.0
230
1.0
 70
    11
 71
     3
 72
    76
 73
    72
 74
     0
 42
0.0000000001
 43
0.0000000001
 12
1.0
 22
0.0
 32
0.0
 13
1.0
 23
0.0
 33
0.0
 40
0.0
 40
0.0
 40
0.0
 40
0.0
 40
0.0526315789473684
 40
0.0526315789473684
 40
0.0526315789473684
 40
0.0526315789473684
 40
0.1052631578947368
 40
0.1052631578947368
 40
0.1052631578947368
 40
0.1052631578947368
 40
0.1578947368421053
 40
0.1578947368421053
 40
0.1578947368421053
 40
0.1578947368421053
 40
0.2105263157894737
 40
0.2105263157894737
 40
0.2105263157894737
 40
0.2105263157894737
 40
0.2631578947368421
 40
0.2631578947368421
 40
0.2631578947368421
 40
0.2631578947368421
 40
0.3157894736842105
 40
0.3157894736842105
 40
0.3157894736842105
 40
0.3157894736842105
 40
0.3684210526315789
 40
0.3684210526315789
 40
0.3684210526315789
 40
0.3684210526315789
 40
0.4210526315789473
 40
0.4210526315789473
 40
0.4210526315789473
 40
0.4210526315789473
 40
0.4736842105263158
 40
0.4736842105263158
 40
0.4736842105263158
 40
0.4736842105263158
 40
0.5263157894736842
 40
0.5263157894736842
 40
0.5263157894736842
 40
0.5263157894736842
 40
0.5789473684210527
 40
0.5789473684210527
 40
0.5789473684210527
 40
0.5789473684210527
 40
0.631578947368421
 40
0.631578947368421
 40
0.631578947368421
 40
0.631578947368421
 40
0.6842105263157895
 40
0.6842105263157895
 40
0.6842105263157895
 40
0.6842105263157895
 40
0.7368421052631579
 40
0.7368421052631579
 40
0.7368421052631579
 40
0.7368421052631579
 40
0.7894736842105263
 40
0.7894736842105263
 40
0.7894736842105263
 40
0.7894736842105263
 40
0.8421052631578947
 40
0.8421052631578947
 40
0.8421052631578947
 40
0.8421052631578947
 40
0.8947368421052632
 40
0.8947368421052632
 40
0.8947368421052632
 40
0.8947368421052632
 40
1.0
 40
1.0
 40
1.0
 40
1.0
 10
-109.4877
 20
80.804
 30
0.0
 10
-104.6522
 20
82.8373
 30
0.0
 10
-105.5654
 20
90.4095
 30
0.0
 10
-110.2988
 20
90.382
 30
0.0
 10
-110.2988
 20
90.382
 30
0.0
 10
-110.1483
 20
88.9255
 30
0.0
 10
-110.6822
 20
87.1453
 30
0.0
 10
-112.2788
 20
86.4196
 30
0.0
 10
-112.2788
 20
86.4196
 30
0.0
 10
-121.2356
 20
83.1099
 30
0.0
 10
-129.5443
 20
97.8244
 30
0.0
 10
-115.5609
 20
106.48
 30
0.0
 10
-115.5609
 20
106.48
 30
0.0
 10
-112.5054
 20
108.0389
 30
0.0
 10
-108.2894
 20
108.1431
 30
0.0
 10
-107.0226
 20
107.0144
 30
0.0
 10
-107.0226
 20
107.0144
 30
0.0
 10
-104.6522
 20
104.2481
 30
0.0
 10
-107.848
 20
100.9456
 30
0.0
 10
-111.3461
 20
103.9657
 30
0.0
 10
-111.3461
 20
103.9657
 30
0.0
 10
-112.5439
 20
101.4229
 30
0.0
 10
-109.3113
 20
98.9137
 30
0.0
 10
-107.3292
 20
98.5468
 30
0.0
 10
-107.3292
 20
98.5468
 30
0.0
 10
-107.2898
 20
97.0499
 30
0.0
 10
-106.7895
 20
93.2016
 30
0.0
 10
-104.6522
 20
92.5607
 30
0.0
 10
-104.6522
 20
92.5607
 30
0.0
 10
-102.5151
 20
93.2018
 30
0.0
 10
-102.0145
 20
97.0501
 30
0.0
 10
-101.9751
 20
98.5468
 30
0.0
 10
-101.9751
 20
98.5468
 30
0.0
 10
-99.993
 20
98.9135
 30
0.0
 10
-96.7604
 20
101.4229
 30
0.0
 10
-97.9582
 20
103.9657
 30
0.0
 10
-97.9582
 20
103.9657
 30
0.0
 10
-101.4563
 20
100.9456
 30
0.0
 10
-104.6522
 20
104.2481
 30
0.0
 10
-102.2817
 20
107.0144
 30
0.0
 10
-102.2817
 20
107.0144
 30
0.0
 10
-101.0149
 20
108.1431
 30
0.0
 10
-96.7989
 20
108.0389
 30
0.0
 10
-93.7435
 20
106.48
 30
0.0
 10
-93.7435
 20
106.48
 30
0.0
 10
-79.7602
 20
97.8244
 30
0.0
 10
-88.0687
 20
83.1096
 30
0.0
 10
-97.0255
 20
86.4196
 30
0.0
 10
-97.0255
 20
86.4196
 30
0.0
 10
-98.6222
 20
87.1453
 30
0.0
 10
-99.156
 20
88.9255
 30
0.0
 10
-99.0055
 20
90.382
 30
0.0
 10
-99.0055
 20
90.382
 30
0.0
 10
-103.7389
 20
90.4093
 30
0.0
 10
-104.6522
 20
82.8373
 30
0.0
 10
-99.8166
 20
80.804
 30
0.0
 10
-99.8166
 20
80.804
 30
0.0
 10
-101.6507
 20
79.8419
 30
0.0
 10
-102.7637
 20
78.6293
 30
0.0
 10
-102.801
 20
76.7059
 30
0.0
 10
-102.801
 20
76.7059
 30
0.0
 10
-102.801
 20
76.7059
 30
0.0
 10
-106.5704
 20
76.7169
 30
0.0
 10
-106.5704
 20
76.7169
 30
0.0
 10
-106.5704
 20
76.7169
 30
0.0
 10
-106.4702
 20
78.0621
 30
0.0
 10
-107.6645
 20
80.3694
 30
0.0
 10
-109.4874
 20
80.804
 30
0.0
 10
-109.4874
 20
80.804
 30
0.0
 10
-109.4874
 20
80.804
 30
0.0
 10
-109.4877
 20
80.804
 30
0.0
 10
-109.4877
 20
80.804
 30
0.0
  0
SPLINE
  5
47
330
1F
100
AcDbEntity
  8
layer 1
 62
     7
100
AcDbSpline
210
0.0
220
0.0
230
1.0
 70
    11
 71
     3
 72
    20
 73
    16
 74
     0
 42
0.0000000001
 43
0.0000000001
 12
1.0
 22
0.0
 32
0.0
 13
1.0
 23
0.0
 33
0.0
 40
0.0
 40
0.0
 40
0.0
 40
0.0
 40
0.2
 40
0.2
 40
0.2
 40
0.2
 40
0.4
 40
0.4
 40
0.4
 40
0.4
 40
0.6
 40
0.6
 40
0.6
 40
0.6
 40
1.0
 40
1.0
 40
1.0
 40
1.0
 10
-122.0712
 20
84.645
 30
0.0
 10
-124.6048
 20
86.4976
 30
0.0
 10
-126.1679
 20
88.3501
 30
0.0
 10
-126.6618
 20
91.5505
 30
0.0
 10
-126.6618
 20
91.5505
 30
0.0
 10
-128.2061
 20
83.5902
 30
0.0
 10
-135.9356
 20
83.8738
 30
0.0
 10
-137.9555
 20
85.2747
 30
0.0
 10
-137.9555
 20
85.2747
 30
0.0
 10
-138.0783
 20
83.9069
 30
0.0
 10
-138.7425
 20
80.0896
 30
0.0
 10
-141.0425
 20
78.3608
 30
0.0
 10
-141.0425
 20
78.3608
 30
0.0
 10
-134.2364
 20
80.2619
 30
0.0
 10
-128.0228
 20
84.0489
 30
0.0
 10
-122.0712
 20
84.645
 30
0.0
  0
SPLINE
  5
48
330
1F
100
AcDbEntity
  8
layer 1
 62
     7
100
AcDbSpline
210
0.0
220
0.0
230
1.0
 70
    11
 71
     3
 72
    40
 73
    36
 74
     0
 42
0.0000000001
 43
0.0000000001
 12
1.0
 22
0.0
 32
0.0
 13
1.0
 23
0.0
 33
0.0
 40
0.0
 40
0.0
 40
0.0
 40
0.0
 40
0.1
 40
0.1
 40
0.1
 40
0.1
 40
0.2
 40
0.2
 40
0.2
 40
0.2
 40
0.3
 40
0.3
 40
0.3
 40
0.3
 40
0.4
 40
0.4
 40
0.4
 40
0.4
 40
0.5
 40
0.5
 40
0.5
 40
0.5
 40
0.6
 40
0.6
 40
0.6
 40
0.6
 40
0.7
 40
0.7
 40
0.7
 40
0.7
 40
0.8
 40
0.8
 40
0.8
 40
0.8
 40
1.0
 40
1.0
 40
1.0
 40
1.0
 10
-146.7347
 20
88.8051
 30
0.0
 10
-146.2586
 20
81.7344
 30
0.0
 10
-155.8441
 20
84.776
 30
0.0
 10
-153.2988
 20
91.0629
 30
0.0
 10
-153.2988
 20
91.0629
 30
0.0
 10
-150.6504
 20
96.6661
 30
0.0
 10
-144.1161
 20
96.3386
 30
0.0
 10
-139.9565
 20
92.0841
 30
0.0
 10
-139.9565
 20
92.0841
 30
0.0
 10
-140.2572
 20
95.5091
 30
0.0
 10
-136.3568
 20
97.8279
 30
0.0
 10
-134.1439
 20
94.6527
 30
0.0
 10
-134.1439
 20
94.6527
 30
0.0
 10
-137.2609
 20
92.7532
 30
0.0
 10
-135.3381
 20
89.1143
 30
0.0
 10
-132.7223
 20
91.8303
 30
0.0
 10
-132.7223
 20
91.8303
 30
0.0
 10
-128.8045
 20
99.9418
 30
0.0
 10
-125.014
 20
104.2894
 30
0.0
 10
-119.1479
 20
109.5806
 30
0.0
 10
-119.1479
 20
109.5806
 30
0.0
 10
-131.8417
 20
108.6343
 30
0.0
 10
-148.4316
 20
104.0401
 30
0.0
 10
-158.6813
 20
95.523
 30
0.0
 10
-158.6813
 20
95.523
 30
0.0
 10
-159.8316
 20
89.5413
 30
0.0
 10
-158.2052
 20
83.9928
 30
0.0
 10
-153.6117
 20
81.4548
 30
0.0
 10
-153.6117
 20
81.4548
 30
0.0
 10
-145.4474
 20
77.3107
 30
0.0
 10
-140.0454
 20
86.9488
 30
0.0
 10
-146.7347
 20
88.8053
 30
0.0
 10
-146.7347
 20
88.8053
 30
0.0
 10
-146.7347
 20
88.8053
 30
0.0
 10
-146.7347
 20
88.8051
 30
0.0
 10
-146.7347
 20
88.8051
 30
0.0
  0
SPLINE
  5
49
330
1F
100
AcDbEntity
  8
layer 1
 62
     7
100
AcDbSpline
210
0.0
220
0.0
230
1.0
 70
    11
 71
     3
 72
    36
 73
    32
 74
     0
 42
0.0000000001
 43
0.0000000001
 12
1.0
 22
0.0
 32
0.0
 13
1.0
 23
0.0
 33
0.0
 40
0.0
 40
0.0
 40
0.0
 40
0.0
 40
0.1111111111111111
 40
0.1111111111111111
 40
0.1111111111111111
 40
0.1111111111111111
 40
0.2222222222222222
 40
0.2222222222222222
 40
0.2222222222222222
 40
0.2222222222222222
 40
0.3333333333333333
 40
0.3333333333333333
 40
0.3333333333333333
 40
0.3333333333333333
 40
0.4444444444444444
 40
0.4444444444444444
 40
0.4444444444444444
 40
0.4444444444444444
 40
0.5555555555555556
 40
0.5555555555555556
 40
0.5555555555555556
 40
0.5555555555555556
 40
0.6666666666666666
 40
0.6666666666666666
 40
0.6666666666666666
 40
0.6666666666666666
 40
0.7777777777777778
 40
0.7777777777777778
 40
0.7777777777777778
 40
0.7777777777777778
 40
1.0
 40
1.0
 40
1.0
 40
1.0
 10
-137.5013
 20
113.7343
 30
0.0
 10
-140.7446
 20
113.9881
 30
0.0
 10
-141.9957
 20
116.7427
 30
0.0
 10
-141.2986
 20
118.2029
 30
0.0
 10
-141.2986
 20
118.2029
 30
0.0
 10
-139.4482
 20
117.1901
 30
0.0
 10
-138.8167
 20
117.1514
 30
0.0
 10
-137.3264
 20
118.341
 30
0.0
 10
-137.3264
 20
118.341
 30
0.0
 10
-135.2888
 20
123.6073
 30
0.0
 10
-144.4985
 20
123.5885
 30
0.0
 10
-147.0077
 20
120.6654
 30
0.0
 10
-147.0077
 20
120.6654
 30
0.0
 10
-142.0532
 20
117.8254
 30
0.0
 10
-145.4503
 20
112.8871
 30
0.0
 10
-149.3406
 20
112.2379
 30
0.0
 10
-149.3406
 20
112.2379
 30
0.0
 10
-148.3722
 20
115.1695
 30
0.0
 10
-150.1966
 20
116.664
 30
0.0
 10
-152.502
 20
115.1087
 30
0.0
 10
-152.502
 20
115.1087
 30
0.0
 10
-154.7269
 20
114.0187
 30
0.0
 10
-157.1126
 20
109.556
 30
0.0
 10
-157.4495
 20
104.7115
 30
0.0
 10
-157.4495
 20
104.7115
 30
0.0
 10
-151.6401
 20
108.4084
 30
0.0
 10
-143.3709
 20
112.4361
 30
0.0
 10
-137.501
 20
113.7343
 30
0.0
 10
-137.501
 20
113.7343
 30
0.0
 10
-137.501
 20
113.7343
 30
0.0
 10
-137.5013
 20
113.7343
 30
0.0
 10
-137.5013
 20
113.7343
 30
0.0
  0
SPLINE
  5
4A
330
1F
100
AcDbEntity
  8
layer 1
 62
     7
100
AcDbSpline
210
0.0
220
0.0
230
1.0
 70
    11
 71
     3
 72
    20
 73
    16
 74
     0
 42
0.0000000001
 43
0.0000000001
 12
1.0
 22
0.0
 32
0.0
 13
1.0
 23
0.0
 33
0.0
 40
0.0
 40
0.0
 40
0.0
 40
0.0
 40
0.2
 40
0.2
 40
0.2
 40
0.2
 40
0.4
 40
0.4
 40
0.4
 40
0.4
 40
0.6
 40
0.6
 40
0.6
 40
0.6
 40
1.0
 40
1.0
 40
1.0
 40
1.0
 10
-125.3295
 20
115.7125
 30
0.0
 10
-127.7009
 20
116.2567
 30
0.0
 10
-129.0715
 20
117.1307
 30
0.0
 10
-130.7388
 20
118.9471
 30
0.0
 10
-130.7388
 20
118.9471
 30
0.0
 10
-130.662
 20
117.5038
 30
0.0
 10
-131.0318
 20
116.329
 30
0.0
 10
-131.5741
 20
114.7997
 30
0.0
 10
-131.5741
 20
114.7997
 30
0.0
 10
-129.9911
 20
115.1387
 30
0.0
 10
-128.4205
 20
115.3981
 30
0.0
 10
-125.3298
 20
115.7125
 30
0.0
 10
-125.3298
 20
115.7125
 30
0.0
 10
-125.3298
 20
115.7125
 30
0.0
 10
-125.3295
 20
115.7125
 30
0.0
 10
-125.3295
 20
115.7125
 30
0.0
  0
SPLINE
  5
4B
330
1F
100
AcDbEntity
  8
layer 1
 62
     7
100
AcDbSpline
210
0.0
220
0.0
230
1.0
 70
    11
 71
     3
 72
    16
 73
    12
 74
     0
 42
0.0000000001
 43
0.0000000001
 12
1.0
 22
0.0
 32
0.0
 13
1.0
 23
0.0
 33
0.0
 40
0.0
 40
0.0
 40
0.0
 40
0.0
 40
0.25
 40
0.25
 40
0.25
 40
0.25
 40
0.5
 40
0.5
 40
0.5
 40
0.5
 40
1.0
 40
1.0
 40
1.0
 40
1.0
 10
-145.162
 20
127.1022
 30
0.0
 10
-145.162
 20
127.1022
 30
0.0
 10
-166.106
 20
127.1022
 30
0.0
 10
-166.106
 20
127.1022
 30
0.0
 10
-166.106
 20
127.1022
 30
0.0
 10
-162.0617
 20
125.1128
 30
0.0
 10
-159.4837
 20
122.1015
 30
0.0
 10
-158.1277
 20
117.6317
 30
0.0
 10
-158.1277
 20
117.6317
 30
0.0
 10
-154.902
 20
123.2039
 30
0.0
 10
-151.9629
 20
125.6969
 30
0.0
 10
-145.162
 20
127.1022
 30
0.0
  0
SPLINE
  5
4C
330
1F
100
AcDbEntity
  8
layer 1
 62
     7
100
AcDbSpline
210
0.0
220
0.0
230
1.0
 70
    11
 71
     3
 72
    16
 73
    12
 74
     0
 42
0.0000000001
 43
0.0000000001
 12
1.0
 22
0.0
 32
0.0
 13
1.0
 23
0.0
 33
0.0
 40
0.0
 40
0.0
 40
0.0
 40
0.0
 40
0.25
 40
0.25
 40
0.25
 40
0.25
 40
0.5
 40
0.5
 40
0.5
 40
0.5
 40
1.0
 40
1.0
 40
1.0
 40
1.0
 10
-175.5484
 20
127.1022
 30
0.0
 10
-178.1266
 20
127.1022
 30
0.0
 10
-180.0597
 20
127.1022
 30
0.0
 10
-182.5149
 20
127.1022
 30
0.0
 10
-182.5149
 20
127.1022
 30
0.0
 10
-182.5149
 20
124.9767
 30
0.0
 10
-182.5149
 20
123.1647
 30
0.0
 10
-182.5149
 20
120.6797
 30
0.0
 10
-182.5149
 20
120.6797
 30
0.0
 10
-181.4593
 20
124.267
 30
0.0
 10
-179.2971
 20
126.1411
 30
0.0
 10
-175.5484
 20
127.1022
 30
0.0
  0
SPLINE
  5
4D
330
1F
100
AcDbEntity
  8
layer 1
 62
     7
100
AcDbSpline
210
0.0
220
0.0
230
1.0
 70
    11
 71
     3
 72
    32
 73
    28
 74
     0
 42
0.0000000001
 43
0.0000000001
 12
1.0
 22
0.0
 32
0.0
 13
1.0
 23
0.0
 33
0.0
 40
0.0
 40
0.0
 40
0.0
 40
0.0
 40
0.125
 40
0.125
 40
0.125
 40
0.125
 40
0.25
 40
0.25
 40
0.25
 40
0.25
 40
0.375
 40
0.375
 40
0.375
 40
0.375
 40
0.5
 40
0.5
 40
0.5
 40
0.5
 40
0.625
 40
0.625
 40
0.625
 40
0.625
 40
0.75
 40
0.75
 40
0.75
 40
0.75
 40
1.0
 40
1.0
 40
1.0
 40
1.0
 10
-41.3053
 20
72.2343
 30
0.0
 10
-38.1106
 20
75.8096
 30
0.0
 10
-41.6969
 20
80.0142
 30
0.0
 10
-45.8288
 20
78.0605
 30
0.0
 10
-45.8288
 20
78.0605
 30
0.0
 10
-43.2544
 20
77.0583
 30
0.0
 10
-44.6566
 20
72.2357
 30
0.0
 10
-48.8656
 20
72.6252
 30
0.0
 10
-48.8656
 20
72.6252
 30
0.0
 10
-54.3544
 20
72.8414
 30
0.0
 10
-57.2519
 20
74.131
 30
0.0
 10
-63.535
 20
76.2692
 30
0.0
 10
-63.535
 20
76.2692
 30
0.0
 10
-50.3683
 20
75.1729
 30
0.0
 10
-43.7511
 20
80.9188
 30
0.0
 10
-44.4785
 20
89.6219
 30
0.0
 10
-44.4785
 20
89.6219
 30
0.0
 10
-39.9761
 20
85.5261
 30
0.0
 10
-36.0022
 20
78.2333
 30
0.0
 10
-34.688
 20
72.3822
 30
0.0
 10
-34.688
 20
72.3822
 30
0.0
 10
-36.3736
 20
72.2394
 30
0.0
 10
-38.8293
 20
72.2444
 30
0.0
 10
-41.3051
 20
72.2343
 30
0.0
 10
-41.3051
 20
72.2343
 30
0.0
 10
-41.3051
 20
72.2343
 30
0.0
 10
-41.3053
 20
72.2343
 30
0.0
 10
-41.3053
 20
72.2343
 30
0.0
  0
SPLINE
  5
4E
330
1F
100
AcDbEntity
  8
layer 1
 62
     7
100
AcDbSpline
210
0.0
220
0.0
230
1.0
 70
    11
 71
     3
 72
    32
 73
    28
 74
     0
 42
0.0000000001
 43
0.0000000001
 12
1.0
 22
0.0
 32
0.0
 13
1.0
 23
0.0
 33
0.0
 40
0.0
 40
0.0
 40
0.0
 40
0.0
 40
0.125
 40
0.125
 40
0.125
 40
0.125
 40
0.25
 40
0.25
 40
0.25
 40
0.25
 40
0.375
 40
0.375
 40
0.375
 40
0.375
 40
0.5
 40
0.5
 40
0.5
 40
0.5
 40
0.625
 40
0.625
 40
0.625
 40
0.625
 40
0.75
 40
0.75
 40
0.75
 40
0.75
 40
1.0
 40
1.0
 40
1.0
 40
1.0
 10
-44.883
 20
101.321
 30
0.0
 10
-48.3014
 20
108.5758
 30
0.0
 10
-48.1124
 20
119.754
 30
0.0
 10
-41.5457
 20
122.4801
 30
0.0
 10
-41.5457
 20
122.4801
 30
0.0
 10
-34.5945
 20
125.6115
 30
0.0
 10
-30.0614
 20
117.8548
 30
0.0
 10
-34.2778
 20
114.6833
 30
0.0
 10
-34.2778
 20
114.6833
 30
0.0
 10
-37.7615
 20
112.279
 30
0.0
 10
-39.7357
 20
116.8723
 30
0.0
 10
-37.2279
 20
118.7002
 30
0.0
 10
-37.2279
 20
118.7002
 30
0.0
 10
-42.2
 20
119.7505
 30
0.0
 10
-44.659
 20
114.2673
 30
0.0
 10
-41.9674
 20
110.6479
 30
0.0
 10
-41.9674
 20
110.6479
 30
0.0
 10
-37.1575
 20
104.9428
 30
0.0
 10
-29.201
 20
106.6653
 30
0.0
 10
-27.1179
 20
113.5364
 30
0.0
 10
-27.1179
 20
113.5364
 30
0.0
 10
-27.1179
 20
113.5364
 30
0.0
 10
-27.1416
 20
73.1614
 30
0.0
 10
-27.1416
 20
73.1614
 30
0.0
 10
-27.1416
 20
73.1614
 30
0.0
 10
-30.1147
 20
87.82
 30
0.0
 10
-38.9067
 20
96.8426
 30
0.0
 10
-44.883
 20
101.321
 30
0.0
  0
SPLINE
  5
4F
330
1F
100
AcDbEntity
  8
layer 1
 62
     7
100
AcDbSpline
210
0.0
220
0.0
230
1.0
 70
    11
 71
     3
 72
    20
 73
    16
 74
     0
 42
0.0000000001
 43
0.0000000001
 12
1.0
 22
0.0
 32
0.0
 13
1.0
 23
0.0
 33
0.0
 40
0.0
 40
0.0
 40
0.0
 40
0.0
 40
0.2
 40
0.2
 40
0.2
 40
0.2
 40
0.4
 40
0.4
 40
0.4
 40
0.4
 40
0.6
 40
0.6
 40
0.6
 40
0.6
 40
1.0
 40
1.0
 40
1.0
 40
1.0
 10
-87.2334
 20
84.645
 30
0.0
 10
-84.6997
 20
86.4976
 30
0.0
 10
-83.1367
 20
88.3501
 30
0.0
 10
-82.6427
 20
91.5505
 30
0.0
 10
-82.6427
 20
91.5505
 30
0.0
 10
-81.0984
 20
83.5902
 30
0.0
 10
-73.3689
 20
83.8738
 30
0.0
 10
-71.349
 20
85.2747
 30
0.0
 10
-71.349
 20
85.2747
 30
0.0
 10
-71.2262
 20
83.9069
 30
0.0
 10
-70.5621
 20
80.0896
 30
0.0
 10
-68.262
 20
78.3608
 30
0.0
 10
-68.262
 20
78.3608
 30
0.0
 10
-75.0682
 20
80.2619
 30
0.0
 10
-81.2818
 20
84.0489
 30
0.0
 10
-87.2334
 20
84.645
 30
0.0
  0
SPLINE
  5
50
330
1F
100
AcDbEntity
  8
layer 1
 62
     7
100
AcDbSpline
210
0.0
220
0.0
230
1.0
 70
    11
 71
     3
 72
    40
 73
    36
 74
     0
 42
0.0000000001
 43
0.0000000001
 12
1.0
 22
0.0
 32
0.0
 13
1.0
 23
0.0
 33
0.0
 40
0.0
 40
0.0
 40
0.0
 40
0.0
 40
0.1
 40
0.1
 40
0.1
 40
0.1
 40
0.2
 40
0.2
 40
0.2
 40
0.2
 40
0.3
 40
0.3
 40
0.3
 40
0.3
 40
0.4
 40
0.4
 40
0.4
 40
0.4
 40
0.5
 40
0.5
 40
0.5
 40
0.5
 40
0.6
 40
0.6
 40
0.6
 40
0.6
 40
0.7
 40
0.7
 40
0.7
 40
0.7
 40
0.8
 40
0.8
 40
0.8
 40
0.8
 40
1.0
 40
1.0
 40
1.0
 40
1.0
 10
-62.5699
 20
88.8051
 30
0.0
 10
-63.046
 20
81.7344
 30
0.0
 10
-53.4604
 20
84.776
 30
0.0
 10
-56.0058
 20
91.0629
 30
0.0
 10
-56.0058
 20
91.0629
 30
0.0
 10
-58.6542
 20
96.6661
 30
0.0
 10
-65.1885
 20
96.3386
 30
0.0
 10
-69.3481
 20
92.0841
 30
0.0
 10
-69.3481
 20
92.0841
 30
0.0
 10
-69.0473
 20
95.5091
 30
0.0
 10
-72.9478
 20
97.8279
 30
0.0
 10
-75.1607
 20
94.6527
 30
0.0
 10
-75.1607
 20
94.6527
 30
0.0
 10
-72.0437
 20
92.7532
 30
0.0
 10
-73.9664
 20
89.1143
 30
0.0
 10
-76.5822
 20
91.8303
 30
0.0
 10
-76.5822
 20
91.8303
 30
0.0
 10
-80.5
 20
99.9418
 30
0.0
 10
-84.2905
 20
104.2894
 30
0.0
 10
-90.1567
 20
109.5806
 30
0.0
 10
-90.1567
 20
109.5806
 30
0.0
 10
-77.4628
 20
108.6343
 30
0.0
 10
-60.873
 20
104.0401
 30
0.0
 10
-50.6233
 20
95.523
 30
0.0
 10
-50.6233
 20
95.523
 30
0.0
 10
-49.4729
 20
89.5413
 30
0.0
 10
-51.0994
 20
83.9928
 30
0.0
 10
-55.6928
 20
81.4548
 30
0.0
 10
-55.6928
 20
81.4548
 30
0.0
 10
-63.8571
 20
77.3107
 30
0.0
 10
-69.2591
 20
86.9488
 30
0.0
 10
-62.5699
 20
88.8053
 30
0.0
 10
-62.5699
 20
88.8053
 30
0.0
 10
-62.5699
 20
88.8053
 30
0.0
 10
-62.5699
 20
88.8051
 30
0.0
 10
-62.5699
 20
88.8051
 30
0.0
  0
SPLINE
  5
51
330
1F
100
AcDbEntity
  8
layer 1
 62
     7
100
AcDbSpline
210
0.0
220
0.0
230
1.0
 70
    11
 71
     3
 72
    36
 73
    32
 74
     0
 42
0.0000000001
 43
0.0000000001
 12
1.0
 22
0.0
 32
0.0
 13
1.0
 23
0.0
 33
0.0
 40
0.0
 40
0.0
 40
0.0
 40
0.0
 40
0.1111111111111111
 40
0.1111111111111111
 40
0.1111111111111111
 40
0.1111111111111111
 40
0.2222222222222222
 40
0.2222222222222222
 40
0.2222222222222222
 40
0.2222222222222222
 40
0.3333333333333333
 40
0.3333333333333333
 40
0.3333333333333333
 40
0.3333333333333333
 40
0.4444444444444444
 40
0.4444444444444444
 40
0.4444444444444444
 40
0.4444444444444444
 40
0.5555555555555556
 40
0.5555555555555556
 40
0.5555555555555556
 40
0.5555555555555556
 40
0.6666666666666666
 40
0.6666666666666666
 40
0.6666666666666666
 40
0.6666666666666666
 40
0.7777777777777778
 40
0.7777777777777778
 40
0.7777777777777778
 40
0.7777777777777778
 40
1.0
 40
1.0
 40
1.0
 40
1.0
 10
-71.803
 20
113.7343
 30
0.0
 10
-68.5597
 20
113.9881
 30
0.0
 10
-67.3086
 20
116.7427
 30
0.0
 10
-68.0057
 20
118.2029
 30
0.0
 10
-68.0057
 20
118.2029
 30
0.0
 10
-69.8561
 20
117.1901
 30
0.0
 10
-70.4876
 20
117.1514
 30
0.0
 10
-71.9779
 20
118.341
 30
0.0
 10
-71.9779
 20
118.341
 30
0.0
 10
-74.0155
 20
123.6073
 30
0.0
 10
-64.8058
 20
123.5885
 30
0.0
 10
-62.2966
 20
120.6654
 30
0.0
 10
-62.2966
 20
120.6654
 30
0.0
 10
-67.2511
 20
117.8254
 30
0.0
 10
-63.854
 20
112.8871
 30
0.0
 10
-59.9637
 20
112.2379
 30
0.0
 10
-59.9637
 20
112.2379
 30
0.0
 10
-60.9321
 20
115.1695
 30
0.0
 10
-59.1078
 20
116.664
 30
0.0
 10
-56.8023
 20
115.1087
 30
0.0
 10
-56.8023
 20
115.1087
 30
0.0
 10
-54.5774
 20
114.0187
 30
0.0
 10
-52.1917
 20
109.556
 30
0.0
 10
-51.8548
 20
104.7115
 30
0.0
 10
-51.8548
 20
104.7115
 30
0.0
 10
-57.6642
 20
108.4084
 30
0.0
 10
-65.9334
 20
112.4361
 30
0.0
 10
-71.8033
 20
113.7343
 30
0.0
 10
-71.8033
 20
113.7343
 30
0.0
 10
-71.8033
 20
113.7343
 30
0.0
 10
-71.803
 20
113.7343
 30
0.0
 10
-71.803
 20
113.7343
 30
0.0
  0
SPLINE
  5
52
330
1F
100
AcDbEntity
  8
layer 1
 62
     7
100
AcDbSpline
210
0.0
220
0.0
230
1.0
 70
    11
 71
     3
 72
    20
 73
    16
 74
     0
 42
0.0000000001
 43
0.0000000001
 12
1.0
 22
0.0
 32
0.0
 13
1.0
 23
0.0
 33
0.0
 40
0.0
 40
0.0
 40
0.0
 40
0.0
 40
0.2
 40
0.2
 40
0.2
 40
0.2
 40
0.4
 40
0.4
 40
0.4
 40
0.4
 40
0.6
 40
0.6
 40
0.6
 40
0.6
 40
1.0
 40
1.0
 40
1.0
 40
1.0
 10
-83.975
 20
115.7125
 30
0.0
 10
-81.6036
 20
116.2567
 30
0.0
 10
-80.2331
 20
117.1307
 30
0.0
 10
-78.5657
 20
118.9471
 30
0.0
 10
-78.5657
 20
118.9471
 30
0.0
 10
-78.6425
 20
117.5038
 30
0.0
 10
-78.2728
 20
116.329
 30
0.0
 10
-77.7304
 20
114.7997
 30
0.0
 10
-77.7304
 20
114.7997
 30
0.0
 10
-79.3135
 20
115.1387
 30
0.0
 10
-80.8841
 20
115.3981
 30
0.0
 10
-83.9748
 20
115.7125
 30
0.0
 10
-83.9748
 20
115.7125
 30
0.0
 10
-83.9748
 20
115.7125
 30
0.0
 10
-83.975
 20
115.7125
 30
0.0
 10
-83.975
 20
115.7125
 30
0.0
  0
SPLINE
  5
53
330
1F
100
AcDbEntity
  8
layer 1
 62
     7
100
AcDbSpline
210
0.0
220
0.0
230
1.0
 70
    11
 71
     3
 72
    64
 73
    60
 74
     0
 42
0.0000000001
 43
0.0000000001
 12
1.0
 22
0.0
 32
0.0
 13
1.0
 23
0.0
 33
0.0
 40
0.0
 40
0.0
 40
0.0
 40
0.0
 40
0.0625
 40
0.0625
 40
0.0625
 40
0.0625
 40
0.125
 40
0.125
 40
0.125
 40
0.125
 40
0.1875
 40
0.1875
 40
0.1875
 40
0.1875
 40
0.25
 40
0.25
 40
0.25
 40
0.25
 40
0.3125
 40
0.3125
 40
0.3125
 40
0.3125
 40
0.375
 40
0.375
 40
0.375
 40
0.375
 40
0.4375
 40
0.4375
 40
0.4375
 40
0.4375
 40
0.5
 40
0.5
 40
0.5
 40
0.5
 40
0.5625
 40
0.5625
 40
0.5625
 40
0.5625
 40
0.625
 40
0.625
 40
0.625
 40
0.625
 40
0.6875
 40
0.6875
 40
0.6875
 40
0.6875
 40
0.75
 40
0.75
 40
0.75
 40
0.75
 40
0.8125
 40
0.8125
 40
0.8125
 40
0.8125
 40
0.875
 40
0.875
 40
0.875
 40
0.875
 40
1.0
 40
1.0
 40
1.0
 40
1.0
 10
-73.3856
 20
126.8764
 30
0.0
 10
-76.1098
 20
125.3145
 30
0.0
 10
-78.9052
 20
123.6394
 30
0.0
 10
-81.4269
 20
122.0273
 30
0.0
 10
-81.4269
 20
122.0273
 30
0.0
 10
-85.2219
 20
119.5956
 30
0.0
 10
-88.5241
 20
119.042
 30
0.0
 10
-89.9069
 20
121.1525
 30
0.0
 10
-89.9069
 20
121.1525
 30
0.0
 10
-90.4349
 20
121.9585
 30
0.0
 10
-89.7249
 20
124.9346
 30
0.0
 10
-89.5097
 20
125.495
 30
0.0
 10
-89.5097
 20
125.495
 30
0.0
 10
-92.2109
 20
125.0147
 30
0.0
 10
-93.4714
 20
121.53
 30
0.0
 10
-93.4986
 20
119.8045
 30
0.0
 10
-93.4986
 20
119.8045
 30
0.0
 10
-95.7282
 20
120.2116
 30
0.0
 10
-96.6022
 20
119.0408
 30
0.0
 10
-96.7952
 20
118.0123
 30
0.0
 10
-96.7952
 20
118.0123
 30
0.0
 10
-93.7395
 20
118.2907
 30
0.0
 10
-91.7749
 20
117.7292
 30
0.0
 10
-91.1669
 20
116.5882
 30
0.0
 10
-91.1669
 20
116.5882
 30
0.0
 10
-91.1695
 20
116.3321
 30
0.0
 10
-96.7299
 20
117.0838
 30
0.0
 10
-104.6519
 20
117.0223
 30
0.0
 10
-104.6519
 20
117.0223
 30
0.0
 10
-112.5739
 20
117.0838
 30
0.0
 10
-118.1346
 20
116.3318
 30
0.0
 10
-118.137
 20
116.5882
 30
0.0
 10
-118.137
 20
116.5882
 30
0.0
 10
-117.5289
 20
117.7294
 30
0.0
 10
-115.5644
 20
118.2907
 30
0.0
 10
-112.5086
 20
118.0123
 30
0.0
 10
-112.5086
 20
118.0123
 30
0.0
 10
-112.7016
 20
119.041
 30
0.0
 10
-113.5757
 20
120.2116
 30
0.0
 10
-115.8052
 20
119.8045
 30
0.0
 10
-115.8052
 20
119.8045
 30
0.0
 10
-115.8325
 20
121.53
 30
0.0
 10
-117.0929
 20
125.0149
 30
0.0
 10
-119.7942
 20
125.495
 30
0.0
 10
-119.7942
 20
125.495
 30
0.0
 10
-119.5791
 20
124.9344
 30
0.0
 10
-118.869
 20
121.9583
 30
0.0
 10
-119.397
 20
121.1525
 30
0.0
 10
-119.397
 20
121.1525
 30
0.0
 10
-120.7797
 20
119.0422
 30
0.0
 10
-124.082
 20
119.5956
 30
0.0
 10
-127.877
 20
122.0273
 30
0.0
 10
-127.877
 20
122.0273
 30
0.0
 10
-130.3986
 20
123.6394
 30
0.0
 10
-133.194
 20
125.3145
 30
0.0
 10
-135.9182
 20
126.8764
 30
0.0
 10
-135.9182
 20
126.8764
 30
0.0
 10
-135.9182
 20
126.8764
 30
0.0
 10
-73.3856
 20
126.8764
 30
0.0
 10
-73.3856
 20
126.8764
 30
0.0
  0
SPLINE
  5
54
330
1F
100
AcDbEntity
  8
layer 1
 62
     7
100
AcDbSpline
210
0.0
220
0.0
230
1.0
 70
    11
 71
     3
 72
    16
 73
    12
 74
     0
 42
0.0000000001
 43
0.0000000001
 12
1.0
 22
0.0
 32
0.0
 13
1.0
 23
0.0
 33
0.0
 40
0.0
 40
0.0
 40
0.0
 40
0.0
 40
0.25
 40
0.25
 40
0.25
 40
0.25
 40
0.5
 40
0.5
 40
0.5
 40
0.5
 40
1.0
 40
1.0
 40
1.0
 40
1.0
 10
-64.1426
 20
127.1022
 30
0.0
 10
-64.1426
 20
127.1022
 30
0.0
 10
-43.1985
 20
127.1022
 30
0.0
 10
-43.1985
 20
127.1022
 30
0.0
 10
-43.1985
 20
127.1022
 30
0.0
 10
-47.2428
 20
125.1128
 30
0.0
 10
-49.8208
 20
122.1015
 30
0.0
 10
-51.1768
 20
117.6317
 30
0.0
 10
-51.1768
 20
117.6317
 30
0.0
 10
-54.4025
 20
123.2039
 30
0.0
 10
-57.3416
 20
125.6969
 30
0.0
 10
-64.1426
 20
127.1022
 30
0.0
  0
SPLINE
  5
55
330
1F
100
AcDbEntity
  8
layer 1
 62
     7
100
AcDbSpline
210
0.0
220
0.0
230
1.0
 70
    11
 71
     3
 72
    16
 73
    12
 74
     0
 42
0.0000000001
 43
0.0000000001
 12
1.0
 22
0.0
 32
0.0
 13
1.0
 23
0.0
 33
0.0
 40
0.0
 40
0.0
 40
0.0
 40
0.0
 40
0.25
 40
0.25
 40
0.25
 40
0.25
 40
0.5
 40
0.5
 40
0.5
 40
0.5
 40
1.0
 40
1.0
 40
1.0
 40
1.0
 10
-33.7562
 20
127.1022
 30
0.0
 10
-31.1779
 20
127.1022
 30
0.0
 10
-29.2449
 20
127.1022
 30
0.0
 10
-26.7897
 20
127.1022
 30
0.0
 10
-26.7897
 20
127.1022
 30
0.0
 10
-26.7897
 20
124.9767
 30
0.0
 10
-26.7897
 20
123.1647
 30
0.0
 10
-26.7897
 20
120.6797
 30
0.0
 10
-26.7897
 20
120.6797
 30
0.0
 10
-27.8452
 20
124.267
 30
0.0
 10
-30.0074
 20
126.1411
 30
0.0
 10
-33.7562
 20
127.1022
 30
0.0
  0
SPLINE
  5
56
330
1F
100
AcDbEntity
  8
layer 1
 62
     7
100
AcDbSpline
210
0.0
220
0.0
230
1.0
 70
    11
 71
     3
 72
    40
 73
    36
 74
     0
 42
0.0000000001
 43
0.0000000001
 12
1.0
 22
0.0
 32
0.0
 13
1.0
 23
0.0
 33
0.0
 40
0.0
 40
0.0
 40
0.0
 40
0.0
 40
0.1
 40
0.1
 40
0.1
 40
0.1
 40
0.2
 40
0.2
 40
0.2
 40
0.2
 40
0.3
 40
0.3
 40
0.3
 40
0.3
 40
0.4
 40
0.4
 40
0.4
 40
0.4
 40
0.5
 40
0.5
 40
0.5
 40
0.5
 40
0.6
 40
0.6
 40
0.6
 40
0.6
 40
0.7
 40
0.7
 40
0.7
 40
0.7
 40
0.8
 40
0.8
 40
0.8
 40
0.8
 40
1.0
 40
1.0
 40
1.0
 40
1.0
 10
-99.7869
 20
67.024
 30
0.0
 10
-99.7869
 20
67.024
 30
0.0
 10
-99.7876
 20
68.4326
 30
0.0
 10
-99.7876
 20
68.4326
 30
0.0
 10
-99.7876
 20
68.4326
 30
0.0
 10
-101.2908
 20
68.7767
 30
0.0
 10
-103.1197
 20
70.3532
 30
0.0
 10
-102.9706
 20
72.0252
 30
0.0
 10
-102.9706
 20
72.0252
 30
0.0
 10
-102.9706
 20
72.0252
 30
0.0
 10
-106.3339
 20
72.0252
 30
0.0
 10
-106.3339
 20
72.0252
 30
0.0
 10
-106.3339
 20
72.0252
 30
0.0
 10
-106.1848
 20
70.353
 30
0.0
 10
-108.0136
 20
68.7765
 30
0.0
 10
-109.5169
 20
68.4326
 30
0.0
 10
-109.5169
 20
68.4326
 30
0.0
 10
-109.5169
 20
68.4326
 30
0.0
 10
-109.5169
 20
64.6991
 30
0.0
 10
-109.5169
 20
64.6991
 30
0.0
 10
-109.5169
 20
64.6991
 30
0.0
 10
-108.0136
 20
64.3551
 30
0.0
 10
-106.1848
 20
62.7787
 30
0.0
 10
-106.3339
 20
61.1064
 30
0.0
 10
-106.3339
 20
61.1064
 30
0.0
 10
-106.3339
 20
61.1064
 30
0.0
 10
-102.9706
 20
61.1064
 30
0.0
 10
-102.9706
 20
61.1064
 30
0.0
 10
-102.9706
 20
61.1064
 30
0.0
 10
-103.1197
 20
62.7784
 30
0.0
 10
-101.2908
 20
64.3549
 30
0.0
 10
-99.7876
 20
64.6991
 30
0.0
 10
-99.7876
 20
64.6991
 30
0.0
 10
-99.7876
 20
64.6991
 30
0.0
 10
-99.7869
 20
67.024
 30
0.0
 10
-99.7869
 20
67.024
 30
0.0
  0
SPLINE
  5
57
330
1F
100
AcDbEntity
  8
layer 1
 62
     7
100
AcDbSpline
210
0.0
220
0.0
230
1.0
 70
    11
 71
     3
 72
    32
 73
    28
 74
     0
 42
0.0000000001
 43
0.0000000001
 12
1.0
 22
0.0
 32
0.0
 13
1.0
 23
0.0
 33
0.0
 40
0.0
 40
0.0
 40
0.0
 40
0.0
 40
0.125
 40
0.125
 40
0.125
 40
0.125
 40
0.25
 40
0.25
 40
0.25
 40
0.25
 40
0.375
 40
0.375
 40
0.375
 40
0.375
 40
0.5
 40
0.5
 40
0.5
 40
0.5
 40
0.625
 40
0.625
 40
0.625
 40
0.625
 40
0.75
 40
0.75
 40
0.75
 40
0.75
 40
1.0
 40
1.0
 40
1.0
 40
1.0
 10
-167.999
 20
60.8971
 30
0.0
 10
-171.1937
 20
57.3219
 30
0.0
 10
-167.6074
 20
53.1172
 30
0.0
 10
-163.4755
 20
55.0709
 30
0.0
 10
-163.4755
 20
55.0709
 30
0.0
 10
-166.0499
 20
56.0731
 30
0.0
 10
-164.6477
 20
60.8957
 30
0.0
 10
-160.4387
 20
60.5062
 30
0.0
 10
-160.4387
 20
60.5062
 30
0.0
 10
-154.9499
 20
60.29
 30
0.0
 10
-152.0524
 20
59.0004
 30
0.0
 10
-145.7693
 20
56.8622
 30
0.0
 10
-145.7693
 20
56.8622
 30
0.0
 10
-158.936
 20
57.9585
 30
0.0
 10
-165.5532
 20
52.2126
 30
0.0
 10
-164.8258
 20
43.5095
 30
0.0
 10
-164.8258
 20
43.5095
 30
0.0
 10
-169.3282
 20
47.6053
 30
0.0
 10
-173.3021
 20
54.8981
 30
0.0
 10
-174.6163
 20
60.7492
 30
0.0
 10
-174.6163
 20
60.7492
 30
0.0
 10
-172.9307
 20
60.892
 30
0.0
 10
-170.4751
 20
60.887
 30
0.0
 10
-167.9992
 20
60.8971
 30
0.0
 10
-167.9992
 20
60.8971
 30
0.0
 10
-167.9992
 20
60.8971
 30
0.0
 10
-167.999
 20
60.8971
 30
0.0
 10
-167.999
 20
60.8971
 30
0.0
  0
SPLINE
  5
58
330
1F
100
AcDbEntity
  8
layer 1
 62
     7
100
AcDbSpline
210
0.0
220
0.0
230
1.0
 70
    11
 71
     3
 72
    32
 73
    28
 74
     0
 42
0.0000000001
 43
0.0000000001
 12
1.0
 22
0.0
 32
0.0
 13
1.0
 23
0.0
 33
0.0
 40
0.0
 40
0.0
 40
0.0
 40
0.0
 40
0.125
 40
0.125
 40
0.125
 40
0.125
 40
0.25
 40
0.25
 40
0.25
 40
0.25
 40
0.375
 40
0.375
 40
0.375
 40
0.375
 40
0.5
 40
0.5
 40
0.5
 40
0.5
 40
0.625
 40
0.625
 40
0.625
 40
0.625
 40
0.75
 40
0.75
 40
0.75
 40
0.75
 40
1.0
 40
1.0
 40
1.0
 40
1.0
 10
-164.4216
 20
31.8104
 30
0.0
 10
-161.0031
 20
24.5556
 30
0.0
 10
-161.1921
 20
13.3774
 30
0.0
 10
-167.7588
 20
10.6513
 30
0.0
 10
-167.7588
 20
10.6513
 30
0.0
 10
-174.71
 20
7.5199
 30
0.0
 10
-179.2431
 20
15.2767
 30
0.0
 10
-175.0267
 20
18.4481
 30
0.0
 10
-175.0267
 20
18.4481
 30
0.0
 10
-171.543
 20
20.8524
 30
0.0
 10
-169.5689
 20
16.2592
 30
0.0
 10
-172.0766
 20
14.4313
 30
0.0
 10
-172.0766
 20
14.4313
 30
0.0
 10
-167.1045
 20
13.3809
 30
0.0
 10
-164.6455
 20
18.8641
 30
0.0
 10
-167.3372
 20
22.4835
 30
0.0
 10
-167.3372
 20
22.4835
 30
0.0
 10
-172.1471
 20
28.1886
 30
0.0
 10
-180.1036
 20
26.4661
 30
0.0
 10
-182.1867
 20
19.595
 30
0.0
 10
-182.1867
 20
19.595
 30
0.0
 10
-182.1867
 20
19.595
 30
0.0
 10
-182.1629
 20
59.97
 30
0.0
 10
-182.1629
 20
59.97
 30
0.0
 10
-182.1629
 20
59.97
 30
0.0
 10
-179.6646
 20
47.6534
 30
0.0
 10
-174.0285
 20
39.3718
 30
0.0
 10
-164.4216
 20
31.8104
 30
0.0
  0
SPLINE
  5
59
330
1F
100
AcDbEntity
  8
layer 1
 62
     7
100
AcDbSpline
210
0.0
220
0.0
230
1.0
 70
    11
 71
     3
 72
    76
 73
    72
 74
     0
 42
0.0000000001
 43
0.0000000001
 12
1.0
 22
0.0
 32
0.0
 13
1.0
 23
0.0
 33
0.0
 40
0.0
 40
0.0
 40
0.0
 40
0.0
 40
0.0526315789473684
 40
0.0526315789473684
 40
0.0526315789473684
 40
0.0526315789473684
 40
0.1052631578947368
 40
0.1052631578947368
 40
0.1052631578947368
 40
0.1052631578947368
 40
0.1578947368421053
 40
0.1578947368421053
 40
0.1578947368421053
 40
0.1578947368421053
 40
0.2105263157894737
 40
0.2105263157894737
 40
0.2105263157894737
 40
0.2105263157894737
 40
0.2631578947368421
 40
0.2631578947368421
 40
0.2631578947368421
 40
0.2631578947368421
 40
0.3157894736842105
 40
0.3157894736842105
 40
0.3157894736842105
 40
0.3157894736842105
 40
0.3684210526315789
 40
0.3684210526315789
 40
0.3684210526315789
 40
0.3684210526315789
 40
0.4210526315789473
 40
0.4210526315789473
 40
0.4210526315789473
 40
0.4210526315789473
 40
0.4736842105263158
 40
0.4736842105263158
 40
0.4736842105263158
 40
0.4736842105263158
 40
0.5263157894736842
 40
0.5263157894736842
 40
0.5263157894736842
 40
0.5263157894736842
 40
0.5789473684210527
 40
0.5789473684210527
 40
0.5789473684210527
 40
0.5789473684210527
 40
0.631578947368421
 40
0.631578947368421
 40
0.631578947368421
 40
0.631578947368421
 40
0.6842105263157895
 40
0.6842105263157895
 40
0.6842105263157895
 40
0.6842105263157895
 40
0.7368421052631579
 40
0.7368421052631579
 40
0.7368421052631579
 40
0.7368421052631579
 40
0.7894736842105263
 40
0.7894736842105263
 40
0.7894736842105263
 40
0.7894736842105263
 40
0.8421052631578947
 40
0.8421052631578947
 40
0.8421052631578947
 40
0.8421052631578947
 40
0.8947368421052632
 40
0.8947368421052632
 40
0.8947368421052632
 40
0.8947368421052632
 40
1.0
 40
1.0
 40
1.0
 40
1.0
 10
-109.4877
 20
52.3276
 30
0.0
 10
-104.6522
 20
50.2943
 30
0.0
 10
-105.5654
 20
42.7221
 30
0.0
 10
-110.2988
 20
42.7496
 30
0.0
 10
-110.2988
 20
42.7496
 30
0.0
 10
-110.1483
 20
44.2061
 30
0.0
 10
-110.6822
 20
45.9863
 30
0.0
 10
-112.2788
 20
46.712
 30
0.0
 10
-112.2788
 20
46.712
 30
0.0
 10
-121.2356
 20
50.0218
 30
0.0
 10
-129.5443
 20
35.3072
 30
0.0
 10
-115.5609
 20
26.6516
 30
0.0
 10
-115.5609
 20
26.6516
 30
0.0
 10
-112.5054
 20
25.0927
 30
0.0
 10
-108.2894
 20
24.9885
 30
0.0
 10
-107.0226
 20
26.1173
 30
0.0
 10
-107.0226
 20
26.1173
 30
0.0
 10
-104.6522
 20
28.8835
 30
0.0
 10
-107.848
 20
32.186
 30
0.0
 10
-111.3461
 20
29.166
 30
0.0
 10
-111.3461
 20
29.166
 30
0.0
 10
-112.5439
 20
31.7087
 30
0.0
 10
-109.3113
 20
34.2179
 30
0.0
 10
-107.3292
 20
34.5849
 30
0.0
 10
-107.3292
 20
34.5849
 30
0.0
 10
-107.2898
 20
36.0817
 30
0.0
 10
-106.7895
 20
39.93
 30
0.0
 10
-104.6522
 20
40.571
 30
0.0
 10
-104.6522
 20
40.571
 30
0.0
 10
-102.5151
 20
39.9298
 30
0.0
 10
-102.0145
 20
36.0815
 30
0.0
 10
-101.9751
 20
34.5849
 30
0.0
 10
-101.9751
 20
34.5849
 30
0.0
 10
-99.993
 20
34.2182
 30
0.0
 10
-96.7604
 20
31.7087
 30
0.0
 10
-97.9582
 20
29.166
 30
0.0
 10
-97.9582
 20
29.166
 30
0.0
 10
-101.4563
 20
32.186
 30
0.0
 10
-104.6522
 20
28.8835
 30
0.0
 10
-102.2817
 20
26.1173
 30
0.0
 10
-102.2817
 20
26.1173
 30
0.0
 10
-101.0149
 20
24.9885
 30
0.0
 10
-96.7989
 20
25.0927
 30
0.0
 10
-93.7435
 20
26.6516
 30
0.0
 10
-93.7435
 20
26.6516
 30
0.0
 10
-79.7602
 20
35.3072
 30
0.0
 10
-88.0687
 20
50.022
 30
0.0
 10
-97.0255
 20
46.712
 30
0.0
 10
-97.0255
 20
46.712
 30
0.0
 10
-98.6222
 20
45.9863
 30
0.0
 10
-99.156
 20
44.2061
 30
0.0
 10
-99.0055
 20
42.7496
 30
0.0
 10
-99.0055
 20
42.7496
 30
0.0
 10
-103.7389
 20
42.7224
 30
0.0
 10
-104.6522
 20
50.2943
 30
0.0
 10
-99.8166
 20
52.3276
 30
0.0
 10
-99.8166
 20
52.3276
 30
0.0
 10
-101.6507
 20
53.2897
 30
0.0
 10
-102.7637
 20
54.5023
 30
0.0
 10
-102.801
 20
56.4257
 30
0.0
 10
-102.801
 20
56.4257
 30
0.0
 10
-102.801
 20
56.4257
 30
0.0
 10
-106.5704
 20
56.4147
 30
0.0
 10
-106.5704
 20
56.4147
 30
0.0
 10
-106.5704
 20
56.4147
 30
0.0
 10
-106.4702
 20
55.0697
 30
0.0
 10
-107.6645
 20
52.7622
 30
0.0
 10
-109.4874
 20
52.3276
 30
0.0
 10
-109.4874
 20
52.3276
 30
0.0
 10
-109.4874
 20
52.3276
 30
0.0
 10
-109.4877
 20
52.3276
 30
0.0
 10
-109.4877
 20
52.3276
 30
0.0
  0
SPLINE
  5
5A
330
1F
100
AcDbEntity
  8
layer 1
 62
     7
100
AcDbSpline
210
0.0
220
0.0
230
1.0
 70
    11
 71
     3
 72
    20
 73
    16
 74
     0
 42
0.0000000001
 43
0.0000000001
 12
1.0
 22
0.0
 32
0.0
 13
1.0
 23
0.0
 33
0.0
 40
0.0
 40
0.0
 40
0.0
 40
0.0
 40
0.2
 40
0.2
 40
0.2
 40
0.2
 40
0.4
 40
0.4
 40
0.4
 40
0.4
 40
0.6
 40
0.6
 40
0.6
 40
0.6
 40
1.0
 40
1.0
 40
1.0
 40
1.0
 10
-122.0712
 20
48.4864
 30
0.0
 10
-124.6048
 20
46.6338
 30
0.0
 10
-126.1679
 20
44.7813
 30
0.0
 10
-126.6618
 20
41.5809
 30
0.0
 10
-126.6618
 20
41.5809
 30
0.0
 10
-128.2061
 20
49.5412
 30
0.0
 10
-135.9356
 20
49.2576
 30
0.0
 10
-137.9555
 20
47.8567
 30
0.0
 10
-137.9555
 20
47.8567
 30
0.0
 10
-138.0783
 20
49.2245
 30
0.0
 10
-138.7425
 20
53.0418
 30
0.0
 10
-141.0425
 20
54.7706
 30
0.0
 10
-141.0425
 20
54.7706
 30
0.0
 10
-134.2364
 20
52.8695
 30
0.0
 10
-128.0228
 20
49.0825
 30
0.0
 10
-122.0712
 20
48.4864
 30
0.0
  0
SPLINE
  5
5B
330
1F
100
AcDbEntity
  8
layer 1
 62
     7
100
AcDbSpline
210
0.0
220
0.0
230
1.0
 70
    11
 71
     3
 72
    40
 73
    36
 74
     0
 42
0.0000000001
 43
0.0000000001
 12
1.0
 22
0.0
 32
0.0
 13
1.0
 23
0.0
 33
0.0
 40
0.0
 40
0.0
 40
0.0
 40
0.0
 40
0.1
 40
0.1
 40
0.1
 40
0.1
 40
0.2
 40
0.2
 40
0.2
 40
0.2
 40
0.3
 40
0.3
 40
0.3
 40
0.3
 40
0.4
 40
0.4
 40
0.4
 40
0.4
 40
0.5
 40
0.5
 40
0.5
 40
0.5
 40
0.6
 40
0.6
 40
0.6
 40
0.6
 40
0.7
 40
0.7
 40
0.7
 40
0.7
 40
0.8
 40
0.8
 40
0.8
 40
0.8
 40
1.0
 40
1.0
 40
1.0
 40
1.0
 10
-146.7347
 20
44.3263
 30
0.0
 10
-146.2586
 20
51.397
 30
0.0
 10
-155.8441
 20
48.3554
 30
0.0
 10
-153.2988
 20
42.0685
 30
0.0
 10
-153.2988
 20
42.0685
 30
0.0
 10
-150.6504
 20
36.4654
 30
0.0
 10
-144.1161
 20
36.7929
 30
0.0
 10
-139.9565
 20
41.0473
 30
0.0
 10
-139.9565
 20
41.0473
 30
0.0
 10
-140.2572
 20
37.6223
 30
0.0
 10
-136.3568
 20
35.3035
 30
0.0
 10
-134.1439
 20
38.4787
 30
0.0
 10
-134.1439
 20
38.4787
 30
0.0
 10
-137.2609
 20
40.3782
 30
0.0
 10
-135.3381
 20
44.0171
 30
0.0
 10
-132.7223
 20
41.3011
 30
0.0
 10
-132.7223
 20
41.3011
 30
0.0
 10
-128.8045
 20
33.1896
 30
0.0
 10
-125.014
 20
28.842
 30
0.0
 10
-119.1479
 20
23.5508
 30
0.0
 10
-119.1479
 20
23.5508
 30
0.0
 10
-131.8417
 20
24.4971
 30
0.0
 10
-148.4316
 20
29.0913
 30
0.0
 10
-158.6813
 20
37.6084
 30
0.0
 10
-158.6813
 20
37.6084
 30
0.0
 10
-159.8316
 20
43.5901
 30
0.0
 10
-158.2052
 20
49.1386
 30
0.0
 10
-153.6117
 20
51.6766
 30
0.0
 10
-153.6117
 20
51.6766
 30
0.0
 10
-145.4474
 20
55.8208
 30
0.0
 10
-140.0454
 20
46.1826
 30
0.0
 10
-146.7347
 20
44.3261
 30
0.0
 10
-146.7347
 20
44.3261
 30
0.0
 10
-146.7347
 20
44.3261
 30
0.0
 10
-146.7347
 20
44.3263
 30
0.0
 10
-146.7347
 20
44.3263
 30
0.0
  0
SPLINE
  5
5C
330
1F
100
AcDbEntity
  8
layer 1
 62
     7
100
AcDbSpline
210
0.0
220
0.0
230
1.0
 70
    11
 71
     3
 72
    36
 73
    32
 74
     0
 42
0.0000000001
 43
0.0000000001
 12
1.0
 22
0.0
 32
0.0
 13
1.0
 23
0.0
 33
0.0
 40
0.0
 40
0.0
 40
0.0
 40
0.0
 40
0.1111111111111111
 40
0.1111111111111111
 40
0.1111111111111111
 40
0.1111111111111111
 40
0.2222222222222222
 40
0.2222222222222222
 40
0.2222222222222222
 40
0.2222222222222222
 40
0.3333333333333333
 40
0.3333333333333333
 40
0.3333333333333333
 40
0.3333333333333333
 40
0.4444444444444444
 40
0.4444444444444444
 40
0.4444444444444444
 40
0.4444444444444444
 40
0.5555555555555556
 40
0.5555555555555556
 40
0.5555555555555556
 40
0.5555555555555556
 40
0.6666666666666666
 40
0.6666666666666666
 40
0.6666666666666666
 40
0.6666666666666666
 40
0.7777777777777778
 40
0.7777777777777778
 40
0.7777777777777778
 40
0.7777777777777778
 40
1.0
 40
1.0
 40
1.0
 40
1.0
 10
-137.5013
 20
19.3971
 30
0.0
 10
-140.7446
 20
19.1433
 30
0.0
 10
-141.9957
 20
16.3887
 30
0.0
 10
-141.2986
 20
14.9285
 30
0.0
 10
-141.2986
 20
14.9285
 30
0.0
 10
-139.4482
 20
15.9413
 30
0.0
 10
-138.8167
 20
15.98
 30
0.0
 10
-137.3264
 20
14.7905
 30
0.0
 10
-137.3264
 20
14.7905
 30
0.0
 10
-135.2888
 20
9.5241
 30
0.0
 10
-144.4985
 20
9.5429
 30
0.0
 10
-147.0077
 20
12.466
 30
0.0
 10
-147.0077
 20
12.466
 30
0.0
 10
-142.0532
 20
15.306
 30
0.0
 10
-145.4503
 20
20.2443
 30
0.0
 10
-149.3406
 20
20.8935
 30
0.0
 10
-149.3406
 20
20.8935
 30
0.0
 10
-148.3722
 20
17.9619
 30
0.0
 10
-150.1966
 20
16.4674
 30
0.0
 10
-152.502
 20
18.0227
 30
0.0
 10
-152.502
 20
18.0227
 30
0.0
 10
-154.7269
 20
19.1128
 30
0.0
 10
-157.1126
 20
23.5754
 30
0.0
 10
-157.4495
 20
28.4199
 30
0.0
 10
-157.4495
 20
28.4199
 30
0.0
 10
-151.6401
 20
24.723
 30
0.0
 10
-143.3709
 20
20.6953
 30
0.0
 10
-137.501
 20
19.3971
 30
0.0
 10
-137.501
 20
19.3971
 30
0.0
 10
-137.501
 20
19.3971
 30
0.0
 10
-137.5013
 20
19.3971
 30
0.0
 10
-137.5013
 20
19.3971
 30
0.0
  0
SPLINE
  5
5D
330
1F
100
AcDbEntity
  8
layer 1
 62
     7
100
AcDbSpline
210
0.0
220
0.0
230
1.0
 70
    11
 71
     3
 72
    20
 73
    16
 74
     0
 42
0.0000000001
 43
0.0000000001
 12
1.0
 22
0.0
 32
0.0
 13
1.0
 23
0.0
 33
0.0
 40
0.0
 40
0.0
 40
0.0
 40
0.0
 40
0.2
 40
0.2
 40
0.2
 40
0.2
 40
0.4
 40
0.4
 40
0.4
 40
0.4
 40
0.6
 40
0.6
 40
0.6
 40
0.6
 40
1.0
 40
1.0
 40
1.0
 40
1.0
 10
-125.3295
 20
17.4189
 30
0.0
 10
-127.7009
 20
16.8747
 30
0.0
 10
-129.0715
 20
16.0007
 30
0.0
 10
-130.7388
 20
14.1843
 30
0.0
 10
-130.7388
 20
14.1843
 30
0.0
 10
-130.662
 20
15.6276
 30
0.0
 10
-131.0318
 20
16.8024
 30
0.0
 10
-131.5741
 20
18.3314
 30
0.0
 10
-131.5741
 20
18.3314
 30
0.0
 10
-129.9911
 20
17.9924
 30
0.0
 10
-128.4205
 20
17.733
 30
0.0
 10
-125.3298
 20
17.4187
 30
0.0
 10
-125.3298
 20
17.4187
 30
0.0
 10
-125.3298
 20
17.4187
 30
0.0
 10
-125.3295
 20
17.4189
 30
0.0
 10
-125.3295
 20
17.4189
 30
0.0
  0
SPLINE
  5
5E
330
1F
100
AcDbEntity
  8
layer 1
 62
     7
100
AcDbSpline
210
0.0
220
0.0
230
1.0
 70
    11
 71
     3
 72
    32
 73
    28
 74
     0
 42
0.0000000001
 43
0.0000000001
 12
1.0
 22
0.0
 32
0.0
 13
1.0
 23
0.0
 33
0.0
 40
0.0
 40
0.0
 40
0.0
 40
0.0
 40
0.125
 40
0.125
 40
0.125
 40
0.125
 40
0.25
 40
0.25
 40
0.25
 40
0.25
 40
0.375
 40
0.375
 40
0.375
 40
0.375
 40
0.5
 40
0.5
 40
0.5
 40
0.5
 40
0.625
 40
0.625
 40
0.625
 40
0.625
 40
0.75
 40
0.75
 40
0.75
 40
0.75
 40
1.0
 40
1.0
 40
1.0
 40
1.0
 10
-41.3053
 20
60.8971
 30
0.0
 10
-38.1106
 20
57.3219
 30
0.0
 10
-41.6969
 20
53.1172
 30
0.0
 10
-45.8288
 20
55.0709
 30
0.0
 10
-45.8288
 20
55.0709
 30
0.0
 10
-43.2544
 20
56.0731
 30
0.0
 10
-44.6566
 20
60.8957
 30
0.0
 10
-48.8656
 20
60.5062
 30
0.0
 10
-48.8656
 20
60.5062
 30
0.0
 10
-54.3544
 20
60.29
 30
0.0
 10
-57.2519
 20
59.0004
 30
0.0
 10
-63.535
 20
56.8622
 30
0.0
 10
-63.535
 20
56.8622
 30
0.0
 10
-50.3683
 20
57.9585
 30
0.0
 10
-43.7511
 20
52.2126
 30
0.0
 10
-44.4785
 20
43.5095
 30
0.0
 10
-44.4785
 20
43.5095
 30
0.0
 10
-39.9761
 20
47.6053
 30
0.0
 10
-36.0022
 20
54.8981
 30
0.0
 10
-34.688
 20
60.7492
 30
0.0
 10
-34.688
 20
60.7492
 30
0.0
 10
-36.3736
 20
60.892
 30
0.0
 10
-38.8293
 20
60.887
 30
0.0
 10
-41.3051
 20
60.8971
 30
0.0
 10
-41.3051
 20
60.8971
 30
0.0
 10
-41.3051
 20
60.8971
 30
0.0
 10
-41.3053
 20
60.8971
 30
0.0
 10
-41.3053
 20
60.8971
 30
0.0
  0
SPLINE
  5
5F
330
1F
100
AcDbEntity
  8
layer 1
 62
     7
100
AcDbSpline
210
0.0
220
0.0
230
1.0
 70
    11
 71
     3
 72
    32
 73
    28
 74
     0
 42
0.0000000001
 43
0.0000000001
 12
1.0
 22
0.0
 32
0.0
 13
1.0
 23
0.0
 33
0.0
 40
0.0
 40
0.0
 40
0.0
 40
0.0
 40
0.125
 40
0.125
 40
0.125
 40
0.125
 40
0.25
 40
0.25
 40
0.25
 40
0.25
 40
0.375
 40
0.375
 40
0.375
 40
0.375
 40
0.5
 40
0.5
 40
0.5
 40
0.5
 40
0.625
 40
0.625
 40
0.625
 40
0.625
 40
0.75
 40
0.75
 40
0.75
 40
0.75
 40
1.0
 40
1.0
 40
1.0
 40
1.0
 10
-44.883
 20
31.8104
 30
0.0
 10
-48.3014
 20
24.5556
 30
0.0
 10
-48.1124
 20
13.3774
 30
0.0
 10
-41.5457
 20
10.6513
 30
0.0
 10
-41.5457
 20
10.6513
 30
0.0
 10
-34.5945
 20
7.5199
 30
0.0
 10
-30.0614
 20
15.2767
 30
0.0
 10
-34.2778
 20
18.4481
 30
0.0
 10
-34.2778
 20
18.4481
 30
0.0
 10
-37.7615
 20
20.8524
 30
0.0
 10
-39.7357
 20
16.2592
 30
0.0
 10
-37.2279
 20
14.4313
 30
0.0
 10
-37.2279
 20
14.4313
 30
0.0
 10
-42.2
 20
13.3809
 30
0.0
 10
-44.659
 20
18.8641
 30
0.0
 10
-41.9674
 20
22.4835
 30
0.0
 10
-41.9674
 20
22.4835
 30
0.0
 10
-37.1575
 20
28.1886
 30
0.0
 10
-29.201
 20
26.4661
 30
0.0
 10
-27.1179
 20
19.595
 30
0.0
 10
-27.1179
 20
19.595
 30
0.0
 10
-27.1179
 20
19.595
 30
0.0
 10
-27.1416
 20
59.97
 30
0.0
 10
-27.1416
 20
59.97
 30
0.0
 10
-27.1416
 20
59.97
 30
0.0
 10
-29.6562
 20
47.5741
 30
0.0
 10
-35.25
 20
39.4213
 30
0.0
 10
-44.883
 20
31.8104
 30
0.0
  0
SPLINE
  5
60
330
1F
100
AcDbEntity
  8
layer 1
 62
     7
100
AcDbSpline
210
0.0
220
0.0
230
1.0
 70
    11
 71
     3
 72
    20
 73
    16
 74
     0
 42
0.0000000001
 43
0.0000000001
 12
1.0
 22
0.0
 32
0.0
 13
1.0
 23
0.0
 33
0.0
 40
0.0
 40
0.0
 40
0.0
 40
0.0
 40
0.2
 40
0.2
 40
0.2
 40
0.2
 40
0.4
 40
0.4
 40
0.4
 40
0.4
 40
0.6
 40
0.6
 40
0.6
 40
0.6
 40
1.0
 40
1.0
 40
1.0
 40
1.0
 10
-87.2334
 20
48.4864
 30
0.0
 10
-84.6997
 20
46.6338
 30
0.0
 10
-83.1367
 20
44.7813
 30
0.0
 10
-82.6427
 20
41.5809
 30
0.0
 10
-82.6427
 20
41.5809
 30
0.0
 10
-81.0984
 20
49.5412
 30
0.0
 10
-73.3689
 20
49.2576
 30
0.0
 10
-71.349
 20
47.8567
 30
0.0
 10
-71.349
 20
47.8567
 30
0.0
 10
-71.2262
 20
49.2245
 30
0.0
 10
-70.5621
 20
53.0418
 30
0.0
 10
-68.262
 20
54.7706
 30
0.0
 10
-68.262
 20
54.7706
 30
0.0
 10
-75.0682
 20
52.8695
 30
0.0
 10
-81.2818
 20
49.0825
 30
0.0
 10
-87.2334
 20
48.4864
 30
0.0
  0
SPLINE
  5
61
330
1F
100
AcDbEntity
  8
layer 1
 62
     7
100
AcDbSpline
210
0.0
220
0.0
230
1.0
 70
    11
 71
     3
 72
    40
 73
    36
 74
     0
 42
0.0000000001
 43
0.0000000001
 12
1.0
 22
0.0
 32
0.0
 13
1.0
 23
0.0
 33
0.0
 40
0.0
 40
0.0
 40
0.0
 40
0.0
 40
0.1
 40
0.1
 40
0.1
 40
0.1
 40
0.2
 40
0.2
 40
0.2
 40
0.2
 40
0.3
 40
0.3
 40
0.3
 40
0.3
 40
0.4
 40
0.4
 40
0.4
 40
0.4
 40
0.5
 40
0.5
 40
0.5
 40
0.5
 40
0.6
 40
0.6
 40
0.6
 40
0.6
 40
0.7
 40
0.7
 40
0.7
 40
0.7
 40
0.8
 40
0.8
 40
0.8
 40
0.8
 40
1.0
 40
1.0
 40
1.0
 40
1.0
 10
-62.5699
 20
44.3263
 30
0.0
 10
-63.046
 20
51.397
 30
0.0
 10
-53.4604
 20
48.3554
 30
0.0
 10
-56.0058
 20
42.0685
 30
0.0
 10
-56.0058
 20
42.0685
 30
0.0
 10
-58.6542
 20
36.4654
 30
0.0
 10
-65.1885
 20
36.7929
 30
0.0
 10
-69.3481
 20
41.0473
 30
0.0
 10
-69.3481
 20
41.0473
 30
0.0
 10
-69.0473
 20
37.6223
 30
0.0
 10
-72.9478
 20
35.3035
 30
0.0
 10
-75.1607
 20
38.4787
 30
0.0
 10
-75.1607
 20
38.4787
 30
0.0
 10
-72.0437
 20
40.3782
 30
0.0
 10
-73.9664
 20
44.0171
 30
0.0
 10
-76.5822
 20
41.3011
 30
0.0
 10
-76.5822
 20
41.3011
 30
0.0
 10
-80.5
 20
33.1896
 30
0.0
 10
-84.2905
 20
28.842
 30
0.0
 10
-90.1567
 20
23.5508
 30
0.0
 10
-90.1567
 20
23.5508
 30
0.0
 10
-77.4628
 20
24.4971
 30
0.0
 10
-60.873
 20
29.0913
 30
0.0
 10
-50.6233
 20
37.6084
 30
0.0
 10
-50.6233
 20
37.6084
 30
0.0
 10
-49.4729
 20
43.5901
 30
0.0
 10
-51.0994
 20
49.1386
 30
0.0
 10
-55.6928
 20
51.6766
 30
0.0
 10
-55.6928
 20
51.6766
 30
0.0
 10
-63.8571
 20
55.8208
 30
0.0
 10
-69.2591
 20
46.1826
 30
0.0
 10
-62.5699
 20
44.3261
 30
0.0
 10
-62.5699
 20
44.3261
 30
0.0
 10
-62.5699
 20
44.3261
 30
0.0
 10
-62.5699
 20
44.3263
 30
0.0
 10
-62.5699
 20
44.3263
 30
0.0
  0
SPLINE
  5
62
330
1F
100
AcDbEntity
  8
layer 1
 62
     7
100
AcDbSpline
210
0.0
220
0.0
230
1.0
 70
    11
 71
     3
 72
    36
 73
    32
 74
     0
 42
0.0000000001
 43
0.0000000001
 12
1.0
 22
0.0
 32
0.0
 13
1.0
 23
0.0
 33
0.0
 40
0.0
 40
0.0
 40
0.0
 40
0.0
 40
0.1111111111111111
 40
0.1111111111111111
 40
0.1111111111111111
 40
0.1111111111111111
 40
0.2222222222222222
 40
0.2222222222222222
 40
0.2222222222222222
 40
0.2222222222222222
 40
0.3333333333333333
 40
0.3333333333333333
 40
0.3333333333333333
 40
0.3333333333333333
 40
0.4444444444444444
 40
0.4444444444444444
 40
0.4444444444444444
 40
0.4444444444444444
 40
0.5555555555555556
 40
0.5555555555555556
 40
0.5555555555555556
 40
0.5555555555555556
 40
0.6666666666666666
 40
0.6666666666666666
 40
0.6666666666666666
 40
0.6666666666666666
 40
0.7777777777777778
 40
0.7777777777777778
 40
0.7777777777777778
 40
0.7777777777777778
 40
1.0
 40
1.0
 40
1.0
 40
1.0
 10
-71.803
 20
19.3971
 30
0.0
 10
-68.5597
 20
19.1433
 30
0.0
 10
-67.3086
 20
16.3887
 30
0.0
 10
-68.0057
 20
14.9285
 30
0.0
 10
-68.0057
 20
14.9285
 30
0.0
 10
-69.8561
 20
15.9413
 30
0.0
 10
-70.4876
 20
15.98
 30
0.0
 10
-71.9779
 20
14.7905
 30
0.0
 10
-71.9779
 20
14.7905
 30
0.0
 10
-74.0155
 20
9.5241
 30
0.0
 10
-64.8058
 20
9.5429
 30
0.0
 10
-62.2966
 20
12.466
 30
0.0
 10
-62.2966
 20
12.466
 30
0.0
 10
-67.2511
 20
15.306
 30
0.0
 10
-63.854
 20
20.2443
 30
0.0
 10
-59.9637
 20
20.8935
 30
0.0
 10
-59.9637
 20
20.8935
 30
0.0
 10
-60.9321
 20
17.9619
 30
0.0
 10
-59.1078
 20
16.4674
 30
0.0
 10
-56.8023
 20
18.0227
 30
0.0
 10
-56.8023
 20
18.0227
 30
0.0
 10
-54.5774
 20
19.1128
 30
0.0
 10
-52.1917
 20
23.5754
 30
0.0
 10
-51.8548
 20
28.4199
 30
0.0
 10
-51.8548
 20
28.4199
 30
0.0
 10
-57.6642
 20
24.723
 30
0.0
 10
-65.9334
 20
20.6953
 30
0.0
 10
-71.8033
 20
19.3971
 30
0.0
 10
-71.8033
 20
19.3971
 30
0.0
 10
-71.8033
 20
19.3971
 30
0.0
 10
-71.803
 20
19.3971
 30
0.0
 10
-71.803
 20
19.3971
 30
0.0
  0
SPLINE
  5
63
330
1F
100
AcDbEntity
  8
layer 1
 62
     7
100
AcDbSpline
210
0.0
220
0.0
230
1.0
 70
    11
 71
     3
 72
    20
 73
    16
 74
     0
 42
0.0000000001
 43
0.0000000001
 12
1.0
 22
0.0
 32
0.0
 13
1.0
 23
0.0
 33
0.0
 40
0.0
 40
0.0
 40
0.0
 40
0.0
 40
0.2
 40
0.2
 40
0.2
 40
0.2
 40
0.4
 40
0.4
 40
0.4
 40
0.4
 40
0.6
 40
0.6
 40
0.6
 40
0.6
 40
1.0
 40
1.0
 40
1.0
 40
1.0
 10
-83.975
 20
17.4189
 30
0.0
 10
-81.6036
 20
16.8747
 30
0.0
 10
-80.2331
 20
16.0007
 30
0.0
 10
-78.5657
 20
14.1843
 30
0.0
 10
-78.5657
 20
14.1843
 30
0.0
 10
-78.6425
 20
15.6276
 30
0.0
 10
-78.2728
 20
16.8024
 30
0.0
 10
-77.7304
 20
18.3314
 30
0.0
 10
-77.7304
 20
18.3314
 30
0.0
 10
-79.3135
 20
17.9924
 30
0.0
 10
-80.8841
 20
17.733
 30
0.0
 10
-83.9748
 20
17.4187
 30
0.0
 10
-83.9748
 20
17.4187
 30
0.0
 10
-83.9748
 20
17.4187
 30
0.0
 10
-83.975
 20
17.4189
 30
0.0
 10
-83.975
 20
17.4189
 30
0.0
  0
SPLINE
  5
64
330
1F
100
AcDbEntity
  8
layer 1
100
AcDbSpline
210
0.0
220
0.0
230
1.0
 70
    11
 71
     3
 72
    60
 73
    56
 74
     0
 42
0.0000000001
 43
0.0000000001
 12
1.0
 22
0.0
 32
0.0
 13
1.0
 23
0.0
 33
0.0
 40
0.0
 40
0.0
 40
0.0
 40
0.0
 40
0.0666666666666667
 40
0.0666666666666667
 40
0.0666666666666667
 40
0.0666666666666667
 40
0.1333333333333333
 40
0.1333333333333333
 40
0.1333333333333333
 40
0.1333333333333333
 40
0.2
 40
0.2
 40
0.2
 40
0.2
 40
0.2666666666666667
 40
0.2666666666666667
 40
0.2666666666666667
 40
0.2666666666666667
 40
0.3333333333333333
 40
0.3333333333333333
 40
0.3333333333333333
 40
0.3333333333333333
 40
0.4
 40
0.4
 40
0.4
 40
0.4
 40
0.4666666666666667
 40
0.4666666666666667
 40
0.4666666666666667
 40
0.4666666666666667
 40
0.5333333333333333
 40
0.5333333333333333
 40
0.5333333333333333
 40
0.5333333333333333
 40
0.6
 40
0.6
 40
0.6
 40
0.6
 40
0.6666666666666666
 40
0.6666666666666666
 40
0.6666666666666666
 40
0.6666666666666666
 40
0.7333333333333333
 40
0.7333333333333333
 40
0.7333333333333333
 40
0.7333333333333333
 40
0.8
 40
0.8
 40
0.8
 40
0.8
 40
0.8666666666666667
 40
0.8666666666666667
 40
0.8666666666666667
 40
0.8666666666666667
 40
1.0
 40
1.0
 40
1.0
 40
1.0
 10
-187.451
 20
-1.3666
 30
0.0
 10
-187.451
 20
-1.3666
 30
0.0
 10
-187.3319
 20
-129.1011
 30
0.0
 10
-187.3319
 20
-129.1011
 30
0.0
 10
-187.3319
 20
-129.1011
 30
0.0
 10
-187.3319
 20
-129.1011
 30
0.0
 10
-165.5957
 20
-129.2
 30
0.0
 10
-165.5957
 20
-129.2
 30
0.0
 10
-165.5957
 20
-129.2
 30
0.0
 10
-165.5957
 20
-129.2
 30
0.0
 10
-165.6002
 20
-118.5507
 30
0.0
 10
-165.6002
 20
-118.5507
 30
0.0
 10
-165.6002
 20
-118.5507
 30
0.0
 10
-156.8628
 20
-117.7746
 30
0.0
 10
-148.1911
 20
-113.789
 30
0.0
 10
-145.1682
 20
-104.3211
 30
0.0
 10
-145.1682
 20
-104.3211
 30
0.0
 10
-145.1682
 20
-104.3211
 30
0.0
 10
-133.3328
 20
-104.2827
 30
0.0
 10
-133.3328
 20
-104.2827
 30
0.0
 10
-133.3328
 20
-104.2827
 30
0.0
 10
-128.5835
 20
-95.1374
 30
0.0
 10
-120.1491
 20
-85.6845
 30
0.0
 10
-104.9765
 20
-86.4225
 30
0.0
 10
-104.9765
 20
-86.4225
 30
0.0
 10
-89.8039
 20
-85.6845
 30
0.0
 10
-81.3695
 20
-95.1374
 30
0.0
 10
-76.6202
 20
-104.2827
 30
0.0
 10
-76.6202
 20
-104.2827
 30
0.0
 10
-76.6202
 20
-104.2827
 30
0.0
 10
-64.7848
 20
-104.3211
 30
0.0
 10
-64.7848
 20
-104.3211
 30
0.0
 10
-64.7848
 20
-104.3211
 30
0.0
 10
-61.7619
 20
-113.789
 30
0.0
 10
-53.0902
 20
-117.7746
 30
0.0
 10
-44.3528
 20
-118.5507
 30
0.0
 10
-44.3528
 20
-118.5507
 30
0.0
 10
-44.3528
 20
-118.5507
 30
0.0
 10
-44.3573
 20
-129.2
 30
0.0
 10
-44.3573
 20
-129.2
 30
0.0
 10
-44.3573
 20
-129.2
 30
0.0
 10
-44.3573
 20
-129.2
 30
0.0
 10
-22.621
 20
-129.1011
 30
0.0
 10
-22.621
 20
-129.1011
 30
0.0
 10
-22.621
 20
-129.1011
 30
0.0
 10
-22.621
 20
-129.1011
 30
0.0
 10
-22.5019
 20
-1.3666
 30
0.0
 10
-22.5019
 20
-1.3666
 30
0.0
 10
-22.5019
 20
-1.3666
 30
0.0
 10
-77.485
 20
-1.4537
 30
0.0
 10
-132.468
 20
-1.4063
 30
0.0
 10
-187.4511
 20
-1.3666
 30
0.0
 10
-187.4511
 20
-1.3666
 30
0.0
 10
-187.4511
 20
-1.3666
 30
0.0
 10
-187.451
 20
-1.3666
 30
0.0
 10
-187.451
 20
-1.3666
 30
0.0
  0
SPLINE
  5
65
330
1F
100
AcDbEntity
  8
layer 1
 62
     7
100
AcDbSpline
210
0.0
220
0.0
230
1.0
 70
    11
 71
     3
 72
    28
 73
    24
 74
     0
 42
0.0000000001
 43
0.0000000001
 12
1.0
 22
0.0
 32
0.0
 13
1.0
 23
0.0
 33
0.0
 40
0.0
 40
0.0
 40
0.0
 40
0.0
 40
0.1428571428571428
 40
0.1428571428571428
 40
0.1428571428571428
 40
0.1428571428571428
 40
0.2857142857142857
 40
0.2857142857142857
 40
0.2857142857142857
 40
0.2857142857142857
 40
0.4285714285714285
 40
0.4285714285714285
 40
0.4285714285714285
 40
0.4285714285714285
 40
0.5714285714285714
 40
0.5714285714285714
 40
0.5714285714285714
 40
0.5714285714285714
 40
0.7142857142857143
 40
0.7142857142857143
 40
0.7142857142857143
 40
0.7142857142857143
 40
1.0
 40
1.0
 40
1.0
 40
1.0
 10
-144.3372
 20
-8.1361
 30
0.0
 10
-151.0734
 20
-11.2201
 30
0.0
 10
-155.1802
 20
-14.6588
 30
0.0
 10
-158.7666
 20
-20.4591
 30
0.0
 10
-158.7666
 20
-20.4591
 30
0.0
 10
-159.6957
 20
-14.8147
 30
0.0
 10
-165.7519
 20
-17.0372
 30
0.0
 10
-167.0085
 20
-20.9151
 30
0.0
 10
-167.0085
 20
-20.9151
 30
0.0
 10
-167.4917
 20
-17.173
 30
0.0
 10
-170.5207
 20
-16.6978
 30
0.0
 10
-173.4997
 20
-17.3152
 30
0.0
 10
-173.4997
 20
-17.3152
 30
0.0
 10
-170.0439
 20
-10.7748
 30
0.0
 10
-179.9946
 20
-7.548
 30
0.0
 10
-179.9946
 20
-18.1429
 30
0.0
 10
-179.9946
 20
-18.1429
 30
0.0
 10
-179.9946
 20
-16.4583
 30
0.0
 10
-179.9946
 20
-9.8207
 30
0.0
 10
-179.9946
 20
-8.1361
 30
0.0
 10
-179.9946
 20
-8.1361
 30
0.0
 10
-179.9946
 20
-8.1361
 30
0.0
 10
-144.3372
 20
-8.1361
 30
0.0
 10
-144.3372
 20
-8.1361
 30
0.0
  0
SPLINE
  5
66
330
1F
100
AcDbEntity
  8
layer 1
 62
     7
100
AcDbSpline
210
0.0
220
0.0
230
1.0
 70
    11
 71
     3
 72
    20
 73
    16
 74
     0
 42
0.0000000001
 43
0.0000000001
 12
1.0
 22
0.0
 32
0.0
 13
1.0
 23
0.0
 33
0.0
 40
0.0
 40
0.0
 40
0.0
 40
0.0
 40
0.2
 40
0.2
 40
0.2
 40
0.2
 40
0.4
 40
0.4
 40
0.4
 40
0.4
 40
0.6
 40
0.6
 40
0.6
 40
0.6
 40
1.0
 40
1.0
 40
1.0
 40
1.0
 10
-106.7152
 20
-17.7563
 30
0.0
 10
-110.9519
 20
-16.4099
 30
0.0
 10
-113.3476
 20
-18.3328
 30
0.0
 10
-114.4262
 20
-21.9535
 30
0.0
 10
-114.4262
 20
-21.9535
 30
0.0
 10
-119.4576
 20
-13.5122
 30
0.0
 10
-128.524
 20
-9.5496
 30
0.0
 10
-135.8839
 20
-8.1361
 30
0.0
 10
-135.8839
 20
-8.1361
 30
0.0
 10
-123.7257
 20
-8.1361
 30
0.0
 10
-112.0726
 20
-8.1361
 30
0.0
 10
-106.7152
 20
-17.7563
 30
0.0
 10
-106.7152
 20
-17.7563
 30
0.0
 10
-106.7152
 20
-17.7563
 30
0.0
 10
-106.7152
 20
-17.7563
 30
0.0
 10
-106.7152
 20
-17.7563
 30
0.0
  0
SPLINE
  5
67
330
1F
100
AcDbEntity
  8
layer 1
 62
     7
100
AcDbSpline
210
0.0
220
0.0
230
1.0
 70
    11
 71
     3
 72
    60
 73
    56
 74
     0
 42
0.0000000001
 43
0.0000000001
 12
1.0
 22
0.0
 32
0.0
 13
1.0
 23
0.0
 33
0.0
 40
0.0
 40
0.0
 40
0.0
 40
0.0
 40
0.0666666666666667
 40
0.0666666666666667
 40
0.0666666666666667
 40
0.0666666666666667
 40
0.1333333333333333
 40
0.1333333333333333
 40
0.1333333333333333
 40
0.1333333333333333
 40
0.2
 40
0.2
 40
0.2
 40
0.2
 40
0.2666666666666667
 40
0.2666666666666667
 40
0.2666666666666667
 40
0.2666666666666667
 40
0.3333333333333333
 40
0.3333333333333333
 40
0.3333333333333333
 40
0.3333333333333333
 40
0.4
 40
0.4
 40
0.4
 40
0.4
 40
0.4666666666666667
 40
0.4666666666666667
 40
0.4666666666666667
 40
0.4666666666666667
 40
0.5333333333333333
 40
0.5333333333333333
 40
0.5333333333333333
 40
0.5333333333333333
 40
0.6
 40
0.6
 40
0.6
 40
0.6
 40
0.6666666666666666
 40
0.6666666666666666
 40
0.6666666666666666
 40
0.6666666666666666
 40
0.7333333333333333
 40
0.7333333333333333
 40
0.7333333333333333
 40
0.7333333333333333
 40
0.8
 40
0.8
 40
0.8
 40
0.8
 40
0.8666666666666667
 40
0.8666666666666667
 40
0.8666666666666667
 40
0.8666666666666667
 40
1.0
 40
1.0
 40
1.0
 40
1.0
 10
-126.3112
 20
-18.0636
 30
0.0
 10
-128.5025
 20
-18.9877
 30
0.0
 10
-131.2275
 20
-20.5632
 30
0.0
 10
-132.2738
 20
-22.5022
 30
0.0
 10
-132.2738
 20
-22.5022
 30
0.0
 10
-132.6431
 20
-23.1173
 30
0.0
 10
-132.6754
 20
-23.4511
 30
0.0
 10
-131.74
 20
-23.2025
 30
0.0
 10
-131.74
 20
-23.2025
 30
0.0
 10
-127.9216
 20
-22.0567
 30
0.0
 10
-120.5085
 20
-23.9887
 30
0.0
 10
-117.3957
 20
-28.268
 30
0.0
 10
-117.3957
 20
-28.268
 30
0.0
 10
-119.8861
 20
-26.9547
 30
0.0
 10
-125.8437
 20
-26.1627
 30
0.0
 10
-128.6538
 20
-27.14
 30
0.0
 10
-128.6538
 20
-27.14
 30
0.0
 10
-129.206
 20
-27.5036
 30
0.0
 10
-130.5735
 20
-28.2406
 30
0.0
 10
-131.5255
 20
-28.6345
 30
0.0
 10
-131.5255
 20
-28.6345
 30
0.0
 10
-132.9615
 20
-29.2287
 30
0.0
 10
-133.731
 20
-29.4887
 30
0.0
 10
-131.5496
 20
-30.059
 30
0.0
 10
-131.5496
 20
-30.059
 30
0.0
 10
-130.8338
 20
-30.2421
 30
0.0
 10
-129.4512
 20
-30.6182
 30
0.0
 10
-128.4773
 20
-31.1087
 30
0.0
 10
-128.4773
 20
-31.1087
 30
0.0
 10
-124.8881
 20
-34.4865
 30
0.0
 10
-117.5375
 20
-30.933
 30
0.0
 10
-114.9037
 20
-33.794
 30
0.0
 10
-114.9037
 20
-33.794
 30
0.0
 10
-120.6809
 20
-32.7728
 30
0.0
 10
-127.4303
 20
-36.1233
 30
0.0
 10
-128.4974
 20
-42.6403
 30
0.0
 10
-128.4974
 20
-42.6403
 30
0.0
 10
-130.033
 20
-39.1149
 30
0.0
 10
-132.6524
 20
-38.9307
 30
0.0
 10
-136.9824
 20
-40.7607
 30
0.0
 10
-136.9824
 20
-40.7607
 30
0.0
 10
-135.7464
 20
-38.1974
 30
0.0
 10
-135.4322
 20
-32.8736
 30
0.0
 10
-143.4468
 20
-34.0458
 30
0.0
 10
-143.4468
 20
-34.0458
 30
0.0
 10
-133.9035
 20
-30.158
 30
0.0
 10
-136.4912
 20
-22.5986
 30
0.0
 10
-143.9062
 20
-22.9295
 30
0.0
 10
-143.9062
 20
-22.9295
 30
0.0
 10
-139.7653
 20
-16.9298
 30
0.0
 10
-132.167
 20
-13.7989
 30
0.0
 10
-126.3112
 20
-18.0637
 30
0.0
 10
-126.3112
 20
-18.0637
 30
0.0
 10
-126.3112
 20
-18.0637
 30
0.0
 10
-126.3112
 20
-18.0636
 30
0.0
 10
-126.3112
 20
-18.0636
 30
0.0
  0
SPLINE
  5
68
330
1F
100
AcDbEntity
  8
layer 1
 62
     7
100
AcDbSpline
210
0.0
220
0.0
230
1.0
 70
    11
 71
     3
 72
    20
 73
    16
 74
     0
 42
0.0000000001
 43
0.0000000001
 12
1.0
 22
0.0
 32
0.0
 13
1.0
 23
0.0
 33
0.0
 40
0.0
 40
0.0
 40
0.0
 40
0.0
 40
0.2
 40
0.2
 40
0.2
 40
0.2
 40
0.4
 40
0.4
 40
0.4
 40
0.4
 40
0.6
 40
0.6
 40
0.6
 40
0.6
 40
1.0
 40
1.0
 40
1.0
 40
1.0
 10
-155.9784
 20
-26.3231
 30
0.0
 10
-160.1145
 20
-34.1804
 30
0.0
 10
-165.4701
 20
-35.7425
 30
0.0
 10
-171.2228
 20
-34.2481
 30
0.0
 10
-171.2228
 20
-34.2481
 30
0.0
 10
-173.9931
 20
-33.6595
 30
0.0
 10
-177.47
 20
-33.0739
 30
0.0
 10
-179.9946
 20
-36.1795
 30
0.0
 10
-179.9946
 20
-36.1795
 30
0.0
 10
-179.9946
 20
-31.9646
 30
0.0
 10
-179.9946
 20
-25.2731
 30
0.0
 10
-179.9946
 20
-21.0581
 30
0.0
 10
-179.9946
 20
-21.0581
 30
0.0
 10
-171.4622
 20
-32.2871
 30
0.0
 10
-162.1464
 20
-31.8759
 30
0.0
 10
-155.9784
 20
-26.3231
 30
0.0
  0
SPLINE
  5
69
330
1F
100
AcDbEntity
  8
layer 1
 62
     7
100
AcDbSpline
210
0.0
220
0.0
230
1.0
 70
    11
 71
     3
 72
    28
 73
    24
 74
     0
 42
0.0000000001
 43
0.0000000001
 12
1.0
 22
0.0
 32
0.0
 13
1.0
 23
0.0
 33
0.0
 40
0.0
 40
0.0
 40
0.0
 40
0.0
 40
0.1428571428571428
 40
0.1428571428571428
 40
0.1428571428571428
 40
0.1428571428571428
 40
0.2857142857142857
 40
0.2857142857142857
 40
0.2857142857142857
 40
0.2857142857142857
 40
0.4285714285714285
 40
0.4285714285714285
 40
0.4285714285714285
 40
0.4285714285714285
 40
0.5714285714285714
 40
0.5714285714285714
 40
0.5714285714285714
 40
0.5714285714285714
 40
0.7142857142857143
 40
0.7142857142857143
 40
0.7142857142857143
 40
0.7142857142857143
 40
1.0
 40
1.0
 40
1.0
 40
1.0
 10
-110.0194
 20
-24.139
 30
0.0
 10
-110.7974
 20
-25.373
 30
0.0
 10
-110.3123
 20
-28.0214
 30
0.0
 10
-108.8707
 20
-30.8788
 30
0.0
 10
-108.8707
 20
-30.8788
 30
0.0
 10
-107.1376
 20
-34.2861
 30
0.0
 10
-105.8943
 20
-36.9695
 30
0.0
 10
-104.9765
 20
-41.4249
 30
0.0
 10
-104.9765
 20
-41.4249
 30
0.0
 10
-104.0587
 20
-36.9695
 30
0.0
 10
-102.8154
 20
-34.2861
 30
0.0
 10
-101.0822
 20
-30.8788
 30
0.0
 10
-101.0822
 20
-30.8788
 30
0.0
 10
-99.6407
 20
-28.0214
 30
0.0
 10
-99.1556
 20
-25.373
 30
0.0
 10
-99.9335
 20
-24.139
 30
0.0
 10
-99.9335
 20
-24.139
 30
0.0
 10
-101.6936
 20
-22.4486
 30
0.0
 10
-103.9708
 20
-23.0945
 30
0.0
 10
-104.9765
 20
-24.6288
 30
0.0
 10
-104.9765
 20
-24.6288
 30
0.0
 10
-105.9822
 20
-23.0945
 30
0.0
 10
-108.2593
 20
-22.4486
 30
0.0
 10
-110.0194
 20
-24.139
 30
0.0
  0
SPLINE
  5
6A
330
1F
100
AcDbEntity
  8
layer 1
 62
     7
100
AcDbSpline
210
0.0
220
0.0
230
1.0
 70
    11
 71
     3
 72
    36
 73
    32
 74
     0
 42
0.0000000001
 43
0.0000000001
 12
1.0
 22
0.0
 32
0.0
 13
1.0
 23
0.0
 33
0.0
 40
0.0
 40
0.0
 40
0.0
 40
0.0
 40
0.1111111111111111
 40
0.1111111111111111
 40
0.1111111111111111
 40
0.1111111111111111
 40
0.2222222222222222
 40
0.2222222222222222
 40
0.2222222222222222
 40
0.2222222222222222
 40
0.3333333333333333
 40
0.3333333333333333
 40
0.3333333333333333
 40
0.3333333333333333
 40
0.4444444444444444
 40
0.4444444444444444
 40
0.4444444444444444
 40
0.4444444444444444
 40
0.5555555555555556
 40
0.5555555555555556
 40
0.5555555555555556
 40
0.5555555555555556
 40
0.6666666666666666
 40
0.6666666666666666
 40
0.6666666666666666
 40
0.6666666666666666
 40
0.7777777777777778
 40
0.7777777777777778
 40
0.7777777777777778
 40
0.7777777777777778
 40
1.0
 40
1.0
 40
1.0
 40
1.0
 10
-128.542
 20
-45.3493
 30
0.0
 10
-127.371
 20
-49.009
 30
0.0
 10
-126.1067
 20
-50.5667
 30
0.0
 10
-122.9239
 20
-51.6622
 30
0.0
 10
-122.9239
 20
-51.6622
 30
0.0
 10
-124.9442
 20
-52.4205
 30
0.0
 10
-126.237
 20
-54.2151
 30
0.0
 10
-126.1684
 20
-56.2666
 30
0.0
 10
-126.1684
 20
-56.2666
 30
0.0
 10
-129.0271
 20
-54.9212
 30
0.0
 10
-133.4871
 20
-55.8901
 30
0.0
 10
-133.3113
 20
-60.7878
 30
0.0
 10
-133.3113
 20
-60.7878
 30
0.0
 10
-135.2267
 20
-59.5112
 30
0.0
 10
-136.6599
 20
-58.8634
 30
0.0
 10
-138.7878
 20
-59.4741
 30
0.0
 10
-138.7878
 20
-59.4741
 30
0.0
 10
-137.592
 20
-54.476
 30
0.0
 10
-140.0111
 20
-52.8456
 30
0.0
 10
-142.8394
 20
-50.9196
 30
0.0
 10
-142.8394
 20
-50.9196
 30
0.0
 10
-146.069
 20
-48.7308
 30
0.0
 10
-149.8262
 20
-44.2475
 30
0.0
 10
-150.8421
 20
-40.9826
 30
0.0
 10
-150.8421
 20
-40.9826
 30
0.0
 10
-151.3918
 20
-39.2163
 30
0.0
 10
-151.0978
 20
-33.4674
 30
0.0
 10
-150.854
 20
-32.5344
 30
0.0
 10
-150.854
 20
-32.5344
 30
0.0
 10
-149.4978
 20
-44.3477
 30
0.0
 10
-133.5056
 20
-54.1242
 30
0.0
 10
-128.542
 20
-45.3493
 30
0.0
  0
SPLINE
  5
6B
330
1F
100
AcDbEntity
  8
layer 1
 62
     7
100
AcDbSpline
210
0.0
220
0.0
230
1.0
 70
    11
 71
     3
 72
    28
 73
    24
 74
     0
 42
0.0000000001
 43
0.0000000001
 12
1.0
 22
0.0
 32
0.0
 13
1.0
 23
0.0
 33
0.0
 40
0.0
 40
0.0
 40
0.0
 40
0.0
 40
0.1428571428571428
 40
0.1428571428571428
 40
0.1428571428571428
 40
0.1428571428571428
 40
0.2857142857142857
 40
0.2857142857142857
 40
0.2857142857142857
 40
0.2857142857142857
 40
0.4285714285714285
 40
0.4285714285714285
 40
0.4285714285714285
 40
0.4285714285714285
 40
0.5714285714285714
 40
0.5714285714285714
 40
0.5714285714285714
 40
0.5714285714285714
 40
0.7142857142857143
 40
0.7142857142857143
 40
0.7142857142857143
 40
0.7142857142857143
 40
1.0
 40
1.0
 40
1.0
 40
1.0
 10
-170.9781
 20
-42.1543
 30
0.0
 10
-171.975
 20
-44.9544
 30
0.0
 10
-171.014
 20
-45.8173
 30
0.0
 10
-169.8202
 20
-45.9364
 30
0.0
 10
-169.8202
 20
-45.9364
 30
0.0
 10
-167.5917
 20
-46.1588
 30
0.0
 10
-163.0116
 20
-41.7506
 30
0.0
 10
-160.4264
 20
-38.8953
 30
0.0
 10
-160.4264
 20
-38.8953
 30
0.0
 10
-164.1511
 20
-46.1544
 30
0.0
 10
-164.6848
 20
-46.9817
 30
0.0
 10
-168.039
 20
-49.6139
 30
0.0
 10
-168.039
 20
-49.6139
 30
0.0
 10
-171.5876
 20
-52.3989
 30
0.0
 10
-178.1272
 20
-55.4507
 30
0.0
 10
-179.9946
 20
-62.4127
 30
0.0
 10
-179.9946
 20
-62.4127
 30
0.0
 10
-179.9946
 20
-62.4127
 30
0.0
 10
-179.9946
 20
-43.0683
 30
0.0
 10
-179.9946
 20
-39.5869
 30
0.0
 10
-179.9946
 20
-39.5869
 30
0.0
 10
-177.8165
 20
-43.4421
 30
0.0
 10
-174.5828
 20
-44.2909
 30
0.0
 10
-170.9781
 20
-42.1543
 30
0.0
  0
SPLINE
  5
6C
330
1F
100
AcDbEntity
  8
layer 1
 62
     7
100
AcDbSpline
210
0.0
220
0.0
230
1.0
 70
    11
 71
     3
 72
    40
 73
    36
 74
     0
 42
0.0000000001
 43
0.0000000001
 12
1.0
 22
0.0
 32
0.0
 13
1.0
 23
0.0
 33
0.0
 40
0.0
 40
0.0
 40
0.0
 40
0.0
 40
0.1
 40
0.1
 40
0.1
 40
0.1
 40
0.2
 40
0.2
 40
0.2
 40
0.2
 40
0.3
 40
0.3
 40
0.3
 40
0.3
 40
0.4
 40
0.4
 40
0.4
 40
0.4
 40
0.5
 40
0.5
 40
0.5
 40
0.5
 40
0.6
 40
0.6
 40
0.6
 40
0.6
 40
0.7
 40
0.7
 40
0.7
 40
0.7
 40
0.8
 40
0.8
 40
0.8
 40
0.8
 40
1.0
 40
1.0
 40
1.0
 40
1.0
 10
-113.9393
 20
-38.9587
 30
0.0
 10
-110.5935
 20
-40.4784
 30
0.0
 10
-109.0095
 20
-43.8904
 30
0.0
 10
-108.9779
 20
-50.3777
 30
0.0
 10
-108.9779
 20
-50.3777
 30
0.0
 10
-108.9547
 20
-55.1602
 30
0.0
 10
-110.9292
 20
-60.7511
 30
0.0
 10
-113.3765
 20
-63.331
 30
0.0
 10
-113.3765
 20
-63.331
 30
0.0
 10
-117.5537
 20
-67.7346
 30
0.0
 10
-122.2006
 20
-65.9224
 30
0.0
 10
-122.1988
 20
-61.3253
 30
0.0
 10
-122.1988
 20
-61.3253
 30
0.0
 10
-121.6175
 20
-56.6463
 30
0.0
 10
-118.1337
 20
-56.2141
 30
0.0
 10
-115.191
 20
-57.6609
 30
0.0
 10
-115.191
 20
-57.6609
 30
0.0
 10
-116.1571
 20
-54.4981
 30
0.0
 10
-117.2519
 20
-53.1985
 30
0.0
 10
-119.6049
 20
-51.781
 30
0.0
 10
-119.6049
 20
-51.781
 30
0.0
 10
-117.2683
 20
-51.0145
 30
0.0
 10
-113.602
 20
-49.5133
 30
0.0
 10
-115.1648
 20
-45.5274
 30
0.0
 10
-115.1648
 20
-45.5274
 30
0.0
 10
-117.6349
 20
-48.4196
 30
0.0
 10
-121.7171
 20
-47.2966
 30
0.0
 10
-121.7296
 20
-43.7995
 30
0.0
 10
-121.7296
 20
-43.7995
 30
0.0
 10
-121.231
 20
-39.1585
 30
0.0
 10
-117.323
 20
-37.5096
 30
0.0
 10
-113.9393
 20
-38.9587
 30
0.0
 10
-113.9393
 20
-38.9587
 30
0.0
 10
-113.9393
 20
-38.9587
 30
0.0
 10
-113.9393
 20
-38.9587
 30
0.0
 10
-113.9393
 20
-38.9587
 30
0.0
  0
SPLINE
  5
6D
330
1F
100
AcDbEntity
  8
layer 1
 62
     7
100
AcDbSpline
210
0.0
220
0.0
230
1.0
 70
    11
 71
     3
 72
    44
 73
    40
 74
     0
 42
0.0000000001
 43
0.0000000001
 12
1.0
 22
0.0
 32
0.0
 13
1.0
 23
0.0
 33
0.0
 40
0.0
 40
0.0
 40
0.0
 40
0.0
 40
0.0909090909090909
 40
0.0909090909090909
 40
0.0909090909090909
 40
0.0909090909090909
 40
0.1818181818181818
 40
0.1818181818181818
 40
0.1818181818181818
 40
0.1818181818181818
 40
0.2727272727272727
 40
0.2727272727272727
 40
0.2727272727272727
 40
0.2727272727272727
 40
0.3636363636363636
 40
0.3636363636363636
 40
0.3636363636363636
 40
0.3636363636363636
 40
0.4545454545454545
 40
0.4545454545454545
 40
0.4545454545454545
 40
0.4545454545454545
 40
0.5454545454545454
 40
0.5454545454545454
 40
0.5454545454545454
 40
0.5454545454545454
 40
0.6363636363636364
 40
0.6363636363636364
 40
0.6363636363636364
 40
0.6363636363636364
 40
0.7272727272727273
 40
0.7272727272727273
 40
0.7272727272727273
 40
0.7272727272727273
 40
0.8181818181818182
 40
0.8181818181818182
 40
0.8181818181818182
 40
0.8181818181818182
 40
1.0
 40
1.0
 40
1.0
 40
1.0
 10
-149.1237
 20
-59.3845
 30
0.0
 10
-147.3454
 20
-59.3512
 30
0.0
 10
-147.5681
 20
-56.4905
 30
0.0
 10
-148.2723
 20
-54.5942
 30
0.0
 10
-148.2723
 20
-54.5942
 30
0.0
 10
-146.4958
 20
-57.4349
 30
0.0
 10
-144.7589
 20
-60.0153
 30
0.0
 10
-140.9926
 20
-60.4285
 30
0.0
 10
-140.9926
 20
-60.4285
 30
0.0
 10
-145.5961
 20
-63.3579
 30
0.0
 10
-146.0927
 20
-72.0206
 30
0.0
 10
-143.0249
 20
-74.3715
 30
0.0
 10
-143.0249
 20
-74.3715
 30
0.0
 10
-149.6556
 20
-71.1676
 30
0.0
 10
-160.0047
 20
-72.9846
 30
0.0
 10
-166.5114
 20
-76.3186
 30
0.0
 10
-166.5114
 20
-76.3186
 30
0.0
 10
-165.3942
 20
-73.7482
 30
0.0
 10
-163.7115
 20
-69.1515
 30
0.0
 10
-163.893
 20
-63.5844
 30
0.0
 10
-163.893
 20
-63.5844
 30
0.0
 10
-163.3983
 20
-65.7356
 30
0.0
 10
-162.1057
 20
-66.9263
 30
0.0
 10
-160.1959
 20
-65.5149
 30
0.0
 10
-160.1959
 20
-65.5149
 30
0.0
 10
-157.7754
 20
-63.7208
 30
0.0
 10
-157.4725
 20
-56.3796
 30
0.0
 10
-156.8246
 20
-49.5399
 30
0.0
 10
-156.8246
 20
-49.5399
 30
0.0
 10
-156.427
 20
-45.3426
 30
0.0
 10
-155.9435
 20
-41.7644
 30
0.0
 10
-155.5957
 20
-39.5758
 30
0.0
 10
-155.5957
 20
-39.5758
 30
0.0
 10
-155.0043
 20
-44.2437
 30
0.0
 10
-154.0756
 20
-57.89
 30
0.0
 10
-149.1237
 20
-59.3845
 30
0.0
 10
-149.1237
 20
-59.3845
 30
0.0
 10
-149.1237
 20
-59.3845
 30
0.0
 10
-149.1237
 20
-59.3845
 30
0.0
 10
-149.1237
 20
-59.3845
 30
0.0
  0
SPLINE
  5
6E
330
1F
100
AcDbEntity
  8
layer 1
 62
     7
100
AcDbSpline
210
0.0
220
0.0
230
1.0
 70
    11
 71
     3
 72
    36
 73
    32
 74
     0
 42
0.0000000001
 43
0.0000000001
 12
1.0
 22
0.0
 32
0.0
 13
1.0
 23
0.0
 33
0.0
 40
0.0
 40
0.0
 40
0.0
 40
0.0
 40
0.1111111111111111
 40
0.1111111111111111
 40
0.1111111111111111
 40
0.1111111111111111
 40
0.2222222222222222
 40
0.2222222222222222
 40
0.2222222222222222
 40
0.2222222222222222
 40
0.3333333333333333
 40
0.3333333333333333
 40
0.3333333333333333
 40
0.3333333333333333
 40
0.4444444444444444
 40
0.4444444444444444
 40
0.4444444444444444
 40
0.4444444444444444
 40
0.5555555555555556
 40
0.5555555555555556
 40
0.5555555555555556
 40
0.5555555555555556
 40
0.6666666666666666
 40
0.6666666666666666
 40
0.6666666666666666
 40
0.6666666666666666
 40
0.7777777777777778
 40
0.7777777777777778
 40
0.7777777777777778
 40
0.7777777777777778
 40
1.0
 40
1.0
 40
1.0
 40
1.0
 10
-106.3012
 20
-76.4613
 30
0.0
 10
-107.4286
 20
-76.213
 30
0.0
 10
-110.0032
 20
-74.1112
 30
0.0
 10
-110.4642
 20
-72.5441
 30
0.0
 10
-110.4642
 20
-72.5441
 30
0.0
 10
-111.6577
 20
-75.6397
 30
0.0
 10
-114.6443
 20
-78.3081
 30
0.0
 10
-116.9893
 20
-80.7158
 30
0.0
 10
-116.9893
 20
-80.7158
 30
0.0
 10
-112.5287
 20
-79.4866
 30
0.0
 10
-110.7175
 20
-79.3455
 30
0.0
 10
-104.9765
 20
-79.1317
 30
0.0
 10
-104.9765
 20
-79.1317
 30
0.0
 10
-99.2354
 20
-79.3455
 30
0.0
 10
-97.4243
 20
-79.4866
 30
0.0
 10
-92.9637
 20
-80.7158
 30
0.0
 10
-92.9637
 20
-80.7158
 30
0.0
 10
-95.3087
 20
-78.3081
 30
0.0
 10
-98.2953
 20
-75.6397
 30
0.0
 10
-99.4888
 20
-72.5441
 30
0.0
 10
-99.4888
 20
-72.5441
 30
0.0
 10
-99.9498
 20
-74.1112
 30
0.0
 10
-102.5244
 20
-76.213
 30
0.0
 10
-103.6518
 20
-76.4613
 30
0.0
 10
-103.6518
 20
-76.4613
 30
0.0
 10
-102.8535
 20
-73.241
 30
0.0
 10
-102.9596
 20
-65.9668
 30
0.0
 10
-104.9765
 20
-61.8429
 30
0.0
 10
-104.9765
 20
-61.8429
 30
0.0
 10
-106.9934
 20
-65.9668
 30
0.0
 10
-107.0994
 20
-73.241
 30
0.0
 10
-106.3012
 20
-76.4613
 30
0.0
  0
SPLINE
  5
6F
330
1F
100
AcDbEntity
  8
layer 1
 62
     7
100
AcDbSpline
210
0.0
220
0.0
230
1.0
 70
    11
 71
     3
 72
    48
 73
    44
 74
     0
 42
0.0000000001
 43
0.0000000001
 12
1.0
 22
0.0
 32
0.0
 13
1.0
 23
0.0
 33
0.0
 40
0.0
 40
0.0
 40
0.0
 40
0.0
 40
0.0833333333333333
 40
0.0833333333333333
 40
0.0833333333333333
 40
0.0833333333333333
 40
0.1666666666666667
 40
0.1666666666666667
 40
0.1666666666666667
 40
0.1666666666666667
 40
0.25
 40
0.25
 40
0.25
 40
0.25
 40
0.3333333333333333
 40
0.3333333333333333
 40
0.3333333333333333
 40
0.3333333333333333
 40
0.4166666666666667
 40
0.4166666666666667
 40
0.4166666666666667
 40
0.4166666666666667
 40
0.5
 40
0.5
 40
0.5
 40
0.5
 40
0.5833333333333334
 40
0.5833333333333334
 40
0.5833333333333334
 40
0.5833333333333334
 40
0.6666666666666666
 40
0.6666666666666666
 40
0.6666666666666666
 40
0.6666666666666666
 40
0.75
 40
0.75
 40
0.75
 40
0.75
 40
0.8333333333333334
 40
0.8333333333333334
 40
0.8333333333333334
 40
0.8333333333333334
 40
1.0
 40
1.0
 40
1.0
 40
1.0
 10
-124.7832
 20
-66.6671
 30
0.0
 10
-126.7533
 20
-69.4488
 30
0.0
 10
-124.8008
 20
-71.885
 30
0.0
 10
-120.8875
 20
-71.6965
 30
0.0
 10
-120.8875
 20
-71.6965
 30
0.0
 10
-118.1748
 20
-71.2457
 30
0.0
 10
-115.4592
 20
-70.5261
 30
0.0
 10
-114.0822
 20
-69.445
 30
0.0
 10
-114.0822
 20
-69.445
 30
0.0
 10
-116.3307
 20
-74.6985
 30
0.0
 10
-125.1657
 20
-77.6591
 30
0.0
 10
-129.7175
 20
-73.3446
 30
0.0
 10
-129.7175
 20
-73.3446
 30
0.0
 10
-130.639
 20
-72.5355
 30
0.0
 10
-130.6539
 20
-72.2552
 30
0.0
 10
-130.9887
 20
-72.7132
 30
0.0
 10
-130.9887
 20
-72.7132
 30
0.0
 10
-131.357
 20
-75.0882
 30
0.0
 10
-131.0058
 20
-76.1577
 30
0.0
 10
-129.7905
 20
-77.7022
 30
0.0
 10
-129.7905
 20
-77.7022
 30
0.0
 10
-131.6652
 20
-77.4412
 30
0.0
 10
-135.2474
 20
-76.33
 30
0.0
 10
-137.2086
 20
-74.6107
 30
0.0
 10
-137.2086
 20
-74.6107
 30
0.0
 10
-138.7114
 20
-73.2254
 30
0.0
 10
-139.9444
 20
-71.0758
 30
0.0
 10
-139.7793
 20
-69.6119
 30
0.0
 10
-139.7793
 20
-69.6119
 30
0.0
 10
-139.0812
 20
-64.102
 30
0.0
 10
-133.5125
 20
-67.1966
 30
0.0
 10
-132.6455
 20
-70.5753
 30
0.0
 10
-132.6455
 20
-70.5753
 30
0.0
 10
-130.9729
 20
-68.9142
 30
0.0
 10
-131.6231
 20
-65.113
 30
0.0
 10
-131.8445
 20
-63.8199
 30
0.0
 10
-131.8445
 20
-63.8199
 30
0.0
 10
-129.8837
 20
-66.0965
 30
0.0
 10
-127.5395
 20
-66.8316
 30
0.0
 10
-124.7831
 20
-66.6671
 30
0.0
 10
-124.7831
 20
-66.6671
 30
0.0
 10
-124.7831
 20
-66.6671
 30
0.0
 10
-124.7832
 20
-66.6671
 30
0.0
 10
-124.7832
 20
-66.6671
 30
0.0
  0
SPLINE
  5
70
330
1F
100
AcDbEntity
  8
layer 1
 62
     7
100
AcDbSpline
210
0.0
220
0.0
230
1.0
 70
    11
 71
     3
 72
    24
 73
    20
 74
     0
 42
0.0000000001
 43
0.0000000001
 12
1.0
 22
0.0
 32
0.0
 13
1.0
 23
0.0
 33
0.0
 40
0.0
 40
0.0
 40
0.0
 40
0.0
 40
0.1666666666666667
 40
0.1666666666666667
 40
0.1666666666666667
 40
0.1666666666666667
 40
0.3333333333333333
 40
0.3333333333333333
 40
0.3333333333333333
 40
0.3333333333333333
 40
0.5
 40
0.5
 40
0.5
 40
0.5
 40
0.6666666666666666
 40
0.6666666666666666
 40
0.6666666666666666
 40
0.6666666666666666
 40
1.0
 40
1.0
 40
1.0
 40
1.0
 10
-169.6092
 20
-77.5601
 30
0.0
 10
-175.0951
 20
-80.8919
 30
0.0
 10
-177.9595
 20
-84.433
 30
0.0
 10
-179.9945
 20
-93.6246
 30
0.0
 10
-179.9945
 20
-93.6246
 30
0.0
 10
-179.9945
 20
-84.9513
 30
0.0
 10
-179.9945
 20
-74.7103
 30
0.0
 10
-179.9945
 20
-65.6873
 30
0.0
 10
-179.9945
 20
-65.6873
 30
0.0
 10
-178.0419
 20
-70.5257
 30
0.0
 10
-173.3958
 20
-68.6696
 30
0.0
 10
-171.2064
 20
-64.3583
 30
0.0
 10
-171.2064
 20
-64.3583
 30
0.0
 10
-177.5065
 20
-79.5006
 30
0.0
 10
-173.0532
 20
-78.1903
 30
0.0
 10
-169.6092
 20
-77.5601
 30
0.0
 10
-169.6092
 20
-77.5601
 30
0.0
 10
-169.6092
 20
-77.5601
 30
0.0
 10
-169.6092
 20
-77.5601
 30
0.0
 10
-169.6092
 20
-77.5601
 30
0.0
  0
SPLINE
  5
71
330
1F
100
AcDbEntity
  8
layer 1
 62
     7
100
AcDbSpline
210
0.0
220
0.0
230
1.0
 70
    11
 71
     3
 72
    40
 73
    36
 74
     0
 42
0.0000000001
 43
0.0000000001
 12
1.0
 22
0.0
 32
0.0
 13
1.0
 23
0.0
 33
0.0
 40
0.0
 40
0.0
 40
0.0
 40
0.0
 40
0.1
 40
0.1
 40
0.1
 40
0.1
 40
0.2
 40
0.2
 40
0.2
 40
0.2
 40
0.3
 40
0.3
 40
0.3
 40
0.3
 40
0.4
 40
0.4
 40
0.4
 40
0.4
 40
0.5
 40
0.5
 40
0.5
 40
0.5
 40
0.6
 40
0.6
 40
0.6
 40
0.6
 40
0.7
 40
0.7
 40
0.7
 40
0.7
 40
0.8
 40
0.8
 40
0.8
 40
0.8
 40
1.0
 40
1.0
 40
1.0
 40
1.0
 10
-143.7911
 20
-78.6069
 30
0.0
 10
-153.9073
 20
-81.4636
 30
0.0
 10
-153.7812
 20
-93.2648
 30
0.0
 10
-146.0547
 20
-96.255
 30
0.0
 10
-146.0547
 20
-96.255
 30
0.0
 10
-146.0547
 20
-96.255
 30
0.0
 10
-150.7597
 20
-96.2808
 30
0.0
 10
-150.7597
 20
-96.2808
 30
0.0
 10
-150.7597
 20
-96.2808
 30
0.0
 10
-151.7411
 20
-103.9407
 30
0.0
 10
-155.2584
 20
-107.862
 30
0.0
 10
-158.3624
 20
-109.7409
 30
0.0
 10
-158.3624
 20
-109.7409
 30
0.0
 10
-154.1845
 20
-105.0349
 30
0.0
 10
-156.8517
 20
-99.6906
 30
0.0
 10
-161.7276
 20
-100.7653
 30
0.0
 10
-161.7276
 20
-100.7653
 30
0.0
 10
-164.3556
 20
-101.6444
 30
0.0
 10
-165.3492
 20
-103.7539
 30
0.0
 10
-164.7969
 20
-106.3561
 30
0.0
 10
-164.7969
 20
-106.3561
 30
0.0
 10
-172.4914
 20
-102.4005
 30
0.0
 10
-163.5703
 20
-97.085
 30
0.0
 10
-168.7749
 20
-94.2807
 30
0.0
 10
-168.7749
 20
-94.2807
 30
0.0
 10
-162.536
 20
-95.1474
 30
0.0
 10
-160.2981
 20
-89.872
 30
0.0
 10
-164.3867
 20
-85.5976
 30
0.0
 10
-164.3867
 20
-85.5976
 30
0.0
 10
-152.8362
 20
-89.1281
 30
0.0
 10
-164.2283
 20
-75.7618
 30
0.0
 10
-143.7911
 20
-78.6069
 30
0.0
 10
-143.7911
 20
-78.6069
 30
0.0
 10
-143.7911
 20
-78.6069
 30
0.0
 10
-143.7911
 20
-78.6069
 30
0.0
 10
-143.7911
 20
-78.6069
 30
0.0
  0
SPLINE
  5
72
330
1F
100
AcDbEntity
  8
layer 1
 62
     7
100
AcDbSpline
210
0.0
220
0.0
230
1.0
 70
    11
 71
     3
 72
    40
 73
    36
 74
     0
 42
0.0000000001
 43
0.0000000001
 12
1.0
 22
0.0
 32
0.0
 13
1.0
 23
0.0
 33
0.0
 40
0.0
 40
0.0
 40
0.0
 40
0.0
 40
0.1
 40
0.1
 40
0.1
 40
0.1
 40
0.2
 40
0.2
 40
0.2
 40
0.2
 40
0.3
 40
0.3
 40
0.3
 40
0.3
 40
0.4
 40
0.4
 40
0.4
 40
0.4
 40
0.5
 40
0.5
 40
0.5
 40
0.5
 40
0.6
 40
0.6
 40
0.6
 40
0.6
 40
0.7
 40
0.7
 40
0.7
 40
0.7
 40
0.8
 40
0.8
 40
0.8
 40
0.8
 40
1.0
 40
1.0
 40
1.0
 40
1.0
 10
-133.1854
 20
-82.1553
 30
0.0
 10
-134.6179
 20
-83.4614
 30
0.0
 10
-135.6478
 20
-85.9751
 30
0.0
 10
-135.4194
 20
-87.0371
 30
0.0
 10
-135.4194
 20
-87.0371
 30
0.0
 10
-132.1766
 20
-85.2039
 30
0.0
 10
-126.6522
 20
-83.2262
 30
0.0
 10
-121.3119
 20
-82.8473
 30
0.0
 10
-121.3119
 20
-82.8473
 30
0.0
 10
-127.7074
 20
-85.8637
 30
0.0
 10
-133.8278
 20
-91.1739
 30
0.0
 10
-136.6718
 20
-96.2303
 30
0.0
 10
-136.6718
 20
-96.2303
 30
0.0
 10
-136.6718
 20
-96.2303
 30
0.0
 10
-140.8521
 20
-96.2372
 30
0.0
 10
-140.8521
 20
-96.2372
 30
0.0
 10
-140.8521
 20
-96.2372
 30
0.0
 10
-138.5338
 20
-93.8777
 30
0.0
 10
-136.8636
 20
-90.4898
 30
0.0
 10
-139.2662
 20
-88.2028
 30
0.0
 10
-139.2662
 20
-88.2028
 30
0.0
 10
-142.3359
 20
-86.7868
 30
0.0
 10
-145.2948
 20
-88.1989
 30
0.0
 10
-145.2232
 20
-91.2444
 30
0.0
 10
-145.2232
 20
-91.2444
 30
0.0
 10
-147.9505
 20
-88.6534
 30
0.0
 10
-146.7817
 20
-84.9411
 30
0.0
 10
-143.5022
 20
-83.2925
 30
0.0
 10
-143.5022
 20
-83.2925
 30
0.0
 10
-140.2644
 20
-81.6648
 30
0.0
 10
-136.0194
 20
-82.2213
 30
0.0
 10
-133.1855
 20
-82.1553
 30
0.0
 10
-133.1855
 20
-82.1553
 30
0.0
 10
-133.1855
 20
-82.1553
 30
0.0
 10
-133.1854
 20
-82.1553
 30
0.0
 10
-133.1854
 20
-82.1553
 30
0.0
  0
SPLINE
  5
73
330
1F
100
AcDbEntity
  8
layer 1
 62
     7
100
AcDbSpline
210
0.0
220
0.0
230
1.0
 70
    11
 71
     3
 72
    24
 73
    20
 74
     0
 42
0.0000000001
 43
0.0000000001
 12
1.0
 22
0.0
 32
0.0
 13
1.0
 23
0.0
 33
0.0
 40
0.0
 40
0.0
 40
0.0
 40
0.0
 40
0.1666666666666667
 40
0.1666666666666667
 40
0.1666666666666667
 40
0.1666666666666667
 40
0.3333333333333333
 40
0.3333333333333333
 40
0.3333333333333333
 40
0.3333333333333333
 40
0.5
 40
0.5
 40
0.5
 40
0.5
 40
0.6666666666666666
 40
0.6666666666666666
 40
0.6666666666666666
 40
0.6666666666666666
 40
1.0
 40
1.0
 40
1.0
 40
1.0
 10
-179.9946
 20
-122.2883
 30
0.0
 10
-177.4719
 20
-122.4871
 30
0.0
 10
-175.1635
 20
-122.4393
 30
0.0
 10
-172.6459
 20
-122.2883
 30
0.0
 10
-172.6459
 20
-122.2883
 30
0.0
 10
-172.6459
 20
-122.2883
 30
0.0
 10
-172.6459
 20
-112.5499
 30
0.0
 10
-172.6459
 20
-112.5499
 30
0.0
 10
-172.6459
 20
-112.5499
 30
0.0
 10
-170.675
 20
-112.6608
 30
0.0
 10
-164.9816
 20
-111.9304
 30
0.0
 10
-163.0994
 20
-111.2955
 30
0.0
 10
-163.0994
 20
-111.2955
 30
0.0
 10
-172.3546
 20
-111.212
 30
0.0
 10
-177.7342
 20
-106.7862
 30
0.0
 10
-179.9946
 20
-97.2593
 30
0.0
 10
-179.9946
 20
-97.2593
 30
0.0
 10
-179.9946
 20
-97.2593
 30
0.0
 10
-179.9946
 20
-122.2883
 30
0.0
 10
-179.9946
 20
-122.2883
 30
0.0
  0
SPLINE
  5
74
330
1F
100
AcDbEntity
  8
layer 1
 62
     7
100
AcDbSpline
210
0.0
220
0.0
230
1.0
 70
    11
 71
     3
 72
    28
 73
    24
 74
     0
 42
0.0000000001
 43
0.0000000001
 12
1.0
 22
0.0
 32
0.0
 13
1.0
 23
0.0
 33
0.0
 40
0.0
 40
0.0
 40
0.0
 40
0.0
 40
0.1428571428571428
 40
0.1428571428571428
 40
0.1428571428571428
 40
0.1428571428571428
 40
0.2857142857142857
 40
0.2857142857142857
 40
0.2857142857142857
 40
0.2857142857142857
 40
0.4285714285714285
 40
0.4285714285714285
 40
0.4285714285714285
 40
0.4285714285714285
 40
0.5714285714285714
 40
0.5714285714285714
 40
0.5714285714285714
 40
0.5714285714285714
 40
0.7142857142857143
 40
0.7142857142857143
 40
0.7142857142857143
 40
0.7142857142857143
 40
1.0
 40
1.0
 40
1.0
 40
1.0
 10
-65.6157
 20
-8.1361
 30
0.0
 10
-58.8796
 20
-11.2201
 30
0.0
 10
-54.7727
 20
-14.6588
 30
0.0
 10
-51.1863
 20
-20.4591
 30
0.0
 10
-51.1863
 20
-20.4591
 30
0.0
 10
-50.2572
 20
-14.8147
 30
0.0
 10
-44.201
 20
-17.0372
 30
0.0
 10
-42.9444
 20
-20.9151
 30
0.0
 10
-42.9444
 20
-20.9151
 30
0.0
 10
-42.4613
 20
-17.173
 30
0.0
 10
-39.4323
 20
-16.6978
 30
0.0
 10
-36.4533
 20
-17.3152
 30
0.0
 10
-36.4533
 20
-17.3152
 30
0.0
 10
-39.9091
 20
-10.7748
 30
0.0
 10
-29.9584
 20
-7.548
 30
0.0
 10
-29.9584
 20
-18.1429
 30
0.0
 10
-29.9584
 20
-18.1429
 30
0.0
 10
-29.9584
 20
-16.4583
 30
0.0
 10
-29.9584
 20
-9.8207
 30
0.0
 10
-29.9584
 20
-8.1361
 30
0.0
 10
-29.9584
 20
-8.1361
 30
0.0
 10
-29.9584
 20
-8.1361
 30
0.0
 10
-65.6157
 20
-8.1361
 30
0.0
 10
-65.6157
 20
-8.1361
 30
0.0
  0
SPLINE
  5
75
330
1F
100
AcDbEntity
  8
layer 1
 62
     7
100
AcDbSpline
210
0.0
220
0.0
230
1.0
 70
    11
 71
     3
 72
    20
 73
    16
 74
     0
 42
0.0000000001
 43
0.0000000001
 12
1.0
 22
0.0
 32
0.0
 13
1.0
 23
0.0
 33
0.0
 40
0.0
 40
0.0
 40
0.0
 40
0.0
 40
0.2
 40
0.2
 40
0.2
 40
0.2
 40
0.4
 40
0.4
 40
0.4
 40
0.4
 40
0.6
 40
0.6
 40
0.6
 40
0.6
 40
1.0
 40
1.0
 40
1.0
 40
1.0
 10
-103.2378
 20
-17.7563
 30
0.0
 10
-99.0011
 20
-16.4099
 30
0.0
 10
-96.6054
 20
-18.3328
 30
0.0
 10
-95.5268
 20
-21.9535
 30
0.0
 10
-95.5268
 20
-21.9535
 30
0.0
 10
-90.4953
 20
-13.5122
 30
0.0
 10
-81.429
 20
-9.5496
 30
0.0
 10
-74.0691
 20
-8.1361
 30
0.0
 10
-74.0691
 20
-8.1361
 30
0.0
 10
-86.2272
 20
-8.1361
 30
0.0
 10
-97.8804
 20
-8.1361
 30
0.0
 10
-103.2378
 20
-17.7563
 30
0.0
 10
-103.2378
 20
-17.7563
 30
0.0
 10
-103.2378
 20
-17.7563
 30
0.0
 10
-103.2378
 20
-17.7563
 30
0.0
 10
-103.2378
 20
-17.7563
 30
0.0
  0
SPLINE
  5
76
330
1F
100
AcDbEntity
  8
layer 1
 62
     7
100
AcDbSpline
210
0.0
220
0.0
230
1.0
 70
    11
 71
     3
 72
    60
 73
    56
 74
     0
 42
0.0000000001
 43
0.0000000001
 12
1.0
 22
0.0
 32
0.0
 13
1.0
 23
0.0
 33
0.0
 40
0.0
 40
0.0
 40
0.0
 40
0.0
 40
0.0666666666666667
 40
0.0666666666666667
 40
0.0666666666666667
 40
0.0666666666666667
 40
0.1333333333333333
 40
0.1333333333333333
 40
0.1333333333333333
 40
0.1333333333333333
 40
0.2
 40
0.2
 40
0.2
 40
0.2
 40
0.2666666666666667
 40
0.2666666666666667
 40
0.2666666666666667
 40
0.2666666666666667
 40
0.3333333333333333
 40
0.3333333333333333
 40
0.3333333333333333
 40
0.3333333333333333
 40
0.4
 40
0.4
 40
0.4
 40
0.4
 40
0.4666666666666667
 40
0.4666666666666667
 40
0.4666666666666667
 40
0.4666666666666667
 40
0.5333333333333333
 40
0.5333333333333333
 40
0.5333333333333333
 40
0.5333333333333333
 40
0.6
 40
0.6
 40
0.6
 40
0.6
 40
0.6666666666666666
 40
0.6666666666666666
 40
0.6666666666666666
 40
0.6666666666666666
 40
0.7333333333333333
 40
0.7333333333333333
 40
0.7333333333333333
 40
0.7333333333333333
 40
0.8
 40
0.8
 40
0.8
 40
0.8
 40
0.8666666666666667
 40
0.8666666666666667
 40
0.8666666666666667
 40
0.8666666666666667
 40
1.0
 40
1.0
 40
1.0
 40
1.0
 10
-83.6418
 20
-18.0636
 30
0.0
 10
-81.4505
 20
-18.9877
 30
0.0
 10
-78.7255
 20
-20.5632
 30
0.0
 10
-77.6792
 20
-22.5022
 30
0.0
 10
-77.6792
 20
-22.5022
 30
0.0
 10
-77.3099
 20
-23.1173
 30
0.0
 10
-77.2776
 20
-23.4511
 30
0.0
 10
-78.213
 20
-23.2025
 30
0.0
 10
-78.213
 20
-23.2025
 30
0.0
 10
-82.0314
 20
-22.0567
 30
0.0
 10
-89.4445
 20
-23.9887
 30
0.0
 10
-92.5573
 20
-28.268
 30
0.0
 10
-92.5573
 20
-28.268
 30
0.0
 10
-90.0669
 20
-26.9547
 30
0.0
 10
-84.1094
 20
-26.1627
 30
0.0
 10
-81.2992
 20
-27.14
 30
0.0
 10
-81.2992
 20
-27.14
 30
0.0
 10
-80.747
 20
-27.5036
 30
0.0
 10
-79.3795
 20
-28.2406
 30
0.0
 10
-78.4275
 20
-28.6345
 30
0.0
 10
-78.4275
 20
-28.6345
 30
0.0
 10
-76.9915
 20
-29.2287
 30
0.0
 10
-76.222
 20
-29.4887
 30
0.0
 10
-78.4034
 20
-30.059
 30
0.0
 10
-78.4034
 20
-30.059
 30
0.0
 10
-79.1192
 20
-30.2421
 30
0.0
 10
-80.5018
 20
-30.6182
 30
0.0
 10
-81.4758
 20
-31.1087
 30
0.0
 10
-81.4758
 20
-31.1087
 30
0.0
 10
-85.0649
 20
-34.4865
 30
0.0
 10
-92.4155
 20
-30.933
 30
0.0
 10
-95.0494
 20
-33.794
 30
0.0
 10
-95.0494
 20
-33.794
 30
0.0
 10
-89.2721
 20
-32.7728
 30
0.0
 10
-82.5228
 20
-36.1233
 30
0.0
 10
-81.4556
 20
-42.6403
 30
0.0
 10
-81.4556
 20
-42.6403
 30
0.0
 10
-79.92
 20
-39.1149
 30
0.0
 10
-77.3007
 20
-38.9307
 30
0.0
 10
-72.9706
 20
-40.7607
 30
0.0
 10
-72.9706
 20
-40.7607
 30
0.0
 10
-74.2066
 20
-38.1974
 30
0.0
 10
-74.5209
 20
-32.8736
 30
0.0
 10
-66.5062
 20
-34.0458
 30
0.0
 10
-66.5062
 20
-34.0458
 30
0.0
 10
-76.0496
 20
-30.158
 30
0.0
 10
-73.4618
 20
-22.5986
 30
0.0
 10
-66.0468
 20
-22.9295
 30
0.0
 10
-66.0468
 20
-22.9295
 30
0.0
 10
-70.1878
 20
-16.9298
 30
0.0
 10
-77.7861
 20
-13.7989
 30
0.0
 10
-83.6418
 20
-18.0637
 30
0.0
 10
-83.6418
 20
-18.0637
 30
0.0
 10
-83.6418
 20
-18.0637
 30
0.0
 10
-83.6418
 20
-18.0636
 30
0.0
 10
-83.6418
 20
-18.0636
 30
0.0
  0
SPLINE
  5
77
330
1F
100
AcDbEntity
  8
layer 1
 62
     7
100
AcDbSpline
210
0.0
220
0.0
230
1.0
 70
    11
 71
     3
 72
    20
 73
    16
 74
     0
 42
0.0000000001
 43
0.0000000001
 12
1.0
 22
0.0
 32
0.0
 13
1.0
 23
0.0
 33
0.0
 40
0.0
 40
0.0
 40
0.0
 40
0.0
 40
0.2
 40
0.2
 40
0.2
 40
0.2
 40
0.4
 40
0.4
 40
0.4
 40
0.4
 40
0.6
 40
0.6
 40
0.6
 40
0.6
 40
1.0
 40
1.0
 40
1.0
 40
1.0
 10
-53.9747
 20
-26.3231
 30
0.0
 10
-49.8386
 20
-34.1804
 30
0.0
 10
-44.4829
 20
-35.7425
 30
0.0
 10
-38.7302
 20
-34.2481
 30
0.0
 10
-38.7302
 20
-34.2481
 30
0.0
 10
-35.9599
 20
-33.6595
 30
0.0
 10
-32.483
 20
-33.0739
 30
0.0
 10
-29.9585
 20
-36.1795
 30
0.0
 10
-29.9585
 20
-36.1795
 30
0.0
 10
-29.9585
 20
-31.9646
 30
0.0
 10
-29.9585
 20
-25.2731
 30
0.0
 10
-29.9585
 20
-21.0581
 30
0.0
 10
-29.9585
 20
-21.0581
 30
0.0
 10
-38.4908
 20
-32.2871
 30
0.0
 10
-47.8066
 20
-31.8759
 30
0.0
 10
-53.9747
 20
-26.3231
 30
0.0
  0
SPLINE
  5
78
330
1F
100
AcDbEntity
  8
layer 1
 62
     7
100
AcDbSpline
210
0.0
220
0.0
230
1.0
 70
    11
 71
     3
 72
    36
 73
    32
 74
     0
 42
0.0000000001
 43
0.0000000001
 12
1.0
 22
0.0
 32
0.0
 13
1.0
 23
0.0
 33
0.0
 40
0.0
 40
0.0
 40
0.0
 40
0.0
 40
0.1111111111111111
 40
0.1111111111111111
 40
0.1111111111111111
 40
0.1111111111111111
 40
0.2222222222222222
 40
0.2222222222222222
 40
0.2222222222222222
 40
0.2222222222222222
 40
0.3333333333333333
 40
0.3333333333333333
 40
0.3333333333333333
 40
0.3333333333333333
 40
0.4444444444444444
 40
0.4444444444444444
 40
0.4444444444444444
 40
0.4444444444444444
 40
0.5555555555555556
 40
0.5555555555555556
 40
0.5555555555555556
 40
0.5555555555555556
 40
0.6666666666666666
 40
0.6666666666666666
 40
0.6666666666666666
 40
0.6666666666666666
 40
0.7777777777777778
 40
0.7777777777777778
 40
0.7777777777777778
 40
0.7777777777777778
 40
1.0
 40
1.0
 40
1.0
 40
1.0
 10
-81.411
 20
-45.3493
 30
0.0
 10
-82.582
 20
-49.009
 30
0.0
 10
-83.8463
 20
-50.5667
 30
0.0
 10
-87.0291
 20
-51.6622
 30
0.0
 10
-87.0291
 20
-51.6622
 30
0.0
 10
-85.0088
 20
-52.4205
 30
0.0
 10
-83.716
 20
-54.2151
 30
0.0
 10
-83.7845
 20
-56.2666
 30
0.0
 10
-83.7845
 20
-56.2666
 30
0.0
 10
-80.9259
 20
-54.9212
 30
0.0
 10
-76.4658
 20
-55.8901
 30
0.0
 10
-76.6417
 20
-60.7878
 30
0.0
 10
-76.6417
 20
-60.7878
 30
0.0
 10
-74.7262
 20
-59.5112
 30
0.0
 10
-73.2931
 20
-58.8634
 30
0.0
 10
-71.1651
 20
-59.4741
 30
0.0
 10
-71.1651
 20
-59.4741
 30
0.0
 10
-72.361
 20
-54.476
 30
0.0
 10
-69.9419
 20
-52.8456
 30
0.0
 10
-67.1136
 20
-50.9196
 30
0.0
 10
-67.1136
 20
-50.9196
 30
0.0
 10
-63.884
 20
-48.7308
 30
0.0
 10
-60.1267
 20
-44.2475
 30
0.0
 10
-59.1108
 20
-40.9826
 30
0.0
 10
-59.1108
 20
-40.9826
 30
0.0
 10
-58.5612
 20
-39.2163
 30
0.0
 10
-58.8551
 20
-33.4674
 30
0.0
 10
-59.0989
 20
-32.5344
 30
0.0
 10
-59.0989
 20
-32.5344
 30
0.0
 10
-60.4551
 20
-44.3477
 30
0.0
 10
-76.4474
 20
-54.1242
 30
0.0
 10
-81.411
 20
-45.3493
 30
0.0
  0
SPLINE
  5
79
330
1F
100
AcDbEntity
  8
layer 1
 62
     7
100
AcDbSpline
210
0.0
220
0.0
230
1.0
 70
    11
 71
     3
 72
    28
 73
    24
 74
     0
 42
0.0000000001
 43
0.0000000001
 12
1.0
 22
0.0
 32
0.0
 13
1.0
 23
0.0
 33
0.0
 40
0.0
 40
0.0
 40
0.0
 40
0.0
 40
0.1428571428571428
 40
0.1428571428571428
 40
0.1428571428571428
 40
0.1428571428571428
 40
0.2857142857142857
 40
0.2857142857142857
 40
0.2857142857142857
 40
0.2857142857142857
 40
0.4285714285714285
 40
0.4285714285714285
 40
0.4285714285714285
 40
0.4285714285714285
 40
0.5714285714285714
 40
0.5714285714285714
 40
0.5714285714285714
 40
0.5714285714285714
 40
0.7142857142857143
 40
0.7142857142857143
 40
0.7142857142857143
 40
0.7142857142857143
 40
1.0
 40
1.0
 40
1.0
 40
1.0
 10
-38.9748
 20
-42.1543
 30
0.0
 10
-37.978
 20
-44.9544
 30
0.0
 10
-38.939
 20
-45.8173
 30
0.0
 10
-40.1327
 20
-45.9364
 30
0.0
 10
-40.1327
 20
-45.9364
 30
0.0
 10
-42.3613
 20
-46.1588
 30
0.0
 10
-46.9414
 20
-41.7506
 30
0.0
 10
-49.5265
 20
-38.8953
 30
0.0
 10
-49.5265
 20
-38.8953
 30
0.0
 10
-45.8019
 20
-46.1544
 30
0.0
 10
-45.2682
 20
-46.9817
 30
0.0
 10
-41.914
 20
-49.6139
 30
0.0
 10
-41.914
 20
-49.6139
 30
0.0
 10
-38.3654
 20
-52.3989
 30
0.0
 10
-31.8257
 20
-55.4507
 30
0.0
 10
-29.9584
 20
-62.4127
 30
0.0
 10
-29.9584
 20
-62.4127
 30
0.0
 10
-29.9584
 20
-62.4127
 30
0.0
 10
-29.9584
 20
-43.0683
 30
0.0
 10
-29.9584
 20
-39.5869
 30
0.0
 10
-29.9584
 20
-39.5869
 30
0.0
 10
-32.1365
 20
-43.4421
 30
0.0
 10
-35.3702
 20
-44.2909
 30
0.0
 10
-38.9748
 20
-42.1543
 30
0.0
  0
SPLINE
  5
7A
330
1F
100
AcDbEntity
  8
layer 1
 62
     7
100
AcDbSpline
210
0.0
220
0.0
230
1.0
 70
    11
 71
     3
 72
    40
 73
    36
 74
     0
 42
0.0000000001
 43
0.0000000001
 12
1.0
 22
0.0
 32
0.0
 13
1.0
 23
0.0
 33
0.0
 40
0.0
 40
0.0
 40
0.0
 40
0.0
 40
0.1
 40
0.1
 40
0.1
 40
0.1
 40
0.2
 40
0.2
 40
0.2
 40
0.2
 40
0.3
 40
0.3
 40
0.3
 40
0.3
 40
0.4
 40
0.4
 40
0.4
 40
0.4
 40
0.5
 40
0.5
 40
0.5
 40
0.5
 40
0.6
 40
0.6
 40
0.6
 40
0.6
 40
0.7
 40
0.7
 40
0.7
 40
0.7
 40
0.8
 40
0.8
 40
0.8
 40
0.8
 40
1.0
 40
1.0
 40
1.0
 40
1.0
 10
-96.0136
 20
-38.9587
 30
0.0
 10
-99.3595
 20
-40.4784
 30
0.0
 10
-100.9435
 20
-43.8904
 30
0.0
 10
-100.975
 20
-50.3777
 30
0.0
 10
-100.975
 20
-50.3777
 30
0.0
 10
-100.9983
 20
-55.1602
 30
0.0
 10
-99.0237
 20
-60.7511
 30
0.0
 10
-96.5764
 20
-63.331
 30
0.0
 10
-96.5764
 20
-63.331
 30
0.0
 10
-92.3992
 20
-67.7346
 30
0.0
 10
-87.7523
 20
-65.9224
 30
0.0
 10
-87.7542
 20
-61.3253
 30
0.0
 10
-87.7542
 20
-61.3253
 30
0.0
 10
-88.3354
 20
-56.6463
 30
0.0
 10
-91.8193
 20
-56.2141
 30
0.0
 10
-94.762
 20
-57.6609
 30
0.0
 10
-94.762
 20
-57.6609
 30
0.0
 10
-93.7959
 20
-54.4981
 30
0.0
 10
-92.7011
 20
-53.1985
 30
0.0
 10
-90.3481
 20
-51.781
 30
0.0
 10
-90.3481
 20
-51.781
 30
0.0
 10
-92.6847
 20
-51.0145
 30
0.0
 10
-96.351
 20
-49.5133
 30
0.0
 10
-94.7881
 20
-45.5274
 30
0.0
 10
-94.7881
 20
-45.5274
 30
0.0
 10
-92.318
 20
-48.4196
 30
0.0
 10
-88.2359
 20
-47.2966
 30
0.0
 10
-88.2233
 20
-43.7995
 30
0.0
 10
-88.2233
 20
-43.7995
 30
0.0
 10
-88.722
 20
-39.1585
 30
0.0
 10
-92.63
 20
-37.5096
 30
0.0
 10
-96.0137
 20
-38.9587
 30
0.0
 10
-96.0137
 20
-38.9587
 30
0.0
 10
-96.0137
 20
-38.9587
 30
0.0
 10
-96.0136
 20
-38.9587
 30
0.0
 10
-96.0136
 20
-38.9587
 30
0.0
  0
SPLINE
  5
7B
330
1F
100
AcDbEntity
  8
layer 1
 62
     7
100
AcDbSpline
210
0.0
220
0.0
230
1.0
 70
    11
 71
     3
 72
    44
 73
    40
 74
     0
 42
0.0000000001
 43
0.0000000001
 12
1.0
 22
0.0
 32
0.0
 13
1.0
 23
0.0
 33
0.0
 40
0.0
 40
0.0
 40
0.0
 40
0.0
 40
0.0909090909090909
 40
0.0909090909090909
 40
0.0909090909090909
 40
0.0909090909090909
 40
0.1818181818181818
 40
0.1818181818181818
 40
0.1818181818181818
 40
0.1818181818181818
 40
0.2727272727272727
 40
0.2727272727272727
 40
0.2727272727272727
 40
0.2727272727272727
 40
0.3636363636363636
 40
0.3636363636363636
 40
0.3636363636363636
 40
0.3636363636363636
 40
0.4545454545454545
 40
0.4545454545454545
 40
0.4545454545454545
 40
0.4545454545454545
 40
0.5454545454545454
 40
0.5454545454545454
 40
0.5454545454545454
 40
0.5454545454545454
 40
0.6363636363636364
 40
0.6363636363636364
 40
0.6363636363636364
 40
0.6363636363636364
 40
0.7272727272727273
 40
0.7272727272727273
 40
0.7272727272727273
 40
0.7272727272727273
 40
0.8181818181818182
 40
0.8181818181818182
 40
0.8181818181818182
 40
0.8181818181818182
 40
1.0
 40
1.0
 40
1.0
 40
1.0
 10
-60.8294
 20
-59.3845
 30
0.0
 10
-62.6076
 20
-59.3512
 30
0.0
 10
-62.3849
 20
-56.4905
 30
0.0
 10
-61.6807
 20
-54.5942
 30
0.0
 10
-61.6807
 20
-54.5942
 30
0.0
 10
-63.4572
 20
-57.4349
 30
0.0
 10
-65.1941
 20
-60.0153
 30
0.0
 10
-68.9604
 20
-60.4285
 30
0.0
 10
-68.9604
 20
-60.4285
 30
0.0
 10
-64.3569
 20
-63.3579
 30
0.0
 10
-63.8603
 20
-72.0206
 30
0.0
 10
-66.9281
 20
-74.3715
 30
0.0
 10
-66.9281
 20
-74.3715
 30
0.0
 10
-60.2974
 20
-71.1676
 30
0.0
 10
-49.9483
 20
-72.9846
 30
0.0
 10
-43.4416
 20
-76.3186
 30
0.0
 10
-43.4416
 20
-76.3186
 30
0.0
 10
-44.5588
 20
-73.7482
 30
0.0
 10
-46.2416
 20
-69.1515
 30
0.0
 10
-46.0601
 20
-63.5844
 30
0.0
 10
-46.0601
 20
-63.5844
 30
0.0
 10
-46.5548
 20
-65.7356
 30
0.0
 10
-47.8474
 20
-66.9263
 30
0.0
 10
-49.7571
 20
-65.5149
 30
0.0
 10
-49.7571
 20
-65.5149
 30
0.0
 10
-52.1776
 20
-63.7208
 30
0.0
 10
-52.4806
 20
-56.3796
 30
0.0
 10
-53.1284
 20
-49.5399
 30
0.0
 10
-53.1284
 20
-49.5399
 30
0.0
 10
-53.526
 20
-45.3426
 30
0.0
 10
-54.0095
 20
-41.7644
 30
0.0
 10
-54.3573
 20
-39.5758
 30
0.0
 10
-54.3573
 20
-39.5758
 30
0.0
 10
-54.9487
 20
-44.2437
 30
0.0
 10
-55.8774
 20
-57.89
 30
0.0
 10
-60.8293
 20
-59.3845
 30
0.0
 10
-60.8293
 20
-59.3845
 30
0.0
 10
-60.8293
 20
-59.3845
 30
0.0
 10
-60.8294
 20
-59.3845
 30
0.0
 10
-60.8294
 20
-59.3845
 30
0.0
  0
SPLINE
  5
7C
330
1F
100
AcDbEntity
  8
layer 1
 62
     7
100
AcDbSpline
210
0.0
220
0.0
230
1.0
 70
    11
 71
     3
 72
    48
 73
    44
 74
     0
 42
0.0000000001
 43
0.0000000001
 12
1.0
 22
0.0
 32
0.0
 13
1.0
 23
0.0
 33
0.0
 40
0.0
 40
0.0
 40
0.0
 40
0.0
 40
0.0833333333333333
 40
0.0833333333333333
 40
0.0833333333333333
 40
0.0833333333333333
 40
0.1666666666666667
 40
0.1666666666666667
 40
0.1666666666666667
 40
0.1666666666666667
 40
0.25
 40
0.25
 40
0.25
 40
0.25
 40
0.3333333333333333
 40
0.3333333333333333
 40
0.3333333333333333
 40
0.3333333333333333
 40
0.4166666666666667
 40
0.4166666666666667
 40
0.4166666666666667
 40
0.4166666666666667
 40
0.5
 40
0.5
 40
0.5
 40
0.5
 40
0.5833333333333334
 40
0.5833333333333334
 40
0.5833333333333334
 40
0.5833333333333334
 40
0.6666666666666666
 40
0.6666666666666666
 40
0.6666666666666666
 40
0.6666666666666666
 40
0.75
 40
0.75
 40
0.75
 40
0.75
 40
0.8333333333333334
 40
0.8333333333333334
 40
0.8333333333333334
 40
0.8333333333333334
 40
1.0
 40
1.0
 40
1.0
 40
1.0
 10
-85.1698
 20
-66.6671
 30
0.0
 10
-83.1996
 20
-69.4488
 30
0.0
 10
-85.1521
 20
-71.885
 30
0.0
 10
-89.0655
 20
-71.6965
 30
0.0
 10
-89.0655
 20
-71.6965
 30
0.0
 10
-91.7782
 20
-71.2457
 30
0.0
 10
-94.4938
 20
-70.5261
 30
0.0
 10
-95.8708
 20
-69.445
 30
0.0
 10
-95.8708
 20
-69.445
 30
0.0
 10
-93.6222
 20
-74.6985
 30
0.0
 10
-84.7872
 20
-77.6591
 30
0.0
 10
-80.2355
 20
-73.3446
 30
0.0
 10
-80.2355
 20
-73.3446
 30
0.0
 10
-79.314
 20
-72.5355
 30
0.0
 10
-79.2991
 20
-72.2552
 30
0.0
 10
-78.9642
 20
-72.7132
 30
0.0
 10
-78.9642
 20
-72.7132
 30
0.0
 10
-78.5959
 20
-75.0882
 30
0.0
 10
-78.9472
 20
-76.1577
 30
0.0
 10
-80.1625
 20
-77.7022
 30
0.0
 10
-80.1625
 20
-77.7022
 30
0.0
 10
-78.2877
 20
-77.4412
 30
0.0
 10
-74.7056
 20
-76.33
 30
0.0
 10
-72.7444
 20
-74.6107
 30
0.0
 10
-72.7444
 20
-74.6107
 30
0.0
 10
-71.2416
 20
-73.2254
 30
0.0
 10
-70.0086
 20
-71.0758
 30
0.0
 10
-70.1737
 20
-69.6119
 30
0.0
 10
-70.1737
 20
-69.6119
 30
0.0
 10
-70.8718
 20
-64.102
 30
0.0
 10
-76.4404
 20
-67.1966
 30
0.0
 10
-77.3075
 20
-70.5753
 30
0.0
 10
-77.3075
 20
-70.5753
 30
0.0
 10
-78.9801
 20
-68.9142
 30
0.0
 10
-78.3299
 20
-65.113
 30
0.0
 10
-78.1084
 20
-63.8199
 30
0.0
 10
-78.1084
 20
-63.8199
 30
0.0
 10
-80.0693
 20
-66.0965
 30
0.0
 10
-82.4134
 20
-66.8316
 30
0.0
 10
-85.1698
 20
-66.6671
 30
0.0
 10
-85.1698
 20
-66.6671
 30
0.0
 10
-85.1698
 20
-66.6671
 30
0.0
 10
-85.1698
 20
-66.6671
 30
0.0
 10
-85.1698
 20
-66.6671
 30
0.0
  0
SPLINE
  5
7D
330
1F
100
AcDbEntity
  8
layer 1
 62
     7
100
AcDbSpline
210
0.0
220
0.0
230
1.0
 70
    11
 71
     3
 72
    24
 73
    20
 74
     0
 42
0.0000000001
 43
0.0000000001
 12
1.0
 22
0.0
 32
0.0
 13
1.0
 23
0.0
 33
0.0
 40
0.0
 40
0.0
 40
0.0
 40
0.0
 40
0.1666666666666667
 40
0.1666666666666667
 40
0.1666666666666667
 40
0.1666666666666667
 40
0.3333333333333333
 40
0.3333333333333333
 40
0.3333333333333333
 40
0.3333333333333333
 40
0.5
 40
0.5
 40
0.5
 40
0.5
 40
0.6666666666666666
 40
0.6666666666666666
 40
0.6666666666666666
 40
0.6666666666666666
 40
1.0
 40
1.0
 40
1.0
 40
1.0
 10
-40.3437
 20
-77.5601
 30
0.0
 10
-34.8578
 20
-80.8919
 30
0.0
 10
-31.9934
 20
-84.433
 30
0.0
 10
-29.9585
 20
-93.6246
 30
0.0
 10
-29.9585
 20
-93.6246
 30
0.0
 10
-29.9585
 20
-84.9513
 30
0.0
 10
-29.9585
 20
-74.7103
 30
0.0
 10
-29.9585
 20
-65.6873
 30
0.0
 10
-29.9585
 20
-65.6873
 30
0.0
 10
-31.911
 20
-70.5257
 30
0.0
 10
-36.5572
 20
-68.6696
 30
0.0
 10
-38.7466
 20
-64.3583
 30
0.0
 10
-38.7466
 20
-64.3583
 30
0.0
 10
-32.4464
 20
-79.5006
 30
0.0
 10
-36.8997
 20
-78.1903
 30
0.0
 10
-40.3437
 20
-77.5601
 30
0.0
 10
-40.3437
 20
-77.5601
 30
0.0
 10
-40.3437
 20
-77.5601
 30
0.0
 10
-40.3437
 20
-77.5601
 30
0.0
 10
-40.3437
 20
-77.5601
 30
0.0
  0
SPLINE
  5
7E
330
1F
100
AcDbEntity
  8
layer 1
 62
     7
100
AcDbSpline
210
0.0
220
0.0
230
1.0
 70
    11
 71
     3
 72
    40
 73
    36
 74
     0
 42
0.0000000001
 43
0.0000000001
 12
1.0
 22
0.0
 32
0.0
 13
1.0
 23
0.0
 33
0.0
 40
0.0
 40
0.0
 40
0.0
 40
0.0
 40
0.1
 40
0.1
 40
0.1
 40
0.1
 40
0.2
 40
0.2
 40
0.2
 40
0.2
 40
0.3
 40
0.3
 40
0.3
 40
0.3
 40
0.4
 40
0.4
 40
0.4
 40
0.4
 40
0.5
 40
0.5
 40
0.5
 40
0.5
 40
0.6
 40
0.6
 40
0.6
 40
0.6
 40
0.7
 40
0.7
 40
0.7
 40
0.7
 40
0.8
 40
0.8
 40
0.8
 40
0.8
 40
1.0
 40
1.0
 40
1.0
 40
1.0
 10
-66.1619
 20
-78.6069
 30
0.0
 10
-56.0456
 20
-81.4636
 30
0.0
 10
-56.1718
 20
-93.2648
 30
0.0
 10
-63.8983
 20
-96.255
 30
0.0
 10
-63.8983
 20
-96.255
 30
0.0
 10
-63.8983
 20
-96.255
 30
0.0
 10
-59.1933
 20
-96.2808
 30
0.0
 10
-59.1933
 20
-96.2808
 30
0.0
 10
-59.1933
 20
-96.2808
 30
0.0
 10
-58.2118
 20
-103.9407
 30
0.0
 10
-54.6946
 20
-107.862
 30
0.0
 10
-51.5905
 20
-109.7409
 30
0.0
 10
-51.5905
 20
-109.7409
 30
0.0
 10
-55.7685
 20
-105.0349
 30
0.0
 10
-53.1012
 20
-99.6906
 30
0.0
 10
-48.2254
 20
-100.7653
 30
0.0
 10
-48.2254
 20
-100.7653
 30
0.0
 10
-45.5974
 20
-101.6444
 30
0.0
 10
-44.6038
 20
-103.7539
 30
0.0
 10
-45.1561
 20
-106.3561
 30
0.0
 10
-45.1561
 20
-106.3561
 30
0.0
 10
-37.4616
 20
-102.4005
 30
0.0
 10
-46.3826
 20
-97.085
 30
0.0
 10
-41.178
 20
-94.2807
 30
0.0
 10
-41.178
 20
-94.2807
 30
0.0
 10
-47.417
 20
-95.1474
 30
0.0
 10
-49.6549
 20
-89.872
 30
0.0
 10
-45.5663
 20
-85.5976
 30
0.0
 10
-45.5663
 20
-85.5976
 30
0.0
 10
-57.1168
 20
-89.1281
 30
0.0
 10
-45.7246
 20
-75.7618
 30
0.0
 10
-66.1619
 20
-78.6069
 30
0.0
 10
-66.1619
 20
-78.6069
 30
0.0
 10
-66.1619
 20
-78.6069
 30
0.0
 10
-66.1619
 20
-78.6069
 30
0.0
 10
-66.1619
 20
-78.6069
 30
0.0
  0
SPLINE
  5
7F
330
1F
100
AcDbEntity
  8
layer 1
 62
     7
100
AcDbSpline
210
0.0
220
0.0
230
1.0
 70
    11
 71
     3
 72
    40
 73
    36
 74
     0
 42
0.0000000001
 43
0.0000000001
 12
1.0
 22
0.0
 32
0.0
 13
1.0
 23
0.0
 33
0.0
 40
0.0
 40
0.0
 40
0.0
 40
0.0
 40
0.1
 40
0.1
 40
0.1
 40
0.1
 40
0.2
 40
0.2
 40
0.2
 40
0.2
 40
0.3
 40
0.3
 40
0.3
 40
0.3
 40
0.4
 40
0.4
 40
0.4
 40
0.4
 40
0.5
 40
0.5
 40
0.5
 40
0.5
 40
0.6
 40
0.6
 40
0.6
 40
0.6
 40
0.7
 40
0.7
 40
0.7
 40
0.7
 40
0.8
 40
0.8
 40
0.8
 40
0.8
 40
1.0
 40
1.0
 40
1.0
 40
1.0
 10
-76.7676
 20
-82.1553
 30
0.0
 10
-75.3351
 20
-83.4614
 30
0.0
 10
-74.3052
 20
-85.9751
 30
0.0
 10
-74.5337
 20
-87.0371
 30
0.0
 10
-74.5337
 20
-87.0371
 30
0.0
 10
-77.7765
 20
-85.2039
 30
0.0
 10
-83.3009
 20
-83.2262
 30
0.0
 10
-88.6411
 20
-82.8473
 30
0.0
 10
-88.6411
 20
-82.8473
 30
0.0
 10
-82.2456
 20
-85.8637
 30
0.0
 10
-76.1252
 20
-91.1739
 30
0.0
 10
-73.2812
 20
-96.2303
 30
0.0
 10
-73.2812
 20
-96.2303
 30
0.0
 10
-73.2812
 20
-96.2303
 30
0.0
 10
-69.101
 20
-96.2372
 30
0.0
 10
-69.101
 20
-96.2372
 30
0.0
 10
-69.101
 20
-96.2372
 30
0.0
 10
-71.4192
 20
-93.8777
 30
0.0
 10
-73.0894
 20
-90.4898
 30
0.0
 10
-70.6868
 20
-88.2028
 30
0.0
 10
-70.6868
 20
-88.2028
 30
0.0
 10
-67.6171
 20
-86.7868
 30
0.0
 10
-64.6582
 20
-88.1989
 30
0.0
 10
-64.7298
 20
-91.2444
 30
0.0
 10
-64.7298
 20
-91.2444
 30
0.0
 10
-62.0025
 20
-88.6534
 30
0.0
 10
-63.1713
 20
-84.9411
 30
0.0
 10
-66.4508
 20
-83.2925
 30
0.0
 10
-66.4508
 20
-83.2925
 30
0.0
 10
-69.6886
 20
-81.6648
 30
0.0
 10
-73.9336
 20
-82.2213
 30
0.0
 10
-76.7675
 20
-82.1553
 30
0.0
 10
-76.7675
 20
-82.1553
 30
0.0
 10
-76.7675
 20
-82.1553
 30
0.0
 10
-76.7676
 20
-82.1553
 30
0.0
 10
-76.7676
 20
-82.1553
 30
0.0
  0
SPLINE
  5
80
330
1F
100
AcDbEntity
  8
layer 1
 62
     7
100
AcDbSpline
210
0.0
220
0.0
230
1.0
 70
    11
 71
     3
 72
    24
 73
    20
 74
     0
 42
0.0000000001
 43
0.0000000001
 12
1.0
 22
0.0
 32
0.0
 13
1.0
 23
0.0
 33
0.0
 40
0.0
 40
0.0
 40
0.0
 40
0.0
 40
0.1666666666666667
 40
0.1666666666666667
 40
0.1666666666666667
 40
0.1666666666666667
 40
0.3333333333333333
 40
0.3333333333333333
 40
0.3333333333333333
 40
0.3333333333333333
 40
0.5
 40
0.5
 40
0.5
 40
0.5
 40
0.6666666666666666
 40
0.6666666666666666
 40
0.6666666666666666
 40
0.6666666666666666
 40
1.0
 40
1.0
 40
1.0
 40
1.0
 10
-29.9585
 20
-122.2883
 30
0.0
 10
-32.4812
 20
-122.4871
 30
0.0
 10
-34.7895
 20
-122.4393
 30
0.0
 10
-37.3071
 20
-122.2883
 30
0.0
 10
-37.3071
 20
-122.2883
 30
0.0
 10
-37.3071
 20
-122.2883
 30
0.0
 10
-37.3071
 20
-112.5499
 30
0.0
 10
-37.3071
 20
-112.5499
 30
0.0
 10
-37.3071
 20
-112.5499
 30
0.0
 10
-39.278
 20
-112.6608
 30
0.0
 10
-44.9714
 20
-111.9304
 30
0.0
 10
-46.8536
 20
-111.2955
 30
0.0
 10
-46.8536
 20
-111.2955
 30
0.0
 10
-37.5985
 20
-111.212
 30
0.0
 10
-32.2189
 20
-106.7862
 30
0.0
 10
-29.9585
 20
-97.2593
 30
0.0
 10
-29.9585
 20
-97.2593
 30
0.0
 10
-29.9585
 20
-97.2593
 30
0.0
 10
-29.9585
 20
-122.2883
 30
0.0
 10
-29.9585
 20
-122.2883
 30
0.0
  0
ENDSEC
  0
SECTION
  2
OBJECTS
  0
DICTIONARY
  5
C
330
0
100
AcDbDictionary
281
     1
  3
ACAD_GROUP
350
D
  3
ACAD_LAYOUT
350
1A
  3
ACAD_MATERIAL
350
3B
  3
ACAD_MLEADERSTYLE
350
A2
  3
ACAD_MLINESTYLE
350
17
  3
ACAD_PLOTSETTINGS
350
19
  3
ACAD_PLOTSTYLENAME
350
E
  3
ACAD_TABLESTYLE
350
A1
  3
ACAD_VISUALSTYLE
350
2A
  0
DICTIONARY
  5
D
102
{ACAD_REACTORS
330
C
102
}
330
C
100
AcDbDictionary
281
     1
  0
DICTIONARY
  5
1A
102
{ACAD_REACTORS
330
C
102
}
330
C
100
AcDbDictionary
281
     1
  3
Layout1
350
1E
  3
Layout2
350
26
  3
Model
350
22
  0
DICTIONARY
  5
3B
102
{ACAD_REACTORS
330
C
102
}
330
C
100
AcDbDictionary
281
     1
  3
ByBlock
350
3D
  3
ByLayer
350
3C
  3
Global
350
3E
  0
DICTIONARY
  5
A2
102
{ACAD_REACTORS
330
C
102
}
330
C
100
AcDbDictionary
281
     1
  0
DICTIONARY
  5
17
102
{ACAD_REACTORS
330
C
102
}
330
C
100
AcDbDictionary
281
     1
  3
Standard
350
18
  0
DICTIONARY
  5
19
102
{ACAD_REACTORS
330
C
102
}
330
C
100
AcDbDictionary
281
     1
  0
ACDBDICTIONARYWDFLT
  5
E
102
{ACAD_REACTORS
330
C
102
}
330
C
100
AcDbDictionary
281
     1
  3
Normal
350
F
100
AcDbDictionaryWithDefault
340
F
  0
DICTIONARY
  5
A1
102
{ACAD_REACTORS
330
C
102
}
330
C
100
AcDbDictionary
281
     1
  0
DICTIONARY
  5
2A
102
{ACAD_REACTORS
330
C
102
}
330
C
100
AcDbDictionary
281
     1
  3
2dWireframe
350
2F
  3
3D Hidden
350
31
  3
3dWireframe
350
30
  3
Basic
350
32
  3
Brighten
350
36
  3
ColorChange
350
3A
  3
Conceptual
350
34
  3
Dim
350
35
  3
Facepattern
350
39
  3
Flat
350
2B
  3
FlatWithEdges
350
2C
  3
Gouraud
350
2D
  3
GouraudWithEdges
350
2E
  3
Linepattern
350
38
  3
Realistic
350
33
  3
Thicken
350
37
  0
LAYOUT
  5
1E
102
{ACAD_REACTORS
330
1A
102
}
330
1A
100
AcDbPlotSettings
  1

  2
none_device
  4

  6

 40
0.0
 41
0.0
 42
0.0
 43
0.0
 44
0.0
 45
0.0
 46
0.0
 47
0.0
 48
0.0
 49
0.0
140
0.0
141
0.0
142
1.0
143
1.0
 70
   688
 72
     0
 73
     0
 74
     5
  7

 75
    16
 76
     0
 77
     2
 78
   300
147
1.0
148
0.0
149
0.0
100
AcDbLayout
  1
Layout1
 70
     1
 71
     1
 10
0.0
 20
0.0
 11
12.0
 21
9.0
 12
0.0
 22
0.0
 32
0.0
 14
1.000000000000000E+20
 24
1.000000000000000E+20
 34
1.000000000000000E+20
 15
-1.000000000000000E+20
 25
-1.000000000000000E+20
 35
-1.000000000000000E+20
146
0.0
 13
0.0
 23
0.0
 33
0.0
 16
1.0
 26
0.0
 36
0.0
 17
0.0
 27
1.0
 37
0.0
 76
     0
330
1B
  0
LAYOUT
  5
26
102
{ACAD_REACTORS
330
1A
102
}
330
1A
100
AcDbPlotSettings
  1

  2
none_device
  4

  6

 40
0.0
 41
0.0
 42
0.0
 43
0.0
 44
0.0
 45
0.0
 46
0.0
 47
0.0
 48
0.0
 49
0.0
140
0.0
141
0.0
142
1.0
143
1.0
 70
   688
 72
     0
 73
     0
 74
     5
  7

 75
    16
 76
     0
 77
     2
 78
   300
147
1.0
148
0.0
149
0.0
100
AcDbLayout
  1
Layout2
 70
     1
 71
     2
 10
0.0
 20
0.0
 11
0.0
 21
0.0
 12
0.0
 22
0.0
 32
0.0
 14
0.0
 24
0.0
 34
0.0
 15
0.0
 25
0.0
 35
0.0
146
0.0
 13
0.0
 23
0.0
 33
0.0
 16
1.0
 26
0.0
 36
0.0
 17
0.0
 27
1.0
 37
0.0
 76
     0
330
23
  0
LAYOUT
  5
22
102
{ACAD_REACTORS
330
1A
102
}
330
1A
100
AcDbPlotSettings
  1

  2
none_device
  4

  6

 40
0.0
 41
0.0
 42
0.0
 43
0.0
 44
0.0
 45
0.0
 46
0.0
 47
0.0
 48
0.0
 49
0.0
140
0.0
141
0.0
142
1.0
143
1.0
 70
  1712
 72
     0
 73
     0
 74
     0
  7

 75
     0
 76
     0
 77
     2
 78
   300
147
1.0
148
0.0
149
0.0
100
AcDbLayout
  1
Model
 70
     1
 71
     0
 10
0.0
 20
0.0
 11
12.0
 21
9.0
 12
0.0
 22
0.0
 32
0.0
 14
-187.4511
 24
-129.2
 34
0.0
 15
-21.9368
 25
131.8605
 35
0.0
146
0.0
 13
0.0
 23
0.0
 33
0.0
 16
1.0
 26
0.0
 36
0.0
 17
0.0
 27
1.0
 37
0.0
 76
     0
330
1F
331
29
  0
MATERIAL
  5
3D
102
{ACAD_REACTORS
330
3B
102
}
330
3B
100
AcDbMaterial
  1
ByBlock
 72
     1
 94
      127
  0
MATERIAL
  5
3C
102
{ACAD_REACTORS
330
3B
102
}
330
3B
100
AcDbMaterial
  1
ByLayer
 72
     1
 94
      127
  0
MATERIAL
  5
3E
102
{ACAD_REACTORS
330
3B
102
}
330
3B
100
AcDbMaterial
  1
Global
 72
     1
 94
      127
  0
MLINESTYLE
  5
18
102
{ACAD_REACTORS
330
17
102
}
330
17
100
AcDbMlineStyle
  2
Standard
 70
     0
  3

 62
   256
 51
90.0
 52
90.0
 71
     2
 49
0.5
 62
   256
  6
BYLAYER
 49
-0.5
 62
   256
  6
BYLAYER
  0
ACDBPLACEHOLDER
  5
F
102
{ACAD_REACTORS
330
E
102
}
330
E
  0
VISUALSTYLE
  5
2F
102
{ACAD_REACTORS
330
2A
102
}
102
{ACAD_XDICTIONARY
360
89
102
}
330
2A
100
AcDbVisualStyle
  2
2dWireframe
 70
     4
 71
     0
 72
     2
 73
     0
 90
        0
 40
-0.6
 41
-30.0
 62
     5
 63
     7
421
 16777215
 74
     1
 91
        4
 64
     7
 65
   257
 75
     1
175
     1
 42
1.0
 92
        0
 66
   257
 43
1.0
 76
     1
 77
     6
 78
     2
 67
     7
 79
     5
170
     0
171
     0
290
     0
174
     0
 93
        1
 44
0.0
173
     0
291
     0
 45
0.0
  0
VISUALSTYLE
  5
31
102
{ACAD_REACTORS
330
2A
102
}
102
{ACAD_XDICTIONARY
360
8D
102
}
330
2A
100
AcDbVisualStyle
  2
3D Hidden
 70
     6
 71
     1
 72
     2
 73
     2
 90
        0
 40
-0.6
 41
-30.0
 62
     5
 63
     7
421
 16777215
 74
     2
 91
        2
 64
     7
 65
   257
 75
     2
175
     1
 42
40.0
 92
        0
 66
   257
 43
1.0
 76
     1
 77
     6
 78
     2
 67
     7
 79
     3
170
     0
171
     0
290
     0
174
     0
 93
        1
 44
0.0
173
     0
291
     0
 45
0.0
  0
VISUALSTYLE
  5
30
102
{ACAD_REACTORS
330
2A
102
}
102
{ACAD_XDICTIONARY
360
8B
102
}
330
2A
100
AcDbVisualStyle
  2
3dWireframe
 70
     5
 71
     0
 72
     2
 73
     0
 90
        0
 40
-0.6
 41
-30.0
 62
     5
 63
     7
421
 16777215
 74
     1
 91
        4
 64
     7
 65
   257
 75
     1
175
     1
 42
1.0
 92
        0
 66
   257
 43
1.0
 76
     1
 77
     6
 78
     2
 67
     7
 79
     5
170
     0
171
     0
290
     0
174
     0
 93
        1
 44
0.0
173
     0
291
     0
 45
0.0
  0
VISUALSTYLE
  5
32
102
{ACAD_REACTORS
330
2A
102
}
102
{ACAD_XDICTIONARY
360
8F
102
}
330
2A
100
AcDbVisualStyle
  2
Basic
 70
     7
 71
     1
 72
     0
 73
     1
 90
        0
 40
-0.6
 41
-30.0
 62
     5
 63
     7
421
 16777215
 74
     0
 91
        4
 64
     7
 65
   257
 75
     1
175
     1
 42
1.0
 92
        8
 66
     7
 43
1.0
 76
     1
 77
     6
 78
     2
 67
     7
 79
     5
170
     0
171
     0
290
     0
174
     0
 93
        1
 44
0.0
173
     0
291
     1
 45
0.0
  0
VISUALSTYLE
  5
36
102
{ACAD_REACTORS
330
2A
102
}
102
{ACAD_XDICTIONARY
360
97
102
}
330
2A
100
AcDbVisualStyle
  2
Brighten
 70
    12
 71
     2
 72
     2
 73
     0
 90
        0
 40
-0.6
 41
-30.0
 62
     5
 63
     7
421
 16777215
 74
     1
 91
        4
 64
     7
 65
   257
 75
     1
175
     1
 42
1.0
 92
        8
 66
     7
 43
1.0
 76
     1
 77
     6
 78
     2
 67
     7
 79
     5
170
     0
171
     0
290
     0
174
     0
 93
        1
 44
50.0
173
     0
291
     1
 45
0.0
  0
VISUALSTYLE
  5
3A
102
{ACAD_REACTORS
330
2A
102
}
102
{ACAD_XDICTIONARY
360
9F
102
}
330
2A
100
AcDbVisualStyle
  2
ColorChange
 70
    16
 71
     2
 72
     2
 73
     3
 90
        0
 40
-0.6
 41
-30.0
 62
     5
 63
     8
421
  8421504
 74
     1
 91
        4
 64
     7
 65
   257
 75
     1
175
     1
 42
1.0
 92
        8
 66
     8
424
  8421504
 43
1.0
 76
     1
 77
     6
 78
     2
 67
     7
 79
     5
170
     0
171
     0
290
     0
174
     0
 93
        1
 44
0.0
173
     0
291
     1
 45
0.0
  0
VISUALSTYLE
  5
34
102
{ACAD_REACTORS
330
2A
102
}
102
{ACAD_XDICTIONARY
360
93
102
}
330
2A
100
AcDbVisualStyle
  2
Conceptual
 70
     9
 71
     3
 72
     2
 73
     0
 90
        0
 40
-0.6
 41
-30.0
 62
     5
 63
     7
421
 16777215
 74
     2
 91
        2
 64
     7
 65
   257
 75
     1
175
     1
 42
40.0
 92
        8
 66
     7
 43
1.0
 76
     1
 77
     6
 78
     2
 67
     7
 79
     3
170
     0
171
     0
290
     0
174
     0
 93
        1
 44
0.0
173
     0
291
     0
 45
0.0
  0
VISUALSTYLE
  5
35
102
{ACAD_REACTORS
330
2A
102
}
102
{ACAD_XDICTIONARY
360
95
102
}
330
2A
100
AcDbVisualStyle
  2
Dim
 70
    11
 71
     2
 72
     2
 73
     0
 90
        0
 40
-0.6
 41
-30.0
 62
     5
 63
     7
421
 16777215
 74
     1
 91
        4
 64
     7
 65
   257
 75
     1
175
     1
 42
1.0
 92
        8
 66
     7
 43
1.0
 76
     1
 77
     6
 78
     2
 67
     7
 79
     5
170
     0
171
     0
290
     0
174
     0
 93
        1
 44
-50.0
173
     0
291
     1
 45
0.0
  0
VISUALSTYLE
  5
39
102
{ACAD_REACTORS
330
2A
102
}
102
{ACAD_XDICTIONARY
360
9D
102
}
330
2A
100
AcDbVisualStyle
  2
Facepattern
 70
    15
 71
     2
 72
     2
 73
     0
 90
        0
 40
-0.6
 41
-30.0
 62
     5
 63
     7
421
 16777215
 74
     1
 91
        4
 64
     7
 65
   257
 75
     1
175
     1
 42
1.0
 92
        8
 66
     7
 43
1.0
 76
     1
 77
     6
 78
     2
 67
     7
 79
     5
170
     0
171
     0
290
     0
174
     0
 93
        1
 44
0.0
173
     0
291
     1
 45
0.0
  0
VISUALSTYLE
  5
2B
102
{ACAD_REACTORS
330
2A
102
}
102
{ACAD_XDICTIONARY
360
81
102
}
330
2A
100
AcDbVisualStyle
  2
Flat
 70
     0
 71
     2
 72
     1
 73
     1
 90
        2
 40
-0.6
 41
30.0
 62
     5
 63
     7
421
 16777215
 74
     0
 91
        4
 64
     7
 65
   257
 75
     1
175
     1
 42
1.0
 92
        8
 66
     7
 43
1.0
 76
     1
 77
     6
 78
     2
 67
     7
 79
     5
170
     0
171
     0
290
     0
174
     0
 93
       13
 44
0.0
173
     0
291
     1
 45
0.0
  0
VISUALSTYLE
  5
2C
102
{ACAD_REACTORS
330
2A
102
}
102
{ACAD_XDICTIONARY
360
83
102
}
330
2A
100
AcDbVisualStyle
  2
FlatWithEdges
 70
     1
 71
     2
 72
     1
 73
     1
 90
        2
 40
-0.6
 41
30.0
 62
     5
 63
     7
421
 16777215
 74
     1
 91
        4
 64
     7
 65
   257
 75
     1
175
     1
 42
1.0
 92
        0
 66
   257
 43
1.0
 76
     1
 77
     6
 78
     2
 67
     7
 79
     5
170
     0
171
     0
290
     0
174
     0
 93
       13
 44
0.0
173
     0
291
     1
 45
0.0
  0
VISUALSTYLE
  5
2D
102
{ACAD_REACTORS
330
2A
102
}
102
{ACAD_XDICTIONARY
360
85
102
}
330
2A
100
AcDbVisualStyle
  2
Gouraud
 70
     2
 71
     2
 72
     2
 73
     1
 90
        2
 40
-0.6
 41
30.0
 62
     5
 63
     7
421
 16777215
 74
     0
 91
        4
 64
     7
 65
   257
 75
     1
175
     1
 42
1.0
 92
        0
 66
     7
 43
1.0
 76
     1
 77
     6
 78
     2
 67
     7
 79
     5
170
     0
171
     0
290
     0
174
     0
 93
       13
 44
0.0
173
     0
291
     1
 45
0.0
  0
VISUALSTYLE
  5
2E
102
{ACAD_REACTORS
330
2A
102
}
102
{ACAD_XDICTIONARY
360
87
102
}
330
2A
100
AcDbVisualStyle
  2
GouraudWithEdges
 70
     3
 71
     2
 72
     2
 73
     1
 90
        2
 40
-0.6
 41
30.0
 62
     5
 63
     7
421
 16777215
 74
     1
 91
        4
 64
     7
 65
   257
 75
     1
175
     1
 42
1.0
 92
        0
 66
   257
 43
1.0
 76
     1
 77
     6
 78
     2
 67
     7
 79
     5
170
     0
171
     0
290
     0
174
     0
 93
       13
 44
0.0
173
     0
291
     1
 45
0.0
  0
VISUALSTYLE
  5
38
102
{ACAD_REACTORS
330
2A
102
}
102
{ACAD_XDICTIONARY
360
9B
102
}
330
2A
100
AcDbVisualStyle
  2
Linepattern
 70
    14
 71
     2
 72
     2
 73
     0
 90
        0
 40
-0.6
 41
-30.0
 62
     5
 63
     7
421
 16777215
 74
     1
 91
        4
 64
     7
 65
   257
 75
     7
175
     7
 42
1.0
 92
        8
 66
     7
 43
1.0
 76
     1
 77
     6
 78
     2
 67
     7
 79
     5
170
     0
171
     0
290
     0
174
     0
 93
        1
 44
0.0
173
     0
291
     1
 45
0.0
  0
VISUALSTYLE
  5
33
102
{ACAD_REACTORS
330
2A
102
}
102
{ACAD_XDICTIONARY
360
91
102
}
330
2A
100
AcDbVisualStyle
  2
Realistic
 70
     8
 71
     2
 72
     2
 73
     0
 90
        0
 40
-0.6
 41
-30.0
 62
     5
 63
     7
421
 16777215
 74
     1
 91
        0
 64
     7
 65
   257
 75
     1
175
     1
 42
1.0
 92
        8
 66
     8
424
  7895160
 43
1.0
 76
     1
 77
     6
 78
     2
 67
     7
 79
     5
170
     0
171
     0
290
     0
174
     0
 93
       13
 44
0.0
173
     0
291
     0
 45
0.0
  0
VISUALSTYLE
  5
37
102
{ACAD_REACTORS
330
2A
102
}
102
{ACAD_XDICTIONARY
360
99
102
}
330
2A
100
AcDbVisualStyle
  2
Thicken
 70
    13
 71
     2
 72
     2
 73
     0
 90
        0
 40
-0.6
 41
-30.0
 62
     5
 63
     7
421
 16777215
 74
     1
 91
        4
 64
     7
 65
   257
 75
     1
175
     1
 42
1.0
 92
       12
 66
     7
 43
1.0
 76
     1
 77
     6
 78
     2
 67
     7
 79
     5
170
     0
171
     0
290
     0
174
     0
 93
        1
 44
0.0
173
     0
291
     1
 45
0.0
  0
DICTIONARY
  5
89
330
2F
100
AcDbDictionary
280
     1
281
     1
  3
ACAD_XREC_ROUNDTRIP
360
8A
  0
DICTIONARY
  5
8D
330
31
100
AcDbDictionary
280
     1
281
     1
  3
ACAD_XREC_ROUNDTRIP
360
8E
  0
DICTIONARY
  5
8B
330
30
100
AcDbDictionary
280
     1
281
     1
  3
ACAD_XREC_ROUNDTRIP
360
8C
  0
DICTIONARY
  5
8F
330
32
100
AcDbDictionary
280
     1
281
     1
  3
ACAD_XREC_ROUNDTRIP
360
90
  0
DICTIONARY
  5
97
330
36
100
AcDbDictionary
280
     1
281
     1
  3
ACAD_XREC_ROUNDTRIP
360
98
  0
DICTIONARY
  5
9F
330
3A
100
AcDbDictionary
280
     1
281
     1
  3
ACAD_XREC_ROUNDTRIP
360
A0
  0
DICTIONARY
  5
93
330
34
100
AcDbDictionary
280
     1
281
     1
  3
ACAD_XREC_ROUNDTRIP
360
94
  0
DICTIONARY
  5
95
330
35
100
AcDbDictionary
280
     1
281
     1
  3
ACAD_XREC_ROUNDTRIP
360
96
  0
DICTIONARY
  5
9D
330
39
100
AcDbDictionary
280
     1
281
     1
  3
ACAD_XREC_ROUNDTRIP
360
9E
  0
DICTIONARY
  5
81
330
2B
100
AcDbDictionary
280
     1
281
     1
  3
ACAD_XREC_ROUNDTRIP
360
82
  0
DICTIONARY
  5
83
330
2C
100
AcDbDictionary
280
     1
281
     1
  3
ACAD_XREC_ROUNDTRIP
360
84
  0
DICTIONARY
  5
85
330
2D
100
AcDbDictionary
280
     1
281
     1
  3
ACAD_XREC_ROUNDTRIP
360
86
  0
DICTIONARY
  5
87
330
2E
100
AcDbDictionary
280
     1
281
     1
  3
ACAD_XREC_ROUNDTRIP
360
88
  0
DICTIONARY
  5
9B
330
38
100
AcDbDictionary
280
     1
281
     1
  3
ACAD_XREC_ROUNDTRIP
360
9C
  0
DICTIONARY
  5
91
330
33
100
AcDbDictionary
280
     1
281
     1
  3
ACAD_XREC_ROUNDTRIP
360
92
  0
DICTIONARY
  5
99
330
37
100
AcDbDictionary
280
     1
281
     1
  3
ACAD_XREC_ROUNDTRIP
360
9A
  0
XRECORD
  5
8A
102
{ACAD_REACTORS
330
89
102
}
330
89
100
AcDbXrecord
280
     1
102
RTVSPropertyOp0
 70
     1
102
RTVSPropertyOp1
 70
     1
102
RTVSPropertyOp2
 70
     1
102
RTVSPropertyOp3
 70
     1
102
RTVSPropertyOp4
 70
     1
102
RTVSPropertyOp5
 70
     1
102
RTVSPropertyOp6
 70
     1
102
RTVSPropertyOp7
 70
     1
102
RTVSPropertyOp8
 70
     1
102
RTVSPropertyOp9
 70
     1
102
RTVSPropertyOp10
 70
     1
102
RTVSPropertyOp11
 70
     1
102
RTVSPropertyOp12
 70
     1
102
RTVSPropertyOp13
 70
     1
102
RTVSPropertyOp14
 70
     1
102
RTVSPropertyOp15
 70
     1
102
RTVSPropertyOp16
 70
     1
102
RTVSPropertyOp17
 70
     1
102
RTVSPropertyOp18
 70
     1
102
RTVSPropertyOp19
 70
     1
102
RTVSPropertyOp20
 70
     1
102
RTVSPropertyOp21
 70
     1
102
RTVSPropertyOp22
 70
     1
102
RTVSPropertyOp23
 70
     1
102
RTVSPropertyOp24
 70
     1
102
RTVSPropertyOp25
 70
     1
102
RTVSPropertyOp26
 70
     1
102
RTVSPropertyOp27
 70
     1
102
RTVSPropertyOp28
 70
     1
102
RTVSPropertyOp29
 70
     1
102
RTVSPropertyOp30
 70
     1
102
RTVSPropertyOp31
 70
     1
102
RTVSPropertyOp32
 70
     1
  0
XRECORD
  5
8E
102
{ACAD_REACTORS
330
8D
102
}
330
8D
100
AcDbXrecord
280
     1
102
RTVSPropertyOp0
 70
     1
102
RTVSPropertyOp1
 70
     1
102
RTVSPropertyOp2
 70
     1
102
RTVSPropertyOp3
 70
     1
102
RTVSPropertyOp4
 70
     1
102
RTVSPropertyOp5
 70
     1
102
RTVSPropertyOp6
 70
     1
102
RTVSPropertyOp7
 70
     1
102
RTVSPropertyOp8
 70
     1
102
RTVSPropertyOp9
 70
     1
102
RTVSPropertyOp10
 70
     1
102
RTVSPropertyOp11
 70
     1
102
RTVSPropertyOp12
 70
     1
102
RTVSPropertyOp13
 70
     1
102
RTVSPropertyOp14
 70
     1
102
RTVSPropertyOp15
 70
     1
102
RTVSPropertyOp16
 70
     1
102
RTVSPropertyOp17
 70
     1
102
RTVSPropertyOp18
 70
     1
102
RTVSPropertyOp19
 70
     1
102
RTVSPropertyOp20
 70
     1
102
RTVSPropertyOp21
 70
     1
102
RTVSPropertyOp22
 70
     1
102
RTVSPropertyOp23
 70
     1
102
RTVSPropertyOp24
 70
     1
102
RTVSPropertyOp25
 70
     1
102
RTVSPropertyOp26
 70
     1
102
RTVSPropertyOp27
 70
     1
102
RTVSPropertyOp28
 70
     1
102
RTVSPropertyOp29
 70
     1
102
RTVSPropertyOp30
 70
     1
102
RTVSPropertyOp31
 70
     1
102
RTVSPropertyOp32
 70
     1
  0
XRECORD
  5
8C
102
{ACAD_REACTORS
330
8B
102
}
330
8B
100
AcDbXrecord
280
     1
102
RTVSPropertyOp0
 70
     1
102
RTVSPropertyOp1
 70
     1
102
RTVSPropertyOp2
 70
     1
102
RTVSPropertyOp3
 70
     1
102
RTVSPropertyOp4
 70
     1
102
RTVSPropertyOp5
 70
     1
102
RTVSPropertyOp6
 70
     1
102
RTVSPropertyOp7
 70
     1
102
RTVSPropertyOp8
 70
     1
102
RTVSPropertyOp9
 70
     1
102
RTVSPropertyOp10
 70
     1
102
RTVSPropertyOp11
 70
     1
102
RTVSPropertyOp12
 70
     1
102
RTVSPropertyOp13
 70
     1
102
RTVSPropertyOp14
 70
     1
102
RTVSPropertyOp15
 70
     1
102
RTVSPropertyOp16
 70
     1
102
RTVSPropertyOp17
 70
     1
102
RTVSPropertyOp18
 70
     1
102
RTVSPropertyOp19
 70
     1
102
RTVSPropertyOp20
 70
     1
102
RTVSPropertyOp21
 70
     1
102
RTVSPropertyOp22
 70
     1
102
RTVSPropertyOp23
 70
     1
102
RTVSPropertyOp24
 70
     1
102
RTVSPropertyOp25
 70
     1
102
RTVSPropertyOp26
 70
     1
102
RTVSPropertyOp27
 70
     1
102
RTVSPropertyOp28
 70
     1
102
RTVSPropertyOp29
 70
     1
102
RTVSPropertyOp30
 70
     1
102
RTVSPropertyOp31
 70
     1
102
RTVSPropertyOp32
 70
     1
  0
XRECORD
  5
90
102
{ACAD_REACTORS
330
8F
102
}
330
8F
100
AcDbXrecord
280
     1
102
RTVSPropertyOp0
 70
     1
102
RTVSPropertyOp1
 70
     1
102
RTVSPropertyOp2
 70
     1
102
RTVSPropertyOp3
 70
     1
102
RTVSPropertyOp4
 70
     1
102
RTVSPropertyOp5
 70
     1
102
RTVSPropertyOp6
 70
     1
102
RTVSPropertyOp7
 70
     1
102
RTVSPropertyOp8
 70
     1
102
RTVSPropertyOp9
 70
     1
102
RTVSPropertyOp10
 70
     1
102
RTVSPropertyOp11
 70
     1
102
RTVSPropertyOp12
 70
     1
102
RTVSPropertyOp13
 70
     1
102
RTVSPropertyOp14
 70
     1
102
RTVSPropertyOp15
 70
     1
102
RTVSPropertyOp16
 70
     1
102
RTVSPropertyOp17
 70
     1
102
RTVSPropertyOp18
 70
     1
102
RTVSPropertyOp19
 70
     1
102
RTVSPropertyOp20
 70
     1
102
RTVSPropertyOp21
 70
     1
102
RTVSPropertyOp22
 70
     1
102
RTVSPropertyOp23
 70
     1
102
RTVSPropertyOp24
 70
     1
102
RTVSPropertyOp25
 70
     1
102
RTVSPropertyOp26
 70
     1
102
RTVSPropertyOp27
 70
     1
102
RTVSPropertyOp28
 70
     1
102
RTVSPropertyOp29
 70
     1
102
RTVSPropertyOp30
 70
     1
102
RTVSPropertyOp31
 70
     1
102
RTVSPropertyOp32
 70
     1
  0
XRECORD
  5
98
102
{ACAD_REACTORS
330
97
102
}
330
97
100
AcDbXrecord
280
     1
102
RTVSPropertyOp0
 70
     1
102
RTVSPropertyOp1
 70
     1
102
RTVSPropertyOp2
 70
     1
102
RTVSPropertyOp3
 70
     1
102
RTVSPropertyOp4
 70
     1
102
RTVSPropertyOp5
 70
     1
102
RTVSPropertyOp6
 70
     1
102
RTVSPropertyOp7
 70
     1
102
RTVSPropertyOp8
 70
     1
102
RTVSPropertyOp9
 70
     1
102
RTVSPropertyOp10
 70
     1
102
RTVSPropertyOp11
 70
     1
102
RTVSPropertyOp12
 70
     1
102
RTVSPropertyOp13
 70
     1
102
RTVSPropertyOp14
 70
     1
102
RTVSPropertyOp15
 70
     1
102
RTVSPropertyOp16
 70
     1
102
RTVSPropertyOp17
 70
     1
102
RTVSPropertyOp18
 70
     1
102
RTVSPropertyOp19
 70
     1
102
RTVSPropertyOp20
 70
     1
102
RTVSPropertyOp21
 70
     1
102
RTVSPropertyOp22
 70
     1
102
RTVSPropertyOp23
 70
     1
102
RTVSPropertyOp24
 70
     1
102
RTVSPropertyOp25
 70
     1
102
RTVSPropertyOp26
 70
     1
102
RTVSPropertyOp27
 70
     1
102
RTVSPropertyOp28
 70
     1
102
RTVSPropertyOp29
 70
     1
102
RTVSPropertyOp30
 70
     1
102
RTVSPropertyOp31
 70
     1
102
RTVSPropertyOp32
 70
     1
  0
XRECORD
  5
A0
102
{ACAD_REACTORS
330
9F
102
}
330
9F
100
AcDbXrecord
280
     1
102
RTVSPropertyOp0
 70
     1
102
RTVSPropertyOp1
 70
     1
102
RTVSPropertyOp2
 70
     1
102
RTVSPropertyOp3
 70
     1
102
RTVSPropertyOp4
 70
     1
102
RTVSPropertyOp5
 70
     1
102
RTVSPropertyOp6
 70
     1
102
RTVSPropertyOp7
 70
     1
102
RTVSPropertyOp8
 70
     1
102
RTVSPropertyOp9
 70
     1
102
RTVSPropertyOp10
 70
     1
102
RTVSPropertyOp11
 70
     1
102
RTVSPropertyOp12
 70
     1
102
RTVSPropertyOp13
 70
     1
102
RTVSPropertyOp14
 70
     1
102
RTVSPropertyOp15
 70
     1
102
RTVSPropertyOp16
 70
     1
102
RTVSPropertyOp17
 70
     1
102
RTVSPropertyOp18
 70
     1
102
RTVSPropertyOp19
 70
     1
102
RTVSPropertyOp20
 70
     1
102
RTVSPropertyOp21
 70
     1
102
RTVSPropertyOp22
 70
     1
102
RTVSPropertyOp23
 70
     1
102
RTVSPropertyOp24
 70
     1
102
RTVSPropertyOp25
 70
     1
102
RTVSPropertyOp26
 70
     1
102
RTVSPropertyOp27
 70
     1
102
RTVSPropertyOp28
 70
     1
102
RTVSPropertyOp29
 70
     1
102
RTVSPropertyOp30
 70
     1
102
RTVSPropertyOp31
 70
     1
102
RTVSPropertyOp32
 70
     1
  0
XRECORD
  5
94
102
{ACAD_REACTORS
330
93
102
}
330
93
100
AcDbXrecord
280
     1
102
RTVSPropertyOp0
 70
     1
102
RTVSPropertyOp1
 70
     1
102
RTVSPropertyOp2
 70
     1
102
RTVSPropertyOp3
 70
     1
102
RTVSPropertyOp4
 70
     1
102
RTVSPropertyOp5
 70
     1
102
RTVSPropertyOp6
 70
     1
102
RTVSPropertyOp7
 70
     1
102
RTVSPropertyOp8
 70
     1
102
RTVSPropertyOp9
 70
     1
102
RTVSPropertyOp10
 70
     1
102
RTVSPropertyOp11
 70
     1
102
RTVSPropertyOp12
 70
     1
102
RTVSPropertyOp13
 70
     1
102
RTVSPropertyOp14
 70
     1
102
RTVSPropertyOp15
 70
     1
102
RTVSPropertyOp16
 70
     1
102
RTVSPropertyOp17
 70
     1
102
RTVSPropertyOp18
 70
     1
102
RTVSPropertyOp19
 70
     1
102
RTVSPropertyOp20
 70
     1
102
RTVSPropertyOp21
 70
     1
102
RTVSPropertyOp22
 70
     1
102
RTVSPropertyOp23
 70
     1
102
RTVSPropertyOp24
 70
     1
102
RTVSPropertyOp25
 70
     1
102
RTVSPropertyOp26
 70
     1
102
RTVSPropertyOp27
 70
     1
102
RTVSPropertyOp28
 70
     1
102
RTVSPropertyOp29
 70
     1
102
RTVSPropertyOp30
 70
     1
102
RTVSPropertyOp31
 70
     1
102
RTVSPropertyOp32
 70
     1
  0
XRECORD
  5
96
102
{ACAD_REACTORS
330
95
102
}
330
95
100
AcDbXrecord
280
     1
102
RTVSPropertyOp0
 70
     1
102
RTVSPropertyOp1
 70
     1
102
RTVSPropertyOp2
 70
     1
102
RTVSPropertyOp3
 70
     1
102
RTVSPropertyOp4
 70
     1
102
RTVSPropertyOp5
 70
     1
102
RTVSPropertyOp6
 70
     1
102
RTVSPropertyOp7
 70
     1
102
RTVSPropertyOp8
 70
     1
102
RTVSPropertyOp9
 70
     1
102
RTVSPropertyOp10
 70
     1
102
RTVSPropertyOp11
 70
     1
102
RTVSPropertyOp12
 70
     1
102
RTVSPropertyOp13
 70
     1
102
RTVSPropertyOp14
 70
     1
102
RTVSPropertyOp15
 70
     1
102
RTVSPropertyOp16
 70
     1
102
RTVSPropertyOp17
 70
     1
102
RTVSPropertyOp18
 70
     1
102
RTVSPropertyOp19
 70
     1
102
RTVSPropertyOp20
 70
     1
102
RTVSPropertyOp21
 70
     1
102
RTVSPropertyOp22
 70
     1
102
RTVSPropertyOp23
 70
     1
102
RTVSPropertyOp24
 70
     1
102
RTVSPropertyOp25
 70
     1
102
RTVSPropertyOp26
 70
     1
102
RTVSPropertyOp27
 70
     1
102
RTVSPropertyOp28
 70
     1
102
RTVSPropertyOp29
 70
     1
102
RTVSPropertyOp30
 70
     1
102
RTVSPropertyOp31
 70
     1
102
RTVSPropertyOp32
 70
     1
  0
XRECORD
  5
9E
102
{ACAD_REACTORS
330
9D
102
}
330
9D
100
AcDbXrecord
280
     1
102
RTVSPropertyOp0
 70
     1
102
RTVSPropertyOp1
 70
     1
102
RTVSPropertyOp2
 70
     1
102
RTVSPropertyOp3
 70
     1
102
RTVSPropertyOp4
 70
     1
102
RTVSPropertyOp5
 70
     1
102
RTVSPropertyOp6
 70
     1
102
RTVSPropertyOp7
 70
     1
102
RTVSPropertyOp8
 70
     1
102
RTVSPropertyOp9
 70
     1
102
RTVSPropertyOp10
 70
     1
102
RTVSPropertyOp11
 70
     1
102
RTVSPropertyOp12
 70
     1
102
RTVSPropertyOp13
 70
     1
102
RTVSPropertyOp14
 70
     1
102
RTVSPropertyOp15
 70
     1
102
RTVSPropertyOp16
 70
     1
102
RTVSPropertyOp17
 70
     1
102
RTVSPropertyOp18
 70
     1
102
RTVSPropertyOp19
 70
     1
102
RTVSPropertyOp20
 70
     1
102
RTVSPropertyOp21
 70
     1
102
RTVSPropertyOp22
 70
     1
102
RTVSPropertyOp23
 70
     1
102
RTVSPropertyOp24
 70
     1
102
RTVSPropertyOp25
 70
     1
102
RTVSPropertyOp26
 70
     1
102
RTVSPropertyOp27
 70
     1
102
RTVSPropertyOp28
 70
     1
102
RTVSPropertyOp29
 70
     1
102
RTVSPropertyOp30
 70
     1
102
RTVSPropertyOp31
 70
     1
102
RTVSPropertyOp32
 70
     1
  0
XRECORD
  5
82
102
{ACAD_REACTORS
330
81
102
}
330
81
100
AcDbXrecord
280
     1
102
RTVSPropertyOp0
 70
     1
102
RTVSPropertyOp1
 70
     1
102
RTVSPropertyOp2
 70
     1
102
RTVSPropertyOp3
 70
     1
102
RTVSPropertyOp4
 70
     1
102
RTVSPropertyOp5
 70
     1
102
RTVSPropertyOp6
 70
     1
102
RTVSPropertyOp7
 70
     1
102
RTVSPropertyOp8
 70
     1
102
RTVSPropertyOp9
 70
     1
102
RTVSPropertyOp10
 70
     1
102
RTVSPropertyOp11
 70
     1
102
RTVSPropertyOp12
 70
     1
102
RTVSPropertyOp13
 70
     1
102
RTVSPropertyOp14
 70
     1
102
RTVSPropertyOp15
 70
     1
102
RTVSPropertyOp16
 70
     1
102
RTVSPropertyOp17
 70
     1
102
RTVSPropertyOp18
 70
     1
102
RTVSPropertyOp19
 70
     1
102
RTVSPropertyOp20
 70
     1
102
RTVSPropertyOp21
 70
     1
102
RTVSPropertyOp22
 70
     1
102
RTVSPropertyOp23
 70
     1
102
RTVSPropertyOp24
 70
     1
102
RTVSPropertyOp25
 70
     1
102
RTVSPropertyOp26
 70
     1
102
RTVSPropertyOp27
 70
     1
102
RTVSPropertyOp28
 70
     1
102
RTVSPropertyOp29
 70
     1
102
RTVSPropertyOp30
 70
     1
102
RTVSPropertyOp31
 70
     1
102
RTVSPropertyOp32
 70
     1
  0
XRECORD
  5
84
102
{ACAD_REACTORS
330
83
102
}
330
83
100
AcDbXrecord
280
     1
102
RTVSPropertyOp0
 70
     1
102
RTVSPropertyOp1
 70
     1
102
RTVSPropertyOp2
 70
     1
102
RTVSPropertyOp3
 70
     1
102
RTVSPropertyOp4
 70
     1
102
RTVSPropertyOp5
 70
     1
102
RTVSPropertyOp6
 70
     1
102
RTVSPropertyOp7
 70
     1
102
RTVSPropertyOp8
 70
     1
102
RTVSPropertyOp9
 70
     1
102
RTVSPropertyOp10
 70
     1
102
RTVSPropertyOp11
 70
     1
102
RTVSPropertyOp12
 70
     1
102
RTVSPropertyOp13
 70
     1
102
RTVSPropertyOp14
 70
     1
102
RTVSPropertyOp15
 70
     1
102
RTVSPropertyOp16
 70
     1
102
RTVSPropertyOp17
 70
     1
102
RTVSPropertyOp18
 70
     1
102
RTVSPropertyOp19
 70
     1
102
RTVSPropertyOp20
 70
     1
102
RTVSPropertyOp21
 70
     1
102
RTVSPropertyOp22
 70
     1
102
RTVSPropertyOp23
 70
     1
102
RTVSPropertyOp24
 70
     1
102
RTVSPropertyOp25
 70
     1
102
RTVSPropertyOp26
 70
     1
102
RTVSPropertyOp27
 70
     1
102
RTVSPropertyOp28
 70
     1
102
RTVSPropertyOp29
 70
     1
102
RTVSPropertyOp30
 70
     1
102
RTVSPropertyOp31
 70
     1
102
RTVSPropertyOp32
 70
     1
  0
XRECORD
  5
86
102
{ACAD_REACTORS
330
85
102
}
330
85
100
AcDbXrecord
280
     1
102
RTVSPropertyOp0
 70
     1
102
RTVSPropertyOp1
 70
     1
102
RTVSPropertyOp2
 70
     1
102
RTVSPropertyOp3
 70
     1
102
RTVSPropertyOp4
 70
     1
102
RTVSPropertyOp5
 70
     1
102
RTVSPropertyOp6
 70
     1
102
RTVSPropertyOp7
 70
     1
102
RTVSPropertyOp8
 70
     1
102
RTVSPropertyOp9
 70
     1
102
RTVSPropertyOp10
 70
     1
102
RTVSPropertyOp11
 70
     1
102
RTVSPropertyOp12
 70
     1
102
RTVSPropertyOp13
 70
     1
102
RTVSPropertyOp14
 70
     1
102
RTVSPropertyOp15
 70
     1
102
RTVSPropertyOp16
 70
     1
102
RTVSPropertyOp17
 70
     1
102
RTVSPropertyOp18
 70
     1
102
RTVSPropertyOp19
 70
     1
102
RTVSPropertyOp20
 70
     1
102
RTVSPropertyOp21
 70
     1
102
RTVSPropertyOp22
 70
     1
102
RTVSPropertyOp23
 70
     1
102
RTVSPropertyOp24
 70
     1
102
RTVSPropertyOp25
 70
     1
102
RTVSPropertyOp26
 70
     1
102
RTVSPropertyOp27
 70
     1
102
RTVSPropertyOp28
 70
     1
102
RTVSPropertyOp29
 70
     1
102
RTVSPropertyOp30
 70
     1
102
RTVSPropertyOp31
 70
     1
102
RTVSPropertyOp32
 70
     1
  0
XRECORD
  5
88
102
{ACAD_REACTORS
330
87
102
}
330
87
100
AcDbXrecord
280
     1
102
RTVSPropertyOp0
 70
     1
102
RTVSPropertyOp1
 70
     1
102
RTVSPropertyOp2
 70
     1
102
RTVSPropertyOp3
 70
     1
102
RTVSPropertyOp4
 70
     1
102
RTVSPropertyOp5
 70
     1
102
RTVSPropertyOp6
 70
     1
102
RTVSPropertyOp7
 70
     1
102
RTVSPropertyOp8
 70
     1
102
RTVSPropertyOp9
 70
     1
102
RTVSPropertyOp10
 70
     1
102
RTVSPropertyOp11
 70
     1
102
RTVSPropertyOp12
 70
     1
102
RTVSPropertyOp13
 70
     1
102
RTVSPropertyOp14
 70
     1
102
RTVSPropertyOp15
 70
     1
102
RTVSPropertyOp16
 70
     1
102
RTVSPropertyOp17
 70
     1
102
RTVSPropertyOp18
 70
     1
102
RTVSPropertyOp19
 70
     1
102
RTVSPropertyOp20
 70
     1
102
RTVSPropertyOp21
 70
     1
102
RTVSPropertyOp22
 70
     1
102
RTVSPropertyOp23
 70
     1
102
RTVSPropertyOp24
 70
     1
102
RTVSPropertyOp25
 70
     1
102
RTVSPropertyOp26
 70
     1
102
RTVSPropertyOp27
 70
     1
102
RTVSPropertyOp28
 70
     1
102
RTVSPropertyOp29
 70
     1
102
RTVSPropertyOp30
 70
     1
102
RTVSPropertyOp31
 70
     1
102
RTVSPropertyOp32
 70
     1
  0
XRECORD
  5
9C
102
{ACAD_REACTORS
330
9B
102
}
330
9B
100
AcDbXrecord
280
     1
102
RTVSPropertyOp0
 70
     1
102
RTVSPropertyOp1
 70
     1
102
RTVSPropertyOp2
 70
     1
102
RTVSPropertyOp3
 70
     1
102
RTVSPropertyOp4
 70
     1
102
RTVSPropertyOp5
 70
     1
102
RTVSPropertyOp6
 70
     1
102
RTVSPropertyOp7
 70
     1
102
RTVSPropertyOp8
 70
     1
102
RTVSPropertyOp9
 70
     1
102
RTVSPropertyOp10
 70
     1
102
RTVSPropertyOp11
 70
     1
102
RTVSPropertyOp12
 70
     1
102
RTVSPropertyOp13
 70
     1
102
RTVSPropertyOp14
 70
     1
102
RTVSPropertyOp15
 70
     1
102
RTVSPropertyOp16
 70
     1
102
RTVSPropertyOp17
 70
     1
102
RTVSPropertyOp18
 70
     1
102
RTVSPropertyOp19
 70
     1
102
RTVSPropertyOp20
 70
     1
102
RTVSPropertyOp21
 70
     1
102
RTVSPropertyOp22
 70
     1
102
RTVSPropertyOp23
 70
     1
102
RTVSPropertyOp24
 70
     1
102
RTVSPropertyOp25
 70
     1
102
RTVSPropertyOp26
 70
     1
102
RTVSPropertyOp27
 70
     1
102
RTVSPropertyOp28
 70
     1
102
RTVSPropertyOp29
 70
     1
102
RTVSPropertyOp30
 70
     1
102
RTVSPropertyOp31
 70
     1
102
RTVSPropertyOp32
 70
     1
  0
XRECORD
  5
92
102
{ACAD_REACTORS
330
91
102
}
330
91
100
AcDbXrecord
280
     1
102
RTVSPropertyOp0
 70
     1
102
RTVSPropertyOp1
 70
     1
102
RTVSPropertyOp2
 70
     1
102
RTVSPropertyOp3
 70
     1
102
RTVSPropertyOp4
 70
     1
102
RTVSPropertyOp5
 70
     1
102
RTVSPropertyOp6
 70
     1
102
RTVSPropertyOp7
 70
     1
102
RTVSPropertyOp8
 70
     1
102
RTVSPropertyOp9
 70
     1
102
RTVSPropertyOp10
 70
     1
102
RTVSPropertyOp11
 70
     1
102
RTVSPropertyOp12
 70
     1
102
RTVSPropertyOp13
 70
     1
102
RTVSPropertyOp14
 70
     1
102
RTVSPropertyOp15
 70
     1
102
RTVSPropertyOp16
 70
     1
102
RTVSPropertyOp17
 70
     1
102
RTVSPropertyOp18
 70
     1
102
RTVSPropertyOp19
 70
     1
102
RTVSPropertyOp20
 70
     1
102
RTVSPropertyOp21
 70
     1
102
RTVSPropertyOp22
 70
     1
102
RTVSPropertyOp23
 70
     1
102
RTVSPropertyOp24
 70
     1
102
RTVSPropertyOp25
 70
     1
102
RTVSPropertyOp26
 70
     1
102
RTVSPropertyOp27
 70
     1
102
RTVSPropertyOp28
 70
     1
102
RTVSPropertyOp29
 70
     1
102
RTVSPropertyOp30
 70
     1
102
RTVSPropertyOp31
 70
     1
102
RTVSPropertyOp32
 70
     1
  0
XRECORD
  5
9A
102
{ACAD_REACTORS
330
99
102
}
330
99
100
AcDbXrecord
280
     1
102
RTVSPropertyOp0
 70
     1
102
RTVSPropertyOp1
 70
     1
102
RTVSPropertyOp2
 70
     1
102
RTVSPropertyOp3
 70
     1
102
RTVSPropertyOp4
 70
     1
102
RTVSPropertyOp5
 70
     1
102
RTVSPropertyOp6
 70
     1
102
RTVSPropertyOp7
 70
     1
102
RTVSPropertyOp8
 70
     1
102
RTVSPropertyOp9
 70
     1
102
RTVSPropertyOp10
 70
     1
102
RTVSPropertyOp11
 70
     1
102
RTVSPropertyOp12
 70
     1
102
RTVSPropertyOp13
 70
     1
102
RTVSPropertyOp14
 70
     1
102
RTVSPropertyOp15
 70
     1
102
RTVSPropertyOp16
 70
     1
102
RTVSPropertyOp17
 70
     1
102
RTVSPropertyOp18
 70
     1
102
RTVSPropertyOp19
 70
     1
102
RTVSPropertyOp20
 70
     1
102
RTVSPropertyOp21
 70
     1
102
RTVSPropertyOp22
 70
     1
102
RTVSPropertyOp23
 70
     1
102
RTVSPropertyOp24
 70
     1
102
RTVSPropertyOp25
 70
     1
102
RTVSPropertyOp26
 70
     1
102
RTVSPropertyOp27
 70
     1
102
RTVSPropertyOp28
 70
     1
102
RTVSPropertyOp29
 70
     1
102
RTVSPropertyOp30
 70
     1
102
RTVSPropertyOp31
 70
     1
102
RTVSPropertyOp32
 70
     1
  0
ENDSEC
  0
EOF
