  0
SECTION
  2
HEADER
  9
$ACADVER
  1
AC1021
  9
$ACADMAINTVER
 70
    25
  9
$DWGCODEPAGE
  3
ANSI_1256
  9
$INSBASE
 10
0.0
 20
0.0
 30
0.0
  9
$EXTMIN
 10
8.0538
 20
-114.5793
 30
0.0
  9
$EXTMAX
 10
196.3424
 20
131.8332
 30
0.0
  9
$LIMMIN
 10
0.0
 20
0.0
  9
$LIMMAX
 10
12.0
 20
9.0
  9
$ORTHOMODE
 70
     0
  9
$REGENMODE
 70
     1
  9
$FILLMODE
 70
     1
  9
$QTEXTMODE
 70
     0
  9
$MIRRTEXT
 70
     1
  9
$LTSCALE
 40
1.0
  9
$ATTMODE
 70
     1
  9
$TEXTSIZE
 40
0.2
  9
$TRACEWID
 40
0.05
  9
$TEXTSTYLE
  7
Standard
  9
$CLAYER
  8
0
  9
$CELTYPE
  6
ByLayer
  9
$CECOLOR
 62
   256
  9
$CELTSCALE
 40
1.0
  9
$DISPSILH
 70
     0
  9
$DIMSCALE
 40
1.0
  9
$DIMASZ
 40
0.18
  9
$DIMEXO
 40
0.0625
  9
$DIMDLI
 40
0.38
  9
$DIMRND
 40
0.0
  9
$DIMDLE
 40
0.0
  9
$DIMEXE
 40
0.18
  9
$DIMTP
 40
0.0
  9
$DIMTM
 40
0.0
  9
$DIMTXT
 40
0.18
  9
$DIMCEN
 40
0.09
  9
$DIMTSZ
 40
0.0
  9
$DIMTOL
 70
     0
  9
$DIMLIM
 70
     0
  9
$DIMTIH
 70
     1
  9
$DIMTOH
 70
     1
  9
$DIMSE1
 70
     0
  9
$DIMSE2
 70
     0
  9
$DIMTAD
 70
     0
  9
$DIMZIN
 70
     0
  9
$DIMBLK
  1

  9
$DIMASO
 70
     1
  9
$DIMSHO
 70
     1
  9
$DIMPOST
  1

  9
$DIMAPOST
  1

  9
$DIMALT
 70
     0
  9
$DIMALTD
 70
     2
  9
$DIMALTF
 40
25.4
  9
$DIMLFAC
 40
1.0
  9
$DIMTOFL
 70
     0
  9
$DIMTVP
 40
0.0
  9
$DIMTIX
 70
     0
  9
$DIMSOXD
 70
     0
  9
$DIMSAH
 70
     0
  9
$DIMBLK1
  1

  9
$DIMBLK2
  1

  9
$DIMSTYLE
  2
Standard
  9
$DIMCLRD
 70
     0
  9
$DIMCLRE
 70
     0
  9
$DIMCLRT
 70
     0
  9
$DIMTFAC
 40
1.0
  9
$DIMGAP
 40
0.09
  9
$DIMJUST
 70
     0
  9
$DIMSD1
 70
     0
  9
$DIMSD2
 70
     0
  9
$DIMTOLJ
 70
     1
  9
$DIMTZIN
 70
     0
  9
$DIMALTZ
 70
     0
  9
$DIMALTTZ
 70
     0
  9
$DIMUPT
 70
     0
  9
$DIMDEC
 70
     4
  9
$DIMTDEC
 70
     4
  9
$DIMALTU
 70
     2
  9
$DIMALTTD
 70
     2
  9
$DIMTXSTY
  7
Standard
  9
$DIMAUNIT
 70
     0
  9
$DIMADEC
 70
     0
  9
$DIMALTRND
 40
0.0
  9
$DIMAZIN
 70
     0
  9
$DIMDSEP
 70
    46
  9
$DIMATFIT
 70
     3
  9
$DIMFRAC
 70
     0
  9
$DIMLDRBLK
  1

  9
$DIMLUNIT
 70
     2
  9
$DIMLWD
 70
    -2
  9
$DIMLWE
 70
    -2
  9
$DIMTMOVE
 70
     0
  9
$DIMFXL
 40
1.0
  9
$DIMFXLON
 70
     0
  9
$DIMJOGANG
 40
0.7853981633974483
  9
$DIMTFILL
 70
     0
  9
$DIMTFILLCLR
 70
     0
  9
$DIMARCSYM
 70
     0
  9
$DIMLTYPE
  6

  9
$DIMLTEX1
  6

  9
$DIMLTEX2
  6

  9
$LUNITS
 70
     2
  9
$LUPREC
 70
     4
  9
$SKETCHINC
 40
0.1
  9
$FILLETRAD
 40
0.5
  9
$AUNITS
 70
     0
  9
$AUPREC
 70
     0
  9
$MENU
  1
.
  9
$ELEVATION
 40
0.0
  9
$PELEVATION
 40
0.0
  9
$THICKNESS
 40
0.0
  9
$LIMCHECK
 70
     0
  9
$CHAMFERA
 40
0.5
  9
$CHAMFERB
 40
0.5
  9
$CHAMFERC
 40
1.0
  9
$CHAMFERD
 40
0.0
  9
$SKPOLY
 70
     0
  9
$TDCREATE
 40
2458492.405388681
  9
$TDUCREATE
 40
2458492.238722014
  9
$TDUPDATE
 40
2458492.405388785
  9
$TDUUPDATE
 40
2458492.238722118
  9
$TDINDWG
 40
0.0000000116
  9
$TDUSRTIMER
 40
0.0000000116
  9
$USRTIMER
 70
     1
  9
$ANGBASE
 50
0.0
  9
$ANGDIR
 70
     0
  9
$PDMODE
 70
     0
  9
$PDSIZE
 40
0.0
  9
$PLINEWID
 40
0.0
  9
$SPLFRAME
 70
     0
  9
$SPLINETYPE
 70
     6
  9
$SPLINESEGS
 70
     8
  9
$HANDSEED
  5
94
  9
$SURFTAB1
 70
     6
  9
$SURFTAB2
 70
     6
  9
$SURFTYPE
 70
     6
  9
$SURFU
 70
     6
  9
$SURFV
 70
     6
  9
$UCSBASE
  2

  9
$UCSNAME
  2

  9
$UCSORG
 10
0.0
 20
0.0
 30
0.0
  9
$UCSXDIR
 10
1.0
 20
0.0
 30
0.0
  9
$UCSYDIR
 10
0.0
 20
1.0
 30
0.0
  9
$UCSORTHOREF
  2

  9
$UCSORTHOVIEW
 70
     0
  9
$UCSORGTOP
 10
0.0
 20
0.0
 30
0.0
  9
$UCSORGBOTTOM
 10
0.0
 20
0.0
 30
0.0
  9
$UCSORGLEFT
 10
0.0
 20
0.0
 30
0.0
  9
$UCSORGRIGHT
 10
0.0
 20
0.0
 30
0.0
  9
$UCSORGFRONT
 10
0.0
 20
0.0
 30
0.0
  9
$UCSORGBACK
 10
0.0
 20
0.0
 30
0.0
  9
$PUCSBASE
  2

  9
$PUCSNAME
  2

  9
$PUCSORG
 10
0.0
 20
0.0
 30
0.0
  9
$PUCSXDIR
 10
1.0
 20
0.0
 30
0.0
  9
$PUCSYDIR
 10
0.0
 20
1.0
 30
0.0
  9
$PUCSORTHOREF
  2

  9
$PUCSORTHOVIEW
 70
     0
  9
$PUCSORGTOP
 10
0.0
 20
0.0
 30
0.0
  9
$PUCSORGBOTTOM
 10
0.0
 20
0.0
 30
0.0
  9
$PUCSORGLEFT
 10
0.0
 20
0.0
 30
0.0
  9
$PUCSORGRIGHT
 10
0.0
 20
0.0
 30
0.0
  9
$PUCSORGFRONT
 10
0.0
 20
0.0
 30
0.0
  9
$PUCSORGBACK
 10
0.0
 20
0.0
 30
0.0
  9
$USERI1
 70
     0
  9
$USERI2
 70
     0
  9
$USERI3
 70
     0
  9
$USERI4
 70
     0
  9
$USERI5
 70
     0
  9
$USERR1
 40
0.0
  9
$USERR2
 40
0.0
  9
$USERR3
 40
0.0
  9
$USERR4
 40
0.0
  9
$USERR5
 40
0.0
  9
$WORLDVIEW
 70
     1
  9
$SHADEDGE
 70
     3
  9
$SHADEDIF
 70
    70
  9
$TILEMODE
 70
     1
  9
$MAXACTVP
 70
    64
  9
$PINSBASE
 10
0.0
 20
0.0
 30
0.0
  9
$PLIMCHECK
 70
     0
  9
$PEXTMIN
 10
1.000000000000000E+20
 20
1.000000000000000E+20
 30
1.000000000000000E+20
  9
$PEXTMAX
 10
-1.000000000000000E+20
 20
-1.000000000000000E+20
 30
-1.000000000000000E+20
  9
$PLIMMIN
 10
0.0
 20
0.0
  9
$PLIMMAX
 10
12.0
 20
9.0
  9
$UNITMODE
 70
     0
  9
$VISRETAIN
 70
     1
  9
$PLINEGEN
 70
     0
  9
$PSLTSCALE
 70
     1
  9
$TREEDEPTH
 70
  3020
  9
$CMLSTYLE
  2
Standard
  9
$CMLJUST
 70
     0
  9
$CMLSCALE
 40
1.0
  9
$PROXYGRAPHICS
 70
     1
  9
$MEASUREMENT
 70
     0
  9
$CELWEIGHT
370
    -1
  9
$ENDCAPS
280
     0
  9
$JOINSTYLE
280
     0
  9
$LWDISPLAY
290
     0
  9
$INSUNITS
 70
     4
  9
$HYPERLINKBASE
  1

  9
$STYLESHEET
  1

  9
$XEDIT
290
     1
  9
$CEPSNTYPE
380
     0
  9
$PSTYLEMODE
290
     1
  9
$FINGERPRINTGUID
  2
{AFA846A4-0A8C-4E40-B2E7-D3203CBFC8A4}
  9
$VERSIONGUID
  2
{FAEB1C32-E019-11D5-929B-00C0DF256EC4}
  9
$EXTNAMES
290
     1
  9
$PSVPSCALE
 40
0.0
  9
$OLESTARTUP
290
     0
  9
$SORTENTS
280
   127
  9
$INDEXCTL
280
     0
  9
$HIDETEXT
280
     1
  9
$XCLIPFRAME
290
     0
  9
$HALOGAP
280
     0
  9
$OBSCOLOR
 70
   257
  9
$OBSLTYPE
280
     0
  9
$INTERSECTIONDISPLAY
280
     0
  9
$INTERSECTIONCOLOR
 70
   257
  9
$DIMASSOC
280
     2
  9
$PROJECTNAME
  1

  9
$CAMERADISPLAY
290
     0
  9
$LENSLENGTH
 40
50.0
  9
$CAMERAHEIGHT
 40
0.0
  9
$STEPSPERSEC
 40
2.0
  9
$STEPSIZE
 40
6.0
  9
$3DDWFPREC
 40
2.0
  9
$PSOLWIDTH
 40
0.25
  9
$PSOLHEIGHT
 40
4.0
  9
$LOFTANG1
 40
1.570796326794897
  9
$LOFTANG2
 40
1.570796326794897
  9
$LOFTMAG1
 40
0.0
  9
$LOFTMAG2
 40
0.0
  9
$LOFTPARAM
 70
     7
  9
$LOFTNORMALS
280
     1
  9
$LATITUDE
 40
37.795
  9
$LONGITUDE
 40
-122.394
  9
$NORTHDIRECTION
 40
0.0
  9
$TIMEZONE
 70
 -8000
  9
$LIGHTGLYPHDISPLAY
280
     1
  9
$TILEMODELIGHTSYNCH
280
     1
  9
$SOLIDHIST
280
     1
  9
$SHOWHIST
280
     1
  9
$DWFFRAME
280
     2
  9
$DGNFRAME
280
     2
  9
$REALWORLDSCALE
290
     1
  9
$INTERFERECOLOR
 62
   256
  9
$CSHADOW
280
     0
  9
$SHADOWPLANELOCATION
 40
0.0
  0
ENDSEC
  0
SECTION
  2
CLASSES
  0
CLASS
  1
ACDBDICTIONARYWDFLT
  2
AcDbDictionaryWithDefault
  3
ObjectDBX Classes
 90
        0
 91
        4
280
     0
281
     0
  0
CLASS
  1
VISUALSTYLE
  2
AcDbVisualStyle
  3
ObjectDBX Classes
 90
     4095
 91
        4
280
     0
281
     0
  0
CLASS
  1
MATERIAL
  2
AcDbMaterial
  3
ObjectDBX Classes
 90
     1153
 91
        4
280
     0
281
     0
  0
ENDSEC
  0
SECTION
  2
TABLES
  0
TABLE
  2
VPORT
  5
8
330
0
100
AcDbSymbolTable
 70
     1
  0
VPORT
  5
29
330
8
100
AcDbSymbolTableRecord
100
AcDbViewportTableRecord
  2
*Active
 70
     0
 10
0.0
 20
0.0
 11
1.0
 21
1.0
 12
10.42990654205607
 22
4.5
 13
0.0
 23
0.0
 14
0.5
 24
0.5
 15
0.5
 25
0.5
 16
0.0
 26
0.0
 36
1.0
 17
0.0
 27
0.0
 37
0.0
 40
9.0
 41
1.972972972850329
 42
50.0
 43
0.0
 44
0.0
 50
0.0
 51
0.0
 71
     0
 72
   100
 73
     1
 74
     3
 75
     0
 76
     0
 77
     0
 78
     0
281
     0
 65
     1
110
0.0
120
0.0
130
0.0
111
1.0
121
0.0
131
0.0
112
0.0
122
1.0
132
0.0
 79
     0
146
0.0
 60
     3
 61
     5
292
     1
282
     1
141
0.0
142
0.0
 63
   250
  0
ENDTAB
  0
TABLE
  2
LTYPE
  5
5
330
0
100
AcDbSymbolTable
 70
     1
  0
LTYPE
  5
14
330
5
100
AcDbSymbolTableRecord
100
AcDbLinetypeTableRecord
  2
ByBlock
 70
     0
  3

 72
    65
 73
     0
 40
0.0
  0
LTYPE
  5
15
330
5
100
AcDbSymbolTableRecord
100
AcDbLinetypeTableRecord
  2
ByLayer
 70
     0
  3

 72
    65
 73
     0
 40
0.0
  0
LTYPE
  5
16
330
5
100
AcDbSymbolTableRecord
100
AcDbLinetypeTableRecord
  2
Continuous
 70
     0
  3
Solid line
 72
    65
 73
     0
 40
0.0
  0
ENDTAB
  0
TABLE
  2
LAYER
  5
2
330
0
100
AcDbSymbolTable
 70
     2
  0
LAYER
  5
10
330
2
100
AcDbSymbolTableRecord
100
AcDbLayerTableRecord
  2
0
 70
     0
 62
     7
  6
Continuous
370
    -3
390
F
347
3E
  0
LAYER
  5
40
330
2
100
AcDbSymbolTableRecord
100
AcDbLayerTableRecord
  2
layer 1
 70
     0
 62
     7
  6
Continuous
370
    -3
390
F
347
3E
  0
ENDTAB
  0
TABLE
  2
STYLE
  5
3
330
0
100
AcDbSymbolTable
 70
     1
  0
STYLE
  5
11
330
3
100
AcDbSymbolTableRecord
100
AcDbTextStyleTableRecord
  2
Standard
 70
     0
 40
0.0
 41
1.0
 50
0.0
 71
     0
 42
0.2
  3
txt
  4

  0
ENDTAB
  0
TABLE
  2
VIEW
  5
6
330
0
100
AcDbSymbolTable
 70
     0
  0
ENDTAB
  0
TABLE
  2
UCS
  5
7
330
0
100
AcDbSymbolTable
 70
     0
  0
ENDTAB
  0
TABLE
  2
APPID
  5
9
330
0
100
AcDbSymbolTable
 70
     2
  0
APPID
  5
12
330
9
100
AcDbSymbolTableRecord
100
AcDbRegAppTableRecord
  2
ACAD
 70
     0
  0
APPID
  5
3F
330
9
100
AcDbSymbolTableRecord
100
AcDbRegAppTableRecord
  2
ODA
 70
     0
  0
ENDTAB
  0
TABLE
  2
DIMSTYLE
  5
A
330
0
100
AcDbSymbolTable
 70
     1
100
AcDbDimStyleTable
  0
DIMSTYLE
105
27
330
A
100
AcDbSymbolTableRecord
100
AcDbDimStyleTableRecord
  2
Standard
 70
     0
178
     0
340
11
  0
ENDTAB
  0
TABLE
  2
BLOCK_RECORD
  5
1
330
0
100
AcDbSymbolTable
 70
     1
  0
BLOCK_RECORD
  5
1F
330
1
100
AcDbSymbolTableRecord
100
AcDbBlockTableRecord
  2
*Model_Space
340
22
 70
     0
280
     1
281
     0
  0
BLOCK_RECORD
  5
1B
330
1
100
AcDbSymbolTableRecord
100
AcDbBlockTableRecord
  2
*Paper_Space
340
1E
 70
     0
280
     1
281
     0
  0
BLOCK_RECORD
  5
23
330
1
100
AcDbSymbolTableRecord
100
AcDbBlockTableRecord
  2
*Paper_Space0
340
26
 70
     0
280
     1
281
     0
  0
ENDTAB
  0
ENDSEC
  0
SECTION
  2
BLOCKS
  0
BLOCK
  5
20
330
1F
100
AcDbEntity
  8
0
100
AcDbBlockBegin
  2
*Model_Space
 70
     0
 10
0.0
 20
0.0
 30
0.0
  3
*Model_Space
  1

  0
ENDBLK
  5
21
330
1F
100
AcDbEntity
  8
0
100
AcDbBlockEnd
  0
BLOCK
  5
1C
330
1B
100
AcDbEntity
 67
     1
  8
0
100
AcDbBlockBegin
  2
*Paper_Space
 70
     0
 10
0.0
 20
0.0
 30
0.0
  3
*Paper_Space
  1

  0
ENDBLK
  5
1D
330
1B
100
AcDbEntity
 67
     1
  8
0
100
AcDbBlockEnd
  0
BLOCK
  5
24
330
23
100
AcDbEntity
  8
0
100
AcDbBlockBegin
  2
*Paper_Space0
 70
     0
 10
0.0
 20
0.0
 30
0.0
  3
*Paper_Space0
  1

  0
ENDBLK
  5
25
330
23
100
AcDbEntity
  8
0
100
AcDbBlockEnd
  0
ENDSEC
  0
SECTION
  2
ENTITIES
  0
LWPOLYLINE
  5
41
330
1F
100
AcDbEntity
  8
layer 1
 62
   250
100
AcDbPolyline
 90
        5
 70
     1
 43
0.0
 10
8.0538
 20
-114.5792
 10
196.3424
 20
-114.5792
 10
196.3424
 20
131.8332
 10
8.0538
 20
131.8332
 10
8.0538
 20
-114.5792
  0
SPLINE
  5
42
330
1F
100
AcDbEntity
  8
layer 1
 62
     7
100
AcDbSpline
210
0.0
220
0.0
230
1.0
 70
    11
 71
     3
 72
    28
 73
    24
 74
     0
 42
0.0000000001
 43
0.0000000001
 12
1.0
 22
0.0
 32
0.0
 13
1.0
 23
0.0
 33
0.0
 40
0.0
 40
0.0
 40
0.0
 40
0.0
 40
0.1428571428571428
 40
0.1428571428571428
 40
0.1428571428571428
 40
0.1428571428571428
 40
0.2857142857142857
 40
0.2857142857142857
 40
0.2857142857142857
 40
0.2857142857142857
 40
0.4285714285714285
 40
0.4285714285714285
 40
0.4285714285714285
 40
0.4285714285714285
 40
0.5714285714285714
 40
0.5714285714285714
 40
0.5714285714285714
 40
0.5714285714285714
 40
0.7142857142857143
 40
0.7142857142857143
 40
0.7142857142857143
 40
0.7142857142857143
 40
1.0
 40
1.0
 40
1.0
 40
1.0
 10
24.7241
 20
66.6767
 30
0.0
 10
26.6511
 20
57.5191
 30
0.0
 10
32.6481
 20
53.0347
 30
0.0
 10
39.9329
 20
51.5006
 30
0.0
 10
39.9329
 20
51.5006
 30
0.0
 10
39.9329
 20
51.5006
 30
0.0
 10
39.9329
 20
41.0688
 30
0.0
 10
39.9329
 20
41.0688
 30
0.0
 10
39.9329
 20
41.0688
 30
0.0
 10
39.9329
 20
41.0688
 30
0.0
 10
29.5978
 20
41.1405
 30
0.0
 10
29.5978
 20
41.1405
 30
0.0
 10
29.5978
 20
41.1405
 30
0.0
 10
28.3844
 20
48.3122
 30
0.0
 10
23.5171
 20
54.5559
 30
0.0
 10
14.439
 20
56.3274
 30
0.0
 10
14.439
 20
56.3274
 30
0.0
 10
14.439
 20
56.3274
 30
0.0
 10
14.3342
 20
66.5773
 30
0.0
 10
14.3342
 20
66.5773
 30
0.0
 10
14.3342
 20
66.5773
 30
0.0
 10
14.3342
 20
66.5773
 30
0.0
 10
24.7241
 20
66.6767
 30
0.0
 10
24.7241
 20
66.6767
 30
0.0
  0
SPLINE
  5
43
330
1F
100
AcDbEntity
  8
layer 1
 62
     7
100
AcDbSpline
210
0.0
220
0.0
230
1.0
 70
    11
 71
     3
 72
    28
 73
    24
 74
     0
 42
0.0000000001
 43
0.0000000001
 12
1.0
 22
0.0
 32
0.0
 13
1.0
 23
0.0
 33
0.0
 40
0.0
 40
0.0
 40
0.0
 40
0.0
 40
0.1428571428571428
 40
0.1428571428571428
 40
0.1428571428571428
 40
0.1428571428571428
 40
0.2857142857142857
 40
0.2857142857142857
 40
0.2857142857142857
 40
0.2857142857142857
 40
0.4285714285714285
 40
0.4285714285714285
 40
0.4285714285714285
 40
0.4285714285714285
 40
0.5714285714285714
 40
0.5714285714285714
 40
0.5714285714285714
 40
0.5714285714285714
 40
0.7142857142857143
 40
0.7142857142857143
 40
0.7142857142857143
 40
0.7142857142857143
 40
1.0
 40
1.0
 40
1.0
 40
1.0
 10
59.7503
 20
66.6767
 30
0.0
 10
57.8234
 20
57.5191
 30
0.0
 10
51.8264
 20
53.0347
 30
0.0
 10
44.5415
 20
51.5006
 30
0.0
 10
44.5415
 20
51.5006
 30
0.0
 10
44.5415
 20
51.5006
 30
0.0
 10
44.5415
 20
41.0688
 30
0.0
 10
44.5415
 20
41.0688
 30
0.0
 10
44.5415
 20
41.0688
 30
0.0
 10
44.5415
 20
41.0688
 30
0.0
 10
54.8767
 20
41.1405
 30
0.0
 10
54.8767
 20
41.1405
 30
0.0
 10
54.8767
 20
41.1405
 30
0.0
 10
56.0901
 20
48.3122
 30
0.0
 10
60.9574
 20
54.5559
 30
0.0
 10
70.0355
 20
56.3274
 30
0.0
 10
70.0355
 20
56.3274
 30
0.0
 10
70.0355
 20
56.3274
 30
0.0
 10
70.1403
 20
66.5773
 30
0.0
 10
70.1403
 20
66.5773
 30
0.0
 10
70.1403
 20
66.5773
 30
0.0
 10
70.1403
 20
66.5773
 30
0.0
 10
59.7503
 20
66.6767
 30
0.0
 10
59.7503
 20
66.6767
 30
0.0
  0
SPLINE
  5
44
330
1F
100
AcDbEntity
  8
layer 1
 62
     7
100
AcDbSpline
210
0.0
220
0.0
230
1.0
 70
    11
 71
     3
 72
    28
 73
    24
 74
     0
 42
0.0000000001
 43
0.0000000001
 12
1.0
 22
0.0
 32
0.0
 13
1.0
 23
0.0
 33
0.0
 40
0.0
 40
0.0
 40
0.0
 40
0.0
 40
0.1428571428571428
 40
0.1428571428571428
 40
0.1428571428571428
 40
0.1428571428571428
 40
0.2857142857142857
 40
0.2857142857142857
 40
0.2857142857142857
 40
0.2857142857142857
 40
0.4285714285714285
 40
0.4285714285714285
 40
0.4285714285714285
 40
0.4285714285714285
 40
0.5714285714285714
 40
0.5714285714285714
 40
0.5714285714285714
 40
0.5714285714285714
 40
0.7142857142857143
 40
0.7142857142857143
 40
0.7142857142857143
 40
0.7142857142857143
 40
1.0
 40
1.0
 40
1.0
 40
1.0
 10
84.8795
 20
66.6767
 30
0.0
 10
86.8064
 20
57.5191
 30
0.0
 10
92.8034
 20
53.0347
 30
0.0
 10
100.0883
 20
51.5006
 30
0.0
 10
100.0883
 20
51.5006
 30
0.0
 10
100.0883
 20
51.5006
 30
0.0
 10
100.0883
 20
41.0688
 30
0.0
 10
100.0883
 20
41.0688
 30
0.0
 10
100.0883
 20
41.0688
 30
0.0
 10
100.0883
 20
41.0688
 30
0.0
 10
89.7532
 20
41.1405
 30
0.0
 10
89.7532
 20
41.1405
 30
0.0
 10
89.7532
 20
41.1405
 30
0.0
 10
88.5397
 20
48.3122
 30
0.0
 10
83.6724
 20
54.5559
 30
0.0
 10
74.5943
 20
56.3274
 30
0.0
 10
74.5943
 20
56.3274
 30
0.0
 10
74.5943
 20
56.3274
 30
0.0
 10
74.4895
 20
66.5773
 30
0.0
 10
74.4895
 20
66.5773
 30
0.0
 10
74.4895
 20
66.5773
 30
0.0
 10
74.4895
 20
66.5773
 30
0.0
 10
84.8795
 20
66.6767
 30
0.0
 10
84.8795
 20
66.6767
 30
0.0
  0
SPLINE
  5
45
330
1F
100
AcDbEntity
  8
layer 1
 62
     7
100
AcDbSpline
210
0.0
220
0.0
230
1.0
 70
    11
 71
     3
 72
    28
 73
    24
 74
     0
 42
0.0000000001
 43
0.0000000001
 12
1.0
 22
0.0
 32
0.0
 13
1.0
 23
0.0
 33
0.0
 40
0.0
 40
0.0
 40
0.0
 40
0.0
 40
0.1428571428571428
 40
0.1428571428571428
 40
0.1428571428571428
 40
0.1428571428571428
 40
0.2857142857142857
 40
0.2857142857142857
 40
0.2857142857142857
 40
0.2857142857142857
 40
0.4285714285714285
 40
0.4285714285714285
 40
0.4285714285714285
 40
0.4285714285714285
 40
0.5714285714285714
 40
0.5714285714285714
 40
0.5714285714285714
 40
0.5714285714285714
 40
0.7142857142857143
 40
0.7142857142857143
 40
0.7142857142857143
 40
0.7142857142857143
 40
1.0
 40
1.0
 40
1.0
 40
1.0
 10
24.7241
 20
11.1243
 30
0.0
 10
26.6511
 20
20.2819
 30
0.0
 10
32.6481
 20
24.7663
 30
0.0
 10
39.9329
 20
26.3004
 30
0.0
 10
39.9329
 20
26.3004
 30
0.0
 10
39.9329
 20
26.3004
 30
0.0
 10
39.9329
 20
36.7322
 30
0.0
 10
39.9329
 20
36.7322
 30
0.0
 10
39.9329
 20
36.7322
 30
0.0
 10
39.9329
 20
36.7322
 30
0.0
 10
29.5978
 20
36.6605
 30
0.0
 10
29.5978
 20
36.6605
 30
0.0
 10
29.5978
 20
36.6605
 30
0.0
 10
28.3844
 20
29.4888
 30
0.0
 10
23.5171
 20
23.2451
 30
0.0
 10
14.439
 20
21.4735
 30
0.0
 10
14.439
 20
21.4735
 30
0.0
 10
14.439
 20
21.4735
 30
0.0
 10
14.3342
 20
11.2237
 30
0.0
 10
14.3342
 20
11.2237
 30
0.0
 10
14.3342
 20
11.2237
 30
0.0
 10
14.3342
 20
11.2237
 30
0.0
 10
24.7241
 20
11.1243
 30
0.0
 10
24.7241
 20
11.1243
 30
0.0
  0
SPLINE
  5
46
330
1F
100
AcDbEntity
  8
layer 1
 62
     7
100
AcDbSpline
210
0.0
220
0.0
230
1.0
 70
    11
 71
     3
 72
    28
 73
    24
 74
     0
 42
0.0000000001
 43
0.0000000001
 12
1.0
 22
0.0
 32
0.0
 13
1.0
 23
0.0
 33
0.0
 40
0.0
 40
0.0
 40
0.0
 40
0.0
 40
0.1428571428571428
 40
0.1428571428571428
 40
0.1428571428571428
 40
0.1428571428571428
 40
0.2857142857142857
 40
0.2857142857142857
 40
0.2857142857142857
 40
0.2857142857142857
 40
0.4285714285714285
 40
0.4285714285714285
 40
0.4285714285714285
 40
0.4285714285714285
 40
0.5714285714285714
 40
0.5714285714285714
 40
0.5714285714285714
 40
0.5714285714285714
 40
0.7142857142857143
 40
0.7142857142857143
 40
0.7142857142857143
 40
0.7142857142857143
 40
1.0
 40
1.0
 40
1.0
 40
1.0
 10
59.7503
 20
11.1243
 30
0.0
 10
57.8234
 20
20.2819
 30
0.0
 10
51.8264
 20
24.7663
 30
0.0
 10
44.5415
 20
26.3004
 30
0.0
 10
44.5415
 20
26.3004
 30
0.0
 10
44.5415
 20
26.3004
 30
0.0
 10
44.5415
 20
36.7322
 30
0.0
 10
44.5415
 20
36.7322
 30
0.0
 10
44.5415
 20
36.7322
 30
0.0
 10
44.5415
 20
36.7322
 30
0.0
 10
54.8767
 20
36.6605
 30
0.0
 10
54.8767
 20
36.6605
 30
0.0
 10
54.8767
 20
36.6605
 30
0.0
 10
56.0901
 20
29.4888
 30
0.0
 10
60.9574
 20
23.2451
 30
0.0
 10
70.0355
 20
21.4735
 30
0.0
 10
70.0355
 20
21.4735
 30
0.0
 10
70.0355
 20
21.4735
 30
0.0
 10
70.1403
 20
11.2237
 30
0.0
 10
70.1403
 20
11.2237
 30
0.0
 10
70.1403
 20
11.2237
 30
0.0
 10
70.1403
 20
11.2237
 30
0.0
 10
59.7503
 20
11.1243
 30
0.0
 10
59.7503
 20
11.1243
 30
0.0
  0
SPLINE
  5
47
330
1F
100
AcDbEntity
  8
layer 1
 62
     7
100
AcDbSpline
210
0.0
220
0.0
230
1.0
 70
    11
 71
     3
 72
    28
 73
    24
 74
     0
 42
0.0000000001
 43
0.0000000001
 12
1.0
 22
0.0
 32
0.0
 13
1.0
 23
0.0
 33
0.0
 40
0.0
 40
0.0
 40
0.0
 40
0.0
 40
0.1428571428571428
 40
0.1428571428571428
 40
0.1428571428571428
 40
0.1428571428571428
 40
0.2857142857142857
 40
0.2857142857142857
 40
0.2857142857142857
 40
0.2857142857142857
 40
0.4285714285714285
 40
0.4285714285714285
 40
0.4285714285714285
 40
0.4285714285714285
 40
0.5714285714285714
 40
0.5714285714285714
 40
0.5714285714285714
 40
0.5714285714285714
 40
0.7142857142857143
 40
0.7142857142857143
 40
0.7142857142857143
 40
0.7142857142857143
 40
1.0
 40
1.0
 40
1.0
 40
1.0
 10
84.8795
 20
11.1243
 30
0.0
 10
86.8064
 20
20.2819
 30
0.0
 10
92.8034
 20
24.7663
 30
0.0
 10
100.0883
 20
26.3004
 30
0.0
 10
100.0883
 20
26.3004
 30
0.0
 10
100.0883
 20
26.3004
 30
0.0
 10
100.0883
 20
36.7322
 30
0.0
 10
100.0883
 20
36.7322
 30
0.0
 10
100.0883
 20
36.7322
 30
0.0
 10
100.0883
 20
36.7322
 30
0.0
 10
89.7532
 20
36.6605
 30
0.0
 10
89.7532
 20
36.6605
 30
0.0
 10
89.7532
 20
36.6605
 30
0.0
 10
88.5397
 20
29.4888
 30
0.0
 10
83.6724
 20
23.2451
 30
0.0
 10
74.5943
 20
21.4735
 30
0.0
 10
74.5943
 20
21.4735
 30
0.0
 10
74.5943
 20
21.4735
 30
0.0
 10
74.4895
 20
11.2237
 30
0.0
 10
74.4895
 20
11.2237
 30
0.0
 10
74.4895
 20
11.2237
 30
0.0
 10
74.4895
 20
11.2237
 30
0.0
 10
84.8795
 20
11.1243
 30
0.0
 10
84.8795
 20
11.1243
 30
0.0
  0
SPLINE
  5
48
330
1F
100
AcDbEntity
  8
layer 1
 62
     7
100
AcDbSpline
210
0.0
220
0.0
230
1.0
 70
    11
 71
     3
 72
    28
 73
    24
 74
     0
 42
0.0000000001
 43
0.0000000001
 12
1.0
 22
0.0
 32
0.0
 13
1.0
 23
0.0
 33
0.0
 40
0.0
 40
0.0
 40
0.0
 40
0.0
 40
0.1428571428571428
 40
0.1428571428571428
 40
0.1428571428571428
 40
0.1428571428571428
 40
0.2857142857142857
 40
0.2857142857142857
 40
0.2857142857142857
 40
0.2857142857142857
 40
0.4285714285714285
 40
0.4285714285714285
 40
0.4285714285714285
 40
0.4285714285714285
 40
0.5714285714285714
 40
0.5714285714285714
 40
0.5714285714285714
 40
0.5714285714285714
 40
0.7142857142857143
 40
0.7142857142857143
 40
0.7142857142857143
 40
0.7142857142857143
 40
1.0
 40
1.0
 40
1.0
 40
1.0
 10
24.7241
 20
6.5214
 30
0.0
 10
26.6511
 20
-2.6362
 30
0.0
 10
32.6481
 20
-7.1207
 30
0.0
 10
39.9329
 20
-8.6548
 30
0.0
 10
39.9329
 20
-8.6548
 30
0.0
 10
39.9329
 20
-8.6548
 30
0.0
 10
39.9329
 20
-19.0866
 30
0.0
 10
39.9329
 20
-19.0866
 30
0.0
 10
39.9329
 20
-19.0866
 30
0.0
 10
39.9329
 20
-19.0866
 30
0.0
 10
29.5978
 20
-19.0149
 30
0.0
 10
29.5978
 20
-19.0149
 30
0.0
 10
29.5978
 20
-19.0149
 30
0.0
 10
28.3844
 20
-11.8432
 30
0.0
 10
23.5171
 20
-5.5994
 30
0.0
 10
14.439
 20
-3.8279
 30
0.0
 10
14.439
 20
-3.8279
 30
0.0
 10
14.439
 20
-3.8279
 30
0.0
 10
14.3342
 20
6.422
 30
0.0
 10
14.3342
 20
6.422
 30
0.0
 10
14.3342
 20
6.422
 30
0.0
 10
14.3342
 20
6.422
 30
0.0
 10
24.7241
 20
6.5214
 30
0.0
 10
24.7241
 20
6.5214
 30
0.0
  0
SPLINE
  5
49
330
1F
100
AcDbEntity
  8
layer 1
 62
     7
100
AcDbSpline
210
0.0
220
0.0
230
1.0
 70
    11
 71
     3
 72
    28
 73
    24
 74
     0
 42
0.0000000001
 43
0.0000000001
 12
1.0
 22
0.0
 32
0.0
 13
1.0
 23
0.0
 33
0.0
 40
0.0
 40
0.0
 40
0.0
 40
0.0
 40
0.1428571428571428
 40
0.1428571428571428
 40
0.1428571428571428
 40
0.1428571428571428
 40
0.2857142857142857
 40
0.2857142857142857
 40
0.2857142857142857
 40
0.2857142857142857
 40
0.4285714285714285
 40
0.4285714285714285
 40
0.4285714285714285
 40
0.4285714285714285
 40
0.5714285714285714
 40
0.5714285714285714
 40
0.5714285714285714
 40
0.5714285714285714
 40
0.7142857142857143
 40
0.7142857142857143
 40
0.7142857142857143
 40
0.7142857142857143
 40
1.0
 40
1.0
 40
1.0
 40
1.0
 10
59.7503
 20
6.5214
 30
0.0
 10
57.8234
 20
-2.6362
 30
0.0
 10
51.8264
 20
-7.1207
 30
0.0
 10
44.5415
 20
-8.6548
 30
0.0
 10
44.5415
 20
-8.6548
 30
0.0
 10
44.5415
 20
-8.6548
 30
0.0
 10
44.5415
 20
-19.0866
 30
0.0
 10
44.5415
 20
-19.0866
 30
0.0
 10
44.5415
 20
-19.0866
 30
0.0
 10
44.5415
 20
-19.0866
 30
0.0
 10
54.8767
 20
-19.0149
 30
0.0
 10
54.8767
 20
-19.0149
 30
0.0
 10
54.8767
 20
-19.0149
 30
0.0
 10
56.0901
 20
-11.8432
 30
0.0
 10
60.9574
 20
-5.5994
 30
0.0
 10
70.0355
 20
-3.8279
 30
0.0
 10
70.0355
 20
-3.8279
 30
0.0
 10
70.0355
 20
-3.8279
 30
0.0
 10
70.1403
 20
6.422
 30
0.0
 10
70.1403
 20
6.422
 30
0.0
 10
70.1403
 20
6.422
 30
0.0
 10
70.1403
 20
6.422
 30
0.0
 10
59.7503
 20
6.5214
 30
0.0
 10
59.7503
 20
6.5214
 30
0.0
  0
SPLINE
  5
4A
330
1F
100
AcDbEntity
  8
layer 1
 62
     7
100
AcDbSpline
210
0.0
220
0.0
230
1.0
 70
    11
 71
     3
 72
    28
 73
    24
 74
     0
 42
0.0000000001
 43
0.0000000001
 12
1.0
 22
0.0
 32
0.0
 13
1.0
 23
0.0
 33
0.0
 40
0.0
 40
0.0
 40
0.0
 40
0.0
 40
0.1428571428571428
 40
0.1428571428571428
 40
0.1428571428571428
 40
0.1428571428571428
 40
0.2857142857142857
 40
0.2857142857142857
 40
0.2857142857142857
 40
0.2857142857142857
 40
0.4285714285714285
 40
0.4285714285714285
 40
0.4285714285714285
 40
0.4285714285714285
 40
0.5714285714285714
 40
0.5714285714285714
 40
0.5714285714285714
 40
0.5714285714285714
 40
0.7142857142857143
 40
0.7142857142857143
 40
0.7142857142857143
 40
0.7142857142857143
 40
1.0
 40
1.0
 40
1.0
 40
1.0
 10
84.8795
 20
6.5214
 30
0.0
 10
86.8064
 20
-2.6362
 30
0.0
 10
92.8034
 20
-7.1207
 30
0.0
 10
100.0883
 20
-8.6548
 30
0.0
 10
100.0883
 20
-8.6548
 30
0.0
 10
100.0883
 20
-8.6548
 30
0.0
 10
100.0883
 20
-19.0866
 30
0.0
 10
100.0883
 20
-19.0866
 30
0.0
 10
100.0883
 20
-19.0866
 30
0.0
 10
100.0883
 20
-19.0866
 30
0.0
 10
89.7532
 20
-19.0149
 30
0.0
 10
89.7532
 20
-19.0149
 30
0.0
 10
89.7532
 20
-19.0149
 30
0.0
 10
88.5397
 20
-11.8432
 30
0.0
 10
83.6724
 20
-5.5994
 30
0.0
 10
74.5943
 20
-3.8279
 30
0.0
 10
74.5943
 20
-3.8279
 30
0.0
 10
74.5943
 20
-3.8279
 30
0.0
 10
74.4895
 20
6.422
 30
0.0
 10
74.4895
 20
6.422
 30
0.0
 10
74.4895
 20
6.422
 30
0.0
 10
74.4895
 20
6.422
 30
0.0
 10
84.8795
 20
6.5214
 30
0.0
 10
84.8795
 20
6.5214
 30
0.0
  0
SPLINE
  5
4B
330
1F
100
AcDbEntity
  8
layer 1
 62
     7
100
AcDbSpline
210
0.0
220
0.0
230
1.0
 70
    11
 71
     3
 72
    28
 73
    24
 74
     0
 42
0.0000000001
 43
0.0000000001
 12
1.0
 22
0.0
 32
0.0
 13
1.0
 23
0.0
 33
0.0
 40
0.0
 40
0.0
 40
0.0
 40
0.0
 40
0.1428571428571428
 40
0.1428571428571428
 40
0.1428571428571428
 40
0.1428571428571428
 40
0.2857142857142857
 40
0.2857142857142857
 40
0.2857142857142857
 40
0.2857142857142857
 40
0.4285714285714285
 40
0.4285714285714285
 40
0.4285714285714285
 40
0.4285714285714285
 40
0.5714285714285714
 40
0.5714285714285714
 40
0.5714285714285714
 40
0.5714285714285714
 40
0.7142857142857143
 40
0.7142857142857143
 40
0.7142857142857143
 40
0.7142857142857143
 40
1.0
 40
1.0
 40
1.0
 40
1.0
 10
179.6721
 20
65.8989
 30
0.0
 10
177.7451
 20
56.7412
 30
0.0
 10
171.7481
 20
52.2568
 30
0.0
 10
164.4633
 20
50.7227
 30
0.0
 10
164.4633
 20
50.7227
 30
0.0
 10
164.4633
 20
50.7227
 30
0.0
 10
164.4633
 20
40.2909
 30
0.0
 10
164.4633
 20
40.2909
 30
0.0
 10
164.4633
 20
40.2909
 30
0.0
 10
164.4633
 20
40.2909
 30
0.0
 10
174.7984
 20
40.3626
 30
0.0
 10
174.7984
 20
40.3626
 30
0.0
 10
174.7984
 20
40.3626
 30
0.0
 10
176.0118
 20
47.5343
 30
0.0
 10
180.8791
 20
53.778
 30
0.0
 10
189.9572
 20
55.5496
 30
0.0
 10
189.9572
 20
55.5496
 30
0.0
 10
189.9572
 20
55.5496
 30
0.0
 10
190.062
 20
65.7994
 30
0.0
 10
190.062
 20
65.7994
 30
0.0
 10
190.062
 20
65.7994
 30
0.0
 10
190.062
 20
65.7994
 30
0.0
 10
179.6721
 20
65.8989
 30
0.0
 10
179.6721
 20
65.8989
 30
0.0
  0
SPLINE
  5
4C
330
1F
100
AcDbEntity
  8
layer 1
 62
     7
100
AcDbSpline
210
0.0
220
0.0
230
1.0
 70
    11
 71
     3
 72
    28
 73
    24
 74
     0
 42
0.0000000001
 43
0.0000000001
 12
1.0
 22
0.0
 32
0.0
 13
1.0
 23
0.0
 33
0.0
 40
0.0
 40
0.0
 40
0.0
 40
0.0
 40
0.1428571428571428
 40
0.1428571428571428
 40
0.1428571428571428
 40
0.1428571428571428
 40
0.2857142857142857
 40
0.2857142857142857
 40
0.2857142857142857
 40
0.2857142857142857
 40
0.4285714285714285
 40
0.4285714285714285
 40
0.4285714285714285
 40
0.4285714285714285
 40
0.5714285714285714
 40
0.5714285714285714
 40
0.5714285714285714
 40
0.5714285714285714
 40
0.7142857142857143
 40
0.7142857142857143
 40
0.7142857142857143
 40
0.7142857142857143
 40
1.0
 40
1.0
 40
1.0
 40
1.0
 10
144.6459
 20
65.8989
 30
0.0
 10
146.5728
 20
56.7412
 30
0.0
 10
152.5698
 20
52.2568
 30
0.0
 10
159.8547
 20
50.7227
 30
0.0
 10
159.8547
 20
50.7227
 30
0.0
 10
159.8547
 20
50.7227
 30
0.0
 10
159.8547
 20
40.2909
 30
0.0
 10
159.8547
 20
40.2909
 30
0.0
 10
159.8547
 20
40.2909
 30
0.0
 10
159.8547
 20
40.2909
 30
0.0
 10
149.5195
 20
40.3626
 30
0.0
 10
149.5195
 20
40.3626
 30
0.0
 10
149.5195
 20
40.3626
 30
0.0
 10
148.3061
 20
47.5343
 30
0.0
 10
143.4388
 20
53.778
 30
0.0
 10
134.3607
 20
55.5496
 30
0.0
 10
134.3607
 20
55.5496
 30
0.0
 10
134.3607
 20
55.5496
 30
0.0
 10
134.2559
 20
65.7994
 30
0.0
 10
134.2559
 20
65.7994
 30
0.0
 10
134.2559
 20
65.7994
 30
0.0
 10
134.2559
 20
65.7994
 30
0.0
 10
144.6459
 20
65.8989
 30
0.0
 10
144.6459
 20
65.8989
 30
0.0
  0
SPLINE
  5
4D
330
1F
100
AcDbEntity
  8
layer 1
 62
     7
100
AcDbSpline
210
0.0
220
0.0
230
1.0
 70
    11
 71
     3
 72
    28
 73
    24
 74
     0
 42
0.0000000001
 43
0.0000000001
 12
1.0
 22
0.0
 32
0.0
 13
1.0
 23
0.0
 33
0.0
 40
0.0
 40
0.0
 40
0.0
 40
0.0
 40
0.1428571428571428
 40
0.1428571428571428
 40
0.1428571428571428
 40
0.1428571428571428
 40
0.2857142857142857
 40
0.2857142857142857
 40
0.2857142857142857
 40
0.2857142857142857
 40
0.4285714285714285
 40
0.4285714285714285
 40
0.4285714285714285
 40
0.4285714285714285
 40
0.5714285714285714
 40
0.5714285714285714
 40
0.5714285714285714
 40
0.5714285714285714
 40
0.7142857142857143
 40
0.7142857142857143
 40
0.7142857142857143
 40
0.7142857142857143
 40
1.0
 40
1.0
 40
1.0
 40
1.0
 10
119.5167
 20
65.8989
 30
0.0
 10
117.5898
 20
56.7412
 30
0.0
 10
111.5928
 20
52.2568
 30
0.0
 10
104.3079
 20
50.7227
 30
0.0
 10
104.3079
 20
50.7227
 30
0.0
 10
104.3079
 20
50.7227
 30
0.0
 10
104.3079
 20
40.2909
 30
0.0
 10
104.3079
 20
40.2909
 30
0.0
 10
104.3079
 20
40.2909
 30
0.0
 10
104.3079
 20
40.2909
 30
0.0
 10
114.643
 20
40.3626
 30
0.0
 10
114.643
 20
40.3626
 30
0.0
 10
114.643
 20
40.3626
 30
0.0
 10
115.8565
 20
47.5343
 30
0.0
 10
120.7238
 20
53.778
 30
0.0
 10
129.8019
 20
55.5496
 30
0.0
 10
129.8019
 20
55.5496
 30
0.0
 10
129.8019
 20
55.5496
 30
0.0
 10
129.9067
 20
65.7994
 30
0.0
 10
129.9067
 20
65.7994
 30
0.0
 10
129.9067
 20
65.7994
 30
0.0
 10
129.9067
 20
65.7994
 30
0.0
 10
119.5167
 20
65.8989
 30
0.0
 10
119.5167
 20
65.8989
 30
0.0
  0
SPLINE
  5
4E
330
1F
100
AcDbEntity
  8
layer 1
 62
     7
100
AcDbSpline
210
0.0
220
0.0
230
1.0
 70
    11
 71
     3
 72
    28
 73
    24
 74
     0
 42
0.0000000001
 43
0.0000000001
 12
1.0
 22
0.0
 32
0.0
 13
1.0
 23
0.0
 33
0.0
 40
0.0
 40
0.0
 40
0.0
 40
0.0
 40
0.1428571428571428
 40
0.1428571428571428
 40
0.1428571428571428
 40
0.1428571428571428
 40
0.2857142857142857
 40
0.2857142857142857
 40
0.2857142857142857
 40
0.2857142857142857
 40
0.4285714285714285
 40
0.4285714285714285
 40
0.4285714285714285
 40
0.4285714285714285
 40
0.5714285714285714
 40
0.5714285714285714
 40
0.5714285714285714
 40
0.5714285714285714
 40
0.7142857142857143
 40
0.7142857142857143
 40
0.7142857142857143
 40
0.7142857142857143
 40
1.0
 40
1.0
 40
1.0
 40
1.0
 10
179.6721
 20
10.3464
 30
0.0
 10
177.7451
 20
19.504
 30
0.0
 10
171.7481
 20
23.9884
 30
0.0
 10
164.4633
 20
25.5225
 30
0.0
 10
164.4633
 20
25.5225
 30
0.0
 10
164.4633
 20
25.5225
 30
0.0
 10
164.4633
 20
35.9543
 30
0.0
 10
164.4633
 20
35.9543
 30
0.0
 10
164.4633
 20
35.9543
 30
0.0
 10
164.4633
 20
35.9543
 30
0.0
 10
174.7984
 20
35.8826
 30
0.0
 10
174.7984
 20
35.8826
 30
0.0
 10
174.7984
 20
35.8826
 30
0.0
 10
176.0118
 20
28.7109
 30
0.0
 10
180.8791
 20
22.4672
 30
0.0
 10
189.9572
 20
20.6957
 30
0.0
 10
189.9572
 20
20.6957
 30
0.0
 10
189.9572
 20
20.6957
 30
0.0
 10
190.062
 20
10.4458
 30
0.0
 10
190.062
 20
10.4458
 30
0.0
 10
190.062
 20
10.4458
 30
0.0
 10
190.062
 20
10.4458
 30
0.0
 10
179.6721
 20
10.3464
 30
0.0
 10
179.6721
 20
10.3464
 30
0.0
  0
SPLINE
  5
4F
330
1F
100
AcDbEntity
  8
layer 1
 62
     7
100
AcDbSpline
210
0.0
220
0.0
230
1.0
 70
    11
 71
     3
 72
    28
 73
    24
 74
     0
 42
0.0000000001
 43
0.0000000001
 12
1.0
 22
0.0
 32
0.0
 13
1.0
 23
0.0
 33
0.0
 40
0.0
 40
0.0
 40
0.0
 40
0.0
 40
0.1428571428571428
 40
0.1428571428571428
 40
0.1428571428571428
 40
0.1428571428571428
 40
0.2857142857142857
 40
0.2857142857142857
 40
0.2857142857142857
 40
0.2857142857142857
 40
0.4285714285714285
 40
0.4285714285714285
 40
0.4285714285714285
 40
0.4285714285714285
 40
0.5714285714285714
 40
0.5714285714285714
 40
0.5714285714285714
 40
0.5714285714285714
 40
0.7142857142857143
 40
0.7142857142857143
 40
0.7142857142857143
 40
0.7142857142857143
 40
1.0
 40
1.0
 40
1.0
 40
1.0
 10
144.6459
 20
10.3464
 30
0.0
 10
146.5728
 20
19.504
 30
0.0
 10
152.5698
 20
23.9884
 30
0.0
 10
159.8547
 20
25.5225
 30
0.0
 10
159.8547
 20
25.5225
 30
0.0
 10
159.8547
 20
25.5225
 30
0.0
 10
159.8547
 20
35.9543
 30
0.0
 10
159.8547
 20
35.9543
 30
0.0
 10
159.8547
 20
35.9543
 30
0.0
 10
159.8547
 20
35.9543
 30
0.0
 10
149.5195
 20
35.8826
 30
0.0
 10
149.5195
 20
35.8826
 30
0.0
 10
149.5195
 20
35.8826
 30
0.0
 10
148.3061
 20
28.7109
 30
0.0
 10
143.4388
 20
22.4672
 30
0.0
 10
134.3607
 20
20.6957
 30
0.0
 10
134.3607
 20
20.6957
 30
0.0
 10
134.3607
 20
20.6957
 30
0.0
 10
134.2559
 20
10.4458
 30
0.0
 10
134.2559
 20
10.4458
 30
0.0
 10
134.2559
 20
10.4458
 30
0.0
 10
134.2559
 20
10.4458
 30
0.0
 10
144.6459
 20
10.3464
 30
0.0
 10
144.6459
 20
10.3464
 30
0.0
  0
SPLINE
  5
50
330
1F
100
AcDbEntity
  8
layer 1
 62
     7
100
AcDbSpline
210
0.0
220
0.0
230
1.0
 70
    11
 71
     3
 72
    28
 73
    24
 74
     0
 42
0.0000000001
 43
0.0000000001
 12
1.0
 22
0.0
 32
0.0
 13
1.0
 23
0.0
 33
0.0
 40
0.0
 40
0.0
 40
0.0
 40
0.0
 40
0.1428571428571428
 40
0.1428571428571428
 40
0.1428571428571428
 40
0.1428571428571428
 40
0.2857142857142857
 40
0.2857142857142857
 40
0.2857142857142857
 40
0.2857142857142857
 40
0.4285714285714285
 40
0.4285714285714285
 40
0.4285714285714285
 40
0.4285714285714285
 40
0.5714285714285714
 40
0.5714285714285714
 40
0.5714285714285714
 40
0.5714285714285714
 40
0.7142857142857143
 40
0.7142857142857143
 40
0.7142857142857143
 40
0.7142857142857143
 40
1.0
 40
1.0
 40
1.0
 40
1.0
 10
119.5167
 20
10.3464
 30
0.0
 10
117.5898
 20
19.504
 30
0.0
 10
111.5928
 20
23.9884
 30
0.0
 10
104.3079
 20
25.5225
 30
0.0
 10
104.3079
 20
25.5225
 30
0.0
 10
104.3079
 20
25.5225
 30
0.0
 10
104.3079
 20
35.9543
 30
0.0
 10
104.3079
 20
35.9543
 30
0.0
 10
104.3079
 20
35.9543
 30
0.0
 10
104.3079
 20
35.9543
 30
0.0
 10
114.643
 20
35.8826
 30
0.0
 10
114.643
 20
35.8826
 30
0.0
 10
114.643
 20
35.8826
 30
0.0
 10
115.8565
 20
28.7109
 30
0.0
 10
120.7238
 20
22.4672
 30
0.0
 10
129.8019
 20
20.6957
 30
0.0
 10
129.8019
 20
20.6957
 30
0.0
 10
129.8019
 20
20.6957
 30
0.0
 10
129.9067
 20
10.4458
 30
0.0
 10
129.9067
 20
10.4458
 30
0.0
 10
129.9067
 20
10.4458
 30
0.0
 10
129.9067
 20
10.4458
 30
0.0
 10
119.5167
 20
10.3464
 30
0.0
 10
119.5167
 20
10.3464
 30
0.0
  0
SPLINE
  5
51
330
1F
100
AcDbEntity
  8
layer 1
 62
     7
100
AcDbSpline
210
0.0
220
0.0
230
1.0
 70
    11
 71
     3
 72
    28
 73
    24
 74
     0
 42
0.0000000001
 43
0.0000000001
 12
1.0
 22
0.0
 32
0.0
 13
1.0
 23
0.0
 33
0.0
 40
0.0
 40
0.0
 40
0.0
 40
0.0
 40
0.1428571428571428
 40
0.1428571428571428
 40
0.1428571428571428
 40
0.1428571428571428
 40
0.2857142857142857
 40
0.2857142857142857
 40
0.2857142857142857
 40
0.2857142857142857
 40
0.4285714285714285
 40
0.4285714285714285
 40
0.4285714285714285
 40
0.4285714285714285
 40
0.5714285714285714
 40
0.5714285714285714
 40
0.5714285714285714
 40
0.5714285714285714
 40
0.7142857142857143
 40
0.7142857142857143
 40
0.7142857142857143
 40
0.7142857142857143
 40
1.0
 40
1.0
 40
1.0
 40
1.0
 10
179.6721
 20
5.7435
 30
0.0
 10
177.7451
 20
-3.4141
 30
0.0
 10
171.7481
 20
-7.8986
 30
0.0
 10
164.4633
 20
-9.4326
 30
0.0
 10
164.4633
 20
-9.4326
 30
0.0
 10
164.4633
 20
-9.4326
 30
0.0
 10
164.4633
 20
-19.8645
 30
0.0
 10
164.4633
 20
-19.8645
 30
0.0
 10
164.4633
 20
-19.8645
 30
0.0
 10
164.4633
 20
-19.8645
 30
0.0
 10
174.7984
 20
-19.7927
 30
0.0
 10
174.7984
 20
-19.7927
 30
0.0
 10
174.7984
 20
-19.7927
 30
0.0
 10
176.0118
 20
-12.621
 30
0.0
 10
180.8791
 20
-6.3773
 30
0.0
 10
189.9572
 20
-4.6058
 30
0.0
 10
189.9572
 20
-4.6058
 30
0.0
 10
189.9572
 20
-4.6058
 30
0.0
 10
190.062
 20
5.6441
 30
0.0
 10
190.062
 20
5.6441
 30
0.0
 10
190.062
 20
5.6441
 30
0.0
 10
190.062
 20
5.6441
 30
0.0
 10
179.6721
 20
5.7435
 30
0.0
 10
179.6721
 20
5.7435
 30
0.0
  0
SPLINE
  5
52
330
1F
100
AcDbEntity
  8
layer 1
 62
     7
100
AcDbSpline
210
0.0
220
0.0
230
1.0
 70
    11
 71
     3
 72
    28
 73
    24
 74
     0
 42
0.0000000001
 43
0.0000000001
 12
1.0
 22
0.0
 32
0.0
 13
1.0
 23
0.0
 33
0.0
 40
0.0
 40
0.0
 40
0.0
 40
0.0
 40
0.1428571428571428
 40
0.1428571428571428
 40
0.1428571428571428
 40
0.1428571428571428
 40
0.2857142857142857
 40
0.2857142857142857
 40
0.2857142857142857
 40
0.2857142857142857
 40
0.4285714285714285
 40
0.4285714285714285
 40
0.4285714285714285
 40
0.4285714285714285
 40
0.5714285714285714
 40
0.5714285714285714
 40
0.5714285714285714
 40
0.5714285714285714
 40
0.7142857142857143
 40
0.7142857142857143
 40
0.7142857142857143
 40
0.7142857142857143
 40
1.0
 40
1.0
 40
1.0
 40
1.0
 10
144.6459
 20
5.7435
 30
0.0
 10
146.5728
 20
-3.4141
 30
0.0
 10
152.5698
 20
-7.8986
 30
0.0
 10
159.8547
 20
-9.4326
 30
0.0
 10
159.8547
 20
-9.4326
 30
0.0
 10
159.8547
 20
-9.4326
 30
0.0
 10
159.8547
 20
-19.8645
 30
0.0
 10
159.8547
 20
-19.8645
 30
0.0
 10
159.8547
 20
-19.8645
 30
0.0
 10
159.8547
 20
-19.8645
 30
0.0
 10
149.5195
 20
-19.7927
 30
0.0
 10
149.5195
 20
-19.7927
 30
0.0
 10
149.5195
 20
-19.7927
 30
0.0
 10
148.3061
 20
-12.621
 30
0.0
 10
143.4388
 20
-6.3773
 30
0.0
 10
134.3607
 20
-4.6058
 30
0.0
 10
134.3607
 20
-4.6058
 30
0.0
 10
134.3607
 20
-4.6058
 30
0.0
 10
134.2559
 20
5.6441
 30
0.0
 10
134.2559
 20
5.6441
 30
0.0
 10
134.2559
 20
5.6441
 30
0.0
 10
134.2559
 20
5.6441
 30
0.0
 10
144.6459
 20
5.7435
 30
0.0
 10
144.6459
 20
5.7435
 30
0.0
  0
SPLINE
  5
53
330
1F
100
AcDbEntity
  8
layer 1
 62
     7
100
AcDbSpline
210
0.0
220
0.0
230
1.0
 70
    11
 71
     3
 72
    28
 73
    24
 74
     0
 42
0.0000000001
 43
0.0000000001
 12
1.0
 22
0.0
 32
0.0
 13
1.0
 23
0.0
 33
0.0
 40
0.0
 40
0.0
 40
0.0
 40
0.0
 40
0.1428571428571428
 40
0.1428571428571428
 40
0.1428571428571428
 40
0.1428571428571428
 40
0.2857142857142857
 40
0.2857142857142857
 40
0.2857142857142857
 40
0.2857142857142857
 40
0.4285714285714285
 40
0.4285714285714285
 40
0.4285714285714285
 40
0.4285714285714285
 40
0.5714285714285714
 40
0.5714285714285714
 40
0.5714285714285714
 40
0.5714285714285714
 40
0.7142857142857143
 40
0.7142857142857143
 40
0.7142857142857143
 40
0.7142857142857143
 40
1.0
 40
1.0
 40
1.0
 40
1.0
 10
119.5167
 20
5.7435
 30
0.0
 10
117.5898
 20
-3.4141
 30
0.0
 10
111.5928
 20
-7.8986
 30
0.0
 10
104.3079
 20
-9.4326
 30
0.0
 10
104.3079
 20
-9.4326
 30
0.0
 10
104.3079
 20
-9.4326
 30
0.0
 10
104.3079
 20
-19.8645
 30
0.0
 10
104.3079
 20
-19.8645
 30
0.0
 10
104.3079
 20
-19.8645
 30
0.0
 10
104.3079
 20
-19.8645
 30
0.0
 10
114.643
 20
-19.7927
 30
0.0
 10
114.643
 20
-19.7927
 30
0.0
 10
114.643
 20
-19.7927
 30
0.0
 10
115.8565
 20
-12.621
 30
0.0
 10
120.7238
 20
-6.3773
 30
0.0
 10
129.8019
 20
-4.6058
 30
0.0
 10
129.8019
 20
-4.6058
 30
0.0
 10
129.8019
 20
-4.6058
 30
0.0
 10
129.9067
 20
5.6441
 30
0.0
 10
129.9067
 20
5.6441
 30
0.0
 10
129.9067
 20
5.6441
 30
0.0
 10
129.9067
 20
5.6441
 30
0.0
 10
119.5167
 20
5.7435
 30
0.0
 10
119.5167
 20
5.7435
 30
0.0
  0
SPLINE
  5
54
330
1F
100
AcDbEntity
  8
layer 1
 62
     7
100
AcDbSpline
210
0.0
220
0.0
230
1.0
 70
    11
 71
     3
 72
    28
 73
    24
 74
     0
 42
0.0000000001
 43
0.0000000001
 12
1.0
 22
0.0
 32
0.0
 13
1.0
 23
0.0
 33
0.0
 40
0.0
 40
0.0
 40
0.0
 40
0.0
 40
0.1428571428571428
 40
0.1428571428571428
 40
0.1428571428571428
 40
0.1428571428571428
 40
0.2857142857142857
 40
0.2857142857142857
 40
0.2857142857142857
 40
0.2857142857142857
 40
0.4285714285714285
 40
0.4285714285714285
 40
0.4285714285714285
 40
0.4285714285714285
 40
0.5714285714285714
 40
0.5714285714285714
 40
0.5714285714285714
 40
0.5714285714285714
 40
0.7142857142857143
 40
0.7142857142857143
 40
0.7142857142857143
 40
0.7142857142857143
 40
1.0
 40
1.0
 40
1.0
 40
1.0
 10
24.7241
 20
-109.4246
 30
0.0
 10
26.6511
 20
-100.2669
 30
0.0
 10
32.6481
 20
-95.7825
 30
0.0
 10
39.9329
 20
-94.2484
 30
0.0
 10
39.9329
 20
-94.2484
 30
0.0
 10
39.9329
 20
-94.2484
 30
0.0
 10
39.9329
 20
-83.8166
 30
0.0
 10
39.9329
 20
-83.8166
 30
0.0
 10
39.9329
 20
-83.8166
 30
0.0
 10
39.9329
 20
-83.8166
 30
0.0
 10
29.5978
 20
-83.8883
 30
0.0
 10
29.5978
 20
-83.8883
 30
0.0
 10
29.5978
 20
-83.8883
 30
0.0
 10
28.3844
 20
-91.06
 30
0.0
 10
23.5171
 20
-97.3038
 30
0.0
 10
14.439
 20
-99.0753
 30
0.0
 10
14.439
 20
-99.0753
 30
0.0
 10
14.439
 20
-99.0753
 30
0.0
 10
14.3342
 20
-109.3252
 30
0.0
 10
14.3342
 20
-109.3252
 30
0.0
 10
14.3342
 20
-109.3252
 30
0.0
 10
14.3342
 20
-109.3252
 30
0.0
 10
24.7241
 20
-109.4246
 30
0.0
 10
24.7241
 20
-109.4246
 30
0.0
  0
SPLINE
  5
55
330
1F
100
AcDbEntity
  8
layer 1
 62
     7
100
AcDbSpline
210
0.0
220
0.0
230
1.0
 70
    11
 71
     3
 72
    28
 73
    24
 74
     0
 42
0.0000000001
 43
0.0000000001
 12
1.0
 22
0.0
 32
0.0
 13
1.0
 23
0.0
 33
0.0
 40
0.0
 40
0.0
 40
0.0
 40
0.0
 40
0.1428571428571428
 40
0.1428571428571428
 40
0.1428571428571428
 40
0.1428571428571428
 40
0.2857142857142857
 40
0.2857142857142857
 40
0.2857142857142857
 40
0.2857142857142857
 40
0.4285714285714285
 40
0.4285714285714285
 40
0.4285714285714285
 40
0.4285714285714285
 40
0.5714285714285714
 40
0.5714285714285714
 40
0.5714285714285714
 40
0.5714285714285714
 40
0.7142857142857143
 40
0.7142857142857143
 40
0.7142857142857143
 40
0.7142857142857143
 40
1.0
 40
1.0
 40
1.0
 40
1.0
 10
59.7503
 20
-109.4246
 30
0.0
 10
57.8234
 20
-100.2669
 30
0.0
 10
51.8264
 20
-95.7825
 30
0.0
 10
44.5415
 20
-94.2484
 30
0.0
 10
44.5415
 20
-94.2484
 30
0.0
 10
44.5415
 20
-94.2484
 30
0.0
 10
44.5415
 20
-83.8166
 30
0.0
 10
44.5415
 20
-83.8166
 30
0.0
 10
44.5415
 20
-83.8166
 30
0.0
 10
44.5415
 20
-83.8166
 30
0.0
 10
54.8767
 20
-83.8883
 30
0.0
 10
54.8767
 20
-83.8883
 30
0.0
 10
54.8767
 20
-83.8883
 30
0.0
 10
56.0901
 20
-91.06
 30
0.0
 10
60.9574
 20
-97.3038
 30
0.0
 10
70.0355
 20
-99.0753
 30
0.0
 10
70.0355
 20
-99.0753
 30
0.0
 10
70.0355
 20
-99.0753
 30
0.0
 10
70.1403
 20
-109.3252
 30
0.0
 10
70.1403
 20
-109.3252
 30
0.0
 10
70.1403
 20
-109.3252
 30
0.0
 10
70.1403
 20
-109.3252
 30
0.0
 10
59.7503
 20
-109.4246
 30
0.0
 10
59.7503
 20
-109.4246
 30
0.0
  0
SPLINE
  5
56
330
1F
100
AcDbEntity
  8
layer 1
 62
     7
100
AcDbSpline
210
0.0
220
0.0
230
1.0
 70
    11
 71
     3
 72
    28
 73
    24
 74
     0
 42
0.0000000001
 43
0.0000000001
 12
1.0
 22
0.0
 32
0.0
 13
1.0
 23
0.0
 33
0.0
 40
0.0
 40
0.0
 40
0.0
 40
0.0
 40
0.1428571428571428
 40
0.1428571428571428
 40
0.1428571428571428
 40
0.1428571428571428
 40
0.2857142857142857
 40
0.2857142857142857
 40
0.2857142857142857
 40
0.2857142857142857
 40
0.4285714285714285
 40
0.4285714285714285
 40
0.4285714285714285
 40
0.4285714285714285
 40
0.5714285714285714
 40
0.5714285714285714
 40
0.5714285714285714
 40
0.5714285714285714
 40
0.7142857142857143
 40
0.7142857142857143
 40
0.7142857142857143
 40
0.7142857142857143
 40
1.0
 40
1.0
 40
1.0
 40
1.0
 10
84.8795
 20
-109.4246
 30
0.0
 10
86.8064
 20
-100.2669
 30
0.0
 10
92.8034
 20
-95.7825
 30
0.0
 10
100.0883
 20
-94.2484
 30
0.0
 10
100.0883
 20
-94.2484
 30
0.0
 10
100.0883
 20
-94.2484
 30
0.0
 10
100.0883
 20
-83.8166
 30
0.0
 10
100.0883
 20
-83.8166
 30
0.0
 10
100.0883
 20
-83.8166
 30
0.0
 10
100.0883
 20
-83.8166
 30
0.0
 10
89.7532
 20
-83.8883
 30
0.0
 10
89.7532
 20
-83.8883
 30
0.0
 10
89.7532
 20
-83.8883
 30
0.0
 10
88.5397
 20
-91.06
 30
0.0
 10
83.6724
 20
-97.3038
 30
0.0
 10
74.5943
 20
-99.0753
 30
0.0
 10
74.5943
 20
-99.0753
 30
0.0
 10
74.5943
 20
-99.0753
 30
0.0
 10
74.4895
 20
-109.3252
 30
0.0
 10
74.4895
 20
-109.3252
 30
0.0
 10
74.4895
 20
-109.3252
 30
0.0
 10
74.4895
 20
-109.3252
 30
0.0
 10
84.8795
 20
-109.4246
 30
0.0
 10
84.8795
 20
-109.4246
 30
0.0
  0
SPLINE
  5
57
330
1F
100
AcDbEntity
  8
layer 1
 62
     7
100
AcDbSpline
210
0.0
220
0.0
230
1.0
 70
    11
 71
     3
 72
    28
 73
    24
 74
     0
 42
0.0000000001
 43
0.0000000001
 12
1.0
 22
0.0
 32
0.0
 13
1.0
 23
0.0
 33
0.0
 40
0.0
 40
0.0
 40
0.0
 40
0.0
 40
0.1428571428571428
 40
0.1428571428571428
 40
0.1428571428571428
 40
0.1428571428571428
 40
0.2857142857142857
 40
0.2857142857142857
 40
0.2857142857142857
 40
0.2857142857142857
 40
0.4285714285714285
 40
0.4285714285714285
 40
0.4285714285714285
 40
0.4285714285714285
 40
0.5714285714285714
 40
0.5714285714285714
 40
0.5714285714285714
 40
0.5714285714285714
 40
0.7142857142857143
 40
0.7142857142857143
 40
0.7142857142857143
 40
0.7142857142857143
 40
1.0
 40
1.0
 40
1.0
 40
1.0
 10
24.7241
 20
-53.8721
 30
0.0
 10
26.6511
 20
-63.0297
 30
0.0
 10
32.6481
 20
-67.5142
 30
0.0
 10
39.9329
 20
-69.0482
 30
0.0
 10
39.9329
 20
-69.0482
 30
0.0
 10
39.9329
 20
-69.0482
 30
0.0
 10
39.9329
 20
-79.4801
 30
0.0
 10
39.9329
 20
-79.4801
 30
0.0
 10
39.9329
 20
-79.4801
 30
0.0
 10
39.9329
 20
-79.4801
 30
0.0
 10
29.5978
 20
-79.4083
 30
0.0
 10
29.5978
 20
-79.4083
 30
0.0
 10
29.5978
 20
-79.4083
 30
0.0
 10
28.3844
 20
-72.2366
 30
0.0
 10
23.5171
 20
-65.9929
 30
0.0
 10
14.439
 20
-64.2214
 30
0.0
 10
14.439
 20
-64.2214
 30
0.0
 10
14.439
 20
-64.2214
 30
0.0
 10
14.3342
 20
-53.9715
 30
0.0
 10
14.3342
 20
-53.9715
 30
0.0
 10
14.3342
 20
-53.9715
 30
0.0
 10
14.3342
 20
-53.9715
 30
0.0
 10
24.7241
 20
-53.8721
 30
0.0
 10
24.7241
 20
-53.8721
 30
0.0
  0
SPLINE
  5
58
330
1F
100
AcDbEntity
  8
layer 1
 62
     7
100
AcDbSpline
210
0.0
220
0.0
230
1.0
 70
    11
 71
     3
 72
    28
 73
    24
 74
     0
 42
0.0000000001
 43
0.0000000001
 12
1.0
 22
0.0
 32
0.0
 13
1.0
 23
0.0
 33
0.0
 40
0.0
 40
0.0
 40
0.0
 40
0.0
 40
0.1428571428571428
 40
0.1428571428571428
 40
0.1428571428571428
 40
0.1428571428571428
 40
0.2857142857142857
 40
0.2857142857142857
 40
0.2857142857142857
 40
0.2857142857142857
 40
0.4285714285714285
 40
0.4285714285714285
 40
0.4285714285714285
 40
0.4285714285714285
 40
0.5714285714285714
 40
0.5714285714285714
 40
0.5714285714285714
 40
0.5714285714285714
 40
0.7142857142857143
 40
0.7142857142857143
 40
0.7142857142857143
 40
0.7142857142857143
 40
1.0
 40
1.0
 40
1.0
 40
1.0
 10
59.7503
 20
-53.8721
 30
0.0
 10
57.8234
 20
-63.0297
 30
0.0
 10
51.8264
 20
-67.5142
 30
0.0
 10
44.5415
 20
-69.0482
 30
0.0
 10
44.5415
 20
-69.0482
 30
0.0
 10
44.5415
 20
-69.0482
 30
0.0
 10
44.5415
 20
-79.4801
 30
0.0
 10
44.5415
 20
-79.4801
 30
0.0
 10
44.5415
 20
-79.4801
 30
0.0
 10
44.5415
 20
-79.4801
 30
0.0
 10
54.8767
 20
-79.4083
 30
0.0
 10
54.8767
 20
-79.4083
 30
0.0
 10
54.8767
 20
-79.4083
 30
0.0
 10
56.0901
 20
-72.2366
 30
0.0
 10
60.9574
 20
-65.9929
 30
0.0
 10
70.0355
 20
-64.2214
 30
0.0
 10
70.0355
 20
-64.2214
 30
0.0
 10
70.0355
 20
-64.2214
 30
0.0
 10
70.1403
 20
-53.9715
 30
0.0
 10
70.1403
 20
-53.9715
 30
0.0
 10
70.1403
 20
-53.9715
 30
0.0
 10
70.1403
 20
-53.9715
 30
0.0
 10
59.7503
 20
-53.8721
 30
0.0
 10
59.7503
 20
-53.8721
 30
0.0
  0
SPLINE
  5
59
330
1F
100
AcDbEntity
  8
layer 1
 62
     7
100
AcDbSpline
210
0.0
220
0.0
230
1.0
 70
    11
 71
     3
 72
    28
 73
    24
 74
     0
 42
0.0000000001
 43
0.0000000001
 12
1.0
 22
0.0
 32
0.0
 13
1.0
 23
0.0
 33
0.0
 40
0.0
 40
0.0
 40
0.0
 40
0.0
 40
0.1428571428571428
 40
0.1428571428571428
 40
0.1428571428571428
 40
0.1428571428571428
 40
0.2857142857142857
 40
0.2857142857142857
 40
0.2857142857142857
 40
0.2857142857142857
 40
0.4285714285714285
 40
0.4285714285714285
 40
0.4285714285714285
 40
0.4285714285714285
 40
0.5714285714285714
 40
0.5714285714285714
 40
0.5714285714285714
 40
0.5714285714285714
 40
0.7142857142857143
 40
0.7142857142857143
 40
0.7142857142857143
 40
0.7142857142857143
 40
1.0
 40
1.0
 40
1.0
 40
1.0
 10
84.8795
 20
-53.8721
 30
0.0
 10
86.8064
 20
-63.0297
 30
0.0
 10
92.8034
 20
-67.5142
 30
0.0
 10
100.0883
 20
-69.0482
 30
0.0
 10
100.0883
 20
-69.0482
 30
0.0
 10
100.0883
 20
-69.0482
 30
0.0
 10
100.0883
 20
-79.4801
 30
0.0
 10
100.0883
 20
-79.4801
 30
0.0
 10
100.0883
 20
-79.4801
 30
0.0
 10
100.0883
 20
-79.4801
 30
0.0
 10
89.7532
 20
-79.4083
 30
0.0
 10
89.7532
 20
-79.4083
 30
0.0
 10
89.7532
 20
-79.4083
 30
0.0
 10
88.5397
 20
-72.2366
 30
0.0
 10
83.6724
 20
-65.9929
 30
0.0
 10
74.5943
 20
-64.2214
 30
0.0
 10
74.5943
 20
-64.2214
 30
0.0
 10
74.5943
 20
-64.2214
 30
0.0
 10
74.4895
 20
-53.9715
 30
0.0
 10
74.4895
 20
-53.9715
 30
0.0
 10
74.4895
 20
-53.9715
 30
0.0
 10
74.4895
 20
-53.9715
 30
0.0
 10
84.8795
 20
-53.8721
 30
0.0
 10
84.8795
 20
-53.8721
 30
0.0
  0
SPLINE
  5
5A
330
1F
100
AcDbEntity
  8
layer 1
 62
     7
100
AcDbSpline
210
0.0
220
0.0
230
1.0
 70
    11
 71
     3
 72
    28
 73
    24
 74
     0
 42
0.0000000001
 43
0.0000000001
 12
1.0
 22
0.0
 32
0.0
 13
1.0
 23
0.0
 33
0.0
 40
0.0
 40
0.0
 40
0.0
 40
0.0
 40
0.1428571428571428
 40
0.1428571428571428
 40
0.1428571428571428
 40
0.1428571428571428
 40
0.2857142857142857
 40
0.2857142857142857
 40
0.2857142857142857
 40
0.2857142857142857
 40
0.4285714285714285
 40
0.4285714285714285
 40
0.4285714285714285
 40
0.4285714285714285
 40
0.5714285714285714
 40
0.5714285714285714
 40
0.5714285714285714
 40
0.5714285714285714
 40
0.7142857142857143
 40
0.7142857142857143
 40
0.7142857142857143
 40
0.7142857142857143
 40
1.0
 40
1.0
 40
1.0
 40
1.0
 10
24.7241
 20
-49.2692
 30
0.0
 10
26.6511
 20
-40.1116
 30
0.0
 10
32.6481
 20
-35.6272
 30
0.0
 10
39.9329
 20
-34.0931
 30
0.0
 10
39.9329
 20
-34.0931
 30
0.0
 10
39.9329
 20
-34.0931
 30
0.0
 10
39.9329
 20
-23.6613
 30
0.0
 10
39.9329
 20
-23.6613
 30
0.0
 10
39.9329
 20
-23.6613
 30
0.0
 10
39.9329
 20
-23.6613
 30
0.0
 10
29.5978
 20
-23.733
 30
0.0
 10
29.5978
 20
-23.733
 30
0.0
 10
29.5978
 20
-23.733
 30
0.0
 10
28.3844
 20
-30.9047
 30
0.0
 10
23.5171
 20
-37.1484
 30
0.0
 10
14.439
 20
-38.9199
 30
0.0
 10
14.439
 20
-38.9199
 30
0.0
 10
14.439
 20
-38.9199
 30
0.0
 10
14.3342
 20
-49.1698
 30
0.0
 10
14.3342
 20
-49.1698
 30
0.0
 10
14.3342
 20
-49.1698
 30
0.0
 10
14.3342
 20
-49.1698
 30
0.0
 10
24.7241
 20
-49.2692
 30
0.0
 10
24.7241
 20
-49.2692
 30
0.0
  0
SPLINE
  5
5B
330
1F
100
AcDbEntity
  8
layer 1
 62
     7
100
AcDbSpline
210
0.0
220
0.0
230
1.0
 70
    11
 71
     3
 72
    28
 73
    24
 74
     0
 42
0.0000000001
 43
0.0000000001
 12
1.0
 22
0.0
 32
0.0
 13
1.0
 23
0.0
 33
0.0
 40
0.0
 40
0.0
 40
0.0
 40
0.0
 40
0.1428571428571428
 40
0.1428571428571428
 40
0.1428571428571428
 40
0.1428571428571428
 40
0.2857142857142857
 40
0.2857142857142857
 40
0.2857142857142857
 40
0.2857142857142857
 40
0.4285714285714285
 40
0.4285714285714285
 40
0.4285714285714285
 40
0.4285714285714285
 40
0.5714285714285714
 40
0.5714285714285714
 40
0.5714285714285714
 40
0.5714285714285714
 40
0.7142857142857143
 40
0.7142857142857143
 40
0.7142857142857143
 40
0.7142857142857143
 40
1.0
 40
1.0
 40
1.0
 40
1.0
 10
59.7503
 20
-49.2692
 30
0.0
 10
57.8234
 20
-40.1116
 30
0.0
 10
51.8264
 20
-35.6272
 30
0.0
 10
44.5415
 20
-34.0931
 30
0.0
 10
44.5415
 20
-34.0931
 30
0.0
 10
44.5415
 20
-34.0931
 30
0.0
 10
44.5415
 20
-23.6613
 30
0.0
 10
44.5415
 20
-23.6613
 30
0.0
 10
44.5415
 20
-23.6613
 30
0.0
 10
44.5415
 20
-23.6613
 30
0.0
 10
54.8767
 20
-23.733
 30
0.0
 10
54.8767
 20
-23.733
 30
0.0
 10
54.8767
 20
-23.733
 30
0.0
 10
56.0901
 20
-30.9047
 30
0.0
 10
60.9574
 20
-37.1484
 30
0.0
 10
70.0355
 20
-38.9199
 30
0.0
 10
70.0355
 20
-38.9199
 30
0.0
 10
70.0355
 20
-38.9199
 30
0.0
 10
70.1403
 20
-49.1698
 30
0.0
 10
70.1403
 20
-49.1698
 30
0.0
 10
70.1403
 20
-49.1698
 30
0.0
 10
70.1403
 20
-49.1698
 30
0.0
 10
59.7503
 20
-49.2692
 30
0.0
 10
59.7503
 20
-49.2692
 30
0.0
  0
SPLINE
  5
5C
330
1F
100
AcDbEntity
  8
layer 1
 62
     7
100
AcDbSpline
210
0.0
220
0.0
230
1.0
 70
    11
 71
     3
 72
    28
 73
    24
 74
     0
 42
0.0000000001
 43
0.0000000001
 12
1.0
 22
0.0
 32
0.0
 13
1.0
 23
0.0
 33
0.0
 40
0.0
 40
0.0
 40
0.0
 40
0.0
 40
0.1428571428571428
 40
0.1428571428571428
 40
0.1428571428571428
 40
0.1428571428571428
 40
0.2857142857142857
 40
0.2857142857142857
 40
0.2857142857142857
 40
0.2857142857142857
 40
0.4285714285714285
 40
0.4285714285714285
 40
0.4285714285714285
 40
0.4285714285714285
 40
0.5714285714285714
 40
0.5714285714285714
 40
0.5714285714285714
 40
0.5714285714285714
 40
0.7142857142857143
 40
0.7142857142857143
 40
0.7142857142857143
 40
0.7142857142857143
 40
1.0
 40
1.0
 40
1.0
 40
1.0
 10
84.8795
 20
-49.2692
 30
0.0
 10
86.8064
 20
-40.1116
 30
0.0
 10
92.8034
 20
-35.6272
 30
0.0
 10
100.0883
 20
-34.0931
 30
0.0
 10
100.0883
 20
-34.0931
 30
0.0
 10
100.0883
 20
-34.0931
 30
0.0
 10
100.0883
 20
-23.6613
 30
0.0
 10
100.0883
 20
-23.6613
 30
0.0
 10
100.0883
 20
-23.6613
 30
0.0
 10
100.0883
 20
-23.6613
 30
0.0
 10
89.7532
 20
-23.733
 30
0.0
 10
89.7532
 20
-23.733
 30
0.0
 10
89.7532
 20
-23.733
 30
0.0
 10
88.5397
 20
-30.9047
 30
0.0
 10
83.6724
 20
-37.1484
 30
0.0
 10
74.5943
 20
-38.9199
 30
0.0
 10
74.5943
 20
-38.9199
 30
0.0
 10
74.5943
 20
-38.9199
 30
0.0
 10
74.4895
 20
-49.1698
 30
0.0
 10
74.4895
 20
-49.1698
 30
0.0
 10
74.4895
 20
-49.1698
 30
0.0
 10
74.4895
 20
-49.1698
 30
0.0
 10
84.8795
 20
-49.2692
 30
0.0
 10
84.8795
 20
-49.2692
 30
0.0
  0
SPLINE
  5
5D
330
1F
100
AcDbEntity
  8
layer 1
 62
     7
100
AcDbSpline
210
0.0
220
0.0
230
1.0
 70
    11
 71
     3
 72
    28
 73
    24
 74
     0
 42
0.0000000001
 43
0.0000000001
 12
1.0
 22
0.0
 32
0.0
 13
1.0
 23
0.0
 33
0.0
 40
0.0
 40
0.0
 40
0.0
 40
0.0
 40
0.1428571428571428
 40
0.1428571428571428
 40
0.1428571428571428
 40
0.1428571428571428
 40
0.2857142857142857
 40
0.2857142857142857
 40
0.2857142857142857
 40
0.2857142857142857
 40
0.4285714285714285
 40
0.4285714285714285
 40
0.4285714285714285
 40
0.4285714285714285
 40
0.5714285714285714
 40
0.5714285714285714
 40
0.5714285714285714
 40
0.5714285714285714
 40
0.7142857142857143
 40
0.7142857142857143
 40
0.7142857142857143
 40
0.7142857142857143
 40
1.0
 40
1.0
 40
1.0
 40
1.0
 10
179.6721
 20
-108.6467
 30
0.0
 10
177.7451
 20
-99.4891
 30
0.0
 10
171.7481
 20
-95.0046
 30
0.0
 10
164.4633
 20
-93.4706
 30
0.0
 10
164.4633
 20
-93.4706
 30
0.0
 10
164.4633
 20
-93.4706
 30
0.0
 10
164.4633
 20
-83.0387
 30
0.0
 10
164.4633
 20
-83.0387
 30
0.0
 10
164.4633
 20
-83.0387
 30
0.0
 10
164.4633
 20
-83.0387
 30
0.0
 10
174.7984
 20
-83.1104
 30
0.0
 10
174.7984
 20
-83.1104
 30
0.0
 10
174.7984
 20
-83.1104
 30
0.0
 10
176.0118
 20
-90.2822
 30
0.0
 10
180.8791
 20
-96.5259
 30
0.0
 10
189.9572
 20
-98.2974
 30
0.0
 10
189.9572
 20
-98.2974
 30
0.0
 10
189.9572
 20
-98.2974
 30
0.0
 10
190.062
 20
-108.5473
 30
0.0
 10
190.062
 20
-108.5473
 30
0.0
 10
190.062
 20
-108.5473
 30
0.0
 10
190.062
 20
-108.5473
 30
0.0
 10
179.6721
 20
-108.6467
 30
0.0
 10
179.6721
 20
-108.6467
 30
0.0
  0
SPLINE
  5
5E
330
1F
100
AcDbEntity
  8
layer 1
 62
     7
100
AcDbSpline
210
0.0
220
0.0
230
1.0
 70
    11
 71
     3
 72
    28
 73
    24
 74
     0
 42
0.0000000001
 43
0.0000000001
 12
1.0
 22
0.0
 32
0.0
 13
1.0
 23
0.0
 33
0.0
 40
0.0
 40
0.0
 40
0.0
 40
0.0
 40
0.1428571428571428
 40
0.1428571428571428
 40
0.1428571428571428
 40
0.1428571428571428
 40
0.2857142857142857
 40
0.2857142857142857
 40
0.2857142857142857
 40
0.2857142857142857
 40
0.4285714285714285
 40
0.4285714285714285
 40
0.4285714285714285
 40
0.4285714285714285
 40
0.5714285714285714
 40
0.5714285714285714
 40
0.5714285714285714
 40
0.5714285714285714
 40
0.7142857142857143
 40
0.7142857142857143
 40
0.7142857142857143
 40
0.7142857142857143
 40
1.0
 40
1.0
 40
1.0
 40
1.0
 10
144.6459
 20
-108.6467
 30
0.0
 10
146.5728
 20
-99.4891
 30
0.0
 10
152.5698
 20
-95.0046
 30
0.0
 10
159.8547
 20
-93.4706
 30
0.0
 10
159.8547
 20
-93.4706
 30
0.0
 10
159.8547
 20
-93.4706
 30
0.0
 10
159.8547
 20
-83.0387
 30
0.0
 10
159.8547
 20
-83.0387
 30
0.0
 10
159.8547
 20
-83.0387
 30
0.0
 10
159.8547
 20
-83.0387
 30
0.0
 10
149.5195
 20
-83.1104
 30
0.0
 10
149.5195
 20
-83.1104
 30
0.0
 10
149.5195
 20
-83.1104
 30
0.0
 10
148.3061
 20
-90.2822
 30
0.0
 10
143.4388
 20
-96.5259
 30
0.0
 10
134.3607
 20
-98.2974
 30
0.0
 10
134.3607
 20
-98.2974
 30
0.0
 10
134.3607
 20
-98.2974
 30
0.0
 10
134.2559
 20
-108.5473
 30
0.0
 10
134.2559
 20
-108.5473
 30
0.0
 10
134.2559
 20
-108.5473
 30
0.0
 10
134.2559
 20
-108.5473
 30
0.0
 10
144.6459
 20
-108.6467
 30
0.0
 10
144.6459
 20
-108.6467
 30
0.0
  0
SPLINE
  5
5F
330
1F
100
AcDbEntity
  8
layer 1
 62
     7
100
AcDbSpline
210
0.0
220
0.0
230
1.0
 70
    11
 71
     3
 72
    28
 73
    24
 74
     0
 42
0.0000000001
 43
0.0000000001
 12
1.0
 22
0.0
 32
0.0
 13
1.0
 23
0.0
 33
0.0
 40
0.0
 40
0.0
 40
0.0
 40
0.0
 40
0.1428571428571428
 40
0.1428571428571428
 40
0.1428571428571428
 40
0.1428571428571428
 40
0.2857142857142857
 40
0.2857142857142857
 40
0.2857142857142857
 40
0.2857142857142857
 40
0.4285714285714285
 40
0.4285714285714285
 40
0.4285714285714285
 40
0.4285714285714285
 40
0.5714285714285714
 40
0.5714285714285714
 40
0.5714285714285714
 40
0.5714285714285714
 40
0.7142857142857143
 40
0.7142857142857143
 40
0.7142857142857143
 40
0.7142857142857143
 40
1.0
 40
1.0
 40
1.0
 40
1.0
 10
119.5167
 20
-108.6467
 30
0.0
 10
117.5898
 20
-99.4891
 30
0.0
 10
111.5928
 20
-95.0046
 30
0.0
 10
104.3079
 20
-93.4706
 30
0.0
 10
104.3079
 20
-93.4706
 30
0.0
 10
104.3079
 20
-93.4706
 30
0.0
 10
104.3079
 20
-83.0387
 30
0.0
 10
104.3079
 20
-83.0387
 30
0.0
 10
104.3079
 20
-83.0387
 30
0.0
 10
104.3079
 20
-83.0387
 30
0.0
 10
114.643
 20
-83.1104
 30
0.0
 10
114.643
 20
-83.1104
 30
0.0
 10
114.643
 20
-83.1104
 30
0.0
 10
115.8565
 20
-90.2822
 30
0.0
 10
120.7238
 20
-96.5259
 30
0.0
 10
129.8019
 20
-98.2974
 30
0.0
 10
129.8019
 20
-98.2974
 30
0.0
 10
129.8019
 20
-98.2974
 30
0.0
 10
129.9067
 20
-108.5473
 30
0.0
 10
129.9067
 20
-108.5473
 30
0.0
 10
129.9067
 20
-108.5473
 30
0.0
 10
129.9067
 20
-108.5473
 30
0.0
 10
119.5167
 20
-108.6467
 30
0.0
 10
119.5167
 20
-108.6467
 30
0.0
  0
SPLINE
  5
60
330
1F
100
AcDbEntity
  8
layer 1
 62
     7
100
AcDbSpline
210
0.0
220
0.0
230
1.0
 70
    11
 71
     3
 72
    28
 73
    24
 74
     0
 42
0.0000000001
 43
0.0000000001
 12
1.0
 22
0.0
 32
0.0
 13
1.0
 23
0.0
 33
0.0
 40
0.0
 40
0.0
 40
0.0
 40
0.0
 40
0.1428571428571428
 40
0.1428571428571428
 40
0.1428571428571428
 40
0.1428571428571428
 40
0.2857142857142857
 40
0.2857142857142857
 40
0.2857142857142857
 40
0.2857142857142857
 40
0.4285714285714285
 40
0.4285714285714285
 40
0.4285714285714285
 40
0.4285714285714285
 40
0.5714285714285714
 40
0.5714285714285714
 40
0.5714285714285714
 40
0.5714285714285714
 40
0.7142857142857143
 40
0.7142857142857143
 40
0.7142857142857143
 40
0.7142857142857143
 40
1.0
 40
1.0
 40
1.0
 40
1.0
 10
179.6721
 20
-53.0942
 30
0.0
 10
177.7451
 20
-62.2518
 30
0.0
 10
171.7481
 20
-66.7363
 30
0.0
 10
164.4633
 20
-68.2704
 30
0.0
 10
164.4633
 20
-68.2704
 30
0.0
 10
164.4633
 20
-68.2704
 30
0.0
 10
164.4633
 20
-78.7022
 30
0.0
 10
164.4633
 20
-78.7022
 30
0.0
 10
164.4633
 20
-78.7022
 30
0.0
 10
164.4633
 20
-78.7022
 30
0.0
 10
174.7984
 20
-78.6305
 30
0.0
 10
174.7984
 20
-78.6305
 30
0.0
 10
174.7984
 20
-78.6305
 30
0.0
 10
176.0118
 20
-71.4588
 30
0.0
 10
180.8791
 20
-65.215
 30
0.0
 10
189.9572
 20
-63.4435
 30
0.0
 10
189.9572
 20
-63.4435
 30
0.0
 10
189.9572
 20
-63.4435
 30
0.0
 10
190.062
 20
-53.1936
 30
0.0
 10
190.062
 20
-53.1936
 30
0.0
 10
190.062
 20
-53.1936
 30
0.0
 10
190.062
 20
-53.1936
 30
0.0
 10
179.6721
 20
-53.0942
 30
0.0
 10
179.6721
 20
-53.0942
 30
0.0
  0
SPLINE
  5
61
330
1F
100
AcDbEntity
  8
layer 1
 62
     7
100
AcDbSpline
210
0.0
220
0.0
230
1.0
 70
    11
 71
     3
 72
    28
 73
    24
 74
     0
 42
0.0000000001
 43
0.0000000001
 12
1.0
 22
0.0
 32
0.0
 13
1.0
 23
0.0
 33
0.0
 40
0.0
 40
0.0
 40
0.0
 40
0.0
 40
0.1428571428571428
 40
0.1428571428571428
 40
0.1428571428571428
 40
0.1428571428571428
 40
0.2857142857142857
 40
0.2857142857142857
 40
0.2857142857142857
 40
0.2857142857142857
 40
0.4285714285714285
 40
0.4285714285714285
 40
0.4285714285714285
 40
0.4285714285714285
 40
0.5714285714285714
 40
0.5714285714285714
 40
0.5714285714285714
 40
0.5714285714285714
 40
0.7142857142857143
 40
0.7142857142857143
 40
0.7142857142857143
 40
0.7142857142857143
 40
1.0
 40
1.0
 40
1.0
 40
1.0
 10
144.6459
 20
-53.0942
 30
0.0
 10
146.5728
 20
-62.2518
 30
0.0
 10
152.5698
 20
-66.7363
 30
0.0
 10
159.8547
 20
-68.2704
 30
0.0
 10
159.8547
 20
-68.2704
 30
0.0
 10
159.8547
 20
-68.2704
 30
0.0
 10
159.8547
 20
-78.7022
 30
0.0
 10
159.8547
 20
-78.7022
 30
0.0
 10
159.8547
 20
-78.7022
 30
0.0
 10
159.8547
 20
-78.7022
 30
0.0
 10
149.5195
 20
-78.6305
 30
0.0
 10
149.5195
 20
-78.6305
 30
0.0
 10
149.5195
 20
-78.6305
 30
0.0
 10
148.3061
 20
-71.4588
 30
0.0
 10
143.4388
 20
-65.215
 30
0.0
 10
134.3607
 20
-63.4435
 30
0.0
 10
134.3607
 20
-63.4435
 30
0.0
 10
134.3607
 20
-63.4435
 30
0.0
 10
134.2559
 20
-53.1936
 30
0.0
 10
134.2559
 20
-53.1936
 30
0.0
 10
134.2559
 20
-53.1936
 30
0.0
 10
134.2559
 20
-53.1936
 30
0.0
 10
144.6459
 20
-53.0942
 30
0.0
 10
144.6459
 20
-53.0942
 30
0.0
  0
SPLINE
  5
62
330
1F
100
AcDbEntity
  8
layer 1
 62
     7
100
AcDbSpline
210
0.0
220
0.0
230
1.0
 70
    11
 71
     3
 72
    28
 73
    24
 74
     0
 42
0.0000000001
 43
0.0000000001
 12
1.0
 22
0.0
 32
0.0
 13
1.0
 23
0.0
 33
0.0
 40
0.0
 40
0.0
 40
0.0
 40
0.0
 40
0.1428571428571428
 40
0.1428571428571428
 40
0.1428571428571428
 40
0.1428571428571428
 40
0.2857142857142857
 40
0.2857142857142857
 40
0.2857142857142857
 40
0.2857142857142857
 40
0.4285714285714285
 40
0.4285714285714285
 40
0.4285714285714285
 40
0.4285714285714285
 40
0.5714285714285714
 40
0.5714285714285714
 40
0.5714285714285714
 40
0.5714285714285714
 40
0.7142857142857143
 40
0.7142857142857143
 40
0.7142857142857143
 40
0.7142857142857143
 40
1.0
 40
1.0
 40
1.0
 40
1.0
 10
119.5167
 20
-53.0942
 30
0.0
 10
117.5898
 20
-62.2518
 30
0.0
 10
111.5928
 20
-66.7363
 30
0.0
 10
104.3079
 20
-68.2704
 30
0.0
 10
104.3079
 20
-68.2704
 30
0.0
 10
104.3079
 20
-68.2704
 30
0.0
 10
104.3079
 20
-78.7022
 30
0.0
 10
104.3079
 20
-78.7022
 30
0.0
 10
104.3079
 20
-78.7022
 30
0.0
 10
104.3079
 20
-78.7022
 30
0.0
 10
114.643
 20
-78.6305
 30
0.0
 10
114.643
 20
-78.6305
 30
0.0
 10
114.643
 20
-78.6305
 30
0.0
 10
115.8565
 20
-71.4588
 30
0.0
 10
120.7238
 20
-65.215
 30
0.0
 10
129.8019
 20
-63.4435
 30
0.0
 10
129.8019
 20
-63.4435
 30
0.0
 10
129.8019
 20
-63.4435
 30
0.0
 10
129.9067
 20
-53.1936
 30
0.0
 10
129.9067
 20
-53.1936
 30
0.0
 10
129.9067
 20
-53.1936
 30
0.0
 10
129.9067
 20
-53.1936
 30
0.0
 10
119.5167
 20
-53.0942
 30
0.0
 10
119.5167
 20
-53.0942
 30
0.0
  0
SPLINE
  5
63
330
1F
100
AcDbEntity
  8
layer 1
 62
     7
100
AcDbSpline
210
0.0
220
0.0
230
1.0
 70
    11
 71
     3
 72
    28
 73
    24
 74
     0
 42
0.0000000001
 43
0.0000000001
 12
1.0
 22
0.0
 32
0.0
 13
1.0
 23
0.0
 33
0.0
 40
0.0
 40
0.0
 40
0.0
 40
0.0
 40
0.1428571428571428
 40
0.1428571428571428
 40
0.1428571428571428
 40
0.1428571428571428
 40
0.2857142857142857
 40
0.2857142857142857
 40
0.2857142857142857
 40
0.2857142857142857
 40
0.4285714285714285
 40
0.4285714285714285
 40
0.4285714285714285
 40
0.4285714285714285
 40
0.5714285714285714
 40
0.5714285714285714
 40
0.5714285714285714
 40
0.5714285714285714
 40
0.7142857142857143
 40
0.7142857142857143
 40
0.7142857142857143
 40
0.7142857142857143
 40
1.0
 40
1.0
 40
1.0
 40
1.0
 10
179.6721
 20
-48.4913
 30
0.0
 10
177.7451
 20
-39.3337
 30
0.0
 10
171.7481
 20
-34.8493
 30
0.0
 10
164.4633
 20
-33.3152
 30
0.0
 10
164.4633
 20
-33.3152
 30
0.0
 10
164.4633
 20
-33.3152
 30
0.0
 10
164.4633
 20
-22.8834
 30
0.0
 10
164.4633
 20
-22.8834
 30
0.0
 10
164.4633
 20
-22.8834
 30
0.0
 10
164.4633
 20
-22.8834
 30
0.0
 10
174.7984
 20
-22.9551
 30
0.0
 10
174.7984
 20
-22.9551
 30
0.0
 10
174.7984
 20
-22.9551
 30
0.0
 10
176.0118
 20
-30.1268
 30
0.0
 10
180.8791
 20
-36.3705
 30
0.0
 10
189.9572
 20
-38.1421
 30
0.0
 10
189.9572
 20
-38.1421
 30
0.0
 10
189.9572
 20
-38.1421
 30
0.0
 10
190.062
 20
-48.3919
 30
0.0
 10
190.062
 20
-48.3919
 30
0.0
 10
190.062
 20
-48.3919
 30
0.0
 10
190.062
 20
-48.3919
 30
0.0
 10
179.6721
 20
-48.4913
 30
0.0
 10
179.6721
 20
-48.4913
 30
0.0
  0
SPLINE
  5
64
330
1F
100
AcDbEntity
  8
layer 1
 62
     7
100
AcDbSpline
210
0.0
220
0.0
230
1.0
 70
    11
 71
     3
 72
    28
 73
    24
 74
     0
 42
0.0000000001
 43
0.0000000001
 12
1.0
 22
0.0
 32
0.0
 13
1.0
 23
0.0
 33
0.0
 40
0.0
 40
0.0
 40
0.0
 40
0.0
 40
0.1428571428571428
 40
0.1428571428571428
 40
0.1428571428571428
 40
0.1428571428571428
 40
0.2857142857142857
 40
0.2857142857142857
 40
0.2857142857142857
 40
0.2857142857142857
 40
0.4285714285714285
 40
0.4285714285714285
 40
0.4285714285714285
 40
0.4285714285714285
 40
0.5714285714285714
 40
0.5714285714285714
 40
0.5714285714285714
 40
0.5714285714285714
 40
0.7142857142857143
 40
0.7142857142857143
 40
0.7142857142857143
 40
0.7142857142857143
 40
1.0
 40
1.0
 40
1.0
 40
1.0
 10
144.6459
 20
-48.4913
 30
0.0
 10
146.5728
 20
-39.3337
 30
0.0
 10
152.5698
 20
-34.8493
 30
0.0
 10
159.8547
 20
-33.3152
 30
0.0
 10
159.8547
 20
-33.3152
 30
0.0
 10
159.8547
 20
-33.3152
 30
0.0
 10
159.8547
 20
-22.8834
 30
0.0
 10
159.8547
 20
-22.8834
 30
0.0
 10
159.8547
 20
-22.8834
 30
0.0
 10
159.8547
 20
-22.8834
 30
0.0
 10
149.5195
 20
-22.9551
 30
0.0
 10
149.5195
 20
-22.9551
 30
0.0
 10
149.5195
 20
-22.9551
 30
0.0
 10
148.3061
 20
-30.1268
 30
0.0
 10
143.4388
 20
-36.3705
 30
0.0
 10
134.3607
 20
-38.1421
 30
0.0
 10
134.3607
 20
-38.1421
 30
0.0
 10
134.3607
 20
-38.1421
 30
0.0
 10
134.2559
 20
-48.3919
 30
0.0
 10
134.2559
 20
-48.3919
 30
0.0
 10
134.2559
 20
-48.3919
 30
0.0
 10
134.2559
 20
-48.3919
 30
0.0
 10
144.6459
 20
-48.4913
 30
0.0
 10
144.6459
 20
-48.4913
 30
0.0
  0
SPLINE
  5
65
330
1F
100
AcDbEntity
  8
layer 1
 62
     7
100
AcDbSpline
210
0.0
220
0.0
230
1.0
 70
    11
 71
     3
 72
    28
 73
    24
 74
     0
 42
0.0000000001
 43
0.0000000001
 12
1.0
 22
0.0
 32
0.0
 13
1.0
 23
0.0
 33
0.0
 40
0.0
 40
0.0
 40
0.0
 40
0.0
 40
0.1428571428571428
 40
0.1428571428571428
 40
0.1428571428571428
 40
0.1428571428571428
 40
0.2857142857142857
 40
0.2857142857142857
 40
0.2857142857142857
 40
0.2857142857142857
 40
0.4285714285714285
 40
0.4285714285714285
 40
0.4285714285714285
 40
0.4285714285714285
 40
0.5714285714285714
 40
0.5714285714285714
 40
0.5714285714285714
 40
0.5714285714285714
 40
0.7142857142857143
 40
0.7142857142857143
 40
0.7142857142857143
 40
0.7142857142857143
 40
1.0
 40
1.0
 40
1.0
 40
1.0
 10
119.5167
 20
-48.4913
 30
0.0
 10
117.5898
 20
-39.3337
 30
0.0
 10
111.5928
 20
-34.8493
 30
0.0
 10
104.3079
 20
-33.3152
 30
0.0
 10
104.3079
 20
-33.3152
 30
0.0
 10
104.3079
 20
-33.3152
 30
0.0
 10
104.3079
 20
-22.8834
 30
0.0
 10
104.3079
 20
-22.8834
 30
0.0
 10
104.3079
 20
-22.8834
 30
0.0
 10
104.3079
 20
-22.8834
 30
0.0
 10
114.643
 20
-22.9551
 30
0.0
 10
114.643
 20
-22.9551
 30
0.0
 10
114.643
 20
-22.9551
 30
0.0
 10
115.8565
 20
-30.1268
 30
0.0
 10
120.7238
 20
-36.3705
 30
0.0
 10
129.8019
 20
-38.1421
 30
0.0
 10
129.8019
 20
-38.1421
 30
0.0
 10
129.8019
 20
-38.1421
 30
0.0
 10
129.9067
 20
-48.3919
 30
0.0
 10
129.9067
 20
-48.3919
 30
0.0
 10
129.9067
 20
-48.3919
 30
0.0
 10
129.9067
 20
-48.3919
 30
0.0
 10
119.5167
 20
-48.4913
 30
0.0
 10
119.5167
 20
-48.4913
 30
0.0
  0
SPLINE
  5
66
330
1F
100
AcDbEntity
  8
layer 1
 62
     7
100
AcDbSpline
210
0.0
220
0.0
230
1.0
 70
    11
 71
     3
 72
    28
 73
    24
 74
     0
 42
0.0000000001
 43
0.0000000001
 12
1.0
 22
0.0
 32
0.0
 13
1.0
 23
0.0
 33
0.0
 40
0.0
 40
0.0
 40
0.0
 40
0.0
 40
0.1428571428571428
 40
0.1428571428571428
 40
0.1428571428571428
 40
0.1428571428571428
 40
0.2857142857142857
 40
0.2857142857142857
 40
0.2857142857142857
 40
0.2857142857142857
 40
0.4285714285714285
 40
0.4285714285714285
 40
0.4285714285714285
 40
0.4285714285714285
 40
0.5714285714285714
 40
0.5714285714285714
 40
0.5714285714285714
 40
0.5714285714285714
 40
0.7142857142857143
 40
0.7142857142857143
 40
0.7142857142857143
 40
0.7142857142857143
 40
1.0
 40
1.0
 40
1.0
 40
1.0
 10
24.7241
 20
126.6785
 30
0.0
 10
26.6511
 20
117.5209
 30
0.0
 10
32.6481
 20
113.0364
 30
0.0
 10
39.9329
 20
111.5024
 30
0.0
 10
39.9329
 20
111.5024
 30
0.0
 10
39.9329
 20
111.5024
 30
0.0
 10
39.9329
 20
101.0705
 30
0.0
 10
39.9329
 20
101.0705
 30
0.0
 10
39.9329
 20
101.0705
 30
0.0
 10
39.9329
 20
101.0705
 30
0.0
 10
29.5978
 20
101.1422
 30
0.0
 10
29.5978
 20
101.1422
 30
0.0
 10
29.5978
 20
101.1422
 30
0.0
 10
28.3844
 20
108.314
 30
0.0
 10
23.5171
 20
114.5577
 30
0.0
 10
14.439
 20
116.3292
 30
0.0
 10
14.439
 20
116.3292
 30
0.0
 10
14.439
 20
116.3292
 30
0.0
 10
14.3342
 20
126.5791
 30
0.0
 10
14.3342
 20
126.5791
 30
0.0
 10
14.3342
 20
126.5791
 30
0.0
 10
14.3342
 20
126.5791
 30
0.0
 10
24.7241
 20
126.6785
 30
0.0
 10
24.7241
 20
126.6785
 30
0.0
  0
SPLINE
  5
67
330
1F
100
AcDbEntity
  8
layer 1
 62
     7
100
AcDbSpline
210
0.0
220
0.0
230
1.0
 70
    11
 71
     3
 72
    28
 73
    24
 74
     0
 42
0.0000000001
 43
0.0000000001
 12
1.0
 22
0.0
 32
0.0
 13
1.0
 23
0.0
 33
0.0
 40
0.0
 40
0.0
 40
0.0
 40
0.0
 40
0.1428571428571428
 40
0.1428571428571428
 40
0.1428571428571428
 40
0.1428571428571428
 40
0.2857142857142857
 40
0.2857142857142857
 40
0.2857142857142857
 40
0.2857142857142857
 40
0.4285714285714285
 40
0.4285714285714285
 40
0.4285714285714285
 40
0.4285714285714285
 40
0.5714285714285714
 40
0.5714285714285714
 40
0.5714285714285714
 40
0.5714285714285714
 40
0.7142857142857143
 40
0.7142857142857143
 40
0.7142857142857143
 40
0.7142857142857143
 40
1.0
 40
1.0
 40
1.0
 40
1.0
 10
59.7503
 20
126.6785
 30
0.0
 10
57.8234
 20
117.5209
 30
0.0
 10
51.8264
 20
113.0364
 30
0.0
 10
44.5415
 20
111.5024
 30
0.0
 10
44.5415
 20
111.5024
 30
0.0
 10
44.5415
 20
111.5024
 30
0.0
 10
44.5415
 20
101.0705
 30
0.0
 10
44.5415
 20
101.0705
 30
0.0
 10
44.5415
 20
101.0705
 30
0.0
 10
44.5415
 20
101.0705
 30
0.0
 10
54.8767
 20
101.1422
 30
0.0
 10
54.8767
 20
101.1422
 30
0.0
 10
54.8767
 20
101.1422
 30
0.0
 10
56.0901
 20
108.314
 30
0.0
 10
60.9574
 20
114.5577
 30
0.0
 10
70.0355
 20
116.3292
 30
0.0
 10
70.0355
 20
116.3292
 30
0.0
 10
70.0355
 20
116.3292
 30
0.0
 10
70.1403
 20
126.5791
 30
0.0
 10
70.1403
 20
126.5791
 30
0.0
 10
70.1403
 20
126.5791
 30
0.0
 10
70.1403
 20
126.5791
 30
0.0
 10
59.7503
 20
126.6785
 30
0.0
 10
59.7503
 20
126.6785
 30
0.0
  0
SPLINE
  5
68
330
1F
100
AcDbEntity
  8
layer 1
 62
     7
100
AcDbSpline
210
0.0
220
0.0
230
1.0
 70
    11
 71
     3
 72
    28
 73
    24
 74
     0
 42
0.0000000001
 43
0.0000000001
 12
1.0
 22
0.0
 32
0.0
 13
1.0
 23
0.0
 33
0.0
 40
0.0
 40
0.0
 40
0.0
 40
0.0
 40
0.1428571428571428
 40
0.1428571428571428
 40
0.1428571428571428
 40
0.1428571428571428
 40
0.2857142857142857
 40
0.2857142857142857
 40
0.2857142857142857
 40
0.2857142857142857
 40
0.4285714285714285
 40
0.4285714285714285
 40
0.4285714285714285
 40
0.4285714285714285
 40
0.5714285714285714
 40
0.5714285714285714
 40
0.5714285714285714
 40
0.5714285714285714
 40
0.7142857142857143
 40
0.7142857142857143
 40
0.7142857142857143
 40
0.7142857142857143
 40
1.0
 40
1.0
 40
1.0
 40
1.0
 10
84.8795
 20
126.6785
 30
0.0
 10
86.8064
 20
117.5209
 30
0.0
 10
92.8034
 20
113.0364
 30
0.0
 10
100.0883
 20
111.5024
 30
0.0
 10
100.0883
 20
111.5024
 30
0.0
 10
100.0883
 20
111.5024
 30
0.0
 10
100.0883
 20
101.0705
 30
0.0
 10
100.0883
 20
101.0705
 30
0.0
 10
100.0883
 20
101.0705
 30
0.0
 10
100.0883
 20
101.0705
 30
0.0
 10
89.7532
 20
101.1422
 30
0.0
 10
89.7532
 20
101.1422
 30
0.0
 10
89.7532
 20
101.1422
 30
0.0
 10
88.5397
 20
108.314
 30
0.0
 10
83.6724
 20
114.5577
 30
0.0
 10
74.5943
 20
116.3292
 30
0.0
 10
74.5943
 20
116.3292
 30
0.0
 10
74.5943
 20
116.3292
 30
0.0
 10
74.4895
 20
126.5791
 30
0.0
 10
74.4895
 20
126.5791
 30
0.0
 10
74.4895
 20
126.5791
 30
0.0
 10
74.4895
 20
126.5791
 30
0.0
 10
84.8795
 20
126.6785
 30
0.0
 10
84.8795
 20
126.6785
 30
0.0
  0
SPLINE
  5
69
330
1F
100
AcDbEntity
  8
layer 1
 62
     7
100
AcDbSpline
210
0.0
220
0.0
230
1.0
 70
    11
 71
     3
 72
    28
 73
    24
 74
     0
 42
0.0000000001
 43
0.0000000001
 12
1.0
 22
0.0
 32
0.0
 13
1.0
 23
0.0
 33
0.0
 40
0.0
 40
0.0
 40
0.0
 40
0.0
 40
0.1428571428571428
 40
0.1428571428571428
 40
0.1428571428571428
 40
0.1428571428571428
 40
0.2857142857142857
 40
0.2857142857142857
 40
0.2857142857142857
 40
0.2857142857142857
 40
0.4285714285714285
 40
0.4285714285714285
 40
0.4285714285714285
 40
0.4285714285714285
 40
0.5714285714285714
 40
0.5714285714285714
 40
0.5714285714285714
 40
0.5714285714285714
 40
0.7142857142857143
 40
0.7142857142857143
 40
0.7142857142857143
 40
0.7142857142857143
 40
1.0
 40
1.0
 40
1.0
 40
1.0
 10
24.7241
 20
71.126
 30
0.0
 10
26.6511
 20
80.2836
 30
0.0
 10
32.6481
 20
84.7681
 30
0.0
 10
39.9329
 20
86.3022
 30
0.0
 10
39.9329
 20
86.3022
 30
0.0
 10
39.9329
 20
86.3022
 30
0.0
 10
39.9329
 20
96.734
 30
0.0
 10
39.9329
 20
96.734
 30
0.0
 10
39.9329
 20
96.734
 30
0.0
 10
39.9329
 20
96.734
 30
0.0
 10
29.5978
 20
96.6623
 30
0.0
 10
29.5978
 20
96.6623
 30
0.0
 10
29.5978
 20
96.6623
 30
0.0
 10
28.3844
 20
89.4906
 30
0.0
 10
23.5171
 20
83.2468
 30
0.0
 10
14.439
 20
81.4753
 30
0.0
 10
14.439
 20
81.4753
 30
0.0
 10
14.439
 20
81.4753
 30
0.0
 10
14.3342
 20
71.2254
 30
0.0
 10
14.3342
 20
71.2254
 30
0.0
 10
14.3342
 20
71.2254
 30
0.0
 10
14.3342
 20
71.2254
 30
0.0
 10
24.7241
 20
71.126
 30
0.0
 10
24.7241
 20
71.126
 30
0.0
  0
SPLINE
  5
6A
330
1F
100
AcDbEntity
  8
layer 1
 62
     7
100
AcDbSpline
210
0.0
220
0.0
230
1.0
 70
    11
 71
     3
 72
    28
 73
    24
 74
     0
 42
0.0000000001
 43
0.0000000001
 12
1.0
 22
0.0
 32
0.0
 13
1.0
 23
0.0
 33
0.0
 40
0.0
 40
0.0
 40
0.0
 40
0.0
 40
0.1428571428571428
 40
0.1428571428571428
 40
0.1428571428571428
 40
0.1428571428571428
 40
0.2857142857142857
 40
0.2857142857142857
 40
0.2857142857142857
 40
0.2857142857142857
 40
0.4285714285714285
 40
0.4285714285714285
 40
0.4285714285714285
 40
0.4285714285714285
 40
0.5714285714285714
 40
0.5714285714285714
 40
0.5714285714285714
 40
0.5714285714285714
 40
0.7142857142857143
 40
0.7142857142857143
 40
0.7142857142857143
 40
0.7142857142857143
 40
1.0
 40
1.0
 40
1.0
 40
1.0
 10
59.7503
 20
71.126
 30
0.0
 10
57.8234
 20
80.2836
 30
0.0
 10
51.8264
 20
84.7681
 30
0.0
 10
44.5415
 20
86.3022
 30
0.0
 10
44.5415
 20
86.3022
 30
0.0
 10
44.5415
 20
86.3022
 30
0.0
 10
44.5415
 20
96.734
 30
0.0
 10
44.5415
 20
96.734
 30
0.0
 10
44.5415
 20
96.734
 30
0.0
 10
44.5415
 20
96.734
 30
0.0
 10
54.8767
 20
96.6623
 30
0.0
 10
54.8767
 20
96.6623
 30
0.0
 10
54.8767
 20
96.6623
 30
0.0
 10
56.0901
 20
89.4906
 30
0.0
 10
60.9574
 20
83.2468
 30
0.0
 10
70.0355
 20
81.4753
 30
0.0
 10
70.0355
 20
81.4753
 30
0.0
 10
70.0355
 20
81.4753
 30
0.0
 10
70.1403
 20
71.2254
 30
0.0
 10
70.1403
 20
71.2254
 30
0.0
 10
70.1403
 20
71.2254
 30
0.0
 10
70.1403
 20
71.2254
 30
0.0
 10
59.7503
 20
71.126
 30
0.0
 10
59.7503
 20
71.126
 30
0.0
  0
SPLINE
  5
6B
330
1F
100
AcDbEntity
  8
layer 1
 62
     7
100
AcDbSpline
210
0.0
220
0.0
230
1.0
 70
    11
 71
     3
 72
    28
 73
    24
 74
     0
 42
0.0000000001
 43
0.0000000001
 12
1.0
 22
0.0
 32
0.0
 13
1.0
 23
0.0
 33
0.0
 40
0.0
 40
0.0
 40
0.0
 40
0.0
 40
0.1428571428571428
 40
0.1428571428571428
 40
0.1428571428571428
 40
0.1428571428571428
 40
0.2857142857142857
 40
0.2857142857142857
 40
0.2857142857142857
 40
0.2857142857142857
 40
0.4285714285714285
 40
0.4285714285714285
 40
0.4285714285714285
 40
0.4285714285714285
 40
0.5714285714285714
 40
0.5714285714285714
 40
0.5714285714285714
 40
0.5714285714285714
 40
0.7142857142857143
 40
0.7142857142857143
 40
0.7142857142857143
 40
0.7142857142857143
 40
1.0
 40
1.0
 40
1.0
 40
1.0
 10
84.8795
 20
71.126
 30
0.0
 10
86.8064
 20
80.2836
 30
0.0
 10
92.8034
 20
84.7681
 30
0.0
 10
100.0883
 20
86.3022
 30
0.0
 10
100.0883
 20
86.3022
 30
0.0
 10
100.0883
 20
86.3022
 30
0.0
 10
100.0883
 20
96.734
 30
0.0
 10
100.0883
 20
96.734
 30
0.0
 10
100.0883
 20
96.734
 30
0.0
 10
100.0883
 20
96.734
 30
0.0
 10
89.7532
 20
96.6623
 30
0.0
 10
89.7532
 20
96.6623
 30
0.0
 10
89.7532
 20
96.6623
 30
0.0
 10
88.5397
 20
89.4906
 30
0.0
 10
83.6724
 20
83.2468
 30
0.0
 10
74.5943
 20
81.4753
 30
0.0
 10
74.5943
 20
81.4753
 30
0.0
 10
74.5943
 20
81.4753
 30
0.0
 10
74.4895
 20
71.2254
 30
0.0
 10
74.4895
 20
71.2254
 30
0.0
 10
74.4895
 20
71.2254
 30
0.0
 10
74.4895
 20
71.2254
 30
0.0
 10
84.8795
 20
71.126
 30
0.0
 10
84.8795
 20
71.126
 30
0.0
  0
SPLINE
  5
6C
330
1F
100
AcDbEntity
  8
layer 1
 62
     7
100
AcDbSpline
210
0.0
220
0.0
230
1.0
 70
    11
 71
     3
 72
    28
 73
    24
 74
     0
 42
0.0000000001
 43
0.0000000001
 12
1.0
 22
0.0
 32
0.0
 13
1.0
 23
0.0
 33
0.0
 40
0.0
 40
0.0
 40
0.0
 40
0.0
 40
0.1428571428571428
 40
0.1428571428571428
 40
0.1428571428571428
 40
0.1428571428571428
 40
0.2857142857142857
 40
0.2857142857142857
 40
0.2857142857142857
 40
0.2857142857142857
 40
0.4285714285714285
 40
0.4285714285714285
 40
0.4285714285714285
 40
0.4285714285714285
 40
0.5714285714285714
 40
0.5714285714285714
 40
0.5714285714285714
 40
0.5714285714285714
 40
0.7142857142857143
 40
0.7142857142857143
 40
0.7142857142857143
 40
0.7142857142857143
 40
1.0
 40
1.0
 40
1.0
 40
1.0
 10
179.6721
 20
125.9006
 30
0.0
 10
177.7451
 20
116.743
 30
0.0
 10
171.7481
 20
112.2586
 30
0.0
 10
164.4633
 20
110.7245
 30
0.0
 10
164.4633
 20
110.7245
 30
0.0
 10
164.4633
 20
110.7245
 30
0.0
 10
164.4633
 20
100.2927
 30
0.0
 10
164.4633
 20
100.2927
 30
0.0
 10
164.4633
 20
100.2927
 30
0.0
 10
164.4633
 20
100.2927
 30
0.0
 10
174.7984
 20
100.3644
 30
0.0
 10
174.7984
 20
100.3644
 30
0.0
 10
174.7984
 20
100.3644
 30
0.0
 10
176.0118
 20
107.5361
 30
0.0
 10
180.8791
 20
113.7798
 30
0.0
 10
189.9572
 20
115.5513
 30
0.0
 10
189.9572
 20
115.5513
 30
0.0
 10
189.9572
 20
115.5513
 30
0.0
 10
190.062
 20
125.8012
 30
0.0
 10
190.062
 20
125.8012
 30
0.0
 10
190.062
 20
125.8012
 30
0.0
 10
190.062
 20
125.8012
 30
0.0
 10
179.6721
 20
125.9006
 30
0.0
 10
179.6721
 20
125.9006
 30
0.0
  0
SPLINE
  5
6D
330
1F
100
AcDbEntity
  8
layer 1
 62
     7
100
AcDbSpline
210
0.0
220
0.0
230
1.0
 70
    11
 71
     3
 72
    28
 73
    24
 74
     0
 42
0.0000000001
 43
0.0000000001
 12
1.0
 22
0.0
 32
0.0
 13
1.0
 23
0.0
 33
0.0
 40
0.0
 40
0.0
 40
0.0
 40
0.0
 40
0.1428571428571428
 40
0.1428571428571428
 40
0.1428571428571428
 40
0.1428571428571428
 40
0.2857142857142857
 40
0.2857142857142857
 40
0.2857142857142857
 40
0.2857142857142857
 40
0.4285714285714285
 40
0.4285714285714285
 40
0.4285714285714285
 40
0.4285714285714285
 40
0.5714285714285714
 40
0.5714285714285714
 40
0.5714285714285714
 40
0.5714285714285714
 40
0.7142857142857143
 40
0.7142857142857143
 40
0.7142857142857143
 40
0.7142857142857143
 40
1.0
 40
1.0
 40
1.0
 40
1.0
 10
144.6459
 20
125.9006
 30
0.0
 10
146.5728
 20
116.743
 30
0.0
 10
152.5698
 20
112.2586
 30
0.0
 10
159.8547
 20
110.7245
 30
0.0
 10
159.8547
 20
110.7245
 30
0.0
 10
159.8547
 20
110.7245
 30
0.0
 10
159.8547
 20
100.2927
 30
0.0
 10
159.8547
 20
100.2927
 30
0.0
 10
159.8547
 20
100.2927
 30
0.0
 10
159.8547
 20
100.2927
 30
0.0
 10
149.5195
 20
100.3644
 30
0.0
 10
149.5195
 20
100.3644
 30
0.0
 10
149.5195
 20
100.3644
 30
0.0
 10
148.3061
 20
107.5361
 30
0.0
 10
143.4388
 20
113.7798
 30
0.0
 10
134.3607
 20
115.5513
 30
0.0
 10
134.3607
 20
115.5513
 30
0.0
 10
134.3607
 20
115.5513
 30
0.0
 10
134.2559
 20
125.8012
 30
0.0
 10
134.2559
 20
125.8012
 30
0.0
 10
134.2559
 20
125.8012
 30
0.0
 10
134.2559
 20
125.8012
 30
0.0
 10
144.6459
 20
125.9006
 30
0.0
 10
144.6459
 20
125.9006
 30
0.0
  0
SPLINE
  5
6E
330
1F
100
AcDbEntity
  8
layer 1
 62
     7
100
AcDbSpline
210
0.0
220
0.0
230
1.0
 70
    11
 71
     3
 72
    28
 73
    24
 74
     0
 42
0.0000000001
 43
0.0000000001
 12
1.0
 22
0.0
 32
0.0
 13
1.0
 23
0.0
 33
0.0
 40
0.0
 40
0.0
 40
0.0
 40
0.0
 40
0.1428571428571428
 40
0.1428571428571428
 40
0.1428571428571428
 40
0.1428571428571428
 40
0.2857142857142857
 40
0.2857142857142857
 40
0.2857142857142857
 40
0.2857142857142857
 40
0.4285714285714285
 40
0.4285714285714285
 40
0.4285714285714285
 40
0.4285714285714285
 40
0.5714285714285714
 40
0.5714285714285714
 40
0.5714285714285714
 40
0.5714285714285714
 40
0.7142857142857143
 40
0.7142857142857143
 40
0.7142857142857143
 40
0.7142857142857143
 40
1.0
 40
1.0
 40
1.0
 40
1.0
 10
119.5167
 20
125.9006
 30
0.0
 10
117.5898
 20
116.743
 30
0.0
 10
111.5928
 20
112.2586
 30
0.0
 10
104.3079
 20
110.7245
 30
0.0
 10
104.3079
 20
110.7245
 30
0.0
 10
104.3079
 20
110.7245
 30
0.0
 10
104.3079
 20
100.2927
 30
0.0
 10
104.3079
 20
100.2927
 30
0.0
 10
104.3079
 20
100.2927
 30
0.0
 10
104.3079
 20
100.2927
 30
0.0
 10
114.643
 20
100.3644
 30
0.0
 10
114.643
 20
100.3644
 30
0.0
 10
114.643
 20
100.3644
 30
0.0
 10
115.8565
 20
107.5361
 30
0.0
 10
120.7238
 20
113.7798
 30
0.0
 10
129.8019
 20
115.5513
 30
0.0
 10
129.8019
 20
115.5513
 30
0.0
 10
129.8019
 20
115.5513
 30
0.0
 10
129.9067
 20
125.8012
 30
0.0
 10
129.9067
 20
125.8012
 30
0.0
 10
129.9067
 20
125.8012
 30
0.0
 10
129.9067
 20
125.8012
 30
0.0
 10
119.5167
 20
125.9006
 30
0.0
 10
119.5167
 20
125.9006
 30
0.0
  0
SPLINE
  5
6F
330
1F
100
AcDbEntity
  8
layer 1
 62
     7
100
AcDbSpline
210
0.0
220
0.0
230
1.0
 70
    11
 71
     3
 72
    28
 73
    24
 74
     0
 42
0.0000000001
 43
0.0000000001
 12
1.0
 22
0.0
 32
0.0
 13
1.0
 23
0.0
 33
0.0
 40
0.0
 40
0.0
 40
0.0
 40
0.0
 40
0.1428571428571428
 40
0.1428571428571428
 40
0.1428571428571428
 40
0.1428571428571428
 40
0.2857142857142857
 40
0.2857142857142857
 40
0.2857142857142857
 40
0.2857142857142857
 40
0.4285714285714285
 40
0.4285714285714285
 40
0.4285714285714285
 40
0.4285714285714285
 40
0.5714285714285714
 40
0.5714285714285714
 40
0.5714285714285714
 40
0.5714285714285714
 40
0.7142857142857143
 40
0.7142857142857143
 40
0.7142857142857143
 40
0.7142857142857143
 40
1.0
 40
1.0
 40
1.0
 40
1.0
 10
179.6721
 20
70.3481
 30
0.0
 10
177.7451
 20
79.5058
 30
0.0
 10
171.7481
 20
83.9902
 30
0.0
 10
164.4633
 20
85.5243
 30
0.0
 10
164.4633
 20
85.5243
 30
0.0
 10
164.4633
 20
85.5243
 30
0.0
 10
164.4633
 20
95.9561
 30
0.0
 10
164.4633
 20
95.9561
 30
0.0
 10
164.4633
 20
95.9561
 30
0.0
 10
164.4633
 20
95.9561
 30
0.0
 10
174.7984
 20
95.8844
 30
0.0
 10
174.7984
 20
95.8844
 30
0.0
 10
174.7984
 20
95.8844
 30
0.0
 10
176.0118
 20
88.7127
 30
0.0
 10
180.8791
 20
82.469
 30
0.0
 10
189.9572
 20
80.6974
 30
0.0
 10
189.9572
 20
80.6974
 30
0.0
 10
189.9572
 20
80.6974
 30
0.0
 10
190.062
 20
70.4476
 30
0.0
 10
190.062
 20
70.4476
 30
0.0
 10
190.062
 20
70.4476
 30
0.0
 10
190.062
 20
70.4476
 30
0.0
 10
179.6721
 20
70.3481
 30
0.0
 10
179.6721
 20
70.3481
 30
0.0
  0
SPLINE
  5
70
330
1F
100
AcDbEntity
  8
layer 1
 62
     7
100
AcDbSpline
210
0.0
220
0.0
230
1.0
 70
    11
 71
     3
 72
    28
 73
    24
 74
     0
 42
0.0000000001
 43
0.0000000001
 12
1.0
 22
0.0
 32
0.0
 13
1.0
 23
0.0
 33
0.0
 40
0.0
 40
0.0
 40
0.0
 40
0.0
 40
0.1428571428571428
 40
0.1428571428571428
 40
0.1428571428571428
 40
0.1428571428571428
 40
0.2857142857142857
 40
0.2857142857142857
 40
0.2857142857142857
 40
0.2857142857142857
 40
0.4285714285714285
 40
0.4285714285714285
 40
0.4285714285714285
 40
0.4285714285714285
 40
0.5714285714285714
 40
0.5714285714285714
 40
0.5714285714285714
 40
0.5714285714285714
 40
0.7142857142857143
 40
0.7142857142857143
 40
0.7142857142857143
 40
0.7142857142857143
 40
1.0
 40
1.0
 40
1.0
 40
1.0
 10
144.6459
 20
70.3481
 30
0.0
 10
146.5728
 20
79.5058
 30
0.0
 10
152.5698
 20
83.9902
 30
0.0
 10
159.8547
 20
85.5243
 30
0.0
 10
159.8547
 20
85.5243
 30
0.0
 10
159.8547
 20
85.5243
 30
0.0
 10
159.8547
 20
95.9561
 30
0.0
 10
159.8547
 20
95.9561
 30
0.0
 10
159.8547
 20
95.9561
 30
0.0
 10
159.8547
 20
95.9561
 30
0.0
 10
149.5195
 20
95.8844
 30
0.0
 10
149.5195
 20
95.8844
 30
0.0
 10
149.5195
 20
95.8844
 30
0.0
 10
148.3061
 20
88.7127
 30
0.0
 10
143.4388
 20
82.469
 30
0.0
 10
134.3607
 20
80.6974
 30
0.0
 10
134.3607
 20
80.6974
 30
0.0
 10
134.3607
 20
80.6974
 30
0.0
 10
134.2559
 20
70.4476
 30
0.0
 10
134.2559
 20
70.4476
 30
0.0
 10
134.2559
 20
70.4476
 30
0.0
 10
134.2559
 20
70.4476
 30
0.0
 10
144.6459
 20
70.3481
 30
0.0
 10
144.6459
 20
70.3481
 30
0.0
  0
SPLINE
  5
71
330
1F
100
AcDbEntity
  8
layer 1
 62
     7
100
AcDbSpline
210
0.0
220
0.0
230
1.0
 70
    11
 71
     3
 72
    28
 73
    24
 74
     0
 42
0.0000000001
 43
0.0000000001
 12
1.0
 22
0.0
 32
0.0
 13
1.0
 23
0.0
 33
0.0
 40
0.0
 40
0.0
 40
0.0
 40
0.0
 40
0.1428571428571428
 40
0.1428571428571428
 40
0.1428571428571428
 40
0.1428571428571428
 40
0.2857142857142857
 40
0.2857142857142857
 40
0.2857142857142857
 40
0.2857142857142857
 40
0.4285714285714285
 40
0.4285714285714285
 40
0.4285714285714285
 40
0.4285714285714285
 40
0.5714285714285714
 40
0.5714285714285714
 40
0.5714285714285714
 40
0.5714285714285714
 40
0.7142857142857143
 40
0.7142857142857143
 40
0.7142857142857143
 40
0.7142857142857143
 40
1.0
 40
1.0
 40
1.0
 40
1.0
 10
119.5167
 20
70.3481
 30
0.0
 10
117.5898
 20
79.5058
 30
0.0
 10
111.5928
 20
83.9902
 30
0.0
 10
104.3079
 20
85.5243
 30
0.0
 10
104.3079
 20
85.5243
 30
0.0
 10
104.3079
 20
85.5243
 30
0.0
 10
104.3079
 20
95.9561
 30
0.0
 10
104.3079
 20
95.9561
 30
0.0
 10
104.3079
 20
95.9561
 30
0.0
 10
104.3079
 20
95.9561
 30
0.0
 10
114.643
 20
95.8844
 30
0.0
 10
114.643
 20
95.8844
 30
0.0
 10
114.643
 20
95.8844
 30
0.0
 10
115.8565
 20
88.7127
 30
0.0
 10
120.7238
 20
82.469
 30
0.0
 10
129.8019
 20
80.6974
 30
0.0
 10
129.8019
 20
80.6974
 30
0.0
 10
129.8019
 20
80.6974
 30
0.0
 10
129.9067
 20
70.4476
 30
0.0
 10
129.9067
 20
70.4476
 30
0.0
 10
129.9067
 20
70.4476
 30
0.0
 10
129.9067
 20
70.4476
 30
0.0
 10
119.5167
 20
70.3481
 30
0.0
 10
119.5167
 20
70.3481
 30
0.0
  0
ENDSEC
  0
SECTION
  2
OBJECTS
  0
DICTIONARY
  5
C
330
0
100
AcDbDictionary
281
     1
  3
ACAD_GROUP
350
D
  3
ACAD_LAYOUT
350
1A
  3
ACAD_MATERIAL
350
3B
  3
ACAD_MLEADERSTYLE
350
93
  3
ACAD_MLINESTYLE
350
17
  3
ACAD_PLOTSETTINGS
350
19
  3
ACAD_PLOTSTYLENAME
350
E
  3
ACAD_TABLESTYLE
350
92
  3
ACAD_VISUALSTYLE
350
2A
  0
DICTIONARY
  5
D
102
{ACAD_REACTORS
330
C
102
}
330
C
100
AcDbDictionary
281
     1
  0
DICTIONARY
  5
1A
102
{ACAD_REACTORS
330
C
102
}
330
C
100
AcDbDictionary
281
     1
  3
Layout1
350
1E
  3
Layout2
350
26
  3
Model
350
22
  0
DICTIONARY
  5
3B
102
{ACAD_REACTORS
330
C
102
}
330
C
100
AcDbDictionary
281
     1
  3
ByBlock
350
3D
  3
ByLayer
350
3C
  3
Global
350
3E
  0
DICTIONARY
  5
93
102
{ACAD_REACTORS
330
C
102
}
330
C
100
AcDbDictionary
281
     1
  0
DICTIONARY
  5
17
102
{ACAD_REACTORS
330
C
102
}
330
C
100
AcDbDictionary
281
     1
  3
Standard
350
18
  0
DICTIONARY
  5
19
102
{ACAD_REACTORS
330
C
102
}
330
C
100
AcDbDictionary
281
     1
  0
ACDBDICTIONARYWDFLT
  5
E
102
{ACAD_REACTORS
330
C
102
}
330
C
100
AcDbDictionary
281
     1
  3
Normal
350
F
100
AcDbDictionaryWithDefault
340
F
  0
DICTIONARY
  5
92
102
{ACAD_REACTORS
330
C
102
}
330
C
100
AcDbDictionary
281
     1
  0
DICTIONARY
  5
2A
102
{ACAD_REACTORS
330
C
102
}
330
C
100
AcDbDictionary
281
     1
  3
2dWireframe
350
2F
  3
3D Hidden
350
31
  3
3dWireframe
350
30
  3
Basic
350
32
  3
Brighten
350
36
  3
ColorChange
350
3A
  3
Conceptual
350
34
  3
Dim
350
35
  3
Facepattern
350
39
  3
Flat
350
2B
  3
FlatWithEdges
350
2C
  3
Gouraud
350
2D
  3
GouraudWithEdges
350
2E
  3
Linepattern
350
38
  3
Realistic
350
33
  3
Thicken
350
37
  0
LAYOUT
  5
1E
102
{ACAD_REACTORS
330
1A
102
}
330
1A
100
AcDbPlotSettings
  1

  2
none_device
  4

  6

 40
0.0
 41
0.0
 42
0.0
 43
0.0
 44
0.0
 45
0.0
 46
0.0
 47
0.0
 48
0.0
 49
0.0
140
0.0
141
0.0
142
1.0
143
1.0
 70
   688
 72
     0
 73
     0
 74
     5
  7

 75
    16
 76
     0
 77
     2
 78
   300
147
1.0
148
0.0
149
0.0
100
AcDbLayout
  1
Layout1
 70
     1
 71
     1
 10
0.0
 20
0.0
 11
12.0
 21
9.0
 12
0.0
 22
0.0
 32
0.0
 14
1.000000000000000E+20
 24
1.000000000000000E+20
 34
1.000000000000000E+20
 15
-1.000000000000000E+20
 25
-1.000000000000000E+20
 35
-1.000000000000000E+20
146
0.0
 13
0.0
 23
0.0
 33
0.0
 16
1.0
 26
0.0
 36
0.0
 17
0.0
 27
1.0
 37
0.0
 76
     0
330
1B
  0
LAYOUT
  5
26
102
{ACAD_REACTORS
330
1A
102
}
330
1A
100
AcDbPlotSettings
  1

  2
none_device
  4

  6

 40
0.0
 41
0.0
 42
0.0
 43
0.0
 44
0.0
 45
0.0
 46
0.0
 47
0.0
 48
0.0
 49
0.0
140
0.0
141
0.0
142
1.0
143
1.0
 70
   688
 72
     0
 73
     0
 74
     5
  7

 75
    16
 76
     0
 77
     2
 78
   300
147
1.0
148
0.0
149
0.0
100
AcDbLayout
  1
Layout2
 70
     1
 71
     2
 10
0.0
 20
0.0
 11
0.0
 21
0.0
 12
0.0
 22
0.0
 32
0.0
 14
0.0
 24
0.0
 34
0.0
 15
0.0
 25
0.0
 35
0.0
146
0.0
 13
0.0
 23
0.0
 33
0.0
 16
1.0
 26
0.0
 36
0.0
 17
0.0
 27
1.0
 37
0.0
 76
     0
330
23
  0
LAYOUT
  5
22
102
{ACAD_REACTORS
330
1A
102
}
330
1A
100
AcDbPlotSettings
  1

  2
none_device
  4

  6

 40
0.0
 41
0.0
 42
0.0
 43
0.0
 44
0.0
 45
0.0
 46
0.0
 47
0.0
 48
0.0
 49
0.0
140
0.0
141
0.0
142
1.0
143
1.0
 70
  1712
 72
     0
 73
     0
 74
     0
  7

 75
     0
 76
     0
 77
     2
 78
   300
147
1.0
148
0.0
149
0.0
100
AcDbLayout
  1
Model
 70
     1
 71
     0
 10
0.0
 20
0.0
 11
12.0
 21
9.0
 12
0.0
 22
0.0
 32
0.0
 14
8.0538
 24
-114.5793
 34
0.0
 15
196.3424
 25
131.8332
 35
0.0
146
0.0
 13
0.0
 23
0.0
 33
0.0
 16
1.0
 26
0.0
 36
0.0
 17
0.0
 27
1.0
 37
0.0
 76
     0
330
1F
331
29
  0
MATERIAL
  5
3D
102
{ACAD_REACTORS
330
3B
102
}
330
3B
100
AcDbMaterial
  1
ByBlock
 72
     1
 94
      127
  0
MATERIAL
  5
3C
102
{ACAD_REACTORS
330
3B
102
}
330
3B
100
AcDbMaterial
  1
ByLayer
 72
     1
 94
      127
  0
MATERIAL
  5
3E
102
{ACAD_REACTORS
330
3B
102
}
330
3B
100
AcDbMaterial
  1
Global
 72
     1
 94
      127
  0
MLINESTYLE
  5
18
102
{ACAD_REACTORS
330
17
102
}
330
17
100
AcDbMlineStyle
  2
Standard
 70
     0
  3

 62
   256
 51
90.0
 52
90.0
 71
     2
 49
0.5
 62
   256
  6
BYLAYER
 49
-0.5
 62
   256
  6
BYLAYER
  0
ACDBPLACEHOLDER
  5
F
102
{ACAD_REACTORS
330
E
102
}
330
E
  0
VISUALSTYLE
  5
2F
102
{ACAD_REACTORS
330
2A
102
}
102
{ACAD_XDICTIONARY
360
7A
102
}
330
2A
100
AcDbVisualStyle
  2
2dWireframe
 70
     4
 71
     0
 72
     2
 73
     0
 90
        0
 40
-0.6
 41
-30.0
 62
     5
 63
     7
421
 16777215
 74
     1
 91
        4
 64
     7
 65
   257
 75
     1
175
     1
 42
1.0
 92
        0
 66
   257
 43
1.0
 76
     1
 77
     6
 78
     2
 67
     7
 79
     5
170
     0
171
     0
290
     0
174
     0
 93
        1
 44
0.0
173
     0
291
     0
 45
0.0
  0
VISUALSTYLE
  5
31
102
{ACAD_REACTORS
330
2A
102
}
102
{ACAD_XDICTIONARY
360
7E
102
}
330
2A
100
AcDbVisualStyle
  2
3D Hidden
 70
     6
 71
     1
 72
     2
 73
     2
 90
        0
 40
-0.6
 41
-30.0
 62
     5
 63
     7
421
 16777215
 74
     2
 91
        2
 64
     7
 65
   257
 75
     2
175
     1
 42
40.0
 92
        0
 66
   257
 43
1.0
 76
     1
 77
     6
 78
     2
 67
     7
 79
     3
170
     0
171
     0
290
     0
174
     0
 93
        1
 44
0.0
173
     0
291
     0
 45
0.0
  0
VISUALSTYLE
  5
30
102
{ACAD_REACTORS
330
2A
102
}
102
{ACAD_XDICTIONARY
360
7C
102
}
330
2A
100
AcDbVisualStyle
  2
3dWireframe
 70
     5
 71
     0
 72
     2
 73
     0
 90
        0
 40
-0.6
 41
-30.0
 62
     5
 63
     7
421
 16777215
 74
     1
 91
        4
 64
     7
 65
   257
 75
     1
175
     1
 42
1.0
 92
        0
 66
   257
 43
1.0
 76
     1
 77
     6
 78
     2
 67
     7
 79
     5
170
     0
171
     0
290
     0
174
     0
 93
        1
 44
0.0
173
     0
291
     0
 45
0.0
  0
VISUALSTYLE
  5
32
102
{ACAD_REACTORS
330
2A
102
}
102
{ACAD_XDICTIONARY
360
80
102
}
330
2A
100
AcDbVisualStyle
  2
Basic
 70
     7
 71
     1
 72
     0
 73
     1
 90
        0
 40
-0.6
 41
-30.0
 62
     5
 63
     7
421
 16777215
 74
     0
 91
        4
 64
     7
 65
   257
 75
     1
175
     1
 42
1.0
 92
        8
 66
     7
 43
1.0
 76
     1
 77
     6
 78
     2
 67
     7
 79
     5
170
     0
171
     0
290
     0
174
     0
 93
        1
 44
0.0
173
     0
291
     1
 45
0.0
  0
VISUALSTYLE
  5
36
102
{ACAD_REACTORS
330
2A
102
}
102
{ACAD_XDICTIONARY
360
88
102
}
330
2A
100
AcDbVisualStyle
  2
Brighten
 70
    12
 71
     2
 72
     2
 73
     0
 90
        0
 40
-0.6
 41
-30.0
 62
     5
 63
     7
421
 16777215
 74
     1
 91
        4
 64
     7
 65
   257
 75
     1
175
     1
 42
1.0
 92
        8
 66
     7
 43
1.0
 76
     1
 77
     6
 78
     2
 67
     7
 79
     5
170
     0
171
     0
290
     0
174
     0
 93
        1
 44
50.0
173
     0
291
     1
 45
0.0
  0
VISUALSTYLE
  5
3A
102
{ACAD_REACTORS
330
2A
102
}
102
{ACAD_XDICTIONARY
360
90
102
}
330
2A
100
AcDbVisualStyle
  2
ColorChange
 70
    16
 71
     2
 72
     2
 73
     3
 90
        0
 40
-0.6
 41
-30.0
 62
     5
 63
     8
421
  8421504
 74
     1
 91
        4
 64
     7
 65
   257
 75
     1
175
     1
 42
1.0
 92
        8
 66
     8
424
  8421504
 43
1.0
 76
     1
 77
     6
 78
     2
 67
     7
 79
     5
170
     0
171
     0
290
     0
174
     0
 93
        1
 44
0.0
173
     0
291
     1
 45
0.0
  0
VISUALSTYLE
  5
34
102
{ACAD_REACTORS
330
2A
102
}
102
{ACAD_XDICTIONARY
360
84
102
}
330
2A
100
AcDbVisualStyle
  2
Conceptual
 70
     9
 71
     3
 72
     2
 73
     0
 90
        0
 40
-0.6
 41
-30.0
 62
     5
 63
     7
421
 16777215
 74
     2
 91
        2
 64
     7
 65
   257
 75
     1
175
     1
 42
40.0
 92
        8
 66
     7
 43
1.0
 76
     1
 77
     6
 78
     2
 67
     7
 79
     3
170
     0
171
     0
290
     0
174
     0
 93
        1
 44
0.0
173
     0
291
     0
 45
0.0
  0
VISUALSTYLE
  5
35
102
{ACAD_REACTORS
330
2A
102
}
102
{ACAD_XDICTIONARY
360
86
102
}
330
2A
100
AcDbVisualStyle
  2
Dim
 70
    11
 71
     2
 72
     2
 73
     0
 90
        0
 40
-0.6
 41
-30.0
 62
     5
 63
     7
421
 16777215
 74
     1
 91
        4
 64
     7
 65
   257
 75
     1
175
     1
 42
1.0
 92
        8
 66
     7
 43
1.0
 76
     1
 77
     6
 78
     2
 67
     7
 79
     5
170
     0
171
     0
290
     0
174
     0
 93
        1
 44
-50.0
173
     0
291
     1
 45
0.0
  0
VISUALSTYLE
  5
39
102
{ACAD_REACTORS
330
2A
102
}
102
{ACAD_XDICTIONARY
360
8E
102
}
330
2A
100
AcDbVisualStyle
  2
Facepattern
 70
    15
 71
     2
 72
     2
 73
     0
 90
        0
 40
-0.6
 41
-30.0
 62
     5
 63
     7
421
 16777215
 74
     1
 91
        4
 64
     7
 65
   257
 75
     1
175
     1
 42
1.0
 92
        8
 66
     7
 43
1.0
 76
     1
 77
     6
 78
     2
 67
     7
 79
     5
170
     0
171
     0
290
     0
174
     0
 93
        1
 44
0.0
173
     0
291
     1
 45
0.0
  0
VISUALSTYLE
  5
2B
102
{ACAD_REACTORS
330
2A
102
}
102
{ACAD_XDICTIONARY
360
72
102
}
330
2A
100
AcDbVisualStyle
  2
Flat
 70
     0
 71
     2
 72
     1
 73
     1
 90
        2
 40
-0.6
 41
30.0
 62
     5
 63
     7
421
 16777215
 74
     0
 91
        4
 64
     7
 65
   257
 75
     1
175
     1
 42
1.0
 92
        8
 66
     7
 43
1.0
 76
     1
 77
     6
 78
     2
 67
     7
 79
     5
170
     0
171
     0
290
     0
174
     0
 93
       13
 44
0.0
173
     0
291
     1
 45
0.0
  0
VISUALSTYLE
  5
2C
102
{ACAD_REACTORS
330
2A
102
}
102
{ACAD_XDICTIONARY
360
74
102
}
330
2A
100
AcDbVisualStyle
  2
FlatWithEdges
 70
     1
 71
     2
 72
     1
 73
     1
 90
        2
 40
-0.6
 41
30.0
 62
     5
 63
     7
421
 16777215
 74
     1
 91
        4
 64
     7
 65
   257
 75
     1
175
     1
 42
1.0
 92
        0
 66
   257
 43
1.0
 76
     1
 77
     6
 78
     2
 67
     7
 79
     5
170
     0
171
     0
290
     0
174
     0
 93
       13
 44
0.0
173
     0
291
     1
 45
0.0
  0
VISUALSTYLE
  5
2D
102
{ACAD_REACTORS
330
2A
102
}
102
{ACAD_XDICTIONARY
360
76
102
}
330
2A
100
AcDbVisualStyle
  2
Gouraud
 70
     2
 71
     2
 72
     2
 73
     1
 90
        2
 40
-0.6
 41
30.0
 62
     5
 63
     7
421
 16777215
 74
     0
 91
        4
 64
     7
 65
   257
 75
     1
175
     1
 42
1.0
 92
        0
 66
     7
 43
1.0
 76
     1
 77
     6
 78
     2
 67
     7
 79
     5
170
     0
171
     0
290
     0
174
     0
 93
       13
 44
0.0
173
     0
291
     1
 45
0.0
  0
VISUALSTYLE
  5
2E
102
{ACAD_REACTORS
330
2A
102
}
102
{ACAD_XDICTIONARY
360
78
102
}
330
2A
100
AcDbVisualStyle
  2
GouraudWithEdges
 70
     3
 71
     2
 72
     2
 73
     1
 90
        2
 40
-0.6
 41
30.0
 62
     5
 63
     7
421
 16777215
 74
     1
 91
        4
 64
     7
 65
   257
 75
     1
175
     1
 42
1.0
 92
        0
 66
   257
 43
1.0
 76
     1
 77
     6
 78
     2
 67
     7
 79
     5
170
     0
171
     0
290
     0
174
     0
 93
       13
 44
0.0
173
     0
291
     1
 45
0.0
  0
VISUALSTYLE
  5
38
102
{ACAD_REACTORS
330
2A
102
}
102
{ACAD_XDICTIONARY
360
8C
102
}
330
2A
100
AcDbVisualStyle
  2
Linepattern
 70
    14
 71
     2
 72
     2
 73
     0
 90
        0
 40
-0.6
 41
-30.0
 62
     5
 63
     7
421
 16777215
 74
     1
 91
        4
 64
     7
 65
   257
 75
     7
175
     7
 42
1.0
 92
        8
 66
     7
 43
1.0
 76
     1
 77
     6
 78
     2
 67
     7
 79
     5
170
     0
171
     0
290
     0
174
     0
 93
        1
 44
0.0
173
     0
291
     1
 45
0.0
  0
VISUALSTYLE
  5
33
102
{ACAD_REACTORS
330
2A
102
}
102
{ACAD_XDICTIONARY
360
82
102
}
330
2A
100
AcDbVisualStyle
  2
Realistic
 70
     8
 71
     2
 72
     2
 73
     0
 90
        0
 40
-0.6
 41
-30.0
 62
     5
 63
     7
421
 16777215
 74
     1
 91
        0
 64
     7
 65
   257
 75
     1
175
     1
 42
1.0
 92
        8
 66
     8
424
  7895160
 43
1.0
 76
     1
 77
     6
 78
     2
 67
     7
 79
     5
170
     0
171
     0
290
     0
174
     0
 93
       13
 44
0.0
173
     0
291
     0
 45
0.0
  0
VISUALSTYLE
  5
37
102
{ACAD_REACTORS
330
2A
102
}
102
{ACAD_XDICTIONARY
360
8A
102
}
330
2A
100
AcDbVisualStyle
  2
Thicken
 70
    13
 71
     2
 72
     2
 73
     0
 90
        0
 40
-0.6
 41
-30.0
 62
     5
 63
     7
421
 16777215
 74
     1
 91
        4
 64
     7
 65
   257
 75
     1
175
     1
 42
1.0
 92
       12
 66
     7
 43
1.0
 76
     1
 77
     6
 78
     2
 67
     7
 79
     5
170
     0
171
     0
290
     0
174
     0
 93
        1
 44
0.0
173
     0
291
     1
 45
0.0
  0
DICTIONARY
  5
7A
330
2F
100
AcDbDictionary
280
     1
281
     1
  3
ACAD_XREC_ROUNDTRIP
360
7B
  0
DICTIONARY
  5
7E
330
31
100
AcDbDictionary
280
     1
281
     1
  3
ACAD_XREC_ROUNDTRIP
360
7F
  0
DICTIONARY
  5
7C
330
30
100
AcDbDictionary
280
     1
281
     1
  3
ACAD_XREC_ROUNDTRIP
360
7D
  0
DICTIONARY
  5
80
330
32
100
AcDbDictionary
280
     1
281
     1
  3
ACAD_XREC_ROUNDTRIP
360
81
  0
DICTIONARY
  5
88
330
36
100
AcDbDictionary
280
     1
281
     1
  3
ACAD_XREC_ROUNDTRIP
360
89
  0
DICTIONARY
  5
90
330
3A
100
AcDbDictionary
280
     1
281
     1
  3
ACAD_XREC_ROUNDTRIP
360
91
  0
DICTIONARY
  5
84
330
34
100
AcDbDictionary
280
     1
281
     1
  3
ACAD_XREC_ROUNDTRIP
360
85
  0
DICTIONARY
  5
86
330
35
100
AcDbDictionary
280
     1
281
     1
  3
ACAD_XREC_ROUNDTRIP
360
87
  0
DICTIONARY
  5
8E
330
39
100
AcDbDictionary
280
     1
281
     1
  3
ACAD_XREC_ROUNDTRIP
360
8F
  0
DICTIONARY
  5
72
330
2B
100
AcDbDictionary
280
     1
281
     1
  3
ACAD_XREC_ROUNDTRIP
360
73
  0
DICTIONARY
  5
74
330
2C
100
AcDbDictionary
280
     1
281
     1
  3
ACAD_XREC_ROUNDTRIP
360
75
  0
DICTIONARY
  5
76
330
2D
100
AcDbDictionary
280
     1
281
     1
  3
ACAD_XREC_ROUNDTRIP
360
77
  0
DICTIONARY
  5
78
330
2E
100
AcDbDictionary
280
     1
281
     1
  3
ACAD_XREC_ROUNDTRIP
360
79
  0
DICTIONARY
  5
8C
330
38
100
AcDbDictionary
280
     1
281
     1
  3
ACAD_XREC_ROUNDTRIP
360
8D
  0
DICTIONARY
  5
82
330
33
100
AcDbDictionary
280
     1
281
     1
  3
ACAD_XREC_ROUNDTRIP
360
83
  0
DICTIONARY
  5
8A
330
37
100
AcDbDictionary
280
     1
281
     1
  3
ACAD_XREC_ROUNDTRIP
360
8B
  0
XRECORD
  5
7B
102
{ACAD_REACTORS
330
7A
102
}
330
7A
100
AcDbXrecord
280
     1
102
RTVSPropertyOp0
 70
     1
102
RTVSPropertyOp1
 70
     1
102
RTVSPropertyOp2
 70
     1
102
RTVSPropertyOp3
 70
     1
102
RTVSPropertyOp4
 70
     1
102
RTVSPropertyOp5
 70
     1
102
RTVSPropertyOp6
 70
     1
102
RTVSPropertyOp7
 70
     1
102
RTVSPropertyOp8
 70
     1
102
RTVSPropertyOp9
 70
     1
102
RTVSPropertyOp10
 70
     1
102
RTVSPropertyOp11
 70
     1
102
RTVSPropertyOp12
 70
     1
102
RTVSPropertyOp13
 70
     1
102
RTVSPropertyOp14
 70
     1
102
RTVSPropertyOp15
 70
     1
102
RTVSPropertyOp16
 70
     1
102
RTVSPropertyOp17
 70
     1
102
RTVSPropertyOp18
 70
     1
102
RTVSPropertyOp19
 70
     1
102
RTVSPropertyOp20
 70
     1
102
RTVSPropertyOp21
 70
     1
102
RTVSPropertyOp22
 70
     1
102
RTVSPropertyOp23
 70
     1
102
RTVSPropertyOp24
 70
     1
102
RTVSPropertyOp25
 70
     1
102
RTVSPropertyOp26
 70
     1
102
RTVSPropertyOp27
 70
     1
102
RTVSPropertyOp28
 70
     1
102
RTVSPropertyOp29
 70
     1
102
RTVSPropertyOp30
 70
     1
102
RTVSPropertyOp31
 70
     1
102
RTVSPropertyOp32
 70
     1
  0
XRECORD
  5
7F
102
{ACAD_REACTORS
330
7E
102
}
330
7E
100
AcDbXrecord
280
     1
102
RTVSPropertyOp0
 70
     1
102
RTVSPropertyOp1
 70
     1
102
RTVSPropertyOp2
 70
     1
102
RTVSPropertyOp3
 70
     1
102
RTVSPropertyOp4
 70
     1
102
RTVSPropertyOp5
 70
     1
102
RTVSPropertyOp6
 70
     1
102
RTVSPropertyOp7
 70
     1
102
RTVSPropertyOp8
 70
     1
102
RTVSPropertyOp9
 70
     1
102
RTVSPropertyOp10
 70
     1
102
RTVSPropertyOp11
 70
     1
102
RTVSPropertyOp12
 70
     1
102
RTVSPropertyOp13
 70
     1
102
RTVSPropertyOp14
 70
     1
102
RTVSPropertyOp15
 70
     1
102
RTVSPropertyOp16
 70
     1
102
RTVSPropertyOp17
 70
     1
102
RTVSPropertyOp18
 70
     1
102
RTVSPropertyOp19
 70
     1
102
RTVSPropertyOp20
 70
     1
102
RTVSPropertyOp21
 70
     1
102
RTVSPropertyOp22
 70
     1
102
RTVSPropertyOp23
 70
     1
102
RTVSPropertyOp24
 70
     1
102
RTVSPropertyOp25
 70
     1
102
RTVSPropertyOp26
 70
     1
102
RTVSPropertyOp27
 70
     1
102
RTVSPropertyOp28
 70
     1
102
RTVSPropertyOp29
 70
     1
102
RTVSPropertyOp30
 70
     1
102
RTVSPropertyOp31
 70
     1
102
RTVSPropertyOp32
 70
     1
  0
XRECORD
  5
7D
102
{ACAD_REACTORS
330
7C
102
}
330
7C
100
AcDbXrecord
280
     1
102
RTVSPropertyOp0
 70
     1
102
RTVSPropertyOp1
 70
     1
102
RTVSPropertyOp2
 70
     1
102
RTVSPropertyOp3
 70
     1
102
RTVSPropertyOp4
 70
     1
102
RTVSPropertyOp5
 70
     1
102
RTVSPropertyOp6
 70
     1
102
RTVSPropertyOp7
 70
     1
102
RTVSPropertyOp8
 70
     1
102
RTVSPropertyOp9
 70
     1
102
RTVSPropertyOp10
 70
     1
102
RTVSPropertyOp11
 70
     1
102
RTVSPropertyOp12
 70
     1
102
RTVSPropertyOp13
 70
     1
102
RTVSPropertyOp14
 70
     1
102
RTVSPropertyOp15
 70
     1
102
RTVSPropertyOp16
 70
     1
102
RTVSPropertyOp17
 70
     1
102
RTVSPropertyOp18
 70
     1
102
RTVSPropertyOp19
 70
     1
102
RTVSPropertyOp20
 70
     1
102
RTVSPropertyOp21
 70
     1
102
RTVSPropertyOp22
 70
     1
102
RTVSPropertyOp23
 70
     1
102
RTVSPropertyOp24
 70
     1
102
RTVSPropertyOp25
 70
     1
102
RTVSPropertyOp26
 70
     1
102
RTVSPropertyOp27
 70
     1
102
RTVSPropertyOp28
 70
     1
102
RTVSPropertyOp29
 70
     1
102
RTVSPropertyOp30
 70
     1
102
RTVSPropertyOp31
 70
     1
102
RTVSPropertyOp32
 70
     1
  0
XRECORD
  5
81
102
{ACAD_REACTORS
330
80
102
}
330
80
100
AcDbXrecord
280
     1
102
RTVSPropertyOp0
 70
     1
102
RTVSPropertyOp1
 70
     1
102
RTVSPropertyOp2
 70
     1
102
RTVSPropertyOp3
 70
     1
102
RTVSPropertyOp4
 70
     1
102
RTVSPropertyOp5
 70
     1
102
RTVSPropertyOp6
 70
     1
102
RTVSPropertyOp7
 70
     1
102
RTVSPropertyOp8
 70
     1
102
RTVSPropertyOp9
 70
     1
102
RTVSPropertyOp10
 70
     1
102
RTVSPropertyOp11
 70
     1
102
RTVSPropertyOp12
 70
     1
102
RTVSPropertyOp13
 70
     1
102
RTVSPropertyOp14
 70
     1
102
RTVSPropertyOp15
 70
     1
102
RTVSPropertyOp16
 70
     1
102
RTVSPropertyOp17
 70
     1
102
RTVSPropertyOp18
 70
     1
102
RTVSPropertyOp19
 70
     1
102
RTVSPropertyOp20
 70
     1
102
RTVSPropertyOp21
 70
     1
102
RTVSPropertyOp22
 70
     1
102
RTVSPropertyOp23
 70
     1
102
RTVSPropertyOp24
 70
     1
102
RTVSPropertyOp25
 70
     1
102
RTVSPropertyOp26
 70
     1
102
RTVSPropertyOp27
 70
     1
102
RTVSPropertyOp28
 70
     1
102
RTVSPropertyOp29
 70
     1
102
RTVSPropertyOp30
 70
     1
102
RTVSPropertyOp31
 70
     1
102
RTVSPropertyOp32
 70
     1
  0
XRECORD
  5
89
102
{ACAD_REACTORS
330
88
102
}
330
88
100
AcDbXrecord
280
     1
102
RTVSPropertyOp0
 70
     1
102
RTVSPropertyOp1
 70
     1
102
RTVSPropertyOp2
 70
     1
102
RTVSPropertyOp3
 70
     1
102
RTVSPropertyOp4
 70
     1
102
RTVSPropertyOp5
 70
     1
102
RTVSPropertyOp6
 70
     1
102
RTVSPropertyOp7
 70
     1
102
RTVSPropertyOp8
 70
     1
102
RTVSPropertyOp9
 70
     1
102
RTVSPropertyOp10
 70
     1
102
RTVSPropertyOp11
 70
     1
102
RTVSPropertyOp12
 70
     1
102
RTVSPropertyOp13
 70
     1
102
RTVSPropertyOp14
 70
     1
102
RTVSPropertyOp15
 70
     1
102
RTVSPropertyOp16
 70
     1
102
RTVSPropertyOp17
 70
     1
102
RTVSPropertyOp18
 70
     1
102
RTVSPropertyOp19
 70
     1
102
RTVSPropertyOp20
 70
     1
102
RTVSPropertyOp21
 70
     1
102
RTVSPropertyOp22
 70
     1
102
RTVSPropertyOp23
 70
     1
102
RTVSPropertyOp24
 70
     1
102
RTVSPropertyOp25
 70
     1
102
RTVSPropertyOp26
 70
     1
102
RTVSPropertyOp27
 70
     1
102
RTVSPropertyOp28
 70
     1
102
RTVSPropertyOp29
 70
     1
102
RTVSPropertyOp30
 70
     1
102
RTVSPropertyOp31
 70
     1
102
RTVSPropertyOp32
 70
     1
  0
XRECORD
  5
91
102
{ACAD_REACTORS
330
90
102
}
330
90
100
AcDbXrecord
280
     1
102
RTVSPropertyOp0
 70
     1
102
RTVSPropertyOp1
 70
     1
102
RTVSPropertyOp2
 70
     1
102
RTVSPropertyOp3
 70
     1
102
RTVSPropertyOp4
 70
     1
102
RTVSPropertyOp5
 70
     1
102
RTVSPropertyOp6
 70
     1
102
RTVSPropertyOp7
 70
     1
102
RTVSPropertyOp8
 70
     1
102
RTVSPropertyOp9
 70
     1
102
RTVSPropertyOp10
 70
     1
102
RTVSPropertyOp11
 70
     1
102
RTVSPropertyOp12
 70
     1
102
RTVSPropertyOp13
 70
     1
102
RTVSPropertyOp14
 70
     1
102
RTVSPropertyOp15
 70
     1
102
RTVSPropertyOp16
 70
     1
102
RTVSPropertyOp17
 70
     1
102
RTVSPropertyOp18
 70
     1
102
RTVSPropertyOp19
 70
     1
102
RTVSPropertyOp20
 70
     1
102
RTVSPropertyOp21
 70
     1
102
RTVSPropertyOp22
 70
     1
102
RTVSPropertyOp23
 70
     1
102
RTVSPropertyOp24
 70
     1
102
RTVSPropertyOp25
 70
     1
102
RTVSPropertyOp26
 70
     1
102
RTVSPropertyOp27
 70
     1
102
RTVSPropertyOp28
 70
     1
102
RTVSPropertyOp29
 70
     1
102
RTVSPropertyOp30
 70
     1
102
RTVSPropertyOp31
 70
     1
102
RTVSPropertyOp32
 70
     1
  0
XRECORD
  5
85
102
{ACAD_REACTORS
330
84
102
}
330
84
100
AcDbXrecord
280
     1
102
RTVSPropertyOp0
 70
     1
102
RTVSPropertyOp1
 70
     1
102
RTVSPropertyOp2
 70
     1
102
RTVSPropertyOp3
 70
     1
102
RTVSPropertyOp4
 70
     1
102
RTVSPropertyOp5
 70
     1
102
RTVSPropertyOp6
 70
     1
102
RTVSPropertyOp7
 70
     1
102
RTVSPropertyOp8
 70
     1
102
RTVSPropertyOp9
 70
     1
102
RTVSPropertyOp10
 70
     1
102
RTVSPropertyOp11
 70
     1
102
RTVSPropertyOp12
 70
     1
102
RTVSPropertyOp13
 70
     1
102
RTVSPropertyOp14
 70
     1
102
RTVSPropertyOp15
 70
     1
102
RTVSPropertyOp16
 70
     1
102
RTVSPropertyOp17
 70
     1
102
RTVSPropertyOp18
 70
     1
102
RTVSPropertyOp19
 70
     1
102
RTVSPropertyOp20
 70
     1
102
RTVSPropertyOp21
 70
     1
102
RTVSPropertyOp22
 70
     1
102
RTVSPropertyOp23
 70
     1
102
RTVSPropertyOp24
 70
     1
102
RTVSPropertyOp25
 70
     1
102
RTVSPropertyOp26
 70
     1
102
RTVSPropertyOp27
 70
     1
102
RTVSPropertyOp28
 70
     1
102
RTVSPropertyOp29
 70
     1
102
RTVSPropertyOp30
 70
     1
102
RTVSPropertyOp31
 70
     1
102
RTVSPropertyOp32
 70
     1
  0
XRECORD
  5
87
102
{ACAD_REACTORS
330
86
102
}
330
86
100
AcDbXrecord
280
     1
102
RTVSPropertyOp0
 70
     1
102
RTVSPropertyOp1
 70
     1
102
RTVSPropertyOp2
 70
     1
102
RTVSPropertyOp3
 70
     1
102
RTVSPropertyOp4
 70
     1
102
RTVSPropertyOp5
 70
     1
102
RTVSPropertyOp6
 70
     1
102
RTVSPropertyOp7
 70
     1
102
RTVSPropertyOp8
 70
     1
102
RTVSPropertyOp9
 70
     1
102
RTVSPropertyOp10
 70
     1
102
RTVSPropertyOp11
 70
     1
102
RTVSPropertyOp12
 70
     1
102
RTVSPropertyOp13
 70
     1
102
RTVSPropertyOp14
 70
     1
102
RTVSPropertyOp15
 70
     1
102
RTVSPropertyOp16
 70
     1
102
RTVSPropertyOp17
 70
     1
102
RTVSPropertyOp18
 70
     1
102
RTVSPropertyOp19
 70
     1
102
RTVSPropertyOp20
 70
     1
102
RTVSPropertyOp21
 70
     1
102
RTVSPropertyOp22
 70
     1
102
RTVSPropertyOp23
 70
     1
102
RTVSPropertyOp24
 70
     1
102
RTVSPropertyOp25
 70
     1
102
RTVSPropertyOp26
 70
     1
102
RTVSPropertyOp27
 70
     1
102
RTVSPropertyOp28
 70
     1
102
RTVSPropertyOp29
 70
     1
102
RTVSPropertyOp30
 70
     1
102
RTVSPropertyOp31
 70
     1
102
RTVSPropertyOp32
 70
     1
  0
XRECORD
  5
8F
102
{ACAD_REACTORS
330
8E
102
}
330
8E
100
AcDbXrecord
280
     1
102
RTVSPropertyOp0
 70
     1
102
RTVSPropertyOp1
 70
     1
102
RTVSPropertyOp2
 70
     1
102
RTVSPropertyOp3
 70
     1
102
RTVSPropertyOp4
 70
     1
102
RTVSPropertyOp5
 70
     1
102
RTVSPropertyOp6
 70
     1
102
RTVSPropertyOp7
 70
     1
102
RTVSPropertyOp8
 70
     1
102
RTVSPropertyOp9
 70
     1
102
RTVSPropertyOp10
 70
     1
102
RTVSPropertyOp11
 70
     1
102
RTVSPropertyOp12
 70
     1
102
RTVSPropertyOp13
 70
     1
102
RTVSPropertyOp14
 70
     1
102
RTVSPropertyOp15
 70
     1
102
RTVSPropertyOp16
 70
     1
102
RTVSPropertyOp17
 70
     1
102
RTVSPropertyOp18
 70
     1
102
RTVSPropertyOp19
 70
     1
102
RTVSPropertyOp20
 70
     1
102
RTVSPropertyOp21
 70
     1
102
RTVSPropertyOp22
 70
     1
102
RTVSPropertyOp23
 70
     1
102
RTVSPropertyOp24
 70
     1
102
RTVSPropertyOp25
 70
     1
102
RTVSPropertyOp26
 70
     1
102
RTVSPropertyOp27
 70
     1
102
RTVSPropertyOp28
 70
     1
102
RTVSPropertyOp29
 70
     1
102
RTVSPropertyOp30
 70
     1
102
RTVSPropertyOp31
 70
     1
102
RTVSPropertyOp32
 70
     1
  0
XRECORD
  5
73
102
{ACAD_REACTORS
330
72
102
}
330
72
100
AcDbXrecord
280
     1
102
RTVSPropertyOp0
 70
     1
102
RTVSPropertyOp1
 70
     1
102
RTVSPropertyOp2
 70
     1
102
RTVSPropertyOp3
 70
     1
102
RTVSPropertyOp4
 70
     1
102
RTVSPropertyOp5
 70
     1
102
RTVSPropertyOp6
 70
     1
102
RTVSPropertyOp7
 70
     1
102
RTVSPropertyOp8
 70
     1
102
RTVSPropertyOp9
 70
     1
102
RTVSPropertyOp10
 70
     1
102
RTVSPropertyOp11
 70
     1
102
RTVSPropertyOp12
 70
     1
102
RTVSPropertyOp13
 70
     1
102
RTVSPropertyOp14
 70
     1
102
RTVSPropertyOp15
 70
     1
102
RTVSPropertyOp16
 70
     1
102
RTVSPropertyOp17
 70
     1
102
RTVSPropertyOp18
 70
     1
102
RTVSPropertyOp19
 70
     1
102
RTVSPropertyOp20
 70
     1
102
RTVSPropertyOp21
 70
     1
102
RTVSPropertyOp22
 70
     1
102
RTVSPropertyOp23
 70
     1
102
RTVSPropertyOp24
 70
     1
102
RTVSPropertyOp25
 70
     1
102
RTVSPropertyOp26
 70
     1
102
RTVSPropertyOp27
 70
     1
102
RTVSPropertyOp28
 70
     1
102
RTVSPropertyOp29
 70
     1
102
RTVSPropertyOp30
 70
     1
102
RTVSPropertyOp31
 70
     1
102
RTVSPropertyOp32
 70
     1
  0
XRECORD
  5
75
102
{ACAD_REACTORS
330
74
102
}
330
74
100
AcDbXrecord
280
     1
102
RTVSPropertyOp0
 70
     1
102
RTVSPropertyOp1
 70
     1
102
RTVSPropertyOp2
 70
     1
102
RTVSPropertyOp3
 70
     1
102
RTVSPropertyOp4
 70
     1
102
RTVSPropertyOp5
 70
     1
102
RTVSPropertyOp6
 70
     1
102
RTVSPropertyOp7
 70
     1
102
RTVSPropertyOp8
 70
     1
102
RTVSPropertyOp9
 70
     1
102
RTVSPropertyOp10
 70
     1
102
RTVSPropertyOp11
 70
     1
102
RTVSPropertyOp12
 70
     1
102
RTVSPropertyOp13
 70
     1
102
RTVSPropertyOp14
 70
     1
102
RTVSPropertyOp15
 70
     1
102
RTVSPropertyOp16
 70
     1
102
RTVSPropertyOp17
 70
     1
102
RTVSPropertyOp18
 70
     1
102
RTVSPropertyOp19
 70
     1
102
RTVSPropertyOp20
 70
     1
102
RTVSPropertyOp21
 70
     1
102
RTVSPropertyOp22
 70
     1
102
RTVSPropertyOp23
 70
     1
102
RTVSPropertyOp24
 70
     1
102
RTVSPropertyOp25
 70
     1
102
RTVSPropertyOp26
 70
     1
102
RTVSPropertyOp27
 70
     1
102
RTVSPropertyOp28
 70
     1
102
RTVSPropertyOp29
 70
     1
102
RTVSPropertyOp30
 70
     1
102
RTVSPropertyOp31
 70
     1
102
RTVSPropertyOp32
 70
     1
  0
XRECORD
  5
77
102
{ACAD_REACTORS
330
76
102
}
330
76
100
AcDbXrecord
280
     1
102
RTVSPropertyOp0
 70
     1
102
RTVSPropertyOp1
 70
     1
102
RTVSPropertyOp2
 70
     1
102
RTVSPropertyOp3
 70
     1
102
RTVSPropertyOp4
 70
     1
102
RTVSPropertyOp5
 70
     1
102
RTVSPropertyOp6
 70
     1
102
RTVSPropertyOp7
 70
     1
102
RTVSPropertyOp8
 70
     1
102
RTVSPropertyOp9
 70
     1
102
RTVSPropertyOp10
 70
     1
102
RTVSPropertyOp11
 70
     1
102
RTVSPropertyOp12
 70
     1
102
RTVSPropertyOp13
 70
     1
102
RTVSPropertyOp14
 70
     1
102
RTVSPropertyOp15
 70
     1
102
RTVSPropertyOp16
 70
     1
102
RTVSPropertyOp17
 70
     1
102
RTVSPropertyOp18
 70
     1
102
RTVSPropertyOp19
 70
     1
102
RTVSPropertyOp20
 70
     1
102
RTVSPropertyOp21
 70
     1
102
RTVSPropertyOp22
 70
     1
102
RTVSPropertyOp23
 70
     1
102
RTVSPropertyOp24
 70
     1
102
RTVSPropertyOp25
 70
     1
102
RTVSPropertyOp26
 70
     1
102
RTVSPropertyOp27
 70
     1
102
RTVSPropertyOp28
 70
     1
102
RTVSPropertyOp29
 70
     1
102
RTVSPropertyOp30
 70
     1
102
RTVSPropertyOp31
 70
     1
102
RTVSPropertyOp32
 70
     1
  0
XRECORD
  5
79
102
{ACAD_REACTORS
330
78
102
}
330
78
100
AcDbXrecord
280
     1
102
RTVSPropertyOp0
 70
     1
102
RTVSPropertyOp1
 70
     1
102
RTVSPropertyOp2
 70
     1
102
RTVSPropertyOp3
 70
     1
102
RTVSPropertyOp4
 70
     1
102
RTVSPropertyOp5
 70
     1
102
RTVSPropertyOp6
 70
     1
102
RTVSPropertyOp7
 70
     1
102
RTVSPropertyOp8
 70
     1
102
RTVSPropertyOp9
 70
     1
102
RTVSPropertyOp10
 70
     1
102
RTVSPropertyOp11
 70
     1
102
RTVSPropertyOp12
 70
     1
102
RTVSPropertyOp13
 70
     1
102
RTVSPropertyOp14
 70
     1
102
RTVSPropertyOp15
 70
     1
102
RTVSPropertyOp16
 70
     1
102
RTVSPropertyOp17
 70
     1
102
RTVSPropertyOp18
 70
     1
102
RTVSPropertyOp19
 70
     1
102
RTVSPropertyOp20
 70
     1
102
RTVSPropertyOp21
 70
     1
102
RTVSPropertyOp22
 70
     1
102
RTVSPropertyOp23
 70
     1
102
RTVSPropertyOp24
 70
     1
102
RTVSPropertyOp25
 70
     1
102
RTVSPropertyOp26
 70
     1
102
RTVSPropertyOp27
 70
     1
102
RTVSPropertyOp28
 70
     1
102
RTVSPropertyOp29
 70
     1
102
RTVSPropertyOp30
 70
     1
102
RTVSPropertyOp31
 70
     1
102
RTVSPropertyOp32
 70
     1
  0
XRECORD
  5
8D
102
{ACAD_REACTORS
330
8C
102
}
330
8C
100
AcDbXrecord
280
     1
102
RTVSPropertyOp0
 70
     1
102
RTVSPropertyOp1
 70
     1
102
RTVSPropertyOp2
 70
     1
102
RTVSPropertyOp3
 70
     1
102
RTVSPropertyOp4
 70
     1
102
RTVSPropertyOp5
 70
     1
102
RTVSPropertyOp6
 70
     1
102
RTVSPropertyOp7
 70
     1
102
RTVSPropertyOp8
 70
     1
102
RTVSPropertyOp9
 70
     1
102
RTVSPropertyOp10
 70
     1
102
RTVSPropertyOp11
 70
     1
102
RTVSPropertyOp12
 70
     1
102
RTVSPropertyOp13
 70
     1
102
RTVSPropertyOp14
 70
     1
102
RTVSPropertyOp15
 70
     1
102
RTVSPropertyOp16
 70
     1
102
RTVSPropertyOp17
 70
     1
102
RTVSPropertyOp18
 70
     1
102
RTVSPropertyOp19
 70
     1
102
RTVSPropertyOp20
 70
     1
102
RTVSPropertyOp21
 70
     1
102
RTVSPropertyOp22
 70
     1
102
RTVSPropertyOp23
 70
     1
102
RTVSPropertyOp24
 70
     1
102
RTVSPropertyOp25
 70
     1
102
RTVSPropertyOp26
 70
     1
102
RTVSPropertyOp27
 70
     1
102
RTVSPropertyOp28
 70
     1
102
RTVSPropertyOp29
 70
     1
102
RTVSPropertyOp30
 70
     1
102
RTVSPropertyOp31
 70
     1
102
RTVSPropertyOp32
 70
     1
  0
XRECORD
  5
83
102
{ACAD_REACTORS
330
82
102
}
330
82
100
AcDbXrecord
280
     1
102
RTVSPropertyOp0
 70
     1
102
RTVSPropertyOp1
 70
     1
102
RTVSPropertyOp2
 70
     1
102
RTVSPropertyOp3
 70
     1
102
RTVSPropertyOp4
 70
     1
102
RTVSPropertyOp5
 70
     1
102
RTVSPropertyOp6
 70
     1
102
RTVSPropertyOp7
 70
     1
102
RTVSPropertyOp8
 70
     1
102
RTVSPropertyOp9
 70
     1
102
RTVSPropertyOp10
 70
     1
102
RTVSPropertyOp11
 70
     1
102
RTVSPropertyOp12
 70
     1
102
RTVSPropertyOp13
 70
     1
102
RTVSPropertyOp14
 70
     1
102
RTVSPropertyOp15
 70
     1
102
RTVSPropertyOp16
 70
     1
102
RTVSPropertyOp17
 70
     1
102
RTVSPropertyOp18
 70
     1
102
RTVSPropertyOp19
 70
     1
102
RTVSPropertyOp20
 70
     1
102
RTVSPropertyOp21
 70
     1
102
RTVSPropertyOp22
 70
     1
102
RTVSPropertyOp23
 70
     1
102
RTVSPropertyOp24
 70
     1
102
RTVSPropertyOp25
 70
     1
102
RTVSPropertyOp26
 70
     1
102
RTVSPropertyOp27
 70
     1
102
RTVSPropertyOp28
 70
     1
102
RTVSPropertyOp29
 70
     1
102
RTVSPropertyOp30
 70
     1
102
RTVSPropertyOp31
 70
     1
102
RTVSPropertyOp32
 70
     1
  0
XRECORD
  5
8B
102
{ACAD_REACTORS
330
8A
102
}
330
8A
100
AcDbXrecord
280
     1
102
RTVSPropertyOp0
 70
     1
102
RTVSPropertyOp1
 70
     1
102
RTVSPropertyOp2
 70
     1
102
RTVSPropertyOp3
 70
     1
102
RTVSPropertyOp4
 70
     1
102
RTVSPropertyOp5
 70
     1
102
RTVSPropertyOp6
 70
     1
102
RTVSPropertyOp7
 70
     1
102
RTVSPropertyOp8
 70
     1
102
RTVSPropertyOp9
 70
     1
102
RTVSPropertyOp10
 70
     1
102
RTVSPropertyOp11
 70
     1
102
RTVSPropertyOp12
 70
     1
102
RTVSPropertyOp13
 70
     1
102
RTVSPropertyOp14
 70
     1
102
RTVSPropertyOp15
 70
     1
102
RTVSPropertyOp16
 70
     1
102
RTVSPropertyOp17
 70
     1
102
RTVSPropertyOp18
 70
     1
102
RTVSPropertyOp19
 70
     1
102
RTVSPropertyOp20
 70
     1
102
RTVSPropertyOp21
 70
     1
102
RTVSPropertyOp22
 70
     1
102
RTVSPropertyOp23
 70
     1
102
RTVSPropertyOp24
 70
     1
102
RTVSPropertyOp25
 70
     1
102
RTVSPropertyOp26
 70
     1
102
RTVSPropertyOp27
 70
     1
102
RTVSPropertyOp28
 70
     1
102
RTVSPropertyOp29
 70
     1
102
RTVSPropertyOp30
 70
     1
102
RTVSPropertyOp31
 70
     1
102
RTVSPropertyOp32
 70
     1
  0
ENDSEC
  0
EOF
