  0
SECTION
  2
HEADER
  9
$ACADVER
  1
AC1021
  9
$ACADMAINTVER
 70
    25
  9
$DWGCODEPAGE
  3
ANSI_1256
  9
$INSBASE
 10
0.0
 20
0.0
 30
0.0
  9
$EXTMIN
 10
-187.4042
 20
-114.9907
 30
0.0
  9
$EXTMAX
 10
-53.8887
 20
131.7988
 30
0.0
  9
$LIMMIN
 10
0.0
 20
0.0
  9
$LIMMAX
 10
12.0
 20
9.0
  9
$ORTHOMODE
 70
     0
  9
$REGENMODE
 70
     1
  9
$FILLMODE
 70
     1
  9
$QTEXTMODE
 70
     0
  9
$MIRRTEXT
 70
     1
  9
$LTSCALE
 40
1.0
  9
$ATTMODE
 70
     1
  9
$TEXTSIZE
 40
0.2
  9
$TRACEWID
 40
0.05
  9
$TEXTSTYLE
  7
Standard
  9
$CLAYER
  8
0
  9
$CELTYPE
  6
ByLayer
  9
$CECOLOR
 62
   256
  9
$CELTSCALE
 40
1.0
  9
$DISPSILH
 70
     0
  9
$DIMSCALE
 40
1.0
  9
$DIMASZ
 40
0.18
  9
$DIMEXO
 40
0.0625
  9
$DIMDLI
 40
0.38
  9
$DIMRND
 40
0.0
  9
$DIMDLE
 40
0.0
  9
$DIMEXE
 40
0.18
  9
$DIMTP
 40
0.0
  9
$DIMTM
 40
0.0
  9
$DIMTXT
 40
0.18
  9
$DIMCEN
 40
0.09
  9
$DIMTSZ
 40
0.0
  9
$DIMTOL
 70
     0
  9
$DIMLIM
 70
     0
  9
$DIMTIH
 70
     1
  9
$DIMTOH
 70
     1
  9
$DIMSE1
 70
     0
  9
$DIMSE2
 70
     0
  9
$DIMTAD
 70
     0
  9
$DIMZIN
 70
     0
  9
$DIMBLK
  1

  9
$DIMASO
 70
     1
  9
$DIMSHO
 70
     1
  9
$DIMPOST
  1

  9
$DIMAPOST
  1

  9
$DIMALT
 70
     0
  9
$DIMALTD
 70
     2
  9
$DIMALTF
 40
25.4
  9
$DIMLFAC
 40
1.0
  9
$DIMTOFL
 70
     0
  9
$DIMTVP
 40
0.0
  9
$DIMTIX
 70
     0
  9
$DIMSOXD
 70
     0
  9
$DIMSAH
 70
     0
  9
$DIMBLK1
  1

  9
$DIMBLK2
  1

  9
$DIMSTYLE
  2
Standard
  9
$DIMCLRD
 70
     0
  9
$DIMCLRE
 70
     0
  9
$DIMCLRT
 70
     0
  9
$DIMTFAC
 40
1.0
  9
$DIMGAP
 40
0.09
  9
$DIMJUST
 70
     0
  9
$DIMSD1
 70
     0
  9
$DIMSD2
 70
     0
  9
$DIMTOLJ
 70
     1
  9
$DIMTZIN
 70
     0
  9
$DIMALTZ
 70
     0
  9
$DIMALTTZ
 70
     0
  9
$DIMUPT
 70
     0
  9
$DIMDEC
 70
     4
  9
$DIMTDEC
 70
     4
  9
$DIMALTU
 70
     2
  9
$DIMALTTD
 70
     2
  9
$DIMTXSTY
  7
Standard
  9
$DIMAUNIT
 70
     0
  9
$DIMADEC
 70
     0
  9
$DIMALTRND
 40
0.0
  9
$DIMAZIN
 70
     0
  9
$DIMDSEP
 70
    46
  9
$DIMATFIT
 70
     3
  9
$DIMFRAC
 70
     0
  9
$DIMLDRBLK
  1

  9
$DIMLUNIT
 70
     2
  9
$DIMLWD
 70
    -2
  9
$DIMLWE
 70
    -2
  9
$DIMTMOVE
 70
     0
  9
$DIMFXL
 40
1.0
  9
$DIMFXLON
 70
     0
  9
$DIMJOGANG
 40
0.7853981633974483
  9
$DIMTFILL
 70
     0
  9
$DIMTFILLCLR
 70
     0
  9
$DIMARCSYM
 70
     0
  9
$DIMLTYPE
  6

  9
$DIMLTEX1
  6

  9
$DIMLTEX2
  6

  9
$LUNITS
 70
     2
  9
$LUPREC
 70
     4
  9
$SKETCHINC
 40
0.1
  9
$FILLETRAD
 40
0.5
  9
$AUNITS
 70
     0
  9
$AUPREC
 70
     0
  9
$MENU
  1
.
  9
$ELEVATION
 40
0.0
  9
$PELEVATION
 40
0.0
  9
$THICKNESS
 40
0.0
  9
$LIMCHECK
 70
     0
  9
$CHAMFERA
 40
0.5
  9
$CHAMFERB
 40
0.5
  9
$CHAMFERC
 40
1.0
  9
$CHAMFERD
 40
0.0
  9
$SKPOLY
 70
     0
  9
$TDCREATE
 40
2458492.401681053
  9
$TDUCREATE
 40
2458492.235014386
  9
$TDUPDATE
 40
2458492.401681297
  9
$TDUUPDATE
 40
2458492.23501463
  9
$TDINDWG
 40
0.0000000116
  9
$TDUSRTIMER
 40
0.0000000116
  9
$USRTIMER
 70
     1
  9
$ANGBASE
 50
0.0
  9
$ANGDIR
 70
     0
  9
$PDMODE
 70
     0
  9
$PDSIZE
 40
0.0
  9
$PLINEWID
 40
0.0
  9
$SPLFRAME
 70
     0
  9
$SPLINETYPE
 70
     6
  9
$SPLINESEGS
 70
     8
  9
$HANDSEED
  5
12C
  9
$SURFTAB1
 70
     6
  9
$SURFTAB2
 70
     6
  9
$SURFTYPE
 70
     6
  9
$SURFU
 70
     6
  9
$SURFV
 70
     6
  9
$UCSBASE
  2

  9
$UCSNAME
  2

  9
$UCSORG
 10
0.0
 20
0.0
 30
0.0
  9
$UCSXDIR
 10
1.0
 20
0.0
 30
0.0
  9
$UCSYDIR
 10
0.0
 20
1.0
 30
0.0
  9
$UCSORTHOREF
  2

  9
$UCSORTHOVIEW
 70
     0
  9
$UCSORGTOP
 10
0.0
 20
0.0
 30
0.0
  9
$UCSORGBOTTOM
 10
0.0
 20
0.0
 30
0.0
  9
$UCSORGLEFT
 10
0.0
 20
0.0
 30
0.0
  9
$UCSORGRIGHT
 10
0.0
 20
0.0
 30
0.0
  9
$UCSORGFRONT
 10
0.0
 20
0.0
 30
0.0
  9
$UCSORGBACK
 10
0.0
 20
0.0
 30
0.0
  9
$PUCSBASE
  2

  9
$PUCSNAME
  2

  9
$PUCSORG
 10
0.0
 20
0.0
 30
0.0
  9
$PUCSXDIR
 10
1.0
 20
0.0
 30
0.0
  9
$PUCSYDIR
 10
0.0
 20
1.0
 30
0.0
  9
$PUCSORTHOREF
  2

  9
$PUCSORTHOVIEW
 70
     0
  9
$PUCSORGTOP
 10
0.0
 20
0.0
 30
0.0
  9
$PUCSORGBOTTOM
 10
0.0
 20
0.0
 30
0.0
  9
$PUCSORGLEFT
 10
0.0
 20
0.0
 30
0.0
  9
$PUCSORGRIGHT
 10
0.0
 20
0.0
 30
0.0
  9
$PUCSORGFRONT
 10
0.0
 20
0.0
 30
0.0
  9
$PUCSORGBACK
 10
0.0
 20
0.0
 30
0.0
  9
$USERI1
 70
     0
  9
$USERI2
 70
     0
  9
$USERI3
 70
     0
  9
$USERI4
 70
     0
  9
$USERI5
 70
     0
  9
$USERR1
 40
0.0
  9
$USERR2
 40
0.0
  9
$USERR3
 40
0.0
  9
$USERR4
 40
0.0
  9
$USERR5
 40
0.0
  9
$WORLDVIEW
 70
     1
  9
$SHADEDGE
 70
     3
  9
$SHADEDIF
 70
    70
  9
$TILEMODE
 70
     1
  9
$MAXACTVP
 70
    64
  9
$PINSBASE
 10
0.0
 20
0.0
 30
0.0
  9
$PLIMCHECK
 70
     0
  9
$PEXTMIN
 10
1.000000000000000E+20
 20
1.000000000000000E+20
 30
1.000000000000000E+20
  9
$PEXTMAX
 10
-1.000000000000000E+20
 20
-1.000000000000000E+20
 30
-1.000000000000000E+20
  9
$PLIMMIN
 10
0.0
 20
0.0
  9
$PLIMMAX
 10
12.0
 20
9.0
  9
$UNITMODE
 70
     0
  9
$VISRETAIN
 70
     1
  9
$PLINEGEN
 70
     0
  9
$PSLTSCALE
 70
     1
  9
$TREEDEPTH
 70
  3020
  9
$CMLSTYLE
  2
Standard
  9
$CMLJUST
 70
     0
  9
$CMLSCALE
 40
1.0
  9
$PROXYGRAPHICS
 70
     1
  9
$MEASUREMENT
 70
     0
  9
$CELWEIGHT
370
    -1
  9
$ENDCAPS
280
     0
  9
$JOINSTYLE
280
     0
  9
$LWDISPLAY
290
     0
  9
$INSUNITS
 70
     4
  9
$HYPERLINKBASE
  1

  9
$STYLESHEET
  1

  9
$XEDIT
290
     1
  9
$CEPSNTYPE
380
     0
  9
$PSTYLEMODE
290
     1
  9
$FINGERPRINTGUID
  2
{4828C7E0-CA9F-4338-B6FE-F47291FBBBD7}
  9
$VERSIONGUID
  2
{FAEB1C32-E019-11D5-929B-00C0DF256EC4}
  9
$EXTNAMES
290
     1
  9
$PSVPSCALE
 40
0.0
  9
$OLESTARTUP
290
     0
  9
$SORTENTS
280
   127
  9
$INDEXCTL
280
     0
  9
$HIDETEXT
280
     1
  9
$XCLIPFRAME
290
     0
  9
$HALOGAP
280
     0
  9
$OBSCOLOR
 70
   257
  9
$OBSLTYPE
280
     0
  9
$INTERSECTIONDISPLAY
280
     0
  9
$INTERSECTIONCOLOR
 70
   257
  9
$DIMASSOC
280
     2
  9
$PROJECTNAME
  1

  9
$CAMERADISPLAY
290
     0
  9
$LENSLENGTH
 40
50.0
  9
$CAMERAHEIGHT
 40
0.0
  9
$STEPSPERSEC
 40
2.0
  9
$STEPSIZE
 40
6.0
  9
$3DDWFPREC
 40
2.0
  9
$PSOLWIDTH
 40
0.25
  9
$PSOLHEIGHT
 40
4.0
  9
$LOFTANG1
 40
1.570796326794897
  9
$LOFTANG2
 40
1.570796326794897
  9
$LOFTMAG1
 40
0.0
  9
$LOFTMAG2
 40
0.0
  9
$LOFTPARAM
 70
     7
  9
$LOFTNORMALS
280
     1
  9
$LATITUDE
 40
37.795
  9
$LONGITUDE
 40
-122.394
  9
$NORTHDIRECTION
 40
0.0
  9
$TIMEZONE
 70
 -8000
  9
$LIGHTGLYPHDISPLAY
280
     1
  9
$TILEMODELIGHTSYNCH
280
     1
  9
$SOLIDHIST
280
     1
  9
$SHOWHIST
280
     1
  9
$DWFFRAME
280
     2
  9
$DGNFRAME
280
     2
  9
$REALWORLDSCALE
290
     1
  9
$INTERFERECOLOR
 62
   256
  9
$CSHADOW
280
     0
  9
$SHADOWPLANELOCATION
 40
0.0
  0
ENDSEC
  0
SECTION
  2
CLASSES
  0
CLASS
  1
ACDBDICTIONARYWDFLT
  2
AcDbDictionaryWithDefault
  3
ObjectDBX Classes
 90
        0
 91
        4
280
     0
281
     0
  0
CLASS
  1
VISUALSTYLE
  2
AcDbVisualStyle
  3
ObjectDBX Classes
 90
     4095
 91
        4
280
     0
281
     0
  0
CLASS
  1
MATERIAL
  2
AcDbMaterial
  3
ObjectDBX Classes
 90
     1153
 91
        4
280
     0
281
     0
  0
ENDSEC
  0
SECTION
  2
TABLES
  0
TABLE
  2
VPORT
  5
8
330
0
100
AcDbSymbolTable
 70
     1
  0
VPORT
  5
29
330
8
100
AcDbSymbolTableRecord
100
AcDbViewportTableRecord
  2
*Active
 70
     0
 10
0.0
 20
0.0
 11
1.0
 21
1.0
 12
10.42990654205607
 22
4.5
 13
0.0
 23
0.0
 14
0.5
 24
0.5
 15
0.5
 25
0.5
 16
0.0
 26
0.0
 36
1.0
 17
0.0
 27
0.0
 37
0.0
 40
9.0
 41
1.972972972850329
 42
50.0
 43
0.0
 44
0.0
 50
0.0
 51
0.0
 71
     0
 72
   100
 73
     1
 74
     3
 75
     0
 76
     0
 77
     0
 78
     0
281
     0
 65
     1
110
0.0
120
0.0
130
0.0
111
1.0
121
0.0
131
0.0
112
0.0
122
1.0
132
0.0
 79
     0
146
0.0
 60
     3
 61
     5
292
     1
282
     1
141
0.0
142
0.0
 63
   250
  0
ENDTAB
  0
TABLE
  2
LTYPE
  5
5
330
0
100
AcDbSymbolTable
 70
     1
  0
LTYPE
  5
14
330
5
100
AcDbSymbolTableRecord
100
AcDbLinetypeTableRecord
  2
ByBlock
 70
     0
  3

 72
    65
 73
     0
 40
0.0
  0
LTYPE
  5
15
330
5
100
AcDbSymbolTableRecord
100
AcDbLinetypeTableRecord
  2
ByLayer
 70
     0
  3

 72
    65
 73
     0
 40
0.0
  0
LTYPE
  5
16
330
5
100
AcDbSymbolTableRecord
100
AcDbLinetypeTableRecord
  2
Continuous
 70
     0
  3
Solid line
 72
    65
 73
     0
 40
0.0
  0
ENDTAB
  0
TABLE
  2
LAYER
  5
2
330
0
100
AcDbSymbolTable
 70
     2
  0
LAYER
  5
10
330
2
100
AcDbSymbolTableRecord
100
AcDbLayerTableRecord
  2
0
 70
     0
 62
     7
  6
Continuous
370
    -3
390
F
347
3E
  0
LAYER
  5
40
330
2
100
AcDbSymbolTableRecord
100
AcDbLayerTableRecord
  2
layer 1
 70
     0
 62
     7
  6
Continuous
370
    -3
390
F
347
3E
  0
ENDTAB
  0
TABLE
  2
STYLE
  5
3
330
0
100
AcDbSymbolTable
 70
     1
  0
STYLE
  5
11
330
3
100
AcDbSymbolTableRecord
100
AcDbTextStyleTableRecord
  2
Standard
 70
     0
 40
0.0
 41
1.0
 50
0.0
 71
     0
 42
0.2
  3
txt
  4

  0
ENDTAB
  0
TABLE
  2
VIEW
  5
6
330
0
100
AcDbSymbolTable
 70
     0
  0
ENDTAB
  0
TABLE
  2
UCS
  5
7
330
0
100
AcDbSymbolTable
 70
     0
  0
ENDTAB
  0
TABLE
  2
APPID
  5
9
330
0
100
AcDbSymbolTable
 70
     2
  0
APPID
  5
12
330
9
100
AcDbSymbolTableRecord
100
AcDbRegAppTableRecord
  2
ACAD
 70
     0
  0
APPID
  5
3F
330
9
100
AcDbSymbolTableRecord
100
AcDbRegAppTableRecord
  2
ODA
 70
     0
  0
ENDTAB
  0
TABLE
  2
DIMSTYLE
  5
A
330
0
100
AcDbSymbolTable
 70
     1
100
AcDbDimStyleTable
  0
DIMSTYLE
105
27
330
A
100
AcDbSymbolTableRecord
100
AcDbDimStyleTableRecord
  2
Standard
 70
     0
178
     0
340
11
  0
ENDTAB
  0
TABLE
  2
BLOCK_RECORD
  5
1
330
0
100
AcDbSymbolTable
 70
     1
  0
BLOCK_RECORD
  5
1F
330
1
100
AcDbSymbolTableRecord
100
AcDbBlockTableRecord
  2
*Model_Space
340
22
 70
     0
280
     1
281
     0
  0
BLOCK_RECORD
  5
1B
330
1
100
AcDbSymbolTableRecord
100
AcDbBlockTableRecord
  2
*Paper_Space
340
1E
 70
     0
280
     1
281
     0
  0
BLOCK_RECORD
  5
23
330
1
100
AcDbSymbolTableRecord
100
AcDbBlockTableRecord
  2
*Paper_Space0
340
26
 70
     0
280
     1
281
     0
  0
ENDTAB
  0
ENDSEC
  0
SECTION
  2
BLOCKS
  0
BLOCK
  5
20
330
1F
100
AcDbEntity
  8
0
100
AcDbBlockBegin
  2
*Model_Space
 70
     0
 10
0.0
 20
0.0
 30
0.0
  3
*Model_Space
  1

  0
ENDBLK
  5
21
330
1F
100
AcDbEntity
  8
0
100
AcDbBlockEnd
  0
BLOCK
  5
1C
330
1B
100
AcDbEntity
 67
     1
  8
0
100
AcDbBlockBegin
  2
*Paper_Space
 70
     0
 10
0.0
 20
0.0
 30
0.0
  3
*Paper_Space
  1

  0
ENDBLK
  5
1D
330
1B
100
AcDbEntity
 67
     1
  8
0
100
AcDbBlockEnd
  0
BLOCK
  5
24
330
23
100
AcDbEntity
  8
0
100
AcDbBlockBegin
  2
*Paper_Space0
 70
     0
 10
0.0
 20
0.0
 30
0.0
  3
*Paper_Space0
  1

  0
ENDBLK
  5
25
330
23
100
AcDbEntity
  8
0
100
AcDbBlockEnd
  0
ENDSEC
  0
SECTION
  2
ENTITIES
  0
LWPOLYLINE
  5
41
330
1F
100
AcDbEntity
  8
layer 1
 62
   250
100
AcDbPolyline
 90
        5
 70
     1
 43
0.0
 10
-187.4042
 20
-114.9906
 10
-53.8888
 20
-114.9906
 10
-53.8888
 20
131.7988
 10
-187.4042
 20
131.7988
 10
-187.4042
 20
-114.9906
  0
SPLINE
  5
42
330
1F
100
AcDbEntity
  8
layer 1
 62
     7
100
AcDbSpline
210
0.0
220
0.0
230
1.0
 70
    11
 71
     3
 72
    16
 73
    12
 74
     0
 42
0.0000000001
 43
0.0000000001
 12
1.0
 22
0.0
 32
0.0
 13
1.0
 23
0.0
 33
0.0
 40
0.0
 40
0.0
 40
0.0
 40
0.0
 40
0.25
 40
0.25
 40
0.25
 40
0.25
 40
0.5
 40
0.5
 40
0.5
 40
0.5
 40
1.0
 40
1.0
 40
1.0
 40
1.0
 10
-179.4427
 20
127.7925
 30
0.0
 10
-178.831
 20
124.1007
 30
0.0
 10
-175.6224
 20
121.2849
 30
0.0
 10
-171.7577
 20
121.2849
 30
0.0
 10
-171.7577
 20
121.2849
 30
0.0
 10
-167.8931
 20
121.2849
 30
0.0
 10
-164.6845
 20
124.1007
 30
0.0
 10
-164.0728
 20
127.7925
 30
0.0
 10
-164.0728
 20
127.7925
 30
0.0
 10
-164.0728
 20
127.7925
 30
0.0
 10
-179.4427
 20
127.7925
 30
0.0
 10
-179.4427
 20
127.7925
 30
0.0
  0
SPLINE
  5
43
330
1F
100
AcDbEntity
  8
layer 1
 62
     7
100
AcDbSpline
210
0.0
220
0.0
230
1.0
 70
    11
 71
     3
 72
    16
 73
    12
 74
     0
 42
0.0000000001
 43
0.0000000001
 12
1.0
 22
0.0
 32
0.0
 13
1.0
 23
0.0
 33
0.0
 40
0.0
 40
0.0
 40
0.0
 40
0.0
 40
0.25
 40
0.25
 40
0.25
 40
0.25
 40
0.5
 40
0.5
 40
0.5
 40
0.5
 40
1.0
 40
1.0
 40
1.0
 40
1.0
 10
-153.829
 20
127.7925
 30
0.0
 10
-153.2173
 20
124.1007
 30
0.0
 10
-150.0087
 20
121.2849
 30
0.0
 10
-146.1441
 20
121.2849
 30
0.0
 10
-146.1441
 20
121.2849
 30
0.0
 10
-142.2794
 20
121.2849
 30
0.0
 10
-139.0708
 20
124.1007
 30
0.0
 10
-138.4591
 20
127.7925
 30
0.0
 10
-138.4591
 20
127.7925
 30
0.0
 10
-138.4591
 20
127.7925
 30
0.0
 10
-153.829
 20
127.7925
 30
0.0
 10
-153.829
 20
127.7925
 30
0.0
  0
SPLINE
  5
44
330
1F
100
AcDbEntity
  8
layer 1
 62
     7
100
AcDbSpline
210
0.0
220
0.0
230
1.0
 70
    11
 71
     3
 72
    16
 73
    12
 74
     0
 42
0.0000000001
 43
0.0000000001
 12
1.0
 22
0.0
 32
0.0
 13
1.0
 23
0.0
 33
0.0
 40
0.0
 40
0.0
 40
0.0
 40
0.0
 40
0.25
 40
0.25
 40
0.25
 40
0.25
 40
0.5
 40
0.5
 40
0.5
 40
0.5
 40
1.0
 40
1.0
 40
1.0
 40
1.0
 10
-128.2459
 20
127.7925
 30
0.0
 10
-127.6342
 20
124.1007
 30
0.0
 10
-124.4256
 20
121.2849
 30
0.0
 10
-120.561
 20
121.2849
 30
0.0
 10
-120.561
 20
121.2849
 30
0.0
 10
-116.6963
 20
121.2849
 30
0.0
 10
-113.4877
 20
124.1007
 30
0.0
 10
-112.876
 20
127.7925
 30
0.0
 10
-112.876
 20
127.7925
 30
0.0
 10
-112.876
 20
127.7925
 30
0.0
 10
-128.2459
 20
127.7925
 30
0.0
 10
-128.2459
 20
127.7925
 30
0.0
  0
SPLINE
  5
45
330
1F
100
AcDbEntity
  8
layer 1
 62
     7
100
AcDbSpline
210
0.0
220
0.0
230
1.0
 70
    11
 71
     3
 72
    16
 73
    12
 74
     0
 42
0.0000000001
 43
0.0000000001
 12
1.0
 22
0.0
 32
0.0
 13
1.0
 23
0.0
 33
0.0
 40
0.0
 40
0.0
 40
0.0
 40
0.0
 40
0.25
 40
0.25
 40
0.25
 40
0.25
 40
0.5
 40
0.5
 40
0.5
 40
0.5
 40
1.0
 40
1.0
 40
1.0
 40
1.0
 10
-102.6628
 20
127.7925
 30
0.0
 10
-102.0511
 20
124.1007
 30
0.0
 10
-98.8425
 20
121.2849
 30
0.0
 10
-94.9778
 20
121.2849
 30
0.0
 10
-94.9778
 20
121.2849
 30
0.0
 10
-91.1132
 20
121.2849
 30
0.0
 10
-87.9046
 20
124.1007
 30
0.0
 10
-87.2929
 20
127.7925
 30
0.0
 10
-87.2929
 20
127.7925
 30
0.0
 10
-87.2929
 20
127.7925
 30
0.0
 10
-102.6628
 20
127.7925
 30
0.0
 10
-102.6628
 20
127.7925
 30
0.0
  0
SPLINE
  5
46
330
1F
100
AcDbEntity
  8
layer 1
 62
     7
100
AcDbSpline
210
0.0
220
0.0
230
1.0
 70
    11
 71
     3
 72
    16
 73
    12
 74
     0
 42
0.0000000001
 43
0.0000000001
 12
1.0
 22
0.0
 32
0.0
 13
1.0
 23
0.0
 33
0.0
 40
0.0
 40
0.0
 40
0.0
 40
0.0
 40
0.25
 40
0.25
 40
0.25
 40
0.25
 40
0.5
 40
0.5
 40
0.5
 40
0.5
 40
1.0
 40
1.0
 40
1.0
 40
1.0
 10
-77.1103
 20
127.7925
 30
0.0
 10
-76.4985
 20
124.1007
 30
0.0
 10
-73.29
 20
121.2849
 30
0.0
 10
-69.4253
 20
121.2849
 30
0.0
 10
-69.4253
 20
121.2849
 30
0.0
 10
-65.5606
 20
121.2849
 30
0.0
 10
-62.3521
 20
124.1007
 30
0.0
 10
-61.7404
 20
127.7925
 30
0.0
 10
-61.7404
 20
127.7925
 30
0.0
 10
-61.7404
 20
127.7925
 30
0.0
 10
-77.1103
 20
127.7925
 30
0.0
 10
-77.1103
 20
127.7925
 30
0.0
  0
SPLINE
  5
47
330
1F
100
AcDbEntity
  8
layer 1
 62
     7
100
AcDbSpline
210
0.0
220
0.0
230
1.0
 70
    11
 71
     3
 72
    16
 73
    12
 74
     0
 42
0.0000000001
 43
0.0000000001
 12
1.0
 22
0.0
 32
0.0
 13
1.0
 23
0.0
 33
0.0
 40
0.0
 40
0.0
 40
0.0
 40
0.0
 40
0.25
 40
0.25
 40
0.25
 40
0.25
 40
0.5
 40
0.5
 40
0.5
 40
0.5
 40
1.0
 40
1.0
 40
1.0
 40
1.0
 10
-183.1866
 20
124.9099
 30
0.0
 10
-179.4948
 20
124.2982
 30
0.0
 10
-176.6789
 20
121.0896
 30
0.0
 10
-176.6789
 20
117.225
 30
0.0
 10
-176.6789
 20
117.225
 30
0.0
 10
-176.6789
 20
113.3603
 30
0.0
 10
-179.4948
 20
110.1517
 30
0.0
 10
-183.1866
 20
109.54
 30
0.0
 10
-183.1866
 20
109.54
 30
0.0
 10
-183.1866
 20
109.54
 30
0.0
 10
-183.1866
 20
124.9099
 30
0.0
 10
-183.1866
 20
124.9099
 30
0.0
  0
SPLINE
  5
48
330
1F
100
AcDbEntity
  8
layer 1
 62
     7
100
AcDbSpline
210
0.0
220
0.0
230
1.0
 70
    11
 71
     3
 72
    16
 73
    12
 74
     0
 42
0.0000000001
 43
0.0000000001
 12
1.0
 22
0.0
 32
0.0
 13
1.0
 23
0.0
 33
0.0
 40
0.0
 40
0.0
 40
0.0
 40
0.0
 40
0.25
 40
0.25
 40
0.25
 40
0.25
 40
0.5
 40
0.5
 40
0.5
 40
0.5
 40
1.0
 40
1.0
 40
1.0
 40
1.0
 10
-183.1866
 20
100.7517
 30
0.0
 10
-179.4948
 20
100.14
 30
0.0
 10
-176.6789
 20
96.9314
 30
0.0
 10
-176.6789
 20
93.0668
 30
0.0
 10
-176.6789
 20
93.0668
 30
0.0
 10
-176.6789
 20
89.2021
 30
0.0
 10
-179.4948
 20
85.9936
 30
0.0
 10
-183.1866
 20
85.3818
 30
0.0
 10
-183.1866
 20
85.3818
 30
0.0
 10
-183.1866
 20
85.3818
 30
0.0
 10
-183.1866
 20
100.7517
 30
0.0
 10
-183.1866
 20
100.7517
 30
0.0
  0
SPLINE
  5
49
330
1F
100
AcDbEntity
  8
layer 1
 62
     7
100
AcDbSpline
210
0.0
220
0.0
230
1.0
 70
    11
 71
     3
 72
    16
 73
    12
 74
     0
 42
0.0000000001
 43
0.0000000001
 12
1.0
 22
0.0
 32
0.0
 13
1.0
 23
0.0
 33
0.0
 40
0.0
 40
0.0
 40
0.0
 40
0.0
 40
0.25
 40
0.25
 40
0.25
 40
0.25
 40
0.5
 40
0.5
 40
0.5
 40
0.5
 40
1.0
 40
1.0
 40
1.0
 40
1.0
 10
-183.1866
 20
76.5936
 30
0.0
 10
-179.4948
 20
75.9818
 30
0.0
 10
-176.6789
 20
72.7733
 30
0.0
 10
-176.6789
 20
68.9086
 30
0.0
 10
-176.6789
 20
68.9086
 30
0.0
 10
-176.6789
 20
65.0439
 30
0.0
 10
-179.4948
 20
61.8354
 30
0.0
 10
-183.1866
 20
61.2236
 30
0.0
 10
-183.1866
 20
61.2236
 30
0.0
 10
-183.1866
 20
61.2236
 30
0.0
 10
-183.1866
 20
76.5936
 30
0.0
 10
-183.1866
 20
76.5936
 30
0.0
  0
SPLINE
  5
4A
330
1F
100
AcDbEntity
  8
layer 1
 62
     7
100
AcDbSpline
210
0.0
220
0.0
230
1.0
 70
    11
 71
     3
 72
    16
 73
    12
 74
     0
 42
0.0000000001
 43
0.0000000001
 12
1.0
 22
0.0
 32
0.0
 13
1.0
 23
0.0
 33
0.0
 40
0.0
 40
0.0
 40
0.0
 40
0.0
 40
0.25
 40
0.25
 40
0.25
 40
0.25
 40
0.5
 40
0.5
 40
0.5
 40
0.5
 40
1.0
 40
1.0
 40
1.0
 40
1.0
 10
-183.1866
 20
52.4354
 30
0.0
 10
-179.4948
 20
51.8236
 30
0.0
 10
-176.6789
 20
48.6151
 30
0.0
 10
-176.6789
 20
44.7504
 30
0.0
 10
-176.6789
 20
44.7504
 30
0.0
 10
-176.6789
 20
40.8858
 30
0.0
 10
-179.4948
 20
37.6772
 30
0.0
 10
-183.1866
 20
37.0655
 30
0.0
 10
-183.1866
 20
37.0655
 30
0.0
 10
-183.1866
 20
37.0655
 30
0.0
 10
-183.1866
 20
52.4354
 30
0.0
 10
-183.1866
 20
52.4354
 30
0.0
  0
SPLINE
  5
4B
330
1F
100
AcDbEntity
  8
layer 1
 62
     7
100
AcDbSpline
210
0.0
220
0.0
230
1.0
 70
    11
 71
     3
 72
    16
 73
    12
 74
     0
 42
0.0000000001
 43
0.0000000001
 12
1.0
 22
0.0
 32
0.0
 13
1.0
 23
0.0
 33
0.0
 40
0.0
 40
0.0
 40
0.0
 40
0.0
 40
0.25
 40
0.25
 40
0.25
 40
0.25
 40
0.5
 40
0.5
 40
0.5
 40
0.5
 40
1.0
 40
1.0
 40
1.0
 40
1.0
 10
-183.1866
 20
28.2772
 30
0.0
 10
-179.4948
 20
27.6655
 30
0.0
 10
-176.6789
 20
24.4569
 30
0.0
 10
-176.6789
 20
20.5922
 30
0.0
 10
-176.6789
 20
20.5922
 30
0.0
 10
-176.6789
 20
16.7276
 30
0.0
 10
-179.4948
 20
13.519
 30
0.0
 10
-183.1866
 20
12.9073
 30
0.0
 10
-183.1866
 20
12.9073
 30
0.0
 10
-183.1866
 20
12.9073
 30
0.0
 10
-183.1866
 20
28.2772
 30
0.0
 10
-183.1866
 20
28.2772
 30
0.0
  0
SPLINE
  5
4C
330
1F
100
AcDbEntity
  8
layer 1
 62
     7
100
AcDbSpline
210
0.0
220
0.0
230
1.0
 70
    11
 71
     3
 72
    16
 73
    12
 74
     0
 42
0.0000000001
 43
0.0000000001
 12
1.0
 22
0.0
 32
0.0
 13
1.0
 23
0.0
 33
0.0
 40
0.0
 40
0.0
 40
0.0
 40
0.0
 40
0.25
 40
0.25
 40
0.25
 40
0.25
 40
0.5
 40
0.5
 40
0.5
 40
0.5
 40
1.0
 40
1.0
 40
1.0
 40
1.0
 10
-183.1866
 20
4.119
 30
0.0
 10
-179.4948
 20
3.5073
 30
0.0
 10
-176.6789
 20
0.2987
 30
0.0
 10
-176.6789
 20
-3.5659
 30
0.0
 10
-176.6789
 20
-3.5659
 30
0.0
 10
-176.6789
 20
-7.4306
 30
0.0
 10
-179.4948
 20
-10.6392
 30
0.0
 10
-183.1866
 20
-11.2509
 30
0.0
 10
-183.1866
 20
-11.2509
 30
0.0
 10
-183.1866
 20
-11.2509
 30
0.0
 10
-183.1866
 20
4.119
 30
0.0
 10
-183.1866
 20
4.119
 30
0.0
  0
SPLINE
  5
4D
330
1F
100
AcDbEntity
  8
layer 1
 62
     7
100
AcDbSpline
210
0.0
220
0.0
230
1.0
 70
    11
 71
     3
 72
    16
 73
    12
 74
     0
 42
0.0000000001
 43
0.0000000001
 12
1.0
 22
0.0
 32
0.0
 13
1.0
 23
0.0
 33
0.0
 40
0.0
 40
0.0
 40
0.0
 40
0.0
 40
0.25
 40
0.25
 40
0.25
 40
0.25
 40
0.5
 40
0.5
 40
0.5
 40
0.5
 40
1.0
 40
1.0
 40
1.0
 40
1.0
 10
-183.1866
 20
-20.0392
 30
0.0
 10
-179.4948
 20
-20.6509
 30
0.0
 10
-176.6789
 20
-23.8594
 30
0.0
 10
-176.6789
 20
-27.7241
 30
0.0
 10
-176.6789
 20
-27.7241
 30
0.0
 10
-176.6789
 20
-31.5888
 30
0.0
 10
-179.4948
 20
-34.7973
 30
0.0
 10
-183.1866
 20
-35.4091
 30
0.0
 10
-183.1866
 20
-35.4091
 30
0.0
 10
-183.1866
 20
-35.4091
 30
0.0
 10
-183.1866
 20
-20.0392
 30
0.0
 10
-183.1866
 20
-20.0392
 30
0.0
  0
SPLINE
  5
4E
330
1F
100
AcDbEntity
  8
layer 1
 62
     7
100
AcDbSpline
210
0.0
220
0.0
230
1.0
 70
    11
 71
     3
 72
    16
 73
    12
 74
     0
 42
0.0000000001
 43
0.0000000001
 12
1.0
 22
0.0
 32
0.0
 13
1.0
 23
0.0
 33
0.0
 40
0.0
 40
0.0
 40
0.0
 40
0.0
 40
0.25
 40
0.25
 40
0.25
 40
0.25
 40
0.5
 40
0.5
 40
0.5
 40
0.5
 40
1.0
 40
1.0
 40
1.0
 40
1.0
 10
-183.1866
 20
-44.1973
 30
0.0
 10
-179.4948
 20
-44.8091
 30
0.0
 10
-176.6789
 20
-48.0176
 30
0.0
 10
-176.6789
 20
-51.8823
 30
0.0
 10
-176.6789
 20
-51.8823
 30
0.0
 10
-176.6789
 20
-55.747
 30
0.0
 10
-179.4948
 20
-58.9555
 30
0.0
 10
-183.1866
 20
-59.5672
 30
0.0
 10
-183.1866
 20
-59.5672
 30
0.0
 10
-183.1866
 20
-59.5672
 30
0.0
 10
-183.1866
 20
-44.1973
 30
0.0
 10
-183.1866
 20
-44.1973
 30
0.0
  0
SPLINE
  5
4F
330
1F
100
AcDbEntity
  8
layer 1
 62
     7
100
AcDbSpline
210
0.0
220
0.0
230
1.0
 70
    11
 71
     3
 72
    16
 73
    12
 74
     0
 42
0.0000000001
 43
0.0000000001
 12
1.0
 22
0.0
 32
0.0
 13
1.0
 23
0.0
 33
0.0
 40
0.0
 40
0.0
 40
0.0
 40
0.0
 40
0.25
 40
0.25
 40
0.25
 40
0.25
 40
0.5
 40
0.5
 40
0.5
 40
0.5
 40
1.0
 40
1.0
 40
1.0
 40
1.0
 10
-183.1866
 20
-68.3555
 30
0.0
 10
-179.4948
 20
-68.9672
 30
0.0
 10
-176.6789
 20
-72.1758
 30
0.0
 10
-176.6789
 20
-76.0405
 30
0.0
 10
-176.6789
 20
-76.0405
 30
0.0
 10
-176.6789
 20
-79.9051
 30
0.0
 10
-179.4948
 20
-83.1137
 30
0.0
 10
-183.1866
 20
-83.7254
 30
0.0
 10
-183.1866
 20
-83.7254
 30
0.0
 10
-183.1866
 20
-83.7254
 30
0.0
 10
-183.1866
 20
-68.3555
 30
0.0
 10
-183.1866
 20
-68.3555
 30
0.0
  0
SPLINE
  5
50
330
1F
100
AcDbEntity
  8
layer 1
 62
     7
100
AcDbSpline
210
0.0
220
0.0
230
1.0
 70
    11
 71
     3
 72
    16
 73
    12
 74
     0
 42
0.0000000001
 43
0.0000000001
 12
1.0
 22
0.0
 32
0.0
 13
1.0
 23
0.0
 33
0.0
 40
0.0
 40
0.0
 40
0.0
 40
0.0
 40
0.25
 40
0.25
 40
0.25
 40
0.25
 40
0.5
 40
0.5
 40
0.5
 40
0.5
 40
1.0
 40
1.0
 40
1.0
 40
1.0
 10
-183.1866
 20
-92.5137
 30
0.0
 10
-179.4948
 20
-93.1254
 30
0.0
 10
-176.6789
 20
-96.334
 30
0.0
 10
-176.6789
 20
-100.1986
 30
0.0
 10
-176.6789
 20
-100.1986
 30
0.0
 10
-176.6789
 20
-104.0633
 30
0.0
 10
-179.4948
 20
-107.2719
 30
0.0
 10
-183.1866
 20
-107.8836
 30
0.0
 10
-183.1866
 20
-107.8836
 30
0.0
 10
-183.1866
 20
-107.8836
 30
0.0
 10
-183.1866
 20
-92.5137
 30
0.0
 10
-183.1866
 20
-92.5137
 30
0.0
  0
SPLINE
  5
51
330
1F
100
AcDbEntity
  8
layer 1
 62
     7
100
AcDbSpline
210
0.0
220
0.0
230
1.0
 70
    11
 71
     3
 72
    16
 73
    12
 74
     0
 42
0.0000000001
 43
0.0000000001
 12
1.0
 22
0.0
 32
0.0
 13
1.0
 23
0.0
 33
0.0
 40
0.0
 40
0.0
 40
0.0
 40
0.0
 40
0.25
 40
0.25
 40
0.25
 40
0.25
 40
0.5
 40
0.5
 40
0.5
 40
0.5
 40
1.0
 40
1.0
 40
1.0
 40
1.0
 10
-179.4427
 20
103.6343
 30
0.0
 10
-178.831
 20
99.9425
 30
0.0
 10
-175.6224
 20
97.1267
 30
0.0
 10
-171.7577
 20
97.1267
 30
0.0
 10
-171.7577
 20
97.1267
 30
0.0
 10
-167.8931
 20
97.1267
 30
0.0
 10
-164.6845
 20
99.9425
 30
0.0
 10
-164.0728
 20
103.6343
 30
0.0
 10
-164.0728
 20
103.6343
 30
0.0
 10
-164.0728
 20
103.6343
 30
0.0
 10
-179.4427
 20
103.6343
 30
0.0
 10
-179.4427
 20
103.6343
 30
0.0
  0
SPLINE
  5
52
330
1F
100
AcDbEntity
  8
layer 1
 62
     7
100
AcDbSpline
210
0.0
220
0.0
230
1.0
 70
    11
 71
     3
 72
    16
 73
    12
 74
     0
 42
0.0000000001
 43
0.0000000001
 12
1.0
 22
0.0
 32
0.0
 13
1.0
 23
0.0
 33
0.0
 40
0.0
 40
0.0
 40
0.0
 40
0.0
 40
0.25
 40
0.25
 40
0.25
 40
0.25
 40
0.5
 40
0.5
 40
0.5
 40
0.5
 40
1.0
 40
1.0
 40
1.0
 40
1.0
 10
-179.4427
 20
106.4391
 30
0.0
 10
-178.831
 20
110.1309
 30
0.0
 10
-175.6224
 20
112.9467
 30
0.0
 10
-171.7577
 20
112.9467
 30
0.0
 10
-171.7577
 20
112.9467
 30
0.0
 10
-167.8931
 20
112.9467
 30
0.0
 10
-164.6845
 20
110.1309
 30
0.0
 10
-164.0728
 20
106.4391
 30
0.0
 10
-164.0728
 20
106.4391
 30
0.0
 10
-164.0728
 20
106.4391
 30
0.0
 10
-179.4427
 20
106.4391
 30
0.0
 10
-179.4427
 20
106.4391
 30
0.0
  0
SPLINE
  5
53
330
1F
100
AcDbEntity
  8
layer 1
 62
     7
100
AcDbSpline
210
0.0
220
0.0
230
1.0
 70
    11
 71
     3
 72
    16
 73
    12
 74
     0
 42
0.0000000001
 43
0.0000000001
 12
1.0
 22
0.0
 32
0.0
 13
1.0
 23
0.0
 33
0.0
 40
0.0
 40
0.0
 40
0.0
 40
0.0
 40
0.25
 40
0.25
 40
0.25
 40
0.25
 40
0.5
 40
0.5
 40
0.5
 40
0.5
 40
1.0
 40
1.0
 40
1.0
 40
1.0
 10
-179.4427
 20
79.4761
 30
0.0
 10
-178.831
 20
75.7843
 30
0.0
 10
-175.6224
 20
72.9685
 30
0.0
 10
-171.7577
 20
72.9685
 30
0.0
 10
-171.7577
 20
72.9685
 30
0.0
 10
-167.8931
 20
72.9685
 30
0.0
 10
-164.6845
 20
75.7843
 30
0.0
 10
-164.0728
 20
79.4761
 30
0.0
 10
-164.0728
 20
79.4761
 30
0.0
 10
-164.0728
 20
79.4761
 30
0.0
 10
-179.4427
 20
79.4761
 30
0.0
 10
-179.4427
 20
79.4761
 30
0.0
  0
SPLINE
  5
54
330
1F
100
AcDbEntity
  8
layer 1
 62
     7
100
AcDbSpline
210
0.0
220
0.0
230
1.0
 70
    11
 71
     3
 72
    16
 73
    12
 74
     0
 42
0.0000000001
 43
0.0000000001
 12
1.0
 22
0.0
 32
0.0
 13
1.0
 23
0.0
 33
0.0
 40
0.0
 40
0.0
 40
0.0
 40
0.0
 40
0.25
 40
0.25
 40
0.25
 40
0.25
 40
0.5
 40
0.5
 40
0.5
 40
0.5
 40
1.0
 40
1.0
 40
1.0
 40
1.0
 10
-179.4427
 20
82.2809
 30
0.0
 10
-178.831
 20
85.9727
 30
0.0
 10
-175.6224
 20
88.7885
 30
0.0
 10
-171.7577
 20
88.7885
 30
0.0
 10
-171.7577
 20
88.7885
 30
0.0
 10
-167.8931
 20
88.7885
 30
0.0
 10
-164.6845
 20
85.9727
 30
0.0
 10
-164.0728
 20
82.2809
 30
0.0
 10
-164.0728
 20
82.2809
 30
0.0
 10
-164.0728
 20
82.2809
 30
0.0
 10
-179.4427
 20
82.2809
 30
0.0
 10
-179.4427
 20
82.2809
 30
0.0
  0
SPLINE
  5
55
330
1F
100
AcDbEntity
  8
layer 1
 62
     7
100
AcDbSpline
210
0.0
220
0.0
230
1.0
 70
    11
 71
     3
 72
    16
 73
    12
 74
     0
 42
0.0000000001
 43
0.0000000001
 12
1.0
 22
0.0
 32
0.0
 13
1.0
 23
0.0
 33
0.0
 40
0.0
 40
0.0
 40
0.0
 40
0.0
 40
0.25
 40
0.25
 40
0.25
 40
0.25
 40
0.5
 40
0.5
 40
0.5
 40
0.5
 40
1.0
 40
1.0
 40
1.0
 40
1.0
 10
-179.4427
 20
55.3179
 30
0.0
 10
-178.831
 20
51.6262
 30
0.0
 10
-175.6224
 20
48.8103
 30
0.0
 10
-171.7577
 20
48.8103
 30
0.0
 10
-171.7577
 20
48.8103
 30
0.0
 10
-167.8931
 20
48.8103
 30
0.0
 10
-164.6845
 20
51.6262
 30
0.0
 10
-164.0728
 20
55.3179
 30
0.0
 10
-164.0728
 20
55.3179
 30
0.0
 10
-164.0728
 20
55.3179
 30
0.0
 10
-179.4427
 20
55.3179
 30
0.0
 10
-179.4427
 20
55.3179
 30
0.0
  0
SPLINE
  5
56
330
1F
100
AcDbEntity
  8
layer 1
 62
     7
100
AcDbSpline
210
0.0
220
0.0
230
1.0
 70
    11
 71
     3
 72
    16
 73
    12
 74
     0
 42
0.0000000001
 43
0.0000000001
 12
1.0
 22
0.0
 32
0.0
 13
1.0
 23
0.0
 33
0.0
 40
0.0
 40
0.0
 40
0.0
 40
0.0
 40
0.25
 40
0.25
 40
0.25
 40
0.25
 40
0.5
 40
0.5
 40
0.5
 40
0.5
 40
1.0
 40
1.0
 40
1.0
 40
1.0
 10
-179.4427
 20
58.1227
 30
0.0
 10
-178.831
 20
61.8145
 30
0.0
 10
-175.6224
 20
64.6304
 30
0.0
 10
-171.7577
 20
64.6304
 30
0.0
 10
-171.7577
 20
64.6304
 30
0.0
 10
-167.8931
 20
64.6304
 30
0.0
 10
-164.6845
 20
61.8145
 30
0.0
 10
-164.0728
 20
58.1227
 30
0.0
 10
-164.0728
 20
58.1227
 30
0.0
 10
-164.0728
 20
58.1227
 30
0.0
 10
-179.4427
 20
58.1227
 30
0.0
 10
-179.4427
 20
58.1227
 30
0.0
  0
SPLINE
  5
57
330
1F
100
AcDbEntity
  8
layer 1
 62
     7
100
AcDbSpline
210
0.0
220
0.0
230
1.0
 70
    11
 71
     3
 72
    16
 73
    12
 74
     0
 42
0.0000000001
 43
0.0000000001
 12
1.0
 22
0.0
 32
0.0
 13
1.0
 23
0.0
 33
0.0
 40
0.0
 40
0.0
 40
0.0
 40
0.0
 40
0.25
 40
0.25
 40
0.25
 40
0.25
 40
0.5
 40
0.5
 40
0.5
 40
0.5
 40
1.0
 40
1.0
 40
1.0
 40
1.0
 10
-179.4427
 20
31.1598
 30
0.0
 10
-178.831
 20
27.468
 30
0.0
 10
-175.6224
 20
24.6521
 30
0.0
 10
-171.7577
 20
24.6521
 30
0.0
 10
-171.7577
 20
24.6521
 30
0.0
 10
-167.8931
 20
24.6521
 30
0.0
 10
-164.6845
 20
27.468
 30
0.0
 10
-164.0728
 20
31.1598
 30
0.0
 10
-164.0728
 20
31.1598
 30
0.0
 10
-164.0728
 20
31.1598
 30
0.0
 10
-179.4427
 20
31.1598
 30
0.0
 10
-179.4427
 20
31.1598
 30
0.0
  0
SPLINE
  5
58
330
1F
100
AcDbEntity
  8
layer 1
 62
     7
100
AcDbSpline
210
0.0
220
0.0
230
1.0
 70
    11
 71
     3
 72
    16
 73
    12
 74
     0
 42
0.0000000001
 43
0.0000000001
 12
1.0
 22
0.0
 32
0.0
 13
1.0
 23
0.0
 33
0.0
 40
0.0
 40
0.0
 40
0.0
 40
0.0
 40
0.25
 40
0.25
 40
0.25
 40
0.25
 40
0.5
 40
0.5
 40
0.5
 40
0.5
 40
1.0
 40
1.0
 40
1.0
 40
1.0
 10
-179.4427
 20
33.9646
 30
0.0
 10
-178.831
 20
37.6563
 30
0.0
 10
-175.6224
 20
40.4722
 30
0.0
 10
-171.7577
 20
40.4722
 30
0.0
 10
-171.7577
 20
40.4722
 30
0.0
 10
-167.8931
 20
40.4722
 30
0.0
 10
-164.6845
 20
37.6563
 30
0.0
 10
-164.0728
 20
33.9646
 30
0.0
 10
-164.0728
 20
33.9646
 30
0.0
 10
-164.0728
 20
33.9646
 30
0.0
 10
-179.4427
 20
33.9646
 30
0.0
 10
-179.4427
 20
33.9646
 30
0.0
  0
SPLINE
  5
59
330
1F
100
AcDbEntity
  8
layer 1
 62
     7
100
AcDbSpline
210
0.0
220
0.0
230
1.0
 70
    11
 71
     3
 72
    16
 73
    12
 74
     0
 42
0.0000000001
 43
0.0000000001
 12
1.0
 22
0.0
 32
0.0
 13
1.0
 23
0.0
 33
0.0
 40
0.0
 40
0.0
 40
0.0
 40
0.0
 40
0.25
 40
0.25
 40
0.25
 40
0.25
 40
0.5
 40
0.5
 40
0.5
 40
0.5
 40
1.0
 40
1.0
 40
1.0
 40
1.0
 10
-179.4427
 20
7.0016
 30
0.0
 10
-178.831
 20
3.3098
 30
0.0
 10
-175.6224
 20
0.494
 30
0.0
 10
-171.7577
 20
0.494
 30
0.0
 10
-171.7577
 20
0.494
 30
0.0
 10
-167.8931
 20
0.494
 30
0.0
 10
-164.6845
 20
3.3098
 30
0.0
 10
-164.0728
 20
7.0016
 30
0.0
 10
-164.0728
 20
7.0016
 30
0.0
 10
-164.0728
 20
7.0016
 30
0.0
 10
-179.4427
 20
7.0016
 30
0.0
 10
-179.4427
 20
7.0016
 30
0.0
  0
SPLINE
  5
5A
330
1F
100
AcDbEntity
  8
layer 1
 62
     7
100
AcDbSpline
210
0.0
220
0.0
230
1.0
 70
    11
 71
     3
 72
    16
 73
    12
 74
     0
 42
0.0000000001
 43
0.0000000001
 12
1.0
 22
0.0
 32
0.0
 13
1.0
 23
0.0
 33
0.0
 40
0.0
 40
0.0
 40
0.0
 40
0.0
 40
0.25
 40
0.25
 40
0.25
 40
0.25
 40
0.5
 40
0.5
 40
0.5
 40
0.5
 40
1.0
 40
1.0
 40
1.0
 40
1.0
 10
-179.4427
 20
9.8064
 30
0.0
 10
-178.831
 20
13.4982
 30
0.0
 10
-175.6224
 20
16.314
 30
0.0
 10
-171.7577
 20
16.314
 30
0.0
 10
-171.7577
 20
16.314
 30
0.0
 10
-167.8931
 20
16.314
 30
0.0
 10
-164.6845
 20
13.4982
 30
0.0
 10
-164.0728
 20
9.8064
 30
0.0
 10
-164.0728
 20
9.8064
 30
0.0
 10
-164.0728
 20
9.8064
 30
0.0
 10
-179.4427
 20
9.8064
 30
0.0
 10
-179.4427
 20
9.8064
 30
0.0
  0
SPLINE
  5
5B
330
1F
100
AcDbEntity
  8
layer 1
 62
     7
100
AcDbSpline
210
0.0
220
0.0
230
1.0
 70
    11
 71
     3
 72
    16
 73
    12
 74
     0
 42
0.0000000001
 43
0.0000000001
 12
1.0
 22
0.0
 32
0.0
 13
1.0
 23
0.0
 33
0.0
 40
0.0
 40
0.0
 40
0.0
 40
0.0
 40
0.25
 40
0.25
 40
0.25
 40
0.25
 40
0.5
 40
0.5
 40
0.5
 40
0.5
 40
1.0
 40
1.0
 40
1.0
 40
1.0
 10
-179.4427
 20
-17.1566
 30
0.0
 10
-178.831
 20
-20.8484
 30
0.0
 10
-175.6224
 20
-23.6642
 30
0.0
 10
-171.7577
 20
-23.6642
 30
0.0
 10
-171.7577
 20
-23.6642
 30
0.0
 10
-167.8931
 20
-23.6642
 30
0.0
 10
-164.6845
 20
-20.8484
 30
0.0
 10
-164.0728
 20
-17.1566
 30
0.0
 10
-164.0728
 20
-17.1566
 30
0.0
 10
-164.0728
 20
-17.1566
 30
0.0
 10
-179.4427
 20
-17.1566
 30
0.0
 10
-179.4427
 20
-17.1566
 30
0.0
  0
SPLINE
  5
5C
330
1F
100
AcDbEntity
  8
layer 1
 62
     7
100
AcDbSpline
210
0.0
220
0.0
230
1.0
 70
    11
 71
     3
 72
    16
 73
    12
 74
     0
 42
0.0000000001
 43
0.0000000001
 12
1.0
 22
0.0
 32
0.0
 13
1.0
 23
0.0
 33
0.0
 40
0.0
 40
0.0
 40
0.0
 40
0.0
 40
0.25
 40
0.25
 40
0.25
 40
0.25
 40
0.5
 40
0.5
 40
0.5
 40
0.5
 40
1.0
 40
1.0
 40
1.0
 40
1.0
 10
-179.4427
 20
-14.3518
 30
0.0
 10
-178.831
 20
-10.66
 30
0.0
 10
-175.6224
 20
-7.8442
 30
0.0
 10
-171.7577
 20
-7.8442
 30
0.0
 10
-171.7577
 20
-7.8442
 30
0.0
 10
-167.8931
 20
-7.8442
 30
0.0
 10
-164.6845
 20
-10.66
 30
0.0
 10
-164.0728
 20
-14.3518
 30
0.0
 10
-164.0728
 20
-14.3518
 30
0.0
 10
-164.0728
 20
-14.3518
 30
0.0
 10
-179.4427
 20
-14.3518
 30
0.0
 10
-179.4427
 20
-14.3518
 30
0.0
  0
SPLINE
  5
5D
330
1F
100
AcDbEntity
  8
layer 1
 62
     7
100
AcDbSpline
210
0.0
220
0.0
230
1.0
 70
    11
 71
     3
 72
    16
 73
    12
 74
     0
 42
0.0000000001
 43
0.0000000001
 12
1.0
 22
0.0
 32
0.0
 13
1.0
 23
0.0
 33
0.0
 40
0.0
 40
0.0
 40
0.0
 40
0.0
 40
0.25
 40
0.25
 40
0.25
 40
0.25
 40
0.5
 40
0.5
 40
0.5
 40
0.5
 40
1.0
 40
1.0
 40
1.0
 40
1.0
 10
-179.4427
 20
-41.3148
 30
0.0
 10
-178.831
 20
-45.0065
 30
0.0
 10
-175.6224
 20
-47.8224
 30
0.0
 10
-171.7577
 20
-47.8224
 30
0.0
 10
-171.7577
 20
-47.8224
 30
0.0
 10
-167.8931
 20
-47.8224
 30
0.0
 10
-164.6845
 20
-45.0065
 30
0.0
 10
-164.0728
 20
-41.3148
 30
0.0
 10
-164.0728
 20
-41.3148
 30
0.0
 10
-164.0728
 20
-41.3148
 30
0.0
 10
-179.4427
 20
-41.3148
 30
0.0
 10
-179.4427
 20
-41.3148
 30
0.0
  0
SPLINE
  5
5E
330
1F
100
AcDbEntity
  8
layer 1
 62
     7
100
AcDbSpline
210
0.0
220
0.0
230
1.0
 70
    11
 71
     3
 72
    16
 73
    12
 74
     0
 42
0.0000000001
 43
0.0000000001
 12
1.0
 22
0.0
 32
0.0
 13
1.0
 23
0.0
 33
0.0
 40
0.0
 40
0.0
 40
0.0
 40
0.0
 40
0.25
 40
0.25
 40
0.25
 40
0.25
 40
0.5
 40
0.5
 40
0.5
 40
0.5
 40
1.0
 40
1.0
 40
1.0
 40
1.0
 10
-179.4427
 20
-38.51
 30
0.0
 10
-178.831
 20
-34.8182
 30
0.0
 10
-175.6224
 20
-32.0024
 30
0.0
 10
-171.7577
 20
-32.0024
 30
0.0
 10
-171.7577
 20
-32.0024
 30
0.0
 10
-167.8931
 20
-32.0024
 30
0.0
 10
-164.6845
 20
-34.8182
 30
0.0
 10
-164.0728
 20
-38.51
 30
0.0
 10
-164.0728
 20
-38.51
 30
0.0
 10
-164.0728
 20
-38.51
 30
0.0
 10
-179.4427
 20
-38.51
 30
0.0
 10
-179.4427
 20
-38.51
 30
0.0
  0
SPLINE
  5
5F
330
1F
100
AcDbEntity
  8
layer 1
 62
     7
100
AcDbSpline
210
0.0
220
0.0
230
1.0
 70
    11
 71
     3
 72
    16
 73
    12
 74
     0
 42
0.0000000001
 43
0.0000000001
 12
1.0
 22
0.0
 32
0.0
 13
1.0
 23
0.0
 33
0.0
 40
0.0
 40
0.0
 40
0.0
 40
0.0
 40
0.25
 40
0.25
 40
0.25
 40
0.25
 40
0.5
 40
0.5
 40
0.5
 40
0.5
 40
1.0
 40
1.0
 40
1.0
 40
1.0
 10
-179.4427
 20
-65.4729
 30
0.0
 10
-178.831
 20
-69.1647
 30
0.0
 10
-175.6224
 20
-71.9806
 30
0.0
 10
-171.7577
 20
-71.9806
 30
0.0
 10
-171.7577
 20
-71.9806
 30
0.0
 10
-167.8931
 20
-71.9806
 30
0.0
 10
-164.6845
 20
-69.1647
 30
0.0
 10
-164.0728
 20
-65.4729
 30
0.0
 10
-164.0728
 20
-65.4729
 30
0.0
 10
-164.0728
 20
-65.4729
 30
0.0
 10
-179.4427
 20
-65.4729
 30
0.0
 10
-179.4427
 20
-65.4729
 30
0.0
  0
SPLINE
  5
60
330
1F
100
AcDbEntity
  8
layer 1
 62
     7
100
AcDbSpline
210
0.0
220
0.0
230
1.0
 70
    11
 71
     3
 72
    16
 73
    12
 74
     0
 42
0.0000000001
 43
0.0000000001
 12
1.0
 22
0.0
 32
0.0
 13
1.0
 23
0.0
 33
0.0
 40
0.0
 40
0.0
 40
0.0
 40
0.0
 40
0.25
 40
0.25
 40
0.25
 40
0.25
 40
0.5
 40
0.5
 40
0.5
 40
0.5
 40
1.0
 40
1.0
 40
1.0
 40
1.0
 10
-179.4427
 20
-62.6681
 30
0.0
 10
-178.831
 20
-58.9764
 30
0.0
 10
-175.6224
 20
-56.1605
 30
0.0
 10
-171.7577
 20
-56.1605
 30
0.0
 10
-171.7577
 20
-56.1605
 30
0.0
 10
-167.8931
 20
-56.1605
 30
0.0
 10
-164.6845
 20
-58.9764
 30
0.0
 10
-164.0728
 20
-62.6681
 30
0.0
 10
-164.0728
 20
-62.6681
 30
0.0
 10
-164.0728
 20
-62.6681
 30
0.0
 10
-179.4427
 20
-62.6681
 30
0.0
 10
-179.4427
 20
-62.6681
 30
0.0
  0
SPLINE
  5
61
330
1F
100
AcDbEntity
  8
layer 1
 62
     7
100
AcDbSpline
210
0.0
220
0.0
230
1.0
 70
    11
 71
     3
 72
    16
 73
    12
 74
     0
 42
0.0000000001
 43
0.0000000001
 12
1.0
 22
0.0
 32
0.0
 13
1.0
 23
0.0
 33
0.0
 40
0.0
 40
0.0
 40
0.0
 40
0.0
 40
0.25
 40
0.25
 40
0.25
 40
0.25
 40
0.5
 40
0.5
 40
0.5
 40
0.5
 40
1.0
 40
1.0
 40
1.0
 40
1.0
 10
-179.4427
 20
-89.6311
 30
0.0
 10
-178.831
 20
-93.3229
 30
0.0
 10
-175.6224
 20
-96.1387
 30
0.0
 10
-171.7577
 20
-96.1387
 30
0.0
 10
-171.7577
 20
-96.1387
 30
0.0
 10
-167.8931
 20
-96.1387
 30
0.0
 10
-164.6845
 20
-93.3229
 30
0.0
 10
-164.0728
 20
-89.6311
 30
0.0
 10
-164.0728
 20
-89.6311
 30
0.0
 10
-164.0728
 20
-89.6311
 30
0.0
 10
-179.4427
 20
-89.6311
 30
0.0
 10
-179.4427
 20
-89.6311
 30
0.0
  0
SPLINE
  5
62
330
1F
100
AcDbEntity
  8
layer 1
 62
     7
100
AcDbSpline
210
0.0
220
0.0
230
1.0
 70
    11
 71
     3
 72
    16
 73
    12
 74
     0
 42
0.0000000001
 43
0.0000000001
 12
1.0
 22
0.0
 32
0.0
 13
1.0
 23
0.0
 33
0.0
 40
0.0
 40
0.0
 40
0.0
 40
0.0
 40
0.25
 40
0.25
 40
0.25
 40
0.25
 40
0.5
 40
0.5
 40
0.5
 40
0.5
 40
1.0
 40
1.0
 40
1.0
 40
1.0
 10
-179.4427
 20
-86.8263
 30
0.0
 10
-178.831
 20
-83.1345
 30
0.0
 10
-175.6224
 20
-80.3187
 30
0.0
 10
-171.7577
 20
-80.3187
 30
0.0
 10
-171.7577
 20
-80.3187
 30
0.0
 10
-167.8931
 20
-80.3187
 30
0.0
 10
-164.6845
 20
-83.1345
 30
0.0
 10
-164.0728
 20
-86.8263
 30
0.0
 10
-164.0728
 20
-86.8263
 30
0.0
 10
-164.0728
 20
-86.8263
 30
0.0
 10
-179.4427
 20
-86.8263
 30
0.0
 10
-179.4427
 20
-86.8263
 30
0.0
  0
SPLINE
  5
63
330
1F
100
AcDbEntity
  8
layer 1
 62
     7
100
AcDbSpline
210
0.0
220
0.0
230
1.0
 70
    11
 71
     3
 72
    16
 73
    12
 74
     0
 42
0.0000000001
 43
0.0000000001
 12
1.0
 22
0.0
 32
0.0
 13
1.0
 23
0.0
 33
0.0
 40
0.0
 40
0.0
 40
0.0
 40
0.0
 40
0.25
 40
0.25
 40
0.25
 40
0.25
 40
0.5
 40
0.5
 40
0.5
 40
0.5
 40
1.0
 40
1.0
 40
1.0
 40
1.0
 10
-179.4427
 20
-110.9845
 30
0.0
 10
-178.831
 20
-107.2927
 30
0.0
 10
-175.6224
 20
-104.4769
 30
0.0
 10
-171.7577
 20
-104.4769
 30
0.0
 10
-171.7577
 20
-104.4769
 30
0.0
 10
-167.8931
 20
-104.4769
 30
0.0
 10
-164.6845
 20
-107.2927
 30
0.0
 10
-164.0728
 20
-110.9845
 30
0.0
 10
-164.0728
 20
-110.9845
 30
0.0
 10
-164.0728
 20
-110.9845
 30
0.0
 10
-179.4427
 20
-110.9845
 30
0.0
 10
-179.4427
 20
-110.9845
 30
0.0
  0
SPLINE
  5
64
330
1F
100
AcDbEntity
  8
layer 1
 62
     7
100
AcDbSpline
210
0.0
220
0.0
230
1.0
 70
    11
 71
     3
 72
    16
 73
    12
 74
     0
 42
0.0000000001
 43
0.0000000001
 12
1.0
 22
0.0
 32
0.0
 13
1.0
 23
0.0
 33
0.0
 40
0.0
 40
0.0
 40
0.0
 40
0.0
 40
0.25
 40
0.25
 40
0.25
 40
0.25
 40
0.5
 40
0.5
 40
0.5
 40
0.5
 40
1.0
 40
1.0
 40
1.0
 40
1.0
 10
-160.4083
 20
124.9099
 30
0.0
 10
-164.1
 20
124.2982
 30
0.0
 10
-166.9159
 20
121.0896
 30
0.0
 10
-166.9159
 20
117.225
 30
0.0
 10
-166.9159
 20
117.225
 30
0.0
 10
-166.9159
 20
113.3603
 30
0.0
 10
-164.1
 20
110.1517
 30
0.0
 10
-160.4083
 20
109.54
 30
0.0
 10
-160.4083
 20
109.54
 30
0.0
 10
-160.4083
 20
109.54
 30
0.0
 10
-160.4083
 20
124.9099
 30
0.0
 10
-160.4083
 20
124.9099
 30
0.0
  0
SPLINE
  5
65
330
1F
100
AcDbEntity
  8
layer 1
 62
     7
100
AcDbSpline
210
0.0
220
0.0
230
1.0
 70
    11
 71
     3
 72
    16
 73
    12
 74
     0
 42
0.0000000001
 43
0.0000000001
 12
1.0
 22
0.0
 32
0.0
 13
1.0
 23
0.0
 33
0.0
 40
0.0
 40
0.0
 40
0.0
 40
0.0
 40
0.25
 40
0.25
 40
0.25
 40
0.25
 40
0.5
 40
0.5
 40
0.5
 40
0.5
 40
1.0
 40
1.0
 40
1.0
 40
1.0
 10
-157.6034
 20
124.9099
 30
0.0
 10
-153.9117
 20
124.2982
 30
0.0
 10
-151.0958
 20
121.0896
 30
0.0
 10
-151.0958
 20
117.225
 30
0.0
 10
-151.0958
 20
117.225
 30
0.0
 10
-151.0958
 20
113.3603
 30
0.0
 10
-153.9117
 20
110.1517
 30
0.0
 10
-157.6034
 20
109.54
 30
0.0
 10
-157.6034
 20
109.54
 30
0.0
 10
-157.6034
 20
109.54
 30
0.0
 10
-157.6034
 20
124.9099
 30
0.0
 10
-157.6034
 20
124.9099
 30
0.0
  0
SPLINE
  5
66
330
1F
100
AcDbEntity
  8
layer 1
 62
     7
100
AcDbSpline
210
0.0
220
0.0
230
1.0
 70
    11
 71
     3
 72
    16
 73
    12
 74
     0
 42
0.0000000001
 43
0.0000000001
 12
1.0
 22
0.0
 32
0.0
 13
1.0
 23
0.0
 33
0.0
 40
0.0
 40
0.0
 40
0.0
 40
0.0
 40
0.25
 40
0.25
 40
0.25
 40
0.25
 40
0.5
 40
0.5
 40
0.5
 40
0.5
 40
1.0
 40
1.0
 40
1.0
 40
1.0
 10
-160.4083
 20
100.7517
 30
0.0
 10
-164.1
 20
100.14
 30
0.0
 10
-166.9159
 20
96.9314
 30
0.0
 10
-166.9159
 20
93.0668
 30
0.0
 10
-166.9159
 20
93.0668
 30
0.0
 10
-166.9159
 20
89.2021
 30
0.0
 10
-164.1
 20
85.9936
 30
0.0
 10
-160.4083
 20
85.3818
 30
0.0
 10
-160.4083
 20
85.3818
 30
0.0
 10
-160.4083
 20
85.3818
 30
0.0
 10
-160.4083
 20
100.7517
 30
0.0
 10
-160.4083
 20
100.7517
 30
0.0
  0
SPLINE
  5
67
330
1F
100
AcDbEntity
  8
layer 1
 62
     7
100
AcDbSpline
210
0.0
220
0.0
230
1.0
 70
    11
 71
     3
 72
    16
 73
    12
 74
     0
 42
0.0000000001
 43
0.0000000001
 12
1.0
 22
0.0
 32
0.0
 13
1.0
 23
0.0
 33
0.0
 40
0.0
 40
0.0
 40
0.0
 40
0.0
 40
0.25
 40
0.25
 40
0.25
 40
0.25
 40
0.5
 40
0.5
 40
0.5
 40
0.5
 40
1.0
 40
1.0
 40
1.0
 40
1.0
 10
-157.6034
 20
100.7517
 30
0.0
 10
-153.9117
 20
100.14
 30
0.0
 10
-151.0958
 20
96.9314
 30
0.0
 10
-151.0958
 20
93.0668
 30
0.0
 10
-151.0958
 20
93.0668
 30
0.0
 10
-151.0958
 20
89.2021
 30
0.0
 10
-153.9117
 20
85.9936
 30
0.0
 10
-157.6034
 20
85.3818
 30
0.0
 10
-157.6034
 20
85.3818
 30
0.0
 10
-157.6034
 20
85.3818
 30
0.0
 10
-157.6034
 20
100.7517
 30
0.0
 10
-157.6034
 20
100.7517
 30
0.0
  0
SPLINE
  5
68
330
1F
100
AcDbEntity
  8
layer 1
 62
     7
100
AcDbSpline
210
0.0
220
0.0
230
1.0
 70
    11
 71
     3
 72
    16
 73
    12
 74
     0
 42
0.0000000001
 43
0.0000000001
 12
1.0
 22
0.0
 32
0.0
 13
1.0
 23
0.0
 33
0.0
 40
0.0
 40
0.0
 40
0.0
 40
0.0
 40
0.25
 40
0.25
 40
0.25
 40
0.25
 40
0.5
 40
0.5
 40
0.5
 40
0.5
 40
1.0
 40
1.0
 40
1.0
 40
1.0
 10
-160.4083
 20
76.5936
 30
0.0
 10
-164.1
 20
75.9818
 30
0.0
 10
-166.9159
 20
72.7733
 30
0.0
 10
-166.9159
 20
68.9086
 30
0.0
 10
-166.9159
 20
68.9086
 30
0.0
 10
-166.9159
 20
65.0439
 30
0.0
 10
-164.1
 20
61.8354
 30
0.0
 10
-160.4083
 20
61.2236
 30
0.0
 10
-160.4083
 20
61.2236
 30
0.0
 10
-160.4083
 20
61.2236
 30
0.0
 10
-160.4083
 20
76.5936
 30
0.0
 10
-160.4083
 20
76.5936
 30
0.0
  0
SPLINE
  5
69
330
1F
100
AcDbEntity
  8
layer 1
 62
     7
100
AcDbSpline
210
0.0
220
0.0
230
1.0
 70
    11
 71
     3
 72
    16
 73
    12
 74
     0
 42
0.0000000001
 43
0.0000000001
 12
1.0
 22
0.0
 32
0.0
 13
1.0
 23
0.0
 33
0.0
 40
0.0
 40
0.0
 40
0.0
 40
0.0
 40
0.25
 40
0.25
 40
0.25
 40
0.25
 40
0.5
 40
0.5
 40
0.5
 40
0.5
 40
1.0
 40
1.0
 40
1.0
 40
1.0
 10
-157.6034
 20
76.5936
 30
0.0
 10
-153.9117
 20
75.9818
 30
0.0
 10
-151.0958
 20
72.7733
 30
0.0
 10
-151.0958
 20
68.9086
 30
0.0
 10
-151.0958
 20
68.9086
 30
0.0
 10
-151.0958
 20
65.0439
 30
0.0
 10
-153.9117
 20
61.8354
 30
0.0
 10
-157.6034
 20
61.2236
 30
0.0
 10
-157.6034
 20
61.2236
 30
0.0
 10
-157.6034
 20
61.2236
 30
0.0
 10
-157.6034
 20
76.5936
 30
0.0
 10
-157.6034
 20
76.5936
 30
0.0
  0
SPLINE
  5
6A
330
1F
100
AcDbEntity
  8
layer 1
 62
     7
100
AcDbSpline
210
0.0
220
0.0
230
1.0
 70
    11
 71
     3
 72
    16
 73
    12
 74
     0
 42
0.0000000001
 43
0.0000000001
 12
1.0
 22
0.0
 32
0.0
 13
1.0
 23
0.0
 33
0.0
 40
0.0
 40
0.0
 40
0.0
 40
0.0
 40
0.25
 40
0.25
 40
0.25
 40
0.25
 40
0.5
 40
0.5
 40
0.5
 40
0.5
 40
1.0
 40
1.0
 40
1.0
 40
1.0
 10
-160.4083
 20
52.4354
 30
0.0
 10
-164.1
 20
51.8236
 30
0.0
 10
-166.9159
 20
48.6151
 30
0.0
 10
-166.9159
 20
44.7504
 30
0.0
 10
-166.9159
 20
44.7504
 30
0.0
 10
-166.9159
 20
40.8858
 30
0.0
 10
-164.1
 20
37.6772
 30
0.0
 10
-160.4083
 20
37.0655
 30
0.0
 10
-160.4083
 20
37.0655
 30
0.0
 10
-160.4083
 20
37.0655
 30
0.0
 10
-160.4083
 20
52.4354
 30
0.0
 10
-160.4083
 20
52.4354
 30
0.0
  0
SPLINE
  5
6B
330
1F
100
AcDbEntity
  8
layer 1
 62
     7
100
AcDbSpline
210
0.0
220
0.0
230
1.0
 70
    11
 71
     3
 72
    16
 73
    12
 74
     0
 42
0.0000000001
 43
0.0000000001
 12
1.0
 22
0.0
 32
0.0
 13
1.0
 23
0.0
 33
0.0
 40
0.0
 40
0.0
 40
0.0
 40
0.0
 40
0.25
 40
0.25
 40
0.25
 40
0.25
 40
0.5
 40
0.5
 40
0.5
 40
0.5
 40
1.0
 40
1.0
 40
1.0
 40
1.0
 10
-157.6034
 20
52.4354
 30
0.0
 10
-153.9117
 20
51.8236
 30
0.0
 10
-151.0958
 20
48.6151
 30
0.0
 10
-151.0958
 20
44.7504
 30
0.0
 10
-151.0958
 20
44.7504
 30
0.0
 10
-151.0958
 20
40.8858
 30
0.0
 10
-153.9117
 20
37.6772
 30
0.0
 10
-157.6034
 20
37.0655
 30
0.0
 10
-157.6034
 20
37.0655
 30
0.0
 10
-157.6034
 20
37.0655
 30
0.0
 10
-157.6034
 20
52.4354
 30
0.0
 10
-157.6034
 20
52.4354
 30
0.0
  0
SPLINE
  5
6C
330
1F
100
AcDbEntity
  8
layer 1
 62
     7
100
AcDbSpline
210
0.0
220
0.0
230
1.0
 70
    11
 71
     3
 72
    16
 73
    12
 74
     0
 42
0.0000000001
 43
0.0000000001
 12
1.0
 22
0.0
 32
0.0
 13
1.0
 23
0.0
 33
0.0
 40
0.0
 40
0.0
 40
0.0
 40
0.0
 40
0.25
 40
0.25
 40
0.25
 40
0.25
 40
0.5
 40
0.5
 40
0.5
 40
0.5
 40
1.0
 40
1.0
 40
1.0
 40
1.0
 10
-160.4083
 20
28.2772
 30
0.0
 10
-164.1
 20
27.6655
 30
0.0
 10
-166.9159
 20
24.4569
 30
0.0
 10
-166.9159
 20
20.5922
 30
0.0
 10
-166.9159
 20
20.5922
 30
0.0
 10
-166.9159
 20
16.7276
 30
0.0
 10
-164.1
 20
13.519
 30
0.0
 10
-160.4083
 20
12.9073
 30
0.0
 10
-160.4083
 20
12.9073
 30
0.0
 10
-160.4083
 20
12.9073
 30
0.0
 10
-160.4083
 20
28.2772
 30
0.0
 10
-160.4083
 20
28.2772
 30
0.0
  0
SPLINE
  5
6D
330
1F
100
AcDbEntity
  8
layer 1
 62
     7
100
AcDbSpline
210
0.0
220
0.0
230
1.0
 70
    11
 71
     3
 72
    16
 73
    12
 74
     0
 42
0.0000000001
 43
0.0000000001
 12
1.0
 22
0.0
 32
0.0
 13
1.0
 23
0.0
 33
0.0
 40
0.0
 40
0.0
 40
0.0
 40
0.0
 40
0.25
 40
0.25
 40
0.25
 40
0.25
 40
0.5
 40
0.5
 40
0.5
 40
0.5
 40
1.0
 40
1.0
 40
1.0
 40
1.0
 10
-157.6034
 20
28.2772
 30
0.0
 10
-153.9117
 20
27.6655
 30
0.0
 10
-151.0958
 20
24.4569
 30
0.0
 10
-151.0958
 20
20.5922
 30
0.0
 10
-151.0958
 20
20.5922
 30
0.0
 10
-151.0958
 20
16.7276
 30
0.0
 10
-153.9117
 20
13.519
 30
0.0
 10
-157.6034
 20
12.9073
 30
0.0
 10
-157.6034
 20
12.9073
 30
0.0
 10
-157.6034
 20
12.9073
 30
0.0
 10
-157.6034
 20
28.2772
 30
0.0
 10
-157.6034
 20
28.2772
 30
0.0
  0
SPLINE
  5
6E
330
1F
100
AcDbEntity
  8
layer 1
 62
     7
100
AcDbSpline
210
0.0
220
0.0
230
1.0
 70
    11
 71
     3
 72
    16
 73
    12
 74
     0
 42
0.0000000001
 43
0.0000000001
 12
1.0
 22
0.0
 32
0.0
 13
1.0
 23
0.0
 33
0.0
 40
0.0
 40
0.0
 40
0.0
 40
0.0
 40
0.25
 40
0.25
 40
0.25
 40
0.25
 40
0.5
 40
0.5
 40
0.5
 40
0.5
 40
1.0
 40
1.0
 40
1.0
 40
1.0
 10
-160.4083
 20
4.119
 30
0.0
 10
-164.1
 20
3.5073
 30
0.0
 10
-166.9159
 20
0.2987
 30
0.0
 10
-166.9159
 20
-3.5659
 30
0.0
 10
-166.9159
 20
-3.5659
 30
0.0
 10
-166.9159
 20
-7.4306
 30
0.0
 10
-164.1
 20
-10.6392
 30
0.0
 10
-160.4083
 20
-11.2509
 30
0.0
 10
-160.4083
 20
-11.2509
 30
0.0
 10
-160.4083
 20
-11.2509
 30
0.0
 10
-160.4083
 20
4.119
 30
0.0
 10
-160.4083
 20
4.119
 30
0.0
  0
SPLINE
  5
6F
330
1F
100
AcDbEntity
  8
layer 1
 62
     7
100
AcDbSpline
210
0.0
220
0.0
230
1.0
 70
    11
 71
     3
 72
    16
 73
    12
 74
     0
 42
0.0000000001
 43
0.0000000001
 12
1.0
 22
0.0
 32
0.0
 13
1.0
 23
0.0
 33
0.0
 40
0.0
 40
0.0
 40
0.0
 40
0.0
 40
0.25
 40
0.25
 40
0.25
 40
0.25
 40
0.5
 40
0.5
 40
0.5
 40
0.5
 40
1.0
 40
1.0
 40
1.0
 40
1.0
 10
-157.6034
 20
4.119
 30
0.0
 10
-153.9117
 20
3.5073
 30
0.0
 10
-151.0958
 20
0.2987
 30
0.0
 10
-151.0958
 20
-3.5659
 30
0.0
 10
-151.0958
 20
-3.5659
 30
0.0
 10
-151.0958
 20
-7.4306
 30
0.0
 10
-153.9117
 20
-10.6392
 30
0.0
 10
-157.6034
 20
-11.2509
 30
0.0
 10
-157.6034
 20
-11.2509
 30
0.0
 10
-157.6034
 20
-11.2509
 30
0.0
 10
-157.6034
 20
4.119
 30
0.0
 10
-157.6034
 20
4.119
 30
0.0
  0
SPLINE
  5
70
330
1F
100
AcDbEntity
  8
layer 1
 62
     7
100
AcDbSpline
210
0.0
220
0.0
230
1.0
 70
    11
 71
     3
 72
    16
 73
    12
 74
     0
 42
0.0000000001
 43
0.0000000001
 12
1.0
 22
0.0
 32
0.0
 13
1.0
 23
0.0
 33
0.0
 40
0.0
 40
0.0
 40
0.0
 40
0.0
 40
0.25
 40
0.25
 40
0.25
 40
0.25
 40
0.5
 40
0.5
 40
0.5
 40
0.5
 40
1.0
 40
1.0
 40
1.0
 40
1.0
 10
-160.4083
 20
-20.0392
 30
0.0
 10
-164.1
 20
-20.6509
 30
0.0
 10
-166.9159
 20
-23.8594
 30
0.0
 10
-166.9159
 20
-27.7241
 30
0.0
 10
-166.9159
 20
-27.7241
 30
0.0
 10
-166.9159
 20
-31.5888
 30
0.0
 10
-164.1
 20
-34.7973
 30
0.0
 10
-160.4083
 20
-35.4091
 30
0.0
 10
-160.4083
 20
-35.4091
 30
0.0
 10
-160.4083
 20
-35.4091
 30
0.0
 10
-160.4083
 20
-20.0392
 30
0.0
 10
-160.4083
 20
-20.0392
 30
0.0
  0
SPLINE
  5
71
330
1F
100
AcDbEntity
  8
layer 1
 62
     7
100
AcDbSpline
210
0.0
220
0.0
230
1.0
 70
    11
 71
     3
 72
    16
 73
    12
 74
     0
 42
0.0000000001
 43
0.0000000001
 12
1.0
 22
0.0
 32
0.0
 13
1.0
 23
0.0
 33
0.0
 40
0.0
 40
0.0
 40
0.0
 40
0.0
 40
0.25
 40
0.25
 40
0.25
 40
0.25
 40
0.5
 40
0.5
 40
0.5
 40
0.5
 40
1.0
 40
1.0
 40
1.0
 40
1.0
 10
-157.6034
 20
-20.0392
 30
0.0
 10
-153.9117
 20
-20.6509
 30
0.0
 10
-151.0958
 20
-23.8594
 30
0.0
 10
-151.0958
 20
-27.7241
 30
0.0
 10
-151.0958
 20
-27.7241
 30
0.0
 10
-151.0958
 20
-31.5888
 30
0.0
 10
-153.9117
 20
-34.7973
 30
0.0
 10
-157.6034
 20
-35.4091
 30
0.0
 10
-157.6034
 20
-35.4091
 30
0.0
 10
-157.6034
 20
-35.4091
 30
0.0
 10
-157.6034
 20
-20.0392
 30
0.0
 10
-157.6034
 20
-20.0392
 30
0.0
  0
SPLINE
  5
72
330
1F
100
AcDbEntity
  8
layer 1
 62
     7
100
AcDbSpline
210
0.0
220
0.0
230
1.0
 70
    11
 71
     3
 72
    16
 73
    12
 74
     0
 42
0.0000000001
 43
0.0000000001
 12
1.0
 22
0.0
 32
0.0
 13
1.0
 23
0.0
 33
0.0
 40
0.0
 40
0.0
 40
0.0
 40
0.0
 40
0.25
 40
0.25
 40
0.25
 40
0.25
 40
0.5
 40
0.5
 40
0.5
 40
0.5
 40
1.0
 40
1.0
 40
1.0
 40
1.0
 10
-160.4083
 20
-44.1973
 30
0.0
 10
-164.1
 20
-44.8091
 30
0.0
 10
-166.9159
 20
-48.0176
 30
0.0
 10
-166.9159
 20
-51.8823
 30
0.0
 10
-166.9159
 20
-51.8823
 30
0.0
 10
-166.9159
 20
-55.747
 30
0.0
 10
-164.1
 20
-58.9555
 30
0.0
 10
-160.4083
 20
-59.5672
 30
0.0
 10
-160.4083
 20
-59.5672
 30
0.0
 10
-160.4083
 20
-59.5672
 30
0.0
 10
-160.4083
 20
-44.1973
 30
0.0
 10
-160.4083
 20
-44.1973
 30
0.0
  0
SPLINE
  5
73
330
1F
100
AcDbEntity
  8
layer 1
 62
     7
100
AcDbSpline
210
0.0
220
0.0
230
1.0
 70
    11
 71
     3
 72
    16
 73
    12
 74
     0
 42
0.0000000001
 43
0.0000000001
 12
1.0
 22
0.0
 32
0.0
 13
1.0
 23
0.0
 33
0.0
 40
0.0
 40
0.0
 40
0.0
 40
0.0
 40
0.25
 40
0.25
 40
0.25
 40
0.25
 40
0.5
 40
0.5
 40
0.5
 40
0.5
 40
1.0
 40
1.0
 40
1.0
 40
1.0
 10
-157.6034
 20
-44.1973
 30
0.0
 10
-153.9117
 20
-44.8091
 30
0.0
 10
-151.0958
 20
-48.0176
 30
0.0
 10
-151.0958
 20
-51.8823
 30
0.0
 10
-151.0958
 20
-51.8823
 30
0.0
 10
-151.0958
 20
-55.747
 30
0.0
 10
-153.9117
 20
-58.9555
 30
0.0
 10
-157.6034
 20
-59.5672
 30
0.0
 10
-157.6034
 20
-59.5672
 30
0.0
 10
-157.6034
 20
-59.5672
 30
0.0
 10
-157.6034
 20
-44.1973
 30
0.0
 10
-157.6034
 20
-44.1973
 30
0.0
  0
SPLINE
  5
74
330
1F
100
AcDbEntity
  8
layer 1
 62
     7
100
AcDbSpline
210
0.0
220
0.0
230
1.0
 70
    11
 71
     3
 72
    16
 73
    12
 74
     0
 42
0.0000000001
 43
0.0000000001
 12
1.0
 22
0.0
 32
0.0
 13
1.0
 23
0.0
 33
0.0
 40
0.0
 40
0.0
 40
0.0
 40
0.0
 40
0.25
 40
0.25
 40
0.25
 40
0.25
 40
0.5
 40
0.5
 40
0.5
 40
0.5
 40
1.0
 40
1.0
 40
1.0
 40
1.0
 10
-160.4083
 20
-68.3555
 30
0.0
 10
-164.1
 20
-68.9672
 30
0.0
 10
-166.9159
 20
-72.1758
 30
0.0
 10
-166.9159
 20
-76.0405
 30
0.0
 10
-166.9159
 20
-76.0405
 30
0.0
 10
-166.9159
 20
-79.9051
 30
0.0
 10
-164.1
 20
-83.1137
 30
0.0
 10
-160.4083
 20
-83.7254
 30
0.0
 10
-160.4083
 20
-83.7254
 30
0.0
 10
-160.4083
 20
-83.7254
 30
0.0
 10
-160.4083
 20
-68.3555
 30
0.0
 10
-160.4083
 20
-68.3555
 30
0.0
  0
SPLINE
  5
75
330
1F
100
AcDbEntity
  8
layer 1
 62
     7
100
AcDbSpline
210
0.0
220
0.0
230
1.0
 70
    11
 71
     3
 72
    16
 73
    12
 74
     0
 42
0.0000000001
 43
0.0000000001
 12
1.0
 22
0.0
 32
0.0
 13
1.0
 23
0.0
 33
0.0
 40
0.0
 40
0.0
 40
0.0
 40
0.0
 40
0.25
 40
0.25
 40
0.25
 40
0.25
 40
0.5
 40
0.5
 40
0.5
 40
0.5
 40
1.0
 40
1.0
 40
1.0
 40
1.0
 10
-157.6034
 20
-68.3555
 30
0.0
 10
-153.9117
 20
-68.9672
 30
0.0
 10
-151.0958
 20
-72.1758
 30
0.0
 10
-151.0958
 20
-76.0405
 30
0.0
 10
-151.0958
 20
-76.0405
 30
0.0
 10
-151.0958
 20
-79.9051
 30
0.0
 10
-153.9117
 20
-83.1137
 30
0.0
 10
-157.6034
 20
-83.7254
 30
0.0
 10
-157.6034
 20
-83.7254
 30
0.0
 10
-157.6034
 20
-83.7254
 30
0.0
 10
-157.6034
 20
-68.3555
 30
0.0
 10
-157.6034
 20
-68.3555
 30
0.0
  0
SPLINE
  5
76
330
1F
100
AcDbEntity
  8
layer 1
 62
     7
100
AcDbSpline
210
0.0
220
0.0
230
1.0
 70
    11
 71
     3
 72
    16
 73
    12
 74
     0
 42
0.0000000001
 43
0.0000000001
 12
1.0
 22
0.0
 32
0.0
 13
1.0
 23
0.0
 33
0.0
 40
0.0
 40
0.0
 40
0.0
 40
0.0
 40
0.25
 40
0.25
 40
0.25
 40
0.25
 40
0.5
 40
0.5
 40
0.5
 40
0.5
 40
1.0
 40
1.0
 40
1.0
 40
1.0
 10
-160.4083
 20
-92.5137
 30
0.0
 10
-164.1
 20
-93.1254
 30
0.0
 10
-166.9159
 20
-96.334
 30
0.0
 10
-166.9159
 20
-100.1986
 30
0.0
 10
-166.9159
 20
-100.1986
 30
0.0
 10
-166.9159
 20
-104.0633
 30
0.0
 10
-164.1
 20
-107.2719
 30
0.0
 10
-160.4083
 20
-107.8836
 30
0.0
 10
-160.4083
 20
-107.8836
 30
0.0
 10
-160.4083
 20
-107.8836
 30
0.0
 10
-160.4083
 20
-92.5137
 30
0.0
 10
-160.4083
 20
-92.5137
 30
0.0
  0
SPLINE
  5
77
330
1F
100
AcDbEntity
  8
layer 1
 62
     7
100
AcDbSpline
210
0.0
220
0.0
230
1.0
 70
    11
 71
     3
 72
    16
 73
    12
 74
     0
 42
0.0000000001
 43
0.0000000001
 12
1.0
 22
0.0
 32
0.0
 13
1.0
 23
0.0
 33
0.0
 40
0.0
 40
0.0
 40
0.0
 40
0.0
 40
0.25
 40
0.25
 40
0.25
 40
0.25
 40
0.5
 40
0.5
 40
0.5
 40
0.5
 40
1.0
 40
1.0
 40
1.0
 40
1.0
 10
-157.6034
 20
-92.5137
 30
0.0
 10
-153.9117
 20
-93.1254
 30
0.0
 10
-151.0958
 20
-96.334
 30
0.0
 10
-151.0958
 20
-100.1986
 30
0.0
 10
-151.0958
 20
-100.1986
 30
0.0
 10
-151.0958
 20
-104.0633
 30
0.0
 10
-153.9117
 20
-107.2719
 30
0.0
 10
-157.6034
 20
-107.8836
 30
0.0
 10
-157.6034
 20
-107.8836
 30
0.0
 10
-157.6034
 20
-107.8836
 30
0.0
 10
-157.6034
 20
-92.5137
 30
0.0
 10
-157.6034
 20
-92.5137
 30
0.0
  0
SPLINE
  5
78
330
1F
100
AcDbEntity
  8
layer 1
 62
     7
100
AcDbSpline
210
0.0
220
0.0
230
1.0
 70
    11
 71
     3
 72
    16
 73
    12
 74
     0
 42
0.0000000001
 43
0.0000000001
 12
1.0
 22
0.0
 32
0.0
 13
1.0
 23
0.0
 33
0.0
 40
0.0
 40
0.0
 40
0.0
 40
0.0
 40
0.25
 40
0.25
 40
0.25
 40
0.25
 40
0.5
 40
0.5
 40
0.5
 40
0.5
 40
1.0
 40
1.0
 40
1.0
 40
1.0
 10
-134.8251
 20
124.9099
 30
0.0
 10
-138.5169
 20
124.2982
 30
0.0
 10
-141.3328
 20
121.0896
 30
0.0
 10
-141.3328
 20
117.225
 30
0.0
 10
-141.3328
 20
117.225
 30
0.0
 10
-141.3328
 20
113.3603
 30
0.0
 10
-138.5169
 20
110.1517
 30
0.0
 10
-134.8251
 20
109.54
 30
0.0
 10
-134.8251
 20
109.54
 30
0.0
 10
-134.8251
 20
109.54
 30
0.0
 10
-134.8251
 20
124.9099
 30
0.0
 10
-134.8251
 20
124.9099
 30
0.0
  0
SPLINE
  5
79
330
1F
100
AcDbEntity
  8
layer 1
 62
     7
100
AcDbSpline
210
0.0
220
0.0
230
1.0
 70
    11
 71
     3
 72
    16
 73
    12
 74
     0
 42
0.0000000001
 43
0.0000000001
 12
1.0
 22
0.0
 32
0.0
 13
1.0
 23
0.0
 33
0.0
 40
0.0
 40
0.0
 40
0.0
 40
0.0
 40
0.25
 40
0.25
 40
0.25
 40
0.25
 40
0.5
 40
0.5
 40
0.5
 40
0.5
 40
1.0
 40
1.0
 40
1.0
 40
1.0
 10
-132.0203
 20
124.9099
 30
0.0
 10
-128.3286
 20
124.2982
 30
0.0
 10
-125.5127
 20
121.0896
 30
0.0
 10
-125.5127
 20
117.225
 30
0.0
 10
-125.5127
 20
117.225
 30
0.0
 10
-125.5127
 20
113.3603
 30
0.0
 10
-128.3286
 20
110.1517
 30
0.0
 10
-132.0203
 20
109.54
 30
0.0
 10
-132.0203
 20
109.54
 30
0.0
 10
-132.0203
 20
109.54
 30
0.0
 10
-132.0203
 20
124.9099
 30
0.0
 10
-132.0203
 20
124.9099
 30
0.0
  0
SPLINE
  5
7A
330
1F
100
AcDbEntity
  8
layer 1
 62
     7
100
AcDbSpline
210
0.0
220
0.0
230
1.0
 70
    11
 71
     3
 72
    16
 73
    12
 74
     0
 42
0.0000000001
 43
0.0000000001
 12
1.0
 22
0.0
 32
0.0
 13
1.0
 23
0.0
 33
0.0
 40
0.0
 40
0.0
 40
0.0
 40
0.0
 40
0.25
 40
0.25
 40
0.25
 40
0.25
 40
0.5
 40
0.5
 40
0.5
 40
0.5
 40
1.0
 40
1.0
 40
1.0
 40
1.0
 10
-134.8251
 20
100.7517
 30
0.0
 10
-138.5169
 20
100.14
 30
0.0
 10
-141.3328
 20
96.9314
 30
0.0
 10
-141.3328
 20
93.0668
 30
0.0
 10
-141.3328
 20
93.0668
 30
0.0
 10
-141.3328
 20
89.2021
 30
0.0
 10
-138.5169
 20
85.9936
 30
0.0
 10
-134.8251
 20
85.3818
 30
0.0
 10
-134.8251
 20
85.3818
 30
0.0
 10
-134.8251
 20
85.3818
 30
0.0
 10
-134.8251
 20
100.7517
 30
0.0
 10
-134.8251
 20
100.7517
 30
0.0
  0
SPLINE
  5
7B
330
1F
100
AcDbEntity
  8
layer 1
 62
     7
100
AcDbSpline
210
0.0
220
0.0
230
1.0
 70
    11
 71
     3
 72
    16
 73
    12
 74
     0
 42
0.0000000001
 43
0.0000000001
 12
1.0
 22
0.0
 32
0.0
 13
1.0
 23
0.0
 33
0.0
 40
0.0
 40
0.0
 40
0.0
 40
0.0
 40
0.25
 40
0.25
 40
0.25
 40
0.25
 40
0.5
 40
0.5
 40
0.5
 40
0.5
 40
1.0
 40
1.0
 40
1.0
 40
1.0
 10
-132.0203
 20
100.7517
 30
0.0
 10
-128.3286
 20
100.14
 30
0.0
 10
-125.5127
 20
96.9314
 30
0.0
 10
-125.5127
 20
93.0668
 30
0.0
 10
-125.5127
 20
93.0668
 30
0.0
 10
-125.5127
 20
89.2021
 30
0.0
 10
-128.3286
 20
85.9936
 30
0.0
 10
-132.0203
 20
85.3818
 30
0.0
 10
-132.0203
 20
85.3818
 30
0.0
 10
-132.0203
 20
85.3818
 30
0.0
 10
-132.0203
 20
100.7517
 30
0.0
 10
-132.0203
 20
100.7517
 30
0.0
  0
SPLINE
  5
7C
330
1F
100
AcDbEntity
  8
layer 1
 62
     7
100
AcDbSpline
210
0.0
220
0.0
230
1.0
 70
    11
 71
     3
 72
    16
 73
    12
 74
     0
 42
0.0000000001
 43
0.0000000001
 12
1.0
 22
0.0
 32
0.0
 13
1.0
 23
0.0
 33
0.0
 40
0.0
 40
0.0
 40
0.0
 40
0.0
 40
0.25
 40
0.25
 40
0.25
 40
0.25
 40
0.5
 40
0.5
 40
0.5
 40
0.5
 40
1.0
 40
1.0
 40
1.0
 40
1.0
 10
-134.8251
 20
76.5936
 30
0.0
 10
-138.5169
 20
75.9818
 30
0.0
 10
-141.3328
 20
72.7733
 30
0.0
 10
-141.3328
 20
68.9086
 30
0.0
 10
-141.3328
 20
68.9086
 30
0.0
 10
-141.3328
 20
65.0439
 30
0.0
 10
-138.5169
 20
61.8354
 30
0.0
 10
-134.8251
 20
61.2236
 30
0.0
 10
-134.8251
 20
61.2236
 30
0.0
 10
-134.8251
 20
61.2236
 30
0.0
 10
-134.8251
 20
76.5936
 30
0.0
 10
-134.8251
 20
76.5936
 30
0.0
  0
SPLINE
  5
7D
330
1F
100
AcDbEntity
  8
layer 1
 62
     7
100
AcDbSpline
210
0.0
220
0.0
230
1.0
 70
    11
 71
     3
 72
    16
 73
    12
 74
     0
 42
0.0000000001
 43
0.0000000001
 12
1.0
 22
0.0
 32
0.0
 13
1.0
 23
0.0
 33
0.0
 40
0.0
 40
0.0
 40
0.0
 40
0.0
 40
0.25
 40
0.25
 40
0.25
 40
0.25
 40
0.5
 40
0.5
 40
0.5
 40
0.5
 40
1.0
 40
1.0
 40
1.0
 40
1.0
 10
-132.0203
 20
76.5936
 30
0.0
 10
-128.3286
 20
75.9818
 30
0.0
 10
-125.5127
 20
72.7733
 30
0.0
 10
-125.5127
 20
68.9086
 30
0.0
 10
-125.5127
 20
68.9086
 30
0.0
 10
-125.5127
 20
65.0439
 30
0.0
 10
-128.3286
 20
61.8354
 30
0.0
 10
-132.0203
 20
61.2236
 30
0.0
 10
-132.0203
 20
61.2236
 30
0.0
 10
-132.0203
 20
61.2236
 30
0.0
 10
-132.0203
 20
76.5936
 30
0.0
 10
-132.0203
 20
76.5936
 30
0.0
  0
SPLINE
  5
7E
330
1F
100
AcDbEntity
  8
layer 1
 62
     7
100
AcDbSpline
210
0.0
220
0.0
230
1.0
 70
    11
 71
     3
 72
    16
 73
    12
 74
     0
 42
0.0000000001
 43
0.0000000001
 12
1.0
 22
0.0
 32
0.0
 13
1.0
 23
0.0
 33
0.0
 40
0.0
 40
0.0
 40
0.0
 40
0.0
 40
0.25
 40
0.25
 40
0.25
 40
0.25
 40
0.5
 40
0.5
 40
0.5
 40
0.5
 40
1.0
 40
1.0
 40
1.0
 40
1.0
 10
-134.8251
 20
52.4354
 30
0.0
 10
-138.5169
 20
51.8236
 30
0.0
 10
-141.3328
 20
48.6151
 30
0.0
 10
-141.3328
 20
44.7504
 30
0.0
 10
-141.3328
 20
44.7504
 30
0.0
 10
-141.3328
 20
40.8858
 30
0.0
 10
-138.5169
 20
37.6772
 30
0.0
 10
-134.8251
 20
37.0655
 30
0.0
 10
-134.8251
 20
37.0655
 30
0.0
 10
-134.8251
 20
37.0655
 30
0.0
 10
-134.8251
 20
52.4354
 30
0.0
 10
-134.8251
 20
52.4354
 30
0.0
  0
SPLINE
  5
7F
330
1F
100
AcDbEntity
  8
layer 1
 62
     7
100
AcDbSpline
210
0.0
220
0.0
230
1.0
 70
    11
 71
     3
 72
    16
 73
    12
 74
     0
 42
0.0000000001
 43
0.0000000001
 12
1.0
 22
0.0
 32
0.0
 13
1.0
 23
0.0
 33
0.0
 40
0.0
 40
0.0
 40
0.0
 40
0.0
 40
0.25
 40
0.25
 40
0.25
 40
0.25
 40
0.5
 40
0.5
 40
0.5
 40
0.5
 40
1.0
 40
1.0
 40
1.0
 40
1.0
 10
-132.0203
 20
52.4354
 30
0.0
 10
-128.3286
 20
51.8236
 30
0.0
 10
-125.5127
 20
48.6151
 30
0.0
 10
-125.5127
 20
44.7504
 30
0.0
 10
-125.5127
 20
44.7504
 30
0.0
 10
-125.5127
 20
40.8858
 30
0.0
 10
-128.3286
 20
37.6772
 30
0.0
 10
-132.0203
 20
37.0655
 30
0.0
 10
-132.0203
 20
37.0655
 30
0.0
 10
-132.0203
 20
37.0655
 30
0.0
 10
-132.0203
 20
52.4354
 30
0.0
 10
-132.0203
 20
52.4354
 30
0.0
  0
SPLINE
  5
80
330
1F
100
AcDbEntity
  8
layer 1
 62
     7
100
AcDbSpline
210
0.0
220
0.0
230
1.0
 70
    11
 71
     3
 72
    16
 73
    12
 74
     0
 42
0.0000000001
 43
0.0000000001
 12
1.0
 22
0.0
 32
0.0
 13
1.0
 23
0.0
 33
0.0
 40
0.0
 40
0.0
 40
0.0
 40
0.0
 40
0.25
 40
0.25
 40
0.25
 40
0.25
 40
0.5
 40
0.5
 40
0.5
 40
0.5
 40
1.0
 40
1.0
 40
1.0
 40
1.0
 10
-134.8251
 20
28.2772
 30
0.0
 10
-138.5169
 20
27.6655
 30
0.0
 10
-141.3328
 20
24.4569
 30
0.0
 10
-141.3328
 20
20.5922
 30
0.0
 10
-141.3328
 20
20.5922
 30
0.0
 10
-141.3328
 20
16.7276
 30
0.0
 10
-138.5169
 20
13.519
 30
0.0
 10
-134.8251
 20
12.9073
 30
0.0
 10
-134.8251
 20
12.9073
 30
0.0
 10
-134.8251
 20
12.9073
 30
0.0
 10
-134.8251
 20
28.2772
 30
0.0
 10
-134.8251
 20
28.2772
 30
0.0
  0
SPLINE
  5
81
330
1F
100
AcDbEntity
  8
layer 1
 62
     7
100
AcDbSpline
210
0.0
220
0.0
230
1.0
 70
    11
 71
     3
 72
    16
 73
    12
 74
     0
 42
0.0000000001
 43
0.0000000001
 12
1.0
 22
0.0
 32
0.0
 13
1.0
 23
0.0
 33
0.0
 40
0.0
 40
0.0
 40
0.0
 40
0.0
 40
0.25
 40
0.25
 40
0.25
 40
0.25
 40
0.5
 40
0.5
 40
0.5
 40
0.5
 40
1.0
 40
1.0
 40
1.0
 40
1.0
 10
-132.0203
 20
28.2772
 30
0.0
 10
-128.3286
 20
27.6655
 30
0.0
 10
-125.5127
 20
24.4569
 30
0.0
 10
-125.5127
 20
20.5922
 30
0.0
 10
-125.5127
 20
20.5922
 30
0.0
 10
-125.5127
 20
16.7276
 30
0.0
 10
-128.3286
 20
13.519
 30
0.0
 10
-132.0203
 20
12.9073
 30
0.0
 10
-132.0203
 20
12.9073
 30
0.0
 10
-132.0203
 20
12.9073
 30
0.0
 10
-132.0203
 20
28.2772
 30
0.0
 10
-132.0203
 20
28.2772
 30
0.0
  0
SPLINE
  5
82
330
1F
100
AcDbEntity
  8
layer 1
 62
     7
100
AcDbSpline
210
0.0
220
0.0
230
1.0
 70
    11
 71
     3
 72
    16
 73
    12
 74
     0
 42
0.0000000001
 43
0.0000000001
 12
1.0
 22
0.0
 32
0.0
 13
1.0
 23
0.0
 33
0.0
 40
0.0
 40
0.0
 40
0.0
 40
0.0
 40
0.25
 40
0.25
 40
0.25
 40
0.25
 40
0.5
 40
0.5
 40
0.5
 40
0.5
 40
1.0
 40
1.0
 40
1.0
 40
1.0
 10
-134.8251
 20
4.119
 30
0.0
 10
-138.5169
 20
3.5073
 30
0.0
 10
-141.3328
 20
0.2987
 30
0.0
 10
-141.3328
 20
-3.5659
 30
0.0
 10
-141.3328
 20
-3.5659
 30
0.0
 10
-141.3328
 20
-7.4306
 30
0.0
 10
-138.5169
 20
-10.6392
 30
0.0
 10
-134.8251
 20
-11.2509
 30
0.0
 10
-134.8251
 20
-11.2509
 30
0.0
 10
-134.8251
 20
-11.2509
 30
0.0
 10
-134.8251
 20
4.119
 30
0.0
 10
-134.8251
 20
4.119
 30
0.0
  0
SPLINE
  5
83
330
1F
100
AcDbEntity
  8
layer 1
 62
     7
100
AcDbSpline
210
0.0
220
0.0
230
1.0
 70
    11
 71
     3
 72
    16
 73
    12
 74
     0
 42
0.0000000001
 43
0.0000000001
 12
1.0
 22
0.0
 32
0.0
 13
1.0
 23
0.0
 33
0.0
 40
0.0
 40
0.0
 40
0.0
 40
0.0
 40
0.25
 40
0.25
 40
0.25
 40
0.25
 40
0.5
 40
0.5
 40
0.5
 40
0.5
 40
1.0
 40
1.0
 40
1.0
 40
1.0
 10
-132.0203
 20
4.119
 30
0.0
 10
-128.3286
 20
3.5073
 30
0.0
 10
-125.5127
 20
0.2987
 30
0.0
 10
-125.5127
 20
-3.5659
 30
0.0
 10
-125.5127
 20
-3.5659
 30
0.0
 10
-125.5127
 20
-7.4306
 30
0.0
 10
-128.3286
 20
-10.6392
 30
0.0
 10
-132.0203
 20
-11.2509
 30
0.0
 10
-132.0203
 20
-11.2509
 30
0.0
 10
-132.0203
 20
-11.2509
 30
0.0
 10
-132.0203
 20
4.119
 30
0.0
 10
-132.0203
 20
4.119
 30
0.0
  0
SPLINE
  5
84
330
1F
100
AcDbEntity
  8
layer 1
 62
     7
100
AcDbSpline
210
0.0
220
0.0
230
1.0
 70
    11
 71
     3
 72
    16
 73
    12
 74
     0
 42
0.0000000001
 43
0.0000000001
 12
1.0
 22
0.0
 32
0.0
 13
1.0
 23
0.0
 33
0.0
 40
0.0
 40
0.0
 40
0.0
 40
0.0
 40
0.25
 40
0.25
 40
0.25
 40
0.25
 40
0.5
 40
0.5
 40
0.5
 40
0.5
 40
1.0
 40
1.0
 40
1.0
 40
1.0
 10
-134.8251
 20
-20.0392
 30
0.0
 10
-138.5169
 20
-20.6509
 30
0.0
 10
-141.3328
 20
-23.8594
 30
0.0
 10
-141.3328
 20
-27.7241
 30
0.0
 10
-141.3328
 20
-27.7241
 30
0.0
 10
-141.3328
 20
-31.5888
 30
0.0
 10
-138.5169
 20
-34.7973
 30
0.0
 10
-134.8251
 20
-35.4091
 30
0.0
 10
-134.8251
 20
-35.4091
 30
0.0
 10
-134.8251
 20
-35.4091
 30
0.0
 10
-134.8251
 20
-20.0392
 30
0.0
 10
-134.8251
 20
-20.0392
 30
0.0
  0
SPLINE
  5
85
330
1F
100
AcDbEntity
  8
layer 1
 62
     7
100
AcDbSpline
210
0.0
220
0.0
230
1.0
 70
    11
 71
     3
 72
    16
 73
    12
 74
     0
 42
0.0000000001
 43
0.0000000001
 12
1.0
 22
0.0
 32
0.0
 13
1.0
 23
0.0
 33
0.0
 40
0.0
 40
0.0
 40
0.0
 40
0.0
 40
0.25
 40
0.25
 40
0.25
 40
0.25
 40
0.5
 40
0.5
 40
0.5
 40
0.5
 40
1.0
 40
1.0
 40
1.0
 40
1.0
 10
-132.0203
 20
-20.0392
 30
0.0
 10
-128.3286
 20
-20.6509
 30
0.0
 10
-125.5127
 20
-23.8594
 30
0.0
 10
-125.5127
 20
-27.7241
 30
0.0
 10
-125.5127
 20
-27.7241
 30
0.0
 10
-125.5127
 20
-31.5888
 30
0.0
 10
-128.3286
 20
-34.7973
 30
0.0
 10
-132.0203
 20
-35.4091
 30
0.0
 10
-132.0203
 20
-35.4091
 30
0.0
 10
-132.0203
 20
-35.4091
 30
0.0
 10
-132.0203
 20
-20.0392
 30
0.0
 10
-132.0203
 20
-20.0392
 30
0.0
  0
SPLINE
  5
86
330
1F
100
AcDbEntity
  8
layer 1
 62
     7
100
AcDbSpline
210
0.0
220
0.0
230
1.0
 70
    11
 71
     3
 72
    16
 73
    12
 74
     0
 42
0.0000000001
 43
0.0000000001
 12
1.0
 22
0.0
 32
0.0
 13
1.0
 23
0.0
 33
0.0
 40
0.0
 40
0.0
 40
0.0
 40
0.0
 40
0.25
 40
0.25
 40
0.25
 40
0.25
 40
0.5
 40
0.5
 40
0.5
 40
0.5
 40
1.0
 40
1.0
 40
1.0
 40
1.0
 10
-134.8251
 20
-44.1973
 30
0.0
 10
-138.5169
 20
-44.8091
 30
0.0
 10
-141.3328
 20
-48.0176
 30
0.0
 10
-141.3328
 20
-51.8823
 30
0.0
 10
-141.3328
 20
-51.8823
 30
0.0
 10
-141.3328
 20
-55.747
 30
0.0
 10
-138.5169
 20
-58.9555
 30
0.0
 10
-134.8251
 20
-59.5672
 30
0.0
 10
-134.8251
 20
-59.5672
 30
0.0
 10
-134.8251
 20
-59.5672
 30
0.0
 10
-134.8251
 20
-44.1973
 30
0.0
 10
-134.8251
 20
-44.1973
 30
0.0
  0
SPLINE
  5
87
330
1F
100
AcDbEntity
  8
layer 1
 62
     7
100
AcDbSpline
210
0.0
220
0.0
230
1.0
 70
    11
 71
     3
 72
    16
 73
    12
 74
     0
 42
0.0000000001
 43
0.0000000001
 12
1.0
 22
0.0
 32
0.0
 13
1.0
 23
0.0
 33
0.0
 40
0.0
 40
0.0
 40
0.0
 40
0.0
 40
0.25
 40
0.25
 40
0.25
 40
0.25
 40
0.5
 40
0.5
 40
0.5
 40
0.5
 40
1.0
 40
1.0
 40
1.0
 40
1.0
 10
-132.0203
 20
-44.1973
 30
0.0
 10
-128.3286
 20
-44.8091
 30
0.0
 10
-125.5127
 20
-48.0176
 30
0.0
 10
-125.5127
 20
-51.8823
 30
0.0
 10
-125.5127
 20
-51.8823
 30
0.0
 10
-125.5127
 20
-55.747
 30
0.0
 10
-128.3286
 20
-58.9555
 30
0.0
 10
-132.0203
 20
-59.5672
 30
0.0
 10
-132.0203
 20
-59.5672
 30
0.0
 10
-132.0203
 20
-59.5672
 30
0.0
 10
-132.0203
 20
-44.1973
 30
0.0
 10
-132.0203
 20
-44.1973
 30
0.0
  0
SPLINE
  5
88
330
1F
100
AcDbEntity
  8
layer 1
 62
     7
100
AcDbSpline
210
0.0
220
0.0
230
1.0
 70
    11
 71
     3
 72
    16
 73
    12
 74
     0
 42
0.0000000001
 43
0.0000000001
 12
1.0
 22
0.0
 32
0.0
 13
1.0
 23
0.0
 33
0.0
 40
0.0
 40
0.0
 40
0.0
 40
0.0
 40
0.25
 40
0.25
 40
0.25
 40
0.25
 40
0.5
 40
0.5
 40
0.5
 40
0.5
 40
1.0
 40
1.0
 40
1.0
 40
1.0
 10
-134.8251
 20
-68.3555
 30
0.0
 10
-138.5169
 20
-68.9672
 30
0.0
 10
-141.3328
 20
-72.1758
 30
0.0
 10
-141.3328
 20
-76.0405
 30
0.0
 10
-141.3328
 20
-76.0405
 30
0.0
 10
-141.3328
 20
-79.9051
 30
0.0
 10
-138.5169
 20
-83.1137
 30
0.0
 10
-134.8251
 20
-83.7254
 30
0.0
 10
-134.8251
 20
-83.7254
 30
0.0
 10
-134.8251
 20
-83.7254
 30
0.0
 10
-134.8251
 20
-68.3555
 30
0.0
 10
-134.8251
 20
-68.3555
 30
0.0
  0
SPLINE
  5
89
330
1F
100
AcDbEntity
  8
layer 1
 62
     7
100
AcDbSpline
210
0.0
220
0.0
230
1.0
 70
    11
 71
     3
 72
    16
 73
    12
 74
     0
 42
0.0000000001
 43
0.0000000001
 12
1.0
 22
0.0
 32
0.0
 13
1.0
 23
0.0
 33
0.0
 40
0.0
 40
0.0
 40
0.0
 40
0.0
 40
0.25
 40
0.25
 40
0.25
 40
0.25
 40
0.5
 40
0.5
 40
0.5
 40
0.5
 40
1.0
 40
1.0
 40
1.0
 40
1.0
 10
-132.0203
 20
-68.3555
 30
0.0
 10
-128.3286
 20
-68.9672
 30
0.0
 10
-125.5127
 20
-72.1758
 30
0.0
 10
-125.5127
 20
-76.0405
 30
0.0
 10
-125.5127
 20
-76.0405
 30
0.0
 10
-125.5127
 20
-79.9051
 30
0.0
 10
-128.3286
 20
-83.1137
 30
0.0
 10
-132.0203
 20
-83.7254
 30
0.0
 10
-132.0203
 20
-83.7254
 30
0.0
 10
-132.0203
 20
-83.7254
 30
0.0
 10
-132.0203
 20
-68.3555
 30
0.0
 10
-132.0203
 20
-68.3555
 30
0.0
  0
SPLINE
  5
8A
330
1F
100
AcDbEntity
  8
layer 1
 62
     7
100
AcDbSpline
210
0.0
220
0.0
230
1.0
 70
    11
 71
     3
 72
    16
 73
    12
 74
     0
 42
0.0000000001
 43
0.0000000001
 12
1.0
 22
0.0
 32
0.0
 13
1.0
 23
0.0
 33
0.0
 40
0.0
 40
0.0
 40
0.0
 40
0.0
 40
0.25
 40
0.25
 40
0.25
 40
0.25
 40
0.5
 40
0.5
 40
0.5
 40
0.5
 40
1.0
 40
1.0
 40
1.0
 40
1.0
 10
-134.8251
 20
-92.5137
 30
0.0
 10
-138.5169
 20
-93.1254
 30
0.0
 10
-141.3328
 20
-96.334
 30
0.0
 10
-141.3328
 20
-100.1986
 30
0.0
 10
-141.3328
 20
-100.1986
 30
0.0
 10
-141.3328
 20
-104.0633
 30
0.0
 10
-138.5169
 20
-107.2719
 30
0.0
 10
-134.8251
 20
-107.8836
 30
0.0
 10
-134.8251
 20
-107.8836
 30
0.0
 10
-134.8251
 20
-107.8836
 30
0.0
 10
-134.8251
 20
-92.5137
 30
0.0
 10
-134.8251
 20
-92.5137
 30
0.0
  0
SPLINE
  5
8B
330
1F
100
AcDbEntity
  8
layer 1
 62
     7
100
AcDbSpline
210
0.0
220
0.0
230
1.0
 70
    11
 71
     3
 72
    16
 73
    12
 74
     0
 42
0.0000000001
 43
0.0000000001
 12
1.0
 22
0.0
 32
0.0
 13
1.0
 23
0.0
 33
0.0
 40
0.0
 40
0.0
 40
0.0
 40
0.0
 40
0.25
 40
0.25
 40
0.25
 40
0.25
 40
0.5
 40
0.5
 40
0.5
 40
0.5
 40
1.0
 40
1.0
 40
1.0
 40
1.0
 10
-132.0203
 20
-92.5137
 30
0.0
 10
-128.3286
 20
-93.1254
 30
0.0
 10
-125.5127
 20
-96.334
 30
0.0
 10
-125.5127
 20
-100.1986
 30
0.0
 10
-125.5127
 20
-100.1986
 30
0.0
 10
-125.5127
 20
-104.0633
 30
0.0
 10
-128.3286
 20
-107.2719
 30
0.0
 10
-132.0203
 20
-107.8836
 30
0.0
 10
-132.0203
 20
-107.8836
 30
0.0
 10
-132.0203
 20
-107.8836
 30
0.0
 10
-132.0203
 20
-92.5137
 30
0.0
 10
-132.0203
 20
-92.5137
 30
0.0
  0
SPLINE
  5
8C
330
1F
100
AcDbEntity
  8
layer 1
 62
     7
100
AcDbSpline
210
0.0
220
0.0
230
1.0
 70
    11
 71
     3
 72
    16
 73
    12
 74
     0
 42
0.0000000001
 43
0.0000000001
 12
1.0
 22
0.0
 32
0.0
 13
1.0
 23
0.0
 33
0.0
 40
0.0
 40
0.0
 40
0.0
 40
0.0
 40
0.25
 40
0.25
 40
0.25
 40
0.25
 40
0.5
 40
0.5
 40
0.5
 40
0.5
 40
1.0
 40
1.0
 40
1.0
 40
1.0
 10
-109.242
 20
124.9099
 30
0.0
 10
-112.9338
 20
124.2982
 30
0.0
 10
-115.7497
 20
121.0896
 30
0.0
 10
-115.7497
 20
117.225
 30
0.0
 10
-115.7497
 20
117.225
 30
0.0
 10
-115.7497
 20
113.3603
 30
0.0
 10
-112.9338
 20
110.1517
 30
0.0
 10
-109.242
 20
109.54
 30
0.0
 10
-109.242
 20
109.54
 30
0.0
 10
-109.242
 20
109.54
 30
0.0
 10
-109.242
 20
124.9099
 30
0.0
 10
-109.242
 20
124.9099
 30
0.0
  0
SPLINE
  5
8D
330
1F
100
AcDbEntity
  8
layer 1
 62
     7
100
AcDbSpline
210
0.0
220
0.0
230
1.0
 70
    11
 71
     3
 72
    16
 73
    12
 74
     0
 42
0.0000000001
 43
0.0000000001
 12
1.0
 22
0.0
 32
0.0
 13
1.0
 23
0.0
 33
0.0
 40
0.0
 40
0.0
 40
0.0
 40
0.0
 40
0.25
 40
0.25
 40
0.25
 40
0.25
 40
0.5
 40
0.5
 40
0.5
 40
0.5
 40
1.0
 40
1.0
 40
1.0
 40
1.0
 10
-106.4372
 20
124.9099
 30
0.0
 10
-102.7455
 20
124.2982
 30
0.0
 10
-99.9296
 20
121.0896
 30
0.0
 10
-99.9296
 20
117.225
 30
0.0
 10
-99.9296
 20
117.225
 30
0.0
 10
-99.9296
 20
113.3603
 30
0.0
 10
-102.7455
 20
110.1517
 30
0.0
 10
-106.4372
 20
109.54
 30
0.0
 10
-106.4372
 20
109.54
 30
0.0
 10
-106.4372
 20
109.54
 30
0.0
 10
-106.4372
 20
124.9099
 30
0.0
 10
-106.4372
 20
124.9099
 30
0.0
  0
SPLINE
  5
8E
330
1F
100
AcDbEntity
  8
layer 1
 62
     7
100
AcDbSpline
210
0.0
220
0.0
230
1.0
 70
    11
 71
     3
 72
    16
 73
    12
 74
     0
 42
0.0000000001
 43
0.0000000001
 12
1.0
 22
0.0
 32
0.0
 13
1.0
 23
0.0
 33
0.0
 40
0.0
 40
0.0
 40
0.0
 40
0.0
 40
0.25
 40
0.25
 40
0.25
 40
0.25
 40
0.5
 40
0.5
 40
0.5
 40
0.5
 40
1.0
 40
1.0
 40
1.0
 40
1.0
 10
-109.242
 20
100.7517
 30
0.0
 10
-112.9338
 20
100.14
 30
0.0
 10
-115.7497
 20
96.9314
 30
0.0
 10
-115.7497
 20
93.0668
 30
0.0
 10
-115.7497
 20
93.0668
 30
0.0
 10
-115.7497
 20
89.2021
 30
0.0
 10
-112.9338
 20
85.9936
 30
0.0
 10
-109.242
 20
85.3818
 30
0.0
 10
-109.242
 20
85.3818
 30
0.0
 10
-109.242
 20
85.3818
 30
0.0
 10
-109.242
 20
100.7517
 30
0.0
 10
-109.242
 20
100.7517
 30
0.0
  0
SPLINE
  5
8F
330
1F
100
AcDbEntity
  8
layer 1
 62
     7
100
AcDbSpline
210
0.0
220
0.0
230
1.0
 70
    11
 71
     3
 72
    16
 73
    12
 74
     0
 42
0.0000000001
 43
0.0000000001
 12
1.0
 22
0.0
 32
0.0
 13
1.0
 23
0.0
 33
0.0
 40
0.0
 40
0.0
 40
0.0
 40
0.0
 40
0.25
 40
0.25
 40
0.25
 40
0.25
 40
0.5
 40
0.5
 40
0.5
 40
0.5
 40
1.0
 40
1.0
 40
1.0
 40
1.0
 10
-106.4372
 20
100.7517
 30
0.0
 10
-102.7455
 20
100.14
 30
0.0
 10
-99.9296
 20
96.9314
 30
0.0
 10
-99.9296
 20
93.0668
 30
0.0
 10
-99.9296
 20
93.0668
 30
0.0
 10
-99.9296
 20
89.2021
 30
0.0
 10
-102.7455
 20
85.9936
 30
0.0
 10
-106.4372
 20
85.3818
 30
0.0
 10
-106.4372
 20
85.3818
 30
0.0
 10
-106.4372
 20
85.3818
 30
0.0
 10
-106.4372
 20
100.7517
 30
0.0
 10
-106.4372
 20
100.7517
 30
0.0
  0
SPLINE
  5
90
330
1F
100
AcDbEntity
  8
layer 1
 62
     7
100
AcDbSpline
210
0.0
220
0.0
230
1.0
 70
    11
 71
     3
 72
    16
 73
    12
 74
     0
 42
0.0000000001
 43
0.0000000001
 12
1.0
 22
0.0
 32
0.0
 13
1.0
 23
0.0
 33
0.0
 40
0.0
 40
0.0
 40
0.0
 40
0.0
 40
0.25
 40
0.25
 40
0.25
 40
0.25
 40
0.5
 40
0.5
 40
0.5
 40
0.5
 40
1.0
 40
1.0
 40
1.0
 40
1.0
 10
-109.242
 20
76.5936
 30
0.0
 10
-112.9338
 20
75.9818
 30
0.0
 10
-115.7497
 20
72.7733
 30
0.0
 10
-115.7497
 20
68.9086
 30
0.0
 10
-115.7497
 20
68.9086
 30
0.0
 10
-115.7497
 20
65.0439
 30
0.0
 10
-112.9338
 20
61.8354
 30
0.0
 10
-109.242
 20
61.2236
 30
0.0
 10
-109.242
 20
61.2236
 30
0.0
 10
-109.242
 20
61.2236
 30
0.0
 10
-109.242
 20
76.5936
 30
0.0
 10
-109.242
 20
76.5936
 30
0.0
  0
SPLINE
  5
91
330
1F
100
AcDbEntity
  8
layer 1
 62
     7
100
AcDbSpline
210
0.0
220
0.0
230
1.0
 70
    11
 71
     3
 72
    16
 73
    12
 74
     0
 42
0.0000000001
 43
0.0000000001
 12
1.0
 22
0.0
 32
0.0
 13
1.0
 23
0.0
 33
0.0
 40
0.0
 40
0.0
 40
0.0
 40
0.0
 40
0.25
 40
0.25
 40
0.25
 40
0.25
 40
0.5
 40
0.5
 40
0.5
 40
0.5
 40
1.0
 40
1.0
 40
1.0
 40
1.0
 10
-106.4372
 20
76.5936
 30
0.0
 10
-102.7455
 20
75.9818
 30
0.0
 10
-99.9296
 20
72.7733
 30
0.0
 10
-99.9296
 20
68.9086
 30
0.0
 10
-99.9296
 20
68.9086
 30
0.0
 10
-99.9296
 20
65.0439
 30
0.0
 10
-102.7455
 20
61.8354
 30
0.0
 10
-106.4372
 20
61.2236
 30
0.0
 10
-106.4372
 20
61.2236
 30
0.0
 10
-106.4372
 20
61.2236
 30
0.0
 10
-106.4372
 20
76.5936
 30
0.0
 10
-106.4372
 20
76.5936
 30
0.0
  0
SPLINE
  5
92
330
1F
100
AcDbEntity
  8
layer 1
 62
     7
100
AcDbSpline
210
0.0
220
0.0
230
1.0
 70
    11
 71
     3
 72
    16
 73
    12
 74
     0
 42
0.0000000001
 43
0.0000000001
 12
1.0
 22
0.0
 32
0.0
 13
1.0
 23
0.0
 33
0.0
 40
0.0
 40
0.0
 40
0.0
 40
0.0
 40
0.25
 40
0.25
 40
0.25
 40
0.25
 40
0.5
 40
0.5
 40
0.5
 40
0.5
 40
1.0
 40
1.0
 40
1.0
 40
1.0
 10
-109.242
 20
52.4354
 30
0.0
 10
-112.9338
 20
51.8236
 30
0.0
 10
-115.7497
 20
48.6151
 30
0.0
 10
-115.7497
 20
44.7504
 30
0.0
 10
-115.7497
 20
44.7504
 30
0.0
 10
-115.7497
 20
40.8858
 30
0.0
 10
-112.9338
 20
37.6772
 30
0.0
 10
-109.242
 20
37.0655
 30
0.0
 10
-109.242
 20
37.0655
 30
0.0
 10
-109.242
 20
37.0655
 30
0.0
 10
-109.242
 20
52.4354
 30
0.0
 10
-109.242
 20
52.4354
 30
0.0
  0
SPLINE
  5
93
330
1F
100
AcDbEntity
  8
layer 1
 62
     7
100
AcDbSpline
210
0.0
220
0.0
230
1.0
 70
    11
 71
     3
 72
    16
 73
    12
 74
     0
 42
0.0000000001
 43
0.0000000001
 12
1.0
 22
0.0
 32
0.0
 13
1.0
 23
0.0
 33
0.0
 40
0.0
 40
0.0
 40
0.0
 40
0.0
 40
0.25
 40
0.25
 40
0.25
 40
0.25
 40
0.5
 40
0.5
 40
0.5
 40
0.5
 40
1.0
 40
1.0
 40
1.0
 40
1.0
 10
-106.4372
 20
52.4354
 30
0.0
 10
-102.7455
 20
51.8236
 30
0.0
 10
-99.9296
 20
48.6151
 30
0.0
 10
-99.9296
 20
44.7504
 30
0.0
 10
-99.9296
 20
44.7504
 30
0.0
 10
-99.9296
 20
40.8858
 30
0.0
 10
-102.7455
 20
37.6772
 30
0.0
 10
-106.4372
 20
37.0655
 30
0.0
 10
-106.4372
 20
37.0655
 30
0.0
 10
-106.4372
 20
37.0655
 30
0.0
 10
-106.4372
 20
52.4354
 30
0.0
 10
-106.4372
 20
52.4354
 30
0.0
  0
SPLINE
  5
94
330
1F
100
AcDbEntity
  8
layer 1
 62
     7
100
AcDbSpline
210
0.0
220
0.0
230
1.0
 70
    11
 71
     3
 72
    16
 73
    12
 74
     0
 42
0.0000000001
 43
0.0000000001
 12
1.0
 22
0.0
 32
0.0
 13
1.0
 23
0.0
 33
0.0
 40
0.0
 40
0.0
 40
0.0
 40
0.0
 40
0.25
 40
0.25
 40
0.25
 40
0.25
 40
0.5
 40
0.5
 40
0.5
 40
0.5
 40
1.0
 40
1.0
 40
1.0
 40
1.0
 10
-109.242
 20
28.2772
 30
0.0
 10
-112.9338
 20
27.6655
 30
0.0
 10
-115.7497
 20
24.4569
 30
0.0
 10
-115.7497
 20
20.5922
 30
0.0
 10
-115.7497
 20
20.5922
 30
0.0
 10
-115.7497
 20
16.7276
 30
0.0
 10
-112.9338
 20
13.519
 30
0.0
 10
-109.242
 20
12.9073
 30
0.0
 10
-109.242
 20
12.9073
 30
0.0
 10
-109.242
 20
12.9073
 30
0.0
 10
-109.242
 20
28.2772
 30
0.0
 10
-109.242
 20
28.2772
 30
0.0
  0
SPLINE
  5
95
330
1F
100
AcDbEntity
  8
layer 1
 62
     7
100
AcDbSpline
210
0.0
220
0.0
230
1.0
 70
    11
 71
     3
 72
    16
 73
    12
 74
     0
 42
0.0000000001
 43
0.0000000001
 12
1.0
 22
0.0
 32
0.0
 13
1.0
 23
0.0
 33
0.0
 40
0.0
 40
0.0
 40
0.0
 40
0.0
 40
0.25
 40
0.25
 40
0.25
 40
0.25
 40
0.5
 40
0.5
 40
0.5
 40
0.5
 40
1.0
 40
1.0
 40
1.0
 40
1.0
 10
-106.4372
 20
28.2772
 30
0.0
 10
-102.7455
 20
27.6655
 30
0.0
 10
-99.9296
 20
24.4569
 30
0.0
 10
-99.9296
 20
20.5922
 30
0.0
 10
-99.9296
 20
20.5922
 30
0.0
 10
-99.9296
 20
16.7276
 30
0.0
 10
-102.7455
 20
13.519
 30
0.0
 10
-106.4372
 20
12.9073
 30
0.0
 10
-106.4372
 20
12.9073
 30
0.0
 10
-106.4372
 20
12.9073
 30
0.0
 10
-106.4372
 20
28.2772
 30
0.0
 10
-106.4372
 20
28.2772
 30
0.0
  0
SPLINE
  5
96
330
1F
100
AcDbEntity
  8
layer 1
 62
     7
100
AcDbSpline
210
0.0
220
0.0
230
1.0
 70
    11
 71
     3
 72
    16
 73
    12
 74
     0
 42
0.0000000001
 43
0.0000000001
 12
1.0
 22
0.0
 32
0.0
 13
1.0
 23
0.0
 33
0.0
 40
0.0
 40
0.0
 40
0.0
 40
0.0
 40
0.25
 40
0.25
 40
0.25
 40
0.25
 40
0.5
 40
0.5
 40
0.5
 40
0.5
 40
1.0
 40
1.0
 40
1.0
 40
1.0
 10
-109.242
 20
4.119
 30
0.0
 10
-112.9338
 20
3.5073
 30
0.0
 10
-115.7497
 20
0.2987
 30
0.0
 10
-115.7497
 20
-3.5659
 30
0.0
 10
-115.7497
 20
-3.5659
 30
0.0
 10
-115.7497
 20
-7.4306
 30
0.0
 10
-112.9338
 20
-10.6392
 30
0.0
 10
-109.242
 20
-11.2509
 30
0.0
 10
-109.242
 20
-11.2509
 30
0.0
 10
-109.242
 20
-11.2509
 30
0.0
 10
-109.242
 20
4.119
 30
0.0
 10
-109.242
 20
4.119
 30
0.0
  0
SPLINE
  5
97
330
1F
100
AcDbEntity
  8
layer 1
 62
     7
100
AcDbSpline
210
0.0
220
0.0
230
1.0
 70
    11
 71
     3
 72
    16
 73
    12
 74
     0
 42
0.0000000001
 43
0.0000000001
 12
1.0
 22
0.0
 32
0.0
 13
1.0
 23
0.0
 33
0.0
 40
0.0
 40
0.0
 40
0.0
 40
0.0
 40
0.25
 40
0.25
 40
0.25
 40
0.25
 40
0.5
 40
0.5
 40
0.5
 40
0.5
 40
1.0
 40
1.0
 40
1.0
 40
1.0
 10
-106.4372
 20
4.119
 30
0.0
 10
-102.7455
 20
3.5073
 30
0.0
 10
-99.9296
 20
0.2987
 30
0.0
 10
-99.9296
 20
-3.5659
 30
0.0
 10
-99.9296
 20
-3.5659
 30
0.0
 10
-99.9296
 20
-7.4306
 30
0.0
 10
-102.7455
 20
-10.6392
 30
0.0
 10
-106.4372
 20
-11.2509
 30
0.0
 10
-106.4372
 20
-11.2509
 30
0.0
 10
-106.4372
 20
-11.2509
 30
0.0
 10
-106.4372
 20
4.119
 30
0.0
 10
-106.4372
 20
4.119
 30
0.0
  0
SPLINE
  5
98
330
1F
100
AcDbEntity
  8
layer 1
 62
     7
100
AcDbSpline
210
0.0
220
0.0
230
1.0
 70
    11
 71
     3
 72
    16
 73
    12
 74
     0
 42
0.0000000001
 43
0.0000000001
 12
1.0
 22
0.0
 32
0.0
 13
1.0
 23
0.0
 33
0.0
 40
0.0
 40
0.0
 40
0.0
 40
0.0
 40
0.25
 40
0.25
 40
0.25
 40
0.25
 40
0.5
 40
0.5
 40
0.5
 40
0.5
 40
1.0
 40
1.0
 40
1.0
 40
1.0
 10
-109.242
 20
-20.0392
 30
0.0
 10
-112.9338
 20
-20.6509
 30
0.0
 10
-115.7497
 20
-23.8594
 30
0.0
 10
-115.7497
 20
-27.7241
 30
0.0
 10
-115.7497
 20
-27.7241
 30
0.0
 10
-115.7497
 20
-31.5888
 30
0.0
 10
-112.9338
 20
-34.7973
 30
0.0
 10
-109.242
 20
-35.4091
 30
0.0
 10
-109.242
 20
-35.4091
 30
0.0
 10
-109.242
 20
-35.4091
 30
0.0
 10
-109.242
 20
-20.0392
 30
0.0
 10
-109.242
 20
-20.0392
 30
0.0
  0
SPLINE
  5
99
330
1F
100
AcDbEntity
  8
layer 1
 62
     7
100
AcDbSpline
210
0.0
220
0.0
230
1.0
 70
    11
 71
     3
 72
    16
 73
    12
 74
     0
 42
0.0000000001
 43
0.0000000001
 12
1.0
 22
0.0
 32
0.0
 13
1.0
 23
0.0
 33
0.0
 40
0.0
 40
0.0
 40
0.0
 40
0.0
 40
0.25
 40
0.25
 40
0.25
 40
0.25
 40
0.5
 40
0.5
 40
0.5
 40
0.5
 40
1.0
 40
1.0
 40
1.0
 40
1.0
 10
-106.4372
 20
-20.0392
 30
0.0
 10
-102.7455
 20
-20.6509
 30
0.0
 10
-99.9296
 20
-23.8594
 30
0.0
 10
-99.9296
 20
-27.7241
 30
0.0
 10
-99.9296
 20
-27.7241
 30
0.0
 10
-99.9296
 20
-31.5888
 30
0.0
 10
-102.7455
 20
-34.7973
 30
0.0
 10
-106.4372
 20
-35.4091
 30
0.0
 10
-106.4372
 20
-35.4091
 30
0.0
 10
-106.4372
 20
-35.4091
 30
0.0
 10
-106.4372
 20
-20.0392
 30
0.0
 10
-106.4372
 20
-20.0392
 30
0.0
  0
SPLINE
  5
9A
330
1F
100
AcDbEntity
  8
layer 1
 62
     7
100
AcDbSpline
210
0.0
220
0.0
230
1.0
 70
    11
 71
     3
 72
    16
 73
    12
 74
     0
 42
0.0000000001
 43
0.0000000001
 12
1.0
 22
0.0
 32
0.0
 13
1.0
 23
0.0
 33
0.0
 40
0.0
 40
0.0
 40
0.0
 40
0.0
 40
0.25
 40
0.25
 40
0.25
 40
0.25
 40
0.5
 40
0.5
 40
0.5
 40
0.5
 40
1.0
 40
1.0
 40
1.0
 40
1.0
 10
-109.242
 20
-44.1973
 30
0.0
 10
-112.9338
 20
-44.8091
 30
0.0
 10
-115.7497
 20
-48.0176
 30
0.0
 10
-115.7497
 20
-51.8823
 30
0.0
 10
-115.7497
 20
-51.8823
 30
0.0
 10
-115.7497
 20
-55.747
 30
0.0
 10
-112.9338
 20
-58.9555
 30
0.0
 10
-109.242
 20
-59.5672
 30
0.0
 10
-109.242
 20
-59.5672
 30
0.0
 10
-109.242
 20
-59.5672
 30
0.0
 10
-109.242
 20
-44.1973
 30
0.0
 10
-109.242
 20
-44.1973
 30
0.0
  0
SPLINE
  5
9B
330
1F
100
AcDbEntity
  8
layer 1
 62
     7
100
AcDbSpline
210
0.0
220
0.0
230
1.0
 70
    11
 71
     3
 72
    16
 73
    12
 74
     0
 42
0.0000000001
 43
0.0000000001
 12
1.0
 22
0.0
 32
0.0
 13
1.0
 23
0.0
 33
0.0
 40
0.0
 40
0.0
 40
0.0
 40
0.0
 40
0.25
 40
0.25
 40
0.25
 40
0.25
 40
0.5
 40
0.5
 40
0.5
 40
0.5
 40
1.0
 40
1.0
 40
1.0
 40
1.0
 10
-106.4372
 20
-44.1973
 30
0.0
 10
-102.7455
 20
-44.8091
 30
0.0
 10
-99.9296
 20
-48.0176
 30
0.0
 10
-99.9296
 20
-51.8823
 30
0.0
 10
-99.9296
 20
-51.8823
 30
0.0
 10
-99.9296
 20
-55.747
 30
0.0
 10
-102.7455
 20
-58.9555
 30
0.0
 10
-106.4372
 20
-59.5672
 30
0.0
 10
-106.4372
 20
-59.5672
 30
0.0
 10
-106.4372
 20
-59.5672
 30
0.0
 10
-106.4372
 20
-44.1973
 30
0.0
 10
-106.4372
 20
-44.1973
 30
0.0
  0
SPLINE
  5
9C
330
1F
100
AcDbEntity
  8
layer 1
 62
     7
100
AcDbSpline
210
0.0
220
0.0
230
1.0
 70
    11
 71
     3
 72
    16
 73
    12
 74
     0
 42
0.0000000001
 43
0.0000000001
 12
1.0
 22
0.0
 32
0.0
 13
1.0
 23
0.0
 33
0.0
 40
0.0
 40
0.0
 40
0.0
 40
0.0
 40
0.25
 40
0.25
 40
0.25
 40
0.25
 40
0.5
 40
0.5
 40
0.5
 40
0.5
 40
1.0
 40
1.0
 40
1.0
 40
1.0
 10
-109.242
 20
-68.3555
 30
0.0
 10
-112.9338
 20
-68.9672
 30
0.0
 10
-115.7497
 20
-72.1758
 30
0.0
 10
-115.7497
 20
-76.0405
 30
0.0
 10
-115.7497
 20
-76.0405
 30
0.0
 10
-115.7497
 20
-79.9051
 30
0.0
 10
-112.9338
 20
-83.1137
 30
0.0
 10
-109.242
 20
-83.7254
 30
0.0
 10
-109.242
 20
-83.7254
 30
0.0
 10
-109.242
 20
-83.7254
 30
0.0
 10
-109.242
 20
-68.3555
 30
0.0
 10
-109.242
 20
-68.3555
 30
0.0
  0
SPLINE
  5
9D
330
1F
100
AcDbEntity
  8
layer 1
 62
     7
100
AcDbSpline
210
0.0
220
0.0
230
1.0
 70
    11
 71
     3
 72
    16
 73
    12
 74
     0
 42
0.0000000001
 43
0.0000000001
 12
1.0
 22
0.0
 32
0.0
 13
1.0
 23
0.0
 33
0.0
 40
0.0
 40
0.0
 40
0.0
 40
0.0
 40
0.25
 40
0.25
 40
0.25
 40
0.25
 40
0.5
 40
0.5
 40
0.5
 40
0.5
 40
1.0
 40
1.0
 40
1.0
 40
1.0
 10
-106.4372
 20
-68.3555
 30
0.0
 10
-102.7455
 20
-68.9672
 30
0.0
 10
-99.9296
 20
-72.1758
 30
0.0
 10
-99.9296
 20
-76.0405
 30
0.0
 10
-99.9296
 20
-76.0405
 30
0.0
 10
-99.9296
 20
-79.9051
 30
0.0
 10
-102.7455
 20
-83.1137
 30
0.0
 10
-106.4372
 20
-83.7254
 30
0.0
 10
-106.4372
 20
-83.7254
 30
0.0
 10
-106.4372
 20
-83.7254
 30
0.0
 10
-106.4372
 20
-68.3555
 30
0.0
 10
-106.4372
 20
-68.3555
 30
0.0
  0
SPLINE
  5
9E
330
1F
100
AcDbEntity
  8
layer 1
 62
     7
100
AcDbSpline
210
0.0
220
0.0
230
1.0
 70
    11
 71
     3
 72
    16
 73
    12
 74
     0
 42
0.0000000001
 43
0.0000000001
 12
1.0
 22
0.0
 32
0.0
 13
1.0
 23
0.0
 33
0.0
 40
0.0
 40
0.0
 40
0.0
 40
0.0
 40
0.25
 40
0.25
 40
0.25
 40
0.25
 40
0.5
 40
0.5
 40
0.5
 40
0.5
 40
1.0
 40
1.0
 40
1.0
 40
1.0
 10
-109.242
 20
-92.5137
 30
0.0
 10
-112.9338
 20
-93.1254
 30
0.0
 10
-115.7497
 20
-96.334
 30
0.0
 10
-115.7497
 20
-100.1986
 30
0.0
 10
-115.7497
 20
-100.1986
 30
0.0
 10
-115.7497
 20
-104.0633
 30
0.0
 10
-112.9338
 20
-107.2719
 30
0.0
 10
-109.242
 20
-107.8836
 30
0.0
 10
-109.242
 20
-107.8836
 30
0.0
 10
-109.242
 20
-107.8836
 30
0.0
 10
-109.242
 20
-92.5137
 30
0.0
 10
-109.242
 20
-92.5137
 30
0.0
  0
SPLINE
  5
9F
330
1F
100
AcDbEntity
  8
layer 1
 62
     7
100
AcDbSpline
210
0.0
220
0.0
230
1.0
 70
    11
 71
     3
 72
    16
 73
    12
 74
     0
 42
0.0000000001
 43
0.0000000001
 12
1.0
 22
0.0
 32
0.0
 13
1.0
 23
0.0
 33
0.0
 40
0.0
 40
0.0
 40
0.0
 40
0.0
 40
0.25
 40
0.25
 40
0.25
 40
0.25
 40
0.5
 40
0.5
 40
0.5
 40
0.5
 40
1.0
 40
1.0
 40
1.0
 40
1.0
 10
-106.4372
 20
-92.5137
 30
0.0
 10
-102.7455
 20
-93.1254
 30
0.0
 10
-99.9296
 20
-96.334
 30
0.0
 10
-99.9296
 20
-100.1986
 30
0.0
 10
-99.9296
 20
-100.1986
 30
0.0
 10
-99.9296
 20
-104.0633
 30
0.0
 10
-102.7455
 20
-107.2719
 30
0.0
 10
-106.4372
 20
-107.8836
 30
0.0
 10
-106.4372
 20
-107.8836
 30
0.0
 10
-106.4372
 20
-107.8836
 30
0.0
 10
-106.4372
 20
-92.5137
 30
0.0
 10
-106.4372
 20
-92.5137
 30
0.0
  0
SPLINE
  5
A0
330
1F
100
AcDbEntity
  8
layer 1
 62
     7
100
AcDbSpline
210
0.0
220
0.0
230
1.0
 70
    11
 71
     3
 72
    16
 73
    12
 74
     0
 42
0.0000000001
 43
0.0000000001
 12
1.0
 22
0.0
 32
0.0
 13
1.0
 23
0.0
 33
0.0
 40
0.0
 40
0.0
 40
0.0
 40
0.0
 40
0.25
 40
0.25
 40
0.25
 40
0.25
 40
0.5
 40
0.5
 40
0.5
 40
0.5
 40
1.0
 40
1.0
 40
1.0
 40
1.0
 10
-83.6589
 20
124.9099
 30
0.0
 10
-87.3507
 20
124.2982
 30
0.0
 10
-90.1665
 20
121.0896
 30
0.0
 10
-90.1665
 20
117.225
 30
0.0
 10
-90.1665
 20
117.225
 30
0.0
 10
-90.1665
 20
113.3603
 30
0.0
 10
-87.3507
 20
110.1517
 30
0.0
 10
-83.6589
 20
109.54
 30
0.0
 10
-83.6589
 20
109.54
 30
0.0
 10
-83.6589
 20
109.54
 30
0.0
 10
-83.6589
 20
124.9099
 30
0.0
 10
-83.6589
 20
124.9099
 30
0.0
  0
SPLINE
  5
A1
330
1F
100
AcDbEntity
  8
layer 1
 62
     7
100
AcDbSpline
210
0.0
220
0.0
230
1.0
 70
    11
 71
     3
 72
    16
 73
    12
 74
     0
 42
0.0000000001
 43
0.0000000001
 12
1.0
 22
0.0
 32
0.0
 13
1.0
 23
0.0
 33
0.0
 40
0.0
 40
0.0
 40
0.0
 40
0.0
 40
0.25
 40
0.25
 40
0.25
 40
0.25
 40
0.5
 40
0.5
 40
0.5
 40
0.5
 40
1.0
 40
1.0
 40
1.0
 40
1.0
 10
-80.8541
 20
124.9099
 30
0.0
 10
-77.1624
 20
124.2982
 30
0.0
 10
-74.3465
 20
121.0896
 30
0.0
 10
-74.3465
 20
117.225
 30
0.0
 10
-74.3465
 20
117.225
 30
0.0
 10
-74.3465
 20
113.3603
 30
0.0
 10
-77.1624
 20
110.1517
 30
0.0
 10
-80.8541
 20
109.54
 30
0.0
 10
-80.8541
 20
109.54
 30
0.0
 10
-80.8541
 20
109.54
 30
0.0
 10
-80.8541
 20
124.9099
 30
0.0
 10
-80.8541
 20
124.9099
 30
0.0
  0
SPLINE
  5
A2
330
1F
100
AcDbEntity
  8
layer 1
 62
     7
100
AcDbSpline
210
0.0
220
0.0
230
1.0
 70
    11
 71
     3
 72
    16
 73
    12
 74
     0
 42
0.0000000001
 43
0.0000000001
 12
1.0
 22
0.0
 32
0.0
 13
1.0
 23
0.0
 33
0.0
 40
0.0
 40
0.0
 40
0.0
 40
0.0
 40
0.25
 40
0.25
 40
0.25
 40
0.25
 40
0.5
 40
0.5
 40
0.5
 40
0.5
 40
1.0
 40
1.0
 40
1.0
 40
1.0
 10
-83.6589
 20
100.7517
 30
0.0
 10
-87.3507
 20
100.14
 30
0.0
 10
-90.1665
 20
96.9314
 30
0.0
 10
-90.1665
 20
93.0668
 30
0.0
 10
-90.1665
 20
93.0668
 30
0.0
 10
-90.1665
 20
89.2021
 30
0.0
 10
-87.3507
 20
85.9936
 30
0.0
 10
-83.6589
 20
85.3818
 30
0.0
 10
-83.6589
 20
85.3818
 30
0.0
 10
-83.6589
 20
85.3818
 30
0.0
 10
-83.6589
 20
100.7517
 30
0.0
 10
-83.6589
 20
100.7517
 30
0.0
  0
SPLINE
  5
A3
330
1F
100
AcDbEntity
  8
layer 1
 62
     7
100
AcDbSpline
210
0.0
220
0.0
230
1.0
 70
    11
 71
     3
 72
    16
 73
    12
 74
     0
 42
0.0000000001
 43
0.0000000001
 12
1.0
 22
0.0
 32
0.0
 13
1.0
 23
0.0
 33
0.0
 40
0.0
 40
0.0
 40
0.0
 40
0.0
 40
0.25
 40
0.25
 40
0.25
 40
0.25
 40
0.5
 40
0.5
 40
0.5
 40
0.5
 40
1.0
 40
1.0
 40
1.0
 40
1.0
 10
-80.8541
 20
100.7517
 30
0.0
 10
-77.1624
 20
100.14
 30
0.0
 10
-74.3465
 20
96.9314
 30
0.0
 10
-74.3465
 20
93.0668
 30
0.0
 10
-74.3465
 20
93.0668
 30
0.0
 10
-74.3465
 20
89.2021
 30
0.0
 10
-77.1624
 20
85.9936
 30
0.0
 10
-80.8541
 20
85.3818
 30
0.0
 10
-80.8541
 20
85.3818
 30
0.0
 10
-80.8541
 20
85.3818
 30
0.0
 10
-80.8541
 20
100.7517
 30
0.0
 10
-80.8541
 20
100.7517
 30
0.0
  0
SPLINE
  5
A4
330
1F
100
AcDbEntity
  8
layer 1
 62
     7
100
AcDbSpline
210
0.0
220
0.0
230
1.0
 70
    11
 71
     3
 72
    16
 73
    12
 74
     0
 42
0.0000000001
 43
0.0000000001
 12
1.0
 22
0.0
 32
0.0
 13
1.0
 23
0.0
 33
0.0
 40
0.0
 40
0.0
 40
0.0
 40
0.0
 40
0.25
 40
0.25
 40
0.25
 40
0.25
 40
0.5
 40
0.5
 40
0.5
 40
0.5
 40
1.0
 40
1.0
 40
1.0
 40
1.0
 10
-83.6589
 20
76.5936
 30
0.0
 10
-87.3507
 20
75.9818
 30
0.0
 10
-90.1665
 20
72.7733
 30
0.0
 10
-90.1665
 20
68.9086
 30
0.0
 10
-90.1665
 20
68.9086
 30
0.0
 10
-90.1665
 20
65.0439
 30
0.0
 10
-87.3507
 20
61.8354
 30
0.0
 10
-83.6589
 20
61.2236
 30
0.0
 10
-83.6589
 20
61.2236
 30
0.0
 10
-83.6589
 20
61.2236
 30
0.0
 10
-83.6589
 20
76.5936
 30
0.0
 10
-83.6589
 20
76.5936
 30
0.0
  0
SPLINE
  5
A5
330
1F
100
AcDbEntity
  8
layer 1
 62
     7
100
AcDbSpline
210
0.0
220
0.0
230
1.0
 70
    11
 71
     3
 72
    16
 73
    12
 74
     0
 42
0.0000000001
 43
0.0000000001
 12
1.0
 22
0.0
 32
0.0
 13
1.0
 23
0.0
 33
0.0
 40
0.0
 40
0.0
 40
0.0
 40
0.0
 40
0.25
 40
0.25
 40
0.25
 40
0.25
 40
0.5
 40
0.5
 40
0.5
 40
0.5
 40
1.0
 40
1.0
 40
1.0
 40
1.0
 10
-80.8541
 20
76.5936
 30
0.0
 10
-77.1624
 20
75.9818
 30
0.0
 10
-74.3465
 20
72.7733
 30
0.0
 10
-74.3465
 20
68.9086
 30
0.0
 10
-74.3465
 20
68.9086
 30
0.0
 10
-74.3465
 20
65.0439
 30
0.0
 10
-77.1624
 20
61.8354
 30
0.0
 10
-80.8541
 20
61.2236
 30
0.0
 10
-80.8541
 20
61.2236
 30
0.0
 10
-80.8541
 20
61.2236
 30
0.0
 10
-80.8541
 20
76.5936
 30
0.0
 10
-80.8541
 20
76.5936
 30
0.0
  0
SPLINE
  5
A6
330
1F
100
AcDbEntity
  8
layer 1
 62
     7
100
AcDbSpline
210
0.0
220
0.0
230
1.0
 70
    11
 71
     3
 72
    16
 73
    12
 74
     0
 42
0.0000000001
 43
0.0000000001
 12
1.0
 22
0.0
 32
0.0
 13
1.0
 23
0.0
 33
0.0
 40
0.0
 40
0.0
 40
0.0
 40
0.0
 40
0.25
 40
0.25
 40
0.25
 40
0.25
 40
0.5
 40
0.5
 40
0.5
 40
0.5
 40
1.0
 40
1.0
 40
1.0
 40
1.0
 10
-83.6589
 20
52.4354
 30
0.0
 10
-87.3507
 20
51.8236
 30
0.0
 10
-90.1665
 20
48.6151
 30
0.0
 10
-90.1665
 20
44.7504
 30
0.0
 10
-90.1665
 20
44.7504
 30
0.0
 10
-90.1665
 20
40.8858
 30
0.0
 10
-87.3507
 20
37.6772
 30
0.0
 10
-83.6589
 20
37.0655
 30
0.0
 10
-83.6589
 20
37.0655
 30
0.0
 10
-83.6589
 20
37.0655
 30
0.0
 10
-83.6589
 20
52.4354
 30
0.0
 10
-83.6589
 20
52.4354
 30
0.0
  0
SPLINE
  5
A7
330
1F
100
AcDbEntity
  8
layer 1
 62
     7
100
AcDbSpline
210
0.0
220
0.0
230
1.0
 70
    11
 71
     3
 72
    16
 73
    12
 74
     0
 42
0.0000000001
 43
0.0000000001
 12
1.0
 22
0.0
 32
0.0
 13
1.0
 23
0.0
 33
0.0
 40
0.0
 40
0.0
 40
0.0
 40
0.0
 40
0.25
 40
0.25
 40
0.25
 40
0.25
 40
0.5
 40
0.5
 40
0.5
 40
0.5
 40
1.0
 40
1.0
 40
1.0
 40
1.0
 10
-80.8541
 20
52.4354
 30
0.0
 10
-77.1624
 20
51.8236
 30
0.0
 10
-74.3465
 20
48.6151
 30
0.0
 10
-74.3465
 20
44.7504
 30
0.0
 10
-74.3465
 20
44.7504
 30
0.0
 10
-74.3465
 20
40.8858
 30
0.0
 10
-77.1624
 20
37.6772
 30
0.0
 10
-80.8541
 20
37.0655
 30
0.0
 10
-80.8541
 20
37.0655
 30
0.0
 10
-80.8541
 20
37.0655
 30
0.0
 10
-80.8541
 20
52.4354
 30
0.0
 10
-80.8541
 20
52.4354
 30
0.0
  0
SPLINE
  5
A8
330
1F
100
AcDbEntity
  8
layer 1
 62
     7
100
AcDbSpline
210
0.0
220
0.0
230
1.0
 70
    11
 71
     3
 72
    16
 73
    12
 74
     0
 42
0.0000000001
 43
0.0000000001
 12
1.0
 22
0.0
 32
0.0
 13
1.0
 23
0.0
 33
0.0
 40
0.0
 40
0.0
 40
0.0
 40
0.0
 40
0.25
 40
0.25
 40
0.25
 40
0.25
 40
0.5
 40
0.5
 40
0.5
 40
0.5
 40
1.0
 40
1.0
 40
1.0
 40
1.0
 10
-83.6589
 20
28.2772
 30
0.0
 10
-87.3507
 20
27.6655
 30
0.0
 10
-90.1665
 20
24.4569
 30
0.0
 10
-90.1665
 20
20.5922
 30
0.0
 10
-90.1665
 20
20.5922
 30
0.0
 10
-90.1665
 20
16.7276
 30
0.0
 10
-87.3507
 20
13.519
 30
0.0
 10
-83.6589
 20
12.9073
 30
0.0
 10
-83.6589
 20
12.9073
 30
0.0
 10
-83.6589
 20
12.9073
 30
0.0
 10
-83.6589
 20
28.2772
 30
0.0
 10
-83.6589
 20
28.2772
 30
0.0
  0
SPLINE
  5
A9
330
1F
100
AcDbEntity
  8
layer 1
 62
     7
100
AcDbSpline
210
0.0
220
0.0
230
1.0
 70
    11
 71
     3
 72
    16
 73
    12
 74
     0
 42
0.0000000001
 43
0.0000000001
 12
1.0
 22
0.0
 32
0.0
 13
1.0
 23
0.0
 33
0.0
 40
0.0
 40
0.0
 40
0.0
 40
0.0
 40
0.25
 40
0.25
 40
0.25
 40
0.25
 40
0.5
 40
0.5
 40
0.5
 40
0.5
 40
1.0
 40
1.0
 40
1.0
 40
1.0
 10
-80.8541
 20
28.2772
 30
0.0
 10
-77.1624
 20
27.6655
 30
0.0
 10
-74.3465
 20
24.4569
 30
0.0
 10
-74.3465
 20
20.5922
 30
0.0
 10
-74.3465
 20
20.5922
 30
0.0
 10
-74.3465
 20
16.7276
 30
0.0
 10
-77.1624
 20
13.519
 30
0.0
 10
-80.8541
 20
12.9073
 30
0.0
 10
-80.8541
 20
12.9073
 30
0.0
 10
-80.8541
 20
12.9073
 30
0.0
 10
-80.8541
 20
28.2772
 30
0.0
 10
-80.8541
 20
28.2772
 30
0.0
  0
SPLINE
  5
AA
330
1F
100
AcDbEntity
  8
layer 1
 62
     7
100
AcDbSpline
210
0.0
220
0.0
230
1.0
 70
    11
 71
     3
 72
    16
 73
    12
 74
     0
 42
0.0000000001
 43
0.0000000001
 12
1.0
 22
0.0
 32
0.0
 13
1.0
 23
0.0
 33
0.0
 40
0.0
 40
0.0
 40
0.0
 40
0.0
 40
0.25
 40
0.25
 40
0.25
 40
0.25
 40
0.5
 40
0.5
 40
0.5
 40
0.5
 40
1.0
 40
1.0
 40
1.0
 40
1.0
 10
-83.6589
 20
4.119
 30
0.0
 10
-87.3507
 20
3.5073
 30
0.0
 10
-90.1665
 20
0.2987
 30
0.0
 10
-90.1665
 20
-3.5659
 30
0.0
 10
-90.1665
 20
-3.5659
 30
0.0
 10
-90.1665
 20
-7.4306
 30
0.0
 10
-87.3507
 20
-10.6392
 30
0.0
 10
-83.6589
 20
-11.2509
 30
0.0
 10
-83.6589
 20
-11.2509
 30
0.0
 10
-83.6589
 20
-11.2509
 30
0.0
 10
-83.6589
 20
4.119
 30
0.0
 10
-83.6589
 20
4.119
 30
0.0
  0
SPLINE
  5
AB
330
1F
100
AcDbEntity
  8
layer 1
 62
     7
100
AcDbSpline
210
0.0
220
0.0
230
1.0
 70
    11
 71
     3
 72
    16
 73
    12
 74
     0
 42
0.0000000001
 43
0.0000000001
 12
1.0
 22
0.0
 32
0.0
 13
1.0
 23
0.0
 33
0.0
 40
0.0
 40
0.0
 40
0.0
 40
0.0
 40
0.25
 40
0.25
 40
0.25
 40
0.25
 40
0.5
 40
0.5
 40
0.5
 40
0.5
 40
1.0
 40
1.0
 40
1.0
 40
1.0
 10
-80.8541
 20
4.119
 30
0.0
 10
-77.1624
 20
3.5073
 30
0.0
 10
-74.3465
 20
0.2987
 30
0.0
 10
-74.3465
 20
-3.5659
 30
0.0
 10
-74.3465
 20
-3.5659
 30
0.0
 10
-74.3465
 20
-7.4306
 30
0.0
 10
-77.1624
 20
-10.6392
 30
0.0
 10
-80.8541
 20
-11.2509
 30
0.0
 10
-80.8541
 20
-11.2509
 30
0.0
 10
-80.8541
 20
-11.2509
 30
0.0
 10
-80.8541
 20
4.119
 30
0.0
 10
-80.8541
 20
4.119
 30
0.0
  0
SPLINE
  5
AC
330
1F
100
AcDbEntity
  8
layer 1
 62
     7
100
AcDbSpline
210
0.0
220
0.0
230
1.0
 70
    11
 71
     3
 72
    16
 73
    12
 74
     0
 42
0.0000000001
 43
0.0000000001
 12
1.0
 22
0.0
 32
0.0
 13
1.0
 23
0.0
 33
0.0
 40
0.0
 40
0.0
 40
0.0
 40
0.0
 40
0.25
 40
0.25
 40
0.25
 40
0.25
 40
0.5
 40
0.5
 40
0.5
 40
0.5
 40
1.0
 40
1.0
 40
1.0
 40
1.0
 10
-83.6589
 20
-20.0392
 30
0.0
 10
-87.3507
 20
-20.6509
 30
0.0
 10
-90.1665
 20
-23.8594
 30
0.0
 10
-90.1665
 20
-27.7241
 30
0.0
 10
-90.1665
 20
-27.7241
 30
0.0
 10
-90.1665
 20
-31.5888
 30
0.0
 10
-87.3507
 20
-34.7973
 30
0.0
 10
-83.6589
 20
-35.4091
 30
0.0
 10
-83.6589
 20
-35.4091
 30
0.0
 10
-83.6589
 20
-35.4091
 30
0.0
 10
-83.6589
 20
-20.0392
 30
0.0
 10
-83.6589
 20
-20.0392
 30
0.0
  0
SPLINE
  5
AD
330
1F
100
AcDbEntity
  8
layer 1
 62
     7
100
AcDbSpline
210
0.0
220
0.0
230
1.0
 70
    11
 71
     3
 72
    16
 73
    12
 74
     0
 42
0.0000000001
 43
0.0000000001
 12
1.0
 22
0.0
 32
0.0
 13
1.0
 23
0.0
 33
0.0
 40
0.0
 40
0.0
 40
0.0
 40
0.0
 40
0.25
 40
0.25
 40
0.25
 40
0.25
 40
0.5
 40
0.5
 40
0.5
 40
0.5
 40
1.0
 40
1.0
 40
1.0
 40
1.0
 10
-80.8541
 20
-20.0392
 30
0.0
 10
-77.1624
 20
-20.6509
 30
0.0
 10
-74.3465
 20
-23.8594
 30
0.0
 10
-74.3465
 20
-27.7241
 30
0.0
 10
-74.3465
 20
-27.7241
 30
0.0
 10
-74.3465
 20
-31.5888
 30
0.0
 10
-77.1624
 20
-34.7973
 30
0.0
 10
-80.8541
 20
-35.4091
 30
0.0
 10
-80.8541
 20
-35.4091
 30
0.0
 10
-80.8541
 20
-35.4091
 30
0.0
 10
-80.8541
 20
-20.0392
 30
0.0
 10
-80.8541
 20
-20.0392
 30
0.0
  0
SPLINE
  5
AE
330
1F
100
AcDbEntity
  8
layer 1
 62
     7
100
AcDbSpline
210
0.0
220
0.0
230
1.0
 70
    11
 71
     3
 72
    16
 73
    12
 74
     0
 42
0.0000000001
 43
0.0000000001
 12
1.0
 22
0.0
 32
0.0
 13
1.0
 23
0.0
 33
0.0
 40
0.0
 40
0.0
 40
0.0
 40
0.0
 40
0.25
 40
0.25
 40
0.25
 40
0.25
 40
0.5
 40
0.5
 40
0.5
 40
0.5
 40
1.0
 40
1.0
 40
1.0
 40
1.0
 10
-83.6589
 20
-44.1973
 30
0.0
 10
-87.3507
 20
-44.8091
 30
0.0
 10
-90.1665
 20
-48.0176
 30
0.0
 10
-90.1665
 20
-51.8823
 30
0.0
 10
-90.1665
 20
-51.8823
 30
0.0
 10
-90.1665
 20
-55.747
 30
0.0
 10
-87.3507
 20
-58.9555
 30
0.0
 10
-83.6589
 20
-59.5672
 30
0.0
 10
-83.6589
 20
-59.5672
 30
0.0
 10
-83.6589
 20
-59.5672
 30
0.0
 10
-83.6589
 20
-44.1973
 30
0.0
 10
-83.6589
 20
-44.1973
 30
0.0
  0
SPLINE
  5
AF
330
1F
100
AcDbEntity
  8
layer 1
 62
     7
100
AcDbSpline
210
0.0
220
0.0
230
1.0
 70
    11
 71
     3
 72
    16
 73
    12
 74
     0
 42
0.0000000001
 43
0.0000000001
 12
1.0
 22
0.0
 32
0.0
 13
1.0
 23
0.0
 33
0.0
 40
0.0
 40
0.0
 40
0.0
 40
0.0
 40
0.25
 40
0.25
 40
0.25
 40
0.25
 40
0.5
 40
0.5
 40
0.5
 40
0.5
 40
1.0
 40
1.0
 40
1.0
 40
1.0
 10
-80.8541
 20
-44.1973
 30
0.0
 10
-77.1624
 20
-44.8091
 30
0.0
 10
-74.3465
 20
-48.0176
 30
0.0
 10
-74.3465
 20
-51.8823
 30
0.0
 10
-74.3465
 20
-51.8823
 30
0.0
 10
-74.3465
 20
-55.747
 30
0.0
 10
-77.1624
 20
-58.9555
 30
0.0
 10
-80.8541
 20
-59.5672
 30
0.0
 10
-80.8541
 20
-59.5672
 30
0.0
 10
-80.8541
 20
-59.5672
 30
0.0
 10
-80.8541
 20
-44.1973
 30
0.0
 10
-80.8541
 20
-44.1973
 30
0.0
  0
SPLINE
  5
B0
330
1F
100
AcDbEntity
  8
layer 1
 62
     7
100
AcDbSpline
210
0.0
220
0.0
230
1.0
 70
    11
 71
     3
 72
    16
 73
    12
 74
     0
 42
0.0000000001
 43
0.0000000001
 12
1.0
 22
0.0
 32
0.0
 13
1.0
 23
0.0
 33
0.0
 40
0.0
 40
0.0
 40
0.0
 40
0.0
 40
0.25
 40
0.25
 40
0.25
 40
0.25
 40
0.5
 40
0.5
 40
0.5
 40
0.5
 40
1.0
 40
1.0
 40
1.0
 40
1.0
 10
-83.6589
 20
-68.3555
 30
0.0
 10
-87.3507
 20
-68.9672
 30
0.0
 10
-90.1665
 20
-72.1758
 30
0.0
 10
-90.1665
 20
-76.0405
 30
0.0
 10
-90.1665
 20
-76.0405
 30
0.0
 10
-90.1665
 20
-79.9051
 30
0.0
 10
-87.3507
 20
-83.1137
 30
0.0
 10
-83.6589
 20
-83.7254
 30
0.0
 10
-83.6589
 20
-83.7254
 30
0.0
 10
-83.6589
 20
-83.7254
 30
0.0
 10
-83.6589
 20
-68.3555
 30
0.0
 10
-83.6589
 20
-68.3555
 30
0.0
  0
SPLINE
  5
B1
330
1F
100
AcDbEntity
  8
layer 1
 62
     7
100
AcDbSpline
210
0.0
220
0.0
230
1.0
 70
    11
 71
     3
 72
    16
 73
    12
 74
     0
 42
0.0000000001
 43
0.0000000001
 12
1.0
 22
0.0
 32
0.0
 13
1.0
 23
0.0
 33
0.0
 40
0.0
 40
0.0
 40
0.0
 40
0.0
 40
0.25
 40
0.25
 40
0.25
 40
0.25
 40
0.5
 40
0.5
 40
0.5
 40
0.5
 40
1.0
 40
1.0
 40
1.0
 40
1.0
 10
-80.8541
 20
-68.3555
 30
0.0
 10
-77.1624
 20
-68.9672
 30
0.0
 10
-74.3465
 20
-72.1758
 30
0.0
 10
-74.3465
 20
-76.0405
 30
0.0
 10
-74.3465
 20
-76.0405
 30
0.0
 10
-74.3465
 20
-79.9051
 30
0.0
 10
-77.1624
 20
-83.1137
 30
0.0
 10
-80.8541
 20
-83.7254
 30
0.0
 10
-80.8541
 20
-83.7254
 30
0.0
 10
-80.8541
 20
-83.7254
 30
0.0
 10
-80.8541
 20
-68.3555
 30
0.0
 10
-80.8541
 20
-68.3555
 30
0.0
  0
SPLINE
  5
B2
330
1F
100
AcDbEntity
  8
layer 1
 62
     7
100
AcDbSpline
210
0.0
220
0.0
230
1.0
 70
    11
 71
     3
 72
    16
 73
    12
 74
     0
 42
0.0000000001
 43
0.0000000001
 12
1.0
 22
0.0
 32
0.0
 13
1.0
 23
0.0
 33
0.0
 40
0.0
 40
0.0
 40
0.0
 40
0.0
 40
0.25
 40
0.25
 40
0.25
 40
0.25
 40
0.5
 40
0.5
 40
0.5
 40
0.5
 40
1.0
 40
1.0
 40
1.0
 40
1.0
 10
-83.6589
 20
-92.5137
 30
0.0
 10
-87.3507
 20
-93.1254
 30
0.0
 10
-90.1665
 20
-96.334
 30
0.0
 10
-90.1665
 20
-100.1986
 30
0.0
 10
-90.1665
 20
-100.1986
 30
0.0
 10
-90.1665
 20
-104.0633
 30
0.0
 10
-87.3507
 20
-107.2719
 30
0.0
 10
-83.6589
 20
-107.8836
 30
0.0
 10
-83.6589
 20
-107.8836
 30
0.0
 10
-83.6589
 20
-107.8836
 30
0.0
 10
-83.6589
 20
-92.5137
 30
0.0
 10
-83.6589
 20
-92.5137
 30
0.0
  0
SPLINE
  5
B3
330
1F
100
AcDbEntity
  8
layer 1
 62
     7
100
AcDbSpline
210
0.0
220
0.0
230
1.0
 70
    11
 71
     3
 72
    16
 73
    12
 74
     0
 42
0.0000000001
 43
0.0000000001
 12
1.0
 22
0.0
 32
0.0
 13
1.0
 23
0.0
 33
0.0
 40
0.0
 40
0.0
 40
0.0
 40
0.0
 40
0.25
 40
0.25
 40
0.25
 40
0.25
 40
0.5
 40
0.5
 40
0.5
 40
0.5
 40
1.0
 40
1.0
 40
1.0
 40
1.0
 10
-80.8541
 20
-92.5137
 30
0.0
 10
-77.1624
 20
-93.1254
 30
0.0
 10
-74.3465
 20
-96.334
 30
0.0
 10
-74.3465
 20
-100.1986
 30
0.0
 10
-74.3465
 20
-100.1986
 30
0.0
 10
-74.3465
 20
-104.0633
 30
0.0
 10
-77.1624
 20
-107.2719
 30
0.0
 10
-80.8541
 20
-107.8836
 30
0.0
 10
-80.8541
 20
-107.8836
 30
0.0
 10
-80.8541
 20
-107.8836
 30
0.0
 10
-80.8541
 20
-92.5137
 30
0.0
 10
-80.8541
 20
-92.5137
 30
0.0
  0
SPLINE
  5
B4
330
1F
100
AcDbEntity
  8
layer 1
 62
     7
100
AcDbSpline
210
0.0
220
0.0
230
1.0
 70
    11
 71
     3
 72
    16
 73
    12
 74
     0
 42
0.0000000001
 43
0.0000000001
 12
1.0
 22
0.0
 32
0.0
 13
1.0
 23
0.0
 33
0.0
 40
0.0
 40
0.0
 40
0.0
 40
0.0
 40
0.25
 40
0.25
 40
0.25
 40
0.25
 40
0.5
 40
0.5
 40
0.5
 40
0.5
 40
1.0
 40
1.0
 40
1.0
 40
1.0
 10
-153.829
 20
103.6343
 30
0.0
 10
-153.2173
 20
99.9425
 30
0.0
 10
-150.0087
 20
97.1267
 30
0.0
 10
-146.1441
 20
97.1267
 30
0.0
 10
-146.1441
 20
97.1267
 30
0.0
 10
-142.2794
 20
97.1267
 30
0.0
 10
-139.0708
 20
99.9425
 30
0.0
 10
-138.4591
 20
103.6343
 30
0.0
 10
-138.4591
 20
103.6343
 30
0.0
 10
-138.4591
 20
103.6343
 30
0.0
 10
-153.829
 20
103.6343
 30
0.0
 10
-153.829
 20
103.6343
 30
0.0
  0
SPLINE
  5
B5
330
1F
100
AcDbEntity
  8
layer 1
 62
     7
100
AcDbSpline
210
0.0
220
0.0
230
1.0
 70
    11
 71
     3
 72
    16
 73
    12
 74
     0
 42
0.0000000001
 43
0.0000000001
 12
1.0
 22
0.0
 32
0.0
 13
1.0
 23
0.0
 33
0.0
 40
0.0
 40
0.0
 40
0.0
 40
0.0
 40
0.25
 40
0.25
 40
0.25
 40
0.25
 40
0.5
 40
0.5
 40
0.5
 40
0.5
 40
1.0
 40
1.0
 40
1.0
 40
1.0
 10
-153.829
 20
106.4391
 30
0.0
 10
-153.2173
 20
110.1309
 30
0.0
 10
-150.0087
 20
112.9467
 30
0.0
 10
-146.1441
 20
112.9467
 30
0.0
 10
-146.1441
 20
112.9467
 30
0.0
 10
-142.2794
 20
112.9467
 30
0.0
 10
-139.0708
 20
110.1309
 30
0.0
 10
-138.4591
 20
106.4391
 30
0.0
 10
-138.4591
 20
106.4391
 30
0.0
 10
-138.4591
 20
106.4391
 30
0.0
 10
-153.829
 20
106.4391
 30
0.0
 10
-153.829
 20
106.4391
 30
0.0
  0
SPLINE
  5
B6
330
1F
100
AcDbEntity
  8
layer 1
 62
     7
100
AcDbSpline
210
0.0
220
0.0
230
1.0
 70
    11
 71
     3
 72
    16
 73
    12
 74
     0
 42
0.0000000001
 43
0.0000000001
 12
1.0
 22
0.0
 32
0.0
 13
1.0
 23
0.0
 33
0.0
 40
0.0
 40
0.0
 40
0.0
 40
0.0
 40
0.25
 40
0.25
 40
0.25
 40
0.25
 40
0.5
 40
0.5
 40
0.5
 40
0.5
 40
1.0
 40
1.0
 40
1.0
 40
1.0
 10
-153.829
 20
79.4761
 30
0.0
 10
-153.2173
 20
75.7843
 30
0.0
 10
-150.0087
 20
72.9685
 30
0.0
 10
-146.1441
 20
72.9685
 30
0.0
 10
-146.1441
 20
72.9685
 30
0.0
 10
-142.2794
 20
72.9685
 30
0.0
 10
-139.0708
 20
75.7843
 30
0.0
 10
-138.4591
 20
79.4761
 30
0.0
 10
-138.4591
 20
79.4761
 30
0.0
 10
-138.4591
 20
79.4761
 30
0.0
 10
-153.829
 20
79.4761
 30
0.0
 10
-153.829
 20
79.4761
 30
0.0
  0
SPLINE
  5
B7
330
1F
100
AcDbEntity
  8
layer 1
 62
     7
100
AcDbSpline
210
0.0
220
0.0
230
1.0
 70
    11
 71
     3
 72
    16
 73
    12
 74
     0
 42
0.0000000001
 43
0.0000000001
 12
1.0
 22
0.0
 32
0.0
 13
1.0
 23
0.0
 33
0.0
 40
0.0
 40
0.0
 40
0.0
 40
0.0
 40
0.25
 40
0.25
 40
0.25
 40
0.25
 40
0.5
 40
0.5
 40
0.5
 40
0.5
 40
1.0
 40
1.0
 40
1.0
 40
1.0
 10
-153.829
 20
82.2809
 30
0.0
 10
-153.2173
 20
85.9727
 30
0.0
 10
-150.0087
 20
88.7885
 30
0.0
 10
-146.1441
 20
88.7885
 30
0.0
 10
-146.1441
 20
88.7885
 30
0.0
 10
-142.2794
 20
88.7885
 30
0.0
 10
-139.0708
 20
85.9727
 30
0.0
 10
-138.4591
 20
82.2809
 30
0.0
 10
-138.4591
 20
82.2809
 30
0.0
 10
-138.4591
 20
82.2809
 30
0.0
 10
-153.829
 20
82.2809
 30
0.0
 10
-153.829
 20
82.2809
 30
0.0
  0
SPLINE
  5
B8
330
1F
100
AcDbEntity
  8
layer 1
 62
     7
100
AcDbSpline
210
0.0
220
0.0
230
1.0
 70
    11
 71
     3
 72
    16
 73
    12
 74
     0
 42
0.0000000001
 43
0.0000000001
 12
1.0
 22
0.0
 32
0.0
 13
1.0
 23
0.0
 33
0.0
 40
0.0
 40
0.0
 40
0.0
 40
0.0
 40
0.25
 40
0.25
 40
0.25
 40
0.25
 40
0.5
 40
0.5
 40
0.5
 40
0.5
 40
1.0
 40
1.0
 40
1.0
 40
1.0
 10
-153.829
 20
55.3179
 30
0.0
 10
-153.2173
 20
51.6262
 30
0.0
 10
-150.0087
 20
48.8103
 30
0.0
 10
-146.1441
 20
48.8103
 30
0.0
 10
-146.1441
 20
48.8103
 30
0.0
 10
-142.2794
 20
48.8103
 30
0.0
 10
-139.0708
 20
51.6262
 30
0.0
 10
-138.4591
 20
55.3179
 30
0.0
 10
-138.4591
 20
55.3179
 30
0.0
 10
-138.4591
 20
55.3179
 30
0.0
 10
-153.829
 20
55.3179
 30
0.0
 10
-153.829
 20
55.3179
 30
0.0
  0
SPLINE
  5
B9
330
1F
100
AcDbEntity
  8
layer 1
 62
     7
100
AcDbSpline
210
0.0
220
0.0
230
1.0
 70
    11
 71
     3
 72
    16
 73
    12
 74
     0
 42
0.0000000001
 43
0.0000000001
 12
1.0
 22
0.0
 32
0.0
 13
1.0
 23
0.0
 33
0.0
 40
0.0
 40
0.0
 40
0.0
 40
0.0
 40
0.25
 40
0.25
 40
0.25
 40
0.25
 40
0.5
 40
0.5
 40
0.5
 40
0.5
 40
1.0
 40
1.0
 40
1.0
 40
1.0
 10
-153.829
 20
58.1227
 30
0.0
 10
-153.2173
 20
61.8145
 30
0.0
 10
-150.0087
 20
64.6304
 30
0.0
 10
-146.1441
 20
64.6304
 30
0.0
 10
-146.1441
 20
64.6304
 30
0.0
 10
-142.2794
 20
64.6304
 30
0.0
 10
-139.0708
 20
61.8145
 30
0.0
 10
-138.4591
 20
58.1227
 30
0.0
 10
-138.4591
 20
58.1227
 30
0.0
 10
-138.4591
 20
58.1227
 30
0.0
 10
-153.829
 20
58.1227
 30
0.0
 10
-153.829
 20
58.1227
 30
0.0
  0
SPLINE
  5
BA
330
1F
100
AcDbEntity
  8
layer 1
 62
     7
100
AcDbSpline
210
0.0
220
0.0
230
1.0
 70
    11
 71
     3
 72
    16
 73
    12
 74
     0
 42
0.0000000001
 43
0.0000000001
 12
1.0
 22
0.0
 32
0.0
 13
1.0
 23
0.0
 33
0.0
 40
0.0
 40
0.0
 40
0.0
 40
0.0
 40
0.25
 40
0.25
 40
0.25
 40
0.25
 40
0.5
 40
0.5
 40
0.5
 40
0.5
 40
1.0
 40
1.0
 40
1.0
 40
1.0
 10
-153.829
 20
31.1598
 30
0.0
 10
-153.2173
 20
27.468
 30
0.0
 10
-150.0087
 20
24.6521
 30
0.0
 10
-146.1441
 20
24.6521
 30
0.0
 10
-146.1441
 20
24.6521
 30
0.0
 10
-142.2794
 20
24.6521
 30
0.0
 10
-139.0708
 20
27.468
 30
0.0
 10
-138.4591
 20
31.1598
 30
0.0
 10
-138.4591
 20
31.1598
 30
0.0
 10
-138.4591
 20
31.1598
 30
0.0
 10
-153.829
 20
31.1598
 30
0.0
 10
-153.829
 20
31.1598
 30
0.0
  0
SPLINE
  5
BB
330
1F
100
AcDbEntity
  8
layer 1
 62
     7
100
AcDbSpline
210
0.0
220
0.0
230
1.0
 70
    11
 71
     3
 72
    16
 73
    12
 74
     0
 42
0.0000000001
 43
0.0000000001
 12
1.0
 22
0.0
 32
0.0
 13
1.0
 23
0.0
 33
0.0
 40
0.0
 40
0.0
 40
0.0
 40
0.0
 40
0.25
 40
0.25
 40
0.25
 40
0.25
 40
0.5
 40
0.5
 40
0.5
 40
0.5
 40
1.0
 40
1.0
 40
1.0
 40
1.0
 10
-153.829
 20
33.9646
 30
0.0
 10
-153.2173
 20
37.6563
 30
0.0
 10
-150.0087
 20
40.4722
 30
0.0
 10
-146.1441
 20
40.4722
 30
0.0
 10
-146.1441
 20
40.4722
 30
0.0
 10
-142.2794
 20
40.4722
 30
0.0
 10
-139.0708
 20
37.6563
 30
0.0
 10
-138.4591
 20
33.9646
 30
0.0
 10
-138.4591
 20
33.9646
 30
0.0
 10
-138.4591
 20
33.9646
 30
0.0
 10
-153.829
 20
33.9646
 30
0.0
 10
-153.829
 20
33.9646
 30
0.0
  0
SPLINE
  5
BC
330
1F
100
AcDbEntity
  8
layer 1
 62
     7
100
AcDbSpline
210
0.0
220
0.0
230
1.0
 70
    11
 71
     3
 72
    16
 73
    12
 74
     0
 42
0.0000000001
 43
0.0000000001
 12
1.0
 22
0.0
 32
0.0
 13
1.0
 23
0.0
 33
0.0
 40
0.0
 40
0.0
 40
0.0
 40
0.0
 40
0.25
 40
0.25
 40
0.25
 40
0.25
 40
0.5
 40
0.5
 40
0.5
 40
0.5
 40
1.0
 40
1.0
 40
1.0
 40
1.0
 10
-153.829
 20
7.0016
 30
0.0
 10
-153.2173
 20
3.3098
 30
0.0
 10
-150.0087
 20
0.494
 30
0.0
 10
-146.1441
 20
0.494
 30
0.0
 10
-146.1441
 20
0.494
 30
0.0
 10
-142.2794
 20
0.494
 30
0.0
 10
-139.0708
 20
3.3098
 30
0.0
 10
-138.4591
 20
7.0016
 30
0.0
 10
-138.4591
 20
7.0016
 30
0.0
 10
-138.4591
 20
7.0016
 30
0.0
 10
-153.829
 20
7.0016
 30
0.0
 10
-153.829
 20
7.0016
 30
0.0
  0
SPLINE
  5
BD
330
1F
100
AcDbEntity
  8
layer 1
 62
     7
100
AcDbSpline
210
0.0
220
0.0
230
1.0
 70
    11
 71
     3
 72
    16
 73
    12
 74
     0
 42
0.0000000001
 43
0.0000000001
 12
1.0
 22
0.0
 32
0.0
 13
1.0
 23
0.0
 33
0.0
 40
0.0
 40
0.0
 40
0.0
 40
0.0
 40
0.25
 40
0.25
 40
0.25
 40
0.25
 40
0.5
 40
0.5
 40
0.5
 40
0.5
 40
1.0
 40
1.0
 40
1.0
 40
1.0
 10
-153.829
 20
9.8064
 30
0.0
 10
-153.2173
 20
13.4982
 30
0.0
 10
-150.0087
 20
16.314
 30
0.0
 10
-146.1441
 20
16.314
 30
0.0
 10
-146.1441
 20
16.314
 30
0.0
 10
-142.2794
 20
16.314
 30
0.0
 10
-139.0708
 20
13.4982
 30
0.0
 10
-138.4591
 20
9.8064
 30
0.0
 10
-138.4591
 20
9.8064
 30
0.0
 10
-138.4591
 20
9.8064
 30
0.0
 10
-153.829
 20
9.8064
 30
0.0
 10
-153.829
 20
9.8064
 30
0.0
  0
SPLINE
  5
BE
330
1F
100
AcDbEntity
  8
layer 1
 62
     7
100
AcDbSpline
210
0.0
220
0.0
230
1.0
 70
    11
 71
     3
 72
    16
 73
    12
 74
     0
 42
0.0000000001
 43
0.0000000001
 12
1.0
 22
0.0
 32
0.0
 13
1.0
 23
0.0
 33
0.0
 40
0.0
 40
0.0
 40
0.0
 40
0.0
 40
0.25
 40
0.25
 40
0.25
 40
0.25
 40
0.5
 40
0.5
 40
0.5
 40
0.5
 40
1.0
 40
1.0
 40
1.0
 40
1.0
 10
-153.829
 20
-17.1566
 30
0.0
 10
-153.2173
 20
-20.8484
 30
0.0
 10
-150.0087
 20
-23.6642
 30
0.0
 10
-146.1441
 20
-23.6642
 30
0.0
 10
-146.1441
 20
-23.6642
 30
0.0
 10
-142.2794
 20
-23.6642
 30
0.0
 10
-139.0708
 20
-20.8484
 30
0.0
 10
-138.4591
 20
-17.1566
 30
0.0
 10
-138.4591
 20
-17.1566
 30
0.0
 10
-138.4591
 20
-17.1566
 30
0.0
 10
-153.829
 20
-17.1566
 30
0.0
 10
-153.829
 20
-17.1566
 30
0.0
  0
SPLINE
  5
BF
330
1F
100
AcDbEntity
  8
layer 1
 62
     7
100
AcDbSpline
210
0.0
220
0.0
230
1.0
 70
    11
 71
     3
 72
    16
 73
    12
 74
     0
 42
0.0000000001
 43
0.0000000001
 12
1.0
 22
0.0
 32
0.0
 13
1.0
 23
0.0
 33
0.0
 40
0.0
 40
0.0
 40
0.0
 40
0.0
 40
0.25
 40
0.25
 40
0.25
 40
0.25
 40
0.5
 40
0.5
 40
0.5
 40
0.5
 40
1.0
 40
1.0
 40
1.0
 40
1.0
 10
-153.829
 20
-14.3518
 30
0.0
 10
-153.2173
 20
-10.66
 30
0.0
 10
-150.0087
 20
-7.8442
 30
0.0
 10
-146.1441
 20
-7.8442
 30
0.0
 10
-146.1441
 20
-7.8442
 30
0.0
 10
-142.2794
 20
-7.8442
 30
0.0
 10
-139.0708
 20
-10.66
 30
0.0
 10
-138.4591
 20
-14.3518
 30
0.0
 10
-138.4591
 20
-14.3518
 30
0.0
 10
-138.4591
 20
-14.3518
 30
0.0
 10
-153.829
 20
-14.3518
 30
0.0
 10
-153.829
 20
-14.3518
 30
0.0
  0
SPLINE
  5
C0
330
1F
100
AcDbEntity
  8
layer 1
 62
     7
100
AcDbSpline
210
0.0
220
0.0
230
1.0
 70
    11
 71
     3
 72
    16
 73
    12
 74
     0
 42
0.0000000001
 43
0.0000000001
 12
1.0
 22
0.0
 32
0.0
 13
1.0
 23
0.0
 33
0.0
 40
0.0
 40
0.0
 40
0.0
 40
0.0
 40
0.25
 40
0.25
 40
0.25
 40
0.25
 40
0.5
 40
0.5
 40
0.5
 40
0.5
 40
1.0
 40
1.0
 40
1.0
 40
1.0
 10
-153.829
 20
-41.3148
 30
0.0
 10
-153.2173
 20
-45.0065
 30
0.0
 10
-150.0087
 20
-47.8224
 30
0.0
 10
-146.1441
 20
-47.8224
 30
0.0
 10
-146.1441
 20
-47.8224
 30
0.0
 10
-142.2794
 20
-47.8224
 30
0.0
 10
-139.0708
 20
-45.0065
 30
0.0
 10
-138.4591
 20
-41.3148
 30
0.0
 10
-138.4591
 20
-41.3148
 30
0.0
 10
-138.4591
 20
-41.3148
 30
0.0
 10
-153.829
 20
-41.3148
 30
0.0
 10
-153.829
 20
-41.3148
 30
0.0
  0
SPLINE
  5
C1
330
1F
100
AcDbEntity
  8
layer 1
 62
     7
100
AcDbSpline
210
0.0
220
0.0
230
1.0
 70
    11
 71
     3
 72
    16
 73
    12
 74
     0
 42
0.0000000001
 43
0.0000000001
 12
1.0
 22
0.0
 32
0.0
 13
1.0
 23
0.0
 33
0.0
 40
0.0
 40
0.0
 40
0.0
 40
0.0
 40
0.25
 40
0.25
 40
0.25
 40
0.25
 40
0.5
 40
0.5
 40
0.5
 40
0.5
 40
1.0
 40
1.0
 40
1.0
 40
1.0
 10
-153.829
 20
-38.51
 30
0.0
 10
-153.2173
 20
-34.8182
 30
0.0
 10
-150.0087
 20
-32.0024
 30
0.0
 10
-146.1441
 20
-32.0024
 30
0.0
 10
-146.1441
 20
-32.0024
 30
0.0
 10
-142.2794
 20
-32.0024
 30
0.0
 10
-139.0708
 20
-34.8182
 30
0.0
 10
-138.4591
 20
-38.51
 30
0.0
 10
-138.4591
 20
-38.51
 30
0.0
 10
-138.4591
 20
-38.51
 30
0.0
 10
-153.829
 20
-38.51
 30
0.0
 10
-153.829
 20
-38.51
 30
0.0
  0
SPLINE
  5
C2
330
1F
100
AcDbEntity
  8
layer 1
 62
     7
100
AcDbSpline
210
0.0
220
0.0
230
1.0
 70
    11
 71
     3
 72
    16
 73
    12
 74
     0
 42
0.0000000001
 43
0.0000000001
 12
1.0
 22
0.0
 32
0.0
 13
1.0
 23
0.0
 33
0.0
 40
0.0
 40
0.0
 40
0.0
 40
0.0
 40
0.25
 40
0.25
 40
0.25
 40
0.25
 40
0.5
 40
0.5
 40
0.5
 40
0.5
 40
1.0
 40
1.0
 40
1.0
 40
1.0
 10
-153.829
 20
-65.4729
 30
0.0
 10
-153.2173
 20
-69.1647
 30
0.0
 10
-150.0087
 20
-71.9806
 30
0.0
 10
-146.1441
 20
-71.9806
 30
0.0
 10
-146.1441
 20
-71.9806
 30
0.0
 10
-142.2794
 20
-71.9806
 30
0.0
 10
-139.0708
 20
-69.1647
 30
0.0
 10
-138.4591
 20
-65.4729
 30
0.0
 10
-138.4591
 20
-65.4729
 30
0.0
 10
-138.4591
 20
-65.4729
 30
0.0
 10
-153.829
 20
-65.4729
 30
0.0
 10
-153.829
 20
-65.4729
 30
0.0
  0
SPLINE
  5
C3
330
1F
100
AcDbEntity
  8
layer 1
 62
     7
100
AcDbSpline
210
0.0
220
0.0
230
1.0
 70
    11
 71
     3
 72
    16
 73
    12
 74
     0
 42
0.0000000001
 43
0.0000000001
 12
1.0
 22
0.0
 32
0.0
 13
1.0
 23
0.0
 33
0.0
 40
0.0
 40
0.0
 40
0.0
 40
0.0
 40
0.25
 40
0.25
 40
0.25
 40
0.25
 40
0.5
 40
0.5
 40
0.5
 40
0.5
 40
1.0
 40
1.0
 40
1.0
 40
1.0
 10
-153.829
 20
-62.6681
 30
0.0
 10
-153.2173
 20
-58.9764
 30
0.0
 10
-150.0087
 20
-56.1605
 30
0.0
 10
-146.1441
 20
-56.1605
 30
0.0
 10
-146.1441
 20
-56.1605
 30
0.0
 10
-142.2794
 20
-56.1605
 30
0.0
 10
-139.0708
 20
-58.9764
 30
0.0
 10
-138.4591
 20
-62.6681
 30
0.0
 10
-138.4591
 20
-62.6681
 30
0.0
 10
-138.4591
 20
-62.6681
 30
0.0
 10
-153.829
 20
-62.6681
 30
0.0
 10
-153.829
 20
-62.6681
 30
0.0
  0
SPLINE
  5
C4
330
1F
100
AcDbEntity
  8
layer 1
 62
     7
100
AcDbSpline
210
0.0
220
0.0
230
1.0
 70
    11
 71
     3
 72
    16
 73
    12
 74
     0
 42
0.0000000001
 43
0.0000000001
 12
1.0
 22
0.0
 32
0.0
 13
1.0
 23
0.0
 33
0.0
 40
0.0
 40
0.0
 40
0.0
 40
0.0
 40
0.25
 40
0.25
 40
0.25
 40
0.25
 40
0.5
 40
0.5
 40
0.5
 40
0.5
 40
1.0
 40
1.0
 40
1.0
 40
1.0
 10
-153.829
 20
-89.6311
 30
0.0
 10
-153.2173
 20
-93.3229
 30
0.0
 10
-150.0087
 20
-96.1387
 30
0.0
 10
-146.1441
 20
-96.1387
 30
0.0
 10
-146.1441
 20
-96.1387
 30
0.0
 10
-142.2794
 20
-96.1387
 30
0.0
 10
-139.0708
 20
-93.3229
 30
0.0
 10
-138.4591
 20
-89.6311
 30
0.0
 10
-138.4591
 20
-89.6311
 30
0.0
 10
-138.4591
 20
-89.6311
 30
0.0
 10
-153.829
 20
-89.6311
 30
0.0
 10
-153.829
 20
-89.6311
 30
0.0
  0
SPLINE
  5
C5
330
1F
100
AcDbEntity
  8
layer 1
 62
     7
100
AcDbSpline
210
0.0
220
0.0
230
1.0
 70
    11
 71
     3
 72
    16
 73
    12
 74
     0
 42
0.0000000001
 43
0.0000000001
 12
1.0
 22
0.0
 32
0.0
 13
1.0
 23
0.0
 33
0.0
 40
0.0
 40
0.0
 40
0.0
 40
0.0
 40
0.25
 40
0.25
 40
0.25
 40
0.25
 40
0.5
 40
0.5
 40
0.5
 40
0.5
 40
1.0
 40
1.0
 40
1.0
 40
1.0
 10
-153.829
 20
-86.8263
 30
0.0
 10
-153.2173
 20
-83.1345
 30
0.0
 10
-150.0087
 20
-80.3187
 30
0.0
 10
-146.1441
 20
-80.3187
 30
0.0
 10
-146.1441
 20
-80.3187
 30
0.0
 10
-142.2794
 20
-80.3187
 30
0.0
 10
-139.0708
 20
-83.1345
 30
0.0
 10
-138.4591
 20
-86.8263
 30
0.0
 10
-138.4591
 20
-86.8263
 30
0.0
 10
-138.4591
 20
-86.8263
 30
0.0
 10
-153.829
 20
-86.8263
 30
0.0
 10
-153.829
 20
-86.8263
 30
0.0
  0
SPLINE
  5
C6
330
1F
100
AcDbEntity
  8
layer 1
 62
     7
100
AcDbSpline
210
0.0
220
0.0
230
1.0
 70
    11
 71
     3
 72
    16
 73
    12
 74
     0
 42
0.0000000001
 43
0.0000000001
 12
1.0
 22
0.0
 32
0.0
 13
1.0
 23
0.0
 33
0.0
 40
0.0
 40
0.0
 40
0.0
 40
0.0
 40
0.25
 40
0.25
 40
0.25
 40
0.25
 40
0.5
 40
0.5
 40
0.5
 40
0.5
 40
1.0
 40
1.0
 40
1.0
 40
1.0
 10
-153.829
 20
-110.9845
 30
0.0
 10
-153.2173
 20
-107.2927
 30
0.0
 10
-150.0087
 20
-104.4769
 30
0.0
 10
-146.1441
 20
-104.4769
 30
0.0
 10
-146.1441
 20
-104.4769
 30
0.0
 10
-142.2794
 20
-104.4769
 30
0.0
 10
-139.0708
 20
-107.2927
 30
0.0
 10
-138.4591
 20
-110.9845
 30
0.0
 10
-138.4591
 20
-110.9845
 30
0.0
 10
-138.4591
 20
-110.9845
 30
0.0
 10
-153.829
 20
-110.9845
 30
0.0
 10
-153.829
 20
-110.9845
 30
0.0
  0
SPLINE
  5
C7
330
1F
100
AcDbEntity
  8
layer 1
 62
     7
100
AcDbSpline
210
0.0
220
0.0
230
1.0
 70
    11
 71
     3
 72
    16
 73
    12
 74
     0
 42
0.0000000001
 43
0.0000000001
 12
1.0
 22
0.0
 32
0.0
 13
1.0
 23
0.0
 33
0.0
 40
0.0
 40
0.0
 40
0.0
 40
0.0
 40
0.25
 40
0.25
 40
0.25
 40
0.25
 40
0.5
 40
0.5
 40
0.5
 40
0.5
 40
1.0
 40
1.0
 40
1.0
 40
1.0
 10
-128.2459
 20
103.6343
 30
0.0
 10
-127.6342
 20
99.9425
 30
0.0
 10
-124.4256
 20
97.1267
 30
0.0
 10
-120.561
 20
97.1267
 30
0.0
 10
-120.561
 20
97.1267
 30
0.0
 10
-116.6963
 20
97.1267
 30
0.0
 10
-113.4877
 20
99.9425
 30
0.0
 10
-112.876
 20
103.6343
 30
0.0
 10
-112.876
 20
103.6343
 30
0.0
 10
-112.876
 20
103.6343
 30
0.0
 10
-128.2459
 20
103.6343
 30
0.0
 10
-128.2459
 20
103.6343
 30
0.0
  0
SPLINE
  5
C8
330
1F
100
AcDbEntity
  8
layer 1
 62
     7
100
AcDbSpline
210
0.0
220
0.0
230
1.0
 70
    11
 71
     3
 72
    16
 73
    12
 74
     0
 42
0.0000000001
 43
0.0000000001
 12
1.0
 22
0.0
 32
0.0
 13
1.0
 23
0.0
 33
0.0
 40
0.0
 40
0.0
 40
0.0
 40
0.0
 40
0.25
 40
0.25
 40
0.25
 40
0.25
 40
0.5
 40
0.5
 40
0.5
 40
0.5
 40
1.0
 40
1.0
 40
1.0
 40
1.0
 10
-128.2459
 20
106.4391
 30
0.0
 10
-127.6342
 20
110.1309
 30
0.0
 10
-124.4256
 20
112.9467
 30
0.0
 10
-120.561
 20
112.9467
 30
0.0
 10
-120.561
 20
112.9467
 30
0.0
 10
-116.6963
 20
112.9467
 30
0.0
 10
-113.4877
 20
110.1309
 30
0.0
 10
-112.876
 20
106.4391
 30
0.0
 10
-112.876
 20
106.4391
 30
0.0
 10
-112.876
 20
106.4391
 30
0.0
 10
-128.2459
 20
106.4391
 30
0.0
 10
-128.2459
 20
106.4391
 30
0.0
  0
SPLINE
  5
C9
330
1F
100
AcDbEntity
  8
layer 1
 62
     7
100
AcDbSpline
210
0.0
220
0.0
230
1.0
 70
    11
 71
     3
 72
    16
 73
    12
 74
     0
 42
0.0000000001
 43
0.0000000001
 12
1.0
 22
0.0
 32
0.0
 13
1.0
 23
0.0
 33
0.0
 40
0.0
 40
0.0
 40
0.0
 40
0.0
 40
0.25
 40
0.25
 40
0.25
 40
0.25
 40
0.5
 40
0.5
 40
0.5
 40
0.5
 40
1.0
 40
1.0
 40
1.0
 40
1.0
 10
-128.2459
 20
79.4761
 30
0.0
 10
-127.6342
 20
75.7843
 30
0.0
 10
-124.4256
 20
72.9685
 30
0.0
 10
-120.561
 20
72.9685
 30
0.0
 10
-120.561
 20
72.9685
 30
0.0
 10
-116.6963
 20
72.9685
 30
0.0
 10
-113.4877
 20
75.7843
 30
0.0
 10
-112.876
 20
79.4761
 30
0.0
 10
-112.876
 20
79.4761
 30
0.0
 10
-112.876
 20
79.4761
 30
0.0
 10
-128.2459
 20
79.4761
 30
0.0
 10
-128.2459
 20
79.4761
 30
0.0
  0
SPLINE
  5
CA
330
1F
100
AcDbEntity
  8
layer 1
 62
     7
100
AcDbSpline
210
0.0
220
0.0
230
1.0
 70
    11
 71
     3
 72
    16
 73
    12
 74
     0
 42
0.0000000001
 43
0.0000000001
 12
1.0
 22
0.0
 32
0.0
 13
1.0
 23
0.0
 33
0.0
 40
0.0
 40
0.0
 40
0.0
 40
0.0
 40
0.25
 40
0.25
 40
0.25
 40
0.25
 40
0.5
 40
0.5
 40
0.5
 40
0.5
 40
1.0
 40
1.0
 40
1.0
 40
1.0
 10
-128.2459
 20
82.2809
 30
0.0
 10
-127.6342
 20
85.9727
 30
0.0
 10
-124.4256
 20
88.7885
 30
0.0
 10
-120.561
 20
88.7885
 30
0.0
 10
-120.561
 20
88.7885
 30
0.0
 10
-116.6963
 20
88.7885
 30
0.0
 10
-113.4877
 20
85.9727
 30
0.0
 10
-112.876
 20
82.2809
 30
0.0
 10
-112.876
 20
82.2809
 30
0.0
 10
-112.876
 20
82.2809
 30
0.0
 10
-128.2459
 20
82.2809
 30
0.0
 10
-128.2459
 20
82.2809
 30
0.0
  0
SPLINE
  5
CB
330
1F
100
AcDbEntity
  8
layer 1
 62
     7
100
AcDbSpline
210
0.0
220
0.0
230
1.0
 70
    11
 71
     3
 72
    16
 73
    12
 74
     0
 42
0.0000000001
 43
0.0000000001
 12
1.0
 22
0.0
 32
0.0
 13
1.0
 23
0.0
 33
0.0
 40
0.0
 40
0.0
 40
0.0
 40
0.0
 40
0.25
 40
0.25
 40
0.25
 40
0.25
 40
0.5
 40
0.5
 40
0.5
 40
0.5
 40
1.0
 40
1.0
 40
1.0
 40
1.0
 10
-128.2459
 20
55.3179
 30
0.0
 10
-127.6342
 20
51.6262
 30
0.0
 10
-124.4256
 20
48.8103
 30
0.0
 10
-120.561
 20
48.8103
 30
0.0
 10
-120.561
 20
48.8103
 30
0.0
 10
-116.6963
 20
48.8103
 30
0.0
 10
-113.4877
 20
51.6262
 30
0.0
 10
-112.876
 20
55.3179
 30
0.0
 10
-112.876
 20
55.3179
 30
0.0
 10
-112.876
 20
55.3179
 30
0.0
 10
-128.2459
 20
55.3179
 30
0.0
 10
-128.2459
 20
55.3179
 30
0.0
  0
SPLINE
  5
CC
330
1F
100
AcDbEntity
  8
layer 1
 62
     7
100
AcDbSpline
210
0.0
220
0.0
230
1.0
 70
    11
 71
     3
 72
    16
 73
    12
 74
     0
 42
0.0000000001
 43
0.0000000001
 12
1.0
 22
0.0
 32
0.0
 13
1.0
 23
0.0
 33
0.0
 40
0.0
 40
0.0
 40
0.0
 40
0.0
 40
0.25
 40
0.25
 40
0.25
 40
0.25
 40
0.5
 40
0.5
 40
0.5
 40
0.5
 40
1.0
 40
1.0
 40
1.0
 40
1.0
 10
-128.2459
 20
58.1227
 30
0.0
 10
-127.6342
 20
61.8145
 30
0.0
 10
-124.4256
 20
64.6304
 30
0.0
 10
-120.561
 20
64.6304
 30
0.0
 10
-120.561
 20
64.6304
 30
0.0
 10
-116.6963
 20
64.6304
 30
0.0
 10
-113.4877
 20
61.8145
 30
0.0
 10
-112.876
 20
58.1227
 30
0.0
 10
-112.876
 20
58.1227
 30
0.0
 10
-112.876
 20
58.1227
 30
0.0
 10
-128.2459
 20
58.1227
 30
0.0
 10
-128.2459
 20
58.1227
 30
0.0
  0
SPLINE
  5
CD
330
1F
100
AcDbEntity
  8
layer 1
 62
     7
100
AcDbSpline
210
0.0
220
0.0
230
1.0
 70
    11
 71
     3
 72
    16
 73
    12
 74
     0
 42
0.0000000001
 43
0.0000000001
 12
1.0
 22
0.0
 32
0.0
 13
1.0
 23
0.0
 33
0.0
 40
0.0
 40
0.0
 40
0.0
 40
0.0
 40
0.25
 40
0.25
 40
0.25
 40
0.25
 40
0.5
 40
0.5
 40
0.5
 40
0.5
 40
1.0
 40
1.0
 40
1.0
 40
1.0
 10
-128.2459
 20
31.1598
 30
0.0
 10
-127.6342
 20
27.468
 30
0.0
 10
-124.4256
 20
24.6521
 30
0.0
 10
-120.561
 20
24.6521
 30
0.0
 10
-120.561
 20
24.6521
 30
0.0
 10
-116.6963
 20
24.6521
 30
0.0
 10
-113.4877
 20
27.468
 30
0.0
 10
-112.876
 20
31.1598
 30
0.0
 10
-112.876
 20
31.1598
 30
0.0
 10
-112.876
 20
31.1598
 30
0.0
 10
-128.2459
 20
31.1598
 30
0.0
 10
-128.2459
 20
31.1598
 30
0.0
  0
SPLINE
  5
CE
330
1F
100
AcDbEntity
  8
layer 1
 62
     7
100
AcDbSpline
210
0.0
220
0.0
230
1.0
 70
    11
 71
     3
 72
    16
 73
    12
 74
     0
 42
0.0000000001
 43
0.0000000001
 12
1.0
 22
0.0
 32
0.0
 13
1.0
 23
0.0
 33
0.0
 40
0.0
 40
0.0
 40
0.0
 40
0.0
 40
0.25
 40
0.25
 40
0.25
 40
0.25
 40
0.5
 40
0.5
 40
0.5
 40
0.5
 40
1.0
 40
1.0
 40
1.0
 40
1.0
 10
-128.2459
 20
33.9646
 30
0.0
 10
-127.6342
 20
37.6563
 30
0.0
 10
-124.4256
 20
40.4722
 30
0.0
 10
-120.561
 20
40.4722
 30
0.0
 10
-120.561
 20
40.4722
 30
0.0
 10
-116.6963
 20
40.4722
 30
0.0
 10
-113.4877
 20
37.6563
 30
0.0
 10
-112.876
 20
33.9646
 30
0.0
 10
-112.876
 20
33.9646
 30
0.0
 10
-112.876
 20
33.9646
 30
0.0
 10
-128.2459
 20
33.9646
 30
0.0
 10
-128.2459
 20
33.9646
 30
0.0
  0
SPLINE
  5
CF
330
1F
100
AcDbEntity
  8
layer 1
 62
     7
100
AcDbSpline
210
0.0
220
0.0
230
1.0
 70
    11
 71
     3
 72
    16
 73
    12
 74
     0
 42
0.0000000001
 43
0.0000000001
 12
1.0
 22
0.0
 32
0.0
 13
1.0
 23
0.0
 33
0.0
 40
0.0
 40
0.0
 40
0.0
 40
0.0
 40
0.25
 40
0.25
 40
0.25
 40
0.25
 40
0.5
 40
0.5
 40
0.5
 40
0.5
 40
1.0
 40
1.0
 40
1.0
 40
1.0
 10
-128.2459
 20
7.0016
 30
0.0
 10
-127.6342
 20
3.3098
 30
0.0
 10
-124.4256
 20
0.494
 30
0.0
 10
-120.561
 20
0.494
 30
0.0
 10
-120.561
 20
0.494
 30
0.0
 10
-116.6963
 20
0.494
 30
0.0
 10
-113.4877
 20
3.3098
 30
0.0
 10
-112.876
 20
7.0016
 30
0.0
 10
-112.876
 20
7.0016
 30
0.0
 10
-112.876
 20
7.0016
 30
0.0
 10
-128.2459
 20
7.0016
 30
0.0
 10
-128.2459
 20
7.0016
 30
0.0
  0
SPLINE
  5
D0
330
1F
100
AcDbEntity
  8
layer 1
 62
     7
100
AcDbSpline
210
0.0
220
0.0
230
1.0
 70
    11
 71
     3
 72
    16
 73
    12
 74
     0
 42
0.0000000001
 43
0.0000000001
 12
1.0
 22
0.0
 32
0.0
 13
1.0
 23
0.0
 33
0.0
 40
0.0
 40
0.0
 40
0.0
 40
0.0
 40
0.25
 40
0.25
 40
0.25
 40
0.25
 40
0.5
 40
0.5
 40
0.5
 40
0.5
 40
1.0
 40
1.0
 40
1.0
 40
1.0
 10
-128.2459
 20
9.8064
 30
0.0
 10
-127.6342
 20
13.4982
 30
0.0
 10
-124.4256
 20
16.314
 30
0.0
 10
-120.561
 20
16.314
 30
0.0
 10
-120.561
 20
16.314
 30
0.0
 10
-116.6963
 20
16.314
 30
0.0
 10
-113.4877
 20
13.4982
 30
0.0
 10
-112.876
 20
9.8064
 30
0.0
 10
-112.876
 20
9.8064
 30
0.0
 10
-112.876
 20
9.8064
 30
0.0
 10
-128.2459
 20
9.8064
 30
0.0
 10
-128.2459
 20
9.8064
 30
0.0
  0
SPLINE
  5
D1
330
1F
100
AcDbEntity
  8
layer 1
 62
     7
100
AcDbSpline
210
0.0
220
0.0
230
1.0
 70
    11
 71
     3
 72
    16
 73
    12
 74
     0
 42
0.0000000001
 43
0.0000000001
 12
1.0
 22
0.0
 32
0.0
 13
1.0
 23
0.0
 33
0.0
 40
0.0
 40
0.0
 40
0.0
 40
0.0
 40
0.25
 40
0.25
 40
0.25
 40
0.25
 40
0.5
 40
0.5
 40
0.5
 40
0.5
 40
1.0
 40
1.0
 40
1.0
 40
1.0
 10
-128.2459
 20
-17.1566
 30
0.0
 10
-127.6342
 20
-20.8484
 30
0.0
 10
-124.4256
 20
-23.6642
 30
0.0
 10
-120.561
 20
-23.6642
 30
0.0
 10
-120.561
 20
-23.6642
 30
0.0
 10
-116.6963
 20
-23.6642
 30
0.0
 10
-113.4877
 20
-20.8484
 30
0.0
 10
-112.876
 20
-17.1566
 30
0.0
 10
-112.876
 20
-17.1566
 30
0.0
 10
-112.876
 20
-17.1566
 30
0.0
 10
-128.2459
 20
-17.1566
 30
0.0
 10
-128.2459
 20
-17.1566
 30
0.0
  0
SPLINE
  5
D2
330
1F
100
AcDbEntity
  8
layer 1
 62
     7
100
AcDbSpline
210
0.0
220
0.0
230
1.0
 70
    11
 71
     3
 72
    16
 73
    12
 74
     0
 42
0.0000000001
 43
0.0000000001
 12
1.0
 22
0.0
 32
0.0
 13
1.0
 23
0.0
 33
0.0
 40
0.0
 40
0.0
 40
0.0
 40
0.0
 40
0.25
 40
0.25
 40
0.25
 40
0.25
 40
0.5
 40
0.5
 40
0.5
 40
0.5
 40
1.0
 40
1.0
 40
1.0
 40
1.0
 10
-128.2459
 20
-14.3518
 30
0.0
 10
-127.6342
 20
-10.66
 30
0.0
 10
-124.4256
 20
-7.8442
 30
0.0
 10
-120.561
 20
-7.8442
 30
0.0
 10
-120.561
 20
-7.8442
 30
0.0
 10
-116.6963
 20
-7.8442
 30
0.0
 10
-113.4877
 20
-10.66
 30
0.0
 10
-112.876
 20
-14.3518
 30
0.0
 10
-112.876
 20
-14.3518
 30
0.0
 10
-112.876
 20
-14.3518
 30
0.0
 10
-128.2459
 20
-14.3518
 30
0.0
 10
-128.2459
 20
-14.3518
 30
0.0
  0
SPLINE
  5
D3
330
1F
100
AcDbEntity
  8
layer 1
 62
     7
100
AcDbSpline
210
0.0
220
0.0
230
1.0
 70
    11
 71
     3
 72
    16
 73
    12
 74
     0
 42
0.0000000001
 43
0.0000000001
 12
1.0
 22
0.0
 32
0.0
 13
1.0
 23
0.0
 33
0.0
 40
0.0
 40
0.0
 40
0.0
 40
0.0
 40
0.25
 40
0.25
 40
0.25
 40
0.25
 40
0.5
 40
0.5
 40
0.5
 40
0.5
 40
1.0
 40
1.0
 40
1.0
 40
1.0
 10
-128.2459
 20
-41.3148
 30
0.0
 10
-127.6342
 20
-45.0065
 30
0.0
 10
-124.4256
 20
-47.8224
 30
0.0
 10
-120.561
 20
-47.8224
 30
0.0
 10
-120.561
 20
-47.8224
 30
0.0
 10
-116.6963
 20
-47.8224
 30
0.0
 10
-113.4877
 20
-45.0065
 30
0.0
 10
-112.876
 20
-41.3148
 30
0.0
 10
-112.876
 20
-41.3148
 30
0.0
 10
-112.876
 20
-41.3148
 30
0.0
 10
-128.2459
 20
-41.3148
 30
0.0
 10
-128.2459
 20
-41.3148
 30
0.0
  0
SPLINE
  5
D4
330
1F
100
AcDbEntity
  8
layer 1
 62
     7
100
AcDbSpline
210
0.0
220
0.0
230
1.0
 70
    11
 71
     3
 72
    16
 73
    12
 74
     0
 42
0.0000000001
 43
0.0000000001
 12
1.0
 22
0.0
 32
0.0
 13
1.0
 23
0.0
 33
0.0
 40
0.0
 40
0.0
 40
0.0
 40
0.0
 40
0.25
 40
0.25
 40
0.25
 40
0.25
 40
0.5
 40
0.5
 40
0.5
 40
0.5
 40
1.0
 40
1.0
 40
1.0
 40
1.0
 10
-128.2459
 20
-38.51
 30
0.0
 10
-127.6342
 20
-34.8182
 30
0.0
 10
-124.4256
 20
-32.0024
 30
0.0
 10
-120.561
 20
-32.0024
 30
0.0
 10
-120.561
 20
-32.0024
 30
0.0
 10
-116.6963
 20
-32.0024
 30
0.0
 10
-113.4877
 20
-34.8182
 30
0.0
 10
-112.876
 20
-38.51
 30
0.0
 10
-112.876
 20
-38.51
 30
0.0
 10
-112.876
 20
-38.51
 30
0.0
 10
-128.2459
 20
-38.51
 30
0.0
 10
-128.2459
 20
-38.51
 30
0.0
  0
SPLINE
  5
D5
330
1F
100
AcDbEntity
  8
layer 1
 62
     7
100
AcDbSpline
210
0.0
220
0.0
230
1.0
 70
    11
 71
     3
 72
    16
 73
    12
 74
     0
 42
0.0000000001
 43
0.0000000001
 12
1.0
 22
0.0
 32
0.0
 13
1.0
 23
0.0
 33
0.0
 40
0.0
 40
0.0
 40
0.0
 40
0.0
 40
0.25
 40
0.25
 40
0.25
 40
0.25
 40
0.5
 40
0.5
 40
0.5
 40
0.5
 40
1.0
 40
1.0
 40
1.0
 40
1.0
 10
-128.2459
 20
-65.4729
 30
0.0
 10
-127.6342
 20
-69.1647
 30
0.0
 10
-124.4256
 20
-71.9806
 30
0.0
 10
-120.561
 20
-71.9806
 30
0.0
 10
-120.561
 20
-71.9806
 30
0.0
 10
-116.6963
 20
-71.9806
 30
0.0
 10
-113.4877
 20
-69.1647
 30
0.0
 10
-112.876
 20
-65.4729
 30
0.0
 10
-112.876
 20
-65.4729
 30
0.0
 10
-112.876
 20
-65.4729
 30
0.0
 10
-128.2459
 20
-65.4729
 30
0.0
 10
-128.2459
 20
-65.4729
 30
0.0
  0
SPLINE
  5
D6
330
1F
100
AcDbEntity
  8
layer 1
 62
     7
100
AcDbSpline
210
0.0
220
0.0
230
1.0
 70
    11
 71
     3
 72
    16
 73
    12
 74
     0
 42
0.0000000001
 43
0.0000000001
 12
1.0
 22
0.0
 32
0.0
 13
1.0
 23
0.0
 33
0.0
 40
0.0
 40
0.0
 40
0.0
 40
0.0
 40
0.25
 40
0.25
 40
0.25
 40
0.25
 40
0.5
 40
0.5
 40
0.5
 40
0.5
 40
1.0
 40
1.0
 40
1.0
 40
1.0
 10
-128.2459
 20
-62.6681
 30
0.0
 10
-127.6342
 20
-58.9764
 30
0.0
 10
-124.4256
 20
-56.1605
 30
0.0
 10
-120.561
 20
-56.1605
 30
0.0
 10
-120.561
 20
-56.1605
 30
0.0
 10
-116.6963
 20
-56.1605
 30
0.0
 10
-113.4877
 20
-58.9764
 30
0.0
 10
-112.876
 20
-62.6681
 30
0.0
 10
-112.876
 20
-62.6681
 30
0.0
 10
-112.876
 20
-62.6681
 30
0.0
 10
-128.2459
 20
-62.6681
 30
0.0
 10
-128.2459
 20
-62.6681
 30
0.0
  0
SPLINE
  5
D7
330
1F
100
AcDbEntity
  8
layer 1
 62
     7
100
AcDbSpline
210
0.0
220
0.0
230
1.0
 70
    11
 71
     3
 72
    16
 73
    12
 74
     0
 42
0.0000000001
 43
0.0000000001
 12
1.0
 22
0.0
 32
0.0
 13
1.0
 23
0.0
 33
0.0
 40
0.0
 40
0.0
 40
0.0
 40
0.0
 40
0.25
 40
0.25
 40
0.25
 40
0.25
 40
0.5
 40
0.5
 40
0.5
 40
0.5
 40
1.0
 40
1.0
 40
1.0
 40
1.0
 10
-128.2459
 20
-89.6311
 30
0.0
 10
-127.6342
 20
-93.3229
 30
0.0
 10
-124.4256
 20
-96.1387
 30
0.0
 10
-120.561
 20
-96.1387
 30
0.0
 10
-120.561
 20
-96.1387
 30
0.0
 10
-116.6963
 20
-96.1387
 30
0.0
 10
-113.4877
 20
-93.3229
 30
0.0
 10
-112.876
 20
-89.6311
 30
0.0
 10
-112.876
 20
-89.6311
 30
0.0
 10
-112.876
 20
-89.6311
 30
0.0
 10
-128.2459
 20
-89.6311
 30
0.0
 10
-128.2459
 20
-89.6311
 30
0.0
  0
SPLINE
  5
D8
330
1F
100
AcDbEntity
  8
layer 1
 62
     7
100
AcDbSpline
210
0.0
220
0.0
230
1.0
 70
    11
 71
     3
 72
    16
 73
    12
 74
     0
 42
0.0000000001
 43
0.0000000001
 12
1.0
 22
0.0
 32
0.0
 13
1.0
 23
0.0
 33
0.0
 40
0.0
 40
0.0
 40
0.0
 40
0.0
 40
0.25
 40
0.25
 40
0.25
 40
0.25
 40
0.5
 40
0.5
 40
0.5
 40
0.5
 40
1.0
 40
1.0
 40
1.0
 40
1.0
 10
-128.2459
 20
-86.8263
 30
0.0
 10
-127.6342
 20
-83.1345
 30
0.0
 10
-124.4256
 20
-80.3187
 30
0.0
 10
-120.561
 20
-80.3187
 30
0.0
 10
-120.561
 20
-80.3187
 30
0.0
 10
-116.6963
 20
-80.3187
 30
0.0
 10
-113.4877
 20
-83.1345
 30
0.0
 10
-112.876
 20
-86.8263
 30
0.0
 10
-112.876
 20
-86.8263
 30
0.0
 10
-112.876
 20
-86.8263
 30
0.0
 10
-128.2459
 20
-86.8263
 30
0.0
 10
-128.2459
 20
-86.8263
 30
0.0
  0
SPLINE
  5
D9
330
1F
100
AcDbEntity
  8
layer 1
 62
     7
100
AcDbSpline
210
0.0
220
0.0
230
1.0
 70
    11
 71
     3
 72
    16
 73
    12
 74
     0
 42
0.0000000001
 43
0.0000000001
 12
1.0
 22
0.0
 32
0.0
 13
1.0
 23
0.0
 33
0.0
 40
0.0
 40
0.0
 40
0.0
 40
0.0
 40
0.25
 40
0.25
 40
0.25
 40
0.25
 40
0.5
 40
0.5
 40
0.5
 40
0.5
 40
1.0
 40
1.0
 40
1.0
 40
1.0
 10
-128.2459
 20
-110.9845
 30
0.0
 10
-127.6342
 20
-107.2927
 30
0.0
 10
-124.4256
 20
-104.4769
 30
0.0
 10
-120.561
 20
-104.4769
 30
0.0
 10
-120.561
 20
-104.4769
 30
0.0
 10
-116.6963
 20
-104.4769
 30
0.0
 10
-113.4877
 20
-107.2927
 30
0.0
 10
-112.876
 20
-110.9845
 30
0.0
 10
-112.876
 20
-110.9845
 30
0.0
 10
-112.876
 20
-110.9845
 30
0.0
 10
-128.2459
 20
-110.9845
 30
0.0
 10
-128.2459
 20
-110.9845
 30
0.0
  0
SPLINE
  5
DA
330
1F
100
AcDbEntity
  8
layer 1
 62
     7
100
AcDbSpline
210
0.0
220
0.0
230
1.0
 70
    11
 71
     3
 72
    16
 73
    12
 74
     0
 42
0.0000000001
 43
0.0000000001
 12
1.0
 22
0.0
 32
0.0
 13
1.0
 23
0.0
 33
0.0
 40
0.0
 40
0.0
 40
0.0
 40
0.0
 40
0.25
 40
0.25
 40
0.25
 40
0.25
 40
0.5
 40
0.5
 40
0.5
 40
0.5
 40
1.0
 40
1.0
 40
1.0
 40
1.0
 10
-102.6628
 20
103.6343
 30
0.0
 10
-102.0511
 20
99.9425
 30
0.0
 10
-98.8425
 20
97.1267
 30
0.0
 10
-94.9778
 20
97.1267
 30
0.0
 10
-94.9778
 20
97.1267
 30
0.0
 10
-91.1132
 20
97.1267
 30
0.0
 10
-87.9046
 20
99.9425
 30
0.0
 10
-87.2929
 20
103.6343
 30
0.0
 10
-87.2929
 20
103.6343
 30
0.0
 10
-87.2929
 20
103.6343
 30
0.0
 10
-102.6628
 20
103.6343
 30
0.0
 10
-102.6628
 20
103.6343
 30
0.0
  0
SPLINE
  5
DB
330
1F
100
AcDbEntity
  8
layer 1
 62
     7
100
AcDbSpline
210
0.0
220
0.0
230
1.0
 70
    11
 71
     3
 72
    16
 73
    12
 74
     0
 42
0.0000000001
 43
0.0000000001
 12
1.0
 22
0.0
 32
0.0
 13
1.0
 23
0.0
 33
0.0
 40
0.0
 40
0.0
 40
0.0
 40
0.0
 40
0.25
 40
0.25
 40
0.25
 40
0.25
 40
0.5
 40
0.5
 40
0.5
 40
0.5
 40
1.0
 40
1.0
 40
1.0
 40
1.0
 10
-102.6628
 20
106.4391
 30
0.0
 10
-102.0511
 20
110.1309
 30
0.0
 10
-98.8425
 20
112.9467
 30
0.0
 10
-94.9778
 20
112.9467
 30
0.0
 10
-94.9778
 20
112.9467
 30
0.0
 10
-91.1132
 20
112.9467
 30
0.0
 10
-87.9046
 20
110.1309
 30
0.0
 10
-87.2929
 20
106.4391
 30
0.0
 10
-87.2929
 20
106.4391
 30
0.0
 10
-87.2929
 20
106.4391
 30
0.0
 10
-102.6628
 20
106.4391
 30
0.0
 10
-102.6628
 20
106.4391
 30
0.0
  0
SPLINE
  5
DC
330
1F
100
AcDbEntity
  8
layer 1
 62
     7
100
AcDbSpline
210
0.0
220
0.0
230
1.0
 70
    11
 71
     3
 72
    16
 73
    12
 74
     0
 42
0.0000000001
 43
0.0000000001
 12
1.0
 22
0.0
 32
0.0
 13
1.0
 23
0.0
 33
0.0
 40
0.0
 40
0.0
 40
0.0
 40
0.0
 40
0.25
 40
0.25
 40
0.25
 40
0.25
 40
0.5
 40
0.5
 40
0.5
 40
0.5
 40
1.0
 40
1.0
 40
1.0
 40
1.0
 10
-102.6628
 20
79.4761
 30
0.0
 10
-102.0511
 20
75.7843
 30
0.0
 10
-98.8425
 20
72.9685
 30
0.0
 10
-94.9778
 20
72.9685
 30
0.0
 10
-94.9778
 20
72.9685
 30
0.0
 10
-91.1132
 20
72.9685
 30
0.0
 10
-87.9046
 20
75.7843
 30
0.0
 10
-87.2929
 20
79.4761
 30
0.0
 10
-87.2929
 20
79.4761
 30
0.0
 10
-87.2929
 20
79.4761
 30
0.0
 10
-102.6628
 20
79.4761
 30
0.0
 10
-102.6628
 20
79.4761
 30
0.0
  0
SPLINE
  5
DD
330
1F
100
AcDbEntity
  8
layer 1
 62
     7
100
AcDbSpline
210
0.0
220
0.0
230
1.0
 70
    11
 71
     3
 72
    16
 73
    12
 74
     0
 42
0.0000000001
 43
0.0000000001
 12
1.0
 22
0.0
 32
0.0
 13
1.0
 23
0.0
 33
0.0
 40
0.0
 40
0.0
 40
0.0
 40
0.0
 40
0.25
 40
0.25
 40
0.25
 40
0.25
 40
0.5
 40
0.5
 40
0.5
 40
0.5
 40
1.0
 40
1.0
 40
1.0
 40
1.0
 10
-102.6628
 20
82.2809
 30
0.0
 10
-102.0511
 20
85.9727
 30
0.0
 10
-98.8425
 20
88.7885
 30
0.0
 10
-94.9778
 20
88.7885
 30
0.0
 10
-94.9778
 20
88.7885
 30
0.0
 10
-91.1132
 20
88.7885
 30
0.0
 10
-87.9046
 20
85.9727
 30
0.0
 10
-87.2929
 20
82.2809
 30
0.0
 10
-87.2929
 20
82.2809
 30
0.0
 10
-87.2929
 20
82.2809
 30
0.0
 10
-102.6628
 20
82.2809
 30
0.0
 10
-102.6628
 20
82.2809
 30
0.0
  0
SPLINE
  5
DE
330
1F
100
AcDbEntity
  8
layer 1
 62
     7
100
AcDbSpline
210
0.0
220
0.0
230
1.0
 70
    11
 71
     3
 72
    16
 73
    12
 74
     0
 42
0.0000000001
 43
0.0000000001
 12
1.0
 22
0.0
 32
0.0
 13
1.0
 23
0.0
 33
0.0
 40
0.0
 40
0.0
 40
0.0
 40
0.0
 40
0.25
 40
0.25
 40
0.25
 40
0.25
 40
0.5
 40
0.5
 40
0.5
 40
0.5
 40
1.0
 40
1.0
 40
1.0
 40
1.0
 10
-102.6628
 20
55.3179
 30
0.0
 10
-102.0511
 20
51.6262
 30
0.0
 10
-98.8425
 20
48.8103
 30
0.0
 10
-94.9778
 20
48.8103
 30
0.0
 10
-94.9778
 20
48.8103
 30
0.0
 10
-91.1132
 20
48.8103
 30
0.0
 10
-87.9046
 20
51.6262
 30
0.0
 10
-87.2929
 20
55.3179
 30
0.0
 10
-87.2929
 20
55.3179
 30
0.0
 10
-87.2929
 20
55.3179
 30
0.0
 10
-102.6628
 20
55.3179
 30
0.0
 10
-102.6628
 20
55.3179
 30
0.0
  0
SPLINE
  5
DF
330
1F
100
AcDbEntity
  8
layer 1
 62
     7
100
AcDbSpline
210
0.0
220
0.0
230
1.0
 70
    11
 71
     3
 72
    16
 73
    12
 74
     0
 42
0.0000000001
 43
0.0000000001
 12
1.0
 22
0.0
 32
0.0
 13
1.0
 23
0.0
 33
0.0
 40
0.0
 40
0.0
 40
0.0
 40
0.0
 40
0.25
 40
0.25
 40
0.25
 40
0.25
 40
0.5
 40
0.5
 40
0.5
 40
0.5
 40
1.0
 40
1.0
 40
1.0
 40
1.0
 10
-102.6628
 20
58.1227
 30
0.0
 10
-102.0511
 20
61.8145
 30
0.0
 10
-98.8425
 20
64.6304
 30
0.0
 10
-94.9778
 20
64.6304
 30
0.0
 10
-94.9778
 20
64.6304
 30
0.0
 10
-91.1132
 20
64.6304
 30
0.0
 10
-87.9046
 20
61.8145
 30
0.0
 10
-87.2929
 20
58.1227
 30
0.0
 10
-87.2929
 20
58.1227
 30
0.0
 10
-87.2929
 20
58.1227
 30
0.0
 10
-102.6628
 20
58.1227
 30
0.0
 10
-102.6628
 20
58.1227
 30
0.0
  0
SPLINE
  5
E0
330
1F
100
AcDbEntity
  8
layer 1
 62
     7
100
AcDbSpline
210
0.0
220
0.0
230
1.0
 70
    11
 71
     3
 72
    16
 73
    12
 74
     0
 42
0.0000000001
 43
0.0000000001
 12
1.0
 22
0.0
 32
0.0
 13
1.0
 23
0.0
 33
0.0
 40
0.0
 40
0.0
 40
0.0
 40
0.0
 40
0.25
 40
0.25
 40
0.25
 40
0.25
 40
0.5
 40
0.5
 40
0.5
 40
0.5
 40
1.0
 40
1.0
 40
1.0
 40
1.0
 10
-102.6628
 20
31.1598
 30
0.0
 10
-102.0511
 20
27.468
 30
0.0
 10
-98.8425
 20
24.6521
 30
0.0
 10
-94.9778
 20
24.6521
 30
0.0
 10
-94.9778
 20
24.6521
 30
0.0
 10
-91.1132
 20
24.6521
 30
0.0
 10
-87.9046
 20
27.468
 30
0.0
 10
-87.2929
 20
31.1598
 30
0.0
 10
-87.2929
 20
31.1598
 30
0.0
 10
-87.2929
 20
31.1598
 30
0.0
 10
-102.6628
 20
31.1598
 30
0.0
 10
-102.6628
 20
31.1598
 30
0.0
  0
SPLINE
  5
E1
330
1F
100
AcDbEntity
  8
layer 1
 62
     7
100
AcDbSpline
210
0.0
220
0.0
230
1.0
 70
    11
 71
     3
 72
    16
 73
    12
 74
     0
 42
0.0000000001
 43
0.0000000001
 12
1.0
 22
0.0
 32
0.0
 13
1.0
 23
0.0
 33
0.0
 40
0.0
 40
0.0
 40
0.0
 40
0.0
 40
0.25
 40
0.25
 40
0.25
 40
0.25
 40
0.5
 40
0.5
 40
0.5
 40
0.5
 40
1.0
 40
1.0
 40
1.0
 40
1.0
 10
-102.6628
 20
33.9646
 30
0.0
 10
-102.0511
 20
37.6563
 30
0.0
 10
-98.8425
 20
40.4722
 30
0.0
 10
-94.9778
 20
40.4722
 30
0.0
 10
-94.9778
 20
40.4722
 30
0.0
 10
-91.1132
 20
40.4722
 30
0.0
 10
-87.9046
 20
37.6563
 30
0.0
 10
-87.2929
 20
33.9646
 30
0.0
 10
-87.2929
 20
33.9646
 30
0.0
 10
-87.2929
 20
33.9646
 30
0.0
 10
-102.6628
 20
33.9646
 30
0.0
 10
-102.6628
 20
33.9646
 30
0.0
  0
SPLINE
  5
E2
330
1F
100
AcDbEntity
  8
layer 1
 62
     7
100
AcDbSpline
210
0.0
220
0.0
230
1.0
 70
    11
 71
     3
 72
    16
 73
    12
 74
     0
 42
0.0000000001
 43
0.0000000001
 12
1.0
 22
0.0
 32
0.0
 13
1.0
 23
0.0
 33
0.0
 40
0.0
 40
0.0
 40
0.0
 40
0.0
 40
0.25
 40
0.25
 40
0.25
 40
0.25
 40
0.5
 40
0.5
 40
0.5
 40
0.5
 40
1.0
 40
1.0
 40
1.0
 40
1.0
 10
-102.6628
 20
7.0016
 30
0.0
 10
-102.0511
 20
3.3098
 30
0.0
 10
-98.8425
 20
0.494
 30
0.0
 10
-94.9778
 20
0.494
 30
0.0
 10
-94.9778
 20
0.494
 30
0.0
 10
-91.1132
 20
0.494
 30
0.0
 10
-87.9046
 20
3.3098
 30
0.0
 10
-87.2929
 20
7.0016
 30
0.0
 10
-87.2929
 20
7.0016
 30
0.0
 10
-87.2929
 20
7.0016
 30
0.0
 10
-102.6628
 20
7.0016
 30
0.0
 10
-102.6628
 20
7.0016
 30
0.0
  0
SPLINE
  5
E3
330
1F
100
AcDbEntity
  8
layer 1
 62
     7
100
AcDbSpline
210
0.0
220
0.0
230
1.0
 70
    11
 71
     3
 72
    16
 73
    12
 74
     0
 42
0.0000000001
 43
0.0000000001
 12
1.0
 22
0.0
 32
0.0
 13
1.0
 23
0.0
 33
0.0
 40
0.0
 40
0.0
 40
0.0
 40
0.0
 40
0.25
 40
0.25
 40
0.25
 40
0.25
 40
0.5
 40
0.5
 40
0.5
 40
0.5
 40
1.0
 40
1.0
 40
1.0
 40
1.0
 10
-102.6628
 20
9.8064
 30
0.0
 10
-102.0511
 20
13.4982
 30
0.0
 10
-98.8425
 20
16.314
 30
0.0
 10
-94.9778
 20
16.314
 30
0.0
 10
-94.9778
 20
16.314
 30
0.0
 10
-91.1132
 20
16.314
 30
0.0
 10
-87.9046
 20
13.4982
 30
0.0
 10
-87.2929
 20
9.8064
 30
0.0
 10
-87.2929
 20
9.8064
 30
0.0
 10
-87.2929
 20
9.8064
 30
0.0
 10
-102.6628
 20
9.8064
 30
0.0
 10
-102.6628
 20
9.8064
 30
0.0
  0
SPLINE
  5
E4
330
1F
100
AcDbEntity
  8
layer 1
 62
     7
100
AcDbSpline
210
0.0
220
0.0
230
1.0
 70
    11
 71
     3
 72
    16
 73
    12
 74
     0
 42
0.0000000001
 43
0.0000000001
 12
1.0
 22
0.0
 32
0.0
 13
1.0
 23
0.0
 33
0.0
 40
0.0
 40
0.0
 40
0.0
 40
0.0
 40
0.25
 40
0.25
 40
0.25
 40
0.25
 40
0.5
 40
0.5
 40
0.5
 40
0.5
 40
1.0
 40
1.0
 40
1.0
 40
1.0
 10
-102.6628
 20
-17.1566
 30
0.0
 10
-102.0511
 20
-20.8484
 30
0.0
 10
-98.8425
 20
-23.6642
 30
0.0
 10
-94.9778
 20
-23.6642
 30
0.0
 10
-94.9778
 20
-23.6642
 30
0.0
 10
-91.1132
 20
-23.6642
 30
0.0
 10
-87.9046
 20
-20.8484
 30
0.0
 10
-87.2929
 20
-17.1566
 30
0.0
 10
-87.2929
 20
-17.1566
 30
0.0
 10
-87.2929
 20
-17.1566
 30
0.0
 10
-102.6628
 20
-17.1566
 30
0.0
 10
-102.6628
 20
-17.1566
 30
0.0
  0
SPLINE
  5
E5
330
1F
100
AcDbEntity
  8
layer 1
 62
     7
100
AcDbSpline
210
0.0
220
0.0
230
1.0
 70
    11
 71
     3
 72
    16
 73
    12
 74
     0
 42
0.0000000001
 43
0.0000000001
 12
1.0
 22
0.0
 32
0.0
 13
1.0
 23
0.0
 33
0.0
 40
0.0
 40
0.0
 40
0.0
 40
0.0
 40
0.25
 40
0.25
 40
0.25
 40
0.25
 40
0.5
 40
0.5
 40
0.5
 40
0.5
 40
1.0
 40
1.0
 40
1.0
 40
1.0
 10
-102.6628
 20
-14.3518
 30
0.0
 10
-102.0511
 20
-10.66
 30
0.0
 10
-98.8425
 20
-7.8442
 30
0.0
 10
-94.9778
 20
-7.8442
 30
0.0
 10
-94.9778
 20
-7.8442
 30
0.0
 10
-91.1132
 20
-7.8442
 30
0.0
 10
-87.9046
 20
-10.66
 30
0.0
 10
-87.2929
 20
-14.3518
 30
0.0
 10
-87.2929
 20
-14.3518
 30
0.0
 10
-87.2929
 20
-14.3518
 30
0.0
 10
-102.6628
 20
-14.3518
 30
0.0
 10
-102.6628
 20
-14.3518
 30
0.0
  0
SPLINE
  5
E6
330
1F
100
AcDbEntity
  8
layer 1
 62
     7
100
AcDbSpline
210
0.0
220
0.0
230
1.0
 70
    11
 71
     3
 72
    16
 73
    12
 74
     0
 42
0.0000000001
 43
0.0000000001
 12
1.0
 22
0.0
 32
0.0
 13
1.0
 23
0.0
 33
0.0
 40
0.0
 40
0.0
 40
0.0
 40
0.0
 40
0.25
 40
0.25
 40
0.25
 40
0.25
 40
0.5
 40
0.5
 40
0.5
 40
0.5
 40
1.0
 40
1.0
 40
1.0
 40
1.0
 10
-102.6628
 20
-41.3148
 30
0.0
 10
-102.0511
 20
-45.0065
 30
0.0
 10
-98.8425
 20
-47.8224
 30
0.0
 10
-94.9778
 20
-47.8224
 30
0.0
 10
-94.9778
 20
-47.8224
 30
0.0
 10
-91.1132
 20
-47.8224
 30
0.0
 10
-87.9046
 20
-45.0065
 30
0.0
 10
-87.2929
 20
-41.3148
 30
0.0
 10
-87.2929
 20
-41.3148
 30
0.0
 10
-87.2929
 20
-41.3148
 30
0.0
 10
-102.6628
 20
-41.3148
 30
0.0
 10
-102.6628
 20
-41.3148
 30
0.0
  0
SPLINE
  5
E7
330
1F
100
AcDbEntity
  8
layer 1
 62
     7
100
AcDbSpline
210
0.0
220
0.0
230
1.0
 70
    11
 71
     3
 72
    16
 73
    12
 74
     0
 42
0.0000000001
 43
0.0000000001
 12
1.0
 22
0.0
 32
0.0
 13
1.0
 23
0.0
 33
0.0
 40
0.0
 40
0.0
 40
0.0
 40
0.0
 40
0.25
 40
0.25
 40
0.25
 40
0.25
 40
0.5
 40
0.5
 40
0.5
 40
0.5
 40
1.0
 40
1.0
 40
1.0
 40
1.0
 10
-102.6628
 20
-38.51
 30
0.0
 10
-102.0511
 20
-34.8182
 30
0.0
 10
-98.8425
 20
-32.0024
 30
0.0
 10
-94.9778
 20
-32.0024
 30
0.0
 10
-94.9778
 20
-32.0024
 30
0.0
 10
-91.1132
 20
-32.0024
 30
0.0
 10
-87.9046
 20
-34.8182
 30
0.0
 10
-87.2929
 20
-38.51
 30
0.0
 10
-87.2929
 20
-38.51
 30
0.0
 10
-87.2929
 20
-38.51
 30
0.0
 10
-102.6628
 20
-38.51
 30
0.0
 10
-102.6628
 20
-38.51
 30
0.0
  0
SPLINE
  5
E8
330
1F
100
AcDbEntity
  8
layer 1
 62
     7
100
AcDbSpline
210
0.0
220
0.0
230
1.0
 70
    11
 71
     3
 72
    16
 73
    12
 74
     0
 42
0.0000000001
 43
0.0000000001
 12
1.0
 22
0.0
 32
0.0
 13
1.0
 23
0.0
 33
0.0
 40
0.0
 40
0.0
 40
0.0
 40
0.0
 40
0.25
 40
0.25
 40
0.25
 40
0.25
 40
0.5
 40
0.5
 40
0.5
 40
0.5
 40
1.0
 40
1.0
 40
1.0
 40
1.0
 10
-102.6628
 20
-65.4729
 30
0.0
 10
-102.0511
 20
-69.1647
 30
0.0
 10
-98.8425
 20
-71.9806
 30
0.0
 10
-94.9778
 20
-71.9806
 30
0.0
 10
-94.9778
 20
-71.9806
 30
0.0
 10
-91.1132
 20
-71.9806
 30
0.0
 10
-87.9046
 20
-69.1647
 30
0.0
 10
-87.2929
 20
-65.4729
 30
0.0
 10
-87.2929
 20
-65.4729
 30
0.0
 10
-87.2929
 20
-65.4729
 30
0.0
 10
-102.6628
 20
-65.4729
 30
0.0
 10
-102.6628
 20
-65.4729
 30
0.0
  0
SPLINE
  5
E9
330
1F
100
AcDbEntity
  8
layer 1
 62
     7
100
AcDbSpline
210
0.0
220
0.0
230
1.0
 70
    11
 71
     3
 72
    16
 73
    12
 74
     0
 42
0.0000000001
 43
0.0000000001
 12
1.0
 22
0.0
 32
0.0
 13
1.0
 23
0.0
 33
0.0
 40
0.0
 40
0.0
 40
0.0
 40
0.0
 40
0.25
 40
0.25
 40
0.25
 40
0.25
 40
0.5
 40
0.5
 40
0.5
 40
0.5
 40
1.0
 40
1.0
 40
1.0
 40
1.0
 10
-102.6628
 20
-62.6681
 30
0.0
 10
-102.0511
 20
-58.9764
 30
0.0
 10
-98.8425
 20
-56.1605
 30
0.0
 10
-94.9778
 20
-56.1605
 30
0.0
 10
-94.9778
 20
-56.1605
 30
0.0
 10
-91.1132
 20
-56.1605
 30
0.0
 10
-87.9046
 20
-58.9764
 30
0.0
 10
-87.2929
 20
-62.6681
 30
0.0
 10
-87.2929
 20
-62.6681
 30
0.0
 10
-87.2929
 20
-62.6681
 30
0.0
 10
-102.6628
 20
-62.6681
 30
0.0
 10
-102.6628
 20
-62.6681
 30
0.0
  0
SPLINE
  5
EA
330
1F
100
AcDbEntity
  8
layer 1
 62
     7
100
AcDbSpline
210
0.0
220
0.0
230
1.0
 70
    11
 71
     3
 72
    16
 73
    12
 74
     0
 42
0.0000000001
 43
0.0000000001
 12
1.0
 22
0.0
 32
0.0
 13
1.0
 23
0.0
 33
0.0
 40
0.0
 40
0.0
 40
0.0
 40
0.0
 40
0.25
 40
0.25
 40
0.25
 40
0.25
 40
0.5
 40
0.5
 40
0.5
 40
0.5
 40
1.0
 40
1.0
 40
1.0
 40
1.0
 10
-102.6628
 20
-89.6311
 30
0.0
 10
-102.0511
 20
-93.3229
 30
0.0
 10
-98.8425
 20
-96.1387
 30
0.0
 10
-94.9778
 20
-96.1387
 30
0.0
 10
-94.9778
 20
-96.1387
 30
0.0
 10
-91.1132
 20
-96.1387
 30
0.0
 10
-87.9046
 20
-93.3229
 30
0.0
 10
-87.2929
 20
-89.6311
 30
0.0
 10
-87.2929
 20
-89.6311
 30
0.0
 10
-87.2929
 20
-89.6311
 30
0.0
 10
-102.6628
 20
-89.6311
 30
0.0
 10
-102.6628
 20
-89.6311
 30
0.0
  0
SPLINE
  5
EB
330
1F
100
AcDbEntity
  8
layer 1
 62
     7
100
AcDbSpline
210
0.0
220
0.0
230
1.0
 70
    11
 71
     3
 72
    16
 73
    12
 74
     0
 42
0.0000000001
 43
0.0000000001
 12
1.0
 22
0.0
 32
0.0
 13
1.0
 23
0.0
 33
0.0
 40
0.0
 40
0.0
 40
0.0
 40
0.0
 40
0.25
 40
0.25
 40
0.25
 40
0.25
 40
0.5
 40
0.5
 40
0.5
 40
0.5
 40
1.0
 40
1.0
 40
1.0
 40
1.0
 10
-102.6628
 20
-86.8263
 30
0.0
 10
-102.0511
 20
-83.1345
 30
0.0
 10
-98.8425
 20
-80.3187
 30
0.0
 10
-94.9778
 20
-80.3187
 30
0.0
 10
-94.9778
 20
-80.3187
 30
0.0
 10
-91.1132
 20
-80.3187
 30
0.0
 10
-87.9046
 20
-83.1345
 30
0.0
 10
-87.2929
 20
-86.8263
 30
0.0
 10
-87.2929
 20
-86.8263
 30
0.0
 10
-87.2929
 20
-86.8263
 30
0.0
 10
-102.6628
 20
-86.8263
 30
0.0
 10
-102.6628
 20
-86.8263
 30
0.0
  0
SPLINE
  5
EC
330
1F
100
AcDbEntity
  8
layer 1
 62
     7
100
AcDbSpline
210
0.0
220
0.0
230
1.0
 70
    11
 71
     3
 72
    16
 73
    12
 74
     0
 42
0.0000000001
 43
0.0000000001
 12
1.0
 22
0.0
 32
0.0
 13
1.0
 23
0.0
 33
0.0
 40
0.0
 40
0.0
 40
0.0
 40
0.0
 40
0.25
 40
0.25
 40
0.25
 40
0.25
 40
0.5
 40
0.5
 40
0.5
 40
0.5
 40
1.0
 40
1.0
 40
1.0
 40
1.0
 10
-102.6628
 20
-110.9845
 30
0.0
 10
-102.0511
 20
-107.2927
 30
0.0
 10
-98.8425
 20
-104.4769
 30
0.0
 10
-94.9778
 20
-104.4769
 30
0.0
 10
-94.9778
 20
-104.4769
 30
0.0
 10
-91.1132
 20
-104.4769
 30
0.0
 10
-87.9046
 20
-107.2927
 30
0.0
 10
-87.2929
 20
-110.9845
 30
0.0
 10
-87.2929
 20
-110.9845
 30
0.0
 10
-87.2929
 20
-110.9845
 30
0.0
 10
-102.6628
 20
-110.9845
 30
0.0
 10
-102.6628
 20
-110.9845
 30
0.0
  0
SPLINE
  5
ED
330
1F
100
AcDbEntity
  8
layer 1
 62
     7
100
AcDbSpline
210
0.0
220
0.0
230
1.0
 70
    11
 71
     3
 72
    16
 73
    12
 74
     0
 42
0.0000000001
 43
0.0000000001
 12
1.0
 22
0.0
 32
0.0
 13
1.0
 23
0.0
 33
0.0
 40
0.0
 40
0.0
 40
0.0
 40
0.0
 40
0.25
 40
0.25
 40
0.25
 40
0.25
 40
0.5
 40
0.5
 40
0.5
 40
0.5
 40
1.0
 40
1.0
 40
1.0
 40
1.0
 10
-77.1103
 20
103.6343
 30
0.0
 10
-76.4985
 20
99.9425
 30
0.0
 10
-73.29
 20
97.1267
 30
0.0
 10
-69.4253
 20
97.1267
 30
0.0
 10
-69.4253
 20
97.1267
 30
0.0
 10
-65.5606
 20
97.1267
 30
0.0
 10
-62.3521
 20
99.9425
 30
0.0
 10
-61.7404
 20
103.6343
 30
0.0
 10
-61.7404
 20
103.6343
 30
0.0
 10
-61.7404
 20
103.6343
 30
0.0
 10
-77.1103
 20
103.6343
 30
0.0
 10
-77.1103
 20
103.6343
 30
0.0
  0
SPLINE
  5
EE
330
1F
100
AcDbEntity
  8
layer 1
 62
     7
100
AcDbSpline
210
0.0
220
0.0
230
1.0
 70
    11
 71
     3
 72
    16
 73
    12
 74
     0
 42
0.0000000001
 43
0.0000000001
 12
1.0
 22
0.0
 32
0.0
 13
1.0
 23
0.0
 33
0.0
 40
0.0
 40
0.0
 40
0.0
 40
0.0
 40
0.25
 40
0.25
 40
0.25
 40
0.25
 40
0.5
 40
0.5
 40
0.5
 40
0.5
 40
1.0
 40
1.0
 40
1.0
 40
1.0
 10
-77.1103
 20
106.4391
 30
0.0
 10
-76.4985
 20
110.1309
 30
0.0
 10
-73.29
 20
112.9467
 30
0.0
 10
-69.4253
 20
112.9467
 30
0.0
 10
-69.4253
 20
112.9467
 30
0.0
 10
-65.5606
 20
112.9467
 30
0.0
 10
-62.3521
 20
110.1309
 30
0.0
 10
-61.7404
 20
106.4391
 30
0.0
 10
-61.7404
 20
106.4391
 30
0.0
 10
-61.7404
 20
106.4391
 30
0.0
 10
-77.1103
 20
106.4391
 30
0.0
 10
-77.1103
 20
106.4391
 30
0.0
  0
SPLINE
  5
EF
330
1F
100
AcDbEntity
  8
layer 1
 62
     7
100
AcDbSpline
210
0.0
220
0.0
230
1.0
 70
    11
 71
     3
 72
    16
 73
    12
 74
     0
 42
0.0000000001
 43
0.0000000001
 12
1.0
 22
0.0
 32
0.0
 13
1.0
 23
0.0
 33
0.0
 40
0.0
 40
0.0
 40
0.0
 40
0.0
 40
0.25
 40
0.25
 40
0.25
 40
0.25
 40
0.5
 40
0.5
 40
0.5
 40
0.5
 40
1.0
 40
1.0
 40
1.0
 40
1.0
 10
-77.1103
 20
79.4761
 30
0.0
 10
-76.4985
 20
75.7843
 30
0.0
 10
-73.29
 20
72.9685
 30
0.0
 10
-69.4253
 20
72.9685
 30
0.0
 10
-69.4253
 20
72.9685
 30
0.0
 10
-65.5606
 20
72.9685
 30
0.0
 10
-62.3521
 20
75.7843
 30
0.0
 10
-61.7404
 20
79.4761
 30
0.0
 10
-61.7404
 20
79.4761
 30
0.0
 10
-61.7404
 20
79.4761
 30
0.0
 10
-77.1103
 20
79.4761
 30
0.0
 10
-77.1103
 20
79.4761
 30
0.0
  0
SPLINE
  5
F0
330
1F
100
AcDbEntity
  8
layer 1
 62
     7
100
AcDbSpline
210
0.0
220
0.0
230
1.0
 70
    11
 71
     3
 72
    16
 73
    12
 74
     0
 42
0.0000000001
 43
0.0000000001
 12
1.0
 22
0.0
 32
0.0
 13
1.0
 23
0.0
 33
0.0
 40
0.0
 40
0.0
 40
0.0
 40
0.0
 40
0.25
 40
0.25
 40
0.25
 40
0.25
 40
0.5
 40
0.5
 40
0.5
 40
0.5
 40
1.0
 40
1.0
 40
1.0
 40
1.0
 10
-77.1103
 20
82.2809
 30
0.0
 10
-76.4985
 20
85.9727
 30
0.0
 10
-73.29
 20
88.7885
 30
0.0
 10
-69.4253
 20
88.7885
 30
0.0
 10
-69.4253
 20
88.7885
 30
0.0
 10
-65.5606
 20
88.7885
 30
0.0
 10
-62.3521
 20
85.9727
 30
0.0
 10
-61.7404
 20
82.2809
 30
0.0
 10
-61.7404
 20
82.2809
 30
0.0
 10
-61.7404
 20
82.2809
 30
0.0
 10
-77.1103
 20
82.2809
 30
0.0
 10
-77.1103
 20
82.2809
 30
0.0
  0
SPLINE
  5
F1
330
1F
100
AcDbEntity
  8
layer 1
 62
     7
100
AcDbSpline
210
0.0
220
0.0
230
1.0
 70
    11
 71
     3
 72
    16
 73
    12
 74
     0
 42
0.0000000001
 43
0.0000000001
 12
1.0
 22
0.0
 32
0.0
 13
1.0
 23
0.0
 33
0.0
 40
0.0
 40
0.0
 40
0.0
 40
0.0
 40
0.25
 40
0.25
 40
0.25
 40
0.25
 40
0.5
 40
0.5
 40
0.5
 40
0.5
 40
1.0
 40
1.0
 40
1.0
 40
1.0
 10
-77.1103
 20
55.3179
 30
0.0
 10
-76.4985
 20
51.6262
 30
0.0
 10
-73.29
 20
48.8103
 30
0.0
 10
-69.4253
 20
48.8103
 30
0.0
 10
-69.4253
 20
48.8103
 30
0.0
 10
-65.5606
 20
48.8103
 30
0.0
 10
-62.3521
 20
51.6262
 30
0.0
 10
-61.7404
 20
55.3179
 30
0.0
 10
-61.7404
 20
55.3179
 30
0.0
 10
-61.7404
 20
55.3179
 30
0.0
 10
-77.1103
 20
55.3179
 30
0.0
 10
-77.1103
 20
55.3179
 30
0.0
  0
SPLINE
  5
F2
330
1F
100
AcDbEntity
  8
layer 1
 62
     7
100
AcDbSpline
210
0.0
220
0.0
230
1.0
 70
    11
 71
     3
 72
    16
 73
    12
 74
     0
 42
0.0000000001
 43
0.0000000001
 12
1.0
 22
0.0
 32
0.0
 13
1.0
 23
0.0
 33
0.0
 40
0.0
 40
0.0
 40
0.0
 40
0.0
 40
0.25
 40
0.25
 40
0.25
 40
0.25
 40
0.5
 40
0.5
 40
0.5
 40
0.5
 40
1.0
 40
1.0
 40
1.0
 40
1.0
 10
-77.1103
 20
58.1227
 30
0.0
 10
-76.4985
 20
61.8145
 30
0.0
 10
-73.29
 20
64.6304
 30
0.0
 10
-69.4253
 20
64.6304
 30
0.0
 10
-69.4253
 20
64.6304
 30
0.0
 10
-65.5606
 20
64.6304
 30
0.0
 10
-62.3521
 20
61.8145
 30
0.0
 10
-61.7404
 20
58.1227
 30
0.0
 10
-61.7404
 20
58.1227
 30
0.0
 10
-61.7404
 20
58.1227
 30
0.0
 10
-77.1103
 20
58.1227
 30
0.0
 10
-77.1103
 20
58.1227
 30
0.0
  0
SPLINE
  5
F3
330
1F
100
AcDbEntity
  8
layer 1
 62
     7
100
AcDbSpline
210
0.0
220
0.0
230
1.0
 70
    11
 71
     3
 72
    16
 73
    12
 74
     0
 42
0.0000000001
 43
0.0000000001
 12
1.0
 22
0.0
 32
0.0
 13
1.0
 23
0.0
 33
0.0
 40
0.0
 40
0.0
 40
0.0
 40
0.0
 40
0.25
 40
0.25
 40
0.25
 40
0.25
 40
0.5
 40
0.5
 40
0.5
 40
0.5
 40
1.0
 40
1.0
 40
1.0
 40
1.0
 10
-77.1103
 20
31.1598
 30
0.0
 10
-76.4985
 20
27.468
 30
0.0
 10
-73.29
 20
24.6521
 30
0.0
 10
-69.4253
 20
24.6521
 30
0.0
 10
-69.4253
 20
24.6521
 30
0.0
 10
-65.5606
 20
24.6521
 30
0.0
 10
-62.3521
 20
27.468
 30
0.0
 10
-61.7404
 20
31.1598
 30
0.0
 10
-61.7404
 20
31.1598
 30
0.0
 10
-61.7404
 20
31.1598
 30
0.0
 10
-77.1103
 20
31.1598
 30
0.0
 10
-77.1103
 20
31.1598
 30
0.0
  0
SPLINE
  5
F4
330
1F
100
AcDbEntity
  8
layer 1
 62
     7
100
AcDbSpline
210
0.0
220
0.0
230
1.0
 70
    11
 71
     3
 72
    16
 73
    12
 74
     0
 42
0.0000000001
 43
0.0000000001
 12
1.0
 22
0.0
 32
0.0
 13
1.0
 23
0.0
 33
0.0
 40
0.0
 40
0.0
 40
0.0
 40
0.0
 40
0.25
 40
0.25
 40
0.25
 40
0.25
 40
0.5
 40
0.5
 40
0.5
 40
0.5
 40
1.0
 40
1.0
 40
1.0
 40
1.0
 10
-77.1103
 20
33.9646
 30
0.0
 10
-76.4985
 20
37.6563
 30
0.0
 10
-73.29
 20
40.4722
 30
0.0
 10
-69.4253
 20
40.4722
 30
0.0
 10
-69.4253
 20
40.4722
 30
0.0
 10
-65.5606
 20
40.4722
 30
0.0
 10
-62.3521
 20
37.6563
 30
0.0
 10
-61.7404
 20
33.9646
 30
0.0
 10
-61.7404
 20
33.9646
 30
0.0
 10
-61.7404
 20
33.9646
 30
0.0
 10
-77.1103
 20
33.9646
 30
0.0
 10
-77.1103
 20
33.9646
 30
0.0
  0
SPLINE
  5
F5
330
1F
100
AcDbEntity
  8
layer 1
 62
     7
100
AcDbSpline
210
0.0
220
0.0
230
1.0
 70
    11
 71
     3
 72
    16
 73
    12
 74
     0
 42
0.0000000001
 43
0.0000000001
 12
1.0
 22
0.0
 32
0.0
 13
1.0
 23
0.0
 33
0.0
 40
0.0
 40
0.0
 40
0.0
 40
0.0
 40
0.25
 40
0.25
 40
0.25
 40
0.25
 40
0.5
 40
0.5
 40
0.5
 40
0.5
 40
1.0
 40
1.0
 40
1.0
 40
1.0
 10
-77.1103
 20
7.0016
 30
0.0
 10
-76.4985
 20
3.3098
 30
0.0
 10
-73.29
 20
0.494
 30
0.0
 10
-69.4253
 20
0.494
 30
0.0
 10
-69.4253
 20
0.494
 30
0.0
 10
-65.5606
 20
0.494
 30
0.0
 10
-62.3521
 20
3.3098
 30
0.0
 10
-61.7404
 20
7.0016
 30
0.0
 10
-61.7404
 20
7.0016
 30
0.0
 10
-61.7404
 20
7.0016
 30
0.0
 10
-77.1103
 20
7.0016
 30
0.0
 10
-77.1103
 20
7.0016
 30
0.0
  0
SPLINE
  5
F6
330
1F
100
AcDbEntity
  8
layer 1
 62
     7
100
AcDbSpline
210
0.0
220
0.0
230
1.0
 70
    11
 71
     3
 72
    16
 73
    12
 74
     0
 42
0.0000000001
 43
0.0000000001
 12
1.0
 22
0.0
 32
0.0
 13
1.0
 23
0.0
 33
0.0
 40
0.0
 40
0.0
 40
0.0
 40
0.0
 40
0.25
 40
0.25
 40
0.25
 40
0.25
 40
0.5
 40
0.5
 40
0.5
 40
0.5
 40
1.0
 40
1.0
 40
1.0
 40
1.0
 10
-77.1103
 20
9.8064
 30
0.0
 10
-76.4985
 20
13.4982
 30
0.0
 10
-73.29
 20
16.314
 30
0.0
 10
-69.4253
 20
16.314
 30
0.0
 10
-69.4253
 20
16.314
 30
0.0
 10
-65.5606
 20
16.314
 30
0.0
 10
-62.3521
 20
13.4982
 30
0.0
 10
-61.7404
 20
9.8064
 30
0.0
 10
-61.7404
 20
9.8064
 30
0.0
 10
-61.7404
 20
9.8064
 30
0.0
 10
-77.1103
 20
9.8064
 30
0.0
 10
-77.1103
 20
9.8064
 30
0.0
  0
SPLINE
  5
F7
330
1F
100
AcDbEntity
  8
layer 1
 62
     7
100
AcDbSpline
210
0.0
220
0.0
230
1.0
 70
    11
 71
     3
 72
    16
 73
    12
 74
     0
 42
0.0000000001
 43
0.0000000001
 12
1.0
 22
0.0
 32
0.0
 13
1.0
 23
0.0
 33
0.0
 40
0.0
 40
0.0
 40
0.0
 40
0.0
 40
0.25
 40
0.25
 40
0.25
 40
0.25
 40
0.5
 40
0.5
 40
0.5
 40
0.5
 40
1.0
 40
1.0
 40
1.0
 40
1.0
 10
-77.1103
 20
-17.1566
 30
0.0
 10
-76.4985
 20
-20.8484
 30
0.0
 10
-73.29
 20
-23.6642
 30
0.0
 10
-69.4253
 20
-23.6642
 30
0.0
 10
-69.4253
 20
-23.6642
 30
0.0
 10
-65.5606
 20
-23.6642
 30
0.0
 10
-62.3521
 20
-20.8484
 30
0.0
 10
-61.7404
 20
-17.1566
 30
0.0
 10
-61.7404
 20
-17.1566
 30
0.0
 10
-61.7404
 20
-17.1566
 30
0.0
 10
-77.1103
 20
-17.1566
 30
0.0
 10
-77.1103
 20
-17.1566
 30
0.0
  0
SPLINE
  5
F8
330
1F
100
AcDbEntity
  8
layer 1
 62
     7
100
AcDbSpline
210
0.0
220
0.0
230
1.0
 70
    11
 71
     3
 72
    16
 73
    12
 74
     0
 42
0.0000000001
 43
0.0000000001
 12
1.0
 22
0.0
 32
0.0
 13
1.0
 23
0.0
 33
0.0
 40
0.0
 40
0.0
 40
0.0
 40
0.0
 40
0.25
 40
0.25
 40
0.25
 40
0.25
 40
0.5
 40
0.5
 40
0.5
 40
0.5
 40
1.0
 40
1.0
 40
1.0
 40
1.0
 10
-77.1103
 20
-14.3518
 30
0.0
 10
-76.4985
 20
-10.66
 30
0.0
 10
-73.29
 20
-7.8442
 30
0.0
 10
-69.4253
 20
-7.8442
 30
0.0
 10
-69.4253
 20
-7.8442
 30
0.0
 10
-65.5606
 20
-7.8442
 30
0.0
 10
-62.3521
 20
-10.66
 30
0.0
 10
-61.7404
 20
-14.3518
 30
0.0
 10
-61.7404
 20
-14.3518
 30
0.0
 10
-61.7404
 20
-14.3518
 30
0.0
 10
-77.1103
 20
-14.3518
 30
0.0
 10
-77.1103
 20
-14.3518
 30
0.0
  0
SPLINE
  5
F9
330
1F
100
AcDbEntity
  8
layer 1
 62
     7
100
AcDbSpline
210
0.0
220
0.0
230
1.0
 70
    11
 71
     3
 72
    16
 73
    12
 74
     0
 42
0.0000000001
 43
0.0000000001
 12
1.0
 22
0.0
 32
0.0
 13
1.0
 23
0.0
 33
0.0
 40
0.0
 40
0.0
 40
0.0
 40
0.0
 40
0.25
 40
0.25
 40
0.25
 40
0.25
 40
0.5
 40
0.5
 40
0.5
 40
0.5
 40
1.0
 40
1.0
 40
1.0
 40
1.0
 10
-77.1103
 20
-41.3148
 30
0.0
 10
-76.4985
 20
-45.0065
 30
0.0
 10
-73.29
 20
-47.8224
 30
0.0
 10
-69.4253
 20
-47.8224
 30
0.0
 10
-69.4253
 20
-47.8224
 30
0.0
 10
-65.5606
 20
-47.8224
 30
0.0
 10
-62.3521
 20
-45.0065
 30
0.0
 10
-61.7404
 20
-41.3148
 30
0.0
 10
-61.7404
 20
-41.3148
 30
0.0
 10
-61.7404
 20
-41.3148
 30
0.0
 10
-77.1103
 20
-41.3148
 30
0.0
 10
-77.1103
 20
-41.3148
 30
0.0
  0
SPLINE
  5
FA
330
1F
100
AcDbEntity
  8
layer 1
 62
     7
100
AcDbSpline
210
0.0
220
0.0
230
1.0
 70
    11
 71
     3
 72
    16
 73
    12
 74
     0
 42
0.0000000001
 43
0.0000000001
 12
1.0
 22
0.0
 32
0.0
 13
1.0
 23
0.0
 33
0.0
 40
0.0
 40
0.0
 40
0.0
 40
0.0
 40
0.25
 40
0.25
 40
0.25
 40
0.25
 40
0.5
 40
0.5
 40
0.5
 40
0.5
 40
1.0
 40
1.0
 40
1.0
 40
1.0
 10
-77.1103
 20
-38.51
 30
0.0
 10
-76.4985
 20
-34.8182
 30
0.0
 10
-73.29
 20
-32.0024
 30
0.0
 10
-69.4253
 20
-32.0024
 30
0.0
 10
-69.4253
 20
-32.0024
 30
0.0
 10
-65.5606
 20
-32.0024
 30
0.0
 10
-62.3521
 20
-34.8182
 30
0.0
 10
-61.7404
 20
-38.51
 30
0.0
 10
-61.7404
 20
-38.51
 30
0.0
 10
-61.7404
 20
-38.51
 30
0.0
 10
-77.1103
 20
-38.51
 30
0.0
 10
-77.1103
 20
-38.51
 30
0.0
  0
SPLINE
  5
FB
330
1F
100
AcDbEntity
  8
layer 1
 62
     7
100
AcDbSpline
210
0.0
220
0.0
230
1.0
 70
    11
 71
     3
 72
    16
 73
    12
 74
     0
 42
0.0000000001
 43
0.0000000001
 12
1.0
 22
0.0
 32
0.0
 13
1.0
 23
0.0
 33
0.0
 40
0.0
 40
0.0
 40
0.0
 40
0.0
 40
0.25
 40
0.25
 40
0.25
 40
0.25
 40
0.5
 40
0.5
 40
0.5
 40
0.5
 40
1.0
 40
1.0
 40
1.0
 40
1.0
 10
-77.1103
 20
-65.4729
 30
0.0
 10
-76.4985
 20
-69.1647
 30
0.0
 10
-73.29
 20
-71.9806
 30
0.0
 10
-69.4253
 20
-71.9806
 30
0.0
 10
-69.4253
 20
-71.9806
 30
0.0
 10
-65.5606
 20
-71.9806
 30
0.0
 10
-62.3521
 20
-69.1647
 30
0.0
 10
-61.7404
 20
-65.4729
 30
0.0
 10
-61.7404
 20
-65.4729
 30
0.0
 10
-61.7404
 20
-65.4729
 30
0.0
 10
-77.1103
 20
-65.4729
 30
0.0
 10
-77.1103
 20
-65.4729
 30
0.0
  0
SPLINE
  5
FC
330
1F
100
AcDbEntity
  8
layer 1
 62
     7
100
AcDbSpline
210
0.0
220
0.0
230
1.0
 70
    11
 71
     3
 72
    16
 73
    12
 74
     0
 42
0.0000000001
 43
0.0000000001
 12
1.0
 22
0.0
 32
0.0
 13
1.0
 23
0.0
 33
0.0
 40
0.0
 40
0.0
 40
0.0
 40
0.0
 40
0.25
 40
0.25
 40
0.25
 40
0.25
 40
0.5
 40
0.5
 40
0.5
 40
0.5
 40
1.0
 40
1.0
 40
1.0
 40
1.0
 10
-77.1103
 20
-62.6681
 30
0.0
 10
-76.4985
 20
-58.9764
 30
0.0
 10
-73.29
 20
-56.1605
 30
0.0
 10
-69.4253
 20
-56.1605
 30
0.0
 10
-69.4253
 20
-56.1605
 30
0.0
 10
-65.5606
 20
-56.1605
 30
0.0
 10
-62.3521
 20
-58.9764
 30
0.0
 10
-61.7404
 20
-62.6681
 30
0.0
 10
-61.7404
 20
-62.6681
 30
0.0
 10
-61.7404
 20
-62.6681
 30
0.0
 10
-77.1103
 20
-62.6681
 30
0.0
 10
-77.1103
 20
-62.6681
 30
0.0
  0
SPLINE
  5
FD
330
1F
100
AcDbEntity
  8
layer 1
 62
     7
100
AcDbSpline
210
0.0
220
0.0
230
1.0
 70
    11
 71
     3
 72
    16
 73
    12
 74
     0
 42
0.0000000001
 43
0.0000000001
 12
1.0
 22
0.0
 32
0.0
 13
1.0
 23
0.0
 33
0.0
 40
0.0
 40
0.0
 40
0.0
 40
0.0
 40
0.25
 40
0.25
 40
0.25
 40
0.25
 40
0.5
 40
0.5
 40
0.5
 40
0.5
 40
1.0
 40
1.0
 40
1.0
 40
1.0
 10
-77.1103
 20
-89.6311
 30
0.0
 10
-76.4985
 20
-93.3229
 30
0.0
 10
-73.29
 20
-96.1387
 30
0.0
 10
-69.4253
 20
-96.1387
 30
0.0
 10
-69.4253
 20
-96.1387
 30
0.0
 10
-65.5606
 20
-96.1387
 30
0.0
 10
-62.3521
 20
-93.3229
 30
0.0
 10
-61.7404
 20
-89.6311
 30
0.0
 10
-61.7404
 20
-89.6311
 30
0.0
 10
-61.7404
 20
-89.6311
 30
0.0
 10
-77.1103
 20
-89.6311
 30
0.0
 10
-77.1103
 20
-89.6311
 30
0.0
  0
SPLINE
  5
FE
330
1F
100
AcDbEntity
  8
layer 1
 62
     7
100
AcDbSpline
210
0.0
220
0.0
230
1.0
 70
    11
 71
     3
 72
    16
 73
    12
 74
     0
 42
0.0000000001
 43
0.0000000001
 12
1.0
 22
0.0
 32
0.0
 13
1.0
 23
0.0
 33
0.0
 40
0.0
 40
0.0
 40
0.0
 40
0.0
 40
0.25
 40
0.25
 40
0.25
 40
0.25
 40
0.5
 40
0.5
 40
0.5
 40
0.5
 40
1.0
 40
1.0
 40
1.0
 40
1.0
 10
-77.1103
 20
-86.8263
 30
0.0
 10
-76.4985
 20
-83.1345
 30
0.0
 10
-73.29
 20
-80.3187
 30
0.0
 10
-69.4253
 20
-80.3187
 30
0.0
 10
-69.4253
 20
-80.3187
 30
0.0
 10
-65.5606
 20
-80.3187
 30
0.0
 10
-62.3521
 20
-83.1345
 30
0.0
 10
-61.7404
 20
-86.8263
 30
0.0
 10
-61.7404
 20
-86.8263
 30
0.0
 10
-61.7404
 20
-86.8263
 30
0.0
 10
-77.1103
 20
-86.8263
 30
0.0
 10
-77.1103
 20
-86.8263
 30
0.0
  0
SPLINE
  5
FF
330
1F
100
AcDbEntity
  8
layer 1
 62
     7
100
AcDbSpline
210
0.0
220
0.0
230
1.0
 70
    11
 71
     3
 72
    16
 73
    12
 74
     0
 42
0.0000000001
 43
0.0000000001
 12
1.0
 22
0.0
 32
0.0
 13
1.0
 23
0.0
 33
0.0
 40
0.0
 40
0.0
 40
0.0
 40
0.0
 40
0.25
 40
0.25
 40
0.25
 40
0.25
 40
0.5
 40
0.5
 40
0.5
 40
0.5
 40
1.0
 40
1.0
 40
1.0
 40
1.0
 10
-77.1103
 20
-110.9845
 30
0.0
 10
-76.4985
 20
-107.2927
 30
0.0
 10
-73.29
 20
-104.4769
 30
0.0
 10
-69.4253
 20
-104.4769
 30
0.0
 10
-69.4253
 20
-104.4769
 30
0.0
 10
-65.5606
 20
-104.4769
 30
0.0
 10
-62.3521
 20
-107.2927
 30
0.0
 10
-61.7404
 20
-110.9845
 30
0.0
 10
-61.7404
 20
-110.9845
 30
0.0
 10
-61.7404
 20
-110.9845
 30
0.0
 10
-77.1103
 20
-110.9845
 30
0.0
 10
-77.1103
 20
-110.9845
 30
0.0
  0
SPLINE
  5
100
330
1F
100
AcDbEntity
  8
layer 1
 62
     7
100
AcDbSpline
210
0.0
220
0.0
230
1.0
 70
    11
 71
     3
 72
    16
 73
    12
 74
     0
 42
0.0000000001
 43
0.0000000001
 12
1.0
 22
0.0
 32
0.0
 13
1.0
 23
0.0
 33
0.0
 40
0.0
 40
0.0
 40
0.0
 40
0.0
 40
0.25
 40
0.25
 40
0.25
 40
0.25
 40
0.5
 40
0.5
 40
0.5
 40
0.5
 40
1.0
 40
1.0
 40
1.0
 40
1.0
 10
-58.1064
 20
124.9099
 30
0.0
 10
-61.7982
 20
124.2982
 30
0.0
 10
-64.614
 20
121.0896
 30
0.0
 10
-64.614
 20
117.225
 30
0.0
 10
-64.614
 20
117.225
 30
0.0
 10
-64.614
 20
113.3603
 30
0.0
 10
-61.7982
 20
110.1517
 30
0.0
 10
-58.1064
 20
109.54
 30
0.0
 10
-58.1064
 20
109.54
 30
0.0
 10
-58.1064
 20
109.54
 30
0.0
 10
-58.1064
 20
124.9099
 30
0.0
 10
-58.1064
 20
124.9099
 30
0.0
  0
SPLINE
  5
101
330
1F
100
AcDbEntity
  8
layer 1
 62
     7
100
AcDbSpline
210
0.0
220
0.0
230
1.0
 70
    11
 71
     3
 72
    16
 73
    12
 74
     0
 42
0.0000000001
 43
0.0000000001
 12
1.0
 22
0.0
 32
0.0
 13
1.0
 23
0.0
 33
0.0
 40
0.0
 40
0.0
 40
0.0
 40
0.0
 40
0.25
 40
0.25
 40
0.25
 40
0.25
 40
0.5
 40
0.5
 40
0.5
 40
0.5
 40
1.0
 40
1.0
 40
1.0
 40
1.0
 10
-58.1064
 20
100.7517
 30
0.0
 10
-61.7982
 20
100.14
 30
0.0
 10
-64.614
 20
96.9314
 30
0.0
 10
-64.614
 20
93.0668
 30
0.0
 10
-64.614
 20
93.0668
 30
0.0
 10
-64.614
 20
89.2021
 30
0.0
 10
-61.7982
 20
85.9936
 30
0.0
 10
-58.1064
 20
85.3818
 30
0.0
 10
-58.1064
 20
85.3818
 30
0.0
 10
-58.1064
 20
85.3818
 30
0.0
 10
-58.1064
 20
100.7517
 30
0.0
 10
-58.1064
 20
100.7517
 30
0.0
  0
SPLINE
  5
102
330
1F
100
AcDbEntity
  8
layer 1
 62
     7
100
AcDbSpline
210
0.0
220
0.0
230
1.0
 70
    11
 71
     3
 72
    16
 73
    12
 74
     0
 42
0.0000000001
 43
0.0000000001
 12
1.0
 22
0.0
 32
0.0
 13
1.0
 23
0.0
 33
0.0
 40
0.0
 40
0.0
 40
0.0
 40
0.0
 40
0.25
 40
0.25
 40
0.25
 40
0.25
 40
0.5
 40
0.5
 40
0.5
 40
0.5
 40
1.0
 40
1.0
 40
1.0
 40
1.0
 10
-58.1064
 20
76.5936
 30
0.0
 10
-61.7982
 20
75.9818
 30
0.0
 10
-64.614
 20
72.7733
 30
0.0
 10
-64.614
 20
68.9086
 30
0.0
 10
-64.614
 20
68.9086
 30
0.0
 10
-64.614
 20
65.0439
 30
0.0
 10
-61.7982
 20
61.8354
 30
0.0
 10
-58.1064
 20
61.2236
 30
0.0
 10
-58.1064
 20
61.2236
 30
0.0
 10
-58.1064
 20
61.2236
 30
0.0
 10
-58.1064
 20
76.5936
 30
0.0
 10
-58.1064
 20
76.5936
 30
0.0
  0
SPLINE
  5
103
330
1F
100
AcDbEntity
  8
layer 1
 62
     7
100
AcDbSpline
210
0.0
220
0.0
230
1.0
 70
    11
 71
     3
 72
    16
 73
    12
 74
     0
 42
0.0000000001
 43
0.0000000001
 12
1.0
 22
0.0
 32
0.0
 13
1.0
 23
0.0
 33
0.0
 40
0.0
 40
0.0
 40
0.0
 40
0.0
 40
0.25
 40
0.25
 40
0.25
 40
0.25
 40
0.5
 40
0.5
 40
0.5
 40
0.5
 40
1.0
 40
1.0
 40
1.0
 40
1.0
 10
-58.1064
 20
52.4354
 30
0.0
 10
-61.7982
 20
51.8236
 30
0.0
 10
-64.614
 20
48.6151
 30
0.0
 10
-64.614
 20
44.7504
 30
0.0
 10
-64.614
 20
44.7504
 30
0.0
 10
-64.614
 20
40.8858
 30
0.0
 10
-61.7982
 20
37.6772
 30
0.0
 10
-58.1064
 20
37.0655
 30
0.0
 10
-58.1064
 20
37.0655
 30
0.0
 10
-58.1064
 20
37.0655
 30
0.0
 10
-58.1064
 20
52.4354
 30
0.0
 10
-58.1064
 20
52.4354
 30
0.0
  0
SPLINE
  5
104
330
1F
100
AcDbEntity
  8
layer 1
 62
     7
100
AcDbSpline
210
0.0
220
0.0
230
1.0
 70
    11
 71
     3
 72
    16
 73
    12
 74
     0
 42
0.0000000001
 43
0.0000000001
 12
1.0
 22
0.0
 32
0.0
 13
1.0
 23
0.0
 33
0.0
 40
0.0
 40
0.0
 40
0.0
 40
0.0
 40
0.25
 40
0.25
 40
0.25
 40
0.25
 40
0.5
 40
0.5
 40
0.5
 40
0.5
 40
1.0
 40
1.0
 40
1.0
 40
1.0
 10
-58.1064
 20
28.2772
 30
0.0
 10
-61.7982
 20
27.6655
 30
0.0
 10
-64.614
 20
24.4569
 30
0.0
 10
-64.614
 20
20.5922
 30
0.0
 10
-64.614
 20
20.5922
 30
0.0
 10
-64.614
 20
16.7276
 30
0.0
 10
-61.7982
 20
13.519
 30
0.0
 10
-58.1064
 20
12.9073
 30
0.0
 10
-58.1064
 20
12.9073
 30
0.0
 10
-58.1064
 20
12.9073
 30
0.0
 10
-58.1064
 20
28.2772
 30
0.0
 10
-58.1064
 20
28.2772
 30
0.0
  0
SPLINE
  5
105
330
1F
100
AcDbEntity
  8
layer 1
 62
     7
100
AcDbSpline
210
0.0
220
0.0
230
1.0
 70
    11
 71
     3
 72
    16
 73
    12
 74
     0
 42
0.0000000001
 43
0.0000000001
 12
1.0
 22
0.0
 32
0.0
 13
1.0
 23
0.0
 33
0.0
 40
0.0
 40
0.0
 40
0.0
 40
0.0
 40
0.25
 40
0.25
 40
0.25
 40
0.25
 40
0.5
 40
0.5
 40
0.5
 40
0.5
 40
1.0
 40
1.0
 40
1.0
 40
1.0
 10
-58.1064
 20
4.119
 30
0.0
 10
-61.7982
 20
3.5073
 30
0.0
 10
-64.614
 20
0.2987
 30
0.0
 10
-64.614
 20
-3.5659
 30
0.0
 10
-64.614
 20
-3.5659
 30
0.0
 10
-64.614
 20
-7.4306
 30
0.0
 10
-61.7982
 20
-10.6392
 30
0.0
 10
-58.1064
 20
-11.2509
 30
0.0
 10
-58.1064
 20
-11.2509
 30
0.0
 10
-58.1064
 20
-11.2509
 30
0.0
 10
-58.1064
 20
4.119
 30
0.0
 10
-58.1064
 20
4.119
 30
0.0
  0
SPLINE
  5
106
330
1F
100
AcDbEntity
  8
layer 1
 62
     7
100
AcDbSpline
210
0.0
220
0.0
230
1.0
 70
    11
 71
     3
 72
    16
 73
    12
 74
     0
 42
0.0000000001
 43
0.0000000001
 12
1.0
 22
0.0
 32
0.0
 13
1.0
 23
0.0
 33
0.0
 40
0.0
 40
0.0
 40
0.0
 40
0.0
 40
0.25
 40
0.25
 40
0.25
 40
0.25
 40
0.5
 40
0.5
 40
0.5
 40
0.5
 40
1.0
 40
1.0
 40
1.0
 40
1.0
 10
-58.1064
 20
-20.0392
 30
0.0
 10
-61.7982
 20
-20.6509
 30
0.0
 10
-64.614
 20
-23.8594
 30
0.0
 10
-64.614
 20
-27.7241
 30
0.0
 10
-64.614
 20
-27.7241
 30
0.0
 10
-64.614
 20
-31.5888
 30
0.0
 10
-61.7982
 20
-34.7973
 30
0.0
 10
-58.1064
 20
-35.4091
 30
0.0
 10
-58.1064
 20
-35.4091
 30
0.0
 10
-58.1064
 20
-35.4091
 30
0.0
 10
-58.1064
 20
-20.0392
 30
0.0
 10
-58.1064
 20
-20.0392
 30
0.0
  0
SPLINE
  5
107
330
1F
100
AcDbEntity
  8
layer 1
 62
     7
100
AcDbSpline
210
0.0
220
0.0
230
1.0
 70
    11
 71
     3
 72
    16
 73
    12
 74
     0
 42
0.0000000001
 43
0.0000000001
 12
1.0
 22
0.0
 32
0.0
 13
1.0
 23
0.0
 33
0.0
 40
0.0
 40
0.0
 40
0.0
 40
0.0
 40
0.25
 40
0.25
 40
0.25
 40
0.25
 40
0.5
 40
0.5
 40
0.5
 40
0.5
 40
1.0
 40
1.0
 40
1.0
 40
1.0
 10
-58.1064
 20
-44.1973
 30
0.0
 10
-61.7982
 20
-44.8091
 30
0.0
 10
-64.614
 20
-48.0176
 30
0.0
 10
-64.614
 20
-51.8823
 30
0.0
 10
-64.614
 20
-51.8823
 30
0.0
 10
-64.614
 20
-55.747
 30
0.0
 10
-61.7982
 20
-58.9555
 30
0.0
 10
-58.1064
 20
-59.5672
 30
0.0
 10
-58.1064
 20
-59.5672
 30
0.0
 10
-58.1064
 20
-59.5672
 30
0.0
 10
-58.1064
 20
-44.1973
 30
0.0
 10
-58.1064
 20
-44.1973
 30
0.0
  0
SPLINE
  5
108
330
1F
100
AcDbEntity
  8
layer 1
 62
     7
100
AcDbSpline
210
0.0
220
0.0
230
1.0
 70
    11
 71
     3
 72
    16
 73
    12
 74
     0
 42
0.0000000001
 43
0.0000000001
 12
1.0
 22
0.0
 32
0.0
 13
1.0
 23
0.0
 33
0.0
 40
0.0
 40
0.0
 40
0.0
 40
0.0
 40
0.25
 40
0.25
 40
0.25
 40
0.25
 40
0.5
 40
0.5
 40
0.5
 40
0.5
 40
1.0
 40
1.0
 40
1.0
 40
1.0
 10
-58.1064
 20
-68.3555
 30
0.0
 10
-61.7982
 20
-68.9672
 30
0.0
 10
-64.614
 20
-72.1758
 30
0.0
 10
-64.614
 20
-76.0405
 30
0.0
 10
-64.614
 20
-76.0405
 30
0.0
 10
-64.614
 20
-79.9051
 30
0.0
 10
-61.7982
 20
-83.1137
 30
0.0
 10
-58.1064
 20
-83.7254
 30
0.0
 10
-58.1064
 20
-83.7254
 30
0.0
 10
-58.1064
 20
-83.7254
 30
0.0
 10
-58.1064
 20
-68.3555
 30
0.0
 10
-58.1064
 20
-68.3555
 30
0.0
  0
SPLINE
  5
109
330
1F
100
AcDbEntity
  8
layer 1
 62
     7
100
AcDbSpline
210
0.0
220
0.0
230
1.0
 70
    11
 71
     3
 72
    16
 73
    12
 74
     0
 42
0.0000000001
 43
0.0000000001
 12
1.0
 22
0.0
 32
0.0
 13
1.0
 23
0.0
 33
0.0
 40
0.0
 40
0.0
 40
0.0
 40
0.0
 40
0.25
 40
0.25
 40
0.25
 40
0.25
 40
0.5
 40
0.5
 40
0.5
 40
0.5
 40
1.0
 40
1.0
 40
1.0
 40
1.0
 10
-58.1064
 20
-92.5137
 30
0.0
 10
-61.7982
 20
-93.1254
 30
0.0
 10
-64.614
 20
-96.334
 30
0.0
 10
-64.614
 20
-100.1986
 30
0.0
 10
-64.614
 20
-100.1986
 30
0.0
 10
-64.614
 20
-104.0633
 30
0.0
 10
-61.7982
 20
-107.2719
 30
0.0
 10
-58.1064
 20
-107.8836
 30
0.0
 10
-58.1064
 20
-107.8836
 30
0.0
 10
-58.1064
 20
-107.8836
 30
0.0
 10
-58.1064
 20
-92.5137
 30
0.0
 10
-58.1064
 20
-92.5137
 30
0.0
  0
ENDSEC
  0
SECTION
  2
OBJECTS
  0
DICTIONARY
  5
C
330
0
100
AcDbDictionary
281
     1
  3
ACAD_GROUP
350
D
  3
ACAD_LAYOUT
350
1A
  3
ACAD_MATERIAL
350
3B
  3
ACAD_MLEADERSTYLE
350
12B
  3
ACAD_MLINESTYLE
350
17
  3
ACAD_PLOTSETTINGS
350
19
  3
ACAD_PLOTSTYLENAME
350
E
  3
ACAD_TABLESTYLE
350
12A
  3
ACAD_VISUALSTYLE
350
2A
  0
DICTIONARY
  5
D
102
{ACAD_REACTORS
330
C
102
}
330
C
100
AcDbDictionary
281
     1
  0
DICTIONARY
  5
1A
102
{ACAD_REACTORS
330
C
102
}
330
C
100
AcDbDictionary
281
     1
  3
Layout1
350
1E
  3
Layout2
350
26
  3
Model
350
22
  0
DICTIONARY
  5
3B
102
{ACAD_REACTORS
330
C
102
}
330
C
100
AcDbDictionary
281
     1
  3
ByBlock
350
3D
  3
ByLayer
350
3C
  3
Global
350
3E
  0
DICTIONARY
  5
12B
102
{ACAD_REACTORS
330
C
102
}
330
C
100
AcDbDictionary
281
     1
  0
DICTIONARY
  5
17
102
{ACAD_REACTORS
330
C
102
}
330
C
100
AcDbDictionary
281
     1
  3
Standard
350
18
  0
DICTIONARY
  5
19
102
{ACAD_REACTORS
330
C
102
}
330
C
100
AcDbDictionary
281
     1
  0
ACDBDICTIONARYWDFLT
  5
E
102
{ACAD_REACTORS
330
C
102
}
330
C
100
AcDbDictionary
281
     1
  3
Normal
350
F
100
AcDbDictionaryWithDefault
340
F
  0
DICTIONARY
  5
12A
102
{ACAD_REACTORS
330
C
102
}
330
C
100
AcDbDictionary
281
     1
  0
DICTIONARY
  5
2A
102
{ACAD_REACTORS
330
C
102
}
330
C
100
AcDbDictionary
281
     1
  3
2dWireframe
350
2F
  3
3D Hidden
350
31
  3
3dWireframe
350
30
  3
Basic
350
32
  3
Brighten
350
36
  3
ColorChange
350
3A
  3
Conceptual
350
34
  3
Dim
350
35
  3
Facepattern
350
39
  3
Flat
350
2B
  3
FlatWithEdges
350
2C
  3
Gouraud
350
2D
  3
GouraudWithEdges
350
2E
  3
Linepattern
350
38
  3
Realistic
350
33
  3
Thicken
350
37
  0
LAYOUT
  5
1E
102
{ACAD_REACTORS
330
1A
102
}
330
1A
100
AcDbPlotSettings
  1

  2
none_device
  4

  6

 40
0.0
 41
0.0
 42
0.0
 43
0.0
 44
0.0
 45
0.0
 46
0.0
 47
0.0
 48
0.0
 49
0.0
140
0.0
141
0.0
142
1.0
143
1.0
 70
   688
 72
     0
 73
     0
 74
     5
  7

 75
    16
 76
     0
 77
     2
 78
   300
147
1.0
148
0.0
149
0.0
100
AcDbLayout
  1
Layout1
 70
     1
 71
     1
 10
0.0
 20
0.0
 11
12.0
 21
9.0
 12
0.0
 22
0.0
 32
0.0
 14
1.000000000000000E+20
 24
1.000000000000000E+20
 34
1.000000000000000E+20
 15
-1.000000000000000E+20
 25
-1.000000000000000E+20
 35
-1.000000000000000E+20
146
0.0
 13
0.0
 23
0.0
 33
0.0
 16
1.0
 26
0.0
 36
0.0
 17
0.0
 27
1.0
 37
0.0
 76
     0
330
1B
  0
LAYOUT
  5
26
102
{ACAD_REACTORS
330
1A
102
}
330
1A
100
AcDbPlotSettings
  1

  2
none_device
  4

  6

 40
0.0
 41
0.0
 42
0.0
 43
0.0
 44
0.0
 45
0.0
 46
0.0
 47
0.0
 48
0.0
 49
0.0
140
0.0
141
0.0
142
1.0
143
1.0
 70
   688
 72
     0
 73
     0
 74
     5
  7

 75
    16
 76
     0
 77
     2
 78
   300
147
1.0
148
0.0
149
0.0
100
AcDbLayout
  1
Layout2
 70
     1
 71
     2
 10
0.0
 20
0.0
 11
0.0
 21
0.0
 12
0.0
 22
0.0
 32
0.0
 14
0.0
 24
0.0
 34
0.0
 15
0.0
 25
0.0
 35
0.0
146
0.0
 13
0.0
 23
0.0
 33
0.0
 16
1.0
 26
0.0
 36
0.0
 17
0.0
 27
1.0
 37
0.0
 76
     0
330
23
  0
LAYOUT
  5
22
102
{ACAD_REACTORS
330
1A
102
}
330
1A
100
AcDbPlotSettings
  1

  2
none_device
  4

  6

 40
0.0
 41
0.0
 42
0.0
 43
0.0
 44
0.0
 45
0.0
 46
0.0
 47
0.0
 48
0.0
 49
0.0
140
0.0
141
0.0
142
1.0
143
1.0
 70
  1712
 72
     0
 73
     0
 74
     0
  7

 75
     0
 76
     0
 77
     2
 78
   300
147
1.0
148
0.0
149
0.0
100
AcDbLayout
  1
Model
 70
     1
 71
     0
 10
0.0
 20
0.0
 11
12.0
 21
9.0
 12
0.0
 22
0.0
 32
0.0
 14
-187.4042
 24
-114.9907
 34
0.0
 15
-53.8887
 25
131.7988
 35
0.0
146
0.0
 13
0.0
 23
0.0
 33
0.0
 16
1.0
 26
0.0
 36
0.0
 17
0.0
 27
1.0
 37
0.0
 76
     0
330
1F
331
29
  0
MATERIAL
  5
3D
102
{ACAD_REACTORS
330
3B
102
}
330
3B
100
AcDbMaterial
  1
ByBlock
 72
     1
 94
      127
  0
MATERIAL
  5
3C
102
{ACAD_REACTORS
330
3B
102
}
330
3B
100
AcDbMaterial
  1
ByLayer
 72
     1
 94
      127
  0
MATERIAL
  5
3E
102
{ACAD_REACTORS
330
3B
102
}
330
3B
100
AcDbMaterial
  1
Global
 72
     1
 94
      127
  0
MLINESTYLE
  5
18
102
{ACAD_REACTORS
330
17
102
}
330
17
100
AcDbMlineStyle
  2
Standard
 70
     0
  3

 62
   256
 51
90.0
 52
90.0
 71
     2
 49
0.5
 62
   256
  6
BYLAYER
 49
-0.5
 62
   256
  6
BYLAYER
  0
ACDBPLACEHOLDER
  5
F
102
{ACAD_REACTORS
330
E
102
}
330
E
  0
VISUALSTYLE
  5
2F
102
{ACAD_REACTORS
330
2A
102
}
102
{ACAD_XDICTIONARY
360
112
102
}
330
2A
100
AcDbVisualStyle
  2
2dWireframe
 70
     4
 71
     0
 72
     2
 73
     0
 90
        0
 40
-0.6
 41
-30.0
 62
     5
 63
     7
421
 16777215
 74
     1
 91
        4
 64
     7
 65
   257
 75
     1
175
     1
 42
1.0
 92
        0
 66
   257
 43
1.0
 76
     1
 77
     6
 78
     2
 67
     7
 79
     5
170
     0
171
     0
290
     0
174
     0
 93
        1
 44
0.0
173
     0
291
     0
 45
0.0
  0
VISUALSTYLE
  5
31
102
{ACAD_REACTORS
330
2A
102
}
102
{ACAD_XDICTIONARY
360
116
102
}
330
2A
100
AcDbVisualStyle
  2
3D Hidden
 70
     6
 71
     1
 72
     2
 73
     2
 90
        0
 40
-0.6
 41
-30.0
 62
     5
 63
     7
421
 16777215
 74
     2
 91
        2
 64
     7
 65
   257
 75
     2
175
     1
 42
40.0
 92
        0
 66
   257
 43
1.0
 76
     1
 77
     6
 78
     2
 67
     7
 79
     3
170
     0
171
     0
290
     0
174
     0
 93
        1
 44
0.0
173
     0
291
     0
 45
0.0
  0
VISUALSTYLE
  5
30
102
{ACAD_REACTORS
330
2A
102
}
102
{ACAD_XDICTIONARY
360
114
102
}
330
2A
100
AcDbVisualStyle
  2
3dWireframe
 70
     5
 71
     0
 72
     2
 73
     0
 90
        0
 40
-0.6
 41
-30.0
 62
     5
 63
     7
421
 16777215
 74
     1
 91
        4
 64
     7
 65
   257
 75
     1
175
     1
 42
1.0
 92
        0
 66
   257
 43
1.0
 76
     1
 77
     6
 78
     2
 67
     7
 79
     5
170
     0
171
     0
290
     0
174
     0
 93
        1
 44
0.0
173
     0
291
     0
 45
0.0
  0
VISUALSTYLE
  5
32
102
{ACAD_REACTORS
330
2A
102
}
102
{ACAD_XDICTIONARY
360
118
102
}
330
2A
100
AcDbVisualStyle
  2
Basic
 70
     7
 71
     1
 72
     0
 73
     1
 90
        0
 40
-0.6
 41
-30.0
 62
     5
 63
     7
421
 16777215
 74
     0
 91
        4
 64
     7
 65
   257
 75
     1
175
     1
 42
1.0
 92
        8
 66
     7
 43
1.0
 76
     1
 77
     6
 78
     2
 67
     7
 79
     5
170
     0
171
     0
290
     0
174
     0
 93
        1
 44
0.0
173
     0
291
     1
 45
0.0
  0
VISUALSTYLE
  5
36
102
{ACAD_REACTORS
330
2A
102
}
102
{ACAD_XDICTIONARY
360
120
102
}
330
2A
100
AcDbVisualStyle
  2
Brighten
 70
    12
 71
     2
 72
     2
 73
     0
 90
        0
 40
-0.6
 41
-30.0
 62
     5
 63
     7
421
 16777215
 74
     1
 91
        4
 64
     7
 65
   257
 75
     1
175
     1
 42
1.0
 92
        8
 66
     7
 43
1.0
 76
     1
 77
     6
 78
     2
 67
     7
 79
     5
170
     0
171
     0
290
     0
174
     0
 93
        1
 44
50.0
173
     0
291
     1
 45
0.0
  0
VISUALSTYLE
  5
3A
102
{ACAD_REACTORS
330
2A
102
}
102
{ACAD_XDICTIONARY
360
128
102
}
330
2A
100
AcDbVisualStyle
  2
ColorChange
 70
    16
 71
     2
 72
     2
 73
     3
 90
        0
 40
-0.6
 41
-30.0
 62
     5
 63
     8
421
  8421504
 74
     1
 91
        4
 64
     7
 65
   257
 75
     1
175
     1
 42
1.0
 92
        8
 66
     8
424
  8421504
 43
1.0
 76
     1
 77
     6
 78
     2
 67
     7
 79
     5
170
     0
171
     0
290
     0
174
     0
 93
        1
 44
0.0
173
     0
291
     1
 45
0.0
  0
VISUALSTYLE
  5
34
102
{ACAD_REACTORS
330
2A
102
}
102
{ACAD_XDICTIONARY
360
11C
102
}
330
2A
100
AcDbVisualStyle
  2
Conceptual
 70
     9
 71
     3
 72
     2
 73
     0
 90
        0
 40
-0.6
 41
-30.0
 62
     5
 63
     7
421
 16777215
 74
     2
 91
        2
 64
     7
 65
   257
 75
     1
175
     1
 42
40.0
 92
        8
 66
     7
 43
1.0
 76
     1
 77
     6
 78
     2
 67
     7
 79
     3
170
     0
171
     0
290
     0
174
     0
 93
        1
 44
0.0
173
     0
291
     0
 45
0.0
  0
VISUALSTYLE
  5
35
102
{ACAD_REACTORS
330
2A
102
}
102
{ACAD_XDICTIONARY
360
11E
102
}
330
2A
100
AcDbVisualStyle
  2
Dim
 70
    11
 71
     2
 72
     2
 73
     0
 90
        0
 40
-0.6
 41
-30.0
 62
     5
 63
     7
421
 16777215
 74
     1
 91
        4
 64
     7
 65
   257
 75
     1
175
     1
 42
1.0
 92
        8
 66
     7
 43
1.0
 76
     1
 77
     6
 78
     2
 67
     7
 79
     5
170
     0
171
     0
290
     0
174
     0
 93
        1
 44
-50.0
173
     0
291
     1
 45
0.0
  0
VISUALSTYLE
  5
39
102
{ACAD_REACTORS
330
2A
102
}
102
{ACAD_XDICTIONARY
360
126
102
}
330
2A
100
AcDbVisualStyle
  2
Facepattern
 70
    15
 71
     2
 72
     2
 73
     0
 90
        0
 40
-0.6
 41
-30.0
 62
     5
 63
     7
421
 16777215
 74
     1
 91
        4
 64
     7
 65
   257
 75
     1
175
     1
 42
1.0
 92
        8
 66
     7
 43
1.0
 76
     1
 77
     6
 78
     2
 67
     7
 79
     5
170
     0
171
     0
290
     0
174
     0
 93
        1
 44
0.0
173
     0
291
     1
 45
0.0
  0
VISUALSTYLE
  5
2B
102
{ACAD_REACTORS
330
2A
102
}
102
{ACAD_XDICTIONARY
360
10A
102
}
330
2A
100
AcDbVisualStyle
  2
Flat
 70
     0
 71
     2
 72
     1
 73
     1
 90
        2
 40
-0.6
 41
30.0
 62
     5
 63
     7
421
 16777215
 74
     0
 91
        4
 64
     7
 65
   257
 75
     1
175
     1
 42
1.0
 92
        8
 66
     7
 43
1.0
 76
     1
 77
     6
 78
     2
 67
     7
 79
     5
170
     0
171
     0
290
     0
174
     0
 93
       13
 44
0.0
173
     0
291
     1
 45
0.0
  0
VISUALSTYLE
  5
2C
102
{ACAD_REACTORS
330
2A
102
}
102
{ACAD_XDICTIONARY
360
10C
102
}
330
2A
100
AcDbVisualStyle
  2
FlatWithEdges
 70
     1
 71
     2
 72
     1
 73
     1
 90
        2
 40
-0.6
 41
30.0
 62
     5
 63
     7
421
 16777215
 74
     1
 91
        4
 64
     7
 65
   257
 75
     1
175
     1
 42
1.0
 92
        0
 66
   257
 43
1.0
 76
     1
 77
     6
 78
     2
 67
     7
 79
     5
170
     0
171
     0
290
     0
174
     0
 93
       13
 44
0.0
173
     0
291
     1
 45
0.0
  0
VISUALSTYLE
  5
2D
102
{ACAD_REACTORS
330
2A
102
}
102
{ACAD_XDICTIONARY
360
10E
102
}
330
2A
100
AcDbVisualStyle
  2
Gouraud
 70
     2
 71
     2
 72
     2
 73
     1
 90
        2
 40
-0.6
 41
30.0
 62
     5
 63
     7
421
 16777215
 74
     0
 91
        4
 64
     7
 65
   257
 75
     1
175
     1
 42
1.0
 92
        0
 66
     7
 43
1.0
 76
     1
 77
     6
 78
     2
 67
     7
 79
     5
170
     0
171
     0
290
     0
174
     0
 93
       13
 44
0.0
173
     0
291
     1
 45
0.0
  0
VISUALSTYLE
  5
2E
102
{ACAD_REACTORS
330
2A
102
}
102
{ACAD_XDICTIONARY
360
110
102
}
330
2A
100
AcDbVisualStyle
  2
GouraudWithEdges
 70
     3
 71
     2
 72
     2
 73
     1
 90
        2
 40
-0.6
 41
30.0
 62
     5
 63
     7
421
 16777215
 74
     1
 91
        4
 64
     7
 65
   257
 75
     1
175
     1
 42
1.0
 92
        0
 66
   257
 43
1.0
 76
     1
 77
     6
 78
     2
 67
     7
 79
     5
170
     0
171
     0
290
     0
174
     0
 93
       13
 44
0.0
173
     0
291
     1
 45
0.0
  0
VISUALSTYLE
  5
38
102
{ACAD_REACTORS
330
2A
102
}
102
{ACAD_XDICTIONARY
360
124
102
}
330
2A
100
AcDbVisualStyle
  2
Linepattern
 70
    14
 71
     2
 72
     2
 73
     0
 90
        0
 40
-0.6
 41
-30.0
 62
     5
 63
     7
421
 16777215
 74
     1
 91
        4
 64
     7
 65
   257
 75
     7
175
     7
 42
1.0
 92
        8
 66
     7
 43
1.0
 76
     1
 77
     6
 78
     2
 67
     7
 79
     5
170
     0
171
     0
290
     0
174
     0
 93
        1
 44
0.0
173
     0
291
     1
 45
0.0
  0
VISUALSTYLE
  5
33
102
{ACAD_REACTORS
330
2A
102
}
102
{ACAD_XDICTIONARY
360
11A
102
}
330
2A
100
AcDbVisualStyle
  2
Realistic
 70
     8
 71
     2
 72
     2
 73
     0
 90
        0
 40
-0.6
 41
-30.0
 62
     5
 63
     7
421
 16777215
 74
     1
 91
        0
 64
     7
 65
   257
 75
     1
175
     1
 42
1.0
 92
        8
 66
     8
424
  7895160
 43
1.0
 76
     1
 77
     6
 78
     2
 67
     7
 79
     5
170
     0
171
     0
290
     0
174
     0
 93
       13
 44
0.0
173
     0
291
     0
 45
0.0
  0
VISUALSTYLE
  5
37
102
{ACAD_REACTORS
330
2A
102
}
102
{ACAD_XDICTIONARY
360
122
102
}
330
2A
100
AcDbVisualStyle
  2
Thicken
 70
    13
 71
     2
 72
     2
 73
     0
 90
        0
 40
-0.6
 41
-30.0
 62
     5
 63
     7
421
 16777215
 74
     1
 91
        4
 64
     7
 65
   257
 75
     1
175
     1
 42
1.0
 92
       12
 66
     7
 43
1.0
 76
     1
 77
     6
 78
     2
 67
     7
 79
     5
170
     0
171
     0
290
     0
174
     0
 93
        1
 44
0.0
173
     0
291
     1
 45
0.0
  0
DICTIONARY
  5
112
330
2F
100
AcDbDictionary
280
     1
281
     1
  3
ACAD_XREC_ROUNDTRIP
360
113
  0
DICTIONARY
  5
116
330
31
100
AcDbDictionary
280
     1
281
     1
  3
ACAD_XREC_ROUNDTRIP
360
117
  0
DICTIONARY
  5
114
330
30
100
AcDbDictionary
280
     1
281
     1
  3
ACAD_XREC_ROUNDTRIP
360
115
  0
DICTIONARY
  5
118
330
32
100
AcDbDictionary
280
     1
281
     1
  3
ACAD_XREC_ROUNDTRIP
360
119
  0
DICTIONARY
  5
120
330
36
100
AcDbDictionary
280
     1
281
     1
  3
ACAD_XREC_ROUNDTRIP
360
121
  0
DICTIONARY
  5
128
330
3A
100
AcDbDictionary
280
     1
281
     1
  3
ACAD_XREC_ROUNDTRIP
360
129
  0
DICTIONARY
  5
11C
330
34
100
AcDbDictionary
280
     1
281
     1
  3
ACAD_XREC_ROUNDTRIP
360
11D
  0
DICTIONARY
  5
11E
330
35
100
AcDbDictionary
280
     1
281
     1
  3
ACAD_XREC_ROUNDTRIP
360
11F
  0
DICTIONARY
  5
126
330
39
100
AcDbDictionary
280
     1
281
     1
  3
ACAD_XREC_ROUNDTRIP
360
127
  0
DICTIONARY
  5
10A
330
2B
100
AcDbDictionary
280
     1
281
     1
  3
ACAD_XREC_ROUNDTRIP
360
10B
  0
DICTIONARY
  5
10C
330
2C
100
AcDbDictionary
280
     1
281
     1
  3
ACAD_XREC_ROUNDTRIP
360
10D
  0
DICTIONARY
  5
10E
330
2D
100
AcDbDictionary
280
     1
281
     1
  3
ACAD_XREC_ROUNDTRIP
360
10F
  0
DICTIONARY
  5
110
330
2E
100
AcDbDictionary
280
     1
281
     1
  3
ACAD_XREC_ROUNDTRIP
360
111
  0
DICTIONARY
  5
124
330
38
100
AcDbDictionary
280
     1
281
     1
  3
ACAD_XREC_ROUNDTRIP
360
125
  0
DICTIONARY
  5
11A
330
33
100
AcDbDictionary
280
     1
281
     1
  3
ACAD_XREC_ROUNDTRIP
360
11B
  0
DICTIONARY
  5
122
330
37
100
AcDbDictionary
280
     1
281
     1
  3
ACAD_XREC_ROUNDTRIP
360
123
  0
XRECORD
  5
113
102
{ACAD_REACTORS
330
112
102
}
330
112
100
AcDbXrecord
280
     1
102
RTVSPropertyOp0
 70
     1
102
RTVSPropertyOp1
 70
     1
102
RTVSPropertyOp2
 70
     1
102
RTVSPropertyOp3
 70
     1
102
RTVSPropertyOp4
 70
     1
102
RTVSPropertyOp5
 70
     1
102
RTVSPropertyOp6
 70
     1
102
RTVSPropertyOp7
 70
     1
102
RTVSPropertyOp8
 70
     1
102
RTVSPropertyOp9
 70
     1
102
RTVSPropertyOp10
 70
     1
102
RTVSPropertyOp11
 70
     1
102
RTVSPropertyOp12
 70
     1
102
RTVSPropertyOp13
 70
     1
102
RTVSPropertyOp14
 70
     1
102
RTVSPropertyOp15
 70
     1
102
RTVSPropertyOp16
 70
     1
102
RTVSPropertyOp17
 70
     1
102
RTVSPropertyOp18
 70
     1
102
RTVSPropertyOp19
 70
     1
102
RTVSPropertyOp20
 70
     1
102
RTVSPropertyOp21
 70
     1
102
RTVSPropertyOp22
 70
     1
102
RTVSPropertyOp23
 70
     1
102
RTVSPropertyOp24
 70
     1
102
RTVSPropertyOp25
 70
     1
102
RTVSPropertyOp26
 70
     1
102
RTVSPropertyOp27
 70
     1
102
RTVSPropertyOp28
 70
     1
102
RTVSPropertyOp29
 70
     1
102
RTVSPropertyOp30
 70
     1
102
RTVSPropertyOp31
 70
     1
102
RTVSPropertyOp32
 70
     1
  0
XRECORD
  5
117
102
{ACAD_REACTORS
330
116
102
}
330
116
100
AcDbXrecord
280
     1
102
RTVSPropertyOp0
 70
     1
102
RTVSPropertyOp1
 70
     1
102
RTVSPropertyOp2
 70
     1
102
RTVSPropertyOp3
 70
     1
102
RTVSPropertyOp4
 70
     1
102
RTVSPropertyOp5
 70
     1
102
RTVSPropertyOp6
 70
     1
102
RTVSPropertyOp7
 70
     1
102
RTVSPropertyOp8
 70
     1
102
RTVSPropertyOp9
 70
     1
102
RTVSPropertyOp10
 70
     1
102
RTVSPropertyOp11
 70
     1
102
RTVSPropertyOp12
 70
     1
102
RTVSPropertyOp13
 70
     1
102
RTVSPropertyOp14
 70
     1
102
RTVSPropertyOp15
 70
     1
102
RTVSPropertyOp16
 70
     1
102
RTVSPropertyOp17
 70
     1
102
RTVSPropertyOp18
 70
     1
102
RTVSPropertyOp19
 70
     1
102
RTVSPropertyOp20
 70
     1
102
RTVSPropertyOp21
 70
     1
102
RTVSPropertyOp22
 70
     1
102
RTVSPropertyOp23
 70
     1
102
RTVSPropertyOp24
 70
     1
102
RTVSPropertyOp25
 70
     1
102
RTVSPropertyOp26
 70
     1
102
RTVSPropertyOp27
 70
     1
102
RTVSPropertyOp28
 70
     1
102
RTVSPropertyOp29
 70
     1
102
RTVSPropertyOp30
 70
     1
102
RTVSPropertyOp31
 70
     1
102
RTVSPropertyOp32
 70
     1
  0
XRECORD
  5
115
102
{ACAD_REACTORS
330
114
102
}
330
114
100
AcDbXrecord
280
     1
102
RTVSPropertyOp0
 70
     1
102
RTVSPropertyOp1
 70
     1
102
RTVSPropertyOp2
 70
     1
102
RTVSPropertyOp3
 70
     1
102
RTVSPropertyOp4
 70
     1
102
RTVSPropertyOp5
 70
     1
102
RTVSPropertyOp6
 70
     1
102
RTVSPropertyOp7
 70
     1
102
RTVSPropertyOp8
 70
     1
102
RTVSPropertyOp9
 70
     1
102
RTVSPropertyOp10
 70
     1
102
RTVSPropertyOp11
 70
     1
102
RTVSPropertyOp12
 70
     1
102
RTVSPropertyOp13
 70
     1
102
RTVSPropertyOp14
 70
     1
102
RTVSPropertyOp15
 70
     1
102
RTVSPropertyOp16
 70
     1
102
RTVSPropertyOp17
 70
     1
102
RTVSPropertyOp18
 70
     1
102
RTVSPropertyOp19
 70
     1
102
RTVSPropertyOp20
 70
     1
102
RTVSPropertyOp21
 70
     1
102
RTVSPropertyOp22
 70
     1
102
RTVSPropertyOp23
 70
     1
102
RTVSPropertyOp24
 70
     1
102
RTVSPropertyOp25
 70
     1
102
RTVSPropertyOp26
 70
     1
102
RTVSPropertyOp27
 70
     1
102
RTVSPropertyOp28
 70
     1
102
RTVSPropertyOp29
 70
     1
102
RTVSPropertyOp30
 70
     1
102
RTVSPropertyOp31
 70
     1
102
RTVSPropertyOp32
 70
     1
  0
XRECORD
  5
119
102
{ACAD_REACTORS
330
118
102
}
330
118
100
AcDbXrecord
280
     1
102
RTVSPropertyOp0
 70
     1
102
RTVSPropertyOp1
 70
     1
102
RTVSPropertyOp2
 70
     1
102
RTVSPropertyOp3
 70
     1
102
RTVSPropertyOp4
 70
     1
102
RTVSPropertyOp5
 70
     1
102
RTVSPropertyOp6
 70
     1
102
RTVSPropertyOp7
 70
     1
102
RTVSPropertyOp8
 70
     1
102
RTVSPropertyOp9
 70
     1
102
RTVSPropertyOp10
 70
     1
102
RTVSPropertyOp11
 70
     1
102
RTVSPropertyOp12
 70
     1
102
RTVSPropertyOp13
 70
     1
102
RTVSPropertyOp14
 70
     1
102
RTVSPropertyOp15
 70
     1
102
RTVSPropertyOp16
 70
     1
102
RTVSPropertyOp17
 70
     1
102
RTVSPropertyOp18
 70
     1
102
RTVSPropertyOp19
 70
     1
102
RTVSPropertyOp20
 70
     1
102
RTVSPropertyOp21
 70
     1
102
RTVSPropertyOp22
 70
     1
102
RTVSPropertyOp23
 70
     1
102
RTVSPropertyOp24
 70
     1
102
RTVSPropertyOp25
 70
     1
102
RTVSPropertyOp26
 70
     1
102
RTVSPropertyOp27
 70
     1
102
RTVSPropertyOp28
 70
     1
102
RTVSPropertyOp29
 70
     1
102
RTVSPropertyOp30
 70
     1
102
RTVSPropertyOp31
 70
     1
102
RTVSPropertyOp32
 70
     1
  0
XRECORD
  5
121
102
{ACAD_REACTORS
330
120
102
}
330
120
100
AcDbXrecord
280
     1
102
RTVSPropertyOp0
 70
     1
102
RTVSPropertyOp1
 70
     1
102
RTVSPropertyOp2
 70
     1
102
RTVSPropertyOp3
 70
     1
102
RTVSPropertyOp4
 70
     1
102
RTVSPropertyOp5
 70
     1
102
RTVSPropertyOp6
 70
     1
102
RTVSPropertyOp7
 70
     1
102
RTVSPropertyOp8
 70
     1
102
RTVSPropertyOp9
 70
     1
102
RTVSPropertyOp10
 70
     1
102
RTVSPropertyOp11
 70
     1
102
RTVSPropertyOp12
 70
     1
102
RTVSPropertyOp13
 70
     1
102
RTVSPropertyOp14
 70
     1
102
RTVSPropertyOp15
 70
     1
102
RTVSPropertyOp16
 70
     1
102
RTVSPropertyOp17
 70
     1
102
RTVSPropertyOp18
 70
     1
102
RTVSPropertyOp19
 70
     1
102
RTVSPropertyOp20
 70
     1
102
RTVSPropertyOp21
 70
     1
102
RTVSPropertyOp22
 70
     1
102
RTVSPropertyOp23
 70
     1
102
RTVSPropertyOp24
 70
     1
102
RTVSPropertyOp25
 70
     1
102
RTVSPropertyOp26
 70
     1
102
RTVSPropertyOp27
 70
     1
102
RTVSPropertyOp28
 70
     1
102
RTVSPropertyOp29
 70
     1
102
RTVSPropertyOp30
 70
     1
102
RTVSPropertyOp31
 70
     1
102
RTVSPropertyOp32
 70
     1
  0
XRECORD
  5
129
102
{ACAD_REACTORS
330
128
102
}
330
128
100
AcDbXrecord
280
     1
102
RTVSPropertyOp0
 70
     1
102
RTVSPropertyOp1
 70
     1
102
RTVSPropertyOp2
 70
     1
102
RTVSPropertyOp3
 70
     1
102
RTVSPropertyOp4
 70
     1
102
RTVSPropertyOp5
 70
     1
102
RTVSPropertyOp6
 70
     1
102
RTVSPropertyOp7
 70
     1
102
RTVSPropertyOp8
 70
     1
102
RTVSPropertyOp9
 70
     1
102
RTVSPropertyOp10
 70
     1
102
RTVSPropertyOp11
 70
     1
102
RTVSPropertyOp12
 70
     1
102
RTVSPropertyOp13
 70
     1
102
RTVSPropertyOp14
 70
     1
102
RTVSPropertyOp15
 70
     1
102
RTVSPropertyOp16
 70
     1
102
RTVSPropertyOp17
 70
     1
102
RTVSPropertyOp18
 70
     1
102
RTVSPropertyOp19
 70
     1
102
RTVSPropertyOp20
 70
     1
102
RTVSPropertyOp21
 70
     1
102
RTVSPropertyOp22
 70
     1
102
RTVSPropertyOp23
 70
     1
102
RTVSPropertyOp24
 70
     1
102
RTVSPropertyOp25
 70
     1
102
RTVSPropertyOp26
 70
     1
102
RTVSPropertyOp27
 70
     1
102
RTVSPropertyOp28
 70
     1
102
RTVSPropertyOp29
 70
     1
102
RTVSPropertyOp30
 70
     1
102
RTVSPropertyOp31
 70
     1
102
RTVSPropertyOp32
 70
     1
  0
XRECORD
  5
11D
102
{ACAD_REACTORS
330
11C
102
}
330
11C
100
AcDbXrecord
280
     1
102
RTVSPropertyOp0
 70
     1
102
RTVSPropertyOp1
 70
     1
102
RTVSPropertyOp2
 70
     1
102
RTVSPropertyOp3
 70
     1
102
RTVSPropertyOp4
 70
     1
102
RTVSPropertyOp5
 70
     1
102
RTVSPropertyOp6
 70
     1
102
RTVSPropertyOp7
 70
     1
102
RTVSPropertyOp8
 70
     1
102
RTVSPropertyOp9
 70
     1
102
RTVSPropertyOp10
 70
     1
102
RTVSPropertyOp11
 70
     1
102
RTVSPropertyOp12
 70
     1
102
RTVSPropertyOp13
 70
     1
102
RTVSPropertyOp14
 70
     1
102
RTVSPropertyOp15
 70
     1
102
RTVSPropertyOp16
 70
     1
102
RTVSPropertyOp17
 70
     1
102
RTVSPropertyOp18
 70
     1
102
RTVSPropertyOp19
 70
     1
102
RTVSPropertyOp20
 70
     1
102
RTVSPropertyOp21
 70
     1
102
RTVSPropertyOp22
 70
     1
102
RTVSPropertyOp23
 70
     1
102
RTVSPropertyOp24
 70
     1
102
RTVSPropertyOp25
 70
     1
102
RTVSPropertyOp26
 70
     1
102
RTVSPropertyOp27
 70
     1
102
RTVSPropertyOp28
 70
     1
102
RTVSPropertyOp29
 70
     1
102
RTVSPropertyOp30
 70
     1
102
RTVSPropertyOp31
 70
     1
102
RTVSPropertyOp32
 70
     1
  0
XRECORD
  5
11F
102
{ACAD_REACTORS
330
11E
102
}
330
11E
100
AcDbXrecord
280
     1
102
RTVSPropertyOp0
 70
     1
102
RTVSPropertyOp1
 70
     1
102
RTVSPropertyOp2
 70
     1
102
RTVSPropertyOp3
 70
     1
102
RTVSPropertyOp4
 70
     1
102
RTVSPropertyOp5
 70
     1
102
RTVSPropertyOp6
 70
     1
102
RTVSPropertyOp7
 70
     1
102
RTVSPropertyOp8
 70
     1
102
RTVSPropertyOp9
 70
     1
102
RTVSPropertyOp10
 70
     1
102
RTVSPropertyOp11
 70
     1
102
RTVSPropertyOp12
 70
     1
102
RTVSPropertyOp13
 70
     1
102
RTVSPropertyOp14
 70
     1
102
RTVSPropertyOp15
 70
     1
102
RTVSPropertyOp16
 70
     1
102
RTVSPropertyOp17
 70
     1
102
RTVSPropertyOp18
 70
     1
102
RTVSPropertyOp19
 70
     1
102
RTVSPropertyOp20
 70
     1
102
RTVSPropertyOp21
 70
     1
102
RTVSPropertyOp22
 70
     1
102
RTVSPropertyOp23
 70
     1
102
RTVSPropertyOp24
 70
     1
102
RTVSPropertyOp25
 70
     1
102
RTVSPropertyOp26
 70
     1
102
RTVSPropertyOp27
 70
     1
102
RTVSPropertyOp28
 70
     1
102
RTVSPropertyOp29
 70
     1
102
RTVSPropertyOp30
 70
     1
102
RTVSPropertyOp31
 70
     1
102
RTVSPropertyOp32
 70
     1
  0
XRECORD
  5
127
102
{ACAD_REACTORS
330
126
102
}
330
126
100
AcDbXrecord
280
     1
102
RTVSPropertyOp0
 70
     1
102
RTVSPropertyOp1
 70
     1
102
RTVSPropertyOp2
 70
     1
102
RTVSPropertyOp3
 70
     1
102
RTVSPropertyOp4
 70
     1
102
RTVSPropertyOp5
 70
     1
102
RTVSPropertyOp6
 70
     1
102
RTVSPropertyOp7
 70
     1
102
RTVSPropertyOp8
 70
     1
102
RTVSPropertyOp9
 70
     1
102
RTVSPropertyOp10
 70
     1
102
RTVSPropertyOp11
 70
     1
102
RTVSPropertyOp12
 70
     1
102
RTVSPropertyOp13
 70
     1
102
RTVSPropertyOp14
 70
     1
102
RTVSPropertyOp15
 70
     1
102
RTVSPropertyOp16
 70
     1
102
RTVSPropertyOp17
 70
     1
102
RTVSPropertyOp18
 70
     1
102
RTVSPropertyOp19
 70
     1
102
RTVSPropertyOp20
 70
     1
102
RTVSPropertyOp21
 70
     1
102
RTVSPropertyOp22
 70
     1
102
RTVSPropertyOp23
 70
     1
102
RTVSPropertyOp24
 70
     1
102
RTVSPropertyOp25
 70
     1
102
RTVSPropertyOp26
 70
     1
102
RTVSPropertyOp27
 70
     1
102
RTVSPropertyOp28
 70
     1
102
RTVSPropertyOp29
 70
     1
102
RTVSPropertyOp30
 70
     1
102
RTVSPropertyOp31
 70
     1
102
RTVSPropertyOp32
 70
     1
  0
XRECORD
  5
10B
102
{ACAD_REACTORS
330
10A
102
}
330
10A
100
AcDbXrecord
280
     1
102
RTVSPropertyOp0
 70
     1
102
RTVSPropertyOp1
 70
     1
102
RTVSPropertyOp2
 70
     1
102
RTVSPropertyOp3
 70
     1
102
RTVSPropertyOp4
 70
     1
102
RTVSPropertyOp5
 70
     1
102
RTVSPropertyOp6
 70
     1
102
RTVSPropertyOp7
 70
     1
102
RTVSPropertyOp8
 70
     1
102
RTVSPropertyOp9
 70
     1
102
RTVSPropertyOp10
 70
     1
102
RTVSPropertyOp11
 70
     1
102
RTVSPropertyOp12
 70
     1
102
RTVSPropertyOp13
 70
     1
102
RTVSPropertyOp14
 70
     1
102
RTVSPropertyOp15
 70
     1
102
RTVSPropertyOp16
 70
     1
102
RTVSPropertyOp17
 70
     1
102
RTVSPropertyOp18
 70
     1
102
RTVSPropertyOp19
 70
     1
102
RTVSPropertyOp20
 70
     1
102
RTVSPropertyOp21
 70
     1
102
RTVSPropertyOp22
 70
     1
102
RTVSPropertyOp23
 70
     1
102
RTVSPropertyOp24
 70
     1
102
RTVSPropertyOp25
 70
     1
102
RTVSPropertyOp26
 70
     1
102
RTVSPropertyOp27
 70
     1
102
RTVSPropertyOp28
 70
     1
102
RTVSPropertyOp29
 70
     1
102
RTVSPropertyOp30
 70
     1
102
RTVSPropertyOp31
 70
     1
102
RTVSPropertyOp32
 70
     1
  0
XRECORD
  5
10D
102
{ACAD_REACTORS
330
10C
102
}
330
10C
100
AcDbXrecord
280
     1
102
RTVSPropertyOp0
 70
     1
102
RTVSPropertyOp1
 70
     1
102
RTVSPropertyOp2
 70
     1
102
RTVSPropertyOp3
 70
     1
102
RTVSPropertyOp4
 70
     1
102
RTVSPropertyOp5
 70
     1
102
RTVSPropertyOp6
 70
     1
102
RTVSPropertyOp7
 70
     1
102
RTVSPropertyOp8
 70
     1
102
RTVSPropertyOp9
 70
     1
102
RTVSPropertyOp10
 70
     1
102
RTVSPropertyOp11
 70
     1
102
RTVSPropertyOp12
 70
     1
102
RTVSPropertyOp13
 70
     1
102
RTVSPropertyOp14
 70
     1
102
RTVSPropertyOp15
 70
     1
102
RTVSPropertyOp16
 70
     1
102
RTVSPropertyOp17
 70
     1
102
RTVSPropertyOp18
 70
     1
102
RTVSPropertyOp19
 70
     1
102
RTVSPropertyOp20
 70
     1
102
RTVSPropertyOp21
 70
     1
102
RTVSPropertyOp22
 70
     1
102
RTVSPropertyOp23
 70
     1
102
RTVSPropertyOp24
 70
     1
102
RTVSPropertyOp25
 70
     1
102
RTVSPropertyOp26
 70
     1
102
RTVSPropertyOp27
 70
     1
102
RTVSPropertyOp28
 70
     1
102
RTVSPropertyOp29
 70
     1
102
RTVSPropertyOp30
 70
     1
102
RTVSPropertyOp31
 70
     1
102
RTVSPropertyOp32
 70
     1
  0
XRECORD
  5
10F
102
{ACAD_REACTORS
330
10E
102
}
330
10E
100
AcDbXrecord
280
     1
102
RTVSPropertyOp0
 70
     1
102
RTVSPropertyOp1
 70
     1
102
RTVSPropertyOp2
 70
     1
102
RTVSPropertyOp3
 70
     1
102
RTVSPropertyOp4
 70
     1
102
RTVSPropertyOp5
 70
     1
102
RTVSPropertyOp6
 70
     1
102
RTVSPropertyOp7
 70
     1
102
RTVSPropertyOp8
 70
     1
102
RTVSPropertyOp9
 70
     1
102
RTVSPropertyOp10
 70
     1
102
RTVSPropertyOp11
 70
     1
102
RTVSPropertyOp12
 70
     1
102
RTVSPropertyOp13
 70
     1
102
RTVSPropertyOp14
 70
     1
102
RTVSPropertyOp15
 70
     1
102
RTVSPropertyOp16
 70
     1
102
RTVSPropertyOp17
 70
     1
102
RTVSPropertyOp18
 70
     1
102
RTVSPropertyOp19
 70
     1
102
RTVSPropertyOp20
 70
     1
102
RTVSPropertyOp21
 70
     1
102
RTVSPropertyOp22
 70
     1
102
RTVSPropertyOp23
 70
     1
102
RTVSPropertyOp24
 70
     1
102
RTVSPropertyOp25
 70
     1
102
RTVSPropertyOp26
 70
     1
102
RTVSPropertyOp27
 70
     1
102
RTVSPropertyOp28
 70
     1
102
RTVSPropertyOp29
 70
     1
102
RTVSPropertyOp30
 70
     1
102
RTVSPropertyOp31
 70
     1
102
RTVSPropertyOp32
 70
     1
  0
XRECORD
  5
111
102
{ACAD_REACTORS
330
110
102
}
330
110
100
AcDbXrecord
280
     1
102
RTVSPropertyOp0
 70
     1
102
RTVSPropertyOp1
 70
     1
102
RTVSPropertyOp2
 70
     1
102
RTVSPropertyOp3
 70
     1
102
RTVSPropertyOp4
 70
     1
102
RTVSPropertyOp5
 70
     1
102
RTVSPropertyOp6
 70
     1
102
RTVSPropertyOp7
 70
     1
102
RTVSPropertyOp8
 70
     1
102
RTVSPropertyOp9
 70
     1
102
RTVSPropertyOp10
 70
     1
102
RTVSPropertyOp11
 70
     1
102
RTVSPropertyOp12
 70
     1
102
RTVSPropertyOp13
 70
     1
102
RTVSPropertyOp14
 70
     1
102
RTVSPropertyOp15
 70
     1
102
RTVSPropertyOp16
 70
     1
102
RTVSPropertyOp17
 70
     1
102
RTVSPropertyOp18
 70
     1
102
RTVSPropertyOp19
 70
     1
102
RTVSPropertyOp20
 70
     1
102
RTVSPropertyOp21
 70
     1
102
RTVSPropertyOp22
 70
     1
102
RTVSPropertyOp23
 70
     1
102
RTVSPropertyOp24
 70
     1
102
RTVSPropertyOp25
 70
     1
102
RTVSPropertyOp26
 70
     1
102
RTVSPropertyOp27
 70
     1
102
RTVSPropertyOp28
 70
     1
102
RTVSPropertyOp29
 70
     1
102
RTVSPropertyOp30
 70
     1
102
RTVSPropertyOp31
 70
     1
102
RTVSPropertyOp32
 70
     1
  0
XRECORD
  5
125
102
{ACAD_REACTORS
330
124
102
}
330
124
100
AcDbXrecord
280
     1
102
RTVSPropertyOp0
 70
     1
102
RTVSPropertyOp1
 70
     1
102
RTVSPropertyOp2
 70
     1
102
RTVSPropertyOp3
 70
     1
102
RTVSPropertyOp4
 70
     1
102
RTVSPropertyOp5
 70
     1
102
RTVSPropertyOp6
 70
     1
102
RTVSPropertyOp7
 70
     1
102
RTVSPropertyOp8
 70
     1
102
RTVSPropertyOp9
 70
     1
102
RTVSPropertyOp10
 70
     1
102
RTVSPropertyOp11
 70
     1
102
RTVSPropertyOp12
 70
     1
102
RTVSPropertyOp13
 70
     1
102
RTVSPropertyOp14
 70
     1
102
RTVSPropertyOp15
 70
     1
102
RTVSPropertyOp16
 70
     1
102
RTVSPropertyOp17
 70
     1
102
RTVSPropertyOp18
 70
     1
102
RTVSPropertyOp19
 70
     1
102
RTVSPropertyOp20
 70
     1
102
RTVSPropertyOp21
 70
     1
102
RTVSPropertyOp22
 70
     1
102
RTVSPropertyOp23
 70
     1
102
RTVSPropertyOp24
 70
     1
102
RTVSPropertyOp25
 70
     1
102
RTVSPropertyOp26
 70
     1
102
RTVSPropertyOp27
 70
     1
102
RTVSPropertyOp28
 70
     1
102
RTVSPropertyOp29
 70
     1
102
RTVSPropertyOp30
 70
     1
102
RTVSPropertyOp31
 70
     1
102
RTVSPropertyOp32
 70
     1
  0
XRECORD
  5
11B
102
{ACAD_REACTORS
330
11A
102
}
330
11A
100
AcDbXrecord
280
     1
102
RTVSPropertyOp0
 70
     1
102
RTVSPropertyOp1
 70
     1
102
RTVSPropertyOp2
 70
     1
102
RTVSPropertyOp3
 70
     1
102
RTVSPropertyOp4
 70
     1
102
RTVSPropertyOp5
 70
     1
102
RTVSPropertyOp6
 70
     1
102
RTVSPropertyOp7
 70
     1
102
RTVSPropertyOp8
 70
     1
102
RTVSPropertyOp9
 70
     1
102
RTVSPropertyOp10
 70
     1
102
RTVSPropertyOp11
 70
     1
102
RTVSPropertyOp12
 70
     1
102
RTVSPropertyOp13
 70
     1
102
RTVSPropertyOp14
 70
     1
102
RTVSPropertyOp15
 70
     1
102
RTVSPropertyOp16
 70
     1
102
RTVSPropertyOp17
 70
     1
102
RTVSPropertyOp18
 70
     1
102
RTVSPropertyOp19
 70
     1
102
RTVSPropertyOp20
 70
     1
102
RTVSPropertyOp21
 70
     1
102
RTVSPropertyOp22
 70
     1
102
RTVSPropertyOp23
 70
     1
102
RTVSPropertyOp24
 70
     1
102
RTVSPropertyOp25
 70
     1
102
RTVSPropertyOp26
 70
     1
102
RTVSPropertyOp27
 70
     1
102
RTVSPropertyOp28
 70
     1
102
RTVSPropertyOp29
 70
     1
102
RTVSPropertyOp30
 70
     1
102
RTVSPropertyOp31
 70
     1
102
RTVSPropertyOp32
 70
     1
  0
XRECORD
  5
123
102
{ACAD_REACTORS
330
122
102
}
330
122
100
AcDbXrecord
280
     1
102
RTVSPropertyOp0
 70
     1
102
RTVSPropertyOp1
 70
     1
102
RTVSPropertyOp2
 70
     1
102
RTVSPropertyOp3
 70
     1
102
RTVSPropertyOp4
 70
     1
102
RTVSPropertyOp5
 70
     1
102
RTVSPropertyOp6
 70
     1
102
RTVSPropertyOp7
 70
     1
102
RTVSPropertyOp8
 70
     1
102
RTVSPropertyOp9
 70
     1
102
RTVSPropertyOp10
 70
     1
102
RTVSPropertyOp11
 70
     1
102
RTVSPropertyOp12
 70
     1
102
RTVSPropertyOp13
 70
     1
102
RTVSPropertyOp14
 70
     1
102
RTVSPropertyOp15
 70
     1
102
RTVSPropertyOp16
 70
     1
102
RTVSPropertyOp17
 70
     1
102
RTVSPropertyOp18
 70
     1
102
RTVSPropertyOp19
 70
     1
102
RTVSPropertyOp20
 70
     1
102
RTVSPropertyOp21
 70
     1
102
RTVSPropertyOp22
 70
     1
102
RTVSPropertyOp23
 70
     1
102
RTVSPropertyOp24
 70
     1
102
RTVSPropertyOp25
 70
     1
102
RTVSPropertyOp26
 70
     1
102
RTVSPropertyOp27
 70
     1
102
RTVSPropertyOp28
 70
     1
102
RTVSPropertyOp29
 70
     1
102
RTVSPropertyOp30
 70
     1
102
RTVSPropertyOp31
 70
     1
102
RTVSPropertyOp32
 70
     1
  0
ENDSEC
  0
EOF
